  0
SECTION
  2
HEADER
  9
$ACADVER
  1
AC1018
  9
$ACADMAINTVER
 70
     0
  9
$DWGCODEPAGE
  3
ANSI_1252
  9
$LASTSAVEDBY
  1
CyberSufi
  9
$INSBASE
 10
0.0
 20
0.0
 30
0.0
  9
$EXTMIN
 10
-77.4304681660294
 20
-906.9422095483787
 30
0.0
  9
$EXTMAX
 10
507.1774262936754
 20
-158.2863079865
 30
0.0
  9
$LIMMIN
 10
0.0
 20
0.0
  9
$LIMMAX
 10
420.0
 20
297.0
  9
$ORTHOMODE
 70
     1
  9
$REGENMODE
 70
     1
  9
$FILLMODE
 70
     1
  9
$QTEXTMODE
 70
     0
  9
$MIRRTEXT
 70
     1
  9
$LTSCALE
 40
1.0
  9
$ATTMODE
 70
     1
  9
$TEXTSIZE
 40
3.5
  9
$TRACEWID
 40
1.0
  9
$TEXTSTYLE
  7
Standard
  9
$CLAYER
  8
0
  9
$CELTYPE
  6
ByLayer
  9
$CECOLOR
 62
   256
  9
$CELTSCALE
 40
1.0
  9
$DISPSILH
 70
     0
  9
$DIMSCALE
 40
1.0
  9
$DIMASZ
 40
3.302
  9
$DIMEXO
 40
1.0
  9
$DIMDLI
 40
3.75
  9
$DIMRND
 40
0.0
  9
$DIMDLE
 40
0.0
  9
$DIMEXE
 40
1.0
  9
$DIMTP
 40
0.0
  9
$DIMTM
 40
0.0
  9
$DIMTXT
 40
3.5
  9
$DIMCEN
 40
2.5
  9
$DIMTSZ
 40
0.0
  9
$DIMTOL
 70
     0
  9
$DIMLIM
 70
     0
  9
$DIMTIH
 70
     1
  9
$DIMTOH
 70
     1
  9
$DIMSE1
 70
     0
  9
$DIMSE2
 70
     0
  9
$DIMTAD
 70
     1
  9
$DIMZIN
 70
     0
  9
$DIMBLK
  1

  9
$DIMASO
 70
     1
  9
$DIMSHO
 70
     1
  9
$DIMPOST
  1

  9
$DIMAPOST
  1

  9
$DIMALT
 70
     0
  9
$DIMALTD
 70
     3
  9
$DIMALTF
 40
0.0393700787
  9
$DIMLFAC
 40
1.0
  9
$DIMTOFL
 70
     1
  9
$DIMTVP
 40
0.0
  9
$DIMTIX
 70
     0
  9
$DIMSOXD
 70
     0
  9
$DIMSAH
 70
     0
  9
$DIMBLK1
  1

  9
$DIMBLK2
  1

  9
$DIMSTYLE
  2
ISO-25
  9
$DIMCLRD
 70
     0
  9
$DIMCLRE
 70
     0
  9
$DIMCLRT
 70
     0
  9
$DIMTFAC
 40
1.0
  9
$DIMGAP
 40
1.524
  9
$DIMJUST
 70
     0
  9
$DIMSD1
 70
     0
  9
$DIMSD2
 70
     0
  9
$DIMTOLJ
 70
     0
  9
$DIMTZIN
 70
     0
  9
$DIMALTZ
 70
     0
  9
$DIMALTTZ
 70
     0
  9
$DIMUPT
 70
     0
  9
$DIMDEC
 70
     2
  9
$DIMTDEC
 70
     2
  9
$DIMALTU
 70
     2
  9
$DIMALTTD
 70
     3
  9
$DIMTXSTY
  7
Standard
  9
$DIMAUNIT
 70
     0
  9
$DIMADEC
 70
     2
  9
$DIMALTRND
 40
0.0
  9
$DIMAZIN
 70
     0
  9
$DIMDSEP
 70
    44
  9
$DIMATFIT
 70
     3
  9
$DIMFRAC
 70
     0
  9
$DIMLDRBLK
  1

  9
$DIMLUNIT
 70
     2
  9
$DIMLWD
 70
    -2
  9
$DIMLWE
 70
    -2
  9
$DIMTMOVE
 70
     0
  9
$LUNITS
 70
     2
  9
$LUPREC
 70
     2
  9
$SKETCHINC
 40
1.0
  9
$FILLETRAD
 40
10.0
  9
$AUNITS
 70
     0
  9
$AUPREC
 70
     2
  9
$MENU
  1
.
  9
$ELEVATION
 40
0.0
  9
$PELEVATION
 40
0.0
  9
$THICKNESS
 40
0.0
  9
$LIMCHECK
 70
     0
  9
$CHAMFERA
 40
10.0
  9
$CHAMFERB
 40
10.0
  9
$CHAMFERC
 40
20.0
  9
$CHAMFERD
 40
0.0
  9
$SKPOLY
 70
     0
  9
$TDCREATE
 40
2456271.835792512
  9
$TDUCREATE
 40
2456271.544125845
  9
$TDUPDATE
 40
2456271.857838021
  9
$TDUUPDATE
 40
2456271.566171354
  9
$TDINDWG
 40
0.0019334954
  9
$TDUSRTIMER
 40
2456271.565507488
  9
$USRTIMER
 70
     1
  9
$ANGBASE
 50
0.0
  9
$ANGDIR
 70
     0
  9
$PDMODE
 70
     0
  9
$PDSIZE
 40
-1.0
  9
$PLINEWID
 40
0.0
  9
$SPLFRAME
 70
     0
  9
$SPLINETYPE
 70
     6
  9
$SPLINESEGS
 70
     8
  9
$HANDSEED
  5
94E
  9
$SURFTAB1
 70
     6
  9
$SURFTAB2
 70
     6
  9
$SURFTYPE
 70
     6
  9
$SURFU
 70
     6
  9
$SURFV
 70
     6
  9
$UCSBASE
  2

  9
$UCSNAME
  2

  9
$UCSORG
 10
0.0
 20
0.0
 30
0.0
  9
$UCSXDIR
 10
1.0
 20
0.0
 30
0.0
  9
$UCSYDIR
 10
0.0
 20
1.0
 30
0.0
  9
$UCSORTHOREF
  2

  9
$UCSORTHOVIEW
 70
     0
  9
$UCSORGTOP
 10
0.0
 20
0.0
 30
0.0
  9
$UCSORGBOTTOM
 10
0.0
 20
0.0
 30
0.0
  9
$UCSORGLEFT
 10
0.0
 20
0.0
 30
0.0
  9
$UCSORGRIGHT
 10
0.0
 20
0.0
 30
0.0
  9
$UCSORGFRONT
 10
0.0
 20
0.0
 30
0.0
  9
$UCSORGBACK
 10
0.0
 20
0.0
 30
0.0
  9
$PUCSBASE
  2

  9
$PUCSNAME
  2

  9
$PUCSORG
 10
0.0
 20
0.0
 30
0.0
  9
$PUCSXDIR
 10
1.0
 20
0.0
 30
0.0
  9
$PUCSYDIR
 10
0.0
 20
1.0
 30
0.0
  9
$PUCSORTHOREF
  2

  9
$PUCSORTHOVIEW
 70
     0
  9
$PUCSORGTOP
 10
0.0
 20
0.0
 30
0.0
  9
$PUCSORGBOTTOM
 10
0.0
 20
0.0
 30
0.0
  9
$PUCSORGLEFT
 10
0.0
 20
0.0
 30
0.0
  9
$PUCSORGRIGHT
 10
0.0
 20
0.0
 30
0.0
  9
$PUCSORGFRONT
 10
0.0
 20
0.0
 30
0.0
  9
$PUCSORGBACK
 10
0.0
 20
0.0
 30
0.0
  9
$USERI1
 70
     0
  9
$USERI2
 70
     0
  9
$USERI3
 70
     0
  9
$USERI4
 70
     0
  9
$USERI5
 70
     0
  9
$USERR1
 40
0.0
  9
$USERR2
 40
0.0
  9
$USERR3
 40
0.0
  9
$USERR4
 40
0.0
  9
$USERR5
 40
0.0
  9
$WORLDVIEW
 70
     1
  9
$SHADEDGE
 70
     3
  9
$SHADEDIF
 70
    70
  9
$TILEMODE
 70
     1
  9
$MAXACTVP
 70
    64
  9
$PINSBASE
 10
0.0
 20
0.0
 30
0.0
  9
$PLIMCHECK
 70
     0
  9
$PEXTMIN
 10
1.000000000000000E+20
 20
1.000000000000000E+20
 30
1.000000000000000E+20
  9
$PEXTMAX
 10
-1.000000000000000E+20
 20
-1.000000000000000E+20
 30
-1.000000000000000E+20
  9
$PLIMMIN
 10
0.0
 20
0.0
  9
$PLIMMAX
 10
0.0
 20
0.0
  9
$UNITMODE
 70
     0
  9
$VISRETAIN
 70
     1
  9
$PLINEGEN
 70
     0
  9
$PSLTSCALE
 70
     1
  9
$TREEDEPTH
 70
  3020
  9
$CMLSTYLE
  2
Standard
  9
$CMLJUST
 70
     0
  9
$CMLSCALE
 40
20.0
  9
$PROXYGRAPHICS
 70
     1
  9
$MEASUREMENT
 70
     1
  9
$CELWEIGHT
370
    -1
  9
$ENDCAPS
280
     0
  9
$JOINSTYLE
280
     0
  9
$LWDISPLAY
290
     1
  9
$INSUNITS
 70
     4
  9
$HYPERLINKBASE
  1

  9
$STYLESHEET
  1

  9
$XEDIT
290
     1
  9
$CEPSNTYPE
380
     0
  9
$PSTYLEMODE
290
     1
  9
$FINGERPRINTGUID
  2
{43742C75-7080-44FC-852A-9B2A0BDE7552}
  9
$VERSIONGUID
  2
{FAEB1C32-E019-11D5-929B-00C0DF256EC4}
  9
$EXTNAMES
290
     1
  9
$PSVPSCALE
 40
0.0
  9
$OLESTARTUP
290
     0
  9
$SORTENTS
280
   127
  9
$INDEXCTL
280
     0
  9
$HIDETEXT
280
     1
  9
$XCLIPFRAME
290
     0
  9
$HALOGAP
280
     0
  9
$OBSCOLOR
 70
   257
  9
$OBSLTYPE
280
     0
  9
$INTERSECTIONDISPLAY
280
     0
  9
$INTERSECTIONCOLOR
 70
   257
  9
$DIMASSOC
280
     2
  9
$PROJECTNAME
  1

  0
ENDSEC
  0
SECTION
  2
CLASSES
  0
CLASS
  1
ACDBDICTIONARYWDFLT
  2
AcDbDictionaryWithDefault
  3
ObjectDBX Classes
 90
        0
 91
        4
280
     0
281
     0
  0
CLASS
  1
VISUALSTYLE
  2
AcDbVisualStyle
  3
ObjectDBX Classes
 90
     4095
 91
        4
280
     0
281
     0
  0
CLASS
  1
MATERIAL
  2
AcDbMaterial
  3
ObjectDBX Classes
 90
     1153
 91
        4
280
     0
281
     0
  0
CLASS
  1
ACDBPLACEHOLDER
  2
AcDbPlaceHolder
  3
ObjectDBX Classes
 90
        0
 91
        1
280
     0
281
     0
  0
CLASS
  1
LAYOUT
  2
AcDbLayout
  3
ObjectDBX Classes
 90
        0
 91
        1
280
     0
281
     0
  0
CLASS
  1
SCALE
  2
AcDbScale
  3
ObjectDBX Classes
 90
     1153
 91
        4
280
     0
281
     0
  0
CLASS
  1
TABLESTYLE
  2
AcDbTableStyle
  3
ObjectDBX Classes
 90
     4095
 91
        4
280
     0
281
     0
  0
CLASS
  1
RASTERVARIABLES
  2
AcDbRasterVariables
  3
ISM
 90
        0
 91
        4
280
     0
281
     0
  0
CLASS
  1
DICTIONARYVAR
  2
AcDbDictionaryVar
  3
ObjectDBX Classes
 90
        0
 91
        4
280
     0
281
     0
  0
CLASS
  1
CELLSTYLEMAP
  2
AcDbCellStyleMap
  3
ObjectDBX Classes
 90
     1152
 91
        4
280
     0
281
     0
  0
ENDSEC
  0
SECTION
  2
TABLES
  0
TABLE
  2
VPORT
  5
8
330
0
100
AcDbSymbolTable
 70
     1
  0
VPORT
  5
29
330
8
100
AcDbSymbolTableRecord
100
AcDbViewportTableRecord
  2
*Active
 70
     0
 10
0.0
 20
0.0
 11
1.0
 21
1.0
 12
311.7949475904553
 22
-417.4140358376358
 13
0.0
 23
0.0
 14
10.0
 24
10.0
 15
10.0
 25
10.0
 16
0.0
 26
0.0
 36
1.0
 17
0.0
 27
0.0
 37
0.0
 40
994.0261195079831
 41
1.455197132616487
 42
50.0
 43
0.0
 44
0.0
 50
0.0
 51
0.0
 71
    16
 72
   100
 73
     1
 74
     3
 75
     0
 76
     0
 77
     0
 78
     0
281
     0
 65
     1
110
0.0
120
0.0
130
0.0
111
1.0
121
0.0
131
0.0
112
0.0
122
1.0
132
0.0
 79
     0
146
0.0
  0
ENDTAB
  0
TABLE
  2
LTYPE
  5
5
330
0
100
AcDbSymbolTable
 70
     6
  0
LTYPE
  5
14
330
5
100
AcDbSymbolTableRecord
100
AcDbLinetypeTableRecord
  2
ByBlock
 70
     0
  3

 72
    65
 73
     0
 40
0.0
  0
LTYPE
  5
15
330
5
100
AcDbSymbolTableRecord
100
AcDbLinetypeTableRecord
  2
ByLayer
 70
     0
  3

 72
    65
 73
     0
 40
0.0
  0
LTYPE
  5
16
330
5
100
AcDbSymbolTableRecord
100
AcDbLinetypeTableRecord
  2
Continuous
 70
     0
  3
Solid line
 72
    65
 73
     0
 40
0.0
  0
LTYPE
  5
3F
330
5
100
AcDbSymbolTableRecord
100
AcDbLinetypeTableRecord
  2
HIDDEN
 70
     0
  3
Hidden __ __ __ __ __ __ __ __ __ __ __ __ __ __
 72
    65
 73
     2
 40
1.905
 49
1.27
 74
     0
 49
-0.635
 74
     0
  0
LTYPE
  5
40
330
5
100
AcDbSymbolTableRecord
100
AcDbLinetypeTableRecord
  2
PHANTOM
 70
     0
  3
Phantom ______  __  __  ______  __  __  ______
 72
    65
 73
     6
 40
12.7
 49
6.35
 74
     0
 49
-1.27
 74
     0
 49
1.27
 74
     0
 49
-1.27
 74
     0
 49
1.27
 74
     0
 49
-1.27
 74
     0
  0
LTYPE
  5
41
330
5
100
AcDbSymbolTableRecord
100
AcDbLinetypeTableRecord
  2
CENTER
 70
     0
  3
Center ____ _ ____ _ ____ _ ____ _ ____ _ ____
 72
    65
 73
     4
 40
10.16
 49
6.35
 74
     0
 49
-1.27
 74
     0
 49
1.27
 74
     0
 49
-1.27
 74
     0
  0
LTYPE
  5
42
330
5
100
AcDbSymbolTableRecord
100
AcDbLinetypeTableRecord
  2
CENTERX2
 70
     0
  3
Center (2x) ________  __  ________  __  _____
 72
    65
 73
     4
 40
20.32
 49
12.7
 74
     0
 49
-2.54
 74
     0
 49
2.54
 74
     0
 49
-2.54
 74
     0
  0
LTYPE
  5
43
330
5
100
AcDbSymbolTableRecord
100
AcDbLinetypeTableRecord
  2
DOT2
 70
     0
  3
Dot (.5x) ........................................
 72
    65
 73
     2
 40
0.635
 49
0.0
 74
     0
 49
-0.635
 74
     0
  0
ENDTAB
  0
TABLE
  2
LAYER
  5
2
330
0
100
AcDbSymbolTable
 70
     1
  0
LAYER
  5
10
330
2
100
AcDbSymbolTableRecord
100
AcDbLayerTableRecord
  2
0
 70
     0
 62
     7
  6
Continuous
370
    -3
390
F
  0
ENDTAB
  0
TABLE
  2
STYLE
  5
3
330
0
100
AcDbSymbolTable
 70
     1
  0
STYLE
  5
11
330
3
100
AcDbSymbolTableRecord
100
AcDbTextStyleTableRecord
  2
Standard
 70
     0
 40
0.0
 41
1.0
 50
0.0
 71
     0
 42
3.5
  3
txt
  4

  0
ENDTAB
  0
TABLE
  2
VIEW
  5
6
330
0
100
AcDbSymbolTable
 70
     0
  0
ENDTAB
  0
TABLE
  2
UCS
  5
7
330
0
100
AcDbSymbolTable
 70
     0
  0
ENDTAB
  0
TABLE
  2
APPID
  5
9
330
0
100
AcDbSymbolTable
 70
     1
  0
APPID
  5
12
330
9
100
AcDbSymbolTableRecord
100
AcDbRegAppTableRecord
  2
ACAD
 70
     0
  0
ENDTAB
  0
TABLE
  2
DIMSTYLE
  5
A
330
0
100
AcDbSymbolTable
 70
     1
100
AcDbDimStyleTable
  0
DIMSTYLE
105
27
330
A
100
AcDbSymbolTableRecord
100
AcDbDimStyleTableRecord
  2
ISO-25
 70
     0
 41
2.5
 42
0.625
 43
3.75
 44
1.25
 73
     0
 74
     0
 77
     1
 78
     8
140
2.5
141
2.5
143
0.0393700787
147
0.625
171
     3
172
     1
178
     0
271
     2
272
     2
274
     3
278
    44
283
     0
284
     8
340
11
  0
ENDTAB
  0
TABLE
  2
BLOCK_RECORD
  5
1
330
0
100
AcDbSymbolTable
 70
    30
  0
BLOCK_RECORD
  5
1F
330
1
100
AcDbSymbolTableRecord
100
AcDbBlockTableRecord
  2
*Model_Space
340
22
  0
BLOCK_RECORD
  5
1B
330
1
100
AcDbSymbolTableRecord
100
AcDbBlockTableRecord
  2
*Paper_Space
340
1E
  0
BLOCK_RECORD
  5
23
330
1
100
AcDbSymbolTableRecord
100
AcDbBlockTableRecord
  2
*Paper_Space0
340
26
  0
ENDTAB
  0
ENDSEC
  0
SECTION
  2
BLOCKS
  0
BLOCK
  5
20
330
1F
100
AcDbEntity
  8
0
100
AcDbBlockBegin
  2
*Model_Space
 70
     0
 10
0.0
 20
0.0
 30
0.0
  3
*Model_Space
  1

  0
ENDBLK
  5
21
330
1F
100
AcDbEntity
  8
0
100
AcDbBlockEnd
  0
BLOCK
  5
1C
330
1B
100
AcDbEntity
 67
     1
  8
0
100
AcDbBlockBegin
  2
*Paper_Space
 70
     0
 10
0.0
 20
0.0
 30
0.0
  3
*Paper_Space
  1

  0
ENDBLK
  5
1D
330
1B
100
AcDbEntity
 67
     1
  8
0
100
AcDbBlockEnd
  0
BLOCK
  5
24
330
23
100
AcDbEntity
  8
0
100
AcDbBlockBegin
  2
*Paper_Space0
 70
     0
 10
0.0
 20
0.0
 30
0.0
  3
*Paper_Space0
  1

  0
ENDBLK
  5
25
330
23
100
AcDbEntity
  8
0
100
AcDbBlockEnd
  0
ENDSEC
  0
SECTION
  2
ENTITIES
  0
LINE
  5
44
330
1F
100
AcDbEntity
  8
0
  6
Continuous
 62
     5
370
    15
100
AcDbLine
 10
172.0
 20
-168.2863079865
 30
0.0
 11
168.0
 21
-168.2863079865
 31
0.0
  0
LINE
  5
45
330
1F
100
AcDbEntity
  8
0
  6
Continuous
 62
     5
370
    15
100
AcDbLine
 10
168.0
 20
-158.2863079865
 30
0.0
 11
168.0
 21
-168.2863079865
 31
0.0
  0
LINE
  5
46
330
1F
100
AcDbEntity
  8
0
  6
Continuous
 62
     5
370
    15
100
AcDbLine
 10
168.0
 20
-158.2863079865
 30
0.0
 11
2.0
 21
-158.2863079865
 31
0.0
  0
LINE
  5
47
330
1F
100
AcDbEntity
  8
0
  6
Continuous
 62
     5
370
    15
100
AcDbLine
 10
2.0
 20
-158.2863079865
 30
0.0
 11
2.0
 21
-168.2863079865
 31
0.0
  0
LINE
  5
48
330
1F
100
AcDbEntity
  8
0
  6
Continuous
 62
     5
370
    15
100
AcDbLine
 10
2.0
 20
-168.2863079865
 30
0.0
 11
-2.0
 21
-168.2863079865
 31
0.0
  0
LINE
  5
49
330
1F
100
AcDbEntity
  8
0
  6
Continuous
 62
     5
370
    15
100
AcDbLine
 10
-2.0
 20
-158.2863079865
 30
0.0
 11
-2.0
 21
-168.2863079865
 31
0.0
  0
LINE
  5
4A
330
1F
100
AcDbEntity
  8
0
  6
Continuous
 62
     5
370
    15
100
AcDbLine
 10
-2.0
 20
-158.2863079865
 30
0.0
 11
-17.2506544547
 21
-158.2863079865
 31
0.0
  0
ARC
  5
4B
330
1F
100
AcDbEntity
  8
0
  6
Continuous
 62
     5
370
    15
100
AcDbCircle
 10
-17.2506544547
 20
-211.2863079865
 30
0.0
 40
53.00000000000001
100
AcDbArc
 50
90.0
 51
150.6465299452
  0
ARC
  5
4C
330
1F
100
AcDbEntity
  8
0
  6
Continuous
 62
     5
370
    15
100
AcDbCircle
 10
-61.7028759965
 20
-186.2863079865
 30
0.0
 40
2.000000000000015
100
AcDbArc
 50
150.6465299452
 51
270.0
  0
LINE
  5
4D
330
1F
100
AcDbEntity
  8
0
  6
Continuous
 62
     5
370
    15
100
AcDbLine
 10
-61.7028759965
 20
-188.2863079865
 30
0.0
 11
-41.0
 21
-188.2863079865
 31
0.0
  0
ARC
  5
4E
330
1F
100
AcDbEntity
  8
0
  6
Continuous
 62
     5
370
    15
100
AcDbCircle
 10
-25.0
 20
-200.2863079865
 30
0.0
 40
20.00000000000003
100
AcDbArc
 50
90.0
 51
143.1301023542
  0
LINE
  5
4F
330
1F
100
AcDbEntity
  8
0
  6
Continuous
 62
     5
370
    15
100
AcDbLine
 10
-25.0
 20
-180.2863079865
 30
0.0
 11
195.0
 21
-180.2863079865
 31
0.0
  0
ARC
  5
50
330
1F
100
AcDbEntity
  8
0
  6
Continuous
 62
     5
370
    15
100
AcDbCircle
 10
195.0
 20
-200.2863079865
 30
0.0
 40
20.00000000000003
100
AcDbArc
 50
36.8698976458
 51
90.0
  0
LINE
  5
51
330
1F
100
AcDbEntity
  8
0
  6
Continuous
 62
     5
370
    15
100
AcDbLine
 10
211.0
 20
-188.2863079865
 30
0.0
 11
231.7028759965
 21
-188.2863079865
 31
0.0
  0
ARC
  5
52
330
1F
100
AcDbEntity
  8
0
  6
Continuous
 62
     5
370
    15
100
AcDbCircle
 10
231.7028759965
 20
-186.2863079865
 30
0.0
 40
2.0
100
AcDbArc
 50
270.0
 51
29.3534700548
  0
ARC
  5
53
330
1F
100
AcDbEntity
  8
0
  6
Continuous
 62
     5
370
    15
100
AcDbCircle
 10
187.2506544547
 20
-211.2863079865
 30
0.0
 40
53.00000000000001
100
AcDbArc
 50
29.3534700548
 51
90.0
  0
LINE
  5
54
330
1F
100
AcDbEntity
  8
0
  6
Continuous
 62
     5
370
    15
100
AcDbLine
 10
187.2506544547
 20
-158.2863079865
 30
0.0
 11
172.0
 21
-158.2863079865
 31
0.0
  0
LINE
  5
55
330
1F
100
AcDbEntity
  8
0
  6
Continuous
 62
     5
370
    15
100
AcDbLine
 10
172.0
 20
-158.2863079865
 30
0.0
 11
172.0
 21
-168.2863079865
 31
0.0
  0
ARC
  5
56
330
1F
100
AcDbEntity
  8
0
  6
Continuous
 62
     5
370
    15
100
AcDbCircle
 10
25.0
 20
-169.2863079865
 30
0.0
 40
3.0
100
AcDbArc
 50
90.0
 51
270.0
  0
LINE
  5
57
330
1F
100
AcDbEntity
  8
0
  6
Continuous
 62
     5
370
    15
100
AcDbLine
 10
25.0
 20
-166.2863079865
 30
0.0
 11
145.0
 21
-166.2863079865
 31
0.0
  0
ARC
  5
58
330
1F
100
AcDbEntity
  8
0
  6
Continuous
 62
     5
370
    15
100
AcDbCircle
 10
145.0
 20
-169.2863079865
 30
0.0
 40
3.0
100
AcDbArc
 50
270.0
 51
90.0
  0
LINE
  5
59
330
1F
100
AcDbEntity
  8
0
  6
Continuous
 62
     5
370
    15
100
AcDbLine
 10
145.0
 20
-172.2863079865
 30
0.0
 11
25.0
 21
-172.2863079865
 31
0.0
  0
LINE
  5
95
330
1F
100
AcDbEntity
  8
0
  6
Continuous
 62
     5
370
    15
100
AcDbLine
 10
172.0
 20
-202.090262798408
 30
0.0
 11
168.0
 21
-202.090262798408
 31
0.0
  0
LINE
  5
96
330
1F
100
AcDbEntity
  8
0
  6
Continuous
 62
     5
370
    15
100
AcDbLine
 10
168.0
 20
-192.090262798408
 30
0.0
 11
168.0
 21
-202.090262798408
 31
0.0
  0
LINE
  5
97
330
1F
100
AcDbEntity
  8
0
  6
Continuous
 62
     5
370
    15
100
AcDbLine
 10
168.0
 20
-192.090262798408
 30
0.0
 11
2.0
 21
-192.090262798408
 31
0.0
  0
LINE
  5
98
330
1F
100
AcDbEntity
  8
0
  6
Continuous
 62
     5
370
    15
100
AcDbLine
 10
2.0
 20
-192.090262798408
 30
0.0
 11
2.0
 21
-202.090262798408
 31
0.0
  0
LINE
  5
99
330
1F
100
AcDbEntity
  8
0
  6
Continuous
 62
     5
370
    15
100
AcDbLine
 10
2.0
 20
-202.090262798408
 30
0.0
 11
-2.0
 21
-202.090262798408
 31
0.0
  0
LINE
  5
9A
330
1F
100
AcDbEntity
  8
0
  6
Continuous
 62
     5
370
    15
100
AcDbLine
 10
-2.0
 20
-192.090262798408
 30
0.0
 11
-2.0
 21
-202.090262798408
 31
0.0
  0
LINE
  5
9B
330
1F
100
AcDbEntity
  8
0
  6
Continuous
 62
     5
370
    15
100
AcDbLine
 10
-2.0
 20
-192.090262798408
 30
0.0
 11
-17.2506544547
 21
-192.090262798408
 31
0.0
  0
ARC
  5
9C
330
1F
100
AcDbEntity
  8
0
  6
Continuous
 62
     5
370
    15
100
AcDbCircle
 10
-17.2506544547
 20
-245.090262798408
 30
0.0
 40
53.00000000000001
100
AcDbArc
 50
90.0
 51
150.6465299452
  0
ARC
  5
9D
330
1F
100
AcDbEntity
  8
0
  6
Continuous
 62
     5
370
    15
100
AcDbCircle
 10
-61.7028759965
 20
-220.090262798408
 30
0.0
 40
2.000000000000015
100
AcDbArc
 50
150.6465299452
 51
270.0
  0
LINE
  5
9E
330
1F
100
AcDbEntity
  8
0
  6
Continuous
 62
     5
370
    15
100
AcDbLine
 10
-61.7028759965
 20
-222.090262798408
 30
0.0
 11
-41.0
 21
-222.090262798408
 31
0.0
  0
ARC
  5
9F
330
1F
100
AcDbEntity
  8
0
  6
Continuous
 62
     5
370
    15
100
AcDbCircle
 10
-25.0
 20
-234.090262798408
 30
0.0
 40
20.00000000000003
100
AcDbArc
 50
90.0
 51
143.1301023542
  0
LINE
  5
A0
330
1F
100
AcDbEntity
  8
0
  6
Continuous
 62
     5
370
    15
100
AcDbLine
 10
-25.0
 20
-214.090262798408
 30
0.0
 11
195.0
 21
-214.090262798408
 31
0.0
  0
ARC
  5
A1
330
1F
100
AcDbEntity
  8
0
  6
Continuous
 62
     5
370
    15
100
AcDbCircle
 10
195.0
 20
-234.090262798408
 30
0.0
 40
20.00000000000003
100
AcDbArc
 50
36.8698976458
 51
90.0
  0
LINE
  5
A2
330
1F
100
AcDbEntity
  8
0
  6
Continuous
 62
     5
370
    15
100
AcDbLine
 10
211.0
 20
-222.090262798408
 30
0.0
 11
231.7028759965
 21
-222.090262798408
 31
0.0
  0
ARC
  5
A3
330
1F
100
AcDbEntity
  8
0
  6
Continuous
 62
     5
370
    15
100
AcDbCircle
 10
231.7028759965
 20
-220.090262798408
 30
0.0
 40
2.0
100
AcDbArc
 50
270.0
 51
29.35347005480033
  0
ARC
  5
A4
330
1F
100
AcDbEntity
  8
0
  6
Continuous
 62
     5
370
    15
100
AcDbCircle
 10
187.2506544547
 20
-245.090262798408
 30
0.0
 40
53.00000000000001
100
AcDbArc
 50
29.35347005480001
 51
90.0
  0
LINE
  5
A5
330
1F
100
AcDbEntity
  8
0
  6
Continuous
 62
     5
370
    15
100
AcDbLine
 10
187.2506544547
 20
-192.090262798408
 30
0.0
 11
172.0
 21
-192.090262798408
 31
0.0
  0
LINE
  5
A6
330
1F
100
AcDbEntity
  8
0
  6
Continuous
 62
     5
370
    15
100
AcDbLine
 10
172.0
 20
-192.090262798408
 30
0.0
 11
172.0
 21
-202.090262798408
 31
0.0
  0
ARC
  5
A7
330
1F
100
AcDbEntity
  8
0
  6
Continuous
 62
     5
370
    15
100
AcDbCircle
 10
25.0
 20
-203.090262798408
 30
0.0
 40
3.0
100
AcDbArc
 50
90.0
 51
270.0
  0
LINE
  5
A8
330
1F
100
AcDbEntity
  8
0
  6
Continuous
 62
     5
370
    15
100
AcDbLine
 10
25.0
 20
-200.090262798408
 30
0.0
 11
145.0
 21
-200.090262798408
 31
0.0
  0
ARC
  5
A9
330
1F
100
AcDbEntity
  8
0
  6
Continuous
 62
     5
370
    15
100
AcDbCircle
 10
145.0
 20
-203.090262798408
 30
0.0
 40
3.0
100
AcDbArc
 50
270.0
 51
90.0
  0
LINE
  5
AA
330
1F
100
AcDbEntity
  8
0
  6
Continuous
 62
     5
370
    15
100
AcDbLine
 10
145.0
 20
-206.090262798408
 30
0.0
 11
25.0
 21
-206.090262798408
 31
0.0
  0
LINE
  5
DF
330
1F
100
AcDbEntity
  8
0
  6
Continuous
 62
     5
370
    15
100
AcDbLine
 10
393.0117026330314
 20
-178.0583883483665
 30
0.0
 11
393.0117026330314
 21
-168.0583883483665
 31
0.0
  0
LINE
  5
E0
330
1F
100
AcDbEntity
  8
0
  6
Continuous
 62
     5
370
    15
100
AcDbLine
 10
393.0117026330314
 20
-178.0583883483665
 30
0.0
 11
389.0117026330314
 21
-178.0583883483665
 31
0.0
  0
LINE
  5
E1
330
1F
100
AcDbEntity
  8
0
  6
Continuous
 62
     5
370
    15
100
AcDbLine
 10
389.0117026330314
 20
-178.0583883483665
 30
0.0
 11
389.0117026330314
 21
-168.0583883483665
 31
0.0
  0
LINE
  5
E2
330
1F
100
AcDbEntity
  8
0
  6
Continuous
 62
     5
370
    15
100
AcDbLine
 10
389.0117026330314
 20
-168.0583883483665
 30
0.0
 11
343.0117026330314
 21
-168.0583883483665
 31
0.0
  0
LINE
  5
E3
330
1F
100
AcDbEntity
  8
0
  6
Continuous
 62
     5
370
    15
100
AcDbLine
 10
343.0117026330314
 20
-168.0583883483665
 30
0.0
 11
343.0117026330314
 21
-188.0583883483665
 31
0.0
  0
LINE
  5
E4
330
1F
100
AcDbEntity
  8
0
  6
Continuous
 62
     5
370
    15
100
AcDbLine
 10
343.0117026330314
 20
-188.0583883483665
 30
0.0
 11
348.0117026330314
 21
-188.0583883483665
 31
0.0
  0
LINE
  5
E5
330
1F
100
AcDbEntity
  8
0
  6
Continuous
 62
     5
370
    15
100
AcDbLine
 10
348.0117026330314
 20
-178.0583883483665
 30
0.0
 11
348.0117026330314
 21
-188.0583883483665
 31
0.0
  0
LINE
  5
E6
330
1F
100
AcDbEntity
  8
0
  6
Continuous
 62
     5
370
    15
100
AcDbLine
 10
352.0117026330314
 20
-178.0583883483665
 30
0.0
 11
348.0117026330314
 21
-178.0583883483665
 31
0.0
  0
LINE
  5
E7
330
1F
100
AcDbEntity
  8
0
  6
Continuous
 62
     5
370
    15
100
AcDbLine
 10
352.0117026330314
 20
-188.0583883483665
 30
0.0
 11
352.0117026330314
 21
-178.0583883483665
 31
0.0
  0
LINE
  5
E8
330
1F
100
AcDbEntity
  8
0
  6
Continuous
 62
     5
370
    15
100
AcDbLine
 10
352.0117026330314
 20
-188.0583883483665
 30
0.0
 11
454.0117026330314
 21
-188.0583883483665
 31
0.0
  0
LINE
  5
E9
330
1F
100
AcDbEntity
  8
0
  6
Continuous
 62
     5
370
    15
100
AcDbLine
 10
454.0117026330314
 20
-178.0583883483665
 30
0.0
 11
454.0117026330314
 21
-188.0583883483665
 31
0.0
  0
LINE
  5
EA
330
1F
100
AcDbEntity
  8
0
  6
Continuous
 62
     5
370
    15
100
AcDbLine
 10
458.0117026330314
 20
-178.0583883483665
 30
0.0
 11
454.0117026330314
 21
-178.0583883483665
 31
0.0
  0
LINE
  5
EB
330
1F
100
AcDbEntity
  8
0
  6
Continuous
 62
     5
370
    15
100
AcDbLine
 10
458.0117026330314
 20
-188.0583883483665
 30
0.0
 11
458.0117026330314
 21
-178.0583883483665
 31
0.0
  0
LINE
  5
EC
330
1F
100
AcDbEntity
  8
0
  6
Continuous
 62
     5
370
    15
100
AcDbLine
 10
458.0117026330314
 20
-188.0583883483665
 30
0.0
 11
463.0117026330314
 21
-188.0583883483665
 31
0.0
  0
LINE
  5
ED
330
1F
100
AcDbEntity
  8
0
  6
Continuous
 62
     5
370
    15
100
AcDbLine
 10
463.0117026330314
 20
-188.0583883483665
 30
0.0
 11
463.0117026330314
 21
-168.0583883483665
 31
0.0
  0
LINE
  5
EE
330
1F
100
AcDbEntity
  8
0
  6
Continuous
 62
     5
370
    15
100
AcDbLine
 10
463.0117026330314
 20
-168.0583883483665
 30
0.0
 11
417.0117026330314
 21
-168.0583883483665
 31
0.0
  0
LINE
  5
EF
330
1F
100
AcDbEntity
  8
0
  6
Continuous
 62
     5
370
    15
100
AcDbLine
 10
417.0117026330314
 20
-168.0583883483665
 30
0.0
 11
417.0117026330314
 21
-178.0583883483665
 31
0.0
  0
LINE
  5
F0
330
1F
100
AcDbEntity
  8
0
  6
Continuous
 62
     5
370
    15
100
AcDbLine
 10
413.0117026330314
 20
-178.0583883483665
 30
0.0
 11
417.0117026330314
 21
-178.0583883483665
 31
0.0
  0
LINE
  5
F1
330
1F
100
AcDbEntity
  8
0
  6
Continuous
 62
     5
370
    15
100
AcDbLine
 10
413.0117026330314
 20
-168.0583883483665
 30
0.0
 11
413.0117026330314
 21
-178.0583883483665
 31
0.0
  0
LINE
  5
F2
330
1F
100
AcDbEntity
  8
0
  6
Continuous
 62
     5
370
    15
100
AcDbLine
 10
413.0117026330314
 20
-168.0583883483665
 30
0.0
 11
393.0117026330314
 21
-168.0583883483665
 31
0.0
  0
LINE
  5
123
330
1F
100
AcDbEntity
  8
0
  6
Continuous
 62
     5
370
    15
100
AcDbLine
 10
388.7148011636443
 20
-207.3180281564644
 30
0.0
 11
388.7148011636443
 21
-197.3180281564644
 31
0.0
  0
LINE
  5
124
330
1F
100
AcDbEntity
  8
0
  6
Continuous
 62
     5
370
    15
100
AcDbLine
 10
388.7148011636443
 20
-207.3180281564644
 30
0.0
 11
384.7148011636443
 21
-207.3180281564644
 31
0.0
  0
LINE
  5
125
330
1F
100
AcDbEntity
  8
0
  6
Continuous
 62
     5
370
    15
100
AcDbLine
 10
384.7148011636443
 20
-207.3180281564644
 30
0.0
 11
384.7148011636443
 21
-197.3180281564644
 31
0.0
  0
LINE
  5
126
330
1F
100
AcDbEntity
  8
0
  6
Continuous
 62
     5
370
    15
100
AcDbLine
 10
384.7148011636443
 20
-197.3180281564644
 30
0.0
 11
342.7148011636443
 21
-197.3180281564644
 31
0.0
  0
LINE
  5
127
330
1F
100
AcDbEntity
  8
0
  6
Continuous
 62
     5
370
    15
100
AcDbLine
 10
342.7148011636443
 20
-197.3180281564644
 30
0.0
 11
342.7148011636443
 21
-217.3180281564644
 31
0.0
  0
LINE
  5
128
330
1F
100
AcDbEntity
  8
0
  6
Continuous
 62
     5
370
    15
100
AcDbLine
 10
342.7148011636443
 20
-217.3180281564644
 30
0.0
 11
347.7148011636443
 21
-217.3180281564644
 31
0.0
  0
LINE
  5
129
330
1F
100
AcDbEntity
  8
0
  6
Continuous
 62
     5
370
    15
100
AcDbLine
 10
347.7148011636443
 20
-207.3180281564644
 30
0.0
 11
347.7148011636443
 21
-217.3180281564644
 31
0.0
  0
LINE
  5
12A
330
1F
100
AcDbEntity
  8
0
  6
Continuous
 62
     5
370
    15
100
AcDbLine
 10
351.7148011636443
 20
-207.3180281564644
 30
0.0
 11
347.7148011636443
 21
-207.3180281564644
 31
0.0
  0
LINE
  5
12B
330
1F
100
AcDbEntity
  8
0
  6
Continuous
 62
     5
370
    15
100
AcDbLine
 10
351.7148011636443
 20
-217.3180281564644
 30
0.0
 11
351.7148011636443
 21
-207.3180281564644
 31
0.0
  0
LINE
  5
12C
330
1F
100
AcDbEntity
  8
0
  6
Continuous
 62
     5
370
    15
100
AcDbLine
 10
351.7148011636443
 20
-217.3180281564644
 30
0.0
 11
453.7148011636443
 21
-217.3180281564644
 31
0.0
  0
LINE
  5
12D
330
1F
100
AcDbEntity
  8
0
  6
Continuous
 62
     5
370
    15
100
AcDbLine
 10
453.7148011636443
 20
-207.3180281564644
 30
0.0
 11
453.7148011636443
 21
-217.3180281564644
 31
0.0
  0
LINE
  5
12E
330
1F
100
AcDbEntity
  8
0
  6
Continuous
 62
     5
370
    15
100
AcDbLine
 10
457.7148011636443
 20
-207.3180281564644
 30
0.0
 11
453.7148011636443
 21
-207.3180281564644
 31
0.0
  0
LINE
  5
12F
330
1F
100
AcDbEntity
  8
0
  6
Continuous
 62
     5
370
    15
100
AcDbLine
 10
457.7148011636443
 20
-217.3180281564644
 30
0.0
 11
457.7148011636443
 21
-207.3180281564644
 31
0.0
  0
LINE
  5
130
330
1F
100
AcDbEntity
  8
0
  6
Continuous
 62
     5
370
    15
100
AcDbLine
 10
457.7148011636443
 20
-217.3180281564644
 30
0.0
 11
462.7148011636443
 21
-217.3180281564644
 31
0.0
  0
LINE
  5
131
330
1F
100
AcDbEntity
  8
0
  6
Continuous
 62
     5
370
    15
100
AcDbLine
 10
462.7148011636443
 20
-217.3180281564644
 30
0.0
 11
462.7148011636443
 21
-197.3180281564644
 31
0.0
  0
LINE
  5
132
330
1F
100
AcDbEntity
  8
0
  6
Continuous
 62
     5
370
    15
100
AcDbLine
 10
462.7148011636443
 20
-197.3180281564644
 30
0.0
 11
416.7148011636443
 21
-197.3180281564644
 31
0.0
  0
LINE
  5
133
330
1F
100
AcDbEntity
  8
0
  6
Continuous
 62
     5
370
    15
100
AcDbLine
 10
416.7148011636443
 20
-197.3180281564644
 30
0.0
 11
416.7148011636443
 21
-207.3180281564644
 31
0.0
  0
LINE
  5
134
330
1F
100
AcDbEntity
  8
0
  6
Continuous
 62
     5
370
    15
100
AcDbLine
 10
412.7148011636443
 20
-207.3180281564644
 30
0.0
 11
416.7148011636443
 21
-207.3180281564644
 31
0.0
  0
LINE
  5
135
330
1F
100
AcDbEntity
  8
0
  6
Continuous
 62
     5
370
    15
100
AcDbLine
 10
412.7148011636443
 20
-197.3180281564644
 30
0.0
 11
412.7148011636443
 21
-207.3180281564644
 31
0.0
  0
LINE
  5
136
330
1F
100
AcDbEntity
  8
0
  6
Continuous
 62
     5
370
    15
100
AcDbLine
 10
412.7148011636443
 20
-197.3180281564644
 30
0.0
 11
388.7148011636443
 21
-197.3180281564644
 31
0.0
  0
LINE
  5
1AF
330
1F
100
AcDbEntity
  8
0
  6
Continuous
 62
     5
370
    15
100
AcDbLine
 10
356.2877044839184
 20
-292.9295668542323
 30
0.0
 11
352.2877044839184
 21
-292.9295668542323
 31
0.0
  0
LINE
  5
1B0
330
1F
100
AcDbEntity
  8
0
  6
Continuous
 62
     5
370
    15
100
AcDbLine
 10
356.2877044839184
 20
-302.9295668542323
 30
0.0
 11
356.2877044839184
 21
-292.9295668542323
 31
0.0
  0
LINE
  5
1B1
330
1F
100
AcDbEntity
  8
0
  6
Continuous
 62
     5
370
    15
100
AcDbLine
 10
356.2877044839184
 20
-302.9295668542323
 30
0.0
 11
361.7877044839184
 21
-302.9295668542323
 31
0.0
  0
LINE
  5
1B2
330
1F
100
AcDbEntity
  8
0
  6
Continuous
 62
     5
370
    15
100
AcDbLine
 10
361.7877044839184
 20
-302.9295668542323
 30
0.0
 11
361.7877044839184
 21
-237.5717024779323
 31
0.0
  0
ARC
  5
1B3
330
1F
100
AcDbEntity
  8
0
  6
Continuous
 62
     5
370
    15
100
AcDbCircle
 10
363.7877044839184
 20
-237.5717024779323
 30
0.0
 40
2.0
100
AcDbArc
 50
135.0000000000006
 51
180.0
  0
LINE
  5
1B4
330
1F
100
AcDbEntity
  8
0
  6
Continuous
 62
     5
370
    15
100
AcDbLine
 10
362.3734909215184
 20
-236.1574889156323
 30
0.0
 11
365.6014129829184
 21
-232.9295668542323
 31
0.0
  0
ARC
  5
1B5
330
1F
100
AcDbEntity
  8
0
  6
Continuous
 62
     5
370
    15
100
AcDbCircle
 10
364.1871994205184
 20
-231.5153532918324
 30
0.0
 40
2.000000000000007
100
AcDbArc
 50
315.0
 51
45.0
  0
LINE
  5
1B6
330
1F
100
AcDbEntity
  8
0
  6
Continuous
 62
     5
370
    15
100
AcDbLine
 10
365.6014129829184
 20
-230.1011397295323
 30
0.0
 11
362.7729858581184
 21
-227.2727126047324
 31
0.0
  0
ARC
  5
1B7
330
1F
100
AcDbEntity
  8
0
  6
Continuous
 62
     5
370
    15
100
AcDbCircle
 10
361.3587722958184
 20
-228.6869261671324
 30
0.0
 40
2.000000000000008
100
AcDbArc
 50
45.0
 51
135.0
  0
LINE
  5
1B8
330
1F
100
AcDbEntity
  8
0
  6
Continuous
 62
     5
370
    15
100
AcDbLine
 10
359.9445587334184
 20
-227.2727126047324
 30
0.0
 11
354.2877044839184
 21
-232.9295668542323
 31
0.0
  0
LINE
  5
1B9
330
1F
100
AcDbEntity
  8
0
  6
Continuous
 62
     5
370
    15
100
AcDbLine
 10
354.2877044839184
 20
-232.9295668542323
 30
0.0
 11
348.6308502344184
 21
-227.2727126047324
 31
0.0
  0
ARC
  5
1BA
330
1F
100
AcDbEntity
  8
0
  6
Continuous
 62
     5
370
    15
100
AcDbCircle
 10
347.2166366720184
 20
-228.6869261671324
 30
0.0
 40
2.000000000000008
100
AcDbArc
 50
45.0
 51
135.0
  0
LINE
  5
1BB
330
1F
100
AcDbEntity
  8
0
  6
Continuous
 62
     5
370
    15
100
AcDbLine
 10
345.8024231097184
 20
-227.2727126047324
 30
0.0
 11
342.9739959849184
 21
-230.1011397295323
 31
0.0
  0
ARC
  5
1BC
330
1F
100
AcDbEntity
  8
0
  6
Continuous
 62
     5
370
    15
100
AcDbCircle
 10
344.3882095473184
 20
-231.5153532918324
 30
0.0
 40
2.000000000000007
100
AcDbArc
 50
135.0
 51
225.0
  0
LINE
  5
1BD
330
1F
100
AcDbEntity
  8
0
  6
Continuous
 62
     5
370
    15
100
AcDbLine
 10
342.9739959849184
 20
-232.9295668542323
 30
0.0
 11
346.2019180463184
 21
-236.1574889156323
 31
0.0
  0
ARC
  5
1BE
330
1F
100
AcDbEntity
  8
0
  6
Continuous
 62
     5
370
    15
100
AcDbCircle
 10
344.7877044839184
 20
-237.5717024779323
 30
0.0
 40
1.999999999999999
100
AcDbArc
 50
0.0
 51
45.00000000000058
  0
LINE
  5
1BF
330
1F
100
AcDbEntity
  8
0
  6
Continuous
 62
     5
370
    15
100
AcDbLine
 10
346.7877044839184
 20
-237.5717024779323
 30
0.0
 11
346.7877044839184
 21
-302.9295668542323
 31
0.0
  0
LINE
  5
1C0
330
1F
100
AcDbEntity
  8
0
  6
Continuous
 62
     5
370
    15
100
AcDbLine
 10
346.7877044839184
 20
-302.9295668542323
 30
0.0
 11
352.2877044839184
 21
-302.9295668542323
 31
0.0
  0
LINE
  5
1C1
330
1F
100
AcDbEntity
  8
0
  6
Continuous
 62
     5
370
    15
100
AcDbLine
 10
352.2877044839184
 20
-292.9295668542323
 30
0.0
 11
352.2877044839184
 21
-302.9295668542323
 31
0.0
  0
ARC
  5
1C2
330
1F
100
AcDbEntity
  8
0
  6
Continuous
 62
     5
370
    15
100
AcDbCircle
 10
354.2877044839184
 20
-240.9295668542323
 30
0.0
 40
2.499999999999992
100
AcDbArc
 50
0.0
 51
180.0
  0
LINE
  5
1C3
330
1F
100
AcDbEntity
  8
0
  6
Continuous
 62
     5
370
    15
100
AcDbLine
 10
356.7877044839184
 20
-272.9295668542323
 30
0.0
 11
356.7877044839184
 21
-240.9295668542323
 31
0.0
  0
ARC
  5
1C4
330
1F
100
AcDbEntity
  8
0
  6
Continuous
 62
     5
370
    15
100
AcDbCircle
 10
354.2877044839184
 20
-272.9295668542323
 30
0.0
 40
2.499999999999993
100
AcDbArc
 50
180.0
 51
0.0
  0
LINE
  5
1C5
330
1F
100
AcDbEntity
  8
0
  6
Continuous
 62
     5
370
    15
100
AcDbLine
 10
351.7877044839184
 20
-240.9295668542323
 30
0.0
 11
351.7877044839184
 21
-272.9295668542323
 31
0.0
  0
LINE
  5
1C6
330
1F
100
AcDbEntity
  8
0
  6
Continuous
 62
     5
370
    15
100
AcDbLine
 10
381.6887779832258
 20
-292.9295668542323
 30
0.0
 11
377.6887779832258
 21
-292.9295668542323
 31
0.0
  0
LINE
  5
1C7
330
1F
100
AcDbEntity
  8
0
  6
Continuous
 62
     5
370
    15
100
AcDbLine
 10
381.6887779832258
 20
-302.9295668542323
 30
0.0
 11
381.6887779832258
 21
-292.9295668542323
 31
0.0
  0
LINE
  5
1C8
330
1F
100
AcDbEntity
  8
0
  6
Continuous
 62
     5
370
    15
100
AcDbLine
 10
381.6887779832258
 20
-302.9295668542323
 30
0.0
 11
387.1887779832258
 21
-302.9295668542323
 31
0.0
  0
LINE
  5
1C9
330
1F
100
AcDbEntity
  8
0
  6
Continuous
 62
     5
370
    15
100
AcDbLine
 10
387.1887779832258
 20
-302.9295668542323
 30
0.0
 11
387.1887779832258
 21
-237.5717024779323
 31
0.0
  0
ARC
  5
1CA
330
1F
100
AcDbEntity
  8
0
  6
Continuous
 62
     5
370
    15
100
AcDbCircle
 10
389.1887779832258
 20
-237.5717024779323
 30
0.0
 40
2.0
100
AcDbArc
 50
135.0000000000006
 51
180.0
  0
LINE
  5
1CB
330
1F
100
AcDbEntity
  8
0
  6
Continuous
 62
     5
370
    15
100
AcDbLine
 10
387.7745644208258
 20
-236.1574889156323
 30
0.0
 11
391.0024864822258
 21
-232.9295668542323
 31
0.0
  0
ARC
  5
1CC
330
1F
100
AcDbEntity
  8
0
  6
Continuous
 62
     5
370
    15
100
AcDbCircle
 10
389.5882729198258
 20
-231.5153532918324
 30
0.0
 40
2.000000000000007
100
AcDbArc
 50
315.0
 51
45.0
  0
LINE
  5
1CD
330
1F
100
AcDbEntity
  8
0
  6
Continuous
 62
     5
370
    15
100
AcDbLine
 10
391.0024864822258
 20
-230.1011397295323
 30
0.0
 11
388.1740593574258
 21
-227.2727126047324
 31
0.0
  0
ARC
  5
1CE
330
1F
100
AcDbEntity
  8
0
  6
Continuous
 62
     5
370
    15
100
AcDbCircle
 10
386.7598457951258
 20
-228.6869261671324
 30
0.0
 40
2.000000000000008
100
AcDbArc
 50
45.0
 51
135.0
  0
LINE
  5
1CF
330
1F
100
AcDbEntity
  8
0
  6
Continuous
 62
     5
370
    15
100
AcDbLine
 10
385.3456322327258
 20
-227.2727126047324
 30
0.0
 11
379.6887779832258
 21
-232.9295668542323
 31
0.0
  0
LINE
  5
1D0
330
1F
100
AcDbEntity
  8
0
  6
Continuous
 62
     5
370
    15
100
AcDbLine
 10
379.6887779832258
 20
-232.9295668542323
 30
0.0
 11
374.0319237337258
 21
-227.2727126047324
 31
0.0
  0
ARC
  5
1D1
330
1F
100
AcDbEntity
  8
0
  6
Continuous
 62
     5
370
    15
100
AcDbCircle
 10
372.6177101713258
 20
-228.6869261671324
 30
0.0
 40
2.000000000000008
100
AcDbArc
 50
45.0
 51
134.9999999999989
  0
LINE
  5
1D2
330
1F
100
AcDbEntity
  8
0
  6
Continuous
 62
     5
370
    15
100
AcDbLine
 10
371.2034966090258
 20
-227.2727126047324
 30
0.0
 11
368.3750694842258
 21
-230.1011397295323
 31
0.0
  0
ARC
  5
1D3
330
1F
100
AcDbEntity
  8
0
  6
Continuous
 62
     5
370
    15
100
AcDbCircle
 10
369.7892830466258
 20
-231.5153532918324
 30
0.0
 40
2.000000000000007
100
AcDbArc
 50
134.9999999999989
 51
225.0
  0
LINE
  5
1D4
330
1F
100
AcDbEntity
  8
0
  6
Continuous
 62
     5
370
    15
100
AcDbLine
 10
368.3750694842258
 20
-232.9295668542323
 30
0.0
 11
371.6029915456258
 21
-236.1574889156323
 31
0.0
  0
ARC
  5
1D5
330
1F
100
AcDbEntity
  8
0
  6
Continuous
 62
     5
370
    15
100
AcDbCircle
 10
370.1887779832258
 20
-237.5717024779323
 30
0.0
 40
1.999999999999999
100
AcDbArc
 50
0.0
 51
44.99999999999942
  0
LINE
  5
1D6
330
1F
100
AcDbEntity
  8
0
  6
Continuous
 62
     5
370
    15
100
AcDbLine
 10
372.1887779832258
 20
-237.5717024779323
 30
0.0
 11
372.1887779832258
 21
-302.9295668542323
 31
0.0
  0
LINE
  5
1D7
330
1F
100
AcDbEntity
  8
0
  6
Continuous
 62
     5
370
    15
100
AcDbLine
 10
372.1887779832258
 20
-302.9295668542323
 30
0.0
 11
377.6887779832258
 21
-302.9295668542323
 31
0.0
  0
LINE
  5
1D8
330
1F
100
AcDbEntity
  8
0
  6
Continuous
 62
     5
370
    15
100
AcDbLine
 10
377.6887779832258
 20
-292.9295668542323
 30
0.0
 11
377.6887779832258
 21
-302.9295668542323
 31
0.0
  0
ARC
  5
1D9
330
1F
100
AcDbEntity
  8
0
  6
Continuous
 62
     5
370
    15
100
AcDbCircle
 10
379.6887779832258
 20
-240.9295668542323
 30
0.0
 40
2.499999999999992
100
AcDbArc
 50
0.0
 51
180.0
  0
LINE
  5
1DA
330
1F
100
AcDbEntity
  8
0
  6
Continuous
 62
     5
370
    15
100
AcDbLine
 10
382.1887779832258
 20
-272.9295668542323
 30
0.0
 11
382.1887779832258
 21
-240.9295668542323
 31
0.0
  0
ARC
  5
1DB
330
1F
100
AcDbEntity
  8
0
  6
Continuous
 62
     5
370
    15
100
AcDbCircle
 10
379.6887779832258
 20
-272.9295668542323
 30
0.0
 40
2.499999999999993
100
AcDbArc
 50
180.0
 51
0.0
  0
LINE
  5
1DC
330
1F
100
AcDbEntity
  8
0
  6
Continuous
 62
     5
370
    15
100
AcDbLine
 10
377.1887779832258
 20
-240.9295668542323
 30
0.0
 11
377.1887779832258
 21
-272.9295668542323
 31
0.0
  0
LINE
  5
1DD
330
1F
100
AcDbEntity
  8
0
  6
Continuous
 62
     5
370
    15
100
AcDbLine
 10
407.27592092217
 20
-292.9295668542323
 30
0.0
 11
403.27592092217
 21
-292.9295668542323
 31
0.0
  0
LINE
  5
1DE
330
1F
100
AcDbEntity
  8
0
  6
Continuous
 62
     5
370
    15
100
AcDbLine
 10
407.27592092217
 20
-302.9295668542323
 30
0.0
 11
407.27592092217
 21
-292.9295668542323
 31
0.0
  0
LINE
  5
1DF
330
1F
100
AcDbEntity
  8
0
  6
Continuous
 62
     5
370
    15
100
AcDbLine
 10
407.27592092217
 20
-302.9295668542323
 30
0.0
 11
412.77592092217
 21
-302.9295668542323
 31
0.0
  0
LINE
  5
1E0
330
1F
100
AcDbEntity
  8
0
  6
Continuous
 62
     5
370
    15
100
AcDbLine
 10
412.77592092217
 20
-302.9295668542323
 30
0.0
 11
412.77592092217
 21
-237.5717024779323
 31
0.0
  0
ARC
  5
1E1
330
1F
100
AcDbEntity
  8
0
  6
Continuous
 62
     5
370
    15
100
AcDbCircle
 10
414.77592092217
 20
-237.5717024779323
 30
0.0
 40
2.0
100
AcDbArc
 50
135.0000000000006
 51
180.0
  0
LINE
  5
1E2
330
1F
100
AcDbEntity
  8
0
  6
Continuous
 62
     5
370
    15
100
AcDbLine
 10
413.36170735977
 20
-236.1574889156323
 30
0.0
 11
416.58962942117
 21
-232.9295668542323
 31
0.0
  0
ARC
  5
1E3
330
1F
100
AcDbEntity
  8
0
  6
Continuous
 62
     5
370
    15
100
AcDbCircle
 10
415.17541585877
 20
-231.5153532918324
 30
0.0
 40
2.000000000000007
100
AcDbArc
 50
315.0
 51
45.0
  0
LINE
  5
1E4
330
1F
100
AcDbEntity
  8
0
  6
Continuous
 62
     5
370
    15
100
AcDbLine
 10
416.58962942117
 20
-230.1011397295323
 30
0.0
 11
413.76120229637
 21
-227.2727126047324
 31
0.0
  0
ARC
  5
1E5
330
1F
100
AcDbEntity
  8
0
  6
Continuous
 62
     5
370
    15
100
AcDbCircle
 10
412.34698873407
 20
-228.6869261671324
 30
0.0
 40
2.000000000000008
100
AcDbArc
 50
45.0
 51
135.0
  0
LINE
  5
1E6
330
1F
100
AcDbEntity
  8
0
  6
Continuous
 62
     5
370
    15
100
AcDbLine
 10
410.93277517167
 20
-227.2727126047324
 30
0.0
 11
405.27592092217
 21
-232.9295668542323
 31
0.0
  0
LINE
  5
1E7
330
1F
100
AcDbEntity
  8
0
  6
Continuous
 62
     5
370
    15
100
AcDbLine
 10
405.27592092217
 20
-232.9295668542323
 30
0.0
 11
399.61906667267
 21
-227.2727126047324
 31
0.0
  0
ARC
  5
1E8
330
1F
100
AcDbEntity
  8
0
  6
Continuous
 62
     5
370
    15
100
AcDbCircle
 10
398.20485311027
 20
-228.6869261671324
 30
0.0
 40
2.000000000000008
100
AcDbArc
 50
45.0
 51
135.0
  0
LINE
  5
1E9
330
1F
100
AcDbEntity
  8
0
  6
Continuous
 62
     5
370
    15
100
AcDbLine
 10
396.79063954797
 20
-227.2727126047324
 30
0.0
 11
393.96221242317
 21
-230.1011397295323
 31
0.0
  0
ARC
  5
1EA
330
1F
100
AcDbEntity
  8
0
  6
Continuous
 62
     5
370
    15
100
AcDbCircle
 10
395.37642598557
 20
-231.5153532918324
 30
0.0
 40
2.000000000000007
100
AcDbArc
 50
135.0
 51
225.0
  0
LINE
  5
1EB
330
1F
100
AcDbEntity
  8
0
  6
Continuous
 62
     5
370
    15
100
AcDbLine
 10
393.96221242317
 20
-232.9295668542323
 30
0.0
 11
397.19013448457
 21
-236.1574889156323
 31
0.0
  0
ARC
  5
1EC
330
1F
100
AcDbEntity
  8
0
  6
Continuous
 62
     5
370
    15
100
AcDbCircle
 10
395.77592092217
 20
-237.5717024779323
 30
0.0
 40
1.999999999999999
100
AcDbArc
 50
0.0
 51
45.00000000000058
  0
LINE
  5
1ED
330
1F
100
AcDbEntity
  8
0
  6
Continuous
 62
     5
370
    15
100
AcDbLine
 10
397.77592092217
 20
-237.5717024779323
 30
0.0
 11
397.77592092217
 21
-302.9295668542323
 31
0.0
  0
LINE
  5
1EE
330
1F
100
AcDbEntity
  8
0
  6
Continuous
 62
     5
370
    15
100
AcDbLine
 10
397.77592092217
 20
-302.9295668542323
 30
0.0
 11
403.27592092217
 21
-302.9295668542323
 31
0.0
  0
LINE
  5
1EF
330
1F
100
AcDbEntity
  8
0
  6
Continuous
 62
     5
370
    15
100
AcDbLine
 10
403.27592092217
 20
-292.9295668542323
 30
0.0
 11
403.27592092217
 21
-302.9295668542323
 31
0.0
  0
ARC
  5
1F0
330
1F
100
AcDbEntity
  8
0
  6
Continuous
 62
     5
370
    15
100
AcDbCircle
 10
405.27592092217
 20
-240.9295668542323
 30
0.0
 40
2.499999999999992
100
AcDbArc
 50
0.0
 51
180.0
  0
LINE
  5
1F1
330
1F
100
AcDbEntity
  8
0
  6
Continuous
 62
     5
370
    15
100
AcDbLine
 10
407.77592092217
 20
-272.9295668542323
 30
0.0
 11
407.77592092217
 21
-240.9295668542323
 31
0.0
  0
ARC
  5
1F2
330
1F
100
AcDbEntity
  8
0
  6
Continuous
 62
     5
370
    15
100
AcDbCircle
 10
405.27592092217
 20
-272.9295668542323
 30
0.0
 40
2.499999999999993
100
AcDbArc
 50
180.0
 51
0.0
  0
LINE
  5
1F3
330
1F
100
AcDbEntity
  8
0
  6
Continuous
 62
     5
370
    15
100
AcDbLine
 10
402.77592092217
 20
-240.9295668542323
 30
0.0
 11
402.77592092217
 21
-272.9295668542323
 31
0.0
  0
LINE
  5
1F4
330
1F
100
AcDbEntity
  8
0
  6
Continuous
 62
     5
370
    15
100
AcDbLine
 10
433.4074711576875
 20
-292.9295668542323
 30
0.0
 11
429.4074711576875
 21
-292.9295668542323
 31
0.0
  0
LINE
  5
1F5
330
1F
100
AcDbEntity
  8
0
  6
Continuous
 62
     5
370
    15
100
AcDbLine
 10
433.4074711576875
 20
-302.9295668542323
 30
0.0
 11
433.4074711576875
 21
-292.9295668542323
 31
0.0
  0
LINE
  5
1F6
330
1F
100
AcDbEntity
  8
0
  6
Continuous
 62
     5
370
    15
100
AcDbLine
 10
433.4074711576875
 20
-302.9295668542323
 30
0.0
 11
438.9074711576875
 21
-302.9295668542323
 31
0.0
  0
LINE
  5
1F7
330
1F
100
AcDbEntity
  8
0
  6
Continuous
 62
     5
370
    15
100
AcDbLine
 10
438.9074711576875
 20
-302.9295668542323
 30
0.0
 11
438.9074711576875
 21
-237.5717024779323
 31
0.0
  0
ARC
  5
1F8
330
1F
100
AcDbEntity
  8
0
  6
Continuous
 62
     5
370
    15
100
AcDbCircle
 10
440.9074711576875
 20
-237.5717024779323
 30
0.0
 40
2.0
100
AcDbArc
 50
135.0000000000006
 51
180.0
  0
LINE
  5
1F9
330
1F
100
AcDbEntity
  8
0
  6
Continuous
 62
     5
370
    15
100
AcDbLine
 10
439.4932575952874
 20
-236.1574889156323
 30
0.0
 11
442.7211796566875
 21
-232.9295668542323
 31
0.0
  0
ARC
  5
1FA
330
1F
100
AcDbEntity
  8
0
  6
Continuous
 62
     5
370
    15
100
AcDbCircle
 10
441.3069660942875
 20
-231.5153532918324
 30
0.0
 40
2.000000000000007
100
AcDbArc
 50
315.0
 51
45.0
  0
LINE
  5
1FB
330
1F
100
AcDbEntity
  8
0
  6
Continuous
 62
     5
370
    15
100
AcDbLine
 10
442.7211796566875
 20
-230.1011397295323
 30
0.0
 11
439.8927525318875
 21
-227.2727126047324
 31
0.0
  0
ARC
  5
1FC
330
1F
100
AcDbEntity
  8
0
  6
Continuous
 62
     5
370
    15
100
AcDbCircle
 10
438.4785389695875
 20
-228.6869261671324
 30
0.0
 40
2.000000000000008
100
AcDbArc
 50
45.0
 51
135.0
  0
LINE
  5
1FD
330
1F
100
AcDbEntity
  8
0
  6
Continuous
 62
     5
370
    15
100
AcDbLine
 10
437.0643254071875
 20
-227.2727126047324
 30
0.0
 11
431.4074711576875
 21
-232.9295668542323
 31
0.0
  0
LINE
  5
1FE
330
1F
100
AcDbEntity
  8
0
  6
Continuous
 62
     5
370
    15
100
AcDbLine
 10
431.4074711576875
 20
-232.9295668542323
 30
0.0
 11
425.7506169081875
 21
-227.2727126047324
 31
0.0
  0
ARC
  5
1FF
330
1F
100
AcDbEntity
  8
0
  6
Continuous
 62
     5
370
    15
100
AcDbCircle
 10
424.3364033457875
 20
-228.6869261671324
 30
0.0
 40
2.000000000000008
100
AcDbArc
 50
45.0
 51
135.0
  0
LINE
  5
200
330
1F
100
AcDbEntity
  8
0
  6
Continuous
 62
     5
370
    15
100
AcDbLine
 10
422.9221897834875
 20
-227.2727126047324
 30
0.0
 11
420.0937626586875
 21
-230.1011397295323
 31
0.0
  0
ARC
  5
201
330
1F
100
AcDbEntity
  8
0
  6
Continuous
 62
     5
370
    15
100
AcDbCircle
 10
421.5079762210875
 20
-231.5153532918324
 30
0.0
 40
2.000000000000007
100
AcDbArc
 50
135.0
 51
225.0
  0
LINE
  5
202
330
1F
100
AcDbEntity
  8
0
  6
Continuous
 62
     5
370
    15
100
AcDbLine
 10
420.0937626586875
 20
-232.9295668542323
 30
0.0
 11
423.3216847200874
 21
-236.1574889156323
 31
0.0
  0
ARC
  5
203
330
1F
100
AcDbEntity
  8
0
  6
Continuous
 62
     5
370
    15
100
AcDbCircle
 10
421.9074711576875
 20
-237.5717024779323
 30
0.0
 40
1.999999999999999
100
AcDbArc
 50
0.0
 51
45.00000000000058
  0
LINE
  5
204
330
1F
100
AcDbEntity
  8
0
  6
Continuous
 62
     5
370
    15
100
AcDbLine
 10
423.9074711576875
 20
-237.5717024779323
 30
0.0
 11
423.9074711576875
 21
-302.9295668542323
 31
0.0
  0
LINE
  5
205
330
1F
100
AcDbEntity
  8
0
  6
Continuous
 62
     5
370
    15
100
AcDbLine
 10
423.9074711576875
 20
-302.9295668542323
 30
0.0
 11
429.4074711576875
 21
-302.9295668542323
 31
0.0
  0
LINE
  5
206
330
1F
100
AcDbEntity
  8
0
  6
Continuous
 62
     5
370
    15
100
AcDbLine
 10
429.4074711576875
 20
-292.9295668542323
 30
0.0
 11
429.4074711576875
 21
-302.9295668542323
 31
0.0
  0
ARC
  5
207
330
1F
100
AcDbEntity
  8
0
  6
Continuous
 62
     5
370
    15
100
AcDbCircle
 10
431.4074711576875
 20
-240.9295668542323
 30
0.0
 40
2.499999999999992
100
AcDbArc
 50
0.0
 51
180.0
  0
LINE
  5
208
330
1F
100
AcDbEntity
  8
0
  6
Continuous
 62
     5
370
    15
100
AcDbLine
 10
433.9074711576875
 20
-272.9295668542323
 30
0.0
 11
433.9074711576875
 21
-240.9295668542323
 31
0.0
  0
ARC
  5
209
330
1F
100
AcDbEntity
  8
0
  6
Continuous
 62
     5
370
    15
100
AcDbCircle
 10
431.4074711576875
 20
-272.9295668542323
 30
0.0
 40
2.499999999999993
100
AcDbArc
 50
180.0
 51
0.0
  0
LINE
  5
20A
330
1F
100
AcDbEntity
  8
0
  6
Continuous
 62
     5
370
    15
100
AcDbLine
 10
428.9074711576875
 20
-240.9295668542323
 30
0.0
 11
428.9074711576875
 21
-272.9295668542323
 31
0.0
  0
CIRCLE
  5
243
330
1F
100
AcDbEntity
  8
0
  6
Continuous
 62
     5
370
    15
100
AcDbCircle
 10
-18.52342408441666
 20
-283.7393756346913
 30
0.0
 40
3.0
  0
ARC
  5
244
330
1F
100
AcDbEntity
  8
0
  6
Continuous
 62
     5
370
    15
100
AcDbCircle
 10
-16.03948541611666
 20
-312.1309245302913
 30
0.0
 40
13.50000000000001
100
AcDbArc
 50
95.0
 51
275.0
  0
ARC
  5
245
330
1F
100
AcDbEntity
  8
0
  6
Continuous
 62
     5
370
    15
100
AcDbCircle
 10
-18.52342408441666
 20
-283.7393756346913
 30
0.0
 40
15.0
100
AcDbArc
 50
275.0
 51
325.0
  0
ARC
  5
246
330
1F
100
AcDbEntity
  8
0
  6
Continuous
 62
     5
370
    15
100
AcDbCircle
 10
4.822409177783342
 20
-300.0863040706913
 30
0.0
 40
13.5
100
AcDbArc
 50
325.0
 51
145.0
  0
ARC
  5
247
330
1F
100
AcDbEntity
  8
0
  6
Continuous
 62
     5
370
    15
100
AcDbCircle
 10
-18.52342408441666
 20
-283.7393756346913
 30
0.0
 40
41.99999999999999
100
AcDbArc
 50
275.0
 51
325.0
  0
ARC
  5
248
330
1F
100
AcDbEntity
  8
0
  6
Continuous
 62
     5
370
    15
100
AcDbCircle
 10
4.822409177783342
 20
-267.3924471986913
 30
0.0
 40
13.50000000000001
100
AcDbArc
 50
215.0
 51
35.0
  0
ARC
  5
249
330
1F
100
AcDbEntity
  8
0
  6
Continuous
 62
     5
370
    15
100
AcDbCircle
 10
-18.52342408441666
 20
-283.7393756346913
 30
0.0
 40
15.0
100
AcDbArc
 50
34.99999999999999
 51
85.0
  0
ARC
  5
24A
330
1F
100
AcDbEntity
  8
0
  6
Continuous
 62
     5
370
    15
100
AcDbCircle
 10
-16.03948541611666
 20
-255.3478267390913
 30
0.0
 40
13.50000000000001
100
AcDbArc
 50
85.00000000000001
 51
265.0
  0
ARC
  5
24B
330
1F
100
AcDbEntity
  8
0
  6
Continuous
 62
     5
370
    15
100
AcDbCircle
 10
-18.52342408441666
 20
-283.7393756346913
 30
0.0
 40
42.0
100
AcDbArc
 50
34.99999999999994
 51
85.00000000000001
  0
ARC
  5
24C
330
1F
100
AcDbEntity
  8
0
  6
Continuous
 62
     5
370
    15
100
AcDbCircle
 10
-44.35319601491666
 20
-271.6947551750914
 30
0.0
 40
13.50000000000001
100
AcDbArc
 50
335.0
 51
155.0000000000001
  0
ARC
  5
24D
330
1F
100
AcDbEntity
  8
0
  6
Continuous
 62
     5
370
    15
100
AcDbCircle
 10
-18.52342408441666
 20
-283.7393756346913
 30
0.0
 40
15.0
100
AcDbArc
 50
155.0000000000001
 51
204.9999999999999
  0
ARC
  5
24E
330
1F
100
AcDbEntity
  8
0
  6
Continuous
 62
     5
370
    15
100
AcDbCircle
 10
-44.35319601491666
 20
-295.7839960942914
 30
0.0
 40
13.5
100
AcDbArc
 50
205.0
 51
24.99999999999998
  0
ARC
  5
24F
330
1F
100
AcDbEntity
  8
0
  6
Continuous
 62
     5
370
    15
100
AcDbCircle
 10
-18.52342408441666
 20
-283.7393756346913
 30
0.0
 40
42.0
100
AcDbArc
 50
155.0
 51
204.9999999999999
  0
CIRCLE
  5
250
330
1F
100
AcDbEntity
  8
0
  6
Continuous
 62
     5
370
    15
100
AcDbCircle
 10
-18.52342408441666
 20
-283.7393756346913
 30
0.0
 40
50.0
  0
CIRCLE
  5
251
330
1F
100
AcDbEntity
  8
0
  6
Continuous
 62
     5
370
    15
100
AcDbCircle
 10
88.34317537794894
 20
-285.5293481929351
 30
0.0
 40
3.0
  0
ARC
  5
252
330
1F
100
AcDbEntity
  8
0
  6
Continuous
 62
     5
370
    15
100
AcDbCircle
 10
90.82711404624894
 20
-313.9208970885351
 30
0.0
 40
13.50000000000001
100
AcDbArc
 50
95.00000000000004
 51
274.9999999999999
  0
ARC
  5
253
330
1F
100
AcDbEntity
  8
0
  6
Continuous
 62
     5
370
    15
100
AcDbCircle
 10
88.34317537794894
 20
-285.5293481929351
 30
0.0
 40
15.0
100
AcDbArc
 50
274.9999999999999
 51
325.0
  0
ARC
  5
254
330
1F
100
AcDbEntity
  8
0
  6
Continuous
 62
     5
370
    15
100
AcDbCircle
 10
111.6890086401489
 20
-301.876276628935
 30
0.0
 40
13.5
100
AcDbArc
 50
325.0
 51
145.0
  0
ARC
  5
255
330
1F
100
AcDbEntity
  8
0
  6
Continuous
 62
     5
370
    15
100
AcDbCircle
 10
88.34317537794894
 20
-285.5293481929351
 30
0.0
 40
41.99999999999999
100
AcDbArc
 50
274.9999999999999
 51
325.0
  0
ARC
  5
256
330
1F
100
AcDbEntity
  8
0
  6
Continuous
 62
     5
370
    15
100
AcDbCircle
 10
111.6890086401489
 20
-269.1824197569351
 30
0.0
 40
13.50000000000001
100
AcDbArc
 50
215.0
 51
34.99999999999996
  0
ARC
  5
257
330
1F
100
AcDbEntity
  8
0
  6
Continuous
 62
     5
370
    15
100
AcDbCircle
 10
88.34317537794894
 20
-285.5293481929351
 30
0.0
 40
15.0
100
AcDbArc
 50
35.00000000000001
 51
85.0
  0
ARC
  5
258
330
1F
100
AcDbEntity
  8
0
  6
Continuous
 62
     5
370
    15
100
AcDbCircle
 10
90.82711404624894
 20
-257.1377992973351
 30
0.0
 40
13.50000000000001
100
AcDbArc
 50
84.99999999999997
 51
264.9999999999999
  0
ARC
  5
259
330
1F
100
AcDbEntity
  8
0
  6
Continuous
 62
     5
370
    15
100
AcDbCircle
 10
88.34317537794894
 20
-285.5293481929351
 30
0.0
 40
42.0
100
AcDbArc
 50
35.0
 51
85.00000000000001
  0
ARC
  5
25A
330
1F
100
AcDbEntity
  8
0
  6
Continuous
 62
     5
370
    15
100
AcDbCircle
 10
62.51340344744892
 20
-273.484727733335
 30
0.0
 40
13.50000000000001
100
AcDbArc
 50
334.9999999999998
 51
155.0
  0
ARC
  5
25B
330
1F
100
AcDbEntity
  8
0
  6
Continuous
 62
     5
370
    15
100
AcDbCircle
 10
88.34317537794894
 20
-285.5293481929351
 30
0.0
 40
15.0
100
AcDbArc
 50
155.0000000000001
 51
204.9999999999999
  0
ARC
  5
25C
330
1F
100
AcDbEntity
  8
0
  6
Continuous
 62
     5
370
    15
100
AcDbCircle
 10
62.51340344744892
 20
-297.5739686525351
 30
0.0
 40
13.5
100
AcDbArc
 50
205.0
 51
24.99999999999998
  0
ARC
  5
25D
330
1F
100
AcDbEntity
  8
0
  6
Continuous
 62
     5
370
    15
100
AcDbCircle
 10
88.34317537794894
 20
-285.5293481929351
 30
0.0
 40
42.0
100
AcDbArc
 50
155.0
 51
204.9999999999999
  0
CIRCLE
  5
25E
330
1F
100
AcDbEntity
  8
0
  6
Continuous
 62
     5
370
    15
100
AcDbCircle
 10
88.34317537794894
 20
-285.5293481929351
 30
0.0
 40
50.0
  0
ARC
  5
2E7
330
1F
100
AcDbEntity
  8
0
  6
Continuous
 62
     5
370
    15
100
AcDbCircle
 10
-63.5481824895294
 20
-441.214609699555
 30
0.0
 40
3.999999999999996
100
AcDbArc
 50
164.9999999999997
 51
345.0000000000004
  0
LINE
  5
2E8
330
1F
100
AcDbEntity
  8
0
  6
Continuous
 62
     5
370
    15
100
AcDbLine
 10
-57.0591239905294
 20
-401.542300467555
 30
0.0
 11
-67.4118857946294
 21
-440.179333519155
 31
0.0
  0
ARC
  5
2E9
330
1F
100
AcDbEntity
  8
0
  6
Continuous
 62
     5
370
    15
100
AcDbCircle
 10
-53.1954206854294
 20
-402.577576647955
 30
0.0
 40
3.999999999999994
100
AcDbArc
 50
344.9999999999997
 51
165.0000000000005
  0
LINE
  5
2EA
330
1F
100
AcDbEntity
  8
0
  6
Continuous
 62
     5
370
    15
100
AcDbLine
 10
-59.6844791843294
 20
-442.249885879955
 30
0.0
 11
-49.33171738022941
 21
-403.612852828355
 31
0.0
  0
LINE
  5
2EB
330
1F
100
AcDbEntity
  8
0
  6
Continuous
 62
     5
370
    15
100
AcDbLine
 10
105.3979589586706
 20
-455.703497093855
 30
0.0
 11
102.5695318339706
 21
-452.875069969155
 31
0.0
  0
LINE
  5
2EC
330
1F
100
AcDbEntity
  8
0
  6
Continuous
 62
     5
370
    15
100
AcDbLine
 10
102.5695318339706
 20
-458.531924218555
 30
0.0
 11
105.3979589586706
 21
-455.703497093855
 31
0.0
  0
LINE
  5
2ED
330
1F
100
AcDbEntity
  8
0
  6
Continuous
 62
     5
370
    15
100
AcDbLine
 10
99.74110470927059
 20
-455.703497093855
 30
0.0
 11
102.5695318339706
 21
-458.531924218555
 31
0.0
  0
LINE
  5
2EE
330
1F
100
AcDbEntity
  8
0
  6
Continuous
 62
     5
370
    15
100
AcDbLine
 10
102.5695318339706
 20
-452.875069969155
 30
0.0
 11
99.74110470927059
 21
-455.703497093855
 31
0.0
  0
LINE
  5
2EF
330
1F
100
AcDbEntity
  8
0
  6
Continuous
 62
     5
370
    15
100
AcDbLine
 10
-64.6020410413294
 20
-455.703497093855
 30
0.0
 11
-67.4304681660294
 21
-452.875069969155
 31
0.0
  0
LINE
  5
2F0
330
1F
100
AcDbEntity
  8
0
  6
Continuous
 62
     5
370
    15
100
AcDbLine
 10
-67.4304681660294
 20
-458.531924218555
 30
0.0
 11
-64.6020410413294
 21
-455.703497093855
 31
0.0
  0
LINE
  5
2F1
330
1F
100
AcDbEntity
  8
0
  6
Continuous
 62
     5
370
    15
100
AcDbLine
 10
-70.2588952907294
 20
-455.703497093855
 30
0.0
 11
-67.4304681660294
 21
-458.531924218555
 31
0.0
  0
LINE
  5
2F2
330
1F
100
AcDbEntity
  8
0
  6
Continuous
 62
     5
370
    15
100
AcDbLine
 10
-67.4304681660294
 20
-452.875069969155
 30
0.0
 11
-70.2588952907294
 21
-455.703497093855
 31
0.0
  0
CIRCLE
  5
2F3
330
1F
100
AcDbEntity
  8
0
  6
Continuous
 62
     5
370
    15
100
AcDbCircle
 10
55.5927397257706
 20
-399.073019478055
 30
0.0
 40
5.000000000000014
  0
CIRCLE
  5
2F4
330
1F
100
AcDbEntity
  8
0
  6
Continuous
 62
     5
370
    15
100
AcDbCircle
 10
65.78633995847059
 20
-410.077132995155
 30
0.0
 40
4.0
  0
CIRCLE
  5
2F5
330
1F
100
AcDbEntity
  8
0
  6
Continuous
 62
     5
370
    15
100
AcDbCircle
 10
75.9799401910706
 20
-421.081246512255
 30
0.0
 40
3.0
  0
CIRCLE
  5
2F6
330
1F
100
AcDbEntity
  8
0
  6
Continuous
 62
     5
370
    15
100
AcDbCircle
 10
86.17354042377059
 20
-432.085360029255
 30
0.0
 40
2.0
  0
LINE
  5
2F7
330
1F
100
AcDbEntity
  8
0
  6
Continuous
 62
     5
370
    15
100
AcDbLine
 10
24.70507861197061
 20
-458.203497093855
 30
0.0
 11
24.70507861197061
 21
-454.203497093855
 31
0.0
  0
LINE
  5
2F8
330
1F
100
AcDbEntity
  8
0
  6
Continuous
 62
     5
370
    15
100
AcDbLine
 10
20.70507861197061
 20
-458.203497093855
 30
0.0
 11
24.70507861197061
 21
-458.203497093855
 31
0.0
  0
LINE
  5
2F9
330
1F
100
AcDbEntity
  8
0
  6
Continuous
 62
     5
370
    15
100
AcDbLine
 10
20.70507861197061
 20
-454.203497093855
 30
0.0
 11
20.70507861197061
 21
-458.203497093855
 31
0.0
  0
LINE
  5
2FA
330
1F
100
AcDbEntity
  8
0
  6
Continuous
 62
     5
370
    15
100
AcDbLine
 10
24.70507861197061
 20
-454.203497093855
 30
0.0
 11
20.70507861197061
 21
-454.203497093855
 31
0.0
  0
LINE
  5
2FB
330
1F
100
AcDbEntity
  8
0
  6
Continuous
 62
     5
370
    15
100
AcDbLine
 10
-40.8426588813294
 20
-365.940543596355
 30
0.0
 11
-40.8426588813294
 21
-361.940543596355
 31
0.0
  0
LINE
  5
2FC
330
1F
100
AcDbEntity
  8
0
  6
Continuous
 62
     5
370
    15
100
AcDbLine
 10
-44.8426588813294
 20
-365.940543596355
 30
0.0
 11
-40.8426588813294
 21
-365.940543596355
 31
0.0
  0
LINE
  5
2FD
330
1F
100
AcDbEntity
  8
0
  6
Continuous
 62
     5
370
    15
100
AcDbLine
 10
-44.8426588813294
 20
-361.940543596355
 30
0.0
 11
-44.8426588813294
 21
-365.940543596355
 31
0.0
  0
LINE
  5
2FE
330
1F
100
AcDbEntity
  8
0
  6
Continuous
 62
     5
370
    15
100
AcDbLine
 10
-40.8426588813294
 20
-361.940543596355
 30
0.0
 11
-44.8426588813294
 21
-361.940543596355
 31
0.0
  0
LINE
  5
2FF
330
1F
100
AcDbEntity
  8
0
  6
Continuous
 62
     5
370
    15
100
AcDbLine
 10
42.60607108007061
 20
-381.175119229655
 30
0.0
 11
42.3270451850706
 21
-385.165375430755
 31
0.0
  0
LINE
  5
300
330
1F
100
AcDbEntity
  8
0
  6
Continuous
 62
     5
370
    15
100
AcDbLine
 10
42.60607108007061
 20
-381.175119229655
 30
0.0
 11
-29.5910611636294
 21
-376.126603940455
 31
0.0
  0
ARC
  5
301
330
1F
100
AcDbEntity
  8
0
  6
Continuous
 62
     5
370
    15
100
AcDbCircle
 10
-29.2422787949294
 20
-371.138783689155
 30
0.0
 40
5.000000000000004
100
AcDbArc
 50
165.0000000000002
 51
266.0000000000001
  0
LINE
  5
302
330
1F
100
AcDbEntity
  8
0
  6
Continuous
 62
     5
370
    15
100
AcDbLine
 10
-34.0719079263294
 20
-369.844688463655
 30
0.0
 11
-33.1834006184294
 21
-366.528734047455
 31
0.0
  0
ARC
  5
303
330
1F
100
AcDbEntity
  8
0
  6
Continuous
 62
     5
370
    15
100
AcDbCircle
 10
-42.8426588813294
 20
-363.940543596355
 30
0.0
 40
10.00000000000001
100
AcDbArc
 50
344.9999999999998
 51
165.0000000000002
  0
LINE
  5
304
330
1F
100
AcDbEntity
  8
0
  6
Continuous
 62
     5
370
    15
100
AcDbLine
 10
-52.5019171442294
 20
-361.352353145355
 30
0.0
 11
-77.0897264289294
 21
-453.115306642855
 31
0.0
  0
ARC
  5
305
330
1F
100
AcDbEntity
  8
0
  6
Continuous
 62
     5
370
    15
100
AcDbCircle
 10
-67.4304681660294
 20
-455.703497093855
 30
0.0
 40
10.00000000000001
100
AcDbArc
 50
165.0000000000002
 51
344.9999999999998
  0
LINE
  5
306
330
1F
100
AcDbEntity
  8
0
  6
Continuous
 62
     5
370
    15
100
AcDbLine
 10
-57.7712099031294
 20
-458.291687544855
 30
0.0
 11
-42.5297700817294
 21
-401.409859750955
 31
0.0
  0
ARC
  5
307
330
1F
100
AcDbEntity
  8
0
  6
Continuous
 62
     5
370
    15
100
AcDbCircle
 10
-37.7001409503294
 20
-402.703954976455
 30
0.0
 40
5.000000000000005
100
AcDbArc
 50
57.68238721300029
 51
165.0000000000002
  0
ARC
  5
308
330
1F
100
AcDbEntity
  8
0
  6
Continuous
 62
     5
370
    15
100
AcDbCircle
 10
-104.5266607723294
 20
-508.341146573355
 30
0.0
 40
130.0
100
AcDbArc
 50
20.08211481009999
 51
57.68238721300001
  0
LINE
  5
309
330
1F
100
AcDbEntity
  8
0
  6
Continuous
 62
     5
370
    15
100
AcDbLine
 10
17.5695318339706
 20
-463.703497093855
 30
0.0
 11
102.5695318339706
 21
-463.703497093855
 31
0.0
  0
ARC
  5
30A
330
1F
100
AcDbEntity
  8
0
  6
Continuous
 62
     5
370
    15
100
AcDbCircle
 10
102.5695318339706
 20
-455.703497093855
 30
0.0
 40
7.999999999999989
100
AcDbArc
 50
270.0
 51
36.81031200749992
  0
LINE
  5
30B
330
1F
100
AcDbEntity
  8
0
  6
Continuous
 62
     5
370
    15
100
AcDbLine
 10
108.9745202069706
 20
-450.910155468055
 30
0.0
 11
62.55735208527059
 21
-388.886322131655
 31
0.0
  0
LINE
  5
30C
330
1F
100
AcDbEntity
  8
0
  6
Continuous
 62
     5
370
    15
100
AcDbLine
 10
62.55735208527059
 20
-388.886322131655
 30
0.0
 11
62.55735208527059
 21
-382.570248704555
 31
0.0
  0
LINE
  5
30D
330
1F
100
AcDbEntity
  8
0
  6
Continuous
 62
     5
370
    15
100
AcDbLine
 10
62.55735208527059
 20
-382.570248704555
 30
0.0
 11
57.56953183397059
 21
-382.221466335855
 31
0.0
  0
LINE
  5
30E
330
1F
100
AcDbEntity
  8
0
  6
Continuous
 62
     5
370
    15
100
AcDbLine
 10
57.2905059389706
 20
-386.211722536855
 30
0.0
 11
57.56953183397059
 21
-382.221466335855
 31
0.0
  0
LINE
  5
30F
330
1F
100
AcDbEntity
  8
0
  6
Continuous
 62
     5
370
    15
100
AcDbLine
 10
42.3270451850706
 20
-385.165375430755
 30
0.0
 11
57.2905059389706
 21
-386.211722536855
 31
0.0
  0
LINE
  5
310
330
1F
100
AcDbEntity
  8
0
  6
Continuous
 62
     5
370
    15
100
AcDbLine
 10
19.91747864217061
 20
-389.612997273855
 30
0.0
 11
-25.8806190686294
 21
-386.410482307855
 31
0.0
  0
ARC
  5
311
330
1F
100
AcDbEntity
  8
0
  6
Continuous
 62
     5
370
    15
100
AcDbCircle
 10
19.21991390477061
 20
-399.588637776455
 30
0.0
 40
10.00000000000002
100
AcDbArc
 50
345.0000000000002
 51
86.0
  0
LINE
  5
312
330
1F
100
AcDbEntity
  8
0
  6
Continuous
 62
     5
370
    15
100
AcDbLine
 10
28.8791721676706
 20
-402.176828227455
 30
0.0
 11
24.1882118215706
 21
-419.683730575255
 31
0.0
  0
ARC
  5
313
330
1F
100
AcDbEntity
  8
0
  6
Continuous
 62
     5
370
    15
100
AcDbCircle
 10
14.52895355867059
 20
-417.095540124255
 30
0.0
 40
10.00000000000001
100
AcDbArc
 50
217.466974998
 51
345.0000000000002
  0
ARC
  5
314
330
1F
100
AcDbEntity
  8
0
  6
Continuous
 62
     5
370
    15
100
AcDbCircle
 10
-104.5266607723294
 20
-508.341146573355
 30
0.0
 40
140.0
100
AcDbArc
 50
37.466974998
 51
56.651595774
  0
SPLINE
  5
315
330
1F
100
AcDbEntity
  8
0
  6
Continuous
 62
     5
370
    15
100
AcDbSpline
210
0.0
220
0.0
230
1.0
 70
     8
 71
     3
 72
     8
 73
     4
 74
     0
 42
0.00000001
 43
0.00000001
 40
0.0
 40
0.0
 40
0.0
 40
0.0
 40
1.0
 40
1.0
 40
1.0
 40
1.0
 10
-25.88061906864104
 20
-386.4104823078459
 30
0.0
 10
-27.62951484735875
 20
-386.2881876008003
 30
0.0
 10
-29.02913525744701
 20
-390.4293268375587
 30
0.0
 10
-27.56463955031774
 20
-391.3930927655662
 30
0.0
  0
LINE
  5
316
330
1F
100
AcDbEntity
  8
0
  6
Continuous
 62
     5
370
    15
100
AcDbLine
 10
85.32682442297059
 20
-440.614128613455
 30
0.0
 11
51.7320987160706
 21
-411.214847914455
 31
0.0
  0
ARC
  5
317
330
1F
100
AcDbEntity
  8
0
  6
Continuous
 62
     5
370
    15
100
AcDbCircle
 10
78.7412841133706
 20
-448.139463079855
 30
0.0
 40
9.999999999999996
100
AcDbArc
 50
346.8813193046998
 51
48.8103120074999
  0
ARC
  5
318
330
1F
100
AcDbEntity
  8
0
  6
Continuous
 62
     5
370
    15
100
AcDbCircle
 10
79.65665335917058
 20
-445.703497093855
 30
0.0
 40
10.0
100
AcDbArc
 50
270.0
 51
331.9289927027
  0
LINE
  5
319
330
1F
100
AcDbEntity
  8
0
  6
Continuous
 62
     5
370
    15
100
AcDbLine
 10
37.9217600038706
 20
-455.703497093855
 30
0.0
 11
79.65665335917058
 21
-455.703497093855
 31
0.0
  0
ARC
  5
31A
330
1F
100
AcDbEntity
  8
0
  6
Continuous
 62
     5
370
    15
100
AcDbCircle
 10
37.9217600038706
 20
-445.703497093855
 30
0.0
 40
10.00000000000002
100
AcDbArc
 50
165.0000000000002
 51
270.0
  0
LINE
  5
31B
330
1F
100
AcDbEntity
  8
0
  6
Continuous
 62
     5
370
    15
100
AcDbLine
 10
35.48730014357061
 20
-416.151991929755
 30
0.0
 11
28.26250174097061
 21
-443.115306642855
 31
0.0
  0
ARC
  5
31C
330
1F
100
AcDbEntity
  8
0
  6
Continuous
 62
     5
370
    15
100
AcDbCircle
 10
45.1465584064706
 20
-418.740182380855
 30
0.0
 40
10.0
100
AcDbArc
 50
48.8103120074999
 51
165.0000000000001
  0
ARC
  5
31D
330
1F
100
AcDbEntity
  8
0
  6
Continuous
 62
     5
370
    15
100
AcDbCircle
 10
-56.37055317957996
 20
-536.6855775328249
 30
0.0
 40
3.999999999999996
100
AcDbArc
 50
165.0000000000004
 51
344.9999999999989
  0
LINE
  5
31E
330
1F
100
AcDbEntity
  8
0
  6
Continuous
 62
     5
370
    15
100
AcDbLine
 10
-49.88149468057995
 20
-497.013268300825
 30
0.0
 11
-60.23425648467995
 21
-535.650301352425
 31
0.0
  0
ARC
  5
31F
330
1F
100
AcDbEntity
  8
0
  6
Continuous
 62
     5
370
    15
100
AcDbCircle
 10
-46.01779137547996
 20
-498.048544481225
 30
0.0
 40
3.999999999999994
100
AcDbArc
 50
345.0000000000004
 51
164.9999999999996
  0
LINE
  5
320
330
1F
100
AcDbEntity
  8
0
  6
Continuous
 62
     5
370
    15
100
AcDbLine
 10
-52.50684987437995
 20
-537.720853713225
 30
0.0
 11
-42.15408807027995
 21
-499.0838206616249
 31
0.0
  0
LINE
  5
321
330
1F
100
AcDbEntity
  8
0
  6
Continuous
 62
     5
370
    15
100
AcDbLine
 10
112.57558826862
 20
-551.174464927125
 30
0.0
 11
109.74716114392
 21
-548.3460378024249
 31
0.0
  0
LINE
  5
322
330
1F
100
AcDbEntity
  8
0
  6
Continuous
 62
     5
370
    15
100
AcDbLine
 10
109.74716114392
 20
-554.002892051825
 30
0.0
 11
112.57558826862
 21
-551.174464927125
 31
0.0
  0
LINE
  5
323
330
1F
100
AcDbEntity
  8
0
  6
Continuous
 62
     5
370
    15
100
AcDbLine
 10
106.91873401922
 20
-551.174464927125
 30
0.0
 11
109.74716114392
 21
-554.002892051825
 31
0.0
  0
LINE
  5
324
330
1F
100
AcDbEntity
  8
0
  6
Continuous
 62
     5
370
    15
100
AcDbLine
 10
109.74716114392
 20
-548.3460378024249
 30
0.0
 11
106.91873401922
 21
-551.174464927125
 31
0.0
  0
LINE
  5
325
330
1F
100
AcDbEntity
  8
0
  6
Continuous
 62
     5
370
    15
100
AcDbLine
 10
-57.42441173137995
 20
-551.174464927125
 30
0.0
 11
-60.25283885607995
 21
-548.3460378024249
 31
0.0
  0
LINE
  5
326
330
1F
100
AcDbEntity
  8
0
  6
Continuous
 62
     5
370
    15
100
AcDbLine
 10
-60.25283885607995
 20
-554.002892051825
 30
0.0
 11
-57.42441173137995
 21
-551.174464927125
 31
0.0
  0
LINE
  5
327
330
1F
100
AcDbEntity
  8
0
  6
Continuous
 62
     5
370
    15
100
AcDbLine
 10
-63.08126598077995
 20
-551.174464927125
 30
0.0
 11
-60.25283885607995
 21
-554.002892051825
 31
0.0
  0
LINE
  5
328
330
1F
100
AcDbEntity
  8
0
  6
Continuous
 62
     5
370
    15
100
AcDbLine
 10
-60.25283885607995
 20
-548.3460378024249
 30
0.0
 11
-63.08126598077995
 21
-551.174464927125
 31
0.0
  0
CIRCLE
  5
329
330
1F
100
AcDbEntity
  8
0
  6
Continuous
 62
     5
370
    15
100
AcDbCircle
 10
62.77036903572002
 20
-494.543987311325
 30
0.0
 40
5.000000000000014
  0
CIRCLE
  5
32A
330
1F
100
AcDbEntity
  8
0
  6
Continuous
 62
     5
370
    15
100
AcDbCircle
 10
72.96396926842004
 20
-505.548100828425
 30
0.0
 40
4.0
  0
CIRCLE
  5
32B
330
1F
100
AcDbEntity
  8
0
  6
Continuous
 62
     5
370
    15
100
AcDbCircle
 10
83.15756950102002
 20
-516.5522143455249
 30
0.0
 40
3.0
  0
CIRCLE
  5
32C
330
1F
100
AcDbEntity
  8
0
  6
Continuous
 62
     5
370
    15
100
AcDbCircle
 10
93.35116973372004
 20
-527.556327862525
 30
0.0
 40
2.0
  0
LINE
  5
32D
330
1F
100
AcDbEntity
  8
0
  6
Continuous
 62
     5
370
    15
100
AcDbLine
 10
31.88270792192006
 20
-553.674464927125
 30
0.0
 11
31.88270792192006
 21
-549.674464927125
 31
0.0
  0
LINE
  5
32E
330
1F
100
AcDbEntity
  8
0
  6
Continuous
 62
     5
370
    15
100
AcDbLine
 10
27.88270792192006
 20
-553.674464927125
 30
0.0
 11
31.88270792192006
 21
-553.674464927125
 31
0.0
  0
LINE
  5
32F
330
1F
100
AcDbEntity
  8
0
  6
Continuous
 62
     5
370
    15
100
AcDbLine
 10
27.88270792192006
 20
-549.674464927125
 30
0.0
 11
27.88270792192006
 21
-553.674464927125
 31
0.0
  0
LINE
  5
330
330
1F
100
AcDbEntity
  8
0
  6
Continuous
 62
     5
370
    15
100
AcDbLine
 10
31.88270792192006
 20
-549.674464927125
 30
0.0
 11
27.88270792192006
 21
-549.674464927125
 31
0.0
  0
LINE
  5
331
330
1F
100
AcDbEntity
  8
0
  6
Continuous
 62
     5
370
    15
100
AcDbLine
 10
-33.66502957137995
 20
-461.411511429625
 30
0.0
 11
-33.66502957137995
 21
-457.411511429625
 31
0.0
  0
LINE
  5
332
330
1F
100
AcDbEntity
  8
0
  6
Continuous
 62
     5
370
    15
100
AcDbLine
 10
-37.66502957137995
 20
-461.411511429625
 30
0.0
 11
-33.66502957137995
 21
-461.411511429625
 31
0.0
  0
LINE
  5
333
330
1F
100
AcDbEntity
  8
0
  6
Continuous
 62
     5
370
    15
100
AcDbLine
 10
-37.66502957137995
 20
-457.411511429625
 30
0.0
 11
-37.66502957137995
 21
-461.411511429625
 31
0.0
  0
LINE
  5
334
330
1F
100
AcDbEntity
  8
0
  6
Continuous
 62
     5
370
    15
100
AcDbLine
 10
-33.66502957137995
 20
-457.411511429625
 30
0.0
 11
-37.66502957137995
 21
-457.411511429625
 31
0.0
  0
LINE
  5
335
330
1F
100
AcDbEntity
  8
0
  6
Continuous
 62
     5
370
    15
100
AcDbLine
 10
49.78370039002006
 20
-476.6460870629249
 30
0.0
 11
49.50467449502005
 21
-480.636343264025
 31
0.0
  0
LINE
  5
336
330
1F
100
AcDbEntity
  8
0
  6
Continuous
 62
     5
370
    15
100
AcDbLine
 10
49.78370039002006
 20
-476.6460870629249
 30
0.0
 11
-22.41343185367995
 21
-471.597571773725
 31
0.0
  0
ARC
  5
337
330
1F
100
AcDbEntity
  8
0
  6
Continuous
 62
     5
370
    15
100
AcDbCircle
 10
-22.06464948497995
 20
-466.609751522425
 30
0.0
 40
5.000000000000004
100
AcDbArc
 50
165.0000000000001
 51
266.0000000000001
  0
LINE
  5
338
330
1F
100
AcDbEntity
  8
0
  6
Continuous
 62
     5
370
    15
100
AcDbLine
 10
-26.89427861637995
 20
-465.315656296925
 30
0.0
 11
-26.00577130847995
 21
-461.999701880725
 31
0.0
  0
ARC
  5
339
330
1F
100
AcDbEntity
  8
0
  6
Continuous
 62
     5
370
    15
100
AcDbCircle
 10
-35.66502957137995
 20
-459.411511429625
 30
0.0
 40
10.00000000000001
100
AcDbArc
 50
345.0000000000001
 51
165.0000000000001
  0
LINE
  5
33A
330
1F
100
AcDbEntity
  8
0
  6
Continuous
 62
     5
370
    15
100
AcDbLine
 10
-45.32428783427996
 20
-456.823320978625
 30
0.0
 11
-69.91209711897996
 21
-548.586274476125
 31
0.0
  0
ARC
  5
33B
330
1F
100
AcDbEntity
  8
0
  6
Continuous
 62
     5
370
    15
100
AcDbCircle
 10
-60.25283885607995
 20
-551.174464927125
 30
0.0
 40
10.00000000000001
100
AcDbArc
 50
165.0000000000001
 51
345.0000000000002
  0
LINE
  5
33C
330
1F
100
AcDbEntity
  8
0
  6
Continuous
 62
     5
370
    15
100
AcDbLine
 10
-50.59358059317995
 20
-553.7626553781249
 30
0.0
 11
-35.35214077177996
 21
-496.880827584225
 31
0.0
  0
ARC
  5
33D
330
1F
100
AcDbEntity
  8
0
  6
Continuous
 62
     5
370
    15
100
AcDbCircle
 10
-30.52251164037995
 20
-498.174922809725
 30
0.0
 40
5.000000000000005
100
AcDbArc
 50
57.68238721299987
 51
165.0000000000001
  0
ARC
  5
33E
330
1F
100
AcDbEntity
  8
0
  6
Continuous
 62
     5
370
    15
100
AcDbCircle
 10
-97.34903146237995
 20
-603.812114406625
 30
0.0
 40
130.0
100
AcDbArc
 50
20.08211481010004
 51
57.68238721300001
  0
LINE
  5
33F
330
1F
100
AcDbEntity
  8
0
  6
Continuous
 62
     5
370
    15
100
AcDbLine
 10
24.74716114392005
 20
-559.174464927125
 30
0.0
 11
109.74716114392
 21
-559.174464927125
 31
0.0
  0
ARC
  5
340
330
1F
100
AcDbEntity
  8
0
  6
Continuous
 62
     5
370
    15
100
AcDbCircle
 10
109.74716114392
 20
-551.174464927125
 30
0.0
 40
7.999999999999989
100
AcDbArc
 50
270.0
 51
36.81031200750024
  0
LINE
  5
341
330
1F
100
AcDbEntity
  8
0
  6
Continuous
 62
     5
370
    15
100
AcDbLine
 10
116.15214951692
 20
-546.381123301325
 30
0.0
 11
69.73498139522002
 21
-484.357289964925
 31
0.0
  0
LINE
  5
342
330
1F
100
AcDbEntity
  8
0
  6
Continuous
 62
     5
370
    15
100
AcDbLine
 10
69.73498139522002
 20
-484.357289964925
 30
0.0
 11
69.73498139522002
 21
-478.041216537825
 31
0.0
  0
LINE
  5
343
330
1F
100
AcDbEntity
  8
0
  6
Continuous
 62
     5
370
    15
100
AcDbLine
 10
69.73498139522002
 20
-478.041216537825
 30
0.0
 11
64.74716114392004
 21
-477.692434169125
 31
0.0
  0
LINE
  5
344
330
1F
100
AcDbEntity
  8
0
  6
Continuous
 62
     5
370
    15
100
AcDbLine
 10
64.46813524892002
 20
-481.682690370125
 30
0.0
 11
64.74716114392004
 21
-477.692434169125
 31
0.0
  0
LINE
  5
345
330
1F
100
AcDbEntity
  8
0
  6
Continuous
 62
     5
370
    15
100
AcDbLine
 10
49.50467449502005
 20
-480.636343264025
 30
0.0
 11
64.46813524892002
 21
-481.682690370125
 31
0.0
  0
LINE
  5
346
330
1F
100
AcDbEntity
  8
0
  6
Continuous
 62
     5
370
    15
100
AcDbLine
 10
27.09510795212006
 20
-485.083965107125
 30
0.0
 11
-18.70298975867995
 21
-481.881450141125
 31
0.0
  0
ARC
  5
347
330
1F
100
AcDbEntity
  8
0
  6
Continuous
 62
     5
370
    15
100
AcDbCircle
 10
26.39754321472006
 20
-495.059605609725
 30
0.0
 40
10.00000000000002
100
AcDbArc
 50
345.0000000000002
 51
86.00000000000003
  0
LINE
  5
348
330
1F
100
AcDbEntity
  8
0
  6
Continuous
 62
     5
370
    15
100
AcDbLine
 10
36.05680147762006
 20
-497.647796060725
 30
0.0
 11
31.36584113152006
 21
-515.154698408525
 31
0.0
  0
ARC
  5
349
330
1F
100
AcDbEntity
  8
0
  6
Continuous
 62
     5
370
    15
100
AcDbCircle
 10
21.70658286862005
 20
-512.566507957525
 30
0.0
 40
10.00000000000001
100
AcDbArc
 50
217.4669749979997
 51
345.0000000000001
  0
ARC
  5
34A
330
1F
100
AcDbEntity
  8
0
  6
Continuous
 62
     5
370
    15
100
AcDbCircle
 10
-97.34903146237995
 20
-603.812114406625
 30
0.0
 40
140.0
100
AcDbArc
 50
37.466974998
 51
56.65159577400001
  0
SPLINE
  5
34B
330
1F
100
AcDbEntity
  8
0
  6
Continuous
 62
     5
370
    15
100
AcDbSpline
210
0.0
220
0.0
230
1.0
 70
     8
 71
     3
 72
     8
 73
     4
 74
     0
 42
0.00000001
 43
0.00000001
 40
0.0
 40
0.0
 40
0.0
 40
0.0
 40
1.0
 40
1.0
 40
1.0
 40
1.0
 10
-18.70298975869159
 20
-481.8814501411159
 30
0.0
 10
-20.4518855374093
 20
-481.7591554340702
 30
0.0
 10
-21.85150594749756
 20
-485.9002946708287
 30
0.0
 10
-20.38701024036828
 20
-486.8640605988361
 30
0.0
  0
LINE
  5
34C
330
1F
100
AcDbEntity
  8
0
  6
Continuous
 62
     5
370
    15
100
AcDbLine
 10
92.50445373292001
 20
-536.085096446725
 30
0.0
 11
58.90972802602005
 21
-506.685815747725
 31
0.0
  0
ARC
  5
34D
330
1F
100
AcDbEntity
  8
0
  6
Continuous
 62
     5
370
    15
100
AcDbCircle
 10
85.91891342332002
 20
-543.610430913125
 30
0.0
 40
9.999999999999996
100
AcDbArc
 50
346.8813193047001
 51
48.81031200749977
  0
ARC
  5
34E
330
1F
100
AcDbEntity
  8
0
  6
Continuous
 62
     5
370
    15
100
AcDbCircle
 10
86.83428266912
 20
-541.174464927125
 30
0.0
 40
10.0
100
AcDbArc
 50
270.0
 51
331.9289927027
  0
LINE
  5
34F
330
1F
100
AcDbEntity
  8
0
  6
Continuous
 62
     5
370
    15
100
AcDbLine
 10
45.09938931382005
 20
-551.174464927125
 30
0.0
 11
86.83428266912
 21
-551.174464927125
 31
0.0
  0
ARC
  5
350
330
1F
100
AcDbEntity
  8
0
  6
Continuous
 62
     5
370
    15
100
AcDbCircle
 10
45.09938931382005
 20
-541.174464927125
 30
0.0
 40
10.00000000000002
100
AcDbArc
 50
165.0000000000002
 51
270.0
  0
LINE
  5
351
330
1F
100
AcDbEntity
  8
0
  6
Continuous
 62
     5
370
    15
100
AcDbLine
 10
42.66492945352006
 20
-511.622959763025
 30
0.0
 11
35.44013105092006
 21
-538.586274476125
 31
0.0
  0
ARC
  5
352
330
1F
100
AcDbEntity
  8
0
  6
Continuous
 62
     5
370
    15
100
AcDbCircle
 10
52.32418771642006
 20
-514.2111502141249
 30
0.0
 40
10.0
100
AcDbArc
 50
48.8103120074999
 51
165.0000000000001
  0
CIRCLE
  5
383
330
1F
100
AcDbEntity
  8
0
  6
Continuous
 62
     5
370
    15
100
AcDbCircle
 10
172.2425057893447
 20
-248.4039906976059
 30
0.0
 40
6.000000000000001
  0
LINE
  5
384
330
1F
100
AcDbEntity
  8
0
  6
Continuous
 62
     5
370
    15
100
AcDbLine
 10
172.2425057893447
 20
-245.5755635729059
 30
0.0
 11
169.4140786646447
 21
-248.4039906976059
 31
0.0
  0
LINE
  5
385
330
1F
100
AcDbEntity
  8
0
  6
Continuous
 62
     5
370
    15
100
AcDbLine
 10
175.0709329140447
 20
-248.4039906976059
 30
0.0
 11
172.2425057893447
 21
-245.5755635729059
 31
0.0
  0
LINE
  5
386
330
1F
100
AcDbEntity
  8
0
  6
Continuous
 62
     5
370
    15
100
AcDbLine
 10
172.2425057893447
 20
-251.2324178223059
 30
0.0
 11
175.0709329140447
 21
-248.4039906976059
 31
0.0
  0
LINE
  5
387
330
1F
100
AcDbEntity
  8
0
  6
Continuous
 62
     5
370
    15
100
AcDbLine
 10
169.4140786646447
 20
-248.4039906976059
 30
0.0
 11
172.2425057893447
 21
-251.2324178223059
 31
0.0
  0
CIRCLE
  5
388
330
1F
100
AcDbEntity
  8
0
  6
Continuous
 62
     5
370
    15
100
AcDbCircle
 10
185.7090042352453
 20
-248.4039906976059
 30
0.0
 40
6.000000000000001
  0
LINE
  5
389
330
1F
100
AcDbEntity
  8
0
  6
Continuous
 62
     5
370
    15
100
AcDbLine
 10
185.7090042352453
 20
-245.5755635729059
 30
0.0
 11
182.8805771105453
 21
-248.4039906976059
 31
0.0
  0
LINE
  5
38A
330
1F
100
AcDbEntity
  8
0
  6
Continuous
 62
     5
370
    15
100
AcDbLine
 10
188.5374313599453
 20
-248.4039906976059
 30
0.0
 11
185.7090042352453
 21
-245.5755635729059
 31
0.0
  0
LINE
  5
38B
330
1F
100
AcDbEntity
  8
0
  6
Continuous
 62
     5
370
    15
100
AcDbLine
 10
185.7090042352453
 20
-251.2324178223059
 30
0.0
 11
188.5374313599453
 21
-248.4039906976059
 31
0.0
  0
LINE
  5
38C
330
1F
100
AcDbEntity
  8
0
  6
Continuous
 62
     5
370
    15
100
AcDbLine
 10
182.8805771105453
 20
-248.4039906976059
 30
0.0
 11
185.7090042352453
 21
-251.2324178223059
 31
0.0
  0
CIRCLE
  5
38D
330
1F
100
AcDbEntity
  8
0
  6
Continuous
 62
     5
370
    15
100
AcDbCircle
 10
198.9300066293985
 20
-248.4039906976059
 30
0.0
 40
6.000000000000001
  0
LINE
  5
38E
330
1F
100
AcDbEntity
  8
0
  6
Continuous
 62
     5
370
    15
100
AcDbLine
 10
198.9300066293985
 20
-245.5755635729059
 30
0.0
 11
196.1015795046985
 21
-248.4039906976059
 31
0.0
  0
LINE
  5
38F
330
1F
100
AcDbEntity
  8
0
  6
Continuous
 62
     5
370
    15
100
AcDbLine
 10
201.7584337540985
 20
-248.4039906976059
 30
0.0
 11
198.9300066293985
 21
-245.5755635729059
 31
0.0
  0
LINE
  5
390
330
1F
100
AcDbEntity
  8
0
  6
Continuous
 62
     5
370
    15
100
AcDbLine
 10
198.9300066293985
 20
-251.2324178223059
 30
0.0
 11
201.7584337540985
 21
-248.4039906976059
 31
0.0
  0
LINE
  5
391
330
1F
100
AcDbEntity
  8
0
  6
Continuous
 62
     5
370
    15
100
AcDbLine
 10
196.1015795046985
 20
-248.4039906976059
 30
0.0
 11
198.9300066293985
 21
-251.2324178223059
 31
0.0
  0
CIRCLE
  5
392
330
1F
100
AcDbEntity
  8
0
  6
Continuous
 62
     5
370
    15
100
AcDbCircle
 10
212.2067938437802
 20
-248.4039906976059
 30
0.0
 40
6.000000000000001
  0
LINE
  5
393
330
1F
100
AcDbEntity
  8
0
  6
Continuous
 62
     5
370
    15
100
AcDbLine
 10
212.2067938437802
 20
-245.5755635729059
 30
0.0
 11
209.3783667190802
 21
-248.4039906976059
 31
0.0
  0
LINE
  5
394
330
1F
100
AcDbEntity
  8
0
  6
Continuous
 62
     5
370
    15
100
AcDbLine
 10
215.0352209684802
 20
-248.4039906976059
 30
0.0
 11
212.2067938437802
 21
-245.5755635729059
 31
0.0
  0
LINE
  5
395
330
1F
100
AcDbEntity
  8
0
  6
Continuous
 62
     5
370
    15
100
AcDbLine
 10
212.2067938437802
 20
-251.2324178223059
 30
0.0
 11
215.0352209684802
 21
-248.4039906976059
 31
0.0
  0
LINE
  5
396
330
1F
100
AcDbEntity
  8
0
  6
Continuous
 62
     5
370
    15
100
AcDbLine
 10
209.3783667190802
 20
-248.4039906976059
 30
0.0
 11
212.2067938437802
 21
-251.2324178223059
 31
0.0
  0
LINE
  5
3C7
330
1F
100
AcDbEntity
  8
0
  6
Continuous
 62
     5
370
    15
100
AcDbLine
 10
170.5689611653866
 20
-267.0954525044812
 30
0.0
 11
174.5689611653866
 21
-267.0954525044812
 31
0.0
  0
LINE
  5
3C8
330
1F
100
AcDbEntity
  8
0
  6
Continuous
 62
     5
370
    15
100
AcDbLine
 10
170.5689611653866
 20
-263.0954525044812
 30
0.0
 11
170.5689611653866
 21
-267.0954525044812
 31
0.0
  0
LINE
  5
3C9
330
1F
100
AcDbEntity
  8
0
  6
Continuous
 62
     5
370
    15
100
AcDbLine
 10
174.5689611653866
 20
-263.0954525044812
 30
0.0
 11
170.5689611653866
 21
-263.0954525044812
 31
0.0
  0
LINE
  5
3CA
330
1F
100
AcDbEntity
  8
0
  6
Continuous
 62
     5
370
    15
100
AcDbLine
 10
174.5689611653866
 20
-267.0954525044812
 30
0.0
 11
174.5689611653866
 21
-263.0954525044812
 31
0.0
  0
CIRCLE
  5
3CB
330
1F
100
AcDbEntity
  8
0
  6
Continuous
 62
     5
370
    15
100
AcDbCircle
 10
172.5689611653866
 20
-265.0954525044812
 30
0.0
 40
7.499999999999986
  0
LINE
  5
3CC
330
1F
100
AcDbEntity
  8
0
  6
Continuous
 62
     5
370
    15
100
AcDbLine
 10
186.3342333428059
 20
-267.0954525044812
 30
0.0
 11
190.3342333428059
 21
-267.0954525044812
 31
0.0
  0
LINE
  5
3CD
330
1F
100
AcDbEntity
  8
0
  6
Continuous
 62
     5
370
    15
100
AcDbLine
 10
186.3342333428059
 20
-263.0954525044812
 30
0.0
 11
186.3342333428059
 21
-267.0954525044812
 31
0.0
  0
LINE
  5
3CE
330
1F
100
AcDbEntity
  8
0
  6
Continuous
 62
     5
370
    15
100
AcDbLine
 10
190.3342333428059
 20
-263.0954525044812
 30
0.0
 11
186.3342333428059
 21
-263.0954525044812
 31
0.0
  0
LINE
  5
3CF
330
1F
100
AcDbEntity
  8
0
  6
Continuous
 62
     5
370
    15
100
AcDbLine
 10
190.3342333428059
 20
-267.0954525044812
 30
0.0
 11
190.3342333428059
 21
-263.0954525044812
 31
0.0
  0
CIRCLE
  5
3D0
330
1F
100
AcDbEntity
  8
0
  6
Continuous
 62
     5
370
    15
100
AcDbCircle
 10
188.3342333428059
 20
-265.0954525044812
 30
0.0
 40
7.499999999999986
  0
LINE
  5
3D1
330
1F
100
AcDbEntity
  8
0
  6
Continuous
 62
     5
370
    15
100
AcDbLine
 10
202.4560463888409
 20
-267.0954525044812
 30
0.0
 11
206.4560463888409
 21
-267.0954525044812
 31
0.0
  0
LINE
  5
3D2
330
1F
100
AcDbEntity
  8
0
  6
Continuous
 62
     5
370
    15
100
AcDbLine
 10
202.4560463888409
 20
-263.0954525044812
 30
0.0
 11
202.4560463888409
 21
-267.0954525044812
 31
0.0
  0
LINE
  5
3D3
330
1F
100
AcDbEntity
  8
0
  6
Continuous
 62
     5
370
    15
100
AcDbLine
 10
206.4560463888409
 20
-263.0954525044812
 30
0.0
 11
202.4560463888409
 21
-263.0954525044812
 31
0.0
  0
LINE
  5
3D4
330
1F
100
AcDbEntity
  8
0
  6
Continuous
 62
     5
370
    15
100
AcDbLine
 10
206.4560463888409
 20
-267.0954525044812
 30
0.0
 11
206.4560463888409
 21
-263.0954525044812
 31
0.0
  0
CIRCLE
  5
3D5
330
1F
100
AcDbEntity
  8
0
  6
Continuous
 62
     5
370
    15
100
AcDbCircle
 10
204.4560463888409
 20
-265.0954525044812
 30
0.0
 40
7.499999999999986
  0
LINE
  5
3D6
330
1F
100
AcDbEntity
  8
0
  6
Continuous
 62
     5
370
    15
100
AcDbLine
 10
218.5220746146473
 20
-267.0954525044812
 30
0.0
 11
222.5220746146473
 21
-267.0954525044812
 31
0.0
  0
LINE
  5
3D7
330
1F
100
AcDbEntity
  8
0
  6
Continuous
 62
     5
370
    15
100
AcDbLine
 10
218.5220746146473
 20
-263.0954525044812
 30
0.0
 11
218.5220746146473
 21
-267.0954525044812
 31
0.0
  0
LINE
  5
3D8
330
1F
100
AcDbEntity
  8
0
  6
Continuous
 62
     5
370
    15
100
AcDbLine
 10
222.5220746146473
 20
-263.0954525044812
 30
0.0
 11
218.5220746146473
 21
-263.0954525044812
 31
0.0
  0
LINE
  5
3D9
330
1F
100
AcDbEntity
  8
0
  6
Continuous
 62
     5
370
    15
100
AcDbLine
 10
222.5220746146473
 20
-267.0954525044812
 30
0.0
 11
222.5220746146473
 21
-263.0954525044812
 31
0.0
  0
CIRCLE
  5
3DA
330
1F
100
AcDbEntity
  8
0
  6
Continuous
 62
     5
370
    15
100
AcDbCircle
 10
220.5220746146473
 20
-265.0954525044812
 30
0.0
 40
7.499999999999986
  0
LINE
  5
407
330
1F
100
AcDbEntity
  8
0
  6
Continuous
 62
     5
370
    15
100
AcDbLine
 10
171.2457952346977
 20
-277.9476812803097
 30
0.0
 11
171.2457952346977
 21
-280.9476812803097
 31
0.0
  0
LINE
  5
408
330
1F
100
AcDbEntity
  8
0
  6
Continuous
 62
     5
370
    15
100
AcDbLine
 10
167.2457952346977
 20
-280.9476812803097
 30
0.0
 11
171.2457952346977
 21
-280.9476812803097
 31
0.0
  0
LINE
  5
409
330
1F
100
AcDbEntity
  8
0
  6
Continuous
 62
     5
370
    15
100
AcDbLine
 10
167.2457952346977
 20
-284.9476812803097
 30
0.0
 11
167.2457952346977
 21
-280.9476812803097
 31
0.0
  0
LINE
  5
40A
330
1F
100
AcDbEntity
  8
0
  6
Continuous
 62
     5
370
    15
100
AcDbLine
 10
167.2457952346977
 20
-284.9476812803097
 30
0.0
 11
171.2457952346977
 21
-284.9476812803097
 31
0.0
  0
LINE
  5
40B
330
1F
100
AcDbEntity
  8
0
  6
Continuous
 62
     5
370
    15
100
AcDbLine
 10
171.2457952346977
 20
-284.9476812803097
 30
0.0
 11
171.2457952346977
 21
-287.9476812803097
 31
0.0
  0
LINE
  5
40C
330
1F
100
AcDbEntity
  8
0
  6
Continuous
 62
     5
370
    15
100
AcDbLine
 10
185.2457952346977
 20
-287.9476812803097
 30
0.0
 11
171.2457952346977
 21
-287.9476812803097
 31
0.0
  0
LINE
  5
40D
330
1F
100
AcDbEntity
  8
0
  6
Continuous
 62
     5
370
    15
100
AcDbLine
 10
185.2457952346977
 20
-277.9476812803097
 30
0.0
 11
185.2457952346977
 21
-287.9476812803097
 31
0.0
  0
LINE
  5
40E
330
1F
100
AcDbEntity
  8
0
  6
Continuous
 62
     5
370
    15
100
AcDbLine
 10
185.2457952346977
 20
-277.9476812803097
 30
0.0
 11
171.2457952346977
 21
-277.9476812803097
 31
0.0
  0
LINE
  5
40F
330
1F
100
AcDbEntity
  8
0
  6
Continuous
 62
     5
370
    15
100
AcDbLine
 10
171.2457952346977
 20
-289.5930593976126
 30
0.0
 11
171.2457952346977
 21
-292.5930593976126
 31
0.0
  0
LINE
  5
410
330
1F
100
AcDbEntity
  8
0
  6
Continuous
 62
     5
370
    15
100
AcDbLine
 10
167.2457952346977
 20
-292.5930593976126
 30
0.0
 11
171.2457952346977
 21
-292.5930593976126
 31
0.0
  0
LINE
  5
411
330
1F
100
AcDbEntity
  8
0
  6
Continuous
 62
     5
370
    15
100
AcDbLine
 10
167.2457952346977
 20
-296.5930593976126
 30
0.0
 11
167.2457952346977
 21
-292.5930593976126
 31
0.0
  0
LINE
  5
412
330
1F
100
AcDbEntity
  8
0
  6
Continuous
 62
     5
370
    15
100
AcDbLine
 10
167.2457952346977
 20
-296.5930593976126
 30
0.0
 11
171.2457952346977
 21
-296.5930593976126
 31
0.0
  0
LINE
  5
413
330
1F
100
AcDbEntity
  8
0
  6
Continuous
 62
     5
370
    15
100
AcDbLine
 10
171.2457952346977
 20
-296.5930593976126
 30
0.0
 11
171.2457952346977
 21
-299.5930593976126
 31
0.0
  0
LINE
  5
414
330
1F
100
AcDbEntity
  8
0
  6
Continuous
 62
     5
370
    15
100
AcDbLine
 10
185.2457952346977
 20
-299.5930593976126
 30
0.0
 11
171.2457952346977
 21
-299.5930593976126
 31
0.0
  0
LINE
  5
415
330
1F
100
AcDbEntity
  8
0
  6
Continuous
 62
     5
370
    15
100
AcDbLine
 10
185.2457952346977
 20
-289.5930593976126
 30
0.0
 11
185.2457952346977
 21
-299.5930593976126
 31
0.0
  0
LINE
  5
416
330
1F
100
AcDbEntity
  8
0
  6
Continuous
 62
     5
370
    15
100
AcDbLine
 10
185.2457952346977
 20
-289.5930593976126
 30
0.0
 11
171.2457952346977
 21
-289.5930593976126
 31
0.0
  0
LINE
  5
44F
330
1F
100
AcDbEntity
  8
0
  6
Continuous
 62
     5
370
    15
100
AcDbLine
 10
207.1981771206724
 20
-286.75459739524
 30
0.0
 11
205.0196209805724
 21
-283.39991512344
 31
0.0
  0
LINE
  5
450
330
1F
100
AcDbEntity
  8
0
  6
Continuous
 62
     5
370
    15
100
AcDbLine
 10
205.0196209805724
 20
-283.39991512344
 30
0.0
 11
208.3743032523724
 21
-281.22135898344
 31
0.0
  0
LINE
  5
451
330
1F
100
AcDbEntity
  8
0
  6
Continuous
 62
     5
370
    15
100
AcDbLine
 10
208.3743032523724
 20
-281.22135898344
 30
0.0
 11
210.5528593924724
 21
-284.57604125514
 31
0.0
  0
LINE
  5
452
330
1F
100
AcDbEntity
  8
0
  6
Continuous
 62
     5
370
    15
100
AcDbLine
 10
210.5528593924724
 20
-284.57604125514
 30
0.0
 11
207.1981771206724
 21
-286.75459739524
 31
0.0
  0
LINE
  5
453
330
1F
100
AcDbEntity
  8
0
  6
Continuous
 62
     5
370
    15
100
AcDbLine
 10
201.9126194617724
 20
-302.16138770884
 30
0.0
 11
209.0142738241724
 21
-289.86096153554
 31
0.0
  0
ARC
  5
454
330
1F
100
AcDbEntity
  8
0
  6
Continuous
 62
     5
370
    15
100
AcDbCircle
 10
207.7862401864724
 20
-283.98797818934
 30
0.0
 40
6.000000000000005
100
AcDbArc
 50
281.8103148958002
 51
198.1896851042004
  0
LINE
  5
455
330
1F
100
AcDbEntity
  8
0
  6
Continuous
 62
     5
370
    15
100
AcDbLine
 10
202.0860705938724
 20
-285.86096153554
 30
0.0
 11
194.9844162315724
 21
-298.16138770884
 31
0.0
  0
ARC
  5
456
330
1F
100
AcDbEntity
  8
0
  6
Continuous
 62
     5
370
    15
100
AcDbCircle
 10
190.6542892125724
 20
-295.66138770884
 30
0.0
 40
5.000000000000003
100
AcDbArc
 50
294.9031987723999
 51
329.9999999999999
  0
ARC
  5
457
330
1F
100
AcDbEntity
  8
0
  6
Continuous
 62
     5
370
    15
100
AcDbCircle
 10
195.2862401864724
 20
-305.63861328394
 30
0.0
 40
6.000000000000004
100
AcDbArc
 50
114.9031987723998
 51
5.096801227599919
  0
ARC
  5
458
330
1F
100
AcDbEntity
  8
0
  6
Continuous
 62
     5
370
    15
100
AcDbCircle
 10
206.2427464807724
 20
-304.66138770884
 30
0.0
 40
5.0
100
AcDbArc
 50
150.0000000000001
 51
185.0968012276
  0
LINE
  5
459
330
1F
100
AcDbEntity
  8
0
  6
Continuous
 62
     5
370
    15
100
AcDbLine
 10
193.2862401864724
 20
-307.63861328394
 30
0.0
 11
197.2862401864724
 21
-307.63861328394
 31
0.0
  0
LINE
  5
45A
330
1F
100
AcDbEntity
  8
0
  6
Continuous
 62
     5
370
    15
100
AcDbLine
 10
193.2862401864724
 20
-303.63861328394
 30
0.0
 11
193.2862401864724
 21
-307.63861328394
 31
0.0
  0
LINE
  5
45B
330
1F
100
AcDbEntity
  8
0
  6
Continuous
 62
     5
370
    15
100
AcDbLine
 10
197.2862401864724
 20
-303.63861328394
 30
0.0
 11
193.2862401864724
 21
-303.63861328394
 31
0.0
  0
LINE
  5
45C
330
1F
100
AcDbEntity
  8
0
  6
Continuous
 62
     5
370
    15
100
AcDbLine
 10
197.2862401864724
 20
-307.63861328394
 30
0.0
 11
197.2862401864724
 21
-303.63861328394
 31
0.0
  0
LINE
  5
45D
330
1F
100
AcDbEntity
  8
0
  6
Continuous
 62
     5
370
    15
100
AcDbLine
 10
222.3946902515836
 20
-286.75459739524
 30
0.0
 11
220.2161341114836
 21
-283.39991512344
 31
0.0
  0
LINE
  5
45E
330
1F
100
AcDbEntity
  8
0
  6
Continuous
 62
     5
370
    15
100
AcDbLine
 10
220.2161341114836
 20
-283.39991512344
 30
0.0
 11
223.5708163832836
 21
-281.22135898344
 31
0.0
  0
LINE
  5
45F
330
1F
100
AcDbEntity
  8
0
  6
Continuous
 62
     5
370
    15
100
AcDbLine
 10
223.5708163832836
 20
-281.22135898344
 30
0.0
 11
225.7493725233836
 21
-284.57604125514
 31
0.0
  0
LINE
  5
460
330
1F
100
AcDbEntity
  8
0
  6
Continuous
 62
     5
370
    15
100
AcDbLine
 10
225.7493725233836
 20
-284.57604125514
 30
0.0
 11
222.3946902515836
 21
-286.75459739524
 31
0.0
  0
LINE
  5
461
330
1F
100
AcDbEntity
  8
0
  6
Continuous
 62
     5
370
    15
100
AcDbLine
 10
217.1091325926836
 20
-302.16138770884
 30
0.0
 11
224.2107869550836
 21
-289.86096153554
 31
0.0
  0
ARC
  5
462
330
1F
100
AcDbEntity
  8
0
  6
Continuous
 62
     5
370
    15
100
AcDbCircle
 10
222.9827533173836
 20
-283.98797818934
 30
0.0
 40
6.000000000000005
100
AcDbArc
 50
281.8103148957999
 51
198.1896851042003
  0
LINE
  5
463
330
1F
100
AcDbEntity
  8
0
  6
Continuous
 62
     5
370
    15
100
AcDbLine
 10
217.2825837247836
 20
-285.86096153554
 30
0.0
 11
210.1809293624836
 21
-298.16138770884
 31
0.0
  0
ARC
  5
464
330
1F
100
AcDbEntity
  8
0
  6
Continuous
 62
     5
370
    15
100
AcDbCircle
 10
205.8508023434836
 20
-295.66138770884
 30
0.0
 40
5.000000000000003
100
AcDbArc
 50
294.9031987723999
 51
329.9999999999999
  0
ARC
  5
465
330
1F
100
AcDbEntity
  8
0
  6
Continuous
 62
     5
370
    15
100
AcDbCircle
 10
210.4827533173836
 20
-305.63861328394
 30
0.0
 40
6.000000000000004
100
AcDbArc
 50
114.9031987724001
 51
5.096801227599943
  0
ARC
  5
466
330
1F
100
AcDbEntity
  8
0
  6
Continuous
 62
     5
370
    15
100
AcDbCircle
 10
221.4392596116836
 20
-304.66138770884
 30
0.0
 40
5.0
100
AcDbArc
 50
150.0
 51
185.0968012276
  0
LINE
  5
467
330
1F
100
AcDbEntity
  8
0
  6
Continuous
 62
     5
370
    15
100
AcDbLine
 10
208.4827533173836
 20
-307.63861328394
 30
0.0
 11
212.4827533173836
 21
-307.63861328394
 31
0.0
  0
LINE
  5
468
330
1F
100
AcDbEntity
  8
0
  6
Continuous
 62
     5
370
    15
100
AcDbLine
 10
208.4827533173836
 20
-303.63861328394
 30
0.0
 11
208.4827533173836
 21
-307.63861328394
 31
0.0
  0
LINE
  5
469
330
1F
100
AcDbEntity
  8
0
  6
Continuous
 62
     5
370
    15
100
AcDbLine
 10
212.4827533173836
 20
-303.63861328394
 30
0.0
 11
208.4827533173836
 21
-303.63861328394
 31
0.0
  0
LINE
  5
46A
330
1F
100
AcDbEntity
  8
0
  6
Continuous
 62
     5
370
    15
100
AcDbLine
 10
212.4827533173836
 20
-307.63861328394
 30
0.0
 11
212.4827533173836
 21
-303.63861328394
 31
0.0
  0
LINE
  5
4CD
330
1F
100
AcDbEntity
  8
0
  6
Continuous
 62
     5
370
    15
100
AcDbLine
 10
183.8639077337988
 20
-339.7305305613754
 30
0.0
 11
186.4492559925988
 21
-342.7827386768753
 31
0.0
  0
LINE
  5
4CE
330
1F
100
AcDbEntity
  8
0
  6
Continuous
 62
     5
370
    15
100
AcDbLine
 10
186.4492559925988
 20
-342.7827386768753
 30
0.0
 11
180.3448397613988
 21
-347.9534351944753
 31
0.0
  0
LINE
  5
4CF
330
1F
100
AcDbEntity
  8
0
  6
Continuous
 62
     5
370
    15
100
AcDbLine
 10
181.6375138907987
 20
-349.4795392522753
 30
0.0
 11
180.3448397613988
 21
-347.9534351944753
 31
0.0
  0
ARC
  5
4D0
330
1F
100
AcDbEntity
  8
0
  6
Continuous
 62
     5
370
    15
100
AcDbCircle
 10
183.1636179485988
 20
-348.1868651228754
 30
0.0
 40
2.000000000000005
100
AcDbArc
 50
220.2659981629998
 51
310.2659981630003
  0
LINE
  5
4D1
330
1F
100
AcDbEntity
  8
0
  6
Continuous
 62
     5
370
    15
100
AcDbLine
 10
186.7741446775988
 20
-347.7496508367753
 30
0.0
 11
184.4562920779987
 21
-349.7129691806753
 31
0.0
  0
LINE
  5
4D2
330
1F
100
AcDbEntity
  8
0
  6
Continuous
 62
     5
370
    15
100
AcDbLine
 10
186.7741446775988
 20
-347.7496508367753
 30
0.0
 11
197.1199079563987
 21
-350.5217897524753
 31
0.0
  0
ARC
  5
4D3
330
1F
100
AcDbEntity
  8
0
  6
Continuous
 62
     5
370
    15
100
AcDbCircle
 10
197.8963650916988
 20
-347.6240122735753
 30
0.0
 40
3.000000000000009
100
AcDbArc
 50
255.0
 51
74.99999999999976
  0
LINE
  5
4D4
330
1F
100
AcDbEntity
  8
0
  6
Continuous
 62
     5
370
    15
100
AcDbLine
 10
198.6728222269988
 20
-344.7262347947753
 30
0.0
 11
191.9556385474988
 21
-342.9263708523753
 31
0.0
  0
ARC
  5
4D5
330
1F
100
AcDbEntity
  8
0
  6
Continuous
 62
     5
370
    15
100
AcDbCircle
 10
190.0357917902988
 20
-342.3658457155753
 30
0.0
 40
2.000000000000001
100
AcDbArc
 50
343.7241237696995
 51
5.594993057699646
  0
LINE
  5
4D6
330
1F
100
AcDbEntity
  8
0
  6
Continuous
 62
     5
370
    15
100
AcDbLine
 10
185.9206996642988
 20
-333.9313477393753
 30
0.0
 11
192.0262636377988
 21
-342.1708538579753
 31
0.0
  0
ARC
  5
4D7
330
1F
100
AcDbEntity
  8
0
  6
Continuous
 62
     5
370
    15
100
AcDbCircle
 10
185.3521852431988
 20
-335.8488438548753
 30
0.0
 40
2.0
100
AcDbArc
 50
73.4855463847998
 51
130.2659981630009
  0
LINE
  5
4D8
330
1F
100
AcDbEntity
  8
0
  6
Continuous
 62
     5
370
    15
100
AcDbLine
 10
180.9287957056987
 20
-336.9745870245753
 30
0.0
 11
184.0595111137987
 21
-334.3227397970753
 31
0.0
  0
ARC
  5
4D9
330
1F
100
AcDbEntity
  8
0
  6
Continuous
 62
     5
370
    15
100
AcDbCircle
 10
188.8963650916988
 20
-332.7891553767753
 30
0.0
 40
9.000000000000004
100
AcDbArc
 50
121.846591912
 51
207.7133260381001
  0
ARC
  5
4DA
330
1F
100
AcDbEntity
  8
0
  6
Continuous
 62
     5
370
    15
100
AcDbCircle
 10
186.7857781362987
 20
-329.3912997730753
 30
0.0
 40
4.999999999999995
100
AcDbArc
 50
52.33390702669988
 51
121.8465919119999
  0
ARC
  5
4DB
330
1F
100
AcDbEntity
  8
0
  6
Continuous
 62
     5
370
    15
100
AcDbCircle
 10
192.8963650916988
 20
-321.4754468777753
 30
0.0
 40
5.000000000000001
100
AcDbArc
 50
232.3339070267001
 51
119.9871774919998
  0
ARC
  5
4DC
330
1F
100
AcDbEntity
  8
0
  6
Continuous
 62
     5
370
    15
100
AcDbCircle
 10
187.8983033382987
 20
-312.8140740819753
 30
0.0
 40
5.000000000000001
100
AcDbArc
 50
272.8604243747001
 51
299.9871774920002
  0
ARC
  5
4DD
330
1F
100
AcDbEntity
  8
0
  6
Continuous
 62
     5
370
    15
100
AcDbCircle
 10
188.8963650916988
 20
-332.7891553767753
 30
0.0
 40
15.00000000000001
100
AcDbArc
 50
92.86042437470002
 51
127.2095420739999
  0
ARC
  5
4DE
330
1F
100
AcDbEntity
  8
0
  6
Continuous
 62
     5
370
    15
100
AcDbCircle
 10
178.6159251537987
 20
-319.2498586933754
 30
0.0
 40
2.000000000000003
100
AcDbArc
 50
242.0373299033996
 51
307.2095420740002
  0
ARC
  5
4DF
330
1F
100
AcDbEntity
  8
0
  6
Continuous
 62
     5
370
    15
100
AcDbCircle
 10
185.9584855944988
 20
-305.4187791474753
 30
0.0
 40
17.65924504021373
100
AcDbArc
 50
219.3609738036
 51
242.0373299034
  0
ARC
  5
4E0
330
1F
100
AcDbEntity
  8
0
  6
Continuous
 62
     5
370
    15
100
AcDbCircle
 10
169.9854652850988
 20
-318.5209556012753
 30
0.0
 40
3.000000000000007
100
AcDbArc
 50
39.36097380359944
 51
205.5159191253001
  0
ARC
  5
4E1
330
1F
100
AcDbEntity
  8
0
  6
Continuous
 62
     5
370
    15
100
AcDbCircle
 10
165.4731371060988
 20
-320.6747648788754
 30
0.0
 40
2.000000000000005
100
AcDbArc
 50
312.5859201218997
 51
25.51591912530053
  0
ARC
  5
4E2
330
1F
100
AcDbEntity
  8
0
  6
Continuous
 62
     5
370
    15
100
AcDbCircle
 10
182.6663414939987
 20
-339.3814584348754
 30
0.0
 40
23.40761029537386
100
AcDbArc
 50
132.5859201218999
 51
160.4827446212999
  0
ARC
  5
4E3
330
1F
100
AcDbEntity
  8
0
  6
Continuous
 62
     5
370
    15
100
AcDbCircle
 10
162.4887928337988
 20
-332.2293742196753
 30
0.0
 40
2.00000000000003
100
AcDbArc
 50
160.4827446213008
 51
340.4827446212993
  0
ARC
  5
4E4
330
1F
100
AcDbEntity
  8
0
  6
Continuous
 62
     5
370
    15
100
AcDbCircle
 10
182.6663414939987
 20
-339.3814584348754
 30
0.0
 40
19.40761029537381
100
AcDbArc
 50
131.5462284372999
 51
160.4827446212999
  0
ARC
  5
4E5
330
1F
100
AcDbEntity
  8
0
  6
Continuous
 62
     5
370
    15
100
AcDbCircle
 10
171.1211944965987
 20
-326.3532399455754
 30
0.0
 40
2.000000000000006
100
AcDbArc
 50
54.67290715059988
 51
131.5462284372997
  0
ARC
  5
4E6
330
1F
100
AcDbEntity
  8
0
  6
Continuous
 62
     5
370
    15
100
AcDbCircle
 10
185.9584855944988
 20
-305.4187791474753
 30
0.0
 40
23.65924504021373
100
AcDbArc
 50
234.6729071506
 51
239.0560681557
  0
ARC
  5
4E7
330
1F
100
AcDbEntity
  8
0
  6
Continuous
 62
     5
370
    15
100
AcDbCircle
 10
172.7645267644988
 20
-327.4259667557753
 30
0.0
 40
2.000000000000004
100
AcDbArc
 50
341.6101049660006
 51
59.05606815569926
  0
ARC
  5
4E8
330
1F
100
AcDbEntity
  8
0
  6
Continuous
 62
     5
370
    15
100
AcDbCircle
 10
188.8963650916988
 20
-332.7891553767753
 30
0.0
 40
15.00000000000001
100
AcDbArc
 50
161.610104966
 51
213.0763039528999
  0
ARC
  5
4E9
330
1F
100
AcDbEntity
  8
0
  6
Continuous
 62
     5
370
    15
100
AcDbCircle
 10
177.9929214309988
 20
-342.0824488916753
 30
0.0
 40
1.999999999999998
100
AcDbArc
 50
146.3938575348002
 51
220.2659981629998
  0
LINE
  5
4EA
330
1F
100
AcDbEntity
  8
0
  6
Continuous
 62
     5
370
    15
100
AcDbLine
 10
177.7594915025988
 20
-344.9012270788754
 30
0.0
 11
176.4668173731988
 21
-343.3751230210754
 31
0.0
  0
LINE
  5
4EB
330
1F
100
AcDbEntity
  8
0
  6
Continuous
 62
     5
370
    15
100
AcDbLine
 10
177.7594915025988
 20
-344.9012270788754
 30
0.0
 11
183.8639077337988
 21
-339.7305305613754
 31
0.0
  0
LINE
  5
4EC
330
1F
100
AcDbEntity
  8
0
  6
Continuous
 62
     5
370
    15
100
AcDbLine
 10
190.8963650916988
 20
-319.4754468777753
 30
0.0
 11
190.8963650916988
 21
-323.4754468777753
 31
0.0
  0
LINE
  5
4ED
330
1F
100
AcDbEntity
  8
0
  6
Continuous
 62
     5
370
    15
100
AcDbLine
 10
194.8963650916988
 20
-319.4754468777753
 30
0.0
 11
190.8963650916988
 21
-319.4754468777753
 31
0.0
  0
LINE
  5
4EE
330
1F
100
AcDbEntity
  8
0
  6
Continuous
 62
     5
370
    15
100
AcDbLine
 10
194.8963650916988
 20
-323.4754468777753
 30
0.0
 11
194.8963650916988
 21
-319.4754468777753
 31
0.0
  0
LINE
  5
4EF
330
1F
100
AcDbEntity
  8
0
  6
Continuous
 62
     5
370
    15
100
AcDbLine
 10
190.8963650916988
 20
-323.4754468777753
 30
0.0
 11
194.8963650916988
 21
-323.4754468777753
 31
0.0
  0
LINE
  5
4F0
330
1F
100
AcDbEntity
  8
0
  6
Continuous
 62
     5
370
    15
100
AcDbLine
 10
220.7410769006781
 20
-340.82806504911
 30
0.0
 11
223.326425159478
 21
-343.88027316461
 31
0.0
  0
LINE
  5
4F1
330
1F
100
AcDbEntity
  8
0
  6
Continuous
 62
     5
370
    15
100
AcDbLine
 10
223.326425159478
 20
-343.88027316461
 30
0.0
 11
217.2220089282781
 21
-349.05096968221
 31
0.0
  0
LINE
  5
4F2
330
1F
100
AcDbEntity
  8
0
  6
Continuous
 62
     5
370
    15
100
AcDbLine
 10
218.514683057678
 20
-350.57707374001
 30
0.0
 11
217.2220089282781
 21
-349.05096968221
 31
0.0
  0
ARC
  5
4F3
330
1F
100
AcDbEntity
  8
0
  6
Continuous
 62
     5
370
    15
100
AcDbCircle
 10
220.0407871154781
 20
-349.28439961061
 30
0.0
 40
2.000000000000005
100
AcDbArc
 50
220.2659981629998
 51
310.2659981630003
  0
LINE
  5
4F4
330
1F
100
AcDbEntity
  8
0
  6
Continuous
 62
     5
370
    15
100
AcDbLine
 10
223.6513138444781
 20
-348.84718532451
 30
0.0
 11
221.333461244878
 21
-350.81050366841
 31
0.0
  0
LINE
  5
4F5
330
1F
100
AcDbEntity
  8
0
  6
Continuous
 62
     5
370
    15
100
AcDbLine
 10
223.6513138444781
 20
-348.84718532451
 30
0.0
 11
233.997077123278
 21
-351.61932424021
 31
0.0
  0
ARC
  5
4F6
330
1F
100
AcDbEntity
  8
0
  6
Continuous
 62
     5
370
    15
100
AcDbCircle
 10
234.7735342585781
 20
-348.72154676131
 30
0.0
 40
3.000000000000009
100
AcDbArc
 50
255.0
 51
75.00000000000003
  0
LINE
  5
4F7
330
1F
100
AcDbEntity
  8
0
  6
Continuous
 62
     5
370
    15
100
AcDbLine
 10
235.5499913938781
 20
-345.82376928251
 30
0.0
 11
228.8328077143781
 21
-344.02390534011
 31
0.0
  0
ARC
  5
4F8
330
1F
100
AcDbEntity
  8
0
  6
Continuous
 62
     5
370
    15
100
AcDbCircle
 10
226.9129609571781
 20
-343.46338020331
 30
0.0
 40
2.000000000000001
100
AcDbArc
 50
343.7241237696995
 51
5.594993057699646
  0
LINE
  5
4F9
330
1F
100
AcDbEntity
  8
0
  6
Continuous
 62
     5
370
    15
100
AcDbLine
 10
222.7978688311781
 20
-335.02888222711
 30
0.0
 11
228.9034328046781
 21
-343.26838834571
 31
0.0
  0
ARC
  5
4FA
330
1F
100
AcDbEntity
  8
0
  6
Continuous
 62
     5
370
    15
100
AcDbCircle
 10
222.2293544100781
 20
-336.94637834261
 30
0.0
 40
2.0
100
AcDbArc
 50
73.4855463847998
 51
130.2659981630009
  0
LINE
  5
4FB
330
1F
100
AcDbEntity
  8
0
  6
Continuous
 62
     5
370
    15
100
AcDbLine
 10
217.805964872578
 20
-338.07212151231
 30
0.0
 11
220.936680280678
 21
-335.42027428481
 31
0.0
  0
ARC
  5
4FC
330
1F
100
AcDbEntity
  8
0
  6
Continuous
 62
     5
370
    15
100
AcDbCircle
 10
225.7735342585781
 20
-333.88668986451
 30
0.0
 40
9.000000000000004
100
AcDbArc
 50
121.8465919120001
 51
207.7133260381001
  0
ARC
  5
4FD
330
1F
100
AcDbEntity
  8
0
  6
Continuous
 62
     5
370
    15
100
AcDbCircle
 10
223.662947303178
 20
-330.48883426081
 30
0.0
 40
4.999999999999995
100
AcDbArc
 50
52.33390702669946
 51
121.8465919120002
  0
ARC
  5
4FE
330
1F
100
AcDbEntity
  8
0
  6
Continuous
 62
     5
370
    15
100
AcDbCircle
 10
229.7735342585781
 20
-322.57298136551
 30
0.0
 40
5.000000000000001
100
AcDbArc
 50
232.3339070267001
 51
119.9871774919998
  0
ARC
  5
4FF
330
1F
100
AcDbEntity
  8
0
  6
Continuous
 62
     5
370
    15
100
AcDbCircle
 10
224.7754725051781
 20
-313.91160856971
 30
0.0
 40
5.000000000000001
100
AcDbArc
 50
272.8604243746998
 51
299.9871774919998
  0
ARC
  5
500
330
1F
100
AcDbEntity
  8
0
  6
Continuous
 62
     5
370
    15
100
AcDbCircle
 10
225.7735342585781
 20
-333.88668986451
 30
0.0
 40
15.00000000000001
100
AcDbArc
 50
92.86042437470002
 51
127.209542074
  0
ARC
  5
501
330
1F
100
AcDbEntity
  8
0
  6
Continuous
 62
     5
370
    15
100
AcDbCircle
 10
215.493094320678
 20
-320.34739318111
 30
0.0
 40
2.000000000000003
100
AcDbArc
 50
242.0373299034003
 51
307.2095420740002
  0
ARC
  5
502
330
1F
100
AcDbEntity
  8
0
  6
Continuous
 62
     5
370
    15
100
AcDbCircle
 10
222.8356547613781
 20
-306.51631363521
 30
0.0
 40
17.65924504021373
100
AcDbArc
 50
219.3609738036001
 51
242.0373299034
  0
ARC
  5
503
330
1F
100
AcDbEntity
  8
0
  6
Continuous
 62
     5
370
    15
100
AcDbCircle
 10
206.8626344519781
 20
-319.61849008901
 30
0.0
 40
3.000000000000007
100
AcDbArc
 50
39.36097380360028
 51
205.5159191252992
  0
ARC
  5
504
330
1F
100
AcDbEntity
  8
0
  6
Continuous
 62
     5
370
    15
100
AcDbCircle
 10
202.3503062729781
 20
-321.77229936661
 30
0.0
 40
2.000000000000005
100
AcDbArc
 50
312.5859201218997
 51
25.51591912530053
  0
ARC
  5
505
330
1F
100
AcDbEntity
  8
0
  6
Continuous
 62
     5
370
    15
100
AcDbCircle
 10
219.543510660878
 20
-340.47899292261
 30
0.0
 40
23.40761029537386
100
AcDbArc
 50
132.5859201219
 51
160.4827446213001
  0
ARC
  5
506
330
1F
100
AcDbEntity
  8
0
  6
Continuous
 62
     5
370
    15
100
AcDbCircle
 10
199.3659620006781
 20
-333.32690870741
 30
0.0
 40
2.00000000000003
100
AcDbArc
 50
160.4827446212993
 51
340.4827446213008
  0
ARC
  5
507
330
1F
100
AcDbEntity
  8
0
  6
Continuous
 62
     5
370
    15
100
AcDbCircle
 10
219.543510660878
 20
-340.47899292261
 30
0.0
 40
19.40761029537381
100
AcDbArc
 50
131.5462284372999
 51
160.4827446212999
  0
ARC
  5
508
330
1F
100
AcDbEntity
  8
0
  6
Continuous
 62
     5
370
    15
100
AcDbCircle
 10
207.998363663478
 20
-327.45077443331
 30
0.0
 40
2.000000000000006
100
AcDbArc
 50
54.67290715059961
 51
131.5462284372997
  0
ARC
  5
509
330
1F
100
AcDbEntity
  8
0
  6
Continuous
 62
     5
370
    15
100
AcDbCircle
 10
222.8356547613781
 20
-306.51631363521
 30
0.0
 40
23.65924504021373
100
AcDbArc
 50
234.6729071506
 51
239.0560681557
  0
ARC
  5
50A
330
1F
100
AcDbEntity
  8
0
  6
Continuous
 62
     5
370
    15
100
AcDbCircle
 10
209.6416959313781
 20
-328.52350124351
 30
0.0
 40
2.000000000000004
100
AcDbArc
 50
341.610104965999
 51
59.05606815569926
  0
ARC
  5
50B
330
1F
100
AcDbEntity
  8
0
  6
Continuous
 62
     5
370
    15
100
AcDbCircle
 10
225.7735342585781
 20
-333.88668986451
 30
0.0
 40
15.00000000000001
100
AcDbArc
 50
161.610104966
 51
213.0763039529
  0
ARC
  5
50C
330
1F
100
AcDbEntity
  8
0
  6
Continuous
 62
     5
370
    15
100
AcDbCircle
 10
214.8700905978781
 20
-343.17998337941
 30
0.0
 40
1.999999999999998
100
AcDbArc
 50
146.3938575348002
 51
220.2659981629998
  0
LINE
  5
50D
330
1F
100
AcDbEntity
  8
0
  6
Continuous
 62
     5
370
    15
100
AcDbLine
 10
214.6366606694781
 20
-345.99876156661
 30
0.0
 11
213.343986540078
 21
-344.47265750881
 31
0.0
  0
LINE
  5
50E
330
1F
100
AcDbEntity
  8
0
  6
Continuous
 62
     5
370
    15
100
AcDbLine
 10
214.6366606694781
 20
-345.99876156661
 30
0.0
 11
220.7410769006781
 21
-340.82806504911
 31
0.0
  0
LINE
  5
50F
330
1F
100
AcDbEntity
  8
0
  6
Continuous
 62
     5
370
    15
100
AcDbLine
 10
227.7735342585781
 20
-320.57298136551
 30
0.0
 11
227.7735342585781
 21
-324.57298136551
 31
0.0
  0
LINE
  5
510
330
1F
100
AcDbEntity
  8
0
  6
Continuous
 62
     5
370
    15
100
AcDbLine
 10
231.7735342585781
 20
-320.57298136551
 30
0.0
 11
227.7735342585781
 21
-320.57298136551
 31
0.0
  0
LINE
  5
511
330
1F
100
AcDbEntity
  8
0
  6
Continuous
 62
     5
370
    15
100
AcDbLine
 10
231.7735342585781
 20
-324.57298136551
 30
0.0
 11
231.7735342585781
 21
-320.57298136551
 31
0.0
  0
LINE
  5
512
330
1F
100
AcDbEntity
  8
0
  6
Continuous
 62
     5
370
    15
100
AcDbLine
 10
227.7735342585781
 20
-324.57298136551
 30
0.0
 11
231.7735342585781
 21
-324.57298136551
 31
0.0
  0
ARC
  5
545
330
1F
100
AcDbEntity
  8
0
  6
Continuous
 62
     5
370
    15
100
AcDbCircle
 10
170.4659657112646
 20
-365.3447712324086
 30
0.0
 40
4.000000000000007
100
AcDbArc
 50
180.0
 51
270.0
  0
LINE
  5
546
330
1F
100
AcDbEntity
  8
0
  6
Continuous
 62
     5
370
    15
100
AcDbLine
 10
178.4659657112646
 20
-369.3447712324086
 30
0.0
 11
170.4659657112646
 21
-369.3447712324086
 31
0.0
  0
ARC
  5
547
330
1F
100
AcDbEntity
  8
0
  6
Continuous
 62
     5
370
    15
100
AcDbCircle
 10
178.4659657112646
 20
-365.3447712324086
 30
0.0
 40
4.0
100
AcDbArc
 50
270.0
 51
0.0
  0
LINE
  5
548
330
1F
100
AcDbEntity
  8
0
  6
Continuous
 62
     5
370
    15
100
AcDbLine
 10
182.4659657112646
 20
-359.3447712324086
 30
0.0
 11
182.4659657112646
 21
-365.3447712324086
 31
0.0
  0
ARC
  5
549
330
1F
100
AcDbEntity
  8
0
  6
Continuous
 62
     5
370
    15
100
AcDbCircle
 10
180.4659657112646
 20
-359.3447712324086
 30
0.0
 40
2.000000000000014
100
AcDbArc
 50
0.0
 51
90.0
  0
LINE
  5
54A
330
1F
100
AcDbEntity
  8
0
  6
Continuous
 62
     5
370
    15
100
AcDbLine
 10
180.4659657112646
 20
-357.3447712324086
 30
0.0
 11
178.4659657112646
 21
-357.3447712324086
 31
0.0
  0
LINE
  5
54B
330
1F
100
AcDbEntity
  8
0
  6
Continuous
 62
     5
370
    15
100
AcDbLine
 10
178.4659657112646
 20
-357.3447712324086
 30
0.0
 11
178.4659657112646
 21
-361.3447712324086
 31
0.0
  0
LINE
  5
54C
330
1F
100
AcDbEntity
  8
0
  6
Continuous
 62
     5
370
    15
100
AcDbLine
 10
170.4659657112646
 20
-361.3447712324086
 30
0.0
 11
178.4659657112646
 21
-361.3447712324086
 31
0.0
  0
LINE
  5
54D
330
1F
100
AcDbEntity
  8
0
  6
Continuous
 62
     5
370
    15
100
AcDbLine
 10
170.4659657112646
 20
-361.3447712324086
 30
0.0
 11
170.4659657112646
 21
-357.3447712324086
 31
0.0
  0
ARC
  5
54E
330
1F
100
AcDbEntity
  8
0
  6
Continuous
 62
     5
370
    15
100
AcDbCircle
 10
170.4659657112646
 20
-361.3447712324086
 30
0.0
 40
4.000000000000007
100
AcDbArc
 50
90.0
 51
180.0
  0
LINE
  5
54F
330
1F
100
AcDbEntity
  8
0
  6
Continuous
 62
     5
370
    15
100
AcDbLine
 10
166.4659657112646
 20
-361.3447712324086
 30
0.0
 11
166.4659657112646
 21
-365.3447712324086
 31
0.0
  0
ARC
  5
550
330
1F
100
AcDbEntity
  8
0
  6
Continuous
 62
     5
370
    15
100
AcDbCircle
 10
190.0422441589368
 20
-365.4037631678925
 30
0.0
 40
4.000000000000007
100
AcDbArc
 50
180.0
 51
270.0
  0
LINE
  5
551
330
1F
100
AcDbEntity
  8
0
  6
Continuous
 62
     5
370
    15
100
AcDbLine
 10
198.0422441589368
 20
-369.4037631678925
 30
0.0
 11
190.0422441589368
 21
-369.4037631678925
 31
0.0
  0
ARC
  5
552
330
1F
100
AcDbEntity
  8
0
  6
Continuous
 62
     5
370
    15
100
AcDbCircle
 10
198.0422441589368
 20
-365.4037631678925
 30
0.0
 40
4.0
100
AcDbArc
 50
270.0
 51
0.0
  0
LINE
  5
553
330
1F
100
AcDbEntity
  8
0
  6
Continuous
 62
     5
370
    15
100
AcDbLine
 10
202.0422441589368
 20
-359.4037631678925
 30
0.0
 11
202.0422441589368
 21
-365.4037631678925
 31
0.0
  0
ARC
  5
554
330
1F
100
AcDbEntity
  8
0
  6
Continuous
 62
     5
370
    15
100
AcDbCircle
 10
200.0422441589368
 20
-359.4037631678925
 30
0.0
 40
2.000000000000014
100
AcDbArc
 50
0.0
 51
90.0
  0
LINE
  5
555
330
1F
100
AcDbEntity
  8
0
  6
Continuous
 62
     5
370
    15
100
AcDbLine
 10
200.0422441589368
 20
-357.4037631678925
 30
0.0
 11
198.0422441589368
 21
-357.4037631678925
 31
0.0
  0
LINE
  5
556
330
1F
100
AcDbEntity
  8
0
  6
Continuous
 62
     5
370
    15
100
AcDbLine
 10
198.0422441589368
 20
-357.4037631678925
 30
0.0
 11
198.0422441589368
 21
-361.4037631678925
 31
0.0
  0
LINE
  5
557
330
1F
100
AcDbEntity
  8
0
  6
Continuous
 62
     5
370
    15
100
AcDbLine
 10
190.0422441589368
 20
-361.4037631678925
 30
0.0
 11
198.0422441589368
 21
-361.4037631678925
 31
0.0
  0
LINE
  5
558
330
1F
100
AcDbEntity
  8
0
  6
Continuous
 62
     5
370
    15
100
AcDbLine
 10
190.0422441589368
 20
-361.4037631678925
 30
0.0
 11
190.0422441589368
 21
-357.4037631678925
 31
0.0
  0
ARC
  5
559
330
1F
100
AcDbEntity
  8
0
  6
Continuous
 62
     5
370
    15
100
AcDbCircle
 10
190.0422441589368
 20
-361.4037631678925
 30
0.0
 40
4.000000000000007
100
AcDbArc
 50
90.0
 51
180.0
  0
LINE
  5
55A
330
1F
100
AcDbEntity
  8
0
  6
Continuous
 62
     5
370
    15
100
AcDbLine
 10
186.0422441589368
 20
-361.4037631678925
 30
0.0
 11
186.0422441589368
 21
-365.4037631678925
 31
0.0
  0
LINE
  5
58B
330
1F
100
AcDbEntity
  8
0
  6
Continuous
 62
     5
370
    15
100
AcDbLine
 10
433.1047580104277
 20
-326.9365589852262
 30
0.0
 11
435.9331851351277
 21
-324.1081318605262
 31
0.0
  0
LINE
  5
58C
330
1F
100
AcDbEntity
  8
0
  6
Continuous
 62
     5
370
    15
100
AcDbLine
 10
435.9331851351277
 20
-324.1081318605262
 30
0.0
 11
438.7616122598277
 21
-326.9365589852262
 31
0.0
  0
LINE
  5
58D
330
1F
100
AcDbEntity
  8
0
  6
Continuous
 62
     5
370
    15
100
AcDbLine
 10
438.7616122598277
 20
-326.9365589852262
 30
0.0
 11
435.9331851351277
 21
-329.7649861099262
 31
0.0
  0
LINE
  5
58E
330
1F
100
AcDbEntity
  8
0
  6
Continuous
 62
     5
370
    15
100
AcDbLine
 10
435.9331851351277
 20
-329.7649861099262
 30
0.0
 11
433.1047580104277
 21
-326.9365589852262
 31
0.0
  0
LINE
  5
58F
330
1F
100
AcDbEntity
  8
0
  6
Continuous
 62
     5
370
    15
100
AcDbLine
 10
358.0687319131277
 20
-325.4365589852262
 30
0.0
 11
358.0687319131277
 21
-329.4365589852262
 31
0.0
  0
LINE
  5
590
330
1F
100
AcDbEntity
  8
0
  6
Continuous
 62
     5
370
    15
100
AcDbLine
 10
358.0687319131277
 20
-329.4365589852262
 30
0.0
 11
354.0687319131277
 21
-329.4365589852262
 31
0.0
  0
LINE
  5
591
330
1F
100
AcDbEntity
  8
0
  6
Continuous
 62
     5
370
    15
100
AcDbLine
 10
354.0687319131277
 20
-329.4365589852262
 30
0.0
 11
354.0687319131277
 21
-325.4365589852262
 31
0.0
  0
LINE
  5
592
330
1F
100
AcDbEntity
  8
0
  6
Continuous
 62
     5
370
    15
100
AcDbLine
 10
354.0687319131277
 20
-325.4365589852262
 30
0.0
 11
358.0687319131277
 21
-325.4365589852262
 31
0.0
  0
ARC
  5
593
330
1F
100
AcDbEntity
  8
0
  6
Continuous
 62
     5
370
    15
100
AcDbCircle
 10
356.0687319131277
 20
-327.4365589852262
 30
0.0
 40
15.0
100
AcDbArc
 50
84.60987089660006
 51
276.1075325118
  0
LINE
  5
594
330
1F
100
AcDbEntity
  8
0
  6
Continuous
 62
     5
370
    15
100
AcDbLine
 10
436.6779486873277
 20
-333.8968267424261
 30
0.0
 11
357.6646538108277
 21
-342.3514184648262
 31
0.0
  0
ARC
  5
595
330
1F
100
AcDbEntity
  8
0
  6
Continuous
 62
     5
370
    15
100
AcDbCircle
 10
435.9331851351277
 20
-326.9365589852262
 30
0.0
 40
6.999999999999997
100
AcDbArc
 50
276.1075325117999
 51
84.6098708966002
  0
LINE
  5
596
330
1F
100
AcDbEntity
  8
0
  6
Continuous
 62
     5
370
    15
100
AcDbLine
 10
357.4777838660277
 20
-312.5028865436262
 30
0.0
 11
436.5907427131277
 21
-319.9675118458262
 31
0.0
  0
ARC
  5
597
330
1F
100
AcDbEntity
  8
0
  6
Continuous
 62
     5
370
    15
100
AcDbCircle
 10
356.0687319131277
 20
-327.4365589852262
 30
0.0
 40
15.0
100
AcDbArc
 50
322.6749959541001
 51
38.04240745439994
  0
ARC
  5
598
330
1F
100
AcDbEntity
  8
0
  6
Continuous
 62
     5
370
    15
100
AcDbCircle
 10
368.6696096114277
 20
-317.5766461442262
 30
0.0
 40
0.9999999999999949
100
AcDbArc
 50
84.6098708965981
 51
218.0424074543991
  0
LINE
  5
599
330
1F
100
AcDbEntity
  8
0
  6
Continuous
 62
     5
370
    15
100
AcDbLine
 10
368.7635464083277
 20
-316.5810679814261
 30
0.0
 11
428.9255270580277
 21
-322.2575924033262
 31
0.0
  0
ARC
  5
59A
330
1F
100
AcDbEntity
  8
0
  6
Continuous
 62
     5
370
    15
100
AcDbCircle
 10
428.8315902611277
 20
-323.2531705661262
 30
0.0
 40
0.9999999999999971
100
AcDbArc
 50
332.5855580596013
 51
84.6098708965981
  0
ARC
  5
59B
330
1F
100
AcDbEntity
  8
0
  6
Continuous
 62
     5
370
    15
100
AcDbCircle
 10
435.9331851351277
 20
-326.9365589852262
 30
0.0
 40
7.00000000000002
100
AcDbArc
 50
152.5855580595999
 51
208.1318453488999
  0
ARC
  5
59C
330
1F
100
AcDbEntity
  8
0
  6
Continuous
 62
     5
370
    15
100
AcDbCircle
 10
428.8782656274277
 20
-330.7085757853262
 30
0.0
 40
1.000000000000006
100
AcDbArc
 50
276.1075325117986
 51
28.13184534889926
  0
LINE
  5
59D
330
1F
100
AcDbEntity
  8
0
  6
Continuous
 62
     5
370
    15
100
AcDbLine
 10
428.9846604206277
 20
-331.7028997506262
 30
0.0
 11
368.8984699064277
 21
-338.1322507826262
 31
0.0
  0
ARC
  5
59E
330
1F
100
AcDbEntity
  8
0
  6
Continuous
 62
     5
370
    15
100
AcDbCircle
 10
368.7920751132277
 20
-337.1379268173262
 30
0.0
 40
1.000000000000009
100
AcDbArc
 50
142.6749959541027
 51
276.1075325117986
  0
LINE
  5
5CB
330
1F
100
AcDbEntity
  8
0
  6
Continuous
 62
     5
370
    15
100
AcDbLine
 10
176.9799191041574
 20
-383.6307561747702
 30
0.0
 11
174.1514919794574
 21
-380.8023290500702
 31
0.0
  0
LINE
  5
5CC
330
1F
100
AcDbEntity
  8
0
  6
Continuous
 62
     5
370
    15
100
AcDbLine
 10
174.1514919794574
 20
-386.4591832995702
 30
0.0
 11
176.9799191041574
 21
-383.6307561747702
 31
0.0
  0
LINE
  5
5CD
330
1F
100
AcDbEntity
  8
0
  6
Continuous
 62
     5
370
    15
100
AcDbLine
 10
171.3230648547574
 20
-383.6307561747702
 30
0.0
 11
174.1514919794574
 21
-386.4591832995702
 31
0.0
  0
LINE
  5
5CE
330
1F
100
AcDbEntity
  8
0
  6
Continuous
 62
     5
370
    15
100
AcDbLine
 10
174.1514919794574
 20
-380.8023290500702
 30
0.0
 11
171.3230648547574
 21
-383.6307561747702
 31
0.0
  0
LINE
  5
5CF
330
1F
100
AcDbEntity
  8
0
  6
Continuous
 62
     5
370
    15
100
AcDbLine
 10
180.1514919794574
 20
-376.1307561747702
 30
0.0
 11
180.1514919794574
 21
-391.1307561747702
 31
0.0
  0
LINE
  5
5D0
330
1F
100
AcDbEntity
  8
0
  6
Continuous
 62
     5
370
    15
100
AcDbLine
 10
168.1514919794574
 20
-376.1307561747702
 30
0.0
 11
180.1514919794574
 21
-376.1307561747702
 31
0.0
  0
LINE
  5
5D1
330
1F
100
AcDbEntity
  8
0
  6
Continuous
 62
     5
370
    15
100
AcDbLine
 10
168.1514919794574
 20
-376.1307561747702
 30
0.0
 11
168.1514919794574
 21
-391.1307561747702
 31
0.0
  0
LINE
  5
5D2
330
1F
100
AcDbEntity
  8
0
  6
Continuous
 62
     5
370
    15
100
AcDbLine
 10
168.1514919794574
 20
-391.1307561747702
 30
0.0
 11
180.1514919794574
 21
-391.1307561747702
 31
0.0
  0
LINE
  5
5D3
330
1F
100
AcDbEntity
  8
0
  6
Continuous
 62
     5
370
    15
100
AcDbLine
 10
193.7505869503866
 20
-383.6051009328347
 30
0.0
 11
190.9221598256866
 21
-380.7766738081347
 31
0.0
  0
LINE
  5
5D4
330
1F
100
AcDbEntity
  8
0
  6
Continuous
 62
     5
370
    15
100
AcDbLine
 10
190.9221598256866
 20
-386.4335280576347
 30
0.0
 11
193.7505869503866
 21
-383.6051009328347
 31
0.0
  0
LINE
  5
5D5
330
1F
100
AcDbEntity
  8
0
  6
Continuous
 62
     5
370
    15
100
AcDbLine
 10
188.0937327009866
 20
-383.6051009328347
 30
0.0
 11
190.9221598256866
 21
-386.4335280576347
 31
0.0
  0
LINE
  5
5D6
330
1F
100
AcDbEntity
  8
0
  6
Continuous
 62
     5
370
    15
100
AcDbLine
 10
190.9221598256866
 20
-380.7766738081347
 30
0.0
 11
188.0937327009866
 21
-383.6051009328347
 31
0.0
  0
LINE
  5
5D7
330
1F
100
AcDbEntity
  8
0
  6
Continuous
 62
     5
370
    15
100
AcDbLine
 10
196.9221598256866
 20
-376.1051009328347
 30
0.0
 11
196.9221598256866
 21
-391.1051009328347
 31
0.0
  0
LINE
  5
5D8
330
1F
100
AcDbEntity
  8
0
  6
Continuous
 62
     5
370
    15
100
AcDbLine
 10
184.9221598256866
 20
-376.1051009328347
 30
0.0
 11
196.9221598256866
 21
-376.1051009328347
 31
0.0
  0
LINE
  5
5D9
330
1F
100
AcDbEntity
  8
0
  6
Continuous
 62
     5
370
    15
100
AcDbLine
 10
184.9221598256866
 20
-376.1051009328347
 30
0.0
 11
184.9221598256866
 21
-391.1051009328347
 31
0.0
  0
LINE
  5
5DA
330
1F
100
AcDbEntity
  8
0
  6
Continuous
 62
     5
370
    15
100
AcDbLine
 10
184.9221598256866
 20
-391.1051009328347
 30
0.0
 11
196.9221598256866
 21
-391.1051009328347
 31
0.0
  0
LINE
  5
5FD
330
1F
100
AcDbEntity
  8
0
  6
Continuous
 62
     5
370
    15
100
AcDbLine
 10
221.8710708299455
 20
-372.9158123979544
 30
0.0
 11
219.0426437052455
 21
-370.0873852731544
 31
0.0
  0
LINE
  5
5FE
330
1F
100
AcDbEntity
  8
0
  6
Continuous
 62
     5
370
    15
100
AcDbLine
 10
219.0426437052455
 20
-375.7442395226543
 30
0.0
 11
221.8710708299455
 21
-372.9158123979544
 31
0.0
  0
LINE
  5
5FF
330
1F
100
AcDbEntity
  8
0
  6
Continuous
 62
     5
370
    15
100
AcDbLine
 10
216.2142165805455
 20
-372.9158123979544
 30
0.0
 11
219.0426437052455
 21
-375.7442395226543
 31
0.0
  0
LINE
  5
600
330
1F
100
AcDbEntity
  8
0
  6
Continuous
 62
     5
370
    15
100
AcDbLine
 10
219.0426437052455
 20
-370.0873852731544
 30
0.0
 11
216.2142165805455
 21
-372.9158123979544
 31
0.0
  0
SPLINE
  5
601
330
1F
100
AcDbEntity
  8
0
  6
Continuous
 62
     5
370
    15
100
AcDbSpline
210
0.0
220
0.0
230
1.0
 70
     8
 71
     3
 72
    13
 73
     9
 74
     0
 42
0.00000001
 43
0.00000001
 40
0.0
 40
0.0
 40
0.0
 40
0.0
 40
0.0127962322539181
 40
0.2559246450783624
 40
0.6602852459558581
 40
0.8906601433702195
 40
0.994533007168511
 40
1.0
 40
1.0
 40
1.0
 40
1.0
 10
219.0426437052457
 20
-358.7881846476873
 30
0.0
 10
218.6200851395678
 20
-358.7881846476873
 30
0.0
 10
210.4429142152145
 20
-358.8075867075115
 30
0.0
 10
207.653898840852
 20
-366.4857002475975
 30
0.0
 10
215.1627931728041
 20
-378.9301534795416
 30
0.0
 10
212.6776606021415
 20
-391.7781379412119
 30
0.0
 10
216.5557050219398
 20
-394.1965144721638
 30
0.0
 10
218.9216288404706
 20
-394.2342445607532
 30
0.0
 10
219.0426437052457
 20
-394.2342445607532
 30
0.0
  0
SPLINE
  5
602
330
1F
100
AcDbEntity
  8
0
  6
Continuous
 62
     5
370
    15
100
AcDbSpline
210
0.0
220
0.0
230
1.0
 70
     8
 71
     3
 72
    13
 73
     9
 74
     0
 42
0.00000001
 43
0.00000001
 40
0.0
 40
0.0
 40
0.0
 40
0.0
 40
0.005466992831489
 40
0.1093398566297805
 40
0.3397147540441419
 40
0.7440753549216376
 40
0.9872037677460819
 40
1.0
 40
1.0
 40
1.0
 40
1.0
 10
219.0426437052457
 20
-394.2342445607532
 30
0.0
 10
219.1636585700207
 20
-394.2342445607532
 30
0.0
 10
221.5295823885516
 20
-394.1965144721638
 30
0.0
 10
225.4076268083498
 20
-391.778137941212
 30
0.0
 10
222.9224942376873
 20
-378.9301534795416
 30
0.0
 10
230.4313885696394
 20
-366.4857002475974
 30
0.0
 10
227.6423731952768
 20
-358.8075867075115
 30
0.0
 10
219.4652022709235
 20
-358.7881846476873
 30
0.0
 10
219.0426437052457
 20
-358.7881846476873
 30
0.0
  0
LINE
  5
623
330
1F
100
AcDbEntity
  8
0
  6
Continuous
 62
     5
370
    15
100
AcDbLine
 10
231.8778365628263
 20
-392.1727780462779
 30
0.0
 11
235.8761631026263
 21
-392.288471090978
 31
0.0
  0
LINE
  5
624
330
1F
100
AcDbEntity
  8
0
  6
Continuous
 62
     5
370
    15
100
AcDbLine
 10
236.8595539820263
 20
-358.302695502078
 30
0.0
 11
235.8761631026263
 21
-392.288471090978
 31
0.0
  0
LINE
  5
625
330
1F
100
AcDbEntity
  8
0
  6
Continuous
 62
     5
370
    15
100
AcDbLine
 10
232.8612274421263
 20
-358.187002457378
 30
0.0
 11
236.8595539820263
 21
-358.302695502078
 31
0.0
  0
LINE
  5
626
330
1F
100
AcDbEntity
  8
0
  6
Continuous
 62
     5
370
    15
100
AcDbLine
 10
232.8612274421263
 20
-358.187002457378
 30
0.0
 11
231.8778365628263
 21
-392.1727780462779
 31
0.0
  0
LINE
  5
64B
330
1F
100
AcDbEntity
  8
0
  6
Continuous
 62
     5
370
    15
100
AcDbLine
 10
177.8778239404479
 20
-409.9951526557771
 30
0.0
 11
177.8778239404479
 21
-405.9951526557771
 31
0.0
  0
LINE
  5
64C
330
1F
100
AcDbEntity
  8
0
  6
Continuous
 62
     5
370
    15
100
AcDbLine
 10
173.8778239404479
 20
-409.9951526557771
 30
0.0
 11
177.8778239404479
 21
-409.9951526557771
 31
0.0
  0
LINE
  5
64D
330
1F
100
AcDbEntity
  8
0
  6
Continuous
 62
     5
370
    15
100
AcDbLine
 10
173.8778239404479
 20
-405.9951526557771
 30
0.0
 11
173.8778239404479
 21
-409.9951526557771
 31
0.0
  0
LINE
  5
64E
330
1F
100
AcDbEntity
  8
0
  6
Continuous
 62
     5
370
    15
100
AcDbLine
 10
177.8778239404479
 20
-405.9951526557771
 30
0.0
 11
173.8778239404479
 21
-405.9951526557771
 31
0.0
  0
ARC
  5
64F
330
1F
100
AcDbEntity
  8
0
  6
Continuous
 62
     5
370
    15
100
AcDbCircle
 10
175.8778239404479
 20
-407.9951526557771
 30
0.0
 40
10.00000000000001
100
AcDbArc
 50
344.9999999999998
 51
165.0000000000001
  0
LINE
  5
650
330
1F
100
AcDbEntity
  8
0
  6
Continuous
 62
     5
370
    15
100
AcDbLine
 10
166.2185656775479
 20
-405.4069622047771
 30
0.0
 11
161.0421847755479
 21
-424.7254787305771
 31
0.0
  0
ARC
  5
651
330
1F
100
AcDbEntity
  8
0
  6
Continuous
 62
     5
370
    15
100
AcDbCircle
 10
170.7014430384478
 20
-427.3136691815771
 30
0.0
 40
10.00000000000001
100
AcDbArc
 50
165.0000000000001
 51
344.9999999999998
  0
LINE
  5
652
330
1F
100
AcDbEntity
  8
0
  6
Continuous
 62
     5
370
    15
100
AcDbLine
 10
180.3607013013479
 20
-429.9018596325771
 30
0.0
 11
185.5370822033479
 21
-410.5833431068771
 31
0.0
  0
LINE
  5
673
330
1F
100
AcDbEntity
  8
0
  6
Continuous
 62
     5
370
    15
100
AcDbLine
 10
191.8663494550496
 20
-400.6867724254781
 30
0.0
 11
191.8663494550496
 21
-404.6867724254781
 31
0.0
  0
LINE
  5
674
330
1F
100
AcDbEntity
  8
0
  6
Continuous
 62
     5
370
    15
100
AcDbLine
 10
220.8663494550496
 20
-404.6867724254781
 30
0.0
 11
191.8663494550496
 21
-404.6867724254781
 31
0.0
  0
LINE
  5
675
330
1F
100
AcDbEntity
  8
0
  6
Continuous
 62
     5
370
    15
100
AcDbLine
 10
220.8663494550496
 20
-400.6867724254781
 30
0.0
 11
220.8663494550496
 21
-404.6867724254781
 31
0.0
  0
LINE
  5
676
330
1F
100
AcDbEntity
  8
0
  6
Continuous
 62
     5
370
    15
100
AcDbLine
 10
220.8663494550496
 20
-400.6867724254781
 30
0.0
 11
191.8663494550496
 21
-400.6867724254781
 31
0.0
  0
LINE
  5
697
330
1F
100
AcDbEntity
  8
0
  6
Continuous
 62
     5
370
    15
100
AcDbLine
 10
192.1776732102136
 20
-409.7151613252353
 30
0.0
 11
192.1776732102136
 21
-413.7151613252353
 31
0.0
  0
LINE
  5
698
330
1F
100
AcDbEntity
  8
0
  6
Continuous
 62
     5
370
    15
100
AcDbLine
 10
224.1776732102136
 20
-413.7151613252353
 30
0.0
 11
192.1776732102136
 21
-413.7151613252353
 31
0.0
  0
LINE
  5
699
330
1F
100
AcDbEntity
  8
0
  6
Continuous
 62
     5
370
    15
100
AcDbLine
 10
224.1776732102136
 20
-409.7151613252353
 30
0.0
 11
224.1776732102136
 21
-413.7151613252353
 31
0.0
  0
LINE
  5
69A
330
1F
100
AcDbEntity
  8
0
  6
Continuous
 62
     5
370
    15
100
AcDbLine
 10
224.1776732102136
 20
-409.7151613252353
 30
0.0
 11
192.1776732102136
 21
-409.7151613252353
 31
0.0
  0
LINE
  5
6BB
330
1F
100
AcDbEntity
  8
0
  6
Continuous
 62
     5
370
    15
100
AcDbLine
 10
191.8663494550496
 20
-418.7435502249924
 30
0.0
 11
191.8663494550496
 21
-422.7435502249924
 31
0.0
  0
LINE
  5
6BC
330
1F
100
AcDbEntity
  8
0
  6
Continuous
 62
     5
370
    15
100
AcDbLine
 10
225.8663494550496
 20
-422.7435502249924
 30
0.0
 11
191.8663494550496
 21
-422.7435502249924
 31
0.0
  0
LINE
  5
6BD
330
1F
100
AcDbEntity
  8
0
  6
Continuous
 62
     5
370
    15
100
AcDbLine
 10
225.8663494550496
 20
-418.7435502249924
 30
0.0
 11
225.8663494550496
 21
-422.7435502249924
 31
0.0
  0
LINE
  5
6BE
330
1F
100
AcDbEntity
  8
0
  6
Continuous
 62
     5
370
    15
100
AcDbLine
 10
225.8663494550496
 20
-418.7435502249924
 30
0.0
 11
191.8663494550496
 21
-418.7435502249924
 31
0.0
  0
LINE
  5
6DF
330
1F
100
AcDbEntity
  8
0
  6
Continuous
 62
     5
370
    15
100
AcDbLine
 10
191.2437019447215
 20
-426.8379678592574
 30
0.0
 11
191.2437019447215
 21
-430.8379678592574
 31
0.0
  0
LINE
  5
6E0
330
1F
100
AcDbEntity
  8
0
  6
Continuous
 62
     5
370
    15
100
AcDbLine
 10
251.2437019447215
 20
-430.8379678592574
 30
0.0
 11
191.2437019447215
 21
-430.8379678592574
 31
0.0
  0
LINE
  5
6E1
330
1F
100
AcDbEntity
  8
0
  6
Continuous
 62
     5
370
    15
100
AcDbLine
 10
251.2437019447215
 20
-426.8379678592574
 30
0.0
 11
251.2437019447215
 21
-430.8379678592574
 31
0.0
  0
LINE
  5
6E2
330
1F
100
AcDbEntity
  8
0
  6
Continuous
 62
     5
370
    15
100
AcDbLine
 10
251.2437019447215
 20
-426.8379678592574
 30
0.0
 11
191.2437019447215
 21
-426.8379678592574
 31
0.0
  0
LINE
  5
703
330
1F
100
AcDbEntity
  8
0
  6
Continuous
 62
     5
370
    15
100
AcDbLine
 10
191.5550256998856
 20
-436.2720981484436
 30
0.0
 11
191.5550256998856
 21
-448.2720981484436
 31
0.0
  0
LINE
  5
704
330
1F
100
AcDbEntity
  8
0
  6
Continuous
 62
     5
370
    15
100
AcDbLine
 10
247.5550256998856
 20
-448.2720981484436
 30
0.0
 11
191.5550256998856
 21
-448.2720981484436
 31
0.0
  0
LINE
  5
705
330
1F
100
AcDbEntity
  8
0
  6
Continuous
 62
     5
370
    15
100
AcDbLine
 10
247.5550256998856
 20
-436.2720981484436
 30
0.0
 11
247.5550256998856
 21
-448.2720981484436
 31
0.0
  0
LINE
  5
706
330
1F
100
AcDbEntity
  8
0
  6
Continuous
 62
     5
370
    15
100
AcDbLine
 10
247.5550256998856
 20
-436.2720981484436
 30
0.0
 11
191.5550256998856
 21
-436.2720981484436
 31
0.0
  0
LINE
  5
727
330
1F
100
AcDbEntity
  8
0
  6
Continuous
 62
     5
370
    15
100
AcDbLine
 10
191.8663494550496
 20
-453.0835809273017
 30
0.0
 11
191.8663494550496
 21
-465.0835809273017
 31
0.0
  0
LINE
  5
728
330
1F
100
AcDbEntity
  8
0
  6
Continuous
 62
     5
370
    15
100
AcDbLine
 10
259.8663494550496
 20
-465.0835809273017
 30
0.0
 11
191.8663494550496
 21
-465.0835809273017
 31
0.0
  0
LINE
  5
729
330
1F
100
AcDbEntity
  8
0
  6
Continuous
 62
     5
370
    15
100
AcDbLine
 10
259.8663494550496
 20
-453.0835809273017
 30
0.0
 11
259.8663494550496
 21
-465.0835809273017
 31
0.0
  0
LINE
  5
72A
330
1F
100
AcDbEntity
  8
0
  6
Continuous
 62
     5
370
    15
100
AcDbLine
 10
259.8663494550496
 20
-453.0835809273017
 30
0.0
 11
191.8663494550496
 21
-453.0835809273017
 31
0.0
  0
LINE
  5
759
330
1F
100
AcDbEntity
  8
0
  6
Continuous
 62
     5
370
    15
100
AcDbLine
 10
356.7445790419073
 20
-442.1714434488653
 30
0.0
 11
362.8489952731073
 21
-437.0007469312653
 31
0.0
  0
LINE
  5
75A
330
1F
100
AcDbEntity
  8
0
  6
Continuous
 62
     5
370
    15
100
AcDbLine
 10
358.0372531713073
 20
-443.6975475066653
 30
0.0
 11
356.7445790419073
 21
-442.1714434488653
 31
0.0
  0
ARC
  5
75B
330
1F
100
AcDbEntity
  8
0
  6
Continuous
 62
     5
370
    15
100
AcDbCircle
 10
359.5633572291073
 20
-442.4048733772653
 30
0.0
 40
2.000000000000005
100
AcDbArc
 50
220.2659981630003
 51
310.2659981630003
  0
LINE
  5
75C
330
1F
100
AcDbEntity
  8
0
  6
Continuous
 62
     5
370
    15
100
AcDbLine
 10
367.7282052002074
 20
-438.1099580277653
 30
0.0
 11
360.8560313585073
 21
-443.9309774350653
 31
0.0
  0
ARC
  5
75D
330
1F
100
AcDbEntity
  8
0
  6
Continuous
 62
     5
370
    15
100
AcDbCircle
 10
366.4355310708074
 20
-436.5838539699653
 30
0.0
 40
2.000000000000002
100
AcDbArc
 50
310.2659981629993
 51
5.594993057699646
  0
ARC
  5
75E
330
1F
100
AcDbEntity
  8
0
  6
Continuous
 62
     5
370
    15
100
AcDbCircle
 10
370.4164747657073
 20
-436.1938702546653
 30
0.0
 40
2.000000000000017
100
AcDbArc
 50
124.8779056267996
 51
185.5949930576996
  0
SPLINE
  5
75F
330
1F
100
AcDbEntity
  8
0
  6
Continuous
 62
     5
370
    15
100
AcDbSpline
210
0.0
220
0.0
230
1.0
 70
     8
 71
     3
 72
    24
 73
    20
 74
     0
 42
0.00000001
 43
0.00000001
 40
0.0059013405165314
 40
0.0059013405165314
 40
0.0059013405165314
 40
0.0059013405165314
 40
0.1473742537979085
 40
0.2181901273016464
 40
0.2575919503651512
 40
0.2874425494803861
 40
0.3742648317641498
 40
0.4423235388387537
 40
0.4459055760532065
 40
0.4459055760532065
 40
0.4459055760532065
 40
0.4509009636180366
 40
0.5458133273498071
 40
0.5990362001373608
 40
0.6710906054075308
 40
0.7509049601672959
 40
0.8163643819881795
 40
0.8711925877307248
 40
0.9908388574533455
 40
0.9908388574533455
 40
0.9908388574533455
 40
0.9908388574533455
 10
369.2728156371181
 20
-434.5531253636443
 30
0.0
 10
379.0595296030541
 20
-427.7314282019829
 30
0.0
 10
396.6357850397238
 20
-419.8037260864559
 30
0.0
 10
414.9542166187086
 20
-411.2812264142198
 30
0.0
 10
426.4655723810724
 20
-402.5208037468735
 30
0.0
 10
420.0182355362465
 20
-388.9098197014238
 30
0.0
 10
414.6319202456682
 20
-374.2780625661095
 30
0.0
 10
411.5984474133398
 20
-362.3378267302968
 30
0.0
 10
409.3172858809116
 20
-355.6330931245554
 30
0.0
 10
409.2003886015694
 20
-355.2972123742892
 30
0.0
 10
409.0373676219904
 20
-354.8288044760194
 30
0.0
 10
405.937938214953
 20
-346.2154785211526
 30
0.0
 10
381.4884133028336
 20
-354.6536299647395
 30
0.0
 10
391.7249761082445
 20
-371.5891429548801
 30
0.0
 10
399.2364211810985
 20
-382.0417877762261
 30
0.0
 10
413.2121017572911
 20
-398.2898014982243
 30
0.0
 10
397.2216534398401
 20
-407.8689353658742
 30
0.0
 10
382.3897914214222
 20
-415.2619105630225
 30
0.0
 10
370.8251227476608
 20
-422.0955156361701
 30
0.0
 10
364.1863093613559
 20
-427.7539858327786
 30
0.0
  0
ARC
  5
760
330
1F
100
AcDbEntity
  8
0
  6
Continuous
 62
     5
370
    15
100
AcDbCircle
 10
362.8889533660073
 20
-426.2318598782653
 30
0.0
 40
2.000000000000008
100
AcDbArc
 50
253.4855463848006
 51
310.4420025648005
  0
ARC
  5
761
330
1F
100
AcDbEntity
  8
0
  6
Continuous
 62
     5
370
    15
100
AcDbCircle
 10
361.7519245237074
 20
-430.0668521092653
 30
0.0
 40
2.0
100
AcDbArc
 50
73.4855463848006
 51
130.2659981630016
  0
LINE
  5
762
330
1F
100
AcDbEntity
  8
0
  6
Continuous
 62
     5
370
    15
100
AcDbLine
 10
353.0999865821074
 20
-434.7743530882653
 30
0.0
 11
360.4592503943073
 21
-428.5407480514653
 31
0.0
  0
ARC
  5
763
330
1F
100
AcDbEntity
  8
0
  6
Continuous
 62
     5
370
    15
100
AcDbCircle
 10
354.3926607115073
 20
-436.3004571460653
 30
0.0
 40
2.0
100
AcDbArc
 50
130.2659981629993
 51
220.2659981630003
  0
LINE
  5
764
330
1F
100
AcDbEntity
  8
0
  6
Continuous
 62
     5
370
    15
100
AcDbLine
 10
354.1592307831073
 20
-439.1192353332653
 30
0.0
 11
352.8665566537073
 21
-437.5931312754653
 31
0.0
  0
LINE
  5
765
330
1F
100
AcDbEntity
  8
0
  6
Continuous
 62
     5
370
    15
100
AcDbLine
 10
360.2636470143074
 20
-433.9485388157653
 30
0.0
 11
354.1592307831073
 21
-439.1192353332653
 31
0.0
  0
LINE
  5
766
330
1F
100
AcDbEntity
  8
0
  6
Continuous
 62
     5
370
    15
100
AcDbLine
 10
362.8489952731073
 20
-437.0007469312653
 30
0.0
 11
360.2636470143074
 21
-433.9485388157653
 31
0.0
  0
LINE
  5
767
330
1F
100
AcDbEntity
  8
0
  6
Continuous
 62
     5
370
    15
100
AcDbLine
 10
399.0120469444074
 20
-356.3425298225653
 30
0.0
 11
395.2936579562074
 21
-357.8168375694653
 31
0.0
  0
LINE
  5
768
330
1F
100
AcDbEntity
  8
0
  6
Continuous
 62
     5
370
    15
100
AcDbLine
 10
403.4349701850073
 20
-367.4976967871653
 30
0.0
 11
399.0120469444074
 21
-356.3425298225653
 31
0.0
  0
LINE
  5
769
330
1F
100
AcDbEntity
  8
0
  6
Continuous
 62
     5
370
    15
100
AcDbLine
 10
399.7165811968073
 20
-368.9720045340653
 30
0.0
 11
403.4349701850073
 21
-367.4976967871653
 31
0.0
  0
LINE
  5
76A
330
1F
100
AcDbEntity
  8
0
  6
Continuous
 62
     5
370
    15
100
AcDbLine
 10
395.2936579562074
 20
-357.8168375694653
 30
0.0
 11
399.7165811968073
 21
-368.9720045340653
 31
0.0
  0
LINE
  5
799
330
1F
100
AcDbEntity
  8
0
  6
Continuous
 62
     5
370
    15
100
AcDbLine
 10
496.7210917320754
 20
-438.2168553498748
 30
0.0
 11
502.8255079632754
 21
-443.3875518674748
 31
0.0
  0
LINE
  5
79A
330
1F
100
AcDbEntity
  8
0
  6
Continuous
 62
     5
370
    15
100
AcDbLine
 10
499.3064399908754
 20
-435.1646472343749
 30
0.0
 11
496.7210917320754
 21
-438.2168553498748
 31
0.0
  0
LINE
  5
79B
330
1F
100
AcDbEntity
  8
0
  6
Continuous
 62
     5
370
    15
100
AcDbLine
 10
505.4108562220754
 20
-440.3353437518749
 30
0.0
 11
499.3064399908754
 21
-435.1646472343749
 31
0.0
  0
LINE
  5
79C
330
1F
100
AcDbEntity
  8
0
  6
Continuous
 62
     5
370
    15
100
AcDbLine
 10
505.4108562220754
 20
-440.3353437518749
 30
0.0
 11
506.7035303514754
 21
-438.8092396940748
 31
0.0
  0
ARC
  5
79D
330
1F
100
AcDbEntity
  8
0
  6
Continuous
 62
     5
370
    15
100
AcDbCircle
 10
505.1774262936754
 20
-437.5165655646749
 30
0.0
 40
2.0
100
AcDbArc
 50
319.7340018369997
 51
49.73400183700075
  0
LINE
  5
79E
330
1F
100
AcDbEntity
  8
0
  6
Continuous
 62
     5
370
    15
100
AcDbLine
 10
506.4701004230754
 20
-435.9904615068749
 30
0.0
 11
499.5979265812754
 21
-430.1694420996748
 31
0.0
  0
ARC
  5
79F
330
1F
100
AcDbEntity
  8
0
  6
Continuous
 62
     5
370
    15
100
AcDbCircle
 10
498.3052524518754
 20
-431.6955461574748
 30
0.0
 40
1.999999999999997
100
AcDbArc
 50
49.73400183699969
 51
106.5946922298001
  0
ARC
  5
7A0
330
1F
100
AcDbEntity
  8
0
  6
Continuous
 62
     5
370
    15
100
AcDbCircle
 10
497.1628540957754
 20
-427.8621500135749
 30
0.0
 40
1.999999999999994
100
AcDbArc
 50
229.0623104815986
 51
286.5946922298001
  0
SPLINE
  5
7A1
330
1F
100
AcDbEntity
  8
0
  6
Continuous
 62
     5
370
    15
100
AcDbSpline
210
0.0
220
0.0
230
1.0
 70
     8
 71
     3
 72
    24
 73
    20
 74
     0
 42
0.00000001
 43
0.00000001
 40
0.0059013405165314
 40
0.0059013405165314
 40
0.0059013405165314
 40
0.0059013405165314
 40
0.1473742537979085
 40
0.2181901273016464
 40
0.2575919503651512
 40
0.2874425494803861
 40
0.3742648317641498
 40
0.4423235388387537
 40
0.4459055760532065
 40
0.4459055760532065
 40
0.4459055760532065
 40
0.4509009636180366
 40
0.5458133273498071
 40
0.5990362001373608
 40
0.6710906054075308
 40
0.7509049601672959
 40
0.8163643819881795
 40
0.8711925877307248
 40
0.9936670741177922
 40
0.9936670741177922
 40
0.9936670741177922
 40
0.9936670741177922
 10
490.2972713680646
 20
-435.7692337822538
 30
0.0
 10
480.5105574021286
 20
-428.9475366205925
 30
0.0
 10
462.9343019654589
 20
-421.0198345050655
 30
0.0
 10
444.6158703864741
 20
-412.4973348328294
 30
0.0
 10
433.1045146241104
 20
-403.736912165483
 30
0.0
 10
439.5518514689362
 20
-390.1259281200333
 30
0.0
 10
444.9381667595145
 20
-375.4941709847191
 30
0.0
 10
447.971639591843
 20
-363.5539351489064
 30
0.0
 10
450.2528011242712
 20
-356.849201543165
 30
0.0
 10
450.3696984036133
 20
-356.5133207928988
 30
0.0
 10
450.5327193831923
 20
-356.044912894629
 30
0.0
 10
453.6321487902297
 20
-347.4315869397622
 30
0.0
 10
478.0816737023491
 20
-355.869738383349
 30
0.0
 10
467.8451108969383
 20
-372.8052513734897
 30
0.0
 10
460.3336658240842
 20
-383.2578961948357
 30
0.0
 10
446.3579852478916
 20
-399.5059099168338
 30
0.0
 10
462.3484335653426
 20
-409.0850437844837
 30
0.0
 10
477.355125900776
 20
-416.5651635489021
 30
0.0
 10
489.1200936463326
 20
-423.5335513903428
 30
0.0
 10
495.8523783415438
 20
-429.3729952397748
 30
0.0
  0
ARC
  5
7A2
330
1F
100
AcDbEntity
  8
0
  6
Continuous
 62
     5
370
    15
100
AcDbCircle
 10
489.1536122394754
 20
-437.4099786732748
 30
0.0
 40
2.000000000000035
100
AcDbArc
 50
354.4050069423005
 51
55.12209437319907
  0
ARC
  5
7A3
330
1F
100
AcDbEntity
  8
0
  6
Continuous
 62
     5
370
    15
100
AcDbCircle
 10
493.1345559343754
 20
-437.7999623885748
 30
0.0
 40
2.000000000000002
100
AcDbArc
 50
174.4050069423004
 51
229.7340018370008
  0
LINE
  5
7A4
330
1F
100
AcDbEntity
  8
0
  6
Continuous
 62
     5
370
    15
100
AcDbLine
 10
491.8418818049754
 20
-439.3260664463749
 30
0.0
 11
498.7140556466754
 21
-445.1470858536749
 31
0.0
  0
ARC
  5
7A5
330
1F
100
AcDbEntity
  8
0
  6
Continuous
 62
     5
370
    15
100
AcDbCircle
 10
500.0067297760754
 20
-443.6209817958749
 30
0.0
 40
2.000000000000003
100
AcDbArc
 50
229.7340018369985
 51
319.7340018369997
  0
LINE
  5
7A6
330
1F
100
AcDbEntity
  8
0
  6
Continuous
 62
     5
370
    15
100
AcDbLine
 10
501.5328338338754
 20
-444.9136559252748
 30
0.0
 11
502.8255079632754
 21
-443.3875518674748
 31
0.0
  0
LINE
  5
7A7
330
1F
100
AcDbEntity
  8
0
  6
Continuous
 62
     5
370
    15
100
AcDbLine
 10
460.5580400607754
 20
-357.5586382411748
 30
0.0
 11
464.2764290489754
 21
-359.0329459880749
 31
0.0
  0
LINE
  5
7A8
330
1F
100
AcDbEntity
  8
0
  6
Continuous
 62
     5
370
    15
100
AcDbLine
 10
464.2764290489754
 20
-359.0329459880749
 30
0.0
 11
459.8535058083754
 21
-370.1881129526748
 31
0.0
  0
LINE
  5
7A9
330
1F
100
AcDbEntity
  8
0
  6
Continuous
 62
     5
370
    15
100
AcDbLine
 10
459.8535058083754
 20
-370.1881129526748
 30
0.0
 11
456.1351168201754
 21
-368.7138052057749
 31
0.0
  0
LINE
  5
7AA
330
1F
100
AcDbEntity
  8
0
  6
Continuous
 62
     5
370
    15
100
AcDbLine
 10
456.1351168201754
 20
-368.7138052057749
 30
0.0
 11
460.5580400607754
 21
-357.5586382411748
 31
0.0
  0
LINE
  5
7CC
330
1F
100
AcDbEntity
  8
0
  6
Continuous
 62
     5
370
    15
100
AcDbLine
 10
366.4515984265092
 20
-478.4063476278023
 30
0.0
 11
362.4515984265092
 21
-478.4063476278023
 31
0.0
  0
LINE
  5
7CD
330
1F
100
AcDbEntity
  8
0
  6
Continuous
 62
     5
370
    15
100
AcDbLine
 10
366.4515984265092
 20
-490.4063476278023
 30
0.0
 11
366.4515984265092
 21
-478.4063476278023
 31
0.0
  0
LINE
  5
7CE
330
1F
100
AcDbEntity
  8
0
  6
Continuous
 62
     5
370
    15
100
AcDbLine
 10
362.4515984265092
 20
-490.4063476278023
 30
0.0
 11
366.4515984265092
 21
-490.4063476278023
 31
0.0
  0
LINE
  5
7CF
330
1F
100
AcDbEntity
  8
0
  6
Continuous
 62
     5
370
    15
100
AcDbLine
 10
362.4515984265092
 20
-478.4063476278023
 30
0.0
 11
362.4515984265092
 21
-490.4063476278023
 31
0.0
  0
SPLINE
  5
7D0
330
1F
100
AcDbEntity
  8
0
  6
Continuous
 62
     5
370
    15
100
AcDbSpline
210
0.0
220
0.0
230
1.0
 70
    11
 71
     5
 72
   104
 73
    98
 74
     0
 42
0.00000001
 43
0.00000001
 40
0.0
 40
0.0
 40
0.0
 40
0.0
 40
0.0
 40
0.0
 40
0.2073133376822206
 40
0.2073133376822206
 40
0.2073133376822206
 40
0.2397320326380328
 40
0.2397320326380328
 40
0.2397320326380328
 40
0.2397320326380328
 40
0.2397320326380328
 40
0.3651154560238937
 40
0.3651154560238937
 40
0.3651154560238937
 40
0.3651154560238937
 40
0.3651154560238937
 40
0.3842591893578847
 40
0.3842591893578847
 40
0.3842591893578847
 40
0.4389197182618083
 40
0.4389197182618083
 40
0.4389197182618083
 40
0.4389197182618083
 40
0.4389197182618083
 40
0.4588167854857951
 40
0.4588167854857951
 40
0.4588167854857951
 40
0.4787138527097819
 40
0.4787138527097819
 40
0.4787138527097819
 40
0.4986109199337687
 40
0.4986109199337687
 40
0.4986109199337687
 40
0.4986109199337687
 40
0.4986109199337687
 40
0.5866094209104725
 40
0.5866094209104725
 40
0.5866094209104725
 40
0.6785506617319015
 40
0.6785506617319015
 40
0.6785506617319015
 40
0.7181371264513686
 40
0.7181371264513686
 40
0.7181371264513686
 40
0.7181371264513686
 40
0.7181371264513686
 40
0.7209200710855499
 40
0.7209200710855499
 40
0.7209200710855499
 40
0.7737960191349943
 40
0.7737960191349943
 40
0.7737960191349943
 40
0.8127241202968427
 40
0.8127241202968427
 40
0.8127241202968427
 40
0.8147729677264137
 40
0.8147729677264137
 40
0.8147729677264137
 40
0.8147729677264137
 40
0.8147729677264137
 40
0.83427947090165
 40
0.83427947090165
 40
0.83427947090165
 40
0.8819571214728108
 40
0.8819571214728108
 40
0.8819571214728108
 40
0.9020324015106099
 40
0.9020324015106099
 40
0.9020324015106099
 40
0.9124261957063777
 40
0.9124261957063777
 40
0.9124261957063777
 40
0.9314419725785982
 40
0.9314419725785982
 40
0.9314419725785982
 40
0.9545658600571987
 40
0.9545658600571987
 40
0.9545658600571987
 40
0.961100991704182
 40
0.961100991704182
 40
0.961100991704182
 40
0.9800315040062897
 40
0.9800315040062897
 40
0.9800315040062897
 40
0.994549297865493
 40
0.994549297865493
 40
0.994549297865493
 40
0.994549297865493
 40
0.994549297865493
 40
0.9963661985769953
 40
0.9963661985769953
 40
0.9963661985769953
 40
0.9981830992884977
 40
0.9981830992884977
 40
0.9981830992884977
 40
1.0
 40
1.0
 40
1.0
 40
1.0
 40
1.0
 40
1.0
 10
396.8438358962003
 20
-611.5907498680004
 30
0.0
 10
400.1663013539193
 20
-601.1111816296859
 30
0.0
 10
403.1443917339199
 20
-591.7418795758242
 30
0.0
 10
406.0747729739215
 20
-582.7070240712753
 30
0.0
 10
409.7512810980392
 20
-571.7489469542314
 30
0.0
 10
414.1573980944738
 20
-559.1632349333368
 30
0.0
 10
414.7167098167772
 20
-557.45892429565
 30
0.0
 10
415.1896341769043
 20
-555.779660251951
 30
0.0
 10
415.5263063694882
 20
-554.152848257519
 30
0.0
 10
416.8284288677114
 20
-547.8609460898012
 30
0.0
 10
414.8438094223581
 20
-548.386970701943
 30
0.0
 10
419.3395127077581
 20
-555.2463982829297
 30
0.0
 10
413.2830426001642
 20
-535.1265575062405
 30
0.0
 10
407.4708418057684
 20
-522.9867083796303
 30
0.0
 10
406.5834260765846
 20
-521.1331776008486
 30
0.0
 10
405.610985085734
 20
-519.276189084931
 30
0.0
 10
404.5885451233298
 20
-517.4369249380627
 30
0.0
 10
400.5890392025443
 20
-510.496059883107
 30
0.0
 10
396.8875922201723
 20
-504.4482978641734
 30
0.0
 10
394.2895789447086
 20
-500.2739455311153
 30
0.0
 10
391.8147435578973
 20
-496.2191364481838
 30
0.0
 10
389.4429308079243
 20
-492.0987041414924
 30
0.0
 10
388.5795634260998
 20
-490.5988189365352
 30
0.0
 10
387.7302091380046
 20
-489.0908674822383
 30
0.0
 10
386.8774599220333
 20
-487.5787651812299
 30
0.0
 10
385.1303555911279
 20
-484.5540896910473
 30
0.0
 10
383.2304073758759
 20
-481.5441340350463
 30
0.0
 10
382.2242324035668
 20
-480.0691087496316
 30
0.0
 10
380.0635009423899
 20
-477.2315084320545
 30
0.0
 10
377.53404687371
 20
-474.7238989571435
 30
0.0
 10
376.1741124723561
 20
-473.5952284268682
 30
0.0
 10
374.7159439888496
 20
-472.634328600287
 30
0.0
 10
373.1565147080527
 20
-471.8838359739136
 30
0.0
 10
366.2596470669828
 20
-468.564641975548
 30
0.0
 10
360.2689130041342
 20
-470.7503563849497
 30
0.0
 10
355.650227362166
 20
-476.3740910323431
 30
0.0
 10
349.9641933816645
 20
-490.6772268443088
 30
0.0
 10
353.9111943354694
 20
-502.0712491862331
 30
0.0
 10
357.9753393947382
 20
-507.4905573637794
 30
0.0
 10
366.0494320157007
 20
-515.1780315183162
 30
0.0
 10
376.3998640201651
 20
-523.5027881937972
 30
0.0
 10
379.353126936782
 20
-525.9746843420974
 30
0.0
 10
381.7762832823103
 20
-528.3215678594181
 30
0.0
 10
383.3011780380486
 20
-530.4520681348594
 30
0.0
 10
383.4083787620397
 20
-530.6018431741734
 30
0.0
 10
383.5130892324214
 20
-530.7532719751013
 30
0.0
 10
383.617657226987
 20
-530.9064855259118
 30
0.0
 10
385.753123157838
 20
-534.0090713051421
 30
0.0
 10
389.7098209967323
 20
-537.930347652227
 30
0.0
 10
393.8509232114248
 20
-542.0641271338272
 30
0.0
 10
399.5143179900859
 20
-549.3771458937343
 30
0.0
 10
398.7249747112896
 20
-555.9304171840544
 30
0.0
 10
397.6418094047023
 20
-558.919599723791
 30
0.0
 10
396.1472401219479
 20
-562.6527846322884
 30
0.0
 10
394.7358900672509
 20
-567.3879839889224
 30
0.0
 10
394.6645276496191
 20
-567.6261174339262
 30
0.0
 10
394.591367354123
 20
-567.8644927971538
 30
0.0
 10
394.5154062177954
 20
-568.1019785196571
 30
0.0
 10
393.7922014903073
 20
-570.3630136427323
 30
0.0
 10
392.6939218549655
 20
-572.9223139772604
 30
0.0
 10
391.4604519885085
 20
-575.6261302338962
 30
0.0
 10
387.5727320452054
 20
-584.9067926620853
 30
0.0
 10
387.7725690591246
 20
-592.25407941953
 30
0.0
 10
388.5203278402481
 20
-597.2633467151106
 30
0.0
 10
388.3797887722346
 20
-605.1834660537197
 30
0.0
 10
383.596089860686
 20
-615.7954738438463
 30
0.0
 10
382.4486932971834
 20
-618.6886000408311
 30
0.0
 10
382.1455794640075
 20
-621.9583342203618
 30
0.0
 10
385.5865110358174
 20
-622.4031445035183
 30
0.0
 10
387.0241673791443
 20
-622.3592953189186
 30
0.0
 10
391.3525112245252
 20
-622.0585374223931
 30
0.0
 10
395.0421860283442
 20
-622.3238133742967
 30
0.0
 10
397.25885309304
 20
-622.6179034516708
 30
0.0
 10
402.0136629780248
 20
-623.2884336678469
 30
0.0
 10
406.9008633854648
 20
-623.4404535290615
 30
0.0
 10
409.659661999075
 20
-623.2082734335709
 30
0.0
 10
413.3444663997599
 20
-622.3011493347805
 30
0.0
 10
417.2780087754259
 20
-620.3501566840873
 30
0.0
 10
418.0553896558591
 20
-619.897926335177
 30
0.0
 10
420.3412738008069
 20
-618.1590543295333
 30
0.0
 10
418.1904651198148
 20
-616.9414303970431
 30
0.0
 10
415.0725273304657
 20
-616.2565876935217
 30
0.0
 10
408.5272996781615
 20
-615.316117723808
 30
0.0
 10
403.0630104508306
 20
-614.640495471598
 30
0.0
 10
400.9738981616787
 20
-614.3716461926558
 30
0.0
 10
399.2463301768159
 20
-614.1016940155224
 30
0.0
 10
397.9592607916096
 20
-613.8051404392203
 30
0.0
 10
397.7981841635479
 20
-613.7680267834536
 30
0.0
 10
397.6375465058102
 20
-613.7290079567163
 30
0.0
 10
397.4811724579627
 20
-613.6716580172542
 30
0.0
 10
397.1846008611813
 20
-613.4874440293733
 30
0.0
 10
396.9356808204927
 20
-613.0984980565631
 30
0.0
 10
396.8327043572856
 20
-612.8772436896397
 30
0.0
 10
396.6888598813733
 20
-612.4299754261849
 30
0.0
 10
396.7075149789209
 20
-612.0707945663702
 30
0.0
 10
396.7439263121365
 20
-611.9058855359618
 30
0.0
 10
396.793880320871
 20
-611.7483174536413
 30
0.0
 10
396.8438358962003
 20
-611.5907498680004
 30
0.0
  0
LINE
  5
7D1
330
1F
100
AcDbEntity
  8
0
  6
Continuous
 62
     5
370
    15
100
AcDbLine
 10
424.1430574094694
 20
-478.4063476278023
 30
0.0
 11
420.1430574094694
 21
-478.4063476278023
 31
0.0
  0
LINE
  5
7D2
330
1F
100
AcDbEntity
  8
0
  6
Continuous
 62
     5
370
    15
100
AcDbLine
 10
424.1430574094694
 20
-490.4063476278023
 30
0.0
 11
424.1430574094694
 21
-478.4063476278023
 31
0.0
  0
LINE
  5
7D3
330
1F
100
AcDbEntity
  8
0
  6
Continuous
 62
     5
370
    15
100
AcDbLine
 10
420.1430574094694
 20
-490.4063476278023
 30
0.0
 11
424.1430574094694
 21
-490.4063476278023
 31
0.0
  0
LINE
  5
7D4
330
1F
100
AcDbEntity
  8
0
  6
Continuous
 62
     5
370
    15
100
AcDbLine
 10
420.1430574094694
 20
-478.4063476278023
 30
0.0
 11
420.1430574094694
 21
-490.4063476278023
 31
0.0
  0
SPLINE
  5
7D5
330
1F
100
AcDbEntity
  8
0
  6
Continuous
 62
     5
370
    15
100
AcDbSpline
210
0.0
220
0.0
230
1.0
 70
    11
 71
     5
 72
   104
 73
    98
 74
     0
 42
0.00000001
 43
0.00000001
 40
0.0
 40
0.0
 40
0.0
 40
0.0
 40
0.0
 40
0.0
 40
0.2073133376822206
 40
0.2073133376822206
 40
0.2073133376822206
 40
0.2397320326380328
 40
0.2397320326380328
 40
0.2397320326380328
 40
0.2397320326380328
 40
0.2397320326380328
 40
0.3651154560238937
 40
0.3651154560238937
 40
0.3651154560238937
 40
0.3651154560238937
 40
0.3651154560238937
 40
0.3842591893578847
 40
0.3842591893578847
 40
0.3842591893578847
 40
0.4389197182618083
 40
0.4389197182618083
 40
0.4389197182618083
 40
0.4389197182618083
 40
0.4389197182618083
 40
0.4588167854857951
 40
0.4588167854857951
 40
0.4588167854857951
 40
0.4787138527097819
 40
0.4787138527097819
 40
0.4787138527097819
 40
0.4986109199337687
 40
0.4986109199337687
 40
0.4986109199337687
 40
0.4986109199337687
 40
0.4986109199337687
 40
0.5866094209104725
 40
0.5866094209104725
 40
0.5866094209104725
 40
0.6785506617319015
 40
0.6785506617319015
 40
0.6785506617319015
 40
0.7181371264513686
 40
0.7181371264513686
 40
0.7181371264513686
 40
0.7181371264513686
 40
0.7181371264513686
 40
0.7209200710855499
 40
0.7209200710855499
 40
0.7209200710855499
 40
0.7737960191349943
 40
0.7737960191349943
 40
0.7737960191349943
 40
0.8127241202968427
 40
0.8127241202968427
 40
0.8127241202968427
 40
0.8147729677264137
 40
0.8147729677264137
 40
0.8147729677264137
 40
0.8147729677264137
 40
0.8147729677264137
 40
0.83427947090165
 40
0.83427947090165
 40
0.83427947090165
 40
0.8819571214728108
 40
0.8819571214728108
 40
0.8819571214728108
 40
0.9020324015106099
 40
0.9020324015106099
 40
0.9020324015106099
 40
0.9124261957063777
 40
0.9124261957063777
 40
0.9124261957063777
 40
0.9314419725785982
 40
0.9314419725785982
 40
0.9314419725785982
 40
0.9545658600571987
 40
0.9545658600571987
 40
0.9545658600571987
 40
0.961100991704182
 40
0.961100991704182
 40
0.961100991704182
 40
0.9800315040062897
 40
0.9800315040062897
 40
0.9800315040062897
 40
0.994549297865493
 40
0.994549297865493
 40
0.994549297865493
 40
0.994549297865493
 40
0.994549297865493
 40
0.9963661985769953
 40
0.9963661985769953
 40
0.9963661985769953
 40
0.9981830992884977
 40
0.9981830992884977
 40
0.9981830992884977
 40
1.0
 40
1.0
 40
1.0
 40
1.0
 40
1.0
 40
1.0
 10
454.5352948791605
 20
-611.5907498680004
 30
0.0
 10
457.8577603368795
 20
-601.1111816296859
 30
0.0
 10
460.83585071688
 20
-591.7418795758242
 30
0.0
 10
463.7662319568817
 20
-582.7070240712753
 30
0.0
 10
467.4427400809993
 20
-571.7489469542314
 30
0.0
 10
471.848857077434
 20
-559.1632349333368
 30
0.0
 10
472.4081687997373
 20
-557.45892429565
 30
0.0
 10
472.8810931598645
 20
-555.779660251951
 30
0.0
 10
473.2177653524484
 20
-554.152848257519
 30
0.0
 10
474.5198878506715
 20
-547.8609460898012
 30
0.0
 10
472.5352684053183
 20
-548.386970701943
 30
0.0
 10
477.0309716907183
 20
-555.2463982829297
 30
0.0
 10
470.9745015831244
 20
-535.1265575062405
 30
0.0
 10
465.1623007887286
 20
-522.9867083796303
 30
0.0
 10
464.2748850595448
 20
-521.1331776008486
 30
0.0
 10
463.3024440686942
 20
-519.276189084931
 30
0.0
 10
462.28000410629
 20
-517.4369249380627
 30
0.0
 10
458.2804981855044
 20
-510.496059883107
 30
0.0
 10
454.5790512031325
 20
-504.4482978641734
 30
0.0
 10
451.9810379276688
 20
-500.2739455311153
 30
0.0
 10
449.5062025408574
 20
-496.2191364481838
 30
0.0
 10
447.1343897908845
 20
-492.0987041414924
 30
0.0
 10
446.27102240906
 20
-490.5988189365352
 30
0.0
 10
445.4216681209647
 20
-489.0908674822383
 30
0.0
 10
444.5689189049934
 20
-487.5787651812299
 30
0.0
 10
442.8218145740881
 20
-484.5540896910473
 30
0.0
 10
440.921866358836
 20
-481.5441340350463
 30
0.0
 10
439.915691386527
 20
-480.0691087496316
 30
0.0
 10
437.7549599253501
 20
-477.2315084320545
 30
0.0
 10
435.2255058566702
 20
-474.7238989571435
 30
0.0
 10
433.8655714553162
 20
-473.5952284268682
 30
0.0
 10
432.4074029718098
 20
-472.634328600287
 30
0.0
 10
430.8479736910129
 20
-471.8838359739136
 30
0.0
 10
423.951106049943
 20
-468.564641975548
 30
0.0
 10
417.9603719870943
 20
-470.7503563849497
 30
0.0
 10
413.3416863451262
 20
-476.3740910323431
 30
0.0
 10
407.6556523646246
 20
-490.6772268443088
 30
0.0
 10
411.6026533184296
 20
-502.0712491862331
 30
0.0
 10
415.6667983776984
 20
-507.4905573637794
 30
0.0
 10
423.7408909986609
 20
-515.1780315183162
 30
0.0
 10
434.0913230031252
 20
-523.5027881937972
 30
0.0
 10
437.0445859197422
 20
-525.9746843420974
 30
0.0
 10
439.4677422652704
 20
-528.3215678594181
 30
0.0
 10
440.9926370210088
 20
-530.4520681348594
 30
0.0
 10
441.0998377449998
 20
-530.6018431741734
 30
0.0
 10
441.2045482153816
 20
-530.7532719751013
 30
0.0
 10
441.3091162099472
 20
-530.9064855259118
 30
0.0
 10
443.4445821407982
 20
-534.0090713051421
 30
0.0
 10
447.4012799796925
 20
-537.930347652227
 30
0.0
 10
451.542382194385
 20
-542.0641271338272
 30
0.0
 10
457.2057769730461
 20
-549.3771458937343
 30
0.0
 10
456.4164336942498
 20
-555.9304171840544
 30
0.0
 10
455.3332683876624
 20
-558.919599723791
 30
0.0
 10
453.8386991049081
 20
-562.6527846322884
 30
0.0
 10
452.4273490502111
 20
-567.3879839889224
 30
0.0
 10
452.3559866325792
 20
-567.6261174339262
 30
0.0
 10
452.2828263370831
 20
-567.8644927971538
 30
0.0
 10
452.2068652007555
 20
-568.1019785196571
 30
0.0
 10
451.4836604732674
 20
-570.3630136427323
 30
0.0
 10
450.3853808379257
 20
-572.9223139772604
 30
0.0
 10
449.1519109714687
 20
-575.6261302338962
 30
0.0
 10
445.2641910281656
 20
-584.9067926620853
 30
0.0
 10
445.4640280420847
 20
-592.25407941953
 30
0.0
 10
446.2117868232083
 20
-597.2633467151106
 30
0.0
 10
446.0712477551948
 20
-605.1834660537197
 30
0.0
 10
441.2875488436462
 20
-615.7954738438463
 30
0.0
 10
440.1401522801435
 20
-618.6886000408311
 30
0.0
 10
439.8370384469677
 20
-621.9583342203618
 30
0.0
 10
443.2779700187776
 20
-622.4031445035183
 30
0.0
 10
444.7156263621044
 20
-622.3592953189186
 30
0.0
 10
449.0439702074854
 20
-622.0585374223931
 30
0.0
 10
452.7336450113044
 20
-622.3238133742967
 30
0.0
 10
454.9503120760002
 20
-622.6179034516708
 30
0.0
 10
459.705121960985
 20
-623.2884336678469
 30
0.0
 10
464.592322368425
 20
-623.4404535290615
 30
0.0
 10
467.3511209820351
 20
-623.2082734335709
 30
0.0
 10
471.0359253827201
 20
-622.3011493347805
 30
0.0
 10
474.9694677583861
 20
-620.3501566840873
 30
0.0
 10
475.7468486388193
 20
-619.897926335177
 30
0.0
 10
478.0327327837671
 20
-618.1590543295333
 30
0.0
 10
475.881924102775
 20
-616.9414303970431
 30
0.0
 10
472.7639863134258
 20
-616.2565876935217
 30
0.0
 10
466.2187586611217
 20
-615.316117723808
 30
0.0
 10
460.7544694337907
 20
-614.640495471598
 30
0.0
 10
458.6653571446388
 20
-614.3716461926558
 30
0.0
 10
456.9377891597761
 20
-614.1016940155224
 30
0.0
 10
455.6507197745698
 20
-613.8051404392203
 30
0.0
 10
455.4896431465081
 20
-613.7680267834536
 30
0.0
 10
455.3290054887703
 20
-613.7290079567163
 30
0.0
 10
455.1726314409229
 20
-613.6716580172542
 30
0.0
 10
454.8760598441415
 20
-613.4874440293733
 30
0.0
 10
454.6271398034529
 20
-613.0984980565631
 30
0.0
 10
454.5241633402458
 20
-612.8772436896397
 30
0.0
 10
454.3803188643335
 20
-612.4299754261849
 30
0.0
 10
454.398973961881
 20
-612.0707945663702
 30
0.0
 10
454.4353852950967
 20
-611.9058855359618
 30
0.0
 10
454.4853393038312
 20
-611.7483174536413
 30
0.0
 10
454.5352948791605
 20
-611.5907498680004
 30
0.0
  0
LINE
  5
7FC
330
1F
100
AcDbEntity
  8
0
  6
Continuous
 62
     5
370
    15
100
AcDbLine
 10
404.6373421063034
 20
-649.2959195104561
 30
0.0
 11
400.6373421063034
 21
-649.2959195104561
 31
0.0
  0
LINE
  5
7FD
330
1F
100
AcDbEntity
  8
0
  6
Continuous
 62
     5
370
    15
100
AcDbLine
 10
404.6373421063034
 20
-661.2959195104561
 30
0.0
 11
404.6373421063034
 21
-649.2959195104561
 31
0.0
  0
LINE
  5
7FE
330
1F
100
AcDbEntity
  8
0
  6
Continuous
 62
     5
370
    15
100
AcDbLine
 10
400.6373421063034
 20
-661.2959195104561
 30
0.0
 11
404.6373421063034
 21
-661.2959195104561
 31
0.0
  0
LINE
  5
7FF
330
1F
100
AcDbEntity
  8
0
  6
Continuous
 62
     5
370
    15
100
AcDbLine
 10
400.6373421063034
 20
-649.2959195104561
 30
0.0
 11
400.6373421063034
 21
-661.2959195104561
 31
0.0
  0
SPLINE
  5
800
330
1F
100
AcDbEntity
  8
0
  6
Continuous
 62
     5
370
    15
100
AcDbSpline
210
0.0
220
0.0
230
1.0
 70
    11
 71
     3
 72
    35
 73
    31
 74
     0
 42
0.00000001
 43
0.00000001
 40
0.0
 40
0.0
 40
0.0
 40
0.0
 40
0.0330932019537862
 40
0.0730924249122188
 40
0.0869008302865039
 40
0.1357604446572814
 40
0.175939827375575
 40
0.1979013931687147
 40
0.2403194529322369
 40
0.3410599371249315
 40
0.4059588176554124
 40
0.4808405127971329
 40
0.5986015798176365
 40
0.7364360274865859
 40
0.7364360274865859
 40
0.7364360274865859
 40
0.7406699134923104
 40
0.744903799498035
 40
0.7491376855037595
 40
0.7491376855037595
 40
0.7491376855037595
 40
0.8152538971685585
 40
0.868108237272636
 40
0.8968100589681709
 40
0.9975520235104725
 40
0.9975520235104725
 40
0.9975520235104725
 40
0.9983680156736483
 40
0.9991840078368242
 40
1.0
 40
1.0
 40
1.0
 40
1.0
 10
391.184610675761
 20
-740.6992980840997
 30
0.0
 10
389.6272520938776
 20
-742.1544274852203
 30
0.0
 10
382.5852325558091
 20
-746.974996045019
 30
0.0
 10
370.6998957146933
 20
-755.8548438124299
 30
0.0
 10
383.1111948166998
 20
-755.9782597015546
 30
0.0
 10
391.6540932086531
 20
-751.7055834128166
 30
0.0
 10
399.3739892311647
 20
-745.452679252679
 30
0.0
 10
411.3011239787353
 20
-740.6757663000668
 30
0.0
 10
390.5248873788007
 20
-726.9056862367029
 30
0.0
 10
390.3306114771689
 20
-710.4628029302148
 30
0.0
 10
360.3432273200586
 20
-692.9038564382706
 30
0.0
 10
396.1132527929683
 20
-682.9625563944984
 30
0.0
 10
424.4185354189074
 20
-668.5158846764625
 30
0.0
 10
413.7710572960025
 20
-631.9836919692442
 30
0.0
 10
392.8903793390568
 20
-643.2387774457618
 30
0.0
 10
392.2489837250642
 20
-643.5845019703504
 30
0.0
 10
390.9841595148193
 20
-644.3092838193592
 30
0.0
 10
389.0687613357629
 20
-645.4310446917063
 30
0.0
 10
387.9915626630124
 20
-646.4125774971983
 30
0.0
 10
387.4494830126567
 20
-646.8994691003503
 30
0.0
 10
378.9843866794834
 20
-654.5027508723033
 30
0.0
 10
364.0617446125612
 20
-664.8341843317932
 30
0.0
 10
337.0597056966547
 20
-687.914271051713
 30
0.0
 10
364.6005673930392
 20
-713.041324591711
 30
0.0
 10
378.0965177193531
 20
-726.19061696358
 30
0.0
 10
391.6201259189761
 20
-739.3922417097388
 30
0.0
 10
391.7296647626833
 20
-739.4991725442027
 30
0.0
 10
391.9487411569711
 20
-739.7130355377963
 30
0.0
 10
391.5160662113168
 20
-740.3813831088693
 30
0.0
 10
391.2964622148586
 20
-740.5947887790527
 30
0.0
 10
391.184610675761
 20
-740.6992980840997
 30
0.0
  0
LINE
  5
801
330
1F
100
AcDbEntity
  8
0
  6
Continuous
 62
     5
370
    15
100
AcDbLine
 10
473.4344384239519
 20
-649.2959195104561
 30
0.0
 11
469.4344384239519
 21
-649.2959195104561
 31
0.0
  0
LINE
  5
802
330
1F
100
AcDbEntity
  8
0
  6
Continuous
 62
     5
370
    15
100
AcDbLine
 10
473.4344384239519
 20
-661.2959195104561
 30
0.0
 11
473.4344384239519
 21
-649.2959195104561
 31
0.0
  0
LINE
  5
803
330
1F
100
AcDbEntity
  8
0
  6
Continuous
 62
     5
370
    15
100
AcDbLine
 10
469.4344384239519
 20
-661.2959195104561
 30
0.0
 11
473.4344384239519
 21
-661.2959195104561
 31
0.0
  0
LINE
  5
804
330
1F
100
AcDbEntity
  8
0
  6
Continuous
 62
     5
370
    15
100
AcDbLine
 10
469.4344384239519
 20
-649.2959195104561
 30
0.0
 11
469.4344384239519
 21
-661.2959195104561
 31
0.0
  0
SPLINE
  5
805
330
1F
100
AcDbEntity
  8
0
  6
Continuous
 62
     5
370
    15
100
AcDbSpline
210
0.0
220
0.0
230
1.0
 70
    11
 71
     3
 72
    35
 73
    31
 74
     0
 42
0.00000001
 43
0.00000001
 40
0.0
 40
0.0
 40
0.0
 40
0.0
 40
0.0330932019537862
 40
0.0730924249122188
 40
0.0869008302865039
 40
0.1357604446572814
 40
0.175939827375575
 40
0.1979013931687147
 40
0.2403194529322369
 40
0.3410599371249315
 40
0.4059588176554124
 40
0.4808405127971329
 40
0.5986015798176365
 40
0.7364360274865859
 40
0.7364360274865859
 40
0.7364360274865859
 40
0.7406699134923104
 40
0.744903799498035
 40
0.7491376855037595
 40
0.7491376855037595
 40
0.7491376855037595
 40
0.8152538971685585
 40
0.868108237272636
 40
0.8968100589681709
 40
0.9975520235104725
 40
0.9975520235104725
 40
0.9975520235104725
 40
0.9983680156736483
 40
0.9991840078368242
 40
1.0
 40
1.0
 40
1.0
 40
1.0
 10
459.9817069934095
 20
-740.6992980840997
 30
0.0
 10
458.4243484115261
 20
-742.1544274852203
 30
0.0
 10
451.3823288734576
 20
-746.974996045019
 30
0.0
 10
439.4969920323418
 20
-755.8548438124299
 30
0.0
 10
451.9082911343484
 20
-755.9782597015546
 30
0.0
 10
460.4511895263016
 20
-751.7055834128166
 30
0.0
 10
468.1710855488132
 20
-745.452679252679
 30
0.0
 10
480.0982202963838
 20
-740.6757663000668
 30
0.0
 10
459.3219836964492
 20
-726.9056862367029
 30
0.0
 10
459.1277077948174
 20
-710.4628029302148
 30
0.0
 10
429.1403236377071
 20
-692.9038564382706
 30
0.0
 10
464.9103491106168
 20
-682.9625563944984
 30
0.0
 10
493.2156317365559
 20
-668.5158846764625
 30
0.0
 10
482.568153613651
 20
-631.9836919692442
 30
0.0
 10
461.6874756567054
 20
-643.2387774457618
 30
0.0
 10
461.0460800427128
 20
-643.5845019703504
 30
0.0
 10
459.7812558324678
 20
-644.3092838193592
 30
0.0
 10
457.8658576534115
 20
-645.4310446917063
 30
0.0
 10
456.7886589806609
 20
-646.4125774971983
 30
0.0
 10
456.2465793303052
 20
-646.8994691003503
 30
0.0
 10
447.7814829971318
 20
-654.5027508723033
 30
0.0
 10
432.8588409302097
 20
-664.8341843317932
 30
0.0
 10
405.8568020143032
 20
-687.914271051713
 30
0.0
 10
433.3976637106877
 20
-713.041324591711
 30
0.0
 10
446.8936140370016
 20
-726.19061696358
 30
0.0
 10
460.4172222366246
 20
-739.3922417097388
 30
0.0
 10
460.5267610803318
 20
-739.4991725442027
 30
0.0
 10
460.7458374746196
 20
-739.7130355377963
 30
0.0
 10
460.3131625289653
 20
-740.3813831088693
 30
0.0
 10
460.0935585325072
 20
-740.5947887790527
 30
0.0
 10
459.9817069934095
 20
-740.6992980840997
 30
0.0
  0
LINE
  5
84F
330
1F
100
AcDbEntity
  8
0
  6
Continuous
 62
     5
370
    15
100
AcDbLine
 10
216.5171660271401
 20
-540.905919962541
 30
0.0
 11
212.7987770389401
 21
-542.380227709441
 31
0.0
  0
LINE
  5
850
330
1F
100
AcDbEntity
  8
0
  6
Continuous
 62
     5
370
    15
100
AcDbLine
 10
220.9400892677401
 20
-552.0610869271411
 30
0.0
 11
216.5171660271401
 21
-540.905919962541
 31
0.0
  0
LINE
  5
851
330
1F
100
AcDbEntity
  8
0
  6
Continuous
 62
     5
370
    15
100
AcDbLine
 10
217.2217002795401
 20
-553.5353946740411
 30
0.0
 11
220.9400892677401
 21
-552.0610869271411
 31
0.0
  0
LINE
  5
852
330
1F
100
AcDbEntity
  8
0
  6
Continuous
 62
     5
370
    15
100
AcDbLine
 10
212.7987770389401
 20
-542.380227709441
 30
0.0
 11
217.2217002795401
 21
-553.5353946740411
 31
0.0
  0
LINE
  5
853
330
1F
100
AcDbEntity
  8
0
  6
Continuous
 62
     5
370
    15
100
AcDbLine
 10
277.0598113286401
 20
-566.7998191225411
 30
0.0
 11
273.0598113286401
 21
-566.7998191225411
 31
0.0
  0
LINE
  5
854
330
1F
100
AcDbEntity
  8
0
  6
Continuous
 62
     5
370
    15
100
AcDbLine
 10
277.0598113286401
 20
-578.7998191225411
 30
0.0
 11
277.0598113286401
 21
-566.7998191225411
 31
0.0
  0
LINE
  5
855
330
1F
100
AcDbEntity
  8
0
  6
Continuous
 62
     5
370
    15
100
AcDbLine
 10
273.0598113286401
 20
-578.7998191225411
 30
0.0
 11
277.0598113286401
 21
-578.7998191225411
 31
0.0
  0
LINE
  5
856
330
1F
100
AcDbEntity
  8
0
  6
Continuous
 62
     5
370
    15
100
AcDbLine
 10
273.0598113286401
 20
-566.7998191225411
 30
0.0
 11
273.0598113286401
 21
-578.7998191225411
 31
0.0
  0
SPLINE
  5
857
330
1F
100
AcDbEntity
  8
0
  6
Continuous
 62
     5
370
    15
100
AcDbSpline
210
0.0
220
0.0
230
1.0
 70
    11
 71
     3
 72
    42
 73
    38
 74
     0
 42
0.00000001
 43
0.00000001
 40
0.0
 40
0.0
 40
0.0
 40
0.0
 40
0.0273942713203452
 40
0.0430597829348252
 40
0.0569088198515667
 40
0.0872803031958884
 40
0.1758226960556559
 40
0.2075491446771296
 40
0.2339804008292001
 40
0.252115643934693
 40
0.2629521508917213
 40
0.2673335418174752
 40
0.2745346682780425
 40
0.2887472721502453
 40
0.295342704199322
 40
0.3019665672359942
 40
0.3042573764146437
 40
0.3107507124136011
 40
0.3156095363621098
 40
0.3190065360323926
 40
0.3216261765506069
 40
0.3314860276134214
 40
0.3407995469555684
 40
0.3534114941979333
 40
0.3694463799739158
 40
0.3914423433402696
 40
0.4131289665069982
 40
0.4695521637787403
 40
0.5456862302997181
 40
0.5717040952908202
 40
0.6145742249294192
 40
0.6635311793860481
 40
0.6785142652238647
 40
0.7644050833075849
 40
0.8456671723131229
 40
0.9257461333246325
 40
0.9999999999999996
 40
0.9999999999999996
 40
0.9999999999999996
 40
0.9999999999999996
 10
219.815817194989
 20
-527.3539092633648
 30
0.0
 10
215.6146338181027
 20
-528.1675995185134
 30
0.0
 10
207.582502025637
 20
-530.2017770874332
 30
0.0
 10
211.8609442345559
 20
-521.7816020356187
 30
0.0
 10
208.1863845000656
 20
-514.9083220954617
 30
0.0
 10
229.3361838174903
 20
-501.1882184972486
 30
0.0
 10
187.9719622951976
 20
-503.0928047084342
 30
0.0
 10
175.7493292659713
 20
-513.4059600053794
 30
0.0
 10
170.9480512887315
 20
-521.3508278966715
 30
0.0
 10
169.5520836888824
 20
-528.7185477088674
 30
0.0
 10
172.9318597740626
 20
-531.6899197539851
 30
0.0
 10
175.8995346605571
 20
-531.9235975044526
 30
0.0
 10
176.3522892409156
 20
-535.5683710373987
 30
0.0
 10
178.7417576910549
 20
-538.3677193397299
 30
0.0
 10
177.9858943116853
 20
-541.3836036894095
 30
0.0
 10
177.0145813680326
 20
-543.9427107232077
 30
0.0
 10
179.0493749439747
 20
-544.2373514555129
 30
0.0
 10
181.1677541001623
 20
-543.4151257537067
 30
0.0
 10
181.1637656966977
 20
-546.0123432936309
 30
0.0
 10
183.1756554617268
 20
-545.8489194733357
 30
0.0
 10
182.1413774515229
 20
-548.1818861254314
 30
0.0
 10
184.6558001112532
 20
-549.9635556745221
 30
0.0
 10
183.7308131022024
 20
-554.9831214902978
 30
0.0
 10
190.3208149437505
 20
-553.5151208425432
 30
0.0
 10
193.9137567537022
 20
-548.9441070508176
 30
0.0
 10
202.717393390929
 20
-550.2009982746908
 30
0.0
 10
209.473726792226
 20
-560.3484598241887
 30
0.0
 10
225.5839946472466
 20
-571.7357764282723
 30
0.0
 10
244.1168207175072
 20
-571.9516525613082
 30
0.0
 10
262.5531227773999
 20
-578.6534899628027
 30
0.0
 10
263.0635284593452
 20
-587.4868471195175
 30
0.0
 10
291.6652384830774
 20
-588.9373071960067
 30
0.0
 10
292.0307655889712
 20
-563.5186582377107
 30
0.0
 10
284.986739512922
 20
-553.6515613967243
 30
0.0
 10
267.5488254145976
 20
-531.7695233346084
 30
0.0
 10
240.9940110177736
 20
-527.9007955266333
 30
0.0
 10
231.2033845698656
 20
-525.1483515022434
 30
0.0
 10
219.815817194989
 20
-527.3539092633648
 30
0.0
  0
LINE
  5
858
330
1F
100
AcDbEntity
  8
0
  6
Continuous
 62
     5
370
    15
100
AcDbLine
 10
216.5171660271401
 20
-620.8058131875375
 30
0.0
 11
212.7987770389402
 21
-622.2801209344375
 31
0.0
  0
LINE
  5
859
330
1F
100
AcDbEntity
  8
0
  6
Continuous
 62
     5
370
    15
100
AcDbLine
 10
220.9400892677401
 20
-631.9609801521375
 30
0.0
 11
216.5171660271401
 21
-620.8058131875375
 31
0.0
  0
LINE
  5
85A
330
1F
100
AcDbEntity
  8
0
  6
Continuous
 62
     5
370
    15
100
AcDbLine
 10
217.2217002795401
 20
-633.4352878990375
 30
0.0
 11
220.9400892677401
 21
-631.9609801521375
 31
0.0
  0
LINE
  5
85B
330
1F
100
AcDbEntity
  8
0
  6
Continuous
 62
     5
370
    15
100
AcDbLine
 10
212.7987770389402
 20
-622.2801209344375
 30
0.0
 11
217.2217002795401
 21
-633.4352878990375
 31
0.0
  0
LINE
  5
85C
330
1F
100
AcDbEntity
  8
0
  6
Continuous
 62
     5
370
    15
100
AcDbLine
 10
277.0598113286401
 20
-646.6997123475376
 30
0.0
 11
273.0598113286401
 21
-646.6997123475376
 31
0.0
  0
LINE
  5
85D
330
1F
100
AcDbEntity
  8
0
  6
Continuous
 62
     5
370
    15
100
AcDbLine
 10
277.0598113286401
 20
-658.6997123475376
 30
0.0
 11
277.0598113286401
 21
-646.6997123475376
 31
0.0
  0
LINE
  5
85E
330
1F
100
AcDbEntity
  8
0
  6
Continuous
 62
     5
370
    15
100
AcDbLine
 10
273.0598113286401
 20
-658.6997123475376
 30
0.0
 11
277.0598113286401
 21
-658.6997123475376
 31
0.0
  0
LINE
  5
85F
330
1F
100
AcDbEntity
  8
0
  6
Continuous
 62
     5
370
    15
100
AcDbLine
 10
273.0598113286401
 20
-646.6997123475376
 30
0.0
 11
273.0598113286401
 21
-658.6997123475376
 31
0.0
  0
SPLINE
  5
860
330
1F
100
AcDbEntity
  8
0
  6
Continuous
 62
     5
370
    15
100
AcDbSpline
210
0.0
220
0.0
230
1.0
 70
    11
 71
     3
 72
    42
 73
    38
 74
     0
 42
0.00000001
 43
0.00000001
 40
0.0
 40
0.0
 40
0.0
 40
0.0
 40
0.0273942713203452
 40
0.0430597829348252
 40
0.0569088198515667
 40
0.0872803031958884
 40
0.1758226960556559
 40
0.2075491446771296
 40
0.2339804008292001
 40
0.252115643934693
 40
0.2629521508917213
 40
0.2673335418174752
 40
0.2745346682780425
 40
0.2887472721502453
 40
0.295342704199322
 40
0.3019665672359942
 40
0.3042573764146437
 40
0.3107507124136011
 40
0.3156095363621098
 40
0.3190065360323926
 40
0.3216261765506069
 40
0.3314860276134214
 40
0.3407995469555684
 40
0.3534114941979333
 40
0.3694463799739158
 40
0.3914423433402696
 40
0.4131289665069982
 40
0.4695521637787403
 40
0.5456862302997181
 40
0.5717040952908202
 40
0.6145742249294192
 40
0.6635311793860481
 40
0.6785142652238647
 40
0.7644050833075849
 40
0.8456671723131229
 40
0.9257461333246325
 40
0.9999999999999996
 40
0.9999999999999996
 40
0.9999999999999996
 40
0.9999999999999996
 10
219.815817194989
 20
-607.2538024883612
 30
0.0
 10
215.6146338181027
 20
-608.0674927435098
 30
0.0
 10
207.582502025637
 20
-610.1016703124296
 30
0.0
 10
211.8609442345559
 20
-601.6814952606151
 30
0.0
 10
208.1863845000656
 20
-594.8082153204581
 30
0.0
 10
229.3361838174903
 20
-581.088111722245
 30
0.0
 10
187.9719622951977
 20
-582.9926979334307
 30
0.0
 10
175.7493292659713
 20
-593.3058532303758
 30
0.0
 10
170.9480512887315
 20
-601.250721121668
 30
0.0
 10
169.5520836888824
 20
-608.6184409338638
 30
0.0
 10
172.9318597740626
 20
-611.5898129789816
 30
0.0
 10
175.8995346605571
 20
-611.823490729449
 30
0.0
 10
176.3522892409156
 20
-615.4682642623952
 30
0.0
 10
178.7417576910549
 20
-618.2676125647263
 30
0.0
 10
177.9858943116853
 20
-621.2834969144059
 30
0.0
 10
177.0145813680327
 20
-623.8426039482041
 30
0.0
 10
179.0493749439747
 20
-624.1372446805093
 30
0.0
 10
181.1677541001623
 20
-623.3150189787032
 30
0.0
 10
181.1637656966977
 20
-625.9122365186274
 30
0.0
 10
183.1756554617268
 20
-625.7488126983322
 30
0.0
 10
182.1413774515229
 20
-628.081779350428
 30
0.0
 10
184.6558001112533
 20
-629.8634488995186
 30
0.0
 10
183.7308131022024
 20
-634.8830147152942
 30
0.0
 10
190.3208149437505
 20
-633.4150140675396
 30
0.0
 10
193.9137567537022
 20
-628.844000275814
 30
0.0
 10
202.717393390929
 20
-630.1008914996874
 30
0.0
 10
209.473726792226
 20
-640.2483530491851
 30
0.0
 10
225.5839946472466
 20
-651.6356696532687
 30
0.0
 10
244.1168207175072
 20
-651.8515457863045
 30
0.0
 10
262.5531227773999
 20
-658.5533831877991
 30
0.0
 10
263.0635284593452
 20
-667.3867403445139
 30
0.0
 10
291.6652384830775
 20
-668.8372004210032
 30
0.0
 10
292.0307655889712
 20
-643.4185514627071
 30
0.0
 10
284.986739512922
 20
-633.5514546217208
 30
0.0
 10
267.5488254145977
 20
-611.6694165596048
 30
0.0
 10
240.9940110177737
 20
-607.8006887516297
 30
0.0
 10
231.2033845698656
 20
-605.0482447272398
 30
0.0
 10
219.815817194989
 20
-607.2538024883612
 30
0.0
  0
LINE
  5
861
330
1F
100
AcDbEntity
  8
0
  6
Continuous
 62
     5
370
    15
100
AcDbLine
 10
216.5171660271401
 20
-700.7057064125339
 30
0.0
 11
212.7987770389402
 21
-702.180014159434
 31
0.0
  0
LINE
  5
862
330
1F
100
AcDbEntity
  8
0
  6
Continuous
 62
     5
370
    15
100
AcDbLine
 10
220.9400892677402
 20
-711.8608733771339
 30
0.0
 11
216.5171660271401
 21
-700.7057064125339
 31
0.0
  0
LINE
  5
863
330
1F
100
AcDbEntity
  8
0
  6
Continuous
 62
     5
370
    15
100
AcDbLine
 10
217.2217002795402
 20
-713.335181124034
 30
0.0
 11
220.9400892677402
 21
-711.8608733771339
 31
0.0
  0
LINE
  5
864
330
1F
100
AcDbEntity
  8
0
  6
Continuous
 62
     5
370
    15
100
AcDbLine
 10
212.7987770389402
 20
-702.180014159434
 30
0.0
 11
217.2217002795402
 21
-713.335181124034
 31
0.0
  0
LINE
  5
865
330
1F
100
AcDbEntity
  8
0
  6
Continuous
 62
     5
370
    15
100
AcDbLine
 10
277.0598113286402
 20
-726.599605572534
 30
0.0
 11
273.0598113286402
 21
-726.599605572534
 31
0.0
  0
LINE
  5
866
330
1F
100
AcDbEntity
  8
0
  6
Continuous
 62
     5
370
    15
100
AcDbLine
 10
277.0598113286402
 20
-738.599605572534
 30
0.0
 11
277.0598113286402
 21
-726.599605572534
 31
0.0
  0
LINE
  5
867
330
1F
100
AcDbEntity
  8
0
  6
Continuous
 62
     5
370
    15
100
AcDbLine
 10
273.0598113286402
 20
-738.599605572534
 30
0.0
 11
277.0598113286402
 21
-738.599605572534
 31
0.0
  0
LINE
  5
868
330
1F
100
AcDbEntity
  8
0
  6
Continuous
 62
     5
370
    15
100
AcDbLine
 10
273.0598113286402
 20
-726.599605572534
 30
0.0
 11
273.0598113286402
 21
-738.599605572534
 31
0.0
  0
SPLINE
  5
869
330
1F
100
AcDbEntity
  8
0
  6
Continuous
 62
     5
370
    15
100
AcDbSpline
210
0.0
220
0.0
230
1.0
 70
    11
 71
     3
 72
    42
 73
    38
 74
     0
 42
0.00000001
 43
0.00000001
 40
0.0
 40
0.0
 40
0.0
 40
0.0
 40
0.0273942713203452
 40
0.0430597829348252
 40
0.0569088198515667
 40
0.0872803031958884
 40
0.1758226960556559
 40
0.2075491446771296
 40
0.2339804008292001
 40
0.252115643934693
 40
0.2629521508917213
 40
0.2673335418174752
 40
0.2745346682780425
 40
0.2887472721502453
 40
0.295342704199322
 40
0.3019665672359942
 40
0.3042573764146437
 40
0.3107507124136011
 40
0.3156095363621098
 40
0.3190065360323926
 40
0.3216261765506069
 40
0.3314860276134214
 40
0.3407995469555684
 40
0.3534114941979333
 40
0.3694463799739158
 40
0.3914423433402696
 40
0.4131289665069982
 40
0.4695521637787403
 40
0.5456862302997181
 40
0.5717040952908202
 40
0.6145742249294192
 40
0.6635311793860481
 40
0.6785142652238647
 40
0.7644050833075849
 40
0.8456671723131229
 40
0.9257461333246325
 40
0.9999999999999996
 40
0.9999999999999996
 40
0.9999999999999996
 40
0.9999999999999996
 10
219.815817194989
 20
-687.1536957133576
 30
0.0
 10
215.6146338181028
 20
-687.9673859685063
 30
0.0
 10
207.582502025637
 20
-690.0015635374261
 30
0.0
 10
211.860944234556
 20
-681.5813884856116
 30
0.0
 10
208.1863845000656
 20
-674.7081085454545
 30
0.0
 10
229.3361838174903
 20
-660.9880049472415
 30
0.0
 10
187.9719622951977
 20
-662.8925911584272
 30
0.0
 10
175.7493292659713
 20
-673.2057464553723
 30
0.0
 10
170.9480512887315
 20
-681.1506143466645
 30
0.0
 10
169.5520836888824
 20
-688.5183341588603
 30
0.0
 10
172.9318597740626
 20
-691.489706203978
 30
0.0
 10
175.8995346605572
 20
-691.7233839544455
 30
0.0
 10
176.3522892409156
 20
-695.3681574873916
 30
0.0
 10
178.741757691055
 20
-698.1675057897228
 30
0.0
 10
177.9858943116854
 20
-701.1833901394024
 30
0.0
 10
177.0145813680327
 20
-703.7424971732005
 30
0.0
 10
179.0493749439747
 20
-704.0371379055057
 30
0.0
 10
181.1677541001623
 20
-703.2149122036996
 30
0.0
 10
181.1637656966977
 20
-705.8121297436238
 30
0.0
 10
183.1756554617268
 20
-705.6487059233286
 30
0.0
 10
182.1413774515229
 20
-707.9816725754243
 30
0.0
 10
184.6558001112533
 20
-709.763342124515
 30
0.0
 10
183.7308131022025
 20
-714.7829079402907
 30
0.0
 10
190.3208149437505
 20
-713.3149072925361
 30
0.0
 10
193.9137567537022
 20
-708.7438935008105
 30
0.0
 10
202.717393390929
 20
-710.0007847246837
 30
0.0
 10
209.473726792226
 20
-720.1482462741816
 30
0.0
 10
225.5839946472466
 20
-731.5355628782652
 30
0.0
 10
244.1168207175072
 20
-731.751439011301
 30
0.0
 10
262.5531227773999
 20
-738.4532764127955
 30
0.0
 10
263.0635284593453
 20
-747.2866335695103
 30
0.0
 10
291.6652384830775
 20
-748.7370936459997
 30
0.0
 10
292.0307655889712
 20
-723.3184446877035
 30
0.0
 10
284.9867395129221
 20
-713.4513478467172
 30
0.0
 10
267.5488254145977
 20
-691.5693097846013
 30
0.0
 10
240.9940110177737
 20
-687.7005819766262
 30
0.0
 10
231.2033845698656
 20
-684.9481379522363
 30
0.0
 10
219.815817194989
 20
-687.1536957133576
 30
0.0
  0
LINE
  5
86A
330
1F
100
AcDbEntity
  8
0
  6
Continuous
 62
     5
370
    15
100
AcDbLine
 10
216.5171660271402
 20
-780.6055996375304
 30
0.0
 11
212.7987770389402
 21
-782.0799073844304
 31
0.0
  0
LINE
  5
86B
330
1F
100
AcDbEntity
  8
0
  6
Continuous
 62
     5
370
    15
100
AcDbLine
 10
220.9400892677402
 20
-791.7607666021304
 30
0.0
 11
216.5171660271402
 21
-780.6055996375304
 31
0.0
  0
LINE
  5
86C
330
1F
100
AcDbEntity
  8
0
  6
Continuous
 62
     5
370
    15
100
AcDbLine
 10
217.2217002795402
 20
-793.2350743490304
 30
0.0
 11
220.9400892677402
 21
-791.7607666021304
 31
0.0
  0
LINE
  5
86D
330
1F
100
AcDbEntity
  8
0
  6
Continuous
 62
     5
370
    15
100
AcDbLine
 10
212.7987770389402
 20
-782.0799073844304
 30
0.0
 11
217.2217002795402
 21
-793.2350743490304
 31
0.0
  0
LINE
  5
86E
330
1F
100
AcDbEntity
  8
0
  6
Continuous
 62
     5
370
    15
100
AcDbLine
 10
277.0598113286402
 20
-806.4994987975304
 30
0.0
 11
273.0598113286402
 21
-806.4994987975304
 31
0.0
  0
LINE
  5
86F
330
1F
100
AcDbEntity
  8
0
  6
Continuous
 62
     5
370
    15
100
AcDbLine
 10
277.0598113286402
 20
-818.4994987975304
 30
0.0
 11
277.0598113286402
 21
-806.4994987975304
 31
0.0
  0
LINE
  5
870
330
1F
100
AcDbEntity
  8
0
  6
Continuous
 62
     5
370
    15
100
AcDbLine
 10
273.0598113286402
 20
-818.4994987975304
 30
0.0
 11
277.0598113286402
 21
-818.4994987975304
 31
0.0
  0
LINE
  5
871
330
1F
100
AcDbEntity
  8
0
  6
Continuous
 62
     5
370
    15
100
AcDbLine
 10
273.0598113286402
 20
-806.4994987975304
 30
0.0
 11
273.0598113286402
 21
-818.4994987975304
 31
0.0
  0
SPLINE
  5
872
330
1F
100
AcDbEntity
  8
0
  6
Continuous
 62
     5
370
    15
100
AcDbSpline
210
0.0
220
0.0
230
1.0
 70
    11
 71
     3
 72
    42
 73
    38
 74
     0
 42
0.00000001
 43
0.00000001
 40
0.0
 40
0.0
 40
0.0
 40
0.0
 40
0.0273942713203452
 40
0.0430597829348252
 40
0.0569088198515667
 40
0.0872803031958884
 40
0.1758226960556559
 40
0.2075491446771296
 40
0.2339804008292001
 40
0.252115643934693
 40
0.2629521508917213
 40
0.2673335418174752
 40
0.2745346682780425
 40
0.2887472721502453
 40
0.295342704199322
 40
0.3019665672359942
 40
0.3042573764146437
 40
0.3107507124136011
 40
0.3156095363621098
 40
0.3190065360323926
 40
0.3216261765506069
 40
0.3314860276134214
 40
0.3407995469555684
 40
0.3534114941979333
 40
0.3694463799739158
 40
0.3914423433402696
 40
0.4131289665069982
 40
0.4695521637787403
 40
0.5456862302997181
 40
0.5717040952908202
 40
0.6145742249294192
 40
0.6635311793860481
 40
0.6785142652238647
 40
0.7644050833075849
 40
0.8456671723131229
 40
0.9257461333246325
 40
0.9999999999999996
 40
0.9999999999999996
 40
0.9999999999999996
 40
0.9999999999999996
 10
219.815817194989
 20
-767.0535889383541
 30
0.0
 10
215.6146338181028
 20
-767.8672791935027
 30
0.0
 10
207.582502025637
 20
-769.9014567624226
 30
0.0
 10
211.860944234556
 20
-761.481281710608
 30
0.0
 10
208.1863845000656
 20
-754.608001770451
 30
0.0
 10
229.3361838174903
 20
-740.8878981722379
 30
0.0
 10
187.9719622951977
 20
-742.7924843834236
 30
0.0
 10
175.7493292659713
 20
-753.1056396803688
 30
0.0
 10
170.9480512887316
 20
-761.0505075716609
 30
0.0
 10
169.5520836888824
 20
-768.4182273838567
 30
0.0
 10
172.9318597740626
 20
-771.3895994289745
 30
0.0
 10
175.8995346605572
 20
-771.6232771794419
 30
0.0
 10
176.3522892409156
 20
-775.2680507123881
 30
0.0
 10
178.741757691055
 20
-778.0673990147192
 30
0.0
 10
177.9858943116854
 20
-781.0832833643988
 30
0.0
 10
177.0145813680327
 20
-783.642390398197
 30
0.0
 10
179.0493749439747
 20
-783.9370311305022
 30
0.0
 10
181.1677541001623
 20
-783.114805428696
 30
0.0
 10
181.1637656966978
 20
-785.7120229686203
 30
0.0
 10
183.1756554617268
 20
-785.5485991483251
 30
0.0
 10
182.141377451523
 20
-787.8815658004207
 30
0.0
 10
184.6558001112533
 20
-789.6632353495115
 30
0.0
 10
183.7308131022025
 20
-794.6828011652871
 30
0.0
 10
190.3208149437505
 20
-793.2148005175325
 30
0.0
 10
193.9137567537023
 20
-788.6437867258069
 30
0.0
 10
202.717393390929
 20
-789.9006779496801
 30
0.0
 10
209.473726792226
 20
-800.048139499178
 30
0.0
 10
225.5839946472466
 20
-811.4354561032616
 30
0.0
 10
244.1168207175072
 20
-811.6513322362975
 30
0.0
 10
262.5531227774
 20
-818.353169637792
 30
0.0
 10
263.0635284593453
 20
-827.1865267945068
 30
0.0
 10
291.6652384830775
 20
-828.6369868709961
 30
0.0
 10
292.0307655889713
 20
-803.2183379127
 30
0.0
 10
284.9867395129221
 20
-793.3512410717137
 30
0.0
 10
267.5488254145977
 20
-771.4692030095977
 30
0.0
 10
240.9940110177737
 20
-767.6004752016227
 30
0.0
 10
231.2033845698656
 20
-764.8480311772327
 30
0.0
 10
219.815817194989
 20
-767.0535889383541
 30
0.0
  0
LINE
  5
873
330
1F
100
AcDbEntity
  8
0
  6
Continuous
 62
     5
370
    15
100
AcDbLine
 10
216.5171660271402
 20
-860.5054928625268
 30
0.0
 11
212.7987770389402
 21
-861.9798006094268
 31
0.0
  0
LINE
  5
874
330
1F
100
AcDbEntity
  8
0
  6
Continuous
 62
     5
370
    15
100
AcDbLine
 10
220.9400892677402
 20
-871.6606598271269
 30
0.0
 11
216.5171660271402
 21
-860.5054928625268
 31
0.0
  0
LINE
  5
875
330
1F
100
AcDbEntity
  8
0
  6
Continuous
 62
     5
370
    15
100
AcDbLine
 10
217.2217002795402
 20
-873.1349675740269
 30
0.0
 11
220.9400892677402
 21
-871.6606598271269
 31
0.0
  0
LINE
  5
876
330
1F
100
AcDbEntity
  8
0
  6
Continuous
 62
     5
370
    15
100
AcDbLine
 10
212.7987770389402
 20
-861.9798006094268
 30
0.0
 11
217.2217002795402
 21
-873.1349675740269
 31
0.0
  0
LINE
  5
877
330
1F
100
AcDbEntity
  8
0
  6
Continuous
 62
     5
370
    15
100
AcDbLine
 10
277.0598113286402
 20
-886.3993920225269
 30
0.0
 11
273.0598113286402
 21
-886.3993920225269
 31
0.0
  0
LINE
  5
878
330
1F
100
AcDbEntity
  8
0
  6
Continuous
 62
     5
370
    15
100
AcDbLine
 10
277.0598113286402
 20
-898.3993920225269
 30
0.0
 11
277.0598113286402
 21
-886.3993920225269
 31
0.0
  0
LINE
  5
879
330
1F
100
AcDbEntity
  8
0
  6
Continuous
 62
     5
370
    15
100
AcDbLine
 10
273.0598113286402
 20
-898.3993920225269
 30
0.0
 11
277.0598113286402
 21
-898.3993920225269
 31
0.0
  0
LINE
  5
87A
330
1F
100
AcDbEntity
  8
0
  6
Continuous
 62
     5
370
    15
100
AcDbLine
 10
273.0598113286402
 20
-886.3993920225269
 30
0.0
 11
273.0598113286402
 21
-898.3993920225269
 31
0.0
  0
SPLINE
  5
87B
330
1F
100
AcDbEntity
  8
0
  6
Continuous
 62
     5
370
    15
100
AcDbSpline
210
0.0
220
0.0
230
1.0
 70
    11
 71
     3
 72
    42
 73
    38
 74
     0
 42
0.00000001
 43
0.00000001
 40
0.0
 40
0.0
 40
0.0
 40
0.0
 40
0.0273942713203452
 40
0.0430597829348252
 40
0.0569088198515667
 40
0.0872803031958884
 40
0.1758226960556559
 40
0.2075491446771296
 40
0.2339804008292001
 40
0.252115643934693
 40
0.2629521508917213
 40
0.2673335418174752
 40
0.2745346682780425
 40
0.2887472721502453
 40
0.295342704199322
 40
0.3019665672359942
 40
0.3042573764146437
 40
0.3107507124136011
 40
0.3156095363621098
 40
0.3190065360323926
 40
0.3216261765506069
 40
0.3314860276134214
 40
0.3407995469555684
 40
0.3534114941979333
 40
0.3694463799739158
 40
0.3914423433402696
 40
0.4131289665069982
 40
0.4695521637787403
 40
0.5456862302997181
 40
0.5717040952908202
 40
0.6145742249294192
 40
0.6635311793860481
 40
0.6785142652238647
 40
0.7644050833075849
 40
0.8456671723131229
 40
0.9257461333246325
 40
0.9999999999999996
 40
0.9999999999999996
 40
0.9999999999999996
 40
0.9999999999999996
 10
219.8158171949891
 20
-846.9534821633506
 30
0.0
 10
215.6146338181028
 20
-847.7671724184992
 30
0.0
 10
207.582502025637
 20
-849.801349987419
 30
0.0
 10
211.860944234556
 20
-841.3811749356045
 30
0.0
 10
208.1863845000657
 20
-834.5078949954475
 30
0.0
 10
229.3361838174904
 20
-820.7877913972343
 30
0.0
 10
187.9719622951977
 20
-822.69237760842
 30
0.0
 10
175.7493292659713
 20
-833.0055329053652
 30
0.0
 10
170.9480512887316
 20
-840.9504007966573
 30
0.0
 10
169.5520836888825
 20
-848.3181206088532
 30
0.0
 10
172.9318597740627
 20
-851.2894926539709
 30
0.0
 10
175.8995346605572
 20
-851.5231704044384
 30
0.0
 10
176.3522892409157
 20
-855.1679439373845
 30
0.0
 10
178.741757691055
 20
-857.9672922397157
 30
0.0
 10
177.9858943116854
 20
-860.9831765893953
 30
0.0
 10
177.0145813680327
 20
-863.5422836231935
 30
0.0
 10
179.0493749439748
 20
-863.8369243554987
 30
0.0
 10
181.1677541001623
 20
-863.0146986536924
 30
0.0
 10
181.1637656966978
 20
-865.6119161936167
 30
0.0
 10
183.1756554617268
 20
-865.4484923733215
 30
0.0
 10
182.141377451523
 20
-867.7814590254172
 30
0.0
 10
184.6558001112533
 20
-869.5631285745079
 30
0.0
 10
183.7308131022025
 20
-874.5826943902836
 30
0.0
 10
190.3208149437506
 20
-873.114693742529
 30
0.0
 10
193.9137567537023
 20
-868.5436799508034
 30
0.0
 10
202.717393390929
 20
-869.8005711746766
 30
0.0
 10
209.473726792226
 20
-879.9480327241745
 30
0.0
 10
225.5839946472466
 20
-891.3353493282581
 30
0.0
 10
244.1168207175072
 20
-891.5512254612939
 30
0.0
 10
262.5531227774
 20
-898.2530628627885
 30
0.0
 10
263.0635284593453
 20
-907.0864200195033
 30
0.0
 10
291.6652384830775
 20
-908.5368800959925
 30
0.0
 10
292.0307655889713
 20
-883.1182311376965
 30
0.0
 10
284.9867395129221
 20
-873.2511342967101
 30
0.0
 10
267.5488254145977
 20
-851.3690962345942
 30
0.0
 10
240.9940110177737
 20
-847.500368426619
 30
0.0
 10
231.2033845698656
 20
-844.7479244022292
 30
0.0
 10
219.8158171949891
 20
-846.9534821633506
 30
0.0
  0
LINE
  5
8CA
330
1F
100
AcDbEntity
  8
0
  6
Continuous
 62
     5
370
    15
100
AcDbLine
 10
-65.88365839120368
 20
-590.395269048687
 30
0.0
 11
-69.60204737940367
 21
-591.8695767955871
 31
0.0
  0
LINE
  5
8CB
330
1F
100
AcDbEntity
  8
0
  6
Continuous
 62
     5
370
    15
100
AcDbLine
 10
-61.46073515060367
 20
-601.5504360132871
 30
0.0
 11
-65.88365839120368
 21
-590.395269048687
 31
0.0
  0
LINE
  5
8CC
330
1F
100
AcDbEntity
  8
0
  6
Continuous
 62
     5
370
    15
100
AcDbLine
 10
-65.17912413880367
 20
-603.0247437601871
 30
0.0
 11
-61.46073515060367
 21
-601.5504360132871
 31
0.0
  0
LINE
  5
8CD
330
1F
100
AcDbEntity
  8
0
  6
Continuous
 62
     5
370
    15
100
AcDbLine
 10
-69.60204737940367
 20
-591.8695767955871
 30
0.0
 11
-65.17912413880367
 21
-603.0247437601871
 31
0.0
  0
CIRCLE
  5
8CE
330
1F
100
AcDbEntity
  8
0
  6
Continuous
 62
     5
370
    15
100
AcDbCircle
 10
-65.53139126500368
 20
-596.7100064043871
 30
0.0
 40
10.99999999999999
  0
LINE
  5
8CF
330
1F
100
AcDbEntity
  8
0
  6
Continuous
 62
     5
370
    15
100
AcDbLine
 10
-35.9574140615666
 20
-590.395269048687
 30
0.0
 11
-39.6758030497666
 21
-591.8695767955871
 31
0.0
  0
LINE
  5
8D0
330
1F
100
AcDbEntity
  8
0
  6
Continuous
 62
     5
370
    15
100
AcDbLine
 10
-31.5344908209666
 20
-601.5504360132871
 30
0.0
 11
-35.9574140615666
 21
-590.395269048687
 31
0.0
  0
LINE
  5
8D1
330
1F
100
AcDbEntity
  8
0
  6
Continuous
 62
     5
370
    15
100
AcDbLine
 10
-35.2528798091666
 20
-603.0247437601871
 30
0.0
 11
-31.5344908209666
 21
-601.5504360132871
 31
0.0
  0
LINE
  5
8D2
330
1F
100
AcDbEntity
  8
0
  6
Continuous
 62
     5
370
    15
100
AcDbLine
 10
-39.6758030497666
 20
-591.8695767955871
 30
0.0
 11
-35.2528798091666
 21
-603.0247437601871
 31
0.0
  0
CIRCLE
  5
8D3
330
1F
100
AcDbEntity
  8
0
  6
Continuous
 62
     5
370
    15
100
AcDbCircle
 10
-35.60514693536661
 20
-596.7100064043871
 30
0.0
 40
10.99999999999999
  0
LINE
  5
8D4
330
1F
100
AcDbEntity
  8
0
  6
Continuous
 62
     5
370
    15
100
AcDbLine
 10
-6.031169731929538
 20
-590.395269048687
 30
0.0
 11
-9.749558720129528
 21
-591.869576795587
 31
0.0
  0
LINE
  5
8D5
330
1F
100
AcDbEntity
  8
0
  6
Continuous
 62
     5
370
    15
100
AcDbLine
 10
-1.608246491329538
 20
-601.550436013287
 30
0.0
 11
-6.031169731929538
 21
-590.395269048687
 31
0.0
  0
LINE
  5
8D6
330
1F
100
AcDbEntity
  8
0
  6
Continuous
 62
     5
370
    15
100
AcDbLine
 10
-5.326635479529529
 20
-603.0247437601871
 30
0.0
 11
-1.608246491329538
 21
-601.550436013287
 31
0.0
  0
LINE
  5
8D7
330
1F
100
AcDbEntity
  8
0
  6
Continuous
 62
     5
370
    15
100
AcDbLine
 10
-9.749558720129528
 20
-591.869576795587
 30
0.0
 11
-5.326635479529529
 21
-603.0247437601871
 31
0.0
  0
CIRCLE
  5
8D8
330
1F
100
AcDbEntity
  8
0
  6
Continuous
 62
     5
370
    15
100
AcDbCircle
 10
-5.678902605729533
 20
-596.7100064043871
 30
0.0
 40
10.99999999999999
  0
LINE
  5
8D9
330
1F
100
AcDbEntity
  8
0
  6
Continuous
 62
     5
370
    15
100
AcDbLine
 10
23.89507459770755
 20
-590.395269048687
 30
0.0
 11
20.17668560950756
 21
-591.869576795587
 31
0.0
  0
LINE
  5
8DA
330
1F
100
AcDbEntity
  8
0
  6
Continuous
 62
     5
370
    15
100
AcDbLine
 10
28.31799783830755
 20
-601.550436013287
 30
0.0
 11
23.89507459770755
 21
-590.395269048687
 31
0.0
  0
LINE
  5
8DB
330
1F
100
AcDbEntity
  8
0
  6
Continuous
 62
     5
370
    15
100
AcDbLine
 10
24.59960885010753
 20
-603.0247437601871
 30
0.0
 11
28.31799783830755
 21
-601.550436013287
 31
0.0
  0
LINE
  5
8DC
330
1F
100
AcDbEntity
  8
0
  6
Continuous
 62
     5
370
    15
100
AcDbLine
 10
20.17668560950756
 20
-591.869576795587
 30
0.0
 11
24.59960885010753
 21
-603.0247437601871
 31
0.0
  0
CIRCLE
  5
8DD
330
1F
100
AcDbEntity
  8
0
  6
Continuous
 62
     5
370
    15
100
AcDbCircle
 10
24.24734172390754
 20
-596.7100064043871
 30
0.0
 40
10.99999999999999
  0
LINE
  5
8DE
330
1F
100
AcDbEntity
  8
0
  6
Continuous
 62
     5
370
    15
100
AcDbLine
 10
53.82131892734461
 20
-590.395269048687
 30
0.0
 11
50.10292993914462
 21
-591.869576795587
 31
0.0
  0
LINE
  5
8DF
330
1F
100
AcDbEntity
  8
0
  6
Continuous
 62
     5
370
    15
100
AcDbLine
 10
58.24424216794461
 20
-601.550436013287
 30
0.0
 11
53.82131892734461
 21
-590.395269048687
 31
0.0
  0
LINE
  5
8E0
330
1F
100
AcDbEntity
  8
0
  6
Continuous
 62
     5
370
    15
100
AcDbLine
 10
54.52585317974462
 20
-603.0247437601871
 30
0.0
 11
58.24424216794461
 21
-601.550436013287
 31
0.0
  0
LINE
  5
8E1
330
1F
100
AcDbEntity
  8
0
  6
Continuous
 62
     5
370
    15
100
AcDbLine
 10
50.10292993914462
 20
-591.869576795587
 30
0.0
 11
54.52585317974462
 21
-603.0247437601871
 31
0.0
  0
CIRCLE
  5
8E2
330
1F
100
AcDbEntity
  8
0
  6
Continuous
 62
     5
370
    15
100
AcDbCircle
 10
54.17358605354462
 20
-596.7100064043871
 30
0.0
 40
10.99999999999999
  0
LINE
  5
8E3
330
1F
100
AcDbEntity
  8
0
  6
Continuous
 62
     5
370
    15
100
AcDbLine
 10
-65.88365839120367
 20
-616.8492471932883
 30
0.0
 11
-69.60204737940367
 21
-618.3235549401883
 31
0.0
  0
LINE
  5
8E4
330
1F
100
AcDbEntity
  8
0
  6
Continuous
 62
     5
370
    15
100
AcDbLine
 10
-61.46073515060367
 20
-628.0044141578883
 30
0.0
 11
-65.88365839120367
 21
-616.8492471932883
 31
0.0
  0
LINE
  5
8E5
330
1F
100
AcDbEntity
  8
0
  6
Continuous
 62
     5
370
    15
100
AcDbLine
 10
-65.17912413880367
 20
-629.4787219047884
 30
0.0
 11
-61.46073515060367
 21
-628.0044141578883
 31
0.0
  0
LINE
  5
8E6
330
1F
100
AcDbEntity
  8
0
  6
Continuous
 62
     5
370
    15
100
AcDbLine
 10
-69.60204737940367
 20
-618.3235549401883
 30
0.0
 11
-65.17912413880367
 21
-629.4787219047884
 31
0.0
  0
CIRCLE
  5
8E7
330
1F
100
AcDbEntity
  8
0
  6
Continuous
 62
     5
370
    15
100
AcDbCircle
 10
-65.53139126500366
 20
-623.1639845489883
 30
0.0
 40
10.99999999999999
  0
LINE
  5
8E8
330
1F
100
AcDbEntity
  8
0
  6
Continuous
 62
     5
370
    15
100
AcDbLine
 10
-35.9574140615666
 20
-616.8492471932883
 30
0.0
 11
-39.67580304976659
 21
-618.3235549401883
 31
0.0
  0
LINE
  5
8E9
330
1F
100
AcDbEntity
  8
0
  6
Continuous
 62
     5
370
    15
100
AcDbLine
 10
-31.5344908209666
 20
-628.0044141578883
 30
0.0
 11
-35.9574140615666
 21
-616.8492471932883
 31
0.0
  0
LINE
  5
8EA
330
1F
100
AcDbEntity
  8
0
  6
Continuous
 62
     5
370
    15
100
AcDbLine
 10
-35.25287980916659
 20
-629.4787219047884
 30
0.0
 11
-31.5344908209666
 21
-628.0044141578883
 31
0.0
  0
LINE
  5
8EB
330
1F
100
AcDbEntity
  8
0
  6
Continuous
 62
     5
370
    15
100
AcDbLine
 10
-39.67580304976659
 20
-618.3235549401883
 30
0.0
 11
-35.25287980916659
 21
-629.4787219047884
 31
0.0
  0
CIRCLE
  5
8EC
330
1F
100
AcDbEntity
  8
0
  6
Continuous
 62
     5
370
    15
100
AcDbCircle
 10
-35.60514693536661
 20
-623.1639845489883
 30
0.0
 40
10.99999999999999
  0
LINE
  5
8ED
330
1F
100
AcDbEntity
  8
0
  6
Continuous
 62
     5
370
    15
100
AcDbLine
 10
-6.031169731929523
 20
-616.8492471932883
 30
0.0
 11
-9.749558720129528
 21
-618.3235549401883
 31
0.0
  0
LINE
  5
8EE
330
1F
100
AcDbEntity
  8
0
  6
Continuous
 62
     5
370
    15
100
AcDbLine
 10
-1.608246491329524
 20
-628.0044141578883
 30
0.0
 11
-6.031169731929523
 21
-616.8492471932883
 31
0.0
  0
LINE
  5
8EF
330
1F
100
AcDbEntity
  8
0
  6
Continuous
 62
     5
370
    15
100
AcDbLine
 10
-5.326635479529529
 20
-629.4787219047882
 30
0.0
 11
-1.608246491329524
 21
-628.0044141578883
 31
0.0
  0
LINE
  5
8F0
330
1F
100
AcDbEntity
  8
0
  6
Continuous
 62
     5
370
    15
100
AcDbLine
 10
-9.749558720129528
 20
-618.3235549401883
 30
0.0
 11
-5.326635479529529
 21
-629.4787219047882
 31
0.0
  0
CIRCLE
  5
8F1
330
1F
100
AcDbEntity
  8
0
  6
Continuous
 62
     5
370
    15
100
AcDbCircle
 10
-5.678902605729519
 20
-623.1639845489883
 30
0.0
 40
10.99999999999999
  0
LINE
  5
8F2
330
1F
100
AcDbEntity
  8
0
  6
Continuous
 62
     5
370
    15
100
AcDbLine
 10
23.89507459770755
 20
-616.8492471932883
 30
0.0
 11
20.17668560950756
 21
-618.3235549401883
 31
0.0
  0
LINE
  5
8F3
330
1F
100
AcDbEntity
  8
0
  6
Continuous
 62
     5
370
    15
100
AcDbLine
 10
28.31799783830755
 20
-628.0044141578883
 30
0.0
 11
23.89507459770755
 21
-616.8492471932883
 31
0.0
  0
LINE
  5
8F4
330
1F
100
AcDbEntity
  8
0
  6
Continuous
 62
     5
370
    15
100
AcDbLine
 10
24.59960885010753
 20
-629.4787219047882
 30
0.0
 11
28.31799783830755
 21
-628.0044141578883
 31
0.0
  0
LINE
  5
8F5
330
1F
100
AcDbEntity
  8
0
  6
Continuous
 62
     5
370
    15
100
AcDbLine
 10
20.17668560950756
 20
-618.3235549401883
 30
0.0
 11
24.59960885010753
 21
-629.4787219047882
 31
0.0
  0
CIRCLE
  5
8F6
330
1F
100
AcDbEntity
  8
0
  6
Continuous
 62
     5
370
    15
100
AcDbCircle
 10
24.24734172390754
 20
-623.1639845489883
 30
0.0
 40
10.99999999999999
  0
LINE
  5
8F7
330
1F
100
AcDbEntity
  8
0
  6
Continuous
 62
     5
370
    15
100
AcDbLine
 10
53.82131892734461
 20
-616.8492471932883
 30
0.0
 11
50.10292993914462
 21
-618.3235549401883
 31
0.0
  0
LINE
  5
8F8
330
1F
100
AcDbEntity
  8
0
  6
Continuous
 62
     5
370
    15
100
AcDbLine
 10
58.24424216794461
 20
-628.0044141578883
 30
0.0
 11
53.82131892734461
 21
-616.8492471932883
 31
0.0
  0
LINE
  5
8F9
330
1F
100
AcDbEntity
  8
0
  6
Continuous
 62
     5
370
    15
100
AcDbLine
 10
54.52585317974462
 20
-629.4787219047882
 30
0.0
 11
58.24424216794461
 21
-628.0044141578883
 31
0.0
  0
LINE
  5
8FA
330
1F
100
AcDbEntity
  8
0
  6
Continuous
 62
     5
370
    15
100
AcDbLine
 10
50.10292993914462
 20
-618.3235549401883
 30
0.0
 11
54.52585317974462
 21
-629.4787219047882
 31
0.0
  0
CIRCLE
  5
8FB
330
1F
100
AcDbEntity
  8
0
  6
Continuous
 62
     5
370
    15
100
AcDbCircle
 10
54.17358605354462
 20
-623.1639845489883
 30
0.0
 40
10.99999999999999
  0
LINE
  5
931
330
1F
100
AcDbEntity
  8
0
  6
Continuous
 62
     5
370
    15
100
AcDbLine
 10
-62.55161641602632
 20
-651.1265436321778
 30
0.0
 11
-66.55161641602632
 21
-651.1265436321778
 31
0.0
  0
LINE
  5
932
330
1F
100
AcDbEntity
  8
0
  6
Continuous
 62
     5
370
    15
100
AcDbLine
 10
-62.55161641602632
 20
-663.1265436321778
 30
0.0
 11
-62.55161641602632
 21
-651.1265436321778
 31
0.0
  0
LINE
  5
933
330
1F
100
AcDbEntity
  8
0
  6
Continuous
 62
     5
370
    15
100
AcDbLine
 10
-66.55161641602632
 20
-663.1265436321778
 30
0.0
 11
-62.55161641602632
 21
-663.1265436321778
 31
0.0
  0
LINE
  5
934
330
1F
100
AcDbEntity
  8
0
  6
Continuous
 62
     5
370
    15
100
AcDbLine
 10
-66.55161641602632
 20
-651.1265436321778
 30
0.0
 11
-66.55161641602632
 21
-663.1265436321778
 31
0.0
  0
CIRCLE
  5
935
330
1F
100
AcDbEntity
  8
0
  6
Continuous
 62
     5
370
    15
100
AcDbCircle
 10
-64.55161641602632
 20
-657.1265436321778
 30
0.0
 40
11.0
  0
LINE
  5
936
330
1F
100
AcDbEntity
  8
0
  6
Continuous
 62
     5
370
    15
100
AcDbLine
 10
-37.76226757145029
 20
-651.1265436321778
 30
0.0
 11
-41.76226757145029
 21
-651.1265436321778
 31
0.0
  0
LINE
  5
937
330
1F
100
AcDbEntity
  8
0
  6
Continuous
 62
     5
370
    15
100
AcDbLine
 10
-37.76226757145029
 20
-663.1265436321778
 30
0.0
 11
-37.76226757145029
 21
-651.1265436321778
 31
0.0
  0
LINE
  5
938
330
1F
100
AcDbEntity
  8
0
  6
Continuous
 62
     5
370
    15
100
AcDbLine
 10
-41.76226757145029
 20
-663.1265436321778
 30
0.0
 11
-37.76226757145029
 21
-663.1265436321778
 31
0.0
  0
LINE
  5
939
330
1F
100
AcDbEntity
  8
0
  6
Continuous
 62
     5
370
    15
100
AcDbLine
 10
-41.76226757145029
 20
-651.1265436321778
 30
0.0
 11
-41.76226757145029
 21
-663.1265436321778
 31
0.0
  0
CIRCLE
  5
93A
330
1F
100
AcDbEntity
  8
0
  6
Continuous
 62
     5
370
    15
100
AcDbCircle
 10
-39.76226757145029
 20
-657.1265436321778
 30
0.0
 40
11.0
  0
LINE
  5
93B
330
1F
100
AcDbEntity
  8
0
  6
Continuous
 62
     5
370
    15
100
AcDbLine
 10
-12.83342603184177
 20
-651.1265436321778
 30
0.0
 11
-16.83342603184177
 21
-651.1265436321778
 31
0.0
  0
LINE
  5
93C
330
1F
100
AcDbEntity
  8
0
  6
Continuous
 62
     5
370
    15
100
AcDbLine
 10
-12.83342603184177
 20
-663.1265436321778
 30
0.0
 11
-12.83342603184177
 21
-651.1265436321778
 31
0.0
  0
LINE
  5
93D
330
1F
100
AcDbEntity
  8
0
  6
Continuous
 62
     5
370
    15
100
AcDbLine
 10
-16.83342603184177
 20
-663.1265436321778
 30
0.0
 11
-12.83342603184177
 21
-663.1265436321778
 31
0.0
  0
LINE
  5
93E
330
1F
100
AcDbEntity
  8
0
  6
Continuous
 62
     5
370
    15
100
AcDbLine
 10
-16.83342603184177
 20
-651.1265436321778
 30
0.0
 11
-16.83342603184177
 21
-663.1265436321778
 31
0.0
  0
CIRCLE
  5
93F
330
1F
100
AcDbEntity
  8
0
  6
Continuous
 62
     5
370
    15
100
AcDbCircle
 10
-14.83342603184177
 20
-657.1265436321778
 30
0.0
 40
11.0
  0
LINE
  5
940
330
1F
100
AcDbEntity
  8
0
  6
Continuous
 62
     5
370
    15
100
AcDbLine
 10
12.09541550776676
 20
-651.1265436321778
 30
0.0
 11
8.09541550776676
 21
-651.1265436321778
 31
0.0
  0
LINE
  5
941
330
1F
100
AcDbEntity
  8
0
  6
Continuous
 62
     5
370
    15
100
AcDbLine
 10
12.09541550776676
 20
-663.1265436321778
 30
0.0
 11
12.09541550776676
 21
-651.1265436321778
 31
0.0
  0
LINE
  5
942
330
1F
100
AcDbEntity
  8
0
  6
Continuous
 62
     5
370
    15
100
AcDbLine
 10
8.09541550776676
 20
-663.1265436321778
 30
0.0
 11
12.09541550776676
 21
-663.1265436321778
 31
0.0
  0
LINE
  5
943
330
1F
100
AcDbEntity
  8
0
  6
Continuous
 62
     5
370
    15
100
AcDbLine
 10
8.09541550776676
 20
-651.1265436321778
 30
0.0
 11
8.09541550776676
 21
-663.1265436321778
 31
0.0
  0
CIRCLE
  5
944
330
1F
100
AcDbEntity
  8
0
  6
Continuous
 62
     5
370
    15
100
AcDbCircle
 10
10.09541550776676
 20
-657.1265436321778
 30
0.0
 40
11.0
  0
LINE
  5
945
330
1F
100
AcDbEntity
  8
0
  6
Continuous
 62
     5
370
    15
100
AcDbLine
 10
37.40777768644621
 20
-651.1265436321778
 30
0.0
 11
33.40777768644621
 21
-651.1265436321778
 31
0.0
  0
LINE
  5
946
330
1F
100
AcDbEntity
  8
0
  6
Continuous
 62
     5
370
    15
100
AcDbLine
 10
37.40777768644621
 20
-663.1265436321778
 30
0.0
 11
37.40777768644621
 21
-651.1265436321778
 31
0.0
  0
LINE
  5
947
330
1F
100
AcDbEntity
  8
0
  6
Continuous
 62
     5
370
    15
100
AcDbLine
 10
33.40777768644621
 20
-663.1265436321778
 30
0.0
 11
37.40777768644621
 21
-663.1265436321778
 31
0.0
  0
LINE
  5
948
330
1F
100
AcDbEntity
  8
0
  6
Continuous
 62
     5
370
    15
100
AcDbLine
 10
33.40777768644621
 20
-651.1265436321778
 30
0.0
 11
33.40777768644621
 21
-663.1265436321778
 31
0.0
  0
CIRCLE
  5
949
330
1F
100
AcDbEntity
  8
0
  6
Continuous
 62
     5
370
    15
100
AcDbCircle
 10
35.40777768644621
 20
-657.1265436321778
 30
0.0
 40
11.0
  0
ENDSEC
  0
SECTION
  2
OBJECTS
  0
DICTIONARY
  5
C
330
0
100
AcDbDictionary
281
     1
  3
ACAD_GROUP
350
D
  3
ACAD_IMAGE_VARS
350
94
  3
ACAD_LAYOUT
350
1A
  3
ACAD_MATERIAL
350
7C
  3
ACAD_MLEADERSTYLE
350
AE
  3
ACAD_MLINESTYLE
350
17
  3
ACAD_PLOTSETTINGS
350
19
  3
ACAD_PLOTSTYLENAME
350
E
  3
ACAD_SCALELIST
350
5A
  3
ACAD_TABLESTYLE
350
91
  3
ACDB_RECOMPOSE_DATA
350
94D
  3
AcDbVariableDictionary
350
AB
  3
APPDATA
350
93
  0
DICTIONARY
  5
D
102
{ACAD_REACTORS
330
C
102
}
330
C
100
AcDbDictionary
281
     1
  0
RASTERVARIABLES
  5
94
102
{ACAD_REACTORS
330
C
102
}
330
C
100
AcDbRasterVariables
 90
        0
 70
     1
 71
     1
 72
     1
  0
DICTIONARY
  5
1A
102
{ACAD_REACTORS
330
C
102
}
330
C
100
AcDbDictionary
281
     1
  3
Layout1
350
1E
  3
Layout2
350
26
  3
Model
350
22
  0
DICTIONARY
  5
7C
102
{ACAD_REACTORS
330
C
102
}
330
C
100
AcDbDictionary
281
     1
  3
ByBlock
350
7E
  3
ByLayer
350
7D
  3
Global
350
7F
  0
DICTIONARY
  5
AE
102
{ACAD_REACTORS
330
C
102
}
330
C
100
AcDbDictionary
281
     1
  0
DICTIONARY
  5
17
102
{ACAD_REACTORS
330
C
102
}
330
C
100
AcDbDictionary
281
     1
  3
Standard
350
18
  0
DICTIONARY
  5
19
102
{ACAD_REACTORS
330
C
102
}
330
C
100
AcDbDictionary
281
     1
  0
ACDBDICTIONARYWDFLT
  5
E
102
{ACAD_REACTORS
330
C
102
}
330
C
100
AcDbDictionary
281
     1
  3
Normal
350
F
100
AcDbDictionaryWithDefault
340
F
  0
DICTIONARY
  5
5A
102
{ACAD_REACTORS
330
C
102
}
330
C
100
AcDbDictionary
281
     1
  3
A0
350
5B
  3
A1
350
5C
  3
A2
350
5D
  3
A3
350
5E
  3
A4
350
5F
  3
A5
350
60
  3
A6
350
61
  3
A7
350
62
  3
A8
350
63
  3
A9
350
64
  3
B0
350
65
  3
B1
350
66
  3
B2
350
67
  3
B3
350
68
  3
B4
350
69
  3
B5
350
6A
  3
B6
350
6B
  3
B7
350
6C
  3
B8
350
6D
  3
B9
350
6E
  3
C0
350
6F
  3
C1
350
70
  3
C2
350
71
  3
C3
350
72
  3
C4
350
73
  3
C5
350
74
  3
C6
350
75
  3
C7
350
76
  3
C8
350
77
  3
C9
350
78
  3
D0
350
79
  3
D1
350
7A
  3
D2
350
7B
  0
DICTIONARY
  5
91
102
{ACAD_REACTORS
330
C
102
}
330
C
100
AcDbDictionary
281
     1
  3
Standard
350
92
  0
XRECORD
  5
94D
102
{ACAD_REACTORS
330
C
102
}
330
C
100
AcDbXrecord
280
     1
 90
        1
330
92
  0
DICTIONARY
  5
AB
102
{ACAD_REACTORS
330
C
102
}
330
C
100
AcDbDictionary
281
     1
  3
CANNOSCALE
350
AC
  3
CTABLESTYLE
350
AD
  0
DICTIONARY
  5
93
102
{ACAD_REACTORS
330
C
102
}
330
C
100
AcDbDictionary
281
     1
  0
LAYOUT
  5
1E
102
{ACAD_REACTORS
330
1A
102
}
330
1A
100
AcDbPlotSettings
  1

  2
none_device
  4

  6

 40
0.0
 41
0.0
 42
0.0
 43
0.0
 44
0.0
 45
0.0
 46
0.0
 47
0.0
 48
0.0
 49
0.0
140
0.0
141
0.0
142
1.0
143
1.0
 70
   688
 72
     0
 73
     0
 74
     5
  7

 75
    16
 76
     0
 77
     2
 78
   300
147
1.0
148
0.0
149
0.0
100
AcDbLayout
  1
Layout1
 70
     1
 71
     1
 10
0.0
 20
0.0
 11
420.0
 21
297.0
 12
0.0
 22
0.0
 32
0.0
 14
1.000000000000000E+20
 24
1.000000000000000E+20
 34
1.000000000000000E+20
 15
-1.000000000000000E+20
 25
-1.000000000000000E+20
 35
-1.000000000000000E+20
146
0.0
 13
0.0
 23
0.0
 33
0.0
 16
1.0
 26
0.0
 36
0.0
 17
0.0
 27
1.0
 37
0.0
 76
     0
330
1B
  0
LAYOUT
  5
26
102
{ACAD_REACTORS
330
1A
102
}
330
1A
100
AcDbPlotSettings
  1

  2
none_device
  4

  6

 40
0.0
 41
0.0
 42
0.0
 43
0.0
 44
0.0
 45
0.0
 46
0.0
 47
0.0
 48
0.0
 49
0.0
140
0.0
141
0.0
142
1.0
143
1.0
 70
   688
 72
     0
 73
     0
 74
     5
  7

 75
    16
 76
     0
 77
     2
 78
   300
147
1.0
148
0.0
149
0.0
100
AcDbLayout
  1
Layout2
 70
     1
 71
     2
 10
0.0
 20
0.0
 11
0.0
 21
0.0
 12
0.0
 22
0.0
 32
0.0
 14
0.0
 24
0.0
 34
0.0
 15
0.0
 25
0.0
 35
0.0
146
0.0
 13
0.0
 23
0.0
 33
0.0
 16
1.0
 26
0.0
 36
0.0
 17
0.0
 27
1.0
 37
0.0
 76
     0
330
23
  0
LAYOUT
  5
22
102
{ACAD_REACTORS
330
1A
102
}
330
1A
100
AcDbPlotSettings
  1

  2
none_device
  4
ANSI_A_(11.00_x_8.50_Inches)
  6

 40
6.35
 41
19.05
 42
6.35000508
 43
19.05000254
 44
279.4
 45
215.9
 46
54.2946670152
 47
250.0671321351
 48
0.0
 49
0.0
140
0.0
141
0.0
142
0.0366166422
143
1.0
 70
  1696
 72
     0
 73
     0
 74
     0
  7

 75
     0
 76
     0
 77
     2
 78
   300
147
0.0179189148
148
0.0
149
0.0
100
AcDbLayout
  1
Model
 70
     1
 71
     0
 10
0.0
 20
0.0
 11
420.0
 21
297.0
 12
0.0
 22
0.0
 32
0.0
 14
-77.4304681660294
 24
-906.9422095483787
 34
0.0
 15
507.1774262936754
 25
-158.2863079865
 35
0.0
146
0.0
 13
0.0
 23
0.0
 33
0.0
 16
1.0
 26
0.0
 36
0.0
 17
0.0
 27
1.0
 37
0.0
 76
     0
330
1F
331
29
  0
MATERIAL
  5
7E
102
{ACAD_REACTORS
330
7C
102
}
330
7C
100
AcDbMaterial
  1
ByBlock
  0
MATERIAL
  5
7D
102
{ACAD_REACTORS
330
7C
102
}
330
7C
100
AcDbMaterial
  1
ByLayer
  0
MATERIAL
  5
7F
102
{ACAD_REACTORS
330
7C
102
}
330
7C
100
AcDbMaterial
  1
Global
  0
MLINESTYLE
  5
18
102
{ACAD_REACTORS
330
17
102
}
330
17
100
AcDbMlineStyle
  2
Standard
 70
     0
  3

 62
   256
 51
90.0
 52
90.0
 71
     2
 49
0.5
 62
   256
  6
BYLAYER
 49
-0.5
 62
   256
  6
BYLAYER
  0
ACDBPLACEHOLDER
  5
F
102
{ACAD_REACTORS
330
E
102
}
330
E
  0
SCALE
  5
5B
102
{ACAD_REACTORS
330
5A
102
}
330
5A
100
AcDbScale
 70
     0
300
1:1
140
1.0
141
1.0
290
     1
  0
SCALE
  5
5C
102
{ACAD_REACTORS
330
5A
102
}
330
5A
100
AcDbScale
 70
     0
300
1:2
140
1.0
141
2.0
290
     0
  0
SCALE
  5
5D
102
{ACAD_REACTORS
330
5A
102
}
330
5A
100
AcDbScale
 70
     0
300
1:4
140
1.0
141
4.0
290
     0
  0
SCALE
  5
5E
102
{ACAD_REACTORS
330
5A
102
}
330
5A
100
AcDbScale
 70
     0
300
1:5
140
1.0
141
5.0
290
     0
  0
SCALE
  5
5F
102
{ACAD_REACTORS
330
5A
102
}
330
5A
100
AcDbScale
 70
     0
300
1:8
140
1.0
141
8.0
290
     0
  0
SCALE
  5
60
102
{ACAD_REACTORS
330
5A
102
}
330
5A
100
AcDbScale
 70
     0
300
1:10
140
1.0
141
10.0
290
     0
  0
SCALE
  5
61
102
{ACAD_REACTORS
330
5A
102
}
330
5A
100
AcDbScale
 70
     0
300
1:16
140
1.0
141
16.0
290
     0
  0
SCALE
  5
62
102
{ACAD_REACTORS
330
5A
102
}
330
5A
100
AcDbScale
 70
     0
300
1:20
140
1.0
141
20.0
290
     0
  0
SCALE
  5
63
102
{ACAD_REACTORS
330
5A
102
}
330
5A
100
AcDbScale
 70
     0
300
1:30
140
1.0
141
30.0
290
     0
  0
SCALE
  5
64
102
{ACAD_REACTORS
330
5A
102
}
330
5A
100
AcDbScale
 70
     0
300
1:40
140
1.0
141
40.0
290
     0
  0
SCALE
  5
65
102
{ACAD_REACTORS
330
5A
102
}
330
5A
100
AcDbScale
 70
     0
300
1:50
140
1.0
141
50.0
290
     0
  0
SCALE
  5
66
102
{ACAD_REACTORS
330
5A
102
}
330
5A
100
AcDbScale
 70
     0
300
1:100
140
1.0
141
100.0
290
     0
  0
SCALE
  5
67
102
{ACAD_REACTORS
330
5A
102
}
330
5A
100
AcDbScale
 70
     0
300
2:1
140
2.0
141
1.0
290
     0
  0
SCALE
  5
68
102
{ACAD_REACTORS
330
5A
102
}
330
5A
100
AcDbScale
 70
     0
300
4:1
140
4.0
141
1.0
290
     0
  0
SCALE
  5
69
102
{ACAD_REACTORS
330
5A
102
}
330
5A
100
AcDbScale
 70
     0
300
8:1
140
8.0
141
1.0
290
     0
  0
SCALE
  5
6A
102
{ACAD_REACTORS
330
5A
102
}
330
5A
100
AcDbScale
 70
     0
300
10:1
140
10.0
141
1.0
290
     0
  0
SCALE
  5
6B
102
{ACAD_REACTORS
330
5A
102
}
330
5A
100
AcDbScale
 70
     0
300
100:1
140
100.0
141
1.0
290
     0
  0
SCALE
  5
6C
102
{ACAD_REACTORS
330
5A
102
}
330
5A
100
AcDbScale
 70
     0
300
1/128" = 1'-0"
140
0.0078125
141
12.0
290
     0
  0
SCALE
  5
6D
102
{ACAD_REACTORS
330
5A
102
}
330
5A
100
AcDbScale
 70
     0
300
1/64" = 1'-0"
140
0.015625
141
12.0
290
     0
  0
SCALE
  5
6E
102
{ACAD_REACTORS
330
5A
102
}
330
5A
100
AcDbScale
 70
     0
300
1/32" = 1'-0"
140
0.03125
141
12.0
290
     0
  0
SCALE
  5
6F
102
{ACAD_REACTORS
330
5A
102
}
330
5A
100
AcDbScale
 70
     0
300
1/16" = 1'-0"
140
0.0625
141
12.0
290
     0
  0
SCALE
  5
70
102
{ACAD_REACTORS
330
5A
102
}
330
5A
100
AcDbScale
 70
     0
300
3/32" = 1'-0"
140
0.09375
141
12.0
290
     0
  0
SCALE
  5
71
102
{ACAD_REACTORS
330
5A
102
}
330
5A
100
AcDbScale
 70
     0
300
1/8" = 1'-0"
140
0.125
141
12.0
290
     0
  0
SCALE
  5
72
102
{ACAD_REACTORS
330
5A
102
}
330
5A
100
AcDbScale
 70
     0
300
3/16" = 1'-0"
140
0.1875
141
12.0
290
     0
  0
SCALE
  5
73
102
{ACAD_REACTORS
330
5A
102
}
330
5A
100
AcDbScale
 70
     0
300
1/4" = 1'-0"
140
0.25
141
12.0
290
     0
  0
SCALE
  5
74
102
{ACAD_REACTORS
330
5A
102
}
330
5A
100
AcDbScale
 70
     0
300
3/8" = 1'-0"
140
0.375
141
12.0
290
     0
  0
SCALE
  5
75
102
{ACAD_REACTORS
330
5A
102
}
330
5A
100
AcDbScale
 70
     0
300
1/2" = 1'-0"
140
0.5
141
12.0
290
     0
  0
SCALE
  5
76
102
{ACAD_REACTORS
330
5A
102
}
330
5A
100
AcDbScale
 70
     0
300
3/4" = 1'-0"
140
0.75
141
12.0
290
     0
  0
SCALE
  5
77
102
{ACAD_REACTORS
330
5A
102
}
330
5A
100
AcDbScale
 70
     0
300
1" = 1'-0"
140
1.0
141
12.0
290
     0
  0
SCALE
  5
78
102
{ACAD_REACTORS
330
5A
102
}
330
5A
100
AcDbScale
 70
     0
300
1-1/2" = 1'-0"
140
1.5
141
12.0
290
     0
  0
SCALE
  5
79
102
{ACAD_REACTORS
330
5A
102
}
330
5A
100
AcDbScale
 70
     0
300
3" = 1'-0"
140
3.0
141
12.0
290
     0
  0
SCALE
  5
7A
102
{ACAD_REACTORS
330
5A
102
}
330
5A
100
AcDbScale
 70
     0
300
6" = 1'-0"
140
6.0
141
12.0
290
     0
  0
SCALE
  5
7B
102
{ACAD_REACTORS
330
5A
102
}
330
5A
100
AcDbScale
 70
     0
300
1'-0" = 1'-0"
140
12.0
141
12.0
290
     0
  0
TABLESTYLE
  5
92
102
{ACAD_REACTORS
330
91
102
}
102
{ACAD_XDICTIONARY
360
94A
102
}
330
91
100
AcDbTableStyle
  3
Standard
 70
     0
 71
     0
 40
0.06
 41
0.06
280
     0
281
     0
  7
Standard
140
4.5
170
     2
 62
     0
 63
   257
283
     0
274
    -2
284
     1
 64
     0
275
    -2
285
     1
 65
     0
276
    -2
286
     1
 66
     0
277
    -2
287
     1
 67
     0
278
    -2
288
     1
 68
     0
279
    -2
289
     1
 69
     0
  7
Standard
140
6.0
170
     5
 62
     0
 63
   257
283
     0
274
    -2
284
     1
 64
     0
275
    -2
285
     1
 65
     0
276
    -2
286
     1
 66
     0
277
    -2
287
     1
 67
     0
278
    -2
288
     1
 68
     0
279
    -2
289
     1
 69
     0
  7
Standard
140
4.5
170
     5
 62
     0
 63
   257
283
     0
274
    -2
284
     1
 64
     0
275
    -2
285
     1
 65
     0
276
    -2
286
     1
 66
     0
277
    -2
287
     1
 67
     0
278
    -2
288
     1
 68
     0
279
    -2
289
     1
 69
     0
  0
DICTIONARYVAR
  5
AC
102
{ACAD_REACTORS
330
AB
102
}
330
AB
100
DictionaryVariables
280
     0
  1
1:1
  0
DICTIONARYVAR
  5
AD
102
{ACAD_REACTORS
330
AB
102
}
330
AB
100
DictionaryVariables
280
     0
  1
Standard
  0
DICTIONARY
  5
94A
330
92
100
AcDbDictionary
280
     1
281
     1
  3
ACAD_ROUNDTRIP_2008_TABLESTYLE_CELLSTYLEMAP
360
94C
  3
ACAD_XREC_ROUNDTRIP
360
94B
  0
CELLSTYLEMAP
  5
94C
102
{ACAD_REACTORS
330
94A
102
}
330
94A
100
AcDbCellStyleMap
 90
        3
300
CELLSTYLE
  1
TABLEFORMAT_BEGIN
 90
        5
170
     1
 91
        0
 92
        0
 62
   257
 93
        1
300
CONTENTFORMAT
  1
CONTENTFORMAT_BEGIN
 90
        0
 91
        0
 92
        4
 93
        0
300

 40
0.0
140
1.0
 94
        5
 62
     0
340
11
144
6.0
309
CONTENTFORMAT_END
171
     1
301
MARGIN
  1
CELLMARGIN_BEGIN
 40
1.5
 40
1.5
 40
1.5
 40
1.5
 40
1.5
 40
1.5
309
CELLMARGIN_END
 94
        6
 95
        1
302
GRIDFORMAT
  1
GRIDFORMAT_BEGIN
 90
        0
 91
        1
 62
     0
 92
       -2
340
14
 93
        0
 40
0.045
309
GRIDFORMAT_END
 95
        2
302
GRIDFORMAT
  1
GRIDFORMAT_BEGIN
 90
        0
 91
        1
 62
     0
 92
       -2
340
14
 93
        0
 40
0.045
309
GRIDFORMAT_END
 95
        4
302
GRIDFORMAT
  1
GRIDFORMAT_BEGIN
 90
        0
 91
        1
 62
     0
 92
       -2
340
14
 93
        0
 40
0.045
309
GRIDFORMAT_END
 95
        8
302
GRIDFORMAT
  1
GRIDFORMAT_BEGIN
 90
        0
 91
        1
 62
     0
 92
       -2
340
14
 93
        0
 40
0.045
309
GRIDFORMAT_END
 95
       16
302
GRIDFORMAT
  1
GRIDFORMAT_BEGIN
 90
        0
 91
        1
 62
     0
 92
       -2
340
14
 93
        0
 40
0.045
309
GRIDFORMAT_END
 95
       32
302
GRIDFORMAT
  1
GRIDFORMAT_BEGIN
 90
        0
 91
        1
 62
     0
 92
       -2
340
14
 93
        0
 40
0.045
309
GRIDFORMAT_END
309
TABLEFORMAT_END
  1
CELLSTYLE_BEGIN
 90
        1
 91
        1
300
_TITLE
309
CELLSTYLE_END
300
CELLSTYLE
  1
TABLEFORMAT_BEGIN
 90
        5
170
     1
 91
        0
 92
        0
 62
   257
 93
        1
300
CONTENTFORMAT
  1
CONTENTFORMAT_BEGIN
 90
        0
 91
        0
 92
        4
 93
        0
300

 40
0.0
140
1.0
 94
        5
 62
     0
340
11
144
4.5
309
CONTENTFORMAT_END
171
     1
301
MARGIN
  1
CELLMARGIN_BEGIN
 40
1.5
 40
1.5
 40
1.5
 40
1.5
 40
1.5
 40
1.5
309
CELLMARGIN_END
 94
        6
 95
        1
302
GRIDFORMAT
  1
GRIDFORMAT_BEGIN
 90
        0
 91
        1
 62
     0
 92
       -2
340
14
 93
        0
 40
0.045
309
GRIDFORMAT_END
 95
        2
302
GRIDFORMAT
  1
GRIDFORMAT_BEGIN
 90
        0
 91
        1
 62
     0
 92
       -2
340
14
 93
        0
 40
0.045
309
GRIDFORMAT_END
 95
        4
302
GRIDFORMAT
  1
GRIDFORMAT_BEGIN
 90
        0
 91
        1
 62
     0
 92
       -2
340
14
 93
        0
 40
0.045
309
GRIDFORMAT_END
 95
        8
302
GRIDFORMAT
  1
GRIDFORMAT_BEGIN
 90
        0
 91
        1
 62
     0
 92
       -2
340
14
 93
        0
 40
0.045
309
GRIDFORMAT_END
 95
       16
302
GRIDFORMAT
  1
GRIDFORMAT_BEGIN
 90
        0
 91
        1
 62
     0
 92
       -2
340
14
 93
        0
 40
0.045
309
GRIDFORMAT_END
 95
       32
302
GRIDFORMAT
  1
GRIDFORMAT_BEGIN
 90
        0
 91
        1
 62
     0
 92
       -2
340
14
 93
        0
 40
0.045
309
GRIDFORMAT_END
309
TABLEFORMAT_END
  1
CELLSTYLE_BEGIN
 90
        2
 91
        1
300
_HEADER
309
CELLSTYLE_END
300
CELLSTYLE
  1
TABLEFORMAT_BEGIN
 90
        5
170
     1
 91
        0
 92
        0
 62
   257
 93
        1
300
CONTENTFORMAT
  1
CONTENTFORMAT_BEGIN
 90
        0
 91
        0
 92
        4
 93
        0
300

 40
0.0
140
1.0
 94
        2
 62
     0
340
11
144
4.5
309
CONTENTFORMAT_END
171
     1
301
MARGIN
  1
CELLMARGIN_BEGIN
 40
1.5
 40
1.5
 40
1.5
 40
1.5
 40
1.5
 40
1.5
309
CELLMARGIN_END
 94
        6
 95
        1
302
GRIDFORMAT
  1
GRIDFORMAT_BEGIN
 90
        0
 91
        1
 62
     0
 92
       -2
340
14
 93
        0
 40
0.045
309
GRIDFORMAT_END
 95
        2
302
GRIDFORMAT
  1
GRIDFORMAT_BEGIN
 90
        0
 91
        1
 62
     0
 92
       -2
340
14
 93
        0
 40
0.045
309
GRIDFORMAT_END
 95
        4
302
GRIDFORMAT
  1
GRIDFORMAT_BEGIN
 90
        0
 91
        1
 62
     0
 92
       -2
340
14
 93
        0
 40
0.045
309
GRIDFORMAT_END
 95
        8
302
GRIDFORMAT
  1
GRIDFORMAT_BEGIN
 90
        0
 91
        1
 62
     0
 92
       -2
340
14
 93
        0
 40
0.045
309
GRIDFORMAT_END
 95
       16
302
GRIDFORMAT
  1
GRIDFORMAT_BEGIN
 90
        0
 91
        1
 62
     0
 92
       -2
340
14
 93
        0
 40
0.045
309
GRIDFORMAT_END
 95
       32
302
GRIDFORMAT
  1
GRIDFORMAT_BEGIN
 90
        0
 91
        1
 62
     0
 92
       -2
340
14
 93
        0
 40
0.045
309
GRIDFORMAT_END
309
TABLEFORMAT_END
  1
CELLSTYLE_BEGIN
 90
        3
 91
        2
300
_DATA
309
CELLSTYLE_END
  0
XRECORD
  5
94B
102
{ACAD_REACTORS
330
94A
102
}
330
94A
100
AcDbXrecord
280
     1
102
ACAD_ROUNDTRIP_PRE2007_TABLESTYLE
 90
        4
 91
        0
  1

 92
        4
 93
        0
  2

 94
        4
 95
        0
  3

  0
ENDSEC
  0
EOF
