  0
SECTION
  2
HEADER
  9
$ACADVER
  1
AC1009
  9
$DWGCODEPAGE
  3
ansi_1252
  9
$INSBASE
 10
0.0
 20
0.0
 30
0.0
  9
$EXTMIN
 10
-40.7030746820922
 20
-41.48515802924915
 30
0.0
  9
$EXTMAX
 10
40.7030746820922
 20
41.48515802924915
 30
0.0
  9
$LIMMIN
 10
0.0
 20
0.0
  9
$LIMMAX
 10
12.0
 20
9.0
  9
$ORTHOMODE
 70
     0
  9
$REGENMODE
 70
     1
  9
$FILLMODE
 70
     1
  9
$QTEXTMODE
 70
     0
  9
$MIRRTEXT
 70
     1
  9
$DRAGMODE
 70
     2
  9
$LTSCALE
 40
1.0
  9
$OSMODE
 70
    37
  9
$ATTMODE
 70
     1
  9
$TEXTSIZE
 40
0.2
  9
$TRACEWID
 40
0.05
  9
$TEXTSTYLE
  7
STANDARD
  9
$CLAYER
  8
0
  9
$CELTYPE
  6
BYLAYER
  9
$CECOLOR
 62
   256
  9
$DIMSCALE
 40
1.0
  9
$DIMASZ
 40
0.18
  9
$DIMEXO
 40
0.0625
  9
$DIMDLI
 40
0.38
  9
$DIMRND
 40
0.0
  9
$DIMDLE
 40
0.0
  9
$DIMEXE
 40
0.18
  9
$DIMTP
 40
0.0
  9
$DIMTM
 40
0.0
  9
$DIMTXT
 40
0.18
  9
$DIMCEN
 40
0.09
  9
$DIMTSZ
 40
0.0
  9
$DIMTOL
 70
     0
  9
$DIMLIM
 70
     0
  9
$DIMTIH
 70
     1
  9
$DIMTOH
 70
     1
  9
$DIMSE1
 70
     0
  9
$DIMSE2
 70
     0
  9
$DIMTAD
 70
     0
  9
$DIMZIN
 70
     0
  9
$DIMBLK
  1

  9
$DIMASO
 70
     1
  9
$DIMSHO
 70
     1
  9
$DIMPOST
  1

  9
$DIMAPOST
  1

  9
$DIMALT
 70
     0
  9
$DIMALTD
 70
     2
  9
$DIMALTF
 40
25.4
  9
$DIMLFAC
 40
1.0
  9
$DIMTOFL
 70
     0
  9
$DIMTVP
 40
0.0
  9
$DIMTIX
 70
     0
  9
$DIMSOXD
 70
     0
  9
$DIMSAH
 70
     0
  9
$DIMBLK1
  1

  9
$DIMBLK2
  1

  9
$DIMSTYLE
  2
STANDARD
  9
$DIMCLRD
 70
     0
  9
$DIMCLRE
 70
     0
  9
$DIMCLRT
 70
     0
  9
$DIMTFAC
 40
1.0
  9
$DIMGAP
 40
0.09
  9
$LUNITS
 70
     2
  9
$LUPREC
 70
     4
  9
$SKETCHINC
 40
0.1
  9
$FILLETRAD
 40
0.5
  9
$AUNITS
 70
     0
  9
$AUPREC
 70
     0
  9
$MENU
  1
.
  9
$ELEVATION
 40
0.0
  9
$PELEVATION
 40
0.0
  9
$THICKNESS
 40
0.0
  9
$LIMCHECK
 70
     0
  9
$CHAMFERA
 40
0.5
  9
$CHAMFERB
 40
0.5
  9
$SKPOLY
 70
     0
  9
$TDCREATE
 40
2454910.5
  9
$TDUPDATE
 40
2458806.955940938
  9
$TDINDWG
 40
0.0000000116
  9
$TDUSRTIMER
 40
0.0000000116
  9
$USRTIMER
 70
     1
  9
$ANGBASE
 50
0.0
  9
$ANGDIR
 70
     0
  9
$PDMODE
 70
     0
  9
$PDSIZE
 40
0.0
  9
$PLINEWID
 40
0.0
  9
$COORDS
 70
     1
  9
$SPLFRAME
 70
     0
  9
$SPLINETYPE
 70
     6
  9
$SPLINESEGS
 70
     8
  9
$ATTDIA
 70
     0
  9
$ATTREQ
 70
     1
  9
$HANDLING
 70
     1
  9
$HANDSEED
  5
AF
  9
$SURFTAB1
 70
     6
  9
$SURFTAB2
 70
     6
  9
$SURFTYPE
 70
     6
  9
$SURFU
 70
     6
  9
$SURFV
 70
     6
  9
$UCSNAME
  2

  9
$UCSORG
 10
0.0
 20
0.0
 30
0.0
  9
$UCSXDIR
 10
1.0
 20
0.0
 30
0.0
  9
$UCSYDIR
 10
0.0
 20
1.0
 30
0.0
  9
$PUCSNAME
  2

  9
$PUCSORG
 10
0.0
 20
0.0
 30
0.0
  9
$PUCSXDIR
 10
1.0
 20
0.0
 30
0.0
  9
$PUCSYDIR
 10
0.0
 20
1.0
 30
0.0
  9
$USERI1
 70
     0
  9
$USERI2
 70
     0
  9
$USERI3
 70
     0
  9
$USERI4
 70
     0
  9
$USERI5
 70
     0
  9
$USERR1
 40
0.0
  9
$USERR2
 40
0.0
  9
$USERR3
 40
0.0
  9
$USERR4
 40
0.0
  9
$USERR5
 40
0.0
  9
$WORLDVIEW
 70
     1
  9
$SHADEDGE
 70
     3
  9
$SHADEDIF
 70
    70
  9
$TILEMODE
 70
     1
  9
$MAXACTVP
 70
    64
  9
$PLIMCHECK
 70
     0
  9
$PEXTMIN
 10
1.000000000000000E+20
 20
1.000000000000000E+20
 30
1.000000000000000E+20
  9
$PEXTMAX
 10
-1.000000000000000E+20
 20
-1.000000000000000E+20
 30
-1.000000000000000E+20
  9
$PLIMMIN
 10
0.0
 20
0.0
  9
$PLIMMAX
 10
12.0
 20
9.0
  9
$UNITMODE
 70
     0
  9
$VISRETAIN
 70
     1
  9
$PLINEGEN
 70
     0
  9
$PSLTSCALE
 70
     1
  0
ENDSEC
  0
SECTION
  2
TABLES
  0
TABLE
  2
VPORT
 70
     1
  0
VPORT
  2
*ACTIVE
 70
     0
 10
0.0
 20
0.0
 11
1.0
 21
1.0
 12
10.42990654205607
 22
4.5
 13
0.0
 23
0.0
 14
0.5
 24
0.5
 15
0.5
 25
0.5
 16
0.0
 26
0.0
 36
1.0
 17
0.0
 27
0.0
 37
0.0
 40
9.0
 41
1.972972972850329
 42
50.0
 43
0.0
 44
0.0
 50
0.0
 51
0.0
 71
     0
 72
   100
 73
     1
 74
     3
 75
     0
 76
     0
 77
     0
 78
     0
  0
ENDTAB
  0
TABLE
  2
LTYPE
 70
     2
  0
LTYPE
  2
CONTINUOUS
 70
     0
  3
Solid line
 72
    65
 73
     0
 40
0.0
  0
LTYPE
  2
CONTINUOUS2
 70
     0
  3
Solid Line
 72
    65
 73
     0
 40
0.0
  0
ENDTAB
  0
TABLE
  2
LAYER
 70
     2
  0
LAYER
  2
0
 70
     0
 62
     7
  6
CONTINUOUS
  0
LAYER
  2
LAYER_1
 70
     0
 62
     5
  6
CONTINUOUS
  0
ENDTAB
  0
TABLE
  2
STYLE
 70
     1
  0
STYLE
  2
STANDARD
 70
     0
 40
0.0
 41
1.0
 50
0.0
 71
     0
 42
0.2
  3
txt
  4

  0
ENDTAB
  0
TABLE
  2
VIEW
 70
     0
  0
ENDTAB
  0
TABLE
  2
UCS
 70
     0
  0
ENDTAB
  0
TABLE
  2
APPID
 70
     1
  0
APPID
  2
ACAD
 70
     0
  0
ENDTAB
  0
TABLE
  2
DIMSTYLE
 70
     1
  0
DIMSTYLE
  2
STANDARD
 70
     0
  3

  4

  5

  6

  7

 40
1.0
 41
0.18
 42
0.0625
 43
0.38
 44
0.18
 45
0.0
 46
0.0
 47
0.0
 48
0.0
140
0.18
141
0.09
142
0.0
143
25.4
144
1.0
145
0.0
146
1.0
147
0.09
 71
     0
 72
     0
 73
     1
 74
     1
 75
     0
 76
     0
 77
     0
 78
     0
170
     0
171
     2
172
     0
173
     0
174
     0
175
     0
176
     0
177
     0
178
     0
  0
ENDTAB
  0
ENDSEC
  0
SECTION
  2
BLOCKS
  0
BLOCK
  8
0
  2
$MODEL_SPACE
 70
     0
 10
0.0
 20
0.0
 30
0.0
  3
$MODEL_SPACE
  1

  0
ENDBLK
  5
21
  8
0
  0
BLOCK
 67
     1
  8
0
  2
$PAPER_SPACE
 70
     0
 10
0.0
 20
0.0
 30
0.0
  3
$PAPER_SPACE
  1

  0
ENDBLK
  5
1D
 67
     1
  8
0
  0
ENDSEC
  0
SECTION
  2
ENTITIES
  0
POLYLINE
  5
41
  8
LAYER_1
 66
     1
 10
0.0
 20
0.0
 30
0.0
 70
     1
  0
VERTEX
  5
51
  8
LAYER_1
 10
-24.58076430855416
 20
-7.517577334367342
 30
0.0
  0
VERTEX
  5
52
  8
LAYER_1
 10
-23.63980556855264
 20
-8.458536074368858
 30
0.0
  0
VERTEX
  5
53
  8
LAYER_1
 10
-22.65922751318263
 20
-7.477958018998851
 30
0.0
  0
VERTEX
  5
54
  8
LAYER_1
 10
-23.60018625318415
 20
-6.536999278997333
 30
0.0
  0
SEQEND
  5
55
  8
LAYER_1
  0
POLYLINE
  5
42
  8
LAYER_1
 66
     1
 10
0.0
 20
0.0
 30
0.0
 70
     1
  0
VERTEX
  5
56
  8
LAYER_1
 10
23.2925452417178
 20
-7.517577334367342
 30
0.0
  0
VERTEX
  5
57
  8
LAYER_1
 10
24.23350398171932
 20
-8.458536074368858
 30
0.0
  0
VERTEX
  5
58
  8
LAYER_1
 10
25.21408203708932
 20
-7.477958018998851
 30
0.0
  0
VERTEX
  5
59
  8
LAYER_1
 10
24.2731232970878
 20
-6.536999278997333
 30
0.0
  0
SEQEND
  5
5A
  8
LAYER_1
  0
POLYLINE
  5
43
  8
LAYER_1
 66
     1
 10
0.0
 20
0.0
 30
0.0
 70
     1
  0
VERTEX
  5
5B
  8
LAYER_1
 10
0.3699468488557157
 20
21.61741410139509
 30
0.0
  0
VERTEX
  5
5C
  8
LAYER_1
 10
-3.448935520126905
 20
17.86060683531546
 30
0.0
  0
VERTEX
  5
5D
  8
LAYER_1
 10
-3.448935520126904
 20
14.71086221080894
 30
0.0
  0
VERTEX
  5
5E
  8
LAYER_1
 10
0.2779752095202386
 20
10.9839514811618
 30
0.0
  0
VERTEX
  5
5F
  8
LAYER_1
 10
3.459955724859703
 20
14.16593199650126
 30
0.0
  0
VERTEX
  5
60
  8
LAYER_1
 10
4.693341882811591
 20
13.13954562623555
 30
0.0
  0
VERTEX
  5
61
  8
LAYER_1
 10
1.157807976878853
 20
9.604011720302815
 30
0.0
  0
VERTEX
  5
62
  8
LAYER_1
 10
1.157807976878853
 20
5.604011720302815
 30
0.0
  0
VERTEX
  5
63
  8
LAYER_1
 10
1.423631591876099
 20
5.714486953457207
 30
0.0
  0
VERTEX
  5
64
  8
LAYER_1
 10
8.848252794334849
 20
13.13910815591596
 30
0.0
  0
VERTEX
  5
65
  8
LAYER_1
 10
5.742641366180866
 20
16.24471958406994
 30
0.0
  0
VERTEX
  5
66
  8
LAYER_1
 10
1.059160186784339
 20
16.24471958406994
 30
0.0
  0
VERTEX
  5
67
  8
LAYER_1
 10
0.2106320493604821
 20
15.55511724174265
 30
0.0
  0
VERTEX
  5
68
  8
LAYER_1
 10
-0.4257640537074108
 20
16.19151334481054
 30
0.0
  0
VERTEX
  5
69
  8
LAYER_1
 10
0.7763174743097201
 20
17.39359487282767
 30
0.0
  0
VERTEX
  5
6A
  8
LAYER_1
 10
4.593766077423136
 20
17.39359487282767
 30
0.0
  0
SEQEND
  5
6B
  8
LAYER_1
  0
POLYLINE
  5
44
  8
LAYER_1
 66
     1
 10
0.0
 20
0.0
 30
0.0
 70
     1
  0
VERTEX
  5
6C
  8
LAYER_1
 10
2.533931556160725
 20
2.837811955520676
 30
0.0
 42
0.4142135623730951
  0
VERTEX
  5
6D
  8
LAYER_1
 10
1.292323781968739
 20
1.59620418132869
 30
0.0
 42
0.4142135623730951
  0
VERTEX
  5
6E
  8
LAYER_1
 10
2.533931556160725
 20
0.3545964071367038
 30
0.0
 42
0.4142135623730951
  0
VERTEX
  5
6F
  8
LAYER_1
 10
3.775539330352712
 20
1.59620418132869
 30
0.0
 42
0.4142135623730951
  0
SEQEND
  5
70
  8
LAYER_1
  0
POLYLINE
  5
45
  8
LAYER_1
 66
     1
 10
0.0
 20
0.0
 30
0.0
 70
     1
  0
VERTEX
  5
71
  8
LAYER_1
 10
6.569156822284679
 20
6.873285918159415
 30
0.0
 42
0.4142135623730951
  0
VERTEX
  5
72
  8
LAYER_1
 10
5.223833037061911
 20
5.527962132936647
 30
0.0
 42
0.4142135623730951
  0
VERTEX
  5
73
  8
LAYER_1
 10
6.569156822284679
 20
4.182638347713879
 30
0.0
 42
0.4142135623730951
  0
VERTEX
  5
74
  8
LAYER_1
 10
7.914480607507447
 20
5.527962132936647
 30
0.0
 42
0.4142135623730951
  0
SEQEND
  5
75
  8
LAYER_1
  0
POLYLINE
  5
46
  8
LAYER_1
 66
     1
 10
0.0
 20
0.0
 30
0.0
 70
     1
  0
VERTEX
  5
76
  8
LAYER_1
 10
10.57851525977964
 20
10.96105149458729
 30
0.0
 42
0.4142135623730951
  0
VERTEX
  5
77
  8
LAYER_1
 10
9.309985307397943
 20
9.6925215422056
 30
0.0
 42
0.4142135623730951
  0
VERTEX
  5
78
  8
LAYER_1
 10
10.57851525977964
 20
8.423991589823906
 30
0.0
 42
0.4142135623730951
  0
VERTEX
  5
79
  8
LAYER_1
 10
11.84704521216133
 20
9.6925215422056
 30
0.0
 42
0.4142135623730951
  0
SEQEND
  5
7A
  8
LAYER_1
  0
POLYLINE
  5
47
  8
LAYER_1
 66
     1
 10
0.0
 20
0.0
 30
0.0
 70
     1
  0
VERTEX
  5
7B
  8
LAYER_1
 10
-40.7030746820922
 20
-41.48515802924915
 30
0.0
  0
VERTEX
  5
7C
  8
LAYER_1
 10
40.7030746820922
 20
-41.48515802924915
 30
0.0
  0
VERTEX
  5
7D
  8
LAYER_1
 10
40.7030746820922
 20
41.48515802924915
 30
0.0
  0
VERTEX
  5
7E
  8
LAYER_1
 10
-40.7030746820922
 20
41.48515802924915
 30
0.0
  0
SEQEND
  5
7F
  8
LAYER_1
  0
POLYLINE
  5
48
  8
LAYER_1
 66
     1
 10
0.0
 20
0.0
 30
0.0
 70
     1
  0
VERTEX
  5
80
  8
LAYER_1
 10
-9.779959259376223
 20
-12.53561918793428
 30
0.0
  0
VERTEX
  5
81
  8
LAYER_1
 10
-9.779959259376223
 20
11.59463357267718
 30
0.0
  0
VERTEX
  5
82
  8
LAYER_1
 10
-12.54458648197195
 20
8.848913043046345
 30
0.0
  0
VERTEX
  5
83
  8
LAYER_1
 10
-12.54458648197195
 20
-9.827685565836006
 30
0.0
  0
VERTEX
  5
84
  8
LAYER_1
 10
-14.36334786994841
 20
-9.827685565836006
 30
0.0
  0
VERTEX
  5
85
  8
LAYER_1
 10
-14.36334786994841
 20
7.042589774342467
 30
0.0
  0
VERTEX
  5
86
  8
LAYER_1
 10
-17.22169159378142
 20
4.203793650537746
 30
0.0
  0
VERTEX
  5
87
  8
LAYER_1
 10
-17.22169159378142
 20
-8.296206349462254
 30
0.0
  0
VERTEX
  5
88
  8
LAYER_1
 10
-23.58565262446035
 20
-1.932245318783324
 30
0.0
  0
VERTEX
  5
89
  8
LAYER_1
 10
-29.24250687395273
 20
-7.589099568275705
 30
0.0
  0
VERTEX
  5
8A
  8
LAYER_1
 10
-23.65610932140895
 20
-12.92902597021187
 30
0.0
  0
VERTEX
  5
8B
  8
LAYER_1
 10
-20.47412880606949
 20
-9.747045454872408
 30
0.0
  0
VERTEX
  5
8C
  8
LAYER_1
 10
-17.68555507300762
 20
-12.53561918793428
 30
0.0
  0
SEQEND
  5
8D
  8
LAYER_1
  0
POLYLINE
  5
49
  8
LAYER_1
 66
     1
 10
0.0
 20
0.0
 30
0.0
 70
     1
  0
VERTEX
  5
8E
  8
LAYER_1
 10
-8.01171902106579
 20
-12.53561918793428
 30
0.0
  0
VERTEX
  5
8F
  8
LAYER_1
 10
-8.011719021065792
 20
13.35078119502815
 30
0.0
  0
VERTEX
  5
90
  8
LAYER_1
 10
-5.118102461997318
 20
16.22460893070905
 30
0.0
  0
VERTEX
  5
91
  8
LAYER_1
 10
-5.200191939743618
 20
-12.53561918793427
 30
0.0
  0
SEQEND
  5
92
  8
LAYER_1
  0
POLYLINE
  5
4A
  8
LAYER_1
 66
     1
 10
0.0
 20
0.0
 30
0.0
 70
     1
  0
VERTEX
  5
93
  8
LAYER_1
 10
1.036843339159466
 20
-9.827685565836006
 30
0.0
  0
VERTEX
  5
94
  8
LAYER_1
 10
1.036843339159464
 20
-4.990206896509383
 30
0.0
  0
VERTEX
  5
95
  8
LAYER_1
 10
4.244330089155262
 20
-1.782720146513583
 30
0.0
  0
VERTEX
  5
96
  8
LAYER_1
 10
4.244330089155261
 20
-9.827685565836006
 30
0.0
  0
VERTEX
  5
97
  8
LAYER_1
 10
5.692872492379164
 20
-9.827685565836006
 30
0.0
  0
VERTEX
  5
98
  8
LAYER_1
 10
5.692872492379164
 20
-0.3341777432896827
 30
0.0
  0
VERTEX
  5
99
  8
LAYER_1
 10
8.79689192785896
 20
2.769841692190114
 30
0.0
  0
VERTEX
  5
9A
  8
LAYER_1
 10
8.79689192785896
 20
-9.827685565836006
 30
0.0
  0
VERTEX
  5
9B
  8
LAYER_1
 10
10.25371171624414
 20
-9.827685565836006
 30
0.0
  0
VERTEX
  5
9C
  8
LAYER_1
 10
10.25371171624414
 20
4.396835607560391
 30
0.0
  0
VERTEX
  5
9D
  8
LAYER_1
 10
13.38156824264395
 20
7.354518006975108
 30
0.0
  0
VERTEX
  5
9E
  8
LAYER_1
 10
13.38156824264395
 20
-12.53561918793427
 30
0.0
  0
VERTEX
  5
9F
  8
LAYER_1
 10
-3.448935520126904
 20
-12.53561918793427
 30
0.0
  0
VERTEX
  5
A0
  8
LAYER_1
 10
-3.448935520126904
 20
12.37525945113316
 30
0.0
  0
VERTEX
  5
A1
  8
LAYER_1
 10
-0.6630456843969448
 20
9.589369615403202
 30
0.0
  0
VERTEX
  5
A2
  8
LAYER_1
 10
-0.6630456843969448
 20
-9.827685565836006
 30
0.0
  0
SEQEND
  5
A3
  8
LAYER_1
  0
POLYLINE
  5
4B
  8
LAYER_1
 66
     1
 10
0.0
 20
0.0
 30
0.0
 70
     1
  0
VERTEX
  5
A4
  8
LAYER_1
 10
14.7222354620858
 20
-12.59218363612138
 30
0.0
  0
VERTEX
  5
A5
  8
LAYER_1
 10
18.24215411752612
 20
-12.53561918793427
 30
0.0
  0
VERTEX
  5
A6
  8
LAYER_1
 10
21.04410131242732
 20
-9.733671993033077
 30
0.0
  0
VERTEX
  5
A7
  8
LAYER_1
 10
24.44807384391558
 20
-12.73246381842352
 30
0.0
  0
VERTEX
  5
A8
  8
LAYER_1
 10
29.60995334657738
 20
-7.570584315761719
 30
0.0
  0
VERTEX
  5
A9
  8
LAYER_1
 10
24.27621328327793
 20
-2.15138025067205
 30
0.0
  0
VERTEX
  5
AA
  8
LAYER_1
 10
18.35066258683199
 20
-8.37717520905469
 30
0.0
  0
VERTEX
  5
AB
  8
LAYER_1
 10
17.55066258683199
 20
-8.37717520905469
 30
0.0
  0
VERTEX
  5
AC
  8
LAYER_1
 10
17.55066258683199
 20
4.522824790945311
 30
0.0
  0
VERTEX
  5
AD
  8
LAYER_1
 10
14.7222354620858
 20
7.351251915691503
 30
0.0
  0
SEQEND
  5
AE
  8
LAYER_1
  0
ENDSEC
  0
EOF
