  0
SECTION
  2
HEADER
  9
$ACADVER
  1
AC1009
  9
$DWGCODEPAGE
  3
ansi_1252
  9
$INSBASE
 10
0.0
 20
0.0
 30
0.0
  9
$EXTMIN
 10
-92.07499999999999
 20
-70.76831125200354
 30
0.0
  9
$EXTMAX
 10
86.36714842194752
 20
89.95833333333334
 30
0.0
  9
$LIMMIN
 10
0.0
 20
0.0
  9
$LIMMAX
 10
12.0
 20
9.0
  9
$ORTHOMODE
 70
     0
  9
$REGENMODE
 70
     1
  9
$FILLMODE
 70
     1
  9
$QTEXTMODE
 70
     0
  9
$MIRRTEXT
 70
     1
  9
$DRAGMODE
 70
     2
  9
$LTSCALE
 40
1.0
  9
$OSMODE
 70
    37
  9
$ATTMODE
 70
     1
  9
$TEXTSIZE
 40
0.2
  9
$TRACEWID
 40
0.05
  9
$TEXTSTYLE
  7
STANDARD
  9
$CLAYER
  8
0
  9
$CELTYPE
  6
BYLAYER
  9
$CECOLOR
 62
   256
  9
$DIMSCALE
 40
1.0
  9
$DIMASZ
 40
0.18
  9
$DIMEXO
 40
0.0625
  9
$DIMDLI
 40
0.38
  9
$DIMRND
 40
0.0
  9
$DIMDLE
 40
0.0
  9
$DIMEXE
 40
0.18
  9
$DIMTP
 40
0.0
  9
$DIMTM
 40
0.0
  9
$DIMTXT
 40
0.18
  9
$DIMCEN
 40
0.09
  9
$DIMTSZ
 40
0.0
  9
$DIMTOL
 70
     0
  9
$DIMLIM
 70
     0
  9
$DIMTIH
 70
     1
  9
$DIMTOH
 70
     1
  9
$DIMSE1
 70
     0
  9
$DIMSE2
 70
     0
  9
$DIMTAD
 70
     0
  9
$DIMZIN
 70
     0
  9
$DIMBLK
  1

  9
$DIMASO
 70
     1
  9
$DIMSHO
 70
     1
  9
$DIMPOST
  1

  9
$DIMAPOST
  1

  9
$DIMALT
 70
     0
  9
$DIMALTD
 70
     2
  9
$DIMALTF
 40
25.4
  9
$DIMLFAC
 40
1.0
  9
$DIMTOFL
 70
     0
  9
$DIMTVP
 40
0.0
  9
$DIMTIX
 70
     0
  9
$DIMSOXD
 70
     0
  9
$DIMSAH
 70
     0
  9
$DIMBLK1
  1

  9
$DIMBLK2
  1

  9
$DIMSTYLE
  2
STANDARD
  9
$DIMCLRD
 70
     0
  9
$DIMCLRE
 70
     0
  9
$DIMCLRT
 70
     0
  9
$DIMTFAC
 40
1.0
  9
$DIMGAP
 40
0.09
  9
$LUNITS
 70
     2
  9
$LUPREC
 70
     4
  9
$SKETCHINC
 40
0.1
  9
$FILLETRAD
 40
0.5
  9
$AUNITS
 70
     0
  9
$AUPREC
 70
     0
  9
$MENU
  1
.
  9
$ELEVATION
 40
0.0
  9
$PELEVATION
 40
0.0
  9
$THICKNESS
 40
0.0
  9
$LIMCHECK
 70
     0
  9
$CHAMFERA
 40
0.5
  9
$CHAMFERB
 40
0.5
  9
$SKPOLY
 70
     0
  9
$TDCREATE
 40
2454910.5
  9
$TDUPDATE
 40
2458806.523676412
  9
$TDINDWG
 40
0.0000000116
  9
$TDUSRTIMER
 40
0.0000000116
  9
$USRTIMER
 70
     1
  9
$ANGBASE
 50
0.0
  9
$ANGDIR
 70
     0
  9
$PDMODE
 70
     0
  9
$PDSIZE
 40
0.0
  9
$PLINEWID
 40
0.0
  9
$COORDS
 70
     1
  9
$SPLFRAME
 70
     0
  9
$SPLINETYPE
 70
     6
  9
$SPLINESEGS
 70
     8
  9
$ATTDIA
 70
     0
  9
$ATTREQ
 70
     1
  9
$HANDLING
 70
     1
  9
$HANDSEED
  5
D51
  9
$SURFTAB1
 70
     6
  9
$SURFTAB2
 70
     6
  9
$SURFTYPE
 70
     6
  9
$SURFU
 70
     6
  9
$SURFV
 70
     6
  9
$UCSNAME
  2

  9
$UCSORG
 10
0.0
 20
0.0
 30
0.0
  9
$UCSXDIR
 10
1.0
 20
0.0
 30
0.0
  9
$UCSYDIR
 10
0.0
 20
1.0
 30
0.0
  9
$PUCSNAME
  2

  9
$PUCSORG
 10
0.0
 20
0.0
 30
0.0
  9
$PUCSXDIR
 10
1.0
 20
0.0
 30
0.0
  9
$PUCSYDIR
 10
0.0
 20
1.0
 30
0.0
  9
$USERI1
 70
     0
  9
$USERI2
 70
     0
  9
$USERI3
 70
     0
  9
$USERI4
 70
     0
  9
$USERI5
 70
     0
  9
$USERR1
 40
0.0
  9
$USERR2
 40
0.0
  9
$USERR3
 40
0.0
  9
$USERR4
 40
0.0
  9
$USERR5
 40
0.0
  9
$WORLDVIEW
 70
     1
  9
$SHADEDGE
 70
     3
  9
$SHADEDIF
 70
    70
  9
$TILEMODE
 70
     1
  9
$MAXACTVP
 70
    64
  9
$PLIMCHECK
 70
     0
  9
$PEXTMIN
 10
1.000000000000000E+20
 20
1.000000000000000E+20
 30
1.000000000000000E+20
  9
$PEXTMAX
 10
-1.000000000000000E+20
 20
-1.000000000000000E+20
 30
-1.000000000000000E+20
  9
$PLIMMIN
 10
0.0
 20
0.0
  9
$PLIMMAX
 10
12.0
 20
9.0
  9
$UNITMODE
 70
     0
  9
$VISRETAIN
 70
     1
  9
$PLINEGEN
 70
     0
  9
$PSLTSCALE
 70
     1
  0
ENDSEC
  0
SECTION
  2
TABLES
  0
TABLE
  2
VPORT
 70
     1
  0
VPORT
  2
*ACTIVE
 70
     0
 10
0.0
 20
0.0
 11
1.0
 21
1.0
 12
10.42990654205607
 22
4.5
 13
0.0
 23
0.0
 14
0.5
 24
0.5
 15
0.5
 25
0.5
 16
0.0
 26
0.0
 36
1.0
 17
0.0
 27
0.0
 37
0.0
 40
9.0
 41
1.972972972850329
 42
50.0
 43
0.0
 44
0.0
 50
0.0
 51
0.0
 71
     0
 72
   100
 73
     1
 74
     3
 75
     0
 76
     0
 77
     0
 78
     0
  0
ENDTAB
  0
TABLE
  2
LTYPE
 70
     2
  0
LTYPE
  2
CONTINUOUS
 70
     0
  3
Solid line
 72
    65
 73
     0
 40
0.0
  0
LTYPE
  2
CONTINUOUS2
 70
     0
  3
Solid Line
 72
    65
 73
     0
 40
0.0
  0
ENDTAB
  0
TABLE
  2
LAYER
 70
     2
  0
LAYER
  2
0
 70
     0
 62
     7
  6
CONTINUOUS
  0
LAYER
  2
LAYER_1
 70
     0
 62
     1
  6
CONTINUOUS
  0
ENDTAB
  0
TABLE
  2
STYLE
 70
     1
  0
STYLE
  2
STANDARD
 70
     0
 40
0.0
 41
1.0
 50
0.0
 71
     0
 42
0.2
  3
txt
  4

  0
ENDTAB
  0
TABLE
  2
VIEW
 70
     0
  0
ENDTAB
  0
TABLE
  2
UCS
 70
     0
  0
ENDTAB
  0
TABLE
  2
APPID
 70
     1
  0
APPID
  2
ACAD
 70
     0
  0
ENDTAB
  0
TABLE
  2
DIMSTYLE
 70
     1
  0
DIMSTYLE
  2
STANDARD
 70
     0
  3

  4

  5

  6

  7

 40
1.0
 41
0.18
 42
0.0625
 43
0.38
 44
0.18
 45
0.0
 46
0.0
 47
0.0
 48
0.0
140
0.18
141
0.09
142
0.0
143
25.4
144
1.0
145
0.0
146
1.0
147
0.09
 71
     0
 72
     0
 73
     1
 74
     1
 75
     0
 76
     0
 77
     0
 78
     0
170
     0
171
     2
172
     0
173
     0
174
     0
175
     0
176
     0
177
     0
178
     0
  0
ENDTAB
  0
ENDSEC
  0
SECTION
  2
BLOCKS
  0
BLOCK
  8
0
  2
$MODEL_SPACE
 70
     0
 10
0.0
 20
0.0
 30
0.0
  3
$MODEL_SPACE
  1

  0
ENDBLK
  5
21
  8
0
  0
BLOCK
 67
     1
  8
0
  2
$PAPER_SPACE
 70
     0
 10
0.0
 20
0.0
 30
0.0
  3
$PAPER_SPACE
  1

  0
ENDBLK
  5
1D
 67
     1
  8
0
  0
ENDSEC
  0
SECTION
  2
ENTITIES
  0
POLYLINE
  5
41
  8
LAYER_1
 66
     1
 10
0.0
 20
0.0
 30
0.0
 70
     1
  0
VERTEX
  5
51
  8
LAYER_1
 10
61.73611111111111
 20
-5.644444444444446
 30
0.0
  0
VERTEX
  5
52
  8
LAYER_1
 10
62.08888888888887
 20
-5.644444444444446
 30
0.0
  0
VERTEX
  5
53
  8
LAYER_1
 10
62.08888888888887
 20
-4.938888888888883
 30
0.0
  0
VERTEX
  5
54
  8
LAYER_1
 10
61.73611111111111
 20
-4.938888888888883
 30
0.0
  0
SEQEND
  5
55
  8
LAYER_1
  0
POLYLINE
  5
42
  8
LAYER_1
 66
     1
 10
0.0
 20
0.0
 30
0.0
 70
     1
  0
VERTEX
  5
56
  8
LAYER_1
 10
49.38888888888889
 20
-4.938888888888883
 30
0.0
  0
VERTEX
  5
57
  8
LAYER_1
 10
50.09444444444443
 20
-4.938888888888883
 30
0.0
  0
VERTEX
  5
58
  8
LAYER_1
 10
50.09444444444443
 20
-4.586111111111109
 30
0.0
  0
VERTEX
  5
59
  8
LAYER_1
 10
49.38888888888889
 20
-4.586111111111109
 30
0.0
  0
SEQEND
  5
5A
  8
LAYER_1
  0
POLYLINE
  5
43
  8
LAYER_1
 66
     1
 10
0.0
 20
0.0
 30
0.0
 70
     1
  0
VERTEX
  5
5B
  8
LAYER_1
 10
-45.82204539139521
 20
-0.8515944502789239
 30
0.0
  0
VERTEX
  5
5C
  8
LAYER_1
 10
-45.15496070929822
 20
-0.8145987958617584
 30
0.0
  0
VERTEX
  5
5D
  8
LAYER_1
 10
-44.63554407454107
 20
-0.7659449573397614
 30
0.0
  0
VERTEX
  5
5E
  8
LAYER_1
 10
-44.42700428017542
 20
-0.7350677908898531
 30
0.0
  0
VERTEX
  5
5F
  8
LAYER_1
 10
-44.25033310395732
 20
-0.6986619646342191
 30
0.0
  0
VERTEX
  5
60
  8
LAYER_1
 10
-44.10384774799098
 20
-0.6558561073130205
 30
0.0
  0
VERTEX
  5
61
  8
LAYER_1
 10
-43.9858654143806
 20
-0.6057788476664179
 30
0.0
  0
VERTEX
  5
62
  8
LAYER_1
 10
-43.89470330523038
 20
-0.5475588144345721
 30
0.0
  0
VERTEX
  5
63
  8
LAYER_1
 10
-43.8286786226445
 20
-0.4803246363576439
 30
0.0
  0
VERTEX
  5
64
  8
LAYER_1
 10
-43.78610856872718
 20
-0.4032049421757941
 30
0.0
  0
VERTEX
  5
65
  8
LAYER_1
 10
-43.76531034558261
 20
-0.3153283606291835
 30
0.0
  0
VERTEX
  5
66
  8
LAYER_1
 10
-43.76460115531499
 20
-0.2158235204579728
 30
0.0
  0
VERTEX
  5
67
  8
LAYER_1
 10
-43.78229820002854
 20
-0.1038190504023229
 30
0.0
  0
VERTEX
  5
68
  8
LAYER_1
 10
-43.81671868182743
 20
0.0215564207976055
 30
0.0
  0
VERTEX
  5
69
  8
LAYER_1
 10
-43.86617980281588
 20
0.1611742644016516
 30
0.0
  0
VERTEX
  5
6A
  8
LAYER_1
 10
-43.89429238880921
 20
0.2187623432029728
 30
0.0
  0
VERTEX
  5
6B
  8
LAYER_1
 10
-43.93291034496183
 20
0.2733066137766494
 30
0.0
  0
VERTEX
  5
6C
  8
LAYER_1
 10
-43.98149049210009
 20
0.3247774657349472
 30
0.0
  0
VERTEX
  5
6D
  8
LAYER_1
 10
-44.03948965105033
 20
0.373145288690132
 30
0.0
  0
VERTEX
  5
6E
  8
LAYER_1
 10
-44.18157228769211
 20
0.4604534060402259
 30
0.0
  0
VERTEX
  5
6F
  8
LAYER_1
 10
-44.35481282149789
 20
0.5349940827250574
 30
0.0
  0
VERTEX
  5
70
  8
LAYER_1
 10
-44.5548658190784
 20
0.5965304356427532
 30
0.0
  0
VERTEX
  5
71
  8
LAYER_1
 10
-44.77738584704439
 20
0.6448255816914397
 30
0.0
  0
VERTEX
  5
72
  8
LAYER_1
 10
-45.01802747200658
 20
0.6796426377692432
 30
0.0
  0
VERTEX
  5
73
  8
LAYER_1
 10
-45.27244526057569
 20
0.7007447207742903
 30
0.0
  0
VERTEX
  5
74
  8
LAYER_1
 10
-45.53629377936247
 20
0.7078949476047074
 30
0.0
  0
VERTEX
  5
75
  8
LAYER_1
 10
-45.80522759497764
 20
0.7008564351586211
 30
0.0
  0
VERTEX
  5
76
  8
LAYER_1
 10
-46.07490127403192
 20
0.6793923003341578
 30
0.0
  0
VERTEX
  5
77
  8
LAYER_1
 10
-46.34096938313606
 20
0.6432656600294437
 30
0.0
  0
VERTEX
  5
78
  8
LAYER_1
 10
-46.59908648890078
 20
0.5922396311426057
 30
0.0
  0
VERTEX
  5
79
  8
LAYER_1
 10
-46.84490715793682
 20
0.52607733057177
 30
0.0
  0
VERTEX
  5
7A
  8
LAYER_1
 10
-47.07408595685489
 20
0.4445418752150631
 30
0.0
  0
VERTEX
  5
7B
  8
LAYER_1
 10
-47.28227745226575
 20
0.3473963819706114
 30
0.0
  0
VERTEX
  5
7C
  8
LAYER_1
 10
-47.48787569249718
 20
0.2254106748342864
 30
0.0
  0
VERTEX
  5
7D
  8
LAYER_1
 10
-47.64808886154694
 20
0.1049330123552844
 30
0.0
  0
VERTEX
  5
7E
  8
LAYER_1
 10
-47.76416053912435
 20
-0.0130155070323714
 30
0.0
  0
VERTEX
  5
7F
  8
LAYER_1
 10
-47.80603193727009
 20
-0.0707222448063124
 30
0.0
  0
VERTEX
  5
80
  8
LAYER_1
 10
-47.83733430493875
 20
-0.1274137848946582
 30
0.0
  0
VERTEX
  5
81
  8
LAYER_1
 10
-47.85822308959399
 20
-0.1829624899931559
 30
0.0
  0
VERTEX
  5
82
  8
LAYER_1
 10
-47.86885373869949
 20
-0.2372407227975527
 30
0.0
  0
VERTEX
  5
83
  8
LAYER_1
 10
-47.86938169971889
 20
-0.2901208460035958
 30
0.0
  0
VERTEX
  5
84
  8
LAYER_1
 10
-47.85996242011588
 20
-0.3414752223070321
 30
0.0
  0
VERTEX
  5
85
  8
LAYER_1
 10
-47.84075134735411
 20
-0.3911762144036089
 30
0.0
  0
VERTEX
  5
86
  8
LAYER_1
 10
-47.81190392889727
 20
-0.4390961849890733
 30
0.0
  0
VERTEX
  5
87
  8
LAYER_1
 10
-47.77357561220902
 20
-0.4851074967591723
 30
0.0
  0
VERTEX
  5
88
  8
LAYER_1
 10
-47.725921844753
 20
-0.5290825124096532
 30
0.0
  0
VERTEX
  5
89
  8
LAYER_1
 10
-47.60325974739241
 20
-0.6104131061347489
 30
0.0
  0
VERTEX
  5
8A
  8
LAYER_1
 10
-47.44516121652481
 20
-0.6820668677303372
 30
0.0
  0
VERTEX
  5
8B
  8
LAYER_1
 10
-47.25286983185956
 20
-0.7430226987623951
 30
0.0
  0
VERTEX
  5
8C
  8
LAYER_1
 10
-47.02762917310599
 20
-0.7922595007968998
 30
0.0
  0
VERTEX
  5
8D
  8
LAYER_1
 10
-46.77068281997343
 20
-0.828756175399828
 30
0.0
  0
VERTEX
  5
8E
  8
LAYER_1
 10
-46.48327435217123
 20
-0.8514916241371567
 30
0.0
  0
VERTEX
  5
8F
  8
LAYER_1
 10
-46.16664734940871
 20
-0.8594447485748631
 30
0.0
  0
SEQEND
  5
90
  8
LAYER_1
  0
POLYLINE
  5
44
  8
LAYER_1
 66
     1
 10
0.0
 20
0.0
 30
0.0
 70
     1
  0
VERTEX
  5
91
  8
LAYER_1
 10
-42.35629949224034
 20
-0.7055555555555486
 30
0.0
  0
VERTEX
  5
92
  8
LAYER_1
 10
-42.20178951901025
 20
-0.697128122778629
 30
0.0
  0
VERTEX
  5
93
  8
LAYER_1
 10
-42.04529141171926
 20
-0.6726805389474397
 30
0.0
  0
VERTEX
  5
94
  8
LAYER_1
 10
-41.88845495717305
 20
-0.6334648758113353
 30
0.0
  0
VERTEX
  5
95
  8
LAYER_1
 10
-41.73292994217735
 20
-0.5807332051196701
 30
0.0
  0
VERTEX
  5
96
  8
LAYER_1
 10
-41.58036615353785
 20
-0.5157375986217985
 30
0.0
  0
VERTEX
  5
97
  8
LAYER_1
 10
-41.43241337806025
 20
-0.4397301280670751
 30
0.0
  0
VERTEX
  5
98
  8
LAYER_1
 10
-41.29072140255028
 20
-0.3539628652048542
 30
0.0
  0
VERTEX
  5
99
  8
LAYER_1
 10
-41.15694001381361
 20
-0.2596878817844903
 30
0.0
  0
VERTEX
  5
9A
  8
LAYER_1
 10
-41.03271899865597
 20
-0.1581572495553378
 30
0.0
  0
VERTEX
  5
9B
  8
LAYER_1
 10
-40.91970814388306
 20
-0.0506230402667511
 30
0.0
  0
VERTEX
  5
9C
  8
LAYER_1
 10
-40.81955723630058
 20
0.0616626743319153
 30
0.0
  0
VERTEX
  5
9D
  8
LAYER_1
 10
-40.73391606271426
 20
0.177447822491307
 30
0.0
  0
VERTEX
  5
9E
  8
LAYER_1
 10
-40.66443440992977
 20
0.2954803324620695
 30
0.0
  0
VERTEX
  5
9F
  8
LAYER_1
 10
-40.61276206475284
 20
0.4145081324948485
 30
0.0
  0
VERTEX
  5
A0
  8
LAYER_1
 10
-40.58054881398915
 20
0.5332791508402894
 30
0.0
  0
VERTEX
  5
A1
  8
LAYER_1
 10
-40.56944444444444
 20
0.6505413157490381
 30
0.0
  0
VERTEX
  5
A2
  8
LAYER_1
 10
-40.58007135839316
 20
0.8369646925022817
 30
0.0
  0
VERTEX
  5
A3
  8
LAYER_1
 10
-40.61057676708694
 20
1.023049811234944
 30
0.0
  0
VERTEX
  5
A4
  8
LAYER_1
 10
-40.6588976707972
 20
1.206421464886302
 30
0.0
  0
VERTEX
  5
A5
  8
LAYER_1
 10
-40.72297106979535
 20
1.38470444639563
 30
0.0
  0
VERTEX
  5
A6
  8
LAYER_1
 10
-40.80073396435284
 20
1.555523548702205
 30
0.0
  0
VERTEX
  5
A7
  8
LAYER_1
 10
-40.89012335474108
 20
1.716503564745303
 30
0.0
  0
VERTEX
  5
A8
  8
LAYER_1
 10
-40.98907624123149
 20
1.865269287464198
 30
0.0
  0
VERTEX
  5
A9
  8
LAYER_1
 10
-41.0955296240955
 20
1.999445509798168
 30
0.0
  0
VERTEX
  5
AA
  8
LAYER_1
 10
-41.20742050360452
 20
2.116657024686488
 30
0.0
  0
VERTEX
  5
AB
  8
LAYER_1
 10
-41.32268588002999
 20
2.214528625068433
 30
0.0
  0
VERTEX
  5
AC
  8
LAYER_1
 10
-41.43926275364334
 20
2.290685103883279
 30
0.0
  0
VERTEX
  5
AD
  8
LAYER_1
 10
-41.55508812471597
 20
2.342751254070303
 30
0.0
  0
VERTEX
  5
AE
  8
LAYER_1
 10
-41.66809899351932
 20
2.36835186856878
 30
0.0
  0
VERTEX
  5
AF
  8
LAYER_1
 10
-41.72290430215483
 20
2.370485347728337
 30
0.0
  0
VERTEX
  5
B0
  8
LAYER_1
 10
-41.7762323603248
 20
2.365111740317986
 30
0.0
  0
VERTEX
  5
B1
  8
LAYER_1
 10
-41.82782529306316
 20
2.351934145455136
 30
0.0
  0
VERTEX
  5
B2
  8
LAYER_1
 10
-41.87742522540384
 20
2.330655662257197
 30
0.0
  0
VERTEX
  5
B3
  8
LAYER_1
 10
-41.92477428238077
 20
2.300979389841578
 30
0.0
  0
VERTEX
  5
B4
  8
LAYER_1
 10
-41.96961458902788
 20
2.262608427325688
 30
0.0
  0
VERTEX
  5
B5
  8
LAYER_1
 10
-42.07683828024383
 20
2.133570277635457
 30
0.0
  0
VERTEX
  5
B6
  8
LAYER_1
 10
-42.17672297396277
 20
1.968332013321556
 30
0.0
  0
VERTEX
  5
B7
  8
LAYER_1
 10
-42.26846828722645
 20
1.773037313253633
 30
0.0
  0
VERTEX
  5
B8
  8
LAYER_1
 10
-42.35127383707668
 20
1.553829856301338
 30
0.0
  0
VERTEX
  5
B9
  8
LAYER_1
 10
-42.42433924055523
 20
1.316853321334316
 30
0.0
  0
VERTEX
  5
BA
  8
LAYER_1
 10
-42.48686411470389
 20
1.068251387222216
 30
0.0
  0
VERTEX
  5
BB
  8
LAYER_1
 10
-42.53804807656446
 20
0.8141677328346866
 30
0.0
  0
VERTEX
  5
BC
  8
LAYER_1
 10
-42.57709074317874
 20
0.5607460370413744
 30
0.0
  0
VERTEX
  5
BD
  8
LAYER_1
 10
-42.6031917315885
 20
0.3141299787119278
 30
0.0
  0
VERTEX
  5
BE
  8
LAYER_1
 10
-42.61555065883551
 20
0.0804632367159944
 30
0.0
  0
VERTEX
  5
BF
  8
LAYER_1
 10
-42.61336714196159
 20
-0.1341105100767778
 30
0.0
  0
VERTEX
  5
C0
  8
LAYER_1
 10
-42.5958407980085
 20
-0.3234475827967411
 30
0.0
  0
VERTEX
  5
C1
  8
LAYER_1
 10
-42.56217124401804
 20
-0.4814043025742477
 30
0.0
  0
VERTEX
  5
C2
  8
LAYER_1
 10
-42.53903264358436
 20
-0.5466951304628147
 30
0.0
  0
VERTEX
  5
C3
  8
LAYER_1
 10
-42.51155809703201
 20
-0.6018369905396497
 30
0.0
  0
VERTEX
  5
C4
  8
LAYER_1
 10
-42.4796475564912
 20
-0.6460619229460465
 30
0.0
  0
VERTEX
  5
C5
  8
LAYER_1
 10
-42.44320097409218
 20
-0.6786019678232992
 30
0.0
  0
VERTEX
  5
C6
  8
LAYER_1
 10
-42.40211830196515
 20
-0.6986891653127019
 30
0.0
  0
SEQEND
  5
C7
  8
LAYER_1
  0
POLYLINE
  5
45
  8
LAYER_1
 66
     1
 10
0.0
 20
0.0
 30
0.0
 70
     1
  0
VERTEX
  5
C8
  8
LAYER_1
 10
64.35532626046327
 20
4.67085457459799
 30
0.0
  0
VERTEX
  5
C9
  8
LAYER_1
 10
51.65471340362449
 20
9.637285671365902
 30
0.0
  0
VERTEX
  5
CA
  8
LAYER_1
 10
47.10295990331524
 20
-3.514784178888378
 30
0.0
  0
VERTEX
  5
CB
  8
LAYER_1
 10
59.32503643051753
 20
-9.916824264565765
 30
0.0
  0
VERTEX
  5
CC
  8
LAYER_1
 10
66.47074783927866
 20
1.270579117476538
 30
0.0
  0
VERTEX
  5
CD
  8
LAYER_1
 10
76.75281221930595
 20
-4.420123180903362
 30
0.0
  0
VERTEX
  5
CE
  8
LAYER_1
 10
83.30969962870967
 20
8.670033000435213
 30
0.0
  0
VERTEX
  5
CF
  8
LAYER_1
 10
69.24461156169119
 20
14.8134047998226
 30
0.0
  0
SEQEND
  5
D0
  8
LAYER_1
  0
POLYLINE
  5
46
  8
LAYER_1
 66
     1
 10
0.0
 20
0.0
 30
0.0
 70
     1
  0
VERTEX
  5
D1
  8
LAYER_1
 10
62.53234566577078
 20
13.69137387704989
 30
0.0
  0
VERTEX
  5
D2
  8
LAYER_1
 10
50.69018818405694
 20
20.9260025092232
 30
0.0
  0
VERTEX
  5
D3
  8
LAYER_1
 10
59.17774132794742
 20
35.15275825517293
 30
0.0
  0
VERTEX
  5
D4
  8
LAYER_1
 10
70.57531269260033
 20
26.22061899422152
 30
0.0
  0
SEQEND
  5
D5
  8
LAYER_1
  0
POLYLINE
  5
47
  8
LAYER_1
 66
     1
 10
0.0
 20
0.0
 30
0.0
 70
     1
  0
VERTEX
  5
D6
  8
LAYER_1
 10
1.472259097260931
 20
-43.14788495768772
 30
0.0
 42
0.2357744243413454
  0
VERTEX
  5
D7
  8
LAYER_1
 10
1.849914795244311
 20
-37.76370457856163
 30
0.0
 42
0.0433925049309675
  0
VERTEX
  5
D8
  8
LAYER_1
 10
6.692185114592883
 20
-34.53552436566258
 30
0.0
  0
VERTEX
  5
D9
  8
LAYER_1
 10
6.830158124661105
 20
-34.78789968917738
 30
0.0
  0
VERTEX
  5
DA
  8
LAYER_1
 10
6.958572594334692
 20
-35.0435957709602
 30
0.0
  0
VERTEX
  5
DB
  8
LAYER_1
 10
7.077445447626414
 20
-35.30236740477441
 30
0.0
  0
VERTEX
  5
DC
  8
LAYER_1
 10
7.186793608549046
 20
-35.56396938438336
 30
0.0
  0
VERTEX
  5
DD
  8
LAYER_1
 10
7.286634001115361
 20
-35.82815650355042
 30
0.0
  0
VERTEX
  5
DE
  8
LAYER_1
 10
7.376983549338131
 20
-36.09468355603894
 30
0.0
  0
VERTEX
  5
DF
  8
LAYER_1
 10
7.457859177230131
 20
-36.36330533561227
 30
0.0
  0
VERTEX
  5
E0
  8
LAYER_1
 10
7.529277808804132
 20
-36.63377663603379
 30
0.0
  0
VERTEX
  5
E1
  8
LAYER_1
 10
7.591256368072908
 20
-36.90585225106683
 30
0.0
  0
VERTEX
  5
E2
  8
LAYER_1
 10
7.643811779049233
 20
-37.17928697447476
 30
0.0
  0
VERTEX
  5
E3
  8
LAYER_1
 10
7.686960965745879
 20
-37.45383560002094
 30
0.0
  0
VERTEX
  5
E4
  8
LAYER_1
 10
7.720720852175619
 20
-37.72925292146873
 30
0.0
  0
VERTEX
  5
E5
  8
LAYER_1
 10
7.745108362351226
 20
-38.00529373258148
 30
0.0
  0
VERTEX
  5
E6
  8
LAYER_1
 10
7.760140420285476
 20
-38.28171282712253
 30
0.0
  0
VERTEX
  5
E7
  8
LAYER_1
 10
7.765833949991139
 20
-38.55826499885528
 30
0.0
  0
VERTEX
  5
E8
  8
LAYER_1
 10
7.762205875480988
 20
-38.83470504154306
 30
0.0
  0
VERTEX
  5
E9
  8
LAYER_1
 10
7.749273120767796
 20
-39.11078774894924
 30
0.0
  0
VERTEX
  5
EA
  8
LAYER_1
 10
7.727052609864339
 20
-39.38626791483715
 30
0.0
  0
VERTEX
  5
EB
  8
LAYER_1
 10
7.695561266783388
 20
-39.66090033297018
 30
0.0
  0
VERTEX
  5
EC
  8
LAYER_1
 10
7.654816015537717
 20
-39.93443979711166
 30
0.0
  0
VERTEX
  5
ED
  8
LAYER_1
 10
7.604833780140098
 20
-40.20664110102498
 30
0.0
  0
VERTEX
  5
EE
  8
LAYER_1
 10
7.545631484603306
 20
-40.47725903847347
 30
0.0
  0
VERTEX
  5
EF
  8
LAYER_1
 10
7.477226052940113
 20
-40.7460484032205
 30
0.0
  0
VERTEX
  5
F0
  8
LAYER_1
 10
7.399634409163291
 20
-41.01276398902942
 30
0.0
  0
VERTEX
  5
F1
  8
LAYER_1
 10
7.312873477285613
 20
-41.2771605896636
 30
0.0
  0
VERTEX
  5
F2
  8
LAYER_1
 10
7.216960181319855
 20
-41.53899299888639
 30
0.0
  0
VERTEX
  5
F3
  8
LAYER_1
 10
7.111911445278788
 20
-41.79801601046114
 30
0.0
  0
VERTEX
  5
F4
  8
LAYER_1
 10
6.997744193175185
 20
-42.05398441815121
 30
0.0
  0
VERTEX
  5
F5
  8
LAYER_1
 10
6.87447534902182
 20
-42.30665301571997
 30
0.0
  0
VERTEX
  5
F6
  8
LAYER_1
 10
6.742121836831465
 20
-42.55577659693076
 30
0.0
  0
VERTEX
  5
F7
  8
LAYER_1
 10
6.600700580616895
 20
-42.80110995554695
 30
0.0
  0
VERTEX
  5
F8
  8
LAYER_1
 10
6.45022850439088
 20
-43.0424078853319
 30
0.0
  0
VERTEX
  5
F9
  8
LAYER_1
 10
6.245971924832634
 20
-43.33680786189058
 30
0.0
  0
VERTEX
  5
FA
  8
LAYER_1
 10
6.024997352409015
 20
-43.61900932849625
 30
0.0
  0
VERTEX
  5
FB
  8
LAYER_1
 10
5.78988320951453
 20
-43.89051989195685
 30
0.0
  0
VERTEX
  5
FC
  8
LAYER_1
 10
5.543207918543684
 20
-44.1528471590803
 30
0.0
  0
VERTEX
  5
FD
  8
LAYER_1
 10
5.287549901890985
 20
-44.40749873667452
 30
0.0
  0
VERTEX
  5
FE
  8
LAYER_1
 10
5.025487581950936
 20
-44.65598223154743
 30
0.0
  0
VERTEX
  5
FF
  8
LAYER_1
 10
4.49246372178682
 20
-45.14047540036102
 30
0.0
  0
VERTEX
  5
100
  8
LAYER_1
 10
0.7840909873982491
 20
-48.45985684477578
 30
0.0
  0
VERTEX
  5
101
  8
LAYER_1
 10
-2.933508184264286
 20
-51.76890058690228
 30
0.0
  0
VERTEX
  5
102
  8
LAYER_1
 10
-2.190323664132389
 20
-51.61390012854952
 30
0.0
  0
VERTEX
  5
103
  8
LAYER_1
 10
-1.453424491971137
 20
-51.44105911732302
 30
0.0
  0
VERTEX
  5
104
  8
LAYER_1
 10
-0.7244975322469379
 20
-51.24718467390171
 30
0.0
  0
VERTEX
  5
105
  8
LAYER_1
 10
-0.005229649426196
 20
-51.02908391896447
 30
0.0
  0
VERTEX
  5
106
  8
LAYER_1
 10
0.3502549929996265
 20
-50.90995089988957
 30
0.0
  0
VERTEX
  5
107
  8
LAYER_1
 10
0.7026922920246825
 20
-50.78356397319027
 30
0.0
  0
VERTEX
  5
108
  8
LAYER_1
 10
1.051871389590671
 20
-50.64952402895145
 30
0.0
  0
VERTEX
  5
109
  8
LAYER_1
 10
1.397581427639292
 20
-50.50743195725798
 30
0.0
  0
VERTEX
  5
10A
  8
LAYER_1
 10
1.739611548112244
 20
-50.35688864819473
 30
0.0
  0
VERTEX
  5
10B
  8
LAYER_1
 10
2.077750892951226
 20
-50.19749499184655
 30
0.0
  0
VERTEX
  5
10C
  8
LAYER_1
 10
2.411788604097938
 20
-50.02885187829831
 30
0.0
  0
VERTEX
  5
10D
  8
LAYER_1
 10
2.741513823494079
 20
-49.85056019763488
 30
0.0
  0
VERTEX
  5
10E
  8
LAYER_1
 10
3.056268020255043
 20
-49.68320475818224
 30
0.0
  0
VERTEX
  5
10F
  8
LAYER_1
 10
3.4035165430325
 20
-49.51503541885944
 30
0.0
  0
VERTEX
  5
110
  8
LAYER_1
 10
3.771921478973018
 20
-49.35216074686544
 30
0.0
  0
VERTEX
  5
111
  8
LAYER_1
 10
4.150144915223166
 20
-49.20068930939919
 30
0.0
  0
VERTEX
  5
112
  8
LAYER_1
 10
5.049369246317505
 20
-48.83872063846742
 30
0.0
  0
VERTEX
  5
113
  8
LAYER_1
 10
6.262724860513476
 20
-48.32110332644127
 30
0.0
  0
VERTEX
  5
114
  8
LAYER_1
 10
7.631212606591834
 20
-47.71692176163035
 30
0.0
  0
VERTEX
  5
115
  8
LAYER_1
 10
8.995833333333337
 20
-47.09526033234427
 30
0.0
  0
VERTEX
  5
116
  8
LAYER_1
 10
12.17083333333333
 20
-45.62284037576946
 30
0.0
  0
VERTEX
  5
117
  8
LAYER_1
 10
14.36704415227946
 20
-43.76321451483275
 30
0.0
  0
VERTEX
  5
118
  8
LAYER_1
 10
13.84253113782587
 20
-36.84221589118003
 30
0.0
  0
VERTEX
  5
119
  8
LAYER_1
 10
13.80416204512469
 20
-36.43685678413758
 30
0.0
  0
VERTEX
  5
11A
  8
LAYER_1
 10
13.7531588968917
 20
-36.03285674146559
 30
0.0
  0
VERTEX
  5
11B
  8
LAYER_1
 10
13.62848532229602
 20
-35.22726312276895
 30
0.0
  0
VERTEX
  5
11C
  8
LAYER_1
 10
13.4989801909702
 20
-34.42209358216212
 30
0.0
  0
VERTEX
  5
11D
  8
LAYER_1
 10
13.44193759682455
 20
-34.0186236371024
 30
0.0
  0
VERTEX
  5
11E
  8
LAYER_1
 10
13.39511327984563
 20
-33.61400666671715
 30
0.0
  0
VERTEX
  5
11F
  8
LAYER_1
 10
12.87469787512708
 20
-28.39861111111111
 30
0.0
  0
VERTEX
  5
120
  8
LAYER_1
 10
12.76474019005543
 20
-27.22288614908854
 30
0.0
  0
VERTEX
  5
121
  8
LAYER_1
 10
12.64763228124783
 20
-25.77110568576389
 30
0.0
  0
VERTEX
  5
122
  8
LAYER_1
 10
12.52697599474127
 20
-24.10042385525173
 30
0.0
  0
VERTEX
  5
123
  8
LAYER_1
 10
12.40637317657271
 20
-22.26799479166666
 30
0.0
  0
VERTEX
  5
124
  8
LAYER_1
 10
12.28942567277913
 20
-20.33097262912326
 30
0.0
  0
VERTEX
  5
125
  8
LAYER_1
 10
12.17973532939749
 20
-18.34651150173611
 30
0.0
  0
VERTEX
  5
126
  8
LAYER_1
 10
12.08090399246477
 20
-16.37176554361979
 30
0.0
  0
VERTEX
  5
127
  8
LAYER_1
 10
11.99653350801795
 20
-14.46388888888889
 30
0.0
  0
VERTEX
  5
128
  8
LAYER_1
 10
11.62834226991745
 20
-5.468055555555551
 30
0.0
  0
VERTEX
  5
129
  8
LAYER_1
 10
10.57183077294388
 20
7.584722222222226
 30
0.0
  0
VERTEX
  5
12A
  8
LAYER_1
 10
10.37646743334599
 20
10.05416666666667
 30
0.0
  0
VERTEX
  5
12B
  8
LAYER_1
 10
10.27694698869158
 20
11.21063142764044
 30
0.0
  0
VERTEX
  5
12C
  8
LAYER_1
 10
10.1473956255068
 20
12.57127615211982
 30
0.0
  0
VERTEX
  5
12D
  8
LAYER_1
 10
10.00404995168371
 20
13.97223777706177
 30
0.0
  0
VERTEX
  5
12E
  8
LAYER_1
 10
9.863146575114362
 20
15.24965323942325
 30
0.0
  0
VERTEX
  5
12F
  8
LAYER_1
 10
9.50169322385349
 20
18.47508537388651
 30
0.0
  0
VERTEX
  5
130
  8
LAYER_1
 10
9.15935450511966
 20
21.70289037176908
 30
0.0
  0
VERTEX
  5
131
  8
LAYER_1
 10
8.510033577174967
 20
28.16196154731587
 30
0.0
  0
VERTEX
  5
132
  8
LAYER_1
 10
8.31101736017716
 20
30.24353285299228
 30
0.0
  0
VERTEX
  5
133
  8
LAYER_1
 10
8.092480813795689
 20
32.63194444444446
 30
0.0
  0
VERTEX
  5
134
  8
LAYER_1
 10
7.990554606818835
 20
33.69763596921646
 30
0.0
  0
VERTEX
  5
135
  8
LAYER_1
 10
7.871055635235798
 20
34.83245802741021
 30
0.0
  0
VERTEX
  5
136
  8
LAYER_1
 10
7.735363990222073
 20
36.02705634210851
 30
0.0
  0
VERTEX
  5
137
  8
LAYER_1
 10
7.584859762953156
 20
37.27207663639417
 30
0.0
  0
VERTEX
  5
138
  8
LAYER_1
 10
7.420923044604539
 20
38.55816463334999
 30
0.0
  0
VERTEX
  5
139
  8
LAYER_1
 10
7.244933926351719
 20
39.87596605605878
 30
0.0
  0
VERTEX
  5
13A
  8
LAYER_1
 10
6.862318854835449
 20
42.56929207106651
 30
0.0
  0
VERTEX
  5
13B
  8
LAYER_1
 10
6.448055277808304
 20
45.27722046607981
 30
0.0
  0
VERTEX
  5
13C
  8
LAYER_1
 10
6.232505527666891
 20
46.61327486379557
 30
0.0
  0
VERTEX
  5
13D
  8
LAYER_1
 10
6.013183924674244
 20
47.92491702576115
 30
0.0
  0
VERTEX
  5
13E
  8
LAYER_1
 10
5.791470560005859
 20
49.20279267505935
 30
0.0
  0
VERTEX
  5
13F
  8
LAYER_1
 10
5.56874552483723
 20
50.43754753477299
 30
0.0
  0
VERTEX
  5
140
  8
LAYER_1
 10
5.346388910343851
 20
51.61982732798486
 30
0.0
  0
VERTEX
  5
141
  8
LAYER_1
 10
5.125780807701219
 20
52.74027777777778
 30
0.0
  0
VERTEX
  5
142
  8
LAYER_1
 10
3.673552008977367
 20
59.44305555555556
 30
0.0
  0
VERTEX
  5
143
  8
LAYER_1
 10
3.443957132461489
 20
60.33450846354167
 30
0.0
  0
VERTEX
  5
144
  8
LAYER_1
 10
3.208106175909336
 20
61.19702256944444
 30
0.0
  0
VERTEX
  5
145
  8
LAYER_1
 10
2.993725984226856
 20
61.93220594618056
 30
0.0
  0
VERTEX
  5
146
  8
LAYER_1
 10
2.828543402319994
 20
62.44166666666666
 30
0.0
  0
VERTEX
  5
147
  8
LAYER_1
 10
2.615977501354567
 20
63.07639105902777
 30
0.0
  0
VERTEX
  5
148
  8
LAYER_1
 10
2.272583322136407
 20
64.15263888888889
 30
0.0
  0
VERTEX
  5
149
  8
LAYER_1
 10
1.383033326405666
 20
67.02777777777777
 30
0.0
  0
VERTEX
  5
14A
  8
LAYER_1
 10
0.7176962641187472
 20
69.21436748862503
 30
0.0
  0
VERTEX
  5
14B
  8
LAYER_1
 10
0.6454881425096872
 20
69.4889992984189
 30
0.0
  0
VERTEX
  5
14C
  8
LAYER_1
 10
0.5673268219806333
 20
69.75450260812988
 30
0.0
  0
VERTEX
  5
14D
  8
LAYER_1
 10
0.483451332862593
 20
70.01088868453292
 30
0.0
  0
VERTEX
  5
14E
  8
LAYER_1
 10
0.3941007054865736
 20
70.2581687944029
 30
0.0
  0
VERTEX
  5
14F
  8
LAYER_1
 10
0.2995139701835823
 20
70.4963542045148
 30
0.0
  0
VERTEX
  5
150
  8
LAYER_1
 10
0.1999301572846266
 20
70.72545618164355
 30
0.0
  0
VERTEX
  5
151
  8
LAYER_1
 10
0.0955882971207137
 20
70.94548599256406
 30
0.0
  0
VERTEX
  5
152
  8
LAYER_1
 10
-0.0132725799771492
 20
71.15645490405129
 30
0.0
  0
VERTEX
  5
153
  8
LAYER_1
 10
-0.1264134436779546
 20
71.35837418288014
 30
0.0
  0
VERTEX
  5
154
  8
LAYER_1
 10
-0.2435952636506953
 20
71.55125509582557
 30
0.0
  0
VERTEX
  5
155
  8
LAYER_1
 10
-0.364579009564364
 20
71.7351089096625
 30
0.0
  0
VERTEX
  5
156
  8
LAYER_1
 10
-0.4891256510879534
 20
71.90994689116587
 30
0.0
  0
VERTEX
  5
157
  8
LAYER_1
 10
-0.6169961578904561
 20
72.07578030711062
 30
0.0
  0
VERTEX
  5
158
  8
LAYER_1
 10
-0.7479514996408647
 20
72.23262042427164
 30
0.0
  0
VERTEX
  5
159
  8
LAYER_1
 10
-0.8817526460081723
 20
72.38047850942392
 30
0.0
  0
VERTEX
  5
15A
  8
LAYER_1
 10
-1.018160566661371
 20
72.51936582934238
 30
0.0
  0
VERTEX
  5
15B
  8
LAYER_1
 10
-1.156936231269454
 20
72.64929365080192
 30
0.0
  0
VERTEX
  5
15C
  8
LAYER_1
 10
-1.297840609501414
 20
72.77027324057752
 30
0.0
  0
VERTEX
  5
15D
  8
LAYER_1
 10
-1.440634671026243
 20
72.8823158654441
 30
0.0
  0
VERTEX
  5
15E
  8
LAYER_1
 10
-1.585079385512935
 20
72.98543279217657
 30
0.0
  0
VERTEX
  5
15F
  8
LAYER_1
 10
-1.730935722630481
 20
73.07963528754988
 30
0.0
  0
VERTEX
  5
160
  8
LAYER_1
 10
-1.877964652047875
 20
73.16493461833895
 30
0.0
  0
VERTEX
  5
161
  8
LAYER_1
 10
-2.025927143434109
 20
73.24134205131872
 30
0.0
  0
VERTEX
  5
162
  8
LAYER_1
 10
-2.174584166458177
 20
73.30886885326416
 30
0.0
  0
VERTEX
  5
163
  8
LAYER_1
 10
-2.323696690789069
 20
73.36752629095017
 30
0.0
  0
VERTEX
  5
164
  8
LAYER_1
 10
-2.473025686095781
 20
73.41732563115166
 30
0.0
  0
VERTEX
  5
165
  8
LAYER_1
 10
-2.622332122047304
 20
73.4582781406436
 30
0.0
  0
VERTEX
  5
166
  8
LAYER_1
 10
-2.77137696831263
 20
73.4903950862009
 30
0.0
  0
VERTEX
  5
167
  8
LAYER_1
 10
-2.919921194560752
 20
73.51368773459852
 30
0.0
  0
VERTEX
  5
168
  8
LAYER_1
 10
-3.067725770460664
 20
73.52816735261138
 30
0.0
  0
VERTEX
  5
169
  8
LAYER_1
 10
-3.214551665681357
 20
73.5338452070144
 30
0.0
  0
VERTEX
  5
16A
  8
LAYER_1
 10
-3.360159849891825
 20
73.53073256458252
 30
0.0
  0
VERTEX
  5
16B
  8
LAYER_1
 10
-3.50431129276106
 20
73.51884069209069
 30
0.0
  0
VERTEX
  5
16C
  8
LAYER_1
 10
-3.646766963958055
 20
73.49818085631382
 30
0.0
  0
VERTEX
  5
16D
  8
LAYER_1
 10
-3.787287833151803
 20
73.46876432402686
 30
0.0
  0
VERTEX
  5
16E
  8
LAYER_1
 10
-3.925634870011296
 20
73.43060236200475
 30
0.0
  0
VERTEX
  5
16F
  8
LAYER_1
 10
-4.061569044205527
 20
73.38370623702241
 30
0.0
  0
VERTEX
  5
170
  8
LAYER_1
 10
-4.194851325403488
 20
73.32808721585474
 30
0.0
  0
VERTEX
  5
171
  8
LAYER_1
 10
-4.325242683274173
 20
73.26375656527674
 30
0.0
  0
VERTEX
  5
172
  8
LAYER_1
 10
-4.452504087486574
 20
73.1907255520633
 30
0.0
  0
VERTEX
  5
173
  8
LAYER_1
 10
-4.576396507709683
 20
73.10900544298937
 30
0.0
  0
VERTEX
  5
174
  8
LAYER_1
 10
-4.696680913612494
 20
73.01860750482987
 30
0.0
  0
VERTEX
  5
175
  8
LAYER_1
 10
-4.813118274863999
 20
72.91954300435975
 30
0.0
  0
VERTEX
  5
176
  8
LAYER_1
 10
-4.925469561133191
 20
72.81182320835396
 30
0.0
  0
VERTEX
  5
177
  8
LAYER_1
 10
-5.033495742089062
 20
72.69545938358738
 30
0.0
  0
VERTEX
  5
178
  8
LAYER_1
 10
-5.136957787400607
 20
72.57046279683496
 30
0.0
  0
VERTEX
  5
179
  8
LAYER_1
 10
-5.235616666736815
 20
72.43684471487167
 30
0.0
  0
VERTEX
  5
17A
  8
LAYER_1
 10
-5.329233349766682
 20
72.2946164044724
 30
0.0
  0
VERTEX
  5
17B
  8
LAYER_1
 10
-5.417568806159197
 20
72.1437891324121
 30
0.0
  0
VERTEX
  5
17C
  8
LAYER_1
 10
-5.500384005583358
 20
71.98437416546571
 30
0.0
  0
VERTEX
  5
17D
  8
LAYER_1
 10
-5.577439917708153
 20
71.81638277040817
 30
0.0
  0
VERTEX
  5
17E
  8
LAYER_1
 10
-5.648497512202576
 20
71.63982621401439
 30
0.0
  0
VERTEX
  5
17F
  8
LAYER_1
 10
-5.71331775873562
 20
71.45471576305931
 30
0.0
  0
VERTEX
  5
180
  8
LAYER_1
 10
-5.771661626976279
 20
71.26106268431789
 30
0.0
  0
VERTEX
  5
181
  8
LAYER_1
 10
-5.823290086593544
 20
71.05887824456502
 30
0.0
  0
VERTEX
  5
182
  8
LAYER_1
 10
-5.867964107256407
 20
70.84817371057568
 30
0.0
  0
VERTEX
  5
183
  8
LAYER_1
 10
-5.905444658633861
 20
70.62896034912475
 30
0.0
  0
VERTEX
  5
184
  8
LAYER_1
 10
-5.935492710394902
 20
70.40124942698722
 30
0.0
  0
VERTEX
  5
185
  8
LAYER_1
 10
-5.95786923220852
 20
70.16505221093797
 30
0.0
  0
VERTEX
  5
186
  8
LAYER_1
 10
-5.972335193743707
 20
69.92037996775196
 30
0.0
  0
VERTEX
  5
187
  8
LAYER_1
 10
-5.978651564669457
 20
69.66724396420413
 30
0.0
  0
VERTEX
  5
188
  8
LAYER_1
 10
-5.976579314654762
 20
69.4056554670694
 30
0.0
  0
VERTEX
  5
189
  8
LAYER_1
 10
-5.965879413368615
 20
69.1356257431227
 30
0.0
  0
VERTEX
  5
18A
  8
LAYER_1
 10
-5.946312830480009
 20
68.85716605913899
 30
0.0
  0
VERTEX
  5
18B
  8
LAYER_1
 10
-5.968913116796905
 20
68.66550204387119
 30
0.0
  0
VERTEX
  5
18C
  8
LAYER_1
 10
-5.981553531898268
 20
68.47469696169111
 30
0.0
  0
VERTEX
  5
18D
  8
LAYER_1
 10
-5.983633599057789
 20
68.28507184253118
 30
0.0
  0
VERTEX
  5
18E
  8
LAYER_1
 10
-5.974552841549162
 20
68.09694771632383
 30
0.0
  0
VERTEX
  5
18F
  8
LAYER_1
 10
-5.953710782646082
 20
67.91064561300146
 30
0.0
  0
VERTEX
  5
190
  8
LAYER_1
 10
-5.920506945622243
 20
67.72648656249652
 30
0.0
  0
VERTEX
  5
191
  8
LAYER_1
 10
-5.874340853751338
 20
67.5447915947414
 30
0.0
  0
VERTEX
  5
192
  8
LAYER_1
 10
-5.814612030307062
 20
67.36588173966855
 30
0.0
  0
VERTEX
  5
193
  8
LAYER_1
 10
-5.704510045364929
 20
67.03168635397518
 30
0.0
  0
VERTEX
  5
194
  8
LAYER_1
 10
-5.60850163999074
 20
66.6521238321285
 30
0.0
  0
VERTEX
  5
195
  8
LAYER_1
 10
-5.526562946039006
 20
66.22702564105336
 30
0.0
  0
VERTEX
  5
196
  8
LAYER_1
 10
-5.458670095364237
 20
65.75622324767455
 30
0.0
  0
VERTEX
  5
197
  8
LAYER_1
 10
-5.404799219820944
 20
65.2395481189169
 30
0.0
  0
VERTEX
  5
198
  8
LAYER_1
 10
-5.364926451263636
 20
64.67683172170521
 30
0.0
  0
VERTEX
  5
199
  8
LAYER_1
 10
-5.339027921546823
 20
64.06790552296431
 30
0.0
  0
VERTEX
  5
19A
  8
LAYER_1
 10
-5.327079762525017
 20
63.41260098961899
 30
0.0
  0
VERTEX
  5
19B
  8
LAYER_1
 10
-5.311160977358361
 20
62.70888057037608
 30
0.0
  0
VERTEX
  5
19C
  8
LAYER_1
 10
-5.27410651670314
 20
61.85938073341094
 30
0.0
  0
VERTEX
  5
19D
  8
LAYER_1
 10
-5.21831506751858
 20
60.89649400223909
 30
0.0
  0
VERTEX
  5
19E
  8
LAYER_1
 10
-5.146185316763901
 20
59.85261290037598
 30
0.0
  0
VERTEX
  5
19F
  8
LAYER_1
 10
-5.060115951398332
 20
58.76012995133711
 30
0.0
  0
VERTEX
  5
1A0
  8
LAYER_1
 10
-4.962505658381094
 20
57.65143767863794
 30
0.0
  0
VERTEX
  5
1A1
  8
LAYER_1
 10
-4.855753124671413
 20
56.55892860579397
 30
0.0
  0
VERTEX
  5
1A2
  8
LAYER_1
 10
-4.742257037228512
 20
55.51499525632067
 30
0.0
  0
VERTEX
  5
1A3
  8
LAYER_1
 10
-4.179501633641777
 20
50.6236111111111
 30
0.0
  0
VERTEX
  5
1A4
  8
LAYER_1
 10
-3.520869373066589
 20
47.27222222222221
 30
0.0
  0
VERTEX
  5
1A5
  8
LAYER_1
 10
-3.287983445584677
 20
46.11095568482921
 30
0.0
  0
VERTEX
  5
1A6
  8
LAYER_1
 10
-3.028005265250773
 20
44.87506981719395
 30
0.0
  0
VERTEX
  5
1A7
  8
LAYER_1
 10
-2.709378023030083
 20
43.42759093263656
 30
0.0
  0
VERTEX
  5
1A8
  8
LAYER_1
 10
-2.300544909887815
 20
41.63154534447716
 30
0.0
  0
VERTEX
  5
1A9
  8
LAYER_1
 10
-1.086033834699384
 20
36.4458593106329
 30
0.0
  0
VERTEX
  5
1AA
  8
LAYER_1
 10
0.8679824325928536
 20
28.22222222222223
 30
0.0
  0
VERTEX
  5
1AB
  8
LAYER_1
 10
2.409010257687388
 20
21.64965334856285
 30
0.0
  0
VERTEX
  5
1AC
  8
LAYER_1
 10
2.717751245493395
 20
20.29552317728792
 30
0.0
  0
VERTEX
  5
1AD
  8
LAYER_1
 10
3.01145269571057
 20
18.93797240289765
 30
0.0
  0
VERTEX
  5
1AE
  8
LAYER_1
 10
3.292475033904532
 20
17.57758445246812
 30
0.0
  0
VERTEX
  5
1AF
  8
LAYER_1
 10
3.563178685640902
 20
16.21494275307545
 30
0.0
  0
VERTEX
  5
1B0
  8
LAYER_1
 10
4.083071632003346
 20
13.485231815705
 30
0.0
  0
VERTEX
  5
1B1
  8
LAYER_1
 10
4.590014939322868
 20
10.75350700739503
 30
0.0
  0
VERTEX
  5
1B2
  8
LAYER_1
 10
4.799301279171048
 20
9.568802555828283
 30
0.0
  0
VERTEX
  5
1B3
  8
LAYER_1
 10
5.040598134072916
 20
8.099345540873296
 30
0.0
  0
VERTEX
  5
1B4
  8
LAYER_1
 10
5.31764535994818
 20
6.326925840663751
 30
0.0
  0
VERTEX
  5
1B5
  8
LAYER_1
 10
5.634182812716546
 20
4.233333333333334
 30
0.0
  0
VERTEX
  5
1B6
  8
LAYER_1
 10
5.814247487978956
 20
2.940676102336982
 30
0.0
  0
VERTEX
  5
1B7
  8
LAYER_1
 10
5.965068014927695
 20
1.659844971051609
 30
0.0
  0
VERTEX
  5
1B8
  8
LAYER_1
 10
6.088284142636722
 20
0.3644371863164426
 30
0.0
  0
VERTEX
  5
1B9
  8
LAYER_1
 10
6.185535620179994
 20
-0.9719500050292851
 30
0.0
  0
VERTEX
  5
1BA
  8
LAYER_1
 10
6.258462196631469
 20
-2.375719356146345
 30
0.0
  0
VERTEX
  5
1BB
  8
LAYER_1
 10
6.308703621065105
 20
-3.873273620195505
 30
0.0
  0
VERTEX
  5
1BC
  8
LAYER_1
 10
6.337899642554857
 20
-5.491015550337536
 30
0.0
  0
VERTEX
  5
1BD
  8
LAYER_1
 10
6.347690010174688
 20
-7.255347899733209
 30
0.0
  0
VERTEX
  5
1BE
  8
LAYER_1
 10
6.350000000000009
 20
-13.98152913279974
 30
0.0
  0
VERTEX
  5
1BF
  8
LAYER_1
 10
5.990128850717014
 20
-16.07479234417765
 30
0.0
  0
VERTEX
  5
1C0
  8
LAYER_1
 10
5.793369098605421
 20
-17.17397380419629
 30
0.0
  0
VERTEX
  5
1C1
  8
LAYER_1
 10
5.591883798619213
 20
-18.19468099156919
 30
0.0
  0
VERTEX
  5
1C2
  8
LAYER_1
 10
5.373880885771397
 20
-19.18249688345466
 30
0.0
  0
VERTEX
  5
1C3
  8
LAYER_1
 10
5.127568295074981
 20
-20.18300445701101
 30
0.0
  0
VERTEX
  5
1C4
  8
LAYER_1
 10
4.841153961542974
 20
-21.24178668939653
 30
0.0
  0
VERTEX
  5
1C5
  8
LAYER_1
 10
4.502845820188384
 20
-22.40442655776951
 30
0.0
  0
VERTEX
  5
1C6
  8
LAYER_1
 10
4.100851806024219
 20
-23.71650703928827
 30
0.0
  0
VERTEX
  5
1C7
  8
LAYER_1
 10
3.623379854063487
 20
-25.22361111111111
 30
0.0
  0
VERTEX
  5
1C8
  8
LAYER_1
 10
2.379679904068922
 20
-29.10416666666666
 30
0.0
  0
VERTEX
  5
1C9
  8
LAYER_1
 10
1.563039597868936
 20
-30.92205795608132
 30
0.0
  0
VERTEX
  5
1CA
  8
LAYER_1
 10
1.385533865797625
 20
-31.29973098985894
 30
0.0
  0
VERTEX
  5
1CB
  8
LAYER_1
 10
1.181939597391561
 20
-31.70130662444893
 30
0.0
  0
VERTEX
  5
1CC
  8
LAYER_1
 10
0.9534677459980658
 20
-32.12522784817848
 30
0.0
  0
VERTEX
  5
1CD
  8
LAYER_1
 10
0.701329264964464
 20
-32.56993764937475
 30
0.0
  0
VERTEX
  5
1CE
  8
LAYER_1
 10
0.4267351076380784
 20
-33.03387901636492
 30
0.0
  0
VERTEX
  5
1CF
  8
LAYER_1
 10
0.1308962273662322
 20
-33.51549493747617
 30
0.0
  0
VERTEX
  5
1D0
  8
LAYER_1
 10
-0.1849764225037515
 20
-34.01322840103568
 30
0.0
  0
VERTEX
  5
1D1
  8
LAYER_1
 10
-0.5196718886245493
 20
-34.5255223953706
 30
0.0
  0
VERTEX
  5
1D2
  8
LAYER_1
 10
-1.240687456229295
 20
-35.58756392967542
 30
0.0
  0
VERTEX
  5
1D3
  8
LAYER_1
 10
-2.022462848669418
 20
-36.68916344700804
 30
0.0
  0
VERTEX
  5
1D4
  8
LAYER_1
 10
-2.855310439166334
 20
-37.81786485398585
 30
0.0
  0
VERTEX
  5
1D5
  8
LAYER_1
 10
-3.729542600941457
 20
-38.96121205722626
 30
0.0
  0
VERTEX
  5
1D6
  8
LAYER_1
 10
-4.635471707216201
 20
-40.10674896334665
 30
0.0
  0
VERTEX
  5
1D7
  8
LAYER_1
 10
-5.563410131211981
 20
-41.24201947896441
 30
0.0
  0
VERTEX
  5
1D8
  8
LAYER_1
 10
-6.503670246150209
 20
-42.35456751069696
 30
0.0
  0
VERTEX
  5
1D9
  8
LAYER_1
 10
-7.446564425252302
 20
-43.43193696516168
 30
0.0
  0
VERTEX
  5
1DA
  8
LAYER_1
 10
-8.382405041739673
 20
-44.46167174897597
 30
0.0
  0
VERTEX
  5
1DB
  8
LAYER_1
 10
-8.84465288063453
 20
-44.95478361020714
 30
0.0
  0
VERTEX
  5
1DC
  8
LAYER_1
 10
-9.301504468833738
 20
-45.43131576875724
 30
0.0
  0
VERTEX
  5
1DD
  8
LAYER_1
 10
-9.751748852989971
 20
-45.88971121295342
 30
0.0
  0
VERTEX
  5
1DE
  8
LAYER_1
 10
-10.19417507975591
 20
-46.32841293112287
 30
0.0
  0
VERTEX
  5
1DF
  8
LAYER_1
 10
-10.62757219578423
 20
-46.74586391159276
 30
0.0
  0
VERTEX
  5
1E0
  8
LAYER_1
 10
-11.0507292477276
 20
-47.14050714269026
 30
0.0
  0
VERTEX
  5
1E1
  8
LAYER_1
 10
-11.55651416206628
 20
-47.58550060252816
 30
0.0
  0
VERTEX
  5
1E2
  8
LAYER_1
 10
-12.16017226872256
 20
-48.0856466074497
 30
0.0
  0
VERTEX
  5
1E3
  8
LAYER_1
 10
-12.83906676612534
 20
-48.6239202848752
 30
0.0
  0
VERTEX
  5
1E4
  8
LAYER_1
 10
-13.57056085270352
 20
-49.18329676222488
 30
0.0
  0
VERTEX
  5
1E5
  8
LAYER_1
 10
-14.332017726886
 20
-49.74675116691905
 30
0.0
  0
VERTEX
  5
1E6
  8
LAYER_1
 10
-15.10080058710168
 20
-50.29725862637797
 30
0.0
  0
VERTEX
  5
1E7
  8
LAYER_1
 10
-15.85427263177946
 20
-50.81779426802191
 30
0.0
  0
VERTEX
  5
1E8
  8
LAYER_1
 10
-16.56979705934823
 20
-51.29133321927116
 30
0.0
  0
VERTEX
  5
1E9
  8
LAYER_1
 10
-19.91042745202979
 20
-53.44583333333333
 30
0.0
  0
VERTEX
  5
1EA
  8
LAYER_1
 10
-17.27535261490378
 20
-53.55293855326507
 30
0.0
  0
VERTEX
  5
1EB
  8
LAYER_1
 10
-16.6704190432923
 20
-53.56236609630712
 30
0.0
  0
VERTEX
  5
1EC
  8
LAYER_1
 10
-15.95992056225928
 20
-53.54779435263866
 30
0.0
  0
VERTEX
  5
1ED
  8
LAYER_1
 10
-15.16985796703511
 20
-53.51121311790053
 30
0.0
  0
VERTEX
  5
1EE
  8
LAYER_1
 10
-14.32623205285021
 20
-53.45461218773357
 30
0.0
  0
VERTEX
  5
1EF
  8
LAYER_1
 10
-13.45504361493495
 20
-53.3799813577786
 30
0.0
  0
VERTEX
  5
1F0
  8
LAYER_1
 10
-12.58229344851975
 20
-53.28931042367648
 30
0.0
  0
VERTEX
  5
1F1
  8
LAYER_1
 10
-11.733982348835
 20
-53.18458918106804
 30
0.0
  0
VERTEX
  5
1F2
  8
LAYER_1
 10
-10.9361111111111
 20
-53.06780742559411
 30
0.0
  0
VERTEX
  5
1F3
  8
LAYER_1
 10
-7.570608938352566
 20
-52.52971805381185
 30
0.0
  0
VERTEX
  5
1F4
  8
LAYER_1
 10
-6.372283567296382
 20
-52.34529770254286
 30
0.0
  0
VERTEX
  5
1F5
  8
LAYER_1
 10
-5.83810217657981
 20
-51.80932715917717
 30
0.0
  0
VERTEX
  5
1F6
  8
LAYER_1
 10
-5.30960041799511
 20
-51.26795148128434
 30
0.0
  0
VERTEX
  5
1F7
  8
LAYER_1
 10
-4.786815441062073
 20
-50.72121840474338
 30
0.0
  0
VERTEX
  5
1F8
  8
LAYER_1
 10
-4.269784395300491
 20
-50.16917566543333
 30
0.0
  0
VERTEX
  5
1F9
  8
LAYER_1
 10
-3.758544430230156
 20
-49.6118709992332
 30
0.0
  0
VERTEX
  5
1FA
  8
LAYER_1
 10
-3.253132695370858
 20
-49.04935214202202
 30
0.0
  0
VERTEX
  5
1FB
  8
LAYER_1
 10
-2.75358634024239
 20
-48.48166682967882
 30
0.0
  0
VERTEX
  5
1FC
  8
LAYER_1
 10
-2.259942514364542
 20
-47.90886279808261
 30
0.0
  0
VERTEX
  5
1FD
  8
LAYER_1
 10
-1.772238367257106
 20
-47.33098778311242
 30
0.0
  0
VERTEX
  5
1FE
  8
LAYER_1
 10
-1.290511048439874
 20
-46.74808952064728
 30
0.0
  0
VERTEX
  5
1FF
  8
LAYER_1
 10
-0.8147977074326362
 20
-46.16021574656622
 30
0.0
  0
VERTEX
  5
200
  8
LAYER_1
 10
-0.3451354937551847
 20
-45.56741419674824
 30
0.0
  0
VERTEX
  5
201
  8
LAYER_1
 10
0.1184384430726892
 20
-44.96973260707237
 30
0.0
  0
VERTEX
  5
202
  8
LAYER_1
 10
0.5758869535311941
 20
-44.36721871341766
 30
0.0
  0
VERTEX
  5
203
  8
LAYER_1
 10
1.027172888100538
 20
-43.7599202516631
 30
0.0
  0
SEQEND
  5
204
  8
LAYER_1
  0
POLYLINE
  5
48
  8
LAYER_1
 66
     1
 10
0.0
 20
0.0
 30
0.0
  0
VERTEX
  5
205
  8
LAYER_1
 10
63.32548270401669
 20
-44.79306772035973
 30
0.0
  0
VERTEX
  5
206
  8
LAYER_1
 10
63.34664224251866
 20
-44.59349552764618
 30
0.0
  0
VERTEX
  5
207
  8
LAYER_1
 10
63.37595184459947
 20
-44.3955087159989
 30
0.0
  0
VERTEX
  5
208
  8
LAYER_1
 10
63.41331503578936
 20
-44.19934245768449
 30
0.0
  0
VERTEX
  5
209
  8
LAYER_1
 10
63.45863534161854
 20
-44.00523192496959
 30
0.0
  0
VERTEX
  5
20A
  8
LAYER_1
 10
63.51181628761722
 20
-43.81341229012082
 30
0.0
  0
VERTEX
  5
20B
  8
LAYER_1
 10
63.57276139931562
 20
-43.62411872540481
 30
0.0
  0
VERTEX
  5
20C
  8
LAYER_1
 10
63.64137420224395
 20
-43.43758640308818
 30
0.0
  0
VERTEX
  5
20D
  8
LAYER_1
 10
63.71755822193244
 20
-43.25405049543754
 30
0.0
  0
VERTEX
  5
20E
  8
LAYER_1
 10
63.8012169839113
 20
-43.07374617471953
 30
0.0
  0
VERTEX
  5
20F
  8
LAYER_1
 10
63.89225401371074
 20
-42.89690861320078
 30
0.0
  0
VERTEX
  5
210
  8
LAYER_1
 10
63.99057283686098
 20
-42.72377298314791
 30
0.0
  0
VERTEX
  5
211
  8
LAYER_1
 10
64.09607697889223
 20
-42.55457445682754
 30
0.0
  0
VERTEX
  5
212
  8
LAYER_1
 10
64.2086699653347
 20
-42.38954820650629
 30
0.0
  0
VERTEX
  5
213
  8
LAYER_1
 10
64.32825532171864
 20
-42.22892940445081
 30
0.0
  0
VERTEX
  5
214
  8
LAYER_1
 10
64.45473657357422
 20
-42.0729532229277
 30
0.0
  0
VERTEX
  5
215
  8
LAYER_1
 10
64.5880172464317
 20
-41.92185483420359
 30
0.0
 42
0.5442861796321962
  0
VERTEX
  5
216
  8
LAYER_1
 10
64.1960002851935
 20
-40.01474529304479
 30
0.0
 42
0.1469036919969274
  0
VERTEX
  5
217
  8
LAYER_1
 10
62.9123123541879
 20
-40.0542077268012
 30
0.0
 42
-0.025156635114266
  0
VERTEX
  5
218
  8
LAYER_1
 10
48.97857927630159
 20
-44.66577826831485
 30
0.0
  0
VERTEX
  5
219
  8
LAYER_1
 10
48.35936058616077
 20
-44.85770893766468
 30
0.0
  0
VERTEX
  5
21A
  8
LAYER_1
 10
47.75472835509154
 20
-45.07574426727501
 30
0.0
  0
VERTEX
  5
21B
  8
LAYER_1
 10
47.16518302987077
 20
-45.31911387853943
 30
0.0
  0
VERTEX
  5
21C
  8
LAYER_1
 10
46.5912250572753
 20
-45.58704739285152
 30
0.0
  0
VERTEX
  5
21D
  8
LAYER_1
 10
46.03335488408198
 20
-45.87877443160485
 30
0.0
  0
VERTEX
  5
21E
  8
LAYER_1
 10
45.49207295706768
 20
-46.19352461619302
 30
0.0
  0
VERTEX
  5
21F
  8
LAYER_1
 10
44.96787972300924
 20
-46.5305275680096
 30
0.0
  0
VERTEX
  5
220
  8
LAYER_1
 10
44.46127562868352
 20
-46.88901290844817
 30
0.0
  0
VERTEX
  5
221
  8
LAYER_1
 10
43.97276112086738
 20
-47.26821025890233
 30
0.0
  0
VERTEX
  5
222
  8
LAYER_1
 10
43.50283664633767
 20
-47.66734924076563
 30
0.0
  0
VERTEX
  5
223
  8
LAYER_1
 10
43.05200265187125
 20
-48.08565947543167
 30
0.0
  0
VERTEX
  5
224
  8
LAYER_1
 10
42.62075958424496
 20
-48.52237058429404
 30
0.0
  0
VERTEX
  5
225
  8
LAYER_1
 10
42.20960789023567
 20
-48.9767121887463
 30
0.0
  0
VERTEX
  5
226
  8
LAYER_1
 10
41.81904801662023
 20
-49.44791391018204
 30
0.0
  0
VERTEX
  5
227
  8
LAYER_1
 10
41.4495804101755
 20
-49.93520536999485
 30
0.0
  0
VERTEX
  5
228
  8
LAYER_1
 10
41.10170551767832
 20
-50.4378161895783
 30
0.0
  0
VERTEX
  5
229
  8
LAYER_1
 10
40.77592378590555
 20
-50.95497599032598
 30
0.0
  0
VERTEX
  5
22A
  8
LAYER_1
 10
40.47273566163405
 20
-51.48591439363147
 30
0.0
  0
VERTEX
  5
22B
  8
LAYER_1
 10
40.19264159164068
 20
-52.02986102088835
 30
0.0
  0
VERTEX
  5
22C
  8
LAYER_1
 10
39.93614202270228
 20
-52.5860454934902
 30
0.0
  0
VERTEX
  5
22D
  8
LAYER_1
 10
39.70373740159571
 20
-53.1536974328306
 30
0.0
  0
VERTEX
  5
22E
  8
LAYER_1
 10
39.49592817509783
 20
-53.73204646030313
 30
0.0
  0
VERTEX
  5
22F
  8
LAYER_1
 10
39.31321478998549
 20
-54.32032219730138
 30
0.0
  0
VERTEX
  5
230
  8
LAYER_1
 10
39.15609769303554
 20
-54.91775426521892
 30
0.0
  0
VERTEX
  5
231
  8
LAYER_1
 10
39.02507733102485
 20
-55.52357228544933
 30
0.0
  0
VERTEX
  5
232
  8
LAYER_1
 10
38.92065415073026
 20
-56.13700587938622
 30
0.0
  0
VERTEX
  5
233
  8
LAYER_1
 10
38.84332859892862
 20
-56.75728466842314
 30
0.0
  0
VERTEX
  5
234
  8
LAYER_1
 10
38.7936011223968
 20
-57.38363827395369
 30
0.0
  0
VERTEX
  5
235
  8
LAYER_1
 10
38.77197216791165
 20
-58.01529631737144
 30
0.0
  0
VERTEX
  5
236
  8
LAYER_1
 10
38.77894218225003
 20
-58.65148842006997
 30
0.0
  0
VERTEX
  5
237
  8
LAYER_1
 10
38.81501161218878
 20
-59.29144420344286
 30
0.0
  0
VERTEX
  5
238
  8
LAYER_1
 10
38.88068090450476
 20
-59.93439328888371
 30
0.0
  0
VERTEX
  5
239
  8
LAYER_1
 10
38.52162769864229
 20
-59.93410345890543
 30
0.0
  0
VERTEX
  5
23A
  8
LAYER_1
 10
38.16407131696228
 20
-59.91830278660815
 30
0.0
  0
VERTEX
  5
23B
  8
LAYER_1
 10
37.80856805793579
 20
-59.88654626118903
 30
0.0
  0
VERTEX
  5
23C
  8
LAYER_1
 10
37.45567422003391
 20
-59.83838887184523
 30
0.0
  0
VERTEX
  5
23D
  8
LAYER_1
 10
37.03030543036547
 20
-59.76081026174773
 30
0.0
  0
VERTEX
  5
23E
  8
LAYER_1
 10
36.52627162877334
 20
-59.6533639702669
 30
0.0
  0
VERTEX
  5
23F
  8
LAYER_1
 10
36.20198673777143
 20
-59.57463774259725
 30
0.0
  0
VERTEX
  5
240
  8
LAYER_1
 10
35.88243424568263
 20
-59.48456658336278
 30
0.0
  0
VERTEX
  5
241
  8
LAYER_1
 10
35.56743375055953
 20
-59.38296747375636
 30
0.0
  0
VERTEX
  5
242
  8
LAYER_1
 10
35.25680485045476
 20
-59.26965739497081
 30
0.0
  0
VERTEX
  5
243
  8
LAYER_1
 10
34.95036714342092
 20
-59.14445332819901
 30
0.0
  0
VERTEX
  5
244
  8
LAYER_1
 10
34.64794022751062
 20
-59.0071722546338
 30
0.0
  0
VERTEX
  5
245
  8
LAYER_1
 10
34.34934370077646
 20
-58.85763115546803
 30
0.0
  0
VERTEX
  5
246
  8
LAYER_1
 10
34.05439716127107
 20
-58.69564701189454
 30
0.0
  0
VERTEX
  5
247
  8
LAYER_1
 10
33.76292020704705
 20
-58.52103680510618
 30
0.0
  0
VERTEX
  5
248
  8
LAYER_1
 10
33.47473243615701
 20
-58.33361751629582
 30
0.0
  0
VERTEX
  5
249
  8
LAYER_1
 10
33.18965344665355
 20
-58.13320612665629
 30
0.0
  0
VERTEX
  5
24A
  8
LAYER_1
 10
32.9075028365893
 20
-57.91961961738045
 30
0.0
  0
VERTEX
  5
24B
  8
LAYER_1
 10
32.62810020401685
 20
-57.69267496966113
 30
0.0
  0
VERTEX
  5
24C
  8
LAYER_1
 10
32.35126514698882
 20
-57.45218916469121
 30
0.0
  0
VERTEX
  5
24D
  8
LAYER_1
 10
32.07681726355781
 20
-57.19797918366351
 30
0.0
  0
VERTEX
  5
24E
  8
LAYER_1
 10
31.80457615177644
 20
-56.92986200777091
 30
0.0
  0
VERTEX
  5
24F
  8
LAYER_1
 10
31.53436140969731
 20
-56.64765461820623
 30
0.0
  0
VERTEX
  5
250
  8
LAYER_1
 10
31.26599263537304
 20
-56.35117399616234
 30
0.0
  0
VERTEX
  5
251
  8
LAYER_1
 10
30.99928942685624
 20
-56.04023712283207
 30
0.0
  0
VERTEX
  5
252
  8
LAYER_1
 10
30.7340713821995
 20
-55.71466097940829
 30
0.0
  0
VERTEX
  5
253
  8
LAYER_1
 10
30.47015809945545
 20
-55.37426254708384
 30
0.0
  0
VERTEX
  5
254
  8
LAYER_1
 10
30.20736917667669
 20
-55.01885880705158
 30
0.0
  0
VERTEX
  5
255
  8
LAYER_1
 10
29.94552421191583
 20
-54.64826674050433
 30
0.0
  0
VERTEX
  5
256
  8
LAYER_1
 10
29.68444280322549
 20
-54.26230332863497
 30
0.0
  0
VERTEX
  5
257
  8
LAYER_1
 10
29.42394454865826
 20
-53.86078555263634
 30
0.0
  0
VERTEX
  5
258
  8
LAYER_1
 10
29.16384904626677
 20
-53.44353039370128
 30
0.0
  0
VERTEX
  5
259
  8
LAYER_1
 10
28.90397589410361
 20
-53.01035483302265
 30
0.0
  0
VERTEX
  5
25A
  8
LAYER_1
 10
28.64414469022141
 20
-52.5610758517933
 30
0.0
  0
VERTEX
  5
25B
  8
LAYER_1
 10
28.38417503267276
 20
-52.09551043120607
 30
0.0
  0
VERTEX
  5
25C
  8
LAYER_1
 10
28.12388651951029
 20
-51.61347555245382
 30
0.0
  0
VERTEX
  5
25D
  8
LAYER_1
 10
27.60163131855427
 20
-50.59926534522565
 30
0.0
  0
VERTEX
  5
25E
  8
LAYER_1
 10
26.93906510307808
 20
-49.2462681303966
 30
0.0
  0
VERTEX
  5
25F
  8
LAYER_1
 10
26.65967809532356
 20
-48.651772266137
 30
0.0
  0
VERTEX
  5
260
  8
LAYER_1
 10
26.41389436451601
 20
-48.10866669204629
 30
0.0
  0
VERTEX
  5
261
  8
LAYER_1
 10
26.20096831837387
 20
-47.61449275417364
 30
0.0
  0
VERTEX
  5
262
  8
LAYER_1
 10
26.02015436461558
 20
-47.16679179856825
 30
0.0
  0
VERTEX
  5
263
  8
LAYER_1
 10
25.87070691095957
 20
-46.76310517127931
 30
0.0
  0
VERTEX
  5
264
  8
LAYER_1
 10
25.75188036512427
 20
-46.40097421835601
 30
0.0
  0
VERTEX
  5
265
  8
LAYER_1
 10
25.66292913482814
 20
-46.07794028584755
 30
0.0
  0
VERTEX
  5
266
  8
LAYER_1
 10
25.60310762778959
 20
-45.79154471980311
 30
0.0
  0
VERTEX
  5
267
  8
LAYER_1
 10
25.57167025172708
 20
-45.5393288662719
 30
0.0
  0
VERTEX
  5
268
  8
LAYER_1
 10
25.56787141435903
 20
-45.31883407130309
 30
0.0
  0
VERTEX
  5
269
  8
LAYER_1
 10
25.5909655234039
 20
-45.12760168094589
 30
0.0
  0
VERTEX
  5
26A
  8
LAYER_1
 10
25.61236443524317
 20
-45.04219055813701
 30
0.0
  0
VERTEX
  5
26B
  8
LAYER_1
 10
25.6402069865801
 20
-44.96317304124948
 30
0.0
  0
VERTEX
  5
26C
  8
LAYER_1
 10
25.67439997837946
 20
-44.89024179853945
 30
0.0
  0
VERTEX
  5
26D
  8
LAYER_1
 10
25.71485021160608
 20
-44.82308949826307
 30
0.0
  0
VERTEX
  5
26E
  8
LAYER_1
 10
25.76146448722475
 20
-44.76140880867648
 30
0.0
  0
VERTEX
  5
26F
  8
LAYER_1
 10
25.81414960620027
 20
-44.70489239803583
 30
0.0
  0
VERTEX
  5
270
  8
LAYER_1
 10
26.01200712232718
 20
-44.52793315491594
 30
0.0
  0
VERTEX
  5
271
  8
LAYER_1
 10
26.32765346696674
 20
-44.26535440146245
 30
0.0
  0
VERTEX
  5
272
  8
LAYER_1
 10
27.27343102678809
 20
-43.51279265117397
 30
0.0
  0
VERTEX
  5
273
  8
LAYER_1
 10
28.57371905567283
 20
-42.50611572240899
 30
0.0
  0
VERTEX
  5
274
  8
LAYER_1
 10
30.15075432362951
 20
-41.30423219040612
 30
0.0
  0
VERTEX
  5
275
  8
LAYER_1
 10
31.92677360066666
 20
-39.96605063040396
 30
0.0
  0
VERTEX
  5
276
  8
LAYER_1
 10
33.82401365679279
 20
-38.55047961764109
 30
0.0
  0
VERTEX
  5
277
  8
LAYER_1
 10
35.76471126201644
 20
-37.11642772735613
 30
0.0
  0
VERTEX
  5
278
  8
LAYER_1
 10
37.67110318634613
 20
-35.72280353478767
 30
0.0
  0
VERTEX
  5
279
  8
LAYER_1
 10
42.15694444444443
 20
-32.46366262513089
 30
0.0
  0
VERTEX
  5
27A
  8
LAYER_1
 10
42.4620325178048
 20
-32.56130511479667
 30
0.0
  0
VERTEX
  5
27B
  8
LAYER_1
 10
42.4963033902963
 20
-32.5796614189785
 30
0.0
  0
VERTEX
  5
27C
  8
LAYER_1
 10
42.53587700091981
 20
-32.61400414392166
 30
0.0
  0
VERTEX
  5
27D
  8
LAYER_1
 10
42.62904488624045
 20
-32.72712431143916
 30
0.0
  0
VERTEX
  5
27E
  8
LAYER_1
 10
42.73776107312182
 20
-32.89361652804358
 30
0.0
  0
VERTEX
  5
27F
  8
LAYER_1
 10
42.85825046091901
 20
-33.10643170442938
 30
0.0
  0
VERTEX
  5
280
  8
LAYER_1
 10
42.98673794898716
 20
-33.358520751291
 30
0.0
  0
VERTEX
  5
281
  8
LAYER_1
 10
43.11944843668136
 20
-33.64283457932288
 30
0.0
  0
VERTEX
  5
282
  8
LAYER_1
 10
43.25260682335673
 20
-33.95232409921948
 30
0.0
  0
VERTEX
  5
283
  8
LAYER_1
 10
43.38243800836838
 20
-34.27994022167523
 30
0.0
  0
VERTEX
  5
284
  8
LAYER_1
 10
43.54552552703641
 20
-34.68144866727686
 30
0.0
  0
VERTEX
  5
285
  8
LAYER_1
 10
43.7283327129968
 20
-35.07979731608058
 30
0.0
  0
VERTEX
  5
286
  8
LAYER_1
 10
43.92964484710082
 20
-35.47351042819473
 30
0.0
  0
VERTEX
  5
287
  8
LAYER_1
 10
44.14824721019969
 20
-35.86111226372762
 30
0.0
  0
VERTEX
  5
288
  8
LAYER_1
 10
44.38292508314467
 20
-36.24112708278761
 30
0.0
  0
VERTEX
  5
289
  8
LAYER_1
 10
44.632463746787
 20
-36.61207914548302
 30
0.0
  0
VERTEX
  5
28A
  8
LAYER_1
 10
44.89564848197791
 20
-36.97249271192219
 30
0.0
  0
VERTEX
  5
28B
  8
LAYER_1
 10
45.17126456956868
 20
-37.32089204221344
 30
0.0
  0
VERTEX
  5
28C
  8
LAYER_1
 10
45.45809729041054
 20
-37.65580139646512
 30
0.0
  0
VERTEX
  5
28D
  8
LAYER_1
 10
45.75493192535473
 20
-37.97574503478556
 30
0.0
  0
VERTEX
  5
28E
  8
LAYER_1
 10
46.06055375525249
 20
-38.27924721728309
 30
0.0
  0
VERTEX
  5
28F
  8
LAYER_1
 10
46.37374806095509
 20
-38.56483220406603
 30
0.0
  0
VERTEX
  5
290
  8
LAYER_1
 10
46.69330012331375
 20
-38.83102425524274
 30
0.0
  0
VERTEX
  5
291
  8
LAYER_1
 10
47.01799522317972
 20
-39.07634763092152
 30
0.0
  0
VERTEX
  5
292
  8
LAYER_1
 10
47.34661864140426
 20
-39.29932659121074
 30
0.0
  0
VERTEX
  5
293
  8
LAYER_1
 10
47.67795565883861
 20
-39.4984853962187
 30
0.0
  0
VERTEX
  5
294
  8
LAYER_1
 10
47.96275148771868
 20
-39.64593903325418
 30
0.0
  0
VERTEX
  5
295
  8
LAYER_1
 10
48.25863352756854
 20
-39.7747485856642
 30
0.0
  0
VERTEX
  5
296
  8
LAYER_1
 10
48.56500612925689
 20
-39.885098670404
 30
0.0
  0
VERTEX
  5
297
  8
LAYER_1
 10
48.88127364365242
 20
-39.97717390442882
 30
0.0
  0
VERTEX
  5
298
  8
LAYER_1
 10
49.20684042162384
 20
-40.05115890469389
 30
0.0
  0
VERTEX
  5
299
  8
LAYER_1
 10
49.54111081403984
 20
-40.10723828815445
 30
0.0
  0
VERTEX
  5
29A
  8
LAYER_1
 10
49.88348917176914
 20
-40.14559667176573
 30
0.0
  0
VERTEX
  5
29B
  8
LAYER_1
 10
50.23337984568043
 20
-40.16641867248298
 30
0.0
  0
VERTEX
  5
29C
  8
LAYER_1
 10
50.59018718664241
 20
-40.16988890726141
 30
0.0
  0
VERTEX
  5
29D
  8
LAYER_1
 10
50.95331554552378
 20
-40.15619199305628
 30
0.0
  0
VERTEX
  5
29E
  8
LAYER_1
 10
51.32216927319325
 20
-40.12551254682281
 30
0.0
  0
VERTEX
  5
29F
  8
LAYER_1
 10
51.69615272051951
 20
-40.07803518551624
 30
0.0
  0
VERTEX
  5
2A0
  8
LAYER_1
 10
52.07467023837128
 20
-40.0139445260918
 30
0.0
  0
VERTEX
  5
2A1
  8
LAYER_1
 10
52.45712617761724
 20
-39.93342518550472
 30
0.0
  0
VERTEX
  5
2A2
  8
LAYER_1
 10
52.8429248891261
 20
-39.83666178071026
 30
0.0
  0
VERTEX
  5
2A3
  8
LAYER_1
 10
53.23147072376656
 20
-39.72383892866362
 30
0.0
  0
VERTEX
  5
2A4
  8
LAYER_1
 10
53.62216803240733
 20
-39.59514124632008
 30
0.0
  0
VERTEX
  5
2A5
  8
LAYER_1
 10
54.01442116591708
 20
-39.45075335063483
 30
0.0
  0
VERTEX
  5
2A6
  8
LAYER_1
 10
54.40763447516456
 20
-39.29085985856312
 30
0.0
  0
VERTEX
  5
2A7
  8
LAYER_1
 10
54.80121231101843
 20
-39.1156453870602
 30
0.0
  0
VERTEX
  5
2A8
  8
LAYER_1
 10
55.19455902434741
 20
-38.92529455308129
 30
0.0
  0
VERTEX
  5
2A9
  8
LAYER_1
 10
55.58707896602021
 20
-38.71999197358163
 30
0.0
  0
VERTEX
  5
2AA
  8
LAYER_1
 10
55.97817648690551
 20
-38.49992226551645
 30
0.0
  0
VERTEX
  5
2AB
  8
LAYER_1
 10
56.36725593787202
 20
-38.26527004584099
 30
0.0
  0
VERTEX
  5
2AC
  8
LAYER_1
 10
56.75372166978843
 20
-38.01621993151048
 30
0.0
  0
VERTEX
  5
2AD
  8
LAYER_1
 10
57.13697803352348
 20
-37.75295653948017
 30
0.0
  0
VERTEX
  5
2AE
  8
LAYER_1
 10
57.51642937994582
 20
-37.47566448670527
 30
0.0
  0
VERTEX
  5
2AF
  8
LAYER_1
 10
57.89148005992418
 20
-37.18452839014104
 30
0.0
  0
VERTEX
  5
2B0
  8
LAYER_1
 10
58.26153442432727
 20
-36.8797328667427
 30
0.0
  0
VERTEX
  5
2B1
  8
LAYER_1
 10
58.62599682402376
 20
-36.56146253346549
 30
0.0
  0
VERTEX
  5
2B2
  8
LAYER_1
 10
58.98427160988237
 20
-36.22990200726463
 30
0.0
  0
VERTEX
  5
2B3
  8
LAYER_1
 10
59.3357631327718
 20
-35.88523590509539
 30
0.0
  0
VERTEX
  5
2B4
  8
LAYER_1
 10
61.38333333333333
 20
-33.81850249021808
 30
0.0
  0
VERTEX
  5
2B5
  8
LAYER_1
 10
61.38333333333333
 20
-33.3134179117757
 30
0.0
  0
VERTEX
  5
2B6
  8
LAYER_1
 10
61.39159577224045
 20
-33.19315641588022
 30
0.0
  0
VERTEX
  5
2B7
  8
LAYER_1
 10
61.41680384922947
 20
-33.09031048334178
 30
0.0
  0
VERTEX
  5
2B8
  8
LAYER_1
 10
61.45958870470188
 20
-33.0049283991655
 30
0.0
  0
VERTEX
  5
2B9
  8
LAYER_1
 10
61.52058147905914
 20
-32.9370584483565
 30
0.0
  0
VERTEX
  5
2BA
  8
LAYER_1
 10
61.60041331270273
 20
-32.88674891591989
 30
0.0
  0
VERTEX
  5
2BB
  8
LAYER_1
 10
61.69971534603413
 20
-32.85404808686081
 30
0.0
  0
VERTEX
  5
2BC
  8
LAYER_1
 10
61.81911871945481
 20
-32.83900424618437
 30
0.0
  0
VERTEX
  5
2BD
  8
LAYER_1
 10
61.95925457336627
 20
-32.84166567889568
 30
0.0
  0
VERTEX
  5
2BE
  8
LAYER_1
 10
62.12075404816996
 20
-32.86208066999988
 30
0.0
  0
VERTEX
  5
2BF
  8
LAYER_1
 10
62.30424828426737
 20
-32.90029750450208
 30
0.0
  0
VERTEX
  5
2C0
  8
LAYER_1
 10
62.51036842205998
 20
-32.9563644674074
 30
0.0
  0
VERTEX
  5
2C1
  8
LAYER_1
 10
62.73974560194927
 20
-33.03032984372098
 30
0.0
  0
VERTEX
  5
2C2
  8
LAYER_1
 10
62.99301096433671
 20
-33.12224191844791
 30
0.0
  0
VERTEX
  5
2C3
  8
LAYER_1
 10
63.27079564962377
 20
-33.23214897659334
 30
0.0
  0
VERTEX
  5
2C4
  8
LAYER_1
 10
63.9024475505027
 20
-33.50614118316011
 30
0.0
  0
VERTEX
  5
2C5
  8
LAYER_1
 10
64.23656607803682
 20
-33.64640662510477
 30
0.0
  0
VERTEX
  5
2C6
  8
LAYER_1
 10
64.59698549378408
 20
-33.77743701152973
 30
0.0
  0
VERTEX
  5
2C7
  8
LAYER_1
 10
64.97233400058835
 20
-33.89635204040176
 30
0.0
  0
VERTEX
  5
2C8
  8
LAYER_1
 10
65.3512398012935
 20
-34.00027140968766
 30
0.0
  0
VERTEX
  5
2C9
  8
LAYER_1
 10
65.72233109874338
 20
-34.08631481735422
 30
0.0
  0
VERTEX
  5
2CA
  8
LAYER_1
 10
66.07423609578186
 20
-34.15160196136821
 30
0.0
  0
VERTEX
  5
2CB
  8
LAYER_1
 10
66.39558299525277
 20
-34.19325253969643
 30
0.0
  0
VERTEX
  5
2CC
  8
LAYER_1
 10
66.67500000000001
 20
-34.20838625030565
 30
0.0
  0
VERTEX
  5
2CD
  8
LAYER_1
 10
66.95864424694001
 20
-34.1967923191206
 30
0.0
  0
VERTEX
  5
2CE
  8
LAYER_1
 10
67.25239501265742
 20
-34.16047372439103
 30
0.0
  0
VERTEX
  5
2CF
  8
LAYER_1
 10
67.55547667335853
 20
-34.10012599163345
 30
0.0
  0
VERTEX
  5
2D0
  8
LAYER_1
 10
67.86711360524971
 20
-34.01644464636433
 30
0.0
  0
VERTEX
  5
2D1
  8
LAYER_1
 10
68.1865301845373
 20
-33.91012521410018
 30
0.0
  0
VERTEX
  5
2D2
  8
LAYER_1
 10
68.51295078742763
 20
-33.78186322035749
 30
0.0
  0
VERTEX
  5
2D3
  8
LAYER_1
 10
68.84559979012707
 20
-33.63235419065273
 30
0.0
  0
VERTEX
  5
2D4
  8
LAYER_1
 10
69.18370156884191
 20
-33.4622936505024
 30
0.0
  0
VERTEX
  5
2D5
  8
LAYER_1
 10
69.52648049977853
 20
-33.27237712542299
 30
0.0
  0
VERTEX
  5
2D6
  8
LAYER_1
 10
69.87316095914323
 20
-33.06330014093099
 30
0.0
  0
VERTEX
  5
2D7
  8
LAYER_1
 10
70.22296732314243
 20
-32.83575822254289
 30
0.0
  0
VERTEX
  5
2D8
  8
LAYER_1
 10
70.57512396798239
 20
-32.59044689577518
 30
0.0
  0
VERTEX
  5
2D9
  8
LAYER_1
 10
70.9288552698695
 20
-32.32806168614435
 30
0.0
  0
VERTEX
  5
2DA
  8
LAYER_1
 10
71.28338560501007
 20
-32.04929811916689
 30
0.0
  0
VERTEX
  5
2DB
  8
LAYER_1
 10
71.63793934961046
 20
-31.75485172035929
 30
0.0
  0
VERTEX
  5
2DC
  8
LAYER_1
 10
71.991740879877
 20
-31.44541801523804
 30
0.0
  0
VERTEX
  5
2DD
  8
LAYER_1
 10
72.34401457201605
 20
-31.12169252931962
 30
0.0
  0
VERTEX
  5
2DE
  8
LAYER_1
 10
72.69398480223391
 20
-30.78437078812054
 30
0.0
  0
VERTEX
  5
2DF
  8
LAYER_1
 10
73.04087594673696
 20
-30.43414831715728
 30
0.0
  0
VERTEX
  5
2E0
  8
LAYER_1
 10
73.38391238173153
 20
-30.07172064194632
 30
0.0
  0
VERTEX
  5
2E1
  8
LAYER_1
 10
73.72231848342396
 20
-29.69778328800416
 30
0.0
  0
VERTEX
  5
2E2
  8
LAYER_1
 10
74.05531862802059
 20
-29.31303178084729
 30
0.0
  0
VERTEX
  5
2E3
  8
LAYER_1
 10
74.38213719172776
 20
-28.9181616459922
 30
0.0
  0
VERTEX
  5
2E4
  8
LAYER_1
 10
74.70199855075181
 20
-28.51386840895537
 30
0.0
  0
VERTEX
  5
2E5
  8
LAYER_1
 10
75.01412708129907
 20
-28.10084759525331
 30
0.0
  0
VERTEX
  5
2E6
  8
LAYER_1
 10
75.3177471595759
 20
-27.67979473040249
 30
0.0
  0
VERTEX
  5
2E7
  8
LAYER_1
 10
75.61208316178866
 20
-27.25140533991942
 30
0.0
  0
VERTEX
  5
2E8
  8
LAYER_1
 10
75.89635946414364
 20
-26.81637494932056
 30
0.0
  0
VERTEX
  5
2E9
  8
LAYER_1
 10
76.1698004428472
 20
-26.37539908412243
 30
0.0
  0
VERTEX
  5
2EA
  8
LAYER_1
 10
76.4316304741057
 20
-25.9291732698415
 30
0.0
  0
VERTEX
  5
2EB
  8
LAYER_1
 10
76.68107393412546
 20
-25.47839303199427
 30
0.0
  0
VERTEX
  5
2EC
  8
LAYER_1
 10
76.91735519911285
 20
-25.02375389609722
 30
0.0
  0
VERTEX
  5
2ED
  8
LAYER_1
 10
77.14869372209799
 20
-24.55217883724404
 30
0.0
  0
VERTEX
  5
2EE
  8
LAYER_1
 10
77.37432255861022
 20
-24.069579852925
 30
0.0
  0
VERTEX
  5
2EF
  8
LAYER_1
 10
77.59391213664202
 20
-23.57743926310363
 30
0.0
  0
VERTEX
  5
2F0
  8
LAYER_1
 10
77.80713288418583
 20
-23.07723938774352
 30
0.0
  0
VERTEX
  5
2F1
  8
LAYER_1
 10
78.01365522923415
 20
-22.57046254680823
 30
0.0
  0
VERTEX
  5
2F2
  8
LAYER_1
 10
78.21314959977943
 20
-22.05859106026132
 30
0.0
  0
VERTEX
  5
2F3
  8
LAYER_1
 10
78.40528642381413
 20
-21.54310724806634
 30
0.0
  0
VERTEX
  5
2F4
  8
LAYER_1
 10
78.58973612933073
 20
-21.02549343018688
 30
0.0
  0
VERTEX
  5
2F5
  8
LAYER_1
 10
78.76616914432168
 20
-20.50723192658648
 30
0.0
  0
VERTEX
  5
2F6
  8
LAYER_1
 10
78.93425589677948
 20
-19.9898050572287
 30
0.0
  0
VERTEX
  5
2F7
  8
LAYER_1
 10
79.24407232606539
 20
-18.96338450109531
 30
0.0
  0
VERTEX
  5
2F8
  8
LAYER_1
 10
79.38514285887847
 20
-18.45735545424682
 30
0.0
  0
VERTEX
  5
2F9
  8
LAYER_1
 10
79.51654884112821
 20
-17.9580903214952
 30
0.0
  0
VERTEX
  5
2FA
  8
LAYER_1
 10
79.63796070080713
 20
-17.46707142280404
 30
0.0
  0
VERTEX
  5
2FB
  8
LAYER_1
 10
79.74904886590767
 20
-16.98578107813688
 30
0.0
  0
VERTEX
  5
2FC
  8
LAYER_1
 10
79.84948376442229
 20
-16.5157016074573
 30
0.0
  0
VERTEX
  5
2FD
  8
LAYER_1
 10
79.93893582434347
 20
-16.05831533072885
 30
0.0
  0
VERTEX
  5
2FE
  8
LAYER_1
 10
80.0170754736637
 20
-15.61510456791511
 30
0.0
  0
VERTEX
  5
2FF
  8
LAYER_1
 10
80.08357314037539
 20
-15.18755163897963
 30
0.0
  0
VERTEX
  5
300
  8
LAYER_1
 10
80.13809925247104
 20
-14.77713886388597
 30
0.0
  0
VERTEX
  5
301
  8
LAYER_1
 10
80.18032423794311
 20
-14.3853485625977
 30
0.0
  0
VERTEX
  5
302
  8
LAYER_1
 10
80.20991852478406
 20
-14.01366305507839
 30
0.0
  0
VERTEX
  5
303
  8
LAYER_1
 10
80.22655254098639
 20
-13.66356466129159
 30
0.0
  0
VERTEX
  5
304
  8
LAYER_1
 10
80.22989671454253
 20
-13.33653570120088
 30
0.0
  0
VERTEX
  5
305
  8
LAYER_1
 10
80.21962147344496
 20
-13.0340584947698
 30
0.0
  0
VERTEX
  5
306
  8
LAYER_1
 10
80.19539724568614
 20
-12.75761536196193
 30
0.0
  0
VERTEX
  5
307
  8
LAYER_1
 10
80.15689445925854
 20
-12.50868862274083
 30
0.0
  0
VERTEX
  5
308
  8
LAYER_1
 10
80.10378354215462
 20
-12.28876059707006
 30
0.0
  0
VERTEX
  5
309
  8
LAYER_1
 10
80.03573492236686
 20
-12.09931360491319
 30
0.0
  0
VERTEX
  5
30A
  8
LAYER_1
 10
79.95241902788771
 20
-11.94182996623378
 30
0.0
  0
VERTEX
  5
30B
  8
LAYER_1
 10
79.90493286138653
 20
-11.87553762943673
 30
0.0
  0
VERTEX
  5
30C
  8
LAYER_1
 10
79.85350628670966
 20
-11.81779200099538
 30
0.0
  0
VERTEX
  5
30D
  8
LAYER_1
 10
79.74616121426769
 20
-11.72393064237879
 30
0.0
  0
VERTEX
  5
30E
  8
LAYER_1
 10
79.62220856373338
 20
-11.63874960953414
 30
0.0
  0
VERTEX
  5
30F
  8
LAYER_1
 10
79.48438236042193
 20
-11.56246364209697
 30
0.0
  0
VERTEX
  5
310
  8
LAYER_1
 10
79.3354166296485
 20
-11.49528747970278
 30
0.0
  0
VERTEX
  5
311
  8
LAYER_1
 10
79.17804539672832
 20
-11.43743586198711
 30
0.0
  0
VERTEX
  5
312
  8
LAYER_1
 10
79.01500268697656
 20
-11.38912352858547
 30
0.0
  0
VERTEX
  5
313
  8
LAYER_1
 10
78.84902252570839
 20
-11.35056521913339
 30
0.0
  0
VERTEX
  5
314
  8
LAYER_1
 10
78.68283893823904
 20
-11.32197567326638
 30
0.0
  0
VERTEX
  5
315
  8
LAYER_1
 10
78.41499167670092
 20
-11.29368161285644
 30
0.0
  0
VERTEX
  5
316
  8
LAYER_1
 10
78.14121602949092
 20
-11.28377991133654
 30
0.0
  0
VERTEX
  5
317
  8
LAYER_1
 10
77.86333212675908
 20
-11.29191754052054
 30
0.0
  0
VERTEX
  5
318
  8
LAYER_1
 10
77.58316009865547
 20
-11.31774147222232
 30
0.0
  0
VERTEX
  5
319
  8
LAYER_1
 10
77.30252007533014
 20
-11.36089867825573
 30
0.0
  0
VERTEX
  5
31A
  8
LAYER_1
 10
77.02323218693316
 20
-11.42103613043467
 30
0.0
  0
VERTEX
  5
31B
  8
LAYER_1
 10
76.74711656361458
 20
-11.49780080057298
 30
0.0
  0
VERTEX
  5
31C
  8
LAYER_1
 10
76.47599333552445
 20
-11.59083966048455
 30
0.0
  0
VERTEX
  5
31D
  8
LAYER_1
 10
76.21168263281285
 20
-11.69979968198325
 30
0.0
  0
VERTEX
  5
31E
  8
LAYER_1
 10
75.95600458562984
 20
-11.82432783688294
 30
0.0
  0
VERTEX
  5
31F
  8
LAYER_1
 10
75.71077932412547
 20
-11.9640710969975
 30
0.0
  0
VERTEX
  5
320
  8
LAYER_1
 10
75.4778269784498
 20
-12.11867643414079
 30
0.0
  0
VERTEX
  5
321
  8
LAYER_1
 10
75.25896767875288
 20
-12.28779082012668
 30
0.0
  0
VERTEX
  5
322
  8
LAYER_1
 10
75.05602155518478
 20
-12.47106122676906
 30
0.0
  0
VERTEX
  5
323
  8
LAYER_1
 10
74.87080873789557
 20
-12.66813462588178
 30
0.0
  0
VERTEX
  5
324
  8
LAYER_1
 10
74.7051493570353
 20
-12.87865798927871
 30
0.0
  0
VERTEX
  5
325
  8
LAYER_1
 10
74.5827754292001
 20
-13.0586683637086
 30
0.0
  0
VERTEX
  5
326
  8
LAYER_1
 10
74.4510385944771
 20
-13.2693653857865
 30
0.0
  0
VERTEX
  5
327
  8
LAYER_1
 10
74.1649566392829
 20
-13.77405936128641
 30
0.0
  0
VERTEX
  5
328
  8
LAYER_1
 10
73.85786436128305
 20
-14.37521989257858
 30
0.0
  0
VERTEX
  5
329
  8
LAYER_1
 10
73.54072263030795
 20
-15.05532695646313
 30
0.0
  0
VERTEX
  5
32A
  8
LAYER_1
 10
73.00964315127257
 20
-16.23206900159584
 30
0.0
  0
VERTEX
  5
32B
  8
LAYER_1
 10
72.54892589809614
 20
-17.22009416217085
 30
0.0
  0
VERTEX
  5
32C
  8
LAYER_1
 10
72.1455718042263
 20
-18.04194958020293
 30
0.0
  0
VERTEX
  5
32D
  8
LAYER_1
 10
71.78658180311052
 20
-18.72018239770685
 30
0.0
  0
VERTEX
  5
32E
  8
LAYER_1
 10
71.61966112903778
 20
-19.01248631314036
 30
0.0
  0
VERTEX
  5
32F
  8
LAYER_1
 10
71.45895682819639
 20
-19.27733975669737
 30
0.0
  0
VERTEX
  5
330
  8
LAYER_1
 10
71.30284401726732
 20
-19.51756112112971
 30
0.0
  0
VERTEX
  5
331
  8
LAYER_1
 10
71.14969781293149
 20
-19.73596879918924
 30
0.0
  0
VERTEX
  5
332
  8
LAYER_1
 10
70.99789333186985
 20
-19.9353811836278
 30
0.0
  0
VERTEX
  5
333
  8
LAYER_1
 10
70.84580569076334
 20
-20.11861666719724
 30
0.0
  0
VERTEX
  5
334
  8
LAYER_1
 10
70.69181000629291
 20
-20.28849364264939
 30
0.0
  0
VERTEX
  5
335
  8
LAYER_1
 10
70.5342813951395
 20
-20.44783050273611
 30
0.0
  0
VERTEX
  5
336
  8
LAYER_1
 10
70.406944429529
 20
-20.56385047054489
 30
0.0
  0
VERTEX
  5
337
  8
LAYER_1
 10
70.26370313602891
 20
-20.68041790265387
 30
0.0
  0
VERTEX
  5
338
  8
LAYER_1
 10
70.10702261006224
 20
-20.79523409137225
 30
0.0
  0
VERTEX
  5
339
  8
LAYER_1
 10
69.93936794705203
 20
-20.90600032900919
 30
0.0
  0
VERTEX
  5
33A
  8
LAYER_1
 10
69.76320424242132
 20
-21.01041790787386
 30
0.0
  0
VERTEX
  5
33B
  8
LAYER_1
 10
69.58099659159312
 20
-21.10618812027544
 30
0.0
  0
VERTEX
  5
33C
  8
LAYER_1
 10
69.39521008999046
 20
-21.19101225852311
 30
0.0
  0
VERTEX
  5
33D
  8
LAYER_1
 10
69.20830983303637
 20
-21.26259161492602
 30
0.0
  0
VERTEX
  5
33E
  8
LAYER_1
 10
69.02276091615389
 20
-21.31862748179337
 30
0.0
  0
VERTEX
  5
33F
  8
LAYER_1
 10
68.84102843476603
 20
-21.35682115143432
 30
0.0
  0
VERTEX
  5
340
  8
LAYER_1
 10
68.66557748429582
 20
-21.37487391615804
 30
0.0
  0
VERTEX
  5
341
  8
LAYER_1
 10
68.49887316016631
 20
-21.37048706827372
 30
0.0
  0
VERTEX
  5
342
  8
LAYER_1
 10
68.34338055780051
 20
-21.34136190009052
 30
0.0
  0
VERTEX
  5
343
  8
LAYER_1
 10
68.27060899459869
 20
-21.31680409973345
 30
0.0
  0
VERTEX
  5
344
  8
LAYER_1
 10
68.20156477262145
 20
-21.28519970391761
 30
0.0
  0
VERTEX
  5
345
  8
LAYER_1
 10
68.13655602879665
 20
-21.24626137418164
 30
0.0
  0
VERTEX
  5
346
  8
LAYER_1
 10
68.07589090005214
 20
-21.19970177206418
 30
0.0
  0
VERTEX
  5
347
  8
LAYER_1
 10
68.01987752331587
 20
-21.14523355910388
 30
0.0
  0
VERTEX
  5
348
  8
LAYER_1
 10
67.96882403551567
 20
-21.08256939683939
 30
0.0
  0
VERTEX
  5
349
  8
LAYER_1
 10
67.83897604245936
 20
-20.88786846114868
 30
0.0
  0
VERTEX
  5
34A
  8
LAYER_1
 10
67.71745290902454
 20
-20.67330455651299
 30
0.0
  0
VERTEX
  5
34B
  8
LAYER_1
 10
67.60411387918178
 20
-20.43845274575543
 30
0.0
  0
VERTEX
  5
34C
  8
LAYER_1
 10
67.49881819690162
 20
-20.18288809169913
 30
0.0
  0
VERTEX
  5
34D
  8
LAYER_1
 10
67.40142510615463
 20
-19.90618565716718
 30
0.0
  0
VERTEX
  5
34E
  8
LAYER_1
 10
67.31179385091137
 20
-19.6079205049827
 30
0.0
  0
VERTEX
  5
34F
  8
LAYER_1
 10
67.22978367514239
 20
-19.28766769796881
 30
0.0
  0
VERTEX
  5
350
  8
LAYER_1
 10
67.15525382281827
 20
-18.9450022989486
 30
0.0
  0
VERTEX
  5
351
  8
LAYER_1
 10
67.08806353790955
 20
-18.5794993707452
 30
0.0
  0
VERTEX
  5
352
  8
LAYER_1
 10
67.0280720643868
 20
-18.19073397618172
 30
0.0
  0
VERTEX
  5
353
  8
LAYER_1
 10
66.97513864622059
 20
-17.77828117808127
 30
0.0
  0
VERTEX
  5
354
  8
LAYER_1
 10
66.92912252738147
 20
-17.34171603926696
 30
0.0
  0
VERTEX
  5
355
  8
LAYER_1
 10
66.88988295183998
 20
-16.88061362256189
 30
0.0
  0
VERTEX
  5
356
  8
LAYER_1
 10
66.85727916356672
 20
-16.39454899078919
 30
0.0
  0
VERTEX
  5
357
  8
LAYER_1
 10
66.81141592470703
 20
-15.34583333333333
 30
0.0
  0
VERTEX
  5
358
  8
LAYER_1
 10
66.75363805859347
 20
-13.54231710290129
 30
0.0
  0
VERTEX
  5
359
  8
LAYER_1
 10
66.80103834808354
 20
-13.14660512032736
 30
0.0
  0
VERTEX
  5
35A
  8
LAYER_1
 10
66.83236319000821
 20
-12.77487497409717
 30
0.0
  0
VERTEX
  5
35B
  8
LAYER_1
 10
66.84841562182191
 20
-12.42721818531096
 30
0.0
  0
VERTEX
  5
35C
  8
LAYER_1
 10
66.84999868097906
 20
-12.10372627506895
 30
0.0
  0
VERTEX
  5
35D
  8
LAYER_1
 10
66.83791540493402
 20
-11.80449076447137
 30
0.0
  0
VERTEX
  5
35E
  8
LAYER_1
 10
66.8129688311412
 20
-11.52960317461846
 30
0.0
  0
VERTEX
  5
35F
  8
LAYER_1
 10
66.77596199705502
 20
-11.27915502661043
 30
0.0
  0
VERTEX
  5
360
  8
LAYER_1
 10
66.72769794012986
 20
-11.05323784154751
 30
0.0
  0
VERTEX
  5
361
  8
LAYER_1
 10
66.6689796978201
 20
-10.85194314052994
 30
0.0
  0
VERTEX
  5
362
  8
LAYER_1
 10
66.60061030758021
 20
-10.67536244465794
 30
0.0
  0
VERTEX
  5
363
  8
LAYER_1
 10
66.52339280686454
 20
-10.52358727503174
 30
0.0
  0
VERTEX
  5
364
  8
LAYER_1
 10
66.43813023312748
 20
-10.39670915275156
 30
0.0
  0
VERTEX
  5
365
  8
LAYER_1
 10
66.34562562382345
 20
-10.29481959891764
 30
0.0
  0
VERTEX
  5
366
  8
LAYER_1
 10
66.24668201640685
 20
-10.2180101346302
 30
0.0
  0
VERTEX
  5
367
  8
LAYER_1
 10
66.14210244833208
 20
-10.16637228098947
 30
0.0
  0
VERTEX
  5
368
  8
LAYER_1
 10
66.03268995705353
 20
-10.13999755909568
 30
0.0
  0
VERTEX
  5
369
  8
LAYER_1
 10
65.91924758002563
 20
-10.13897749004905
 30
0.0
  0
VERTEX
  5
36A
  8
LAYER_1
 10
65.80257835470275
 20
-10.16340359494982
 30
0.0
  0
VERTEX
  5
36B
  8
LAYER_1
 10
65.68348531853928
 20
-10.21336739489822
 30
0.0
  0
VERTEX
  5
36C
  8
LAYER_1
 10
65.56277150898967
 20
-10.28896041099446
 30
0.0
  0
VERTEX
  5
36D
  8
LAYER_1
 10
65.44123996350828
 20
-10.39027416433877
 30
0.0
  0
VERTEX
  5
36E
  8
LAYER_1
 10
65.31969371954952
 20
-10.5174001760314
 30
0.0
  0
VERTEX
  5
36F
  8
LAYER_1
 10
65.19893581456779
 20
-10.67042996717256
 30
0.0
  0
VERTEX
  5
370
  8
LAYER_1
 10
65.0797692860175
 20
-10.84945505886247
 30
0.0
  0
VERTEX
  5
371
  8
LAYER_1
 10
64.96299717135304
 20
-11.05456697220138
 30
0.0
  0
VERTEX
  5
372
  8
LAYER_1
 10
64.8494225080288
 20
-11.28585722828951
 30
0.0
  0
VERTEX
  5
373
  8
LAYER_1
 10
64.7398483334992
 20
-11.54341734822708
 30
0.0
  0
VERTEX
  5
374
  8
LAYER_1
 10
64.63507768521865
 20
-11.82733885311432
 30
0.0
  0
VERTEX
  5
375
  8
LAYER_1
 10
64.53591360064152
 20
-12.13771326405146
 30
0.0
  0
VERTEX
  5
376
  8
LAYER_1
 10
64.44315911722222
 20
-12.47463210213873
 30
0.0
  0
VERTEX
  5
377
  8
LAYER_1
 10
64.35761727241515
 20
-12.83818688847636
 30
0.0
  0
VERTEX
  5
378
  8
LAYER_1
 10
64.28009110367475
 20
-13.22846914416457
 30
0.0
  0
VERTEX
  5
379
  8
LAYER_1
 10
61.32505544417359
 20
-22.0486111111111
 30
0.0
  0
VERTEX
  5
37A
  8
LAYER_1
 10
60.20825913218255
 20
-23.8125
 30
0.0
  0
VERTEX
  5
37B
  8
LAYER_1
 10
59.9806657651889
 20
-24.15901752460398
 30
0.0
  0
VERTEX
  5
37C
  8
LAYER_1
 10
59.73264768720606
 20
-24.51351460738964
 30
0.0
  0
VERTEX
  5
37D
  8
LAYER_1
 10
59.47125325805056
 20
-24.86728255208347
 30
0.0
  0
VERTEX
  5
37E
  8
LAYER_1
 10
59.20353083753895
 20
-25.21161266241194
 30
0.0
  0
VERTEX
  5
37F
  8
LAYER_1
 10
58.76391013310955
 20
-25.77214332803126
 30
0.0
  0
VERTEX
  5
380
  8
LAYER_1
 10
58.31281162696835
 20
-26.3463941958972
 30
0.0
  0
VERTEX
  5
381
  8
LAYER_1
 10
58.0809531456442
 20
-26.6321387741106
 30
0.0
  0
VERTEX
  5
382
  8
LAYER_1
 10
57.84381915075815
 20
-26.91348228501121
 30
0.0
  0
VERTEX
  5
383
  8
LAYER_1
 10
57.60060762126553
 20
-27.18781435597419
 30
0.0
  0
VERTEX
  5
384
  8
LAYER_1
 10
57.35051653612171
 20
-27.45252461437474
 30
0.0
  0
VERTEX
  5
385
  8
LAYER_1
 10
57.09274387428203
 20
-27.70500268758802
 30
0.0
  0
VERTEX
  5
386
  8
LAYER_1
 10
56.82648761470182
 20
-27.94263820298923
 30
0.0
  0
VERTEX
  5
387
  8
LAYER_1
 10
56.55094573633644
 20
-28.16282078795355
 30
0.0
  0
VERTEX
  5
388
  8
LAYER_1
 10
56.26531621814124
 20
-28.36294006985615
 30
0.0
  0
VERTEX
  5
389
  8
LAYER_1
 10
55.96879703907157
 20
-28.54038567607222
 30
0.0
  0
VERTEX
  5
38A
  8
LAYER_1
 10
55.66058617808277
 20
-28.69254723397694
 30
0.0
  0
VERTEX
  5
38B
  8
LAYER_1
 10
55.50184573529224
 20
-28.75833075336729
 30
0.0
  0
VERTEX
  5
38C
  8
LAYER_1
 10
55.33988161413019
 20
-28.81681437094549
 30
0.0
  0
VERTEX
  5
38D
  8
LAYER_1
 10
55.17459356196602
 20
-28.86767179013345
 30
0.0
  0
VERTEX
  5
38E
  8
LAYER_1
 10
55.00588132616917
 20
-28.91057671435306
 30
0.0
  0
VERTEX
  5
38F
  8
LAYER_1
 10
54.64108348903616
 20
-28.9857936932432
 30
0.0
  0
VERTEX
  5
390
  8
LAYER_1
 10
54.2820928257883
 20
-29.04322111934241
 30
0.0
  0
VERTEX
  5
391
  8
LAYER_1
 10
53.93520292287103
 20
-29.08031051938811
 30
0.0
  0
VERTEX
  5
392
  8
LAYER_1
 10
53.60670736672984
 20
-29.09451342011775
 30
0.0
  0
VERTEX
  5
393
  8
LAYER_1
 10
53.29965633163587
 20
-29.08854757834447
 30
0.0
  0
VERTEX
  5
394
  8
LAYER_1
 10
53.00135507853476
 20
-29.06703008732468
 30
0.0
  0
VERTEX
  5
395
  8
LAYER_1
 10
52.71193920961385
 20
-29.03015633922607
 30
0.0
  0
VERTEX
  5
396
  8
LAYER_1
 10
52.4315443270605
 20
-28.97812172621629
 30
0.0
  0
VERTEX
  5
397
  8
LAYER_1
 10
52.16030603306207
 20
-28.91112164046302
 30
0.0
  0
VERTEX
  5
398
  8
LAYER_1
 10
51.89835992980592
 20
-28.82935147413394
 30
0.0
  0
VERTEX
  5
399
  8
LAYER_1
 10
51.6458416194794
 20
-28.73300661939671
 30
0.0
  0
VERTEX
  5
39A
  8
LAYER_1
 10
51.40288670426989
 20
-28.62228246841899
 30
0.0
  0
VERTEX
  5
39B
  8
LAYER_1
 10
51.16963078636472
 20
-28.49737441336848
 30
0.0
  0
VERTEX
  5
39C
  8
LAYER_1
 10
50.94620946795126
 20
-28.35847784641282
 30
0.0
  0
VERTEX
  5
39D
  8
LAYER_1
 10
50.73275835121686
 20
-28.20578815971969
 30
0.0
  0
VERTEX
  5
39E
  8
LAYER_1
 10
50.52941303834889
 20
-28.03950074545676
 30
0.0
  0
VERTEX
  5
39F
  8
LAYER_1
 10
50.3363091315347
 20
-27.85981099579171
 30
0.0
  0
VERTEX
  5
3A0
  8
LAYER_1
 10
50.15358223296164
 20
-27.6669143028922
 30
0.0
  0
VERTEX
  5
3A1
  8
LAYER_1
 10
49.98136794481708
 20
-27.46100605892591
 30
0.0
  0
VERTEX
  5
3A2
  8
LAYER_1
 10
49.81980186928838
 20
-27.2422816560605
 30
0.0
  0
VERTEX
  5
3A3
  8
LAYER_1
 10
49.66901960856288
 20
-27.01093648646364
 30
0.0
  0
VERTEX
  5
3A4
  8
LAYER_1
 10
49.52915676482795
 20
-26.76716594230301
 30
0.0
  0
VERTEX
  5
3A5
  8
LAYER_1
 10
49.40034894027094
 20
-26.51116541574627
 30
0.0
  0
VERTEX
  5
3A6
  8
LAYER_1
 10
49.28273173707922
 20
-26.2431302989611
 30
0.0
  0
VERTEX
  5
3A7
  8
LAYER_1
 10
49.17644075744015
 20
-25.96325598411516
 30
0.0
  0
VERTEX
  5
3A8
  8
LAYER_1
 10
49.08161160354106
 20
-25.67173786337613
 30
0.0
  0
VERTEX
  5
3A9
  8
LAYER_1
 10
48.99837987756933
 20
-25.36877132891168
 30
0.0
  0
VERTEX
  5
3AA
  8
LAYER_1
 10
48.92688118171231
 20
-25.05455177288947
 30
0.0
  0
VERTEX
  5
3AB
  8
LAYER_1
 10
48.86725111815736
 20
-24.72927458747718
 30
0.0
  0
VERTEX
  5
3AC
  8
LAYER_1
 10
48.81962528909184
 20
-24.39313516484248
 30
0.0
  0
VERTEX
  5
3AD
  8
LAYER_1
 10
48.7841392967031
 20
-24.04632889715302
 30
0.0
  0
VERTEX
  5
3AE
  8
LAYER_1
 10
48.76092874317851
 20
-23.68905117657651
 30
0.0
  0
VERTEX
  5
3AF
  8
LAYER_1
 10
48.75012923070542
 20
-23.32149739528058
 30
0.0
  0
VERTEX
  5
3B0
  8
LAYER_1
 10
48.75187636147118
 20
-22.94386294543293
 30
0.0
  0
VERTEX
  5
3B1
  8
LAYER_1
 10
48.76630573766317
 20
-22.55634321920121
 30
0.0
  0
VERTEX
  5
3B2
  8
LAYER_1
 10
48.79355296146872
 20
-22.15913360875311
 30
0.0
  0
VERTEX
  5
3B3
  8
LAYER_1
 10
48.82785023449255
 20
-21.67630547834028
 30
0.0
  0
VERTEX
  5
3B4
  8
LAYER_1
 10
48.8478973940043
 20
-21.22586931778499
 30
0.0
  0
VERTEX
  5
3B5
  8
LAYER_1
 10
48.8541101205753
 20
-20.81768355269607
 30
0.0
  0
VERTEX
  5
3B6
  8
LAYER_1
 10
48.84690409477687
 20
-20.46160660868233
 30
0.0
  0
VERTEX
  5
3B7
  8
LAYER_1
 10
48.82669499718036
 20
-20.16749691135259
 30
0.0
  0
VERTEX
  5
3B8
  8
LAYER_1
 10
48.7938985083571
 20
-19.94521288631567
 30
0.0
  0
VERTEX
  5
3B9
  8
LAYER_1
 10
48.77290989241396
 20
-19.86408625890977
 30
0.0
  0
VERTEX
  5
3BA
  8
LAYER_1
 10
48.7489303088784
 20
-19.80461295918038
 30
0.0
  0
VERTEX
  5
3BB
  8
LAYER_1
 10
48.72201171782181
 20
-19.7680252903286
 30
0.0
  0
VERTEX
  5
3BC
  8
LAYER_1
 10
48.69220607931561
 20
-19.75555555555555
 30
0.0
  0
VERTEX
  5
3BD
  8
LAYER_1
 10
48.62896897016085
 20
-19.76150146803557
 30
0.0
  0
VERTEX
  5
3BE
  8
LAYER_1
 10
48.56533467079895
 20
-19.77854262389936
 30
0.0
  0
VERTEX
  5
3BF
  8
LAYER_1
 10
48.50302767014029
 20
-19.8054841507825
 30
0.0
  0
VERTEX
  5
3C0
  8
LAYER_1
 10
48.44377245709526
 20
-19.84113117632062
 30
0.0
  0
VERTEX
  5
3C1
  8
LAYER_1
 10
48.38929352057427
 20
-19.88428882814928
 30
0.0
  0
VERTEX
  5
3C2
  8
LAYER_1
 10
48.34131534948768
 20
-19.93376223390409
 30
0.0
  0
VERTEX
  5
3C3
  8
LAYER_1
 10
48.30156243274589
 20
-19.98835652122063
 30
0.0
  0
VERTEX
  5
3C4
  8
LAYER_1
 10
48.27175925925928
 20
-20.04687681773451
 30
0.0
  0
VERTEX
  5
3C5
  8
LAYER_1
 10
48.24422361585831
 20
-20.0870420276977
 30
0.0
  0
VERTEX
  5
3C6
  8
LAYER_1
 10
48.18693526656541
 20
-20.1466620352194
 30
0.0
  0
VERTEX
  5
3C7
  8
LAYER_1
 10
47.98949110243056
 20
-20.31952277067773
 30
0.0
  0
VERTEX
  5
3C8
  8
LAYER_1
 10
47.69220807110821
 20
-20.55597167958824
 30
0.0
  0
VERTEX
  5
3C9
  8
LAYER_1
 10
47.30786747685185
 20
-20.84652141742967
 30
0.0
  0
VERTEX
  5
3CA
  8
LAYER_1
 10
46.84925062391493
 20
-21.18168463968078
 30
0.0
  0
VERTEX
  5
3CB
  8
LAYER_1
 10
46.32913881655093
 20
-21.55197400182029
 30
0.0
  0
VERTEX
  5
3CC
  8
LAYER_1
 10
45.15555555555557
 20
-22.3599817676795
 30
0.0
  0
VERTEX
  5
3CD
  8
LAYER_1
 10
41.87610719063656
 20
-24.58585085119134
 30
0.0
  0
VERTEX
  5
3CE
  8
LAYER_1
 10
40.44522586488112
 20
-25.56909765862373
 30
0.0
  0
VERTEX
  5
3CF
  8
LAYER_1
 10
39.15104484752939
 20
-26.46765483476905
 30
0.0
  0
VERTEX
  5
3D0
  8
LAYER_1
 10
37.99166794153216
 20
-27.28284902332375
 30
0.0
  0
VERTEX
  5
3D1
  8
LAYER_1
 10
36.96519894984014
 20
-28.01600686798429
 30
0.0
  0
VERTEX
  5
3D2
  8
LAYER_1
 10
36.06974167540413
 20
-28.66845501244713
 30
0.0
  0
VERTEX
  5
3D3
  8
LAYER_1
 10
35.30339992117487
 20
-29.24152010040872
 30
0.0
  0
VERTEX
  5
3D4
  8
LAYER_1
 10
34.73368129451381
 20
-29.66421000612236
 30
0.0
  0
VERTEX
  5
3D5
  8
LAYER_1
 10
34.15522127388886
 20
-30.0749142788944
 30
0.0
  0
VERTEX
  5
3D6
  8
LAYER_1
 10
33.5693837975811
 20
-30.47549214558758
 30
0.0
  0
VERTEX
  5
3D7
  8
LAYER_1
 10
32.97753280387167
 20
-30.86780283306466
 30
0.0
  0
VERTEX
  5
3D8
  8
LAYER_1
 10
31.78124601737218
 20
-31.63505957782149
 30
0.0
  0
VERTEX
  5
3D9
  8
LAYER_1
 10
30.57727242063926
 20
-32.39155832806686
 30
0.0
  0
VERTEX
  5
3DA
  8
LAYER_1
 10
29.37652351992179
 20
-33.15217289870274
 30
0.0
  0
VERTEX
  5
3DB
  8
LAYER_1
 10
28.78076817627161
 20
-33.53867168382399
 30
0.0
  0
VERTEX
  5
3DC
  8
LAYER_1
 10
28.18991082146863
 20
-33.93177710463111
 30
0.0
  0
VERTEX
  5
3DD
  8
LAYER_1
 10
27.60531539379394
 20
-34.33334838798685
 30
0.0
  0
VERTEX
  5
3DE
  8
LAYER_1
 10
27.02834583152866
 20
-34.74524476075393
 30
0.0
  0
VERTEX
  5
3DF
  8
LAYER_1
 10
26.4603660729539
 20
-35.16932544979514
 30
0.0
  0
VERTEX
  5
3E0
  8
LAYER_1
 10
25.90274005635077
 20
-35.6074496819732
 30
0.0
  0
VERTEX
  5
3E1
  8
LAYER_1
 10
25.55628870179363
 20
-35.87338429171394
 30
0.0
  0
VERTEX
  5
3E2
  8
LAYER_1
 10
25.18720512223229
 20
-36.13175390429967
 30
0.0
  0
VERTEX
  5
3E3
  8
LAYER_1
 10
24.80956381372452
 20
-36.37396137735732
 30
0.0
  0
VERTEX
  5
3E4
  8
LAYER_1
 10
24.43743927232806
 20
-36.59140956851381
 30
0.0
  0
VERTEX
  5
3E5
  8
LAYER_1
 10
24.08490599410064
 20
-36.77550133539607
 30
0.0
  0
VERTEX
  5
3E6
  8
LAYER_1
 10
23.76603847510004
 20
-36.91763953563101
 30
0.0
  0
VERTEX
  5
3E7
  8
LAYER_1
 10
23.62362765532783
 20
-36.97028944126415
 30
0.0
  0
VERTEX
  5
3E8
  8
LAYER_1
 10
23.49491121138398
 20
-37.00922702684556
 30
0.0
  0
VERTEX
  5
3E9
  8
LAYER_1
 10
23.3816484552757
 20
-37.03337764957861
 30
0.0
  0
VERTEX
  5
3EA
  8
LAYER_1
 10
23.28559869901022
 20
-37.04166666666666
 30
0.0
  0
VERTEX
  5
3EB
  8
LAYER_1
 10
23.23699241855183
 20
-37.03166988810936
 30
0.0
  0
VERTEX
  5
3EC
  8
LAYER_1
 10
23.18690585914815
 20
-37.00196175230193
 30
0.0
  0
VERTEX
  5
3ED
  8
LAYER_1
 10
23.13540291792239
 20
-36.95296555904114
 30
0.0
  0
VERTEX
  5
3EE
  8
LAYER_1
 10
23.08254749199774
 20
-36.88510460812373
 30
0.0
  0
VERTEX
  5
3EF
  8
LAYER_1
 10
23.02840347849739
 20
-36.79880219934645
 30
0.0
  0
VERTEX
  5
3F0
  8
LAYER_1
 10
22.97303477454455
 20
-36.69448163250603
 30
0.0
  0
VERTEX
  5
3F1
  8
LAYER_1
 10
22.85887888377419
 20
-36.43347922382277
 30
0.0
  0
VERTEX
  5
3F2
  8
LAYER_1
 10
22.74059099667224
 20
-36.10548378044793
 30
0.0
  0
VERTEX
  5
3F3
  8
LAYER_1
 10
22.61868229022429
 20
-35.71388170075546
 30
0.0
  0
VERTEX
  5
3F4
  8
LAYER_1
 10
22.49366394141592
 20
-35.26205938311933
 30
0.0
  0
VERTEX
  5
3F5
  8
LAYER_1
 10
22.36604712723274
 20
-34.7534032259135
 30
0.0
  0
VERTEX
  5
3F6
  8
LAYER_1
 10
22.23634302466031
 20
-34.19129962751193
 30
0.0
  0
VERTEX
  5
3F7
  8
LAYER_1
 10
22.10506281068422
 20
-33.57913498628858
 30
0.0
  0
VERTEX
  5
3F8
  8
LAYER_1
 10
21.97271766229008
 20
-32.92029570061742
 30
0.0
  0
VERTEX
  5
3F9
  8
LAYER_1
 10
21.83981875646346
 20
-32.2181681688724
 30
0.0
  0
VERTEX
  5
3FA
  8
LAYER_1
 10
21.57440438045514
 20
-30.69759396065665
 30
0.0
  0
VERTEX
  5
3FB
  8
LAYER_1
 10
21.31290909854395
 20
-29.04450354863303
 30
0.0
  0
VERTEX
  5
3FC
  8
LAYER_1
 10
21.05942232661461
 20
-27.28598811979323
 30
0.0
  0
VERTEX
  5
3FD
  8
LAYER_1
 10
20.81803348055181
 20
-25.44913886112895
 30
0.0
  0
VERTEX
  5
3FE
  8
LAYER_1
 10
20.59283197624026
 20
-23.56104695963189
 30
0.0
  0
VERTEX
  5
3FF
  8
LAYER_1
 10
20.38790722956464
 20
-21.64880360229373
 30
0.0
  0
VERTEX
  5
400
  8
LAYER_1
 10
20.20734865640966
 20
-19.73949997610617
 30
0.0
  0
VERTEX
  5
401
  8
LAYER_1
 10
20.05524567266002
 20
-17.86022726806091
 30
0.0
  0
VERTEX
  5
402
  8
LAYER_1
 10
19.99114296927618
 20
-16.94031850427655
 30
0.0
  0
VERTEX
  5
403
  8
LAYER_1
 10
19.93568769420043
 20
-16.03807666514965
 30
0.0
  0
VERTEX
  5
404
  8
LAYER_1
 10
19.88939102441836
 20
-15.15688814905417
 30
0.0
  0
VERTEX
  5
405
  8
LAYER_1
 10
19.85276413691557
 20
-14.30013935436408
 30
0.0
  0
VERTEX
  5
406
  8
LAYER_1
 10
19.65483754842768
 20
-9.021112042061489
 30
0.0
  0
VERTEX
  5
407
  8
LAYER_1
 10
21.36455863196389
 20
-11.12018822109192
 30
0.0
  0
VERTEX
  5
408
  8
LAYER_1
 10
21.94361877216529
 20
-11.8154513910186
 30
0.0
  0
VERTEX
  5
409
  8
LAYER_1
 10
22.50427822299159
 20
-12.45602238756948
 30
0.0
  0
VERTEX
  5
40A
  8
LAYER_1
 10
23.05116942224578
 20
-13.04643628317626
 30
0.0
  0
VERTEX
  5
40B
  8
LAYER_1
 10
23.58892480773086
 20
-13.59122815027064
 30
0.0
  0
VERTEX
  5
40C
  8
LAYER_1
 10
24.12217681724984
 20
-14.09493306128432
 30
0.0
  0
VERTEX
  5
40D
  8
LAYER_1
 10
24.6555578886057
 20
-14.56208608864899
 30
0.0
  0
VERTEX
  5
40E
  8
LAYER_1
 10
25.19370045960145
 20
-14.99722230479636
 30
0.0
  0
VERTEX
  5
40F
  8
LAYER_1
 10
25.74123696804008
 20
-15.40487678215813
 30
0.0
  0
VERTEX
  5
410
  8
LAYER_1
 10
25.88262604229225
 20
-15.49239323932947
 30
0.0
  0
VERTEX
  5
411
  8
LAYER_1
 10
26.06389034844772
 20
-15.58329852393635
 30
0.0
  0
VERTEX
  5
412
  8
LAYER_1
 10
26.27753306299417
 20
-15.67494088957837
 30
0.0
  0
VERTEX
  5
413
  8
LAYER_1
 10
26.51605736241931
 20
-15.76466858985514
 30
0.0
  0
VERTEX
  5
414
  8
LAYER_1
 10
26.77196642321081
 20
-15.84982987836625
 30
0.0
  0
VERTEX
  5
415
  8
LAYER_1
 10
27.03776342185637
 20
-15.92777300871132
 30
0.0
  0
VERTEX
  5
416
  8
LAYER_1
 10
27.30595153484368
 20
-15.99584623448996
 30
0.0
  0
VERTEX
  5
417
  8
LAYER_1
 10
27.56903393866043
 20
-16.05139780930176
 30
0.0
  0
VERTEX
  5
418
  8
LAYER_1
 10
28.82009143228808
 20
-16.28609760984281
 30
0.0
  0
VERTEX
  5
419
  8
LAYER_1
 10
29.06518014256815
 20
-12.46457658269918
 30
0.0
  0
VERTEX
  5
41A
  8
LAYER_1
 10
29.14780571491812
 20
-11.25976987422869
 30
0.0
  0
VERTEX
  5
41B
  8
LAYER_1
 10
29.1892191612532
 20
-10.75214769407664
 30
0.0
  0
VERTEX
  5
41C
  8
LAYER_1
 10
29.23324733901508
 20
-10.29795165219669
 30
0.0
  0
VERTEX
  5
41D
  8
LAYER_1
 10
29.28180096669384
 20
-9.889860765251301
 30
0.0
  0
VERTEX
  5
41E
  8
LAYER_1
 10
29.33679076277952
 20
-9.520554049902948
 30
0.0
  0
VERTEX
  5
41F
  8
LAYER_1
 10
29.40012744576219
 20
-9.182710522814103
 30
0.0
  0
VERTEX
  5
420
  8
LAYER_1
 10
29.47372173413192
 20
-8.869009200647234
 30
0.0
  0
VERTEX
  5
421
  8
LAYER_1
 10
29.55948434637875
 20
-8.572129100064814
 30
0.0
  0
VERTEX
  5
422
  8
LAYER_1
 10
29.65932600099276
 20
-8.284749237729313
 30
0.0
  0
VERTEX
  5
423
  8
LAYER_1
 10
29.77515741646399
 20
-7.999548630303204
 30
0.0
  0
VERTEX
  5
424
  8
LAYER_1
 10
29.90888931128251
 20
-7.709206294448954
 30
0.0
  0
VERTEX
  5
425
  8
LAYER_1
 10
30.06243240393838
 20
-7.406401246829039
 30
0.0
  0
VERTEX
  5
426
  8
LAYER_1
 10
30.23769741292166
 20
-7.083812504105926
 30
0.0
  0
VERTEX
  5
427
  8
LAYER_1
 10
30.66103605383068
 20
-6.349999999999994
 30
0.0
  0
VERTEX
  5
428
  8
LAYER_1
 10
31.15073016302019
 20
-5.491526976665816
 30
0.0
  0
VERTEX
  5
429
  8
LAYER_1
 10
31.62260331212407
 20
-4.609482867180171
 30
0.0
  0
VERTEX
  5
42A
  8
LAYER_1
 10
32.07646306361747
 20
-3.70497092107936
 30
0.0
  0
VERTEX
  5
42B
  8
LAYER_1
 10
32.51211697997552
 20
-2.77909438789968
 30
0.0
  0
VERTEX
  5
42C
  8
LAYER_1
 10
32.92937262367339
 20
-1.832956517177432
 30
0.0
  0
VERTEX
  5
42D
  8
LAYER_1
 10
33.32803755718625
 20
-0.8676605584489125
 30
0.0
  0
VERTEX
  5
42E
  8
LAYER_1
 10
33.70791934298923
 20
0.1156902387495776
 30
0.0
  0
VERTEX
  5
42F
  8
LAYER_1
 10
34.06882554355747
 20
1.11599262488174
 30
0.0
  0
VERTEX
  5
430
  8
LAYER_1
 10
34.41056372136615
 20
2.132143350411275
 30
0.0
  0
VERTEX
  5
431
  8
LAYER_1
 10
34.73294143889039
 20
3.163039165801884
 30
0.0
  0
VERTEX
  5
432
  8
LAYER_1
 10
35.03576625860538
 20
4.207576821517268
 30
0.0
  0
VERTEX
  5
433
  8
LAYER_1
 10
35.31884574298623
 20
5.264653068021128
 30
0.0
  0
VERTEX
  5
434
  8
LAYER_1
 10
35.58198745450811
 20
6.333164655777166
 30
0.0
  0
VERTEX
  5
435
  8
LAYER_1
 10
35.82499895564618
 20
7.412008335249081
 30
0.0
  0
VERTEX
  5
436
  8
LAYER_1
 10
36.04768780887558
 20
8.500080856900574
 30
0.0
  0
VERTEX
  5
437
  8
LAYER_1
 10
36.24986157667146
 20
9.596278971195348
 30
0.0
  0
VERTEX
  5
438
  8
LAYER_1
 10
36.43132782150899
 20
10.6994994285971
 30
0.0
  0
VERTEX
  5
439
  8
LAYER_1
 10
36.59189410586329
 20
11.80863897956954
 30
0.0
  0
VERTEX
  5
43A
  8
LAYER_1
 10
36.73136799220953
 20
12.92259437457636
 30
0.0
  0
VERTEX
  5
43B
  8
LAYER_1
 10
36.84955704302287
 20
14.04026236408126
 30
0.0
  0
VERTEX
  5
43C
  8
LAYER_1
 10
36.94626882077844
 20
15.16053969854795
 30
0.0
  0
VERTEX
  5
43D
  8
LAYER_1
 10
37.0213108879514
 20
16.28232312844012
 30
0.0
  0
VERTEX
  5
43E
  8
LAYER_1
 10
37.07449080701691
 20
17.40450940422148
 30
0.0
  0
VERTEX
  5
43F
  8
LAYER_1
 10
37.10561614045012
 20
18.52599527635573
 30
0.0
  0
VERTEX
  5
440
  8
LAYER_1
 10
37.11449445072616
 20
19.64567749530656
 30
0.0
  0
VERTEX
  5
441
  8
LAYER_1
 10
37.10093330032021
 20
20.76245281153769
 30
0.0
  0
VERTEX
  5
442
  8
LAYER_1
 10
37.06474025170741
 20
21.8752179755128
 30
0.0
  0
VERTEX
  5
443
  8
LAYER_1
 10
37.00572286736289
 20
22.98286973769562
 30
0.0
  0
VERTEX
  5
444
  8
LAYER_1
 10
36.92368870976183
 20
24.08430484854982
 30
0.0
  0
VERTEX
  5
445
  8
LAYER_1
 10
36.81844534137939
 20
25.17842005853911
 30
0.0
  0
VERTEX
  5
446
  8
LAYER_1
 10
36.68980032469069
 20
26.2641121181272
 30
0.0
  0
VERTEX
  5
447
  8
LAYER_1
 10
36.53756122217089
 20
27.34027777777779
 30
0.0
  0
VERTEX
  5
448
  8
LAYER_1
 10
36.41428912882743
 20
28.11766739322784
 30
0.0
  0
VERTEX
  5
449
  8
LAYER_1
 10
36.2833590753166
 20
28.89081410068706
 30
0.0
  0
VERTEX
  5
44A
  8
LAYER_1
 10
36.1448206514904
 20
29.65957205857886
 30
0.0
  0
VERTEX
  5
44B
  8
LAYER_1
 10
35.99872344720082
 20
30.42379542532667
 30
0.0
  0
VERTEX
  5
44C
  8
LAYER_1
 10
35.84511705229986
 20
31.1833383593539
 30
0.0
  0
VERTEX
  5
44D
  8
LAYER_1
 10
35.68405105663953
 20
31.93805501908397
 30
0.0
  0
VERTEX
  5
44E
  8
LAYER_1
 10
35.51557505007181
 20
32.68779956294031
 30
0.0
  0
VERTEX
  5
44F
  8
LAYER_1
 10
35.33973862244872
 20
33.43242614934633
 30
0.0
  0
VERTEX
  5
450
  8
LAYER_1
 10
35.15659136362225
 20
34.17178893672546
 30
0.0
  0
VERTEX
  5
451
  8
LAYER_1
 10
34.96618286344439
 20
34.90574208350112
 30
0.0
  0
VERTEX
  5
452
  8
LAYER_1
 10
34.76856271176716
 20
35.63413974809671
 30
0.0
  0
VERTEX
  5
453
  8
LAYER_1
 10
34.56378049844255
 20
36.35683608893568
 30
0.0
  0
VERTEX
  5
454
  8
LAYER_1
 10
34.35188581332255
 20
37.07368526444144
 30
0.0
  0
VERTEX
  5
455
  8
LAYER_1
 10
34.13292824625917
 20
37.78454143303739
 30
0.0
  0
VERTEX
  5
456
  8
LAYER_1
 10
33.9069573871044
 20
38.48925875314697
 30
0.0
  0
VERTEX
  5
457
  8
LAYER_1
 10
33.67402282571025
 20
39.1876913831936
 30
0.0
  0
VERTEX
  5
458
  8
LAYER_1
 10
33.43417415192872
 20
39.8796934816007
 30
0.0
  0
VERTEX
  5
459
  8
LAYER_1
 10
33.18746095561178
 20
40.56511920679169
 30
0.0
  0
VERTEX
  5
45A
  8
LAYER_1
 10
32.93393282661147
 20
41.24382271718998
 30
0.0
  0
VERTEX
  5
45B
  8
LAYER_1
 10
32.67363935477978
 20
41.91565817121899
 30
0.0
  0
VERTEX
  5
45C
  8
LAYER_1
 10
32.40663012996869
 20
42.58047972730215
 30
0.0
  0
VERTEX
  5
45D
  8
LAYER_1
 10
32.13295474203021
 20
43.23814154386289
 30
0.0
  0
VERTEX
  5
45E
  8
LAYER_1
 10
31.85266278081633
 20
43.88849777932461
 30
0.0
  0
VERTEX
  5
45F
  8
LAYER_1
 10
31.56580383617906
 20
44.53140259211074
 30
0.0
  0
VERTEX
  5
460
  8
LAYER_1
 10
31.27242749797041
 20
45.1667101406447
 30
0.0
  0
VERTEX
  5
461
  8
LAYER_1
 10
30.97258335604236
 20
45.7942745833499
 30
0.0
  0
VERTEX
  5
462
  8
LAYER_1
 10
30.66632100024691
 20
46.41395007864978
 30
0.0
  0
VERTEX
  5
463
  8
LAYER_1
 10
30.35369002043607
 20
47.02559078496774
 30
0.0
  0
VERTEX
  5
464
  8
LAYER_1
 10
30.03474000646183
 20
47.62905086072721
 30
0.0
  0
VERTEX
  5
465
  8
LAYER_1
 10
29.70952054817619
 20
48.22418446435161
 30
0.0
  0
VERTEX
  5
466
  8
LAYER_1
 10
29.37808123543116
 20
48.81084575426436
 30
0.0
  0
VERTEX
  5
467
  8
LAYER_1
 10
29.04047165807873
 20
49.38888888888889
 30
0.0
  0
VERTEX
  5
468
  8
LAYER_1
 10
28.35706222114591
 20
50.52977420499529
 30
0.0
  0
VERTEX
  5
469
  8
LAYER_1
 10
27.7636809846772
 20
51.49761123463023
 30
0.0
  0
VERTEX
  5
46A
  8
LAYER_1
 10
27.25260596626507
 20
52.30306419735809
 30
0.0
  0
VERTEX
  5
46B
  8
LAYER_1
 10
26.81611518350196
 20
52.95679731274325
 30
0.0
  0
VERTEX
  5
46C
  8
LAYER_1
 10
26.21861069407301
 20
53.80028061292323
 30
0.0
  0
VERTEX
  5
46D
  8
LAYER_1
 10
25.60905642912324
 20
54.63535606184322
 30
0.0
  0
VERTEX
  5
46E
  8
LAYER_1
 10
24.99902702294079
 20
55.47010239759561
 30
0.0
  0
VERTEX
  5
46F
  8
LAYER_1
 10
24.40009710981382
 20
56.31259835827283
 30
0.0
  0
VERTEX
  5
470
  8
LAYER_1
 10
24.12247502858488
 20
56.70305455724322
 30
0.0
  0
VERTEX
  5
471
  8
LAYER_1
 10
23.81985840647644
 20
57.11154018351228
 30
0.0
  0
VERTEX
  5
472
  8
LAYER_1
 10
23.49770277588395
 20
57.5314177609503
 30
0.0
  0
VERTEX
  5
473
  8
LAYER_1
 10
23.16146366920287
 20
57.95604981342758
 30
0.0
  0
VERTEX
  5
474
  8
LAYER_1
 10
22.81659661882865
 20
58.37879886481443
 30
0.0
  0
VERTEX
  5
475
  8
LAYER_1
 10
22.46855715715673
 20
58.79302743898113
 30
0.0
  0
VERTEX
  5
476
  8
LAYER_1
 10
22.12280081658258
 20
59.19209805979799
 30
0.0
  0
VERTEX
  5
477
  8
LAYER_1
 10
21.78478312950164
 20
59.56937325113531
 30
0.0
  0
VERTEX
  5
478
  8
LAYER_1
 10
21.45995962830937
 20
59.91821553686338
 30
0.0
  0
VERTEX
  5
479
  8
LAYER_1
 10
21.15378584540122
 20
60.23198744085249
 30
0.0
  0
VERTEX
  5
47A
  8
LAYER_1
 10
20.87171731317263
 20
60.50405148697295
 30
0.0
  0
VERTEX
  5
47B
  8
LAYER_1
 10
20.61920956401907
 20
60.72777019909506
 30
0.0
  0
VERTEX
  5
47C
  8
LAYER_1
 10
20.40171813033599
 20
60.89650610108911
 30
0.0
  0
VERTEX
  5
47D
  8
LAYER_1
 10
20.30780838566946
 20
60.95818128699758
 30
0.0
  0
VERTEX
  5
47E
  8
LAYER_1
 10
20.22469854451883
 20
61.00362171682539
 30
0.0
  0
VERTEX
  5
47F
  8
LAYER_1
 10
20.15307054843355
 20
61.03199770605634
 30
0.0
  0
VERTEX
  5
480
  8
LAYER_1
 10
20.09360633896306
 20
61.04247957017422
 30
0.0
  0
VERTEX
  5
481
  8
LAYER_1
 10
20.04698785765677
 20
61.03423762466281
 30
0.0
  0
VERTEX
  5
482
  8
LAYER_1
 10
20.01389704606412
 20
61.00644218500588
 30
0.0
  0
VERTEX
  5
483
  8
LAYER_1
 10
19.9735276472765
 20
60.92473684695248
 30
0.0
  0
VERTEX
  5
484
  8
LAYER_1
 10
19.9143722341425
 20
60.77186416087562
 30
0.0
  0
VERTEX
  5
485
  8
LAYER_1
 10
19.74711151677926
 20
60.27777017709592
 30
0.0
  0
VERTEX
  5
486
  8
LAYER_1
 10
19.52693119786217
 20
59.57446709855565
 30
0.0
  0
VERTEX
  5
487
  8
LAYER_1
 10
19.26864758127902
 20
58.71226179014366
 30
0.0
  0
VERTEX
  5
488
  8
LAYER_1
 10
18.98707697091758
 20
57.74146111674879
 30
0.0
  0
VERTEX
  5
489
  8
LAYER_1
 10
18.69703567066566
 20
56.71237194325992
 30
0.0
  0
VERTEX
  5
48A
  8
LAYER_1
 10
18.41333998441103
 20
55.67530113456588
 30
0.0
  0
VERTEX
  5
48B
  8
LAYER_1
 10
18.15080621604147
 20
54.68055555555554
 30
0.0
  0
VERTEX
  5
48C
  8
LAYER_1
 10
18.02190616157726
 20
54.20048594114563
 30
0.0
  0
VERTEX
  5
48D
  8
LAYER_1
 10
17.88235485847662
 20
53.71503740859841
 30
0.0
  0
VERTEX
  5
48E
  8
LAYER_1
 10
17.73658657347213
 20
53.23752229893761
 30
0.0
  0
VERTEX
  5
48F
  8
LAYER_1
 10
17.58903557329634
 20
52.78125295318702
 30
0.0
  0
VERTEX
  5
490
  8
LAYER_1
 10
17.44413612468183
 20
52.35954171237039
 30
0.0
  0
VERTEX
  5
491
  8
LAYER_1
 10
17.30632249436113
 20
51.9857009175115
 30
0.0
  0
VERTEX
  5
492
  8
LAYER_1
 10
17.18002894906682
 20
51.6730429096341
 30
0.0
  0
VERTEX
  5
493
  8
LAYER_1
 10
17.06968975553147
 20
51.43488002976196
 30
0.0
  0
VERTEX
  5
494
  8
LAYER_1
 10
16.92495147556947
 20
51.13765486541367
 30
0.0
  0
VERTEX
  5
495
  8
LAYER_1
 10
16.80661273935532
 20
50.85788226216801
 30
0.0
  0
VERTEX
  5
496
  8
LAYER_1
 10
16.71564558435385
 20
50.59252645045479
 30
0.0
  0
VERTEX
  5
497
  8
LAYER_1
 10
16.65302204802993
 20
50.33855166070384
 30
0.0
  0
VERTEX
  5
498
  8
LAYER_1
 10
16.61971416784841
 20
50.09292212334497
 30
0.0
  0
VERTEX
  5
499
  8
LAYER_1
 10
16.61435736051882
 20
49.97228814632189
 30
0.0
  0
VERTEX
  5
49A
  8
LAYER_1
 10
16.61669398127415
 20
49.85260206880802
 30
0.0
  0
VERTEX
  5
49B
  8
LAYER_1
 10
16.62684553479751
 20
49.73348441960708
 30
0.0
  0
VERTEX
  5
49C
  8
LAYER_1
 10
16.644933525772
 20
49.6145557275228
 30
0.0
  0
VERTEX
  5
49D
  8
LAYER_1
 10
16.67107945888073
 20
49.49543652135891
 30
0.0
  0
VERTEX
  5
49E
  8
LAYER_1
 10
16.70540483880681
 20
49.37574732991914
 30
0.0
  0
VERTEX
  5
49F
  8
LAYER_1
 10
16.79907995784344
 20
49.13314110642686
 30
0.0
  0
VERTEX
  5
4A0
  8
LAYER_1
 10
16.92693092034675
 20
48.8837012874758
 30
0.0
  0
VERTEX
  5
4A1
  8
LAYER_1
 10
17.08992976378158
 20
48.62439210349576
 30
0.0
  0
VERTEX
  5
4A2
  8
LAYER_1
 10
17.28904852561278
 20
48.35217778491657
 30
0.0
  0
VERTEX
  5
4A3
  8
LAYER_1
 10
17.52525924330522
 20
48.06402256216806
 30
0.0
  0
VERTEX
  5
4A4
  8
LAYER_1
 10
17.79953395432375
 20
47.75689066568005
 30
0.0
  0
VERTEX
  5
4A5
  8
LAYER_1
 10
18.11284469613322
 20
47.42774632588236
 30
0.0
  0
VERTEX
  5
4A6
  8
LAYER_1
 10
18.46616350619848
 20
47.07355377320482
 30
0.0
  0
VERTEX
  5
4A7
  8
LAYER_1
 10
18.88464666619678
 20
46.64793732669691
 30
0.0
  0
VERTEX
  5
4A8
  8
LAYER_1
 10
19.35180767131528
 20
46.1487342654343
 30
0.0
  0
VERTEX
  5
4A9
  8
LAYER_1
 10
19.85193372869973
 20
45.59417401960904
 30
0.0
  0
VERTEX
  5
4AA
  8
LAYER_1
 10
20.36931204549588
 20
45.00248601941315
 30
0.0
  0
VERTEX
  5
4AB
  8
LAYER_1
 10
20.88822982884946
 20
44.39189969503871
 30
0.0
  0
VERTEX
  5
4AC
  8
LAYER_1
 10
21.39297428590623
 20
43.78064447667772
 30
0.0
  0
VERTEX
  5
4AD
  8
LAYER_1
 10
21.86783262381192
 20
43.18694979452223
 30
0.0
  0
VERTEX
  5
4AE
  8
LAYER_1
 10
22.29709204971229
 20
42.62904507876431
 30
0.0
  0
VERTEX
  5
4AF
  8
LAYER_1
 10
22.90436371134289
 20
41.82090834993599
 30
0.0
  0
VERTEX
  5
4B0
  8
LAYER_1
 10
23.21780575681871
 20
41.39072382094105
 30
0.0
  0
VERTEX
  5
4B1
  8
LAYER_1
 10
23.51798642177713
 20
40.95287135137136
 30
0.0
  0
VERTEX
  5
4B2
  8
LAYER_1
 10
23.80554665168334
 20
40.5077235325765
 30
0.0
  0
VERTEX
  5
4B3
  8
LAYER_1
 10
24.08112739200254
 20
40.05565295590604
 30
0.0
  0
VERTEX
  5
4B4
  8
LAYER_1
 10
24.34536958819993
 20
39.59703221270958
 30
0.0
  0
VERTEX
  5
4B5
  8
LAYER_1
 10
24.59891418574069
 20
39.13223389433668
 30
0.0
  0
VERTEX
  5
4B6
  8
LAYER_1
 10
24.84240213009002
 20
38.66163059213692
 30
0.0
  0
VERTEX
  5
4B7
  8
LAYER_1
 10
25.07647436671311
 20
38.18559489745987
 30
0.0
  0
VERTEX
  5
4B8
  8
LAYER_1
 10
25.30177184107516
 20
37.70449940165512
 30
0.0
  0
VERTEX
  5
4B9
  8
LAYER_1
 10
25.51893549864136
 20
37.21871669607225
 30
0.0
  0
VERTEX
  5
4BA
  8
LAYER_1
 10
25.7286062848769
 20
36.72861937206083
 30
0.0
  0
VERTEX
  5
4BB
  8
LAYER_1
 10
25.93142514524699
 20
36.23458002097045
 30
0.0
  0
VERTEX
  5
4BC
  8
LAYER_1
 10
26.31907087025153
 20
35.23616560295108
 30
0.0
  0
VERTEX
  5
4BD
  8
LAYER_1
 10
26.68700023737655
 20
34.22645417281075
 30
0.0
  0
VERTEX
  5
4BE
  8
LAYER_1
 10
27.04034081034359
 20
33.20842646134611
 30
0.0
  0
VERTEX
  5
4BF
  8
LAYER_1
 10
27.3842201528742
 20
32.18506319935375
 30
0.0
  0
VERTEX
  5
4C0
  8
LAYER_1
 10
28.06410540151232
 20
30.13425294697242
 30
0.0
  0
VERTEX
  5
4C1
  8
LAYER_1
 10
28.41036643506293
 20
29.11276741817669
 30
0.0
  0
VERTEX
  5
4C2
  8
LAYER_1
 10
28.76767649306331
 20
28.09786926203974
 30
0.0
  0
VERTEX
  5
4C3
  8
LAYER_1
 10
29.14116313923499
 20
27.0925392093582
 30
0.0
  0
VERTEX
  5
4C4
  8
LAYER_1
 10
29.53595393729954
 20
26.09975799092869
 30
0.0
  0
VERTEX
  5
4C5
  8
LAYER_1
 10
29.54021728172219
 20
26.08947435387132
 30
0.0
  0
VERTEX
  5
4C6
  8
LAYER_1
 10
29.58079523758802
 20
25.97794572084716
 30
0.0
  0
VERTEX
  5
4C7
  8
LAYER_1
 10
29.6251811892581
 20
25.83020541890591
 30
0.0
  0
VERTEX
  5
4C8
  8
LAYER_1
 10
29.72361453504913
 20
25.43585665397526
 30
0.0
  0
VERTEX
  5
4C9
  8
LAYER_1
 10
29.83199222917152
 20
24.92596175048562
 30
0.0
  0
VERTEX
  5
4CA
  8
LAYER_1
 10
29.9467891817015
 20
24.32005439984324
 30
0.0
  0
VERTEX
  5
4CB
  8
LAYER_1
 10
30.06448030271532
 20
23.63766829345438
 30
0.0
  0
VERTEX
  5
4CC
  8
LAYER_1
 10
30.18154050228918
 20
22.89833712272526
 30
0.0
  0
VERTEX
  5
4CD
  8
LAYER_1
 10
30.29444469049933
 20
22.12159457906216
 30
0.0
  0
VERTEX
  5
4CE
  8
LAYER_1
 10
30.399667777422
 20
21.32697435387132
 30
0.0
  0
VERTEX
  5
4CF
  8
LAYER_1
 10
30.55376597541933
 20
20.01551301906451
 30
0.0
  0
VERTEX
  5
4D0
  8
LAYER_1
 10
30.61625386400196
 20
19.3922796344737
 30
0.0
  0
VERTEX
  5
4D1
  8
LAYER_1
 10
30.66939006781928
 20
18.77099591060752
 30
0.0
  0
VERTEX
  5
4D2
  8
LAYER_1
 10
30.7134414285053
 20
18.13687545160315
 30
0.0
  0
VERTEX
  5
4D3
  8
LAYER_1
 10
30.74867478769406
 20
17.47513186159776
 30
0.0
  0
VERTEX
  5
4D4
  8
LAYER_1
 10
30.77535698701958
 20
16.77097874472854
 30
0.0
  0
VERTEX
  5
4D5
  8
LAYER_1
 10
30.79375486811591
 20
16.00962970513265
 30
0.0
  0
VERTEX
  5
4D6
  8
LAYER_1
 10
30.80413527261705
 20
15.17629834694727
 30
0.0
  0
VERTEX
  5
4D7
  8
LAYER_1
 10
30.80676504215705
 20
14.25619827430957
 30
0.0
  0
VERTEX
  5
4D8
  8
LAYER_1
 10
30.78984004288973
 20
12.09654640222595
 30
0.0
  0
VERTEX
  5
4D9
  8
LAYER_1
 10
30.74511460338616
 20
9.41238292197918
 30
0.0
  0
VERTEX
  5
4DA
  8
LAYER_1
 10
30.67472345671857
 20
6.085416666666674
 30
0.0
  0
VERTEX
  5
4DB
  8
LAYER_1
 10
30.6366879150818
 20
4.385461784273477
 30
0.0
  0
VERTEX
  5
4DC
  8
LAYER_1
 10
30.61639743150793
 20
3.989280747512423
 30
0.0
  0
VERTEX
  5
4DD
  8
LAYER_1
 10
30.57510773874665
 20
3.595746976992106
 30
0.0
  0
VERTEX
  5
4DE
  8
LAYER_1
 10
30.51550165376422
 20
3.204503608881013
 30
0.0
  0
VERTEX
  5
4DF
  8
LAYER_1
 10
30.44026199352693
 20
2.815193779347628
 30
0.0
  0
VERTEX
  5
4E0
  8
LAYER_1
 10
30.35207157500105
 20
2.42746062456044
 30
0.0
  0
VERTEX
  5
4E1
  8
LAYER_1
 10
30.25361321515285
 20
2.040947280687934
 30
0.0
  0
VERTEX
  5
4E2
  8
LAYER_1
 10
30.03662393935463
 20
1.270152570360916
 30
0.0
  0
VERTEX
  5
4E3
  8
LAYER_1
 10
29.81075670186245
 20
0.4999547377144666
 30
0.0
  0
VERTEX
  5
4E4
  8
LAYER_1
 10
29.59747403840653
 20
-0.2725011279035214
 30
0.0
  0
VERTEX
  5
4E5
  8
LAYER_1
 10
29.50225896435785
 20
-0.6604679826556261
 30
0.0
  0
VERTEX
  5
4E6
  8
LAYER_1
 10
29.41823848471707
 20
-1.050069937145156
 30
0.0
  0
VERTEX
  5
4E7
  8
LAYER_1
 10
29.34809541645045
 20
-1.441663855203625
 30
0.0
  0
VERTEX
  5
4E8
  8
LAYER_1
 10
29.29451257652427
 20
-1.835606600662545
 30
0.0
  0
VERTEX
  5
4E9
  8
LAYER_1
 10
29.28272892827792
 20
-2.021924911502211
 30
0.0
  0
VERTEX
  5
4EA
  8
LAYER_1
 10
29.27355863425217
 20
-2.2309883962974
 30
0.0
  0
VERTEX
  5
4EB
  8
LAYER_1
 10
29.24812027755534
 20
-2.524481932814303
 30
0.0
  0
VERTEX
  5
4EC
  8
LAYER_1
 10
29.15549543094318
 20
-3.310904309769315
 30
0.0
  0
VERTEX
  5
4ED
  8
LAYER_1
 10
29.01896649803095
 20
-4.273482339879369
 30
0.0
  0
VERTEX
  5
4EE
  8
LAYER_1
 10
28.85264558840811
 20
-5.304506320656586
 30
0.0
  0
VERTEX
  5
4EF
  8
LAYER_1
 10
28.71224689125472
 20
-6.105906618508173
 30
0.0
  0
VERTEX
  5
4F0
  8
LAYER_1
 10
28.5929210745847
 20
-6.711071945867277
 30
0.0
  0
VERTEX
  5
4F1
  8
LAYER_1
 10
28.53675331036525
 20
-6.947643607474863
 30
0.0
  0
VERTEX
  5
4F2
  8
LAYER_1
 10
28.4805651429878
 20
-7.144249060694585
 30
0.0
  0
VERTEX
  5
4F3
  8
LAYER_1
 10
28.42259369802607
 20
-7.303919150271529
 30
0.0
  0
VERTEX
  5
4F4
  8
LAYER_1
 10
28.36107610105378
 20
-7.429684720950782
 30
0.0
  0
VERTEX
  5
4F5
  8
LAYER_1
 10
28.29424947764464
 20
-7.524576617477427
 30
0.0
  0
VERTEX
  5
4F6
  8
LAYER_1
 10
28.22035095337237
 20
-7.591625684596552
 30
0.0
  0
VERTEX
  5
4F7
  8
LAYER_1
 10
28.1376176538107
 20
-7.633862767053241
 30
0.0
  0
VERTEX
  5
4F8
  8
LAYER_1
 10
28.04428670453335
 20
-7.654318709592581
 30
0.0
  0
VERTEX
  5
4F9
  8
LAYER_1
 10
27.93859523111403
 20
-7.656024356959657
 30
0.0
  0
VERTEX
  5
4FA
  8
LAYER_1
 10
27.81878035912646
 20
-7.642010553899555
 30
0.0
  0
VERTEX
  5
4FB
  8
LAYER_1
 10
27.52972892174145
 20
-7.578947975478158
 30
0.0
  0
VERTEX
  5
4FC
  8
LAYER_1
 10
27.33822450334884
 20
-7.526102851729163
 30
0.0
  0
VERTEX
  5
4FD
  8
LAYER_1
 10
27.15025516061401
 20
-7.463064339600907
 30
0.0
  0
VERTEX
  5
4FE
  8
LAYER_1
 10
26.96584685670633
 20
-7.389953570001293
 30
0.0
  0
VERTEX
  5
4FF
  8
LAYER_1
 10
26.78502555479514
 20
-7.306891673838231
 30
0.0
  0
VERTEX
  5
500
  8
LAYER_1
 10
26.6078172180498
 20
-7.213999782019629
 30
0.0
  0
VERTEX
  5
501
  8
LAYER_1
 10
26.43424780963966
 20
-7.111399025453395
 30
0.0
  0
VERTEX
  5
502
  8
LAYER_1
 10
26.26434329273408
 20
-6.999210535047438
 30
0.0
  0
VERTEX
  5
503
  8
LAYER_1
 10
26.09812963050241
 20
-6.877555441709663
 30
0.0
  0
VERTEX
  5
504
  8
LAYER_1
 10
25.93563278611399
 20
-6.74655487634798
 30
0.0
  0
VERTEX
  5
505
  8
LAYER_1
 10
25.7768787227382
 20
-6.606329969870297
 30
0.0
  0
VERTEX
  5
506
  8
LAYER_1
 10
25.62189340354437
 20
-6.45700185318452
 30
0.0
  0
VERTEX
  5
507
  8
LAYER_1
 10
25.47070279170187
 20
-6.298691657198559
 30
0.0
  0
VERTEX
  5
508
  8
LAYER_1
 10
25.32333285038004
 20
-6.13152051282032
 30
0.0
  0
VERTEX
  5
509
  8
LAYER_1
 10
25.17980954274824
 20
-5.955609550957713
 30
0.0
  0
VERTEX
  5
50A
  8
LAYER_1
 10
25.04015883197582
 20
-5.771079902518645
 30
0.0
  0
VERTEX
  5
50B
  8
LAYER_1
 10
24.90440668123214
 20
-5.578052698411023
 30
0.0
  0
VERTEX
  5
50C
  8
LAYER_1
 10
24.77257905368654
 20
-5.376649069542756
 30
0.0
  0
VERTEX
  5
50D
  8
LAYER_1
 10
24.64470191250839
 20
-5.166990146821751
 30
0.0
  0
VERTEX
  5
50E
  8
LAYER_1
 10
24.40090294193183
 20
-4.723390943453161
 30
0.0
  0
VERTEX
  5
50F
  8
LAYER_1
 10
24.17321747485727
 20
-4.248224135568515
 30
0.0
  0
VERTEX
  5
510
  8
LAYER_1
 10
23.96185321663955
 20
-3.742458770431077
 30
0.0
  0
VERTEX
  5
511
  8
LAYER_1
 10
23.76701787263349
 20
-3.20706389530411
 30
0.0
  0
VERTEX
  5
512
  8
LAYER_1
 10
23.58891914819392
 20
-2.643008557450877
 30
0.0
  0
VERTEX
  5
513
  8
LAYER_1
 10
23.42776474867567
 20
-2.051261804134642
 30
0.0
  0
VERTEX
  5
514
  8
LAYER_1
 10
23.28376237943356
 20
-1.432792682618667
 30
0.0
  0
VERTEX
  5
515
  8
LAYER_1
 10
23.15711974582242
 20
-0.7885702401662149
 30
0.0
  0
VERTEX
  5
516
  8
LAYER_1
 10
23.04804455319707
 20
-0.1195635240405499
 30
0.0
  0
VERTEX
  5
517
  8
LAYER_1
 10
22.95674450691235
 20
0.5732584184950653
 30
0.0
  0
VERTEX
  5
518
  8
LAYER_1
 10
22.88342731232308
 20
1.288926540177368
 30
0.0
  0
VERTEX
  5
519
  8
LAYER_1
 10
22.82830067478409
 20
2.026471793743094
 30
0.0
  0
VERTEX
  5
51A
  8
LAYER_1
 10
22.79157229965019
 20
2.784925131928981
 30
0.0
  0
VERTEX
  5
51B
  8
LAYER_1
 10
22.77344989227623
 20
3.563317507471766
 30
0.0
  0
VERTEX
  5
51C
  8
LAYER_1
 10
22.77414115801702
 20
4.360679873108186
 30
0.0
  0
VERTEX
  5
51D
  8
LAYER_1
 10
22.7938538022274
 20
5.176043181574977
 30
0.0
  0
VERTEX
  5
51E
  8
LAYER_1
 10
22.83279553026218
 20
6.008438385608876
 30
0.0
  0
VERTEX
  5
51F
  8
LAYER_1
 10
22.8911740474762
 20
6.856896437946622
 30
0.0
  0
VERTEX
  5
520
  8
LAYER_1
 10
22.96919705922429
 20
7.720448291324947
 30
0.0
  0
VERTEX
  5
521
  8
LAYER_1
 10
23.06707227086126
 20
8.598124898480592
 30
0.0
  0
VERTEX
  5
522
  8
LAYER_1
 10
23.18500738774195
 20
9.488957212150295
 30
0.0
  0
VERTEX
  5
523
  8
LAYER_1
 10
23.32321011522118
 20
10.39197618507079
 30
0.0
  0
VERTEX
  5
524
  8
LAYER_1
 10
23.48188815865379
 20
11.30621276997881
 30
0.0
  0
VERTEX
  5
525
  8
LAYER_1
 10
24.0570345620865
 20
14.43584075818498
 30
0.0
  0
VERTEX
  5
526
  8
LAYER_1
 10
23.91523087220259
 20
14.86125182783674
 30
0.0
  0
VERTEX
  5
527
  8
LAYER_1
 10
23.8736149840025
 20
14.95461251637236
 30
0.0
  0
VERTEX
  5
528
  8
LAYER_1
 10
23.82158956772545
 20
15.01517370386354
 30
0.0
  0
VERTEX
  5
529
  8
LAYER_1
 10
23.79152239338867
 20
15.03311303931336
 30
0.0
  0
VERTEX
  5
52A
  8
LAYER_1
 10
23.75867176522938
 20
15.04280276501715
 30
0.0
  0
VERTEX
  5
52B
  8
LAYER_1
 10
23.72297732597983
 20
15.04422630281327
 30
0.0
  0
VERTEX
  5
52C
  8
LAYER_1
 10
23.68437871837227
 20
15.03736707454009
 30
0.0
  0
VERTEX
  5
52D
  8
LAYER_1
 10
23.59822756901207
 20
14.99873400713925
 30
0.0
  0
VERTEX
  5
52E
  8
LAYER_1
 10
23.49973545900676
 20
14.92677093752153
 30
0.0
  0
VERTEX
  5
52F
  8
LAYER_1
 10
23.3884195302143
 20
14.82134524039382
 30
0.0
  0
VERTEX
  5
530
  8
LAYER_1
 10
23.26379692449265
 20
14.68232429046301
 30
0.0
  0
VERTEX
  5
531
  8
LAYER_1
 10
22.68615612314657
 20
14.02721138394083
 30
0.0
  0
VERTEX
  5
532
  8
LAYER_1
 10
22.01301115430418
 20
13.30079839727433
 30
0.0
  0
VERTEX
  5
533
  8
LAYER_1
 10
21.93173804380255
 20
13.20698647897018
 30
0.0
  0
VERTEX
  5
534
  8
LAYER_1
 10
21.84141572133644
 20
13.08707586875068
 30
0.0
  0
VERTEX
  5
535
  8
LAYER_1
 10
21.63742554819514
 20
12.77634017409655
 30
0.0
  0
VERTEX
  5
536
  8
LAYER_1
 10
21.40864485024886
 20
12.38335451637367
 30
0.0
  0
VERTEX
  5
537
  8
LAYER_1
 10
21.16267784286618
 20
11.92288209864378
 30
0.0
  0
VERTEX
  5
538
  8
LAYER_1
 10
20.90712874141571
 20
11.40968612396862
 30
0.0
  0
VERTEX
  5
539
  8
LAYER_1
 10
20.64960176126603
 20
10.85852979540993
 30
0.0
  0
VERTEX
  5
53A
  8
LAYER_1
 10
20.39770111778572
 20
10.28417631602944
 30
0.0
  0
VERTEX
  5
53B
  8
LAYER_1
 10
20.15903102634338
 20
9.701388888888886
 30
0.0
  0
VERTEX
  5
53C
  8
LAYER_1
 10
19.04620641074506
 20
6.879166666666677
 30
0.0
  0
VERTEX
  5
53D
  8
LAYER_1
 10
19.04810320537253
 20
6.261805555555554
 30
0.0
  0
VERTEX
  5
53E
  8
LAYER_1
 10
19.04250921066859
 20
6.137790730794274
 30
0.0
  0
VERTEX
  5
53F
  8
LAYER_1
 10
19.0257400934718
 20
6.022095811631949
 30
0.0
  0
VERTEX
  5
540
  8
LAYER_1
 10
18.99898879583045
 20
5.917252943250872
 30
0.0
  0
VERTEX
  5
541
  8
LAYER_1
 10
18.96344825979283
 20
5.825794270833338
 30
0.0
  0
VERTEX
  5
542
  8
LAYER_1
 10
18.92031142740724
 20
5.750251939561635
 30
0.0
  0
VERTEX
  5
543
  8
LAYER_1
 10
18.87077124072198
 20
5.693158094618058
 30
0.0
  0
VERTEX
  5
544
  8
LAYER_1
 10
18.81602064178533
 20
5.657044881184897
 30
0.0
  0
VERTEX
  5
545
  8
LAYER_1
 10
18.7572525726456
 20
5.644444444444446
 30
0.0
  0
VERTEX
  5
546
  8
LAYER_1
 10
18.46450514529118
 20
5.644444444444446
 30
0.0
  0
VERTEX
  5
547
  8
LAYER_1
 10
18.04746181817882
 20
10.3550563209993
 30
0.0
  0
VERTEX
  5
548
  8
LAYER_1
 10
17.95971378757605
 20
11.40498148355203
 30
0.0
  0
VERTEX
  5
549
  8
LAYER_1
 10
17.87017266530478
 20
12.58486118020429
 30
0.0
  0
VERTEX
  5
54A
  8
LAYER_1
 10
17.69574672837575
 20
15.17387382424483
 30
0.0
  0
VERTEX
  5
54B
  8
LAYER_1
 10
17.54425517262978
 20
17.80087354999594
 30
0.0
  0
VERTEX
  5
54C
  8
LAYER_1
 10
17.48338202683734
 20
19.0282370987864
 30
0.0
  0
VERTEX
  5
54D
  8
LAYER_1
 10
17.43576916330493
 20
20.14463965433262
 30
0.0
  0
VERTEX
  5
54E
  8
LAYER_1
 10
17.35011567254809
 20
21.61260259386697
 30
0.0
  0
VERTEX
  5
54F
  8
LAYER_1
 10
17.15048423318984
 20
25.28977177731834
 30
0.0
  0
VERTEX
  5
550
  8
LAYER_1
 10
16.95926899160355
 20
28.96785775956298
 30
0.0
  0
VERTEX
  5
551
  8
LAYER_1
 10
16.85684171829315
 20
30.80643501811369
 30
0.0
  0
VERTEX
  5
552
  8
LAYER_1
 10
16.74454762240767
 20
32.64427003781982
 30
0.0
  0
VERTEX
  5
553
  8
LAYER_1
 10
16.61839641327439
 20
34.48103900583372
 30
0.0
  0
VERTEX
  5
554
  8
LAYER_1
 10
16.47439780022064
 20
36.31641810930778
 30
0.0
  0
VERTEX
  5
555
  8
LAYER_1
 10
16.40070604795709
 20
37.21805555555557
 30
0.0
  0
VERTEX
  5
556
  8
LAYER_1
 10
16.24537450166082
 20
39.12429510192771
 30
0.0
  0
VERTEX
  5
557
  8
LAYER_1
 10
16.08755280860494
 20
40.9284702574359
 30
0.0
  0
VERTEX
  5
558
  8
LAYER_1
 10
15.92433304827611
 20
42.64964472197209
 30
0.0
  0
VERTEX
  5
559
  8
LAYER_1
 10
15.75280730016096
 20
44.30688219542824
 30
0.0
  0
VERTEX
  5
55A
  8
LAYER_1
 10
15.57006764374615
 20
45.91924637769632
 30
0.0
  0
VERTEX
  5
55B
  8
LAYER_1
 10
15.37320615851833
 20
47.50580096866828
 30
0.0
  0
VERTEX
  5
55C
  8
LAYER_1
 10
15.15931492396414
 20
49.08560966823608
 30
0.0
  0
VERTEX
  5
55D
  8
LAYER_1
 10
14.92548601957023
 20
50.6777361762917
 30
0.0
  0
VERTEX
  5
55E
  8
LAYER_1
 10
14.66881152482325
 20
52.3012441927271
 30
0.0
  0
VERTEX
  5
55F
  8
LAYER_1
 10
14.38638351920985
 20
53.97519741743422
 30
0.0
  0
VERTEX
  5
560
  8
LAYER_1
 10
14.07529408221667
 20
55.71865955030505
 30
0.0
  0
VERTEX
  5
561
  8
LAYER_1
 10
13.73263529333037
 20
57.55069429123154
 30
0.0
  0
VERTEX
  5
562
  8
LAYER_1
 10
13.3554992320376
 20
59.49036534010564
 30
0.0
  0
VERTEX
  5
563
  8
LAYER_1
 10
12.94097797782499
 20
61.55673639681935
 30
0.0
  0
VERTEX
  5
564
  8
LAYER_1
 10
12.48616361017921
 20
63.76887116126458
 30
0.0
  0
VERTEX
  5
565
  8
LAYER_1
 10
11.98814820858689
 20
66.14583333333334
 30
0.0
  0
VERTEX
  5
566
  8
LAYER_1
 10
10.27507746764317
 20
74.25972222222222
 30
0.0
  0
VERTEX
  5
567
  8
LAYER_1
 10
9.599395352017396
 20
76.3590107568977
 30
0.0
  0
VERTEX
  5
568
  8
LAYER_1
 10
9.472599562709194
 20
76.73130963104549
 30
0.0
  0
VERTEX
  5
569
  8
LAYER_1
 10
8.862262816921527
 20
78.43263801333529
 30
0.0
  0
VERTEX
  5
56A
  8
LAYER_1
 10
8.551427931842786
 20
79.28203147573845
 30
0.0
  0
VERTEX
  5
56B
  8
LAYER_1
 10
8.23124999069756
 20
80.12769809495498
 30
0.0
  0
VERTEX
  5
56C
  8
LAYER_1
 10
7.897554957528439
 20
80.96747810296577
 30
0.0
  0
VERTEX
  5
56D
  8
LAYER_1
 10
7.546168796378018
 20
81.79921173175177
 30
0.0
  0
VERTEX
  5
56E
  8
LAYER_1
 10
7.172917471288885
 20
82.62073921329386
 30
0.0
  0
VERTEX
  5
56F
  8
LAYER_1
 10
6.976787986030612
 20
83.02700072134247
 30
0.0
  0
VERTEX
  5
570
  8
LAYER_1
 10
6.773626946303634
 20
83.42990077957295
 30
0.0
  0
VERTEX
  5
571
  8
LAYER_1
 10
6.653840485895202
 20
83.66116254115678
 30
0.0
  0
VERTEX
  5
572
  8
LAYER_1
 10
6.191264295866332
 20
84.52916977306283
 30
0.0
  0
VERTEX
  5
573
  8
LAYER_1
 10
5.74527504405128
 20
85.3207953183111
 30
0.0
  0
VERTEX
  5
574
  8
LAYER_1
 10
5.312650483457748
 20
86.03885142240273
 30
0.0
  0
VERTEX
  5
575
  8
LAYER_1
 10
5.100343010183957
 20
86.37116976073386
 30
0.0
  0
VERTEX
  5
576
  8
LAYER_1
 10
4.890168367093435
 20
86.68615033083876
 30
0.0
  0
VERTEX
  5
577
  8
LAYER_1
 10
4.681723773312143
 20
86.98414466340503
 30
0.0
  0
VERTEX
  5
578
  8
LAYER_1
 10
4.474606447966044
 20
87.2655042891203
 30
0.0
  0
VERTEX
  5
579
  8
LAYER_1
 10
4.268413610181101
 20
87.53058073867223
 30
0.0
  0
VERTEX
  5
57A
  8
LAYER_1
 10
4.062742479083277
 20
87.77972554274845
 30
0.0
  0
VERTEX
  5
57B
  8
LAYER_1
 10
3.857190273798534
 20
88.01329023203661
 30
0.0
  0
VERTEX
  5
57C
  8
LAYER_1
 10
3.651354213452835
 20
88.23162633722433
 30
0.0
  0
VERTEX
  5
57D
  8
LAYER_1
 10
3.444831517172141
 20
88.43508538899923
 30
0.0
  0
VERTEX
  5
57E
  8
LAYER_1
 10
3.237219404082417
 20
88.62401891804896
 30
0.0
  0
VERTEX
  5
57F
  8
LAYER_1
 10
3.028115093309625
 20
88.79877845506115
 30
0.0
  0
VERTEX
  5
580
  8
LAYER_1
 10
2.817115803979727
 20
88.95971553072347
 30
0.0
  0
VERTEX
  5
581
  8
LAYER_1
 10
2.603818755218685
 20
89.10718167572352
 30
0.0
  0
VERTEX
  5
582
  8
LAYER_1
 10
2.387821166152464
 20
89.24152842074895
 30
0.0
  0
VERTEX
  5
583
  8
LAYER_1
 10
2.168720255907025
 20
89.36310729648741
 30
0.0
  0
VERTEX
  5
584
  8
LAYER_1
 10
1.946113243608331
 20
89.47226983362651
 30
0.0
  0
VERTEX
  5
585
  8
LAYER_1
 10
1.719597348382344
 20
89.5693675628539
 30
0.0
  0
VERTEX
  5
586
  8
LAYER_1
 10
1.488769789355028
 20
89.65475201485721
 30
0.0
  0
VERTEX
  5
587
  8
LAYER_1
 10
1.253227785652345
 20
89.72877472032408
 30
0.0
  0
VERTEX
  5
588
  8
LAYER_1
 10
1.012568556400257
 20
89.79178720994214
 30
0.0
  0
VERTEX
  5
589
  8
LAYER_1
 10
0.7663893207247278
 20
89.84414101439904
 30
0.0
  0
VERTEX
  5
58A
  8
LAYER_1
 10
0.5142872977517193
 20
89.88618766438242
 30
0.0
  0
VERTEX
  5
58B
  8
LAYER_1
 10
0.2558597066071945
 20
89.91827869057991
 30
0.0
  0
VERTEX
  5
58C
  8
LAYER_1
 10
-0.0092962335828842
 20
89.94076562367913
 30
0.0
  0
VERTEX
  5
58D
  8
LAYER_1
 10
-0.281583303692554
 20
89.95399999436773
 30
0.0
  0
VERTEX
  5
58E
  8
LAYER_1
 10
-0.5614042845958522
 20
89.95833333333334
 30
0.0
  0
VERTEX
  5
58F
  8
LAYER_1
 10
-1.069339245236301
 20
89.94903185459084
 30
0.0
  0
VERTEX
  5
590
  8
LAYER_1
 10
-1.290054227793756
 20
89.93503111233167
 30
0.0
  0
VERTEX
  5
591
  8
LAYER_1
 10
-1.49291819646717
 20
89.91268690696407
 30
0.0
  0
VERTEX
  5
592
  8
LAYER_1
 10
-1.681169139724896
 20
89.88041664260066
 30
0.0
  0
VERTEX
  5
593
  8
LAYER_1
 10
-1.858045046035288
 20
89.83663772335409
 30
0.0
  0
VERTEX
  5
594
  8
LAYER_1
 10
-2.0267839038667
 20
89.77976755333698
 30
0.0
  0
VERTEX
  5
595
  8
LAYER_1
 10
-2.190623701687485
 20
89.70822353666198
 30
0.0
  0
VERTEX
  5
596
  8
LAYER_1
 10
-2.352802427965999
 20
89.6204230774417
 30
0.0
  0
VERTEX
  5
597
  8
LAYER_1
 10
-2.516558071170594
 20
89.51478357978878
 30
0.0
  0
VERTEX
  5
598
  8
LAYER_1
 10
-2.685128619769623
 20
89.38972244781587
 30
0.0
  0
VERTEX
  5
599
  8
LAYER_1
 10
-2.861752062231442
 20
89.24365708563559
 30
0.0
  0
VERTEX
  5
59A
  8
LAYER_1
 10
-3.049666387024403
 20
89.07500489736057
 30
0.0
  0
VERTEX
  5
59B
  8
LAYER_1
 10
-3.252109582616861
 20
88.88218328710346
 30
0.0
  0
VERTEX
  5
59C
  8
LAYER_1
 10
-3.713534540073681
 20
88.41770141709347
 30
0.0
  0
VERTEX
  5
59D
  8
LAYER_1
 10
-3.956497977797516
 20
88.15901374442309
 30
0.0
  0
VERTEX
  5
59E
  8
LAYER_1
 10
-4.195819947431815
 20
87.88655934001727
 30
0.0
  0
VERTEX
  5
59F
  8
LAYER_1
 10
-4.431609720553311
 20
87.60006164444722
 30
0.0
  0
VERTEX
  5
5A0
  8
LAYER_1
 10
-4.663976568738738
 20
87.29924409828416
 30
0.0
  0
VERTEX
  5
5A1
  8
LAYER_1
 10
-4.89302976356483
 20
86.98383014209931
 30
0.0
  0
VERTEX
  5
5A2
  8
LAYER_1
 10
-5.118878576608322
 20
86.65354321646387
 30
0.0
  0
VERTEX
  5
5A3
  8
LAYER_1
 10
-5.341632279445947
 20
86.30810676194906
 30
0.0
  0
VERTEX
  5
5A4
  8
LAYER_1
 10
-5.56140014365444
 20
85.94724421912608
 30
0.0
  0
VERTEX
  5
5A5
  8
LAYER_1
 10
-5.778291440810536
 20
85.57067902856615
 30
0.0
  0
VERTEX
  5
5A6
  8
LAYER_1
 10
-5.992415442490966
 20
85.17813463084047
 30
0.0
  0
VERTEX
  5
5A7
  8
LAYER_1
 10
-6.203881420272467
 20
84.76933446652026
 30
0.0
  0
VERTEX
  5
5A8
  8
LAYER_1
 10
-6.412798645731771
 20
84.34400197617671
 30
0.0
  0
VERTEX
  5
5A9
  8
LAYER_1
 10
-6.619276390445613
 20
83.90186060038107
 30
0.0
  0
VERTEX
  5
5AA
  8
LAYER_1
 10
-6.823423925990728
 20
83.44263377970454
 30
0.0
  0
VERTEX
  5
5AB
  8
LAYER_1
 10
-7.025350523943848
 20
82.96604495471833
 30
0.0
  0
VERTEX
  5
5AC
  8
LAYER_1
 10
-7.22516545588171
 20
82.47181756599363
 30
0.0
  0
VERTEX
  5
5AD
  8
LAYER_1
 10
-7.422977993381045
 20
81.95967505410167
 30
0.0
  0
VERTEX
  5
5AE
  8
LAYER_1
 10
-7.618897408018588
 20
81.42934085961369
 30
0.0
  0
VERTEX
  5
5AF
  8
LAYER_1
 10
-7.813032971371075
 20
80.88053842310086
 30
0.0
  0
VERTEX
  5
5B0
  8
LAYER_1
 10
-8.005493955015236
 20
80.3129911851344
 30
0.0
  0
VERTEX
  5
5B1
  8
LAYER_1
 10
-8.385829269485527
 20
79.12055606712545
 30
0.0
  0
VERTEX
  5
5B2
  8
LAYER_1
 10
-8.760777524043334
 20
77.84982303015656
 30
0.0
  0
VERTEX
  5
5B3
  8
LAYER_1
 10
-9.131212891302528
 20
76.49857959879736
 30
0.0
  0
VERTEX
  5
5B4
  8
LAYER_1
 10
-9.498009543876982
 20
75.06461329761763
 30
0.0
  0
VERTEX
  5
5B5
  8
LAYER_1
 10
-9.862041654380569
 20
73.54571165118699
 30
0.0
  0
VERTEX
  5
5B6
  8
LAYER_1
 10
-10.22418339542716
 20
71.93966218407519
 30
0.0
  0
VERTEX
  5
5B7
  8
LAYER_1
 10
-10.84647282508112
 20
69.09862105935268
 30
0.0
  0
VERTEX
  5
5B8
  8
LAYER_1
 10
-11.13581353847975
 20
67.77155761010911
 30
0.0
  0
VERTEX
  5
5B9
  8
LAYER_1
 10
-11.41725250359431
 20
66.439582641642
 30
0.0
  0
VERTEX
  5
5BA
  8
LAYER_1
 10
-11.68125203412926
 20
65.1030250441182
 30
0.0
  0
VERTEX
  5
5BB
  8
LAYER_1
 10
-11.80373148446202
 20
64.4331305376372
 30
0.0
  0
VERTEX
  5
5BC
  8
LAYER_1
 10
-11.91827444378906
 20
63.76221370770457
 30
0.0
  0
VERTEX
  5
5BD
  8
LAYER_1
 10
-12.02368870132342
 20
63.09031566559121
 30
0.0
  0
VERTEX
  5
5BE
  8
LAYER_1
 10
-12.11878204627816
 20
62.41747752256799
 30
0.0
  0
VERTEX
  5
5BF
  8
LAYER_1
 10
-12.20236226786635
 20
61.74374038990574
 30
0.0
  0
VERTEX
  5
5C0
  8
LAYER_1
 10
-12.27323715530104
 20
61.06914537887532
 30
0.0
  0
VERTEX
  5
5C1
  8
LAYER_1
 10
-12.33021449779529
 20
60.39373360074761
 30
0.0
  0
VERTEX
  5
5C2
  8
LAYER_1
 10
-12.37210208456215
 20
59.71754616679345
 30
0.0
  0
VERTEX
  5
5C3
  8
LAYER_1
 10
-12.39770770481469
 20
59.0406241882837
 30
0.0
  0
VERTEX
  5
5C4
  8
LAYER_1
 10
-12.40583914776595
 20
58.36300877648923
 30
0.0
  0
VERTEX
  5
5C5
  8
LAYER_1
 10
-12.39135153241172
 20
48.5710114583205
 30
0.0
  0
VERTEX
  5
5C6
  8
LAYER_1
 10
-12.16102420007725
 20
46.24592239582691
 30
0.0
  0
VERTEX
  5
5C7
  8
LAYER_1
 10
-12.07564670653578
 20
45.44984629877125
 30
0.0
  0
VERTEX
  5
5C8
  8
LAYER_1
 10
-11.97310190580504
 20
44.6095142115889
 30
0.0
  0
VERTEX
  5
5C9
  8
LAYER_1
 10
-11.85417533606228
 20
43.72906415526209
 30
0.0
  0
VERTEX
  5
5CA
  8
LAYER_1
 10
-11.71965253548475
 20
42.81263415077304
 30
0.0
  0
VERTEX
  5
5CB
  8
LAYER_1
 10
-11.57031904224972
 20
41.86436221910396
 30
0.0
  0
VERTEX
  5
5CC
  8
LAYER_1
 10
-11.40696039453444
 20
40.88838638123708
 30
0.0
  0
VERTEX
  5
5CD
  8
LAYER_1
 10
-11.23036213051618
 20
39.88884465815462
 30
0.0
  0
VERTEX
  5
5CE
  8
LAYER_1
 10
-11.04130978837217
 20
38.8698750708388
 30
0.0
  0
VERTEX
  5
5CF
  8
LAYER_1
 10
-10.84058890627969
 20
37.83561564027184
 30
0.0
  0
VERTEX
  5
5D0
  8
LAYER_1
 10
-10.62898502241598
 20
36.79020438743596
 30
0.0
  0
VERTEX
  5
5D1
  8
LAYER_1
 10
-10.40728367495831
 20
35.73777933331338
 30
0.0
  0
VERTEX
  5
5D2
  8
LAYER_1
 10
-10.17627040208394
 20
34.68247849888634
 30
0.0
  0
VERTEX
  5
5D3
  8
LAYER_1
 10
-9.936730741970113
 20
33.62843990513703
 30
0.0
  0
VERTEX
  5
5D4
  8
LAYER_1
 10
-9.689450232794092
 20
32.57980157304769
 30
0.0
  0
VERTEX
  5
5D5
  8
LAYER_1
 10
-9.435214412733135
 20
31.54070152360053
 30
0.0
  0
VERTEX
  5
5D6
  8
LAYER_1
 10
-9.174808819964497
 20
30.51527777777778
 30
0.0
  0
VERTEX
  5
5D7
  8
LAYER_1
 10
-8.88143481451861
 20
29.36229044596354
 30
0.0
  0
VERTEX
  5
5D8
  8
LAYER_1
 10
-8.572368323742278
 20
28.11266818576389
 30
0.0
  0
VERTEX
  5
5D9
  8
LAYER_1
 10
-7.944333244704778
 20
25.48268229166667
 30
0.0
  0
VERTEX
  5
5DA
  8
LAYER_1
 10
-7.365054299864967
 20
22.94364691840278
 30
0.0
  0
VERTEX
  5
5DB
  8
LAYER_1
 10
-7.116932976835749
 20
21.8077128092448
 30
0.0
  0
VERTEX
  5
5DC
  8
LAYER_1
 10
-6.908882206235816
 20
20.8138888888889
 30
0.0
  0
VERTEX
  5
5DD
  8
LAYER_1
 10
-5.783675968572254
 20
14.40860976748698
 30
0.0
  0
VERTEX
  5
5DE
  8
LAYER_1
 10
-5.739683890477846
 20
14.04582542418119
 30
0.0
  0
VERTEX
  5
5DF
  8
LAYER_1
 10
-5.671000089076432
 20
13.59801661307025
 30
0.0
  0
VERTEX
  5
5E0
  8
LAYER_1
 10
-5.582398233560699
 20
13.15291753352751
 30
0.0
  0
VERTEX
  5
5E1
  8
LAYER_1
 10
-5.474762026871069
 20
12.71095994165217
 30
0.0
  0
VERTEX
  5
5E2
  8
LAYER_1
 10
-5.348975171947963
 20
12.27257559354346
 30
0.0
  0
VERTEX
  5
5E3
  8
LAYER_1
 10
-5.205921371731803
 20
11.83819624530059
 30
0.0
  0
VERTEX
  5
5E4
  8
LAYER_1
 10
-5.046484329163011
 20
11.40825365302276
 30
0.0
  0
VERTEX
  5
5E5
  8
LAYER_1
 10
-4.871547747182007
 20
10.98317957280921
 30
0.0
  0
VERTEX
  5
5E6
  8
LAYER_1
 10
-4.681995328729212
 20
10.56340576075914
 30
0.0
  0
VERTEX
  5
5E7
  8
LAYER_1
 10
-4.478710776745048
 20
10.14936397297176
 30
0.0
  0
VERTEX
  5
5E8
  8
LAYER_1
 10
-4.262577794169939
 20
9.741485965546305
 30
0.0
  0
VERTEX
  5
5E9
  8
LAYER_1
 10
-4.034480083944304
 20
9.34020349458198
 30
0.0
  0
VERTEX
  5
5EA
  8
LAYER_1
 10
-3.795301349008565
 20
8.945948316178
 30
0.0
  0
VERTEX
  5
5EB
  8
LAYER_1
 10
-3.545925292303143
 20
8.559152186433584
 30
0.0
  0
VERTEX
  5
5EC
  8
LAYER_1
 10
-3.287235616768459
 20
8.180246861447944
 30
0.0
  0
VERTEX
  5
5ED
  8
LAYER_1
 10
-3.020116025344937
 20
7.809664097320296
 30
0.0
  0
VERTEX
  5
5EE
  8
LAYER_1
 10
-2.745450220972995
 20
7.447835650149858
 30
0.0
  0
VERTEX
  5
5EF
  8
LAYER_1
 10
-2.629712591804759
 20
7.293600254704557
 30
0.0
  0
VERTEX
  5
5F0
  8
LAYER_1
 10
-2.542903575743694
 20
7.165319905418803
 30
0.0
  0
VERTEX
  5
5F1
  8
LAYER_1
 10
-2.488366438165139
 20
7.06715151548387
 30
0.0
  0
VERTEX
  5
5F2
  8
LAYER_1
 10
-2.469444444444434
 20
7.003251998091031
 30
0.0
  0
VERTEX
  5
5F3
  8
LAYER_1
 10
-2.488001056446428
 20
6.938583305902699
 30
0.0
  0
VERTEX
  5
5F4
  8
LAYER_1
 10
-2.541184839169845
 20
6.850036111163948
 30
0.0
  0
VERTEX
  5
5F5
  8
LAYER_1
 10
-2.625266712690839
 20
6.741566084107829
 30
0.0
  0
VERTEX
  5
5F6
  8
LAYER_1
 10
-2.736517597085566
 20
6.61712889496739
 30
0.0
  0
VERTEX
  5
5F7
  8
LAYER_1
 10
-2.87120841243018
 20
6.480680213975685
 30
0.0
  0
VERTEX
  5
5F8
  8
LAYER_1
 10
-3.025610078800834
 20
6.336175711365761
 30
0.0
  0
VERTEX
  5
5F9
  8
LAYER_1
 10
-3.195993516273684
 20
6.18757105737067
 30
0.0
  0
VERTEX
  5
5FA
  8
LAYER_1
 10
-3.378629644924885
 20
6.038821922223462
 30
0.0
  0
VERTEX
  5
5FB
  8
LAYER_1
 10
-4.287814845405293
 20
5.323656739295373
 30
0.0
  0
VERTEX
  5
5FC
  8
LAYER_1
 10
-3.742655942850504
 20
0.8097450363143537
 30
0.0
  0
VERTEX
  5
5FD
  8
LAYER_1
 10
-3.471761970353563
 20
-1.527486044192076
 30
0.0
  0
VERTEX
  5
5FE
  8
LAYER_1
 10
-3.137178644861885
 20
-4.554403020582654
 30
0.0
  0
VERTEX
  5
5FF
  8
LAYER_1
 10
-2.781419712462599
 20
-7.879807227603316
 30
0.0
  0
VERTEX
  5
600
  8
LAYER_1
 10
-2.44699891924283
 20
-11.1125
 30
0.0
  0
VERTEX
  5
601
  8
LAYER_1
 10
-1.696500798189959
 20
-18.52083333333333
 30
0.0
  0
VERTEX
  5
602
  8
LAYER_1
 10
-1.94027777777778
 20
-26.63472222222221
 30
0.0
  0
VERTEX
  5
603
  8
LAYER_1
 10
-3.793575119800593
 20
-29.30676930550536
 30
0.0
  0
VERTEX
  5
604
  8
LAYER_1
 10
-4.118942110464529
 20
-29.76216392040246
 30
0.0
  0
VERTEX
  5
605
  8
LAYER_1
 10
-4.475454413273308
 20
-30.23663583069187
 30
0.0
  0
VERTEX
  5
606
  8
LAYER_1
 10
-4.859108638239695
 20
-30.72681097505928
 30
0.0
  0
VERTEX
  5
607
  8
LAYER_1
 10
-5.265901395376449
 20
-31.22931529219037
 30
0.0
  0
VERTEX
  5
608
  8
LAYER_1
 10
-5.691829294696335
 20
-31.74077472077084
 30
0.0
  0
VERTEX
  5
609
  8
LAYER_1
 10
-6.132888946212115
 20
-32.25781519948637
 30
0.0
  0
VERTEX
  5
60A
  8
LAYER_1
 10
-7.044389945882406
 20
-33.29514306206541
 30
0.0
  0
VERTEX
  5
60B
  8
LAYER_1
 10
-7.96837727448942
 20
-34.31430638941302
 30
0.0
  0
VERTEX
  5
60C
  8
LAYER_1
 10
-8.872823812135255
 20
-35.28831269101472
 30
0.0
  0
VERTEX
  5
60D
  8
LAYER_1
 10
-10.4949860349518
 20
-36.99288425492256
 30
0.0
  0
VERTEX
  5
60E
  8
LAYER_1
 10
-10.92463168488324
 20
-37.42173177057278
 30
0.0
  0
VERTEX
  5
60F
  8
LAYER_1
 10
-11.36947788698822
 20
-37.83493877350847
 30
0.0
  0
VERTEX
  5
610
  8
LAYER_1
 10
-11.82724001783036
 20
-38.23455102340947
 30
0.0
  0
VERTEX
  5
611
  8
LAYER_1
 10
-12.29563345397325
 20
-38.62261427995557
 30
0.0
  0
VERTEX
  5
612
  8
LAYER_1
 10
-12.7723735719805
 20
-39.00117430282661
 30
0.0
  0
VERTEX
  5
613
  8
LAYER_1
 10
-13.25517574841572
 20
-39.3722768517024
 30
0.0
  0
VERTEX
  5
614
  8
LAYER_1
 10
-14.22982778282451
 20
-40.10029256618751
 30
0.0
  0
VERTEX
  5
615
  8
LAYER_1
 10
-14.65435860518231
 20
-40.40716170976484
 30
0.0
  0
VERTEX
  5
616
  8
LAYER_1
 10
-15.09369621308879
 20
-40.71019298293201
 30
0.0
  0
VERTEX
  5
617
  8
LAYER_1
 10
-15.53770661361466
 20
-41.00195644312208
 30
0.0
  0
VERTEX
  5
618
  8
LAYER_1
 10
-15.97625581383065
 20
-41.27502214776802
 30
0.0
  0
VERTEX
  5
619
  8
LAYER_1
 10
-16.41982310994971
 20
-41.54861503741904
 30
0.0
  0
VERTEX
  5
61A
  8
LAYER_1
 10
-16.85886079593996
 20
-41.82944168313956
 30
0.0
  0
VERTEX
  5
61B
  8
LAYER_1
 10
-17.72682295961523
 20
-42.40714459910635
 30
0.0
  0
VERTEX
  5
61C
  8
LAYER_1
 10
-18.58709354901888
 20
-42.99682760830299
 30
0.0
  0
VERTEX
  5
61D
  8
LAYER_1
 10
-19.44662380831333
 20
-43.5871874233641
 30
0.0
  0
VERTEX
  5
61E
  8
LAYER_1
 10
-19.8003190919965
 20
-43.8215402432705
 30
0.0
  0
VERTEX
  5
61F
  8
LAYER_1
 10
-20.18865206216993
 20
-44.06683575724114
 30
0.0
  0
VERTEX
  5
620
  8
LAYER_1
 10
-20.60306003869458
 20
-44.31812263280321
 30
0.0
  0
VERTEX
  5
621
  8
LAYER_1
 10
-21.0349803414314
 20
-44.5704495374839
 30
0.0
  0
VERTEX
  5
622
  8
LAYER_1
 10
-21.47585029024133
 20
-44.81886513881042
 30
0.0
  0
VERTEX
  5
623
  8
LAYER_1
 10
-21.91710720498534
 20
-45.05841810430994
 30
0.0
  0
VERTEX
  5
624
  8
LAYER_1
 10
-22.35018840552438
 20
-45.28415710150966
 30
0.0
  0
VERTEX
  5
625
  8
LAYER_1
 10
-22.76653121171939
 20
-45.49113079793679
 30
0.0
  0
VERTEX
  5
626
  8
LAYER_1
 10
-23.57935340963949
 20
-45.87966294458838
 30
0.0
  0
VERTEX
  5
627
  8
LAYER_1
 10
-24.39634129261618
 20
-46.26024831911171
 30
0.0
  0
VERTEX
  5
628
  8
LAYER_1
 10
-25.21766274636401
 20
-46.63182148377564
 30
0.0
  0
VERTEX
  5
629
  8
LAYER_1
 10
-26.04348565659754
 20
-46.99331700084905
 30
0.0
  0
VERTEX
  5
62A
  8
LAYER_1
 10
-26.87397790903131
 20
-47.34366943260081
 30
0.0
  0
VERTEX
  5
62B
  8
LAYER_1
 10
-27.70930738937989
 20
-47.68181334129979
 30
0.0
  0
VERTEX
  5
62C
  8
LAYER_1
 10
-28.54964198335782
 20
-48.00668328921487
 30
0.0
  0
VERTEX
  5
62D
  8
LAYER_1
 10
-29.39514957667964
 20
-48.31721383861492
 30
0.0
  0
VERTEX
  5
62E
  8
LAYER_1
 10
-29.81451171558279
 20
-48.47259033949973
 30
0.0
  0
VERTEX
  5
62F
  8
LAYER_1
 10
-30.26076504894465
 20
-48.64872483698604
 30
0.0
  0
VERTEX
  5
630
  8
LAYER_1
 10
-30.72297137498192
 20
-48.84176403396217
 30
0.0
  0
VERTEX
  5
631
  8
LAYER_1
 10
-31.19019249191129
 20
-49.04785463331643
 30
0.0
  0
VERTEX
  5
632
  8
LAYER_1
 10
-32.84379196297408
 20
-49.78520623000682
 30
0.0
  0
VERTEX
  5
633
  8
LAYER_1
 10
-33.56429173111797
 20
-50.09465637810984
 30
0.0
  0
VERTEX
  5
634
  8
LAYER_1
 10
-34.22262785019303
 20
-50.36705128630764
 30
0.0
  0
VERTEX
  5
635
  8
LAYER_1
 10
-34.8253275670914
 20
-50.60421234979239
 30
0.0
  0
VERTEX
  5
636
  8
LAYER_1
 10
-35.37891812870523
 20
-50.80796096375627
 30
0.0
  0
VERTEX
  5
637
  8
LAYER_1
 10
-35.88992678192664
 20
-50.98011852339145
 30
0.0
  0
VERTEX
  5
638
  8
LAYER_1
 10
-36.36488077364778
 20
-51.1225064238901
 30
0.0
  0
VERTEX
  5
639
  8
LAYER_1
 10
-36.81030735076077
 20
-51.2369460604444
 30
0.0
  0
VERTEX
  5
63A
  8
LAYER_1
 10
-37.23273376015775
 20
-51.3252588282465
 30
0.0
  0
VERTEX
  5
63B
  8
LAYER_1
 10
-37.63868724873086
 20
-51.38926612248861
 30
0.0
  0
VERTEX
  5
63C
  8
LAYER_1
 10
-38.03469506337223
 20
-51.43078933836288
 30
0.0
  0
VERTEX
  5
63D
  8
LAYER_1
 10
-38.42728445097401
 20
-51.45164987106148
 30
0.0
  0
VERTEX
  5
63E
  8
LAYER_1
 10
-38.82298265842832
 20
-51.45366911577659
 30
0.0
  0
VERTEX
  5
63F
  8
LAYER_1
 10
-39.22831693262731
 20
-51.43866846770037
 30
0.0
  0
VERTEX
  5
640
  8
LAYER_1
 10
-39.6498145204631
 20
-51.40846932202502
 30
0.0
  0
VERTEX
  5
641
  8
LAYER_1
 10
-39.89122020367225
 20
-51.3822172977988
 30
0.0
  0
VERTEX
  5
642
  8
LAYER_1
 10
-40.15614120441348
 20
-51.34325940802881
 30
0.0
  0
VERTEX
  5
643
  8
LAYER_1
 10
-40.44333098359952
 20
-51.29205484051834
 30
0.0
  0
VERTEX
  5
644
  8
LAYER_1
 10
-40.75154300214311
 20
-51.22906278307072
 30
0.0
  0
VERTEX
  5
645
  8
LAYER_1
 10
-41.42604760095386
 20
-51.06955294957724
 30
0.0
  0
VERTEX
  5
646
  8
LAYER_1
 10
-42.16968268814762
 20
-50.86840340997483
 30
0.0
  0
VERTEX
  5
647
  8
LAYER_1
 10
-42.97247595102624
 20
-50.62928766668996
 30
0.0
  0
VERTEX
  5
648
  8
LAYER_1
 10
-43.82445507689162
 20
-50.3558792221491
 30
0.0
  0
VERTEX
  5
649
  8
LAYER_1
 10
-44.71564775304562
 20
-50.0518515787787
 30
0.0
  0
VERTEX
  5
64A
  8
LAYER_1
 10
-45.6360816667901
 20
-49.72087823900524
 30
0.0
  0
VERTEX
  5
64B
  8
LAYER_1
 10
-46.57578450542697
 20
-49.3666327052552
 30
0.0
  0
VERTEX
  5
64C
  8
LAYER_1
 10
-47.52478395625808
 20
-48.99278847995502
 30
0.0
  0
VERTEX
  5
64D
  8
LAYER_1
 10
-48.47310770658531
 20
-48.60301906553119
 30
0.0
  0
VERTEX
  5
64E
  8
LAYER_1
 10
-49.41078344371053
 20
-48.20099796441016
 30
0.0
  0
VERTEX
  5
64F
  8
LAYER_1
 10
-50.32783885493562
 20
-47.79039867901841
 30
0.0
  0
VERTEX
  5
650
  8
LAYER_1
 10
-51.21430162756246
 20
-47.3748947117824
 30
0.0
  0
VERTEX
  5
651
  8
LAYER_1
 10
-52.06019944889292
 20
-46.9581595651286
 30
0.0
  0
VERTEX
  5
652
  8
LAYER_1
 10
-52.85556000622887
 20
-46.54386674148348
 30
0.0
  0
VERTEX
  5
653
  8
LAYER_1
 10
-55.44028667912441
 20
-45.15555555555554
 30
0.0
  0
VERTEX
  5
654
  8
LAYER_1
 10
-55.70939372775681
 20
-45.15555555555556
 30
0.0
  0
VERTEX
  5
655
  8
LAYER_1
 10
-55.7454273966151
 20
-45.14966799854923
 30
0.0
  0
VERTEX
  5
656
  8
LAYER_1
 10
-55.79306575013261
 20
-45.13223157816546
 30
0.0
  0
VERTEX
  5
657
  8
LAYER_1
 10
-55.92157132119646
 20
-45.06406965107696
 30
0.0
  0
VERTEX
  5
658
  8
LAYER_1
 10
-56.0917400610507
 20
-44.95378478191275
 30
0.0
  0
VERTEX
  5
659
  8
LAYER_1
 10
-56.3004015897977
 20
-44.80409197829556
 30
0.0
  0
VERTEX
  5
65A
  8
LAYER_1
 10
-56.82052149437939
 20
-44.39734259819305
 30
0.0
  0
VERTEX
  5
65B
  8
LAYER_1
 10
-57.45656799576039
 20
-43.86554157175109
 30
0.0
  0
VERTEX
  5
65C
  8
LAYER_1
 10
-58.18317805475952
 20
-43.23040895995137
 30
0.0
  0
VERTEX
  5
65D
  8
LAYER_1
 10
-58.97498863219566
 20
-42.51366482377554
 30
0.0
  0
VERTEX
  5
65E
  8
LAYER_1
 10
-59.80663668888764
 20
-41.73702922420526
 30
0.0
  0
VERTEX
  5
65F
  8
LAYER_1
 10
-60.6527591856543
 20
-40.92222222222222
 30
0.0
  0
VERTEX
  5
660
  8
LAYER_1
 10
-61.31317671053146
 20
-40.25600005434619
 30
0.0
  0
VERTEX
  5
661
  8
LAYER_1
 10
-61.9516099502575
 20
-39.57148549309129
 30
0.0
  0
VERTEX
  5
662
  8
LAYER_1
 10
-62.56618168759129
 20
-38.87102797131629
 30
0.0
  0
VERTEX
  5
663
  8
LAYER_1
 10
-63.15501470529172
 20
-38.15697692187999
 30
0.0
  0
VERTEX
  5
664
  8
LAYER_1
 10
-63.71623178611765
 20
-37.43168177764113
 30
0.0
  0
VERTEX
  5
665
  8
LAYER_1
 10
-64.24795571282795
 20
-36.69749197145852
 30
0.0
  0
VERTEX
  5
666
  8
LAYER_1
 10
-64.7483092681815
 20
-35.95675693619091
 30
0.0
  0
VERTEX
  5
667
  8
LAYER_1
 10
-64.98613552621165
 20
-35.58466915541862
 30
0.0
  0
VERTEX
  5
668
  8
LAYER_1
 10
-65.21541523493718
 20
-35.21182610469711
 30
0.0
  0
VERTEX
  5
669
  8
LAYER_1
 10
-65.99949561147338
 20
-33.91115220939423
 30
0.0
  0
VERTEX
  5
66A
  8
LAYER_1
 10
-65.13166408515877
 20
-32.21321499358601
 30
0.0
  0
VERTEX
  5
66B
  8
LAYER_1
 10
-64.77703382962687
 20
-31.50653501828157
 30
0.0
  0
VERTEX
  5
66C
  8
LAYER_1
 10
-64.4422128906684
 20
-30.81056084974705
 30
0.0
  0
VERTEX
  5
66D
  8
LAYER_1
 10
-64.12390544517801
 20
-30.11527377968682
 30
0.0
  0
VERTEX
  5
66E
  8
LAYER_1
 10
-63.81881567005036
 20
-29.41065509980527
 30
0.0
  0
VERTEX
  5
66F
  8
LAYER_1
 10
-63.5236477421801
 20
-28.68668610180676
 30
0.0
  0
VERTEX
  5
670
  8
LAYER_1
 10
-63.23510583846188
 20
-27.93334807739567
 30
0.0
  0
VERTEX
  5
671
  8
LAYER_1
 10
-62.94989413579037
 20
-27.14062231827637
 30
0.0
  0
VERTEX
  5
672
  8
LAYER_1
 10
-62.66471681106021
 20
-26.29849011615325
 30
0.0
  0
VERTEX
  5
673
  8
LAYER_1
 10
-62.37627804116607
 20
-25.39693276273068
 30
0.0
  0
VERTEX
  5
674
  8
LAYER_1
 10
-62.08128200300258
 20
-24.42593154971303
 30
0.0
  0
VERTEX
  5
675
  8
LAYER_1
 10
-61.77643287346443
 20
-23.37546776880468
 30
0.0
  0
VERTEX
  5
676
  8
LAYER_1
 10
-61.45843482944626
 20
-22.23552271171
 30
0.0
  0
VERTEX
  5
677
  8
LAYER_1
 10
-61.12399204784272
 20
-20.99607767013338
 30
0.0
  0
VERTEX
  5
678
  8
LAYER_1
 10
-60.76980870554846
 20
-19.64711393577917
 30
0.0
  0
VERTEX
  5
679
  8
LAYER_1
 10
-59.98903704646644
 20
-16.58055555555555
 30
0.0
  0
VERTEX
  5
67A
  8
LAYER_1
 10
-58.49739360840856
 20
-10.66243986592174
 30
0.0
  0
VERTEX
  5
67B
  8
LAYER_1
 10
-58.4147422040817
 20
-10.35625658033945
 30
0.0
  0
VERTEX
  5
67C
  8
LAYER_1
 10
-58.32769273755562
 20
-10.06446941768594
 30
0.0
  0
VERTEX
  5
67D
  8
LAYER_1
 10
-58.23886139315369
 20
-9.793903961140323
 30
0.0
  0
VERTEX
  5
67E
  8
LAYER_1
 10
-58.15086435519932
 20
-9.551385793881717
 30
0.0
  0
VERTEX
  5
67F
  8
LAYER_1
 10
-58.06631780801589
 20
-9.343740499089234
 30
0.0
  0
VERTEX
  5
680
  8
LAYER_1
 10
-57.98783793592678
 20
-9.177793659941988
 30
0.0
  0
VERTEX
  5
681
  8
LAYER_1
 10
-57.9180409232554
 20
-9.060370859619093
 30
0.0
  0
VERTEX
  5
682
  8
LAYER_1
 10
-57.88721604680241
 20
-9.021988968760247
 30
0.0
  0
VERTEX
  5
683
  8
LAYER_1
 10
-57.85954295432513
 20
-8.998297681299661
 30
0.0
  0
VERTEX
  5
684
  8
LAYER_1
 10
-57.60753623617438
 20
-8.84254896408919
 30
0.0
  0
VERTEX
  5
685
  8
LAYER_1
 10
-56.39858023356544
 20
-17.81527777777777
 30
0.0
  0
VERTEX
  5
686
  8
LAYER_1
 10
-55.70362536512413
 20
-20.58753111718478
 30
0.0
  0
VERTEX
  5
687
  8
LAYER_1
 10
-55.59324870142171
 20
-21.01211272571956
 30
0.0
  0
VERTEX
  5
688
  8
LAYER_1
 10
-55.47634910486973
 20
-21.43138448610389
 30
0.0
  0
VERTEX
  5
689
  8
LAYER_1
 10
-55.35300006028586
 20
-21.84522746484692
 30
0.0
  0
VERTEX
  5
68A
  8
LAYER_1
 10
-55.22327505248777
 20
-22.25352272845777
 30
0.0
  0
VERTEX
  5
68B
  8
LAYER_1
 10
-55.08724756629313
 20
-22.65615134344559
 30
0.0
  0
VERTEX
  5
68C
  8
LAYER_1
 10
-54.94499108651961
 20
-23.05299437631949
 30
0.0
  0
VERTEX
  5
68D
  8
LAYER_1
 10
-54.79657909798487
 20
-23.44393289358861
 30
0.0
  0
VERTEX
  5
68E
  8
LAYER_1
 10
-54.64208508550658
 20
-23.82884796176209
 30
0.0
  0
VERTEX
  5
68F
  8
LAYER_1
 10
-54.48158253390241
 20
-24.20762064734906
 30
0.0
  0
VERTEX
  5
690
  8
LAYER_1
 10
-54.31514492799003
 20
-24.58013201685865
 30
0.0
  0
VERTEX
  5
691
  8
LAYER_1
 10
-54.14284575258711
 20
-24.94626313679999
 30
0.0
  0
VERTEX
  5
692
  8
LAYER_1
 10
-53.9647584925113
 20
-25.30589507368222
 30
0.0
  0
VERTEX
  5
693
  8
LAYER_1
 10
-53.78095663258029
 20
-25.65890889401446
 30
0.0
  0
VERTEX
  5
694
  8
LAYER_1
 10
-53.59151365761174
 20
-26.00518566430585
 30
0.0
  0
VERTEX
  5
695
  8
LAYER_1
 10
-53.39650305242331
 20
-26.34460645106553
 30
0.0
  0
VERTEX
  5
696
  8
LAYER_1
 10
-53.19599830183269
 20
-26.67705232080262
 30
0.0
  0
VERTEX
  5
697
  8
LAYER_1
 10
-52.99007289065752
 20
-27.00240434002625
 30
0.0
  0
VERTEX
  5
698
  8
LAYER_1
 10
-52.77880030371549
 20
-27.32054357524557
 30
0.0
  0
VERTEX
  5
699
  8
LAYER_1
 10
-52.56225402582426
 20
-27.6313510929697
 30
0.0
  0
VERTEX
  5
69A
  8
LAYER_1
 10
-52.34050754180149
 20
-27.93470795970778
 30
0.0
  0
VERTEX
  5
69B
  8
LAYER_1
 10
-52.11363433646486
 20
-28.23049524196893
 30
0.0
  0
VERTEX
  5
69C
  8
LAYER_1
 10
-51.88170789463203
 20
-28.51859400626229
 30
0.0
  0
VERTEX
  5
69D
  8
LAYER_1
 10
-51.64480170112067
 20
-28.79888531909699
 30
0.0
  0
VERTEX
  5
69E
  8
LAYER_1
 10
-51.40298924074845
 20
-29.07125024698217
 30
0.0
  0
VERTEX
  5
69F
  8
LAYER_1
 10
-51.15634399833304
 20
-29.33556985642695
 30
0.0
  0
VERTEX
  5
6A0
  8
LAYER_1
 10
-50.90493945869211
 20
-29.59172521394047
 30
0.0
  0
VERTEX
  5
6A1
  8
LAYER_1
 10
-50.64884910664333
 20
-29.83959738603187
 30
0.0
  0
VERTEX
  5
6A2
  8
LAYER_1
 10
-50.38814642700435
 20
-30.07906743921027
 30
0.0
  0
VERTEX
  5
6A3
  8
LAYER_1
 10
-50.12290490459286
 20
-30.31001643998481
 30
0.0
  0
VERTEX
  5
6A4
  8
LAYER_1
 10
-49.8531980242265
 20
-30.53232545486462
 30
0.0
  0
VERTEX
  5
6A5
  8
LAYER_1
 10
-49.57909927072297
 20
-30.74587555035883
 30
0.0
  0
VERTEX
  5
6A6
  8
LAYER_1
 10
-49.30068212889991
 20
-30.95054779297656
 30
0.0
  0
VERTEX
  5
6A7
  8
LAYER_1
 10
-48.42687409085836
 20
-31.56757324606396
 30
0.0
  0
VERTEX
  5
6A8
  8
LAYER_1
 10
-47.98396590409151
 20
-31.86912966773772
 30
0.0
  0
VERTEX
  5
6A9
  8
LAYER_1
 10
-47.53534938941674
 20
-32.16160628945141
 30
0.0
  0
VERTEX
  5
6AA
  8
LAYER_1
 10
-47.07974538477617
 20
-32.44167141366992
 30
0.0
  0
VERTEX
  5
6AB
  8
LAYER_1
 10
-46.61587472811193
 20
-32.70599334285816
 30
0.0
  0
VERTEX
  5
6AC
  8
LAYER_1
 10
-46.14245825736612
 20
-32.95124037948105
 30
0.0
  0
VERTEX
  5
6AD
  8
LAYER_1
 10
-45.65821681048084
 20
-33.17408082600349
 30
0.0
  0
VERTEX
  5
6AE
  8
LAYER_1
 10
-45.12464038321387
 20
-33.39405363072109
 30
0.0
  0
VERTEX
  5
6AF
  8
LAYER_1
 10
-44.59470390370478
 20
-33.59401397012346
 30
0.0
  0
VERTEX
  5
6B0
  8
LAYER_1
 10
-44.06847639321259
 20
-33.77397489468041
 30
0.0
  0
VERTEX
  5
6B1
  8
LAYER_1
 10
-43.54602687299631
 20
-33.9339494548618
 30
0.0
  0
VERTEX
  5
6B2
  8
LAYER_1
 10
-43.02742436431494
 20
-34.07395070113743
 30
0.0
  0
VERTEX
  5
6B3
  8
LAYER_1
 10
-42.51273788842749
 20
-34.19399168397715
 30
0.0
  0
VERTEX
  5
6B4
  8
LAYER_1
 10
-42.00203646659297
 20
-34.29408545385078
 30
0.0
  0
VERTEX
  5
6B5
  8
LAYER_1
 10
-41.49538912007039
 20
-34.37424506122814
 30
0.0
  0
VERTEX
  5
6B6
  8
LAYER_1
 10
-40.99286487011876
 20
-34.43448355657907
 30
0.0
  0
VERTEX
  5
6B7
  8
LAYER_1
 10
-40.49453273799708
 20
-34.47481399037341
 30
0.0
  0
VERTEX
  5
6B8
  8
LAYER_1
 10
-40.00046174496435
 20
-34.49524941308097
 30
0.0
  0
VERTEX
  5
6B9
  8
LAYER_1
 10
-39.51072091227961
 20
-34.49580287517158
 30
0.0
  0
VERTEX
  5
6BA
  8
LAYER_1
 10
-39.02537926120185
 20
-34.47648742711507
 30
0.0
  0
VERTEX
  5
6BB
  8
LAYER_1
 10
-38.54450581299007
 20
-34.43731611938129
 30
0.0
  0
VERTEX
  5
6BC
  8
LAYER_1
 10
-38.06816958890329
 20
-34.37830200244007
 30
0.0
  0
VERTEX
  5
6BD
  8
LAYER_1
 10
-37.59643961020052
 20
-34.2994581267612
 30
0.0
  0
VERTEX
  5
6BE
  8
LAYER_1
 10
-37.12938489814076
 20
-34.20079754281454
 30
0.0
  0
VERTEX
  5
6BF
  8
LAYER_1
 10
-36.66707447398302
 20
-34.08233330106991
 30
0.0
  0
VERTEX
  5
6C0
  8
LAYER_1
 10
-36.20957735898631
 20
-33.94407845199714
 30
0.0
  0
VERTEX
  5
6C1
  8
LAYER_1
 10
-35.75696257440964
 20
-33.78604604606606
 30
0.0
  0
VERTEX
  5
6C2
  8
LAYER_1
 10
-35.30929914151201
 20
-33.6082491337465
 30
0.0
  0
VERTEX
  5
6C3
  8
LAYER_1
 10
-34.86665608155245
 20
-33.4107007655083
 30
0.0
  0
VERTEX
  5
6C4
  8
LAYER_1
 10
-34.42910241578994
 20
-33.19341399182126
 30
0.0
  0
VERTEX
  5
6C5
  8
LAYER_1
 10
-33.99670716548352
 20
-32.95640186315524
 30
0.0
  0
VERTEX
  5
6C6
  8
LAYER_1
 10
-33.56953935189217
 20
-32.69967742998005
 30
0.0
  0
VERTEX
  5
6C7
  8
LAYER_1
 10
-33.1476679962749
 20
-32.42325374276552
 30
0.0
  0
VERTEX
  5
6C8
  8
LAYER_1
 10
-32.73116211989074
 20
-32.1271438519815
 30
0.0
  0
VERTEX
  5
6C9
  8
LAYER_1
 10
-32.32009074399868
 20
-31.8113608080978
 30
0.0
  0
VERTEX
  5
6CA
  8
LAYER_1
 10
-31.91452288985774
 20
-31.47591766158425
 30
0.0
  0
VERTEX
  5
6CB
  8
LAYER_1
 10
-31.51452757872691
 20
-31.12082746291068
 30
0.0
  0
VERTEX
  5
6CC
  8
LAYER_1
 10
-31.12017383186522
 20
-30.74610326254693
 30
0.0
  0
VERTEX
  5
6CD
  8
LAYER_1
 10
-30.73153067053167
 20
-30.35175811096282
 30
0.0
  0
VERTEX
  5
6CE
  8
LAYER_1
 10
-30.30486011842544
 20
-29.88311997656862
 30
0.0
  0
VERTEX
  5
6CF
  8
LAYER_1
 10
-29.86678240115814
 20
-29.36216596720291
 30
0.0
  0
VERTEX
  5
6D0
  8
LAYER_1
 10
-29.42974797391854
 20
-28.80628695660482
 30
0.0
  0
VERTEX
  5
6D1
  8
LAYER_1
 10
-29.00620729189544
 20
-28.23287381851345
 30
0.0
  0
VERTEX
  5
6D2
  8
LAYER_1
 10
-28.60861081027761
 20
-27.65931742666793
 30
0.0
  0
VERTEX
  5
6D3
  8
LAYER_1
 10
-28.24940898425382
 20
-27.10300865480737
 30
0.0
  0
VERTEX
  5
6D4
  8
LAYER_1
 10
-27.94105226901286
 20
-26.58133837667088
 30
0.0
  0
VERTEX
  5
6D5
  8
LAYER_1
 10
-27.80983159518243
 20
-26.33892732079264
 30
0.0
  0
VERTEX
  5
6D6
  8
LAYER_1
 10
-27.69599111974351
 20
-26.11169746599758
 30
0.0
  0
VERTEX
  5
6D7
  8
LAYER_1
 10
-27.48712921857702
 20
-25.68527000084987
 30
0.0
  0
VERTEX
  5
6D8
  8
LAYER_1
 10
-27.28252058761171
 20
-25.28745069816709
 30
0.0
  0
VERTEX
  5
6D9
  8
LAYER_1
 10
-27.087341191987
 20
-24.92694639000381
 30
0.0
  0
VERTEX
  5
6DA
  8
LAYER_1
 10
-26.90676699684228
 20
-24.61246390841456
 30
0.0
  0
VERTEX
  5
6DB
  8
LAYER_1
 10
-26.74597396731696
 20
-24.3527100854539
 30
0.0
  0
VERTEX
  5
6DC
  8
LAYER_1
 10
-26.61013806855043
 20
-24.15639175317637
 30
0.0
  0
VERTEX
  5
6DD
  8
LAYER_1
 10
-26.50443526568209
 20
-24.03221574363651
 30
0.0
  0
VERTEX
  5
6DE
  8
LAYER_1
 10
-26.46450126431581
 20
-23.99990199491025
 30
0.0
  0
VERTEX
  5
6DF
  8
LAYER_1
 10
-26.43404152385135
 20
-23.98888888888888
 30
0.0
  0
VERTEX
  5
6E0
  8
LAYER_1
 10
-26.37307107368343
 20
-24.00611204800189
 30
0.0
  0
VERTEX
  5
6E1
  8
LAYER_1
 10
-26.29437569524585
 20
-24.05547411646454
 30
0.0
  0
VERTEX
  5
6E2
  8
LAYER_1
 10
-26.20123767784145
 20
-24.13351398096225
 30
0.0
  0
VERTEX
  5
6E3
  8
LAYER_1
 10
-26.0969393107731
 20
-24.23677052818045
 30
0.0
  0
VERTEX
  5
6E4
  8
LAYER_1
 10
-25.98476288334366
 20
-24.36178264480455
 30
0.0
  0
VERTEX
  5
6E5
  8
LAYER_1
 10
-25.86799068485596
 20
-24.50508921751999
 30
0.0
  0
VERTEX
  5
6E6
  8
LAYER_1
 10
-25.74990500461288
 20
-24.66322913301218
 30
0.0
  0
VERTEX
  5
6E7
  8
LAYER_1
 10
-25.63378813191726
 20
-24.83274127796655
 30
0.0
  0
VERTEX
  5
6E8
  8
LAYER_1
 10
-25.41619509347151
 20
-25.14718997281168
 30
0.0
  0
VERTEX
  5
6E9
  8
LAYER_1
 10
-25.17473712904808
 20
-25.46351159978195
 30
0.0
  0
VERTEX
  5
6EA
  8
LAYER_1
 10
-24.91098537078054
 20
-25.78040475651352
 30
0.0
  0
VERTEX
  5
6EB
  8
LAYER_1
 10
-24.62651095080249
 20
-26.09656804064258
 30
0.0
  0
VERTEX
  5
6EC
  8
LAYER_1
 10
-24.32288500124752
 20
-26.41070004980532
 30
0.0
  0
VERTEX
  5
6ED
  8
LAYER_1
 10
-24.00167865424924
 20
-26.72149938163791
 30
0.0
  0
VERTEX
  5
6EE
  8
LAYER_1
 10
-23.66446304194123
 20
-27.02766463377655
 30
0.0
  0
VERTEX
  5
6EF
  8
LAYER_1
 10
-23.31280929645708
 20
-27.32789440385741
 30
0.0
  0
VERTEX
  5
6F0
  8
LAYER_1
 10
-22.94828854993038
 20
-27.62088728951667
 30
0.0
  0
VERTEX
  5
6F1
  8
LAYER_1
 10
-22.57247193449473
 20
-27.90534188839052
 30
0.0
  0
VERTEX
  5
6F2
  8
LAYER_1
 10
-22.18693058228372
 20
-28.17995679811515
 30
0.0
  0
VERTEX
  5
6F3
  8
LAYER_1
 10
-21.79323562543095
 20
-28.44343061632673
 30
0.0
  0
VERTEX
  5
6F4
  8
LAYER_1
 10
-21.39295819607
 20
-28.69446194066145
 30
0.0
  0
VERTEX
  5
6F5
  8
LAYER_1
 10
-20.98766942633447
 20
-28.93174936875549
 30
0.0
  0
VERTEX
  5
6F6
  8
LAYER_1
 10
-20.57894044835795
 20
-29.15399149824503
 30
0.0
  0
VERTEX
  5
6F7
  8
LAYER_1
 10
-20.16834239427403
 20
-29.35988692676626
 30
0.0
  0
VERTEX
  5
6F8
  8
LAYER_1
 10
-19.5048502917951
 20
-29.66962634362687
 30
0.0
  0
VERTEX
  5
6F9
  8
LAYER_1
 10
-18.93757296551971
 20
-29.91047469273551
 30
0.0
  0
VERTEX
  5
6FA
  8
LAYER_1
 10
-18.6809512853241
 20
-30.00696820829995
 30
0.0
  0
VERTEX
  5
6FB
  8
LAYER_1
 10
-18.43750702941827
 20
-30.08852314662695
 30
0.0
  0
VERTEX
  5
6FC
  8
LAYER_1
 10
-18.20361477454854
 20
-30.15590090428334
 30
0.0
  0
VERTEX
  5
6FD
  8
LAYER_1
 10
-17.97564909746121
 20
-30.20986287783597
 30
0.0
  0
VERTEX
  5
6FE
  8
LAYER_1
 10
-17.74998457490257
 20
-30.25117046385169
 30
0.0
  0
VERTEX
  5
6FF
  8
LAYER_1
 10
-17.52299578361893
 20
-30.28058505889734
 30
0.0
  0
VERTEX
  5
700
  8
LAYER_1
 10
-17.29105730035658
 20
-30.29886805953979
 30
0.0
  0
VERTEX
  5
701
  8
LAYER_1
 10
-17.05054370186185
 20
-30.30678086234586
 30
0.0
  0
VERTEX
  5
702
  8
LAYER_1
 10
-16.79782956488101
 20
-30.30508486388241
 30
0.0
  0
VERTEX
  5
703
  8
LAYER_1
 10
-16.52928946616039
 20
-30.2945414607163
 30
0.0
  0
VERTEX
  5
704
  8
LAYER_1
 10
-15.93022969048495
 20
-30.24995802654342
 30
0.0
  0
VERTEX
  5
705
  8
LAYER_1
 10
-15.44555518124842
 20
-30.19569551695614
 30
0.0
  0
VERTEX
  5
706
  8
LAYER_1
 10
-14.96828952928591
 20
-30.12159464295496
 30
0.0
  0
VERTEX
  5
707
  8
LAYER_1
 10
-14.4986310900332
 20
-30.02784942638126
 30
0.0
  0
VERTEX
  5
708
  8
LAYER_1
 10
-14.03677821892611
 20
-29.91465388907644
 30
0.0
  0
VERTEX
  5
709
  8
LAYER_1
 10
-13.58292927140042
 20
-29.7822020528819
 30
0.0
  0
VERTEX
  5
70A
  8
LAYER_1
 10
-13.13728260289193
 20
-29.63068793963901
 30
0.0
  0
VERTEX
  5
70B
  8
LAYER_1
 10
-12.70003656883643
 20
-29.46030557118917
 30
0.0
  0
VERTEX
  5
70C
  8
LAYER_1
 10
-12.27138952466973
 20
-29.27124896937377
 30
0.0
  0
VERTEX
  5
70D
  8
LAYER_1
 10
-11.85153982582762
 20
-29.06371215603421
 30
0.0
  0
VERTEX
  5
70E
  8
LAYER_1
 10
-11.4406858277459
 20
-28.83788915301186
 30
0.0
  0
VERTEX
  5
70F
  8
LAYER_1
 10
-11.03902588586035
 20
-28.59397398214813
 30
0.0
  0
VERTEX
  5
710
  8
LAYER_1
 10
-10.64675835560678
 20
-28.33216066528441
 30
0.0
  0
VERTEX
  5
711
  8
LAYER_1
 10
-10.26408159242099
 20
-28.05264322426207
 30
0.0
  0
VERTEX
  5
712
  8
LAYER_1
 10
-9.891193951738764
 20
-27.75561568092252
 30
0.0
  0
VERTEX
  5
713
  8
LAYER_1
 10
-9.528293788995908
 20
-27.44127205710714
 30
0.0
  0
VERTEX
  5
714
  8
LAYER_1
 10
-9.175579459628217
 20
-27.10980637465732
 30
0.0
  0
VERTEX
  5
715
  8
LAYER_1
 10
-8.833249319071484
 20
-26.76141265541447
 30
0.0
  0
VERTEX
  5
716
  8
LAYER_1
 10
-8.501501722761507
 20
-26.39628492121995
 30
0.0
  0
VERTEX
  5
717
  8
LAYER_1
 10
-8.18053502613408
 20
-26.01461719391517
 30
0.0
  0
VERTEX
  5
718
  8
LAYER_1
 10
-7.870547584625002
 20
-25.61660349534152
 30
0.0
  0
VERTEX
  5
719
  8
LAYER_1
 10
-7.571737753670067
 20
-25.20243784734038
 30
0.0
  0
VERTEX
  5
71A
  8
LAYER_1
 10
-7.284303888705075
 20
-24.77231427175315
 30
0.0
  0
VERTEX
  5
71B
  8
LAYER_1
 10
-7.00844434516582
 20
-24.32642679042122
 30
0.0
  0
VERTEX
  5
71C
  8
LAYER_1
 10
-6.744357478488098
 20
-23.86496942518597
 30
0.0
  0
VERTEX
  5
71D
  8
LAYER_1
 10
-6.492241644107705
 20
-23.3881361978888
 30
0.0
  0
VERTEX
  5
71E
  8
LAYER_1
 10
-6.252295197460437
 20
-22.8961211303711
 30
0.0
  0
VERTEX
  5
71F
  8
LAYER_1
 10
-6.024716493982092
 20
-22.38911824447425
 30
0.0
  0
VERTEX
  5
720
  8
LAYER_1
 10
-5.809703889108466
 20
-21.86732156203966
 30
0.0
  0
VERTEX
  5
721
  8
LAYER_1
 10
-5.607455738275354
 20
-21.33092510490871
 30
0.0
  0
VERTEX
  5
722
  8
LAYER_1
 10
-5.418170396918553
 20
-20.78012289492279
 30
0.0
  0
VERTEX
  5
723
  8
LAYER_1
 10
-5.24204622047386
 20
-20.21510895392328
 30
0.0
  0
VERTEX
  5
724
  8
LAYER_1
 10
-5.079281564377069
 20
-19.63607730375159
 30
0.0
  0
VERTEX
  5
725
  8
LAYER_1
 10
-4.991329183875321
 20
-19.27353496455629
 30
0.0
  0
VERTEX
  5
726
  8
LAYER_1
 10
-4.912721750295864
 20
-18.88285829514387
 30
0.0
  0
VERTEX
  5
727
  8
LAYER_1
 10
-4.843359035360324
 20
-18.46545419847229
 30
0.0
  0
VERTEX
  5
728
  8
LAYER_1
 10
-4.783140810790323
 20
-18.02272957749955
 30
0.0
  0
VERTEX
  5
729
  8
LAYER_1
 10
-4.731966848307485
 20
-17.55609133518358
 30
0.0
  0
VERTEX
  5
72A
  8
LAYER_1
 10
-4.689736919633433
 20
-17.06694637448238
 30
0.0
  0
VERTEX
  5
72B
  8
LAYER_1
 10
-4.656350796489791
 20
-16.5567015983539
 30
0.0
  0
VERTEX
  5
72C
  8
LAYER_1
 10
-4.631708250598183
 20
-16.02676390975611
 30
0.0
  0
VERTEX
  5
72D
  8
LAYER_1
 10
-4.615709053680231
 20
-15.47854021164698
 30
0.0
  0
VERTEX
  5
72E
  8
LAYER_1
 10
-4.60825297745756
 20
-14.91343740698447
 30
0.0
  0
VERTEX
  5
72F
  8
LAYER_1
 10
-4.609239793651792
 20
-14.33286239872657
 30
0.0
  0
VERTEX
  5
730
  8
LAYER_1
 10
-4.618569273984551
 20
-13.73822208983122
 30
0.0
  0
VERTEX
  5
731
  8
LAYER_1
 10
-4.636141190177462
 20
-13.13092338325641
 30
0.0
  0
VERTEX
  5
732
  8
LAYER_1
 10
-4.661855313952145
 20
-12.5123731819601
 30
0.0
  0
VERTEX
  5
733
  8
LAYER_1
 10
-4.737309271133331
 20
-11.24714590703484
 30
0.0
  0
VERTEX
  5
734
  8
LAYER_1
 10
-4.844129319301094
 20
-9.953795488719198
 30
0.0
  0
VERTEX
  5
735
  8
LAYER_1
 10
-4.981513632228424
 20
-8.643577150676911
 30
0.0
  0
VERTEX
  5
736
  8
LAYER_1
 10
-5.148660383688307
 20
-7.327746116571726
 30
0.0
  0
VERTEX
  5
737
  8
LAYER_1
 10
-5.243144103172016
 20
-6.671243095890464
 30
0.0
  0
VERTEX
  5
738
  8
LAYER_1
 10
-5.344767747453733
 20
-6.017557610067383
 30
0.0
  0
VERTEX
  5
739
  8
LAYER_1
 10
-5.453431088255082
 20
-5.368096562060448
 30
0.0
  0
VERTEX
  5
73A
  8
LAYER_1
 10
-5.569033897297688
 20
-4.724266854827627
 30
0.0
  0
VERTEX
  5
73B
  8
LAYER_1
 10
-5.691475946303172
 20
-4.08747539132689
 30
0.0
  0
VERTEX
  5
73C
  8
LAYER_1
 10
-5.82065700699316
 20
-3.459129074516204
 30
0.0
  0
VERTEX
  5
73D
  8
LAYER_1
 10
-5.956476851089274
 20
-2.840634807353536
 30
0.0
  0
VERTEX
  5
73E
  8
LAYER_1
 10
-6.098835250313138
 20
-2.233399492796854
 30
0.0
  0
VERTEX
  5
73F
  8
LAYER_1
 10
-6.247631976386375
 20
-1.638830033804128
 30
0.0
  0
VERTEX
  5
740
  8
LAYER_1
 10
-6.402766801030609
 20
-1.058333333333323
 30
0.0
  0
VERTEX
  5
741
  8
LAYER_1
 10
-6.80995958504835
 20
0.383199482157258
 30
0.0
  0
VERTEX
  5
742
  8
LAYER_1
 10
-6.97012812168494
 20
0.9121980865915172
 30
0.0
  0
VERTEX
  5
743
  8
LAYER_1
 10
-7.107130219096147
 20
1.325350145768524
 30
0.0
  0
VERTEX
  5
744
  8
LAYER_1
 10
-7.236418293474754
 20
1.842760819617946
 30
0.0
  0
VERTEX
  5
745
  8
LAYER_1
 10
-7.34609900362018
 20
2.364042227528776
 30
0.0
  0
VERTEX
  5
746
  8
LAYER_1
 10
-7.436115656651653
 20
2.888637177554141
 30
0.0
  0
VERTEX
  5
747
  8
LAYER_1
 10
-7.506411559688397
 20
3.415988477747168
 30
0.0
  0
VERTEX
  5
748
  8
LAYER_1
 10
-7.556930019849641
 20
3.945538936160982
 30
0.0
  0
VERTEX
  5
749
  8
LAYER_1
 10
-7.587614344254611
 20
4.47673136084871
 30
0.0
  0
VERTEX
  5
74A
  8
LAYER_1
 10
-7.598407840022532
 20
5.00900855986348
 30
0.0
  0
VERTEX
  5
74B
  8
LAYER_1
 10
-7.589253814272633
 20
5.541813341258417
 30
0.0
  0
VERTEX
  5
74C
  8
LAYER_1
 10
-7.594984327303061
 20
5.7476114113749
 30
0.0
  0
VERTEX
  5
74D
  8
LAYER_1
 10
-7.625160964351213
 20
5.952613894064422
 30
0.0
  0
VERTEX
  5
74E
  8
LAYER_1
 10
-7.67715087101997
 20
6.153603812567
 30
0.0
  0
VERTEX
  5
74F
  8
LAYER_1
 10
-7.748321192912218
 20
6.347364190122653
 30
0.0
  0
VERTEX
  5
750
  8
LAYER_1
 10
-7.855460712297498
 20
6.631950899024685
 30
0.0
  0
VERTEX
  5
751
  8
LAYER_1
 10
-7.890514273824741
 20
6.752513509928871
 30
0.0
  0
VERTEX
  5
752
  8
LAYER_1
 10
-7.912481864597359
 20
6.855806140341018
 30
0.0
  0
VERTEX
  5
753
  8
LAYER_1
 10
-7.920807105632077
 20
6.939741676665509
 30
0.0
  0
VERTEX
  5
754
  8
LAYER_1
 10
-7.914933617945628
 20
7.002233005306727
 30
0.0
  0
VERTEX
  5
755
  8
LAYER_1
 10
-7.894305022554738
 20
7.041193012669059
 30
0.0
  0
VERTEX
  5
756
  8
LAYER_1
 10
-7.878283691037855
 20
7.051196547872012
 30
0.0
  0
VERTEX
  5
757
  8
LAYER_1
 10
-7.858364940476136
 20
7.054534585156887
 30
0.0
  0
VERTEX
  5
758
  8
LAYER_1
 10
-7.825914075330656
 20
7.045851448897152
 30
0.0
  0
VERTEX
  5
759
  8
LAYER_1
 10
-7.785395266615085
 20
7.020578177654427
 30
0.0
  0
VERTEX
  5
75A
  8
LAYER_1
 10
-7.682523674959667
 20
6.923654604570565
 30
0.0
  0
VERTEX
  5
75B
  8
LAYER_1
 10
-7.554489878481888
 20
6.770550614606426
 30
0.0
  0
VERTEX
  5
75C
  8
LAYER_1
 10
-7.406033590153754
 20
6.568052956463134
 30
0.0
  0
VERTEX
  5
75D
  8
LAYER_1
 10
-7.24189452294727
 20
6.322948378841811
 30
0.0
  0
VERTEX
  5
75E
  8
LAYER_1
 10
-7.066812389834441
 20
6.042023630443584
 30
0.0
  0
VERTEX
  5
75F
  8
LAYER_1
 10
-6.885526903787271
 20
5.732065459969574
 30
0.0
  0
VERTEX
  5
760
  8
LAYER_1
 10
-6.702777777777769
 20
5.399860616120904
 30
0.0
  0
VERTEX
  5
761
  8
LAYER_1
 10
-6.516613430447043
 20
5.064847496061409
 30
0.0
  0
VERTEX
  5
762
  8
LAYER_1
 10
-6.325539822048607
 20
4.746840725346793
 30
0.0
  0
VERTEX
  5
763
  8
LAYER_1
 10
-6.134982977973087
 20
4.453191395266002
 30
0.0
  0
VERTEX
  5
764
  8
LAYER_1
 10
-5.950368923611109
 20
4.191250597107983
 30
0.0
  0
VERTEX
  5
765
  8
LAYER_1
 10
-5.777123684353296
 20
3.968369422161681
 30
0.0
  0
VERTEX
  5
766
  8
LAYER_1
 10
-5.620673285590276
 20
3.791898961716043
 30
0.0
  0
VERTEX
  5
767
  8
LAYER_1
 10
-5.486443752712672
 20
3.669190307060014
 30
0.0
  0
VERTEX
  5
768
  8
LAYER_1
 10
-5.429357443915472
 20
3.630293872930899
 30
0.0
  0
VERTEX
  5
769
  8
LAYER_1
 10
-5.379861111111111
 20
3.607594549482542
 30
0.0
  0
VERTEX
  5
76A
  8
LAYER_1
 10
-5.324555130537721
 20
3.595008462389778
 30
0.0
  0
VERTEX
  5
76B
  8
LAYER_1
 10
-5.273042459318765
 20
3.592843119281645
 30
0.0
  0
VERTEX
  5
76C
  8
LAYER_1
 10
-5.225310041232214
 20
3.600541397217509
 30
0.0
  0
VERTEX
  5
76D
  8
LAYER_1
 10
-5.18134482005604
 20
3.617546173256732
 30
0.0
  0
VERTEX
  5
76E
  8
LAYER_1
 10
-5.141133739568213
 20
3.643300324458679
 30
0.0
  0
VERTEX
  5
76F
  8
LAYER_1
 10
-5.104663743546705
 20
3.677246727882715
 30
0.0
  0
VERTEX
  5
770
  8
LAYER_1
 10
-5.042894780014526
 20
3.767487799634507
 30
0.0
  0
VERTEX
  5
771
  8
LAYER_1
 10
-4.995933479683271
 20
3.883812404987021
 30
0.0
  0
VERTEX
  5
772
  8
LAYER_1
 10
-4.963675392776705
 20
4.021763560415168
 30
0.0
  0
VERTEX
  5
773
  8
LAYER_1
 10
-4.946016069518596
 20
4.176884282393863
 30
0.0
  0
VERTEX
  5
774
  8
LAYER_1
 10
-4.942851060132709
 20
4.344717587398019
 30
0.0
  0
VERTEX
  5
775
  8
LAYER_1
 10
-4.954075914842813
 20
4.520806491902547
 30
0.0
  0
VERTEX
  5
776
  8
LAYER_1
 10
-4.979586183872674
 20
4.700694012382363
 30
0.0
  0
VERTEX
  5
777
  8
LAYER_1
 10
-5.019277417446059
 20
4.879923165312376
 30
0.0
  0
VERTEX
  5
778
  8
LAYER_1
 10
-5.073045165786733
 20
5.054036967167502
 30
0.0
  0
VERTEX
  5
779
  8
LAYER_1
 10
-5.140784979118465
 20
5.218578434422652
 30
0.0
  0
VERTEX
  5
77A
  8
LAYER_1
 10
-5.222392407665022
 20
5.369090583552738
 30
0.0
  0
VERTEX
  5
77B
  8
LAYER_1
 10
-5.317763001650169
 20
5.501116431032676
 30
0.0
  0
VERTEX
  5
77C
  8
LAYER_1
 10
-5.426792311297675
 20
5.610198993337377
 30
0.0
  0
VERTEX
  5
77D
  8
LAYER_1
 10
-5.551319550026761
 20
5.736882922437751
 30
0.0
  0
VERTEX
  5
77E
  8
LAYER_1
 10
-5.718754378618447
 20
5.942721701579144
 30
0.0
  0
VERTEX
  5
77F
  8
LAYER_1
 10
-5.921766708294827
 20
6.216942466734718
 30
0.0
  0
VERTEX
  5
780
  8
LAYER_1
 10
-6.153026450277995
 20
6.548772353877634
 30
0.0
  0
VERTEX
  5
781
  8
LAYER_1
 10
-6.405203515790046
 20
6.927438498981052
 30
0.0
  0
VERTEX
  5
782
  8
LAYER_1
 10
-6.670967816053075
 20
7.342168038018134
 30
0.0
  0
VERTEX
  5
783
  8
LAYER_1
 10
-6.942989262289176
 20
7.782188106962037
 30
0.0
  0
VERTEX
  5
784
  8
LAYER_1
 10
-7.213937765720445
 20
8.236725841785926
 30
0.0
  0
VERTEX
  5
785
  8
LAYER_1
 10
-7.49225269472033
 20
8.703160924893504
 30
0.0
  0
VERTEX
  5
786
  8
LAYER_1
 10
-7.785386528112419
 20
9.177279135569146
 30
0.0
  0
VERTEX
  5
787
  8
LAYER_1
 10
-8.084528842794011
 20
9.645916755106986
 30
0.0
  0
VERTEX
  5
788
  8
LAYER_1
 10
-8.380869215662408
 20
10.09591006480117
 30
0.0
  0
VERTEX
  5
789
  8
LAYER_1
 10
-8.66559722361491
 20
10.51409534594583
 30
0.0
  0
VERTEX
  5
78A
  8
LAYER_1
 10
-8.929902443548816
 20
10.88730887983512
 30
0.0
  0
VERTEX
  5
78B
  8
LAYER_1
 10
-9.164974452361427
 20
11.20238694776317
 30
0.0
  0
VERTEX
  5
78C
  8
LAYER_1
 10
-9.362002826950047
 20
11.44616583102412
 30
0.0
  0
VERTEX
  5
78D
  8
LAYER_1
 10
-9.558541865152062
 20
11.68740161057863
 30
0.0
  0
VERTEX
  5
78E
  8
LAYER_1
 10
-9.808062837461014
 20
12.01434201500635
 30
0.0
  0
VERTEX
  5
78F
  8
LAYER_1
 10
-10.44808398815704
 20
12.89859356999685
 30
0.0
  0
VERTEX
  5
790
  8
LAYER_1
 10
-11.24613308655277
 20
14.04543423902646
 30
0.0
  0
VERTEX
  5
791
  8
LAYER_1
 10
-12.16627694016285
 20
15.40137776512601
 30
0.0
  0
VERTEX
  5
792
  8
LAYER_1
 10
-13.17258235650191
 20
16.91293789132634
 30
0.0
  0
VERTEX
  5
793
  8
LAYER_1
 10
-14.2291161430846
 20
18.52662836065829
 30
0.0
  0
VERTEX
  5
794
  8
LAYER_1
 10
-15.29994510742557
 20
20.18896291615268
 30
0.0
  0
VERTEX
  5
795
  8
LAYER_1
 10
-16.34913605703944
 20
21.84645530084035
 30
0.0
  0
VERTEX
  5
796
  8
LAYER_1
 10
-17.99166666666665
 20
24.46652171279182
 30
0.0
  0
VERTEX
  5
797
  8
LAYER_1
 10
-17.99166666666666
 20
24.68081042347148
 30
0.0
  0
VERTEX
  5
798
  8
LAYER_1
 10
-17.98639757991973
 20
24.70575204249248
 30
0.0
  0
VERTEX
  5
799
  8
LAYER_1
 10
-17.97093745951168
 20
24.73610154922189
 30
0.0
  0
VERTEX
  5
79A
  8
LAYER_1
 10
-17.91152695670866
 20
24.81135440327058
 30
0.0
  0
VERTEX
  5
79B
  8
LAYER_1
 10
-17.81760083625046
 20
24.90322934054681
 30
0.0
  0
VERTEX
  5
79C
  8
LAYER_1
 10
-17.69332477612996
 20
25.00838671597982
 30
0.0
  0
VERTEX
  5
79D
  8
LAYER_1
 10
-17.54286445434001
 20
25.12348688449886
 30
0.0
  0
VERTEX
  5
79E
  8
LAYER_1
 10
-17.37038554887347
 20
25.24519020103317
 30
0.0
  0
VERTEX
  5
79F
  8
LAYER_1
 10
-17.18005373772322
 20
25.37015702051201
 30
0.0
  0
VERTEX
  5
7A0
  8
LAYER_1
 10
-16.97603469888213
 20
25.49504769786462
 30
0.0
  0
VERTEX
  5
7A1
  8
LAYER_1
 10
-16.75941592172977
 20
25.64211668666787
 30
0.0
  0
VERTEX
  5
7A2
  8
LAYER_1
 10
-16.53297289886444
 20
25.83064718346219
 30
0.0
  0
VERTEX
  5
7A3
  8
LAYER_1
 10
-16.3034033131071
 20
26.05284265762214
 30
0.0
  0
VERTEX
  5
7A4
  8
LAYER_1
 10
-16.07740484727874
 20
26.30090657852229
 30
0.0
  0
VERTEX
  5
7A5
  8
LAYER_1
 10
-15.86167518420031
 20
26.56704241553723
 30
0.0
  0
VERTEX
  5
7A6
  8
LAYER_1
 10
-15.66291200669279
 20
26.84345363804152
 30
0.0
  0
VERTEX
  5
7A7
  8
LAYER_1
 10
-15.48781299757715
 20
27.12234371540973
 30
0.0
  0
VERTEX
  5
7A8
  8
LAYER_1
 10
-15.34307583967436
 20
27.39591611701644
 30
0.0
  0
VERTEX
  5
7A9
  8
LAYER_1
 10
-15.22019223683269
 20
27.68655057876726
 30
0.0
  0
VERTEX
  5
7AA
  8
LAYER_1
 10
-15.1144579154843
 20
28.00308176881425
 30
0.0
  0
VERTEX
  5
7AB
  8
LAYER_1
 10
-15.02558863174981
 20
28.34413344704258
 30
0.0
  0
VERTEX
  5
7AC
  8
LAYER_1
 10
-14.95330014174983
 20
28.70832937333736
 30
0.0
  0
VERTEX
  5
7AD
  8
LAYER_1
 10
-14.89730820160499
 20
29.09429330758375
 30
0.0
  0
VERTEX
  5
7AE
  8
LAYER_1
 10
-14.85732856743591
 20
29.50064900966689
 30
0.0
  0
VERTEX
  5
7AF
  8
LAYER_1
 10
-14.83307699536321
 20
29.9260202394719
 30
0.0
  0
VERTEX
  5
7B0
  8
LAYER_1
 10
-14.82426924150751
 20
30.36903075688392
 30
0.0
  0
VERTEX
  5
7B1
  8
LAYER_1
 10
-14.83062106198944
 20
30.82830432178811
 30
0.0
  0
VERTEX
  5
7B2
  8
LAYER_1
 10
-14.85184821292961
 20
31.30246469406959
 30
0.0
  0
VERTEX
  5
7B3
  8
LAYER_1
 10
-14.88766645044865
 20
31.79013563361351
 30
0.0
  0
VERTEX
  5
7B4
  8
LAYER_1
 10
-14.93779153066718
 20
32.28994090030501
 30
0.0
  0
VERTEX
  5
7B5
  8
LAYER_1
 10
-15.00193920970582
 20
32.80050425402923
 30
0.0
  0
VERTEX
  5
7B6
  8
LAYER_1
 10
-15.07982524368519
 20
33.32044945467129
 30
0.0
  0
VERTEX
  5
7B7
  8
LAYER_1
 10
-15.17116538872591
 20
33.84840026211635
 30
0.0
  0
VERTEX
  5
7B8
  8
LAYER_1
 10
-15.27567540094861
 20
34.38298043624954
 30
0.0
  0
VERTEX
  5
7B9
  8
LAYER_1
 10
-15.3930710364739
 20
34.922813736956
 30
0.0
  0
VERTEX
  5
7BA
  8
LAYER_1
 10
-15.52306805142242
 20
35.46652392412087
 30
0.0
  0
VERTEX
  5
7BB
  8
LAYER_1
 10
-15.66538220191477
 20
36.0127347576293
 30
0.0
  0
VERTEX
  5
7BC
  8
LAYER_1
 10
-15.81972924407157
 20
36.56006999736641
 30
0.0
  0
VERTEX
  5
7BD
  8
LAYER_1
 10
-15.98582493401346
 20
37.10715340321735
 30
0.0
  0
VERTEX
  5
7BE
  8
LAYER_1
 10
-16.16338502786106
 20
37.65260873506726
 30
0.0
  0
VERTEX
  5
7BF
  8
LAYER_1
 10
-16.35212528173498
 20
38.19505975280127
 30
0.0
  0
VERTEX
  5
7C0
  8
LAYER_1
 10
-16.55176145175585
 20
38.73313021630453
 30
0.0
  0
VERTEX
  5
7C1
  8
LAYER_1
 10
-16.76200929404428
 20
39.26544388546218
 30
0.0
  0
VERTEX
  5
7C2
  8
LAYER_1
 10
-16.98258456472091
 20
39.79062452015934
 30
0.0
  0
VERTEX
  5
7C3
  8
LAYER_1
 10
-17.21320301990635
 20
40.30729588028117
 30
0.0
  0
VERTEX
  5
7C4
  8
LAYER_1
 10
-17.45358041572121
 20
40.8140817257128
 30
0.0
  0
VERTEX
  5
7C5
  8
LAYER_1
 10
-17.70343250828613
 20
41.30960581633936
 30
0.0
  0
VERTEX
  5
7C6
  8
LAYER_1
 10
-17.96247505372172
 20
41.79249191204602
 30
0.0
  0
VERTEX
  5
7C7
  8
LAYER_1
 10
-18.23042380814861
 20
42.26136377271789
 30
0.0
  0
VERTEX
  5
7C8
  8
LAYER_1
 10
-18.50699452768743
 20
42.71484515824011
 30
0.0
  0
VERTEX
  5
7C9
  8
LAYER_1
 10
-19.69330601719912
 20
44.59633218927343
 30
0.0
  0
VERTEX
  5
7CA
  8
LAYER_1
 10
-20.24555899458542
 20
42.67108276130338
 30
0.0
  0
VERTEX
  5
7CB
  8
LAYER_1
 10
-20.77782287615167
 20
40.74721088899345
 30
0.0
  0
VERTEX
  5
7CC
  8
LAYER_1
 10
-21.05043303268986
 20
39.722905058881
 30
0.0
  0
VERTEX
  5
7CD
  8
LAYER_1
 10
-21.28201696358759
 20
38.82527345654665
 30
0.0
  0
VERTEX
  5
7CE
  8
LAYER_1
 10
-21.44263033375426
 20
38.19439992753241
 30
0.0
  0
VERTEX
  5
7CF
  8
LAYER_1
 10
-21.57014279002059
 20
37.73060838727967
 30
0.0
  0
VERTEX
  5
7D0
  8
LAYER_1
 10
-21.62522385705203
 20
37.55751992104969
 30
0.0
  0
VERTEX
  5
7D1
  8
LAYER_1
 10
-21.67651491354147
 20
37.42158382174307
 30
0.0
  0
VERTEX
  5
7D2
  8
LAYER_1
 10
-21.72551103213326
 20
37.32126071260413
 30
0.0
  0
VERTEX
  5
7D3
  8
LAYER_1
 10
-21.77370728547177
 20
37.2550112168772
 30
0.0
  0
VERTEX
  5
7D4
  8
LAYER_1
 10
-21.82259874620136
 20
37.22129595780661
 30
0.0
  0
VERTEX
  5
7D5
  8
LAYER_1
 10
-21.84777238953917
 20
37.2161576117813
 30
0.0
  0
VERTEX
  5
7D6
  8
LAYER_1
 10
-21.87368048696639
 20
37.21857555863668
 30
0.0
  0
VERTEX
  5
7D7
  8
LAYER_1
 10
-21.9284475804112
 20
37.24531064261174
 30
0.0
  0
VERTEX
  5
7D8
  8
LAYER_1
 10
-21.98839509918017
 20
37.29996183297612
 30
0.0
  0
VERTEX
  5
7D9
  8
LAYER_1
 10
-22.05501811591766
 20
37.38098975297414
 30
0.0
  0
VERTEX
  5
7DA
  8
LAYER_1
 10
-22.12981170326803
 20
37.48685502585013
 30
0.0
  0
VERTEX
  5
7DB
  8
LAYER_1
 10
-22.30989088038483
 20
37.76694012321332
 30
0.0
  0
VERTEX
  5
7DC
  8
LAYER_1
 10
-22.56363311620034
 20
38.1852356378719
 30
0.0
  0
VERTEX
  5
7DD
  8
LAYER_1
 10
-22.85261760850642
 20
38.68677303619393
 30
0.0
  0
VERTEX
  5
7DE
  8
LAYER_1
 10
-23.14127132950429
 20
39.20853394722231
 30
0.0
  0
VERTEX
  5
7DF
  8
LAYER_1
 10
-23.39402125139516
 20
39.6875
 30
0.0
  0
VERTEX
  5
7E0
  8
LAYER_1
 10
-23.60625044611806
 20
40.08267987311901
 30
0.0
  0
VERTEX
  5
7E1
  8
LAYER_1
 10
-23.69702655609855
 20
40.22503646270522
 30
0.0
  0
VERTEX
  5
7E2
  8
LAYER_1
 10
-23.7799530975786
 20
40.32643127833288
 30
0.0
  0
VERTEX
  5
7E3
  8
LAYER_1
 10
-23.81902967616695
 20
40.36079781560531
 30
0.0
  0
VERTEX
  5
7E4
  8
LAYER_1
 10
-23.85681213787338
 20
40.38375966301975
 30
0.0
  0
VERTEX
  5
7E5
  8
LAYER_1
 10
-23.89352324111227
 20
40.39492873845342
 30
0.0
  0
VERTEX
  5
7E6
  8
LAYER_1
 10
-23.92938574429802
 20
40.39391695978355
 30
0.0
  0
VERTEX
  5
7E7
  8
LAYER_1
 10
-23.96462240584503
 20
40.38033624488735
 30
0.0
  0
VERTEX
  5
7E8
  8
LAYER_1
 10
-23.9994559841677
 20
40.35379851164203
 30
0.0
  0
VERTEX
  5
7E9
  8
LAYER_1
 10
-24.03410923768041
 20
40.31391567792481
 30
0.0
  0
VERTEX
  5
7EA
  8
LAYER_1
 10
-24.06880492479756
 20
40.26029966161292
 30
0.0
  0
VERTEX
  5
7EB
  8
LAYER_1
 10
-24.13921463350276
 20
40.11031575271396
 30
0.0
  0
VERTEX
  5
7EC
  8
LAYER_1
 10
-24.21246717759846
 20
39.90074212796289
 30
0.0
  0
VERTEX
  5
7ED
  8
LAYER_1
 10
-24.29034462439981
 20
39.62847413037746
 30
0.0
  0
VERTEX
  5
7EE
  8
LAYER_1
 10
-24.37462904122197
 20
39.29040710297539
 30
0.0
  0
VERTEX
  5
7EF
  8
LAYER_1
 10
-24.56954705418932
 20
38.40445733079231
 30
0.0
  0
VERTEX
  5
7F0
  8
LAYER_1
 10
-24.81147775502177
 20
37.21805555555557
 30
0.0
  0
VERTEX
  5
7F1
  8
LAYER_1
 10
-24.95249542243435
 20
36.48810539476459
 30
0.0
  0
VERTEX
  5
7F2
  8
LAYER_1
 10
-25.05288775396108
 20
35.8865936905931
 30
0.0
  0
VERTEX
  5
7F3
  8
LAYER_1
 10
-25.08781537613688
 20
35.6258502387258
 30
0.0
  0
VERTEX
  5
7F4
  8
LAYER_1
 10
-25.11254581318474
 20
35.38743397579674
 30
0.0
  0
VERTEX
  5
7F5
  8
LAYER_1
 10
-25.12706544805251
 20
35.16808409340036
 30
0.0
  0
VERTEX
  5
7F6
  8
LAYER_1
 10
-25.13136066368805
 20
34.96453978313113
 30
0.0
  0
VERTEX
  5
7F7
  8
LAYER_1
 10
-25.12541784303919
 20
34.77354023658349
 30
0.0
  0
VERTEX
  5
7F8
  8
LAYER_1
 10
-25.10922336905377
 20
34.59182464535191
 30
0.0
  0
VERTEX
  5
7F9
  8
LAYER_1
 10
-25.08276362467963
 20
34.41613220103083
 30
0.0
  0
VERTEX
  5
7FA
  8
LAYER_1
 10
-25.04602499286463
 20
34.24320209521471
 30
0.0
  0
VERTEX
  5
7FB
  8
LAYER_1
 10
-24.9989938565566
 20
34.069773519498
 30
0.0
  0
VERTEX
  5
7FC
  8
LAYER_1
 10
-24.94165659870338
 20
33.89258566547515
 30
0.0
  0
VERTEX
  5
7FD
  8
LAYER_1
 10
-24.79600925015276
 20
33.51388888888889
 30
0.0
  0
VERTEX
  5
7FE
  8
LAYER_1
 10
-24.58727665493172
 20
32.99271484374999
 30
0.0
  0
VERTEX
  5
7FF
  8
LAYER_1
 10
-24.39711842312053
 20
32.48642361111111
 30
0.0
  0
VERTEX
  5
800
  8
LAYER_1
 10
-24.24651959368179
 20
32.05289279513889
 30
0.0
  0
VERTEX
  5
801
  8
LAYER_1
 10
-24.15646520557812
 20
31.75
 30
0.0
  0
VERTEX
  5
802
  8
LAYER_1
 10
-23.98254849924393
 20
31.065390625
 30
0.0
  0
VERTEX
  5
803
  8
LAYER_1
 10
-23.74410928426551
 20
30.16249999999999
 30
0.0
  0
VERTEX
  5
804
  8
LAYER_1
 10
-23.66438653696737
 20
29.85760051626634
 30
0.0
  0
VERTEX
  5
805
  8
LAYER_1
 10
-23.61560452334992
 20
29.64523739723666
 30
0.0
  0
VERTEX
  5
806
  8
LAYER_1
 10
-23.60079456961109
 20
29.52742423204472
 30
0.0
  0
VERTEX
  5
807
  8
LAYER_1
 10
-23.60707640463301
 20
29.50460312874221
 30
0.0
  0
VERTEX
  5
808
  8
LAYER_1
 10
-23.62298800194882
 20
29.50617460982431
 30
0.0
  0
VERTEX
  5
809
  8
LAYER_1
 10
-23.68521614656105
 20
29.58350211970919
 30
0.0
  0
VERTEX
  5
80A
  8
LAYER_1
 10
-23.79051032964574
 20
29.76142035083313
 30
0.0
  0
VERTEX
  5
80B
  8
LAYER_1
 10
-24.14242211602422
 20
30.42708333333334
 30
0.0
  0
VERTEX
  5
80C
  8
LAYER_1
 10
-24.28542879879022
 20
30.69282938639323
 30
0.0
  0
VERTEX
  5
80D
  8
LAYER_1
 10
-24.4301824173706
 20
30.9407470703125
 30
0.0
  0
VERTEX
  5
80E
  8
LAYER_1
 10
-24.5727038864789
 20
31.16541035970052
 30
0.0
  0
VERTEX
  5
80F
  8
LAYER_1
 10
-24.70901412082865
 20
31.36139322916667
 30
0.0
  0
VERTEX
  5
810
  8
LAYER_1
 10
-24.83513403513341
 20
31.52326965332031
 30
0.0
  0
VERTEX
  5
811
  8
LAYER_1
 10
-24.94708454410671
 20
31.64561360677083
 30
0.0
  0
VERTEX
  5
812
  8
LAYER_1
 10
-25.04088656246209
 20
31.7229990641276
 30
0.0
  0
VERTEX
  5
813
  8
LAYER_1
 10
-25.07973842350605
 20
31.74313672383626
 30
0.0
  0
VERTEX
  5
814
  8
LAYER_1
 10
-25.1125610049131
 20
31.75
 30
0.0
  0
VERTEX
  5
815
  8
LAYER_1
 10
-25.17030143585976
 20
31.75685528256167
 30
0.0
  0
VERTEX
  5
816
  8
LAYER_1
 10
-25.22416817722419
 20
31.77650271918578
 30
0.0
  0
VERTEX
  5
817
  8
LAYER_1
 10
-25.2729822800031
 20
31.807564693281
 30
0.0
  0
VERTEX
  5
818
  8
LAYER_1
 10
-25.31556479519322
 20
31.84866358825598
 30
0.0
  0
VERTEX
  5
819
  8
LAYER_1
 10
-25.35073677379125
 20
31.8984217875194
 30
0.0
  0
VERTEX
  5
81A
  8
LAYER_1
 10
-25.37731926679392
 20
31.95546167447989
 30
0.0
  0
VERTEX
  5
81B
  8
LAYER_1
 10
-25.39413332519792
 20
32.01840563254613
 30
0.0
  0
VERTEX
  5
81C
  8
LAYER_1
 10
-25.39999999999999
 20
32.08587604512678
 30
0.0
  0
VERTEX
  5
81D
  8
LAYER_1
 10
-25.40835213125449
 20
32.13203879068271
 30
0.0
  0
VERTEX
  5
81E
  8
LAYER_1
 10
-25.43285826695888
 20
32.20035064027777
 30
0.0
  0
VERTEX
  5
81F
  8
LAYER_1
 10
-25.52703100336257
 20
32.39800993499303
 30
0.0
  0
VERTEX
  5
820
  8
LAYER_1
 10
-25.67591511250162
 20
32.66803049608811
 30
0.0
  0
VERTEX
  5
821
  8
LAYER_1
 10
-25.87290749766659
 20
32.9995888903786
 30
0.0
  0
VERTEX
  5
822
  8
LAYER_1
 10
-26.11140506214804
 20
33.38186168468008
 30
0.0
  0
VERTEX
  5
823
  8
LAYER_1
 10
-26.38480470923653
 20
33.80402544580811
 30
0.0
  0
VERTEX
  5
824
  8
LAYER_1
 10
-26.68650334222263
 20
34.25525674057826
 30
0.0
  0
VERTEX
  5
825
  8
LAYER_1
 10
-27.00989786439689
 20
34.72473213580611
 30
0.0
  0
VERTEX
  5
826
  8
LAYER_1
 10
-28.61979572879379
 20
37.02771218135865
 30
0.0
  0
VERTEX
  5
827
  8
LAYER_1
 10
-28.92419588909345
 20
37.21584182660476
 30
0.0
  0
VERTEX
  5
828
  8
LAYER_1
 10
-28.96458369147133
 20
37.22974134625569
 30
0.0
  0
VERTEX
  5
829
  8
LAYER_1
 10
-29.00462087377282
 20
37.22193855806167
 30
0.0
  0
VERTEX
  5
82A
  8
LAYER_1
 10
-29.04421031085256
 20
37.19332956114931
 30
0.0
  0
VERTEX
  5
82B
  8
LAYER_1
 10
-29.08325487756517
 20
37.14481045464523
 30
0.0
  0
VERTEX
  5
82C
  8
LAYER_1
 10
-29.12165744876528
 20
37.07727733767605
 30
0.0
  0
VERTEX
  5
82D
  8
LAYER_1
 10
-29.15932089930753
 20
36.99162630936836
 30
0.0
  0
VERTEX
  5
82E
  8
LAYER_1
 10
-29.2320419378369
 20
36.76955491524397
 30
0.0
  0
VERTEX
  5
82F
  8
LAYER_1
 10
-29.3006409919903
 20
36.48576506528494
 30
0.0
  0
VERTEX
  5
830
  8
LAYER_1
 10
-29.36434106060472
 20
36.14742555250417
 30
0.0
  0
VERTEX
  5
831
  8
LAYER_1
 10
-29.42236514251719
 20
35.76170516991458
 30
0.0
  0
VERTEX
  5
832
  8
LAYER_1
 10
-29.47393623656471
 20
35.33577271052905
 30
0.0
  0
VERTEX
  5
833
  8
LAYER_1
 10
-29.51827734158429
 20
34.87679696736049
 30
0.0
  0
VERTEX
  5
834
  8
LAYER_1
 10
-29.55461145641295
 20
34.3919467334218
 30
0.0
  0
VERTEX
  5
835
  8
LAYER_1
 10
-29.58216157988768
 20
33.88839080172589
 30
0.0
  0
VERTEX
  5
836
  8
LAYER_1
 10
-29.6001507108455
 20
33.37329796528564
 30
0.0
  0
VERTEX
  5
837
  8
LAYER_1
 10
-29.60780184812343
 20
32.85383701711397
 30
0.0
  0
VERTEX
  5
838
  8
LAYER_1
 10
-29.60433799055846
 20
32.33717675022376
 30
0.0
  0
VERTEX
  5
839
  8
LAYER_1
 10
-29.58898213698762
 20
31.83048595762793
 30
0.0
  0
VERTEX
  5
83A
  8
LAYER_1
 10
-29.5609572862479
 20
31.34093343233937
 30
0.0
  0
VERTEX
  5
83B
  8
LAYER_1
 10
-29.51483141979013
 20
30.81886141279762
 30
0.0
  0
VERTEX
  5
83C
  8
LAYER_1
 10
-29.45608567234745
 20
30.35662230451592
 30
0.0
  0
VERTEX
  5
83D
  8
LAYER_1
 10
-29.38427450684363
 20
29.95267339177487
 30
0.0
  0
VERTEX
  5
83E
  8
LAYER_1
 10
-29.29895238620246
 20
29.6054719588551
 30
0.0
  0
VERTEX
  5
83F
  8
LAYER_1
 10
-29.25108548736905
 20
29.45266944866588
 30
0.0
  0
VERTEX
  5
840
  8
LAYER_1
 10
-29.19967377334771
 20
29.31347529003722
 30
0.0
  0
VERTEX
  5
841
  8
LAYER_1
 10
-29.14466155200392
 20
29.18769664350419
 30
0.0
  0
VERTEX
  5
842
  8
LAYER_1
 10
-29.08599313120317
 20
29.07514066960185
 30
0.0
  0
VERTEX
  5
843
  8
LAYER_1
 10
-29.0236128188109
 20
28.9756145288653
 30
0.0
  0
VERTEX
  5
844
  8
LAYER_1
 10
-28.95746492269261
 20
28.88892538182962
 30
0.0
  0
VERTEX
  5
845
  8
LAYER_1
 10
-28.88749375071376
 20
28.81488038902986
 30
0.0
  0
VERTEX
  5
846
  8
LAYER_1
 10
-28.81364361073982
 20
28.75328671100112
 30
0.0
  0
VERTEX
  5
847
  8
LAYER_1
 10
-28.69483952908155
 20
28.65932480759894
 30
0.0
  0
VERTEX
  5
848
  8
LAYER_1
 10
-28.58400577472947
 20
28.55796036232832
 30
0.0
  0
VERTEX
  5
849
  8
LAYER_1
 10
-28.48356809947243
 20
28.45239196070231
 30
0.0
  0
VERTEX
  5
84A
  8
LAYER_1
 10
-28.39595225509926
 20
28.34581818823397
 30
0.0
  0
VERTEX
  5
84B
  8
LAYER_1
 10
-28.32358399339882
 20
28.24143763043636
 30
0.0
  0
VERTEX
  5
84C
  8
LAYER_1
 10
-28.26888906615993
 20
28.14244887282254
 30
0.0
  0
VERTEX
  5
84D
  8
LAYER_1
 10
-28.23429322517145
 20
28.05205050090557
 30
0.0
  0
VERTEX
  5
84E
  8
LAYER_1
 10
-28.22222222222221
 20
27.9734411001985
 30
0.0
  0
VERTEX
  5
84F
  8
LAYER_1
 10
-28.21412780765418
 20
27.8975789429969
 30
0.0
  0
VERTEX
  5
850
  8
LAYER_1
 10
-28.19041585035405
 20
27.80389644812519
 30
0.0
  0
VERTEX
  5
851
  8
LAYER_1
 10
-28.09956702598137
 20
27.56789452451484
 30
0.0
  0
VERTEX
  5
852
  8
LAYER_1
 10
-27.95653118595186
 20
27.27508348765426
 30
0.0
  0
VERTEX
  5
853
  8
LAYER_1
 10
-27.76816376711322
 20
26.93511149583024
 30
0.0
  0
VERTEX
  5
854
  8
LAYER_1
 10
-27.54132020631314
 20
26.55762670732958
 30
0.0
  0
VERTEX
  5
855
  8
LAYER_1
 10
-27.28285594039932
 20
26.15227728043907
 30
0.0
  0
VERTEX
  5
856
  8
LAYER_1
 10
-26.99962640621945
 20
25.72871137344551
 30
0.0
  0
VERTEX
  5
857
  8
LAYER_1
 10
-26.69848704062123
 20
25.2965771446357
 30
0.0
  0
VERTEX
  5
858
  8
LAYER_1
 10
-26.38629328045236
 20
24.86552275229644
 30
0.0
  0
VERTEX
  5
859
  8
LAYER_1
 10
-26.06990056256053
 20
24.44519635471452
 30
0.0
  0
VERTEX
  5
85A
  8
LAYER_1
 10
-25.75616432379343
 20
24.04524611017674
 30
0.0
  0
VERTEX
  5
85B
  8
LAYER_1
 10
-25.45194000099877
 20
23.6753201769699
 30
0.0
  0
VERTEX
  5
85C
  8
LAYER_1
 10
-25.16408303102424
 20
23.34506671338079
 30
0.0
  0
VERTEX
  5
85D
  8
LAYER_1
 10
-24.89944885071753
 20
23.06413387769621
 30
0.0
  0
VERTEX
  5
85E
  8
LAYER_1
 10
-24.66489289692634
 20
22.84216982820296
 30
0.0
  0
VERTEX
  5
85F
  8
LAYER_1
 10
-24.56103657898896
 20
22.75631614774271
 30
0.0
  0
VERTEX
  5
860
  8
LAYER_1
 10
-24.46727060649836
 20
22.68882272318784
 30
0.0
  0
VERTEX
  5
861
  8
LAYER_1
 10
-24.34139626713321
 20
22.61146952418752
 30
0.0
  0
VERTEX
  5
862
  8
LAYER_1
 10
-24.20760175608183
 20
22.53907353084132
 30
0.0
  0
VERTEX
  5
863
  8
LAYER_1
 10
-24.06590827856294
 20
22.47163934117323
 30
0.0
  0
VERTEX
  5
864
  8
LAYER_1
 10
-23.91633703979528
 20
22.40917155320724
 30
0.0
  0
VERTEX
  5
865
  8
LAYER_1
 10
-23.59364609938849
 20
22.2991535744775
 30
0.0
  0
VERTEX
  5
866
  8
LAYER_1
 10
-23.23969857661127
 20
22.20905637884404
 30
0.0
  0
VERTEX
  5
867
  8
LAYER_1
 10
-22.85466411321338
 20
22.13891675049875
 30
0.0
  0
VERTEX
  5
868
  8
LAYER_1
 10
-22.43871235094462
 20
22.08877147363356
 30
0.0
  0
VERTEX
  5
869
  8
LAYER_1
 10
-21.99201293155478
 20
22.05865733244038
 30
0.0
  0
VERTEX
  5
86A
  8
LAYER_1
 10
-21.51473549679365
 20
22.04861111111111
 30
0.0
  0
VERTEX
  5
86B
  8
LAYER_1
 10
-19.53985455680514
 20
22.04861111111111
 30
0.0
  0
VERTEX
  5
86C
  8
LAYER_1
 10
-21.59092372237559
 20
9.509569093008139
 30
0.0
  0
VERTEX
  5
86D
  8
LAYER_1
 10
-16.85419966626384
 20
1.005307243942668
 30
0.0
  0
VERTEX
  5
86E
  8
LAYER_1
 10
-16.41777568411499
 20
0.2068422619007405
 30
0.0
  0
VERTEX
  5
86F
  8
LAYER_1
 10
-15.99371805546682
 20
-0.598576700567535
 30
0.0
  0
VERTEX
  5
870
  8
LAYER_1
 10
-15.58172330817267
 20
-1.410486474746368
 30
0.0
  0
VERTEX
  5
871
  8
LAYER_1
 10
-15.18148797008591
 20
-2.228423891919966
 30
0.0
  0
VERTEX
  5
872
  8
LAYER_1
 10
-14.79270856905989
 20
-3.05192578337254
 30
0.0
  0
VERTEX
  5
873
  8
LAYER_1
 10
-14.41508163294798
 20
-3.880528980388299
 30
0.0
  0
VERTEX
  5
874
  8
LAYER_1
 10
-14.04830368960353
 20
-4.71377031425145
 30
0.0
  0
VERTEX
  5
875
  8
LAYER_1
 10
-13.6920712668799
 20
-5.551186616246205
 30
0.0
  0
VERTEX
  5
876
  8
LAYER_1
 10
-13.22338893965856
 20
-6.666925372207132
 30
0.0
  0
VERTEX
  5
877
  8
LAYER_1
 10
-12.9478994747026
 20
-7.330987212054062
 30
0.0
  0
VERTEX
  5
878
  8
LAYER_1
 10
-12.6733844572101
 20
-8.013481715576713
 30
0.0
  0
VERTEX
  5
879
  8
LAYER_1
 10
-12.13654965289816
 20
-9.406030372168651
 30
0.0
  0
VERTEX
  5
87A
  8
LAYER_1
 10
-11.63142830328815
 20
-10.78909465902189
 30
0.0
  0
VERTEX
  5
87B
  8
LAYER_1
 10
-11.17656418494545
 20
-12.10719789317537
 30
0.0
  0
VERTEX
  5
87C
  8
LAYER_1
 10
-10.79050107443545
 20
-13.30486339166804
 30
0.0
  0
VERTEX
  5
87D
  8
LAYER_1
 10
-10.6290648272944
 20
-13.84119552661624
 30
0.0
  0
VERTEX
  5
87E
  8
LAYER_1
 10
-10.49178274832354
 20
-14.32661447153884
 30
0.0
  0
VERTEX
  5
87F
  8
LAYER_1
 10
-10.38097280959355
 20
-14.7541856410657
 30
0.0
  0
VERTEX
  5
880
  8
LAYER_1
 10
-10.29895298317511
 20
-15.11697444982671
 30
0.0
  0
VERTEX
  5
881
  8
LAYER_1
 10
-10.24804124113888
 20
-15.40804631245171
 30
0.0
  0
VERTEX
  5
882
  8
LAYER_1
 10
-10.23055555555554
 20
-15.62046664357059
 30
0.0
  0
VERTEX
  5
883
  8
LAYER_1
 10
-10.23702926428166
 20
-15.70175563069926
 30
0.0
  0
VERTEX
  5
884
  8
LAYER_1
 10
-10.2564540201426
 20
-15.78369840941222
 30
0.0
  0
VERTEX
  5
885
  8
LAYER_1
 10
-10.28883526766226
 20
-15.86629950912055
 30
0.0
  0
VERTEX
  5
886
  8
LAYER_1
 10
-10.33417845136453
 20
-15.94956345923535
 30
0.0
  0
VERTEX
  5
887
  8
LAYER_1
 10
-10.39248901577328
 20
-16.03349478916769
 30
0.0
  0
VERTEX
  5
888
  8
LAYER_1
 10
-10.46377240541241
 20
-16.11809802832865
 30
0.0
  0
VERTEX
  5
889
  8
LAYER_1
 10
-10.54803406480581
 20
-16.20337770612933
 30
0.0
  0
VERTEX
  5
88A
  8
LAYER_1
 10
-10.64527943847735
 20
-16.28933835198081
 30
0.0
  0
VERTEX
  5
88B
  8
LAYER_1
 10
-10.87874310675043
 20
-16.46332066548049
 30
0.0
  0
VERTEX
  5
88C
  8
LAYER_1
 10
-11.16420696642276
 20
-16.64008120411636
 30
0.0
  0
VERTEX
  5
88D
  8
LAYER_1
 10
-11.50171457368541
 20
-16.8196562031771
 30
0.0
  0
VERTEX
  5
88E
  8
LAYER_1
 10
-11.89130948472949
 20
-17.00208189795138
 30
0.0
  0
VERTEX
  5
88F
  8
LAYER_1
 10
-12.30770458885841
 20
-17.17065597096097
 30
0.0
  0
VERTEX
  5
890
  8
LAYER_1
 10
-12.74094182874316
 20
-17.31628389553707
 30
0.0
  0
VERTEX
  5
891
  8
LAYER_1
 10
-13.18821951899576
 20
-17.43898385381798
 30
0.0
  0
VERTEX
  5
892
  8
LAYER_1
 10
-13.64673597422825
 20
-17.538774027942
 30
0.0
  0
VERTEX
  5
893
  8
LAYER_1
 10
-14.11368950905264
 20
-17.61567260004742
 30
0.0
  0
VERTEX
  5
894
  8
LAYER_1
 10
-14.58627843808097
 20
-17.66969775227254
 30
0.0
  0
VERTEX
  5
895
  8
LAYER_1
 10
-15.06170107592526
 20
-17.70086766675566
 30
0.0
  0
VERTEX
  5
896
  8
LAYER_1
 10
-15.53715573719753
 20
-17.70920052563508
 30
0.0
  0
VERTEX
  5
897
  8
LAYER_1
 10
-16.00984073650981
 20
-17.69471451104908
 30
0.0
  0
VERTEX
  5
898
  8
LAYER_1
 10
-16.47695438847413
 20
-17.65742780513597
 30
0.0
  0
VERTEX
  5
899
  8
LAYER_1
 10
-16.93569500770252
 20
-17.59735859003404
 30
0.0
  0
VERTEX
  5
89A
  8
LAYER_1
 10
-17.38326090880699
 20
-17.51452504788159
 30
0.0
  0
VERTEX
  5
89B
  8
LAYER_1
 10
-17.81685040639957
 20
-17.40894536081692
 30
0.0
  0
VERTEX
  5
89C
  8
LAYER_1
 10
-18.2336618150923
 20
-17.28063771097832
 30
0.0
  0
VERTEX
  5
89D
  8
LAYER_1
 10
-18.6308934494972
 20
-17.12962028050408
 30
0.0
  0
VERTEX
  5
89E
  8
LAYER_1
 10
-18.82129132465797
 20
-17.04560107944682
 30
0.0
  0
VERTEX
  5
89F
  8
LAYER_1
 10
-19.00574362422628
 20
-16.95591125153251
 30
0.0
  0
VERTEX
  5
8A0
  8
LAYER_1
 10
-19.19937848110958
 20
-16.847267240895
 30
0.0
  0
VERTEX
  5
8A1
  8
LAYER_1
 10
-19.40284229338238
 20
-16.71477211434602
 30
0.0
  0
VERTEX
  5
8A2
  8
LAYER_1
 10
-19.6142100486737
 20
-16.56072943780043
 30
0.0
  0
VERTEX
  5
8A3
  8
LAYER_1
 10
-19.83155673461248
 20
-16.38744277717309
 30
0.0
  0
VERTEX
  5
8A4
  8
LAYER_1
 10
-20.05295733882772
 20
-16.19721569837888
 30
0.0
  0
VERTEX
  5
8A5
  8
LAYER_1
 10
-20.27648684894839
 20
-15.99235176733265
 30
0.0
  0
VERTEX
  5
8A6
  8
LAYER_1
 10
-20.50022025260346
 20
-15.77515454994929
 30
0.0
  0
VERTEX
  5
8A7
  8
LAYER_1
 10
-20.72223253742192
 20
-15.54792761214365
 30
0.0
  0
VERTEX
  5
8A8
  8
LAYER_1
 10
-20.94059869103273
 20
-15.3129745198306
 30
0.0
  0
VERTEX
  5
8A9
  8
LAYER_1
 10
-21.15339370106487
 20
-15.07259883892501
 30
0.0
  0
VERTEX
  5
8AA
  8
LAYER_1
 10
-21.35869255514732
 20
-14.82910413534175
 30
0.0
  0
VERTEX
  5
8AB
  8
LAYER_1
 10
-21.55457024090906
 20
-14.58479397499568
 30
0.0
  0
VERTEX
  5
8AC
  8
LAYER_1
 10
-21.73910174597906
 20
-14.34197192380167
 30
0.0
  0
VERTEX
  5
8AD
  8
LAYER_1
 10
-21.9103620579863
 20
-14.10294154767459
 30
0.0
  0
VERTEX
  5
8AE
  8
LAYER_1
 10
-22.06642616455975
 20
-13.8700064125293
 30
0.0
  0
VERTEX
  5
8AF
  8
LAYER_1
 10
-22.2053690533284
 20
-13.64547008428068
 30
0.0
  0
VERTEX
  5
8B0
  8
LAYER_1
 10
-22.43103794826631
 20
-13.24498411098449
 30
0.0
  0
VERTEX
  5
8B1
  8
LAYER_1
 10
-22.64240043154383
 20
-12.83682752917349
 30
0.0
  0
VERTEX
  5
8B2
  8
LAYER_1
 10
-23.03638047478405
 20
-12.00506970034269
 30
0.0
  0
VERTEX
  5
8B3
  8
LAYER_1
 10
-23.41565780638165
 20
-11.16533091845968
 30
0.0
  0
VERTEX
  5
8B4
  8
LAYER_1
 10
-23.60864190010591
 20
-10.7471981453334
 30
0.0
  0
VERTEX
  5
8B5
  8
LAYER_1
 10
-23.80858104966924
 20
-10.33274550419582
 30
0.0
  0
VERTEX
  5
8B6
  8
LAYER_1
 10
-24.29732039088242
 20
-9.348611111111111
 30
0.0
  0
VERTEX
  5
8B7
  8
LAYER_1
 10
-28.65549634369651
 20
2.998611111111117
 30
0.0
  0
VERTEX
  5
8B8
  8
LAYER_1
 10
-31.39443087844145
 20
10.64099267855561
 30
0.0
  0
VERTEX
  5
8B9
  8
LAYER_1
 10
-31.70339994874516
 20
11.19308977709298
 30
0.0
  0
VERTEX
  5
8BA
  8
LAYER_1
 10
-31.74985114683451
 20
11.26842959846919
 30
0.0
  0
VERTEX
  5
8BB
  8
LAYER_1
 10
-31.79684026284142
 20
11.32815748845388
 30
0.0
  0
VERTEX
  5
8BC
  8
LAYER_1
 10
-31.84508199079591
 20
11.37168242216036
 30
0.0
  0
VERTEX
  5
8BD
  8
LAYER_1
 10
-31.89529102472797
 20
11.39841337470197
 30
0.0
  0
VERTEX
  5
8BE
  8
LAYER_1
 10
-31.94818205866761
 20
11.40775932119203
 30
0.0
  0
VERTEX
  5
8BF
  8
LAYER_1
 10
-32.00446978664483
 20
11.39912923674388
 30
0.0
  0
VERTEX
  5
8C0
  8
LAYER_1
 10
-32.06486890268963
 20
11.37193209647084
 30
0.0
  0
VERTEX
  5
8C1
  8
LAYER_1
 10
-32.13009410083202
 20
11.32557687548625
 30
0.0
  0
VERTEX
  5
8C2
  8
LAYER_1
 10
-32.20086007510199
 20
11.25947254890343
 30
0.0
  0
VERTEX
  5
8C3
  8
LAYER_1
 10
-32.27788151952955
 20
11.17302809183571
 30
0.0
  0
VERTEX
  5
8C4
  8
LAYER_1
 10
-32.45354959497747
 20
10.93675468669889
 30
0.0
  0
VERTEX
  5
8C5
  8
LAYER_1
 10
-32.66281587941577
 20
10.61202846098243
 30
0.0
  0
VERTEX
  5
8C6
  8
LAYER_1
 10
-32.9113979250845
 20
10.19412121559296
 30
0.0
  0
VERTEX
  5
8C7
  8
LAYER_1
 10
-33.33714365094451
 20
9.428430818008527
 30
0.0
  0
VERTEX
  5
8C8
  8
LAYER_1
 10
-33.83176076891103
 20
8.490228644808756
 30
0.0
  0
VERTEX
  5
8C9
  8
LAYER_1
 10
-34.33386746078286
 20
7.498374471027657
 30
0.0
  0
VERTEX
  5
8CA
  8
LAYER_1
 10
-34.7820819083588
 20
6.571728071699241
 30
0.0
  0
VERTEX
  5
8CB
  8
LAYER_1
 10
-35.06580032807355
 20
5.978441710470311
 30
0.0
  0
VERTEX
  5
8CC
  8
LAYER_1
 10
-35.29963768589589
 20
5.521030635336133
 30
0.0
  0
VERTEX
  5
8CD
  8
LAYER_1
 10
-35.40073517473728
 20
5.340167154405149
 30
0.0
  0
VERTEX
  5
8CE
  8
LAYER_1
 10
-35.49282344787342
 20
5.189539084218541
 30
0.0
  0
VERTEX
  5
8CF
  8
LAYER_1
 10
-35.57705618856026
 20
5.067901954516539
 30
0.0
  0
VERTEX
  5
8D0
  8
LAYER_1
 10
-35.65458708005374
 20
4.974011295039373
 30
0.0
  0
VERTEX
  5
8D1
  8
LAYER_1
 10
-35.72656980560983
 20
4.906622635527272
 30
0.0
  0
VERTEX
  5
8D2
  8
LAYER_1
 10
-35.79415804848446
 20
4.864491505720467
 30
0.0
  0
VERTEX
  5
8D3
  8
LAYER_1
 10
-35.8585054919336
 20
4.846373435359185
 30
0.0
  0
VERTEX
  5
8D4
  8
LAYER_1
 10
-35.92076581921317
 20
4.851023954183656
 30
0.0
  0
VERTEX
  5
8D5
  8
LAYER_1
 10
-35.98209271357915
 20
4.877198591934112
 30
0.0
  0
VERTEX
  5
8D6
  8
LAYER_1
 10
-36.04363985828748
 20
4.923652878350781
 30
0.0
  0
VERTEX
  5
8D7
  8
LAYER_1
 10
-36.10656093659409
 20
4.989142343173891
 30
0.0
  0
VERTEX
  5
8D8
  8
LAYER_1
 10
-36.17200963175496
 20
5.072422516143675
 30
0.0
  0
SEQEND
  5
8D9
  8
LAYER_1
  0
POLYLINE
  5
49
  8
LAYER_1
 66
     1
 10
0.0
 20
0.0
 30
0.0
  0
VERTEX
  5
8DA
  8
LAYER_1
 10
-35.77240784567025
 20
-0.0944562355977455
 30
0.0
 42
0.0931147962106491
  0
VERTEX
  5
8DB
  8
LAYER_1
 10
-36.17200963175496
 20
5.072422516143675
 30
0.0
 42
0.090790995407876
  0
VERTEX
  5
8DC
  8
LAYER_1
 10
-37.81673848943591
 20
6.820730223161227
 30
0.0
 42
0.0488647222377091
  0
VERTEX
  5
8DD
  8
LAYER_1
 10
-46.14792665426417
 20
12.53709241554115
 30
0.0
 42
0.5569941129379792
  0
VERTEX
  5
8DE
  8
LAYER_1
 10
-47.85143900808808
 20
11.43785566612317
 30
0.0
  0
VERTEX
  5
8DF
  8
LAYER_1
 10
-47.81032109729941
 20
4.881610481573951
 30
0.0
  0
VERTEX
  5
8E0
  8
LAYER_1
 10
-48.16349937773047
 20
4.48589682784616
 30
0.0
  0
VERTEX
  5
8E1
  8
LAYER_1
 10
-48.49803907033558
 20
4.076771887680776
 30
0.0
  0
VERTEX
  5
8E2
  8
LAYER_1
 10
-48.8136630003181
 20
3.654910699183355
 30
0.0
  0
VERTEX
  5
8E3
  8
LAYER_1
 10
-49.11009399288142
 20
3.220988300459449
 30
0.0
  0
VERTEX
  5
8E4
  8
LAYER_1
 10
-49.38705487322892
 20
2.775679729614613
 30
0.0
  0
VERTEX
  5
8E5
  8
LAYER_1
 10
-49.64426846656397
 20
2.319660024754398
 30
0.0
  0
VERTEX
  5
8E6
  8
LAYER_1
 10
-49.88145759808995
 20
1.853604223984362
 30
0.0
  0
VERTEX
  5
8E7
  8
LAYER_1
 10
-50.09834509301025
 20
1.378187365410055
 30
0.0
  0
VERTEX
  5
8E8
  8
LAYER_1
 10
-50.29465377652824
 20
0.8940844871370338
 30
0.0
  0
VERTEX
  5
8E9
  8
LAYER_1
 10
-50.4701064738473
 20
0.4019706272708509
 30
0.0
  0
VERTEX
  5
8EA
  8
LAYER_1
 10
-50.62442601017081
 20
-0.0974791760829396
 30
0.0
  0
VERTEX
  5
8EB
  8
LAYER_1
 10
-50.75733521070214
 20
-0.603589884818784
 30
0.0
  0
VERTEX
  5
8EC
  8
LAYER_1
 10
-50.86855690064468
 20
-1.115686460831128
 30
0.0
  0
VERTEX
  5
8ED
  8
LAYER_1
 10
-50.95781390520179
 20
-1.633093866014418
 30
0.0
  0
VERTEX
  5
8EE
  8
LAYER_1
 10
-51.02482904957688
 20
-2.1551370622631
 30
0.0
  0
VERTEX
  5
8EF
  8
LAYER_1
 10
-51.0693251589733
 20
-2.681141011471621
 30
0.0
  0
VERTEX
  5
8F0
  8
LAYER_1
 10
-51.25620184201225
 20
-2.028024852163699
 30
0.0
  0
VERTEX
  5
8F1
  8
LAYER_1
 10
-51.45337199348138
 20
-1.377943370951067
 30
0.0
  0
VERTEX
  5
8F2
  8
LAYER_1
 10
-51.52099269797728
 20
-1.146527777777777
 30
0.0
  0
VERTEX
  5
8F3
  8
LAYER_1
 10
-51.68957306349145
 20
-0.566759875715223
 30
0.0
  0
VERTEX
  5
8F4
  8
LAYER_1
 10
-51.88259065430094
 20
0.0361222312993073
 30
0.0
  0
VERTEX
  5
8F5
  8
LAYER_1
 10
-52.09705595563492
 20
0.6557197497647934
 30
0.0
  0
VERTEX
  5
8F6
  8
LAYER_1
 10
-52.32997945272255
 20
1.285633886180215
 30
0.0
  0
VERTEX
  5
8F7
  8
LAYER_1
 10
-52.57837163079301
 20
1.919465847044552
 30
0.0
  0
VERTEX
  5
8F8
  8
LAYER_1
 10
-52.83924297507546
 20
2.550816838856785
 30
0.0
  0
VERTEX
  5
8F9
  8
LAYER_1
 10
-53.10960397079906
 20
3.173288068115892
 30
0.0
  0
VERTEX
  5
8FA
  8
LAYER_1
 10
-53.38646510319298
 20
3.780480741320854
 30
0.0
  0
VERTEX
  5
8FB
  8
LAYER_1
 10
-53.66683685748637
 20
4.365996064970651
 30
0.0
  0
VERTEX
  5
8FC
  8
LAYER_1
 10
-53.94772971890842
 20
4.923435245564262
 30
0.0
  0
VERTEX
  5
8FD
  8
LAYER_1
 10
-54.22615417268828
 20
5.446399489600666
 30
0.0
  0
VERTEX
  5
8FE
  8
LAYER_1
 10
-54.49912070405514
 20
5.928490003578845
 30
0.0
  0
VERTEX
  5
8FF
  8
LAYER_1
 10
-54.76363979823813
 20
6.363307993997777
 30
0.0
  0
VERTEX
  5
900
  8
LAYER_1
 10
-55.01672194046644
 20
6.744454667356442
 30
0.0
  0
VERTEX
  5
901
  8
LAYER_1
 10
-55.25537761596922
 20
7.06553123015382
 30
0.0
  0
VERTEX
  5
902
  8
LAYER_1
 10
-55.36836130533266
 20
7.201543597122958
 30
0.0
  0
VERTEX
  5
903
  8
LAYER_1
 10
-55.47661730997565
 20
7.320138888888891
 30
0.0
  0
VERTEX
  5
904
  8
LAYER_1
 10
-55.75600602256741
 20
7.591489710695996
 30
0.0
  0
VERTEX
  5
905
  8
LAYER_1
 10
-56.03596098840079
 20
7.827315296552291
 30
0.0
  0
VERTEX
  5
906
  8
LAYER_1
 10
-56.3160157842218
 20
8.027607569678796
 30
0.0
  0
VERTEX
  5
907
  8
LAYER_1
 10
-56.4559348611108
 20
8.11442618997495
 30
0.0
  0
VERTEX
  5
908
  8
LAYER_1
 10
-56.59570398677648
 20
8.192358453296535
 30
0.0
  0
VERTEX
  5
909
  8
LAYER_1
 10
-56.73526485831206
 20
8.261403350046184
 30
0.0
  0
VERTEX
  5
90A
  8
LAYER_1
 10
-56.87455917281083
 20
8.321559870626526
 30
0.0
  0
VERTEX
  5
90B
  8
LAYER_1
 10
-57.01352862736603
 20
8.372827005440184
 30
0.0
  0
VERTEX
  5
90C
  8
LAYER_1
 10
-57.1521149190709
 20
8.415203744889789
 30
0.0
  0
VERTEX
  5
90D
  8
LAYER_1
 10
-57.2902597450187
 20
8.448689079377967
 30
0.0
  0
VERTEX
  5
90E
  8
LAYER_1
 10
-57.42790480230269
 20
8.473281999307346
 30
0.0
  0
VERTEX
  5
90F
  8
LAYER_1
 10
-57.56499178801611
 20
8.488981495080552
 30
0.0
  0
VERTEX
  5
910
  8
LAYER_1
 10
-57.70146239925222
 20
8.495786557100217
 30
0.0
  0
VERTEX
  5
911
  8
LAYER_1
 10
-57.83725833310427
 20
8.493696175768966
 30
0.0
  0
VERTEX
  5
912
  8
LAYER_1
 10
-57.97232128666552
 20
8.482709341489425
 30
0.0
  0
VERTEX
  5
913
  8
LAYER_1
 10
-58.10659295702921
 20
8.462825044664221
 30
0.0
  0
VERTEX
  5
914
  8
LAYER_1
 10
-58.2400150412886
 20
8.434042275695985
 30
0.0
  0
VERTEX
  5
915
  8
LAYER_1
 10
-58.37252923653693
 20
8.396360024987342
 30
0.0
  0
VERTEX
  5
916
  8
LAYER_1
 10
-58.50407723986748
 20
8.349777282940922
 30
0.0
  0
VERTEX
  5
917
  8
LAYER_1
 10
-58.63460074837348
 20
8.294293039959351
 30
0.0
  0
VERTEX
  5
918
  8
LAYER_1
 10
-58.76404145914819
 20
8.229906286445257
 30
0.0
  0
VERTEX
  5
919
  8
LAYER_1
 10
-58.89234106928486
 20
8.156616012801265
 30
0.0
  0
VERTEX
  5
91A
  8
LAYER_1
 10
-59.01944127587674
 20
8.074421209430009
 30
0.0
  0
VERTEX
  5
91B
  8
LAYER_1
 10
-59.1452837760171
 20
7.983320866734109
 30
0.0
  0
VERTEX
  5
91C
  8
LAYER_1
 10
-59.26981026679917
 20
7.883313975116197
 30
0.0
  0
VERTEX
  5
91D
  8
LAYER_1
 10
-59.39296244531621
 20
7.774399524978899
 30
0.0
  0
VERTEX
  5
91E
  8
LAYER_1
 10
-59.51468200866148
 20
7.656576506724844
 30
0.0
  0
VERTEX
  5
91F
  8
LAYER_1
 10
-59.7535900782097
 20
7.394200727476971
 30
0.0
  0
VERTEX
  5
920
  8
LAYER_1
 10
-59.86613311276444
 20
7.25287945864584
 30
0.0
  0
VERTEX
  5
921
  8
LAYER_1
 10
-59.97884195086243
 20
7.096303114962929
 30
0.0
  0
VERTEX
  5
922
  8
LAYER_1
 10
-60.09165574630418
 20
6.924671379963503
 30
0.0
  0
VERTEX
  5
923
  8
LAYER_1
 10
-60.20451365289018
 20
6.738183937182834
 30
0.0
  0
VERTEX
  5
924
  8
LAYER_1
 10
-60.43011841469702
 20
6.321440662418841
 30
0.0
  0
VERTEX
  5
925
  8
LAYER_1
 10
-60.65516946668706
 20
5.847670758953107
 30
0.0
  0
VERTEX
  5
926
  8
LAYER_1
 10
-60.87918003926437
 20
5.318471695067789
 30
0.0
  0
VERTEX
  5
927
  8
LAYER_1
 10
-61.10166336283305
 20
4.735440939045041
 30
0.0
  0
VERTEX
  5
928
  8
LAYER_1
 10
-61.32213266779719
 20
4.100175959167021
 30
0.0
  0
VERTEX
  5
929
  8
LAYER_1
 10
-61.54010118456088
 20
3.414274223715886
 30
0.0
  0
VERTEX
  5
92A
  8
LAYER_1
 10
-61.75508214352822
 20
2.679333200973789
 30
0.0
  0
VERTEX
  5
92B
  8
LAYER_1
 10
-61.96658877510329
 20
1.896950359222888
 30
0.0
  0
VERTEX
  5
92C
  8
LAYER_1
 10
-62.17413430969018
 20
1.068723166745339
 30
0.0
  0
VERTEX
  5
92D
  8
LAYER_1
 10
-62.37723197769299
 20
0.1962490918232973
 30
0.0
  0
VERTEX
  5
92E
  8
LAYER_1
 10
-62.57539500951579
 20
-0.7188743972610799
 30
0.0
  0
VERTEX
  5
92F
  8
LAYER_1
 10
-62.7681366355627
 20
-1.675049832225637
 30
0.0
  0
VERTEX
  5
930
  8
LAYER_1
 10
-62.95497008623779
 20
-2.670679744788218
 30
0.0
  0
VERTEX
  5
931
  8
LAYER_1
 10
-63.13540859194516
 20
-3.704166666666666
 30
0.0
  0
VERTEX
  5
932
  8
LAYER_1
 10
-63.48817239243913
 20
-5.774952022444912
 30
0.0
  0
VERTEX
  5
933
  8
LAYER_1
 10
-63.82348564624422
 20
-7.689336786723754
 30
0.0
  0
VERTEX
  5
934
  8
LAYER_1
 10
-64.14399206463784
 20
-9.458017837377627
 30
0.0
  0
VERTEX
  5
935
  8
LAYER_1
 10
-64.45233535889744
 20
-11.09169205228097
 30
0.0
  0
VERTEX
  5
936
  8
LAYER_1
 10
-64.7511592403004
 20
-12.60105630930823
 30
0.0
  0
VERTEX
  5
937
  8
LAYER_1
 10
-65.0431074201241
 20
-13.99680748633385
 30
0.0
  0
VERTEX
  5
938
  8
LAYER_1
 10
-65.33082360964599
 20
-15.28964246123226
 30
0.0
  0
VERTEX
  5
939
  8
LAYER_1
 10
-65.61695152014347
 20
-16.4902581118779
 30
0.0
  0
VERTEX
  5
93A
  8
LAYER_1
 10
-65.90413486289394
 20
-17.60935131614522
 30
0.0
  0
VERTEX
  5
93B
  8
LAYER_1
 10
-66.1950173491748
 20
-18.65761895190865
 30
0.0
  0
VERTEX
  5
93C
  8
LAYER_1
 10
-66.49224269026348
 20
-19.64575789704264
 30
0.0
  0
VERTEX
  5
93D
  8
LAYER_1
 10
-66.79845459743736
 20
-20.58446502942162
 30
0.0
  0
VERTEX
  5
93E
  8
LAYER_1
 10
-67.11629678197386
 20
-21.48443722692004
 30
0.0
  0
VERTEX
  5
93F
  8
LAYER_1
 10
-67.44841295515039
 20
-22.35637136741233
 30
0.0
  0
VERTEX
  5
940
  8
LAYER_1
 10
-67.79744682824438
 20
-23.21096432877295
 30
0.0
  0
VERTEX
  5
941
  8
LAYER_1
 10
-68.16604211253318
 20
-24.05891298887632
 30
0.0
  0
VERTEX
  5
942
  8
LAYER_1
 10
-69.23890929460225
 20
-26.45833333333334
 30
0.0
  0
VERTEX
  5
943
  8
LAYER_1
 10
-69.50476063017067
 20
-26.45833333333333
 30
0.0
  0
VERTEX
  5
944
  8
LAYER_1
 10
-69.54945750247809
 20
-26.44607494543092
 30
0.0
  0
VERTEX
  5
945
  8
LAYER_1
 10
-69.60052141637209
 20
-26.41001467871781
 30
0.0
  0
VERTEX
  5
946
  8
LAYER_1
 10
-69.65754900252676
 20
-26.35122487868521
 30
0.0
  0
VERTEX
  5
947
  8
LAYER_1
 10
-69.72013689161628
 20
-26.2707778908243
 30
0.0
  0
VERTEX
  5
948
  8
LAYER_1
 10
-69.86038010129633
 20
-26.04920173358231
 30
0.0
  0
VERTEX
  5
949
  8
LAYER_1
 10
-70.01802409080537
 20
-25.75386497092141
 30
0.0
  0
VERTEX
  5
94A
  8
LAYER_1
 10
-70.18984190553647
 20
-25.39334636677112
 30
0.0
  0
VERTEX
  5
94B
  8
LAYER_1
 10
-70.37260659088275
 20
-24.97622468506098
 30
0.0
  0
VERTEX
  5
94C
  8
LAYER_1
 10
-70.56309119223725
 20
-24.51107868972053
 30
0.0
  0
VERTEX
  5
94D
  8
LAYER_1
 10
-70.75806875499309
 20
-24.00648714467932
 30
0.0
  0
VERTEX
  5
94E
  8
LAYER_1
 10
-70.95431232454337
 20
-23.47102881386688
 30
0.0
  0
VERTEX
  5
94F
  8
LAYER_1
 10
-71.14859494628115
 20
-22.91328246121275
 30
0.0
  0
VERTEX
  5
950
  8
LAYER_1
 10
-71.33768966559953
 20
-22.34182685064647
 30
0.0
  0
VERTEX
  5
951
  8
LAYER_1
 10
-71.51836952789164
 20
-21.76524074609758
 30
0.0
  0
VERTEX
  5
952
  8
LAYER_1
 10
-71.68740757855052
 20
-21.19210291149561
 30
0.0
  0
VERTEX
  5
953
  8
LAYER_1
 10
-71.84157686296929
 20
-20.63099211077011
 30
0.0
  0
VERTEX
  5
954
  8
LAYER_1
 10
-71.97765042654103
 20
-20.09048710785061
 30
0.0
  0
VERTEX
  5
955
  8
LAYER_1
 10
-72.09240131465882
 20
-19.57916666666667
 30
0.0
  0
VERTEX
  5
956
  8
LAYER_1
 10
-72.18742444495184
 20
-19.10115329461465
 30
0.0
  0
VERTEX
  5
957
  8
LAYER_1
 10
-72.27626292897358
 20
-18.60857118465432
 30
0.0
  0
VERTEX
  5
958
  8
LAYER_1
 10
-72.35893100172777
 20
-18.10238567051529
 30
0.0
  0
VERTEX
  5
959
  8
LAYER_1
 10
-72.43544289821816
 20
-17.58356208592713
 30
0.0
  0
VERTEX
  5
95A
  8
LAYER_1
 10
-72.57005510242243
 20
-16.51186204032188
 30
0.0
  0
VERTEX
  5
95B
  8
LAYER_1
 10
-72.68021342161634
 20
-15.40119371767535
 30
0.0
  0
VERTEX
  5
95C
  8
LAYER_1
 10
-72.76603173582976
 20
-14.25927978782434
 30
0.0
  0
VERTEX
  5
95D
  8
LAYER_1
 10
-72.82762392509258
 20
-13.09384292060563
 30
0.0
  0
VERTEX
  5
95E
  8
LAYER_1
 10
-72.86510386943476
 20
-11.91260578585602
 30
0.0
  0
VERTEX
  5
95F
  8
LAYER_1
 10
-72.87858544888618
 20
-10.72329105341229
 30
0.0
  0
VERTEX
  5
960
  8
LAYER_1
 10
-72.86818254347673
 20
-9.53362139311124
 30
0.0
  0
VERTEX
  5
961
  8
LAYER_1
 10
-72.83400903323633
 20
-8.35131947478965
 30
0.0
  0
VERTEX
  5
962
  8
LAYER_1
 10
-72.7761787981949
 20
-7.184107968284312
 30
0.0
  0
VERTEX
  5
963
  8
LAYER_1
 10
-72.69480571838231
 20
-6.039709543432017
 30
0.0
  0
VERTEX
  5
964
  8
LAYER_1
 10
-72.5900036738285
 20
-4.925846870069552
 30
0.0
  0
VERTEX
  5
965
  8
LAYER_1
 10
-72.46188654456337
 20
-3.850242618033708
 30
0.0
  0
VERTEX
  5
966
  8
LAYER_1
 10
-72.3891204106734
 20
-3.329200734337266
 30
0.0
  0
VERTEX
  5
967
  8
LAYER_1
 10
-72.31056821061681
 20
-2.820619457161274
 30
0.0
  0
VERTEX
  5
968
  8
LAYER_1
 10
-72.22624417939734
 20
-2.325464120235332
 30
0.0
  0
VERTEX
  5
969
  8
LAYER_1
 10
-72.13616255201873
 20
-1.844700057289038
 30
0.0
  0
VERTEX
  5
96A
  8
LAYER_1
 10
-71.9735837995703
 20
-1.057435648912873
 30
0.0
  0
VERTEX
  5
96B
  8
LAYER_1
 10
-71.78262232151201
 20
-0.2753338712283196
 30
0.0
  0
VERTEX
  5
96C
  8
LAYER_1
 10
-71.56418788701126
 20
0.5014899477229326
 30
0.0
  0
VERTEX
  5
96D
  8
LAYER_1
 10
-71.31919026523549
 20
1.272920479899195
 30
0.0
  0
VERTEX
  5
96E
  8
LAYER_1
 10
-71.04853922535213
 20
2.038842397258779
 30
0.0
  0
VERTEX
  5
96F
  8
LAYER_1
 10
-70.7531445365286
 20
2.799140371759995
 30
0.0
  0
VERTEX
  5
970
  8
LAYER_1
 10
-70.4339159679323
 20
3.553699075361154
 30
0.0
  0
VERTEX
  5
971
  8
LAYER_1
 10
-70.09176328873068
 20
4.302403180020569
 30
0.0
  0
VERTEX
  5
972
  8
LAYER_1
 10
-69.72759626809116
 20
5.04513735769655
 30
0.0
  0
VERTEX
  5
973
  8
LAYER_1
 10
-69.34232467518117
 20
5.781786280347408
 30
0.0
  0
VERTEX
  5
974
  8
LAYER_1
 10
-68.93685827916813
 20
6.512234619931454
 30
0.0
  0
VERTEX
  5
975
  8
LAYER_1
 10
-68.51210684921948
 20
7.236367048407001
 30
0.0
  0
VERTEX
  5
976
  8
LAYER_1
 10
-68.06898015450263
 20
7.954068237732358
 30
0.0
  0
VERTEX
  5
977
  8
LAYER_1
 10
-67.60838796418497
 20
8.665222859865837
 30
0.0
  0
VERTEX
  5
978
  8
LAYER_1
 10
-67.13124004743398
 20
9.36971558676575
 30
0.0
  0
VERTEX
  5
979
  8
LAYER_1
 10
-66.63844617341707
 20
10.06743109039041
 30
0.0
  0
VERTEX
  5
97A
  8
LAYER_1
 10
-66.13091611130164
 20
10.75825404269812
 30
0.0
  0
VERTEX
  5
97B
  8
LAYER_1
 10
-65.60955963025515
 20
11.4420691156472
 30
0.0
  0
VERTEX
  5
97C
  8
LAYER_1
 10
-65.07528649944501
 20
12.11876098119596
 30
0.0
  0
VERTEX
  5
97D
  8
LAYER_1
 10
-64.52900648803863
 20
12.78821431130271
 30
0.0
  0
VERTEX
  5
97E
  8
LAYER_1
 10
-63.97162936520346
 20
13.45031377792576
 30
0.0
  0
VERTEX
  5
97F
  8
LAYER_1
 10
-63.4040649001069
 20
14.10494405302342
 30
0.0
  0
VERTEX
  5
980
  8
LAYER_1
 10
-62.8272228619164
 20
14.751989808554
 30
0.0
  0
VERTEX
  5
981
  8
LAYER_1
 10
-62.24201301979936
 20
15.39133571647582
 30
0.0
  0
VERTEX
  5
982
  8
LAYER_1
 10
-61.64934514292322
 20
16.02286644874718
 30
0.0
  0
VERTEX
  5
983
  8
LAYER_1
 10
-61.05012900045539
 20
16.6464666773264
 30
0.0
  0
VERTEX
  5
984
  8
LAYER_1
 10
-60.44527436156332
 20
17.26202107417179
 30
0.0
  0
VERTEX
  5
985
  8
LAYER_1
 10
-59.83569099541442
 20
17.86941431124166
 30
0.0
  0
VERTEX
  5
986
  8
LAYER_1
 10
-59.22228867117611
 20
18.46853106049432
 30
0.0
  0
VERTEX
  5
987
  8
LAYER_1
 10
-58.60597715801582
 20
19.05925599388808
 30
0.0
  0
VERTEX
  5
988
  8
LAYER_1
 10
-57.368265641599
 20
20.21506910093214
 30
0.0
  0
VERTEX
  5
989
  8
LAYER_1
 10
-56.56891452122574
 20
20.99175065412783
 30
0.0
  0
VERTEX
  5
98A
  8
LAYER_1
 10
-55.621550604978
 20
21.92825384731263
 30
0.0
  0
VERTEX
  5
98B
  8
LAYER_1
 10
-51.27496199975248
 20
26.22525707183981
 30
0.0
  0
VERTEX
  5
98C
  8
LAYER_1
 10
-46.47605296840016
 20
30.93804682278034
 30
0.0
  0
VERTEX
  5
98D
  8
LAYER_1
 10
-41.35503696692723
 20
35.946926978894
 30
0.0
  0
VERTEX
  5
98E
  8
LAYER_1
 10
-39.28137412051242
 20
38.69915793389143
 30
0.0
  0
VERTEX
  5
98F
  8
LAYER_1
 10
-38.78509637630218
 20
39.38162757006621
 30
0.0
  0
VERTEX
  5
990
  8
LAYER_1
 10
-38.16799978201418
 20
40.26885229688654
 30
0.0
  0
VERTEX
  5
991
  8
LAYER_1
 10
-37.4546104089434
 20
41.32349874520105
 30
0.0
  0
VERTEX
  5
992
  8
LAYER_1
 10
-36.66945432838477
 20
42.50823354585839
 30
0.0
  0
VERTEX
  5
993
  8
LAYER_1
 10
-35.83705761163326
 20
43.7857233297072
 30
0.0
  0
VERTEX
  5
994
  8
LAYER_1
 10
-34.98194632998381
 20
45.11863472759612
 30
0.0
  0
VERTEX
  5
995
  8
LAYER_1
 10
-34.1286465547314
 20
46.4696343703738
 30
0.0
  0
VERTEX
  5
996
  8
LAYER_1
 10
-33.30168435717097
 20
47.80138888888888
 30
0.0
  0
VERTEX
  5
997
  8
LAYER_1
 10
-28.40743714095875
 20
55.91527777777779
 30
0.0
  0
VERTEX
  5
998
  8
LAYER_1
 10
-27.43611854776237
 20
57.66530610909783
 30
0.0
  0
VERTEX
  5
999
  8
LAYER_1
 10
-27.01807875384823
 20
58.43532249493822
 30
0.0
  0
VERTEX
  5
99A
  8
LAYER_1
 10
-26.63867998063179
 20
59.14991422176081
 30
0.0
  0
VERTEX
  5
99B
  8
LAYER_1
 10
-26.29309324229429
 20
59.82001168521207
 30
0.0
  0
VERTEX
  5
99C
  8
LAYER_1
 10
-25.97648955301698
 20
60.45654528093844
 30
0.0
  0
VERTEX
  5
99D
  8
LAYER_1
 10
-25.68403992698109
 20
61.07044540458639
 30
0.0
  0
VERTEX
  5
99E
  8
LAYER_1
 10
-25.41091537836788
 20
61.6726424518024
 30
0.0
  0
VERTEX
  5
99F
  8
LAYER_1
 10
-25.15228692135859
 20
62.27406681823291
 30
0.0
  0
VERTEX
  5
9A0
  8
LAYER_1
 10
-24.90332557013446
 20
62.8856488995244
 30
0.0
  0
VERTEX
  5
9A1
  8
LAYER_1
 10
-24.65920233887674
 20
63.51831909132331
 30
0.0
  0
VERTEX
  5
9A2
  8
LAYER_1
 10
-24.41508824176667
 20
64.18300778927612
 30
0.0
  0
VERTEX
  5
9A3
  8
LAYER_1
 10
-24.1661542929855
 20
64.89064538902929
 30
0.0
  0
VERTEX
  5
9A4
  8
LAYER_1
 10
-23.90757150671446
 20
65.65216228622927
 30
0.0
  0
VERTEX
  5
9A5
  8
LAYER_1
 10
-23.3421434784278
 20
67.38055555555556
 30
0.0
  0
VERTEX
  5
9A6
  8
LAYER_1
 10
-20.97175087850995
 20
75.22153511230059
 30
0.0
  0
VERTEX
  5
9A7
  8
LAYER_1
 10
-20.80121377077276
 20
75.90417974231025
 30
0.0
  0
VERTEX
  5
9A8
  8
LAYER_1
 10
-20.67631860302534
 20
76.46004903161186
 30
0.0
  0
VERTEX
  5
9A9
  8
LAYER_1
 10
-20.59622904305123
 20
76.9076619566404
 30
0.0
  0
VERTEX
  5
9AA
  8
LAYER_1
 10
-20.57272501216154
 20
77.0966594626882
 30
0.0
  0
VERTEX
  5
9AB
  8
LAYER_1
 10
-20.560108758634
 20
77.26553749383085
 30
0.0
  0
VERTEX
  5
9AC
  8
LAYER_1
 10
-20.55827574094157
 20
77.41661092212273
 30
0.0
  0
VERTEX
  5
9AD
  8
LAYER_1
 10
-20.56712141755719
 20
77.5521946196182
 30
0.0
  0
VERTEX
  5
9AE
  8
LAYER_1
 10
-20.5865412469538
 20
77.67460345837166
 30
0.0
  0
VERTEX
  5
9AF
  8
LAYER_1
 10
-20.61643068760435
 20
77.78615231043747
 30
0.0
  0
VERTEX
  5
9B0
  8
LAYER_1
 10
-20.65668519798178
 20
77.88915604787
 30
0.0
  0
VERTEX
  5
9B1
  8
LAYER_1
 10
-20.70720023655903
 20
77.98592954272362
 30
0.0
  0
VERTEX
  5
9B2
  8
LAYER_1
 10
-20.76787126180904
 20
78.07878766705272
 30
0.0
  0
VERTEX
  5
9B3
  8
LAYER_1
 10
-20.83859373220477
 20
78.17004529291165
 30
0.0
  0
VERTEX
  5
9B4
  8
LAYER_1
 10
-21.31628783308813
 20
78.74563147233323
 30
0.0
  0
VERTEX
  5
9B5
  8
LAYER_1
 10
-23.9095874972429
 20
73.50406573616661
 30
0.0
  0
VERTEX
  5
9B6
  8
LAYER_1
 10
-25.11328408017355
 20
71.09307302454567
 30
0.0
  0
VERTEX
  5
9B7
  8
LAYER_1
 10
-26.47362392305447
 20
68.40322555999893
 30
0.0
  0
VERTEX
  5
9B8
  8
LAYER_1
 10
-27.82369050141065
 20
65.7627817494944
 30
0.0
  0
VERTEX
  5
9B9
  8
LAYER_1
 10
-28.99656729076708
 20
63.5
 30
0.0
  0
VERTEX
  5
9BA
  8
LAYER_1
 10
-31.49024742013647
 20
58.73750000000001
 30
0.0
  0
VERTEX
  5
9BB
  8
LAYER_1
 10
-33.27781995299178
 20
55.91527777777779
 30
0.0
  0
VERTEX
  5
9BC
  8
LAYER_1
 10
-34.08809437376131
 20
54.66636176215279
 30
0.0
  0
VERTEX
  5
9BD
  8
LAYER_1
 10
-34.9728550814575
 20
53.35212673611112
 30
0.0
  0
VERTEX
  5
9BE
  8
LAYER_1
 10
-35.82512925357011
 20
52.12884223090278
 30
0.0
  0
VERTEX
  5
9BF
  8
LAYER_1
 10
-36.20565488174813
 20
51.60014065212673
 30
0.0
  0
VERTEX
  5
9C0
  8
LAYER_1
 10
-36.53794406758892
 20
51.15277777777777
 30
0.0
  0
VERTEX
  5
9C1
  8
LAYER_1
 10
-38.01049564933076
 20
49.21250000000001
 30
0.0
  0
VERTEX
  5
9C2
  8
LAYER_1
 10
-50.16734821116233
 20
36.68710186469602
 30
0.0
  0
VERTEX
  5
9C3
  8
LAYER_1
 10
-53.98038603477215
 20
33.34853793126507
 30
0.0
  0
VERTEX
  5
9C4
  8
LAYER_1
 10
-54.91188992704983
 20
32.522498265639
 30
0.0
  0
VERTEX
  5
9C5
  8
LAYER_1
 10
-55.85039925749727
 20
31.66996309870528
 30
0.0
  0
VERTEX
  5
9C6
  8
LAYER_1
 10
-56.79109737769697
 20
30.79594835008032
 30
0.0
  0
VERTEX
  5
9C7
  8
LAYER_1
 10
-57.72916763923141
 20
29.90546993938054
 30
0.0
  0
VERTEX
  5
9C8
  8
LAYER_1
 10
-58.65979339368306
 20
29.00354378622238
 30
0.0
  0
VERTEX
  5
9C9
  8
LAYER_1
 10
-59.57815799263442
 20
28.09518581022225
 30
0.0
  0
VERTEX
  5
9CA
  8
LAYER_1
 10
-60.47944478766794
 20
27.18541193099657
 30
0.0
  0
VERTEX
  5
9CB
  8
LAYER_1
 10
-61.35883713036615
 20
26.27923806816178
 30
0.0
  0
VERTEX
  5
9CC
  8
LAYER_1
 10
-62.2115183723115
 20
25.38168014133429
 30
0.0
  0
VERTEX
  5
9CD
  8
LAYER_1
 10
-63.03267186508648
 20
24.49775407013051
 30
0.0
  0
VERTEX
  5
9CE
  8
LAYER_1
 10
-63.81748096027358
 20
23.63247577416688
 30
0.0
  0
VERTEX
  5
9CF
  8
LAYER_1
 10
-64.5611290094553
 20
22.79086117305983
 30
0.0
  0
VERTEX
  5
9D0
  8
LAYER_1
 10
-65.25879936421408
 20
21.97792618642577
 30
0.0
  0
VERTEX
  5
9D1
  8
LAYER_1
 10
-65.90567537613244
 20
21.19868673388112
 30
0.0
  0
VERTEX
  5
9D2
  8
LAYER_1
 10
-66.49694039679284
 20
20.45815873504231
 30
0.0
  0
VERTEX
  5
9D3
  8
LAYER_1
 10
-67.02777777777777
 20
19.76135810952576
 30
0.0
  0
VERTEX
  5
9D4
  8
LAYER_1
 10
-67.87005533759735
 20
18.65448368355738
 30
0.0
  0
VERTEX
  5
9D5
  8
LAYER_1
 10
-68.29702906923717
 20
18.11036169893912
 30
0.0
  0
VERTEX
  5
9D6
  8
LAYER_1
 10
-68.65663046368843
 20
17.66420051147935
 30
0.0
  0
VERTEX
  5
9D7
  8
LAYER_1
 10
-68.98035672385924
 20
17.24926179433215
 30
0.0
  0
VERTEX
  5
9D8
  8
LAYER_1
 10
-69.35652599670765
 20
16.72945937758119
 30
0.0
  0
VERTEX
  5
9D9
  8
LAYER_1
 10
-69.77776118553686
 20
16.11715359813295
 30
0.0
  0
VERTEX
  5
9DA
  8
LAYER_1
 10
-70.23668519365012
 20
15.42470479289386
 30
0.0
  0
VERTEX
  5
9DB
  8
LAYER_1
 10
-70.72592092435065
 20
14.66447329877037
 30
0.0
  0
VERTEX
  5
9DC
  8
LAYER_1
 10
-71.23809128094169
 20
13.84881945266894
 30
0.0
  0
VERTEX
  5
9DD
  8
LAYER_1
 10
-71.76581916672649
 20
12.99010359149602
 30
0.0
  0
VERTEX
  5
9DE
  8
LAYER_1
 10
-72.30172748500829
 20
12.10068605215806
 30
0.0
  0
VERTEX
  5
9DF
  8
LAYER_1
 10
-72.8384391390903
 20
11.1929271715615
 30
0.0
  0
VERTEX
  5
9E0
  8
LAYER_1
 10
-73.36857703227575
 20
10.2791872866128
 30
0.0
  0
VERTEX
  5
9E1
  8
LAYER_1
 10
-73.8847640678679
 20
9.371826734218413
 30
0.0
  0
VERTEX
  5
9E2
  8
LAYER_1
 10
-74.37962314916996
 20
8.483205851284787
 30
0.0
  0
VERTEX
  5
9E3
  8
LAYER_1
 10
-74.84577717948517
 20
7.625684974718371
 30
0.0
  0
VERTEX
  5
9E4
  8
LAYER_1
 10
-75.27584906211679
 20
6.811624441425618
 30
0.0
  0
VERTEX
  5
9E5
  8
LAYER_1
 10
-75.66246170036803
 20
6.053384588312976
 30
0.0
  0
VERTEX
  5
9E6
  8
LAYER_1
 10
-75.99823799754212
 20
5.363325752286897
 30
0.0
  0
VERTEX
  5
9E7
  8
LAYER_1
 10
-77.08815686008
 20
3.055876077535565
 30
0.0
  0
VERTEX
  5
9E8
  8
LAYER_1
 10
-77.30169844746817
 20
2.59433435923537
 30
0.0
  0
VERTEX
  5
9E9
  8
LAYER_1
 10
-77.50799056430145
 20
2.129527373311815
 30
0.0
  0
VERTEX
  5
9EA
  8
LAYER_1
 10
-77.70718715334233
 20
1.661578488331248
 30
0.0
  0
VERTEX
  5
9EB
  8
LAYER_1
 10
-77.89944215735326
 20
1.190611072860016
 30
0.0
  0
VERTEX
  5
9EC
  8
LAYER_1
 10
-78.2637431813351
 20
0.2401141247109528
 30
0.0
  0
VERTEX
  5
9ED
  8
LAYER_1
 10
-78.6021251783466
 20
-0.7209765226045919
 30
0.0
  0
VERTEX
  5
9EE
  8
LAYER_1
 10
-78.91581969048741
 20
-1.691673920555834
 30
0.0
  0
VERTEX
  5
9EF
  8
LAYER_1
 10
-79.2060582598572
 20
-2.670991120611992
 30
0.0
  0
VERTEX
  5
9F0
  8
LAYER_1
 10
-79.47407242855564
 20
-3.657941174242281
 30
0.0
  0
VERTEX
  5
9F1
  8
LAYER_1
 10
-79.72109373868238
 20
-4.651537132915919
 30
0.0
  0
VERTEX
  5
9F2
  8
LAYER_1
 10
-79.94835373233707
 20
-5.65079204810212
 30
0.0
  0
VERTEX
  5
9F3
  8
LAYER_1
 10
-80.15708395161937
 20
-6.654718971270104
 30
0.0
  0
VERTEX
  5
9F4
  8
LAYER_1
 10
-80.34851593862894
 20
-7.662330953889086
 30
0.0
  0
VERTEX
  5
9F5
  8
LAYER_1
 10
-80.52388123546541
 20
-8.672641047428282
 30
0.0
  0
VERTEX
  5
9F6
  8
LAYER_1
 10
-80.6844113842285
 20
-9.68466230335691
 30
0.0
  0
VERTEX
  5
9F7
  8
LAYER_1
 10
-80.8313379270178
 20
-10.69740777314419
 30
0.0
  0
VERTEX
  5
9F8
  8
LAYER_1
 10
-80.965892405933
 20
-11.70989050825933
 30
0.0
  0
VERTEX
  5
9F9
  8
LAYER_1
 10
-81.08930636307375
 20
-12.72112356017155
 30
0.0
  0
VERTEX
  5
9FA
  8
LAYER_1
 10
-81.16877748234542
 20
-13.44650631184245
 30
0.0
  0
VERTEX
  5
9FB
  8
LAYER_1
 10
-81.23745713250682
 20
-14.17260011027564
 30
0.0
  0
VERTEX
  5
9FC
  8
LAYER_1
 10
-81.29534306661608
 20
-14.89942881570509
 30
0.0
  0
VERTEX
  5
9FD
  8
LAYER_1
 10
-81.34243303773133
 20
-15.62701628836475
 30
0.0
  0
VERTEX
  5
9FE
  8
LAYER_1
 10
-81.3787247989107
 20
-16.35538638848858
 30
0.0
  0
VERTEX
  5
9FF
  8
LAYER_1
 10
-81.4042161032123
 20
-17.08456297631053
 30
0.0
  0
VERTEX
  5
A00
  8
LAYER_1
 10
-81.4189047036943
 20
-17.81456991206456
 30
0.0
  0
VERTEX
  5
A01
  8
LAYER_1
 10
-81.42278835341479
 20
-18.54543105598463
 30
0.0
  0
VERTEX
  5
A02
  8
LAYER_1
 10
-81.41586480543194
 20
-19.2771702683047
 30
0.0
  0
VERTEX
  5
A03
  8
LAYER_1
 10
-81.39813181280384
 20
-20.00981140925872
 30
0.0
  0
VERTEX
  5
A04
  8
LAYER_1
 10
-81.36958712858865
 20
-20.74337833908065
 30
0.0
  0
VERTEX
  5
A05
  8
LAYER_1
 10
-81.3302285058445
 20
-21.47789491800445
 30
0.0
  0
VERTEX
  5
A06
  8
LAYER_1
 10
-81.28005369762951
 20
-22.21338500626407
 30
0.0
  0
VERTEX
  5
A07
  8
LAYER_1
 10
-81.21906045700183
 20
-22.94987246409347
 30
0.0
  0
VERTEX
  5
A08
  8
LAYER_1
 10
-81.14724653701956
 20
-23.6873811517266
 30
0.0
  0
VERTEX
  5
A09
  8
LAYER_1
 10
-81.06460969074087
 20
-24.42593492939743
 30
0.0
  0
VERTEX
  5
A0A
  8
LAYER_1
 10
-80.97114767122386
 20
-25.16555765733991
 30
0.0
  0
VERTEX
  5
A0B
  8
LAYER_1
 10
-80.86685823152666
 20
-25.906273195788
 30
0.0
  0
VERTEX
  5
A0C
  8
LAYER_1
 10
-80.75173912470743
 20
-26.64810540497565
 30
0.0
  0
VERTEX
  5
A0D
  8
LAYER_1
 10
-80.62578810382426
 20
-27.39107814513682
 30
0.0
  0
VERTEX
  5
A0E
  8
LAYER_1
 10
-80.48900292193531
 20
-28.13521527650547
 30
0.0
  0
VERTEX
  5
A0F
  8
LAYER_1
 10
-80.34138133209872
 20
-28.88054065931555
 30
0.0
  0
VERTEX
  5
A10
  8
LAYER_1
 10
-80.18292108737259
 20
-29.62707815380102
 30
0.0
  0
VERTEX
  5
A11
  8
LAYER_1
 10
-80.01361994081509
 20
-30.37485162019585
 30
0.0
  0
VERTEX
  5
A12
  8
LAYER_1
 10
-79.83347564548431
 20
-31.12388491873399
 30
0.0
  0
VERTEX
  5
A13
  8
LAYER_1
 10
-79.6424859544384
 20
-31.87420190964937
 30
0.0
  0
VERTEX
  5
A14
  8
LAYER_1
 10
-79.4406486207355
 20
-32.62582645317598
 30
0.0
  0
VERTEX
  5
A15
  8
LAYER_1
 10
-79.22796139743373
 20
-33.37878240954777
 30
0.0
  0
VERTEX
  5
A16
  8
LAYER_1
 10
-79.00442203759123
 20
-34.13309363899869
 30
0.0
  0
VERTEX
  5
A17
  8
LAYER_1
 10
-78.77002829426611
 20
-34.88878400176269
 30
0.0
  0
VERTEX
  5
A18
  8
LAYER_1
 10
-78.52477792051653
 20
-35.64587735807373
 30
0.0
  0
VERTEX
  5
A19
  8
LAYER_1
 10
-78.2686686694006
 20
-36.40439756816579
 30
0.0
  0
VERTEX
  5
A1A
  8
LAYER_1
 10
-77.96918602042616
 20
-37.29062156229145
 30
0.0
  0
VERTEX
  5
A1B
  8
LAYER_1
 10
-77.74102755916607
 20
-38.01232222979078
 30
0.0
  0
VERTEX
  5
A1C
  8
LAYER_1
 10
-77.58019481372017
 20
-38.59439716521248
 30
0.0
  0
VERTEX
  5
A1D
  8
LAYER_1
 10
-77.52377606195873
 20
-38.84085548169067
 30
0.0
  0
VERTEX
  5
A1E
  8
LAYER_1
 10
-77.48268931218826
 20
-39.06174396310522
 30
0.0
  0
VERTEX
  5
A1F
  8
LAYER_1
 10
-77.45643475542124
 20
-39.26017480877469
 30
0.0
  0
VERTEX
  5
A20
  8
LAYER_1
 10
-77.44451258267014
 20
-39.43926021801767
 30
0.0
  0
VERTEX
  5
A21
  8
LAYER_1
 10
-77.44642298494747
 20
-39.60211239015275
 30
0.0
  0
VERTEX
  5
A22
  8
LAYER_1
 10
-77.46166615326567
 20
-39.75184352449853
 30
0.0
  0
VERTEX
  5
A23
  8
LAYER_1
 10
-77.48974227863724
 20
-39.89156582037356
 30
0.0
  0
VERTEX
  5
A24
  8
LAYER_1
 10
-77.53015155207463
 20
-40.02439147709647
 30
0.0
  0
VERTEX
  5
A25
  8
LAYER_1
 10
-77.58239416459034
 20
-40.15343269398581
 30
0.0
  0
VERTEX
  5
A26
  8
LAYER_1
 10
-77.64597030719686
 20
-40.28180167036016
 30
0.0
  0
VERTEX
  5
A27
  8
LAYER_1
 10
-77.784250954477
 20
-40.52393096182108
 30
0.0
  0
VERTEX
  5
A28
  8
LAYER_1
 10
-77.9728192594424
 20
-40.82825899011104
 30
0.0
  0
VERTEX
  5
A29
  8
LAYER_1
 10
-78.49187081579154
 20
-41.61120958748887
 30
0.0
  0
VERTEX
  5
A2A
  8
LAYER_1
 10
-79.18522892296939
 20
-42.60605012311525
 30
0.0
  0
VERTEX
  5
A2B
  8
LAYER_1
 10
-80.03499752770108
 20
-43.78817725761181
 30
0.0
  0
VERTEX
  5
A2C
  8
LAYER_1
 10
-81.02328057671173
 20
-45.13298765160012
 30
0.0
  0
VERTEX
  5
A2D
  8
LAYER_1
 10
-82.13218201672646
 20
-46.61587796570178
 30
0.0
  0
VERTEX
  5
A2E
  8
LAYER_1
 10
-83.3438057944704
 20
-48.21224486053841
 30
0.0
  0
VERTEX
  5
A2F
  8
LAYER_1
 10
-84.64025585666866
 20
-49.89748499673156
 30
0.0
  0
VERTEX
  5
A30
  8
LAYER_1
 10
-87.62895089556599
 20
-53.75746999346313
 30
0.0
  0
VERTEX
  5
A31
  8
LAYER_1
 10
-92.07499999999999
 20
-58.47051633159539
 30
0.0
  0
VERTEX
  5
A32
  8
LAYER_1
 10
-92.07499999999999
 20
-58.69220261024213
 30
0.0
  0
VERTEX
  5
A33
  8
LAYER_1
 10
-92.06391219563118
 20
-58.75608883183229
 30
0.0
  0
VERTEX
  5
A34
  8
LAYER_1
 10
-92.0307704270509
 20
-58.80845143232666
 30
0.0
  0
VERTEX
  5
A35
  8
LAYER_1
 10
-91.97575716104834
 20
-58.84931371567016
 30
0.0
  0
VERTEX
  5
A36
  8
LAYER_1
 10
-91.8990548644127
 20
-58.87869898580767
 30
0.0
  0
VERTEX
  5
A37
  8
LAYER_1
 10
-91.8008460039332
 20
-58.89663054668409
 30
0.0
  0
VERTEX
  5
A38
  8
LAYER_1
 10
-91.68131304639905
 20
-58.90313170224432
 30
0.0
  0
VERTEX
  5
A39
  8
LAYER_1
 10
-91.54063845859946
 20
-58.89822575643325
 30
0.0
  0
VERTEX
  5
A3A
  8
LAYER_1
 10
-91.37900470732362
 20
-58.88193601319577
 30
0.0
  0
VERTEX
  5
A3B
  8
LAYER_1
 10
-91.19659425936072
 20
-58.85428577647679
 30
0.0
  0
VERTEX
  5
A3C
  8
LAYER_1
 10
-90.9935895815
 20
-58.81529835022118
 30
0.0
  0
VERTEX
  5
A3D
  8
LAYER_1
 10
-90.52652740324186
 20
-58.7034051448797
 30
0.0
  0
VERTEX
  5
A3E
  8
LAYER_1
 10
-89.9792779068628
 20
-58.54644282873048
 30
0.0
  0
VERTEX
  5
A3F
  8
LAYER_1
 10
-89.35330082667652
 20
-58.34459783333269
 30
0.0
  0
VERTEX
  5
A40
  8
LAYER_1
 10
-89.06252511305738
 20
-58.24156022459356
 30
0.0
  0
VERTEX
  5
A41
  8
LAYER_1
 10
-88.76415179053254
 20
-58.12609928530701
 30
0.0
  0
VERTEX
  5
A42
  8
LAYER_1
 10
-88.45850767399908
 20
-57.99845148326443
 30
0.0
  0
VERTEX
  5
A43
  8
LAYER_1
 10
-88.1459195783541
 20
-57.85885328625723
 30
0.0
  0
VERTEX
  5
A44
  8
LAYER_1
 10
-87.82671431849465
 20
-57.70754116207679
 30
0.0
  0
VERTEX
  5
A45
  8
LAYER_1
 10
-87.50121870931784
 20
-57.54475157851451
 30
0.0
  0
VERTEX
  5
A46
  8
LAYER_1
 10
-86.83266370260036
 20
-57.18568590440997
 30
0.0
  0
VERTEX
  5
A47
  8
LAYER_1
 10
-86.1428690773783
 20
-56.78354800627475
 30
0.0
  0
VERTEX
  5
A48
  8
LAYER_1
 10
-85.43444935282828
 20
-56.34022962643999
 30
0.0
  0
VERTEX
  5
A49
  8
LAYER_1
 10
-84.71001904812695
 20
-55.85762250723683
 30
0.0
  0
VERTEX
  5
A4A
  8
LAYER_1
 10
-83.97219268245088
 20
-55.3376183909964
 30
0.0
  0
VERTEX
  5
A4B
  8
LAYER_1
 10
-83.22358477497673
 20
-54.78210902004983
 30
0.0
  0
VERTEX
  5
A4C
  8
LAYER_1
 10
-82.46680984488113
 20
-54.19298613672825
 30
0.0
  0
VERTEX
  5
A4D
  8
LAYER_1
 10
-81.70448241134069
 20
-53.57214148336282
 30
0.0
  0
VERTEX
  5
A4E
  8
LAYER_1
 10
-80.93921699353204
 20
-52.92146680228466
 30
0.0
  0
VERTEX
  5
A4F
  8
LAYER_1
 10
-80.1736281106318
 20
-52.2428538358249
 30
0.0
  0
VERTEX
  5
A50
  8
LAYER_1
 10
-79.41033028181658
 20
-51.53819432631468
 30
0.0
  0
VERTEX
  5
A51
  8
LAYER_1
 10
-78.65193802626305
 20
-50.80938001608514
 30
0.0
  0
VERTEX
  5
A52
  8
LAYER_1
 10
-77.9010658631478
 20
-50.05830264746742
 30
0.0
  0
VERTEX
  5
A53
  8
LAYER_1
 10
-74.13407617074006
 20
-46.21388888888891
 30
0.0
  0
VERTEX
  5
A54
  8
LAYER_1
 10
-73.96583744513447
 20
-46.2138888888889
 30
0.0
  0
VERTEX
  5
A55
  8
LAYER_1
 10
-73.94396919113053
 20
-46.22166726854113
 30
0.0
  0
VERTEX
  5
A56
  8
LAYER_1
 10
-73.91343280421475
 20
-46.24448994954428
 30
0.0
  0
VERTEX
  5
A57
  8
LAYER_1
 10
-73.82857045928668
 20
-46.33219346788195
 30
0.0
  0
VERTEX
  5
A58
  8
LAYER_1
 10
-73.71568006562842
 20
-46.4708499484592
 30
0.0
  0
VERTEX
  5
A59
  8
LAYER_1
 10
-73.57919127851818
 20
-46.65430989583333
 30
0.0
  0
VERTEX
  5
A5A
  8
LAYER_1
 10
-73.25313714505445
 20
-47.13104220920138
 30
0.0
  0
VERTEX
  5
A5B
  8
LAYER_1
 10
-72.88584530112094
 20
-47.71319444444443
 30
0.0
  0
VERTEX
  5
A5C
  8
LAYER_1
 10
-72.5726651133428
 20
-48.20086413883304
 30
0.0
  0
VERTEX
  5
A5D
  8
LAYER_1
 10
-72.21447312698942
 20
-48.71215853561713
 30
0.0
  0
VERTEX
  5
A5E
  8
LAYER_1
 10
-71.82323392747747
 20
-49.23380264141142
 30
0.0
  0
VERTEX
  5
A5F
  8
LAYER_1
 10
-71.41091210022364
 20
-49.75252146283063
 30
0.0
  0
VERTEX
  5
A60
  8
LAYER_1
 10
-70.98947223064454
 20
-50.25504000648949
 30
0.0
  0
VERTEX
  5
A61
  8
LAYER_1
 10
-70.57087890415684
 20
-50.72808327900272
 30
0.0
  0
VERTEX
  5
A62
  8
LAYER_1
 10
-70.1670967061772
 20
-51.15837628698506
 30
0.0
  0
VERTEX
  5
A63
  8
LAYER_1
 10
-69.79009022212227
 20
-51.53264403705121
 30
0.0
  0
VERTEX
  5
A64
  8
LAYER_1
 10
-68.6812006022696
 20
-52.57237851916671
 30
0.0
  0
VERTEX
  5
A65
  8
LAYER_1
 10
-67.56981962150824
 20
-53.61012398774561
 30
0.0
  0
VERTEX
  5
A66
  8
LAYER_1
 10
-67.01911350457084
 20
-54.13396035800069
 30
0.0
  0
VERTEX
  5
A67
  8
LAYER_1
 10
-66.47488690794711
 20
-54.66415089412185
 30
0.0
  0
VERTEX
  5
A68
  8
LAYER_1
 10
-65.93950728515065
 20
-55.20297940252583
 30
0.0
  0
VERTEX
  5
A69
  8
LAYER_1
 10
-65.4153420896951
 20
-55.7527296896294
 30
0.0
  0
VERTEX
  5
A6A
  8
LAYER_1
 10
-65.09502043375673
 20
-56.07612324059183
 30
0.0
  0
VERTEX
  5
A6B
  8
LAYER_1
 10
-64.69658777237022
 20
-56.44318611888266
 30
0.0
  0
VERTEX
  5
A6C
  8
LAYER_1
 10
-64.22812331532248
 20
-56.84662452426278
 30
0.0
  0
VERTEX
  5
A6D
  8
LAYER_1
 10
-63.69770627240042
 20
-57.27914465649309
 30
0.0
  0
VERTEX
  5
A6E
  8
LAYER_1
 10
-63.11341585339099
 20
-57.73345271533445
 30
0.0
  0
VERTEX
  5
A6F
  8
LAYER_1
 10
-62.48333126808111
 20
-58.20225490054776
 30
0.0
  0
VERTEX
  5
A70
  8
LAYER_1
 10
-61.8155317262577
 20
-58.6782574118939
 30
0.0
  0
VERTEX
  5
A71
  8
LAYER_1
 10
-61.11809643770768
 20
-59.15416644913374
 30
0.0
  0
VERTEX
  5
A72
  8
LAYER_1
 10
-58.20702620874871
 20
-61.0964839532921
 30
0.0
  0
VERTEX
  5
A73
  8
LAYER_1
 10
-59.39441689127285
 20
-61.90226903563845
 30
0.0
  0
VERTEX
  5
A74
  8
LAYER_1
 10
-59.66091895217144
 20
-62.07315448855378
 30
0.0
  0
VERTEX
  5
A75
  8
LAYER_1
 10
-59.96363114740478
 20
-62.25001273079653
 30
0.0
  0
VERTEX
  5
A76
  8
LAYER_1
 10
-60.29206048059108
 20
-62.42772610731357
 30
0.0
  0
VERTEX
  5
A77
  8
LAYER_1
 10
-60.63571395534854
 20
-62.60117696305183
 30
0.0
  0
VERTEX
  5
A78
  8
LAYER_1
 10
-60.98409857529536
 20
-62.76524764295821
 30
0.0
  0
VERTEX
  5
A79
  8
LAYER_1
 10
-61.32672134404976
 20
-62.91482049197961
 30
0.0
  0
VERTEX
  5
A7A
  8
LAYER_1
 10
-61.65308926522992
 20
-63.04477785506294
 30
0.0
  0
VERTEX
  5
A7B
  8
LAYER_1
 10
-61.95270934245405
 20
-63.15000207715509
 30
0.0
  0
VERTEX
  5
A7C
  8
LAYER_1
 10
-62.51284116634319
 20
-63.34058608060845
 30
0.0
  0
VERTEX
  5
A7D
  8
LAYER_1
 10
-63.02453718879031
 20
-63.53280055039185
 30
0.0
  0
VERTEX
  5
A7E
  8
LAYER_1
 10
-63.43123917467801
 20
-63.70424977511345
 30
0.0
  0
VERTEX
  5
A7F
  8
LAYER_1
 10
-63.57754295543788
 20
-63.77518876076616
 30
0.0
  0
VERTEX
  5
A80
  8
LAYER_1
 10
-63.67638888888888
 20
-63.83253804338149
 30
0.0
  0
VERTEX
  5
A81
  8
LAYER_1
 10
-63.76706828827137
 20
-63.88576898692379
 30
0.0
  0
VERTEX
  5
A82
  8
LAYER_1
 10
-63.89204477827559
 20
-63.94572110288392
 30
0.0
  0
VERTEX
  5
A83
  8
LAYER_1
 10
-64.23715965103514
 20
-64.08383367702616
 30
0.0
  0
VERTEX
  5
A84
  8
LAYER_1
 10
-64.69627474893929
 20
-64.24296541574518
 30
0.0
  0
VERTEX
  5
A85
  8
LAYER_1
 10
-65.25393131375981
 20
-64.41920596897793
 30
0.0
  0
VERTEX
  5
A86
  8
LAYER_1
 10
-65.89467058726846
 20
-64.60864498666136
 30
0.0
  0
VERTEX
  5
A87
  8
LAYER_1
 10
-66.60303381123701
 20
-64.80737211873243
 30
0.0
  0
VERTEX
  5
A88
  8
LAYER_1
 10
-67.3635622274372
 20
-65.0114770151281
 30
0.0
  0
VERTEX
  5
A89
  8
LAYER_1
 10
-68.16079707764084
 20
-65.21704932578531
 30
0.0
  0
VERTEX
  5
A8A
  8
LAYER_1
 10
-68.97927960361966
 20
-65.42017870064103
 30
0.0
  0
VERTEX
  5
A8B
  8
LAYER_1
 10
-69.80355104714543
 20
-65.61695478963223
 30
0.0
  0
VERTEX
  5
A8C
  8
LAYER_1
 10
-70.61815264998992
 20
-65.80346724269585
 30
0.0
  0
VERTEX
  5
A8D
  8
LAYER_1
 10
-71.4076256539249
 20
-65.97580570976882
 30
0.0
  0
VERTEX
  5
A8E
  8
LAYER_1
 10
-72.15651130072213
 20
-66.13005984078814
 30
0.0
  0
VERTEX
  5
A8F
  8
LAYER_1
 10
-72.84935083215338
 20
-66.26231928569074
 30
0.0
  0
VERTEX
  5
A90
  8
LAYER_1
 10
-73.47068548999039
 20
-66.36867369441359
 30
0.0
  0
VERTEX
  5
A91
  8
LAYER_1
 10
-74.00505651600496
 20
-66.44521271689362
 30
0.0
  0
VERTEX
  5
A92
  8
LAYER_1
 10
-74.25581374105467
 20
-66.48356117611544
 30
0.0
  0
VERTEX
  5
A93
  8
LAYER_1
 10
-74.46240580316586
 20
-66.53005049429407
 30
0.0
  0
VERTEX
  5
A94
  8
LAYER_1
 10
-74.62569705291841
 20
-66.58361308835292
 30
0.0
  0
VERTEX
  5
A95
  8
LAYER_1
 10
-74.74655184089212
 20
-66.64318137521542
 30
0.0
  0
VERTEX
  5
A96
  8
LAYER_1
 10
-74.82583451766685
 20
-66.70768777180504
 30
0.0
  0
VERTEX
  5
A97
  8
LAYER_1
 10
-74.85015642391079
 20
-66.74145914153607
 30
0.0
  0
VERTEX
  5
A98
  8
LAYER_1
 10
-74.8644094338224
 20
-66.77606469504516
 30
0.0
  0
VERTEX
  5
A99
  8
LAYER_1
 10
-74.8687015912242
 20
-66.81137098444778
 30
0.0
  0
VERTEX
  5
A9A
  8
LAYER_1
 10
-74.86314093993863
 20
-66.8472445618593
 30
0.0
  0
VERTEX
  5
A9B
  8
LAYER_1
 10
-74.8478355237882
 20
-66.88355197939516
 30
0.0
  0
VERTEX
  5
A9C
  8
LAYER_1
 10
-74.8228933865954
 20
-66.92015978917081
 30
0.0
  0
VERTEX
  5
A9D
  8
LAYER_1
 10
-74.74453112437251
 20
-66.99374279390318
 30
0.0
  0
VERTEX
  5
A9E
  8
LAYER_1
 10
-74.62891850384983
 20
-67.06692599297985
 30
0.0
  0
VERTEX
  5
A9F
  8
LAYER_1
 10
-74.4769198756072
 20
-67.13864180332425
 30
0.0
  0
VERTEX
  5
AA0
  8
LAYER_1
 10
-74.28939959022443
 20
-67.20782264185982
 30
0.0
  0
VERTEX
  5
AA1
  8
LAYER_1
 10
-74.06722199828138
 20
-67.27340092550999
 30
0.0
  0
VERTEX
  5
AA2
  8
LAYER_1
 10
-73.81125145035787
 20
-67.33430907119822
 30
0.0
  0
VERTEX
  5
AA3
  8
LAYER_1
 10
-73.52235229703378
 20
-67.38947949584792
 30
0.0
  0
VERTEX
  5
AA4
  8
LAYER_1
 10
-73.20138888888889
 20
-67.43784461638253
 30
0.0
  0
VERTEX
  5
AA5
  8
LAYER_1
 10
-72.7888588008174
 20
-67.4854163710448
 30
0.0
  0
VERTEX
  5
AA6
  8
LAYER_1
 10
-72.29149323640033
 20
-67.53101601072173
 30
0.0
  0
VERTEX
  5
AA7
  8
LAYER_1
 10
-71.1179788773143
 20
-67.61195812480702
 30
0.0
  0
VERTEX
  5
AA8
  8
LAYER_1
 10
-69.83229220920033
 20
-67.6719893180134
 30
0.0
  0
VERTEX
  5
AA9
  8
LAYER_1
 10
-69.19471125849833
 20
-67.69145030659168
 30
0.0
  0
VERTEX
  5
AAA
  8
LAYER_1
 10
-68.58587962962791
 20
-67.70242794971587
 30
0.0
  0
VERTEX
  5
AAB
  8
LAYER_1
 10
-65.73425925925584
 20
-67.73333333333332
 30
0.0
  0
VERTEX
  5
AAC
  8
LAYER_1
 10
-65.46967592592635
 20
-67.99791666666665
 30
0.0
  0
VERTEX
  5
AAD
  8
LAYER_1
 10
-65.41490169434827
 20
-68.05533133042034
 30
0.0
  0
VERTEX
  5
AAE
  8
LAYER_1
 10
-65.3752657607637
 20
-68.10603350035424
 30
0.0
  0
VERTEX
  5
AAF
  8
LAYER_1
 10
-65.35497885698354
 20
-68.15052985439391
 30
0.0
  0
VERTEX
  5
AB0
  8
LAYER_1
 10
-65.35825171481865
 20
-68.18932707046494
 30
0.0
  0
VERTEX
  5
AB1
  8
LAYER_1
 10
-65.38929506607995
 20
-68.22293182649287
 30
0.0
  0
VERTEX
  5
AB2
  8
LAYER_1
 10
-65.45231964257835
 20
-68.25185080040328
 30
0.0
  0
VERTEX
  5
AB3
  8
LAYER_1
 10
-65.5515361761247
 20
-68.27659067012169
 30
0.0
  0
VERTEX
  5
AB4
  8
LAYER_1
 10
-65.69115539852993
 20
-68.2976581135737
 30
0.0
  0
VERTEX
  5
AB5
  8
LAYER_1
 10
-66.10844483716053
 20
-68.33080243338075
 30
0.0
  0
VERTEX
  5
AB6
  8
LAYER_1
 10
-66.73787381295732
 20
-68.35533718322893
 30
0.0
  0
VERTEX
  5
AB7
  8
LAYER_1
 10
-68.7678937939979
 20
-68.39479166666666
 30
0.0
  0
VERTEX
  5
AB8
  8
LAYER_1
 10
-70.25548355277903
 20
-68.41266572256889
 30
0.0
  0
VERTEX
  5
AB9
  8
LAYER_1
 10
-71.40676324480542
 20
-68.44095560920694
 30
0.0
  0
VERTEX
  5
ABA
  8
LAYER_1
 10
-71.87049269906879
 20
-68.4606639399805
 30
0.0
  0
VERTEX
  5
ABB
  8
LAYER_1
 10
-72.26719169658331
 20
-68.48496516955237
 30
0.0
  0
VERTEX
  5
ABC
  8
LAYER_1
 10
-72.60254259066227
 20
-68.51452227829395
 30
0.0
  0
VERTEX
  5
ABD
  8
LAYER_1
 10
-72.88222773461894
 20
-68.54999824657673
 30
0.0
  0
VERTEX
  5
ABE
  8
LAYER_1
 10
-73.1119294817666
 20
-68.59205605477214
 30
0.0
  0
VERTEX
  5
ABF
  8
LAYER_1
 10
-73.29733018541852
 20
-68.64135868325162
 30
0.0
  0
VERTEX
  5
AC0
  8
LAYER_1
 10
-73.44411219888799
 20
-68.69856911238662
 30
0.0
  0
VERTEX
  5
AC1
  8
LAYER_1
 10
-73.55795787548828
 20
-68.7643503225486
 30
0.0
  0
VERTEX
  5
AC2
  8
LAYER_1
 10
-73.6445495685327
 20
-68.83936529410899
 30
0.0
  0
VERTEX
  5
AC3
  8
LAYER_1
 10
-73.70956963133449
 20
-68.92427700743923
 30
0.0
  0
VERTEX
  5
AC4
  8
LAYER_1
 10
-73.75870041720694
 20
-69.01974844291078
 30
0.0
  0
VERTEX
  5
AC5
  8
LAYER_1
 10
-73.7976242794633
 20
-69.12644258089509
 30
0.0
  0
VERTEX
  5
AC6
  8
LAYER_1
 10
-73.85025242088483
 20
-69.2540961094996
 30
0.0
  0
VERTEX
  5
AC7
  8
LAYER_1
 10
-73.92603904677375
 20
-69.40074748491259
 30
0.0
  0
VERTEX
  5
AC8
  8
LAYER_1
 10
-74.09017190488467
 20
-69.70586610523749
 30
0.0
  0
VERTEX
  5
AC9
  8
LAYER_1
 10
-74.1500602135721
 20
-69.84174451468614
 30
0.0
  0
VERTEX
  5
ACA
  8
LAYER_1
 10
-74.16823466705064
 20
-69.90057218647443
 30
0.0
  0
VERTEX
  5
ACB
  8
LAYER_1
 10
-74.17619115965783
 20
-69.95144310001676
 30
0.0
  0
VERTEX
  5
ACC
  8
LAYER_1
 10
-74.17215107117278
 20
-69.99294545309668
 30
0.0
  0
VERTEX
  5
ACD
  8
LAYER_1
 10
-74.15433578137454
 20
-70.02366744349773
 30
0.0
  0
VERTEX
  5
ACE
  8
LAYER_1
 10
-74.12096667004225
 20
-70.04219726900345
 30
0.0
  0
VERTEX
  5
ACF
  8
LAYER_1
 10
-74.07026511695499
 20
-70.04712312739741
 30
0.0
  0
VERTEX
  5
AD0
  8
LAYER_1
 10
-72.72135691503735
 20
-69.99878381665623
 30
0.0
  0
VERTEX
  5
AD1
  8
LAYER_1
 10
-71.40410947623877
 20
-69.93938869593862
 30
0.0
  0
VERTEX
  5
AD2
  8
LAYER_1
 10
-70.12199898306432
 20
-69.86990237828277
 30
0.0
  0
VERTEX
  5
AD3
  8
LAYER_1
 10
-68.87850161801907
 20
-69.79128947672689
 30
0.0
  0
VERTEX
  5
AD4
  8
LAYER_1
 10
-67.67709356360815
 20
-69.7045146043092
 30
0.0
  0
VERTEX
  5
AD5
  8
LAYER_1
 10
-66.52125100233665
 20
-69.61054237406788
 30
0.0
  0
VERTEX
  5
AD6
  8
LAYER_1
 10
-65.41445011670967
 20
-69.51033739904115
 30
0.0
  0
VERTEX
  5
AD7
  8
LAYER_1
 10
-64.3601670892323
 20
-69.4048642922672
 30
0.0
  0
VERTEX
  5
AD8
  8
LAYER_1
 10
-63.36187810240963
 20
-69.29508766678426
 30
0.0
  0
VERTEX
  5
AD9
  8
LAYER_1
 10
-62.42305933874676
 20
-69.1819721356305
 30
0.0
  0
VERTEX
  5
ADA
  8
LAYER_1
 10
-61.54718698074878
 20
-69.06648231184413
 30
0.0
  0
VERTEX
  5
ADB
  8
LAYER_1
 10
-60.73773721092078
 20
-68.94958280846336
 30
0.0
  0
VERTEX
  5
ADC
  8
LAYER_1
 10
-59.99818621176787
 20
-68.8322382385264
 30
0.0
  0
VERTEX
  5
ADD
  8
LAYER_1
 10
-59.33201016579514
 20
-68.71541321507146
 30
0.0
  0
VERTEX
  5
ADE
  8
LAYER_1
 10
-58.74268525550768
 20
-68.60007235113673
 30
0.0
  0
VERTEX
  5
ADF
  8
LAYER_1
 10
-58.23368766341058
 20
-68.48718025976041
 30
0.0
  0
VERTEX
  5
AE0
  8
LAYER_1
 10
-57.43905311405962
 20
-68.28508200107807
 30
0.0
  0
VERTEX
  5
AE1
  8
LAYER_1
 10
-56.64622687605581
 20
-68.07398735922862
 30
0.0
  0
VERTEX
  5
AE2
  8
LAYER_1
 10
-56.24902109058736
 20
-67.9723987716608
 30
0.0
  0
VERTEX
  5
AE3
  8
LAYER_1
 10
-55.85050244308961
 20
-67.87735994075467
 30
0.0
  0
VERTEX
  5
AE4
  8
LAYER_1
 10
-55.4500826202739
 20
-67.79180381732803
 30
0.0
  0
VERTEX
  5
AE5
  8
LAYER_1
 10
-55.04717330885151
 20
-67.71866335219872
 30
0.0
  0
VERTEX
  5
AE6
  8
LAYER_1
 10
-54.46214073828723
 20
-67.61623783960812
 30
0.0
  0
VERTEX
  5
AE7
  8
LAYER_1
 10
-53.82812241811052
 20
-67.49175510667192
 30
0.0
  0
VERTEX
  5
AE8
  8
LAYER_1
 10
-53.15925432445145
 20
-67.34741678879121
 30
0.0
  0
VERTEX
  5
AE9
  8
LAYER_1
 10
-52.46967243344012
 20
-67.18542452136717
 30
0.0
  0
VERTEX
  5
AEA
  8
LAYER_1
 10
-48.07518550034817
 20
-66.13062351757105
 30
0.0
  0
VERTEX
  5
AEB
  8
LAYER_1
 10
-47.7042323113136
 20
-66.03876082737412
 30
0.0
  0
VERTEX
  5
AEC
  8
LAYER_1
 10
-47.2741664302484
 20
-65.91551888085822
 30
0.0
  0
VERTEX
  5
AED
  8
LAYER_1
 10
-46.8383141928912
 20
-65.77701681099673
 30
0.0
  0
VERTEX
  5
AEE
  8
LAYER_1
 10
-46.45000193498061
 20
-65.63937375076304
 30
0.0
  0
VERTEX
  5
AEF
  8
LAYER_1
 10
-46.34702017813136
 20
-65.60606672743636
 30
0.0
  0
VERTEX
  5
AF0
  8
LAYER_1
 10
-46.2255092124554
 20
-65.5771383982765
 30
0.0
  0
VERTEX
  5
AF1
  8
LAYER_1
 10
-45.93117683638207
 20
-65.53242607480158
 30
0.0
  0
VERTEX
  5
AF2
  8
LAYER_1
 10
-45.5755591702781
 20
-65.50525328502671
 30
0.0
  0
VERTEX
  5
AF3
  8
LAYER_1
 10
-45.16721057766095
 20
-65.49563653364036
 30
0.0
  0
VERTEX
  5
AF4
  8
LAYER_1
 10
-44.71468542204812
 20
-65.50359232533103
 30
0.0
  0
VERTEX
  5
AF5
  8
LAYER_1
 10
-44.22653806695706
 20
-65.52913716478716
 30
0.0
  0
VERTEX
  5
AF6
  8
LAYER_1
 10
-43.71132287590526
 20
-65.57228755669722
 30
0.0
  0
VERTEX
  5
AF7
  8
LAYER_1
 10
-43.17759421241021
 20
-65.63306000574968
 30
0.0
  0
VERTEX
  5
AF8
  8
LAYER_1
 10
-40.74583333333332
 20
-65.94635962096741
 30
0.0
  0
VERTEX
  5
AF9
  8
LAYER_1
 10
-26.92343629346676
 20
-65.9204606487966
 30
0.0
  0
VERTEX
  5
AFA
  8
LAYER_1
 10
-26.27284677428184
 20
-65.91371977902071
 30
0.0
  0
VERTEX
  5
AFB
  8
LAYER_1
 10
-25.62269033890188
 20
-65.89614798036452
 30
0.0
  0
VERTEX
  5
AFC
  8
LAYER_1
 10
-24.97300050473646
 20
-65.86806329319607
 30
0.0
  0
VERTEX
  5
AFD
  8
LAYER_1
 10
-24.32381078919514
 20
-65.8297837578834
 30
0.0
  0
VERTEX
  5
AFE
  8
LAYER_1
 10
-23.6751547096875
 20
-65.78162741479451
 30
0.0
  0
VERTEX
  5
AFF
  8
LAYER_1
 10
-23.02706578362309
 20
-65.72391230429744
 30
0.0
  0
VERTEX
  5
B00
  8
LAYER_1
 10
-22.37957752841148
 20
-65.65695646676022
 30
0.0
  0
VERTEX
  5
B01
  8
LAYER_1
 10
-21.73272346146225
 20
-65.58107794255082
 30
0.0
  0
VERTEX
  5
B02
  8
LAYER_1
 10
-21.08653710018496
 20
-65.4965947720373
 30
0.0
  0
VERTEX
  5
B03
  8
LAYER_1
 10
-20.44105196198917
 20
-65.40382499558768
 30
0.0
  0
VERTEX
  5
B04
  8
LAYER_1
 10
-19.79630156428446
 20
-65.30308665356999
 30
0.0
  0
VERTEX
  5
B05
  8
LAYER_1
 10
-19.1523194244804
 20
-65.19469778635225
 30
0.0
  0
VERTEX
  5
B06
  8
LAYER_1
 10
-17.86679398821246
 20
-64.95624063778867
 30
0.0
  0
VERTEX
  5
B07
  8
LAYER_1
 10
-16.5847437924619
 20
-64.69099787284111
 30
0.0
  0
VERTEX
  5
B08
  8
LAYER_1
 10
-15.30643697650526
 20
-64.40151381445376
 30
0.0
  0
VERTEX
  5
B09
  8
LAYER_1
 10
-14.03214167961909
 20
-64.09033278557081
 30
0.0
  0
VERTEX
  5
B0A
  8
LAYER_1
 10
-12.76212604107991
 20
-63.75999910913643
 30
0.0
  0
VERTEX
  5
B0B
  8
LAYER_1
 10
-11.49665820016427
 20
-63.41305710809478
 30
0.0
  0
VERTEX
  5
B0C
  8
LAYER_1
 10
-10.23600629614871
 20
-63.05205110539006
 30
0.0
  0
VERTEX
  5
B0D
  8
LAYER_1
 10
-8.980438468309769
 20
-62.67952542396642
 30
0.0
  0
VERTEX
  5
B0E
  8
LAYER_1
 10
-6.485627598267904
 20
-61.91009231673915
 30
0.0
  0
VERTEX
  5
B0F
  8
LAYER_1
 10
-5.603001551225848
 20
-61.62642359794761
 30
0.0
  0
VERTEX
  5
B10
  8
LAYER_1
 10
-4.686643325674105
 20
-61.31996176015922
 30
0.0
  0
VERTEX
  5
B11
  8
LAYER_1
 10
-3.741983627005554
 20
-60.99283303231178
 30
0.0
  0
VERTEX
  5
B12
  8
LAYER_1
 10
-2.774453160613073
 20
-60.64716364334306
 30
0.0
  0
VERTEX
  5
B13
  8
LAYER_1
 10
-1.789482631889541
 20
-60.28507982219087
 30
0.0
  0
VERTEX
  5
B14
  8
LAYER_1
 10
-0.7925027462278342
 20
-59.90870779779297
 30
0.0
  0
VERTEX
  5
B15
  8
LAYER_1
 10
0.2110557909791676
 20
-59.52017379908717
 30
0.0
  0
VERTEX
  5
B16
  8
LAYER_1
 10
1.215762274338587
 20
-59.12160405501125
 30
0.0
  0
VERTEX
  5
B17
  8
LAYER_1
 10
2.216185998457544
 20
-58.71512479450299
 30
0.0
  0
VERTEX
  5
B18
  8
LAYER_1
 10
3.206896257943163
 20
-58.3028622465002
 30
0.0
  0
VERTEX
  5
B19
  8
LAYER_1
 10
4.182462347402564
 20
-57.88694263994064
 30
0.0
  0
VERTEX
  5
B1A
  8
LAYER_1
 10
5.137453561442868
 20
-57.46949220376212
 30
0.0
  0
VERTEX
  5
B1B
  8
LAYER_1
 10
6.066439194671198
 20
-57.05263716690241
 30
0.0
  0
VERTEX
  5
B1C
  8
LAYER_1
 10
6.963988541694676
 20
-56.63850375829932
 30
0.0
  0
VERTEX
  5
B1D
  8
LAYER_1
 10
7.824670897120424
 20
-56.22921820689062
 30
0.0
  0
VERTEX
  5
B1E
  8
LAYER_1
 10
8.643055555555563
 20
-55.82690674161411
 30
0.0
  0
VERTEX
  5
B1F
  8
LAYER_1
 10
13.22916666666667
 20
-53.53152827019863
 30
0.0
  0
VERTEX
  5
B20
  8
LAYER_1
 10
14.75326378872396
 20
-52.48453718308264
 30
0.0
  0
VERTEX
  5
B21
  8
LAYER_1
 10
15.35355466636422
 20
-52.08765245363068
 30
0.0
  0
VERTEX
  5
B22
  8
LAYER_1
 10
15.8613476364184
 20
-51.78099573523966
 30
0.0
  0
VERTEX
  5
B23
  8
LAYER_1
 10
16.06382324805256
 20
-51.6709856097674
 30
0.0
  0
VERTEX
  5
B24
  8
LAYER_1
 10
16.22309339313243
 20
-51.59491176255085
 30
0.0
  0
VERTEX
  5
B25
  8
LAYER_1
 10
16.33246440843876
 20
-51.55656728542019
 30
0.0
  0
VERTEX
  5
B26
  8
LAYER_1
 10
16.36634597267082
 20
-51.55272890183398
 30
0.0
  0
VERTEX
  5
B27
  8
LAYER_1
 10
16.38524263075227
 20
-51.55974527020555
 30
0.0
  0
VERTEX
  5
B28
  8
LAYER_1
 10
16.42642622038094
 20
-51.6418945031991
 30
0.0
  0
VERTEX
  5
B29
  8
LAYER_1
 10
16.50256668555222
 20
-51.82988389055022
 30
0.0
  0
VERTEX
  5
B2A
  8
LAYER_1
 10
16.74226367716258
 20
-52.47507621478955
 30
0.0
  0
VERTEX
  5
B2B
  8
LAYER_1
 10
17.06942447486332
 20
-53.39870841585215
 30
0.0
  0
VERTEX
  5
B2C
  8
LAYER_1
 10
17.4491399479344
 20
-54.50416666666666
 30
0.0
  0
VERTEX
  5
B2D
  8
LAYER_1
 10
17.77159031489795
 20
-55.42993735017741
 30
0.0
  0
VERTEX
  5
B2E
  8
LAYER_1
 10
18.10453611692526
 20
-56.33510226661856
 30
0.0
  0
VERTEX
  5
B2F
  8
LAYER_1
 10
18.44701596847805
 20
-57.21781318693219
 30
0.0
  0
VERTEX
  5
B30
  8
LAYER_1
 10
18.79806848401801
 20
-58.07622188206038
 30
0.0
  0
VERTEX
  5
B31
  8
LAYER_1
 10
19.15673227800686
 20
-58.90848012294522
 30
0.0
  0
VERTEX
  5
B32
  8
LAYER_1
 10
19.52204596490628
 20
-59.7127396805288
 30
0.0
  0
VERTEX
  5
B33
  8
LAYER_1
 10
19.89304815917799
 20
-60.4871523257532
 30
0.0
  0
VERTEX
  5
B34
  8
LAYER_1
 10
20.26877747528368
 20
-61.22986982956051
 30
0.0
  0
VERTEX
  5
B35
  8
LAYER_1
 10
20.64827252768508
 20
-61.93904396289282
 30
0.0
  0
VERTEX
  5
B36
  8
LAYER_1
 10
21.03057193084386
 20
-62.61282649669221
 30
0.0
  0
VERTEX
  5
B37
  8
LAYER_1
 10
21.41471429922175
 20
-63.24936920190076
 30
0.0
  0
VERTEX
  5
B38
  8
LAYER_1
 10
21.79973824728044
 20
-63.84682384946056
 30
0.0
  0
VERTEX
  5
B39
  8
LAYER_1
 10
22.18468238948164
 20
-64.4033422103137
 30
0.0
  0
VERTEX
  5
B3A
  8
LAYER_1
 10
22.56858534028706
 20
-64.91707605540228
 30
0.0
  0
VERTEX
  5
B3B
  8
LAYER_1
 10
22.95048571415838
 20
-65.38617715566835
 30
0.0
  0
VERTEX
  5
B3C
  8
LAYER_1
 10
23.32942212555733
 20
-65.80879728205403
 30
0.0
  0
VERTEX
  5
B3D
  8
LAYER_1
 10
23.62074489312496
 20
-66.10763177749092
 30
0.0
  0
VERTEX
  5
B3E
  8
LAYER_1
 10
23.92198254991542
 20
-66.39873198919517
 30
0.0
  0
VERTEX
  5
B3F
  8
LAYER_1
 10
24.23273758450661
 20
-66.6819400089231
 30
0.0
  0
VERTEX
  5
B40
  8
LAYER_1
 10
24.55261248547644
 20
-66.95709792843101
 30
0.0
  0
VERTEX
  5
B41
  8
LAYER_1
 10
24.88120974140283
 20
-67.22404783947515
 30
0.0
  0
VERTEX
  5
B42
  8
LAYER_1
 10
25.21813184086367
 20
-67.48263183381182
 30
0.0
  0
VERTEX
  5
B43
  8
LAYER_1
 10
25.56298127243689
 20
-67.73269200319731
 30
0.0
  0
VERTEX
  5
B44
  8
LAYER_1
 10
25.91536052470039
 20
-67.97407043938792
 30
0.0
  0
VERTEX
  5
B45
  8
LAYER_1
 10
26.2748720862321
 20
-68.20660923413992
 30
0.0
  0
VERTEX
  5
B46
  8
LAYER_1
 10
26.64111844560991
 20
-68.43015047920962
 30
0.0
  0
VERTEX
  5
B47
  8
LAYER_1
 10
27.01370209141174
 20
-68.6445362663533
 30
0.0
  0
VERTEX
  5
B48
  8
LAYER_1
 10
27.39222551221551
 20
-68.84960868732725
 30
0.0
  0
VERTEX
  5
B49
  8
LAYER_1
 10
27.77629119659911
 20
-69.04520983388775
 30
0.0
  0
VERTEX
  5
B4A
  8
LAYER_1
 10
28.16550163314047
 20
-69.23118179779111
 30
0.0
  0
VERTEX
  5
B4B
  8
LAYER_1
 10
28.5594593104175
 20
-69.4073666707936
 30
0.0
  0
VERTEX
  5
B4C
  8
LAYER_1
 10
28.9577667170081
 20
-69.57360654465151
 30
0.0
  0
VERTEX
  5
B4D
  8
LAYER_1
 10
29.36002634149019
 20
-69.72974351112113
 30
0.0
  0
VERTEX
  5
B4E
  8
LAYER_1
 10
29.76584067244168
 20
-69.87561966195877
 30
0.0
  0
VERTEX
  5
B4F
  8
LAYER_1
 10
30.17481219844047
 20
-70.01107708892069
 30
0.0
  0
VERTEX
  5
B50
  8
LAYER_1
 10
30.58654340806449
 20
-70.13595788376317
 30
0.0
  0
VERTEX
  5
B51
  8
LAYER_1
 10
31.00063678989164
 20
-70.25010413824252
 30
0.0
  0
VERTEX
  5
B52
  8
LAYER_1
 10
31.41669483249984
 20
-70.35335794411505
 30
0.0
  0
VERTEX
  5
B53
  8
LAYER_1
 10
31.83432002446699
 20
-70.44556139313701
 30
0.0
  0
VERTEX
  5
B54
  8
LAYER_1
 10
32.25311485437101
 20
-70.52655657706472
 30
0.0
  0
VERTEX
  5
B55
  8
LAYER_1
 10
32.6726818107898
 20
-70.59618558765445
 30
0.0
  0
VERTEX
  5
B56
  8
LAYER_1
 10
33.09262338230128
 20
-70.65429051666248
 30
0.0
  0
VERTEX
  5
B57
  8
LAYER_1
 10
33.51254205748336
 20
-70.70071345584512
 30
0.0
  0
VERTEX
  5
B58
  8
LAYER_1
 10
33.93204032491395
 20
-70.73529649695865
 30
0.0
  0
VERTEX
  5
B59
  8
LAYER_1
 10
34.35072067317096
 20
-70.75788173175937
 30
0.0
  0
VERTEX
  5
B5A
  8
LAYER_1
 10
34.76818559083231
 20
-70.76831125200354
 30
0.0
  0
VERTEX
  5
B5B
  8
LAYER_1
 10
35.18403756647591
 20
-70.76642714944748
 30
0.0
  0
VERTEX
  5
B5C
  8
LAYER_1
 10
35.59787908867965
 20
-70.75207151584746
 30
0.0
  0
VERTEX
  5
B5D
  8
LAYER_1
 10
36.1952292155243
 20
-70.71140035385832
 30
0.0
  0
VERTEX
  5
B5E
  8
LAYER_1
 10
36.78999510941753
 20
-70.64970329839488
 30
0.0
  0
VERTEX
  5
B5F
  8
LAYER_1
 10
37.38204559310182
 20
-70.56762672768677
 30
0.0
  0
VERTEX
  5
B60
  8
LAYER_1
 10
37.97124948931969
 20
-70.46581701996371
 30
0.0
  0
VERTEX
  5
B61
  8
LAYER_1
 10
38.55747562081363
 20
-70.34492055345532
 30
0.0
  0
VERTEX
  5
B62
  8
LAYER_1
 10
39.14059281032615
 20
-70.20558370639131
 30
0.0
  0
VERTEX
  5
B63
  8
LAYER_1
 10
39.72046988059974
 20
-70.04845285700132
 30
0.0
  0
VERTEX
  5
B64
  8
LAYER_1
 10
40.2969756543769
 20
-69.87417438351503
 30
0.0
  0
VERTEX
  5
B65
  8
LAYER_1
 10
40.86997895440015
 20
-69.6833946641621
 30
0.0
  0
VERTEX
  5
B66
  8
LAYER_1
 10
41.43934860341197
 20
-69.47676007717219
 30
0.0
  0
VERTEX
  5
B67
  8
LAYER_1
 10
42.00495342415487
 20
-69.25491700077498
 30
0.0
  0
VERTEX
  5
B68
  8
LAYER_1
 10
42.56666223937135
 20
-69.01851181320015
 30
0.0
  0
VERTEX
  5
B69
  8
LAYER_1
 10
43.12434387180392
 20
-68.76819089267737
 30
0.0
  0
VERTEX
  5
B6A
  8
LAYER_1
 10
43.67786714419506
 20
-68.50460061743627
 30
0.0
  0
VERTEX
  5
B6B
  8
LAYER_1
 10
44.2271008792873
 20
-68.22838736570654
 30
0.0
  0
VERTEX
  5
B6C
  8
LAYER_1
 10
44.77191389982311
 20
-67.94019751571787
 30
0.0
  0
VERTEX
  5
B6D
  8
LAYER_1
 10
45.31217502854501
 20
-67.64067744569991
 30
0.0
  0
VERTEX
  5
B6E
  8
LAYER_1
 10
45.8477530881955
 20
-67.3304735338823
 30
0.0
  0
VERTEX
  5
B6F
  8
LAYER_1
 10
46.37851690151708
 20
-67.01023215849474
 30
0.0
  0
VERTEX
  5
B70
  8
LAYER_1
 10
46.90433529125225
 20
-66.68059969776691
 30
0.0
  0
VERTEX
  5
B71
  8
LAYER_1
 10
47.42507708014352
 20
-66.34222252992845
 30
0.0
  0
VERTEX
  5
B72
  8
LAYER_1
 10
47.94061109093337
 20
-65.99574703320904
 30
0.0
  0
VERTEX
  5
B73
  8
LAYER_1
 10
48.45080614636431
 20
-65.64181958583835
 30
0.0
  0
VERTEX
  5
B74
  8
LAYER_1
 10
48.95553106917885
 20
-65.28108656604604
 30
0.0
  0
VERTEX
  5
B75
  8
LAYER_1
 10
49.45465468211948
 20
-64.9141943520618
 30
0.0
  0
VERTEX
  5
B76
  8
LAYER_1
 10
49.94804580792872
 20
-64.54178932211525
 30
0.0
  0
VERTEX
  5
B77
  8
LAYER_1
 10
50.91710588912297
 20
-63.78302632725403
 30
0.0
  0
VERTEX
  5
B78
  8
LAYER_1
 10
51.86166189470163
 20
-63.0099686072997
 30
0.0
  0
VERTEX
  5
B79
  8
LAYER_1
 10
52.7806644066047
 20
-62.22778718808962
 30
0.0
  0
VERTEX
  5
B7A
  8
LAYER_1
 10
53.1678721649217
 20
-61.88123960382672
 30
0.0
  0
VERTEX
  5
B7B
  8
LAYER_1
 10
53.73439332434729
 20
-61.36527275765814
 30
0.0
  0
VERTEX
  5
B7C
  8
LAYER_1
 10
54.28608677345374
 20
-60.88494450076561
 30
0.0
  0
VERTEX
  5
B7D
  8
LAYER_1
 10
54.82717770150889
 20
-60.43306053974824
 30
0.0
  0
VERTEX
  5
B7E
  8
LAYER_1
 10
55.36189129778059
 20
-60.00242658120514
 30
0.0
  0
VERTEX
  5
B7F
  8
LAYER_1
 10
56.42908725204504
 20
-59.17613149793812
 30
0.0
  0
VERTEX
  5
B80
  8
LAYER_1
 10
57.52147615038987
 20
-58.34850490375741
 30
0.0
  0
VERTEX
  5
B81
  8
LAYER_1
 10
61.75484536884969
 20
-55.13446196106391
 30
0.0
  0
VERTEX
  5
B82
  8
LAYER_1
 10
63.54987822743601
 20
-54.55473098053195
 30
0.0
  0
VERTEX
  5
B83
  8
LAYER_1
 10
64.16623472023397
 20
-54.3678691125089
 30
0.0
  0
VERTEX
  5
B84
  8
LAYER_1
 10
64.46172909444495
 20
-54.28835473671863
 30
0.0
  0
VERTEX
  5
B85
  8
LAYER_1
 10
64.74980425016574
 20
-54.21837952590505
 30
0.0
  0
VERTEX
  5
B86
  8
LAYER_1
 10
65.03123770962273
 20
-54.15813957469001
 30
0.0
  0
VERTEX
  5
B87
  8
LAYER_1
 10
65.30680699504228
 20
-54.10783097769541
 30
0.0
  0
VERTEX
  5
B88
  8
LAYER_1
 10
65.57728962865075
 20
-54.06764982954312
 30
0.0
  0
VERTEX
  5
B89
  8
LAYER_1
 10
65.84346313267454
 20
-54.03779222485501
 30
0.0
  0
VERTEX
  5
B8A
  8
LAYER_1
 10
66.10610502934003
 20
-54.01845425825296
 30
0.0
  0
VERTEX
  5
B8B
  8
LAYER_1
 10
66.36599284087353
 20
-54.00983202435884
 30
0.0
  0
VERTEX
  5
B8C
  8
LAYER_1
 10
66.62390408950148
 20
-54.01212161779453
 30
0.0
  0
VERTEX
  5
B8D
  8
LAYER_1
 10
66.88061629745022
 20
-54.0255191331819
 30
0.0
  0
VERTEX
  5
B8E
  8
LAYER_1
 10
67.13690698694612
 20
-54.05022066514284
 30
0.0
  0
VERTEX
  5
B8F
  8
LAYER_1
 10
67.39355368021556
 20
-54.08642230829922
 30
0.0
  0
VERTEX
  5
B90
  8
LAYER_1
 10
67.65133389948491
 20
-54.13432015727291
 30
0.0
  0
VERTEX
  5
B91
  8
LAYER_1
 10
67.91102516698055
 20
-54.19411030668579
 30
0.0
  0
VERTEX
  5
B92
  8
LAYER_1
 10
68.17340500492884
 20
-54.26598885115973
 30
0.0
  0
VERTEX
  5
B93
  8
LAYER_1
 10
68.43925093555615
 20
-54.35015188531662
 30
0.0
  0
VERTEX
  5
B94
  8
LAYER_1
 10
68.70934048108886
 20
-54.44679550377832
 30
0.0
  0
VERTEX
  5
B95
  8
LAYER_1
 10
68.98445116375333
 20
-54.55611580116671
 30
0.0
  0
VERTEX
  5
B96
  8
LAYER_1
 10
69.26536050577594
 20
-54.67830887210368
 30
0.0
  0
VERTEX
  5
B97
  8
LAYER_1
 10
69.55284602938306
 20
-54.81357081121108
 30
0.0
  0
VERTEX
  5
B98
  8
LAYER_1
 10
69.84768525680107
 20
-54.9620977131108
 30
0.0
  0
VERTEX
  5
B99
  8
LAYER_1
 10
70.15065571025636
 20
-55.12408567242473
 30
0.0
  0
VERTEX
  5
B9A
  8
LAYER_1
 10
70.78410038418414
 20
-55.48922914178266
 30
0.0
  0
VERTEX
  5
B9B
  8
LAYER_1
 10
71.45940022897742
 20
-55.9105699762599
 30
0.0
  0
VERTEX
  5
B9C
  8
LAYER_1
 10
72.18277542244715
 20
-56.38967693283144
 30
0.0
  0
VERTEX
  5
B9D
  8
LAYER_1
 10
72.96044614240432
 20
-56.92811876847228
 30
0.0
  0
VERTEX
  5
B9E
  8
LAYER_1
 10
75.81382383614968
 20
-58.93894880336921
 30
0.0
  0
VERTEX
  5
B9F
  8
LAYER_1
 10
76.90722325587586
 20
-59.32010989384248
 30
0.0
  0
VERTEX
  5
BA0
  8
LAYER_1
 10
77.13723987473574
 20
-59.38862285334481
 30
0.0
  0
VERTEX
  5
BA1
  8
LAYER_1
 10
77.37660181083953
 20
-59.43752314912123
 30
0.0
  0
VERTEX
  5
BA2
  8
LAYER_1
 10
77.62458411995478
 20
-59.46726617295977
 30
0.0
  0
VERTEX
  5
BA3
  8
LAYER_1
 10
77.88046185784901
 20
-59.4783073166485
 30
0.0
  0
VERTEX
  5
BA4
  8
LAYER_1
 10
78.1435100802898
 20
-59.47110197197547
 30
0.0
  0
VERTEX
  5
BA5
  8
LAYER_1
 10
78.41300384304465
 20
-59.44610553072876
 30
0.0
  0
VERTEX
  5
BA6
  8
LAYER_1
 10
78.6882182018811
 20
-59.40377338469641
 30
0.0
  0
VERTEX
  5
BA7
  8
LAYER_1
 10
78.96842821256669
 20
-59.34456092566649
 30
0.0
  0
VERTEX
  5
BA8
  8
LAYER_1
 10
79.25290893086895
 20
-59.26892354542705
 30
0.0
  0
VERTEX
  5
BA9
  8
LAYER_1
 10
79.54093541255543
 20
-59.17731663576615
 30
0.0
  0
VERTEX
  5
BAA
  8
LAYER_1
 10
79.83178271339364
 20
-59.07019558847186
 30
0.0
  0
VERTEX
  5
BAB
  8
LAYER_1
 10
80.12472588915114
 20
-58.94801579533224
 30
0.0
  0
VERTEX
  5
BAC
  8
LAYER_1
 10
80.41903999559545
 20
-58.81123264813533
 30
0.0
  0
VERTEX
  5
BAD
  8
LAYER_1
 10
80.7140000884941
 20
-58.6603015386692
 30
0.0
  0
VERTEX
  5
BAE
  8
LAYER_1
 10
81.00888122361465
 20
-58.49567785872191
 30
0.0
  0
VERTEX
  5
BAF
  8
LAYER_1
 10
81.30295845672461
 20
-58.31781700008152
 30
0.0
  0
VERTEX
  5
BB0
  8
LAYER_1
 10
81.59550684359152
 20
-58.12717435453608
 30
0.0
  0
VERTEX
  5
BB1
  8
LAYER_1
 10
81.88580143998296
 20
-57.92420531387366
 30
0.0
  0
VERTEX
  5
BB2
  8
LAYER_1
 10
82.17311730166641
 20
-57.70936526988231
 30
0.0
  0
VERTEX
  5
BB3
  8
LAYER_1
 10
82.45672948440944
 20
-57.4831096143501
 30
0.0
  0
VERTEX
  5
BB4
  8
LAYER_1
 10
82.73591304397956
 20
-57.24589373906508
 30
0.0
  0
VERTEX
  5
BB5
  8
LAYER_1
 10
83.0099430361443
 20
-56.99817303581531
 30
0.0
  0
VERTEX
  5
BB6
  8
LAYER_1
 10
83.27809451667122
 20
-56.74040289638884
 30
0.0
  0
VERTEX
  5
BB7
  8
LAYER_1
 10
83.53964254132785
 20
-56.47303871257375
 30
0.0
  0
VERTEX
  5
BB8
  8
LAYER_1
 10
83.79386216588172
 20
-56.19653587615809
 30
0.0
  0
VERTEX
  5
BB9
  8
LAYER_1
 10
84.04002844610037
 20
-55.91134977892992
 30
0.0
  0
VERTEX
  5
BBA
  8
LAYER_1
 10
84.27741643775133
 20
-55.61793581267728
 30
0.0
  0
VERTEX
  5
BBB
  8
LAYER_1
 10
84.50530119660215
 20
-55.31674936918826
 30
0.0
  0
VERTEX
  5
BBC
  8
LAYER_1
 10
84.72295777842035
 20
-55.00824584025089
 30
0.0
  0
VERTEX
  5
BBD
  8
LAYER_1
 10
84.92966123897348
 20
-54.69288061765325
 30
0.0
  0
VERTEX
  5
BBE
  8
LAYER_1
 10
85.12468663402905
 20
-54.37110909318339
 30
0.0
  0
VERTEX
  5
BBF
  8
LAYER_1
 10
85.30730901935462
 20
-54.04338665862937
 30
0.0
  0
VERTEX
  5
BC0
  8
LAYER_1
 10
85.59278065192021
 20
-53.49384236228522
 30
0.0
  0
VERTEX
  5
BC1
  8
LAYER_1
 10
85.83599022010195
 20
-52.9863794897981
 30
0.0
  0
VERTEX
  5
BC2
  8
LAYER_1
 10
85.94127712855445
 20
-52.74494042790012
 30
0.0
  0
VERTEX
  5
BC3
  8
LAYER_1
 10
86.03543499911768
 20
-52.5098359304454
 30
0.0
  0
VERTEX
  5
BC4
  8
LAYER_1
 10
86.11827599119385
 20
-52.27967073359363
 30
0.0
  0
VERTEX
  5
BC5
  8
LAYER_1
 10
86.1896122641852
 20
-52.05304957350447
 30
0.0
  0
VERTEX
  5
BC6
  8
LAYER_1
 10
86.24925597749396
 20
-51.8285771863376
 30
0.0
  0
VERTEX
  5
BC7
  8
LAYER_1
 10
86.29701929052234
 20
-51.60485830825267
 30
0.0
  0
VERTEX
  5
BC8
  8
LAYER_1
 10
86.33271436267259
 20
-51.38049767540937
 30
0.0
  0
VERTEX
  5
BC9
  8
LAYER_1
 10
86.3561533533469
 20
-51.15410002396737
 30
0.0
  0
VERTEX
  5
BCA
  8
LAYER_1
 10
86.36714842194752
 20
-50.92427009008632
 30
0.0
  0
VERTEX
  5
BCB
  8
LAYER_1
 10
86.3655117278767
 20
-50.68961260992591
 30
0.0
  0
VERTEX
  5
BCC
  8
LAYER_1
 10
86.35105543053662
 20
-50.44873231964581
 30
0.0
  0
VERTEX
  5
BCD
  8
LAYER_1
 10
86.32359168932953
 20
-50.20023395540567
 30
0.0
  0
VERTEX
  5
BCE
  8
LAYER_1
 10
86.28293266365766
 20
-49.94272225336518
 30
0.0
  0
VERTEX
  5
BCF
  8
LAYER_1
 10
86.22889051292323
 20
-49.674801949684
 30
0.0
  0
VERTEX
  5
BD0
  8
LAYER_1
 10
86.16127739652848
 20
-49.39507778052181
 30
0.0
  0
VERTEX
  5
BD1
  8
LAYER_1
 10
86.07990547387561
 20
-49.10215448203827
 30
0.0
  0
VERTEX
  5
BD2
  8
LAYER_1
 10
85.98458690436688
 20
-48.79463679039305
 30
0.0
  0
VERTEX
  5
BD3
  8
LAYER_1
 10
85.8751338474045
 20
-48.47112944174583
 30
0.0
  0
VERTEX
  5
BD4
  8
LAYER_1
 10
85.6130729087277
 20
-47.77056471808405
 30
0.0
  0
VERTEX
  5
BD5
  8
LAYER_1
 10
85.29221993306301
 20
-46.98929820033028
 30
0.0
  0
VERTEX
  5
BD6
  8
LAYER_1
 10
84.91107219562826
 20
-46.11616777776189
 30
0.0
  0
VERTEX
  5
BD7
  8
LAYER_1
 10
84.46812697164127
 20
-45.14001133965624
 30
0.0
  0
VERTEX
  5
BD8
  8
LAYER_1
 10
83.96188153631982
 20
-44.04966677529068
 30
0.0
  0
VERTEX
  5
BD9
  8
LAYER_1
 10
81.49320751708413
 20
-38.77133119827375
 30
0.0
  0
VERTEX
  5
BDA
  8
LAYER_1
 10
81.09947644933897
 20
-37.20768334641929
 30
0.0
  0
VERTEX
  5
BDB
  8
LAYER_1
 10
81.04636737235256
 20
-37.03448616827198
 30
0.0
  0
VERTEX
  5
BDC
  8
LAYER_1
 10
80.97976422364177
 20
-36.85734414562942
 30
0.0
  0
VERTEX
  5
BDD
  8
LAYER_1
 10
80.90882172552708
 20
-36.67392716455225
 30
0.0
  0
VERTEX
  5
BDE
  8
LAYER_1
 10
80.84269460032903
 20
-36.48190511110111
 30
0.0
  0
VERTEX
  5
BDF
  8
LAYER_1
 10
80.75890466720686
 20
-36.17987809788009
 30
0.0
  0
VERTEX
  5
BE0
  8
LAYER_1
 10
80.69035686490982
 20
-35.86898640422216
 30
0.0
  0
VERTEX
  5
BE1
  8
LAYER_1
 10
80.63687670142141
 20
-35.55050301114719
 30
0.0
  0
VERTEX
  5
BE2
  8
LAYER_1
 10
80.59828968472517
 20
-35.2257008996751
 30
0.0
  0
VERTEX
  5
BE3
  8
LAYER_1
 10
80.57442132280465
 20
-34.89585305082581
 30
0.0
  0
VERTEX
  5
BE4
  8
LAYER_1
 10
80.56509712364334
 20
-34.5622324456192
 30
0.0
  0
VERTEX
  5
BE5
  8
LAYER_1
 10
80.5701425952248
 20
-34.22611206507517
 30
0.0
  0
VERTEX
  5
BE6
  8
LAYER_1
 10
80.58938324553253
 20
-33.88876489021364
 30
0.0
  0
VERTEX
  5
BE7
  8
LAYER_1
 10
80.6226445825501
 20
-33.55146390205449
 30
0.0
  0
VERTEX
  5
BE8
  8
LAYER_1
 10
80.669752114261
 20
-33.21548208161763
 30
0.0
  0
VERTEX
  5
BE9
  8
LAYER_1
 10
80.73053134864877
 20
-32.88209240992296
 30
0.0
  0
VERTEX
  5
BEA
  8
LAYER_1
 10
80.80480779369695
 20
-32.55256786799038
 30
0.0
  0
VERTEX
  5
BEB
  8
LAYER_1
 10
80.89240695738906
 20
-32.2281814368398
 30
0.0
  0
VERTEX
  5
BEC
  8
LAYER_1
 10
80.99315434770861
 20
-31.91020609749111
 30
0.0
  0
VERTEX
  5
BED
  8
LAYER_1
 10
81.10687547263916
 20
-31.59991483096421
 30
0.0
  0
VERTEX
  5
BEE
  8
LAYER_1
 10
81.2333958401642
 20
-31.29858061827901
 30
0.0
  0
VERTEX
  5
BEF
  8
LAYER_1
 10
81.28262399603412
 20
-31.1787175315017
 30
0.0
  0
VERTEX
  5
BF0
  8
LAYER_1
 10
81.41821197637144
 20
-30.79174336294061
 30
0.0
  0
VERTEX
  5
BF1
  8
LAYER_1
 10
81.46537905633741
 20
-30.625356268682
 30
0.0
  0
VERTEX
  5
BF2
  8
LAYER_1
 10
81.49847120922128
 20
-30.47661285371596
 30
0.0
  0
VERTEX
  5
BF3
  8
LAYER_1
 10
81.51724569481283
 20
-30.3451958825009
 30
0.0
  0
VERTEX
  5
BF4
  8
LAYER_1
 10
81.52145977290186
 20
-30.23078811949527
 30
0.0
  0
VERTEX
  5
BF5
  8
LAYER_1
 10
81.51087070327813
 20
-30.13307232915751
 30
0.0
  0
VERTEX
  5
BF6
  8
LAYER_1
 10
81.48523574573142
 20
-30.05173127594607
 30
0.0
  0
VERTEX
  5
BF7
  8
LAYER_1
 10
81.44431216005148
 20
-29.98644772431937
 30
0.0
  0
VERTEX
  5
BF8
  8
LAYER_1
 10
81.38785720602813
 20
-29.93690443873586
 30
0.0
  0
VERTEX
  5
BF9
  8
LAYER_1
 10
81.31562814345114
 20
-29.90278418365397
 30
0.0
  0
VERTEX
  5
BFA
  8
LAYER_1
 10
81.22738223211024
 20
-29.88376972353215
 30
0.0
  0
VERTEX
  5
BFB
  8
LAYER_1
 10
81.12287673179526
 20
-29.87954382282884
 30
0.0
  0
VERTEX
  5
BFC
  8
LAYER_1
 10
81.00186890229597
 20
-29.88978924600248
 30
0.0
  0
VERTEX
  5
BFD
  8
LAYER_1
 10
80.86411600340213
 20
-29.9141887575115
 30
0.0
  0
VERTEX
  5
BFE
  8
LAYER_1
 10
80.70937529490351
 20
-29.95242512181434
 30
0.0
  0
VERTEX
  5
BFF
  8
LAYER_1
 10
80.38608095270646
 20
-30.03639186608368
 30
0.0
  0
VERTEX
  5
C00
  8
LAYER_1
 10
80.05752657900122
 20
-30.10976649002794
 30
0.0
  0
VERTEX
  5
C01
  8
LAYER_1
 10
79.7252337713828
 20
-30.16969753930922
 30
0.0
  0
VERTEX
  5
C02
  8
LAYER_1
 10
79.39072412744625
 20
-30.21333355958961
 30
0.0
  0
VERTEX
  5
C03
  8
LAYER_1
 10
79.05551924478658
 20
-30.23782309653121
 30
0.0
  0
VERTEX
  5
C04
  8
LAYER_1
 10
78.72114072099885
 20
-30.24031469579612
 30
0.0
  0
VERTEX
  5
C05
  8
LAYER_1
 10
78.38911015367805
 20
-30.21795690304644
 30
0.0
  0
VERTEX
  5
C06
  8
LAYER_1
 10
78.06094914041927
 20
-30.16789826394427
 30
0.0
  0
VERTEX
  5
C07
  8
LAYER_1
 10
77.94835478021065
 20
-30.15534105643189
 30
0.0
  0
VERTEX
  5
C08
  8
LAYER_1
 10
77.82262094089435
 20
-30.1593654483776
 30
0.0
  0
VERTEX
  5
C09
  8
LAYER_1
 10
77.68456697118822
 20
-30.17934143207579
 30
0.0
  0
VERTEX
  5
C0A
  8
LAYER_1
 10
77.53501221981008
 20
-30.21463899982086
 30
0.0
  0
VERTEX
  5
C0B
  8
LAYER_1
 10
77.3747760354778
 20
-30.2646281439072
 30
0.0
  0
VERTEX
  5
C0C
  8
LAYER_1
 10
77.20467776690917
 20
-30.32867885662918
 30
0.0
  0
VERTEX
  5
C0D
  8
LAYER_1
 10
77.02553676282207
 20
-30.40616113028121
 30
0.0
  0
VERTEX
  5
C0E
  8
LAYER_1
 10
76.83817237193433
 20
-30.49644495715766
 30
0.0
  0
VERTEX
  5
C0F
  8
LAYER_1
 10
76.44205082462827
 20
-30.71289723976141
 30
0.0
  0
VERTEX
  5
C10
  8
LAYER_1
 10
76.02286791473367
 20
-30.97299564279554
 30
0.0
  0
VERTEX
  5
C11
  8
LAYER_1
 10
75.58717843199328
 20
-31.27170010461515
 30
0.0
  0
VERTEX
  5
C12
  8
LAYER_1
 10
75.14153716614982
 20
-31.60397056357536
 30
0.0
  0
VERTEX
  5
C13
  8
LAYER_1
 10
74.69249890694596
 20
-31.96476695803127
 30
0.0
  0
VERTEX
  5
C14
  8
LAYER_1
 10
74.24661844412441
 20
-32.349049226338
 30
0.0
  0
VERTEX
  5
C15
  8
LAYER_1
 10
73.81045056742792
 20
-32.75177730685066
 30
0.0
  0
VERTEX
  5
C16
  8
LAYER_1
 10
73.39055006659916
 20
-33.16791113792434
 30
0.0
  0
VERTEX
  5
C17
  8
LAYER_1
 10
72.99347173138086
 20
-33.59241065791417
 30
0.0
  0
VERTEX
  5
C18
  8
LAYER_1
 10
72.62577035151574
 20
-34.02023580517525
 30
0.0
  0
VERTEX
  5
C19
  8
LAYER_1
 10
72.29400071674648
 20
-34.44634651806268
 30
0.0
  0
VERTEX
  5
C1A
  8
LAYER_1
 10
72.14363867556739
 20
-34.65718394235225
 30
0.0
  0
VERTEX
  5
C1B
  8
LAYER_1
 10
72.00471761681581
 20
-34.86570273493159
 30
0.0
  0
VERTEX
  5
C1C
  8
LAYER_1
 10
71.76758422456481
 20
-35.25076473063439
 30
0.0
  0
VERTEX
  5
C1D
  8
LAYER_1
 10
71.54112955346648
 20
-35.64909856170018
 30
0.0
  0
VERTEX
  5
C1E
  8
LAYER_1
 10
71.32594623971792
 20
-36.05808553119111
 30
0.0
  0
VERTEX
  5
C1F
  8
LAYER_1
 10
71.12262691951625
 20
-36.4751069421693
 30
0.0
  0
VERTEX
  5
C20
  8
LAYER_1
 10
70.93176422905856
 20
-36.89754409769691
 30
0.0
  0
VERTEX
  5
C21
  8
LAYER_1
 10
70.753950804542
 20
-37.32277830083605
 30
0.0
  0
VERTEX
  5
C22
  8
LAYER_1
 10
70.58977928216369
 20
-37.74819085464885
 30
0.0
  0
VERTEX
  5
C23
  8
LAYER_1
 10
70.43984229812071
 20
-38.17116306219746
 30
0.0
  0
VERTEX
  5
C24
  8
LAYER_1
 10
70.3047324886102
 20
-38.58907622654399
 30
0.0
  0
VERTEX
  5
C25
  8
LAYER_1
 10
70.18504248982927
 20
-38.9993116507506
 30
0.0
  0
VERTEX
  5
C26
  8
LAYER_1
 10
70.08136493797505
 20
-39.3992506378794
 30
0.0
  0
VERTEX
  5
C27
  8
LAYER_1
 10
69.99429246924464
 20
-39.78627449099253
 30
0.0
  0
VERTEX
  5
C28
  8
LAYER_1
 10
69.92441771983516
 20
-40.15776451315212
 30
0.0
  0
VERTEX
  5
C29
  8
LAYER_1
 10
69.87233332594373
 20
-40.5111020074203
 30
0.0
  0
VERTEX
  5
C2A
  8
LAYER_1
 10
69.83863192376745
 20
-40.84366827685921
 30
0.0
  0
VERTEX
  5
C2B
  8
LAYER_1
 10
69.82390614950347
 20
-41.15284462453099
 30
0.0
  0
VERTEX
  5
C2C
  8
LAYER_1
 10
69.8076757388771
 20
-41.38458759652111
 30
0.0
  0
VERTEX
  5
C2D
  8
LAYER_1
 10
69.76783554143134
 20
-41.60330127203621
 30
0.0
  0
VERTEX
  5
C2E
  8
LAYER_1
 10
69.70550618635852
 20
-41.80954076305676
 30
0.0
  0
VERTEX
  5
C2F
  8
LAYER_1
 10
69.62180830285104
 20
-42.00386118156324
 30
0.0
  0
VERTEX
  5
C30
  8
LAYER_1
 10
69.51786252010118
 20
-42.18681763953613
 30
0.0
  0
VERTEX
  5
C31
  8
LAYER_1
 10
69.39478946730132
 20
-42.35896524895591
 30
0.0
  0
VERTEX
  5
C32
  8
LAYER_1
 10
69.2537097736438
 20
-42.52085912180306
 30
0.0
  0
VERTEX
  5
C33
  8
LAYER_1
 10
69.09574406832098
 20
-42.67305437005805
 30
0.0
  0
VERTEX
  5
C34
  8
LAYER_1
 10
68.92201298052518
 20
-42.81610610570137
 30
0.0
  0
VERTEX
  5
C35
  8
LAYER_1
 10
68.73363713944876
 20
-42.95056944071348
 30
0.0
  0
VERTEX
  5
C36
  8
LAYER_1
 10
68.53173717428405
 20
-43.07699948707487
 30
0.0
  0
VERTEX
  5
C37
  8
LAYER_1
 10
68.31743371422343
 20
-43.19595135676602
 30
0.0
  0
VERTEX
  5
C38
  8
LAYER_1
 10
68.0918473884592
 20
-43.30798016176741
 30
0.0
  0
VERTEX
  5
C39
  8
LAYER_1
 10
67.85609882618374
 20
-43.41364101405952
 30
0.0
  0
VERTEX
  5
C3A
  8
LAYER_1
 10
67.35859750886844
 20
-43.6080793084378
 30
0.0
  0
VERTEX
  5
C3B
  8
LAYER_1
 10
66.83389479581632
 20
-43.78370713574469
 30
0.0
  0
VERTEX
  5
C3C
  8
LAYER_1
 10
66.2909557205661
 20
-43.94496539182401
 30
0.0
  0
VERTEX
  5
C3D
  8
LAYER_1
 10
65.18622861762648
 20
-44.24213677367526
 30
0.0
  0
VERTEX
  5
C3E
  8
LAYER_1
 10
64.6423706570146
 20
-44.38693169113485
 30
0.0
  0
VERTEX
  5
C3F
  8
LAYER_1
 10
64.11613646835966
 20
-44.53512062074219
 30
0.0
  0
VERTEX
  5
C40
  8
LAYER_1
 10
63.61649108520045
 20
-44.69114445834111
 30
0.0
  0
VERTEX
  5
C41
  8
LAYER_1
 10
63.15239954107572
 20
-44.85944409977542
 30
0.0
  0
VERTEX
  5
C42
  8
LAYER_1
 10
62.74715634570421
 20
-45.0105408211119
 30
0.0
  0
VERTEX
  5
C43
  8
LAYER_1
 10
62.39462083137462
 20
-45.12274823513484
 30
0.0
  0
VERTEX
  5
C44
  8
LAYER_1
 10
62.12222859725244
 20
-45.18734596083917
 30
0.0
  0
VERTEX
  5
C45
  8
LAYER_1
 10
62.02465983500834
 20
-45.19906607150779
 30
0.0
  0
VERTEX
  5
C46
  8
LAYER_1
 10
61.95741524250315
 20
-45.19561361721987
 30
0.0
  0
VERTEX
  5
C47
  8
LAYER_1
 10
61.90941887281966
 20
-45.19153901938827
 30
0.0
  0
VERTEX
  5
C48
  8
LAYER_1
 10
61.86933174237046
 20
-45.20184684373973
 30
0.0
  0
VERTEX
  5
C49
  8
LAYER_1
 10
61.83738554086601
 20
-45.22550079956891
 30
0.0
  0
VERTEX
  5
C4A
  8
LAYER_1
 10
61.81381195801676
 20
-45.26146459617047
 30
0.0
  0
VERTEX
  5
C4B
  8
LAYER_1
 10
61.79884268353317
 20
-45.30870194283909
 30
0.0
  0
VERTEX
  5
C4C
  8
LAYER_1
 10
61.7927094071257
 20
-45.36617654886945
 30
0.0
  0
VERTEX
  5
C4D
  8
LAYER_1
 10
61.79564381850481
 20
-45.4328521235562
 30
0.0
  0
VERTEX
  5
C4E
  8
LAYER_1
 10
61.80787760738097
 20
-45.50769237619402
 30
0.0
  0
VERTEX
  5
C4F
  8
LAYER_1
 10
61.84971249519876
 20
-45.76559593128582
 30
0.0
  0
VERTEX
  5
C50
  8
LAYER_1
 10
61.86385542706908
 20
-46.01960030209746
 30
0.0
  0
VERTEX
  5
C51
  8
LAYER_1
 10
61.85149325959989
 20
-46.26953528716419
 30
0.0
  0
VERTEX
  5
C52
  8
LAYER_1
 10
61.81381284939908
 20
-46.51523068502126
 30
0.0
  0
VERTEX
  5
C53
  8
LAYER_1
 10
61.75200105307457
 20
-46.75651629420391
 30
0.0
  0
VERTEX
  5
C54
  8
LAYER_1
 10
61.66724472723426
 20
-46.99322191324736
 30
0.0
  0
VERTEX
  5
C55
  8
LAYER_1
 10
61.56073072848608
 20
-47.22517734068688
 30
0.0
  0
VERTEX
  5
C56
  8
LAYER_1
 10
61.43364591343793
 20
-47.45221237505771
 30
0.0
  0
VERTEX
  5
C57
  8
LAYER_1
 10
61.28717713869774
 20
-47.67415681489509
 30
0.0
  0
VERTEX
  5
C58
  8
LAYER_1
 10
61.1225112608734
 20
-47.89084045873427
 30
0.0
  0
VERTEX
  5
C59
  8
LAYER_1
 10
60.94083513657284
 20
-48.10209310511048
 30
0.0
  0
VERTEX
  5
C5A
  8
LAYER_1
 10
60.74333562240398
 20
-48.30774455255899
 30
0.0
  0
VERTEX
  5
C5B
  8
LAYER_1
 10
60.53119957497472
 20
-48.50762459961501
 30
0.0
  0
VERTEX
  5
C5C
  8
LAYER_1
 10
60.30561385089298
 20
-48.70156304481381
 30
0.0
  0
VERTEX
  5
C5D
  8
LAYER_1
 10
60.06776530676667
 20
-48.88938968669061
 30
0.0
  0
VERTEX
  5
C5E
  8
LAYER_1
 10
59.81884079920371
 20
-49.07093432378068
 30
0.0
  0
VERTEX
  5
C5F
  8
LAYER_1
 10
59.560027184812
 20
-49.24602675461924
 30
0.0
  0
VERTEX
  5
C60
  8
LAYER_1
 10
59.29251132019947
 20
-49.41449677774155
 30
0.0
  0
VERTEX
  5
C61
  8
LAYER_1
 10
59.01748006197403
 20
-49.57617419168285
 30
0.0
  0
VERTEX
  5
C62
  8
LAYER_1
 10
58.7361202667436
 20
-49.73088879497838
 30
0.0
  0
VERTEX
  5
C63
  8
LAYER_1
 10
58.44961879111607
 20
-49.87847038616339
 30
0.0
  0
VERTEX
  5
C64
  8
LAYER_1
 10
58.15916249169938
 20
-50.01874876377311
 30
0.0
  0
VERTEX
  5
C65
  8
LAYER_1
 10
57.86593822510142
 20
-50.1515537263428
 30
0.0
  0
VERTEX
  5
C66
  8
LAYER_1
 10
57.57113284793012
 20
-50.2767150724077
 30
0.0
  0
VERTEX
  5
C67
  8
LAYER_1
 10
56.98152618829916
 20
-50.5034261091641
 30
0.0
  0
VERTEX
  5
C68
  8
LAYER_1
 10
56.39983736566977
 20
-50.69752026232424
 30
0.0
  0
VERTEX
  5
C69
  8
LAYER_1
 10
55.83556123290528
 20
-50.8576359201701
 30
0.0
  0
VERTEX
  5
C6A
  8
LAYER_1
 10
55.29819264286899
 20
-50.98241147098361
 30
0.0
  0
VERTEX
  5
C6B
  8
LAYER_1
 10
55.22175033267337
 20
-50.99740791775655
 30
0.0
  0
VERTEX
  5
C6C
  8
LAYER_1
 10
54.97230334979758
 20
-51.055330449568
 30
0.0
  0
VERTEX
  5
C6D
  8
LAYER_1
 10
54.73218060905558
 20
-51.13226517047058
 30
0.0
  0
VERTEX
  5
C6E
  8
LAYER_1
 10
54.50716744061706
 20
-51.22489089994812
 30
0.0
  0
VERTEX
  5
C6F
  8
LAYER_1
 10
54.30304917465176
 20
-51.32988645748442
 30
0.0
  0
VERTEX
  5
C70
  8
LAYER_1
 10
54.12561114132937
 20
-51.4439306625633
 30
0.0
  0
VERTEX
  5
C71
  8
LAYER_1
 10
53.98063867081959
 20
-51.56370233466858
 30
0.0
  0
VERTEX
  5
C72
  8
LAYER_1
 10
53.92213493729746
 20
-51.6246981019448
 30
0.0
  0
VERTEX
  5
C73
  8
LAYER_1
 10
53.87391709329212
 20
-51.68588029328406
 30
0.0
  0
VERTEX
  5
C74
  8
LAYER_1
 10
53.83670830507479
 20
-51.74683376112182
 30
0.0
  0
VERTEX
  5
C75
  8
LAYER_1
 10
53.81123173891669
 20
-51.80714335789357
 30
0.0
  0
VERTEX
  5
C76
  8
LAYER_1
 10
53.77249505132949
 20
-51.89418888895629
 30
0.0
  0
VERTEX
  5
C77
  8
LAYER_1
 10
53.70862838466013
 20
-51.9952906655001
 30
0.0
  0
VERTEX
  5
C78
  8
LAYER_1
 10
53.6207043883179
 20
-52.10968495522116
 30
0.0
  0
VERTEX
  5
C79
  8
LAYER_1
 10
53.50979571171204
 20
-52.23660802581565
 30
0.0
  0
VERTEX
  5
C7A
  8
LAYER_1
 10
53.22331491534656
 20
-52.52498558040959
 30
0.0
  0
VERTEX
  5
C7B
  8
LAYER_1
 10
52.85776719083781
 20
-52.85431347085131
 30
0.0
  0
VERTEX
  5
C7C
  8
LAYER_1
 10
52.42173373345993
 20
-53.21848183871018
 30
0.0
  0
VERTEX
  5
C7D
  8
LAYER_1
 10
51.92379573848707
 20
-53.61138082555559
 30
0.0
  0
VERTEX
  5
C7E
  8
LAYER_1
 10
51.37253440119335
 20
-54.0269005729569
 30
0.0
  0
VERTEX
  5
C7F
  8
LAYER_1
 10
50.77653091685291
 20
-54.45893122248353
 30
0.0
  0
VERTEX
  5
C80
  8
LAYER_1
 10
50.14436648073989
 20
-54.90136291570482
 30
0.0
  0
VERTEX
  5
C81
  8
LAYER_1
 10
49.48462228812842
 20
-55.34808579419018
 30
0.0
  0
VERTEX
  5
C82
  8
LAYER_1
 10
48.80587953429265
 20
-55.79298999950898
 30
0.0
  0
VERTEX
  5
C83
  8
LAYER_1
 10
48.1167194145067
 20
-56.22996567323059
 30
0.0
  0
VERTEX
  5
C84
  8
LAYER_1
 10
47.42572312404472
 20
-56.6529029569244
 30
0.0
  0
VERTEX
  5
C85
  8
LAYER_1
 10
46.74147185818084
 20
-57.05569199215979
 30
0.0
  0
VERTEX
  5
C86
  8
LAYER_1
 10
46.07254681218919
 20
-57.43222292050616
 30
0.0
  0
VERTEX
  5
C87
  8
LAYER_1
 10
45.42752918134391
 20
-57.77638588353287
 30
0.0
  0
VERTEX
  5
C88
  8
LAYER_1
 10
43.86555265326987
 20
-58.58424286487634
 30
0.0
  0
VERTEX
  5
C89
  8
LAYER_1
 10
43.40467109775317
 20
-58.81131377895917
 30
0.0
  0
VERTEX
  5
C8A
  8
LAYER_1
 10
42.93083645543967
 20
-59.02166158247472
 30
0.0
  0
VERTEX
  5
C8B
  8
LAYER_1
 10
42.44554585643241
 20
-59.21327174060237
 30
0.0
  0
VERTEX
  5
C8C
  8
LAYER_1
 10
41.95029643083441
 20
-59.38412971852148
 30
0.0
  0
VERTEX
  5
C8D
  8
LAYER_1
 10
42.19608297274728
 20
-58.99732560638198
 30
0.0
  0
VERTEX
  5
C8E
  8
LAYER_1
 10
42.45209521077429
 20
-58.61908130882604
 30
0.0
  0
VERTEX
  5
C8F
  8
LAYER_1
 10
42.71809827897727
 20
-58.24954023346797
 30
0.0
  0
VERTEX
  5
C90
  8
LAYER_1
 10
42.99385731141802
 20
-57.88884578792202
 30
0.0
  0
VERTEX
  5
C91
  8
LAYER_1
 10
43.27913744215839
 20
-57.53714137980249
 30
0.0
  0
VERTEX
  5
C92
  8
LAYER_1
 10
43.57370380526018
 20
-57.19457041672364
 30
0.0
  0
VERTEX
  5
C93
  8
LAYER_1
 10
43.87732153478522
 20
-56.86127630629974
 30
0.0
  0
VERTEX
  5
C94
  8
LAYER_1
 10
44.18975576479534
 20
-56.53740245614509
 30
0.0
  0
VERTEX
  5
C95
  8
LAYER_1
 10
44.51077162935233
 20
-56.22309227387395
 30
0.0
  0
VERTEX
  5
C96
  8
LAYER_1
 10
44.84013426251805
 20
-55.91848916710057
 30
0.0
  0
VERTEX
  5
C97
  8
LAYER_1
 10
45.1776087983543
 20
-55.62373654343928
 30
0.0
  0
VERTEX
  5
C98
  8
LAYER_1
 10
45.5229603709229
 20
-55.3389778105043
 30
0.0
  0
VERTEX
  5
C99
  8
LAYER_1
 10
45.87595411428568
 20
-55.06435637590995
 30
0.0
  0
VERTEX
  5
C9A
  8
LAYER_1
 10
46.23635516250445
 20
-54.80001564727047
 30
0.0
  0
VERTEX
  5
C9B
  8
LAYER_1
 10
46.60392864964104
 20
-54.54609903220016
 30
0.0
  0
VERTEX
  5
C9C
  8
LAYER_1
 10
46.97843970975727
 20
-54.30274993831328
 30
0.0
  0
VERTEX
  5
C9D
  8
LAYER_1
 10
47.35965347691496
 20
-54.07011177322413
 30
0.0
  0
VERTEX
  5
C9E
  8
LAYER_1
 10
47.74733508517592
 20
-53.84832794454695
 30
0.0
  0
VERTEX
  5
C9F
  8
LAYER_1
 10
48.14124966860199
 20
-53.63754185989603
 30
0.0
  0
VERTEX
  5
CA0
  8
LAYER_1
 10
48.54116236125497
 20
-53.43789692688566
 30
0.0
  0
VERTEX
  5
CA1
  8
LAYER_1
 10
48.94683829719669
 20
-53.2495365531301
 30
0.0
  0
VERTEX
  5
CA2
  8
LAYER_1
 10
49.35804261048899
 20
-53.07260414624362
 30
0.0
  0
VERTEX
  5
CA3
  8
LAYER_1
 10
49.77454043519367
 20
-52.90724311384051
 30
0.0
  0
VERTEX
  5
CA4
  8
LAYER_1
 10
50.19609690537255
 20
-52.75359686353504
 30
0.0
  0
VERTEX
  5
CA5
  8
LAYER_1
 10
50.62247715508745
 20
-52.6118088029415
 30
0.0
  0
VERTEX
  5
CA6
  8
LAYER_1
 10
51.0534463184002
 20
-52.48202233967413
 30
0.0
  0
VERTEX
  5
CA7
  8
LAYER_1
 10
51.48876952937263
 20
-52.36438088134723
 30
0.0
  0
VERTEX
  5
CA8
  8
LAYER_1
 10
51.92821192206654
 20
-52.25902783557508
 30
0.0
  0
VERTEX
  5
CA9
  8
LAYER_1
 10
52.37153863054376
 20
-52.16610660997193
 30
0.0
  0
VERTEX
  5
CAA
  8
LAYER_1
 10
52.81851478886611
 20
-52.08576061215209
 30
0.0
  0
VERTEX
  5
CAB
  8
LAYER_1
 10
53.26890553109541
 20
-52.01813324972981
 30
0.0
  0
VERTEX
  5
CAC
  8
LAYER_1
 10
53.72247599129349
 20
-51.96336793031937
 30
0.0
  0
SEQEND
  5
CAD
  8
LAYER_1
  0
POLYLINE
  5
4A
  8
LAYER_1
 66
     1
 10
0.0
 20
0.0
 30
0.0
  0
VERTEX
  5
CAE
  8
LAYER_1
 10
-45.48559186992112
 20
-19.44885422674739
 30
0.0
  0
VERTEX
  5
CAF
  8
LAYER_1
 10
-45.50090376467489
 20
-18.69993291410472
 30
0.0
  0
VERTEX
  5
CB0
  8
LAYER_1
 10
-45.49554809726073
 20
-17.95182118663847
 30
0.0
  0
VERTEX
  5
CB1
  8
LAYER_1
 10
-45.46959929648609
 20
-17.2049376821383
 30
0.0
  0
VERTEX
  5
CB2
  8
LAYER_1
 10
-45.42313179115845
 20
-16.45970103839388
 30
0.0
  0
VERTEX
  5
CB3
  8
LAYER_1
 10
-45.35622001008525
 20
-15.71652989319486
 30
0.0
  0
VERTEX
  5
CB4
  8
LAYER_1
 10
-45.26893838207396
 20
-14.97584288433092
 30
0.0
  0
VERTEX
  5
CB5
  8
LAYER_1
 10
-45.16136133593204
 20
-14.23805864959172
 30
0.0
  0
VERTEX
  5
CB6
  8
LAYER_1
 10
-45.03356330046694
 20
-13.50359582676692
 30
0.0
  0
VERTEX
  5
CB7
  8
LAYER_1
 10
-44.88561870448612
 20
-12.77287305364618
 30
0.0
  0
VERTEX
  5
CB8
  8
LAYER_1
 10
-44.71760197679706
 20
-12.04630896801917
 30
0.0
  0
VERTEX
  5
CB9
  8
LAYER_1
 10
-44.52958754620718
 20
-11.32432220767555
 30
0.0
  0
VERTEX
  5
CBA
  8
LAYER_1
 10
-44.32164984152399
 20
-10.60733141040499
 30
0.0
  0
VERTEX
  5
CBB
  8
LAYER_1
 10
-44.09386329155491
 20
-9.895755213997152
 30
0.0
  0
VERTEX
  5
CBC
  8
LAYER_1
 10
-43.84630232510742
 20
-9.190012256241694
 30
0.0
  0
VERTEX
  5
CBD
  8
LAYER_1
 10
-43.57904137098897
 20
-8.490521174928286
 30
0.0
  0
VERTEX
  5
CBE
  8
LAYER_1
 10
-43.29215485800703
 20
-7.79770060784659
 30
0.0
 42
-0.1984862453448259
  0
VERTEX
  5
CBF
  8
LAYER_1
 10
-40.25926920125696
 20
-5.405018959664233
 30
0.0
  0
VERTEX
  5
CC0
  8
LAYER_1
 10
-40.03699947302991
 20
-5.336795727555448
 30
0.0
  0
VERTEX
  5
CC1
  8
LAYER_1
 10
-39.81862941293852
 20
-5.260860957884002
 30
0.0
  0
VERTEX
  5
CC2
  8
LAYER_1
 10
-39.60429844327159
 20
-5.177355276322171
 30
0.0
  0
VERTEX
  5
CC3
  8
LAYER_1
 10
-39.39414598631789
 20
-5.086419308542235
 30
0.0
  0
VERTEX
  5
CC4
  8
LAYER_1
 10
-39.18831146436624
 20
-4.988193680216468
 30
0.0
  0
VERTEX
  5
CC5
  8
LAYER_1
 10
-38.9869342997054
 20
-4.882819017017148
 30
0.0
  0
VERTEX
  5
CC6
  8
LAYER_1
 10
-38.79015391462416
 20
-4.770435944616553
 30
0.0
  0
VERTEX
  5
CC7
  8
LAYER_1
 10
-38.59810973141131
 20
-4.65118508868696
 30
0.0
  0
VERTEX
  5
CC8
  8
LAYER_1
 10
-38.41094117235565
 20
-4.525207074900645
 30
0.0
  0
VERTEX
  5
CC9
  8
LAYER_1
 10
-38.22878765974596
 20
-4.392642528929885
 30
0.0
  0
VERTEX
  5
CCA
  8
LAYER_1
 10
-38.05178861587103
 20
-4.253632076446959
 30
0.0
  0
VERTEX
  5
CCB
  8
LAYER_1
 10
-37.88008346301966
 20
-4.108316343124144
 30
0.0
  0
VERTEX
  5
CCC
  8
LAYER_1
 10
-37.71381162348061
 20
-3.956835954633716
 30
0.0
  0
VERTEX
  5
CCD
  8
LAYER_1
 10
-37.55311251954268
 20
-3.799331536647951
 30
0.0
  0
VERTEX
  5
CCE
  8
LAYER_1
 10
-37.39812557349467
 20
-3.635943714839128
 30
0.0
  0
VERTEX
  5
CCF
  8
LAYER_1
 10
-37.24899020762535
 20
-3.466813114879524
 30
0.0
  0
VERTEX
  5
CD0
  8
LAYER_1
 10
-37.10584584422352
 20
-3.292080362441416
 30
0.0
  0
VERTEX
  5
CD1
  8
LAYER_1
 10
-36.96883190557797
 20
-3.11188608319708
 30
0.0
  0
VERTEX
  5
CD2
  8
LAYER_1
 10
-36.83808781397748
 20
-2.926370902818795
 30
0.0
  0
VERTEX
  5
CD3
  8
LAYER_1
 10
-36.71375299171083
 20
-2.735675446978838
 30
0.0
  0
VERTEX
  5
CD4
  8
LAYER_1
 10
-36.59596686106683
 20
-2.539940341349485
 30
0.0
  0
VERTEX
  5
CD5
  8
LAYER_1
 10
-36.48486884433424
 20
-2.339306211603013
 30
0.0
  0
VERTEX
  5
CD6
  8
LAYER_1
 10
-36.38059836380188
 20
-2.133913683411699
 30
0.0
  0
VERTEX
  5
CD7
  8
LAYER_1
 10
-36.28329484175852
 20
-1.923903382447822
 30
0.0
  0
VERTEX
  5
CD8
  8
LAYER_1
 10
-36.19309770049294
 20
-1.709415934383657
 30
0.0
  0
VERTEX
  5
CD9
  8
LAYER_1
 10
-36.11014636229395
 20
-1.490591964891482
 30
0.0
  0
VERTEX
  5
CDA
  8
LAYER_1
 10
-36.03458024945033
 20
-1.267572099643575
 30
0.0
  0
VERTEX
  5
CDB
  8
LAYER_1
 10
-35.96653878425085
 20
-1.040496964312212
 30
0.0
  0
VERTEX
  5
CDC
  8
LAYER_1
 10
-35.90616138898432
 20
-0.8095071845696704
 30
0.0
  0
VERTEX
  5
CDD
  8
LAYER_1
 10
-35.85358748593951
 20
-0.5747433860882273
 30
0.0
  0
VERTEX
  5
CDE
  8
LAYER_1
 10
-35.80895649740523
 20
-0.3363461945401599
 30
0.0
  0
VERTEX
  5
CDF
  8
LAYER_1
 10
-35.77240784567025
 20
-0.0944562355977455
 30
0.0
  0
VERTEX
  5
CE0
  8
LAYER_1
 10
-35.69552242101437
 20
-0.0856112983051673
 30
0.0
  0
VERTEX
  5
CE1
  8
LAYER_1
 10
-35.64940248589886
 20
-0.0814104666580261
 30
0.0
  0
VERTEX
  5
CE2
  8
LAYER_1
 10
-35.60067810817861
 20
-0.0872294039194502
 30
0.0
  0
VERTEX
  5
CE3
  8
LAYER_1
 10
-35.54976771527321
 20
-0.1026159413068879
 30
0.0
  0
VERTEX
  5
CE4
  8
LAYER_1
 10
-35.4970897346023
 20
-0.1271179100377868
 30
0.0
  0
VERTEX
  5
CE5
  8
LAYER_1
 10
-35.38810471964246
 20
-0.2016594663997606
 30
0.0
  0
VERTEX
  5
CE6
  8
LAYER_1
 10
-35.27707048265614
 20
-0.3072367227449551
 30
0.0
  0
VERTEX
  5
CE7
  8
LAYER_1
 10
-35.16733444300034
 20
-0.4402323288129537
 30
0.0
  0
VERTEX
  5
CE8
  8
LAYER_1
 10
-35.06224402003212
 20
-0.5970289343433401
 30
0.0
  0
VERTEX
  5
CE9
  8
LAYER_1
 10
-34.96514663310848
 20
-0.7740091890756978
 30
0.0
  0
VERTEX
  5
CEA
  8
LAYER_1
 10
-34.87938970158646
 20
-0.9675557427496102
 30
0.0
  0
VERTEX
  5
CEB
  8
LAYER_1
 10
-34.33864684848839
 20
-2.365596641405587
 30
0.0
  0
VERTEX
  5
CEC
  8
LAYER_1
 10
-33.8535464526251
 20
-3.677712517664897
 30
0.0
  0
VERTEX
  5
CED
  8
LAYER_1
 10
-33.40781930681612
 20
-4.955500341459805
 30
0.0
  0
VERTEX
  5
CEE
  8
LAYER_1
 10
-32.985196203881
 20
-6.250557082722578
 30
0.0
  0
VERTEX
  5
CEF
  8
LAYER_1
 10
-32.56940793663927
 20
-7.614479711385484
 30
0.0
  0
VERTEX
  5
CF0
  8
LAYER_1
 10
-32.1441852979105
 20
-9.09886519738079
 30
0.0
  0
VERTEX
  5
CF1
  8
LAYER_1
 10
-31.6932590805142
 20
-10.75531051064076
 30
0.0
  0
VERTEX
  5
CF2
  8
LAYER_1
 10
-31.20036007726993
 20
-12.63541262109767
 30
0.0
  0
VERTEX
  5
CF3
  8
LAYER_1
 10
-29.62133406628134
 20
-18.74443635330645
 30
0.0
  0
VERTEX
  5
CF4
  8
LAYER_1
 10
-30.21451667479116
 20
-19.74861447185536
 30
0.0
  0
VERTEX
  5
CF5
  8
LAYER_1
 10
-30.2947138447033
 20
-19.86903767586241
 30
0.0
  0
VERTEX
  5
CF6
  8
LAYER_1
 10
-30.39817436008096
 20
-19.99934264587514
 30
0.0
  0
VERTEX
  5
CF7
  8
LAYER_1
 10
-30.52320869281077
 20
-20.13843868146161
 30
0.0
  0
VERTEX
  5
CF8
  8
LAYER_1
 10
-30.66812731477938
 20
-20.28523508218989
 30
0.0
  0
VERTEX
  5
CF9
  8
LAYER_1
 10
-30.8404809780583
 20
-20.4465135704166
 30
0.0
  0
VERTEX
  5
CFA
  8
LAYER_1
 10
-31.02058162634933
 20
-20.6023298606042
 30
0.0
  0
VERTEX
  5
CFB
  8
LAYER_1
 10
-31.20814968508625
 20
-20.75267265717699
 30
0.0
  0
VERTEX
  5
CFC
  8
LAYER_1
 10
-31.40290557970281
 20
-20.89753066455927
 30
0.0
  0
VERTEX
  5
CFD
  8
LAYER_1
 10
-31.60456973563277
 20
-21.03689258717533
 30
0.0
  0
VERTEX
  5
CFE
  8
LAYER_1
 10
-31.8128625783099
 20
-21.17074712944948
 30
0.0
  0
VERTEX
  5
CFF
  8
LAYER_1
 10
-32.02750453316795
 20
-21.299082995806
 30
0.0
  0
VERTEX
  5
D00
  8
LAYER_1
 10
-32.24821602564069
 20
-21.42188889066919
 30
0.0
  0
VERTEX
  5
D01
  8
LAYER_1
 10
-32.70672932516528
 20
-21.6508655836128
 30
0.0
  0
VERTEX
  5
D02
  8
LAYER_1
 10
-33.18616588035376
 20
-21.85758684367465
 30
0.0
  0
VERTEX
  5
D03
  8
LAYER_1
 10
-33.68428909467622
 20
-22.04196230624913
 30
0.0
  0
VERTEX
  5
D04
  8
LAYER_1
 10
-34.19886237160274
 20
-22.20390160673062
 30
0.0
  0
VERTEX
  5
D05
  8
LAYER_1
 10
-34.72764911460342
 20
-22.34331438051348
 30
0.0
  0
VERTEX
  5
D06
  8
LAYER_1
 10
-35.26841272714834
 20
-22.46011026299209
 30
0.0
  0
VERTEX
  5
D07
  8
LAYER_1
 10
-35.81891661270761
 20
-22.55419888956082
 30
0.0
  0
VERTEX
  5
D08
  8
LAYER_1
 10
-36.3769241747513
 20
-22.62548989561405
 30
0.0
  0
VERTEX
  5
D09
  8
LAYER_1
 10
-36.94019881674951
 20
-22.67389291654614
 30
0.0
  0
VERTEX
  5
D0A
  8
LAYER_1
 10
-37.50650394217234
 20
-22.69931758775148
 30
0.0
  0
VERTEX
  5
D0B
  8
LAYER_1
 10
-38.07360295448986
 20
-22.70167354462443
 30
0.0
  0
VERTEX
  5
D0C
  8
LAYER_1
 10
-38.63925925717216
 20
-22.68087042255937
 30
0.0
  0
VERTEX
  5
D0D
  8
LAYER_1
 10
-39.20123625368935
 20
-22.63681785695067
 30
0.0
  0
VERTEX
  5
D0E
  8
LAYER_1
 10
-39.75729734751151
 20
-22.56942548319271
 30
0.0
  0
VERTEX
  5
D0F
  8
LAYER_1
 10
-40.30520594210873
 20
-22.47860293667986
 30
0.0
  0
VERTEX
  5
D10
  8
LAYER_1
 10
-40.84272544095111
 20
-22.36425985280648
 30
0.0
  0
VERTEX
  5
D11
  8
LAYER_1
 10
-41.36761924750873
 20
-22.22630586696697
 30
0.0
  0
VERTEX
  5
D12
  8
LAYER_1
 10
-41.87765076525167
 20
-22.06465061455568
 30
0.0
  0
VERTEX
  5
D13
  8
LAYER_1
 10
-42.37058339765004
 20
-21.87920373096699
 30
0.0
  0
VERTEX
  5
D14
  8
LAYER_1
 10
-42.60993869542941
 20
-21.77753018854186
 30
0.0
  0
VERTEX
  5
D15
  8
LAYER_1
 10
-42.84418054817392
 20
-21.66987485159528
 30
0.0
  0
VERTEX
  5
D16
  8
LAYER_1
 10
-43.07302938131734
 20
-21.55622642455153
 30
0.0
  0
VERTEX
  5
D17
  8
LAYER_1
 10
-43.29620562029341
 20
-21.43657361183492
 30
0.0
  0
VERTEX
  5
D18
  8
LAYER_1
 10
-43.51342969053591
 20
-21.31090511786973
 30
0.0
  0
VERTEX
  5
D19
  8
LAYER_1
 10
-43.72442201747859
 20
-21.17920964708027
 30
0.0
  0
VERTEX
  5
D1A
  8
LAYER_1
 10
-43.92890302655522
 20
-21.04147590389083
 30
0.0
  0
VERTEX
  5
D1B
  8
LAYER_1
 10
-44.12659314319956
 20
-20.89769259272572
 30
0.0
  0
VERTEX
  5
D1C
  8
LAYER_1
 10
-44.31721279284536
 20
-20.74784841800922
 30
0.0
  0
VERTEX
  5
D1D
  8
LAYER_1
 10
-44.50048240092639
 20
-20.59193208416564
 30
0.0
  0
VERTEX
  5
D1E
  8
LAYER_1
 10
-44.67612239287642
 20
-20.42993229561927
 30
0.0
  0
VERTEX
  5
D1F
  8
LAYER_1
 10
-44.8438531941292
 20
-20.2618377567944
 30
0.0
  0
VERTEX
  5
D20
  8
LAYER_1
 10
-45.00339523011849
 20
-20.08763717211533
 30
0.0
  0
VERTEX
  5
D21
  8
LAYER_1
 10
-45.15446892627806
 20
-19.90731924600637
 30
0.0
  0
VERTEX
  5
D22
  8
LAYER_1
 10
-45.29679470804167
 20
-19.7208726828918
 30
0.0
  0
VERTEX
  5
D23
  8
LAYER_1
 10
-45.43009300084307
 20
-19.52828618719593
 30
0.0
  0
VERTEX
  5
D24
  8
LAYER_1
 10
-45.55408423011602
 20
-19.32954846334305
 30
0.0
  0
VERTEX
  5
D25
  8
LAYER_1
 10
-45.6684888212943
 20
-19.12464821575746
 30
0.0
  0
VERTEX
  5
D26
  8
LAYER_1
 10
-45.90619219798265
 20
-18.64588841948505
 30
0.0
  0
VERTEX
  5
D27
  8
LAYER_1
 10
-46.12409346332735
 20
-18.15457186083894
 30
0.0
  0
VERTEX
  5
D28
  8
LAYER_1
 10
-46.32435862102869
 20
-17.65335607939697
 30
0.0
  0
VERTEX
  5
D29
  8
LAYER_1
 10
-46.50915367478697
 20
-17.14489861473701
 30
0.0
  0
VERTEX
  5
D2A
  8
LAYER_1
 10
-46.68064462830245
 20
-16.6318570064369
 30
0.0
  0
VERTEX
  5
D2B
  8
LAYER_1
 10
-46.84099748527542
 20
-16.11688879407448
 30
0.0
  0
VERTEX
  5
D2C
  8
LAYER_1
 10
-47.136952924395
 20
-15.09180271547415
 30
0.0
  0
VERTEX
  5
D2D
  8
LAYER_1
 10
-47.4243992587248
 20
-14.07911898141277
 30
0.0
  0
VERTEX
  5
D2E
  8
LAYER_1
 10
-47.66486691989241
 20
-13.26471845921226
 30
0.0
  0
VERTEX
  5
D2F
  8
LAYER_1
 10
-47.67531923299964
 20
-13.23009134896876
 30
0.0
  0
VERTEX
  5
D30
  8
LAYER_1
 10
-47.75667158464356
 20
-12.97526610665263
 30
0.0
  0
VERTEX
  5
D31
  8
LAYER_1
 10
-47.84700574005626
 20
-12.72359011056901
 30
0.0
  0
VERTEX
  5
D32
  8
LAYER_1
 10
-48.04933058811271
 20
-12.22784114218189
 30
0.0
  0
VERTEX
  5
D33
  8
LAYER_1
 10
-48.50358431462227
 20
-11.25384229610609
 30
0.0
  0
VERTEX
  5
D34
  8
LAYER_1
 10
-48.73435769677401
 20
-10.76821355874767
 30
0.0
  0
VERTEX
  5
D35
  8
LAYER_1
 10
-48.95345842732279
 20
-10.27857937206243
 30
0.0
  0
VERTEX
  5
D36
  8
LAYER_1
 10
-49.05532600194896
 20
-10.03110728839885
 30
0.0
  0
VERTEX
  5
D37
  8
LAYER_1
 10
-49.15030875811789
 20
-9.781250306215492
 30
0.0
  0
VERTEX
  5
D38
  8
LAYER_1
 10
-49.23708447731074
 20
-9.528547246782992
 30
0.0
  0
VERTEX
  5
D39
  8
LAYER_1
 10
-49.31433094100865
 20
-9.272536931371995
 30
0.0
  0
VERTEX
  5
D3A
  8
LAYER_1
 10
-49.65479045292543
 20
-8.00587604091207
 30
0.0
  0
VERTEX
  5
D3B
  8
LAYER_1
 10
-50.02059228407258
 20
-6.58117158856173
 30
0.0
  0
VERTEX
  5
D3C
  8
LAYER_1
 10
-50.39082907904877
 20
-5.157321581444489
 30
0.0
  0
VERTEX
  5
D3D
  8
LAYER_1
 10
-50.05460029118905
 20
-5.503463727542222
 30
0.0
  0
VERTEX
  5
D3E
  8
LAYER_1
 10
-49.70759888050863
 20
-5.838413941163198
 30
0.0
  0
VERTEX
  5
D3F
  8
LAYER_1
 10
-49.35013469226736
 20
-6.161946290022723
 30
0.0
  0
VERTEX
  5
D40
  8
LAYER_1
 10
-48.98251757172512
 20
-6.4738348418361
 30
0.0
  0
VERTEX
  5
D41
  8
LAYER_1
 10
-48.60505736414174
 20
-6.773853664318636
 30
0.0
  0
VERTEX
  5
D42
  8
LAYER_1
 10
-48.21806391477709
 20
-7.061776825185638
 30
0.0
  0
VERTEX
  5
D43
  8
LAYER_1
 10
-47.82184706889102
 20
-7.337378392152409
 30
0.0
  0
VERTEX
  5
D44
  8
LAYER_1
 10
-47.41671667174339
 20
-7.600432432934257
 30
0.0
  0
VERTEX
  5
D45
  8
LAYER_1
 10
-47.62158184567586
 20
-8.01953263654295
 30
0.0
  0
VERTEX
  5
D46
  8
LAYER_1
 10
-47.80939684120812
 20
-8.445825085164394
 30
0.0
  0
VERTEX
  5
D47
  8
LAYER_1
 10
-47.98000354610999
 20
-8.878784725742484
 30
0.0
  0
VERTEX
  5
D48
  8
LAYER_1
 10
-48.1332438481513
 20
-9.317886505221114
 30
0.0
  0
VERTEX
  5
D49
  8
LAYER_1
 10
-48.26895963510187
 20
-9.762605370544179
 30
0.0
  0
VERTEX
  5
D4A
  8
LAYER_1
 10
-48.38699279473151
 20
-10.21241626865557
 30
0.0
  0
VERTEX
  5
D4B
  8
LAYER_1
 10
-48.48718521481005
 20
-10.66679414649919
 30
0.0
  0
VERTEX
  5
D4C
  8
LAYER_1
 10
-48.56937878310732
 20
-11.12521395101892
 30
0.0
  0
SEQEND
  5
D4D
  8
LAYER_1
  0
POLYLINE
  5
4B
  8
LAYER_1
 66
     1
 10
0.0
 20
0.0
 30
0.0
  0
VERTEX
  5
D4E
  8
LAYER_1
 10
18.7572525726456
 20
5.644444444444446
 30
0.0
 42
0.151478458636587
  0
VERTEX
  5
D4F
  8
LAYER_1
 10
19.65483754842768
 20
-9.021112042061489
 30
0.0
  0
SEQEND
  5
D50
  8
LAYER_1
  0
ENDSEC
  0
EOF
