  0
SECTION
  2
HEADER
  9
$ACADVER
  1
AC1009
  9
$DWGCODEPAGE
  3
ansi_1252
  9
$INSBASE
 10
0.0
 20
0.0
 30
0.0
  9
$EXTMIN
 10
-55.32331703808563
 20
-70.57429007527534
 30
0.0
  9
$EXTMAX
 10
55.3329833341129
 20
66.66841299879854
 30
0.0
  9
$LIMMIN
 10
0.0
 20
0.0
  9
$LIMMAX
 10
12.0
 20
9.0
  9
$ORTHOMODE
 70
     0
  9
$REGENMODE
 70
     1
  9
$FILLMODE
 70
     1
  9
$QTEXTMODE
 70
     0
  9
$MIRRTEXT
 70
     1
  9
$DRAGMODE
 70
     2
  9
$LTSCALE
 40
1.0
  9
$OSMODE
 70
    37
  9
$ATTMODE
 70
     1
  9
$TEXTSIZE
 40
0.2
  9
$TRACEWID
 40
0.05
  9
$TEXTSTYLE
  7
STANDARD
  9
$CLAYER
  8
0
  9
$CELTYPE
  6
BYLAYER
  9
$CECOLOR
 62
   256
  9
$DIMSCALE
 40
1.0
  9
$DIMASZ
 40
0.18
  9
$DIMEXO
 40
0.0625
  9
$DIMDLI
 40
0.38
  9
$DIMRND
 40
0.0
  9
$DIMDLE
 40
0.0
  9
$DIMEXE
 40
0.18
  9
$DIMTP
 40
0.0
  9
$DIMTM
 40
0.0
  9
$DIMTXT
 40
0.18
  9
$DIMCEN
 40
0.09
  9
$DIMTSZ
 40
0.0
  9
$DIMTOL
 70
     0
  9
$DIMLIM
 70
     0
  9
$DIMTIH
 70
     1
  9
$DIMTOH
 70
     1
  9
$DIMSE1
 70
     0
  9
$DIMSE2
 70
     0
  9
$DIMTAD
 70
     0
  9
$DIMZIN
 70
     0
  9
$DIMBLK
  1

  9
$DIMASO
 70
     1
  9
$DIMSHO
 70
     1
  9
$DIMPOST
  1

  9
$DIMAPOST
  1

  9
$DIMALT
 70
     0
  9
$DIMALTD
 70
     2
  9
$DIMALTF
 40
25.4
  9
$DIMLFAC
 40
1.0
  9
$DIMTOFL
 70
     0
  9
$DIMTVP
 40
0.0
  9
$DIMTIX
 70
     0
  9
$DIMSOXD
 70
     0
  9
$DIMSAH
 70
     0
  9
$DIMBLK1
  1

  9
$DIMBLK2
  1

  9
$DIMSTYLE
  2
STANDARD
  9
$DIMCLRD
 70
     0
  9
$DIMCLRE
 70
     0
  9
$DIMCLRT
 70
     0
  9
$DIMTFAC
 40
1.0
  9
$DIMGAP
 40
0.09
  9
$LUNITS
 70
     2
  9
$LUPREC
 70
     4
  9
$SKETCHINC
 40
0.1
  9
$FILLETRAD
 40
0.5
  9
$AUNITS
 70
     0
  9
$AUPREC
 70
     0
  9
$MENU
  1
.
  9
$ELEVATION
 40
0.0
  9
$PELEVATION
 40
0.0
  9
$THICKNESS
 40
0.0
  9
$LIMCHECK
 70
     0
  9
$CHAMFERA
 40
0.5
  9
$CHAMFERB
 40
0.5
  9
$SKPOLY
 70
     0
  9
$TDCREATE
 40
2454910.5
  9
$TDUPDATE
 40
2458805.896535405
  9
$TDINDWG
 40
0.0000000116
  9
$TDUSRTIMER
 40
0.0000000116
  9
$USRTIMER
 70
     1
  9
$ANGBASE
 50
0.0
  9
$ANGDIR
 70
     0
  9
$PDMODE
 70
     0
  9
$PDSIZE
 40
0.0
  9
$PLINEWID
 40
0.0
  9
$COORDS
 70
     1
  9
$SPLFRAME
 70
     0
  9
$SPLINETYPE
 70
     6
  9
$SPLINESEGS
 70
     8
  9
$ATTDIA
 70
     0
  9
$ATTREQ
 70
     1
  9
$HANDLING
 70
     1
  9
$HANDSEED
  5
882
  9
$SURFTAB1
 70
     6
  9
$SURFTAB2
 70
     6
  9
$SURFTYPE
 70
     6
  9
$SURFU
 70
     6
  9
$SURFV
 70
     6
  9
$UCSNAME
  2

  9
$UCSORG
 10
0.0
 20
0.0
 30
0.0
  9
$UCSXDIR
 10
1.0
 20
0.0
 30
0.0
  9
$UCSYDIR
 10
0.0
 20
1.0
 30
0.0
  9
$PUCSNAME
  2

  9
$PUCSORG
 10
0.0
 20
0.0
 30
0.0
  9
$PUCSXDIR
 10
1.0
 20
0.0
 30
0.0
  9
$PUCSYDIR
 10
0.0
 20
1.0
 30
0.0
  9
$USERI1
 70
     0
  9
$USERI2
 70
     0
  9
$USERI3
 70
     0
  9
$USERI4
 70
     0
  9
$USERI5
 70
     0
  9
$USERR1
 40
0.0
  9
$USERR2
 40
0.0
  9
$USERR3
 40
0.0
  9
$USERR4
 40
0.0
  9
$USERR5
 40
0.0
  9
$WORLDVIEW
 70
     1
  9
$SHADEDGE
 70
     3
  9
$SHADEDIF
 70
    70
  9
$TILEMODE
 70
     1
  9
$MAXACTVP
 70
    64
  9
$PLIMCHECK
 70
     0
  9
$PEXTMIN
 10
1.000000000000000E+20
 20
1.000000000000000E+20
 30
1.000000000000000E+20
  9
$PEXTMAX
 10
-1.000000000000000E+20
 20
-1.000000000000000E+20
 30
-1.000000000000000E+20
  9
$PLIMMIN
 10
0.0
 20
0.0
  9
$PLIMMAX
 10
12.0
 20
9.0
  9
$UNITMODE
 70
     0
  9
$VISRETAIN
 70
     1
  9
$PLINEGEN
 70
     0
  9
$PSLTSCALE
 70
     1
  0
ENDSEC
  0
SECTION
  2
TABLES
  0
TABLE
  2
VPORT
 70
     1
  0
VPORT
  2
*ACTIVE
 70
     0
 10
0.0
 20
0.0
 11
1.0
 21
1.0
 12
10.42990654205607
 22
4.5
 13
0.0
 23
0.0
 14
0.5
 24
0.5
 15
0.5
 25
0.5
 16
0.0
 26
0.0
 36
1.0
 17
0.0
 27
0.0
 37
0.0
 40
9.0
 41
1.972972972850329
 42
50.0
 43
0.0
 44
0.0
 50
0.0
 51
0.0
 71
     0
 72
   100
 73
     1
 74
     3
 75
     0
 76
     0
 77
     0
 78
     0
  0
ENDTAB
  0
TABLE
  2
LTYPE
 70
     2
  0
LTYPE
  2
CONTINUOUS
 70
     0
  3
Solid line
 72
    65
 73
     0
 40
0.0
  0
LTYPE
  2
CONTINUOUS2
 70
     0
  3
Solid Line
 72
    65
 73
     0
 40
0.0
  0
ENDTAB
  0
TABLE
  2
LAYER
 70
     2
  0
LAYER
  2
0
 70
     0
 62
     7
  6
CONTINUOUS
  0
LAYER
  2
LAYER_1
 70
     0
 62
     1
  6
CONTINUOUS
  0
ENDTAB
  0
TABLE
  2
STYLE
 70
     1
  0
STYLE
  2
STANDARD
 70
     0
 40
0.0
 41
1.0
 50
0.0
 71
     0
 42
0.2
  3
txt
  4

  0
ENDTAB
  0
TABLE
  2
VIEW
 70
     0
  0
ENDTAB
  0
TABLE
  2
UCS
 70
     0
  0
ENDTAB
  0
TABLE
  2
APPID
 70
     1
  0
APPID
  2
ACAD
 70
     0
  0
ENDTAB
  0
TABLE
  2
DIMSTYLE
 70
     1
  0
DIMSTYLE
  2
STANDARD
 70
     0
  3

  4

  5

  6

  7

 40
1.0
 41
0.18
 42
0.0625
 43
0.38
 44
0.18
 45
0.0
 46
0.0
 47
0.0
 48
0.0
140
0.18
141
0.09
142
0.0
143
25.4
144
1.0
145
0.0
146
1.0
147
0.09
 71
     0
 72
     0
 73
     1
 74
     1
 75
     0
 76
     0
 77
     0
 78
     0
170
     0
171
     2
172
     0
173
     0
174
     0
175
     0
176
     0
177
     0
178
     0
  0
ENDTAB
  0
ENDSEC
  0
SECTION
  2
BLOCKS
  0
BLOCK
  8
0
  2
$MODEL_SPACE
 70
     0
 10
0.0
 20
0.0
 30
0.0
  3
$MODEL_SPACE
  1

  0
ENDBLK
  5
21
  8
0
  0
BLOCK
 67
     1
  8
0
  2
$PAPER_SPACE
 70
     0
 10
0.0
 20
0.0
 30
0.0
  3
$PAPER_SPACE
  1

  0
ENDBLK
  5
1D
 67
     1
  8
0
  0
ENDSEC
  0
SECTION
  2
ENTITIES
  0
POLYLINE
  5
41
  8
LAYER_1
 66
     1
 10
0.0
 20
0.0
 30
0.0
 70
     1
  0
VERTEX
  5
52
  8
LAYER_1
 10
-3.138546381406456
 20
-70.476728370971
 30
0.0
  0
VERTEX
  5
53
  8
LAYER_1
 10
2.255940958803492
 20
-70.37916666666665
 30
0.0
  0
VERTEX
  5
54
  8
LAYER_1
 10
3.601409727375966
 20
-68.0861111111111
 30
0.0
  0
VERTEX
  5
55
  8
LAYER_1
 10
4.174380563545826
 20
-67.10139510956398
 30
0.0
  0
VERTEX
  5
56
  8
LAYER_1
 10
4.73682807548597
 20
-66.11818431579465
 30
0.0
  0
VERTEX
  5
57
  8
LAYER_1
 10
5.288759256405864
 20
-65.13646232620198
 30
0.0
  0
VERTEX
  5
58
  8
LAYER_1
 10
5.830181099514971
 20
-64.15621273718489
 30
0.0
  0
VERTEX
  5
59
  8
LAYER_1
 10
6.361100598022756
 20
-63.17741914514221
 30
0.0
  0
VERTEX
  5
5A
  8
LAYER_1
 10
6.881524745138682
 20
-62.20006514647285
 30
0.0
  0
VERTEX
  5
5B
  8
LAYER_1
 10
7.391460534072216
 20
-61.22413433757568
 30
0.0
  0
VERTEX
  5
5C
  8
LAYER_1
 10
7.89091495803282
 20
-60.24961031484959
 30
0.0
  0
VERTEX
  5
5D
  8
LAYER_1
 10
8.379895010229959
 20
-59.27647667469346
 30
0.0
  0
VERTEX
  5
5E
  8
LAYER_1
 10
8.8584076838731
 20
-58.30471701350616
 30
0.0
  0
VERTEX
  5
5F
  8
LAYER_1
 10
9.326459972171705
 20
-57.33431492768659
 30
0.0
  0
VERTEX
  5
60
  8
LAYER_1
 10
9.784058868335237
 20
-56.36525401363362
 30
0.0
  0
VERTEX
  5
61
  8
LAYER_1
 10
10.23121136557316
 20
-55.39751786774613
 30
0.0
  0
VERTEX
  5
62
  8
LAYER_1
 10
10.66792445709494
 20
-54.43109008642301
 30
0.0
  0
VERTEX
  5
63
  8
LAYER_1
 10
11.09420513611005
 20
-53.46595426606314
 30
0.0
  0
VERTEX
  5
64
  8
LAYER_1
 10
11.51006039582794
 20
-52.50209400306538
 30
0.0
  0
VERTEX
  5
65
  8
LAYER_1
 10
11.91549722945809
 20
-51.53949289382864
 30
0.0
  0
VERTEX
  5
66
  8
LAYER_1
 10
12.31052263020994
 20
-50.57813453475179
 30
0.0
  0
VERTEX
  5
67
  8
LAYER_1
 10
12.69514359129298
 20
-49.61800252223371
 30
0.0
  0
VERTEX
  5
68
  8
LAYER_1
 10
13.06936710591666
 20
-48.65908045267328
 30
0.0
  0
VERTEX
  5
69
  8
LAYER_1
 10
13.43320016729045
 20
-47.70135192246939
 30
0.0
  0
VERTEX
  5
6A
  8
LAYER_1
 10
13.78664976862382
 20
-46.74480052802091
 30
0.0
  0
VERTEX
  5
6B
  8
LAYER_1
 10
14.12972290312622
 20
-45.78940986572673
 30
0.0
  0
VERTEX
  5
6C
  8
LAYER_1
 10
14.46242656400712
 20
-44.83516353198573
 30
0.0
  0
VERTEX
  5
6D
  8
LAYER_1
 10
14.78476774447599
 20
-43.88204512319678
 30
0.0
  0
VERTEX
  5
6E
  8
LAYER_1
 10
15.09675343774229
 20
-42.93003823575879
 30
0.0
  0
VERTEX
  5
6F
  8
LAYER_1
 10
15.39839063701549
 20
-41.97912646607061
 30
0.0
  0
VERTEX
  5
70
  8
LAYER_1
 10
15.68968633550504
 20
-41.02929341053114
 30
0.0
  0
VERTEX
  5
71
  8
LAYER_1
 10
15.97064752642042
 20
-40.08052266553925
 30
0.0
  0
VERTEX
  5
72
  8
LAYER_1
 10
16.24128120297108
 20
-39.13279782749382
 30
0.0
  0
VERTEX
  5
73
  8
LAYER_1
 10
16.5015943583665
 20
-38.18610249279375
 30
0.0
  0
VERTEX
  5
74
  8
LAYER_1
 10
16.75159398581614
 20
-37.2404202578379
 30
0.0
  0
VERTEX
  5
75
  8
LAYER_1
 10
18.49671365648587
 20
-29.80972222222222
 30
0.0
  0
VERTEX
  5
76
  8
LAYER_1
 10
18.61828140376644
 20
-29.14923818550169
 30
0.0
  0
VERTEX
  5
77
  8
LAYER_1
 10
18.75261071981059
 20
-28.35220399254029
 30
0.0
  0
VERTEX
  5
78
  8
LAYER_1
 10
18.89526590195376
 20
-27.44899651913833
 30
0.0
  0
VERTEX
  5
79
  8
LAYER_1
 10
19.04181124753136
 20
-26.4699926410961
 30
0.0
  0
VERTEX
  5
7A
  8
LAYER_1
 10
19.32882961833164
 20
-24.40610317429203
 30
0.0
  0
VERTEX
  5
7B
  8
LAYER_1
 10
19.46043123822517
 20
-23.38197133713079
 30
0.0
  0
VERTEX
  5
7C
  8
LAYER_1
 10
19.57818021089487
 20
-22.40355059853047
 30
0.0
  0
VERTEX
  5
7D
  8
LAYER_1
 10
20.10833333333332
 20
-17.81960119706095
 30
0.0
  0
VERTEX
  5
7E
  8
LAYER_1
 10
20.10833333333332
 20
-12.65493676429011
 30
0.0
  0
VERTEX
  5
7F
  8
LAYER_1
 10
18.01248992687108
 20
-14.1250871543789
 30
0.0
  0
VERTEX
  5
80
  8
LAYER_1
 10
17.33319420933088
 20
-14.60679910329607
 30
0.0
  0
VERTEX
  5
81
  8
LAYER_1
 10
17.05586187724307
 20
-14.81160864559769
 30
0.0
  0
VERTEX
  5
82
  8
LAYER_1
 10
16.81582480980438
 20
-14.99870560206821
 30
0.0
  0
VERTEX
  5
83
  8
LAYER_1
 10
16.6098966921605
 20
-15.1728287494128
 30
0.0
  0
VERTEX
  5
84
  8
LAYER_1
 10
16.43489120945714
 20
-15.33871686433661
 30
0.0
  0
VERTEX
  5
85
  8
LAYER_1
 10
16.28762204683999
 20
-15.5011087235448
 30
0.0
  0
VERTEX
  5
86
  8
LAYER_1
 10
16.16490288945474
 20
-15.66474310374254
 30
0.0
  0
VERTEX
  5
87
  8
LAYER_1
 10
16.06354742244708
 20
-15.83435878163498
 30
0.0
  0
VERTEX
  5
88
  8
LAYER_1
 10
15.98036933096272
 20
-16.01469453392728
 30
0.0
  0
VERTEX
  5
89
  8
LAYER_1
 10
15.91218230014735
 20
-16.2104891373246
 30
0.0
  0
VERTEX
  5
8A
  8
LAYER_1
 10
15.85580001514666
 20
-16.42648136853211
 30
0.0
  0
VERTEX
  5
8B
  8
LAYER_1
 10
15.80803616110635
 20
-16.66741000425496
 30
0.0
  0
VERTEX
  5
8C
  8
LAYER_1
 10
15.76570442317211
 20
-16.93801382119832
 30
0.0
  0
VERTEX
  5
8D
  8
LAYER_1
 10
15.68459203620465
 20
-17.58720210556717
 30
0.0
  0
VERTEX
  5
8E
  8
LAYER_1
 10
15.56690063590093
 20
-18.54205439705685
 30
0.0
  0
VERTEX
  5
8F
  8
LAYER_1
 10
15.43540093466506
 20
-19.50524003999902
 30
0.0
  0
VERTEX
  5
90
  8
LAYER_1
 10
15.29027146586527
 20
-20.47617560991467
 30
0.0
  0
VERTEX
  5
91
  8
LAYER_1
 10
15.13169076286978
 20
-21.45427768232479
 30
0.0
  0
VERTEX
  5
92
  8
LAYER_1
 10
14.95983735904681
 20
-22.43896283275036
 30
0.0
  0
VERTEX
  5
93
  8
LAYER_1
 10
14.77488978776458
 20
-23.42964763671237
 30
0.0
  0
VERTEX
  5
94
  8
LAYER_1
 10
14.57702658239132
 20
-24.42574866973181
 30
0.0
  0
VERTEX
  5
95
  8
LAYER_1
 10
14.36642627629524
 20
-25.42668250732965
 30
0.0
  0
VERTEX
  5
96
  8
LAYER_1
 10
14.14326740284456
 20
-26.4318657250269
 30
0.0
  0
VERTEX
  5
97
  8
LAYER_1
 10
13.90772849540752
 20
-27.44071489834451
 30
0.0
  0
VERTEX
  5
98
  8
LAYER_1
 10
13.65998808735232
 20
-28.4526466028035
 30
0.0
  0
VERTEX
  5
99
  8
LAYER_1
 10
13.4002247120472
 20
-29.46707741392484
 30
0.0
  0
VERTEX
  5
9A
  8
LAYER_1
 10
13.12861690286037
 20
-30.48342390722952
 30
0.0
  0
VERTEX
  5
9B
  8
LAYER_1
 10
12.84534319316006
 20
-31.50110265823852
 30
0.0
  0
VERTEX
  5
9C
  8
LAYER_1
 10
12.55058211631448
 20
-32.51953024247283
 30
0.0
  0
VERTEX
  5
9D
  8
LAYER_1
 10
12.24451220569187
 20
-33.53812323545345
 30
0.0
  0
VERTEX
  5
9E
  8
LAYER_1
 10
11.92731199466044
 20
-34.55629821270134
 30
0.0
  0
VERTEX
  5
9F
  8
LAYER_1
 10
11.5991600165884
 20
-35.57347174973749
 30
0.0
  0
VERTEX
  5
A0
  8
LAYER_1
 10
11.260234804844
 20
-36.58906042208291
 30
0.0
  0
VERTEX
  5
A1
  8
LAYER_1
 10
10.91071489279544
 20
-37.60248080525857
 30
0.0
  0
VERTEX
  5
A2
  8
LAYER_1
 10
10.55077881381095
 20
-38.61314947478544
 30
0.0
  0
VERTEX
  5
A3
  8
LAYER_1
 10
10.18060510125875
 20
-39.62048300618452
 30
0.0
  0
VERTEX
  5
A4
  8
LAYER_1
 10
9.800372288507058
 20
-40.6238979749768
 30
0.0
  0
VERTEX
  5
A5
  8
LAYER_1
 10
9.410258908924103
 20
-41.62281095668327
 30
0.0
  0
VERTEX
  5
A6
  8
LAYER_1
 10
9.010443495878103
 20
-42.6166385268249
 30
0.0
  0
VERTEX
  5
A7
  8
LAYER_1
 10
8.601104582737284
 20
-43.60479726092268
 30
0.0
  0
VERTEX
  5
A8
  8
LAYER_1
 10
8.182420702869862
 20
-44.5867037344976
 30
0.0
  0
VERTEX
  5
A9
  8
LAYER_1
 10
7.754570389644061
 20
-45.56177452307065
 30
0.0
  0
VERTEX
  5
AA
  8
LAYER_1
 10
7.317732176428104
 20
-46.52942620216281
 30
0.0
  0
VERTEX
  5
AB
  8
LAYER_1
 10
6.872084596590211
 20
-47.48907534729507
 30
0.0
  0
VERTEX
  5
AC
  8
LAYER_1
 10
6.417806183498605
 20
-48.44013853398841
 30
0.0
  0
VERTEX
  5
AD
  8
LAYER_1
 10
5.955075470521507
 20
-49.38203233776382
 30
0.0
  0
VERTEX
  5
AE
  8
LAYER_1
 10
3.227317454941399
 20
-54.85694444444444
 30
0.0
  0
VERTEX
  5
AF
  8
LAYER_1
 10
-2.070907939376397
 20
-62.96073044556133
 30
0.0
  0
VERTEX
  5
B0
  8
LAYER_1
 10
-2.451260548544667
 20
-61.96032727067328
 30
0.0
  0
VERTEX
  5
B1
  8
LAYER_1
 10
-2.621268098452237
 20
-61.48417577445008
 30
0.0
  0
VERTEX
  5
B2
  8
LAYER_1
 10
-2.806211352820861
 20
-60.91380026463131
 30
0.0
  0
VERTEX
  5
B3
  8
LAYER_1
 10
-3.003159708027189
 20
-60.26149187310256
 30
0.0
  0
VERTEX
  5
B4
  8
LAYER_1
 10
-3.209182560447872
 20
-59.5395417317494
 30
0.0
  0
VERTEX
  5
B5
  8
LAYER_1
 10
-3.421349306459561
 20
-58.76024097245739
 30
0.0
  0
VERTEX
  5
B6
  8
LAYER_1
 10
-3.636729342438907
 20
-57.93588072711212
 30
0.0
  0
VERTEX
  5
B7
  8
LAYER_1
 10
-4.065406869807168
 20
-56.20114630580406
 30
0.0
  0
VERTEX
  5
B8
  8
LAYER_1
 10
-4.47177031356586
 20
-54.4336675229098
 30
0.0
  0
VERTEX
  5
B9
  8
LAYER_1
 10
-4.659257745033243
 20
-53.56837682558177
 30
0.0
  0
VERTEX
  5
BA
  8
LAYER_1
 10
-4.832374844728186
 20
-52.73177343351391
 30
0.0
  0
VERTEX
  5
BB
  8
LAYER_1
 10
-4.988191009027338
 20
-51.93614847859178
 30
0.0
  0
VERTEX
  5
BC
  8
LAYER_1
 10
-5.12377563430735
 20
-51.19379309270096
 30
0.0
  0
VERTEX
  5
BD
  8
LAYER_1
 10
-5.236198116944873
 20
-50.51699840772703
 30
0.0
  0
VERTEX
  5
BE
  8
LAYER_1
 10
-5.322527853316558
 20
-49.91805555555555
 30
0.0
  0
VERTEX
  5
BF
  8
LAYER_1
 10
-5.40825661989521
 20
-49.19503742798324
 30
0.0
  0
VERTEX
  5
C0
  8
LAYER_1
 10
-5.477060762144493
 20
-48.47456157233894
 30
0.0
  0
VERTEX
  5
C1
  8
LAYER_1
 10
-5.528969439652538
 20
-47.75674086258898
 30
0.0
  0
VERTEX
  5
C2
  8
LAYER_1
 10
-5.564011812007476
 20
-47.04168817269969
 30
0.0
  0
VERTEX
  5
C3
  8
LAYER_1
 10
-5.58221703879744
 20
-46.32951637663737
 30
0.0
  0
VERTEX
  5
C4
  8
LAYER_1
 10
-5.583614279610559
 20
-45.62033834836835
 30
0.0
  0
VERTEX
  5
C5
  8
LAYER_1
 10
-5.568232694034968
 20
-44.91426696185896
 30
0.0
  0
VERTEX
  5
C6
  8
LAYER_1
 10
-5.536101441658796
 20
-44.21141509107552
 30
0.0
  0
VERTEX
  5
C7
  8
LAYER_1
 10
-5.487249682070175
 20
-43.51189560998436
 30
0.0
  0
VERTEX
  5
C8
  8
LAYER_1
 10
-5.421706574857236
 20
-42.81582139255179
 30
0.0
  0
VERTEX
  5
C9
  8
LAYER_1
 10
-5.339501279608111
 20
-42.12330531274414
 30
0.0
  0
VERTEX
  5
CA
  8
LAYER_1
 10
-5.240662955910931
 20
-41.43446024452773
 30
0.0
  0
VERTEX
  5
CB
  8
LAYER_1
 10
-5.125220763353829
 20
-40.7493990618689
 30
0.0
  0
VERTEX
  5
CC
  8
LAYER_1
 10
-4.993203861524933
 20
-40.06823463873394
 30
0.0
  0
VERTEX
  5
CD
  8
LAYER_1
 10
-4.844641410012378
 20
-39.39107984908919
 30
0.0
  0
VERTEX
  5
CE
  8
LAYER_1
 10
-4.679562568404293
 20
-38.71804756690099
 30
0.0
  0
VERTEX
  5
CF
  8
LAYER_1
 10
-4.497996496288811
 20
-38.04925066613565
 30
0.0
  0
VERTEX
  5
D0
  8
LAYER_1
 10
-4.299972353254064
 20
-37.38480202075948
 30
0.0
  0
VERTEX
  5
D1
  8
LAYER_1
 10
-4.085519298888181
 20
-36.72481450473882
 30
0.0
  0
VERTEX
  5
D2
  8
LAYER_1
 10
-3.854666492779295
 20
-36.06940099203999
 30
0.0
  0
VERTEX
  5
D3
  8
LAYER_1
 10
-3.607443094515537
 20
-35.4186743566293
 30
0.0
  0
VERTEX
  5
D4
  8
LAYER_1
 10
-3.343878263685039
 20
-34.77274747247309
 30
0.0
  0
VERTEX
  5
D5
  8
LAYER_1
 10
-3.064001159875932
 20
-34.13173321353767
 30
0.0
  0
VERTEX
  5
D6
  8
LAYER_1
 10
-2.767840942676348
 20
-33.49574445378937
 30
0.0
  0
VERTEX
  5
D7
  8
LAYER_1
 10
-2.455426771674418
 20
-32.86489406719452
 30
0.0
  0
VERTEX
  5
D8
  8
LAYER_1
 10
-2.126787806458273
 20
-32.23929492771943
 30
0.0
  0
VERTEX
  5
D9
  8
LAYER_1
 10
-1.781953206616046
 20
-31.61905990933043
 30
0.0
  0
VERTEX
  5
DA
  8
LAYER_1
 10
-1.420952131735866
 20
-31.00430188599384
 30
0.0
  0
VERTEX
  5
DB
  8
LAYER_1
 10
-1.043813741405866
 20
-30.39513373167598
 30
0.0
  0
VERTEX
  5
DC
  8
LAYER_1
 10
-0.6505671952141777
 20
-29.79166832034318
 30
0.0
  0
VERTEX
  5
DD
  8
LAYER_1
 10
-0.2412416527489319
 20
-29.19401852596177
 30
0.0
  0
VERTEX
  5
DE
  8
LAYER_1
 10
0.1841337264017398
 20
-28.60229722249805
 30
0.0
  0
VERTEX
  5
DF
  8
LAYER_1
 10
0.7001870695510019
 20
-27.89306832616941
 30
0.0
  0
VERTEX
  5
E0
  8
LAYER_1
 10
1.091743563969208
 20
-27.32388830563066
 30
0.0
  0
VERTEX
  5
E1
  8
LAYER_1
 10
1.245159054970618
 20
-27.08002408779923
 30
0.0
  0
VERTEX
  5
E2
  8
LAYER_1
 10
1.372638608269008
 20
-26.85702104573535
 30
0.0
  0
VERTEX
  5
E3
  8
LAYER_1
 10
1.47591164869096
 20
-26.65016216504571
 30
0.0
  0
VERTEX
  5
E4
  8
LAYER_1
 10
1.556707601063055
 20
-26.454730431337
 30
0.0
  0
VERTEX
  5
E5
  8
LAYER_1
 10
1.616755890211873
 20
-26.26600883021593
 30
0.0
  0
VERTEX
  5
E6
  8
LAYER_1
 10
1.657785940963998
 20
-26.07928034728917
 30
0.0
  0
VERTEX
  5
E7
  8
LAYER_1
 10
1.68152717814601
 20
-25.88982796816342
 30
0.0
  0
VERTEX
  5
E8
  8
LAYER_1
 10
1.68970902658449
 20
-25.69293467844538
 30
0.0
  0
VERTEX
  5
E9
  8
LAYER_1
 10
1.684060911106019
 20
-25.48388346374173
 30
0.0
  0
VERTEX
  5
EA
  8
LAYER_1
 10
1.66631225653718
 20
-25.25795730965917
 30
0.0
  0
VERTEX
  5
EB
  8
LAYER_1
 10
1.601431029434721
 20
-24.73661212578409
 30
0.0
  0
VERTEX
  5
EC
  8
LAYER_1
 10
1.525624353045842
 20
-24.24575804466711
 30
0.0
  0
VERTEX
  5
ED
  8
LAYER_1
 10
1.431842508276202
 20
-23.72234439938002
 30
0.0
  0
VERTEX
  5
EE
  8
LAYER_1
 10
1.321265277325741
 20
-23.17048854846422
 30
0.0
  0
VERTEX
  5
EF
  8
LAYER_1
 10
1.1950724423944
 20
-22.59430785046108
 30
0.0
  0
VERTEX
  5
F0
  8
LAYER_1
 10
1.054443785682117
 20
-21.99791966391196
 30
0.0
  0
VERTEX
  5
F1
  8
LAYER_1
 10
0.9005590893888322
 20
-21.38544134735826
 30
0.0
  0
VERTEX
  5
F2
  8
LAYER_1
 10
0.7345981357144855
 20
-20.76099025934133
 30
0.0
  0
VERTEX
  5
F3
  8
LAYER_1
 10
0.5577407068590166
 20
-20.12868375840258
 30
0.0
  0
VERTEX
  5
F4
  8
LAYER_1
 10
0.3711665850223647
 20
-19.49263920308336
 30
0.0
  0
VERTEX
  5
F5
  8
LAYER_1
 10
0.1760555524044698
 20
-18.85697395192504
 30
0.0
  0
VERTEX
  5
F6
  8
LAYER_1
 10
-0.0264126087947287
 20
-18.22580536346902
 30
0.0
  0
VERTEX
  5
F7
  8
LAYER_1
 10
-0.2350581163752909
 20
-17.60325079625667
 30
0.0
  0
VERTEX
  5
F8
  8
LAYER_1
 10
-0.4487011881372774
 20
-16.99342760882935
 30
0.0
  0
VERTEX
  5
F9
  8
LAYER_1
 10
-0.6661620418807485
 20
-16.40045315972846
 30
0.0
  0
VERTEX
  5
FA
  8
LAYER_1
 10
-0.8862608954057644
 20
-15.82844480749535
 30
0.0
  0
VERTEX
  5
FB
  8
LAYER_1
 10
-1.107817966512386
 20
-15.28151991067142
 30
0.0
  0
VERTEX
  5
FC
  8
LAYER_1
 10
-2.182507407777962
 20
-12.7
 30
0.0
  0
VERTEX
  5
FD
  8
LAYER_1
 10
-2.336753813954516
 20
-12.7
 30
0.0
  0
VERTEX
  5
FE
  8
LAYER_1
 10
-2.36826632058375
 20
-12.70729545638417
 30
0.0
  0
VERTEX
  5
FF
  8
LAYER_1
 10
-2.410120062360129
 20
-12.72883506042686
 30
0.0
  0
VERTEX
  5
100
  8
LAYER_1
 10
-2.523101596977363
 20
-12.81256612082884
 30
0.0
  0
VERTEX
  5
101
  8
LAYER_1
 10
-2.672199109052312
 20
-12.94703199988805
 30
0.0
  0
VERTEX
  5
102
  8
LAYER_1
 10
-2.853913289831068
 20
-13.12807151628663
 30
0.0
  0
VERTEX
  5
103
  8
LAYER_1
 10
-3.301194422484368
 20
-13.61322673583029
 30
0.0
  0
VERTEX
  5
104
  8
LAYER_1
 10
-3.836950524906003
 20
-14.23474232891676
 30
0.0
  0
VERTEX
  5
105
  8
LAYER_1
 10
-4.433187127064711
 20
-14.95932884500294
 30
0.0
  0
VERTEX
  5
106
  8
LAYER_1
 10
-5.06190975892923
 20
-15.75369683354577
 30
0.0
  0
VERTEX
  5
107
  8
LAYER_1
 10
-5.695123950468298
 20
-16.58455684400216
 30
0.0
  0
VERTEX
  5
108
  8
LAYER_1
 10
-6.304835231650657
 20
-17.41861942582904
 30
0.0
  0
VERTEX
  5
109
  8
LAYER_1
 10
-6.667019834907752
 20
-17.9403872910568
 30
0.0
  0
VERTEX
  5
10A
  8
LAYER_1
 10
-7.023325254165551
 20
-18.48240763456876
 30
0.0
  0
VERTEX
  5
10B
  8
LAYER_1
 10
-7.373060168414071
 20
-19.04321635734672
 30
0.0
  0
VERTEX
  5
10C
  8
LAYER_1
 10
-7.715533256643328
 20
-19.62134936037244
 30
0.0
  0
VERTEX
  5
10D
  8
LAYER_1
 10
-8.050053197843337
 20
-20.21534254462772
 30
0.0
  0
VERTEX
  5
10E
  8
LAYER_1
 10
-8.375928671004115
 20
-20.82373181109435
 30
0.0
  0
VERTEX
  5
10F
  8
LAYER_1
 10
-8.692468355115679
 20
-21.4450530607541
 30
0.0
  0
VERTEX
  5
110
  8
LAYER_1
 10
-8.998980929168043
 20
-22.07784219458875
 30
0.0
  0
VERTEX
  5
111
  8
LAYER_1
 10
-9.294775072151225
 20
-22.7206351135801
 30
0.0
  0
VERTEX
  5
112
  8
LAYER_1
 10
-9.579159463055237
 20
-23.37196771870991
 30
0.0
  0
VERTEX
  5
113
  8
LAYER_1
 10
-9.851442780870096
 20
-24.03037591095998
 30
0.0
  0
VERTEX
  5
114
  8
LAYER_1
 10
-10.11093370458582
 20
-24.69439559131209
 30
0.0
  0
VERTEX
  5
115
  8
LAYER_1
 10
-10.35694091319243
 20
-25.36256266074802
 30
0.0
  0
VERTEX
  5
116
  8
LAYER_1
 10
-10.58877308567993
 20
-26.03341302024955
 30
0.0
  0
VERTEX
  5
117
  8
LAYER_1
 10
-10.80573890103834
 20
-26.70548257079847
 30
0.0
  0
VERTEX
  5
118
  8
LAYER_1
 10
-11.00714703825768
 20
-27.37730721337656
 30
0.0
  0
VERTEX
  5
119
  8
LAYER_1
 10
-11.23823777335886
 20
-28.22324141892275
 30
0.0
  0
VERTEX
  5
11A
  8
LAYER_1
 10
-11.33534742173565
 20
-28.62197281395733
 30
0.0
  0
VERTEX
  5
11B
  8
LAYER_1
 10
-11.4210288276538
 20
-29.01360029634834
 30
0.0
  0
VERTEX
  5
11C
  8
LAYER_1
 10
-11.49592866885622
 20
-29.40491378548234
 30
0.0
  0
VERTEX
  5
11D
  8
LAYER_1
 10
-11.56069362308583
 20
-29.80270320074592
 30
0.0
  0
VERTEX
  5
11E
  8
LAYER_1
 10
-11.61597036808555
 20
-30.21375846152566
 30
0.0
  0
VERTEX
  5
11F
  8
LAYER_1
 10
-11.6624055815983
 20
-30.64486948720813
 30
0.0
  0
VERTEX
  5
120
  8
LAYER_1
 10
-11.70064594136699
 20
-31.10282619717991
 30
0.0
  0
VERTEX
  5
121
  8
LAYER_1
 10
-11.73133812513453
 20
-31.59441851082758
 30
0.0
  0
VERTEX
  5
122
  8
LAYER_1
 10
-11.75512881064386
 20
-32.12643634753771
 30
0.0
  0
VERTEX
  5
123
  8
LAYER_1
 10
-11.77266467563787
 20
-32.70566962669689
 30
0.0
  0
VERTEX
  5
124
  8
LAYER_1
 10
-11.79155865505165
 20
-34.03294218990867
 30
0.0
  0
VERTEX
  5
125
  8
LAYER_1
 10
-11.79319348531921
 20
-35.63055555555555
 30
0.0
  0
VERTEX
  5
126
  8
LAYER_1
 10
-11.77673435463166
 20
-41.0986111111111
 30
0.0
  0
VERTEX
  5
127
  8
LAYER_1
 10
-10.95719063101349
 20
-44.45
 30
0.0
  0
VERTEX
  5
128
  8
LAYER_1
 10
-10.72061055296501
 20
-45.38947599725782
 30
0.0
  0
VERTEX
  5
129
  8
LAYER_1
 10
-10.47106519702838
 20
-46.32572768938581
 30
0.0
  0
VERTEX
  5
12A
  8
LAYER_1
 10
-10.20823702442744
 20
-47.25962572984454
 30
0.0
  0
VERTEX
  5
12B
  8
LAYER_1
 10
-9.93180849638604
 20
-48.19204077209459
 30
0.0
  0
VERTEX
  5
12C
  8
LAYER_1
 10
-9.641462074128023
 20
-49.12384346959652
 30
0.0
  0
VERTEX
  5
12D
  8
LAYER_1
 10
-9.336880218877234
 20
-50.05590447581092
 30
0.0
  0
VERTEX
  5
12E
  8
LAYER_1
 10
-9.017745391857511
 20
-50.98909444419834
 30
0.0
  0
VERTEX
  5
12F
  8
LAYER_1
 10
-8.683740054292704
 20
-51.92428402821939
 30
0.0
  0
VERTEX
  5
130
  8
LAYER_1
 10
-8.334546667406654
 20
-52.86234388133462
 30
0.0
  0
VERTEX
  5
131
  8
LAYER_1
 10
-7.969847692423205
 20
-53.80414465700461
 30
0.0
  0
VERTEX
  5
132
  8
LAYER_1
 10
-7.589325590566201
 20
-54.75055700868995
 30
0.0
  0
VERTEX
  5
133
  8
LAYER_1
 10
-7.192662823059486
 20
-55.70245158985118
 30
0.0
  0
VERTEX
  5
134
  8
LAYER_1
 10
-6.779541851126904
 20
-56.6606990539489
 30
0.0
  0
VERTEX
  5
135
  8
LAYER_1
 10
-6.349645135992299
 20
-57.62617005444369
 30
0.0
  0
VERTEX
  5
136
  8
LAYER_1
 10
-5.902655138879514
 20
-58.59973524479611
 30
0.0
  0
VERTEX
  5
137
  8
LAYER_1
 10
-5.438254321012394
 20
-59.58226527846674
 30
0.0
  0
VERTEX
  5
138
  8
LAYER_1
 10
-3.173418080444051
 20
-64.30758611248903
 30
0.0
  0
VERTEX
  5
139
  8
LAYER_1
 10
-8.533033721616405
 20
-70.57429007527534
 30
0.0
  0
SEQEND
  5
13A
  8
LAYER_1
  0
POLYLINE
  5
42
  8
LAYER_1
 66
     1
 10
0.0
 20
0.0
 30
0.0
 70
     1
  0
VERTEX
  5
13B
  8
LAYER_1
 10
-8.705382864645173
 20
-57.82679523540182
 30
0.0
  0
VERTEX
  5
13C
  8
LAYER_1
 10
-8.649365506841121
 20
-57.82328259946586
 30
0.0
  0
VERTEX
  5
13D
  8
LAYER_1
 10
-8.601606565130883
 20
-57.80204700839352
 30
0.0
  0
VERTEX
  5
13E
  8
LAYER_1
 10
-8.562829509566548
 20
-57.76483738538325
 30
0.0
  0
VERTEX
  5
13F
  8
LAYER_1
 10
-8.533757810200195
 20
-57.71340265363351
 30
0.0
  0
VERTEX
  5
140
  8
LAYER_1
 10
-8.515114937083908
 20
-57.64949173634272
 30
0.0
  0
VERTEX
  5
141
  8
LAYER_1
 10
-8.507624360269771
 20
-57.57485355670937
 30
0.0
  0
VERTEX
  5
142
  8
LAYER_1
 10
-8.512009549809868
 20
-57.49123703793188
 30
0.0
  0
VERTEX
  5
143
  8
LAYER_1
 10
-8.52899397575628
 20
-57.4003911032087
 30
0.0
  0
VERTEX
  5
144
  8
LAYER_1
 10
-10.40694444444445
 20
-51.59960518403837
 30
0.0
  0
VERTEX
  5
145
  8
LAYER_1
 10
-12.17083333333333
 20
-46.25398371721487
 30
0.0
  0
VERTEX
  5
146
  8
LAYER_1
 10
-15.875
 20
-44.97995194741229
 30
0.0
  0
VERTEX
  5
147
  8
LAYER_1
 10
-16.72997911848934
 20
-44.67941054462594
 30
0.0
  0
VERTEX
  5
148
  8
LAYER_1
 10
-17.57638259580481
 20
-44.36890255976946
 30
0.0
  0
VERTEX
  5
149
  8
LAYER_1
 10
-18.41413809108003
 20
-44.0485040002288
 30
0.0
  0
VERTEX
  5
14A
  8
LAYER_1
 10
-19.24317326344861
 20
-43.71829087338993
 30
0.0
  0
VERTEX
  5
14B
  8
LAYER_1
 10
-20.06341577204417
 20
-43.37833918663881
 30
0.0
  0
VERTEX
  5
14C
  8
LAYER_1
 10
-20.87479327600033
 20
-43.02872494736141
 30
0.0
  0
VERTEX
  5
14D
  8
LAYER_1
 10
-21.6772334344507
 20
-42.66952416294368
 30
0.0
  0
VERTEX
  5
14E
  8
LAYER_1
 10
-22.47066390652891
 20
-42.3008128407716
 30
0.0
  0
VERTEX
  5
14F
  8
LAYER_1
 10
-23.25501235136856
 20
-41.92266698823111
 30
0.0
  0
VERTEX
  5
150
  8
LAYER_1
 10
-24.03020642810329
 20
-41.53516261270819
 30
0.0
  0
VERTEX
  5
151
  8
LAYER_1
 10
-24.7961737958667
 20
-41.1383757215888
 30
0.0
  0
VERTEX
  5
152
  8
LAYER_1
 10
-25.55284211379241
 20
-40.7323823222589
 30
0.0
  0
VERTEX
  5
153
  8
LAYER_1
 10
-26.30013904101404
 20
-40.31725842210446
 30
0.0
  0
VERTEX
  5
154
  8
LAYER_1
 10
-27.03799223666521
 20
-39.89308002851143
 30
0.0
  0
VERTEX
  5
155
  8
LAYER_1
 10
-27.76632935987954
 20
-39.45992314886578
 30
0.0
  0
VERTEX
  5
156
  8
LAYER_1
 10
-28.48507806979064
 20
-39.01786379055348
 30
0.0
  0
VERTEX
  5
157
  8
LAYER_1
 10
-29.19416602553213
 20
-38.56697796096047
 30
0.0
  0
VERTEX
  5
158
  8
LAYER_1
 10
-29.89352088623763
 20
-38.10734166747274
 30
0.0
  0
VERTEX
  5
159
  8
LAYER_1
 10
-30.58307031104076
 20
-37.63903091747624
 30
0.0
  0
VERTEX
  5
15A
  8
LAYER_1
 10
-31.26274195907513
 20
-37.16212171835693
 30
0.0
  0
VERTEX
  5
15B
  8
LAYER_1
 10
-31.93246348947437
 20
-36.67669007750078
 30
0.0
  0
VERTEX
  5
15C
  8
LAYER_1
 10
-32.59216256137208
 20
-36.18281200229374
 30
0.0
  0
VERTEX
  5
15D
  8
LAYER_1
 10
-33.24176683390188
 20
-35.68056350012179
 30
0.0
  0
VERTEX
  5
15E
  8
LAYER_1
 10
-33.8812039661974
 20
-35.17002057837089
 30
0.0
  0
VERTEX
  5
15F
  8
LAYER_1
 10
-34.51040161739225
 20
-34.65125924442699
 30
0.0
  0
VERTEX
  5
160
  8
LAYER_1
 10
-35.12928744662004
 20
-34.12435550567606
 30
0.0
  0
VERTEX
  5
161
  8
LAYER_1
 10
-35.73778911301441
 20
-33.58938536950406
 30
0.0
  0
VERTEX
  5
162
  8
LAYER_1
 10
-36.33583427570896
 20
-33.04642484329696
 30
0.0
  0
VERTEX
  5
163
  8
LAYER_1
 10
-36.92335059383731
 20
-32.49554993444072
 30
0.0
  0
VERTEX
  5
164
  8
LAYER_1
 10
-37.50026572653309
 20
-31.9368366503213
 30
0.0
  0
VERTEX
  5
165
  8
LAYER_1
 10
-38.0665073329299
 20
-31.37036099832467
 30
0.0
  0
VERTEX
  5
166
  8
LAYER_1
 10
-38.62200307216136
 20
-30.79619898583678
 30
0.0
  0
VERTEX
  5
167
  8
LAYER_1
 10
-39.1666806033611
 20
-30.2144266202436
 30
0.0
  0
VERTEX
  5
168
  8
LAYER_1
 10
-39.70046758566272
 20
-29.6251199089311
 30
0.0
  0
VERTEX
  5
169
  8
LAYER_1
 10
-40.22329167819986
 20
-29.02835485928523
 30
0.0
  0
VERTEX
  5
16A
  8
LAYER_1
 10
-40.73508054010611
 20
-28.42420747869196
 30
0.0
  0
VERTEX
  5
16B
  8
LAYER_1
 10
-41.23576183051511
 20
-27.81275377453725
 30
0.0
  0
VERTEX
  5
16C
  8
LAYER_1
 10
-41.72526320856046
 20
-27.19406975420707
 30
0.0
  0
VERTEX
  5
16D
  8
LAYER_1
 10
-42.2035123333758
 20
-26.56823142508738
 30
0.0
  0
VERTEX
  5
16E
  8
LAYER_1
 10
-42.67043686409473
 20
-25.93531479456413
 30
0.0
  0
VERTEX
  5
16F
  8
LAYER_1
 10
-43.12596445985087
 20
-25.2953958700233
 30
0.0
  0
VERTEX
  5
170
  8
LAYER_1
 10
-43.57002277977784
 20
-24.64855065885083
 30
0.0
  0
VERTEX
  5
171
  8
LAYER_1
 10
-44.00253948300926
 20
-23.99485516843271
 30
0.0
  0
VERTEX
  5
172
  8
LAYER_1
 10
-44.42344222867874
 20
-23.33438540615489
 30
0.0
  0
VERTEX
  5
173
  8
LAYER_1
 10
-44.83265867591991
 20
-22.66721737940334
 30
0.0
  0
VERTEX
  5
174
  8
LAYER_1
 10
-45.23011648386638
 20
-21.99342709556401
 30
0.0
  0
VERTEX
  5
175
  8
LAYER_1
 10
-45.61574331165176
 20
-21.31309056202286
 30
0.0
  0
VERTEX
  5
176
  8
LAYER_1
 10
-45.98946681840967
 20
-20.62628378616588
 30
0.0
  0
VERTEX
  5
177
  8
LAYER_1
 10
-46.35121466327375
 20
-19.93308277537901
 30
0.0
  0
VERTEX
  5
178
  8
LAYER_1
 10
-46.70091450537758
 20
-19.23356353704821
 30
0.0
  0
VERTEX
  5
179
  8
LAYER_1
 10
-47.03849400385481
 20
-18.52780207855945
 30
0.0
  0
VERTEX
  5
17A
  8
LAYER_1
 10
-47.36388081783905
 20
-17.8158744072987
 30
0.0
  0
VERTEX
  5
17B
  8
LAYER_1
 10
-47.67700260646391
 20
-17.09785653065192
 30
0.0
  0
VERTEX
  5
17C
  8
LAYER_1
 10
-47.97778702886301
 20
-16.37382445600506
 30
0.0
  0
VERTEX
  5
17D
  8
LAYER_1
 10
-48.26616174416996
 20
-15.6438541907441
 30
0.0
  0
VERTEX
  5
17E
  8
LAYER_1
 10
-48.54205441151839
 20
-14.90802174225499
 30
0.0
  0
VERTEX
  5
17F
  8
LAYER_1
 10
-48.80539269004192
 20
-14.16640311792371
 30
0.0
  0
VERTEX
  5
180
  8
LAYER_1
 10
-49.05610423887416
 20
-13.4190743251362
 30
0.0
  0
VERTEX
  5
181
  8
LAYER_1
 10
-49.29411671714873
 20
-12.66611137127843
 30
0.0
  0
VERTEX
  5
182
  8
LAYER_1
 10
-49.51935778399923
 20
-11.90759026373637
 30
0.0
  0
VERTEX
  5
183
  8
LAYER_1
 10
-49.7317550985593
 20
-11.14358700989598
 30
0.0
  0
VERTEX
  5
184
  8
LAYER_1
 10
-49.93123631996256
 20
-10.37417761714322
 30
0.0
  0
VERTEX
  5
185
  8
LAYER_1
 10
-50.11772910734261
 20
-9.599438092864052
 30
0.0
  0
VERTEX
  5
186
  8
LAYER_1
 10
-50.29116111983308
 20
-8.819444444444443
 30
0.0
  0
VERTEX
  5
187
  8
LAYER_1
 10
-50.40835132031755
 20
-8.24531106705354
 30
0.0
  0
VERTEX
  5
188
  8
LAYER_1
 10
-50.5163487922628
 20
-7.66540044596358
 30
0.0
  0
VERTEX
  5
189
  8
LAYER_1
 10
-50.61518978537522
 20
-7.079871583866537
 30
0.0
  0
VERTEX
  5
18A
  8
LAYER_1
 10
-50.70491054936115
 20
-6.488883483454385
 30
0.0
  0
VERTEX
  5
18B
  8
LAYER_1
 10
-50.78554733392696
 20
-5.892595147419099
 30
0.0
  0
VERTEX
  5
18C
  8
LAYER_1
 10
-50.85713638877901
 20
-5.291165578452651
 30
0.0
  0
VERTEX
  5
18D
  8
LAYER_1
 10
-50.91971396362366
 20
-4.684753779247013
 30
0.0
  0
VERTEX
  5
18E
  8
LAYER_1
 10
-50.9733163081673
 20
-4.073518752494161
 30
0.0
  0
VERTEX
  5
18F
  8
LAYER_1
 10
-51.01797967211627
 20
-3.457619500886068
 30
0.0
  0
VERTEX
  5
190
  8
LAYER_1
 10
-51.05374030517693
 20
-2.837215027114707
 30
0.0
  0
VERTEX
  5
191
  8
LAYER_1
 10
-51.08063445705566
 20
-2.212464333872051
 30
0.0
  0
VERTEX
  5
192
  8
LAYER_1
 10
-51.09869837745882
 20
-1.583526423850073
 30
0.0
  0
VERTEX
  5
193
  8
LAYER_1
 10
-51.10796831609277
 20
-0.9505602997407481
 30
0.0
  0
VERTEX
  5
194
  8
LAYER_1
 10
-51.10848052266386
 20
-0.3137249642360487
 30
0.0
  0
VERTEX
  5
195
  8
LAYER_1
 10
-51.10027124687847
 20
0.3268205799720515
 30
0.0
  0
VERTEX
  5
196
  8
LAYER_1
 10
-51.08337673844296
 20
0.970917330191579
 30
0.0
  0
VERTEX
  5
197
  8
LAYER_1
 10
-51.05783324706371
 20
1.61840628373056
 30
0.0
  0
VERTEX
  5
198
  8
LAYER_1
 10
-51.02367702244706
 20
2.269128437897022
 30
0.0
  0
VERTEX
  5
199
  8
LAYER_1
 10
-50.98094431429938
 20
2.922924789998991
 30
0.0
  0
VERTEX
  5
19A
  8
LAYER_1
 10
-50.92967137232704
 20
3.579636337344493
 30
0.0
  0
VERTEX
  5
19B
  8
LAYER_1
 10
-50.86989444623639
 20
4.239104077241555
 30
0.0
  0
VERTEX
  5
19C
  8
LAYER_1
 10
-50.80164978573381
 20
4.901169006998204
 30
0.0
  0
VERTEX
  5
19D
  8
LAYER_1
 10
-50.72497364052566
 20
5.565672123922464
 30
0.0
  0
VERTEX
  5
19E
  8
LAYER_1
 10
-50.63990226031829
 20
6.232454425322366
 30
0.0
  0
VERTEX
  5
19F
  8
LAYER_1
 10
-50.54647189481808
 20
6.901356908505933
 30
0.0
  0
VERTEX
  5
1A0
  8
LAYER_1
 10
-50.44471879373139
 20
7.572220570781194
 30
0.0
  0
VERTEX
  5
1A1
  8
LAYER_1
 10
-50.33467920676458
 20
8.244886409456175
 30
0.0
  0
VERTEX
  5
1A2
  8
LAYER_1
 10
-50.21638938362401
 20
8.9191954218389
 30
0.0
  0
VERTEX
  5
1A3
  8
LAYER_1
 10
-50.08988557401605
 20
9.594988605237397
 30
0.0
  0
VERTEX
  5
1A4
  8
LAYER_1
 10
-49.95520402764707
 20
10.27210695695969
 30
0.0
  0
VERTEX
  5
1A5
  8
LAYER_1
 10
-49.81238099422342
 20
10.95039147431382
 30
0.0
  0
VERTEX
  5
1A6
  8
LAYER_1
 10
-49.66145272345148
 20
11.62968315460779
 30
0.0
  0
VERTEX
  5
1A7
  8
LAYER_1
 10
-49.50245546503759
 20
12.30982299514964
 30
0.0
  0
VERTEX
  5
1A8
  8
LAYER_1
 10
-49.33542546868814
 20
12.9906519932474
 30
0.0
  0
VERTEX
  5
1A9
  8
LAYER_1
 10
-49.16039898410948
 20
13.67201114620909
 30
0.0
  0
VERTEX
  5
1AA
  8
LAYER_1
 10
-48.97741226100796
 20
14.35374145134274
 30
0.0
  0
VERTEX
  5
1AB
  8
LAYER_1
 10
-48.78650154908996
 20
15.03568390595636
 30
0.0
  0
VERTEX
  5
1AC
  8
LAYER_1
 10
-48.58770309806186
 20
15.71767950735801
 30
0.0
  0
VERTEX
  5
1AD
  8
LAYER_1
 10
-48.38105315763
 20
16.39956925285568
 30
0.0
  0
VERTEX
  5
1AE
  8
LAYER_1
 10
-48.16658797750075
 20
17.08119413975743
 30
0.0
  0
VERTEX
  5
1AF
  8
LAYER_1
 10
-47.94434380738046
 20
17.76239516537127
 30
0.0
  0
VERTEX
  5
1B0
  8
LAYER_1
 10
-47.71435689697552
 20
18.44301332700522
 30
0.0
  0
VERTEX
  5
1B1
  8
LAYER_1
 10
-47.47666349599228
 20
19.12288962196732
 30
0.0
  0
VERTEX
  5
1B2
  8
LAYER_1
 10
-47.2312998541371
 20
19.80186504756558
 30
0.0
  0
VERTEX
  5
1B3
  8
LAYER_1
 10
-46.97830222111635
 20
20.47978060110805
 30
0.0
  0
VERTEX
  5
1B4
  8
LAYER_1
 10
-46.71770684663639
 20
21.15647727990274
 30
0.0
  0
VERTEX
  5
1B5
  8
LAYER_1
 10
-46.44954998040359
 20
21.83179608125767
 30
0.0
  0
VERTEX
  5
1B6
  8
LAYER_1
 10
-46.1738678721243
 20
22.50557800248089
 30
0.0
  0
VERTEX
  5
1B7
  8
LAYER_1
 10
-45.89069677150491
 20
23.17766404088041
 30
0.0
  0
VERTEX
  5
1B8
  8
LAYER_1
 10
-45.60007292825175
 20
23.84789519376425
 30
0.0
  0
VERTEX
  5
1B9
  8
LAYER_1
 10
-45.3020325920712
 20
24.51611245844045
 30
0.0
  0
VERTEX
  5
1BA
  8
LAYER_1
 10
-44.99661201266963
 20
25.18215683221704
 30
0.0
  0
VERTEX
  5
1BB
  8
LAYER_1
 10
-44.68384743975339
 20
25.84586931240203
 30
0.0
  0
VERTEX
  5
1BC
  8
LAYER_1
 10
-44.36377512302886
 20
26.50709089630347
 30
0.0
  0
VERTEX
  5
1BD
  8
LAYER_1
 10
-44.03643131220239
 20
27.16566258122936
 30
0.0
  0
VERTEX
  5
1BE
  8
LAYER_1
 10
-43.70185225698035
 20
27.82142536448774
 30
0.0
  0
VERTEX
  5
1BF
  8
LAYER_1
 10
-43.3600742070691
 20
28.47422024338664
 30
0.0
  0
VERTEX
  5
1C0
  8
LAYER_1
 10
-43.01113341217501
 20
29.12388821523408
 30
0.0
  0
VERTEX
  5
1C1
  8
LAYER_1
 10
-42.65506612200444
 20
29.77027027733808
 30
0.0
  0
VERTEX
  5
1C2
  8
LAYER_1
 10
-42.29190858626376
 20
30.41320742700669
 30
0.0
  0
VERTEX
  5
1C3
  8
LAYER_1
 10
-41.92169705465932
 20
31.05254066154791
 30
0.0
  0
VERTEX
  5
1C4
  8
LAYER_1
 10
-41.54446777689749
 20
31.68811097826978
 30
0.0
  0
VERTEX
  5
1C5
  8
LAYER_1
 10
-41.16025700268464
 20
32.31975937448033
 30
0.0
  0
VERTEX
  5
1C6
  8
LAYER_1
 10
-40.76910098172712
 20
32.94732684748757
 30
0.0
  0
VERTEX
  5
1C7
  8
LAYER_1
 10
-38.78956110238035
 20
36.08493147275293
 30
0.0
  0
VERTEX
  5
1C8
  8
LAYER_1
 10
-38.92952386178174
 20
36.22489423215201
 30
0.0
  0
VERTEX
  5
1C9
  8
LAYER_1
 10
-38.95491911134216
 20
36.22699722053952
 30
0.0
  0
VERTEX
  5
1CA
  8
LAYER_1
 10
-39.00145593284005
 20
36.20519180749052
 30
0.0
  0
VERTEX
  5
1CB
  8
LAYER_1
 10
-39.15326464330719
 20
36.09437342257027
 30
0.0
  0
VERTEX
  5
1CC
  8
LAYER_1
 10
-39.37557069650113
 20
35.9014743683657
 30
0.0
  0
VERTEX
  5
1CD
  8
LAYER_1
 10
-39.65899479573982
 20
35.63552993585132
 30
0.0
  0
VERTEX
  5
1CE
  8
LAYER_1
 10
-39.99415764434119
 20
35.30557541600159
 30
0.0
  0
VERTEX
  5
1CF
  8
LAYER_1
 10
-40.3716799456232
 20
34.92064609979097
 30
0.0
  0
VERTEX
  5
1D0
  8
LAYER_1
 10
-40.7821824029038
 20
34.48977727819396
 30
0.0
  0
VERTEX
  5
1D1
  8
LAYER_1
 10
-41.21628571950093
 20
34.02200424218501
 30
0.0
  0
VERTEX
  5
1D2
  8
LAYER_1
 10
-41.6471198430203
 20
33.5446687562899
 30
0.0
  0
VERTEX
  5
1D3
  8
LAYER_1
 10
-42.07250556661703
 20
33.05903915682872
 30
0.0
  0
VERTEX
  5
1D4
  8
LAYER_1
 10
-42.49238154171633
 20
32.56529025242801
 30
0.0
  0
VERTEX
  5
1D5
  8
LAYER_1
 10
-42.90668641974341
 20
32.06359685171432
 30
0.0
  0
VERTEX
  5
1D6
  8
LAYER_1
 10
-43.31535885212347
 20
31.55413376331423
 30
0.0
  0
VERTEX
  5
1D7
  8
LAYER_1
 10
-43.71833749028171
 20
31.03707579585428
 30
0.0
  0
VERTEX
  5
1D8
  8
LAYER_1
 10
-44.11556098564333
 20
30.51259775796104
 30
0.0
  0
VERTEX
  5
1D9
  8
LAYER_1
 10
-44.50696798963354
 20
29.98087445826105
 30
0.0
  0
VERTEX
  5
1DA
  8
LAYER_1
 10
-44.89249715367755
 20
29.44208070538088
 30
0.0
  0
VERTEX
  5
1DB
  8
LAYER_1
 10
-45.27208712920055
 20
28.89639130794709
 30
0.0
  0
VERTEX
  5
1DC
  8
LAYER_1
 10
-45.64567656762776
 20
28.34398107458623
 30
0.0
  0
VERTEX
  5
1DD
  8
LAYER_1
 10
-46.01320412038437
 20
27.78502481392486
 30
0.0
  0
VERTEX
  5
1DE
  8
LAYER_1
 10
-46.3746084388956
 20
27.21969733458954
 30
0.0
  0
VERTEX
  5
1DF
  8
LAYER_1
 10
-46.72982817458664
 20
26.64817344520683
 30
0.0
  0
VERTEX
  5
1E0
  8
LAYER_1
 10
-47.0788019788827
 20
26.07062795440328
 30
0.0
  0
VERTEX
  5
1E1
  8
LAYER_1
 10
-47.42146850320899
 20
25.48723567080545
 30
0.0
  0
VERTEX
  5
1E2
  8
LAYER_1
 10
-47.75776639899071
 20
24.8981714030399
 30
0.0
  0
VERTEX
  5
1E3
  8
LAYER_1
 10
-48.08763431765306
 20
24.30360995973318
 30
0.0
  0
VERTEX
  5
1E4
  8
LAYER_1
 10
-48.41101091062124
 20
23.70372614951187
 30
0.0
  0
VERTEX
  5
1E5
  8
LAYER_1
 10
-48.72783482932046
 20
23.0986947810025
 30
0.0
  0
VERTEX
  5
1E6
  8
LAYER_1
 10
-49.03804472517592
 20
22.48869066283164
 30
0.0
  0
VERTEX
  5
1E7
  8
LAYER_1
 10
-49.34157924961283
 20
21.87388860362586
 30
0.0
  0
VERTEX
  5
1E8
  8
LAYER_1
 10
-49.6383770540564
 20
21.2544634120117
 30
0.0
  0
VERTEX
  5
1E9
  8
LAYER_1
 10
-49.92837678993182
 20
20.63058989661572
 30
0.0
  0
VERTEX
  5
1EA
  8
LAYER_1
 10
-50.2115171086643
 20
20.00244286606448
 30
0.0
  0
VERTEX
  5
1EB
  8
LAYER_1
 10
-50.48773666167904
 20
19.37019712898454
 30
0.0
  0
VERTEX
  5
1EC
  8
LAYER_1
 10
-50.75697410040127
 20
18.73402749400245
 30
0.0
  0
VERTEX
  5
1ED
  8
LAYER_1
 10
-51.01916807625615
 20
18.09410876974478
 30
0.0
  0
VERTEX
  5
1EE
  8
LAYER_1
 10
-51.27425724066891
 20
17.45061576483808
 30
0.0
  0
VERTEX
  5
1EF
  8
LAYER_1
 10
-51.52218024506476
 20
16.80372328790891
 30
0.0
  0
VERTEX
  5
1F0
  8
LAYER_1
 10
-51.76287574086889
 20
16.15360614758382
 30
0.0
  0
VERTEX
  5
1F1
  8
LAYER_1
 10
-51.99628237950652
 20
15.50043915248938
 30
0.0
  0
VERTEX
  5
1F2
  8
LAYER_1
 10
-52.22233881240285
 20
14.84439711125214
 30
0.0
  0
VERTEX
  5
1F3
  8
LAYER_1
 10
-52.44098369098306
 20
14.18565483249866
 30
0.0
  0
VERTEX
  5
1F4
  8
LAYER_1
 10
-52.65215566667238
 20
13.52438712485549
 30
0.0
  0
VERTEX
  5
1F5
  8
LAYER_1
 10
-52.855793390896
 20
12.86076879694921
 30
0.0
  0
VERTEX
  5
1F6
  8
LAYER_1
 10
-53.05183551507913
 20
12.19497465740635
 30
0.0
  0
VERTEX
  5
1F7
  8
LAYER_1
 10
-53.24022069064698
 20
11.52717951485348
 30
0.0
  0
VERTEX
  5
1F8
  8
LAYER_1
 10
-53.42088756902474
 20
10.85755817791716
 30
0.0
  0
VERTEX
  5
1F9
  8
LAYER_1
 10
-53.59377480163764
 20
10.18628545522395
 30
0.0
  0
VERTEX
  5
1FA
  8
LAYER_1
 10
-53.75882103991086
 20
9.513536155400399
 30
0.0
  0
VERTEX
  5
1FB
  8
LAYER_1
 10
-53.91596493526961
 20
8.839485087073069
 30
0.0
  0
VERTEX
  5
1FC
  8
LAYER_1
 10
-54.06514513913909
 20
8.16430705886852
 30
0.0
  0
VERTEX
  5
1FD
  8
LAYER_1
 10
-54.20630030294451
 20
7.488176879413302
 30
0.0
  0
VERTEX
  5
1FE
  8
LAYER_1
 10
-54.33936907811108
 20
6.81126935733398
 30
0.0
  0
VERTEX
  5
1FF
  8
LAYER_1
 10
-54.46429011606399
 20
6.133759301257109
 30
0.0
  0
VERTEX
  5
200
  8
LAYER_1
 10
-54.58100206822846
 20
5.455821519809248
 30
0.0
  0
VERTEX
  5
201
  8
LAYER_1
 10
-54.68944358602968
 20
4.777630821616953
 30
0.0
  0
VERTEX
  5
202
  8
LAYER_1
 10
-54.78955332089286
 20
4.099362015306783
 30
0.0
  0
VERTEX
  5
203
  8
LAYER_1
 10
-54.88126992424321
 20
3.421189909505293
 30
0.0
  0
VERTEX
  5
204
  8
LAYER_1
 10
-54.96453204750593
 20
2.743289312839043
 30
0.0
  0
VERTEX
  5
205
  8
LAYER_1
 10
-55.03927834210621
 20
2.065835033934591
 30
0.0
  0
VERTEX
  5
206
  8
LAYER_1
 10
-55.10544745946927
 20
1.389001881418493
 30
0.0
  0
VERTEX
  5
207
  8
LAYER_1
 10
-55.16297805102032
 20
0.712964663917308
 30
0.0
  0
VERTEX
  5
208
  8
LAYER_1
 10
-55.21180876818455
 20
0.0378981900575929
 30
0.0
  0
VERTEX
  5
209
  8
LAYER_1
 10
-55.25187826238717
 20
-0.6360227315340944
 30
0.0
  0
VERTEX
  5
20A
  8
LAYER_1
 10
-55.28312518505339
 20
-1.308623292231196
 30
0.0
  0
VERTEX
  5
20B
  8
LAYER_1
 10
-55.3054881876084
 20
-1.979728683407155
 30
0.0
  0
VERTEX
  5
20C
  8
LAYER_1
 10
-55.31890592147741
 20
-2.649164096435413
 30
0.0
  0
VERTEX
  5
20D
  8
LAYER_1
 10
-55.32331703808563
 20
-3.316754722689413
 30
0.0
  0
VERTEX
  5
20E
  8
LAYER_1
 10
-55.31866018885826
 20
-3.982325753542596
 30
0.0
  0
VERTEX
  5
20F
  8
LAYER_1
 10
-55.3048740252205
 20
-4.645702380368406
 30
0.0
  0
VERTEX
  5
210
  8
LAYER_1
 10
-55.28189719859756
 20
-5.306709794540285
 30
0.0
  0
VERTEX
  5
211
  8
LAYER_1
 10
-55.24966836041463
 20
-5.965173187431674
 30
0.0
  0
VERTEX
  5
212
  8
LAYER_1
 10
-55.17991721861193
 20
-7.027280769174148
 30
0.0
  0
VERTEX
  5
213
  8
LAYER_1
 10
-55.09022414008643
 20
-8.084841686060944
 30
0.0
  0
VERTEX
  5
214
  8
LAYER_1
 10
-54.98075757941095
 20
-9.137634149995819
 30
0.0
  0
VERTEX
  5
215
  8
LAYER_1
 10
-54.8516859911583
 20
-10.18543637288253
 30
0.0
  0
VERTEX
  5
216
  8
LAYER_1
 10
-54.70317782990129
 20
-11.22802656662485
 30
0.0
  0
VERTEX
  5
217
  8
LAYER_1
 10
-54.53540155021274
 20
-12.26518294312653
 30
0.0
  0
VERTEX
  5
218
  8
LAYER_1
 10
-54.34852560666545
 20
-13.29668371429132
 30
0.0
  0
VERTEX
  5
219
  8
LAYER_1
 10
-54.14271845383226
 20
-14.32230709202299
 30
0.0
  0
VERTEX
  5
21A
  8
LAYER_1
 10
-53.91814854628595
 20
-15.3418312882253
 30
0.0
  0
VERTEX
  5
21B
  8
LAYER_1
 10
-53.67498433859936
 20
-16.35503451480201
 30
0.0
  0
VERTEX
  5
21C
  8
LAYER_1
 10
-53.41339428534529
 20
-17.36169498365688
 30
0.0
  0
VERTEX
  5
21D
  8
LAYER_1
 10
-53.13354684109656
 20
-18.36159090669367
 30
0.0
  0
VERTEX
  5
21E
  8
LAYER_1
 10
-52.83561046042597
 20
-19.35450049581613
 30
0.0
  0
VERTEX
  5
21F
  8
LAYER_1
 10
-52.51975359790635
 20
-20.34020196292802
 30
0.0
  0
VERTEX
  5
220
  8
LAYER_1
 10
-52.1861447081105
 20
-21.31847351993312
 30
0.0
  0
VERTEX
  5
221
  8
LAYER_1
 10
-51.83495224561125
 20
-22.28909337873517
 30
0.0
  0
VERTEX
  5
222
  8
LAYER_1
 10
-51.46634466498139
 20
-23.25183975123793
 30
0.0
  0
VERTEX
  5
223
  8
LAYER_1
 10
-51.08049042079375
 20
-24.20649084934517
 30
0.0
  0
VERTEX
  5
224
  8
LAYER_1
 10
-50.67755796762114
 20
-25.15282488496064
 30
0.0
  0
VERTEX
  5
225
  8
LAYER_1
 10
-50.25771576003638
 20
-26.09062006998811
 30
0.0
  0
VERTEX
  5
226
  8
LAYER_1
 10
-49.82113225261227
 20
-27.01965461633134
 30
0.0
  0
VERTEX
  5
227
  8
LAYER_1
 10
-49.36797589992163
 20
-27.93970673589407
 30
0.0
  0
VERTEX
  5
228
  8
LAYER_1
 10
-48.89841515653727
 20
-28.85055464058008
 30
0.0
  0
VERTEX
  5
229
  8
LAYER_1
 10
-48.41261847703201
 20
-29.75197654229312
 30
0.0
  0
VERTEX
  5
22A
  8
LAYER_1
 10
-47.91075431597865
 20
-30.64375065293695
 30
0.0
  0
VERTEX
  5
22B
  8
LAYER_1
 10
-47.39299112795001
 20
-31.52565518441534
 30
0.0
  0
VERTEX
  5
22C
  8
LAYER_1
 10
-46.85949736751891
 20
-32.39746834863204
 30
0.0
  0
VERTEX
  5
22D
  8
LAYER_1
 10
-46.31044148925817
 20
-33.2589683574908
 30
0.0
  0
VERTEX
  5
22E
  8
LAYER_1
 10
-45.74599194774058
 20
-34.1099334228954
 30
0.0
  0
VERTEX
  5
22F
  8
LAYER_1
 10
-45.16631719753897
 20
-34.95014175674959
 30
0.0
  0
VERTEX
  5
230
  8
LAYER_1
 10
-44.57158569322614
 20
-35.77937157095713
 30
0.0
  0
VERTEX
  5
231
  8
LAYER_1
 10
-43.96196588937492
 20
-36.59740107742178
 30
0.0
  0
VERTEX
  5
232
  8
LAYER_1
 10
-43.33762624055811
 20
-37.4040084880473
 30
0.0
  0
VERTEX
  5
233
  8
LAYER_1
 10
-42.69873520134852
 20
-38.19897201473744
 30
0.0
  0
VERTEX
  5
234
  8
LAYER_1
 10
-42.04546122631898
 20
-38.98206986939598
 30
0.0
  0
VERTEX
  5
235
  8
LAYER_1
 10
-41.37797277004229
 20
-39.75308026392666
 30
0.0
  0
VERTEX
  5
236
  8
LAYER_1
 10
-40.69643828709128
 20
-40.51178141023325
 30
0.0
  0
VERTEX
  5
237
  8
LAYER_1
 10
-40.00102623203874
 20
-41.25795152021951
 30
0.0
  0
VERTEX
  5
238
  8
LAYER_1
 10
-39.29190505945749
 20
-41.9913688057892
 30
0.0
  0
VERTEX
  5
239
  8
LAYER_1
 10
-38.56924322392036
 20
-42.71181147884607
 30
0.0
  0
VERTEX
  5
23A
  8
LAYER_1
 10
-37.83320918000015
 20
-43.41905775129389
 30
0.0
  0
VERTEX
  5
23B
  8
LAYER_1
 10
-37.08397138226967
 20
-44.11288583503642
 30
0.0
  0
VERTEX
  5
23C
  8
LAYER_1
 10
-36.32169828530173
 20
-44.79307394197741
 30
0.0
  0
VERTEX
  5
23D
  8
LAYER_1
 10
-35.54655834366915
 20
-45.45940028402062
 30
0.0
  0
VERTEX
  5
23E
  8
LAYER_1
 10
-34.75872001194476
 20
-46.11164307306982
 30
0.0
  0
VERTEX
  5
23F
  8
LAYER_1
 10
-33.95835174470135
 20
-46.74958052102877
 30
0.0
  0
VERTEX
  5
240
  8
LAYER_1
 10
-33.14562199651173
 20
-47.37299083980122
 30
0.0
  0
VERTEX
  5
241
  8
LAYER_1
 10
-32.32069922194873
 20
-47.98165224129093
 30
0.0
  0
VERTEX
  5
242
  8
LAYER_1
 10
-31.48375187558516
 20
-48.57534293740167
 30
0.0
  0
VERTEX
  5
243
  8
LAYER_1
 10
-30.63494841199382
 20
-49.15384114003719
 30
0.0
  0
VERTEX
  5
244
  8
LAYER_1
 10
-29.77445728574754
 20
-49.71692506110126
 30
0.0
  0
VERTEX
  5
245
  8
LAYER_1
 10
-28.90244695141912
 20
-50.26437291249762
 30
0.0
  0
VERTEX
  5
246
  8
LAYER_1
 10
-28.01908586358139
 20
-50.79596290613004
 30
0.0
  0
VERTEX
  5
247
  8
LAYER_1
 10
-27.12454247680715
 20
-51.31147325390229
 30
0.0
  0
VERTEX
  5
248
  8
LAYER_1
 10
-26.21898524566922
 20
-51.81068216771811
 30
0.0
  0
VERTEX
  5
249
  8
LAYER_1
 10
-25.3025826247404
 20
-52.29336785948128
 30
0.0
  0
VERTEX
  5
24A
  8
LAYER_1
 10
-24.37550306859352
 20
-52.75930854109555
 30
0.0
  0
VERTEX
  5
24B
  8
LAYER_1
 10
-23.43791503180138
 20
-53.20828242446468
 30
0.0
  0
VERTEX
  5
24C
  8
LAYER_1
 10
-22.4899869689368
 20
-53.64006772149243
 30
0.0
  0
VERTEX
  5
24D
  8
LAYER_1
 10
-21.53188733457259
 20
-54.05444264408256
 30
0.0
  0
VERTEX
  5
24E
  8
LAYER_1
 10
-20.56378458328157
 20
-54.45118540413882
 30
0.0
  0
VERTEX
  5
24F
  8
LAYER_1
 10
-19.58584716963655
 20
-54.83007421356498
 30
0.0
  0
VERTEX
  5
250
  8
LAYER_1
 10
-18.59824354821034
 20
-55.1908872842648
 30
0.0
  0
VERTEX
  5
251
  8
LAYER_1
 10
-17.60114217357576
 20
-55.53340282814204
 30
0.0
  0
VERTEX
  5
252
  8
LAYER_1
 10
-16.41738626324911
 20
-55.91213896934974
 30
0.0
  0
VERTEX
  5
253
  8
LAYER_1
 10
-15.14688556690397
 20
-56.2922228050597
 30
0.0
  0
VERTEX
  5
254
  8
LAYER_1
 10
-13.84326761993679
 20
-56.65982876083505
 30
0.0
  0
VERTEX
  5
255
  8
LAYER_1
 10
-12.56015995774398
 20
-57.00113126223893
 30
0.0
  0
VERTEX
  5
256
  8
LAYER_1
 10
-11.35119011572198
 20
-57.30230473483443
 30
0.0
  0
VERTEX
  5
257
  8
LAYER_1
 10
-10.26998562926723
 20
-57.54952360418467
 30
0.0
  0
VERTEX
  5
258
  8
LAYER_1
 10
-9.794053999188948
 20
-57.64857957063129
 30
0.0
  0
VERTEX
  5
259
  8
LAYER_1
 10
-9.370174033776145
 20
-57.72896229585276
 30
0.0
  0
VERTEX
  5
25A
  8
LAYER_1
 10
-9.005049174953369
 20
-57.78894358304448
 30
0.0
  0
SEQEND
  5
25B
  8
LAYER_1
  0
POLYLINE
  5
43
  8
LAYER_1
 66
     1
 10
0.0
 20
0.0
 30
0.0
 70
     1
  0
VERTEX
  5
25C
  8
LAYER_1
 10
13.65611966282705
 20
-56.79722222222222
 30
0.0
  0
VERTEX
  5
25D
  8
LAYER_1
 10
13.74900000688972
 20
-56.78974930741498
 30
0.0
  0
VERTEX
  5
25E
  8
LAYER_1
 10
13.87629149094857
 20
-56.767801088381
 30
0.0
  0
VERTEX
  5
25F
  8
LAYER_1
 10
14.22648190139939
 20
-56.68330188995932
 30
0.0
  0
VERTEX
  5
260
  8
LAYER_1
 10
14.69143893886878
 20
-56.54937093161013
 30
0.0
  0
VERTEX
  5
261
  8
LAYER_1
 10
15.255910648046
 20
-56.37165451798644
 30
0.0
  0
VERTEX
  5
262
  8
LAYER_1
 10
15.90464507362034
 20
-56.15579895374117
 30
0.0
  0
VERTEX
  5
263
  8
LAYER_1
 10
16.62239026028104
 20
-55.9074505435273
 30
0.0
  0
VERTEX
  5
264
  8
LAYER_1
 10
18.20390509561863
 20
-55.33586040380563
 30
0.0
  0
VERTEX
  5
265
  8
LAYER_1
 10
19.8784395115729
 20
-54.70205453604514
 30
0.0
  0
VERTEX
  5
266
  8
LAYER_1
 10
21.52397786565799
 20
-54.05120337746958
 30
0.0
  0
VERTEX
  5
267
  8
LAYER_1
 10
22.29774363122276
 20
-53.73350157575855
 30
0.0
  0
VERTEX
  5
268
  8
LAYER_1
 10
23.01850451538804
 20
-53.42847736530264
 30
0.0
  0
VERTEX
  5
269
  8
LAYER_1
 10
23.67100856284309
 20
-53.14177705075484
 30
0.0
  0
VERTEX
  5
26A
  8
LAYER_1
 10
24.24000381827717
 20
-52.87904693676808
 30
0.0
  0
VERTEX
  5
26B
  8
LAYER_1
 10
25.08530512156283
 20
-52.46152520630471
 30
0.0
  0
VERTEX
  5
26C
  8
LAYER_1
 10
25.95357927785852
 20
-52.00439412857334
 30
0.0
  0
VERTEX
  5
26D
  8
LAYER_1
 10
26.84062226456938
 20
-51.5106059117185
 30
0.0
  0
VERTEX
  5
26E
  8
LAYER_1
 10
27.74223005910053
 20
-50.98311276388472
 30
0.0
  0
VERTEX
  5
26F
  8
LAYER_1
 10
28.65419863885709
 20
-50.42486689321653
 30
0.0
  0
VERTEX
  5
270
  8
LAYER_1
 10
29.57232398124419
 20
-49.83882050785847
 30
0.0
  0
VERTEX
  5
271
  8
LAYER_1
 10
30.49240206366697
 20
-49.22792581595507
 30
0.0
  0
VERTEX
  5
272
  8
LAYER_1
 10
31.41022886353053
 20
-48.59513502565086
 30
0.0
  0
VERTEX
  5
273
  8
LAYER_1
 10
32.32160035824002
 20
-47.94340034509039
 30
0.0
  0
VERTEX
  5
274
  8
LAYER_1
 10
33.22231252520056
 20
-47.27567398241817
 30
0.0
  0
VERTEX
  5
275
  8
LAYER_1
 10
34.10816134181728
 20
-46.59490814577875
 30
0.0
  0
VERTEX
  5
276
  8
LAYER_1
 10
34.9749427854953
 20
-45.90405504331666
 30
0.0
  0
VERTEX
  5
277
  8
LAYER_1
 10
35.81845283363974
 20
-45.20606688317643
 30
0.0
  0
VERTEX
  5
278
  8
LAYER_1
 10
36.63448746365574
 20
-44.5038958735026
 30
0.0
  0
VERTEX
  5
279
  8
LAYER_1
 10
37.41884265294843
 20
-43.8004942224397
 30
0.0
  0
VERTEX
  5
27A
  8
LAYER_1
 10
38.16731437892294
 20
-43.09881413813225
 30
0.0
  0
VERTEX
  5
27B
  8
LAYER_1
 10
38.71129785654173
 20
-42.56986689225208
 30
0.0
  0
VERTEX
  5
27C
  8
LAYER_1
 10
39.24711863843304
 20
-42.03514713385939
 30
0.0
  0
VERTEX
  5
27D
  8
LAYER_1
 10
39.77474672765329
 20
-41.4947291897202
 30
0.0
  0
VERTEX
  5
27E
  8
LAYER_1
 10
40.29415212725895
 20
-40.94868738660052
 30
0.0
  0
VERTEX
  5
27F
  8
LAYER_1
 10
40.80530484030648
 20
-40.39709605126635
 30
0.0
  0
VERTEX
  5
280
  8
LAYER_1
 10
41.30817486985232
 20
-39.8400295104837
 30
0.0
  0
VERTEX
  5
281
  8
LAYER_1
 10
41.80273221895293
 20
-39.27756209101858
 30
0.0
  0
VERTEX
  5
282
  8
LAYER_1
 10
42.28894689066476
 20
-38.70976811963701
 30
0.0
  0
VERTEX
  5
283
  8
LAYER_1
 10
42.76678888804427
 20
-38.13672192310499
 30
0.0
  0
VERTEX
  5
284
  8
LAYER_1
 10
43.23622821414791
 20
-37.55849782818851
 30
0.0
  0
VERTEX
  5
285
  8
LAYER_1
 10
43.69723487203213
 20
-36.97517016165361
 30
0.0
  0
VERTEX
  5
286
  8
LAYER_1
 10
44.14977886475339
 20
-36.38681325026628
 30
0.0
  0
VERTEX
  5
287
  8
LAYER_1
 10
44.59383019536814
 20
-35.79350142079254
 30
0.0
  0
VERTEX
  5
288
  8
LAYER_1
 10
45.02935886693284
 20
-35.19530899999837
 30
0.0
  0
VERTEX
  5
289
  8
LAYER_1
 10
45.45633488250393
 20
-34.59231031464981
 30
0.0
  0
VERTEX
  5
28A
  8
LAYER_1
 10
45.87472824513787
 20
-33.98457969151286
 30
0.0
  0
VERTEX
  5
28B
  8
LAYER_1
 10
46.28450895789113
 20
-33.37219145735353
 30
0.0
  0
VERTEX
  5
28C
  8
LAYER_1
 10
46.68564702382014
 20
-32.75521993893781
 30
0.0
  0
VERTEX
  5
28D
  8
LAYER_1
 10
47.07811244598136
 20
-32.13373946303174
 30
0.0
  0
VERTEX
  5
28E
  8
LAYER_1
 10
47.46187522743125
 20
-31.5078243564013
 30
0.0
  0
VERTEX
  5
28F
  8
LAYER_1
 10
47.83690537122627
 20
-30.87754894581251
 30
0.0
  0
VERTEX
  5
290
  8
LAYER_1
 10
48.20317288042284
 20
-30.24298755803139
 30
0.0
  0
VERTEX
  5
291
  8
LAYER_1
 10
48.56064775807745
 20
-29.60421451982393
 30
0.0
  0
VERTEX
  5
292
  8
LAYER_1
 10
48.90930000724654
 20
-28.96130415795614
 30
0.0
  0
VERTEX
  5
293
  8
LAYER_1
 10
49.24909963098657
 20
-28.31433079919404
 30
0.0
  0
VERTEX
  5
294
  8
LAYER_1
 10
49.58001663235399
 20
-27.66336877030363
 30
0.0
  0
VERTEX
  5
295
  8
LAYER_1
 10
49.90202101440524
 20
-27.00849239805092
 30
0.0
  0
VERTEX
  5
296
  8
LAYER_1
 10
50.21508278019679
 20
-26.34977600920191
 30
0.0
  0
VERTEX
  5
297
  8
LAYER_1
 10
50.5191719327851
 20
-25.68729393052263
 30
0.0
  0
VERTEX
  5
298
  8
LAYER_1
 10
50.81425847522659
 20
-25.02112048877907
 30
0.0
  0
VERTEX
  5
299
  8
LAYER_1
 10
51.10031241057775
 20
-24.35133001073725
 30
0.0
  0
VERTEX
  5
29A
  8
LAYER_1
 10
51.37730374189502
 20
-23.67799682316317
 30
0.0
  0
VERTEX
  5
29B
  8
LAYER_1
 10
51.64520247223485
 20
-23.00119525282284
 30
0.0
  0
VERTEX
  5
29C
  8
LAYER_1
 10
51.9039786046537
 20
-22.32099962648227
 30
0.0
  0
VERTEX
  5
29D
  8
LAYER_1
 10
52.15360214220802
 20
-21.63748427090747
 30
0.0
  0
VERTEX
  5
29E
  8
LAYER_1
 10
52.39404308795427
 20
-20.95072351286445
 30
0.0
  0
VERTEX
  5
29F
  8
LAYER_1
 10
52.6252714449489
 20
-20.26079167911921
 30
0.0
  0
VERTEX
  5
2A0
  8
LAYER_1
 10
52.84725721624836
 20
-19.56776309643777
 30
0.0
  0
VERTEX
  5
2A1
  8
LAYER_1
 10
53.05997040490911
 20
-18.87171209158613
 30
0.0
  0
VERTEX
  5
2A2
  8
LAYER_1
 10
53.26338101398758
 20
-18.17271299133029
 30
0.0
  0
VERTEX
  5
2A3
  8
LAYER_1
 10
53.45745904654027
 20
-17.47084012243628
 30
0.0
  0
VERTEX
  5
2A4
  8
LAYER_1
 10
53.64217450562359
 20
-16.76616781167009
 30
0.0
  0
VERTEX
  5
2A5
  8
LAYER_1
 10
53.817497394294
 20
-16.05877038579775
 30
0.0
  0
VERTEX
  5
2A6
  8
LAYER_1
 10
53.98339771560798
 20
-15.34872217158524
 30
0.0
  0
VERTEX
  5
2A7
  8
LAYER_1
 10
54.13984547262196
 20
-14.63609749579859
 30
0.0
  0
VERTEX
  5
2A8
  8
LAYER_1
 10
54.28681066839241
 20
-13.9209706852038
 30
0.0
  0
VERTEX
  5
2A9
  8
LAYER_1
 10
54.42426330597577
 20
-13.20341606656688
 30
0.0
  0
VERTEX
  5
2AA
  8
LAYER_1
 10
54.5521733884285
 20
-12.48350796665384
 30
0.0
  0
VERTEX
  5
2AB
  8
LAYER_1
 10
54.67051091880705
 20
-11.76132071223069
 30
0.0
  0
VERTEX
  5
2AC
  8
LAYER_1
 10
54.77924590016788
 20
-11.03692863006343
 30
0.0
  0
VERTEX
  5
2AD
  8
LAYER_1
 10
54.87834833556742
 20
-10.31040604691808
 30
0.0
  0
VERTEX
  5
2AE
  8
LAYER_1
 10
54.96778822806216
 20
-9.581827289560632
 30
0.0
  0
VERTEX
  5
2AF
  8
LAYER_1
 10
55.04753558070854
 20
-8.85126668475711
 30
0.0
  0
VERTEX
  5
2B0
  8
LAYER_1
 10
55.117560396563
 20
-8.118798559273518
 30
0.0
  0
VERTEX
  5
2B1
  8
LAYER_1
 10
55.17783267868201
 20
-7.384497239875863
 30
0.0
  0
VERTEX
  5
2B2
  8
LAYER_1
 10
55.22832243012202
 20
-6.648437053330155
 30
0.0
  0
VERTEX
  5
2B3
  8
LAYER_1
 10
55.26899965393948
 20
-5.910692326402401
 30
0.0
  0
VERTEX
  5
2B4
  8
LAYER_1
 10
55.29983435319085
 20
-5.171337385858609
 30
0.0
  0
VERTEX
  5
2B5
  8
LAYER_1
 10
55.32079653093257
 20
-4.43044655846479
 30
0.0
  0
VERTEX
  5
2B6
  8
LAYER_1
 10
55.3318561902211
 20
-3.688094170986951
 30
0.0
  0
VERTEX
  5
2B7
  8
LAYER_1
 10
55.3329833341129
 20
-2.9443545501911
 30
0.0
  0
VERTEX
  5
2B8
  8
LAYER_1
 10
55.32414796566442
 20
-2.199302022843246
 30
0.0
  0
VERTEX
  5
2B9
  8
LAYER_1
 10
55.30532008793212
 20
-1.453010915709398
 30
0.0
  0
VERTEX
  5
2BA
  8
LAYER_1
 10
55.27646970397244
 20
-0.7055555555555628
 30
0.0
  0
VERTEX
  5
2BB
  8
LAYER_1
 10
55.2351897556285
 20
0.0879570897563625
 30
0.0
  0
VERTEX
  5
2BC
  8
LAYER_1
 10
55.18336948744562
 20
0.8784188259925283
 30
0.0
  0
VERTEX
  5
2BD
  8
LAYER_1
 10
55.12103754547441
 20
1.665776135841063
 30
0.0
  0
VERTEX
  5
2BE
  8
LAYER_1
 10
55.04822257576544
 20
2.449975501990096
 30
0.0
  0
VERTEX
  5
2BF
  8
LAYER_1
 10
54.9649532243693
 20
3.230963407127756
 30
0.0
  0
VERTEX
  5
2C0
  8
LAYER_1
 10
54.87125813733661
 20
4.008686333942173
 30
0.0
  0
VERTEX
  5
2C1
  8
LAYER_1
 10
54.76716596071793
 20
4.783090765121472
 30
0.0
  0
VERTEX
  5
2C2
  8
LAYER_1
 10
54.65270534056387
 20
5.554123183353786
 30
0.0
  0
VERTEX
  5
2C3
  8
LAYER_1
 10
54.52790492292501
 20
6.321730071327242
 30
0.0
  0
VERTEX
  5
2C4
  8
LAYER_1
 10
54.39279335385195
 20
7.085857911729969
 30
0.0
  0
VERTEX
  5
2C5
  8
LAYER_1
 10
54.24739927939527
 20
7.846453187250095
 30
0.0
  0
VERTEX
  5
2C6
  8
LAYER_1
 10
54.09175134560557
 20
8.60346238057575
 30
0.0
  0
VERTEX
  5
2C7
  8
LAYER_1
 10
53.92587819853345
 20
9.356831974395064
 30
0.0
  0
VERTEX
  5
2C8
  8
LAYER_1
 10
53.74980848422948
 20
10.10650845139616
 30
0.0
  0
VERTEX
  5
2C9
  8
LAYER_1
 10
53.56357084874426
 20
10.85243829426718
 30
0.0
  0
VERTEX
  5
2CA
  8
LAYER_1
 10
53.36719393812839
 20
11.59456798569624
 30
0.0
  0
VERTEX
  5
2CB
  8
LAYER_1
 10
53.16070639843245
 20
12.33284400837147
 30
0.0
  0
VERTEX
  5
2CC
  8
LAYER_1
 10
52.94413687570704
 20
13.06721284498101
 30
0.0
  0
VERTEX
  5
2CD
  8
LAYER_1
 10
52.71751401600275
 20
13.79762097821297
 30
0.0
  0
VERTEX
  5
2CE
  8
LAYER_1
 10
52.48086646537017
 20
14.5240148907555
 30
0.0
  0
VERTEX
  5
2CF
  8
LAYER_1
 10
52.23422286985989
 20
15.24634106529671
 30
0.0
  0
VERTEX
  5
2D0
  8
LAYER_1
 10
51.97761187552251
 20
15.96454598452474
 30
0.0
  0
VERTEX
  5
2D1
  8
LAYER_1
 10
51.71106212840861
 20
16.67857613112771
 30
0.0
  0
VERTEX
  5
2D2
  8
LAYER_1
 10
51.43460227456877
 20
17.38837798779376
 30
0.0
  0
VERTEX
  5
2D3
  8
LAYER_1
 10
51.14826096005361
 20
18.09389803721102
 30
0.0
  0
VERTEX
  5
2D4
  8
LAYER_1
 10
50.85206683091371
 20
18.79508276206761
 30
0.0
  0
VERTEX
  5
2D5
  8
LAYER_1
 10
50.54604853319966
 20
19.49187864505166
 30
0.0
  0
VERTEX
  5
2D6
  8
LAYER_1
 10
50.23023471296204
 20
20.1842321688513
 30
0.0
  0
VERTEX
  5
2D7
  8
LAYER_1
 10
49.90465401625146
 20
20.87208981615465
 30
0.0
  0
VERTEX
  5
2D8
  8
LAYER_1
 10
49.5693350891185
 20
21.55539806964985
 30
0.0
  0
VERTEX
  5
2D9
  8
LAYER_1
 10
49.22430657761375
 20
22.23410341202504
 30
0.0
  0
VERTEX
  5
2DA
  8
LAYER_1
 10
48.86959712778781
 20
22.90815232596833
 30
0.0
  0
VERTEX
  5
2DB
  8
LAYER_1
 10
48.50523538569127
 20
23.57749129416785
 30
0.0
  0
VERTEX
  5
2DC
  8
LAYER_1
 10
48.13124999737472
 20
24.24206679931174
 30
0.0
  0
VERTEX
  5
2DD
  8
LAYER_1
 10
47.74766960888874
 20
24.90182532408811
 30
0.0
  0
VERTEX
  5
2DE
  8
LAYER_1
 10
47.35452286628394
 20
25.55671335118511
 30
0.0
  0
VERTEX
  5
2DF
  8
LAYER_1
 10
46.95183841561089
 20
26.20667736329086
 30
0.0
  0
VERTEX
  5
2E0
  8
LAYER_1
 10
46.53964490292021
 20
26.85166384309349
 30
0.0
  0
VERTEX
  5
2E1
  8
LAYER_1
 10
46.11797097426246
 20
27.49161927328112
 30
0.0
  0
VERTEX
  5
2E2
  8
LAYER_1
 10
45.68684527568826
 20
28.1264901365419
 30
0.0
  0
VERTEX
  5
2E3
  8
LAYER_1
 10
45.24629645324818
 20
28.75622291556393
 30
0.0
  0
VERTEX
  5
2E4
  8
LAYER_1
 10
44.79635315299282
 20
29.38076409303536
 30
0.0
  0
VERTEX
  5
2E5
  8
LAYER_1
 10
44.33704402097278
 20
30.00006015164432
 30
0.0
  0
VERTEX
  5
2E6
  8
LAYER_1
 10
43.86839770323864
 20
30.61405757407892
 30
0.0
  0
VERTEX
  5
2E7
  8
LAYER_1
 10
43.39044284584098
 20
31.22270284302731
 30
0.0
  0
VERTEX
  5
2E8
  8
LAYER_1
 10
42.90320809483042
 20
31.8259424411776
 30
0.0
  0
VERTEX
  5
2E9
  8
LAYER_1
 10
42.40672209625753
 20
32.42372285121793
 30
0.0
  0
VERTEX
  5
2EA
  8
LAYER_1
 10
41.90101349617291
 20
33.01599055583643
 30
0.0
  0
VERTEX
  5
2EB
  8
LAYER_1
 10
41.38611094062714
 20
33.60269203772123
 30
0.0
  0
VERTEX
  5
2EC
  8
LAYER_1
 10
40.86204307567083
 20
34.18377377956045
 30
0.0
  0
VERTEX
  5
2ED
  8
LAYER_1
 10
40.32883854735456
 20
34.75918226404222
 30
0.0
  0
VERTEX
  5
2EE
  8
LAYER_1
 10
39.78652600172892
 20
35.32886397385468
 30
0.0
  0
VERTEX
  5
2EF
  8
LAYER_1
 10
39.23513408484451
 20
35.89276539168595
 30
0.0
  0
VERTEX
  5
2F0
  8
LAYER_1
 10
38.67469144275191
 20
36.45083300022415
 30
0.0
  0
VERTEX
  5
2F1
  8
LAYER_1
 10
38.10522672150172
 20
37.00301328215743
 30
0.0
  0
VERTEX
  5
2F2
  8
LAYER_1
 10
37.52676856714452
 20
37.5492527201739
 30
0.0
  0
VERTEX
  5
2F3
  8
LAYER_1
 10
36.93934562573092
 20
38.0894977969617
 30
0.0
  0
VERTEX
  5
2F4
  8
LAYER_1
 10
36.3429865433115
 20
38.62369499520896
 30
0.0
  0
VERTEX
  5
2F5
  8
LAYER_1
 10
35.73771996593685
 20
39.1517907976038
 30
0.0
  0
VERTEX
  5
2F6
  8
LAYER_1
 10
35.12357453965756
 20
39.67373168683436
 30
0.0
  0
VERTEX
  5
2F7
  8
LAYER_1
 10
34.50057891052423
 20
40.18946414558876
 30
0.0
  0
VERTEX
  5
2F8
  8
LAYER_1
 10
33.86876172458744
 20
40.69893465655512
 30
0.0
  0
VERTEX
  5
2F9
  8
LAYER_1
 10
33.22815162789779
 20
41.20208970242159
 30
0.0
  0
VERTEX
  5
2FA
  8
LAYER_1
 10
32.57877726650588
 20
41.69887576587628
 30
0.0
  0
VERTEX
  5
2FB
  8
LAYER_1
 10
30.69498581980717
 20
43.12115210958174
 30
0.0
  0
VERTEX
  5
2FC
  8
LAYER_1
 10
30.06924913951019
 20
42.34840001992632
 30
0.0
  0
VERTEX
  5
2FD
  8
LAYER_1
 10
29.97703693149046
 20
42.24160007358992
 30
0.0
  0
VERTEX
  5
2FE
  8
LAYER_1
 10
29.87934625772424
 20
42.14292192261576
 30
0.0
  0
VERTEX
  5
2FF
  8
LAYER_1
 10
29.77494306360281
 20
42.05194076486078
 30
0.0
  0
VERTEX
  5
300
  8
LAYER_1
 10
29.6625932945174
 20
41.96823179818193
 30
0.0
  0
VERTEX
  5
301
  8
LAYER_1
 10
29.54106289585927
 20
41.89137022043616
 30
0.0
  0
VERTEX
  5
302
  8
LAYER_1
 10
29.40911781301967
 20
41.82093122948043
 30
0.0
  0
VERTEX
  5
303
  8
LAYER_1
 10
29.26552399138984
 20
41.75649002317168
 30
0.0
  0
VERTEX
  5
304
  8
LAYER_1
 10
29.10904737636104
 20
41.69762179936686
 30
0.0
  0
VERTEX
  5
305
  8
LAYER_1
 10
28.93845391332452
 20
41.64390175592293
 30
0.0
  0
VERTEX
  5
306
  8
LAYER_1
 10
28.75250954767153
 20
41.59490509069683
 30
0.0
  0
VERTEX
  5
307
  8
LAYER_1
 10
28.32963189008113
 20
41.50938268632594
 30
0.0
  0
VERTEX
  5
308
  8
LAYER_1
 10
27.83054196671986
 20
41.43765616910979
 30
0.0
  0
VERTEX
  5
309
  8
LAYER_1
 10
27.24536734071771
 20
41.37632712190401
 30
0.0
  0
VERTEX
  5
30A
  8
LAYER_1
 10
26.80380635353556
 20
41.32984252946513
 30
0.0
  0
VERTEX
  5
30B
  8
LAYER_1
 10
26.39186880642688
 20
41.27401708142999
 30
0.0
  0
VERTEX
  5
30C
  8
LAYER_1
 10
26.01857052897926
 20
41.2109635215439
 30
0.0
  0
VERTEX
  5
30D
  8
LAYER_1
 10
25.69292735078027
 20
41.14279459355215
 30
0.0
  0
VERTEX
  5
30E
  8
LAYER_1
 10
25.42395510141749
 20
41.07162304120001
 30
0.0
  0
VERTEX
  5
30F
  8
LAYER_1
 10
25.2206696104785
 20
40.99956160823278
 30
0.0
  0
VERTEX
  5
310
  8
LAYER_1
 10
25.14647684616405
 20
40.96385741893891
 30
0.0
  0
VERTEX
  5
311
  8
LAYER_1
 10
25.09208670755088
 20
40.92872303839574
 30
0.0
  0
VERTEX
  5
312
  8
LAYER_1
 10
25.05862617333746
 20
40.89442255957143
 30
0.0
  0
VERTEX
  5
313
  8
LAYER_1
 10
25.04722222222222
 20
40.86122007543416
 30
0.0
  0
VERTEX
  5
314
  8
LAYER_1
 10
25.05611696962372
 20
40.81584494810585
 30
0.0
  0
VERTEX
  5
315
  8
LAYER_1
 10
25.0822152049406
 20
40.74582850208336
 30
0.0
  0
VERTEX
  5
316
  8
LAYER_1
 10
25.18250609799471
 20
40.53773980007813
 30
0.0
  0
VERTEX
  5
317
  8
LAYER_1
 10
25.34106281873301
 20
40.24869026166302
 30
0.0
  0
VERTEX
  5
318
  8
LAYER_1
 10
25.55085328450396
 20
39.89041617908259
 30
0.0
  0
VERTEX
  5
319
  8
LAYER_1
 10
26.09600712053764
 20
39.01313955040404
 30
0.0
  0
VERTEX
  5
31A
  8
LAYER_1
 10
26.76171094488342
 20
37.99980025199893
 30
0.0
  0
VERTEX
  5
31B
  8
LAYER_1
 10
27.54320819443398
 20
36.8139789866276
 30
0.0
  0
VERTEX
  5
31C
  8
LAYER_1
 10
28.40364115850046
 20
35.4670732399717
 30
0.0
  0
VERTEX
  5
31D
  8
LAYER_1
 10
29.23860145449824
 20
34.12469852436969
 30
0.0
  0
VERTEX
  5
31E
  8
LAYER_1
 10
29.94368069984272
 20
32.95247035216003
 30
0.0
  0
VERTEX
  5
31F
  8
LAYER_1
 10
30.13547722327254
 20
32.63279719282895
 30
0.0
  0
VERTEX
  5
320
  8
LAYER_1
 10
30.33076775868661
 20
32.32189769857666
 30
0.0
  0
VERTEX
  5
321
  8
LAYER_1
 10
30.5299523530954
 20
32.01930600035965
 30
0.0
  0
VERTEX
  5
322
  8
LAYER_1
 10
30.73343105350938
 20
31.72455622913441
 30
0.0
  0
VERTEX
  5
323
  8
LAYER_1
 10
30.94160390693905
 20
31.43718251585742
 30
0.0
  0
VERTEX
  5
324
  8
LAYER_1
 10
31.15487096039488
 20
31.15671899148516
 30
0.0
  0
VERTEX
  5
325
  8
LAYER_1
 10
31.37363226088736
 20
30.88269978697414
 30
0.0
  0
VERTEX
  5
326
  8
LAYER_1
 10
31.59828785542695
 20
30.61465903328081
 30
0.0
  0
VERTEX
  5
327
  8
LAYER_1
 10
31.82923779102414
 20
30.35213086136168
 30
0.0
  0
VERTEX
  5
328
  8
LAYER_1
 10
32.06688211468941
 20
30.09464940217322
 30
0.0
  0
VERTEX
  5
329
  8
LAYER_1
 10
32.31162087343326
 20
29.84174878667192
 30
0.0
  0
VERTEX
  5
32A
  8
LAYER_1
 10
32.56385411426614
 20
29.59296314581427
 30
0.0
  0
VERTEX
  5
32B
  8
LAYER_1
 10
32.82398188419855
 20
29.34782661055675
 30
0.0
  0
VERTEX
  5
32C
  8
LAYER_1
 10
33.09240423024096
 20
29.10587331185585
 30
0.0
  0
VERTEX
  5
32D
  8
LAYER_1
 10
33.36952119940385
 20
28.86663738066805
 30
0.0
  0
VERTEX
  5
32E
  8
LAYER_1
 10
33.6557328386977
 20
28.62965294794984
 30
0.0
  0
VERTEX
  5
32F
  8
LAYER_1
 10
34.20562031874125
 20
28.17637443782216
 30
0.0
  0
VERTEX
  5
330
  8
LAYER_1
 10
34.74858663901136
 20
27.71450287694222
 30
0.0
  0
VERTEX
  5
331
  8
LAYER_1
 10
35.28448045088277
 20
27.24423880675375
 30
0.0
  0
VERTEX
  5
332
  8
LAYER_1
 10
35.8131504057302
 20
26.76578276870048
 30
0.0
  0
VERTEX
  5
333
  8
LAYER_1
 10
36.33444515492839
 20
26.27933530422614
 30
0.0
  0
VERTEX
  5
334
  8
LAYER_1
 10
36.84821334985207
 20
25.78509695477447
 30
0.0
  0
VERTEX
  5
335
  8
LAYER_1
 10
37.354303641876
 20
25.28326826178917
 30
0.0
  0
VERTEX
  5
336
  8
LAYER_1
 10
37.8525646823749
 20
24.77404976671401
 30
0.0
  0
VERTEX
  5
337
  8
LAYER_1
 10
38.3428451227235
 20
24.25764201099269
 30
0.0
  0
VERTEX
  5
338
  8
LAYER_1
 10
38.82499361429653
 20
23.73424553606895
 30
0.0
  0
VERTEX
  5
339
  8
LAYER_1
 10
39.29885880846874
 20
23.20406088338652
 30
0.0
  0
VERTEX
  5
33A
  8
LAYER_1
 10
39.76428935661487
 20
22.66728859438914
 30
0.0
  0
VERTEX
  5
33B
  8
LAYER_1
 10
40.22113391010964
 20
22.12412921052053
 30
0.0
  0
VERTEX
  5
33C
  8
LAYER_1
 10
40.66924112032778
 20
21.57478327322441
 30
0.0
  0
VERTEX
  5
33D
  8
LAYER_1
 10
41.10845963864405
 20
21.01945132394453
 30
0.0
  0
VERTEX
  5
33E
  8
LAYER_1
 10
41.53863811643316
 20
20.45833390412461
 30
0.0
  0
VERTEX
  5
33F
  8
LAYER_1
 10
41.95962520506987
 20
19.89163155520838
 30
0.0
  0
VERTEX
  5
340
  8
LAYER_1
 10
42.37126955592889
 20
19.31954481863957
 30
0.0
  0
VERTEX
  5
341
  8
LAYER_1
 10
42.77341982038499
 20
18.74227423586192
 30
0.0
  0
VERTEX
  5
342
  8
LAYER_1
 10
43.16592464981287
 20
18.16002034831915
 30
0.0
  0
VERTEX
  5
343
  8
LAYER_1
 10
43.54863269558727
 20
17.57298369745499
 30
0.0
  0
VERTEX
  5
344
  8
LAYER_1
 10
43.92139260908296
 20
16.98136482471317
 30
0.0
  0
VERTEX
  5
345
  8
LAYER_1
 10
44.28405304167462
 20
16.38536427153742
 30
0.0
  0
VERTEX
  5
346
  8
LAYER_1
 10
44.63646264473704
 20
15.78518257937148
 30
0.0
  0
VERTEX
  5
347
  8
LAYER_1
 10
44.97847006964492
 20
15.18102028965907
 30
0.0
  0
VERTEX
  5
348
  8
LAYER_1
 10
45.30992396777301
 20
14.57307794384392
 30
0.0
  0
VERTEX
  5
349
  8
LAYER_1
 10
45.63067299049604
 20
13.96155608336977
 30
0.0
  0
VERTEX
  5
34A
  8
LAYER_1
 10
45.94056578918875
 20
13.34665524968034
 30
0.0
  0
VERTEX
  5
34B
  8
LAYER_1
 10
46.23945101522587
 20
12.72857598421936
 30
0.0
  0
VERTEX
  5
34C
  8
LAYER_1
 10
46.52717731998214
 20
12.10751882843057
 30
0.0
  0
VERTEX
  5
34D
  8
LAYER_1
 10
46.8035933548323
 20
11.48368432375769
 30
0.0
  0
VERTEX
  5
34E
  8
LAYER_1
 10
47.06854777115107
 20
10.85727301164445
 30
0.0
  0
VERTEX
  5
34F
  8
LAYER_1
 10
47.45415621996244
 20
9.888021779826685
 30
0.0
  0
VERTEX
  5
350
  8
LAYER_1
 10
47.81379914354609
 20
8.911260111222818
 30
0.0
  0
VERTEX
  5
351
  8
LAYER_1
 10
48.14761360862258
 20
7.927370326033966
 30
0.0
  0
VERTEX
  5
352
  8
LAYER_1
 10
48.45573668191248
 20
6.936734744461246
 30
0.0
  0
VERTEX
  5
353
  8
LAYER_1
 10
48.73830543013631
 20
5.939735686705772
 30
0.0
  0
VERTEX
  5
354
  8
LAYER_1
 10
48.99545692001466
 20
4.936755472968661
 30
0.0
  0
VERTEX
  5
355
  8
LAYER_1
 10
49.22732821826806
 20
3.92817642345103
 30
0.0
  0
VERTEX
  5
356
  8
LAYER_1
 10
49.43405639161706
 20
2.914380858353994
 30
0.0
  0
VERTEX
  5
357
  8
LAYER_1
 10
49.61577850678222
 20
1.895751097878668
 30
0.0
  0
VERTEX
  5
358
  8
LAYER_1
 10
49.7726316304841
 20
0.8726694622261698
 30
0.0
  0
VERTEX
  5
359
  8
LAYER_1
 10
49.90475282944324
 20
-0.1544817284023861
 30
0.0
  0
VERTEX
  5
35A
  8
LAYER_1
 10
50.01227917038021
 20
-1.185320153805883
 30
0.0
  0
VERTEX
  5
35B
  8
LAYER_1
 10
50.09534772001554
 20
-2.219463493783205
 30
0.0
  0
VERTEX
  5
35C
  8
LAYER_1
 10
50.1540955450698
 20
-3.256529428133237
 30
0.0
  0
VERTEX
  5
35D
  8
LAYER_1
 10
50.18865971226354
 20
-4.296135636654862
 30
0.0
  0
VERTEX
  5
35E
  8
LAYER_1
 10
50.19917728831732
 20
-5.337899799146964
 30
0.0
  0
VERTEX
  5
35F
  8
LAYER_1
 10
50.18578533995168
 20
-6.381439595408427
 30
0.0
  0
VERTEX
  5
360
  8
LAYER_1
 10
50.14862093388717
 20
-7.426372705238136
 30
0.0
  0
VERTEX
  5
361
  8
LAYER_1
 10
50.08782113684435
 20
-8.472316808434973
 30
0.0
  0
VERTEX
  5
362
  8
LAYER_1
 10
50.00352301554379
 20
-9.518889584797826
 30
0.0
  0
VERTEX
  5
363
  8
LAYER_1
 10
49.89586363670603
 20
-10.56570871412558
 30
0.0
  0
VERTEX
  5
364
  8
LAYER_1
 10
49.7649800670516
 20
-11.61239187621711
 30
0.0
  0
VERTEX
  5
365
  8
LAYER_1
 10
49.61100937330109
 20
-12.6585567508713
 30
0.0
  0
VERTEX
  5
366
  8
LAYER_1
 10
49.43408862217503
 20
-13.70382101788705
 30
0.0
  0
VERTEX
  5
367
  8
LAYER_1
 10
49.23435488039398
 20
-14.74780235706323
 30
0.0
  0
VERTEX
  5
368
  8
LAYER_1
 10
49.01194521467849
 20
-15.79011844819872
 30
0.0
  0
VERTEX
  5
369
  8
LAYER_1
 10
48.76699669174912
 20
-16.83038697109242
 30
0.0
  0
VERTEX
  5
36A
  8
LAYER_1
 10
48.49964637832642
 20
-17.86822560554321
 30
0.0
  0
VERTEX
  5
36B
  8
LAYER_1
 10
48.21003134113094
 20
-18.90325203134996
 30
0.0
  0
VERTEX
  5
36C
  8
LAYER_1
 10
47.89828864688323
 20
-19.93508392831157
 30
0.0
  0
VERTEX
  5
36D
  8
LAYER_1
 10
47.56455536230385
 20
-20.96333897622692
 30
0.0
  0
VERTEX
  5
36E
  8
LAYER_1
 10
47.20896855411335
 20
-21.98763485489489
 30
0.0
  0
VERTEX
  5
36F
  8
LAYER_1
 10
46.8316652890323
 20
-23.00758924411436
 30
0.0
  0
VERTEX
  5
370
  8
LAYER_1
 10
46.43278263378122
 20
-24.02281982368423
 30
0.0
  0
VERTEX
  5
371
  8
LAYER_1
 10
46.01245765508068
 20
-25.03294427340337
 30
0.0
  0
VERTEX
  5
372
  8
LAYER_1
 10
45.57082741965124
 20
-26.03758027307067
 30
0.0
  0
VERTEX
  5
373
  8
LAYER_1
 10
45.10802899421344
 20
-27.03634550248501
 30
0.0
  0
VERTEX
  5
374
  8
LAYER_1
 10
44.62419944548785
 20
-28.02885764144527
 30
0.0
  0
VERTEX
  5
375
  8
LAYER_1
 10
44.11947584019501
 20
-29.01473436975035
 30
0.0
  0
VERTEX
  5
376
  8
LAYER_1
 10
43.59399524505547
 20
-29.99359336719911
 30
0.0
  0
VERTEX
  5
377
  8
LAYER_1
 10
43.04789472678979
 20
-30.96505231359046
 30
0.0
  0
VERTEX
  5
378
  8
LAYER_1
 10
42.48131135211852
 20
-31.92872888872327
 30
0.0
  0
VERTEX
  5
379
  8
LAYER_1
 10
41.89438218776222
 20
-32.88424077239642
 30
0.0
  0
VERTEX
  5
37A
  8
LAYER_1
 10
41.28724430044143
 20
-33.83120564440881
 30
0.0
  0
VERTEX
  5
37B
  8
LAYER_1
 10
40.66003475687672
 20
-34.76924118455931
 30
0.0
  0
VERTEX
  5
37C
  8
LAYER_1
 10
40.01289062378864
 20
-35.69796507264682
 30
0.0
  0
VERTEX
  5
37D
  8
LAYER_1
 10
39.34594896789772
 20
-36.6169949884702
 30
0.0
  0
VERTEX
  5
37E
  8
LAYER_1
 10
38.65934685592454
 20
-37.52594861182835
 30
0.0
  0
VERTEX
  5
37F
  8
LAYER_1
 10
37.95322135458964
 20
-38.42444362252014
 30
0.0
  0
VERTEX
  5
380
  8
LAYER_1
 10
37.22770953061358
 20
-39.31209770034448
 30
0.0
  0
VERTEX
  5
381
  8
LAYER_1
 10
36.4829484507169
 20
-40.18852852510024
 30
0.0
  0
VERTEX
  5
382
  8
LAYER_1
 10
35.71907518162018
 20
-41.05335377658629
 30
0.0
  0
VERTEX
  5
383
  8
LAYER_1
 10
34.93622679004395
 20
-41.90619113460153
 30
0.0
  0
VERTEX
  5
384
  8
LAYER_1
 10
34.13454034270876
 20
-42.74665827894484
 30
0.0
  0
VERTEX
  5
385
  8
LAYER_1
 10
33.31415290633517
 20
-43.57437288941511
 30
0.0
  0
VERTEX
  5
386
  8
LAYER_1
 10
32.47520154764375
 20
-44.38895264581122
 30
0.0
  0
VERTEX
  5
387
  8
LAYER_1
 10
31.61782333335503
 20
-45.19001522793205
 30
0.0
  0
VERTEX
  5
388
  8
LAYER_1
 10
30.74215533018957
 20
-45.97717831557648
 30
0.0
  0
VERTEX
  5
389
  8
LAYER_1
 10
29.84833460486792
 20
-46.75005958854341
 30
0.0
  0
VERTEX
  5
38A
  8
LAYER_1
 10
28.93649822411064
 20
-47.50827672663171
 30
0.0
  0
VERTEX
  5
38B
  8
LAYER_1
 10
28.00678325463828
 20
-48.25144740964028
 30
0.0
  0
VERTEX
  5
38C
  8
LAYER_1
 10
27.0593267631714
 20
-48.97918931736798
 30
0.0
  0
VERTEX
  5
38D
  8
LAYER_1
 10
26.09426581643054
 20
-49.69112012961372
 30
0.0
  0
VERTEX
  5
38E
  8
LAYER_1
 10
25.11173748113626
 20
-50.38685752617636
 30
0.0
  0
VERTEX
  5
38F
  8
LAYER_1
 10
24.47409308130155
 20
-50.81072602254534
 30
0.0
  0
VERTEX
  5
390
  8
LAYER_1
 10
23.6990749103826
 20
-51.29553300128856
 30
0.0
  0
VERTEX
  5
391
  8
LAYER_1
 10
22.81652731980407
 20
-51.82427691618206
 30
0.0
  0
VERTEX
  5
392
  8
LAYER_1
 10
21.85629466099063
 20
-52.37995622100189
 30
0.0
  0
VERTEX
  5
393
  8
LAYER_1
 10
20.84822128536699
 20
-52.94556936952408
 30
0.0
  0
VERTEX
  5
394
  8
LAYER_1
 10
19.8221515443578
 20
-53.50411481552467
 30
0.0
  0
VERTEX
  5
395
  8
LAYER_1
 10
18.80792978938775
 20
-54.03859101277972
 30
0.0
  0
VERTEX
  5
396
  8
LAYER_1
 10
17.83540037188152
 20
-54.53199641506525
 30
0.0
  0
VERTEX
  5
397
  8
LAYER_1
 10
13.26941185487418
 20
-56.79722222222222
 30
0.0
  0
SEQEND
  5
398
  8
LAYER_1
  0
POLYLINE
  5
44
  8
LAYER_1
 66
     1
 10
0.0
 20
0.0
 30
0.0
 70
     1
  0
VERTEX
  5
399
  8
LAYER_1
 10
15.12587903483983
 20
5.291666666666657
 30
0.0
  0
VERTEX
  5
39A
  8
LAYER_1
 10
15.15854611195832
 20
5.298711447374126
 30
0.0
  0
VERTEX
  5
39B
  8
LAYER_1
 10
15.20379495459095
 20
5.319381662767569
 30
0.0
  0
VERTEX
  5
39C
  8
LAYER_1
 10
15.32879953070765
 20
5.3988136372386
 30
0.0
  0
VERTEX
  5
39D
  8
LAYER_1
 10
15.49441595180792
 20
5.524393069332202
 30
0.0
  0
VERTEX
  5
39E
  8
LAYER_1
 10
15.69416740650973
 20
5.690550438300821
 30
0.0
  0
VERTEX
  5
39F
  8
LAYER_1
 10
15.92157708343108
 20
5.891716223396907
 30
0.0
  0
VERTEX
  5
3A0
  8
LAYER_1
 10
16.17016817118996
 20
6.122320903872906
 30
0.0
  0
VERTEX
  5
3A1
  8
LAYER_1
 10
16.70498733369226
 20
6.649568867974438
 30
0.0
  0
VERTEX
  5
3A2
  8
LAYER_1
 10
18.03094336858834
 20
8.007471069282218
 30
0.0
  0
VERTEX
  5
3A3
  8
LAYER_1
 10
17.13857460070902
 20
11.52784471708983
 30
0.0
  0
VERTEX
  5
3A4
  8
LAYER_1
 10
16.83968446260537
 20
12.66109988652255
 30
0.0
  0
VERTEX
  5
3A5
  8
LAYER_1
 10
16.50664187435129
 20
13.84044520469122
 30
0.0
  0
VERTEX
  5
3A6
  8
LAYER_1
 10
16.14305302123537
 20
15.05627170185637
 30
0.0
  0
VERTEX
  5
3A7
  8
LAYER_1
 10
15.75252408854622
 20
16.29897040827852
 30
0.0
  0
VERTEX
  5
3A8
  8
LAYER_1
 10
15.33866126157243
 20
17.55893235421819
 30
0.0
  0
VERTEX
  5
3A9
  8
LAYER_1
 10
14.90507072560262
 20
18.82654856993593
 30
0.0
  0
VERTEX
  5
3AA
  8
LAYER_1
 10
14.45535866592539
 20
20.09221008569224
 30
0.0
  0
VERTEX
  5
3AB
  8
LAYER_1
 10
13.99313126782932
 20
21.34630793174767
 30
0.0
  0
VERTEX
  5
3AC
  8
LAYER_1
 10
13.52199471660303
 20
22.57923313836273
 30
0.0
  0
VERTEX
  5
3AD
  8
LAYER_1
 10
13.04555519753512
 20
23.78137673579796
 30
0.0
  0
VERTEX
  5
3AE
  8
LAYER_1
 10
12.56741889591419
 20
24.94312975431387
 30
0.0
  0
VERTEX
  5
3AF
  8
LAYER_1
 10
12.09119199702884
 20
26.054883224171
 30
0.0
  0
VERTEX
  5
3B0
  8
LAYER_1
 10
11.62048068616767
 20
27.10702817562987
 30
0.0
  0
VERTEX
  5
3B1
  8
LAYER_1
 10
11.15889114861929
 20
28.08995563895101
 30
0.0
  0
VERTEX
  5
3B2
  8
LAYER_1
 10
10.7100295696723
 20
28.99405664439495
 30
0.0
  0
VERTEX
  5
3B3
  8
LAYER_1
 10
10.27750213461529
 20
29.80972222222221
 30
0.0
  0
VERTEX
  5
3B4
  8
LAYER_1
 10
9.500245558074198
 20
31.22083333333332
 30
0.0
  0
VERTEX
  5
3B5
  8
LAYER_1
 10
9.707296838713233
 20
28.92777777777776
 30
0.0
  0
VERTEX
  5
3B6
  8
LAYER_1
 10
9.740864385451754
 20
28.40121115655057
 30
0.0
  0
VERTEX
  5
3B7
  8
LAYER_1
 10
9.756667294383616
 20
27.78250086762272
 30
0.0
  0
VERTEX
  5
3B8
  8
LAYER_1
 10
9.755468948478681
 20
27.09430314812479
 30
0.0
  0
VERTEX
  5
3B9
  8
LAYER_1
 10
9.738032730706808
 20
26.35927423518738
 30
0.0
  0
VERTEX
  5
3BA
  8
LAYER_1
 10
9.705122024037857
 20
25.60007036594105
 30
0.0
  0
VERTEX
  5
3BB
  8
LAYER_1
 10
9.657500211441693
 20
24.8393477775164
 30
0.0
  0
VERTEX
  5
3BC
  8
LAYER_1
 10
9.595930675888175
 20
24.09976270704401
 30
0.0
  0
VERTEX
  5
3BD
  8
LAYER_1
 10
9.521176800347163
 20
23.40397139165447
 30
0.0
  0
VERTEX
  5
3BE
  8
LAYER_1
 10
9.12800548134203
 20
20.17322056108674
 30
0.0
  0
VERTEX
  5
3BF
  8
LAYER_1
 10
10.90554475578389
 20
16.5248047249878
 30
0.0
  0
VERTEX
  5
3C0
  8
LAYER_1
 10
11.20892014788221
 20
15.89039605441992
 30
0.0
  0
VERTEX
  5
3C1
  8
LAYER_1
 10
11.50839130141832
 20
15.24106695487148
 30
0.0
  0
VERTEX
  5
3C2
  8
LAYER_1
 10
11.80279053625275
 20
14.57999682768641
 30
0.0
  0
VERTEX
  5
3C3
  8
LAYER_1
 10
12.09095017224608
 20
13.9103650742086
 30
0.0
  0
VERTEX
  5
3C4
  8
LAYER_1
 10
12.37170252925884
 20
13.23535109578199
 30
0.0
  0
VERTEX
  5
3C5
  8
LAYER_1
 10
12.64387992715161
 20
12.55813429375047
 30
0.0
  0
VERTEX
  5
3C6
  8
LAYER_1
 10
12.90631468578491
 20
11.88189406945796
 30
0.0
  0
VERTEX
  5
3C7
  8
LAYER_1
 10
13.15783912501932
 20
11.20980982424837
 30
0.0
  0
VERTEX
  5
3C8
  8
LAYER_1
 10
13.39728556471539
 20
10.54506095946562
 30
0.0
  0
VERTEX
  5
3C9
  8
LAYER_1
 10
13.62348632473365
 20
9.890826876453602
 30
0.0
  0
VERTEX
  5
3CA
  8
LAYER_1
 10
13.83527372493468
 20
9.250286976556245
 30
0.0
  0
VERTEX
  5
3CB
  8
LAYER_1
 10
14.03148008517903
 20
8.626620661117453
 30
0.0
  0
VERTEX
  5
3CC
  8
LAYER_1
 10
14.21093772532723
 20
8.02300733148114
 30
0.0
  0
VERTEX
  5
3CD
  8
LAYER_1
 10
14.37247896523986
 20
7.442626388991217
 30
0.0
  0
VERTEX
  5
3CE
  8
LAYER_1
 10
14.51493612477747
 20
6.888657234991596
 30
0.0
  0
VERTEX
  5
3CF
  8
LAYER_1
 10
14.63714152380059
 20
6.364279270826188
 30
0.0
  0
VERTEX
  5
3D0
  8
LAYER_1
 10
14.68963250782563
 20
6.148814024072657
 30
0.0
  0
VERTEX
  5
3D1
  8
LAYER_1
 10
14.7485901538473
 20
5.94780390811737
 30
0.0
  0
VERTEX
  5
3D2
  8
LAYER_1
 10
14.81200987441798
 20
5.765648310594575
 30
0.0
  0
VERTEX
  5
3D3
  8
LAYER_1
 10
14.87788708209006
 20
5.606746619138519
 30
0.0
  0
VERTEX
  5
3D4
  8
LAYER_1
 10
14.9442171894159
 20
5.475498221383452
 30
0.0
  0
VERTEX
  5
3D5
  8
LAYER_1
 10
15.00899560894789
 20
5.37630250496362
 30
0.0
  0
VERTEX
  5
3D6
  8
LAYER_1
 10
15.0702177532384
 20
5.313558857513272
 30
0.0
  0
VERTEX
  5
3D7
  8
LAYER_1
 10
15.09886878859073
 20
5.297231368287358
 30
0.0
  0
SEQEND
  5
3D8
  8
LAYER_1
  0
POLYLINE
  5
45
  8
LAYER_1
 66
     1
 10
0.0
 20
0.0
 30
0.0
 70
     1
  0
VERTEX
  5
3D9
  8
LAYER_1
 10
-25.04427946365045
 20
13.76373533989906
 30
0.0
  0
VERTEX
  5
3DA
  8
LAYER_1
 10
-24.94274582715667
 20
13.77108450988576
 30
0.0
  0
VERTEX
  5
3DB
  8
LAYER_1
 10
-24.82500385247844
 20
13.79458916061546
 30
0.0
  0
VERTEX
  5
3DC
  8
LAYER_1
 10
-24.69194414292118
 20
13.83359854015334
 30
0.0
  0
VERTEX
  5
3DD
  8
LAYER_1
 10
-24.54445730179036
 20
13.88746189656459
 30
0.0
  0
VERTEX
  5
3DE
  8
LAYER_1
 10
-24.20976463802977
 20
14.03714753226791
 30
0.0
  0
VERTEX
  5
3DF
  8
LAYER_1
 10
-23.82805068764026
 20
14.2384400522469
 30
0.0
  0
VERTEX
  5
3E0
  8
LAYER_1
 10
-23.40644027706539
 20
14.48613344102301
 30
0.0
  0
VERTEX
  5
3E1
  8
LAYER_1
 10
-22.95205823274871
 20
14.77502168311772
 30
0.0
  0
VERTEX
  5
3E2
  8
LAYER_1
 10
-22.47202938113382
 20
15.0998987630525
 30
0.0
  0
VERTEX
  5
3E3
  8
LAYER_1
 10
-21.97347854866427
 20
15.45555866534881
 30
0.0
  0
VERTEX
  5
3E4
  8
LAYER_1
 10
-21.46353056178363
 20
15.83679537452813
 30
0.0
  0
VERTEX
  5
3E5
  8
LAYER_1
 10
-20.94931024693548
 20
16.23840287511192
 30
0.0
  0
VERTEX
  5
3E6
  8
LAYER_1
 10
-20.43794243056337
 20
16.65517515162164
 30
0.0
  0
VERTEX
  5
3E7
  8
LAYER_1
 10
-19.93655193911089
 20
17.08190618857878
 30
0.0
  0
VERTEX
  5
3E8
  8
LAYER_1
 10
-19.4522635990216
 20
17.51338997050479
 30
0.0
  0
VERTEX
  5
3E9
  8
LAYER_1
 10
-18.99220223673906
 20
17.94442048192114
 30
0.0
  0
VERTEX
  5
3EA
  8
LAYER_1
 10
-18.56349267870685
 20
18.36979170734931
 30
0.0
  0
VERTEX
  5
3EB
  8
LAYER_1
 10
-18.17325975136854
 20
18.78429763131076
 30
0.0
  0
VERTEX
  5
3EC
  8
LAYER_1
 10
-17.93059051736783
 20
19.05995996451582
 30
0.0
  0
VERTEX
  5
3ED
  8
LAYER_1
 10
-17.68519998501502
 20
19.35358621150629
 30
0.0
  0
VERTEX
  5
3EE
  8
LAYER_1
 10
-17.4372579595183
 20
19.66491148358602
 30
0.0
  0
VERTEX
  5
3EF
  8
LAYER_1
 10
-17.1869342460859
 20
19.99367089205882
 30
0.0
  0
VERTEX
  5
3F0
  8
LAYER_1
 10
-16.934398649926
 20
20.33959954822853
 30
0.0
  0
VERTEX
  5
3F1
  8
LAYER_1
 10
-16.67982097624683
 20
20.70243256339897
 30
0.0
  0
VERTEX
  5
3F2
  8
LAYER_1
 10
-16.42337103025658
 20
21.08190504887398
 30
0.0
  0
VERTEX
  5
3F3
  8
LAYER_1
 10
-16.16521861716346
 20
21.47775211595737
 30
0.0
  0
VERTEX
  5
3F4
  8
LAYER_1
 10
-15.64448561050143
 20
22.31751044016464
 30
0.0
  0
VERTEX
  5
3F5
  8
LAYER_1
 10
-15.11898039792639
 20
23.21958842645141
 30
0.0
  0
VERTEX
  5
3F6
  8
LAYER_1
 10
-14.59006142110399
 20
24.1818669652483
 30
0.0
  0
VERTEX
  5
3F7
  8
LAYER_1
 10
-14.05908712169987
 20
25.20222694698593
 30
0.0
  0
VERTEX
  5
3F8
  8
LAYER_1
 10
-11.90250880926776
 20
29.45694444444443
 30
0.0
  0
VERTEX
  5
3F9
  8
LAYER_1
 10
-10.33986905865649
 20
31.82919299632344
 30
0.0
  0
VERTEX
  5
3FA
  8
LAYER_1
 10
-10.00742686330389
 20
32.32031191087262
 30
0.0
  0
VERTEX
  5
3FB
  8
LAYER_1
 10
-9.661445956574529
 20
32.80667564292908
 30
0.0
  0
VERTEX
  5
3FC
  8
LAYER_1
 10
-9.312061511770297
 20
33.27562346658135
 30
0.0
  0
VERTEX
  5
3FD
  8
LAYER_1
 10
-8.969408702193101
 20
33.71449465591799
 30
0.0
  0
VERTEX
  5
3FE
  8
LAYER_1
 10
-8.643622701144842
 20
34.11062848502753
 30
0.0
  0
VERTEX
  5
3FF
  8
LAYER_1
 10
-8.344838681927424
 20
34.45136422799851
 30
0.0
  0
VERTEX
  5
400
  8
LAYER_1
 10
-8.083191817842746
 20
34.72404115891949
 30
0.0
  0
VERTEX
  5
401
  8
LAYER_1
 10
-7.969462060632027
 20
34.83090109301389
 30
0.0
  0
VERTEX
  5
402
  8
LAYER_1
 10
-7.868817282192708
 20
34.915998551879
 30
0.0
  0
VERTEX
  5
403
  8
LAYER_1
 10
-6.960405256340195
 20
35.63055555555555
 30
0.0
  0
VERTEX
  5
404
  8
LAYER_1
 10
-16.05138888888889
 20
35.77918459063184
 30
0.0
  0
VERTEX
  5
405
  8
LAYER_1
 10
-17.99166666666667
 20
35.70063239340746
 30
0.0
  0
VERTEX
  5
406
  8
LAYER_1
 10
-18.57626933770488
 20
35.6704452390203
 30
0.0
  0
VERTEX
  5
407
  8
LAYER_1
 10
-19.12651944304904
 20
35.62797578629932
 30
0.0
  0
VERTEX
  5
408
  8
LAYER_1
 10
-19.6452681400874
 20
35.57215751106183
 30
0.0
  0
VERTEX
  5
409
  8
LAYER_1
 10
-20.13536658620819
 20
35.50192388912513
 30
0.0
  0
VERTEX
  5
40A
  8
LAYER_1
 10
-20.59966593879964
 20
35.41620839630652
 30
0.0
  0
VERTEX
  5
40B
  8
LAYER_1
 10
-21.04101735525
 20
35.31394450842332
 30
0.0
  0
VERTEX
  5
40C
  8
LAYER_1
 10
-21.4622719929475
 20
35.19406570129281
 30
0.0
  0
VERTEX
  5
40D
  8
LAYER_1
 10
-21.86628100928039
 20
35.0555054507323
 30
0.0
  0
VERTEX
  5
40E
  8
LAYER_1
 10
-22.25589556163689
 20
34.89719723255912
 30
0.0
  0
VERTEX
  5
40F
  8
LAYER_1
 10
-22.63396680740524
 20
34.71807452259054
 30
0.0
  0
VERTEX
  5
410
  8
LAYER_1
 10
-23.0033459039737
 20
34.51707079664388
 30
0.0
  0
VERTEX
  5
411
  8
LAYER_1
 10
-23.36688400873048
 20
34.29311953053644
 30
0.0
  0
VERTEX
  5
412
  8
LAYER_1
 10
-23.72743227906383
 20
34.04515420008553
 30
0.0
  0
VERTEX
  5
413
  8
LAYER_1
 10
-24.08784187236198
 20
33.77210828110844
 30
0.0
  0
VERTEX
  5
414
  8
LAYER_1
 10
-24.45096394601318
 20
33.4729152494225
 30
0.0
  0
VERTEX
  5
415
  8
LAYER_1
 10
-24.81964965740567
 20
33.14650858084498
 30
0.0
  0
VERTEX
  5
416
  8
LAYER_1
 10
-25.13915387457468
 20
32.8454668772316
 30
0.0
  0
VERTEX
  5
417
  8
LAYER_1
 10
-25.44545697759613
 20
32.53843372588332
 30
0.0
  0
VERTEX
  5
418
  8
LAYER_1
 10
-25.7385534940274
 20
32.22542788998618
 30
0.0
  0
VERTEX
  5
419
  8
LAYER_1
 10
-26.0184379514259
 20
31.90646813272624
 30
0.0
  0
VERTEX
  5
41A
  8
LAYER_1
 10
-26.28510487734903
 20
31.58157321728953
 30
0.0
  0
VERTEX
  5
41B
  8
LAYER_1
 10
-26.53854879935417
 20
31.25076190686212
 30
0.0
  0
VERTEX
  5
41C
  8
LAYER_1
 10
-26.77876424499875
 20
30.91405296463005
 30
0.0
  0
VERTEX
  5
41D
  8
LAYER_1
 10
-27.00574574184015
 20
30.57146515377938
 30
0.0
  0
VERTEX
  5
41E
  8
LAYER_1
 10
-27.21948781743577
 20
30.22301723749614
 30
0.0
  0
VERTEX
  5
41F
  8
LAYER_1
 10
-27.41998499934301
 20
29.8687279789664
 30
0.0
  0
VERTEX
  5
420
  8
LAYER_1
 10
-27.60723181511927
 20
29.5086161413762
 30
0.0
  0
VERTEX
  5
421
  8
LAYER_1
 10
-27.78122279232195
 20
29.1427004879116
 30
0.0
  0
VERTEX
  5
422
  8
LAYER_1
 10
-27.94195245850845
 20
28.77099978175863
 30
0.0
  0
VERTEX
  5
423
  8
LAYER_1
 10
-28.08941534123617
 20
28.39353278610336
 30
0.0
  0
VERTEX
  5
424
  8
LAYER_1
 10
-28.22360596806251
 20
28.01031826413182
 30
0.0
  0
VERTEX
  5
425
  8
LAYER_1
 10
-28.34451886654486
 20
27.62137497903008
 30
0.0
  0
VERTEX
  5
426
  8
LAYER_1
 10
-28.45214856424062
 20
27.22672169398417
 30
0.0
  0
VERTEX
  5
427
  8
LAYER_1
 10
-28.54648958870721
 20
26.82637717218017
 30
0.0
  0
VERTEX
  5
428
  8
LAYER_1
 10
-28.627536467502
 20
26.4203601768041
 30
0.0
  0
VERTEX
  5
429
  8
LAYER_1
 10
-28.69528372818241
 20
26.00868947104201
 30
0.0
  0
VERTEX
  5
42A
  8
LAYER_1
 10
-28.74972589830583
 20
25.59138381807997
 30
0.0
  0
VERTEX
  5
42B
  8
LAYER_1
 10
-28.79085750542966
 20
25.16846198110401
 30
0.0
  0
VERTEX
  5
42C
  8
LAYER_1
 10
-28.8186730771113
 20
24.7399427233002
 30
0.0
  0
VERTEX
  5
42D
  8
LAYER_1
 10
-28.83316714090815
 20
24.30584480785457
 30
0.0
  0
VERTEX
  5
42E
  8
LAYER_1
 10
-28.8343342243776
 20
23.86618699795318
 30
0.0
  0
VERTEX
  5
42F
  8
LAYER_1
 10
-28.82216885507707
 20
23.42098805678208
 30
0.0
  0
VERTEX
  5
430
  8
LAYER_1
 10
-28.79666556056394
 20
22.97026674752732
 30
0.0
  0
VERTEX
  5
431
  8
LAYER_1
 10
-28.75781886839561
 20
22.51404183337494
 30
0.0
  0
VERTEX
  5
432
  8
LAYER_1
 10
-28.70562330612949
 20
22.05233207751101
 30
0.0
  0
VERTEX
  5
433
  8
LAYER_1
 10
-28.64007340132298
 20
21.58515624312156
 30
0.0
  0
VERTEX
  5
434
  8
LAYER_1
 10
-28.56116368153346
 20
21.11253309339264
 30
0.0
  0
VERTEX
  5
435
  8
LAYER_1
 10
-28.46888867431835
 20
20.63448139151032
 30
0.0
  0
VERTEX
  5
436
  8
LAYER_1
 10
-28.34236692404337
 20
20.04838972460115
 30
0.0
  0
VERTEX
  5
437
  8
LAYER_1
 10
-28.20579202887465
 20
19.46862372668769
 30
0.0
  0
VERTEX
  5
438
  8
LAYER_1
 10
-28.06051571103966
 20
18.89878929521947
 30
0.0
  0
VERTEX
  5
439
  8
LAYER_1
 10
-27.90788969276591
 20
18.34249232764602
 30
0.0
  0
VERTEX
  5
43A
  8
LAYER_1
 10
-27.74926569628089
 20
17.80333872141687
 30
0.0
  0
VERTEX
  5
43B
  8
LAYER_1
 10
-27.58599544381207
 20
17.28493437398156
 30
0.0
  0
VERTEX
  5
43C
  8
LAYER_1
 10
-27.41943065758696
 20
16.79088518278963
 30
0.0
  0
VERTEX
  5
43D
  8
LAYER_1
 10
-27.25092305983303
 20
16.32479704529059
 30
0.0
  0
VERTEX
  5
43E
  8
LAYER_1
 10
-27.08182437277779
 20
15.89027585893399
 30
0.0
  0
VERTEX
  5
43F
  8
LAYER_1
 10
-26.91348631864871
 20
15.49092752116935
 30
0.0
  0
VERTEX
  5
440
  8
LAYER_1
 10
-26.74726061967328
 20
15.13035792944622
 30
0.0
  0
VERTEX
  5
441
  8
LAYER_1
 10
-26.58449899807901
 20
14.81217298121411
 30
0.0
  0
VERTEX
  5
442
  8
LAYER_1
 10
-26.42655317609336
 20
14.53997857392257
 30
0.0
  0
VERTEX
  5
443
  8
LAYER_1
 10
-26.27477487594384
 20
14.31738060502112
 30
0.0
  0
VERTEX
  5
444
  8
LAYER_1
 10
-26.13051581985793
 20
14.14798497195931
 30
0.0
  0
VERTEX
  5
445
  8
LAYER_1
 10
-26.06162842153492
 20
14.08436487432124
 30
0.0
  0
VERTEX
  5
446
  8
LAYER_1
 10
-25.99512773006312
 20
14.03539757218665
 30
0.0
  0
VERTEX
  5
447
  8
LAYER_1
 10
-25.90015149313244
 20
13.9818012534677
 30
0.0
  0
VERTEX
  5
448
  8
LAYER_1
 10
-25.79055253005322
 20
13.93158746683752
 30
0.0
  0
VERTEX
  5
449
  8
LAYER_1
 10
-25.54308627982003
 20
13.84576444834192
 30
0.0
  0
VERTEX
  5
44A
  8
LAYER_1
 10
-25.41301891985147
 20
13.81238369572573
 30
0.0
  0
VERTEX
  5
44B
  8
LAYER_1
 10
-25.28392868810521
 20
13.78684243369678
 30
0.0
  0
VERTEX
  5
44C
  8
LAYER_1
 10
-25.15971554817397
 20
13.77025490187969
 30
0.0
  0
SEQEND
  5
44D
  8
LAYER_1
  0
POLYLINE
  5
46
  8
LAYER_1
 66
     1
 10
0.0
 20
0.0
 30
0.0
 70
     1
  0
VERTEX
  5
44E
  8
LAYER_1
 10
5.462831226383116
 20
15.88040200656573
 30
0.0
  0
VERTEX
  5
44F
  8
LAYER_1
 10
5.600500115638018
 20
15.88616726126931
 30
0.0
  0
VERTEX
  5
450
  8
LAYER_1
 10
5.731555165156307
 20
15.90006352856529
 30
0.0
  0
VERTEX
  5
451
  8
LAYER_1
 10
5.856339826757976
 20
15.92337843086188
 30
0.0
  0
VERTEX
  5
452
  8
LAYER_1
 10
5.975197552263015
 20
15.95739959056727
 30
0.0
  0
VERTEX
  5
453
  8
LAYER_1
 10
6.088471793491413
 20
16.00341463008969
 30
0.0
  0
VERTEX
  5
454
  8
LAYER_1
 10
6.196506002263162
 20
16.06271117183732
 30
0.0
  0
VERTEX
  5
455
  8
LAYER_1
 10
6.299643630398253
 20
16.13657683821838
 30
0.0
  0
VERTEX
  5
456
  8
LAYER_1
 10
6.398228129716675
 20
16.22629925164107
 30
0.0
  0
VERTEX
  5
457
  8
LAYER_1
 10
6.492602952038419
 20
16.3331660345136
 30
0.0
  0
VERTEX
  5
458
  8
LAYER_1
 10
6.583111549183478
 20
16.45846480924416
 30
0.0
  0
VERTEX
  5
459
  8
LAYER_1
 10
6.67009737297184
 20
16.60348319824098
 30
0.0
  0
VERTEX
  5
45A
  8
LAYER_1
 10
6.753903875223497
 20
16.76950882391224
 30
0.0
  0
VERTEX
  5
45B
  8
LAYER_1
 10
6.834874507758438
 20
16.95782930866616
 30
0.0
  0
VERTEX
  5
45C
  8
LAYER_1
 10
6.913352722396655
 20
17.16973227491095
 30
0.0
  0
VERTEX
  5
45D
  8
LAYER_1
 10
6.989681970958139
 20
17.40650534505479
 30
0.0
  0
VERTEX
  5
45E
  8
LAYER_1
 10
7.064205705262879
 20
17.66943614150591
 30
0.0
  0
VERTEX
  5
45F
  8
LAYER_1
 10
7.137267377130865
 20
17.95981228667251
 30
0.0
  0
VERTEX
  5
460
  8
LAYER_1
 10
7.20921043838209
 20
18.27892140296278
 30
0.0
  0
VERTEX
  5
461
  8
LAYER_1
 10
7.351114536314219
 20
19.00848903854719
 30
0.0
  0
VERTEX
  5
462
  8
LAYER_1
 10
7.492665613619184
 20
19.86844002752479
 30
0.0
  0
VERTEX
  5
463
  8
LAYER_1
 10
7.636611284856914
 20
20.86907534916121
 30
0.0
  0
VERTEX
  5
464
  8
LAYER_1
 10
7.785699164587333
 20
22.02069598272209
 30
0.0
  0
VERTEX
  5
465
  8
LAYER_1
 10
7.942676867370365
 20
23.33360290747307
 30
0.0
  0
VERTEX
  5
466
  8
LAYER_1
 10
8.29129220033397
 20
26.4844795476079
 30
0.0
  0
VERTEX
  5
467
  8
LAYER_1
 10
8.327709347114846
 20
26.94977119864943
 30
0.0
  0
VERTEX
  5
468
  8
LAYER_1
 10
8.345428248106604
 20
27.47751483416901
 30
0.0
  0
VERTEX
  5
469
  8
LAYER_1
 10
8.345564113835634
 20
28.05768103287724
 30
0.0
  0
VERTEX
  5
46A
  8
LAYER_1
 10
8.32923215482833
 20
28.68024037348473
 30
0.0
  0
VERTEX
  5
46B
  8
LAYER_1
 10
8.297547581611088
 20
29.33516343470209
 30
0.0
  0
VERTEX
  5
46C
  8
LAYER_1
 10
8.251625604710298
 20
30.01242079523993
 30
0.0
  0
VERTEX
  5
46D
  8
LAYER_1
 10
8.192581434652354
 20
30.70198303380884
 30
0.0
  0
VERTEX
  5
46E
  8
LAYER_1
 10
8.121530281963649
 20
31.39382072911945
 30
0.0
  0
VERTEX
  5
46F
  8
LAYER_1
 10
8.039587357170575
 20
32.07790445988235
 30
0.0
  0
VERTEX
  5
470
  8
LAYER_1
 10
7.947867870799527
 20
32.74420480480815
 30
0.0
  0
VERTEX
  5
471
  8
LAYER_1
 10
7.847487033376897
 20
33.38269234260746
 30
0.0
  0
VERTEX
  5
472
  8
LAYER_1
 10
7.739560055429077
 20
33.98333765199087
 30
0.0
  0
VERTEX
  5
473
  8
LAYER_1
 10
7.625202147482462
 20
34.53611131166901
 30
0.0
  0
VERTEX
  5
474
  8
LAYER_1
 10
7.505528520063442
 20
35.03098390035247
 30
0.0
  0
VERTEX
  5
475
  8
LAYER_1
 10
7.381654383698413
 20
35.45792599675187
 30
0.0
  0
VERTEX
  5
476
  8
LAYER_1
 10
7.318490627950641
 20
35.6427889161921
 30
0.0
  0
VERTEX
  5
477
  8
LAYER_1
 10
7.254694948913766
 20
35.8069081795778
 30
0.0
  0
VERTEX
  5
478
  8
LAYER_1
 10
7.153409078285661
 20
36.03762521579226
 30
0.0
  0
VERTEX
  5
479
  8
LAYER_1
 10
7.046451322370055
 20
36.25841394696336
 30
0.0
  0
VERTEX
  5
47A
  8
LAYER_1
 10
6.933735112547438
 20
36.46930952593101
 30
0.0
  0
VERTEX
  5
47B
  8
LAYER_1
 10
6.8151738801983
 20
36.67034710553513
 30
0.0
  0
VERTEX
  5
47C
  8
LAYER_1
 10
6.690681056703131
 20
36.86156183861564
 30
0.0
  0
VERTEX
  5
47D
  8
LAYER_1
 10
6.560170073442423
 20
37.04298887801244
 30
0.0
  0
VERTEX
  5
47E
  8
LAYER_1
 10
6.423554361796667
 20
37.21466337656545
 30
0.0
  0
VERTEX
  5
47F
  8
LAYER_1
 10
6.280747353146351
 20
37.37662048711459
 30
0.0
  0
VERTEX
  5
480
  8
LAYER_1
 10
6.131662478871968
 20
37.52889536249977
 30
0.0
  0
VERTEX
  5
481
  8
LAYER_1
 10
5.976213170354008
 20
37.67152315556092
 30
0.0
  0
VERTEX
  5
482
  8
LAYER_1
 10
5.814312858972962
 20
37.80453901913793
 30
0.0
  0
VERTEX
  5
483
  8
LAYER_1
 10
5.645874976109321
 20
37.92797810607073
 30
0.0
  0
VERTEX
  5
484
  8
LAYER_1
 10
5.470812953143574
 20
38.04187556919922
 30
0.0
  0
VERTEX
  5
485
  8
LAYER_1
 10
5.289040221456212
 20
38.14626656136333
 30
0.0
  0
VERTEX
  5
486
  8
LAYER_1
 10
5.100470212427727
 20
38.24118623540298
 30
0.0
  0
VERTEX
  5
487
  8
LAYER_1
 10
4.905016357438608
 20
38.32666974415807
 30
0.0
  0
VERTEX
  5
488
  8
LAYER_1
 10
4.702592087869347
 20
38.40275224046853
 30
0.0
  0
VERTEX
  5
489
  8
LAYER_1
 10
4.493110835100433
 20
38.46946887717425
 30
0.0
  0
VERTEX
  5
48A
  8
LAYER_1
 10
4.276486030512359
 20
38.52685480711516
 30
0.0
  0
VERTEX
  5
48B
  8
LAYER_1
 10
4.052631105485613
 20
38.57494518313118
 30
0.0
  0
VERTEX
  5
48C
  8
LAYER_1
 10
3.821459491400687
 20
38.61377515806223
 30
0.0
  0
VERTEX
  5
48D
  8
LAYER_1
 10
3.582884619638071
 20
38.6433798847482
 30
0.0
  0
VERTEX
  5
48E
  8
LAYER_1
 10
3.336819921578257
 20
38.66379451602901
 30
0.0
  0
VERTEX
  5
48F
  8
LAYER_1
 10
3.083178828601735
 20
38.6750542047446
 30
0.0
  0
VERTEX
  5
490
  8
LAYER_1
 10
2.821874772088995
 20
38.67719410373486
 30
0.0
  0
VERTEX
  5
491
  8
LAYER_1
 10
2.552821183420527
 20
38.67024936583971
 30
0.0
  0
VERTEX
  5
492
  8
LAYER_1
 10
2.275931493976823
 20
38.65425514389907
 30
0.0
  0
VERTEX
  5
493
  8
LAYER_1
 10
1.991119135138373
 20
38.62924659075286
 30
0.0
  0
VERTEX
  5
494
  8
LAYER_1
 10
1.698297538285668
 20
38.59525885924098
 30
0.0
  0
VERTEX
  5
495
  8
LAYER_1
 10
1.397380134799199
 20
38.55232710220335
 30
0.0
  0
VERTEX
  5
496
  8
LAYER_1
 10
0.7709116334469286
 20
38.4397721229105
 30
0.0
  0
VERTEX
  5
497
  8
LAYER_1
 10
0.2550989491422034
 20
38.32615842159882
 30
0.0
  0
VERTEX
  5
498
  8
LAYER_1
 10
-0.2553272422708517
 20
38.19572272443896
 30
0.0
  0
VERTEX
  5
499
  8
LAYER_1
 10
-0.7596519929100262
 20
38.04908411634297
 30
0.0
  0
VERTEX
  5
49A
  8
LAYER_1
 10
-1.257160354893109
 20
37.88686168222291
 30
0.0
  0
VERTEX
  5
49B
  8
LAYER_1
 10
-1.74713738033789
 20
37.70967450699085
 30
0.0
  0
VERTEX
  5
49C
  8
LAYER_1
 10
-2.228868121362159
 20
37.51814167555882
 30
0.0
  0
VERTEX
  5
49D
  8
LAYER_1
 10
-2.701637630083705
 20
37.3128822728389
 30
0.0
  0
VERTEX
  5
49E
  8
LAYER_1
 10
-3.164730958620317
 20
37.09451538374313
 30
0.0
  0
VERTEX
  5
49F
  8
LAYER_1
 10
-3.617433159089785
 20
36.86366009318357
 30
0.0
  0
VERTEX
  5
4A0
  8
LAYER_1
 10
-4.059029283609898
 20
36.62093548607227
 30
0.0
  0
VERTEX
  5
4A1
  8
LAYER_1
 10
-4.488804384298444
 20
36.36696064732131
 30
0.0
  0
VERTEX
  5
4A2
  8
LAYER_1
 10
-4.906043513273215
 20
36.10235466184272
 30
0.0
  0
VERTEX
  5
4A3
  8
LAYER_1
 10
-5.310031722651999
 20
35.82773661454857
 30
0.0
  0
VERTEX
  5
4A4
  8
LAYER_1
 10
-5.700054064552585
 20
35.5437255903509
 30
0.0
  0
VERTEX
  5
4A5
  8
LAYER_1
 10
-6.075395591092763
 20
35.25094067416178
 30
0.0
  0
VERTEX
  5
4A6
  8
LAYER_1
 10
-6.435341354390323
 20
34.95000095089328
 30
0.0
  0
VERTEX
  5
4A7
  8
LAYER_1
 10
-6.779176406563053
 20
34.64152550545742
 30
0.0
  0
VERTEX
  5
4A8
  8
LAYER_1
 10
-7.106185799728743
 20
34.32613342276629
 30
0.0
  0
VERTEX
  5
4A9
  8
LAYER_1
 10
-7.415654586005182
 20
34.00444378773193
 30
0.0
  0
VERTEX
  5
4AA
  8
LAYER_1
 10
-7.70686781751016
 20
33.6770756852664
 30
0.0
  0
VERTEX
  5
4AB
  8
LAYER_1
 10
-7.979110546361467
 20
33.34464820028175
 30
0.0
  0
VERTEX
  5
4AC
  8
LAYER_1
 10
-8.23166782467689
 20
33.00778041769004
 30
0.0
  0
VERTEX
  5
4AD
  8
LAYER_1
 10
-8.463824704574222
 20
32.66709142240333
 30
0.0
  0
VERTEX
  5
4AE
  8
LAYER_1
 10
-8.67486623817125
 20
32.32320029933368
 30
0.0
  0
VERTEX
  5
4AF
  8
LAYER_1
 10
-8.864077477585761
 20
31.97672613339313
 30
0.0
  0
VERTEX
  5
4B0
  8
LAYER_1
 10
-9.03074347493555
 20
31.62828800949375
 30
0.0
  0
VERTEX
  5
4B1
  8
LAYER_1
 10
-9.174149282338401
 20
31.27850501254759
 30
0.0
  0
VERTEX
  5
4B2
  8
LAYER_1
 10
-9.293579951912108
 20
30.92799622746671
 30
0.0
  0
VERTEX
  5
4B3
  8
LAYER_1
 10
-9.388320535774458
 20
30.57738073916316
 30
0.0
  0
VERTEX
  5
4B4
  8
LAYER_1
 10
-9.45765608604324
 20
30.227277632549
 30
0.0
  0
VERTEX
  5
4B5
  8
LAYER_1
 10
-9.500871654836246
 20
29.87830599253628
 30
0.0
  0
VERTEX
  5
4B6
  8
LAYER_1
 10
-9.517252294271259
 20
29.53108490403707
 30
0.0
  0
VERTEX
  5
4B7
  8
LAYER_1
 10
-9.511764802457272
 20
29.30528018417375
 30
0.0
  0
VERTEX
  5
4B8
  8
LAYER_1
 10
-9.491629304052946
 20
29.07690581168
 30
0.0
  0
VERTEX
  5
4B9
  8
LAYER_1
 10
-9.456640468340233
 20
28.84572722535943
 30
0.0
  0
VERTEX
  5
4BA
  8
LAYER_1
 10
-9.406592964601082
 20
28.61150986401567
 30
0.0
  0
VERTEX
  5
4BB
  8
LAYER_1
 10
-9.341281462117443
 20
28.37401916645235
 30
0.0
  0
VERTEX
  5
4BC
  8
LAYER_1
 10
-9.260500630171267
 20
28.1330205714731
 30
0.0
  0
VERTEX
  5
4BD
  8
LAYER_1
 10
-9.164045138044507
 20
27.88827951788155
 30
0.0
  0
VERTEX
  5
4BE
  8
LAYER_1
 10
-9.05170965501911
 20
27.63956144448133
 30
0.0
  0
VERTEX
  5
4BF
  8
LAYER_1
 10
-8.923288850377027
 20
27.38663179007606
 30
0.0
  0
VERTEX
  5
4C0
  8
LAYER_1
 10
-8.778577393400212
 20
27.12925599346937
 30
0.0
  0
VERTEX
  5
4C1
  8
LAYER_1
 10
-8.617369953370613
 20
26.86719949346489
 30
0.0
  0
VERTEX
  5
4C2
  8
LAYER_1
 10
-8.439461199570179
 20
26.60022772886625
 30
0.0
  0
VERTEX
  5
4C3
  8
LAYER_1
 10
-8.244645801280864
 20
26.32810613847708
 30
0.0
  0
VERTEX
  5
4C4
  8
LAYER_1
 10
-8.03271842778462
 20
26.05060016110099
 30
0.0
  0
VERTEX
  5
4C5
  8
LAYER_1
 10
-7.803473748363389
 20
25.76747523554163
 30
0.0
  0
VERTEX
  5
4C6
  8
LAYER_1
 10
-7.55670643229913
 20
25.47849680060262
 30
0.0
  0
VERTEX
  5
4C7
  8
LAYER_1
 10
-7.29221114887379
 20
25.18343029508758
 30
0.0
  0
VERTEX
  5
4C8
  8
LAYER_1
 10
-7.009782567369321
 20
24.88204115780015
 30
0.0
  0
VERTEX
  5
4C9
  8
LAYER_1
 10
-6.709215357067674
 20
24.57409482754395
 30
0.0
  0
VERTEX
  5
4CA
  8
LAYER_1
 10
-6.390304187250797
 20
24.25935674312262
 30
0.0
  0
VERTEX
  5
4CB
  8
LAYER_1
 10
-6.052843727200642
 20
23.93759234333977
 30
0.0
  0
VERTEX
  5
4CC
  8
LAYER_1
 10
-5.69662864619916
 20
23.60856706699904
 30
0.0
  0
VERTEX
  5
4CD
  8
LAYER_1
 10
-4.927113298470016
 20
22.92779563985844
 30
0.0
  0
VERTEX
  5
4CE
  8
LAYER_1
 10
-4.080115498318969
 20
22.21516597212985
 30
0.0
  0
VERTEX
  5
4CF
  8
LAYER_1
 10
-3.153992600001625
 20
21.46880157424227
 30
0.0
  0
VERTEX
  5
4D0
  8
LAYER_1
 10
-2.147101957773588
 20
20.68682595662475
 30
0.0
  0
VERTEX
  5
4D1
  8
LAYER_1
 10
-1.057800925890461
 20
19.86736262970631
 30
0.0
  0
VERTEX
  5
4D2
  8
LAYER_1
 10
2.294120370441291
 20
17.38144977641936
 30
0.0
  0
VERTEX
  5
4D3
  8
LAYER_1
 10
3.699474744937106
 20
16.62822488820967
 30
0.0
  0
VERTEX
  5
4D4
  8
LAYER_1
 10
4.273396101910851
 20
16.33618803916509
 30
0.0
  0
VERTEX
  5
4D5
  8
LAYER_1
 10
4.797169390841397
 20
16.09784665034027
 30
0.0
  0
VERTEX
  5
4D6
  8
LAYER_1
 10
5.022169217744393
 20
16.00647985923026
 30
0.0
  0
VERTEX
  5
4D7
  8
LAYER_1
 10
5.2129344771813
 20
15.93773866003917
 30
0.0
  0
VERTEX
  5
4D8
  8
LAYER_1
 10
5.362232652333685
 20
15.894690295055
 30
0.0
  0
SEQEND
  5
4D9
  8
LAYER_1
  0
POLYLINE
  5
47
  8
LAYER_1
 66
     1
 10
0.0
 20
0.0
 30
0.0
 70
     1
  0
VERTEX
  5
4DA
  8
LAYER_1
 10
-34.18026938146735
 20
34.21944444444443
 30
0.0
  0
VERTEX
  5
4DB
  8
LAYER_1
 10
-34.11727321112114
 20
34.22999427726563
 30
0.0
  0
VERTEX
  5
4DC
  8
LAYER_1
 10
-34.05850332736114
 20
34.2602304009972
 30
0.0
  0
VERTEX
  5
4DD
  8
LAYER_1
 10
-34.00524599132224
 20
34.30803275354111
 30
0.0
  0
VERTEX
  5
4DE
  8
LAYER_1
 10
-33.95878746413936
 20
34.3712812727993
 30
0.0
  0
VERTEX
  5
4DF
  8
LAYER_1
 10
-33.92041400694745
 20
34.44785589667374
 30
0.0
  0
VERTEX
  5
4E0
  8
LAYER_1
 10
-33.89141188088141
 20
34.5356365630664
 30
0.0
  0
VERTEX
  5
4E1
  8
LAYER_1
 10
-33.87306734707617
 20
34.63250320987923
 30
0.0
  0
VERTEX
  5
4E2
  8
LAYER_1
 10
-33.86666666666667
 20
34.7363357750142
 30
0.0
  0
VERTEX
  5
4E3
  8
LAYER_1
 10
-33.86040287701938
 20
34.84525663876919
 30
0.0
  0
VERTEX
  5
4E4
  8
LAYER_1
 10
-33.84189600469739
 20
34.95805634895277
 30
0.0
  0
VERTEX
  5
4E5
  8
LAYER_1
 10
-33.81157279463054
 20
35.0743669126152
 30
0.0
  0
VERTEX
  5
4E6
  8
LAYER_1
 10
-33.76985999174865
 20
35.19382033680678
 30
0.0
  0
VERTEX
  5
4E7
  8
LAYER_1
 10
-33.71718434098156
 20
35.31604862857778
 30
0.0
  0
VERTEX
  5
4E8
  8
LAYER_1
 10
-33.65397258725909
 20
35.4406837949785
 30
0.0
  0
VERTEX
  5
4E9
  8
LAYER_1
 10
-33.49764775066738
 20
35.69570277987019
 30
0.0
  0
VERTEX
  5
4EA
  8
LAYER_1
 10
-33.30429944141214
 20
35.95593334788413
 30
0.0
  0
VERTEX
  5
4EB
  8
LAYER_1
 10
-33.07734161893205
 20
36.21843155542255
 30
0.0
  0
VERTEX
  5
4EC
  8
LAYER_1
 10
-32.82018824266572
 20
36.48025345888777
 30
0.0
  0
VERTEX
  5
4ED
  8
LAYER_1
 10
-32.53625327205183
 20
36.73845511468201
 30
0.0
  0
VERTEX
  5
4EE
  8
LAYER_1
 10
-32.22895066652902
 20
36.99009257920756
 30
0.0
  0
VERTEX
  5
4EF
  8
LAYER_1
 10
-31.90169438553593
 20
37.23222190886668
 30
0.0
  0
VERTEX
  5
4F0
  8
LAYER_1
 10
-31.55789838851121
 20
37.46189916006162
 30
0.0
  0
VERTEX
  5
4F1
  8
LAYER_1
 10
-31.20097663489352
 20
37.67618038919466
 30
0.0
  0
VERTEX
  5
4F2
  8
LAYER_1
 10
-30.8343430841215
 20
37.87212165266806
 30
0.0
  0
VERTEX
  5
4F3
  8
LAYER_1
 10
-30.46141169563379
 20
38.04677900688409
 30
0.0
  0
VERTEX
  5
4F4
  8
LAYER_1
 10
-30.08559642886905
 20
38.19720850824501
 30
0.0
  0
VERTEX
  5
4F5
  8
LAYER_1
 10
-29.71031124326593
 20
38.32046621315308
 30
0.0
  0
VERTEX
  5
4F6
  8
LAYER_1
 10
-29.28603195614868
 20
38.4340990819351
 30
0.0
  0
VERTEX
  5
4F7
  8
LAYER_1
 10
-28.85415871710708
 20
38.52918587458931
 30
0.0
  0
VERTEX
  5
4F8
  8
LAYER_1
 10
-28.40885614601196
 20
38.60541783369416
 30
0.0
  0
VERTEX
  5
4F9
  8
LAYER_1
 10
-27.94428886273415
 20
38.66248620182813
 30
0.0
  0
VERTEX
  5
4FA
  8
LAYER_1
 10
-27.45462148714446
 20
38.70008222156969
 30
0.0
  0
VERTEX
  5
4FB
  8
LAYER_1
 10
-26.93401863911373
 20
38.71789713549729
 30
0.0
  0
VERTEX
  5
4FC
  8
LAYER_1
 10
-26.37664493851278
 20
38.71562218618941
 30
0.0
  0
VERTEX
  5
4FD
  8
LAYER_1
 10
-25.77666500521243
 20
38.69294861622451
 30
0.0
  0
VERTEX
  5
4FE
  8
LAYER_1
 10
-25.1282434590835
 20
38.64956766818105
 30
0.0
  0
VERTEX
  5
4FF
  8
LAYER_1
 10
-24.42554491999683
 20
38.5851705846375
 30
0.0
  0
VERTEX
  5
500
  8
LAYER_1
 10
-23.66273400782324
 20
38.49944860817233
 30
0.0
  0
VERTEX
  5
501
  8
LAYER_1
 10
-22.83397534243355
 20
38.392092981364
 30
0.0
  0
VERTEX
  5
502
  8
LAYER_1
 10
-21.93343354369858
 20
38.26279494679099
 30
0.0
  0
VERTEX
  5
503
  8
LAYER_1
 10
-20.95527323148917
 20
38.11124574703175
 30
0.0
  0
VERTEX
  5
504
  8
LAYER_1
 10
-19.89365902567614
 20
37.93713662466475
 30
0.0
  0
VERTEX
  5
505
  8
LAYER_1
 10
-18.7427555461303
 20
37.74015882226844
 30
0.0
  0
VERTEX
  5
506
  8
LAYER_1
 10
-17.76307781035406
 20
37.58227875938924
 30
0.0
  0
VERTEX
  5
507
  8
LAYER_1
 10
-16.75089318541644
 20
37.44365605886672
 30
0.0
  0
VERTEX
  5
508
  8
LAYER_1
 10
-15.71436840354872
 20
37.32496648906982
 30
0.0
  0
VERTEX
  5
509
  8
LAYER_1
 10
-14.66167019698215
 20
37.22688581836749
 30
0.0
  0
VERTEX
  5
50A
  8
LAYER_1
 10
-13.60096529794799
 20
37.15008981512863
 30
0.0
  0
VERTEX
  5
50B
  8
LAYER_1
 10
-12.54042043867749
 20
37.09525424772219
 30
0.0
  0
VERTEX
  5
50C
  8
LAYER_1
 10
-11.48820235140192
 20
37.0630548845171
 30
0.0
  0
VERTEX
  5
50D
  8
LAYER_1
 10
-10.45247776835252
 20
37.0541674938823
 30
0.0
  0
VERTEX
  5
50E
  8
LAYER_1
 10
-6.173611111111114
 20
37.06666832109796
 30
0.0
  0
VERTEX
  5
50F
  8
LAYER_1
 10
-4.489913230000866
 20
37.99991875094881
 30
0.0
  0
VERTEX
  5
510
  8
LAYER_1
 10
-6.213706615000433
 20
39.16085837388155
 30
0.0
  0
VERTEX
  5
511
  8
LAYER_1
 10
-6.635582965222839
 20
39.46749938704968
 30
0.0
  0
VERTEX
  5
512
  8
LAYER_1
 10
-7.175305166311462
 20
39.89552250990974
 30
0.0
  0
VERTEX
  5
513
  8
LAYER_1
 10
-7.81061010086689
 20
40.42540925918486
 30
0.0
  0
VERTEX
  5
514
  8
LAYER_1
 10
-8.519234651489711
 20
41.03764115159819
 30
0.0
  0
VERTEX
  5
515
  8
LAYER_1
 10
-9.278915700780512
 20
41.71269970387289
 30
0.0
  0
VERTEX
  5
516
  8
LAYER_1
 10
-10.06739013133988
 20
42.43106643273207
 30
0.0
  0
VERTEX
  5
517
  8
LAYER_1
 10
-10.8623948257684
 20
43.17322285489889
 30
0.0
  0
VERTEX
  5
518
  8
LAYER_1
 10
-11.64166666666667
 20
43.91965048709649
 30
0.0
  0
VERTEX
  5
519
  8
LAYER_1
 10
-15.34583333333333
 20
47.51750297737865
 30
0.0
  0
VERTEX
  5
51A
  8
LAYER_1
 10
-16.93703882930418
 20
48.43720369349215
 30
0.0
  0
VERTEX
  5
51B
  8
LAYER_1
 10
-17.3620034380803
 20
48.67719893316643
 30
0.0
  0
VERTEX
  5
51C
  8
LAYER_1
 10
-17.78765951099259
 20
48.90643161005516
 30
0.0
  0
VERTEX
  5
51D
  8
LAYER_1
 10
-18.21364924444125
 20
49.12484162884795
 30
0.0
  0
VERTEX
  5
51E
  8
LAYER_1
 10
-18.63961483482647
 20
49.33236889423443
 30
0.0
  0
VERTEX
  5
51F
  8
LAYER_1
 10
-19.06519847854846
 20
49.52895331090423
 30
0.0
  0
VERTEX
  5
520
  8
LAYER_1
 10
-19.49004237200742
 20
49.71453478354694
 30
0.0
  0
VERTEX
  5
521
  8
LAYER_1
 10
-19.91378871160353
 20
49.8890532168522
 30
0.0
  0
VERTEX
  5
522
  8
LAYER_1
 10
-20.33607969373701
 20
50.05244851550961
 30
0.0
  0
VERTEX
  5
523
  8
LAYER_1
 10
-20.75655751480804
 20
50.2046605842088
 30
0.0
  0
VERTEX
  5
524
  8
LAYER_1
 10
-21.17486437121684
 20
50.34562932763937
 30
0.0
  0
VERTEX
  5
525
  8
LAYER_1
 10
-21.5906424593636
 20
50.47529465049095
 30
0.0
  0
VERTEX
  5
526
  8
LAYER_1
 10
-22.00353397564852
 20
50.59359645745316
 30
0.0
  0
VERTEX
  5
527
  8
LAYER_1
 10
-22.41318111647179
 20
50.70047465321561
 30
0.0
  0
VERTEX
  5
528
  8
LAYER_1
 10
-22.81922607823362
 20
50.79586914246791
 30
0.0
  0
VERTEX
  5
529
  8
LAYER_1
 10
-23.2213110573342
 20
50.87971982989969
 30
0.0
  0
VERTEX
  5
52A
  8
LAYER_1
 10
-23.61907825017374
 20
50.95196662020057
 30
0.0
  0
VERTEX
  5
52B
  8
LAYER_1
 10
-24.01216985315244
 20
51.01254941806015
 30
0.0
  0
VERTEX
  5
52C
  8
LAYER_1
 10
-24.40022806267048
 20
51.06140812816805
 30
0.0
  0
VERTEX
  5
52D
  8
LAYER_1
 10
-24.78289507512808
 20
51.0984826552139
 30
0.0
  0
VERTEX
  5
52E
  8
LAYER_1
 10
-25.15981308692543
 20
51.12371290388731
 30
0.0
  0
VERTEX
  5
52F
  8
LAYER_1
 10
-25.53062429446273
 20
51.13703877887789
 30
0.0
  0
VERTEX
  5
530
  8
LAYER_1
 10
-25.89497089414017
 20
51.13840018487528
 30
0.0
  0
VERTEX
  5
531
  8
LAYER_1
 10
-26.25249508235797
 20
51.12773702656906
 30
0.0
  0
VERTEX
  5
532
  8
LAYER_1
 10
-26.60283905551632
 20
51.10498920864888
 30
0.0
  0
VERTEX
  5
533
  8
LAYER_1
 10
-26.94564501001541
 20
51.07009663580434
 30
0.0
  0
VERTEX
  5
534
  8
LAYER_1
 10
-27.28055514225544
 20
51.02299921272506
 30
0.0
  0
VERTEX
  5
535
  8
LAYER_1
 10
-27.60721164863663
 20
50.96363684410066
 30
0.0
  0
VERTEX
  5
536
  8
LAYER_1
 10
-27.92525672555915
 20
50.89194943462076
 30
0.0
  0
VERTEX
  5
537
  8
LAYER_1
 10
-28.23433256942322
 20
50.80787688897496
 30
0.0
  0
VERTEX
  5
538
  8
LAYER_1
 10
-28.53408137662903
 20
50.7113591118529
 30
0.0
  0
VERTEX
  5
539
  8
LAYER_1
 10
-28.82414534357678
 20
50.60233600794418
 30
0.0
  0
VERTEX
  5
53A
  8
LAYER_1
 10
-29.10416666666666
 20
50.48074748193842
 30
0.0
  0
VERTEX
  5
53B
  8
LAYER_1
 10
-29.39991953805313
 20
50.33470826261146
 30
0.0
  0
VERTEX
  5
53C
  8
LAYER_1
 10
-29.69335590035913
 20
50.17313592883998
 30
0.0
  0
VERTEX
  5
53D
  8
LAYER_1
 10
-29.98409020720852
 20
49.99660439646928
 30
0.0
  0
VERTEX
  5
53E
  8
LAYER_1
 10
-30.27173691222517
 20
49.80568758134466
 30
0.0
  0
VERTEX
  5
53F
  8
LAYER_1
 10
-30.55591046903294
 20
49.60095939931139
 30
0.0
  0
VERTEX
  5
540
  8
LAYER_1
 10
-30.83622533125568
 20
49.38299376621481
 30
0.0
  0
VERTEX
  5
541
  8
LAYER_1
 10
-31.11229595251726
 20
49.15236459790017
 30
0.0
  0
VERTEX
  5
542
  8
LAYER_1
 10
-31.38373678644154
 20
48.90964581021281
 30
0.0
  0
VERTEX
  5
543
  8
LAYER_1
 10
-31.65016228665239
 20
48.65541131899799
 30
0.0
  0
VERTEX
  5
544
  8
LAYER_1
 10
-31.91118690677365
 20
48.39023504010103
 30
0.0
  0
VERTEX
  5
545
  8
LAYER_1
 10
-32.16642510042921
 20
48.11469088936722
 30
0.0
  0
VERTEX
  5
546
  8
LAYER_1
 10
-32.4154913212429
 20
47.82935278264186
 30
0.0
  0
VERTEX
  5
547
  8
LAYER_1
 10
-32.65800002283859
 20
47.53479463577024
 30
0.0
  0
VERTEX
  5
548
  8
LAYER_1
 10
-32.89356565884016
 20
47.23159036459765
 30
0.0
  0
VERTEX
  5
549
  8
LAYER_1
 10
-33.12180268287145
 20
46.9203138849694
 30
0.0
  0
VERTEX
  5
54A
  8
LAYER_1
 10
-33.34232554855634
 20
46.60153911273078
 30
0.0
  0
VERTEX
  5
54B
  8
LAYER_1
 10
-33.55474870951868
 20
46.27583996372709
 30
0.0
  0
VERTEX
  5
54C
  8
LAYER_1
 10
-33.75868661938232
 20
45.94379035380362
 30
0.0
  0
VERTEX
  5
54D
  8
LAYER_1
 10
-33.95375373177114
 20
45.60596419880567
 30
0.0
  0
VERTEX
  5
54E
  8
LAYER_1
 10
-34.13956450030899
 20
45.26293541457854
 30
0.0
  0
VERTEX
  5
54F
  8
LAYER_1
 10
-34.31573337861974
 20
44.91527791696751
 30
0.0
  0
VERTEX
  5
550
  8
LAYER_1
 10
-34.48187482032725
 20
44.56356562181791
 30
0.0
  0
VERTEX
  5
551
  8
LAYER_1
 10
-34.63760327905537
 20
44.20837244497501
 30
0.0
  0
VERTEX
  5
552
  8
LAYER_1
 10
-34.78253320842797
 20
43.8502723022841
 30
0.0
  0
VERTEX
  5
553
  8
LAYER_1
 10
-34.91627906206891
 20
43.48983910959049
 30
0.0
  0
VERTEX
  5
554
  8
LAYER_1
 10
-35.03845529360206
 20
43.12764678273948
 30
0.0
  0
VERTEX
  5
555
  8
LAYER_1
 10
-35.14867635665126
 20
42.76426923757636
 30
0.0
  0
VERTEX
  5
556
  8
LAYER_1
 10
-35.24655670484039
 20
42.40028038994643
 30
0.0
  0
VERTEX
  5
557
  8
LAYER_1
 10
-35.3317107917933
 20
42.03625415569498
 30
0.0
  0
VERTEX
  5
558
  8
LAYER_1
 10
-35.40375307113386
 20
41.67276445066732
 30
0.0
  0
VERTEX
  5
559
  8
LAYER_1
 10
-35.46229799648593
 20
41.31038519070873
 30
0.0
  0
VERTEX
  5
55A
  8
LAYER_1
 10
-35.50696002147336
 20
40.94969029166451
 30
0.0
  0
VERTEX
  5
55B
  8
LAYER_1
 10
-35.53763105926603
 20
40.5084619208337
 30
0.0
  0
VERTEX
  5
55C
  8
LAYER_1
 10
-35.54398812729669
 20
40.02346597097585
 30
0.0
  0
VERTEX
  5
55D
  8
LAYER_1
 10
-35.52799595614881
 20
39.50466943775047
 30
0.0
  0
VERTEX
  5
55E
  8
LAYER_1
 10
-35.49161927640589
 20
38.96203931681706
 30
0.0
  0
VERTEX
  5
55F
  8
LAYER_1
 10
-35.43682281865141
 20
38.4055426038351
 30
0.0
  0
VERTEX
  5
560
  8
LAYER_1
 10
-35.36557131346888
 20
37.84514629446408
 30
0.0
  0
VERTEX
  5
561
  8
LAYER_1
 10
-35.27982949144176
 20
37.2908173843635
 30
0.0
  0
VERTEX
  5
562
  8
LAYER_1
 10
-35.18156208315356
 20
36.75252286919286
 30
0.0
  0
VERTEX
  5
563
  8
LAYER_1
 10
-35.07273381918775
 20
36.24022974461164
 30
0.0
  0
VERTEX
  5
564
  8
LAYER_1
 10
-34.95530943012784
 20
35.76390500627934
 30
0.0
  0
VERTEX
  5
565
  8
LAYER_1
 10
-34.8312536465573
 20
35.33351564985544
 30
0.0
  0
VERTEX
  5
566
  8
LAYER_1
 10
-34.70253119905963
 20
34.95902867099946
 30
0.0
  0
VERTEX
  5
567
  8
LAYER_1
 10
-34.57110681821831
 20
34.65041106537088
 30
0.0
  0
VERTEX
  5
568
  8
LAYER_1
 10
-34.50499538110112
 20
34.52391796366044
 30
0.0
  0
VERTEX
  5
569
  8
LAYER_1
 10
-34.43894523461682
 20
34.41762982862918
 30
0.0
  0
VERTEX
  5
56A
  8
LAYER_1
 10
-34.37320197008837
 20
34.33279253473451
 30
0.0
  0
VERTEX
  5
56B
  8
LAYER_1
 10
-34.30801117883868
 20
34.27065195643387
 30
0.0
  0
VERTEX
  5
56C
  8
LAYER_1
 10
-34.2436184521907
 20
34.2324539681847
 30
0.0
  0
SEQEND
  5
56D
  8
LAYER_1
  0
POLYLINE
  5
48
  8
LAYER_1
 66
     1
 10
0.0
 20
0.0
 30
0.0
 70
     1
  0
VERTEX
  5
56E
  8
LAYER_1
 10
11.13590345528884
 20
38.4967888535967
 30
0.0
  0
VERTEX
  5
56F
  8
LAYER_1
 10
11.46820183471969
 20
38.48998334069158
 30
0.0
  0
VERTEX
  5
570
  8
LAYER_1
 10
11.84161788786037
 20
38.50677968966427
 30
0.0
  0
VERTEX
  5
571
  8
LAYER_1
 10
12.25417421369734
 20
38.54665256825197
 30
0.0
  0
VERTEX
  5
572
  8
LAYER_1
 10
12.70389341121703
 20
38.60907664419187
 30
0.0
  0
VERTEX
  5
573
  8
LAYER_1
 10
13.18879807940587
 20
38.69352658522118
 30
0.0
  0
VERTEX
  5
574
  8
LAYER_1
 10
13.7069108172503
 20
38.79947705907706
 30
0.0
  0
VERTEX
  5
575
  8
LAYER_1
 10
14.25625422373675
 20
38.92640273349674
 30
0.0
  0
VERTEX
  5
576
  8
LAYER_1
 10
14.83485089785167
 20
39.07377827621741
 30
0.0
  0
VERTEX
  5
577
  8
LAYER_1
 10
15.4407234385815
 20
39.24107835497625
 30
0.0
  0
VERTEX
  5
578
  8
LAYER_1
 10
16.07189444491266
 20
39.42777763751046
 30
0.0
  0
VERTEX
  5
579
  8
LAYER_1
 10
16.72638651583159
 20
39.63335079155723
 30
0.0
  0
VERTEX
  5
57A
  8
LAYER_1
 10
17.40222225032474
 20
39.85727248485378
 30
0.0
  0
VERTEX
  5
57B
  8
LAYER_1
 10
18.09742424737854
 20
40.09901738513728
 30
0.0
  0
VERTEX
  5
57C
  8
LAYER_1
 10
18.81001510597942
 20
40.35806016014494
 30
0.0
  0
VERTEX
  5
57D
  8
LAYER_1
 10
19.53801742511382
 20
40.63387547761394
 30
0.0
  0
VERTEX
  5
57E
  8
LAYER_1
 10
20.27945380376819
 20
40.92593800528148
 30
0.0
  0
VERTEX
  5
57F
  8
LAYER_1
 10
24.51805555555555
 20
42.62712460486426
 30
0.0
  0
VERTEX
  5
580
  8
LAYER_1
 10
26.54652777777777
 20
42.87365497095325
 30
0.0
  0
VERTEX
  5
581
  8
LAYER_1
 10
26.95841038631988
 20
42.92842623382727
 30
0.0
  0
VERTEX
  5
582
  8
LAYER_1
 10
27.3209448825118
 20
42.98829161888902
 30
0.0
  0
VERTEX
  5
583
  8
LAYER_1
 10
27.63531842144253
 20
43.05589354091624
 30
0.0
  0
VERTEX
  5
584
  8
LAYER_1
 10
27.90271815820111
 20
43.13387441468669
 30
0.0
  0
VERTEX
  5
585
  8
LAYER_1
 10
28.01917383673117
 20
43.17758271309368
 30
0.0
  0
VERTEX
  5
586
  8
LAYER_1
 10
28.12433124787658
 20
43.22487665497813
 30
0.0
  0
VERTEX
  5
587
  8
LAYER_1
 10
28.21833878602346
 20
43.27608654218727
 30
0.0
  0
VERTEX
  5
588
  8
LAYER_1
 10
28.30134484555796
 20
43.33154267656833
 30
0.0
  0
VERTEX
  5
589
  8
LAYER_1
 10
28.37349782086619
 20
43.3915753599685
 30
0.0
  0
VERTEX
  5
58A
  8
LAYER_1
 10
28.43494610633428
 20
43.45651489423502
 30
0.0
  0
VERTEX
  5
58B
  8
LAYER_1
 10
28.48583809634837
 20
43.5266915812151
 30
0.0
  0
VERTEX
  5
58C
  8
LAYER_1
 10
28.52632218529458
 20
43.60243572275597
 30
0.0
  0
VERTEX
  5
58D
  8
LAYER_1
 10
28.55654676755905
 20
43.68407762070485
 30
0.0
  0
VERTEX
  5
58E
  8
LAYER_1
 10
28.57666023752789
 20
43.77194757690895
 30
0.0
  0
VERTEX
  5
58F
  8
LAYER_1
 10
28.58681098958725
 20
43.8663758932155
 30
0.0
  0
VERTEX
  5
590
  8
LAYER_1
 10
28.58714741812324
 20
43.96769287147171
 30
0.0
  0
VERTEX
  5
591
  8
LAYER_1
 10
28.577817917522
 20
44.07622881352481
 30
0.0
  0
VERTEX
  5
592
  8
LAYER_1
 10
28.55897088216965
 20
44.192314021222
 30
0.0
  0
VERTEX
  5
593
  8
LAYER_1
 10
28.49331778475617
 20
44.44845344093758
 30
0.0
  0
VERTEX
  5
594
  8
LAYER_1
 10
28.39137528097181
 20
44.73875354539621
 30
0.0
  0
VERTEX
  5
595
  8
LAYER_1
 10
28.25433052590562
 20
45.06585674937565
 30
0.0
  0
VERTEX
  5
596
  8
LAYER_1
 10
28.08337067464661
 20
45.43240546765366
 30
0.0
  0
VERTEX
  5
597
  8
LAYER_1
 10
27.87968288228383
 20
45.84104211500798
 30
0.0
  0
VERTEX
  5
598
  8
LAYER_1
 10
27.74090409591047
 20
46.09334694184775
 30
0.0
  0
VERTEX
  5
599
  8
LAYER_1
 10
27.58154370365273
 20
46.3472757601088
 30
0.0
  0
VERTEX
  5
59A
  8
LAYER_1
 10
27.40240911497628
 20
46.60233918489985
 30
0.0
  0
VERTEX
  5
59B
  8
LAYER_1
 10
27.20430773934681
 20
46.8580478313296
 30
0.0
  0
VERTEX
  5
59C
  8
LAYER_1
 10
26.98804698623002
 20
47.11391231450676
 30
0.0
  0
VERTEX
  5
59D
  8
LAYER_1
 10
26.75443426509159
 20
47.36944324954003
 30
0.0
  0
VERTEX
  5
59E
  8
LAYER_1
 10
26.50427698539721
 20
47.62415125153811
 30
0.0
  0
VERTEX
  5
59F
  8
LAYER_1
 10
26.23838255661256
 20
47.87754693560971
 30
0.0
  0
VERTEX
  5
5A0
  8
LAYER_1
 10
25.95755838820332
 20
48.12914091686356
 30
0.0
  0
VERTEX
  5
5A1
  8
LAYER_1
 10
25.6626118896352
 20
48.37844381040833
 30
0.0
  0
VERTEX
  5
5A2
  8
LAYER_1
 10
25.35435047037387
 20
48.62496623135276
 30
0.0
  0
VERTEX
  5
5A3
  8
LAYER_1
 10
25.03358153988502
 20
48.86821879480554
 30
0.0
  0
VERTEX
  5
5A4
  8
LAYER_1
 10
24.70111250763433
 20
49.10771211587539
 30
0.0
  0
VERTEX
  5
5A5
  8
LAYER_1
 10
24.3577507830875
 20
49.34295680967099
 30
0.0
  0
VERTEX
  5
5A6
  8
LAYER_1
 10
24.00430377571021
 20
49.57346349130107
 30
0.0
  0
VERTEX
  5
5A7
  8
LAYER_1
 10
23.64157889496816
 20
49.79874277587433
 30
0.0
  0
VERTEX
  5
5A8
  8
LAYER_1
 10
23.27038355032701
 20
50.01830527849948
 30
0.0
  0
VERTEX
  5
5A9
  8
LAYER_1
 10
22.89152515125247
 20
50.23166161428522
 30
0.0
  0
VERTEX
  5
5AA
  8
LAYER_1
 10
22.50581110721021
 20
50.43832239834025
 30
0.0
  0
VERTEX
  5
5AB
  8
LAYER_1
 10
22.11404882766593
 20
50.6377982457733
 30
0.0
  0
VERTEX
  5
5AC
  8
LAYER_1
 10
21.71704572208531
 20
50.82959977169307
 30
0.0
  0
VERTEX
  5
5AD
  8
LAYER_1
 10
21.31560919993404
 20
51.01323759120825
 30
0.0
  0
VERTEX
  5
5AE
  8
LAYER_1
 10
20.91054667067781
 20
51.18822231942755
 30
0.0
  0
VERTEX
  5
5AF
  8
LAYER_1
 10
20.5026655437823
 20
51.3540645714597
 30
0.0
  0
VERTEX
  5
5B0
  8
LAYER_1
 10
20.0927732287132
 20
51.51027496241339
 30
0.0
  0
VERTEX
  5
5B1
  8
LAYER_1
 10
19.68167713493619
 20
51.65636410739732
 30
0.0
  0
VERTEX
  5
5B2
  8
LAYER_1
 10
19.27018467191698
 20
51.79184262152022
 30
0.0
  0
VERTEX
  5
5B3
  8
LAYER_1
 10
18.85910324912123
 20
51.91622111989076
 30
0.0
  0
VERTEX
  5
5B4
  8
LAYER_1
 10
18.44924027601463
 20
52.02901021761768
 30
0.0
  0
VERTEX
  5
5B5
  8
LAYER_1
 10
18.04140316206288
 20
52.12972052980967
 30
0.0
  0
VERTEX
  5
5B6
  8
LAYER_1
 10
17.63639931673166
 20
52.21786267157545
 30
0.0
  0
VERTEX
  5
5B7
  8
LAYER_1
 10
17.23503614948666
 20
52.29294725802372
 30
0.0
  0
VERTEX
  5
5B8
  8
LAYER_1
 10
16.82700108779371
 20
52.35793429512374
 30
0.0
  0
VERTEX
  5
5B9
  8
LAYER_1
 10
16.43204277022356
 20
52.41052631119682
 30
0.0
  0
VERTEX
  5
5BA
  8
LAYER_1
 10
16.04951167475981
 20
52.45032116700575
 30
0.0
  0
VERTEX
  5
5BB
  8
LAYER_1
 10
15.67875827938608
 20
52.47691672331334
 30
0.0
  0
VERTEX
  5
5BC
  8
LAYER_1
 10
15.31913306208598
 20
52.48991084088237
 30
0.0
  0
VERTEX
  5
5BD
  8
LAYER_1
 10
14.96998650084312
 20
52.48890138047565
 30
0.0
  0
VERTEX
  5
5BE
  8
LAYER_1
 10
14.63066907364112
 20
52.47348620285599
 30
0.0
  0
VERTEX
  5
5BF
  8
LAYER_1
 10
14.30053125846358
 20
52.44326316878616
 30
0.0
  0
VERTEX
  5
5C0
  8
LAYER_1
 10
13.97892353329412
 20
52.39783013902898
 30
0.0
  0
VERTEX
  5
5C1
  8
LAYER_1
 10
13.66519637611635
 20
52.33678497434725
 30
0.0
  0
VERTEX
  5
5C2
  8
LAYER_1
 10
13.35870026491389
 20
52.25972553550378
 30
0.0
  0
VERTEX
  5
5C3
  8
LAYER_1
 10
13.05878567767033
 20
52.16624968326133
 30
0.0
  0
VERTEX
  5
5C4
  8
LAYER_1
 10
12.76480309236931
 20
52.05595527838273
 30
0.0
  0
VERTEX
  5
5C5
  8
LAYER_1
 10
12.47610298699442
 20
51.92844018163078
 30
0.0
  0
VERTEX
  5
5C6
  8
LAYER_1
 10
12.19203583952928
 20
51.78330225376827
 30
0.0
  0
VERTEX
  5
5C7
  8
LAYER_1
 10
11.91195212795751
 20
51.620139355558
 30
0.0
  0
VERTEX
  5
5C8
  8
LAYER_1
 10
11.63520233026271
 20
51.43854934776277
 30
0.0
  0
VERTEX
  5
5C9
  8
LAYER_1
 10
11.3611369244285
 20
51.23813009114539
 30
0.0
  0
VERTEX
  5
5CA
  8
LAYER_1
 10
11.08910638843849
 20
51.01847944646863
 30
0.0
  0
VERTEX
  5
5CB
  8
LAYER_1
 10
10.81846120027629
 20
50.77919527449533
 30
0.0
  0
VERTEX
  5
5CC
  8
LAYER_1
 10
10.54855183792551
 20
50.51987543598825
 30
0.0
  0
VERTEX
  5
5CD
  8
LAYER_1
 10
10.27872877936976
 20
50.24011779171022
 30
0.0
  0
VERTEX
  5
5CE
  8
LAYER_1
 10
10.00834250259267
 20
49.93952020242402
 30
0.0
  0
VERTEX
  5
5CF
  8
LAYER_1
 10
9.736743485577833
 20
49.61768052889245
 30
0.0
  0
VERTEX
  5
5D0
  8
LAYER_1
 10
9.463282206308868
 20
49.27419663187833
 30
0.0
  0
VERTEX
  5
5D1
  8
LAYER_1
 10
9.187309142769388
 20
48.90866637214442
 30
0.0
  0
VERTEX
  5
5D2
  8
LAYER_1
 10
8.908174772943003
 20
48.52068761045356
 30
0.0
  0
VERTEX
  5
5D3
  8
LAYER_1
 10
8.625229574813327
 20
48.10985820756853
 30
0.0
  0
VERTEX
  5
5D4
  8
LAYER_1
 10
8.33782402636397
 20
47.67577602425212
 30
0.0
  0
VERTEX
  5
5D5
  8
LAYER_1
 10
8.045308605578546
 20
47.21803892126715
 30
0.0
  0
VERTEX
  5
5D6
  8
LAYER_1
 10
7.44235005893394
 20
46.22999139934271
 30
0.0
  0
VERTEX
  5
5D7
  8
LAYER_1
 10
7.116308934033853
 20
45.68791808469514
 30
0.0
  0
VERTEX
  5
5D8
  8
LAYER_1
 10
6.80241387608997
 20
45.18029614630684
 30
0.0
  0
VERTEX
  5
5D9
  8
LAYER_1
 10
6.498974491616579
 20
44.70508449769463
 30
0.0
  0
VERTEX
  5
5DA
  8
LAYER_1
 10
6.204300387127967
 20
44.2602420523753
 30
0.0
  0
VERTEX
  5
5DB
  8
LAYER_1
 10
5.916701169138424
 20
43.84372772386563
 30
0.0
  0
VERTEX
  5
5DC
  8
LAYER_1
 10
5.634486444162238
 20
43.45350042568242
 30
0.0
  0
VERTEX
  5
5DD
  8
LAYER_1
 10
5.355965818713698
 20
43.08751907134247
 30
0.0
  0
VERTEX
  5
5DE
  8
LAYER_1
 10
5.079448899307094
 20
42.74374257436257
 30
0.0
  0
VERTEX
  5
5DF
  8
LAYER_1
 10
4.803245292456713
 20
42.42012984825952
 30
0.0
  0
VERTEX
  5
5E0
  8
LAYER_1
 10
4.525664604676845
 20
42.11463980655011
 30
0.0
  0
VERTEX
  5
5E1
  8
LAYER_1
 10
4.245016442481779
 20
41.82523136275114
 30
0.0
  0
VERTEX
  5
5E2
  8
LAYER_1
 10
3.959610412385803
 20
41.54986343037939
 30
0.0
  0
VERTEX
  5
5E3
  8
LAYER_1
 10
3.667756120903206
 20
41.28649492295166
 30
0.0
  0
VERTEX
  5
5E4
  8
LAYER_1
 10
3.367763174548276
 20
41.03308475398477
 30
0.0
  0
VERTEX
  5
5E5
  8
LAYER_1
 10
3.057941179835303
 20
40.78759183699549
 30
0.0
  0
VERTEX
  5
5E6
  8
LAYER_1
 10
2.736599743278575
 20
40.54797508550061
 30
0.0
  0
VERTEX
  5
5E7
  8
LAYER_1
 10
1.390958315895617
 20
39.57319745088687
 30
0.0
  0
VERTEX
  5
5E8
  8
LAYER_1
 10
4.135062491281133
 20
39.31627185337815
 30
0.0
  0
VERTEX
  5
5E9
  8
LAYER_1
 10
5.339728548268933
 20
39.1960541881846
 30
0.0
  0
VERTEX
  5
5EA
  8
LAYER_1
 10
6.591228426258274
 20
39.05865665843972
 30
0.0
  0
VERTEX
  5
5EB
  8
LAYER_1
 10
7.741643602827648
 20
38.92101703598016
 30
0.0
  0
VERTEX
  5
5EC
  8
LAYER_1
 10
8.643055555555549
 20
38.80007309264253
 30
0.0
  0
VERTEX
  5
5ED
  8
LAYER_1
 10
9.385459960143876
 20
38.695929435782
 30
0.0
  0
VERTEX
  5
5EE
  8
LAYER_1
 10
10.10293379276887
 20
38.60403316759172
 30
0.0
  0
VERTEX
  5
5EF
  8
LAYER_1
 10
10.71368048172052
 20
38.53433580216539
 30
0.0
  0
SEQEND
  5
5F0
  8
LAYER_1
  0
POLYLINE
  5
49
  8
LAYER_1
 66
     1
 10
0.0
 20
0.0
 30
0.0
 70
     1
  0
VERTEX
  5
5F1
  8
LAYER_1
 10
-3.472633058796333
 20
39.02040376727248
 30
0.0
  0
VERTEX
  5
5F2
  8
LAYER_1
 10
-3.416992503754185
 20
39.06408802282134
 30
0.0
  0
VERTEX
  5
5F3
  8
LAYER_1
 10
-3.364945020267134
 20
39.12606581777973
 30
0.0
  0
VERTEX
  5
5F4
  8
LAYER_1
 10
-3.31649054846172
 20
39.2059607619275
 30
0.0
  0
VERTEX
  5
5F5
  8
LAYER_1
 10
-3.271629028464478
 20
39.30339646504449
 30
0.0
  0
VERTEX
  5
5F6
  8
LAYER_1
 10
-3.230360400401945
 20
39.41799653691054
 30
0.0
  0
VERTEX
  5
5F7
  8
LAYER_1
 10
-3.192684604400658
 20
39.54938458730551
 30
0.0
  0
VERTEX
  5
5F8
  8
LAYER_1
 10
-3.12811126908797
 20
39.86101906280157
 30
0.0
  0
VERTEX
  5
5F9
  8
LAYER_1
 10
-3.077908543538709
 20
40.23528876977144
 30
0.0
  0
VERTEX
  5
5FA
  8
LAYER_1
 10
-3.042075948765169
 20
40.6691825864539
 30
0.0
  0
VERTEX
  5
5FB
  8
LAYER_1
 10
-3.020613005779644
 20
41.15968939108771
 30
0.0
  0
VERTEX
  5
5FC
  8
LAYER_1
 10
-3.013519235594432
 20
41.70379806191164
 30
0.0
  0
VERTEX
  5
5FD
  8
LAYER_1
 10
-3.020794159221824
 20
42.29849747716447
 30
0.0
  0
VERTEX
  5
5FE
  8
LAYER_1
 10
-3.042437297674116
 20
42.94077651508496
 30
0.0
  0
VERTEX
  5
5FF
  8
LAYER_1
 10
-3.078448171963604
 20
43.62762405391189
 30
0.0
  0
VERTEX
  5
600
  8
LAYER_1
 10
-3.12882630310258
 20
44.35602897188402
 30
0.0
  0
VERTEX
  5
601
  8
LAYER_1
 10
-3.193571212103342
 20
45.12298014724012
 30
0.0
  0
VERTEX
  5
602
  8
LAYER_1
 10
-3.272682419978183
 20
45.92546645821897
 30
0.0
  0
VERTEX
  5
603
  8
LAYER_1
 10
-3.366159447739397
 20
46.76047678305934
 30
0.0
  0
VERTEX
  5
604
  8
LAYER_1
 10
-3.47400181639928
 20
47.62499999999999
 30
0.0
  0
VERTEX
  5
605
  8
LAYER_1
 10
-4.143932725792382
 20
52.74027777777776
 30
0.0
  0
VERTEX
  5
606
  8
LAYER_1
 10
-3.903417325707991
 20
54.50416666666665
 30
0.0
  0
VERTEX
  5
607
  8
LAYER_1
 10
-3.832123154019504
 20
54.91766451846008
 30
0.0
  0
VERTEX
  5
608
  8
LAYER_1
 10
-3.721189521040167
 20
55.41780372148686
 30
0.0
  0
VERTEX
  5
609
  8
LAYER_1
 10
-3.576220846096964
 20
55.98545899721675
 30
0.0
  0
VERTEX
  5
60A
  8
LAYER_1
 10
-3.402821548516878
 20
56.60150506711947
 30
0.0
  0
VERTEX
  5
60B
  8
LAYER_1
 10
-3.206596047626891
 20
57.24681665266477
 30
0.0
  0
VERTEX
  5
60C
  8
LAYER_1
 10
-2.993148762753988
 20
57.90226847532238
 30
0.0
  0
VERTEX
  5
60D
  8
LAYER_1
 10
-2.768084113225151
 20
58.54873525656205
 30
0.0
  0
VERTEX
  5
60E
  8
LAYER_1
 10
-2.537006518367363
 20
59.16709171785352
 30
0.0
  0
VERTEX
  5
60F
  8
LAYER_1
 10
-2.24202415412935
 20
59.9476439999637
 30
0.0
  0
VERTEX
  5
610
  8
LAYER_1
 10
-1.990470112330331
 20
60.66192687816813
 30
0.0
  0
VERTEX
  5
611
  8
LAYER_1
 10
-1.782793302432962
 20
61.31408222890405
 30
0.0
  0
VERTEX
  5
612
  8
LAYER_1
 10
-1.619442633899902
 20
61.90825192860869
 30
0.0
  0
VERTEX
  5
613
  8
LAYER_1
 10
-1.554529886852067
 20
62.18488649571093
 30
0.0
  0
VERTEX
  5
614
  8
LAYER_1
 10
-1.500867016193806
 20
62.44857785371931
 30
0.0
  0
VERTEX
  5
615
  8
LAYER_1
 10
-1.458510135607951
 20
62.69984373718849
 30
0.0
  0
VERTEX
  5
616
  8
LAYER_1
 10
-1.427515358777333
 20
62.93920188067314
 30
0.0
  0
VERTEX
  5
617
  8
LAYER_1
 10
-1.407938799384785
 20
63.1671700187279
 30
0.0
  0
VERTEX
  5
618
  8
LAYER_1
 10
-1.399836571113139
 20
63.38426588590744
 30
0.0
  0
VERTEX
  5
619
  8
LAYER_1
 10
-1.403264787645227
 20
63.59100721676639
 30
0.0
  0
VERTEX
  5
61A
  8
LAYER_1
 10
-1.418279562663882
 20
63.78791174585943
 30
0.0
  0
VERTEX
  5
61B
  8
LAYER_1
 10
-1.444937009851935
 20
63.9754972077412
 30
0.0
  0
VERTEX
  5
61C
  8
LAYER_1
 10
-1.483293242892218
 20
64.15428133696636
 30
0.0
  0
VERTEX
  5
61D
  8
LAYER_1
 10
-1.533404375467564
 20
64.32478186808959
 30
0.0
  0
VERTEX
  5
61E
  8
LAYER_1
 10
-1.595326521260804
 20
64.48751653566552
 30
0.0
  0
VERTEX
  5
61F
  8
LAYER_1
 10
-1.669115793954772
 20
64.6430030742488
 30
0.0
  0
VERTEX
  5
620
  8
LAYER_1
 10
-1.754828307232299
 20
64.7917592183941
 30
0.0
  0
VERTEX
  5
621
  8
LAYER_1
 10
-1.852520174776216
 20
64.93430270265608
 30
0.0
  0
VERTEX
  5
622
  8
LAYER_1
 10
-1.962247510269357
 20
65.07115126158936
 30
0.0
  0
VERTEX
  5
623
  8
LAYER_1
 10
-2.084066427394554
 20
65.20282262974864
 30
0.0
  0
VERTEX
  5
624
  8
LAYER_1
 10
-2.218033039834638
 20
65.32983454168856
 30
0.0
  0
VERTEX
  5
625
  8
LAYER_1
 10
-2.364203461272441
 20
65.45270473196376
 30
0.0
  0
VERTEX
  5
626
  8
LAYER_1
 10
-2.522633805390798
 20
65.57195093512891
 30
0.0
  0
VERTEX
  5
627
  8
LAYER_1
 10
-2.693380185872537
 20
65.68809088573866
 30
0.0
  0
VERTEX
  5
628
  8
LAYER_1
 10
-2.876498716400493
 20
65.80164231834769
 30
0.0
  0
VERTEX
  5
629
  8
LAYER_1
 10
-3.280076682326381
 20
66.02305056778211
 30
0.0
  0
VERTEX
  5
62A
  8
LAYER_1
 10
-3.488921886693895
 20
66.12536283693905
 30
0.0
  0
VERTEX
  5
62B
  8
LAYER_1
 10
-3.697546697327505
 20
66.21898447651343
 30
0.0
  0
VERTEX
  5
62C
  8
LAYER_1
 10
-3.906204882789696
 20
66.30387547174881
 30
0.0
  0
VERTEX
  5
62D
  8
LAYER_1
 10
-4.115150211642954
 20
66.37999580788875
 30
0.0
  0
VERTEX
  5
62E
  8
LAYER_1
 10
-4.324636452449765
 20
66.4473054701768
 30
0.0
  0
VERTEX
  5
62F
  8
LAYER_1
 10
-4.534917373772616
 20
66.5057644438565
 30
0.0
  0
VERTEX
  5
630
  8
LAYER_1
 10
-4.746246744173991
 20
66.55533271417141
 30
0.0
  0
VERTEX
  5
631
  8
LAYER_1
 10
-4.958878332216376
 20
66.5959702663651
 30
0.0
  0
VERTEX
  5
632
  8
LAYER_1
 10
-5.173065906462258
 20
66.6276370856811
 30
0.0
  0
VERTEX
  5
633
  8
LAYER_1
 10
-5.389063235474122
 20
66.65029315736297
 30
0.0
  0
VERTEX
  5
634
  8
LAYER_1
 10
-5.607124087814454
 20
66.66389846665427
 30
0.0
  0
VERTEX
  5
635
  8
LAYER_1
 10
-5.827502232045742
 20
66.66841299879854
 30
0.0
  0
VERTEX
  5
636
  8
LAYER_1
 10
-6.050451436730468
 20
66.66379673903933
 30
0.0
  0
VERTEX
  5
637
  8
LAYER_1
 10
-6.276225470431119
 20
66.6500096726202
 30
0.0
  0
VERTEX
  5
638
  8
LAYER_1
 10
-6.505078101710183
 20
66.62701178478471
 30
0.0
  0
VERTEX
  5
639
  8
LAYER_1
 10
-6.737263099130143
 20
66.59476306077642
 30
0.0
  0
VERTEX
  5
63A
  8
LAYER_1
 10
-6.973034231253487
 20
66.55322348583886
 30
0.0
  0
VERTEX
  5
63B
  8
LAYER_1
 10
-7.212645266642699
 20
66.50235304521559
 30
0.0
  0
VERTEX
  5
63C
  8
LAYER_1
 10
-7.456349973860267
 20
66.44211172415015
 30
0.0
  0
VERTEX
  5
63D
  8
LAYER_1
 10
-7.704402121468675
 20
66.3724595078861
 30
0.0
  0
VERTEX
  5
63E
  8
LAYER_1
 10
-8.214563812107956
 20
66.20476233073643
 30
0.0
  0
VERTEX
  5
63F
  8
LAYER_1
 10
-8.745160487060431
 20
65.99894139571497
 30
0.0
  0
VERTEX
  5
640
  8
LAYER_1
 10
-9.298222294825987
 20
65.75467658477012
 30
0.0
  0
VERTEX
  5
641
  8
LAYER_1
 10
-9.875779383904508
 20
65.47164777985034
 30
0.0
  0
VERTEX
  5
642
  8
LAYER_1
 10
-10.47986190279588
 20
65.14953486290405
 30
0.0
  0
VERTEX
  5
643
  8
LAYER_1
 10
-11.1125
 20
64.78801771587963
 30
0.0
  0
VERTEX
  5
644
  8
LAYER_1
 10
-11.73920348973706
 20
64.43585523862615
 30
0.0
  0
VERTEX
  5
645
  8
LAYER_1
 10
-12.43942166526735
 20
64.07187191501522
 30
0.0
  0
VERTEX
  5
646
  8
LAYER_1
 10
-13.18956608606955
 20
63.70656869070068
 30
0.0
  0
VERTEX
  5
647
  8
LAYER_1
 10
-13.96604831162233
 20
63.35044651133641
 30
0.0
  0
VERTEX
  5
648
  8
LAYER_1
 10
-14.74527990140439
 20
63.01400632257629
 30
0.0
  0
VERTEX
  5
649
  8
LAYER_1
 10
-15.50367241489438
 20
62.70774907007419
 30
0.0
  0
VERTEX
  5
64A
  8
LAYER_1
 10
-16.217637411571
 20
62.44217569948396
 30
0.0
  0
VERTEX
  5
64B
  8
LAYER_1
 10
-16.86358645091291
 20
62.22778715645948
 30
0.0
  0
VERTEX
  5
64C
  8
LAYER_1
 10
-17.2819999329049
 20
62.09469138634308
 30
0.0
  0
VERTEX
  5
64D
  8
LAYER_1
 10
-17.68630105443131
 20
61.95642921030001
 30
0.0
  0
VERTEX
  5
64E
  8
LAYER_1
 10
-18.07647640007784
 20
61.81301495098582
 30
0.0
  0
VERTEX
  5
64F
  8
LAYER_1
 10
-18.45251255443021
 20
61.66446293105608
 30
0.0
  0
VERTEX
  5
650
  8
LAYER_1
 10
-18.81439610207412
 20
61.51078747316632
 30
0.0
  0
VERTEX
  5
651
  8
LAYER_1
 10
-19.16211362759529
 20
61.35200289997211
 30
0.0
  0
VERTEX
  5
652
  8
LAYER_1
 10
-19.49565171557943
 20
61.188123534129
 30
0.0
  0
VERTEX
  5
653
  8
LAYER_1
 10
-19.81499695061225
 20
61.01916369829254
 30
0.0
  0
VERTEX
  5
654
  8
LAYER_1
 10
-20.12013591727946
 20
60.8451377151183
 30
0.0
  0
VERTEX
  5
655
  8
LAYER_1
 10
-20.41105520016677
 20
60.6660599072618
 30
0.0
  0
VERTEX
  5
656
  8
LAYER_1
 10
-20.6877413838599
 20
60.48194459737861
 30
0.0
  0
VERTEX
  5
657
  8
LAYER_1
 10
-20.95018105294455
 20
60.2928061081243
 30
0.0
  0
VERTEX
  5
658
  8
LAYER_1
 10
-21.19836079200644
 20
60.09865876215439
 30
0.0
  0
VERTEX
  5
659
  8
LAYER_1
 10
-21.43226718563128
 20
59.89951688212446
 30
0.0
  0
VERTEX
  5
65A
  8
LAYER_1
 10
-21.65188681840477
 20
59.69539479069005
 30
0.0
  0
VERTEX
  5
65B
  8
LAYER_1
 10
-21.85720627491263
 20
59.48630681050671
 30
0.0
  0
VERTEX
  5
65C
  8
LAYER_1
 10
-22.04821213974058
 20
59.27226726423001
 30
0.0
  0
VERTEX
  5
65D
  8
LAYER_1
 10
-22.22489099747432
 20
59.05329047451549
 30
0.0
  0
VERTEX
  5
65E
  8
LAYER_1
 10
-22.38722943269956
 20
58.8293907640187
 30
0.0
  0
VERTEX
  5
65F
  8
LAYER_1
 10
-22.53521403000201
 20
58.60058245539521
 30
0.0
  0
VERTEX
  5
660
  8
LAYER_1
 10
-22.66883137396739
 20
58.36687987130055
 30
0.0
  0
VERTEX
  5
661
  8
LAYER_1
 10
-22.78806804918141
 20
58.1282973343903
 30
0.0
  0
VERTEX
  5
662
  8
LAYER_1
 10
-22.89291064022978
 20
57.88484916731999
 30
0.0
  0
VERTEX
  5
663
  8
LAYER_1
 10
-22.9833457316982
 20
57.63654969274518
 30
0.0
  0
VERTEX
  5
664
  8
LAYER_1
 10
-23.0593599081724
 20
57.38341323332142
 30
0.0
  0
VERTEX
  5
665
  8
LAYER_1
 10
-23.12093975423807
 20
57.12545411170428
 30
0.0
  0
VERTEX
  5
666
  8
LAYER_1
 10
-23.16807185448094
 20
56.8626866505493
 30
0.0
  0
VERTEX
  5
667
  8
LAYER_1
 10
-23.20074279348671
 20
56.59512517251203
 30
0.0
  0
VERTEX
  5
668
  8
LAYER_1
 10
-23.2189391558411
 20
56.32278400024802
 30
0.0
  0
VERTEX
  5
669
  8
LAYER_1
 10
-23.22264752612981
 20
56.04567745641284
 30
0.0
  0
VERTEX
  5
66A
  8
LAYER_1
 10
-23.21185448893856
 20
55.76381986366203
 30
0.0
  0
VERTEX
  5
66B
  8
LAYER_1
 10
-23.18654662885306
 20
55.47722554465115
 30
0.0
  0
VERTEX
  5
66C
  8
LAYER_1
 10
-23.13218337694929
 20
55.09947052887867
 30
0.0
  0
VERTEX
  5
66D
  8
LAYER_1
 10
-23.05476573901339
 20
54.74209726420499
 30
0.0
  0
VERTEX
  5
66E
  8
LAYER_1
 10
-23.00647128278667
 20
54.57012338927896
 30
0.0
  0
VERTEX
  5
66F
  8
LAYER_1
 10
-22.95128493905583
 20
54.40212847302618
 30
0.0
  0
VERTEX
  5
670
  8
LAYER_1
 10
-22.88883061082219
 20
54.23774035574614
 30
0.0
  0
VERTEX
  5
671
  8
LAYER_1
 10
-22.81873220108705
 20
54.07658687773837
 30
0.0
  0
VERTEX
  5
672
  8
LAYER_1
 10
-22.74061361285172
 20
53.91829587930238
 30
0.0
  0
VERTEX
  5
673
  8
LAYER_1
 10
-22.65409874911751
 20
53.76249520073766
 30
0.0
  0
VERTEX
  5
674
  8
LAYER_1
 10
-22.55881151288571
 20
53.60881268234375
 30
0.0
  0
VERTEX
  5
675
  8
LAYER_1
 10
-22.45437580715764
 20
53.45687616442014
 30
0.0
  0
VERTEX
  5
676
  8
LAYER_1
 10
-22.34041553493461
 20
53.30631348726637
 30
0.0
  0
VERTEX
  5
677
  8
LAYER_1
 10
-22.21655459921792
 20
53.15675249118194
 30
0.0
  0
VERTEX
  5
678
  8
LAYER_1
 10
-22.08241690300887
 20
53.00782101646636
 30
0.0
  0
VERTEX
  5
679
  8
LAYER_1
 10
-21.93762634930878
 20
52.85914690341914
 30
0.0
  0
VERTEX
  5
67A
  8
LAYER_1
 10
-21.61458228144068
 20
52.56108212352787
 30
0.0
  0
VERTEX
  5
67B
  8
LAYER_1
 10
-21.24441361962408
 20
52.25958087390422
 30
0.0
  0
VERTEX
  5
67C
  8
LAYER_1
 10
-20.82411158786942
 20
51.9516658769443
 30
0.0
  0
VERTEX
  5
67D
  8
LAYER_1
 10
-20.35066741018715
 20
51.6343598550442
 30
0.0
  0
VERTEX
  5
67E
  8
LAYER_1
 10
-19.82107231058774
 20
51.30468553060004
 30
0.0
  0
VERTEX
  5
67F
  8
LAYER_1
 10
-19.23231751308162
 20
50.95966562600793
 30
0.0
  0
VERTEX
  5
680
  8
LAYER_1
 10
-18.58139424167925
 20
50.59632286366396
 30
0.0
  0
VERTEX
  5
681
  8
LAYER_1
 10
-17.86529372039109
 20
50.21167996596425
 30
0.0
  0
VERTEX
  5
682
  8
LAYER_1
 10
-17.40488385717867
 20
49.96360275486529
 30
0.0
  0
VERTEX
  5
683
  8
LAYER_1
 10
-16.95982288606407
 20
49.71366966386843
 30
0.0
  0
VERTEX
  5
684
  8
LAYER_1
 10
-16.52647500849303
 20
49.45912197695419
 30
0.0
  0
VERTEX
  5
685
  8
LAYER_1
 10
-16.10120442591127
 20
49.1972009781031
 30
0.0
  0
VERTEX
  5
686
  8
LAYER_1
 10
-15.68037533976452
 20
48.92514795129567
 30
0.0
  0
VERTEX
  5
687
  8
LAYER_1
 10
-15.26035195149852
 20
48.64020418051243
 30
0.0
  0
VERTEX
  5
688
  8
LAYER_1
 10
-14.837498462559
 20
48.33961094973392
 30
0.0
  0
VERTEX
  5
689
  8
LAYER_1
 10
-14.40817907439168
 20
48.02060954294063
 30
0.0
  0
VERTEX
  5
68A
  8
LAYER_1
 10
-13.9687579884423
 20
47.68044124411309
 30
0.0
  0
VERTEX
  5
68B
  8
LAYER_1
 10
-13.51559940615658
 20
47.31634733723185
 30
0.0
  0
VERTEX
  5
68C
  8
LAYER_1
 10
-13.04506752898025
 20
46.92556910627739
 30
0.0
  0
VERTEX
  5
68D
  8
LAYER_1
 10
-12.55352655835906
 20
46.50534783523027
 30
0.0
  0
VERTEX
  5
68E
  8
LAYER_1
 10
-11.49287414256497
 20
45.56554130878008
 30
0.0
  0
VERTEX
  5
68F
  8
LAYER_1
 10
-10.30455577034016
 20
44.47485802972545
 30
0.0
  0
VERTEX
  5
690
  8
LAYER_1
 10
-5.968833762902534
 20
40.44277161500649
 30
0.0
  0
VERTEX
  5
691
  8
LAYER_1
 10
-4.836500214784607
 20
39.66222887763732
 30
0.0
  0
VERTEX
  5
692
  8
LAYER_1
 10
-4.604312653014733
 20
39.508265554715
 30
0.0
  0
VERTEX
  5
693
  8
LAYER_1
 10
-4.37856688055842
 20
39.370104455649
 30
0.0
  0
VERTEX
  5
694
  8
LAYER_1
 10
-4.164856883797649
 20
39.25037806624355
 30
0.0
  0
VERTEX
  5
695
  8
LAYER_1
 10
-3.968776649114403
 20
39.15171887230287
 30
0.0
  0
VERTEX
  5
696
  8
LAYER_1
 10
-3.795920162890666
 20
39.07675935963118
 30
0.0
  0
VERTEX
  5
697
  8
LAYER_1
 10
-3.65188141150842
 20
39.02813201403274
 30
0.0
  0
VERTEX
  5
698
  8
LAYER_1
 10
-3.542254381349649
 20
39.00846932131176
 30
0.0
  0
VERTEX
  5
699
  8
LAYER_1
 10
-3.502093382473435
 20
39.01032237159415
 30
0.0
  0
SEQEND
  5
69A
  8
LAYER_1
  0
POLYLINE
  5
4A
  8
LAYER_1
 66
     1
 10
0.0
 20
0.0
 30
0.0
 70
     1
  0
VERTEX
  5
69B
  8
LAYER_1
 10
-1.568372627912481
 20
39.15884294524642
 30
0.0
  0
VERTEX
  5
69C
  8
LAYER_1
 10
-1.487363685360507
 20
39.16480878497782
 30
0.0
  0
VERTEX
  5
69D
  8
LAYER_1
 10
-1.395230054177118
 20
39.18263309399697
 30
0.0
  0
VERTEX
  5
69E
  8
LAYER_1
 10
-1.179828077495803
 20
39.25218033733719
 30
0.0
  0
VERTEX
  5
69F
  8
LAYER_1
 10
-0.9266454010279475
 20
39.36413111014454
 30
0.0
  0
VERTEX
  5
6A0
  8
LAYER_1
 10
-0.640160727932966
 20
39.51513184729644
 30
0.0
  0
VERTEX
  5
6A1
  8
LAYER_1
 10
-0.3248527613702712
 20
39.70182898367035
 30
0.0
  0
VERTEX
  5
6A2
  8
LAYER_1
 10
0.0147997955007236
 20
39.9208689541437
 30
0.0
  0
VERTEX
  5
6A3
  8
LAYER_1
 10
0.3743182395206056
 20
40.16889819359395
 30
0.0
  0
VERTEX
  5
6A4
  8
LAYER_1
 10
0.7492238675299614
 20
40.44256313689855
 30
0.0
  0
VERTEX
  5
6A5
  8
LAYER_1
 10
1.135037976369378
 20
40.73851021893495
 30
0.0
  0
VERTEX
  5
6A6
  8
LAYER_1
 10
1.527281862879443
 20
41.05338587458057
 30
0.0
  0
VERTEX
  5
6A7
  8
LAYER_1
 10
1.921476823900742
 20
41.38383653871288
 30
0.0
  0
VERTEX
  5
6A8
  8
LAYER_1
 10
2.313144156273863
 20
41.72650864620931
 30
0.0
  0
VERTEX
  5
6A9
  8
LAYER_1
 10
2.697805156839392
 20
42.07804863194733
 30
0.0
  0
VERTEX
  5
6AA
  8
LAYER_1
 10
3.070981122437916
 20
42.43510293080436
 30
0.0
  0
VERTEX
  5
6AB
  8
LAYER_1
 10
3.428193349910023
 20
42.79431797765786
 30
0.0
  0
VERTEX
  5
6AC
  8
LAYER_1
 10
3.764963136096299
 20
43.15234020738528
 30
0.0
  0
VERTEX
  5
6AD
  8
LAYER_1
 10
4.095911828505636
 20
43.52525614875836
 30
0.0
  0
VERTEX
  5
6AE
  8
LAYER_1
 10
4.425979458094567
 20
43.9187338006688
 30
0.0
  0
VERTEX
  5
6AF
  8
LAYER_1
 10
4.758655295448658
 20
44.33844403572938
 30
0.0
  0
VERTEX
  5
6B0
  8
LAYER_1
 10
5.097428611153476
 20
44.79005772655285
 30
0.0
  0
VERTEX
  5
6B1
  8
LAYER_1
 10
5.445788675794589
 20
45.27924574575196
 30
0.0
  0
VERTEX
  5
6B2
  8
LAYER_1
 10
5.807224759957563
 20
45.81167896593948
 30
0.0
  0
VERTEX
  5
6B3
  8
LAYER_1
 10
6.185226134227965
 20
46.39302825972817
 30
0.0
  0
VERTEX
  5
6B4
  8
LAYER_1
 10
6.583282069191362
 20
47.02896449973078
 30
0.0
  0
VERTEX
  5
6B5
  8
LAYER_1
 10
7.004881835433322
 20
47.72515855856006
 30
0.0
  0
VERTEX
  5
6B6
  8
LAYER_1
 10
7.45351470353941
 20
48.48728130882878
 30
0.0
  0
VERTEX
  5
6B7
  8
LAYER_1
 10
7.932669944095195
 20
49.32100362314971
 30
0.0
  0
VERTEX
  5
6B8
  8
LAYER_1
 10
8.445836827686243
 20
50.23199637413558
 30
0.0
  0
VERTEX
  5
6B9
  8
LAYER_1
 10
9.588162606316395
 20
52.30847667655323
 30
0.0
  0
VERTEX
  5
6BA
  8
LAYER_1
 10
10.9084062041144
 20
54.76208919698381
 30
0.0
  0
VERTEX
  5
6BB
  8
LAYER_1
 10
12.74095189824115
 20
58.19501172730098
 30
0.0
  0
VERTEX
  5
6BC
  8
LAYER_1
 10
13.84365611828828
 20
59.2977159473481
 30
0.0
  0
VERTEX
  5
6BD
  8
LAYER_1
 10
14.19578682551364
 20
59.63957229017475
 30
0.0
  0
VERTEX
  5
6BE
  8
LAYER_1
 10
14.35228502455216
 20
59.77942330277202
 30
0.0
  0
VERTEX
  5
6BF
  8
LAYER_1
 10
14.50060828288888
 20
59.90004449989033
 30
0.0
  0
VERTEX
  5
6C0
  8
LAYER_1
 10
14.64440897228452
 20
60.00255209932848
 30
0.0
  0
VERTEX
  5
6C1
  8
LAYER_1
 10
14.78733946449982
 20
60.08806231888529
 30
0.0
  0
VERTEX
  5
6C2
  8
LAYER_1
 10
14.9330521312955
 20
60.15769137635957
 30
0.0
  0
VERTEX
  5
6C3
  8
LAYER_1
 10
15.0851993444323
 20
60.21255548955013
 30
0.0
  0
VERTEX
  5
6C4
  8
LAYER_1
 10
15.24743347567093
 20
60.25377087625579
 30
0.0
  0
VERTEX
  5
6C5
  8
LAYER_1
 10
15.42340689677215
 20
60.28245375427534
 30
0.0
  0
VERTEX
  5
6C6
  8
LAYER_1
 10
15.61677197949666
 20
60.29972034140762
 30
0.0
  0
VERTEX
  5
6C7
  8
LAYER_1
 10
15.83118109560521
 20
60.30668685545142
 30
0.0
  0
VERTEX
  5
6C8
  8
LAYER_1
 10
16.33774091501731
 20
60.29418453546884
 30
0.0
  0
VERTEX
  5
6C9
  8
LAYER_1
 10
16.97230532909428
 20
60.2538765367181
 30
0.0
  0
VERTEX
  5
6CA
  8
LAYER_1
 10
18.99825031985314
 20
60.10733290604101
 30
0.0
  0
VERTEX
  5
6CB
  8
LAYER_1
 10
18.50420923202319
 20
61.06270302263503
 30
0.0
  0
VERTEX
  5
6CC
  8
LAYER_1
 10
18.3416557247025
 20
61.34512560062642
 30
0.0
  0
VERTEX
  5
6CD
  8
LAYER_1
 10
18.1441058283836
 20
61.63367571416609
 30
0.0
  0
VERTEX
  5
6CE
  8
LAYER_1
 10
17.91452351675533
 20
61.92606337152752
 30
0.0
  0
VERTEX
  5
6CF
  8
LAYER_1
 10
17.65587276350653
 20
62.21999858098417
 30
0.0
  0
VERTEX
  5
6D0
  8
LAYER_1
 10
17.37111754232604
 20
62.51319135080949
 30
0.0
  0
VERTEX
  5
6D1
  8
LAYER_1
 10
17.0632218269027
 20
62.80335168927692
 30
0.0
  0
VERTEX
  5
6D2
  8
LAYER_1
 10
16.73514959092536
 20
63.08818960465995
 30
0.0
  0
VERTEX
  5
6D3
  8
LAYER_1
 10
16.38986480808285
 20
63.36541510523202
 30
0.0
  0
VERTEX
  5
6D4
  8
LAYER_1
 10
16.03033145206402
 20
63.63273819926658
 30
0.0
  0
VERTEX
  5
6D5
  8
LAYER_1
 10
15.65951349655771
 20
63.8878688950371
 30
0.0
  0
VERTEX
  5
6D6
  8
LAYER_1
 10
15.28037491525276
 20
64.12851720081704
 30
0.0
  0
VERTEX
  5
6D7
  8
LAYER_1
 10
14.89587968183801
 20
64.35239312487985
 30
0.0
  0
VERTEX
  5
6D8
  8
LAYER_1
 10
14.50899177000231
 20
64.55720667549897
 30
0.0
  0
VERTEX
  5
6D9
  8
LAYER_1
 10
14.12267515343449
 20
64.7406678609479
 30
0.0
  0
VERTEX
  5
6DA
  8
LAYER_1
 10
13.7398938058234
 20
64.90048668950006
 30
0.0
  0
VERTEX
  5
6DB
  8
LAYER_1
 10
13.36361170085787
 20
65.03437316942892
 30
0.0
  0
VERTEX
  5
6DC
  8
LAYER_1
 10
12.82410266954987
 20
65.19532257583029
 30
0.0
  0
VERTEX
  5
6DD
  8
LAYER_1
 10
12.28386020611154
 20
65.33024581474928
 30
0.0
  0
VERTEX
  5
6DE
  8
LAYER_1
 10
11.74351751802737
 20
65.4394215781806
 30
0.0
  0
VERTEX
  5
6DF
  8
LAYER_1
 10
11.20370781278185
 20
65.52312855811903
 30
0.0
  0
VERTEX
  5
6E0
  8
LAYER_1
 10
10.66506429785945
 20
65.58164544655929
 30
0.0
  0
VERTEX
  5
6E1
  8
LAYER_1
 10
10.12822018074467
 20
65.61525093549614
 30
0.0
  0
VERTEX
  5
6E2
  8
LAYER_1
 10
9.593808668921984
 20
65.6242237169243
 30
0.0
  0
VERTEX
  5
6E3
  8
LAYER_1
 10
9.062462969875886
 20
65.60884248283851
 30
0.0
  0
VERTEX
  5
6E4
  8
LAYER_1
 10
8.53481629109086
 20
65.56938592523352
 30
0.0
  0
VERTEX
  5
6E5
  8
LAYER_1
 10
8.011501840051388
 20
65.50613273610406
 30
0.0
  0
VERTEX
  5
6E6
  8
LAYER_1
 10
7.493152824241958
 20
65.41936160744491
 30
0.0
  0
VERTEX
  5
6E7
  8
LAYER_1
 10
6.980402451147054
 20
65.30935123125079
 30
0.0
  0
VERTEX
  5
6E8
  8
LAYER_1
 10
6.473883928251164
 20
65.17638029951644
 30
0.0
  0
VERTEX
  5
6E9
  8
LAYER_1
 10
5.97423046303877
 20
65.02072750423656
 30
0.0
  0
VERTEX
  5
6EA
  8
LAYER_1
 10
5.48207526299436
 20
64.84267153740595
 30
0.0
  0
VERTEX
  5
6EB
  8
LAYER_1
 10
4.998051535602418
 20
64.64249109101932
 30
0.0
  0
VERTEX
  5
6EC
  8
LAYER_1
 10
4.52279248834743
 20
64.42046485707144
 30
0.0
  0
VERTEX
  5
6ED
  8
LAYER_1
 10
4.056931328713881
 20
64.17687152755703
 30
0.0
  0
VERTEX
  5
6EE
  8
LAYER_1
 10
3.601101264186257
 20
63.91198979447083
 30
0.0
  0
VERTEX
  5
6EF
  8
LAYER_1
 10
3.155935502249043
 20
63.6260983498076
 30
0.0
  0
VERTEX
  5
6F0
  8
LAYER_1
 10
2.722067250386724
 20
63.31947588556206
 30
0.0
  0
VERTEX
  5
6F1
  8
LAYER_1
 10
2.300129716083786
 20
62.99240109372896
 30
0.0
  0
VERTEX
  5
6F2
  8
LAYER_1
 10
1.890756106824715
 20
62.64515266630305
 30
0.0
  0
VERTEX
  5
6F3
  8
LAYER_1
 10
1.494579630093995
 20
62.27800929527906
 30
0.0
  0
VERTEX
  5
6F4
  8
LAYER_1
 10
1.112233493376112
 20
61.89124967265172
 30
0.0
  0
VERTEX
  5
6F5
  8
LAYER_1
 10
0.7443509041555514
 20
61.4851524904158
 30
0.0
  0
VERTEX
  5
6F6
  8
LAYER_1
 10
0.3915650699167989
 20
61.05999644056603
 30
0.0
  0
VERTEX
  5
6F7
  8
LAYER_1
 10
0.0545091981443396
 20
60.61606021509715
 30
0.0
  0
VERTEX
  5
6F8
  8
LAYER_1
 10
-0.266183503677341
 20
60.1536225060039
 30
0.0
  0
VERTEX
  5
6F9
  8
LAYER_1
 10
-0.5698798280637574
 20
59.67296200528103
 30
0.0
  0
VERTEX
  5
6FA
  8
LAYER_1
 10
-0.8559465675304244
 20
59.17435740492327
 30
0.0
  0
VERTEX
  5
6FB
  8
LAYER_1
 10
-1.123750514592857
 20
58.65808739692535
 30
0.0
  0
VERTEX
  5
6FC
  8
LAYER_1
 10
-1.347560449115955
 20
58.19995180658084
 30
0.0
  0
VERTEX
  5
6FD
  8
LAYER_1
 10
-1.54305138262622
 20
57.78058091874902
 30
0.0
  0
VERTEX
  5
6FE
  8
LAYER_1
 10
-1.711616751307911
 20
57.37954441522173
 30
0.0
  0
VERTEX
  5
6FF
  8
LAYER_1
 10
-1.854649991345289
 20
56.97641197779078
 30
0.0
  0
VERTEX
  5
700
  8
LAYER_1
 10
-1.917027511929942
 20
56.76767530942138
 30
0.0
  0
VERTEX
  5
701
  8
LAYER_1
 10
-1.973544538922614
 20
56.55075328824799
 30
0.0
  0
VERTEX
  5
702
  8
LAYER_1
 10
-2.024375251846339
 20
56.3230921244946
 30
0.0
  0
VERTEX
  5
703
  8
LAYER_1
 10
-2.069693830224148
 20
56.08213802838519
 30
0.0
  0
VERTEX
  5
704
  8
LAYER_1
 10
-2.109674453579074
 20
55.82533721014372
 30
0.0
  0
VERTEX
  5
705
  8
LAYER_1
 10
-2.14449130143415
 20
55.55013587999419
 30
0.0
  0
VERTEX
  5
706
  8
LAYER_1
 10
-2.199330388736881
 20
54.93431652486684
 30
0.0
  0
VERTEX
  5
707
  8
LAYER_1
 10
-2.235604528316601
 20
54.21424964479494
 30
0.0
  0
VERTEX
  5
708
  8
LAYER_1
 10
-2.254707156357572
 20
53.36950492157032
 30
0.0
  0
VERTEX
  5
709
  8
LAYER_1
 10
-2.258031709044053
 20
52.3796520369848
 30
0.0
  0
VERTEX
  5
70A
  8
LAYER_1
 10
-2.246971622560305
 20
51.2242606728302
 30
0.0
  0
VERTEX
  5
70B
  8
LAYER_1
 10
-2.187271276819164
 20
48.33514123298107
 30
0.0
  0
VERTEX
  5
70C
  8
LAYER_1
 10
-2.086753608608234
 20
44.53870405635752
 30
0.0
  0
VERTEX
  5
70D
  8
LAYER_1
 10
-1.94027777777778
 20
39.15935255715949
 30
0.0
  0
SEQEND
  5
70E
  8
LAYER_1
  0
POLYLINE
  5
4B
  8
LAYER_1
 66
     1
 10
0.0
 20
0.0
 30
0.0
 70
     1
  0
VERTEX
  5
70F
  8
LAYER_1
 10
-19.80667819164263
 20
7.821103483706433
 30
0.0
  0
VERTEX
  5
710
  8
LAYER_1
 10
-19.78275024735324
 20
7.681818741345193
 30
0.0
  0
VERTEX
  5
711
  8
LAYER_1
 10
-19.73746921704767
 20
7.558603870537899
 30
0.0
  0
VERTEX
  5
712
  8
LAYER_1
 10
-19.67332406538883
 20
7.449149335375638
 30
0.0
  0
VERTEX
  5
713
  8
LAYER_1
 10
-19.59280375703965
 20
7.351145599949496
 30
0.0
  0
VERTEX
  5
714
  8
LAYER_1
 10
-19.49839725666306
 20
7.262283128350561
 30
0.0
  0
VERTEX
  5
715
  8
LAYER_1
 10
-19.39259352892198
 20
7.18025238466992
 30
0.0
  0
VERTEX
  5
716
  8
LAYER_1
 10
-19.15675024999806
 20
7.027447937427866
 30
0.0
  0
VERTEX
  5
717
  8
LAYER_1
 10
-18.70292124685073
 20
6.746478283700765
 30
0.0
  0
VERTEX
  5
718
  8
LAYER_1
 10
-18.23972140687214
 20
6.448922411104586
 30
0.0
  0
VERTEX
  5
719
  8
LAYER_1
 10
-17.76807566422582
 20
6.135611041634323
 30
0.0
  0
VERTEX
  5
71A
  8
LAYER_1
 10
-17.28890895307531
 20
5.807374897284973
 30
0.0
  0
VERTEX
  5
71B
  8
LAYER_1
 10
-16.31171236191582
 20
5.109451171928984
 30
0.0
  0
VERTEX
  5
71C
  8
LAYER_1
 10
-15.31553110670193
 20
4.361797010996575
 30
0.0
  0
VERTEX
  5
71D
  8
LAYER_1
 10
-14.30776466074188
 20
3.571058190447702
 30
0.0
  0
VERTEX
  5
71E
  8
LAYER_1
 10
-13.29581249734393
 20
2.74388048624232
 30
0.0
  0
VERTEX
  5
71F
  8
LAYER_1
 10
-12.28707408981634
 20
1.886909674340385
 30
0.0
  0
VERTEX
  5
720
  8
LAYER_1
 10
-11.28894891146734
 20
1.006791530701854
 30
0.0
  0
VERTEX
  5
721
  8
LAYER_1
 10
-10.3088364356052
 20
0.1101718312866812
 30
0.0
  0
VERTEX
  5
722
  8
LAYER_1
 10
-9.354136135538162
 20
-0.7963036479451766
 30
0.0
  0
VERTEX
  5
723
  8
LAYER_1
 10
-8.43224748457448
 20
-1.705989131033764
 30
0.0
  0
VERTEX
  5
724
  8
LAYER_1
 10
-7.550569956022404
 20
-2.612238842019124
 30
0.0
  0
VERTEX
  5
725
  8
LAYER_1
 10
-6.716503023190184
 20
-3.508407004941303
 30
0.0
  0
VERTEX
  5
726
  8
LAYER_1
 10
-6.319635865577849
 20
-3.950633700891212
 30
0.0
  0
VERTEX
  5
727
  8
LAYER_1
 10
-5.937446159386074
 20
-4.387847843840342
 30
0.0
  0
VERTEX
  5
728
  8
LAYER_1
 10
-5.570858838778388
 20
-4.819218711793699
 30
0.0
  0
VERTEX
  5
729
  8
LAYER_1
 10
-5.220798837918323
 20
-5.243915582756287
 30
0.0
  0
VERTEX
  5
72A
  8
LAYER_1
 10
-4.888191090969412
 20
-5.661107734733115
 30
0.0
  0
VERTEX
  5
72B
  8
LAYER_1
 10
-4.573960532095185
 20
-6.069964445729184
 30
0.0
  0
VERTEX
  5
72C
  8
LAYER_1
 10
-4.133901015766249
 20
-6.66301491050607
 30
0.0
  0
VERTEX
  5
72D
  8
LAYER_1
 10
-3.705245428324971
 20
-7.2590575267483
 30
0.0
  0
VERTEX
  5
72E
  8
LAYER_1
 10
-3.287987185707095
 20
-7.858148275235585
 30
0.0
  0
VERTEX
  5
72F
  8
LAYER_1
 10
-2.882119703848362
 20
-8.460343136747642
 30
0.0
  0
VERTEX
  5
730
  8
LAYER_1
 10
-2.487636398684514
 20
-9.065698092064185
 30
0.0
  0
VERTEX
  5
731
  8
LAYER_1
 10
-2.104530686151293
 20
-9.67426912196493
 30
0.0
  0
VERTEX
  5
732
  8
LAYER_1
 10
-1.73279598218444
 20
-10.28611220722959
 30
0.0
  0
VERTEX
  5
733
  8
LAYER_1
 10
-1.372425702719698
 20
-10.90128332863787
 30
0.0
  0
VERTEX
  5
734
  8
LAYER_1
 10
-1.023413263692808
 20
-11.5198384669695
 30
0.0
  0
VERTEX
  5
735
  8
LAYER_1
 10
-0.6857520810395127
 20
-12.14183360300419
 30
0.0
  0
VERTEX
  5
736
  8
LAYER_1
 10
-0.359435570695553
 20
-12.76732471752164
 30
0.0
  0
VERTEX
  5
737
  8
LAYER_1
 10
-0.0444571485966709
 20
-13.39636779130158
 30
0.0
  0
VERTEX
  5
738
  8
LAYER_1
 10
0.2591897693213916
 20
-14.02901880512373
 30
0.0
  0
VERTEX
  5
739
  8
LAYER_1
 10
0.5515117671228926
 20
-14.66533373976778
 30
0.0
  0
VERTEX
  5
73A
  8
LAYER_1
 10
0.8325154288720906
 20
-15.30536857601347
 30
0.0
  0
VERTEX
  5
73B
  8
LAYER_1
 10
1.102207338633244
 20
-15.94917929464049
 30
0.0
  0
VERTEX
  5
73C
  8
LAYER_1
 10
1.36059408047061
 20
-16.59682187642858
 30
0.0
  0
VERTEX
  5
73D
  8
LAYER_1
 10
1.607682238448447
 20
-17.24835230215744
 30
0.0
  0
VERTEX
  5
73E
  8
LAYER_1
 10
1.843478396631014
 20
-17.90382655260678
 30
0.0
  0
VERTEX
  5
73F
  8
LAYER_1
 10
2.067989139082569
 20
-18.56330060855632
 30
0.0
  0
VERTEX
  5
740
  8
LAYER_1
 10
2.28122104986737
 20
-19.22683045078577
 30
0.0
  0
VERTEX
  5
741
  8
LAYER_1
 10
2.483180713049675
 20
-19.89447206007486
 30
0.0
  0
VERTEX
  5
742
  8
LAYER_1
 10
2.673874712693742
 20
-20.56628141720329
 30
0.0
  0
VERTEX
  5
743
  8
LAYER_1
 10
2.85330963286383
 20
-21.24231450295077
 30
0.0
  0
VERTEX
  5
744
  8
LAYER_1
 10
3.021492057624196
 20
-21.92262729809703
 30
0.0
  0
VERTEX
  5
745
  8
LAYER_1
 10
3.1784285710391
 20
-22.60727578342177
 30
0.0
  0
VERTEX
  5
746
  8
LAYER_1
 10
3.324125757172799
 20
-23.29631593970471
 30
0.0
  0
VERTEX
  5
747
  8
LAYER_1
 10
3.45859020008955
 20
-23.98980374772556
 30
0.0
  0
VERTEX
  5
748
  8
LAYER_1
 10
3.581828483853613
 20
-24.68779518826404
 30
0.0
  0
VERTEX
  5
749
  8
LAYER_1
 10
3.693847192529245
 20
-25.39034624209987
 30
0.0
  0
VERTEX
  5
74A
  8
LAYER_1
 10
3.794652910180705
 20
-26.09751289001276
 30
0.0
  0
VERTEX
  5
74B
  8
LAYER_1
 10
3.884252220872252
 20
-26.80935111278241
 30
0.0
  0
VERTEX
  5
74C
  8
LAYER_1
 10
3.962651708668143
 20
-27.52591689118855
 30
0.0
  0
VERTEX
  5
74D
  8
LAYER_1
 10
4.029857957632635
 20
-28.2472662060109
 30
0.0
  0
VERTEX
  5
74E
  8
LAYER_1
 10
4.085877551829988
 20
-28.97345503802915
 30
0.0
  0
VERTEX
  5
74F
  8
LAYER_1
 10
4.13071707532446
 20
-29.70453936802303
 30
0.0
  0
VERTEX
  5
750
  8
LAYER_1
 10
4.164383112180309
 20
-30.44057517677226
 30
0.0
  0
VERTEX
  5
751
  8
LAYER_1
 10
4.186882246461793
 20
-31.18161844505654
 30
0.0
  0
VERTEX
  5
752
  8
LAYER_1
 10
4.198221062233171
 20
-31.92772515365559
 30
0.0
  0
VERTEX
  5
753
  8
LAYER_1
 10
4.198406143558699
 20
-32.67895128334914
 30
0.0
  0
VERTEX
  5
754
  8
LAYER_1
 10
4.187444074502638
 20
-33.43535281491688
 30
0.0
  0
VERTEX
  5
755
  8
LAYER_1
 10
4.165341439129245
 20
-34.19698572913853
 30
0.0
  0
VERTEX
  5
756
  8
LAYER_1
 10
4.132104821502777
 20
-34.96390600679382
 30
0.0
  0
VERTEX
  5
757
  8
LAYER_1
 10
4.087740805687493
 20
-35.73616962866245
 30
0.0
  0
VERTEX
  5
758
  8
LAYER_1
 10
4.032255975747651
 20
-36.51383257552413
 30
0.0
  0
VERTEX
  5
759
  8
LAYER_1
 10
3.965656915747511
 20
-37.29695082815858
 30
0.0
  0
VERTEX
  5
75A
  8
LAYER_1
 10
3.887950209751329
 20
-38.08558036734551
 30
0.0
  0
VERTEX
  5
75B
  8
LAYER_1
 10
3.799142441823364
 20
-38.87977717386466
 30
0.0
  0
VERTEX
  5
75C
  8
LAYER_1
 10
3.699240196027874
 20
-39.67959722849572
 30
0.0
  0
VERTEX
  5
75D
  8
LAYER_1
 10
3.588250056429117
 20
-40.4850965120184
 30
0.0
  0
VERTEX
  5
75E
  8
LAYER_1
 10
3.466178607091353
 20
-41.29633100521242
 30
0.0
  0
VERTEX
  5
75F
  8
LAYER_1
 10
3.333032432078836
 20
-42.11335668885751
 30
0.0
  0
VERTEX
  5
760
  8
LAYER_1
 10
3.188818115455829
 20
-42.93622954373336
 30
0.0
  0
VERTEX
  5
761
  8
LAYER_1
 10
3.033542241286587
 20
-43.7650055506197
 30
0.0
  0
VERTEX
  5
762
  8
LAYER_1
 10
2.86721139363537
 20
-44.59974069029624
 30
0.0
  0
VERTEX
  5
763
  8
LAYER_1
 10
2.689832156566434
 20
-45.44049094354269
 30
0.0
  0
VERTEX
  5
764
  8
LAYER_1
 10
2.50141111414404
 20
-46.28731229113878
 30
0.0
  0
VERTEX
  5
765
  8
LAYER_1
 10
2.301954850432444
 20
-47.14026071386421
 30
0.0
  0
VERTEX
  5
766
  8
LAYER_1
 10
2.091469949495905
 20
-47.99939219249869
 30
0.0
  0
VERTEX
  5
767
  8
LAYER_1
 10
1.869962995398682
 20
-48.86476270782194
 30
0.0
  0
VERTEX
  5
768
  8
LAYER_1
 10
1.637440572205032
 20
-49.73642824061368
 30
0.0
  0
VERTEX
  5
769
  8
LAYER_1
 10
1.393909263979213
 20
-50.61444477165362
 30
0.0
  0
VERTEX
  5
76A
  8
LAYER_1
 10
1.139375654785484
 20
-51.49886828172147
 30
0.0
  0
VERTEX
  5
76B
  8
LAYER_1
 10
0.8738463286881029
 20
-52.38975475159696
 30
0.0
  0
VERTEX
  5
76C
  8
LAYER_1
 10
-0.7245434013967724
 20
-57.18547911449116
 30
0.0
  0
VERTEX
  5
76D
  8
LAYER_1
 10
-0.846580942153094
 20
-57.42461042910681
 30
0.0
  0
VERTEX
  5
76E
  8
LAYER_1
 10
-0.9419549675195589
 20
-57.63442220758237
 30
0.0
  0
VERTEX
  5
76F
  8
LAYER_1
 10
-1.011872725501327
 20
-57.81461650898456
 30
0.0
  0
VERTEX
  5
770
  8
LAYER_1
 10
-1.057541464103557
 20
-57.96489539238009
 30
0.0
  0
VERTEX
  5
771
  8
LAYER_1
 10
-1.08016843133141
 20
-58.08496091683567
 30
0.0
  0
VERTEX
  5
772
  8
LAYER_1
 10
-1.080960875190045
 20
-58.17451514141799
 30
0.0
  0
VERTEX
  5
773
  8
LAYER_1
 10
-1.061126043684621
 20
-58.23326012519378
 30
0.0
  0
VERTEX
  5
774
  8
LAYER_1
 10
-1.043850664672
 20
-58.25098604523757
 30
0.0
  0
VERTEX
  5
775
  8
LAYER_1
 10
-1.021871184820299
 20
-58.26089792722975
 30
0.0
  0
VERTEX
  5
776
  8
LAYER_1
 10
-0.9953385101301625
 20
-58.26295852855365
 30
0.0
  0
VERTEX
  5
777
  8
LAYER_1
 10
-0.9644035466022367
 20
-58.2571306065926
 30
0.0
  0
VERTEX
  5
778
  8
LAYER_1
 10
-0.8899303770355953
 20
-58.22166022234904
 30
0.0
  0
VERTEX
  5
779
  8
LAYER_1
 10
-0.7996589241255341
 20
-58.15418883356578
 30
0.0
  0
VERTEX
  5
77A
  8
LAYER_1
 10
-0.6947964358772123
 20
-58.05441849930954
 30
0.0
  0
VERTEX
  5
77B
  8
LAYER_1
 10
-0.57655016029579
 20
-57.92205127864702
 30
0.0
  0
VERTEX
  5
77C
  8
LAYER_1
 10
-0.4461273453864265
 20
-57.75678923064493
 30
0.0
  0
VERTEX
  5
77D
  8
LAYER_1
 10
-0.3047352391542816
 20
-57.55833441436998
 30
0.0
  0
VERTEX
  5
77E
  8
LAYER_1
 10
-0.1535810896045149
 20
-57.32638888888888
 30
0.0
  0
VERTEX
  5
77F
  8
LAYER_1
 10
0.0733689152533711
 20
-56.94212293836804
 30
0.0
  0
VERTEX
  5
780
  8
LAYER_1
 10
0.3810294935861083
 20
-56.38877170138888
 30
0.0
  0
VERTEX
  5
781
  8
LAYER_1
 10
0.75580702753802
 20
-55.69238009982637
 30
0.0
  0
VERTEX
  5
782
  8
LAYER_1
 10
1.18410789925343
 20
-54.87899305555555
 30
0.0
  0
VERTEX
  5
783
  8
LAYER_1
 10
2.146905184552038
 20
-53.00541232638888
 30
0.0
  0
VERTEX
  5
784
  8
LAYER_1
 10
3.160672406636522
 20
-50.97638888888888
 30
0.0
  0
VERTEX
  5
785
  8
LAYER_1
 10
5.592193722666323
 20
-46.03749999999999
 30
0.0
  0
VERTEX
  5
786
  8
LAYER_1
 10
6.895830212562188
 20
-42.50972222222222
 30
0.0
  0
VERTEX
  5
787
  8
LAYER_1
 10
7.158461982875979
 20
-41.78652634520347
 30
0.0
  0
VERTEX
  5
788
  8
LAYER_1
 10
7.413043526426165
 20
-41.0603406992267
 30
0.0
  0
VERTEX
  5
789
  8
LAYER_1
 10
7.659471213428104
 20
-40.33174377613796
 30
0.0
  0
VERTEX
  5
78A
  8
LAYER_1
 10
7.89764141409715
 20
-39.60131406778331
 30
0.0
  0
VERTEX
  5
78B
  8
LAYER_1
 10
8.12745049864866
 20
-38.86963006600881
 30
0.0
  0
VERTEX
  5
78C
  8
LAYER_1
 10
8.34879483729799
 20
-38.13727026266051
 30
0.0
  0
VERTEX
  5
78D
  8
LAYER_1
 10
8.561570800260494
 20
-37.40481314958447
 30
0.0
  0
VERTEX
  5
78E
  8
LAYER_1
 10
8.765674757751528
 20
-36.67283721862675
 30
0.0
  0
VERTEX
  5
78F
  8
LAYER_1
 10
8.96100307998645
 20
-35.94192096163341
 30
0.0
  0
VERTEX
  5
790
  8
LAYER_1
 10
9.147452137180613
 20
-35.21264287045052
 30
0.0
  0
VERTEX
  5
791
  8
LAYER_1
 10
9.324918299549374
 20
-34.48558143692412
 30
0.0
  0
VERTEX
  5
792
  8
LAYER_1
 10
9.49329793730809
 20
-33.76131515290027
 30
0.0
  0
VERTEX
  5
793
  8
LAYER_1
 10
9.652487420672117
 20
-33.04042251022503
 30
0.0
  0
VERTEX
  5
794
  8
LAYER_1
 10
9.80238311985681
 20
-32.32348200074446
 30
0.0
  0
VERTEX
  5
795
  8
LAYER_1
 10
9.942881405077523
 20
-31.61107211630461
 30
0.0
  0
VERTEX
  5
796
  8
LAYER_1
 10
10.07387864654961
 20
-30.90377134875155
 30
0.0
  0
VERTEX
  5
797
  8
LAYER_1
 10
10.19527121448844
 20
-30.20215818993132
 30
0.0
  0
VERTEX
  5
798
  8
LAYER_1
 10
10.30695547910935
 20
-29.50681113169
 30
0.0
  0
VERTEX
  5
799
  8
LAYER_1
 10
10.4088278106277
 20
-28.81830866587364
 30
0.0
  0
VERTEX
  5
79A
  8
LAYER_1
 10
10.50078457925886
 20
-28.13722928432829
 30
0.0
  0
VERTEX
  5
79B
  8
LAYER_1
 10
10.58272215521817
 20
-27.46415147890001
 30
0.0
  0
VERTEX
  5
79C
  8
LAYER_1
 10
10.654536908721
 20
-26.79965374143487
 30
0.0
  0
VERTEX
  5
79D
  8
LAYER_1
 10
10.71612520998269
 20
-26.14431456377891
 30
0.0
  0
VERTEX
  5
79E
  8
LAYER_1
 10
10.76738342921861
 20
-25.4987124377782
 30
0.0
  0
VERTEX
  5
79F
  8
LAYER_1
 10
10.8082079366441
 20
-24.86342585527879
 30
0.0
  0
VERTEX
  5
7A0
  8
LAYER_1
 10
10.83849510247453
 20
-24.23903330812675
 30
0.0
  0
VERTEX
  5
7A1
  8
LAYER_1
 10
10.85814129692525
 20
-23.62611328816813
 30
0.0
  0
VERTEX
  5
7A2
  8
LAYER_1
 10
10.86704289021162
 20
-23.02524428724898
 30
0.0
  0
VERTEX
  5
7A3
  8
LAYER_1
 10
10.86509625254899
 20
-22.43700479721537
 30
0.0
  0
VERTEX
  5
7A4
  8
LAYER_1
 10
10.85219775415272
 20
-21.86197330991335
 30
0.0
  0
VERTEX
  5
7A5
  8
LAYER_1
 10
10.82824376523816
 20
-21.30072831718899
 30
0.0
  0
VERTEX
  5
7A6
  8
LAYER_1
 10
10.79313065602067
 20
-20.75384831088833
 30
0.0
  0
VERTEX
  5
7A7
  8
LAYER_1
 10
10.73587716737956
 20
-20.0747030053467
 30
0.0
  0
VERTEX
  5
7A8
  8
LAYER_1
 10
10.66724651971304
 20
-19.40351014306976
 30
0.0
  0
VERTEX
  5
7A9
  8
LAYER_1
 10
10.58722589441589
 20
-18.74025650422993
 30
0.0
  0
VERTEX
  5
7AA
  8
LAYER_1
 10
10.49580247288291
 20
-18.08492886899964
 30
0.0
  0
VERTEX
  5
7AB
  8
LAYER_1
 10
10.39296343650888
 20
-17.43751401755133
 30
0.0
  0
VERTEX
  5
7AC
  8
LAYER_1
 10
10.27869596668859
 20
-16.79799873005741
 30
0.0
  0
VERTEX
  5
7AD
  8
LAYER_1
 10
10.15298724481684
 20
-16.16636978669032
 30
0.0
  0
VERTEX
  5
7AE
  8
LAYER_1
 10
10.01582445228841
 20
-15.54261396762249
 30
0.0
  0
VERTEX
  5
7AF
  8
LAYER_1
 10
9.867194770498102
 20
-14.92671805302634
 30
0.0
  0
VERTEX
  5
7B0
  8
LAYER_1
 10
9.707085380840699
 20
-14.31866882307431
 30
0.0
  0
VERTEX
  5
7B1
  8
LAYER_1
 10
9.535483464710993
 20
-13.71845305793881
 30
0.0
  0
VERTEX
  5
7B2
  8
LAYER_1
 10
9.35237620350377
 20
-13.12605753779228
 30
0.0
  0
VERTEX
  5
7B3
  8
LAYER_1
 10
9.15775077861383
 20
-12.54146904280715
 30
0.0
  0
VERTEX
  5
7B4
  8
LAYER_1
 10
8.951594371435956
 20
-11.96467435315584
 30
0.0
  0
VERTEX
  5
7B5
  8
LAYER_1
 10
8.73389416336494
 20
-11.39566024901079
 30
0.0
  0
VERTEX
  5
7B6
  8
LAYER_1
 10
8.504637335795573
 20
-10.83441351054441
 30
0.0
  0
VERTEX
  5
7B7
  8
LAYER_1
 10
8.263811070122646
 20
-10.28092091792915
 30
0.0
  0
VERTEX
  5
7B8
  8
LAYER_1
 10
8.011402547740952
 20
-9.73516925133742
 30
0.0
  0
VERTEX
  5
7B9
  8
LAYER_1
 10
7.747398950045278
 20
-9.197145290941656
 30
0.0
  0
VERTEX
  5
7BA
  8
LAYER_1
 10
7.471787458430414
 20
-8.666835816914285
 30
0.0
  0
VERTEX
  5
7BB
  8
LAYER_1
 10
7.184555254291153
 20
-8.144227609427734
 30
0.0
  0
VERTEX
  5
7BC
  8
LAYER_1
 10
6.885689519022285
 20
-7.629307448654433
 30
0.0
  0
VERTEX
  5
7BD
  8
LAYER_1
 10
6.575177434018599
 20
-7.122062114766811
 30
0.0
  0
VERTEX
  5
7BE
  8
LAYER_1
 10
6.253006180674887
 20
-6.622478387937294
 30
0.0
  0
VERTEX
  5
7BF
  8
LAYER_1
 10
5.919162940385939
 20
-6.130543048338311
 30
0.0
  0
VERTEX
  5
7C0
  8
LAYER_1
 10
5.573634894546545
 20
-5.646242876142288
 30
0.0
  0
VERTEX
  5
7C1
  8
LAYER_1
 10
5.216409224551494
 20
-5.169564651521656
 30
0.0
  0
VERTEX
  5
7C2
  8
LAYER_1
 10
4.847473111795581
 20
-4.700495154648843
 30
0.0
  0
VERTEX
  5
7C3
  8
LAYER_1
 10
4.466813737673593
 20
-4.239021165696276
 30
0.0
  0
VERTEX
  5
7C4
  8
LAYER_1
 10
4.074418283580322
 20
-3.785129464836382
 30
0.0
  0
VERTEX
  5
7C5
  8
LAYER_1
 10
3.670273930910557
 20
-3.338806832241592
 30
0.0
  0
VERTEX
  5
7C6
  8
LAYER_1
 10
3.25436786105909
 20
-2.900040048084332
 30
0.0
  0
VERTEX
  5
7C7
  8
LAYER_1
 10
2.826687255420711
 20
-2.46881589253703
 30
0.0
  0
VERTEX
  5
7C8
  8
LAYER_1
 10
2.38721929539021
 20
-2.045121145772115
 30
0.0
  0
VERTEX
  5
7C9
  8
LAYER_1
 10
1.935951162362379
 20
-1.628942587962015
 30
0.0
  0
VERTEX
  5
7CA
  8
LAYER_1
 10
1.472870037732007
 20
-1.220266999279158
 30
0.0
  0
VERTEX
  5
7CB
  8
LAYER_1
 10
0.9979631028938846
 20
-0.8190811598959724
 30
0.0
  0
VERTEX
  5
7CC
  8
LAYER_1
 10
0.5112175392428029
 20
-0.4253718499848859
 30
0.0
  0
VERTEX
  5
7CD
  8
LAYER_1
 10
0.0126205281735521
 20
-0.0391258497183267
 30
0.0
  0
VERTEX
  5
7CE
  8
LAYER_1
 10
-0.4978407489190773
 20
0.3396700607312769
 30
0.0
  0
VERTEX
  5
7CF
  8
LAYER_1
 10
-1.020179110640295
 20
0.7110291011914971
 30
0.0
  0
VERTEX
  5
7D0
  8
LAYER_1
 10
-1.554407375595309
 20
1.074964491489905
 30
0.0
  0
VERTEX
  5
7D1
  8
LAYER_1
 10
-2.100538362389331
 20
1.431489451454074
 30
0.0
  0
VERTEX
  5
7D2
  8
LAYER_1
 10
-2.658584889627569
 20
1.780617200911574
 30
0.0
  0
VERTEX
  5
7D3
  8
LAYER_1
 10
-3.228559775915234
 20
2.122360959689979
 30
0.0
  0
VERTEX
  5
7D4
  8
LAYER_1
 10
-3.810475839857534
 20
2.456733947616859
 30
0.0
  0
VERTEX
  5
7D5
  8
LAYER_1
 10
-4.404345900059679
 20
2.783749384519787
 30
0.0
  0
VERTEX
  5
7D6
  8
LAYER_1
 10
-5.010182775126878
 20
3.103420490226334
 30
0.0
  0
VERTEX
  5
7D7
  8
LAYER_1
 10
-5.627999283664341
 20
3.415760484564073
 30
0.0
  0
VERTEX
  5
7D8
  8
LAYER_1
 10
-6.257808244277277
 20
3.720782587360574
 30
0.0
  0
VERTEX
  5
7D9
  8
LAYER_1
 10
-6.899622475570897
 20
4.018500018443412
 30
0.0
  0
VERTEX
  5
7DA
  8
LAYER_1
 10
-7.55345479615041
 20
4.308925997640157
 30
0.0
  0
VERTEX
  5
7DB
  8
LAYER_1
 10
-8.219318024621025
 20
4.59207374477838
 30
0.0
  0
VERTEX
  5
7DC
  8
LAYER_1
 10
-8.89722497958795
 20
4.867956479685654
 30
0.0
  0
VERTEX
  5
7DD
  8
LAYER_1
 10
-9.587188479656394
 20
5.136587422189551
 30
0.0
  0
VERTEX
  5
7DE
  8
LAYER_1
 10
-10.28922134343157
 20
5.397979792117642
 30
0.0
  0
VERTEX
  5
7DF
  8
LAYER_1
 10
-11.00333638951869
 20
5.652146809297499
 30
0.0
  0
VERTEX
  5
7E0
  8
LAYER_1
 10
-11.72954643652296
 20
5.899101693556696
 30
0.0
  0
VERTEX
  5
7E1
  8
LAYER_1
 10
-12.46786430304958
 20
6.138857664722801
 30
0.0
  0
VERTEX
  5
7E2
  8
LAYER_1
 10
-13.21830280770378
 20
6.37142794262339
 30
0.0
  0
VERTEX
  5
7E3
  8
LAYER_1
 10
-13.98087476909075
 20
6.596825747086033
 30
0.0
  0
VERTEX
  5
7E4
  8
LAYER_1
 10
-14.7555930058157
 20
6.815064297938301
 30
0.0
  0
VERTEX
  5
7E5
  8
LAYER_1
 10
-15.54247033648386
 20
7.026156815007767
 30
0.0
  0
VERTEX
  5
7E6
  8
LAYER_1
 10
-16.34151957970042
 20
7.230116518122003
 30
0.0
  0
SEQEND
  5
7E7
  8
LAYER_1
  0
POLYLINE
  5
4C
  8
LAYER_1
 66
     1
 10
0.0
 20
0.0
 30
0.0
 70
     1
  0
VERTEX
  5
7E8
  8
LAYER_1
 10
24.26592239201486
 20
38.68740988247087
 30
0.0
  0
VERTEX
  5
7E9
  8
LAYER_1
 10
25.2025828895251
 20
35.19023258161364
 30
0.0
  0
VERTEX
  5
7EA
  8
LAYER_1
 10
25.50493448899933
 20
34.23516328448153
 30
0.0
  0
VERTEX
  5
7EB
  8
LAYER_1
 10
25.7808843783903
 20
33.29596166448065
 30
0.0
  0
VERTEX
  5
7EC
  8
LAYER_1
 10
26.03034178591295
 20
32.37202544632011
 30
0.0
  0
VERTEX
  5
7ED
  8
LAYER_1
 10
26.25321593978223
 20
31.46275235470902
 30
0.0
  0
VERTEX
  5
7EE
  8
LAYER_1
 10
26.4494160682131
 20
30.56754011435648
 30
0.0
  0
VERTEX
  5
7EF
  8
LAYER_1
 10
26.61885139942051
 20
29.6857864499716
 30
0.0
  0
VERTEX
  5
7F0
  8
LAYER_1
 10
26.76143116161939
 20
28.81688908626349
 30
0.0
  0
VERTEX
  5
7F1
  8
LAYER_1
 10
26.8770645830247
 20
27.96024574794124
 30
0.0
  0
VERTEX
  5
7F2
  8
LAYER_1
 10
26.9656608918514
 20
27.11525415971398
 30
0.0
  0
VERTEX
  5
7F3
  8
LAYER_1
 10
27.02712931631442
 20
26.28131204629079
 30
0.0
  0
VERTEX
  5
7F4
  8
LAYER_1
 10
27.06137908462873
 20
25.45781713238079
 30
0.0
  0
VERTEX
  5
7F5
  8
LAYER_1
 10
27.06831942500925
 20
24.64416714269309
 30
0.0
  0
VERTEX
  5
7F6
  8
LAYER_1
 10
27.04785956567095
 20
23.83975980193678
 30
0.0
  0
VERTEX
  5
7F7
  8
LAYER_1
 10
26.99990873482877
 20
23.04399283482099
 30
0.0
  0
VERTEX
  5
7F8
  8
LAYER_1
 10
26.92437616069767
 20
22.25626396605481
 30
0.0
  0
VERTEX
  5
7F9
  8
LAYER_1
 10
26.82117107149259
 20
21.47597092034735
 30
0.0
  0
VERTEX
  5
7FA
  8
LAYER_1
 10
26.69020269542847
 20
20.70251142240771
 30
0.0
  0
VERTEX
  5
7FB
  8
LAYER_1
 10
26.53138026072028
 20
19.93528319694501
 30
0.0
  0
VERTEX
  5
7FC
  8
LAYER_1
 10
26.34461299558295
 20
19.17368396866834
 30
0.0
  0
VERTEX
  5
7FD
  8
LAYER_1
 10
26.12981012823144
 20
18.41711146228682
 30
0.0
  0
VERTEX
  5
7FE
  8
LAYER_1
 10
25.8868808868807
 20
17.66496340250954
 30
0.0
  0
VERTEX
  5
7FF
  8
LAYER_1
 10
25.61573449974566
 20
16.91663751404562
 30
0.0
  0
VERTEX
  5
800
  8
LAYER_1
 10
25.3162801950413
 20
16.17153152160416
 30
0.0
  0
VERTEX
  5
801
  8
LAYER_1
 10
24.98842720098254
 20
15.42904314989427
 30
0.0
  0
VERTEX
  5
802
  8
LAYER_1
 10
24.63208474578435
 20
14.68857012362506
 30
0.0
  0
VERTEX
  5
803
  8
LAYER_1
 10
24.24716205766166
 20
13.94951016750562
 30
0.0
  0
VERTEX
  5
804
  8
LAYER_1
 10
23.83356836482943
 20
13.21126100624507
 30
0.0
  0
VERTEX
  5
805
  8
LAYER_1
 10
23.39121289550261
 20
12.47322036455251
 30
0.0
  0
VERTEX
  5
806
  8
LAYER_1
 10
22.92000487789615
 20
11.73478596713705
 30
0.0
  0
VERTEX
  5
807
  8
LAYER_1
 10
22.41985354022499
 20
10.99535553870779
 30
0.0
  0
VERTEX
  5
808
  8
LAYER_1
 10
21.89066811070408
 20
10.25432680397385
 30
0.0
  0
VERTEX
  5
809
  8
LAYER_1
 10
21.33235781754838
 20
9.51109748764432
 30
0.0
  0
VERTEX
  5
80A
  8
LAYER_1
 10
20.97010460730051
 20
9.058257847449648
 30
0.0
  0
VERTEX
  5
80B
  8
LAYER_1
 10
20.54607058284315
 20
8.560186979094198
 30
0.0
  0
VERTEX
  5
80C
  8
LAYER_1
 10
20.06384286940866
 20
8.020326302194206
 30
0.0
  0
VERTEX
  5
80D
  8
LAYER_1
 10
19.52700859222941
 20
7.442117236365913
 30
0.0
  0
VERTEX
  5
80E
  8
LAYER_1
 10
18.93915487653775
 20
6.829001201225557
 30
0.0
  0
VERTEX
  5
80F
  8
LAYER_1
 10
18.30386884756605
 20
6.184419616389377
 30
0.0
  0
VERTEX
  5
810
  8
LAYER_1
 10
17.62473763054665
 20
5.51181390147361
 30
0.0
  0
VERTEX
  5
811
  8
LAYER_1
 10
16.90534835071192
 20
4.814625476094495
 30
0.0
  0
VERTEX
  5
812
  8
LAYER_1
 10
16.14928813329422
 20
4.096295759868271
 30
0.0
  0
VERTEX
  5
813
  8
LAYER_1
 10
15.3601441035259
 20
3.360266172411176
 30
0.0
  0
VERTEX
  5
814
  8
LAYER_1
 10
14.54150338663933
 20
2.609978133339448
 30
0.0
  0
VERTEX
  5
815
  8
LAYER_1
 10
13.69695310786686
 20
1.848873062269325
 30
0.0
  0
VERTEX
  5
816
  8
LAYER_1
 10
12.83008039244085
 20
1.080392378817048
 30
0.0
  0
VERTEX
  5
817
  8
LAYER_1
 10
11.94447236559366
 20
0.3079775025988521
 30
0.0
  0
VERTEX
  5
818
  8
LAYER_1
 10
11.04371615255764
 20
-0.4649301467690223
 30
0.0
  0
VERTEX
  5
819
  8
LAYER_1
 10
10.13139887856516
 20
-1.234889149670337
 30
0.0
  0
VERTEX
  5
81A
  8
LAYER_1
 10
6.778930409611519
 20
-4.040504840009305
 30
0.0
  0
VERTEX
  5
81B
  8
LAYER_1
 10
7.823036631409209
 20
-5.558061214063372
 30
0.0
  0
VERTEX
  5
81C
  8
LAYER_1
 10
8.13751366104959
 20
-6.032255837953738
 30
0.0
  0
VERTEX
  5
81D
  8
LAYER_1
 10
8.443763160558522
 20
-6.528644253671654
 30
0.0
  0
VERTEX
  5
81E
  8
LAYER_1
 10
8.7416689082045
 20
-7.046931896735448
 30
0.0
  0
VERTEX
  5
81F
  8
LAYER_1
 10
9.031114682256021
 20
-7.58682420266344
 30
0.0
  0
VERTEX
  5
820
  8
LAYER_1
 10
9.31198426098158
 20
-8.148026606973959
 30
0.0
  0
VERTEX
  5
821
  8
LAYER_1
 10
9.58416142264967
 20
-8.730244545185329
 30
0.0
  0
VERTEX
  5
822
  8
LAYER_1
 10
9.84752994552879
 20
-9.333183452815875
 30
0.0
  0
VERTEX
  5
823
  8
LAYER_1
 10
10.10197360788744
 20
-9.956548765383925
 30
0.0
  0
VERTEX
  5
824
  8
LAYER_1
 10
10.3473761879941
 20
-10.6000459184078
 30
0.0
  0
VERTEX
  5
825
  8
LAYER_1
 10
10.58362146411728
 20
-11.26338034740583
 30
0.0
  0
VERTEX
  5
826
  8
LAYER_1
 10
10.81059321452548
 20
-11.94625748789634
 30
0.0
  0
VERTEX
  5
827
  8
LAYER_1
 10
11.02817521748718
 20
-12.64838277539765
 30
0.0
  0
VERTEX
  5
828
  8
LAYER_1
 10
11.23625125127088
 20
-13.36946164542809
 30
0.0
  0
VERTEX
  5
829
  8
LAYER_1
 10
11.43470509414509
 20
-14.10919953350598
 30
0.0
  0
VERTEX
  5
82A
  8
LAYER_1
 10
11.62342052437829
 20
-14.86730187514965
 30
0.0
  0
VERTEX
  5
82B
  8
LAYER_1
 10
11.80228132023898
 20
-15.64347410587742
 30
0.0
  0
VERTEX
  5
82C
  8
LAYER_1
 10
11.8731860564293
 20
-15.9427504529595
 30
0.0
  0
VERTEX
  5
82D
  8
LAYER_1
 10
11.9407981770293
 20
-16.1667587080075
 30
0.0
  0
VERTEX
  5
82E
  8
LAYER_1
 10
11.97561135825241
 20
-16.25189032817812
 30
0.0
  0
VERTEX
  5
82F
  8
LAYER_1
 10
12.01229160770135
 20
-16.3198285579315
 30
0.0
  0
VERTEX
  5
830
  8
LAYER_1
 10
12.0517356660839
 20
-16.3711146081314
 30
0.0
  0
VERTEX
  5
831
  8
LAYER_1
 10
12.09484027410787
 20
-16.40628968964158
 30
0.0
  0
VERTEX
  5
832
  8
LAYER_1
 10
12.14250217248105
 20
-16.42589501332579
 30
0.0
  0
VERTEX
  5
833
  8
LAYER_1
 10
12.19561810191126
 20
-16.4304717900478
 30
0.0
  0
VERTEX
  5
834
  8
LAYER_1
 10
12.25508480310627
 20
-16.42056123067137
 30
0.0
  0
VERTEX
  5
835
  8
LAYER_1
 10
12.32179901677391
 20
-16.39670454606025
 30
0.0
  0
VERTEX
  5
836
  8
LAYER_1
 10
12.48055694435824
 20
-16.30931764458898
 30
0.0
  0
VERTEX
  5
837
  8
LAYER_1
 10
12.67906581032665
 20
-16.17264077254409
 30
0.0
  0
VERTEX
  5
838
  8
LAYER_1
 10
16.28002001128205
 20
-13.58495864390075
 30
0.0
  0
VERTEX
  5
839
  8
LAYER_1
 10
17.29699551882812
 20
-12.84256072040109
 30
0.0
  0
VERTEX
  5
83A
  8
LAYER_1
 10
18.28035583018746
 20
-12.09848524097347
 30
0.0
  0
VERTEX
  5
83B
  8
LAYER_1
 10
19.23028625750871
 20
-11.35244508646621
 30
0.0
  0
VERTEX
  5
83C
  8
LAYER_1
 10
20.14697211294052
 20
-10.60415313772765
 30
0.0
  0
VERTEX
  5
83D
  8
LAYER_1
 10
21.03059870863154
 20
-9.853322275606105
 30
0.0
  0
VERTEX
  5
83E
  8
LAYER_1
 10
21.88135135673043
 20
-9.099665380949912
 30
0.0
  0
VERTEX
  5
83F
  8
LAYER_1
 10
22.69941536938582
 20
-8.342895334607395
 30
0.0
  0
VERTEX
  5
840
  8
LAYER_1
 10
23.48497605874637
 20
-7.582725017426882
 30
0.0
  0
VERTEX
  5
841
  8
LAYER_1
 10
24.23821873696073
 20
-6.818867310256702
 30
0.0
  0
VERTEX
  5
842
  8
LAYER_1
 10
24.95932871617754
 20
-6.051035093945183
 30
0.0
  0
VERTEX
  5
843
  8
LAYER_1
 10
25.64849130854546
 20
-5.278941249340653
 30
0.0
  0
VERTEX
  5
844
  8
LAYER_1
 10
26.30589182621313
 20
-4.502298657291439
 30
0.0
  0
VERTEX
  5
845
  8
LAYER_1
 10
26.9317155813292
 20
-3.72082019864587
 30
0.0
  0
VERTEX
  5
846
  8
LAYER_1
 10
27.52614788604232
 20
-2.934218754252274
 30
0.0
  0
VERTEX
  5
847
  8
LAYER_1
 10
28.08937405250114
 20
-2.142207204958977
 30
0.0
  0
VERTEX
  5
848
  8
LAYER_1
 10
28.62157939285431
 20
-1.34449843161431
 30
0.0
  0
VERTEX
  5
849
  8
LAYER_1
 10
29.12294921925048
 20
-0.5408053150665996
 30
0.0
  0
VERTEX
  5
84A
  8
LAYER_1
 10
29.5936688438383
 20
0.2691592638358267
 30
0.0
  0
VERTEX
  5
84B
  8
LAYER_1
 10
30.03392357876641
 20
1.085682424244641
 30
0.0
  0
VERTEX
  5
84C
  8
LAYER_1
 10
30.24268452265453
 20
1.49649319724884
 30
0.0
  0
VERTEX
  5
84D
  8
LAYER_1
 10
30.44389873618346
 20
1.909051285311514
 30
0.0
  0
VERTEX
  5
84E
  8
LAYER_1
 10
30.6375893833718
 20
2.32339257832662
 30
0.0
  0
VERTEX
  5
84F
  8
LAYER_1
 10
30.82377962823811
 20
2.739552966188119
 30
0.0
  0
VERTEX
  5
850
  8
LAYER_1
 10
31.00249263480098
 20
3.157568338789968
 30
0.0
  0
VERTEX
  5
851
  8
LAYER_1
 10
31.173751567079
 20
3.577474586026127
 30
0.0
  0
VERTEX
  5
852
  8
LAYER_1
 10
31.33757958909074
 20
3.999307597790555
 30
0.0
  0
VERTEX
  5
853
  8
LAYER_1
 10
31.49399986485478
 20
4.423103263977211
 30
0.0
  0
VERTEX
  5
854
  8
LAYER_1
 10
31.6430355583897
 20
4.848897474480054
 30
0.0
  0
VERTEX
  5
855
  8
LAYER_1
 10
31.7847098337141
 20
5.276726119193043
 30
0.0
  0
VERTEX
  5
856
  8
LAYER_1
 10
31.91904585484654
 20
5.706625088010137
 30
0.0
  0
VERTEX
  5
857
  8
LAYER_1
 10
32.04606678580561
 20
6.138630270825295
 30
0.0
  0
VERTEX
  5
858
  8
LAYER_1
 10
32.16579579060989
 20
6.572777557532476
 30
0.0
  0
VERTEX
  5
859
  8
LAYER_1
 10
32.27825603327796
 20
7.009102838025637
 30
0.0
  0
VERTEX
  5
85A
  8
LAYER_1
 10
32.3834706778284
 20
7.447642002198741
 30
0.0
  0
VERTEX
  5
85B
  8
LAYER_1
 10
32.48146288827979
 20
7.888430939945744
 30
0.0
  0
VERTEX
  5
85C
  8
LAYER_1
 10
32.65587266295975
 20
8.776901695737287
 30
0.0
  0
VERTEX
  5
85D
  8
LAYER_1
 10
32.8016706694665
 20
9.674802224551936
 30
0.0
  0
VERTEX
  5
85E
  8
LAYER_1
 10
32.91904221994868
 20
10.58241964554137
 30
0.0
  0
VERTEX
  5
85F
  8
LAYER_1
 10
33.00817262655494
 20
11.50004107785725
 30
0.0
  0
VERTEX
  5
860
  8
LAYER_1
 10
33.06924720143394
 20
12.42795364065125
 30
0.0
  0
VERTEX
  5
861
  8
LAYER_1
 10
33.09873968604047
 20
13.14646975811119
 30
0.0
  0
VERTEX
  5
862
  8
LAYER_1
 10
33.11430613664674
 20
13.86007045949291
 30
0.0
  0
VERTEX
  5
863
  8
LAYER_1
 10
33.11579690860813
 20
14.5692715222335
 30
0.0
  0
VERTEX
  5
864
  8
LAYER_1
 10
33.10306235728002
 20
15.27458872377002
 30
0.0
  0
VERTEX
  5
865
  8
LAYER_1
 10
33.0759528380178
 20
15.97653784153956
 30
0.0
  0
VERTEX
  5
866
  8
LAYER_1
 10
33.03431870617686
 20
16.67563465297919
 30
0.0
  0
VERTEX
  5
867
  8
LAYER_1
 10
32.97801031711258
 20
17.37239493552598
 30
0.0
  0
VERTEX
  5
868
  8
LAYER_1
 10
32.90687802618036
 20
18.06733446661701
 30
0.0
  0
VERTEX
  5
869
  8
LAYER_1
 10
32.82077218873557
 20
18.76096902368936
 30
0.0
  0
VERTEX
  5
86A
  8
LAYER_1
 10
32.71954316013359
 20
19.45381438418011
 30
0.0
  0
VERTEX
  5
86B
  8
LAYER_1
 10
32.60304129572981
 20
20.14638632552631
 30
0.0
  0
VERTEX
  5
86C
  8
LAYER_1
 10
32.47111695087963
 20
20.83920062516507
 30
0.0
  0
VERTEX
  5
86D
  8
LAYER_1
 10
32.32362048093843
 20
21.53277306053344
 30
0.0
  0
VERTEX
  5
86E
  8
LAYER_1
 10
32.16040224126158
 20
22.22761940906851
 30
0.0
  0
VERTEX
  5
86F
  8
LAYER_1
 10
31.98131258720448
 20
22.92425544820735
 30
0.0
  0
VERTEX
  5
870
  8
LAYER_1
 10
31.78620187412252
 20
23.62319695538703
 30
0.0
  0
VERTEX
  5
871
  8
LAYER_1
 10
31.57492045737108
 20
24.32495970804463
 30
0.0
  0
VERTEX
  5
872
  8
LAYER_1
 10
31.34731869230554
 20
25.03005948361724
 30
0.0
  0
VERTEX
  5
873
  8
LAYER_1
 10
31.10324693428129
 20
25.73901205954191
 30
0.0
  0
VERTEX
  5
874
  8
LAYER_1
 10
30.84255553865371
 20
26.45233321325574
 30
0.0
  0
VERTEX
  5
875
  8
LAYER_1
 10
30.56509486077819
 20
27.17053872219579
 30
0.0
  0
VERTEX
  5
876
  8
LAYER_1
 10
30.27071525601012
 20
27.89414436379914
 30
0.0
  0
VERTEX
  5
877
  8
LAYER_1
 10
29.95926707970488
 20
28.62366591550287
 30
0.0
  0
VERTEX
  5
878
  8
LAYER_1
 10
29.63060068721786
 20
29.35961915474405
 30
0.0
  0
VERTEX
  5
879
  8
LAYER_1
 10
29.28456643390445
 20
30.10251985895976
 30
0.0
  0
VERTEX
  5
87A
  8
LAYER_1
 10
28.92101467512002
 20
30.85288380558707
 30
0.0
  0
VERTEX
  5
87B
  8
LAYER_1
 10
28.53979576621997
 20
31.61122677206306
 30
0.0
  0
VERTEX
  5
87C
  8
LAYER_1
 10
28.14076006255967
 20
32.37806453582481
 30
0.0
  0
VERTEX
  5
87D
  8
LAYER_1
 10
27.72375791949452
 20
33.15391287430937
 30
0.0
  0
VERTEX
  5
87E
  8
LAYER_1
 10
27.28863969237991
 20
33.93928756495385
 30
0.0
  0
VERTEX
  5
87F
  8
LAYER_1
 10
26.83525573657121
 20
34.73470438519531
 30
0.0
  0
VERTEX
  5
880
  8
LAYER_1
 10
26.36345640742381
 20
35.54067911247083
 30
0.0
  0
SEQEND
  5
881
  8
LAYER_1
  0
ENDSEC
  0
EOF
