  0
SECTION
  2
HEADER
  9
$ACADVER
  1
AC1009
  9
$DWGCODEPAGE
  3
ansi_1252
  9
$INSBASE
 10
0.0
 20
0.0
 30
0.0
  9
$EXTMIN
 10
-35.68575739039218
 20
-130.4934300925226
 30
0.0
  9
$EXTMAX
 10
28.92511283896067
 20
129.2930555555556
 30
0.0
  9
$LIMMIN
 10
0.0
 20
0.0
  9
$LIMMAX
 10
12.0
 20
9.0
  9
$ORTHOMODE
 70
     0
  9
$REGENMODE
 70
     1
  9
$FILLMODE
 70
     1
  9
$QTEXTMODE
 70
     0
  9
$MIRRTEXT
 70
     1
  9
$DRAGMODE
 70
     2
  9
$LTSCALE
 40
1.0
  9
$OSMODE
 70
    37
  9
$ATTMODE
 70
     1
  9
$TEXTSIZE
 40
0.2
  9
$TRACEWID
 40
0.05
  9
$TEXTSTYLE
  7
STANDARD
  9
$CLAYER
  8
0
  9
$CELTYPE
  6
BYLAYER
  9
$CECOLOR
 62
   256
  9
$DIMSCALE
 40
1.0
  9
$DIMASZ
 40
0.18
  9
$DIMEXO
 40
0.0625
  9
$DIMDLI
 40
0.38
  9
$DIMRND
 40
0.0
  9
$DIMDLE
 40
0.0
  9
$DIMEXE
 40
0.18
  9
$DIMTP
 40
0.0
  9
$DIMTM
 40
0.0
  9
$DIMTXT
 40
0.18
  9
$DIMCEN
 40
0.09
  9
$DIMTSZ
 40
0.0
  9
$DIMTOL
 70
     0
  9
$DIMLIM
 70
     0
  9
$DIMTIH
 70
     1
  9
$DIMTOH
 70
     1
  9
$DIMSE1
 70
     0
  9
$DIMSE2
 70
     0
  9
$DIMTAD
 70
     0
  9
$DIMZIN
 70
     0
  9
$DIMBLK
  1

  9
$DIMASO
 70
     1
  9
$DIMSHO
 70
     1
  9
$DIMPOST
  1

  9
$DIMAPOST
  1

  9
$DIMALT
 70
     0
  9
$DIMALTD
 70
     2
  9
$DIMALTF
 40
25.4
  9
$DIMLFAC
 40
1.0
  9
$DIMTOFL
 70
     0
  9
$DIMTVP
 40
0.0
  9
$DIMTIX
 70
     0
  9
$DIMSOXD
 70
     0
  9
$DIMSAH
 70
     0
  9
$DIMBLK1
  1

  9
$DIMBLK2
  1

  9
$DIMSTYLE
  2
STANDARD
  9
$DIMCLRD
 70
     0
  9
$DIMCLRE
 70
     0
  9
$DIMCLRT
 70
     0
  9
$DIMTFAC
 40
1.0
  9
$DIMGAP
 40
0.09
  9
$LUNITS
 70
     2
  9
$LUPREC
 70
     4
  9
$SKETCHINC
 40
0.1
  9
$FILLETRAD
 40
0.5
  9
$AUNITS
 70
     0
  9
$AUPREC
 70
     0
  9
$MENU
  1
.
  9
$ELEVATION
 40
0.0
  9
$PELEVATION
 40
0.0
  9
$THICKNESS
 40
0.0
  9
$LIMCHECK
 70
     0
  9
$CHAMFERA
 40
0.5
  9
$CHAMFERB
 40
0.5
  9
$SKPOLY
 70
     0
  9
$TDCREATE
 40
2454910.5
  9
$TDUPDATE
 40
2458809.005433241
  9
$TDINDWG
 40
0.0000000116
  9
$TDUSRTIMER
 40
0.0000000116
  9
$USRTIMER
 70
     1
  9
$ANGBASE
 50
0.0
  9
$ANGDIR
 70
     0
  9
$PDMODE
 70
     0
  9
$PDSIZE
 40
0.0
  9
$PLINEWID
 40
0.0
  9
$COORDS
 70
     1
  9
$SPLFRAME
 70
     0
  9
$SPLINETYPE
 70
     6
  9
$SPLINESEGS
 70
     8
  9
$ATTDIA
 70
     0
  9
$ATTREQ
 70
     1
  9
$HANDLING
 70
     1
  9
$HANDSEED
  5
D44
  9
$SURFTAB1
 70
     6
  9
$SURFTAB2
 70
     6
  9
$SURFTYPE
 70
     6
  9
$SURFU
 70
     6
  9
$SURFV
 70
     6
  9
$UCSNAME
  2

  9
$UCSORG
 10
0.0
 20
0.0
 30
0.0
  9
$UCSXDIR
 10
1.0
 20
0.0
 30
0.0
  9
$UCSYDIR
 10
0.0
 20
1.0
 30
0.0
  9
$PUCSNAME
  2

  9
$PUCSORG
 10
0.0
 20
0.0
 30
0.0
  9
$PUCSXDIR
 10
1.0
 20
0.0
 30
0.0
  9
$PUCSYDIR
 10
0.0
 20
1.0
 30
0.0
  9
$USERI1
 70
     0
  9
$USERI2
 70
     0
  9
$USERI3
 70
     0
  9
$USERI4
 70
     0
  9
$USERI5
 70
     0
  9
$USERR1
 40
0.0
  9
$USERR2
 40
0.0
  9
$USERR3
 40
0.0
  9
$USERR4
 40
0.0
  9
$USERR5
 40
0.0
  9
$WORLDVIEW
 70
     1
  9
$SHADEDGE
 70
     3
  9
$SHADEDIF
 70
    70
  9
$TILEMODE
 70
     1
  9
$MAXACTVP
 70
    64
  9
$PLIMCHECK
 70
     0
  9
$PEXTMIN
 10
1.000000000000000E+20
 20
1.000000000000000E+20
 30
1.000000000000000E+20
  9
$PEXTMAX
 10
-1.000000000000000E+20
 20
-1.000000000000000E+20
 30
-1.000000000000000E+20
  9
$PLIMMIN
 10
0.0
 20
0.0
  9
$PLIMMAX
 10
12.0
 20
9.0
  9
$UNITMODE
 70
     0
  9
$VISRETAIN
 70
     1
  9
$PLINEGEN
 70
     0
  9
$PSLTSCALE
 70
     1
  0
ENDSEC
  0
SECTION
  2
TABLES
  0
TABLE
  2
VPORT
 70
     1
  0
VPORT
  2
*ACTIVE
 70
     0
 10
0.0
 20
0.0
 11
1.0
 21
1.0
 12
10.42990654205607
 22
4.5
 13
0.0
 23
0.0
 14
0.5
 24
0.5
 15
0.5
 25
0.5
 16
0.0
 26
0.0
 36
1.0
 17
0.0
 27
0.0
 37
0.0
 40
9.0
 41
1.972972972850329
 42
50.0
 43
0.0
 44
0.0
 50
0.0
 51
0.0
 71
     0
 72
   100
 73
     1
 74
     3
 75
     0
 76
     0
 77
     0
 78
     0
  0
ENDTAB
  0
TABLE
  2
LTYPE
 70
     2
  0
LTYPE
  2
CONTINUOUS
 70
     0
  3
Solid line
 72
    65
 73
     0
 40
0.0
  0
LTYPE
  2
CONTINUOUS2
 70
     0
  3
Solid Line
 72
    65
 73
     0
 40
0.0
  0
ENDTAB
  0
TABLE
  2
LAYER
 70
     2
  0
LAYER
  2
0
 70
     0
 62
     7
  6
CONTINUOUS
  0
LAYER
  2
LAYER_1
 70
     0
 62
     1
  6
CONTINUOUS
  0
ENDTAB
  0
TABLE
  2
STYLE
 70
     1
  0
STYLE
  2
STANDARD
 70
     0
 40
0.0
 41
1.0
 50
0.0
 71
     0
 42
0.2
  3
txt
  4

  0
ENDTAB
  0
TABLE
  2
VIEW
 70
     0
  0
ENDTAB
  0
TABLE
  2
UCS
 70
     0
  0
ENDTAB
  0
TABLE
  2
APPID
 70
     1
  0
APPID
  2
ACAD
 70
     0
  0
ENDTAB
  0
TABLE
  2
DIMSTYLE
 70
     1
  0
DIMSTYLE
  2
STANDARD
 70
     0
  3

  4

  5

  6

  7

 40
1.0
 41
0.18
 42
0.0625
 43
0.38
 44
0.18
 45
0.0
 46
0.0
 47
0.0
 48
0.0
140
0.18
141
0.09
142
0.0
143
25.4
144
1.0
145
0.0
146
1.0
147
0.09
 71
     0
 72
     0
 73
     1
 74
     1
 75
     0
 76
     0
 77
     0
 78
     0
170
     0
171
     2
172
     0
173
     0
174
     0
175
     0
176
     0
177
     0
178
     0
  0
ENDTAB
  0
ENDSEC
  0
SECTION
  2
BLOCKS
  0
BLOCK
  8
0
  2
$MODEL_SPACE
 70
     0
 10
0.0
 20
0.0
 30
0.0
  3
$MODEL_SPACE
  1

  0
ENDBLK
  5
21
  8
0
  0
BLOCK
 67
     1
  8
0
  2
$PAPER_SPACE
 70
     0
 10
0.0
 20
0.0
 30
0.0
  3
$PAPER_SPACE
  1

  0
ENDBLK
  5
1D
 67
     1
  8
0
  0
ENDSEC
  0
SECTION
  2
ENTITIES
  0
POLYLINE
  5
41
  8
LAYER_1
 66
     1
 10
0.0
 20
0.0
 30
0.0
 70
     1
  0
VERTEX
  5
67
  8
LAYER_1
 10
7.885570547732826
 20
-118.8804583737829
 30
0.0
  0
VERTEX
  5
68
  8
LAYER_1
 10
8.28041691856401
 20
-118.3303120151345
 30
0.0
  0
VERTEX
  5
69
  8
LAYER_1
 10
8.662355187808451
 20
-117.7487374335874
 30
0.0
  0
VERTEX
  5
6A
  8
LAYER_1
 10
9.030042757081945
 20
-117.1392747823655
 30
0.0
  0
VERTEX
  5
6B
  8
LAYER_1
 10
9.38213702800029
 20
-116.5054642146927
 30
0.0
  0
VERTEX
  5
6C
  8
LAYER_1
 10
9.717295402179282
 20
-115.8508458837931
 30
0.0
  0
VERTEX
  5
6D
  8
LAYER_1
 10
10.03417528123472
 20
-115.1789599428906
 30
0.0
  0
VERTEX
  5
6E
  8
LAYER_1
 10
10.3314340667824
 20
-114.4933465452091
 30
0.0
  0
VERTEX
  5
6F
  8
LAYER_1
 10
10.60772916043812
 20
-113.7975458439727
 30
0.0
  0
VERTEX
  5
70
  8
LAYER_1
 10
10.86171796381766
 20
-113.0950979924053
 30
0.0
  0
VERTEX
  5
71
  8
LAYER_1
 10
11.09205787853685
 20
-112.3895431437309
 30
0.0
  0
VERTEX
  5
72
  8
LAYER_1
 10
11.29740630621145
 20
-111.6844214511735
 30
0.0
  0
VERTEX
  5
73
  8
LAYER_1
 10
11.47642064845729
 20
-110.983273067957
 30
0.0
  0
VERTEX
  5
74
  8
LAYER_1
 10
11.62775830689014
 20
-110.2896381473054
 30
0.0
  0
VERTEX
  5
75
  8
LAYER_1
 10
11.75007668312581
 20
-109.6070568424426
 30
0.0
  0
VERTEX
  5
76
  8
LAYER_1
 10
11.8420331787801
 20
-108.9390693065927
 30
0.0
  0
VERTEX
  5
77
  8
LAYER_1
 10
11.87620615939415
 20
-108.6116544999301
 30
0.0
  0
VERTEX
  5
78
  8
LAYER_1
 10
11.90228519546879
 20
-108.2892156929796
 30
0.0
  0
VERTEX
  5
79
  8
LAYER_1
 10
11.92101545319669
 20
-107.9615818352593
 30
0.0
  0
VERTEX
  5
7A
  8
LAYER_1
 10
11.93258634464383
 20
-107.626881684016
 30
0.0
  0
VERTEX
  5
7B
  8
LAYER_1
 10
11.93390143006392
 20
-106.9346303543722
 30
0.0
  0
VERTEX
  5
7C
  8
LAYER_1
 10
11.90553325446523
 20
-106.2091574108715
 30
0.0
  0
VERTEX
  5
7D
  8
LAYER_1
 10
11.84678462058388
 20
-105.4471585603367
 30
0.0
  0
VERTEX
  5
7E
  8
LAYER_1
 10
11.75695833115604
 20
-104.6453295095912
 30
0.0
  0
VERTEX
  5
7F
  8
LAYER_1
 10
11.63535718891786
 20
-103.800365965458
 30
0.0
  0
VERTEX
  5
80
  8
LAYER_1
 10
11.48128399660547
 20
-102.9089636347602
 30
0.0
  0
VERTEX
  5
81
  8
LAYER_1
 10
11.29404155695503
 20
-101.967818224321
 30
0.0
  0
VERTEX
  5
82
  8
LAYER_1
 10
11.07293267270268
 20
-100.9736254409634
 30
0.0
  0
VERTEX
  5
83
  8
LAYER_1
 10
10.81726014658458
 20
-99.92308099151063
 30
0.0
  0
VERTEX
  5
84
  8
LAYER_1
 10
10.52632678133687
 20
-98.81288058278575
 30
0.0
  0
VERTEX
  5
85
  8
LAYER_1
 10
10.1994353796957
 20
-97.63971992161188
 30
0.0
  0
VERTEX
  5
86
  8
LAYER_1
 10
9.835888744397222
 20
-96.40029471481215
 30
0.0
  0
VERTEX
  5
87
  8
LAYER_1
 10
9.434989678177576
 20
-95.09130066920966
 30
0.0
  0
VERTEX
  5
88
  8
LAYER_1
 10
8.996040983772916
 20
-93.70943349162752
 30
0.0
  0
VERTEX
  5
89
  8
LAYER_1
 10
8.518345463919388
 20
-92.25138888888888
 30
0.0
  0
VERTEX
  5
8A
  8
LAYER_1
 10
6.526388888888889
 20
-86.25416666666665
 30
0.0
  0
VERTEX
  5
8B
  8
LAYER_1
 10
6.470872698179773
 20
-86.1618699407558
 30
0.0
  0
VERTEX
  5
8C
  8
LAYER_1
 10
6.413372098951692
 20
-86.0818794449664
 30
0.0
  0
VERTEX
  5
8D
  8
LAYER_1
 10
6.354170578135928
 20
-86.01419517929845
 30
0.0
  0
VERTEX
  5
8E
  8
LAYER_1
 10
6.293551622663761
 20
-85.95881714375194
 30
0.0
  0
VERTEX
  5
8F
  8
LAYER_1
 10
6.231798719466472
 20
-85.91574533832689
 30
0.0
  0
VERTEX
  5
90
  8
LAYER_1
 10
6.16919535547534
 20
-85.88497976302327
 30
0.0
  0
VERTEX
  5
91
  8
LAYER_1
 10
6.106025017621648
 20
-85.8665204178411
 30
0.0
  0
VERTEX
  5
92
  8
LAYER_1
 10
6.042571192836675
 20
-85.86036730278038
 30
0.0
  0
VERTEX
  5
93
  8
LAYER_1
 10
5.979117368051702
 20
-85.8665204178411
 30
0.0
  0
VERTEX
  5
94
  8
LAYER_1
 10
5.91594703019801
 20
-85.88497976302327
 30
0.0
  0
VERTEX
  5
95
  8
LAYER_1
 10
5.853343666206879
 20
-85.91574533832689
 30
0.0
  0
VERTEX
  5
96
  8
LAYER_1
 10
5.791590763009589
 20
-85.95881714375194
 30
0.0
  0
VERTEX
  5
97
  8
LAYER_1
 10
5.730971807537422
 20
-86.01419517929845
 30
0.0
  0
VERTEX
  5
98
  8
LAYER_1
 10
5.671770286721658
 20
-86.0818794449664
 30
0.0
  0
VERTEX
  5
99
  8
LAYER_1
 10
5.614269687493578
 20
-86.1618699407558
 30
0.0
  0
VERTEX
  5
9A
  8
LAYER_1
 10
5.558753496784462
 20
-86.25416666666665
 30
0.0
  0
VERTEX
  5
9B
  8
LAYER_1
 10
-1.725167168380821
 20
-100.7180555555555
 30
0.0
  0
VERTEX
  5
9C
  8
LAYER_1
 10
-3.145742402214267
 20
-104.2697671391879
 30
0.0
  0
VERTEX
  5
9D
  8
LAYER_1
 10
-3.380671674094065
 20
-104.8683656872566
 30
0.0
  0
VERTEX
  5
9E
  8
LAYER_1
 10
-3.601218826952336
 20
-105.4537338843911
 30
0.0
  0
VERTEX
  5
9F
  8
LAYER_1
 10
-3.807397110737393
 20
-106.0263060169181
 30
0.0
  0
VERTEX
  5
A0
  8
LAYER_1
 10
-3.999219775397545
 20
-106.5865163711641
 30
0.0
  0
VERTEX
  5
A1
  8
LAYER_1
 10
-4.176700070881104
 20
-107.1347992334558
 30
0.0
  0
VERTEX
  5
A2
  8
LAYER_1
 10
-4.33985124713638
 20
-107.6715888901197
 30
0.0
  0
VERTEX
  5
A3
  8
LAYER_1
 10
-4.488686554111684
 20
-108.1973196274825
 30
0.0
  0
VERTEX
  5
A4
  8
LAYER_1
 10
-4.623219241755325
 20
-108.7124257318708
 30
0.0
  0
VERTEX
  5
A5
  8
LAYER_1
 10
-4.743462560015614
 20
-109.2173414896112
 30
0.0
  0
VERTEX
  5
A6
  8
LAYER_1
 10
-4.849429758840865
 20
-109.7125011870303
 30
0.0
  0
VERTEX
  5
A7
  8
LAYER_1
 10
-4.941134088179384
 20
-110.1983391104548
 30
0.0
  0
VERTEX
  5
A8
  8
LAYER_1
 10
-5.018588797979485
 20
-110.6752895462111
 30
0.0
  0
VERTEX
  5
A9
  8
LAYER_1
 10
-5.081807138189476
 20
-111.143786780626
 30
0.0
  0
VERTEX
  5
AA
  8
LAYER_1
 10
-5.13080235875767
 20
-111.604265100026
 30
0.0
  0
VERTEX
  5
AB
  8
LAYER_1
 10
-5.165587709632376
 20
-112.0571587907377
 30
0.0
  0
VERTEX
  5
AC
  8
LAYER_1
 10
-5.186176440761905
 20
-112.5029021390879
 30
0.0
  0
VERTEX
  5
AD
  8
LAYER_1
 10
-5.192581802094567
 20
-112.941929431403
 30
0.0
  0
VERTEX
  5
AE
  8
LAYER_1
 10
-5.184817043578674
 20
-113.3746749540096
 30
0.0
  0
VERTEX
  5
AF
  8
LAYER_1
 10
-5.162895415162536
 20
-113.8015729932345
 30
0.0
  0
VERTEX
  5
B0
  8
LAYER_1
 10
-5.126830166794463
 20
-114.2230578354041
 30
0.0
  0
VERTEX
  5
B1
  8
LAYER_1
 10
-5.076634548422766
 20
-114.6395637668452
 30
0.0
  0
VERTEX
  5
B2
  8
LAYER_1
 10
-5.012321809995757
 20
-115.0515250738843
 30
0.0
  0
VERTEX
  5
B3
  8
LAYER_1
 10
-4.933905201461744
 20
-115.459376042848
 30
0.0
  0
VERTEX
  5
B4
  8
LAYER_1
 10
-4.841397972769038
 20
-115.8635509600629
 30
0.0
  0
VERTEX
  5
B5
  8
LAYER_1
 10
-4.734813373865952
 20
-116.2644841118557
 30
0.0
  0
VERTEX
  5
B6
  8
LAYER_1
 10
-4.614164654700795
 20
-116.662609784553
 30
0.0
  0
VERTEX
  5
B7
  8
LAYER_1
 10
-4.479465065221877
 20
-117.0583622644813
 30
0.0
  0
VERTEX
  5
B8
  8
LAYER_1
 10
-4.33072785537751
 20
-117.4521758379672
 30
0.0
  0
VERTEX
  5
B9
  8
LAYER_1
 10
-4.167966275116004
 20
-117.8444847913375
 30
0.0
  0
VERTEX
  5
BA
  8
LAYER_1
 10
-3.991193574385669
 20
-118.2357234109187
 30
0.0
  0
VERTEX
  5
BB
  8
LAYER_1
 10
-3.800423003134816
 20
-118.6263259830373
 30
0.0
  0
VERTEX
  5
BC
  8
LAYER_1
 10
-3.595667811311756
 20
-119.0167267940201
 30
0.0
  0
VERTEX
  5
BD
  8
LAYER_1
 10
-3.350746973570761
 20
-119.4475971375946
 30
0.0
  0
VERTEX
  5
BE
  8
LAYER_1
 10
-3.098886975288729
 20
-119.8492610576434
 30
0.0
  0
VERTEX
  5
BF
  8
LAYER_1
 10
-2.839428908346641
 20
-120.2221885474691
 30
0.0
  0
VERTEX
  5
C0
  8
LAYER_1
 10
-2.571713864625476
 20
-120.566849600374
 30
0.0
  0
VERTEX
  5
C1
  8
LAYER_1
 10
-2.295082936006216
 20
-120.8837142096607
 30
0.0
  0
VERTEX
  5
C2
  8
LAYER_1
 10
-2.008877214369841
 20
-121.1732523686315
 30
0.0
  0
VERTEX
  5
C3
  8
LAYER_1
 10
-1.71243779159733
 20
-121.435934070589
 30
0.0
  0
VERTEX
  5
C4
  8
LAYER_1
 10
-1.405105759569665
 20
-121.6722293088357
 30
0.0
  0
VERTEX
  5
C5
  8
LAYER_1
 10
-1.086222210167824
 20
-121.8826080766738
 30
0.0
  0
VERTEX
  5
C6
  8
LAYER_1
 10
-0.7551282352727897
 20
-122.067540367406
 30
0.0
  0
VERTEX
  5
C7
  8
LAYER_1
 10
-0.4111649267655407
 20
-122.2274961743346
 30
0.0
  0
VERTEX
  5
C8
  8
LAYER_1
 10
-0.0536733765270578
 20
-122.3629454907621
 30
0.0
  0
VERTEX
  5
C9
  8
LAYER_1
 10
0.3180053235616787
 20
-122.474358309991
 30
0.0
  0
VERTEX
  5
CA
  8
LAYER_1
 10
0.7045300816196887
 20
-122.5622046253238
 30
0.0
  0
VERTEX
  5
CB
  8
LAYER_1
 10
1.106559805765992
 20
-122.6269544300628
 30
0.0
  0
VERTEX
  5
CC
  8
LAYER_1
 10
1.524753404119608
 20
-122.6690777175105
 30
0.0
  0
VERTEX
  5
CD
  8
LAYER_1
 10
1.965396587846009
 20
-122.6867719777497
 30
0.0
  0
VERTEX
  5
CE
  8
LAYER_1
 10
2.181064164436466
 20
-122.6843836536392
 30
0.0
  0
VERTEX
  5
CF
  8
LAYER_1
 10
2.393858894951782
 20
-122.6743681352852
 30
0.0
  0
VERTEX
  5
D0
  8
LAYER_1
 10
2.603953152471971
 20
-122.6566227541199
 30
0.0
  0
VERTEX
  5
D1
  8
LAYER_1
 10
2.811519310077046
 20
-122.6310448415758
 30
0.0
  0
VERTEX
  5
D2
  8
LAYER_1
 10
3.016729740847023
 20
-122.5975317290851
 30
0.0
  0
VERTEX
  5
D3
  8
LAYER_1
 10
3.219756817861918
 20
-122.5559807480801
 30
0.0
  0
VERTEX
  5
D4
  8
LAYER_1
 10
3.420772914201745
 20
-122.5062892299933
 30
0.0
  0
VERTEX
  5
D5
  8
LAYER_1
 10
3.619950402946517
 20
-122.448354506257
 30
0.0
  0
VERTEX
  5
D6
  8
LAYER_1
 10
3.817461657176251
 20
-122.3820739083035
 30
0.0
  0
VERTEX
  5
D7
  8
LAYER_1
 10
4.013479049970961
 20
-122.3073447675652
 30
0.0
  0
VERTEX
  5
D8
  8
LAYER_1
 10
4.208174954410661
 20
-122.2240644154743
 30
0.0
  0
VERTEX
  5
D9
  8
LAYER_1
 10
4.401721743575367
 20
-122.1321301834632
 30
0.0
  0
VERTEX
  5
DA
  8
LAYER_1
 10
4.594291790545093
 20
-122.0314394029644
 30
0.0
  0
VERTEX
  5
DB
  8
LAYER_1
 10
4.786057468399854
 20
-121.92188940541
 30
0.0
  0
VERTEX
  5
DC
  8
LAYER_1
 10
4.977191150219664
 20
-121.8033775222325
 30
0.0
  0
VERTEX
  5
DD
  8
LAYER_1
 10
5.167865209084539
 20
-121.6758010848642
 30
0.0
  0
VERTEX
  5
DE
  8
LAYER_1
 10
5.358252018074494
 20
-121.5390574247374
 30
0.0
  0
VERTEX
  5
DF
  8
LAYER_1
 10
5.548523950269542
 20
-121.3930438732844
 30
0.0
  0
VERTEX
  5
E0
  8
LAYER_1
 10
5.92941267659498
 20
-121.0727964221295
 30
0.0
  0
VERTEX
  5
E1
  8
LAYER_1
 10
6.31191037270097
 20
-120.7142373828582
 30
0.0
  0
VERTEX
  5
E2
  8
LAYER_1
 10
6.697396023227632
 20
-120.3165454069292
 30
0.0
  0
VERTEX
  5
E3
  8
LAYER_1
 10
7.087248612815083
 20
-119.8788991458011
 30
0.0
  0
VERTEX
  5
E4
  8
LAYER_1
 10
7.482847126103442
 20
-119.4004772509327
 30
0.0
  0
SEQEND
  5
E5
  8
LAYER_1
  0
POLYLINE
  5
42
  8
LAYER_1
 66
     1
 10
0.0
 20
0.0
 30
0.0
 70
     1
  0
VERTEX
  5
E6
  8
LAYER_1
 10
-22.40855869696307
 20
10.58333333333334
 30
0.0
  0
VERTEX
  5
E7
  8
LAYER_1
 10
-22.38777821313561
 20
10.59019660949708
 30
0.0
  0
VERTEX
  5
E8
  8
LAYER_1
 10
-22.36062942579435
 20
10.61033426920574
 30
0.0
  0
VERTEX
  5
E9
  8
LAYER_1
 10
-22.28897431290887
 20
10.68771972656251
 30
0.0
  0
VERTEX
  5
EA
  8
LAYER_1
 10
-22.19708810298353
 20
10.81006368001303
 30
0.0
  0
VERTEX
  5
EB
  8
LAYER_1
 10
-22.08846554069524
 20
10.97194010416668
 30
0.0
  0
VERTEX
  5
EC
  8
LAYER_1
 10
-21.83499033773744
 20
11.39258626302084
 30
0.0
  0
VERTEX
  5
ED
  8
LAYER_1
 10
-21.55650666145071
 20
11.90625
 30
0.0
  0
VERTEX
  5
EE
  8
LAYER_1
 10
-21.38923448582039
 20
12.20079705132379
 30
0.0
  0
VERTEX
  5
EF
  8
LAYER_1
 10
-21.174986938596
 20
12.53125922309028
 30
0.0
  0
VERTEX
  5
F0
  8
LAYER_1
 10
-20.92261459855822
 20
12.88642272949219
 30
0.0
  0
VERTEX
  5
F1
  8
LAYER_1
 10
-20.64096804448775
 20
13.25507378472222
 30
0.0
  0
VERTEX
  5
F2
  8
LAYER_1
 10
-20.33889785516527
 20
13.62599860297309
 30
0.0
  0
VERTEX
  5
F3
  8
LAYER_1
 10
-20.02525460937148
 20
13.9879833984375
 30
0.0
  0
VERTEX
  5
F4
  8
LAYER_1
 10
-19.70888888588704
 20
14.32981438530816
 30
0.0
  0
VERTEX
  5
F5
  8
LAYER_1
 10
-19.39865126349267
 20
14.64027777777778
 30
0.0
  0
VERTEX
  5
F6
  8
LAYER_1
 10
-19.05747111877176
 20
14.97625313103719
 30
0.0
  0
VERTEX
  5
F7
  8
LAYER_1
 10
-18.70340591581002
 20
15.34285502261686
 30
0.0
  0
VERTEX
  5
F8
  8
LAYER_1
 10
-18.34028736571052
 20
15.73513276424039
 30
0.0
  0
VERTEX
  5
F9
  8
LAYER_1
 10
-17.97194717957634
 20
16.14813566763133
 30
0.0
  0
VERTEX
  5
FA
  8
LAYER_1
 10
-17.60221706851054
 20
16.57691304451328
 30
0.0
  0
VERTEX
  5
FB
  8
LAYER_1
 10
-17.23492874361622
 20
17.0165142066098
 30
0.0
  0
VERTEX
  5
FC
  8
LAYER_1
 10
-16.87391391599642
 20
17.46198846564448
 30
0.0
  0
VERTEX
  5
FD
  8
LAYER_1
 10
-16.52300429675424
 20
17.90838513334089
 30
0.0
  0
VERTEX
  5
FE
  8
LAYER_1
 10
-16.18603159699276
 20
18.35075352142261
 30
0.0
  0
VERTEX
  5
FF
  8
LAYER_1
 10
-15.86682752781503
 20
18.78414294161322
 30
0.0
  0
VERTEX
  5
100
  8
LAYER_1
 10
-15.56922380032414
 20
19.20360270563629
 30
0.0
  0
VERTEX
  5
101
  8
LAYER_1
 10
-15.29705212562316
 20
19.6041821252154
 30
0.0
  0
VERTEX
  5
102
  8
LAYER_1
 10
-15.05414421481517
 20
19.98093051207412
 30
0.0
  0
VERTEX
  5
103
  8
LAYER_1
 10
-14.84433177900325
 20
20.32889717793605
 30
0.0
  0
VERTEX
  5
104
  8
LAYER_1
 10
-14.67144652929046
 20
20.64313143452475
 30
0.0
  0
VERTEX
  5
105
  8
LAYER_1
 10
-14.53932017677988
 20
20.9186825935638
 30
0.0
  0
VERTEX
  5
106
  8
LAYER_1
 10
-14.42767530433071
 20
21.18522136512626
 30
0.0
  0
VERTEX
  5
107
  8
LAYER_1
 10
-14.33448113230584
 20
21.42705985937721
 30
0.0
  0
VERTEX
  5
108
  8
LAYER_1
 10
-14.25953383087568
 20
21.64357834874709
 30
0.0
  0
VERTEX
  5
109
  8
LAYER_1
 10
-14.20262957021062
 20
21.83415710566631
 30
0.0
  0
VERTEX
  5
10A
  8
LAYER_1
 10
-14.16356452048106
 20
21.99817640256531
 30
0.0
  0
VERTEX
  5
10B
  8
LAYER_1
 10
-14.1421348518574
 20
22.13501651187451
 30
0.0
  0
VERTEX
  5
10C
  8
LAYER_1
 10
-14.13813673451005
 20
22.24405770602436
 30
0.0
  0
VERTEX
  5
10D
  8
LAYER_1
 10
-14.15136633860939
 20
22.32468025744526
 30
0.0
  0
VERTEX
  5
10E
  8
LAYER_1
 10
-14.18161983432584
 20
22.37626443856766
 30
0.0
  0
VERTEX
  5
10F
  8
LAYER_1
 10
-14.20306684471872
 20
22.39097347540143
 30
0.0
  0
VERTEX
  5
110
  8
LAYER_1
 10
-14.22869339182979
 20
22.39819052182198
 30
0.0
  0
VERTEX
  5
111
  8
LAYER_1
 10
-14.29238318129164
 20
22.38983877963866
 30
0.0
  0
VERTEX
  5
112
  8
LAYER_1
 10
-14.37248537288179
 20
22.3505894844481
 30
0.0
  0
VERTEX
  5
113
  8
LAYER_1
 10
-14.46879613677065
 20
22.27982290868075
 30
0.0
  0
VERTEX
  5
114
  8
LAYER_1
 10
-14.58111164312861
 20
22.17691932476704
 30
0.0
  0
VERTEX
  5
115
  8
LAYER_1
 10
-14.70922806212607
 20
22.04125900513739
 30
0.0
  0
VERTEX
  5
116
  8
LAYER_1
 10
-14.85294156393343
 20
21.87222222222223
 30
0.0
  0
VERTEX
  5
117
  8
LAYER_1
 10
-15.35958001121335
 20
21.28266900125553
 30
0.0
  0
VERTEX
  5
118
  8
LAYER_1
 10
-16.20800807278486
 20
20.32941198459703
 30
0.0
  0
VERTEX
  5
119
  8
LAYER_1
 10
-17.27996176940453
 20
19.14414889160912
 30
0.0
  0
VERTEX
  5
11A
  8
LAYER_1
 10
-18.45717712182889
 20
17.85857744165421
 30
0.0
  0
VERTEX
  5
11B
  8
LAYER_1
 10
-21.34305555555555
 20
14.72687710553063
 30
0.0
  0
VERTEX
  5
11C
  8
LAYER_1
 10
-21.9456297985804
 20
13.62524410832089
 30
0.0
  0
VERTEX
  5
11D
  8
LAYER_1
 10
-22.0463374849173
 20
13.42448804304923
 30
0.0
  0
VERTEX
  5
11E
  8
LAYER_1
 10
-22.14064930277919
 20
13.20429326827185
 30
0.0
  0
VERTEX
  5
11F
  8
LAYER_1
 10
-22.22788509169106
 20
12.9691291257924
 30
0.0
  0
VERTEX
  5
120
  8
LAYER_1
 10
-22.30736469117791
 20
12.72346495741454
 30
0.0
  0
VERTEX
  5
121
  8
LAYER_1
 10
-22.37840794076471
 20
12.47177010494191
 30
0.0
  0
VERTEX
  5
122
  8
LAYER_1
 10
-22.44033467997646
 20
12.21851391017816
 30
0.0
  0
VERTEX
  5
123
  8
LAYER_1
 10
-22.49246474833813
 20
11.96816571492697
 30
0.0
  0
VERTEX
  5
124
  8
LAYER_1
 10
-22.53411798537473
 20
11.72519486099196
 30
0.0
  0
VERTEX
  5
125
  8
LAYER_1
 10
-22.56461423061123
 20
11.49407069017681
 30
0.0
  0
VERTEX
  5
126
  8
LAYER_1
 10
-22.58327332357262
 20
11.27926254428515
 30
0.0
  0
VERTEX
  5
127
  8
LAYER_1
 10
-22.5894151037839
 20
11.08523976512065
 30
0.0
  0
VERTEX
  5
128
  8
LAYER_1
 10
-22.58235941077005
 20
10.91647169448697
 30
0.0
  0
VERTEX
  5
129
  8
LAYER_1
 10
-22.56142608405605
 20
10.77742767418773
 30
0.0
  0
VERTEX
  5
12A
  8
LAYER_1
 10
-22.52593496316689
 20
10.67257704602662
 30
0.0
  0
VERTEX
  5
12B
  8
LAYER_1
 10
-22.50251767975819
 20
10.63437092331149
 30
0.0
  0
VERTEX
  5
12C
  8
LAYER_1
 10
-22.47520588762757
 20
10.60638915180727
 30
0.0
  0
VERTEX
  5
12D
  8
LAYER_1
 10
-22.44391456671566
 20
10.5891903992394
 30
0.0
  0
SEQEND
  5
12E
  8
LAYER_1
  0
POLYLINE
  5
43
  8
LAYER_1
 66
     1
 10
0.0
 20
0.0
 30
0.0
 70
     1
  0
VERTEX
  5
12F
  8
LAYER_1
 10
6.208882318773391
 20
13.08204306852434
 30
0.0
  0
VERTEX
  5
130
  8
LAYER_1
 10
6.316241159910438
 20
13.08369461198309
 30
0.0
  0
VERTEX
  5
131
  8
LAYER_1
 10
6.419177106042678
 20
13.09815164091483
 30
0.0
  0
VERTEX
  5
132
  8
LAYER_1
 10
6.518625280677881
 20
13.12664556469665
 30
0.0
  0
VERTEX
  5
133
  8
LAYER_1
 10
6.615520807323815
 20
13.17040779270564
 30
0.0
  0
VERTEX
  5
134
  8
LAYER_1
 10
6.710798809488249
 20
13.23066973431889
 30
0.0
  0
VERTEX
  5
135
  8
LAYER_1
 10
6.805394410678952
 20
13.3086627989135
 30
0.0
  0
VERTEX
  5
136
  8
LAYER_1
 10
6.900242734403692
 20
13.40561839586655
 30
0.0
  0
VERTEX
  5
137
  8
LAYER_1
 10
6.996278904170236
 20
13.52276793455514
 30
0.0
  0
VERTEX
  5
138
  8
LAYER_1
 10
7.094438043486354
 20
13.66134282435636
 30
0.0
  0
VERTEX
  5
139
  8
LAYER_1
 10
7.195655275859815
 20
13.8225744746473
 30
0.0
  0
VERTEX
  5
13A
  8
LAYER_1
 10
7.300865724798387
 20
14.00769429480505
 30
0.0
  0
VERTEX
  5
13B
  8
LAYER_1
 10
7.411004513809837
 20
14.2179336942067
 30
0.0
  0
VERTEX
  5
13C
  8
LAYER_1
 10
7.649807606082451
 20
14.71869686825006
 30
0.0
  0
VERTEX
  5
13D
  8
LAYER_1
 10
7.919545540739804
 20
15.33471527179412
 30
0.0
  0
VERTEX
  5
13E
  8
LAYER_1
 10
8.115451571992992
 20
15.81551823643399
 30
0.0
  0
VERTEX
  5
13F
  8
LAYER_1
 10
8.30031469101888
 20
16.30738596378255
 30
0.0
  0
VERTEX
  5
140
  8
LAYER_1
 10
8.469938744567646
 20
16.79645552840585
 30
0.0
  0
VERTEX
  5
141
  8
LAYER_1
 10
8.620127579389466
 20
17.26886400486992
 30
0.0
  0
VERTEX
  5
142
  8
LAYER_1
 10
8.746685042234521
 20
17.7107484677408
 30
0.0
  0
VERTEX
  5
143
  8
LAYER_1
 10
8.845414979852988
 20
18.10824599158454
 30
0.0
  0
VERTEX
  5
144
  8
LAYER_1
 10
8.912121238995043
 20
18.44749365096717
 30
0.0
  0
VERTEX
  5
145
  8
LAYER_1
 10
8.942607666410865
 20
18.71462852045474
 30
0.0
  0
VERTEX
  5
146
  8
LAYER_1
 10
8.949990917380388
 20
18.90257059438276
 30
0.0
  0
VERTEX
  5
147
  8
LAYER_1
 10
8.950417880176982
 20
19.07007555076157
 30
0.0
  0
VERTEX
  5
148
  8
LAYER_1
 10
8.940258759751652
 20
19.21995261396841
 30
0.0
  0
VERTEX
  5
149
  8
LAYER_1
 10
8.915883761055404
 20
19.35501100838055
 30
0.0
  0
VERTEX
  5
14A
  8
LAYER_1
 10
8.873663089039248
 20
19.47805995837524
 30
0.0
  0
VERTEX
  5
14B
  8
LAYER_1
 10
8.809966948654186
 20
19.59190868832975
 30
0.0
  0
VERTEX
  5
14C
  8
LAYER_1
 10
8.721165544851225
 20
19.69936642262131
 30
0.0
  0
VERTEX
  5
14D
  8
LAYER_1
 10
8.603629082581378
 20
19.80324238562719
 30
0.0
  0
VERTEX
  5
14E
  8
LAYER_1
 10
8.453727766795646
 20
19.90634580172466
 30
0.0
  0
VERTEX
  5
14F
  8
LAYER_1
 10
8.267831802445038
 20
20.01148589529096
 30
0.0
  0
VERTEX
  5
150
  8
LAYER_1
 10
8.04231139448056
 20
20.12147189070335
 30
0.0
  0
VERTEX
  5
151
  8
LAYER_1
 10
7.773536747853218
 20
20.23911301233909
 30
0.0
  0
VERTEX
  5
152
  8
LAYER_1
 10
7.091705558413973
 20
20.50859753178963
 30
0.0
  0
VERTEX
  5
153
  8
LAYER_1
 10
6.193299873735356
 20
20.84241324866065
 30
0.0
  0
VERTEX
  5
154
  8
LAYER_1
 10
3.390766414137403
 20
21.87222222222223
 30
0.0
  0
VERTEX
  5
155
  8
LAYER_1
 10
3.139745867818917
 20
21.87222222222223
 30
0.0
  0
VERTEX
  5
156
  8
LAYER_1
 10
3.104710928296025
 20
21.8593654882917
 30
0.0
  0
VERTEX
  5
157
  8
LAYER_1
 10
3.059878093648369
 20
21.82174169477619
 30
0.0
  0
VERTEX
  5
158
  8
LAYER_1
 10
2.943493787899658
 20
21.67787137864669
 30
0.0
  0
VERTEX
  5
159
  8
LAYER_1
 10
2.795943048414578
 20
21.45196817314672
 30
0.0
  0
VERTEX
  5
15A
  8
LAYER_1
 10
2.622575973034927
 20
21.15538897758927
 30
0.0
  0
VERTEX
  5
15B
  8
LAYER_1
 10
2.428742659602498
 20
20.7994906912873
 30
0.0
  0
VERTEX
  5
15C
  8
LAYER_1
 10
2.219793205959087
 20
20.3956302135538
 30
0.0
  0
VERTEX
  5
15D
  8
LAYER_1
 10
1.777946269406501
 20
19.48945028104411
 30
0.0
  0
VERTEX
  5
15E
  8
LAYER_1
 10
1.339835946111531
 20
18.52770437456403
 30
0.0
  0
VERTEX
  5
15F
  8
LAYER_1
 10
1.13555725904014
 20
18.05438642936753
 30
0.0
  0
VERTEX
  5
160
  8
LAYER_1
 10
0.9482630188085388
 20
17.60124768861737
 30
0.0
  0
VERTEX
  5
161
  8
LAYER_1
 10
0.7833033232585231
 20
17.17964505162652
 30
0.0
  0
VERTEX
  5
162
  8
LAYER_1
 10
0.6460282702318879
 20
16.80093541770796
 30
0.0
  0
VERTEX
  5
163
  8
LAYER_1
 10
0.5417879575704285
 20
16.47647568617467
 30
0.0
  0
VERTEX
  5
164
  8
LAYER_1
 10
0.4759324831159404
 20
16.21762275633964
 30
0.0
  0
VERTEX
  5
165
  8
LAYER_1
 10
0.44950390297483
 20
16.07110908551842
 30
0.0
  0
VERTEX
  5
166
  8
LAYER_1
 10
0.4341494672511537
 20
15.9378567919757
 30
0.0
  0
VERTEX
  5
167
  8
LAYER_1
 10
0.4325476666557961
 20
15.81564024451192
 30
0.0
  0
VERTEX
  5
168
  8
LAYER_1
 10
0.447376991899642
 20
15.70223381192751
 30
0.0
  0
VERTEX
  5
169
  8
LAYER_1
 10
0.4813159336935761
 20
15.59541186302291
 30
0.0
  0
VERTEX
  5
16A
  8
LAYER_1
 10
0.5370429827484832
 20
15.49294876659855
 30
0.0
  0
VERTEX
  5
16B
  8
LAYER_1
 10
0.6172366297752478
 20
15.39261889145487
 30
0.0
  0
VERTEX
  5
16C
  8
LAYER_1
 10
0.7245753654847551
 20
15.2921966063923
 30
0.0
  0
VERTEX
  5
16D
  8
LAYER_1
 10
0.8617376805878894
 20
15.18945628021127
 30
0.0
  0
VERTEX
  5
16E
  8
LAYER_1
 10
1.031402065795536
 20
15.08217228171223
 30
0.0
  0
VERTEX
  5
16F
  8
LAYER_1
 10
1.236247011818579
 20
14.96811897969561
 30
0.0
  0
VERTEX
  5
170
  8
LAYER_1
 10
1.478951009367903
 20
14.84507074296183
 30
0.0
  0
VERTEX
  5
171
  8
LAYER_1
 10
2.088650121888935
 20
14.56308694054459
 30
0.0
  0
VERTEX
  5
172
  8
LAYER_1
 10
2.881927329045709
 20
14.21841582486397
 30
0.0
  0
VERTEX
  5
173
  8
LAYER_1
 10
3.416546328600717
 20
13.99542397891759
 30
0.0
  0
VERTEX
  5
174
  8
LAYER_1
 10
3.944528291280394
 20
13.7862375398912
 30
0.0
  0
VERTEX
  5
175
  8
LAYER_1
 10
4.452227503259683
 20
13.59551741166822
 30
0.0
  0
VERTEX
  5
176
  8
LAYER_1
 10
4.92599825071353
 20
13.42792449813207
 30
0.0
  0
VERTEX
  5
177
  8
LAYER_1
 10
5.35219481981688
 20
13.28811970316618
 30
0.0
  0
VERTEX
  5
178
  8
LAYER_1
 10
5.717171496744676
 20
13.18076393065398
 30
0.0
  0
VERTEX
  5
179
  8
LAYER_1
 10
6.007282567671865
 20
13.11051808447889
 30
0.0
  0
VERTEX
  5
17A
  8
LAYER_1
 10
6.119999215314902
 20
13.09076791623134
 30
0.0
  0
SEQEND
  5
17B
  8
LAYER_1
  0
POLYLINE
  5
44
  8
LAYER_1
 66
     1
 10
0.0
 20
0.0
 30
0.0
 70
     1
  0
VERTEX
  5
17C
  8
LAYER_1
 10
-22.22499999999999
 20
20.46111111111111
 30
0.0
  0
VERTEX
  5
17D
  8
LAYER_1
 10
-22.15413438585069
 20
20.46831136067708
 30
0.0
  0
VERTEX
  5
17E
  8
LAYER_1
 10
-22.08802300347222
 20
20.48894748263889
 30
0.0
  0
VERTEX
  5
17F
  8
LAYER_1
 10
-22.02811279296875
 20
20.52157253689236
 30
0.0
  0
VERTEX
  5
180
  8
LAYER_1
 10
-21.97585069444444
 20
20.56473958333334
 30
0.0
  0
VERTEX
  5
181
  8
LAYER_1
 10
-21.93268364800347
 20
20.61700168185765
 30
0.0
  0
VERTEX
  5
182
  8
LAYER_1
 10
-21.90005859375
 20
20.67691189236113
 30
0.0
  0
VERTEX
  5
183
  8
LAYER_1
 10
-21.87942247178819
 20
20.7430232747396
 30
0.0
  0
VERTEX
  5
184
  8
LAYER_1
 10
-21.87222222222222
 20
20.8138888888889
 30
0.0
  0
VERTEX
  5
185
  8
LAYER_1
 10
-21.87942247178819
 20
20.8847545030382
 30
0.0
  0
VERTEX
  5
186
  8
LAYER_1
 10
-21.90005859375
 20
20.95086588541666
 30
0.0
  0
VERTEX
  5
187
  8
LAYER_1
 10
-21.93268364800347
 20
21.01077609592014
 30
0.0
  0
VERTEX
  5
188
  8
LAYER_1
 10
-21.97585069444444
 20
21.06303819444444
 30
0.0
  0
VERTEX
  5
189
  8
LAYER_1
 10
-22.02811279296875
 20
21.10620524088541
 30
0.0
  0
VERTEX
  5
18A
  8
LAYER_1
 10
-22.08802300347222
 20
21.13883029513888
 30
0.0
  0
VERTEX
  5
18B
  8
LAYER_1
 10
-22.15413438585069
 20
21.15946641710068
 30
0.0
  0
VERTEX
  5
18C
  8
LAYER_1
 10
-22.22499999999999
 20
21.16666666666666
 30
0.0
  0
VERTEX
  5
18D
  8
LAYER_1
 10
-22.2958656141493
 20
21.15946641710068
 30
0.0
  0
VERTEX
  5
18E
  8
LAYER_1
 10
-22.36197699652778
 20
21.13883029513888
 30
0.0
  0
VERTEX
  5
18F
  8
LAYER_1
 10
-22.42188720703125
 20
21.10620524088541
 30
0.0
  0
VERTEX
  5
190
  8
LAYER_1
 10
-22.47414930555555
 20
21.06303819444444
 30
0.0
  0
VERTEX
  5
191
  8
LAYER_1
 10
-22.51731635199652
 20
21.01077609592014
 30
0.0
  0
VERTEX
  5
192
  8
LAYER_1
 10
-22.54994140624999
 20
20.95086588541666
 30
0.0
  0
VERTEX
  5
193
  8
LAYER_1
 10
-22.5705775282118
 20
20.8847545030382
 30
0.0
  0
VERTEX
  5
194
  8
LAYER_1
 10
-22.57777777777777
 20
20.8138888888889
 30
0.0
  0
VERTEX
  5
195
  8
LAYER_1
 10
-22.5705775282118
 20
20.7430232747396
 30
0.0
  0
VERTEX
  5
196
  8
LAYER_1
 10
-22.54994140624999
 20
20.67691189236113
 30
0.0
  0
VERTEX
  5
197
  8
LAYER_1
 10
-22.51731635199652
 20
20.61700168185765
 30
0.0
  0
VERTEX
  5
198
  8
LAYER_1
 10
-22.47414930555555
 20
20.56473958333334
 30
0.0
  0
VERTEX
  5
199
  8
LAYER_1
 10
-22.42188720703125
 20
20.52157253689236
 30
0.0
  0
VERTEX
  5
19A
  8
LAYER_1
 10
-22.36197699652778
 20
20.48894748263889
 30
0.0
  0
VERTEX
  5
19B
  8
LAYER_1
 10
-22.2958656141493
 20
20.46831136067708
 30
0.0
  0
SEQEND
  5
19C
  8
LAYER_1
  0
POLYLINE
  5
45
  8
LAYER_1
 66
     1
 10
0.0
 20
0.0
 30
0.0
 70
     1
  0
VERTEX
  5
19D
  8
LAYER_1
 10
-19.6560303718782
 20
24.02070530536767
 30
0.0
  0
VERTEX
  5
19E
  8
LAYER_1
 10
-19.57657060654707
 20
24.02435629209035
 30
0.0
  0
VERTEX
  5
19F
  8
LAYER_1
 10
-19.45598024410609
 20
24.04717515105226
 30
0.0
  0
VERTEX
  5
1A0
  8
LAYER_1
 10
-19.11525399960753
 20
24.14276624767214
 30
0.0
  0
VERTEX
  5
1A1
  8
LAYER_1
 10
-18.6815441818085
 20
24.29237811918401
 30
0.0
  0
VERTEX
  5
1A2
  8
LAYER_1
 10
-18.20254333413493
 20
24.48091028954457
 30
0.0
  0
VERTEX
  5
1A3
  8
LAYER_1
 10
-17.97687465552765
 20
24.58742506661538
 30
0.0
  0
VERTEX
  5
1A4
  8
LAYER_1
 10
-17.76305855251666
 20
24.71356788385637
 30
0.0
  0
VERTEX
  5
1A5
  8
LAYER_1
 10
-17.56107396439401
 20
24.85954493670289
 30
0.0
  0
VERTEX
  5
1A6
  8
LAYER_1
 10
-17.3708998304517
 20
25.02556242059027
 30
0.0
  0
VERTEX
  5
1A7
  8
LAYER_1
 10
-17.19251508998175
 20
25.21182653095387
 30
0.0
  0
VERTEX
  5
1A8
  8
LAYER_1
 10
-17.02589868227618
 20
25.41854346322903
 30
0.0
  0
VERTEX
  5
1A9
  8
LAYER_1
 10
-16.87102954662701
 20
25.64591941285109
 30
0.0
  0
VERTEX
  5
1AA
  8
LAYER_1
 10
-16.72788662232625
 20
25.8941605752554
 30
0.0
  0
VERTEX
  5
1AB
  8
LAYER_1
 10
-16.59644884866592
 20
26.1634731458773
 30
0.0
  0
VERTEX
  5
1AC
  8
LAYER_1
 10
-16.47669516493804
 20
26.45406332015213
 30
0.0
  0
VERTEX
  5
1AD
  8
LAYER_1
 10
-16.36860451043464
 20
26.76613729351524
 30
0.0
  0
VERTEX
  5
1AE
  8
LAYER_1
 10
-16.27215582444772
 20
27.09990126140197
 30
0.0
  0
VERTEX
  5
1AF
  8
LAYER_1
 10
-16.18732804626931
 20
27.45556141924767
 30
0.0
  0
VERTEX
  5
1B0
  8
LAYER_1
 10
-16.11410011519143
 20
27.83332396248768
 30
0.0
  0
VERTEX
  5
1B1
  8
LAYER_1
 10
-16.05245097050608
 20
28.23339508655734
 30
0.0
  0
VERTEX
  5
1B2
  8
LAYER_1
 10
-16.0023595515053
 20
28.65598098689201
 30
0.0
  0
VERTEX
  5
1B3
  8
LAYER_1
 10
-15.96380479748109
 20
29.10128785892702
 30
0.0
  0
VERTEX
  5
1B4
  8
LAYER_1
 10
-15.93676564772548
 20
29.56952189809772
 30
0.0
  0
VERTEX
  5
1B5
  8
LAYER_1
 10
-15.92122104153049
 20
30.06088929983945
 30
0.0
  0
VERTEX
  5
1B6
  8
LAYER_1
 10
-15.91714991818812
 20
30.57559625958757
 30
0.0
  0
VERTEX
  5
1B7
  8
LAYER_1
 10
-15.92453121699041
 20
31.1138489727774
 30
0.0
  0
VERTEX
  5
1B8
  8
LAYER_1
 10
-15.94334387722936
 20
31.67585363484429
 30
0.0
  0
VERTEX
  5
1B9
  8
LAYER_1
 10
-15.97356683819701
 20
32.2618164412236
 30
0.0
  0
VERTEX
  5
1BA
  8
LAYER_1
 10
-16.01517903918536
 20
32.87194358735066
 30
0.0
  0
VERTEX
  5
1BB
  8
LAYER_1
 10
-16.06815941948642
 20
33.50644126866082
 30
0.0
  0
VERTEX
  5
1BC
  8
LAYER_1
 10
-16.13248691839224
 20
34.16551568058942
 30
0.0
  0
VERTEX
  5
1BD
  8
LAYER_1
 10
-16.20814047519481
 20
34.84937301857181
 30
0.0
  0
VERTEX
  5
1BE
  8
LAYER_1
 10
-16.29509902918615
 20
35.55821947804333
 30
0.0
  0
VERTEX
  5
1BF
  8
LAYER_1
 10
-16.39334151965829
 20
36.29226125443932
 30
0.0
  0
VERTEX
  5
1C0
  8
LAYER_1
 10
-16.50284688590325
 20
37.05170454319514
 30
0.0
  0
VERTEX
  5
1C1
  8
LAYER_1
 10
-16.75556200287967
 20
38.6476204395276
 30
0.0
  0
VERTEX
  5
1C2
  8
LAYER_1
 10
-17.63612400575933
 20
43.92083333333332
 30
0.0
  0
VERTEX
  5
1C3
  8
LAYER_1
 10
-17.63750644732411
 20
46.96444311427456
 30
0.0
  0
VERTEX
  5
1C4
  8
LAYER_1
 10
-17.63087589360185
 20
47.689113981947
 30
0.0
  0
VERTEX
  5
1C5
  8
LAYER_1
 10
-17.61021921675708
 20
48.32733032191097
 30
0.0
  0
VERTEX
  5
1C6
  8
LAYER_1
 10
-17.57543560385346
 20
48.8798557668066
 30
0.0
  0
VERTEX
  5
1C7
  8
LAYER_1
 10
-17.52642424195465
 20
49.34745394927403
 30
0.0
  0
VERTEX
  5
1C8
  8
LAYER_1
 10
-17.46308431812434
 20
49.73088850195342
 30
0.0
  0
VERTEX
  5
1C9
  8
LAYER_1
 10
-17.42600964144227
 20
49.89128305232263
 30
0.0
  0
VERTEX
  5
1CA
  8
LAYER_1
 10
-17.38531501942619
 20
50.03092305748488
 30
0.0
  0
VERTEX
  5
1CB
  8
LAYER_1
 10
-17.34098785045907
 20
50.1499039715202
 30
0.0
  0
VERTEX
  5
1CC
  8
LAYER_1
 10
-17.29301553292387
 20
50.24832124850858
 30
0.0
  0
VERTEX
  5
1CD
  8
LAYER_1
 10
-17.24138546520354
 20
50.32627034253005
 30
0.0
  0
VERTEX
  5
1CE
  8
LAYER_1
 10
-17.18608504568104
 20
50.38384670766465
 30
0.0
  0
VERTEX
  5
1CF
  8
LAYER_1
 10
-17.09937043242098
 20
50.44935778459524
 30
0.0
  0
VERTEX
  5
1D0
  8
LAYER_1
 10
-17.01269576746228
 20
50.50182193796221
 30
0.0
  0
VERTEX
  5
1D1
  8
LAYER_1
 10
-16.92599749376443
 20
50.54113824160659
 30
0.0
  0
VERTEX
  5
1D2
  8
LAYER_1
 10
-16.83921205428685
 20
50.56720576936939
 30
0.0
  0
VERTEX
  5
1D3
  8
LAYER_1
 10
-16.75227589198904
 20
50.57992359509162
 30
0.0
  0
VERTEX
  5
1D4
  8
LAYER_1
 10
-16.66512544983043
 20
50.57919079261431
 30
0.0
  0
VERTEX
  5
1D5
  8
LAYER_1
 10
-16.57769717077048
 20
50.56490643577847
 30
0.0
  0
VERTEX
  5
1D6
  8
LAYER_1
 10
-16.48992749776868
 20
50.5369695984251
 30
0.0
  0
VERTEX
  5
1D7
  8
LAYER_1
 10
-16.40175287378445
 20
50.49527935439525
 30
0.0
  0
VERTEX
  5
1D8
  8
LAYER_1
 10
-16.31310974177728
 20
50.43973477752991
 30
0.0
  0
VERTEX
  5
1D9
  8
LAYER_1
 10
-16.22393454470661
 20
50.37023494167011
 30
0.0
  0
VERTEX
  5
1DA
  8
LAYER_1
 10
-16.1341637255319
 20
50.28667892065687
 30
0.0
  0
VERTEX
  5
1DB
  8
LAYER_1
 10
-16.04373372721262
 20
50.18896578833119
 30
0.0
  0
VERTEX
  5
1DC
  8
LAYER_1
 10
-15.95258099270823
 20
50.0769946185341
 30
0.0
  0
VERTEX
  5
1DD
  8
LAYER_1
 10
-15.86064196497818
 20
49.95066448510661
 30
0.0
  0
VERTEX
  5
1DE
  8
LAYER_1
 10
-15.76785308698193
 20
49.80987446188973
 30
0.0
  0
VERTEX
  5
1DF
  8
LAYER_1
 10
-15.57947155202869
 20
49.48451104145191
 30
0.0
  0
VERTEX
  5
1E0
  8
LAYER_1
 10
-15.38692793152417
 20
49.10009694794876
 30
0.0
  0
VERTEX
  5
1E1
  8
LAYER_1
 10
-15.18971376914405
 20
48.6558247721084
 30
0.0
  0
VERTEX
  5
1E2
  8
LAYER_1
 10
-14.98732060856401
 20
48.15088710465899
 30
0.0
  0
VERTEX
  5
1E3
  8
LAYER_1
 10
-14.77923999345973
 20
47.58447653632864
 30
0.0
  0
VERTEX
  5
1E4
  8
LAYER_1
 10
-14.56496346750686
 20
46.9557856578455
 30
0.0
  0
VERTEX
  5
1E5
  8
LAYER_1
 10
-14.3439825743811
 20
46.26400705993768
 30
0.0
  0
VERTEX
  5
1E6
  8
LAYER_1
 10
-14.11578885775812
 20
45.50833333333333
 30
0.0
  0
VERTEX
  5
1E7
  8
LAYER_1
 10
-13.94688257998153
 20
44.94935567656082
 30
0.0
  0
VERTEX
  5
1E8
  8
LAYER_1
 10
-13.77569994324919
 20
44.41238891441049
 30
0.0
  0
VERTEX
  5
1E9
  8
LAYER_1
 10
-13.60204176948566
 20
43.89722058413055
 30
0.0
  0
VERTEX
  5
1EA
  8
LAYER_1
 10
-13.42570888061549
 20
43.40363822296919
 30
0.0
  0
VERTEX
  5
1EB
  8
LAYER_1
 10
-13.24650209856323
 20
42.93142936817463
 30
0.0
  0
VERTEX
  5
1EC
  8
LAYER_1
 10
-13.06422224525344
 20
42.48038155699506
 30
0.0
  0
VERTEX
  5
1ED
  8
LAYER_1
 10
-12.87867014261068
 20
42.0502823266787
 30
0.0
  0
VERTEX
  5
1EE
  8
LAYER_1
 10
-12.6896466125595
 20
41.64091921447375
 30
0.0
  0
VERTEX
  5
1EF
  8
LAYER_1
 10
-12.49695247702446
 20
41.25207975762842
 30
0.0
  0
VERTEX
  5
1F0
  8
LAYER_1
 10
-12.30038855793011
 20
40.88355149339091
 30
0.0
  0
VERTEX
  5
1F1
  8
LAYER_1
 10
-12.09975567720101
 20
40.53512195900943
 30
0.0
  0
VERTEX
  5
1F2
  8
LAYER_1
 10
-11.89485465676171
 20
40.20657869173219
 30
0.0
  0
VERTEX
  5
1F3
  8
LAYER_1
 10
-11.68548631853677
 20
39.89770922880739
 30
0.0
  0
VERTEX
  5
1F4
  8
LAYER_1
 10
-11.47145148445075
 20
39.60830110748324
 30
0.0
  0
VERTEX
  5
1F5
  8
LAYER_1
 10
-11.25255097642819
 20
39.33814186500794
 30
0.0
  0
VERTEX
  5
1F6
  8
LAYER_1
 10
-11.02858561639366
 20
39.08701903862969
 30
0.0
  0
VERTEX
  5
1F7
  8
LAYER_1
 10
-10.7993562262717
 20
38.85472016559671
 30
0.0
  0
VERTEX
  5
1F8
  8
LAYER_1
 10
-10.56466362798689
 20
38.64103278315721
 30
0.0
  0
VERTEX
  5
1F9
  8
LAYER_1
 10
-10.32430864346376
 20
38.44574442855938
 30
0.0
  0
VERTEX
  5
1FA
  8
LAYER_1
 10
-10.07809209462688
 20
38.26864263905143
 30
0.0
  0
VERTEX
  5
1FB
  8
LAYER_1
 10
-9.825814803400803
 20
38.10951495188157
 30
0.0
  0
VERTEX
  5
1FC
  8
LAYER_1
 10
-9.56727759171008
 20
37.968148904298
 30
0.0
  0
VERTEX
  5
1FD
  8
LAYER_1
 10
-9.302281281479273
 20
37.84433203354894
 30
0.0
  0
VERTEX
  5
1FE
  8
LAYER_1
 10
-9.030626694632932
 20
37.73785187688257
 30
0.0
  0
VERTEX
  5
1FF
  8
LAYER_1
 10
-8.752114653095614
 20
37.64849597154713
 30
0.0
  0
VERTEX
  5
200
  8
LAYER_1
 10
-8.466545978791874
 20
37.57605185479079
 30
0.0
  0
VERTEX
  5
201
  8
LAYER_1
 10
-8.17372149364627
 20
37.52030706386178
 30
0.0
  0
VERTEX
  5
202
  8
LAYER_1
 10
-7.873442019583353
 20
37.48104913600831
 30
0.0
  0
VERTEX
  5
203
  8
LAYER_1
 10
-7.565508378527682
 20
37.45806560847856
 30
0.0
  0
VERTEX
  5
204
  8
LAYER_1
 10
-7.24972139240381
 20
37.45114401852076
 30
0.0
  0
VERTEX
  5
205
  8
LAYER_1
 10
-6.925881883136293
 20
37.46007190338311
 30
0.0
  0
VERTEX
  5
206
  8
LAYER_1
 10
-6.593790672649689
 20
37.48463680031381
 30
0.0
  0
VERTEX
  5
207
  8
LAYER_1
 10
-6.081540525936971
 20
37.54334504605346
 30
0.0
  0
VERTEX
  5
208
  8
LAYER_1
 10
-5.855805317834955
 20
37.57794608471699
 30
0.0
  0
VERTEX
  5
209
  8
LAYER_1
 10
-5.647837386284971
 20
37.61721913571182
 30
0.0
  0
VERTEX
  5
20A
  8
LAYER_1
 10
-5.455767256073868
 20
37.6620447503896
 30
0.0
  0
VERTEX
  5
20B
  8
LAYER_1
 10
-5.277725451988498
 20
37.71330348010193
 30
0.0
  0
VERTEX
  5
20C
  8
LAYER_1
 10
-5.111842498815711
 20
37.77187587620045
 30
0.0
  0
VERTEX
  5
20D
  8
LAYER_1
 10
-4.956248921342359
 20
37.8386424900368
 30
0.0
  0
VERTEX
  5
20E
  8
LAYER_1
 10
-4.809075244355294
 20
37.91448387296258
 30
0.0
  0
VERTEX
  5
20F
  8
LAYER_1
 10
-4.668451992641366
 20
38.00028057632944
 30
0.0
  0
VERTEX
  5
210
  8
LAYER_1
 10
-4.532509690987425
 20
38.09691315148899
 30
0.0
  0
VERTEX
  5
211
  8
LAYER_1
 10
-4.399378864180325
 20
38.20526214979287
 30
0.0
  0
VERTEX
  5
212
  8
LAYER_1
 10
-4.267190037006916
 20
38.32620812259269
 30
0.0
  0
VERTEX
  5
213
  8
LAYER_1
 10
-4.134073734254048
 20
38.4606316212401
 30
0.0
  0
VERTEX
  5
214
  8
LAYER_1
 10
-3.85758080115734
 20
38.77343340148417
 30
0.0
  0
VERTEX
  5
215
  8
LAYER_1
 10
-3.600198133830057
 20
39.09835558356272
 30
0.0
  0
VERTEX
  5
216
  8
LAYER_1
 10
-3.367089162237777
 20
39.43011840077409
 30
0.0
  0
VERTEX
  5
217
  8
LAYER_1
 10
-3.157195788903658
 20
39.77400640176663
 30
0.0
  0
VERTEX
  5
218
  8
LAYER_1
 10
-2.969459916350857
 20
40.13530413518869
 30
0.0
  0
VERTEX
  5
219
  8
LAYER_1
 10
-2.802823447102534
 20
40.51929614968867
 30
0.0
  0
VERTEX
  5
21A
  8
LAYER_1
 10
-2.656228283681846
 20
40.9312669939149
 30
0.0
  0
VERTEX
  5
21B
  8
LAYER_1
 10
-2.52861632861195
 20
41.37650121651576
 30
0.0
  0
VERTEX
  5
21C
  8
LAYER_1
 10
-2.418929484416005
 20
41.8602833661396
 30
0.0
  0
VERTEX
  5
21D
  8
LAYER_1
 10
-2.326109653617167
 20
42.3878979914348
 30
0.0
  0
VERTEX
  5
21E
  8
LAYER_1
 10
-2.249098738738597
 20
42.96462964104971
 30
0.0
  0
VERTEX
  5
21F
  8
LAYER_1
 10
-2.186838642303449
 20
43.5957628636327
 30
0.0
  0
VERTEX
  5
220
  8
LAYER_1
 10
-2.138271266834884
 20
44.28658220783213
 30
0.0
  0
VERTEX
  5
221
  8
LAYER_1
 10
-2.102338514856058
 20
45.04237222229635
 30
0.0
  0
VERTEX
  5
222
  8
LAYER_1
 10
-2.07798228889013
 20
45.86841745567374
 30
0.0
  0
VERTEX
  5
223
  8
LAYER_1
 10
-2.064144491460258
 20
46.77000245661267
 30
0.0
  0
VERTEX
  5
224
  8
LAYER_1
 10
-2.059767025089599
 20
47.75241177376148
 30
0.0
  0
VERTEX
  5
225
  8
LAYER_1
 10
-2.059767025089613
 20
52.72332900322598
 30
0.0
  0
VERTEX
  5
226
  8
LAYER_1
 10
-1.878728455114128
 20
53.01625556272097
 30
0.0
  0
VERTEX
  5
227
  8
LAYER_1
 10
-1.850495169592163
 20
53.03683510002451
 30
0.0
  0
VERTEX
  5
228
  8
LAYER_1
 10
-1.803841470856031
 20
53.03866757211227
 30
0.0
  0
VERTEX
  5
229
  8
LAYER_1
 10
-1.739827788064212
 20
53.02251792359368
 30
0.0
  0
VERTEX
  5
22A
  8
LAYER_1
 10
-1.659514550375185
 20
52.98915109907818
 30
0.0
  0
VERTEX
  5
22B
  8
LAYER_1
 10
-1.454231126939434
 20
52.87382570049424
 30
0.0
  0
VERTEX
  5
22C
  8
LAYER_1
 10
-1.196474633816619
 20
52.69881093323598
 30
0.0
  0
VERTEX
  5
22D
  8
LAYER_1
 10
-0.8947285042745833
 20
52.47022635417893
 30
0.0
  0
VERTEX
  5
22E
  8
LAYER_1
 10
-0.5574761715811689
 20
52.19419152019866
 30
0.0
  0
VERTEX
  5
22F
  8
LAYER_1
 10
-0.1932010690042186
 20
51.87682598817068
 30
0.0
  0
VERTEX
  5
230
  8
LAYER_1
 10
0.1896133701884253
 20
51.52424931497055
 30
0.0
  0
VERTEX
  5
231
  8
LAYER_1
 10
0.5820152703755995
 20
51.15869842661567
 30
0.0
  0
VERTEX
  5
232
  8
LAYER_1
 10
0.9493591435256462
 20
50.8291490884603
 30
0.0
  0
VERTEX
  5
233
  8
LAYER_1
 10
1.295311915972248
 20
50.53388788976491
 30
0.0
  0
VERTEX
  5
234
  8
LAYER_1
 10
1.623540514049088
 20
50.27120141979
 30
0.0
  0
VERTEX
  5
235
  8
LAYER_1
 10
1.937711864089849
 20
50.03937626779609
 30
0.0
  0
VERTEX
  5
236
  8
LAYER_1
 10
2.241492892428213
 20
49.83669902304366
 30
0.0
  0
VERTEX
  5
237
  8
LAYER_1
 10
2.538550525397864
 20
49.66145627479322
 30
0.0
  0
VERTEX
  5
238
  8
LAYER_1
 10
2.832551689332483
 20
49.51193461230527
 30
0.0
  0
VERTEX
  5
239
  8
LAYER_1
 10
3.127163310565754
 20
49.3864206248403
 30
0.0
  0
VERTEX
  5
23A
  8
LAYER_1
 10
3.42605231543136
 20
49.28320090165882
 30
0.0
  0
VERTEX
  5
23B
  8
LAYER_1
 10
3.732885630262982
 20
49.20056203202132
 30
0.0
  0
VERTEX
  5
23C
  8
LAYER_1
 10
4.051330181394304
 20
49.1367906051883
 30
0.0
  0
VERTEX
  5
23D
  8
LAYER_1
 10
4.385052895159008
 20
49.09017321042027
 30
0.0
  0
VERTEX
  5
23E
  8
LAYER_1
 10
4.737720697890778
 20
49.05899643697773
 30
0.0
  0
VERTEX
  5
23F
  8
LAYER_1
 10
5.113000515923296
 20
49.04154687412117
 30
0.0
  0
VERTEX
  5
240
  8
LAYER_1
 10
5.514559275590244
 20
49.0361111111111
 30
0.0
  0
VERTEX
  5
241
  8
LAYER_1
 10
5.930960877919249
 20
49.04784539763587
 30
0.0
  0
VERTEX
  5
242
  8
LAYER_1
 10
6.314964008344056
 20
49.08438173668594
 30
0.0
  0
VERTEX
  5
243
  8
LAYER_1
 10
6.496738181048877
 20
49.11257574441223
 30
0.0
  0
VERTEX
  5
244
  8
LAYER_1
 10
6.672719177125437
 20
49.14772034747494
 30
0.0
  0
VERTEX
  5
245
  8
LAYER_1
 10
6.843675810356332
 20
49.19006557327579
 30
0.0
  0
VERTEX
  5
246
  8
LAYER_1
 10
7.010376894524159
 20
49.23986144921648
 30
0.0
  0
VERTEX
  5
247
  8
LAYER_1
 10
7.173591243411513
 20
49.29735800269872
 30
0.0
  0
VERTEX
  5
248
  8
LAYER_1
 10
7.334087670800993
 20
49.3628052611242
 30
0.0
  0
VERTEX
  5
249
  8
LAYER_1
 10
7.492634990475192
 20
49.43645325189463
 30
0.0
  0
VERTEX
  5
24A
  8
LAYER_1
 10
7.650002016216709
 20
49.51855200241172
 30
0.0
  0
VERTEX
  5
24B
  8
LAYER_1
 10
7.964270441032077
 20
49.70910189229265
 30
0.0
  0
VERTEX
  5
24C
  8
LAYER_1
 10
8.283043455507865
 20
49.93645514998065
 30
0.0
  0
VERTEX
  5
24D
  8
LAYER_1
 10
8.432332929870343
 20
50.05559624185015
 30
0.0
  0
VERTEX
  5
24E
  8
LAYER_1
 10
8.574970169432827
 20
50.18038986882931
 30
0.0
  0
VERTEX
  5
24F
  8
LAYER_1
 10
8.711028479175651
 20
50.31116423043469
 30
0.0
  0
VERTEX
  5
250
  8
LAYER_1
 10
8.840581164079158
 20
50.44824752618287
 30
0.0
  0
VERTEX
  5
251
  8
LAYER_1
 10
8.96370152912368
 20
50.59196795559043
 30
0.0
  0
VERTEX
  5
252
  8
LAYER_1
 10
9.080462879289556
 20
50.74265371817395
 30
0.0
  0
VERTEX
  5
253
  8
LAYER_1
 10
9.190938519557125
 20
50.90063301345002
 30
0.0
  0
VERTEX
  5
254
  8
LAYER_1
 10
9.295201754906723
 20
51.06623404093519
 30
0.0
  0
VERTEX
  5
255
  8
LAYER_1
 10
9.393325890318685
 20
51.23978500014607
 30
0.0
  0
VERTEX
  5
256
  8
LAYER_1
 10
9.485384230773352
 20
51.42161409059921
 30
0.0
  0
VERTEX
  5
257
  8
LAYER_1
 10
9.571450081251058
 20
51.61204951181121
 30
0.0
  0
VERTEX
  5
258
  8
LAYER_1
 10
9.65159674673214
 20
51.81141946329865
 30
0.0
  0
VERTEX
  5
259
  8
LAYER_1
 10
9.725897532196939
 20
52.0200521445781
 30
0.0
  0
VERTEX
  5
25A
  8
LAYER_1
 10
9.79442574262579
 20
52.23827575516613
 30
0.0
  0
VERTEX
  5
25B
  8
LAYER_1
 10
9.85725468299903
 20
52.46641849457933
 30
0.0
  0
VERTEX
  5
25C
  8
LAYER_1
 10
9.914457658296998
 20
52.70480856233428
 30
0.0
  0
VERTEX
  5
25D
  8
LAYER_1
 10
10.01227893358846
 20
53.21364348093573
 30
0.0
  0
VERTEX
  5
25E
  8
LAYER_1
 10
10.08847600834287
 20
53.76740610710313
 30
0.0
  0
VERTEX
  5
25F
  8
LAYER_1
 10
10.14363532240294
 20
54.36872203696909
 30
0.0
  0
VERTEX
  5
260
  8
LAYER_1
 10
10.17834331561135
 20
55.02021686666624
 30
0.0
  0
VERTEX
  5
261
  8
LAYER_1
 10
10.1931864278108
 20
55.72451619232722
 30
0.0
  0
VERTEX
  5
262
  8
LAYER_1
 10
10.188751098844
 20
56.48424561008466
 30
0.0
  0
VERTEX
  5
263
  8
LAYER_1
 10
10.16562376855365
 20
57.30203071607119
 30
0.0
  0
VERTEX
  5
264
  8
LAYER_1
 10
10.12439087678243
 20
58.18049710641944
 30
0.0
  0
VERTEX
  5
265
  8
LAYER_1
 10
10.07720587541077
 20
58.91749607289275
 30
0.0
  0
VERTEX
  5
266
  8
LAYER_1
 10
10.01819218347666
 20
59.62421325752642
 30
0.0
  0
VERTEX
  5
267
  8
LAYER_1
 10
9.946802597230182
 20
60.30270172097569
 30
0.0
  0
VERTEX
  5
268
  8
LAYER_1
 10
9.862489912921436
 20
60.95501452389578
 30
0.0
  0
VERTEX
  5
269
  8
LAYER_1
 10
9.76470692680051
 20
61.58320472694194
 30
0.0
  0
VERTEX
  5
26A
  8
LAYER_1
 10
9.652906435117497
 20
62.1893253907694
 30
0.0
  0
VERTEX
  5
26B
  8
LAYER_1
 10
9.526541234122492
 20
62.77542957603337
 30
0.0
  0
VERTEX
  5
26C
  8
LAYER_1
 10
9.385064120065582
 20
63.3435703433891
 30
0.0
  0
VERTEX
  5
26D
  8
LAYER_1
 10
9.227927889196863
 20
63.89580075349182
 30
0.0
  0
VERTEX
  5
26E
  8
LAYER_1
 10
9.054585337766422
 20
64.43417386699676
 30
0.0
  0
VERTEX
  5
26F
  8
LAYER_1
 10
8.864489262024357
 20
64.96074274455914
 30
0.0
  0
VERTEX
  5
270
  8
LAYER_1
 10
8.657092458220752
 20
65.47756044683422
 30
0.0
  0
VERTEX
  5
271
  8
LAYER_1
 10
8.431847722605706
 20
65.98668003447722
 30
0.0
  0
VERTEX
  5
272
  8
LAYER_1
 10
8.18820785142931
 20
66.49015456814337
 30
0.0
  0
VERTEX
  5
273
  8
LAYER_1
 10
7.925625640941652
 20
66.99003710848791
 30
0.0
  0
VERTEX
  5
274
  8
LAYER_1
 10
7.643553887392827
 20
67.48838071616606
 30
0.0
  0
VERTEX
  5
275
  8
LAYER_1
 10
6.689945295432821
 20
69.11559074643372
 30
0.0
  0
VERTEX
  5
276
  8
LAYER_1
 10
-2.246376354417251
 20
78.49305555555554
 30
0.0
  0
VERTEX
  5
277
  8
LAYER_1
 10
-5.39124170974047
 20
82.72638888888889
 30
0.0
  0
VERTEX
  5
278
  8
LAYER_1
 10
-5.184394578050373
 20
80.15448264899479
 30
0.0
  0
VERTEX
  5
279
  8
LAYER_1
 10
-5.146436975978188
 20
79.73566871690417
 30
0.0
  0
VERTEX
  5
27A
  8
LAYER_1
 10
-5.100190144553524
 20
79.32774134041091
 30
0.0
  0
VERTEX
  5
27B
  8
LAYER_1
 10
-5.044602544494394
 20
78.9291206118599
 30
0.0
  0
VERTEX
  5
27C
  8
LAYER_1
 10
-4.978622636518809
 20
78.53822662359609
 30
0.0
  0
VERTEX
  5
27D
  8
LAYER_1
 10
-4.901198881344782
 20
78.15347946796439
 30
0.0
  0
VERTEX
  5
27E
  8
LAYER_1
 10
-4.811279739690326
 20
77.77329923730971
 30
0.0
  0
VERTEX
  5
27F
  8
LAYER_1
 10
-4.707813672273453
 20
77.39610602397698
 30
0.0
  0
VERTEX
  5
280
  8
LAYER_1
 10
-4.589749139812175
 20
77.02031992031115
 30
0.0
  0
VERTEX
  5
281
  8
LAYER_1
 10
-4.456034603024505
 20
76.64436101865711
 30
0.0
  0
VERTEX
  5
282
  8
LAYER_1
 10
-4.305618522628456
 20
76.2666494113598
 30
0.0
  0
VERTEX
  5
283
  8
LAYER_1
 10
-4.137449359342041
 20
75.88560519076412
 30
0.0
  0
VERTEX
  5
284
  8
LAYER_1
 10
-3.950475573883272
 20
75.49964844921503
 30
0.0
  0
VERTEX
  5
285
  8
LAYER_1
 10
-3.74364562697016
 20
75.10719927905743
 30
0.0
  0
VERTEX
  5
286
  8
LAYER_1
 10
-3.515907979320719
 20
74.70667777263625
 30
0.0
  0
VERTEX
  5
287
  8
LAYER_1
 10
-3.266211091652962
 20
74.2965040222964
 30
0.0
  0
VERTEX
  5
288
  8
LAYER_1
 10
-2.993503424684901
 20
73.87509812038283
 30
0.0
  0
VERTEX
  5
289
  8
LAYER_1
 10
-2.696733439134548
 20
73.44088015924044
 30
0.0
  0
VERTEX
  5
28A
  8
LAYER_1
 10
-2.374849595719916
 20
72.99227023121415
 30
0.0
  0
VERTEX
  5
28B
  8
LAYER_1
 10
-2.026800355159017
 20
72.5276884286489
 30
0.0
  0
VERTEX
  5
28C
  8
LAYER_1
 10
-1.651534178169865
 20
72.04555484388956
 30
0.0
  0
VERTEX
  5
28D
  8
LAYER_1
 10
-1.247999525470471
 20
71.54428956928115
 30
0.0
  0
VERTEX
  5
28E
  8
LAYER_1
 10
-0.8151448577788475
 20
71.0223126971685
 30
0.0
  0
VERTEX
  5
28F
  8
LAYER_1
 10
-0.3519186358130079
 20
70.47804431989658
 30
0.0
  0
VERTEX
  5
290
  8
LAYER_1
 10
0.1427306797090357
 20
69.90990452981032
 30
0.0
  0
VERTEX
  5
291
  8
LAYER_1
 10
1.230504748549685
 20
68.69569108057439
 30
0.0
  0
VERTEX
  5
292
  8
LAYER_1
 10
2.456589662999
 20
67.36703308822013
 30
0.0
  0
VERTEX
  5
293
  8
LAYER_1
 10
3.829397737312879
 20
65.9112912915069
 30
0.0
  0
VERTEX
  5
294
  8
LAYER_1
 10
5.357341285747225
 20
64.31582642919406
 30
0.0
  0
VERTEX
  5
295
  8
LAYER_1
 10
8.819444444444443
 20
60.72193063616589
 30
0.0
  0
VERTEX
  5
296
  8
LAYER_1
 10
8.819444444444443
 20
59.68909602324607
 30
0.0
  0
VERTEX
  5
297
  8
LAYER_1
 10
8.812638368743677
 20
59.4982426762353
 30
0.0
  0
VERTEX
  5
298
  8
LAYER_1
 10
8.792486915660994
 20
59.30848065358243
 30
0.0
  0
VERTEX
  5
299
  8
LAYER_1
 10
8.759390246225827
 20
59.12013572203915
 30
0.0
  0
VERTEX
  5
29A
  8
LAYER_1
 10
8.713748521467604
 20
58.9335336483572
 30
0.0
  0
VERTEX
  5
29B
  8
LAYER_1
 10
8.655961902415758
 20
58.74900019928826
 30
0.0
  0
VERTEX
  5
29C
  8
LAYER_1
 10
8.586430550099717
 20
58.56686114158404
 30
0.0
  0
VERTEX
  5
29D
  8
LAYER_1
 10
8.50555462554891
 20
58.38744224199625
 30
0.0
  0
VERTEX
  5
29E
  8
LAYER_1
 10
8.413734289792771
 20
58.21106926727661
 30
0.0
  0
VERTEX
  5
29F
  8
LAYER_1
 10
8.311369703860727
 20
58.03806798417681
 30
0.0
  0
VERTEX
  5
2A0
  8
LAYER_1
 10
8.198861028782208
 20
57.86876415944858
 30
0.0
  0
VERTEX
  5
2A1
  8
LAYER_1
 10
8.076608425586645
 20
57.70348355984361
 30
0.0
  0
VERTEX
  5
2A2
  8
LAYER_1
 10
7.945012055303469
 20
57.54255195211363
 30
0.0
  0
VERTEX
  5
2A3
  8
LAYER_1
 10
7.804472078962108
 20
57.38629510301031
 30
0.0
  0
VERTEX
  5
2A4
  8
LAYER_1
 10
7.655388657591994
 20
57.2350387792854
 30
0.0
  0
VERTEX
  5
2A5
  8
LAYER_1
 10
7.498161952222556
 20
57.08910874769058
 30
0.0
  0
VERTEX
  5
2A6
  8
LAYER_1
 10
7.333192123883224
 20
56.94883077497757
 30
0.0
  0
VERTEX
  5
2A7
  8
LAYER_1
 10
7.160879333603428
 20
56.81453062789807
 30
0.0
  0
VERTEX
  5
2A8
  8
LAYER_1
 10
6.981623742412599
 20
56.68653407320379
 30
0.0
  0
VERTEX
  5
2A9
  8
LAYER_1
 10
6.795825511340166
 20
56.56516687764645
 30
0.0
  0
VERTEX
  5
2AA
  8
LAYER_1
 10
6.60388480141556
 20
56.45075480797774
 30
0.0
  0
VERTEX
  5
2AB
  8
LAYER_1
 10
6.40620177366821
 20
56.34362363094938
 30
0.0
  0
VERTEX
  5
2AC
  8
LAYER_1
 10
6.203176589127548
 20
56.24409911331308
 30
0.0
  0
VERTEX
  5
2AD
  8
LAYER_1
 10
5.995209408823002
 20
56.15250702182054
 30
0.0
  0
VERTEX
  5
2AE
  8
LAYER_1
 10
5.782700393784003
 20
56.06917312322348
 30
0.0
  0
VERTEX
  5
2AF
  8
LAYER_1
 10
5.566049705039982
 20
55.99442318427359
 30
0.0
  0
VERTEX
  5
2B0
  8
LAYER_1
 10
5.345657503620367
 20
55.92858297172259
 30
0.0
  0
VERTEX
  5
2B1
  8
LAYER_1
 10
5.121923950554589
 20
55.87197825232219
 30
0.0
  0
VERTEX
  5
2B2
  8
LAYER_1
 10
4.895249206872078
 20
55.82493479282408
 30
0.0
  0
VERTEX
  5
2B3
  8
LAYER_1
 10
4.666033433602266
 20
55.78777835998
 30
0.0
  0
VERTEX
  5
2B4
  8
LAYER_1
 10
4.43467679177458
 20
55.76083472054162
 30
0.0
  0
VERTEX
  5
2B5
  8
LAYER_1
 10
4.201579442418453
 20
55.74442964126069
 30
0.0
  0
VERTEX
  5
2B6
  8
LAYER_1
 10
3.967141546563312
 20
55.73888888888888
 30
0.0
  0
VERTEX
  5
2B7
  8
LAYER_1
 10
3.707274457624975
 20
55.74482471905065
 30
0.0
  0
VERTEX
  5
2B8
  8
LAYER_1
 10
3.451108380460671
 20
55.76299984351376
 30
0.0
  0
VERTEX
  5
2B9
  8
LAYER_1
 10
3.198072538111758
 20
55.79396571324487
 30
0.0
  0
VERTEX
  5
2BA
  8
LAYER_1
 10
2.947596153619588
 20
55.83827377921067
 30
0.0
  0
VERTEX
  5
2BB
  8
LAYER_1
 10
2.699108450025521
 20
55.89647549237782
 30
0.0
  0
VERTEX
  5
2BC
  8
LAYER_1
 10
2.452038650370912
 20
55.96912230371299
 30
0.0
  0
VERTEX
  5
2BD
  8
LAYER_1
 10
2.205815977697117
 20
56.05676566418285
 30
0.0
  0
VERTEX
  5
2BE
  8
LAYER_1
 10
1.959869655045493
 20
56.15995702475409
 30
0.0
  0
VERTEX
  5
2BF
  8
LAYER_1
 10
1.713628905457395
 20
56.27924783639337
 30
0.0
  0
VERTEX
  5
2C0
  8
LAYER_1
 10
1.46652295197418
 20
56.41518955006735
 30
0.0
  0
VERTEX
  5
2C1
  8
LAYER_1
 10
1.217981017637204
 20
56.56833361674272
 30
0.0
  0
VERTEX
  5
2C2
  8
LAYER_1
 10
0.9674323254878234
 20
56.73923148738614
 30
0.0
  0
VERTEX
  5
2C3
  8
LAYER_1
 10
0.7143060985673947
 20
56.9284346129643
 30
0.0
  0
VERTEX
  5
2C4
  8
LAYER_1
 10
0.4580315599172738
 20
57.13649444444386
 30
0.0
  0
VERTEX
  5
2C5
  8
LAYER_1
 10
0.1980379325788171
 20
57.3639624327915
 30
0.0
  0
VERTEX
  5
2C6
  8
LAYER_1
 10
-0.0662455604066192
 20
57.61139002897387
 30
0.0
  0
VERTEX
  5
2C7
  8
LAYER_1
 10
-0.3353896959976789
 20
57.87932868395767
 30
0.0
  0
VERTEX
  5
2C8
  8
LAYER_1
 10
-0.6099652511530058
 20
58.16832984870957
 30
0.0
  0
VERTEX
  5
2C9
  8
LAYER_1
 10
-0.8905430028312434
 20
58.47894497419622
 30
0.0
  0
VERTEX
  5
2CA
  8
LAYER_1
 10
-1.177693727991036
 20
58.81172551138432
 30
0.0
  0
VERTEX
  5
2CB
  8
LAYER_1
 10
-1.471988203591027
 20
59.16722291124052
 30
0.0
  0
VERTEX
  5
2CC
  8
LAYER_1
 10
-1.773997206589859
 20
59.54598862473151
 30
0.0
  0
VERTEX
  5
2CD
  8
LAYER_1
 10
-2.084291513946178
 20
59.94857410282394
 30
0.0
  0
VERTEX
  5
2CE
  8
LAYER_1
 10
-2.403441902618627
 20
60.3755307964845
 30
0.0
  0
VERTEX
  5
2CF
  8
LAYER_1
 10
-3.070594031746487
 20
61.30476363437668
 30
0.0
  0
VERTEX
  5
2D0
  8
LAYER_1
 10
-3.780019809642592
 20
62.33809874614145
 30
0.0
  0
VERTEX
  5
2D1
  8
LAYER_1
 10
-4.53628545197609
 20
63.47994773951217
 30
0.0
  0
VERTEX
  5
2D2
  8
LAYER_1
 10
-5.343957174416133
 20
64.73472222222222
 30
0.0
  0
VERTEX
  5
2D3
  8
LAYER_1
 10
-5.743588720448639
 20
65.35024881998697
 30
0.0
  0
VERTEX
  5
2D4
  8
LAYER_1
 10
-6.191919170962953
 20
66.01843370225693
 30
0.0
  0
VERTEX
  5
2D5
  8
LAYER_1
 10
-6.673736795404949
 20
66.71793450249564
 30
0.0
  0
VERTEX
  5
2D6
  8
LAYER_1
 10
-7.173829863220504
 20
67.42740885416666
 30
0.0
  0
VERTEX
  5
2D7
  8
LAYER_1
 10
-7.676986643855495
 20
68.12551439073349
 30
0.0
  0
VERTEX
  5
2D8
  8
LAYER_1
 10
-8.167995406755795
 20
68.7909087456597
 30
0.0
  0
VERTEX
  5
2D9
  8
LAYER_1
 10
-8.63164442136728
 20
69.40224955240885
 30
0.0
  0
VERTEX
  5
2DA
  8
LAYER_1
 10
-9.05272195713583
 20
69.93819444444443
 30
0.0
  0
VERTEX
  5
2DB
  8
LAYER_1
 10
-10.96652180923621
 20
72.31944444444443
 30
0.0
  0
VERTEX
  5
2DC
  8
LAYER_1
 10
-11.25980341937546
 20
72.31944444444443
 30
0.0
  0
VERTEX
  5
2DD
  8
LAYER_1
 10
-11.27461621937781
 20
72.31517723613314
 30
0.0
  0
VERTEX
  5
2DE
  8
LAYER_1
 10
-11.28880462648181
 20
72.30251502990721
 30
0.0
  0
VERTEX
  5
2DF
  8
LAYER_1
 10
-11.31527630085015
 20
72.25284213595918
 30
0.0
  0
VERTEX
  5
2E0
  8
LAYER_1
 10
-11.33915452019126
 20
72.17209878709579
 30
0.0
  0
VERTEX
  5
2E1
  8
LAYER_1
 10
-11.36037536221592
 20
72.06195800781248
 30
0.0
  0
VERTEX
  5
2E2
  8
LAYER_1
 10
-11.39458922515895
 20
71.76017625596786
 30
0.0
  0
VERTEX
  5
2E3
  8
LAYER_1
 10
-11.41740651136546
 20
71.36088107638888
 30
0.0
  0
VERTEX
  5
2E4
  8
LAYER_1
 10
-11.42831584252163
 20
70.87745666503905
 30
0.0
  0
VERTEX
  5
2E5
  8
LAYER_1
 10
-11.42680584031367
 20
70.32328721788194
 30
0.0
  0
VERTEX
  5
2E6
  8
LAYER_1
 10
-11.41236512642777
 20
69.71175693088108
 30
0.0
  0
VERTEX
  5
2E7
  8
LAYER_1
 10
-11.38448232255013
 20
69.05625
 30
0.0
  0
VERTEX
  5
2E8
  8
LAYER_1
 10
-11.34945010611306
 20
68.4166610855831
 30
0.0
  0
VERTEX
  5
2E9
  8
LAYER_1
 10
-11.31111747241025
 20
67.84520210005506
 30
0.0
  0
VERTEX
  5
2EA
  8
LAYER_1
 10
-11.2646770674524
 20
67.33153112485957
 30
0.0
  0
VERTEX
  5
2EB
  8
LAYER_1
 10
-11.20532153725024
 20
66.86530624144024
 30
0.0
  0
VERTEX
  5
2EC
  8
LAYER_1
 10
-11.12824352781448
 20
66.43618553124077
 30
0.0
  0
VERTEX
  5
2ED
  8
LAYER_1
 10
-11.02863568515583
 20
66.0338270757048
 30
0.0
  0
VERTEX
  5
2EE
  8
LAYER_1
 10
-10.96888077824627
 20
65.83945184388679
 30
0.0
  0
VERTEX
  5
2EF
  8
LAYER_1
 10
-10.90169065528501
 20
65.64788895627603
 30
0.0
  0
VERTEX
  5
2F0
  8
LAYER_1
 10
-10.82646439702339
 20
65.45784567305299
 30
0.0
  0
VERTEX
  5
2F1
  8
LAYER_1
 10
-10.74260108421275
 20
65.2680292543981
 30
0.0
  0
VERTEX
  5
2F2
  8
LAYER_1
 10
-10.64949979760442
 20
65.07714696049185
 30
0.0
  0
VERTEX
  5
2F3
  8
LAYER_1
 10
-10.54655961794974
 20
64.88390605151467
 30
0.0
  0
VERTEX
  5
2F4
  8
LAYER_1
 10
-10.30875890250672
 20
64.48517742906941
 30
0.0
  0
VERTEX
  5
2F5
  8
LAYER_1
 10
-10.0243915838944
 20
64.061501468506
 30
0.0
  0
VERTEX
  5
2F6
  8
LAYER_1
 10
-9.68865030812349
 20
63.60253625126805
 30
0.0
  0
VERTEX
  5
2F7
  8
LAYER_1
 10
-9.29672772120471
 20
63.09793985879926
 30
0.0
  0
VERTEX
  5
2F8
  8
LAYER_1
 10
-8.843816469148777
 20
62.53737037254329
 30
0.0
  0
VERTEX
  5
2F9
  8
LAYER_1
 10
-7.735798553668317
 20
61.20694444444445
 30
0.0
  0
VERTEX
  5
2FA
  8
LAYER_1
 10
-7.351956920924813
 20
60.72812231346613
 30
0.0
  0
VERTEX
  5
2FB
  8
LAYER_1
 10
-6.942456537674193
 20
60.17775335315028
 30
0.0
  0
VERTEX
  5
2FC
  8
LAYER_1
 10
-6.51993602202305
 20
59.57529621242556
 30
0.0
  0
VERTEX
  5
2FD
  8
LAYER_1
 10
-6.097033992077971
 20
58.94020954022062
 30
0.0
  0
VERTEX
  5
2FE
  8
LAYER_1
 10
-5.68638906594555
 20
58.29195198546412
 30
0.0
  0
VERTEX
  5
2FF
  8
LAYER_1
 10
-5.300639861732373
 20
57.64998219708471
 30
0.0
  0
VERTEX
  5
300
  8
LAYER_1
 10
-4.952424997545032
 20
57.03375882401106
 30
0.0
  0
VERTEX
  5
301
  8
LAYER_1
 10
-4.654383091490118
 20
56.46274051517182
 30
0.0
  0
VERTEX
  5
302
  8
LAYER_1
 10
-4.254295373127602
 20
55.63998837653622
 30
0.0
  0
VERTEX
  5
303
  8
LAYER_1
 10
-4.089088769662046
 20
55.28181301659278
 30
0.0
  0
VERTEX
  5
304
  8
LAYER_1
 10
-3.945174381868296
 20
54.95069213695774
 30
0.0
  0
VERTEX
  5
305
  8
LAYER_1
 10
-3.821102743642353
 20
54.64031624317523
 30
0.0
  0
VERTEX
  5
306
  8
LAYER_1
 10
-3.715424388880219
 20
54.34437584078941
 30
0.0
  0
VERTEX
  5
307
  8
LAYER_1
 10
-3.626689851477897
 20
54.0565614353444
 30
0.0
  0
VERTEX
  5
308
  8
LAYER_1
 10
-3.553449665331389
 20
53.77056353238432
 30
0.0
  0
VERTEX
  5
309
  8
LAYER_1
 10
-3.494254364336697
 20
53.4800726374533
 30
0.0
  0
VERTEX
  5
30A
  8
LAYER_1
 10
-3.447654482389823
 20
53.1787792560955
 30
0.0
  0
VERTEX
  5
30B
  8
LAYER_1
 10
-3.41220055338677
 20
52.86037389385503
 30
0.0
  0
VERTEX
  5
30C
  8
LAYER_1
 10
-3.38644311122354
 20
52.51854705627601
 30
0.0
  0
VERTEX
  5
30D
  8
LAYER_1
 10
-3.368932689796134
 20
52.1469892489026
 30
0.0
  0
VERTEX
  5
30E
  8
LAYER_1
 10
-3.358219823000557
 20
51.73939097727893
 30
0.0
  0
VERTEX
  5
30F
  8
LAYER_1
 10
-3.351388888888891
 20
50.79083506345731
 30
0.0
  0
VERTEX
  5
310
  8
LAYER_1
 10
-3.356787554991973
 20
49.8563233826807
 30
0.0
  0
VERTEX
  5
311
  8
LAYER_1
 10
-3.378525783345933
 20
49.10902913383285
 30
0.0
  0
VERTEX
  5
312
  8
LAYER_1
 10
-3.398120153700452
 20
48.79399717056663
 30
0.0
  0
VERTEX
  5
313
  8
LAYER_1
 10
-3.424916919017841
 20
48.51185991430393
 30
0.0
  0
VERTEX
  5
314
  8
LAYER_1
 10
-3.459955247431486
 20
48.25798081471851
 30
0.0
  0
VERTEX
  5
315
  8
LAYER_1
 10
-3.50427430707477
 20
48.02772332148413
 30
0.0
  0
VERTEX
  5
316
  8
LAYER_1
 10
-3.558913266081075
 20
47.81645088427459
 30
0.0
  0
VERTEX
  5
317
  8
LAYER_1
 10
-3.624911292583788
 20
47.61952695276365
 30
0.0
  0
VERTEX
  5
318
  8
LAYER_1
 10
-3.703307554716291
 20
47.43231497662508
 30
0.0
  0
VERTEX
  5
319
  8
LAYER_1
 10
-3.795141220611967
 20
47.25017840553265
 30
0.0
  0
VERTEX
  5
31A
  8
LAYER_1
 10
-3.901451458404202
 20
47.06848068916015
 30
0.0
  0
VERTEX
  5
31B
  8
LAYER_1
 10
-4.023277436226379
 20
46.88258527718135
 30
0.0
  0
VERTEX
  5
31C
  8
LAYER_1
 10
-4.317633284494093
 20
46.4796551650999
 30
0.0
  0
VERTEX
  5
31D
  8
LAYER_1
 10
-4.579742801181304
 20
46.15897963522363
 30
0.0
  0
VERTEX
  5
31E
  8
LAYER_1
 10
-4.852668417236494
 20
45.86907462876382
 30
0.0
  0
VERTEX
  5
31F
  8
LAYER_1
 10
-5.135528447175815
 20
45.6096195501277
 30
0.0
  0
VERTEX
  5
320
  8
LAYER_1
 10
-5.427441205515422
 20
45.38029380372248
 30
0.0
  0
VERTEX
  5
321
  8
LAYER_1
 10
-5.727525006771462
 20
45.18077679395539
 30
0.0
  0
VERTEX
  5
322
  8
LAYER_1
 10
-6.034898165460092
 20
45.01074792523364
 30
0.0
  0
VERTEX
  5
323
  8
LAYER_1
 10
-6.348678996097461
 20
44.86988660196445
 30
0.0
  0
VERTEX
  5
324
  8
LAYER_1
 10
-6.667985813199723
 20
44.75787222855506
 30
0.0
  0
VERTEX
  5
325
  8
LAYER_1
 10
-6.991936931283028
 20
44.67438420941266
 30
0.0
  0
VERTEX
  5
326
  8
LAYER_1
 10
-7.319650664863532
 20
44.61910194894449
 30
0.0
  0
VERTEX
  5
327
  8
LAYER_1
 10
-7.650245328457384
 20
44.59170485155776
 30
0.0
  0
VERTEX
  5
328
  8
LAYER_1
 10
-7.982839236580736
 20
44.59187232165969
 30
0.0
  0
VERTEX
  5
329
  8
LAYER_1
 10
-8.316550703749742
 20
44.6192837636575
 30
0.0
  0
VERTEX
  5
32A
  8
LAYER_1
 10
-8.650498044480553
 20
44.67361858195841
 30
0.0
  0
VERTEX
  5
32B
  8
LAYER_1
 10
-8.983799573289321
 20
44.75455618096964
 30
0.0
  0
VERTEX
  5
32C
  8
LAYER_1
 10
-9.315573604692197
 20
44.86177596509842
 30
0.0
  0
VERTEX
  5
32D
  8
LAYER_1
 10
-9.644938453205334
 20
44.99495733875195
 30
0.0
  0
VERTEX
  5
32E
  8
LAYER_1
 10
-9.971012433344889
 20
45.15377970633746
 30
0.0
  0
VERTEX
  5
32F
  8
LAYER_1
 10
-10.29291385962701
 20
45.33792247226218
 30
0.0
  0
VERTEX
  5
330
  8
LAYER_1
 10
-10.60976104656785
 20
45.5470650409333
 30
0.0
  0
VERTEX
  5
331
  8
LAYER_1
 10
-10.92067230868355
 20
45.78088681675807
 30
0.0
  0
VERTEX
  5
332
  8
LAYER_1
 10
-11.22476596049028
 20
46.0390672041437
 30
0.0
  0
VERTEX
  5
333
  8
LAYER_1
 10
-11.52116031650419
 20
46.3212856074974
 30
0.0
  0
VERTEX
  5
334
  8
LAYER_1
 10
-11.80897369124142
 20
46.62722143122639
 30
0.0
  0
VERTEX
  5
335
  8
LAYER_1
 10
-12.08732439921813
 20
46.9565540797379
 30
0.0
  0
VERTEX
  5
336
  8
LAYER_1
 10
-12.35533075495047
 20
47.30896295743915
 30
0.0
  0
VERTEX
  5
337
  8
LAYER_1
 10
-12.61211107295459
 20
47.68412746873734
 30
0.0
  0
VERTEX
  5
338
  8
LAYER_1
 10
-12.85678366774665
 20
48.08172701803971
 30
0.0
  0
VERTEX
  5
339
  8
LAYER_1
 10
-13.0884668538428
 20
48.50144100975348
 30
0.0
  0
VERTEX
  5
33A
  8
LAYER_1
 10
-13.30627894575919
 20
48.94294884828587
 30
0.0
  0
VERTEX
  5
33B
  8
LAYER_1
 10
-13.50933825801196
 20
49.40592993804408
 30
0.0
  0
VERTEX
  5
33C
  8
LAYER_1
 10
-13.69676310511728
 20
49.89006368343536
 30
0.0
  0
VERTEX
  5
33D
  8
LAYER_1
 10
-15.29764008981509
 20
54.32777777777778
 30
0.0
  0
VERTEX
  5
33E
  8
LAYER_1
 10
-15.50300076675434
 20
54.8772705078125
 30
0.0
  0
VERTEX
  5
33F
  8
LAYER_1
 10
-15.72217966199512
 20
55.42469618055556
 30
0.0
  0
VERTEX
  5
340
  8
LAYER_1
 10
-15.94840649185142
 20
55.95558539496528
 30
0.0
  0
VERTEX
  5
341
  8
LAYER_1
 10
-16.17491097263724
 20
56.45546875000001
 30
0.0
  0
VERTEX
  5
342
  8
LAYER_1
 10
-16.39492282066656
 20
56.90987684461807
 30
0.0
  0
VERTEX
  5
343
  8
LAYER_1
 10
-16.60167175225339
 20
57.30434027777778
 30
0.0
  0
VERTEX
  5
344
  8
LAYER_1
 10
-16.78838748371172
 20
57.6243896484375
 30
0.0
  0
VERTEX
  5
345
  8
LAYER_1
 10
-16.87211718574082
 20
57.75198737250435
 30
0.0
  0
VERTEX
  5
346
  8
LAYER_1
 10
-16.94829973135555
 20
57.85555555555555
 30
0.0
  0
VERTEX
  5
347
  8
LAYER_1
 10
-17.17317003461179
 20
58.13453894494174
 30
0.0
  0
VERTEX
  5
348
  8
LAYER_1
 10
-17.35183946555779
 20
58.33719872663991
 30
0.0
  0
VERTEX
  5
349
  8
LAYER_1
 10
-17.42774353206163
 20
58.41063794237852
 30
0.0
  0
VERTEX
  5
34A
  8
LAYER_1
 10
-17.49677099426452
 20
58.46587306952215
 30
0.0
  0
VERTEX
  5
34B
  8
LAYER_1
 10
-17.56047972342535
 20
58.50319637917983
 30
0.0
  0
VERTEX
  5
34C
  8
LAYER_1
 10
-17.62042759080296
 20
58.52290014246054
 30
0.0
  0
VERTEX
  5
34D
  8
LAYER_1
 10
-17.67817246765624
 20
58.52527663047331
 30
0.0
  0
VERTEX
  5
34E
  8
LAYER_1
 10
-17.73527222524406
 20
58.51061811432714
 30
0.0
  0
VERTEX
  5
34F
  8
LAYER_1
 10
-17.79328473482528
 20
58.47921686513105
 30
0.0
  0
VERTEX
  5
350
  8
LAYER_1
 10
-17.85376786765877
 20
58.43136515399404
 30
0.0
  0
VERTEX
  5
351
  8
LAYER_1
 10
-17.98837748811807
 20
58.28747943033331
 30
0.0
  0
VERTEX
  5
352
  8
LAYER_1
 10
-18.15156405669292
 20
58.08129911221701
 30
0.0
  0
VERTEX
  5
353
  8
LAYER_1
 10
-18.27922842101514
 20
57.8984064245019
 30
0.0
  0
VERTEX
  5
354
  8
LAYER_1
 10
-18.39994944860295
 20
57.69164923566863
 30
0.0
  0
VERTEX
  5
355
  8
LAYER_1
 10
-18.51370737807282
 20
57.46157258075397
 30
0.0
  0
VERTEX
  5
356
  8
LAYER_1
 10
-18.62048244804121
 20
57.2087214947946
 30
0.0
  0
VERTEX
  5
357
  8
LAYER_1
 10
-18.72025489712458
 20
56.93364101282724
 30
0.0
  0
VERTEX
  5
358
  8
LAYER_1
 10
-18.81300496393939
 20
56.63687616988862
 30
0.0
  0
VERTEX
  5
359
  8
LAYER_1
 10
-18.89871288710211
 20
56.31897200101545
 30
0.0
  0
VERTEX
  5
35A
  8
LAYER_1
 10
-18.97735890522921
 20
55.98047354124445
 30
0.0
  0
VERTEX
  5
35B
  8
LAYER_1
 10
-19.04892325693714
 20
55.62192582561233
 30
0.0
  0
VERTEX
  5
35C
  8
LAYER_1
 10
-19.11338618084238
 20
55.24387388915581
 30
0.0
  0
VERTEX
  5
35D
  8
LAYER_1
 10
-19.17072791556137
 20
54.84686276691161
 30
0.0
  0
VERTEX
  5
35E
  8
LAYER_1
 10
-19.2209286997106
 20
54.43143749391643
 30
0.0
  0
VERTEX
  5
35F
  8
LAYER_1
 10
-19.26396877190651
 20
53.99814310520701
 30
0.0
  0
VERTEX
  5
360
  8
LAYER_1
 10
-19.29982837076558
 20
53.54752463582005
 30
0.0
  0
VERTEX
  5
361
  8
LAYER_1
 10
-19.32848773490427
 20
53.08012712079227
 30
0.0
  0
VERTEX
  5
362
  8
LAYER_1
 10
-19.34992710293904
 20
52.59649559516039
 30
0.0
  0
VERTEX
  5
363
  8
LAYER_1
 10
-19.36412671348636
 20
52.09717509396113
 30
0.0
  0
VERTEX
  5
364
  8
LAYER_1
 10
-19.37106680516268
 20
51.5827106522312
 30
0.0
  0
VERTEX
  5
365
  8
LAYER_1
 10
-19.36308938636822
 20
50.5105300873262
 30
0.0
  0
VERTEX
  5
366
  8
LAYER_1
 10
-19.32583675548736
 20
49.38431418073912
 30
0.0
  0
VERTEX
  5
367
  8
LAYER_1
 10
-19.2591508214518
 20
48.2084232127637
 30
0.0
  0
VERTEX
  5
368
  8
LAYER_1
 10
-19.16287349319327
 20
46.98721746369366
 30
0.0
  0
VERTEX
  5
369
  8
LAYER_1
 10
-19.03684667964347
 20
45.72505721382275
 30
0.0
  0
VERTEX
  5
36A
  8
LAYER_1
 10
-18.88091228973411
 20
44.42630274344468
 30
0.0
  0
VERTEX
  5
36B
  8
LAYER_1
 10
-18.6949122323969
 20
43.09531433285321
 30
0.0
  0
VERTEX
  5
36C
  8
LAYER_1
 10
-17.99166666666666
 20
38.38923977681753
 30
0.0
  0
VERTEX
  5
36D
  8
LAYER_1
 10
-17.99166666666666
 20
36.88615142919704
 30
0.0
  0
VERTEX
  5
36E
  8
LAYER_1
 10
-17.99839252967165
 20
36.53940742837584
 30
0.0
  0
VERTEX
  5
36F
  8
LAYER_1
 10
-18.01834351515439
 20
36.1949903193802
 30
0.0
  0
VERTEX
  5
370
  8
LAYER_1
 10
-18.05117971781651
 20
35.85395688322136
 30
0.0
  0
VERTEX
  5
371
  8
LAYER_1
 10
-18.09656123235964
 20
35.51736390091057
 30
0.0
  0
VERTEX
  5
372
  8
LAYER_1
 10
-18.15414815348543
 20
35.1862681534591
 30
0.0
  0
VERTEX
  5
373
  8
LAYER_1
 10
-18.22360057589552
 20
34.8617264218782
 30
0.0
  0
VERTEX
  5
374
  8
LAYER_1
 10
-18.30457859429154
 20
34.54479548717912
 30
0.0
  0
VERTEX
  5
375
  8
LAYER_1
 10
-18.39674230337513
 20
34.23653213037312
 30
0.0
  0
VERTEX
  5
376
  8
LAYER_1
 10
-18.49975179784792
 20
33.93799313247144
 30
0.0
  0
VERTEX
  5
377
  8
LAYER_1
 10
-18.61326717241157
 20
33.65023527448535
 30
0.0
  0
VERTEX
  5
378
  8
LAYER_1
 10
-18.73694852176769
 20
33.37431533742608
 30
0.0
  0
VERTEX
  5
379
  8
LAYER_1
 10
-18.87045594061794
 20
33.1112901023049
 30
0.0
  0
VERTEX
  5
37A
  8
LAYER_1
 10
-19.01344952366394
 20
32.86221635013305
 30
0.0
  0
VERTEX
  5
37B
  8
LAYER_1
 10
-19.16558936560735
 20
32.6281508619218
 30
0.0
  0
VERTEX
  5
37C
  8
LAYER_1
 10
-19.32653556114978
 20
32.4101504186824
 30
0.0
  0
VERTEX
  5
37D
  8
LAYER_1
 10
-19.49594820499289
 20
32.2092718014261
 30
0.0
  0
VERTEX
  5
37E
  8
LAYER_1
 10
-19.70305957613607
 20
32.00011722828877
 30
0.0
  0
VERTEX
  5
37F
  8
LAYER_1
 10
-19.92253413388097
 20
31.81635301687117
 30
0.0
  0
VERTEX
  5
380
  8
LAYER_1
 10
-20.15356277245638
 20
31.65760499952208
 30
0.0
  0
VERTEX
  5
381
  8
LAYER_1
 10
-20.39533638609107
 20
31.52349900859029
 30
0.0
  0
VERTEX
  5
382
  8
LAYER_1
 10
-20.64704586901382
 20
31.41366087642458
 30
0.0
  0
VERTEX
  5
383
  8
LAYER_1
 10
-20.90788211545342
 20
31.32771643537375
 30
0.0
  0
VERTEX
  5
384
  8
LAYER_1
 10
-21.17703601963863
 20
31.26529151778658
 30
0.0
  0
VERTEX
  5
385
  8
LAYER_1
 10
-21.45369847579824
 20
31.22601195601186
 30
0.0
  0
VERTEX
  5
386
  8
LAYER_1
 10
-21.73706037816103
 20
31.20950358239838
 30
0.0
  0
VERTEX
  5
387
  8
LAYER_1
 10
-22.02631262095577
 20
31.21539222929493
 30
0.0
  0
VERTEX
  5
388
  8
LAYER_1
 10
-22.32064609841125
 20
31.24330372905029
 30
0.0
  0
VERTEX
  5
389
  8
LAYER_1
 10
-22.61925170475625
 20
31.29286391401326
 30
0.0
  0
VERTEX
  5
38A
  8
LAYER_1
 10
-22.92132033421954
 20
31.36369861653262
 30
0.0
  0
VERTEX
  5
38B
  8
LAYER_1
 10
-23.22604288102991
 20
31.45543366895716
 30
0.0
  0
VERTEX
  5
38C
  8
LAYER_1
 10
-23.53261023941613
 20
31.56769490363566
 30
0.0
  0
VERTEX
  5
38D
  8
LAYER_1
 10
-23.84021330360697
 20
31.70010815291693
 30
0.0
  0
VERTEX
  5
38E
  8
LAYER_1
 10
-24.14804296783122
 20
31.85229924914973
 30
0.0
  0
VERTEX
  5
38F
  8
LAYER_1
 10
-24.45529012631767
 20
32.02389402468287
 30
0.0
  0
VERTEX
  5
390
  8
LAYER_1
 10
-24.76114567329509
 20
32.21451831186513
 30
0.0
  0
VERTEX
  5
391
  8
LAYER_1
 10
-25.06480050299226
 20
32.42379794304531
 30
0.0
  0
VERTEX
  5
392
  8
LAYER_1
 10
-25.36544550963795
 20
32.65135875057218
 30
0.0
  0
VERTEX
  5
393
  8
LAYER_1
 10
-25.66227158746095
 20
32.89682656679453
 30
0.0
  0
VERTEX
  5
394
  8
LAYER_1
 10
-25.95446963069003
 20
33.15982722406116
 30
0.0
  0
VERTEX
  5
395
  8
LAYER_1
 10
-26.24123053355397
 20
33.43998655472085
 30
0.0
  0
VERTEX
  5
396
  8
LAYER_1
 10
-26.52174519028156
 20
33.73693039112238
 30
0.0
  0
VERTEX
  5
397
  8
LAYER_1
 10
-26.79520449510157
 20
34.05028456561455
 30
0.0
  0
VERTEX
  5
398
  8
LAYER_1
 10
-27.06079934224278
 20
34.37967491054616
 30
0.0
  0
VERTEX
  5
399
  8
LAYER_1
 10
-27.31772062593398
 20
34.72472725826597
 30
0.0
  0
VERTEX
  5
39A
  8
LAYER_1
 10
-27.56515924040393
 20
35.08506744112279
 30
0.0
  0
VERTEX
  5
39B
  8
LAYER_1
 10
-27.80230607988143
 20
35.46032129146541
 30
0.0
  0
VERTEX
  5
39C
  8
LAYER_1
 10
-28.02835203859523
 20
35.85011464164259
 30
0.0
  0
VERTEX
  5
39D
  8
LAYER_1
 10
-28.24248801077414
 20
36.25407332400314
 30
0.0
  0
VERTEX
  5
39E
  8
LAYER_1
 10
-28.34643870816803
 20
36.4748803478236
 30
0.0
  0
VERTEX
  5
39F
  8
LAYER_1
 10
-28.4450968486967
 20
36.7154215099194
 30
0.0
  0
VERTEX
  5
3A0
  8
LAYER_1
 10
-28.53842689129363
 20
36.97484268856478
 30
0.0
  0
VERTEX
  5
3A1
  8
LAYER_1
 10
-28.6263932948923
 20
37.25228976203393
 30
0.0
  0
VERTEX
  5
3A2
  8
LAYER_1
 10
-28.70896051842619
 20
37.54690860860106
 30
0.0
  0
VERTEX
  5
3A3
  8
LAYER_1
 10
-28.78609302082878
 20
37.8578451065404
 30
0.0
  0
VERTEX
  5
3A4
  8
LAYER_1
 10
-28.85775526103355
 20
38.18424513412613
 30
0.0
  0
VERTEX
  5
3A5
  8
LAYER_1
 10
-28.92391169797397
 20
38.52525456963249
 30
0.0
  0
VERTEX
  5
3A6
  8
LAYER_1
 10
-28.98452679058353
 20
38.88001929133367
 30
0.0
  0
VERTEX
  5
3A7
  8
LAYER_1
 10
-29.03956499779571
 20
39.24768517750387
 30
0.0
  0
VERTEX
  5
3A8
  8
LAYER_1
 10
-29.13276859176184
 20
40.01830395634822
 30
0.0
  0
VERTEX
  5
3A9
  8
LAYER_1
 10
-29.20323815134018
 20
40.83027793235921
 30
0.0
  0
VERTEX
  5
3AA
  8
LAYER_1
 10
-29.25068934799858
 20
41.67677413173051
 30
0.0
  0
VERTEX
  5
3AB
  8
LAYER_1
 10
-29.27483785320487
 20
42.5509595806558
 30
0.0
  0
VERTEX
  5
3AC
  8
LAYER_1
 10
-29.27539933842689
 20
43.44600130532875
 30
0.0
  0
VERTEX
  5
3AD
  8
LAYER_1
 10
-29.25208947513247
 20
44.35506633194302
 30
0.0
  0
VERTEX
  5
3AE
  8
LAYER_1
 10
-29.20462393478945
 20
45.2713216866923
 30
0.0
  0
VERTEX
  5
3AF
  8
LAYER_1
 10
-29.13271838886567
 20
46.18793439577027
 30
0.0
  0
VERTEX
  5
3B0
  8
LAYER_1
 10
-29.03608850882895
 20
47.09807148537058
 30
0.0
  0
VERTEX
  5
3B1
  8
LAYER_1
 10
-28.91444996614714
 20
47.99489998168691
 30
0.0
  0
VERTEX
  5
3B2
  8
LAYER_1
 10
-28.76751843228806
 20
48.87158691091295
 30
0.0
  0
VERTEX
  5
3B3
  8
LAYER_1
 10
-26.45663210758468
 20
60.14861111111111
 30
0.0
  0
VERTEX
  5
3B4
  8
LAYER_1
 10
-24.7300847853547
 20
68.26249999999999
 30
0.0
  0
VERTEX
  5
3B5
  8
LAYER_1
 10
-24.1445109564654
 20
72.49583333333334
 30
0.0
  0
VERTEX
  5
3B6
  8
LAYER_1
 10
-23.99430971571841
 20
73.67144130865779
 30
0.0
  0
VERTEX
  5
3B7
  8
LAYER_1
 10
-23.87533988189478
 20
74.81670885189676
 30
0.0
  0
VERTEX
  5
3B8
  8
LAYER_1
 10
-23.82717165226532
 20
75.38829762186504
 30
0.0
  0
VERTEX
  5
3B9
  8
LAYER_1
 10
-23.78633716599001
 20
75.9647004762689
 30
0.0
  0
VERTEX
  5
3BA
  8
LAYER_1
 10
-23.75267838694329
 20
76.5500504792607
 30
0.0
  0
VERTEX
  5
3BB
  8
LAYER_1
 10
-23.72603727899959
 20
77.14848069499277
 30
0.0
  0
VERTEX
  5
3BC
  8
LAYER_1
 10
-23.69317593191902
 20
78.40111402128701
 30
0.0
  0
VERTEX
  5
3BD
  8
LAYER_1
 10
-23.68648883574377
 20
79.75566496837018
 30
0.0
  0
VERTEX
  5
3BE
  8
LAYER_1
 10
-23.70471170146936
 20
81.2451980494609
 30
0.0
  0
VERTEX
  5
3BF
  8
LAYER_1
 10
-23.74658024009126
 20
82.90277777777777
 30
0.0
  0
VERTEX
  5
3C0
  8
LAYER_1
 10
-23.9342233526064
 20
89.07638888888886
 30
0.0
  0
VERTEX
  5
3C1
  8
LAYER_1
 10
-24.84453314588738
 20
92.95694444444445
 30
0.0
  0
VERTEX
  5
3C2
  8
LAYER_1
 10
-25.1979680593381
 20
94.40704581124757
 30
0.0
  0
VERTEX
  5
3C3
  8
LAYER_1
 10
-25.56618249765956
 20
95.80534538156971
 30
0.0
  0
VERTEX
  5
3C4
  8
LAYER_1
 10
-25.9504635659557
 20
97.15478614503482
 30
0.0
  0
VERTEX
  5
3C5
  8
LAYER_1
 10
-26.14903130668925
 20
97.8121041584535
 30
0.0
  0
VERTEX
  5
3C6
  8
LAYER_1
 10
-26.35209836933044
 20
98.45831109126692
 30
0.0
  0
VERTEX
  5
3C7
  8
LAYER_1
 10
-26.55982564201727
 20
99.09377481717807
 30
0.0
  0
VERTEX
  5
3C8
  8
LAYER_1
 10
-26.77237401288772
 20
99.71886320988997
 30
0.0
  0
VERTEX
  5
3C9
  8
LAYER_1
 10
-26.98990437007979
 20
100.3339441431056
 30
0.0
  0
VERTEX
  5
3CA
  8
LAYER_1
 10
-27.21257760173147
 20
100.9393854905279
 30
0.0
  0
VERTEX
  5
3CB
  8
LAYER_1
 10
-27.44055459598074
 20
101.53555512586
 30
0.0
  0
VERTEX
  5
3CC
  8
LAYER_1
 10
-27.67399624096561
 20
102.1228209228048
 30
0.0
  0
VERTEX
  5
3CD
  8
LAYER_1
 10
-27.91306342482406
 20
102.7015507550654
 30
0.0
  0
VERTEX
  5
3CE
  8
LAYER_1
 10
-28.15791703569409
 20
103.2721124963446
 30
0.0
  0
VERTEX
  5
3CF
  8
LAYER_1
 10
-28.40871796171368
 20
103.8348740203456
 30
0.0
  0
VERTEX
  5
3D0
  8
LAYER_1
 10
-28.66562709102082
 20
104.3902032007713
 30
0.0
  0
VERTEX
  5
3D1
  8
LAYER_1
 10
-28.92880531175351
 20
104.9384679113247
 30
0.0
  0
VERTEX
  5
3D2
  8
LAYER_1
 10
-29.19841351204975
 20
105.4800360257088
 30
0.0
  0
VERTEX
  5
3D3
  8
LAYER_1
 10
-29.47461258004751
 20
106.0152754176266
 30
0.0
  0
VERTEX
  5
3D4
  8
LAYER_1
 10
-29.7575634038848
 20
106.5445539607812
 30
0.0
  0
VERTEX
  5
3D5
  8
LAYER_1
 10
-30.0474268716996
 20
107.0682395288754
 30
0.0
  0
VERTEX
  5
3D6
  8
LAYER_1
 10
-30.3443638716299
 20
107.5866999956124
 30
0.0
  0
VERTEX
  5
3D7
  8
LAYER_1
 10
-30.6485352918137
 20
108.100303234695
 30
0.0
  0
VERTEX
  5
3D8
  8
LAYER_1
 10
-30.96010202038899
 20
108.6094171198264
 30
0.0
  0
VERTEX
  5
3D9
  8
LAYER_1
 10
-31.27922494549376
 20
109.1144095247094
 30
0.0
  0
VERTEX
  5
3DA
  8
LAYER_1
 10
-31.60606495526599
 20
109.6156483230472
 30
0.0
  0
VERTEX
  5
3DB
  8
LAYER_1
 10
-31.94078293784369
 20
110.1135013885426
 30
0.0
  0
VERTEX
  5
3DC
  8
LAYER_1
 10
-32.28353978136484
 20
110.6083365948988
 30
0.0
  0
VERTEX
  5
3DD
  8
LAYER_1
 10
-32.63449637396744
 20
111.1005218158186
 30
0.0
  0
VERTEX
  5
3DE
  8
LAYER_1
 10
-32.99381360378947
 20
111.5904249250051
 30
0.0
  0
VERTEX
  5
3DF
  8
LAYER_1
 10
-35.30745044996943
 20
114.7016831833435
 30
0.0
  0
VERTEX
  5
3E0
  8
LAYER_1
 10
-35.64954724401832
 20
114.5876509186605
 30
0.0
  0
VERTEX
  5
3E1
  8
LAYER_1
 10
-35.67613227248735
 20
114.5650606610044
 30
0.0
  0
VERTEX
  5
3E2
  8
LAYER_1
 10
-35.68575739039218
 20
114.5215710151217
 30
0.0
  0
VERTEX
  5
3E3
  8
LAYER_1
 10
-35.67906384213829
 20
114.458324939755
 30
0.0
  0
VERTEX
  5
3E4
  8
LAYER_1
 10
-35.65669287213112
 20
114.3764653936467
 30
0.0
  0
VERTEX
  5
3E5
  8
LAYER_1
 10
-35.56748364447886
 20
114.1614777241754
 30
0.0
  0
VERTEX
  5
3E6
  8
LAYER_1
 10
-35.42325966267912
 20
113.8857516766475
 30
0.0
  0
VERTEX
  5
3E7
  8
LAYER_1
 10
-35.22915088197564
 20
113.5584309210029
 30
0.0
  0
VERTEX
  5
3E8
  8
LAYER_1
 10
-34.99028725761215
 20
113.1886591271813
 30
0.0
  0
VERTEX
  5
3E9
  8
LAYER_1
 10
-34.71179874483238
 20
112.7855799651226
 30
0.0
  0
VERTEX
  5
3EA
  8
LAYER_1
 10
-34.39881529888007
 20
112.3583371047666
 30
0.0
  0
VERTEX
  5
3EB
  8
LAYER_1
 10
-34.0911349002033
 20
111.9423541754925
 30
0.0
  0
VERTEX
  5
3EC
  8
LAYER_1
 10
-33.78834726157179
 20
111.5181212624952
 30
0.0
  0
VERTEX
  5
3ED
  8
LAYER_1
 10
-33.49047774642449
 20
111.085697863468
 30
0.0
  0
VERTEX
  5
3EE
  8
LAYER_1
 10
-33.1975517182003
 20
110.6451434761042
 30
0.0
  0
VERTEX
  5
3EF
  8
LAYER_1
 10
-32.90959454033818
 20
110.196517598097
 30
0.0
  0
VERTEX
  5
3F0
  8
LAYER_1
 10
-32.62663157627703
 20
109.7398797271398
 30
0.0
  0
VERTEX
  5
3F1
  8
LAYER_1
 10
-32.34868818945579
 20
109.2752893609258
 30
0.0
  0
VERTEX
  5
3F2
  8
LAYER_1
 10
-32.0757897433134
 20
108.8028059971483
 30
0.0
  0
VERTEX
  5
3F3
  8
LAYER_1
 10
-31.80796160128877
 20
108.3224891335007
 30
0.0
  0
VERTEX
  5
3F4
  8
LAYER_1
 10
-31.54522912682083
 20
107.8343982676761
 30
0.0
  0
VERTEX
  5
3F5
  8
LAYER_1
 10
-31.28761768334852
 20
107.338592897368
 30
0.0
  0
VERTEX
  5
3F6
  8
LAYER_1
 10
-31.03515263431076
 20
106.8351325202695
 30
0.0
  0
VERTEX
  5
3F7
  8
LAYER_1
 10
-30.78785934314648
 20
106.324076634074
 30
0.0
  0
VERTEX
  5
3F8
  8
LAYER_1
 10
-30.5457631732946
 20
105.8054847364748
 30
0.0
  0
VERTEX
  5
3F9
  8
LAYER_1
 10
-30.30888948819405
 20
105.2794163251651
 30
0.0
  0
VERTEX
  5
3FA
  8
LAYER_1
 10
-30.07726365128378
 20
104.7459308978383
 30
0.0
  0
VERTEX
  5
3FB
  8
LAYER_1
 10
-29.85091102600269
 20
104.2050879521876
 30
0.0
  0
VERTEX
  5
3FC
  8
LAYER_1
 10
-29.62985697578972
 20
103.6569469859064
 30
0.0
  0
VERTEX
  5
3FD
  8
LAYER_1
 10
-29.4141268640838
 20
103.1015674966878
 30
0.0
  0
VERTEX
  5
3FE
  8
LAYER_1
 10
-29.20374605432385
 20
102.5390089822253
 30
0.0
  0
VERTEX
  5
3FF
  8
LAYER_1
 10
-28.79913379439759
 20
101.3925928683413
 30
0.0
  0
VERTEX
  5
400
  8
LAYER_1
 10
-28.41622310352236
 20
100.2181746258008
 30
0.0
  0
VERTEX
  5
401
  8
LAYER_1
 10
-28.05521688920958
 20
99.01623023615014
 30
0.0
  0
VERTEX
  5
402
  8
LAYER_1
 10
-27.71631805897069
 20
97.78723568093557
 30
0.0
  0
VERTEX
  5
403
  8
LAYER_1
 10
-27.39972952031711
 20
96.5316669417034
 30
0.0
  0
VERTEX
  5
404
  8
LAYER_1
 10
-27.10565418076025
 20
95.25
 30
0.0
  0
VERTEX
  5
405
  8
LAYER_1
 10
-26.99837217333664
 20
94.7316758876671
 30
0.0
  0
VERTEX
  5
406
  8
LAYER_1
 10
-26.89840275197569
 20
94.19309018204791
 30
0.0
  0
VERTEX
  5
407
  8
LAYER_1
 10
-26.80574021581078
 20
93.6350255354001
 30
0.0
  0
VERTEX
  5
408
  8
LAYER_1
 10
-26.72037886397532
 20
93.05826459998133
 30
0.0
  0
VERTEX
  5
409
  8
LAYER_1
 10
-26.6423129956027
 20
92.46359002804925
 30
0.0
  0
VERTEX
  5
40A
  8
LAYER_1
 10
-26.57153690982632
 20
91.85178447186152
 30
0.0
  0
VERTEX
  5
40B
  8
LAYER_1
 10
-26.50804490577958
 20
91.22363058367579
 30
0.0
  0
VERTEX
  5
40C
  8
LAYER_1
 10
-26.45183128259588
 20
90.57991101574973
 30
0.0
  0
VERTEX
  5
40D
  8
LAYER_1
 10
-26.40289033940862
 20
89.921408420341
 30
0.0
  0
VERTEX
  5
40E
  8
LAYER_1
 10
-26.36121637535118
 20
89.24890544970724
 30
0.0
  0
VERTEX
  5
40F
  8
LAYER_1
 10
-26.32680368955698
 20
88.56318475610612
 30
0.0
  0
VERTEX
  5
410
  8
LAYER_1
 10
-26.29964658115941
 20
87.86502899179528
 30
0.0
  0
VERTEX
  5
411
  8
LAYER_1
 10
-26.26707629308775
 20
86.43454286007514
 30
0.0
  0
VERTEX
  5
412
  8
LAYER_1
 10
-26.26345990420338
 20
84.96370827260807
 30
0.0
  0
VERTEX
  5
413
  8
LAYER_1
 10
-26.28875180757349
 20
83.45878644745532
 30
0.0
  0
VERTEX
  5
414
  8
LAYER_1
 10
-26.34290639626526
 20
81.92603860267818
 30
0.0
  0
VERTEX
  5
415
  8
LAYER_1
 10
-26.42587806334588
 20
80.37172595633788
 30
0.0
  0
VERTEX
  5
416
  8
LAYER_1
 10
-26.53762120188254
 20
78.8021097264957
 30
0.0
  0
VERTEX
  5
417
  8
LAYER_1
 10
-26.67809020494241
 20
77.2234511312129
 30
0.0
  0
VERTEX
  5
418
  8
LAYER_1
 10
-26.84723946559268
 20
75.64201138855074
 30
0.0
  0
VERTEX
  5
419
  8
LAYER_1
 10
-27.04502337690055
 20
74.06405171657046
 30
0.0
  0
VERTEX
  5
41A
  8
LAYER_1
 10
-27.15463907438457
 20
73.27833353773018
 30
0.0
  0
VERTEX
  5
41B
  8
LAYER_1
 10
-27.27139633193318
 20
72.49583333333334
 30
0.0
  0
VERTEX
  5
41C
  8
LAYER_1
 10
-28.88681264871212
 20
62.08888888888887
 30
0.0
  0
VERTEX
  5
41D
  8
LAYER_1
 10
-29.09904746928108
 20
60.70355910840365
 30
0.0
  0
VERTEX
  5
41E
  8
LAYER_1
 10
-29.29262429357532
 20
59.37378907827686
 30
0.0
  0
VERTEX
  5
41F
  8
LAYER_1
 10
-29.46789422113426
 20
58.09487496946616
 30
0.0
  0
VERTEX
  5
420
  8
LAYER_1
 10
-29.62520835149732
 20
56.86211295292919
 30
0.0
  0
VERTEX
  5
421
  8
LAYER_1
 10
-29.76491778420393
 20
55.67079919962359
 30
0.0
  0
VERTEX
  5
422
  8
LAYER_1
 10
-29.88737361879353
 20
54.51622988050698
 30
0.0
  0
VERTEX
  5
423
  8
LAYER_1
 10
-29.99292695480553
 20
53.39370116653703
 30
0.0
  0
VERTEX
  5
424
  8
LAYER_1
 10
-30.08192889177937
 20
52.29850922867137
 30
0.0
  0
VERTEX
  5
425
  8
LAYER_1
 10
-30.15473052925448
 20
51.22595023786765
 30
0.0
  0
VERTEX
  5
426
  8
LAYER_1
 10
-30.21168296677028
 20
50.1713203650835
 30
0.0
  0
VERTEX
  5
427
  8
LAYER_1
 10
-30.2531373038662
 20
49.12991578127657
 30
0.0
  0
VERTEX
  5
428
  8
LAYER_1
 10
-30.27944464008167
 20
48.0970326574045
 30
0.0
  0
VERTEX
  5
429
  8
LAYER_1
 10
-30.29095607495612
 20
47.06796716442494
 30
0.0
  0
VERTEX
  5
42A
  8
LAYER_1
 10
-30.28802270802897
 20
46.0380154732955
 30
0.0
  0
VERTEX
  5
42B
  8
LAYER_1
 10
-30.27099563883965
 20
45.00247375497386
 30
0.0
  0
VERTEX
  5
42C
  8
LAYER_1
 10
-30.2402259669276
 20
43.95663818041766
 30
0.0
  0
VERTEX
  5
42D
  8
LAYER_1
 10
-30.05029899216693
 20
38.62916666666666
 30
0.0
  0
VERTEX
  5
42E
  8
LAYER_1
 10
-29.31028753021068
 20
36.06746997060432
 30
0.0
  0
VERTEX
  5
42F
  8
LAYER_1
 10
-29.12084168209232
 20
35.43654794243038
 30
0.0
  0
VERTEX
  5
430
  8
LAYER_1
 10
-28.92064818874002
 20
34.81766821321131
 30
0.0
  0
VERTEX
  5
431
  8
LAYER_1
 10
-28.71005762314119
 20
34.21126823455086
 30
0.0
  0
VERTEX
  5
432
  8
LAYER_1
 10
-28.48942055828321
 20
33.61778545805284
 30
0.0
  0
VERTEX
  5
433
  8
LAYER_1
 10
-28.25908756715348
 20
33.03765733532099
 30
0.0
  0
VERTEX
  5
434
  8
LAYER_1
 10
-28.01940922273941
 20
32.4713213179591
 30
0.0
  0
VERTEX
  5
435
  8
LAYER_1
 10
-27.77073609802838
 20
31.91921485757094
 30
0.0
  0
VERTEX
  5
436
  8
LAYER_1
 10
-27.51341876600779
 20
31.38177540576028
 30
0.0
  0
VERTEX
  5
437
  8
LAYER_1
 10
-27.24780779966504
 20
30.85944041413091
 30
0.0
  0
VERTEX
  5
438
  8
LAYER_1
 10
-26.97425377198753
 20
30.35264733428658
 30
0.0
  0
VERTEX
  5
439
  8
LAYER_1
 10
-26.69310725596265
 20
29.86183361783108
 30
0.0
  0
VERTEX
  5
43A
  8
LAYER_1
 10
-26.40471882457781
 20
29.38743671636817
 30
0.0
  0
VERTEX
  5
43B
  8
LAYER_1
 10
-26.10943905082039
 20
28.92989408150165
 30
0.0
  0
VERTEX
  5
43C
  8
LAYER_1
 10
-25.80761850767779
 20
28.48964316483526
 30
0.0
  0
VERTEX
  5
43D
  8
LAYER_1
 10
-25.49960776813742
 20
28.0671214179728
 30
0.0
  0
VERTEX
  5
43E
  8
LAYER_1
 10
-25.18575740518666
 20
27.66276629251803
 30
0.0
  0
VERTEX
  5
43F
  8
LAYER_1
 10
-24.86641799181292
 20
27.27701524007474
 30
0.0
  0
VERTEX
  5
440
  8
LAYER_1
 10
-24.54194010100358
 20
26.91030571224668
 30
0.0
  0
VERTEX
  5
441
  8
LAYER_1
 10
-24.21267430574606
 20
26.56307516063764
 30
0.0
  0
VERTEX
  5
442
  8
LAYER_1
 10
-23.87897117902774
 20
26.23576103685139
 30
0.0
  0
VERTEX
  5
443
  8
LAYER_1
 10
-23.54118129383601
 20
25.9288007924917
 30
0.0
  0
VERTEX
  5
444
  8
LAYER_1
 10
-23.19965522315829
 20
25.64263187916235
 30
0.0
  0
VERTEX
  5
445
  8
LAYER_1
 10
-22.85474353998196
 20
25.37769174846711
 30
0.0
  0
VERTEX
  5
446
  8
LAYER_1
 10
-22.50679681729442
 20
25.13441785200976
 30
0.0
  0
VERTEX
  5
447
  8
LAYER_1
 10
-22.15616562808307
 20
24.91324764139407
 30
0.0
  0
VERTEX
  5
448
  8
LAYER_1
 10
-21.80320054533531
 20
24.71461856822381
 30
0.0
  0
VERTEX
  5
449
  8
LAYER_1
 10
-21.44825214203852
 20
24.53896808410276
 30
0.0
  0
VERTEX
  5
44A
  8
LAYER_1
 10
-21.09167099118012
 20
24.38673364063468
 30
0.0
  0
VERTEX
  5
44B
  8
LAYER_1
 10
-20.73380766574748
 20
24.25835268942336
 30
0.0
  0
VERTEX
  5
44C
  8
LAYER_1
 10
-20.37501273872802
 20
24.15426268207257
 30
0.0
  0
VERTEX
  5
44D
  8
LAYER_1
 10
-20.01563678310913
 20
24.07490107018608
 30
0.0
  0
SEQEND
  5
44E
  8
LAYER_1
  0
POLYLINE
  5
46
  8
LAYER_1
 66
     1
 10
0.0
 20
0.0
 30
0.0
 70
     1
  0
VERTEX
  5
44F
  8
LAYER_1
 10
-10.29679546790138
 20
28.75474741174986
 30
0.0
  0
VERTEX
  5
450
  8
LAYER_1
 10
-10.29449588559384
 20
28.80484700852121
 30
0.0
  0
VERTEX
  5
451
  8
LAYER_1
 10
-10.30840696969973
 20
28.86031394486206
 30
0.0
  0
VERTEX
  5
452
  8
LAYER_1
 10
-10.33756605994509
 20
28.92063282367848
 30
0.0
  0
VERTEX
  5
453
  8
LAYER_1
 10
-10.38101049605598
 20
28.9852882478765
 30
0.0
  0
VERTEX
  5
454
  8
LAYER_1
 10
-10.50690476477847
 20
29.12554714404157
 30
0.0
  0
VERTEX
  5
455
  8
LAYER_1
 10
-10.67838849367558
 20
29.27696745660566
 30
0.0
  0
VERTEX
  5
456
  8
LAYER_1
 10
-10.88776040055565
 20
29.43542600881715
 30
0.0
  0
VERTEX
  5
457
  8
LAYER_1
 10
-11.12731920322706
 20
29.59679962392444
 30
0.0
  0
VERTEX
  5
458
  8
LAYER_1
 10
-11.38936361949816
 20
29.75696512517591
 30
0.0
  0
VERTEX
  5
459
  8
LAYER_1
 10
-11.66619236717731
 20
29.91179933581997
 30
0.0
  0
VERTEX
  5
45A
  8
LAYER_1
 10
-11.95010416407288
 20
30.05717907910499
 30
0.0
  0
VERTEX
  5
45B
  8
LAYER_1
 10
-12.23339772799321
 20
30.18898117827936
 30
0.0
  0
VERTEX
  5
45C
  8
LAYER_1
 10
-12.50837177674667
 20
30.30308245659148
 30
0.0
  0
VERTEX
  5
45D
  8
LAYER_1
 10
-12.76732502814164
 20
30.39535973728974
 30
0.0
  0
VERTEX
  5
45E
  8
LAYER_1
 10
-13.00255619998645
 20
30.46168984362252
 30
0.0
  0
VERTEX
  5
45F
  8
LAYER_1
 10
-13.20636401008948
 20
30.49794959883822
 30
0.0
  0
VERTEX
  5
460
  8
LAYER_1
 10
-13.29407750380293
 20
30.50351460204228
 30
0.0
  0
VERTEX
  5
461
  8
LAYER_1
 10
-13.37104717625908
 20
30.50001582618522
 30
0.0
  0
VERTEX
  5
462
  8
LAYER_1
 10
-13.43631036718395
 20
30.48693787417309
 30
0.0
  0
VERTEX
  5
463
  8
LAYER_1
 10
-13.48890441630361
 20
30.46376534891192
 30
0.0
  0
VERTEX
  5
464
  8
LAYER_1
 10
-13.60254078561729
 20
30.38156413123484
 30
0.0
  0
VERTEX
  5
465
  8
LAYER_1
 10
-13.69037861306587
 20
30.29286216492277
 30
0.0
  0
VERTEX
  5
466
  8
LAYER_1
 10
-13.75341105041083
 20
30.19928819912871
 30
0.0
  0
VERTEX
  5
467
  8
LAYER_1
 10
-13.79263124941364
 20
30.10247098300565
 30
0.0
  0
VERTEX
  5
468
  8
LAYER_1
 10
-13.8090323618358
 20
30.00403926570657
 30
0.0
  0
VERTEX
  5
469
  8
LAYER_1
 10
-13.80360753943878
 20
29.90562179638448
 30
0.0
  0
VERTEX
  5
46A
  8
LAYER_1
 10
-13.77734993398407
 20
29.80884732419236
 30
0.0
  0
VERTEX
  5
46B
  8
LAYER_1
 10
-13.73125269723313
 20
29.71534459828321
 30
0.0
  0
VERTEX
  5
46C
  8
LAYER_1
 10
-13.66630898094747
 20
29.62674236781001
 30
0.0
  0
VERTEX
  5
46D
  8
LAYER_1
 10
-13.58351193688856
 20
29.54466938192576
 30
0.0
  0
VERTEX
  5
46E
  8
LAYER_1
 10
-13.48385471681788
 20
29.47075438978344
 30
0.0
  0
VERTEX
  5
46F
  8
LAYER_1
 10
-13.3683304724969
 20
29.40662614053605
 30
0.0
  0
VERTEX
  5
470
  8
LAYER_1
 10
-13.23793235568712
 20
29.35391338333658
 30
0.0
  0
VERTEX
  5
471
  8
LAYER_1
 10
-13.09365351815002
 20
29.31424486733801
 30
0.0
  0
VERTEX
  5
472
  8
LAYER_1
 10
-12.93648711164708
 20
29.28924934169334
 30
0.0
  0
VERTEX
  5
473
  8
LAYER_1
 10
-12.76742628793977
 20
29.28055555555557
 30
0.0
  0
VERTEX
  5
474
  8
LAYER_1
 10
-12.55439734665304
 20
29.27023839242491
 30
0.0
  0
VERTEX
  5
475
  8
LAYER_1
 10
-12.3286416560142
 20
29.24066910670593
 30
0.0
  0
VERTEX
  5
476
  8
LAYER_1
 10
-12.09703218151805
 20
29.19392100390816
 30
0.0
  0
VERTEX
  5
477
  8
LAYER_1
 10
-11.86644188865938
 20
29.1320673895411
 30
0.0
  0
VERTEX
  5
478
  8
LAYER_1
 10
-11.64374374293298
 20
29.05718156911425
 30
0.0
  0
VERTEX
  5
479
  8
LAYER_1
 10
-11.43581070983365
 20
28.97133684813714
 30
0.0
  0
VERTEX
  5
47A
  8
LAYER_1
 10
-11.24951575485617
 20
28.87660653211926
 30
0.0
  0
VERTEX
  5
47B
  8
LAYER_1
 10
-11.09173184349534
 20
28.77506392657014
 30
0.0
  0
VERTEX
  5
47C
  8
LAYER_1
 10
-10.89639667112142
 20
28.63571834469716
 30
0.0
  0
VERTEX
  5
47D
  8
LAYER_1
 10
-10.73811724269166
 20
28.53570647474779
 30
0.0
  0
VERTEX
  5
47E
  8
LAYER_1
 10
-10.61207541843752
 20
28.47490517754886
 30
0.0
  0
VERTEX
  5
47F
  8
LAYER_1
 10
-10.55963793919862
 20
28.4591700127392
 30
0.0
  0
VERTEX
  5
480
  8
LAYER_1
 10
-10.51345305859042
 20
28.4531913139272
 30
0.0
  0
VERTEX
  5
481
  8
LAYER_1
 10
-10.47291850914184
 20
28.45695368871624
 30
0.0
  0
VERTEX
  5
482
  8
LAYER_1
 10
-10.43743202338181
 20
28.47044174470964
 30
0.0
  0
VERTEX
  5
483
  8
LAYER_1
 10
-10.40639133383927
 20
28.49364008951078
 30
0.0
  0
VERTEX
  5
484
  8
LAYER_1
 10
-10.37919417304314
 20
28.52653333072301
 30
0.0
  0
VERTEX
  5
485
  8
LAYER_1
 10
-10.33392136780585
 20
28.62134293279414
 30
0.0
  0
SEQEND
  5
486
  8
LAYER_1
  0
POLYLINE
  5
47
  8
LAYER_1
 66
     1
 10
0.0
 20
0.0
 30
0.0
 70
     1
  0
VERTEX
  5
487
  8
LAYER_1
 10
-9.348611111111111
 20
33.16111111111113
 30
0.0
  0
VERTEX
  5
488
  8
LAYER_1
 10
-9.242312689887155
 20
33.16831136067709
 30
0.0
  0
VERTEX
  5
489
  8
LAYER_1
 10
-9.143145616319448
 20
33.1889474826389
 30
0.0
  0
VERTEX
  5
48A
  8
LAYER_1
 10
-9.05328030056424
 20
33.22157253689237
 30
0.0
  0
VERTEX
  5
48B
  8
LAYER_1
 10
-8.97488715277778
 20
33.26473958333334
 30
0.0
  0
VERTEX
  5
48C
  8
LAYER_1
 10
-8.91013658311632
 20
33.31700168185765
 30
0.0
  0
VERTEX
  5
48D
  8
LAYER_1
 10
-8.86119900173611
 20
33.37691189236112
 30
0.0
  0
VERTEX
  5
48E
  8
LAYER_1
 10
-8.830244818793403
 20
33.44302327473959
 30
0.0
  0
VERTEX
  5
48F
  8
LAYER_1
 10
-8.819444444444443
 20
33.51388888888889
 30
0.0
  0
VERTEX
  5
490
  8
LAYER_1
 10
-8.830244818793403
 20
33.58475450303818
 30
0.0
  0
VERTEX
  5
491
  8
LAYER_1
 10
-8.86119900173611
 20
33.65086588541666
 30
0.0
  0
VERTEX
  5
492
  8
LAYER_1
 10
-8.91013658311632
 20
33.71077609592013
 30
0.0
  0
VERTEX
  5
493
  8
LAYER_1
 10
-8.97488715277778
 20
33.76303819444444
 30
0.0
  0
VERTEX
  5
494
  8
LAYER_1
 10
-9.05328030056424
 20
33.80620524088542
 30
0.0
  0
VERTEX
  5
495
  8
LAYER_1
 10
-9.143145616319448
 20
33.83883029513889
 30
0.0
  0
VERTEX
  5
496
  8
LAYER_1
 10
-9.242312689887155
 20
33.85946641710071
 30
0.0
  0
VERTEX
  5
497
  8
LAYER_1
 10
-9.348611111111111
 20
33.86666666666667
 30
0.0
  0
VERTEX
  5
498
  8
LAYER_1
 10
-9.454909532335067
 20
33.85946641710071
 30
0.0
  0
VERTEX
  5
499
  8
LAYER_1
 10
-9.554076605902775
 20
33.83883029513889
 30
0.0
  0
VERTEX
  5
49A
  8
LAYER_1
 10
-9.643941921657984
 20
33.80620524088542
 30
0.0
  0
VERTEX
  5
49B
  8
LAYER_1
 10
-9.722335069444442
 20
33.76303819444444
 30
0.0
  0
VERTEX
  5
49C
  8
LAYER_1
 10
-9.787085639105904
 20
33.71077609592013
 30
0.0
  0
VERTEX
  5
49D
  8
LAYER_1
 10
-9.836023220486112
 20
33.65086588541666
 30
0.0
  0
VERTEX
  5
49E
  8
LAYER_1
 10
-9.86697740342882
 20
33.58475450303818
 30
0.0
  0
VERTEX
  5
49F
  8
LAYER_1
 10
-9.87777777777778
 20
33.51388888888889
 30
0.0
  0
VERTEX
  5
4A0
  8
LAYER_1
 10
-9.86697740342882
 20
33.44302327473959
 30
0.0
  0
VERTEX
  5
4A1
  8
LAYER_1
 10
-9.836023220486112
 20
33.37691189236112
 30
0.0
  0
VERTEX
  5
4A2
  8
LAYER_1
 10
-9.787085639105904
 20
33.31700168185765
 30
0.0
  0
VERTEX
  5
4A3
  8
LAYER_1
 10
-9.722335069444442
 20
33.26473958333334
 30
0.0
  0
VERTEX
  5
4A4
  8
LAYER_1
 10
-9.643941921657984
 20
33.22157253689237
 30
0.0
  0
VERTEX
  5
4A5
  8
LAYER_1
 10
-9.554076605902775
 20
33.1889474826389
 30
0.0
  0
VERTEX
  5
4A6
  8
LAYER_1
 10
-9.454909532335067
 20
33.16831136067709
 30
0.0
  0
SEQEND
  5
4A7
  8
LAYER_1
  0
POLYLINE
  5
48
  8
LAYER_1
 66
     1
 10
0.0
 20
0.0
 30
0.0
 70
     1
  0
VERTEX
  5
4A8
  8
LAYER_1
 10
9.87777777777778
 20
34.92500000000001
 30
0.0
  0
VERTEX
  5
4A9
  8
LAYER_1
 10
9.948643391927085
 20
34.93220024956598
 30
0.0
  0
VERTEX
  5
4AA
  8
LAYER_1
 10
10.01475477430556
 20
34.95283637152779
 30
0.0
  0
VERTEX
  5
4AB
  8
LAYER_1
 10
10.07466498480903
 20
34.98546142578125
 30
0.0
  0
VERTEX
  5
4AC
  8
LAYER_1
 10
10.12692708333333
 20
35.02862847222223
 30
0.0
  0
VERTEX
  5
4AD
  8
LAYER_1
 10
10.17009412977431
 20
35.08089057074653
 30
0.0
  0
VERTEX
  5
4AE
  8
LAYER_1
 10
10.20271918402778
 20
35.14080078125001
 30
0.0
  0
VERTEX
  5
4AF
  8
LAYER_1
 10
10.22335530598958
 20
35.20691216362847
 30
0.0
  0
VERTEX
  5
4B0
  8
LAYER_1
 10
10.23055555555555
 20
35.27777777777777
 30
0.0
  0
VERTEX
  5
4B1
  8
LAYER_1
 10
10.22335530598958
 20
35.34864339192707
 30
0.0
  0
VERTEX
  5
4B2
  8
LAYER_1
 10
10.20271918402778
 20
35.41475477430554
 30
0.0
  0
VERTEX
  5
4B3
  8
LAYER_1
 10
10.17009412977431
 20
35.47466498480902
 30
0.0
  0
VERTEX
  5
4B4
  8
LAYER_1
 10
10.12692708333333
 20
35.52692708333333
 30
0.0
  0
VERTEX
  5
4B5
  8
LAYER_1
 10
10.07466498480903
 20
35.5700941297743
 30
0.0
  0
VERTEX
  5
4B6
  8
LAYER_1
 10
10.01475477430556
 20
35.60271918402778
 30
0.0
  0
VERTEX
  5
4B7
  8
LAYER_1
 10
9.948643391927085
 20
35.62335530598959
 30
0.0
  0
VERTEX
  5
4B8
  8
LAYER_1
 10
9.87777777777778
 20
35.63055555555556
 30
0.0
  0
VERTEX
  5
4B9
  8
LAYER_1
 10
9.806912163628471
 20
35.62335530598959
 30
0.0
  0
VERTEX
  5
4BA
  8
LAYER_1
 10
9.740800781249998
 20
35.60271918402778
 30
0.0
  0
VERTEX
  5
4BB
  8
LAYER_1
 10
9.680890570746527
 20
35.5700941297743
 30
0.0
  0
VERTEX
  5
4BC
  8
LAYER_1
 10
9.628628472222221
 20
35.52692708333333
 30
0.0
  0
VERTEX
  5
4BD
  8
LAYER_1
 10
9.58546142578125
 20
35.47466498480902
 30
0.0
  0
VERTEX
  5
4BE
  8
LAYER_1
 10
9.552836371527782
 20
35.41475477430554
 30
0.0
  0
VERTEX
  5
4BF
  8
LAYER_1
 10
9.532200249565978
 20
35.34864339192707
 30
0.0
  0
VERTEX
  5
4C0
  8
LAYER_1
 10
9.525000000000006
 20
35.27777777777777
 30
0.0
  0
VERTEX
  5
4C1
  8
LAYER_1
 10
9.532200249565978
 20
35.20691216362847
 30
0.0
  0
VERTEX
  5
4C2
  8
LAYER_1
 10
9.552836371527782
 20
35.14080078125001
 30
0.0
  0
VERTEX
  5
4C3
  8
LAYER_1
 10
9.58546142578125
 20
35.08089057074653
 30
0.0
  0
VERTEX
  5
4C4
  8
LAYER_1
 10
9.628628472222221
 20
35.02862847222223
 30
0.0
  0
VERTEX
  5
4C5
  8
LAYER_1
 10
9.680890570746527
 20
34.98546142578125
 30
0.0
  0
VERTEX
  5
4C6
  8
LAYER_1
 10
9.740800781249998
 20
34.95283637152779
 30
0.0
  0
VERTEX
  5
4C7
  8
LAYER_1
 10
9.806912163628471
 20
34.93220024956598
 30
0.0
  0
SEQEND
  5
4C8
  8
LAYER_1
  0
POLYLINE
  5
49
  8
LAYER_1
 66
     1
 10
0.0
 20
0.0
 30
0.0
 70
     1
  0
VERTEX
  5
4C9
  8
LAYER_1
 10
-23.10694444444444
 20
35.63055555555556
 30
0.0
  0
VERTEX
  5
4CA
  8
LAYER_1
 10
-22.94906481522799
 20
35.64295601427206
 30
0.0
  0
VERTEX
  5
4CB
  8
LAYER_1
 10
-22.79473113626512
 20
35.67926544931407
 30
0.0
  0
VERTEX
  5
4CC
  8
LAYER_1
 10
-22.64485958619339
 20
35.73814594902041
 30
0.0
  0
VERTEX
  5
4CD
  8
LAYER_1
 10
-22.50036634365035
 20
35.81825960172986
 30
0.0
  0
VERTEX
  5
4CE
  8
LAYER_1
 10
-22.36216758727356
 20
35.91826849578123
 30
0.0
  0
VERTEX
  5
4CF
  8
LAYER_1
 10
-22.23117949570059
 20
36.03683471951333
 30
0.0
  0
VERTEX
  5
4D0
  8
LAYER_1
 10
-22.10831824756901
 20
36.17262036126494
 30
0.0
  0
VERTEX
  5
4D1
  8
LAYER_1
 10
-21.99450002151636
 20
36.32428750937487
 30
0.0
  0
VERTEX
  5
4D2
  8
LAYER_1
 10
-21.89064099618021
 20
36.49049825218191
 30
0.0
  0
VERTEX
  5
4D3
  8
LAYER_1
 10
-21.79765735019814
 20
36.66991467802487
 30
0.0
  0
VERTEX
  5
4D4
  8
LAYER_1
 10
-21.71646526220768
 20
36.86119887524253
 30
0.0
  0
VERTEX
  5
4D5
  8
LAYER_1
 10
-21.64798091084641
 20
37.06301293217371
 30
0.0
  0
VERTEX
  5
4D6
  8
LAYER_1
 10
-21.5931204747519
 20
37.27401893715719
 30
0.0
  0
VERTEX
  5
4D7
  8
LAYER_1
 10
-21.55280013256169
 20
37.49287897853179
 30
0.0
  0
VERTEX
  5
4D8
  8
LAYER_1
 10
-21.52793606291335
 20
37.71825514463631
 30
0.0
  0
VERTEX
  5
4D9
  8
LAYER_1
 10
-21.51944444444445
 20
37.94880952380953
 30
0.0
  0
VERTEX
  5
4DA
  8
LAYER_1
 10
-21.52439646584156
 20
38.15881438056671
 30
0.0
  0
VERTEX
  5
4DB
  8
LAYER_1
 10
-21.5388506831233
 20
38.35069069900611
 30
0.0
  0
VERTEX
  5
4DC
  8
LAYER_1
 10
-21.56220432592526
 20
38.52385293077373
 30
0.0
  0
VERTEX
  5
4DD
  8
LAYER_1
 10
-21.59385462388305
 20
38.67771552751557
 30
0.0
  0
VERTEX
  5
4DE
  8
LAYER_1
 10
-21.63319880663226
 20
38.81169294087766
 30
0.0
  0
VERTEX
  5
4DF
  8
LAYER_1
 10
-21.67963410380849
 20
38.925199622506
 30
0.0
  0
VERTEX
  5
4E0
  8
LAYER_1
 10
-21.73255774504734
 20
39.0176500240466
 30
0.0
  0
VERTEX
  5
4E1
  8
LAYER_1
 10
-21.79136695998442
 20
39.08845859714547
 30
0.0
  0
VERTEX
  5
4E2
  8
LAYER_1
 10
-21.85545897825531
 20
39.13703979344863
 30
0.0
  0
VERTEX
  5
4E3
  8
LAYER_1
 10
-21.92423102949563
 20
39.16280806460207
 30
0.0
  0
VERTEX
  5
4E4
  8
LAYER_1
 10
-21.99708034334096
 20
39.16517786225182
 30
0.0
  0
VERTEX
  5
4E5
  8
LAYER_1
 10
-22.07340414942691
 20
39.14356363804389
 30
0.0
  0
VERTEX
  5
4E6
  8
LAYER_1
 10
-22.15259967738908
 20
39.09737984362429
 30
0.0
  0
VERTEX
  5
4E7
  8
LAYER_1
 10
-22.23406415686307
 20
39.02604093063902
 30
0.0
  0
VERTEX
  5
4E8
  8
LAYER_1
 10
-22.31719481748447
 20
38.9289613507341
 30
0.0
  0
VERTEX
  5
4E9
  8
LAYER_1
 10
-22.40138888888889
 20
38.80555555555554
 30
0.0
  0
VERTEX
  5
4EA
  8
LAYER_1
 10
-22.47810302060596
 20
38.70541114607416
 30
0.0
  0
VERTEX
  5
4EB
  8
LAYER_1
 10
-22.57224176032064
 20
38.62287365666104
 30
0.0
  0
VERTEX
  5
4EC
  8
LAYER_1
 10
-22.68197417319072
 20
38.55766140503277
 30
0.0
  0
VERTEX
  5
4ED
  8
LAYER_1
 10
-22.80546932437402
 20
38.50949270890595
 30
0.0
  0
VERTEX
  5
4EE
  8
LAYER_1
 10
-22.94089627902832
 20
38.47808588599715
 30
0.0
  0
VERTEX
  5
4EF
  8
LAYER_1
 10
-23.08642410231145
 20
38.46315925402296
 30
0.0
  0
VERTEX
  5
4F0
  8
LAYER_1
 10
-23.2402218593812
 20
38.46443113069996
 30
0.0
  0
VERTEX
  5
4F1
  8
LAYER_1
 10
-23.40045861539538
 20
38.48161983374476
 30
0.0
  0
VERTEX
  5
4F2
  8
LAYER_1
 10
-23.56530343551178
 20
38.51444368087392
 30
0.0
  0
VERTEX
  5
4F3
  8
LAYER_1
 10
-23.73292538488821
 20
38.56262098980402
 30
0.0
  0
VERTEX
  5
4F4
  8
LAYER_1
 10
-23.90149352868248
 20
38.62587007825165
 30
0.0
  0
VERTEX
  5
4F5
  8
LAYER_1
 10
-24.06917693205238
 20
38.70390926393341
 30
0.0
  0
VERTEX
  5
4F6
  8
LAYER_1
 10
-24.23414466015572
 20
38.79645686456587
 30
0.0
  0
VERTEX
  5
4F7
  8
LAYER_1
 10
-24.39456577815032
 20
38.90323119786562
 30
0.0
  0
VERTEX
  5
4F8
  8
LAYER_1
 10
-24.54860935119395
 20
39.02395058154925
 30
0.0
  0
VERTEX
  5
4F9
  8
LAYER_1
 10
-24.69444444444444
 20
39.15833333333333
 30
0.0
  0
VERTEX
  5
4FA
  8
LAYER_1
 10
-24.92278922222881
 20
39.38471695909622
 30
0.0
  0
VERTEX
  5
4FB
  8
LAYER_1
 10
-25.09566732654029
 20
39.54673771348276
 30
0.0
  0
VERTEX
  5
4FC
  8
LAYER_1
 10
-25.22079061792392
 20
39.64464661624719
 30
0.0
  0
VERTEX
  5
4FD
  8
LAYER_1
 10
-25.2678541651881
 20
39.66963756694432
 30
0.0
  0
VERTEX
  5
4FE
  8
LAYER_1
 10
-25.30587095692471
 20
39.67869468714376
 30
0.0
  0
VERTEX
  5
4FF
  8
LAYER_1
 10
-25.33580497570186
 20
39.67184935431481
 30
0.0
  0
VERTEX
  5
500
  8
LAYER_1
 10
-25.35862020408769
 20
39.64913294592674
 30
0.0
  0
VERTEX
  5
501
  8
LAYER_1
 10
-25.37528062465032
 20
39.61057683944883
 30
0.0
  0
VERTEX
  5
502
  8
LAYER_1
 10
-25.38675021995788
 20
39.55621241235036
 30
0.0
  0
VERTEX
  5
503
  8
LAYER_1
 10
-25.39797286508031
 20
39.40018410616891
 30
0.0
  0
VERTEX
  5
504
  8
LAYER_1
 10
-25.4
 20
39.1812990471366
 30
0.0
  0
VERTEX
  5
505
  8
LAYER_1
 10
-25.38531606138135
 20
38.88434091587443
 30
0.0
  0
VERTEX
  5
506
  8
LAYER_1
 10
-25.34279136295336
 20
38.58083473090269
 30
0.0
  0
VERTEX
  5
507
  8
LAYER_1
 10
-25.27471658085791
 20
38.27432755124597
 30
0.0
  0
VERTEX
  5
508
  8
LAYER_1
 10
-25.18338239123691
 20
37.96836643592884
 30
0.0
  0
VERTEX
  5
509
  8
LAYER_1
 10
-25.07107947023226
 20
37.66649844397587
 30
0.0
  0
VERTEX
  5
50A
  8
LAYER_1
 10
-24.94009849398587
 20
37.37227063441163
 30
0.0
  0
VERTEX
  5
50B
  8
LAYER_1
 10
-24.79273013863963
 20
37.0892300662607
 30
0.0
  0
VERTEX
  5
50C
  8
LAYER_1
 10
-24.63126508033546
 20
36.82092379854765
 30
0.0
  0
VERTEX
  5
50D
  8
LAYER_1
 10
-24.45799399521524
 20
36.57089889029706
 30
0.0
  0
VERTEX
  5
50E
  8
LAYER_1
 10
-24.27520755942089
 20
36.34270240053348
 30
0.0
  0
VERTEX
  5
50F
  8
LAYER_1
 10
-24.08519644909431
 20
36.13988138828149
 30
0.0
  0
VERTEX
  5
510
  8
LAYER_1
 10
-23.89025134037739
 20
35.96598291256569
 30
0.0
  0
VERTEX
  5
511
  8
LAYER_1
 10
-23.69266290941204
 20
35.82455403241062
 30
0.0
  0
VERTEX
  5
512
  8
LAYER_1
 10
-23.59359328438055
 20
35.76712414661353
 30
0.0
  0
VERTEX
  5
513
  8
LAYER_1
 10
-23.49472183234016
 20
35.71914180684085
 30
0.0
  0
VERTEX
  5
514
  8
LAYER_1
 10
-23.39633488780862
 20
35.68105039547064
 30
0.0
  0
VERTEX
  5
515
  8
LAYER_1
 10
-23.29871878530366
 20
35.65329329488098
 30
0.0
  0
VERTEX
  5
516
  8
LAYER_1
 10
-23.20215985934302
 20
35.63631388744993
 30
0.0
  0
SEQEND
  5
517
  8
LAYER_1
  0
POLYLINE
  5
4A
  8
LAYER_1
 66
     1
 10
0.0
 20
0.0
 30
0.0
 70
     1
  0
VERTEX
  5
518
  8
LAYER_1
 10
8.098637717216704
 20
39.85302909677651
 30
0.0
  0
VERTEX
  5
519
  8
LAYER_1
 10
8.372330720977509
 20
40.05497939912635
 30
0.0
  0
VERTEX
  5
51A
  8
LAYER_1
 10
8.631859271461797
 20
40.26138087678635
 30
0.0
  0
VERTEX
  5
51B
  8
LAYER_1
 10
8.878109985084881
 20
40.4734795084054
 30
0.0
  0
VERTEX
  5
51C
  8
LAYER_1
 10
9.111969478262077
 20
40.6925212726324
 30
0.0
  0
VERTEX
  5
51D
  8
LAYER_1
 10
9.334324367408692
 20
40.91975214811628
 30
0.0
  0
VERTEX
  5
51E
  8
LAYER_1
 10
9.546061268940042
 20
41.15641811350592
 30
0.0
  0
VERTEX
  5
51F
  8
LAYER_1
 10
9.748066799271438
 20
41.40376514745024
 30
0.0
  0
VERTEX
  5
520
  8
LAYER_1
 10
9.941227574818189
 20
41.66303922859815
 30
0.0
  0
VERTEX
  5
521
  8
LAYER_1
 10
10.12643021199561
 20
41.93548633559855
 30
0.0
  0
VERTEX
  5
522
  8
LAYER_1
 10
10.30456132721901
 20
42.22235244710035
 30
0.0
  0
VERTEX
  5
523
  8
LAYER_1
 10
10.47650753690371
 20
42.52488354175246
 30
0.0
  0
VERTEX
  5
524
  8
LAYER_1
 10
10.64315545746502
 20
42.84432559820377
 30
0.0
  0
VERTEX
  5
525
  8
LAYER_1
 10
10.80539170531824
 20
43.1819245951032
 30
0.0
  0
VERTEX
  5
526
  8
LAYER_1
 10
10.96410289687869
 20
43.53892651109965
 30
0.0
  0
VERTEX
  5
527
  8
LAYER_1
 10
11.12017564856169
 20
43.91657732484202
 30
0.0
  0
VERTEX
  5
528
  8
LAYER_1
 10
11.27449657678254
 20
44.31612301497924
 30
0.0
  0
VERTEX
  5
529
  8
LAYER_1
 10
11.40571383324709
 20
44.68728580146482
 30
0.0
  0
VERTEX
  5
52A
  8
LAYER_1
 10
11.52484623588847
 20
45.06497592224561
 30
0.0
  0
VERTEX
  5
52B
  8
LAYER_1
 10
11.63148762865843
 20
45.44498860164153
 30
0.0
  0
VERTEX
  5
52C
  8
LAYER_1
 10
11.72523185550871
 20
45.82311906397249
 30
0.0
  0
VERTEX
  5
52D
  8
LAYER_1
 10
11.80567276039106
 20
46.19516253355845
 30
0.0
  0
VERTEX
  5
52E
  8
LAYER_1
 10
11.87240418725721
 20
46.55691423471933
 30
0.0
  0
VERTEX
  5
52F
  8
LAYER_1
 10
11.92501998005892
 20
46.90416939177506
 30
0.0
  0
VERTEX
  5
530
  8
LAYER_1
 10
11.96311398274791
 20
47.23272322904556
 30
0.0
  0
VERTEX
  5
531
  8
LAYER_1
 10
11.98628003927595
 20
47.53837097085077
 30
0.0
  0
VERTEX
  5
532
  8
LAYER_1
 10
11.99411199359477
 20
47.81690784151063
 30
0.0
  0
VERTEX
  5
533
  8
LAYER_1
 10
11.98620368965612
 20
48.06412906534506
 30
0.0
  0
VERTEX
  5
534
  8
LAYER_1
 10
11.96214897141173
 20
48.27582986667399
 30
0.0
  0
VERTEX
  5
535
  8
LAYER_1
 10
11.92154168281336
 20
48.44780546981735
 30
0.0
  0
VERTEX
  5
536
  8
LAYER_1
 10
11.89490390086635
 20
48.51758232966942
 30
0.0
  0
VERTEX
  5
537
  8
LAYER_1
 10
11.86397566781274
 20
48.57585109909508
 30
0.0
  0
VERTEX
  5
538
  8
LAYER_1
 10
11.82870621414651
 20
48.62208618113429
 30
0.0
  0
VERTEX
  5
539
  8
LAYER_1
 10
11.78904477036163
 20
48.65576197882709
 30
0.0
  0
VERTEX
  5
53A
  8
LAYER_1
 10
11.74494056695205
 20
48.67635289521344
 30
0.0
  0
VERTEX
  5
53B
  8
LAYER_1
 10
11.69634283441175
 20
48.68333333333334
 30
0.0
  0
VERTEX
  5
53C
  8
LAYER_1
 10
11.62275288702585
 20
48.66818658150486
 30
0.0
  0
VERTEX
  5
53D
  8
LAYER_1
 10
11.52760150842581
 20
48.62477555592945
 30
0.0
  0
VERTEX
  5
53E
  8
LAYER_1
 10
11.41486602274041
 20
48.55614410147217
 30
0.0
  0
VERTEX
  5
53F
  8
LAYER_1
 10
11.2885237540984
 20
48.46533606299808
 30
0.0
  0
VERTEX
  5
540
  8
LAYER_1
 10
11.15255202662856
 20
48.35539528537222
 30
0.0
  0
VERTEX
  5
541
  8
LAYER_1
 10
11.01092816445966
 20
48.22936561345965
 30
0.0
  0
VERTEX
  5
542
  8
LAYER_1
 10
10.86762949172049
 20
48.09029089212542
 30
0.0
  0
VERTEX
  5
543
  8
LAYER_1
 10
10.72663333253979
 20
47.94121496623458
 30
0.0
  0
VERTEX
  5
544
  8
LAYER_1
 10
10.56094725984688
 20
47.77410414977096
 30
0.0
  0
VERTEX
  5
545
  8
LAYER_1
 10
10.34688658618032
 20
47.58334091430704
 30
0.0
  0
VERTEX
  5
546
  8
LAYER_1
 10
10.09339024508282
 20
47.37559334109091
 30
0.0
  0
VERTEX
  5
547
  8
LAYER_1
 10
9.809397170097096
 20
47.1575295113707
 30
0.0
  0
VERTEX
  5
548
  8
LAYER_1
 10
9.503846294765857
 20
46.93581750639449
 30
0.0
  0
VERTEX
  5
549
  8
LAYER_1
 10
9.185676552631817
 20
46.7171254074104
 30
0.0
  0
VERTEX
  5
54A
  8
LAYER_1
 10
8.863826877237688
 20
46.50812129566653
 30
0.0
  0
VERTEX
  5
54B
  8
LAYER_1
 10
8.547236202126186
 20
46.31547325241098
 30
0.0
  0
VERTEX
  5
54C
  8
LAYER_1
 10
8.27052383543754
 20
46.14816124345067
 30
0.0
  0
VERTEX
  5
54D
  8
LAYER_1
 10
8.013720337153876
 20
45.98209740621542
 30
0.0
  0
VERTEX
  5
54E
  8
LAYER_1
 10
7.776541952732861
 20
45.81692992992592
 30
0.0
  0
VERTEX
  5
54F
  8
LAYER_1
 10
7.558704927632164
 20
45.65230700380285
 30
0.0
  0
VERTEX
  5
550
  8
LAYER_1
 10
7.359925507309454
 20
45.4878768170669
 30
0.0
  0
VERTEX
  5
551
  8
LAYER_1
 10
7.179919937222399
 20
45.32328755893876
 30
0.0
  0
VERTEX
  5
552
  8
LAYER_1
 10
7.018404462828668
 20
45.1581874186391
 30
0.0
  0
VERTEX
  5
553
  8
LAYER_1
 10
6.87509532958593
 20
44.99222458538861
 30
0.0
  0
VERTEX
  5
554
  8
LAYER_1
 10
6.749708782951855
 20
44.82504724840798
 30
0.0
  0
VERTEX
  5
555
  8
LAYER_1
 10
6.641961068384107
 20
44.65630359691789
 30
0.0
  0
VERTEX
  5
556
  8
LAYER_1
 10
6.551568431340359
 20
44.48564182013903
 30
0.0
  0
VERTEX
  5
557
  8
LAYER_1
 10
6.478247117278277
 20
44.31271010729208
 30
0.0
  0
VERTEX
  5
558
  8
LAYER_1
 10
6.421713371655532
 20
44.13715664759772
 30
0.0
  0
VERTEX
  5
559
  8
LAYER_1
 10
6.381683439929789
 20
43.95862963027664
 30
0.0
  0
VERTEX
  5
55A
  8
LAYER_1
 10
6.357873567558721
 20
43.77677724454952
 30
0.0
  0
VERTEX
  5
55B
  8
LAYER_1
 10
6.349999999999994
 20
43.59124767963706
 30
0.0
  0
VERTEX
  5
55C
  8
LAYER_1
 10
6.354804691540412
 20
43.4543755347971
 30
0.0
  0
VERTEX
  5
55D
  8
LAYER_1
 10
6.370178947252636
 20
43.33835556114997
 30
0.0
  0
VERTEX
  5
55E
  8
LAYER_1
 10
6.397563038773121
 20
43.24352213141846
 30
0.0
  0
VERTEX
  5
55F
  8
LAYER_1
 10
6.438397237738323
 20
43.17020961832534
 30
0.0
  0
VERTEX
  5
560
  8
LAYER_1
 10
6.494121815784696
 20
43.11875239459341
 30
0.0
  0
VERTEX
  5
561
  8
LAYER_1
 10
6.566177044548696
 20
43.08948483294542
 30
0.0
  0
VERTEX
  5
562
  8
LAYER_1
 10
6.656003195666777
 20
43.08274130610416
 30
0.0
  0
VERTEX
  5
563
  8
LAYER_1
 10
6.765040540775395
 20
43.09885618679242
 30
0.0
  0
VERTEX
  5
564
  8
LAYER_1
 10
6.894729351511005
 20
43.13816384773297
 30
0.0
  0
VERTEX
  5
565
  8
LAYER_1
 10
7.046509899510061
 20
43.20099866164859
 30
0.0
  0
VERTEX
  5
566
  8
LAYER_1
 10
7.22182245640902
 20
43.28769500126207
 30
0.0
  0
VERTEX
  5
567
  8
LAYER_1
 10
7.422107293844336
 20
43.39858723929616
 30
0.0
  0
VERTEX
  5
568
  8
LAYER_1
 10
7.903354896869859
 20
43.69429690151736
 30
0.0
  0
VERTEX
  5
569
  8
LAYER_1
 10
8.501774881678273
 20
44.09080263009443
 30
0.0
  0
VERTEX
  5
56A
  8
LAYER_1
 10
9.125416783089126
 20
44.49974755836321
 30
0.0
  0
VERTEX
  5
56B
  8
LAYER_1
 10
9.675872933992986
 20
44.83560246500836
 30
0.0
  0
VERTEX
  5
56C
  8
LAYER_1
 10
9.90502526048294
 20
44.96526910944083
 30
0.0
  0
VERTEX
  5
56D
  8
LAYER_1
 10
10.09352383831992
 20
45.06364078752989
 30
0.0
  0
VERTEX
  5
56E
  8
LAYER_1
 10
10.23391623049519
 20
45.12637667896303
 30
0.0
  0
VERTEX
  5
56F
  8
LAYER_1
 10
10.31874999999999
 20
45.14913596342777
 30
0.0
  0
VERTEX
  5
570
  8
LAYER_1
 10
10.37794954928122
 20
45.14705892160689
 30
0.0
  0
VERTEX
  5
571
  8
LAYER_1
 10
10.43002745415832
 20
45.1378229849154
 30
0.0
  0
VERTEX
  5
572
  8
LAYER_1
 10
10.47501166714981
 20
45.12148988417834
 30
0.0
  0
VERTEX
  5
573
  8
LAYER_1
 10
10.51293014077422
 20
45.09812135022073
 30
0.0
  0
VERTEX
  5
574
  8
LAYER_1
 10
10.54381082755008
 20
45.0677791138676
 30
0.0
  0
VERTEX
  5
575
  8
LAYER_1
 10
10.56768167999592
 20
45.03052490594398
 30
0.0
  0
VERTEX
  5
576
  8
LAYER_1
 10
10.58457065063027
 20
44.98642045727491
 30
0.0
  0
VERTEX
  5
577
  8
LAYER_1
 10
10.59450569197164
 20
44.9355274986854
 30
0.0
  0
VERTEX
  5
578
  8
LAYER_1
 10
10.59362579684959
 20
44.81362297504521
 30
0.0
  0
VERTEX
  5
579
  8
LAYER_1
 10
10.565265614778
 20
44.66530518162364
 30
0.0
  0
VERTEX
  5
57A
  8
LAYER_1
 10
10.50964876590507
 20
44.49106796502093
 30
0.0
  0
VERTEX
  5
57B
  8
LAYER_1
 10
10.42699887037902
 20
44.2914051718373
 30
0.0
  0
VERTEX
  5
57C
  8
LAYER_1
 10
10.31753954834807
 20
44.066810648673
 30
0.0
  0
VERTEX
  5
57D
  8
LAYER_1
 10
10.18149441996044
 20
43.81777824212824
 30
0.0
  0
VERTEX
  5
57E
  8
LAYER_1
 10
10.01908710536434
 20
43.54480179880328
 30
0.0
  0
VERTEX
  5
57F
  8
LAYER_1
 10
9.830541224707996
 20
43.24837516529833
 30
0.0
  0
VERTEX
  5
580
  8
LAYER_1
 10
9.616080398139616
 20
42.92899218821362
 30
0.0
  0
VERTEX
  5
581
  8
LAYER_1
 10
9.375928245807419
 20
42.5871467141494
 30
0.0
  0
VERTEX
  5
582
  8
LAYER_1
 10
8.819444444444443
 20
41.83804366148331
 30
0.0
  0
VERTEX
  5
583
  8
LAYER_1
 10
7.055555555555557
 20
39.53669317237569
 30
0.0
  0
VERTEX
  5
584
  8
LAYER_1
 10
7.055555555555557
 20
39.32349112854604
 30
0.0
  0
VERTEX
  5
585
  8
LAYER_1
 10
7.060967053586636
 20
39.30562605834788
 30
0.0
  0
VERTEX
  5
586
  8
LAYER_1
 10
7.076845025456649
 20
39.29582277487054
 30
0.0
  0
VERTEX
  5
587
  8
LAYER_1
 10
7.137861257374132
 20
39.29931560154193
 30
0.0
  0
VERTEX
  5
588
  8
LAYER_1
 10
7.234325984629318
 20
39.33179767548735
 30
0.0
  0
VERTEX
  5
589
  8
LAYER_1
 10
7.361960940543518
 20
39.39109706363401
 30
0.0
  0
VERTEX
  5
58A
  8
LAYER_1
 10
7.516487858438046
 20
39.47504183290907
 30
0.0
  0
VERTEX
  5
58B
  8
LAYER_1
 10
7.693628471634211
 20
39.58146005023972
 30
0.0
  0
SEQEND
  5
58C
  8
LAYER_1
  0
POLYLINE
  5
4B
  8
LAYER_1
 66
     1
 10
0.0
 20
0.0
 30
0.0
 70
     1
  0
VERTEX
  5
58D
  8
LAYER_1
 10
15.58964851016199
 20
52.5638888888889
 30
0.0
  0
VERTEX
  5
58E
  8
LAYER_1
 10
15.65600417845778
 20
52.56820547462932
 30
0.0
  0
VERTEX
  5
58F
  8
LAYER_1
 10
15.72387268484439
 20
52.58091831352927
 30
0.0
  0
VERTEX
  5
590
  8
LAYER_1
 10
15.86319878731143
 20
52.63011124087963
 30
0.0
  0
VERTEX
  5
591
  8
LAYER_1
 10
16.00572796840574
 20
52.70862465108382
 30
0.0
  0
VERTEX
  5
592
  8
LAYER_1
 10
16.14956137896995
 20
52.81361552428568
 30
0.0
  0
VERTEX
  5
593
  8
LAYER_1
 10
16.2928001698467
 20
52.94224084062908
 30
0.0
  0
VERTEX
  5
594
  8
LAYER_1
 10
16.43354549187861
 20
53.09165758025787
 30
0.0
  0
VERTEX
  5
595
  8
LAYER_1
 10
16.56989849590833
 20
53.25902272331589
 30
0.0
  0
VERTEX
  5
596
  8
LAYER_1
 10
16.69996033277847
 20
53.44149324994699
 30
0.0
  0
VERTEX
  5
597
  8
LAYER_1
 10
16.82183215333168
 20
53.63622614029502
 30
0.0
  0
VERTEX
  5
598
  8
LAYER_1
 10
16.93361510841059
 20
53.84037837450385
 30
0.0
  0
VERTEX
  5
599
  8
LAYER_1
 10
17.03341034885784
 20
54.05110693271732
 30
0.0
  0
VERTEX
  5
59A
  8
LAYER_1
 10
17.11931902551603
 20
54.26556879507926
 30
0.0
  0
VERTEX
  5
59B
  8
LAYER_1
 10
17.18944228922783
 20
54.48092094173354
 30
0.0
  0
VERTEX
  5
59C
  8
LAYER_1
 10
17.24188129083585
 20
54.69432035282401
 30
0.0
  0
VERTEX
  5
59D
  8
LAYER_1
 10
17.27473718118274
 20
54.90292400849452
 30
0.0
  0
VERTEX
  5
59E
  8
LAYER_1
 10
17.28611111111111
 20
55.10388888888892
 30
0.0
  0
VERTEX
  5
59F
  8
LAYER_1
 10
17.28142578125
 20
55.3997996238426
 30
0.0
  0
VERTEX
  5
5A0
  8
LAYER_1
 10
17.26626736111111
 20
55.63085069444445
 30
0.0
  0
VERTEX
  5
5A1
  8
LAYER_1
 10
17.23898220486111
 20
55.79979817708333
 30
0.0
  0
VERTEX
  5
5A2
  8
LAYER_1
 10
17.22027533637153
 20
55.86184434678819
 30
0.0
  0
VERTEX
  5
5A3
  8
LAYER_1
 10
17.19791666666667
 20
55.90939814814814
 30
0.0
  0
VERTEX
  5
5A4
  8
LAYER_1
 10
17.17169949001736
 20
55.9428040907118
 30
0.0
  0
VERTEX
  5
5A5
  8
LAYER_1
 10
17.14141710069445
 20
55.96240668402778
 30
0.0
  0
VERTEX
  5
5A6
  8
LAYER_1
 10
17.10686279296876
 20
55.96855043764468
 30
0.0
  0
VERTEX
  5
5A7
  8
LAYER_1
 10
17.06782986111111
 20
55.96157986111112
 30
0.0
  0
VERTEX
  5
5A8
  8
LAYER_1
 10
17.02411159939236
 20
55.94183946397571
 30
0.0
  0
VERTEX
  5
5A9
  8
LAYER_1
 10
16.97550130208334
 20
55.90967375578705
 30
0.0
  0
VERTEX
  5
5AA
  8
LAYER_1
 10
16.86277777777778
 20
55.80944444444447
 30
0.0
  0
VERTEX
  5
5AB
  8
LAYER_1
 10
16.73631733680953
 20
55.69722757789634
 30
0.0
  0
VERTEX
  5
5AC
  8
LAYER_1
 10
16.60044163077606
 20
55.60339311236199
 30
0.0
  0
VERTEX
  5
5AD
  8
LAYER_1
 10
16.45606577324832
 20
55.52782193727055
 30
0.0
  0
VERTEX
  5
5AE
  8
LAYER_1
 10
16.30410487779729
 20
55.47039494205115
 30
0.0
  0
VERTEX
  5
5AF
  8
LAYER_1
 10
16.14547405799395
 20
55.43099301613294
 30
0.0
  0
VERTEX
  5
5B0
  8
LAYER_1
 10
15.98108842740929
 20
55.40949704894507
 30
0.0
  0
VERTEX
  5
5B1
  8
LAYER_1
 10
15.81186309961427
 20
55.40578792991667
 30
0.0
  0
VERTEX
  5
5B2
  8
LAYER_1
 10
15.63871318817989
 20
55.41974654847687
 30
0.0
  0
VERTEX
  5
5B3
  8
LAYER_1
 10
15.4625538066771
 20
55.4512537940548
 30
0.0
  0
VERTEX
  5
5B4
  8
LAYER_1
 10
15.2843000686769
 20
55.50019055607962
 30
0.0
  0
VERTEX
  5
5B5
  8
LAYER_1
 10
15.10486708775026
 20
55.56643772398044
 30
0.0
  0
VERTEX
  5
5B6
  8
LAYER_1
 10
14.92516997746815
 20
55.64987618718644
 30
0.0
  0
VERTEX
  5
5B7
  8
LAYER_1
 10
14.74612385140157
 20
55.75038683512672
 30
0.0
  0
VERTEX
  5
5B8
  8
LAYER_1
 10
14.56864382312147
 20
55.86785055723043
 30
0.0
  0
VERTEX
  5
5B9
  8
LAYER_1
 10
14.39364500619885
 20
56.00214824292672
 30
0.0
  0
VERTEX
  5
5BA
  8
LAYER_1
 10
14.22204251420467
 20
56.15316078164471
 30
0.0
  0
VERTEX
  5
5BB
  8
LAYER_1
 10
13.40555555555555
 20
56.92021045217837
 30
0.0
  0
VERTEX
  5
5BC
  8
LAYER_1
 10
13.40555555555555
 20
56.17612649544799
 30
0.0
  0
VERTEX
  5
5BD
  8
LAYER_1
 10
13.41938951676411
 20
55.8702491723929
 30
0.0
  0
VERTEX
  5
5BE
  8
LAYER_1
 10
13.45947744089522
 20
55.55868383196072
 30
0.0
  0
VERTEX
  5
5BF
  8
LAYER_1
 10
13.52369838870704
 20
55.24493826280785
 30
0.0
  0
VERTEX
  5
5C0
  8
LAYER_1
 10
13.6099314209577
 20
54.93252025359067
 30
0.0
  0
VERTEX
  5
5C1
  8
LAYER_1
 10
13.71605559840537
 20
54.62493759296553
 30
0.0
  0
VERTEX
  5
5C2
  8
LAYER_1
 10
13.83994998180818
 20
54.32569806958883
 30
0.0
  0
VERTEX
  5
5C3
  8
LAYER_1
 10
13.97949363192428
 20
54.03830947211695
 30
0.0
  0
VERTEX
  5
5C4
  8
LAYER_1
 10
14.13256560951183
 20
53.76627958920625
 30
0.0
  0
VERTEX
  5
5C5
  8
LAYER_1
 10
14.29704497532897
 20
53.51311620951312
 30
0.0
  0
VERTEX
  5
5C6
  8
LAYER_1
 10
14.47081079013385
 20
53.28232712169394
 30
0.0
  0
VERTEX
  5
5C7
  8
LAYER_1
 10
14.65174211468462
 20
53.07742011440509
 30
0.0
  0
VERTEX
  5
5C8
  8
LAYER_1
 10
14.83771800973942
 20
52.90190297630294
 30
0.0
  0
VERTEX
  5
5C9
  8
LAYER_1
 10
15.02661753605642
 20
52.75928349604386
 30
0.0
  0
VERTEX
  5
5CA
  8
LAYER_1
 10
15.12150086742515
 20
52.7014065615606
 30
0.0
  0
VERTEX
  5
5CB
  8
LAYER_1
 10
15.21631975439374
 20
52.65306946228424
 30
0.0
  0
VERTEX
  5
5CC
  8
LAYER_1
 10
15.31080907955695
 20
52.61471067179685
 30
0.0
  0
VERTEX
  5
5CD
  8
LAYER_1
 10
15.40470372550955
 20
52.58676866368046
 30
0.0
  0
VERTEX
  5
5CE
  8
LAYER_1
 10
15.49773857484631
 20
52.56968191151713
 30
0.0
  0
SEQEND
  5
5CF
  8
LAYER_1
  0
POLYLINE
  5
4C
  8
LAYER_1
 66
     1
 10
0.0
 20
0.0
 30
0.0
 70
     1
  0
VERTEX
  5
5D0
  8
LAYER_1
 10
2.998611111111117
 20
59.26666666666665
 30
0.0
  0
VERTEX
  5
5D1
  8
LAYER_1
 10
3.104909532335073
 20
59.27746704101561
 30
0.0
  0
VERTEX
  5
5D2
  8
LAYER_1
 10
3.204076605902778
 20
59.30842122395832
 30
0.0
  0
VERTEX
  5
5D3
  8
LAYER_1
 10
3.293941921657985
 20
59.35735880533852
 30
0.0
  0
VERTEX
  5
5D4
  8
LAYER_1
 10
3.372335069444441
 20
59.42210937499998
 30
0.0
  0
VERTEX
  5
5D5
  8
LAYER_1
 10
3.437085639105898
 20
59.50050252278645
 30
0.0
  0
VERTEX
  5
5D6
  8
LAYER_1
 10
3.486023220486105
 20
59.59036783854165
 30
0.0
  0
VERTEX
  5
5D7
  8
LAYER_1
 10
3.516977403428813
 20
59.68953491210936
 30
0.0
  0
VERTEX
  5
5D8
  8
LAYER_1
 10
3.527777777777771
 20
59.79583333333332
 30
0.0
  0
VERTEX
  5
5D9
  8
LAYER_1
 10
3.516977403428813
 20
59.90213175455729
 30
0.0
  0
VERTEX
  5
5DA
  8
LAYER_1
 10
3.486023220486105
 20
60.001298828125
 30
0.0
  0
VERTEX
  5
5DB
  8
LAYER_1
 10
3.437085639105898
 20
60.09116414388021
 30
0.0
  0
VERTEX
  5
5DC
  8
LAYER_1
 10
3.372335069444441
 20
60.16955729166666
 30
0.0
  0
VERTEX
  5
5DD
  8
LAYER_1
 10
3.293941921657985
 20
60.23430786132812
 30
0.0
  0
VERTEX
  5
5DE
  8
LAYER_1
 10
3.204076605902778
 20
60.28324544270832
 30
0.0
  0
VERTEX
  5
5DF
  8
LAYER_1
 10
3.104909532335073
 20
60.31419962565103
 30
0.0
  0
VERTEX
  5
5E0
  8
LAYER_1
 10
2.998611111111117
 20
60.32499999999999
 30
0.0
  0
VERTEX
  5
5E1
  8
LAYER_1
 10
2.892312689887157
 20
60.31419962565103
 30
0.0
  0
VERTEX
  5
5E2
  8
LAYER_1
 10
2.793145616319448
 20
60.28324544270832
 30
0.0
  0
VERTEX
  5
5E3
  8
LAYER_1
 10
2.703280300564239
 20
60.23430786132812
 30
0.0
  0
VERTEX
  5
5E4
  8
LAYER_1
 10
2.624887152777781
 20
60.16955729166666
 30
0.0
  0
VERTEX
  5
5E5
  8
LAYER_1
 10
2.560136583116323
 20
60.09116414388021
 30
0.0
  0
VERTEX
  5
5E6
  8
LAYER_1
 10
2.511199001736115
 20
60.001298828125
 30
0.0
  0
VERTEX
  5
5E7
  8
LAYER_1
 10
2.480244818793407
 20
59.90213175455729
 30
0.0
  0
VERTEX
  5
5E8
  8
LAYER_1
 10
2.469444444444449
 20
59.79583333333332
 30
0.0
  0
VERTEX
  5
5E9
  8
LAYER_1
 10
2.480244818793407
 20
59.68953491210936
 30
0.0
  0
VERTEX
  5
5EA
  8
LAYER_1
 10
2.511199001736115
 20
59.59036783854165
 30
0.0
  0
VERTEX
  5
5EB
  8
LAYER_1
 10
2.560136583116323
 20
59.50050252278645
 30
0.0
  0
VERTEX
  5
5EC
  8
LAYER_1
 10
2.624887152777781
 20
59.42210937499998
 30
0.0
  0
VERTEX
  5
5ED
  8
LAYER_1
 10
2.703280300564239
 20
59.35735880533852
 30
0.0
  0
VERTEX
  5
5EE
  8
LAYER_1
 10
2.793145616319448
 20
59.30842122395832
 30
0.0
  0
VERTEX
  5
5EF
  8
LAYER_1
 10
2.892312689887157
 20
59.27746704101561
 30
0.0
  0
SEQEND
  5
5F0
  8
LAYER_1
  0
POLYLINE
  5
4D
  8
LAYER_1
 66
     1
 10
0.0
 20
0.0
 30
0.0
 70
     1
  0
VERTEX
  5
5F1
  8
LAYER_1
 10
-14.04811507936508
 20
74.11118421052632
 30
0.0
  0
VERTEX
  5
5F2
  8
LAYER_1
 10
-13.96030622187844
 20
74.1149687331417
 30
0.0
  0
VERTEX
  5
5F3
  8
LAYER_1
 10
-13.86332761256339
 20
74.14416439548104
 30
0.0
  0
VERTEX
  5
5F4
  8
LAYER_1
 10
-13.75886197096318
 20
74.19668240726942
 30
0.0
  0
VERTEX
  5
5F5
  8
LAYER_1
 10
-13.64859201662103
 20
74.27043397823196
 30
0.0
  0
VERTEX
  5
5F6
  8
LAYER_1
 10
-13.5342004690802
 20
74.36333031809373
 30
0.0
  0
VERTEX
  5
5F7
  8
LAYER_1
 10
-13.41737004788392
 20
74.47328263657982
 30
0.0
  0
VERTEX
  5
5F8
  8
LAYER_1
 10
-13.29978347257542
 20
74.59820214341532
 30
0.0
  0
VERTEX
  5
5F9
  8
LAYER_1
 10
-13.18312346269795
 20
74.73600004832534
 30
0.0
  0
VERTEX
  5
5FA
  8
LAYER_1
 10
-13.06907273779474
 20
74.88458756103493
 30
0.0
  0
VERTEX
  5
5FB
  8
LAYER_1
 10
-12.95931401740903
 20
75.04187589126923
 30
0.0
  0
VERTEX
  5
5FC
  8
LAYER_1
 10
-12.85553002108407
 20
75.2057762487533
 30
0.0
  0
VERTEX
  5
5FD
  8
LAYER_1
 10
-12.75940346836308
 20
75.37419984321224
 30
0.0
  0
VERTEX
  5
5FE
  8
LAYER_1
 10
-12.67261707878931
 20
75.54505788437112
 30
0.0
  0
VERTEX
  5
5FF
  8
LAYER_1
 10
-12.596853571906
 20
75.71626158195505
 30
0.0
  0
VERTEX
  5
600
  8
LAYER_1
 10
-12.53379566725638
 20
75.88572214568913
 30
0.0
  0
VERTEX
  5
601
  8
LAYER_1
 10
-12.48512608438369
 20
76.05135078529847
 30
0.0
  0
VERTEX
  5
602
  8
LAYER_1
 10
-12.42251977591289
 20
76.24217339949034
 30
0.0
  0
VERTEX
  5
603
  8
LAYER_1
 10
-12.33450815307057
 20
76.42151964781917
 30
0.0
  0
VERTEX
  5
604
  8
LAYER_1
 10
-12.22336995582928
 20
76.58712386760482
 30
0.0
  0
VERTEX
  5
605
  8
LAYER_1
 10
-12.09138392416154
 20
76.73672039616719
 30
0.0
  0
VERTEX
  5
606
  8
LAYER_1
 10
-11.9408287980399
 20
76.86804357082616
 30
0.0
  0
VERTEX
  5
607
  8
LAYER_1
 10
-11.77398331743688
 20
76.97882772890158
 30
0.0
  0
VERTEX
  5
608
  8
LAYER_1
 10
-11.59312622232502
 20
77.06680720771334
 30
0.0
  0
VERTEX
  5
609
  8
LAYER_1
 10
-11.40053625267684
 20
77.12971634458131
 30
0.0
  0
VERTEX
  5
60A
  8
LAYER_1
 10
-11.22338850275366
 20
77.18562022534948
 30
0.0
  0
VERTEX
  5
60B
  8
LAYER_1
 10
-11.05626872794672
 20
77.26166322246934
 30
0.0
  0
VERTEX
  5
60C
  8
LAYER_1
 10
-10.8993702291666
 20
77.35745290998172
 30
0.0
  0
VERTEX
  5
60D
  8
LAYER_1
 10
-10.75288630732387
 20
77.47259686192749
 30
0.0
  0
VERTEX
  5
60E
  8
LAYER_1
 10
-10.61701026332911
 20
77.60670265234751
 30
0.0
  0
VERTEX
  5
60F
  8
LAYER_1
 10
-10.4919353980929
 20
77.75937785528261
 30
0.0
  0
VERTEX
  5
610
  8
LAYER_1
 10
-10.37785501252581
 20
77.93023004477365
 30
0.0
  0
VERTEX
  5
611
  8
LAYER_1
 10
-10.27496240753843
 20
78.11886679486152
 30
0.0
  0
VERTEX
  5
612
  8
LAYER_1
 10
-10.18345088404132
 20
78.32489567958703
 30
0.0
  0
VERTEX
  5
613
  8
LAYER_1
 10
-10.10351374294506
 20
78.54792427299103
 30
0.0
  0
VERTEX
  5
614
  8
LAYER_1
 10
-10.03534428516024
 20
78.78756014911438
 30
0.0
  0
VERTEX
  5
615
  8
LAYER_1
 10
-9.979135811597427
 20
79.04341088199796
 30
0.0
  0
VERTEX
  5
616
  8
LAYER_1
 10
-9.935081623167196
 20
79.3150840456826
 30
0.0
  0
VERTEX
  5
617
  8
LAYER_1
 10
-9.903375020780127
 20
79.60218721420914
 30
0.0
  0
VERTEX
  5
618
  8
LAYER_1
 10
-9.884209305346795
 20
79.90432796161845
 30
0.0
  0
VERTEX
  5
619
  8
LAYER_1
 10
-9.87777777777778
 20
80.22111386195138
 30
0.0
  0
VERTEX
  5
61A
  8
LAYER_1
 10
-9.88193550685977
 20
80.48652041000824
 30
0.0
  0
VERTEX
  5
61B
  8
LAYER_1
 10
-9.894207815148725
 20
80.72477025848198
 30
0.0
  0
VERTEX
  5
61C
  8
LAYER_1
 10
-9.914293384209122
 20
80.93557731668596
 30
0.0
  0
VERTEX
  5
61D
  8
LAYER_1
 10
-9.941890895605438
 20
81.1186554939336
 30
0.0
  0
VERTEX
  5
61E
  8
LAYER_1
 10
-9.97669903090215
 20
81.27371869953822
 30
0.0
  0
VERTEX
  5
61F
  8
LAYER_1
 10
-10.01841647166373
 20
81.40048084281324
 30
0.0
  0
VERTEX
  5
620
  8
LAYER_1
 10
-10.06674189945466
 20
81.49865583307202
 30
0.0
  0
VERTEX
  5
621
  8
LAYER_1
 10
-10.12137399583942
 20
81.56795757962793
 30
0.0
  0
VERTEX
  5
622
  8
LAYER_1
 10
-10.18201144238248
 20
81.60809999179433
 30
0.0
  0
VERTEX
  5
623
  8
LAYER_1
 10
-10.21448800995228
 20
81.6171470441419
 30
0.0
  0
VERTEX
  5
624
  8
LAYER_1
 10
-10.24835292064833
 20
81.61879697888462
 30
0.0
  0
VERTEX
  5
625
  8
LAYER_1
 10
-10.32009711220143
 20
81.59976245021214
 30
0.0
  0
VERTEX
  5
626
  8
LAYER_1
 10
-10.39694269860626
 20
81.55071031509029
 30
0.0
  0
VERTEX
  5
627
  8
LAYER_1
 10
-10.4785883614273
 20
81.47135448283242
 30
0.0
  0
VERTEX
  5
628
  8
LAYER_1
 10
-10.56473278222904
 20
81.36140886275194
 30
0.0
  0
VERTEX
  5
629
  8
LAYER_1
 10
-10.65507464257593
 20
81.22058736416218
 30
0.0
  0
VERTEX
  5
62A
  8
LAYER_1
 10
-10.74931262403247
 20
81.04860389637656
 30
0.0
  0
VERTEX
  5
62B
  8
LAYER_1
 10
-10.86210357293145
 20
80.85530877718512
 30
0.0
  0
VERTEX
  5
62C
  8
LAYER_1
 10
-10.98740188306425
 20
80.69328744448681
 30
0.0
  0
VERTEX
  5
62D
  8
LAYER_1
 10
-11.05530977882293
 20
80.62370004364257
 30
0.0
  0
VERTEX
  5
62E
  8
LAYER_1
 10
-11.12702669116558
 20
80.56156580410561
 30
0.0
  0
VERTEX
  5
62F
  8
LAYER_1
 10
-11.20278001218404
 20
80.50676296410388
 30
0.0
  0
VERTEX
  5
630
  8
LAYER_1
 10
-11.28279713397015
 20
80.45916976186541
 30
0.0
  0
VERTEX
  5
631
  8
LAYER_1
 10
-11.36730544861575
 20
80.41866443561818
 30
0.0
  0
VERTEX
  5
632
  8
LAYER_1
 10
-11.45653234821268
 20
80.38512522359017
 30
0.0
  0
VERTEX
  5
633
  8
LAYER_1
 10
-11.55070522485278
 20
80.3584303640094
 30
0.0
  0
VERTEX
  5
634
  8
LAYER_1
 10
-11.65005147062789
 20
80.33845809510383
 30
0.0
  0
VERTEX
  5
635
  8
LAYER_1
 10
-11.86517363795048
 20
80.31819428223032
 30
0.0
  0
VERTEX
  5
636
  8
LAYER_1
 10
-12.10371798691517
 20
80.32335969079358
 30
0.0
  0
VERTEX
  5
637
  8
LAYER_1
 10
-12.38278818479931
 20
80.3355293712184
 30
0.0
  0
VERTEX
  5
638
  8
LAYER_1
 10
-12.49949899171144
 20
80.33307706732836
 30
0.0
  0
VERTEX
  5
639
  8
LAYER_1
 10
-12.60214940616963
 20
80.3237518608518
 30
0.0
  0
VERTEX
  5
63A
  8
LAYER_1
 10
-12.69160627984836
 20
80.30666764690002
 30
0.0
  0
VERTEX
  5
63B
  8
LAYER_1
 10
-12.76873646442214
 20
80.28093832058438
 30
0.0
  0
VERTEX
  5
63C
  8
LAYER_1
 10
-12.83440681156547
 20
80.24567777701616
 30
0.0
  0
VERTEX
  5
63D
  8
LAYER_1
 10
-12.88948417295285
 20
80.19999991130668
 30
0.0
  0
VERTEX
  5
63E
  8
LAYER_1
 10
-12.93483540025878
 20
80.14301861856728
 30
0.0
  0
VERTEX
  5
63F
  8
LAYER_1
 10
-12.97132734515777
 20
80.0738477939093
 30
0.0
  0
VERTEX
  5
640
  8
LAYER_1
 10
-12.9998268593243
 20
79.99160133244402
 30
0.0
  0
VERTEX
  5
641
  8
LAYER_1
 10
-13.02120079443289
 20
79.89539312928278
 30
0.0
  0
VERTEX
  5
642
  8
LAYER_1
 10
-13.04603933417422
 20
79.65754707831772
 30
0.0
  0
VERTEX
  5
643
  8
LAYER_1
 10
-13.05277777777778
 20
79.35322080190468
 30
0.0
  0
VERTEX
  5
644
  8
LAYER_1
 10
-13.06600108367106
 20
79.09362241313674
 30
0.0
  0
VERTEX
  5
645
  8
LAYER_1
 10
-13.10453898252086
 20
78.84226657294093
 30
0.0
  0
VERTEX
  5
646
  8
LAYER_1
 10
-13.16669344608209
 20
78.6008069657847
 30
0.0
  0
VERTEX
  5
647
  8
LAYER_1
 10
-13.25076644610965
 20
78.37089727613551
 30
0.0
  0
VERTEX
  5
648
  8
LAYER_1
 10
-13.35505995435847
 20
78.1541911884608
 30
0.0
  0
VERTEX
  5
649
  8
LAYER_1
 10
-13.47787594258346
 20
77.95234238722806
 30
0.0
  0
VERTEX
  5
64A
  8
LAYER_1
 10
-13.61751638253953
 20
77.7670045569047
 30
0.0
  0
VERTEX
  5
64B
  8
LAYER_1
 10
-13.77228324598158
 20
77.59983138195818
 30
0.0
  0
VERTEX
  5
64C
  8
LAYER_1
 10
-13.94047850466455
 20
77.45247654685596
 30
0.0
  0
VERTEX
  5
64D
  8
LAYER_1
 10
-14.12040413034333
 20
77.3265937360655
 30
0.0
  0
VERTEX
  5
64E
  8
LAYER_1
 10
-14.31036209477285
 20
77.22383663405425
 30
0.0
  0
VERTEX
  5
64F
  8
LAYER_1
 10
-14.508654369708
 20
77.14585892528964
 30
0.0
  0
VERTEX
  5
650
  8
LAYER_1
 10
-14.71358292690372
 20
77.09431429423915
 30
0.0
  0
VERTEX
  5
651
  8
LAYER_1
 10
-14.92344973811491
 20
77.07085642537022
 30
0.0
  0
VERTEX
  5
652
  8
LAYER_1
 10
-15.02970435514972
 20
77.07017680314992
 30
0.0
  0
VERTEX
  5
653
  8
LAYER_1
 10
-15.13655677509649
 20
77.07713900315031
 30
0.0
  0
VERTEX
  5
654
  8
LAYER_1
 10
-15.24379474442458
 20
77.09194973592982
 30
0.0
  0
VERTEX
  5
655
  8
LAYER_1
 10
-15.35120600960336
 20
77.11481571204686
 30
0.0
  0
VERTEX
  5
656
  8
LAYER_1
 10
-15.53226227350451
 20
77.15522155421819
 30
0.0
  0
VERTEX
  5
657
  8
LAYER_1
 10
-15.69151526640774
 20
77.17965968358058
 30
0.0
  0
VERTEX
  5
658
  8
LAYER_1
 10
-15.82909770226627
 20
77.18752941113861
 30
0.0
  0
VERTEX
  5
659
  8
LAYER_1
 10
-15.94514229503334
 20
77.17823004789682
 30
0.0
  0
VERTEX
  5
65A
  8
LAYER_1
 10
-16.03978175866215
 20
77.15116090485974
 30
0.0
  0
VERTEX
  5
65B
  8
LAYER_1
 10
-16.11314880710595
 20
77.10572129303193
 30
0.0
  0
VERTEX
  5
65C
  8
LAYER_1
 10
-16.16537615431795
 20
77.04131052341793
 30
0.0
  0
VERTEX
  5
65D
  8
LAYER_1
 10
-16.19659651425138
 20
76.95732790702229
 30
0.0
  0
VERTEX
  5
65E
  8
LAYER_1
 10
-16.20694260085945
 20
76.85317275484954
 30
0.0
  0
VERTEX
  5
65F
  8
LAYER_1
 10
-16.19654712809541
 20
76.72824437790428
 30
0.0
  0
VERTEX
  5
660
  8
LAYER_1
 10
-16.16554280991247
 20
76.58194208719101
 30
0.0
  0
VERTEX
  5
661
  8
LAYER_1
 10
-16.11406236026384
 20
76.41366519371428
 30
0.0
  0
VERTEX
  5
662
  8
LAYER_1
 10
-16.04223849310278
 20
76.22281300847865
 30
0.0
  0
VERTEX
  5
663
  8
LAYER_1
 10
-15.95020392238249
 20
76.00878484248867
 30
0.0
  0
VERTEX
  5
664
  8
LAYER_1
 10
-15.70603352607712
 20
75.5087978122638
 30
0.0
  0
VERTEX
  5
665
  8
LAYER_1
 10
-15.52907614285893
 20
75.19185532108949
 30
0.0
  0
VERTEX
  5
666
  8
LAYER_1
 10
-15.3481839883187
 20
74.91952974832472
 30
0.0
  0
VERTEX
  5
667
  8
LAYER_1
 10
-15.25552528595489
 20
74.79947694815502
 30
0.0
  0
VERTEX
  5
668
  8
LAYER_1
 10
-15.16099838774305
 20
74.68983274775862
 30
0.0
  0
VERTEX
  5
669
  8
LAYER_1
 10
-15.06430845934401
 20
74.59034860385916
 30
0.0
  0
VERTEX
  5
66A
  8
LAYER_1
 10
-14.96516066641859
 20
74.50077597318025
 30
0.0
  0
VERTEX
  5
66B
  8
LAYER_1
 10
-14.86326017462764
 20
74.42086631244555
 30
0.0
  0
VERTEX
  5
66C
  8
LAYER_1
 10
-14.75831214963195
 20
74.35037107837874
 30
0.0
  0
VERTEX
  5
66D
  8
LAYER_1
 10
-14.65002175709238
 20
74.28904172770339
 30
0.0
  0
VERTEX
  5
66E
  8
LAYER_1
 10
-14.53809416266975
 20
74.23662971714319
 30
0.0
  0
VERTEX
  5
66F
  8
LAYER_1
 10
-14.42223453202487
 20
74.19288650342172
 30
0.0
  0
VERTEX
  5
670
  8
LAYER_1
 10
-14.30214803081858
 20
74.15756354326267
 30
0.0
  0
VERTEX
  5
671
  8
LAYER_1
 10
-14.17753982471171
 20
74.13041229338965
 30
0.0
  0
SEQEND
  5
672
  8
LAYER_1
  0
POLYLINE
  5
4E
  8
LAYER_1
 66
     1
 10
0.0
 20
0.0
 30
0.0
 70
     1
  0
VERTEX
  5
673
  8
LAYER_1
 10
-19.75555555555556
 20
83.60833333333332
 30
0.0
  0
VERTEX
  5
674
  8
LAYER_1
 10
-19.68468994140625
 20
83.6155335828993
 30
0.0
  0
VERTEX
  5
675
  8
LAYER_1
 10
-19.61857855902777
 20
83.6361697048611
 30
0.0
  0
VERTEX
  5
676
  8
LAYER_1
 10
-19.5586683485243
 20
83.66879475911458
 30
0.0
  0
VERTEX
  5
677
  8
LAYER_1
 10
-19.50640624999999
 20
83.71196180555556
 30
0.0
  0
VERTEX
  5
678
  8
LAYER_1
 10
-19.46323920355902
 20
83.76422390407987
 30
0.0
  0
VERTEX
  5
679
  8
LAYER_1
 10
-19.43061414930555
 20
83.82413411458333
 30
0.0
  0
VERTEX
  5
67A
  8
LAYER_1
 10
-19.40997802734374
 20
83.89024549696181
 30
0.0
  0
VERTEX
  5
67B
  8
LAYER_1
 10
-19.40277777777777
 20
83.96111111111111
 30
0.0
  0
VERTEX
  5
67C
  8
LAYER_1
 10
-19.40997802734374
 20
84.0319767252604
 30
0.0
  0
VERTEX
  5
67D
  8
LAYER_1
 10
-19.43061414930555
 20
84.09808810763889
 30
0.0
  0
VERTEX
  5
67E
  8
LAYER_1
 10
-19.46323920355902
 20
84.15799831814235
 30
0.0
  0
VERTEX
  5
67F
  8
LAYER_1
 10
-19.50640624999999
 20
84.21026041666666
 30
0.0
  0
VERTEX
  5
680
  8
LAYER_1
 10
-19.5586683485243
 20
84.25342746310764
 30
0.0
  0
VERTEX
  5
681
  8
LAYER_1
 10
-19.61857855902777
 20
84.28605251736111
 30
0.0
  0
VERTEX
  5
682
  8
LAYER_1
 10
-19.68468994140625
 20
84.30668863932291
 30
0.0
  0
VERTEX
  5
683
  8
LAYER_1
 10
-19.75555555555556
 20
84.3138888888889
 30
0.0
  0
VERTEX
  5
684
  8
LAYER_1
 10
-19.82642116970487
 20
84.30668863932291
 30
0.0
  0
VERTEX
  5
685
  8
LAYER_1
 10
-19.89253255208334
 20
84.28605251736111
 30
0.0
  0
VERTEX
  5
686
  8
LAYER_1
 10
-19.95244276258681
 20
84.25342746310764
 30
0.0
  0
VERTEX
  5
687
  8
LAYER_1
 10
-20.00470486111112
 20
84.21026041666666
 30
0.0
  0
VERTEX
  5
688
  8
LAYER_1
 10
-20.04787190755209
 20
84.15799831814235
 30
0.0
  0
VERTEX
  5
689
  8
LAYER_1
 10
-20.08049696180556
 20
84.09808810763889
 30
0.0
  0
VERTEX
  5
68A
  8
LAYER_1
 10
-20.10113308376736
 20
84.0319767252604
 30
0.0
  0
VERTEX
  5
68B
  8
LAYER_1
 10
-20.10833333333333
 20
83.96111111111111
 30
0.0
  0
VERTEX
  5
68C
  8
LAYER_1
 10
-20.10113308376736
 20
83.89024549696181
 30
0.0
  0
VERTEX
  5
68D
  8
LAYER_1
 10
-20.08049696180556
 20
83.82413411458333
 30
0.0
  0
VERTEX
  5
68E
  8
LAYER_1
 10
-20.04787190755209
 20
83.76422390407987
 30
0.0
  0
VERTEX
  5
68F
  8
LAYER_1
 10
-20.00470486111112
 20
83.71196180555556
 30
0.0
  0
VERTEX
  5
690
  8
LAYER_1
 10
-19.95244276258681
 20
83.66879475911458
 30
0.0
  0
VERTEX
  5
691
  8
LAYER_1
 10
-19.89253255208334
 20
83.6361697048611
 30
0.0
  0
VERTEX
  5
692
  8
LAYER_1
 10
-19.82642116970487
 20
83.6155335828993
 30
0.0
  0
SEQEND
  5
693
  8
LAYER_1
  0
POLYLINE
  5
4F
  8
LAYER_1
 66
     1
 10
0.0
 20
0.0
 30
0.0
 70
     1
  0
VERTEX
  5
694
  8
LAYER_1
 10
-9.94033563224238
 20
87.61886266567456
 30
0.0
  0
VERTEX
  5
695
  8
LAYER_1
 10
-9.917851919448573
 20
87.76232851985019
 30
0.0
  0
VERTEX
  5
696
  8
LAYER_1
 10
-9.911820299782336
 20
87.88074580647982
 30
0.0
  0
VERTEX
  5
697
  8
LAYER_1
 10
-9.921906351689014
 20
87.97358289940604
 30
0.0
  0
VERTEX
  5
698
  8
LAYER_1
 10
-9.947775653613954
 20
88.04030817247141
 30
0.0
  0
VERTEX
  5
699
  8
LAYER_1
 10
-9.989093784002502
 20
88.08038999951853
 30
0.0
  0
VERTEX
  5
69A
  8
LAYER_1
 10
-10.0154416531348
 20
88.09027348761106
 30
0.0
  0
VERTEX
  5
69B
  8
LAYER_1
 10
-10.04552632130001
 20
88.09329675438997
 30
0.0
  0
VERTEX
  5
69C
  8
LAYER_1
 10
-10.11673884395181
 20
88.07849681092831
 30
0.0
  0
VERTEX
  5
69D
  8
LAYER_1
 10
-10.20239693040327
 20
88.03545854297613
 30
0.0
  0
VERTEX
  5
69E
  8
LAYER_1
 10
-10.27588221139694
 20
87.97823366886203
 30
0.0
  0
VERTEX
  5
69F
  8
LAYER_1
 10
-10.33409782785607
 20
87.90841101720704
 30
0.0
  0
VERTEX
  5
6A0
  8
LAYER_1
 10
-10.37650900143557
 20
87.82869409373626
 30
0.0
  0
VERTEX
  5
6A1
  8
LAYER_1
 10
-10.40258095379037
 20
87.74178640417479
 30
0.0
  0
VERTEX
  5
6A2
  8
LAYER_1
 10
-10.41177890657539
 20
87.65039145424771
 30
0.0
  0
VERTEX
  5
6A3
  8
LAYER_1
 10
-10.40356808144555
 20
87.5572127496801
 30
0.0
  0
VERTEX
  5
6A4
  8
LAYER_1
 10
-10.37741370005576
 20
87.46495379619711
 30
0.0
  0
VERTEX
  5
6A5
  8
LAYER_1
 10
-10.33278098406095
 20
87.37631809952381
 30
0.0
  0
VERTEX
  5
6A6
  8
LAYER_1
 10
-10.26869878030745
 20
87.28766757047457
 30
0.0
  0
VERTEX
  5
6A7
  8
LAYER_1
 10
-10.20915636249428
 20
87.23285573056768
 30
0.0
  0
VERTEX
  5
6A8
  8
LAYER_1
 10
-10.1810490592075
 20
87.21816312207028
 30
0.0
  0
VERTEX
  5
6A9
  8
LAYER_1
 10
-10.15403048547643
 20
87.21195874949169
 30
0.0
  0
VERTEX
  5
6AA
  8
LAYER_1
 10
-10.12808523565795
 20
87.21425213404295
 30
0.0
  0
VERTEX
  5
6AB
  8
LAYER_1
 10
-10.10319790410892
 20
87.22505279693515
 30
0.0
  0
VERTEX
  5
6AC
  8
LAYER_1
 10
-10.05653537324675
 20
87.27221404258663
 30
0.0
  0
VERTEX
  5
6AD
  8
LAYER_1
 10
-10.01391964774493
 20
87.35351865613464
 30
0.0
  0
VERTEX
  5
6AE
  8
LAYER_1
 10
-9.975227482458475
 20
87.46904280726777
 30
0.0
  0
SEQEND
  5
6AF
  8
LAYER_1
  0
POLYLINE
  5
50
  8
LAYER_1
 66
     1
 10
0.0
 20
0.0
 30
0.0
 70
     1
  0
VERTEX
  5
6B0
  8
LAYER_1
 10
-15.24075170245051
 20
88.05223145045579
 30
0.0
  0
VERTEX
  5
6B1
  8
LAYER_1
 10
-15.22939329682635
 20
88.17187380987565
 30
0.0
  0
VERTEX
  5
6B2
  8
LAYER_1
 10
-15.22757199532101
 20
88.30428484947558
 30
0.0
  0
VERTEX
  5
6B3
  8
LAYER_1
 10
-15.23494329316538
 20
88.44866290950498
 30
0.0
  0
VERTEX
  5
6B4
  8
LAYER_1
 10
-15.25116268559035
 20
88.60420633021322
 30
0.0
  0
VERTEX
  5
6B5
  8
LAYER_1
 10
-15.30876773510568
 20
88.94558261466393
 30
0.0
  0
VERTEX
  5
6B6
  8
LAYER_1
 10
-15.39763110571416
 20
89.32200042482299
 30
0.0
  0
VERTEX
  5
6B7
  8
LAYER_1
 10
-15.51499675926293
 20
89.72704648268564
 30
0.0
  0
VERTEX
  5
6B8
  8
LAYER_1
 10
-15.65810865759916
 20
90.1543075102471
 30
0.0
  0
VERTEX
  5
6B9
  8
LAYER_1
 10
-15.82421076256999
 20
90.59737022950264
 30
0.0
  0
VERTEX
  5
6BA
  8
LAYER_1
 10
-16.01054703602258
 20
91.04982136244749
 30
0.0
  0
VERTEX
  5
6BB
  8
LAYER_1
 10
-16.21436143980408
 20
91.50524763107691
 30
0.0
  0
VERTEX
  5
6BC
  8
LAYER_1
 10
-16.43289793576164
 20
91.95723575738612
 30
0.0
  0
VERTEX
  5
6BD
  8
LAYER_1
 10
-16.66340048574244
 20
92.39937246337038
 30
0.0
  0
VERTEX
  5
6BE
  8
LAYER_1
 10
-16.90311305159359
 20
92.82524447102494
 30
0.0
  0
VERTEX
  5
6BF
  8
LAYER_1
 10
-17.14927959516228
 20
93.22843850234503
 30
0.0
  0
VERTEX
  5
6C0
  8
LAYER_1
 10
-17.39914407829564
 20
93.60254127932592
 30
0.0
  0
VERTEX
  5
6C1
  8
LAYER_1
 10
-17.64995046284085
 20
93.94113952396282
 30
0.0
  0
VERTEX
  5
6C2
  8
LAYER_1
 10
-17.89894271064503
 20
94.23781995825101
 30
0.0
  0
VERTEX
  5
6C3
  8
LAYER_1
 10
-18.17180847912183
 20
94.53178110963668
 30
0.0
  0
VERTEX
  5
6C4
  8
LAYER_1
 10
-18.42604139393613
 20
94.78888839280197
 30
0.0
  0
VERTEX
  5
6C5
  8
LAYER_1
 10
-18.66178338502823
 20
95.009160526915
 30
0.0
  0
VERTEX
  5
6C6
  8
LAYER_1
 10
-18.87917638233839
 20
95.19261623114393
 30
0.0
  0
VERTEX
  5
6C7
  8
LAYER_1
 10
-19.07836231580692
 20
95.33927422465688
 30
0.0
  0
VERTEX
  5
6C8
  8
LAYER_1
 10
-19.25948311537408
 20
95.44915322662197
 30
0.0
  0
VERTEX
  5
6C9
  8
LAYER_1
 10
-19.42268071098017
 20
95.52227195620733
 30
0.0
  0
VERTEX
  5
6CA
  8
LAYER_1
 10
-19.49760266040414
 20
95.54505206859767
 30
0.0
  0
VERTEX
  5
6CB
  8
LAYER_1
 10
-19.56809703256546
 20
95.55864913258111
 30
0.0
  0
VERTEX
  5
6CC
  8
LAYER_1
 10
-19.63418156870665
 20
95.5630654880537
 30
0.0
  0
VERTEX
  5
6CD
  8
LAYER_1
 10
-19.69587401007025
 20
95.55830347491144
 30
0.0
  0
VERTEX
  5
6CE
  8
LAYER_1
 10
-19.75319209789879
 20
95.54436543305034
 30
0.0
  0
VERTEX
  5
6CF
  8
LAYER_1
 10
-19.80615357343481
 20
95.52125370236642
 30
0.0
  0
VERTEX
  5
6D0
  8
LAYER_1
 10
-19.85477617792085
 20
95.48897062275572
 30
0.0
  0
VERTEX
  5
6D1
  8
LAYER_1
 10
-19.89907765259943
 20
95.44751853411422
 30
0.0
  0
VERTEX
  5
6D2
  8
LAYER_1
 10
-19.9390757387131
 20
95.39689977633796
 30
0.0
  0
VERTEX
  5
6D3
  8
LAYER_1
 10
-19.97478817750439
 20
95.33711668932295
 30
0.0
  0
VERTEX
  5
6D4
  8
LAYER_1
 10
-20.03342707808998
 20
95.19006688716075
 30
0.0
  0
VERTEX
  5
6D5
  8
LAYER_1
 10
-20.07513628429648
 20
95.00638784679575
 30
0.0
  0
VERTEX
  5
6D6
  8
LAYER_1
 10
-20.10005772606416
 20
94.78609828739607
 30
0.0
  0
VERTEX
  5
6D7
  8
LAYER_1
 10
-20.10833333333333
 20
94.52921692812987
 30
0.0
  0
VERTEX
  5
6D8
  8
LAYER_1
 10
-20.10368420009206
 20
94.37573979416143
 30
0.0
  0
VERTEX
  5
6D9
  8
LAYER_1
 10
-20.08919242979032
 20
94.22653077700909
 30
0.0
  0
VERTEX
  5
6DA
  8
LAYER_1
 10
-20.06404146656125
 20
94.0803258858265
 30
0.0
  0
VERTEX
  5
6DB
  8
LAYER_1
 10
-20.02741475453796
 20
93.9358611297673
 30
0.0
  0
VERTEX
  5
6DC
  8
LAYER_1
 10
-19.97849573785359
 20
93.79187251798515
 30
0.0
  0
VERTEX
  5
6DD
  8
LAYER_1
 10
-19.91646786064126
 20
93.64709605963374
 30
0.0
  0
VERTEX
  5
6DE
  8
LAYER_1
 10
-19.8405145670341
 20
93.50026776386667
 30
0.0
  0
VERTEX
  5
6DF
  8
LAYER_1
 10
-19.74981930116523
 20
93.35012363983762
 30
0.0
  0
VERTEX
  5
6E0
  8
LAYER_1
 10
-19.64356550716777
 20
93.19539969670024
 30
0.0
  0
VERTEX
  5
6E1
  8
LAYER_1
 10
-19.52093662917486
 20
93.0348319436082
 30
0.0
  0
VERTEX
  5
6E2
  8
LAYER_1
 10
-19.38111611131962
 20
92.86715638971513
 30
0.0
  0
VERTEX
  5
6E3
  8
LAYER_1
 10
-19.22328739773517
 20
92.69110904417472
 30
0.0
  0
VERTEX
  5
6E4
  8
LAYER_1
 10
-18.85033915991117
 20
92.30884301476641
 30
0.0
  0
VERTEX
  5
6E5
  8
LAYER_1
 10
-18.39555946876786
 20
91.87792192861252
 30
0.0
  0
VERTEX
  5
6E6
  8
LAYER_1
 10
-18.03785562582674
 20
91.53058761756171
 30
0.0
  0
VERTEX
  5
6E7
  8
LAYER_1
 10
-17.67777454660541
 20
91.1477869725862
 30
0.0
  0
VERTEX
  5
6E8
  8
LAYER_1
 10
-17.32508307680699
 20
90.74210042071977
 30
0.0
  0
VERTEX
  5
6E9
  8
LAYER_1
 10
-16.9895480621346
 20
90.32610838899606
 30
0.0
  0
VERTEX
  5
6EA
  8
LAYER_1
 10
-16.68093634829136
 20
89.91239130444882
 30
0.0
  0
VERTEX
  5
6EB
  8
LAYER_1
 10
-16.40901478098041
 20
89.51352959411174
 30
0.0
  0
VERTEX
  5
6EC
  8
LAYER_1
 10
-16.18355020590486
 20
89.14210368501855
 30
0.0
  0
VERTEX
  5
6ED
  8
LAYER_1
 10
-16.09129142973759
 20
88.97061053938646
 30
0.0
  0
VERTEX
  5
6EE
  8
LAYER_1
 10
-16.01430946876785
 20
88.81069400420296
 30
0.0
  0
VERTEX
  5
6EF
  8
LAYER_1
 10
-15.83569006815994
 20
88.42349231215047
 30
0.0
  0
VERTEX
  5
6F0
  8
LAYER_1
 10
-15.68636378091763
 20
88.12560292794922
 30
0.0
  0
VERTEX
  5
6F1
  8
LAYER_1
 10
-15.56338757604643
 20
87.91414025093562
 30
0.0
  0
VERTEX
  5
6F2
  8
LAYER_1
 10
-15.51086105731423
 20
87.8399171774168
 30
0.0
  0
VERTEX
  5
6F3
  8
LAYER_1
 10
-15.46381842255187
 20
87.78621868044604
 30
0.0
  0
VERTEX
  5
6F4
  8
LAYER_1
 10
-15.42189179288506
 20
87.75268405994038
 30
0.0
  0
VERTEX
  5
6F5
  8
LAYER_1
 10
-15.38471328943947
 20
87.73895261581687
 30
0.0
  0
VERTEX
  5
6F6
  8
LAYER_1
 10
-15.35191503334081
 20
87.74466364799257
 30
0.0
  0
VERTEX
  5
6F7
  8
LAYER_1
 10
-15.32312914571477
 20
87.76945645638452
 30
0.0
  0
VERTEX
  5
6F8
  8
LAYER_1
 10
-15.29798774768702
 20
87.81297034090976
 30
0.0
  0
VERTEX
  5
6F9
  8
LAYER_1
 10
-15.27612296038327
 20
87.87484460148536
 30
0.0
  0
SEQEND
  5
6FA
  8
LAYER_1
  0
POLYLINE
  5
51
  8
LAYER_1
 66
     1
 10
0.0
 20
0.0
 30
0.0
 70
     1
  0
VERTEX
  5
6FB
  8
LAYER_1
 10
-9.978087995934576
 20
126.8811877059847
 30
0.0
  0
VERTEX
  5
6FC
  8
LAYER_1
 10
-10.32446038643508
 20
115.4454422144892
 30
0.0
  0
VERTEX
  5
6FD
  8
LAYER_1
 10
-9.901694154646634
 20
112.5541267460495
 30
0.0
  0
VERTEX
  5
6FE
  8
LAYER_1
 10
-9.776613867293303
 20
111.7517433507648
 30
0.0
  0
VERTEX
  5
6FF
  8
LAYER_1
 10
-9.637909816900526
 20
110.9665571279607
 30
0.0
  0
VERTEX
  5
700
  8
LAYER_1
 10
-9.484358359532756
 20
110.1966181462404
 30
0.0
  0
VERTEX
  5
701
  8
LAYER_1
 10
-9.314735851254444
 20
109.4399764742069
 30
0.0
  0
VERTEX
  5
702
  8
LAYER_1
 10
-9.127818648130038
 20
108.6946821804634
 30
0.0
  0
VERTEX
  5
703
  8
LAYER_1
 10
-8.922383106223997
 20
107.9587853336131
 30
0.0
  0
VERTEX
  5
704
  8
LAYER_1
 10
-8.697205581600763
 20
107.230336002259
 30
0.0
  0
VERTEX
  5
705
  8
LAYER_1
 10
-8.451062430324793
 20
106.5073842550043
 30
0.0
  0
VERTEX
  5
706
  8
LAYER_1
 10
-8.182730008460538
 20
105.7879801604521
 30
0.0
  0
VERTEX
  5
707
  8
LAYER_1
 10
-7.890984672072447
 20
105.0701737872055
 30
0.0
  0
VERTEX
  5
708
  8
LAYER_1
 10
-7.574602777224974
 20
104.3520152038677
 30
0.0
  0
VERTEX
  5
709
  8
LAYER_1
 10
-7.232360679982569
 20
103.6315544790418
 30
0.0
  0
VERTEX
  5
70A
  8
LAYER_1
 10
-6.863034736409682
 20
102.9068416813309
 30
0.0
  0
VERTEX
  5
70B
  8
LAYER_1
 10
-6.465401302570768
 20
102.1759268793381
 30
0.0
  0
VERTEX
  5
70C
  8
LAYER_1
 10
-6.038236734530276
 20
101.4368601416666
 30
0.0
  0
VERTEX
  5
70D
  8
LAYER_1
 10
-5.580317388352656
 20
100.6876915369194
 30
0.0
  0
VERTEX
  5
70E
  8
LAYER_1
 10
-5.090419620102361
 20
99.92647113369979
 30
0.0
  0
VERTEX
  5
70F
  8
LAYER_1
 10
-4.567319785843842
 20
99.1512490006108
 30
0.0
  0
VERTEX
  5
710
  8
LAYER_1
 10
-4.009794241641551
 20
98.36007520625557
 30
0.0
  0
VERTEX
  5
711
  8
LAYER_1
 10
-3.416619343559937
 20
97.55099981923722
 30
0.0
  0
VERTEX
  5
712
  8
LAYER_1
 10
-2.786571447663453
 20
96.72207290815888
 30
0.0
  0
VERTEX
  5
713
  8
LAYER_1
 10
-2.118426910016551
 20
95.87134454162367
 30
0.0
  0
VERTEX
  5
714
  8
LAYER_1
 10
-1.410962086683682
 20
94.99686478823475
 30
0.0
  0
VERTEX
  5
715
  8
LAYER_1
 10
-0.6629533337292968
 20
94.0966837165952
 30
0.0
  0
VERTEX
  5
716
  8
LAYER_1
 10
0.1268229927821534
 20
93.16885139530815
 30
0.0
  0
VERTEX
  5
717
  8
LAYER_1
 10
0.959590536786217
 20
92.21141789297675
 30
0.0
  0
VERTEX
  5
718
  8
LAYER_1
 10
1.836572942218443
 20
91.22243327820412
 30
0.0
  0
VERTEX
  5
719
  8
LAYER_1
 10
2.758993853014379
 20
90.19994761959339
 30
0.0
  0
VERTEX
  5
71A
  8
LAYER_1
 10
3.728076913109576
 20
89.14201098574767
 30
0.0
  0
VERTEX
  5
71B
  8
LAYER_1
 10
4.74504576643958
 20
88.04667344527007
 30
0.0
  0
VERTEX
  5
71C
  8
LAYER_1
 10
5.81112405693994
 20
86.91198506676375
 30
0.0
  0
VERTEX
  5
71D
  8
LAYER_1
 10
6.927535428546207
 20
85.73599591883183
 30
0.0
  0
VERTEX
  5
71E
  8
LAYER_1
 10
7.59560991240317
 20
85.027025731708
 30
0.0
  0
VERTEX
  5
71F
  8
LAYER_1
 10
8.395615872594496
 20
84.16379455208403
 30
0.0
  0
VERTEX
  5
720
  8
LAYER_1
 10
10.27082995935471
 20
82.10784810671242
 30
0.0
  0
VERTEX
  5
721
  8
LAYER_1
 10
12.3119931635758
 20
79.83475436547033
 30
0.0
  0
VERTEX
  5
722
  8
LAYER_1
 10
14.27792096000674
 20
77.61111111111111
 30
0.0
  0
VERTEX
  5
723
  8
LAYER_1
 10
18.75771550736552
 20
72.49583333333334
 30
0.0
  0
VERTEX
  5
724
  8
LAYER_1
 10
21.43642972116123
 20
68.79166666666666
 30
0.0
  0
VERTEX
  5
725
  8
LAYER_1
 10
22.00901131574617
 20
67.97541597045556
 30
0.0
  0
VERTEX
  5
726
  8
LAYER_1
 10
22.60984195575143
 20
67.0744288151065
 30
0.0
  0
VERTEX
  5
727
  8
LAYER_1
 10
23.22100484533882
 20
66.11839947554587
 30
0.0
  0
VERTEX
  5
728
  8
LAYER_1
 10
23.8245831886701
 20
65.1370222267001
 30
0.0
  0
VERTEX
  5
729
  8
LAYER_1
 10
24.40266018990705
 20
64.15999134349556
 30
0.0
  0
VERTEX
  5
72A
  8
LAYER_1
 10
24.93731905321146
 20
63.21700110085864
 30
0.0
  0
VERTEX
  5
72B
  8
LAYER_1
 10
25.41064298274511
 20
62.33774577371574
 30
0.0
  0
VERTEX
  5
72C
  8
LAYER_1
 10
25.61870534864845
 20
61.93129816436905
 30
0.0
  0
VERTEX
  5
72D
  8
LAYER_1
 10
25.80471518266978
 20
61.55191963699326
 30
0.0
  0
VERTEX
  5
72E
  8
LAYER_1
 10
27.49428643038264
 20
58.01633927398657
 30
0.0
  0
VERTEX
  5
72F
  8
LAYER_1
 10
27.79106218804853
 20
56.61303074810439
 30
0.0
  0
VERTEX
  5
730
  8
LAYER_1
 10
27.85517475223214
 20
56.25907220628973
 30
0.0
  0
VERTEX
  5
731
  8
LAYER_1
 10
27.89970485522692
 20
55.89617309963988
 30
0.0
  0
VERTEX
  5
732
  8
LAYER_1
 10
27.92466260747833
 20
55.52438486408869
 30
0.0
  0
VERTEX
  5
733
  8
LAYER_1
 10
27.93005811943181
 20
55.14375893556996
 30
0.0
  0
VERTEX
  5
734
  8
LAYER_1
 10
27.9159015015328
 20
54.75434675001755
 30
0.0
  0
VERTEX
  5
735
  8
LAYER_1
 10
27.88220286422677
 20
54.35619974336528
 30
0.0
  0
VERTEX
  5
736
  8
LAYER_1
 10
27.82897231795914
 20
53.94936935154699
 30
0.0
  0
VERTEX
  5
737
  8
LAYER_1
 10
27.75621997317538
 20
53.53390701049651
 30
0.0
  0
VERTEX
  5
738
  8
LAYER_1
 10
27.66395594032092
 20
53.10986415614767
 30
0.0
  0
VERTEX
  5
739
  8
LAYER_1
 10
27.55219032984123
 20
52.6772922244343
 30
0.0
  0
VERTEX
  5
73A
  8
LAYER_1
 10
27.42093325218174
 20
52.23624265129024
 30
0.0
  0
VERTEX
  5
73B
  8
LAYER_1
 10
27.27019481778791
 20
51.78676687264931
 30
0.0
  0
VERTEX
  5
73C
  8
LAYER_1
 10
27.09998513710518
 20
51.32891632444536
 30
0.0
  0
VERTEX
  5
73D
  8
LAYER_1
 10
26.910314320579
 20
50.86274244261222
 30
0.0
  0
VERTEX
  5
73E
  8
LAYER_1
 10
26.70119247865481
 20
50.38829666308371
 30
0.0
  0
VERTEX
  5
73F
  8
LAYER_1
 10
26.47262972177808
 20
49.90563042179366
 30
0.0
  0
VERTEX
  5
740
  8
LAYER_1
 10
26.23985493124572
 20
49.44549747261684
 30
0.0
  0
VERTEX
  5
741
  8
LAYER_1
 10
26.00615778864025
 20
49.01422739443827
 30
0.0
  0
VERTEX
  5
742
  8
LAYER_1
 10
25.7715590391437
 20
48.61184127595245
 30
0.0
  0
VERTEX
  5
743
  8
LAYER_1
 10
25.53607942793815
 20
48.23836020585387
 30
0.0
  0
VERTEX
  5
744
  8
LAYER_1
 10
25.29973970020565
 20
47.893805272837
 30
0.0
  0
VERTEX
  5
745
  8
LAYER_1
 10
25.06256060112825
 20
47.57819756559634
 30
0.0
  0
VERTEX
  5
746
  8
LAYER_1
 10
24.82456287588803
 20
47.29155817282638
 30
0.0
  0
VERTEX
  5
747
  8
LAYER_1
 10
24.58576726966703
 20
47.03390818322158
 30
0.0
  0
VERTEX
  5
748
  8
LAYER_1
 10
24.34619452764731
 20
46.80526868547646
 30
0.0
  0
VERTEX
  5
749
  8
LAYER_1
 10
24.10586539501093
 20
46.60566076828549
 30
0.0
  0
VERTEX
  5
74A
  8
LAYER_1
 10
23.86480061693995
 20
46.43510552034316
 30
0.0
  0
VERTEX
  5
74B
  8
LAYER_1
 10
23.62302093861642
 20
46.29362403034396
 30
0.0
  0
VERTEX
  5
74C
  8
LAYER_1
 10
23.38054710522242
 20
46.18123738698236
 30
0.0
  0
VERTEX
  5
74D
  8
LAYER_1
 10
23.13739986193998
 20
46.09796667895287
 30
0.0
  0
VERTEX
  5
74E
  8
LAYER_1
 10
22.89359995395118
 20
46.04383299494997
 30
0.0
  0
VERTEX
  5
74F
  8
LAYER_1
 10
22.64916812643807
 20
46.01885742366812
 30
0.0
  0
VERTEX
  5
750
  8
LAYER_1
 10
22.3422789536307
 20
45.99771114126658
 30
0.0
  0
VERTEX
  5
751
  8
LAYER_1
 10
22.21623916747142
 20
45.97717777756931
 30
0.0
  0
VERTEX
  5
752
  8
LAYER_1
 10
22.10642584685186
 20
45.94544225348176
 30
0.0
  0
VERTEX
  5
753
  8
LAYER_1
 10
22.01130644080465
 20
45.89908305995945
 30
0.0
  0
VERTEX
  5
754
  8
LAYER_1
 10
21.92934839836238
 20
45.83467868795793
 30
0.0
  0
VERTEX
  5
755
  8
LAYER_1
 10
21.85901916855765
 20
45.74880762843274
 30
0.0
  0
VERTEX
  5
756
  8
LAYER_1
 10
21.79878620042308
 20
45.63804837233941
 30
0.0
  0
VERTEX
  5
757
  8
LAYER_1
 10
21.74711694299127
 20
45.49897941063348
 30
0.0
  0
VERTEX
  5
758
  8
LAYER_1
 10
21.70247884529481
 20
45.32817923427048
 30
0.0
  0
VERTEX
  5
759
  8
LAYER_1
 10
21.66333935636633
 20
45.12222633420596
 30
0.0
  0
VERTEX
  5
75A
  8
LAYER_1
 10
21.62816592523841
 20
44.87769920139544
 30
0.0
  0
VERTEX
  5
75B
  8
LAYER_1
 10
21.56358703251471
 20
44.25923620135858
 30
0.0
  0
VERTEX
  5
75C
  8
LAYER_1
 10
21.49648175938455
 20
43.44541816180418
 30
0.0
  0
VERTEX
  5
75D
  8
LAYER_1
 10
21.46543420472125
 20
43.0982427489192
 30
0.0
  0
VERTEX
  5
75E
  8
LAYER_1
 10
21.42799959557671
 20
42.76495623411773
 30
0.0
  0
VERTEX
  5
75F
  8
LAYER_1
 10
21.38412521661489
 20
42.44550515191392
 30
0.0
  0
VERTEX
  5
760
  8
LAYER_1
 10
21.33375835249971
 20
42.13983603682188
 30
0.0
  0
VERTEX
  5
761
  8
LAYER_1
 10
21.27684628789509
 20
41.84789542335572
 30
0.0
  0
VERTEX
  5
762
  8
LAYER_1
 10
21.21333630746496
 20
41.56962984602957
 30
0.0
  0
VERTEX
  5
763
  8
LAYER_1
 10
21.14317569587327
 20
41.30498583935756
 30
0.0
  0
VERTEX
  5
764
  8
LAYER_1
 10
21.06631173778394
 20
41.05390993785379
 30
0.0
  0
VERTEX
  5
765
  8
LAYER_1
 10
20.9826917178609
 20
40.8163486760324
 30
0.0
  0
VERTEX
  5
766
  8
LAYER_1
 10
20.89226292076809
 20
40.59224858840751
 30
0.0
  0
VERTEX
  5
767
  8
LAYER_1
 10
20.79497263116942
 20
40.38155620949324
 30
0.0
  0
VERTEX
  5
768
  8
LAYER_1
 10
20.69076813372885
 20
40.18421807380371
 30
0.0
  0
VERTEX
  5
769
  8
LAYER_1
 10
20.57959671311028
 20
40.00018071585303
 30
0.0
  0
VERTEX
  5
76A
  8
LAYER_1
 10
20.46140565397767
 20
39.82939067015535
 30
0.0
  0
VERTEX
  5
76B
  8
LAYER_1
 10
20.33614224099493
 20
39.67179447122476
 30
0.0
  0
VERTEX
  5
76C
  8
LAYER_1
 10
20.203753758826
 20
39.5273386535754
 30
0.0
  0
VERTEX
  5
76D
  8
LAYER_1
 10
20.06418749213481
 20
39.39596975172138
 30
0.0
  0
VERTEX
  5
76E
  8
LAYER_1
 10
19.91739072558528
 20
39.27763430017684
 30
0.0
  0
VERTEX
  5
76F
  8
LAYER_1
 10
19.76331074384136
 20
39.17227883345588
 30
0.0
  0
VERTEX
  5
770
  8
LAYER_1
 10
19.60189483156697
 20
39.07984988607264
 30
0.0
  0
VERTEX
  5
771
  8
LAYER_1
 10
19.43309027342604
 20
39.00029399254122
 30
0.0
  0
VERTEX
  5
772
  8
LAYER_1
 10
19.2568443540825
 20
38.93355768737577
 30
0.0
  0
VERTEX
  5
773
  8
LAYER_1
 10
19.07310435820029
 20
38.87958750509038
 30
0.0
  0
VERTEX
  5
774
  8
LAYER_1
 10
18.88181757044334
 20
38.83832998019921
 30
0.0
  0
VERTEX
  5
775
  8
LAYER_1
 10
18.68293127547557
 20
38.80973164721634
 30
0.0
  0
VERTEX
  5
776
  8
LAYER_1
 10
18.47639275796092
 20
38.79373904065591
 30
0.0
  0
VERTEX
  5
777
  8
LAYER_1
 10
18.26214930256332
 20
38.79029869503204
 30
0.0
  0
VERTEX
  5
778
  8
LAYER_1
 10
18.0401481939467
 20
38.79935714485887
 30
0.0
  0
VERTEX
  5
779
  8
LAYER_1
 10
17.81033671677499
 20
38.82086092465049
 30
0.0
  0
VERTEX
  5
77A
  8
LAYER_1
 10
17.57266215571212
 20
38.85475656892103
 30
0.0
  0
VERTEX
  5
77B
  8
LAYER_1
 10
17.32707179542201
 20
38.90099061218463
 30
0.0
  0
VERTEX
  5
77C
  8
LAYER_1
 10
17.07351292056862
 20
38.9595095889554
 30
0.0
  0
VERTEX
  5
77D
  8
LAYER_1
 10
16.90398196192256
 20
39.01744846075633
 30
0.0
  0
VERTEX
  5
77E
  8
LAYER_1
 10
16.73359182564041
 20
39.10493033446667
 30
0.0
  0
VERTEX
  5
77F
  8
LAYER_1
 10
16.56397024061243
 20
39.21936979000452
 30
0.0
  0
VERTEX
  5
780
  8
LAYER_1
 10
16.39674493572888
 20
39.35818140728796
 30
0.0
  0
VERTEX
  5
781
  8
LAYER_1
 10
16.23354363988
 20
39.51877976623509
 30
0.0
  0
VERTEX
  5
782
  8
LAYER_1
 10
16.07599408195605
 20
39.698579446764
 30
0.0
  0
VERTEX
  5
783
  8
LAYER_1
 10
15.9257239908473
 20
39.89499502879278
 30
0.0
  0
VERTEX
  5
784
  8
LAYER_1
 10
15.784361095444
 20
40.10544109223953
 30
0.0
  0
VERTEX
  5
785
  8
LAYER_1
 10
15.6535331246364
 20
40.32733221702234
 30
0.0
  0
VERTEX
  5
786
  8
LAYER_1
 10
15.53486780731476
 20
40.55808298305929
 30
0.0
  0
VERTEX
  5
787
  8
LAYER_1
 10
15.42999287236934
 20
40.7951079702685
 30
0.0
  0
VERTEX
  5
788
  8
LAYER_1
 10
15.34053604869039
 20
41.03582175856805
 30
0.0
  0
VERTEX
  5
789
  8
LAYER_1
 10
15.26812506516817
 20
41.27763892787602
 30
0.0
  0
VERTEX
  5
78A
  8
LAYER_1
 10
15.21438765069293
 20
41.51797405811052
 30
0.0
  0
VERTEX
  5
78B
  8
LAYER_1
 10
15.18095153415494
 20
41.75424172918964
 30
0.0
  0
VERTEX
  5
78C
  8
LAYER_1
 10
15.16944444444444
 20
41.98385652103147
 30
0.0
  0
VERTEX
  5
78D
  8
LAYER_1
 10
15.16325738766915
 20
42.12946539472151
 30
0.0
  0
VERTEX
  5
78E
  8
LAYER_1
 10
15.14552510533233
 20
42.25791378779327
 30
0.0
  0
VERTEX
  5
78F
  8
LAYER_1
 10
15.11749092941752
 20
42.36691899246777
 30
0.0
  0
VERTEX
  5
790
  8
LAYER_1
 10
15.08039819190827
 20
42.45419830096604
 30
0.0
  0
VERTEX
  5
791
  8
LAYER_1
 10
15.03549022478814
 20
42.51746900550913
 30
0.0
  0
VERTEX
  5
792
  8
LAYER_1
 10
14.98401036004067
 20
42.55444839831806
 30
0.0
  0
VERTEX
  5
793
  8
LAYER_1
 10
14.95619450730154
 20
42.56236550664129
 30
0.0
  0
VERTEX
  5
794
  8
LAYER_1
 10
14.92720192964941
 20
42.56285377161387
 30
0.0
  0
VERTEX
  5
795
  8
LAYER_1
 10
14.86630826559791
 20
42.5404024176176
 30
0.0
  0
VERTEX
  5
796
  8
LAYER_1
 10
14.56317208675138
 20
42.35305395587068
 30
0.0
  0
VERTEX
  5
797
  8
LAYER_1
 10
14.15943142247409
 20
34.39583333333334
 30
0.0
  0
VERTEX
  5
798
  8
LAYER_1
 10
13.75671393677885
 20
33.03960570225237
 30
0.0
  0
VERTEX
  5
799
  8
LAYER_1
 10
13.65249524338354
 20
32.74172029515661
 30
0.0
  0
VERTEX
  5
79A
  8
LAYER_1
 10
13.51018568403814
 20
32.41462569250541
 30
0.0
  0
VERTEX
  5
79B
  8
LAYER_1
 10
13.33612359572946
 20
32.06899847552157
 30
0.0
  0
VERTEX
  5
79C
  8
LAYER_1
 10
13.13664731544434
 20
31.71551522542789
 30
0.0
  0
VERTEX
  5
79D
  8
LAYER_1
 10
12.9180951801696
 20
31.36485252344714
 30
0.0
  0
VERTEX
  5
79E
  8
LAYER_1
 10
12.68680552689208
 20
31.02768695080213
 30
0.0
  0
VERTEX
  5
79F
  8
LAYER_1
 10
12.4491166925986
 20
30.71469508871564
 30
0.0
  0
VERTEX
  5
7A0
  8
LAYER_1
 10
12.21136701427599
 20
30.43655351841045
 30
0.0
  0
VERTEX
  5
7A1
  8
LAYER_1
 10
11.87212362079412
 20
30.08214737045186
 30
0.0
  0
VERTEX
  5
7A2
  8
LAYER_1
 10
11.71345028471522
 20
29.93075123284764
 30
0.0
  0
VERTEX
  5
7A3
  8
LAYER_1
 10
11.55912728992988
 20
29.79514747719221
 30
0.0
  0
VERTEX
  5
7A4
  8
LAYER_1
 10
11.40694321207725
 20
29.67427692175963
 30
0.0
  0
VERTEX
  5
7A5
  8
LAYER_1
 10
11.25468662679647
 20
29.56708038482394
 30
0.0
  0
VERTEX
  5
7A6
  8
LAYER_1
 10
11.10014610972669
 20
29.4724986846592
 30
0.0
  0
VERTEX
  5
7A7
  8
LAYER_1
 10
10.94111023650705
 20
29.38947263953946
 30
0.0
  0
VERTEX
  5
7A8
  8
LAYER_1
 10
10.7753675827767
 20
29.31694306773878
 30
0.0
  0
VERTEX
  5
7A9
  8
LAYER_1
 10
10.60070672417478
 20
29.2538507875312
 30
0.0
  0
VERTEX
  5
7AA
  8
LAYER_1
 10
10.41491623634045
 20
29.19913661719078
 30
0.0
  0
VERTEX
  5
7AB
  8
LAYER_1
 10
10.21578469491286
 20
29.15174137499158
 30
0.0
  0
VERTEX
  5
7AC
  8
LAYER_1
 10
10.00110067553114
 20
29.11060587920765
 30
0.0
  0
VERTEX
  5
7AD
  8
LAYER_1
 10
9.768652753834438
 20
29.07467094811303
 30
0.0
  0
VERTEX
  5
7AE
  8
LAYER_1
 10
9.2416195060527
 20
29.01416605308796
 30
0.0
  0
VERTEX
  5
7AF
  8
LAYER_1
 10
8.655717630268743
 20
28.96338698067535
 30
0.0
  0
VERTEX
  5
7B0
  8
LAYER_1
 10
8.40941038783849
 20
28.9494910293575
 30
0.0
  0
VERTEX
  5
7B1
  8
LAYER_1
 10
8.188781073524744
 20
28.94529039648278
 30
0.0
  0
VERTEX
  5
7B2
  8
LAYER_1
 10
7.989766285684026
 20
28.95230977843927
 30
0.0
  0
VERTEX
  5
7B3
  8
LAYER_1
 10
7.80830262267285
 20
28.97207387161508
 30
0.0
  0
VERTEX
  5
7B4
  8
LAYER_1
 10
7.640326682847737
 20
29.00610737239833
 30
0.0
  0
VERTEX
  5
7B5
  8
LAYER_1
 10
7.481775064565205
 20
29.05593497717709
 30
0.0
  0
VERTEX
  5
7B6
  8
LAYER_1
 10
7.328584366181773
 20
29.12308138233949
 30
0.0
  0
VERTEX
  5
7B7
  8
LAYER_1
 10
7.176691186053958
 20
29.20907128427363
 30
0.0
  0
VERTEX
  5
7B8
  8
LAYER_1
 10
7.022032122538279
 20
29.31542937936761
 30
0.0
  0
VERTEX
  5
7B9
  8
LAYER_1
 10
6.860543773991255
 20
29.44368036400953
 30
0.0
  0
VERTEX
  5
7BA
  8
LAYER_1
 10
6.688162738769404
 20
29.59534893458751
 30
0.0
  0
VERTEX
  5
7BB
  8
LAYER_1
 10
6.500825615229244
 20
29.77195978748962
 30
0.0
  0
VERTEX
  5
7BC
  8
LAYER_1
 10
6.06502949662007
 20
30.20610712581873
 30
0.0
  0
VERTEX
  5
7BD
  8
LAYER_1
 10
5.896542223296265
 20
30.38386107323463
 30
0.0
  0
VERTEX
  5
7BE
  8
LAYER_1
 10
5.729600179896425
 20
30.57409196889542
 30
0.0
  0
VERTEX
  5
7BF
  8
LAYER_1
 10
5.564177739325359
 20
30.77684413092317
 30
0.0
  0
VERTEX
  5
7C0
  8
LAYER_1
 10
5.400249274487874
 20
30.99216187743998
 30
0.0
  0
VERTEX
  5
7C1
  8
LAYER_1
 10
5.237789158288777
 20
31.2200895265679
 30
0.0
  0
VERTEX
  5
7C2
  8
LAYER_1
 10
5.076771763632877
 20
31.46067139642902
 30
0.0
  0
VERTEX
  5
7C3
  8
LAYER_1
 10
4.91717146342498
 20
31.71395180514541
 30
0.0
  0
VERTEX
  5
7C4
  8
LAYER_1
 10
4.758962630569894
 20
31.97997507083913
 30
0.0
  0
VERTEX
  5
7C5
  8
LAYER_1
 10
4.446616858537386
 20
32.55042744564692
 30
0.0
  0
VERTEX
  5
7C6
  8
LAYER_1
 10
4.139529430773814
 20
33.17238306582895
 30
0.0
  0
VERTEX
  5
7C7
  8
LAYER_1
 10
3.837495330517637
 20
33.84619647636186
 30
0.0
  0
VERTEX
  5
7C8
  8
LAYER_1
 10
3.540309541007318
 20
34.57222222222222
 30
0.0
  0
VERTEX
  5
7C9
  8
LAYER_1
 10
2.365061523411512
 20
37.57083333333333
 30
0.0
  0
VERTEX
  5
7CA
  8
LAYER_1
 10
1.913728720390466
 20
38.06175839052165
 30
0.0
  0
VERTEX
  5
7CB
  8
LAYER_1
 10
1.838404756097395
 20
38.12916764888681
 30
0.0
  0
VERTEX
  5
7CC
  8
LAYER_1
 10
1.753396557168561
 20
38.17856932333333
 30
0.0
  0
VERTEX
  5
7CD
  8
LAYER_1
 10
1.659018485216242
 20
38.21037649641661
 30
0.0
  0
VERTEX
  5
7CE
  8
LAYER_1
 10
1.555584901852713
 20
38.225002250692
 30
0.0
  0
VERTEX
  5
7CF
  8
LAYER_1
 10
1.443410168690252
 20
38.22285966871491
 30
0.0
  0
VERTEX
  5
7D0
  8
LAYER_1
 10
1.322808647341133
 20
38.20436183304071
 30
0.0
  0
VERTEX
  5
7D1
  8
LAYER_1
 10
1.194094699417633
 20
38.16992182622477
 30
0.0
  0
VERTEX
  5
7D2
  8
LAYER_1
 10
1.057582686532029
 20
38.11995273082249
 30
0.0
  0
VERTEX
  5
7D3
  8
LAYER_1
 10
0.9135869702965969
 20
38.05486762938924
 30
0.0
  0
VERTEX
  5
7D4
  8
LAYER_1
 10
0.7624219123236123
 20
37.97507960448041
 30
0.0
  0
VERTEX
  5
7D5
  8
LAYER_1
 10
0.6044018742253521
 20
37.88100173865138
 30
0.0
  0
VERTEX
  5
7D6
  8
LAYER_1
 10
0.4398412176140922
 20
37.77304711445753
 30
0.0
  0
VERTEX
  5
7D7
  8
LAYER_1
 10
0.0923554953016788
 20
37.51715992119687
 30
0.0
  0
VERTEX
  5
7D8
  8
LAYER_1
 10
-0.2775203617154181
 20
37.2107226851415
 30
0.0
  0
VERTEX
  5
7D9
  8
LAYER_1
 10
-0.6672714605389884
 20
36.85704006673448
 30
0.0
  0
VERTEX
  5
7DA
  8
LAYER_1
 10
-1.074382908270823
 20
36.45941672641885
 30
0.0
  0
VERTEX
  5
7DB
  8
LAYER_1
 10
-1.49633981201271
 20
36.02115732463767
 30
0.0
  0
VERTEX
  5
7DC
  8
LAYER_1
 10
-1.930627278866442
 20
35.54556652183398
 30
0.0
  0
VERTEX
  5
7DD
  8
LAYER_1
 10
-2.374730415933807
 20
35.03594897845083
 30
0.0
  0
VERTEX
  5
7DE
  8
LAYER_1
 10
-2.826134330316597
 20
34.49560935493128
 30
0.0
  0
VERTEX
  5
7DF
  8
LAYER_1
 10
-3.2823241291166
 20
33.92785231171838
 30
0.0
  0
VERTEX
  5
7E0
  8
LAYER_1
 10
-3.740784919435608
 20
33.33598250925519
 30
0.0
  0
VERTEX
  5
7E1
  8
LAYER_1
 10
-4.19900180837541
 20
32.72330460798474
 30
0.0
  0
VERTEX
  5
7E2
  8
LAYER_1
 10
-4.654459903037797
 20
32.09312326835011
 30
0.0
  0
VERTEX
  5
7E3
  8
LAYER_1
 10
-5.104644310524558
 20
31.44874315079431
 30
0.0
  0
VERTEX
  5
7E4
  8
LAYER_1
 10
-5.547040137937483
 20
30.79346891576044
 30
0.0
  0
VERTEX
  5
7E5
  8
LAYER_1
 10
-5.979132492378364
 20
30.13060522369152
 30
0.0
  0
VERTEX
  5
7E6
  8
LAYER_1
 10
-6.398406480948989
 20
29.4634567350306
 30
0.0
  0
VERTEX
  5
7E7
  8
LAYER_1
 10
-6.802347210751149
 20
28.79532811022075
 30
0.0
  0
VERTEX
  5
7E8
  8
LAYER_1
 10
-7.188439788886635
 20
28.12952400970502
 30
0.0
  0
VERTEX
  5
7E9
  8
LAYER_1
 10
-7.554169322457235
 20
27.46934909392644
 30
0.0
  0
VERTEX
  5
7EA
  8
LAYER_1
 10
-7.89702091856474
 20
26.81810802332808
 30
0.0
  0
VERTEX
  5
7EB
  8
LAYER_1
 10
-8.214479684310941
 20
26.17910545835299
 30
0.0
  0
VERTEX
  5
7EC
  8
LAYER_1
 10
-8.504030726797627
 20
25.55564605944422
 30
0.0
  0
VERTEX
  5
7ED
  8
LAYER_1
 10
-8.763159153126589
 20
24.95103448704482
 30
0.0
  0
VERTEX
  5
7EE
  8
LAYER_1
 10
-8.989350070399617
 20
24.36857540159783
 30
0.0
  0
VERTEX
  5
7EF
  8
LAYER_1
 10
-9.180088585718497
 20
23.81157346354632
 30
0.0
  0
VERTEX
  5
7F0
  8
LAYER_1
 10
-9.332859806185027
 20
23.28333333333333
 30
0.0
  0
VERTEX
  5
7F1
  8
LAYER_1
 10
-9.405362989293506
 20
22.99939600100716
 30
0.0
  0
VERTEX
  5
7F2
  8
LAYER_1
 10
-9.45229660301257
 20
22.79416339820243
 30
0.0
  0
VERTEX
  5
7F3
  8
LAYER_1
 10
-9.469770103267734
 20
22.66569583461772
 30
0.0
  0
VERTEX
  5
7F4
  8
LAYER_1
 10
-9.466243515823077
 20
22.62964278931368
 30
0.0
  0
VERTEX
  5
7F5
  8
LAYER_1
 10
-9.453892945984512
 20
22.61205361995161
 30
0.0
  0
VERTEX
  5
7F6
  8
LAYER_1
 10
-9.432232075742727
 20
22.61268586524382
 30
0.0
  0
VERTEX
  5
7F7
  8
LAYER_1
 10
-9.400774587088414
 20
22.63129706390265
 30
0.0
  0
VERTEX
  5
7F8
  8
LAYER_1
 10
-9.306524482504951
 20
22.72148647616942
 30
0.0
  0
VERTEX
  5
7F9
  8
LAYER_1
 10
-8.97906685997799
 20
23.10694444444445
 30
0.0
  0
VERTEX
  5
7FA
  8
LAYER_1
 10
-8.84914652639442
 20
23.27807669180411
 30
0.0
  0
VERTEX
  5
7FB
  8
LAYER_1
 10
-8.70297570626133
 20
23.49456362123843
 30
0.0
  0
VERTEX
  5
7FC
  8
LAYER_1
 10
-8.54553881859606
 20
23.74760301378038
 30
0.0
  0
VERTEX
  5
7FD
  8
LAYER_1
 10
-8.381820282415948
 20
24.02839265046296
 30
0.0
  0
VERTEX
  5
7FE
  8
LAYER_1
 10
-8.216804516738328
 20
24.32813031231915
 30
0.0
  0
VERTEX
  5
7FF
  8
LAYER_1
 10
-8.055475940580545
 20
24.63801378038193
 30
0.0
  0
VERTEX
  5
800
  8
LAYER_1
 10
-7.90281897295993
 20
24.9492408356843
 30
0.0
  0
VERTEX
  5
801
  8
LAYER_1
 10
-7.763818032893823
 20
25.25300925925924
 30
0.0
  0
VERTEX
  5
802
  8
LAYER_1
 10
-7.618742122372317
 20
25.55831921801586
 30
0.0
  0
VERTEX
  5
803
  8
LAYER_1
 10
-7.4650551418361
 20
25.83575702509285
 30
0.0
  0
VERTEX
  5
804
  8
LAYER_1
 10
-7.306093643439199
 20
26.08136642756585
 30
0.0
  0
VERTEX
  5
805
  8
LAYER_1
 10
-7.145194179335647
 20
26.29119117251052
 30
0.0
  0
VERTEX
  5
806
  8
LAYER_1
 10
-6.985693301679468
 20
26.46127500700247
 30
0.0
  0
VERTEX
  5
807
  8
LAYER_1
 10
-6.907510005317278
 20
26.53017775378983
 30
0.0
  0
VERTEX
  5
808
  8
LAYER_1
 10
-6.830927562624691
 20
26.58766167811737
 30
0.0
  0
VERTEX
  5
809
  8
LAYER_1
 10
-6.756363042620962
 20
26.63323224836955
 30
0.0
  0
VERTEX
  5
80A
  8
LAYER_1
 10
-6.684233514325345
 20
26.66639493293084
 30
0.0
  0
VERTEX
  5
80B
  8
LAYER_1
 10
-6.614956046757092
 20
26.68665520018567
 30
0.0
  0
VERTEX
  5
80C
  8
LAYER_1
 10
-6.548947708935458
 20
26.69351851851852
 30
0.0
  0
VERTEX
  5
80D
  8
LAYER_1
 10
-6.429709449104632
 20
26.68458068312708
 30
0.0
  0
VERTEX
  5
80E
  8
LAYER_1
 10
-6.327872131891001
 20
26.65867477601243
 30
0.0
  0
VERTEX
  5
80F
  8
LAYER_1
 10
-6.244598082510786
 20
26.61716219576405
 30
0.0
  0
VERTEX
  5
810
  8
LAYER_1
 10
-6.181049626180203
 20
26.56140434097143
 30
0.0
  0
VERTEX
  5
811
  8
LAYER_1
 10
-6.138389088115471
 20
26.49276261022403
 30
0.0
  0
VERTEX
  5
812
  8
LAYER_1
 10
-6.117778793532809
 20
26.41259840211136
 30
0.0
  0
VERTEX
  5
813
  8
LAYER_1
 10
-6.120381067648434
 20
26.3222731152229
 30
0.0
  0
VERTEX
  5
814
  8
LAYER_1
 10
-6.147358235678567
 20
26.22314814814811
 30
0.0
  0
VERTEX
  5
815
  8
LAYER_1
 10
-6.193025951801775
 20
26.08862813142039
 30
0.0
  0
VERTEX
  5
816
  8
LAYER_1
 10
-6.218018040820088
 20
25.97800934909247
 30
0.0
  0
VERTEX
  5
817
  8
LAYER_1
 10
-6.223048060076504
 20
25.89099998979524
 30
0.0
  0
VERTEX
  5
818
  8
LAYER_1
 10
-6.208829566914014
 20
25.82730824215959
 30
0.0
  0
VERTEX
  5
819
  8
LAYER_1
 10
-6.176076118675613
 20
25.78664229481642
 30
0.0
  0
VERTEX
  5
81A
  8
LAYER_1
 10
-6.125501272704293
 20
25.76871033639662
 30
0.0
  0
VERTEX
  5
81B
  8
LAYER_1
 10
-6.057818586343051
 20
25.77322055553109
 30
0.0
  0
VERTEX
  5
81C
  8
LAYER_1
 10
-5.973741616934879
 20
25.79988114085071
 30
0.0
  0
VERTEX
  5
81D
  8
LAYER_1
 10
-5.873983921822771
 20
25.84840028098638
 30
0.0
  0
VERTEX
  5
81E
  8
LAYER_1
 10
-5.759259058349721
 20
25.918486164569
 30
0.0
  0
VERTEX
  5
81F
  8
LAYER_1
 10
-5.630280583858722
 20
26.00984698022946
 30
0.0
  0
VERTEX
  5
820
  8
LAYER_1
 10
-5.48776205569277
 20
26.12219091659865
 30
0.0
  0
VERTEX
  5
821
  8
LAYER_1
 10
-5.164959067707976
 20
26.4086609059868
 30
0.0
  0
VERTEX
  5
822
  8
LAYER_1
 10
-4.796558553139292
 20
26.7755616417806
 30
0.0
  0
VERTEX
  5
823
  8
LAYER_1
 10
-4.550910586658537
 20
27.01467040891944
 30
0.0
  0
VERTEX
  5
824
  8
LAYER_1
 10
-4.227389330468334
 20
27.30279314745346
 30
0.0
  0
VERTEX
  5
825
  8
LAYER_1
 10
-3.839822350121088
 20
27.62897202891065
 30
0.0
  0
VERTEX
  5
826
  8
LAYER_1
 10
-3.402037211169198
 20
27.98224922481904
 30
0.0
  0
VERTEX
  5
827
  8
LAYER_1
 10
-2.927861479165067
 20
28.35166690670661
 30
0.0
  0
VERTEX
  5
828
  8
LAYER_1
 10
-2.431122719661098
 20
28.72626724610138
 30
0.0
  0
VERTEX
  5
829
  8
LAYER_1
 10
-1.925648498209694
 20
29.09509241453133
 30
0.0
  0
VERTEX
  5
82A
  8
LAYER_1
 10
-1.425266380363254
 20
29.44718458352449
 30
0.0
  0
VERTEX
  5
82B
  8
LAYER_1
 10
-0.7659270776018463
 20
29.89207209006761
 30
0.0
  0
VERTEX
  5
82C
  8
LAYER_1
 10
-0.1989900107266211
 20
30.25107071972359
 30
0.0
  0
VERTEX
  5
82D
  8
LAYER_1
 10
0.0547734749285569
 20
30.40048583253464
 30
0.0
  0
VERTEX
  5
82E
  8
LAYER_1
 10
0.29137135042205
 20
30.5309776783028
 30
0.0
  0
VERTEX
  5
82F
  8
LAYER_1
 10
0.512781932023812
 20
30.64339590775437
 30
0.0
  0
VERTEX
  5
830
  8
LAYER_1
 10
0.7209835360037964
 20
30.73859017161563
 30
0.0
  0
VERTEX
  5
831
  8
LAYER_1
 10
0.9179544786319568
 20
30.81741012061289
 30
0.0
  0
VERTEX
  5
832
  8
LAYER_1
 10
1.105673076178247
 20
30.88070540547245
 30
0.0
  0
VERTEX
  5
833
  8
LAYER_1
 10
1.286117644912621
 20
30.92932567692059
 30
0.0
  0
VERTEX
  5
834
  8
LAYER_1
 10
1.461266501105031
 20
30.96412058568362
 30
0.0
  0
VERTEX
  5
835
  8
LAYER_1
 10
1.633097961025432
 20
30.98593978248784
 30
0.0
  0
VERTEX
  5
836
  8
LAYER_1
 10
1.803590340943777
 20
30.99563291805953
 30
0.0
  0
VERTEX
  5
837
  8
LAYER_1
 10
1.974721957130021
 20
30.99404964312501
 30
0.0
  0
VERTEX
  5
838
  8
LAYER_1
 10
2.148471125854115
 20
30.98203960841056
 30
0.0
  0
VERTEX
  5
839
  8
LAYER_1
 10
2.346634467195499
 20
30.96047702401112
 30
0.0
  0
VERTEX
  5
83A
  8
LAYER_1
 10
2.524986123175163
 20
30.93361698387809
 30
0.0
  0
VERTEX
  5
83B
  8
LAYER_1
 10
2.686540017174041
 20
30.89773318831662
 30
0.0
  0
VERTEX
  5
83C
  8
LAYER_1
 10
2.834310072573068
 20
30.84909933763186
 30
0.0
  0
VERTEX
  5
83D
  8
LAYER_1
 10
2.971310212753182
 20
30.78398913212895
 30
0.0
  0
VERTEX
  5
83E
  8
LAYER_1
 10
3.100554361095317
 20
30.69867627211306
 30
0.0
  0
VERTEX
  5
83F
  8
LAYER_1
 10
3.225056440980409
 20
30.58943445788933
 30
0.0
  0
VERTEX
  5
840
  8
LAYER_1
 10
3.347830375789393
 20
30.45253738976292
 30
0.0
  0
VERTEX
  5
841
  8
LAYER_1
 10
3.471890088903204
 20
30.28425876803897
 30
0.0
  0
VERTEX
  5
842
  8
LAYER_1
 10
3.600249503702779
 20
30.08087229302264
 30
0.0
  0
VERTEX
  5
843
  8
LAYER_1
 10
3.735922543569052
 20
29.83865166501907
 30
0.0
  0
VERTEX
  5
844
  8
LAYER_1
 10
3.88192313188296
 20
29.55387058433343
 30
0.0
  0
VERTEX
  5
845
  8
LAYER_1
 10
4.216962647377419
 20
28.84172186613651
 30
0.0
  0
VERTEX
  5
846
  8
LAYER_1
 10
4.629479437233641
 20
27.91461574087307
 30
0.0
  0
VERTEX
  5
847
  8
LAYER_1
 10
5.027907458421511
 20
27.03558542541868
 30
0.0
  0
VERTEX
  5
848
  8
LAYER_1
 10
5.418926121567793
 20
26.22881389636578
 30
0.0
  0
VERTEX
  5
849
  8
LAYER_1
 10
5.804001330779384
 20
25.4928599127401
 30
0.0
  0
VERTEX
  5
84A
  8
LAYER_1
 10
5.994768235193074
 20
25.150989112658
 30
0.0
  0
VERTEX
  5
84B
  8
LAYER_1
 10
6.184598990163179
 20
24.82628223356734
 30
0.0
  0
VERTEX
  5
84C
  8
LAYER_1
 10
6.373676833703058
 20
24.51855912034634
 30
0.0
  0
VERTEX
  5
84D
  8
LAYER_1
 10
6.562185003826077
 20
24.2276396178732
 30
0.0
  0
VERTEX
  5
84E
  8
LAYER_1
 10
6.750306738545594
 20
23.95334357102616
 30
0.0
  0
VERTEX
  5
84F
  8
LAYER_1
 10
6.938225275874972
 20
23.69549082468341
 30
0.0
  0
VERTEX
  5
850
  8
LAYER_1
 10
7.126123853827575
 20
23.45390122372318
 30
0.0
  0
VERTEX
  5
851
  8
LAYER_1
 10
7.314185710416763
 20
23.22839461302366
 30
0.0
  0
VERTEX
  5
852
  8
LAYER_1
 10
7.5025940836559
 20
23.01879083746309
 30
0.0
  0
VERTEX
  5
853
  8
LAYER_1
 10
7.691532211558346
 20
22.82490974191967
 30
0.0
  0
VERTEX
  5
854
  8
LAYER_1
 10
7.881183332137466
 20
22.64657117127162
 30
0.0
  0
VERTEX
  5
855
  8
LAYER_1
 10
8.071730683406619
 20
22.48359497039714
 30
0.0
  0
VERTEX
  5
856
  8
LAYER_1
 10
8.263357503379169
 20
22.33580098417446
 30
0.0
  0
VERTEX
  5
857
  8
LAYER_1
 10
8.456247030068475
 20
22.20300905748179
 30
0.0
  0
VERTEX
  5
858
  8
LAYER_1
 10
8.650582501487904
 20
22.08503903519734
 30
0.0
  0
VERTEX
  5
859
  8
LAYER_1
 10
8.846547155650814
 20
21.98171076219932
 30
0.0
  0
VERTEX
  5
85A
  8
LAYER_1
 10
9.04432423057057
 20
21.89284408336594
 30
0.0
  0
VERTEX
  5
85B
  8
LAYER_1
 10
9.24409696426053
 20
21.81825884357544
 30
0.0
  0
VERTEX
  5
85C
  8
LAYER_1
 10
9.446048594734059
 20
21.757774887706
 30
0.0
  0
VERTEX
  5
85D
  8
LAYER_1
 10
9.650362360004522
 20
21.71121206063586
 30
0.0
  0
VERTEX
  5
85E
  8
LAYER_1
 10
9.857221498085277
 20
21.67839020724321
 30
0.0
  0
VERTEX
  5
85F
  8
LAYER_1
 10
10.06680924698969
 20
21.65912917240628
 30
0.0
  0
VERTEX
  5
860
  8
LAYER_1
 10
10.27930884473111
 20
21.65324880100328
 30
0.0
  0
VERTEX
  5
861
  8
LAYER_1
 10
10.49490352932292
 20
21.66056893791242
 30
0.0
  0
VERTEX
  5
862
  8
LAYER_1
 10
10.71377653877847
 20
21.68090942801192
 30
0.0
  0
VERTEX
  5
863
  8
LAYER_1
 10
10.93611111111112
 20
21.71409011617999
 30
0.0
  0
VERTEX
  5
864
  8
LAYER_1
 10
11.1851732955701
 20
21.76405995759087
 30
0.0
  0
VERTEX
  5
865
  8
LAYER_1
 10
11.42546367940197
 20
21.82467492923932
 30
0.0
  0
VERTEX
  5
866
  8
LAYER_1
 10
11.65709784185075
 20
21.89615471419744
 30
0.0
  0
VERTEX
  5
867
  8
LAYER_1
 10
11.88019136216046
 20
21.97871899553734
 30
0.0
  0
VERTEX
  5
868
  8
LAYER_1
 10
12.09485981957513
 20
22.07258745633114
 30
0.0
  0
VERTEX
  5
869
  8
LAYER_1
 10
12.30121879333877
 20
22.17797977965093
 30
0.0
  0
VERTEX
  5
86A
  8
LAYER_1
 10
12.49938386269542
 20
22.29511564856882
 30
0.0
  0
VERTEX
  5
86B
  8
LAYER_1
 10
12.68947060688909
 20
22.42421474615693
 30
0.0
  0
VERTEX
  5
86C
  8
LAYER_1
 10
12.87159460516381
 20
22.56549675548737
 30
0.0
  0
VERTEX
  5
86D
  8
LAYER_1
 10
13.0458714367636
 20
22.71918135963222
 30
0.0
  0
VERTEX
  5
86E
  8
LAYER_1
 10
13.21241668093248
 20
22.88548824166362
 30
0.0
  0
VERTEX
  5
86F
  8
LAYER_1
 10
13.37134591691449
 20
23.06463708465366
 30
0.0
  0
VERTEX
  5
870
  8
LAYER_1
 10
13.52277472395364
 20
23.25684757167446
 30
0.0
  0
VERTEX
  5
871
  8
LAYER_1
 10
13.66681868129395
 20
23.46233938579811
 30
0.0
  0
VERTEX
  5
872
  8
LAYER_1
 10
13.80359336817946
 20
23.68133221009673
 30
0.0
  0
VERTEX
  5
873
  8
LAYER_1
 10
13.93321436385417
 20
23.91404572764243
 30
0.0
  0
VERTEX
  5
874
  8
LAYER_1
 10
14.05579724756212
 20
24.16069962150732
 30
0.0
  0
VERTEX
  5
875
  8
LAYER_1
 10
14.17145759854733
 20
24.42151357476349
 30
0.0
  0
VERTEX
  5
876
  8
LAYER_1
 10
14.28031099605382
 20
24.69670727048306
 30
0.0
  0
VERTEX
  5
877
  8
LAYER_1
 10
14.38247301932562
 20
24.98650039173814
 30
0.0
  0
VERTEX
  5
878
  8
LAYER_1
 10
14.47805924760675
 20
25.29111262160083
 30
0.0
  0
VERTEX
  5
879
  8
LAYER_1
 10
14.56718526014123
 20
25.61076364314324
 30
0.0
  0
VERTEX
  5
87A
  8
LAYER_1
 10
14.64996663617308
 20
25.94567313943749
 30
0.0
  0
VERTEX
  5
87B
  8
LAYER_1
 10
14.72651895494634
 20
26.29606079355568
 30
0.0
  0
VERTEX
  5
87C
  8
LAYER_1
 10
14.79695779570502
 20
26.66214628856991
 30
0.0
  0
VERTEX
  5
87D
  8
LAYER_1
 10
14.86139873769314
 20
27.04414930755229
 30
0.0
  0
VERTEX
  5
87E
  8
LAYER_1
 10
14.91995736015474
 20
27.44228953357494
 30
0.0
  0
VERTEX
  5
87F
  8
LAYER_1
 10
14.97274924233383
 20
27.85678664970995
 30
0.0
  0
VERTEX
  5
880
  8
LAYER_1
 10
15.06149510282058
 20
28.73573028460552
 30
0.0
  0
VERTEX
  5
881
  8
LAYER_1
 10
15.12856095310558
 20
29.68273767681586
 30
0.0
  0
VERTEX
  5
882
  8
LAYER_1
 10
15.34583333333333
 20
33.45533128700259
 30
0.0
  0
VERTEX
  5
883
  8
LAYER_1
 10
15.59407067869995
 20
33.7034492851642
 30
0.0
  0
VERTEX
  5
884
  8
LAYER_1
 10
15.62560712108137
 20
33.72209853283478
 30
0.0
  0
VERTEX
  5
885
  8
LAYER_1
 10
15.66852094483704
 20
33.72722366634907
 30
0.0
  0
VERTEX
  5
886
  8
LAYER_1
 10
15.72206732360688
 20
33.71935227714214
 30
0.0
  0
VERTEX
  5
887
  8
LAYER_1
 10
15.78550143103081
 20
33.69901195664903
 30
0.0
  0
VERTEX
  5
888
  8
LAYER_1
 10
15.93905352640066
 20
33.62303488754458
 30
0.0
  0
VERTEX
  5
889
  8
LAYER_1
 10
16.12321862006597
 20
33.50351319051624
 30
0.0
  0
VERTEX
  5
88A
  8
LAYER_1
 10
16.33203810114612
 20
33.34466759704451
 30
0.0
  0
VERTEX
  5
88B
  8
LAYER_1
 10
16.55955335876049
 20
33.15071883860989
 30
0.0
  0
VERTEX
  5
88C
  8
LAYER_1
 10
16.79980578202846
 20
32.92588764669289
 30
0.0
  0
VERTEX
  5
88D
  8
LAYER_1
 10
17.04683676006943
 20
32.67439475277402
 30
0.0
  0
VERTEX
  5
88E
  8
LAYER_1
 10
17.36711882974216
 20
32.34979071460911
 30
0.0
  0
VERTEX
  5
88F
  8
LAYER_1
 10
17.66718154996548
 20
32.07850515239615
 30
0.0
  0
VERTEX
  5
890
  8
LAYER_1
 10
17.81137890610238
 20
31.96188996075442
 30
0.0
  0
VERTEX
  5
891
  8
LAYER_1
 10
17.95261932735945
 20
31.85744418127999
 30
0.0
  0
VERTEX
  5
892
  8
LAYER_1
 10
18.0916021145642
 20
31.764781078366
 30
0.0
  0
VERTEX
  5
893
  8
LAYER_1
 10
18.22902656854414
 20
31.68351391640554
 30
0.0
  0
VERTEX
  5
894
  8
LAYER_1
 10
18.36559199012678
 20
31.61325595979172
 30
0.0
  0
VERTEX
  5
895
  8
LAYER_1
 10
18.50199768013964
 20
31.55362047291765
 30
0.0
  0
VERTEX
  5
896
  8
LAYER_1
 10
18.63894293941021
 20
31.50422072017644
 30
0.0
  0
VERTEX
  5
897
  8
LAYER_1
 10
18.77712706876601
 20
31.46466996596121
 30
0.0
  0
VERTEX
  5
898
  8
LAYER_1
 10
18.91724936903455
 20
31.43458147466507
 30
0.0
  0
VERTEX
  5
899
  8
LAYER_1
 10
19.06000914104334
 20
31.41356851068111
 30
0.0
  0
VERTEX
  5
89A
  8
LAYER_1
 10
19.20610568561989
 20
31.40124433840246
 30
0.0
  0
VERTEX
  5
89B
  8
LAYER_1
 10
19.3562383035917
 20
31.39722222222221
 30
0.0
  0
VERTEX
  5
89C
  8
LAYER_1
 10
19.70285879557757
 20
31.40778713965144
 30
0.0
  0
VERTEX
  5
89D
  8
LAYER_1
 10
19.86407798467668
 20
31.42200959276098
 30
0.0
  0
VERTEX
  5
89E
  8
LAYER_1
 10
20.01773642478933
 20
31.44309542553205
 30
0.0
  0
VERTEX
  5
89F
  8
LAYER_1
 10
20.16420908262255
 20
31.47172217551333
 30
0.0
  0
VERTEX
  5
8A0
  8
LAYER_1
 10
20.30387092488341
 20
31.50856738025349
 30
0.0
  0
VERTEX
  5
8A1
  8
LAYER_1
 10
20.43709691827896
 20
31.55430857730121
 30
0.0
  0
VERTEX
  5
8A2
  8
LAYER_1
 10
20.56426202951626
 20
31.60962330420516
 30
0.0
  0
VERTEX
  5
8A3
  8
LAYER_1
 10
20.68574122530238
 20
31.67518909851403
 30
0.0
  0
VERTEX
  5
8A4
  8
LAYER_1
 10
20.80190947234436
 20
31.7516834977765
 30
0.0
  0
VERTEX
  5
8A5
  8
LAYER_1
 10
20.91314173734927
 20
31.83978403954123
 30
0.0
  0
VERTEX
  5
8A6
  8
LAYER_1
 10
21.01981298702415
 20
31.94016826135691
 30
0.0
  0
VERTEX
  5
8A7
  8
LAYER_1
 10
21.12229818807608
 20
32.05351370077221
 30
0.0
  0
VERTEX
  5
8A8
  8
LAYER_1
 10
21.22097230721209
 20
32.18049789533583
 30
0.0
  0
VERTEX
  5
8A9
  8
LAYER_1
 10
21.31621031113926
 20
32.32179838259642
 30
0.0
  0
VERTEX
  5
8AA
  8
LAYER_1
 10
21.40838716656463
 20
32.47809270010267
 30
0.0
  0
VERTEX
  5
8AB
  8
LAYER_1
 10
21.49787784019527
 20
32.65005838540326
 30
0.0
  0
VERTEX
  5
8AC
  8
LAYER_1
 10
21.58505729873823
 20
32.83837297604686
 30
0.0
  0
VERTEX
  5
8AD
  8
LAYER_1
 10
21.67030050890056
 20
33.04371400958216
 30
0.0
  0
VERTEX
  5
8AE
  8
LAYER_1
 10
21.75398243738934
 20
33.26675902355782
 30
0.0
  0
VERTEX
  5
8AF
  8
LAYER_1
 10
21.91816231617441
 20
33.76867114302497
 30
0.0
  0
VERTEX
  5
8B0
  8
LAYER_1
 10
22.08059666874991
 20
34.34952963483774
 30
0.0
  0
VERTEX
  5
8B1
  8
LAYER_1
 10
22.24428522877227
 20
35.01475479938553
 30
0.0
  0
VERTEX
  5
8B2
  8
LAYER_1
 10
22.41222772989797
 20
35.76976693705777
 30
0.0
  0
VERTEX
  5
8B3
  8
LAYER_1
 10
22.58742390578345
 20
36.6199863482439
 30
0.0
  0
VERTEX
  5
8B4
  8
LAYER_1
 10
22.77287349008517
 20
37.57083333333333
 30
0.0
  0
VERTEX
  5
8B5
  8
LAYER_1
 10
22.79346327912661
 20
37.64636705186632
 30
0.0
  0
VERTEX
  5
8B6
  8
LAYER_1
 10
22.826938700548
 20
37.72696506076389
 30
0.0
  0
VERTEX
  5
8B7
  8
LAYER_1
 10
22.87255260027658
 20
37.81190388997396
 30
0.0
  0
VERTEX
  5
8B8
  8
LAYER_1
 10
22.92955782423963
 20
37.90046006944445
 30
0.0
  0
VERTEX
  5
8B9
  8
LAYER_1
 10
23.07475362857808
 20
38.08553059895834
 30
0.0
  0
VERTEX
  5
8BA
  8
LAYER_1
 10
23.25654888098133
 20
38.27638888888889
 30
0.0
  0
VERTEX
  5
8BB
  8
LAYER_1
 10
23.46896634886738
 20
38.46724717881944
 30
0.0
  0
VERTEX
  5
8BC
  8
LAYER_1
 10
23.70602879965423
 20
38.65231770833333
 30
0.0
  0
VERTEX
  5
8BD
  8
LAYER_1
 10
23.96175900075986
 20
38.82581271701389
 30
0.0
  0
VERTEX
  5
8BE
  8
LAYER_1
 10
24.23017971960229
 20
38.98194444444445
 30
0.0
  0
VERTEX
  5
8BF
  8
LAYER_1
 10
24.5113176381116
 20
39.14405670779587
 30
0.0
  0
VERTEX
  5
8C0
  8
LAYER_1
 10
24.78428858194371
 20
39.32598601377599
 30
0.0
  0
VERTEX
  5
8C1
  8
LAYER_1
 10
25.04904201464032
 20
39.52757891303234
 30
0.0
  0
VERTEX
  5
8C2
  8
LAYER_1
 10
25.30552739974318
 20
39.74868195621245
 30
0.0
  0
VERTEX
  5
8C3
  8
LAYER_1
 10
25.55369420079401
 20
39.98914169396383
 30
0.0
  0
VERTEX
  5
8C4
  8
LAYER_1
 10
25.79349188133453
 20
40.248804676934
 30
0.0
  0
VERTEX
  5
8C5
  8
LAYER_1
 10
26.02486990490647
 20
40.52751745577048
 30
0.0
  0
VERTEX
  5
8C6
  8
LAYER_1
 10
26.24777773505154
 20
40.82512658112078
 30
0.0
  0
VERTEX
  5
8C7
  8
LAYER_1
 10
26.46216483531149
 20
41.14147860363242
 30
0.0
  0
VERTEX
  5
8C8
  8
LAYER_1
 10
26.66798066922802
 20
41.47642007395295
 30
0.0
  0
VERTEX
  5
8C9
  8
LAYER_1
 10
26.86517470034287
 20
41.82979754272986
 30
0.0
  0
VERTEX
  5
8CA
  8
LAYER_1
 10
27.05369639219776
 20
42.20145756061069
 30
0.0
  0
VERTEX
  5
8CB
  8
LAYER_1
 10
27.23349520833442
 20
42.59124667824294
 30
0.0
  0
VERTEX
  5
8CC
  8
LAYER_1
 10
27.40452061229457
 20
42.99901144627414
 30
0.0
  0
VERTEX
  5
8CD
  8
LAYER_1
 10
27.56672206761993
 20
43.4245984153518
 30
0.0
  0
VERTEX
  5
8CE
  8
LAYER_1
 10
27.72004903785224
 20
43.86785413612346
 30
0.0
  0
VERTEX
  5
8CF
  8
LAYER_1
 10
27.86445098653321
 20
44.32862515923662
 30
0.0
  0
VERTEX
  5
8D0
  8
LAYER_1
 10
27.99987737720458
 20
44.8067580353388
 30
0.0
  0
VERTEX
  5
8D1
  8
LAYER_1
 10
28.12627767340806
 20
45.30209931507754
 30
0.0
  0
VERTEX
  5
8D2
  8
LAYER_1
 10
28.24360133868538
 20
45.81449554910034
 30
0.0
  0
VERTEX
  5
8D3
  8
LAYER_1
 10
28.35179783657826
 20
46.34379328805473
 30
0.0
  0
VERTEX
  5
8D4
  8
LAYER_1
 10
28.45081663062844
 20
46.88983908258823
 30
0.0
  0
VERTEX
  5
8D5
  8
LAYER_1
 10
28.54060718437763
 20
47.45247948334836
 30
0.0
  0
VERTEX
  5
8D6
  8
LAYER_1
 10
28.62111896136756
 20
48.03156104098262
 30
0.0
  0
VERTEX
  5
8D7
  8
LAYER_1
 10
28.69230142513996
 20
48.62693030613856
 30
0.0
  0
VERTEX
  5
8D8
  8
LAYER_1
 10
28.75410403923655
 20
49.23843382946367
 30
0.0
  0
VERTEX
  5
8D9
  8
LAYER_1
 10
28.80647626719905
 20
49.86591816160551
 30
0.0
  0
VERTEX
  5
8DA
  8
LAYER_1
 10
28.84936757256919
 20
50.50922985321156
 30
0.0
  0
VERTEX
  5
8DB
  8
LAYER_1
 10
28.8827274188887
 20
51.16821545492935
 30
0.0
  0
VERTEX
  5
8DC
  8
LAYER_1
 10
28.9065052696993
 20
51.84272151740642
 30
0.0
  0
VERTEX
  5
8DD
  8
LAYER_1
 10
28.92065058854272
 20
52.53259459129027
 30
0.0
  0
VERTEX
  5
8DE
  8
LAYER_1
 10
28.92511283896067
 20
53.23768122722842
 30
0.0
  0
VERTEX
  5
8DF
  8
LAYER_1
 10
28.92244790014355
 20
58.03194444444443
 30
0.0
  0
VERTEX
  5
8E0
  8
LAYER_1
 10
28.55447990080989
 20
60.29983993269747
 30
0.0
  0
VERTEX
  5
8E1
  8
LAYER_1
 10
28.47377134411077
 20
60.76274802392688
 30
0.0
  0
VERTEX
  5
8E2
  8
LAYER_1
 10
28.38129135069612
 20
61.22888664083549
 30
0.0
  0
VERTEX
  5
8E3
  8
LAYER_1
 10
28.27694198271384
 20
61.69844669073652
 30
0.0
  0
VERTEX
  5
8E4
  8
LAYER_1
 10
28.16062530231185
 20
62.17161908094319
 30
0.0
  0
VERTEX
  5
8E5
  8
LAYER_1
 10
28.03224337163805
 20
62.64859471876875
 30
0.0
  0
VERTEX
  5
8E6
  8
LAYER_1
 10
27.89169825284034
 20
63.12956451152643
 30
0.0
  0
VERTEX
  5
8E7
  8
LAYER_1
 10
27.73889200806666
 20
63.61471936652944
 30
0.0
  0
VERTEX
  5
8E8
  8
LAYER_1
 10
27.57372669946489
 20
64.10425019109104
 30
0.0
  0
VERTEX
  5
8E9
  8
LAYER_1
 10
27.39610438918295
 20
64.59834789252443
 30
0.0
  0
VERTEX
  5
8EA
  8
LAYER_1
 10
27.20592713936875
 20
65.09720337814286
 30
0.0
  0
VERTEX
  5
8EB
  8
LAYER_1
 10
27.00309701217021
 20
65.60100755525957
 30
0.0
  0
VERTEX
  5
8EC
  8
LAYER_1
 10
26.78751606973521
 20
66.10995133118777
 30
0.0
  0
VERTEX
  5
8ED
  8
LAYER_1
 10
26.55908637421169
 20
66.6242256132407
 30
0.0
  0
VERTEX
  5
8EE
  8
LAYER_1
 10
26.31770998774753
 20
67.1440213087316
 30
0.0
  0
VERTEX
  5
8EF
  8
LAYER_1
 10
26.06328897249067
 20
67.66952932497367
 30
0.0
  0
VERTEX
  5
8F0
  8
LAYER_1
 10
25.795725390589
 20
68.20094056928016
 30
0.0
  0
VERTEX
  5
8F1
  8
LAYER_1
 10
25.51492130419043
 20
68.73844594896431
 30
0.0
  0
VERTEX
  5
8F2
  8
LAYER_1
 10
25.22077877544287
 20
69.28223637133934
 30
0.0
  0
VERTEX
  5
8F3
  8
LAYER_1
 10
24.91319986649424
 20
69.83250274371849
 30
0.0
  0
VERTEX
  5
8F4
  8
LAYER_1
 10
24.59208663949244
 20
70.38943597341498
 30
0.0
  0
VERTEX
  5
8F5
  8
LAYER_1
 10
24.25734115658537
 20
70.95322696774205
 30
0.0
  0
VERTEX
  5
8F6
  8
LAYER_1
 10
23.90886547992095
 20
71.52406663401293
 30
0.0
  0
VERTEX
  5
8F7
  8
LAYER_1
 10
23.54656167164709
 20
72.10214587954084
 30
0.0
  0
VERTEX
  5
8F8
  8
LAYER_1
 10
23.1703317939117
 20
72.68765561163903
 30
0.0
  0
VERTEX
  5
8F9
  8
LAYER_1
 10
22.37570207864795
 20
73.88173016479914
 30
0.0
  0
VERTEX
  5
8FA
  8
LAYER_1
 10
21.52419283131298
 20
75.10781755199909
 30
0.0
  0
VERTEX
  5
8FB
  8
LAYER_1
 10
20.61502054909005
 20
76.36744503174472
 30
0.0
  0
VERTEX
  5
8FC
  8
LAYER_1
 10
19.64740172916245
 20
77.66213986254189
 30
0.0
  0
VERTEX
  5
8FD
  8
LAYER_1
 10
14.38775042591173
 20
84.19922733891181
 30
0.0
  0
VERTEX
  5
8FE
  8
LAYER_1
 10
13.13425507463879
 20
85.61308569229577
 30
0.0
  0
VERTEX
  5
8FF
  8
LAYER_1
 10
11.36009023131774
 20
87.59157513690714
 30
0.0
  0
VERTEX
  5
900
  8
LAYER_1
 10
9.301302809629508
 20
89.8723923313386
 30
0.0
  0
VERTEX
  5
901
  8
LAYER_1
 10
7.193939723255028
 20
92.19323393418284
 30
0.0
  0
VERTEX
  5
902
  8
LAYER_1
 10
2.217046113176707
 20
97.65606874609762
 30
0.0
  0
VERTEX
  5
903
  8
LAYER_1
 10
-0.1388396968922478
 20
100.5981732619377
 30
0.0
  0
VERTEX
  5
904
  8
LAYER_1
 10
-0.7558398575260141
 20
101.3837599897172
 30
0.0
  0
VERTEX
  5
905
  8
LAYER_1
 10
-1.359615944599108
 20
102.1825568862448
 30
0.0
  0
VERTEX
  5
906
  8
LAYER_1
 10
-1.948894743383444
 20
102.9923887423681
 30
0.0
  0
VERTEX
  5
907
  8
LAYER_1
 10
-2.522403039150936
 20
103.8110803489349
 30
0.0
  0
VERTEX
  5
908
  8
LAYER_1
 10
-3.078867617173499
 20
104.6364564967928
 30
0.0
  0
VERTEX
  5
909
  8
LAYER_1
 10
-3.617015262723046
 20
105.4663419767896
 30
0.0
  0
VERTEX
  5
90A
  8
LAYER_1
 10
-4.135572761071494
 20
106.2985615797731
 30
0.0
  0
VERTEX
  5
90B
  8
LAYER_1
 10
-4.633266897490754
 20
107.1309400965908
 30
0.0
  0
VERTEX
  5
90C
  8
LAYER_1
 10
-5.108824457252743
 20
107.9613023180906
 30
0.0
  0
VERTEX
  5
90D
  8
LAYER_1
 10
-5.560972225629374
 20
108.7874730351201
 30
0.0
  0
VERTEX
  5
90E
  8
LAYER_1
 10
-5.988436987892562
 20
109.6072770385271
 30
0.0
  0
VERTEX
  5
90F
  8
LAYER_1
 10
-6.38994552931422
 20
110.4185391191591
 30
0.0
  0
VERTEX
  5
910
  8
LAYER_1
 10
-6.764224635166264
 20
111.2190840678641
 30
0.0
  0
VERTEX
  5
911
  8
LAYER_1
 10
-7.110001090720607
 20
112.0067366754897
 30
0.0
  0
VERTEX
  5
912
  8
LAYER_1
 10
-7.426001681249165
 20
112.7793217328835
 30
0.0
  0
VERTEX
  5
913
  8
LAYER_1
 10
-7.710953192023851
 20
113.5346640308933
 30
0.0
  0
VERTEX
  5
914
  8
LAYER_1
 10
-8.10606152147848
 20
114.6491904081088
 30
0.0
  0
VERTEX
  5
915
  8
LAYER_1
 10
-8.267935750490594
 20
115.1330003666287
 30
0.0
  0
VERTEX
  5
916
  8
LAYER_1
 10
-8.408470344906089
 20
115.5847455634481
 30
0.0
  0
VERTEX
  5
917
  8
LAYER_1
 10
-8.529500546635106
 20
116.0171040423359
 30
0.0
  0
VERTEX
  5
918
  8
LAYER_1
 10
-8.632861597587775
 20
116.4427538470606
 30
0.0
  0
VERTEX
  5
919
  8
LAYER_1
 10
-8.72038873967424
 20
116.8743730213909
 30
0.0
  0
VERTEX
  5
91A
  8
LAYER_1
 10
-8.793917214804635
 20
117.3246396090954
 30
0.0
  0
VERTEX
  5
91B
  8
LAYER_1
 10
-8.855282264889098
 20
117.8062316539429
 30
0.0
  0
VERTEX
  5
91C
  8
LAYER_1
 10
-8.906319131837769
 20
118.3318271997019
 30
0.0
  0
VERTEX
  5
91D
  8
LAYER_1
 10
-8.948863057560782
 20
118.9141042901412
 30
0.0
  0
VERTEX
  5
91E
  8
LAYER_1
 10
-8.984749283968277
 20
119.5657409690294
 30
0.0
  0
VERTEX
  5
91F
  8
LAYER_1
 10
-9.043889606477258
 20
121.1278052672272
 30
0.0
  0
VERTEX
  5
920
  8
LAYER_1
 10
-9.098422034645807
 20
123.1194444444444
 30
0.0
  0
VERTEX
  5
921
  8
LAYER_1
 10
-9.255839400307494
 20
129.2930555555556
 30
0.0
  0
VERTEX
  5
922
  8
LAYER_1
 10
-9.718899339575067
 20
128.1305727352577
 30
0.0
  0
VERTEX
  5
923
  8
LAYER_1
 10
-9.823981988497893
 20
127.8284542673918
 30
0.0
  0
VERTEX
  5
924
  8
LAYER_1
 10
-9.902683189699047
 20
127.5171290142965
 30
0.0
  0
VERTEX
  5
925
  8
LAYER_1
 10
-9.954289629928088
 20
127.2001793643636
 30
0.0
  0
SEQEND
  5
926
  8
LAYER_1
  0
POLYLINE
  5
52
  8
LAYER_1
 66
     1
 10
0.0
 20
0.0
 30
0.0
 70
     1
  0
VERTEX
  5
927
  8
LAYER_1
 10
-13.17443070428105
 20
112.9555408393942
 30
0.0
  0
VERTEX
  5
928
  8
LAYER_1
 10
-13.21960305756843
 20
112.5976039016476
 30
0.0
  0
VERTEX
  5
929
  8
LAYER_1
 10
-13.25395030901716
 20
112.2060458080151
 30
0.0
  0
VERTEX
  5
92A
  8
LAYER_1
 10
-13.27799189063477
 20
111.7849496735438
 30
0.0
  0
VERTEX
  5
92B
  8
LAYER_1
 10
-13.29224723442879
 20
111.338398613281
 30
0.0
  0
VERTEX
  5
92C
  8
LAYER_1
 10
-13.29723577240674
 20
110.8704757422737
 30
0.0
  0
VERTEX
  5
92D
  8
LAYER_1
 10
-13.29347693657615
 20
110.3852641755692
 30
0.0
  0
VERTEX
  5
92E
  8
LAYER_1
 10
-13.26179487151946
 20
109.3793074152572
 30
0.0
  0
VERTEX
  5
92F
  8
LAYER_1
 10
-13.20135649531893
 20
108.3531932527225
 30
0.0
  0
VERTEX
  5
930
  8
LAYER_1
 10
-13.11631726403479
 20
107.3395866083423
 30
0.0
  0
VERTEX
  5
931
  8
LAYER_1
 10
-13.01083263372723
 20
106.3711524024942
 30
0.0
  0
VERTEX
  5
932
  8
LAYER_1
 10
-12.88905806045648
 20
105.4805555555556
 30
0.0
  0
VERTEX
  5
933
  8
LAYER_1
 10
-12.70732768938971
 20
104.3682755329097
 30
0.0
  0
VERTEX
  5
934
  8
LAYER_1
 10
-12.50863424211954
 20
103.3037958340639
 30
0.0
  0
VERTEX
  5
935
  8
LAYER_1
 10
-12.29085875947533
 20
102.2819466705467
 30
0.0
  0
VERTEX
  5
936
  8
LAYER_1
 10
-12.05188228228645
 20
101.2975582538866
 30
0.0
  0
VERTEX
  5
937
  8
LAYER_1
 10
-11.92378149599693
 20
100.8177962667306
 30
0.0
  0
VERTEX
  5
938
  8
LAYER_1
 10
-11.78958585138225
 20
100.345460795612
 30
0.0
  0
VERTEX
  5
939
  8
LAYER_1
 10
-11.64903047854608
 20
99.87990561697197
 30
0.0
  0
VERTEX
  5
93A
  8
LAYER_1
 10
-11.50185050759209
 20
99.42048450725153
 30
0.0
  0
VERTEX
  5
93B
  8
LAYER_1
 10
-11.34778106862395
 20
98.96655124289175
 30
0.0
  0
VERTEX
  5
93C
  8
LAYER_1
 10
-11.18655729174533
 20
98.5174596003337
 30
0.0
  0
VERTEX
  5
93D
  8
LAYER_1
 10
-11.0179143070599
 20
98.0725633560184
 30
0.0
  0
VERTEX
  5
93E
  8
LAYER_1
 10
-10.84158724467132
 20
97.63121628638697
 30
0.0
  0
VERTEX
  5
93F
  8
LAYER_1
 10
-10.65731123468328
 20
97.19277216788045
 30
0.0
  0
VERTEX
  5
940
  8
LAYER_1
 10
-10.46482140719943
 20
96.7565847769399
 30
0.0
  0
VERTEX
  5
941
  8
LAYER_1
 10
-10.26385289232346
 20
96.3220078900064
 30
0.0
  0
VERTEX
  5
942
  8
LAYER_1
 10
-10.05414082015902
 20
95.88839528352102
 30
0.0
  0
VERTEX
  5
943
  8
LAYER_1
 10
-9.835420320809783
 20
95.45510073392478
 30
0.0
  0
VERTEX
  5
944
  8
LAYER_1
 10
-9.60742652437943
 20
95.0214780176588
 30
0.0
  0
VERTEX
  5
945
  8
LAYER_1
 10
-9.369894560971625
 20
94.58688091116409
 30
0.0
  0
VERTEX
  5
946
  8
LAYER_1
 10
-9.122559560690036
 20
94.15066319088177
 30
0.0
  0
VERTEX
  5
947
  8
LAYER_1
 10
-8.59742096992019
 20
93.27078101471847
 30
0.0
  0
VERTEX
  5
948
  8
LAYER_1
 10
-8.029891792899253
 20
92.37666170069738
 30
0.0
  0
VERTEX
  5
949
  8
LAYER_1
 10
-7.417853070456581
 20
91.46313546034705
 30
0.0
  0
VERTEX
  5
94A
  8
LAYER_1
 10
-6.759185843421534
 20
90.52503250519595
 30
0.0
  0
VERTEX
  5
94B
  8
LAYER_1
 10
-4.762500000000003
 20
87.74034278816976
 30
0.0
  0
VERTEX
  5
94C
  8
LAYER_1
 10
13.22916666666667
 20
68.94251334785523
 30
0.0
  0
VERTEX
  5
94D
  8
LAYER_1
 10
15.21621969489196
 20
66.48584000726095
 30
0.0
  0
VERTEX
  5
94E
  8
LAYER_1
 10
15.71498329625823
 20
65.86154581325019
 30
0.0
  0
VERTEX
  5
94F
  8
LAYER_1
 10
16.19343917135582
 20
65.24679146549312
 30
0.0
  0
VERTEX
  5
950
  8
LAYER_1
 10
16.65268135665819
 20
64.63983150663418
 30
0.0
  0
VERTEX
  5
951
  8
LAYER_1
 10
17.09380388863876
 20
64.03892047931777
 30
0.0
  0
VERTEX
  5
952
  8
LAYER_1
 10
17.517900803771
 20
63.44231292618838
 30
0.0
  0
VERTEX
  5
953
  8
LAYER_1
 10
17.92606613852832
 20
62.84826338989045
 30
0.0
  0
VERTEX
  5
954
  8
LAYER_1
 10
18.31939392938419
 20
62.2550264130684
 30
0.0
  0
VERTEX
  5
955
  8
LAYER_1
 10
18.69897821281204
 20
61.66085653836667
 30
0.0
  0
VERTEX
  5
956
  8
LAYER_1
 10
19.06591302528531
 20
61.06400830842972
 30
0.0
  0
VERTEX
  5
957
  8
LAYER_1
 10
19.42129240327745
 20
60.46273626590199
 30
0.0
  0
VERTEX
  5
958
  8
LAYER_1
 10
19.76621038326189
 20
59.85529495342792
 30
0.0
  0
VERTEX
  5
959
  8
LAYER_1
 10
20.10176100171208
 20
59.23993891365194
 30
0.0
  0
VERTEX
  5
95A
  8
LAYER_1
 10
20.42903829510147
 20
58.61492268921851
 30
0.0
  0
VERTEX
  5
95B
  8
LAYER_1
 10
20.7491362999035
 20
57.97850082277206
 30
0.0
  0
VERTEX
  5
95C
  8
LAYER_1
 10
21.0631490525916
 20
57.32892785695705
 30
0.0
  0
VERTEX
  5
95D
  8
LAYER_1
 10
21.37217058963921
 20
56.6644583344179
 30
0.0
  0
VERTEX
  5
95E
  8
LAYER_1
 10
22.75416666666666
 20
53.63604426019938
 30
0.0
  0
VERTEX
  5
95F
  8
LAYER_1
 10
22.68974808637068
 20
55.51492986784982
 30
0.0
  0
VERTEX
  5
960
  8
LAYER_1
 10
22.66328583130854
 20
56.02117358864303
 30
0.0
  0
VERTEX
  5
961
  8
LAYER_1
 10
22.61839995315501
 20
56.53760294953545
 30
0.0
  0
VERTEX
  5
962
  8
LAYER_1
 10
22.55531122730077
 20
57.06374805227881
 30
0.0
  0
VERTEX
  5
963
  8
LAYER_1
 10
22.47424042913652
 20
57.59913899862487
 30
0.0
  0
VERTEX
  5
964
  8
LAYER_1
 10
22.37540833405295
 20
58.14330589032537
 30
0.0
  0
VERTEX
  5
965
  8
LAYER_1
 10
22.25903571744075
 20
58.69577882913207
 30
0.0
  0
VERTEX
  5
966
  8
LAYER_1
 10
22.12534335469061
 20
59.25608791679672
 30
0.0
  0
VERTEX
  5
967
  8
LAYER_1
 10
21.97455202119321
 20
59.82376325507106
 30
0.0
  0
VERTEX
  5
968
  8
LAYER_1
 10
21.80688249233925
 20
60.39833494570684
 30
0.0
  0
VERTEX
  5
969
  8
LAYER_1
 10
21.62255554351941
 20
60.9793330904558
 30
0.0
  0
VERTEX
  5
96A
  8
LAYER_1
 10
21.42179195012439
 20
61.56628779106971
 30
0.0
  0
VERTEX
  5
96B
  8
LAYER_1
 10
21.20481248754486
 20
62.15872914930031
 30
0.0
  0
VERTEX
  5
96C
  8
LAYER_1
 10
20.97183793117154
 20
62.75618726689936
 30
0.0
  0
VERTEX
  5
96D
  8
LAYER_1
 10
20.7230890563951
 20
63.35819224561859
 30
0.0
  0
VERTEX
  5
96E
  8
LAYER_1
 10
20.45878663860622
 20
63.96427418720976
 30
0.0
  0
VERTEX
  5
96F
  8
LAYER_1
 10
20.17915145319561
 20
64.57396319342462
 30
0.0
  0
VERTEX
  5
970
  8
LAYER_1
 10
19.88440427555395
 20
65.18678936601489
 30
0.0
  0
VERTEX
  5
971
  8
LAYER_1
 10
19.57476588107193
 20
65.80228280673236
 30
0.0
  0
VERTEX
  5
972
  8
LAYER_1
 10
19.25045704514023
 20
66.4199736173288
 30
0.0
  0
VERTEX
  5
973
  8
LAYER_1
 10
18.91169854314956
 20
67.03939189955588
 30
0.0
  0
VERTEX
  5
974
  8
LAYER_1
 10
18.55871115049059
 20
67.66006775516541
 30
0.0
  0
VERTEX
  5
975
  8
LAYER_1
 10
18.19171564255402
 20
68.28153128590913
 30
0.0
  0
VERTEX
  5
976
  8
LAYER_1
 10
17.81093279473054
 20
68.90331259353876
 30
0.0
  0
VERTEX
  5
977
  8
LAYER_1
 10
17.41658338241083
 20
69.52494177980608
 30
0.0
  0
VERTEX
  5
978
  8
LAYER_1
 10
17.00888818098559
 20
70.14594894646284
 30
0.0
  0
VERTEX
  5
979
  8
LAYER_1
 10
16.5880679658455
 20
70.76586419526078
 30
0.0
  0
VERTEX
  5
97A
  8
LAYER_1
 10
16.15434351238126
 20
71.38421762795164
 30
0.0
  0
VERTEX
  5
97B
  8
LAYER_1
 10
15.70793559598355
 20
72.00053934628718
 30
0.0
  0
VERTEX
  5
97C
  8
LAYER_1
 10
15.24906499204307
 20
72.61435945201914
 30
0.0
  0
VERTEX
  5
97D
  8
LAYER_1
 10
14.77795247595049
 20
73.2252080468993
 30
0.0
  0
VERTEX
  5
97E
  8
LAYER_1
 10
14.29481882309652
 20
73.83261523267936
 30
0.0
  0
VERTEX
  5
97F
  8
LAYER_1
 10
13.79988480887184
 20
74.4361111111111
 30
0.0
  0
VERTEX
  5
980
  8
LAYER_1
 10
12.18425265142876
 20
76.3763888888889
 30
0.0
  0
VERTEX
  5
981
  8
LAYER_1
 10
-1.743881489789516
 20
90.84027777777777
 30
0.0
  0
VERTEX
  5
982
  8
LAYER_1
 10
-8.515668463605593
 20
99.30694444444441
 30
0.0
  0
VERTEX
  5
983
  8
LAYER_1
 10
-10.07536290277821
 20
102.4819444444444
 30
0.0
  0
VERTEX
  5
984
  8
LAYER_1
 10
-10.49985181545394
 20
103.3743302248487
 30
0.0
  0
VERTEX
  5
985
  8
LAYER_1
 10
-10.68958373873918
 20
103.7978479666158
 30
0.0
  0
VERTEX
  5
986
  8
LAYER_1
 10
-10.86582637790793
 20
104.2110728454564
 30
0.0
  0
VERTEX
  5
987
  8
LAYER_1
 10
-11.02971903639913
 20
104.617622788393
 30
0.0
  0
VERTEX
  5
988
  8
LAYER_1
 10
-11.18240101765172
 20
105.0211157224483
 30
0.0
  0
VERTEX
  5
989
  8
LAYER_1
 10
-11.32501162510464
 20
105.4251695746448
 30
0.0
  0
VERTEX
  5
98A
  8
LAYER_1
 10
-11.45869016219684
 20
105.8334022720051
 30
0.0
  0
VERTEX
  5
98B
  8
LAYER_1
 10
-11.58457593236725
 20
106.2494317415519
 30
0.0
  0
VERTEX
  5
98C
  8
LAYER_1
 10
-11.70380823905482
 20
106.6768759103077
 30
0.0
  0
VERTEX
  5
98D
  8
LAYER_1
 10
-11.81752638569848
 20
107.1193527052951
 30
0.0
  0
VERTEX
  5
98E
  8
LAYER_1
 10
-11.92686967573718
 20
107.5804800535367
 30
0.0
  0
VERTEX
  5
98F
  8
LAYER_1
 10
-12.13698889975546
 20
108.573158117873
 30
0.0
  0
VERTEX
  5
990
  8
LAYER_1
 10
-12.3432803386212
 20
109.6838535194973
 30
0.0
  0
SEQEND
  5
991
  8
LAYER_1
  0
POLYLINE
  5
53
  8
LAYER_1
 66
     1
 10
0.0
 20
0.0
 30
0.0
 70
     1
  0
VERTEX
  5
992
  8
LAYER_1
 10
17.7127473699201
 20
47.64505545896907
 30
0.0
  0
VERTEX
  5
993
  8
LAYER_1
 10
17.78361298406941
 20
47.65225570853504
 30
0.0
  0
VERTEX
  5
994
  8
LAYER_1
 10
17.84972436644788
 20
47.67289183049684
 30
0.0
  0
VERTEX
  5
995
  8
LAYER_1
 10
17.90963457695135
 20
47.70551688475031
 30
0.0
  0
VERTEX
  5
996
  8
LAYER_1
 10
17.96189667547566
 20
47.74868393119129
 30
0.0
  0
VERTEX
  5
997
  8
LAYER_1
 10
18.00506372191663
 20
47.80094602971559
 30
0.0
  0
VERTEX
  5
998
  8
LAYER_1
 10
18.03768877617011
 20
47.86085624021906
 30
0.0
  0
VERTEX
  5
999
  8
LAYER_1
 10
18.05832489813191
 20
47.92696762259753
 30
0.0
  0
VERTEX
  5
99A
  8
LAYER_1
 10
18.06552514769788
 20
47.99783323674683
 30
0.0
  0
VERTEX
  5
99B
  8
LAYER_1
 10
18.05832489813191
 20
48.06869885089613
 30
0.0
  0
VERTEX
  5
99C
  8
LAYER_1
 10
18.03768877617011
 20
48.1348102332746
 30
0.0
  0
VERTEX
  5
99D
  8
LAYER_1
 10
18.00506372191663
 20
48.19472044377807
 30
0.0
  0
VERTEX
  5
99E
  8
LAYER_1
 10
17.96189667547566
 20
48.24698254230238
 30
0.0
  0
VERTEX
  5
99F
  8
LAYER_1
 10
17.90963457695135
 20
48.29014958874336
 30
0.0
  0
VERTEX
  5
9A0
  8
LAYER_1
 10
17.84972436644788
 20
48.32277464299683
 30
0.0
  0
VERTEX
  5
9A1
  8
LAYER_1
 10
17.78361298406941
 20
48.34341076495865
 30
0.0
  0
VERTEX
  5
9A2
  8
LAYER_1
 10
17.7127473699201
 20
48.35061101452462
 30
0.0
  0
VERTEX
  5
9A3
  8
LAYER_1
 10
17.64188175577079
 20
48.34341076495865
 30
0.0
  0
VERTEX
  5
9A4
  8
LAYER_1
 10
17.57577037339231
 20
48.32277464299683
 30
0.0
  0
VERTEX
  5
9A5
  8
LAYER_1
 10
17.51586016288883
 20
48.29014958874336
 30
0.0
  0
VERTEX
  5
9A6
  8
LAYER_1
 10
17.46359806436453
 20
48.24698254230238
 30
0.0
  0
VERTEX
  5
9A7
  8
LAYER_1
 10
17.42043101792355
 20
48.19472044377807
 30
0.0
  0
VERTEX
  5
9A8
  8
LAYER_1
 10
17.38780596367009
 20
48.1348102332746
 30
0.0
  0
VERTEX
  5
9A9
  8
LAYER_1
 10
17.36716984170828
 20
48.06869885089613
 30
0.0
  0
VERTEX
  5
9AA
  8
LAYER_1
 10
17.35996959214231
 20
47.99783323674683
 30
0.0
  0
VERTEX
  5
9AB
  8
LAYER_1
 10
17.36716984170828
 20
47.92696762259753
 30
0.0
  0
VERTEX
  5
9AC
  8
LAYER_1
 10
17.38780596367009
 20
47.86085624021906
 30
0.0
  0
VERTEX
  5
9AD
  8
LAYER_1
 10
17.42043101792355
 20
47.80094602971559
 30
0.0
  0
VERTEX
  5
9AE
  8
LAYER_1
 10
17.46359806436453
 20
47.74868393119129
 30
0.0
  0
VERTEX
  5
9AF
  8
LAYER_1
 10
17.51586016288883
 20
47.70551688475031
 30
0.0
  0
VERTEX
  5
9B0
  8
LAYER_1
 10
17.57577037339231
 20
47.67289183049684
 30
0.0
  0
VERTEX
  5
9B1
  8
LAYER_1
 10
17.64188175577079
 20
47.65225570853504
 30
0.0
  0
SEQEND
  5
9B2
  8
LAYER_1
  0
POLYLINE
  5
54
  8
LAYER_1
 66
     1
 10
0.0
 20
0.0
 30
0.0
 70
     1
  0
VERTEX
  5
9B3
  8
LAYER_1
 10
25.5368377689925
 20
53.83932764260392
 30
0.0
  0
VERTEX
  5
9B4
  8
LAYER_1
 10
25.60770338314181
 20
53.84652789216989
 30
0.0
  0
VERTEX
  5
9B5
  8
LAYER_1
 10
25.67381476552028
 20
53.8671640141317
 30
0.0
  0
VERTEX
  5
9B6
  8
LAYER_1
 10
25.73372497602376
 20
53.89978906838516
 30
0.0
  0
VERTEX
  5
9B7
  8
LAYER_1
 10
25.78598707454806
 20
53.94295611482614
 30
0.0
  0
VERTEX
  5
9B8
  8
LAYER_1
 10
25.82915412098904
 20
53.99521821335044
 30
0.0
  0
VERTEX
  5
9B9
  8
LAYER_1
 10
25.86177917524251
 20
54.05512842385392
 30
0.0
  0
VERTEX
  5
9BA
  8
LAYER_1
 10
25.88241529720431
 20
54.12123980623238
 30
0.0
  0
VERTEX
  5
9BB
  8
LAYER_1
 10
25.88961554677029
 20
54.19210542038168
 30
0.0
  0
VERTEX
  5
9BC
  8
LAYER_1
 10
25.88241529720431
 20
54.26297103453098
 30
0.0
  0
VERTEX
  5
9BD
  8
LAYER_1
 10
25.86177917524251
 20
54.32908241690945
 30
0.0
  0
VERTEX
  5
9BE
  8
LAYER_1
 10
25.82915412098904
 20
54.38899262741293
 30
0.0
  0
VERTEX
  5
9BF
  8
LAYER_1
 10
25.78598707454806
 20
54.44125472593723
 30
0.0
  0
VERTEX
  5
9C0
  8
LAYER_1
 10
25.73372497602376
 20
54.48442177237821
 30
0.0
  0
VERTEX
  5
9C1
  8
LAYER_1
 10
25.67381476552028
 20
54.51704682663168
 30
0.0
  0
VERTEX
  5
9C2
  8
LAYER_1
 10
25.60770338314181
 20
54.5376829485935
 30
0.0
  0
VERTEX
  5
9C3
  8
LAYER_1
 10
25.5368377689925
 20
54.54488319815947
 30
0.0
  0
VERTEX
  5
9C4
  8
LAYER_1
 10
25.46597215484319
 20
54.5376829485935
 30
0.0
  0
VERTEX
  5
9C5
  8
LAYER_1
 10
25.39986077246471
 20
54.51704682663168
 30
0.0
  0
VERTEX
  5
9C6
  8
LAYER_1
 10
25.33995056196124
 20
54.48442177237821
 30
0.0
  0
VERTEX
  5
9C7
  8
LAYER_1
 10
25.28768846343693
 20
54.44125472593723
 30
0.0
  0
VERTEX
  5
9C8
  8
LAYER_1
 10
25.24452141699596
 20
54.38899262741293
 30
0.0
  0
VERTEX
  5
9C9
  8
LAYER_1
 10
25.21189636274249
 20
54.32908241690945
 30
0.0
  0
VERTEX
  5
9CA
  8
LAYER_1
 10
25.19126024078069
 20
54.26297103453098
 30
0.0
  0
VERTEX
  5
9CB
  8
LAYER_1
 10
25.18405999121471
 20
54.19210542038168
 30
0.0
  0
VERTEX
  5
9CC
  8
LAYER_1
 10
25.19126024078069
 20
54.12123980623238
 30
0.0
  0
VERTEX
  5
9CD
  8
LAYER_1
 10
25.21189636274249
 20
54.05512842385392
 30
0.0
  0
VERTEX
  5
9CE
  8
LAYER_1
 10
25.24452141699596
 20
53.99521821335044
 30
0.0
  0
VERTEX
  5
9CF
  8
LAYER_1
 10
25.28768846343693
 20
53.94295611482614
 30
0.0
  0
VERTEX
  5
9D0
  8
LAYER_1
 10
25.33995056196124
 20
53.89978906838516
 30
0.0
  0
VERTEX
  5
9D1
  8
LAYER_1
 10
25.39986077246471
 20
53.8671640141317
 30
0.0
  0
VERTEX
  5
9D2
  8
LAYER_1
 10
25.46597215484319
 20
53.84652789216989
 30
0.0
  0
SEQEND
  5
9D3
  8
LAYER_1
  0
POLYLINE
  5
55
  8
LAYER_1
 66
     1
 10
0.0
 20
0.0
 30
0.0
 70
     1
  0
VERTEX
  5
9D4
  8
LAYER_1
 10
2.251328572565978
 20
43.94265928945908
 30
0.0
  0
VERTEX
  5
9D5
  8
LAYER_1
 10
2.322194186715285
 20
43.94985953902505
 30
0.0
  0
VERTEX
  5
9D6
  8
LAYER_1
 10
2.388305569093759
 20
43.97049566098686
 30
0.0
  0
VERTEX
  5
9D7
  8
LAYER_1
 10
2.448215779597232
 20
44.00312071524033
 30
0.0
  0
VERTEX
  5
9D8
  8
LAYER_1
 10
2.500477878121538
 20
44.0462877616813
 30
0.0
  0
VERTEX
  5
9D9
  8
LAYER_1
 10
2.543644924562511
 20
44.0985498602056
 30
0.0
  0
VERTEX
  5
9DA
  8
LAYER_1
 10
2.576269978815983
 20
44.15846007070907
 30
0.0
  0
VERTEX
  5
9DB
  8
LAYER_1
 10
2.596906100777788
 20
44.22457145308753
 30
0.0
  0
VERTEX
  5
9DC
  8
LAYER_1
 10
2.604106350343761
 20
44.29543706723684
 30
0.0
  0
VERTEX
  5
9DD
  8
LAYER_1
 10
2.596906100777788
 20
44.36630268138614
 30
0.0
  0
VERTEX
  5
9DE
  8
LAYER_1
 10
2.576269978815983
 20
44.43241406376462
 30
0.0
  0
VERTEX
  5
9DF
  8
LAYER_1
 10
2.543644924562511
 20
44.49232427426809
 30
0.0
  0
VERTEX
  5
9E0
  8
LAYER_1
 10
2.500477878121538
 20
44.54458637279239
 30
0.0
  0
VERTEX
  5
9E1
  8
LAYER_1
 10
2.448215779597232
 20
44.58775341923338
 30
0.0
  0
VERTEX
  5
9E2
  8
LAYER_1
 10
2.388305569093759
 20
44.62037847348685
 30
0.0
  0
VERTEX
  5
9E3
  8
LAYER_1
 10
2.322194186715285
 20
44.64101459544866
 30
0.0
  0
VERTEX
  5
9E4
  8
LAYER_1
 10
2.251328572565978
 20
44.64821484501463
 30
0.0
  0
VERTEX
  5
9E5
  8
LAYER_1
 10
2.180462958416666
 20
44.64101459544866
 30
0.0
  0
VERTEX
  5
9E6
  8
LAYER_1
 10
2.114351576038191
 20
44.62037847348685
 30
0.0
  0
VERTEX
  5
9E7
  8
LAYER_1
 10
2.054441365534717
 20
44.58775341923338
 30
0.0
  0
VERTEX
  5
9E8
  8
LAYER_1
 10
2.002179267010411
 20
44.54458637279239
 30
0.0
  0
VERTEX
  5
9E9
  8
LAYER_1
 10
1.959012220569439
 20
44.49232427426809
 30
0.0
  0
VERTEX
  5
9EA
  8
LAYER_1
 10
1.926387166315968
 20
44.43241406376462
 30
0.0
  0
VERTEX
  5
9EB
  8
LAYER_1
 10
1.905751044354163
 20
44.36630268138614
 30
0.0
  0
VERTEX
  5
9EC
  8
LAYER_1
 10
1.898550794788191
 20
44.29543706723684
 30
0.0
  0
VERTEX
  5
9ED
  8
LAYER_1
 10
1.905751044354163
 20
44.22457145308753
 30
0.0
  0
VERTEX
  5
9EE
  8
LAYER_1
 10
1.926387166315968
 20
44.15846007070907
 30
0.0
  0
VERTEX
  5
9EF
  8
LAYER_1
 10
1.959012220569439
 20
44.0985498602056
 30
0.0
  0
VERTEX
  5
9F0
  8
LAYER_1
 10
2.002179267010411
 20
44.0462877616813
 30
0.0
  0
VERTEX
  5
9F1
  8
LAYER_1
 10
2.054441365534717
 20
44.00312071524033
 30
0.0
  0
VERTEX
  5
9F2
  8
LAYER_1
 10
2.114351576038191
 20
43.97049566098686
 30
0.0
  0
VERTEX
  5
9F3
  8
LAYER_1
 10
2.180462958416666
 20
43.94985953902505
 30
0.0
  0
SEQEND
  5
9F4
  8
LAYER_1
  0
POLYLINE
  5
56
  8
LAYER_1
 66
     1
 10
0.0
 20
0.0
 30
0.0
 70
     1
  0
VERTEX
  5
9F5
  8
LAYER_1
 10
-1.402996385532142
 20
66.09906608179001
 30
0.0
  0
VERTEX
  5
9F6
  8
LAYER_1
 10
-1.332130771382834
 20
66.10626633135598
 30
0.0
  0
VERTEX
  5
9F7
  8
LAYER_1
 10
-1.266019389004361
 20
66.12690245331778
 30
0.0
  0
VERTEX
  5
9F8
  8
LAYER_1
 10
-1.206109178500888
 20
66.15952750757126
 30
0.0
  0
VERTEX
  5
9F9
  8
LAYER_1
 10
-1.153847079976581
 20
66.20269455401224
 30
0.0
  0
VERTEX
  5
9FA
  8
LAYER_1
 10
-1.110680033535609
 20
66.25495665253655
 30
0.0
  0
VERTEX
  5
9FB
  8
LAYER_1
 10
-1.078054979282137
 20
66.31486686304001
 30
0.0
  0
VERTEX
  5
9FC
  8
LAYER_1
 10
-1.057418857320331
 20
66.38097824541849
 30
0.0
  0
VERTEX
  5
9FD
  8
LAYER_1
 10
-1.050218607754359
 20
66.45184385956779
 30
0.0
  0
VERTEX
  5
9FE
  8
LAYER_1
 10
-1.057418857320331
 20
66.52270947371709
 30
0.0
  0
VERTEX
  5
9FF
  8
LAYER_1
 10
-1.078054979282137
 20
66.58882085609557
 30
0.0
  0
VERTEX
  5
A00
  8
LAYER_1
 10
-1.110680033535609
 20
66.64873106659903
 30
0.0
  0
VERTEX
  5
A01
  8
LAYER_1
 10
-1.153847079976581
 20
66.70099316512334
 30
0.0
  0
VERTEX
  5
A02
  8
LAYER_1
 10
-1.206109178500888
 20
66.74416021156432
 30
0.0
  0
VERTEX
  5
A03
  8
LAYER_1
 10
-1.266019389004361
 20
66.7767852658178
 30
0.0
  0
VERTEX
  5
A04
  8
LAYER_1
 10
-1.332130771382834
 20
66.7974213877796
 30
0.0
  0
VERTEX
  5
A05
  8
LAYER_1
 10
-1.402996385532142
 20
66.80462163734558
 30
0.0
  0
VERTEX
  5
A06
  8
LAYER_1
 10
-1.473861999681453
 20
66.7974213877796
 30
0.0
  0
VERTEX
  5
A07
  8
LAYER_1
 10
-1.539973382059929
 20
66.7767852658178
 30
0.0
  0
VERTEX
  5
A08
  8
LAYER_1
 10
-1.599883592563403
 20
66.74416021156432
 30
0.0
  0
VERTEX
  5
A09
  8
LAYER_1
 10
-1.652145691087709
 20
66.70099316512334
 30
0.0
  0
VERTEX
  5
A0A
  8
LAYER_1
 10
-1.695312737528681
 20
66.64873106659903
 30
0.0
  0
VERTEX
  5
A0B
  8
LAYER_1
 10
-1.727937791782152
 20
66.58882085609557
 30
0.0
  0
VERTEX
  5
A0C
  8
LAYER_1
 10
-1.748573913743957
 20
66.52270947371709
 30
0.0
  0
VERTEX
  5
A0D
  8
LAYER_1
 10
-1.755774163309929
 20
66.45184385956779
 30
0.0
  0
VERTEX
  5
A0E
  8
LAYER_1
 10
-1.748573913743957
 20
66.38097824541849
 30
0.0
  0
VERTEX
  5
A0F
  8
LAYER_1
 10
-1.727937791782152
 20
66.31486686304001
 30
0.0
  0
VERTEX
  5
A10
  8
LAYER_1
 10
-1.695312737528681
 20
66.25495665253655
 30
0.0
  0
VERTEX
  5
A11
  8
LAYER_1
 10
-1.652145691087709
 20
66.20269455401224
 30
0.0
  0
VERTEX
  5
A12
  8
LAYER_1
 10
-1.599883592563403
 20
66.15952750757126
 30
0.0
  0
VERTEX
  5
A13
  8
LAYER_1
 10
-1.539973382059929
 20
66.12690245331778
 30
0.0
  0
VERTEX
  5
A14
  8
LAYER_1
 10
-1.473861999681453
 20
66.10626633135598
 30
0.0
  0
SEQEND
  5
A15
  8
LAYER_1
  0
POLYLINE
  5
57
  8
LAYER_1
 66
     1
 10
0.0
 20
0.0
 30
0.0
 70
     1
  0
VERTEX
  5
A16
  8
LAYER_1
 10
11.61259225303116
 20
66.88792698701091
 30
0.0
  0
VERTEX
  5
A17
  8
LAYER_1
 10
11.68345786718047
 20
66.89512723657688
 30
0.0
  0
VERTEX
  5
A18
  8
LAYER_1
 10
11.74956924955894
 20
66.91576335853868
 30
0.0
  0
VERTEX
  5
A19
  8
LAYER_1
 10
11.80947946006242
 20
66.94838841279216
 30
0.0
  0
VERTEX
  5
A1A
  8
LAYER_1
 10
11.86174155858672
 20
66.99155545923314
 30
0.0
  0
VERTEX
  5
A1B
  8
LAYER_1
 10
11.90490860502769
 20
67.04381755775745
 30
0.0
  0
VERTEX
  5
A1C
  8
LAYER_1
 10
11.93753365928117
 20
67.10372776826091
 30
0.0
  0
VERTEX
  5
A1D
  8
LAYER_1
 10
11.95816978124297
 20
67.16983915063939
 30
0.0
  0
VERTEX
  5
A1E
  8
LAYER_1
 10
11.96537003080895
 20
67.24070476478869
 30
0.0
  0
VERTEX
  5
A1F
  8
LAYER_1
 10
11.95816978124297
 20
67.31157037893799
 30
0.0
  0
VERTEX
  5
A20
  8
LAYER_1
 10
11.93753365928117
 20
67.37768176131647
 30
0.0
  0
VERTEX
  5
A21
  8
LAYER_1
 10
11.90490860502769
 20
67.43759197181993
 30
0.0
  0
VERTEX
  5
A22
  8
LAYER_1
 10
11.86174155858672
 20
67.48985407034424
 30
0.0
  0
VERTEX
  5
A23
  8
LAYER_1
 10
11.80947946006242
 20
67.53302111678522
 30
0.0
  0
VERTEX
  5
A24
  8
LAYER_1
 10
11.74956924955894
 20
67.5656461710387
 30
0.0
  0
VERTEX
  5
A25
  8
LAYER_1
 10
11.68345786718047
 20
67.5862822930005
 30
0.0
  0
VERTEX
  5
A26
  8
LAYER_1
 10
11.61259225303116
 20
67.59348254256648
 30
0.0
  0
VERTEX
  5
A27
  8
LAYER_1
 10
11.54172663888185
 20
67.5862822930005
 30
0.0
  0
VERTEX
  5
A28
  8
LAYER_1
 10
11.47561525650337
 20
67.5656461710387
 30
0.0
  0
VERTEX
  5
A29
  8
LAYER_1
 10
11.4157050459999
 20
67.53302111678522
 30
0.0
  0
VERTEX
  5
A2A
  8
LAYER_1
 10
11.36344294747559
 20
67.48985407034424
 30
0.0
  0
VERTEX
  5
A2B
  8
LAYER_1
 10
11.32027590103462
 20
67.43759197181993
 30
0.0
  0
VERTEX
  5
A2C
  8
LAYER_1
 10
11.28765084678115
 20
67.37768176131647
 30
0.0
  0
VERTEX
  5
A2D
  8
LAYER_1
 10
11.26701472481935
 20
67.31157037893799
 30
0.0
  0
VERTEX
  5
A2E
  8
LAYER_1
 10
11.25981447525337
 20
67.24070476478869
 30
0.0
  0
VERTEX
  5
A2F
  8
LAYER_1
 10
11.26701472481935
 20
67.16983915063939
 30
0.0
  0
VERTEX
  5
A30
  8
LAYER_1
 10
11.28765084678115
 20
67.10372776826091
 30
0.0
  0
VERTEX
  5
A31
  8
LAYER_1
 10
11.32027590103462
 20
67.04381755775745
 30
0.0
  0
VERTEX
  5
A32
  8
LAYER_1
 10
11.36344294747559
 20
66.99155545923314
 30
0.0
  0
VERTEX
  5
A33
  8
LAYER_1
 10
11.4157050459999
 20
66.94838841279216
 30
0.0
  0
VERTEX
  5
A34
  8
LAYER_1
 10
11.47561525650337
 20
66.91576335853868
 30
0.0
  0
VERTEX
  5
A35
  8
LAYER_1
 10
11.54172663888185
 20
66.89512723657688
 30
0.0
  0
SEQEND
  5
A36
  8
LAYER_1
  0
POLYLINE
  5
58
  8
LAYER_1
 66
     1
 10
0.0
 20
0.0
 30
0.0
 70
     1
  0
VERTEX
  5
A37
  8
LAYER_1
 10
-6.580529890561477
 20
71.98893059323984
 30
0.0
  0
VERTEX
  5
A38
  8
LAYER_1
 10
-6.509664276412167
 20
71.99613084280583
 30
0.0
  0
VERTEX
  5
A39
  8
LAYER_1
 10
-6.443552894033692
 20
72.01676696476763
 30
0.0
  0
VERTEX
  5
A3A
  8
LAYER_1
 10
-6.383642683530217
 20
72.0493920190211
 30
0.0
  0
VERTEX
  5
A3B
  8
LAYER_1
 10
-6.33138058500591
 20
72.09255906546207
 30
0.0
  0
VERTEX
  5
A3C
  8
LAYER_1
 10
-6.288213538564936
 20
72.14482116398636
 30
0.0
  0
VERTEX
  5
A3D
  8
LAYER_1
 10
-6.255588484311463
 20
72.20473137448985
 30
0.0
  0
VERTEX
  5
A3E
  8
LAYER_1
 10
-6.234952362349657
 20
72.27084275686832
 30
0.0
  0
VERTEX
  5
A3F
  8
LAYER_1
 10
-6.227752112783684
 20
72.34170837101762
 30
0.0
  0
VERTEX
  5
A40
  8
LAYER_1
 10
-6.234952362349657
 20
72.41257398516692
 30
0.0
  0
VERTEX
  5
A41
  8
LAYER_1
 10
-6.255588484311463
 20
72.47868536754538
 30
0.0
  0
VERTEX
  5
A42
  8
LAYER_1
 10
-6.288213538564936
 20
72.53859557804887
 30
0.0
  0
VERTEX
  5
A43
  8
LAYER_1
 10
-6.33138058500591
 20
72.59085767657318
 30
0.0
  0
VERTEX
  5
A44
  8
LAYER_1
 10
-6.383642683530217
 20
72.63402472301416
 30
0.0
  0
VERTEX
  5
A45
  8
LAYER_1
 10
-6.443552894033692
 20
72.66664977726764
 30
0.0
  0
VERTEX
  5
A46
  8
LAYER_1
 10
-6.509664276412167
 20
72.68728589922944
 30
0.0
  0
VERTEX
  5
A47
  8
LAYER_1
 10
-6.580529890561477
 20
72.6944861487954
 30
0.0
  0
VERTEX
  5
A48
  8
LAYER_1
 10
-6.65139550471079
 20
72.68728589922944
 30
0.0
  0
VERTEX
  5
A49
  8
LAYER_1
 10
-6.717506887089265
 20
72.66664977726764
 30
0.0
  0
VERTEX
  5
A4A
  8
LAYER_1
 10
-6.77741709759274
 20
72.63402472301416
 30
0.0
  0
VERTEX
  5
A4B
  8
LAYER_1
 10
-6.829679196117046
 20
72.59085767657318
 30
0.0
  0
VERTEX
  5
A4C
  8
LAYER_1
 10
-6.872846242558017
 20
72.53859557804887
 30
0.0
  0
VERTEX
  5
A4D
  8
LAYER_1
 10
-6.905471296811489
 20
72.47868536754538
 30
0.0
  0
VERTEX
  5
A4E
  8
LAYER_1
 10
-6.926107418773293
 20
72.41257398516692
 30
0.0
  0
VERTEX
  5
A4F
  8
LAYER_1
 10
-6.933307668339266
 20
72.34170837101762
 30
0.0
  0
VERTEX
  5
A50
  8
LAYER_1
 10
-6.926107418773293
 20
72.27084275686832
 30
0.0
  0
VERTEX
  5
A51
  8
LAYER_1
 10
-6.905471296811489
 20
72.20473137448985
 30
0.0
  0
VERTEX
  5
A52
  8
LAYER_1
 10
-6.872846242558017
 20
72.14482116398636
 30
0.0
  0
VERTEX
  5
A53
  8
LAYER_1
 10
-6.829679196117046
 20
72.09255906546207
 30
0.0
  0
VERTEX
  5
A54
  8
LAYER_1
 10
-6.77741709759274
 20
72.0493920190211
 30
0.0
  0
VERTEX
  5
A55
  8
LAYER_1
 10
-6.717506887089265
 20
72.01676696476763
 30
0.0
  0
VERTEX
  5
A56
  8
LAYER_1
 10
-6.65139550471079
 20
71.99613084280583
 30
0.0
  0
SEQEND
  5
A57
  8
LAYER_1
  0
POLYLINE
  5
59
  8
LAYER_1
 66
     1
 10
0.0
 20
0.0
 30
0.0
 70
     1
  0
VERTEX
  5
A58
  8
LAYER_1
 10
-19.96794626790795
 20
73.89515442243588
 30
0.0
  0
VERTEX
  5
A59
  8
LAYER_1
 10
-19.89708065375864
 20
73.90235467200185
 30
0.0
  0
VERTEX
  5
A5A
  8
LAYER_1
 10
-19.83096927138017
 20
73.92299079396365
 30
0.0
  0
VERTEX
  5
A5B
  8
LAYER_1
 10
-19.77105906087669
 20
73.95561584821712
 30
0.0
  0
VERTEX
  5
A5C
  8
LAYER_1
 10
-19.71879696235238
 20
73.9987828946581
 30
0.0
  0
VERTEX
  5
A5D
  8
LAYER_1
 10
-19.67562991591141
 20
74.05104499318242
 30
0.0
  0
VERTEX
  5
A5E
  8
LAYER_1
 10
-19.64300486165794
 20
74.11095520368588
 30
0.0
  0
VERTEX
  5
A5F
  8
LAYER_1
 10
-19.62236873969613
 20
74.17706658606436
 30
0.0
  0
VERTEX
  5
A60
  8
LAYER_1
 10
-19.61516849013016
 20
74.24793220021365
 30
0.0
  0
VERTEX
  5
A61
  8
LAYER_1
 10
-19.62236873969613
 20
74.31879781436295
 30
0.0
  0
VERTEX
  5
A62
  8
LAYER_1
 10
-19.64300486165794
 20
74.38490919674143
 30
0.0
  0
VERTEX
  5
A63
  8
LAYER_1
 10
-19.67562991591141
 20
74.44481940724489
 30
0.0
  0
VERTEX
  5
A64
  8
LAYER_1
 10
-19.71879696235238
 20
74.4970815057692
 30
0.0
  0
VERTEX
  5
A65
  8
LAYER_1
 10
-19.77105906087669
 20
74.54024855221019
 30
0.0
  0
VERTEX
  5
A66
  8
LAYER_1
 10
-19.83096927138017
 20
74.57287360646366
 30
0.0
  0
VERTEX
  5
A67
  8
LAYER_1
 10
-19.89708065375864
 20
74.59350972842546
 30
0.0
  0
VERTEX
  5
A68
  8
LAYER_1
 10
-19.96794626790795
 20
74.60070997799144
 30
0.0
  0
VERTEX
  5
A69
  8
LAYER_1
 10
-20.03881188205726
 20
74.59350972842546
 30
0.0
  0
VERTEX
  5
A6A
  8
LAYER_1
 10
-20.10492326443574
 20
74.57287360646366
 30
0.0
  0
VERTEX
  5
A6B
  8
LAYER_1
 10
-20.16483347493921
 20
74.54024855221019
 30
0.0
  0
VERTEX
  5
A6C
  8
LAYER_1
 10
-20.21709557346352
 20
74.4970815057692
 30
0.0
  0
VERTEX
  5
A6D
  8
LAYER_1
 10
-20.26026261990449
 20
74.44481940724489
 30
0.0
  0
VERTEX
  5
A6E
  8
LAYER_1
 10
-20.29288767415796
 20
74.38490919674143
 30
0.0
  0
VERTEX
  5
A6F
  8
LAYER_1
 10
-20.31352379611977
 20
74.31879781436295
 30
0.0
  0
VERTEX
  5
A70
  8
LAYER_1
 10
-20.32072404568574
 20
74.24793220021365
 30
0.0
  0
VERTEX
  5
A71
  8
LAYER_1
 10
-20.31352379611977
 20
74.17706658606436
 30
0.0
  0
VERTEX
  5
A72
  8
LAYER_1
 10
-20.29288767415796
 20
74.11095520368588
 30
0.0
  0
VERTEX
  5
A73
  8
LAYER_1
 10
-20.26026261990449
 20
74.05104499318242
 30
0.0
  0
VERTEX
  5
A74
  8
LAYER_1
 10
-20.21709557346352
 20
73.9987828946581
 30
0.0
  0
VERTEX
  5
A75
  8
LAYER_1
 10
-20.16483347493921
 20
73.95561584821712
 30
0.0
  0
VERTEX
  5
A76
  8
LAYER_1
 10
-20.10492326443574
 20
73.92299079396365
 30
0.0
  0
VERTEX
  5
A77
  8
LAYER_1
 10
-20.03881188205726
 20
73.90235467200185
 30
0.0
  0
SEQEND
  5
A78
  8
LAYER_1
  0
POLYLINE
  5
5A
  8
LAYER_1
 66
     1
 10
0.0
 20
0.0
 30
0.0
 70
     1
  0
VERTEX
  5
A79
  8
LAYER_1
 10
-14.71978716945321
 20
60.56778777038363
 30
0.0
  0
VERTEX
  5
A7A
  8
LAYER_1
 10
-14.6489215553039
 20
60.5749880199496
 30
0.0
  0
VERTEX
  5
A7B
  8
LAYER_1
 10
-14.58281017292543
 20
60.59562414191141
 30
0.0
  0
VERTEX
  5
A7C
  8
LAYER_1
 10
-14.52289996242195
 20
60.62824919616489
 30
0.0
  0
VERTEX
  5
A7D
  8
LAYER_1
 10
-14.47063786389764
 20
60.67141624260586
 30
0.0
  0
VERTEX
  5
A7E
  8
LAYER_1
 10
-14.42747081745667
 20
60.72367834113017
 30
0.0
  0
VERTEX
  5
A7F
  8
LAYER_1
 10
-14.3948457632032
 20
60.78358855163363
 30
0.0
  0
VERTEX
  5
A80
  8
LAYER_1
 10
-14.37420964124139
 20
60.84969993401211
 30
0.0
  0
VERTEX
  5
A81
  8
LAYER_1
 10
-14.36700939167542
 20
60.92056554816141
 30
0.0
  0
VERTEX
  5
A82
  8
LAYER_1
 10
-14.37420964124139
 20
60.99143116231072
 30
0.0
  0
VERTEX
  5
A83
  8
LAYER_1
 10
-14.3948457632032
 20
61.05754254468919
 30
0.0
  0
VERTEX
  5
A84
  8
LAYER_1
 10
-14.42747081745667
 20
61.11745275519266
 30
0.0
  0
VERTEX
  5
A85
  8
LAYER_1
 10
-14.47063786389764
 20
61.16971485371697
 30
0.0
  0
VERTEX
  5
A86
  8
LAYER_1
 10
-14.52289996242195
 20
61.21288190015795
 30
0.0
  0
VERTEX
  5
A87
  8
LAYER_1
 10
-14.58281017292543
 20
61.24550695441143
 30
0.0
  0
VERTEX
  5
A88
  8
LAYER_1
 10
-14.6489215553039
 20
61.26614307637324
 30
0.0
  0
VERTEX
  5
A89
  8
LAYER_1
 10
-14.71978716945321
 20
61.27334332593921
 30
0.0
  0
VERTEX
  5
A8A
  8
LAYER_1
 10
-14.79065278360252
 20
61.26614307637324
 30
0.0
  0
VERTEX
  5
A8B
  8
LAYER_1
 10
-14.856764165981
 20
61.24550695441143
 30
0.0
  0
VERTEX
  5
A8C
  8
LAYER_1
 10
-14.91667437648447
 20
61.21288190015795
 30
0.0
  0
VERTEX
  5
A8D
  8
LAYER_1
 10
-14.96893647500878
 20
61.16971485371697
 30
0.0
  0
VERTEX
  5
A8E
  8
LAYER_1
 10
-15.01210352144975
 20
61.11745275519266
 30
0.0
  0
VERTEX
  5
A8F
  8
LAYER_1
 10
-15.04472857570322
 20
61.05754254468919
 30
0.0
  0
VERTEX
  5
A90
  8
LAYER_1
 10
-15.06536469766503
 20
60.99143116231072
 30
0.0
  0
VERTEX
  5
A91
  8
LAYER_1
 10
-15.072564947231
 20
60.92056554816141
 30
0.0
  0
VERTEX
  5
A92
  8
LAYER_1
 10
-15.06536469766503
 20
60.84969993401211
 30
0.0
  0
VERTEX
  5
A93
  8
LAYER_1
 10
-15.04472857570322
 20
60.78358855163363
 30
0.0
  0
VERTEX
  5
A94
  8
LAYER_1
 10
-15.01210352144975
 20
60.72367834113017
 30
0.0
  0
VERTEX
  5
A95
  8
LAYER_1
 10
-14.96893647500878
 20
60.67141624260586
 30
0.0
  0
VERTEX
  5
A96
  8
LAYER_1
 10
-14.91667437648447
 20
60.62824919616489
 30
0.0
  0
VERTEX
  5
A97
  8
LAYER_1
 10
-14.856764165981
 20
60.59562414191141
 30
0.0
  0
VERTEX
  5
A98
  8
LAYER_1
 10
-14.79065278360252
 20
60.5749880199496
 30
0.0
  0
SEQEND
  5
A99
  8
LAYER_1
  0
POLYLINE
  5
5B
  8
LAYER_1
 66
     1
 10
0.0
 20
0.0
 30
0.0
 70
     1
  0
VERTEX
  5
A9A
  8
LAYER_1
 10
-21.01352217691147
 20
54.57852594761818
 30
0.0
  0
VERTEX
  5
A9B
  8
LAYER_1
 10
-21.13545044745901
 20
54.58496661468632
 30
0.0
  0
VERTEX
  5
A9C
  8
LAYER_1
 10
-21.25663969627492
 20
54.58312592069149
 30
0.0
  0
VERTEX
  5
A9D
  8
LAYER_1
 10
-21.37671470663606
 20
54.57317742764406
 30
0.0
  0
VERTEX
  5
A9E
  8
LAYER_1
 10
-21.49530026181927
 20
54.55529469755443
 30
0.0
  0
VERTEX
  5
A9F
  8
LAYER_1
 10
-21.61202114510139
 20
54.52965129243297
 30
0.0
  0
VERTEX
  5
AA0
  8
LAYER_1
 10
-21.72650213975928
 20
54.49642077429006
 30
0.0
  0
VERTEX
  5
AA1
  8
LAYER_1
 10
-21.83836802906979
 20
54.45577670513607
 30
0.0
  0
VERTEX
  5
AA2
  8
LAYER_1
 10
-21.94724359630977
 20
54.4078926469814
 30
0.0
  0
VERTEX
  5
AA3
  8
LAYER_1
 10
-22.05275362475606
 20
54.35294216183641
 30
0.0
  0
VERTEX
  5
AA4
  8
LAYER_1
 10
-22.15452289768552
 20
54.2910988117115
 30
0.0
  0
VERTEX
  5
AA5
  8
LAYER_1
 10
-22.25217619837499
 20
54.22253615861705
 30
0.0
  0
VERTEX
  5
AA6
  8
LAYER_1
 10
-22.34533831010132
 20
54.14742776456341
 30
0.0
  0
VERTEX
  5
AA7
  8
LAYER_1
 10
-22.43363401614137
 20
54.06594719156099
 30
0.0
  0
VERTEX
  5
AA8
  8
LAYER_1
 10
-22.51668809977198
 20
53.97826800162017
 30
0.0
  0
VERTEX
  5
AA9
  8
LAYER_1
 10
-22.59412534426999
 20
53.88456375675131
 30
0.0
  0
VERTEX
  5
AAA
  8
LAYER_1
 10
-22.66557053291227
 20
53.7850080189648
 30
0.0
  0
VERTEX
  5
AAB
  8
LAYER_1
 10
-22.68818733732159
 20
53.76342837817244
 30
0.0
  0
VERTEX
  5
AAC
  8
LAYER_1
 10
-22.72002300391807
 20
53.74907536356918
 30
0.0
  0
VERTEX
  5
AAD
  8
LAYER_1
 10
-22.79724454993464
 20
53.74157627252111
 30
0.0
  0
VERTEX
  5
AAE
  8
LAYER_1
 10
-22.83557724248579
 20
53.74819372587187
 30
0.0
  0
VERTEX
  5
AAF
  8
LAYER_1
 10
-22.8690224234862
 20
53.7615648650029
 30
0.0
  0
VERTEX
  5
AB0
  8
LAYER_1
 10
-22.89405349950141
 20
53.78157145481195
 30
0.0
  0
VERTEX
  5
AB1
  8
LAYER_1
 10
-22.90714387709694
 20
53.80809526019684
 30
0.0
  0
VERTEX
  5
AB2
  8
LAYER_1
 10
-22.92332802550082
 20
53.91271854491471
 30
0.0
  0
VERTEX
  5
AB3
  8
LAYER_1
 10
-22.92994400812668
 20
54.01513905826121
 30
0.0
  0
VERTEX
  5
AB4
  8
LAYER_1
 10
-22.92742845832197
 20
54.11510802468375
 30
0.0
  0
VERTEX
  5
AB5
  8
LAYER_1
 10
-22.91621800943413
 20
54.21237666862973
 30
0.0
  0
VERTEX
  5
AB6
  8
LAYER_1
 10
-22.89674929481062
 20
54.30669621454657
 30
0.0
  0
VERTEX
  5
AB7
  8
LAYER_1
 10
-22.86945894779888
 20
54.39781788688167
 30
0.0
  0
VERTEX
  5
AB8
  8
LAYER_1
 10
-22.83478360174636
 20
54.48549291008243
 30
0.0
  0
VERTEX
  5
AB9
  8
LAYER_1
 10
-22.7931598900005
 20
54.56947250859628
 30
0.0
  0
VERTEX
  5
ABA
  8
LAYER_1
 10
-22.69081390281855
 20
54.72535032935284
 30
0.0
  0
VERTEX
  5
ABB
  8
LAYER_1
 10
-22.56591405303262
 20
54.86346114473061
 30
0.0
  0
VERTEX
  5
ABC
  8
LAYER_1
 10
-22.42195340742229
 20
54.98181475030885
 30
0.0
  0
VERTEX
  5
ABD
  8
LAYER_1
 10
-22.26242503276712
 20
55.07842094166683
 30
0.0
  0
VERTEX
  5
ABE
  8
LAYER_1
 10
-22.09082199584669
 20
55.15128951438383
 30
0.0
  0
VERTEX
  5
ABF
  8
LAYER_1
 10
-21.91063736344058
 20
55.19843026403909
 30
0.0
  0
VERTEX
  5
AC0
  8
LAYER_1
 10
-21.72536420232836
 20
55.21785298621188
 30
0.0
  0
VERTEX
  5
AC1
  8
LAYER_1
 10
-21.63191100687609
 20
55.21654814811088
 30
0.0
  0
VERTEX
  5
AC2
  8
LAYER_1
 10
-21.53849557928962
 20
55.20756747648149
 30
0.0
  0
VERTEX
  5
AC3
  8
LAYER_1
 10
-21.44555455291641
 20
55.19066219577113
 30
0.0
  0
VERTEX
  5
AC4
  8
LAYER_1
 10
-21.35352456110391
 20
55.16558353042717
 30
0.0
  0
VERTEX
  5
AC5
  8
LAYER_1
 10
-21.26284223719956
 20
55.13208270489706
 30
0.0
  0
VERTEX
  5
AC6
  8
LAYER_1
 10
-21.17394421455082
 20
55.08991094362818
 30
0.0
  0
VERTEX
  5
AC7
  8
LAYER_1
 10
-21.08726712650513
 20
55.03881947106795
 30
0.0
  0
VERTEX
  5
AC8
  8
LAYER_1
 10
-21.00324760640992
 20
54.97855951166379
 30
0.0
  0
VERTEX
  5
AC9
  8
LAYER_1
 10
-20.92232228761266
 20
54.90888228986309
 30
0.0
  0
VERTEX
  5
ACA
  8
LAYER_1
 10
-20.84492780346079
 20
54.82953903011326
 30
0.0
  0
VERTEX
  5
ACB
  8
LAYER_1
 10
-20.82874668815919
 20
54.79684268613711
 30
0.0
  0
VERTEX
  5
ACC
  8
LAYER_1
 10
-20.8287816412773
 20
54.75742044041539
 30
0.0
  0
VERTEX
  5
ACD
  8
LAYER_1
 10
-20.84224683031711
 20
54.71482377363007
 30
0.0
  0
VERTEX
  5
ACE
  8
LAYER_1
 10
-20.86635642278061
 20
54.6726041664631
 30
0.0
  0
VERTEX
  5
ACF
  8
LAYER_1
 10
-20.8983245861698
 20
54.63431309959646
 30
0.0
  0
VERTEX
  5
AD0
  8
LAYER_1
 10
-20.93536548798668
 20
54.60350205371211
 30
0.0
  0
VERTEX
  5
AD1
  8
LAYER_1
 10
-20.97469329573324
 20
54.58372250949203
 30
0.0
  0
SEQEND
  5
AD2
  8
LAYER_1
  0
POLYLINE
  5
5C
  8
LAYER_1
 66
     1
 10
0.0
 20
0.0
 30
0.0
 70
     1
  0
VERTEX
  5
AD3
  8
LAYER_1
 10
-16.90983257971926
 20
69.18035900381155
 30
0.0
 42
0.4142135623730951
  0
VERTEX
  5
AD4
  8
LAYER_1
 10
-17.70325568595471
 20
68.3869358975761
 30
0.0
 42
0.4142135623730951
  0
VERTEX
  5
AD5
  8
LAYER_1
 10
-16.90983257971926
 20
67.59351279134064
 30
0.0
 42
0.4142135623730951
  0
VERTEX
  5
AD6
  8
LAYER_1
 10
-16.11640947348382
 20
68.3869358975761
 30
0.0
 42
0.4142135623730951
  0
SEQEND
  5
AD7
  8
LAYER_1
  0
POLYLINE
  5
5D
  8
LAYER_1
 66
     1
 10
0.0
 20
0.0
 30
0.0
 70
     1
  0
VERTEX
  5
AD8
  8
LAYER_1
 10
-15.14278415202437
 20
68.00828266307005
 30
0.0
  0
VERTEX
  5
AD9
  8
LAYER_1
 10
-15.29222816013754
 20
68.00251299713098
 30
0.0
  0
VERTEX
  5
ADA
  8
LAYER_1
 10
-15.43142080082875
 20
67.98596532694074
 30
0.0
  0
VERTEX
  5
ADB
  8
LAYER_1
 10
-15.55738020755902
 20
67.95978164393979
 30
0.0
  0
VERTEX
  5
ADC
  8
LAYER_1
 10
-15.66712451378937
 20
67.9251039395686
 30
0.0
  0
VERTEX
  5
ADD
  8
LAYER_1
 10
-15.75767185298083
 20
67.88307420526762
 30
0.0
  0
VERTEX
  5
ADE
  8
LAYER_1
 10
-15.82604035859441
 20
67.8348344324773
 30
0.0
  0
VERTEX
  5
ADF
  8
LAYER_1
 10
-15.86924816409114
 20
67.7815266126381
 30
0.0
  0
VERTEX
  5
AE0
  8
LAYER_1
 10
-15.88431340293205
 20
67.72429273719051
 30
0.0
  0
VERTEX
  5
AE1
  8
LAYER_1
 10
-15.86924816409114
 20
67.66705886174292
 30
0.0
  0
VERTEX
  5
AE2
  8
LAYER_1
 10
-15.82604035859441
 20
67.61375104190373
 30
0.0
  0
VERTEX
  5
AE3
  8
LAYER_1
 10
-15.75767185298083
 20
67.5655112691134
 30
0.0
  0
VERTEX
  5
AE4
  8
LAYER_1
 10
-15.66712451378937
 20
67.52348153481242
 30
0.0
  0
VERTEX
  5
AE5
  8
LAYER_1
 10
-15.55738020755902
 20
67.48880383044123
 30
0.0
  0
VERTEX
  5
AE6
  8
LAYER_1
 10
-15.43142080082875
 20
67.46262014744028
 30
0.0
  0
VERTEX
  5
AE7
  8
LAYER_1
 10
-15.29222816013754
 20
67.44607247725004
 30
0.0
  0
VERTEX
  5
AE8
  8
LAYER_1
 10
-15.14278415202437
 20
67.44030281131097
 30
0.0
  0
VERTEX
  5
AE9
  8
LAYER_1
 10
-14.99334014391119
 20
67.44607247725004
 30
0.0
  0
VERTEX
  5
AEA
  8
LAYER_1
 10
-14.85414750321998
 20
67.46262014744028
 30
0.0
  0
VERTEX
  5
AEB
  8
LAYER_1
 10
-14.72818809648971
 20
67.48880383044123
 30
0.0
  0
VERTEX
  5
AEC
  8
LAYER_1
 10
-14.61844379025936
 20
67.52348153481242
 30
0.0
  0
VERTEX
  5
AED
  8
LAYER_1
 10
-14.52789645106791
 20
67.5655112691134
 30
0.0
  0
VERTEX
  5
AEE
  8
LAYER_1
 10
-14.45952794545432
 20
67.61375104190373
 30
0.0
  0
VERTEX
  5
AEF
  8
LAYER_1
 10
-14.41632013995759
 20
67.66705886174292
 30
0.0
  0
VERTEX
  5
AF0
  8
LAYER_1
 10
-14.40125490111669
 20
67.72429273719051
 30
0.0
  0
VERTEX
  5
AF1
  8
LAYER_1
 10
-14.41632013995759
 20
67.7815266126381
 30
0.0
  0
VERTEX
  5
AF2
  8
LAYER_1
 10
-14.45952794545432
 20
67.8348344324773
 30
0.0
  0
VERTEX
  5
AF3
  8
LAYER_1
 10
-14.52789645106791
 20
67.88307420526762
 30
0.0
  0
VERTEX
  5
AF4
  8
LAYER_1
 10
-14.61844379025936
 20
67.9251039395686
 30
0.0
  0
VERTEX
  5
AF5
  8
LAYER_1
 10
-14.72818809648971
 20
67.95978164393979
 30
0.0
  0
VERTEX
  5
AF6
  8
LAYER_1
 10
-14.85414750321998
 20
67.98596532694074
 30
0.0
  0
VERTEX
  5
AF7
  8
LAYER_1
 10
-14.99334014391119
 20
68.00251299713098
 30
0.0
  0
SEQEND
  5
AF8
  8
LAYER_1
  0
POLYLINE
  5
5E
  8
LAYER_1
 66
     1
 10
0.0
 20
0.0
 30
0.0
 70
     1
  0
VERTEX
  5
AF9
  8
LAYER_1
 10
6.606512574421473
 20
-77.55419404974955
 30
0.0
  0
VERTEX
  5
AFA
  8
LAYER_1
 10
6.553815806417592
 20
-77.58499332784383
 30
0.0
  0
VERTEX
  5
AFB
  8
LAYER_1
 10
6.496391258730218
 20
-77.60248980586539
 30
0.0
  0
VERTEX
  5
AFC
  8
LAYER_1
 10
6.436852270248576
 20
-77.6068015614884
 30
0.0
  0
VERTEX
  5
AFD
  8
LAYER_1
 10
6.377812179861897
 20
-77.59804667238707
 30
0.0
  0
VERTEX
  5
AFE
  8
LAYER_1
 10
6.32188432645941
 20
-77.57634321623559
 30
0.0
  0
VERTEX
  5
AFF
  8
LAYER_1
 10
6.271682048930339
 20
-77.54180927070817
 30
0.0
  0
VERTEX
  5
B00
  8
LAYER_1
 10
6.229818686163916
 20
-77.49456291347897
 30
0.0
  0
VERTEX
  5
B01
  8
LAYER_1
 10
6.198907577049368
 20
-77.4347222222222
 30
0.0
  0
VERTEX
  5
B02
  8
LAYER_1
 10
2.188339236083337
 20
-68.26249999999999
 30
0.0
  0
VERTEX
  5
B03
  8
LAYER_1
 10
-0.1389073780364072
 20
-62.97083333333332
 30
0.0
  0
VERTEX
  5
B04
  8
LAYER_1
 10
-8.18701145513947
 20
-46.39027777777777
 30
0.0
  0
VERTEX
  5
B05
  8
LAYER_1
 10
-10.93398225832118
 20
-40.56944444444443
 30
0.0
  0
VERTEX
  5
B06
  8
LAYER_1
 10
-11.70349642466128
 20
-38.92689484670748
 30
0.0
  0
VERTEX
  5
B07
  8
LAYER_1
 10
-12.45393178306467
 20
-37.30091870733034
 30
0.0
  0
VERTEX
  5
B08
  8
LAYER_1
 10
-13.1850797157756
 20
-35.69202164883025
 30
0.0
  0
VERTEX
  5
B09
  8
LAYER_1
 10
-13.89673160503833
 20
-34.10070929372445
 30
0.0
  0
VERTEX
  5
B0A
  8
LAYER_1
 10
-14.5886788330971
 20
-32.52748726453017
 30
0.0
  0
VERTEX
  5
B0B
  8
LAYER_1
 10
-15.26071278219618
 20
-30.97286118376464
 30
0.0
  0
VERTEX
  5
B0C
  8
LAYER_1
 10
-15.91262483457982
 20
-29.4373366739451
 30
0.0
  0
VERTEX
  5
B0D
  8
LAYER_1
 10
-16.54420637249227
 20
-27.92141935758878
 30
0.0
  0
VERTEX
  5
B0E
  8
LAYER_1
 10
-17.15524877817778
 20
-26.42561485721292
 30
0.0
  0
VERTEX
  5
B0F
  8
LAYER_1
 10
-17.74554343388062
 20
-24.95042879533475
 30
0.0
  0
VERTEX
  5
B10
  8
LAYER_1
 10
-18.31488172184503
 20
-23.49636679447151
 30
0.0
  0
VERTEX
  5
B11
  8
LAYER_1
 10
-18.86305502431527
 20
-22.06393447714041
 30
0.0
  0
VERTEX
  5
B12
  8
LAYER_1
 10
-19.38985472353559
 20
-20.65363746585871
 30
0.0
  0
VERTEX
  5
B13
  8
LAYER_1
 10
-19.89507220175025
 20
-19.26598138314365
 30
0.0
  0
VERTEX
  5
B14
  8
LAYER_1
 10
-20.3784988412035
 20
-17.90147185151243
 30
0.0
  0
VERTEX
  5
B15
  8
LAYER_1
 10
-20.8399260241396
 20
-16.56061449348232
 30
0.0
  0
VERTEX
  5
B16
  8
LAYER_1
 10
-23.00476013200721
 20
-10.17287872846364
 30
0.0
  0
VERTEX
  5
B17
  8
LAYER_1
 10
-22.85667913238004
 20
-7.644078253120711
 30
0.0
  0
VERTEX
  5
B18
  8
LAYER_1
 10
-22.80375480884583
 20
-6.980428970107531
 30
0.0
  0
VERTEX
  5
B19
  8
LAYER_1
 10
-22.76673034621441
 20
-6.653063629651673
 30
0.0
  0
VERTEX
  5
B1A
  8
LAYER_1
 10
-22.72234070051503
 20
-6.327342367764562
 30
0.0
  0
VERTEX
  5
B1B
  8
LAYER_1
 10
-22.67034313487887
 20
-6.002268592847399
 30
0.0
  0
VERTEX
  5
B1C
  8
LAYER_1
 10
-22.61049491243712
 20
-5.676845713301379
 30
0.0
  0
VERTEX
  5
B1D
  8
LAYER_1
 10
-22.54255329632096
 20
-5.3500771375277
 30
0.0
  0
VERTEX
  5
B1E
  8
LAYER_1
 10
-22.46627554966159
 20
-5.020966273927559
 30
0.0
  0
VERTEX
  5
B1F
  8
LAYER_1
 10
-22.28774071723793
 20
-4.351731316852683
 30
0.0
  0
VERTEX
  5
B20
  8
LAYER_1
 10
-22.07294852021564
 20
-3.661168109286324
 30
0.0
  0
VERTEX
  5
B21
  8
LAYER_1
 10
-21.81995706364419
 20
-2.941303918438063
 30
0.0
  0
VERTEX
  5
B22
  8
LAYER_1
 10
-21.52682445257309
 20
-2.184166011517476
 30
0.0
  0
VERTEX
  5
B23
  8
LAYER_1
 10
-21.16133362561679
 20
-1.305051224880302
 30
0.0
  0
VERTEX
  5
B24
  8
LAYER_1
 10
-20.99040822490535
 20
-0.9207051101840985
 30
0.0
  0
VERTEX
  5
B25
  8
LAYER_1
 10
-20.82285729221793
 20
-0.566742742288532
 30
0.0
  0
VERTEX
  5
B26
  8
LAYER_1
 10
-20.65530167218922
 20
-0.2383462919828885
 30
0.0
  0
VERTEX
  5
B27
  8
LAYER_1
 10
-20.48436220945387
 20
0.0693020699435464
 30
0.0
  0
VERTEX
  5
B28
  8
LAYER_1
 10
-20.30665974864657
 20
0.3610201727014868
 30
0.0
  0
VERTEX
  5
B29
  8
LAYER_1
 10
-20.11881513440198
 20
0.6416258455016468
 30
0.0
  0
VERTEX
  5
B2A
  8
LAYER_1
 10
-19.91744921135478
 20
0.9159369175547406
 30
0.0
  0
VERTEX
  5
B2B
  8
LAYER_1
 10
-19.69918282413963
 20
1.188771218071482
 30
0.0
  0
VERTEX
  5
B2C
  8
LAYER_1
 10
-19.46063681739119
 20
1.464946576262586
 30
0.0
  0
VERTEX
  5
B2D
  8
LAYER_1
 10
-19.19843203574415
 20
1.749280821338766
 30
0.0
  0
VERTEX
  5
B2E
  8
LAYER_1
 10
-18.90918932383318
 20
2.046591782510736
 30
0.0
  0
VERTEX
  5
B2F
  8
LAYER_1
 10
-18.58952952629294
 20
2.361697288989212
 30
0.0
  0
VERTEX
  5
B30
  8
LAYER_1
 10
-17.84544205286335
 20
3.064563254708531
 30
0.0
  0
VERTEX
  5
B31
  8
LAYER_1
 10
-17.39186699629141
 20
3.478951664412223
 30
0.0
  0
VERTEX
  5
B32
  8
LAYER_1
 10
-16.91199383235861
 20
3.905254434982001
 30
0.0
  0
VERTEX
  5
B33
  8
LAYER_1
 10
-16.40441795912426
 20
4.344558768267094
 30
0.0
  0
VERTEX
  5
B34
  8
LAYER_1
 10
-15.86773477464769
 20
4.797951866116728
 30
0.0
  0
VERTEX
  5
B35
  8
LAYER_1
 10
-15.30053967698822
 20
5.266520930380132
 30
0.0
  0
VERTEX
  5
B36
  8
LAYER_1
 10
-14.70142806420516
 20
5.751353162906538
 30
0.0
  0
VERTEX
  5
B37
  8
LAYER_1
 10
-13.40183688550556
 20
6.77415594014526
 30
0.0
  0
VERTEX
  5
B38
  8
LAYER_1
 10
-11.95772442302346
 20
7.875057812626722
 30
0.0
  0
VERTEX
  5
B39
  8
LAYER_1
 10
-10.35785386123343
 20
9.062756395144753
 30
0.0
  0
VERTEX
  5
B3A
  8
LAYER_1
 10
-8.590988384610009
 20
10.34594930249318
 30
0.0
  0
VERTEX
  5
B3B
  8
LAYER_1
 10
-6.645891177627774
 20
11.73333414946583
 30
0.0
  0
VERTEX
  5
B3C
  8
LAYER_1
 10
-6.191530653361943
 20
12.06081826625168
 30
0.0
  0
VERTEX
  5
B3D
  8
LAYER_1
 10
-5.753858092192539
 20
12.3884020392164
 30
0.0
  0
VERTEX
  5
B3E
  8
LAYER_1
 10
-5.332725034064176
 20
12.71633507672394
 30
0.0
  0
VERTEX
  5
B3F
  8
LAYER_1
 10
-4.927983018921465
 20
13.04486698713821
 30
0.0
  0
VERTEX
  5
B40
  8
LAYER_1
 10
-4.539483586709016
 20
13.37424737882314
 30
0.0
  0
VERTEX
  5
B41
  8
LAYER_1
 10
-4.167078277371443
 20
13.70472586014267
 30
0.0
  0
VERTEX
  5
B42
  8
LAYER_1
 10
-3.810618630853355
 20
14.03655203946071
 30
0.0
  0
VERTEX
  5
B43
  8
LAYER_1
 10
-3.469956187099363
 20
14.36997552514119
 30
0.0
  0
VERTEX
  5
B44
  8
LAYER_1
 10
-3.14494248605408
 20
14.70524592554803
 30
0.0
  0
VERTEX
  5
B45
  8
LAYER_1
 10
-2.835429067662117
 20
15.04261284904518
 30
0.0
  0
VERTEX
  5
B46
  8
LAYER_1
 10
-2.541267471868085
 20
15.38232590399654
 30
0.0
  0
VERTEX
  5
B47
  8
LAYER_1
 10
-2.262309238616596
 20
15.72463469876606
 30
0.0
  0
VERTEX
  5
B48
  8
LAYER_1
 10
-1.99840590785226
 20
16.06978884171764
 30
0.0
  0
VERTEX
  5
B49
  8
LAYER_1
 10
-1.749409019519689
 20
16.41803794121523
 30
0.0
  0
VERTEX
  5
B4A
  8
LAYER_1
 10
-1.515170113563495
 20
16.76963160562274
 30
0.0
  0
VERTEX
  5
B4B
  8
LAYER_1
 10
-1.295540729928289
 20
17.12481944330411
 30
0.0
  0
VERTEX
  5
B4C
  8
LAYER_1
 10
-1.090372408558682
 20
17.48385106262326
 30
0.0
  0
VERTEX
  5
B4D
  8
LAYER_1
 10
-0.8995166893992861
 20
17.84697607194411
 30
0.0
  0
VERTEX
  5
B4E
  8
LAYER_1
 10
-0.7228251123947116
 20
18.2144440796306
 30
0.0
  0
VERTEX
  5
B4F
  8
LAYER_1
 10
-0.5601492174895706
 20
18.58650469404664
 30
0.0
  0
VERTEX
  5
B50
  8
LAYER_1
 10
-0.4113405446284742
 20
18.96340752355617
 30
0.0
  0
VERTEX
  5
B51
  8
LAYER_1
 10
-0.2762506337560339
 20
19.34540217652311
 30
0.0
  0
VERTEX
  5
B52
  8
LAYER_1
 10
-0.154731024816861
 20
19.73273826131139
 30
0.0
  0
VERTEX
  5
B53
  8
LAYER_1
 10
-0.0466332577555668
 20
20.12566538628493
 30
0.0
  0
VERTEX
  5
B54
  8
LAYER_1
 10
0.0481911274832372
 20
20.52443315980766
 30
0.0
  0
VERTEX
  5
B55
  8
LAYER_1
 10
0.1298905909549398
 20
20.92929119024351
 30
0.0
  0
VERTEX
  5
B56
  8
LAYER_1
 10
0.1986135927149296
 20
21.34048908595641
 30
0.0
  0
VERTEX
  5
B57
  8
LAYER_1
 10
0.2545085928185952
 20
21.75827645531028
 30
0.0
  0
VERTEX
  5
B58
  8
LAYER_1
 10
0.2977240513213252
 20
22.18290290666904
 30
0.0
  0
VERTEX
  5
B59
  8
LAYER_1
 10
0.3284084282785084
 20
22.61461804839662
 30
0.0
  0
VERTEX
  5
B5A
  8
LAYER_1
 10
0.3467101837455333
 20
23.05367148885696
 30
0.0
  0
VERTEX
  5
B5B
  8
LAYER_1
 10
0.3527777777777885
 20
23.50031283641397
 30
0.0
  0
VERTEX
  5
B5C
  8
LAYER_1
 10
0.3527777777777885
 20
26.16026955558897
 30
0.0
  0
VERTEX
  5
B5D
  8
LAYER_1
 10
-1.499305555555551
 20
24.5389888364582
 30
0.0
  0
VERTEX
  5
B5E
  8
LAYER_1
 10
-1.918151652018227
 20
24.19054804004809
 30
0.0
  0
VERTEX
  5
B5F
  8
LAYER_1
 10
-2.399371202256943
 20
23.82148628317987
 30
0.0
  0
VERTEX
  5
B60
  8
LAYER_1
 10
-2.925962660047743
 20
23.44302706943459
 30
0.0
  0
VERTEX
  5
B61
  8
LAYER_1
 10
-3.480924479166667
 20
23.0663939023933
 30
0.0
  0
VERTEX
  5
B62
  8
LAYER_1
 10
-4.047255113389758
 20
22.70281028563705
 30
0.0
  0
VERTEX
  5
B63
  8
LAYER_1
 10
-4.607953016493057
 20
22.36349972274688
 30
0.0
  0
VERTEX
  5
B64
  8
LAYER_1
 10
-5.146016642252605
 20
22.05968571730383
 30
0.0
  0
VERTEX
  5
B65
  8
LAYER_1
 10
-5.644444444444446
 20
21.80259177288895
 30
0.0
  0
VERTEX
  5
B66
  8
LAYER_1
 10
-6.746345151164621
 20
21.26922067932905
 30
0.0
  0
VERTEX
  5
B67
  8
LAYER_1
 10
-7.613699055415941
 20
20.85721985012326
 30
0.0
  0
VERTEX
  5
B68
  8
LAYER_1
 10
-8.281644096179075
 20
20.5530117566916
 30
0.0
  0
VERTEX
  5
B69
  8
LAYER_1
 10
-8.785318212434687
 20
20.34301887045411
 30
0.0
  0
VERTEX
  5
B6A
  8
LAYER_1
 10
-8.986534279803632
 20
20.26911015235195
 30
0.0
  0
VERTEX
  5
B6B
  8
LAYER_1
 10
-9.159859343163447
 20
20.21366366283085
 30
0.0
  0
VERTEX
  5
B6C
  8
LAYER_1
 10
-9.309685644886715
 20
20.17498221081831
 30
0.0
  0
VERTEX
  5
B6D
  8
LAYER_1
 10
-9.44040542734602
 20
20.15136860524185
 30
0.0
  0
VERTEX
  5
B6E
  8
LAYER_1
 10
-9.556410932913945
 20
20.14112565502896
 30
0.0
  0
VERTEX
  5
B6F
  8
LAYER_1
 10
-9.662094403963074
 20
20.14255616910715
 30
0.0
  0
VERTEX
  5
B70
  8
LAYER_1
 10
-9.761848082865992
 20
20.15396295640394
 30
0.0
  0
VERTEX
  5
B71
  8
LAYER_1
 10
-9.86006421199528
 20
20.17364882584681
 30
0.0
  0
VERTEX
  5
B72
  8
LAYER_1
 10
-9.953104246686735
 20
20.18211345723183
 30
0.0
  0
VERTEX
  5
B73
  8
LAYER_1
 10
-10.04288187786329
 20
20.1624570187115
 30
0.0
  0
VERTEX
  5
B74
  8
LAYER_1
 10
-10.12964426098772
 20
20.11394983951089
 30
0.0
  0
VERTEX
  5
B75
  8
LAYER_1
 10
-10.21363855152279
 20
20.03586224885507
 30
0.0
  0
VERTEX
  5
B76
  8
LAYER_1
 10
-10.29511190493126
 20
19.92746457596909
 30
0.0
  0
VERTEX
  5
B77
  8
LAYER_1
 10
-10.3743114766759
 20
19.78802715007801
 30
0.0
  0
VERTEX
  5
B78
  8
LAYER_1
 10
-10.45148442221946
 20
19.6168203004069
 30
0.0
  0
VERTEX
  5
B79
  8
LAYER_1
 10
-10.52687789702472
 20
19.41311435618081
 30
0.0
  0
VERTEX
  5
B7A
  8
LAYER_1
 10
-10.60073905655445
 20
19.1761796466248
 30
0.0
  0
VERTEX
  5
B7B
  8
LAYER_1
 10
-10.6733150562714
 20
18.90528650096395
 30
0.0
  0
VERTEX
  5
B7C
  8
LAYER_1
 10
-10.74485305163833
 20
18.59970524842329
 30
0.0
  0
VERTEX
  5
B7D
  8
LAYER_1
 10
-10.81560019811802
 20
18.2587062182279
 30
0.0
  0
VERTEX
  5
B7E
  8
LAYER_1
 10
-10.95571056626673
 20
17.46753614177317
 30
0.0
  0
VERTEX
  5
B7F
  8
LAYER_1
 10
-11.09562340441964
 20
16.52593890540024
 30
0.0
  0
VERTEX
  5
B80
  8
LAYER_1
 10
-11.13591204016081
 20
16.25029672443242
 30
0.0
  0
VERTEX
  5
B81
  8
LAYER_1
 10
-11.17927622493406
 20
16.00081074454403
 30
0.0
  0
VERTEX
  5
B82
  8
LAYER_1
 10
-11.22956053935869
 20
15.77265845470503
 30
0.0
  0
VERTEX
  5
B83
  8
LAYER_1
 10
-11.290609564054
 20
15.56101734388537
 30
0.0
  0
VERTEX
  5
B84
  8
LAYER_1
 10
-11.3662678796393
 20
15.36106490105501
 30
0.0
  0
VERTEX
  5
B85
  8
LAYER_1
 10
-11.46038006673388
 20
15.1679786151839
 30
0.0
  0
VERTEX
  5
B86
  8
LAYER_1
 10
-11.57679070595706
 20
14.97693597524199
 30
0.0
  0
VERTEX
  5
B87
  8
LAYER_1
 10
-11.71934437792813
 20
14.78311447019925
 30
0.0
  0
VERTEX
  5
B88
  8
LAYER_1
 10
-11.8918856632664
 20
14.58169158902562
 30
0.0
  0
VERTEX
  5
B89
  8
LAYER_1
 10
-12.09825914259117
 20
14.36784482069107
 30
0.0
  0
VERTEX
  5
B8A
  8
LAYER_1
 10
-12.34230939652175
 20
14.13675165416555
 30
0.0
  0
VERTEX
  5
B8B
  8
LAYER_1
 10
-12.62788100567742
 20
13.88358957841901
 30
0.0
  0
VERTEX
  5
B8C
  8
LAYER_1
 10
-13.33896661214131
 20
13.29176865514271
 30
0.0
  0
VERTEX
  5
B8D
  8
LAYER_1
 10
-14.26227260693726
 20
12.5538019626218
 30
0.0
  0
VERTEX
  5
B8E
  8
LAYER_1
 10
-15.13659925794044
 20
11.84547671872862
 30
0.0
  0
VERTEX
  5
B8F
  8
LAYER_1
 10
-15.96835722235731
 20
11.13999083834337
 30
0.0
  0
VERTEX
  5
B90
  8
LAYER_1
 10
-16.75750873261138
 20
10.43739106846379
 30
0.0
  0
VERTEX
  5
B91
  8
LAYER_1
 10
-17.50401602112616
 20
9.73772415608756
 30
0.0
  0
VERTEX
  5
B92
  8
LAYER_1
 10
-18.20784132032514
 20
9.0410368482124
 30
0.0
  0
VERTEX
  5
B93
  8
LAYER_1
 10
-18.86894686263184
 20
8.347375891836013
 30
0.0
  0
VERTEX
  5
B94
  8
LAYER_1
 10
-19.48729488046975
 20
7.656788033956103
 30
0.0
  0
VERTEX
  5
B95
  8
LAYER_1
 10
-19.78042301534527
 20
7.312661125389111
 30
0.0
  0
VERTEX
  5
B96
  8
LAYER_1
 10
-20.06284760626241
 20
6.969320021570379
 30
0.0
  0
VERTEX
  5
B97
  8
LAYER_1
 10
-20.33456393227411
 20
6.62677056587462
 30
0.0
  0
VERTEX
  5
B98
  8
LAYER_1
 10
-20.5955672724333
 20
6.285018601676546
 30
0.0
  0
VERTEX
  5
B99
  8
LAYER_1
 10
-20.84585290579292
 20
5.944069972350873
 30
0.0
  0
VERTEX
  5
B9A
  8
LAYER_1
 10
-21.08541611140593
 20
5.603930521272312
 30
0.0
  0
VERTEX
  5
B9B
  8
LAYER_1
 10
-21.31425216832524
 20
5.264606091815577
 30
0.0
  0
VERTEX
  5
B9C
  8
LAYER_1
 10
-21.53235635560381
 20
4.926102527355381
 30
0.0
  0
VERTEX
  5
B9D
  8
LAYER_1
 10
-21.73972395229456
 20
4.588425671266438
 30
0.0
  0
VERTEX
  5
B9E
  8
LAYER_1
 10
-21.93635023745044
 20
4.25158136692346
 30
0.0
  0
VERTEX
  5
B9F
  8
LAYER_1
 10
-22.12223049012439
 20
3.915575457701162
 30
0.0
  0
VERTEX
  5
BA0
  8
LAYER_1
 10
-22.29735998936933
 20
3.580413786974256
 30
0.0
  0
VERTEX
  5
BA1
  8
LAYER_1
 10
-22.46173401423822
 20
3.246102198117456
 30
0.0
  0
VERTEX
  5
BA2
  8
LAYER_1
 10
-22.615347843784
 20
2.912646534505475
 30
0.0
  0
VERTEX
  5
BA3
  8
LAYER_1
 10
-22.75819675705959
 20
2.580052639513026
 30
0.0
  0
VERTEX
  5
BA4
  8
LAYER_1
 10
-22.89027603311794
 20
2.248326356514823
 30
0.0
  0
VERTEX
  5
BA5
  8
LAYER_1
 10
-23.01158095101198
 20
1.917473528885578
 30
0.0
  0
VERTEX
  5
BA6
  8
LAYER_1
 10
-23.12210678979466
 20
1.587500000000006
 30
0.0
  0
VERTEX
  5
BA7
  8
LAYER_1
 10
-23.23580646748154
 20
1.198614770246345
 30
0.0
  0
VERTEX
  5
BA8
  8
LAYER_1
 10
-23.34054764657196
 20
0.774218387076974
 30
0.0
  0
VERTEX
  5
BA9
  8
LAYER_1
 10
-23.43638312399036
 20
0.3162821697876277
 30
0.0
  0
VERTEX
  5
BAA
  8
LAYER_1
 10
-23.52336569666118
 20
-0.1732225623259592
 30
0.0
  0
VERTEX
  5
BAB
  8
LAYER_1
 10
-23.60154816150887
 20
-0.6923244899680518
 30
0.0
  0
VERTEX
  5
BAC
  8
LAYER_1
 10
-23.67098331545785
 20
-1.239052293842916
 30
0.0
  0
VERTEX
  5
BAD
  8
LAYER_1
 10
-23.73172395543259
 20
-1.811434654654815
 30
0.0
  0
VERTEX
  5
BAE
  8
LAYER_1
 10
-23.7838228783575
 20
-2.407500253108016
 30
0.0
  0
VERTEX
  5
BAF
  8
LAYER_1
 10
-23.82733288115704
 20
-3.025277769906784
 30
0.0
  0
VERTEX
  5
BB0
  8
LAYER_1
 10
-23.86230676075565
 20
-3.662795885755383
 30
0.0
  0
VERTEX
  5
BB1
  8
LAYER_1
 10
-23.88879731407778
 20
-4.318083281358079
 30
0.0
  0
VERTEX
  5
BB2
  8
LAYER_1
 10
-23.90685733804785
 20
-4.989168637419137
 30
0.0
  0
VERTEX
  5
BB3
  8
LAYER_1
 10
-23.91653962959032
 20
-5.674080634642823
 30
0.0
  0
VERTEX
  5
BB4
  8
LAYER_1
 10
-23.91789698562962
 20
-6.3708479537334
 30
0.0
  0
VERTEX
  5
BB5
  8
LAYER_1
 10
-23.9109822030902
 20
-7.077499275395135
 30
0.0
  0
VERTEX
  5
BB6
  8
LAYER_1
 10
-23.8958480788965
 20
-7.792063280332293
 30
0.0
  0
VERTEX
  5
BB7
  8
LAYER_1
 10
-23.87254740997296
 20
-8.51256864924914
 30
0.0
  0
VERTEX
  5
BB8
  8
LAYER_1
 10
-23.84113299324402
 20
-9.23704406284994
 30
0.0
  0
VERTEX
  5
BB9
  8
LAYER_1
 10
-23.80165762563411
 20
-9.963518201838955
 30
0.0
  0
VERTEX
  5
BBA
  8
LAYER_1
 10
-23.7541741040677
 20
-10.69001974692046
 30
0.0
  0
VERTEX
  5
BBB
  8
LAYER_1
 10
-23.69873522546921
 20
-11.41457737879871
 30
0.0
  0
VERTEX
  5
BBC
  8
LAYER_1
 10
-23.63539378676308
 20
-12.13521977817797
 30
0.0
  0
VERTEX
  5
BBD
  8
LAYER_1
 10
-23.56420258487376
 20
-12.84997562576251
 30
0.0
  0
VERTEX
  5
BBE
  8
LAYER_1
 10
-23.48521441672569
 20
-13.5568736022566
 30
0.0
  0
VERTEX
  5
BBF
  8
LAYER_1
 10
-23.39848207924331
 20
-14.2539423883645
 30
0.0
  0
VERTEX
  5
BC0
  8
LAYER_1
 10
-23.30405836935106
 20
-14.93921066479047
 30
0.0
  0
VERTEX
  5
BC1
  8
LAYER_1
 10
-23.20199608397339
 20
-15.61070711223878
 30
0.0
  0
VERTEX
  5
BC2
  8
LAYER_1
 10
-23.09234802003473
 20
-16.2664604114137
 30
0.0
  0
VERTEX
  5
BC3
  8
LAYER_1
 10
-22.97516697445953
 20
-16.90449924301949
 30
0.0
  0
VERTEX
  5
BC4
  8
LAYER_1
 10
-22.85050574417223
 20
-17.5228522877604
 30
0.0
  0
VERTEX
  5
BC5
  8
LAYER_1
 10
-22.71841712609726
 20
-18.11954822634073
 30
0.0
  0
VERTEX
  5
BC6
  8
LAYER_1
 10
-22.57895391715908
 20
-18.69261573946471
 30
0.0
  0
VERTEX
  5
BC7
  8
LAYER_1
 10
-22.40972344343035
 20
-19.32744253188689
 30
0.0
  0
VERTEX
  5
BC8
  8
LAYER_1
 10
-22.21397042545442
 20
-20.01071786629299
 30
0.0
  0
VERTEX
  5
BC9
  8
LAYER_1
 10
-21.99222173707371
 20
-20.74118361209857
 30
0.0
  0
VERTEX
  5
BCA
  8
LAYER_1
 10
-21.74500425213068
 20
-21.51758163871921
 30
0.0
  0
VERTEX
  5
BCB
  8
LAYER_1
 10
-21.47284484446776
 20
-22.33865381557047
 30
0.0
  0
VERTEX
  5
BCC
  8
LAYER_1
 10
-21.17627038792739
 20
-23.20314201206793
 30
0.0
  0
VERTEX
  5
BCD
  8
LAYER_1
 10
-20.855807756352
 20
-24.10978809762715
 30
0.0
  0
VERTEX
  5
BCE
  8
LAYER_1
 10
-20.51198382358403
 20
-25.05733394166371
 30
0.0
  0
VERTEX
  5
BCF
  8
LAYER_1
 10
-19.75635954984012
 20
-27.07009238283111
 30
0.0
  0
VERTEX
  5
BD0
  8
LAYER_1
 10
-18.91361255743516
 20
-29.23135229089467
 30
0.0
  0
VERTEX
  5
BD1
  8
LAYER_1
 10
-17.98795783710865
 20
-31.53104862117897
 30
0.0
  0
VERTEX
  5
BD2
  8
LAYER_1
 10
-16.98361037960011
 20
-33.95911632900855
 30
0.0
  0
VERTEX
  5
BD3
  8
LAYER_1
 10
-15.90478517564903
 20
-36.50549036970798
 30
0.0
  0
VERTEX
  5
BD4
  8
LAYER_1
 10
-14.75569721599491
 20
-39.16010569860179
 30
0.0
  0
VERTEX
  5
BD5
  8
LAYER_1
 10
-13.54056149137727
 20
-41.91289727101456
 30
0.0
  0
VERTEX
  5
BD6
  8
LAYER_1
 10
-12.26359299253561
 20
-44.75380004227085
 30
0.0
  0
VERTEX
  5
BD7
  8
LAYER_1
 10
-10.92900671020942
 20
-47.6727489676952
 30
0.0
  0
VERTEX
  5
BD8
  8
LAYER_1
 10
-9.541017635138225
 20
-50.65967900261218
 30
0.0
  0
VERTEX
  5
BD9
  8
LAYER_1
 10
-8.10384075806152
 20
-53.70452510234633
 30
0.0
  0
VERTEX
  5
BDA
  8
LAYER_1
 10
-6.621691069718807
 20
-56.79722222222222
 30
0.0
  0
VERTEX
  5
BDB
  8
LAYER_1
 10
-2.825963736234968
 20
-64.73472222222222
 30
0.0
  0
VERTEX
  5
BDC
  8
LAYER_1
 10
-0.8831232023534255
 20
-68.8860600025051
 30
0.0
  0
VERTEX
  5
BDD
  8
LAYER_1
 10
0.5245568443646
 20
-71.9410840868641
 30
0.0
  0
VERTEX
  5
BDE
  8
LAYER_1
 10
1.103866536830448
 20
-73.22492883586473
 30
0.0
  0
VERTEX
  5
BDF
  8
LAYER_1
 10
1.640771929657201
 20
-74.4356355722355
 30
0.0
  0
VERTEX
  5
BE0
  8
LAYER_1
 10
2.709217579262472
 20
-76.90555555555555
 30
0.0
  0
VERTEX
  5
BE1
  8
LAYER_1
 10
4.598672427954966
 20
-81.38353907614757
 30
0.0
  0
VERTEX
  5
BE2
  8
LAYER_1
 10
4.906268653978643
 20
-82.15735593007292
 30
0.0
  0
VERTEX
  5
BE3
  8
LAYER_1
 10
-2.732591112292468
 20
-97.19027777777777
 30
0.0
  0
VERTEX
  5
BE4
  8
LAYER_1
 10
-3.641137074869803
 20
-99.65972222222221
 30
0.0
  0
VERTEX
  5
BE5
  8
LAYER_1
 10
-4.012350382270787
 20
-100.710827175166
 30
0.0
  0
VERTEX
  5
BE6
  8
LAYER_1
 10
-4.355562695827356
 20
-101.7702060278989
 30
0.0
  0
VERTEX
  5
BE7
  8
LAYER_1
 10
-4.670809925552446
 20
-102.8381067463627
 30
0.0
  0
VERTEX
  5
BE8
  8
LAYER_1
 10
-4.958127981458995
 20
-103.9147772964994
 30
0.0
  0
VERTEX
  5
BE9
  8
LAYER_1
 10
-5.217552773559941
 20
-105.0004656442509
 30
0.0
  0
VERTEX
  5
BEA
  8
LAYER_1
 10
-5.449120211868222
 20
-106.095419755559
 30
0.0
  0
VERTEX
  5
BEB
  8
LAYER_1
 10
-5.652866206396777
 20
-107.1998875963659
 30
0.0
  0
VERTEX
  5
BEC
  8
LAYER_1
 10
-5.828826667158541
 20
-108.3141171326133
 30
0.0
  0
VERTEX
  5
BED
  8
LAYER_1
 10
-5.977037504166453
 20
-109.4383563302432
 30
0.0
  0
VERTEX
  5
BEE
  8
LAYER_1
 10
-6.097534627433451
 20
-110.5728531551974
 30
0.0
  0
VERTEX
  5
BEF
  8
LAYER_1
 10
-6.190353946972473
 20
-111.717855573418
 30
0.0
  0
VERTEX
  5
BF0
  8
LAYER_1
 10
-6.255531372796455
 20
-112.8736115508468
 30
0.0
  0
VERTEX
  5
BF1
  8
LAYER_1
 10
-6.293102814918337
 20
-114.0403690534257
 30
0.0
  0
VERTEX
  5
BF2
  8
LAYER_1
 10
-6.303104183351054
 20
-115.2183760470967
 30
0.0
  0
VERTEX
  5
BF3
  8
LAYER_1
 10
-6.285571388107545
 20
-116.4078804978017
 30
0.0
  0
VERTEX
  5
BF4
  8
LAYER_1
 10
-6.240540339200749
 20
-117.6091303714826
 30
0.0
  0
VERTEX
  5
BF5
  8
LAYER_1
 10
-6.032399376012975
 20
-121.8847222222222
 30
0.0
  0
VERTEX
  5
BF6
  8
LAYER_1
 10
-5.484939975919559
 20
-123.6188236851235
 30
0.0
  0
VERTEX
  5
BF7
  8
LAYER_1
 10
-5.362358027470723
 20
-123.9892219510818
 30
0.0
  0
VERTEX
  5
BF8
  8
LAYER_1
 10
-5.23100708842462
 20
-124.3519859343301
 30
0.0
  0
VERTEX
  5
BF9
  8
LAYER_1
 10
-5.091133688579637
 20
-124.7068752415032
 30
0.0
  0
VERTEX
  5
BFA
  8
LAYER_1
 10
-4.942984357734158
 20
-125.0536494792356
 30
0.0
  0
VERTEX
  5
BFB
  8
LAYER_1
 10
-4.786805625686572
 20
-125.3920682541624
 30
0.0
  0
VERTEX
  5
BFC
  8
LAYER_1
 10
-4.622844022235265
 20
-125.721891172918
 30
0.0
  0
VERTEX
  5
BFD
  8
LAYER_1
 10
-4.451346077178622
 20
-126.0428778421373
 30
0.0
  0
VERTEX
  5
BFE
  8
LAYER_1
 10
-4.272558320315031
 20
-126.3547878684551
 30
0.0
  0
VERTEX
  5
BFF
  8
LAYER_1
 10
-4.086727281442877
 20
-126.657380858506
 30
0.0
  0
VERTEX
  5
C00
  8
LAYER_1
 10
-3.894099490360547
 20
-126.9504164189249
 30
0.0
  0
VERTEX
  5
C01
  8
LAYER_1
 10
-3.694921476866427
 20
-127.2336541563465
 30
0.0
  0
VERTEX
  5
C02
  8
LAYER_1
 10
-3.489439770758905
 20
-127.5068536774054
 30
0.0
  0
VERTEX
  5
C03
  8
LAYER_1
 10
-3.277900901836365
 20
-127.7697745887365
 30
0.0
  0
VERTEX
  5
C04
  8
LAYER_1
 10
-3.060551399897196
 20
-128.0221764969745
 30
0.0
  0
VERTEX
  5
C05
  8
LAYER_1
 10
-2.837637794739782
 20
-128.2638190087542
 30
0.0
  0
VERTEX
  5
C06
  8
LAYER_1
 10
-2.609406616162511
 20
-128.4944617307102
 30
0.0
  0
VERTEX
  5
C07
  8
LAYER_1
 10
-2.376104393963769
 20
-128.7138642694774
 30
0.0
  0
VERTEX
  5
C08
  8
LAYER_1
 10
-2.137977657941942
 20
-128.9217862316904
 30
0.0
  0
VERTEX
  5
C09
  8
LAYER_1
 10
-1.895272937895417
 20
-129.1179872239841
 30
0.0
  0
VERTEX
  5
C0A
  8
LAYER_1
 10
-1.64823676362258
 20
-129.3022268529931
 30
0.0
  0
VERTEX
  5
C0B
  8
LAYER_1
 10
-1.397115664921817
 20
-129.4742647253522
 30
0.0
  0
VERTEX
  5
C0C
  8
LAYER_1
 10
-1.142156171591516
 20
-129.6338604476962
 30
0.0
  0
VERTEX
  5
C0D
  8
LAYER_1
 10
-0.8836048134300615
 20
-129.7807736266597
 30
0.0
  0
VERTEX
  5
C0E
  8
LAYER_1
 10
-0.621708120235841
 20
-129.9147638688776
 30
0.0
  0
VERTEX
  5
C0F
  8
LAYER_1
 10
-0.3567126218072406
 20
-130.0355907809845
 30
0.0
  0
VERTEX
  5
C10
  8
LAYER_1
 10
-0.0888648479426467
 20
-130.1430139696153
 30
0.0
  0
VERTEX
  5
C11
  8
LAYER_1
 10
0.1815886715595543
 20
-130.2367930414046
 30
0.0
  0
VERTEX
  5
C12
  8
LAYER_1
 10
0.4544014069009759
 20
-130.3166876029873
 30
0.0
  0
VERTEX
  5
C13
  8
LAYER_1
 10
0.7293268282832317
 20
-130.3824572609979
 30
0.0
  0
VERTEX
  5
C14
  8
LAYER_1
 10
1.006118405907935
 20
-130.4338616220714
 30
0.0
  0
VERTEX
  5
C15
  8
LAYER_1
 10
1.284529609976701
 20
-130.4706602928425
 30
0.0
  0
VERTEX
  5
C16
  8
LAYER_1
 10
1.564313910691141
 20
-130.4926128799457
 30
0.0
  0
VERTEX
  5
C17
  8
LAYER_1
 10
1.785413153812875
 20
-130.4934300925226
 30
0.0
  0
VERTEX
  5
C18
  8
LAYER_1
 10
2.014304340536928
 20
-130.4738815086146
 30
0.0
  0
VERTEX
  5
C19
  8
LAYER_1
 10
2.250391670165654
 20
-130.4345158368568
 30
0.0
  0
VERTEX
  5
C1A
  8
LAYER_1
 10
2.493079342001407
 20
-130.3758817858844
 30
0.0
  0
VERTEX
  5
C1B
  8
LAYER_1
 10
2.741771555346543
 20
-130.2985280643324
 30
0.0
  0
VERTEX
  5
C1C
  8
LAYER_1
 10
2.995872509503415
 20
-130.2030033808359
 30
0.0
  0
VERTEX
  5
C1D
  8
LAYER_1
 10
3.254786403774377
 20
-130.0898564440299
 30
0.0
  0
VERTEX
  5
C1E
  8
LAYER_1
 10
3.517917437461784
 20
-129.9596359625496
 30
0.0
  0
VERTEX
  5
C1F
  8
LAYER_1
 10
3.78466980986799
 20
-129.81289064503
 30
0.0
  0
VERTEX
  5
C20
  8
LAYER_1
 10
4.054447720295348
 20
-129.6501692001062
 30
0.0
  0
VERTEX
  5
C21
  8
LAYER_1
 10
4.326655368046215
 20
-129.4720203364133
 30
0.0
  0
VERTEX
  5
C22
  8
LAYER_1
 10
4.600696952422943
 20
-129.2789927625864
 30
0.0
  0
VERTEX
  5
C23
  8
LAYER_1
 10
4.875976672727889
 20
-129.0716351872605
 30
0.0
  0
VERTEX
  5
C24
  8
LAYER_1
 10
5.151898728263403
 20
-128.8504963190708
 30
0.0
  0
VERTEX
  5
C25
  8
LAYER_1
 10
5.427867318331843
 20
-128.6161248666523
 30
0.0
  0
VERTEX
  5
C26
  8
LAYER_1
 10
5.703286642235561
 20
-128.3690695386401
 30
0.0
  0
VERTEX
  5
C27
  8
LAYER_1
 10
5.977560899276913
 20
-128.1098790436693
 30
0.0
  0
VERTEX
  5
C28
  8
LAYER_1
 10
6.250094288758252
 20
-127.839102090375
 30
0.0
  0
VERTEX
  5
C29
  8
LAYER_1
 10
6.520291009981932
 20
-127.5572873873922
 30
0.0
  0
VERTEX
  5
C2A
  8
LAYER_1
 10
6.78755526225031
 20
-127.264983643356
 30
0.0
  0
VERTEX
  5
C2B
  8
LAYER_1
 10
7.051291244865737
 20
-126.9627395669016
 30
0.0
  0
VERTEX
  5
C2C
  8
LAYER_1
 10
7.310903157130568
 20
-126.6511038666639
 30
0.0
  0
VERTEX
  5
C2D
  8
LAYER_1
 10
7.565795198347159
 20
-126.3306252512781
 30
0.0
  0
VERTEX
  5
C2E
  8
LAYER_1
 10
7.815371567817862
 20
-126.0018524293793
 30
0.0
  0
VERTEX
  5
C2F
  8
LAYER_1
 10
8.059036464845033
 20
-125.6653341096025
 30
0.0
  0
VERTEX
  5
C30
  8
LAYER_1
 10
8.296194088731026
 20
-125.3216190005828
 30
0.0
  0
VERTEX
  5
C31
  8
LAYER_1
 10
8.526248638778195
 20
-124.9712558109553
 30
0.0
  0
VERTEX
  5
C32
  8
LAYER_1
 10
8.748604314288894
 20
-124.6147932493551
 30
0.0
  0
VERTEX
  5
C33
  8
LAYER_1
 10
8.962665314565477
 20
-124.2527800244173
 30
0.0
  0
VERTEX
  5
C34
  8
LAYER_1
 10
9.1678358389103
 20
-123.8857648447769
 30
0.0
  0
VERTEX
  5
C35
  8
LAYER_1
 10
9.363520086625712
 20
-123.514296419069
 30
0.0
  0
VERTEX
  5
C36
  8
LAYER_1
 10
9.549122257014076
 20
-123.1389234559288
 30
0.0
  0
VERTEX
  5
C37
  8
LAYER_1
 10
9.743737742631737
 20
-122.7170630096483
 30
0.0
  0
VERTEX
  5
C38
  8
LAYER_1
 10
9.934168690490104
 20
-122.2744401401037
 30
0.0
  0
VERTEX
  5
C39
  8
LAYER_1
 10
10.12028435274837
 20
-121.8118042148027
 30
0.0
  0
VERTEX
  5
C3A
  8
LAYER_1
 10
10.30195398156574
 20
-121.3299046012534
 30
0.0
  0
VERTEX
  5
C3B
  8
LAYER_1
 10
10.4790468291014
 20
-120.8294906669635
 30
0.0
  0
VERTEX
  5
C3C
  8
LAYER_1
 10
10.65143214751455
 20
-120.311311779441
 30
0.0
  0
VERTEX
  5
C3D
  8
LAYER_1
 10
10.81897918896437
 20
-119.7761173061937
 30
0.0
  0
VERTEX
  5
C3E
  8
LAYER_1
 10
10.98155720561008
 20
-119.2246566147296
 30
0.0
  0
VERTEX
  5
C3F
  8
LAYER_1
 10
11.13903544961086
 20
-118.6576790725566
 30
0.0
  0
VERTEX
  5
C40
  8
LAYER_1
 10
11.2912831731259
 20
-118.0759340471825
 30
0.0
  0
VERTEX
  5
C41
  8
LAYER_1
 10
11.43816962831442
 20
-117.4801709061152
 30
0.0
  0
VERTEX
  5
C42
  8
LAYER_1
 10
11.57956406733558
 20
-116.8711390168627
 30
0.0
  0
VERTEX
  5
C43
  8
LAYER_1
 10
11.71533574234861
 20
-116.2495877469328
 30
0.0
  0
VERTEX
  5
C44
  8
LAYER_1
 10
11.84535390551268
 20
-115.6162664638334
 30
0.0
  0
VERTEX
  5
C45
  8
LAYER_1
 10
11.96948780898699
 20
-114.9719245350724
 30
0.0
  0
VERTEX
  5
C46
  8
LAYER_1
 10
12.08760670493075
 20
-114.3173113281577
 30
0.0
  0
VERTEX
  5
C47
  8
LAYER_1
 10
12.19957984550314
 20
-113.6531762105972
 30
0.0
  0
VERTEX
  5
C48
  8
LAYER_1
 10
12.30527648286336
 20
-112.9802685498988
 30
0.0
  0
VERTEX
  5
C49
  8
LAYER_1
 10
12.49731725658406
 20
-111.6111330691198
 30
0.0
  0
VERTEX
  5
C4A
  8
LAYER_1
 10
12.66268304336642
 20
-110.2158998258839
 30
0.0
  0
VERTEX
  5
C4B
  8
LAYER_1
 10
12.80032786048401
 20
-108.8005637602541
 30
0.0
  0
VERTEX
  5
C4C
  8
LAYER_1
 10
12.85842803581649
 20
-108.0872305878113
 30
0.0
  0
VERTEX
  5
C4D
  8
LAYER_1
 10
12.90920572521037
 20
-107.3711198122938
 30
0.0
  0
VERTEX
  5
C4E
  8
LAYER_1
 10
12.95253018082484
 20
-106.6529808012093
 30
0.0
  0
VERTEX
  5
C4F
  8
LAYER_1
 10
12.98827065481908
 20
-105.9335629220659
 30
0.0
  0
VERTEX
  5
C50
  8
LAYER_1
 10
13.0162963993523
 20
-105.2136155423714
 30
0.0
  0
VERTEX
  5
C51
  8
LAYER_1
 10
13.0364766665837
 20
-104.4938880296337
 30
0.0
  0
VERTEX
  5
C52
  8
LAYER_1
 10
13.04868070867246
 20
-103.7751297513607
 30
0.0
  0
VERTEX
  5
C53
  8
LAYER_1
 10
13.05277777777778
 20
-103.0580900750602
 30
0.0
  0
VERTEX
  5
C54
  8
LAYER_1
 10
13.0392057764368
 20
-102.1288717293323
 30
0.0
  0
VERTEX
  5
C55
  8
LAYER_1
 10
12.99819695767401
 20
-101.1878483893211
 30
0.0
  0
VERTEX
  5
C56
  8
LAYER_1
 10
12.92931209937963
 20
-100.2329821035435
 30
0.0
  0
VERTEX
  5
C57
  8
LAYER_1
 10
12.83211197944386
 20
-99.26223492051614
 30
0.0
  0
VERTEX
  5
C58
  8
LAYER_1
 10
12.70615737575692
 20
-98.27356888875568
 30
0.0
  0
VERTEX
  5
C59
  8
LAYER_1
 10
12.55100906620902
 20
-97.26494605677888
 30
0.0
  0
VERTEX
  5
C5A
  8
LAYER_1
 10
12.36622782869038
 20
-96.23432847310244
 30
0.0
  0
VERTEX
  5
C5B
  8
LAYER_1
 10
12.1513744410912
 20
-95.17967818624302
 30
0.0
  0
VERTEX
  5
C5C
  8
LAYER_1
 10
11.9060096813017
 20
-94.09895724471738
 30
0.0
  0
VERTEX
  5
C5D
  8
LAYER_1
 10
11.62969432721209
 20
-92.9901276970422
 30
0.0
  0
VERTEX
  5
C5E
  8
LAYER_1
 10
11.32198915671259
 20
-91.85115159173418
 30
0.0
  0
VERTEX
  5
C5F
  8
LAYER_1
 10
10.98245494769341
 20
-90.67999097731001
 30
0.0
  0
VERTEX
  5
C60
  8
LAYER_1
 10
10.61065247804475
 20
-89.47460790228644
 30
0.0
  0
VERTEX
  5
C61
  8
LAYER_1
 10
10.20614252565684
 20
-88.23296441518012
 30
0.0
  0
VERTEX
  5
C62
  8
LAYER_1
 10
9.76848586841989
 20
-86.9530225645078
 30
0.0
  0
VERTEX
  5
C63
  8
LAYER_1
 10
9.297243284224109
 20
-85.63274439878617
 30
0.0
  0
VERTEX
  5
C64
  8
LAYER_1
 10
7.658482329100451
 20
-81.13076657535015
 30
0.0
  0
VERTEX
  5
C65
  8
LAYER_1
 10
9.342708544325973
 20
-77.55014149605815
 30
0.0
  0
VERTEX
  5
C66
  8
LAYER_1
 10
9.754006702163686
 20
-76.66530360767226
 30
0.0
  0
VERTEX
  5
C67
  8
LAYER_1
 10
10.14389830763118
 20
-75.80479734709328
 30
0.0
  0
VERTEX
  5
C68
  8
LAYER_1
 10
10.51310048204088
 20
-74.96661404983581
 30
0.0
  0
VERTEX
  5
C69
  8
LAYER_1
 10
10.86233034670521
 20
-74.14874505141444
 30
0.0
  0
VERTEX
  5
C6A
  8
LAYER_1
 10
11.19230502293658
 20
-73.34918168734376
 30
0.0
  0
VERTEX
  5
C6B
  8
LAYER_1
 10
11.50374163204742
 20
-72.56591529313837
 30
0.0
  0
VERTEX
  5
C6C
  8
LAYER_1
 10
11.79735729535015
 20
-71.79693720431288
 30
0.0
  0
VERTEX
  5
C6D
  8
LAYER_1
 10
12.07386913415718
 20
-71.04023875638191
 30
0.0
  0
VERTEX
  5
C6E
  8
LAYER_1
 10
12.33399426978095
 20
-70.29381128486003
 30
0.0
  0
VERTEX
  5
C6F
  8
LAYER_1
 10
12.57844982353387
 20
-69.55564612526182
 30
0.0
  0
VERTEX
  5
C70
  8
LAYER_1
 10
12.80795291672837
 20
-68.8237346131019
 30
0.0
  0
VERTEX
  5
C71
  8
LAYER_1
 10
13.02322067067686
 20
-68.09606808389489
 30
0.0
  0
VERTEX
  5
C72
  8
LAYER_1
 10
13.22497020669177
 20
-67.37063787315537
 30
0.0
  0
VERTEX
  5
C73
  8
LAYER_1
 10
13.41391864608551
 20
-66.64543531639794
 30
0.0
  0
VERTEX
  5
C74
  8
LAYER_1
 10
13.59078311017052
 20
-65.91845174913718
 30
0.0
  0
VERTEX
  5
C75
  8
LAYER_1
 10
13.7562807202592
 20
-65.18767850688772
 30
0.0
  0
VERTEX
  5
C76
  8
LAYER_1
 10
14.46388888888889
 20
-61.41748915625735
 30
0.0
  0
VERTEX
  5
C77
  8
LAYER_1
 10
14.45705883177529
 20
-61.25593956263701
 30
0.0
  0
VERTEX
  5
C78
  8
LAYER_1
 10
14.43676261270047
 20
-61.14320987135083
 30
0.0
  0
VERTEX
  5
C79
  8
LAYER_1
 10
14.42165560755228
 20
-61.10497997820471
 30
0.0
  0
VERTEX
  5
C7A
  8
LAYER_1
 10
14.40329116006339
 20
-61.07874804758813
 30
0.0
  0
VERTEX
  5
C7B
  8
LAYER_1
 10
14.38170563628369
 20
-61.06444507514974
 30
0.0
  0
VERTEX
  5
C7C
  8
LAYER_1
 10
14.35693540226304
 20
-61.0620020565382
 30
0.0
  0
VERTEX
  5
C7D
  8
LAYER_1
 10
14.32901682405131
 20
-61.0713499874022
 30
0.0
  0
VERTEX
  5
C7E
  8
LAYER_1
 10
14.29798626769837
 20
-61.09241986339038
 30
0.0
  0
VERTEX
  5
C7F
  8
LAYER_1
 10
14.22673468476836
 20
-61.16944943333394
 30
0.0
  0
VERTEX
  5
C80
  8
LAYER_1
 10
14.14347158187197
 20
-61.29253873155821
 30
0.0
  0
VERTEX
  5
C81
  8
LAYER_1
 10
14.04848788740818
 20
-61.4611357232525
 30
0.0
  0
VERTEX
  5
C82
  8
LAYER_1
 10
13.94207452977596
 20
-61.67468837360612
 30
0.0
  0
VERTEX
  5
C83
  8
LAYER_1
 10
13.82452243737426
 20
-61.93264464780837
 30
0.0
  0
VERTEX
  5
C84
  8
LAYER_1
 10
13.55716576185834
 20
-62.579559928516
 30
0.0
  0
VERTEX
  5
C85
  8
LAYER_1
 10
13.24874528805219
 20
-63.39746528688987
 30
0.0
  0
VERTEX
  5
C86
  8
LAYER_1
 10
12.90158844314755
 20
-64.38194444444443
 30
0.0
  0
VERTEX
  5
C87
  8
LAYER_1
 10
12.67488424874398
 20
-65.02087185329859
 30
0.0
  0
VERTEX
  5
C88
  8
LAYER_1
 10
12.40105888181532
 20
-65.75612413194443
 30
0.0
  0
VERTEX
  5
C89
  8
LAYER_1
 10
12.09056239860435
 20
-66.56165635850694
 30
0.0
  0
VERTEX
  5
C8A
  8
LAYER_1
 10
11.75384485535385
 20
-67.4114236111111
 30
0.0
  0
VERTEX
  5
C8B
  8
LAYER_1
 10
11.40135630830659
 20
-68.27938096788193
 30
0.0
  0
VERTEX
  5
C8C
  8
LAYER_1
 10
11.04354681370538
 20
-69.13948350694443
 30
0.0
  0
VERTEX
  5
C8D
  8
LAYER_1
 10
10.69086642779297
 20
-69.9656863064236
 30
0.0
  0
VERTEX
  5
C8E
  8
LAYER_1
 10
10.35376520681217
 20
-70.73194444444444
 30
0.0
  0
VERTEX
  5
C8F
  8
LAYER_1
 10
7.98202998494267
 20
-75.84722222222221
 30
0.0
  0
VERTEX
  5
C90
  8
LAYER_1
 10
7.838741251082335
 20
-76.11970091705939
 30
0.0
  0
VERTEX
  5
C91
  8
LAYER_1
 10
7.68894663101517
 20
-76.37740118773847
 30
0.0
  0
VERTEX
  5
C92
  8
LAYER_1
 10
7.535897087659187
 20
-76.6163146963627
 30
0.0
  0
VERTEX
  5
C93
  8
LAYER_1
 10
7.382843583932393
 20
-76.83243310503529
 30
0.0
  0
VERTEX
  5
C94
  8
LAYER_1
 10
7.233037082752802
 20
-77.02174807585948
 30
0.0
  0
VERTEX
  5
C95
  8
LAYER_1
 10
7.089728547038424
 20
-77.18025127093847
 30
0.0
  0
VERTEX
  5
C96
  8
LAYER_1
 10
6.956168939707268
 20
-77.30393435237553
 30
0.0
  0
VERTEX
  5
C97
  8
LAYER_1
 10
6.835609223677348
 20
-77.38878898227391
 30
0.0
  0
VERTEX
  5
C98
  8
LAYER_1
 10
6.718489856706279
 20
-77.46758727718549
 30
0.0
  0
SEQEND
  5
C99
  8
LAYER_1
  0
POLYLINE
  5
5F
  8
LAYER_1
 66
     1
 10
0.0
 20
0.0
 30
0.0
 70
     1
  0
VERTEX
  5
C9A
  8
LAYER_1
 10
-10.87748500631118
 20
56.58408390542088
 30
0.0
  0
VERTEX
  5
C9B
  8
LAYER_1
 10
-10.84044302598899
 20
56.11120822787331
 30
0.0
  0
VERTEX
  5
C9C
  8
LAYER_1
 10
-10.77071690904058
 20
55.60191759602323
 30
0.0
  0
VERTEX
  5
C9D
  8
LAYER_1
 10
-10.66831285149913
 20
55.0699542919983
 30
0.0
  0
VERTEX
  5
C9E
  8
LAYER_1
 10
-10.60485853126637
 20
54.79976485108517
 30
0.0
  0
VERTEX
  5
C9F
  8
LAYER_1
 10
-10.53323704939778
 20
54.5290605979262
 30
0.0
  0
VERTEX
  5
CA0
  8
LAYER_1
 10
-10.45344918039751
 20
54.25955931778738
 30
0.0
  0
VERTEX
  5
CA1
  8
LAYER_1
 10
-10.3654956987697
 20
53.99297879593463
 30
0.0
  0
VERTEX
  5
CA2
  8
LAYER_1
 10
-10.26937737901849
 20
53.73103681763394
 30
0.0
  0
VERTEX
  5
CA3
  8
LAYER_1
 10
-10.16509499564803
 20
53.47545116815126
 30
0.0
  0
VERTEX
  5
CA4
  8
LAYER_1
 10
-10.05264932316247
 20
53.22793963275255
 30
0.0
  0
VERTEX
  5
CA5
  8
LAYER_1
 10
-9.932041136065944
 20
52.99021999670377
 30
0.0
  0
VERTEX
  5
CA6
  8
LAYER_1
 10
-9.803271208862604
 20
52.76401004527089
 30
0.0
  0
VERTEX
  5
CA7
  8
LAYER_1
 10
-9.666340316056592
 20
52.55102756371985
 30
0.0
  0
VERTEX
  5
CA8
  8
LAYER_1
 10
-9.521249232152051
 20
52.35299033731663
 30
0.0
  0
VERTEX
  5
CA9
  8
LAYER_1
 10
-9.367998731653127
 20
52.17161615132717
 30
0.0
  0
VERTEX
  5
CAA
  8
LAYER_1
 10
-9.206589589063965
 20
52.00862279101744
 30
0.0
  0
VERTEX
  5
CAB
  8
LAYER_1
 10
-9.03702257888871
 20
51.86572804165341
 30
0.0
  0
VERTEX
  5
CAC
  8
LAYER_1
 10
-8.859298475631505
 20
51.74464968850103
 30
0.0
  0
VERTEX
  5
CAD
  8
LAYER_1
 10
-8.673418053796494
 20
51.64710551682626
 30
0.0
  0
VERTEX
  5
CAE
  8
LAYER_1
 10
-8.479382087887824
 20
51.57481331189506
 30
0.0
  0
VERTEX
  5
CAF
  8
LAYER_1
 10
-8.277191352409638
 20
51.52949085897338
 30
0.0
  0
VERTEX
  5
CB0
  8
LAYER_1
 10
-8.173038188114521
 20
51.51748009741173
 30
0.0
  0
VERTEX
  5
CB1
  8
LAYER_1
 10
-8.06684662186608
 20
51.5128559433272
 30
0.0
  0
VERTEX
  5
CB2
  8
LAYER_1
 10
-7.958616750477333
 20
51.51583311987804
 30
0.0
  0
VERTEX
  5
CB3
  8
LAYER_1
 10
-7.848348670761298
 20
51.52662635022248
 30
0.0
  0
VERTEX
  5
CB4
  8
LAYER_1
 10
-7.736042479530992
 20
51.54545035751877
 30
0.0
  0
VERTEX
  5
CB5
  8
LAYER_1
 10
-7.621698273599433
 20
51.57251986492516
 30
0.0
  0
VERTEX
  5
CB6
  8
LAYER_1
 10
-7.50531614977964
 20
51.60804959559989
 30
0.0
  0
VERTEX
  5
CB7
  8
LAYER_1
 10
-7.38689620488463
 20
51.65225427270121
 30
0.0
  0
VERTEX
  5
CB8
  8
LAYER_1
 10
-7.143943239121036
 20
51.7675473588166
 30
0.0
  0
VERTEX
  5
CB9
  8
LAYER_1
 10
-6.892840150812793
 20
51.92011690853728
 30
0.0
  0
VERTEX
  5
CBA
  8
LAYER_1
 10
-6.633587714464047
 20
52.11168070712921
 30
0.0
  0
VERTEX
  5
CBB
  8
LAYER_1
 10
-6.366186704578944
 20
52.34395653985835
 30
0.0
  0
VERTEX
  5
CBC
  8
LAYER_1
 10
-6.391614057980448
 20
51.91122415547888
 30
0.0
  0
VERTEX
  5
CBD
  8
LAYER_1
 10
-6.42455893285433
 20
51.5047807148403
 30
0.0
  0
VERTEX
  5
CBE
  8
LAYER_1
 10
-6.464726797336048
 20
51.12412066133221
 30
0.0
  0
VERTEX
  5
CBF
  8
LAYER_1
 10
-6.511823119561061
 20
50.76873843834419
 30
0.0
  0
VERTEX
  5
CC0
  8
LAYER_1
 10
-6.565553367664826
 20
50.43812848926585
 30
0.0
  0
VERTEX
  5
CC1
  8
LAYER_1
 10
-6.6256230097828
 20
50.13178525748679
 30
0.0
  0
VERTEX
  5
CC2
  8
LAYER_1
 10
-6.691737514050442
 20
49.84920318639661
 30
0.0
  0
VERTEX
  5
CC3
  8
LAYER_1
 10
-6.763602348603211
 20
49.58987671938489
 30
0.0
  0
VERTEX
  5
CC4
  8
LAYER_1
 10
-6.840922981576563
 20
49.35330029984124
 30
0.0
  0
VERTEX
  5
CC5
  8
LAYER_1
 10
-6.923404881105958
 20
49.13896837115527
 30
0.0
  0
VERTEX
  5
CC6
  8
LAYER_1
 10
-7.010753515326852
 20
48.94637537671657
 30
0.0
  0
VERTEX
  5
CC7
  8
LAYER_1
 10
-7.102674352374703
 20
48.77501575991472
 30
0.0
  0
VERTEX
  5
CC8
  8
LAYER_1
 10
-7.198872860384971
 20
48.62438396413935
 30
0.0
  0
VERTEX
  5
CC9
  8
LAYER_1
 10
-7.299054507493112
 20
48.49397443278005
 30
0.0
  0
VERTEX
  5
CCA
  8
LAYER_1
 10
-7.402924761834585
 20
48.3832816092264
 30
0.0
  0
VERTEX
  5
CCB
  8
LAYER_1
 10
-7.510189091544849
 20
48.29179993686802
 30
0.0
  0
VERTEX
  5
CCC
  8
LAYER_1
 10
-7.620552964759361
 20
48.21902385909449
 30
0.0
  0
VERTEX
  5
CCD
  8
LAYER_1
 10
-7.733721849613578
 20
48.16444781929543
 30
0.0
  0
VERTEX
  5
CCE
  8
LAYER_1
 10
-7.849401214242959
 20
48.12756626086041
 30
0.0
  0
VERTEX
  5
CCF
  8
LAYER_1
 10
-7.967296526782963
 20
48.10787362717906
 30
0.0
  0
VERTEX
  5
CD0
  8
LAYER_1
 10
-8.087113255369047
 20
48.10486436164095
 30
0.0
  0
VERTEX
  5
CD1
  8
LAYER_1
 10
-8.208556868136668
 20
48.1180329076357
 30
0.0
  0
VERTEX
  5
CD2
  8
LAYER_1
 10
-8.331332833221285
 20
48.1468737085529
 30
0.0
  0
VERTEX
  5
CD3
  8
LAYER_1
 10
-8.455146618758356
 20
48.19088120778214
 30
0.0
  0
VERTEX
  5
CD4
  8
LAYER_1
 10
-8.579703692883337
 20
48.24954984871303
 30
0.0
  0
VERTEX
  5
CD5
  8
LAYER_1
 10
-8.70470952373169
 20
48.32237407473517
 30
0.0
  0
VERTEX
  5
CD6
  8
LAYER_1
 10
-8.82986957943887
 20
48.40884832923815
 30
0.0
  0
VERTEX
  5
CD7
  8
LAYER_1
 10
-8.954889328140338
 20
48.50846705561157
 30
0.0
  0
VERTEX
  5
CD8
  8
LAYER_1
 10
-9.07947423797155
 20
48.62072469724503
 30
0.0
  0
VERTEX
  5
CD9
  8
LAYER_1
 10
-9.20332977706796
 20
48.74511569752813
 30
0.0
  0
VERTEX
  5
CDA
  8
LAYER_1
 10
-9.326161413565034
 20
48.88113449985046
 30
0.0
  0
VERTEX
  5
CDB
  8
LAYER_1
 10
-9.447674615598222
 20
49.02827554760163
 30
0.0
  0
VERTEX
  5
CDC
  8
LAYER_1
 10
-9.685567588814788
 20
49.35390215294887
 30
0.0
  0
VERTEX
  5
CDD
  8
LAYER_1
 10
-9.914652441801321
 20
49.71795106068663
 30
0.0
  0
VERTEX
  5
CDE
  8
LAYER_1
 10
-10.13257291964148
 20
50.1163778179317
 30
0.0
  0
VERTEX
  5
CDF
  8
LAYER_1
 10
-10.33697276741894
 20
50.54513797180087
 30
0.0
  0
VERTEX
  5
CE0
  8
LAYER_1
 10
-10.52549573021736
 20
51.00018706941091
 30
0.0
  0
VERTEX
  5
CE1
  8
LAYER_1
 10
-10.69578555312041
 20
51.47748065787863
 30
0.0
  0
VERTEX
  5
CE2
  8
LAYER_1
 10
-10.84548598121173
 20
51.97297428432081
 30
0.0
  0
VERTEX
  5
CE3
  8
LAYER_1
 10
-10.97224075957501
 20
52.48262349585423
 30
0.0
  0
VERTEX
  5
CE4
  8
LAYER_1
 10
-11.07369363329391
 20
53.00238383959569
 30
0.0
  0
VERTEX
  5
CE5
  8
LAYER_1
 10
-11.14748834745209
 20
53.52821086266196
 30
0.0
  0
VERTEX
  5
CE6
  8
LAYER_1
 10
-11.17327756503455
 20
53.79213548741589
 30
0.0
  0
VERTEX
  5
CE7
  8
LAYER_1
 10
-11.1912686471332
 20
54.05606011216983
 30
0.0
  0
VERTEX
  5
CE8
  8
LAYER_1
 10
-11.20116706188351
 20
54.31947918031337
 30
0.0
  0
VERTEX
  5
CE9
  8
LAYER_1
 10
-11.20267827742093
 20
54.58188713523611
 30
0.0
  0
VERTEX
  5
CEA
  8
LAYER_1
 10
-11.19550776188091
 20
54.84277842032765
 30
0.0
  0
VERTEX
  5
CEB
  8
LAYER_1
 10
-11.17936098339892
 20
55.10164747897757
 30
0.0
  0
VERTEX
  5
CEC
  8
LAYER_1
 10
-11.15394341011042
 20
55.35798875457548
 30
0.0
  0
VERTEX
  5
CED
  8
LAYER_1
 10
-11.11896051015086
 20
55.61129669051099
 30
0.0
  0
VERTEX
  5
CEE
  8
LAYER_1
 10
-11.07411775165569
 20
55.86106573017369
 30
0.0
  0
VERTEX
  5
CEF
  8
LAYER_1
 10
-11.01912060276039
 20
56.10679031695317
 30
0.0
  0
VERTEX
  5
CF0
  8
LAYER_1
 10
-10.9536745316004
 20
56.34796489423903
 30
0.0
  0
SEQEND
  5
CF1
  8
LAYER_1
  0
POLYLINE
  5
60
  8
LAYER_1
 66
     1
 10
0.0
 20
0.0
 30
0.0
 70
     1
  0
VERTEX
  5
CF2
  8
LAYER_1
 10
-26.5228365055156
 20
52.0987118871173
 30
0.0
  0
VERTEX
  5
CF3
  8
LAYER_1
 10
-26.43066195618893
 20
52.22601607486457
 30
0.0
  0
VERTEX
  5
CF4
  8
LAYER_1
 10
-26.3267752110012
 20
52.33571437370101
 30
0.0
  0
VERTEX
  5
CF5
  8
LAYER_1
 10
-26.21288154423026
 20
52.42798627607559
 30
0.0
  0
VERTEX
  5
CF6
  8
LAYER_1
 10
-26.09068623015398
 20
52.50301127443728
 30
0.0
  0
VERTEX
  5
CF7
  8
LAYER_1
 10
-25.96189454305026
 20
52.5609688612351
 30
0.0
  0
VERTEX
  5
CF8
  8
LAYER_1
 10
-25.82821175719697
 20
52.60203852891803
 30
0.0
  0
VERTEX
  5
CF9
  8
LAYER_1
 10
-25.69134314687198
 20
52.62639976993505
 30
0.0
  0
VERTEX
  5
CFA
  8
LAYER_1
 10
-25.55299398635317
 20
52.63423207673516
 30
0.0
  0
VERTEX
  5
CFB
  8
LAYER_1
 10
-25.41486954991841
 20
52.62571494176734
 30
0.0
  0
VERTEX
  5
CFC
  8
LAYER_1
 10
-25.27867511184559
 20
52.6010278574806
 30
0.0
  0
VERTEX
  5
CFD
  8
LAYER_1
 10
-25.14611594641259
 20
52.56035031632391
 30
0.0
  0
VERTEX
  5
CFE
  8
LAYER_1
 10
-25.01889732789727
 20
52.50386181074627
 30
0.0
  0
VERTEX
  5
CFF
  8
LAYER_1
 10
-24.89872453057752
 20
52.43174183319665
 30
0.0
  0
VERTEX
  5
D00
  8
LAYER_1
 10
-24.78730282873121
 20
52.34416987612407
 30
0.0
  0
VERTEX
  5
D01
  8
LAYER_1
 10
-24.68633749663622
 20
52.2413254319775
 30
0.0
  0
VERTEX
  5
D02
  8
LAYER_1
 10
-24.59753380857043
 20
52.12338799320594
 30
0.0
  0
VERTEX
  5
D03
  8
LAYER_1
 10
-24.4177986570612
 20
51.84079461114629
 30
0.0
  0
VERTEX
  5
D04
  8
LAYER_1
 10
-24.31763828865584
 20
51.70813970002054
 30
0.0
  0
VERTEX
  5
D05
  8
LAYER_1
 10
-24.26155856074296
 20
51.64763792141061
 30
0.0
  0
VERTEX
  5
D06
  8
LAYER_1
 10
-24.20017386252901
 20
51.5924162062843
 30
0.0
  0
VERTEX
  5
D07
  8
LAYER_1
 10
-23.99478433535237
 20
51.43554508139124
 30
0.0
  0
VERTEX
  5
D08
  8
LAYER_1
 10
-23.78097199554209
 20
51.29133713497273
 30
0.0
  0
VERTEX
  5
D09
  8
LAYER_1
 10
-23.55933332182493
 20
51.16010113037774
 30
0.0
  0
VERTEX
  5
D0A
  8
LAYER_1
 10
-23.33046479292767
 20
51.04214583095525
 30
0.0
  0
VERTEX
  5
D0B
  8
LAYER_1
 10
-23.09496288757707
 20
50.93778000005423
 30
0.0
  0
VERTEX
  5
D0C
  8
LAYER_1
 10
-22.85342408449991
 20
50.84731240102366
 30
0.0
  0
VERTEX
  5
D0D
  8
LAYER_1
 10
-22.60644486242297
 20
50.77105179721251
 30
0.0
  0
VERTEX
  5
D0E
  8
LAYER_1
 10
-22.354621700073
 20
50.70930695196976
 30
0.0
  0
VERTEX
  5
D0F
  8
LAYER_1
 10
-22.2282904091519
 20
50.63082533715058
 30
0.0
  0
VERTEX
  5
D10
  8
LAYER_1
 10
-22.12746549028746
 20
50.53923756753772
 30
0.0
  0
VERTEX
  5
D11
  8
LAYER_1
 10
-22.05093963420355
 20
50.43715114250433
 30
0.0
  0
VERTEX
  5
D12
  8
LAYER_1
 10
-21.99750553162408
 20
50.32717356142356
 30
0.0
  0
VERTEX
  5
D13
  8
LAYER_1
 10
-21.96595587327293
 20
50.21191232366859
 30
0.0
  0
VERTEX
  5
D14
  8
LAYER_1
 10
-21.95508334987398
 20
50.09397492861258
 30
0.0
  0
VERTEX
  5
D15
  8
LAYER_1
 10
-21.96368065215113
 20
49.97596887562869
 30
0.0
  0
VERTEX
  5
D16
  8
LAYER_1
 10
-21.99054047082826
 20
49.86050166409008
 30
0.0
  0
VERTEX
  5
D17
  8
LAYER_1
 10
-22.03445549662927
 20
49.75018079336991
 30
0.0
  0
VERTEX
  5
D18
  8
LAYER_1
 10
-22.09421842027805
 20
49.64761376284135
 30
0.0
  0
VERTEX
  5
D19
  8
LAYER_1
 10
-22.16862193249847
 20
49.55540807187754
 30
0.0
  0
VERTEX
  5
D1A
  8
LAYER_1
 10
-22.25645872401444
 20
49.47617121985166
 30
0.0
  0
VERTEX
  5
D1B
  8
LAYER_1
 10
-22.35652148554984
 20
49.41251070613689
 30
0.0
  0
VERTEX
  5
D1C
  8
LAYER_1
 10
-22.46760290782857
 20
49.36703403010635
 30
0.0
  0
VERTEX
  5
D1D
  8
LAYER_1
 10
-22.5884956815745
 20
49.34234869113322
 30
0.0
  0
VERTEX
  5
D1E
  8
LAYER_1
 10
-22.71799249751153
 20
49.34106218859068
 30
0.0
  0
VERTEX
  5
D1F
  8
LAYER_1
 10
-22.7854776078983
 20
49.35419976429963
 30
0.0
  0
VERTEX
  5
D20
  8
LAYER_1
 10
-22.84929619964498
 20
49.38043228215701
 30
0.0
  0
VERTEX
  5
D21
  8
LAYER_1
 10
-22.90937576736601
 20
49.41757122655426
 30
0.0
  0
VERTEX
  5
D22
  8
LAYER_1
 10
-22.96564380567584
 20
49.46342808188279
 30
0.0
  0
VERTEX
  5
D23
  8
LAYER_1
 10
-23.06645527251963
 20
49.57254146289941
 30
0.0
  0
VERTEX
  5
D24
  8
LAYER_1
 10
-23.15115055709191
 20
49.69026430033824
 30
0.0
  0
VERTEX
  5
D25
  8
LAYER_1
 10
-23.28033431984354
 20
49.86157106017299
 30
0.0
  0
VERTEX
  5
D26
  8
LAYER_1
 10
-23.4289098632096
 20
50.01361468001636
 30
0.0
  0
VERTEX
  5
D27
  8
LAYER_1
 10
-23.59463363628589
 20
50.14502012549484
 30
0.0
  0
VERTEX
  5
D28
  8
LAYER_1
 10
-23.77526208816822
 20
50.25441236223493
 30
0.0
  0
VERTEX
  5
D29
  8
LAYER_1
 10
-23.96855166795238
 20
50.34041635586311
 30
0.0
  0
VERTEX
  5
D2A
  8
LAYER_1
 10
-24.17225882473419
 20
50.40165707200589
 30
0.0
  0
VERTEX
  5
D2B
  8
LAYER_1
 10
-24.38414000760945
 20
50.43675947628975
 30
0.0
  0
VERTEX
  5
D2C
  8
LAYER_1
 10
-24.60195166567397
 20
50.44434853434117
 30
0.0
  0
VERTEX
  5
D2D
  8
LAYER_1
 10
-24.67167756837578
 20
50.43761408713229
 30
0.0
  0
VERTEX
  5
D2E
  8
LAYER_1
 10
-24.74003758211656
 20
50.42264401513797
 30
0.0
  0
VERTEX
  5
D2F
  8
LAYER_1
 10
-24.87317492809635
 20
50.37393758211009
 30
0.0
  0
VERTEX
  5
D30
  8
LAYER_1
 10
-25.12872379171865
 20
50.24304365711639
 30
0.0
  0
VERTEX
  5
D31
  8
LAYER_1
 10
-25.24053663823898
 20
50.19317318175756
 30
0.0
  0
VERTEX
  5
D32
  8
LAYER_1
 10
-25.35643526528173
 20
50.15668869107014
 30
0.0
  0
VERTEX
  5
D33
  8
LAYER_1
 10
-25.47522045301685
 20
50.13369274553193
 30
0.0
  0
VERTEX
  5
D34
  8
LAYER_1
 10
-25.59569298161427
 20
50.12428790562073
 30
0.0
  0
VERTEX
  5
D35
  8
LAYER_1
 10
-25.71665363124393
 20
50.12857673181434
 30
0.0
  0
VERTEX
  5
D36
  8
LAYER_1
 10
-25.83690318207577
 20
50.14666178459056
 30
0.0
  0
VERTEX
  5
D37
  8
LAYER_1
 10
-25.95524241427971
 20
50.17864562442719
 30
0.0
  0
VERTEX
  5
D38
  8
LAYER_1
 10
-26.0704721080257
 20
50.22463081180202
 30
0.0
 42
-0.4977528089887595
  0
SEQEND
  5
D39
  8
LAYER_1
  0
POLYLINE
  5
61
  8
LAYER_1
 66
     1
 10
0.0
 20
0.0
 30
0.0
 70
     1
  0
VERTEX
  5
D3A
  8
LAYER_1
 10
-16.95792942911059
 20
71.55868527337076
 30
0.0
 42
-0.1006282112845093
  0
VERTEX
  5
D3B
  8
LAYER_1
 10
-13.65007788133815
 20
68.55659621246195
 30
0.0
 42
-0.731694459363972
  0
VERTEX
  5
D3C
  8
LAYER_1
 10
-15.37468559233216
 20
65.71180601605421
 30
0.0
 42
0.3034994942296476
  0
VERTEX
  5
D3D
  8
LAYER_1
 10
-16.65958223475602
 20
65.198352230064
 30
0.0
 42
-0.1665091054208128
  0
VERTEX
  5
D3E
  8
LAYER_1
 10
-23.83611366491608
 20
59.67220310921152
 30
0.0
 42
0.0526643258180632
  0
VERTEX
  5
D3F
  8
LAYER_1
 10
-17.66112004002452
 20
65.2801413287173
 30
0.0
 42
0.3398477710812906
  0
VERTEX
  5
D40
  8
LAYER_1
 10
-17.76524967951369
 20
66.12958675145921
 30
0.0
 42
-0.3613184818404991
  0
VERTEX
  5
D41
  8
LAYER_1
 10
-18.77483386601544
 20
68.54018790563337
 30
0.0
 42
0.1207842296744472
  0
VERTEX
  5
D42
  8
LAYER_1
 10
-18.72497785680548
 20
70.44796911881967
 30
0.0
 42
-0.5210064365125812
  0
SEQEND
  5
D43
  8
LAYER_1
  0
ENDSEC
  0
EOF
