  0
SECTION
  2
HEADER
  9
$ACADVER
  1
AC1009
  9
$DWGCODEPAGE
  3
ansi_1252
  9
$INSBASE
 10
0.0
 20
0.0
 30
0.0
  9
$EXTMIN
 10
-56.9317549008936
 20
-41.97388654840982
 30
0.0
  9
$EXTMAX
 10
58.09658160792726
 20
42.6883510294298
 30
0.0
  9
$LIMMIN
 10
0.0
 20
0.0
  9
$LIMMAX
 10
12.0
 20
9.0
  9
$ORTHOMODE
 70
     0
  9
$REGENMODE
 70
     1
  9
$FILLMODE
 70
     1
  9
$QTEXTMODE
 70
     0
  9
$MIRRTEXT
 70
     1
  9
$DRAGMODE
 70
     2
  9
$LTSCALE
 40
1.0
  9
$OSMODE
 70
    37
  9
$ATTMODE
 70
     1
  9
$TEXTSIZE
 40
0.2
  9
$TRACEWID
 40
0.05
  9
$TEXTSTYLE
  7
STANDARD
  9
$CLAYER
  8
0
  9
$CELTYPE
  6
BYLAYER
  9
$CECOLOR
 62
   256
  9
$DIMSCALE
 40
1.0
  9
$DIMASZ
 40
0.18
  9
$DIMEXO
 40
0.0625
  9
$DIMDLI
 40
0.38
  9
$DIMRND
 40
0.0
  9
$DIMDLE
 40
0.0
  9
$DIMEXE
 40
0.18
  9
$DIMTP
 40
0.0
  9
$DIMTM
 40
0.0
  9
$DIMTXT
 40
0.18
  9
$DIMCEN
 40
0.09
  9
$DIMTSZ
 40
0.0
  9
$DIMTOL
 70
     0
  9
$DIMLIM
 70
     0
  9
$DIMTIH
 70
     1
  9
$DIMTOH
 70
     1
  9
$DIMSE1
 70
     0
  9
$DIMSE2
 70
     0
  9
$DIMTAD
 70
     0
  9
$DIMZIN
 70
     0
  9
$DIMBLK
  1

  9
$DIMASO
 70
     1
  9
$DIMSHO
 70
     1
  9
$DIMPOST
  1

  9
$DIMAPOST
  1

  9
$DIMALT
 70
     0
  9
$DIMALTD
 70
     2
  9
$DIMALTF
 40
25.4
  9
$DIMLFAC
 40
1.0
  9
$DIMTOFL
 70
     0
  9
$DIMTVP
 40
0.0
  9
$DIMTIX
 70
     0
  9
$DIMSOXD
 70
     0
  9
$DIMSAH
 70
     0
  9
$DIMBLK1
  1

  9
$DIMBLK2
  1

  9
$DIMSTYLE
  2
STANDARD
  9
$DIMCLRD
 70
     0
  9
$DIMCLRE
 70
     0
  9
$DIMCLRT
 70
     0
  9
$DIMTFAC
 40
1.0
  9
$DIMGAP
 40
0.09
  9
$LUNITS
 70
     2
  9
$LUPREC
 70
     4
  9
$SKETCHINC
 40
0.1
  9
$FILLETRAD
 40
0.5
  9
$AUNITS
 70
     0
  9
$AUPREC
 70
     0
  9
$MENU
  1
.
  9
$ELEVATION
 40
0.0
  9
$PELEVATION
 40
0.0
  9
$THICKNESS
 40
0.0
  9
$LIMCHECK
 70
     0
  9
$CHAMFERA
 40
0.5
  9
$CHAMFERB
 40
0.5
  9
$SKPOLY
 70
     0
  9
$TDCREATE
 40
2454910.5
  9
$TDUPDATE
 40
2458804.953127824
  9
$TDINDWG
 40
0.0000000116
  9
$TDUSRTIMER
 40
0.0000000116
  9
$USRTIMER
 70
     1
  9
$ANGBASE
 50
0.0
  9
$ANGDIR
 70
     0
  9
$PDMODE
 70
     0
  9
$PDSIZE
 40
0.0
  9
$PLINEWID
 40
0.0
  9
$COORDS
 70
     1
  9
$SPLFRAME
 70
     0
  9
$SPLINETYPE
 70
     6
  9
$SPLINESEGS
 70
     8
  9
$ATTDIA
 70
     0
  9
$ATTREQ
 70
     1
  9
$HANDLING
 70
     1
  9
$HANDSEED
  5
B16
  9
$SURFTAB1
 70
     6
  9
$SURFTAB2
 70
     6
  9
$SURFTYPE
 70
     6
  9
$SURFU
 70
     6
  9
$SURFV
 70
     6
  9
$UCSNAME
  2

  9
$UCSORG
 10
0.0
 20
0.0
 30
0.0
  9
$UCSXDIR
 10
1.0
 20
0.0
 30
0.0
  9
$UCSYDIR
 10
0.0
 20
1.0
 30
0.0
  9
$PUCSNAME
  2

  9
$PUCSORG
 10
0.0
 20
0.0
 30
0.0
  9
$PUCSXDIR
 10
1.0
 20
0.0
 30
0.0
  9
$PUCSYDIR
 10
0.0
 20
1.0
 30
0.0
  9
$USERI1
 70
     0
  9
$USERI2
 70
     0
  9
$USERI3
 70
     0
  9
$USERI4
 70
     0
  9
$USERI5
 70
     0
  9
$USERR1
 40
0.0
  9
$USERR2
 40
0.0
  9
$USERR3
 40
0.0
  9
$USERR4
 40
0.0
  9
$USERR5
 40
0.0
  9
$WORLDVIEW
 70
     1
  9
$SHADEDGE
 70
     3
  9
$SHADEDIF
 70
    70
  9
$TILEMODE
 70
     1
  9
$MAXACTVP
 70
    64
  9
$PLIMCHECK
 70
     0
  9
$PEXTMIN
 10
1.000000000000000E+20
 20
1.000000000000000E+20
 30
1.000000000000000E+20
  9
$PEXTMAX
 10
-1.000000000000000E+20
 20
-1.000000000000000E+20
 30
-1.000000000000000E+20
  9
$PLIMMIN
 10
0.0
 20
0.0
  9
$PLIMMAX
 10
12.0
 20
9.0
  9
$UNITMODE
 70
     0
  9
$VISRETAIN
 70
     1
  9
$PLINEGEN
 70
     0
  9
$PSLTSCALE
 70
     1
  0
ENDSEC
  0
SECTION
  2
TABLES
  0
TABLE
  2
VPORT
 70
     1
  0
VPORT
  2
*ACTIVE
 70
     0
 10
0.0
 20
0.0
 11
1.0
 21
1.0
 12
10.42990654205607
 22
4.5
 13
0.0
 23
0.0
 14
0.5
 24
0.5
 15
0.5
 25
0.5
 16
0.0
 26
0.0
 36
1.0
 17
0.0
 27
0.0
 37
0.0
 40
9.0
 41
1.972972972850329
 42
50.0
 43
0.0
 44
0.0
 50
0.0
 51
0.0
 71
     0
 72
   100
 73
     1
 74
     3
 75
     0
 76
     0
 77
     0
 78
     0
  0
ENDTAB
  0
TABLE
  2
LTYPE
 70
     2
  0
LTYPE
  2
CONTINUOUS
 70
     0
  3
Solid line
 72
    65
 73
     0
 40
0.0
  0
LTYPE
  2
CONTINUOUS2
 70
     0
  3
Solid Line
 72
    65
 73
     0
 40
0.0
  0
ENDTAB
  0
TABLE
  2
LAYER
 70
     2
  0
LAYER
  2
0
 70
     0
 62
     7
  6
CONTINUOUS
  0
LAYER
  2
LAYER_1
 70
     0
 62
     1
  6
CONTINUOUS
  0
ENDTAB
  0
TABLE
  2
STYLE
 70
     1
  0
STYLE
  2
STANDARD
 70
     0
 40
0.0
 41
1.0
 50
0.0
 71
     0
 42
0.2
  3
txt
  4

  0
ENDTAB
  0
TABLE
  2
VIEW
 70
     0
  0
ENDTAB
  0
TABLE
  2
UCS
 70
     0
  0
ENDTAB
  0
TABLE
  2
APPID
 70
     1
  0
APPID
  2
ACAD
 70
     0
  0
ENDTAB
  0
TABLE
  2
DIMSTYLE
 70
     1
  0
DIMSTYLE
  2
STANDARD
 70
     0
  3

  4

  5

  6

  7

 40
1.0
 41
0.18
 42
0.0625
 43
0.38
 44
0.18
 45
0.0
 46
0.0
 47
0.0
 48
0.0
140
0.18
141
0.09
142
0.0
143
25.4
144
1.0
145
0.0
146
1.0
147
0.09
 71
     0
 72
     0
 73
     1
 74
     1
 75
     0
 76
     0
 77
     0
 78
     0
170
     0
171
     2
172
     0
173
     0
174
     0
175
     0
176
     0
177
     0
178
     0
  0
ENDTAB
  0
ENDSEC
  0
SECTION
  2
BLOCKS
  0
BLOCK
  8
0
  2
$MODEL_SPACE
 70
     0
 10
0.0
 20
0.0
 30
0.0
  3
$MODEL_SPACE
  1

  0
ENDBLK
  5
21
  8
0
  0
BLOCK
 67
     1
  8
0
  2
$PAPER_SPACE
 70
     0
 10
0.0
 20
0.0
 30
0.0
  3
$PAPER_SPACE
  1

  0
ENDBLK
  5
1D
 67
     1
  8
0
  0
ENDSEC
  0
SECTION
  2
ENTITIES
  0
POLYLINE
  5
41
  8
LAYER_1
 66
     1
 10
0.0
 20
0.0
 30
0.0
 70
     1
  0
VERTEX
  5
62
  8
LAYER_1
 10
-6.173611111111107
 20
-41.97388654840982
 30
0.0
  0
VERTEX
  5
63
  8
LAYER_1
 10
-6.0023105487675
 20
-41.95970417964325
 30
0.0
  0
VERTEX
  5
64
  8
LAYER_1
 10
-5.801419230399832
 20
-41.91841798150288
 30
0.0
  0
VERTEX
  5
65
  8
LAYER_1
 10
-5.566939407782909
 20
-41.84781715634353
 30
0.0
  0
VERTEX
  5
66
  8
LAYER_1
 10
-5.294873332691536
 20
-41.74569090652
 30
0.0
  0
VERTEX
  5
67
  8
LAYER_1
 10
-4.981223256900516
 20
-41.60982843438711
 30
0.0
  0
VERTEX
  5
68
  8
LAYER_1
 10
-4.621991432184657
 20
-41.43801894229966
 30
0.0
  0
VERTEX
  5
69
  8
LAYER_1
 10
-4.213180110318763
 20
-41.22805163261246
 30
0.0
  0
VERTEX
  5
6A
  8
LAYER_1
 10
-3.750791543077639
 20
-40.97771570768034
 30
0.0
  0
VERTEX
  5
6B
  8
LAYER_1
 10
-3.23082798223609
 20
-40.6848003698581
 30
0.0
  0
VERTEX
  5
6C
  8
LAYER_1
 10
-2.649291679568921
 20
-40.34709482150054
 30
0.0
  0
VERTEX
  5
6D
  8
LAYER_1
 10
-1.285509855856944
 20
-39.52846990259875
 30
0.0
  0
VERTEX
  5
6E
  8
LAYER_1
 10
0.3725359138598517
 20
-38.50415456981347
 30
0.0
  0
VERTEX
  5
6F
  8
LAYER_1
 10
2.356827615383025
 20
-37.25646244198317
 30
0.0
  0
VERTEX
  5
70
  8
LAYER_1
 10
6.653933008543817
 20
-34.53795918972858
 30
0.0
  0
VERTEX
  5
71
  8
LAYER_1
 10
8.780512115562487
 20
-32.2646394232397
 30
0.0
  0
VERTEX
  5
72
  8
LAYER_1
 10
9.265889867563118
 20
-31.72328921378313
 30
0.0
  0
VERTEX
  5
73
  8
LAYER_1
 10
9.745845185470873
 20
-31.14445915620246
 30
0.0
  0
VERTEX
  5
74
  8
LAYER_1
 10
10.21360809282491
 20
-30.53791129505002
 30
0.0
  0
VERTEX
  5
75
  8
LAYER_1
 10
10.66240861316438
 20
-29.9134076748781
 30
0.0
  0
VERTEX
  5
76
  8
LAYER_1
 10
11.08547677002842
 20
-29.28071034023904
 30
0.0
  0
VERTEX
  5
77
  8
LAYER_1
 10
11.4760425869562
 20
-28.64958133568514
 30
0.0
  0
VERTEX
  5
78
  8
LAYER_1
 10
11.82733608748686
 20
-28.02978270576871
 30
0.0
  0
VERTEX
  5
79
  8
LAYER_1
 10
11.98614010145926
 20
-27.72718292022215
 30
0.0
  0
VERTEX
  5
7A
  8
LAYER_1
 10
12.13258729515955
 20
-27.43107649504207
 30
0.0
  0
VERTEX
  5
7B
  8
LAYER_1
 10
12.77563654525848
 20
-26.07599065261643
 30
0.0
  0
VERTEX
  5
7C
  8
LAYER_1
 10
13.02700777317949
 20
-25.52130157750579
 30
0.0
  0
VERTEX
  5
7D
  8
LAYER_1
 10
13.23094114133778
 20
-25.03661334412461
 30
0.0
  0
VERTEX
  5
7E
  8
LAYER_1
 10
13.38693495347553
 20
-24.61299966071893
 30
0.0
  0
VERTEX
  5
7F
  8
LAYER_1
 10
13.44679774595614
 20
-24.42130630908377
 30
0.0
  0
VERTEX
  5
80
  8
LAYER_1
 10
13.49448751333493
 20
-24.24153423553475
 30
0.0
  0
VERTEX
  5
81
  8
LAYER_1
 10
13.52994154357969
 20
-24.07256765360262
 30
0.0
  0
VERTEX
  5
82
  8
LAYER_1
 10
13.55309712465817
 20
-23.91329077681811
 30
0.0
  0
VERTEX
  5
83
  8
LAYER_1
 10
13.56389154453816
 20
-23.76258781871199
 30
0.0
  0
VERTEX
  5
84
  8
LAYER_1
 10
13.56226209118742
 20
-23.61934299281501
 30
0.0
  0
VERTEX
  5
85
  8
LAYER_1
 10
13.54814605257374
 20
-23.48244051265792
 30
0.0
  0
VERTEX
  5
86
  8
LAYER_1
 10
13.52148071666488
 20
-23.35076459177147
 30
0.0
  0
VERTEX
  5
87
  8
LAYER_1
 10
13.48220337142862
 20
-23.22319944368642
 30
0.0
  0
VERTEX
  5
88
  8
LAYER_1
 10
13.43025130483272
 20
-23.09862928193352
 30
0.0
  0
VERTEX
  5
89
  8
LAYER_1
 10
13.36556180484497
 20
-22.97593832004351
 30
0.0
  0
VERTEX
  5
8A
  8
LAYER_1
 10
13.28807215943314
 20
-22.85401077154716
 30
0.0
  0
VERTEX
  5
8B
  8
LAYER_1
 10
13.19771965656499
 20
-22.73173084997521
 30
0.0
  0
VERTEX
  5
8C
  8
LAYER_1
 10
13.09444158420831
 20
-22.60798276885842
 30
0.0
  0
VERTEX
  5
8D
  8
LAYER_1
 10
12.84885788290043
 20
-22.35161898211332
 30
0.0
  0
VERTEX
  5
8E
  8
LAYER_1
 10
12.55081935925167
 20
-22.07599311955786
 30
0.0
  0
VERTEX
  5
8F
  8
LAYER_1
 10
11.79537105990026
 20
-21.43125
 30
0.0
  0
VERTEX
  5
90
  8
LAYER_1
 10
11.15472715292337
 20
-20.89983834118176
 30
0.0
  0
VERTEX
  5
91
  8
LAYER_1
 10
10.8815763717749
 20
-20.68241616239966
 30
0.0
  0
VERTEX
  5
92
  8
LAYER_1
 10
10.63284637494409
 20
-20.49435094358126
 30
0.0
  0
VERTEX
  5
93
  8
LAYER_1
 10
10.40326716449922
 20
-20.33351857938583
 30
0.0
  0
VERTEX
  5
94
  8
LAYER_1
 10
10.18756874250853
 20
-20.19779496447263
 30
0.0
  0
VERTEX
  5
95
  8
LAYER_1
 10
9.980481111040302
 20
-20.08505599350092
 30
0.0
  0
VERTEX
  5
96
  8
LAYER_1
 10
9.776734272162793
 20
-19.99317756112996
 30
0.0
  0
VERTEX
  5
97
  8
LAYER_1
 10
9.571058227944267
 20
-19.92003556201902
 30
0.0
  0
VERTEX
  5
98
  8
LAYER_1
 10
9.358182980452987
 20
-19.86350589082737
 30
0.0
  0
VERTEX
  5
99
  8
LAYER_1
 10
9.13283853175722
 20
-19.82146444221426
 30
0.0
  0
VERTEX
  5
9A
  8
LAYER_1
 10
8.889754883925226
 20
-19.79178711083897
 30
0.0
  0
VERTEX
  5
9B
  8
LAYER_1
 10
8.623662039025271
 20
-19.77234979136075
 30
0.0
  0
VERTEX
  5
9C
  8
LAYER_1
 10
8.329289999125617
 20
-19.76102837843887
 30
0.0
  0
VERTEX
  5
9D
  8
LAYER_1
 10
7.634628342600266
 20
-19.75423685090118
 30
0.0
  0
VERTEX
  5
9E
  8
LAYER_1
 10
7.096637996078432
 20
-19.74422657616209
 30
0.0
  0
VERTEX
  5
9F
  8
LAYER_1
 10
6.601571316466011
 20
-19.71452130299298
 30
0.0
  0
VERTEX
  5
A0
  8
LAYER_1
 10
6.146801333084497
 20
-19.66458621173599
 30
0.0
  0
VERTEX
  5
A1
  8
LAYER_1
 10
5.729701075255383
 20
-19.59388648273325
 30
0.0
  0
VERTEX
  5
A2
  8
LAYER_1
 10
5.347643572300164
 20
-19.50188729632689
 30
0.0
  0
VERTEX
  5
A3
  8
LAYER_1
 10
5.168934925563232
 20
-19.44773327545428
 30
0.0
  0
VERTEX
  5
A4
  8
LAYER_1
 10
4.998001853540332
 20
-19.38805383285905
 30
0.0
  0
VERTEX
  5
A5
  8
LAYER_1
 10
4.834515984896653
 20
-19.32278211608399
 30
0.0
  0
VERTEX
  5
A6
  8
LAYER_1
 10
4.67814894829738
 20
-19.25185127267186
 30
0.0
  0
VERTEX
  5
A7
  8
LAYER_1
 10
4.528572372407702
 20
-19.17519445016542
 30
0.0
  0
VERTEX
  5
A8
  8
LAYER_1
 10
4.385457885892805
 20
-19.09274479610745
 30
0.0
  0
VERTEX
  5
A9
  8
LAYER_1
 10
3.991696636218638
 20
-18.85520170999226
 30
0.0
  0
VERTEX
  5
AA
  8
LAYER_1
 10
3.63711932887901
 20
-18.65207733450088
 30
0.0
  0
VERTEX
  5
AB
  8
LAYER_1
 10
3.31184523997088
 20
-18.48540923720728
 30
0.0
  0
VERTEX
  5
AC
  8
LAYER_1
 10
3.157109176208927
 20
-18.41638303275152
 30
0.0
  0
VERTEX
  5
AD
  8
LAYER_1
 10
3.005993645591207
 20
-18.35723498568544
 30
0.0
  0
VERTEX
  5
AE
  8
LAYER_1
 10
2.857263557629842
 20
-18.30821979195579
 30
0.0
  0
VERTEX
  5
AF
  8
LAYER_1
 10
2.709683821836951
 20
-18.26959214750931
 30
0.0
  0
VERTEX
  5
B0
  8
LAYER_1
 10
2.562019347724653
 20
-18.24160674829276
 30
0.0
  0
VERTEX
  5
B1
  8
LAYER_1
 10
2.41303504480507
 20
-18.22451829025289
 30
0.0
  0
VERTEX
  5
B2
  8
LAYER_1
 10
2.261495822590319
 20
-18.21858146933643
 30
0.0
  0
VERTEX
  5
B3
  8
LAYER_1
 10
2.106166590592523
 20
-18.22405098149013
 30
0.0
  0
VERTEX
  5
B4
  8
LAYER_1
 10
1.945812258323801
 20
-18.24118152266074
 30
0.0
  0
VERTEX
  5
B5
  8
LAYER_1
 10
1.779197735296272
 20
-18.270227788795
 30
0.0
  0
VERTEX
  5
B6
  8
LAYER_1
 10
1.605087931022056
 20
-18.31144447583967
 30
0.0
  0
VERTEX
  5
B7
  8
LAYER_1
 10
1.422247755013273
 20
-18.36508627974149
 30
0.0
  0
VERTEX
  5
B8
  8
LAYER_1
 10
1.229442116782044
 20
-18.4314078964472
 30
0.0
  0
VERTEX
  5
B9
  8
LAYER_1
 10
1.025435925840487
 20
-18.51066402190356
 30
0.0
  0
VERTEX
  5
BA
  8
LAYER_1
 10
0.5788815238748732
 20
-18.70899858285519
 30
0.0
  0
VERTEX
  5
BB
  8
LAYER_1
 10
0.07270382521339
 20
-18.96212753017033
 30
0.0
  0
VERTEX
  5
BC
  8
LAYER_1
 10
-0.5029778940470028
 20
-19.27208843142298
 30
0.0
  0
VERTEX
  5
BD
  8
LAYER_1
 10
-1.158044357809346
 20
-19.64091885418709
 30
0.0
  0
VERTEX
  5
BE
  8
LAYER_1
 10
-2.745854414452047
 20
-20.5633385345456
 30
0.0
  0
VERTEX
  5
BF
  8
LAYER_1
 10
-4.766082774187812
 20
-21.72812073696381
 30
0.0
  0
VERTEX
  5
C0
  8
LAYER_1
 10
-6.9504402203564
 20
-22.95779657872519
 30
0.0
  0
VERTEX
  5
C1
  8
LAYER_1
 10
-9.035971715515355
 20
-24.10593193889
 30
0.0
  0
VERTEX
  5
C2
  8
LAYER_1
 10
-9.959504282265453
 20
-24.60366127558003
 30
0.0
  0
VERTEX
  5
C3
  8
LAYER_1
 10
-10.75972222222222
 20
-25.02609269651851
 30
0.0
  0
VERTEX
  5
C4
  8
LAYER_1
 10
-14.28749999999999
 20
-26.86212198794584
 30
0.0
  0
VERTEX
  5
C5
  8
LAYER_1
 10
-14.93398426648727
 20
-27.44681547732512
 30
0.0
  0
VERTEX
  5
C6
  8
LAYER_1
 10
-15.16043373072086
 20
-27.66813754752841
 30
0.0
  0
VERTEX
  5
C7
  8
LAYER_1
 10
-15.36704620137274
 20
-27.90399813669303
 30
0.0
  0
VERTEX
  5
C8
  8
LAYER_1
 10
-15.55395109433188
 20
-28.1536838003342
 30
0.0
  0
VERTEX
  5
C9
  8
LAYER_1
 10
-15.72127782548725
 20
-28.41648109396714
 30
0.0
  0
VERTEX
  5
CA
  8
LAYER_1
 10
-15.86915581072781
 20
-28.69167657310707
 30
0.0
  0
VERTEX
  5
CB
  8
LAYER_1
 10
-15.99771446594253
 20
-28.97855679326923
 30
0.0
  0
VERTEX
  5
CC
  8
LAYER_1
 10
-16.10708320702039
 20
-29.27640830996882
 30
0.0
  0
VERTEX
  5
CD
  8
LAYER_1
 10
-16.19739144985034
 20
-29.58451767872106
 30
0.0
  0
VERTEX
  5
CE
  8
LAYER_1
 10
-16.26876861032136
 20
-29.90217145504118
 30
0.0
  0
VERTEX
  5
CF
  8
LAYER_1
 10
-16.32134410432241
 20
-30.2286561944444
 30
0.0
  0
VERTEX
  5
D0
  8
LAYER_1
 10
-16.35524734774246
 20
-30.56325845244594
 30
0.0
  0
VERTEX
  5
D1
  8
LAYER_1
 10
-16.37060775647048
 20
-30.90526478456103
 30
0.0
  0
VERTEX
  5
D2
  8
LAYER_1
 10
-16.36755474639543
 20
-31.25396174630487
 30
0.0
  0
VERTEX
  5
D3
  8
LAYER_1
 10
-16.34621773340629
 20
-31.60863589319271
 30
0.0
  0
VERTEX
  5
D4
  8
LAYER_1
 10
-16.30672613339202
 20
-31.96857378073975
 30
0.0
  0
VERTEX
  5
D5
  8
LAYER_1
 10
-16.24920936224158
 20
-32.33306196446122
 30
0.0
  0
VERTEX
  5
D6
  8
LAYER_1
 10
-16.17379683584394
 20
-32.70138699987234
 30
0.0
  0
VERTEX
  5
D7
  8
LAYER_1
 10
-16.08061797008809
 20
-33.07283544248832
 30
0.0
  0
VERTEX
  5
D8
  8
LAYER_1
 10
-15.96980218086297
 20
-33.44669384782439
 30
0.0
  0
VERTEX
  5
D9
  8
LAYER_1
 10
-15.84147888405756
 20
-33.82224877139578
 30
0.0
  0
VERTEX
  5
DA
  8
LAYER_1
 10
-15.69577749556082
 20
-34.1987867687177
 30
0.0
  0
VERTEX
  5
DB
  8
LAYER_1
 10
-15.53282743126173
 20
-34.57559439530537
 30
0.0
  0
VERTEX
  5
DC
  8
LAYER_1
 10
-15.35275810704925
 20
-34.95195820667403
 30
0.0
  0
VERTEX
  5
DD
  8
LAYER_1
 10
-15.15569893881234
 20
-35.32716475833888
 30
0.0
  0
VERTEX
  5
DE
  8
LAYER_1
 10
-14.94177934243998
 20
-35.70050060581515
 30
0.0
  0
VERTEX
  5
DF
  8
LAYER_1
 10
-14.71112873382113
 20
-36.07125230461806
 30
0.0
  0
VERTEX
  5
E0
  8
LAYER_1
 10
-14.46387652884477
 20
-36.43870641026283
 30
0.0
  0
VERTEX
  5
E1
  8
LAYER_1
 10
-14.20015214339985
 20
-36.80214947826468
 30
0.0
  0
VERTEX
  5
E2
  8
LAYER_1
 10
-13.92008499337534
 20
-37.16086806413884
 30
0.0
  0
VERTEX
  5
E3
  8
LAYER_1
 10
-13.62380449466022
 20
-37.51414872340052
 30
0.0
  0
VERTEX
  5
E4
  8
LAYER_1
 10
-13.31144006314345
 20
-37.86127801156494
 30
0.0
  0
VERTEX
  5
E5
  8
LAYER_1
 10
-12.983121114714
 20
-38.20154248414733
 30
0.0
  0
VERTEX
  5
E6
  8
LAYER_1
 10
-12.64394740288981
 20
-38.52170908924061
 30
0.0
  0
VERTEX
  5
E7
  8
LAYER_1
 10
-12.26209897019364
 20
-38.8478806337594
 30
0.0
  0
VERTEX
  5
E8
  8
LAYER_1
 10
-11.84425123785802
 20
-39.17635905636746
 30
0.0
  0
VERTEX
  5
E9
  8
LAYER_1
 10
-11.3970796271155
 20
-39.50344629572857
 30
0.0
  0
VERTEX
  5
EA
  8
LAYER_1
 10
-10.92725955919861
 20
-39.82544429050648
 30
0.0
  0
VERTEX
  5
EB
  8
LAYER_1
 10
-10.44146645533989
 20
-40.13865497936497
 30
0.0
  0
VERTEX
  5
EC
  8
LAYER_1
 10
-9.94637573677188
 20
-40.4393803009678
 30
0.0
  0
VERTEX
  5
ED
  8
LAYER_1
 10
-9.44866282472713
 20
-40.72392219397873
 30
0.0
  0
VERTEX
  5
EE
  8
LAYER_1
 10
-8.955003140438173
 20
-40.98858259706153
 30
0.0
  0
VERTEX
  5
EF
  8
LAYER_1
 10
-8.472072105137551
 20
-41.22966344887997
 30
0.0
  0
VERTEX
  5
F0
  8
LAYER_1
 10
-8.006545140057804
 20
-41.44346668809781
 30
0.0
  0
VERTEX
  5
F1
  8
LAYER_1
 10
-7.565097666431472
 20
-41.62629425337882
 30
0.0
  0
VERTEX
  5
F2
  8
LAYER_1
 10
-7.154405105491096
 20
-41.77444808338676
 30
0.0
  0
VERTEX
  5
F3
  8
LAYER_1
 10
-6.781142878469216
 20
-41.88423011678539
 30
0.0
  0
VERTEX
  5
F4
  8
LAYER_1
 10
-6.610634209312881
 20
-41.92357606558865
 30
0.0
  0
VERTEX
  5
F5
  8
LAYER_1
 10
-6.451986406598373
 20
-41.95194229223848
 30
0.0
  0
VERTEX
  5
F6
  8
LAYER_1
 10
-6.306033897979759
 20
-41.96886653906789
 30
0.0
  0
SEQEND
  5
F7
  8
LAYER_1
  0
POLYLINE
  5
42
  8
LAYER_1
 66
     1
 10
0.0
 20
0.0
 30
0.0
 70
     1
  0
VERTEX
  5
F8
  8
LAYER_1
 10
-2.009918034685889
 20
-41.9604333451237
 30
0.0
  0
VERTEX
  5
F9
  8
LAYER_1
 10
-1.893413906978229
 20
-41.96363377720229
 30
0.0
  0
VERTEX
  5
FA
  8
LAYER_1
 10
-1.756927046880763
 20
-41.95836528929625
 30
0.0
  0
VERTEX
  5
FB
  8
LAYER_1
 10
-1.428359963526613
 20
-41.9237300152835
 30
0.0
  0
VERTEX
  5
FC
  8
LAYER_1
 10
-1.032926452643844
 20
-41.85914444659203
 30
0.0
  0
VERTEX
  5
FD
  8
LAYER_1
 10
-0.5793361822528589
 20
-41.76722550672842
 30
0.0
  0
VERTEX
  5
FE
  8
LAYER_1
 10
-0.0762988203740604
 20
-41.65059011919924
 30
0.0
  0
VERTEX
  5
FF
  8
LAYER_1
 10
0.4674759649721477
 20
-41.51185520751106
 30
0.0
  0
VERTEX
  5
100
  8
LAYER_1
 10
1.043278505765362
 20
-41.35363769517048
 30
0.0
  0
VERTEX
  5
101
  8
LAYER_1
 10
1.64239913398518
 20
-41.17855450568405
 30
0.0
  0
VERTEX
  5
102
  8
LAYER_1
 10
2.256128181611197
 20
-40.98922256255835
 30
0.0
  0
VERTEX
  5
103
  8
LAYER_1
 10
2.87575598062301
 20
-40.78825878929996
 30
0.0
  0
VERTEX
  5
104
  8
LAYER_1
 10
3.492572863000217
 20
-40.57828010941545
 30
0.0
  0
VERTEX
  5
105
  8
LAYER_1
 10
4.097869160722412
 20
-40.3619034464114
 30
0.0
  0
VERTEX
  5
106
  8
LAYER_1
 10
4.682935205769194
 20
-40.14174572379438
 30
0.0
  0
VERTEX
  5
107
  8
LAYER_1
 10
5.239061330120158
 20
-39.92042386507096
 30
0.0
  0
VERTEX
  5
108
  8
LAYER_1
 10
5.757537865754903
 20
-39.70055479374773
 30
0.0
  0
VERTEX
  5
109
  8
LAYER_1
 10
6.229655144653023
 20
-39.48475543333126
 30
0.0
  0
VERTEX
  5
10A
  8
LAYER_1
 10
6.992010929618145
 20
-39.10762790282216
 30
0.0
  0
VERTEX
  5
10B
  8
LAYER_1
 10
7.341277099150095
 20
-38.92376921659285
 30
0.0
  0
VERTEX
  5
10C
  8
LAYER_1
 10
7.671435108327453
 20
-38.74149326207296
 30
0.0
  0
VERTEX
  5
10D
  8
LAYER_1
 10
7.984109698359578
 20
-38.55963454853197
 30
0.0
  0
VERTEX
  5
10E
  8
LAYER_1
 10
8.280925610455832
 20
-38.37702758523932
 30
0.0
  0
VERTEX
  5
10F
  8
LAYER_1
 10
8.563507585825574
 20
-38.19250688146447
 30
0.0
  0
VERTEX
  5
110
  8
LAYER_1
 10
8.833480365678167
 20
-38.00490694647686
 30
0.0
  0
VERTEX
  5
111
  8
LAYER_1
 10
9.092468691222969
 20
-37.81306228954598
 30
0.0
  0
VERTEX
  5
112
  8
LAYER_1
 10
9.342097303669345
 20
-37.61580741994126
 30
0.0
  0
VERTEX
  5
113
  8
LAYER_1
 10
9.583990944226649
 20
-37.41197684693217
 30
0.0
  0
VERTEX
  5
114
  8
LAYER_1
 10
9.819774354104247
 20
-37.20040507978815
 30
0.0
  0
VERTEX
  5
115
  8
LAYER_1
 10
10.0510722745115
 20
-36.97992662777867
 30
0.0
  0
VERTEX
  5
116
  8
LAYER_1
 10
10.27950944665776
 20
-36.74937600017319
 30
0.0
  0
VERTEX
  5
117
  8
LAYER_1
 10
10.5067106117524
 20
-36.50758770624115
 30
0.0
  0
VERTEX
  5
118
  8
LAYER_1
 10
10.73430051100478
 20
-36.25339625525201
 30
0.0
  0
VERTEX
  5
119
  8
LAYER_1
 10
11.02905178254439
 20
-35.90096374345874
 30
0.0
  0
VERTEX
  5
11A
  8
LAYER_1
 10
11.318593494443
 20
-35.52412382188315
 30
0.0
  0
VERTEX
  5
11B
  8
LAYER_1
 10
11.60102057461958
 20
-35.12686641973188
 30
0.0
  0
VERTEX
  5
11C
  8
LAYER_1
 10
11.87442795099307
 20
-34.71318146621157
 30
0.0
  0
VERTEX
  5
11D
  8
LAYER_1
 10
12.13691055148243
 20
-34.28705889052887
 30
0.0
  0
VERTEX
  5
11E
  8
LAYER_1
 10
12.38656330400661
 20
-33.85248862189043
 30
0.0
  0
VERTEX
  5
11F
  8
LAYER_1
 10
12.62148113648456
 20
-33.4134605895029
 30
0.0
  0
VERTEX
  5
120
  8
LAYER_1
 10
12.83975897683524
 20
-32.97396472257295
 30
0.0
  0
VERTEX
  5
121
  8
LAYER_1
 10
13.0394917529776
 20
-32.53799095030721
 30
0.0
  0
VERTEX
  5
122
  8
LAYER_1
 10
13.2187743928306
 20
-32.10952920191234
 30
0.0
  0
VERTEX
  5
123
  8
LAYER_1
 10
13.37570182431319
 20
-31.69256940659498
 30
0.0
  0
VERTEX
  5
124
  8
LAYER_1
 10
13.50836897534432
 20
-31.29110149356179
 30
0.0
  0
VERTEX
  5
125
  8
LAYER_1
 10
13.61487077384295
 20
-30.90911539201942
 30
0.0
  0
VERTEX
  5
126
  8
LAYER_1
 10
13.69330214772802
 20
-30.55060103117451
 30
0.0
  0
VERTEX
  5
127
  8
LAYER_1
 10
13.7417580249185
 20
-30.21954834023371
 30
0.0
  0
VERTEX
  5
128
  8
LAYER_1
 10
13.75414981722794
 20
-30.06556697385444
 30
0.0
  0
VERTEX
  5
129
  8
LAYER_1
 10
13.75833333333334
 20
-29.91994724840369
 30
0.0
  0
VERTEX
  5
12A
  8
LAYER_1
 10
13.7465401681577
 20
-29.73631058632898
 30
0.0
  0
VERTEX
  5
12B
  8
LAYER_1
 10
13.73093073373185
 20
-29.67221713320324
 30
0.0
  0
VERTEX
  5
12C
  8
LAYER_1
 10
13.70807452878613
 20
-29.62717273612126
 30
0.0
  0
VERTEX
  5
12D
  8
LAYER_1
 10
13.67739290134969
 20
-29.60160174816003
 30
0.0
  0
VERTEX
  5
12E
  8
LAYER_1
 10
13.63830719945163
 20
-29.59592852239655
 30
0.0
  0
VERTEX
  5
12F
  8
LAYER_1
 10
13.5902387711211
 20
-29.61057741190783
 30
0.0
  0
VERTEX
  5
130
  8
LAYER_1
 10
13.53260896438721
 20
-29.64597276977086
 30
0.0
  0
VERTEX
  5
131
  8
LAYER_1
 10
13.46483912727909
 20
-29.70253894906266
 30
0.0
  0
VERTEX
  5
132
  8
LAYER_1
 10
13.38635060782586
 20
-29.78070030286023
 30
0.0
  0
VERTEX
  5
133
  8
LAYER_1
 10
13.19490291400059
 20
-30.00350594628064
 30
0.0
  0
VERTEX
  5
134
  8
LAYER_1
 10
12.95363666714441
 20
-30.31778452464813
 30
0.0
  0
VERTEX
  5
135
  8
LAYER_1
 10
12.65792265149031
 20
-30.72693086257872
 30
0.0
  0
VERTEX
  5
136
  8
LAYER_1
 10
12.11235302207938
 20
-31.47303251019825
 30
0.0
  0
VERTEX
  5
137
  8
LAYER_1
 10
11.5526690384857
 20
-32.19136510954831
 30
0.0
  0
VERTEX
  5
138
  8
LAYER_1
 10
10.9770130711226
 20
-32.8834623635834
 30
0.0
  0
VERTEX
  5
139
  8
LAYER_1
 10
10.38352749040339
 20
-33.55085797525803
 30
0.0
  0
VERTEX
  5
13A
  8
LAYER_1
 10
10.07951808578941
 20
-33.87577194738344
 30
0.0
  0
VERTEX
  5
13B
  8
LAYER_1
 10
9.770354666741389
 20
-34.19508564752668
 30
0.0
  0
VERTEX
  5
13C
  8
LAYER_1
 10
9.455805029561002
 20
-34.50899078855706
 30
0.0
  0
VERTEX
  5
13D
  8
LAYER_1
 10
9.13563697054991
 20
-34.81767908334389
 30
0.0
  0
VERTEX
  5
13E
  8
LAYER_1
 10
8.80961828600978
 20
-35.12134224475648
 30
0.0
  0
VERTEX
  5
13F
  8
LAYER_1
 10
8.477516772242275
 20
-35.42017198566413
 30
0.0
  0
VERTEX
  5
140
  8
LAYER_1
 10
8.139100225549058
 20
-35.71436001893618
 30
0.0
  0
VERTEX
  5
141
  8
LAYER_1
 10
7.794136442231795
 20
-36.00409805744192
 30
0.0
  0
VERTEX
  5
142
  8
LAYER_1
 10
7.442393218592151
 20
-36.28957781405066
 30
0.0
  0
VERTEX
  5
143
  8
LAYER_1
 10
7.083638350931789
 20
-36.57099100163173
 30
0.0
  0
VERTEX
  5
144
  8
LAYER_1
 10
6.344164868755573
 20
-37.1223845211881
 30
0.0
  0
VERTEX
  5
145
  8
LAYER_1
 10
5.573858366116465
 20
-37.65981231906549
 30
0.0
  0
VERTEX
  5
146
  8
LAYER_1
 10
4.770861213427779
 20
-38.18480809821845
 30
0.0
  0
VERTEX
  5
147
  8
LAYER_1
 10
3.933315781102833
 20
-38.69890556160144
 30
0.0
  0
VERTEX
  5
148
  8
LAYER_1
 10
3.059364439554944
 20
-39.20363841216897
 30
0.0
  0
VERTEX
  5
149
  8
LAYER_1
 10
2.147149559197428
 20
-39.70054035287556
 30
0.0
  0
VERTEX
  5
14A
  8
LAYER_1
 10
1.194813510443602
 20
-40.19114508667569
 30
0.0
  0
VERTEX
  5
14B
  8
LAYER_1
 10
-2.293055555555554
 20
-41.94031113469185
 30
0.0
  0
SEQEND
  5
14C
  8
LAYER_1
  0
POLYLINE
  5
43
  8
LAYER_1
 66
     1
 10
0.0
 20
0.0
 30
0.0
 70
     1
  0
VERTEX
  5
14D
  8
LAYER_1
 10
-21.43125
 20
-40.1974813327089
 30
0.0
  0
VERTEX
  5
14E
  8
LAYER_1
 10
-20.9991242387976
 20
-40.18212827336955
 30
0.0
  0
VERTEX
  5
14F
  8
LAYER_1
 10
-20.56168034220306
 20
-40.14597802482741
 30
0.0
  0
VERTEX
  5
150
  8
LAYER_1
 10
-20.12322072784931
 20
-40.09059228905954
 30
0.0
  0
VERTEX
  5
151
  8
LAYER_1
 10
-19.68804781336926
 20
-40.01753276804301
 30
0.0
  0
VERTEX
  5
152
  8
LAYER_1
 10
-19.26046401639584
 20
-39.92836116375486
 30
0.0
  0
VERTEX
  5
153
  8
LAYER_1
 10
-18.84477175456199
 20
-39.82463917817218
 30
0.0
  0
VERTEX
  5
154
  8
LAYER_1
 10
-18.44527344550061
 20
-39.70792851327202
 30
0.0
  0
VERTEX
  5
155
  8
LAYER_1
 10
-18.06627150684464
 20
-39.57979087103143
 30
0.0
  0
VERTEX
  5
156
  8
LAYER_1
 10
-17.712068356227
 20
-39.44178795342751
 30
0.0
  0
VERTEX
  5
157
  8
LAYER_1
 10
-17.38696641128061
 20
-39.29548146243729
 30
0.0
  0
VERTEX
  5
158
  8
LAYER_1
 10
-17.09526808963841
 20
-39.14243310003785
 30
0.0
  0
VERTEX
  5
159
  8
LAYER_1
 10
-16.84127580893331
 20
-38.98420456820624
 30
0.0
  0
VERTEX
  5
15A
  8
LAYER_1
 10
-16.62929198679824
 20
-38.82235756891953
 30
0.0
  0
VERTEX
  5
15B
  8
LAYER_1
 10
-16.54039775320475
 20
-38.74056517584835
 30
0.0
  0
VERTEX
  5
15C
  8
LAYER_1
 10
-16.46361904086612
 20
-38.65845380415479
 30
0.0
  0
VERTEX
  5
15D
  8
LAYER_1
 10
-16.39949365198646
 20
-38.57621866658599
 30
0.0
  0
VERTEX
  5
15E
  8
LAYER_1
 10
-16.34855938876988
 20
-38.49405497588908
 30
0.0
  0
VERTEX
  5
15F
  8
LAYER_1
 10
-16.31135405342051
 20
-38.41215794481118
 30
0.0
  0
VERTEX
  5
160
  8
LAYER_1
 10
-16.28841544814244
 20
-38.33072278609946
 30
0.0
  0
VERTEX
  5
161
  8
LAYER_1
 10
-16.28087962752547
 20
-38.25913859790352
 30
0.0
  0
VERTEX
  5
162
  8
LAYER_1
 10
-16.28315179196619
 20
-38.17571367694056
 30
0.0
  0
VERTEX
  5
163
  8
LAYER_1
 10
-16.31543691315136
 20
-37.97743047842879
 30
0.0
  0
VERTEX
  5
164
  8
LAYER_1
 10
-16.38190448595924
 20
-37.74405087399462
 30
0.0
  0
VERTEX
  5
165
  8
LAYER_1
 10
-16.47918818465114
 20
-37.48375254706849
 30
0.0
  0
VERTEX
  5
166
  8
LAYER_1
 10
-16.60392168348834
 20
-37.20471318108088
 30
0.0
  0
VERTEX
  5
167
  8
LAYER_1
 10
-16.75273865673213
 20
-36.91511045946223
 30
0.0
  0
VERTEX
  5
168
  8
LAYER_1
 10
-16.9222727786438
 20
-36.623122065643
 30
0.0
  0
VERTEX
  5
169
  8
LAYER_1
 10
-17.10915772348466
 20
-36.33692568305368
 30
0.0
  0
VERTEX
  5
16A
  8
LAYER_1
 10
-17.3024896257533
 20
-36.03415506713596
 30
0.0
  0
VERTEX
  5
16B
  8
LAYER_1
 10
-17.49050091273316
 20
-35.69466444478224
 30
0.0
  0
VERTEX
  5
16C
  8
LAYER_1
 10
-17.6685296978627
 20
-35.32996220659903
 30
0.0
  0
VERTEX
  5
16D
  8
LAYER_1
 10
-17.83191409458041
 20
-34.95155674319283
 30
0.0
  0
VERTEX
  5
16E
  8
LAYER_1
 10
-17.97599221632476
 20
-34.57095644517015
 30
0.0
  0
VERTEX
  5
16F
  8
LAYER_1
 10
-18.09610217653425
 20
-34.19966970313747
 30
0.0
  0
VERTEX
  5
170
  8
LAYER_1
 10
-18.18758208864735
 20
-33.84920490770131
 30
0.0
  0
VERTEX
  5
171
  8
LAYER_1
 10
-18.24577006610254
 20
-33.53107044946818
 30
0.0
  0
VERTEX
  5
172
  8
LAYER_1
 10
-18.29005363626144
 20
-33.23740280262669
 30
0.0
  0
VERTEX
  5
173
  8
LAYER_1
 10
-18.34168311789378
 20
-32.95706059103549
 30
0.0
  0
VERTEX
  5
174
  8
LAYER_1
 10
-18.39879081155021
 20
-32.69663542980611
 30
0.0
  0
VERTEX
  5
175
  8
LAYER_1
 10
-18.45950901778139
 20
-32.46271893405007
 30
0.0
  0
VERTEX
  5
176
  8
LAYER_1
 10
-18.52197003713797
 20
-32.26190271887891
 30
0.0
  0
VERTEX
  5
177
  8
LAYER_1
 10
-18.58430617017061
 20
-32.10077839940418
 30
0.0
  0
VERTEX
  5
178
  8
LAYER_1
 10
-18.64464971742997
 20
-31.98593759073738
 30
0.0
  0
VERTEX
  5
179
  8
LAYER_1
 10
-18.67349061531674
 20
-31.94793338267931
 30
0.0
  0
VERTEX
  5
17A
  8
LAYER_1
 10
-18.70113297946668
 20
-31.92397190799005
 30
0.0
  0
VERTEX
  5
17B
  8
LAYER_1
 10
-18.74201318581383
 20
-31.90848728053153
 30
0.0
  0
VERTEX
  5
17C
  8
LAYER_1
 10
-18.78933152143819
 20
-31.90824091628087
 30
0.0
  0
VERTEX
  5
17D
  8
LAYER_1
 10
-18.84285190059225
 20
-31.92286240454861
 30
0.0
  0
VERTEX
  5
17E
  8
LAYER_1
 10
-18.9023382375285
 20
-31.9519813346453
 30
0.0
  0
VERTEX
  5
17F
  8
LAYER_1
 10
-18.96755444649942
 20
-31.9952272958815
 30
0.0
  0
VERTEX
  5
180
  8
LAYER_1
 10
-19.03826444175751
 20
-32.05222987756774
 30
0.0
  0
VERTEX
  5
181
  8
LAYER_1
 10
-19.19522144814511
 20
-32.20602325953257
 30
0.0
  0
VERTEX
  5
182
  8
LAYER_1
 10
-19.37132057071118
 20
-32.41039819502421
 30
0.0
  0
VERTEX
  5
183
  8
LAYER_1
 10
-19.56467312347563
 20
-32.66239139852706
 30
0.0
  0
VERTEX
  5
184
  8
LAYER_1
 10
-19.77339042045832
 20
-32.95903958452551
 30
0.0
  0
VERTEX
  5
185
  8
LAYER_1
 10
-19.99558377567916
 20
-33.29737946750397
 30
0.0
  0
VERTEX
  5
186
  8
LAYER_1
 10
-20.22936450315802
 20
-33.67444776194683
 30
0.0
  0
VERTEX
  5
187
  8
LAYER_1
 10
-20.4728439169148
 20
-34.0872811823385
 30
0.0
  0
VERTEX
  5
188
  8
LAYER_1
 10
-20.72413333096938
 20
-34.53291644316337
 30
0.0
  0
VERTEX
  5
189
  8
LAYER_1
 10
-20.98134405934165
 20
-35.00839025890583
 30
0.0
  0
VERTEX
  5
18A
  8
LAYER_1
 10
-21.2425874160515
 20
-35.5107393440503
 30
0.0
  0
VERTEX
  5
18B
  8
LAYER_1
 10
-21.50597471511882
 20
-36.03700041308117
 30
0.0
  0
VERTEX
  5
18C
  8
LAYER_1
 10
-21.7696172705635
 20
-36.58421018048283
 30
0.0
  0
VERTEX
  5
18D
  8
LAYER_1
 10
-22.03162639640542
 20
-37.14940536073971
 30
0.0
  0
VERTEX
  5
18E
  8
LAYER_1
 10
-23.28333333333333
 20
-39.90297738814608
 30
0.0
  0
VERTEX
  5
18F
  8
LAYER_1
 10
-23.28333333333333
 20
-40.05982202740637
 30
0.0
  0
VERTEX
  5
190
  8
LAYER_1
 10
-23.2737247467041
 20
-40.07569989297882
 30
0.0
  0
VERTEX
  5
191
  8
LAYER_1
 10
-23.24553202311198
 20
-40.09093723132837
 30
0.0
  0
VERTEX
  5
192
  8
LAYER_1
 10
-23.1371923828125
 20
-40.11920801723655
 30
0.0
  0
VERTEX
  5
193
  8
LAYER_1
 10
-22.96591084798177
 20
-40.14406976688652
 30
0.0
  0
VERTEX
  5
194
  8
LAYER_1
 10
-22.73928385416666
 20
-40.16495786203385
 30
0.0
  0
VERTEX
  5
195
  8
LAYER_1
 10
-22.15037923177083
 20
-40.19255461584305
 30
0.0
  0
SEQEND
  5
196
  8
LAYER_1
  0
POLYLINE
  5
44
  8
LAYER_1
 66
     1
 10
0.0
 20
0.0
 30
0.0
 70
     1
  0
VERTEX
  5
197
  8
LAYER_1
 10
-37.39444444444444
 20
-35.11711947869103
 30
0.0
  0
VERTEX
  5
198
  8
LAYER_1
 10
-32.63194444444444
 20
-34.99470317964791
 30
0.0
  0
VERTEX
  5
199
  8
LAYER_1
 10
-30.16249999999999
 20
-34.26112097709516
 30
0.0
  0
VERTEX
  5
19A
  8
LAYER_1
 10
-29.71616614226438
 20
-34.12289996808244
 30
0.0
  0
VERTEX
  5
19B
  8
LAYER_1
 10
-29.26216210591913
 20
-33.97146988273144
 30
0.0
  0
VERTEX
  5
19C
  8
LAYER_1
 10
-28.80209746892812
 20
-33.80780737083181
 30
0.0
  0
VERTEX
  5
19D
  8
LAYER_1
 10
-28.33758180925523
 20
-33.63288908217319
 30
0.0
  0
VERTEX
  5
19E
  8
LAYER_1
 10
-27.87022470486435
 20
-33.4476916665452
 30
0.0
  0
VERTEX
  5
19F
  8
LAYER_1
 10
-27.40163573371936
 20
-33.2531917737375
 30
0.0
  0
VERTEX
  5
1A0
  8
LAYER_1
 10
-26.46720050302261
 20
-32.84019115574145
 30
0.0
  0
VERTEX
  5
1A1
  8
LAYER_1
 10
-25.54715274087604
 20
-32.40170042650215
 30
0.0
  0
VERTEX
  5
1A2
  8
LAYER_1
 10
-24.65436907099071
 20
-31.94553278433667
 30
0.0
  0
VERTEX
  5
1A3
  8
LAYER_1
 10
-23.80172611707772
 20
-31.47950142756211
 30
0.0
  0
VERTEX
  5
1A4
  8
LAYER_1
 10
-23.00210050284812
 20
-31.01141955449555
 30
0.0
  0
VERTEX
  5
1A5
  8
LAYER_1
 10
-22.62619314302431
 20
-30.77905129882687
 30
0.0
  0
VERTEX
  5
1A6
  8
LAYER_1
 10
-22.268368852013
 20
-30.54910036345409
 30
0.0
  0
VERTEX
  5
1A7
  8
LAYER_1
 10
-21.93023720777807
 20
-30.32254339816686
 30
0.0
  0
VERTEX
  5
1A8
  8
LAYER_1
 10
-21.61340778828342
 20
-30.10035705275482
 30
0.0
  0
VERTEX
  5
1A9
  8
LAYER_1
 10
-21.31949017149292
 20
-29.88351797700759
 30
0.0
  0
VERTEX
  5
1AA
  8
LAYER_1
 10
-21.05009393537045
 20
-29.67300282071481
 30
0.0
  0
VERTEX
  5
1AB
  8
LAYER_1
 10
-20.80682865787991
 20
-29.46978823366613
 30
0.0
  0
VERTEX
  5
1AC
  8
LAYER_1
 10
-20.59130391698518
 20
-29.27485086565117
 30
0.0
  0
VERTEX
  5
1AD
  8
LAYER_1
 10
-20.40512929065013
 20
-29.08916736645958
 30
0.0
  0
VERTEX
  5
1AE
  8
LAYER_1
 10
-20.24991435683867
 20
-28.91371438588098
 30
0.0
  0
VERTEX
  5
1AF
  8
LAYER_1
 10
-20.12726869351465
 20
-28.74946857370502
 30
0.0
  0
VERTEX
  5
1B0
  8
LAYER_1
 10
-20.03880187864198
 20
-28.59740657972134
 30
0.0
  0
VERTEX
  5
1B1
  8
LAYER_1
 10
-19.98612349018454
 20
-28.45850505371956
 30
0.0
  0
VERTEX
  5
1B2
  8
LAYER_1
 10
-19.97370794897524
 20
-28.39429466927114
 30
0.0
  0
VERTEX
  5
1B3
  8
LAYER_1
 10
-19.97084310610621
 20
-28.33374064548932
 30
0.0
  0
VERTEX
  5
1B4
  8
LAYER_1
 10
-19.97773015882292
 20
-28.27696506359779
 30
0.0
  0
VERTEX
  5
1B5
  8
LAYER_1
 10
-19.99457030437087
 20
-28.22409000482027
 30
0.0
  0
VERTEX
  5
1B6
  8
LAYER_1
 10
-20.02156473999554
 20
-28.17523755038044
 30
0.0
  0
VERTEX
  5
1B7
  8
LAYER_1
 10
-20.05891466294241
 20
-28.13052978150203
 30
0.0
  0
VERTEX
  5
1B8
  8
LAYER_1
 10
-20.13339827027718
 20
-28.07215356933002
 30
0.0
  0
VERTEX
  5
1B9
  8
LAYER_1
 10
-20.23431329597967
 20
-28.01849657204988
 30
0.0
  0
VERTEX
  5
1BA
  8
LAYER_1
 10
-20.36011076239593
 20
-27.96951153171662
 30
0.0
  0
VERTEX
  5
1BB
  8
LAYER_1
 10
-20.50924169187199
 20
-27.92515119038525
 30
0.0
  0
VERTEX
  5
1BC
  8
LAYER_1
 10
-20.68015710675392
 20
-27.88536829011078
 30
0.0
  0
VERTEX
  5
1BD
  8
LAYER_1
 10
-20.87130802938775
 20
-27.85011557294822
 30
0.0
  0
VERTEX
  5
1BE
  8
LAYER_1
 10
-21.30812048729535
 20
-27.79301165617886
 30
0.0
  0
VERTEX
  5
1BF
  8
LAYER_1
 10
-21.80728724436317
 20
-27.75346137651724
 30
0.0
  0
VERTEX
  5
1C0
  8
LAYER_1
 10
-22.35641647935962
 20
-27.73108667040344
 30
0.0
  0
VERTEX
  5
1C1
  8
LAYER_1
 10
-22.94311637105307
 20
-27.72550947427751
 30
0.0
  0
VERTEX
  5
1C2
  8
LAYER_1
 10
-23.55499509821193
 20
-27.73635172457954
 30
0.0
  0
VERTEX
  5
1C3
  8
LAYER_1
 10
-24.17966083960459
 20
-27.7632353577496
 30
0.0
  0
VERTEX
  5
1C4
  8
LAYER_1
 10
-24.80472177399943
 20
-27.80578231022775
 30
0.0
  0
VERTEX
  5
1C5
  8
LAYER_1
 10
-25.41778608016485
 20
-27.86361451845407
 30
0.0
  0
VERTEX
  5
1C6
  8
LAYER_1
 10
-26.00646193686925
 20
-27.93635391886863
 30
0.0
  0
VERTEX
  5
1C7
  8
LAYER_1
 10
-26.55835752288102
 20
-28.0236224479115
 30
0.0
  0
VERTEX
  5
1C8
  8
LAYER_1
 10
-27.06108101696854
 20
-28.12504204202276
 30
0.0
  0
VERTEX
  5
1C9
  8
LAYER_1
 10
-27.29013078540584
 20
-28.18094034361655
 30
0.0
  0
VERTEX
  5
1CA
  8
LAYER_1
 10
-27.50224059790022
 20
-28.24023463764247
 30
0.0
  0
VERTEX
  5
1CB
  8
LAYER_1
 10
-27.69586147679774
 20
-28.30287766615552
 30
0.0
  0
VERTEX
  5
1CC
  8
LAYER_1
 10
-27.86944444444444
 20
-28.36882217121071
 30
0.0
  0
VERTEX
  5
1CD
  8
LAYER_1
 10
-28.11397081330336
 20
-28.4662607237477
 30
0.0
  0
VERTEX
  5
1CE
  8
LAYER_1
 10
-28.35455898304828
 20
-28.55332726435145
 30
0.0
  0
VERTEX
  5
1CF
  8
LAYER_1
 10
-28.59546073104574
 20
-28.63041037360156
 30
0.0
  0
VERTEX
  5
1D0
  8
LAYER_1
 10
-28.8409278346623
 20
-28.69789863207764
 30
0.0
  0
VERTEX
  5
1D1
  8
LAYER_1
 10
-29.09521207126453
 20
-28.75618062035928
 30
0.0
  0
VERTEX
  5
1D2
  8
LAYER_1
 10
-29.36256521821897
 20
-28.80564491902608
 30
0.0
  0
VERTEX
  5
1D3
  8
LAYER_1
 10
-29.64723905289219
 20
-28.84668010865764
 30
0.0
  0
VERTEX
  5
1D4
  8
LAYER_1
 10
-29.95348535265073
 20
-28.87967476983356
 30
0.0
  0
VERTEX
  5
1D5
  8
LAYER_1
 10
-30.28555589486116
 20
-28.90501748313344
 30
0.0
  0
VERTEX
  5
1D6
  8
LAYER_1
 10
-30.64770245689003
 20
-28.92309682913688
 30
0.0
  0
VERTEX
  5
1D7
  8
LAYER_1
 10
-31.47923074986934
 20
-28.93901974157284
 30
0.0
  0
VERTEX
  5
1D8
  8
LAYER_1
 10
-32.4820844505211
 20
-28.93055215177823
 30
0.0
  0
VERTEX
  5
1D9
  8
LAYER_1
 10
-33.69027777777777
 20
-28.90080270438985
 30
0.0
  0
VERTEX
  5
1DA
  8
LAYER_1
 10
-36.47798201349006
 20
-28.82832733931402
 30
0.0
  0
VERTEX
  5
1DB
  8
LAYER_1
 10
-37.66541578666062
 20
-28.80941925281377
 30
0.0
  0
VERTEX
  5
1DC
  8
LAYER_1
 10
-38.73730234133168
 20
-28.80435155302034
 30
0.0
  0
VERTEX
  5
1DD
  8
LAYER_1
 10
-39.71019043597138
 20
-28.81483973194498
 30
0.0
  0
VERTEX
  5
1DE
  8
LAYER_1
 10
-40.60062882904789
 20
-28.84259928159898
 30
0.0
  0
VERTEX
  5
1DF
  8
LAYER_1
 10
-41.42516627902936
 20
-28.8893456939936
 30
0.0
  0
VERTEX
  5
1E0
  8
LAYER_1
 10
-42.20035154438392
 20
-28.95679446114012
 30
0.0
  0
VERTEX
  5
1E1
  8
LAYER_1
 10
-42.94273338357976
 20
-29.04666107504981
 30
0.0
  0
VERTEX
  5
1E2
  8
LAYER_1
 10
-43.668860555085
 20
-29.16066102773394
 30
0.0
  0
VERTEX
  5
1E3
  8
LAYER_1
 10
-44.39528181736782
 20
-29.30050981120378
 30
0.0
  0
VERTEX
  5
1E4
  8
LAYER_1
 10
-45.13854592889635
 20
-29.4679229174706
 30
0.0
  0
VERTEX
  5
1E5
  8
LAYER_1
 10
-45.91520164813876
 20
-29.66461583854568
 30
0.0
  0
VERTEX
  5
1E6
  8
LAYER_1
 10
-46.74179773356321
 20
-29.89230406644028
 30
0.0
  0
VERTEX
  5
1E7
  8
LAYER_1
 10
-47.63488294363785
 20
-30.15270309316568
 30
0.0
  0
VERTEX
  5
1E8
  8
LAYER_1
 10
-48.61100603683082
 20
-30.44752841073315
 30
0.0
  0
VERTEX
  5
1E9
  8
LAYER_1
 10
-53.65395651810609
 20
-31.98832444396036
 30
0.0
  0
VERTEX
  5
1EA
  8
LAYER_1
 10
-44.62638888888888
 20
-34.70047129453231
 30
0.0
  0
VERTEX
  5
1EB
  8
LAYER_1
 10
-43.39166666666666
 20
-34.97000353613323
 30
0.0
  0
VERTEX
  5
1EC
  8
LAYER_1
 10
-43.24118058946397
 20
-34.99682506480836
 30
0.0
  0
VERTEX
  5
1ED
  8
LAYER_1
 10
-43.04643364800347
 20
-35.02164834223412
 30
0.0
  0
VERTEX
  5
1EE
  8
LAYER_1
 10
-42.53645616319444
 20
-35.06499844072097
 30
0.0
  0
VERTEX
  5
1EF
  8
LAYER_1
 10
-41.88633219401041
 20
-35.09945042636063
 30
0.0
  0
VERTEX
  5
1F0
  8
LAYER_1
 10
-41.12065972222222
 20
-35.12440089391995
 30
0.0
  0
VERTEX
  5
1F1
  8
LAYER_1
 10
-40.2640367296007
 20
-35.13924643816581
 30
0.0
  0
VERTEX
  5
1F2
  8
LAYER_1
 10
-39.34106119791667
 20
-35.14338365386504
 30
0.0
  0
VERTEX
  5
1F3
  8
LAYER_1
 10
-38.37633110894097
 20
-35.1362091357845
 30
0.0
  0
SEQEND
  5
1F4
  8
LAYER_1
  0
POLYLINE
  5
45
  8
LAYER_1
 66
     1
 10
0.0
 20
0.0
 30
0.0
 70
     1
  0
VERTEX
  5
1F5
  8
LAYER_1
 10
24.51805555555556
 20
-23.42515588353794
 30
0.0
  0
VERTEX
  5
1F6
  8
LAYER_1
 10
25.60826237987333
 20
-23.29769003675384
 30
0.0
  0
VERTEX
  5
1F7
  8
LAYER_1
 10
27.23861779436783
 20
-23.12774783656339
 30
0.0
  0
VERTEX
  5
1F8
  8
LAYER_1
 10
27.76593219653549
 20
-23.06435674873948
 30
0.0
  0
VERTEX
  5
1F9
  8
LAYER_1
 10
28.32545365713629
 20
-22.97603525105426
 30
0.0
  0
VERTEX
  5
1FA
  8
LAYER_1
 10
28.91536342773756
 20
-22.86337558939546
 30
0.0
  0
VERTEX
  5
1FB
  8
LAYER_1
 10
29.53384275990662
 20
-22.72697000965082
 30
0.0
  0
VERTEX
  5
1FC
  8
LAYER_1
 10
30.17907290521082
 20
-22.5674107577081
 30
0.0
  0
VERTEX
  5
1FD
  8
LAYER_1
 10
30.84923511521752
 20
-22.38529007945502
 30
0.0
  0
VERTEX
  5
1FE
  8
LAYER_1
 10
31.54251064149403
 20
-22.18120022077933
 30
0.0
  0
VERTEX
  5
1FF
  8
LAYER_1
 10
32.25708073560772
 20
-21.95573342756878
 30
0.0
  0
VERTEX
  5
200
  8
LAYER_1
 10
32.99112664912589
 20
-21.70948194571111
 30
0.0
  0
VERTEX
  5
201
  8
LAYER_1
 10
33.74282963361592
 20
-21.44303802109406
 30
0.0
  0
VERTEX
  5
202
  8
LAYER_1
 10
34.51037094064513
 20
-21.15699389960537
 30
0.0
  0
VERTEX
  5
203
  8
LAYER_1
 10
35.29193182178086
 20
-20.85194182713278
 30
0.0
  0
VERTEX
  5
204
  8
LAYER_1
 10
36.08569352859045
 20
-20.52847404956404
 30
0.0
  0
VERTEX
  5
205
  8
LAYER_1
 10
36.88983731264125
 20
-20.18718281278689
 30
0.0
  0
VERTEX
  5
206
  8
LAYER_1
 10
37.70254442550059
 20
-19.82866036268906
 30
0.0
  0
VERTEX
  5
207
  8
LAYER_1
 10
38.52199611873581
 20
-19.45349894515832
 30
0.0
  0
VERTEX
  5
208
  8
LAYER_1
 10
42.15694444444445
 20
-17.75903821047585
 30
0.0
  0
VERTEX
  5
209
  8
LAYER_1
 10
41.41129900269621
 20
-17.35951850205691
 30
0.0
  0
VERTEX
  5
20A
  8
LAYER_1
 10
41.31382387648124
 20
-17.31502663807179
 30
0.0
  0
VERTEX
  5
20B
  8
LAYER_1
 10
41.17686038318933
 20
-17.26433847975641
 30
0.0
  0
VERTEX
  5
20C
  8
LAYER_1
 10
40.79450337332932
 20
-17.14669224280648
 30
0.0
  0
VERTEX
  5
20D
  8
LAYER_1
 10
40.28429812902547
 20
-17.01121771655024
 30
0.0
  0
VERTEX
  5
20E
  8
LAYER_1
 10
39.66631480618707
 20
-16.86255282633083
 30
0.0
  0
VERTEX
  5
20F
  8
LAYER_1
 10
38.96062356072337
 20
-16.70533549749137
 30
0.0
  0
VERTEX
  5
210
  8
LAYER_1
 10
38.18729454854365
 20
-16.54420365537501
 30
0.0
  0
VERTEX
  5
211
  8
LAYER_1
 10
37.36639792555718
 20
-16.38379522532486
 30
0.0
  0
VERTEX
  5
212
  8
LAYER_1
 10
36.51800384767324
 20
-16.22874813268406
 30
0.0
  0
VERTEX
  5
213
  8
LAYER_1
 10
35.38221493840722
 20
-16.020304259924
 30
0.0
  0
VERTEX
  5
214
  8
LAYER_1
 10
34.41792818118539
 20
-15.82343856488766
 30
0.0
  0
VERTEX
  5
215
  8
LAYER_1
 10
33.99237676265058
 20
-15.72692644242423
 30
0.0
  0
VERTEX
  5
216
  8
LAYER_1
 10
33.60043526579827
 20
-15.63040355448174
 30
0.0
  0
VERTEX
  5
217
  8
LAYER_1
 10
33.23901515185229
 20
-15.53290146442352
 30
0.0
  0
VERTEX
  5
218
  8
LAYER_1
 10
32.90502788203642
 20
-15.43345173561293
 30
0.0
  0
VERTEX
  5
219
  8
LAYER_1
 10
32.59538491757451
 20
-15.33108593141328
 30
0.0
  0
VERTEX
  5
21A
  8
LAYER_1
 10
32.30699771969035
 20
-15.22483561518793
 30
0.0
  0
VERTEX
  5
21B
  8
LAYER_1
 10
32.03677774960777
 20
-15.11373235030021
 30
0.0
  0
VERTEX
  5
21C
  8
LAYER_1
 10
31.78163646855059
 20
-14.99680770011346
 30
0.0
  0
VERTEX
  5
21D
  8
LAYER_1
 10
31.53848533774262
 20
-14.873093227991
 30
0.0
  0
VERTEX
  5
21E
  8
LAYER_1
 10
31.30423581840768
 20
-14.74162049729619
 30
0.0
  0
VERTEX
  5
21F
  8
LAYER_1
 10
31.07579937176958
 20
-14.60142107139236
 30
0.0
  0
VERTEX
  5
220
  8
LAYER_1
 10
30.85008745905215
 20
-14.45152651364285
 30
0.0
  0
VERTEX
  5
221
  8
LAYER_1
 10
30.24807573374065
 20
-14.04338165516501
 30
0.0
  0
VERTEX
  5
222
  8
LAYER_1
 10
29.99579995048101
 20
-13.88148582840551
 30
0.0
  0
VERTEX
  5
223
  8
LAYER_1
 10
29.76981110525411
 20
-13.74709715923101
 30
0.0
  0
VERTEX
  5
224
  8
LAYER_1
 10
29.56545936188644
 20
-13.63975771459054
 30
0.0
  0
VERTEX
  5
225
  8
LAYER_1
 10
29.37809488420449
 20
-13.55900956143315
 30
0.0
  0
VERTEX
  5
226
  8
LAYER_1
 10
29.20306783603477
 20
-13.50439476670787
 30
0.0
  0
VERTEX
  5
227
  8
LAYER_1
 10
29.03572838120376
 20
-13.47545539736374
 30
0.0
  0
VERTEX
  5
228
  8
LAYER_1
 10
28.87142668353797
 20
-13.4717335203498
 30
0.0
  0
VERTEX
  5
229
  8
LAYER_1
 10
28.70551290686388
 20
-13.49277120261509
 30
0.0
  0
VERTEX
  5
22A
  8
LAYER_1
 10
28.533337215008
 20
-13.53811051110863
 30
0.0
  0
VERTEX
  5
22B
  8
LAYER_1
 10
28.35024977179683
 20
-13.60729351277947
 30
0.0
  0
VERTEX
  5
22C
  8
LAYER_1
 10
28.15160074105684
 20
-13.69986227457666
 30
0.0
  0
VERTEX
  5
22D
  8
LAYER_1
 10
27.93274028661455
 20
-13.81535886344922
 30
0.0
  0
VERTEX
  5
22E
  8
LAYER_1
 10
27.41578576192903
 20
-14.11330379021661
 30
0.0
  0
VERTEX
  5
22F
  8
LAYER_1
 10
27.09003934958741
 20
-14.29457100215744
 30
0.0
  0
VERTEX
  5
230
  8
LAYER_1
 10
26.71852306695474
 20
-14.4811647774438
 30
0.0
  0
VERTEX
  5
231
  8
LAYER_1
 10
26.30226307899812
 20
-14.67274580722291
 30
0.0
  0
VERTEX
  5
232
  8
LAYER_1
 10
25.84228555068465
 20
-14.86897478264197
 30
0.0
  0
VERTEX
  5
233
  8
LAYER_1
 10
25.33961664698142
 20
-15.06951239484819
 30
0.0
  0
VERTEX
  5
234
  8
LAYER_1
 10
24.79528253285552
 20
-15.27401933498878
 30
0.0
  0
VERTEX
  5
235
  8
LAYER_1
 10
24.21030937327406
 20
-15.48215629421096
 30
0.0
  0
VERTEX
  5
236
  8
LAYER_1
 10
23.58572333320412
 20
-15.69358396366193
 30
0.0
  0
VERTEX
  5
237
  8
LAYER_1
 10
22.92255057761281
 20
-15.9079630344889
 30
0.0
  0
VERTEX
  5
238
  8
LAYER_1
 10
22.22181727146722
 20
-16.12495419783908
 30
0.0
  0
VERTEX
  5
239
  8
LAYER_1
 10
21.48454957973444
 20
-16.34421814485968
 30
0.0
  0
VERTEX
  5
23A
  8
LAYER_1
 10
20.71177366738157
 20
-16.56541556669792
 30
0.0
  0
VERTEX
  5
23B
  8
LAYER_1
 10
19.9045156993757
 20
-16.78820715450099
 30
0.0
  0
VERTEX
  5
23C
  8
LAYER_1
 10
19.06380184068394
 20
-17.01225359941612
 30
0.0
  0
VERTEX
  5
23D
  8
LAYER_1
 10
17.28611111111111
 20
-17.46275382517135
 30
0.0
  0
VERTEX
  5
23E
  8
LAYER_1
 10
13.22916666666667
 20
-18.45818732201336
 30
0.0
  0
VERTEX
  5
23F
  8
LAYER_1
 10
12.95446557401777
 20
-18.69365586476668
 30
0.0
  0
VERTEX
  5
240
  8
LAYER_1
 10
12.91037131272503
 20
-18.74060694043225
 30
0.0
  0
VERTEX
  5
241
  8
LAYER_1
 10
12.87946183004164
 20
-18.79415728673673
 30
0.0
  0
VERTEX
  5
242
  8
LAYER_1
 10
12.86139523294769
 20
-18.85398854031051
 30
0.0
  0
VERTEX
  5
243
  8
LAYER_1
 10
12.85582962842327
 20
-18.91978233778399
 30
0.0
  0
VERTEX
  5
244
  8
LAYER_1
 10
12.86242312344845
 20
-18.99122031578754
 30
0.0
  0
VERTEX
  5
245
  8
LAYER_1
 10
12.88083382500333
 20
-19.06798411095158
 30
0.0
  0
VERTEX
  5
246
  8
LAYER_1
 10
12.91071984006799
 20
-19.1497553599065
 30
0.0
  0
VERTEX
  5
247
  8
LAYER_1
 10
12.95173927562252
 20
-19.23621569928268
 30
0.0
  0
VERTEX
  5
248
  8
LAYER_1
 10
13.06581083612151
 20
-19.42193019582042
 30
0.0
  0
VERTEX
  5
249
  8
LAYER_1
 10
13.22031336234097
 20
-19.62258069360794
 30
0.0
  0
VERTEX
  5
24A
  8
LAYER_1
 10
13.41251171012158
 20
-19.8356202856884
 30
0.0
  0
VERTEX
  5
24B
  8
LAYER_1
 10
13.63967073530403
 20
-20.05850206510496
 30
0.0
  0
VERTEX
  5
24C
  8
LAYER_1
 10
13.89905529372898
 20
-20.28867912490075
 30
0.0
  0
VERTEX
  5
24D
  8
LAYER_1
 10
14.18793024123711
 20
-20.52360455811893
 30
0.0
  0
VERTEX
  5
24E
  8
LAYER_1
 10
14.50356043366911
 20
-20.76073145780263
 30
0.0
  0
VERTEX
  5
24F
  8
LAYER_1
 10
14.84321072686564
 20
-20.99751291699503
 30
0.0
  0
VERTEX
  5
250
  8
LAYER_1
 10
15.20414597666739
 20
-21.23140202873925
 30
0.0
  0
VERTEX
  5
251
  8
LAYER_1
 10
15.58363103891504
 20
-21.45985188607845
 30
0.0
  0
VERTEX
  5
252
  8
LAYER_1
 10
15.97893076944926
 20
-21.68031558205578
 30
0.0
  0
VERTEX
  5
253
  8
LAYER_1
 10
16.38731002411073
 20
-21.89024620971439
 30
0.0
  0
VERTEX
  5
254
  8
LAYER_1
 10
16.80876192273763
 20
-22.08375172462014
 30
0.0
  0
VERTEX
  5
255
  8
LAYER_1
 10
17.26843426585623
 20
-22.26927984019913
 30
0.0
  0
VERTEX
  5
256
  8
LAYER_1
 10
17.76061466384939
 20
-22.44575218029874
 30
0.0
  0
VERTEX
  5
257
  8
LAYER_1
 10
18.27959072710001
 20
-22.61209036876638
 30
0.0
  0
VERTEX
  5
258
  8
LAYER_1
 10
18.81965006599095
 20
-22.76721602944945
 30
0.0
  0
VERTEX
  5
259
  8
LAYER_1
 10
19.3750802909051
 20
-22.91005078619535
 30
0.0
  0
VERTEX
  5
25A
  8
LAYER_1
 10
19.94016901222532
 20
-23.03951626285148
 30
0.0
  0
VERTEX
  5
25B
  8
LAYER_1
 10
20.5092038403345
 20
-23.15453408326524
 30
0.0
  0
VERTEX
  5
25C
  8
LAYER_1
 10
21.07647238561551
 20
-23.25402587128403
 30
0.0
  0
VERTEX
  5
25D
  8
LAYER_1
 10
21.63626225845123
 20
-23.33691325075525
 30
0.0
  0
VERTEX
  5
25E
  8
LAYER_1
 10
22.18286106922454
 20
-23.4021178455263
 30
0.0
  0
VERTEX
  5
25F
  8
LAYER_1
 10
22.71055642831831
 20
-23.44856127944457
 30
0.0
  0
VERTEX
  5
260
  8
LAYER_1
 10
23.21363594611542
 20
-23.47516517635747
 30
0.0
  0
VERTEX
  5
261
  8
LAYER_1
 10
23.68638723299875
 20
-23.4808511601124
 30
0.0
  0
VERTEX
  5
262
  8
LAYER_1
 10
24.12309789935117
 20
-23.46454085455676
 30
0.0
  0
SEQEND
  5
263
  8
LAYER_1
  0
POLYLINE
  5
46
  8
LAYER_1
 66
     1
 10
0.0
 20
0.0
 30
0.0
 70
     1
  0
VERTEX
  5
264
  8
LAYER_1
 10
7.637669593557661
 20
-17.63888888888889
 30
0.0
  0
VERTEX
  5
265
  8
LAYER_1
 10
8.279203463881563
 20
-17.62871064595346
 30
0.0
  0
VERTEX
  5
266
  8
LAYER_1
 10
8.854587086568928
 20
-17.59593354176665
 30
0.0
  0
VERTEX
  5
267
  8
LAYER_1
 10
9.122299981723689
 20
-17.57001930324434
 30
0.0
  0
VERTEX
  5
268
  8
LAYER_1
 10
9.379268226979054
 20
-17.53719401325764
 30
0.0
  0
VERTEX
  5
269
  8
LAYER_1
 10
9.627422793004936
 20
-17.49703722642268
 30
0.0
  0
VERTEX
  5
26A
  8
LAYER_1
 10
9.868694650471241
 20
-17.44912849735562
 30
0.0
  0
VERTEX
  5
26B
  8
LAYER_1
 10
10.10501477004789
 20
-17.39304738067261
 30
0.0
  0
VERTEX
  5
26C
  8
LAYER_1
 10
10.33831412240479
 20
-17.32837343098979
 30
0.0
  0
VERTEX
  5
26D
  8
LAYER_1
 10
10.57052367821185
 20
-17.25468620292331
 30
0.0
  0
VERTEX
  5
26E
  8
LAYER_1
 10
10.80357440813898
 20
-17.17156525108933
 30
0.0
  0
VERTEX
  5
26F
  8
LAYER_1
 10
11.03939728285611
 20
-17.07859013010398
 30
0.0
  0
VERTEX
  5
270
  8
LAYER_1
 10
11.27992327303314
 20
-16.97534039458343
 30
0.0
  0
VERTEX
  5
271
  8
LAYER_1
 10
11.78280848244654
 20
-16.73633529840128
 30
0.0
  0
VERTEX
  5
272
  8
LAYER_1
 10
11.9880104192166
 20
-16.63946279899971
 30
0.0
  0
VERTEX
  5
273
  8
LAYER_1
 10
12.23048482099426
 20
-16.53563036520717
 30
0.0
  0
VERTEX
  5
274
  8
LAYER_1
 10
12.81489332134983
 20
-16.31088601269381
 30
0.0
  0
VERTEX
  5
275
  8
LAYER_1
 10
13.51131858706803
 20
-16.06970287735044
 30
0.0
  0
VERTEX
  5
276
  8
LAYER_1
 10
14.29504522170365
 20
-15.81968159566634
 30
0.0
  0
VERTEX
  5
277
  8
LAYER_1
 10
15.14135782881149
 20
-15.56842280413073
 30
0.0
  0
VERTEX
  5
278
  8
LAYER_1
 10
16.02554101194634
 20
-15.32352713923289
 30
0.0
  0
VERTEX
  5
279
  8
LAYER_1
 10
16.92287937466298
 20
-15.09259523746205
 30
0.0
  0
VERTEX
  5
27A
  8
LAYER_1
 10
17.80865752051622
 20
-14.88322773530747
 30
0.0
  0
VERTEX
  5
27B
  8
LAYER_1
 10
19.13882392700931
 20
-14.57979553310214
 30
0.0
  0
VERTEX
  5
27C
  8
LAYER_1
 10
20.16903749120172
 20
-14.32868828896282
 30
0.0
  0
VERTEX
  5
27D
  8
LAYER_1
 10
20.58670792407225
 20
-14.21630005391059
 30
0.0
  0
VERTEX
  5
27E
  8
LAYER_1
 10
20.94744530633209
 20
-14.10924529166607
 30
0.0
  0
VERTEX
  5
27F
  8
LAYER_1
 10
21.25726802463608
 20
-14.00494141332633
 30
0.0
  0
VERTEX
  5
280
  8
LAYER_1
 10
21.52219446563904
 20
-13.90080582998844
 30
0.0
  0
VERTEX
  5
281
  8
LAYER_1
 10
21.7482430159958
 20
-13.79425595274947
 30
0.0
  0
VERTEX
  5
282
  8
LAYER_1
 10
21.94143206236119
 20
-13.68270919270649
 30
0.0
  0
VERTEX
  5
283
  8
LAYER_1
 10
22.10777999139004
 20
-13.56358296095657
 30
0.0
  0
VERTEX
  5
284
  8
LAYER_1
 10
22.25330518973718
 20
-13.43429466859678
 30
0.0
  0
VERTEX
  5
285
  8
LAYER_1
 10
22.38402604405742
 20
-13.29226172672418
 30
0.0
  0
VERTEX
  5
286
  8
LAYER_1
 10
22.50596094100561
 20
-13.13490154643586
 30
0.0
  0
VERTEX
  5
287
  8
LAYER_1
 10
22.74754640940512
 20
-12.76386911500028
 30
0.0
  0
VERTEX
  5
288
  8
LAYER_1
 10
22.92800813210278
 20
-12.48115414520229
 30
0.0
  0
VERTEX
  5
289
  8
LAYER_1
 10
23.16866281170825
 20
-12.12475791455878
 30
0.0
  0
VERTEX
  5
28A
  8
LAYER_1
 10
23.78880324743998
 20
-11.24862224017819
 30
0.0
  0
VERTEX
  5
28B
  8
LAYER_1
 10
24.52447212819497
 20
-10.25086323074445
 30
0.0
  0
VERTEX
  5
28C
  8
LAYER_1
 10
25.29217386556786
 20
-9.246882025143478
 30
0.0
  0
VERTEX
  5
28D
  8
LAYER_1
 10
27.12462550891352
 20
-6.898699582987646
 30
0.0
  0
VERTEX
  5
28E
  8
LAYER_1
 10
27.01767052353935
 20
-6.791744597613402
 30
0.0
  0
VERTEX
  5
28F
  8
LAYER_1
 10
26.99585932108465
 20
-6.787019399212062
 30
0.0
  0
VERTEX
  5
290
  8
LAYER_1
 10
26.95324090458569
 20
-6.7945333287238
 30
0.0
  0
VERTEX
  5
291
  8
LAYER_1
 10
26.81011678024528
 20
-6.84405892538043
 30
0.0
  0
VERTEX
  5
292
  8
LAYER_1
 10
26.59736685209877
 20
-6.935882095371142
 30
0.0
  0
VERTEX
  5
293
  8
LAYER_1
 10
26.32405982172677
 20
-7.065563546483776
 30
0.0
  0
VERTEX
  5
294
  8
LAYER_1
 10
25.63204926062881
 20
-7.420744123226189
 30
0.0
  0
VERTEX
  5
295
  8
LAYER_1
 10
24.80663470959641
 20
-7.874086317910425
 30
0.0
  0
VERTEX
  5
296
  8
LAYER_1
 10
24.28602335675712
 20
-8.161733780615805
 30
0.0
  0
VERTEX
  5
297
  8
LAYER_1
 10
23.77555379839801
 20
-8.430380045510354
 30
0.0
  0
VERTEX
  5
298
  8
LAYER_1
 10
23.275038684464
 20
-8.680086279686321
 30
0.0
  0
VERTEX
  5
299
  8
LAYER_1
 10
22.78429066490005
 20
-8.910913650235951
 30
0.0
  0
VERTEX
  5
29A
  8
LAYER_1
 10
22.30312238965108
 20
-9.122923324251495
 30
0.0
  0
VERTEX
  5
29B
  8
LAYER_1
 10
21.83134650866204
 20
-9.3161764688252
 30
0.0
  0
VERTEX
  5
29C
  8
LAYER_1
 10
21.36877567187787
 20
-9.490734251049311
 30
0.0
  0
VERTEX
  5
29D
  8
LAYER_1
 10
20.9152225292435
 20
-9.646657838016079
 30
0.0
  0
VERTEX
  5
29E
  8
LAYER_1
 10
20.47049973070388
 20
-9.78400839681775
 30
0.0
  0
VERTEX
  5
29F
  8
LAYER_1
 10
20.03441992620394
 20
-9.902847094546573
 30
0.0
  0
VERTEX
  5
2A0
  8
LAYER_1
 10
19.60679576568862
 20
-10.00323509829479
 30
0.0
  0
VERTEX
  5
2A1
  8
LAYER_1
 10
19.18743989910286
 20
-10.08523357515466
 30
0.0
  0
VERTEX
  5
2A2
  8
LAYER_1
 10
18.7761649763916
 20
-10.14890369221842
 30
0.0
  0
VERTEX
  5
2A3
  8
LAYER_1
 10
18.37278364749978
 20
-10.19430661657833
 30
0.0
  0
VERTEX
  5
2A4
  8
LAYER_1
 10
17.97710856237234
 20
-10.22150351532662
 30
0.0
  0
VERTEX
  5
2A5
  8
LAYER_1
 10
17.58895237095422
 20
-10.23055555555555
 30
0.0
  0
VERTEX
  5
2A6
  8
LAYER_1
 10
17.05303837471033
 20
-10.24042221261666
 30
0.0
  0
VERTEX
  5
2A7
  8
LAYER_1
 10
16.81975303600836
 20
-10.25649988242454
 30
0.0
  0
VERTEX
  5
2A8
  8
LAYER_1
 10
16.60337704017973
 20
-10.2833354228453
 30
0.0
  0
VERTEX
  5
2A9
  8
LAYER_1
 10
16.39925656466947
 20
-10.32342506619996
 30
0.0
  0
VERTEX
  5
2AA
  8
LAYER_1
 10
16.20273778692259
 20
-10.3792650448095
 30
0.0
  0
VERTEX
  5
2AB
  8
LAYER_1
 10
16.00916688438412
 20
-10.45335159099493
 30
0.0
  0
VERTEX
  5
2AC
  8
LAYER_1
 10
15.81389003449909
 20
-10.54818093707726
 30
0.0
  0
VERTEX
  5
2AD
  8
LAYER_1
 10
15.6122534147125
 20
-10.66624931537747
 30
0.0
  0
VERTEX
  5
2AE
  8
LAYER_1
 10
15.39960320246939
 20
-10.81005295821658
 30
0.0
  0
VERTEX
  5
2AF
  8
LAYER_1
 10
15.17128557521478
 20
-10.98208809791558
 30
0.0
  0
VERTEX
  5
2B0
  8
LAYER_1
 10
14.92264671039369
 20
-11.18485096679548
 30
0.0
  0
VERTEX
  5
2B1
  8
LAYER_1
 10
14.34578997783215
 20
-11.69254482138196
 30
0.0
  0
VERTEX
  5
2B2
  8
LAYER_1
 10
13.63180242434495
 20
-12.35310438054403
 30
0.0
  0
VERTEX
  5
2B3
  8
LAYER_1
 10
13.06654654742076
 20
-12.86142801473685
 30
0.0
  0
VERTEX
  5
2B4
  8
LAYER_1
 10
12.48159215035454
 20
-13.34772842183952
 30
0.0
  0
VERTEX
  5
2B5
  8
LAYER_1
 10
11.87952728609551
 20
-13.81024578352831
 30
0.0
  0
VERTEX
  5
2B6
  8
LAYER_1
 10
11.26294000759289
 20
-14.24722028147947
 30
0.0
  0
VERTEX
  5
2B7
  8
LAYER_1
 10
10.63441836779591
 20
-14.65689209736926
 30
0.0
  0
VERTEX
  5
2B8
  8
LAYER_1
 10
9.996550419653776
 20
-15.03750141287392
 30
0.0
  0
VERTEX
  5
2B9
  8
LAYER_1
 10
9.674920346499908
 20
-15.21635768975566
 30
0.0
  0
VERTEX
  5
2BA
  8
LAYER_1
 10
9.351924216115712
 20
-15.38728840966973
 30
0.0
  0
VERTEX
  5
2BB
  8
LAYER_1
 10
9.027885535119836
 20
-15.55007359532563
 30
0.0
  0
VERTEX
  5
2BC
  8
LAYER_1
 10
8.703127810130937
 20
-15.70449326943292
 30
0.0
  0
VERTEX
  5
2BD
  8
LAYER_1
 10
6.043464578215662
 20
-16.93333333333333
 30
0.0
  0
VERTEX
  5
2BE
  8
LAYER_1
 10
5.667565622441174
 20
-16.93333333333333
 30
0.0
  0
VERTEX
  5
2BF
  8
LAYER_1
 10
5.592055451344674
 20
-16.9405335828993
 30
0.0
  0
VERTEX
  5
2C0
  8
LAYER_1
 10
5.521611106019355
 20
-16.96116970486111
 30
0.0
  0
VERTEX
  5
2C1
  8
LAYER_1
 10
5.457774359526009
 20
-16.99379475911458
 30
0.0
  0
VERTEX
  5
2C2
  8
LAYER_1
 10
5.402086984925431
 20
-17.03696180555555
 30
0.0
  0
VERTEX
  5
2C3
  8
LAYER_1
 10
5.356090755278414
 20
-17.08922390407986
 30
0.0
  0
VERTEX
  5
2C4
  8
LAYER_1
 10
5.321327443645753
 20
-17.14913411458333
 30
0.0
  0
VERTEX
  5
2C5
  8
LAYER_1
 10
5.299338823088241
 20
-17.2152454969618
 30
0.0
  0
VERTEX
  5
2C6
  8
LAYER_1
 10
5.291666666666671
 20
-17.28611111111111
 30
0.0
  0
VERTEX
  5
2C7
  8
LAYER_1
 10
5.303414562214423
 20
-17.32300220236296
 30
0.0
  0
VERTEX
  5
2C8
  8
LAYER_1
 10
5.337969229760454
 20
-17.35863957003039
 30
0.0
  0
VERTEX
  5
2C9
  8
LAYER_1
 10
5.394297140658931
 20
-17.39286779830603
 30
0.0
  0
VERTEX
  5
2CA
  8
LAYER_1
 10
5.471364766264022
 20
-17.42553147138253
 30
0.0
  0
VERTEX
  5
2CB
  8
LAYER_1
 10
5.683585047010713
 20
-17.48554348870865
 30
0.0
  0
VERTEX
  5
2CC
  8
LAYER_1
 10
5.966361842833857
 20
-17.5374322955499
 30
0.0
  0
VERTEX
  5
2CD
  8
LAYER_1
 10
6.311426924566789
 20
-17.57995456544741
 30
0.0
  0
VERTEX
  5
2CE
  8
LAYER_1
 10
6.710512063042845
 20
-17.61186697194232
 30
0.0
  0
VERTEX
  5
2CF
  8
LAYER_1
 10
7.155349029095358
 20
-17.63192618857577
 30
0.0
  0
SEQEND
  5
2D0
  8
LAYER_1
  0
POLYLINE
  5
47
  8
LAYER_1
 66
     1
 10
0.0
 20
0.0
 30
0.0
 70
     1
  0
VERTEX
  5
2D1
  8
LAYER_1
 10
45.63582928711271
 20
-16.93333333333333
 30
0.0
  0
VERTEX
  5
2D2
  8
LAYER_1
 10
45.73349332090849
 20
-16.92806280709644
 30
0.0
  0
VERTEX
  5
2D3
  8
LAYER_1
 10
45.85043490482704
 20
-16.91254817325456
 30
0.0
  0
VERTEX
  5
2D4
  8
LAYER_1
 10
46.13784500333968
 20
-16.8525682519687
 30
0.0
  0
VERTEX
  5
2D5
  8
LAYER_1
 10
46.48944814326516
 20
-16.75695690790135
 30
0.0
  0
VERTEX
  5
2D6
  8
LAYER_1
 10
46.89663288521803
 20
-16.62927747947817
 30
0.0
  0
VERTEX
  5
2D7
  8
LAYER_1
 10
47.35078778981278
 20
-16.47309330512476
 30
0.0
  0
VERTEX
  5
2D8
  8
LAYER_1
 10
47.84330141766397
 20
-16.29196772326679
 30
0.0
  0
VERTEX
  5
2D9
  8
LAYER_1
 10
48.36556232938611
 20
-16.08946407232985
 30
0.0
  0
VERTEX
  5
2DA
  8
LAYER_1
 10
48.90895908559374
 20
-15.8691456907396
 30
0.0
  0
VERTEX
  5
2DB
  8
LAYER_1
 10
49.46488024690137
 20
-15.63457591692166
 30
0.0
  0
VERTEX
  5
2DC
  8
LAYER_1
 10
50.02471437392355
 20
-15.38931808930166
 30
0.0
  0
VERTEX
  5
2DD
  8
LAYER_1
 10
50.5798500272748
 20
-15.13693554630524
 30
0.0
  0
VERTEX
  5
2DE
  8
LAYER_1
 10
51.12167576756964
 20
-14.88099162635801
 30
0.0
  0
VERTEX
  5
2DF
  8
LAYER_1
 10
51.64158015542261
 20
-14.62504966788563
 30
0.0
  0
VERTEX
  5
2E0
  8
LAYER_1
 10
52.13095175144822
 20
-14.37267300931371
 30
0.0
  0
VERTEX
  5
2E1
  8
LAYER_1
 10
52.58117911626103
 20
-14.12742498906788
 30
0.0
  0
VERTEX
  5
2E2
  8
LAYER_1
 10
52.98365081047554
 20
-13.89286894557379
 30
0.0
  0
VERTEX
  5
2E3
  8
LAYER_1
 10
53.4092410203044
 20
-13.61781864468067
 30
0.0
  0
VERTEX
  5
2E4
  8
LAYER_1
 10
53.84953007614278
 20
-13.30256491194872
 30
0.0
  0
VERTEX
  5
2E5
  8
LAYER_1
 10
54.29178893150007
 20
-12.95820178620753
 30
0.0
  0
VERTEX
  5
2E6
  8
LAYER_1
 10
54.72328853988566
 20
-12.59582330628673
 30
0.0
  0
VERTEX
  5
2E7
  8
LAYER_1
 10
55.13129985480894
 20
-12.22652351101595
 30
0.0
  0
VERTEX
  5
2E8
  8
LAYER_1
 10
55.50309382977932
 20
-11.8613964392248
 30
0.0
  0
VERTEX
  5
2E9
  8
LAYER_1
 10
55.8259414183062
 20
-11.51153612974289
 30
0.0
  0
VERTEX
  5
2EA
  8
LAYER_1
 10
55.96503249062501
 20
-11.34579789800217
 30
0.0
  0
VERTEX
  5
2EB
  8
LAYER_1
 10
56.08711357389896
 20
-11.18803662139986
 30
0.0
  0
VERTEX
  5
2EC
  8
LAYER_1
 10
57.18331441573572
 20
-9.701388888888886
 30
0.0
  0
VERTEX
  5
2ED
  8
LAYER_1
 10
55.74156190277129
 20
-9.592227182822192
 30
0.0
  0
VERTEX
  5
2EE
  8
LAYER_1
 10
55.41310712798932
 20
-9.581589151970263
 30
0.0
  0
VERTEX
  5
2EF
  8
LAYER_1
 10
55.03161106465183
 20
-9.593490182391319
 30
0.0
  0
VERTEX
  5
2F0
  8
LAYER_1
 10
54.61079173687478
 20
-9.62610915292186
 30
0.0
  0
VERTEX
  5
2F1
  8
LAYER_1
 10
54.16436716877413
 20
-9.677624942398385
 30
0.0
  0
VERTEX
  5
2F2
  8
LAYER_1
 10
53.70605538446582
 20
-9.746216429657398
 30
0.0
  0
VERTEX
  5
2F3
  8
LAYER_1
 10
53.2495744080658
 20
-9.830062493535397
 30
0.0
  0
VERTEX
  5
2F4
  8
LAYER_1
 10
52.80864226369
 20
-9.927342012868884
 30
0.0
  0
VERTEX
  5
2F5
  8
LAYER_1
 10
52.39697697545441
 20
-10.03623386649436
 30
0.0
  0
VERTEX
  5
2F6
  8
LAYER_1
 10
52.08848643908994
 20
-10.12900801694104
 30
0.0
  0
VERTEX
  5
2F7
  8
LAYER_1
 10
51.80531300672914
 20
-10.22227811068841
 30
0.0
  0
VERTEX
  5
2F8
  8
LAYER_1
 10
51.54266878146187
 20
-10.31993920903121
 30
0.0
  0
VERTEX
  5
2F9
  8
LAYER_1
 10
51.29576586637801
 20
-10.42588637326419
 30
0.0
  0
VERTEX
  5
2FA
  8
LAYER_1
 10
51.0598163645674
 20
-10.54401466468211
 30
0.0
  0
VERTEX
  5
2FB
  8
LAYER_1
 10
50.83003237911992
 20
-10.67821914457971
 30
0.0
  0
VERTEX
  5
2FC
  8
LAYER_1
 10
50.60162601312544
 20
-10.83239487425175
 30
0.0
  0
VERTEX
  5
2FD
  8
LAYER_1
 10
50.36980936967382
 20
-11.01043691499297
 30
0.0
  0
VERTEX
  5
2FE
  8
LAYER_1
 10
50.12979455185493
 20
-11.21624032809812
 30
0.0
  0
VERTEX
  5
2FF
  8
LAYER_1
 10
49.87679366275864
 20
-11.45370017486195
 30
0.0
  0
VERTEX
  5
300
  8
LAYER_1
 10
49.6060188054748
 20
-11.72671151657922
 30
0.0
  0
VERTEX
  5
301
  8
LAYER_1
 10
49.31268208309331
 20
-12.03916941454467
 30
0.0
  0
VERTEX
  5
302
  8
LAYER_1
 10
48.63917145539675
 20
-12.79800512439911
 30
0.0
  0
VERTEX
  5
303
  8
LAYER_1
 10
47.8179586043879
 20
-13.76136779478327
 30
0.0
  0
VERTEX
  5
304
  8
LAYER_1
 10
45.14177264767382
 20
-16.93333333333333
 30
0.0
  0
SEQEND
  5
305
  8
LAYER_1
  0
POLYLINE
  5
48
  8
LAYER_1
 66
     1
 10
0.0
 20
0.0
 30
0.0
 70
     1
  0
VERTEX
  5
306
  8
LAYER_1
 10
-0.3590803247730392
 20
-15.50971074248881
 30
0.0
  0
VERTEX
  5
307
  8
LAYER_1
 10
-0.149916699302353
 20
-15.5022780187481
 30
0.0
  0
VERTEX
  5
308
  8
LAYER_1
 10
0.0818285869589164
 20
-15.4842671768841
 30
0.0
  0
VERTEX
  5
309
  8
LAYER_1
 10
0.6070405721426786
 20
-15.41835741760829
 30
0.0
  0
VERTEX
  5
30A
  8
LAYER_1
 10
1.204508491357194
 20
-15.31567402230558
 30
0.0
  0
VERTEX
  5
30B
  8
LAYER_1
 10
1.862185205181408
 20
-15.17990954862013
 30
0.0
  0
VERTEX
  5
30C
  8
LAYER_1
 10
2.568023574194267
 20
-15.01475655419612
 30
0.0
  0
VERTEX
  5
30D
  8
LAYER_1
 10
3.309976458974719
 20
-14.82390759667775
 30
0.0
  0
VERTEX
  5
30E
  8
LAYER_1
 10
4.075996720101709
 20
-14.61105523370918
 30
0.0
  0
VERTEX
  5
30F
  8
LAYER_1
 10
4.854037218154184
 20
-14.37989202293461
 30
0.0
  0
VERTEX
  5
310
  8
LAYER_1
 10
5.632050813711089
 20
-14.13411052199821
 30
0.0
  0
VERTEX
  5
311
  8
LAYER_1
 10
6.397990367351371
 20
-13.87740328854415
 30
0.0
  0
VERTEX
  5
312
  8
LAYER_1
 10
7.139808739653976
 20
-13.61346288021664
 30
0.0
  0
VERTEX
  5
313
  8
LAYER_1
 10
7.845458791197852
 20
-13.34598185465983
 30
0.0
  0
VERTEX
  5
314
  8
LAYER_1
 10
8.502893382561943
 20
-13.07865276951792
 30
0.0
  0
VERTEX
  5
315
  8
LAYER_1
 10
9.100065374325197
 20
-12.81516818243509
 30
0.0
  0
VERTEX
  5
316
  8
LAYER_1
 10
9.62492762706656
 20
-12.55922065105552
 30
0.0
  0
VERTEX
  5
317
  8
LAYER_1
 10
9.856477870234952
 20
-12.43522720551826
 30
0.0
  0
VERTEX
  5
318
  8
LAYER_1
 10
10.06543300136498
 20
-12.31450273302338
 30
0.0
  0
VERTEX
  5
319
  8
LAYER_1
 10
10.59744113344826
 20
-11.98359216004548
 30
0.0
  0
VERTEX
  5
31A
  8
LAYER_1
 10
11.11238459656059
 20
-11.64309485767393
 30
0.0
  0
VERTEX
  5
31B
  8
LAYER_1
 10
11.61018602466802
 20
-11.29314950475549
 30
0.0
  0
VERTEX
  5
31C
  8
LAYER_1
 10
12.09076805173662
 20
-10.93389478013691
 30
0.0
  0
VERTEX
  5
31D
  8
LAYER_1
 10
12.55405331173242
 20
-10.56546936266493
 30
0.0
  0
VERTEX
  5
31E
  8
LAYER_1
 10
12.99996443862147
 20
-10.18801193118631
 30
0.0
  0
VERTEX
  5
31F
  8
LAYER_1
 10
13.42842406636982
 20
-9.801661164547774
 30
0.0
  0
VERTEX
  5
320
  8
LAYER_1
 10
13.83935482894353
 20
-9.406555741596087
 30
0.0
  0
VERTEX
  5
321
  8
LAYER_1
 10
14.23267936030864
 20
-9.002834341177987
 30
0.0
  0
VERTEX
  5
322
  8
LAYER_1
 10
14.6083202944312
 20
-8.590635642140228
 30
0.0
  0
VERTEX
  5
323
  8
LAYER_1
 10
14.96620026527727
 20
-8.17009832332955
 30
0.0
  0
VERTEX
  5
324
  8
LAYER_1
 10
15.30624190681288
 20
-7.741361063592703
 30
0.0
  0
VERTEX
  5
325
  8
LAYER_1
 10
15.62836785300409
 20
-7.304562541776434
 30
0.0
  0
VERTEX
  5
326
  8
LAYER_1
 10
15.93250073781695
 20
-6.859841436727492
 30
0.0
  0
VERTEX
  5
327
  8
LAYER_1
 10
16.21856319521751
 20
-6.407336427292622
 30
0.0
  0
VERTEX
  5
328
  8
LAYER_1
 10
16.48647785917182
 20
-5.947186192318569
 30
0.0
  0
VERTEX
  5
329
  8
LAYER_1
 10
16.73616736364593
 20
-5.479529410652084
 30
0.0
  0
VERTEX
  5
32A
  8
LAYER_1
 10
16.96755434260588
 20
-5.004504761139911
 30
0.0
  0
VERTEX
  5
32B
  8
LAYER_1
 10
17.18056143001772
 20
-4.522250922628798
 30
0.0
  0
VERTEX
  5
32C
  8
LAYER_1
 10
17.37511125984751
 20
-4.032906573965493
 30
0.0
  0
VERTEX
  5
32D
  8
LAYER_1
 10
17.5511264660613
 20
-3.536610393996741
 30
0.0
  0
VERTEX
  5
32E
  8
LAYER_1
 10
17.70852968262513
 20
-3.03350106156929
 30
0.0
  0
VERTEX
  5
32F
  8
LAYER_1
 10
17.84724354350504
 20
-2.523717255529887
 30
0.0
  0
VERTEX
  5
330
  8
LAYER_1
 10
17.96719068266711
 20
-2.007397654725279
 30
0.0
  0
VERTEX
  5
331
  8
LAYER_1
 10
18.06829373407736
 20
-1.484680938002212
 30
0.0
  0
VERTEX
  5
332
  8
LAYER_1
 10
18.15047533170186
 20
-0.9557057842074339
 30
0.0
  0
VERTEX
  5
333
  8
LAYER_1
 10
18.21365810950665
 20
-0.4206108721876915
 30
0.0
  0
VERTEX
  5
334
  8
LAYER_1
 10
18.25776470145778
 20
0.1204651192102683
 30
0.0
  0
VERTEX
  5
335
  8
LAYER_1
 10
18.28271774152129
 20
0.6673835111396985
 30
0.0
  0
VERTEX
  5
336
  8
LAYER_1
 10
18.28843986366325
 20
1.220005624753852
 30
0.0
  0
VERTEX
  5
337
  8
LAYER_1
 10
18.27485370184969
 20
1.778192781205982
 30
0.0
  0
VERTEX
  5
338
  8
LAYER_1
 10
18.24188189004667
 20
2.341806301649342
 30
0.0
  0
VERTEX
  5
339
  8
LAYER_1
 10
18.20234330700981
 20
2.771612114237878
 30
0.0
  0
VERTEX
  5
33A
  8
LAYER_1
 10
18.14887517792232
 20
3.198619099668966
 30
0.0
  0
VERTEX
  5
33B
  8
LAYER_1
 10
18.08170220676882
 20
3.622487339428305
 30
0.0
  0
VERTEX
  5
33C
  8
LAYER_1
 10
18.00104909753395
 20
4.042876915001593
 30
0.0
  0
VERTEX
  5
33D
  8
LAYER_1
 10
17.90714055420232
 20
4.459447907874531
 30
0.0
  0
VERTEX
  5
33E
  8
LAYER_1
 10
17.80020128075858
 20
4.871860399532817
 30
0.0
  0
VERTEX
  5
33F
  8
LAYER_1
 10
17.68045598118734
 20
5.27977447146215
 30
0.0
  0
VERTEX
  5
340
  8
LAYER_1
 10
17.54812935947323
 20
5.682850205148229
 30
0.0
  0
VERTEX
  5
341
  8
LAYER_1
 10
17.40344611960088
 20
6.080747682076754
 30
0.0
  0
VERTEX
  5
342
  8
LAYER_1
 10
17.24663096555492
 20
6.473126983733423
 30
0.0
  0
VERTEX
  5
343
  8
LAYER_1
 10
17.07790860131997
 20
6.859648191603935
 30
0.0
  0
VERTEX
  5
344
  8
LAYER_1
 10
16.89750373088066
 20
7.239971387173991
 30
0.0
  0
VERTEX
  5
345
  8
LAYER_1
 10
16.70564105822163
 20
7.613756651929289
 30
0.0
  0
VERTEX
  5
346
  8
LAYER_1
 10
16.50254528732749
 20
7.980664067355526
 30
0.0
  0
VERTEX
  5
347
  8
LAYER_1
 10
16.28844112218287
 20
8.340353714938402
 30
0.0
  0
VERTEX
  5
348
  8
LAYER_1
 10
16.0635532667724
 20
8.69248567616362
 30
0.0
  0
VERTEX
  5
349
  8
LAYER_1
 10
15.82810642508071
 20
9.036720032516875
 30
0.0
  0
VERTEX
  5
34A
  8
LAYER_1
 10
15.58232530109243
 20
9.372716865483868
 30
0.0
  0
VERTEX
  5
34B
  8
LAYER_1
 10
15.32643459879218
 20
9.700136256550296
 30
0.0
  0
VERTEX
  5
34C
  8
LAYER_1
 10
15.06065902216459
 20
10.01863828720186
 30
0.0
  0
VERTEX
  5
34D
  8
LAYER_1
 10
14.78522327519428
 20
10.32788303892426
 30
0.0
  0
VERTEX
  5
34E
  8
LAYER_1
 10
14.50035206186589
 20
10.62753059320319
 30
0.0
  0
VERTEX
  5
34F
  8
LAYER_1
 10
14.20627008616404
 20
10.91724103152435
 30
0.0
  0
VERTEX
  5
350
  8
LAYER_1
 10
13.90320205207336
 20
11.19667443537345
 30
0.0
  0
VERTEX
  5
351
  8
LAYER_1
 10
13.59137266357848
 20
11.46549088623618
 30
0.0
  0
VERTEX
  5
352
  8
LAYER_1
 10
13.27100662466402
 20
11.72335046559823
 30
0.0
  0
VERTEX
  5
353
  8
LAYER_1
 10
12.94232863931461
 20
11.96991325494532
 30
0.0
  0
VERTEX
  5
354
  8
LAYER_1
 10
12.60556341151488
 20
12.20483933576313
 30
0.0
  0
VERTEX
  5
355
  8
LAYER_1
 10
12.26093564524946
 20
12.42778878953738
 30
0.0
  0
VERTEX
  5
356
  8
LAYER_1
 10
11.90867004450297
 20
12.63842169775374
 30
0.0
  0
VERTEX
  5
357
  8
LAYER_1
 10
11.54899131326004
 20
12.83639814189794
 30
0.0
  0
VERTEX
  5
358
  8
LAYER_1
 10
11.18212415550529
 20
13.02137820345565
 30
0.0
  0
VERTEX
  5
359
  8
LAYER_1
 10
10.79701022229683
 20
13.19761157403422
 30
0.0
  0
VERTEX
  5
35A
  8
LAYER_1
 10
10.39572951868294
 20
13.36357221175011
 30
0.0
  0
VERTEX
  5
35B
  8
LAYER_1
 10
9.979590975382521
 20
13.51922510051102
 30
0.0
  0
VERTEX
  5
35C
  8
LAYER_1
 10
9.549903523114455
 20
13.66453522422461
 30
0.0
  0
VERTEX
  5
35D
  8
LAYER_1
 10
9.107976092597633
 20
13.79946756679858
 30
0.0
  0
VERTEX
  5
35E
  8
LAYER_1
 10
8.655117614550942
 20
13.92398711214061
 30
0.0
  0
VERTEX
  5
35F
  8
LAYER_1
 10
8.192637019693276
 20
14.03805884415839
 30
0.0
  0
VERTEX
  5
360
  8
LAYER_1
 10
7.721843238743515
 20
14.14164774675959
 30
0.0
  0
VERTEX
  5
361
  8
LAYER_1
 10
7.244045202420553
 20
14.2347188038519
 30
0.0
  0
VERTEX
  5
362
  8
LAYER_1
 10
6.760551841443279
 20
14.31723699934301
 30
0.0
  0
VERTEX
  5
363
  8
LAYER_1
 10
6.27267208653058
 20
14.38916731714059
 30
0.0
  0
VERTEX
  5
364
  8
LAYER_1
 10
5.781714868401347
 20
14.45047474115233
 30
0.0
  0
VERTEX
  5
365
  8
LAYER_1
 10
5.288989117774467
 20
14.50112425528592
 30
0.0
  0
VERTEX
  5
366
  8
LAYER_1
 10
4.795803765368827
 20
14.54108084344903
 30
0.0
  0
VERTEX
  5
367
  8
LAYER_1
 10
4.303467741903319
 20
14.57030948954936
 30
0.0
  0
VERTEX
  5
368
  8
LAYER_1
 10
3.81328997809683
 20
14.58877517749458
 30
0.0
  0
VERTEX
  5
369
  8
LAYER_1
 10
3.326579404668249
 20
14.59644289119238
 30
0.0
  0
VERTEX
  5
36A
  8
LAYER_1
 10
2.844644952336465
 20
14.59327761455043
 30
0.0
  0
VERTEX
  5
36B
  8
LAYER_1
 10
2.368795551820366
 20
14.57924433147644
 30
0.0
  0
VERTEX
  5
36C
  8
LAYER_1
 10
1.900340133838841
 20
14.55430802587807
 30
0.0
  0
VERTEX
  5
36D
  8
LAYER_1
 10
1.440587629110778
 20
14.51843368166301
 30
0.0
  0
VERTEX
  5
36E
  8
LAYER_1
 10
0.9908469683550676
 20
14.47158628273895
 30
0.0
  0
VERTEX
  5
36F
  8
LAYER_1
 10
0.5524270822905968
 20
14.41373081301356
 30
0.0
  0
VERTEX
  5
370
  8
LAYER_1
 10
0.1266369016362551
 20
14.34483225639454
 30
0.0
  0
VERTEX
  5
371
  8
LAYER_1
 10
-0.2852146428890691
 20
14.26485559678956
 30
0.0
  0
VERTEX
  5
372
  8
LAYER_1
 10
-0.681818620566487
 20
14.17376581810631
 30
0.0
  0
VERTEX
  5
373
  8
LAYER_1
 10
-1.06186610067711
 20
14.07152790425248
 30
0.0
  0
VERTEX
  5
374
  8
LAYER_1
 10
-1.424048152502049
 20
13.95810683913573
 30
0.0
  0
VERTEX
  5
375
  8
LAYER_1
 10
-1.767055845322416
 20
13.83346760666377
 30
0.0
  0
VERTEX
  5
376
  8
LAYER_1
 10
-2.089580248419321
 20
13.69757519074427
 30
0.0
  0
VERTEX
  5
377
  8
LAYER_1
 10
-2.390312431073877
 20
13.55039457528492
 30
0.0
  0
VERTEX
  5
378
  8
LAYER_1
 10
-2.667943462567195
 20
13.39189074419339
 30
0.0
  0
VERTEX
  5
379
  8
LAYER_1
 10
-3.765138853327173
 20
12.713786700404
 30
0.0
  0
VERTEX
  5
37A
  8
LAYER_1
 10
-11.91719487298278
 20
3.910115165898048
 30
0.0
  0
VERTEX
  5
37B
  8
LAYER_1
 10
-12.66137521426917
 20
2.372843715862388
 30
0.0
  0
VERTEX
  5
37C
  8
LAYER_1
 10
-12.84746923516742
 20
1.963885244850623
 30
0.0
  0
VERTEX
  5
37D
  8
LAYER_1
 10
-13.00527704156485
 20
1.561387747220115
 30
0.0
  0
VERTEX
  5
37E
  8
LAYER_1
 10
-13.13452590414541
 20
1.161577346907563
 30
0.0
  0
VERTEX
  5
37F
  8
LAYER_1
 10
-13.23494309359306
 20
0.7606801678496637
 30
0.0
  0
VERTEX
  5
380
  8
LAYER_1
 10
-13.27425458298078
 20
0.5586447000214274
 30
0.0
  0
VERTEX
  5
381
  8
LAYER_1
 10
-13.30625588059175
 20
0.3549223339831162
 30
0.0
  0
VERTEX
  5
382
  8
LAYER_1
 10
-13.33091289526148
 20
0.1490413352268174
 30
0.0
  0
VERTEX
  5
383
  8
LAYER_1
 10
-13.34819153582546
 20
-0.0594700307553817
 30
0.0
  0
VERTEX
  5
384
  8
LAYER_1
 10
-13.35805771111918
 20
-0.2710834984713939
 30
0.0
  0
VERTEX
  5
385
  8
LAYER_1
 10
-13.36047732997813
 20
-0.4862708024291319
 30
0.0
  0
VERTEX
  5
386
  8
LAYER_1
 10
-13.34284053373373
 20
-0.9292538571014362
 30
0.0
  0
VERTEX
  5
387
  8
LAYER_1
 10
-13.29500841777621
 20
-1.392193070835597
 30
0.0
  0
VERTEX
  5
388
  8
LAYER_1
 10
-13.21670825278953
 20
-1.878862319694915
 30
0.0
  0
VERTEX
  5
389
  8
LAYER_1
 10
-13.10766730945766
 20
-2.393035479742692
 30
0.0
  0
VERTEX
  5
38A
  8
LAYER_1
 10
-12.96761285846454
 20
-2.938486427042232
 30
0.0
  0
VERTEX
  5
38B
  8
LAYER_1
 10
-12.79627217049414
 20
-3.518989037656835
 30
0.0
  0
VERTEX
  5
38C
  8
LAYER_1
 10
-12.59337251623041
 20
-4.138317187649803
 30
0.0
  0
VERTEX
  5
38D
  8
LAYER_1
 10
-12.35864116635732
 20
-4.800244753084439
 30
0.0
  0
VERTEX
  5
38E
  8
LAYER_1
 10
-12.09180539155883
 20
-5.508545610024044
 30
0.0
  0
VERTEX
  5
38F
  8
LAYER_1
 10
-11.69256425352676
 20
-6.523530601813281
 30
0.0
  0
VERTEX
  5
390
  8
LAYER_1
 10
-11.35142119608929
 20
-7.336263889033016
 30
0.0
  0
VERTEX
  5
391
  8
LAYER_1
 10
-11.19612503615284
 20
-7.676993915522276
 30
0.0
  0
VERTEX
  5
392
  8
LAYER_1
 10
-11.04753970263623
 20
-7.97941034238071
 30
0.0
  0
VERTEX
  5
393
  8
LAYER_1
 10
-10.90306063096317
 20
-8.247596278445501
 30
0.0
  0
VERTEX
  5
394
  8
LAYER_1
 10
-10.7600832565574
 20
-8.485634832553828
 30
0.0
  0
VERTEX
  5
395
  8
LAYER_1
 10
-10.61600301484265
 20
-8.697609113542876
 30
0.0
  0
VERTEX
  5
396
  8
LAYER_1
 10
-10.46821534124265
 20
-8.887602230249827
 30
0.0
  0
VERTEX
  5
397
  8
LAYER_1
 10
-10.31411567118112
 20
-9.059697291511867
 30
0.0
  0
VERTEX
  5
398
  8
LAYER_1
 10
-10.15109944008179
 20
-9.217977406166174
 30
0.0
  0
VERTEX
  5
399
  8
LAYER_1
 10
-9.976562083368387
 20
-9.366525683049932
 30
0.0
  0
VERTEX
  5
39A
  8
LAYER_1
 10
-9.787899036464644
 20
-9.509425231000325
 30
0.0
  0
VERTEX
  5
39B
  8
LAYER_1
 10
-9.582505734794289
 20
-9.650759158854536
 30
0.0
  0
VERTEX
  5
39C
  8
LAYER_1
 10
-9.357777613781046
 20
-9.794610575449745
 30
0.0
  0
VERTEX
  5
39D
  8
LAYER_1
 10
-9.036472552323488
 20
-10.00240924569032
 30
0.0
  0
VERTEX
  5
39E
  8
LAYER_1
 10
-8.667128588916235
 20
-10.25459574560314
 30
0.0
  0
VERTEX
  5
39F
  8
LAYER_1
 10
-7.836564187937069
 20
-10.85337097621959
 30
0.0
  0
VERTEX
  5
3A0
  8
LAYER_1
 10
-6.970564874212407
 20
-11.5134137508471
 30
0.0
  0
VERTEX
  5
3A1
  8
LAYER_1
 10
-6.556927269873283
 20
-11.84218468077377
 30
0.0
  0
VERTEX
  5
3A2
  8
LAYER_1
 10
-6.173611111111107
 20
-12.15720155303371
 30
0.0
  0
VERTEX
  5
3A3
  8
LAYER_1
 10
-5.629802322984602
 20
-12.60833227530007
 30
0.0
  0
VERTEX
  5
3A4
  8
LAYER_1
 10
-5.119284317802938
 20
-13.02192378206109
 30
0.0
  0
VERTEX
  5
3A5
  8
LAYER_1
 10
-4.640077659620231
 20
-13.39911736527006
 30
0.0
  0
VERTEX
  5
3A6
  8
LAYER_1
 10
-4.190202912490596
 20
-13.74105431688023
 30
0.0
  0
VERTEX
  5
3A7
  8
LAYER_1
 10
-3.767680640468151
 20
-14.0488759288449
 30
0.0
  0
VERTEX
  5
3A8
  8
LAYER_1
 10
-3.370531407607011
 20
-14.32372349311732
 30
0.0
  0
VERTEX
  5
3A9
  8
LAYER_1
 10
-2.996775777961294
 20
-14.56673830165079
 30
0.0
  0
VERTEX
  5
3AA
  8
LAYER_1
 10
-2.644434315585116
 20
-14.77906164639856
 30
0.0
  0
VERTEX
  5
3AB
  8
LAYER_1
 10
-2.311527584532592
 20
-14.96183481931392
 30
0.0
  0
VERTEX
  5
3AC
  8
LAYER_1
 10
-1.99607614885784
 20
-15.11619911235013
 30
0.0
  0
VERTEX
  5
3AD
  8
LAYER_1
 10
-1.696100572614975
 20
-15.24329581746048
 30
0.0
  0
VERTEX
  5
3AE
  8
LAYER_1
 10
-1.409621419858114
 20
-15.34426622659824
 30
0.0
  0
VERTEX
  5
3AF
  8
LAYER_1
 10
-1.134659254641374
 20
-15.42025163171667
 30
0.0
  0
VERTEX
  5
3B0
  8
LAYER_1
 10
-0.8692346410188705
 20
-15.47239332476906
 30
0.0
  0
VERTEX
  5
3B1
  8
LAYER_1
 10
-0.61136814304472
 20
-15.50183259770868
 30
0.0
  0
SEQEND
  5
3B2
  8
LAYER_1
  0
POLYLINE
  5
49
  8
LAYER_1
 66
     1
 10
0.0
 20
0.0
 30
0.0
 70
     1
  0
VERTEX
  5
3B3
  8
LAYER_1
 10
40.7816639158264
 20
-15.16944444444444
 30
0.0
  0
VERTEX
  5
3B4
  8
LAYER_1
 10
41.11551889357686
 20
-15.16245353828824
 30
0.0
  0
VERTEX
  5
3B5
  8
LAYER_1
 10
41.43419474015346
 20
-15.14063027848562
 30
0.0
  0
VERTEX
  5
3B6
  8
LAYER_1
 10
41.74006551337776
 20
-15.10269885303555
 30
0.0
  0
VERTEX
  5
3B7
  8
LAYER_1
 10
42.03550527107138
 20
-15.047383449937
 30
0.0
  0
VERTEX
  5
3B8
  8
LAYER_1
 10
42.32288807105589
 20
-14.97340825718893
 30
0.0
  0
VERTEX
  5
3B9
  8
LAYER_1
 10
42.6045879711529
 20
-14.87949746279031
 30
0.0
  0
VERTEX
  5
3BA
  8
LAYER_1
 10
42.88297902918398
 20
-14.76437525474012
 30
0.0
  0
VERTEX
  5
3BB
  8
LAYER_1
 10
43.16043530297074
 20
-14.62676582103731
 30
0.0
  0
VERTEX
  5
3BC
  8
LAYER_1
 10
43.43933085033477
 20
-14.46539334968086
 30
0.0
  0
VERTEX
  5
3BD
  8
LAYER_1
 10
43.72203972909764
 20
-14.27898202866974
 30
0.0
  0
VERTEX
  5
3BE
  8
LAYER_1
 10
44.01093599708096
 20
-14.06625604600291
 30
0.0
  0
VERTEX
  5
3BF
  8
LAYER_1
 10
44.30839371210632
 20
-13.82593958967934
 30
0.0
  0
VERTEX
  5
3C0
  8
LAYER_1
 10
44.61678693199531
 20
-13.556756847698
 30
0.0
  0
VERTEX
  5
3C1
  8
LAYER_1
 10
44.93848971456953
 20
-13.25743200805786
 30
0.0
  0
VERTEX
  5
3C2
  8
LAYER_1
 10
45.27587611765054
 20
-12.92668925875788
 30
0.0
  0
VERTEX
  5
3C3
  8
LAYER_1
 10
45.63132019905997
 20
-12.56325278779703
 30
0.0
  0
VERTEX
  5
3C4
  8
LAYER_1
 10
46.01169872322313
 20
-12.1600331077954
 30
0.0
  0
VERTEX
  5
3C5
  8
LAYER_1
 10
46.39367556552968
 20
-11.74076085397118
 30
0.0
  0
VERTEX
  5
3C6
  8
LAYER_1
 10
46.7768073316595
 20
-11.30614960567684
 30
0.0
  0
VERTEX
  5
3C7
  8
LAYER_1
 10
47.16065062729241
 20
-10.85691294226485
 30
0.0
  0
VERTEX
  5
3C8
  8
LAYER_1
 10
47.54476205810825
 20
-10.39376444308769
 30
0.0
  0
VERTEX
  5
3C9
  8
LAYER_1
 10
47.9286982297869
 20
-9.91741768749782
 30
0.0
  0
VERTEX
  5
3CA
  8
LAYER_1
 10
48.31201574800819
 20
-9.428586254847723
 30
0.0
  0
VERTEX
  5
3CB
  8
LAYER_1
 10
48.69427121845196
 20
-8.927983724489863
 30
0.0
  0
VERTEX
  5
3CC
  8
LAYER_1
 10
49.07502124679806
 20
-8.416323675776717
 30
0.0
  0
VERTEX
  5
3CD
  8
LAYER_1
 10
49.45382243872634
 20
-7.894319688060754
 30
0.0
  0
VERTEX
  5
3CE
  8
LAYER_1
 10
50.20380473604884
 20
-6.822134213030266
 30
0.0
  0
VERTEX
  5
3CF
  8
LAYER_1
 10
50.94067095585821
 20
-5.717135934218174
 30
0.0
  0
VERTEX
  5
3D0
  8
LAYER_1
 10
51.66087394359324
 20
-4.585033486444255
 30
0.0
  0
VERTEX
  5
3D1
  8
LAYER_1
 10
52.36086654469272
 20
-3.431535504528281
 30
0.0
  0
VERTEX
  5
3D2
  8
LAYER_1
 10
53.0371016045954
 20
-2.262350623290027
 30
0.0
  0
VERTEX
  5
3D3
  8
LAYER_1
 10
53.68603196874006
 20
-1.083187477549268
 30
0.0
  0
VERTEX
  5
3D4
  8
LAYER_1
 10
54.30411048256548
 20
0.1002452978742228
 30
0.0
  0
VERTEX
  5
3D5
  8
LAYER_1
 10
54.60047180980811
 20
0.6917788483358124
 30
0.0
  0
VERTEX
  5
3D6
  8
LAYER_1
 10
54.88778999151045
 20
1.282239068160669
 30
0.0
  0
VERTEX
  5
3D7
  8
LAYER_1
 10
55.16562163335236
 20
1.870912377996321
 30
0.0
  0
VERTEX
  5
3D8
  8
LAYER_1
 10
55.43352334101372
 20
2.457085198490298
 30
0.0
  0
VERTEX
  5
3D9
  8
LAYER_1
 10
55.69105172017434
 20
3.040043950290126
 30
0.0
  0
VERTEX
  5
3DA
  8
LAYER_1
 10
55.93776337651408
 20
3.619075054043334
 30
0.0
  0
VERTEX
  5
3DB
  8
LAYER_1
 10
56.17321491571279
 20
4.19346493039745
 30
0.0
  0
VERTEX
  5
3DC
  8
LAYER_1
 10
56.3969629434503
 20
4.762500000000003
 30
0.0
  0
VERTEX
  5
3DD
  8
LAYER_1
 10
57.99007165259162
 20
9.269389949459473
 30
0.0
  0
VERTEX
  5
3DE
  8
LAYER_1
 10
58.06190308979702
 20
9.58069605756043
 30
0.0
  0
VERTEX
  5
3DF
  8
LAYER_1
 10
58.09658160792726
 20
9.796954506099397
 30
0.0
  0
VERTEX
  5
3E0
  8
LAYER_1
 10
58.09603768028872
 20
9.867990904887908
 30
0.0
  0
VERTEX
  5
3E1
  8
LAYER_1
 10
58.08146451242081
 20
9.913525445011643
 30
0.0
  0
VERTEX
  5
3E2
  8
LAYER_1
 10
58.06842310814453
 20
9.92654827393107
 30
0.0
  0
VERTEX
  5
3E3
  8
LAYER_1
 10
58.05128176750334
 20
9.93297814521252
 30
0.0
  0
VERTEX
  5
3E4
  8
LAYER_1
 10
58.00390910871613
 20
9.925769024232437
 30
0.0
  0
VERTEX
  5
3E5
  8
LAYER_1
 10
57.93776619923897
 20
9.891318100813312
 30
0.0
  0
VERTEX
  5
3E6
  8
LAYER_1
 10
57.85127270225167
 20
9.829045393697047
 30
0.0
  0
VERTEX
  5
3E7
  8
LAYER_1
 10
57.61091259846589
 20
9.618714703340743
 30
0.0
  0
VERTEX
  5
3E8
  8
LAYER_1
 10
56.81645052068419
 20
8.83867274290646
 30
0.0
  0
VERTEX
  5
3E9
  8
LAYER_1
 10
56.49630111766388
 20
8.532809780126499
 30
0.0
  0
VERTEX
  5
3EA
  8
LAYER_1
 10
56.15252003456298
 20
8.232613966147184
 30
0.0
  0
VERTEX
  5
3EB
  8
LAYER_1
 10
55.78279294684015
 20
7.936859899027992
 30
0.0
  0
VERTEX
  5
3EC
  8
LAYER_1
 10
55.38480552995402
 20
7.644322176828396
 30
0.0
  0
VERTEX
  5
3ED
  8
LAYER_1
 10
54.95624345936328
 20
7.353775397607872
 30
0.0
  0
VERTEX
  5
3EE
  8
LAYER_1
 10
54.49479241052657
 20
7.063994159425893
 30
0.0
  0
VERTEX
  5
3EF
  8
LAYER_1
 10
53.99813805890254
 20
6.773753060341934
 30
0.0
  0
VERTEX
  5
3F0
  8
LAYER_1
 10
53.46396607994986
 20
6.481826698415469
 30
0.0
  0
VERTEX
  5
3F1
  8
LAYER_1
 10
52.88996214912718
 20
6.186989671705974
 30
0.0
  0
VERTEX
  5
3F2
  8
LAYER_1
 10
52.27381194189315
 20
5.888016578272922
 30
0.0
  0
VERTEX
  5
3F3
  8
LAYER_1
 10
51.61320113370643
 20
5.583682016175788
 30
0.0
  0
VERTEX
  5
3F4
  8
LAYER_1
 10
50.90581540002569
 20
5.272760583474048
 30
0.0
  0
VERTEX
  5
3F5
  8
LAYER_1
 10
50.14934041630956
 20
4.954026878227174
 30
0.0
  0
VERTEX
  5
3F6
  8
LAYER_1
 10
49.34146185801671
 20
4.626255498494642
 30
0.0
  0
VERTEX
  5
3F7
  8
LAYER_1
 10
48.4798654006058
 20
4.288221042335927
 30
0.0
  0
VERTEX
  5
3F8
  8
LAYER_1
 10
47.56223671953549
 20
3.938698107810502
 30
0.0
  0
VERTEX
  5
3F9
  8
LAYER_1
 10
46.24120828840392
 20
3.427670352352127
 30
0.0
  0
VERTEX
  5
3FA
  8
LAYER_1
 10
44.96189122449896
 20
2.902981966240104
 30
0.0
  0
VERTEX
  5
3FB
  8
LAYER_1
 10
43.72299338599492
 20
2.363846685098925
 30
0.0
  0
VERTEX
  5
3FC
  8
LAYER_1
 10
43.11829788194773
 20
2.088615751275054
 30
0.0
  0
VERTEX
  5
3FD
  8
LAYER_1
 10
42.52322263106615
 20
1.809478244553079
 30
0.0
  0
VERTEX
  5
3FE
  8
LAYER_1
 10
41.93760611562196
 20
1.526335881886061
 30
0.0
  0
VERTEX
  5
3FF
  8
LAYER_1
 10
41.36128681788696
 20
1.239090380227059
 30
0.0
  0
VERTEX
  5
400
  8
LAYER_1
 10
40.79410322013294
 20
0.9476434565291363
 30
0.0
  0
VERTEX
  5
401
  8
LAYER_1
 10
40.23589380463169
 20
0.6518968277453538
 30
0.0
  0
VERTEX
  5
402
  8
LAYER_1
 10
39.686497053655
 20
0.3517522108287729
 30
0.0
  0
VERTEX
  5
403
  8
LAYER_1
 10
39.14575144947466
 20
0.0471113227324549
 30
0.0
  0
VERTEX
  5
404
  8
LAYER_1
 10
38.61349547436247
 20
-0.2621241195905388
 30
0.0
  0
VERTEX
  5
405
  8
LAYER_1
 10
38.08956761059019
 20
-0.5760523991871471
 30
0.0
  0
VERTEX
  5
406
  8
LAYER_1
 10
37.57380634042964
 20
-0.8947717991043085
 30
0.0
  0
VERTEX
  5
407
  8
LAYER_1
 10
37.06605014615261
 20
-1.218380602388962
 30
0.0
  0
VERTEX
  5
408
  8
LAYER_1
 10
36.56613751003088
 20
-1.546977092088045
 30
0.0
  0
VERTEX
  5
409
  8
LAYER_1
 10
36.07390691433624
 20
-1.880659551248498
 30
0.0
  0
VERTEX
  5
40A
  8
LAYER_1
 10
35.58919684134049
 20
-2.219526262917259
 30
0.0
  0
VERTEX
  5
40B
  8
LAYER_1
 10
35.11184577331542
 20
-2.563675510141266
 30
0.0
  0
VERTEX
  5
40C
  8
LAYER_1
 10
34.64169219253282
 20
-2.913205575967458
 30
0.0
  0
VERTEX
  5
40D
  8
LAYER_1
 10
34.17857458126446
 20
-3.268214743442774
 30
0.0
  0
VERTEX
  5
40E
  8
LAYER_1
 10
33.72233142178216
 20
-3.628801295614152
 30
0.0
  0
VERTEX
  5
40F
  8
LAYER_1
 10
33.2728011963577
 20
-3.995063515528532
 30
0.0
  0
VERTEX
  5
410
  8
LAYER_1
 10
32.82982238726287
 20
-4.367099686232851
 30
0.0
  0
VERTEX
  5
411
  8
LAYER_1
 10
32.39323347676945
 20
-4.745008090774049
 30
0.0
  0
VERTEX
  5
412
  8
LAYER_1
 10
31.96287294714925
 20
-5.128887012199064
 30
0.0
  0
VERTEX
  5
413
  8
LAYER_1
 10
31.53857928067405
 20
-5.518834733554835
 30
0.0
  0
VERTEX
  5
414
  8
LAYER_1
 10
31.12019095961564
 20
-5.914949537888299
 30
0.0
  0
VERTEX
  5
415
  8
LAYER_1
 10
30.70754646624582
 20
-6.317329708246398
 30
0.0
  0
VERTEX
  5
416
  8
LAYER_1
 10
30.22260277641885
 20
-6.807640354815698
 30
0.0
  0
VERTEX
  5
417
  8
LAYER_1
 10
29.73505801547114
 20
-7.32028657293416
 30
0.0
  0
VERTEX
  5
418
  8
LAYER_1
 10
29.25017362809447
 20
-7.848407205236173
 30
0.0
  0
VERTEX
  5
419
  8
LAYER_1
 10
28.7732110589806
 20
-8.385141094356124
 30
0.0
  0
VERTEX
  5
41A
  8
LAYER_1
 10
28.30943175282132
 20
-8.923627082928403
 30
0.0
  0
VERTEX
  5
41B
  8
LAYER_1
 10
27.86409715430841
 20
-9.457004013587403
 30
0.0
  0
VERTEX
  5
41C
  8
LAYER_1
 10
27.44246870813363
 20
-9.97841072896751
 30
0.0
  0
VERTEX
  5
41D
  8
LAYER_1
 10
27.04980785898878
 20
-10.48098607170311
 30
0.0
  0
VERTEX
  5
41E
  8
LAYER_1
 10
26.69137605156561
 20
-10.9578688844286
 30
0.0
  0
VERTEX
  5
41F
  8
LAYER_1
 10
26.37243473055591
 20
-11.40219800977837
 30
0.0
  0
VERTEX
  5
420
  8
LAYER_1
 10
26.09824534065146
 20
-11.8071122903868
 30
0.0
  0
VERTEX
  5
421
  8
LAYER_1
 10
25.87406932654403
 20
-12.16575056888829
 30
0.0
  0
VERTEX
  5
422
  8
LAYER_1
 10
25.70516813292539
 20
-12.47125168791723
 30
0.0
  0
VERTEX
  5
423
  8
LAYER_1
 10
25.64308979526556
 20
-12.60193170095273
 30
0.0
  0
VERTEX
  5
424
  8
LAYER_1
 10
25.59680320448734
 20
-12.71675449010799
 30
0.0
  0
VERTEX
  5
425
  8
LAYER_1
 10
25.5669660411772
 20
-12.81486241071231
 30
0.0
  0
VERTEX
  5
426
  8
LAYER_1
 10
25.55423598592162
 20
-12.89539781809498
 30
0.0
  0
VERTEX
  5
427
  8
LAYER_1
 10
25.55927071930708
 20
-12.95750306758531
 30
0.0
  0
VERTEX
  5
428
  8
LAYER_1
 10
25.58272792192004
 20
-13.00032051451259
 30
0.0
  0
VERTEX
  5
429
  8
LAYER_1
 10
25.60667951603475
 20
-13.0135906575348
 30
0.0
  0
VERTEX
  5
42A
  8
LAYER_1
 10
25.64440442862507
 20
-13.01997493597842
 30
0.0
  0
VERTEX
  5
42B
  8
LAYER_1
 10
25.75793016536446
 20
-13.01306417004661
 30
0.0
  0
VERTEX
  5
42C
  8
LAYER_1
 10
25.91681704440207
 20
-12.98154475855064
 30
0.0
  0
VERTEX
  5
42D
  8
LAYER_1
 10
26.11457697800177
 20
-12.92737324332399
 30
0.0
  0
VERTEX
  5
42E
  8
LAYER_1
 10
26.34472187842745
 20
-12.85250616620012
 30
0.0
  0
VERTEX
  5
42F
  8
LAYER_1
 10
26.60076365794298
 20
-12.75890006901251
 30
0.0
  0
VERTEX
  5
430
  8
LAYER_1
 10
26.87621422881223
 20
-12.64851149359463
 30
0.0
  0
VERTEX
  5
431
  8
LAYER_1
 10
27.16458550329908
 20
-12.52329698177995
 30
0.0
  0
VERTEX
  5
432
  8
LAYER_1
 10
27.63556985419563
 20
-12.31453231120627
 30
0.0
  0
VERTEX
  5
433
  8
LAYER_1
 10
27.83352939632543
 20
-12.23358307643841
 30
0.0
  0
VERTEX
  5
434
  8
LAYER_1
 10
28.01278958080222
 20
-12.1687768875916
 30
0.0
  0
VERTEX
  5
435
  8
LAYER_1
 10
28.17809220604546
 20
-12.12050447884717
 30
0.0
  0
VERTEX
  5
436
  8
LAYER_1
 10
28.33417907047464
 20
-12.08915658438643
 30
0.0
  0
VERTEX
  5
437
  8
LAYER_1
 10
28.48579197250922
 20
-12.07512393839067
 30
0.0
  0
VERTEX
  5
438
  8
LAYER_1
 10
28.63767271056867
 20
-12.07879727504123
 30
0.0
  0
VERTEX
  5
439
  8
LAYER_1
 10
28.79456308307246
 20
-12.1005673285194
 30
0.0
  0
VERTEX
  5
43A
  8
LAYER_1
 10
28.96120488844008
 20
-12.14082483300651
 30
0.0
  0
VERTEX
  5
43B
  8
LAYER_1
 10
29.14233992509099
 20
-12.19996052268385
 30
0.0
  0
VERTEX
  5
43C
  8
LAYER_1
 10
29.34270999144466
 20
-12.27836513173274
 30
0.0
  0
VERTEX
  5
43D
  8
LAYER_1
 10
29.8201224069382
 20
-12.49454404467043
 30
0.0
  0
VERTEX
  5
43E
  8
LAYER_1
 10
30.43137652227647
 20
-12.79248744527005
 30
0.0
  0
VERTEX
  5
43F
  8
LAYER_1
 10
30.64489651476745
 20
-12.89188871083191
 30
0.0
  0
VERTEX
  5
440
  8
LAYER_1
 10
30.88460642863056
 20
-12.99318810219475
 30
0.0
  0
VERTEX
  5
441
  8
LAYER_1
 10
31.43408376563349
 20
-13.19912165239506
 30
0.0
  0
VERTEX
  5
442
  8
LAYER_1
 10
32.0627840236059
 20
-13.40556887601432
 30
0.0
  0
VERTEX
  5
443
  8
LAYER_1
 10
32.75368269286842
 20
-13.60781055319586
 30
0.0
  0
VERTEX
  5
444
  8
LAYER_1
 10
33.4897552637417
 20
-13.80112746408305
 30
0.0
  0
VERTEX
  5
445
  8
LAYER_1
 10
34.25397722654638
 20
-13.9808003888192
 30
0.0
  0
VERTEX
  5
446
  8
LAYER_1
 10
35.02932407160308
 20
-14.14211010754767
 30
0.0
  0
VERTEX
  5
447
  8
LAYER_1
 10
35.79877128923246
 20
-14.28033740041179
 30
0.0
  0
VERTEX
  5
448
  8
LAYER_1
 10
39.31837591179826
 20
-14.85911665253898
 30
0.0
  0
VERTEX
  5
449
  8
LAYER_1
 10
39.47353980775097
 20
-15.0142805484917
 30
0.0
  0
VERTEX
  5
44A
  8
LAYER_1
 10
39.52824105953889
 20
-15.04544970220018
 30
0.0
  0
VERTEX
  5
44B
  8
LAYER_1
 10
39.62476280596417
 20
-15.0745277799671
 30
0.0
  0
VERTEX
  5
44C
  8
LAYER_1
 10
39.75773969423975
 20
-15.10087836737548
 30
0.0
  0
VERTEX
  5
44D
  8
LAYER_1
 10
39.92180637157863
 20
-15.12386505000832
 30
0.0
  0
VERTEX
  5
44E
  8
LAYER_1
 10
40.32174768229811
 20
-15.15720104327942
 30
0.0
  0
SEQEND
  5
44F
  8
LAYER_1
  0
POLYLINE
  5
4A
  8
LAYER_1
 66
     1
 10
0.0
 20
0.0
 30
0.0
 70
     1
  0
VERTEX
  5
450
  8
LAYER_1
 10
-31.32145207847967
 20
-8.819444444444443
 30
0.0
  0
VERTEX
  5
451
  8
LAYER_1
 10
-31.16741089470256
 20
-8.808069222936098
 30
0.0
  0
VERTEX
  5
452
  8
LAYER_1
 10
-30.94667047813347
 20
-8.775687859790004
 30
0.0
  0
VERTEX
  5
453
  8
LAYER_1
 10
-30.34562932420715
 20
-8.658372516858254
 30
0.0
  0
VERTEX
  5
454
  8
LAYER_1
 10
-29.59940337187636
 20
-8.48843003219653
 30
0.0
  0
VERTEX
  5
455
  8
LAYER_1
 10
-28.78906737631677
 20
-8.286792022352172
 30
0.0
  0
VERTEX
  5
456
  8
LAYER_1
 10
-27.99569609270403
 20
-8.074390103872526
 30
0.0
  0
VERTEX
  5
457
  8
LAYER_1
 10
-27.3003642762138
 20
-7.872155893304933
 30
0.0
  0
VERTEX
  5
458
  8
LAYER_1
 10
-27.01479902913202
 20
-7.7813928086592
 30
0.0
  0
VERTEX
  5
459
  8
LAYER_1
 10
-26.78414668202173
 20
-7.701021007196735
 30
0.0
  0
VERTEX
  5
45A
  8
LAYER_1
 10
-26.61854157927991
 20
-7.633656940985952
 30
0.0
  0
VERTEX
  5
45B
  8
LAYER_1
 10
-26.52811806530351
 20
-7.581917062095272
 30
0.0
  0
VERTEX
  5
45C
  8
LAYER_1
 10
-26.52473430687376
 20
-7.560896213140644
 30
0.0
  0
VERTEX
  5
45D
  8
LAYER_1
 10
-26.53611405530636
 20
-7.517769591993098
 30
0.0
  0
VERTEX
  5
45E
  8
LAYER_1
 10
-26.60042757090268
 20
-7.369961518033878
 30
0.0
  0
VERTEX
  5
45F
  8
LAYER_1
 10
-26.71558560838068
 20
-7.148017810046889
 30
0.0
  0
VERTEX
  5
460
  8
LAYER_1
 10
-26.87611516402857
 20
-6.861463437861402
 30
0.0
  0
VERTEX
  5
461
  8
LAYER_1
 10
-27.31139681498685
 20
-6.132622580212034
 30
0.0
  0
VERTEX
  5
462
  8
LAYER_1
 10
-27.86248849408317
 20
-5.259638703719965
 30
0.0
  0
VERTEX
  5
463
  8
LAYER_1
 10
-28.15575119560575
 20
-4.796640054310144
 30
0.0
  0
VERTEX
  5
464
  8
LAYER_1
 10
-28.43668785324142
 20
-4.335424848623812
 30
0.0
  0
VERTEX
  5
465
  8
LAYER_1
 10
-28.69862432149303
 20
-3.888181000922631
 30
0.0
  0
VERTEX
  5
466
  8
LAYER_1
 10
-28.93488645486336
 20
-3.467096425468267
 30
0.0
  0
VERTEX
  5
467
  8
LAYER_1
 10
-29.13880010785524
 20
-3.084359036522384
 30
0.0
  0
VERTEX
  5
468
  8
LAYER_1
 10
-29.30369113497146
 20
-2.752156748346648
 30
0.0
  0
VERTEX
  5
469
  8
LAYER_1
 10
-29.42288539071485
 20
-2.482677475202722
 30
0.0
  0
VERTEX
  5
46A
  8
LAYER_1
 10
-29.48970872958822
 20
-2.288109131352272
 30
0.0
  0
VERTEX
  5
46B
  8
LAYER_1
 10
-29.51849062071724
 20
-2.193633188733661
 30
0.0
  0
VERTEX
  5
46C
  8
LAYER_1
 10
-29.55659604615852
 20
-2.102832469216922
 30
0.0
  0
VERTEX
  5
46D
  8
LAYER_1
 10
-29.60421674564783
 20
-2.015576997590497
 30
0.0
  0
VERTEX
  5
46E
  8
LAYER_1
 10
-29.66154445892089
 20
-1.931736798642823
 30
0.0
  0
VERTEX
  5
46F
  8
LAYER_1
 10
-29.72877092571346
 20
-1.851181897162341
 30
0.0
  0
VERTEX
  5
470
  8
LAYER_1
 10
-29.80608788576128
 20
-1.773782317937489
 30
0.0
  0
VERTEX
  5
471
  8
LAYER_1
 10
-29.89368707880008
 20
-1.699408085756708
 30
0.0
  0
VERTEX
  5
472
  8
LAYER_1
 10
-29.99176024456561
 20
-1.627929225408436
 30
0.0
  0
VERTEX
  5
473
  8
LAYER_1
 10
-30.10049912279361
 20
-1.559215761681112
 30
0.0
  0
VERTEX
  5
474
  8
LAYER_1
 10
-30.22009545321982
 20
-1.493137719363177
 30
0.0
  0
VERTEX
  5
475
  8
LAYER_1
 10
-30.49262742960986
 20
-1.368367998109229
 30
0.0
  0
VERTEX
  5
476
  8
LAYER_1
 10
-30.81089009162167
 20
-1.252580259954106
 30
0.0
  0
VERTEX
  5
477
  8
LAYER_1
 10
-31.17641735714117
 20
-1.144734703205323
 30
0.0
  0
VERTEX
  5
478
  8
LAYER_1
 10
-31.36147749702045
 20
-1.089479556068212
 30
0.0
  0
VERTEX
  5
479
  8
LAYER_1
 10
-31.55460513072713
 20
-1.020644339755673
 30
0.0
  0
VERTEX
  5
47A
  8
LAYER_1
 10
-31.75541400506089
 20
-0.9384761669842844
 30
0.0
  0
VERTEX
  5
47B
  8
LAYER_1
 10
-31.96351786682139
 20
-0.8432221504706259
 30
0.0
  0
VERTEX
  5
47C
  8
LAYER_1
 10
-32.17853046280832
 20
-0.7351294029312765
 30
0.0
  0
VERTEX
  5
47D
  8
LAYER_1
 10
-32.40006553982134
 20
-0.6144450370828152
 30
0.0
  0
VERTEX
  5
47E
  8
LAYER_1
 10
-32.86115812412439
 20
-0.3362899013248732
 30
0.0
  0
VERTEX
  5
47F
  8
LAYER_1
 10
-33.3437055941279
 20
-0.0107336449294332
 30
0.0
  0
VERTEX
  5
480
  8
LAYER_1
 10
-33.84461792422928
 20
0.3602468303708724
 30
0.0
  0
VERTEX
  5
481
  8
LAYER_1
 10
-34.36080508882593
 20
0.7746746228434105
 30
0.0
  0
VERTEX
  5
482
  8
LAYER_1
 10
-34.88917706231523
 20
1.230572830755548
 30
0.0
  0
VERTEX
  5
483
  8
LAYER_1
 10
-35.60002135552439
 20
1.860940610980675
 30
0.0
  0
VERTEX
  5
484
  8
LAYER_1
 10
-36.24215846205367
 20
2.419726472244052
 30
0.0
  0
VERTEX
  5
485
  8
LAYER_1
 10
-36.82450856487343
 20
2.911195862293592
 30
0.0
  0
VERTEX
  5
486
  8
LAYER_1
 10
-37.35599184695404
 20
3.339614228877206
 30
0.0
  0
VERTEX
  5
487
  8
LAYER_1
 10
-37.84552849126588
 20
3.709247019742803
 30
0.0
  0
VERTEX
  5
488
  8
LAYER_1
 10
-38.30203868077932
 20
4.024359682638294
 30
0.0
  0
VERTEX
  5
489
  8
LAYER_1
 10
-38.52069641216488
 20
4.162803918518472
 30
0.0
  0
VERTEX
  5
48A
  8
LAYER_1
 10
-38.73444259846472
 20
4.289217665311591
 30
0.0
  0
VERTEX
  5
48B
  8
LAYER_1
 10
-38.94439226255015
 20
4.404134103986139
 30
0.0
  0
VERTEX
  5
48C
  8
LAYER_1
 10
-39.15166042729247
 20
4.508086415510604
 30
0.0
  0
VERTEX
  5
48D
  8
LAYER_1
 10
-39.35736211556296
 20
4.601607780853476
 30
0.0
  0
VERTEX
  5
48E
  8
LAYER_1
 10
-39.56261235023292
 20
4.685231380983243
 30
0.0
  0
VERTEX
  5
48F
  8
LAYER_1
 10
-39.76852615417366
 20
4.759490396868395
 30
0.0
  0
VERTEX
  5
490
  8
LAYER_1
 10
-39.97621855025646
 20
4.824918009477421
 30
0.0
  0
VERTEX
  5
491
  8
LAYER_1
 10
-40.18680456135262
 20
4.882047399778809
 30
0.0
  0
VERTEX
  5
492
  8
LAYER_1
 10
-40.40139921033344
 20
4.931411748741047
 30
0.0
  0
VERTEX
  5
493
  8
LAYER_1
 10
-40.62111752007022
 20
4.973544237332625
 30
0.0
  0
VERTEX
  5
494
  8
LAYER_1
 10
-40.84707451343425
 20
5.008978046522031
 30
0.0
  0
VERTEX
  5
495
  8
LAYER_1
 10
-41.32216464252924
 20
5.061882350568287
 30
0.0
  0
VERTEX
  5
496
  8
LAYER_1
 10
-41.8355897805888
 20
5.094390108627723
 30
0.0
  0
VERTEX
  5
497
  8
LAYER_1
 10
-42.39627011058329
 20
5.110766768448249
 30
0.0
  0
VERTEX
  5
498
  8
LAYER_1
 10
-43.01312581548309
 20
5.115277777777777
 30
0.0
  0
VERTEX
  5
499
  8
LAYER_1
 10
-43.90266081565039
 20
5.107711404863335
 30
0.0
  0
VERTEX
  5
49A
  8
LAYER_1
 10
-44.64879761013847
 20
5.080680381810785
 30
0.0
  0
VERTEX
  5
49B
  8
LAYER_1
 10
-44.97849079699373
 20
5.057835046337771
 30
0.0
  0
VERTEX
  5
49C
  8
LAYER_1
 10
-45.2848133725183
 20
5.027686852156291
 30
0.0
  0
VERTEX
  5
49D
  8
LAYER_1
 10
-45.57192498340854
 20
4.98942356720837
 30
0.0
  0
VERTEX
  5
49E
  8
LAYER_1
 10
-45.84398527636084
 20
4.942232959436024
 30
0.0
  0
VERTEX
  5
49F
  8
LAYER_1
 10
-46.10515389807156
 20
4.885302796781275
 30
0.0
  0
VERTEX
  5
4A0
  8
LAYER_1
 10
-46.35959049523709
 20
4.817820847186145
 30
0.0
  0
VERTEX
  5
4A1
  8
LAYER_1
 10
-46.61145471455377
 20
4.738974878592654
 30
0.0
  0
VERTEX
  5
4A2
  8
LAYER_1
 10
-46.864906202718
 20
4.64795265894282
 30
0.0
  0
VERTEX
  5
4A3
  8
LAYER_1
 10
-47.12410460642614
 20
4.543941956178668
 30
0.0
  0
VERTEX
  5
4A4
  8
LAYER_1
 10
-47.39320957237457
 20
4.426130538242217
 30
0.0
  0
VERTEX
  5
4A5
  8
LAYER_1
 10
-47.97777777777777
 20
4.1458566286205
 30
0.0
  0
VERTEX
  5
4A6
  8
LAYER_1
 10
-48.3845523471697
 20
3.937860966172898
 30
0.0
  0
VERTEX
  5
4A7
  8
LAYER_1
 10
-48.79692667872438
 20
3.718187343068935
 30
0.0
  0
VERTEX
  5
4A8
  8
LAYER_1
 10
-49.59296586859548
 20
3.270369056160755
 30
0.0
  0
VERTEX
  5
4A9
  8
LAYER_1
 10
-49.95387634704865
 20
3.055505812990953
 30
0.0
  0
VERTEX
  5
4AA
  8
LAYER_1
 10
-50.27487782793805
 20
2.85552745043362
 30
0.0
  0
VERTEX
  5
4AB
  8
LAYER_1
 10
-50.54459312133206
 20
2.677074678805962
 30
0.0
  0
VERTEX
  5
4AC
  8
LAYER_1
 10
-50.75164503729905
 20
2.526788208425188
 30
0.0
  0
VERTEX
  5
4AD
  8
LAYER_1
 10
-51.58523451904256
 20
1.877140937387146
 30
0.0
  0
VERTEX
  5
4AE
  8
LAYER_1
 10
-49.34053392618794
 20
0.961735513461285
 30
0.0
  0
VERTEX
  5
4AF
  8
LAYER_1
 10
-46.58947878071444
 20
-0.1471233964642149
 30
0.0
  0
VERTEX
  5
4B0
  8
LAYER_1
 10
-43.1273725613506
 20
-1.527640393112591
 30
0.0
  0
VERTEX
  5
4B1
  8
LAYER_1
 10
-42.26269272674499
 20
-1.880439344134818
 30
0.0
  0
VERTEX
  5
4B2
  8
LAYER_1
 10
-41.41102764597079
 20
-2.247277644720267
 30
0.0
  0
VERTEX
  5
4B3
  8
LAYER_1
 10
-40.57610298179752
 20
-2.625930327324501
 30
0.0
  0
VERTEX
  5
4B4
  8
LAYER_1
 10
-39.76164439699471
 20
-3.014172424403081
 30
0.0
  0
VERTEX
  5
4B5
  8
LAYER_1
 10
-38.97137755433191
 20
-3.409778968411568
 30
0.0
  0
VERTEX
  5
4B6
  8
LAYER_1
 10
-38.20902811657862
 20
-3.810524991805524
 30
0.0
  0
VERTEX
  5
4B7
  8
LAYER_1
 10
-37.47832174650441
 20
-4.214185527040511
 30
0.0
  0
VERTEX
  5
4B8
  8
LAYER_1
 10
-36.7829841068788
 20
-4.61853560657209
 30
0.0
  0
VERTEX
  5
4B9
  8
LAYER_1
 10
-36.12674086047132
 20
-5.021350262855822
 30
0.0
  0
VERTEX
  5
4BA
  8
LAYER_1
 10
-35.51331767005151
 20
-5.420404528347269
 30
0.0
  0
VERTEX
  5
4BB
  8
LAYER_1
 10
-34.94644019838888
 20
-5.813473435501992
 30
0.0
  0
VERTEX
  5
4BC
  8
LAYER_1
 10
-34.42983410825299
 20
-6.198332016775552
 30
0.0
  0
VERTEX
  5
4BD
  8
LAYER_1
 10
-33.96722506241336
 20
-6.572755304623512
 30
0.0
  0
VERTEX
  5
4BE
  8
LAYER_1
 10
-33.56233872363953
 20
-6.934518331501433
 30
0.0
  0
VERTEX
  5
4BF
  8
LAYER_1
 10
-33.38270583901777
 20
-7.109956944718991
 30
0.0
  0
VERTEX
  5
4C0
  8
LAYER_1
 10
-33.21890075470104
 20
-7.281396129864875
 30
0.0
  0
VERTEX
  5
4C1
  8
LAYER_1
 10
-33.07138917853552
 20
-7.44855776599603
 30
0.0
  0
VERTEX
  5
4C2
  8
LAYER_1
 10
-32.9406368183674
 20
-7.611163732169402
 30
0.0
  0
VERTEX
  5
4C3
  8
LAYER_1
 10
-32.74126889152963
 20
-7.853881840094184
 30
0.0
  0
VERTEX
  5
4C4
  8
LAYER_1
 10
-32.52775282825869
 20
-8.080316477482446
 30
0.0
  0
VERTEX
  5
4C5
  8
LAYER_1
 10
-32.30672981596429
 20
-8.285511805475249
 30
0.0
  0
VERTEX
  5
4C6
  8
LAYER_1
 10
-32.08484104205611
 20
-8.464511985213651
 30
0.0
  0
VERTEX
  5
4C7
  8
LAYER_1
 10
-31.86872769394387
 20
-8.61236117783871
 30
0.0
  0
VERTEX
  5
4C8
  8
LAYER_1
 10
-31.66503095903726
 20
-8.724103544491491
 30
0.0
  0
VERTEX
  5
4C9
  8
LAYER_1
 10
-31.56991419260158
 20
-8.764885968434857
 30
0.0
  0
VERTEX
  5
4CA
  8
LAYER_1
 10
-31.48039202474596
 20
-8.794783246313049
 30
0.0
  0
VERTEX
  5
4CB
  8
LAYER_1
 10
-31.39729460389658
 20
-8.8131758982687
 30
0.0
  0
SEQEND
  5
4CC
  8
LAYER_1
  0
POLYLINE
  5
4B
  8
LAYER_1
 66
     1
 10
0.0
 20
0.0
 30
0.0
 70
     1
  0
VERTEX
  5
4CD
  8
LAYER_1
 10
-15.25763888888888
 20
-7.716955146371767
 30
0.0
  0
VERTEX
  5
4CE
  8
LAYER_1
 10
-14.94713419533044
 20
-7.733763168493048
 30
0.0
  0
VERTEX
  5
4CF
  8
LAYER_1
 10
-14.82454976162582
 20
-7.733638571780414
 30
0.0
  0
VERTEX
  5
4D0
  8
LAYER_1
 10
-14.72324168430785
 20
-7.722200716518142
 30
0.0
  0
VERTEX
  5
4D1
  8
LAYER_1
 10
-14.6428332741292
 20
-7.695228962680634
 30
0.0
  0
VERTEX
  5
4D2
  8
LAYER_1
 10
-14.61034872882733
 20
-7.674598923788169
 30
0.0
  0
VERTEX
  5
4D3
  8
LAYER_1
 10
-14.58294784184255
 20
-7.648502670242299
 30
0.0
  0
VERTEX
  5
4D4
  8
LAYER_1
 10
-14.56058352701893
 20
-7.616412622039823
 30
0.0
  0
VERTEX
  5
4D5
  8
LAYER_1
 10
-14.54320869820057
 20
-7.577801199177541
 30
0.0
  0
VERTEX
  5
4D6
  8
LAYER_1
 10
-14.52323915395595
 20
-7.478903909460769
 30
0.0
  0
VERTEX
  5
4D7
  8
LAYER_1
 10
-14.52266251986135
 20
-7.347590161066387
 30
0.0
  0
VERTEX
  5
4D8
  8
LAYER_1
 10
-14.54110210666945
 20
-7.179639313968802
 30
0.0
  0
VERTEX
  5
4D9
  8
LAYER_1
 10
-14.57818122513294
 20
-6.97083072814242
 30
0.0
  0
VERTEX
  5
4DA
  8
LAYER_1
 10
-14.63352318600449
 20
-6.716943763561648
 30
0.0
  0
VERTEX
  5
4DB
  8
LAYER_1
 10
-14.79748887798247
 20
-6.057052138034558
 30
0.0
  0
VERTEX
  5
4DC
  8
LAYER_1
 10
-15.02998566862482
 20
-5.16619931718278
 30
0.0
  0
VERTEX
  5
4DD
  8
LAYER_1
 10
-15.14561659094364
 20
-4.674658284628288
 30
0.0
  0
VERTEX
  5
4DE
  8
LAYER_1
 10
-15.2423273580055
 20
-4.161563961529578
 30
0.0
  0
VERTEX
  5
4DF
  8
LAYER_1
 10
-15.32030513674257
 20
-3.631570119294686
 30
0.0
  0
VERTEX
  5
4E0
  8
LAYER_1
 10
-15.37973709408697
 20
-3.089330529331648
 30
0.0
  0
VERTEX
  5
4E1
  8
LAYER_1
 10
-15.42081039697088
 20
-2.539498963048501
 30
0.0
  0
VERTEX
  5
4E2
  8
LAYER_1
 10
-15.44371221232642
 20
-1.986729191853281
 30
0.0
  0
VERTEX
  5
4E3
  8
LAYER_1
 10
-15.44862970708577
 20
-1.435674987154024
 30
0.0
  0
VERTEX
  5
4E4
  8
LAYER_1
 10
-15.43575004818106
 20
-0.8909901203587669
 30
0.0
  0
VERTEX
  5
4E5
  8
LAYER_1
 10
-15.40526040254445
 20
-0.3573283628755456
 30
0.0
  0
VERTEX
  5
4E6
  8
LAYER_1
 10
-15.35734793710809
 20
0.1606565138876034
 30
0.0
  0
VERTEX
  5
4E7
  8
LAYER_1
 10
-15.29219981880413
 20
0.6583107385226439
 30
0.0
  0
VERTEX
  5
4E8
  8
LAYER_1
 10
-15.21000321456471
 20
1.13098053962154
 30
0.0
  0
VERTEX
  5
4E9
  8
LAYER_1
 10
-15.11094529132199
 20
1.574012145776254
 30
0.0
  0
VERTEX
  5
4EA
  8
LAYER_1
 10
-14.99521321600812
 20
1.982751785578751
 30
0.0
  0
VERTEX
  5
4EB
  8
LAYER_1
 10
-14.86299415555525
 20
2.352545687620994
 30
0.0
  0
VERTEX
  5
4EC
  8
LAYER_1
 10
-14.79076049556799
 20
2.521383683417009
 30
0.0
  0
VERTEX
  5
4ED
  8
LAYER_1
 10
-14.71447527689553
 20
2.678740080494947
 30
0.0
  0
VERTEX
  5
4EE
  8
LAYER_1
 10
-14.56847823769946
 20
2.937604306780814
 30
0.0
  0
VERTEX
  5
4EF
  8
LAYER_1
 10
-14.3680479791408
 20
3.257948297895497
 30
0.0
  0
VERTEX
  5
4F0
  8
LAYER_1
 10
-14.1221638906049
 20
3.627122865189795
 30
0.0
  0
VERTEX
  5
4F1
  8
LAYER_1
 10
-13.83980536147711
 20
4.032478820014508
 30
0.0
  0
VERTEX
  5
4F2
  8
LAYER_1
 10
-13.52995178114277
 20
4.461366973720433
 30
0.0
  0
VERTEX
  5
4F3
  8
LAYER_1
 10
-13.20158253898722
 20
4.901138137658371
 30
0.0
  0
VERTEX
  5
4F4
  8
LAYER_1
 10
-12.86367702439582
 20
5.33914312317912
 30
0.0
  0
VERTEX
  5
4F5
  8
LAYER_1
 10
-12.52521462675391
 20
5.762732741633478
 30
0.0
  0
VERTEX
  5
4F6
  8
LAYER_1
 10
-10.89734694495005
 20
7.761111111111113
 30
0.0
  0
VERTEX
  5
4F7
  8
LAYER_1
 10
-11.00492347247502
 20
7.80288742690059
 30
0.0
  0
VERTEX
  5
4F8
  8
LAYER_1
 10
-11.02913058934915
 20
7.81691679024526
 30
0.0
  0
VERTEX
  5
4F9
  8
LAYER_1
 10
-11.01551697206253
 20
7.824233134226966
 30
0.0
  0
VERTEX
  5
4FA
  8
LAYER_1
 10
-10.88992153880167
 20
7.816889050945576
 30
0.0
  0
VERTEX
  5
4FB
  8
LAYER_1
 10
-10.84639806418843
 20
7.815838409171404
 30
0.0
  0
VERTEX
  5
4FC
  8
LAYER_1
 10
-10.79996638226321
 20
7.822865306559562
 30
0.0
  0
VERTEX
  5
4FD
  8
LAYER_1
 10
-10.69963860859566
 20
7.859385853685253
 30
0.0
  0
VERTEX
  5
4FE
  8
LAYER_1
 10
-10.59145864203674
 20
7.922918962047412
 30
0.0
  0
VERTEX
  5
4FF
  8
LAYER_1
 10
-10.47794690682413
 20
8.009932901370805
 30
0.0
  0
VERTEX
  5
500
  8
LAYER_1
 10
-10.36162382719555
 20
8.116895941380193
 30
0.0
  0
VERTEX
  5
501
  8
LAYER_1
 10
-10.24500982738869
 20
8.240276351800347
 30
0.0
  0
VERTEX
  5
502
  8
LAYER_1
 10
-10.13062533164127
 20
8.376542402356026
 30
0.0
  0
VERTEX
  5
503
  8
LAYER_1
 10
-10.02099076419099
 20
8.522162362771992
 30
0.0
  0
VERTEX
  5
504
  8
LAYER_1
 10
-9.918626549275544
 20
8.673604502773012
 30
0.0
  0
VERTEX
  5
505
  8
LAYER_1
 10
-9.826053111132646
 20
8.827337092083852
 30
0.0
  0
VERTEX
  5
506
  8
LAYER_1
 10
-9.745790873999995
 20
8.979828400429271
 30
0.0
  0
VERTEX
  5
507
  8
LAYER_1
 10
-9.680360262115297
 20
9.127546697534038
 30
0.0
  0
VERTEX
  5
508
  8
LAYER_1
 10
-9.632281699716252
 20
9.266960253122914
 30
0.0
  0
VERTEX
  5
509
  8
LAYER_1
 10
-9.604075611040567
 20
9.394537336920665
 30
0.0
  0
VERTEX
  5
50A
  8
LAYER_1
 10
-9.598262420325948
 20
9.506746218652054
 30
0.0
  0
VERTEX
  5
50B
  8
LAYER_1
 10
-9.60454079427832
 20
9.555983918031853
 30
0.0
  0
VERTEX
  5
50C
  8
LAYER_1
 10
-9.617362551810096
 20
9.600055168041848
 30
0.0
  0
VERTEX
  5
50D
  8
LAYER_1
 10
-9.79529567567139
 20
10.05416666666667
 30
0.0
  0
VERTEX
  5
50E
  8
LAYER_1
 10
-18.52083333333333
 20
14.77771908214916
 30
0.0
  0
VERTEX
  5
50F
  8
LAYER_1
 10
-20.46111111111111
 20
15.49051101089862
 30
0.0
  0
VERTEX
  5
510
  8
LAYER_1
 10
-20.93790913113378
 20
15.65998102228433
 30
0.0
  0
VERTEX
  5
511
  8
LAYER_1
 10
-21.43915698180118
 20
15.82751791609713
 30
0.0
  0
VERTEX
  5
512
  8
LAYER_1
 10
-21.95961218010882
 20
15.99189104874392
 30
0.0
  0
VERTEX
  5
513
  8
LAYER_1
 10
-22.49403224305223
 20
16.15186977663162
 30
0.0
  0
VERTEX
  5
514
  8
LAYER_1
 10
-23.58379703082836
 20
16.45372144375745
 30
0.0
  0
VERTEX
  5
515
  8
LAYER_1
 10
-24.66651148109365
 20
16.72322776872995
 30
0.0
  0
VERTEX
  5
516
  8
LAYER_1
 10
-25.19211862214851
 20
16.84277481892599
 30
0.0
  0
VERTEX
  5
517
  8
LAYER_1
 10
-25.70023572981219
 20
16.95054360280445
 30
0.0
  0
VERTEX
  5
518
  8
LAYER_1
 10
-26.18562032108022
 20
17.04530347677225
 30
0.0
  0
VERTEX
  5
519
  8
LAYER_1
 10
-26.64302991294809
 20
17.12582379723629
 30
0.0
  0
VERTEX
  5
51A
  8
LAYER_1
 10
-27.06722202241132
 20
17.19087392060352
 30
0.0
  0
VERTEX
  5
51B
  8
LAYER_1
 10
-27.45295416646542
 20
17.23922320328082
 30
0.0
  0
VERTEX
  5
51C
  8
LAYER_1
 10
-27.79498386210591
 20
17.26964100167513
 30
0.0
  0
VERTEX
  5
51D
  8
LAYER_1
 10
-28.08806862632829
 20
17.28089667219336
 30
0.0
  0
VERTEX
  5
51E
  8
LAYER_1
 10
-29.18863725265659
 20
17.28611111111112
 30
0.0
  0
VERTEX
  5
51F
  8
LAYER_1
 10
-28.86104516634514
 20
4.409722222222221
 30
0.0
  0
VERTEX
  5
520
  8
LAYER_1
 10
-28.39023487950866
 20
2.057301414644094
 30
0.0
  0
VERTEX
  5
521
  8
LAYER_1
 10
-28.25970547742403
 20
1.45802553146563
 30
0.0
  0
VERTEX
  5
522
  8
LAYER_1
 10
-28.11014045864504
 20
0.8681052975124885
 30
0.0
  0
VERTEX
  5
523
  8
LAYER_1
 10
-27.94221142001378
 20
0.2888409400895635
 30
0.0
  0
VERTEX
  5
524
  8
LAYER_1
 10
-27.75658995837234
 20
-0.27846731349825
 30
0.0
  0
VERTEX
  5
525
  8
LAYER_1
 10
-27.55394767056283
 20
-0.8325192359460569
 30
0.0
  0
VERTEX
  5
526
  8
LAYER_1
 10
-27.33495615342731
 20
-1.372014599948962
 30
0.0
  0
VERTEX
  5
527
  8
LAYER_1
 10
-27.1002870038079
 20
-1.895653178202071
 30
0.0
  0
VERTEX
  5
528
  8
LAYER_1
 10
-26.85061181854668
 20
-2.402134743400488
 30
0.0
  0
VERTEX
  5
529
  8
LAYER_1
 10
-26.58660219448574
 20
-2.890159068239319
 30
0.0
  0
VERTEX
  5
52A
  8
LAYER_1
 10
-26.30892972846717
 20
-3.358425925413668
 30
0.0
  0
VERTEX
  5
52B
  8
LAYER_1
 10
-26.01826601733307
 20
-3.80563508761864
 30
0.0
  0
VERTEX
  5
52C
  8
LAYER_1
 10
-25.71528265792553
 20
-4.230486327549341
 30
0.0
  0
VERTEX
  5
52D
  8
LAYER_1
 10
-25.40065124708664
 20
-4.631679417900877
 30
0.0
  0
VERTEX
  5
52E
  8
LAYER_1
 10
-25.07504338165848
 20
-5.00791413136835
 30
0.0
  0
VERTEX
  5
52F
  8
LAYER_1
 10
-24.73913065848316
 20
-5.357890240646867
 30
0.0
  0
VERTEX
  5
530
  8
LAYER_1
 10
-24.39358467440276
 20
-5.680307518431533
 30
0.0
  0
VERTEX
  5
531
  8
LAYER_1
 10
-23.92173891632459
 20
-6.084501632685093
 30
0.0
  0
VERTEX
  5
532
  8
LAYER_1
 10
-23.71119026176526
 20
-6.253779676613141
 30
0.0
  0
VERTEX
  5
533
  8
LAYER_1
 10
-23.51347912299203
 20
-6.402877088367389
 30
0.0
  0
VERTEX
  5
534
  8
LAYER_1
 10
-23.3255465246046
 20
-6.533067900416855
 30
0.0
  0
VERTEX
  5
535
  8
LAYER_1
 10
-23.14433349120269
 20
-6.645626145230557
 30
0.0
  0
VERTEX
  5
536
  8
LAYER_1
 10
-22.96678104738599
 20
-6.741825855277511
 30
0.0
  0
VERTEX
  5
537
  8
LAYER_1
 10
-22.78983021775419
 20
-6.822941063026732
 30
0.0
  0
VERTEX
  5
538
  8
LAYER_1
 10
-22.61042202690701
 20
-6.890245800947239
 30
0.0
  0
VERTEX
  5
539
  8
LAYER_1
 10
-22.42549749944414
 20
-6.94501410150805
 30
0.0
  0
VERTEX
  5
53A
  8
LAYER_1
 10
-22.23199765996529
 20
-6.988519997178178
 30
0.0
  0
VERTEX
  5
53B
  8
LAYER_1
 10
-22.02686353307016
 20
-7.022037520426644
 30
0.0
  0
VERTEX
  5
53C
  8
LAYER_1
 10
-21.80703614335846
 20
-7.046840703722462
 30
0.0
  0
VERTEX
  5
53D
  8
LAYER_1
 10
-21.56945651542988
 20
-7.064203579534651
 30
0.0
  0
VERTEX
  5
53E
  8
LAYER_1
 10
-21.02880464332089
 20
-7.081704538584205
 30
0.0
  0
VERTEX
  5
53F
  8
LAYER_1
 10
-20.63433621491594
 20
-7.092722632291429
 30
0.0
  0
VERTEX
  5
540
  8
LAYER_1
 10
-20.20369672929533
 20
-7.114146570143758
 30
0.0
  0
VERTEX
  5
541
  8
LAYER_1
 10
-19.28952039175329
 20
-7.183148651663565
 30
0.0
  0
VERTEX
  5
542
  8
LAYER_1
 10
-18.39750724138703
 20
-7.278584129903303
 30
0.0
  0
VERTEX
  5
543
  8
LAYER_1
 10
-17.99457173973617
 20
-7.333049813655545
 30
0.0
  0
VERTEX
  5
544
  8
LAYER_1
 10
-17.63888888888889
 20
-7.390326351622647
 30
0.0
  0
VERTEX
  5
545
  8
LAYER_1
 10
-16.95986056857639
 20
-7.503489436742598
 30
0.0
  0
VERTEX
  5
546
  8
LAYER_1
 10
-16.28455295138889
 20
-7.60279360245924
 30
0.0
  0
VERTEX
  5
547
  8
LAYER_1
 10
-15.69110080295139
 20
-7.677521341444866
 30
0.0
  0
SEQEND
  5
548
  8
LAYER_1
  0
POLYLINE
  5
4C
  8
LAYER_1
 66
     1
 10
0.0
 20
0.0
 30
0.0
 70
     1
  0
VERTEX
  5
549
  8
LAYER_1
 10
18.90458872202014
 20
-7.761111111111106
 30
0.0
  0
VERTEX
  5
54A
  8
LAYER_1
 10
19.19059581108115
 20
-7.746769574490786
 30
0.0
  0
VERTEX
  5
54B
  8
LAYER_1
 10
19.47830111039868
 20
-7.703884050952253
 30
0.0
  0
VERTEX
  5
54C
  8
LAYER_1
 10
19.76756196473045
 20
-7.632663169979141
 30
0.0
  0
VERTEX
  5
54D
  8
LAYER_1
 10
20.05823571883418
 20
-7.533315561055089
 30
0.0
  0
VERTEX
  5
54E
  8
LAYER_1
 10
20.3501797174676
 20
-7.406049853663734
 30
0.0
  0
VERTEX
  5
54F
  8
LAYER_1
 10
20.64325130538843
 20
-7.251074677288713
 30
0.0
  0
VERTEX
  5
550
  8
LAYER_1
 10
20.9373078273544
 20
-7.068598661413663
 30
0.0
  0
VERTEX
  5
551
  8
LAYER_1
 10
21.23220662812324
 20
-6.858830435522222
 30
0.0
  0
VERTEX
  5
552
  8
LAYER_1
 10
21.52780505245266
 20
-6.621978629098026
 30
0.0
  0
VERTEX
  5
553
  8
LAYER_1
 10
21.82396044510039
 20
-6.358251871624713
 30
0.0
  0
VERTEX
  5
554
  8
LAYER_1
 10
22.12053015082415
 20
-6.06785879258592
 30
0.0
  0
VERTEX
  5
555
  8
LAYER_1
 10
22.41737151438168
 20
-5.751008021465283
 30
0.0
  0
VERTEX
  5
556
  8
LAYER_1
 10
22.7143418805307
 20
-5.40790818774644
 30
0.0
  0
VERTEX
  5
557
  8
LAYER_1
 10
23.01129859402892
 20
-5.038767920913028
 30
0.0
  0
VERTEX
  5
558
  8
LAYER_1
 10
23.30809899963408
 20
-4.643795850448685
 30
0.0
  0
VERTEX
  5
559
  8
LAYER_1
 10
23.60460044210389
 20
-4.223200605837047
 30
0.0
  0
VERTEX
  5
55A
  8
LAYER_1
 10
23.90066026619609
 20
-3.777190816561751
 30
0.0
  0
VERTEX
  5
55B
  8
LAYER_1
 10
24.1961358166684
 20
-3.305975112106435
 30
0.0
  0
VERTEX
  5
55C
  8
LAYER_1
 10
24.49088443827854
 20
-2.809762121954736
 30
0.0
  0
VERTEX
  5
55D
  8
LAYER_1
 10
24.78476347578424
 20
-2.288760475590291
 30
0.0
  0
VERTEX
  5
55E
  8
LAYER_1
 10
25.07763027394322
 20
-1.743178802496736
 30
0.0
  0
VERTEX
  5
55F
  8
LAYER_1
 10
25.36934217751321
 20
-1.17322573215771
 30
0.0
  0
VERTEX
  5
560
  8
LAYER_1
 10
25.65975653125193
 20
-0.5791098940568492
 30
0.0
  0
VERTEX
  5
561
  8
LAYER_1
 10
25.94873067991711
 20
0.0389600823222092
 30
0.0
  0
VERTEX
  5
562
  8
LAYER_1
 10
26.23612196826646
 20
0.6807755674958279
 30
0.0
  0
VERTEX
  5
563
  8
LAYER_1
 10
26.52178774105772
 20
1.34612793198037
 30
0.0
  0
VERTEX
  5
564
  8
LAYER_1
 10
26.80558534304862
 20
2.034808546292198
 30
0.0
  0
VERTEX
  5
565
  8
LAYER_1
 10
27.08737211899686
 20
2.746608780947676
 30
0.0
  0
VERTEX
  5
566
  8
LAYER_1
 10
27.36700541366019
 20
3.481320006463165
 30
0.0
  0
VERTEX
  5
567
  8
LAYER_1
 10
27.64434257179632
 20
4.238733593355029
 30
0.0
  0
VERTEX
  5
568
  8
LAYER_1
 10
27.91924093816298
 20
5.018640912139631
 30
0.0
  0
VERTEX
  5
569
  8
LAYER_1
 10
28.19155785751789
 20
5.820833333333333
 30
0.0
  0
VERTEX
  5
56A
  8
LAYER_1
 10
28.39689453868231
 20
6.451932900615334
 30
0.0
  0
VERTEX
  5
56B
  8
LAYER_1
 10
28.59145181199001
 20
7.080430597759001
 30
0.0
  0
VERTEX
  5
56C
  8
LAYER_1
 10
28.77523808952218
 20
7.70645632931164
 30
0.0
  0
VERTEX
  5
56D
  8
LAYER_1
 10
28.94826178336005
 20
8.330139999820553
 30
0.0
  0
VERTEX
  5
56E
  8
LAYER_1
 10
29.11053130558481
 20
8.95161151383304
 30
0.0
  0
VERTEX
  5
56F
  8
LAYER_1
 10
29.26205506827768
 20
9.571000775896408
 30
0.0
  0
VERTEX
  5
570
  8
LAYER_1
 10
29.40284148351985
 20
10.18843769055796
 30
0.0
  0
VERTEX
  5
571
  8
LAYER_1
 10
29.53289896339255
 20
10.80405216236499
 30
0.0
  0
VERTEX
  5
572
  8
LAYER_1
 10
29.65223591997697
 20
11.41797409586481
 30
0.0
  0
VERTEX
  5
573
  8
LAYER_1
 10
29.76086076535433
 20
12.03033339560472
 30
0.0
  0
VERTEX
  5
574
  8
LAYER_1
 10
29.85878191160582
 20
12.64125996613203
 30
0.0
  0
VERTEX
  5
575
  8
LAYER_1
 10
29.94600777081267
 20
13.25088371199403
 30
0.0
  0
VERTEX
  5
576
  8
LAYER_1
 10
30.02254675505607
 20
13.85933453773803
 30
0.0
  0
VERTEX
  5
577
  8
LAYER_1
 10
30.08840727641724
 20
14.46674234791133
 30
0.0
  0
VERTEX
  5
578
  8
LAYER_1
 10
30.14359774697738
 20
15.07323704706124
 30
0.0
  0
VERTEX
  5
579
  8
LAYER_1
 10
30.18812657881769
 20
15.67894853973505
 30
0.0
  0
VERTEX
  5
57A
  8
LAYER_1
 10
30.2220021840194
 20
16.28400673048007
 30
0.0
  0
VERTEX
  5
57B
  8
LAYER_1
 10
30.24523297466369
 20
16.88854152384361
 30
0.0
  0
VERTEX
  5
57C
  8
LAYER_1
 10
30.2578273628318
 20
17.49268282437296
 30
0.0
  0
VERTEX
  5
57D
  8
LAYER_1
 10
30.2597937606049
 20
18.09656053661543
 30
0.0
  0
VERTEX
  5
57E
  8
LAYER_1
 10
30.25114058006423
 20
18.70030456511832
 30
0.0
  0
VERTEX
  5
57F
  8
LAYER_1
 10
30.23187623329098
 20
19.30404481442894
 30
0.0
  0
VERTEX
  5
580
  8
LAYER_1
 10
30.20200913236636
 20
19.90791118909458
 30
0.0
  0
VERTEX
  5
581
  8
LAYER_1
 10
30.16154768937157
 20
20.51203359366255
 30
0.0
  0
VERTEX
  5
582
  8
LAYER_1
 10
30.11050031638784
 20
21.11654193268016
 30
0.0
  0
VERTEX
  5
583
  8
LAYER_1
 10
30.04887542549636
 20
21.7215661106947
 30
0.0
  0
VERTEX
  5
584
  8
LAYER_1
 10
29.97668142877833
 20
22.32723603225348
 30
0.0
  0
VERTEX
  5
585
  8
LAYER_1
 10
29.89392673831498
 20
22.9336816019038
 30
0.0
  0
VERTEX
  5
586
  8
LAYER_1
 10
29.8006197661875
 20
23.54103272419297
 30
0.0
  0
VERTEX
  5
587
  8
LAYER_1
 10
29.69676892447711
 20
24.14941930366828
 30
0.0
  0
VERTEX
  5
588
  8
LAYER_1
 10
29.58238262526501
 20
24.75897124487704
 30
0.0
  0
VERTEX
  5
589
  8
LAYER_1
 10
29.45746928063241
 20
25.36981845236655
 30
0.0
  0
VERTEX
  5
58A
  8
LAYER_1
 10
29.30811788432144
 20
26.0326450900714
 30
0.0
  0
VERTEX
  5
58B
  8
LAYER_1
 10
29.13893621603572
 20
26.71520362068928
 30
0.0
  0
VERTEX
  5
58C
  8
LAYER_1
 10
28.95309439780017
 20
27.40887086044105
 30
0.0
  0
VERTEX
  5
58D
  8
LAYER_1
 10
28.75376255163973
 20
28.10502362554757
 30
0.0
  0
VERTEX
  5
58E
  8
LAYER_1
 10
28.54411079957932
 20
28.79503873222969
 30
0.0
  0
VERTEX
  5
58F
  8
LAYER_1
 10
28.32730926364387
 20
29.47029299670828
 30
0.0
  0
VERTEX
  5
590
  8
LAYER_1
 10
28.10652806585831
 20
30.1221632352042
 30
0.0
  0
VERTEX
  5
591
  8
LAYER_1
 10
27.88493732824757
 20
30.7420262639383
 30
0.0
  0
VERTEX
  5
592
  8
LAYER_1
 10
27.66570717283657
 20
31.32125889913145
 30
0.0
  0
VERTEX
  5
593
  8
LAYER_1
 10
27.45200772165024
 20
31.8512379570045
 30
0.0
  0
VERTEX
  5
594
  8
LAYER_1
 10
27.24700909671351
 20
32.32334025377831
 30
0.0
  0
VERTEX
  5
595
  8
LAYER_1
 10
27.05388142005131
 20
32.72894260567374
 30
0.0
  0
VERTEX
  5
596
  8
LAYER_1
 10
26.87579481368856
 20
33.05942182891166
 30
0.0
  0
VERTEX
  5
597
  8
LAYER_1
 10
26.79338257500228
 20
33.19379552235307
 30
0.0
  0
VERTEX
  5
598
  8
LAYER_1
 10
26.7159193996502
 20
33.30615473971292
 30
0.0
  0
VERTEX
  5
599
  8
LAYER_1
 10
26.64380155288546
 20
33.39542158301882
 30
0.0
  0
VERTEX
  5
59A
  8
LAYER_1
 10
26.57742529996116
 20
33.46051815429837
 30
0.0
  0
VERTEX
  5
59B
  8
LAYER_1
 10
26.51718690613041
 20
33.5003665555792
 30
0.0
  0
VERTEX
  5
59C
  8
LAYER_1
 10
26.46348263664635
 20
33.51388888888889
 30
0.0
  0
VERTEX
  5
59D
  8
LAYER_1
 10
26.42276133510549
 20
33.4993978060625
 30
0.0
  0
VERTEX
  5
59E
  8
LAYER_1
 10
26.36426998118559
 20
33.45678421325956
 30
0.0
  0
VERTEX
  5
59F
  8
LAYER_1
 10
26.19759779514958
 20
33.29234743178162
 30
0.0
  0
VERTEX
  5
5A0
  8
LAYER_1
 10
25.97070743642023
 20
33.03089441257018
 30
0.0
  0
VERTEX
  5
5A1
  8
LAYER_1
 10
25.69084026287948
 20
32.68274102374029
 30
0.0
  0
VERTEX
  5
5A2
  8
LAYER_1
 10
25.36523763240921
 20
32.25820313340708
 30
0.0
  0
VERTEX
  5
5A3
  8
LAYER_1
 10
25.00114090289135
 20
31.76759660968561
 30
0.0
  0
VERTEX
  5
5A4
  8
LAYER_1
 10
24.1864305782405
 20
30.62944113453827
 30
0.0
  0
VERTEX
  5
5A5
  8
LAYER_1
 10
23.30464015198224
 20
29.35080154321899
 30
0.0
  0
VERTEX
  5
5A6
  8
LAYER_1
 10
22.41370048717187
 20
28.01420478064848
 30
0.0
  0
VERTEX
  5
5A7
  8
LAYER_1
 10
21.98290308501443
 20
27.34996213043173
 30
0.0
  0
VERTEX
  5
5A8
  8
LAYER_1
 10
21.5715424468647
 20
26.70217779174745
 30
0.0
  0
VERTEX
  5
5A9
  8
LAYER_1
 10
21.18685993060459
 20
26.0811676327107
 30
0.0
  0
VERTEX
  5
5AA
  8
LAYER_1
 10
20.83609689411603
 20
25.49724752143658
 30
0.0
  0
VERTEX
  5
5AB
  8
LAYER_1
 10
20.31222431319499
 20
24.57890618179859
 30
0.0
  0
VERTEX
  5
5AC
  8
LAYER_1
 10
19.81321859773804
 20
23.6446157224919
 30
0.0
  0
VERTEX
  5
5AD
  8
LAYER_1
 10
19.3411519659787
 20
22.70075155373137
 30
0.0
  0
VERTEX
  5
5AE
  8
LAYER_1
 10
18.89809663615053
 20
21.75368908573184
 30
0.0
  0
VERTEX
  5
5AF
  8
LAYER_1
 10
18.48612482648703
 20
20.80980372870816
 30
0.0
  0
VERTEX
  5
5B0
  8
LAYER_1
 10
18.10730875522175
 20
19.8754708928752
 30
0.0
  0
VERTEX
  5
5B1
  8
LAYER_1
 10
17.76372064058822
 20
18.95706598844779
 30
0.0
  0
VERTEX
  5
5B2
  8
LAYER_1
 10
17.45743270081997
 20
18.06096442564078
 30
0.0
  0
VERTEX
  5
5B3
  8
LAYER_1
 10
17.19051715415053
 20
17.19354161466903
 30
0.0
  0
VERTEX
  5
5B4
  8
LAYER_1
 10
17.07247159642584
 20
16.77257705681351
 30
0.0
  0
VERTEX
  5
5B5
  8
LAYER_1
 10
16.96504621881343
 20
16.36117296574738
 30
0.0
  0
VERTEX
  5
5B6
  8
LAYER_1
 10
16.86850004859249
 20
15.96012626774748
 30
0.0
  0
VERTEX
  5
5B7
  8
LAYER_1
 10
16.78309211304221
 20
15.57023388909068
 30
0.0
  0
VERTEX
  5
5B8
  8
LAYER_1
 10
16.70908143944179
 20
15.19229275605383
 30
0.0
  0
VERTEX
  5
5B9
  8
LAYER_1
 10
16.6467270550704
 20
14.82709979491379
 30
0.0
  0
VERTEX
  5
5BA
  8
LAYER_1
 10
16.59628798720725
 20
14.47545193194742
 30
0.0
  0
VERTEX
  5
5BB
  8
LAYER_1
 10
16.55802326313153
 20
14.13814609343156
 30
0.0
  0
VERTEX
  5
5BC
  8
LAYER_1
 10
16.53219191012242
 20
13.81597920564308
 30
0.0
  0
VERTEX
  5
5BD
  8
LAYER_1
 10
16.51905295545912
 20
13.50974819485883
 30
0.0
  0
VERTEX
  5
5BE
  8
LAYER_1
 10
16.51886542642083
 20
13.22024998735567
 30
0.0
  0
VERTEX
  5
5BF
  8
LAYER_1
 10
16.53188835028673
 20
12.94828150941045
 30
0.0
  0
VERTEX
  5
5C0
  8
LAYER_1
 10
16.55838075433601
 20
12.69463968730004
 30
0.0
  0
VERTEX
  5
5C1
  8
LAYER_1
 10
16.59860166584787
 20
12.46012144730128
 30
0.0
  0
VERTEX
  5
5C2
  8
LAYER_1
 10
16.66883468546803
 20
12.20016345526121
 30
0.0
  0
VERTEX
  5
5C3
  8
LAYER_1
 10
16.77866874714937
 20
11.89074535036534
 30
0.0
  0
VERTEX
  5
5C4
  8
LAYER_1
 10
16.9225313350043
 20
11.54342295996785
 30
0.0
  0
VERTEX
  5
5C5
  8
LAYER_1
 10
17.09484993314526
 20
11.16975211142294
 30
0.0
  0
VERTEX
  5
5C6
  8
LAYER_1
 10
17.29005202568466
 20
10.78128863208477
 30
0.0
  0
VERTEX
  5
5C7
  8
LAYER_1
 10
17.50256509673494
 20
10.38958834930754
 30
0.0
  0
VERTEX
  5
5C8
  8
LAYER_1
 10
17.72681663040853
 20
10.00620709044543
 30
0.0
  0
VERTEX
  5
5C9
  8
LAYER_1
 10
17.95723411081785
 20
9.642700682852627
 30
0.0
  0
VERTEX
  5
5CA
  8
LAYER_1
 10
18.29269986894267
 20
9.113173532834633
 30
0.0
  0
VERTEX
  5
5CB
  8
LAYER_1
 10
18.60242190132206
 20
8.575847233960868
 30
0.0
  0
VERTEX
  5
5CC
  8
LAYER_1
 10
18.88670510152984
 20
8.029462663370845
 30
0.0
  0
VERTEX
  5
5CD
  8
LAYER_1
 10
19.14585436313984
 20
7.472760698204077
 30
0.0
  0
VERTEX
  5
5CE
  8
LAYER_1
 10
19.38017457972589
 20
6.904482215600082
 30
0.0
  0
VERTEX
  5
5CF
  8
LAYER_1
 10
19.58997064486181
 20
6.323368092698376
 30
0.0
  0
VERTEX
  5
5D0
  8
LAYER_1
 10
19.77554745212143
 20
5.728159206638471
 30
0.0
  0
VERTEX
  5
5D1
  8
LAYER_1
 10
19.93720989507858
 20
5.117596434559885
 30
0.0
  0
VERTEX
  5
5D2
  8
LAYER_1
 10
20.07526286730709
 20
4.490420653602133
 30
0.0
  0
VERTEX
  5
5D3
  8
LAYER_1
 10
20.19001126238079
 20
3.845372740904732
 30
0.0
  0
VERTEX
  5
5D4
  8
LAYER_1
 10
20.2817599738735
 20
3.181193573607195
 30
0.0
  0
VERTEX
  5
5D5
  8
LAYER_1
 10
20.35081389535905
 20
2.496624028849039
 30
0.0
  0
VERTEX
  5
5D6
  8
LAYER_1
 10
20.39747792041128
 20
1.79040498376978
 30
0.0
  0
VERTEX
  5
5D7
  8
LAYER_1
 10
20.42205694260399
 20
1.061277315508931
 30
0.0
  0
VERTEX
  5
5D8
  8
LAYER_1
 10
20.42485585551104
 20
0.3079819012060096
 30
0.0
  0
VERTEX
  5
5D9
  8
LAYER_1
 10
20.40617955270625
 20
-0.4707403819994695
 30
0.0
  0
VERTEX
  5
5DA
  8
LAYER_1
 10
20.36044189820672
 20
-1.504344114692391
 30
0.0
  0
VERTEX
  5
5DB
  8
LAYER_1
 10
20.30256389980985
 20
-2.374289559784073
 30
0.0
  0
VERTEX
  5
5DC
  8
LAYER_1
 10
20.26718635045278
 20
-2.757740171936072
 30
0.0
  0
VERTEX
  5
5DD
  8
LAYER_1
 10
20.2265106096848
 20
-3.112095909135707
 30
0.0
  0
VERTEX
  5
5DE
  8
LAYER_1
 10
20.17978230902705
 20
-3.44129667036563
 30
0.0
  0
VERTEX
  5
5DF
  8
LAYER_1
 10
20.1262470800007
 20
-3.749282354608488
 30
0.0
  0
VERTEX
  5
5E0
  8
LAYER_1
 10
20.06515055412686
 20
-4.039992860846931
 30
0.0
  0
VERTEX
  5
5E1
  8
LAYER_1
 10
19.99573836292669
 20
-4.31736808806361
 30
0.0
  0
VERTEX
  5
5E2
  8
LAYER_1
 10
19.91725613792134
 20
-4.585347935241171
 30
0.0
  0
VERTEX
  5
5E3
  8
LAYER_1
 10
19.82894951063194
 20
-4.847872301362266
 30
0.0
  0
VERTEX
  5
5E4
  8
LAYER_1
 10
19.73006411257964
 20
-5.108881085409543
 30
0.0
  0
VERTEX
  5
5E5
  8
LAYER_1
 10
19.61984557528558
 20
-5.372314186365649
 30
0.0
  0
VERTEX
  5
5E6
  8
LAYER_1
 10
19.36239160905677
 20
-5.922212934934954
 30
0.0
  0
VERTEX
  5
5E7
  8
LAYER_1
 10
19.15135536481714
 20
-6.362274650505069
 30
0.0
  0
VERTEX
  5
5E8
  8
LAYER_1
 10
18.98481806947317
 20
-6.740058168605402
 30
0.0
  0
VERTEX
  5
5E9
  8
LAYER_1
 10
18.86250323191417
 20
-7.056674096035403
 30
0.0
  0
VERTEX
  5
5EA
  8
LAYER_1
 10
18.78413436102946
 20
-7.313233039594518
 30
0.0
  0
VERTEX
  5
5EB
  8
LAYER_1
 10
18.76134325961788
 20
-7.419338207047321
 30
0.0
  0
VERTEX
  5
5EC
  8
LAYER_1
 10
18.74943496570838
 20
-7.510845606082198
 30
0.0
  0
VERTEX
  5
5ED
  8
LAYER_1
 10
18.74837491791212
 20
-7.587894062549077
 30
0.0
  0
VERTEX
  5
5EE
  8
LAYER_1
 10
18.75812855484025
 20
-7.65062240229789
 30
0.0
  0
VERTEX
  5
5EF
  8
LAYER_1
 10
18.77866131510396
 20
-7.699169451178569
 30
0.0
  0
VERTEX
  5
5F0
  8
LAYER_1
 10
18.8099386373144
 20
-7.733674035041044
 30
0.0
  0
VERTEX
  5
5F1
  8
LAYER_1
 10
18.85192596008273
 20
-7.754274979735245
 30
0.0
  0
SEQEND
  5
5F2
  8
LAYER_1
  0
POLYLINE
  5
4D
  8
LAYER_1
 66
     1
 10
0.0
 20
0.0
 30
0.0
 70
     1
  0
VERTEX
  5
5F3
  8
LAYER_1
 10
28.58415225377396
 20
-1.229065818316236
 30
0.0
  0
VERTEX
  5
5F4
  8
LAYER_1
 10
28.74375304261949
 20
-1.11416885778831
 30
0.0
  0
VERTEX
  5
5F5
  8
LAYER_1
 10
28.95156714215362
 20
-0.9385493057367504
 30
0.0
  0
VERTEX
  5
5F6
  8
LAYER_1
 10
29.20258185670111
 20
-0.70769223342253
 30
0.0
  0
VERTEX
  5
5F7
  8
LAYER_1
 10
29.49178449058673
 20
-0.4270827121066197
 30
0.0
  0
VERTEX
  5
5F8
  8
LAYER_1
 10
30.16470273367144
 20
0.2614533924863845
 30
0.0
  0
VERTEX
  5
5F9
  8
LAYER_1
 10
30.93022030600586
 20
1.083178437954492
 30
0.0
  0
VERTEX
  5
5FA
  8
LAYER_1
 10
31.74823564218812
 20
1.99421185420993
 30
0.0
  0
VERTEX
  5
5FB
  8
LAYER_1
 10
32.57864717681635
 20
2.95067307116493
 30
0.0
  0
VERTEX
  5
5FC
  8
LAYER_1
 10
33.38135334448867
 20
3.908681518731719
 30
0.0
  0
VERTEX
  5
5FD
  8
LAYER_1
 10
34.1162525798032
 20
4.824356626822528
 30
0.0
  0
VERTEX
  5
5FE
  8
LAYER_1
 10
34.5225903811578
 20
5.352613365602179
 30
0.0
  0
VERTEX
  5
5FF
  8
LAYER_1
 10
34.93835594504213
 20
5.909712429068043
 30
0.0
  0
VERTEX
  5
600
  8
LAYER_1
 10
35.36437869485694
 20
6.496948382560042
 30
0.0
  0
VERTEX
  5
601
  8
LAYER_1
 10
35.80148805400299
 20
7.115615791418102
 30
0.0
  0
VERTEX
  5
602
  8
LAYER_1
 10
36.25051344588109
 20
7.767009220982145
 30
0.0
  0
VERTEX
  5
603
  8
LAYER_1
 10
36.71228429389198
 20
8.452423236592098
 30
0.0
  0
VERTEX
  5
604
  8
LAYER_1
 10
37.18763002143645
 20
9.173152403587885
 30
0.0
  0
VERTEX
  5
605
  8
LAYER_1
 10
37.67738005191527
 20
9.93049128730943
 30
0.0
  0
VERTEX
  5
606
  8
LAYER_1
 10
38.70341071527902
 20
11.56017646628949
 30
0.0
  0
VERTEX
  5
607
  8
LAYER_1
 10
39.79701167118941
 20
13.35183529625168
 30
0.0
  0
VERTEX
  5
608
  8
LAYER_1
 10
40.96481830685262
 20
15.31582429991538
 30
0.0
  0
VERTEX
  5
609
  8
LAYER_1
 10
42.21346600947481
 20
17.4625
 30
0.0
  0
VERTEX
  5
60A
  8
LAYER_1
 10
46.19618769324904
 20
24.46602665337172
 30
0.0
  0
VERTEX
  5
60B
  8
LAYER_1
 10
46.77503528627132
 20
25.47782351579651
 30
0.0
  0
VERTEX
  5
60C
  8
LAYER_1
 10
47.51023030322813
 20
26.70646826902539
 30
0.0
  0
VERTEX
  5
60D
  8
LAYER_1
 10
48.30740399656472
 20
27.99683139553763
 30
0.0
  0
VERTEX
  5
60E
  8
LAYER_1
 10
49.07218761872639
 20
29.19378337781254
 30
0.0
  0
VERTEX
  5
60F
  8
LAYER_1
 10
50.81069025482169
 20
31.85690233777053
 30
0.0
  0
VERTEX
  5
610
  8
LAYER_1
 10
50.49116107247791
 20
32.17643152011518
 30
0.0
  0
VERTEX
  5
611
  8
LAYER_1
 10
40.74583333333334
 20
27.07237876322352
 30
0.0
  0
VERTEX
  5
612
  8
LAYER_1
 10
38.98194444444444
 20
25.92636114594396
 30
0.0
  0
VERTEX
  5
613
  8
LAYER_1
 10
38.59980656528694
 20
25.67339446159198
 30
0.0
  0
VERTEX
  5
614
  8
LAYER_1
 10
38.23329292497132
 20
25.42092303328031
 30
0.0
  0
VERTEX
  5
615
  8
LAYER_1
 10
37.88202158951162
 20
25.16827750396017
 30
0.0
  0
VERTEX
  5
616
  8
LAYER_1
 10
37.54561062492188
 20
24.91478851658279
 30
0.0
  0
VERTEX
  5
617
  8
LAYER_1
 10
37.22367809721614
 20
24.65978671409938
 30
0.0
  0
VERTEX
  5
618
  8
LAYER_1
 10
36.91584207240844
 20
24.40260273946118
 30
0.0
  0
VERTEX
  5
619
  8
LAYER_1
 10
36.6217206165128
 20
24.14256723561941
 30
0.0
  0
VERTEX
  5
61A
  8
LAYER_1
 10
36.3409317955433
 20
23.87901084552528
 30
0.0
  0
VERTEX
  5
61B
  8
LAYER_1
 10
36.07309367551395
 20
23.61126421213002
 30
0.0
  0
VERTEX
  5
61C
  8
LAYER_1
 10
35.81782432243879
 20
23.33865797838486
 30
0.0
  0
VERTEX
  5
61D
  8
LAYER_1
 10
35.57474180233187
 20
23.06052278724102
 30
0.0
  0
VERTEX
  5
61E
  8
LAYER_1
 10
35.34346418120724
 20
22.77618928164971
 30
0.0
  0
VERTEX
  5
61F
  8
LAYER_1
 10
35.12360952507893
 20
22.48498810456217
 30
0.0
  0
VERTEX
  5
620
  8
LAYER_1
 10
34.91479589996096
 20
22.18624989892961
 30
0.0
  0
VERTEX
  5
621
  8
LAYER_1
 10
34.71664137186739
 20
21.87930530770327
 30
0.0
  0
VERTEX
  5
622
  8
LAYER_1
 10
34.52876400681227
 20
21.56348497383435
 30
0.0
  0
VERTEX
  5
623
  8
LAYER_1
 10
34.35078187080962
 20
21.23811954027409
 30
0.0
  0
VERTEX
  5
624
  8
LAYER_1
 10
34.18231302987348
 20
20.90253964997372
 30
0.0
  0
VERTEX
  5
625
  8
LAYER_1
 10
34.02297555001792
 20
20.55607594588444
 30
0.0
  0
VERTEX
  5
626
  8
LAYER_1
 10
33.87238749725694
 20
20.19805907095748
 30
0.0
  0
VERTEX
  5
627
  8
LAYER_1
 10
33.73016693760459
 20
19.82781966814408
 30
0.0
  0
VERTEX
  5
628
  8
LAYER_1
 10
33.59593193707494
 20
19.44468838039544
 30
0.0
  0
VERTEX
  5
629
  8
LAYER_1
 10
33.469300561682
 20
19.0479958506628
 30
0.0
  0
VERTEX
  5
62A
  8
LAYER_1
 10
33.34989087743981
 20
18.63707272189738
 30
0.0
  0
VERTEX
  5
62B
  8
LAYER_1
 10
33.23732095036243
 20
18.21124963705039
 30
0.0
  0
VERTEX
  5
62C
  8
LAYER_1
 10
33.13120884646388
 20
17.76985723907307
 30
0.0
  0
VERTEX
  5
62D
  8
LAYER_1
 10
33.03117263175821
 20
17.31222617091663
 30
0.0
  0
VERTEX
  5
62E
  8
LAYER_1
 10
32.93683037225945
 20
16.8376870755323
 30
0.0
  0
VERTEX
  5
62F
  8
LAYER_1
 10
32.84780013398165
 20
16.34557059587131
 30
0.0
  0
VERTEX
  5
630
  8
LAYER_1
 10
32.76369998293885
 20
15.83520737488487
 30
0.0
  0
VERTEX
  5
631
  8
LAYER_1
 10
32.6087622066144
 20
14.75706328074055
 30
0.0
  0
VERTEX
  5
632
  8
LAYER_1
 10
32.36236750721889
 20
12.97821087672709
 30
0.0
  0
VERTEX
  5
633
  8
LAYER_1
 10
32.2387665164887
 20
12.16567566836905
 30
0.0
  0
VERTEX
  5
634
  8
LAYER_1
 10
32.11288932307538
 20
11.39588684025798
 30
0.0
  0
VERTEX
  5
635
  8
LAYER_1
 10
31.98323059548282
 20
10.66245868075477
 30
0.0
  0
VERTEX
  5
636
  8
LAYER_1
 10
31.84828500221488
 20
9.959005478220282
 30
0.0
  0
VERTEX
  5
637
  8
LAYER_1
 10
31.70654721177545
 20
9.279141521015408
 30
0.0
  0
VERTEX
  5
638
  8
LAYER_1
 10
31.55651189266841
 20
8.61648109750103
 30
0.0
  0
VERTEX
  5
639
  8
LAYER_1
 10
31.39667371339765
 20
7.964638496038026
 30
0.0
  0
VERTEX
  5
63A
  8
LAYER_1
 10
31.22552734246702
 20
7.317228004987276
 30
0.0
  0
VERTEX
  5
63B
  8
LAYER_1
 10
31.04156744838043
 20
6.667863912709663
 30
0.0
  0
VERTEX
  5
63C
  8
LAYER_1
 10
30.84328869964174
 20
6.010160507566066
 30
0.0
  0
VERTEX
  5
63D
  8
LAYER_1
 10
30.62918576475482
 20
5.337732077917368
 30
0.0
  0
VERTEX
  5
63E
  8
LAYER_1
 10
30.39775331222356
 20
4.644192912124447
 30
0.0
  0
VERTEX
  5
63F
  8
LAYER_1
 10
30.14748601055185
 20
3.923157298548187
 30
0.0
  0
VERTEX
  5
640
  8
LAYER_1
 10
29.87687852824355
 20
3.168239525549467
 30
0.0
  0
VERTEX
  5
641
  8
LAYER_1
 10
28.3818541601868
 20
-0.851621400342431
 30
0.0
  0
VERTEX
  5
642
  8
LAYER_1
 10
28.31351542811652
 20
-1.026554846787995
 30
0.0
  0
VERTEX
  5
643
  8
LAYER_1
 10
28.27045481950171
 20
-1.162240733786971
 30
0.0
  0
VERTEX
  5
644
  8
LAYER_1
 10
28.25340841458159
 20
-1.260052427605675
 30
0.0
  0
VERTEX
  5
645
  8
LAYER_1
 10
28.2548705635818
 20
-1.29518462903065
 30
0.0
  0
VERTEX
  5
646
  8
LAYER_1
 10
28.26311229359538
 20
-1.321363294510427
 30
0.0
  0
VERTEX
  5
647
  8
LAYER_1
 10
28.27822561465225
 20
-1.338760094828294
 30
0.0
  0
VERTEX
  5
648
  8
LAYER_1
 10
28.3003025367823
 20
-1.347546700767541
 30
0.0
  0
VERTEX
  5
649
  8
LAYER_1
 10
28.36571522438156
 20
-1.339976012643336
 30
0.0
  0
VERTEX
  5
64A
  8
LAYER_1
 10
28.46008643663238
 20
-1.300024596404129
 30
0.0
  0
SEQEND
  5
64B
  8
LAYER_1
  0
POLYLINE
  5
4E
  8
LAYER_1
 66
     1
 10
0.0
 20
0.0
 30
0.0
 70
     1
  0
VERTEX
  5
64C
  8
LAYER_1
 10
34.83680555555556
 20
1.011581705415807
 30
0.0
  0
VERTEX
  5
64D
  8
LAYER_1
 10
34.95052319541715
 20
1.078806027089355
 30
0.0
  0
VERTEX
  5
64E
  8
LAYER_1
 10
35.07898454359969
 20
1.166147960378421
 30
0.0
  0
VERTEX
  5
64F
  8
LAYER_1
 10
35.37649184703764
 20
1.39714602782184
 30
0.0
  0
VERTEX
  5
650
  8
LAYER_1
 10
35.72203443008942
 20
1.696498639783535
 30
0.0
  0
VERTEX
  5
651
  8
LAYER_1
 10
36.10831925697505
 20
2.056128528300972
 30
0.0
  0
VERTEX
  5
652
  8
LAYER_1
 10
36.52805329191453
 20
2.467958425411623
 30
0.0
  0
VERTEX
  5
653
  8
LAYER_1
 10
36.97394349912787
 20
2.923911063152955
 30
0.0
  0
VERTEX
  5
654
  8
LAYER_1
 10
37.43869684283508
 20
3.415909173562438
 30
0.0
  0
VERTEX
  5
655
  8
LAYER_1
 10
37.91502028725617
 20
3.93587548867754
 30
0.0
  0
VERTEX
  5
656
  8
LAYER_1
 10
38.39562079661114
 20
4.475732740535729
 30
0.0
  0
VERTEX
  5
657
  8
LAYER_1
 10
38.87320533512001
 20
5.027403661174477
 30
0.0
  0
VERTEX
  5
658
  8
LAYER_1
 10
39.34048086700278
 20
5.58281098263125
 30
0.0
  0
VERTEX
  5
659
  8
LAYER_1
 10
39.79015435647946
 20
6.133877436943519
 30
0.0
  0
VERTEX
  5
65A
  8
LAYER_1
 10
40.21493276777007
 20
6.672525756148751
 30
0.0
  0
VERTEX
  5
65B
  8
LAYER_1
 10
40.60752306509461
 20
7.190678672284417
 30
0.0
  0
VERTEX
  5
65C
  8
LAYER_1
 10
40.96063221267309
 20
7.680258917387983
 30
0.0
  0
VERTEX
  5
65D
  8
LAYER_1
 10
41.26696717472552
 20
8.13318922349692
 30
0.0
  0
VERTEX
  5
65E
  8
LAYER_1
 10
41.64260486672049
 20
8.725894446409656
 30
0.0
  0
VERTEX
  5
65F
  8
LAYER_1
 10
42.02395077016756
 20
9.355606647719872
 30
0.0
  0
VERTEX
  5
660
  8
LAYER_1
 10
42.40975285355599
 20
10.0197219517698
 30
0.0
  0
VERTEX
  5
661
  8
LAYER_1
 10
42.79875908537504
 20
10.71563648290166
 30
0.0
  0
VERTEX
  5
662
  8
LAYER_1
 10
43.18971743411397
 20
11.44074636545768
 30
0.0
  0
VERTEX
  5
663
  8
LAYER_1
 10
43.58137586826203
 20
12.1924477237801
 30
0.0
  0
VERTEX
  5
664
  8
LAYER_1
 10
43.9724823563085
 20
12.96813668221114
 30
0.0
  0
VERTEX
  5
665
  8
LAYER_1
 10
44.36178486674262
 20
13.76520936509304
 30
0.0
  0
VERTEX
  5
666
  8
LAYER_1
 10
44.74803136805366
 20
14.58106189676801
 30
0.0
  0
VERTEX
  5
667
  8
LAYER_1
 10
45.12996982873088
 20
15.41309040157828
 30
0.0
  0
VERTEX
  5
668
  8
LAYER_1
 10
45.50634821726354
 20
16.2586910038661
 30
0.0
  0
VERTEX
  5
669
  8
LAYER_1
 10
45.8759145021409
 20
17.11525982797367
 30
0.0
  0
VERTEX
  5
66A
  8
LAYER_1
 10
46.23741665185223
 20
17.98019299824325
 30
0.0
  0
VERTEX
  5
66B
  8
LAYER_1
 10
46.58960263488677
 20
18.85088663901703
 30
0.0
  0
VERTEX
  5
66C
  8
LAYER_1
 10
46.93122041973379
 20
19.72473687463728
 30
0.0
  0
VERTEX
  5
66D
  8
LAYER_1
 10
47.26101797488255
 20
20.59913982944619
 30
0.0
  0
VERTEX
  5
66E
  8
LAYER_1
 10
48.68333333333334
 20
24.44133521444795
 30
0.0
  0
VERTEX
  5
66F
  8
LAYER_1
 10
48.68333333333334
 20
24.82277397642533
 30
0.0
  0
VERTEX
  5
670
  8
LAYER_1
 10
48.67481931765342
 20
24.9062058730753
 30
0.0
  0
VERTEX
  5
671
  8
LAYER_1
 10
48.664040834737
 20
24.93275196775697
 30
0.0
  0
VERTEX
  5
672
  8
LAYER_1
 10
48.64879384548827
 20
24.94899349588422
 30
0.0
  0
VERTEX
  5
673
  8
LAYER_1
 10
48.62898770769622
 20
24.95478695936286
 30
0.0
  0
VERTEX
  5
674
  8
LAYER_1
 10
48.60453177914983
 20
24.94998886009871
 30
0.0
  0
VERTEX
  5
675
  8
LAYER_1
 10
48.54130798095001
 20
24.90804398096538
 30
0.0
  0
VERTEX
  5
676
  8
LAYER_1
 10
48.45839731320074
 20
24.82201087373083
 30
0.0
  0
VERTEX
  5
677
  8
LAYER_1
 10
48.35507463821394
 20
24.69074155364166
 30
0.0
  0
VERTEX
  5
678
  8
LAYER_1
 10
48.23061481830153
 20
24.5130880359445
 30
0.0
  0
VERTEX
  5
679
  8
LAYER_1
 10
48.08429271577544
 20
24.28790233588593
 30
0.0
  0
VERTEX
  5
67A
  8
LAYER_1
 10
47.72316111212991
 20
23.69034244967104
 30
0.0
  0
VERTEX
  5
67B
  8
LAYER_1
 10
47.26587872577272
 20
22.88887801696985
 30
0.0
  0
VERTEX
  5
67C
  8
LAYER_1
 10
46.70664445519927
 20
21.87432515975522
 30
0.0
  0
VERTEX
  5
67D
  8
LAYER_1
 10
46.03965719890496
 20
20.6375
 30
0.0
  0
VERTEX
  5
67E
  8
LAYER_1
 10
44.4564871598659
 20
17.69786327298883
 30
0.0
  0
VERTEX
  5
67F
  8
LAYER_1
 10
43.03855181154724
 20
15.10998359035476
 30
0.0
  0
VERTEX
  5
680
  8
LAYER_1
 10
42.38102682431443
 20
13.9300655342015
 30
0.0
  0
VERTEX
  5
681
  8
LAYER_1
 10
41.75218612324936
 20
12.81662221136936
 30
0.0
  0
VERTEX
  5
682
  8
LAYER_1
 10
41.1478215795146
 20
11.76249877926729
 30
0.0
  0
VERTEX
  5
683
  8
LAYER_1
 10
40.56372506427267
 20
10.76054039530422
 30
0.0
  0
VERTEX
  5
684
  8
LAYER_1
 10
39.99568844868614
 20
9.803592216889108
 30
0.0
  0
VERTEX
  5
685
  8
LAYER_1
 10
39.43950360391756
 20
8.8844994014309
 30
0.0
  0
VERTEX
  5
686
  8
LAYER_1
 10
38.89096240112947
 20
7.996107106338542
 30
0.0
  0
VERTEX
  5
687
  8
LAYER_1
 10
38.34585671148442
 20
7.131260489020981
 30
0.0
  0
VERTEX
  5
688
  8
LAYER_1
 10
37.79997840614497
 20
6.282804706887164
 30
0.0
  0
VERTEX
  5
689
  8
LAYER_1
 10
37.24911935627366
 20
5.443584917346039
 30
0.0
  0
VERTEX
  5
68A
  8
LAYER_1
 10
36.68907143303304
 20
4.606446277806549
 30
0.0
  0
VERTEX
  5
68B
  8
LAYER_1
 10
36.11562650758566
 20
3.764233945677645
 30
0.0
  0
VERTEX
  5
68C
  8
LAYER_1
 10
34.21944444444445
 20
1.002079002466402
 30
0.0
  0
VERTEX
  5
68D
  8
LAYER_1
 10
34.21944444444445
 20
0.8414052308777116
 30
0.0
  0
VERTEX
  5
68E
  8
LAYER_1
 10
34.2320448811849
 20
0.8158819645967126
 30
0.0
  0
VERTEX
  5
68F
  8
LAYER_1
 10
34.26815809461806
 20
0.8051247702364828
 30
0.0
  0
VERTEX
  5
690
  8
LAYER_1
 10
34.32525193956164
 20
0.8084356583506749
 30
0.0
  0
VERTEX
  5
691
  8
LAYER_1
 10
34.40079427083334
 20
0.8251166394929417
 30
0.0
  0
VERTEX
  5
692
  8
LAYER_1
 10
34.59709581163195
 20
0.8957969230763094
 30
0.0
  0
SEQEND
  5
693
  8
LAYER_1
  0
POLYLINE
  5
4F
  8
LAYER_1
 66
     1
 10
0.0
 20
0.0
 30
0.0
 70
     1
  0
VERTEX
  5
694
  8
LAYER_1
 10
-31.12881494232109
 20
1.561925798419658
 30
0.0
  0
VERTEX
  5
695
  8
LAYER_1
 10
-31.11962842631979
 20
1.595146201359316
 30
0.0
  0
VERTEX
  5
696
  8
LAYER_1
 10
-31.13088007432244
 20
1.654784055003518
 30
0.0
  0
VERTEX
  5
697
  8
LAYER_1
 10
-31.16182444793911
 20
1.739766558989865
 30
0.0
  0
VERTEX
  5
698
  8
LAYER_1
 10
-31.21171610877985
 20
1.849020912955959
 30
0.0
  0
VERTEX
  5
699
  8
LAYER_1
 10
-31.36535953857378
 20
2.13605396937779
 30
0.0
  0
VERTEX
  5
69A
  8
LAYER_1
 10
-31.58584685658473
 20
2.507300821369821
 30
0.0
  0
VERTEX
  5
69B
  8
LAYER_1
 10
-31.86721455569318
 20
2.954179066032861
 30
0.0
  0
VERTEX
  5
69C
  8
LAYER_1
 10
-32.20349912877961
 20
3.468106300467719
 30
0.0
  0
VERTEX
  5
69D
  8
LAYER_1
 10
-33.01696486840834
 20
4.662778127056132
 30
0.0
  0
VERTEX
  5
69E
  8
LAYER_1
 10
-33.97853601851477
 20
6.022657077941535
 30
0.0
  0
VERTEX
  5
69F
  8
LAYER_1
 10
-35.0405045221428
 20
7.479083929930404
 30
0.0
  0
VERTEX
  5
6A0
  8
LAYER_1
 10
-36.15516232233627
 20
8.963399459829217
 30
0.0
  0
VERTEX
  5
6A1
  8
LAYER_1
 10
-36.71734094084624
 20
9.694559471746874
 30
0.0
  0
VERTEX
  5
6A2
  8
LAYER_1
 10
-37.27480136213903
 20
10.40694444444445
 30
0.0
  0
VERTEX
  5
6A3
  8
LAYER_1
 10
-40.38793730972721
 20
14.2875
 30
0.0
  0
VERTEX
  5
6A4
  8
LAYER_1
 10
-40.5970833065897
 20
14.53164454472031
 30
0.0
  0
VERTEX
  5
6A5
  8
LAYER_1
 10
-40.77631950458592
 20
14.72736072515779
 30
0.0
  0
VERTEX
  5
6A6
  8
LAYER_1
 10
-40.92567804457666
 20
14.87490068793658
 30
0.0
  0
VERTEX
  5
6A7
  8
LAYER_1
 10
-41.04519106742271
 20
14.97451657968085
 30
0.0
  0
VERTEX
  5
6A8
  8
LAYER_1
 10
-41.13489071398483
 20
15.02646054701475
 30
0.0
  0
VERTEX
  5
6A9
  8
LAYER_1
 10
-41.16857056517843
 20
15.03463435484785
 30
0.0
  0
VERTEX
  5
6AA
  8
LAYER_1
 10
-41.19480912512383
 20
15.03098473656243
 30
0.0
  0
VERTEX
  5
6AB
  8
LAYER_1
 10
-41.21361041142865
 20
15.01554321048648
 30
0.0
  0
VERTEX
  5
6AC
  8
LAYER_1
 10
-41.22497844170049
 20
14.98834129494804
 30
0.0
  0
VERTEX
  5
6AD
  8
LAYER_1
 10
-41.22543080457559
 20
14.89878236879575
 30
0.0
  0
VERTEX
  5
6AE
  8
LAYER_1
 10
-41.19619835460993
 20
14.76256010472969
 30
0.0
  0
VERTEX
  5
6AF
  8
LAYER_1
 10
-41.13731323266428
 20
14.57992664937404
 30
0.0
  0
VERTEX
  5
6B0
  8
LAYER_1
 10
-41.04880757959943
 20
14.35113414935294
 30
0.0
  0
VERTEX
  5
6B1
  8
LAYER_1
 10
-40.93071353627616
 20
14.07643475129055
 30
0.0
  0
VERTEX
  5
6B2
  8
LAYER_1
 10
-40.60588884229752
 20
13.39032384753849
 30
0.0
  0
VERTEX
  5
6B3
  8
LAYER_1
 10
-40.16309627761465
 20
12.52361111111112
 30
0.0
  0
VERTEX
  5
6B4
  8
LAYER_1
 10
-39.8182571639755
 20
11.87911952054348
 30
0.0
  0
VERTEX
  5
6B5
  8
LAYER_1
 10
-39.46867965346649
 20
11.2515186100506
 30
0.0
  0
VERTEX
  5
6B6
  8
LAYER_1
 10
-39.11376750353501
 20
10.63999670812918
 30
0.0
  0
VERTEX
  5
6B7
  8
LAYER_1
 10
-38.75292447162839
 20
10.0437421432759
 30
0.0
  0
VERTEX
  5
6B8
  8
LAYER_1
 10
-38.38555431519399
 20
9.461943243987484
 30
0.0
  0
VERTEX
  5
6B9
  8
LAYER_1
 10
-38.01106079167914
 20
8.893788338760617
 30
0.0
  0
VERTEX
  5
6BA
  8
LAYER_1
 10
-37.6288476585312
 20
8.338465756092006
 30
0.0
  0
VERTEX
  5
6BB
  8
LAYER_1
 10
-37.23831867319751
 20
7.795163824478351
 30
0.0
  0
VERTEX
  5
6BC
  8
LAYER_1
 10
-36.83887759312544
 20
7.263070872416352
 30
0.0
  0
VERTEX
  5
6BD
  8
LAYER_1
 10
-36.42992817576233
 20
6.741375228402711
 30
0.0
  0
VERTEX
  5
6BE
  8
LAYER_1
 10
-36.01087417855553
 20
6.229265220934127
 30
0.0
  0
VERTEX
  5
6BF
  8
LAYER_1
 10
-35.58111935895239
 20
5.7259291785073
 30
0.0
  0
VERTEX
  5
6C0
  8
LAYER_1
 10
-35.14006747440027
 20
5.230555429618934
 30
0.0
  0
VERTEX
  5
6C1
  8
LAYER_1
 10
-34.68712228234651
 20
4.742332302765726
 30
0.0
  0
VERTEX
  5
6C2
  8
LAYER_1
 10
-34.22168754023845
 20
4.260448126444379
 30
0.0
  0
VERTEX
  5
6C3
  8
LAYER_1
 10
-33.74316700552346
 20
3.784091229151592
 30
0.0
  0
VERTEX
  5
6C4
  8
LAYER_1
 10
-31.29616939354868
 20
1.394571347192063
 30
0.0
  0
SEQEND
  5
6C5
  8
LAYER_1
  0
POLYLINE
  5
50
  8
LAYER_1
 66
     1
 10
0.0
 20
0.0
 30
0.0
 70
     1
  0
VERTEX
  5
6C6
  8
LAYER_1
 10
41.76416810328108
 20
3.88055555555556
 30
0.0
  0
VERTEX
  5
6C7
  8
LAYER_1
 10
41.85420361594959
 20
3.901963248328092
 30
0.0
  0
VERTEX
  5
6C8
  8
LAYER_1
 10
42.0456703191754
 20
3.963318310389079
 30
0.0
  0
VERTEX
  5
6C9
  8
LAYER_1
 10
42.68539570506515
 20
4.18866244483678
 30
0.0
  0
VERTEX
  5
6CA
  8
LAYER_1
 10
43.58834107648272
 20
4.522171763819378
 30
0.0
  0
VERTEX
  5
6CB
  8
LAYER_1
 10
44.6595032489605
 20
4.929430072257588
 30
0.0
  0
VERTEX
  5
6CC
  8
LAYER_1
 10
45.30971795572535
 20
5.186338180447408
 30
0.0
  0
VERTEX
  5
6CD
  8
LAYER_1
 10
45.91633183842555
 20
5.439816889315786
 30
0.0
  0
VERTEX
  5
6CE
  8
LAYER_1
 10
46.48068088119558
 20
5.690821814071837
 30
0.0
  0
VERTEX
  5
6CF
  8
LAYER_1
 10
47.00410106816994
 20
5.940308569924684
 30
0.0
  0
VERTEX
  5
6D0
  8
LAYER_1
 10
47.48792838348309
 20
6.189232772083444
 30
0.0
  0
VERTEX
  5
6D1
  8
LAYER_1
 10
47.93349881126954
 20
6.438550035757235
 30
0.0
  0
VERTEX
  5
6D2
  8
LAYER_1
 10
48.34214833566376
 20
6.689215976155176
 30
0.0
  0
VERTEX
  5
6D3
  8
LAYER_1
 10
48.71521294080023
 20
6.942186208486386
 30
0.0
  0
VERTEX
  5
6D4
  8
LAYER_1
 10
49.05402861081343
 20
7.198416347959983
 30
0.0
  0
VERTEX
  5
6D5
  8
LAYER_1
 10
49.35993132983788
 20
7.458862009785086
 30
0.0
  0
VERTEX
  5
6D6
  8
LAYER_1
 10
49.63425708200803
 20
7.724478809170814
 30
0.0
  0
VERTEX
  5
6D7
  8
LAYER_1
 10
49.87834185145837
 20
7.996222361326286
 30
0.0
  0
VERTEX
  5
6D8
  8
LAYER_1
 10
50.09352162232339
 20
8.275048281460617
 30
0.0
  0
VERTEX
  5
6D9
  8
LAYER_1
 10
50.28113237873757
 20
8.561912184782932
 30
0.0
  0
VERTEX
  5
6DA
  8
LAYER_1
 10
50.44251010483539
 20
8.857769686502344
 30
0.0
  0
VERTEX
  5
6DB
  8
LAYER_1
 10
50.57899078475134
 20
9.163576401827974
 30
0.0
  0
VERTEX
  5
6DC
  8
LAYER_1
 10
50.70645287115303
 20
9.520969927879246
 30
0.0
  0
VERTEX
  5
6DD
  8
LAYER_1
 10
50.82408639827861
 20
9.928908449650834
 30
0.0
  0
VERTEX
  5
6DE
  8
LAYER_1
 10
50.93154863022085
 20
10.3826956251465
 30
0.0
  0
VERTEX
  5
6DF
  8
LAYER_1
 10
51.02849683107253
 20
10.87763511237003
 30
0.0
  0
VERTEX
  5
6E0
  8
LAYER_1
 10
51.11458826492643
 20
11.40903056932516
 30
0.0
  0
VERTEX
  5
6E1
  8
LAYER_1
 10
51.18948019587533
 20
11.97218565401569
 30
0.0
  0
VERTEX
  5
6E2
  8
LAYER_1
 10
51.25282988801202
 20
12.56240402444537
 30
0.0
  0
VERTEX
  5
6E3
  8
LAYER_1
 10
51.30429460542926
 20
13.17498933861797
 30
0.0
  0
VERTEX
  5
6E4
  8
LAYER_1
 10
51.34353161221983
 20
13.80524525453725
 30
0.0
  0
VERTEX
  5
6E5
  8
LAYER_1
 10
51.37019817247652
 20
14.448475430207
 30
0.0
  0
VERTEX
  5
6E6
  8
LAYER_1
 10
51.3839515502921
 20
15.09998352363096
 30
0.0
  0
VERTEX
  5
6E7
  8
LAYER_1
 10
51.38444900975935
 20
15.75507319281292
 30
0.0
  0
VERTEX
  5
6E8
  8
LAYER_1
 10
51.37134781497105
 20
16.40904809575664
 30
0.0
  0
VERTEX
  5
6E9
  8
LAYER_1
 10
51.34430523001998
 20
17.05721189046588
 30
0.0
  0
VERTEX
  5
6EA
  8
LAYER_1
 10
51.30297851899891
 20
17.69486823494441
 30
0.0
  0
VERTEX
  5
6EB
  8
LAYER_1
 10
51.24702494600064
 20
18.317320787196
 30
0.0
  0
VERTEX
  5
6EC
  8
LAYER_1
 10
50.97638888888889
 20
20.93603046328091
 30
0.0
  0
VERTEX
  5
6ED
  8
LAYER_1
 10
49.45267524712175
 20
18.95865232981102
 30
0.0
  0
VERTEX
  5
6EE
  8
LAYER_1
 10
49.24494564778226
 20
18.68238636898021
 30
0.0
  0
VERTEX
  5
6EF
  8
LAYER_1
 10
49.04683883120286
 20
18.40472860968128
 30
0.0
  0
VERTEX
  5
6F0
  8
LAYER_1
 10
48.85742957316771
 20
18.12372221813463
 30
0.0
  0
VERTEX
  5
6F1
  8
LAYER_1
 10
48.67579264946097
 20
17.8374103605607
 30
0.0
  0
VERTEX
  5
6F2
  8
LAYER_1
 10
48.50100283586681
 20
17.54383620317987
 30
0.0
  0
VERTEX
  5
6F3
  8
LAYER_1
 10
48.33213490816942
 20
17.24104291221257
 30
0.0
  0
VERTEX
  5
6F4
  8
LAYER_1
 10
48.16826364215292
 20
16.92707365387921
 30
0.0
  0
VERTEX
  5
6F5
  8
LAYER_1
 10
48.00846381360149
 20
16.59997159440019
 30
0.0
  0
VERTEX
  5
6F6
  8
LAYER_1
 10
47.85181019829932
 20
16.25777989999595
 30
0.0
  0
VERTEX
  5
6F7
  8
LAYER_1
 10
47.69737757203054
 20
15.89854173688686
 30
0.0
  0
VERTEX
  5
6F8
  8
LAYER_1
 10
47.54424071057933
 20
15.52030027129335
 30
0.0
  0
VERTEX
  5
6F9
  8
LAYER_1
 10
47.39147438972986
 20
15.12109866943585
 30
0.0
  0
VERTEX
  5
6FA
  8
LAYER_1
 10
47.08335247297279
 20
14.25198772181046
 30
0.0
  0
VERTEX
  5
6FB
  8
LAYER_1
 10
46.76561002803264
 20
13.27555422377398
 30
0.0
  0
VERTEX
  5
6FC
  8
LAYER_1
 10
46.44442493690133
 20
12.29050711801474
 30
0.0
  0
VERTEX
  5
6FD
  8
LAYER_1
 10
46.12858500120764
 20
11.40455555137826
 30
0.0
  0
VERTEX
  5
6FE
  8
LAYER_1
 10
45.97006794765628
 20
10.99325150927914
 30
0.0
  0
VERTEX
  5
6FF
  8
LAYER_1
 10
45.80976536017198
 20
10.60013444881841
 30
0.0
  0
VERTEX
  5
700
  8
LAYER_1
 10
45.64663663115728
 20
10.22300873561531
 30
0.0
  0
VERTEX
  5
701
  8
LAYER_1
 10
45.47964115301474
 20
9.859678735289059
 30
0.0
  0
VERTEX
  5
702
  8
LAYER_1
 10
45.30773831814689
 20
9.507948813458903
 30
0.0
  0
VERTEX
  5
703
  8
LAYER_1
 10
45.12988751895629
 20
9.165623335744076
 30
0.0
  0
VERTEX
  5
704
  8
LAYER_1
 10
44.9450481478455
 20
8.83050666776381
 30
0.0
  0
VERTEX
  5
705
  8
LAYER_1
 10
44.75217959721703
 20
8.50040317513734
 30
0.0
  0
VERTEX
  5
706
  8
LAYER_1
 10
44.55024125947346
 20
8.173117223483898
 30
0.0
  0
VERTEX
  5
707
  8
LAYER_1
 10
44.33819252701733
 20
7.846453178422717
 30
0.0
  0
VERTEX
  5
708
  8
LAYER_1
 10
44.11499279225119
 20
7.518215405573034
 30
0.0
  0
VERTEX
  5
709
  8
LAYER_1
 10
43.87960144757758
 20
7.186208270554083
 30
0.0
  0
VERTEX
  5
70A
  8
LAYER_1
 10
41.87483154326792
 20
4.341568922728456
 30
0.0
  0
VERTEX
  5
70B
  8
LAYER_1
 10
41.77882082740497
 20
4.162566076255856
 30
0.0
  0
VERTEX
  5
70C
  8
LAYER_1
 10
41.72595258603646
 20
4.015978232162599
 30
0.0
  0
VERTEX
  5
70D
  8
LAYER_1
 10
41.71683162582656
 20
3.959567123855212
 30
0.0
  0
VERTEX
  5
70E
  8
LAYER_1
 10
41.71985796328698
 20
3.916932391559047
 30
0.0
  0
VERTEX
  5
70F
  8
LAYER_1
 10
41.73548549143329
 20
3.889964910412897
 30
0.0
  0
SEQEND
  5
710
  8
LAYER_1
  0
POLYLINE
  5
51
  8
LAYER_1
 66
     1
 10
0.0
 20
0.0
 30
0.0
 70
     1
  0
VERTEX
  5
711
  8
LAYER_1
 10
-32.01987277151318
 20
7.702905006264601
 30
0.0
  0
VERTEX
  5
712
  8
LAYER_1
 10
-31.97506130819108
 20
7.754202013634909
 30
0.0
  0
VERTEX
  5
713
  8
LAYER_1
 10
-31.93609286196574
 20
7.812460383466865
 30
0.0
  0
VERTEX
  5
714
  8
LAYER_1
 10
-31.90291160698766
 20
7.877485878802863
 30
0.0
  0
VERTEX
  5
715
  8
LAYER_1
 10
-31.87546171740738
 20
7.949084262685306
 30
0.0
  0
VERTEX
  5
716
  8
LAYER_1
 10
-31.83753273104233
 20
8.111222748259118
 30
0.0
  0
VERTEX
  5
717
  8
LAYER_1
 10
-31.8218592960748
 20
8.297321944527491
 30
0.0
  0
VERTEX
  5
718
  8
LAYER_1
 10
-31.82799480570901
 20
8.50582795582962
 30
0.0
  0
VERTEX
  5
719
  8
LAYER_1
 10
-31.85549265314917
 20
8.7351868865047
 30
0.0
  0
VERTEX
  5
71A
  8
LAYER_1
 10
-31.90390623159951
 20
8.98384484089192
 30
0.0
  0
VERTEX
  5
71B
  8
LAYER_1
 10
-31.97278893426424
 20
9.250247923330473
 30
0.0
  0
VERTEX
  5
71C
  8
LAYER_1
 10
-32.06169415434759
 20
9.532842238159557
 30
0.0
  0
VERTEX
  5
71D
  8
LAYER_1
 10
-32.17017528505377
 20
9.830073889718358
 30
0.0
  0
VERTEX
  5
71E
  8
LAYER_1
 10
-32.297785719587
 20
10.14038898234607
 30
0.0
  0
VERTEX
  5
71F
  8
LAYER_1
 10
-32.4440788511515
 20
10.4622336203819
 30
0.0
  0
VERTEX
  5
720
  8
LAYER_1
 10
-32.60860807295149
 20
10.79405390816502
 30
0.0
  0
VERTEX
  5
721
  8
LAYER_1
 10
-32.79092677819118
 20
11.13429595003463
 30
0.0
  0
VERTEX
  5
722
  8
LAYER_1
 10
-32.9905883600748
 20
11.48140585032993
 30
0.0
  0
VERTEX
  5
723
  8
LAYER_1
 10
-33.20714621180655
 20
11.8338297133901
 30
0.0
  0
VERTEX
  5
724
  8
LAYER_1
 10
-33.43490051103662
 20
12.20622516789727
 30
0.0
  0
VERTEX
  5
725
  8
LAYER_1
 10
-33.67407973430105
 20
12.62138722510085
 30
0.0
  0
VERTEX
  5
726
  8
LAYER_1
 10
-33.91753957130713
 20
13.06538494492101
 30
0.0
  0
VERTEX
  5
727
  8
LAYER_1
 10
-34.15813571176218
 20
13.52428738727789
 30
0.0
  0
VERTEX
  5
728
  8
LAYER_1
 10
-34.38872384537348
 20
13.98416361209166
 30
0.0
  0
VERTEX
  5
729
  8
LAYER_1
 10
-34.60215966184833
 20
14.43108267928246
 30
0.0
  0
VERTEX
  5
72A
  8
LAYER_1
 10
-34.79129885089404
 20
14.85111364877046
 30
0.0
  0
VERTEX
  5
72B
  8
LAYER_1
 10
-34.94899710221789
 20
15.23032558047581
 30
0.0
  0
VERTEX
  5
72C
  8
LAYER_1
 10
-35.1844898547367
 20
15.8160855586689
 30
0.0
  0
VERTEX
  5
72D
  8
LAYER_1
 10
-35.41822834411775
 20
16.37431717559575
 30
0.0
  0
VERTEX
  5
72E
  8
LAYER_1
 10
-35.64966733180403
 20
16.90409027284275
 30
0.0
  0
VERTEX
  5
72F
  8
LAYER_1
 10
-35.8782615792385
 20
17.40447469199631
 30
0.0
  0
VERTEX
  5
730
  8
LAYER_1
 10
-36.10346584786414
 20
17.87454027464283
 30
0.0
  0
VERTEX
  5
731
  8
LAYER_1
 10
-36.32473489912392
 20
18.31335686236869
 30
0.0
  0
VERTEX
  5
732
  8
LAYER_1
 10
-36.54152349446081
 20
18.71999429676031
 30
0.0
  0
VERTEX
  5
733
  8
LAYER_1
 10
-36.75328639531779
 20
19.09352241940407
 30
0.0
  0
VERTEX
  5
734
  8
LAYER_1
 10
-36.95947836313782
 20
19.43301107188638
 30
0.0
  0
VERTEX
  5
735
  8
LAYER_1
 10
-37.15955415936388
 20
19.73753009579362
 30
0.0
  0
VERTEX
  5
736
  8
LAYER_1
 10
-37.35296854543894
 20
20.0061493327122
 30
0.0
  0
VERTEX
  5
737
  8
LAYER_1
 10
-37.53917628280599
 20
20.23793862422852
 30
0.0
  0
VERTEX
  5
738
  8
LAYER_1
 10
-37.71763213290799
 20
20.43196781192898
 30
0.0
  0
VERTEX
  5
739
  8
LAYER_1
 10
-37.88779085718789
 20
20.58730673739996
 30
0.0
  0
VERTEX
  5
73A
  8
LAYER_1
 10
-38.0491072170887
 20
20.70302524222787
 30
0.0
  0
VERTEX
  5
73B
  8
LAYER_1
 10
-38.12627912334786
 20
20.74573616239643
 30
0.0
  0
VERTEX
  5
73C
  8
LAYER_1
 10
-38.20103597405336
 20
20.77819316799911
 30
0.0
  0
VERTEX
  5
73D
  8
LAYER_1
 10
-38.4047056356457
 20
20.84153343269274
 30
0.0
  0
VERTEX
  5
73E
  8
LAYER_1
 10
-38.68518450600295
 20
20.91051155013923
 30
0.0
  0
VERTEX
  5
73F
  8
LAYER_1
 10
-39.02986452954995
 20
20.98291083960679
 30
0.0
  0
VERTEX
  5
740
  8
LAYER_1
 10
-39.42613765071151
 20
21.05651462036367
 30
0.0
  0
VERTEX
  5
741
  8
LAYER_1
 10
-40.32303096357764
 20
21.19846893281831
 30
0.0
  0
VERTEX
  5
742
  8
LAYER_1
 10
-40.79843504413188
 20
21.26238610305253
 30
0.0
  0
VERTEX
  5
743
  8
LAYER_1
 10
-41.27499999999999
 20
21.31864104164901
 30
0.0
  0
VERTEX
  5
744
  8
LAYER_1
 10
-43.56805555555555
 20
21.56923463777186
 30
0.0
  0
VERTEX
  5
745
  8
LAYER_1
 10
-42.45981146496487
 20
20.39781176333037
 30
0.0
  0
VERTEX
  5
746
  8
LAYER_1
 10
-42.17789162976944
 20
20.07969474754766
 30
0.0
  0
VERTEX
  5
747
  8
LAYER_1
 10
-41.80025725875377
 20
19.6228519527942
 30
0.0
  0
VERTEX
  5
748
  8
LAYER_1
 10
-41.34337002272076
 20
19.04872785440136
 30
0.0
  0
VERTEX
  5
749
  8
LAYER_1
 10
-40.82369159247331
 20
18.37876692770052
 30
0.0
  0
VERTEX
  5
74A
  8
LAYER_1
 10
-40.25768363881436
 20
17.63441364802303
 30
0.0
  0
VERTEX
  5
74B
  8
LAYER_1
 10
-39.6618078325468
 20
16.83711249070029
 30
0.0
  0
VERTEX
  5
74C
  8
LAYER_1
 10
-39.05252584447355
 20
16.00830793106363
 30
0.0
  0
VERTEX
  5
74D
  8
LAYER_1
 10
-38.44629934539753
 20
15.16944444444444
 30
0.0
  0
VERTEX
  5
74E
  8
LAYER_1
 10
-33.95107663631332
 20
9.237077910785999
 30
0.0
  0
VERTEX
  5
74F
  8
LAYER_1
 10
-33.58306499589276
 20
8.815300292272916
 30
0.0
  0
VERTEX
  5
750
  8
LAYER_1
 10
-33.248169714059
 20
8.456809156443338
 30
0.0
  0
VERTEX
  5
751
  8
LAYER_1
 10
-32.9479199197073
 20
8.16281926273379
 30
0.0
  0
VERTEX
  5
752
  8
LAYER_1
 10
-32.68384474173288
 20
7.934545370580785
 30
0.0
  0
VERTEX
  5
753
  8
LAYER_1
 10
-32.56585048666693
 20
7.845431537411899
 30
0.0
  0
VERTEX
  5
754
  8
LAYER_1
 10
-32.45747330903102
 20
7.773202239420844
 30
0.0
  0
VERTEX
  5
755
  8
LAYER_1
 10
-32.35890434993705
 20
7.718009321537186
 30
0.0
  0
VERTEX
  5
756
  8
LAYER_1
 10
-32.27033475049695
 20
7.680004628690488
 30
0.0
  0
VERTEX
  5
757
  8
LAYER_1
 10
-32.19195565182261
 20
7.659340005810314
 30
0.0
  0
VERTEX
  5
758
  8
LAYER_1
 10
-32.12395819502592
 20
7.656167297826233
 30
0.0
  0
VERTEX
  5
759
  8
LAYER_1
 10
-32.06653352121881
 20
7.670638349667807
 30
0.0
  0
SEQEND
  5
75A
  8
LAYER_1
  0
POLYLINE
  5
52
  8
LAYER_1
 66
     1
 10
0.0
 20
0.0
 30
0.0
 70
     1
  0
VERTEX
  5
75B
  8
LAYER_1
 10
-7.549767598396478
 20
11.28888888888889
 30
0.0
  0
VERTEX
  5
75C
  8
LAYER_1
 10
-7.417901631990896
 20
11.29508213876328
 30
0.0
  0
VERTEX
  5
75D
  8
LAYER_1
 10
-7.307904625876549
 20
11.31384813289579
 30
0.0
  0
VERTEX
  5
75E
  8
LAYER_1
 10
-7.219865962988198
 20
11.3454662380504
 30
0.0
  0
VERTEX
  5
75F
  8
LAYER_1
 10
-7.153875026260606
 20
11.39021582099111
 30
0.0
  0
VERTEX
  5
760
  8
LAYER_1
 10
-7.110021198628534
 20
11.44837624848193
 30
0.0
  0
VERTEX
  5
761
  8
LAYER_1
 10
-7.088393863026743
 20
11.52022688728684
 30
0.0
  0
VERTEX
  5
762
  8
LAYER_1
 10
-7.089082402389995
 20
11.60604710416983
 30
0.0
  0
VERTEX
  5
763
  8
LAYER_1
 10
-7.112176199653049
 20
11.70611626589492
 30
0.0
  0
VERTEX
  5
764
  8
LAYER_1
 10
-7.15776463775067
 20
11.82071373922608
 30
0.0
  0
VERTEX
  5
765
  8
LAYER_1
 10
-7.225937099617617
 20
11.95011889092732
 30
0.0
  0
VERTEX
  5
766
  8
LAYER_1
 10
-7.316782968188654
 20
12.09461108776263
 30
0.0
  0
VERTEX
  5
767
  8
LAYER_1
 10
-7.430391626398539
 20
12.25446969649601
 30
0.0
  0
VERTEX
  5
768
  8
LAYER_1
 10
-7.566852457182036
 20
12.42997408389145
 30
0.0
  0
VERTEX
  5
769
  8
LAYER_1
 10
-7.726254843473906
 20
12.62140361671294
 30
0.0
  0
VERTEX
  5
76A
  8
LAYER_1
 10
-8.114241814321808
 20
13.05315558569009
 30
0.0
  0
VERTEX
  5
76B
  8
LAYER_1
 10
-8.246091845096185
 20
13.20236175628513
 30
0.0
  0
VERTEX
  5
76C
  8
LAYER_1
 10
-8.376658695871589
 20
13.36630644532569
 30
0.0
  0
VERTEX
  5
76D
  8
LAYER_1
 10
-8.505936937286311
 20
13.54497133910782
 30
0.0
  0
VERTEX
  5
76E
  8
LAYER_1
 10
-8.633921139978641
 20
13.73833812392761
 30
0.0
  0
VERTEX
  5
76F
  8
LAYER_1
 10
-8.760605874586874
 20
13.94638848608113
 30
0.0
  0
VERTEX
  5
770
  8
LAYER_1
 10
-8.8859857117493
 20
14.16910411186445
 30
0.0
  0
VERTEX
  5
771
  8
LAYER_1
 10
-9.01005522210421
 20
14.40646668757364
 30
0.0
  0
VERTEX
  5
772
  8
LAYER_1
 10
-9.132808976289898
 20
14.65845789950477
 30
0.0
  0
VERTEX
  5
773
  8
LAYER_1
 10
-9.374347498706769
 20
15.20625297721715
 30
0.0
  0
VERTEX
  5
774
  8
LAYER_1
 10
-9.610557844106246
 20
15.81234283537017
 30
0.0
  0
VERTEX
  5
775
  8
LAYER_1
 10
-9.841396577594661
 20
16.47658096433241
 30
0.0
  0
VERTEX
  5
776
  8
LAYER_1
 10
-10.06682026427835
 20
17.19882085447243
 30
0.0
  0
VERTEX
  5
777
  8
LAYER_1
 10
-10.28678546926365
 20
17.97891599615882
 30
0.0
  0
VERTEX
  5
778
  8
LAYER_1
 10
-10.50124875765689
 20
18.81671987976016
 30
0.0
  0
VERTEX
  5
779
  8
LAYER_1
 10
-10.71016669456441
 20
19.712085995645
 30
0.0
  0
VERTEX
  5
77A
  8
LAYER_1
 10
-10.91349584509253
 20
20.66486783418195
 30
0.0
  0
VERTEX
  5
77B
  8
LAYER_1
 10
-11.11119277434759
 20
21.67491888573958
 30
0.0
  0
VERTEX
  5
77C
  8
LAYER_1
 10
-11.30321404743593
 20
22.74209264068644
 30
0.0
  0
VERTEX
  5
77D
  8
LAYER_1
 10
-11.48951622946388
 20
23.86624258939113
 30
0.0
  0
VERTEX
  5
77E
  8
LAYER_1
 10
-11.67005588553778
 20
25.04722222222222
 30
0.0
  0
VERTEX
  5
77F
  8
LAYER_1
 10
-12.42843448053287
 20
30.98270833333336
 30
0.0
  0
VERTEX
  5
780
  8
LAYER_1
 10
-12.42134528955295
 20
31.15593117947051
 30
0.0
  0
VERTEX
  5
781
  8
LAYER_1
 10
-12.39831612563081
 20
31.33388758680559
 30
0.0
  0
VERTEX
  5
782
  8
LAYER_1
 10
-12.3610248299632
 20
31.511513264974
 30
0.0
  0
VERTEX
  5
783
  8
LAYER_1
 10
-12.31114924374684
 20
31.68374392361115
 30
0.0
  0
VERTEX
  5
784
  8
LAYER_1
 10
-12.25036720817848
 20
31.84551527235247
 30
0.0
  0
VERTEX
  5
785
  8
LAYER_1
 10
-12.18035656445485
 20
31.99176302083337
 30
0.0
  0
VERTEX
  5
786
  8
LAYER_1
 10
-12.10279515377268
 20
32.11742287868928
 30
0.0
  0
VERTEX
  5
787
  8
LAYER_1
 10
-12.01936081732871
 20
32.21743055555559
 30
0.0
  0
VERTEX
  5
788
  8
LAYER_1
 10
-11.94662460559634
 20
32.27875311503313
 30
0.0
  0
VERTEX
  5
789
  8
LAYER_1
 10
-11.85772906466351
 20
32.3343140589899
 30
0.0
  0
VERTEX
  5
78A
  8
LAYER_1
 10
-11.75326582635556
 20
32.38416460966768
 30
0.0
  0
VERTEX
  5
78B
  8
LAYER_1
 10
-11.63382652249782
 20
32.42835598930826
 30
0.0
  0
VERTEX
  5
78C
  8
LAYER_1
 10
-11.50000278491562
 20
32.4669394201534
 30
0.0
  0
VERTEX
  5
78D
  8
LAYER_1
 10
-11.3523862454343
 20
32.49996612444491
 30
0.0
  0
VERTEX
  5
78E
  8
LAYER_1
 10
-11.01814128807562
 20
32.54955424233411
 30
0.0
  0
VERTEX
  5
78F
  8
LAYER_1
 10
-10.63582470502443
 20
32.57753012091011
 30
0.0
  0
VERTEX
  5
790
  8
LAYER_1
 10
-10.21016955088341
 20
32.58430353810715
 30
0.0
  0
VERTEX
  5
791
  8
LAYER_1
 10
-9.745908880255204
 20
32.57028427185949
 30
0.0
  0
VERTEX
  5
792
  8
LAYER_1
 10
-9.247775747742484
 20
32.53588210010139
 30
0.0
  0
VERTEX
  5
793
  8
LAYER_1
 10
-8.72050320794791
 20
32.48150680076708
 30
0.0
  0
VERTEX
  5
794
  8
LAYER_1
 10
-8.168824315474147
 20
32.40756815179081
 30
0.0
  0
VERTEX
  5
795
  8
LAYER_1
 10
-7.597472124923858
 20
32.31447593110686
 30
0.0
  0
VERTEX
  5
796
  8
LAYER_1
 10
-7.011179690899701
 20
32.20263991664945
 30
0.0
  0
VERTEX
  5
797
  8
LAYER_1
 10
-6.414680068004342
 20
32.07246988635283
 30
0.0
  0
VERTEX
  5
798
  8
LAYER_1
 10
-5.812706310840442
 20
31.92437561815126
 30
0.0
  0
VERTEX
  5
799
  8
LAYER_1
 10
-5.209991474010664
 20
31.758766889979
 30
0.0
  0
VERTEX
  5
79A
  8
LAYER_1
 10
-4.611268612117669
 20
31.57605347977029
 30
0.0
  0
VERTEX
  5
79B
  8
LAYER_1
 10
-1.101651162058573
 20
30.41539848944317
 30
0.0
  0
VERTEX
  5
79C
  8
LAYER_1
 10
-0.9823835487501117
 20
30.38127794071933
 30
0.0
  0
VERTEX
  5
79D
  8
LAYER_1
 10
-0.9387992400575742
 20
30.37928654179899
 30
0.0
  0
VERTEX
  5
79E
  8
LAYER_1
 10
-0.9059647017183308
 20
30.38751589462741
 30
0.0
  0
VERTEX
  5
79F
  8
LAYER_1
 10
-0.8839175125165051
 20
30.40609712529536
 30
0.0
  0
VERTEX
  5
7A0
  8
LAYER_1
 10
-0.8726952512362207
 20
30.43516135989362
 30
0.0
  0
VERTEX
  5
7A1
  8
LAYER_1
 10
-0.8723354966616017
 20
30.47483972451297
 30
0.0
  0
VERTEX
  5
7A2
  8
LAYER_1
 10
-0.8828758275767719
 20
30.52526334524417
 30
0.0
  0
VERTEX
  5
7A3
  8
LAYER_1
 10
-0.9368070610129744
 20
30.65887085940525
 30
0.0
  0
VERTEX
  5
7A4
  8
LAYER_1
 10
-1.034789581817819
 20
30.83703291110307
 30
0.0
  0
VERTEX
  5
7A5
  8
LAYER_1
 10
-1.177124020264295
 20
31.06079850906385
 30
0.0
  0
VERTEX
  5
7A6
  8
LAYER_1
 10
-1.364111006625393
 20
31.33121666201378
 30
0.0
  0
VERTEX
  5
7A7
  8
LAYER_1
 10
-1.563691035273128
 20
31.58709397100427
 30
0.0
  0
VERTEX
  5
7A8
  8
LAYER_1
 10
-1.8119662633245
 20
31.86346743108282
 30
0.0
  0
VERTEX
  5
7A9
  8
LAYER_1
 10
-2.106895824192242
 20
32.15885697033118
 30
0.0
  0
VERTEX
  5
7AA
  8
LAYER_1
 10
-2.446438851289091
 20
32.47178251683109
 30
0.0
  0
VERTEX
  5
7AB
  8
LAYER_1
 10
-2.828554478027781
 20
32.80076399866429
 30
0.0
  0
VERTEX
  5
7AC
  8
LAYER_1
 10
-3.251201837821049
 20
33.14432134391251
 30
0.0
  0
VERTEX
  5
7AD
  8
LAYER_1
 10
-3.712340064081629
 20
33.5009744806575
 30
0.0
  0
VERTEX
  5
7AE
  8
LAYER_1
 10
-4.209928290222257
 20
33.86924333698102
 30
0.0
  0
VERTEX
  5
7AF
  8
LAYER_1
 10
-4.741925649655667
 20
34.2476478409648
 30
0.0
  0
VERTEX
  5
7B0
  8
LAYER_1
 10
-5.306291275794596
 20
34.63470792069055
 30
0.0
  0
VERTEX
  5
7B1
  8
LAYER_1
 10
-5.900984302051779
 20
35.02894350424005
 30
0.0
  0
VERTEX
  5
7B2
  8
LAYER_1
 10
-6.523963861839952
 20
35.42887451969504
 30
0.0
  0
VERTEX
  5
7B3
  8
LAYER_1
 10
-7.173189088571847
 20
35.83302089513724
 30
0.0
  0
VERTEX
  5
7B4
  8
LAYER_1
 10
-7.846619115660205
 20
36.23990255864841
 30
0.0
  0
VERTEX
  5
7B5
  8
LAYER_1
 10
-8.542213076517756
 20
36.64803943831028
 30
0.0
  0
VERTEX
  5
7B6
  8
LAYER_1
 10
-9.25793010455724
 20
37.0559514622046
 30
0.0
  0
VERTEX
  5
7B7
  8
LAYER_1
 10
-9.842599152462764
 20
37.39139247366521
 30
0.0
  0
VERTEX
  5
7B8
  8
LAYER_1
 10
-10.4575588742093
 20
37.75694331060728
 30
0.0
  0
VERTEX
  5
7B9
  8
LAYER_1
 10
-11.08437926403658
 20
38.14084116056124
 30
0.0
  0
VERTEX
  5
7BA
  8
LAYER_1
 10
-11.70463031618434
 20
38.5313232110575
 30
0.0
  0
VERTEX
  5
7BB
  8
LAYER_1
 10
-12.2998820248923
 20
38.91662664962648
 30
0.0
  0
VERTEX
  5
7BC
  8
LAYER_1
 10
-12.8517043844002
 20
39.2849886637986
 30
0.0
  0
VERTEX
  5
7BD
  8
LAYER_1
 10
-13.34166738894778
 20
39.62464644110428
 30
0.0
  0
VERTEX
  5
7BE
  8
LAYER_1
 10
-13.75134103277477
 20
39.92383716907394
 30
0.0
  0
VERTEX
  5
7BF
  8
LAYER_1
 10
-15.51321074532395
 20
41.25734633664623
 30
0.0
  0
VERTEX
  5
7C0
  8
LAYER_1
 10
-15.70679875964709
 20
40.29603427943423
 30
0.0
  0
VERTEX
  5
7C1
  8
LAYER_1
 10
-15.81555181471459
 20
39.78276331364343
 30
0.0
  0
VERTEX
  5
7C2
  8
LAYER_1
 10
-15.93435688446616
 20
39.27431552366203
 30
0.0
  0
VERTEX
  5
7C3
  8
LAYER_1
 10
-16.0639702586961
 20
38.76873143571345
 30
0.0
  0
VERTEX
  5
7C4
  8
LAYER_1
 10
-16.20514822719873
 20
38.26405157602115
 30
0.0
  0
VERTEX
  5
7C5
  8
LAYER_1
 10
-16.35864707976835
 20
37.75831647080858
 30
0.0
  0
VERTEX
  5
7C6
  8
LAYER_1
 10
-16.52522310619929
 20
37.24956664629917
 30
0.0
  0
VERTEX
  5
7C7
  8
LAYER_1
 10
-16.70563259628585
 20
36.73584262871636
 30
0.0
  0
VERTEX
  5
7C8
  8
LAYER_1
 10
-16.90063183982235
 20
36.21518494428359
 30
0.0
  0
VERTEX
  5
7C9
  8
LAYER_1
 10
-17.11097712660308
 20
35.68563411922432
 30
0.0
  0
VERTEX
  5
7CA
  8
LAYER_1
 10
-17.33742474642237
 20
35.14523067976197
 30
0.0
  0
VERTEX
  5
7CB
  8
LAYER_1
 10
-17.58073098907453
 20
34.59201515212001
 30
0.0
  0
VERTEX
  5
7CC
  8
LAYER_1
 10
-17.84165214435387
 20
34.02402806252186
 30
0.0
  0
VERTEX
  5
7CD
  8
LAYER_1
 10
-18.12094450205469
 20
33.43930993719097
 30
0.0
  0
VERTEX
  5
7CE
  8
LAYER_1
 10
-18.41936435197131
 20
32.83590130235078
 30
0.0
  0
VERTEX
  5
7CF
  8
LAYER_1
 10
-18.73766798389805
 20
32.21184268422475
 30
0.0
  0
VERTEX
  5
7D0
  8
LAYER_1
 10
-19.0766116876292
 20
31.56517460903628
 30
0.0
  0
VERTEX
  5
7D1
  8
LAYER_1
 10
-21.14039961928759
 20
27.67618255140589
 30
0.0
  0
VERTEX
  5
7D2
  8
LAYER_1
 10
-21.71549731831672
 20
25.43135671710019
 30
0.0
  0
VERTEX
  5
7D3
  8
LAYER_1
 10
-21.84093177683753
 20
24.90097658309295
 30
0.0
  0
VERTEX
  5
7D4
  8
LAYER_1
 10
-21.94377772687676
 20
24.37911727484817
 30
0.0
  0
VERTEX
  5
7D5
  8
LAYER_1
 10
-22.0236275603425
 20
23.87017841707879
 30
0.0
  0
VERTEX
  5
7D6
  8
LAYER_1
 10
-22.08007366914283
 20
23.37855963449775
 30
0.0
  0
VERTEX
  5
7D7
  8
LAYER_1
 10
-22.11270844518582
 20
22.90866055181799
 30
0.0
  0
VERTEX
  5
7D8
  8
LAYER_1
 10
-22.12112428037955
 20
22.46488079375244
 30
0.0
  0
VERTEX
  5
7D9
  8
LAYER_1
 10
-22.10491356663211
 20
22.05161998501405
 30
0.0
  0
VERTEX
  5
7DA
  8
LAYER_1
 10
-22.06366869585158
 20
21.67327775031574
 30
0.0
  0
VERTEX
  5
7DB
  8
LAYER_1
 10
-22.00112223983724
 20
21.33318502921511
 30
0.0
  0
VERTEX
  5
7DC
  8
LAYER_1
 10
-21.91618748068367
 20
20.99011445163172
 30
0.0
  0
VERTEX
  5
7DD
  8
LAYER_1
 10
-21.81112385166632
 20
20.64761927338089
 30
0.0
  0
VERTEX
  5
7DE
  8
LAYER_1
 10
-21.68819078606066
 20
20.30925275027795
 30
0.0
  0
VERTEX
  5
7DF
  8
LAYER_1
 10
-21.54964771714215
 20
19.97856813813824
 30
0.0
  0
VERTEX
  5
7E0
  8
LAYER_1
 10
-21.39775407818625
 20
19.65911869277706
 30
0.0
  0
VERTEX
  5
7E1
  8
LAYER_1
 10
-21.23476930246842
 20
19.35445767000977
 30
0.0
  0
VERTEX
  5
7E2
  8
LAYER_1
 10
-21.06295282326413
 20
19.06813832565169
 30
0.0
  0
VERTEX
  5
7E3
  8
LAYER_1
 10
-20.88456407384883
 20
18.80371391551815
 30
0.0
  0
VERTEX
  5
7E4
  8
LAYER_1
 10
-20.70186248749799
 20
18.56473769542447
 30
0.0
  0
VERTEX
  5
7E5
  8
LAYER_1
 10
-20.51710749748707
 20
18.35476292118599
 30
0.0
  0
VERTEX
  5
7E6
  8
LAYER_1
 10
-20.33255853709154
 20
18.17734284861803
 30
0.0
  0
VERTEX
  5
7E7
  8
LAYER_1
 10
-20.15047503958684
 20
18.03603073353593
 30
0.0
  0
VERTEX
  5
7E8
  8
LAYER_1
 10
-20.06106391231715
 20
17.98002555249436
 30
0.0
  0
VERTEX
  5
7E9
  8
LAYER_1
 10
-19.97311643824846
 20
17.93437983175501
 30
0.0
  0
VERTEX
  5
7EA
  8
LAYER_1
 10
-19.88691504654022
 20
17.89953772829478
 30
0.0
  0
VERTEX
  5
7EB
  8
LAYER_1
 10
-19.80274216635185
 20
17.8759433990906
 30
0.0
  0
VERTEX
  5
7EC
  8
LAYER_1
 10
-19.72088022684279
 20
17.86404100111939
 30
0.0
  0
VERTEX
  5
7ED
  8
LAYER_1
 10
-19.64161165717246
 20
17.86427469135804
 30
0.0
  0
VERTEX
  5
7EE
  8
LAYER_1
 10
-19.5227693545549
 20
17.86771691593124
 30
0.0
  0
VERTEX
  5
7EF
  8
LAYER_1
 10
-19.41189994341096
 20
17.85855583285109
 30
0.0
  0
VERTEX
  5
7F0
  8
LAYER_1
 10
-19.31142995592825
 20
17.83787664719571
 30
0.0
  0
VERTEX
  5
7F1
  8
LAYER_1
 10
-19.22378592429441
 20
17.80676456404322
 30
0.0
  0
VERTEX
  5
7F2
  8
LAYER_1
 10
-19.15139438069704
 20
17.76630478847175
 30
0.0
  0
VERTEX
  5
7F3
  8
LAYER_1
 10
-19.09668185732376
 20
17.71758252555942
 30
0.0
  0
VERTEX
  5
7F4
  8
LAYER_1
 10
-19.06207488636221
 20
17.66168298038437
 30
0.0
  0
VERTEX
  5
7F5
  8
LAYER_1
 10
-19.05
 20
17.59969135802471
 30
0.0
  0
VERTEX
  5
7F6
  8
LAYER_1
 10
-19.04206066077477
 20
17.53669970100309
 30
0.0
  0
VERTEX
  5
7F7
  8
LAYER_1
 10
-19.01930628663168
 20
17.47793402777778
 30
0.0
  0
VERTEX
  5
7F8
  8
LAYER_1
 10
-18.98333234286955
 20
17.42468050733025
 30
0.0
  0
VERTEX
  5
7F9
  8
LAYER_1
 10
-18.93573429478723
 20
17.37822530864198
 30
0.0
  0
VERTEX
  5
7FA
  8
LAYER_1
 10
-18.87810760768359
 20
17.33985460069445
 30
0.0
  0
VERTEX
  5
7FB
  8
LAYER_1
 10
-18.81204774685746
 20
17.31085455246915
 30
0.0
  0
VERTEX
  5
7FC
  8
LAYER_1
 10
-18.73915017760769
 20
17.29251133294754
 30
0.0
  0
VERTEX
  5
7FD
  8
LAYER_1
 10
-18.66101036523314
 20
17.28611111111112
 30
0.0
  0
VERTEX
  5
7FE
  8
LAYER_1
 10
-18.56400073960892
 20
17.27770069161392
 30
0.0
  0
VERTEX
  5
7FF
  8
LAYER_1
 10
-18.44075860771349
 20
17.25300040754441
 30
0.0
  0
VERTEX
  5
800
  8
LAYER_1
 10
-18.12172636446258
 20
17.15791609222079
 30
0.0
  0
VERTEX
  5
801
  8
LAYER_1
 10
-17.71621271418751
 20
17.00722985820507
 30
0.0
  0
VERTEX
  5
802
  8
LAYER_1
 10
-17.23651673559537
 20
16.80731339856204
 30
0.0
  0
VERTEX
  5
803
  8
LAYER_1
 10
-16.69493750739327
 20
16.56453840635648
 30
0.0
  0
VERTEX
  5
804
  8
LAYER_1
 10
-16.1037741082883
 20
16.28527657465317
 30
0.0
  0
VERTEX
  5
805
  8
LAYER_1
 10
-15.47532561698757
 20
15.97589959651693
 30
0.0
  0
VERTEX
  5
806
  8
LAYER_1
 10
-14.82189111219817
 20
15.64277916501252
 30
0.0
  0
VERTEX
  5
807
  8
LAYER_1
 10
-14.15576967262721
 20
15.29228697320475
 30
0.0
  0
VERTEX
  5
808
  8
LAYER_1
 10
-13.48926037698179
 20
14.9307947141584
 30
0.0
  0
VERTEX
  5
809
  8
LAYER_1
 10
-12.83466230396899
 20
14.56467408093826
 30
0.0
  0
VERTEX
  5
80A
  8
LAYER_1
 10
-12.20427453229594
 20
14.20029676660912
 30
0.0
  0
VERTEX
  5
80B
  8
LAYER_1
 10
-11.61039614066971
 20
13.84403446423578
 30
0.0
  0
VERTEX
  5
80C
  8
LAYER_1
 10
-11.06532620779743
 20
13.50225886688303
 30
0.0
  0
VERTEX
  5
80D
  8
LAYER_1
 10
-10.58136381238618
 20
13.18134166761564
 30
0.0
  0
VERTEX
  5
80E
  8
LAYER_1
 10
-10.17080803314305
 20
12.88765455949842
 30
0.0
  0
VERTEX
  5
80F
  8
LAYER_1
 10
-9.733486126980589
 20
12.56649626023633
 30
0.0
  0
VERTEX
  5
810
  8
LAYER_1
 10
-9.306004027593026
 20
12.26688382645706
 30
0.0
  0
VERTEX
  5
811
  8
LAYER_1
 10
-8.899112096138508
 20
11.99537469548148
 30
0.0
  0
VERTEX
  5
812
  8
LAYER_1
 10
-8.523560693775172
 20
11.75852630463044
 30
0.0
  0
VERTEX
  5
813
  8
LAYER_1
 10
-8.190100181661162
 20
11.5628960912248
 30
0.0
  0
VERTEX
  5
814
  8
LAYER_1
 10
-7.909480920954616
 20
11.41504149258543
 30
0.0
  0
VERTEX
  5
815
  8
LAYER_1
 10
-7.692453272813674
 20
11.32151994603317
 30
0.0
  0
VERTEX
  5
816
  8
LAYER_1
 10
-7.611145791317224
 20
11.29718326645248
 30
0.0
  0
SEQEND
  5
817
  8
LAYER_1
  0
POLYLINE
  5
53
  8
LAYER_1
 66
     1
 10
0.0
 20
0.0
 30
0.0
 70
     1
  0
VERTEX
  5
818
  8
LAYER_1
 10
-31.55616787258678
 20
15.34282557685428
 30
0.0
  0
VERTEX
  5
819
  8
LAYER_1
 10
-31.46519800033651
 20
15.62352889724902
 30
0.0
  0
VERTEX
  5
81A
  8
LAYER_1
 10
-31.34824083678166
 20
15.918742102381
 30
0.0
  0
VERTEX
  5
81B
  8
LAYER_1
 10
-31.2101508078792
 20
16.21961989840463
 30
0.0
  0
VERTEX
  5
81C
  8
LAYER_1
 10
-31.0557823395861
 20
16.51731699147433
 30
0.0
  0
VERTEX
  5
81D
  8
LAYER_1
 10
-30.88998985785935
 20
16.80298808774452
 30
0.0
  0
VERTEX
  5
81E
  8
LAYER_1
 10
-30.71762778865593
 20
17.0677878933696
 30
0.0
  0
VERTEX
  5
81F
  8
LAYER_1
 10
-30.54355055793282
 20
17.30287111450399
 30
0.0
  0
VERTEX
  5
820
  8
LAYER_1
 10
-30.37261259164699
 20
17.4993924573021
 30
0.0
  0
VERTEX
  5
821
  8
LAYER_1
 10
-30.24003468084648
 20
17.63292389636074
 30
0.0
  0
VERTEX
  5
822
  8
LAYER_1
 10
-30.1115914581349
 20
17.75181046166114
 30
0.0
  0
VERTEX
  5
823
  8
LAYER_1
 10
-29.98371646305827
 20
17.85688417786971
 30
0.0
  0
VERTEX
  5
824
  8
LAYER_1
 10
-29.85284323516261
 20
17.94897706965287
 30
0.0
  0
VERTEX
  5
825
  8
LAYER_1
 10
-29.71540531399394
 20
18.02892116167703
 30
0.0
  0
VERTEX
  5
826
  8
LAYER_1
 10
-29.56783623909827
 20
18.09754847860862
 30
0.0
  0
VERTEX
  5
827
  8
LAYER_1
 10
-29.40656955002162
 20
18.15569104511405
 30
0.0
  0
VERTEX
  5
828
  8
LAYER_1
 10
-29.22803878631001
 20
18.20418088585973
 30
0.0
  0
VERTEX
  5
829
  8
LAYER_1
 10
-29.02867748750944
 20
18.24385002551209
 30
0.0
  0
VERTEX
  5
82A
  8
LAYER_1
 10
-28.80491919316595
 20
18.27553048873754
 30
0.0
  0
VERTEX
  5
82B
  8
LAYER_1
 10
-28.55319744282555
 20
18.3000543002025
 30
0.0
  0
VERTEX
  5
82C
  8
LAYER_1
 10
-28.26994577603424
 20
18.31825348457338
 30
0.0
  0
VERTEX
  5
82D
  8
LAYER_1
 10
-27.59458685128299
 20
18.33900607069856
 30
0.0
  0
VERTEX
  5
82E
  8
LAYER_1
 10
-26.75031073528035
 20
18.34444444444444
 30
0.0
  0
VERTEX
  5
82F
  8
LAYER_1
 10
-25.84064437737838
 20
18.3466739178844
 30
0.0
  0
VERTEX
  5
830
  8
LAYER_1
 10
-25.15564245209999
 20
18.35917540695287
 30
0.0
  0
VERTEX
  5
831
  8
LAYER_1
 10
-24.88858826692186
 20
18.3720030333237
 30
0.0
  0
VERTEX
  5
832
  8
LAYER_1
 10
-24.66713732817228
 20
18.39066851477275
 30
0.0
  0
VERTEX
  5
833
  8
LAYER_1
 10
-24.48776868194216
 20
18.41626180169037
 30
0.0
  0
VERTEX
  5
834
  8
LAYER_1
 10
-24.34696137432237
 20
18.44987284446692
 30
0.0
  0
VERTEX
  5
835
  8
LAYER_1
 10
-24.24119445140379
 20
18.49259159349278
 30
0.0
  0
VERTEX
  5
836
  8
LAYER_1
 10
-24.16694695927733
 20
18.54550799915829
 30
0.0
  0
VERTEX
  5
837
  8
LAYER_1
 10
-24.12069794403387
 20
18.60971201185382
 30
0.0
  0
VERTEX
  5
838
  8
LAYER_1
 10
-24.09892645176429
 20
18.68629358196974
 30
0.0
  0
VERTEX
  5
839
  8
LAYER_1
 10
-24.09811152855948
 20
18.77634265989639
 30
0.0
  0
VERTEX
  5
83A
  8
LAYER_1
 10
-24.11473222051033
 20
18.88094919602415
 30
0.0
  0
VERTEX
  5
83B
  8
LAYER_1
 10
-24.18619663424258
 20
19.13819444444444
 30
0.0
  0
VERTEX
  5
83C
  8
LAYER_1
 10
-24.30538626139922
 20
19.49745810640431
 30
0.0
  0
VERTEX
  5
83D
  8
LAYER_1
 10
-24.43975448666886
 20
19.85184883920003
 30
0.0
  0
VERTEX
  5
83E
  8
LAYER_1
 10
-24.58920483927824
 20
20.20128942077748
 30
0.0
  0
VERTEX
  5
83F
  8
LAYER_1
 10
-24.7536408484541
 20
20.54570262908251
 30
0.0
  0
VERTEX
  5
840
  8
LAYER_1
 10
-24.93296604342319
 20
20.88501124206098
 30
0.0
  0
VERTEX
  5
841
  8
LAYER_1
 10
-25.12708395341223
 20
21.21913803765875
 30
0.0
  0
VERTEX
  5
842
  8
LAYER_1
 10
-25.33589810764799
 20
21.54800579382167
 30
0.0
  0
VERTEX
  5
843
  8
LAYER_1
 10
-25.55931203535719
 20
21.87153728849561
 30
0.0
  0
VERTEX
  5
844
  8
LAYER_1
 10
-25.79722926576659
 20
22.18965529962642
 30
0.0
  0
VERTEX
  5
845
  8
LAYER_1
 10
-26.04955332810292
 20
22.50228260515996
 30
0.0
  0
VERTEX
  5
846
  8
LAYER_1
 10
-26.31618775159292
 20
22.8093419830421
 30
0.0
  0
VERTEX
  5
847
  8
LAYER_1
 10
-26.59703606546333
 20
23.11075621121867
 30
0.0
  0
VERTEX
  5
848
  8
LAYER_1
 10
-26.8920017989409
 20
23.40644806763556
 30
0.0
  0
VERTEX
  5
849
  8
LAYER_1
 10
-27.20098848125237
 20
23.69634033023861
 30
0.0
  0
VERTEX
  5
84A
  8
LAYER_1
 10
-27.52389964162449
 20
23.98035577697368
 30
0.0
  0
VERTEX
  5
84B
  8
LAYER_1
 10
-27.86063880928398
 20
24.25841718578663
 30
0.0
  0
VERTEX
  5
84C
  8
LAYER_1
 10
-28.2111095134576
 20
24.53044733462333
 30
0.0
  0
VERTEX
  5
84D
  8
LAYER_1
 10
-28.57521528337208
 20
24.79636900142962
 30
0.0
  0
VERTEX
  5
84E
  8
LAYER_1
 10
-28.95285964825417
 20
25.05610496415137
 30
0.0
  0
VERTEX
  5
84F
  8
LAYER_1
 10
-29.34394613733061
 20
25.30957800073444
 30
0.0
  0
VERTEX
  5
850
  8
LAYER_1
 10
-29.74837827982814
 20
25.55671088912467
 30
0.0
  0
VERTEX
  5
851
  8
LAYER_1
 10
-30.1660596049735
 20
25.79742640726795
 30
0.0
  0
VERTEX
  5
852
  8
LAYER_1
 10
-30.59689364199344
 20
26.03164733311011
 30
0.0
  0
VERTEX
  5
853
  8
LAYER_1
 10
-31.04078392011469
 20
26.25929644459702
 30
0.0
  0
VERTEX
  5
854
  8
LAYER_1
 10
-31.497633968564
 20
26.48029651967454
 30
0.0
  0
VERTEX
  5
855
  8
LAYER_1
 10
-31.96734731656811
 20
26.69457033628852
 30
0.0
  0
VERTEX
  5
856
  8
LAYER_1
 10
-32.44982749335375
 20
26.90204067238483
 30
0.0
  0
VERTEX
  5
857
  8
LAYER_1
 10
-32.94497802814767
 20
27.10263030590932
 30
0.0
  0
VERTEX
  5
858
  8
LAYER_1
 10
-33.45270245017663
 20
27.29626201480785
 30
0.0
  0
VERTEX
  5
859
  8
LAYER_1
 10
-33.97290428866735
 20
27.48285857702628
 30
0.0
  0
VERTEX
  5
85A
  8
LAYER_1
 10
-34.50548707284658
 20
27.66234277051047
 30
0.0
  0
VERTEX
  5
85B
  8
LAYER_1
 10
-35.05035433194104
 20
27.83463737320627
 30
0.0
  0
VERTEX
  5
85C
  8
LAYER_1
 10
-36.01232218787575
 20
28.12210629939102
 30
0.0
  0
VERTEX
  5
85D
  8
LAYER_1
 10
-36.84377399140873
 20
28.35751847837934
 30
0.0
  0
VERTEX
  5
85E
  8
LAYER_1
 10
-37.45581433191029
 20
28.51658076147955
 30
0.0
  0
VERTEX
  5
85F
  8
LAYER_1
 10
-37.6517753877025
 20
28.55988908310547
 30
0.0
  0
VERTEX
  5
860
  8
LAYER_1
 10
-37.75954779875073
 20
28.575
 30
0.0
  0
VERTEX
  5
861
  8
LAYER_1
 10
-37.78464519892655
 20
28.56690559914413
 30
0.0
  0
VERTEX
  5
862
  8
LAYER_1
 10
-37.80016195217662
 20
28.54315567475055
 30
0.0
  0
VERTEX
  5
863
  8
LAYER_1
 10
-37.8063960574348
 20
28.50455014408033
 30
0.0
  0
VERTEX
  5
864
  8
LAYER_1
 10
-37.80364551363496
 20
28.45188892439449
 30
0.0
  0
VERTEX
  5
865
  8
LAYER_1
 10
-37.77238247459676
 20
28.30759908702022
 30
0.0
  0
VERTEX
  5
866
  8
LAYER_1
 10
-37.708756826533
 20
28.11668550071614
 30
0.0
  0
VERTEX
  5
867
  8
LAYER_1
 10
-37.61515256091468
 20
27.88554750357066
 30
0.0
  0
VERTEX
  5
868
  8
LAYER_1
 10
-37.49395366921278
 20
27.62058443367219
 30
0.0
  0
VERTEX
  5
869
  8
LAYER_1
 10
-37.3475441428983
 20
27.32819562910911
 30
0.0
  0
VERTEX
  5
86A
  8
LAYER_1
 10
-37.17830797344223
 20
27.01478042796986
 30
0.0
  0
VERTEX
  5
86B
  8
LAYER_1
 10
-36.97558708492843
 20
26.61980562141598
 30
0.0
  0
VERTEX
  5
86C
  8
LAYER_1
 10
-36.73320939251072
 20
26.09366464631054
 30
0.0
  0
VERTEX
  5
86D
  8
LAYER_1
 10
-36.46028787426498
 20
25.45914680929415
 30
0.0
  0
VERTEX
  5
86E
  8
LAYER_1
 10
-36.1659355082671
 20
24.73904141700743
 30
0.0
  0
VERTEX
  5
86F
  8
LAYER_1
 10
-35.85926527259298
 20
23.95613777609101
 30
0.0
  0
VERTEX
  5
870
  8
LAYER_1
 10
-35.5493901453185
 20
23.13322519318553
 30
0.0
  0
VERTEX
  5
871
  8
LAYER_1
 10
-35.24542310451957
 20
22.2930929749316
 30
0.0
  0
VERTEX
  5
872
  8
LAYER_1
 10
-34.95647712827208
 20
21.45853042796985
 30
0.0
  0
VERTEX
  5
873
  8
LAYER_1
 10
-33.60666968772352
 20
17.4625
 30
0.0
  0
VERTEX
  5
874
  8
LAYER_1
 10
-31.92638888888888
 20
14.0313106835488
 30
0.0
  0
SEQEND
  5
875
  8
LAYER_1
  0
POLYLINE
  5
54
  8
LAYER_1
 66
     1
 10
0.0
 20
0.0
 30
0.0
 70
     1
  0
VERTEX
  5
876
  8
LAYER_1
 10
13.8625132179148
 20
14.12670247928482
 30
0.0
  0
VERTEX
  5
877
  8
LAYER_1
 10
13.90400974305452
 20
14.13170128337006
 30
0.0
  0
VERTEX
  5
878
  8
LAYER_1
 10
13.93935947812237
 20
14.15126678650667
 30
0.0
  0
VERTEX
  5
879
  8
LAYER_1
 10
13.96869857131091
 20
14.18481473085698
 30
0.0
  0
VERTEX
  5
87A
  8
LAYER_1
 10
13.99216317081271
 20
14.23176085858333
 30
0.0
  0
VERTEX
  5
87B
  8
LAYER_1
 10
14.00988942482036
 20
14.29152091184805
 30
0.0
  0
VERTEX
  5
87C
  8
LAYER_1
 10
14.02201348152641
 20
14.36351063281345
 30
0.0
  0
VERTEX
  5
87D
  8
LAYER_1
 10
14.02999959580405
 20
14.5418420464957
 30
0.0
  0
VERTEX
  5
87E
  8
LAYER_1
 10
14.01721069918622
 20
14.76208103692872
 30
0.0
  0
VERTEX
  5
87F
  8
LAYER_1
 10
13.9847359772135
 20
15.01955354141116
 30
0.0
  0
VERTEX
  5
880
  8
LAYER_1
 10
13.93366461542649
 20
15.3095854972417
 30
0.0
  0
VERTEX
  5
881
  8
LAYER_1
 10
13.86508579936575
 20
15.62750284171897
 30
0.0
  0
VERTEX
  5
882
  8
LAYER_1
 10
13.78008871457189
 20
15.96863151214165
 30
0.0
  0
VERTEX
  5
883
  8
LAYER_1
 10
13.67976254658549
 20
16.32829744580837
 30
0.0
  0
VERTEX
  5
884
  8
LAYER_1
 10
13.56519648094712
 20
16.70182658001782
 30
0.0
  0
VERTEX
  5
885
  8
LAYER_1
 10
13.43747970319739
 20
17.08454485206862
 30
0.0
  0
VERTEX
  5
886
  8
LAYER_1
 10
13.29770139887687
 20
17.47177819925945
 30
0.0
  0
VERTEX
  5
887
  8
LAYER_1
 10
13.14695075352615
 20
17.85885255888897
 30
0.0
  0
VERTEX
  5
888
  8
LAYER_1
 10
12.98631695268582
 20
18.24109386825582
 30
0.0
  0
VERTEX
  5
889
  8
LAYER_1
 10
12.81688918189646
 20
18.61382806465866
 30
0.0
  0
VERTEX
  5
88A
  8
LAYER_1
 10
12.5884204675701
 20
19.06320595832142
 30
0.0
  0
VERTEX
  5
88B
  8
LAYER_1
 10
12.33283276115528
 20
19.501280521412
 30
0.0
  0
VERTEX
  5
88C
  8
LAYER_1
 10
12.19409107803645
 20
19.71673606344383
 30
0.0
  0
VERTEX
  5
88D
  8
LAYER_1
 10
12.04763579744161
 20
19.93015418417394
 30
0.0
  0
VERTEX
  5
88E
  8
LAYER_1
 10
11.89315563621947
 20
20.14179768738278
 30
0.0
  0
VERTEX
  5
88F
  8
LAYER_1
 10
11.73033931121872
 20
20.35192937685078
 30
0.0
  0
VERTEX
  5
890
  8
LAYER_1
 10
11.55887553928806
 20
20.56081205635841
 30
0.0
  0
VERTEX
  5
891
  8
LAYER_1
 10
11.37845303727619
 20
20.76870852968609
 30
0.0
  0
VERTEX
  5
892
  8
LAYER_1
 10
10.98948671040366
 20
21.18259407292341
 30
0.0
  0
VERTEX
  5
893
  8
LAYER_1
 10
10.56095006539073
 20
21.59568843680628
 30
0.0
  0
VERTEX
  5
894
  8
LAYER_1
 10
10.09035283702701
 20
22.01009405157827
 30
0.0
  0
VERTEX
  5
895
  8
LAYER_1
 10
9.575204760102118
 20
22.42791334748292
 30
0.0
  0
VERTEX
  5
896
  8
LAYER_1
 10
9.01301556940566
 20
22.85124875476378
 30
0.0
  0
VERTEX
  5
897
  8
LAYER_1
 10
8.40129499972725
 20
23.2822027036644
 30
0.0
  0
VERTEX
  5
898
  8
LAYER_1
 10
7.737552785856501
 20
23.72287762442833
 30
0.0
  0
VERTEX
  5
899
  8
LAYER_1
 10
7.019298662583024
 20
24.17537594729912
 30
0.0
  0
VERTEX
  5
89A
  8
LAYER_1
 10
6.24404236469643
 20
24.64180010252033
 30
0.0
  0
VERTEX
  5
89B
  8
LAYER_1
 10
5.409293626986331
 20
25.1242525203355
 30
0.0
  0
VERTEX
  5
89C
  8
LAYER_1
 10
4.512562184242341
 20
25.62483563098818
 30
0.0
  0
VERTEX
  5
89D
  8
LAYER_1
 10
0.5291666666666686
 20
27.81418102955194
 30
0.0
  0
VERTEX
  5
89E
  8
LAYER_1
 10
0.6957351545921284
 20
26.63472222222222
 30
0.0
  0
VERTEX
  5
89F
  8
LAYER_1
 10
1.168169047597338
 20
16.58055555555556
 30
0.0
  0
VERTEX
  5
8A0
  8
LAYER_1
 10
3.972746317727001
 20
16.58055555555556
 30
0.0
  0
VERTEX
  5
8A1
  8
LAYER_1
 10
4.540149443560489
 20
16.57235272159481
 30
0.0
  0
VERTEX
  5
8A2
  8
LAYER_1
 10
5.112642886289886
 20
16.54808121089894
 30
0.0
  0
VERTEX
  5
8A3
  8
LAYER_1
 10
5.687848476946908
 20
16.50824651024743
 30
0.0
  0
VERTEX
  5
8A4
  8
LAYER_1
 10
6.263388046563268
 20
16.45335410641983
 30
0.0
  0
VERTEX
  5
8A5
  8
LAYER_1
 10
6.836883426170681
 20
16.38390948619565
 30
0.0
  0
VERTEX
  5
8A6
  8
LAYER_1
 10
7.405956446800863
 20
16.3004181363544
 30
0.0
  0
VERTEX
  5
8A7
  8
LAYER_1
 10
7.968228939485526
 20
16.2033855436756
 30
0.0
  0
VERTEX
  5
8A8
  8
LAYER_1
 10
8.521322735256385
 20
16.09331719493877
 30
0.0
  0
VERTEX
  5
8A9
  8
LAYER_1
 10
9.062859665145153
 20
15.97071857692343
 30
0.0
  0
VERTEX
  5
8AA
  8
LAYER_1
 10
9.590461560183549
 20
15.8360951764091
 30
0.0
  0
VERTEX
  5
8AB
  8
LAYER_1
 10
10.10175025140328
 20
15.68995248017529
 30
0.0
  0
VERTEX
  5
8AC
  8
LAYER_1
 10
10.59434756983607
 20
15.53279597500153
 30
0.0
  0
VERTEX
  5
8AD
  8
LAYER_1
 10
11.06587534651362
 20
15.36513114766732
 30
0.0
  0
VERTEX
  5
8AE
  8
LAYER_1
 10
11.51395541246765
 20
15.18746348495219
 30
0.0
  0
VERTEX
  5
8AF
  8
LAYER_1
 10
11.93620959872989
 20
15.00029847363566
 30
0.0
  0
VERTEX
  5
8B0
  8
LAYER_1
 10
12.33025973633202
 20
14.80414160049725
 30
0.0
  0
VERTEX
  5
8B1
  8
LAYER_1
 10
12.83840406918545
 20
14.54592827124272
 30
0.0
  0
VERTEX
  5
8B2
  8
LAYER_1
 10
13.29667913864334
 20
14.33213166051262
 30
0.0
  0
VERTEX
  5
8B3
  8
LAYER_1
 10
13.65480787734127
 20
14.18498023947173
 30
0.0
  0
VERTEX
  5
8B4
  8
LAYER_1
 10
13.78060578910386
 20
14.14334287232372
 30
0.0
  0
SEQEND
  5
8B5
  8
LAYER_1
  0
POLYLINE
  5
55
  8
LAYER_1
 66
     1
 10
0.0
 20
0.0
 30
0.0
 70
     1
  0
VERTEX
  5
8B6
  8
LAYER_1
 10
15.01246856848942
 20
19.40277777777778
 30
0.0
  0
VERTEX
  5
8B7
  8
LAYER_1
 10
15.03672012180304
 20
19.41251365887196
 30
0.0
  0
VERTEX
  5
8B8
  8
LAYER_1
 10
15.06874004743237
 20
19.44107987940007
 30
0.0
  0
VERTEX
  5
8B9
  8
LAYER_1
 10
15.15398146327484
 20
19.55085480223143
 30
0.0
  0
VERTEX
  5
8BA
  8
LAYER_1
 10
15.26398571129014
 20
19.72440547321857
 30
0.0
  0
VERTEX
  5
8BB
  8
LAYER_1
 10
15.39454568675155
 20
19.95403481930821
 30
0.0
  0
VERTEX
  5
8BC
  8
LAYER_1
 10
15.54145428493238
 20
20.23204576744707
 30
0.0
  0
VERTEX
  5
8BD
  8
LAYER_1
 10
15.70050440110591
 20
20.55074124458185
 30
0.0
  0
VERTEX
  5
8BE
  8
LAYER_1
 10
16.03820076852428
 20
21.27939749362607
 30
0.0
  0
VERTEX
  5
8BF
  8
LAYER_1
 10
16.22718240201533
 20
21.69148087336882
 30
0.0
  0
VERTEX
  5
8C0
  8
LAYER_1
 10
16.44652868988462
 20
22.14379025717258
 30
0.0
  0
VERTEX
  5
8C1
  8
LAYER_1
 10
16.68836108524509
 20
22.6215729610817
 30
0.0
  0
VERTEX
  5
8C2
  8
LAYER_1
 10
16.94480104120968
 20
23.11007630114056
 30
0.0
  0
VERTEX
  5
8C3
  8
LAYER_1
 10
17.20797001089134
 20
23.59454759339354
 30
0.0
  0
VERTEX
  5
8C4
  8
LAYER_1
 10
17.46998944740302
 20
24.06023415388498
 30
0.0
  0
VERTEX
  5
8C5
  8
LAYER_1
 10
17.72298080385766
 20
24.49238329865927
 30
0.0
  0
VERTEX
  5
8C6
  8
LAYER_1
 10
17.9590655333682
 20
24.87624234376077
 30
0.0
  0
VERTEX
  5
8C7
  8
LAYER_1
 10
18.19056934944726
 20
25.24610238729096
 30
0.0
  0
VERTEX
  5
8C8
  8
LAYER_1
 10
18.3919251045921
 20
25.58122618927562
 30
0.0
  0
VERTEX
  5
8C9
  8
LAYER_1
 10
18.56338709229522
 20
25.88676897867139
 30
0.0
  0
VERTEX
  5
8CA
  8
LAYER_1
 10
18.70520960604912
 20
26.16788598443492
 30
0.0
  0
VERTEX
  5
8CB
  8
LAYER_1
 10
18.8176469393463
 20
26.42973243552283
 30
0.0
  0
VERTEX
  5
8CC
  8
LAYER_1
 10
18.90095338567926
 20
26.67746356089177
 30
0.0
  0
VERTEX
  5
8CD
  8
LAYER_1
 10
18.9553832385405
 20
26.91623458949838
 30
0.0
  0
VERTEX
  5
8CE
  8
LAYER_1
 10
18.98119079142253
 20
27.15120075029929
 30
0.0
  0
VERTEX
  5
8CF
  8
LAYER_1
 10
18.97863033781784
 20
27.38751727225114
 30
0.0
  0
VERTEX
  5
8D0
  8
LAYER_1
 10
18.94795617121894
 20
27.63033938431056
 30
0.0
  0
VERTEX
  5
8D1
  8
LAYER_1
 10
18.88942258511833
 20
27.8848223154342
 30
0.0
  0
VERTEX
  5
8D2
  8
LAYER_1
 10
18.8032838730085
 20
28.15612129457869
 30
0.0
  0
VERTEX
  5
8D3
  8
LAYER_1
 10
18.68979432838196
 20
28.44939155070067
 30
0.0
  0
VERTEX
  5
8D4
  8
LAYER_1
 10
18.54920824473121
 20
28.76978831275678
 30
0.0
  0
VERTEX
  5
8D5
  8
LAYER_1
 10
18.18776363432708
 20
29.51258227049794
 30
0.0
  0
VERTEX
  5
8D6
  8
LAYER_1
 10
18.07166567142355
 20
29.7536502911585
 30
0.0
  0
VERTEX
  5
8D7
  8
LAYER_1
 10
17.96137155324993
 20
30.0060589890329
 30
0.0
  0
VERTEX
  5
8D8
  8
LAYER_1
 10
17.85644755319468
 20
30.27175751621941
 30
0.0
  0
VERTEX
  5
8D9
  8
LAYER_1
 10
17.75645994464632
 20
30.55269502481628
 30
0.0
  0
VERTEX
  5
8DA
  8
LAYER_1
 10
17.66097500099332
 20
30.85082066692176
 30
0.0
  0
VERTEX
  5
8DB
  8
LAYER_1
 10
17.56955899562416
 20
31.1680835946341
 30
0.0
  0
VERTEX
  5
8DC
  8
LAYER_1
 10
17.48177820192734
 20
31.50643296005157
 30
0.0
  0
VERTEX
  5
8DD
  8
LAYER_1
 10
17.39719889329133
 20
31.86781791527243
 30
0.0
  0
VERTEX
  5
8DE
  8
LAYER_1
 10
17.31538734310463
 20
32.25418761239493
 30
0.0
  0
VERTEX
  5
8DF
  8
LAYER_1
 10
17.23590982475571
 20
32.66749120351732
 30
0.0
  0
VERTEX
  5
8E0
  8
LAYER_1
 10
17.08222197712519
 20
33.58269667615481
 30
0.0
  0
VERTEX
  5
8E1
  8
LAYER_1
 10
16.93266553750765
 20
34.62902754997096
 30
0.0
  0
VERTEX
  5
8E2
  8
LAYER_1
 10
16.78377069301098
 20
35.82207704175183
 30
0.0
  0
VERTEX
  5
8E3
  8
LAYER_1
 10
16.24201411736779
 20
40.42332075017033
 30
0.0
  0
VERTEX
  5
8E4
  8
LAYER_1
 10
15.45242030963239
 20
42.6883510294298
 30
0.0
  0
VERTEX
  5
8E5
  8
LAYER_1
 10
14.51718237703841
 20
41.30815608034248
 30
0.0
  0
VERTEX
  5
8E6
  8
LAYER_1
 10
14.26889111954782
 20
40.96364785783381
 30
0.0
  0
VERTEX
  5
8E7
  8
LAYER_1
 10
13.92045505662322
 20
40.51223797344811
 30
0.0
  0
VERTEX
  5
8E8
  8
LAYER_1
 10
13.48785228179282
 20
39.9731029771481
 30
0.0
  0
VERTEX
  5
8E9
  8
LAYER_1
 10
12.98706088858482
 20
39.36541941889645
 30
0.0
  0
VERTEX
  5
8EA
  8
LAYER_1
 10
12.43405897052744
 20
38.70836384865588
 30
0.0
  0
VERTEX
  5
8EB
  8
LAYER_1
 10
11.84482462114889
 20
38.02111281638908
 30
0.0
  0
VERTEX
  5
8EC
  8
LAYER_1
 10
11.23533593397738
 20
37.32284287205874
 30
0.0
  0
VERTEX
  5
8ED
  8
LAYER_1
 10
10.62157100254113
 20
36.63273056562758
 30
0.0
  0
VERTEX
  5
8EE
  8
LAYER_1
 10
7.661197560637802
 20
33.3375
 30
0.0
  0
VERTEX
  5
8EF
  8
LAYER_1
 10
6.801883039574903
 20
31.48221501688484
 30
0.0
  0
VERTEX
  5
8F0
  8
LAYER_1
 10
6.590222078602394
 20
31.00531893624501
 30
0.0
  0
VERTEX
  5
8F1
  8
LAYER_1
 10
6.415350777624445
 20
30.56405353377666
 30
0.0
  0
VERTEX
  5
8F2
  8
LAYER_1
 10
6.278367886291038
 20
30.1548339184114
 30
0.0
  0
VERTEX
  5
8F3
  8
LAYER_1
 10
6.224427953506658
 20
29.96112100243356
 30
0.0
  0
VERTEX
  5
8F4
  8
LAYER_1
 10
6.180372154252158
 20
29.77407519908085
 30
0.0
  0
VERTEX
  5
8F5
  8
LAYER_1
 10
6.146337832233784
 20
29.59324839696972
 30
0.0
  0
VERTEX
  5
8F6
  8
LAYER_1
 10
6.122462331157786
 20
29.41819248471662
 30
0.0
  0
VERTEX
  5
8F7
  8
LAYER_1
 10
6.10888299473041
 20
29.24845935093801
 30
0.0
  0
VERTEX
  5
8F8
  8
LAYER_1
 10
6.105737166657906
 20
29.08360088425033
 30
0.0
  0
VERTEX
  5
8F9
  8
LAYER_1
 10
6.11316219064652
 20
28.92316897327004
 30
0.0
  0
VERTEX
  5
8FA
  8
LAYER_1
 10
6.131295410402501
 20
28.7667155066136
 30
0.0
  0
VERTEX
  5
8FB
  8
LAYER_1
 10
6.160274169632096
 20
28.61379237289744
 30
0.0
  0
VERTEX
  5
8FC
  8
LAYER_1
 10
6.200235812041553
 20
28.46395146073802
 30
0.0
  0
VERTEX
  5
8FD
  8
LAYER_1
 10
6.25131768133712
 20
28.31674465875181
 30
0.0
  0
VERTEX
  5
8FE
  8
LAYER_1
 10
6.313657121225047
 20
28.17172385555524
 30
0.0
  0
VERTEX
  5
8FF
  8
LAYER_1
 10
6.387391475411579
 20
28.02844093976476
 30
0.0
  0
VERTEX
  5
900
  8
LAYER_1
 10
6.472658087602966
 20
27.88644779999684
 30
0.0
  0
VERTEX
  5
901
  8
LAYER_1
 10
6.569594301505454
 20
27.74529632486793
 30
0.0
  0
VERTEX
  5
902
  8
LAYER_1
 10
6.678337460825292
 20
27.60453840299447
 30
0.0
  0
VERTEX
  5
903
  8
LAYER_1
 10
6.799024909268725
 20
27.46372592299291
 30
0.0
  0
VERTEX
  5
904
  8
LAYER_1
 10
6.931793990542007
 20
27.32241077347972
 30
0.0
  0
VERTEX
  5
905
  8
LAYER_1
 10
7.234126426403095
 20
27.03648002038421
 30
0.0
  0
VERTEX
  5
906
  8
LAYER_1
 10
7.58643351805854
 20
26.74316125263955
 30
0.0
  0
VERTEX
  5
907
  8
LAYER_1
 10
7.989814015158323
 20
26.43886957917737
 30
0.0
  0
VERTEX
  5
908
  8
LAYER_1
 10
8.445366667352431
 20
26.12002010892927
 30
0.0
  0
VERTEX
  5
909
  8
LAYER_1
 10
8.89864885954933
 20
25.79396496112351
 30
0.0
  0
VERTEX
  5
90A
  8
LAYER_1
 10
9.407041112150509
 20
25.39645435602012
 30
0.0
  0
VERTEX
  5
90B
  8
LAYER_1
 10
9.953301347041798
 20
24.94286203468046
 30
0.0
  0
VERTEX
  5
90C
  8
LAYER_1
 10
10.52018748610903
 20
24.44856173816592
 30
0.0
  0
VERTEX
  5
90D
  8
LAYER_1
 10
11.09045745123804
 20
23.92892720753786
 30
0.0
  0
VERTEX
  5
90E
  8
LAYER_1
 10
11.64686916431467
 20
23.39933218385764
 30
0.0
  0
VERTEX
  5
90F
  8
LAYER_1
 10
12.17218054722474
 20
22.87515040818663
 30
0.0
  0
VERTEX
  5
910
  8
LAYER_1
 10
12.64914952185408
 20
22.37175562158621
 30
0.0
  0
VERTEX
  5
911
  8
LAYER_1
 10
14.81666666666666
 20
20.00629277692513
 30
0.0
  0
VERTEX
  5
912
  8
LAYER_1
 10
14.81666666666666
 20
19.70453527735146
 30
0.0
  0
VERTEX
  5
913
  8
LAYER_1
 10
14.82066301407691
 20
19.64391856088436
 30
0.0
  0
VERTEX
  5
914
  8
LAYER_1
 10
14.83211666048237
 20
19.58736849822012
 30
0.0
  0
VERTEX
  5
915
  8
LAYER_1
 10
14.85022451214508
 20
19.53612276660306
 30
0.0
  0
VERTEX
  5
916
  8
LAYER_1
 10
14.8741834753271
 20
19.49141904327755
 30
0.0
  0
VERTEX
  5
917
  8
LAYER_1
 10
14.90319045629049
 20
19.45449500548791
 30
0.0
  0
VERTEX
  5
918
  8
LAYER_1
 10
14.93644236129731
 20
19.42658833047852
 30
0.0
  0
VERTEX
  5
919
  8
LAYER_1
 10
14.9731360966096
 20
19.40893669549369
 30
0.0
  0
SEQEND
  5
91A
  8
LAYER_1
  0
POLYLINE
  5
56
  8
LAYER_1
 66
     1
 10
0.0
 20
0.0
 30
0.0
 70
     1
  0
VERTEX
  5
91B
  8
LAYER_1
 10
48.68333333333334
 20
25.04722222222222
 30
0.0
  0
VERTEX
  5
91C
  8
LAYER_1
 10
49.03611111111111
 20
25.04722222222222
 30
0.0
  0
VERTEX
  5
91D
  8
LAYER_1
 10
49.03611111111111
 20
25.75277777777777
 30
0.0
  0
VERTEX
  5
91E
  8
LAYER_1
 10
48.68333333333334
 20
25.75277777777777
 30
0.0
  0
SEQEND
  5
91F
  8
LAYER_1
  0
POLYLINE
  5
57
  8
LAYER_1
 66
     1
 10
0.0
 20
0.0
 30
0.0
 70
     1
  0
VERTEX
  5
920
  8
LAYER_1
 10
-2.664667840005077
 20
-17.4625
 30
0.0
  0
VERTEX
  5
921
  8
LAYER_1
 10
-10.40694444444444
 20
-11.92440209195722
 30
0.0
  0
VERTEX
  5
922
  8
LAYER_1
 10
-11.68141476370918
 20
-11.27141338679408
 30
0.0
  0
VERTEX
  5
923
  8
LAYER_1
 10
-12.1380913469986
 20
-11.0523174960812
 30
0.0
  0
VERTEX
  5
924
  8
LAYER_1
 10
-12.63681260557781
 20
-10.84057275285898
 30
0.0
  0
VERTEX
  5
925
  8
LAYER_1
 10
-13.17317102904871
 20
-10.63711523817733
 30
0.0
  0
VERTEX
  5
926
  8
LAYER_1
 10
-13.74275910701321
 20
-10.44288103308619
 30
0.0
  0
VERTEX
  5
927
  8
LAYER_1
 10
-14.3411693290732
 20
-10.25880621863547
 30
0.0
  0
VERTEX
  5
928
  8
LAYER_1
 10
-14.96399418483059
 20
-10.08582687587508
 30
0.0
  0
VERTEX
  5
929
  8
LAYER_1
 10
-15.60682616388726
 20
-9.924879085854954
 30
0.0
  0
VERTEX
  5
92A
  8
LAYER_1
 10
-16.26525775584512
 20
-9.776898929625006
 30
0.0
  0
VERTEX
  5
92B
  8
LAYER_1
 10
-16.93488145030607
 20
-9.642822488235154
 30
0.0
  0
VERTEX
  5
92C
  8
LAYER_1
 10
-17.61128973687201
 20
-9.523585842735322
 30
0.0
  0
VERTEX
  5
92D
  8
LAYER_1
 10
-18.29007510514482
 20
-9.420125074175429
 30
0.0
  0
VERTEX
  5
92E
  8
LAYER_1
 10
-18.96683004472642
 20
-9.333376263605391
 30
0.0
  0
VERTEX
  5
92F
  8
LAYER_1
 10
-19.6371470452187
 20
-9.264275492075132
 30
0.0
  0
VERTEX
  5
930
  8
LAYER_1
 10
-20.29661859622355
 20
-9.21375884063457
 30
0.0
  0
VERTEX
  5
931
  8
LAYER_1
 10
-20.94083718734289
 20
-9.182762390333625
 30
0.0
  0
VERTEX
  5
932
  8
LAYER_1
 10
-21.56539530817859
 20
-9.172222222222217
 30
0.0
  0
VERTEX
  5
933
  8
LAYER_1
 10
-22.46868052355148
 20
-9.183854646092227
 30
0.0
  0
VERTEX
  5
934
  8
LAYER_1
 10
-22.88756470819596
 20
-9.199747115412286
 30
0.0
  0
VERTEX
  5
935
  8
LAYER_1
 10
-23.29140493947495
 20
-9.223558813640203
 30
0.0
  0
VERTEX
  5
936
  8
LAYER_1
 10
-23.68529746388531
 20
-9.25619103376434
 30
0.0
  0
VERTEX
  5
937
  8
LAYER_1
 10
-24.07433852792391
 20
-9.298545068773063
 30
0.0
  0
VERTEX
  5
938
  8
LAYER_1
 10
-24.46362437808761
 20
-9.35152221165474
 30
0.0
  0
VERTEX
  5
939
  8
LAYER_1
 10
-24.85825126087326
 20
-9.416023755397728
 30
0.0
  0
VERTEX
  5
93A
  8
LAYER_1
 10
-25.26331542277774
 20
-9.492950992990396
 30
0.0
  0
VERTEX
  5
93B
  8
LAYER_1
 10
-25.68391311029789
 20
-9.58320521742111
 30
0.0
  0
VERTEX
  5
93C
  8
LAYER_1
 10
-26.12514056993059
 20
-9.687687721678234
 30
0.0
  0
VERTEX
  5
93D
  8
LAYER_1
 10
-26.5920940481727
 20
-9.807299798750131
 30
0.0
  0
VERTEX
  5
93E
  8
LAYER_1
 10
-27.62356404647258
 20
-10.09551784329171
 30
0.0
  0
VERTEX
  5
93F
  8
LAYER_1
 10
-28.81909307717243
 20
-10.45506969495276
 30
0.0
  0
VERTEX
  5
940
  8
LAYER_1
 10
-34.925
 20
-12.19605850495211
 30
0.0
  0
VERTEX
  5
941
  8
LAYER_1
 10
-35.40116387261284
 20
-12.29640965474717
 30
0.0
  0
VERTEX
  5
942
  8
LAYER_1
 10
-36.01240993923611
 20
-12.40611240179426
 30
0.0
  0
VERTEX
  5
943
  8
LAYER_1
 10
-36.73341674804687
 20
-12.52161564502132
 30
0.0
  0
VERTEX
  5
944
  8
LAYER_1
 10
-37.53886284722222
 20
-12.63936828335626
 30
0.0
  0
VERTEX
  5
945
  8
LAYER_1
 10
-38.40342678493923
 20
-12.75581921572701
 30
0.0
  0
VERTEX
  5
946
  8
LAYER_1
 10
-39.301787109375
 20
-12.8674173410615
 30
0.0
  0
VERTEX
  5
947
  8
LAYER_1
 10
-40.20862236870659
 20
-12.97061155828767
 30
0.0
  0
VERTEX
  5
948
  8
LAYER_1
 10
-41.0986111111111
 20
-13.06185076633344
 30
0.0
  0
VERTEX
  5
949
  8
LAYER_1
 10
-45.33194444444444
 20
-13.46950169044595
 30
0.0
  0
VERTEX
  5
94A
  8
LAYER_1
 10
-46.14758607889969
 20
-13.93472222222222
 30
0.0
  0
VERTEX
  5
94B
  8
LAYER_1
 10
-35.5415054585044
 20
-20.6375
 30
0.0
  0
VERTEX
  5
94C
  8
LAYER_1
 10
-33.55755828480775
 20
-21.71129551439235
 30
0.0
  0
VERTEX
  5
94D
  8
LAYER_1
 10
-32.68538599347222
 20
-22.17380163585075
 30
0.0
  0
VERTEX
  5
94E
  8
LAYER_1
 10
-31.84048744264242
 20
-22.60211519442864
 30
0.0
  0
VERTEX
  5
94F
  8
LAYER_1
 10
-31.02073067978028
 20
-22.99689422117979
 30
0.0
  0
VERTEX
  5
950
  8
LAYER_1
 10
-30.22398375234776
 20
-23.35879674715794
 30
0.0
  0
VERTEX
  5
951
  8
LAYER_1
 10
-29.44811470780682
 20
-23.68848080341687
 30
0.0
  0
VERTEX
  5
952
  8
LAYER_1
 10
-28.69099159361942
 20
-23.98660442101032
 30
0.0
  0
VERTEX
  5
953
  8
LAYER_1
 10
-27.95048245724749
 20
-24.25382563099206
 30
0.0
  0
VERTEX
  5
954
  8
LAYER_1
 10
-27.224455346153
 20
-24.49080246441584
 30
0.0
  0
VERTEX
  5
955
  8
LAYER_1
 10
-26.51077830779791
 20
-24.69819295233543
 30
0.0
  0
VERTEX
  5
956
  8
LAYER_1
 10
-25.80731938964415
 20
-24.87665512580458
 30
0.0
  0
VERTEX
  5
957
  8
LAYER_1
 10
-25.1119466391537
 20
-25.02684701587704
 30
0.0
  0
VERTEX
  5
958
  8
LAYER_1
 10
-24.42252810378849
 20
-25.14942665360659
 30
0.0
  0
VERTEX
  5
959
  8
LAYER_1
 10
-23.73693183101049
 20
-25.24505207004697
 30
0.0
  0
VERTEX
  5
95A
  8
LAYER_1
 10
-23.05302586828164
 20
-25.31438129625196
 30
0.0
  0
VERTEX
  5
95B
  8
LAYER_1
 10
-22.36867826306391
 20
-25.3580723632753
 30
0.0
  0
VERTEX
  5
95C
  8
LAYER_1
 10
-21.68175706281924
 20
-25.37678330217074
 30
0.0
  0
VERTEX
  5
95D
  8
LAYER_1
 10
-21.27380762320724
 20
-25.37644484139808
 30
0.0
  0
VERTEX
  5
95E
  8
LAYER_1
 10
-20.86893321497483
 20
-25.36759698189506
 30
0.0
  0
VERTEX
  5
95F
  8
LAYER_1
 10
-20.46643056162812
 20
-25.34998160359559
 30
0.0
  0
VERTEX
  5
960
  8
LAYER_1
 10
-20.06559638667322
 20
-25.32334058643358
 30
0.0
  0
VERTEX
  5
961
  8
LAYER_1
 10
-19.66572741361627
 20
-25.28741581034294
 30
0.0
  0
VERTEX
  5
962
  8
LAYER_1
 10
-19.26612036596338
 20
-25.24194915525757
 30
0.0
  0
VERTEX
  5
963
  8
LAYER_1
 10
-18.86607196722068
 20
-25.18668250111138
 30
0.0
  0
VERTEX
  5
964
  8
LAYER_1
 10
-18.46487894089428
 20
-25.12135772783829
 30
0.0
  0
VERTEX
  5
965
  8
LAYER_1
 10
-18.06183801049031
 20
-25.04571671537221
 30
0.0
  0
VERTEX
  5
966
  8
LAYER_1
 10
-17.65624589951489
 20
-24.95950134364703
 30
0.0
  0
VERTEX
  5
967
  8
LAYER_1
 10
-17.24739933147413
 20
-24.86245349259668
 30
0.0
  0
VERTEX
  5
968
  8
LAYER_1
 10
-16.83459502987417
 20
-24.75431504215505
 30
0.0
  0
VERTEX
  5
969
  8
LAYER_1
 10
-16.41712971822112
 20
-24.63482787225606
 30
0.0
  0
VERTEX
  5
96A
  8
LAYER_1
 10
-15.9943001200211
 20
-24.50373386283361
 30
0.0
  0
VERTEX
  5
96B
  8
LAYER_1
 10
-15.56540295878023
 20
-24.36077489382162
 30
0.0
  0
VERTEX
  5
96C
  8
LAYER_1
 10
-15.12973495800464
 20
-24.205692845154
 30
0.0
  0
VERTEX
  5
96D
  8
LAYER_1
 10
-14.68659284120044
 20
-24.03822959676465
 30
0.0
  0
VERTEX
  5
96E
  8
LAYER_1
 10
-14.23527333187376
 20
-23.85812702858748
 30
0.0
  0
VERTEX
  5
96F
  8
LAYER_1
 10
-13.77507315353072
 20
-23.66512702055639
 30
0.0
  0
VERTEX
  5
970
  8
LAYER_1
 10
-13.30528902967744
 20
-23.45897145260531
 30
0.0
  0
VERTEX
  5
971
  8
LAYER_1
 10
-12.82521768382004
 20
-23.23940220466813
 30
0.0
  0
VERTEX
  5
972
  8
LAYER_1
 10
-12.33415583946464
 20
-23.00616115667877
 30
0.0
  0
VERTEX
  5
973
  8
LAYER_1
 10
-11.31624754928432
 20
-22.49763118027914
 30
0.0
  0
VERTEX
  5
974
  8
LAYER_1
 10
-10.24593794718547
 20
-21.93131656287767
 30
0.0
  0
VERTEX
  5
975
  8
LAYER_1
 10
-9.117600821217039
 20
-21.30515234394564
 30
0.0
  0
VERTEX
  5
976
  8
LAYER_1
 10
-7.925609959428006
 20
-20.61707356295432
 30
0.0
  0
VERTEX
  5
977
  8
LAYER_1
 10
-6.664339149867338
 20
-19.86501525937498
 30
0.0
  0
SEQEND
  5
978
  8
LAYER_1
  0
POLYLINE
  5
58
  8
LAYER_1
 66
     1
 10
0.0
 20
0.0
 30
0.0
 70
     1
  0
VERTEX
  5
979
  8
LAYER_1
 10
-43.84917599569229
 20
-17.63888888888889
 30
0.0
  0
VERTEX
  5
97A
  8
LAYER_1
 10
-44.107373039178
 20
-17.63888888888889
 30
0.0
  0
VERTEX
  5
97B
  8
LAYER_1
 10
-44.30174127693783
 20
-17.64517377652757
 30
0.0
  0
VERTEX
  5
97C
  8
LAYER_1
 10
-44.5002312352315
 20
-17.66397790541802
 30
0.0
  0
VERTEX
  5
97D
  8
LAYER_1
 10
-44.70274519686996
 20
-17.69522547452181
 30
0.0
  0
VERTEX
  5
97E
  8
LAYER_1
 10
-44.90918544466412
 20
-17.73884068280054
 30
0.0
  0
VERTEX
  5
97F
  8
LAYER_1
 10
-45.11945426142491
 20
-17.7947477292158
 30
0.0
  0
VERTEX
  5
980
  8
LAYER_1
 10
-45.33345392996326
 20
-17.86287081272916
 30
0.0
  0
VERTEX
  5
981
  8
LAYER_1
 10
-45.55108673309011
 20
-17.94313413230223
 30
0.0
  0
VERTEX
  5
982
  8
LAYER_1
 10
-45.77225495361638
 20
-18.03546188689659
 30
0.0
  0
VERTEX
  5
983
  8
LAYER_1
 10
-45.99686087435299
 20
-18.13977827547382
 30
0.0
  0
VERTEX
  5
984
  8
LAYER_1
 10
-46.22480677811088
 20
-18.25600749699552
 30
0.0
  0
VERTEX
  5
985
  8
LAYER_1
 10
-46.45599494770099
 20
-18.38407375042327
 30
0.0
  0
VERTEX
  5
986
  8
LAYER_1
 10
-46.69032766593421
 20
-18.52390123471867
 30
0.0
  0
VERTEX
  5
987
  8
LAYER_1
 10
-46.92770721562151
 20
-18.6754141488433
 30
0.0
  0
VERTEX
  5
988
  8
LAYER_1
 10
-47.16803587957379
 20
-18.83853669175875
 30
0.0
  0
VERTEX
  5
989
  8
LAYER_1
 10
-47.411215940602
 20
-19.0131930624266
 30
0.0
  0
VERTEX
  5
98A
  8
LAYER_1
 10
-47.65714968151705
 20
-19.19930745980845
 30
0.0
  0
VERTEX
  5
98B
  8
LAYER_1
 10
-48.15688733425142
 20
-19.60560713056049
 30
0.0
  0
VERTEX
  5
98C
  8
LAYER_1
 10
-48.66646710026432
 20
-20.05682929570757
 30
0.0
  0
VERTEX
  5
98D
  8
LAYER_1
 10
-49.18510724204319
 20
-20.55236754694238
 30
0.0
  0
VERTEX
  5
98E
  8
LAYER_1
 10
-49.71202602207543
 20
-21.09161547595766
 30
0.0
  0
VERTEX
  5
98F
  8
LAYER_1
 10
-50.2464417028485
 20
-21.67396667444608
 30
0.0
  0
VERTEX
  5
990
  8
LAYER_1
 10
-50.78757254684982
 20
-22.29881473410038
 30
0.0
  0
VERTEX
  5
991
  8
LAYER_1
 10
-51.33463681656681
 20
-22.96555324661324
 30
0.0
  0
VERTEX
  5
992
  8
LAYER_1
 10
-51.8868527744869
 20
-23.67357580367737
 30
0.0
  0
VERTEX
  5
993
  8
LAYER_1
 10
-53.4839931141663
 20
-25.77166641804272
 30
0.0
  0
VERTEX
  5
994
  8
LAYER_1
 10
-53.81911204335414
 20
-26.23241428893339
 30
0.0
  0
VERTEX
  5
995
  8
LAYER_1
 10
-54.148490163308
 20
-26.69830779153967
 30
0.0
  0
VERTEX
  5
996
  8
LAYER_1
 10
-54.31709553617644
 20
-26.92786890042253
 30
0.0
  0
VERTEX
  5
997
  8
LAYER_1
 10
-54.49154864636149
 20
-27.15233811205794
 30
0.0
  0
VERTEX
  5
998
  8
LAYER_1
 10
-54.67427714040486
 20
-27.36958932472044
 30
0.0
  0
VERTEX
  5
999
  8
LAYER_1
 10
-54.86770866484825
 20
-27.57749643668458
 30
0.0
  0
VERTEX
  5
99A
  8
LAYER_1
 10
-55.02901048865503
 20
-27.74744386670147
 30
0.0
  0
VERTEX
  5
99B
  8
LAYER_1
 10
-55.19961569362049
 20
-27.93938341318073
 30
0.0
  0
VERTEX
  5
99C
  8
LAYER_1
 10
-55.56817418883365
 20
-28.38868769489226
 30
0.0
  0
VERTEX
  5
99D
  8
LAYER_1
 10
-55.9722600341
 20
-28.92430696055103
 30
0.0
  0
VERTEX
  5
99E
  8
LAYER_1
 10
-56.41074911303183
 20
-29.54513888888888
 30
0.0
  0
VERTEX
  5
99F
  8
LAYER_1
 10
-56.61216643422077
 20
-29.84706809396003
 30
0.0
  0
VERTEX
  5
9A0
  8
LAYER_1
 10
-56.76384147034346
 20
-30.09554574095488
 30
0.0
  0
VERTEX
  5
9A1
  8
LAYER_1
 10
-56.86674158710021
 20
-30.29463857564744
 30
0.0
  0
VERTEX
  5
9A2
  8
LAYER_1
 10
-56.9002033524977
 20
-30.37693654643475
 30
0.0
  0
VERTEX
  5
9A3
  8
LAYER_1
 10
-56.92183415019132
 20
-30.44841334381174
 30
0.0
  0
VERTEX
  5
9A4
  8
LAYER_1
 10
-56.9317549008936
 20
-30.50957731100017
 30
0.0
  0
VERTEX
  5
9A5
  8
LAYER_1
 10
-56.93008652531709
 20
-30.56093679122179
 30
0.0
  0
VERTEX
  5
9A6
  8
LAYER_1
 10
-56.91694994417432
 20
-30.60300012769836
 30
0.0
  0
VERTEX
  5
9A7
  8
LAYER_1
 10
-56.89246607817783
 20
-30.63627566365162
 30
0.0
  0
VERTEX
  5
9A8
  8
LAYER_1
 10
-56.85675584804015
 20
-30.66127174230333
 30
0.0
  0
VERTEX
  5
9A9
  8
LAYER_1
 10
-56.80994017447384
 20
-30.67849670687524
 30
0.0
  0
VERTEX
  5
9AA
  8
LAYER_1
 10
-56.75213997819142
 20
-30.6884589005891
 30
0.0
  0
VERTEX
  5
9AB
  8
LAYER_1
 10
-56.68347617990543
 20
-30.69166666666666
 30
0.0
  0
VERTEX
  5
9AC
  8
LAYER_1
 10
-56.50911962082736
 20
-30.67278568213769
 30
0.0
  0
VERTEX
  5
9AD
  8
LAYER_1
 10
-56.20922700821409
 20
-30.6186722384398
 30
0.0
  0
VERTEX
  5
9AE
  8
LAYER_1
 10
-55.29834004004631
 20
-30.41992503287159
 30
0.0
  0
VERTEX
  5
9AF
  8
LAYER_1
 10
-54.08182811073097
 20
-30.12577916863065
 30
0.0
  0
VERTEX
  5
9B0
  8
LAYER_1
 10
-52.69070405559695
 20
-29.76658876438557
 30
0.0
  0
VERTEX
  5
9B1
  8
LAYER_1
 10
-51.19393566552604
 20
-29.37156879982125
 30
0.0
  0
VERTEX
  5
9B2
  8
LAYER_1
 10
-49.82583053242313
 20
-29.01787462728922
 30
0.0
  0
VERTEX
  5
9B3
  8
LAYER_1
 10
-48.57262963406826
 20
-28.70330507515082
 30
0.0
  0
VERTEX
  5
9B4
  8
LAYER_1
 10
-47.42057394824151
 20
-28.42565897176739
 30
0.0
  0
VERTEX
  5
9B5
  8
LAYER_1
 10
-46.35590445272293
 20
-28.1827351455003
 30
0.0
  0
VERTEX
  5
9B6
  8
LAYER_1
 10
-45.36486212529258
 20
-27.9723324247109
 30
0.0
  0
VERTEX
  5
9B7
  8
LAYER_1
 10
-44.43368794373052
 20
-27.79224963776053
 30
0.0
  0
VERTEX
  5
9B8
  8
LAYER_1
 10
-43.5486228858168
 20
-27.64028561301054
 30
0.0
  0
VERTEX
  5
9B9
  8
LAYER_1
 10
-42.6959079293315
 20
-27.51423917882228
 30
0.0
  0
VERTEX
  5
9BA
  8
LAYER_1
 10
-41.86178405205467
 20
-27.41190916355711
 30
0.0
  0
VERTEX
  5
9BB
  8
LAYER_1
 10
-41.03249223176637
 20
-27.33109439557638
 30
0.0
  0
VERTEX
  5
9BC
  8
LAYER_1
 10
-40.19427344624666
 20
-27.26959370324143
 30
0.0
  0
VERTEX
  5
9BD
  8
LAYER_1
 10
-39.3333686732756
 20
-27.22520591491362
 30
0.0
  0
VERTEX
  5
9BE
  8
LAYER_1
 10
-38.43601889063326
 20
-27.1957298589543
 30
0.0
  0
VERTEX
  5
9BF
  8
LAYER_1
 10
-37.48846507609969
 20
-27.17896436372481
 30
0.0
  0
VERTEX
  5
9C0
  8
LAYER_1
 10
-36.47694820745494
 20
-27.17270825758651
 30
0.0
  0
VERTEX
  5
9C1
  8
LAYER_1
 10
-31.14972974824322
 20
-27.16388888888888
 30
0.0
  0
VERTEX
  5
9C2
  8
LAYER_1
 10
-28.87293366062006
 20
-26.37019349826867
 30
0.0
  0
VERTEX
  5
9C3
  8
LAYER_1
 10
-32.86910571919891
 20
-24.25449396307652
 30
0.0
  0
VERTEX
  5
9C4
  8
LAYER_1
 10
-33.73794998476586
 20
-23.78357266691291
 30
0.0
  0
VERTEX
  5
9C5
  8
LAYER_1
 10
-34.67627959437291
 20
-23.2554721672095
 30
0.0
  0
VERTEX
  5
9C6
  8
LAYER_1
 10
-35.65442122862508
 20
-22.68809845974725
 30
0.0
  0
VERTEX
  5
9C7
  8
LAYER_1
 10
-36.64270156812739
 20
-22.0993575403071
 30
0.0
  0
VERTEX
  5
9C8
  8
LAYER_1
 10
-37.61144729348484
 20
-21.50715540467
 30
0.0
  0
VERTEX
  5
9C9
  8
LAYER_1
 10
-38.53098508530248
 20
-20.92939804861692
 30
0.0
  0
VERTEX
  5
9CA
  8
LAYER_1
 10
-39.37164162418529
 20
-20.38399146792881
 30
0.0
  0
VERTEX
  5
9CB
  8
LAYER_1
 10
-40.1037435907383
 20
-19.88884165838662
 30
0.0
  0
VERTEX
  5
9CC
  8
LAYER_1
 10
-42.83255995819736
 20
-17.99297234927
 30
0.0
  0
VERTEX
  5
9CD
  8
LAYER_1
 10
-42.94612754596241
 20
-17.918980278216
 30
0.0
  0
VERTEX
  5
9CE
  8
LAYER_1
 10
-43.06526185872475
 20
-17.85127980021129
 30
0.0
  0
VERTEX
  5
9CF
  8
LAYER_1
 10
-43.18910945068886
 20
-17.7909724956607
 30
0.0
  0
VERTEX
  5
9D0
  8
LAYER_1
 10
-43.3168168760592
 20
-17.73915994496907
 30
0.0
  0
VERTEX
  5
9D1
  8
LAYER_1
 10
-43.44753068904025
 20
-17.69694372854124
 30
0.0
  0
VERTEX
  5
9D2
  8
LAYER_1
 10
-43.58039744383646
 20
-17.66542542678204
 30
0.0
  0
VERTEX
  5
9D3
  8
LAYER_1
 10
-43.71456369465233
 20
-17.64570662009632
 30
0.0
  0
SEQEND
  5
9D4
  8
LAYER_1
  0
POLYLINE
  5
59
  8
LAYER_1
 66
     1
 10
0.0
 20
0.0
 30
0.0
 70
     1
  0
VERTEX
  5
9D5
  8
LAYER_1
 10
-39.26423549737441
 20
-6.145942960576336
 30
0.0
  0
VERTEX
  5
9D6
  8
LAYER_1
 10
-39.58169599529251
 20
-5.967526740304224
 30
0.0
  0
VERTEX
  5
9D7
  8
LAYER_1
 10
-39.96982429518296
 20
-5.771731951235875
 30
0.0
  0
VERTEX
  5
9D8
  8
LAYER_1
 10
-40.42994338145422
 20
-5.55788630462007
 30
0.0
  0
VERTEX
  5
9D9
  8
LAYER_1
 10
-40.96337623851475
 20
-5.325317511705595
 30
0.0
  0
VERTEX
  5
9DA
  8
LAYER_1
 10
-41.57144585077297
 20
-5.073353283741235
 30
0.0
  0
VERTEX
  5
9DB
  8
LAYER_1
 10
-42.25547520263736
 20
-4.801321331975772
 30
0.0
  0
VERTEX
  5
9DC
  8
LAYER_1
 10
-43.01678727851633
 20
-4.508549367657992
 30
0.0
  0
VERTEX
  5
9DD
  8
LAYER_1
 10
-43.85670506281835
 20
-4.194365102036677
 30
0.0
  0
VERTEX
  5
9DE
  8
LAYER_1
 10
-46.61479901452559
 20
-3.174999999999997
 30
0.0
  0
VERTEX
  5
9DF
  8
LAYER_1
 10
-46.7890418198541
 20
-3.174999999999997
 30
0.0
  0
VERTEX
  5
9E0
  8
LAYER_1
 10
-46.81638009968822
 20
-3.184121139229165
 30
0.0
  0
VERTEX
  5
9E1
  8
LAYER_1
 10
-46.82746418350607
 20
-3.210920127094705
 30
0.0
  0
VERTEX
  5
9E2
  8
LAYER_1
 10
-46.82296570404883
 20
-3.254550318863668
 30
0.0
  0
VERTEX
  5
9E3
  8
LAYER_1
 10
-46.80355629405766
 20
-3.314165069803106
 30
0.0
  0
VERTEX
  5
9E4
  8
LAYER_1
 10
-46.7226912134382
 20
-3.477961670261616
 30
0.0
  0
VERTEX
  5
9E5
  8
LAYER_1
 10
-46.59024200357701
 20
-3.695536770606648
 30
0.0
  0
VERTEX
  5
9E6
  8
LAYER_1
 10
-46.41158172640344
 20
-3.96011721297462
 30
0.0
  0
VERTEX
  5
9E7
  8
LAYER_1
 10
-46.19208344384681
 20
-4.264929839501947
 30
0.0
  0
VERTEX
  5
9E8
  8
LAYER_1
 10
-45.93712021783647
 20
-4.603201492325042
 30
0.0
  0
VERTEX
  5
9E9
  8
LAYER_1
 10
-45.65206511030173
 20
-4.968159013580323
 30
0.0
  0
VERTEX
  5
9EA
  8
LAYER_1
 10
-45.01317149837644
 20
-5.751039029933099
 30
0.0
  0
VERTEX
  5
9EB
  8
LAYER_1
 10
-44.31838710350557
 20
-6.559384625651599
 30
0.0
  0
VERTEX
  5
9EC
  8
LAYER_1
 10
-43.96346851728888
 20
-6.956174121114033
 30
0.0
  0
VERTEX
  5
9ED
  8
LAYER_1
 10
-43.61069642112379
 20
-7.339010537827143
 30
0.0
  0
VERTEX
  5
9EE
  8
LAYER_1
 10
-43.26544387693965
 20
-7.701120717927346
 30
0.0
  0
VERTEX
  5
9EF
  8
LAYER_1
 10
-42.93308394666577
 20
-8.035731503551055
 30
0.0
  0
VERTEX
  5
9F0
  8
LAYER_1
 10
-42.46885001417998
 20
-8.48588558530776
 30
0.0
  0
VERTEX
  5
9F1
  8
LAYER_1
 10
-42.03797858092346
 20
-8.889340296346752
 30
0.0
  0
VERTEX
  5
9F2
  8
LAYER_1
 10
-41.63594926664048
 20
-9.248205887705662
 30
0.0
  0
VERTEX
  5
9F3
  8
LAYER_1
 10
-41.25824169107527
 20
-9.564592610422112
 30
0.0
  0
VERTEX
  5
9F4
  8
LAYER_1
 10
-40.90033547397208
 20
-9.840610715533732
 30
0.0
  0
VERTEX
  5
9F5
  8
LAYER_1
 10
-40.55771023507513
 20
-10.07837045407815
 30
0.0
  0
VERTEX
  5
9F6
  8
LAYER_1
 10
-40.22584559412871
 20
-10.27998207709298
 30
0.0
  0
VERTEX
  5
9F7
  8
LAYER_1
 10
-39.90022117087705
 20
-10.44755583561587
 30
0.0
  0
VERTEX
  5
9F8
  8
LAYER_1
 10
-39.57631658506438
 20
-10.58320198068443
 30
0.0
  0
VERTEX
  5
9F9
  8
LAYER_1
 10
-39.24961145643495
 20
-10.6890307633363
 30
0.0
  0
VERTEX
  5
9FA
  8
LAYER_1
 10
-38.91558540473301
 20
-10.76715243460909
 30
0.0
  0
VERTEX
  5
9FB
  8
LAYER_1
 10
-38.56971804970281
 20
-10.81967724554044
 30
0.0
  0
VERTEX
  5
9FC
  8
LAYER_1
 10
-38.20748901108858
 20
-10.84871544716797
 30
0.0
  0
VERTEX
  5
9FD
  8
LAYER_1
 10
-37.82437790863457
 20
-10.85637729052931
 30
0.0
  0
VERTEX
  5
9FE
  8
LAYER_1
 10
-37.41586436208505
 20
-10.84477302666209
 30
0.0
  0
VERTEX
  5
9FF
  8
LAYER_1
 10
-36.97742799118421
 20
-10.81601290660393
 30
0.0
  0
VERTEX
  5
A00
  8
LAYER_1
 10
-36.14052482207168
 20
-10.73911300096471
 30
0.0
  0
VERTEX
  5
A01
  8
LAYER_1
 10
-35.79134451507807
 20
-10.69786552293342
 30
0.0
  0
VERTEX
  5
A02
  8
LAYER_1
 10
-35.48593324612786
 20
-10.65344799242404
 30
0.0
  0
VERTEX
  5
A03
  8
LAYER_1
 10
-35.22248215497223
 20
-10.60488163268385
 30
0.0
  0
VERTEX
  5
A04
  8
LAYER_1
 10
-34.99918238136239
 20
-10.55118766696011
 30
0.0
  0
VERTEX
  5
A05
  8
LAYER_1
 10
-34.81422506504955
 20
-10.4913873185001
 30
0.0
  0
VERTEX
  5
A06
  8
LAYER_1
 10
-34.66580134578491
 20
-10.4245018105511
 30
0.0
  0
VERTEX
  5
A07
  8
LAYER_1
 10
-34.55210236331967
 20
-10.34955236636036
 30
0.0
  0
VERTEX
  5
A08
  8
LAYER_1
 10
-34.47131925740504
 20
-10.26556020917517
 30
0.0
  0
VERTEX
  5
A09
  8
LAYER_1
 10
-34.44270588932646
 20
-10.21986724547442
 30
0.0
  0
VERTEX
  5
A0A
  8
LAYER_1
 10
-34.42164316779224
 20
-10.17154656224279
 30
0.0
  0
VERTEX
  5
A0B
  8
LAYER_1
 10
-34.40126523423245
 20
-10.06653264881051
 30
0.0
  0
VERTEX
  5
A0C
  8
LAYER_1
 10
-34.40837659647689
 20
-9.949539692125585
 30
0.0
  0
VERTEX
  5
A0D
  8
LAYER_1
 10
-34.44116839427675
 20
-9.819588915435293
 30
0.0
  0
VERTEX
  5
A0E
  8
LAYER_1
 10
-34.49783176738324
 20
-9.675701541986907
 30
0.0
  0
VERTEX
  5
A0F
  8
LAYER_1
 10
-34.57655785554758
 20
-9.5168987950277
 30
0.0
  0
VERTEX
  5
A10
  8
LAYER_1
 10
-34.65503012338922
 20
-9.38925716447792
 30
0.0
  0
VERTEX
  5
A11
  8
LAYER_1
 10
-34.75783262280342
 20
-9.252282633450042
 30
0.0
  0
VERTEX
  5
A12
  8
LAYER_1
 10
-34.88267653478587
 20
-9.107489299529485
 30
0.0
  0
VERTEX
  5
A13
  8
LAYER_1
 10
-35.02727304033228
 20
-8.95639126030167
 30
0.0
  0
VERTEX
  5
A14
  8
LAYER_1
 10
-35.18933332043835
 20
-8.800502613352018
 30
0.0
  0
VERTEX
  5
A15
  8
LAYER_1
 10
-35.36656855609979
 20
-8.64133745626595
 30
0.0
  0
VERTEX
  5
A16
  8
LAYER_1
 10
-35.75740861807162
 20
-8.319234002026246
 30
0.0
  0
VERTEX
  5
A17
  8
LAYER_1
 10
-36.18148267421343
 20
-8.002193678265924
 30
0.0
  0
VERTEX
  5
A18
  8
LAYER_1
 10
-36.62048017249084
 20
-7.702329265668354
 30
0.0
  0
VERTEX
  5
A19
  8
LAYER_1
 10
-37.05609056086951
 20
-7.431753544916899
 30
0.0
  0
VERTEX
  5
A1A
  8
LAYER_1
 10
-37.47000328731509
 20
-7.202579296694925
 30
0.0
  0
VERTEX
  5
A1B
  8
LAYER_1
 10
-37.92701377753686
 20
-6.953728589937445
 30
0.0
  0
VERTEX
  5
A1C
  8
LAYER_1
 10
-38.3754696519853
 20
-6.68924095480287
 30
0.0
  0
SEQEND
  5
A1D
  8
LAYER_1
  0
POLYLINE
  5
5A
  8
LAYER_1
 66
     1
 10
0.0
 20
0.0
 30
0.0
 70
     1
  0
VERTEX
  5
A1E
  8
LAYER_1
 10
23.2947607730173
 20
-27.23290259824147
 30
0.0
  0
VERTEX
  5
A1F
  8
LAYER_1
 10
23.49675836331967
 20
-27.04565178650913
 30
0.0
  0
VERTEX
  5
A20
  8
LAYER_1
 10
23.69183942207126
 20
-26.84462552949476
 30
0.0
  0
VERTEX
  5
A21
  8
LAYER_1
 10
23.87109041132914
 20
-26.63902084768088
 30
0.0
  0
VERTEX
  5
A22
  8
LAYER_1
 10
24.02559779315038
 20
-26.43803476154999
 30
0.0
  0
VERTEX
  5
A23
  8
LAYER_1
 10
24.14644802959203
 20
-26.2508642915846
 30
0.0
  0
VERTEX
  5
A24
  8
LAYER_1
 10
24.19146623768835
 20
-26.16533398156475
 30
0.0
  0
VERTEX
  5
A25
  8
LAYER_1
 10
24.22472758271117
 20
-26.08670645826721
 30
0.0
  0
VERTEX
  5
A26
  8
LAYER_1
 10
24.24511787241764
 20
-26.0161313492523
 30
0.0
  0
VERTEX
  5
A27
  8
LAYER_1
 10
24.25152291456487
 20
-25.95475828208033
 30
0.0
  0
VERTEX
  5
A28
  8
LAYER_1
 10
24.24282851691001
 20
-25.90373688431162
 30
0.0
  0
VERTEX
  5
A29
  8
LAYER_1
 10
24.21792048721018
 20
-25.86421678350647
 30
0.0
  0
VERTEX
  5
A2A
  8
LAYER_1
 10
24.12710184274211
 20
-25.82761715168362
 30
0.0
  0
VERTEX
  5
A2B
  8
LAYER_1
 10
23.91870336128811
 20
-25.77461191699745
 30
0.0
  0
VERTEX
  5
A2C
  8
LAYER_1
 10
23.20278472504511
 20
-25.62941972965137
 30
0.0
  0
VERTEX
  5
A2D
  8
LAYER_1
 10
22.1774002537269
 20
-25.44871040270058
 30
0.0
  0
VERTEX
  5
A2E
  8
LAYER_1
 10
20.94978562257917
 20
-25.25255411737745
 30
0.0
  0
VERTEX
  5
A2F
  8
LAYER_1
 10
17.30513261726229
 20
-24.64628701331677
 30
0.0
  0
VERTEX
  5
A30
  8
LAYER_1
 10
17.23416612588485
 20
-24.63685412322004
 30
0.0
  0
VERTEX
  5
A31
  8
LAYER_1
 10
17.16662773402802
 20
-24.64590567410151
 30
0.0
  0
VERTEX
  5
A32
  8
LAYER_1
 10
17.10212539324444
 20
-24.67456092326228
 30
0.0
  0
VERTEX
  5
A33
  8
LAYER_1
 10
17.04026705508673
 20
-24.72393912800349
 30
0.0
  0
VERTEX
  5
A34
  8
LAYER_1
 10
16.98066067110754
 20
-24.79515954562624
 30
0.0
  0
VERTEX
  5
A35
  8
LAYER_1
 10
16.92291419285948
 20
-24.88934143343166
 30
0.0
  0
VERTEX
  5
A36
  8
LAYER_1
 10
16.86663557189519
 20
-25.00760404872085
 30
0.0
  0
VERTEX
  5
A37
  8
LAYER_1
 10
16.81143275976731
 20
-25.15106664879494
 30
0.0
  0
VERTEX
  5
A38
  8
LAYER_1
 10
16.75691370802845
 20
-25.32084849095504
 30
0.0
  0
VERTEX
  5
A39
  8
LAYER_1
 10
16.70268636823126
 20
-25.51806883250226
 30
0.0
  0
VERTEX
  5
A3A
  8
LAYER_1
 10
16.59353863067237
 20
-25.99930204296255
 30
0.0
  0
VERTEX
  5
A3B
  8
LAYER_1
 10
16.48085315951171
 20
-26.60372033858474
 30
0.0
  0
VERTEX
  5
A3C
  8
LAYER_1
 10
16.36149356717031
 20
-27.34027777777777
 30
0.0
  0
VERTEX
  5
A3D
  8
LAYER_1
 10
16.14087802739395
 20
-28.7759990260886
 30
0.0
  0
VERTEX
  5
A3E
  8
LAYER_1
 10
16.05658458616065
 20
-29.34971060848667
 30
0.0
  0
VERTEX
  5
A3F
  8
LAYER_1
 10
15.99178834589817
 20
-29.83609456398313
 30
0.0
  0
VERTEX
  5
A40
  8
LAYER_1
 10
15.9481050430072
 20
-30.24172969328048
 30
0.0
  0
VERTEX
  5
A41
  8
LAYER_1
 10
15.92715041388842
 20
-30.57319479708119
 30
0.0
  0
VERTEX
  5
A42
  8
LAYER_1
 10
15.93054019494251
 20
-30.83706867608772
 30
0.0
  0
VERTEX
  5
A43
  8
LAYER_1
 10
15.94186915690959
 20
-30.9457147815127
 30
0.0
  0
VERTEX
  5
A44
  8
LAYER_1
 10
15.95989012257015
 20
-31.03993013100256
 30
0.0
  0
VERTEX
  5
A45
  8
LAYER_1
 10
15.98480505897426
 20
-31.12053707464512
 30
0.0
  0
VERTEX
  5
A46
  8
LAYER_1
 10
16.01681593317201
 20
-31.18835796252819
 30
0.0
  0
VERTEX
  5
A47
  8
LAYER_1
 10
16.0561247122135
 20
-31.24421514473957
 30
0.0
  0
VERTEX
  5
A48
  8
LAYER_1
 10
16.10293336314879
 20
-31.28893097136707
 30
0.0
  0
VERTEX
  5
A49
  8
LAYER_1
 10
16.15744385302798
 20
-31.3233277924985
 30
0.0
  0
VERTEX
  5
A4A
  8
LAYER_1
 10
16.21985814890115
 20
-31.34822795822168
 30
0.0
  0
VERTEX
  5
A4B
  8
LAYER_1
 10
16.29037821781839
 20
-31.36445381862441
 30
0.0
  0
VERTEX
  5
A4C
  8
LAYER_1
 10
16.36920602682979
 20
-31.37282772379451
 30
0.0
  0
VERTEX
  5
A4D
  8
LAYER_1
 10
16.55259273333537
 20
-31.36930906878801
 30
0.0
  0
VERTEX
  5
A4E
  8
LAYER_1
 10
16.77163400481859
 20
-31.34425079390468
 30
0.0
  0
VERTEX
  5
A4F
  8
LAYER_1
 10
17.32314318832063
 20
-31.25583058731741
 30
0.0
  0
VERTEX
  5
A50
  8
LAYER_1
 10
17.63308946390817
 20
-31.19944397164987
 30
0.0
  0
VERTEX
  5
A51
  8
LAYER_1
 10
17.95905799501981
 20
-31.12776112750553
 30
0.0
  0
VERTEX
  5
A52
  8
LAYER_1
 10
18.29128193595242
 20
-31.04371520827963
 30
0.0
  0
VERTEX
  5
A53
  8
LAYER_1
 10
18.61999444100287
 20
-30.95023936736743
 30
0.0
  0
VERTEX
  5
A54
  8
LAYER_1
 10
18.93542866446804
 20
-30.85026675816418
 30
0.0
  0
VERTEX
  5
A55
  8
LAYER_1
 10
19.22781776064481
 20
-30.74673053406514
 30
0.0
  0
VERTEX
  5
A56
  8
LAYER_1
 10
19.48739488383004
 20
-30.64256384846555
 30
0.0
  0
VERTEX
  5
A57
  8
LAYER_1
 10
19.70439318832062
 20
-30.54069985476067
 30
0.0
  0
VERTEX
  5
A58
  8
LAYER_1
 10
20.08338424991005
 20
-30.32787368828459
 30
0.0
  0
VERTEX
  5
A59
  8
LAYER_1
 10
20.45662510668035
 20
-30.08756298531109
 30
0.0
  0
VERTEX
  5
A5A
  8
LAYER_1
 10
20.81706488665148
 20
-29.82699069592889
 30
0.0
  0
VERTEX
  5
A5B
  8
LAYER_1
 10
21.15765271784338
 20
-29.55337977022675
 30
0.0
  0
VERTEX
  5
A5C
  8
LAYER_1
 10
21.471337728276
 20
-29.27395315829343
 30
0.0
  0
VERTEX
  5
A5D
  8
LAYER_1
 10
21.75106904596927
 20
-28.99593381021767
 30
0.0
  0
VERTEX
  5
A5E
  8
LAYER_1
 10
21.98979579894315
 20
-28.72654467608822
 30
0.0
  0
VERTEX
  5
A5F
  8
LAYER_1
 10
22.18046711521758
 20
-28.47300870599384
 30
0.0
  0
VERTEX
  5
A60
  8
LAYER_1
 10
22.30050702015946
 20
-28.30253654633534
 30
0.0
  0
VERTEX
  5
A61
  8
LAYER_1
 10
22.42701249903951
 20
-28.13646529470568
 30
0.0
  0
VERTEX
  5
A62
  8
LAYER_1
 10
22.69748720347098
 20
-27.81755735444063
 30
0.0
  0
VERTEX
  5
A63
  8
LAYER_1
 10
22.98802527822568
 20
-27.51634856301409
 30
0.0
  0
SEQEND
  5
A64
  8
LAYER_1
  0
POLYLINE
  5
5B
  8
LAYER_1
 66
     1
 10
0.0
 20
0.0
 30
0.0
 70
     1
  0
VERTEX
  5
A65
  8
LAYER_1
 10
37.34634853605662
 20
-25.60966859098334
 30
0.0
  0
VERTEX
  5
A66
  8
LAYER_1
 10
36.86127171589153
 20
-25.86749210571793
 30
0.0
  0
VERTEX
  5
A67
  8
LAYER_1
 10
36.33611111111111
 20
-26.16383744032597
 30
0.0
  0
VERTEX
  5
A68
  8
LAYER_1
 10
35.98841484917534
 20
-26.35794417769415
 30
0.0
  0
VERTEX
  5
A69
  8
LAYER_1
 10
35.60836914062499
 20
-26.55631987714664
 30
0.0
  0
VERTEX
  5
A6A
  8
LAYER_1
 10
35.20827297634548
 20
-26.75338638087159
 30
0.0
  0
VERTEX
  5
A6B
  8
LAYER_1
 10
34.80042534722222
 20
-26.94356553105715
 30
0.0
  0
VERTEX
  5
A6C
  8
LAYER_1
 10
34.39712524414062
 20
-27.12127916989147
 30
0.0
  0
VERTEX
  5
A6D
  8
LAYER_1
 10
34.01067165798612
 20
-27.28094913956269
 30
0.0
  0
VERTEX
  5
A6E
  8
LAYER_1
 10
33.65336357964411
 20
-27.41699728225895
 30
0.0
  0
VERTEX
  5
A6F
  8
LAYER_1
 10
33.33750000000001
 20
-27.5238454401684
 30
0.0
  0
VERTEX
  5
A70
  8
LAYER_1
 10
32.76175564236112
 20
-27.71105122605739
 30
0.0
  0
VERTEX
  5
A71
  8
LAYER_1
 10
32.23727430555557
 20
-27.89680224498764
 30
0.0
  0
VERTEX
  5
A72
  8
LAYER_1
 10
31.82193359375
 20
-28.05963166632674
 30
0.0
  0
VERTEX
  5
A73
  8
LAYER_1
 10
31.6732777235243
 20
-28.12574239332698
 30
0.0
  0
VERTEX
  5
A74
  8
LAYER_1
 10
31.57361111111111
 20
-28.17807265944228
 30
0.0
  0
VERTEX
  5
A75
  8
LAYER_1
 10
31.53734644109949
 20
-28.20504306581597
 30
0.0
  0
VERTEX
  5
A76
  8
LAYER_1
 10
31.51570010794719
 20
-28.23238615425223
 30
0.0
  0
VERTEX
  5
A77
  8
LAYER_1
 10
31.50826217592891
 20
-28.26003138992569
 30
0.0
  0
VERTEX
  5
A78
  8
LAYER_1
 10
31.51462270931937
 20
-28.28790823801095
 30
0.0
  0
VERTEX
  5
A79
  8
LAYER_1
 10
31.53437177239329
 20
-28.31594616368265
 30
0.0
  0
VERTEX
  5
A7A
  8
LAYER_1
 10
31.56709942942538
 20
-28.34407463211539
 30
0.0
  0
VERTEX
  5
A7B
  8
LAYER_1
 10
31.66985078246297
 20
-28.40032105796251
 30
0.0
  0
VERTEX
  5
A7C
  8
LAYER_1
 10
31.81959728262987
 20
-28.45608323694925
 30
0.0
  0
VERTEX
  5
A7D
  8
LAYER_1
 10
32.01305944412384
 20
-28.51079689047256
 30
0.0
  0
VERTEX
  5
A7E
  8
LAYER_1
 10
32.24695778114263
 20
-28.56389773992941
 30
0.0
  0
VERTEX
  5
A7F
  8
LAYER_1
 10
32.51801280788395
 20
-28.61482150671673
 30
0.0
  0
VERTEX
  5
A80
  8
LAYER_1
 10
32.82294503854558
 20
-28.66300391223149
 30
0.0
  0
VERTEX
  5
A81
  8
LAYER_1
 10
33.15847498732523
 20
-28.70788067787063
 30
0.0
  0
VERTEX
  5
A82
  8
LAYER_1
 10
33.90821009602963
 20
-28.78546017510988
 30
0.0
  0
VERTEX
  5
A83
  8
LAYER_1
 10
34.74098224757908
 20
-28.84304576961009
 30
0.0
  0
VERTEX
  5
A84
  8
LAYER_1
 10
35.63055555555556
 20
-28.87612323254689
 30
0.0
  0
VERTEX
  5
A85
  8
LAYER_1
 10
35.96848954023882
 20
-28.87810528631194
 30
0.0
  0
VERTEX
  5
A86
  8
LAYER_1
 10
36.31419304867325
 20
-28.86999698023199
 30
0.0
  0
VERTEX
  5
A87
  8
LAYER_1
 10
36.66707627511438
 20
-28.85199701535846
 30
0.0
  0
VERTEX
  5
A88
  8
LAYER_1
 10
37.02654941381775
 20
-28.82430409274276
 30
0.0
  0
VERTEX
  5
A89
  8
LAYER_1
 10
37.39202265903893
 20
-28.78711691343629
 30
0.0
  0
VERTEX
  5
A8A
  8
LAYER_1
 10
37.76290620503346
 20
-28.74063417849047
 30
0.0
  0
VERTEX
  5
A8B
  8
LAYER_1
 10
38.13861024605687
 20
-28.68505458895669
 30
0.0
  0
VERTEX
  5
A8C
  8
LAYER_1
 10
38.51854497636472
 20
-28.62057684588637
 30
0.0
  0
VERTEX
  5
A8D
  8
LAYER_1
 10
38.90212059021256
 20
-28.54739965033091
 30
0.0
  0
VERTEX
  5
A8E
  8
LAYER_1
 10
39.28874728185593
 20
-28.46572170334171
 30
0.0
  0
VERTEX
  5
A8F
  8
LAYER_1
 10
40.06879467555144
 20
-28.27765835926778
 30
0.0
  0
VERTEX
  5
A90
  8
LAYER_1
 10
40.85396871149561
 20
-28.0579764220758
 30
0.0
  0
VERTEX
  5
A91
  8
LAYER_1
 10
41.63955094373284
 20
-27.80826550017706
 30
0.0
  0
VERTEX
  5
A92
  8
LAYER_1
 10
42.42082292630747
 20
-27.5301152019828
 30
0.0
  0
VERTEX
  5
A93
  8
LAYER_1
 10
43.19306621326388
 20
-27.2251151359043
 30
0.0
  0
VERTEX
  5
A94
  8
LAYER_1
 10
43.95156235864644
 20
-26.8948549103528
 30
0.0
  0
VERTEX
  5
A95
  8
LAYER_1
 10
44.69159291649952
 20
-26.54092413373957
 30
0.0
  0
VERTEX
  5
A96
  8
LAYER_1
 10
45.05320908574137
 20
-26.35557904141331
 30
0.0
  0
VERTEX
  5
A97
  8
LAYER_1
 10
45.40843944086749
 20
-26.16491241447586
 30
0.0
  0
VERTEX
  5
A98
  8
LAYER_1
 10
45.75669417613342
 20
-25.96912295397859
 30
0.0
  0
VERTEX
  5
A99
  8
LAYER_1
 10
46.09738348579472
 20
-25.76840936097294
 30
0.0
  0
VERTEX
  5
A9A
  8
LAYER_1
 10
46.42991756410692
 20
-25.56297033651029
 30
0.0
  0
VERTEX
  5
A9B
  8
LAYER_1
 10
46.75370660532556
 20
-25.35300458164206
 30
0.0
  0
VERTEX
  5
A9C
  8
LAYER_1
 10
47.06816080370621
 20
-25.13871079741966
 30
0.0
  0
VERTEX
  5
A9D
  8
LAYER_1
 10
47.37269035350441
 20
-24.92028768489449
 30
0.0
  0
VERTEX
  5
A9E
  8
LAYER_1
 10
48.39812454493105
 20
-24.16527777777777
 30
0.0
  0
VERTEX
  5
A9F
  8
LAYER_1
 10
45.63031227246553
 20
-23.92487824519745
 30
0.0
  0
VERTEX
  5
AA0
  8
LAYER_1
 10
44.45262377149535
 20
-23.81282569166636
 30
0.0
  0
VERTEX
  5
AA1
  8
LAYER_1
 10
43.29210343512071
 20
-23.68544329444089
 30
0.0
  0
VERTEX
  5
AA2
  8
LAYER_1
 10
42.28240132596929
 20
-23.55839952700462
 30
0.0
  0
VERTEX
  5
AA3
  8
LAYER_1
 10
41.87587275117345
 20
-23.49990102742105
 30
0.0
  0
VERTEX
  5
AA4
  8
LAYER_1
 10
41.5571675066688
 20
-23.44736286284111
 30
0.0
  0
VERTEX
  5
AA5
  8
LAYER_1
 10
41.19285320511986
 20
-23.39146696389427
 30
0.0
  0
VERTEX
  5
AA6
  8
LAYER_1
 10
40.86797743945021
 20
-23.36617175692531
 30
0.0
  0
VERTEX
  5
AA7
  8
LAYER_1
 10
40.71702919806438
 20
-23.36574615237005
 30
0.0
  0
VERTEX
  5
AA8
  8
LAYER_1
 10
40.57198081924149
 20
-23.37386680813429
 30
0.0
  0
VERTEX
  5
AA9
  8
LAYER_1
 10
40.43151237917922
 20
-23.39083241999302
 30
0.0
  0
VERTEX
  5
AAA
  8
LAYER_1
 10
40.29430395407528
 20
-23.41694168372126
 30
0.0
  0
VERTEX
  5
AAB
  8
LAYER_1
 10
40.15903562012738
 20
-23.452493295094
 30
0.0
  0
VERTEX
  5
AAC
  8
LAYER_1
 10
40.02438745353322
 20
-23.49778594988627
 30
0.0
  0
VERTEX
  5
AAD
  8
LAYER_1
 10
39.88903953049049
 20
-23.55311834387306
 30
0.0
  0
VERTEX
  5
AAE
  8
LAYER_1
 10
39.7516719271969
 20
-23.61878917282939
 30
0.0
  0
VERTEX
  5
AAF
  8
LAYER_1
 10
39.46559798464793
 20
-23.78234091875066
 30
0.0
  0
VERTEX
  5
AB0
  8
LAYER_1
 10
39.15560623546791
 20
-23.99083075385015
 30
0.0
  0
VERTEX
  5
AB1
  8
LAYER_1
 10
38.98147245623292
 20
-24.11990932664378
 30
0.0
  0
VERTEX
  5
AB2
  8
LAYER_1
 10
38.82182983847988
 20
-24.24829707614157
 30
0.0
  0
VERTEX
  5
AB3
  8
LAYER_1
 10
38.63566508466641
 20
-24.41772999711431
 30
0.0
  0
VERTEX
  5
AB4
  8
LAYER_1
 10
38.45872876289394
 20
-24.59946066233846
 30
0.0
  0
VERTEX
  5
AB5
  8
LAYER_1
 10
38.11507288911029
 20
-24.97564174754248
 30
0.0
  0
VERTEX
  5
AB6
  8
LAYER_1
 10
37.93961907391829
 20
-25.15800542852305
 30
0.0
  0
VERTEX
  5
AB7
  8
LAYER_1
 10
37.75592516440562
 20
-25.32849337575648
 30
0.0
  0
VERTEX
  5
AB8
  8
LAYER_1
 10
37.55962402898187
 20
-25.48106221974312
 30
0.0
  0
VERTEX
  5
AB9
  8
LAYER_1
 10
37.45538102293133
 20
-25.54873842505026
 30
0.0
  0
SEQEND
  5
ABA
  8
LAYER_1
  0
POLYLINE
  5
5C
  8
LAYER_1
 66
     1
 10
0.0
 20
0.0
 30
0.0
 70
     1
  0
VERTEX
  5
ABB
  8
LAYER_1
 10
-3.879389360032224
 20
29.45634110853007
 30
0.0
  0
VERTEX
  5
ABC
  8
LAYER_1
 10
-3.880609844709547
 20
29.45697251845706
 30
0.0
  0
VERTEX
  5
ABD
  8
LAYER_1
 10
-4.141706713441957
 20
29.57357080471253
 30
0.0
  0
VERTEX
  5
ABE
  8
LAYER_1
 10
-4.466631220758551
 20
29.68898738872062
 30
0.0
  0
VERTEX
  5
ABF
  8
LAYER_1
 10
-4.844675034917554
 20
29.80166284739691
 30
0.0
  0
VERTEX
  5
AC0
  8
LAYER_1
 10
-5.265129824177197
 20
29.91003775765698
 30
0.0
  0
VERTEX
  5
AC1
  8
LAYER_1
 10
-5.717287256795707
 20
30.01255269641642
 30
0.0
  0
VERTEX
  5
AC2
  8
LAYER_1
 10
-6.190439001031313
 20
30.10764824059083
 30
0.0
  0
VERTEX
  5
AC3
  8
LAYER_1
 10
-6.673876725142243
 20
30.19376496709577
 30
0.0
  0
VERTEX
  5
AC4
  8
LAYER_1
 10
-7.156892097386725
 20
30.26934345284684
 30
0.0
  0
VERTEX
  5
AC5
  8
LAYER_1
 10
-7.628776786022989
 20
30.33282427475963
 30
0.0
  0
VERTEX
  5
AC6
  8
LAYER_1
 10
-8.078822459309261
 20
30.38264800974972
 30
0.0
  0
VERTEX
  5
AC7
  8
LAYER_1
 10
-8.496320785503773
 20
30.41725523473269
 30
0.0
  0
VERTEX
  5
AC8
  8
LAYER_1
 10
-8.87056343286475
 20
30.43508652662414
 30
0.0
  0
VERTEX
  5
AC9
  8
LAYER_1
 10
-9.190842069650419
 20
30.43458246233965
 30
0.0
  0
VERTEX
  5
ACA
  8
LAYER_1
 10
-9.44644836411901
 20
30.4141836187948
 30
0.0
  0
VERTEX
  5
ACB
  8
LAYER_1
 10
-9.546653029315099
 20
30.39603633508586
 30
0.0
  0
VERTEX
  5
ACC
  8
LAYER_1
 10
-9.626673984528754
 20
30.37233057290518
 30
0.0
  0
VERTEX
  5
ACD
  8
LAYER_1
 10
-9.685172688292253
 20
30.3428714043672
 30
0.0
  0
VERTEX
  5
ACE
  8
LAYER_1
 10
-9.720810599137877
 20
30.30746390158638
 30
0.0
  0
VERTEX
  5
ACF
  8
LAYER_1
 10
-9.745714165603584
 20
30.23470504890891
 30
0.0
  0
VERTEX
  5
AD0
  8
LAYER_1
 10
-9.754174562297687
 20
30.12797298121615
 30
0.0
  0
VERTEX
  5
AD1
  8
LAYER_1
 10
-9.747062943073345
 20
29.99238201516613
 30
0.0
  0
VERTEX
  5
AD2
  8
LAYER_1
 10
-9.725250461783713
 20
29.83304646741685
 30
0.0
  0
VERTEX
  5
AD3
  8
LAYER_1
 10
-9.689608272281944
 20
29.6550806546263
 30
0.0
  0
VERTEX
  5
AD4
  8
LAYER_1
 10
-9.641007528421195
 20
29.4635988934525
 30
0.0
  0
VERTEX
  5
AD5
  8
LAYER_1
 10
-9.580319384054617
 20
29.26371550055345
 30
0.0
  0
VERTEX
  5
AD6
  8
LAYER_1
 10
-9.508414993035366
 20
29.06054479258714
 30
0.0
  0
VERTEX
  5
AD7
  8
LAYER_1
 10
-9.41933290318691
 20
28.77222378803948
 30
0.0
  0
VERTEX
  5
AD8
  8
LAYER_1
 10
-9.309412980836152
 20
28.32829720063212
 30
0.0
  0
VERTEX
  5
AD9
  8
LAYER_1
 10
-9.182978357591395
 20
27.75099088987673
 30
0.0
  0
VERTEX
  5
ADA
  8
LAYER_1
 10
-9.044352165060946
 20
27.06253071528499
 30
0.0
  0
VERTEX
  5
ADB
  8
LAYER_1
 10
-8.89785753485311
 20
26.28514253636858
 30
0.0
  0
VERTEX
  5
ADC
  8
LAYER_1
 10
-8.747817598576194
 20
25.44105221263917
 30
0.0
  0
VERTEX
  5
ADD
  8
LAYER_1
 10
-8.598555487838507
 20
24.55248560360844
 30
0.0
  0
VERTEX
  5
ADE
  8
LAYER_1
 10
-8.454394334248349
 20
23.64166856878807
 30
0.0
  0
VERTEX
  5
ADF
  8
LAYER_1
 10
-7.774784001414638
 20
19.20756613059185
 30
0.0
  0
VERTEX
  5
AE0
  8
LAYER_1
 10
-7.280995732844289
 20
17.5668323830786
 30
0.0
  0
VERTEX
  5
AE1
  8
LAYER_1
 10
-7.175116692803478
 20
17.24027402417225
 30
0.0
  0
VERTEX
  5
AE2
  8
LAYER_1
 10
-7.053311630331283
 20
16.90876569641147
 30
0.0
  0
VERTEX
  5
AE3
  8
LAYER_1
 10
-6.917804806897976
 20
16.57589745507357
 30
0.0
  0
VERTEX
  5
AE4
  8
LAYER_1
 10
-6.770820483973831
 20
16.24525935543583
 30
0.0
  0
VERTEX
  5
AE5
  8
LAYER_1
 10
-6.614582923029118
 20
15.92044145277556
 30
0.0
  0
VERTEX
  5
AE6
  8
LAYER_1
 10
-6.451316385534112
 20
15.60503380237006
 30
0.0
  0
VERTEX
  5
AE7
  8
LAYER_1
 10
-6.283245132959082
 20
15.30262645949663
 30
0.0
  0
VERTEX
  5
AE8
  8
LAYER_1
 10
-6.112593426774301
 20
15.01680947943257
 30
0.0
  0
VERTEX
  5
AE9
  8
LAYER_1
 10
-5.941585528450041
 20
14.75117291745517
 30
0.0
  0
VERTEX
  5
AEA
  8
LAYER_1
 10
-5.772445699456574
 20
14.50930682884175
 30
0.0
  0
VERTEX
  5
AEB
  8
LAYER_1
 10
-5.607398201264173
 20
14.29480126886959
 30
0.0
  0
VERTEX
  5
AEC
  8
LAYER_1
 10
-5.44866729534311
 20
14.11124629281601
 30
0.0
  0
VERTEX
  5
AED
  8
LAYER_1
 10
-5.298477243163657
 20
13.96223195595829
 30
0.0
  0
VERTEX
  5
AEE
  8
LAYER_1
 10
-5.159052306196085
 20
13.85134831357373
 30
0.0
  0
VERTEX
  5
AEF
  8
LAYER_1
 10
-5.094071837626215
 20
13.81132739508305
 30
0.0
  0
VERTEX
  5
AF0
  8
LAYER_1
 10
-5.032616745910667
 20
13.78218542093965
 30
0.0
  0
VERTEX
  5
AF1
  8
LAYER_1
 10
-4.974965063733226
 20
13.76437114805319
 30
0.0
  0
VERTEX
  5
AF2
  8
LAYER_1
 10
-4.921394823777675
 20
13.75833333333333
 30
0.0
  0
VERTEX
  5
AF3
  8
LAYER_1
 10
-4.880520169183351
 20
13.76428150600857
 30
0.0
  0
VERTEX
  5
AF4
  8
LAYER_1
 10
-4.824996141216253
 20
13.78173414442274
 30
0.0
  0
VERTEX
  5
AF5
  8
LAYER_1
 10
-4.673842932147278
 20
13.84880154079861
 30
0.0
  0
VERTEX
  5
AF6
  8
LAYER_1
 10
-4.47562113053783
 20
13.9548329671224
 30
0.0
  0
VERTEX
  5
AF7
  8
LAYER_1
 10
-4.238016670354995
 20
14.09512586805556
 30
0.0
  0
VERTEX
  5
AF8
  8
LAYER_1
 10
-3.968715485565856
 20
14.26497768825955
 30
0.0
  0
VERTEX
  5
AF9
  8
LAYER_1
 10
-3.675403510137497
 20
14.45968587239583
 30
0.0
  0
VERTEX
  5
AFA
  8
LAYER_1
 10
-3.365766678037003
 20
14.67454786512587
 30
0.0
  0
VERTEX
  5
AFB
  8
LAYER_1
 10
-3.047490923231457
 20
14.90486111111111
 30
0.0
  0
VERTEX
  5
AFC
  8
LAYER_1
 10
-1.495814616957311
 20
16.05138888888889
 30
0.0
  0
VERTEX
  5
AFD
  8
LAYER_1
 10
-1.232377645846555
 20
19.70487042504762
 30
0.0
  0
VERTEX
  5
AFE
  8
LAYER_1
 10
-1.183739720290947
 20
20.47492418894097
 30
0.0
  0
VERTEX
  5
AFF
  8
LAYER_1
 10
-1.146640497895887
 20
21.26319177996219
 30
0.0
  0
VERTEX
  5
B00
  8
LAYER_1
 10
-1.121300184194243
 20
22.04742434762125
 30
0.0
  0
VERTEX
  5
B01
  8
LAYER_1
 10
-1.107938984718883
 20
22.80537304142809
 30
0.0
  0
VERTEX
  5
B02
  8
LAYER_1
 10
-1.106777105002676
 20
23.5147890108927
 30
0.0
  0
VERTEX
  5
B03
  8
LAYER_1
 10
-1.118034750578492
 20
24.15342340552503
 30
0.0
  0
VERTEX
  5
B04
  8
LAYER_1
 10
-1.141932126979197
 20
24.69902737483504
 30
0.0
  0
VERTEX
  5
B05
  8
LAYER_1
 10
-1.17868943973766
 20
25.1293520683327
 30
0.0
  0
VERTEX
  5
B06
  8
LAYER_1
 10
-1.235402780511519
 20
25.52862848704965
 30
0.0
  0
VERTEX
  5
B07
  8
LAYER_1
 10
-1.308596630165547
 20
25.91567201367222
 30
0.0
  0
VERTEX
  5
B08
  8
LAYER_1
 10
-1.396493838972202
 20
26.2871368966161
 30
0.0
  0
VERTEX
  5
B09
  8
LAYER_1
 10
-1.49731725720394
 20
26.63967738429695
 30
0.0
  0
VERTEX
  5
B0A
  8
LAYER_1
 10
-1.609289735133218
 20
26.96994772513046
 30
0.0
  0
VERTEX
  5
B0B
  8
LAYER_1
 10
-1.730634123032491
 20
27.2746021675323
 30
0.0
  0
VERTEX
  5
B0C
  8
LAYER_1
 10
-1.859573271174218
 20
27.55029495991816
 30
0.0
  0
VERTEX
  5
B0D
  8
LAYER_1
 10
-1.994330029830854
 20
27.79368035070371
 30
0.0
  0
VERTEX
  5
B0E
  8
LAYER_1
 10
-2.169501192877344
 20
28.0550157547703
 30
0.0
  0
VERTEX
  5
B0F
  8
LAYER_1
 10
-2.367459402057698
 20
28.30155363022541
 30
0.0
  0
VERTEX
  5
B10
  8
LAYER_1
 10
-2.585448456194795
 20
28.53304948289787
 30
0.0
  0
VERTEX
  5
B11
  8
LAYER_1
 10
-2.820712154111516
 20
28.74925881861653
 30
0.0
  0
VERTEX
  5
B12
  8
LAYER_1
 10
-3.070494294630739
 20
28.94993714321024
 30
0.0
  0
VERTEX
  5
B13
  8
LAYER_1
 10
-3.332038676575345
 20
29.13483996250783
 30
0.0
  0
VERTEX
  5
B14
  8
LAYER_1
 10
-3.602589098768214
 20
29.30372278233816
 30
0.0
  0
SEQEND
  5
B15
  8
LAYER_1
  0
ENDSEC
  0
EOF
