  0
SECTION
  2
HEADER
  9
$ACADVER
  1
AC1009
  9
$DWGCODEPAGE
  3
ansi_1252
  9
$INSBASE
 10
0.0
 20
0.0
 30
0.0
  9
$EXTMIN
 10
-42.88084335589674
 20
-43.9649096205121
 30
0.0
  9
$EXTMAX
 10
42.88084335589674
 20
43.9649096205121
 30
0.0
  9
$LIMMIN
 10
0.0
 20
0.0
  9
$LIMMAX
 10
12.0
 20
9.0
  9
$ORTHOMODE
 70
     0
  9
$REGENMODE
 70
     1
  9
$FILLMODE
 70
     1
  9
$QTEXTMODE
 70
     0
  9
$MIRRTEXT
 70
     1
  9
$DRAGMODE
 70
     2
  9
$LTSCALE
 40
1.0
  9
$OSMODE
 70
    37
  9
$ATTMODE
 70
     1
  9
$TEXTSIZE
 40
0.2
  9
$TRACEWID
 40
0.05
  9
$TEXTSTYLE
  7
STANDARD
  9
$CLAYER
  8
0
  9
$CELTYPE
  6
BYLAYER
  9
$CECOLOR
 62
   256
  9
$DIMSCALE
 40
1.0
  9
$DIMASZ
 40
0.18
  9
$DIMEXO
 40
0.0625
  9
$DIMDLI
 40
0.38
  9
$DIMRND
 40
0.0
  9
$DIMDLE
 40
0.0
  9
$DIMEXE
 40
0.18
  9
$DIMTP
 40
0.0
  9
$DIMTM
 40
0.0
  9
$DIMTXT
 40
0.18
  9
$DIMCEN
 40
0.09
  9
$DIMTSZ
 40
0.0
  9
$DIMTOL
 70
     0
  9
$DIMLIM
 70
     0
  9
$DIMTIH
 70
     1
  9
$DIMTOH
 70
     1
  9
$DIMSE1
 70
     0
  9
$DIMSE2
 70
     0
  9
$DIMTAD
 70
     0
  9
$DIMZIN
 70
     0
  9
$DIMBLK
  1

  9
$DIMASO
 70
     1
  9
$DIMSHO
 70
     1
  9
$DIMPOST
  1

  9
$DIMAPOST
  1

  9
$DIMALT
 70
     0
  9
$DIMALTD
 70
     2
  9
$DIMALTF
 40
25.4
  9
$DIMLFAC
 40
1.0
  9
$DIMTOFL
 70
     0
  9
$DIMTVP
 40
0.0
  9
$DIMTIX
 70
     0
  9
$DIMSOXD
 70
     0
  9
$DIMSAH
 70
     0
  9
$DIMBLK1
  1

  9
$DIMBLK2
  1

  9
$DIMSTYLE
  2
STANDARD
  9
$DIMCLRD
 70
     0
  9
$DIMCLRE
 70
     0
  9
$DIMCLRT
 70
     0
  9
$DIMTFAC
 40
1.0
  9
$DIMGAP
 40
0.09
  9
$LUNITS
 70
     2
  9
$LUPREC
 70
     4
  9
$SKETCHINC
 40
0.1
  9
$FILLETRAD
 40
0.5
  9
$AUNITS
 70
     0
  9
$AUPREC
 70
     0
  9
$MENU
  1
.
  9
$ELEVATION
 40
0.0
  9
$PELEVATION
 40
0.0
  9
$THICKNESS
 40
0.0
  9
$LIMCHECK
 70
     0
  9
$CHAMFERA
 40
0.5
  9
$CHAMFERB
 40
0.5
  9
$SKPOLY
 70
     0
  9
$TDCREATE
 40
2454910.5
  9
$TDUPDATE
 40
2458803.66913831
  9
$TDINDWG
 40
0.0000000116
  9
$TDUSRTIMER
 40
0.0000000116
  9
$USRTIMER
 70
     1
  9
$ANGBASE
 50
0.0
  9
$ANGDIR
 70
     0
  9
$PDMODE
 70
     0
  9
$PDSIZE
 40
0.0
  9
$PLINEWID
 40
0.0
  9
$COORDS
 70
     1
  9
$SPLFRAME
 70
     0
  9
$SPLINETYPE
 70
     6
  9
$SPLINESEGS
 70
     8
  9
$ATTDIA
 70
     0
  9
$ATTREQ
 70
     1
  9
$HANDLING
 70
     1
  9
$HANDSEED
  5
718
  9
$SURFTAB1
 70
     6
  9
$SURFTAB2
 70
     6
  9
$SURFTYPE
 70
     6
  9
$SURFU
 70
     6
  9
$SURFV
 70
     6
  9
$UCSNAME
  2

  9
$UCSORG
 10
0.0
 20
0.0
 30
0.0
  9
$UCSXDIR
 10
1.0
 20
0.0
 30
0.0
  9
$UCSYDIR
 10
0.0
 20
1.0
 30
0.0
  9
$PUCSNAME
  2

  9
$PUCSORG
 10
0.0
 20
0.0
 30
0.0
  9
$PUCSXDIR
 10
1.0
 20
0.0
 30
0.0
  9
$PUCSYDIR
 10
0.0
 20
1.0
 30
0.0
  9
$USERI1
 70
     0
  9
$USERI2
 70
     0
  9
$USERI3
 70
     0
  9
$USERI4
 70
     0
  9
$USERI5
 70
     0
  9
$USERR1
 40
0.0
  9
$USERR2
 40
0.0
  9
$USERR3
 40
0.0
  9
$USERR4
 40
0.0
  9
$USERR5
 40
0.0
  9
$WORLDVIEW
 70
     1
  9
$SHADEDGE
 70
     3
  9
$SHADEDIF
 70
    70
  9
$TILEMODE
 70
     1
  9
$MAXACTVP
 70
    64
  9
$PLIMCHECK
 70
     0
  9
$PEXTMIN
 10
1.000000000000000E+20
 20
1.000000000000000E+20
 30
1.000000000000000E+20
  9
$PEXTMAX
 10
-1.000000000000000E+20
 20
-1.000000000000000E+20
 30
-1.000000000000000E+20
  9
$PLIMMIN
 10
0.0
 20
0.0
  9
$PLIMMAX
 10
12.0
 20
9.0
  9
$UNITMODE
 70
     0
  9
$VISRETAIN
 70
     1
  9
$PLINEGEN
 70
     0
  9
$PSLTSCALE
 70
     1
  0
ENDSEC
  0
SECTION
  2
TABLES
  0
TABLE
  2
VPORT
 70
     1
  0
VPORT
  2
*ACTIVE
 70
     0
 10
0.0
 20
0.0
 11
1.0
 21
1.0
 12
10.42990654205607
 22
4.5
 13
0.0
 23
0.0
 14
0.5
 24
0.5
 15
0.5
 25
0.5
 16
0.0
 26
0.0
 36
1.0
 17
0.0
 27
0.0
 37
0.0
 40
9.0
 41
1.972972972850329
 42
50.0
 43
0.0
 44
0.0
 50
0.0
 51
0.0
 71
     0
 72
   100
 73
     1
 74
     3
 75
     0
 76
     0
 77
     0
 78
     0
  0
ENDTAB
  0
TABLE
  2
LTYPE
 70
     2
  0
LTYPE
  2
CONTINUOUS
 70
     0
  3
Solid line
 72
    65
 73
     0
 40
0.0
  0
LTYPE
  2
CONTINUOUS2
 70
     0
  3
Solid Line
 72
    65
 73
     0
 40
0.0
  0
ENDTAB
  0
TABLE
  2
LAYER
 70
     2
  0
LAYER
  2
0
 70
     0
 62
     7
  6
CONTINUOUS
  0
LAYER
  2
LAYER_1
 70
     0
 62
     1
  6
CONTINUOUS
  0
ENDTAB
  0
TABLE
  2
STYLE
 70
     1
  0
STYLE
  2
STANDARD
 70
     0
 40
0.0
 41
1.0
 50
0.0
 71
     0
 42
0.2
  3
txt
  4

  0
ENDTAB
  0
TABLE
  2
VIEW
 70
     0
  0
ENDTAB
  0
TABLE
  2
UCS
 70
     0
  0
ENDTAB
  0
TABLE
  2
APPID
 70
     1
  0
APPID
  2
ACAD
 70
     0
  0
ENDTAB
  0
TABLE
  2
DIMSTYLE
 70
     1
  0
DIMSTYLE
  2
STANDARD
 70
     0
  3

  4

  5

  6

  7

 40
1.0
 41
0.18
 42
0.0625
 43
0.38
 44
0.18
 45
0.0
 46
0.0
 47
0.0
 48
0.0
140
0.18
141
0.09
142
0.0
143
25.4
144
1.0
145
0.0
146
1.0
147
0.09
 71
     0
 72
     0
 73
     1
 74
     1
 75
     0
 76
     0
 77
     0
 78
     0
170
     0
171
     2
172
     0
173
     0
174
     0
175
     0
176
     0
177
     0
178
     0
  0
ENDTAB
  0
ENDSEC
  0
SECTION
  2
BLOCKS
  0
BLOCK
  8
0
  2
$MODEL_SPACE
 70
     0
 10
0.0
 20
0.0
 30
0.0
  3
$MODEL_SPACE
  1

  0
ENDBLK
  5
21
  8
0
  0
BLOCK
 67
     1
  8
0
  2
$PAPER_SPACE
 70
     0
 10
0.0
 20
0.0
 30
0.0
  3
$PAPER_SPACE
  1

  0
ENDBLK
  5
1D
 67
     1
  8
0
  0
ENDSEC
  0
SECTION
  2
ENTITIES
  0
POLYLINE
  5
41
  8
LAYER_1
 66
     1
 10
0.0
 20
0.0
 30
0.0
 70
     1
  0
VERTEX
  5
75
  8
LAYER_1
 10
0.0000000000000042
 20
3.064355901455293
 30
0.0
 42
0.4142135623730951
  0
VERTEX
  5
76
  8
LAYER_1
 10
-3.329307040858011
 20
-0.2649511394027222
 30
0.0
 42
0.4142135623730951
  0
VERTEX
  5
77
  8
LAYER_1
 10
0.0000000000000042
 20
-3.594258180260738
 30
0.0
 42
0.4142135623730951
  0
VERTEX
  5
78
  8
LAYER_1
 10
3.32930704085802
 20
-0.2649511394027222
 30
0.0
 42
0.4142135623730951
  0
SEQEND
  5
79
  8
LAYER_1
  0
POLYLINE
  5
42
  8
LAYER_1
 66
     1
 10
0.0
 20
0.0
 30
0.0
 70
     1
  0
VERTEX
  5
7A
  8
LAYER_1
 10
0.0000000000000018
 20
39.98074928479771
 30
0.0
  0
VERTEX
  5
7B
  8
LAYER_1
 10
-1.027469297299748
 20
39.96769127439107
 30
0.0
  0
VERTEX
  5
7C
  8
LAYER_1
 10
-2.048528191141481
 20
39.92872658191964
 30
0.0
  0
VERTEX
  5
7D
  8
LAYER_1
 10
-3.062864028067589
 20
39.8641692155061
 30
0.0
  0
VERTEX
  5
7E
  8
LAYER_1
 10
-4.070164154620462
 20
39.77433318327315
 30
0.0
  0
VERTEX
  5
7F
  8
LAYER_1
 10
-5.070115917342491
 20
39.65953249334348
 30
0.0
  0
VERTEX
  5
80
  8
LAYER_1
 10
-6.062406662776068
 20
39.52008115383976
 30
0.0
  0
VERTEX
  5
81
  8
LAYER_1
 10
-7.046723737463582
 20
39.35629317288472
 30
0.0
  0
VERTEX
  5
82
  8
LAYER_1
 10
-8.022754487947424
 20
39.16848255860102
 30
0.0
  0
VERTEX
  5
83
  8
LAYER_1
 10
-8.990186260769988
 20
38.95696331911137
 30
0.0
  0
VERTEX
  5
84
  8
LAYER_1
 10
-9.94870640247366
 20
38.72204946253846
 30
0.0
  0
VERTEX
  5
85
  8
LAYER_1
 10
-10.89800225960083
 20
38.464054997005
 30
0.0
  0
VERTEX
  5
86
  8
LAYER_1
 10
-11.8377611786939
 20
38.18329393063365
 30
0.0
  0
VERTEX
  5
87
  8
LAYER_1
 10
-12.76767050629525
 20
37.88008027154713
 30
0.0
  0
VERTEX
  5
88
  8
LAYER_1
 10
-13.68741758894727
 20
37.55472802786811
 30
0.0
  0
VERTEX
  5
89
  8
LAYER_1
 10
-14.59668977319236
 20
37.2075512077193
 30
0.0
  0
VERTEX
  5
8A
  8
LAYER_1
 10
-15.49517440557291
 20
36.83886381922338
 30
0.0
  0
VERTEX
  5
8B
  8
LAYER_1
 10
-16.3825588326313
 20
36.44897987050305
 30
0.0
  0
VERTEX
  5
8C
  8
LAYER_1
 10
-17.25853040090993
 20
36.038213369681
 30
0.0
  0
VERTEX
  5
8D
  8
LAYER_1
 10
-18.12277645695118
 20
35.60687832487993
 30
0.0
  0
VERTEX
  5
8E
  8
LAYER_1
 10
-18.97498434729746
 20
35.15528874422251
 30
0.0
  0
VERTEX
  5
8F
  8
LAYER_1
 10
-19.81484141849114
 20
34.68375863583145
 30
0.0
  0
VERTEX
  5
90
  8
LAYER_1
 10
-20.64203501707463
 20
34.19260200782946
 30
0.0
  0
VERTEX
  5
91
  8
LAYER_1
 10
-21.45625248959031
 20
33.6821328683392
 30
0.0
  0
VERTEX
  5
92
  8
LAYER_1
 10
-22.25718118258057
 20
33.15266522548338
 30
0.0
  0
VERTEX
  5
93
  8
LAYER_1
 10
-23.04450844258781
 20
32.6045130873847
 30
0.0
  0
VERTEX
  5
94
  8
LAYER_1
 10
-23.8179216161544
 20
32.03799046216583
 30
0.0
  0
VERTEX
  5
95
  8
LAYER_1
 10
-24.57710804982276
 20
31.45341135794947
 30
0.0
  0
VERTEX
  5
96
  8
LAYER_1
 10
-25.32175509013526
 20
30.85108978285833
 30
0.0
  0
VERTEX
  5
97
  8
LAYER_1
 10
-26.0515500836343
 20
30.23133974501508
 30
0.0
  0
VERTEX
  5
98
  8
LAYER_1
 10
-26.76618037686227
 20
29.59447525254243
 30
0.0
  0
VERTEX
  5
99
  8
LAYER_1
 10
-27.46533331636155
 20
28.94081031356306
 30
0.0
  0
VERTEX
  5
9A
  8
LAYER_1
 10
-28.14869624867455
 20
28.27065893619967
 30
0.0
  0
VERTEX
  5
9B
  8
LAYER_1
 10
-28.81595652034364
 20
27.58433512857495
 30
0.0
  0
VERTEX
  5
9C
  8
LAYER_1
 10
-29.46680147791123
 20
26.88215289881159
 30
0.0
  0
VERTEX
  5
9D
  8
LAYER_1
 10
-30.1009184679197
 20
26.16442625503228
 30
0.0
  0
VERTEX
  5
9E
  8
LAYER_1
 10
-30.71799483691144
 20
25.43146920535973
 30
0.0
  0
VERTEX
  5
9F
  8
LAYER_1
 10
-31.31771793142885
 20
24.68359575791662
 30
0.0
  0
VERTEX
  5
A0
  8
LAYER_1
 10
-31.89977509801431
 20
23.92111992082564
 30
0.0
  0
VERTEX
  5
A1
  8
LAYER_1
 10
-32.46385368321022
 20
23.14435570220949
 30
0.0
  0
VERTEX
  5
A2
  8
LAYER_1
 10
-33.00964103355897
 20
22.35361711019085
 30
0.0
  0
VERTEX
  5
A3
  8
LAYER_1
 10
-33.53682449560294
 20
21.54921815289243
 30
0.0
  0
VERTEX
  5
A4
  8
LAYER_1
 10
-34.04509141588454
 20
20.73147283843691
 30
0.0
  0
VERTEX
  5
A5
  8
LAYER_1
 10
-34.53412914094613
 20
19.90069517494699
 30
0.0
  0
VERTEX
  5
A6
  8
LAYER_1
 10
-35.00362501733014
 20
19.05719917054535
 30
0.0
  0
VERTEX
  5
A7
  8
LAYER_1
 10
-35.45326639157894
 20
18.2012988333547
 30
0.0
  0
VERTEX
  5
A8
  8
LAYER_1
 10
-35.88274061023491
 20
17.33330817149772
 30
0.0
  0
VERTEX
  5
A9
  8
LAYER_1
 10
-36.29173501984046
 20
16.45354119309711
 30
0.0
  0
VERTEX
  5
AA
  8
LAYER_1
 10
-36.67993696693797
 20
15.56231190627556
 30
0.0
  0
VERTEX
  5
AB
  8
LAYER_1
 10
-37.04703379806983
 20
14.65993431915576
 30
0.0
  0
VERTEX
  5
AC
  8
LAYER_1
 10
-37.39271285977845
 20
13.7467224398604
 30
0.0
  0
VERTEX
  5
AD
  8
LAYER_1
 10
-37.7166614986062
 20
12.82299027651218
 30
0.0
  0
VERTEX
  5
AE
  8
LAYER_1
 10
-38.01856706109547
 20
11.8890518372338
 30
0.0
  0
VERTEX
  5
AF
  8
LAYER_1
 10
-38.29811689378867
 20
10.94522113014793
 30
0.0
  0
VERTEX
  5
B0
  8
LAYER_1
 10
-38.55499834322817
 20
9.99181216337728
 30
0.0
  0
VERTEX
  5
B1
  8
LAYER_1
 10
-38.78889875595637
 20
9.029138945044537
 30
0.0
  0
VERTEX
  5
B2
  8
LAYER_1
 10
-38.99950547851567
 20
8.057515483272397
 30
0.0
  0
VERTEX
  5
B3
  8
LAYER_1
 10
-39.18650585744845
 20
7.077255786183548
 30
0.0
  0
VERTEX
  5
B4
  8
LAYER_1
 10
-39.34958723929709
 20
6.088673861900686
 30
0.0
  0
VERTEX
  5
B5
  8
LAYER_1
 10
-39.48843697060401
 20
5.092083718546501
 30
0.0
  0
VERTEX
  5
B6
  8
LAYER_1
 10
-39.60274239791158
 20
4.087799364243688
 30
0.0
  0
VERTEX
  5
B7
  8
LAYER_1
 10
-39.69219086776219
 20
3.076134807114939
 30
0.0
  0
VERTEX
  5
B8
  8
LAYER_1
 10
-39.75646972669823
 20
2.057404055282945
 30
0.0
  0
VERTEX
  5
B9
  8
LAYER_1
 10
-39.79526632126212
 20
1.0319211168704
 30
0.0
  0
VERTEX
  5
BA
  8
LAYER_1
 10
-39.80826799799621
 20
-0.0000000000000036
 30
0.0
  0
VERTEX
  5
BB
  8
LAYER_1
 10
-39.79526632126212
 20
-1.031921116870407
 30
0.0
  0
VERTEX
  5
BC
  8
LAYER_1
 10
-39.75646972669823
 20
-2.057404055282952
 30
0.0
  0
VERTEX
  5
BD
  8
LAYER_1
 10
-39.69219086776219
 20
-3.076134807114946
 30
0.0
  0
VERTEX
  5
BE
  8
LAYER_1
 10
-39.60274239791158
 20
-4.087799364243695
 30
0.0
  0
VERTEX
  5
BF
  8
LAYER_1
 10
-39.48843697060401
 20
-5.092083718546508
 30
0.0
  0
VERTEX
  5
C0
  8
LAYER_1
 10
-39.34958723929709
 20
-6.088673861900693
 30
0.0
  0
VERTEX
  5
C1
  8
LAYER_1
 10
-39.18650585744845
 20
-7.077255786183555
 30
0.0
  0
VERTEX
  5
C2
  8
LAYER_1
 10
-38.99950547851567
 20
-8.057515483272404
 30
0.0
  0
VERTEX
  5
C3
  8
LAYER_1
 10
-38.78889875595637
 20
-9.029138945044544
 30
0.0
  0
VERTEX
  5
C4
  8
LAYER_1
 10
-38.55499834322817
 20
-9.991812163377286
 30
0.0
  0
VERTEX
  5
C5
  8
LAYER_1
 10
-38.29811689378867
 20
-10.94522113014794
 30
0.0
  0
VERTEX
  5
C6
  8
LAYER_1
 10
-38.01856706109547
 20
-11.8890518372338
 30
0.0
  0
VERTEX
  5
C7
  8
LAYER_1
 10
-37.7166614986062
 20
-12.82299027651219
 30
0.0
  0
VERTEX
  5
C8
  8
LAYER_1
 10
-37.39271285977845
 20
-13.74672243986041
 30
0.0
  0
VERTEX
  5
C9
  8
LAYER_1
 10
-37.04703379806983
 20
-14.65993431915576
 30
0.0
  0
VERTEX
  5
CA
  8
LAYER_1
 10
-36.67993696693797
 20
-15.56231190627556
 30
0.0
  0
VERTEX
  5
CB
  8
LAYER_1
 10
-36.29173501984046
 20
-16.45354119309712
 30
0.0
  0
VERTEX
  5
CC
  8
LAYER_1
 10
-35.88274061023491
 20
-17.33330817149773
 30
0.0
  0
VERTEX
  5
CD
  8
LAYER_1
 10
-35.45326639157894
 20
-18.20129883335471
 30
0.0
  0
VERTEX
  5
CE
  8
LAYER_1
 10
-35.00362501733014
 20
-19.05719917054536
 30
0.0
  0
VERTEX
  5
CF
  8
LAYER_1
 10
-34.53412914094613
 20
-19.900695174947
 30
0.0
  0
VERTEX
  5
D0
  8
LAYER_1
 10
-34.04509141588454
 20
-20.73147283843692
 30
0.0
  0
VERTEX
  5
D1
  8
LAYER_1
 10
-33.53682449560294
 20
-21.54921815289244
 30
0.0
  0
VERTEX
  5
D2
  8
LAYER_1
 10
-33.00964103355897
 20
-22.35361711019086
 30
0.0
  0
VERTEX
  5
D3
  8
LAYER_1
 10
-32.46385368321022
 20
-23.1443557022095
 30
0.0
  0
VERTEX
  5
D4
  8
LAYER_1
 10
-31.89977509801431
 20
-23.92111992082565
 30
0.0
  0
VERTEX
  5
D5
  8
LAYER_1
 10
-31.31771793142885
 20
-24.68359575791663
 30
0.0
  0
VERTEX
  5
D6
  8
LAYER_1
 10
-30.71799483691144
 20
-25.43146920535974
 30
0.0
  0
VERTEX
  5
D7
  8
LAYER_1
 10
-30.1009184679197
 20
-26.16442625503229
 30
0.0
  0
VERTEX
  5
D8
  8
LAYER_1
 10
-29.46680147791123
 20
-26.88215289881159
 30
0.0
  0
VERTEX
  5
D9
  8
LAYER_1
 10
-28.81595652034364
 20
-27.58433512857495
 30
0.0
  0
VERTEX
  5
DA
  8
LAYER_1
 10
-28.14869624867455
 20
-28.27065893619967
 30
0.0
  0
VERTEX
  5
DB
  8
LAYER_1
 10
-27.46533331636155
 20
-28.94081031356307
 30
0.0
  0
VERTEX
  5
DC
  8
LAYER_1
 10
-26.76618037686227
 20
-29.59447525254243
 30
0.0
  0
VERTEX
  5
DD
  8
LAYER_1
 10
-26.0515500836343
 20
-30.23133974501508
 30
0.0
  0
VERTEX
  5
DE
  8
LAYER_1
 10
-25.32175509013526
 20
-30.85108978285833
 30
0.0
  0
VERTEX
  5
DF
  8
LAYER_1
 10
-24.57710804982276
 20
-31.45341135794948
 30
0.0
  0
VERTEX
  5
E0
  8
LAYER_1
 10
-23.8179216161544
 20
-32.03799046216583
 30
0.0
  0
VERTEX
  5
E1
  8
LAYER_1
 10
-23.04450844258781
 20
-32.6045130873847
 30
0.0
  0
VERTEX
  5
E2
  8
LAYER_1
 10
-22.25718118258057
 20
-33.15266522548339
 30
0.0
  0
VERTEX
  5
E3
  8
LAYER_1
 10
-21.45625248959031
 20
-33.68213286833921
 30
0.0
  0
VERTEX
  5
E4
  8
LAYER_1
 10
-20.64203501707463
 20
-34.19260200782946
 30
0.0
  0
VERTEX
  5
E5
  8
LAYER_1
 10
-19.81484141849114
 20
-34.68375863583145
 30
0.0
  0
VERTEX
  5
E6
  8
LAYER_1
 10
-18.97498434729746
 20
-35.15528874422251
 30
0.0
  0
VERTEX
  5
E7
  8
LAYER_1
 10
-18.12277645695118
 20
-35.60687832487993
 30
0.0
  0
VERTEX
  5
E8
  8
LAYER_1
 10
-17.25853040090993
 20
-36.038213369681
 30
0.0
  0
VERTEX
  5
E9
  8
LAYER_1
 10
-16.3825588326313
 20
-36.44897987050305
 30
0.0
  0
VERTEX
  5
EA
  8
LAYER_1
 10
-15.49517440557291
 20
-36.83886381922338
 30
0.0
  0
VERTEX
  5
EB
  8
LAYER_1
 10
-14.59668977319236
 20
-37.2075512077193
 30
0.0
  0
VERTEX
  5
EC
  8
LAYER_1
 10
-13.68741758894727
 20
-37.55472802786811
 30
0.0
  0
VERTEX
  5
ED
  8
LAYER_1
 10
-12.76767050629525
 20
-37.88008027154713
 30
0.0
  0
VERTEX
  5
EE
  8
LAYER_1
 10
-11.8377611786939
 20
-38.18329393063365
 30
0.0
  0
VERTEX
  5
EF
  8
LAYER_1
 10
-10.89800225960083
 20
-38.464054997005
 30
0.0
  0
VERTEX
  5
F0
  8
LAYER_1
 10
-9.94870640247366
 20
-38.72204946253846
 30
0.0
  0
VERTEX
  5
F1
  8
LAYER_1
 10
-8.990186260769988
 20
-38.95696331911137
 30
0.0
  0
VERTEX
  5
F2
  8
LAYER_1
 10
-8.022754487947424
 20
-39.16848255860102
 30
0.0
  0
VERTEX
  5
F3
  8
LAYER_1
 10
-7.046723737463582
 20
-39.35629317288472
 30
0.0
  0
VERTEX
  5
F4
  8
LAYER_1
 10
-6.062406662776068
 20
-39.52008115383976
 30
0.0
  0
VERTEX
  5
F5
  8
LAYER_1
 10
-5.070115917342491
 20
-39.65953249334348
 30
0.0
  0
VERTEX
  5
F6
  8
LAYER_1
 10
-4.070164154620462
 20
-39.77433318327315
 30
0.0
  0
VERTEX
  5
F7
  8
LAYER_1
 10
-3.062864028067589
 20
-39.8641692155061
 30
0.0
  0
VERTEX
  5
F8
  8
LAYER_1
 10
-2.048528191141481
 20
-39.92872658191964
 30
0.0
  0
VERTEX
  5
F9
  8
LAYER_1
 10
-1.027469297299748
 20
-39.96769127439107
 30
0.0
  0
VERTEX
  5
FA
  8
LAYER_1
 10
0.0000000000000018
 20
-39.98074928479771
 30
0.0
  0
VERTEX
  5
FB
  8
LAYER_1
 10
1.027469297299752
 20
-39.96769127439107
 30
0.0
  0
VERTEX
  5
FC
  8
LAYER_1
 10
2.048528191141486
 20
-39.92872658191964
 30
0.0
  0
VERTEX
  5
FD
  8
LAYER_1
 10
3.062864028067594
 20
-39.8641692155061
 30
0.0
  0
VERTEX
  5
FE
  8
LAYER_1
 10
4.070164154620468
 20
-39.77433318327315
 30
0.0
  0
VERTEX
  5
FF
  8
LAYER_1
 10
5.070115917342497
 20
-39.65953249334348
 30
0.0
  0
VERTEX
  5
100
  8
LAYER_1
 10
6.062406662776073
 20
-39.52008115383976
 30
0.0
  0
VERTEX
  5
101
  8
LAYER_1
 10
7.046723737463587
 20
-39.35629317288472
 30
0.0
  0
VERTEX
  5
102
  8
LAYER_1
 10
8.02275448794743
 20
-39.16848255860102
 30
0.0
  0
VERTEX
  5
103
  8
LAYER_1
 10
8.990186260769992
 20
-38.95696331911137
 30
0.0
  0
VERTEX
  5
104
  8
LAYER_1
 10
9.948706402473665
 20
-38.72204946253846
 30
0.0
  0
VERTEX
  5
105
  8
LAYER_1
 10
10.89800225960084
 20
-38.464054997005
 30
0.0
  0
VERTEX
  5
106
  8
LAYER_1
 10
11.8377611786939
 20
-38.18329393063365
 30
0.0
  0
VERTEX
  5
107
  8
LAYER_1
 10
12.76767050629525
 20
-37.88008027154713
 30
0.0
  0
VERTEX
  5
108
  8
LAYER_1
 10
13.68741758894728
 20
-37.55472802786811
 30
0.0
  0
VERTEX
  5
109
  8
LAYER_1
 10
14.59668977319237
 20
-37.2075512077193
 30
0.0
  0
VERTEX
  5
10A
  8
LAYER_1
 10
15.49517440557291
 20
-36.83886381922338
 30
0.0
  0
VERTEX
  5
10B
  8
LAYER_1
 10
16.3825588326313
 20
-36.44897987050305
 30
0.0
  0
VERTEX
  5
10C
  8
LAYER_1
 10
17.25853040090993
 20
-36.038213369681
 30
0.0
  0
VERTEX
  5
10D
  8
LAYER_1
 10
18.12277645695118
 20
-35.60687832487993
 30
0.0
  0
VERTEX
  5
10E
  8
LAYER_1
 10
18.97498434729746
 20
-35.15528874422251
 30
0.0
  0
VERTEX
  5
10F
  8
LAYER_1
 10
19.81484141849114
 20
-34.68375863583145
 30
0.0
  0
VERTEX
  5
110
  8
LAYER_1
 10
20.64203501707463
 20
-34.19260200782946
 30
0.0
  0
VERTEX
  5
111
  8
LAYER_1
 10
21.45625248959031
 20
-33.68213286833921
 30
0.0
  0
VERTEX
  5
112
  8
LAYER_1
 10
22.25718118258057
 20
-33.15266522548339
 30
0.0
  0
VERTEX
  5
113
  8
LAYER_1
 10
23.04450844258781
 20
-32.6045130873847
 30
0.0
  0
VERTEX
  5
114
  8
LAYER_1
 10
23.81792161615441
 20
-32.03799046216583
 30
0.0
  0
VERTEX
  5
115
  8
LAYER_1
 10
24.57710804982276
 20
-31.45341135794948
 30
0.0
  0
VERTEX
  5
116
  8
LAYER_1
 10
25.32175509013526
 20
-30.85108978285833
 30
0.0
  0
VERTEX
  5
117
  8
LAYER_1
 10
26.0515500836343
 20
-30.23133974501508
 30
0.0
  0
VERTEX
  5
118
  8
LAYER_1
 10
26.76618037686227
 20
-29.59447525254243
 30
0.0
  0
VERTEX
  5
119
  8
LAYER_1
 10
27.46533331636155
 20
-28.94081031356307
 30
0.0
  0
VERTEX
  5
11A
  8
LAYER_1
 10
28.14869624867455
 20
-28.27065893619967
 30
0.0
  0
VERTEX
  5
11B
  8
LAYER_1
 10
28.81595652034365
 20
-27.58433512857495
 30
0.0
  0
VERTEX
  5
11C
  8
LAYER_1
 10
29.46680147791123
 20
-26.88215289881159
 30
0.0
  0
VERTEX
  5
11D
  8
LAYER_1
 10
30.1009184679197
 20
-26.16442625503229
 30
0.0
  0
VERTEX
  5
11E
  8
LAYER_1
 10
30.71799483691145
 20
-25.43146920535974
 30
0.0
  0
VERTEX
  5
11F
  8
LAYER_1
 10
31.31771793142886
 20
-24.68359575791663
 30
0.0
  0
VERTEX
  5
120
  8
LAYER_1
 10
31.89977509801432
 20
-23.92111992082565
 30
0.0
  0
VERTEX
  5
121
  8
LAYER_1
 10
32.46385368321023
 20
-23.1443557022095
 30
0.0
  0
VERTEX
  5
122
  8
LAYER_1
 10
33.00964103355898
 20
-22.35361711019086
 30
0.0
  0
VERTEX
  5
123
  8
LAYER_1
 10
33.53682449560295
 20
-21.54921815289244
 30
0.0
  0
VERTEX
  5
124
  8
LAYER_1
 10
34.04509141588454
 20
-20.73147283843692
 30
0.0
  0
VERTEX
  5
125
  8
LAYER_1
 10
34.53412914094615
 20
-19.900695174947
 30
0.0
  0
VERTEX
  5
126
  8
LAYER_1
 10
35.00362501733015
 20
-19.05719917054536
 30
0.0
  0
VERTEX
  5
127
  8
LAYER_1
 10
35.45326639157894
 20
-18.20129883335471
 30
0.0
  0
VERTEX
  5
128
  8
LAYER_1
 10
35.88274061023491
 20
-17.33330817149773
 30
0.0
  0
VERTEX
  5
129
  8
LAYER_1
 10
36.29173501984046
 20
-16.45354119309712
 30
0.0
  0
VERTEX
  5
12A
  8
LAYER_1
 10
36.67993696693797
 20
-15.56231190627556
 30
0.0
  0
VERTEX
  5
12B
  8
LAYER_1
 10
37.04703379806983
 20
-14.65993431915576
 30
0.0
  0
VERTEX
  5
12C
  8
LAYER_1
 10
37.39271285977845
 20
-13.74672243986041
 30
0.0
  0
VERTEX
  5
12D
  8
LAYER_1
 10
37.7166614986062
 20
-12.82299027651219
 30
0.0
  0
VERTEX
  5
12E
  8
LAYER_1
 10
38.01856706109547
 20
-11.8890518372338
 30
0.0
  0
VERTEX
  5
12F
  8
LAYER_1
 10
38.29811689378867
 20
-10.94522113014794
 30
0.0
  0
VERTEX
  5
130
  8
LAYER_1
 10
38.55499834322817
 20
-9.991812163377286
 30
0.0
  0
VERTEX
  5
131
  8
LAYER_1
 10
38.78889875595637
 20
-9.029138945044544
 30
0.0
  0
VERTEX
  5
132
  8
LAYER_1
 10
38.99950547851567
 20
-8.057515483272404
 30
0.0
  0
VERTEX
  5
133
  8
LAYER_1
 10
39.18650585744845
 20
-7.077255786183555
 30
0.0
  0
VERTEX
  5
134
  8
LAYER_1
 10
39.34958723929709
 20
-6.088673861900693
 30
0.0
  0
VERTEX
  5
135
  8
LAYER_1
 10
39.48843697060401
 20
-5.092083718546508
 30
0.0
  0
VERTEX
  5
136
  8
LAYER_1
 10
39.60274239791158
 20
-4.087799364243695
 30
0.0
  0
VERTEX
  5
137
  8
LAYER_1
 10
39.69219086776219
 20
-3.076134807114946
 30
0.0
  0
VERTEX
  5
138
  8
LAYER_1
 10
39.75646972669823
 20
-2.057404055282952
 30
0.0
  0
VERTEX
  5
139
  8
LAYER_1
 10
39.79526632126212
 20
-1.031921116870407
 30
0.0
  0
VERTEX
  5
13A
  8
LAYER_1
 10
39.80826799799621
 20
-0.0000000000000036
 30
0.0
  0
VERTEX
  5
13B
  8
LAYER_1
 10
39.79526632126212
 20
1.0319211168704
 30
0.0
  0
VERTEX
  5
13C
  8
LAYER_1
 10
39.75646972669823
 20
2.057404055282945
 30
0.0
  0
VERTEX
  5
13D
  8
LAYER_1
 10
39.69219086776219
 20
3.076134807114939
 30
0.0
  0
VERTEX
  5
13E
  8
LAYER_1
 10
39.60274239791158
 20
4.087799364243688
 30
0.0
  0
VERTEX
  5
13F
  8
LAYER_1
 10
39.48843697060401
 20
5.092083718546501
 30
0.0
  0
VERTEX
  5
140
  8
LAYER_1
 10
39.34958723929709
 20
6.088673861900686
 30
0.0
  0
VERTEX
  5
141
  8
LAYER_1
 10
39.18650585744845
 20
7.077255786183548
 30
0.0
  0
VERTEX
  5
142
  8
LAYER_1
 10
38.99950547851567
 20
8.057515483272397
 30
0.0
  0
VERTEX
  5
143
  8
LAYER_1
 10
38.78889875595637
 20
9.029138945044537
 30
0.0
  0
VERTEX
  5
144
  8
LAYER_1
 10
38.55499834322817
 20
9.99181216337728
 30
0.0
  0
VERTEX
  5
145
  8
LAYER_1
 10
38.29811689378867
 20
10.94522113014793
 30
0.0
  0
VERTEX
  5
146
  8
LAYER_1
 10
38.01856706109547
 20
11.8890518372338
 30
0.0
  0
VERTEX
  5
147
  8
LAYER_1
 10
37.7166614986062
 20
12.82299027651218
 30
0.0
  0
VERTEX
  5
148
  8
LAYER_1
 10
37.39271285977845
 20
13.7467224398604
 30
0.0
  0
VERTEX
  5
149
  8
LAYER_1
 10
37.04703379806983
 20
14.65993431915576
 30
0.0
  0
VERTEX
  5
14A
  8
LAYER_1
 10
36.67993696693797
 20
15.56231190627556
 30
0.0
  0
VERTEX
  5
14B
  8
LAYER_1
 10
36.29173501984046
 20
16.45354119309711
 30
0.0
  0
VERTEX
  5
14C
  8
LAYER_1
 10
35.88274061023491
 20
17.33330817149772
 30
0.0
  0
VERTEX
  5
14D
  8
LAYER_1
 10
35.45326639157894
 20
18.2012988333547
 30
0.0
  0
VERTEX
  5
14E
  8
LAYER_1
 10
35.00362501733015
 20
19.05719917054536
 30
0.0
  0
VERTEX
  5
14F
  8
LAYER_1
 10
34.53412914094615
 20
19.900695174947
 30
0.0
  0
VERTEX
  5
150
  8
LAYER_1
 10
34.04509141588454
 20
20.73147283843692
 30
0.0
  0
VERTEX
  5
151
  8
LAYER_1
 10
33.53682449560295
 20
21.54921815289244
 30
0.0
  0
VERTEX
  5
152
  8
LAYER_1
 10
33.00964103355898
 20
22.35361711019086
 30
0.0
  0
VERTEX
  5
153
  8
LAYER_1
 10
32.46385368321023
 20
23.1443557022095
 30
0.0
  0
VERTEX
  5
154
  8
LAYER_1
 10
31.89977509801432
 20
23.92111992082565
 30
0.0
  0
VERTEX
  5
155
  8
LAYER_1
 10
31.31771793142886
 20
24.68359575791663
 30
0.0
  0
VERTEX
  5
156
  8
LAYER_1
 10
30.71799483691145
 20
25.43146920535974
 30
0.0
  0
VERTEX
  5
157
  8
LAYER_1
 10
30.1009184679197
 20
26.16442625503229
 30
0.0
  0
VERTEX
  5
158
  8
LAYER_1
 10
29.46680147791123
 20
26.88215289881159
 30
0.0
  0
VERTEX
  5
159
  8
LAYER_1
 10
28.81595652034365
 20
27.58433512857495
 30
0.0
  0
VERTEX
  5
15A
  8
LAYER_1
 10
28.14869624867455
 20
28.27065893619967
 30
0.0
  0
VERTEX
  5
15B
  8
LAYER_1
 10
27.46533331636155
 20
28.94081031356307
 30
0.0
  0
VERTEX
  5
15C
  8
LAYER_1
 10
26.76618037686227
 20
29.59447525254243
 30
0.0
  0
VERTEX
  5
15D
  8
LAYER_1
 10
26.0515500836343
 20
30.23133974501508
 30
0.0
  0
VERTEX
  5
15E
  8
LAYER_1
 10
25.32175509013526
 20
30.85108978285833
 30
0.0
  0
VERTEX
  5
15F
  8
LAYER_1
 10
24.57710804982276
 20
31.45341135794948
 30
0.0
  0
VERTEX
  5
160
  8
LAYER_1
 10
23.8179216161544
 20
32.03799046216583
 30
0.0
  0
VERTEX
  5
161
  8
LAYER_1
 10
23.04450844258781
 20
32.6045130873847
 30
0.0
  0
VERTEX
  5
162
  8
LAYER_1
 10
22.25718118258057
 20
33.15266522548339
 30
0.0
  0
VERTEX
  5
163
  8
LAYER_1
 10
21.45625248959031
 20
33.68213286833921
 30
0.0
  0
VERTEX
  5
164
  8
LAYER_1
 10
20.64203501707463
 20
34.19260200782946
 30
0.0
  0
VERTEX
  5
165
  8
LAYER_1
 10
19.81484141849114
 20
34.68375863583145
 30
0.0
  0
VERTEX
  5
166
  8
LAYER_1
 10
18.97498434729746
 20
35.15528874422251
 30
0.0
  0
VERTEX
  5
167
  8
LAYER_1
 10
18.12277645695118
 20
35.60687832487993
 30
0.0
  0
VERTEX
  5
168
  8
LAYER_1
 10
17.25853040090993
 20
36.038213369681
 30
0.0
  0
VERTEX
  5
169
  8
LAYER_1
 10
16.3825588326313
 20
36.44897987050305
 30
0.0
  0
VERTEX
  5
16A
  8
LAYER_1
 10
15.49517440557291
 20
36.83886381922338
 30
0.0
  0
VERTEX
  5
16B
  8
LAYER_1
 10
14.59668977319237
 20
37.2075512077193
 30
0.0
  0
VERTEX
  5
16C
  8
LAYER_1
 10
13.68741758894728
 20
37.55472802786811
 30
0.0
  0
VERTEX
  5
16D
  8
LAYER_1
 10
12.76767050629525
 20
37.88008027154713
 30
0.0
  0
VERTEX
  5
16E
  8
LAYER_1
 10
11.8377611786939
 20
38.18329393063365
 30
0.0
  0
VERTEX
  5
16F
  8
LAYER_1
 10
10.89800225960084
 20
38.464054997005
 30
0.0
  0
VERTEX
  5
170
  8
LAYER_1
 10
9.948706402473663
 20
38.72204946253846
 30
0.0
  0
VERTEX
  5
171
  8
LAYER_1
 10
8.990186260769992
 20
38.95696331911137
 30
0.0
  0
VERTEX
  5
172
  8
LAYER_1
 10
8.022754487947427
 20
39.16848255860102
 30
0.0
  0
VERTEX
  5
173
  8
LAYER_1
 10
7.046723737463585
 20
39.35629317288472
 30
0.0
  0
VERTEX
  5
174
  8
LAYER_1
 10
6.062406662776072
 20
39.52008115383976
 30
0.0
  0
VERTEX
  5
175
  8
LAYER_1
 10
5.070115917342495
 20
39.65953249334348
 30
0.0
  0
VERTEX
  5
176
  8
LAYER_1
 10
4.070164154620466
 20
39.77433318327315
 30
0.0
  0
VERTEX
  5
177
  8
LAYER_1
 10
3.062864028067593
 20
39.8641692155061
 30
0.0
  0
VERTEX
  5
178
  8
LAYER_1
 10
2.048528191141485
 20
39.92872658191964
 30
0.0
  0
VERTEX
  5
179
  8
LAYER_1
 10
1.027469297299752
 20
39.96769127439107
 30
0.0
  0
SEQEND
  5
17A
  8
LAYER_1
  0
POLYLINE
  5
43
  8
LAYER_1
 66
     1
 10
0.0
 20
0.0
 30
0.0
 70
     1
  0
VERTEX
  5
17B
  8
LAYER_1
 10
-42.88084335589674
 20
-43.9649096205121
 30
0.0
  0
VERTEX
  5
17C
  8
LAYER_1
 10
42.88084335589674
 20
-43.9649096205121
 30
0.0
  0
VERTEX
  5
17D
  8
LAYER_1
 10
42.88084335589674
 20
43.9649096205121
 30
0.0
  0
VERTEX
  5
17E
  8
LAYER_1
 10
-42.88084335589674
 20
43.9649096205121
 30
0.0
  0
SEQEND
  5
17F
  8
LAYER_1
  0
POLYLINE
  5
44
  8
LAYER_1
 66
     1
 10
0.0
 20
0.0
 30
0.0
 70
     1
  0
VERTEX
  5
180
  8
LAYER_1
 10
22.02212716546631
 20
7.610844222476636
 30
0.0
 42
-0.3602807581234342
  0
VERTEX
  5
181
  8
LAYER_1
 10
27.48520137191105
 20
3.985349521836037
 30
0.0
  0
VERTEX
  5
182
  8
LAYER_1
 10
27.49519258396822
 20
4.32012075143439
 30
0.0
  0
VERTEX
  5
183
  8
LAYER_1
 10
27.52641480769553
 20
4.646856495658696
 30
0.0
  0
VERTEX
  5
184
  8
LAYER_1
 10
27.57807628967035
 20
4.965098170997556
 30
0.0
  0
VERTEX
  5
185
  8
LAYER_1
 10
27.64938527647004
 20
5.274387193939569
 30
0.0
  0
VERTEX
  5
186
  8
LAYER_1
 10
27.73955001467198
 20
5.574264980973338
 30
0.0
  0
VERTEX
  5
187
  8
LAYER_1
 10
27.84777875085353
 20
5.864272948587462
 30
0.0
  0
VERTEX
  5
188
  8
LAYER_1
 10
27.97327973159206
 20
6.14395251327054
 30
0.0
  0
VERTEX
  5
189
  8
LAYER_1
 10
28.11526120346495
 20
6.412845091511175
 30
0.0
  0
VERTEX
  5
18A
  8
LAYER_1
 10
28.27293141304956
 20
6.670492099797968
 30
0.0
  0
VERTEX
  5
18B
  8
LAYER_1
 10
28.44549860692326
 20
6.916434954619517
 30
0.0
  0
VERTEX
  5
18C
  8
LAYER_1
 10
28.63217103166343
 20
7.150215072464422
 30
0.0
  0
VERTEX
  5
18D
  8
LAYER_1
 10
28.83215693384743
 20
7.371373869821287
 30
0.0
  0
VERTEX
  5
18E
  8
LAYER_1
 10
29.04466456005263
 20
7.57945276317871
 30
0.0
  0
VERTEX
  5
18F
  8
LAYER_1
 10
29.26890215685641
 20
7.773993169025293
 30
0.0
  0
VERTEX
  5
190
  8
LAYER_1
 10
29.50407797083612
 20
7.954536503849635
 30
0.0
  0
VERTEX
  5
191
  8
LAYER_1
 10
29.74940024856915
 20
8.120624184140336
 30
0.0
  0
VERTEX
  5
192
  8
LAYER_1
 10
30.00407723663285
 20
8.271797626385997
 30
0.0
  0
VERTEX
  5
193
  8
LAYER_1
 10
30.26731718160461
 20
8.40759824707522
 30
0.0
  0
VERTEX
  5
194
  8
LAYER_1
 10
30.53832833006178
 20
8.527567462696606
 30
0.0
  0
VERTEX
  5
195
  8
LAYER_1
 10
30.81631892858175
 20
8.631246689738754
 30
0.0
  0
VERTEX
  5
196
  8
LAYER_1
 10
31.10049722374187
 20
8.718177344690265
 30
0.0
  0
VERTEX
  5
197
  8
LAYER_1
 10
31.39007146211952
 20
8.787900844039736
 30
0.0
  0
VERTEX
  5
198
  8
LAYER_1
 10
31.68424989029207
 20
8.839958604275772
 30
0.0
  0
VERTEX
  5
199
  8
LAYER_1
 10
31.98224075483689
 20
8.873892041886972
 30
0.0
  0
VERTEX
  5
19A
  8
LAYER_1
 10
32.28325230233135
 20
8.889242573361937
 30
0.0
  0
VERTEX
  5
19B
  8
LAYER_1
 10
32.58649277935281
 20
8.885551615189266
 30
0.0
  0
VERTEX
  5
19C
  8
LAYER_1
 10
32.89117043247865
 20
8.862360583857562
 30
0.0
  0
VERTEX
  5
19D
  8
LAYER_1
 10
33.19649350828624
 20
8.819210895855422
 30
0.0
  0
VERTEX
  5
19E
  8
LAYER_1
 10
33.50167025335294
 20
8.75564396767145
 30
0.0
  0
VERTEX
  5
19F
  8
LAYER_1
 10
33.80590891425613
 20
8.671201215794245
 30
0.0
  0
VERTEX
  5
1A0
  8
LAYER_1
 10
34.10841773757318
 20
8.565424056712406
 30
0.0
  0
VERTEX
  5
1A1
  8
LAYER_1
 10
34.40840496988145
 20
8.437853906914537
 30
0.0
  0
VERTEX
  5
1A2
  8
LAYER_1
 10
34.18965020436969
 20
9.278949538908323
 30
0.0
  0
VERTEX
  5
1A3
  8
LAYER_1
 10
33.95033218907573
 20
10.11380483976346
 30
0.0
  0
VERTEX
  5
1A4
  8
LAYER_1
 10
33.69061513658898
 20
10.94202365573417
 30
0.0
  0
VERTEX
  5
1A5
  8
LAYER_1
 10
33.41066325949888
 20
11.76320983307469
 30
0.0
  0
VERTEX
  5
1A6
  8
LAYER_1
 10
33.11064077039484
 20
12.57696721803923
 30
0.0
  0
VERTEX
  5
1A7
  8
LAYER_1
 10
32.79071188186631
 20
13.38289965688202
 30
0.0
  0
VERTEX
  5
1A8
  8
LAYER_1
 10
32.45104080650271
 20
14.18061099585728
 30
0.0
  0
VERTEX
  5
1A9
  8
LAYER_1
 10
32.09179175689347
 20
14.96970508121925
 30
0.0
  0
VERTEX
  5
1AA
  8
LAYER_1
 10
31.97847554280327
 20
14.64694113526606
 30
0.0
  0
VERTEX
  5
1AB
  8
LAYER_1
 10
31.84532383741939
 20
14.34066161766802
 30
0.0
  0
VERTEX
  5
1AC
  8
LAYER_1
 10
31.69345513954988
 20
14.05104760487118
 30
0.0
  0
VERTEX
  5
1AD
  8
LAYER_1
 10
31.52398794800279
 20
13.77828017332157
 30
0.0
  0
VERTEX
  5
1AE
  8
LAYER_1
 10
31.33804076158616
 20
13.52254039946522
 30
0.0
  0
VERTEX
  5
1AF
  8
LAYER_1
 10
31.13673207910806
 20
13.28400935974818
 30
0.0
  0
VERTEX
  5
1B0
  8
LAYER_1
 10
30.92118039937651
 20
13.06286813061646
 30
0.0
  0
VERTEX
  5
1B1
  8
LAYER_1
 10
30.69250422119957
 20
12.85929778851611
 30
0.0
  0
VERTEX
  5
1B2
  8
LAYER_1
 10
30.45182204338528
 20
12.67347940989316
 30
0.0
  0
VERTEX
  5
1B3
  8
LAYER_1
 10
30.2002523647417
 20
12.50559407119365
 30
0.0
  0
VERTEX
  5
1B4
  8
LAYER_1
 10
29.93891368407687
 20
12.3558228488636
 30
0.0
  0
VERTEX
  5
1B5
  8
LAYER_1
 10
29.66892450019884
 20
12.22434681934906
 30
0.0
  0
VERTEX
  5
1B6
  8
LAYER_1
 10
29.39140331191565
 20
12.11134705909606
 30
0.0
  0
VERTEX
  5
1B7
  8
LAYER_1
 10
29.10746861803534
 20
12.01700464455063
 30
0.0
  0
VERTEX
  5
1B8
  8
LAYER_1
 10
28.81823891736598
 20
11.9415006521588
 30
0.0
  0
VERTEX
  5
1B9
  8
LAYER_1
 10
28.5248327087156
 20
11.88501615836662
 30
0.0
  0
VERTEX
  5
1BA
  8
LAYER_1
 10
28.22836849089226
 20
11.84773223962011
 30
0.0
  0
VERTEX
  5
1BB
  8
LAYER_1
 10
27.92996476270399
 20
11.82982997236531
 30
0.0
  0
VERTEX
  5
1BC
  8
LAYER_1
 10
27.63074002295885
 20
11.83149043304826
 30
0.0
  0
VERTEX
  5
1BD
  8
LAYER_1
 10
27.33181277046488
 20
11.85289469811498
 30
0.0
  0
VERTEX
  5
1BE
  8
LAYER_1
 10
27.03430150403013
 20
11.89422384401152
 30
0.0
  0
VERTEX
  5
1BF
  8
LAYER_1
 10
26.73932472246265
 20
11.9556589471839
 30
0.0
  0
VERTEX
  5
1C0
  8
LAYER_1
 10
26.44800092457049
 20
12.03738108407817
 30
0.0
  0
VERTEX
  5
1C1
  8
LAYER_1
 10
26.16144860916169
 20
12.13957133114035
 30
0.0
  0
VERTEX
  5
1C2
  8
LAYER_1
 10
25.88078627504429
 20
12.26241076481648
 30
0.0
  0
VERTEX
  5
1C3
  8
LAYER_1
 10
25.60713242102636
 20
12.40608046155259
 30
0.0
  0
VERTEX
  5
1C4
  8
LAYER_1
 10
25.34160554591593
 20
12.57076149779472
 30
0.0
  0
VERTEX
  5
1C5
  8
LAYER_1
 10
25.08532414852104
 20
12.75663494998891
 30
0.0
  0
VERTEX
  5
1C6
  8
LAYER_1
 10
24.83940672764975
 20
12.96388189458118
 30
0.0
  0
VERTEX
  5
1C7
  8
LAYER_1
 10
24.60497178211011
 20
13.19268340801757
 30
0.0
  0
VERTEX
  5
1C8
  8
LAYER_1
 10
24.38313781071016
 20
13.44322056674412
 30
0.0
  0
VERTEX
  5
1C9
  8
LAYER_1
 10
24.17502331225795
 20
13.71567444720686
 30
0.0
 42
-0.384467300088828
  0
SEQEND
  5
1CA
  8
LAYER_1
  0
POLYLINE
  5
45
  8
LAYER_1
 66
     1
 10
0.0
 20
0.0
 30
0.0
 70
     1
  0
VERTEX
  5
1CB
  8
LAYER_1
 10
8.224590941598077
 20
16.9799666837273
 30
0.0
 42
-0.076433121019109
  0
VERTEX
  5
1CC
  8
LAYER_1
 10
12.61160507707643
 20
20.84964424662566
 30
0.0
 42
0.4091379386953232
  0
VERTEX
  5
1CD
  8
LAYER_1
 10
14.98100657949281
 20
30.83941346314536
 30
0.0
 42
0.3472916858909296
  0
VERTEX
  5
1CE
  8
LAYER_1
 10
8.488432593613876
 20
25.32977896516842
 30
0.0
 42
0.0559365576812672
  0
SEQEND
  5
1CF
  8
LAYER_1
  0
POLYLINE
  5
46
  8
LAYER_1
 66
     1
 10
0.0
 20
0.0
 30
0.0
 70
     1
  0
VERTEX
  5
1D0
  8
LAYER_1
 10
-3.572681400446161
 20
29.68667283327597
 30
0.0
 42
-0.1596408896143646
  0
VERTEX
  5
1D1
  8
LAYER_1
 10
0.0228077789848093
 20
27.82426117198798
 30
0.0
 42
-0.1333333333333351
  0
VERTEX
  5
1D2
  8
LAYER_1
 10
4.446035474543772
 20
26.34985194013499
 30
0.0
 42
-0.1588948345528
  0
VERTEX
  5
1D3
  8
LAYER_1
 10
3.799364758818777
 20
29.79014014779196
 30
0.0
 42
-0.6874014321399811
  0
VERTEX
  5
1D4
  8
LAYER_1
 10
5.385104821090982
 20
30.34224173804933
 30
0.0
 42
0.076074376977084
  0
VERTEX
  5
1D5
  8
LAYER_1
 10
6.444610121734812
 20
29.26949262114745
 30
0.0
 42
0.6496227996647069
  0
VERTEX
  5
1D6
  8
LAYER_1
 10
7.040581853346968
 20
29.52112513005036
 30
0.0
  0
VERTEX
  5
1D7
  8
LAYER_1
 10
7.243058993714317
 20
29.86966165861385
 30
0.0
  0
VERTEX
  5
1D8
  8
LAYER_1
 10
7.463741821137672
 20
30.20361340613346
 30
0.0
  0
VERTEX
  5
1D9
  8
LAYER_1
 10
7.701815015408953
 20
30.5224752481226
 30
0.0
  0
VERTEX
  5
1DA
  8
LAYER_1
 10
7.956463256320081
 20
30.82574206009465
 30
0.0
  0
VERTEX
  5
1DB
  8
LAYER_1
 10
8.226871223662977
 20
31.11290871756301
 30
0.0
  0
VERTEX
  5
1DC
  8
LAYER_1
 10
8.512223597229564
 20
31.38347009604104
 30
0.0
  0
VERTEX
  5
1DD
  8
LAYER_1
 10
8.811705056811764
 20
31.63692107104216
 30
0.0
  0
VERTEX
  5
1DE
  8
LAYER_1
 10
9.124500282201497
 20
31.87275651807974
 30
0.0
  0
VERTEX
  5
1DF
  8
LAYER_1
 10
9.449793953190683
 20
32.09047131266718
 30
0.0
  0
VERTEX
  5
1E0
  8
LAYER_1
 10
9.786770749571248
 20
32.28956033031785
 30
0.0
  0
VERTEX
  5
1E1
  8
LAYER_1
 10
10.13461535113511
 20
32.46951844654515
 30
0.0
  0
VERTEX
  5
1E2
  8
LAYER_1
 10
10.49251243767419
 20
32.62984053686247
 30
0.0
  0
VERTEX
  5
1E3
  8
LAYER_1
 10
10.85964668898041
 20
32.77002147678321
 30
0.0
  0
VERTEX
  5
1E4
  8
LAYER_1
 10
11.2352027848457
 20
32.88955614182073
 30
0.0
  0
VERTEX
  5
1E5
  8
LAYER_1
 10
11.61836540506196
 20
32.98793940748844
 30
0.0
  0
VERTEX
  5
1E6
  8
LAYER_1
 10
12.00831922942114
 20
33.06466614929973
 30
0.0
  0
VERTEX
  5
1E7
  8
LAYER_1
 10
11.4533134034006
 20
33.25309041459977
 30
0.0
  0
VERTEX
  5
1E8
  8
LAYER_1
 10
10.89579063398009
 20
33.43198948053171
 30
0.0
  0
VERTEX
  5
1E9
  8
LAYER_1
 10
10.33587286965803
 20
33.60135365875003
 30
0.0
  0
VERTEX
  5
1EA
  8
LAYER_1
 10
9.773682058932833
 20
33.76117326090921
 30
0.0
  0
VERTEX
  5
1EB
  8
LAYER_1
 10
9.209340150302923
 20
33.91143859866371
 30
0.0
  0
VERTEX
  5
1EC
  8
LAYER_1
 10
8.64296909226672
 20
34.05213998366803
 30
0.0
  0
VERTEX
  5
1ED
  8
LAYER_1
 10
8.074690833322641
 20
34.18326772757662
 30
0.0
  0
VERTEX
  5
1EE
  8
LAYER_1
 10
7.504627321969114
 20
34.30481214204398
 30
0.0
  0
VERTEX
  5
1EF
  8
LAYER_1
 10
6.932900506704554
 20
34.41676353872457
 30
0.0
  0
VERTEX
  5
1F0
  8
LAYER_1
 10
6.359632336027381
 20
34.51911222927288
 30
0.0
  0
VERTEX
  5
1F1
  8
LAYER_1
 10
5.784944758436018
 20
34.61184852534339
 30
0.0
  0
VERTEX
  5
1F2
  8
LAYER_1
 10
5.208959722428884
 20
34.69496273859056
 30
0.0
  0
VERTEX
  5
1F3
  8
LAYER_1
 10
4.6317991765044
 20
34.76844518066888
 30
0.0
  0
VERTEX
  5
1F4
  8
LAYER_1
 10
4.053585069160985
 20
34.83228616323282
 30
0.0
  0
VERTEX
  5
1F5
  8
LAYER_1
 10
3.474439348897062
 20
34.88647599793687
 30
0.0
  0
VERTEX
  5
1F6
  8
LAYER_1
 10
2.894483964211049
 20
34.9310049964355
 30
0.0
  0
VERTEX
  5
1F7
  8
LAYER_1
 10
2.313840863601367
 20
34.96586347038318
 30
0.0
  0
VERTEX
  5
1F8
  8
LAYER_1
 10
1.732631995566437
 20
34.99104173143439
 30
0.0
  0
VERTEX
  5
1F9
  8
LAYER_1
 10
1.150979308604678
 20
35.00653009124361
 30
0.0
  0
VERTEX
  5
1FA
  8
LAYER_1
 10
0.5690047512145124
 20
35.01231886146532
 30
0.0
  0
VERTEX
  5
1FB
  8
LAYER_1
 10
-0.0131697281056409
 20
35.008398353754
 30
0.0
  0
VERTEX
  5
1FC
  8
LAYER_1
 10
-0.5954221808573611
 20
34.99475887976412
 30
0.0
  0
VERTEX
  5
1FD
  8
LAYER_1
 10
-1.177630658542228
 20
34.97139075115016
 30
0.0
  0
VERTEX
  5
1FE
  8
LAYER_1
 10
-1.759673212661821
 20
34.9382842795666
 30
0.0
  0
VERTEX
  5
1FF
  8
LAYER_1
 10
-2.341427894717719
 20
34.89542977666792
 30
0.0
  0
VERTEX
  5
200
  8
LAYER_1
 10
-2.922772756211503
 20
34.84281755410858
 30
0.0
  0
VERTEX
  5
201
  8
LAYER_1
 10
-3.503585848644752
 20
34.78043792354308
 30
0.0
  0
VERTEX
  5
202
  8
LAYER_1
 10
-4.083745223519045
 20
34.70828119662586
 30
0.0
  0
VERTEX
  5
203
  8
LAYER_1
 10
-4.663128932335963
 20
34.62633768501144
 30
0.0
  0
VERTEX
  5
204
  8
LAYER_1
 10
-5.241615026597085
 20
34.53459770035427
 30
0.0
  0
VERTEX
  5
205
  8
LAYER_1
 10
-5.81908155780399
 20
34.43305155430885
 30
0.0
  0
VERTEX
  5
206
  8
LAYER_1
 10
-6.395406577458258
 20
34.32168955852963
 30
0.0
  0
VERTEX
  5
207
  8
LAYER_1
 10
-6.441937971633251
 20
34.12688891890438
 30
0.0
  0
VERTEX
  5
208
  8
LAYER_1
 10
-6.477857758863633
 20
33.93232209447584
 30
0.0
  0
VERTEX
  5
209
  8
LAYER_1
 10
-6.503357799482851
 20
33.73828800286599
 30
0.0
  0
VERTEX
  5
20A
  8
LAYER_1
 10
-6.518629953824359
 20
33.54508556169686
 30
0.0
  0
VERTEX
  5
20B
  8
LAYER_1
 10
-6.523866082221605
 20
33.35301368859047
 30
0.0
  0
VERTEX
  5
20C
  8
LAYER_1
 10
-6.519258045008044
 20
33.16237130116883
 30
0.0
  0
VERTEX
  5
20D
  8
LAYER_1
 10
-6.504997702517123
 20
32.97345731705394
 30
0.0
  0
VERTEX
  5
20E
  8
LAYER_1
 10
-6.481276915082294
 20
32.78657065386785
 30
0.0
  0
VERTEX
  5
20F
  8
LAYER_1
 10
-6.448287543037008
 20
32.60201022923255
 30
0.0
  0
VERTEX
  5
210
  8
LAYER_1
 10
-6.406221446714715
 20
32.42007496077007
 30
0.0
  0
VERTEX
  5
211
  8
LAYER_1
 10
-6.355270486448867
 20
32.2410637661024
 30
0.0
  0
VERTEX
  5
212
  8
LAYER_1
 10
-6.295626522572915
 20
32.06527556285158
 30
0.0
  0
VERTEX
  5
213
  8
LAYER_1
 10
-6.227481415420309
 20
31.89300926863962
 30
0.0
  0
VERTEX
  5
214
  8
LAYER_1
 10
-6.1510270253245
 20
31.72456380108854
 30
0.0
  0
VERTEX
  5
215
  8
LAYER_1
 10
-6.066455212618939
 20
31.56023807782034
 30
0.0
  0
VERTEX
  5
216
  8
LAYER_1
 10
-5.973957837637076
 20
31.40033101645705
 30
0.0
  0
VERTEX
  5
217
  8
LAYER_1
 10
-5.873726760712362
 20
31.24514153462067
 30
0.0
  0
VERTEX
  5
218
  8
LAYER_1
 10
-5.765953842178249
 20
31.09496854993323
 30
0.0
  0
VERTEX
  5
219
  8
LAYER_1
 10
-5.650830942368188
 20
30.95011098001675
 30
0.0
  0
VERTEX
  5
21A
  8
LAYER_1
 10
-5.528549921615628
 20
30.81086774249323
 30
0.0
  0
VERTEX
  5
21B
  8
LAYER_1
 10
-5.399302640254021
 20
30.67753775498469
 30
0.0
  0
VERTEX
  5
21C
  8
LAYER_1
 10
-5.263280958616818
 20
30.55041993511315
 30
0.0
  0
VERTEX
  5
21D
  8
LAYER_1
 10
-5.120676737037469
 20
30.42981320050062
 30
0.0
  0
VERTEX
  5
21E
  8
LAYER_1
 10
-4.971681835849425
 20
30.31601646876912
 30
0.0
  0
VERTEX
  5
21F
  8
LAYER_1
 10
-4.816488115386137
 20
30.20932865754067
 30
0.0
  0
VERTEX
  5
220
  8
LAYER_1
 10
-4.655287435981056
 20
30.11004868443727
 30
0.0
  0
VERTEX
  5
221
  8
LAYER_1
 10
-4.488271657967633
 20
30.01847546708094
 30
0.0
  0
VERTEX
  5
222
  8
LAYER_1
 10
-4.315632641679318
 20
29.9349079230937
 30
0.0
  0
VERTEX
  5
223
  8
LAYER_1
 10
-4.137562247449563
 20
29.85964497009757
 30
0.0
  0
VERTEX
  5
224
  8
LAYER_1
 10
-3.954252335611818
 20
29.79298552571456
 30
0.0
  0
VERTEX
  5
225
  8
LAYER_1
 10
-3.765894766499533
 20
29.73522850756669
 30
0.0
  0
SEQEND
  5
226
  8
LAYER_1
  0
POLYLINE
  5
47
  8
LAYER_1
 66
     1
 10
0.0
 20
0.0
 30
0.0
 70
     1
  0
VERTEX
  5
227
  8
LAYER_1
 10
29.45120343340238
 20
-6.836315495175352
 30
0.0
  0
VERTEX
  5
228
  8
LAYER_1
 10
29.67828112346658
 20
-6.918794597592207
 30
0.0
  0
VERTEX
  5
229
  8
LAYER_1
 10
29.8995049744269
 20
-7.010614086565598
 30
0.0
  0
VERTEX
  5
22A
  8
LAYER_1
 10
30.11470843491561
 20
-7.111483976541765
 30
0.0
  0
VERTEX
  5
22B
  8
LAYER_1
 10
30.32372495356499
 20
-7.221114281966949
 30
0.0
  0
VERTEX
  5
22C
  8
LAYER_1
 10
30.52638797900732
 20
-7.339215017287391
 30
0.0
  0
VERTEX
  5
22D
  8
LAYER_1
 10
30.72253095987491
 20
-7.465496196949331
 30
0.0
  0
VERTEX
  5
22E
  8
LAYER_1
 10
30.91198734480001
 20
-7.59966783539901
 30
0.0
  0
VERTEX
  5
22F
  8
LAYER_1
 10
31.09459058241492
 20
-7.741439947082666
 30
0.0
  0
VERTEX
  5
230
  8
LAYER_1
 10
31.27017412135192
 20
-7.890522546446542
 30
0.0
  0
VERTEX
  5
231
  8
LAYER_1
 10
31.4385714102433
 20
-8.046625647936876
 30
0.0
  0
VERTEX
  5
232
  8
LAYER_1
 10
31.59961589772134
 20
-8.20945926599991
 30
0.0
  0
VERTEX
  5
233
  8
LAYER_1
 10
31.75314103241831
 20
-8.378733415081884
 30
0.0
  0
VERTEX
  5
234
  8
LAYER_1
 10
31.8989802629665
 20
-8.554158109629036
 30
0.0
  0
VERTEX
  5
235
  8
LAYER_1
 10
32.0369670379982
 20
-8.735443364087612
 30
0.0
  0
VERTEX
  5
236
  8
LAYER_1
 10
32.16693480614569
 20
-8.922299192903846
 30
0.0
  0
VERTEX
  5
237
  8
LAYER_1
 10
32.28871701604125
 20
-9.114435610523984
 30
0.0
  0
VERTEX
  5
238
  8
LAYER_1
 10
32.40214711631716
 20
-9.311562631394262
 30
0.0
  0
VERTEX
  5
239
  8
LAYER_1
 10
32.50705855560571
 20
-9.51339026996092
 30
0.0
  0
VERTEX
  5
23A
  8
LAYER_1
 10
32.60328478253918
 20
-9.7196285406702
 30
0.0
  0
VERTEX
  5
23B
  8
LAYER_1
 10
32.69065924574986
 20
-9.929987457968345
 30
0.0
  0
VERTEX
  5
23C
  8
LAYER_1
 10
32.76901539387003
 20
-10.14417703630159
 30
0.0
  0
VERTEX
  5
23D
  8
LAYER_1
 10
32.83818667553196
 20
-10.36190729011618
 30
0.0
  0
VERTEX
  5
23E
  8
LAYER_1
 10
32.89800653936796
 20
-10.58288823385835
 30
0.0
  0
VERTEX
  5
23F
  8
LAYER_1
 10
32.94830843401028
 20
-10.80682988197435
 30
0.0
  0
VERTEX
  5
240
  8
LAYER_1
 10
32.98892580809122
 20
-11.03344224891041
 30
0.0
  0
VERTEX
  5
241
  8
LAYER_1
 10
33.01969211024307
 20
-11.26243534911277
 30
0.0
  0
VERTEX
  5
242
  8
LAYER_1
 10
33.0404407890981
 20
-11.49351919702768
 30
0.0
  0
VERTEX
  5
243
  8
LAYER_1
 10
33.05100529328861
 20
-11.72640380710138
 30
0.0
  0
VERTEX
  5
244
  8
LAYER_1
 10
33.05121907144687
 20
-11.9607991937801
 30
0.0
  0
VERTEX
  5
245
  8
LAYER_1
 10
33.04091557220516
 20
-12.19641537151008
 30
0.0
  0
VERTEX
  5
246
  8
LAYER_1
 10
33.01992824419577
 20
-12.43296235473758
 30
0.0
  0
VERTEX
  5
247
  8
LAYER_1
 10
32.98809053605098
 20
-12.67015015790881
 30
0.0
  0
VERTEX
  5
248
  8
LAYER_1
 10
33.21420505632747
 20
-12.08016547991822
 30
0.0
  0
VERTEX
  5
249
  8
LAYER_1
 10
33.42895585731816
 20
-11.48864334635315
 30
0.0
  0
VERTEX
  5
24A
  8
LAYER_1
 10
33.63239646591764
 20
-10.8957052840238
 30
0.0
  0
VERTEX
  5
24B
  8
LAYER_1
 10
33.82458040902053
 20
-10.30147281974032
 30
0.0
  0
VERTEX
  5
24C
  8
LAYER_1
 10
34.00556121352142
 20
-9.706067480312893
 30
0.0
  0
VERTEX
  5
24D
  8
LAYER_1
 10
34.17539240631491
 20
-9.109610792551688
 30
0.0
  0
VERTEX
  5
24E
  8
LAYER_1
 10
34.33412751429563
 20
-8.512224283266875
 30
0.0
  0
VERTEX
  5
24F
  8
LAYER_1
 10
34.48182006435817
 20
-7.914029479268627
 30
0.0
  0
VERTEX
  5
250
  8
LAYER_1
 10
34.61852358339714
 20
-7.315147907367115
 30
0.0
  0
VERTEX
  5
251
  8
LAYER_1
 10
34.74429159830715
 20
-6.715701094372512
 30
0.0
  0
VERTEX
  5
252
  8
LAYER_1
 10
34.8591776359828
 20
-6.115810567094988
 30
0.0
  0
VERTEX
  5
253
  8
LAYER_1
 10
34.96323522331869
 20
-5.515597852344715
 30
0.0
  0
VERTEX
  5
254
  8
LAYER_1
 10
35.05651788720944
 20
-4.915184476931866
 30
0.0
  0
VERTEX
  5
255
  8
LAYER_1
 10
35.13907915454965
 20
-4.314691967666612
 30
0.0
  0
VERTEX
  5
256
  8
LAYER_1
 10
35.21097255223392
 20
-3.714241851359124
 30
0.0
  0
VERTEX
  5
257
  8
LAYER_1
 10
35.27225160715687
 20
-3.113955654819574
 30
0.0
  0
VERTEX
  5
258
  8
LAYER_1
 10
35.32296984621309
 20
-2.513954904858134
 30
0.0
  0
VERTEX
  5
259
  8
LAYER_1
 10
35.36318079629719
 20
-1.914361128284976
 30
0.0
  0
VERTEX
  5
25A
  8
LAYER_1
 10
35.39293798430379
 20
-1.315295851910271
 30
0.0
  0
VERTEX
  5
25B
  8
LAYER_1
 10
35.41229493712747
 20
-0.7168806025441897
 30
0.0
  0
VERTEX
  5
25C
  8
LAYER_1
 10
35.42130518166286
 20
-0.1192369069969053
 30
0.0
  0
VERTEX
  5
25D
  8
LAYER_1
 10
35.42002224480455
 20
0.477513707921411
 30
0.0
  0
VERTEX
  5
25E
  8
LAYER_1
 10
35.40849965344715
 20
1.073249715400588
 30
0.0
  0
VERTEX
  5
25F
  8
LAYER_1
 10
35.38679093448528
 20
1.667849588630453
 30
0.0
  0
VERTEX
  5
260
  8
LAYER_1
 10
35.35494961481352
 20
2.261191800800835
 30
0.0
  0
VERTEX
  5
261
  8
LAYER_1
 10
35.3130292213265
 20
2.853154825101562
 30
0.0
  0
VERTEX
  5
262
  8
LAYER_1
 10
35.2610832809188
 20
3.443617134722463
 30
0.0
  0
VERTEX
  5
263
  8
LAYER_1
 10
35.19916532048506
 20
4.032457202853367
 30
0.0
  0
VERTEX
  5
264
  8
LAYER_1
 10
35.12732886691985
 20
4.6195535026841
 30
0.0
  0
VERTEX
  5
265
  8
LAYER_1
 10
35.04562744711781
 20
5.204784507404493
 30
0.0
  0
VERTEX
  5
266
  8
LAYER_1
 10
34.95411458797352
 20
5.788028690204372
 30
0.0
  0
VERTEX
  5
267
  8
LAYER_1
 10
34.85284381638159
 20
6.369164524273566
 30
0.0
  0
VERTEX
  5
268
  8
LAYER_1
 10
34.63421598794363
 20
6.407220196372407
 30
0.0
  0
VERTEX
  5
269
  8
LAYER_1
 10
34.41663643671111
 20
6.432562347622389
 30
0.0
  0
VERTEX
  5
26A
  8
LAYER_1
 10
34.20047708834478
 20
6.445476302244248
 30
0.0
  0
VERTEX
  5
26B
  8
LAYER_1
 10
33.98610986850538
 20
6.446247384458723
 30
0.0
  0
VERTEX
  5
26C
  8
LAYER_1
 10
33.77390670285365
 20
6.435160918486555
 30
0.0
  0
VERTEX
  5
26D
  8
LAYER_1
 10
33.56423951705034
 20
6.412502228548483
 30
0.0
  0
VERTEX
  5
26E
  8
LAYER_1
 10
33.3574802367562
 20
6.378556638865245
 30
0.0
  0
VERTEX
  5
26F
  8
LAYER_1
 10
33.15400078763195
 20
6.333609473657578
 30
0.0
  0
VERTEX
  5
270
  8
LAYER_1
 10
32.95417309533835
 20
6.277946057146223
 30
0.0
  0
VERTEX
  5
271
  8
LAYER_1
 10
32.75836908553613
 20
6.211851713551917
 30
0.0
  0
VERTEX
  5
272
  8
LAYER_1
 10
32.56696068388604
 20
6.1356117670954
 30
0.0
  0
VERTEX
  5
273
  8
LAYER_1
 10
32.38031981604883
 20
6.049511541997411
 30
0.0
  0
VERTEX
  5
274
  8
LAYER_1
 10
32.19881840768523
 20
5.953836362478688
 30
0.0
  0
VERTEX
  5
275
  8
LAYER_1
 10
32.02282838445599
 20
5.848871552759968
 30
0.0
  0
VERTEX
  5
276
  8
LAYER_1
 10
31.85272167202185
 20
5.734902437061994
 30
0.0
  0
VERTEX
  5
277
  8
LAYER_1
 10
31.68887019604355
 20
5.612214339605501
 30
0.0
  0
VERTEX
  5
278
  8
LAYER_1
 10
31.53164588218184
 20
5.481092584611229
 30
0.0
  0
VERTEX
  5
279
  8
LAYER_1
 10
31.38142065609745
 20
5.341822496299917
 30
0.0
  0
VERTEX
  5
27A
  8
LAYER_1
 10
31.23856644345113
 20
5.194689398892304
 30
0.0
  0
VERTEX
  5
27B
  8
LAYER_1
 10
31.10345516990363
 20
5.039978616609128
 30
0.0
  0
VERTEX
  5
27C
  8
LAYER_1
 10
30.97645876111568
 20
4.877975473671128
 30
0.0
  0
VERTEX
  5
27D
  8
LAYER_1
 10
30.85794914274803
 20
4.708965294299043
 30
0.0
  0
VERTEX
  5
27E
  8
LAYER_1
 10
30.74829824046142
 20
4.533233402713612
 30
0.0
  0
VERTEX
  5
27F
  8
LAYER_1
 10
30.64787797991659
 20
4.351065123135573
 30
0.0
  0
VERTEX
  5
280
  8
LAYER_1
 10
30.55706028677429
 20
4.162745779785665
 30
0.0
  0
VERTEX
  5
281
  8
LAYER_1
 10
30.47621708669526
 20
3.968560696884627
 30
0.0
  0
VERTEX
  5
282
  8
LAYER_1
 10
30.40572030534024
 20
3.768795198653197
 30
0.0
  0
VERTEX
  5
283
  8
LAYER_1
 10
30.34594186836997
 20
3.563734609312115
 30
0.0
  0
VERTEX
  5
284
  8
LAYER_1
 10
30.2972537014452
 20
3.353664253082118
 30
0.0
  0
VERTEX
  5
285
  8
LAYER_1
 10
30.26002773022666
 20
3.138869454183946
 30
0.0
  0
VERTEX
  5
286
  8
LAYER_1
 10
30.23463588037511
 20
2.919635536838338
 30
0.0
  0
VERTEX
  5
287
  8
LAYER_1
 10
30.22145007755128
 20
2.696247825266032
 30
0.0
 42
-0.2307804522246521
  0
VERTEX
  5
288
  8
LAYER_1
 10
27.9710359868283
 20
-0.2525706384399369
 30
0.0
 42
-0.2521301444221463
  0
VERTEX
  5
289
  8
LAYER_1
 10
27.09156381344231
 20
-4.675798333998888
 30
0.0
 42
-0.1387653716168669
  0
VERTEX
  5
28A
  8
LAYER_1
 10
30.16266124278471
 20
-3.972340229372505
 30
0.0
 42
-0.6883038620047011
  0
VERTEX
  5
28B
  8
LAYER_1
 10
30.59387990014674
 20
-5.479221643213189
 30
0.0
 42
0.1227097617352809
  0
SEQEND
  5
28C
  8
LAYER_1
  0
POLYLINE
  5
48
  8
LAYER_1
 66
     1
 10
0.0
 20
0.0
 30
0.0
 70
     1
  0
VERTEX
  5
28D
  8
LAYER_1
 10
8.360986395289244
 20
7.575334173087478
 30
0.0
 42
0.3907304785894211
  0
VERTEX
  5
28E
  8
LAYER_1
 10
6.440633037872319
 20
10.25720696534215
 30
0.0
 42
-0.1630802524094357
  0
VERTEX
  5
28F
  8
LAYER_1
 10
14.1662787444956
 20
16.51827283499148
 30
0.0
 42
-0.4232646996391423
  0
VERTEX
  5
290
  8
LAYER_1
 10
20.82957379932588
 20
13.04177106725395
 30
0.0
 42
-0.4832177981506065
  0
VERTEX
  5
291
  8
LAYER_1
 10
19.08719154844317
 20
10.15095214639332
 30
0.0
 42
-0.7582375770489299
  0
VERTEX
  5
292
  8
LAYER_1
 10
18.13529225489599
 20
12.32376575122928
 30
0.0
 42
0.5824341279799243
  0
VERTEX
  5
293
  8
LAYER_1
 10
15.52791592909284
 20
12.48931345445488
 30
0.0
 42
0.2865500982318275
  0
VERTEX
  5
294
  8
LAYER_1
 10
14.70017741296485
 20
8.847263983491748
 30
0.0
 42
0.4705579793336191
  0
SEQEND
  5
295
  8
LAYER_1
  0
POLYLINE
  5
49
  8
LAYER_1
 66
     1
 10
0.0
 20
0.0
 30
0.0
 70
     1
  0
VERTEX
  5
296
  8
LAYER_1
 10
5.230527554782686
 20
9.204244663338475
 30
0.0
  0
VERTEX
  5
297
  8
LAYER_1
 10
3.626784179784726
 20
5.039685254069579
 30
0.0
  0
VERTEX
  5
298
  8
LAYER_1
 10
6.704936786635649
 20
7.85916957463051
 30
0.0
 42
0.8219637157735578
  0
SEQEND
  5
299
  8
LAYER_1
  0
POLYLINE
  5
4A
  8
LAYER_1
 66
     1
 10
0.0
 20
0.0
 30
0.0
 70
     1
  0
VERTEX
  5
29A
  8
LAYER_1
 10
9.52442110719658
 20
4.755150139150587
 30
0.0
 42
0.7380712166172089
  0
VERTEX
  5
29B
  8
LAYER_1
 10
8.33454699026261
 20
6.514094485922545
 30
0.0
  0
VERTEX
  5
29C
  8
LAYER_1
 10
4.799013084329871
 20
2.978560579989808
 30
0.0
  0
SEQEND
  5
29D
  8
LAYER_1
  0
POLYLINE
  5
4B
  8
LAYER_1
 66
     1
 10
0.0
 20
0.0
 30
0.0
 70
     1
  0
VERTEX
  5
29E
  8
LAYER_1
 10
1.068892471324105
 20
11.54172836396229
 30
0.0
 42
-0.4325297753038915
  0
VERTEX
  5
29F
  8
LAYER_1
 10
4.234992295513642
 20
10.8795375510599
 30
0.0
  0
VERTEX
  5
2A0
  8
LAYER_1
 10
4.382293196604808
 20
11.32110085860788
 30
0.0
  0
VERTEX
  5
2A1
  8
LAYER_1
 10
4.519479411124803
 20
11.77285490681394
 30
0.0
  0
VERTEX
  5
2A2
  8
LAYER_1
 10
4.646002696488766
 20
12.23361655256724
 30
0.0
  0
VERTEX
  5
2A3
  8
LAYER_1
 10
4.761314810111836
 20
12.70220265275696
 30
0.0
  0
VERTEX
  5
2A4
  8
LAYER_1
 10
4.864867509409148
 20
13.17743006427226
 30
0.0
  0
VERTEX
  5
2A5
  8
LAYER_1
 10
4.956112551795843
 20
13.6581156440023
 30
0.0
  0
VERTEX
  5
2A6
  8
LAYER_1
 10
5.034501694687057
 20
14.14307624883626
 30
0.0
  0
VERTEX
  5
2A7
  8
LAYER_1
 10
5.099486695497929
 20
14.63112873566329
 30
0.0
  0
VERTEX
  5
2A8
  8
LAYER_1
 10
5.150519311643597
 20
15.12108996137257
 30
0.0
  0
VERTEX
  5
2A9
  8
LAYER_1
 10
5.187051300539199
 20
15.61177678285326
 30
0.0
  0
VERTEX
  5
2AA
  8
LAYER_1
 10
5.208534419599872
 20
16.10200605699453
 30
0.0
  0
VERTEX
  5
2AB
  8
LAYER_1
 10
5.214420426240755
 20
16.59059464068554
 30
0.0
  0
VERTEX
  5
2AC
  8
LAYER_1
 10
5.204161077876988
 20
17.07635939081547
 30
0.0
  0
VERTEX
  5
2AD
  8
LAYER_1
 10
5.177208131923704
 20
17.55811716427347
 30
0.0
  0
VERTEX
  5
2AE
  8
LAYER_1
 10
5.133013345796046
 20
18.03468481794872
 30
0.0
  0
VERTEX
  5
2AF
  8
LAYER_1
 10
5.071028476909149
 20
18.50487920873038
 30
0.0
  0
VERTEX
  5
2B0
  8
LAYER_1
 10
4.990705282678152
 20
18.96751719350762
 30
0.0
  0
VERTEX
  5
2B1
  8
LAYER_1
 10
4.891495520518193
 20
19.4214156291696
 30
0.0
  0
VERTEX
  5
2B2
  8
LAYER_1
 10
4.772850947844411
 20
19.86539137260549
 30
0.0
  0
VERTEX
  5
2B3
  8
LAYER_1
 10
4.634223322071942
 20
20.29826128070447
 30
0.0
  0
VERTEX
  5
2B4
  8
LAYER_1
 10
4.475064400615925
 20
20.71884221035568
 30
0.0
  0
VERTEX
  5
2B5
  8
LAYER_1
 10
4.294825940891499
 20
21.12595101844831
 30
0.0
  0
VERTEX
  5
2B6
  8
LAYER_1
 10
4.0929597003138
 20
21.51840456187151
 30
0.0
  0
VERTEX
  5
2B7
  8
LAYER_1
 10
3.868917436297968
 20
21.89501969751446
 30
0.0
  0
VERTEX
  5
2B8
  8
LAYER_1
 10
3.62215090625914
 20
22.25461328226633
 30
0.0
  0
VERTEX
  5
2B9
  8
LAYER_1
 10
3.490074715673333
 20
22.42765726083596
 30
0.0
  0
VERTEX
  5
2BA
  8
LAYER_1
 10
3.352111867612454
 20
22.59600217301626
 30
0.0
  0
VERTEX
  5
2BB
  8
LAYER_1
 10
3.208193831753396
 20
22.75950012591838
 30
0.0
  0
VERTEX
  5
2BC
  8
LAYER_1
 10
3.058252077773049
 20
22.91800322665344
 30
0.0
  0
VERTEX
  5
2BD
  8
LAYER_1
 10
2.902218075348307
 20
23.07136358233261
 30
0.0
  0
VERTEX
  5
2BE
  8
LAYER_1
 10
2.740023294156061
 20
23.21943330006703
 30
0.0
  0
VERTEX
  5
2BF
  8
LAYER_1
 10
2.571599203873205
 20
23.36206448696785
 30
0.0
  0
VERTEX
  5
2C0
  8
LAYER_1
 10
2.396877274176631
 20
23.4991092501462
 30
0.0
  0
VERTEX
  5
2C1
  8
LAYER_1
 10
2.215788974743229
 20
23.63041969671324
 30
0.0
  0
VERTEX
  5
2C2
  8
LAYER_1
 10
2.028265775249894
 20
23.75584793378011
 30
0.0
  0
VERTEX
  5
2C3
  8
LAYER_1
 10
1.834239145373517
 20
23.87524606845796
 30
0.0
  0
VERTEX
  5
2C4
  8
LAYER_1
 10
1.633640554790989
 20
23.98846620785794
 30
0.0
  0
VERTEX
  5
2C5
  8
LAYER_1
 10
1.426401473179205
 20
24.09536045909118
 30
0.0
  0
VERTEX
  5
2C6
  8
LAYER_1
 10
1.212453370215055
 20
24.19578092926884
 30
0.0
 42
0.3642836725986623
  0
VERTEX
  5
2C7
  8
LAYER_1
 10
-3.982123155060623
 20
22.80181753445205
 30
0.0
 42
0.6180238735079053
  0
VERTEX
  5
2C8
  8
LAYER_1
 10
-2.343200893127216
 20
20.33515675639066
 30
0.0
 42
0.4553419273836357
  0
VERTEX
  5
2C9
  8
LAYER_1
 10
-1.453348878748988
 20
21.81886149177975
 30
0.0
 42
-0.7901842261490142
  0
VERTEX
  5
2CA
  8
LAYER_1
 10
-1.923371917747102
 20
16.77852990029194
 30
0.0
 42
-0.5110023372288798
  0
SEQEND
  5
2CB
  8
LAYER_1
  0
POLYLINE
  5
4C
  8
LAYER_1
 66
     1
 10
0.0
 20
0.0
 30
0.0
 70
     1
  0
VERTEX
  5
2CC
  8
LAYER_1
 10
11.94183494971616
 20
0.4812529542698436
 30
0.0
 42
0.2597682478346194
  0
VERTEX
  5
2CD
  8
LAYER_1
 10
15.08351648767993
 20
2.883350128073255
 30
0.0
 42
-0.1539462627995006
  0
VERTEX
  5
2CE
  8
LAYER_1
 10
16.746934636325
 20
5.678467896065683
 30
0.0
 42
-0.1667637411483401
  0
VERTEX
  5
2CF
  8
LAYER_1
 10
13.93262368148985
 20
6.688308885741826
 30
0.0
 42
0.3460602500629343
  0
VERTEX
  5
2D0
  8
LAYER_1
 10
10.32368375117184
 20
6.489651641871109
 30
0.0
 42
-0.5143394918024665
  0
VERTEX
  5
2D1
  8
LAYER_1
 10
10.40645760278464
 20
4.138874256067632
 30
0.0
 42
-0.5143728596453876
  0
SEQEND
  5
2D2
  8
LAYER_1
  0
POLYLINE
  5
4D
  8
LAYER_1
 66
     1
 10
0.0
 20
0.0
 30
0.0
 70
     1
  0
VERTEX
  5
2D3
  8
LAYER_1
 10
10.90306509913667
 20
1.159660959719675
 30
0.0
  0
VERTEX
  5
2D4
  8
LAYER_1
 10
5.90306509913667
 20
1.159660959719675
 30
0.0
  0
VERTEX
  5
2D5
  8
LAYER_1
 10
10.37802645195356
 20
2.711670677459637
 30
0.0
 42
-0.8050854376966673
  0
SEQEND
  5
2D6
  8
LAYER_1
  0
POLYLINE
  5
4E
  8
LAYER_1
 66
     1
 10
0.0
 20
0.0
 30
0.0
 70
     1
  0
VERTEX
  5
2D7
  8
LAYER_1
 10
1.014234488255791
 20
10.47171926615944
 30
0.0
  0
VERTEX
  5
2D8
  8
LAYER_1
 10
1.014234488255791
 20
5.971719266159443
 30
0.0
  0
VERTEX
  5
2D9
  8
LAYER_1
 10
3.18704809309174
 20
10.00611635083746
 30
0.0
 42
0.6568495934959273
  0
SEQEND
  5
2DA
  8
LAYER_1
  0
POLYLINE
  5
4F
  8
LAYER_1
 66
     1
 10
0.0
 20
0.0
 30
0.0
 70
     1
  0
VERTEX
  5
2DB
  8
LAYER_1
 10
10.37802645195356
 20
-3.237699907210216
 30
0.0
 42
0.8250934351641273
  0
VERTEX
  5
2DC
  8
LAYER_1
 10
10.76602888138855
 20
-1.245954102777266
 30
0.0
  0
VERTEX
  5
2DD
  8
LAYER_1
 10
5.76602888138855
 20
-1.245954102777266
 30
0.0
  0
SEQEND
  5
2DE
  8
LAYER_1
  0
POLYLINE
  5
50
  8
LAYER_1
 66
     1
 10
0.0
 20
0.0
 30
0.0
 70
     1
  0
VERTEX
  5
2DF
  8
LAYER_1
 10
-2.94339029198111
 20
10.05785000809545
 30
0.0
 42
-0.8226695918341822
  0
VERTEX
  5
2E0
  8
LAYER_1
 10
-1.106845459322155
 20
10.07435839922955
 30
0.0
  0
VERTEX
  5
2E1
  8
LAYER_1
 10
-1.106845459322155
 20
6.074358399229554
 30
0.0
  0
SEQEND
  5
2E2
  8
LAYER_1
  0
POLYLINE
  5
51
  8
LAYER_1
 66
     1
 10
0.0
 20
0.0
 30
0.0
 70
     1
  0
VERTEX
  5
2E3
  8
LAYER_1
 10
11.14823388764857
 20
-4.321034437683173
 30
0.0
 42
0.4536615898184849
  0
VERTEX
  5
2E4
  8
LAYER_1
 10
12.01735932958296
 20
-1.237708465106445
 30
0.0
 42
0.5664109227581346
  0
VERTEX
  5
2E5
  8
LAYER_1
 10
17.03014054990044
 20
1.825522214979128
 30
0.0
 42
0.79376119318128
  0
VERTEX
  5
2E6
  8
LAYER_1
 10
22.36077659376463
 20
1.113667091109066
 30
0.0
 42
-1.0
  0
VERTEX
  5
2E7
  8
LAYER_1
 10
22.47334903195804
 20
4.021346950563435
 30
0.0
 42
-0.43103095228625
  0
VERTEX
  5
2E8
  8
LAYER_1
 10
25.18800026945136
 20
0.4544561368647444
 30
0.0
  0
VERTEX
  5
2E9
  8
LAYER_1
 10
25.17154441086316
 20
0.162126967770934
 30
0.0
  0
VERTEX
  5
2EA
  8
LAYER_1
 10
25.14307814536307
 20
-0.1219174081023931
 30
0.0
  0
VERTEX
  5
2EB
  8
LAYER_1
 10
25.1028709235296
 20
-0.3977434406132688
 30
0.0
  0
VERTEX
  5
2EC
  8
LAYER_1
 10
25.05119219594123
 20
-0.665417579619725
 30
0.0
  0
VERTEX
  5
2ED
  8
LAYER_1
 10
24.98831141317645
 20
-0.9250062749797936
 30
0.0
  0
VERTEX
  5
2EE
  8
LAYER_1
 10
24.91449802581375
 20
-1.176575976551506
 30
0.0
  0
VERTEX
  5
2EF
  8
LAYER_1
 10
24.83002148443162
 20
-1.420193134192895
 30
0.0
  0
VERTEX
  5
2F0
  8
LAYER_1
 10
24.73515123960855
 20
-1.655924197761991
 30
0.0
  0
VERTEX
  5
2F1
  8
LAYER_1
 10
24.63015674192302
 20
-1.883835617116827
 30
0.0
  0
VERTEX
  5
2F2
  8
LAYER_1
 10
24.51530744195354
 20
-2.103993842115435
 30
0.0
  0
VERTEX
  5
2F3
  8
LAYER_1
 10
24.39087279027859
 20
-2.316465322615845
 30
0.0
  0
VERTEX
  5
2F4
  8
LAYER_1
 10
24.25712223747665
 20
-2.521316508476091
 30
0.0
  0
VERTEX
  5
2F5
  8
LAYER_1
 10
24.11432523412622
 20
-2.718613849554204
 30
0.0
  0
VERTEX
  5
2F6
  8
LAYER_1
 10
23.96275123080579
 20
-2.908423795708216
 30
0.0
  0
VERTEX
  5
2F7
  8
LAYER_1
 10
23.80266967809384
 20
-3.090812796796158
 30
0.0
  0
VERTEX
  5
2F8
  8
LAYER_1
 10
23.63435002656887
 20
-3.265847302676063
 30
0.0
  0
VERTEX
  5
2F9
  8
LAYER_1
 10
23.45806172680936
 20
-3.433593763205962
 30
0.0
  0
VERTEX
  5
2FA
  8
LAYER_1
 10
23.27407422939381
 20
-3.594118628243887
 30
0.0
  0
VERTEX
  5
2FB
  8
LAYER_1
 10
23.0826569849007
 20
-3.747488347647869
 30
0.0
  0
VERTEX
  5
2FC
  8
LAYER_1
 10
22.88407944390853
 20
-3.893769371275942
 30
0.0
  0
VERTEX
  5
2FD
  8
LAYER_1
 10
22.67861105699577
 20
-4.033028148986136
 30
0.0
  0
VERTEX
  5
2FE
  8
LAYER_1
 10
22.46652127474093
 20
-4.165331130636483
 30
0.0
  0
VERTEX
  5
2FF
  8
LAYER_1
 10
22.2480795477225
 20
-4.290744766085017
 30
0.0
  0
VERTEX
  5
300
  8
LAYER_1
 10
22.02355532651896
 20
-4.409335505189767
 30
0.0
  0
VERTEX
  5
301
  8
LAYER_1
 10
21.7932180617088
 20
-4.521169797808765
 30
0.0
  0
VERTEX
  5
302
  8
LAYER_1
 10
21.55733720387051
 20
-4.626314093800046
 30
0.0
  0
VERTEX
  5
303
  8
LAYER_1
 10
21.31618220358258
 20
-4.724834843021639
 30
0.0
  0
VERTEX
  5
304
  8
LAYER_1
 10
21.0700225114235
 20
-4.816798495331575
 30
0.0
  0
VERTEX
  5
305
  8
LAYER_1
 10
20.56376685380585
 20
-4.981320308648609
 30
0.0
  0
VERTEX
  5
306
  8
LAYER_1
 10
20.04072583564547
 20
-5.120411132615402
 30
0.0
  0
VERTEX
  5
307
  8
LAYER_1
 10
19.50305506157029
 20
-5.23460256609621
 30
0.0
  0
VERTEX
  5
308
  8
LAYER_1
 10
18.95291013620822
 20
-5.324426207955286
 30
0.0
  0
VERTEX
  5
309
  8
LAYER_1
 10
18.39244666418716
 20
-5.390413657056885
 30
0.0
  0
VERTEX
  5
30A
  8
LAYER_1
 10
17.82382025013505
 20
-5.433096512265262
 30
0.0
  0
VERTEX
  5
30B
  8
LAYER_1
 10
17.24918649867979
 20
-5.453006372444673
 30
0.0
  0
VERTEX
  5
30C
  8
LAYER_1
 10
16.67070101444931
 20
-5.45067483645937
 30
0.0
  0
VERTEX
  5
30D
  8
LAYER_1
 10
16.09051940207152
 20
-5.42663350317361
 30
0.0
  0
VERTEX
  5
30E
  8
LAYER_1
 10
15.51079726617433
 20
-5.381413971451646
 30
0.0
  0
VERTEX
  5
30F
  8
LAYER_1
 10
14.93369021138566
 20
-5.315547840157734
 30
0.0
  0
VERTEX
  5
310
  8
LAYER_1
 10
14.36135384233344
 20
-5.229566708156128
 30
0.0
  0
VERTEX
  5
311
  8
LAYER_1
 10
13.79594376364556
 20
-5.124002174311081
 30
0.0
  0
VERTEX
  5
312
  8
LAYER_1
 10
13.23961557994996
 20
-4.999385837486851
 30
0.0
  0
VERTEX
  5
313
  8
LAYER_1
 10
12.69452489587454
 20
-4.85624929654769
 30
0.0
  0
VERTEX
  5
314
  8
LAYER_1
 10
12.16282731604723
 20
-4.695124150357854
 30
0.0
  0
VERTEX
  5
315
  8
LAYER_1
 10
11.64667844509593
 20
-4.516541997781597
 30
0.0
  0
SEQEND
  5
316
  8
LAYER_1
  0
POLYLINE
  5
52
  8
LAYER_1
 66
     1
 10
0.0
 20
0.0
 30
0.0
 70
     1
  0
VERTEX
  5
317
  8
LAYER_1
 10
20.13670570718834
 20
-11.60681644941886
 30
0.0
 42
0.4666287071531993
  0
VERTEX
  5
318
  8
LAYER_1
 10
31.06285412007781
 20
-15.10401168005961
 30
0.0
 42
0.3733959803044478
  0
VERTEX
  5
319
  8
LAYER_1
 10
26.19989033782587
 20
-8.85458588329329
 30
0.0
 42
0.0834304311141468
  0
VERTEX
  5
31A
  8
LAYER_1
 10
16.97060588299878
 20
-8.564877402648493
 30
0.0
 42
-0.2009862721578038
  0
SEQEND
  5
31B
  8
LAYER_1
  0
POLYLINE
  5
53
  8
LAYER_1
 66
     1
 10
0.0
 20
0.0
 30
0.0
 70
     1
  0
VERTEX
  5
31C
  8
LAYER_1
 10
-13.84773117144819
 20
23.56039865396424
 30
0.0
 42
-0.3638243908092884
  0
VERTEX
  5
31D
  8
LAYER_1
 10
-7.695047313754301
 20
21.52726592372485
 30
0.0
 42
-0.3682936137997492
  0
VERTEX
  5
31E
  8
LAYER_1
 10
-4.350983708597209
 20
27.238661685008
 30
0.0
  0
VERTEX
  5
31F
  8
LAYER_1
 10
-4.657531989129295
 20
27.27197066380608
 30
0.0
  0
VERTEX
  5
320
  8
LAYER_1
 10
-4.955614883016102
 20
27.32410614910435
 30
0.0
  0
VERTEX
  5
321
  8
LAYER_1
 10
-5.244838535276042
 20
27.3943306511007
 30
0.0
  0
VERTEX
  5
322
  8
LAYER_1
 10
-5.524809090927532
 20
27.48190667999301
 30
0.0
  0
VERTEX
  5
323
  8
LAYER_1
 10
-5.795132694988987
 20
27.58609674597918
 30
0.0
  0
VERTEX
  5
324
  8
LAYER_1
 10
-6.055415492478822
 20
27.70616335925711
 30
0.0
  0
VERTEX
  5
325
  8
LAYER_1
 10
-6.305263628415455
 20
27.84136903002468
 30
0.0
  0
VERTEX
  5
326
  8
LAYER_1
 10
-6.544283247817299
 20
27.99097626847978
 30
0.0
  0
VERTEX
  5
327
  8
LAYER_1
 10
-6.772080495702772
 20
28.1542475848203
 30
0.0
  0
VERTEX
  5
328
  8
LAYER_1
 10
-6.988261517090288
 20
28.33044548924413
 30
0.0
  0
VERTEX
  5
329
  8
LAYER_1
 10
-7.192432456998262
 20
28.51883249194917
 30
0.0
  0
VERTEX
  5
32A
  8
LAYER_1
 10
-7.38419946044511
 20
28.71867110313329
 30
0.0
  0
VERTEX
  5
32B
  8
LAYER_1
 10
-7.563168672449249
 20
28.92922383299439
 30
0.0
  0
VERTEX
  5
32C
  8
LAYER_1
 10
-7.728946238029093
 20
29.14975319173037
 30
0.0
  0
VERTEX
  5
32D
  8
LAYER_1
 10
-7.881138302203058
 20
29.3795216895391
 30
0.0
  0
VERTEX
  5
32E
  8
LAYER_1
 10
-8.01935100998956
 20
29.61779183661849
 30
0.0
  0
VERTEX
  5
32F
  8
LAYER_1
 10
-8.143190506407015
 20
29.86382614316642
 30
0.0
  0
VERTEX
  5
330
  8
LAYER_1
 10
-8.252262936473837
 20
30.11688711938078
 30
0.0
  0
VERTEX
  5
331
  8
LAYER_1
 10
-8.346174445208444
 20
30.37623727545947
 30
0.0
  0
VERTEX
  5
332
  8
LAYER_1
 10
-8.424531177629248
 20
30.64113912160036
 30
0.0
  0
VERTEX
  5
333
  8
LAYER_1
 10
-8.486939278754669
 20
30.91085516800136
 30
0.0
  0
VERTEX
  5
334
  8
LAYER_1
 10
-8.533004893603119
 20
31.18464792486035
 30
0.0
  0
VERTEX
  5
335
  8
LAYER_1
 10
-8.562334167193015
 20
31.46177990237522
 30
0.0
  0
VERTEX
  5
336
  8
LAYER_1
 10
-8.57453324454277
 20
31.74151361074387
 30
0.0
  0
VERTEX
  5
337
  8
LAYER_1
 10
-8.569208270670806
 20
32.02311156016417
 30
0.0
  0
VERTEX
  5
338
  8
LAYER_1
 10
-8.545965390595532
 20
32.30583626083403
 30
0.0
  0
VERTEX
  5
339
  8
LAYER_1
 10
-8.504410749335367
 20
32.58895022295134
 30
0.0
  0
VERTEX
  5
33A
  8
LAYER_1
 10
-8.444150491908726
 20
32.87171595671397
 30
0.0
  0
VERTEX
  5
33B
  8
LAYER_1
 10
-8.364790763334025
 20
33.15339597231983
 30
0.0
  0
VERTEX
  5
33C
  8
LAYER_1
 10
-8.265937708629679
 20
33.43325277996679
 30
0.0
  0
VERTEX
  5
33D
  8
LAYER_1
 10
-8.147197472814105
 20
33.71054888985276
 30
0.0
  0
VERTEX
  5
33E
  8
LAYER_1
 10
-8.008176200905714
 20
33.98454681217563
 30
0.0
  0
VERTEX
  5
33F
  8
LAYER_1
 10
-8.915671192978746
 20
33.76002731403928
 30
0.0
  0
VERTEX
  5
340
  8
LAYER_1
 10
-9.816498969453717
 20
33.51159574361768
 30
0.0
  0
VERTEX
  5
341
  8
LAYER_1
 10
-10.71019213565059
 20
33.23941111861575
 30
0.0
  0
VERTEX
  5
342
  8
LAYER_1
 10
-11.59628329688931
 20
32.94363245673838
 30
0.0
  0
VERTEX
  5
343
  8
LAYER_1
 10
-12.47430505848985
 20
32.6244187756905
 30
0.0
  0
VERTEX
  5
344
  8
LAYER_1
 10
-13.34379002577215
 20
32.28192909317698
 30
0.0
  0
VERTEX
  5
345
  8
LAYER_1
 10
-14.20427080405619
 20
31.91632242690272
 30
0.0
  0
VERTEX
  5
346
  8
LAYER_1
 10
-15.05527999866192
 20
31.52775779457262
 30
0.0
  0
VERTEX
  5
347
  8
LAYER_1
 10
-14.75184736277576
 20
31.39701128501451
 30
0.0
  0
VERTEX
  5
348
  8
LAYER_1
 10
-14.4639686547169
 20
31.24892347095025
 30
0.0
  0
VERTEX
  5
349
  8
LAYER_1
 10
-14.19180265418671
 20
31.08446568629118
 30
0.0
  0
VERTEX
  5
34A
  8
LAYER_1
 10
-13.93550814088655
 20
30.90460926494867
 30
0.0
  0
VERTEX
  5
34B
  8
LAYER_1
 10
-13.69524389451782
 20
30.71032554083406
 30
0.0
  0
VERTEX
  5
34C
  8
LAYER_1
 10
-13.47116869478186
 20
30.5025858478587
 30
0.0
  0
VERTEX
  5
34D
  8
LAYER_1
 10
-13.26344132138006
 20
30.28236151993394
 30
0.0
  0
VERTEX
  5
34E
  8
LAYER_1
 10
-13.07222055401379
 20
30.05062389097115
 30
0.0
  0
VERTEX
  5
34F
  8
LAYER_1
 10
-12.89766517238442
 20
29.80834429488166
 30
0.0
  0
VERTEX
  5
350
  8
LAYER_1
 10
-12.73993395619332
 20
29.55649406557683
 30
0.0
  0
VERTEX
  5
351
  8
LAYER_1
 10
-12.59918568514187
 20
29.296044536968
 30
0.0
  0
VERTEX
  5
352
  8
LAYER_1
 10
-12.47557913893142
 20
29.02796704296655
 30
0.0
  0
VERTEX
  5
353
  8
LAYER_1
 10
-12.36927309726337
 20
28.7532329174838
 30
0.0
  0
VERTEX
  5
354
  8
LAYER_1
 10
-12.28042633983907
 20
28.47281349443112
 30
0.0
  0
VERTEX
  5
355
  8
LAYER_1
 10
-12.2091976463599
 20
28.18768010771985
 30
0.0
  0
VERTEX
  5
356
  8
LAYER_1
 10
-12.15574579652723
 20
27.89880409126135
 30
0.0
  0
VERTEX
  5
357
  8
LAYER_1
 10
-12.12022957004244
 20
27.60715677896697
 30
0.0
  0
VERTEX
  5
358
  8
LAYER_1
 10
-12.1028077466069
 20
27.31370950474806
 30
0.0
  0
VERTEX
  5
359
  8
LAYER_1
 10
-12.10363910592197
 20
27.01943360251597
 30
0.0
  0
VERTEX
  5
35A
  8
LAYER_1
 10
-12.12288242768902
 20
26.72530040618204
 30
0.0
  0
VERTEX
  5
35B
  8
LAYER_1
 10
-12.16069649160944
 20
26.43228124965765
 30
0.0
  0
VERTEX
  5
35C
  8
LAYER_1
 10
-12.2172400773846
 20
26.14134746685412
 30
0.0
  0
VERTEX
  5
35D
  8
LAYER_1
 10
-12.29267196471585
 20
25.85347039168283
 30
0.0
  0
VERTEX
  5
35E
  8
LAYER_1
 10
-12.38715093330459
 20
25.5696213580551
 30
0.0
  0
VERTEX
  5
35F
  8
LAYER_1
 10
-12.50083576285217
 20
25.29077169988231
 30
0.0
  0
VERTEX
  5
360
  8
LAYER_1
 10
-12.63388523305996
 20
25.01789275107579
 30
0.0
  0
VERTEX
  5
361
  8
LAYER_1
 10
-12.78645812362936
 20
24.75195584554691
 30
0.0
  0
VERTEX
  5
362
  8
LAYER_1
 10
-12.95871321426171
 20
24.493932317207
 30
0.0
  0
VERTEX
  5
363
  8
LAYER_1
 10
-13.1508092846584
 20
24.24479349996744
 30
0.0
  0
VERTEX
  5
364
  8
LAYER_1
 10
-13.36290511452079
 20
24.00551072773955
 30
0.0
  0
VERTEX
  5
365
  8
LAYER_1
 10
-13.59515948355026
 20
23.7770553344347
 30
0.0
  0
SEQEND
  5
366
  8
LAYER_1
  0
POLYLINE
  5
54
  8
LAYER_1
 66
     1
 10
0.0
 20
0.0
 30
0.0
 70
     1
  0
VERTEX
  5
367
  8
LAYER_1
 10
-6.80695564452521
 20
9.89013135600067
 30
0.0
 42
-0.3474033736219949
  0
VERTEX
  5
368
  8
LAYER_1
 10
-6.744875255815612
 20
13.90466315922139
 30
0.0
 42
0.20961695191524
  0
VERTEX
  5
369
  8
LAYER_1
 10
-5.875749813881229
 20
16.57411987373413
 30
0.0
 42
0.1958602846054343
  0
VERTEX
  5
36A
  8
LAYER_1
 10
-2.85450423001409
 20
14.54616050922058
 30
0.0
 42
-0.3730838865419433
  0
VERTEX
  5
36B
  8
LAYER_1
 10
-0.6609971622749331
 20
11.48352799954704
 30
0.0
 42
0.6316243529701748
  0
VERTEX
  5
36C
  8
LAYER_1
 10
-4.096112004206065
 20
10.03498559632306
 30
0.0
 42
0.3653689715281807
  0
SEQEND
  5
36D
  8
LAYER_1
  0
POLYLINE
  5
55
  8
LAYER_1
 66
     1
 10
0.0
 20
0.0
 30
0.0
 70
     1
  0
VERTEX
  5
36E
  8
LAYER_1
 10
8.179346018488612
 20
-6.729721772125131
 30
0.0
 42
0.8919060773480801
  0
VERTEX
  5
36F
  8
LAYER_1
 10
9.472687449938581
 20
-5.565714483820161
 30
0.0
  0
VERTEX
  5
370
  8
LAYER_1
 10
5.152927068895687
 20
-3.522235022129211
 30
0.0
  0
SEQEND
  5
371
  8
LAYER_1
  0
POLYLINE
  5
56
  8
LAYER_1
 66
     1
 10
0.0
 20
0.0
 30
0.0
 70
     1
  0
VERTEX
  5
372
  8
LAYER_1
 10
-6.642346785928016
 20
8.117837860920499
 30
0.0
  0
VERTEX
  5
373
  8
LAYER_1
 10
-3.693528322222088
 20
5.013818425440577
 30
0.0
  0
VERTEX
  5
374
  8
LAYER_1
 10
-5.038603410930055
 20
9.204244663338475
 30
0.0
 42
0.6367243223965703
  0
SEQEND
  5
375
  8
LAYER_1
  0
POLYLINE
  5
57
  8
LAYER_1
 66
     1
 10
0.0
 20
0.0
 30
0.0
 70
     1
  0
VERTEX
  5
376
  8
LAYER_1
 10
5.04945975437969
 20
-9.62680657857306
 30
0.0
 42
0.5259161828737418
  0
VERTEX
  5
377
  8
LAYER_1
 10
6.756670443893649
 20
-8.747334405187082
 30
0.0
  0
VERTEX
  5
378
  8
LAYER_1
 10
3.497450036639728
 20
-5.125978397127172
 30
0.0
  0
SEQEND
  5
379
  8
LAYER_1
  0
POLYLINE
  5
58
  8
LAYER_1
 66
     1
 10
0.0
 20
0.0
 30
0.0
 70
     1
  0
VERTEX
  5
37A
  8
LAYER_1
 10
-16.97429332412041
 20
14.4683028100564
 30
0.0
 42
-0.2370569042416259
  0
VERTEX
  5
37B
  8
LAYER_1
 10
-15.110588321401
 20
19.68952216881994
 30
0.0
 42
-0.5553441301787858
  0
VERTEX
  5
37C
  8
LAYER_1
 10
-10.35225068758768
 20
18.88628471276935
 30
0.0
 42
-0.9162666414434
  0
VERTEX
  5
37D
  8
LAYER_1
 10
-12.58780687194614
 20
17.74201898807403
 30
0.0
 42
0.6614126572204452
  0
VERTEX
  5
37E
  8
LAYER_1
 10
-9.08092710066671
 20
14.08337335986253
 30
0.0
 42
0.3734757792417333
  0
VERTEX
  5
37F
  8
LAYER_1
 10
-7.75923562503935
 20
7.625233296254592
 30
0.0
 42
0.3087297921478071
  0
VERTEX
  5
380
  8
LAYER_1
 10
-10.47007926535849
 20
6.23877128174022
 30
0.0
 42
-0.2167976793671986
  0
SEQEND
  5
381
  8
LAYER_1
  0
POLYLINE
  5
59
  8
LAYER_1
 66
     1
 10
0.0
 20
0.0
 30
0.0
 70
     1
  0
VERTEX
  5
382
  8
LAYER_1
 10
-9.358363791972948
 20
4.832750625037582
 30
0.0
 42
-0.5774569745569545
  0
VERTEX
  5
383
  8
LAYER_1
 10
-8.298184412156516
 20
6.178186307718091
 30
0.0
  0
VERTEX
  5
384
  8
LAYER_1
 10
-5.116203896817053
 20
2.996205792378627
 30
0.0
  0
SEQEND
  5
385
  8
LAYER_1
  0
POLYLINE
  5
5A
  8
LAYER_1
 66
     1
 10
0.0
 20
0.0
 30
0.0
 70
     1
  0
VERTEX
  5
386
  8
LAYER_1
 10
-23.66939461606114
 20
18.46954010856668
 30
0.0
 42
-0.1659279307086592
  0
VERTEX
  5
387
  8
LAYER_1
 10
-23.06365556995868
 20
20.85259929649914
 30
0.0
 42
-0.579469677080601
  0
VERTEX
  5
388
  8
LAYER_1
 10
-21.60153825507021
 20
20.86319434950558
 30
0.0
 42
0.0748873316831483
  0
VERTEX
  5
389
  8
LAYER_1
 10
-20.48702585100279
 20
19.25605813613774
 30
0.0
 42
-0.1629809148742805
  0
VERTEX
  5
38A
  8
LAYER_1
 10
-20.093850055842
 20
17.62127456678495
 30
0.0
 42
-0.1721959905870409
  0
VERTEX
  5
38B
  8
LAYER_1
 10
-17.7932025839215
 20
21.28329322944971
 30
0.0
 42
-0.1315510852302811
  0
VERTEX
  5
38C
  8
LAYER_1
 10
-16.03425823714952
 20
25.42198581008967
 30
0.0
  0
VERTEX
  5
38D
  8
LAYER_1
 10
-15.85749584845236
 20
25.75150254484942
 30
0.0
  0
VERTEX
  5
38E
  8
LAYER_1
 10
-15.70882805496414
 20
26.0894576504024
 30
0.0
  0
VERTEX
  5
38F
  8
LAYER_1
 10
-15.58802293871122
 20
26.43428935922208
 30
0.0
  0
VERTEX
  5
390
  8
LAYER_1
 10
-15.49484858171995
 20
26.78443590378192
 30
0.0
  0
VERTEX
  5
391
  8
LAYER_1
 10
-15.42907306601669
 20
27.13833551655539
 30
0.0
  0
VERTEX
  5
392
  8
LAYER_1
 10
-15.3904644736278
 20
27.49442643001594
 30
0.0
  0
VERTEX
  5
393
  8
LAYER_1
 10
-15.37879088657964
 20
27.85114687663704
 30
0.0
  0
VERTEX
  5
394
  8
LAYER_1
 10
-15.39382038689856
 20
28.20693508889216
 30
0.0
  0
VERTEX
  5
395
  8
LAYER_1
 10
-15.43532105661094
 20
28.56022929925475
 30
0.0
  0
VERTEX
  5
396
  8
LAYER_1
 10
-15.50306097774312
 20
28.90946774019829
 30
0.0
  0
VERTEX
  5
397
  8
LAYER_1
 10
-15.59680823232147
 20
29.25308864419622
 30
0.0
  0
VERTEX
  5
398
  8
LAYER_1
 10
-15.71633090237234
 20
29.58953024372202
 30
0.0
  0
VERTEX
  5
399
  8
LAYER_1
 10
-15.86139706992209
 20
29.91723077124915
 30
0.0
  0
VERTEX
  5
39A
  8
LAYER_1
 10
-16.03177481699708
 20
30.23462845925107
 30
0.0
  0
VERTEX
  5
39B
  8
LAYER_1
 10
-16.22723222562367
 20
30.54016154020124
 30
0.0
  0
VERTEX
  5
39C
  8
LAYER_1
 10
-16.44753737782822
 20
30.83226824657314
 30
0.0
  0
VERTEX
  5
39D
  8
LAYER_1
 10
-16.99462315671393
 20
30.53738127466282
 30
0.0
  0
VERTEX
  5
39E
  8
LAYER_1
 10
-17.53481809662814
 20
30.23388793628787
 30
0.0
  0
VERTEX
  5
39F
  8
LAYER_1
 10
-18.06806633969325
 20
29.92190798970443
 30
0.0
  0
VERTEX
  5
3A0
  8
LAYER_1
 10
-18.59431202803168
 20
29.60156119316864
 30
0.0
  0
VERTEX
  5
3A1
  8
LAYER_1
 10
-19.11349930376587
 20
29.27296730493664
 30
0.0
  0
VERTEX
  5
3A2
  8
LAYER_1
 10
-19.62557230901821
 20
28.93624608326458
 30
0.0
  0
VERTEX
  5
3A3
  8
LAYER_1
 10
-20.13047518591114
 20
28.5915172864086
 30
0.0
  0
VERTEX
  5
3A4
  8
LAYER_1
 10
-20.62815207656708
 20
28.23890067262485
 30
0.0
  0
VERTEX
  5
3A5
  8
LAYER_1
 10
-21.11854712310843
 20
27.87851600016948
 30
0.0
  0
VERTEX
  5
3A6
  8
LAYER_1
 10
-21.60160446765763
 20
27.51048302729863
 30
0.0
  0
VERTEX
  5
3A7
  8
LAYER_1
 10
-22.07726825233708
 20
27.13492151226843
 30
0.0
  0
VERTEX
  5
3A8
  8
LAYER_1
 10
-22.54548261926921
 20
26.75195121333504
 30
0.0
  0
VERTEX
  5
3A9
  8
LAYER_1
 10
-23.00619171057644
 20
26.3616918887546
 30
0.0
  0
VERTEX
  5
3AA
  8
LAYER_1
 10
-23.45933966838118
 20
25.96426329678325
 30
0.0
  0
VERTEX
  5
3AB
  8
LAYER_1
 10
-23.90487063480586
 20
25.55978519567715
 30
0.0
  0
VERTEX
  5
3AC
  8
LAYER_1
 10
-24.3427287519729
 20
25.14837734369242
 30
0.0
  0
VERTEX
  5
3AD
  8
LAYER_1
 10
-24.7728581620047
 20
24.73015949908523
 30
0.0
  0
VERTEX
  5
3AE
  8
LAYER_1
 10
-25.19520300702369
 20
24.30525142011171
 30
0.0
  0
VERTEX
  5
3AF
  8
LAYER_1
 10
-25.6097074291523
 20
23.873772865028
 30
0.0
  0
VERTEX
  5
3B0
  8
LAYER_1
 10
-26.01631557051294
 20
23.43584359209026
 30
0.0
  0
VERTEX
  5
3B1
  8
LAYER_1
 10
-26.41497157322802
 20
22.99158335955462
 30
0.0
  0
VERTEX
  5
3B2
  8
LAYER_1
 10
-26.80561957941997
 20
22.54111192567723
 30
0.0
  0
VERTEX
  5
3B3
  8
LAYER_1
 10
-27.1882037312112
 20
22.08454904871423
 30
0.0
  0
VERTEX
  5
3B4
  8
LAYER_1
 10
-27.56266817072414
 20
21.62201448692177
 30
0.0
  0
VERTEX
  5
3B5
  8
LAYER_1
 10
-27.92895704008121
 20
21.153627998556
 30
0.0
  0
VERTEX
  5
3B6
  8
LAYER_1
 10
-28.28701448140481
 20
20.67950934187305
 30
0.0
  0
VERTEX
  5
3B7
  8
LAYER_1
 10
-28.63678463681737
 20
20.19977827512908
 30
0.0
  0
VERTEX
  5
3B8
  8
LAYER_1
 10
-28.97821164844132
 20
19.71455455658022
 30
0.0
  0
VERTEX
  5
3B9
  8
LAYER_1
 10
-29.31123965839906
 20
19.22395794448262
 30
0.0
  0
VERTEX
  5
3BA
  8
LAYER_1
 10
-29.63581280881302
 20
18.72810819709242
 30
0.0
  0
VERTEX
  5
3BB
  8
LAYER_1
 10
-29.95187524180562
 20
18.22712507266578
 30
0.0
  0
VERTEX
  5
3BC
  8
LAYER_1
 10
-30.25937109949928
 20
17.72112832945883
 30
0.0
  0
VERTEX
  5
3BD
  8
LAYER_1
 10
-29.88610297139361
 20
17.94386699934092
 30
0.0
  0
VERTEX
  5
3BE
  8
LAYER_1
 10
-29.50289727517973
 20
18.14370676010287
 30
0.0
  0
VERTEX
  5
3BF
  8
LAYER_1
 10
-29.11078047824914
 20
18.32052700845075
 30
0.0
  0
VERTEX
  5
3C0
  8
LAYER_1
 10
-28.71077904799332
 20
18.47420714109068
 30
0.0
  0
VERTEX
  5
3C1
  8
LAYER_1
 10
-28.30391945180378
 20
18.60462655472874
 30
0.0
  0
VERTEX
  5
3C2
  8
LAYER_1
 10
-27.89122815707201
 20
18.71166464607101
 30
0.0
  0
VERTEX
  5
3C3
  8
LAYER_1
 10
-27.47373163118951
 20
18.79520081182361
 30
0.0
  0
VERTEX
  5
3C4
  8
LAYER_1
 10
-27.05245634154777
 20
18.85511444869262
 30
0.0
  0
VERTEX
  5
3C5
  8
LAYER_1
 10
-26.62842875553831
 20
18.89128495338414
 30
0.0
  0
VERTEX
  5
3C6
  8
LAYER_1
 10
-26.2026753405526
 20
18.90359172260425
 30
0.0
  0
VERTEX
  5
3C7
  8
LAYER_1
 10
-25.77622256398215
 20
18.89191415305905
 30
0.0
  0
VERTEX
  5
3C8
  8
LAYER_1
 10
-25.35009689321845
 20
18.85613164145463
 30
0.0
  0
VERTEX
  5
3C9
  8
LAYER_1
 10
-24.92532479565301
 20
18.7961235844971
 30
0.0
  0
VERTEX
  5
3CA
  8
LAYER_1
 10
-24.50293273867731
 20
18.71176937889253
 30
0.0
  0
VERTEX
  5
3CB
  8
LAYER_1
 10
-24.08394718968286
 20
18.60294842134702
 30
0.0
  0
SEQEND
  5
3CC
  8
LAYER_1
  0
POLYLINE
  5
5B
  8
LAYER_1
 66
     1
 10
0.0
 20
0.0
 30
0.0
 70
     1
  0
VERTEX
  5
3CD
  8
LAYER_1
 10
-10.52154289883203
 20
0.9268595020586785
 30
0.0
 42
-0.7706644714617954
  0
VERTEX
  5
3CE
  8
LAYER_1
 10
-9.72049939277894
 20
2.659937020201636
 30
0.0
  0
VERTEX
  5
3CF
  8
LAYER_1
 10
-6.021542898832031
 20
0.9268595020586785
 30
0.0
  0
SEQEND
  5
3D0
  8
LAYER_1
  0
POLYLINE
  5
5C
  8
LAYER_1
 66
     1
 10
0.0
 20
0.0
 30
0.0
 70
     1
  0
VERTEX
  5
3D1
  8
LAYER_1
 10
1.065968145513789
 20
-11.08305105640015
 30
0.0
 42
0.4653800735899483
  0
VERTEX
  5
3D2
  8
LAYER_1
 10
3.05771394994674
 20
-10.63561289510404
 30
0.0
  0
VERTEX
  5
3D3
  8
LAYER_1
 10
1.065968145513789
 20
-6.083051056400148
 30
0.0
  0
SEQEND
  5
3D4
  8
LAYER_1
  0
POLYLINE
  5
5D
  8
LAYER_1
 66
     1
 10
0.0
 20
0.0
 30
0.0
 70
     1
  0
VERTEX
  5
3D5
  8
LAYER_1
 10
12.84471540060796
 20
-21.23134741416882
 30
0.0
 42
-0.7325072618303484
  0
VERTEX
  5
3D6
  8
LAYER_1
 10
11.2720122199648
 20
-17.70518133546362
 30
0.0
 42
-0.5269200661042002
  0
VERTEX
  5
3D7
  8
LAYER_1
 10
12.94404402254332
 20
-18.30115306707577
 30
0.0
 42
0.6805488014296981
  0
VERTEX
  5
3D8
  8
LAYER_1
 10
9.281818425249586
 20
-14.69066112704003
 30
0.0
 42
0.4896161694853008
  0
VERTEX
  5
3D9
  8
LAYER_1
 10
7.976319584343983
 20
-8.489606299810008
 30
0.0
 42
0.3063263041065482
  0
VERTEX
  5
3DA
  8
LAYER_1
 10
10.757520998534
 20
-6.652026794005891
 30
0.0
  0
VERTEX
  5
3DB
  8
LAYER_1
 10
11.08149646451807
 20
-6.86072151518357
 30
0.0
  0
VERTEX
  5
3DC
  8
LAYER_1
 10
11.40210351573292
 20
-7.077574642913397
 30
0.0
  0
VERTEX
  5
3DD
  8
LAYER_1
 10
11.71887262718212
 20
-7.302409406684907
 30
0.0
  0
VERTEX
  5
3DE
  8
LAYER_1
 10
12.03133427386921
 20
-7.53504903598763
 30
0.0
  0
VERTEX
  5
3DF
  8
LAYER_1
 10
12.33901893079776
 20
-7.7753167603111
 30
0.0
  0
VERTEX
  5
3E0
  8
LAYER_1
 10
12.64145707297131
 20
-8.023035809144847
 30
0.0
  0
VERTEX
  5
3E1
  8
LAYER_1
 10
12.93817917539344
 20
-8.278029411978405
 30
0.0
  0
VERTEX
  5
3E2
  8
LAYER_1
 10
13.22871571306769
 20
-8.54012079830131
 30
0.0
  0
VERTEX
  5
3E3
  8
LAYER_1
 10
13.51259716099763
 20
-8.809133197603089
 30
0.0
  0
VERTEX
  5
3E4
  8
LAYER_1
 10
13.7893539941868
 20
-9.084889839373279
 30
0.0
  0
VERTEX
  5
3E5
  8
LAYER_1
 10
14.05851668763876
 20
-9.367213953101409
 30
0.0
  0
VERTEX
  5
3E6
  8
LAYER_1
 10
14.31961571635708
 20
-9.655928768277011
 30
0.0
  0
VERTEX
  5
3E7
  8
LAYER_1
 10
14.57218155534531
 20
-9.95085751438962
 30
0.0
  0
VERTEX
  5
3E8
  8
LAYER_1
 10
14.815744679607
 20
-10.25182342092877
 30
0.0
  0
VERTEX
  5
3E9
  8
LAYER_1
 10
15.04983556414571
 20
-10.55864971738399
 30
0.0
  0
VERTEX
  5
3EA
  8
LAYER_1
 10
15.273984683965
 20
-10.87115963324481
 30
0.0
  0
VERTEX
  5
3EB
  8
LAYER_1
 10
15.48772251406843
 20
-11.18917639800077
 30
0.0
  0
VERTEX
  5
3EC
  8
LAYER_1
 10
15.69057952945955
 20
-11.51252324114139
 30
0.0
  0
VERTEX
  5
3ED
  8
LAYER_1
 10
15.88208620514193
 20
-11.84102339215622
 30
0.0
  0
VERTEX
  5
3EE
  8
LAYER_1
 10
16.0617730161191
 20
-12.17450008053478
 30
0.0
  0
VERTEX
  5
3EF
  8
LAYER_1
 10
16.22917043739464
 20
-12.51277653576661
 30
0.0
  0
VERTEX
  5
3F0
  8
LAYER_1
 10
16.38380894397211
 20
-12.85567598734124
 30
0.0
  0
VERTEX
  5
3F1
  8
LAYER_1
 10
16.52521901085504
 20
-13.20302166474819
 30
0.0
  0
VERTEX
  5
3F2
  8
LAYER_1
 10
16.65293111304701
 20
-13.55463679747701
 30
0.0
  0
VERTEX
  5
3F3
  8
LAYER_1
 10
16.76647572555157
 20
-13.91034461501723
 30
0.0
  0
VERTEX
  5
3F4
  8
LAYER_1
 10
16.86538332337228
 20
-14.26996834685837
 30
0.0
  0
VERTEX
  5
3F5
  8
LAYER_1
 10
16.94918438151269
 20
-14.63333122248997
 30
0.0
  0
VERTEX
  5
3F6
  8
LAYER_1
 10
17.01740937497636
 20
-15.00025647140157
 30
0.0
  0
VERTEX
  5
3F7
  8
LAYER_1
 10
17.06958877876685
 20
-15.3705673230827
 30
0.0
  0
VERTEX
  5
3F8
  8
LAYER_1
 10
17.10525306788771
 20
-15.74408700702288
 30
0.0
  0
VERTEX
  5
3F9
  8
LAYER_1
 10
17.12393271734251
 20
-16.12063875271165
 30
0.0
  0
VERTEX
  5
3FA
  8
LAYER_1
 10
17.12515820213478
 20
-16.50004578963854
 30
0.0
 42
-0.4487665631676332
  0
SEQEND
  5
3FB
  8
LAYER_1
  0
POLYLINE
  5
5E
  8
LAYER_1
 66
     1
 10
0.0
 20
0.0
 30
0.0
 70
     1
  0
VERTEX
  5
3FC
  8
LAYER_1
 10
3.218484368207783
 20
-15.19075770791338
 30
0.0
 42
-0.3368738023542293
  0
VERTEX
  5
3FD
  8
LAYER_1
 10
0.9628969117590231
 20
-11.94188403211103
 30
0.0
 42
0.5266190504771621
  0
VERTEX
  5
3FE
  8
LAYER_1
 10
4.460092142399761
 20
-10.51403509179026
 30
0.0
 42
0.3748873535596275
  0
VERTEX
  5
3FF
  8
LAYER_1
 10
7.129548856912512
 20
-10.55542201759666
 30
0.0
 42
-0.2449134816505037
  0
VERTEX
  5
400
  8
LAYER_1
 10
6.819146913364518
 20
-14.21816495146299
 30
0.0
 42
0.1123873981221107
  0
VERTEX
  5
401
  8
LAYER_1
 10
5.681006453688539
 20
-16.99108898049175
 30
0.0
 42
0.252001840773125
  0
SEQEND
  5
402
  8
LAYER_1
  0
POLYLINE
  5
5F
  8
LAYER_1
 66
     1
 10
0.0
 20
0.0
 30
0.0
 70
     1
  0
VERTEX
  5
403
  8
LAYER_1
 10
16.30521930425312
 20
-25.87562236282786
 30
0.0
  0
VERTEX
  5
404
  8
LAYER_1
 10
16.19130039808067
 20
-26.03723781278081
 30
0.0
  0
VERTEX
  5
405
  8
LAYER_1
 10
16.08692818892094
 20
-26.20263123141549
 30
0.0
  0
VERTEX
  5
406
  8
LAYER_1
 10
15.99204811113392
 20
-26.37146053502109
 30
0.0
  0
VERTEX
  5
407
  8
LAYER_1
 10
15.90660559907961
 20
-26.54338363988682
 30
0.0
  0
VERTEX
  5
408
  8
LAYER_1
 10
15.83054608711802
 20
-26.71805846230186
 30
0.0
  0
VERTEX
  5
409
  8
LAYER_1
 10
15.76381500960913
 20
-26.8951429185554
 30
0.0
  0
VERTEX
  5
40A
  8
LAYER_1
 10
15.70635780091296
 20
-27.07429492493663
 30
0.0
  0
VERTEX
  5
40B
  8
LAYER_1
 10
15.6581198953895
 20
-27.25517239773475
 30
0.0
  0
VERTEX
  5
40C
  8
LAYER_1
 10
15.61904672739876
 20
-27.43743325323895
 30
0.0
  0
VERTEX
  5
40D
  8
LAYER_1
 10
15.58908373130072
 20
-27.62073540773842
 30
0.0
  0
VERTEX
  5
40E
  8
LAYER_1
 10
15.5681763414554
 20
-27.80473677752234
 30
0.0
  0
VERTEX
  5
40F
  8
LAYER_1
 10
15.55626999222279
 20
-27.98909527887993
 30
0.0
  0
VERTEX
  5
410
  8
LAYER_1
 10
15.55331011796289
 20
-28.17346882810035
 30
0.0
  0
VERTEX
  5
411
  8
LAYER_1
 10
15.5592421530357
 20
-28.35751534147282
 30
0.0
  0
VERTEX
  5
412
  8
LAYER_1
 10
15.57401153180123
 20
-28.54089273528651
 30
0.0
  0
VERTEX
  5
413
  8
LAYER_1
 10
15.59756368861947
 20
-28.72325892583062
 30
0.0
  0
VERTEX
  5
414
  8
LAYER_1
 10
15.62984405785042
 20
-28.90427182939435
 30
0.0
  0
VERTEX
  5
415
  8
LAYER_1
 10
15.67079807385408
 20
-29.08358936226688
 30
0.0
  0
VERTEX
  5
416
  8
LAYER_1
 10
15.72037117099045
 20
-29.2608694407374
 30
0.0
  0
VERTEX
  5
417
  8
LAYER_1
 10
15.77850878361954
 20
-29.43576998109511
 30
0.0
  0
VERTEX
  5
418
  8
LAYER_1
 10
15.84515634610133
 20
-29.60794889962921
 30
0.0
  0
VERTEX
  5
419
  8
LAYER_1
 10
15.92025929279584
 20
-29.77706411262887
 30
0.0
  0
VERTEX
  5
41A
  8
LAYER_1
 10
16.00376305806306
 20
-29.9427735363833
 30
0.0
  0
VERTEX
  5
41B
  8
LAYER_1
 10
16.09561307626299
 20
-30.10473508718168
 30
0.0
  0
VERTEX
  5
41C
  8
LAYER_1
 10
16.19575478175564
 20
-30.26260668131321
 30
0.0
  0
VERTEX
  5
41D
  8
LAYER_1
 10
16.30413360890099
 20
-30.41604623506707
 30
0.0
  0
VERTEX
  5
41E
  8
LAYER_1
 10
16.42069499205905
 20
-30.56471166473247
 30
0.0
  0
VERTEX
  5
41F
  8
LAYER_1
 10
16.54538436558983
 20
-30.70826088659859
 30
0.0
  0
VERTEX
  5
420
  8
LAYER_1
 10
16.67814716385331
 20
-30.84635181695462
 30
0.0
  0
VERTEX
  5
421
  8
LAYER_1
 10
16.81892882120951
 20
-30.97864237208976
 30
0.0
  0
VERTEX
  5
422
  8
LAYER_1
 10
16.96767477201843
 20
-31.1047904682932
 30
0.0
  0
VERTEX
  5
423
  8
LAYER_1
 10
17.12433045064005
 20
-31.22445402185413
 30
0.0
  0
VERTEX
  5
424
  8
LAYER_1
 10
17.62191127757298
 20
-30.94876543440479
 30
0.0
  0
VERTEX
  5
425
  8
LAYER_1
 10
18.11562070618047
 20
-30.66435881962839
 30
0.0
  0
VERTEX
  5
426
  8
LAYER_1
 10
18.60533857867613
 20
-30.37122522813416
 30
0.0
  0
VERTEX
  5
427
  8
LAYER_1
 10
19.09094473727354
 20
-30.06935571053138
 30
0.0
  0
VERTEX
  5
428
  8
LAYER_1
 10
19.57231902418629
 20
-29.7587413174293
 30
0.0
  0
VERTEX
  5
429
  8
LAYER_1
 10
20.04934128162797
 20
-29.43937309943718
 30
0.0
  0
VERTEX
  5
42A
  8
LAYER_1
 10
20.52189135181218
 20
-29.11124210716428
 30
0.0
  0
VERTEX
  5
42B
  8
LAYER_1
 10
20.98984907695251
 20
-28.77433939121986
 30
0.0
  0
VERTEX
  5
42C
  8
LAYER_1
 10
21.45309429926255
 20
-28.42865600221318
 30
0.0
  0
VERTEX
  5
42D
  8
LAYER_1
 10
21.91150686095587
 20
-28.07418299075349
 30
0.0
  0
VERTEX
  5
42E
  8
LAYER_1
 10
22.36496660424609
 20
-27.71091140745007
 30
0.0
  0
VERTEX
  5
42F
  8
LAYER_1
 10
22.81335337134679
 20
-27.33883230291216
 30
0.0
  0
VERTEX
  5
430
  8
LAYER_1
 10
23.25654700447155
 20
-26.95793672774903
 30
0.0
  0
VERTEX
  5
431
  8
LAYER_1
 10
23.69442734583398
 20
-26.56821573256993
 30
0.0
  0
VERTEX
  5
432
  8
LAYER_1
 10
24.12687423764766
 20
-26.16966036798413
 30
0.0
  0
VERTEX
  5
433
  8
LAYER_1
 10
24.55376752212617
 20
-25.76226168460088
 30
0.0
  0
VERTEX
  5
434
  8
LAYER_1
 10
24.97498704148312
 20
-25.34601073302944
 30
0.0
  0
VERTEX
  5
435
  8
LAYER_1
 10
25.3904126379321
 20
-24.92089856387908
 30
0.0
  0
VERTEX
  5
436
  8
LAYER_1
 10
25.79992415368669
 20
-24.48691622775905
 30
0.0
  0
VERTEX
  5
437
  8
LAYER_1
 10
26.20340143096049
 20
-24.04405477527861
 30
0.0
  0
VERTEX
  5
438
  8
LAYER_1
 10
26.60072431196708
 20
-23.59230525704701
 30
0.0
  0
VERTEX
  5
439
  8
LAYER_1
 10
26.99177263892006
 20
-23.13165872367353
 30
0.0
  0
VERTEX
  5
43A
  8
LAYER_1
 10
27.37642625403302
 20
-22.66210622576742
 30
0.0
  0
VERTEX
  5
43B
  8
LAYER_1
 10
27.75456499951955
 20
-22.18363881393793
 30
0.0
  0
VERTEX
  5
43C
  8
LAYER_1
 10
28.12606871759323
 20
-21.69624753879433
 30
0.0
  0
VERTEX
  5
43D
  8
LAYER_1
 10
28.49081725046767
 20
-21.19992345094588
 30
0.0
  0
VERTEX
  5
43E
  8
LAYER_1
 10
28.84869044035645
 20
-20.69465760100184
 30
0.0
  0
VERTEX
  5
43F
  8
LAYER_1
 10
29.19956812947316
 20
-20.18044103957146
 30
0.0
  0
VERTEX
  5
440
  8
LAYER_1
 10
29.5433301600314
 20
-19.657264817264
 30
0.0
  0
VERTEX
  5
441
  8
LAYER_1
 10
29.87985637424475
 20
-19.12511998468873
 30
0.0
  0
VERTEX
  5
442
  8
LAYER_1
 10
30.2090266143268
 20
-18.5839975924549
 30
0.0
  0
VERTEX
  5
443
  8
LAYER_1
 10
30.53072072249115
 20
-18.03388869117177
 30
0.0
 42
-0.2533333333333345
  0
VERTEX
  5
444
  8
LAYER_1
 10
23.69118181732043
 20
-18.92697738797676
 30
0.0
 42
-0.114259071697725
  0
VERTEX
  5
445
  8
LAYER_1
 10
23.28310672886933
 20
-21.17097650519973
 30
0.0
 42
-0.5664423227422128
  0
VERTEX
  5
446
  8
LAYER_1
 10
21.78655549170993
 20
-21.21070795397387
 30
0.0
 42
-0.1000337330184917
  0
VERTEX
  5
447
  8
LAYER_1
 10
20.23702898951833
 20
-18.20436166339702
 30
0.0
 42
-0.1789900772277125
  0
VERTEX
  5
448
  8
LAYER_1
 10
17.47284794856617
 20
-22.24088027095242
 30
0.0
 42
-0.1793029664733983
  0
SEQEND
  5
449
  8
LAYER_1
  0
POLYLINE
  5
60
  8
LAYER_1
 66
     1
 10
0.0
 20
0.0
 30
0.0
 70
     1
  0
VERTEX
  5
44A
  8
LAYER_1
 10
-10.23783596535893
 20
-3.108365764065223
 30
0.0
 42
-0.581179980410437
  0
VERTEX
  5
44B
  8
LAYER_1
 10
-10.65940729802604
 20
-1.323554588664267
 30
0.0
  0
VERTEX
  5
44C
  8
LAYER_1
 10
-5.659407298026045
 20
-1.323554588664267
 30
0.0
  0
SEQEND
  5
44D
  8
LAYER_1
  0
POLYLINE
  5
61
  8
LAYER_1
 66
     1
 10
0.0
 20
0.0
 30
0.0
 70
     1
  0
VERTEX
  5
44E
  8
LAYER_1
 10
-3.04685760649711
 20
-10.40281143744304
 30
0.0
  0
VERTEX
  5
44F
  8
LAYER_1
 10
-1.080978630693158
 20
-6.101215810426027
 30
0.0
  0
VERTEX
  5
450
  8
LAYER_1
 10
-1.080978630693158
 20
-11.10121581042603
 30
0.0
 42
-0.6180438124519668
  0
SEQEND
  5
451
  8
LAYER_1
  0
POLYLINE
  5
62
  8
LAYER_1
 66
     1
 10
0.0
 20
0.0
 30
0.0
 70
     1
  0
VERTEX
  5
452
  8
LAYER_1
 10
-6.823414586331015
 20
-8.56626660478409
 30
0.0
 42
0.559789883268484
  0
VERTEX
  5
453
  8
LAYER_1
 10
-5.245538039962055
 20
-9.911341693492055
 30
0.0
  0
VERTEX
  5
454
  8
LAYER_1
 10
-3.253792235529104
 20
-5.30704619753017
 30
0.0
  0
SEQEND
  5
455
  8
LAYER_1
  0
POLYLINE
  5
63
  8
LAYER_1
 66
     1
 10
0.0
 20
0.0
 30
0.0
 70
     1
  0
VERTEX
  5
456
  8
LAYER_1
 10
-8.375424304070977
 20
-7.014256887044126
 30
0.0
 42
-0.6054107505071011
  0
VERTEX
  5
457
  8
LAYER_1
 10
-9.43596427785995
 20
-5.539847655191162
 30
0.0
  0
VERTEX
  5
458
  8
LAYER_1
 10
-4.839890398138239
 20
-3.478722981111388
 30
0.0
  0
SEQEND
  5
459
  8
LAYER_1
  0
POLYLINE
  5
64
  8
LAYER_1
 66
     1
 10
0.0
 20
0.0
 30
0.0
 70
     1
  0
VERTEX
  5
45A
  8
LAYER_1
 10
-31.14918344213251
 20
14.51103878638305
 30
0.0
 42
0.2969852000730863
  0
VERTEX
  5
45B
  8
LAYER_1
 10
-25.66541577278461
 20
7.940864314617155
 30
0.0
 42
0.1101946922515856
  0
VERTEX
  5
45C
  8
LAYER_1
 10
-17.20696281110175
 20
8.018464800504155
 30
0.0
 42
-0.0910625269851239
  0
VERTEX
  5
45D
  8
LAYER_1
 10
-20.95765296230668
 20
12.49342615332108
 30
0.0
 42
0.4406645177287369
  0
SEQEND
  5
45E
  8
LAYER_1
  0
POLYLINE
  5
65
  8
LAYER_1
 66
     1
 10
0.0
 20
0.0
 30
0.0
 70
     1
  0
VERTEX
  5
45F
  8
LAYER_1
 10
-16.80872076954134
 20
-6.174175376564209
 30
0.0
 42
-0.253152039555006
  0
VERTEX
  5
460
  8
LAYER_1
 10
-13.77919780051291
 20
-7.068132973982434
 30
0.0
 42
0.3868519833620773
  0
VERTEX
  5
461
  8
LAYER_1
 10
-10.10403878890466
 20
-7.084687744304993
 30
0.0
 42
-0.4362003143947896
  0
VERTEX
  5
462
  8
LAYER_1
 10
-10.26130910696897
 20
-4.584917425598476
 30
0.0
 42
-0.4899604148381659
  0
VERTEX
  5
463
  8
LAYER_1
 10
-11.90850875406367
 20
-0.9925322656030202
 30
0.0
 42
0.2882628246306327
  0
VERTEX
  5
464
  8
LAYER_1
 10
-14.8552578714793
 20
-3.492302584309536
 30
0.0
 42
-0.2023501294562834
  0
SEQEND
  5
465
  8
LAYER_1
  0
POLYLINE
  5
66
  8
LAYER_1
 66
     1
 10
0.0
 20
0.0
 30
0.0
 70
     1
  0
VERTEX
  5
466
  8
LAYER_1
 10
4.161310082978318
 20
-27.74112821906255
 30
0.0
  0
VERTEX
  5
467
  8
LAYER_1
 10
4.521202319548948
 20
-27.68212631731903
 30
0.0
  0
VERTEX
  5
468
  8
LAYER_1
 10
4.873934170189465
 20
-27.65254465571676
 30
0.0
  0
VERTEX
  5
469
  8
LAYER_1
 10
5.218759348982003
 20
-27.65119003620389
 30
0.0
  0
VERTEX
  5
46A
  8
LAYER_1
 10
5.554931570008691
 20
-27.67686926072858
 30
0.0
  0
VERTEX
  5
46B
  8
LAYER_1
 10
5.881704547351662
 20
-27.72838913123897
 30
0.0
  0
VERTEX
  5
46C
  8
LAYER_1
 10
6.198331995093049
 20
-27.80455644968321
 30
0.0
  0
VERTEX
  5
46D
  8
LAYER_1
 10
6.504067627314983
 20
-27.90417801800946
 30
0.0
  0
VERTEX
  5
46E
  8
LAYER_1
 10
6.798165158099597
 20
-28.02606063816586
 30
0.0
  0
VERTEX
  5
46F
  8
LAYER_1
 10
7.079878301529021
 20
-28.16901111210057
 30
0.0
  0
VERTEX
  5
470
  8
LAYER_1
 10
7.34846077168539
 20
-28.33183624176174
 30
0.0
  0
VERTEX
  5
471
  8
LAYER_1
 10
7.603166282650832
 20
-28.51334282909751
 30
0.0
  0
VERTEX
  5
472
  8
LAYER_1
 10
7.843248548507484
 20
-28.71233767605604
 30
0.0
  0
VERTEX
  5
473
  8
LAYER_1
 10
8.067961283337473
 20
-28.92762758458548
 30
0.0
  0
VERTEX
  5
474
  8
LAYER_1
 10
8.276558201222935
 20
-29.15801935663399
 30
0.0
  0
VERTEX
  5
475
  8
LAYER_1
 10
8.468293016246001
 20
-29.4023197941497
 30
0.0
  0
VERTEX
  5
476
  8
LAYER_1
 10
8.642419442488803
 20
-29.65933569908077
 30
0.0
  0
VERTEX
  5
477
  8
LAYER_1
 10
8.798191194033473
 20
-29.92787387337536
 30
0.0
  0
VERTEX
  5
478
  8
LAYER_1
 10
8.934861984962142
 20
-30.20674111898161
 30
0.0
  0
VERTEX
  5
479
  8
LAYER_1
 10
9.051685529356941
 20
-30.49474423784767
 30
0.0
  0
VERTEX
  5
47A
  8
LAYER_1
 10
9.147915541300005
 20
-30.7906900319217
 30
0.0
  0
VERTEX
  5
47B
  8
LAYER_1
 10
9.222805734873464
 20
-31.09338530315184
 30
0.0
  0
VERTEX
  5
47C
  8
LAYER_1
 10
9.275609824159453
 20
-31.40163685348625
 30
0.0
  0
VERTEX
  5
47D
  8
LAYER_1
 10
9.3055815232401
 20
-31.71425148487308
 30
0.0
  0
VERTEX
  5
47E
  8
LAYER_1
 10
9.31197454619754
 20
-32.03003599926048
 30
0.0
  0
VERTEX
  5
47F
  8
LAYER_1
 10
9.294042607113903
 20
-32.34779719859659
 30
0.0
  0
VERTEX
  5
480
  8
LAYER_1
 10
9.251039420071322
 20
-32.66634188482957
 30
0.0
  0
VERTEX
  5
481
  8
LAYER_1
 10
9.182218699151932
 20
-32.98447685990757
 30
0.0
  0
VERTEX
  5
482
  8
LAYER_1
 10
9.08683415843786
 20
-33.30100892577875
 30
0.0
  0
VERTEX
  5
483
  8
LAYER_1
 10
8.96413951201124
 20
-33.61474488439124
 30
0.0
  0
VERTEX
  5
484
  8
LAYER_1
 10
8.813388473954204
 20
-33.92449153769321
 30
0.0
  0
VERTEX
  5
485
  8
LAYER_1
 10
8.633834758348883
 20
-34.22905568763279
 30
0.0
  0
VERTEX
  5
486
  8
LAYER_1
 10
8.424732079277412
 20
-34.52724413615816
 30
0.0
  0
VERTEX
  5
487
  8
LAYER_1
 10
9.320629327470392
 20
-34.30494922827963
 30
0.0
  0
VERTEX
  5
488
  8
LAYER_1
 10
10.21120425169434
 20
-34.05925676985349
 30
0.0
  0
VERTEX
  5
489
  8
LAYER_1
 10
11.09591977864968
 20
-33.7901428717368
 30
0.0
  0
VERTEX
  5
48A
  8
LAYER_1
 10
11.97423883503682
 20
-33.49758364478659
 30
0.0
  0
VERTEX
  5
48B
  8
LAYER_1
 10
12.84562434755617
 20
-33.18155519985994
 30
0.0
  0
VERTEX
  5
48C
  8
LAYER_1
 10
13.70953924290816
 20
-32.84203364781389
 30
0.0
  0
VERTEX
  5
48D
  8
LAYER_1
 10
14.56544644779319
 20
-32.47899509950551
 30
0.0
  0
VERTEX
  5
48E
  8
LAYER_1
 10
15.41280888891167
 20
-32.09241566579183
 30
0.0
  0
VERTEX
  5
48F
  8
LAYER_1
 10
15.09843978547078
 20
-31.97477342316847
 30
0.0
  0
VERTEX
  5
490
  8
LAYER_1
 10
14.79984221541543
 20
-31.83805907390304
 30
0.0
  0
VERTEX
  5
491
  8
LAYER_1
 10
14.51721309295993
 20
-31.68333794193492
 30
0.0
  0
VERTEX
  5
492
  8
LAYER_1
 10
14.25074933231857
 20
-31.51167535120353
 30
0.0
  0
VERTEX
  5
493
  8
LAYER_1
 10
14.00064784770564
 20
-31.32413662564824
 30
0.0
  0
VERTEX
  5
494
  8
LAYER_1
 10
13.76710555333543
 20
-31.12178708920848
 30
0.0
  0
VERTEX
  5
495
  8
LAYER_1
 10
13.55031936342224
 20
-30.90569206582363
 30
0.0
  0
VERTEX
  5
496
  8
LAYER_1
 10
13.35048619218036
 20
-30.67691687943308
 30
0.0
  0
VERTEX
  5
497
  8
LAYER_1
 10
13.16780295382408
 20
-30.43652685397625
 30
0.0
  0
VERTEX
  5
498
  8
LAYER_1
 10
13.00246656256769
 20
-30.18558731339252
 30
0.0
  0
VERTEX
  5
499
  8
LAYER_1
 10
12.8546739326255
 20
-29.92516358162131
 30
0.0
  0
VERTEX
  5
49A
  8
LAYER_1
 10
12.72462197821178
 20
-29.656320982602
 30
0.0
  0
VERTEX
  5
49B
  8
LAYER_1
 10
12.61250761354084
 20
-29.38012484027399
 30
0.0
  0
VERTEX
  5
49C
  8
LAYER_1
 10
12.51852775282696
 20
-29.09764047857668
 30
0.0
  0
VERTEX
  5
49D
  8
LAYER_1
 10
12.44287931028444
 20
-28.80993322144947
 30
0.0
  0
VERTEX
  5
49E
  8
LAYER_1
 10
12.38575920012758
 20
-28.51806839283175
 30
0.0
  0
VERTEX
  5
49F
  8
LAYER_1
 10
12.34736433657066
 20
-28.22311131666294
 30
0.0
  0
VERTEX
  5
4A0
  8
LAYER_1
 10
12.32789163382798
 20
-27.92612731688241
 30
0.0
  0
VERTEX
  5
4A1
  8
LAYER_1
 10
12.32753800611383
 20
-27.62818171742958
 30
0.0
  0
VERTEX
  5
4A2
  8
LAYER_1
 10
12.3465003676425
 20
-27.33033984224383
 30
0.0
  0
VERTEX
  5
4A3
  8
LAYER_1
 10
12.38497563262829
 20
-27.03366701526458
 30
0.0
  0
VERTEX
  5
4A4
  8
LAYER_1
 10
12.44316071528549
 20
-26.73922856043121
 30
0.0
  0
VERTEX
  5
4A5
  8
LAYER_1
 10
12.52125252982839
 20
-26.44808980168312
 30
0.0
  0
VERTEX
  5
4A6
  8
LAYER_1
 10
12.61944799047129
 20
-26.16131606295972
 30
0.0
  0
VERTEX
  5
4A7
  8
LAYER_1
 10
12.73794401142847
 20
-25.87997266820039
 30
0.0
  0
VERTEX
  5
4A8
  8
LAYER_1
 10
12.87693750691423
 20
-25.60512494134456
 30
0.0
  0
VERTEX
  5
4A9
  8
LAYER_1
 10
13.03662539114287
 20
-25.33783820633159
 30
0.0
  0
VERTEX
  5
4AA
  8
LAYER_1
 10
13.21720457832868
 20
-25.0791777871009
 30
0.0
  0
VERTEX
  5
4AB
  8
LAYER_1
 10
13.41887198268594
 20
-24.83020900759188
 30
0.0
  0
VERTEX
  5
4AC
  8
LAYER_1
 10
13.64182451842896
 20
-24.59199719174393
 30
0.0
  0
VERTEX
  5
4AD
  8
LAYER_1
 10
13.88625909977203
 20
-24.36560766349645
 30
0.0
  0
VERTEX
  5
4AE
  8
LAYER_1
 10
14.15237264092943
 20
-24.15210574678885
 30
0.0
 42
-0.4325846619341324
  0
VERTEX
  5
4AF
  8
LAYER_1
 10
7.879666698397015
 20
-21.79175763439264
 30
0.0
 42
-0.3751831949193942
  0
SEQEND
  5
4B0
  8
LAYER_1
  0
POLYLINE
  5
67
  8
LAYER_1
 66
     1
 10
0.0
 20
0.0
 30
0.0
 70
     1
  0
VERTEX
  5
4B1
  8
LAYER_1
 10
-1.648744808616033
 20
-24.70164877374983
 30
0.0
 42
0.454636233951497
  0
VERTEX
  5
4B2
  8
LAYER_1
 10
4.248892118795837
 20
-23.04617174149387
 30
0.0
 42
0.5521385486902051
  0
VERTEX
  5
4B3
  8
LAYER_1
 10
2.597926261452773
 20
-20.65085374613756
 30
0.0
 42
0.4858165256994149
  0
VERTEX
  5
4B4
  8
LAYER_1
 10
1.428232409542001
 20
-22.39691848159857
 30
0.0
 42
-0.7715055473077176
  0
VERTEX
  5
4B5
  8
LAYER_1
 10
2.454479176607798
 20
-17.15821107733554
 30
0.0
 42
-0.5171336017483328
  0
VERTEX
  5
4B6
  8
LAYER_1
 10
-0.8560558452803413
 20
-12.24293926489594
 30
0.0
 42
-0.3774336283185849
  0
VERTEX
  5
4B7
  8
LAYER_1
 10
-3.910410969792595
 20
-11.41520074876796
 30
0.0
  0
VERTEX
  5
4B8
  8
LAYER_1
 10
-4.071624387387294
 20
-11.84213057794518
 30
0.0
  0
VERTEX
  5
4B9
  8
LAYER_1
 10
-4.221767123217259
 20
-12.28122384314476
 30
0.0
  0
VERTEX
  5
4BA
  8
LAYER_1
 10
-4.360450177812956
 20
-12.73118853412965
 30
0.0
  0
VERTEX
  5
4BB
  8
LAYER_1
 10
-4.487284551704848
 20
-13.19073264066279
 30
0.0
  0
VERTEX
  5
4BC
  8
LAYER_1
 10
-4.601881245423398
 20
-13.65856415250714
 30
0.0
  0
VERTEX
  5
4BD
  8
LAYER_1
 10
-4.703851259499071
 20
-14.13339105942564
 30
0.0
  0
VERTEX
  5
4BE
  8
LAYER_1
 10
-4.79280559446233
 20
-14.61392135118124
 30
0.0
  0
VERTEX
  5
4BF
  8
LAYER_1
 10
-4.868355250843639
 20
-15.09886301753688
 30
0.0
  0
VERTEX
  5
4C0
  8
LAYER_1
 10
-4.930111229173463
 20
-15.58692404825551
 30
0.0
  0
VERTEX
  5
4C1
  8
LAYER_1
 10
-4.977684529982264
 20
-16.07681243310009
 30
0.0
  0
VERTEX
  5
4C2
  8
LAYER_1
 10
-5.010686153800506
 20
-16.56723616183355
 30
0.0
  0
VERTEX
  5
4C3
  8
LAYER_1
 10
-5.028727101158655
 20
-17.05690322421886
 30
0.0
  0
VERTEX
  5
4C4
  8
LAYER_1
 10
-5.031418372587172
 20
-17.54452161001894
 30
0.0
  0
VERTEX
  5
4C5
  8
LAYER_1
 10
-5.018370968616523
 20
-18.02879930899675
 30
0.0
  0
VERTEX
  5
4C6
  8
LAYER_1
 10
-4.98919588977717
 20
-18.50844431091525
 30
0.0
  0
VERTEX
  5
4C7
  8
LAYER_1
 10
-4.943504136599577
 20
-18.98216460553737
 30
0.0
  0
VERTEX
  5
4C8
  8
LAYER_1
 10
-4.88090670961421
 20
-19.44866818262607
 30
0.0
  0
VERTEX
  5
4C9
  8
LAYER_1
 10
-4.80101460935153
 20
-19.90666303194429
 30
0.0
  0
VERTEX
  5
4CA
  8
LAYER_1
 10
-4.703438836342003
 20
-20.35485714325497
 30
0.0
  0
VERTEX
  5
4CB
  8
LAYER_1
 10
-4.587790391116092
 20
-20.79195850632108
 30
0.0
  0
VERTEX
  5
4CC
  8
LAYER_1
 10
-4.45368027420426
 20
-21.21667511090555
 30
0.0
  0
VERTEX
  5
4CD
  8
LAYER_1
 10
-4.300719486136972
 20
-21.62771494677133
 30
0.0
  0
VERTEX
  5
4CE
  8
LAYER_1
 10
-4.128519027444692
 20
-22.02378600368138
 30
0.0
  0
VERTEX
  5
4CF
  8
LAYER_1
 10
-3.936689898657883
 20
-22.40359627139863
 30
0.0
  0
VERTEX
  5
4D0
  8
LAYER_1
 10
-3.724843100307008
 20
-22.76585373968604
 30
0.0
  0
VERTEX
  5
4D1
  8
LAYER_1
 10
-3.492589632922533
 20
-23.10926639830654
 30
0.0
  0
VERTEX
  5
4D2
  8
LAYER_1
 10
-3.239540497034921
 20
-23.43254223702311
 30
0.0
  0
VERTEX
  5
4D3
  8
LAYER_1
 10
-3.105095991068208
 20
-23.58622509571833
 30
0.0
  0
VERTEX
  5
4D4
  8
LAYER_1
 10
-2.965306693174635
 20
-23.73438924559866
 30
0.0
  0
VERTEX
  5
4D5
  8
LAYER_1
 10
-2.82012397842051
 20
-23.87687318538449
 30
0.0
  0
VERTEX
  5
4D6
  8
LAYER_1
 10
-2.669499221872139
 20
-24.01351541379617
 30
0.0
  0
VERTEX
  5
4D7
  8
LAYER_1
 10
-2.513383798595833
 20
-24.14415442955408
 30
0.0
  0
VERTEX
  5
4D8
  8
LAYER_1
 10
-2.351729083657898
 20
-24.26862873137857
 30
0.0
  0
VERTEX
  5
4D9
  8
LAYER_1
 10
-2.184486452124643
 20
-24.38677681799003
 30
0.0
  0
VERTEX
  5
4DA
  8
LAYER_1
 10
-2.011607279062375
 20
-24.49843718810881
 30
0.0
  0
VERTEX
  5
4DB
  8
LAYER_1
 10
-1.833042939537403
 20
-24.60344834045529
 30
0.0
  0
SEQEND
  5
4DC
  8
LAYER_1
  0
POLYLINE
  5
68
  8
LAYER_1
 66
     1
 10
0.0
 20
0.0
 30
0.0
 70
     1
  0
VERTEX
  5
4DD
  8
LAYER_1
 10
-22.54474458086364
 20
-4.317905318835393
 30
0.0
  0
VERTEX
  5
4DE
  8
LAYER_1
 10
-22.36146603351648
 20
-4.363315261771243
 30
0.0
  0
VERTEX
  5
4DF
  8
LAYER_1
 10
-22.18197860646734
 20
-4.391446720647473
 30
0.0
  0
VERTEX
  5
4E0
  8
LAYER_1
 10
-22.00694319809469
 20
-4.403222679258822
 30
0.0
  0
VERTEX
  5
4E1
  8
LAYER_1
 10
-21.837020706777
 20
-4.399566121400023
 30
0.0
  0
VERTEX
  5
4E2
  8
LAYER_1
 10
-21.67287203089272
 20
-4.381400030865812
 30
0.0
  0
VERTEX
  5
4E3
  8
LAYER_1
 10
-21.51515806882033
 20
-4.349647391450924
 30
0.0
  0
VERTEX
  5
4E4
  8
LAYER_1
 10
-21.36453971893828
 20
-4.305231186950094
 30
0.0
  0
VERTEX
  5
4E5
  8
LAYER_1
 10
-21.22167787962506
 20
-4.249074401158056
 30
0.0
  0
VERTEX
  5
4E6
  8
LAYER_1
 10
-21.08723344925911
 20
-4.182100017869548
 30
0.0
  0
VERTEX
  5
4E7
  8
LAYER_1
 10
-20.96186732621891
 20
-4.105231020879303
 30
0.0
  0
VERTEX
  5
4E8
  8
LAYER_1
 10
-20.84624040888292
 20
-4.019390393982056
 30
0.0
  0
VERTEX
  5
4E9
  8
LAYER_1
 10
-20.74101359562961
 20
-3.925501120972545
 30
0.0
  0
VERTEX
  5
4EA
  8
LAYER_1
 10
-20.64684778483744
 20
-3.824486185645503
 30
0.0
  0
VERTEX
  5
4EB
  8
LAYER_1
 10
-20.56440387488489
 20
-3.717268571795665
 30
0.0
  0
VERTEX
  5
4EC
  8
LAYER_1
 10
-20.49434276415041
 20
-3.604771263217767
 30
0.0
  0
VERTEX
  5
4ED
  8
LAYER_1
 10
-20.43732535101247
 20
-3.487917243706543
 30
0.0
  0
VERTEX
  5
4EE
  8
LAYER_1
 10
-20.39401253384953
 20
-3.36762949705673
 30
0.0
  0
VERTEX
  5
4EF
  8
LAYER_1
 10
-20.36506521104007
 20
-3.244831007063062
 30
0.0
  0
VERTEX
  5
4F0
  8
LAYER_1
 10
-20.35114428096254
 20
-3.120444757520274
 30
0.0
  0
VERTEX
  5
4F1
  8
LAYER_1
 10
-20.35291064199541
 20
-2.995393732223103
 30
0.0
  0
VERTEX
  5
4F2
  8
LAYER_1
 10
-20.37102519251715
 20
-2.870600914966282
 30
0.0
  0
VERTEX
  5
4F3
  8
LAYER_1
 10
-20.40614883090623
 20
-2.746989289544548
 30
0.0
  0
VERTEX
  5
4F4
  8
LAYER_1
 10
-20.4589424555411
 20
-2.625481839752634
 30
0.0
  0
VERTEX
  5
4F5
  8
LAYER_1
 10
-20.53006696480023
 20
-2.507001549385278
 30
0.0
  0
VERTEX
  5
4F6
  8
LAYER_1
 10
-20.6201832570621
 20
-2.392471402237213
 30
0.0
  0
VERTEX
  5
4F7
  8
LAYER_1
 10
-20.72995223070517
 20
-2.282814382103175
 30
0.0
  0
VERTEX
  5
4F8
  8
LAYER_1
 10
-20.86003478410789
 20
-2.178953472777899
 30
0.0
  0
VERTEX
  5
4F9
  8
LAYER_1
 10
-21.01109181564874
 20
-2.08181165805612
 30
0.0
  0
VERTEX
  5
4FA
  8
LAYER_1
 10
-21.18378422370618
 20
-1.992311921732574
 30
0.0
  0
VERTEX
  5
4FB
  8
LAYER_1
 10
-21.37877290665868
 20
-1.911377247601995
 30
0.0
  0
VERTEX
  5
4FC
  8
LAYER_1
 10
-21.5967187628847
 20
-1.83993061945912
 30
0.0
  0
VERTEX
  5
4FD
  8
LAYER_1
 10
-21.83828269076271
 20
-1.778895021098682
 30
0.0
 42
-0.7973645617355749
  0
VERTEX
  5
4FE
  8
LAYER_1
 10
-16.93807067528503
 20
-2.295403855162546
 30
0.0
 42
-0.5029929602028057
  0
VERTEX
  5
4FF
  8
LAYER_1
 10
-11.80257398659798
 20
0.5544998558661103
 30
0.0
 42
-0.479448557569568
  0
VERTEX
  5
500
  8
LAYER_1
 10
-11.10727363305047
 20
3.584022824894541
 30
0.0
  0
VERTEX
  5
501
  8
LAYER_1
 10
-11.34515202282865
 20
3.706618777480671
 30
0.0
  0
VERTEX
  5
502
  8
LAYER_1
 10
-11.58878317109056
 20
3.822426566493767
 30
0.0
  0
VERTEX
  5
503
  8
LAYER_1
 10
-11.83785483203893
 20
3.93148168262517
 30
0.0
  0
VERTEX
  5
504
  8
LAYER_1
 10
-12.0920547598765
 20
4.033819616566222
 30
0.0
  0
VERTEX
  5
505
  8
LAYER_1
 10
-12.35107070880597
 20
4.129475859008263
 30
0.0
  0
VERTEX
  5
506
  8
LAYER_1
 10
-12.61459043303008
 20
4.218485900642634
 30
0.0
  0
VERTEX
  5
507
  8
LAYER_1
 10
-13.15389222417311
 20
4.376709344253726
 30
0.0
  0
VERTEX
  5
508
  8
LAYER_1
 10
-13.70746216692737
 20
4.508773872930226
 30
0.0
  0
VERTEX
  5
509
  8
LAYER_1
 10
-14.27280229491466
 20
4.614963412202858
 30
0.0
  0
VERTEX
  5
50A
  8
LAYER_1
 10
-14.84741464175676
 20
4.695561887602347
 30
0.0
  0
VERTEX
  5
50B
  8
LAYER_1
 10
-15.42880124107546
 20
4.75085322465942
 30
0.0
  0
VERTEX
  5
50C
  8
LAYER_1
 10
-16.01446412649257
 20
4.781121348904802
 30
0.0
  0
VERTEX
  5
50D
  8
LAYER_1
 10
-16.60190533162986
 20
4.786650185869217
 30
0.0
  0
VERTEX
  5
50E
  8
LAYER_1
 10
-17.18862689010913
 20
4.767723661083392
 30
0.0
  0
VERTEX
  5
50F
  8
LAYER_1
 10
-17.77213083555217
 20
4.724625700078052
 30
0.0
  0
VERTEX
  5
510
  8
LAYER_1
 10
-18.34991920158078
 20
4.657640228383923
 30
0.0
  0
VERTEX
  5
511
  8
LAYER_1
 10
-18.91949402181674
 20
4.56705117153173
 30
0.0
  0
VERTEX
  5
512
  8
LAYER_1
 10
-19.47835732988184
 20
4.453142455052198
 30
0.0
  0
VERTEX
  5
513
  8
LAYER_1
 10
-20.02401115939788
 20
4.316198004476054
 30
0.0
  0
VERTEX
  5
514
  8
LAYER_1
 10
-20.55395754398665
 20
4.156501745334023
 30
0.0
  0
VERTEX
  5
515
  8
LAYER_1
 10
-21.06569851726994
 20
3.974337603156829
 30
0.0
  0
VERTEX
  5
516
  8
LAYER_1
 10
-21.55673611286954
 20
3.769989503475198
 30
0.0
  0
VERTEX
  5
517
  8
LAYER_1
 10
-21.79371052954477
 20
3.659585196298571
 30
0.0
  0
VERTEX
  5
518
  8
LAYER_1
 10
-22.02457236440724
 20
3.543741371819856
 30
0.0
  0
VERTEX
  5
519
  8
LAYER_1
 10
-22.24900937165969
 20
3.422493520730396
 30
0.0
  0
VERTEX
  5
51A
  8
LAYER_1
 10
-22.46670930550483
 20
3.29587713372153
 30
0.0
  0
VERTEX
  5
51B
  8
LAYER_1
 10
-22.6773599201454
 20
3.163927701484599
 30
0.0
  0
VERTEX
  5
51C
  8
LAYER_1
 10
-22.88064896978411
 20
3.026680714710942
 30
0.0
  0
VERTEX
  5
51D
  8
LAYER_1
 10
-23.07626420862369
 20
2.884171664091904
 30
0.0
  0
VERTEX
  5
51E
  8
LAYER_1
 10
-23.26389339086687
 20
2.736436040318821
 30
0.0
  0
VERTEX
  5
51F
  8
LAYER_1
 10
-23.44322427071636
 20
2.583509334083036
 30
0.0
  0
VERTEX
  5
520
  8
LAYER_1
 10
-23.61394460237489
 20
2.42542703607589
 30
0.0
  0
VERTEX
  5
521
  8
LAYER_1
 10
-23.77574214004519
 20
2.262224636988723
 30
0.0
  0
VERTEX
  5
522
  8
LAYER_1
 10
-23.92830463792997
 20
2.093937627512875
 30
0.0
  0
VERTEX
  5
523
  8
LAYER_1
 10
-24.07131985023197
 20
1.920601498339688
 30
0.0
  0
VERTEX
  5
524
  8
LAYER_1
 10
-24.2044755311539
 20
1.742251740160503
 30
0.0
  0
VERTEX
  5
525
  8
LAYER_1
 10
-24.3274594348985
 20
1.558923843666659
 30
0.0
  0
VERTEX
  5
526
  8
LAYER_1
 10
-24.43995931566848
 20
1.370653299549497
 30
0.0
  0
VERTEX
  5
527
  8
LAYER_1
 10
-24.54166292766656
 20
1.177475598500359
 30
0.0
  0
VERTEX
  5
528
  8
LAYER_1
 10
-24.63225802509549
 20
0.9794262312105848
 30
0.0
  0
VERTEX
  5
529
  8
LAYER_1
 10
-24.71143236215796
 20
0.7765406883715151
 30
0.0
  0
VERTEX
  5
52A
  8
LAYER_1
 10
-24.77887369305672
 20
0.5688544606744907
 30
0.0
  0
VERTEX
  5
52B
  8
LAYER_1
 10
-24.83426977199448
 20
0.3564030388108522
 30
0.0
  0
VERTEX
  5
52C
  8
LAYER_1
 10
-24.87730835317396
 20
0.1392219134719404
 30
0.0
  0
VERTEX
  5
52D
  8
LAYER_1
 10
-24.9076771907979
 20
-0.0826534246509042
 30
0.0
  0
VERTEX
  5
52E
  8
LAYER_1
 10
-24.92506403906902
 20
-0.3091874848663407
 30
0.0
  0
VERTEX
  5
52F
  8
LAYER_1
 10
-24.92915665219003
 20
-0.5403447764830287
 30
0.0
  0
VERTEX
  5
530
  8
LAYER_1
 10
-24.91964278436367
 20
-0.7760898088096271
 30
0.0
 42
0.3492760033809753
  0
SEQEND
  5
531
  8
LAYER_1
  0
POLYLINE
  5
69
  8
LAYER_1
 66
     1
 10
0.0
 20
0.0
 30
0.0
 70
     1
  0
VERTEX
  5
532
  8
LAYER_1
 10
-20.34216532418447
 20
-14.32649715461694
 30
0.0
  0
VERTEX
  5
533
  8
LAYER_1
 10
-20.18354450995874
 20
-14.64287910432642
 30
0.0
  0
VERTEX
  5
534
  8
LAYER_1
 10
-20.00681609134688
 20
-14.94575523906233
 30
0.0
  0
VERTEX
  5
535
  8
LAYER_1
 10
-19.81284484511669
 20
-15.23461735198905
 30
0.0
  0
VERTEX
  5
536
  8
LAYER_1
 10
-19.60249554803598
 20
-15.50895723627091
 30
0.0
  0
VERTEX
  5
537
  8
LAYER_1
 10
-19.37663297687259
 20
-15.7682666850723
 30
0.0
  0
VERTEX
  5
538
  8
LAYER_1
 10
-19.13612190839432
 20
-16.01203749155756
 30
0.0
  0
VERTEX
  5
539
  8
LAYER_1
 10
-18.881827119369
 20
-16.23976144889104
 30
0.0
  0
VERTEX
  5
53A
  8
LAYER_1
 10
-18.61461338656445
 20
-16.45093035023712
 30
0.0
  0
VERTEX
  5
53B
  8
LAYER_1
 10
-18.33534548674847
 20
-16.64503598876015
 30
0.0
  0
VERTEX
  5
53C
  8
LAYER_1
 10
-18.0448881966889
 20
-16.82157015762449
 30
0.0
  0
VERTEX
  5
53D
  8
LAYER_1
 10
-17.74410629315354
 20
-16.98002464999448
 30
0.0
  0
VERTEX
  5
53E
  8
LAYER_1
 10
-17.43386455291022
 20
-17.11989125903451
 30
0.0
  0
VERTEX
  5
53F
  8
LAYER_1
 10
-17.11502775272676
 20
-17.24066177790892
 30
0.0
  0
VERTEX
  5
540
  8
LAYER_1
 10
-16.78846066937096
 20
-17.34182799978206
 30
0.0
  0
VERTEX
  5
541
  8
LAYER_1
 10
-16.45502807961066
 20
-17.42288171781831
 30
0.0
  0
VERTEX
  5
542
  8
LAYER_1
 10
-16.11559476021366
 20
-17.48331472518201
 30
0.0
  0
VERTEX
  5
543
  8
LAYER_1
 10
-15.92469286728669
 20
-17.50559766877338
 30
0.0
  0
VERTEX
  5
544
  8
LAYER_1
 10
-15.73276912928504
 20
-17.51724459317276
 30
0.0
  0
VERTEX
  5
545
  8
LAYER_1
 10
-15.54011211612632
 20
-17.51880178210083
 30
0.0
  0
VERTEX
  5
546
  8
LAYER_1
 10
-15.34701039772815
 20
-17.51081551927824
 30
0.0
  0
VERTEX
  5
547
  8
LAYER_1
 10
-15.15375254400815
 20
-17.49383208842564
 30
0.0
  0
VERTEX
  5
548
  8
LAYER_1
 10
-14.96062712488395
 20
-17.46839777326371
 30
0.0
  0
VERTEX
  5
549
  8
LAYER_1
 10
-14.57592787009338
 20
-17.39436162489445
 30
0.0
  0
VERTEX
  5
54A
  8
LAYER_1
 10
-14.19522119269739
 20
-17.29307734393574
 30
0.0
  0
VERTEX
  5
54B
  8
LAYER_1
 10
-13.82081565203693
 20
-17.16891520015285
 30
0.0
  0
VERTEX
  5
54C
  8
LAYER_1
 10
-13.45501980745294
 20
-17.02624546331106
 30
0.0
  0
VERTEX
  5
54D
  8
LAYER_1
 10
-13.10014221828638
 20
-16.86943840317564
 30
0.0
  0
VERTEX
  5
54E
  8
LAYER_1
 10
-12.5780460284007
 20
-16.61491659614918
 30
0.0
  0
VERTEX
  5
54F
  8
LAYER_1
 10
-12.0662065409964
 20
-16.34266650354234
 30
0.0
  0
VERTEX
  5
550
  8
LAYER_1
 10
-11.56504017041226
 20
-16.05302856624301
 30
0.0
  0
VERTEX
  5
551
  8
LAYER_1
 10
-11.07496333098703
 20
-15.74634322513911
 30
0.0
  0
VERTEX
  5
552
  8
LAYER_1
 10
-10.59639243705948
 20
-15.42295092111853
 30
0.0
  0
VERTEX
  5
553
  8
LAYER_1
 10
-10.12974390296838
 20
-15.08319209506918
 30
0.0
  0
VERTEX
  5
554
  8
LAYER_1
 10
-9.675434143052478
 20
-14.72740718787894
 30
0.0
  0
VERTEX
  5
555
  8
LAYER_1
 10
-9.233879571650546
 20
-14.35593664043573
 30
0.0
  0
VERTEX
  5
556
  8
LAYER_1
 10
-8.805496603101345
 20
-13.96912089362745
 30
0.0
  0
VERTEX
  5
557
  8
LAYER_1
 10
-8.390701651743639
 20
-13.56730038834199
 30
0.0
  0
VERTEX
  5
558
  8
LAYER_1
 10
-7.989911131916189
 20
-13.15081556546726
 30
0.0
  0
VERTEX
  5
559
  8
LAYER_1
 10
-7.603541457957759
 20
-12.72000686589115
 30
0.0
  0
VERTEX
  5
55A
  8
LAYER_1
 10
-7.232009044207111
 20
-12.27521473050158
 30
0.0
  0
VERTEX
  5
55B
  8
LAYER_1
 10
-6.875730305003009
 20
-11.81677960018643
 30
0.0
  0
VERTEX
  5
55C
  8
LAYER_1
 10
-6.535121654684215
 20
-11.34504191583361
 30
0.0
  0
VERTEX
  5
55D
  8
LAYER_1
 10
-6.210599507589492
 20
-10.86034211833102
 30
0.0
 42
-0.3365184356865221
  0
VERTEX
  5
55E
  8
LAYER_1
 10
-8.086875789022598
 20
-8.03858151685073
 30
0.0
 42
-0.4961383478844864
  0
VERTEX
  5
55F
  8
LAYER_1
 10
-14.39093232785331
 20
-9.468913672719884
 30
0.0
 42
-0.7776447295085932
  0
VERTEX
  5
560
  8
LAYER_1
 10
-18.04353546489707
 20
-13.1891844334571
 30
0.0
 42
0.8632397230301938
  0
VERTEX
  5
561
  8
LAYER_1
 10
-18.57328811521897
 20
-10.63312789565389
 30
0.0
 42
0.5643912316010653
  0
SEQEND
  5
562
  8
LAYER_1
  0
POLYLINE
  5
6A
  8
LAYER_1
 66
     1
 10
0.0
 20
0.0
 30
0.0
 70
     1
  0
VERTEX
  5
563
  8
LAYER_1
 10
-30.05116000864494
 20
-3.545965392250521
 30
0.0
 42
-0.1943891402714935
  0
VERTEX
  5
564
  8
LAYER_1
 10
-27.93008006106697
 20
-0.3384786422545734
 30
0.0
 42
-0.1899378179762574
  0
VERTEX
  5
565
  8
LAYER_1
 10
-26.81780643001999
 20
4.007148567417357
 30
0.0
 42
-0.1467858434664095
  0
VERTEX
  5
566
  8
LAYER_1
 10
-30.00149569767725
 20
3.547339821708261
 30
0.0
 42
-0.6583340053221532
  0
VERTEX
  5
567
  8
LAYER_1
 10
-30.65044269432159
 20
4.87172144751304
 30
0.0
 42
-0.0465003928394777
  0
VERTEX
  5
568
  8
LAYER_1
 10
-29.35089322400067
 20
6.420420211188503
 30
0.0
  0
VERTEX
  5
569
  8
LAYER_1
 10
-29.72144887513696
 20
6.651203873492071
 30
0.0
  0
VERTEX
  5
56A
  8
LAYER_1
 10
-30.07579928431834
 20
6.901433907207521
 30
0.0
  0
VERTEX
  5
56B
  8
LAYER_1
 10
-30.4133819422302
 20
7.17022064219557
 30
0.0
  0
VERTEX
  5
56C
  8
LAYER_1
 10
-30.73363433955795
 20
7.456674408316935
 30
0.0
  0
VERTEX
  5
56D
  8
LAYER_1
 10
-31.03599396698698
 20
7.759905535432335
 30
0.0
  0
VERTEX
  5
56E
  8
LAYER_1
 10
-31.3198983152027
 20
8.079024353402486
 30
0.0
  0
VERTEX
  5
56F
  8
LAYER_1
 10
-31.5847848748905
 20
8.413141192088107
 30
0.0
  0
VERTEX
  5
570
  8
LAYER_1
 10
-31.83009113673578
 20
8.761366381349914
 30
0.0
  0
VERTEX
  5
571
  8
LAYER_1
 10
-32.05525459142395
 20
9.122810251048627
 30
0.0
  0
VERTEX
  5
572
  8
LAYER_1
 10
-32.25971272964038
 20
9.496583131044957
 30
0.0
  0
VERTEX
  5
573
  8
LAYER_1
 10
-32.4429030420705
 20
9.881795351199628
 30
0.0
  0
VERTEX
  5
574
  8
LAYER_1
 10
-32.60426301939971
 20
10.27755724137335
 30
0.0
  0
VERTEX
  5
575
  8
LAYER_1
 10
-32.74323015231339
 20
10.68297913142685
 30
0.0
  0
VERTEX
  5
576
  8
LAYER_1
 10
-32.85924193149695
 20
11.09717135122085
 30
0.0
  0
VERTEX
  5
577
  8
LAYER_1
 10
-32.95173584763579
 20
11.51924423061605
 30
0.0
  0
VERTEX
  5
578
  8
LAYER_1
 10
-33.0201493914153
 20
11.94830809947318
 30
0.0
  0
VERTEX
  5
579
  8
LAYER_1
 10
-33.21829473800081
 20
11.40173966779501
 30
0.0
  0
VERTEX
  5
57A
  8
LAYER_1
 10
-33.40747460062144
 20
10.85179570339588
 30
0.0
  0
VERTEX
  5
57B
  8
LAYER_1
 10
-33.58763603017391
 20
10.29858852512039
 30
0.0
  0
VERTEX
  5
57C
  8
LAYER_1
 10
-33.75872607755497
 20
9.742230451813095
 30
0.0
  0
VERTEX
  5
57D
  8
LAYER_1
 10
-33.92069179366133
 20
9.182833802318584
 30
0.0
  0
VERTEX
  5
57E
  8
LAYER_1
 10
-34.07348022938974
 20
8.62051089548143
 30
0.0
  0
VERTEX
  5
57F
  8
LAYER_1
 10
-34.21703843563695
 20
8.055374050146215
 30
0.0
  0
VERTEX
  5
580
  8
LAYER_1
 10
-34.35131346329966
 20
7.48753558515751
 30
0.0
  0
VERTEX
  5
581
  8
LAYER_1
 10
-34.47625236327463
 20
6.917107819359895
 30
0.0
  0
VERTEX
  5
582
  8
LAYER_1
 10
-34.59180218645857
 20
6.344203071597948
 30
0.0
  0
VERTEX
  5
583
  8
LAYER_1
 10
-34.69790998374823
 20
5.768933660716246
 30
0.0
  0
VERTEX
  5
584
  8
LAYER_1
 10
-34.79452280604035
 20
5.191411905559365
 30
0.0
  0
VERTEX
  5
585
  8
LAYER_1
 10
-34.88158770423164
 20
4.611750124971882
 30
0.0
  0
VERTEX
  5
586
  8
LAYER_1
 10
-34.95905172921885
 20
4.030060637798375
 30
0.0
  0
VERTEX
  5
587
  8
LAYER_1
 10
-35.02686193189871
 20
3.44645576288342
 30
0.0
  0
VERTEX
  5
588
  8
LAYER_1
 10
-35.08496536316795
 20
2.861047819071596
 30
0.0
  0
VERTEX
  5
589
  8
LAYER_1
 10
-35.13330907392331
 20
2.273949125207478
 30
0.0
  0
VERTEX
  5
58A
  8
LAYER_1
 10
-35.17184011506153
 20
1.685272000135645
 30
0.0
  0
VERTEX
  5
58B
  8
LAYER_1
 10
-35.20050553747933
 20
1.095128762700674
 30
0.0
  0
VERTEX
  5
58C
  8
LAYER_1
 10
-35.21925239207344
 20
0.503631731747141
 30
0.0
  0
VERTEX
  5
58D
  8
LAYER_1
 10
-35.22802772974062
 20
-0.0891067738803761
 30
0.0
  0
VERTEX
  5
58E
  8
LAYER_1
 10
-35.22677860137757
 20
-0.6829744353373002
 30
0.0
  0
VERTEX
  5
58F
  8
LAYER_1
 10
-35.21545205788104
 20
-1.277858933779054
 30
0.0
  0
VERTEX
  5
590
  8
LAYER_1
 10
-35.19399515014777
 20
-1.873647950361061
 30
0.0
  0
VERTEX
  5
591
  8
LAYER_1
 10
-35.16235492907449
 20
-2.470229166238743
 30
0.0
  0
VERTEX
  5
592
  8
LAYER_1
 10
-35.12047844555792
 20
-3.067490262567523
 30
0.0
  0
VERTEX
  5
593
  8
LAYER_1
 10
-35.0683127504948
 20
-3.665318920502825
 30
0.0
  0
VERTEX
  5
594
  8
LAYER_1
 10
-35.00580489478188
 20
-4.263602821200071
 30
0.0
  0
VERTEX
  5
595
  8
LAYER_1
 10
-34.93290192931588
 20
-4.862229645814684
 30
0.0
  0
VERTEX
  5
596
  8
LAYER_1
 10
-34.84955090499354
 20
-5.461087075502085
 30
0.0
  0
VERTEX
  5
597
  8
LAYER_1
 10
-34.75569887271158
 20
-6.060062791417701
 30
0.0
  0
VERTEX
  5
598
  8
LAYER_1
 10
-34.65129288336674
 20
-6.659044474716952
 30
0.0
  0
VERTEX
  5
599
  8
LAYER_1
 10
-34.45099466179295
 20
-6.697439189682001
 30
0.0
  0
VERTEX
  5
59A
  8
LAYER_1
 10
-34.25123954996744
 20
-6.72499644789473
 30
0.0
  0
VERTEX
  5
59B
  8
LAYER_1
 10
-34.05233803736206
 20
-6.741924650280098
 30
0.0
  0
VERTEX
  5
59C
  8
LAYER_1
 10
-33.85460061344871
 20
-6.748432197763067
 30
0.0
  0
VERTEX
  5
59D
  8
LAYER_1
 10
-33.65833776769926
 20
-6.744727491268598
 30
0.0
  0
VERTEX
  5
59E
  8
LAYER_1
 10
-33.46385998958557
 20
-6.731018931721648
 30
0.0
  0
VERTEX
  5
59F
  8
LAYER_1
 10
-33.27147776857954
 20
-6.70751492004718
 30
0.0
  0
VERTEX
  5
5A0
  8
LAYER_1
 10
-33.08150159415302
 20
-6.674423857170153
 30
0.0
  0
VERTEX
  5
5A1
  8
LAYER_1
 10
-32.89424195577789
 20
-6.631954144015526
 30
0.0
  0
VERTEX
  5
5A2
  8
LAYER_1
 10
-32.71000934292603
 20
-6.580314181508262
 30
0.0
  0
VERTEX
  5
5A3
  8
LAYER_1
 10
-32.5291142450693
 20
-6.519712370573321
 30
0.0
  0
VERTEX
  5
5A4
  8
LAYER_1
 10
-32.35186715167959
 20
-6.450357112135661
 30
0.0
  0
VERTEX
  5
5A5
  8
LAYER_1
 10
-32.17857855222878
 20
-6.372456807120244
 30
0.0
  0
VERTEX
  5
5A6
  8
LAYER_1
 10
-32.00955893618872
 20
-6.28621985645203
 30
0.0
  0
VERTEX
  5
5A7
  8
LAYER_1
 10
-31.8451187930313
 20
-6.191854661055978
 30
0.0
  0
VERTEX
  5
5A8
  8
LAYER_1
 10
-31.68556861222839
 20
-6.08956962185705
 30
0.0
  0
VERTEX
  5
5A9
  8
LAYER_1
 10
-31.53121888325187
 20
-5.979573139780205
 30
0.0
  0
VERTEX
  5
5AA
  8
LAYER_1
 10
-31.38238009557361
 20
-5.862073615750404
 30
0.0
  0
VERTEX
  5
5AB
  8
LAYER_1
 10
-31.23936273866548
 20
-5.737279450692608
 30
0.0
  0
VERTEX
  5
5AC
  8
LAYER_1
 10
-31.10247730199936
 20
-5.605399045531774
 30
0.0
  0
VERTEX
  5
5AD
  8
LAYER_1
 10
-30.97203427504713
 20
-5.466640801192867
 30
0.0
  0
VERTEX
  5
5AE
  8
LAYER_1
 10
-30.84834414728066
 20
-5.321213118600843
 30
0.0
  0
VERTEX
  5
5AF
  8
LAYER_1
 10
-30.73171740817181
 20
-5.169324398680663
 30
0.0
  0
VERTEX
  5
5B0
  8
LAYER_1
 10
-30.62246454719248
 20
-5.01118304235729
 30
0.0
  0
VERTEX
  5
5B1
  8
LAYER_1
 10
-30.52089605381453
 20
-4.846997450555682
 30
0.0
  0
VERTEX
  5
5B2
  8
LAYER_1
 10
-30.42732241750983
 20
-4.6769760242008
 30
0.0
  0
VERTEX
  5
5B3
  8
LAYER_1
 10
-30.34205412775026
 20
-4.501327164217604
 30
0.0
  0
VERTEX
  5
5B4
  8
LAYER_1
 10
-30.26540167400769
 20
-4.320259271531055
 30
0.0
  0
VERTEX
  5
5B5
  8
LAYER_1
 10
-30.197675545754
 20
-4.133980747066111
 30
0.0
  0
VERTEX
  5
5B6
  8
LAYER_1
 10
-30.13918623246106
 20
-3.942699991747734
 30
0.0
  0
VERTEX
  5
5B7
  8
LAYER_1
 10
-30.09024422360075
 20
-3.746625406500883
 30
0.0
  0
SEQEND
  5
5B8
  8
LAYER_1
  0
POLYLINE
  5
6B
  8
LAYER_1
 66
     1
 10
0.0
 20
0.0
 30
0.0
 70
     1
  0
VERTEX
  5
5B9
  8
LAYER_1
 10
-5.315704772652369
 20
-30.96215175948433
 30
0.0
 42
0.2393513513513505
  0
VERTEX
  5
5BA
  8
LAYER_1
 10
-6.451494454942549
 20
-29.79245790757355
 30
0.0
  0
VERTEX
  5
5BB
  8
LAYER_1
 10
-6.679374489976971
 20
-30.17538692114083
 30
0.0
  0
VERTEX
  5
5BC
  8
LAYER_1
 10
-6.929008219341799
 20
-30.54051477616381
 30
0.0
  0
VERTEX
  5
5BD
  8
LAYER_1
 10
-7.199318136169014
 20
-30.88717603906652
 30
0.0
  0
VERTEX
  5
5BE
  8
LAYER_1
 10
-7.489226733590598
 20
-31.21470527627304
 30
0.0
  0
VERTEX
  5
5BF
  8
LAYER_1
 10
-7.797656504738535
 20
-31.52243705420739
 30
0.0
  0
VERTEX
  5
5C0
  8
LAYER_1
 10
-8.123529942744806
 20
-31.80970593929365
 30
0.0
  0
VERTEX
  5
5C1
  8
LAYER_1
 10
-8.465769540741395
 20
-32.07584649795586
 30
0.0
  0
VERTEX
  5
5C2
  8
LAYER_1
 10
-8.823297791860282
 20
-32.32019329661807
 30
0.0
  0
VERTEX
  5
5C3
  8
LAYER_1
 10
-9.19503718923345
 20
-32.54208090170434
 30
0.0
  0
VERTEX
  5
5C4
  8
LAYER_1
 10
-9.579910225992885
 20
-32.74084387963872
 30
0.0
  0
VERTEX
  5
5C5
  8
LAYER_1
 10
-9.976839395270563
 20
-32.91581679684526
 30
0.0
  0
VERTEX
  5
5C6
  8
LAYER_1
 10
-10.38474719019847
 20
-33.06633421974802
 30
0.0
  0
VERTEX
  5
5C7
  8
LAYER_1
 10
-10.80255610390859
 20
-33.19173071477105
 30
0.0
  0
VERTEX
  5
5C8
  8
LAYER_1
 10
-11.2291886295329
 20
-33.29134084833839
 30
0.0
  0
VERTEX
  5
5C9
  8
LAYER_1
 10
-11.66356726020339
 20
-33.3644991868741
 30
0.0
  0
VERTEX
  5
5CA
  8
LAYER_1
 10
-12.10461448905203
 20
-33.41054029680224
 30
0.0
  0
VERTEX
  5
5CB
  8
LAYER_1
 10
-11.54021496021134
 20
-33.60433736506661
 30
0.0
  0
VERTEX
  5
5CC
  8
LAYER_1
 10
-10.97283888063135
 20
-33.78872145735605
 30
0.0
  0
VERTEX
  5
5CD
  8
LAYER_1
 10
-10.40263299832706
 20
-33.96368149602357
 30
0.0
  0
VERTEX
  5
5CE
  8
LAYER_1
 10
-9.829744061313443
 20
-34.12920640342217
 30
0.0
  0
VERTEX
  5
5CF
  8
LAYER_1
 10
-9.254318817605501
 20
-34.28528510190485
 30
0.0
  0
VERTEX
  5
5D0
  8
LAYER_1
 10
-8.676504015218221
 20
-34.43190651382463
 30
0.0
  0
VERTEX
  5
5D1
  8
LAYER_1
 10
-8.096446402166592
 20
-34.56905956153451
 30
0.0
  0
VERTEX
  5
5D2
  8
LAYER_1
 10
-7.514292726465603
 20
-34.69673316738749
 30
0.0
  0
VERTEX
  5
5D3
  8
LAYER_1
 10
-6.930189736130242
 20
-34.81491625373657
 30
0.0
  0
VERTEX
  5
5D4
  8
LAYER_1
 10
-6.344284179175499
 20
-34.92359774293477
 30
0.0
  0
VERTEX
  5
5D5
  8
LAYER_1
 10
-5.756722803616364
 20
-35.0227665573351
 30
0.0
  0
VERTEX
  5
5D6
  8
LAYER_1
 10
-5.167652357467826
 20
-35.11241161929055
 30
0.0
  0
VERTEX
  5
5D7
  8
LAYER_1
 10
-4.577219588744875
 20
-35.19252185115413
 30
0.0
  0
VERTEX
  5
5D8
  8
LAYER_1
 10
-3.985571245462499
 20
-35.26308617527886
 30
0.0
  0
VERTEX
  5
5D9
  8
LAYER_1
 10
-3.392854075635689
 20
-35.32409351401772
 30
0.0
  0
VERTEX
  5
5DA
  8
LAYER_1
 10
-2.799214827279433
 20
-35.37553278972373
 30
0.0
  0
VERTEX
  5
5DB
  8
LAYER_1
 10
-2.20480024840872
 20
-35.4173929247499
 30
0.0
  0
VERTEX
  5
5DC
  8
LAYER_1
 10
-1.60975708703854
 20
-35.44966284144922
 30
0.0
  0
VERTEX
  5
5DD
  8
LAYER_1
 10
-1.014232091183883
 20
-35.47233146217471
 30
0.0
  0
VERTEX
  5
5DE
  8
LAYER_1
 10
-0.418372008859738
 20
-35.48538770927937
 30
0.0
  0
VERTEX
  5
5DF
  8
LAYER_1
 10
0.1776764119189065
 20
-35.48882050511619
 30
0.0
  0
VERTEX
  5
5E0
  8
LAYER_1
 10
0.7737664231370606
 20
-35.48261877203822
 30
0.0
  0
VERTEX
  5
5E1
  8
LAYER_1
 10
1.369751276779735
 20
-35.46677143239842
 30
0.0
  0
VERTEX
  5
5E2
  8
LAYER_1
 10
1.96548422483194
 20
-35.44126740854982
 30
0.0
  0
VERTEX
  5
5E3
  8
LAYER_1
 10
2.560818519278688
 20
-35.40609562284541
 30
0.0
  0
VERTEX
  5
5E4
  8
LAYER_1
 10
3.155607412104987
 20
-35.36124499763821
 30
0.0
  0
VERTEX
  5
5E5
  8
LAYER_1
 10
3.74970415529585
 20
-35.30670445528122
 30
0.0
  0
VERTEX
  5
5E6
  8
LAYER_1
 10
4.342962000836286
 20
-35.24246291812744
 30
0.0
  0
VERTEX
  5
5E7
  8
LAYER_1
 10
4.935234200711307
 20
-35.16850930852989
 30
0.0
  0
VERTEX
  5
5E8
  8
LAYER_1
 10
5.526374006905922
 20
-35.08483254884156
 30
0.0
  0
VERTEX
  5
5E9
  8
LAYER_1
 10
6.116234671405144
 20
-34.99142156141546
 30
0.0
  0
VERTEX
  5
5EA
  8
LAYER_1
 10
6.704669446193982
 20
-34.8882652686046
 30
0.0
  0
VERTEX
  5
5EB
  8
LAYER_1
 10
6.718579318138783
 20
-34.70745786116041
 30
0.0
  0
VERTEX
  5
5EC
  8
LAYER_1
 10
6.724648965855692
 20
-34.52754279328259
 30
0.0
  0
VERTEX
  5
5ED
  8
LAYER_1
 10
6.723003162156798
 20
-34.34871669158544
 30
0.0
  0
VERTEX
  5
5EE
  8
LAYER_1
 10
6.713766679854183
 20
-34.17117618268325
 30
0.0
  0
VERTEX
  5
5EF
  8
LAYER_1
 10
6.673020770686138
 20
-33.82073844972091
 30
0.0
  0
VERTEX
  5
5F0
  8
LAYER_1
 10
6.603409420848243
 20
-33.47780260730987
 30
0.0
  0
VERTEX
  5
5F1
  8
LAYER_1
 10
6.505930812837182
 20
-33.14394166836445
 30
0.0
  0
VERTEX
  5
5F2
  8
LAYER_1
 10
6.381583129149641
 20
-32.82072864579896
 30
0.0
  0
VERTEX
  5
5F3
  8
LAYER_1
 10
6.231364552282306
 20
-32.50973655252773
 30
0.0
  0
VERTEX
  5
5F4
  8
LAYER_1
 10
6.056273264731862
 20
-32.21253840146506
 30
0.0
  0
VERTEX
  5
5F5
  8
LAYER_1
 10
5.857307448994995
 20
-31.93070720552528
 30
0.0
  0
VERTEX
  5
5F6
  8
LAYER_1
 10
5.635465287568388
 20
-31.6658159776227
 30
0.0
  0
VERTEX
  5
5F7
  8
LAYER_1
 10
5.391744962948728
 20
-31.41943773067162
 30
0.0
  0
VERTEX
  5
5F8
  8
LAYER_1
 10
5.1271446576327
 20
-31.19314547758639
 30
0.0
  0
VERTEX
  5
5F9
  8
LAYER_1
 10
4.842662554116989
 20
-30.9885122312813
 30
0.0
  0
VERTEX
  5
5FA
  8
LAYER_1
 10
4.693277760064467
 20
-30.89480930220703
 30
0.0
  0
VERTEX
  5
5FB
  8
LAYER_1
 10
4.539296834898281
 20
-30.80711100467067
 30
0.0
  0
VERTEX
  5
5FC
  8
LAYER_1
 10
4.380844551430515
 20
-30.7256139652865
 30
0.0
  0
VERTEX
  5
5FD
  8
LAYER_1
 10
4.218045682473259
 20
-30.65051481066881
 30
0.0
  0
VERTEX
  5
5FE
  8
LAYER_1
 10
4.051025000838596
 20
-30.5820101674319
 30
0.0
  0
VERTEX
  5
5FF
  8
LAYER_1
 10
3.879907279338612
 20
-30.52029666219005
 30
0.0
 42
-0.1476544618445685
  0
VERTEX
  5
600
  8
LAYER_1
 10
0.0102297164402669
 20
-28.45612373759588
 30
0.0
 42
-0.2063747445318953
  0
VERTEX
  5
601
  8
LAYER_1
 10
-4.231930178715672
 20
-27.1524355746943
 30
0.0
 42
-0.1582203507317697
  0
VERTEX
  5
602
  8
LAYER_1
 10
-3.628972334027401
 20
-30.81805903859677
 30
0.0
 42
-0.8286287290047635
  0
SEQEND
  5
603
  8
LAYER_1
  0
POLYLINE
  5
6C
  8
LAYER_1
 66
     1
 10
0.0
 20
0.0
 30
0.0
 70
     1
  0
VERTEX
  5
604
  8
LAYER_1
 10
-23.96655634484162
 20
-14.05021981760116
 30
0.0
 42
-0.3389910103314108
  0
VERTEX
  5
605
  8
LAYER_1
 10
-21.84547639726365
 20
-8.100849232931257
 30
0.0
 42
-0.3391329231649735
  0
VERTEX
  5
606
  8
LAYER_1
 10
-27.45857820975656
 20
-4.194958109952319
 30
0.0
  0
VERTEX
  5
607
  8
LAYER_1
 10
-27.41690388335549
 20
-4.545721739154734
 30
0.0
  0
VERTEX
  5
608
  8
LAYER_1
 10
-27.40137839602718
 20
-4.889748245398114
 30
0.0
  0
VERTEX
  5
609
  8
LAYER_1
 10
-27.41101130105114
 20
-5.226383097409385
 30
0.0
  0
VERTEX
  5
60A
  8
LAYER_1
 10
-27.44481215170694
 20
-5.554971763915473
 30
0.0
  0
VERTEX
  5
60B
  8
LAYER_1
 10
-27.50179050127412
 20
-5.874859713643307
 30
0.0
  0
VERTEX
  5
60C
  8
LAYER_1
 10
-27.58095590303224
 20
-6.185392415319813
 30
0.0
  0
VERTEX
  5
60D
  8
LAYER_1
 10
-27.68131791026083
 20
-6.485915337671919
 30
0.0
  0
VERTEX
  5
60E
  8
LAYER_1
 10
-27.80188607623945
 20
-6.775773949426552
 30
0.0
  0
VERTEX
  5
60F
  8
LAYER_1
 10
-27.94166995424764
 20
-7.054313719310638
 30
0.0
  0
VERTEX
  5
610
  8
LAYER_1
 10
-28.09967909756496
 20
-7.320880116051105
 30
0.0
  0
VERTEX
  5
611
  8
LAYER_1
 10
-28.27492305947094
 20
-7.574818608374882
 30
0.0
  0
VERTEX
  5
612
  8
LAYER_1
 10
-28.46641139324515
 20
-7.815474665008894
 30
0.0
  0
VERTEX
  5
613
  8
LAYER_1
 10
-28.67315365216712
 20
-8.042193754680067
 30
0.0
  0
VERTEX
  5
614
  8
LAYER_1
 10
-28.8941593895164
 20
-8.254321346115331
 30
0.0
  0
VERTEX
  5
615
  8
LAYER_1
 10
-29.12843815857255
 20
-8.451202908041612
 30
0.0
  0
VERTEX
  5
616
  8
LAYER_1
 10
-29.3749995126151
 20
-8.632183909185837
 30
0.0
  0
VERTEX
  5
617
  8
LAYER_1
 10
-29.63285300492362
 20
-8.796609818274934
 30
0.0
  0
VERTEX
  5
618
  8
LAYER_1
 10
-29.90100818877763
 20
-8.943826104035828
 30
0.0
  0
VERTEX
  5
619
  8
LAYER_1
 10
-30.17847461745671
 20
-9.07317823519545
 30
0.0
  0
VERTEX
  5
61A
  8
LAYER_1
 10
-30.46426184424038
 20
-9.18401168048072
 30
0.0
  0
VERTEX
  5
61B
  8
LAYER_1
 10
-30.7573794224082
 20
-9.275671908618573
 30
0.0
  0
VERTEX
  5
61C
  8
LAYER_1
 10
-31.05683690523972
 20
-9.347504388335933
 30
0.0
  0
VERTEX
  5
61D
  8
LAYER_1
 10
-31.36164384601448
 20
-9.398854588359729
 30
0.0
  0
VERTEX
  5
61E
  8
LAYER_1
 10
-31.67080979801203
 20
-9.429067977416883
 30
0.0
  0
VERTEX
  5
61F
  8
LAYER_1
 10
-31.98334431451191
 20
-9.437490024234327
 30
0.0
  0
VERTEX
  5
620
  8
LAYER_1
 10
-32.29825694879369
 20
-9.423466197538987
 30
0.0
  0
VERTEX
  5
621
  8
LAYER_1
 10
-32.61455725413691
 20
-9.38634196605779
 30
0.0
  0
VERTEX
  5
622
  8
LAYER_1
 10
-32.9312547838211
 20
-9.325462798517663
 30
0.0
  0
VERTEX
  5
623
  8
LAYER_1
 10
-33.24735909112583
 20
-9.240174163645532
 30
0.0
  0
VERTEX
  5
624
  8
LAYER_1
 10
-33.56187972933064
 20
-9.129821530168325
 30
0.0
  0
VERTEX
  5
625
  8
LAYER_1
 10
-33.87382625171507
 20
-8.993750366812971
 30
0.0
  0
VERTEX
  5
626
  8
LAYER_1
 10
-34.18220821155868
 20
-8.831306142306396
 30
0.0
  0
VERTEX
  5
627
  8
LAYER_1
 10
-33.94403717646254
 20
-9.740104785016586
 30
0.0
  0
VERTEX
  5
628
  8
LAYER_1
 10
-33.68706277454237
 20
-10.6337084456053
 30
0.0
  0
VERTEX
  5
629
  8
LAYER_1
 10
-33.41165847406617
 20
-11.51205670525398
 30
0.0
  0
VERTEX
  5
62A
  8
LAYER_1
 10
-33.11819774330202
 20
-12.37508914514403
 30
0.0
  0
VERTEX
  5
62B
  8
LAYER_1
 10
-32.80705405051793
 20
-13.22274534645689
 30
0.0
  0
VERTEX
  5
62C
  8
LAYER_1
 10
-32.47860086398195
 20
-14.05496489037399
 30
0.0
  0
VERTEX
  5
62D
  8
LAYER_1
 10
-32.13321165196212
 20
-14.87168735807676
 30
0.0
  0
VERTEX
  5
62E
  8
LAYER_1
 10
-31.77125988272648
 20
-15.6728523307466
 30
0.0
  0
VERTEX
  5
62F
  8
LAYER_1
 10
-31.68496907549849
 20
-15.33451470788325
 30
0.0
  0
VERTEX
  5
630
  8
LAYER_1
 10
-31.57643903528037
 20
-15.01222034120535
 30
0.0
  0
VERTEX
  5
631
  8
LAYER_1
 10
-31.44687687131738
 20
-14.70622058481583
 30
0.0
  0
VERTEX
  5
632
  8
LAYER_1
 10
-31.29748969285478
 20
-14.41676679281761
 30
0.0
  0
VERTEX
  5
633
  8
LAYER_1
 10
-31.12948460913784
 20
-14.14411031931362
 30
0.0
  0
VERTEX
  5
634
  8
LAYER_1
 10
-30.94406872941183
 20
-13.88850251840676
 30
0.0
  0
VERTEX
  5
635
  8
LAYER_1
 10
-30.74244916292201
 20
-13.65019474419998
 30
0.0
  0
VERTEX
  5
636
  8
LAYER_1
 10
-30.52583301891365
 20
-13.42943835079619
 30
0.0
  0
VERTEX
  5
637
  8
LAYER_1
 10
-30.29542740663201
 20
-13.22648469229831
 30
0.0
  0
VERTEX
  5
638
  8
LAYER_1
 10
-30.05243943532236
 20
-13.04158512280927
 30
0.0
  0
VERTEX
  5
639
  8
LAYER_1
 10
-29.79807621422997
 20
-12.87499099643198
 30
0.0
  0
VERTEX
  5
63A
  8
LAYER_1
 10
-29.53354485260009
 20
-12.72695366726938
 30
0.0
  0
VERTEX
  5
63B
  8
LAYER_1
 10
-29.26005245967801
 20
-12.59772448942438
 30
0.0
  0
VERTEX
  5
63C
  8
LAYER_1
 10
-28.97880614470897
 20
-12.48755481699991
 30
0.0
  0
VERTEX
  5
63D
  8
LAYER_1
 10
-28.69101301693826
 20
-12.39669600409889
 30
0.0
  0
VERTEX
  5
63E
  8
LAYER_1
 10
-28.39788018561113
 20
-12.32539940482423
 30
0.0
  0
VERTEX
  5
63F
  8
LAYER_1
 10
-28.10061475997286
 20
-12.27391637327888
 30
0.0
  0
VERTEX
  5
640
  8
LAYER_1
 10
-27.8004238492687
 20
-12.24249826356573
 30
0.0
  0
VERTEX
  5
641
  8
LAYER_1
 10
-27.49851456274392
 20
-12.23139642978773
 30
0.0
  0
VERTEX
  5
642
  8
LAYER_1
 10
-27.19609400964379
 20
-12.24086222604779
 30
0.0
  0
VERTEX
  5
643
  8
LAYER_1
 10
-26.89436929921357
 20
-12.27114700644884
 30
0.0
  0
VERTEX
  5
644
  8
LAYER_1
 10
-26.59454754069854
 20
-12.32250212509379
 30
0.0
  0
VERTEX
  5
645
  8
LAYER_1
 10
-26.29783584334395
 20
-12.39517893608557
 30
0.0
  0
VERTEX
  5
646
  8
LAYER_1
 10
-26.00544131639507
 20
-12.4894287935271
 30
0.0
  0
VERTEX
  5
647
  8
LAYER_1
 10
-25.71857106909718
 20
-12.60550305152131
 30
0.0
  0
VERTEX
  5
648
  8
LAYER_1
 10
-25.43843221069552
 20
-12.74365306417111
 30
0.0
  0
VERTEX
  5
649
  8
LAYER_1
 10
-25.16623185043538
 20
-12.90413018557944
 30
0.0
  0
VERTEX
  5
64A
  8
LAYER_1
 10
-24.90317709756201
 20
-13.08718576984921
 30
0.0
  0
VERTEX
  5
64B
  8
LAYER_1
 10
-24.65047506132068
 20
-13.29307117108334
 30
0.0
  0
VERTEX
  5
64C
  8
LAYER_1
 10
-24.40933285095667
 20
-13.52203774338476
 30
0.0
  0
VERTEX
  5
64D
  8
LAYER_1
 10
-24.18095757571522
 20
-13.7743368408564
 30
0.0
  0
SEQEND
  5
64E
  8
LAYER_1
  0
POLYLINE
  5
6D
  8
LAYER_1
 66
     1
 10
0.0
 20
0.0
 30
0.0
 70
     1
  0
VERTEX
  5
64F
  8
LAYER_1
 10
-20.89958079464125
 20
-23.54534801697991
 30
0.0
 42
-0.6312288412425021
  0
VERTEX
  5
650
  8
LAYER_1
 10
-21.04791153673139
 20
-22.17858617914938
 30
0.0
 42
-0.1316629360749647
  0
VERTEX
  5
651
  8
LAYER_1
 10
-17.85880058179347
 20
-20.44099748609352
 30
0.0
 42
-0.1401085222488762
  0
VERTEX
  5
652
  8
LAYER_1
 10
-22.00746741155276
 20
-17.73947625081224
 30
0.0
 42
-0.2216261525565801
  0
VERTEX
  5
653
  8
LAYER_1
 10
-25.3184214760647
 20
-16.39440116210426
 30
0.0
 42
0.3892136671229194
  0
VERTEX
  5
654
  8
LAYER_1
 10
-31.03989711277126
 20
-17.16801207910428
 30
0.0
  0
VERTEX
  5
655
  8
LAYER_1
 10
-30.73289072879158
 20
-17.73455866277135
 30
0.0
  0
VERTEX
  5
656
  8
LAYER_1
 10
-30.41712890240615
 20
-18.29245941350412
 30
0.0
  0
VERTEX
  5
657
  8
LAYER_1
 10
-30.09275036470259
 20
-18.84170198853532
 30
0.0
  0
VERTEX
  5
658
  8
LAYER_1
 10
-29.75989384676853
 20
-19.38227404509771
 30
0.0
  0
VERTEX
  5
659
  8
LAYER_1
 10
-29.41869807969159
 20
-19.91416324042399
 30
0.0
  0
VERTEX
  5
65A
  8
LAYER_1
 10
-29.0693017945594
 20
-20.4373572317469
 30
0.0
  0
VERTEX
  5
65B
  8
LAYER_1
 10
-28.71184372245958
 20
-20.95184367629918
 30
0.0
  0
VERTEX
  5
65C
  8
LAYER_1
 10
-28.34646259447976
 20
-21.45761023131356
 30
0.0
  0
VERTEX
  5
65D
  8
LAYER_1
 10
-27.97329714170755
 20
-21.95464455402276
 30
0.0
  0
VERTEX
  5
65E
  8
LAYER_1
 10
-27.5924860952306
 20
-22.44293430165953
 30
0.0
  0
VERTEX
  5
65F
  8
LAYER_1
 10
-27.20416818613652
 20
-22.92246713145658
 30
0.0
  0
VERTEX
  5
660
  8
LAYER_1
 10
-26.80848214551293
 20
-23.39323070064665
 30
0.0
  0
VERTEX
  5
661
  8
LAYER_1
 10
-26.40556670444746
 20
-23.85521266646249
 30
0.0
  0
VERTEX
  5
662
  8
LAYER_1
 10
-25.99556059402773
 20
-24.3084006861368
 30
0.0
  0
VERTEX
  5
663
  8
LAYER_1
 10
-25.57860254534137
 20
-24.75278241690232
 30
0.0
  0
VERTEX
  5
664
  8
LAYER_1
 10
-25.154831289476
 20
-25.1883455159918
 30
0.0
  0
VERTEX
  5
665
  8
LAYER_1
 10
-24.72438555751925
 20
-25.61507764063795
 30
0.0
  0
VERTEX
  5
666
  8
LAYER_1
 10
-24.28740408055875
 20
-26.03296644807352
 30
0.0
  0
VERTEX
  5
667
  8
LAYER_1
 10
-23.84402558968211
 20
-26.44199959553122
 30
0.0
  0
VERTEX
  5
668
  8
LAYER_1
 10
-23.39438881597696
 20
-26.8421647402438
 30
0.0
  0
VERTEX
  5
669
  8
LAYER_1
 10
-22.93863249053094
 20
-27.23344953944398
 30
0.0
  0
VERTEX
  5
66A
  8
LAYER_1
 10
-22.47689534443165
 20
-27.6158416503645
 30
0.0
  0
VERTEX
  5
66B
  8
LAYER_1
 10
-22.00931610876672
 20
-27.98932873023809
 30
0.0
  0
VERTEX
  5
66C
  8
LAYER_1
 10
-21.53603351462379
 20
-28.35389843629748
 30
0.0
  0
VERTEX
  5
66D
  8
LAYER_1
 10
-21.05718629309048
 20
-28.70953842577539
 30
0.0
  0
VERTEX
  5
66E
  8
LAYER_1
 10
-20.5729131752544
 20
-29.05623635590457
 30
0.0
  0
VERTEX
  5
66F
  8
LAYER_1
 10
-20.08335289220318
 20
-29.39397988391773
 30
0.0
  0
VERTEX
  5
670
  8
LAYER_1
 10
-19.58864417502446
 20
-29.72275666704763
 30
0.0
  0
VERTEX
  5
671
  8
LAYER_1
 10
-19.08892575480584
 20
-30.04255436252698
 30
0.0
  0
VERTEX
  5
672
  8
LAYER_1
 10
-18.58433636263497
 20
-30.35336062758851
 30
0.0
  0
VERTEX
  5
673
  8
LAYER_1
 10
-18.07501472959946
 20
-30.65516311946497
 30
0.0
  0
VERTEX
  5
674
  8
LAYER_1
 10
-17.56109958678693
 20
-30.94794949538907
 30
0.0
  0
VERTEX
  5
675
  8
LAYER_1
 10
-17.81919212307687
 20
-30.56519915519124
 30
0.0
  0
VERTEX
  5
676
  8
LAYER_1
 10
-18.05307239305887
 20
-30.17036928974251
 30
0.0
  0
VERTEX
  5
677
  8
LAYER_1
 10
-18.2625498950365
 20
-29.76458824402068
 30
0.0
  0
VERTEX
  5
678
  8
LAYER_1
 10
-18.4474341273133
 20
-29.34898436300356
 30
0.0
  0
VERTEX
  5
679
  8
LAYER_1
 10
-18.60753458819283
 20
-28.92468599166894
 30
0.0
  0
VERTEX
  5
67A
  8
LAYER_1
 10
-18.74266077597864
 20
-28.49282147499464
 30
0.0
  0
VERTEX
  5
67B
  8
LAYER_1
 10
-18.85262218897428
 20
-28.05451915795846
 30
0.0
  0
VERTEX
  5
67C
  8
LAYER_1
 10
-18.9372283254833
 20
-27.61090738553819
 30
0.0
  0
VERTEX
  5
67D
  8
LAYER_1
 10
-18.99628868380925
 20
-27.16311450271166
 30
0.0
  0
VERTEX
  5
67E
  8
LAYER_1
 10
-19.0296127622557
 20
-26.71226885445665
 30
0.0
  0
VERTEX
  5
67F
  8
LAYER_1
 10
-19.03701005912617
 20
-26.25949878575098
 30
0.0
  0
VERTEX
  5
680
  8
LAYER_1
 10
-19.01829007272423
 20
-25.80593264157245
 30
0.0
  0
VERTEX
  5
681
  8
LAYER_1
 10
-18.97326230135344
 20
-25.35269876689886
 30
0.0
  0
VERTEX
  5
682
  8
LAYER_1
 10
-18.90173624331733
 20
-24.90092550670802
 30
0.0
  0
VERTEX
  5
683
  8
LAYER_1
 10
-18.80352139691947
 20
-24.45174120597773
 30
0.0
  0
VERTEX
  5
684
  8
LAYER_1
 10
-18.67842726046341
 20
-24.00627420968578
 30
0.0
 42
-0.1154492313178268
  0
SEQEND
  5
685
  8
LAYER_1
  0
POLYLINE
  5
6E
  8
LAYER_1
 66
     1
 10
0.0
 20
0.0
 30
0.0
 70
     1
  0
VERTEX
  5
686
  8
LAYER_1
 10
-14.76568578534691
 20
-31.61072239377211
 30
0.0
  0
VERTEX
  5
687
  8
LAYER_1
 10
-14.42137924010211
 20
-31.50499417301048
 30
0.0
  0
VERTEX
  5
688
  8
LAYER_1
 10
-14.08900253662929
 20
-31.39369548670975
 30
0.0
  0
VERTEX
  5
689
  8
LAYER_1
 10
-13.76835333624393
 20
-31.27692055323709
 30
0.0
  0
VERTEX
  5
68A
  8
LAYER_1
 10
-13.45922930026153
 20
-31.1547635909597
 30
0.0
  0
VERTEX
  5
68B
  8
LAYER_1
 10
-13.16142808999754
 20
-31.02731881824477
 30
0.0
  0
VERTEX
  5
68C
  8
LAYER_1
 10
-12.87474736676744
 20
-30.89468045345949
 30
0.0
  0
VERTEX
  5
68D
  8
LAYER_1
 10
-12.59898479188671
 20
-30.75694271497105
 30
0.0
  0
VERTEX
  5
68E
  8
LAYER_1
 10
-12.33393802667083
 20
-30.61419982114663
 30
0.0
  0
VERTEX
  5
68F
  8
LAYER_1
 10
-12.07940473243528
 20
-30.46654599035344
 30
0.0
  0
VERTEX
  5
690
  8
LAYER_1
 10
-11.83518257049552
 20
-30.31407544095866
 30
0.0
  0
VERTEX
  5
691
  8
LAYER_1
 10
-11.60106920216703
 20
-30.15688239132948
 30
0.0
  0
VERTEX
  5
692
  8
LAYER_1
 10
-11.37686228876529
 20
-29.99506105983309
 30
0.0
  0
VERTEX
  5
693
  8
LAYER_1
 10
-11.16235949160578
 20
-29.82870566483668
 30
0.0
  0
VERTEX
  5
694
  8
LAYER_1
 10
-10.95735847200397
 20
-29.65791042470745
 30
0.0
  0
VERTEX
  5
695
  8
LAYER_1
 10
-10.76165689127533
 20
-29.48276955781257
 30
0.0
  0
VERTEX
  5
696
  8
LAYER_1
 10
-10.57505241073535
 20
-29.30337728251925
 30
0.0
  0
VERTEX
  5
697
  8
LAYER_1
 10
-10.39734269169949
 20
-29.11982781719467
 30
0.0
  0
VERTEX
  5
698
  8
LAYER_1
 10
-10.22832539548324
 20
-28.93221538020602
 30
0.0
  0
VERTEX
  5
699
  8
LAYER_1
 10
-10.06779818340207
 20
-28.74063418992049
 30
0.0
  0
VERTEX
  5
69A
  8
LAYER_1
 10
-9.915558716771455
 20
-28.54517846470528
 30
0.0
  0
VERTEX
  5
69B
  8
LAYER_1
 10
-9.77140465690687
 20
-28.34594242292757
 30
0.0
  0
VERTEX
  5
69C
  8
LAYER_1
 10
-9.635133665123796
 20
-28.14302028295455
 30
0.0
  0
VERTEX
  5
69D
  8
LAYER_1
 10
-9.506543402737703
 20
-27.93650626315342
 30
0.0
  0
VERTEX
  5
69E
  8
LAYER_1
 10
-9.385431531064068
 20
-27.72649458189136
 30
0.0
  0
VERTEX
  5
69F
  8
LAYER_1
 10
-9.271595711418367
 20
-27.51307945753556
 30
0.0
  0
VERTEX
  5
6A0
  8
LAYER_1
 10
-9.164833605116078
 20
-27.29635510845322
 30
0.0
  0
VERTEX
  5
6A1
  8
LAYER_1
 10
-8.971721177803634
 20
-26.85335560957766
 30
0.0
  0
VERTEX
  5
6A2
  8
LAYER_1
 10
-8.804475539650541
 20
-26.39824983220221
 30
0.0
  0
VERTEX
  5
6A3
  8
LAYER_1
 10
-8.661477981180605
 20
-25.93179152326437
 30
0.0
  0
VERTEX
  5
6A4
  8
LAYER_1
 10
-8.541109792917633
 20
-25.45473442970168
 30
0.0
  0
VERTEX
  5
6A5
  8
LAYER_1
 10
-8.441752265385432
 20
-24.96783229845166
 30
0.0
  0
VERTEX
  5
6A6
  8
LAYER_1
 10
-8.36178668910781
 20
-24.47183887645183
 30
0.0
  0
VERTEX
  5
6A7
  8
LAYER_1
 10
-8.299594354608569
 20
-23.9675079106397
 30
0.0
  0
VERTEX
  5
6A8
  8
LAYER_1
 10
-8.25355655241152
 20
-23.4555931479528
 30
0.0
  0
VERTEX
  5
6A9
  8
LAYER_1
 10
-8.222054573040467
 20
-22.93684833532867
 30
0.0
  0
VERTEX
  5
6AA
  8
LAYER_1
 10
-8.203469707019215
 20
-22.41202721970481
 30
0.0
  0
VERTEX
  5
6AB
  8
LAYER_1
 10
-8.196183244871575
 20
-21.88188354801875
 30
0.0
  0
VERTEX
  5
6AC
  8
LAYER_1
 10
-8.209030694292348
 20
-20.8086435242101
 30
0.0
  0
VERTEX
  5
6AD
  8
LAYER_1
 10
-8.247647245493233
 20
-19.72315823940293
 30
0.0
  0
VERTEX
  5
6AE
  8
LAYER_1
 10
-8.299083222664684
 20
-18.63145766909738
 30
0.0
  0
VERTEX
  5
6AF
  8
LAYER_1
 10
-8.350388949997155
 20
-17.53957178879364
 30
0.0
 42
-0.1922497308934336
  0
VERTEX
  5
6B0
  8
LAYER_1
 10
-13.10988541773309
 20
-21.67826436943358
 30
0.0
 42
0.3708091118315463
  0
SEQEND
  5
6B1
  8
LAYER_1
  0
POLYLINE
  5
6F
  8
LAYER_1
 66
     1
 10
0.0
 20
0.0
 30
0.0
 70
     1
  0
VERTEX
  5
6B2
  8
LAYER_1
 10
18.29199782757094
 20
19.90779017430886
 30
0.0
 42
-0.1673317141398116
  0
VERTEX
  5
6B3
  8
LAYER_1
 10
21.82792863408363
 20
17.298370369044
 30
0.0
 42
-0.245655629495919
  0
VERTEX
  5
6B4
  8
LAYER_1
 10
25.57344541956279
 20
15.93260181743281
 30
0.0
  0
VERTEX
  5
6B5
  8
LAYER_1
 10
25.73927243780359
 20
15.79842907940455
 30
0.0
  0
VERTEX
  5
6B6
  8
LAYER_1
 10
25.90978165657965
 20
15.67429729932318
 30
0.0
  0
VERTEX
  5
6B7
  8
LAYER_1
 10
26.08460427001079
 20
15.56016485926567
 30
0.0
  0
VERTEX
  5
6B8
  8
LAYER_1
 10
26.26337147221681
 20
15.45599014130902
 30
0.0
  0
VERTEX
  5
6B9
  8
LAYER_1
 10
26.44571445731756
 20
15.36173152753021
 30
0.0
  0
VERTEX
  5
6BA
  8
LAYER_1
 10
26.63126441943283
 20
15.27734740000624
 30
0.0
  0
VERTEX
  5
6BB
  8
LAYER_1
 10
26.81965255268245
 20
15.20279614081409
 30
0.0
  0
VERTEX
  5
6BC
  8
LAYER_1
 10
27.01051005118624
 20
15.13803613203076
 30
0.0
  0
VERTEX
  5
6BD
  8
LAYER_1
 10
27.20346810906402
 20
15.08302575573322
 30
0.0
  0
VERTEX
  5
6BE
  8
LAYER_1
 10
27.3981579204356
 20
15.03772339399847
 30
0.0
  0
VERTEX
  5
6BF
  8
LAYER_1
 10
27.5942106794208
 20
15.0020874289035
 30
0.0
  0
VERTEX
  5
6C0
  8
LAYER_1
 10
27.79125758013945
 20
14.9760762425253
 30
0.0
  0
VERTEX
  5
6C1
  8
LAYER_1
 10
27.98892981671136
 20
14.95964821694085
 30
0.0
  0
VERTEX
  5
6C2
  8
LAYER_1
 10
28.18685858325635
 20
14.95276173422714
 30
0.0
  0
VERTEX
  5
6C3
  8
LAYER_1
 10
28.38467507389423
 20
14.95537517646116
 30
0.0
  0
VERTEX
  5
6C4
  8
LAYER_1
 10
28.58201048274483
 20
14.9674469257199
 30
0.0
  0
VERTEX
  5
6C5
  8
LAYER_1
 10
28.77849600392796
 20
14.98893536408035
 30
0.0
  0
VERTEX
  5
6C6
  8
LAYER_1
 10
28.97376283156344
 20
15.0197988736195
 30
0.0
  0
VERTEX
  5
6C7
  8
LAYER_1
 10
29.1674421597711
 20
15.05999583641433
 30
0.0
  0
VERTEX
  5
6C8
  8
LAYER_1
 10
29.35916518267074
 20
15.10948463454183
 30
0.0
  0
VERTEX
  5
6C9
  8
LAYER_1
 10
29.5485630943822
 20
15.16822365007899
 30
0.0
  0
VERTEX
  5
6CA
  8
LAYER_1
 10
29.73526708902527
 20
15.2361712651028
 30
0.0
  0
VERTEX
  5
6CB
  8
LAYER_1
 10
29.9189083607198
 20
15.31328586169026
 30
0.0
  0
VERTEX
  5
6CC
  8
LAYER_1
 10
30.09911810358558
 20
15.39952582191834
 30
0.0
  0
VERTEX
  5
6CD
  8
LAYER_1
 10
30.27552751174245
 20
15.49484952786403
 30
0.0
  0
VERTEX
  5
6CE
  8
LAYER_1
 10
30.44776777931021
 20
15.59921536160433
 30
0.0
  0
VERTEX
  5
6CF
  8
LAYER_1
 10
30.6154701004087
 20
15.71258170521621
 30
0.0
  0
VERTEX
  5
6D0
  8
LAYER_1
 10
30.77826566915772
 20
15.83490694077668
 30
0.0
  0
VERTEX
  5
6D1
  8
LAYER_1
 10
30.93578567967709
 20
15.96614945036272
 30
0.0
  0
VERTEX
  5
6D2
  8
LAYER_1
 10
31.08766132608664
 20
16.10626761605132
 30
0.0
  0
VERTEX
  5
6D3
  8
LAYER_1
 10
31.23352380250618
 20
16.25521981991946
 30
0.0
  0
VERTEX
  5
6D4
  8
LAYER_1
 10
31.37300430305554
 20
16.41296444404414
 30
0.0
  0
VERTEX
  5
6D5
  8
LAYER_1
 10
31.08561443608498
 20
16.94639809780043
 30
0.0
  0
VERTEX
  5
6D6
  8
LAYER_1
 10
30.78897027682766
 20
17.47494472628292
 30
0.0
  0
VERTEX
  5
6D7
  8
LAYER_1
 10
30.48313083541321
 20
17.99846940593674
 30
0.0
  0
VERTEX
  5
6D8
  8
LAYER_1
 10
30.16815512197126
 20
18.51683721320704
 30
0.0
  0
VERTEX
  5
6D9
  8
LAYER_1
 10
29.84410214663145
 20
19.02991322453896
 30
0.0
  0
VERTEX
  5
6DA
  8
LAYER_1
 10
29.51103091952341
 20
19.53756251637764
 30
0.0
  0
VERTEX
  5
6DB
  8
LAYER_1
 10
29.16900045077677
 20
20.03965016516823
 30
0.0
  0
VERTEX
  5
6DC
  8
LAYER_1
 10
28.81806975052117
 20
20.53604124735586
 30
0.0
  0
VERTEX
  5
6DD
  8
LAYER_1
 10
28.45829782888624
 20
21.02660083938568
 30
0.0
  0
VERTEX
  5
6DE
  8
LAYER_1
 10
28.08974369600161
 20
21.51119401770284
 30
0.0
  0
VERTEX
  5
6DF
  8
LAYER_1
 10
27.71246636199691
 20
21.98968585875247
 30
0.0
  0
VERTEX
  5
6E0
  8
LAYER_1
 10
27.32652483700178
 20
22.46194143897972
 30
0.0
  0
VERTEX
  5
6E1
  8
LAYER_1
 10
26.93197813114585
 20
22.92782583482973
 30
0.0
  0
VERTEX
  5
6E2
  8
LAYER_1
 10
26.52888525455876
 20
23.38720412274765
 30
0.0
  0
VERTEX
  5
6E3
  8
LAYER_1
 10
26.11730521737013
 20
23.8399413791786
 30
0.0
  0
VERTEX
  5
6E4
  8
LAYER_1
 10
25.6972970297096
 20
24.28590268056775
 30
0.0
  0
VERTEX
  5
6E5
  8
LAYER_1
 10
25.26891970170681
 20
24.72495310336023
 30
0.0
  0
VERTEX
  5
6E6
  8
LAYER_1
 10
24.83223224349138
 20
25.15695772400118
 30
0.0
  0
VERTEX
  5
6E7
  8
LAYER_1
 10
24.38729366519296
 20
25.58178161893575
 30
0.0
  0
VERTEX
  5
6E8
  8
LAYER_1
 10
23.93416297694116
 20
25.99928986460908
 30
0.0
  0
VERTEX
  5
6E9
  8
LAYER_1
 10
23.47289918886563
 20
26.4093475374663
 30
0.0
  0
VERTEX
  5
6EA
  8
LAYER_1
 10
23.003561311096
 20
26.81181971395257
 30
0.0
  0
VERTEX
  5
6EB
  8
LAYER_1
 10
22.5262083537619
 20
27.20657147051303
 30
0.0
  0
VERTEX
  5
6EC
  8
LAYER_1
 10
22.04089932699296
 20
27.59346788359282
 30
0.0
  0
VERTEX
  5
6ED
  8
LAYER_1
 10
21.54769324091883
 20
27.97237402963708
 30
0.0
  0
VERTEX
  5
6EE
  8
LAYER_1
 10
21.04664910566912
 20
28.34315498509095
 30
0.0
  0
VERTEX
  5
6EF
  8
LAYER_1
 10
20.53782593137348
 20
28.70567582639958
 30
0.0
  0
VERTEX
  5
6F0
  8
LAYER_1
 10
20.02128272816153
 20
29.05980163000811
 30
0.0
  0
VERTEX
  5
6F1
  8
LAYER_1
 10
19.49707850616291
 20
29.40539747236167
 30
0.0
  0
VERTEX
  5
6F2
  8
LAYER_1
 10
18.96527227550725
 20
29.74232842990543
 30
0.0
  0
VERTEX
  5
6F3
  8
LAYER_1
 10
18.42592304632419
 20
30.07045957908451
 30
0.0
  0
VERTEX
  5
6F4
  8
LAYER_1
 10
17.87908982874336
 20
30.38965599634407
 30
0.0
  0
VERTEX
  5
6F5
  8
LAYER_1
 10
18.02152366340308
 20
30.20378100309518
 30
0.0
  0
VERTEX
  5
6F6
  8
LAYER_1
 10
18.15650255027236
 20
30.01383194730091
 30
0.0
  0
VERTEX
  5
6F7
  8
LAYER_1
 10
18.28400030328563
 20
29.82002320802939
 30
0.0
  0
VERTEX
  5
6F8
  8
LAYER_1
 10
18.4039907363773
 20
29.62256916434877
 30
0.0
  0
VERTEX
  5
6F9
  8
LAYER_1
 10
18.51644766348178
 20
29.42168419532719
 30
0.0
  0
VERTEX
  5
6FA
  8
LAYER_1
 10
18.62134489853349
 20
29.21758268003281
 30
0.0
  0
VERTEX
  5
6FB
  8
LAYER_1
 10
18.71865625546685
 20
29.01047899753375
 30
0.0
  0
VERTEX
  5
6FC
  8
LAYER_1
 10
18.80835554821628
 20
28.80058752689818
 30
0.0
  0
VERTEX
  5
6FD
  8
LAYER_1
 10
18.89041659071619
 20
28.58812264719425
 30
0.0
  0
VERTEX
  5
6FE
  8
LAYER_1
 10
18.96481319690101
 20
28.37329873749008
 30
0.0
  0
VERTEX
  5
6FF
  8
LAYER_1
 10
19.03151918070514
 20
28.15633017685384
 30
0.0
  0
VERTEX
  5
700
  8
LAYER_1
 10
19.090508356063
 20
27.93743134435366
 30
0.0
  0
VERTEX
  5
701
  8
LAYER_1
 10
19.14175453690901
 20
27.71681661905769
 30
0.0
  0
VERTEX
  5
702
  8
LAYER_1
 10
19.18523153717759
 20
27.49470038003408
 30
0.0
  0
VERTEX
  5
703
  8
LAYER_1
 10
19.22091317080315
 20
27.27129700635097
 30
0.0
  0
VERTEX
  5
704
  8
LAYER_1
 10
19.24877325172011
 20
27.04682087707652
 30
0.0
  0
VERTEX
  5
705
  8
LAYER_1
 10
19.26878559386289
 20
26.82148637127886
 30
0.0
  0
VERTEX
  5
706
  8
LAYER_1
 10
19.28092401116591
 20
26.59550786802615
 30
0.0
  0
VERTEX
  5
707
  8
LAYER_1
 10
19.28516231756358
 20
26.36909974638652
 30
0.0
  0
VERTEX
  5
708
  8
LAYER_1
 10
19.28147432699031
 20
26.14247638542813
 30
0.0
  0
VERTEX
  5
709
  8
LAYER_1
 10
19.26983385338053
 20
25.91585216421912
 30
0.0
  0
VERTEX
  5
70A
  8
LAYER_1
 10
19.25021471066864
 20
25.68944146182764
 30
0.0
  0
VERTEX
  5
70B
  8
LAYER_1
 10
19.22259071278907
 20
25.46345865732183
 30
0.0
  0
VERTEX
  5
70C
  8
LAYER_1
 10
19.18693567367624
 20
25.23811812976984
 30
0.0
  0
VERTEX
  5
70D
  8
LAYER_1
 10
19.14322340726456
 20
25.01363425823981
 30
0.0
  0
VERTEX
  5
70E
  8
LAYER_1
 10
19.09142772748844
 20
24.79022142179989
 30
0.0
  0
VERTEX
  5
70F
  8
LAYER_1
 10
19.03152244828232
 20
24.56809399951823
 30
0.0
  0
VERTEX
  5
710
  8
LAYER_1
 10
18.96348138358059
 20
24.34746637046297
 30
0.0
  0
VERTEX
  5
711
  8
LAYER_1
 10
18.88727834731768
 20
24.12855291370226
 30
0.0
  0
VERTEX
  5
712
  8
LAYER_1
 10
18.802887153428
 20
23.91156800830425
 30
0.0
  0
VERTEX
  5
713
  8
LAYER_1
 10
18.71028161584598
 20
23.69672603333708
 30
0.0
  0
VERTEX
  5
714
  8
LAYER_1
 10
18.60943554850602
 20
23.48424136786889
 30
0.0
 42
-0.083090506271557
  0
VERTEX
  5
715
  8
LAYER_1
 10
20.78183528408393
 20
23.1260375250145
 30
0.0
 42
-0.5432424677187937
  0
VERTEX
  5
716
  8
LAYER_1
 10
20.76859146782589
 20
21.37785377895218
 30
0.0
 42
-0.1126514663396577
  0
SEQEND
  5
717
  8
LAYER_1
  0
ENDSEC
  0
EOF
