  0
SECTION
  2
HEADER
  9
$ACADVER
  1
AC1009
  9
$DWGCODEPAGE
  3
ansi_1252
  9
$INSBASE
 10
0.0
 20
0.0
 30
0.0
  9
$EXTMIN
 10
-68.59337817301656
 20
-85.56361776219521
 30
0.0
  9
$EXTMAX
 10
66.47810342129253
 20
84.72975843207038
 30
0.0
  9
$LIMMIN
 10
0.0
 20
0.0
  9
$LIMMAX
 10
12.0
 20
9.0
  9
$ORTHOMODE
 70
     0
  9
$REGENMODE
 70
     1
  9
$FILLMODE
 70
     1
  9
$QTEXTMODE
 70
     0
  9
$MIRRTEXT
 70
     1
  9
$DRAGMODE
 70
     2
  9
$LTSCALE
 40
1.0
  9
$OSMODE
 70
    37
  9
$ATTMODE
 70
     1
  9
$TEXTSIZE
 40
0.2
  9
$TRACEWID
 40
0.05
  9
$TEXTSTYLE
  7
STANDARD
  9
$CLAYER
  8
0
  9
$CELTYPE
  6
BYLAYER
  9
$CECOLOR
 62
   256
  9
$DIMSCALE
 40
1.0
  9
$DIMASZ
 40
0.18
  9
$DIMEXO
 40
0.0625
  9
$DIMDLI
 40
0.38
  9
$DIMRND
 40
0.0
  9
$DIMDLE
 40
0.0
  9
$DIMEXE
 40
0.18
  9
$DIMTP
 40
0.0
  9
$DIMTM
 40
0.0
  9
$DIMTXT
 40
0.18
  9
$DIMCEN
 40
0.09
  9
$DIMTSZ
 40
0.0
  9
$DIMTOL
 70
     0
  9
$DIMLIM
 70
     0
  9
$DIMTIH
 70
     1
  9
$DIMTOH
 70
     1
  9
$DIMSE1
 70
     0
  9
$DIMSE2
 70
     0
  9
$DIMTAD
 70
     0
  9
$DIMZIN
 70
     0
  9
$DIMBLK
  1

  9
$DIMASO
 70
     1
  9
$DIMSHO
 70
     1
  9
$DIMPOST
  1

  9
$DIMAPOST
  1

  9
$DIMALT
 70
     0
  9
$DIMALTD
 70
     2
  9
$DIMALTF
 40
25.4
  9
$DIMLFAC
 40
1.0
  9
$DIMTOFL
 70
     0
  9
$DIMTVP
 40
0.0
  9
$DIMTIX
 70
     0
  9
$DIMSOXD
 70
     0
  9
$DIMSAH
 70
     0
  9
$DIMBLK1
  1

  9
$DIMBLK2
  1

  9
$DIMSTYLE
  2
STANDARD
  9
$DIMCLRD
 70
     0
  9
$DIMCLRE
 70
     0
  9
$DIMCLRT
 70
     0
  9
$DIMTFAC
 40
1.0
  9
$DIMGAP
 40
0.09
  9
$LUNITS
 70
     2
  9
$LUPREC
 70
     4
  9
$SKETCHINC
 40
0.1
  9
$FILLETRAD
 40
0.5
  9
$AUNITS
 70
     0
  9
$AUPREC
 70
     0
  9
$MENU
  1
.
  9
$ELEVATION
 40
0.0
  9
$PELEVATION
 40
0.0
  9
$THICKNESS
 40
0.0
  9
$LIMCHECK
 70
     0
  9
$CHAMFERA
 40
0.5
  9
$CHAMFERB
 40
0.5
  9
$SKPOLY
 70
     0
  9
$TDCREATE
 40
2454910.5
  9
$TDUPDATE
 40
2458803.513502396
  9
$TDINDWG
 40
0.0000000116
  9
$TDUSRTIMER
 40
0.0000000116
  9
$USRTIMER
 70
     1
  9
$ANGBASE
 50
0.0
  9
$ANGDIR
 70
     0
  9
$PDMODE
 70
     0
  9
$PDSIZE
 40
0.0
  9
$PLINEWID
 40
0.0
  9
$COORDS
 70
     1
  9
$SPLFRAME
 70
     0
  9
$SPLINETYPE
 70
     6
  9
$SPLINESEGS
 70
     8
  9
$ATTDIA
 70
     0
  9
$ATTREQ
 70
     1
  9
$HANDLING
 70
     1
  9
$HANDSEED
  5
88E
  9
$SURFTAB1
 70
     6
  9
$SURFTAB2
 70
     6
  9
$SURFTYPE
 70
     6
  9
$SURFU
 70
     6
  9
$SURFV
 70
     6
  9
$UCSNAME
  2

  9
$UCSORG
 10
0.0
 20
0.0
 30
0.0
  9
$UCSXDIR
 10
1.0
 20
0.0
 30
0.0
  9
$UCSYDIR
 10
0.0
 20
1.0
 30
0.0
  9
$PUCSNAME
  2

  9
$PUCSORG
 10
0.0
 20
0.0
 30
0.0
  9
$PUCSXDIR
 10
1.0
 20
0.0
 30
0.0
  9
$PUCSYDIR
 10
0.0
 20
1.0
 30
0.0
  9
$USERI1
 70
     0
  9
$USERI2
 70
     0
  9
$USERI3
 70
     0
  9
$USERI4
 70
     0
  9
$USERI5
 70
     0
  9
$USERR1
 40
0.0
  9
$USERR2
 40
0.0
  9
$USERR3
 40
0.0
  9
$USERR4
 40
0.0
  9
$USERR5
 40
0.0
  9
$WORLDVIEW
 70
     1
  9
$SHADEDGE
 70
     3
  9
$SHADEDIF
 70
    70
  9
$TILEMODE
 70
     1
  9
$MAXACTVP
 70
    64
  9
$PLIMCHECK
 70
     0
  9
$PEXTMIN
 10
1.000000000000000E+20
 20
1.000000000000000E+20
 30
1.000000000000000E+20
  9
$PEXTMAX
 10
-1.000000000000000E+20
 20
-1.000000000000000E+20
 30
-1.000000000000000E+20
  9
$PLIMMIN
 10
0.0
 20
0.0
  9
$PLIMMAX
 10
12.0
 20
9.0
  9
$UNITMODE
 70
     0
  9
$VISRETAIN
 70
     1
  9
$PLINEGEN
 70
     0
  9
$PSLTSCALE
 70
     1
  0
ENDSEC
  0
SECTION
  2
TABLES
  0
TABLE
  2
VPORT
 70
     1
  0
VPORT
  2
*ACTIVE
 70
     0
 10
0.0
 20
0.0
 11
1.0
 21
1.0
 12
10.42990654205607
 22
4.5
 13
0.0
 23
0.0
 14
0.5
 24
0.5
 15
0.5
 25
0.5
 16
0.0
 26
0.0
 36
1.0
 17
0.0
 27
0.0
 37
0.0
 40
9.0
 41
1.972972972850329
 42
50.0
 43
0.0
 44
0.0
 50
0.0
 51
0.0
 71
     0
 72
   100
 73
     1
 74
     3
 75
     0
 76
     0
 77
     0
 78
     0
  0
ENDTAB
  0
TABLE
  2
LTYPE
 70
     2
  0
LTYPE
  2
CONTINUOUS
 70
     0
  3
Solid line
 72
    65
 73
     0
 40
0.0
  0
LTYPE
  2
CONTINUOUS2
 70
     0
  3
Solid Line
 72
    65
 73
     0
 40
0.0
  0
ENDTAB
  0
TABLE
  2
LAYER
 70
     2
  0
LAYER
  2
0
 70
     0
 62
     7
  6
CONTINUOUS
  0
LAYER
  2
LAYER_1
 70
     0
 62
     1
  6
CONTINUOUS
  0
ENDTAB
  0
TABLE
  2
STYLE
 70
     1
  0
STYLE
  2
STANDARD
 70
     0
 40
0.0
 41
1.0
 50
0.0
 71
     0
 42
0.2
  3
txt
  4

  0
ENDTAB
  0
TABLE
  2
VIEW
 70
     0
  0
ENDTAB
  0
TABLE
  2
UCS
 70
     0
  0
ENDTAB
  0
TABLE
  2
APPID
 70
     1
  0
APPID
  2
ACAD
 70
     0
  0
ENDTAB
  0
TABLE
  2
DIMSTYLE
 70
     1
  0
DIMSTYLE
  2
STANDARD
 70
     0
  3

  4

  5

  6

  7

 40
1.0
 41
0.18
 42
0.0625
 43
0.38
 44
0.18
 45
0.0
 46
0.0
 47
0.0
 48
0.0
140
0.18
141
0.09
142
0.0
143
25.4
144
1.0
145
0.0
146
1.0
147
0.09
 71
     0
 72
     0
 73
     1
 74
     1
 75
     0
 76
     0
 77
     0
 78
     0
170
     0
171
     2
172
     0
173
     0
174
     0
175
     0
176
     0
177
     0
178
     0
  0
ENDTAB
  0
ENDSEC
  0
SECTION
  2
BLOCKS
  0
BLOCK
  8
0
  2
$MODEL_SPACE
 70
     0
 10
0.0
 20
0.0
 30
0.0
  3
$MODEL_SPACE
  1

  0
ENDBLK
  5
21
  8
0
  0
BLOCK
 67
     1
  8
0
  2
$PAPER_SPACE
 70
     0
 10
0.0
 20
0.0
 30
0.0
  3
$PAPER_SPACE
  1

  0
ENDBLK
  5
1D
 67
     1
  8
0
  0
ENDSEC
  0
SECTION
  2
ENTITIES
  0
POLYLINE
  5
41
  8
LAYER_1
 66
     1
 10
0.0
 20
0.0
 30
0.0
 70
     1
  0
VERTEX
  5
72
  8
LAYER_1
 10
41.50610453626496
 20
62.48072250844309
 30
0.0
 42
-0.2681352992194273
  0
VERTEX
  5
73
  8
LAYER_1
 10
46.18167905926168
 20
76.49520732892664
 30
0.0
 42
-0.3116491714823106
  0
VERTEX
  5
74
  8
LAYER_1
 10
54.98448417706765
 20
77.52503044371865
 30
0.0
 42
-0.2974721013669856
  0
VERTEX
  5
75
  8
LAYER_1
 10
63.24691507804598
 20
62.54045745277946
 30
0.0
 42
-0.2297085733827581
  0
VERTEX
  5
76
  8
LAYER_1
 10
60.86874310404772
 20
56.78779601644946
 30
0.0
 42
0.4837480293688832
  0
VERTEX
  5
77
  8
LAYER_1
 10
53.85689253344203
 20
69.99604538513168
 30
0.0
 42
0.3747385708399779
  0
SEQEND
  5
78
  8
LAYER_1
  0
POLYLINE
  5
42
  8
LAYER_1
 66
     1
 10
0.0
 20
0.0
 30
0.0
 70
     1
  0
VERTEX
  5
79
  8
LAYER_1
 10
39.88830794567021
 20
61.05012117588861
 30
0.0
 42
-0.416551566037195
  0
VERTEX
  5
7A
  8
LAYER_1
 10
48.42638223922627
 20
80.34920034830527
 30
0.0
  0
VERTEX
  5
7B
  8
LAYER_1
 10
48.04870507832661
 20
80.54407809406118
 30
0.0
  0
VERTEX
  5
7C
  8
LAYER_1
 10
47.66594116945565
 20
80.72004906597192
 30
0.0
  0
VERTEX
  5
7D
  8
LAYER_1
 10
47.27867257381075
 20
80.8772505028268
 30
0.0
  0
VERTEX
  5
7E
  8
LAYER_1
 10
46.88748135258925
 20
81.01581964341516
 30
0.0
  0
VERTEX
  5
7F
  8
LAYER_1
 10
46.4929495669885
 20
81.1358937265263
 30
0.0
  0
VERTEX
  5
80
  8
LAYER_1
 10
46.09565927820584
 20
81.23760999094955
 30
0.0
  0
VERTEX
  5
81
  8
LAYER_1
 10
45.69619254743863
 20
81.3211056754742
 30
0.0
  0
VERTEX
  5
82
  8
LAYER_1
 10
45.29513143588422
 20
81.3865180188896
 30
0.0
  0
VERTEX
  5
83
  8
LAYER_1
 10
44.89305800473994
 20
81.43398425998504
 30
0.0
  0
VERTEX
  5
84
  8
LAYER_1
 10
44.49055431520316
 20
81.46364163754984
 30
0.0
  0
VERTEX
  5
85
  8
LAYER_1
 10
44.08820242847121
 20
81.47562739037332
 30
0.0
  0
VERTEX
  5
86
  8
LAYER_1
 10
43.68658440574144
 20
81.47007875724479
 30
0.0
  0
VERTEX
  5
87
  8
LAYER_1
 10
43.2862823082112
 20
81.44713297695357
 30
0.0
  0
VERTEX
  5
88
  8
LAYER_1
 10
42.88787819707785
 20
81.40692728828895
 30
0.0
  0
VERTEX
  5
89
  8
LAYER_1
 10
42.49195413353871
 20
81.3495989300403
 30
0.0
  0
VERTEX
  5
8A
  8
LAYER_1
 10
42.09909217879115
 20
81.2752851409969
 30
0.0
  0
VERTEX
  5
8B
  8
LAYER_1
 10
41.70987439403251
 20
81.18412315994806
 30
0.0
  0
VERTEX
  5
8C
  8
LAYER_1
 10
41.32488284046015
 20
81.0762502256831
 30
0.0
  0
VERTEX
  5
8D
  8
LAYER_1
 10
40.94469957927139
 20
80.95180357699134
 30
0.0
  0
VERTEX
  5
8E
  8
LAYER_1
 10
40.5699066716636
 20
80.81092045266207
 30
0.0
  0
VERTEX
  5
8F
  8
LAYER_1
 10
40.20108617883412
 20
80.65373809148463
 30
0.0
  0
VERTEX
  5
90
  8
LAYER_1
 10
39.83882016198031
 20
80.48039373224834
 30
0.0
  0
VERTEX
  5
91
  8
LAYER_1
 10
39.4836906822995
 20
80.29102461374252
 30
0.0
  0
VERTEX
  5
92
  8
LAYER_1
 10
39.13627980098903
 20
80.08576797475646
 30
0.0
  0
VERTEX
  5
93
  8
LAYER_1
 10
38.79716957924627
 20
79.8647610540795
 30
0.0
  0
VERTEX
  5
94
  8
LAYER_1
 10
38.46694207826857
 20
79.62814109050092
 30
0.0
  0
VERTEX
  5
95
  8
LAYER_1
 10
38.14617935925326
 20
79.37604532281006
 30
0.0
  0
VERTEX
  5
96
  8
LAYER_1
 10
37.8354634833977
 20
79.10861098979625
 30
0.0
  0
VERTEX
  5
97
  8
LAYER_1
 10
37.53537651189922
 20
78.82597533024878
 30
0.0
  0
VERTEX
  5
98
  8
LAYER_1
 10
37.24650050595518
 20
78.52827558295697
 30
0.0
  0
VERTEX
  5
99
  8
LAYER_1
 10
36.96941752676294
 20
78.21564898671014
 30
0.0
  0
VERTEX
  5
9A
  8
LAYER_1
 10
36.70470963551982
 20
77.88823278029759
 30
0.0
  0
VERTEX
  5
9B
  8
LAYER_1
 10
36.57737861960814
 20
77.71225989326823
 30
0.0
  0
VERTEX
  5
9C
  8
LAYER_1
 10
36.46032738211519
 20
77.52828250499931
 30
0.0
  0
VERTEX
  5
9D
  8
LAYER_1
 10
36.35363936167322
 20
77.33731324085124
 30
0.0
  0
VERTEX
  5
9E
  8
LAYER_1
 10
36.25739799691446
 20
77.14036472618449
 30
0.0
  0
VERTEX
  5
9F
  8
LAYER_1
 10
36.17168672647117
 20
76.93844958635951
 30
0.0
  0
VERTEX
  5
A0
  8
LAYER_1
 10
36.09658898897555
 20
76.73258044673679
 30
0.0
  0
VERTEX
  5
A1
  8
LAYER_1
 10
36.03218822305988
 20
76.52376993267673
 30
0.0
  0
VERTEX
  5
A2
  8
LAYER_1
 10
35.97856786735638
 20
76.3130306695398
 30
0.0
  0
VERTEX
  5
A3
  8
LAYER_1
 10
35.86884497093163
 20
75.78791634579528
 30
0.0
  0
VERTEX
  5
A4
  8
LAYER_1
 10
35.77852158160374
 20
75.26034308205477
 30
0.0
  0
VERTEX
  5
A5
  8
LAYER_1
 10
35.70756763758852
 20
74.73083724369408
 30
0.0
  0
VERTEX
  5
A6
  8
LAYER_1
 10
35.6559530771018
 20
74.19992519608891
 30
0.0
  0
VERTEX
  5
A7
  8
LAYER_1
 10
35.62364783835941
 20
73.66813330461505
 30
0.0
  0
VERTEX
  5
A8
  8
LAYER_1
 10
35.61062185957717
 20
73.13598793464824
 30
0.0
  0
VERTEX
  5
A9
  8
LAYER_1
 10
35.6168450789709
 20
72.60401545156424
 30
0.0
  0
VERTEX
  5
AA
  8
LAYER_1
 10
35.64228743475643
 20
72.07274222073877
 30
0.0
  0
VERTEX
  5
AB
  8
LAYER_1
 10
35.68691886514958
 20
71.5426946075476
 30
0.0
  0
VERTEX
  5
AC
  8
LAYER_1
 10
35.75070930836618
 20
71.0143989773665
 30
0.0
  0
VERTEX
  5
AD
  8
LAYER_1
 10
35.83362870262205
 20
70.48838169557118
 30
0.0
  0
VERTEX
  5
AE
  8
LAYER_1
 10
35.93564698613302
 20
69.96516912753744
 30
0.0
  0
VERTEX
  5
AF
  8
LAYER_1
 10
36.0567340971149
 20
69.44528763864099
 30
0.0
  0
VERTEX
  5
B0
  8
LAYER_1
 10
36.19685997378353
 20
68.92926359425762
 30
0.0
  0
VERTEX
  5
B1
  8
LAYER_1
 10
36.35599455435474
 20
68.41762335976306
 30
0.0
  0
VERTEX
  5
B2
  8
LAYER_1
 10
36.53410777704433
 20
67.91089330053305
 30
0.0
 42
0.0918393766586472
  0
SEQEND
  5
B3
  8
LAYER_1
  0
POLYLINE
  5
43
  8
LAYER_1
 66
     1
 10
0.0
 20
0.0
 30
0.0
 70
     1
  0
VERTEX
  5
B4
  8
LAYER_1
 10
31.92769039279667
 20
66.04514724336727
 30
0.0
 42
-0.0379044172136352
  0
VERTEX
  5
B5
  8
LAYER_1
 10
38.09238615903478
 20
58.84365644368326
 30
0.0
 42
-0.2181458740962665
  0
VERTEX
  5
B6
  8
LAYER_1
 10
34.24267455448465
 20
77.90276015518637
 30
0.0
 42
-0.194087015299082
  0
VERTEX
  5
B7
  8
LAYER_1
 10
36.62326346028294
 20
81.59596127976317
 30
0.0
 42
0.3056286488963582
  0
VERTEX
  5
B8
  8
LAYER_1
 10
28.18912531751178
 20
76.48079591837876
 30
0.0
 42
0.2035135567360671
  0
SEQEND
  5
B9
  8
LAYER_1
  0
POLYLINE
  5
44
  8
LAYER_1
 66
     1
 10
0.0
 20
0.0
 30
0.0
 70
     1
  0
VERTEX
  5
BA
  8
LAYER_1
 10
20.03995582427513
 20
63.8639430859949
 30
0.0
 42
0.1133287997279844
  0
VERTEX
  5
BB
  8
LAYER_1
 10
30.19268606115695
 20
59.40191514749269
 30
0.0
 42
-0.1883434273054811
  0
VERTEX
  5
BC
  8
LAYER_1
 10
36.63403968465814
 20
55.55472555873387
 30
0.0
 42
0.0576476446735766
  0
VERTEX
  5
BD
  8
LAYER_1
 10
29.18439303950664
 20
65.7721228671882
 30
0.0
 42
-0.1694663930283517
  0
VERTEX
  5
BE
  8
LAYER_1
 10
26.12816661161089
 20
74.78550013680211
 30
0.0
 42
-0.2642212832712738
  0
VERTEX
  5
BF
  8
LAYER_1
 10
17.90555445995333
 20
77.4743569727865
 30
0.0
 42
0.2399565061173541
  0
SEQEND
  5
C0
  8
LAYER_1
  0
POLYLINE
  5
45
  8
LAYER_1
 66
     1
 10
0.0
 20
0.0
 30
0.0
 70
     1
  0
VERTEX
  5
C1
  8
LAYER_1
 10
39.59229941278395
 20
34.90723359047458
 30
0.0
 42
0.1543339375832692
  0
VERTEX
  5
C2
  8
LAYER_1
 10
50.52523786818792
 20
41.97760786085336
 30
0.0
 42
-0.1076178147364563
  0
VERTEX
  5
C3
  8
LAYER_1
 10
53.13520087685382
 20
28.69111133556845
 30
0.0
 42
0.1832577482792296
  0
SEQEND
  5
C4
  8
LAYER_1
  0
POLYLINE
  5
46
  8
LAYER_1
 66
     1
 10
0.0
 20
0.0
 30
0.0
 70
     1
  0
VERTEX
  5
C5
  8
LAYER_1
 10
36.7054451391435
 20
36.34324674858129
 30
0.0
 42
0.1048098240760465
  0
VERTEX
  5
C6
  8
LAYER_1
 10
42.75211314292611
 20
51.52546731821512
 30
0.0
 42
-0.1904210240209604
  0
VERTEX
  5
C7
  8
LAYER_1
 10
49.00153893969208
 20
43.97235335854764
 30
0.0
 42
-0.0950732568332966
  0
SEQEND
  5
C8
  8
LAYER_1
  0
POLYLINE
  5
47
  8
LAYER_1
 66
     1
 10
0.0
 20
0.0
 30
0.0
 70
     1
  0
VERTEX
  5
C9
  8
LAYER_1
 10
22.59373074170486
 20
50.440301910978
 30
0.0
 42
0.0929984107561782
  0
VERTEX
  5
CA
  8
LAYER_1
 10
22.77701015595564
 20
59.619184850221
 30
0.0
 42
0.074704510416256
  0
VERTEX
  5
CB
  8
LAYER_1
 10
30.60741651852602
 20
56.36451700480591
 30
0.0
 42
-0.2550817826375325
  0
VERTEX
  5
CC
  8
LAYER_1
 10
38.35018606570132
 20
48.31728195125297
 30
0.0
 42
0.3368769737636639
  0
SEQEND
  5
CD
  8
LAYER_1
  0
POLYLINE
  5
48
  8
LAYER_1
 66
     1
 10
0.0
 20
0.0
 30
0.0
 70
     1
  0
VERTEX
  5
CE
  8
LAYER_1
 10
21.9046456136619
 20
41.95388962305935
 30
0.0
 42
-0.3600504041459069
  0
VERTEX
  5
CF
  8
LAYER_1
 10
25.45357450156046
 20
49.46173663262612
 30
0.0
 42
-0.2817212958450762
  0
VERTEX
  5
D0
  8
LAYER_1
 10
35.30366284348302
 20
47.45447073101585
 30
0.0
  0
VERTEX
  5
D1
  8
LAYER_1
 10
35.51810118123349
 20
47.21996814283094
 30
0.0
  0
VERTEX
  5
D2
  8
LAYER_1
 10
35.71812890929615
 20
46.98495676758524
 30
0.0
  0
VERTEX
  5
D3
  8
LAYER_1
 10
35.90399341112141
 20
46.74950738929126
 30
0.0
  0
VERTEX
  5
D4
  8
LAYER_1
 10
36.07594207015967
 20
46.51369079196148
 30
0.0
  0
VERTEX
  5
D5
  8
LAYER_1
 10
36.23422226986133
 20
46.27757775960839
 30
0.0
  0
VERTEX
  5
D6
  8
LAYER_1
 10
36.37908139367683
 20
46.04123907624448
 30
0.0
  0
VERTEX
  5
D7
  8
LAYER_1
 10
36.51076682505653
 20
45.80474552588224
 30
0.0
  0
VERTEX
  5
D8
  8
LAYER_1
 10
36.62952594745087
 20
45.56816789253416
 30
0.0
  0
VERTEX
  5
D9
  8
LAYER_1
 10
36.73560614431023
 20
45.33157696021273
 30
0.0
  0
VERTEX
  5
DA
  8
LAYER_1
 10
36.82925479908504
 20
45.09504351293045
 30
0.0
  0
VERTEX
  5
DB
  8
LAYER_1
 10
36.91071929522568
 20
44.85863833469978
 30
0.0
  0
VERTEX
  5
DC
  8
LAYER_1
 10
36.98024701618257
 20
44.62243220953324
 30
0.0
  0
VERTEX
  5
DD
  8
LAYER_1
 10
37.03808534540613
 20
44.38649592144331
 30
0.0
  0
VERTEX
  5
DE
  8
LAYER_1
 10
37.08448166634673
 20
44.15090025444249
 30
0.0
  0
VERTEX
  5
DF
  8
LAYER_1
 10
37.11968336245481
 20
43.91571599254326
 30
0.0
  0
VERTEX
  5
E0
  8
LAYER_1
 10
37.14393781718076
 20
43.68101391975811
 30
0.0
  0
VERTEX
  5
E1
  8
LAYER_1
 10
37.15749241397498
 20
43.44686482009953
 30
0.0
  0
VERTEX
  5
E2
  8
LAYER_1
 10
37.16059453628789
 20
43.21333947758001
 30
0.0
  0
VERTEX
  5
E3
  8
LAYER_1
 10
37.15349156756989
 20
42.98050867621204
 30
0.0
  0
VERTEX
  5
E4
  8
LAYER_1
 10
37.13643089127138
 20
42.74844320000812
 30
0.0
  0
VERTEX
  5
E5
  8
LAYER_1
 10
37.10965989084278
 20
42.51721383298073
 30
0.0
  0
VERTEX
  5
E6
  8
LAYER_1
 10
37.07342594973447
 20
42.28689135914236
 30
0.0
  0
VERTEX
  5
E7
  8
LAYER_1
 10
37.02797645139687
 20
42.05754656250549
 30
0.0
  0
VERTEX
  5
E8
  8
LAYER_1
 10
36.9735587792804
 20
41.82925022708264
 30
0.0
  0
VERTEX
  5
E9
  8
LAYER_1
 10
36.91042031683545
 20
41.60207313688628
 30
0.0
  0
VERTEX
  5
EA
  8
LAYER_1
 10
36.83880844751243
 20
41.3760860759289
 30
0.0
  0
VERTEX
  5
EB
  8
LAYER_1
 10
36.75897055476173
 20
41.15135982822299
 30
0.0
  0
VERTEX
  5
EC
  8
LAYER_1
 10
36.67115402203379
 20
40.92796517778105
 30
0.0
  0
VERTEX
  5
ED
  8
LAYER_1
 10
36.47257457044773
 20
40.48545380473902
 30
0.0
  0
VERTEX
  5
EE
  8
LAYER_1
 10
36.2450491603575
 20
40.04911822890271
 30
0.0
  0
VERTEX
  5
EF
  8
LAYER_1
 10
35.99055685936634
 20
39.61952472237205
 30
0.0
  0
VERTEX
  5
F0
  8
LAYER_1
 10
35.71107673507749
 20
39.19723955724698
 30
0.0
  0
VERTEX
  5
F1
  8
LAYER_1
 10
35.40858785509421
 20
38.78282900562741
 30
0.0
  0
VERTEX
  5
F2
  8
LAYER_1
 10
35.08506928701974
 20
38.37685933961323
 30
0.0
  0
VERTEX
  5
F3
  8
LAYER_1
 10
34.74250009845733
 20
37.9798968313044
 30
0.0
  0
VERTEX
  5
F4
  8
LAYER_1
 10
34.3828593570102
 20
37.59250775280084
 30
0.0
  0
VERTEX
  5
F5
  8
LAYER_1
 10
34.00812613028164
 20
37.21525837620246
 30
0.0
  0
VERTEX
  5
F6
  8
LAYER_1
 10
33.62027948587485
 20
36.84871497360917
 30
0.0
  0
VERTEX
  5
F7
  8
LAYER_1
 10
33.22129849139311
 20
36.49344381712091
 30
0.0
  0
VERTEX
  5
F8
  8
LAYER_1
 10
32.81316221443964
 20
36.15001117883759
 30
0.0
  0
VERTEX
  5
F9
  8
LAYER_1
 10
32.39784972261769
 20
35.81898333085913
 30
0.0
  0
VERTEX
  5
FA
  8
LAYER_1
 10
31.97734008353053
 20
35.50092654528545
 30
0.0
  0
VERTEX
  5
FB
  8
LAYER_1
 10
31.55361236478137
 20
35.19640709421648
 30
0.0
  0
VERTEX
  5
FC
  8
LAYER_1
 10
31.12864563397348
 20
34.90599124975215
 30
0.0
  0
VERTEX
  5
FD
  8
LAYER_1
 10
30.7044189587101
 20
34.63024528399235
 30
0.0
  0
VERTEX
  5
FE
  8
LAYER_1
 10
30.28291140659447
 20
34.36973546903703
 30
0.0
  0
VERTEX
  5
FF
  8
LAYER_1
 10
29.92397463124492
 20
34.46476482449365
 30
0.0
  0
VERTEX
  5
100
  8
LAYER_1
 10
29.56530346720343
 20
34.57076104144791
 30
0.0
  0
VERTEX
  5
101
  8
LAYER_1
 10
29.20749790797995
 20
34.6875434044717
 30
0.0
  0
VERTEX
  5
102
  8
LAYER_1
 10
28.85115794708445
 20
34.81493119813693
 30
0.0
  0
VERTEX
  5
103
  8
LAYER_1
 10
28.49688357802692
 20
34.95274370701547
 30
0.0
  0
VERTEX
  5
104
  8
LAYER_1
 10
28.14527479431732
 20
35.10080021567923
 30
0.0
  0
VERTEX
  5
105
  8
LAYER_1
 10
27.79693158946562
 20
35.25892000870008
 30
0.0
  0
VERTEX
  5
106
  8
LAYER_1
 10
27.4524539569818
 20
35.42692237064993
 30
0.0
  0
VERTEX
  5
107
  8
LAYER_1
 10
27.11244189037583
 20
35.60462658610065
 30
0.0
  0
VERTEX
  5
108
  8
LAYER_1
 10
26.77749538315769
 20
35.79185193962415
 30
0.0
  0
VERTEX
  5
109
  8
LAYER_1
 10
26.44821442883734
 20
35.98841771579232
 30
0.0
  0
VERTEX
  5
10A
  8
LAYER_1
 10
26.12519902092475
 20
36.19414319917703
 30
0.0
  0
VERTEX
  5
10B
  8
LAYER_1
 10
25.80904915292992
 20
36.4088476743502
 30
0.0
  0
VERTEX
  5
10C
  8
LAYER_1
 10
25.50036481836278
 20
36.63235042588369
 30
0.0
  0
VERTEX
  5
10D
  8
LAYER_1
 10
25.19974601073334
 20
36.86447073834941
 30
0.0
  0
VERTEX
  5
10E
  8
LAYER_1
 10
24.90779272355155
 20
37.10502789631925
 30
0.0
  0
VERTEX
  5
10F
  8
LAYER_1
 10
24.62510495032739
 20
37.35384118436509
 30
0.0
  0
VERTEX
  5
110
  8
LAYER_1
 10
24.35228268457083
 20
37.61072988705884
 30
0.0
  0
VERTEX
  5
111
  8
LAYER_1
 10
24.08992591979185
 20
37.87551328897237
 30
0.0
  0
VERTEX
  5
112
  8
LAYER_1
 10
23.83863464950042
 20
38.14801067467759
 30
0.0
  0
VERTEX
  5
113
  8
LAYER_1
 10
23.59900886720651
 20
38.42804132874637
 30
0.0
  0
VERTEX
  5
114
  8
LAYER_1
 10
23.37164856642009
 20
38.71542453575061
 30
0.0
  0
VERTEX
  5
115
  8
LAYER_1
 10
23.15715374065113
 20
39.00997958026221
 30
0.0
  0
VERTEX
  5
116
  8
LAYER_1
 10
22.95612438340961
 20
39.31152574685305
 30
0.0
  0
VERTEX
  5
117
  8
LAYER_1
 10
22.7691604882055
 20
39.61988232009502
 30
0.0
  0
VERTEX
  5
118
  8
LAYER_1
 10
22.59686204854878
 20
39.93486858456001
 30
0.0
  0
VERTEX
  5
119
  8
LAYER_1
 10
22.43982905794941
 20
40.25630382481992
 30
0.0
  0
VERTEX
  5
11A
  8
LAYER_1
 10
22.29866150991736
 20
40.58400732544663
 30
0.0
  0
VERTEX
  5
11B
  8
LAYER_1
 10
22.17395939796261
 20
40.91779837101204
 30
0.0
  0
VERTEX
  5
11C
  8
LAYER_1
 10
22.06632271559514
 20
41.25749624608804
 30
0.0
  0
VERTEX
  5
11D
  8
LAYER_1
 10
21.97635145632491
 20
41.60292023524651
 30
0.0
  0
SEQEND
  5
11E
  8
LAYER_1
  0
POLYLINE
  5
49
  8
LAYER_1
 66
     1
 10
0.0
 20
0.0
 30
0.0
 70
     1
  0
VERTEX
  5
11F
  8
LAYER_1
 10
10.14504403406234
 20
52.71391507443045
 30
0.0
  0
VERTEX
  5
120
  8
LAYER_1
 10
9.927447086299473
 20
53.05631749953974
 30
0.0
  0
VERTEX
  5
121
  8
LAYER_1
 10
9.734559087216653
 20
53.40945637960763
 30
0.0
  0
VERTEX
  5
122
  8
LAYER_1
 10
9.566458106713112
 20
53.7720647910668
 30
0.0
  0
VERTEX
  5
123
  8
LAYER_1
 10
9.423222214688092
 20
54.14287581034998
 30
0.0
  0
VERTEX
  5
124
  8
LAYER_1
 10
9.304929481040835
 20
54.52062251388988
 30
0.0
  0
VERTEX
  5
125
  8
LAYER_1
 10
9.211657975670583
 20
54.90403797811921
 30
0.0
  0
VERTEX
  5
126
  8
LAYER_1
 10
9.143485768476577
 20
55.29185527947069
 30
0.0
  0
VERTEX
  5
127
  8
LAYER_1
 10
9.100490929358056
 20
55.68280749437702
 30
0.0
  0
VERTEX
  5
128
  8
LAYER_1
 10
9.08275152821426
 20
56.07562769927092
 30
0.0
  0
VERTEX
  5
129
  8
LAYER_1
 10
9.090345634944432
 20
56.46904897058512
 30
0.0
  0
VERTEX
  5
12A
  8
LAYER_1
 10
9.123351319447814
 20
56.86180438475232
 30
0.0
  0
VERTEX
  5
12B
  8
LAYER_1
 10
9.181846651623644
 20
57.25262701820522
 30
0.0
  0
VERTEX
  5
12C
  8
LAYER_1
 10
9.265909701371164
 20
57.64024994737655
 30
0.0
  0
VERTEX
  5
12D
  8
LAYER_1
 10
9.375618538589617
 20
58.02340624869902
 30
0.0
  0
VERTEX
  5
12E
  8
LAYER_1
 10
9.51105123317824
 20
58.40082899860533
 30
0.0
  0
VERTEX
  5
12F
  8
LAYER_1
 10
9.672285855036275
 20
58.77125127352822
 30
0.0
  0
VERTEX
  5
130
  8
LAYER_1
 10
9.729827164959683
 20
58.86755837554846
 30
0.0
  0
VERTEX
  5
131
  8
LAYER_1
 10
9.80057241385047
 20
58.9557118399742
 30
0.0
  0
VERTEX
  5
132
  8
LAYER_1
 10
9.951536520674136
 20
59.12586905094185
 30
0.0
  0
VERTEX
  5
133
  8
LAYER_1
 10
9.992305216403121
 20
59.18262867536151
 30
0.0
  0
VERTEX
  5
134
  8
LAYER_1
 10
10.02552844314024
 20
59.24264808235706
 30
0.0
  0
VERTEX
  5
135
  8
LAYER_1
 10
10.05127581204878
 20
59.30525776095277
 30
0.0
  0
VERTEX
  5
136
  8
LAYER_1
 10
10.06961693429207
 20
59.36978820017292
 30
0.0
  0
VERTEX
  5
137
  8
LAYER_1
 10
10.08435888343606
 20
59.50193331658362
 30
0.0
  0
VERTEX
  5
138
  8
LAYER_1
 10
10.07031117987864
 20
59.63372734378335
 30
0.0
  0
VERTEX
  5
139
  8
LAYER_1
 10
10.02803071292622
 20
59.75981419396631
 30
0.0
  0
VERTEX
  5
13A
  8
LAYER_1
 10
9.996477221085154
 20
59.8190436502372
 30
0.0
  0
VERTEX
  5
13B
  8
LAYER_1
 10
9.958074371885246
 20
59.87483777932671
 30
0.0
  0
VERTEX
  5
13C
  8
LAYER_1
 10
9.912891776489804
 20
59.92652707025913
 30
0.0
  0
VERTEX
  5
13D
  8
LAYER_1
 10
9.860999046062132
 20
59.97344201205873
 30
0.0
  0
VERTEX
  5
13E
  8
LAYER_1
 10
9.802465791765531
 20
60.01491309374979
 30
0.0
  0
VERTEX
  5
13F
  8
LAYER_1
 10
9.737361624763306
 20
60.05027080435658
 30
0.0
 42
-0.1664919217148434
  0
VERTEX
  5
140
  8
LAYER_1
 10
9.187971374789395
 20
60.52569732038796
 30
0.0
 42
-0.3871944297282979
  0
VERTEX
  5
141
  8
LAYER_1
 10
10.45544597761032
 20
64.53505575788272
 30
0.0
 42
-0.3126126981114167
  0
VERTEX
  5
142
  8
LAYER_1
 10
17.85335896550387
 20
63.2417143264328
 30
0.0
 42
-0.2477491008581423
  0
VERTEX
  5
143
  8
LAYER_1
 10
20.38830817114571
 20
54.52459307846033
 30
0.0
 42
0.7237873803457906
  0
SEQEND
  5
144
  8
LAYER_1
  0
POLYLINE
  5
4A
  8
LAYER_1
 66
     1
 10
0.0
 20
0.0
 30
0.0
 70
     1
  0
VERTEX
  5
145
  8
LAYER_1
 10
48.6476162464302
 20
11.18428718789596
 30
0.0
 42
0.2698822859284556
  0
VERTEX
  5
146
  8
LAYER_1
 10
39.35305953980956
 20
32.65426717127061
 30
0.0
 42
-0.1744115852968134
  0
VERTEX
  5
147
  8
LAYER_1
 10
53.34617315616712
 20
24.93696351688058
 30
0.0
 42
-0.1260385732814716
  0
SEQEND
  5
148
  8
LAYER_1
  0
POLYLINE
  5
4B
  8
LAYER_1
 66
     1
 10
0.0
 20
0.0
 30
0.0
 70
     1
  0
VERTEX
  5
149
  8
LAYER_1
 10
17.09317326501614
 20
32.76247603673726
 30
0.0
 42
-0.016435643564356
  0
VERTEX
  5
14A
  8
LAYER_1
 10
21.87853656138084
 20
28.36511516980754
 30
0.0
 42
0.1100089910324821
  0
VERTEX
  5
14B
  8
LAYER_1
 10
28.39723604417474
 20
32.61193109411649
 30
0.0
 42
-0.2107002125959736
  0
VERTEX
  5
14C
  8
LAYER_1
 10
20.43025282644323
 20
38.12156559209315
 30
0.0
 42
-0.1248536682540483
  0
SEQEND
  5
14D
  8
LAYER_1
  0
POLYLINE
  5
4C
  8
LAYER_1
 66
     1
 10
0.0
 20
0.0
 30
0.0
 70
     1
  0
VERTEX
  5
14E
  8
LAYER_1
 10
30.44283149092315
 20
18.18145378635122
 30
0.0
 42
0.3718968386023288
  0
VERTEX
  5
14F
  8
LAYER_1
 10
25.39879990826851
 20
26.84684137706559
 30
0.0
 42
0.0662734584450408
  0
VERTEX
  5
150
  8
LAYER_1
 10
31.47750463608307
 20
31.89087295972023
 30
0.0
 42
-0.2285234429671096
  0
VERTEX
  5
151
  8
LAYER_1
 10
41.30689951510236
 20
27.10550966335558
 30
0.0
  0
VERTEX
  5
152
  8
LAYER_1
 10
41.5026755987773
 20
26.86671108180942
 30
0.0
  0
VERTEX
  5
153
  8
LAYER_1
 10
41.68176584166699
 20
26.61826311831015
 30
0.0
  0
VERTEX
  5
154
  8
LAYER_1
 10
41.84403818773595
 20
26.36100241491829
 30
0.0
  0
VERTEX
  5
155
  8
LAYER_1
 10
41.98936058094873
 20
26.09576561369433
 30
0.0
  0
VERTEX
  5
156
  8
LAYER_1
 10
42.11760096526989
 20
25.8233893566988
 30
0.0
  0
VERTEX
  5
157
  8
LAYER_1
 10
42.22862728466393
 20
25.54471028599219
 30
0.0
  0
VERTEX
  5
158
  8
LAYER_1
 10
42.32230748309543
 20
25.26056504363501
 30
0.0
  0
VERTEX
  5
159
  8
LAYER_1
 10
42.39850950452891
 20
24.97179027168777
 30
0.0
  0
VERTEX
  5
15A
  8
LAYER_1
 10
42.45710129292892
 20
24.67922261221098
 30
0.0
  0
VERTEX
  5
15B
  8
LAYER_1
 10
42.49795079226001
 20
24.38369870726514
 30
0.0
  0
VERTEX
  5
15C
  8
LAYER_1
 10
42.52092594648671
 20
24.08605519891076
 30
0.0
  0
VERTEX
  5
15D
  8
LAYER_1
 10
42.52589469957357
 20
23.78712872920835
 30
0.0
  0
VERTEX
  5
15E
  8
LAYER_1
 10
42.51272499548512
 20
23.48775594021841
 30
0.0
  0
VERTEX
  5
15F
  8
LAYER_1
 10
42.48128477818591
 20
23.18877347400145
 30
0.0
  0
VERTEX
  5
160
  8
LAYER_1
 10
42.43144199164048
 20
22.89101797261798
 30
0.0
  0
VERTEX
  5
161
  8
LAYER_1
 10
42.36306457981338
 20
22.5953260781285
 30
0.0
  0
VERTEX
  5
162
  8
LAYER_1
 10
42.28263820510401
 20
22.35005153101111
 30
0.0
  0
VERTEX
  5
163
  8
LAYER_1
 10
42.17488808990485
 20
22.11326318600369
 30
0.0
  0
VERTEX
  5
164
  8
LAYER_1
 10
42.04291207703326
 20
21.88629247482753
 30
0.0
  0
VERTEX
  5
165
  8
LAYER_1
 10
41.88980800930656
 20
21.67047082920387
 30
0.0
  0
VERTEX
  5
166
  8
LAYER_1
 10
41.71867372954208
 20
21.46712968085399
 30
0.0
  0
VERTEX
  5
167
  8
LAYER_1
 10
41.53260708055716
 20
21.27760046149913
 30
0.0
  0
VERTEX
  5
168
  8
LAYER_1
 10
41.33470590516913
 20
21.10321460286056
 30
0.0
  0
VERTEX
  5
169
  8
LAYER_1
 10
41.12806804619533
 20
20.94530353665955
 30
0.0
  0
VERTEX
  5
16A
  8
LAYER_1
 10
40.83569374687126
 20
20.74252839128692
 30
0.0
  0
VERTEX
  5
16B
  8
LAYER_1
 10
40.53931172352029
 20
20.54690123051205
 30
0.0
  0
VERTEX
  5
16C
  8
LAYER_1
 10
40.23905475278363
 20
20.35845825484723
 30
0.0
  0
VERTEX
  5
16D
  8
LAYER_1
 10
39.9350556113025
 20
20.17723566480481
 30
0.0
  0
VERTEX
  5
16E
  8
LAYER_1
 10
39.62744707571811
 20
20.00326966089711
 30
0.0
  0
VERTEX
  5
16F
  8
LAYER_1
 10
39.3163619226717
 20
19.83659644363646
 30
0.0
  0
VERTEX
  5
170
  8
LAYER_1
 10
39.00193292880448
 20
19.67725221353518
 30
0.0
  0
VERTEX
  5
171
  8
LAYER_1
 10
38.68429287075766
 20
19.5252731711056
 30
0.0
  0
VERTEX
  5
172
  8
LAYER_1
 10
38.36357452517247
 20
19.38069551686003
 30
0.0
  0
VERTEX
  5
173
  8
LAYER_1
 10
38.03991066869011
 20
19.24355545131082
 30
0.0
  0
VERTEX
  5
174
  8
LAYER_1
 10
37.71343407795182
 20
19.11388917497028
 30
0.0
  0
VERTEX
  5
175
  8
LAYER_1
 10
37.3842775295988
 20
18.99173288835073
 30
0.0
  0
VERTEX
  5
176
  8
LAYER_1
 10
37.05257380027228
 20
18.87712279196452
 30
0.0
  0
VERTEX
  5
177
  8
LAYER_1
 10
36.71845566661348
 20
18.77009508632395
 30
0.0
  0
VERTEX
  5
178
  8
LAYER_1
 10
36.38205590526361
 20
18.67068597194136
 30
0.0
  0
VERTEX
  5
179
  8
LAYER_1
 10
36.04350729286389
 20
18.57893164932906
 30
0.0
  0
VERTEX
  5
17A
  8
LAYER_1
 10
35.70294260605553
 20
18.4948683189994
 30
0.0
  0
VERTEX
  5
17B
  8
LAYER_1
 10
35.36049462147977
 20
18.41853218146469
 30
0.0
  0
VERTEX
  5
17C
  8
LAYER_1
 10
35.01629611577782
 20
18.34995943723726
 30
0.0
  0
VERTEX
  5
17D
  8
LAYER_1
 10
34.67047986559089
 20
18.28918628682943
 30
0.0
  0
VERTEX
  5
17E
  8
LAYER_1
 10
34.32317864756021
 20
18.23624893075354
 30
0.0
  0
VERTEX
  5
17F
  8
LAYER_1
 10
33.97452523832698
 20
18.1911835695219
 30
0.0
  0
VERTEX
  5
180
  8
LAYER_1
 10
33.62465241453243
 20
18.15402640364684
 30
0.0
  0
VERTEX
  5
181
  8
LAYER_1
 10
33.27369295281778
 20
18.12481363364069
 30
0.0
  0
VERTEX
  5
182
  8
LAYER_1
 10
32.92177962982426
 20
18.10358146001577
 30
0.0
  0
VERTEX
  5
183
  8
LAYER_1
 10
32.56904522219306
 20
18.09036608328442
 30
0.0
  0
VERTEX
  5
184
  8
LAYER_1
 10
32.21562250656542
 20
18.08520370395894
 30
0.0
  0
VERTEX
  5
185
  8
LAYER_1
 10
31.86164425958255
 20
18.08813052255167
 30
0.0
  0
VERTEX
  5
186
  8
LAYER_1
 10
31.50724325788567
 20
18.09918273957494
 30
0.0
  0
VERTEX
  5
187
  8
LAYER_1
 10
31.15255227811599
 20
18.11839655554107
 30
0.0
  0
VERTEX
  5
188
  8
LAYER_1
 10
30.79770409691475
 20
18.14580817096239
 30
0.0
  0
SEQEND
  5
189
  8
LAYER_1
  0
POLYLINE
  5
4D
  8
LAYER_1
 66
     1
 10
0.0
 20
0.0
 30
0.0
 70
     1
  0
VERTEX
  5
18A
  8
LAYER_1
 10
7.347845579041
 20
25.7784323069077
 30
0.0
 42
-0.1158720899400751
  0
VERTEX
  5
18B
  8
LAYER_1
 10
11.35720401653575
 20
28.80485125650051
 30
0.0
 42
0.0891290396540862
  0
VERTEX
  5
18C
  8
LAYER_1
 10
14.78135132312804
 20
31.00663570940085
 30
0.0
 42
-0.0569083412415272
  0
VERTEX
  5
18D
  8
LAYER_1
 10
19.78979014958922
 20
27.20110788150261
 30
0.0
 42
-0.1416637512479414
  0
SEQEND
  5
18E
  8
LAYER_1
  0
POLYLINE
  5
4E
  8
LAYER_1
 66
     1
 10
0.0
 20
0.0
 30
0.0
 70
     1
  0
VERTEX
  5
18F
  8
LAYER_1
 10
21.68400503390146
 20
7.670220419324464
 30
0.0
 42
-0.0827292472265588
  0
VERTEX
  5
190
  8
LAYER_1
 10
36.50852702269869
 20
12.47336716037156
 30
0.0
 42
0.2819923794088157
  0
VERTEX
  5
191
  8
LAYER_1
 10
44.34949028470322
 20
20.02551111396543
 30
0.0
 42
-0.2269757628362733
  0
VERTEX
  5
192
  8
LAYER_1
 10
31.76398481526417
 20
15.72127083010014
 30
0.0
  0
VERTEX
  5
193
  8
LAYER_1
 10
30.76122283257185
 20
15.65633512647658
 30
0.0
  0
VERTEX
  5
194
  8
LAYER_1
 10
29.82708445784892
 20
15.57637236161773
 30
0.0
  0
VERTEX
  5
195
  8
LAYER_1
 10
28.95914450845666
 20
15.48168098602316
 30
0.0
  0
VERTEX
  5
196
  8
LAYER_1
 10
28.15497780175637
 20
15.37255945019245
 30
0.0
  0
VERTEX
  5
197
  8
LAYER_1
 10
27.41215915510931
 20
15.24930620462517
 30
0.0
  0
VERTEX
  5
198
  8
LAYER_1
 10
26.72826338587679
 20
15.11221969982089
 30
0.0
  0
VERTEX
  5
199
  8
LAYER_1
 10
26.10086531142007
 20
14.96159838627917
 30
0.0
  0
VERTEX
  5
19A
  8
LAYER_1
 10
25.52753974910046
 20
14.79774071449961
 30
0.0
  0
VERTEX
  5
19B
  8
LAYER_1
 10
25.00586151627923
 20
14.62094513498177
 30
0.0
  0
VERTEX
  5
19C
  8
LAYER_1
 10
24.53340543031766
 20
14.43151009822522
 30
0.0
  0
VERTEX
  5
19D
  8
LAYER_1
 10
24.31487782283466
 20
14.33214604916355
 30
0.0
  0
VERTEX
  5
19E
  8
LAYER_1
 10
24.10774630857706
 20
14.22973405472954
 30
0.0
  0
VERTEX
  5
19F
  8
LAYER_1
 10
23.91170773971502
 20
14.12431142123564
 30
0.0
  0
VERTEX
  5
1A0
  8
LAYER_1
 10
23.7264589684187
 20
14.0159154549943
 30
0.0
  0
VERTEX
  5
1A1
  8
LAYER_1
 10
23.55169684685826
 20
13.90458346231796
 30
0.0
  0
VERTEX
  5
1A2
  8
LAYER_1
 10
23.38711822720386
 20
13.79035274951907
 30
0.0
  0
VERTEX
  5
1A3
  8
LAYER_1
 10
23.23241996162567
 20
13.67326062291007
 30
0.0
  0
VERTEX
  5
1A4
  8
LAYER_1
 10
23.08729890229383
 20
13.55334438880342
 30
0.0
  0
VERTEX
  5
1A5
  8
LAYER_1
 10
22.95145190137853
 20
13.43064135351156
 30
0.0
  0
VERTEX
  5
1A6
  8
LAYER_1
 10
22.8245758110499
 20
13.30518882334694
 30
0.0
  0
VERTEX
  5
1A7
  8
LAYER_1
 10
22.70636748347813
 20
13.177024104622
 30
0.0
  0
VERTEX
  5
1A8
  8
LAYER_1
 10
22.59652377083336
 20
13.04618450364919
 30
0.0
  0
VERTEX
  5
1A9
  8
LAYER_1
 10
22.49474152528575
 20
12.91270732674095
 30
0.0
  0
VERTEX
  5
1AA
  8
LAYER_1
 10
22.40071759900548
 20
12.77662988020974
 30
0.0
  0
VERTEX
  5
1AB
  8
LAYER_1
 10
22.23473211292755
 20
12.49682340352817
 30
0.0
  0
VERTEX
  5
1AC
  8
LAYER_1
 10
22.09614212996086
 20
12.20706352410406
 30
0.0
  0
VERTEX
  5
1AD
  8
LAYER_1
 10
21.9825224674667
 20
11.90764869243697
 30
0.0
  0
VERTEX
  5
1AE
  8
LAYER_1
 10
21.89144794280634
 20
11.59887735902647
 30
0.0
  0
VERTEX
  5
1AF
  8
LAYER_1
 10
21.82049337334109
 20
11.28104797437215
 30
0.0
  0
VERTEX
  5
1B0
  8
LAYER_1
 10
21.7672335764322
 20
10.95445898897358
 30
0.0
  0
VERTEX
  5
1B1
  8
LAYER_1
 10
21.72924336944099
 20
10.61940885333032
 30
0.0
  0
VERTEX
  5
1B2
  8
LAYER_1
 10
21.70409756972872
 20
10.27619601794195
 30
0.0
  0
VERTEX
  5
1B3
  8
LAYER_1
 10
21.68937099465669
 20
9.925118933308047
 30
0.0
  0
VERTEX
  5
1B4
  8
LAYER_1
 10
21.68147478787849
 20
9.200565818301921
 30
0.0
  0
VERTEX
  5
1B5
  8
LAYER_1
 10
21.68615328799665
 20
8.448137112308533
 30
0.0
  0
SEQEND
  5
1B6
  8
LAYER_1
  0
POLYLINE
  5
4F
  8
LAYER_1
 66
     1
 10
0.0
 20
0.0
 30
0.0
 70
     1
  0
VERTEX
  5
1B7
  8
LAYER_1
 10
-22.50358292286971
 20
54.52459307846033
 30
0.0
 42
-0.2477491008581423
  0
VERTEX
  5
1B8
  8
LAYER_1
 10
-19.96863371722786
 20
63.2417143264328
 30
0.0
 42
-0.3126126981114167
  0
VERTEX
  5
1B9
  8
LAYER_1
 10
-12.57072072933432
 20
64.53505575788272
 30
0.0
 42
-0.3871944297282979
  0
VERTEX
  5
1BA
  8
LAYER_1
 10
-11.30324612651339
 20
60.52569732038796
 30
0.0
 42
-0.1664919217148434
  0
VERTEX
  5
1BB
  8
LAYER_1
 10
-11.8526363764873
 20
60.05027080435658
 30
0.0
  0
VERTEX
  5
1BC
  8
LAYER_1
 10
-11.91774054348953
 20
60.01491309374979
 30
0.0
  0
VERTEX
  5
1BD
  8
LAYER_1
 10
-11.97627379778613
 20
59.97344201205873
 30
0.0
  0
VERTEX
  5
1BE
  8
LAYER_1
 10
-12.0281665282138
 20
59.92652707025913
 30
0.0
  0
VERTEX
  5
1BF
  8
LAYER_1
 10
-12.07334912360924
 20
59.87483777932671
 30
0.0
  0
VERTEX
  5
1C0
  8
LAYER_1
 10
-12.11175197280915
 20
59.8190436502372
 30
0.0
  0
VERTEX
  5
1C1
  8
LAYER_1
 10
-12.14330546465022
 20
59.75981419396631
 30
0.0
  0
VERTEX
  5
1C2
  8
LAYER_1
 10
-12.18558593160263
 20
59.63372734378335
 30
0.0
  0
VERTEX
  5
1C3
  8
LAYER_1
 10
-12.19963363516006
 20
59.50193331658362
 30
0.0
  0
VERTEX
  5
1C4
  8
LAYER_1
 10
-12.18489168601607
 20
59.36978820017292
 30
0.0
  0
VERTEX
  5
1C5
  8
LAYER_1
 10
-12.16655056377278
 20
59.30525776095277
 30
0.0
  0
VERTEX
  5
1C6
  8
LAYER_1
 10
-12.14080319486423
 20
59.24264808235706
 30
0.0
  0
VERTEX
  5
1C7
  8
LAYER_1
 10
-12.10757996812712
 20
59.18262867536151
 30
0.0
  0
VERTEX
  5
1C8
  8
LAYER_1
 10
-12.06681127239813
 20
59.12586905094185
 30
0.0
  0
VERTEX
  5
1C9
  8
LAYER_1
 10
-11.91584716557447
 20
58.9557118399742
 30
0.0
  0
VERTEX
  5
1CA
  8
LAYER_1
 10
-11.84510191668368
 20
58.86755837554846
 30
0.0
  0
VERTEX
  5
1CB
  8
LAYER_1
 10
-11.78756060676027
 20
58.77125127352822
 30
0.0
  0
VERTEX
  5
1CC
  8
LAYER_1
 10
-11.62632598490224
 20
58.40082899860533
 30
0.0
  0
VERTEX
  5
1CD
  8
LAYER_1
 10
-11.49089329031361
 20
58.02340624869902
 30
0.0
  0
VERTEX
  5
1CE
  8
LAYER_1
 10
-11.38118445309516
 20
57.64024994737655
 30
0.0
  0
VERTEX
  5
1CF
  8
LAYER_1
 10
-11.29712140334764
 20
57.25262701820522
 30
0.0
  0
VERTEX
  5
1D0
  8
LAYER_1
 10
-11.23862607117181
 20
56.86180438475232
 30
0.0
  0
VERTEX
  5
1D1
  8
LAYER_1
 10
-11.20562038666843
 20
56.46904897058512
 30
0.0
  0
VERTEX
  5
1D2
  8
LAYER_1
 10
-11.19802627993826
 20
56.07562769927092
 30
0.0
  0
VERTEX
  5
1D3
  8
LAYER_1
 10
-11.21576568108205
 20
55.68280749437702
 30
0.0
  0
VERTEX
  5
1D4
  8
LAYER_1
 10
-11.25876052020057
 20
55.29185527947069
 30
0.0
  0
VERTEX
  5
1D5
  8
LAYER_1
 10
-11.32693272739458
 20
54.90403797811921
 30
0.0
  0
VERTEX
  5
1D6
  8
LAYER_1
 10
-11.42020423276483
 20
54.52062251388988
 30
0.0
  0
VERTEX
  5
1D7
  8
LAYER_1
 10
-11.53849696641209
 20
54.14287581034998
 30
0.0
  0
VERTEX
  5
1D8
  8
LAYER_1
 10
-11.68173285843711
 20
53.7720647910668
 30
0.0
  0
VERTEX
  5
1D9
  8
LAYER_1
 10
-11.84983383894065
 20
53.40945637960763
 30
0.0
  0
VERTEX
  5
1DA
  8
LAYER_1
 10
-12.04272183802347
 20
53.05631749953974
 30
0.0
  0
VERTEX
  5
1DB
  8
LAYER_1
 10
-12.26031878578633
 20
52.71391507443045
 30
0.0
 42
0.7237873803457906
  0
SEQEND
  5
1DC
  8
LAYER_1
  0
POLYLINE
  5
50
  8
LAYER_1
 66
     1
 10
0.0
 20
0.0
 30
0.0
 70
     1
  0
VERTEX
  5
1DD
  8
LAYER_1
 10
31.28880280381061
 20
-5.399658196960163
 30
0.0
 42
0.6347873043657708
  0
VERTEX
  5
1DE
  8
LAYER_1
 10
39.66415857852232
 20
-10.52872697873262
 30
0.0
 42
0.2324051259274574
  0
VERTEX
  5
1DF
  8
LAYER_1
 10
45.75903007422999
 20
1.699816255626221
 30
0.0
 42
-0.0607834614261778
  0
VERTEX
  5
1E0
  8
LAYER_1
 10
46.59323529751519
 20
9.904450961386553
 30
0.0
 42
-0.1438188471043507
  0
VERTEX
  5
1E1
  8
LAYER_1
 10
39.44105718159721
 20
4.879819500203675
 30
0.0
 42
0.2673851790151398
  0
SEQEND
  5
1E2
  8
LAYER_1
  0
POLYLINE
  5
51
  8
LAYER_1
 66
     1
 10
0.0
 20
0.0
 30
0.0
 70
     1
  0
VERTEX
  5
1E3
  8
LAYER_1
 10
20.62222176619502
 20
-0.9973920754576104
 30
0.0
 42
0.4275397436380783
  0
VERTEX
  5
1E4
  8
LAYER_1
 10
29.24395908359796
 20
-7.604750113377317
 30
0.0
 42
-0.3988451603099831
  0
VERTEX
  5
1E5
  8
LAYER_1
 10
37.5294276288239
 20
6.541171793106029
 30
0.0
  0
VERTEX
  5
1E6
  8
LAYER_1
 10
37.92091525635462
 20
6.669433568607518
 30
0.0
  0
VERTEX
  5
1E7
  8
LAYER_1
 10
38.31179943158264
 20
6.810568340478922
 30
0.0
  0
VERTEX
  5
1E8
  8
LAYER_1
 10
38.70122379024012
 20
6.964306883949025
 30
0.0
  0
VERTEX
  5
1E9
  8
LAYER_1
 10
39.08833196805924
 20
7.130379974246608
 30
0.0
  0
VERTEX
  5
1EA
  8
LAYER_1
 10
39.47226760077218
 20
7.308518386600452
 30
0.0
  0
VERTEX
  5
1EB
  8
LAYER_1
 10
39.85217432411112
 20
7.498452896239342
 30
0.0
  0
VERTEX
  5
1EC
  8
LAYER_1
 10
40.22719577380825
 20
7.699914278392056
 30
0.0
  0
VERTEX
  5
1ED
  8
LAYER_1
 10
40.59647558559573
 20
7.912633308287378
 30
0.0
  0
VERTEX
  5
1EE
  8
LAYER_1
 10
40.95915739520574
 20
8.13634076115409
 30
0.0
  0
VERTEX
  5
1EF
  8
LAYER_1
 10
41.31438483837047
 20
8.370767412220971
 30
0.0
  0
VERTEX
  5
1F0
  8
LAYER_1
 10
41.66130155082209
 20
8.615644036716805
 30
0.0
  0
VERTEX
  5
1F1
  8
LAYER_1
 10
41.99905116829277
 20
8.870701409870374
 30
0.0
  0
VERTEX
  5
1F2
  8
LAYER_1
 10
42.3267773265147
 20
9.135670306910459
 30
0.0
  0
VERTEX
  5
1F3
  8
LAYER_1
 10
42.64362366122005
 20
9.410281503065843
 30
0.0
  0
VERTEX
  5
1F4
  8
LAYER_1
 10
42.94873380814101
 20
9.69426577356531
 30
0.0
  0
VERTEX
  5
1F5
  8
LAYER_1
 10
43.24125140300974
 20
9.987353893637636
 30
0.0
  0
VERTEX
  5
1F6
  8
LAYER_1
 10
43.52032008155844
 20
10.28927663851161
 30
0.0
  0
VERTEX
  5
1F7
  8
LAYER_1
 10
43.78508347951926
 20
10.599764783416
 30
0.0
  0
VERTEX
  5
1F8
  8
LAYER_1
 10
44.0346852326244
 20
10.9185491035796
 30
0.0
  0
VERTEX
  5
1F9
  8
LAYER_1
 10
44.26826897660602
 20
11.2453603742312
 30
0.0
  0
VERTEX
  5
1FA
  8
LAYER_1
 10
44.4849783471963
 20
11.57992937059956
 30
0.0
  0
VERTEX
  5
1FB
  8
LAYER_1
 10
44.68395698012745
 20
11.92198686791348
 30
0.0
  0
VERTEX
  5
1FC
  8
LAYER_1
 10
44.86434851113161
 20
12.27126364140173
 30
0.0
  0
VERTEX
  5
1FD
  8
LAYER_1
 10
45.02529657594098
 20
12.6274904662931
 30
0.0
  0
VERTEX
  5
1FE
  8
LAYER_1
 10
45.16594481028771
 20
12.99039811781636
 30
0.0
  0
VERTEX
  5
1FF
  8
LAYER_1
 10
45.28543684990402
 20
13.35971737120031
 30
0.0
  0
VERTEX
  5
200
  8
LAYER_1
 10
45.38291633052205
 20
13.73517900167372
 30
0.0
  0
VERTEX
  5
201
  8
LAYER_1
 10
45.457526887874
 20
14.11651378446538
 30
0.0
  0
VERTEX
  5
202
  8
LAYER_1
 10
45.50841215769204
 20
14.50345249480405
 30
0.0
  0
VERTEX
  5
203
  8
LAYER_1
 10
45.53471577570835
 20
14.89572590791854
 30
0.0
  0
VERTEX
  5
204
  8
LAYER_1
 10
45.5355813776551
 20
15.29306479903762
 30
0.0
  0
VERTEX
  5
205
  8
LAYER_1
 10
45.51015259926447
 20
15.69519994339007
 30
0.0
 42
-0.2189923156222453
  0
VERTEX
  5
206
  8
LAYER_1
 10
30.89539442388053
 20
8.271420126867604
 30
0.0
  0
VERTEX
  5
207
  8
LAYER_1
 10
30.0404436105295
 20
8.133915486039008
 30
0.0
  0
VERTEX
  5
208
  8
LAYER_1
 10
29.23129630100185
 20
7.978306945607653
 30
0.0
  0
VERTEX
  5
209
  8
LAYER_1
 10
28.4668167524494
 20
7.805423310111268
 30
0.0
  0
VERTEX
  5
20A
  8
LAYER_1
 10
27.74586922202402
 20
7.61609338408759
 30
0.0
  0
VERTEX
  5
20B
  8
LAYER_1
 10
27.06731796687755
 20
7.411145972074351
 30
0.0
  0
VERTEX
  5
20C
  8
LAYER_1
 10
26.43002724416183
 20
7.191409878609284
 30
0.0
  0
VERTEX
  5
20D
  8
LAYER_1
 10
25.83286131102872
 20
6.957713908230125
 30
0.0
  0
VERTEX
  5
20E
  8
LAYER_1
 10
25.27468442463005
 20
6.710886865474607
 30
0.0
  0
VERTEX
  5
20F
  8
LAYER_1
 10
24.75436084211766
 20
6.451757554880464
 30
0.0
  0
VERTEX
  5
210
  8
LAYER_1
 10
24.27075482064342
 20
6.181154780985429
 30
0.0
  0
VERTEX
  5
211
  8
LAYER_1
 10
23.82273061735916
 20
5.899907348327236
 30
0.0
  0
VERTEX
  5
212
  8
LAYER_1
 10
23.40915248941674
 20
5.608844061443619
 30
0.0
  0
VERTEX
  5
213
  8
LAYER_1
 10
23.02888469396798
 20
5.308793724872313
 30
0.0
  0
VERTEX
  5
214
  8
LAYER_1
 10
22.68079148816475
 20
5.00058514315105
 30
0.0
  0
VERTEX
  5
215
  8
LAYER_1
 10
22.36373712915888
 20
4.685047120817565
 30
0.0
  0
VERTEX
  5
216
  8
LAYER_1
 10
22.07658587410224
 20
4.363008462409592
 30
0.0
  0
VERTEX
  5
217
  8
LAYER_1
 10
21.81820198014664
 20
4.035297972464864
 30
0.0
  0
VERTEX
  5
218
  8
LAYER_1
 10
21.58744970444396
 20
3.702744455521115
 30
0.0
  0
VERTEX
  5
219
  8
LAYER_1
 10
21.38319330414602
 20
3.36617671611608
 30
0.0
  0
VERTEX
  5
21A
  8
LAYER_1
 10
21.20429703640468
 20
3.02642355878749
 30
0.0
  0
VERTEX
  5
21B
  8
LAYER_1
 10
21.04962515837178
 20
2.684313788073082
 30
0.0
  0
VERTEX
  5
21C
  8
LAYER_1
 10
20.91804192719917
 20
2.340676208510588
 30
0.0
  0
VERTEX
  5
21D
  8
LAYER_1
 10
20.80841160003869
 20
1.996339624637743
 30
0.0
  0
VERTEX
  5
21E
  8
LAYER_1
 10
20.7195984340422
 20
1.652132840992279
 30
0.0
  0
VERTEX
  5
21F
  8
LAYER_1
 10
20.65046668636153
 20
1.308884662111932
 30
0.0
  0
VERTEX
  5
220
  8
LAYER_1
 10
20.59988061414853
 20
0.9674238925344343
 30
0.0
  0
VERTEX
  5
221
  8
LAYER_1
 10
20.56670447455505
 20
0.6285793367975204
 30
0.0
  0
VERTEX
  5
222
  8
LAYER_1
 10
20.54980252473293
 20
0.293179799438924
 30
0.0
  0
VERTEX
  5
223
  8
LAYER_1
 10
20.54803902183403
 20
-0.0379459150036212
 30
0.0
  0
VERTEX
  5
224
  8
LAYER_1
 10
20.56027822301018
 20
-0.3639690019923812
 30
0.0
  0
VERTEX
  5
225
  8
LAYER_1
 10
20.58538438541323
 20
-0.6840606569896222
 30
0.0
  0
SEQEND
  5
226
  8
LAYER_1
  0
POLYLINE
  5
52
  8
LAYER_1
 66
     1
 10
0.0
 20
0.0
 30
0.0
 70
     1
  0
VERTEX
  5
227
  8
LAYER_1
 10
-40.20766091075879
 20
58.84365644368326
 30
0.0
 42
0.2181458740962665
  0
VERTEX
  5
228
  8
LAYER_1
 10
-36.35794930620866
 20
77.90276015518637
 30
0.0
 42
0.194087015299082
  0
VERTEX
  5
229
  8
LAYER_1
 10
-38.73853821200694
 20
81.59596127976317
 30
0.0
 42
-0.3056286488963582
  0
VERTEX
  5
22A
  8
LAYER_1
 10
-30.30440006923578
 20
76.48079591837876
 30
0.0
 42
-0.2035135567360671
  0
VERTEX
  5
22B
  8
LAYER_1
 10
-34.04296514452069
 20
66.04514724336727
 30
0.0
 42
0.0379044172136352
  0
SEQEND
  5
22C
  8
LAYER_1
  0
POLYLINE
  5
53
  8
LAYER_1
 66
     1
 10
0.0
 20
0.0
 30
0.0
 70
     1
  0
VERTEX
  5
22D
  8
LAYER_1
 10
-38.74931443638215
 20
55.55472555873387
 30
0.0
 42
-0.0576476446735766
  0
VERTEX
  5
22E
  8
LAYER_1
 10
-31.29966779123064
 20
65.7721228671882
 30
0.0
 42
0.1694663930283517
  0
VERTEX
  5
22F
  8
LAYER_1
 10
-28.24344136333489
 20
74.78550013680211
 30
0.0
 42
0.2642212832712738
  0
VERTEX
  5
230
  8
LAYER_1
 10
-20.02082921167733
 20
77.4743569727865
 30
0.0
 42
-0.2399565061173541
  0
VERTEX
  5
231
  8
LAYER_1
 10
-22.15523057599912
 20
63.8639430859949
 30
0.0
 42
-0.1133287997279844
  0
VERTEX
  5
232
  8
LAYER_1
 10
-32.30796081288095
 20
59.40191514749269
 30
0.0
 42
0.1883434273054811
  0
SEQEND
  5
233
  8
LAYER_1
  0
POLYLINE
  5
54
  8
LAYER_1
 66
     1
 10
0.0
 20
0.0
 30
0.0
 70
     1
  0
VERTEX
  5
234
  8
LAYER_1
 10
-42.00358269739422
 20
61.05012117588861
 30
0.0
 42
0.416551566037195
  0
VERTEX
  5
235
  8
LAYER_1
 10
-50.54165699095028
 20
80.34920034830527
 30
0.0
  0
VERTEX
  5
236
  8
LAYER_1
 10
-50.16397983005061
 20
80.54407809406118
 30
0.0
  0
VERTEX
  5
237
  8
LAYER_1
 10
-49.78121592117966
 20
80.72004906597192
 30
0.0
  0
VERTEX
  5
238
  8
LAYER_1
 10
-49.39394732553476
 20
80.8772505028268
 30
0.0
  0
VERTEX
  5
239
  8
LAYER_1
 10
-49.00275610431326
 20
81.01581964341516
 30
0.0
  0
VERTEX
  5
23A
  8
LAYER_1
 10
-48.6082243187125
 20
81.1358937265263
 30
0.0
  0
VERTEX
  5
23B
  8
LAYER_1
 10
-48.21093402992985
 20
81.23760999094955
 30
0.0
  0
VERTEX
  5
23C
  8
LAYER_1
 10
-47.81146729916264
 20
81.3211056754742
 30
0.0
  0
VERTEX
  5
23D
  8
LAYER_1
 10
-47.41040618760823
 20
81.3865180188896
 30
0.0
  0
VERTEX
  5
23E
  8
LAYER_1
 10
-47.00833275646396
 20
81.43398425998504
 30
0.0
  0
VERTEX
  5
23F
  8
LAYER_1
 10
-46.60582906692717
 20
81.46364163754984
 30
0.0
  0
VERTEX
  5
240
  8
LAYER_1
 10
-46.20347718019522
 20
81.47562739037332
 30
0.0
  0
VERTEX
  5
241
  8
LAYER_1
 10
-45.80185915746546
 20
81.47007875724479
 30
0.0
  0
VERTEX
  5
242
  8
LAYER_1
 10
-45.40155705993521
 20
81.44713297695357
 30
0.0
  0
VERTEX
  5
243
  8
LAYER_1
 10
-45.00315294880186
 20
81.40692728828895
 30
0.0
  0
VERTEX
  5
244
  8
LAYER_1
 10
-44.60722888526273
 20
81.3495989300403
 30
0.0
  0
VERTEX
  5
245
  8
LAYER_1
 10
-44.21436693051517
 20
81.2752851409969
 30
0.0
  0
VERTEX
  5
246
  8
LAYER_1
 10
-43.82514914575653
 20
81.18412315994806
 30
0.0
  0
VERTEX
  5
247
  8
LAYER_1
 10
-43.44015759218416
 20
81.0762502256831
 30
0.0
  0
VERTEX
  5
248
  8
LAYER_1
 10
-43.05997433099541
 20
80.95180357699134
 30
0.0
  0
VERTEX
  5
249
  8
LAYER_1
 10
-42.68518142338762
 20
80.81092045266207
 30
0.0
  0
VERTEX
  5
24A
  8
LAYER_1
 10
-42.31636093055814
 20
80.65373809148463
 30
0.0
  0
VERTEX
  5
24B
  8
LAYER_1
 10
-41.95409491370432
 20
80.48039373224834
 30
0.0
  0
VERTEX
  5
24C
  8
LAYER_1
 10
-41.59896543402351
 20
80.29102461374252
 30
0.0
  0
VERTEX
  5
24D
  8
LAYER_1
 10
-41.25155455271305
 20
80.08576797475646
 30
0.0
  0
VERTEX
  5
24E
  8
LAYER_1
 10
-40.91244433097029
 20
79.8647610540795
 30
0.0
  0
VERTEX
  5
24F
  8
LAYER_1
 10
-40.58221682999257
 20
79.62814109050092
 30
0.0
  0
VERTEX
  5
250
  8
LAYER_1
 10
-40.26145411097726
 20
79.37604532281006
 30
0.0
  0
VERTEX
  5
251
  8
LAYER_1
 10
-39.9507382351217
 20
79.10861098979625
 30
0.0
  0
VERTEX
  5
252
  8
LAYER_1
 10
-39.65065126362322
 20
78.82597533024878
 30
0.0
  0
VERTEX
  5
253
  8
LAYER_1
 10
-39.36177525767918
 20
78.52827558295697
 30
0.0
  0
VERTEX
  5
254
  8
LAYER_1
 10
-39.08469227848694
 20
78.21564898671014
 30
0.0
  0
VERTEX
  5
255
  8
LAYER_1
 10
-38.81998438724383
 20
77.88823278029759
 30
0.0
  0
VERTEX
  5
256
  8
LAYER_1
 10
-38.69265337133216
 20
77.71225989326823
 30
0.0
  0
VERTEX
  5
257
  8
LAYER_1
 10
-38.5756021338392
 20
77.52828250499931
 30
0.0
  0
VERTEX
  5
258
  8
LAYER_1
 10
-38.46891411339723
 20
77.33731324085124
 30
0.0
  0
VERTEX
  5
259
  8
LAYER_1
 10
-38.37267274863846
 20
77.14036472618449
 30
0.0
  0
VERTEX
  5
25A
  8
LAYER_1
 10
-38.28696147819517
 20
76.93844958635951
 30
0.0
  0
VERTEX
  5
25B
  8
LAYER_1
 10
-38.21186374069956
 20
76.73258044673679
 30
0.0
  0
VERTEX
  5
25C
  8
LAYER_1
 10
-38.14746297478388
 20
76.52376993267673
 30
0.0
  0
VERTEX
  5
25D
  8
LAYER_1
 10
-38.09384261908039
 20
76.3130306695398
 30
0.0
  0
VERTEX
  5
25E
  8
LAYER_1
 10
-37.98411972265563
 20
75.78791634579528
 30
0.0
  0
VERTEX
  5
25F
  8
LAYER_1
 10
-37.89379633332774
 20
75.26034308205477
 30
0.0
  0
VERTEX
  5
260
  8
LAYER_1
 10
-37.82284238931253
 20
74.73083724369408
 30
0.0
  0
VERTEX
  5
261
  8
LAYER_1
 10
-37.77122782882581
 20
74.19992519608891
 30
0.0
  0
VERTEX
  5
262
  8
LAYER_1
 10
-37.73892259008343
 20
73.66813330461505
 30
0.0
  0
VERTEX
  5
263
  8
LAYER_1
 10
-37.72589661130118
 20
73.13598793464824
 30
0.0
  0
VERTEX
  5
264
  8
LAYER_1
 10
-37.73211983069491
 20
72.60401545156424
 30
0.0
  0
VERTEX
  5
265
  8
LAYER_1
 10
-37.75756218648044
 20
72.07274222073877
 30
0.0
  0
VERTEX
  5
266
  8
LAYER_1
 10
-37.80219361687359
 20
71.5426946075476
 30
0.0
  0
VERTEX
  5
267
  8
LAYER_1
 10
-37.8659840600902
 20
71.0143989773665
 30
0.0
  0
VERTEX
  5
268
  8
LAYER_1
 10
-37.94890345434607
 20
70.48838169557118
 30
0.0
  0
VERTEX
  5
269
  8
LAYER_1
 10
-38.05092173785702
 20
69.96516912753744
 30
0.0
  0
VERTEX
  5
26A
  8
LAYER_1
 10
-38.17200884883891
 20
69.44528763864099
 30
0.0
  0
VERTEX
  5
26B
  8
LAYER_1
 10
-38.31213472550755
 20
68.92926359425762
 30
0.0
  0
VERTEX
  5
26C
  8
LAYER_1
 10
-38.47126930607875
 20
68.41762335976306
 30
0.0
  0
VERTEX
  5
26D
  8
LAYER_1
 10
-38.64938252876834
 20
67.91089330053305
 30
0.0
 42
-0.0918393766586472
  0
SEQEND
  5
26E
  8
LAYER_1
  0
POLYLINE
  5
55
  8
LAYER_1
 66
     1
 10
0.0
 20
0.0
 30
0.0
 70
     1
  0
VERTEX
  5
26F
  8
LAYER_1
 10
-21.90506490131322
 20
27.20110788150261
 30
0.0
 42
0.1416637512479414
  0
VERTEX
  5
270
  8
LAYER_1
 10
-9.463120330764998
 20
25.7784323069077
 30
0.0
 42
0.1158720899400751
  0
VERTEX
  5
271
  8
LAYER_1
 10
-13.47247876825975
 20
28.80485125650051
 30
0.0
 42
-0.0891290396540862
  0
VERTEX
  5
272
  8
LAYER_1
 10
-16.89662607485203
 20
31.00663570940085
 30
0.0
 42
0.0569083412415272
  0
SEQEND
  5
273
  8
LAYER_1
  0
POLYLINE
  5
56
  8
LAYER_1
 66
     1
 10
0.0
 20
0.0
 30
0.0
 70
     1
  0
VERTEX
  5
274
  8
LAYER_1
 10
-23.99381131310484
 20
28.36511516980754
 30
0.0
 42
-0.1100089910324821
  0
VERTEX
  5
275
  8
LAYER_1
 10
-30.51251079589874
 20
32.61193109411649
 30
0.0
 42
0.2107002125959736
  0
VERTEX
  5
276
  8
LAYER_1
 10
-22.54552757816723
 20
38.12156559209315
 30
0.0
 42
0.1248536682540483
  0
VERTEX
  5
277
  8
LAYER_1
 10
-19.20844801674014
 20
32.76247603673726
 30
0.0
 42
0.016435643564356
  0
SEQEND
  5
278
  8
LAYER_1
  0
POLYLINE
  5
57
  8
LAYER_1
 66
     1
 10
0.0
 20
0.0
 30
0.0
 70
     1
  0
VERTEX
  5
279
  8
LAYER_1
 10
-40.46546081742533
 20
48.31728195125297
 30
0.0
 42
-0.3368769737636639
  0
VERTEX
  5
27A
  8
LAYER_1
 10
-24.70900549342885
 20
50.440301910978
 30
0.0
 42
-0.0929984107561782
  0
VERTEX
  5
27B
  8
LAYER_1
 10
-24.89228490767964
 20
59.619184850221
 30
0.0
 42
-0.074704510416256
  0
VERTEX
  5
27C
  8
LAYER_1
 10
-32.72269127025002
 20
56.36451700480591
 30
0.0
 42
0.2550817826375325
  0
SEQEND
  5
27D
  8
LAYER_1
  0
POLYLINE
  5
58
  8
LAYER_1
 66
     1
 10
0.0
 20
0.0
 30
0.0
 70
     1
  0
VERTEX
  5
27E
  8
LAYER_1
 10
-32.39818615831847
 20
34.36973546903703
 30
0.0
  0
VERTEX
  5
27F
  8
LAYER_1
 10
-32.03924938296893
 20
34.46476482449365
 30
0.0
  0
VERTEX
  5
280
  8
LAYER_1
 10
-31.68057821892743
 20
34.57076104144791
 30
0.0
  0
VERTEX
  5
281
  8
LAYER_1
 10
-31.32277265970395
 20
34.6875434044717
 30
0.0
  0
VERTEX
  5
282
  8
LAYER_1
 10
-30.96643269880845
 20
34.81493119813693
 30
0.0
  0
VERTEX
  5
283
  8
LAYER_1
 10
-30.61215832975092
 20
34.95274370701547
 30
0.0
  0
VERTEX
  5
284
  8
LAYER_1
 10
-30.26054954604132
 20
35.10080021567923
 30
0.0
  0
VERTEX
  5
285
  8
LAYER_1
 10
-29.91220634118962
 20
35.25892000870008
 30
0.0
  0
VERTEX
  5
286
  8
LAYER_1
 10
-29.5677287087058
 20
35.42692237064993
 30
0.0
  0
VERTEX
  5
287
  8
LAYER_1
 10
-29.22771664209983
 20
35.60462658610065
 30
0.0
  0
VERTEX
  5
288
  8
LAYER_1
 10
-28.89277013488169
 20
35.79185193962415
 30
0.0
  0
VERTEX
  5
289
  8
LAYER_1
 10
-28.56348918056133
 20
35.98841771579232
 30
0.0
  0
VERTEX
  5
28A
  8
LAYER_1
 10
-28.24047377264875
 20
36.19414319917703
 30
0.0
  0
VERTEX
  5
28B
  8
LAYER_1
 10
-27.92432390465391
 20
36.4088476743502
 30
0.0
  0
VERTEX
  5
28C
  8
LAYER_1
 10
-27.61563957008678
 20
36.63235042588369
 30
0.0
  0
VERTEX
  5
28D
  8
LAYER_1
 10
-27.31502076245733
 20
36.86447073834941
 30
0.0
  0
VERTEX
  5
28E
  8
LAYER_1
 10
-27.02306747527555
 20
37.10502789631925
 30
0.0
  0
VERTEX
  5
28F
  8
LAYER_1
 10
-26.74037970205138
 20
37.35384118436509
 30
0.0
  0
VERTEX
  5
290
  8
LAYER_1
 10
-26.46755743629483
 20
37.61072988705884
 30
0.0
  0
VERTEX
  5
291
  8
LAYER_1
 10
-26.20520067151585
 20
37.87551328897237
 30
0.0
  0
VERTEX
  5
292
  8
LAYER_1
 10
-25.95390940122442
 20
38.14801067467759
 30
0.0
  0
VERTEX
  5
293
  8
LAYER_1
 10
-25.71428361893051
 20
38.42804132874637
 30
0.0
  0
VERTEX
  5
294
  8
LAYER_1
 10
-25.48692331814408
 20
38.71542453575061
 30
0.0
  0
VERTEX
  5
295
  8
LAYER_1
 10
-25.27242849237513
 20
39.00997958026221
 30
0.0
  0
VERTEX
  5
296
  8
LAYER_1
 10
-25.07139913513361
 20
39.31152574685305
 30
0.0
  0
VERTEX
  5
297
  8
LAYER_1
 10
-24.8844352399295
 20
39.61988232009502
 30
0.0
  0
VERTEX
  5
298
  8
LAYER_1
 10
-24.71213680027277
 20
39.93486858456001
 30
0.0
  0
VERTEX
  5
299
  8
LAYER_1
 10
-24.5551038096734
 20
40.25630382481992
 30
0.0
  0
VERTEX
  5
29A
  8
LAYER_1
 10
-24.41393626164135
 20
40.58400732544663
 30
0.0
  0
VERTEX
  5
29B
  8
LAYER_1
 10
-24.28923414968661
 20
40.91779837101204
 30
0.0
  0
VERTEX
  5
29C
  8
LAYER_1
 10
-24.18159746731914
 20
41.25749624608804
 30
0.0
  0
VERTEX
  5
29D
  8
LAYER_1
 10
-24.09162620804891
 20
41.60292023524651
 30
0.0
  0
VERTEX
  5
29E
  8
LAYER_1
 10
-24.0199203653859
 20
41.95388962305935
 30
0.0
 42
0.3600504041459069
  0
VERTEX
  5
29F
  8
LAYER_1
 10
-27.56884925328446
 20
49.46173663262612
 30
0.0
 42
0.2817212958450762
  0
VERTEX
  5
2A0
  8
LAYER_1
 10
-37.41893759520703
 20
47.45447073101585
 30
0.0
  0
VERTEX
  5
2A1
  8
LAYER_1
 10
-37.6333759329575
 20
47.21996814283094
 30
0.0
  0
VERTEX
  5
2A2
  8
LAYER_1
 10
-37.83340366102016
 20
46.98495676758524
 30
0.0
  0
VERTEX
  5
2A3
  8
LAYER_1
 10
-38.01926816284541
 20
46.74950738929126
 30
0.0
  0
VERTEX
  5
2A4
  8
LAYER_1
 10
-38.19121682188368
 20
46.51369079196148
 30
0.0
  0
VERTEX
  5
2A5
  8
LAYER_1
 10
-38.34949702158535
 20
46.27757775960839
 30
0.0
  0
VERTEX
  5
2A6
  8
LAYER_1
 10
-38.49435614540083
 20
46.04123907624448
 30
0.0
  0
VERTEX
  5
2A7
  8
LAYER_1
 10
-38.62604157678054
 20
45.80474552588224
 30
0.0
  0
VERTEX
  5
2A8
  8
LAYER_1
 10
-38.74480069917487
 20
45.56816789253416
 30
0.0
  0
VERTEX
  5
2A9
  8
LAYER_1
 10
-38.85088089603423
 20
45.33157696021273
 30
0.0
  0
VERTEX
  5
2AA
  8
LAYER_1
 10
-38.94452955080904
 20
45.09504351293045
 30
0.0
  0
VERTEX
  5
2AB
  8
LAYER_1
 10
-39.02599404694968
 20
44.85863833469978
 30
0.0
  0
VERTEX
  5
2AC
  8
LAYER_1
 10
-39.09552176790658
 20
44.62243220953324
 30
0.0
  0
VERTEX
  5
2AD
  8
LAYER_1
 10
-39.15336009713013
 20
44.38649592144331
 30
0.0
  0
VERTEX
  5
2AE
  8
LAYER_1
 10
-39.19975641807073
 20
44.15090025444249
 30
0.0
  0
VERTEX
  5
2AF
  8
LAYER_1
 10
-39.23495811417881
 20
43.91571599254326
 30
0.0
  0
VERTEX
  5
2B0
  8
LAYER_1
 10
-39.25921256890476
 20
43.68101391975811
 30
0.0
  0
VERTEX
  5
2B1
  8
LAYER_1
 10
-39.27276716569898
 20
43.44686482009953
 30
0.0
  0
VERTEX
  5
2B2
  8
LAYER_1
 10
-39.27586928801189
 20
43.21333947758001
 30
0.0
  0
VERTEX
  5
2B3
  8
LAYER_1
 10
-39.26876631929389
 20
42.98050867621204
 30
0.0
  0
VERTEX
  5
2B4
  8
LAYER_1
 10
-39.25170564299538
 20
42.74844320000812
 30
0.0
  0
VERTEX
  5
2B5
  8
LAYER_1
 10
-39.22493464256678
 20
42.51721383298073
 30
0.0
  0
VERTEX
  5
2B6
  8
LAYER_1
 10
-39.18870070145847
 20
42.28689135914236
 30
0.0
  0
VERTEX
  5
2B7
  8
LAYER_1
 10
-39.14325120312088
 20
42.05754656250549
 30
0.0
  0
VERTEX
  5
2B8
  8
LAYER_1
 10
-39.0888335310044
 20
41.82925022708264
 30
0.0
  0
VERTEX
  5
2B9
  8
LAYER_1
 10
-39.02569506855945
 20
41.60207313688628
 30
0.0
  0
VERTEX
  5
2BA
  8
LAYER_1
 10
-38.95408319923643
 20
41.3760860759289
 30
0.0
  0
VERTEX
  5
2BB
  8
LAYER_1
 10
-38.87424530648573
 20
41.15135982822299
 30
0.0
  0
VERTEX
  5
2BC
  8
LAYER_1
 10
-38.78642877375779
 20
40.92796517778105
 30
0.0
  0
VERTEX
  5
2BD
  8
LAYER_1
 10
-38.58784932217173
 20
40.48545380473902
 30
0.0
  0
VERTEX
  5
2BE
  8
LAYER_1
 10
-38.3603239120815
 20
40.04911822890271
 30
0.0
  0
VERTEX
  5
2BF
  8
LAYER_1
 10
-38.10583161109034
 20
39.61952472237205
 30
0.0
  0
VERTEX
  5
2C0
  8
LAYER_1
 10
-37.82635148680149
 20
39.19723955724698
 30
0.0
  0
VERTEX
  5
2C1
  8
LAYER_1
 10
-37.52386260681821
 20
38.78282900562741
 30
0.0
  0
VERTEX
  5
2C2
  8
LAYER_1
 10
-37.20034403874374
 20
38.37685933961323
 30
0.0
  0
VERTEX
  5
2C3
  8
LAYER_1
 10
-36.85777485018133
 20
37.9798968313044
 30
0.0
  0
VERTEX
  5
2C4
  8
LAYER_1
 10
-36.49813410873421
 20
37.59250775280084
 30
0.0
  0
VERTEX
  5
2C5
  8
LAYER_1
 10
-36.12340088200564
 20
37.21525837620246
 30
0.0
  0
VERTEX
  5
2C6
  8
LAYER_1
 10
-35.73555423759885
 20
36.84871497360917
 30
0.0
  0
VERTEX
  5
2C7
  8
LAYER_1
 10
-35.33657324311711
 20
36.49344381712091
 30
0.0
  0
VERTEX
  5
2C8
  8
LAYER_1
 10
-34.92843696616364
 20
36.15001117883759
 30
0.0
  0
VERTEX
  5
2C9
  8
LAYER_1
 10
-34.51312447434169
 20
35.81898333085913
 30
0.0
  0
VERTEX
  5
2CA
  8
LAYER_1
 10
-34.09261483525453
 20
35.50092654528545
 30
0.0
  0
VERTEX
  5
2CB
  8
LAYER_1
 10
-33.66888711650537
 20
35.19640709421648
 30
0.0
  0
VERTEX
  5
2CC
  8
LAYER_1
 10
-33.24392038569749
 20
34.90599124975215
 30
0.0
  0
VERTEX
  5
2CD
  8
LAYER_1
 10
-32.8196937104341
 20
34.63024528399235
 30
0.0
  0
SEQEND
  5
2CE
  8
LAYER_1
  0
POLYLINE
  5
59
  8
LAYER_1
 66
     1
 10
0.0
 20
0.0
 30
0.0
 70
     1
  0
VERTEX
  5
2CF
  8
LAYER_1
 10
-51.11681369141608
 20
43.97235335854764
 30
0.0
 42
0.0950732568332966
  0
VERTEX
  5
2D0
  8
LAYER_1
 10
-38.82071989086751
 20
36.34324674858129
 30
0.0
 42
-0.1048098240760465
  0
VERTEX
  5
2D1
  8
LAYER_1
 10
-44.86738789465011
 20
51.52546731821512
 30
0.0
 42
0.1904210240209604
  0
SEQEND
  5
2D2
  8
LAYER_1
  0
POLYLINE
  5
5A
  8
LAYER_1
 66
     1
 10
0.0
 20
0.0
 30
0.0
 70
     1
  0
VERTEX
  5
2D3
  8
LAYER_1
 10
-43.42217426682637
 20
27.10550966335558
 30
0.0
 42
-0.2285234429671096
  0
VERTEX
  5
2D4
  8
LAYER_1
 10
-33.59277938780707
 20
31.89087295972023
 30
0.0
 42
0.0662734584450408
  0
VERTEX
  5
2D5
  8
LAYER_1
 10
-27.51407465999251
 20
26.84684137706559
 30
0.0
 42
0.3718968386023288
  0
VERTEX
  5
2D6
  8
LAYER_1
 10
-32.55810624264715
 20
18.18145378635122
 30
0.0
  0
VERTEX
  5
2D7
  8
LAYER_1
 10
-32.91297884863875
 20
18.14580817096239
 30
0.0
  0
VERTEX
  5
2D8
  8
LAYER_1
 10
-33.26782702984
 20
18.11839655554107
 30
0.0
  0
VERTEX
  5
2D9
  8
LAYER_1
 10
-33.62251800960968
 20
18.09918273957494
 30
0.0
  0
VERTEX
  5
2DA
  8
LAYER_1
 10
-33.97691901130656
 20
18.08813052255167
 30
0.0
  0
VERTEX
  5
2DB
  8
LAYER_1
 10
-34.33089725828943
 20
18.08520370395894
 30
0.0
  0
VERTEX
  5
2DC
  8
LAYER_1
 10
-34.68431997391707
 20
18.09036608328442
 30
0.0
  0
VERTEX
  5
2DD
  8
LAYER_1
 10
-35.03705438154827
 20
18.10358146001577
 30
0.0
  0
VERTEX
  5
2DE
  8
LAYER_1
 10
-35.3889677045418
 20
18.12481363364069
 30
0.0
  0
VERTEX
  5
2DF
  8
LAYER_1
 10
-35.73992716625644
 20
18.15402640364684
 30
0.0
  0
VERTEX
  5
2E0
  8
LAYER_1
 10
-36.08979999005098
 20
18.1911835695219
 30
0.0
  0
VERTEX
  5
2E1
  8
LAYER_1
 10
-36.43845339928421
 20
18.23624893075354
 30
0.0
  0
VERTEX
  5
2E2
  8
LAYER_1
 10
-36.78575461731491
 20
18.28918628682943
 30
0.0
  0
VERTEX
  5
2E3
  8
LAYER_1
 10
-37.13157086750184
 20
18.34995943723726
 30
0.0
  0
VERTEX
  5
2E4
  8
LAYER_1
 10
-37.47576937320379
 20
18.41853218146469
 30
0.0
  0
VERTEX
  5
2E5
  8
LAYER_1
 10
-37.81821735777955
 20
18.4948683189994
 30
0.0
  0
VERTEX
  5
2E6
  8
LAYER_1
 10
-38.1587820445879
 20
18.57893164932906
 30
0.0
  0
VERTEX
  5
2E7
  8
LAYER_1
 10
-38.49733065698763
 20
18.67068597194136
 30
0.0
  0
VERTEX
  5
2E8
  8
LAYER_1
 10
-38.8337304183375
 20
18.77009508632395
 30
0.0
  0
VERTEX
  5
2E9
  8
LAYER_1
 10
-39.1678485519963
 20
18.87712279196452
 30
0.0
  0
VERTEX
  5
2EA
  8
LAYER_1
 10
-39.49955228132282
 20
18.99173288835073
 30
0.0
  0
VERTEX
  5
2EB
  8
LAYER_1
 10
-39.82870882967584
 20
19.11388917497028
 30
0.0
  0
VERTEX
  5
2EC
  8
LAYER_1
 10
-40.15518542041413
 20
19.24355545131082
 30
0.0
  0
VERTEX
  5
2ED
  8
LAYER_1
 10
-40.47884927689648
 20
19.38069551686003
 30
0.0
  0
VERTEX
  5
2EE
  8
LAYER_1
 10
-40.79956762248167
 20
19.5252731711056
 30
0.0
  0
VERTEX
  5
2EF
  8
LAYER_1
 10
-41.11720768052849
 20
19.67725221353518
 30
0.0
  0
VERTEX
  5
2F0
  8
LAYER_1
 10
-41.43163667439572
 20
19.83659644363646
 30
0.0
  0
VERTEX
  5
2F1
  8
LAYER_1
 10
-41.74272182744213
 20
20.00326966089711
 30
0.0
  0
VERTEX
  5
2F2
  8
LAYER_1
 10
-42.05033036302651
 20
20.17723566480481
 30
0.0
  0
VERTEX
  5
2F3
  8
LAYER_1
 10
-42.35432950450765
 20
20.35845825484723
 30
0.0
  0
VERTEX
  5
2F4
  8
LAYER_1
 10
-42.6545864752443
 20
20.54690123051205
 30
0.0
  0
VERTEX
  5
2F5
  8
LAYER_1
 10
-42.95096849859527
 20
20.74252839128692
 30
0.0
  0
VERTEX
  5
2F6
  8
LAYER_1
 10
-43.24334279791934
 20
20.94530353665955
 30
0.0
  0
VERTEX
  5
2F7
  8
LAYER_1
 10
-43.44998065689314
 20
21.10321460286056
 30
0.0
  0
VERTEX
  5
2F8
  8
LAYER_1
 10
-43.64788183228116
 20
21.27760046149913
 30
0.0
  0
VERTEX
  5
2F9
  8
LAYER_1
 10
-43.83394848126609
 20
21.46712968085399
 30
0.0
  0
VERTEX
  5
2FA
  8
LAYER_1
 10
-44.00508276103056
 20
21.67047082920387
 30
0.0
  0
VERTEX
  5
2FB
  8
LAYER_1
 10
-44.15818682875727
 20
21.88629247482753
 30
0.0
  0
VERTEX
  5
2FC
  8
LAYER_1
 10
-44.29016284162886
 20
22.11326318600369
 30
0.0
  0
VERTEX
  5
2FD
  8
LAYER_1
 10
-44.39791295682801
 20
22.35005153101111
 30
0.0
  0
VERTEX
  5
2FE
  8
LAYER_1
 10
-44.44173522692
 20
22.47171124378864
 30
0.0
  0
VERTEX
  5
2FF
  8
LAYER_1
 10
-44.47833933153738
 20
22.5953260781285
 30
0.0
  0
VERTEX
  5
300
  8
LAYER_1
 10
-44.54671674336448
 20
22.89101797261798
 30
0.0
  0
VERTEX
  5
301
  8
LAYER_1
 10
-44.59655952990992
 20
23.18877347400145
 30
0.0
  0
VERTEX
  5
302
  8
LAYER_1
 10
-44.62799974720912
 20
23.48775594021841
 30
0.0
  0
VERTEX
  5
303
  8
LAYER_1
 10
-44.64116945129757
 20
23.78712872920835
 30
0.0
  0
VERTEX
  5
304
  8
LAYER_1
 10
-44.63620069821071
 20
24.08605519891076
 30
0.0
  0
VERTEX
  5
305
  8
LAYER_1
 10
-44.61322554398402
 20
24.38369870726514
 30
0.0
  0
VERTEX
  5
306
  8
LAYER_1
 10
-44.57237604465293
 20
24.67922261221098
 30
0.0
  0
VERTEX
  5
307
  8
LAYER_1
 10
-44.51378425625292
 20
24.97179027168777
 30
0.0
  0
VERTEX
  5
308
  8
LAYER_1
 10
-44.43758223481943
 20
25.26056504363501
 30
0.0
  0
VERTEX
  5
309
  8
LAYER_1
 10
-44.34390203638793
 20
25.54471028599219
 30
0.0
  0
VERTEX
  5
30A
  8
LAYER_1
 10
-44.23287571699389
 20
25.8233893566988
 30
0.0
  0
VERTEX
  5
30B
  8
LAYER_1
 10
-44.10463533267274
 20
26.09576561369433
 30
0.0
  0
VERTEX
  5
30C
  8
LAYER_1
 10
-43.95931293945995
 20
26.36100241491829
 30
0.0
  0
VERTEX
  5
30D
  8
LAYER_1
 10
-43.79704059339099
 20
26.61826311831015
 30
0.0
  0
VERTEX
  5
30E
  8
LAYER_1
 10
-43.6179503505013
 20
26.86671108180942
 30
0.0
  0
SEQEND
  5
30F
  8
LAYER_1
  0
POLYLINE
  5
5B
  8
LAYER_1
 66
     1
 10
0.0
 20
0.0
 30
0.0
 70
     1
  0
VERTEX
  5
310
  8
LAYER_1
 10
-62.98401785577173
 20
56.78779601644946
 30
0.0
 42
-0.4837480293688832
  0
VERTEX
  5
311
  8
LAYER_1
 10
-55.97216728516604
 20
69.99604538513168
 30
0.0
 42
-0.3747385708399779
  0
VERTEX
  5
312
  8
LAYER_1
 10
-43.62137928798897
 20
62.48072250844309
 30
0.0
 42
0.2681352992194273
  0
VERTEX
  5
313
  8
LAYER_1
 10
-48.29695381098569
 20
76.49520732892664
 30
0.0
 42
0.3116491714823106
  0
VERTEX
  5
314
  8
LAYER_1
 10
-57.09975892879166
 20
77.52503044371865
 30
0.0
 42
0.2974721013669856
  0
VERTEX
  5
315
  8
LAYER_1
 10
-65.36218982976999
 20
62.54045745277946
 30
0.0
 42
0.2297085733827581
  0
SEQEND
  5
316
  8
LAYER_1
  0
POLYLINE
  5
5C
  8
LAYER_1
 66
     1
 10
0.0
 20
0.0
 30
0.0
 70
     1
  0
VERTEX
  5
317
  8
LAYER_1
 10
2.31266619334483
 20
-26.96052261177529
 30
0.0
 42
-0.1018226414186869
  0
VERTEX
  5
318
  8
LAYER_1
 10
23.7114581165508
 20
-41.18738984375562
 30
0.0
 42
0.0245553573461064
  0
VERTEX
  5
319
  8
LAYER_1
 10
16.28250493430257
 20
-33.1821237196533
 30
0.0
 42
-0.1226549936514838
  0
VERTEX
  5
31A
  8
LAYER_1
 10
6.735624324215638
 20
-13.38227891174727
 30
0.0
 42
0.2002624344144227
  0
VERTEX
  5
31B
  8
LAYER_1
 10
6.166657594025732
 20
-12.29149007455839
 30
0.0
 42
0.3421972321352545
  0
VERTEX
  5
31C
  8
LAYER_1
 10
5.855022320088724
 20
-13.41249013891159
 30
0.0
 42
-0.0793894251960537
  0
SEQEND
  5
31D
  8
LAYER_1
  0
POLYLINE
  5
5D
  8
LAYER_1
 66
     1
 10
0.0
 20
0.0
 30
0.0
 70
     1
  0
VERTEX
  5
31E
  8
LAYER_1
 10
-1.773088299129795
 20
-26.30715917905184
 30
0.0
 42
-0.1907898014922191
  0
VERTEX
  5
31F
  8
LAYER_1
 10
-2.580570739207762
 20
7.991061641929852
 30
0.0
  0
VERTEX
  5
320
  8
LAYER_1
 10
-2.532377860527289
 20
8.128413741224023
 30
0.0
  0
VERTEX
  5
321
  8
LAYER_1
 10
-2.47645870589227
 20
8.260504690233276
 30
0.0
  0
VERTEX
  5
322
  8
LAYER_1
 10
-2.413126321392147
 20
8.38718765326438
 30
0.0
  0
VERTEX
  5
323
  8
LAYER_1
 10
-2.342693753116362
 20
8.508315794624107
 30
0.0
  0
VERTEX
  5
324
  8
LAYER_1
 10
-2.265474047154356
 20
8.623742278619227
 30
0.0
  0
VERTEX
  5
325
  8
LAYER_1
 10
-2.18178024959557
 20
8.733320269556508
 30
0.0
  0
VERTEX
  5
326
  8
LAYER_1
 10
-2.091925406529447
 20
8.836902931742724
 30
0.0
  0
VERTEX
  5
327
  8
LAYER_1
 10
-1.996222564045428
 20
8.934343429484644
 30
0.0
  0
VERTEX
  5
328
  8
LAYER_1
 10
-1.894984768232954
 20
9.025494927089037
 30
0.0
  0
VERTEX
  5
329
  8
LAYER_1
 10
-1.788525065181467
 20
9.110210588862671
 30
0.0
  0
VERTEX
  5
32A
  8
LAYER_1
 10
-1.677156500980408
 20
9.18834357911232
 30
0.0
  0
VERTEX
  5
32B
  8
LAYER_1
 10
-1.56119212171922
 20
9.259747062144754
 30
0.0
  0
VERTEX
  5
32C
  8
LAYER_1
 10
-1.440944973487343
 20
9.324274202266741
 30
0.0
  0
VERTEX
  5
32D
  8
LAYER_1
 10
-1.31672810237422
 20
9.381778163785054
 30
0.0
  0
VERTEX
  5
32E
  8
LAYER_1
 10
-1.188854554469291
 20
9.432112111006461
 30
0.0
  0
VERTEX
  5
32F
  8
LAYER_1
 10
-1.057637375862
 20
9.475129208237732
 30
0.0
  0
VERTEX
  5
330
  8
LAYER_1
 10
-0.9264201972547077
 20
9.432112111006461
 30
0.0
  0
VERTEX
  5
331
  8
LAYER_1
 10
-0.7985466493497794
 20
9.381778163785054
 30
0.0
  0
VERTEX
  5
332
  8
LAYER_1
 10
-0.6743297782366561
 20
9.324274202266741
 30
0.0
  0
VERTEX
  5
333
  8
LAYER_1
 10
-0.5540826300047795
 20
9.259747062144754
 30
0.0
  0
VERTEX
  5
334
  8
LAYER_1
 10
-0.4381182507435912
 20
9.18834357911232
 30
0.0
  0
VERTEX
  5
335
  8
LAYER_1
 10
-0.3267496865425327
 20
9.110210588862671
 30
0.0
  0
VERTEX
  5
336
  8
LAYER_1
 10
-0.2202899834910457
 20
9.025494927089037
 30
0.0
  0
VERTEX
  5
337
  8
LAYER_1
 10
-0.1190521876785717
 20
8.934343429484644
 30
0.0
  0
VERTEX
  5
338
  8
LAYER_1
 10
-0.0233493451945522
 20
8.836902931742724
 30
0.0
  0
VERTEX
  5
339
  8
LAYER_1
 10
0.0665054978715711
 20
8.733320269556508
 30
0.0
  0
VERTEX
  5
33A
  8
LAYER_1
 10
0.1501992954303566
 20
8.623742278619227
 30
0.0
  0
VERTEX
  5
33B
  8
LAYER_1
 10
0.2274190013923629
 20
8.508315794624107
 30
0.0
  0
VERTEX
  5
33C
  8
LAYER_1
 10
0.2978515696681482
 20
8.38718765326438
 30
0.0
  0
VERTEX
  5
33D
  8
LAYER_1
 10
0.3611839541682711
 20
8.260504690233276
 30
0.0
  0
VERTEX
  5
33E
  8
LAYER_1
 10
0.41710310880329
 20
8.128413741224023
 30
0.0
  0
VERTEX
  5
33F
  8
LAYER_1
 10
0.4652959874837632
 20
7.991061641929852
 30
0.0
 42
-0.1907898014922191
  0
VERTEX
  5
340
  8
LAYER_1
 10
-0.3421864525942042
 20
-26.30715917905184
 30
0.0
  0
VERTEX
  5
341
  8
LAYER_1
 10
-0.6907238052127626
 20
-26.28359132670233
 30
0.0
  0
VERTEX
  5
342
  8
LAYER_1
 10
-1.057637375862
 20
-26.27711207260778
 30
0.0
  0
VERTEX
  5
343
  8
LAYER_1
 10
-1.424550946511237
 20
-26.28359132670233
 30
0.0
  0
SEQEND
  5
344
  8
LAYER_1
  0
POLYLINE
  5
5E
  8
LAYER_1
 66
     1
 10
0.0
 20
0.0
 30
0.0
 70
     1
  0
VERTEX
  5
345
  8
LAYER_1
 10
-46.46476503642723
 20
20.02551111396543
 30
0.0
 42
0.2269757628362733
  0
VERTEX
  5
346
  8
LAYER_1
 10
-33.87925956698817
 20
15.72127083010014
 30
0.0
  0
VERTEX
  5
347
  8
LAYER_1
 10
-32.87649758429585
 20
15.65633512647658
 30
0.0
  0
VERTEX
  5
348
  8
LAYER_1
 10
-31.94235920957293
 20
15.57637236161773
 30
0.0
  0
VERTEX
  5
349
  8
LAYER_1
 10
-31.07441926018067
 20
15.48168098602316
 30
0.0
  0
VERTEX
  5
34A
  8
LAYER_1
 10
-30.27025255348037
 20
15.37255945019245
 30
0.0
  0
VERTEX
  5
34B
  8
LAYER_1
 10
-29.52743390683332
 20
15.24930620462517
 30
0.0
  0
VERTEX
  5
34C
  8
LAYER_1
 10
-28.84353813760079
 20
15.11221969982089
 30
0.0
  0
VERTEX
  5
34D
  8
LAYER_1
 10
-28.21614006314407
 20
14.96159838627917
 30
0.0
  0
VERTEX
  5
34E
  8
LAYER_1
 10
-27.64281450082446
 20
14.79774071449961
 30
0.0
  0
VERTEX
  5
34F
  8
LAYER_1
 10
-27.12113626800323
 20
14.62094513498177
 30
0.0
  0
VERTEX
  5
350
  8
LAYER_1
 10
-26.64868018204167
 20
14.43151009822522
 30
0.0
  0
VERTEX
  5
351
  8
LAYER_1
 10
-26.43015257455866
 20
14.33214604916355
 30
0.0
  0
VERTEX
  5
352
  8
LAYER_1
 10
-26.22302106030106
 20
14.22973405472954
 30
0.0
  0
VERTEX
  5
353
  8
LAYER_1
 10
-26.02698249143902
 20
14.12431142123564
 30
0.0
  0
VERTEX
  5
354
  8
LAYER_1
 10
-25.8417337201427
 20
14.0159154549943
 30
0.0
  0
VERTEX
  5
355
  8
LAYER_1
 10
-25.66697159858226
 20
13.90458346231796
 30
0.0
  0
VERTEX
  5
356
  8
LAYER_1
 10
-25.50239297892786
 20
13.79035274951907
 30
0.0
  0
VERTEX
  5
357
  8
LAYER_1
 10
-25.34769471334967
 20
13.67326062291007
 30
0.0
  0
VERTEX
  5
358
  8
LAYER_1
 10
-25.20257365401783
 20
13.55334438880342
 30
0.0
  0
VERTEX
  5
359
  8
LAYER_1
 10
-25.06672665310253
 20
13.43064135351156
 30
0.0
  0
VERTEX
  5
35A
  8
LAYER_1
 10
-24.93985056277391
 20
13.30518882334694
 30
0.0
  0
VERTEX
  5
35B
  8
LAYER_1
 10
-24.82164223520213
 20
13.177024104622
 30
0.0
  0
VERTEX
  5
35C
  8
LAYER_1
 10
-24.71179852255736
 20
13.04618450364919
 30
0.0
  0
VERTEX
  5
35D
  8
LAYER_1
 10
-24.61001627700975
 20
12.91270732674095
 30
0.0
  0
VERTEX
  5
35E
  8
LAYER_1
 10
-24.51599235072948
 20
12.77662988020974
 30
0.0
  0
VERTEX
  5
35F
  8
LAYER_1
 10
-24.35000686465155
 20
12.49682340352817
 30
0.0
  0
VERTEX
  5
360
  8
LAYER_1
 10
-24.21141688168486
 20
12.20706352410406
 30
0.0
  0
VERTEX
  5
361
  8
LAYER_1
 10
-24.0977972191907
 20
11.90764869243697
 30
0.0
  0
VERTEX
  5
362
  8
LAYER_1
 10
-24.00672269453034
 20
11.59887735902647
 30
0.0
  0
VERTEX
  5
363
  8
LAYER_1
 10
-23.93576812506508
 20
11.28104797437215
 30
0.0
  0
VERTEX
  5
364
  8
LAYER_1
 10
-23.8825083281562
 20
10.95445898897358
 30
0.0
  0
VERTEX
  5
365
  8
LAYER_1
 10
-23.84451812116498
 20
10.61940885333032
 30
0.0
  0
VERTEX
  5
366
  8
LAYER_1
 10
-23.81937232145272
 20
10.27619601794195
 30
0.0
  0
VERTEX
  5
367
  8
LAYER_1
 10
-23.80464574638069
 20
9.925118933308047
 30
0.0
  0
VERTEX
  5
368
  8
LAYER_1
 10
-23.79674953960248
 20
9.200565818301921
 30
0.0
  0
VERTEX
  5
369
  8
LAYER_1
 10
-23.80142803972064
 20
8.448137112308533
 30
0.0
  0
VERTEX
  5
36A
  8
LAYER_1
 10
-23.79927978562546
 20
7.670220419324464
 30
0.0
 42
0.0827292472265588
  0
VERTEX
  5
36B
  8
LAYER_1
 10
-38.6238017744227
 20
12.47336716037156
 30
0.0
 42
-0.2819923794088157
  0
SEQEND
  5
36C
  8
LAYER_1
  0
POLYLINE
  5
5F
  8
LAYER_1
 66
     1
 10
0.0
 20
0.0
 30
0.0
 70
     1
  0
VERTEX
  5
36D
  8
LAYER_1
 10
-55.25047562857783
 20
28.69111133556845
 30
0.0
 42
-0.1832577482792296
  0
VERTEX
  5
36E
  8
LAYER_1
 10
-41.70757416450796
 20
34.90723359047458
 30
0.0
 42
-0.1543339375832692
  0
VERTEX
  5
36F
  8
LAYER_1
 10
-52.64051261991192
 20
41.97760786085336
 30
0.0
 42
0.1076178147364563
  0
SEQEND
  5
370
  8
LAYER_1
  0
POLYLINE
  5
60
  8
LAYER_1
 66
     1
 10
0.0
 20
0.0
 30
0.0
 70
     1
  0
VERTEX
  5
371
  8
LAYER_1
 10
20.25497997193852
 20
-52.85575305413059
 30
0.0
  0
VERTEX
  5
372
  8
LAYER_1
 10
19.72935183149894
 20
-51.93341953510449
 30
0.0
  0
VERTEX
  5
373
  8
LAYER_1
 10
19.20658561063458
 20
-51.03180037898143
 30
0.0
  0
VERTEX
  5
374
  8
LAYER_1
 10
18.68591249576427
 20
-50.15056083231208
 30
0.0
  0
VERTEX
  5
375
  8
LAYER_1
 10
18.16656367330682
 20
-49.28936614164711
 30
0.0
  0
VERTEX
  5
376
  8
LAYER_1
 10
17.64777032968103
 20
-48.44788155353717
 30
0.0
  0
VERTEX
  5
377
  8
LAYER_1
 10
17.12876365130573
 20
-47.62577231453295
 30
0.0
  0
VERTEX
  5
378
  8
LAYER_1
 10
16.60877482459973
 20
-46.8227036711851
 30
0.0
  0
VERTEX
  5
379
  8
LAYER_1
 10
16.08703503598185
 20
-46.03834087004429
 30
0.0
  0
VERTEX
  5
37A
  8
LAYER_1
 10
15.5627754718709
 20
-45.27234915766119
 30
0.0
  0
VERTEX
  5
37B
  8
LAYER_1
 10
15.03522731868568
 20
-44.52439378058647
 30
0.0
  0
VERTEX
  5
37C
  8
LAYER_1
 10
14.50362176284503
 20
-43.79413998537079
 30
0.0
  0
VERTEX
  5
37D
  8
LAYER_1
 10
13.96718999076776
 20
-43.08125301856483
 30
0.0
  0
VERTEX
  5
37E
  8
LAYER_1
 10
13.42516318887267
 20
-42.38539812671925
 30
0.0
  0
VERTEX
  5
37F
  8
LAYER_1
 10
12.87677254357858
 20
-41.70624055638471
 30
0.0
  0
VERTEX
  5
380
  8
LAYER_1
 10
12.32124924130431
 20
-41.04344555411188
 30
0.0
  0
VERTEX
  5
381
  8
LAYER_1
 10
11.75782446846868
 20
-40.39667836645142
 30
0.0
  0
VERTEX
  5
382
  8
LAYER_1
 10
11.18572941149049
 20
-39.76560423995401
 30
0.0
  0
VERTEX
  5
383
  8
LAYER_1
 10
10.60419525678856
 20
-39.14988842117032
 30
0.0
  0
VERTEX
  5
384
  8
LAYER_1
 10
10.01245319078171
 20
-38.549196156651
 30
0.0
  0
VERTEX
  5
385
  8
LAYER_1
 10
9.409734399888755
 20
-37.96319269294673
 30
0.0
  0
VERTEX
  5
386
  8
LAYER_1
 10
8.795270070528504
 20
-37.39154327660818
 30
0.0
  0
VERTEX
  5
387
  8
LAYER_1
 10
8.168291389119773
 20
-36.83391315418601
 30
0.0
  0
VERTEX
  5
388
  8
LAYER_1
 10
7.528029542081377
 20
-36.28996757223089
 30
0.0
  0
VERTEX
  5
389
  8
LAYER_1
 10
6.873715715832134
 20
-35.75937177729348
 30
0.0
  0
VERTEX
  5
38A
  8
LAYER_1
 10
6.204581096790855
 20
-35.24179101592446
 30
0.0
  0
VERTEX
  5
38B
  8
LAYER_1
 10
5.519856871376354
 20
-34.73689053467447
 30
0.0
  0
VERTEX
  5
38C
  8
LAYER_1
 10
4.818774226007449
 20
-34.2443355800942
 30
0.0
  0
VERTEX
  5
38D
  8
LAYER_1
 10
4.100564347102953
 20
-33.76379139873433
 30
0.0
  0
VERTEX
  5
38E
  8
LAYER_1
 10
3.364458421081681
 20
-33.2949232371455
 30
0.0
  0
VERTEX
  5
38F
  8
LAYER_1
 10
2.609687634362447
 20
-32.83739634187838
 30
0.0
  0
VERTEX
  5
390
  8
LAYER_1
 10
1.835483173364067
 20
-32.39087595948365
 30
0.0
  0
VERTEX
  5
391
  8
LAYER_1
 10
1.041076224505355
 20
-31.95502733651198
 30
0.0
 42
0.03268574428984
  0
VERTEX
  5
392
  8
LAYER_1
 10
1.756242302439891
 20
-29.75655383767618
 30
0.0
 42
-0.1478863061637149
  0
VERTEX
  5
393
  8
LAYER_1
 10
22.65606833942526
 20
-44.47942727334532
 30
0.0
  0
VERTEX
  5
394
  8
LAYER_1
 10
22.71394304473891
 20
-45.07167221885449
 30
0.0
  0
VERTEX
  5
395
  8
LAYER_1
 10
22.75769937075667
 20
-45.69490097889953
 30
0.0
  0
VERTEX
  5
396
  8
LAYER_1
 10
22.78442146366245
 20
-46.34051060510246
 30
0.0
  0
VERTEX
  5
397
  8
LAYER_1
 10
22.7911934696402
 20
-46.99989814908532
 30
0.0
  0
VERTEX
  5
398
  8
LAYER_1
 10
22.77509953487385
 20
-47.66446066247012
 30
0.0
  0
VERTEX
  5
399
  8
LAYER_1
 10
22.73322380554733
 20
-48.32559519687889
 30
0.0
  0
VERTEX
  5
39A
  8
LAYER_1
 10
22.70170656360649
 20
-48.65218855059916
 30
0.0
  0
VERTEX
  5
39B
  8
LAYER_1
 10
22.66265042784458
 20
-48.97469880393367
 30
0.0
  0
VERTEX
  5
39C
  8
LAYER_1
 10
22.61569091653459
 20
-49.29205058833519
 30
0.0
  0
VERTEX
  5
39D
  8
LAYER_1
 10
22.56046354794953
 20
-49.60316853525647
 30
0.0
  0
VERTEX
  5
39E
  8
LAYER_1
 10
22.49660384036237
 20
-49.90697727615026
 30
0.0
  0
VERTEX
  5
39F
  8
LAYER_1
 10
22.42374731204611
 20
-50.20240144246931
 30
0.0
  0
VERTEX
  5
3A0
  8
LAYER_1
 10
22.34152948127375
 20
-50.48836566566638
 30
0.0
  0
VERTEX
  5
3A1
  8
LAYER_1
 10
22.24958586631827
 20
-50.76379457719422
 30
0.0
  0
VERTEX
  5
3A2
  8
LAYER_1
 10
22.14755198545267
 20
-51.02761280850559
 30
0.0
  0
VERTEX
  5
3A3
  8
LAYER_1
 10
22.03506335694993
 20
-51.27874499105323
 30
0.0
  0
VERTEX
  5
3A4
  8
LAYER_1
 10
21.91175549908305
 20
-51.51611575628991
 30
0.0
  0
VERTEX
  5
3A5
  8
LAYER_1
 10
21.77726393012503
 20
-51.73864973566836
 30
0.0
  0
VERTEX
  5
3A6
  8
LAYER_1
 10
21.63122416834885
 20
-51.94527156064136
 30
0.0
  0
VERTEX
  5
3A7
  8
LAYER_1
 10
21.47327173202751
 20
-52.13490586266164
 30
0.0
  0
VERTEX
  5
3A8
  8
LAYER_1
 10
21.30304213943398
 20
-52.30647727318196
 30
0.0
  0
VERTEX
  5
3A9
  8
LAYER_1
 10
21.12017090884129
 20
-52.45891042365508
 30
0.0
  0
VERTEX
  5
3AA
  8
LAYER_1
 10
20.9242935585224
 20
-52.59112994553375
 30
0.0
  0
VERTEX
  5
3AB
  8
LAYER_1
 10
20.71504560675031
 20
-52.70206047027072
 30
0.0
  0
VERTEX
  5
3AC
  8
LAYER_1
 10
20.49206257179802
 20
-52.79062662931875
 30
0.0
  0
SEQEND
  5
3AD
  8
LAYER_1
  0
POLYLINE
  5
61
  8
LAYER_1
 66
     1
 10
0.0
 20
0.0
 30
0.0
 70
     1
  0
VERTEX
  5
3AE
  8
LAYER_1
 10
-31.35923383532196
 20
-7.604750113377317
 30
0.0
 42
0.3988451603099831
  0
VERTEX
  5
3AF
  8
LAYER_1
 10
-39.64470238054791
 20
6.541171793106029
 30
0.0
  0
VERTEX
  5
3B0
  8
LAYER_1
 10
-40.03619000807863
 20
6.669433568607518
 30
0.0
  0
VERTEX
  5
3B1
  8
LAYER_1
 10
-40.42707418330664
 20
6.810568340478922
 30
0.0
  0
VERTEX
  5
3B2
  8
LAYER_1
 10
-40.81649854196412
 20
6.964306883949025
 30
0.0
  0
VERTEX
  5
3B3
  8
LAYER_1
 10
-41.20360671978325
 20
7.130379974246608
 30
0.0
  0
VERTEX
  5
3B4
  8
LAYER_1
 10
-41.58754235249619
 20
7.308518386600452
 30
0.0
  0
VERTEX
  5
3B5
  8
LAYER_1
 10
-41.96744907583513
 20
7.498452896239342
 30
0.0
  0
VERTEX
  5
3B6
  8
LAYER_1
 10
-42.34247052553226
 20
7.699914278392056
 30
0.0
  0
VERTEX
  5
3B7
  8
LAYER_1
 10
-42.71175033731974
 20
7.912633308287378
 30
0.0
  0
VERTEX
  5
3B8
  8
LAYER_1
 10
-43.07443214692975
 20
8.13634076115409
 30
0.0
  0
VERTEX
  5
3B9
  8
LAYER_1
 10
-43.42965959009449
 20
8.370767412220971
 30
0.0
  0
VERTEX
  5
3BA
  8
LAYER_1
 10
-43.7765763025461
 20
8.615644036716805
 30
0.0
  0
VERTEX
  5
3BB
  8
LAYER_1
 10
-44.11432592001679
 20
8.870701409870374
 30
0.0
  0
VERTEX
  5
3BC
  8
LAYER_1
 10
-44.44205207823872
 20
9.135670306910459
 30
0.0
  0
VERTEX
  5
3BD
  8
LAYER_1
 10
-44.75889841294407
 20
9.410281503065843
 30
0.0
  0
VERTEX
  5
3BE
  8
LAYER_1
 10
-45.06400855986503
 20
9.69426577356531
 30
0.0
  0
VERTEX
  5
3BF
  8
LAYER_1
 10
-45.35652615473376
 20
9.987353893637636
 30
0.0
  0
VERTEX
  5
3C0
  8
LAYER_1
 10
-45.63559483328245
 20
10.28927663851161
 30
0.0
  0
VERTEX
  5
3C1
  8
LAYER_1
 10
-45.90035823124327
 20
10.599764783416
 30
0.0
  0
VERTEX
  5
3C2
  8
LAYER_1
 10
-46.14995998434841
 20
10.9185491035796
 30
0.0
  0
VERTEX
  5
3C3
  8
LAYER_1
 10
-46.38354372833003
 20
11.2453603742312
 30
0.0
  0
VERTEX
  5
3C4
  8
LAYER_1
 10
-46.60025309892032
 20
11.57992937059956
 30
0.0
  0
VERTEX
  5
3C5
  8
LAYER_1
 10
-46.79923173185146
 20
11.92198686791348
 30
0.0
  0
VERTEX
  5
3C6
  8
LAYER_1
 10
-46.97962326285563
 20
12.27126364140173
 30
0.0
  0
VERTEX
  5
3C7
  8
LAYER_1
 10
-47.14057132766499
 20
12.6274904662931
 30
0.0
  0
VERTEX
  5
3C8
  8
LAYER_1
 10
-47.28121956201173
 20
12.99039811781636
 30
0.0
  0
VERTEX
  5
3C9
  8
LAYER_1
 10
-47.40071160162803
 20
13.35971737120031
 30
0.0
  0
VERTEX
  5
3CA
  8
LAYER_1
 10
-47.49819108224607
 20
13.73517900167372
 30
0.0
  0
VERTEX
  5
3CB
  8
LAYER_1
 10
-47.57280163959801
 20
14.11651378446538
 30
0.0
  0
VERTEX
  5
3CC
  8
LAYER_1
 10
-47.62368690941605
 20
14.50345249480405
 30
0.0
  0
VERTEX
  5
3CD
  8
LAYER_1
 10
-47.64999052743235
 20
14.89572590791854
 30
0.0
  0
VERTEX
  5
3CE
  8
LAYER_1
 10
-47.6508561293791
 20
15.29306479903762
 30
0.0
  0
VERTEX
  5
3CF
  8
LAYER_1
 10
-47.62542735098848
 20
15.69519994339007
 30
0.0
 42
0.2189923156222453
  0
VERTEX
  5
3D0
  8
LAYER_1
 10
-33.01066917560453
 20
8.271420126867604
 30
0.0
  0
VERTEX
  5
3D1
  8
LAYER_1
 10
-32.15571836225351
 20
8.133915486039008
 30
0.0
  0
VERTEX
  5
3D2
  8
LAYER_1
 10
-31.34657105272585
 20
7.978306945607653
 30
0.0
  0
VERTEX
  5
3D3
  8
LAYER_1
 10
-30.58209150417341
 20
7.805423310111268
 30
0.0
  0
VERTEX
  5
3D4
  8
LAYER_1
 10
-29.86114397374802
 20
7.61609338408759
 30
0.0
  0
VERTEX
  5
3D5
  8
LAYER_1
 10
-29.18259271860155
 20
7.411145972074351
 30
0.0
  0
VERTEX
  5
3D6
  8
LAYER_1
 10
-28.54530199588584
 20
7.191409878609284
 30
0.0
  0
VERTEX
  5
3D7
  8
LAYER_1
 10
-27.94813606275272
 20
6.957713908230125
 30
0.0
  0
VERTEX
  5
3D8
  8
LAYER_1
 10
-27.38995917635405
 20
6.710886865474607
 30
0.0
  0
VERTEX
  5
3D9
  8
LAYER_1
 10
-26.86963559384166
 20
6.451757554880464
 30
0.0
  0
VERTEX
  5
3DA
  8
LAYER_1
 10
-26.38602957236742
 20
6.181154780985429
 30
0.0
  0
VERTEX
  5
3DB
  8
LAYER_1
 10
-25.93800536908316
 20
5.899907348327236
 30
0.0
  0
VERTEX
  5
3DC
  8
LAYER_1
 10
-25.52442724114074
 20
5.608844061443619
 30
0.0
  0
VERTEX
  5
3DD
  8
LAYER_1
 10
-25.14415944569199
 20
5.308793724872313
 30
0.0
  0
VERTEX
  5
3DE
  8
LAYER_1
 10
-24.79606623988875
 20
5.00058514315105
 30
0.0
  0
VERTEX
  5
3DF
  8
LAYER_1
 10
-24.47901188088289
 20
4.685047120817565
 30
0.0
  0
VERTEX
  5
3E0
  8
LAYER_1
 10
-24.19186062582624
 20
4.363008462409592
 30
0.0
  0
VERTEX
  5
3E1
  8
LAYER_1
 10
-23.93347673187064
 20
4.035297972464864
 30
0.0
  0
VERTEX
  5
3E2
  8
LAYER_1
 10
-23.70272445616796
 20
3.702744455521115
 30
0.0
  0
VERTEX
  5
3E3
  8
LAYER_1
 10
-23.49846805587002
 20
3.36617671611608
 30
0.0
  0
VERTEX
  5
3E4
  8
LAYER_1
 10
-23.31957178812868
 20
3.02642355878749
 30
0.0
  0
VERTEX
  5
3E5
  8
LAYER_1
 10
-23.16489991009578
 20
2.684313788073082
 30
0.0
  0
VERTEX
  5
3E6
  8
LAYER_1
 10
-23.03331667892316
 20
2.340676208510588
 30
0.0
  0
VERTEX
  5
3E7
  8
LAYER_1
 10
-22.92368635176269
 20
1.996339624637743
 30
0.0
  0
VERTEX
  5
3E8
  8
LAYER_1
 10
-22.83487318576619
 20
1.652132840992279
 30
0.0
  0
VERTEX
  5
3E9
  8
LAYER_1
 10
-22.76574143808552
 20
1.308884662111932
 30
0.0
  0
VERTEX
  5
3EA
  8
LAYER_1
 10
-22.71515536587253
 20
0.9674238925344343
 30
0.0
  0
VERTEX
  5
3EB
  8
LAYER_1
 10
-22.68197922627905
 20
0.6285793367975204
 30
0.0
  0
VERTEX
  5
3EC
  8
LAYER_1
 10
-22.66507727645693
 20
0.293179799438924
 30
0.0
  0
VERTEX
  5
3ED
  8
LAYER_1
 10
-22.66331377355802
 20
-0.0379459150036212
 30
0.0
  0
VERTEX
  5
3EE
  8
LAYER_1
 10
-22.67555297473417
 20
-0.3639690019923812
 30
0.0
  0
VERTEX
  5
3EF
  8
LAYER_1
 10
-22.70065913713722
 20
-0.6840606569896222
 30
0.0
  0
VERTEX
  5
3F0
  8
LAYER_1
 10
-22.73749651791902
 20
-0.9973920754576104
 30
0.0
 42
-0.4275397436380783
  0
SEQEND
  5
3F1
  8
LAYER_1
  0
POLYLINE
  5
62
  8
LAYER_1
 66
     1
 10
0.0
 20
0.0
 30
0.0
 70
     1
  0
VERTEX
  5
3F2
  8
LAYER_1
 10
-50.76289099815421
 20
11.18428718789596
 30
0.0
 42
-0.2698822859284556
  0
VERTEX
  5
3F3
  8
LAYER_1
 10
-41.46833429153357
 20
32.65426717127061
 30
0.0
 42
0.1744115852968134
  0
VERTEX
  5
3F4
  8
LAYER_1
 10
-55.46144790789113
 20
24.93696351688058
 30
0.0
 42
0.1260385732814716
  0
SEQEND
  5
3F5
  8
LAYER_1
  0
POLYLINE
  5
63
  8
LAYER_1
 66
     1
 10
0.0
 20
0.0
 30
0.0
 70
     1
  0
VERTEX
  5
3F6
  8
LAYER_1
 10
-41.77943333024633
 20
-10.52872697873262
 30
0.0
 42
-0.2324051259274574
  0
VERTEX
  5
3F7
  8
LAYER_1
 10
-47.874304825954
 20
1.699816255626221
 30
0.0
 42
0.0607834614261778
  0
VERTEX
  5
3F8
  8
LAYER_1
 10
-48.7085100492392
 20
9.904450961386553
 30
0.0
 42
0.1438188471043507
  0
VERTEX
  5
3F9
  8
LAYER_1
 10
-41.55633193332122
 20
4.879819500203675
 30
0.0
 42
-0.2673851790151398
  0
VERTEX
  5
3FA
  8
LAYER_1
 10
-33.40407755553461
 20
-5.399658196960163
 30
0.0
 42
-0.6347873043657708
  0
SEQEND
  5
3FB
  8
LAYER_1
  0
POLYLINE
  5
64
  8
LAYER_1
 66
     1
 10
0.0
 20
0.0
 30
0.0
 70
     1
  0
VERTEX
  5
3FC
  8
LAYER_1
 10
14.74755284403314
 20
-64.30467719709351
 30
0.0
 42
0.1293657340559312
  0
VERTEX
  5
3FD
  8
LAYER_1
 10
0.407144719795595
 20
-37.22493680691394
 30
0.0
 42
0.0183142642497126
  0
VERTEX
  5
3FE
  8
LAYER_1
 10
0.9424771279711964
 20
-35.03177712259999
 30
0.0
 42
-0.152160192492189
  0
VERTEX
  5
3FF
  8
LAYER_1
 10
18.57425206491036
 20
-56.17625869771935
 30
0.0
 42
-0.349872576550917
  0
SEQEND
  5
400
  8
LAYER_1
  0
POLYLINE
  5
65
  8
LAYER_1
 66
     1
 10
0.0
 20
0.0
 30
0.0
 70
     1
  0
VERTEX
  5
401
  8
LAYER_1
 10
-25.8267328682748
 20
-41.18738984375562
 30
0.0
 42
-0.0245553573461064
  0
VERTEX
  5
402
  8
LAYER_1
 10
-18.39777968602657
 20
-33.1821237196533
 30
0.0
 42
0.1226549936514838
  0
VERTEX
  5
403
  8
LAYER_1
 10
-8.850899075939637
 20
-13.38227891174727
 30
0.0
 42
-0.2002624344144227
  0
VERTEX
  5
404
  8
LAYER_1
 10
-8.281932345749732
 20
-12.29149007455839
 30
0.0
 42
-0.3421972321352545
  0
VERTEX
  5
405
  8
LAYER_1
 10
-7.970297071812724
 20
-13.41249013891159
 30
0.0
 42
0.0793894251960537
  0
VERTEX
  5
406
  8
LAYER_1
 10
-4.42794094506883
 20
-26.96052261177529
 30
0.0
 42
0.1018226414186869
  0
SEQEND
  5
407
  8
LAYER_1
  0
POLYLINE
  5
66
  8
LAYER_1
 66
     1
 10
0.0
 20
0.0
 30
0.0
 70
     1
  0
VERTEX
  5
408
  8
LAYER_1
 10
8.14484578315171
 20
-73.97736052196367
 30
0.0
 42
0.1194634429386937
  0
VERTEX
  5
409
  8
LAYER_1
 10
0.2758308896130781
 20
-45.73283016035587
 30
0.0
 42
0.035592505696375
  0
VERTEX
  5
40A
  8
LAYER_1
 10
0.4443969947133232
 20
-41.47477591681879
 30
0.0
 42
-0.0838163305733503
  0
VERTEX
  5
40B
  8
LAYER_1
 10
12.93707995587091
 20
-67.11780090491128
 30
0.0
 42
-0.2147376310634208
  0
SEQEND
  5
40C
  8
LAYER_1
  0
POLYLINE
  5
67
  8
LAYER_1
 66
     1
 10
0.0
 20
0.0
 30
0.0
 70
     1
  0
VERTEX
  5
40D
  8
LAYER_1
 10
-22.37025472366252
 20
-52.85575305413059
 30
0.0
  0
VERTEX
  5
40E
  8
LAYER_1
 10
-21.84462658322293
 20
-51.93341953510449
 30
0.0
  0
VERTEX
  5
40F
  8
LAYER_1
 10
-21.32186036235858
 20
-51.03180037898143
 30
0.0
  0
VERTEX
  5
410
  8
LAYER_1
 10
-20.80118724748827
 20
-50.15056083231208
 30
0.0
  0
VERTEX
  5
411
  8
LAYER_1
 10
-20.28183842503082
 20
-49.28936614164711
 30
0.0
  0
VERTEX
  5
412
  8
LAYER_1
 10
-19.76304508140504
 20
-48.44788155353717
 30
0.0
  0
VERTEX
  5
413
  8
LAYER_1
 10
-19.24403840302973
 20
-47.62577231453295
 30
0.0
  0
VERTEX
  5
414
  8
LAYER_1
 10
-18.72404957632374
 20
-46.8227036711851
 30
0.0
  0
VERTEX
  5
415
  8
LAYER_1
 10
-18.20230978770585
 20
-46.03834087004429
 30
0.0
  0
VERTEX
  5
416
  8
LAYER_1
 10
-17.6780502235949
 20
-45.27234915766119
 30
0.0
  0
VERTEX
  5
417
  8
LAYER_1
 10
-17.15050207040969
 20
-44.52439378058647
 30
0.0
  0
VERTEX
  5
418
  8
LAYER_1
 10
-16.61889651456904
 20
-43.79413998537079
 30
0.0
  0
VERTEX
  5
419
  8
LAYER_1
 10
-16.08246474249176
 20
-43.08125301856483
 30
0.0
  0
VERTEX
  5
41A
  8
LAYER_1
 10
-15.54043794059667
 20
-42.38539812671925
 30
0.0
  0
VERTEX
  5
41B
  8
LAYER_1
 10
-14.99204729530258
 20
-41.70624055638471
 30
0.0
  0
VERTEX
  5
41C
  8
LAYER_1
 10
-14.43652399302831
 20
-41.04344555411188
 30
0.0
  0
VERTEX
  5
41D
  8
LAYER_1
 10
-13.87309922019268
 20
-40.39667836645142
 30
0.0
  0
VERTEX
  5
41E
  8
LAYER_1
 10
-13.30100416321449
 20
-39.76560423995401
 30
0.0
  0
VERTEX
  5
41F
  8
LAYER_1
 10
-12.71947000851256
 20
-39.14988842117032
 30
0.0
  0
VERTEX
  5
420
  8
LAYER_1
 10
-12.12772794250571
 20
-38.549196156651
 30
0.0
  0
VERTEX
  5
421
  8
LAYER_1
 10
-11.52500915161276
 20
-37.96319269294673
 30
0.0
  0
VERTEX
  5
422
  8
LAYER_1
 10
-10.91054482225251
 20
-37.39154327660818
 30
0.0
  0
VERTEX
  5
423
  8
LAYER_1
 10
-10.28356614084377
 20
-36.83391315418601
 30
0.0
  0
VERTEX
  5
424
  8
LAYER_1
 10
-9.643304293805379
 20
-36.28996757223089
 30
0.0
  0
VERTEX
  5
425
  8
LAYER_1
 10
-8.988990467556134
 20
-35.75937177729348
 30
0.0
  0
VERTEX
  5
426
  8
LAYER_1
 10
-8.319855848514853
 20
-35.24179101592446
 30
0.0
  0
VERTEX
  5
427
  8
LAYER_1
 10
-7.635131623100354
 20
-34.73689053467447
 30
0.0
  0
VERTEX
  5
428
  8
LAYER_1
 10
-6.934048977731448
 20
-34.2443355800942
 30
0.0
  0
VERTEX
  5
429
  8
LAYER_1
 10
-6.215839098826952
 20
-33.76379139873433
 30
0.0
  0
VERTEX
  5
42A
  8
LAYER_1
 10
-5.47973317280568
 20
-33.2949232371455
 30
0.0
  0
VERTEX
  5
42B
  8
LAYER_1
 10
-4.724962386086446
 20
-32.83739634187838
 30
0.0
  0
VERTEX
  5
42C
  8
LAYER_1
 10
-3.950757925088066
 20
-32.39087595948365
 30
0.0
  0
VERTEX
  5
42D
  8
LAYER_1
 10
-3.156350976229354
 20
-31.95502733651198
 30
0.0
 42
-0.03268574428984
  0
VERTEX
  5
42E
  8
LAYER_1
 10
-3.87151705416389
 20
-29.75655383767618
 30
0.0
 42
0.1478863061637149
  0
VERTEX
  5
42F
  8
LAYER_1
 10
-24.77134309114926
 20
-44.47942727334532
 30
0.0
  0
VERTEX
  5
430
  8
LAYER_1
 10
-24.82921779646291
 20
-45.07167221885449
 30
0.0
  0
VERTEX
  5
431
  8
LAYER_1
 10
-24.87297412248067
 20
-45.69490097889953
 30
0.0
  0
VERTEX
  5
432
  8
LAYER_1
 10
-24.89969621538645
 20
-46.34051060510246
 30
0.0
  0
VERTEX
  5
433
  8
LAYER_1
 10
-24.9064682213642
 20
-46.99989814908532
 30
0.0
  0
VERTEX
  5
434
  8
LAYER_1
 10
-24.89037428659785
 20
-47.66446066247012
 30
0.0
  0
VERTEX
  5
435
  8
LAYER_1
 10
-24.84849855727133
 20
-48.32559519687889
 30
0.0
  0
VERTEX
  5
436
  8
LAYER_1
 10
-24.81698131533049
 20
-48.65218855059916
 30
0.0
  0
VERTEX
  5
437
  8
LAYER_1
 10
-24.77792517956858
 20
-48.97469880393367
 30
0.0
  0
VERTEX
  5
438
  8
LAYER_1
 10
-24.73096566825859
 20
-49.29205058833519
 30
0.0
  0
VERTEX
  5
439
  8
LAYER_1
 10
-24.67573829967353
 20
-49.60316853525647
 30
0.0
  0
VERTEX
  5
43A
  8
LAYER_1
 10
-24.61187859208637
 20
-49.90697727615026
 30
0.0
  0
VERTEX
  5
43B
  8
LAYER_1
 10
-24.53902206377011
 20
-50.20240144246931
 30
0.0
  0
VERTEX
  5
43C
  8
LAYER_1
 10
-24.45680423299775
 20
-50.48836566566638
 30
0.0
  0
VERTEX
  5
43D
  8
LAYER_1
 10
-24.36486061804226
 20
-50.76379457719422
 30
0.0
  0
VERTEX
  5
43E
  8
LAYER_1
 10
-24.26282673717666
 20
-51.02761280850559
 30
0.0
  0
VERTEX
  5
43F
  8
LAYER_1
 10
-24.15033810867393
 20
-51.27874499105323
 30
0.0
  0
VERTEX
  5
440
  8
LAYER_1
 10
-24.02703025080705
 20
-51.51611575628991
 30
0.0
  0
VERTEX
  5
441
  8
LAYER_1
 10
-23.89253868184903
 20
-51.73864973566836
 30
0.0
  0
VERTEX
  5
442
  8
LAYER_1
 10
-23.74649892007285
 20
-51.94527156064136
 30
0.0
  0
VERTEX
  5
443
  8
LAYER_1
 10
-23.5885464837515
 20
-52.13490586266164
 30
0.0
  0
VERTEX
  5
444
  8
LAYER_1
 10
-23.41831689115799
 20
-52.30647727318196
 30
0.0
  0
VERTEX
  5
445
  8
LAYER_1
 10
-23.23544566056529
 20
-52.45891042365508
 30
0.0
  0
VERTEX
  5
446
  8
LAYER_1
 10
-23.0395683102464
 20
-52.59112994553375
 30
0.0
  0
VERTEX
  5
447
  8
LAYER_1
 10
-22.83032035847431
 20
-52.70206047027072
 30
0.0
  0
VERTEX
  5
448
  8
LAYER_1
 10
-22.60733732352202
 20
-52.79062662931875
 30
0.0
  0
SEQEND
  5
449
  8
LAYER_1
  0
POLYLINE
  5
68
  8
LAYER_1
 66
     1
 10
0.0
 20
0.0
 30
0.0
 70
     1
  0
VERTEX
  5
44A
  8
LAYER_1
 10
-16.86282759575714
 20
-64.30467719709351
 30
0.0
 42
-0.1293657340559312
  0
VERTEX
  5
44B
  8
LAYER_1
 10
-2.522419471519594
 20
-37.22493680691394
 30
0.0
 42
-0.0183142642497126
  0
VERTEX
  5
44C
  8
LAYER_1
 10
-3.057751879695195
 20
-35.03177712259999
 30
0.0
 42
0.152160192492189
  0
VERTEX
  5
44D
  8
LAYER_1
 10
-20.68952681663436
 20
-56.17625869771935
 30
0.0
 42
0.349872576550917
  0
SEQEND
  5
44E
  8
LAYER_1
  0
POLYLINE
  5
69
  8
LAYER_1
 66
     1
 10
0.0
 20
0.0
 30
0.0
 70
     1
  0
VERTEX
  5
44F
  8
LAYER_1
 10
-10.26012053487571
 20
-73.97736052196367
 30
0.0
 42
-0.1194634429386937
  0
VERTEX
  5
450
  8
LAYER_1
 10
-2.391105641337077
 20
-45.73283016035587
 30
0.0
 42
-0.035592505696375
  0
VERTEX
  5
451
  8
LAYER_1
 10
-2.559671746437322
 20
-41.47477591681879
 30
0.0
 42
0.0838163305733503
  0
VERTEX
  5
452
  8
LAYER_1
 10
-15.05235470759491
 20
-67.11780090491128
 30
0.0
 42
0.2147376310634208
  0
SEQEND
  5
453
  8
LAYER_1
  0
POLYLINE
  5
6A
  8
LAYER_1
 66
     1
 10
0.0
 20
0.0
 30
0.0
 70
     1
  0
VERTEX
  5
454
  8
LAYER_1
 10
-1.057637375862
 20
46.5037578529973
 30
0.0
  0
VERTEX
  5
455
  8
LAYER_1
 10
-0.5294360243491381
 20
46.48388556019242
 30
0.0
  0
VERTEX
  5
456
  8
LAYER_1
 10
-0.0175493982883407
 20
46.47661253511745
 30
0.0
  0
VERTEX
  5
457
  8
LAYER_1
 10
0.475607507859556
 20
46.4815155643298
 30
0.0
  0
VERTEX
  5
458
  8
LAYER_1
 10
0.9476196996337157
 20
46.49817143438683
 30
0.0
  0
VERTEX
  5
459
  8
LAYER_1
 10
1.396072182573302
 20
46.52615693184595
 30
0.0
  0
VERTEX
  5
45A
  8
LAYER_1
 10
1.818549962217479
 20
46.56504884326452
 30
0.0
  0
VERTEX
  5
45B
  8
LAYER_1
 10
2.212638044105409
 20
46.61442395519995
 30
0.0
  0
VERTEX
  5
45C
  8
LAYER_1
 10
2.575921433776257
 20
46.67385905420961
 30
0.0
  0
VERTEX
  5
45D
  8
LAYER_1
 10
2.905985136769186
 20
46.74293092685089
 30
0.0
  0
VERTEX
  5
45E
  8
LAYER_1
 10
3.200414158623359
 20
46.82121635968115
 30
0.0
  0
VERTEX
  5
45F
  8
LAYER_1
 10
3.456793504877941
 20
46.90829213925781
 30
0.0
  0
VERTEX
  5
460
  8
LAYER_1
 10
3.672708181072095
 20
47.00373505213823
 30
0.0
  0
VERTEX
  5
461
  8
LAYER_1
 10
3.845743192744985
 20
47.10712188487982
 30
0.0
  0
VERTEX
  5
462
  8
LAYER_1
 10
3.915426138616944
 20
47.16166201699772
 30
0.0
  0
VERTEX
  5
463
  8
LAYER_1
 10
3.973483545435774
 20
47.21802942403993
 30
0.0
  0
VERTEX
  5
464
  8
LAYER_1
 10
4.019613538893869
 20
47.27617120432613
 30
0.0
  0
VERTEX
  5
465
  8
LAYER_1
 10
4.053514244683626
 20
47.33603445617597
 30
0.0
  0
VERTEX
  5
466
  8
LAYER_1
 10
4.07488378849744
 20
47.39756627790914
 30
0.0
  0
VERTEX
  5
467
  8
LAYER_1
 10
4.083420296027704
 20
47.46071376784531
 30
0.0
  0
VERTEX
  5
468
  8
LAYER_1
 10
4.078794383879909
 20
47.52529097415076
 30
0.0
  0
VERTEX
  5
469
  8
LAYER_1
 10
4.061043742126905
 20
47.58987973466131
 30
0.0
  0
VERTEX
  5
46A
  8
LAYER_1
 10
4.030474184760834
 20
47.65438605500469
 30
0.0
  0
VERTEX
  5
46B
  8
LAYER_1
 10
3.987391525773837
 20
47.71871594080865
 30
0.0
  0
VERTEX
  5
46C
  8
LAYER_1
 10
3.932101579158054
 20
47.78277539770093
 30
0.0
  0
VERTEX
  5
46D
  8
LAYER_1
 10
3.86491015890563
 20
47.84647043130927
 30
0.0
  0
VERTEX
  5
46E
  8
LAYER_1
 10
3.696046153459422
 20
47.97239125118512
 30
0.0
  0
VERTEX
  5
46F
  8
LAYER_1
 10
3.483246021372347
 20
48.09572644545814
 30
0.0
  0
VERTEX
  5
470
  8
LAYER_1
 10
3.228956274581541
 20
48.21572405915029
 30
0.0
  0
VERTEX
  5
471
  8
LAYER_1
 10
2.935623425024139
 20
48.3316321372835
 30
0.0
  0
VERTEX
  5
472
  8
LAYER_1
 10
2.605693984637276
 20
48.44269872487973
 30
0.0
  0
VERTEX
  5
473
  8
LAYER_1
 10
2.241614465358087
 20
48.54817186696091
 30
0.0
  0
VERTEX
  5
474
  8
LAYER_1
 10
1.845831379123708
 20
48.647299608549
 30
0.0
  0
VERTEX
  5
475
  8
LAYER_1
 10
1.420791237871273
 20
48.73932999466594
 30
0.0
  0
VERTEX
  5
476
  8
LAYER_1
 10
0.9689405535379184
 20
48.82351107033366
 30
0.0
  0
VERTEX
  5
477
  8
LAYER_1
 10
0.4927258380607785
 20
48.89909088057412
 30
0.0
  0
VERTEX
  5
478
  8
LAYER_1
 10
-0.0054063966230113
 20
48.96531747040927
 30
0.0
  0
VERTEX
  5
479
  8
LAYER_1
 10
-0.5230096385763157
 20
49.02143888486106
 30
0.0
  0
VERTEX
  5
47A
  8
LAYER_1
 10
-1.057637375862
 20
49.06670316895142
 30
0.0
  0
VERTEX
  5
47B
  8
LAYER_1
 10
-1.592265113147684
 20
49.02143888486106
 30
0.0
  0
VERTEX
  5
47C
  8
LAYER_1
 10
-2.109868355100988
 20
48.96531747040927
 30
0.0
  0
VERTEX
  5
47D
  8
LAYER_1
 10
-2.608000589784778
 20
48.89909088057412
 30
0.0
  0
VERTEX
  5
47E
  8
LAYER_1
 10
-3.084215305261917
 20
48.82351107033366
 30
0.0
  0
VERTEX
  5
47F
  8
LAYER_1
 10
-3.536065989595272
 20
48.73932999466594
 30
0.0
  0
VERTEX
  5
480
  8
LAYER_1
 10
-3.961106130847707
 20
48.647299608549
 30
0.0
  0
VERTEX
  5
481
  8
LAYER_1
 10
-4.356889217082086
 20
48.54817186696091
 30
0.0
  0
VERTEX
  5
482
  8
LAYER_1
 10
-4.720968736361275
 20
48.44269872487973
 30
0.0
  0
VERTEX
  5
483
  8
LAYER_1
 10
-5.050898176748138
 20
48.3316321372835
 30
0.0
  0
VERTEX
  5
484
  8
LAYER_1
 10
-5.344231026305541
 20
48.21572405915029
 30
0.0
  0
VERTEX
  5
485
  8
LAYER_1
 10
-5.598520773096347
 20
48.09572644545814
 30
0.0
  0
VERTEX
  5
486
  8
LAYER_1
 10
-5.811320905183421
 20
47.97239125118512
 30
0.0
  0
VERTEX
  5
487
  8
LAYER_1
 10
-5.980184910629629
 20
47.84647043130927
 30
0.0
  0
VERTEX
  5
488
  8
LAYER_1
 10
-6.047376330882053
 20
47.78277539770093
 30
0.0
  0
VERTEX
  5
489
  8
LAYER_1
 10
-6.102666277497836
 20
47.71871594080865
 30
0.0
  0
VERTEX
  5
48A
  8
LAYER_1
 10
-6.145748936484834
 20
47.65438605500469
 30
0.0
  0
VERTEX
  5
48B
  8
LAYER_1
 10
-6.176318493850905
 20
47.58987973466131
 30
0.0
  0
VERTEX
  5
48C
  8
LAYER_1
 10
-6.194069135603909
 20
47.52529097415076
 30
0.0
  0
VERTEX
  5
48D
  8
LAYER_1
 10
-6.198695047751704
 20
47.46071376784531
 30
0.0
  0
VERTEX
  5
48E
  8
LAYER_1
 10
-6.190158540221439
 20
47.39756627790914
 30
0.0
  0
VERTEX
  5
48F
  8
LAYER_1
 10
-6.168788996407626
 20
47.33603445617597
 30
0.0
  0
VERTEX
  5
490
  8
LAYER_1
 10
-6.134888290617869
 20
47.27617120432613
 30
0.0
  0
VERTEX
  5
491
  8
LAYER_1
 10
-6.088758297159774
 20
47.21802942403993
 30
0.0
  0
VERTEX
  5
492
  8
LAYER_1
 10
-6.030700890340944
 20
47.16166201699772
 30
0.0
  0
VERTEX
  5
493
  8
LAYER_1
 10
-5.961017944468985
 20
47.10712188487982
 30
0.0
  0
VERTEX
  5
494
  8
LAYER_1
 10
-5.787982932796096
 20
47.00373505213823
 30
0.0
  0
VERTEX
  5
495
  8
LAYER_1
 10
-5.572068256601941
 20
46.90829213925781
 30
0.0
  0
VERTEX
  5
496
  8
LAYER_1
 10
-5.31568891034736
 20
46.82121635968115
 30
0.0
  0
VERTEX
  5
497
  8
LAYER_1
 10
-5.021259888493185
 20
46.74293092685089
 30
0.0
  0
VERTEX
  5
498
  8
LAYER_1
 10
-4.691196185500257
 20
46.67385905420961
 30
0.0
  0
VERTEX
  5
499
  8
LAYER_1
 10
-4.327912795829409
 20
46.61442395519995
 30
0.0
  0
VERTEX
  5
49A
  8
LAYER_1
 10
-3.933824713941478
 20
46.56504884326452
 30
0.0
  0
VERTEX
  5
49B
  8
LAYER_1
 10
-3.511346934297301
 20
46.52615693184595
 30
0.0
  0
VERTEX
  5
49C
  8
LAYER_1
 10
-3.062894451357715
 20
46.49817143438683
 30
0.0
  0
VERTEX
  5
49D
  8
LAYER_1
 10
-2.590882259583555
 20
46.4815155643298
 30
0.0
  0
VERTEX
  5
49E
  8
LAYER_1
 10
-2.097725353435659
 20
46.47661253511745
 30
0.0
  0
VERTEX
  5
49F
  8
LAYER_1
 10
-1.585838727374861
 20
46.48388556019242
 30
0.0
  0
SEQEND
  5
4A0
  8
LAYER_1
  0
POLYLINE
  5
6B
  8
LAYER_1
 66
     1
 10
0.0
 20
0.0
 30
0.0
 70
     1
  0
VERTEX
  5
4A1
  8
LAYER_1
 10
-1.057637375862
 20
-82.63274051978559
 30
0.0
  0
VERTEX
  5
4A2
  8
LAYER_1
 10
-0.7416085398108078
 20
-82.65710266354782
 30
0.0
  0
VERTEX
  5
4A3
  8
LAYER_1
 10
-0.4308086831565313
 20
-82.66115688839459
 30
0.0
  0
VERTEX
  5
4A4
  8
LAYER_1
 10
-0.1253987846612787
 20
-82.64555100256413
 30
0.0
  0
VERTEX
  5
4A5
  8
LAYER_1
 10
0.1744601769128417
 20
-82.61093281429464
 30
0.0
  0
VERTEX
  5
4A6
  8
LAYER_1
 10
0.4686072228037211
 20
-82.55795013182433
 30
0.0
  0
VERTEX
  5
4A7
  8
LAYER_1
 10
0.7568813742492511
 20
-82.48725076339137
 30
0.0
  0
VERTEX
  5
4A8
  8
LAYER_1
 10
1.039121652487323
 20
-82.39948251723399
 30
0.0
  0
VERTEX
  5
4A9
  8
LAYER_1
 10
1.315167078755829
 20
-82.2952932015904
 30
0.0
  0
VERTEX
  5
4AA
  8
LAYER_1
 10
1.584856674292659
 20
-82.1753306246988
 30
0.0
  0
VERTEX
  5
4AB
  8
LAYER_1
 10
1.848029460335706
 20
-82.04024259479738
 30
0.0
  0
VERTEX
  5
4AC
  8
LAYER_1
 10
2.104524458122861
 20
-81.89067692012432
 30
0.0
  0
VERTEX
  5
4AD
  8
LAYER_1
 10
2.354180688892016
 20
-81.72728140891789
 30
0.0
  0
VERTEX
  5
4AE
  8
LAYER_1
 10
2.596837173881061
 20
-81.55070386941625
 30
0.0
  0
VERTEX
  5
4AF
  8
LAYER_1
 10
2.832332934327888
 20
-81.3615921098576
 30
0.0
  0
VERTEX
  5
4B0
  8
LAYER_1
 10
3.06050699147039
 20
-81.16059393848016
 30
0.0
  0
VERTEX
  5
4B1
  8
LAYER_1
 10
3.281198366546456
 20
-80.94835716352212
 30
0.0
  0
VERTEX
  5
4B2
  8
LAYER_1
 10
3.494246080793979
 20
-80.72552959322168
 30
0.0
  0
VERTEX
  5
4B3
  8
LAYER_1
 10
3.699489155450851
 20
-80.49275903581707
 30
0.0
  0
VERTEX
  5
4B4
  8
LAYER_1
 10
3.896766611754962
 20
-80.25069329954647
 30
0.0
  0
VERTEX
  5
4B5
  8
LAYER_1
 10
4.085917470944205
 20
-79.9999801926481
 30
0.0
  0
VERTEX
  5
4B6
  8
LAYER_1
 10
4.26678075425647
 20
-79.74126752336014
 30
0.0
  0
VERTEX
  5
4B7
  8
LAYER_1
 10
4.439195482929648
 20
-79.4752030999208
 30
0.0
  0
VERTEX
  5
4B8
  8
LAYER_1
 10
4.603000678201633
 20
-79.20243473056829
 30
0.0
  0
VERTEX
  5
4B9
  8
LAYER_1
 10
4.758035361310315
 20
-78.92361022354082
 30
0.0
  0
VERTEX
  5
4BA
  8
LAYER_1
 10
4.904138553493585
 20
-78.63937738707659
 30
0.0
  0
VERTEX
  5
4BB
  8
LAYER_1
 10
5.041149275989335
 20
-78.35038402941377
 30
0.0
  0
VERTEX
  5
4BC
  8
LAYER_1
 10
5.168906550035456
 20
-78.05727795879062
 30
0.0
  0
VERTEX
  5
4BD
  8
LAYER_1
 10
5.28724939686984
 20
-77.76070698344529
 30
0.0
  0
VERTEX
  5
4BE
  8
LAYER_1
 10
5.396016837730379
 20
-77.46131891161602
 30
0.0
  0
VERTEX
  5
4BF
  8
LAYER_1
 10
5.495047893854964
 20
-77.159761551541
 30
0.0
  0
VERTEX
  5
4C0
  8
LAYER_1
 10
5.584181586481486
 20
-76.85668271145842
 30
0.0
  0
VERTEX
  5
4C1
  8
LAYER_1
 10
5.663256936847836
 20
-76.5527301996065
 30
0.0
 42
0.0838055845252827
  0
VERTEX
  5
4C2
  8
LAYER_1
 10
-1.057637375862
 20
-48.73612068551006
 30
0.0
 42
0.0838055845252827
  0
VERTEX
  5
4C3
  8
LAYER_1
 10
-7.778531688571836
 20
-76.5527301996065
 30
0.0
  0
VERTEX
  5
4C4
  8
LAYER_1
 10
-7.699456338205485
 20
-76.85668271145842
 30
0.0
  0
VERTEX
  5
4C5
  8
LAYER_1
 10
-7.610322645578964
 20
-77.159761551541
 30
0.0
  0
VERTEX
  5
4C6
  8
LAYER_1
 10
-7.511291589454379
 20
-77.46131891161602
 30
0.0
  0
VERTEX
  5
4C7
  8
LAYER_1
 10
-7.40252414859384
 20
-77.76070698344529
 30
0.0
  0
VERTEX
  5
4C8
  8
LAYER_1
 10
-7.284181301759456
 20
-78.05727795879062
 30
0.0
  0
VERTEX
  5
4C9
  8
LAYER_1
 10
-7.156424027713335
 20
-78.35038402941377
 30
0.0
  0
VERTEX
  5
4CA
  8
LAYER_1
 10
-7.019413305217585
 20
-78.63937738707659
 30
0.0
  0
VERTEX
  5
4CB
  8
LAYER_1
 10
-6.873310113034314
 20
-78.92361022354082
 30
0.0
  0
VERTEX
  5
4CC
  8
LAYER_1
 10
-6.718275429925633
 20
-79.20243473056829
 30
0.0
  0
VERTEX
  5
4CD
  8
LAYER_1
 10
-6.554470234653648
 20
-79.4752030999208
 30
0.0
  0
VERTEX
  5
4CE
  8
LAYER_1
 10
-6.382055505980469
 20
-79.74126752336014
 30
0.0
  0
VERTEX
  5
4CF
  8
LAYER_1
 10
-6.201192222668205
 20
-79.9999801926481
 30
0.0
  0
VERTEX
  5
4D0
  8
LAYER_1
 10
-6.012041363478962
 20
-80.25069329954647
 30
0.0
  0
VERTEX
  5
4D1
  8
LAYER_1
 10
-5.81476390717485
 20
-80.49275903581707
 30
0.0
  0
VERTEX
  5
4D2
  8
LAYER_1
 10
-5.609520832517978
 20
-80.72552959322168
 30
0.0
  0
VERTEX
  5
4D3
  8
LAYER_1
 10
-5.396473118270455
 20
-80.94835716352212
 30
0.0
  0
VERTEX
  5
4D4
  8
LAYER_1
 10
-5.175781743194388
 20
-81.16059393848016
 30
0.0
  0
VERTEX
  5
4D5
  8
LAYER_1
 10
-4.947607686051887
 20
-81.3615921098576
 30
0.0
  0
VERTEX
  5
4D6
  8
LAYER_1
 10
-4.71211192560506
 20
-81.55070386941625
 30
0.0
  0
VERTEX
  5
4D7
  8
LAYER_1
 10
-4.469455440616016
 20
-81.72728140891789
 30
0.0
  0
VERTEX
  5
4D8
  8
LAYER_1
 10
-4.219799209846862
 20
-81.89067692012432
 30
0.0
  0
VERTEX
  5
4D9
  8
LAYER_1
 10
-3.963304212059706
 20
-82.04024259479738
 30
0.0
  0
VERTEX
  5
4DA
  8
LAYER_1
 10
-3.700131426016659
 20
-82.1753306246988
 30
0.0
  0
VERTEX
  5
4DB
  8
LAYER_1
 10
-3.430441830479828
 20
-82.2952932015904
 30
0.0
  0
VERTEX
  5
4DC
  8
LAYER_1
 10
-3.154396404211322
 20
-82.39948251723399
 30
0.0
  0
VERTEX
  5
4DD
  8
LAYER_1
 10
-2.87215612597325
 20
-82.48725076339137
 30
0.0
  0
VERTEX
  5
4DE
  8
LAYER_1
 10
-2.583881974527721
 20
-82.55795013182433
 30
0.0
  0
VERTEX
  5
4DF
  8
LAYER_1
 10
-2.289734928636841
 20
-82.61093281429464
 30
0.0
  0
VERTEX
  5
4E0
  8
LAYER_1
 10
-1.989875967062721
 20
-82.64555100256413
 30
0.0
  0
VERTEX
  5
4E1
  8
LAYER_1
 10
-1.684466068567468
 20
-82.66115688839459
 30
0.0
  0
VERTEX
  5
4E2
  8
LAYER_1
 10
-1.373666211913191
 20
-82.65710266354782
 30
0.0
  0
SEQEND
  5
4E3
  8
LAYER_1
  0
POLYLINE
  5
6C
  8
LAYER_1
 66
     1
 10
0.0
 20
0.0
 30
0.0
 70
     1
  0
VERTEX
  5
4E4
  8
LAYER_1
 10
-1.057637375862
 20
-85.56361776219521
 30
0.0
  0
VERTEX
  5
4E5
  8
LAYER_1
 10
-0.6327712600672554
 20
-85.55804082753458
 30
0.0
  0
VERTEX
  5
4E6
  8
LAYER_1
 10
-0.2112300801525411
 20
-85.53331703652404
 30
0.0
  0
VERTEX
  5
4E7
  8
LAYER_1
 10
0.2064574412683644
 20
-85.48979553515424
 30
0.0
  0
VERTEX
  5
4E8
  8
LAYER_1
 10
0.619762581581682
 20
-85.4278254694159
 30
0.0
  0
VERTEX
  5
4E9
  8
LAYER_1
 10
1.028156618173633
 20
-85.34775598529967
 30
0.0
  0
VERTEX
  5
4EA
  8
LAYER_1
 10
1.431110828430438
 20
-85.24993622879626
 30
0.0
  0
VERTEX
  5
4EB
  8
LAYER_1
 10
1.828096489738318
 20
-85.13471534589632
 30
0.0
  0
VERTEX
  5
4EC
  8
LAYER_1
 10
2.218584879483494
 20
-85.00244248259061
 30
0.0
  0
VERTEX
  5
4ED
  8
LAYER_1
 10
2.602047275052188
 20
-84.85346678486977
 30
0.0
  0
VERTEX
  5
4EE
  8
LAYER_1
 10
2.97795495383062
 20
-84.68813739872446
 30
0.0
  0
VERTEX
  5
4EF
  8
LAYER_1
 10
3.345779193205012
 20
-84.50680347014541
 30
0.0
  0
VERTEX
  5
4F0
  8
LAYER_1
 10
3.704991270561584
 20
-84.30981414512328
 30
0.0
  0
VERTEX
  5
4F1
  8
LAYER_1
 10
4.055062463286559
 20
-84.09751856964877
 30
0.0
  0
VERTEX
  5
4F2
  8
LAYER_1
 10
4.395464048766154
 20
-83.87026588971256
 30
0.0
  0
VERTEX
  5
4F3
  8
LAYER_1
 10
4.725667304386596
 20
-83.62840525130534
 30
0.0
  0
VERTEX
  5
4F4
  8
LAYER_1
 10
5.0451435075341
 20
-83.37228580041779
 30
0.0
  0
VERTEX
  5
4F5
  8
LAYER_1
 10
5.353363935594889
 20
-83.1022566830406
 30
0.0
  0
VERTEX
  5
4F6
  8
LAYER_1
 10
5.649799865955186
 20
-82.81866704516443
 30
0.0
  0
VERTEX
  5
4F7
  8
LAYER_1
 10
5.933922576001212
 20
-82.52186603278001
 30
0.0
  0
VERTEX
  5
4F8
  8
LAYER_1
 10
6.205203343119186
 20
-82.21220279187801
 30
0.0
  0
VERTEX
  5
4F9
  8
LAYER_1
 10
6.463113444695329
 20
-81.89002646844911
 30
0.0
  0
VERTEX
  5
4FA
  8
LAYER_1
 10
6.707124158115864
 20
-81.55568620848399
 30
0.0
  0
VERTEX
  5
4FB
  8
LAYER_1
 10
6.936706760767009
 20
-81.20953115797333
 30
0.0
  0
VERTEX
  5
4FC
  8
LAYER_1
 10
7.151332530034988
 20
-80.85191046290785
 30
0.0
  0
VERTEX
  5
4FD
  8
LAYER_1
 10
7.350472743306022
 20
-80.48317326927821
 30
0.0
  0
VERTEX
  5
4FE
  8
LAYER_1
 10
7.533598677966331
 20
-80.10366872307509
 30
0.0
  0
VERTEX
  5
4FF
  8
LAYER_1
 10
7.700181611402135
 20
-79.71374597028918
 30
0.0
  0
VERTEX
  5
500
  8
LAYER_1
 10
7.849692820999657
 20
-79.31375415691119
 30
0.0
  0
VERTEX
  5
501
  8
LAYER_1
 10
7.981603584145116
 20
-78.90404242893179
 30
0.0
  0
VERTEX
  5
502
  8
LAYER_1
 10
8.095385178224735
 20
-78.48495993234164
 30
0.0
  0
VERTEX
  5
503
  8
LAYER_1
 10
8.190508880624735
 20
-78.05685581313145
 30
0.0
  0
VERTEX
  5
504
  8
LAYER_1
 10
8.266445968731336
 20
-77.62007921729192
 30
0.0
 42
0.2633603900707325
  0
VERTEX
  5
505
  8
LAYER_1
 10
15.58966422623665
 20
-67.71918704408307
 30
0.0
 42
0.2563309395429969
  0
VERTEX
  5
506
  8
LAYER_1
 10
21.42372226027603
 20
-55.72771588331775
 30
0.0
 42
0.2917789872155177
  0
VERTEX
  5
507
  8
LAYER_1
 10
25.66791567616444
 20
-44.90502883557423
 30
0.0
 42
0.485114425250944
  0
VERTEX
  5
508
  8
LAYER_1
 10
26.67439811681136
 20
-44.40196040566601
 30
0.0
 42
0.1479344307665112
  0
VERTEX
  5
509
  8
LAYER_1
 10
26.00242945343027
 20
-40.13648675140499
 30
0.0
 42
0.097404263750828
  0
VERTEX
  5
50A
  8
LAYER_1
 10
20.70660046084016
 20
-33.33876502154368
 30
0.0
 42
-0.0754379578369614
  0
VERTEX
  5
50B
  8
LAYER_1
 10
17.98710381061207
 20
-30.23650119601475
 30
0.0
  0
VERTEX
  5
50C
  8
LAYER_1
 10
17.55043670808537
 20
-29.66093878764943
 30
0.0
  0
VERTEX
  5
50D
  8
LAYER_1
 10
17.12370236569301
 20
-29.08313003861304
 30
0.0
  0
VERTEX
  5
50E
  8
LAYER_1
 10
16.70677330261572
 20
-28.50309942202753
 30
0.0
  0
VERTEX
  5
50F
  8
LAYER_1
 10
16.29952203803419
 20
-27.9208714110149
 30
0.0
  0
VERTEX
  5
510
  8
LAYER_1
 10
15.90182109112913
 20
-27.33647047869709
 30
0.0
  0
VERTEX
  5
511
  8
LAYER_1
 10
15.51354298108127
 20
-26.7499210981961
 30
0.0
  0
VERTEX
  5
512
  8
LAYER_1
 10
15.13456022707129
 20
-26.16124774263388
 30
0.0
  0
VERTEX
  5
513
  8
LAYER_1
 10
14.76474534827991
 20
-25.57047488513241
 30
0.0
  0
VERTEX
  5
514
  8
LAYER_1
 10
14.40397086388784
 20
-24.97762699881365
 30
0.0
  0
VERTEX
  5
515
  8
LAYER_1
 10
14.05210929307579
 20
-24.38272855679958
 30
0.0
  0
VERTEX
  5
516
  8
LAYER_1
 10
13.70903315502447
 20
-23.78580403221218
 30
0.0
  0
VERTEX
  5
517
  8
LAYER_1
 10
13.37461496891459
 20
-23.18687789817341
 30
0.0
  0
VERTEX
  5
518
  8
LAYER_1
 10
13.04872725392685
 20
-22.58597462780523
 30
0.0
  0
VERTEX
  5
519
  8
LAYER_1
 10
12.73124252924196
 20
-21.98311869422963
 30
0.0
  0
VERTEX
  5
51A
  8
LAYER_1
 10
12.42203331404063
 20
-21.37833457056857
 30
0.0
  0
VERTEX
  5
51B
  8
LAYER_1
 10
12.12097212750358
 20
-20.77164672994402
 30
0.0
  0
VERTEX
  5
51C
  8
LAYER_1
 10
11.8279314888115
 20
-20.16307964547796
 30
0.0
  0
VERTEX
  5
51D
  8
LAYER_1
 10
11.54278391714512
 20
-19.55265779029235
 30
0.0
  0
VERTEX
  5
51E
  8
LAYER_1
 10
11.26540193168513
 20
-18.94040563750917
 30
0.0
  0
VERTEX
  5
51F
  8
LAYER_1
 10
10.99565805161224
 20
-18.32634766025038
 30
0.0
  0
VERTEX
  5
520
  8
LAYER_1
 10
10.47857468435062
 20
-17.09291212479387
 30
0.0
  0
VERTEX
  5
521
  8
LAYER_1
 10
9.99051396880592
 20
-15.85254696889859
 30
0.0
  0
VERTEX
  5
522
  8
LAYER_1
 10
9.530456058423821
 20
-14.60544797754031
 30
0.0
  0
VERTEX
  5
523
  8
LAYER_1
 10
9.097381106649987
 20
-13.35181093569479
 30
0.0
  0
VERTEX
  5
524
  8
LAYER_1
 10
8.690269266930084
 20
-12.09183162833779
 30
0.0
  0
VERTEX
  5
525
  8
LAYER_1
 10
8.308100692709786
 20
-10.82570584044509
 30
0.0
  0
VERTEX
  5
526
  8
LAYER_1
 10
7.949855537434762
 20
-9.553629356992449
 30
0.0
  0
VERTEX
  5
527
  8
LAYER_1
 10
7.614513954550679
 20
-8.275797962955629
 30
0.0
  0
VERTEX
  5
528
  8
LAYER_1
 10
7.301056097503208
 20
-6.992407443310397
 30
0.0
  0
VERTEX
  5
529
  8
LAYER_1
 10
7.008462119738018
 20
-5.703653583032519
 30
0.0
  0
VERTEX
  5
52A
  8
LAYER_1
 10
6.73571217470078
 20
-4.409732167097761
 30
0.0
  0
VERTEX
  5
52B
  8
LAYER_1
 10
6.481786415837162
 20
-3.110838980481888
 30
0.0
  0
VERTEX
  5
52C
  8
LAYER_1
 10
6.245664996592834
 20
-1.807169808160665
 30
0.0
  0
VERTEX
  5
52D
  8
LAYER_1
 10
6.026328070413465
 20
-0.498920435109858
 30
0.0
  0
VERTEX
  5
52E
  8
LAYER_1
 10
5.822755790744725
 20
0.8137133536947683
 30
0.0
  0
VERTEX
  5
52F
  8
LAYER_1
 10
5.633928311032284
 20
2.130535773277448
 30
0.0
  0
VERTEX
  5
530
  8
LAYER_1
 10
5.458825784721809
 20
3.451351038662415
 30
0.0
  0
VERTEX
  5
531
  8
LAYER_1
 10
5.296428365258972
 20
4.775963364873905
 30
0.0
  0
VERTEX
  5
532
  8
LAYER_1
 10
5.145716206089442
 20
6.104176966936153
 30
0.0
  0
VERTEX
  5
533
  8
LAYER_1
 10
5.005669460658886
 20
7.435796059873391
 30
0.0
  0
VERTEX
  5
534
  8
LAYER_1
 10
4.875268282412978
 20
8.770624858709857
 30
0.0
  0
VERTEX
  5
535
  8
LAYER_1
 10
4.753492824797384
 20
10.10846757846978
 30
0.0
 42
-0.0673092859576381
  0
VERTEX
  5
536
  8
LAYER_1
 10
7.017487000550473
 20
3.951192358694557
 30
0.0
  0
VERTEX
  5
537
  8
LAYER_1
 10
7.160331590770967
 20
3.383739158891143
 30
0.0
  0
VERTEX
  5
538
  8
LAYER_1
 10
7.31403568955715
 20
2.807188906565434
 30
0.0
  0
VERTEX
  5
539
  8
LAYER_1
 10
7.478511179129926
 20
2.223015856027744
 30
0.0
  0
VERTEX
  5
53A
  8
LAYER_1
 10
7.653669941710206
 20
1.632694261588388
 30
0.0
  0
VERTEX
  5
53B
  8
LAYER_1
 10
7.839423859518893
 20
1.037698377557678
 30
0.0
  0
VERTEX
  5
53C
  8
LAYER_1
 10
8.035684814776896
 20
0.4395024582459305
 30
0.0
  0
VERTEX
  5
53D
  8
LAYER_1
 10
8.242364689705123
 20
-0.1604192420365421
 30
0.0
  0
VERTEX
  5
53E
  8
LAYER_1
 10
8.45937536652448
 20
-0.7605924689794255
 30
0.0
  0
VERTEX
  5
53F
  8
LAYER_1
 10
8.686628727455874
 20
-1.359542968272405
 30
0.0
  0
VERTEX
  5
540
  8
LAYER_1
 10
8.924036654720213
 20
-1.955796485605168
 30
0.0
  0
VERTEX
  5
541
  8
LAYER_1
 10
9.171511030538404
 20
-2.5478787666674
 30
0.0
  0
VERTEX
  5
542
  8
LAYER_1
 10
9.428963737131355
 20
-3.134315557148786
 30
0.0
  0
VERTEX
  5
543
  8
LAYER_1
 10
9.69630665671997
 20
-3.713632602739012
 30
0.0
  0
VERTEX
  5
544
  8
LAYER_1
 10
9.97345167152516
 20
-4.284355649127765
 30
0.0
  0
VERTEX
  5
545
  8
LAYER_1
 10
10.26031066376783
 20
-4.845010442004732
 30
0.0
  0
VERTEX
  5
546
  8
LAYER_1
 10
10.55679551566888
 20
-5.394122727059595
 30
0.0
  0
VERTEX
  5
547
  8
LAYER_1
 10
10.86281810944924
 20
-5.930218249982044
 30
0.0
  0
VERTEX
  5
548
  8
LAYER_1
 10
11.17829032732979
 20
-6.451822756461764
 30
0.0
  0
VERTEX
  5
549
  8
LAYER_1
 10
11.50312405153145
 20
-6.95746199218844
 30
0.0
  0
VERTEX
  5
54A
  8
LAYER_1
 10
11.83723116427513
 20
-7.445661702851759
 30
0.0
  0
VERTEX
  5
54B
  8
LAYER_1
 10
12.18052354778172
 20
-7.914947634141406
 30
0.0
  0
VERTEX
  5
54C
  8
LAYER_1
 10
12.53291308427216
 20
-8.363845531747067
 30
0.0
  0
VERTEX
  5
54D
  8
LAYER_1
 10
12.89431165596732
 20
-8.79088114135843
 30
0.0
  0
VERTEX
  5
54E
  8
LAYER_1
 10
13.26463114508813
 20
-9.19458020866518
 30
0.0
  0
VERTEX
  5
54F
  8
LAYER_1
 10
13.6437834338555
 20
-9.573468479356999
 30
0.0
  0
VERTEX
  5
550
  8
LAYER_1
 10
14.03168040449032
 20
-9.926071699123579
 30
0.0
  0
VERTEX
  5
551
  8
LAYER_1
 10
14.4282339392135
 20
-10.25091561365461
 30
0.0
  0
VERTEX
  5
552
  8
LAYER_1
 10
14.83335592024596
 20
-10.54652596863976
 30
0.0
  0
VERTEX
  5
553
  8
LAYER_1
 10
15.0391025413222
 20
-10.68290785683066
 30
0.0
  0
VERTEX
  5
554
  8
LAYER_1
 10
15.2469582298086
 20
-10.81142850976873
 30
0.0
  0
VERTEX
  5
555
  8
LAYER_1
 10
15.45691197098277
 20
-10.93190364566517
 30
0.0
  0
VERTEX
  5
556
  8
LAYER_1
 10
15.66895275012233
 20
-11.0441489827312
 30
0.0
  0
VERTEX
  5
557
  8
LAYER_1
 10
15.88306955250489
 20
-11.14798023917803
 30
0.0
  0
VERTEX
  5
558
  8
LAYER_1
 10
16.09925136340805
 20
-11.24321313321686
 30
0.0
  0
VERTEX
  5
559
  8
LAYER_1
 10
16.31748716810944
 20
-11.32966338305892
 30
0.0
  0
VERTEX
  5
55A
  8
LAYER_1
 10
16.53776595188667
 20
-11.4071467069154
 30
0.0
 42
0.7872269547423031
  0
VERTEX
  5
55B
  8
LAYER_1
 10
18.24290729511025
 20
-9.718560134014378
 30
0.0
 42
0.0193925471855832
  0
VERTEX
  5
55C
  8
LAYER_1
 10
16.2645152409571
 20
-7.060290822883776
 30
0.0
 42
-0.0987228987228985
  0
VERTEX
  5
55D
  8
LAYER_1
 10
11.31344257368786
 20
9.561167417234396
 30
0.0
 42
0.0559935426846408
  0
VERTEX
  5
55E
  8
LAYER_1
 10
7.296977993272098
 20
22.35641464861549
 30
0.0
 42
-0.810386825365678
  0
VERTEX
  5
55F
  8
LAYER_1
 10
7.763748350997216
 20
23.1924808764065
 30
0.0
 42
0.0941374577580932
  0
VERTEX
  5
560
  8
LAYER_1
 10
16.20668121550233
 20
23.14281656543883
 30
0.0
 42
-0.0420221756935238
  0
VERTEX
  5
561
  8
LAYER_1
 10
21.30270512370133
 20
24.10428658557869
 30
0.0
 42
-0.247129533678757
  0
VERTEX
  5
562
  8
LAYER_1
 10
27.34519629143538
 20
21.91077951783962
 30
0.0
 42
-0.1952562566441968
  0
VERTEX
  5
563
  8
LAYER_1
 10
28.1721070690472
 20
19.62622121332647
 30
0.0
 42
-0.4527810650887577
  0
VERTEX
  5
564
  8
LAYER_1
 10
26.11931554904989
 20
17.8383060184901
 30
0.0
 42
0.1001772510247003
  0
VERTEX
  5
565
  8
LAYER_1
 10
23.92663621982694
 20
17.40995133639388
 30
0.0
 42
0.5005259726848169
  0
VERTEX
  5
566
  8
LAYER_1
 10
19.73706757844475
 20
5.739957302454858
 30
0.0
 42
0.7153402935363501
  0
VERTEX
  5
567
  8
LAYER_1
 10
29.75162247099012
 20
-9.97803121818603
 30
0.0
 42
0.3364795153006794
  0
VERTEX
  5
568
  8
LAYER_1
 10
38.56508407804666
 20
-13.95579214989376
 30
0.0
 42
0.6581904108544856
  0
VERTEX
  5
569
  8
LAYER_1
 10
58.83821101602426
 20
-13.27678789838255
 30
0.0
  0
VERTEX
  5
56A
  8
LAYER_1
 10
58.9284907091638
 20
-13.01764048483346
 30
0.0
  0
VERTEX
  5
56B
  8
LAYER_1
 10
59.00726744296833
 20
-12.75576905408714
 30
0.0
  0
VERTEX
  5
56C
  8
LAYER_1
 10
59.07454285904076
 20
-12.49154574616727
 30
0.0
  0
VERTEX
  5
56D
  8
LAYER_1
 10
59.13031859898398
 20
-12.22534270109751
 30
0.0
  0
VERTEX
  5
56E
  8
LAYER_1
 10
59.17459630440086
 20
-11.95753205890157
 30
0.0
  0
VERTEX
  5
56F
  8
LAYER_1
 10
59.20737761689433
 20
-11.68848595960309
 30
0.0
  0
VERTEX
  5
570
  8
LAYER_1
 10
59.22866417806726
 20
-11.41857654322578
 30
0.0
  0
VERTEX
  5
571
  8
LAYER_1
 10
59.23845762952255
 20
-11.1481759497933
 30
0.0
  0
VERTEX
  5
572
  8
LAYER_1
 10
59.23675961286308
 20
-10.87765631932933
 30
0.0
  0
VERTEX
  5
573
  8
LAYER_1
 10
59.22357176969174
 20
-10.60738979185756
 30
0.0
  0
VERTEX
  5
574
  8
LAYER_1
 10
59.19889574161145
 20
-10.33774850740165
 30
0.0
  0
VERTEX
  5
575
  8
LAYER_1
 10
59.16273317022507
 20
-10.06910460598529
 30
0.0
  0
VERTEX
  5
576
  8
LAYER_1
 10
59.11508569713551
 20
-9.801830227632152
 30
0.0
  0
VERTEX
  5
577
  8
LAYER_1
 10
59.05595496394566
 20
-9.536297512365916
 30
0.0
  0
VERTEX
  5
578
  8
LAYER_1
 10
58.98534261225841
 20
-9.272878600210262
 30
0.0
  0
VERTEX
  5
579
  8
LAYER_1
 10
58.90325028367664
 20
-9.011945631188865
 30
0.0
  0
VERTEX
  5
57A
  8
LAYER_1
 10
58.83969542430383
 20
-8.861181134784426
 30
0.0
  0
VERTEX
  5
57B
  8
LAYER_1
 10
58.75246156626201
 20
-8.712021696025342
 30
0.0
  0
VERTEX
  5
57C
  8
LAYER_1
 10
58.64502239430408
 20
-8.570936622221879
 30
0.0
  0
VERTEX
  5
57D
  8
LAYER_1
 10
58.52085159318291
 20
-8.444395220684294
 30
0.0
  0
VERTEX
  5
57E
  8
LAYER_1
 10
58.38342284765139
 20
-8.338866798722847
 30
0.0
  0
VERTEX
  5
57F
  8
LAYER_1
 10
58.31082227221703
 20
-8.296004113617633
 30
0.0
  0
VERTEX
  5
580
  8
LAYER_1
 10
58.23620984246241
 20
-8.260820663647799
 30
0.0
  0
VERTEX
  5
581
  8
LAYER_1
 10
58.16001976898164
 20
-8.23412511222713
 30
0.0
  0
VERTEX
  5
582
  8
LAYER_1
 10
58.08268626236882
 20
-8.216726122769407
 30
0.0
  0
VERTEX
  5
583
  8
LAYER_1
 10
58.00464353321809
 20
-8.209432358688415
 30
0.0
  0
VERTEX
  5
584
  8
LAYER_1
 10
57.92632579212354
 20
-8.213052483397936
 30
0.0
  0
VERTEX
  5
585
  8
LAYER_1
 10
57.74791559420592
 20
-8.248144443649753
 30
0.0
  0
VERTEX
  5
586
  8
LAYER_1
 10
57.57902286061914
 20
-8.308671531623311
 30
0.0
  0
VERTEX
  5
587
  8
LAYER_1
 10
57.42206335465443
 20
-8.392807717845379
 30
0.0
  0
VERTEX
  5
588
  8
LAYER_1
 10
57.27945283960305
 20
-8.498726972842721
 30
0.0
  0
VERTEX
  5
589
  8
LAYER_1
 10
57.15360707875625
 20
-8.624603267142108
 30
0.0
  0
VERTEX
  5
58A
  8
LAYER_1
 10
57.04694183540529
 20
-8.768610571270305
 30
0.0
  0
VERTEX
  5
58B
  8
LAYER_1
 10
56.96187287284143
 20
-8.928922855754081
 30
0.0
  0
VERTEX
  5
58C
  8
LAYER_1
 10
56.90081595435591
 20
-9.103714091120205
 30
0.0
 42
-0.4686961870432083
  0
VERTEX
  5
58D
  8
LAYER_1
 10
51.77142383722551
 20
-10.77083119625916
 30
0.0
  0
VERTEX
  5
58E
  8
LAYER_1
 10
51.58235892528223
 20
-10.66227712916834
 30
0.0
  0
VERTEX
  5
58F
  8
LAYER_1
 10
51.39924192578751
 20
-10.54772900179467
 30
0.0
  0
VERTEX
  5
590
  8
LAYER_1
 10
51.22199966011716
 20
-10.42732200931195
 30
0.0
  0
VERTEX
  5
591
  8
LAYER_1
 10
51.05055894964703
 20
-10.30119134689398
 30
0.0
  0
VERTEX
  5
592
  8
LAYER_1
 10
50.88484661575292
 20
-10.16947220971456
 30
0.0
  0
VERTEX
  5
593
  8
LAYER_1
 10
50.72478947981067
 20
-10.03229979294749
 30
0.0
  0
VERTEX
  5
594
  8
LAYER_1
 10
50.57031436319612
 20
-9.889809291766554
 30
0.0
  0
VERTEX
  5
595
  8
LAYER_1
 10
50.42134808728508
 20
-9.742135901345563
 30
0.0
  0
VERTEX
  5
596
  8
LAYER_1
 10
50.13964934307685
 20
-9.431781233478592
 30
0.0
  0
VERTEX
  5
597
  8
LAYER_1
 10
49.87910781819261
 20
-9.102317350736953
 30
0.0
  0
VERTEX
  5
598
  8
LAYER_1
 10
49.63913808363897
 20
-8.754825814511031
 30
0.0
  0
VERTEX
  5
599
  8
LAYER_1
 10
49.41915471042255
 20
-8.390388186191206
 30
0.0
  0
VERTEX
  5
59A
  8
LAYER_1
 10
49.21857226954998
 20
-8.010086027167858
 30
0.0
  0
VERTEX
  5
59B
  8
LAYER_1
 10
49.03680533202787
 20
-7.615000898831372
 30
0.0
  0
VERTEX
  5
59C
  8
LAYER_1
 10
48.87326846886283
 20
-7.206214362572126
 30
0.0
  0
VERTEX
  5
59D
  8
LAYER_1
 10
48.72737625106149
 20
-6.784807979780501
 30
0.0
  0
VERTEX
  5
59E
  8
LAYER_1
 10
48.59854324963046
 20
-6.35186331184688
 30
0.0
  0
VERTEX
  5
59F
  8
LAYER_1
 10
48.48618403557637
 20
-5.908461920161644
 30
0.0
  0
VERTEX
  5
5A0
  8
LAYER_1
 10
48.38971317990583
 20
-5.455685366115173
 30
0.0
  0
VERTEX
  5
5A1
  8
LAYER_1
 10
48.30854525362545
 20
-4.99461521109785
 30
0.0
  0
VERTEX
  5
5A2
  8
LAYER_1
 10
48.24209482774187
 20
-4.526333016500056
 30
0.0
  0
VERTEX
  5
5A3
  8
LAYER_1
 10
48.18977647326169
 20
-4.051920343712172
 30
0.0
  0
VERTEX
  5
5A4
  8
LAYER_1
 10
48.15100476119154
 20
-3.572458754124579
 30
0.0
  0
VERTEX
  5
5A5
  8
LAYER_1
 10
48.12519426253802
 20
-3.089029809127659
 30
0.0
  0
VERTEX
  5
5A6
  8
LAYER_1
 10
48.11175954830777
 20
-2.602715070111794
 30
0.0
  0
VERTEX
  5
5A7
  8
LAYER_1
 10
48.1101151895074
 20
-2.114596098467363
 30
0.0
  0
VERTEX
  5
5A8
  8
LAYER_1
 10
48.11967575714352
 20
-1.625754455584749
 30
0.0
  0
VERTEX
  5
5A9
  8
LAYER_1
 10
48.13985582222276
 20
-1.137271702854334
 30
0.0
  0
VERTEX
  5
5AA
  8
LAYER_1
 10
48.17006995575173
 20
-0.6502294016664976
 30
0.0
  0
VERTEX
  5
5AB
  8
LAYER_1
 10
48.20973272873705
 20
-0.1657091134116224
 30
0.0
  0
VERTEX
  5
5AC
  8
LAYER_1
 10
48.25825871218535
 20
0.3152076005199107
 30
0.0
  0
VERTEX
  5
5AD
  8
LAYER_1
 10
48.31506247710324
 20
0.7914391787377203
 30
0.0
  0
VERTEX
  5
5AE
  8
LAYER_1
 10
48.37955859449734
 20
1.261904059851425
 30
0.0
  0
VERTEX
  5
5AF
  8
LAYER_1
 10
48.45116163537426
 20
1.725520682470644
 30
0.0
  0
VERTEX
  5
5B0
  8
LAYER_1
 10
48.61334677160303
 20
2.627882906664097
 30
0.0
 42
-0.123014485415215
  0
VERTEX
  5
5B1
  8
LAYER_1
 10
52.85973031381018
 20
13.34350953101622
 30
0.0
 42
0.1528068543261979
  0
VERTEX
  5
5B2
  8
LAYER_1
 10
55.58081179992228
 20
31.23960151441854
 30
0.0
  0
VERTEX
  5
5B3
  8
LAYER_1
 10
55.49170688171602
 20
32.20233075203626
 30
0.0
  0
VERTEX
  5
5B4
  8
LAYER_1
 10
55.38652671551475
 20
33.14996615233356
 30
0.0
  0
VERTEX
  5
5B5
  8
LAYER_1
 10
55.26500138027409
 20
34.08251522773486
 30
0.0
  0
VERTEX
  5
5B6
  8
LAYER_1
 10
55.12686095494969
 20
34.99998549066454
 30
0.0
  0
VERTEX
  5
5B7
  8
LAYER_1
 10
54.97183551849717
 20
35.90238445354703
 30
0.0
  0
VERTEX
  5
5B8
  8
LAYER_1
 10
54.79965514987217
 20
36.78971962880672
 30
0.0
  0
VERTEX
  5
5B9
  8
LAYER_1
 10
54.61004992803032
 20
37.66199852886802
 30
0.0
  0
VERTEX
  5
5BA
  8
LAYER_1
 10
54.40274993192725
 20
38.51922866615534
 30
0.0
  0
VERTEX
  5
5BB
  8
LAYER_1
 10
54.1774852405186
 20
39.36141755309308
 30
0.0
  0
VERTEX
  5
5BC
  8
LAYER_1
 10
53.93398593275999
 20
40.18857270210565
 30
0.0
  0
VERTEX
  5
5BD
  8
LAYER_1
 10
53.67198208760706
 20
41.00070162561744
 30
0.0
  0
VERTEX
  5
5BE
  8
LAYER_1
 10
53.39120378401545
 20
41.79781183605289
 30
0.0
  0
VERTEX
  5
5BF
  8
LAYER_1
 10
53.09138110094078
 20
42.57991084583638
 30
0.0
  0
VERTEX
  5
5C0
  8
LAYER_1
 10
52.77224411733868
 20
43.34700616739232
 30
0.0
  0
VERTEX
  5
5C1
  8
LAYER_1
 10
52.43352291216479
 20
44.09910531314512
 30
0.0
  0
VERTEX
  5
5C2
  8
LAYER_1
 10
52.07494756437475
 20
44.83621579551919
 30
0.0
  0
VERTEX
  5
5C3
  8
LAYER_1
 10
51.69624815292418
 20
45.55834512693894
 30
0.0
  0
VERTEX
  5
5C4
  8
LAYER_1
 10
51.29715475676872
 20
46.26550081982876
 30
0.0
  0
VERTEX
  5
5C5
  8
LAYER_1
 10
50.877397454864
 20
46.95769038661306
 30
0.0
  0
VERTEX
  5
5C6
  8
LAYER_1
 10
50.43670632616564
 20
47.63492133971625
 30
0.0
  0
VERTEX
  5
5C7
  8
LAYER_1
 10
49.9748114496293
 20
48.29720119156273
 30
0.0
  0
VERTEX
  5
5C8
  8
LAYER_1
 10
49.49144290421059
 20
48.94453745457693
 30
0.0
  0
VERTEX
  5
5C9
  8
LAYER_1
 10
48.98633076886514
 20
49.57693764118323
 30
0.0
  0
VERTEX
  5
5CA
  8
LAYER_1
 10
48.4592051225486
 20
50.19440926380604
 30
0.0
  0
VERTEX
  5
5CB
  8
LAYER_1
 10
47.90979604421658
 20
50.79695983486977
 30
0.0
  0
VERTEX
  5
5CC
  8
LAYER_1
 10
47.33783361282475
 20
51.38459686679883
 30
0.0
  0
VERTEX
  5
5CD
  8
LAYER_1
 10
46.7430479073287
 20
51.95732787201762
 30
0.0
  0
VERTEX
  5
5CE
  8
LAYER_1
 10
46.12516900668408
 20
52.51516036295055
 30
0.0
  0
VERTEX
  5
5CF
  8
LAYER_1
 10
45.48392698984654
 20
53.05810185202203
 30
0.0
  0
VERTEX
  5
5D0
  8
LAYER_1
 10
44.81905193577168
 20
53.58615985165645
 30
0.0
  0
VERTEX
  5
5D1
  8
LAYER_1
 10
44.13027392341515
 20
54.09934187427824
 30
0.0
  0
VERTEX
  5
5D2
  8
LAYER_1
 10
43.41732303173259
 20
54.59765543231179
 30
0.0
  0
VERTEX
  5
5D3
  8
LAYER_1
 10
43.39278602148562
 20
54.94998788694241
 30
0.0
  0
VERTEX
  5
5D4
  8
LAYER_1
 10
43.377044893586
 20
55.30330786527385
 30
0.0
  0
VERTEX
  5
5D5
  8
LAYER_1
 10
43.37000760287152
 20
55.65730671631066
 30
0.0
  0
VERTEX
  5
5D6
  8
LAYER_1
 10
43.37158210418001
 20
56.01167578905739
 30
0.0
  0
VERTEX
  5
5D7
  8
LAYER_1
 10
43.38167635234923
 20
56.36610643251859
 30
0.0
  0
VERTEX
  5
5D8
  8
LAYER_1
 10
43.40019830221701
 20
56.72028999569882
 30
0.0
  0
VERTEX
  5
5D9
  8
LAYER_1
 10
43.42705590862114
 20
57.07391782760261
 30
0.0
  0
VERTEX
  5
5DA
  8
LAYER_1
 10
43.4621571263994
 20
57.42668127723452
 30
0.0
  0
VERTEX
  5
5DB
  8
LAYER_1
 10
43.50540991038962
 20
57.7782716935991
 30
0.0
  0
VERTEX
  5
5DC
  8
LAYER_1
 10
43.55672221542957
 20
58.12838042570091
 30
0.0
  0
VERTEX
  5
5DD
  8
LAYER_1
 10
43.61600199635707
 20
58.47669882254448
 30
0.0
  0
VERTEX
  5
5DE
  8
LAYER_1
 10
43.68315720800991
 20
58.82291823313437
 30
0.0
  0
VERTEX
  5
5DF
  8
LAYER_1
 10
43.75809580522589
 20
59.16673000647513
 30
0.0
  0
VERTEX
  5
5E0
  8
LAYER_1
 10
43.84072574284281
 20
59.50782549157132
 30
0.0
  0
VERTEX
  5
5E1
  8
LAYER_1
 10
43.93095497569846
 20
59.84589603742747
 30
0.0
  0
VERTEX
  5
5E2
  8
LAYER_1
 10
44.02869145863065
 20
60.18063299304814
 30
0.0
  0
VERTEX
  5
5E3
  8
LAYER_1
 10
44.13384314647717
 20
60.51172770743788
 30
0.0
  0
VERTEX
  5
5E4
  8
LAYER_1
 10
44.24631799407582
 20
60.83887152960124
 30
0.0
  0
VERTEX
  5
5E5
  8
LAYER_1
 10
44.36602395626441
 20
61.16175580854276
 30
0.0
  0
VERTEX
  5
5E6
  8
LAYER_1
 10
44.49286898788074
 20
61.48007189326701
 30
0.0
  0
VERTEX
  5
5E7
  8
LAYER_1
 10
44.62676104376258
 20
61.79351113277853
 30
0.0
  0
VERTEX
  5
5E8
  8
LAYER_1
 10
44.76760807874777
 20
62.10176487608187
 30
0.0
  0
VERTEX
  5
5E9
  8
LAYER_1
 10
44.91531804767409
 20
62.40452447218157
 30
0.0
  0
VERTEX
  5
5EA
  8
LAYER_1
 10
45.06979890537933
 20
62.7014812700822
 30
0.0
  0
VERTEX
  5
5EB
  8
LAYER_1
 10
45.23095860670129
 20
62.99232661878829
 30
0.0
  0
VERTEX
  5
5EC
  8
LAYER_1
 10
45.39870510647778
 20
63.2767518673044
 30
0.0
  0
VERTEX
  5
5ED
  8
LAYER_1
 10
45.57294635954659
 20
63.55444836463508
 30
0.0
  0
VERTEX
  5
5EE
  8
LAYER_1
 10
45.75359032074552
 20
63.82510745978487
 30
0.0
  0
VERTEX
  5
5EF
  8
LAYER_1
 10
45.94054494491238
 20
64.08842050175835
 30
0.0
  0
VERTEX
  5
5F0
  8
LAYER_1
 10
46.13371818688496
 20
64.34407883956004
 30
0.0
  0
VERTEX
  5
5F1
  8
LAYER_1
 10
46.33301800150105
 20
64.59177382219448
 30
0.0
  0
VERTEX
  5
5F2
  8
LAYER_1
 10
46.53835234359846
 20
64.83119679866626
 30
0.0
  0
VERTEX
  5
5F3
  8
LAYER_1
 10
46.74962916801499
 20
65.06203911797991
 30
0.0
  0
VERTEX
  5
5F4
  8
LAYER_1
 10
46.96675642958844
 20
65.28399212913996
 30
0.0
  0
VERTEX
  5
5F5
  8
LAYER_1
 10
47.1896420831566
 20
65.49674718115098
 30
0.0
  0
VERTEX
  5
5F6
  8
LAYER_1
 10
47.41819408355727
 20
65.69999562301753
 30
0.0
  0
VERTEX
  5
5F7
  8
LAYER_1
 10
47.65232038562825
 20
65.89342880374414
 30
0.0
  0
VERTEX
  5
5F8
  8
LAYER_1
 10
47.89192894420734
 20
66.07673807233537
 30
0.0
  0
VERTEX
  5
5F9
  8
LAYER_1
 10
48.13692771413234
 20
66.24961477779576
 30
0.0
  0
VERTEX
  5
5FA
  8
LAYER_1
 10
48.38722465024106
 20
66.41175026912988
 30
0.0
  0
VERTEX
  5
5FB
  8
LAYER_1
 10
48.64272770737128
 20
66.56283589534229
 30
0.0
  0
VERTEX
  5
5FC
  8
LAYER_1
 10
48.90334484036081
 20
66.70256300543748
 30
0.0
  0
VERTEX
  5
5FD
  8
LAYER_1
 10
49.16898400404744
 20
66.83062294842004
 30
0.0
  0
VERTEX
  5
5FE
  8
LAYER_1
 10
49.43955315326897
 20
66.94670707329453
 30
0.0
  0
VERTEX
  5
5FF
  8
LAYER_1
 10
49.7149602428632
 20
67.05050672906549
 30
0.0
  0
VERTEX
  5
600
  8
LAYER_1
 10
49.99511322766794
 20
67.14171326473748
 30
0.0
  0
VERTEX
  5
601
  8
LAYER_1
 10
50.27992006252099
 20
67.22001802931501
 30
0.0
  0
VERTEX
  5
602
  8
LAYER_1
 10
50.56928870226012
 20
67.28511237180267
 30
0.0
  0
VERTEX
  5
603
  8
LAYER_1
 10
50.86312710172316
 20
67.33668764120499
 30
0.0
  0
VERTEX
  5
604
  8
LAYER_1
 10
51.16134321574789
 20
67.37443518652654
 30
0.0
  0
VERTEX
  5
605
  8
LAYER_1
 10
51.46384499917212
 20
67.39804635677186
 30
0.0
  0
VERTEX
  5
606
  8
LAYER_1
 10
51.77054040683365
 20
67.40721250094549
 30
0.0
  0
VERTEX
  5
607
  8
LAYER_1
 10
52.08133739357027
 20
67.40162496805199
 30
0.0
  0
VERTEX
  5
608
  8
LAYER_1
 10
52.39614391421978
 20
67.3809751070959
 30
0.0
  0
VERTEX
  5
609
  8
LAYER_1
 10
52.71486792361998
 20
67.34495426708179
 30
0.0
  0
VERTEX
  5
60A
  8
LAYER_1
 10
53.03741737660867
 20
67.29325379701419
 30
0.0
  0
VERTEX
  5
60B
  8
LAYER_1
 10
53.36370022802365
 20
67.22556504589764
 30
0.0
  0
VERTEX
  5
60C
  8
LAYER_1
 10
53.69362443270272
 20
67.14157936273673
 30
0.0
  0
VERTEX
  5
60D
  8
LAYER_1
 10
54.02709794548367
 20
67.04098809653598
 30
0.0
  0
VERTEX
  5
60E
  8
LAYER_1
 10
54.36402872120432
 20
66.92348259629995
 30
0.0
  0
VERTEX
  5
60F
  8
LAYER_1
 10
54.70432471470245
 20
66.78875421103318
 30
0.0
  0
VERTEX
  5
610
  8
LAYER_1
 10
55.04789388081586
 20
66.63649428974023
 30
0.0
  0
VERTEX
  5
611
  8
LAYER_1
 10
55.39464417438235
 20
66.46639418142564
 30
0.0
  0
VERTEX
  5
612
  8
LAYER_1
 10
55.74448355023972
 20
66.27814523509397
 30
0.0
 42
-0.5271461314559406
  0
VERTEX
  5
613
  8
LAYER_1
 10
54.67763672629446
 20
53.03151052739926
 30
0.0
 42
0.6916905798687927
  0
VERTEX
  5
614
  8
LAYER_1
 10
54.69424943831315
 20
51.86761912248658
 30
0.0
 42
0.2980495066881649
  0
VERTEX
  5
615
  8
LAYER_1
 10
62.43093704740715
 20
53.40373690738755
 30
0.0
  0
VERTEX
  5
616
  8
LAYER_1
 10
62.83705885498553
 20
53.8938652852413
 30
0.0
  0
VERTEX
  5
617
  8
LAYER_1
 10
63.2221787230206
 20
54.39516387958967
 30
0.0
  0
VERTEX
  5
618
  8
LAYER_1
 10
63.58621634572476
 20
54.90701875267465
 30
0.0
  0
VERTEX
  5
619
  8
LAYER_1
 10
63.9290914173104
 20
55.42881596673823
 30
0.0
  0
VERTEX
  5
61A
  8
LAYER_1
 10
64.25072363198987
 20
55.95994158402242
 30
0.0
  0
VERTEX
  5
61B
  8
LAYER_1
 10
64.55103268397559
 20
56.4997816667692
 30
0.0
  0
VERTEX
  5
61C
  8
LAYER_1
 10
64.82993826747993
 20
57.04772227722057
 30
0.0
  0
VERTEX
  5
61D
  8
LAYER_1
 10
65.08736007671526
 20
57.60314947761853
 30
0.0
  0
VERTEX
  5
61E
  8
LAYER_1
 10
65.32321780589399
 20
58.16544933020506
 30
0.0
  0
VERTEX
  5
61F
  8
LAYER_1
 10
65.5374311492285
 20
58.73400789722218
 30
0.0
  0
VERTEX
  5
620
  8
LAYER_1
 10
65.72991980093117
 20
59.30821124091186
 30
0.0
  0
VERTEX
  5
621
  8
LAYER_1
 10
65.9006034552144
 20
59.88744542351611
 30
0.0
  0
VERTEX
  5
622
  8
LAYER_1
 10
66.04940180629055
 20
60.47109650727691
 30
0.0
  0
VERTEX
  5
623
  8
LAYER_1
 10
66.17623454837201
 20
61.05855055443627
 30
0.0
  0
VERTEX
  5
624
  8
LAYER_1
 10
66.28102137567117
 20
61.64919362723617
 30
0.0
  0
VERTEX
  5
625
  8
LAYER_1
 10
66.36368198240041
 20
62.24241178791863
 30
0.0
  0
VERTEX
  5
626
  8
LAYER_1
 10
66.42413606277212
 20
62.83759109872561
 30
0.0
  0
VERTEX
  5
627
  8
LAYER_1
 10
66.46230331099869
 20
63.43411762189913
 30
0.0
  0
VERTEX
  5
628
  8
LAYER_1
 10
66.47810342129253
 20
64.03137741968118
 30
0.0
  0
VERTEX
  5
629
  8
LAYER_1
 10
66.47145608786597
 20
64.62875655431375
 30
0.0
  0
VERTEX
  5
62A
  8
LAYER_1
 10
66.44228100493144
 20
65.22564108803886
 30
0.0
  0
VERTEX
  5
62B
  8
LAYER_1
 10
66.39049786670131
 20
65.82141708309845
 30
0.0
  0
VERTEX
  5
62C
  8
LAYER_1
 10
66.31602636738793
 20
66.41547060173457
 30
0.0
  0
VERTEX
  5
62D
  8
LAYER_1
 10
66.21878620120376
 20
67.00718770618917
 30
0.0
  0
VERTEX
  5
62E
  8
LAYER_1
 10
66.09869706236111
 20
67.59595445870427
 30
0.0
  0
VERTEX
  5
62F
  8
LAYER_1
 10
65.95567864507241
 20
68.18115692152186
 30
0.0
  0
VERTEX
  5
630
  8
LAYER_1
 10
65.78965064355003
 20
68.76218115688394
 30
0.0
  0
VERTEX
  5
631
  8
LAYER_1
 10
65.60053275200636
 20
69.3384132270325
 30
0.0
  0
VERTEX
  5
632
  8
LAYER_1
 10
65.38824466465378
 20
69.90923919420953
 30
0.0
  0
VERTEX
  5
633
  8
LAYER_1
 10
65.15270607570469
 20
70.47404512065705
 30
0.0
  0
VERTEX
  5
634
  8
LAYER_1
 10
64.89383667937143
 20
71.03221706861703
 30
0.0
  0
VERTEX
  5
635
  8
LAYER_1
 10
64.61155616986643
 20
71.58314110033146
 30
0.0
 42
0.2719705126714217
  0
VERTEX
  5
636
  8
LAYER_1
 10
51.80863009102483
 20
80.95423021258387
 30
0.0
 42
0.3649180010846277
  0
VERTEX
  5
637
  8
LAYER_1
 10
41.59185358645748
 20
84.06093979824111
 30
0.0
 42
-0.1692630768015691
  0
VERTEX
  5
638
  8
LAYER_1
 10
38.92322461046095
 20
84.04024633533788
 30
0.0
 42
0.3594224010657352
  0
VERTEX
  5
639
  8
LAYER_1
 10
26.59836365301892
 20
79.2481369700667
 30
0.0
 42
-0.2227968788483507
  0
VERTEX
  5
63A
  8
LAYER_1
 10
24.18144664700618
 20
77.89128183410281
 30
0.0
  0
VERTEX
  5
63B
  8
LAYER_1
 10
23.96042657969148
 20
77.86597594978187
 30
0.0
  0
VERTEX
  5
63C
  8
LAYER_1
 10
23.7404470847284
 20
77.85070393125952
 30
0.0
  0
VERTEX
  5
63D
  8
LAYER_1
 10
23.52175639644209
 20
77.84529385089292
 30
0.0
  0
VERTEX
  5
63E
  8
LAYER_1
 10
23.30460274915767
 20
77.84957378103925
 30
0.0
  0
VERTEX
  5
63F
  8
LAYER_1
 10
23.08923437720027
 20
77.8633717940557
 30
0.0
  0
VERTEX
  5
640
  8
LAYER_1
 10
22.87589951489501
 20
77.88651596229943
 30
0.0
  0
VERTEX
  5
641
  8
LAYER_1
 10
22.66484639656703
 20
77.91883435812761
 30
0.0
  0
VERTEX
  5
642
  8
LAYER_1
 10
22.45632325654144
 20
77.96015505389741
 30
0.0
  0
VERTEX
  5
643
  8
LAYER_1
 10
22.25057832914338
 20
78.01030612196601
 30
0.0
  0
VERTEX
  5
644
  8
LAYER_1
 10
22.04785984869797
 20
78.0691156346906
 30
0.0
  0
VERTEX
  5
645
  8
LAYER_1
 10
21.84841604953035
 20
78.13641166442832
 30
0.0
  0
VERTEX
  5
646
  8
LAYER_1
 10
21.65249516596564
 20
78.2120222835364
 30
0.0
  0
VERTEX
  5
647
  8
LAYER_1
 10
21.46034543232896
 20
78.29577556437197
 30
0.0
  0
VERTEX
  5
648
  8
LAYER_1
 10
21.27221508294545
 20
78.3874995792922
 30
0.0
  0
VERTEX
  5
649
  8
LAYER_1
 10
21.08835235214023
 20
78.48702240065427
 30
0.0
  0
VERTEX
  5
64A
  8
LAYER_1
 10
20.90900547423842
 20
78.59417210081537
 30
0.0
  0
VERTEX
  5
64B
  8
LAYER_1
 10
20.73442268356516
 20
78.70877675213266
 30
0.0
  0
VERTEX
  5
64C
  8
LAYER_1
 10
20.56485221444557
 20
78.83066442696332
 30
0.0
  0
VERTEX
  5
64D
  8
LAYER_1
 10
20.40054230120478
 20
78.95966319766455
 30
0.0
  0
VERTEX
  5
64E
  8
LAYER_1
 10
20.24174117816792
 20
79.09560113659347
 30
0.0
  0
VERTEX
  5
64F
  8
LAYER_1
 10
20.08869707966012
 20
79.2383063161073
 30
0.0
  0
VERTEX
  5
650
  8
LAYER_1
 10
19.9416582400065
 20
79.38760680856318
 30
0.0
  0
VERTEX
  5
651
  8
LAYER_1
 10
19.80087289353218
 20
79.54333068631831
 30
0.0
  0
VERTEX
  5
652
  8
LAYER_1
 10
19.6665892745623
 20
79.70530602172985
 30
0.0
  0
VERTEX
  5
653
  8
LAYER_1
 10
19.53905561742199
 20
79.87336088715499
 30
0.0
  0
VERTEX
  5
654
  8
LAYER_1
 10
19.41852015643637
 20
80.04732335495089
 30
0.0
  0
VERTEX
  5
655
  8
LAYER_1
 10
19.30523112593056
 20
80.22702149747472
 30
0.0
  0
VERTEX
  5
656
  8
LAYER_1
 10
19.1994367602297
 20
80.41228338708366
 30
0.0
  0
VERTEX
  5
657
  8
LAYER_1
 10
19.10138529365892
 20
80.6029370961349
 30
0.0
  0
VERTEX
  5
658
  8
LAYER_1
 10
19.01132496054333
 20
80.79881069698557
 30
0.0
  0
VERTEX
  5
659
  8
LAYER_1
 10
18.92950399520808
 20
80.99973226199289
 30
0.0
  0
VERTEX
  5
65A
  8
LAYER_1
 10
18.85617063197828
 20
81.20552986351403
 30
0.0
  0
VERTEX
  5
65B
  8
LAYER_1
 10
18.8021055444216
 20
81.34562178716548
 30
0.0
  0
VERTEX
  5
65C
  8
LAYER_1
 10
18.731541188461
 20
81.48787968840657
 30
0.0
  0
VERTEX
  5
65D
  8
LAYER_1
 10
18.6458626543734
 20
81.62574353021071
 30
0.0
  0
VERTEX
  5
65E
  8
LAYER_1
 10
18.5464550324357
 20
81.75265327555137
 30
0.0
  0
VERTEX
  5
65F
  8
LAYER_1
 10
18.43470341292483
 20
81.86204888740197
 30
0.0
  0
VERTEX
  5
660
  8
LAYER_1
 10
18.31199288611769
 20
81.94737032873596
 30
0.0
  0
VERTEX
  5
661
  8
LAYER_1
 10
18.24696087318956
 20
81.97895322388842
 30
0.0
  0
VERTEX
  5
662
  8
LAYER_1
 10
18.17970854229121
 20
82.0020575625268
 30
0.0
  0
VERTEX
  5
663
  8
LAYER_1
 10
18.11040902970724
 20
82.01586334002272
 30
0.0
  0
VERTEX
  5
664
  8
LAYER_1
 10
18.03923547172229
 20
82.0195505517479
 30
0.0
  0
VERTEX
  5
665
  8
LAYER_1
 10
17.87690731590254
 20
82.00406193221748
 30
0.0
  0
VERTEX
  5
666
  8
LAYER_1
 10
17.71922392351127
 20
81.96569463599762
 30
0.0
  0
VERTEX
  5
667
  8
LAYER_1
 10
17.56873557700797
 20
81.90537481997721
 30
0.0
  0
VERTEX
  5
668
  8
LAYER_1
 10
17.42799255885213
 20
81.82402864104517
 30
0.0
  0
VERTEX
  5
669
  8
LAYER_1
 10
17.29954515150321
 20
81.72258225609042
 30
0.0
  0
VERTEX
  5
66A
  8
LAYER_1
 10
17.18594363742072
 20
81.60196182200187
 30
0.0
  0
VERTEX
  5
66B
  8
LAYER_1
 10
17.08973829906413
 20
81.46309349566843
 30
0.0
  0
VERTEX
  5
66C
  8
LAYER_1
 10
17.01347941889292
 20
81.30690343397903
 30
0.0
 42
0.2101614128724275
  0
VERTEX
  5
66D
  8
LAYER_1
 10
15.42751948857745
 20
67.45133667885588
 30
0.0
 42
0.252732438134554
  0
VERTEX
  5
66E
  8
LAYER_1
 10
8.039953232135428
 20
66.16834197885755
 30
0.0
 42
0.3887770825549353
  0
VERTEX
  5
66F
  8
LAYER_1
 10
7.602601743706691
 20
58.71675532155876
 30
0.0
 42
0.249743445286109
  0
VERTEX
  5
670
  8
LAYER_1
 10
7.010251368102622
 20
52.1414074840673
 30
0.0
 42
0.1874539892531469
  0
VERTEX
  5
671
  8
LAYER_1
 10
11.48905342763423
 20
47.48671098985852
 30
0.0
  0
VERTEX
  5
672
  8
LAYER_1
 10
11.851449103993
 20
47.25924046851915
 30
0.0
  0
VERTEX
  5
673
  8
LAYER_1
 10
12.02620538798287
 20
47.16185206492435
 30
0.0
  0
VERTEX
  5
674
  8
LAYER_1
 10
12.19717847833063
 20
47.07601224744624
 30
0.0
  0
VERTEX
  5
675
  8
LAYER_1
 10
12.36475175689946
 20
47.00220902713489
 30
0.0
  0
VERTEX
  5
676
  8
LAYER_1
 10
12.52930860555255
 20
46.94093041504038
 30
0.0
  0
VERTEX
  5
677
  8
LAYER_1
 10
12.69123240615306
 20
46.89266442221279
 30
0.0
  0
VERTEX
  5
678
  8
LAYER_1
 10
12.85090654056418
 20
46.85789905970219
 30
0.0
  0
VERTEX
  5
679
  8
LAYER_1
 10
13.00871439064909
 20
46.83712233855867
 30
0.0
  0
VERTEX
  5
67A
  8
LAYER_1
 10
13.16503933827098
 20
46.8308222698323
 30
0.0
  0
VERTEX
  5
67B
  8
LAYER_1
 10
13.320264765293
 20
46.83948686457313
 30
0.0
  0
VERTEX
  5
67C
  8
LAYER_1
 10
13.47477405357836
 20
46.86360413383127
 30
0.0
  0
VERTEX
  5
67D
  8
LAYER_1
 10
13.62895058499022
 20
46.90366208865679
 30
0.0
  0
VERTEX
  5
67E
  8
LAYER_1
 10
13.78317774139178
 20
46.96014874009975
 30
0.0
  0
VERTEX
  5
67F
  8
LAYER_1
 10
13.93783890464619
 20
47.03355209921025
 30
0.0
  0
VERTEX
  5
680
  8
LAYER_1
 10
14.09331745661666
 20
47.12436017703834
 30
0.0
 42
0.4251226319587013
  0
VERTEX
  5
681
  8
LAYER_1
 10
14.27502261567707
 20
48.98961925882172
 30
0.0
 42
-0.0752257059620997
  0
VERTEX
  5
682
  8
LAYER_1
 10
13.08307915245281
 20
51.14836130888344
 30
0.0
 42
-0.346337022975396
  0
VERTEX
  5
683
  8
LAYER_1
 10
14.2123793647765
 20
54.06008053229642
 30
0.0
 42
-0.28900212789786
  0
VERTEX
  5
684
  8
LAYER_1
 10
16.46700664454647
 20
54.28045763483033
 30
0.0
 42
-0.1963807018112588
  0
VERTEX
  5
685
  8
LAYER_1
 10
19.33019969745147
 20
50.82502388167466
 30
0.0
 42
-0.1245843029262275
  0
VERTEX
  5
686
  8
LAYER_1
 10
18.31573501215793
 20
40.89610233781313
 30
0.0
 42
-0.2431774362978479
  0
VERTEX
  5
687
  8
LAYER_1
 10
0.3927509143438185
 20
26.98344289448116
 30
0.0
 42
-0.4305870736032574
  0
VERTEX
  5
688
  8
LAYER_1
 10
0.3399011084307257
 20
28.46719545597248
 30
0.0
  0
VERTEX
  5
689
  8
LAYER_1
 10
0.9511376450351205
 20
28.84601946281259
 30
0.0
  0
VERTEX
  5
68A
  8
LAYER_1
 10
1.551899284594522
 20
29.24282029340637
 30
0.0
  0
VERTEX
  5
68B
  8
LAYER_1
 10
2.137897329584814
 20
29.6591365725641
 30
0.0
  0
VERTEX
  5
68C
  8
LAYER_1
 10
2.424019786140258
 20
29.87509382560766
 30
0.0
  0
VERTEX
  5
68D
  8
LAYER_1
 10
2.70484308248188
 20
30.09650692509606
 30
0.0
  0
VERTEX
  5
68E
  8
LAYER_1
 10
2.979831131419167
 20
30.32356819913058
 30
0.0
  0
VERTEX
  5
68F
  8
LAYER_1
 10
3.248447845761604
 20
30.55646997581252
 30
0.0
  0
VERTEX
  5
690
  8
LAYER_1
 10
3.510157138318677
 20
30.79540458324314
 30
0.0
  0
VERTEX
  5
691
  8
LAYER_1
 10
3.764422921899871
 20
31.04056434952374
 30
0.0
  0
VERTEX
  5
692
  8
LAYER_1
 10
4.010709109314671
 20
31.29214160275561
 30
0.0
  0
VERTEX
  5
693
  8
LAYER_1
 10
4.248479613372563
 20
31.55032867104003
 30
0.0
  0
VERTEX
  5
694
  8
LAYER_1
 10
4.477198346883033
 20
31.81531788247828
 30
0.0
  0
VERTEX
  5
695
  8
LAYER_1
 10
4.696329222655565
 20
32.08730156517164
 30
0.0
  0
VERTEX
  5
696
  8
LAYER_1
 10
4.905336153499645
 20
32.36647204722141
 30
0.0
  0
VERTEX
  5
697
  8
LAYER_1
 10
5.10368305222476
 20
32.65302165672887
 30
0.0
  0
VERTEX
  5
698
  8
LAYER_1
 10
5.290833831640393
 20
32.94714272179529
 30
0.0
  0
VERTEX
  5
699
  8
LAYER_1
 10
5.466252404556032
 20
33.24902757052197
 30
0.0
  0
VERTEX
  5
69A
  8
LAYER_1
 10
5.62940268378116
 20
33.55886853101019
 30
0.0
  0
VERTEX
  5
69B
  8
LAYER_1
 10
5.779748582125265
 20
33.87685793136123
 30
0.0
  0
VERTEX
  5
69C
  8
LAYER_1
 10
5.91675401239783
 20
34.20318809967637
 30
0.0
  0
VERTEX
  5
69D
  8
LAYER_1
 10
6.039882887408343
 20
34.53805136405693
 30
0.0
  0
VERTEX
  5
69E
  8
LAYER_1
 10
6.148599119966287
 20
34.88164005260415
 30
0.0
  0
VERTEX
  5
69F
  8
LAYER_1
 10
6.24236662288115
 20
35.23414649341934
 30
0.0
  0
VERTEX
  5
6A0
  8
LAYER_1
 10
6.320649308962414
 20
35.59576301460377
 30
0.0
  0
VERTEX
  5
6A1
  8
LAYER_1
 10
6.382911091019568
 20
35.96668194425874
 30
0.0
  0
VERTEX
  5
6A2
  8
LAYER_1
 10
6.428615881862095
 20
36.34709561048551
 30
0.0
  0
VERTEX
  5
6A3
  8
LAYER_1
 10
6.457227594299483
 20
36.7371963413854
 30
0.0
  0
VERTEX
  5
6A4
  8
LAYER_1
 10
6.468210141141215
 20
37.13717646505966
 30
0.0
  0
VERTEX
  5
6A5
  8
LAYER_1
 10
6.461027435196778
 20
37.54722830960959
 30
0.0
 42
0.1785169362221546
  0
VERTEX
  5
6A6
  8
LAYER_1
 10
3.098339713427059
 20
44.14326961000404
 30
0.0
 42
0.1077361730214878
  0
VERTEX
  5
6A7
  8
LAYER_1
 10
5.838236975662125
 20
44.79123366716043
 30
0.0
 42
0.5983575140336527
  0
VERTEX
  5
6A8
  8
LAYER_1
 10
6.133739625919796
 20
49.28800592987703
 30
0.0
  0
VERTEX
  5
6A9
  8
LAYER_1
 10
5.713555462510659
 20
49.5077092913955
 30
0.0
  0
VERTEX
  5
6AA
  8
LAYER_1
 10
5.288476570124531
 20
49.71560386505303
 30
0.0
  0
VERTEX
  5
6AB
  8
LAYER_1
 10
4.858715336422135
 20
49.91164878258327
 30
0.0
  0
VERTEX
  5
6AC
  8
LAYER_1
 10
4.424484149064189
 20
50.09580317571981
 30
0.0
  0
VERTEX
  5
6AD
  8
LAYER_1
 10
3.985995395711414
 20
50.26802617619626
 30
0.0
  0
VERTEX
  5
6AE
  8
LAYER_1
 10
3.543461464024529
 20
50.42827691574624
 30
0.0
  0
VERTEX
  5
6AF
  8
LAYER_1
 10
3.097094741664253
 20
50.57651452610335
 30
0.0
  0
VERTEX
  5
6B0
  8
LAYER_1
 10
2.647107616291308
 20
50.71269813900122
 30
0.0
  0
VERTEX
  5
6B1
  8
LAYER_1
 10
2.193712475566412
 20
50.83678688617344
 30
0.0
  0
VERTEX
  5
6B2
  8
LAYER_1
 10
1.737121707150286
 20
50.94873989935365
 30
0.0
  0
VERTEX
  5
6B3
  8
LAYER_1
 10
1.277547698703649
 20
51.04851631027545
 30
0.0
  0
VERTEX
  5
6B4
  8
LAYER_1
 10
0.8152028378872213
 20
51.13607525067243
 30
0.0
  0
VERTEX
  5
6B5
  8
LAYER_1
 10
0.3502995123617226
 20
51.21137585227822
 30
0.0
  0
VERTEX
  5
6B6
  8
LAYER_1
 10
-0.1169498902121269
 20
51.27437724682644
 30
0.0
  0
VERTEX
  5
6B7
  8
LAYER_1
 10
-0.5863329821736076
 20
51.32503856605069
 30
0.0
  0
VERTEX
  5
6B8
  8
LAYER_1
 10
-1.057637375862
 20
51.36331894168459
 30
0.0
  0
VERTEX
  5
6B9
  8
LAYER_1
 10
-1.528941769550392
 20
51.32503856605069
 30
0.0
  0
VERTEX
  5
6BA
  8
LAYER_1
 10
-1.998324861511872
 20
51.27437724682644
 30
0.0
  0
VERTEX
  5
6BB
  8
LAYER_1
 10
-2.465574264085722
 20
51.21137585227822
 30
0.0
  0
VERTEX
  5
6BC
  8
LAYER_1
 10
-2.930477589611221
 20
51.13607525067243
 30
0.0
  0
VERTEX
  5
6BD
  8
LAYER_1
 10
-3.392822450427649
 20
51.04851631027545
 30
0.0
  0
VERTEX
  5
6BE
  8
LAYER_1
 10
-3.852396458874285
 20
50.94873989935365
 30
0.0
  0
VERTEX
  5
6BF
  8
LAYER_1
 10
-4.308987227290412
 20
50.83678688617344
 30
0.0
  0
VERTEX
  5
6C0
  8
LAYER_1
 10
-4.762382368015308
 20
50.71269813900122
 30
0.0
  0
VERTEX
  5
6C1
  8
LAYER_1
 10
-5.212369493388254
 20
50.57651452610335
 30
0.0
  0
VERTEX
  5
6C2
  8
LAYER_1
 10
-5.658736215748528
 20
50.42827691574624
 30
0.0
  0
VERTEX
  5
6C3
  8
LAYER_1
 10
-6.101270147435414
 20
50.26802617619626
 30
0.0
  0
VERTEX
  5
6C4
  8
LAYER_1
 10
-6.539758900788189
 20
50.09580317571981
 30
0.0
  0
VERTEX
  5
6C5
  8
LAYER_1
 10
-6.973990088146135
 20
49.91164878258327
 30
0.0
  0
VERTEX
  5
6C6
  8
LAYER_1
 10
-7.403751321848531
 20
49.71560386505303
 30
0.0
  0
VERTEX
  5
6C7
  8
LAYER_1
 10
-7.828830214234658
 20
49.5077092913955
 30
0.0
  0
VERTEX
  5
6C8
  8
LAYER_1
 10
-8.249014377643796
 20
49.28800592987703
 30
0.0
 42
0.5983575140336527
  0
VERTEX
  5
6C9
  8
LAYER_1
 10
-7.953511727386124
 20
44.79123366716043
 30
0.0
 42
0.1077361730214878
  0
VERTEX
  5
6CA
  8
LAYER_1
 10
-5.213614465151059
 20
44.14326961000404
 30
0.0
 42
0.1785169362221546
  0
VERTEX
  5
6CB
  8
LAYER_1
 10
-8.576302186920778
 20
37.54722830960959
 30
0.0
  0
VERTEX
  5
6CC
  8
LAYER_1
 10
-8.583484892865215
 20
37.13717646505966
 30
0.0
  0
VERTEX
  5
6CD
  8
LAYER_1
 10
-8.572502346023484
 20
36.7371963413854
 30
0.0
  0
VERTEX
  5
6CE
  8
LAYER_1
 10
-8.543890633586095
 20
36.34709561048551
 30
0.0
  0
VERTEX
  5
6CF
  8
LAYER_1
 10
-8.498185842743567
 20
35.96668194425874
 30
0.0
  0
VERTEX
  5
6D0
  8
LAYER_1
 10
-8.435924060686414
 20
35.59576301460377
 30
0.0
  0
VERTEX
  5
6D1
  8
LAYER_1
 10
-8.357641374605148
 20
35.23414649341934
 30
0.0
  0
VERTEX
  5
6D2
  8
LAYER_1
 10
-8.263873871690286
 20
34.88164005260415
 30
0.0
  0
VERTEX
  5
6D3
  8
LAYER_1
 10
-8.15515763913234
 20
34.53805136405693
 30
0.0
  0
VERTEX
  5
6D4
  8
LAYER_1
 10
-8.03202876412183
 20
34.20318809967637
 30
0.0
  0
VERTEX
  5
6D5
  8
LAYER_1
 10
-7.895023333849263
 20
33.87685793136123
 30
0.0
  0
VERTEX
  5
6D6
  8
LAYER_1
 10
-7.744677435505158
 20
33.55886853101019
 30
0.0
  0
VERTEX
  5
6D7
  8
LAYER_1
 10
-7.58152715628003
 20
33.24902757052197
 30
0.0
  0
VERTEX
  5
6D8
  8
LAYER_1
 10
-7.406108583364391
 20
32.94714272179529
 30
0.0
  0
VERTEX
  5
6D9
  8
LAYER_1
 10
-7.218957803948758
 20
32.65302165672887
 30
0.0
  0
VERTEX
  5
6DA
  8
LAYER_1
 10
-7.020610905223644
 20
32.36647204722141
 30
0.0
  0
VERTEX
  5
6DB
  8
LAYER_1
 10
-6.811603974379564
 20
32.08730156517164
 30
0.0
  0
VERTEX
  5
6DC
  8
LAYER_1
 10
-6.592473098607032
 20
31.81531788247828
 30
0.0
  0
VERTEX
  5
6DD
  8
LAYER_1
 10
-6.363754365096563
 20
31.55032867104003
 30
0.0
  0
VERTEX
  5
6DE
  8
LAYER_1
 10
-6.12598386103867
 20
31.29214160275561
 30
0.0
  0
VERTEX
  5
6DF
  8
LAYER_1
 10
-5.879697673623871
 20
31.04056434952374
 30
0.0
  0
VERTEX
  5
6E0
  8
LAYER_1
 10
-5.625431890042678
 20
30.79540458324314
 30
0.0
  0
VERTEX
  5
6E1
  8
LAYER_1
 10
-5.363722597485605
 20
30.55646997581252
 30
0.0
  0
VERTEX
  5
6E2
  8
LAYER_1
 10
-5.095105883143168
 20
30.32356819913058
 30
0.0
  0
VERTEX
  5
6E3
  8
LAYER_1
 10
-4.82011783420588
 20
30.09650692509606
 30
0.0
  0
VERTEX
  5
6E4
  8
LAYER_1
 10
-4.253172081308813
 20
29.6591365725641
 30
0.0
  0
VERTEX
  5
6E5
  8
LAYER_1
 10
-3.667174036318522
 20
29.24282029340637
 30
0.0
  0
VERTEX
  5
6E6
  8
LAYER_1
 10
-3.06641239675912
 20
28.84601946281259
 30
0.0
  0
VERTEX
  5
6E7
  8
LAYER_1
 10
-2.455175860154725
 20
28.46719545597248
 30
0.0
 42
-0.4305870736032574
  0
VERTEX
  5
6E8
  8
LAYER_1
 10
-2.508025666067818
 20
26.98344289448116
 30
0.0
 42
-0.2431774362978479
  0
VERTEX
  5
6E9
  8
LAYER_1
 10
-20.43100976388193
 20
40.89610233781313
 30
0.0
 42
-0.1245843029262275
  0
VERTEX
  5
6EA
  8
LAYER_1
 10
-21.44547444917547
 20
50.82502388167466
 30
0.0
 42
-0.1963807018112588
  0
VERTEX
  5
6EB
  8
LAYER_1
 10
-18.58228139627047
 20
54.28045763483033
 30
0.0
 42
-0.28900212789786
  0
VERTEX
  5
6EC
  8
LAYER_1
 10
-16.32765411650049
 20
54.06008053229642
 30
0.0
 42
-0.346337022975396
  0
VERTEX
  5
6ED
  8
LAYER_1
 10
-15.19835390417681
 20
51.14836130888344
 30
0.0
 42
-0.0752257059620997
  0
VERTEX
  5
6EE
  8
LAYER_1
 10
-16.39029736740106
 20
48.98961925882172
 30
0.0
 42
0.4251226319587013
  0
VERTEX
  5
6EF
  8
LAYER_1
 10
-16.20859220834065
 20
47.12436017703834
 30
0.0
  0
VERTEX
  5
6F0
  8
LAYER_1
 10
-16.05311365637019
 20
47.03355209921025
 30
0.0
  0
VERTEX
  5
6F1
  8
LAYER_1
 10
-15.89845249311577
 20
46.96014874009975
 30
0.0
  0
VERTEX
  5
6F2
  8
LAYER_1
 10
-15.74422533671422
 20
46.90366208865679
 30
0.0
  0
VERTEX
  5
6F3
  8
LAYER_1
 10
-15.59004880530236
 20
46.86360413383127
 30
0.0
  0
VERTEX
  5
6F4
  8
LAYER_1
 10
-15.435539517017
 20
46.83948686457313
 30
0.0
  0
VERTEX
  5
6F5
  8
LAYER_1
 10
-15.28031408999497
 20
46.8308222698323
 30
0.0
  0
VERTEX
  5
6F6
  8
LAYER_1
 10
-15.12398914237309
 20
46.83712233855867
 30
0.0
  0
VERTEX
  5
6F7
  8
LAYER_1
 10
-14.96618129228818
 20
46.85789905970219
 30
0.0
  0
VERTEX
  5
6F8
  8
LAYER_1
 10
-14.80650715787706
 20
46.89266442221279
 30
0.0
  0
VERTEX
  5
6F9
  8
LAYER_1
 10
-14.64458335727655
 20
46.94093041504038
 30
0.0
  0
VERTEX
  5
6FA
  8
LAYER_1
 10
-14.48002650862346
 20
47.00220902713489
 30
0.0
  0
VERTEX
  5
6FB
  8
LAYER_1
 10
-14.31245323005463
 20
47.07601224744624
 30
0.0
  0
VERTEX
  5
6FC
  8
LAYER_1
 10
-14.14148013970687
 20
47.16185206492435
 30
0.0
  0
VERTEX
  5
6FD
  8
LAYER_1
 10
-13.966723855717
 20
47.25924046851915
 30
0.0
  0
VERTEX
  5
6FE
  8
LAYER_1
 10
-13.60432817935822
 20
47.48671098985852
 30
0.0
 42
0.1874539892531469
  0
VERTEX
  5
6FF
  8
LAYER_1
 10
-9.12552611982662
 20
52.1414074840673
 30
0.0
 42
0.249743445286109
  0
VERTEX
  5
700
  8
LAYER_1
 10
-9.717876495430689
 20
58.71675532155876
 30
0.0
 42
0.3887770825549353
  0
VERTEX
  5
701
  8
LAYER_1
 10
-10.15522798385943
 20
66.16834197885755
 30
0.0
 42
0.252732438134554
  0
VERTEX
  5
702
  8
LAYER_1
 10
-17.54279424030144
 20
67.45133667885588
 30
0.0
 42
0.2101614128724275
  0
VERTEX
  5
703
  8
LAYER_1
 10
-19.12875417061692
 20
81.30690343397903
 30
0.0
  0
VERTEX
  5
704
  8
LAYER_1
 10
-19.20501305078812
 20
81.46309349566843
 30
0.0
  0
VERTEX
  5
705
  8
LAYER_1
 10
-19.30121838914472
 20
81.60196182200187
 30
0.0
  0
VERTEX
  5
706
  8
LAYER_1
 10
-19.41481990322722
 20
81.72258225609042
 30
0.0
  0
VERTEX
  5
707
  8
LAYER_1
 10
-19.54326731057613
 20
81.82402864104517
 30
0.0
  0
VERTEX
  5
708
  8
LAYER_1
 10
-19.68401032873197
 20
81.90537481997721
 30
0.0
  0
VERTEX
  5
709
  8
LAYER_1
 10
-19.83449867523527
 20
81.96569463599762
 30
0.0
  0
VERTEX
  5
70A
  8
LAYER_1
 10
-19.99218206762654
 20
82.00406193221748
 30
0.0
  0
VERTEX
  5
70B
  8
LAYER_1
 10
-20.15451022344628
 20
82.0195505517479
 30
0.0
  0
VERTEX
  5
70C
  8
LAYER_1
 10
-20.22568378143124
 20
82.01586334002272
 30
0.0
  0
VERTEX
  5
70D
  8
LAYER_1
 10
-20.2949832940152
 20
82.0020575625268
 30
0.0
  0
VERTEX
  5
70E
  8
LAYER_1
 10
-20.36223562491356
 20
81.97895322388842
 30
0.0
  0
VERTEX
  5
70F
  8
LAYER_1
 10
-20.42726763784169
 20
81.94737032873596
 30
0.0
  0
VERTEX
  5
710
  8
LAYER_1
 10
-20.54997816464883
 20
81.86204888740197
 30
0.0
  0
VERTEX
  5
711
  8
LAYER_1
 10
-20.6617297841597
 20
81.75265327555137
 30
0.0
  0
VERTEX
  5
712
  8
LAYER_1
 10
-20.76113740609739
 20
81.62574353021071
 30
0.0
  0
VERTEX
  5
713
  8
LAYER_1
 10
-20.846815940185
 20
81.48787968840657
 30
0.0
  0
VERTEX
  5
714
  8
LAYER_1
 10
-20.91738029614559
 20
81.34562178716548
 30
0.0
  0
VERTEX
  5
715
  8
LAYER_1
 10
-20.97144538370227
 20
81.20552986351403
 30
0.0
  0
VERTEX
  5
716
  8
LAYER_1
 10
-21.04477874693207
 20
80.99973226199289
 30
0.0
  0
VERTEX
  5
717
  8
LAYER_1
 10
-21.12659971226733
 20
80.79881069698557
 30
0.0
  0
VERTEX
  5
718
  8
LAYER_1
 10
-21.21666004538291
 20
80.6029370961349
 30
0.0
  0
VERTEX
  5
719
  8
LAYER_1
 10
-21.3147115119537
 20
80.41228338708366
 30
0.0
  0
VERTEX
  5
71A
  8
LAYER_1
 10
-21.42050587765456
 20
80.22702149747472
 30
0.0
  0
VERTEX
  5
71B
  8
LAYER_1
 10
-21.53379490816036
 20
80.04732335495089
 30
0.0
  0
VERTEX
  5
71C
  8
LAYER_1
 10
-21.65433036914599
 20
79.87336088715499
 30
0.0
  0
VERTEX
  5
71D
  8
LAYER_1
 10
-21.7818640262863
 20
79.70530602172985
 30
0.0
  0
VERTEX
  5
71E
  8
LAYER_1
 10
-21.91614764525618
 20
79.54333068631831
 30
0.0
  0
VERTEX
  5
71F
  8
LAYER_1
 10
-22.05693299173049
 20
79.38760680856318
 30
0.0
  0
VERTEX
  5
720
  8
LAYER_1
 10
-22.20397183138411
 20
79.2383063161073
 30
0.0
  0
VERTEX
  5
721
  8
LAYER_1
 10
-22.35701592989192
 20
79.09560113659347
 30
0.0
  0
VERTEX
  5
722
  8
LAYER_1
 10
-22.51581705292878
 20
78.95966319766455
 30
0.0
  0
VERTEX
  5
723
  8
LAYER_1
 10
-22.68012696616957
 20
78.83066442696332
 30
0.0
  0
VERTEX
  5
724
  8
LAYER_1
 10
-22.84969743528915
 20
78.70877675213266
 30
0.0
  0
VERTEX
  5
725
  8
LAYER_1
 10
-23.02428022596241
 20
78.59417210081537
 30
0.0
  0
VERTEX
  5
726
  8
LAYER_1
 10
-23.20362710386422
 20
78.48702240065427
 30
0.0
  0
VERTEX
  5
727
  8
LAYER_1
 10
-23.38748983466945
 20
78.3874995792922
 30
0.0
  0
VERTEX
  5
728
  8
LAYER_1
 10
-23.57562018405296
 20
78.29577556437197
 30
0.0
  0
VERTEX
  5
729
  8
LAYER_1
 10
-23.76776991768964
 20
78.2120222835364
 30
0.0
  0
VERTEX
  5
72A
  8
LAYER_1
 10
-23.96369080125435
 20
78.13641166442832
 30
0.0
  0
VERTEX
  5
72B
  8
LAYER_1
 10
-24.16313460042198
 20
78.0691156346906
 30
0.0
  0
VERTEX
  5
72C
  8
LAYER_1
 10
-24.36585308086738
 20
78.01030612196601
 30
0.0
  0
VERTEX
  5
72D
  8
LAYER_1
 10
-24.57159800826544
 20
77.96015505389741
 30
0.0
  0
VERTEX
  5
72E
  8
LAYER_1
 10
-24.78012114829102
 20
77.91883435812761
 30
0.0
  0
VERTEX
  5
72F
  8
LAYER_1
 10
-24.99117426661901
 20
77.88651596229943
 30
0.0
  0
VERTEX
  5
730
  8
LAYER_1
 10
-25.20450912892426
 20
77.8633717940557
 30
0.0
  0
VERTEX
  5
731
  8
LAYER_1
 10
-25.41987750088166
 20
77.84957378103925
 30
0.0
  0
VERTEX
  5
732
  8
LAYER_1
 10
-25.63703114816608
 20
77.84529385089292
 30
0.0
  0
VERTEX
  5
733
  8
LAYER_1
 10
-25.8557218364524
 20
77.85070393125952
 30
0.0
  0
VERTEX
  5
734
  8
LAYER_1
 10
-26.07570133141547
 20
77.86597594978187
 30
0.0
  0
VERTEX
  5
735
  8
LAYER_1
 10
-26.29672139873018
 20
77.89128183410281
 30
0.0
 42
-0.2227968788483507
  0
VERTEX
  5
736
  8
LAYER_1
 10
-28.71363840474292
 20
79.2481369700667
 30
0.0
 42
0.3594224010657352
  0
VERTEX
  5
737
  8
LAYER_1
 10
-41.03849936218496
 20
84.04024633533788
 30
0.0
 42
-0.1692630768015691
  0
VERTEX
  5
738
  8
LAYER_1
 10
-43.70712833818149
 20
84.06093979824111
 30
0.0
 42
0.3649180010846277
  0
VERTEX
  5
739
  8
LAYER_1
 10
-53.92390484274884
 20
80.95423021258387
 30
0.0
 42
0.2719705126714217
  0
VERTEX
  5
73A
  8
LAYER_1
 10
-66.72683092159045
 20
71.58314110033146
 30
0.0
  0
VERTEX
  5
73B
  8
LAYER_1
 10
-67.00911143109545
 20
71.03221706861703
 30
0.0
  0
VERTEX
  5
73C
  8
LAYER_1
 10
-67.26798082742869
 20
70.47404512065705
 30
0.0
  0
VERTEX
  5
73D
  8
LAYER_1
 10
-67.50351941637778
 20
69.90923919420953
 30
0.0
  0
VERTEX
  5
73E
  8
LAYER_1
 10
-67.71580750373036
 20
69.3384132270325
 30
0.0
  0
VERTEX
  5
73F
  8
LAYER_1
 10
-67.90492539527403
 20
68.76218115688394
 30
0.0
  0
VERTEX
  5
740
  8
LAYER_1
 10
-68.07095339679641
 20
68.18115692152186
 30
0.0
  0
VERTEX
  5
741
  8
LAYER_1
 10
-68.21397181408511
 20
67.59595445870427
 30
0.0
  0
VERTEX
  5
742
  8
LAYER_1
 10
-68.33406095292776
 20
67.00718770618917
 30
0.0
  0
VERTEX
  5
743
  8
LAYER_1
 10
-68.43130111911196
 20
66.41547060173457
 30
0.0
  0
VERTEX
  5
744
  8
LAYER_1
 10
-68.50577261842533
 20
65.82141708309845
 30
0.0
  0
VERTEX
  5
745
  8
LAYER_1
 10
-68.55755575665546
 20
65.22564108803886
 30
0.0
  0
VERTEX
  5
746
  8
LAYER_1
 10
-68.58673083959
 20
64.62875655431375
 30
0.0
  0
VERTEX
  5
747
  8
LAYER_1
 10
-68.59337817301656
 20
64.03137741968118
 30
0.0
  0
VERTEX
  5
748
  8
LAYER_1
 10
-68.57757806272272
 20
63.43411762189913
 30
0.0
  0
VERTEX
  5
749
  8
LAYER_1
 10
-68.53941081449614
 20
62.83759109872561
 30
0.0
  0
VERTEX
  5
74A
  8
LAYER_1
 10
-68.47895673412442
 20
62.24241178791863
 30
0.0
  0
VERTEX
  5
74B
  8
LAYER_1
 10
-68.39629612739517
 20
61.64919362723617
 30
0.0
  0
VERTEX
  5
74C
  8
LAYER_1
 10
-68.29150930009601
 20
61.05855055443627
 30
0.0
  0
VERTEX
  5
74D
  8
LAYER_1
 10
-68.16467655801455
 20
60.47109650727691
 30
0.0
  0
VERTEX
  5
74E
  8
LAYER_1
 10
-68.0158782069384
 20
59.88744542351611
 30
0.0
  0
VERTEX
  5
74F
  8
LAYER_1
 10
-67.84519455265519
 20
59.30821124091186
 30
0.0
  0
VERTEX
  5
750
  8
LAYER_1
 10
-67.65270590095251
 20
58.73400789722218
 30
0.0
  0
VERTEX
  5
751
  8
LAYER_1
 10
-67.438492557618
 20
58.16544933020506
 30
0.0
  0
VERTEX
  5
752
  8
LAYER_1
 10
-67.20263482843927
 20
57.60314947761853
 30
0.0
  0
VERTEX
  5
753
  8
LAYER_1
 10
-66.94521301920393
 20
57.04772227722057
 30
0.0
  0
VERTEX
  5
754
  8
LAYER_1
 10
-66.6663074356996
 20
56.4997816667692
 30
0.0
  0
VERTEX
  5
755
  8
LAYER_1
 10
-66.3659983837139
 20
55.95994158402242
 30
0.0
  0
VERTEX
  5
756
  8
LAYER_1
 10
-66.04436616903442
 20
55.42881596673823
 30
0.0
  0
VERTEX
  5
757
  8
LAYER_1
 10
-65.70149109744878
 20
54.90701875267465
 30
0.0
  0
VERTEX
  5
758
  8
LAYER_1
 10
-65.33745347474462
 20
54.39516387958967
 30
0.0
  0
VERTEX
  5
759
  8
LAYER_1
 10
-64.95233360670954
 20
53.8938652852413
 30
0.0
  0
VERTEX
  5
75A
  8
LAYER_1
 10
-64.54621179913116
 20
53.40373690738755
 30
0.0
 42
0.2980495066881649
  0
VERTEX
  5
75B
  8
LAYER_1
 10
-56.80952419003716
 20
51.86761912248658
 30
0.0
 42
0.6916905798687927
  0
VERTEX
  5
75C
  8
LAYER_1
 10
-56.79291147801847
 20
53.03151052739926
 30
0.0
 42
-0.5271461314559406
  0
VERTEX
  5
75D
  8
LAYER_1
 10
-57.85975830196373
 20
66.27814523509397
 30
0.0
  0
VERTEX
  5
75E
  8
LAYER_1
 10
-57.50991892610636
 20
66.46639418142564
 30
0.0
  0
VERTEX
  5
75F
  8
LAYER_1
 10
-57.16316863253986
 20
66.63649428974023
 30
0.0
  0
VERTEX
  5
760
  8
LAYER_1
 10
-56.81959946642645
 20
66.78875421103318
 30
0.0
  0
VERTEX
  5
761
  8
LAYER_1
 10
-56.47930347292833
 20
66.92348259629995
 30
0.0
  0
VERTEX
  5
762
  8
LAYER_1
 10
-56.14237269720769
 20
67.04098809653598
 30
0.0
  0
VERTEX
  5
763
  8
LAYER_1
 10
-55.80889918442674
 20
67.14157936273673
 30
0.0
  0
VERTEX
  5
764
  8
LAYER_1
 10
-55.47897497974766
 20
67.22556504589764
 30
0.0
  0
VERTEX
  5
765
  8
LAYER_1
 10
-55.15269212833268
 20
67.29325379701419
 30
0.0
  0
VERTEX
  5
766
  8
LAYER_1
 10
-54.83014267534399
 20
67.34495426708179
 30
0.0
  0
VERTEX
  5
767
  8
LAYER_1
 10
-54.51141866594379
 20
67.3809751070959
 30
0.0
  0
VERTEX
  5
768
  8
LAYER_1
 10
-54.19661214529427
 20
67.40162496805199
 30
0.0
  0
VERTEX
  5
769
  8
LAYER_1
 10
-53.88581515855766
 20
67.40721250094549
 30
0.0
  0
VERTEX
  5
76A
  8
LAYER_1
 10
-53.57911975089613
 20
67.39804635677186
 30
0.0
  0
VERTEX
  5
76B
  8
LAYER_1
 10
-53.27661796747191
 20
67.37443518652654
 30
0.0
  0
VERTEX
  5
76C
  8
LAYER_1
 10
-52.97840185344717
 20
67.33668764120499
 30
0.0
  0
VERTEX
  5
76D
  8
LAYER_1
 10
-52.68456345398413
 20
67.28511237180267
 30
0.0
  0
VERTEX
  5
76E
  8
LAYER_1
 10
-52.395194814245
 20
67.22001802931501
 30
0.0
  0
VERTEX
  5
76F
  8
LAYER_1
 10
-52.11038797939196
 20
67.14171326473748
 30
0.0
  0
VERTEX
  5
770
  8
LAYER_1
 10
-51.83023499458722
 20
67.05050672906549
 30
0.0
  0
VERTEX
  5
771
  8
LAYER_1
 10
-51.55482790499298
 20
66.94670707329453
 30
0.0
  0
VERTEX
  5
772
  8
LAYER_1
 10
-51.28425875577144
 20
66.83062294842004
 30
0.0
  0
VERTEX
  5
773
  8
LAYER_1
 10
-51.01861959208481
 20
66.70256300543748
 30
0.0
  0
VERTEX
  5
774
  8
LAYER_1
 10
-50.75800245909528
 20
66.56283589534229
 30
0.0
  0
VERTEX
  5
775
  8
LAYER_1
 10
-50.50249940196507
 20
66.41175026912988
 30
0.0
  0
VERTEX
  5
776
  8
LAYER_1
 10
-50.25220246585636
 20
66.24961477779576
 30
0.0
  0
VERTEX
  5
777
  8
LAYER_1
 10
-50.00720369593135
 20
66.07673807233537
 30
0.0
  0
VERTEX
  5
778
  8
LAYER_1
 10
-49.76759513735227
 20
65.89342880374414
 30
0.0
  0
VERTEX
  5
779
  8
LAYER_1
 10
-49.53346883528128
 20
65.69999562301753
 30
0.0
  0
VERTEX
  5
77A
  8
LAYER_1
 10
-49.30491683488061
 20
65.49674718115098
 30
0.0
  0
VERTEX
  5
77B
  8
LAYER_1
 10
-49.08203118131245
 20
65.28399212913996
 30
0.0
  0
VERTEX
  5
77C
  8
LAYER_1
 10
-48.86490391973901
 20
65.06203911797991
 30
0.0
  0
VERTEX
  5
77D
  8
LAYER_1
 10
-48.65362709532248
 20
64.83119679866626
 30
0.0
  0
VERTEX
  5
77E
  8
LAYER_1
 10
-48.44829275322506
 20
64.59177382219448
 30
0.0
  0
VERTEX
  5
77F
  8
LAYER_1
 10
-48.24899293860897
 20
64.34407883956004
 30
0.0
  0
VERTEX
  5
780
  8
LAYER_1
 10
-48.05581969663639
 20
64.08842050175835
 30
0.0
  0
VERTEX
  5
781
  8
LAYER_1
 10
-47.86886507246954
 20
63.82510745978487
 30
0.0
  0
VERTEX
  5
782
  8
LAYER_1
 10
-47.68822111127061
 20
63.55444836463508
 30
0.0
  0
VERTEX
  5
783
  8
LAYER_1
 10
-47.51397985820179
 20
63.2767518673044
 30
0.0
  0
VERTEX
  5
784
  8
LAYER_1
 10
-47.34623335842531
 20
62.99232661878829
 30
0.0
  0
VERTEX
  5
785
  8
LAYER_1
 10
-47.18507365710335
 20
62.7014812700822
 30
0.0
  0
VERTEX
  5
786
  8
LAYER_1
 10
-47.03059279939811
 20
62.40452447218157
 30
0.0
  0
VERTEX
  5
787
  8
LAYER_1
 10
-46.88288283047179
 20
62.10176487608187
 30
0.0
  0
VERTEX
  5
788
  8
LAYER_1
 10
-46.7420357954866
 20
61.79351113277853
 30
0.0
  0
VERTEX
  5
789
  8
LAYER_1
 10
-46.60814373960476
 20
61.48007189326701
 30
0.0
  0
VERTEX
  5
78A
  8
LAYER_1
 10
-46.48129870798843
 20
61.16175580854276
 30
0.0
  0
VERTEX
  5
78B
  8
LAYER_1
 10
-46.36159274579984
 20
60.83887152960124
 30
0.0
  0
VERTEX
  5
78C
  8
LAYER_1
 10
-46.24911789820118
 20
60.51172770743788
 30
0.0
  0
VERTEX
  5
78D
  8
LAYER_1
 10
-46.14396621035466
 20
60.18063299304814
 30
0.0
  0
VERTEX
  5
78E
  8
LAYER_1
 10
-46.04622972742247
 20
59.84589603742747
 30
0.0
  0
VERTEX
  5
78F
  8
LAYER_1
 10
-45.95600049456682
 20
59.50782549157132
 30
0.0
  0
VERTEX
  5
790
  8
LAYER_1
 10
-45.87337055694991
 20
59.16673000647513
 30
0.0
  0
VERTEX
  5
791
  8
LAYER_1
 10
-45.79843195973393
 20
58.82291823313437
 30
0.0
  0
VERTEX
  5
792
  8
LAYER_1
 10
-45.73127674808109
 20
58.47669882254448
 30
0.0
  0
VERTEX
  5
793
  8
LAYER_1
 10
-45.67199696715359
 20
58.12838042570091
 30
0.0
  0
VERTEX
  5
794
  8
LAYER_1
 10
-45.62068466211363
 20
57.7782716935991
 30
0.0
  0
VERTEX
  5
795
  8
LAYER_1
 10
-45.57743187812342
 20
57.42668127723452
 30
0.0
  0
VERTEX
  5
796
  8
LAYER_1
 10
-45.54233066034516
 20
57.07391782760261
 30
0.0
  0
VERTEX
  5
797
  8
LAYER_1
 10
-45.51547305394103
 20
56.72028999569882
 30
0.0
  0
VERTEX
  5
798
  8
LAYER_1
 10
-45.49695110407325
 20
56.36610643251859
 30
0.0
  0
VERTEX
  5
799
  8
LAYER_1
 10
-45.48685685590402
 20
56.01167578905739
 30
0.0
  0
VERTEX
  5
79A
  8
LAYER_1
 10
-45.48528235459554
 20
55.65730671631066
 30
0.0
  0
VERTEX
  5
79B
  8
LAYER_1
 10
-45.49231964531
 20
55.30330786527385
 30
0.0
  0
VERTEX
  5
79C
  8
LAYER_1
 10
-45.50806077320962
 20
54.94998788694241
 30
0.0
  0
VERTEX
  5
79D
  8
LAYER_1
 10
-45.53259778345659
 20
54.59765543231179
 30
0.0
  0
VERTEX
  5
79E
  8
LAYER_1
 10
-46.24554867513916
 20
54.09934187427824
 30
0.0
  0
VERTEX
  5
79F
  8
LAYER_1
 10
-46.9343266874957
 20
53.58615985165645
 30
0.0
  0
VERTEX
  5
7A0
  8
LAYER_1
 10
-47.59920174157055
 20
53.05810185202203
 30
0.0
  0
VERTEX
  5
7A1
  8
LAYER_1
 10
-48.2404437584081
 20
52.51516036295055
 30
0.0
  0
VERTEX
  5
7A2
  8
LAYER_1
 10
-48.85832265905272
 20
51.95732787201762
 30
0.0
  0
VERTEX
  5
7A3
  8
LAYER_1
 10
-49.45310836454876
 20
51.38459686679883
 30
0.0
  0
VERTEX
  5
7A4
  8
LAYER_1
 10
-50.0250707959406
 20
50.79695983486977
 30
0.0
  0
VERTEX
  5
7A5
  8
LAYER_1
 10
-50.57447987427261
 20
50.19440926380604
 30
0.0
  0
VERTEX
  5
7A6
  8
LAYER_1
 10
-51.10160552058915
 20
49.57693764118323
 30
0.0
  0
VERTEX
  5
7A7
  8
LAYER_1
 10
-51.6067176559346
 20
48.94453745457693
 30
0.0
  0
VERTEX
  5
7A8
  8
LAYER_1
 10
-52.09008620135332
 20
48.29720119156273
 30
0.0
  0
VERTEX
  5
7A9
  8
LAYER_1
 10
-52.55198107788966
 20
47.63492133971625
 30
0.0
  0
VERTEX
  5
7AA
  8
LAYER_1
 10
-52.99267220658801
 20
46.95769038661306
 30
0.0
  0
VERTEX
  5
7AB
  8
LAYER_1
 10
-53.41242950849274
 20
46.26550081982876
 30
0.0
  0
VERTEX
  5
7AC
  8
LAYER_1
 10
-53.8115229046482
 20
45.55834512693894
 30
0.0
  0
VERTEX
  5
7AD
  8
LAYER_1
 10
-54.19022231609877
 20
44.83621579551919
 30
0.0
  0
VERTEX
  5
7AE
  8
LAYER_1
 10
-54.54879766388881
 20
44.09910531314512
 30
0.0
  0
VERTEX
  5
7AF
  8
LAYER_1
 10
-54.8875188690627
 20
43.34700616739232
 30
0.0
  0
VERTEX
  5
7B0
  8
LAYER_1
 10
-55.2066558526648
 20
42.57991084583638
 30
0.0
  0
VERTEX
  5
7B1
  8
LAYER_1
 10
-55.50647853573946
 20
41.79781183605289
 30
0.0
  0
VERTEX
  5
7B2
  8
LAYER_1
 10
-55.78725683933108
 20
41.00070162561744
 30
0.0
  0
VERTEX
  5
7B3
  8
LAYER_1
 10
-56.049260684484
 20
40.18857270210565
 30
0.0
  0
VERTEX
  5
7B4
  8
LAYER_1
 10
-56.29275999224261
 20
39.36141755309308
 30
0.0
  0
VERTEX
  5
7B5
  8
LAYER_1
 10
-56.51802468365126
 20
38.51922866615534
 30
0.0
  0
VERTEX
  5
7B6
  8
LAYER_1
 10
-56.72532467975434
 20
37.66199852886802
 30
0.0
  0
VERTEX
  5
7B7
  8
LAYER_1
 10
-56.91492990159618
 20
36.78971962880672
 30
0.0
  0
VERTEX
  5
7B8
  8
LAYER_1
 10
-57.08711027022119
 20
35.90238445354703
 30
0.0
  0
VERTEX
  5
7B9
  8
LAYER_1
 10
-57.2421357066737
 20
34.99998549066454
 30
0.0
  0
VERTEX
  5
7BA
  8
LAYER_1
 10
-57.38027613199809
 20
34.08251522773486
 30
0.0
  0
VERTEX
  5
7BB
  8
LAYER_1
 10
-57.50180146723875
 20
33.14996615233356
 30
0.0
  0
VERTEX
  5
7BC
  8
LAYER_1
 10
-57.60698163344002
 20
32.20233075203626
 30
0.0
  0
VERTEX
  5
7BD
  8
LAYER_1
 10
-57.69608655164629
 20
31.23960151441854
 30
0.0
 42
0.1528068543261979
  0
VERTEX
  5
7BE
  8
LAYER_1
 10
-54.97500506553419
 20
13.34350953101622
 30
0.0
 42
-0.123014485415215
  0
VERTEX
  5
7BF
  8
LAYER_1
 10
-50.72862152332704
 20
2.627882906664097
 30
0.0
  0
VERTEX
  5
7C0
  8
LAYER_1
 10
-50.64456092246462
 20
2.181207485204995
 30
0.0
  0
VERTEX
  5
7C1
  8
LAYER_1
 10
-50.56643638709826
 20
1.725520682470644
 30
0.0
  0
VERTEX
  5
7C2
  8
LAYER_1
 10
-50.49483334622134
 20
1.261904059851425
 30
0.0
  0
VERTEX
  5
7C3
  8
LAYER_1
 10
-50.43033722882724
 20
0.7914391787377203
 30
0.0
  0
VERTEX
  5
7C4
  8
LAYER_1
 10
-50.37353346390935
 20
0.3152076005199107
 30
0.0
  0
VERTEX
  5
7C5
  8
LAYER_1
 10
-50.32500748046105
 20
-0.1657091134116224
 30
0.0
  0
VERTEX
  5
7C6
  8
LAYER_1
 10
-50.28534470747573
 20
-0.6502294016664976
 30
0.0
  0
VERTEX
  5
7C7
  8
LAYER_1
 10
-50.25513057394676
 20
-1.137271702854334
 30
0.0
  0
VERTEX
  5
7C8
  8
LAYER_1
 10
-50.23495050886752
 20
-1.625754455584749
 30
0.0
  0
VERTEX
  5
7C9
  8
LAYER_1
 10
-50.2253899412314
 20
-2.114596098467363
 30
0.0
  0
VERTEX
  5
7CA
  8
LAYER_1
 10
-50.22703430003178
 20
-2.602715070111794
 30
0.0
  0
VERTEX
  5
7CB
  8
LAYER_1
 10
-50.24046901426203
 20
-3.089029809127659
 30
0.0
  0
VERTEX
  5
7CC
  8
LAYER_1
 10
-50.26627951291554
 20
-3.572458754124579
 30
0.0
  0
VERTEX
  5
7CD
  8
LAYER_1
 10
-50.30505122498569
 20
-4.051920343712172
 30
0.0
  0
VERTEX
  5
7CE
  8
LAYER_1
 10
-50.35736957946587
 20
-4.526333016500056
 30
0.0
  0
VERTEX
  5
7CF
  8
LAYER_1
 10
-50.42382000534946
 20
-4.99461521109785
 30
0.0
  0
VERTEX
  5
7D0
  8
LAYER_1
 10
-50.50498793162983
 20
-5.455685366115173
 30
0.0
  0
VERTEX
  5
7D1
  8
LAYER_1
 10
-50.60145878730037
 20
-5.908461920161644
 30
0.0
  0
VERTEX
  5
7D2
  8
LAYER_1
 10
-50.71381800135446
 20
-6.35186331184688
 30
0.0
  0
VERTEX
  5
7D3
  8
LAYER_1
 10
-50.84265100278549
 20
-6.784807979780501
 30
0.0
  0
VERTEX
  5
7D4
  8
LAYER_1
 10
-50.98854322058683
 20
-7.206214362572126
 30
0.0
  0
VERTEX
  5
7D5
  8
LAYER_1
 10
-51.15208008375187
 20
-7.615000898831372
 30
0.0
  0
VERTEX
  5
7D6
  8
LAYER_1
 10
-51.333847021274
 20
-8.010086027167858
 30
0.0
  0
VERTEX
  5
7D7
  8
LAYER_1
 10
-51.53442946214656
 20
-8.390388186191206
 30
0.0
  0
VERTEX
  5
7D8
  8
LAYER_1
 10
-51.75441283536298
 20
-8.754825814511031
 30
0.0
  0
VERTEX
  5
7D9
  8
LAYER_1
 10
-51.99438256991661
 20
-9.102317350736953
 30
0.0
  0
VERTEX
  5
7DA
  8
LAYER_1
 10
-52.25492409480086
 20
-9.431781233478592
 30
0.0
  0
VERTEX
  5
7DB
  8
LAYER_1
 10
-52.53662283900909
 20
-9.742135901345563
 30
0.0
  0
VERTEX
  5
7DC
  8
LAYER_1
 10
-52.68558911492013
 20
-9.889809291766554
 30
0.0
  0
VERTEX
  5
7DD
  8
LAYER_1
 10
-52.84006423153469
 20
-10.03229979294749
 30
0.0
  0
VERTEX
  5
7DE
  8
LAYER_1
 10
-53.00012136747694
 20
-10.16947220971456
 30
0.0
  0
VERTEX
  5
7DF
  8
LAYER_1
 10
-53.16583370137104
 20
-10.30119134689398
 30
0.0
  0
VERTEX
  5
7E0
  8
LAYER_1
 10
-53.33727441184118
 20
-10.42732200931195
 30
0.0
  0
VERTEX
  5
7E1
  8
LAYER_1
 10
-53.51451667751152
 20
-10.54772900179467
 30
0.0
  0
VERTEX
  5
7E2
  8
LAYER_1
 10
-53.69763367700624
 20
-10.66227712916834
 30
0.0
  0
VERTEX
  5
7E3
  8
LAYER_1
 10
-53.88669858894951
 20
-10.77083119625916
 30
0.0
 42
-0.4686961870432083
  0
VERTEX
  5
7E4
  8
LAYER_1
 10
-59.01609070607992
 20
-9.103714091120205
 30
0.0
  0
VERTEX
  5
7E5
  8
LAYER_1
 10
-59.07714762456543
 20
-8.928922855754081
 30
0.0
  0
VERTEX
  5
7E6
  8
LAYER_1
 10
-59.1622165871293
 20
-8.768610571270305
 30
0.0
  0
VERTEX
  5
7E7
  8
LAYER_1
 10
-59.26888183048026
 20
-8.624603267142108
 30
0.0
  0
VERTEX
  5
7E8
  8
LAYER_1
 10
-59.39472759132706
 20
-8.498726972842721
 30
0.0
  0
VERTEX
  5
7E9
  8
LAYER_1
 10
-59.53733810637844
 20
-8.392807717845379
 30
0.0
  0
VERTEX
  5
7EA
  8
LAYER_1
 10
-59.69429761234316
 20
-8.308671531623311
 30
0.0
  0
VERTEX
  5
7EB
  8
LAYER_1
 10
-59.86319034592994
 20
-8.248144443649753
 30
0.0
  0
VERTEX
  5
7EC
  8
LAYER_1
 10
-60.04160054384754
 20
-8.213052483397936
 30
0.0
  0
VERTEX
  5
7ED
  8
LAYER_1
 10
-60.1199182849421
 20
-8.209432358688415
 30
0.0
  0
VERTEX
  5
7EE
  8
LAYER_1
 10
-60.19796101409283
 20
-8.216726122769407
 30
0.0
  0
VERTEX
  5
7EF
  8
LAYER_1
 10
-60.27529452070564
 20
-8.23412511222713
 30
0.0
  0
VERTEX
  5
7F0
  8
LAYER_1
 10
-60.35148459418642
 20
-8.260820663647799
 30
0.0
  0
VERTEX
  5
7F1
  8
LAYER_1
 10
-60.42609702394104
 20
-8.296004113617633
 30
0.0
  0
VERTEX
  5
7F2
  8
LAYER_1
 10
-60.4986975993754
 20
-8.338866798722847
 30
0.0
  0
VERTEX
  5
7F3
  8
LAYER_1
 10
-60.63612634490693
 20
-8.444395220684294
 30
0.0
  0
VERTEX
  5
7F4
  8
LAYER_1
 10
-60.76029714602809
 20
-8.570936622221879
 30
0.0
  0
VERTEX
  5
7F5
  8
LAYER_1
 10
-60.86773631798602
 20
-8.712021696025342
 30
0.0
  0
VERTEX
  5
7F6
  8
LAYER_1
 10
-60.95497017602784
 20
-8.861181134784426
 30
0.0
  0
VERTEX
  5
7F7
  8
LAYER_1
 10
-61.01852503540065
 20
-9.011945631188865
 30
0.0
  0
VERTEX
  5
7F8
  8
LAYER_1
 10
-61.10061736398241
 20
-9.272878600210262
 30
0.0
  0
VERTEX
  5
7F9
  8
LAYER_1
 10
-61.17122971566966
 20
-9.536297512365916
 30
0.0
  0
VERTEX
  5
7FA
  8
LAYER_1
 10
-61.23036044885951
 20
-9.801830227632152
 30
0.0
  0
VERTEX
  5
7FB
  8
LAYER_1
 10
-61.27800792194908
 20
-10.06910460598529
 30
0.0
  0
VERTEX
  5
7FC
  8
LAYER_1
 10
-61.31417049333547
 20
-10.33774850740165
 30
0.0
  0
VERTEX
  5
7FD
  8
LAYER_1
 10
-61.33884652141576
 20
-10.60738979185756
 30
0.0
  0
VERTEX
  5
7FE
  8
LAYER_1
 10
-61.35203436458708
 20
-10.87765631932933
 30
0.0
  0
VERTEX
  5
7FF
  8
LAYER_1
 10
-61.35373238124656
 20
-11.1481759497933
 30
0.0
  0
VERTEX
  5
800
  8
LAYER_1
 10
-61.34393892979128
 20
-11.41857654322578
 30
0.0
  0
VERTEX
  5
801
  8
LAYER_1
 10
-61.32265236861835
 20
-11.68848595960309
 30
0.0
  0
VERTEX
  5
802
  8
LAYER_1
 10
-61.28987105612488
 20
-11.95753205890157
 30
0.0
  0
VERTEX
  5
803
  8
LAYER_1
 10
-61.24559335070799
 20
-12.22534270109751
 30
0.0
  0
VERTEX
  5
804
  8
LAYER_1
 10
-61.18981761076478
 20
-12.49154574616727
 30
0.0
  0
VERTEX
  5
805
  8
LAYER_1
 10
-61.12254219469234
 20
-12.75576905408714
 30
0.0
  0
VERTEX
  5
806
  8
LAYER_1
 10
-61.04376546088781
 20
-13.01764048483346
 30
0.0
  0
VERTEX
  5
807
  8
LAYER_1
 10
-60.95348576774827
 20
-13.27678789838255
 30
0.0
 42
0.6581904108544856
  0
VERTEX
  5
808
  8
LAYER_1
 10
-40.68035882977067
 20
-13.95579214989376
 30
0.0
 42
0.3364795153006794
  0
VERTEX
  5
809
  8
LAYER_1
 10
-31.86689722271412
 20
-9.97803121818603
 30
0.0
 42
0.7153402935363501
  0
VERTEX
  5
80A
  8
LAYER_1
 10
-21.85234233016875
 20
5.739957302454858
 30
0.0
 42
0.5005259726848169
  0
VERTEX
  5
80B
  8
LAYER_1
 10
-26.04191097155094
 20
17.40995133639388
 30
0.0
 42
0.1001772510247003
  0
VERTEX
  5
80C
  8
LAYER_1
 10
-28.23459030077389
 20
17.8383060184901
 30
0.0
 42
-0.4527810650887577
  0
VERTEX
  5
80D
  8
LAYER_1
 10
-30.2873818207712
 20
19.62622121332647
 30
0.0
 42
-0.1952562566441968
  0
VERTEX
  5
80E
  8
LAYER_1
 10
-29.46047104315938
 20
21.91077951783962
 30
0.0
 42
-0.247129533678757
  0
VERTEX
  5
80F
  8
LAYER_1
 10
-23.41797987542532
 20
24.10428658557869
 30
0.0
 42
-0.0420221756935238
  0
VERTEX
  5
810
  8
LAYER_1
 10
-18.32195596722633
 20
23.14281656543883
 30
0.0
 42
0.0941374577580932
  0
VERTEX
  5
811
  8
LAYER_1
 10
-9.879023102721213
 20
23.1924808764065
 30
0.0
 42
-0.810386825365678
  0
VERTEX
  5
812
  8
LAYER_1
 10
-9.412252744996096
 20
22.35641464861549
 30
0.0
 42
0.0559935426846408
  0
VERTEX
  5
813
  8
LAYER_1
 10
-13.42871732541186
 20
9.561167417234396
 30
0.0
 42
-0.0987228987228985
  0
VERTEX
  5
814
  8
LAYER_1
 10
-18.3797899926811
 20
-7.060290822883776
 30
0.0
 42
0.0193925471855832
  0
VERTEX
  5
815
  8
LAYER_1
 10
-20.35818204683425
 20
-9.718560134014378
 30
0.0
 42
0.7872269547423031
  0
VERTEX
  5
816
  8
LAYER_1
 10
-18.65304070361067
 20
-11.4071467069154
 30
0.0
  0
VERTEX
  5
817
  8
LAYER_1
 10
-18.43276191983344
 20
-11.32966338305892
 30
0.0
  0
VERTEX
  5
818
  8
LAYER_1
 10
-18.21452611513205
 20
-11.24321313321686
 30
0.0
  0
VERTEX
  5
819
  8
LAYER_1
 10
-17.99834430422888
 20
-11.14798023917803
 30
0.0
  0
VERTEX
  5
81A
  8
LAYER_1
 10
-17.78422750184633
 20
-11.0441489827312
 30
0.0
  0
VERTEX
  5
81B
  8
LAYER_1
 10
-17.57218672270677
 20
-10.93190364566517
 30
0.0
  0
VERTEX
  5
81C
  8
LAYER_1
 10
-17.3622329815326
 20
-10.81142850976873
 30
0.0
  0
VERTEX
  5
81D
  8
LAYER_1
 10
-17.1543772930462
 20
-10.68290785683066
 30
0.0
  0
VERTEX
  5
81E
  8
LAYER_1
 10
-16.94863067196996
 20
-10.54652596863976
 30
0.0
  0
VERTEX
  5
81F
  8
LAYER_1
 10
-16.5435086909375
 20
-10.25091561365461
 30
0.0
  0
VERTEX
  5
820
  8
LAYER_1
 10
-16.14695515621432
 20
-9.926071699123579
 30
0.0
  0
VERTEX
  5
821
  8
LAYER_1
 10
-15.75905818557949
 20
-9.573468479356999
 30
0.0
  0
VERTEX
  5
822
  8
LAYER_1
 10
-15.37990589681213
 20
-9.19458020866518
 30
0.0
  0
VERTEX
  5
823
  8
LAYER_1
 10
-15.00958640769132
 20
-8.79088114135843
 30
0.0
  0
VERTEX
  5
824
  8
LAYER_1
 10
-14.64818783599615
 20
-8.363845531747067
 30
0.0
  0
VERTEX
  5
825
  8
LAYER_1
 10
-14.29579829950572
 20
-7.914947634141406
 30
0.0
  0
VERTEX
  5
826
  8
LAYER_1
 10
-13.95250591599912
 20
-7.445661702851759
 30
0.0
  0
VERTEX
  5
827
  8
LAYER_1
 10
-13.61839880325545
 20
-6.95746199218844
 30
0.0
  0
VERTEX
  5
828
  8
LAYER_1
 10
-13.29356507905378
 20
-6.451822756461764
 30
0.0
  0
VERTEX
  5
829
  8
LAYER_1
 10
-12.97809286117323
 20
-5.930218249982044
 30
0.0
  0
VERTEX
  5
82A
  8
LAYER_1
 10
-12.67207026739288
 20
-5.394122727059595
 30
0.0
  0
VERTEX
  5
82B
  8
LAYER_1
 10
-12.37558541549183
 20
-4.845010442004732
 30
0.0
  0
VERTEX
  5
82C
  8
LAYER_1
 10
-12.08872642324916
 20
-4.284355649127765
 30
0.0
  0
VERTEX
  5
82D
  8
LAYER_1
 10
-11.81158140844397
 20
-3.713632602739012
 30
0.0
  0
VERTEX
  5
82E
  8
LAYER_1
 10
-11.54423848885535
 20
-3.134315557148786
 30
0.0
  0
VERTEX
  5
82F
  8
LAYER_1
 10
-11.2867857822624
 20
-2.5478787666674
 30
0.0
  0
VERTEX
  5
830
  8
LAYER_1
 10
-11.03931140644421
 20
-1.955796485605168
 30
0.0
  0
VERTEX
  5
831
  8
LAYER_1
 10
-10.80190347917987
 20
-1.359542968272405
 30
0.0
  0
VERTEX
  5
832
  8
LAYER_1
 10
-10.57465011824848
 20
-0.7605924689794255
 30
0.0
  0
VERTEX
  5
833
  8
LAYER_1
 10
-10.35763944142912
 20
-0.1604192420365421
 30
0.0
  0
VERTEX
  5
834
  8
LAYER_1
 10
-10.15095956650089
 20
0.4395024582459305
 30
0.0
  0
VERTEX
  5
835
  8
LAYER_1
 10
-9.95469861124289
 20
1.037698377557678
 30
0.0
  0
VERTEX
  5
836
  8
LAYER_1
 10
-9.768944693434202
 20
1.632694261588388
 30
0.0
  0
VERTEX
  5
837
  8
LAYER_1
 10
-9.593785930853922
 20
2.223015856027744
 30
0.0
  0
VERTEX
  5
838
  8
LAYER_1
 10
-9.429310441281148
 20
2.807188906565434
 30
0.0
  0
VERTEX
  5
839
  8
LAYER_1
 10
-9.275606342494967
 20
3.383739158891143
 30
0.0
  0
VERTEX
  5
83A
  8
LAYER_1
 10
-9.132761752274472
 20
3.951192358694557
 30
0.0
 42
-0.0673092859576381
  0
VERTEX
  5
83B
  8
LAYER_1
 10
-6.868767576521384
 20
10.10846757846978
 30
0.0
  0
VERTEX
  5
83C
  8
LAYER_1
 10
-6.990543034136978
 20
8.770624858709857
 30
0.0
  0
VERTEX
  5
83D
  8
LAYER_1
 10
-7.120944212382886
 20
7.435796059873391
 30
0.0
  0
VERTEX
  5
83E
  8
LAYER_1
 10
-7.26099095781344
 20
6.104176966936153
 30
0.0
  0
VERTEX
  5
83F
  8
LAYER_1
 10
-7.41170311698297
 20
4.775963364873905
 30
0.0
  0
VERTEX
  5
840
  8
LAYER_1
 10
-7.574100536445807
 20
3.451351038662415
 30
0.0
  0
VERTEX
  5
841
  8
LAYER_1
 10
-7.749203062756282
 20
2.130535773277448
 30
0.0
  0
VERTEX
  5
842
  8
LAYER_1
 10
-7.938030542468724
 20
0.8137133536947683
 30
0.0
  0
VERTEX
  5
843
  8
LAYER_1
 10
-8.141602822137465
 20
-0.498920435109858
 30
0.0
  0
VERTEX
  5
844
  8
LAYER_1
 10
-8.360939748316834
 20
-1.807169808160665
 30
0.0
  0
VERTEX
  5
845
  8
LAYER_1
 10
-8.597061167561161
 20
-3.110838980481888
 30
0.0
  0
VERTEX
  5
846
  8
LAYER_1
 10
-8.850986926424781
 20
-4.409732167097761
 30
0.0
  0
VERTEX
  5
847
  8
LAYER_1
 10
-9.123736871462018
 20
-5.703653583032519
 30
0.0
  0
VERTEX
  5
848
  8
LAYER_1
 10
-9.416330849227206
 20
-6.992407443310397
 30
0.0
  0
VERTEX
  5
849
  8
LAYER_1
 10
-9.729788706274675
 20
-8.275797962955629
 30
0.0
  0
VERTEX
  5
84A
  8
LAYER_1
 10
-10.06513028915876
 20
-9.553629356992449
 30
0.0
  0
VERTEX
  5
84B
  8
LAYER_1
 10
-10.42337544443378
 20
-10.82570584044509
 30
0.0
  0
VERTEX
  5
84C
  8
LAYER_1
 10
-10.80554401865408
 20
-12.09183162833779
 30
0.0
  0
VERTEX
  5
84D
  8
LAYER_1
 10
-11.21265585837399
 20
-13.35181093569479
 30
0.0
  0
VERTEX
  5
84E
  8
LAYER_1
 10
-11.64573081014782
 20
-14.60544797754031
 30
0.0
  0
VERTEX
  5
84F
  8
LAYER_1
 10
-12.10578872052992
 20
-15.85254696889859
 30
0.0
  0
VERTEX
  5
850
  8
LAYER_1
 10
-12.59384943607461
 20
-17.09291212479387
 30
0.0
  0
VERTEX
  5
851
  8
LAYER_1
 10
-12.84869954783117
 20
-17.71050833163795
 30
0.0
  0
VERTEX
  5
852
  8
LAYER_1
 10
-13.11093280333624
 20
-18.32634766025038
 30
0.0
  0
VERTEX
  5
853
  8
LAYER_1
 10
-13.38067668340912
 20
-18.94040563750917
 30
0.0
  0
VERTEX
  5
854
  8
LAYER_1
 10
-13.65805866886911
 20
-19.55265779029235
 30
0.0
  0
VERTEX
  5
855
  8
LAYER_1
 10
-13.9432062405355
 20
-20.16307964547796
 30
0.0
  0
VERTEX
  5
856
  8
LAYER_1
 10
-14.23624687922758
 20
-20.77164672994402
 30
0.0
  0
VERTEX
  5
857
  8
LAYER_1
 10
-14.53730806576463
 20
-21.37833457056857
 30
0.0
  0
VERTEX
  5
858
  8
LAYER_1
 10
-14.84651728096596
 20
-21.98311869422963
 30
0.0
  0
VERTEX
  5
859
  8
LAYER_1
 10
-15.16400200565085
 20
-22.58597462780523
 30
0.0
  0
VERTEX
  5
85A
  8
LAYER_1
 10
-15.48988972063859
 20
-23.18687789817341
 30
0.0
  0
VERTEX
  5
85B
  8
LAYER_1
 10
-15.82430790674847
 20
-23.78580403221218
 30
0.0
  0
VERTEX
  5
85C
  8
LAYER_1
 10
-16.16738404479979
 20
-24.38272855679958
 30
0.0
  0
VERTEX
  5
85D
  8
LAYER_1
 10
-16.51924561561184
 20
-24.97762699881365
 30
0.0
  0
VERTEX
  5
85E
  8
LAYER_1
 10
-16.88002010000391
 20
-25.57047488513241
 30
0.0
  0
VERTEX
  5
85F
  8
LAYER_1
 10
-17.24983497879528
 20
-26.16124774263388
 30
0.0
  0
VERTEX
  5
860
  8
LAYER_1
 10
-17.62881773280526
 20
-26.7499210981961
 30
0.0
  0
VERTEX
  5
861
  8
LAYER_1
 10
-18.01709584285313
 20
-27.33647047869709
 30
0.0
  0
VERTEX
  5
862
  8
LAYER_1
 10
-18.41479678975819
 20
-27.9208714110149
 30
0.0
  0
VERTEX
  5
863
  8
LAYER_1
 10
-18.82204805433972
 20
-28.50309942202753
 30
0.0
  0
VERTEX
  5
864
  8
LAYER_1
 10
-19.23897711741701
 20
-29.08313003861304
 30
0.0
  0
VERTEX
  5
865
  8
LAYER_1
 10
-19.66571145980937
 20
-29.66093878764943
 30
0.0
  0
VERTEX
  5
866
  8
LAYER_1
 10
-20.10237856233607
 20
-30.23650119601475
 30
0.0
 42
-0.0754379578369614
  0
VERTEX
  5
867
  8
LAYER_1
 10
-22.82187521256416
 20
-33.33876502154368
 30
0.0
 42
0.097404263750828
  0
VERTEX
  5
868
  8
LAYER_1
 10
-28.11770420515426
 20
-40.13648675140499
 30
0.0
 42
0.1479344307665112
  0
VERTEX
  5
869
  8
LAYER_1
 10
-28.78967286853536
 20
-44.40196040566601
 30
0.0
 42
0.485114425250944
  0
VERTEX
  5
86A
  8
LAYER_1
 10
-27.78319042788844
 20
-44.90502883557423
 30
0.0
 42
0.2917789872155177
  0
VERTEX
  5
86B
  8
LAYER_1
 10
-23.53899701200003
 20
-55.72771588331775
 30
0.0
 42
0.2563309395429969
  0
VERTEX
  5
86C
  8
LAYER_1
 10
-17.70493897796065
 20
-67.71918704408307
 30
0.0
 42
0.2633603900707325
  0
VERTEX
  5
86D
  8
LAYER_1
 10
-10.38172072045533
 20
-77.62007921729192
 30
0.0
  0
VERTEX
  5
86E
  8
LAYER_1
 10
-10.30578363234873
 20
-78.05685581313145
 30
0.0
  0
VERTEX
  5
86F
  8
LAYER_1
 10
-10.21065992994873
 20
-78.48495993234164
 30
0.0
  0
VERTEX
  5
870
  8
LAYER_1
 10
-10.09687833586911
 20
-78.90404242893179
 30
0.0
  0
VERTEX
  5
871
  8
LAYER_1
 10
-9.964967572723655
 20
-79.31375415691119
 30
0.0
  0
VERTEX
  5
872
  8
LAYER_1
 10
-9.815456363126133
 20
-79.71374597028918
 30
0.0
  0
VERTEX
  5
873
  8
LAYER_1
 10
-9.648873429690328
 20
-80.10366872307509
 30
0.0
  0
VERTEX
  5
874
  8
LAYER_1
 10
-9.465747495030019
 20
-80.48317326927821
 30
0.0
  0
VERTEX
  5
875
  8
LAYER_1
 10
-9.266607281758986
 20
-80.85191046290785
 30
0.0
  0
VERTEX
  5
876
  8
LAYER_1
 10
-9.051981512491007
 20
-81.20953115797333
 30
0.0
  0
VERTEX
  5
877
  8
LAYER_1
 10
-8.82239890983986
 20
-81.55568620848399
 30
0.0
  0
VERTEX
  5
878
  8
LAYER_1
 10
-8.578388196419326
 20
-81.89002646844911
 30
0.0
  0
VERTEX
  5
879
  8
LAYER_1
 10
-8.320478094843184
 20
-82.21220279187801
 30
0.0
  0
VERTEX
  5
87A
  8
LAYER_1
 10
-8.04919732772521
 20
-82.52186603278001
 30
0.0
  0
VERTEX
  5
87B
  8
LAYER_1
 10
-7.765074617679185
 20
-82.81866704516443
 30
0.0
  0
VERTEX
  5
87C
  8
LAYER_1
 10
-7.468638687318889
 20
-83.1022566830406
 30
0.0
  0
VERTEX
  5
87D
  8
LAYER_1
 10
-7.160418259258098
 20
-83.37228580041779
 30
0.0
  0
VERTEX
  5
87E
  8
LAYER_1
 10
-6.840942056110594
 20
-83.62840525130534
 30
0.0
  0
VERTEX
  5
87F
  8
LAYER_1
 10
-6.510738800490154
 20
-83.87026588971256
 30
0.0
  0
VERTEX
  5
880
  8
LAYER_1
 10
-6.170337215010557
 20
-84.09751856964877
 30
0.0
  0
VERTEX
  5
881
  8
LAYER_1
 10
-5.820266022285584
 20
-84.30981414512328
 30
0.0
  0
VERTEX
  5
882
  8
LAYER_1
 10
-5.461053944929013
 20
-84.50680347014541
 30
0.0
  0
VERTEX
  5
883
  8
LAYER_1
 10
-5.09322970555462
 20
-84.68813739872446
 30
0.0
  0
VERTEX
  5
884
  8
LAYER_1
 10
-4.717322026776188
 20
-84.85346678486977
 30
0.0
  0
VERTEX
  5
885
  8
LAYER_1
 10
-4.333859631207494
 20
-85.00244248259061
 30
0.0
  0
VERTEX
  5
886
  8
LAYER_1
 10
-3.943371241462317
 20
-85.13471534589632
 30
0.0
  0
VERTEX
  5
887
  8
LAYER_1
 10
-3.546385580154437
 20
-85.24993622879626
 30
0.0
  0
VERTEX
  5
888
  8
LAYER_1
 10
-3.143431369897632
 20
-85.34775598529967
 30
0.0
  0
VERTEX
  5
889
  8
LAYER_1
 10
-2.735037333305681
 20
-85.4278254694159
 30
0.0
  0
VERTEX
  5
88A
  8
LAYER_1
 10
-2.321732192992364
 20
-85.48979553515424
 30
0.0
  0
VERTEX
  5
88B
  8
LAYER_1
 10
-1.904044671571458
 20
-85.53331703652404
 30
0.0
  0
VERTEX
  5
88C
  8
LAYER_1
 10
-1.482503491656744
 20
-85.55804082753458
 30
0.0
  0
SEQEND
  5
88D
  8
LAYER_1
  0
ENDSEC
  0
EOF
