  0
SECTION
  2
HEADER
  9
$ACADVER
  1
AC1021
  9
$ACADMAINTVER
 70
    25
  9
$DWGCODEPAGE
  3
ANSI_1252
  9
$INSBASE
 10
0.0
 20
0.0
 30
0.0
  9
$EXTMIN
 10
-187.434
 20
-106.5349
 30
0.0
  9
$EXTMAX
 10
-79.9747
 20
122.9474
 30
0.0
  9
$LIMMIN
 10
0.0
 20
0.0
  9
$LIMMAX
 10
12.0
 20
9.0
  9
$ORTHOMODE
 70
     0
  9
$REGENMODE
 70
     1
  9
$FILLMODE
 70
     1
  9
$QTEXTMODE
 70
     0
  9
$MIRRTEXT
 70
     1
  9
$LTSCALE
 40
1.0
  9
$ATTMODE
 70
     1
  9
$TEXTSIZE
 40
0.2
  9
$TRACEWID
 40
0.05
  9
$TEXTSTYLE
  7
Standard
  9
$CLAYER
  8
0
  9
$CELTYPE
  6
ByLayer
  9
$CECOLOR
 62
   256
  9
$CELTSCALE
 40
1.0
  9
$DISPSILH
 70
     0
  9
$DIMSCALE
 40
1.0
  9
$DIMASZ
 40
0.18
  9
$DIMEXO
 40
0.0625
  9
$DIMDLI
 40
0.38
  9
$DIMRND
 40
0.0
  9
$DIMDLE
 40
0.0
  9
$DIMEXE
 40
0.18
  9
$DIMTP
 40
0.0
  9
$DIMTM
 40
0.0
  9
$DIMTXT
 40
0.18
  9
$DIMCEN
 40
0.09
  9
$DIMTSZ
 40
0.0
  9
$DIMTOL
 70
     0
  9
$DIMLIM
 70
     0
  9
$DIMTIH
 70
     1
  9
$DIMTOH
 70
     1
  9
$DIMSE1
 70
     0
  9
$DIMSE2
 70
     0
  9
$DIMTAD
 70
     0
  9
$DIMZIN
 70
     0
  9
$DIMBLK
  1

  9
$DIMASO
 70
     1
  9
$DIMSHO
 70
     1
  9
$DIMPOST
  1

  9
$DIMAPOST
  1

  9
$DIMALT
 70
     0
  9
$DIMALTD
 70
     2
  9
$DIMALTF
 40
25.4
  9
$DIMLFAC
 40
1.0
  9
$DIMTOFL
 70
     0
  9
$DIMTVP
 40
0.0
  9
$DIMTIX
 70
     0
  9
$DIMSOXD
 70
     0
  9
$DIMSAH
 70
     0
  9
$DIMBLK1
  1

  9
$DIMBLK2
  1

  9
$DIMSTYLE
  2
Standard
  9
$DIMCLRD
 70
     0
  9
$DIMCLRE
 70
     0
  9
$DIMCLRT
 70
     0
  9
$DIMTFAC
 40
1.0
  9
$DIMGAP
 40
0.09
  9
$DIMJUST
 70
     0
  9
$DIMSD1
 70
     0
  9
$DIMSD2
 70
     0
  9
$DIMTOLJ
 70
     1
  9
$DIMTZIN
 70
     0
  9
$DIMALTZ
 70
     0
  9
$DIMALTTZ
 70
     0
  9
$DIMUPT
 70
     0
  9
$DIMDEC
 70
     4
  9
$DIMTDEC
 70
     4
  9
$DIMALTU
 70
     2
  9
$DIMALTTD
 70
     2
  9
$DIMTXSTY
  7
Standard
  9
$DIMAUNIT
 70
     0
  9
$DIMADEC
 70
     0
  9
$DIMALTRND
 40
0.0
  9
$DIMAZIN
 70
     0
  9
$DIMDSEP
 70
    46
  9
$DIMATFIT
 70
     3
  9
$DIMFRAC
 70
     0
  9
$DIMLDRBLK
  1

  9
$DIMLUNIT
 70
     2
  9
$DIMLWD
 70
    -2
  9
$DIMLWE
 70
    -2
  9
$DIMTMOVE
 70
     0
  9
$DIMFXL
 40
1.0
  9
$DIMFXLON
 70
     0
  9
$DIMJOGANG
 40
0.7853981633974483
  9
$DIMTFILL
 70
     0
  9
$DIMTFILLCLR
 70
     0
  9
$DIMARCSYM
 70
     0
  9
$DIMLTYPE
  6

  9
$DIMLTEX1
  6

  9
$DIMLTEX2
  6

  9
$LUNITS
 70
     2
  9
$LUPREC
 70
     4
  9
$SKETCHINC
 40
0.1
  9
$FILLETRAD
 40
0.5
  9
$AUNITS
 70
     0
  9
$AUPREC
 70
     0
  9
$MENU
  1
.
  9
$ELEVATION
 40
0.0
  9
$PELEVATION
 40
0.0
  9
$THICKNESS
 40
0.0
  9
$LIMCHECK
 70
     0
  9
$CHAMFERA
 40
0.5
  9
$CHAMFERB
 40
0.5
  9
$CHAMFERC
 40
1.0
  9
$CHAMFERD
 40
0.0
  9
$SKPOLY
 70
     0
  9
$TDCREATE
 40
2458492.796234167
  9
$TDUCREATE
 40
2458492.796234167
  9
$TDUPDATE
 40
2458492.796234468
  9
$TDUUPDATE
 40
2458492.796234468
  9
$TDINDWG
 40
0.0000000116
  9
$TDUSRTIMER
 40
0.0000000116
  9
$USRTIMER
 70
     1
  9
$ANGBASE
 50
0.0
  9
$ANGDIR
 70
     0
  9
$PDMODE
 70
     0
  9
$PDSIZE
 40
0.0
  9
$PLINEWID
 40
0.0
  9
$SPLFRAME
 70
     0
  9
$SPLINETYPE
 70
     6
  9
$SPLINESEGS
 70
     8
  9
$HANDSEED
  5
DA
  9
$SURFTAB1
 70
     6
  9
$SURFTAB2
 70
     6
  9
$SURFTYPE
 70
     6
  9
$SURFU
 70
     6
  9
$SURFV
 70
     6
  9
$UCSBASE
  2

  9
$UCSNAME
  2

  9
$UCSORG
 10
0.0
 20
0.0
 30
0.0
  9
$UCSXDIR
 10
1.0
 20
0.0
 30
0.0
  9
$UCSYDIR
 10
0.0
 20
1.0
 30
0.0
  9
$UCSORTHOREF
  2

  9
$UCSORTHOVIEW
 70
     0
  9
$UCSORGTOP
 10
0.0
 20
0.0
 30
0.0
  9
$UCSORGBOTTOM
 10
0.0
 20
0.0
 30
0.0
  9
$UCSORGLEFT
 10
0.0
 20
0.0
 30
0.0
  9
$UCSORGRIGHT
 10
0.0
 20
0.0
 30
0.0
  9
$UCSORGFRONT
 10
0.0
 20
0.0
 30
0.0
  9
$UCSORGBACK
 10
0.0
 20
0.0
 30
0.0
  9
$PUCSBASE
  2

  9
$PUCSNAME
  2

  9
$PUCSORG
 10
0.0
 20
0.0
 30
0.0
  9
$PUCSXDIR
 10
1.0
 20
0.0
 30
0.0
  9
$PUCSYDIR
 10
0.0
 20
1.0
 30
0.0
  9
$PUCSORTHOREF
  2

  9
$PUCSORTHOVIEW
 70
     0
  9
$PUCSORGTOP
 10
0.0
 20
0.0
 30
0.0
  9
$PUCSORGBOTTOM
 10
0.0
 20
0.0
 30
0.0
  9
$PUCSORGLEFT
 10
0.0
 20
0.0
 30
0.0
  9
$PUCSORGRIGHT
 10
0.0
 20
0.0
 30
0.0
  9
$PUCSORGFRONT
 10
0.0
 20
0.0
 30
0.0
  9
$PUCSORGBACK
 10
0.0
 20
0.0
 30
0.0
  9
$USERI1
 70
     0
  9
$USERI2
 70
     0
  9
$USERI3
 70
     0
  9
$USERI4
 70
     0
  9
$USERI5
 70
     0
  9
$USERR1
 40
0.0
  9
$USERR2
 40
0.0
  9
$USERR3
 40
0.0
  9
$USERR4
 40
0.0
  9
$USERR5
 40
0.0
  9
$WORLDVIEW
 70
     1
  9
$SHADEDGE
 70
     3
  9
$SHADEDIF
 70
    70
  9
$TILEMODE
 70
     1
  9
$MAXACTVP
 70
    64
  9
$PINSBASE
 10
0.0
 20
0.0
 30
0.0
  9
$PLIMCHECK
 70
     0
  9
$PEXTMIN
 10
1.000000000000000E+20
 20
1.000000000000000E+20
 30
1.000000000000000E+20
  9
$PEXTMAX
 10
-1.000000000000000E+20
 20
-1.000000000000000E+20
 30
-1.000000000000000E+20
  9
$PLIMMIN
 10
0.0
 20
0.0
  9
$PLIMMAX
 10
12.0
 20
9.0
  9
$UNITMODE
 70
     0
  9
$VISRETAIN
 70
     1
  9
$PLINEGEN
 70
     0
  9
$PSLTSCALE
 70
     1
  9
$TREEDEPTH
 70
  3020
  9
$CMLSTYLE
  2
Standard
  9
$CMLJUST
 70
     0
  9
$CMLSCALE
 40
1.0
  9
$PROXYGRAPHICS
 70
     1
  9
$MEASUREMENT
 70
     0
  9
$CELWEIGHT
370
    -1
  9
$ENDCAPS
280
     0
  9
$JOINSTYLE
280
     0
  9
$LWDISPLAY
290
     0
  9
$INSUNITS
 70
     4
  9
$HYPERLINKBASE
  1

  9
$STYLESHEET
  1

  9
$XEDIT
290
     1
  9
$CEPSNTYPE
380
     0
  9
$PSTYLEMODE
290
     1
  9
$FINGERPRINTGUID
  2
{43CD571F-A156-4CBA-91EE-7211BFD3B1A5}
  9
$VERSIONGUID
  2
{FAEB1C32-E019-11D5-929B-00C0DF256EC4}
  9
$EXTNAMES
290
     1
  9
$PSVPSCALE
 40
0.0
  9
$OLESTARTUP
290
     0
  9
$SORTENTS
280
   127
  9
$INDEXCTL
280
     0
  9
$HIDETEXT
280
     1
  9
$XCLIPFRAME
290
     0
  9
$HALOGAP
280
     0
  9
$OBSCOLOR
 70
   257
  9
$OBSLTYPE
280
     0
  9
$INTERSECTIONDISPLAY
280
     0
  9
$INTERSECTIONCOLOR
 70
   257
  9
$DIMASSOC
280
     2
  9
$PROJECTNAME
  1

  9
$CAMERADISPLAY
290
     0
  9
$LENSLENGTH
 40
50.0
  9
$CAMERAHEIGHT
 40
0.0
  9
$STEPSPERSEC
 40
2.0
  9
$STEPSIZE
 40
6.0
  9
$3DDWFPREC
 40
2.0
  9
$PSOLWIDTH
 40
0.25
  9
$PSOLHEIGHT
 40
4.0
  9
$LOFTANG1
 40
1.570796326794897
  9
$LOFTANG2
 40
1.570796326794897
  9
$LOFTMAG1
 40
0.0
  9
$LOFTMAG2
 40
0.0
  9
$LOFTPARAM
 70
     7
  9
$LOFTNORMALS
280
     1
  9
$LATITUDE
 40
37.795
  9
$LONGITUDE
 40
-122.394
  9
$NORTHDIRECTION
 40
0.0
  9
$TIMEZONE
 70
 -8000
  9
$LIGHTGLYPHDISPLAY
280
     1
  9
$TILEMODELIGHTSYNCH
280
     1
  9
$SOLIDHIST
280
     1
  9
$SHOWHIST
280
     1
  9
$DWFFRAME
280
     2
  9
$DGNFRAME
280
     2
  9
$REALWORLDSCALE
290
     1
  9
$INTERFERECOLOR
 62
   256
  9
$CSHADOW
280
     0
  9
$SHADOWPLANELOCATION
 40
0.0
  0
ENDSEC
  0
SECTION
  2
CLASSES
  0
CLASS
  1
ACDBDICTIONARYWDFLT
  2
AcDbDictionaryWithDefault
  3
ObjectDBX Classes
 90
        0
 91
        4
280
     0
281
     0
  0
CLASS
  1
VISUALSTYLE
  2
AcDbVisualStyle
  3
ObjectDBX Classes
 90
     4095
 91
        4
280
     0
281
     0
  0
CLASS
  1
MATERIAL
  2
AcDbMaterial
  3
ObjectDBX Classes
 90
     1153
 91
        4
280
     0
281
     0
  0
ENDSEC
  0
SECTION
  2
TABLES
  0
TABLE
  2
VPORT
  5
8
330
0
100
AcDbSymbolTable
 70
     1
  0
VPORT
  5
29
330
8
100
AcDbSymbolTableRecord
100
AcDbViewportTableRecord
  2
*Active
 70
     0
 10
0.0
 20
0.0
 11
1.0
 21
1.0
 12
10.42990654205607
 22
4.5
 13
0.0
 23
0.0
 14
0.5
 24
0.5
 15
0.5
 25
0.5
 16
0.0
 26
0.0
 36
1.0
 17
0.0
 27
0.0
 37
0.0
 40
9.0
 41
1.972972972850329
 42
50.0
 43
0.0
 44
0.0
 50
0.0
 51
0.0
 71
     0
 72
   100
 73
     1
 74
     3
 75
     0
 76
     0
 77
     0
 78
     0
281
     0
 65
     1
110
0.0
120
0.0
130
0.0
111
1.0
121
0.0
131
0.0
112
0.0
122
1.0
132
0.0
 79
     0
146
0.0
 60
     3
 61
     5
292
     1
282
     1
141
0.0
142
0.0
 63
   250
  0
ENDTAB
  0
TABLE
  2
LTYPE
  5
5
330
0
100
AcDbSymbolTable
 70
     1
  0
LTYPE
  5
14
330
5
100
AcDbSymbolTableRecord
100
AcDbLinetypeTableRecord
  2
ByBlock
 70
     0
  3

 72
    65
 73
     0
 40
0.0
  0
LTYPE
  5
15
330
5
100
AcDbSymbolTableRecord
100
AcDbLinetypeTableRecord
  2
ByLayer
 70
     0
  3

 72
    65
 73
     0
 40
0.0
  0
LTYPE
  5
16
330
5
100
AcDbSymbolTableRecord
100
AcDbLinetypeTableRecord
  2
Continuous
 70
     0
  3
Solid line
 72
    65
 73
     0
 40
0.0
  0
ENDTAB
  0
TABLE
  2
LAYER
  5
2
330
0
100
AcDbSymbolTable
 70
     2
  0
LAYER
  5
10
330
2
100
AcDbSymbolTableRecord
100
AcDbLayerTableRecord
  2
0
 70
     0
 62
     7
  6
Continuous
370
    -3
390
F
347
3E
  0
LAYER
  5
40
330
2
100
AcDbSymbolTableRecord
100
AcDbLayerTableRecord
  2
layer 1
 70
     0
 62
     7
  6
Continuous
370
    -3
390
F
347
3E
  0
ENDTAB
  0
TABLE
  2
STYLE
  5
3
330
0
100
AcDbSymbolTable
 70
     1
  0
STYLE
  5
11
330
3
100
AcDbSymbolTableRecord
100
AcDbTextStyleTableRecord
  2
Standard
 70
     0
 40
0.0
 41
1.0
 50
0.0
 71
     0
 42
0.2
  3
txt
  4

  0
ENDTAB
  0
TABLE
  2
VIEW
  5
6
330
0
100
AcDbSymbolTable
 70
     0
  0
ENDTAB
  0
TABLE
  2
UCS
  5
7
330
0
100
AcDbSymbolTable
 70
     0
  0
ENDTAB
  0
TABLE
  2
APPID
  5
9
330
0
100
AcDbSymbolTable
 70
     2
  0
APPID
  5
12
330
9
100
AcDbSymbolTableRecord
100
AcDbRegAppTableRecord
  2
ACAD
 70
     0
  0
APPID
  5
3F
330
9
100
AcDbSymbolTableRecord
100
AcDbRegAppTableRecord
  2
ODA
 70
     0
  0
ENDTAB
  0
TABLE
  2
DIMSTYLE
  5
A
330
0
100
AcDbSymbolTable
 70
     1
100
AcDbDimStyleTable
  0
DIMSTYLE
105
27
330
A
100
AcDbSymbolTableRecord
100
AcDbDimStyleTableRecord
  2
Standard
 70
     0
178
     0
340
11
  0
ENDTAB
  0
TABLE
  2
BLOCK_RECORD
  5
1
330
0
100
AcDbSymbolTable
 70
     1
  0
BLOCK_RECORD
  5
1F
330
1
100
AcDbSymbolTableRecord
100
AcDbBlockTableRecord
  2
*Model_Space
340
22
 70
     0
280
     1
281
     0
  0
BLOCK_RECORD
  5
1B
330
1
100
AcDbSymbolTableRecord
100
AcDbBlockTableRecord
  2
*Paper_Space
340
1E
 70
     0
280
     1
281
     0
  0
BLOCK_RECORD
  5
23
330
1
100
AcDbSymbolTableRecord
100
AcDbBlockTableRecord
  2
*Paper_Space0
340
26
 70
     0
280
     1
281
     0
  0
ENDTAB
  0
ENDSEC
  0
SECTION
  2
BLOCKS
  0
BLOCK
  5
20
330
1F
100
AcDbEntity
  8
0
100
AcDbBlockBegin
  2
*Model_Space
 70
     0
 10
0.0
 20
0.0
 30
0.0
  3
*Model_Space
  1

  0
ENDBLK
  5
21
330
1F
100
AcDbEntity
  8
0
100
AcDbBlockEnd
  0
BLOCK
  5
1C
330
1B
100
AcDbEntity
 67
     1
  8
0
100
AcDbBlockBegin
  2
*Paper_Space
 70
     0
 10
0.0
 20
0.0
 30
0.0
  3
*Paper_Space
  1

  0
ENDBLK
  5
1D
330
1B
100
AcDbEntity
 67
     1
  8
0
100
AcDbBlockEnd
  0
BLOCK
  5
24
330
23
100
AcDbEntity
  8
0
100
AcDbBlockBegin
  2
*Paper_Space0
 70
     0
 10
0.0
 20
0.0
 30
0.0
  3
*Paper_Space0
  1

  0
ENDBLK
  5
25
330
23
100
AcDbEntity
  8
0
100
AcDbBlockEnd
  0
ENDSEC
  0
SECTION
  2
ENTITIES
  0
SPLINE
  5
41
330
1F
100
AcDbEntity
  8
layer 1
 62
   250
370
     9
100
AcDbSpline
210
0.0
220
0.0
230
1.0
 70
    11
 71
     3
 72
    24
 73
    20
 74
     0
 42
0.0000000001
 43
0.0000000001
 12
1.0
 22
0.0
 32
0.0
 13
1.0
 23
0.0
 33
0.0
 40
0.0
 40
0.0
 40
0.0
 40
0.0
 40
0.1666666666666667
 40
0.1666666666666667
 40
0.1666666666666667
 40
0.1666666666666667
 40
0.3333333333333333
 40
0.3333333333333333
 40
0.3333333333333333
 40
0.3333333333333333
 40
0.5
 40
0.5
 40
0.5
 40
0.5
 40
0.6666666666666666
 40
0.6666666666666666
 40
0.6666666666666666
 40
0.6666666666666666
 40
1.0
 40
1.0
 40
1.0
 40
1.0
 10
-133.8448
 20
-106.4968
 30
0.0
 10
-133.8448
 20
-106.4968
 30
0.0
 10
-80.0128
 20
-106.4968
 30
0.0
 10
-80.0128
 20
-106.4968
 30
0.0
 10
-80.0128
 20
-106.4968
 30
0.0
 10
-80.0128
 20
-106.4968
 30
0.0
 10
-80.0128
 20
122.9093
 30
0.0
 10
-80.0128
 20
122.9093
 30
0.0
 10
-80.0128
 20
122.9093
 30
0.0
 10
-80.0128
 20
122.9093
 30
0.0
 10
-187.3959
 20
122.9093
 30
0.0
 10
-187.3959
 20
122.9093
 30
0.0
 10
-187.3959
 20
122.9093
 30
0.0
 10
-187.3959
 20
122.9093
 30
0.0
 10
-187.3959
 20
-106.4968
 30
0.0
 10
-187.3959
 20
-106.4968
 30
0.0
 10
-187.3959
 20
-106.4968
 30
0.0
 10
-187.3959
 20
-106.4968
 30
0.0
 10
-133.8448
 20
-106.4968
 30
0.0
 10
-133.8448
 20
-106.4968
 30
0.0
  0
SPLINE
  5
42
330
1F
100
AcDbEntity
  8
layer 1
 62
     7
370
     9
100
AcDbSpline
210
0.0
220
0.0
230
1.0
 70
    11
 71
     3
 72
    40
 73
    36
 74
     0
 42
0.0000000001
 43
0.0000000001
 12
1.0
 22
0.0
 32
0.0
 13
1.0
 23
0.0
 33
0.0
 40
0.0
 40
0.0
 40
0.0
 40
0.0
 40
0.1
 40
0.1
 40
0.1
 40
0.1
 40
0.2
 40
0.2
 40
0.2
 40
0.2
 40
0.3
 40
0.3
 40
0.3
 40
0.3
 40
0.4
 40
0.4
 40
0.4
 40
0.4
 40
0.5
 40
0.5
 40
0.5
 40
0.5
 40
0.6
 40
0.6
 40
0.6
 40
0.6
 40
0.7
 40
0.7
 40
0.7
 40
0.7
 40
0.8
 40
0.8
 40
0.8
 40
0.8
 40
1.0
 40
1.0
 40
1.0
 40
1.0
 10
-179.884
 20
-10.8142
 30
0.0
 10
-180.265
 20
-8.1966
 30
0.0
 10
-180.2184
 20
-5.4817
 30
0.0
 10
-179.7496
 20
-2.8953
 30
0.0
 10
-179.7496
 20
-2.8953
 30
0.0
 10
-179.1351
 20
-2.9258
 30
0.0
 10
-178.54
 20
-3.2206
 30
0.0
 10
-178.0359
 20
-3.742
 30
0.0
 10
-178.0359
 20
-3.742
 30
0.0
 10
-177.9081
 20
-1.0802
 30
0.0
 10
-176.4416
 20
1.0074
 30
0.0
 10
-174.6418
 20
1.0893
 30
0.0
 10
-174.6418
 20
1.0893
 30
0.0
 10
-175.1816
 20
1.2765
 30
0.0
 10
-175.6297
 20
1.83
 30
0.0
 10
-175.8514
 20
2.5834
 30
0.0
 10
-175.8514
 20
2.5834
 30
0.0
 10
-175.8514
 20
2.5834
 30
0.0
 10
-175.8514
 20
5.7215
 30
0.0
 10
-175.8514
 20
5.7215
 30
0.0
 10
-175.8514
 20
5.7215
 30
0.0
 10
-176.4946
 20
6.915
 30
0.0
 10
-177.4675
 20
7.6137
 30
0.0
 10
-178.4983
 20
7.6233
 30
0.0
 10
-178.4983
 20
7.6233
 30
0.0
 10
-179.529
 20
7.6331
 30
0.0
 10
-180.5079
 20
6.9519
 30
0.0
 10
-181.1614
 20
5.7704
 30
0.0
 10
-181.1614
 20
5.7704
 30
0.0
 10
-182.0172
 20
2.837
 30
0.0
 10
-182.2285
 20
-0.4206
 30
0.0
 10
-181.7662
 20
-3.5428
 30
0.0
 10
-181.7662
 20
-3.5428
 30
0.0
 10
-181.2937
 20
-6.0487
 30
0.0
 10
-180.6633
 20
-8.4832
 30
0.0
 10
-179.884
 20
-10.8142
 30
0.0
  0
SPLINE
  5
43
330
1F
100
AcDbEntity
  8
layer 1
 62
     7
370
     9
100
AcDbSpline
210
0.0
220
0.0
230
1.0
 70
    11
 71
     3
 72
    48
 73
    44
 74
     0
 42
0.0000000001
 43
0.0000000001
 12
1.0
 22
0.0
 32
0.0
 13
1.0
 23
0.0
 33
0.0
 40
0.0
 40
0.0
 40
0.0
 40
0.0
 40
0.0833333333333333
 40
0.0833333333333333
 40
0.0833333333333333
 40
0.0833333333333333
 40
0.1666666666666667
 40
0.1666666666666667
 40
0.1666666666666667
 40
0.1666666666666667
 40
0.25
 40
0.25
 40
0.25
 40
0.25
 40
0.3333333333333333
 40
0.3333333333333333
 40
0.3333333333333333
 40
0.3333333333333333
 40
0.4166666666666667
 40
0.4166666666666667
 40
0.4166666666666667
 40
0.4166666666666667
 40
0.5
 40
0.5
 40
0.5
 40
0.5
 40
0.5833333333333334
 40
0.5833333333333334
 40
0.5833333333333334
 40
0.5833333333333334
 40
0.6666666666666666
 40
0.6666666666666666
 40
0.6666666666666666
 40
0.6666666666666666
 40
0.75
 40
0.75
 40
0.75
 40
0.75
 40
0.8333333333333334
 40
0.8333333333333334
 40
0.8333333333333334
 40
0.8333333333333334
 40
1.0
 40
1.0
 40
1.0
 40
1.0
 10
-165.938
 20
2.7327
 30
0.0
 10
-165.938
 20
2.7327
 30
0.0
 10
-170.2732
 20
2.7327
 30
0.0
 10
-170.2732
 20
2.7327
 30
0.0
 10
-170.2732
 20
2.7327
 30
0.0
 10
-169.9561
 20
1.9311
 30
0.0
 10
-169.6752
 20
1.0989
 30
0.0
 10
-169.4331
 20
0.2419
 30
0.0
 10
-169.4331
 20
0.2419
 30
0.0
 10
-169.3274
 20
-0.3098
 30
0.0
 10
-169.413
 20
-0.9033
 30
0.0
 10
-169.6623
 20
-1.3421
 30
0.0
 10
-169.6623
 20
-1.3421
 30
0.0
 10
-169.9117
 20
-1.7813
 30
0.0
 10
-170.2916
 20
-2.0087
 30
0.0
 10
-170.6763
 20
-1.9493
 30
0.0
 10
-170.6763
 20
-1.9493
 30
0.0
 10
-172.6062
 20
-1.5668
 30
0.0
 10
-174.502
 20
-2.942
 30
0.0
 10
-175.4818
 20
-5.4351
 30
0.0
 10
-175.4818
 20
-5.4351
 30
0.0
 10
-176.4253
 20
-8.5862
 30
0.0
 10
-176.5094
 20
-12.1555
 30
0.0
 10
-175.717
 20
-15.3965
 30
0.0
 10
-175.717
 20
-15.3965
 30
0.0
 10
-174.7284
 20
-19.451
 30
0.0
 10
-172.6993
 20
-22.7626
 30
0.0
 10
-170.0714
 20
-24.61
 30
0.0
 10
-170.0714
 20
-24.61
 30
0.0
 10
-170.6308
 20
-22.6502
 30
0.0
 10
-170.4524
 20
-20.398
 30
0.0
 10
-169.601
 20
-18.6831
 30
0.0
 10
-169.601
 20
-18.6831
 30
0.0
 10
-169.1469
 20
-19.786
 30
0.0
 10
-168.567
 20
-20.7643
 30
0.0
 10
-167.8869
 20
-21.5723
 30
0.0
 10
-167.8869
 20
-21.5723
 30
0.0
 10
-167.114
 20
-20.2019
 30
0.0
 10
-165.9239
 20
-19.5073
 30
0.0
 10
-164.7284
 20
-19.7297
 30
0.0
 10
-164.7284
 20
-19.7297
 30
0.0
 10
-169.0797
 20
-13.8968
 30
0.0
 10
-169.6103
 20
-4.0487
 30
0.0
 10
-165.938
 20
2.7327
 30
0.0
  0
SPLINE
  5
44
330
1F
100
AcDbEntity
  8
layer 1
 62
     7
370
     9
100
AcDbSpline
210
0.0
220
0.0
230
1.0
 70
    11
 71
     3
 72
    28
 73
    24
 74
     0
 42
0.0000000001
 43
0.0000000001
 12
1.0
 22
0.0
 32
0.0
 13
1.0
 23
0.0
 33
0.0
 40
0.0
 40
0.0
 40
0.0
 40
0.0
 40
0.1428571428571428
 40
0.1428571428571428
 40
0.1428571428571428
 40
0.1428571428571428
 40
0.2857142857142857
 40
0.2857142857142857
 40
0.2857142857142857
 40
0.2857142857142857
 40
0.4285714285714285
 40
0.4285714285714285
 40
0.4285714285714285
 40
0.4285714285714285
 40
0.5714285714285714
 40
0.5714285714285714
 40
0.5714285714285714
 40
0.5714285714285714
 40
0.7142857142857143
 40
0.7142857142857143
 40
0.7142857142857143
 40
0.7142857142857143
 40
1.0
 40
1.0
 40
1.0
 40
1.0
 10
-173.9698
 20
-73.768
 30
0.0
 10
-175.6736
 20
-74.6484
 30
0.0
 10
-177.5012
 20
-74.8711
 30
0.0
 10
-179.2792
 20
-74.4153
 30
0.0
 10
-179.2792
 20
-74.4153
 30
0.0
 10
-177.4171
 20
-72.9337
 30
0.0
 10
-175.7901
 20
-70.8789
 30
0.0
 10
-174.5073
 20
-68.389
 30
0.0
 10
-174.5073
 20
-68.389
 30
0.0
 10
-177.3554
 20
-69.7405
 30
0.0
 10
-180.4558
 20
-69.2433
 30
0.0
 10
-183.0431
 20
-67.0198
 30
0.0
 10
-183.0431
 20
-67.0198
 30
0.0
 10
-183.0431
 20
-67.0198
 30
0.0
 10
-183.0431
 20
-77.9368
 30
0.0
 10
-183.0431
 20
-77.9368
 30
0.0
 10
-183.0431
 20
-77.9368
 30
0.0
 10
-182.4718
 20
-78.498
 30
0.0
 10
-181.8117
 20
-78.8293
 30
0.0
 10
-181.1273
 20
-78.8978
 30
0.0
 10
-181.1273
 20
-78.8978
 30
0.0
 10
-178.3515
 20
-78.8131
 30
0.0
 10
-175.7382
 20
-76.9402
 30
0.0
 10
-173.9698
 20
-73.768
 30
0.0
  0
SPLINE
  5
45
330
1F
100
AcDbEntity
  8
layer 1
 62
     7
370
     9
100
AcDbSpline
210
0.0
220
0.0
230
1.0
 70
    11
 71
     3
 72
    16
 73
    12
 74
     0
 42
0.0000000001
 43
0.0000000001
 12
1.0
 22
0.0
 32
0.0
 13
1.0
 23
0.0
 33
0.0
 40
0.0
 40
0.0
 40
0.0
 40
0.0
 40
0.25
 40
0.25
 40
0.25
 40
0.25
 40
0.5
 40
0.5
 40
0.5
 40
0.5
 40
1.0
 40
1.0
 40
1.0
 40
1.0
 10
-183.0431
 20
-16.61
 30
0.0
 10
-181.9819
 20
-17.6021
 30
0.0
 10
-180.8097
 20
-18.304
 30
0.0
 10
-179.5817
 20
-18.6831
 30
0.0
 10
-179.5817
 20
-18.6831
 30
0.0
 10
-180.7094
 20
-19.1409
 30
0.0
 10
-181.8925
 20
-19.2156
 30
0.0
 10
-183.0431
 20
-18.9042
 30
0.0
 10
-183.0431
 20
-18.9042
 30
0.0
 10
-183.0431
 20
-18.9042
 30
0.0
 10
-183.0431
 20
-16.61
 30
0.0
 10
-183.0431
 20
-16.61
 30
0.0
  0
SPLINE
  5
46
330
1F
100
AcDbEntity
  8
layer 1
 62
     7
370
     9
100
AcDbSpline
210
0.0
220
0.0
230
1.0
 70
    11
 71
     3
 72
    16
 73
    12
 74
     0
 42
0.0000000001
 43
0.0000000001
 12
1.0
 22
0.0
 32
0.0
 13
1.0
 23
0.0
 33
0.0
 40
0.0
 40
0.0
 40
0.0
 40
0.0
 40
0.25
 40
0.25
 40
0.25
 40
0.25
 40
0.5
 40
0.5
 40
0.5
 40
0.5
 40
1.0
 40
1.0
 40
1.0
 40
1.0
 10
-183.0431
 20
-26.0717
 30
0.0
 10
-181.1955
 20
-25.8775
 30
0.0
 10
-179.386
 20
-25.1972
 30
0.0
 10
-177.6995
 20
-24.0622
 30
0.0
 10
-177.6995
 20
-24.0622
 30
0.0
 10
-179.3881
 20
-22.8904
 30
0.0
 10
-181.1918
 20
-22.1265
 30
0.0
 10
-183.0431
 20
-21.7996
 30
0.0
 10
-183.0431
 20
-21.7996
 30
0.0
 10
-183.0431
 20
-21.7996
 30
0.0
 10
-183.0431
 20
-26.0717
 30
0.0
 10
-183.0431
 20
-26.0717
 30
0.0
  0
SPLINE
  5
47
330
1F
100
AcDbEntity
  8
layer 1
 62
     7
370
     9
100
AcDbSpline
210
0.0
220
0.0
230
1.0
 70
    11
 71
     3
 72
    28
 73
    24
 74
     0
 42
0.0000000001
 43
0.0000000001
 12
1.0
 22
0.0
 32
0.0
 13
1.0
 23
0.0
 33
0.0
 40
0.0
 40
0.0
 40
0.0
 40
0.0
 40
0.1428571428571428
 40
0.1428571428571428
 40
0.1428571428571428
 40
0.1428571428571428
 40
0.2857142857142857
 40
0.2857142857142857
 40
0.2857142857142857
 40
0.2857142857142857
 40
0.4285714285714285
 40
0.4285714285714285
 40
0.4285714285714285
 40
0.4285714285714285
 40
0.5714285714285714
 40
0.5714285714285714
 40
0.5714285714285714
 40
0.5714285714285714
 40
0.7142857142857143
 40
0.7142857142857143
 40
0.7142857142857143
 40
0.7142857142857143
 40
1.0
 40
1.0
 40
1.0
 40
1.0
 10
-173.0961
 20
-27.5988
 30
0.0
 10
-173.0668
 20
-28.3617
 30
0.0
 10
-173.0554
 20
-29.1256
 30
0.0
 10
-173.062
 20
-29.8895
 30
0.0
 10
-173.062
 20
-29.8895
 30
0.0
 10
-173.579
 20
-29.8647
 30
0.0
 10
-174.0571
 20
-30.2927
 30
0.0
 10
-174.2824
 20
-30.9819
 30
0.0
 10
-174.2824
 20
-30.9819
 30
0.0
 10
-174.5073
 20
-31.6711
 30
0.0
 10
-174.4374
 20
-32.4925
 30
0.0
 10
-174.1041
 20
-33.0775
 30
0.0
 10
-174.1041
 20
-33.0775
 30
0.0
 10
-177.0572
 20
-33.8035
 30
0.0
 10
-180.0596
 20
-33.9866
 30
0.0
 10
-183.0431
 20
-33.6221
 30
0.0
 10
-183.0431
 20
-33.6221
 30
0.0
 10
-183.0431
 20
-33.6221
 30
0.0
 10
-183.0431
 20
-27.7755
 30
0.0
 10
-183.0431
 20
-27.7755
 30
0.0
 10
-183.0431
 20
-27.7755
 30
0.0
 10
-179.7567
 20
-28.7691
 30
0.0
 10
-176.3651
 20
-28.7087
 30
0.0
 10
-173.0961
 20
-27.5988
 30
0.0
  0
SPLINE
  5
48
330
1F
100
AcDbEntity
  8
layer 1
 62
     7
370
     9
100
AcDbSpline
210
0.0
220
0.0
230
1.0
 70
    11
 71
     3
 72
    28
 73
    24
 74
     0
 42
0.0000000001
 43
0.0000000001
 12
1.0
 22
0.0
 32
0.0
 13
1.0
 23
0.0
 33
0.0
 40
0.0
 40
0.0
 40
0.0
 40
0.0
 40
0.1428571428571428
 40
0.1428571428571428
 40
0.1428571428571428
 40
0.1428571428571428
 40
0.2857142857142857
 40
0.2857142857142857
 40
0.2857142857142857
 40
0.2857142857142857
 40
0.4285714285714285
 40
0.4285714285714285
 40
0.4285714285714285
 40
0.4285714285714285
 40
0.5714285714285714
 40
0.5714285714285714
 40
0.5714285714285714
 40
0.5714285714285714
 40
0.7142857142857143
 40
0.7142857142857143
 40
0.7142857142857143
 40
0.7142857142857143
 40
1.0
 40
1.0
 40
1.0
 40
1.0
 10
-170.1722
 20
-53.9953
 30
0.0
 10
-173.2555
 20
-51.0546
 30
0.0
 10
-176.8989
 20
-49.674
 30
0.0
 10
-180.5561
 20
-50.0606
 30
0.0
 10
-180.5561
 20
-50.0606
 30
0.0
 10
-179.5118
 20
-47.9536
 30
0.0
 10
-177.8506
 20
-46.7134
 30
0.0
 10
-176.0866
 20
-46.7239
 30
0.0
 10
-176.0866
 20
-46.7239
 30
0.0
 10
-177.525
 20
-44.5978
 30
0.0
 10
-178.1872
 20
-41.5783
 30
0.0
 10
-177.868
 20
-38.6058
 30
0.0
 10
-177.868
 20
-38.6058
 30
0.0
 10
-179.7946
 20
-39.2066
 30
0.0
 10
-181.5799
 20
-40.5513
 30
0.0
 10
-183.0431
 20
-42.5039
 30
0.0
 10
-183.0431
 20
-42.5039
 30
0.0
 10
-183.0431
 20
-42.5039
 30
0.0
 10
-183.0431
 20
-59.0414
 30
0.0
 10
-183.0431
 20
-59.0414
 30
0.0
 10
-183.0431
 20
-59.0414
 30
0.0
 10
-179.7116
 20
-53.9639
 30
0.0
 10
-174.762
 20
-52.0234
 30
0.0
 10
-170.1722
 20
-53.9953
 30
0.0
  0
SPLINE
  5
49
330
1F
100
AcDbEntity
  8
layer 1
 62
     7
370
     9
100
AcDbSpline
210
0.0
220
0.0
230
1.0
 70
    11
 71
     3
 72
    48
 73
    44
 74
     0
 42
0.0000000001
 43
0.0000000001
 12
1.0
 22
0.0
 32
0.0
 13
1.0
 23
0.0
 33
0.0
 40
0.0
 40
0.0
 40
0.0
 40
0.0
 40
0.0833333333333333
 40
0.0833333333333333
 40
0.0833333333333333
 40
0.0833333333333333
 40
0.1666666666666667
 40
0.1666666666666667
 40
0.1666666666666667
 40
0.1666666666666667
 40
0.25
 40
0.25
 40
0.25
 40
0.25
 40
0.3333333333333333
 40
0.3333333333333333
 40
0.3333333333333333
 40
0.3333333333333333
 40
0.4166666666666667
 40
0.4166666666666667
 40
0.4166666666666667
 40
0.4166666666666667
 40
0.5
 40
0.5
 40
0.5
 40
0.5
 40
0.5833333333333334
 40
0.5833333333333334
 40
0.5833333333333334
 40
0.5833333333333334
 40
0.6666666666666666
 40
0.6666666666666666
 40
0.6666666666666666
 40
0.6666666666666666
 40
0.75
 40
0.75
 40
0.75
 40
0.75
 40
0.8333333333333334
 40
0.8333333333333334
 40
0.8333333333333334
 40
0.8333333333333334
 40
1.0
 40
1.0
 40
1.0
 40
1.0
 10
-178.4392
 20
-86.1194
 30
0.0
 10
-179.8255
 20
-84.9045
 30
0.0
 10
-181.4459
 20
-84.4115
 30
0.0
 10
-183.0431
 20
-84.7189
 30
0.0
 10
-183.0431
 20
-84.7189
 30
0.0
 10
-183.0431
 20
-84.7189
 30
0.0
 10
-183.0431
 20
-87.7707
 30
0.0
 10
-183.0431
 20
-87.7707
 30
0.0
 10
-183.0431
 20
-87.7707
 30
0.0
 10
-182.3228
 20
-88.1826
 30
0.0
 10
-181.6161
 20
-88.6455
 30
0.0
 10
-180.9257
 20
-89.1575
 30
0.0
 10
-180.9257
 20
-89.1575
 30
0.0
 10
-179.7133
 20
-87.5353
 30
0.0
 10
-178.0072
 20
-87.003
 30
0.0
 10
-176.4562
 20
-87.7632
 30
0.0
 10
-176.4562
 20
-87.7632
 30
0.0
 10
-177.1466
 20
-89.0348
 30
0.0
 10
-177.2143
 20
-90.8171
 30
0.0
 10
-176.6243
 20
-92.1957
 30
0.0
 10
-176.6243
 20
-92.1957
 30
0.0
 10
-176.1483
 20
-93.016
 30
0.0
 10
-175.4487
 20
-93.4753
 30
0.0
 10
-174.7187
 20
-93.4466
 30
0.0
 10
-174.7187
 20
-93.4466
 30
0.0
 10
-173.9887
 20
-93.4176
 30
0.0
 10
-173.3065
 20
-92.9033
 30
0.0
 10
-172.8609
 20
-92.0461
 30
0.0
 10
-172.8609
 20
-92.0461
 30
0.0
 10
-172.0132
 20
-89.699
 30
0.0
 10
-171.706
 20
-87.0057
 30
0.0
 10
-171.9867
 20
-84.3762
 30
0.0
 10
-171.9867
 20
-84.3762
 30
0.0
 10
-172.3792
 20
-81.7288
 30
0.0
 10
-172.4929
 20
-79.0069
 30
0.0
 10
-172.3228
 20
-76.3077
 30
0.0
 10
-172.3228
 20
-76.3077
 30
0.0
 10
-173.3183
 20
-77.4281
 30
0.0
 10
-174.2012
 20
-78.7528
 30
0.0
 10
-174.9441
 20
-80.2425
 30
0.0
 10
-174.9441
 20
-80.2425
 30
0.0
 10
-175.7766
 20
-82.5862
 30
0.0
 10
-176.9748
 20
-84.6014
 30
0.0
 10
-178.4392
 20
-86.1194
 30
0.0
  0
SPLINE
  5
4A
330
1F
100
AcDbEntity
  8
layer 1
 62
     7
370
     9
100
AcDbSpline
210
0.0
220
0.0
230
1.0
 70
    11
 71
     3
 72
    24
 73
    20
 74
     0
 42
0.0000000001
 43
0.0000000001
 12
1.0
 22
0.0
 32
0.0
 13
1.0
 23
0.0
 33
0.0
 40
0.0
 40
0.0
 40
0.0
 40
0.0
 40
0.1666666666666667
 40
0.1666666666666667
 40
0.1666666666666667
 40
0.1666666666666667
 40
0.3333333333333333
 40
0.3333333333333333
 40
0.3333333333333333
 40
0.3333333333333333
 40
0.5
 40
0.5
 40
0.5
 40
0.5
 40
0.6666666666666666
 40
0.6666666666666666
 40
0.6666666666666666
 40
0.6666666666666666
 40
1.0
 40
1.0
 40
1.0
 40
1.0
 10
-172.2561
 20
-96.678
 30
0.0
 10
-171.512
 20
-98.1293
 30
0.0
 10
-171.3034
 20
-100.0331
 30
0.0
 10
-171.6995
 20
-101.7582
 30
0.0
 10
-171.6995
 20
-101.7582
 30
0.0
 10
-171.6995
 20
-101.7582
 30
0.0
 10
-165.6199
 20
-101.7582
 30
0.0
 10
-165.6199
 20
-101.7582
 30
0.0
 10
-165.6199
 20
-101.7582
 30
0.0
 10
-163.9757
 20
-98.7219
 30
0.0
 10
-163.7806
 20
-94.4891
 30
0.0
 10
-165.1317
 20
-91.1497
 30
0.0
 10
-165.1317
 20
-91.1497
 30
0.0
 10
-166.5602
 20
-89.1912
 30
0.0
 10
-167.8749
 20
-87.0588
 30
0.0
 10
-169.0629
 20
-84.7747
 30
0.0
 10
-169.0629
 20
-84.7747
 30
0.0
 10
-168.1903
 20
-89.3558
 30
0.0
 10
-169.4986
 20
-94.2355
 30
0.0
 10
-172.2561
 20
-96.678
 30
0.0
  0
SPLINE
  5
4B
330
1F
100
AcDbEntity
  8
layer 1
 62
     7
370
     9
100
AcDbSpline
210
0.0
220
0.0
230
1.0
 70
    11
 71
     3
 72
    20
 73
    16
 74
     0
 42
0.0000000001
 43
0.0000000001
 12
1.0
 22
0.0
 32
0.0
 13
1.0
 23
0.0
 33
0.0
 40
0.0
 40
0.0
 40
0.0
 40
0.0
 40
0.2
 40
0.2
 40
0.2
 40
0.2
 40
0.4
 40
0.4
 40
0.4
 40
0.4
 40
0.6
 40
0.6
 40
0.6
 40
0.6
 40
1.0
 40
1.0
 40
1.0
 40
1.0
 10
-160.9981
 20
-94.885
 30
0.0
 10
-160.7451
 20
-97.242
 30
0.0
 10
-161.0215
 20
-99.6565
 30
0.0
 10
-161.7839
 20
-101.7582
 30
0.0
 10
-161.7839
 20
-101.7582
 30
0.0
 10
-161.7839
 20
-101.7582
 30
0.0
 10
-139.2112
 20
-101.7582
 30
0.0
 10
-139.2112
 20
-101.7582
 30
0.0
 10
-139.2112
 20
-101.7582
 30
0.0
 10
-141.0814
 20
-98.5496
 30
0.0
 10
-143.911
 20
-96.9417
 30
0.0
 10
-146.7492
 20
-97.4749
 30
0.0
 10
-146.7492
 20
-97.4749
 30
0.0
 10
-151.5704
 20
-98.3137
 30
0.0
 10
-156.4565
 20
-97.4255
 30
0.0
 10
-160.9981
 20
-94.885
 30
0.0
  0
SPLINE
  5
4C
330
1F
100
AcDbEntity
  8
layer 1
 62
     7
370
     9
100
AcDbSpline
210
0.0
220
0.0
230
1.0
 70
    11
 71
     3
 72
    24
 73
    20
 74
     0
 42
0.0000000001
 43
0.0000000001
 12
1.0
 22
0.0
 32
0.0
 13
1.0
 23
0.0
 33
0.0
 40
0.0
 40
0.0
 40
0.0
 40
0.0
 40
0.1666666666666667
 40
0.1666666666666667
 40
0.1666666666666667
 40
0.1666666666666667
 40
0.3333333333333333
 40
0.3333333333333333
 40
0.3333333333333333
 40
0.3333333333333333
 40
0.5
 40
0.5
 40
0.5
 40
0.5
 40
0.6666666666666666
 40
0.6666666666666666
 40
0.6666666666666666
 40
0.6666666666666666
 40
1.0
 40
1.0
 40
1.0
 40
1.0
 10
-137.9257
 20
-101.7582
 30
0.0
 10
-137.9257
 20
-101.7582
 30
0.0
 10
-129.764
 20
-101.7582
 30
0.0
 10
-129.764
 20
-101.7582
 30
0.0
 10
-129.764
 20
-101.7582
 30
0.0
 10
-129.8907
 20
-98.6522
 30
0.0
 10
-128.7049
 20
-95.7552
 30
0.0
 10
-126.7881
 20
-94.4868
 30
0.0
 10
-126.7881
 20
-94.4868
 30
0.0
 10
-130.1211
 20
-92.2078
 30
0.0
 10
-132.6742
 20
-87.9941
 30
0.0
 10
-133.8448
 20
-82.8376
 30
0.0
 10
-133.8448
 20
-82.8376
 30
0.0
 10
-135.0159
 20
-87.9941
 30
0.0
 10
-137.5685
 20
-92.2078
 30
0.0
 10
-140.9021
 20
-94.4868
 30
0.0
 10
-140.9021
 20
-94.4868
 30
0.0
 10
-138.9846
 20
-95.7552
 30
0.0
 10
-137.7989
 20
-98.6522
 30
0.0
 10
-137.9257
 20
-101.7582
 30
0.0
  0
SPLINE
  5
4D
330
1F
100
AcDbEntity
  8
layer 1
 62
     7
370
     9
100
AcDbSpline
210
0.0
220
0.0
230
1.0
 70
    11
 71
     3
 72
    52
 73
    48
 74
     0
 42
0.0000000001
 43
0.0000000001
 12
1.0
 22
0.0
 32
0.0
 13
1.0
 23
0.0
 33
0.0
 40
0.0
 40
0.0
 40
0.0
 40
0.0
 40
0.0769230769230769
 40
0.0769230769230769
 40
0.0769230769230769
 40
0.0769230769230769
 40
0.1538461538461539
 40
0.1538461538461539
 40
0.1538461538461539
 40
0.1538461538461539
 40
0.2307692307692308
 40
0.2307692307692308
 40
0.2307692307692308
 40
0.2307692307692308
 40
0.3076923076923077
 40
0.3076923076923077
 40
0.3076923076923077
 40
0.3076923076923077
 40
0.3846153846153846
 40
0.3846153846153846
 40
0.3846153846153846
 40
0.3846153846153846
 40
0.4615384615384616
 40
0.4615384615384616
 40
0.4615384615384616
 40
0.4615384615384616
 40
0.5384615384615384
 40
0.5384615384615384
 40
0.5384615384615384
 40
0.5384615384615384
 40
0.6153846153846154
 40
0.6153846153846154
 40
0.6153846153846154
 40
0.6153846153846154
 40
0.6923076923076923
 40
0.6923076923076923
 40
0.6923076923076923
 40
0.6923076923076923
 40
0.7692307692307693
 40
0.7692307692307693
 40
0.7692307692307693
 40
0.7692307692307693
 40
0.8461538461538461
 40
0.8461538461538461
 40
0.8461538461538461
 40
0.8461538461538461
 40
1.0
 40
1.0
 40
1.0
 40
1.0
 10
-134.1808
 20
-75.9093
 30
0.0
 10
-134.1471
 20
-72.8834
 30
0.0
 10
-134.5602
 20
-69.8835
 30
0.0
 10
-135.3904
 20
-67.119
 30
0.0
 10
-135.3904
 20
-67.119
 30
0.0
 10
-136.367
 20
-63.7332
 30
0.0
 10
-138.1409
 20
-60.9892
 30
0.0
 10
-140.3812
 20
-59.3991
 30
0.0
 10
-140.3812
 20
-59.3991
 30
0.0
 10
-141.2956
 20
-59.3055
 30
0.0
 10
-142.2023
 20
-59.703
 30
0.0
 10
-142.9355
 20
-60.5197
 30
0.0
 10
-142.9355
 20
-60.5197
 30
0.0
 10
-143.1441
 20
-56.0654
 30
0.0
 10
-143.3961
 20
-51.6156
 30
0.0
 10
-143.691
 20
-47.1718
 30
0.0
 10
-143.691
 20
-47.1718
 30
0.0
 10
-144.6134
 20
-48.7667
 30
0.0
 10
-145.7606
 20
-50.0417
 30
0.0
 10
-147.0515
 20
-50.9073
 30
0.0
 10
-147.0515
 20
-50.9073
 30
0.0
 10
-147.0575
 20
-50.1027
 30
0.0
 10
-147.2966
 20
-49.3402
 30
0.0
 10
-147.7084
 20
-48.8156
 30
0.0
 10
-147.7084
 20
-48.8156
 30
0.0
 10
-148.1203
 20
-48.2913
 30
0.0
 10
-148.6651
 20
-48.0552
 30
0.0
 10
-149.2026
 20
-48.1681
 30
0.0
 10
-149.2026
 20
-48.1681
 30
0.0
 10
-149.7776
 20
-48.4363
 30
0.0
 10
-150.2366
 20
-49.0827
 30
0.0
 10
-150.4469
 20
-49.9201
 30
0.0
 10
-150.4469
 20
-49.9201
 30
0.0
 10
-150.6572
 20
-50.757
 30
0.0
 10
-150.5949
 20
-51.6914
 30
0.0
 10
-150.2778
 20
-52.4514
 30
0.0
 10
-150.2778
 20
-52.4514
 30
0.0
 10
-149.5407
 20
-53.9486
 30
0.0
 10
-148.6027
 20
-55.2036
 30
0.0
 10
-147.5226
 20
-56.1369
 30
0.0
 10
-147.5226
 20
-56.1369
 30
0.0
 10
-146.1725
 20
-57.6637
 30
0.0
 10
-145.3483
 20
-59.9979
 30
0.0
 10
-145.2707
 20
-62.5117
 30
0.0
 10
-145.2707
 20
-62.5117
 30
0.0
 10
-140.5276
 20
-64.6387
 30
0.0
 10
-136.5426
 20
-69.4532
 30
0.0
 10
-134.1808
 20
-75.9093
 30
0.0
  0
SPLINE
  5
4E
330
1F
100
AcDbEntity
  8
layer 1
 62
     7
370
     9
100
AcDbSpline
210
0.0
220
0.0
230
1.0
 70
    11
 71
     3
 72
    60
 73
    56
 74
     0
 42
0.0000000001
 43
0.0000000001
 12
1.0
 22
0.0
 32
0.0
 13
1.0
 23
0.0
 33
0.0
 40
0.0
 40
0.0
 40
0.0
 40
0.0
 40
0.0666666666666667
 40
0.0666666666666667
 40
0.0666666666666667
 40
0.0666666666666667
 40
0.1333333333333333
 40
0.1333333333333333
 40
0.1333333333333333
 40
0.1333333333333333
 40
0.2
 40
0.2
 40
0.2
 40
0.2
 40
0.2666666666666667
 40
0.2666666666666667
 40
0.2666666666666667
 40
0.2666666666666667
 40
0.3333333333333333
 40
0.3333333333333333
 40
0.3333333333333333
 40
0.3333333333333333
 40
0.4
 40
0.4
 40
0.4
 40
0.4
 40
0.4666666666666667
 40
0.4666666666666667
 40
0.4666666666666667
 40
0.4666666666666667
 40
0.5333333333333333
 40
0.5333333333333333
 40
0.5333333333333333
 40
0.5333333333333333
 40
0.6
 40
0.6
 40
0.6
 40
0.6
 40
0.6666666666666666
 40
0.6666666666666666
 40
0.6666666666666666
 40
0.6666666666666666
 40
0.7333333333333333
 40
0.7333333333333333
 40
0.7333333333333333
 40
0.7333333333333333
 40
0.8
 40
0.8
 40
0.8
 40
0.8
 40
0.8666666666666667
 40
0.8666666666666667
 40
0.8666666666666667
 40
0.8666666666666667
 40
1.0
 40
1.0
 40
1.0
 40
1.0
 10
-133.8448
 20
-64.3548
 30
0.0
 10
-133.1116
 20
-61.5875
 30
0.0
 10
-131.8207
 20
-59.2224
 30
0.0
 10
-130.1482
 20
-57.5811
 30
0.0
 10
-130.1482
 20
-57.5811
 30
0.0
 10
-130.953
 20
-57.6931
 30
0.0
 10
-131.7632
 20
-57.6931
 30
0.0
 10
-132.5679
 20
-57.5811
 30
0.0
 10
-132.5679
 20
-57.5811
 30
0.0
 10
-129.7477
 20
-53.8988
 30
0.0
 10
-127.7934
 20
-48.9784
 30
0.0
 10
-126.9897
 20
-43.5362
 30
0.0
 10
-126.9897
 20
-43.5362
 30
0.0
 10
-127.6307
 20
-45.0486
 30
0.0
 10
-128.5061
 20
-46.3123
 30
0.0
 10
-129.5434
 20
-47.2218
 30
0.0
 10
-129.5434
 20
-47.2218
 30
0.0
 10
-129.4085
 20
-46.004
 30
0.0
 10
-129.3748
 20
-44.7663
 30
0.0
 10
-129.4426
 20
-43.5362
 30
0.0
 10
-129.4426
 20
-43.5362
 30
0.0
 10
-129.9743
 20
-45.7349
 30
0.0
 10
-130.7097
 20
-47.8131
 30
0.0
 10
-131.6271
 20
-49.712
 30
0.0
 10
-131.6271
 20
-49.712
 30
0.0
 10
-132.6596
 20
-52.1739
 30
0.0
 10
-133.4091
 20
-54.8728
 30
0.0
 10
-133.8448
 20
-57.6985
 30
0.0
 10
-133.8448
 20
-57.6985
 30
0.0
 10
-134.2811
 20
-54.8728
 30
0.0
 10
-135.0306
 20
-52.1739
 30
0.0
 10
-136.063
 20
-49.712
 30
0.0
 10
-136.063
 20
-49.712
 30
0.0
 10
-136.9806
 20
-47.8131
 30
0.0
 10
-137.7154
 20
-45.7349
 30
0.0
 10
-138.2471
 20
-43.5362
 30
0.0
 10
-138.2471
 20
-43.5362
 30
0.0
 10
-138.3154
 20
-44.7663
 30
0.0
 10
-138.2812
 20
-46.004
 30
0.0
 10
-138.1463
 20
-47.2218
 30
0.0
 10
-138.1463
 20
-47.2218
 30
0.0
 10
-139.1835
 20
-46.3123
 30
0.0
 10
-140.0594
 20
-45.0486
 30
0.0
 10
-140.7004
 20
-43.5362
 30
0.0
 10
-140.7004
 20
-43.5362
 30
0.0
 10
-139.8968
 20
-48.9784
 30
0.0
 10
-137.9424
 20
-53.8988
 30
0.0
 10
-135.1222
 20
-57.5811
 30
0.0
 10
-135.1222
 20
-57.5811
 30
0.0
 10
-135.927
 20
-57.6931
 30
0.0
 10
-136.7366
 20
-57.6931
 30
0.0
 10
-137.5415
 20
-57.5811
 30
0.0
 10
-137.5415
 20
-57.5811
 30
0.0
 10
-135.869
 20
-59.2224
 30
0.0
 10
-134.5781
 20
-61.5875
 30
0.0
 10
-133.8448
 20
-64.3548
 30
0.0
  0
SPLINE
  5
4F
330
1F
100
AcDbEntity
  8
layer 1
 62
     7
370
     9
100
AcDbSpline
210
0.0
220
0.0
230
1.0
 70
    11
 71
     3
 72
    28
 73
    24
 74
     0
 42
0.0000000001
 43
0.0000000001
 12
1.0
 22
0.0
 32
0.0
 13
1.0
 23
0.0
 33
0.0
 40
0.0
 40
0.0
 40
0.0
 40
0.0
 40
0.1428571428571428
 40
0.1428571428571428
 40
0.1428571428571428
 40
0.1428571428571428
 40
0.2857142857142857
 40
0.2857142857142857
 40
0.2857142857142857
 40
0.2857142857142857
 40
0.4285714285714285
 40
0.4285714285714285
 40
0.4285714285714285
 40
0.4285714285714285
 40
0.5714285714285714
 40
0.5714285714285714
 40
0.5714285714285714
 40
0.5714285714285714
 40
0.7142857142857143
 40
0.7142857142857143
 40
0.7142857142857143
 40
0.7142857142857143
 40
1.0
 40
1.0
 40
1.0
 40
1.0
 10
-133.8448
 20
-47.9192
 30
0.0
 10
-132.7257
 20
-45.6652
 30
0.0
 10
-131.884
 20
-43.1361
 30
0.0
 10
-131.3583
 20
-40.4484
 30
0.0
 10
-131.3583
 20
-40.4484
 30
0.0
 10
-130.8743
 20
-38.4179
 30
0.0
 10
-130.8743
 20
-36.2035
 30
0.0
 10
-131.3583
 20
-34.1731
 30
0.0
 10
-131.3583
 20
-34.1731
 30
0.0
 10
-132.3567
 20
-30.6911
 30
0.0
 10
-133.1879
 20
-27.1088
 30
0.0
 10
-133.8448
 20
-23.4534
 30
0.0
 10
-133.8448
 20
-23.4534
 30
0.0
 10
-134.5022
 20
-27.1088
 30
0.0
 10
-135.333
 20
-30.6911
 30
0.0
 10
-136.3318
 20
-34.1731
 30
0.0
 10
-136.3318
 20
-34.1731
 30
0.0
 10
-136.8153
 20
-36.2035
 30
0.0
 10
-136.8153
 20
-38.4179
 30
0.0
 10
-136.3318
 20
-40.4484
 30
0.0
 10
-136.3318
 20
-40.4484
 30
0.0
 10
-135.8055
 20
-43.1361
 30
0.0
 10
-134.964
 20
-45.6652
 30
0.0
 10
-133.8448
 20
-47.9192
 30
0.0
  0
SPLINE
  5
50
330
1F
100
AcDbEntity
  8
layer 1
 62
     7
370
     9
100
AcDbSpline
210
0.0
220
0.0
230
1.0
 70
    11
 71
     3
 72
    28
 73
    24
 74
     0
 42
0.0000000001
 43
0.0000000001
 12
1.0
 22
0.0
 32
0.0
 13
1.0
 23
0.0
 33
0.0
 40
0.0
 40
0.0
 40
0.0
 40
0.0
 40
0.1428571428571428
 40
0.1428571428571428
 40
0.1428571428571428
 40
0.1428571428571428
 40
0.2857142857142857
 40
0.2857142857142857
 40
0.2857142857142857
 40
0.2857142857142857
 40
0.4285714285714285
 40
0.4285714285714285
 40
0.4285714285714285
 40
0.4285714285714285
 40
0.5714285714285714
 40
0.5714285714285714
 40
0.5714285714285714
 40
0.5714285714285714
 40
0.7142857142857143
 40
0.7142857142857143
 40
0.7142857142857143
 40
0.7142857142857143
 40
1.0
 40
1.0
 40
1.0
 40
1.0
 10
-136.2982
 20
4.4756
 30
0.0
 10
-135.6543
 20
5.441
 30
0.0
 10
-134.7586
 20
5.9414
 30
0.0
 10
-133.8448
 20
5.8474
 30
0.0
 10
-133.8448
 20
5.8474
 30
0.0
 10
-132.9317
 20
5.9414
 30
0.0
 10
-132.0357
 20
5.441
 30
0.0
 10
-131.3919
 20
4.4756
 30
0.0
 10
-131.3919
 20
4.4756
 30
0.0
 10
-130.6814
 20
3.0676
 30
0.0
 10
-130.6949
 20
1.1294
 30
0.0
 10
-131.4255
 20
-0.2553
 30
0.0
 10
-131.4255
 20
-0.2553
 30
0.0
 10
-132.368
 20
-1.7332
 30
0.0
 10
-133.1809
 20
-3.3814
 30
0.0
 10
-133.8448
 20
-5.1612
 30
0.0
 10
-133.8448
 20
-5.1612
 30
0.0
 10
-134.5086
 20
-3.3814
 30
0.0
 10
-135.3222
 20
-1.7332
 30
0.0
 10
-136.2645
 20
-0.2553
 30
0.0
 10
-136.2645
 20
-0.2553
 30
0.0
 10
-136.9952
 20
1.1294
 30
0.0
 10
-137.0087
 20
3.0676
 30
0.0
 10
-136.2982
 20
4.4756
 30
0.0
  0
SPLINE
  5
51
330
1F
100
AcDbEntity
  8
layer 1
 62
     7
370
     9
100
AcDbSpline
210
0.0
220
0.0
230
1.0
 70
    11
 71
     3
 72
    24
 73
    20
 74
     0
 42
0.0000000001
 43
0.0000000001
 12
1.0
 22
0.0
 32
0.0
 13
1.0
 23
0.0
 33
0.0
 40
0.0
 40
0.0
 40
0.0
 40
0.0
 40
0.1666666666666667
 40
0.1666666666666667
 40
0.1666666666666667
 40
0.1666666666666667
 40
0.3333333333333333
 40
0.3333333333333333
 40
0.3333333333333333
 40
0.3333333333333333
 40
0.5
 40
0.5
 40
0.5
 40
0.5
 40
0.6666666666666666
 40
0.6666666666666666
 40
0.6666666666666666
 40
0.6666666666666666
 40
1.0
 40
1.0
 40
1.0
 40
1.0
 10
-146.1444
 20
-85.4721
 30
0.0
 10
-144.5553
 20
-86.8092
 30
0.0
 10
-143.6969
 20
-89.4731
 30
0.0
 10
-143.994
 20
-92.1458
 30
0.0
 10
-143.994
 20
-92.1458
 30
0.0
 10
-141.5589
 20
-91.0949
 30
0.0
 10
-139.8615
 20
-87.834
 30
0.0
 10
-139.7933
 20
-84.0775
 30
0.0
 10
-139.7933
 20
-84.0775
 30
0.0
 10
-139.8046
 20
-82.7572
 30
0.0
 10
-140.2056
 20
-81.5104
 30
0.0
 10
-140.8912
 20
-80.6669
 30
0.0
 10
-140.8912
 20
-80.6669
 30
0.0
 10
-141.5769
 20
-79.8236
 30
0.0
 10
-142.4775
 20
-79.4682
 30
0.0
 10
-143.3555
 20
-79.6947
 30
0.0
 10
-143.3555
 20
-79.6947
 30
0.0
 10
-143.3105
 20
-82.3274
 30
0.0
 10
-144.4485
 20
-84.685
 30
0.0
 10
-146.1444
 20
-85.4721
 30
0.0
  0
SPLINE
  5
52
330
1F
100
AcDbEntity
  8
layer 1
 62
     7
370
     9
100
AcDbSpline
210
0.0
220
0.0
230
1.0
 70
    11
 71
     3
 72
    32
 73
    28
 74
     0
 42
0.0000000001
 43
0.0000000001
 12
1.0
 22
0.0
 32
0.0
 13
1.0
 23
0.0
 33
0.0
 40
0.0
 40
0.0
 40
0.0
 40
0.0
 40
0.125
 40
0.125
 40
0.125
 40
0.125
 40
0.25
 40
0.25
 40
0.25
 40
0.25
 40
0.375
 40
0.375
 40
0.375
 40
0.375
 40
0.5
 40
0.5
 40
0.5
 40
0.5
 40
0.625
 40
0.625
 40
0.625
 40
0.625
 40
0.75
 40
0.75
 40
0.75
 40
0.75
 40
1.0
 40
1.0
 40
1.0
 40
1.0
 10
-143.8595
 20
-77.7524
 30
0.0
 10
-145.3558
 20
-75.5063
 30
0.0
 10
-147.5772
 20
-74.6978
 30
0.0
 10
-149.6058
 20
-75.6604
 30
0.0
 10
-149.6058
 20
-75.6604
 30
0.0
 10
-151.1866
 20
-76.466
 30
0.0
 10
-152.443
 20
-78.2735
 30
0.0
 10
-153.0337
 20
-80.5911
 30
0.0
 10
-153.0337
 20
-80.5911
 30
0.0
 10
-153.5739
 20
-79.8167
 30
0.0
 10
-153.8737
 20
-78.745
 30
0.0
 10
-153.8606
 20
-77.6308
 30
0.0
 10
-153.8606
 20
-77.6308
 30
0.0
 10
-153.8477
 20
-76.517
 30
0.0
 10
-153.5242
 20
-75.461
 30
0.0
 10
-152.9665
 20
-74.7142
 30
0.0
 10
-152.9665
 20
-74.7142
 30
0.0
 10
-151.0663
 20
-72.3081
 30
0.0
 10
-148.5349
 20
-71.3015
 30
0.0
 10
-146.0771
 20
-71.975
 30
0.0
 10
-146.0771
 20
-71.975
 30
0.0
 10
-143.4233
 20
-72.4101
 30
0.0
 10
-141.0175
 20
-74.4911
 30
0.0
 10
-139.4573
 20
-77.7023
 30
0.0
 10
-139.4573
 20
-77.7023
 30
0.0
 10
-140.9069
 20
-77.2128
 30
0.0
 10
-142.4147
 20
-77.2296
 30
0.0
 10
-143.8595
 20
-77.7524
 30
0.0
  0
SPLINE
  5
53
330
1F
100
AcDbEntity
  8
layer 1
 62
     7
370
     9
100
AcDbSpline
210
0.0
220
0.0
230
1.0
 70
    11
 71
     3
 72
    28
 73
    24
 74
     0
 42
0.0000000001
 43
0.0000000001
 12
1.0
 22
0.0
 32
0.0
 13
1.0
 23
0.0
 33
0.0
 40
0.0
 40
0.0
 40
0.0
 40
0.0
 40
0.1428571428571428
 40
0.1428571428571428
 40
0.1428571428571428
 40
0.1428571428571428
 40
0.2857142857142857
 40
0.2857142857142857
 40
0.2857142857142857
 40
0.2857142857142857
 40
0.4285714285714285
 40
0.4285714285714285
 40
0.4285714285714285
 40
0.4285714285714285
 40
0.5714285714285714
 40
0.5714285714285714
 40
0.5714285714285714
 40
0.5714285714285714
 40
0.7142857142857143
 40
0.7142857142857143
 40
0.7142857142857143
 40
0.7142857142857143
 40
1.0
 40
1.0
 40
1.0
 40
1.0
 10
-157.1671
 20
-94.0385
 30
0.0
 10
-155.4426
 20
-94.0306
 30
0.0
 10
-153.7847
 20
-93.0515
 30
0.0
 10
-152.5296
 20
-91.2991
 30
0.0
 10
-152.5296
 20
-91.2991
 30
0.0
 10
-153.226
 20
-91.6757
 30
0.0
 10
-153.9918
 20
-91.6581
 30
0.0
 10
-154.68
 20
-91.2495
 30
0.0
 10
-154.68
 20
-91.2495
 30
0.0
 10
-153.6807
 20
-89.9244
 30
0.0
 10
-153.0868
 20
-88.0553
 30
0.0
 10
-153.0337
 20
-86.0697
 30
0.0
 10
-153.0337
 20
-86.0697
 30
0.0
 10
-151.3558
 20
-86.6005
 30
0.0
 10
-149.6335
 20
-86.7516
 30
0.0
 10
-147.9252
 20
-86.5178
 30
0.0
 10
-147.9252
 20
-86.5178
 30
0.0
 10
-147.5832
 20
-88.8804
 30
0.0
 10
-148.1681
 20
-91.3273
 30
0.0
 10
-149.4378
 20
-92.843
 30
0.0
 10
-149.4378
 20
-92.843
 30
0.0
 10
-151.7709
 20
-94.9033
 30
0.0
 10
-154.5972
 20
-95.3402
 30
0.0
 10
-157.1671
 20
-94.0385
 30
0.0
  0
SPLINE
  5
54
330
1F
100
AcDbEntity
  8
layer 1
 62
     7
370
     9
100
AcDbSpline
210
0.0
220
0.0
230
1.0
 70
    11
 71
     3
 72
    40
 73
    36
 74
     0
 42
0.0000000001
 43
0.0000000001
 12
1.0
 22
0.0
 32
0.0
 13
1.0
 23
0.0
 33
0.0
 40
0.0
 40
0.0
 40
0.0
 40
0.0
 40
0.1
 40
0.1
 40
0.1
 40
0.1
 40
0.2
 40
0.2
 40
0.2
 40
0.2
 40
0.3
 40
0.3
 40
0.3
 40
0.3
 40
0.4
 40
0.4
 40
0.4
 40
0.4
 40
0.5
 40
0.5
 40
0.5
 40
0.5
 40
0.6
 40
0.6
 40
0.6
 40
0.6
 40
0.7
 40
0.7
 40
0.7
 40
0.7
 40
0.8
 40
0.8
 40
0.8
 40
0.8
 40
1.0
 40
1.0
 40
1.0
 40
1.0
 10
-168.1221
 20
-75.262
 30
0.0
 10
-167.6695
 20
-81.9098
 30
0.0
 10
-164.7138
 20
-87.6025
 30
0.0
 10
-160.4936
 20
-89.9544
 30
0.0
 10
-160.4936
 20
-89.9544
 30
0.0
 10
-159.3777
 20
-90.3829
 30
0.0
 10
-158.1914
 20
-89.9528
 30
0.0
 10
-157.3351
 20
-88.809
 30
0.0
 10
-157.3351
 20
-88.809
 30
0.0
 10
-156.9233
 20
-87.6995
 30
0.0
 10
-156.8148
 20
-86.3976
 30
0.0
 10
-157.0326
 20
-85.1731
 30
0.0
 10
-157.0326
 20
-85.1731
 30
0.0
 10
-156.5781
 20
-85.2726
 30
0.0
 10
-156.1135
 20
-85.1315
 30
0.0
 10
-155.7218
 20
-84.7747
 30
0.0
 10
-155.7218
 20
-84.7747
 30
0.0
 10
-155.3174
 20
-84.1941
 30
0.0
 10
-155.26
 20
-83.2624
 30
0.0
 10
-155.5873
 20
-82.5835
 30
0.0
 10
-155.5873
 20
-82.5835
 30
0.0
 10
-156.222
 20
-81.704
 30
0.0
 10
-157.179
 20
-81.5803
 30
0.0
 10
-157.9063
 20
-82.2843
 30
0.0
 10
-157.9063
 20
-82.2843
 30
0.0
 10
-159.4568
 20
-80.0799
 30
0.0
 10
-161.4068
 20
-78.5918
 30
0.0
 10
-163.5182
 20
-78.0014
 30
0.0
 10
-163.5182
 20
-78.0014
 30
0.0
 10
-163.463
 20
-79.2876
 30
0.0
 10
-163.5306
 20
-80.5785
 30
0.0
 10
-163.7199
 20
-81.8365
 30
0.0
 10
-163.7199
 20
-81.8365
 30
0.0
 10
-165.6216
 20
-80.3937
 30
0.0
 10
-167.1633
 20
-78.0911
 30
0.0
 10
-168.1221
 20
-75.262
 30
0.0
  0
SPLINE
  5
55
330
1F
100
AcDbEntity
  8
layer 1
 62
     7
370
     9
100
AcDbSpline
210
0.0
220
0.0
230
1.0
 70
    11
 71
     3
 72
    48
 73
    44
 74
     0
 42
0.0000000001
 43
0.0000000001
 12
1.0
 22
0.0
 32
0.0
 13
1.0
 23
0.0
 33
0.0
 40
0.0
 40
0.0
 40
0.0
 40
0.0
 40
0.0833333333333333
 40
0.0833333333333333
 40
0.0833333333333333
 40
0.0833333333333333
 40
0.1666666666666667
 40
0.1666666666666667
 40
0.1666666666666667
 40
0.1666666666666667
 40
0.25
 40
0.25
 40
0.25
 40
0.25
 40
0.3333333333333333
 40
0.3333333333333333
 40
0.3333333333333333
 40
0.3333333333333333
 40
0.4166666666666667
 40
0.4166666666666667
 40
0.4166666666666667
 40
0.4166666666666667
 40
0.5
 40
0.5
 40
0.5
 40
0.5
 40
0.5833333333333334
 40
0.5833333333333334
 40
0.5833333333333334
 40
0.5833333333333334
 40
0.6666666666666666
 40
0.6666666666666666
 40
0.6666666666666666
 40
0.6666666666666666
 40
0.75
 40
0.75
 40
0.75
 40
0.75
 40
0.8333333333333334
 40
0.8333333333333334
 40
0.8333333333333334
 40
0.8333333333333334
 40
1.0
 40
1.0
 40
1.0
 40
1.0
 10
-163.0814
 20
-71.6758
 30
0.0
 10
-162.5682
 20
-73.1573
 30
0.0
 10
-161.9239
 20
-74.5307
 30
0.0
 10
-161.1662
 20
-75.7599
 30
0.0
 10
-161.1662
 20
-75.7599
 30
0.0
 10
-160.9597
 20
-75.0819
 30
0.0
 10
-160.6491
 20
-74.4849
 30
0.0
 10
-160.2584
 20
-74.0168
 30
0.0
 10
-160.2584
 20
-74.0168
 30
0.0
 10
-159.6438
 20
-74.8144
 30
0.0
 10
-159.0709
 20
-75.6798
 30
0.0
 10
-158.5447
 20
-76.6069
 30
0.0
 10
-158.5447
 20
-76.6069
 30
0.0
 10
-157.2999
 20
-72.276
 30
0.0
 10
-154.5501
 20
-69.3102
 30
0.0
 10
-151.3867
 20
-68.887
 30
0.0
 10
-151.3867
 20
-68.887
 30
0.0
 10
-148.5978
 20
-68.2187
 30
0.0
 10
-145.7596
 20
-68.1183
 30
0.0
 10
-142.9518
 20
-68.5882
 30
0.0
 10
-142.9518
 20
-68.5882
 30
0.0
 10
-144.0172
 20
-67.188
 30
0.0
 10
-145.2328
 20
-66.0603
 30
0.0
 10
-146.5477
 20
-65.2511
 30
0.0
 10
-146.5477
 20
-65.2511
 30
0.0
 10
-146.9681
 20
-65.7001
 30
0.0
 10
-147.4499
 20
-66.0063
 30
0.0
 10
-147.9588
 20
-66.148
 30
0.0
 10
-147.9588
 20
-66.148
 30
0.0
 10
-150.2025
 20
-66.2229
 30
0.0
 10
-152.4445
 20
-65.939
 30
0.0
 10
-154.6465
 20
-65.301
 30
0.0
 10
-154.6465
 20
-65.301
 30
0.0
 10
-155.5835
 20
-64.9761
 30
0.0
 10
-156.5699
 20
-65.2571
 30
0.0
 10
-157.3589
 20
-66.0749
 30
0.0
 10
-157.3589
 20
-66.0749
 30
0.0
 10
-158.1475
 20
-66.892
 30
0.0
 10
-158.6646
 20
-68.1682
 30
0.0
 10
-158.7799
 20
-69.5843
 30
0.0
 10
-158.7799
 20
-69.5843
 30
0.0
 10
-160.3386
 20
-69.4719
 30
0.0
 10
-161.8707
 20
-70.2168
 30
0.0
 10
-163.0814
 20
-71.6758
 30
0.0
  0
SPLINE
  5
56
330
1F
100
AcDbEntity
  8
layer 1
 62
     7
370
     9
100
AcDbSpline
210
0.0
220
0.0
230
1.0
 70
    11
 71
     3
 72
    28
 73
    24
 74
     0
 42
0.0000000001
 43
0.0000000001
 12
1.0
 22
0.0
 32
0.0
 13
1.0
 23
0.0
 33
0.0
 40
0.0
 40
0.0
 40
0.0
 40
0.0
 40
0.1428571428571428
 40
0.1428571428571428
 40
0.1428571428571428
 40
0.1428571428571428
 40
0.2857142857142857
 40
0.2857142857142857
 40
0.2857142857142857
 40
0.2857142857142857
 40
0.4285714285714285
 40
0.4285714285714285
 40
0.4285714285714285
 40
0.4285714285714285
 40
0.5714285714285714
 40
0.5714285714285714
 40
0.5714285714285714
 40
0.5714285714285714
 40
0.7142857142857143
 40
0.7142857142857143
 40
0.7142857142857143
 40
0.7142857142857143
 40
1.0
 40
1.0
 40
1.0
 40
1.0
 10
-163.9886
 20
-69.6838
 30
0.0
 10
-162.7497
 20
-66.4975
 30
0.0
 10
-160.5451
 20
-64.3994
 30
0.0
 10
-158.0744
 20
-64.0558
 30
0.0
 10
-158.0744
 20
-64.0558
 30
0.0
 10
-158.1659
 20
-63.1034
 30
0.0
 10
-158.4331
 20
-62.2071
 30
0.0
 10
-158.8471
 20
-61.4662
 30
0.0
 10
-158.8471
 20
-61.4662
 30
0.0
 10
-156.6327
 20
-61.5604
 30
0.0
 10
-154.4427
 20
-62.1827
 30
0.0
 10
-152.3617
 20
-63.3088
 30
0.0
 10
-152.3617
 20
-63.3088
 30
0.0
 10
-151.5194
 20
-63.7698
 30
0.0
 10
-150.5889
 20
-63.7163
 30
0.0
 10
-149.7738
 20
-63.1594
 30
0.0
 10
-149.7738
 20
-63.1594
 30
0.0
 10
-153.5506
 20
-60.9402
 30
0.0
 10
-157.4689
 20
-59.2887
 30
0.0
 10
-161.4685
 20
-58.2288
 30
0.0
 10
-161.4685
 20
-58.2288
 30
0.0
 10
-163.7816
 20
-60.9537
 30
0.0
 10
-164.7734
 20
-65.462
 30
0.0
 10
-163.9886
 20
-69.6838
 30
0.0
  0
SPLINE
  5
57
330
1F
100
AcDbEntity
  8
layer 1
 62
     7
370
     9
100
AcDbSpline
210
0.0
220
0.0
230
1.0
 70
    11
 71
     3
 72
    28
 73
    24
 74
     0
 42
0.0000000001
 43
0.0000000001
 12
1.0
 22
0.0
 32
0.0
 13
1.0
 23
0.0
 33
0.0
 40
0.0
 40
0.0
 40
0.0
 40
0.0
 40
0.1428571428571428
 40
0.1428571428571428
 40
0.1428571428571428
 40
0.1428571428571428
 40
0.2857142857142857
 40
0.2857142857142857
 40
0.2857142857142857
 40
0.2857142857142857
 40
0.4285714285714285
 40
0.4285714285714285
 40
0.4285714285714285
 40
0.4285714285714285
 40
0.5714285714285714
 40
0.5714285714285714
 40
0.5714285714285714
 40
0.5714285714285714
 40
0.7142857142857143
 40
0.7142857142857143
 40
0.7142857142857143
 40
0.7142857142857143
 40
1.0
 40
1.0
 40
1.0
 40
1.0
 10
-159.8888
 20
-55.9873
 30
0.0
 10
-156.0387
 20
-57.786
 30
0.0
 10
-152.1366
 20
-59.3312
 30
0.0
 10
-148.1945
 20
-60.6192
 30
0.0
 10
-148.1945
 20
-60.6192
 30
0.0
 10
-148.6254
 20
-58.6757
 30
0.0
 10
-149.7077
 20
-57.2047
 30
0.0
 10
-151.0507
 20
-56.7343
 30
0.0
 10
-151.0507
 20
-56.7343
 30
0.0
 10
-152.7719
 20
-56.3402
 30
0.0
 10
-154.4259
 20
-55.4611
 30
0.0
 10
-155.9239
 20
-54.1447
 30
0.0
 10
-155.9239
 20
-54.1447
 30
0.0
 10
-155.1635
 20
-53.9008
 30
0.0
 10
-154.4015
 20
-53.6684
 30
0.0
 10
-153.6385
 20
-53.4475
 30
0.0
 10
-153.6385
 20
-53.4475
 30
0.0
 10
-154.15
 20
-51.9612
 30
0.0
 10
-154.2113
 20
-50.2227
 30
0.0
 10
-153.8065
 20
-48.6662
 30
0.0
 10
-153.8065
 20
-48.6662
 30
0.0
 10
-155.7737
 20
-51.2144
 30
0.0
 10
-157.8027
 20
-53.6565
 30
0.0
 10
-159.8888
 20
-55.9873
 30
0.0
  0
SPLINE
  5
58
330
1F
100
AcDbEntity
  8
layer 1
 62
     7
370
     9
100
AcDbSpline
210
0.0
220
0.0
230
1.0
 70
    11
 71
     3
 72
    16
 73
    12
 74
     0
 42
0.0000000001
 43
0.0000000001
 12
1.0
 22
0.0
 32
0.0
 13
1.0
 23
0.0
 33
0.0
 40
0.0
 40
0.0
 40
0.0
 40
0.0
 40
0.25
 40
0.25
 40
0.25
 40
0.25
 40
0.5
 40
0.5
 40
0.5
 40
0.5
 40
1.0
 40
1.0
 40
1.0
 40
1.0
 10
-146.6819
 20
-46.3753
 30
0.0
 10
-148.0152
 20
-45.6552
 30
0.0
 10
-149.4318
 20
-45.3335
 30
0.0
 10
-150.849
 20
-45.4291
 30
0.0
 10
-150.849
 20
-45.4291
 30
0.0
 10
-146.5931
 20
-41.465
 30
0.0
 10
-142.8395
 20
-36.4244
 30
0.0
 10
-139.7596
 20
-30.5368
 30
0.0
 10
-139.7596
 20
-30.5368
 30
0.0
 10
-141.0743
 20
-36.6356
 30
0.0
 10
-143.4638
 20
-42.1034
 30
0.0
 10
-146.6819
 20
-46.3753
 30
0.0
  0
SPLINE
  5
59
330
1F
100
AcDbEntity
  8
layer 1
 62
     7
370
     9
100
AcDbSpline
210
0.0
220
0.0
230
1.0
 70
    11
 71
     3
 72
    36
 73
    32
 74
     0
 42
0.0000000001
 43
0.0000000001
 12
1.0
 22
0.0
 32
0.0
 13
1.0
 23
0.0
 33
0.0
 40
0.0
 40
0.0
 40
0.0
 40
0.0
 40
0.1111111111111111
 40
0.1111111111111111
 40
0.1111111111111111
 40
0.1111111111111111
 40
0.2222222222222222
 40
0.2222222222222222
 40
0.2222222222222222
 40
0.2222222222222222
 40
0.3333333333333333
 40
0.3333333333333333
 40
0.3333333333333333
 40
0.3333333333333333
 40
0.4444444444444444
 40
0.4444444444444444
 40
0.4444444444444444
 40
0.4444444444444444
 40
0.5555555555555556
 40
0.5555555555555556
 40
0.5555555555555556
 40
0.5555555555555556
 40
0.6666666666666666
 40
0.6666666666666666
 40
0.6666666666666666
 40
0.6666666666666666
 40
0.7777777777777778
 40
0.7777777777777778
 40
0.7777777777777778
 40
0.7777777777777778
 40
1.0
 40
1.0
 40
1.0
 40
1.0
 10
-178.9769
 20
-66.148
 30
0.0
 10
-179.7101
 20
-65.7684
 30
0.0
 10
-180.2824
 20
-64.9057
 30
0.0
 10
-180.5263
 20
-63.8129
 30
0.0
 10
-180.5263
 20
-63.8129
 30
0.0
 10
-180.7701
 20
-62.72
 30
0.0
 10
-180.6569
 20
-61.5213
 30
0.0
 10
-180.22
 20
-60.5696
 30
0.0
 10
-180.22
 20
-60.5696
 30
0.0
 10
-179.2136
 20
-58.4604
 30
0.0
 10
-177.6502
 20
-57.0843
 30
0.0
 10
-175.9185
 20
-56.7842
 30
0.0
 10
-175.9185
 20
-56.7842
 30
0.0
 10
-173.1227
 20
-56.0554
 30
0.0
 10
-170.2579
 20
-56.1401
 30
0.0
 10
-167.4837
 20
-57.0333
 30
0.0
 10
-167.4837
 20
-57.0333
 30
0.0
 10
-168.7681
 20
-59.2905
 30
0.0
 10
-170.1848
 20
-61.3737
 30
0.0
 10
-171.718
 20
-63.2589
 30
0.0
 10
-171.718
 20
-63.2589
 30
0.0
 10
-173.1746
 20
-60.9154
 30
0.0
 10
-175.4113
 20
-60.0238
 30
0.0
 10
-177.4643
 20
-60.9678
 30
0.0
 10
-177.4643
 20
-60.9678
 30
0.0
 10
-178.2008
 20
-61.2091
 30
0.0
 10
-178.8142
 20
-61.9593
 30
0.0
 10
-179.1139
 20
-62.985
 30
0.0
 10
-179.1139
 20
-62.985
 30
0.0
 10
-179.4136
 20
-64.0105
 30
0.0
 10
-179.3621
 20
-65.1872
 30
0.0
 10
-178.9769
 20
-66.148
 30
0.0
  0
SPLINE
  5
5A
330
1F
100
AcDbEntity
  8
layer 1
 62
     7
370
     9
100
AcDbSpline
210
0.0
220
0.0
230
1.0
 70
    11
 71
     3
 72
    48
 73
    44
 74
     0
 42
0.0000000001
 43
0.0000000001
 12
1.0
 22
0.0
 32
0.0
 13
1.0
 23
0.0
 33
0.0
 40
0.0
 40
0.0
 40
0.0
 40
0.0
 40
0.0833333333333333
 40
0.0833333333333333
 40
0.0833333333333333
 40
0.0833333333333333
 40
0.1666666666666667
 40
0.1666666666666667
 40
0.1666666666666667
 40
0.1666666666666667
 40
0.25
 40
0.25
 40
0.25
 40
0.25
 40
0.3333333333333333
 40
0.3333333333333333
 40
0.3333333333333333
 40
0.3333333333333333
 40
0.4166666666666667
 40
0.4166666666666667
 40
0.4166666666666667
 40
0.4166666666666667
 40
0.5
 40
0.5
 40
0.5
 40
0.5
 40
0.5833333333333334
 40
0.5833333333333334
 40
0.5833333333333334
 40
0.5833333333333334
 40
0.6666666666666666
 40
0.6666666666666666
 40
0.6666666666666666
 40
0.6666666666666666
 40
0.75
 40
0.75
 40
0.75
 40
0.75
 40
0.8333333333333334
 40
0.8333333333333334
 40
0.8333333333333334
 40
0.8333333333333334
 40
1.0
 40
1.0
 40
1.0
 40
1.0
 10
-174.4737
 20
-45.379
 30
0.0
 10
-175.3148
 20
-43.0792
 30
0.0
 10
-174.9659
 20
-40.2218
 30
0.0
 10
-173.6337
 20
-38.5063
 30
0.0
 10
-173.6337
 20
-38.5063
 30
0.0
 10
-172.9265
 20
-39.8732
 30
0.0
 10
-171.8214
 20
-40.6583
 30
0.0
 10
-170.6589
 20
-40.6191
 30
0.0
 10
-170.6589
 20
-40.6191
 30
0.0
 10
-169.4964
 20
-40.58
 30
0.0
 10
-168.4169
 20
-39.7207
 30
0.0
 10
-167.7525
 20
-38.307
 30
0.0
 10
-167.7525
 20
-38.307
 30
0.0
 10
-162.9828
 20
-39.8252
 30
0.0
 10
-158.1138
 20
-40.5602
 30
0.0
 10
-153.2352
 20
-40.498
 30
0.0
 10
-153.2352
 20
-40.498
 30
0.0
 10
-156.7341
 20
-42.7447
 30
0.0
 10
-160.5916
 20
-43.4706
 30
0.0
 10
-164.3588
 20
-42.5899
 30
0.0
 10
-164.3588
 20
-42.5899
 30
0.0
 10
-163.7203
 20
-44.0525
 30
0.0
 10
-162.695
 20
-45.0475
 30
0.0
 10
-161.5358
 20
-45.3291
 30
0.0
 10
-161.5358
 20
-45.3291
 30
0.0
 10
-164.0228
 20
-45.9525
 30
0.0
 10
-166.557
 20
-46.0534
 30
0.0
 10
-169.0629
 20
-45.6279
 30
0.0
 10
-169.0629
 20
-45.6279
 30
0.0
 10
-166.8539
 20
-48.7496
 30
0.0
 10
-163.7534
 20
-50.0706
 30
0.0
 10
-160.7625
 20
-49.1642
 30
0.0
 10
-160.7625
 20
-49.1642
 30
0.0
 10
-162.0225
 20
-50.8574
 30
0.0
 10
-163.3589
 20
-52.4216
 30
0.0
 10
-164.7614
 20
-53.846
 30
0.0
 10
-164.7614
 20
-53.846
 30
0.0
 10
-166.0589
 20
-53.0739
 30
0.0
 10
-167.3585
 20
-52.31
 30
0.0
 10
-168.6596
 20
-51.555
 30
0.0
 10
-168.6596
 20
-51.555
 30
0.0
 10
-170.9397
 20
-50.3156
 30
0.0
 10
-172.9493
 20
-48.1808
 30
0.0
 10
-174.4737
 20
-45.379
 30
0.0
  0
SPLINE
  5
5B
330
1F
100
AcDbEntity
  8
layer 1
 62
     7
370
     9
100
AcDbSpline
210
0.0
220
0.0
230
1.0
 70
    11
 71
     3
 72
    24
 73
    20
 74
     0
 42
0.0000000001
 43
0.0000000001
 12
1.0
 22
0.0
 32
0.0
 13
1.0
 23
0.0
 33
0.0
 40
0.0
 40
0.0
 40
0.0
 40
0.0
 40
0.1666666666666667
 40
0.1666666666666667
 40
0.1666666666666667
 40
0.1666666666666667
 40
0.3333333333333333
 40
0.3333333333333333
 40
0.3333333333333333
 40
0.3333333333333333
 40
0.5
 40
0.5
 40
0.5
 40
0.5
 40
0.6666666666666666
 40
0.6666666666666666
 40
0.6666666666666666
 40
0.6666666666666666
 40
1.0
 40
1.0
 40
1.0
 40
1.0
 10
-159.8221
 20
-37.5473
 30
0.0
 10
-160.4107
 20
-37.2228
 30
0.0
 10
-160.9083
 20
-36.6131
 30
0.0
 10
-161.2333
 20
-35.8162
 30
0.0
 10
-161.2333
 20
-35.8162
 30
0.0
 10
-156.1889
 20
-36.7577
 30
0.0
 10
-151.0696
 20
-35.4758
 30
0.0
 10
-146.514
 20
-32.1312
 30
0.0
 10
-146.514
 20
-32.1312
 30
0.0
 10
-150.9021
 20
-33.454
 30
0.0
 10
-155.3998
 20
-33.7899
 30
0.0
 10
-159.8552
 20
-33.1271
 30
0.0
 10
-159.8552
 20
-33.1271
 30
0.0
 10
-163.7501
 20
-31.9891
 30
0.0
 10
-167.7156
 20
-31.4719
 30
0.0
 10
-171.6843
 20
-31.5834
 30
0.0
 10
-171.6843
 20
-31.5834
 30
0.0
 10
-168.4744
 20
-35.9608
 30
0.0
 10
-164.1665
 20
-38.1272
 30
0.0
 10
-159.8221
 20
-37.5473
 30
0.0
  0
SPLINE
  5
5C
330
1F
100
AcDbEntity
  8
layer 1
 62
     7
370
     9
100
AcDbSpline
210
0.0
220
0.0
230
1.0
 70
    11
 71
     3
 72
    24
 73
    20
 74
     0
 42
0.0000000001
 43
0.0000000001
 12
1.0
 22
0.0
 32
0.0
 13
1.0
 23
0.0
 33
0.0
 40
0.0
 40
0.0
 40
0.0
 40
0.0
 40
0.1666666666666667
 40
0.1666666666666667
 40
0.1666666666666667
 40
0.1666666666666667
 40
0.3333333333333333
 40
0.3333333333333333
 40
0.3333333333333333
 40
0.3333333333333333
 40
0.5
 40
0.5
 40
0.5
 40
0.5
 40
0.6666666666666666
 40
0.6666666666666666
 40
0.6666666666666666
 40
0.6666666666666666
 40
1.0
 40
1.0
 40
1.0
 40
1.0
 10
-164.4255
 20
-26.8518
 30
0.0
 10
-161.3607
 20
-29.7964
 30
0.0
 10
-157.7086
 20
-31.0966
 30
0.0
 10
-154.0752
 20
-30.5368
 30
0.0
 10
-154.0752
 20
-30.5368
 30
0.0
 10
-148.7273
 20
-30.2501
 30
0.0
 10
-143.5577
 20
-27.6147
 30
0.0
 10
-139.2221
 20
-22.9666
 30
0.0
 10
-139.2221
 20
-22.9666
 30
0.0
 10
-146.7254
 20
-27.7561
 30
0.0
 10
-155.2638
 20
-27.4654
 30
0.0
 10
-162.611
 20
-22.1698
 30
0.0
 10
-162.611
 20
-22.1698
 30
0.0
 10
-163.4596
 20
-21.68
 30
0.0
 10
-164.4227
 20
-22.1834
 30
0.0
 10
-164.8764
 20
-23.3546
 30
0.0
 10
-164.8764
 20
-23.3546
 30
0.0
 10
-165.3305
 20
-24.5249
 30
0.0
 10
-165.1386
 20
-26.0107
 30
0.0
 10
-164.4255
 20
-26.8518
 30
0.0
  0
SPLINE
  5
5D
330
1F
100
AcDbEntity
  8
layer 1
 62
     7
370
     9
100
AcDbSpline
210
0.0
220
0.0
230
1.0
 70
    11
 71
     3
 72
    52
 73
    48
 74
     0
 42
0.0000000001
 43
0.0000000001
 12
1.0
 22
0.0
 32
0.0
 13
1.0
 23
0.0
 33
0.0
 40
0.0
 40
0.0
 40
0.0
 40
0.0
 40
0.0769230769230769
 40
0.0769230769230769
 40
0.0769230769230769
 40
0.0769230769230769
 40
0.1538461538461539
 40
0.1538461538461539
 40
0.1538461538461539
 40
0.1538461538461539
 40
0.2307692307692308
 40
0.2307692307692308
 40
0.2307692307692308
 40
0.2307692307692308
 40
0.3076923076923077
 40
0.3076923076923077
 40
0.3076923076923077
 40
0.3076923076923077
 40
0.3846153846153846
 40
0.3846153846153846
 40
0.3846153846153846
 40
0.3846153846153846
 40
0.4615384615384616
 40
0.4615384615384616
 40
0.4615384615384616
 40
0.4615384615384616
 40
0.5384615384615384
 40
0.5384615384615384
 40
0.5384615384615384
 40
0.5384615384615384
 40
0.6153846153846154
 40
0.6153846153846154
 40
0.6153846153846154
 40
0.6153846153846154
 40
0.6923076923076923
 40
0.6923076923076923
 40
0.6923076923076923
 40
0.6923076923076923
 40
0.7692307692307693
 40
0.7692307692307693
 40
0.7692307692307693
 40
0.7692307692307693
 40
0.8461538461538461
 40
0.8461538461538461
 40
0.8461538461538461
 40
0.8461538461538461
 40
1.0
 40
1.0
 40
1.0
 40
1.0
 10
-161.9389
 20
-12.8069
 30
0.0
 10
-159.5078
 20
-17.8928
 30
0.0
 10
-155.4437
 20
-20.696
 30
0.0
 10
-151.2522
 20
-20.178
 30
0.0
 10
-151.2522
 20
-20.178
 30
0.0
 10
-148.1117
 20
-20.5168
 30
0.0
 10
-144.9695
 20
-19.5514
 30
0.0
 10
-142.1789
 20
-17.3885
 30
0.0
 10
-142.1789
 20
-17.3885
 30
0.0
 10
-139.9087
 20
-15.2567
 30
0.0
 10
-138.911
 20
-11.1073
 30
0.0
 10
-139.7596
 20
-7.3282
 30
0.0
 10
-139.7596
 20
-7.3282
 30
0.0
 10
-140.5098
 20
-5.3155
 30
0.0
 10
-141.8972
 20
-4.0039
 30
0.0
 10
-143.4443
 20
-3.8424
 30
0.0
 10
-143.4443
 20
-3.8424
 30
0.0
 10
-144.9916
 20
-3.6817
 30
0.0
 10
-146.4891
 20
-4.6937
 30
0.0
 10
-147.4212
 20
-6.5307
 30
0.0
 10
-147.4212
 20
-6.5307
 30
0.0
 10
-145.7173
 20
-5.9275
 30
0.0
 10
-143.9207
 20
-6.4744
 30
0.0
 10
-142.5149
 20
-8.0254
 30
0.0
 10
-142.5149
 20
-8.0254
 30
0.0
 10
-142.0998
 20
-8.896
 30
0.0
 10
-141.9508
 20
-9.9862
 30
0.0
 10
-142.1041
 20
-11.0278
 30
0.0
 10
-142.1041
 20
-11.0278
 30
0.0
 10
-142.2576
 20
-12.0697
 30
0.0
 10
-142.6992
 20
-12.9683
 30
0.0
 10
-143.3214
 20
-13.504
 30
0.0
 10
-143.3214
 20
-13.504
 30
0.0
 10
-145.9395
 20
-15.0397
 30
0.0
 10
-148.8877
 20
-14.7096
 30
0.0
 10
-151.3195
 20
-12.6077
 30
0.0
 10
-151.3195
 20
-12.6077
 30
0.0
 10
-151.6707
 20
-13.3394
 30
0.0
 10
-152.0521
 20
-14.0382
 30
0.0
 10
-152.4619
 20
-14.6994
 30
0.0
 10
-152.4619
 20
-14.6994
 30
0.0
 10
-154.3831
 20
-13.7162
 30
0.0
 10
-156.2121
 20
-12.3773
 30
0.0
 10
-157.9063
 20
-10.7145
 30
0.0
 10
-157.9063
 20
-10.7145
 30
0.0
 10
-158.8471
 20
-12.5451
 30
0.0
 10
-160.4334
 20
-13.3677
 30
0.0
 10
-161.9389
 20
-12.8069
 30
0.0
  0
SPLINE
  5
5E
330
1F
100
AcDbEntity
  8
layer 1
 62
     7
370
     9
100
AcDbSpline
210
0.0
220
0.0
230
1.0
 70
    11
 71
     3
 72
    24
 73
    20
 74
     0
 42
0.0000000001
 43
0.0000000001
 12
1.0
 22
0.0
 32
0.0
 13
1.0
 23
0.0
 33
0.0
 40
0.0
 40
0.0
 40
0.0
 40
0.0
 40
0.1666666666666667
 40
0.1666666666666667
 40
0.1666666666666667
 40
0.1666666666666667
 40
0.3333333333333333
 40
0.3333333333333333
 40
0.3333333333333333
 40
0.3333333333333333
 40
0.5
 40
0.5
 40
0.5
 40
0.5
 40
0.6666666666666666
 40
0.6666666666666666
 40
0.6666666666666666
 40
0.6666666666666666
 40
1.0
 40
1.0
 40
1.0
 40
1.0
 10
-162.4766
 20
-11.2127
 30
0.0
 10
-161.1353
 20
-9.6255
 30
0.0
 10
-160.151
 20
-7.4712
 30
0.0
 10
-159.6536
 20
-5.0366
 30
0.0
 10
-159.6536
 20
-5.0366
 30
0.0
 10
-158.581
 20
0.2057
 30
0.0
 10
-155.2838
 20
3.748
 30
0.0
 10
-151.5882
 20
3.6291
 30
0.0
 10
-151.5882
 20
3.6291
 30
0.0
 10
-151.8864
 20
5.1127
 30
0.0
 10
-152.831
 20
6.1006
 30
0.0
 10
-153.8737
 20
6.0193
 30
0.0
 10
-153.8737
 20
6.0193
 30
0.0
 10
-156.5856
 20
5.5175
 30
0.0
 10
-159.0406
 20
3.3914
 30
0.0
 10
-160.666
 20
0.1342
 30
0.0
 10
-160.666
 20
0.1342
 30
0.0
 10
-162.2918
 20
-3.1212
 30
0.0
 10
-162.9459
 20
-7.2224
 30
0.0
 10
-162.4766
 20
-11.2127
 30
0.0
  0
SPLINE
  5
5F
330
1F
100
AcDbEntity
  8
layer 1
 62
     7
370
     9
100
AcDbSpline
210
0.0
220
0.0
230
1.0
 70
    11
 71
     3
 72
    20
 73
    16
 74
     0
 42
0.0000000001
 43
0.0000000001
 12
1.0
 22
0.0
 32
0.0
 13
1.0
 23
0.0
 33
0.0
 40
0.0
 40
0.0
 40
0.0
 40
0.0
 40
0.2
 40
0.2
 40
0.2
 40
0.2
 40
0.4
 40
0.4
 40
0.4
 40
0.4
 40
0.6
 40
0.6
 40
0.6
 40
0.6
 40
1.0
 40
1.0
 40
1.0
 40
1.0
 10
-153.5377
 20
-9.6189
 30
0.0
 10
-154.4541
 20
-9.4454
 30
0.0
 10
-155.266
 20
-8.6561
 30
0.0
 10
-155.738
 20
-7.4792
 30
0.0
 10
-155.738
 20
-7.4792
 30
0.0
 10
-156.2106
 20
-6.3025
 30
0.0
 10
-156.2912
 20
-4.8697
 30
0.0
 10
-155.9574
 20
-3.5924
 30
0.0
 10
-155.9574
 20
-3.5924
 30
0.0
 10
-154.3333
 20
-0.3307
 30
0.0
 10
-151.5813
 20
1.2419
 30
0.0
 10
-148.9003
 20
0.442
 30
0.0
 10
-148.9003
 20
0.442
 30
0.0
 10
-151.5254
 20
-1.4816
 30
0.0
 10
-153.2834
 20
-5.2953
 30
0.0
 10
-153.5377
 20
-9.6189
 30
0.0
  0
SPLINE
  5
60
330
1F
100
AcDbEntity
  8
layer 1
 62
     7
370
     9
100
AcDbSpline
210
0.0
220
0.0
230
1.0
 70
    11
 71
     3
 72
    52
 73
    48
 74
     0
 42
0.0000000001
 43
0.0000000001
 12
1.0
 22
0.0
 32
0.0
 13
1.0
 23
0.0
 33
0.0
 40
0.0
 40
0.0
 40
0.0
 40
0.0
 40
0.0769230769230769
 40
0.0769230769230769
 40
0.0769230769230769
 40
0.0769230769230769
 40
0.1538461538461539
 40
0.1538461538461539
 40
0.1538461538461539
 40
0.1538461538461539
 40
0.2307692307692308
 40
0.2307692307692308
 40
0.2307692307692308
 40
0.2307692307692308
 40
0.3076923076923077
 40
0.3076923076923077
 40
0.3076923076923077
 40
0.3076923076923077
 40
0.3846153846153846
 40
0.3846153846153846
 40
0.3846153846153846
 40
0.3846153846153846
 40
0.4615384615384616
 40
0.4615384615384616
 40
0.4615384615384616
 40
0.4615384615384616
 40
0.5384615384615384
 40
0.5384615384615384
 40
0.5384615384615384
 40
0.5384615384615384
 40
0.6153846153846154
 40
0.6153846153846154
 40
0.6153846153846154
 40
0.6153846153846154
 40
0.6923076923076923
 40
0.6923076923076923
 40
0.6923076923076923
 40
0.6923076923076923
 40
0.7692307692307693
 40
0.7692307692307693
 40
0.7692307692307693
 40
0.7692307692307693
 40
0.8461538461538461
 40
0.8461538461538461
 40
0.8461538461538461
 40
0.8461538461538461
 40
1.0
 40
1.0
 40
1.0
 40
1.0
 10
-149.673
 20
7.9124
 30
0.0
 10
-149.0162
 20
9.743
 30
0.0
 10
-147.8011
 20
10.9864
 30
0.0
 10
-146.4132
 20
11.2491
 30
0.0
 10
-146.4132
 20
11.2491
 30
0.0
 10
-144.3235
 20
11.9141
 30
0.0
 10
-142.2591
 20
12.7454
 30
0.0
 10
-140.23
 20
13.7397
 30
0.0
 10
-140.23
 20
13.7397
 30
0.0
 10
-140.6631
 20
13.061
 30
0.0
 10
-140.9243
 20
12.1808
 30
0.0
 10
-140.9693
 20
11.2491
 30
0.0
 10
-140.9693
 20
11.2491
 30
0.0
 10
-140.2761
 20
11.3397
 30
0.0
 10
-139.59
 20
11.523
 30
0.0
 10
-138.9192
 20
11.7969
 30
0.0
 10
-138.9192
 20
11.7969
 30
0.0
 10
-138.5836
 20
10.8748
 30
0.0
 10
-138.2368
 20
9.9607
 30
0.0
 10
-137.8774
 20
9.0579
 30
0.0
 10
-137.8774
 20
9.0579
 30
0.0
 10
-140.4148
 20
9.5768
 30
0.0
 10
-142.9989
 20
9.184
 30
0.0
 10
-145.4122
 20
7.9124
 30
0.0
 10
-145.4122
 20
7.9124
 30
0.0
 10
-142.9989
 20
6.6402
 30
0.0
 10
-140.4148
 20
6.2474
 30
0.0
 10
-137.8774
 20
6.7672
 30
0.0
 10
-137.8774
 20
6.7672
 30
0.0
 10
-138.2368
 20
5.8636
 30
0.0
 10
-138.5836
 20
4.9503
 30
0.0
 10
-138.9192
 20
4.0275
 30
0.0
 10
-138.9192
 20
4.0275
 30
0.0
 10
-139.59
 20
4.3012
 30
0.0
 10
-140.2761
 20
4.4852
 30
0.0
 10
-140.9693
 20
4.5751
 30
0.0
 10
-140.9693
 20
4.5751
 30
0.0
 10
-140.9243
 20
3.6434
 30
0.0
 10
-140.6631
 20
2.7639
 30
0.0
 10
-140.23
 20
2.0852
 30
0.0
 10
-140.23
 20
2.0852
 30
0.0
 10
-142.2591
 20
3.0797
 30
0.0
 10
-144.3235
 20
3.9101
 30
0.0
 10
-146.4132
 20
4.5751
 30
0.0
 10
-146.4132
 20
4.5751
 30
0.0
 10
-147.8011
 20
4.8379
 30
0.0
 10
-149.0162
 20
6.0821
 30
0.0
 10
-149.673
 20
7.9124
 30
0.0
  0
SPLINE
  5
61
330
1F
100
AcDbEntity
  8
layer 1
 62
     7
370
     9
100
AcDbSpline
210
0.0
220
0.0
230
1.0
 70
    11
 71
     3
 72
    40
 73
    36
 74
     0
 42
0.0000000001
 43
0.0000000001
 12
1.0
 22
0.0
 32
0.0
 13
1.0
 23
0.0
 33
0.0
 40
0.0
 40
0.0
 40
0.0
 40
0.0
 40
0.1
 40
0.1
 40
0.1
 40
0.1
 40
0.2
 40
0.2
 40
0.2
 40
0.2
 40
0.3
 40
0.3
 40
0.3
 40
0.3
 40
0.4
 40
0.4
 40
0.4
 40
0.4
 40
0.5
 40
0.5
 40
0.5
 40
0.5
 40
0.6
 40
0.6
 40
0.6
 40
0.6
 40
0.7
 40
0.7
 40
0.7
 40
0.7
 40
0.8
 40
0.8
 40
0.8
 40
0.8
 40
1.0
 40
1.0
 40
1.0
 40
1.0
 10
-179.884
 20
26.6393
 30
0.0
 10
-180.265
 20
24.0217
 30
0.0
 10
-180.2184
 20
21.3059
 30
0.0
 10
-179.7496
 20
18.7204
 30
0.0
 10
-179.7496
 20
18.7204
 30
0.0
 10
-179.1351
 20
18.7509
 30
0.0
 10
-178.54
 20
19.0449
 30
0.0
 10
-178.0359
 20
19.5662
 30
0.0
 10
-178.0359
 20
19.5662
 30
0.0
 10
-177.9081
 20
16.9044
 30
0.0
 10
-176.4416
 20
14.8177
 30
0.0
 10
-174.6418
 20
14.7358
 30
0.0
 10
-174.6418
 20
14.7358
 30
0.0
 10
-175.1816
 20
14.5477
 30
0.0
 10
-175.6297
 20
13.9945
 30
0.0
 10
-175.8514
 20
13.2417
 30
0.0
 10
-175.8514
 20
13.2417
 30
0.0
 10
-175.8514
 20
13.2417
 30
0.0
 10
-175.8514
 20
10.1036
 30
0.0
 10
-175.8514
 20
10.1036
 30
0.0
 10
-175.8514
 20
10.1036
 30
0.0
 10
-176.4946
 20
8.9101
 30
0.0
 10
-177.4675
 20
8.2105
 30
0.0
 10
-178.4983
 20
8.2009
 30
0.0
 10
-178.4983
 20
8.2009
 30
0.0
 10
-179.529
 20
8.1914
 30
0.0
 10
-180.5079
 20
8.8723
 30
0.0
 10
-181.1614
 20
10.0538
 30
0.0
 10
-181.1614
 20
10.0538
 30
0.0
 10
-182.0172
 20
12.9872
 30
0.0
 10
-182.2285
 20
16.2458
 30
0.0
 10
-181.7662
 20
19.367
 30
0.0
 10
-181.7662
 20
19.367
 30
0.0
 10
-181.2937
 20
21.8731
 30
0.0
 10
-180.6633
 20
24.3074
 30
0.0
 10
-179.884
 20
26.6393
 30
0.0
  0
SPLINE
  5
62
330
1F
100
AcDbEntity
  8
layer 1
 62
     7
370
     9
100
AcDbSpline
210
0.0
220
0.0
230
1.0
 70
    11
 71
     3
 72
    48
 73
    44
 74
     0
 42
0.0000000001
 43
0.0000000001
 12
1.0
 22
0.0
 32
0.0
 13
1.0
 23
0.0
 33
0.0
 40
0.0
 40
0.0
 40
0.0
 40
0.0
 40
0.0833333333333333
 40
0.0833333333333333
 40
0.0833333333333333
 40
0.0833333333333333
 40
0.1666666666666667
 40
0.1666666666666667
 40
0.1666666666666667
 40
0.1666666666666667
 40
0.25
 40
0.25
 40
0.25
 40
0.25
 40
0.3333333333333333
 40
0.3333333333333333
 40
0.3333333333333333
 40
0.3333333333333333
 40
0.4166666666666667
 40
0.4166666666666667
 40
0.4166666666666667
 40
0.4166666666666667
 40
0.5
 40
0.5
 40
0.5
 40
0.5
 40
0.5833333333333334
 40
0.5833333333333334
 40
0.5833333333333334
 40
0.5833333333333334
 40
0.6666666666666666
 40
0.6666666666666666
 40
0.6666666666666666
 40
0.6666666666666666
 40
0.75
 40
0.75
 40
0.75
 40
0.75
 40
0.8333333333333334
 40
0.8333333333333334
 40
0.8333333333333334
 40
0.8333333333333334
 40
1.0
 40
1.0
 40
1.0
 40
1.0
 10
-165.938
 20
13.0924
 30
0.0
 10
-165.938
 20
13.0924
 30
0.0
 10
-170.2732
 20
13.0924
 30
0.0
 10
-170.2732
 20
13.0924
 30
0.0
 10
-170.2732
 20
13.0924
 30
0.0
 10
-169.9561
 20
13.8941
 30
0.0
 10
-169.6752
 20
14.7262
 30
0.0
 10
-169.4331
 20
15.5823
 30
0.0
 10
-169.4331
 20
15.5823
 30
0.0
 10
-169.3274
 20
16.1342
 30
0.0
 10
-169.413
 20
16.7278
 30
0.0
 10
-169.6623
 20
17.167
 30
0.0
 10
-169.6623
 20
17.167
 30
0.0
 10
-169.9117
 20
17.6057
 30
0.0
 10
-170.2916
 20
17.8338
 30
0.0
 10
-170.6763
 20
17.7735
 30
0.0
 10
-170.6763
 20
17.7735
 30
0.0
 10
-172.6062
 20
17.3919
 30
0.0
 10
-174.502
 20
18.7671
 30
0.0
 10
-175.4818
 20
21.2602
 30
0.0
 10
-175.4818
 20
21.2602
 30
0.0
 10
-176.4253
 20
24.411
 30
0.0
 10
-176.5094
 20
27.9806
 30
0.0
 10
-175.717
 20
31.2216
 30
0.0
 10
-175.717
 20
31.2216
 30
0.0
 10
-174.7284
 20
35.2752
 30
0.0
 10
-172.6993
 20
38.5869
 30
0.0
 10
-170.0714
 20
40.4352
 30
0.0
 10
-170.0714
 20
40.4352
 30
0.0
 10
-170.6308
 20
38.4744
 30
0.0
 10
-170.4524
 20
36.2222
 30
0.0
 10
-169.601
 20
34.5082
 30
0.0
 10
-169.601
 20
34.5082
 30
0.0
 10
-169.1469
 20
35.6111
 30
0.0
 10
-168.567
 20
36.5885
 30
0.0
 10
-167.8869
 20
37.3965
 30
0.0
 10
-167.8869
 20
37.3965
 30
0.0
 10
-167.114
 20
36.0264
 30
0.0
 10
-165.9239
 20
35.3324
 30
0.0
 10
-164.7284
 20
35.5539
 30
0.0
 10
-164.7284
 20
35.5539
 30
0.0
 10
-169.0797
 20
29.7219
 30
0.0
 10
-169.6103
 20
19.8732
 30
0.0
 10
-165.938
 20
13.0924
 30
0.0
  0
SPLINE
  5
63
330
1F
100
AcDbEntity
  8
layer 1
 62
     7
370
     9
100
AcDbSpline
210
0.0
220
0.0
230
1.0
 70
    11
 71
     3
 72
    28
 73
    24
 74
     0
 42
0.0000000001
 43
0.0000000001
 12
1.0
 22
0.0
 32
0.0
 13
1.0
 23
0.0
 33
0.0
 40
0.0
 40
0.0
 40
0.0
 40
0.0
 40
0.1428571428571428
 40
0.1428571428571428
 40
0.1428571428571428
 40
0.1428571428571428
 40
0.2857142857142857
 40
0.2857142857142857
 40
0.2857142857142857
 40
0.2857142857142857
 40
0.4285714285714285
 40
0.4285714285714285
 40
0.4285714285714285
 40
0.4285714285714285
 40
0.5714285714285714
 40
0.5714285714285714
 40
0.5714285714285714
 40
0.5714285714285714
 40
0.7142857142857143
 40
0.7142857142857143
 40
0.7142857142857143
 40
0.7142857142857143
 40
1.0
 40
1.0
 40
1.0
 40
1.0
 10
-173.9698
 20
89.5928
 30
0.0
 10
-175.6736
 20
90.4731
 30
0.0
 10
-177.5012
 20
90.6955
 30
0.0
 10
-179.2792
 20
90.2401
 30
0.0
 10
-179.2792
 20
90.2401
 30
0.0
 10
-177.4171
 20
88.7582
 30
0.0
 10
-175.7901
 20
86.7036
 30
0.0
 10
-174.5073
 20
84.2137
 30
0.0
 10
-174.5073
 20
84.2137
 30
0.0
 10
-177.3554
 20
85.5654
 30
0.0
 10
-180.4558
 20
85.0675
 30
0.0
 10
-183.0431
 20
82.8442
 30
0.0
 10
-183.0431
 20
82.8442
 30
0.0
 10
-183.0431
 20
82.8442
 30
0.0
 10
-183.0431
 20
93.7614
 30
0.0
 10
-183.0431
 20
93.7614
 30
0.0
 10
-183.0431
 20
93.7614
 30
0.0
 10
-182.4718
 20
94.3229
 30
0.0
 10
-181.8117
 20
94.6546
 30
0.0
 10
-181.1273
 20
94.722
 30
0.0
 10
-181.1273
 20
94.722
 30
0.0
 10
-178.3515
 20
94.6378
 30
0.0
 10
-175.7382
 20
92.7647
 30
0.0
 10
-173.9698
 20
89.5928
 30
0.0
  0
SPLINE
  5
64
330
1F
100
AcDbEntity
  8
layer 1
 62
     7
370
     9
100
AcDbSpline
210
0.0
220
0.0
230
1.0
 70
    11
 71
     3
 72
    16
 73
    12
 74
     0
 42
0.0000000001
 43
0.0000000001
 12
1.0
 22
0.0
 32
0.0
 13
1.0
 23
0.0
 33
0.0
 40
0.0
 40
0.0
 40
0.0
 40
0.0
 40
0.25
 40
0.25
 40
0.25
 40
0.25
 40
0.5
 40
0.5
 40
0.5
 40
0.5
 40
1.0
 40
1.0
 40
1.0
 40
1.0
 10
-183.0431
 20
32.4352
 30
0.0
 10
-181.9819
 20
33.4272
 30
0.0
 10
-180.8097
 20
34.1291
 30
0.0
 10
-179.5817
 20
34.5082
 30
0.0
 10
-179.5817
 20
34.5082
 30
0.0
 10
-180.7094
 20
34.9651
 30
0.0
 10
-181.8925
 20
35.0407
 30
0.0
 10
-183.0431
 20
34.729
 30
0.0
 10
-183.0431
 20
34.729
 30
0.0
 10
-183.0431
 20
34.729
 30
0.0
 10
-183.0431
 20
32.4352
 30
0.0
 10
-183.0431
 20
32.4352
 30
0.0
  0
SPLINE
  5
65
330
1F
100
AcDbEntity
  8
layer 1
 62
     7
370
     9
100
AcDbSpline
210
0.0
220
0.0
230
1.0
 70
    11
 71
     3
 72
    16
 73
    12
 74
     0
 42
0.0000000001
 43
0.0000000001
 12
1.0
 22
0.0
 32
0.0
 13
1.0
 23
0.0
 33
0.0
 40
0.0
 40
0.0
 40
0.0
 40
0.0
 40
0.25
 40
0.25
 40
0.25
 40
0.25
 40
0.5
 40
0.5
 40
0.5
 40
0.5
 40
1.0
 40
1.0
 40
1.0
 40
1.0
 10
-183.0431
 20
41.8969
 30
0.0
 10
-181.1955
 20
41.7024
 30
0.0
 10
-179.386
 20
41.0221
 30
0.0
 10
-177.6995
 20
39.8874
 30
0.0
 10
-177.6995
 20
39.8874
 30
0.0
 10
-179.3881
 20
38.7155
 30
0.0
 10
-181.1918
 20
37.9516
 30
0.0
 10
-183.0431
 20
37.6247
 30
0.0
 10
-183.0431
 20
37.6247
 30
0.0
 10
-183.0431
 20
37.6247
 30
0.0
 10
-183.0431
 20
41.8969
 30
0.0
 10
-183.0431
 20
41.8969
 30
0.0
  0
SPLINE
  5
66
330
1F
100
AcDbEntity
  8
layer 1
 62
     7
370
     9
100
AcDbSpline
210
0.0
220
0.0
230
1.0
 70
    11
 71
     3
 72
    28
 73
    24
 74
     0
 42
0.0000000001
 43
0.0000000001
 12
1.0
 22
0.0
 32
0.0
 13
1.0
 23
0.0
 33
0.0
 40
0.0
 40
0.0
 40
0.0
 40
0.0
 40
0.1428571428571428
 40
0.1428571428571428
 40
0.1428571428571428
 40
0.1428571428571428
 40
0.2857142857142857
 40
0.2857142857142857
 40
0.2857142857142857
 40
0.2857142857142857
 40
0.4285714285714285
 40
0.4285714285714285
 40
0.4285714285714285
 40
0.4285714285714285
 40
0.5714285714285714
 40
0.5714285714285714
 40
0.5714285714285714
 40
0.5714285714285714
 40
0.7142857142857143
 40
0.7142857142857143
 40
0.7142857142857143
 40
0.7142857142857143
 40
1.0
 40
1.0
 40
1.0
 40
1.0
 10
-173.0961
 20
43.423
 30
0.0
 10
-173.0668
 20
44.186
 30
0.0
 10
-173.0554
 20
44.9507
 30
0.0
 10
-173.062
 20
45.7146
 30
0.0
 10
-173.062
 20
45.7146
 30
0.0
 10
-173.579
 20
45.6889
 30
0.0
 10
-174.0571
 20
46.1169
 30
0.0
 10
-174.2824
 20
46.8061
 30
0.0
 10
-174.2824
 20
46.8061
 30
0.0
 10
-174.5073
 20
47.4953
 30
0.0
 10
-174.4374
 20
48.317
 30
0.0
 10
-174.1041
 20
48.9017
 30
0.0
 10
-174.1041
 20
48.9017
 30
0.0
 10
-177.0572
 20
49.6277
 30
0.0
 10
-180.0596
 20
49.8108
 30
0.0
 10
-183.0431
 20
49.447
 30
0.0
 10
-183.0431
 20
49.447
 30
0.0
 10
-183.0431
 20
49.447
 30
0.0
 10
-183.0431
 20
43.6006
 30
0.0
 10
-183.0431
 20
43.6006
 30
0.0
 10
-183.0431
 20
43.6006
 30
0.0
 10
-179.7567
 20
44.5933
 30
0.0
 10
-176.3651
 20
44.5329
 30
0.0
 10
-173.0961
 20
43.423
 30
0.0
  0
SPLINE
  5
67
330
1F
100
AcDbEntity
  8
layer 1
 62
     7
370
     9
100
AcDbSpline
210
0.0
220
0.0
230
1.0
 70
    11
 71
     3
 72
    28
 73
    24
 74
     0
 42
0.0000000001
 43
0.0000000001
 12
1.0
 22
0.0
 32
0.0
 13
1.0
 23
0.0
 33
0.0
 40
0.0
 40
0.0
 40
0.0
 40
0.0
 40
0.1428571428571428
 40
0.1428571428571428
 40
0.1428571428571428
 40
0.1428571428571428
 40
0.2857142857142857
 40
0.2857142857142857
 40
0.2857142857142857
 40
0.2857142857142857
 40
0.4285714285714285
 40
0.4285714285714285
 40
0.4285714285714285
 40
0.4285714285714285
 40
0.5714285714285714
 40
0.5714285714285714
 40
0.5714285714285714
 40
0.5714285714285714
 40
0.7142857142857143
 40
0.7142857142857143
 40
0.7142857142857143
 40
0.7142857142857143
 40
1.0
 40
1.0
 40
1.0
 40
1.0
 10
-170.1722
 20
69.8195
 30
0.0
 10
-173.2555
 20
66.8797
 30
0.0
 10
-176.8989
 20
65.4991
 30
0.0
 10
-180.5561
 20
65.8854
 30
0.0
 10
-180.5561
 20
65.8854
 30
0.0
 10
-179.5118
 20
63.7785
 30
0.0
 10
-177.8506
 20
62.5376
 30
0.0
 10
-176.0866
 20
62.5481
 30
0.0
 10
-176.0866
 20
62.5481
 30
0.0
 10
-177.525
 20
60.422
 30
0.0
 10
-178.1872
 20
57.4028
 30
0.0
 10
-177.868
 20
54.4302
 30
0.0
 10
-177.868
 20
54.4302
 30
0.0
 10
-179.7946
 20
55.0308
 30
0.0
 10
-181.5799
 20
56.3762
 30
0.0
 10
-183.0431
 20
58.3288
 30
0.0
 10
-183.0431
 20
58.3288
 30
0.0
 10
-183.0431
 20
58.3288
 30
0.0
 10
-183.0431
 20
74.8661
 30
0.0
 10
-183.0431
 20
74.8661
 30
0.0
 10
-183.0431
 20
74.8661
 30
0.0
 10
-179.7116
 20
69.789
 30
0.0
 10
-174.762
 20
67.8485
 30
0.0
 10
-170.1722
 20
69.8195
 30
0.0
  0
SPLINE
  5
68
330
1F
100
AcDbEntity
  8
layer 1
 62
     7
370
     9
100
AcDbSpline
210
0.0
220
0.0
230
1.0
 70
    11
 71
     3
 72
    48
 73
    44
 74
     0
 42
0.0000000001
 43
0.0000000001
 12
1.0
 22
0.0
 32
0.0
 13
1.0
 23
0.0
 33
0.0
 40
0.0
 40
0.0
 40
0.0
 40
0.0
 40
0.0833333333333333
 40
0.0833333333333333
 40
0.0833333333333333
 40
0.0833333333333333
 40
0.1666666666666667
 40
0.1666666666666667
 40
0.1666666666666667
 40
0.1666666666666667
 40
0.25
 40
0.25
 40
0.25
 40
0.25
 40
0.3333333333333333
 40
0.3333333333333333
 40
0.3333333333333333
 40
0.3333333333333333
 40
0.4166666666666667
 40
0.4166666666666667
 40
0.4166666666666667
 40
0.4166666666666667
 40
0.5
 40
0.5
 40
0.5
 40
0.5
 40
0.5833333333333334
 40
0.5833333333333334
 40
0.5833333333333334
 40
0.5833333333333334
 40
0.6666666666666666
 40
0.6666666666666666
 40
0.6666666666666666
 40
0.6666666666666666
 40
0.75
 40
0.75
 40
0.75
 40
0.75
 40
0.8333333333333334
 40
0.8333333333333334
 40
0.8333333333333334
 40
0.8333333333333334
 40
1.0
 40
1.0
 40
1.0
 40
1.0
 10
-178.4392
 20
101.9445
 30
0.0
 10
-179.8255
 20
100.7291
 30
0.0
 10
-181.4459
 20
100.2369
 30
0.0
 10
-183.0431
 20
100.5436
 30
0.0
 10
-183.0431
 20
100.5436
 30
0.0
 10
-183.0431
 20
100.5436
 30
0.0
 10
-183.0431
 20
103.5949
 30
0.0
 10
-183.0431
 20
103.5949
 30
0.0
 10
-183.0431
 20
103.5949
 30
0.0
 10
-182.3228
 20
104.0079
 30
0.0
 10
-181.6161
 20
104.4706
 30
0.0
 10
-180.9257
 20
104.9822
 30
0.0
 10
-180.9257
 20
104.9822
 30
0.0
 10
-179.7133
 20
103.3604
 30
0.0
 10
-178.0072
 20
102.8279
 30
0.0
 10
-176.4562
 20
103.5879
 30
0.0
 10
-176.4562
 20
103.5879
 30
0.0
 10
-177.1466
 20
104.8592
 30
0.0
 10
-177.2143
 20
106.6415
 30
0.0
 10
-176.6243
 20
108.0208
 30
0.0
 10
-176.6243
 20
108.0208
 30
0.0
 10
-176.1483
 20
108.8407
 30
0.0
 10
-175.4487
 20
109.3001
 30
0.0
 10
-174.7187
 20
109.2712
 30
0.0
 10
-174.7187
 20
109.2712
 30
0.0
 10
-173.9887
 20
109.2423
 30
0.0
 10
-173.3065
 20
108.7275
 30
0.0
 10
-172.8609
 20
107.8712
 30
0.0
 10
-172.8609
 20
107.8712
 30
0.0
 10
-172.0132
 20
105.5236
 30
0.0
 10
-171.706
 20
102.8304
 30
0.0
 10
-171.9867
 20
100.2007
 30
0.0
 10
-171.9867
 20
100.2007
 30
0.0
 10
-172.3792
 20
97.5534
 30
0.0
 10
-172.4929
 20
94.8313
 30
0.0
 10
-172.3228
 20
92.1326
 30
0.0
 10
-172.3228
 20
92.1326
 30
0.0
 10
-173.3183
 20
93.253
 30
0.0
 10
-174.2012
 20
94.5774
 30
0.0
 10
-174.9441
 20
96.0674
 30
0.0
 10
-174.9441
 20
96.0674
 30
0.0
 10
-175.7766
 20
98.4111
 30
0.0
 10
-176.9748
 20
100.4263
 30
0.0
 10
-178.4392
 20
101.9445
 30
0.0
  0
SPLINE
  5
69
330
1F
100
AcDbEntity
  8
layer 1
 62
     7
370
     9
100
AcDbSpline
210
0.0
220
0.0
230
1.0
 70
    11
 71
     3
 72
    24
 73
    20
 74
     0
 42
0.0000000001
 43
0.0000000001
 12
1.0
 22
0.0
 32
0.0
 13
1.0
 23
0.0
 33
0.0
 40
0.0
 40
0.0
 40
0.0
 40
0.0
 40
0.1666666666666667
 40
0.1666666666666667
 40
0.1666666666666667
 40
0.1666666666666667
 40
0.3333333333333333
 40
0.3333333333333333
 40
0.3333333333333333
 40
0.3333333333333333
 40
0.5
 40
0.5
 40
0.5
 40
0.5
 40
0.6666666666666666
 40
0.6666666666666666
 40
0.6666666666666666
 40
0.6666666666666666
 40
1.0
 40
1.0
 40
1.0
 40
1.0
 10
-172.2561
 20
112.5027
 30
0.0
 10
-171.512
 20
113.9539
 30
0.0
 10
-171.3034
 20
115.8576
 30
0.0
 10
-171.6995
 20
117.5829
 30
0.0
 10
-171.6995
 20
117.5829
 30
0.0
 10
-171.6995
 20
117.5829
 30
0.0
 10
-165.6199
 20
117.5829
 30
0.0
 10
-165.6199
 20
117.5829
 30
0.0
 10
-165.6199
 20
117.5829
 30
0.0
 10
-163.9757
 20
114.5468
 30
0.0
 10
-163.7806
 20
110.3138
 30
0.0
 10
-165.1317
 20
106.9742
 30
0.0
 10
-165.1317
 20
106.9742
 30
0.0
 10
-166.5602
 20
105.0159
 30
0.0
 10
-167.8749
 20
102.8834
 30
0.0
 10
-169.0629
 20
100.5998
 30
0.0
 10
-169.0629
 20
100.5998
 30
0.0
 10
-168.1903
 20
105.1805
 30
0.0
 10
-169.4986
 20
110.0601
 30
0.0
 10
-172.2561
 20
112.5027
 30
0.0
  0
SPLINE
  5
6A
330
1F
100
AcDbEntity
  8
layer 1
 62
     7
370
     9
100
AcDbSpline
210
0.0
220
0.0
230
1.0
 70
    11
 71
     3
 72
    20
 73
    16
 74
     0
 42
0.0000000001
 43
0.0000000001
 12
1.0
 22
0.0
 32
0.0
 13
1.0
 23
0.0
 33
0.0
 40
0.0
 40
0.0
 40
0.0
 40
0.0
 40
0.2
 40
0.2
 40
0.2
 40
0.2
 40
0.4
 40
0.4
 40
0.4
 40
0.4
 40
0.6
 40
0.6
 40
0.6
 40
0.6
 40
1.0
 40
1.0
 40
1.0
 40
1.0
 10
-160.9981
 20
110.7099
 30
0.0
 10
-160.7451
 20
113.0664
 30
0.0
 10
-161.0215
 20
115.481
 30
0.0
 10
-161.7839
 20
117.5829
 30
0.0
 10
-161.7839
 20
117.5829
 30
0.0
 10
-161.7839
 20
117.5829
 30
0.0
 10
-139.2112
 20
117.5829
 30
0.0
 10
-139.2112
 20
117.5829
 30
0.0
 10
-139.2112
 20
117.5829
 30
0.0
 10
-141.0814
 20
114.3749
 30
0.0
 10
-143.911
 20
112.7668
 30
0.0
 10
-146.7492
 20
113.2993
 30
0.0
 10
-146.7492
 20
113.2993
 30
0.0
 10
-151.5704
 20
114.1388
 30
0.0
 10
-156.4565
 20
113.2504
 30
0.0
 10
-160.9981
 20
110.7099
 30
0.0
  0
SPLINE
  5
6B
330
1F
100
AcDbEntity
  8
layer 1
 62
     7
370
     9
100
AcDbSpline
210
0.0
220
0.0
230
1.0
 70
    11
 71
     3
 72
    24
 73
    20
 74
     0
 42
0.0000000001
 43
0.0000000001
 12
1.0
 22
0.0
 32
0.0
 13
1.0
 23
0.0
 33
0.0
 40
0.0
 40
0.0
 40
0.0
 40
0.0
 40
0.1666666666666667
 40
0.1666666666666667
 40
0.1666666666666667
 40
0.1666666666666667
 40
0.3333333333333333
 40
0.3333333333333333
 40
0.3333333333333333
 40
0.3333333333333333
 40
0.5
 40
0.5
 40
0.5
 40
0.5
 40
0.6666666666666666
 40
0.6666666666666666
 40
0.6666666666666666
 40
0.6666666666666666
 40
1.0
 40
1.0
 40
1.0
 40
1.0
 10
-137.9257
 20
117.5829
 30
0.0
 10
-137.9257
 20
117.5829
 30
0.0
 10
-129.764
 20
117.5829
 30
0.0
 10
-129.764
 20
117.5829
 30
0.0
 10
-129.764
 20
117.5829
 30
0.0
 10
-129.8907
 20
114.4769
 30
0.0
 10
-128.7049
 20
111.5797
 30
0.0
 10
-126.7881
 20
110.3115
 30
0.0
 10
-126.7881
 20
110.3115
 30
0.0
 10
-130.1211
 20
108.0326
 30
0.0
 10
-132.6742
 20
103.8183
 30
0.0
 10
-133.8448
 20
98.6625
 30
0.0
 10
-133.8448
 20
98.6625
 30
0.0
 10
-135.0159
 20
103.8183
 30
0.0
 10
-137.5685
 20
108.0326
 30
0.0
 10
-140.9021
 20
110.3115
 30
0.0
 10
-140.9021
 20
110.3115
 30
0.0
 10
-138.9846
 20
111.5797
 30
0.0
 10
-137.7989
 20
114.4769
 30
0.0
 10
-137.9257
 20
117.5829
 30
0.0
  0
SPLINE
  5
6C
330
1F
100
AcDbEntity
  8
layer 1
 62
     7
370
     9
100
AcDbSpline
210
0.0
220
0.0
230
1.0
 70
    11
 71
     3
 72
    52
 73
    48
 74
     0
 42
0.0000000001
 43
0.0000000001
 12
1.0
 22
0.0
 32
0.0
 13
1.0
 23
0.0
 33
0.0
 40
0.0
 40
0.0
 40
0.0
 40
0.0
 40
0.0769230769230769
 40
0.0769230769230769
 40
0.0769230769230769
 40
0.0769230769230769
 40
0.1538461538461539
 40
0.1538461538461539
 40
0.1538461538461539
 40
0.1538461538461539
 40
0.2307692307692308
 40
0.2307692307692308
 40
0.2307692307692308
 40
0.2307692307692308
 40
0.3076923076923077
 40
0.3076923076923077
 40
0.3076923076923077
 40
0.3076923076923077
 40
0.3846153846153846
 40
0.3846153846153846
 40
0.3846153846153846
 40
0.3846153846153846
 40
0.4615384615384616
 40
0.4615384615384616
 40
0.4615384615384616
 40
0.4615384615384616
 40
0.5384615384615384
 40
0.5384615384615384
 40
0.5384615384615384
 40
0.5384615384615384
 40
0.6153846153846154
 40
0.6153846153846154
 40
0.6153846153846154
 40
0.6153846153846154
 40
0.6923076923076923
 40
0.6923076923076923
 40
0.6923076923076923
 40
0.6923076923076923
 40
0.7692307692307693
 40
0.7692307692307693
 40
0.7692307692307693
 40
0.7692307692307693
 40
0.8461538461538461
 40
0.8461538461538461
 40
0.8461538461538461
 40
0.8461538461538461
 40
1.0
 40
1.0
 40
1.0
 40
1.0
 10
-134.1808
 20
91.7342
 30
0.0
 10
-134.1471
 20
88.7085
 30
0.0
 10
-134.5602
 20
85.7077
 30
0.0
 10
-135.3904
 20
82.9439
 30
0.0
 10
-135.3904
 20
82.9439
 30
0.0
 10
-136.367
 20
79.5576
 30
0.0
 10
-138.1409
 20
76.8139
 30
0.0
 10
-140.3812
 20
75.2242
 30
0.0
 10
-140.3812
 20
75.2242
 30
0.0
 10
-141.2956
 20
75.1304
 30
0.0
 10
-142.2023
 20
75.5279
 30
0.0
 10
-142.9355
 20
76.3448
 30
0.0
 10
-142.9355
 20
76.3448
 30
0.0
 10
-143.1441
 20
71.8901
 30
0.0
 10
-143.3961
 20
67.4405
 30
0.0
 10
-143.691
 20
62.9971
 30
0.0
 10
-143.691
 20
62.9971
 30
0.0
 10
-144.6134
 20
64.5915
 30
0.0
 10
-145.7606
 20
65.8661
 30
0.0
 10
-147.0515
 20
66.732
 30
0.0
 10
-147.0515
 20
66.732
 30
0.0
 10
-147.0575
 20
65.9271
 30
0.0
 10
-147.2966
 20
65.1648
 30
0.0
 10
-147.7084
 20
64.6405
 30
0.0
 10
-147.7084
 20
64.6405
 30
0.0
 10
-148.1203
 20
64.1159
 30
0.0
 10
-148.6651
 20
63.8798
 30
0.0
 10
-149.2026
 20
63.993
 30
0.0
 10
-149.2026
 20
63.993
 30
0.0
 10
-149.7776
 20
64.2605
 30
0.0
 10
-150.2366
 20
64.9071
 30
0.0
 10
-150.4469
 20
65.7447
 30
0.0
 10
-150.4469
 20
65.7447
 30
0.0
 10
-150.6572
 20
66.5817
 30
0.0
 10
-150.5949
 20
67.5159
 30
0.0
 10
-150.2778
 20
68.2756
 30
0.0
 10
-150.2778
 20
68.2756
 30
0.0
 10
-149.5407
 20
69.7738
 30
0.0
 10
-148.6027
 20
71.0283
 30
0.0
 10
-147.5226
 20
71.9615
 30
0.0
 10
-147.5226
 20
71.9615
 30
0.0
 10
-146.1725
 20
73.4886
 30
0.0
 10
-145.3483
 20
75.8225
 30
0.0
 10
-145.2707
 20
78.3366
 30
0.0
 10
-145.2707
 20
78.3366
 30
0.0
 10
-140.5276
 20
80.4636
 30
0.0
 10
-136.5426
 20
85.2779
 30
0.0
 10
-134.1808
 20
91.7342
 30
0.0
  0
SPLINE
  5
6D
330
1F
100
AcDbEntity
  8
layer 1
 62
     7
370
     9
100
AcDbSpline
210
0.0
220
0.0
230
1.0
 70
    11
 71
     3
 72
    60
 73
    56
 74
     0
 42
0.0000000001
 43
0.0000000001
 12
1.0
 22
0.0
 32
0.0
 13
1.0
 23
0.0
 33
0.0
 40
0.0
 40
0.0
 40
0.0
 40
0.0
 40
0.0666666666666667
 40
0.0666666666666667
 40
0.0666666666666667
 40
0.0666666666666667
 40
0.1333333333333333
 40
0.1333333333333333
 40
0.1333333333333333
 40
0.1333333333333333
 40
0.2
 40
0.2
 40
0.2
 40
0.2
 40
0.2666666666666667
 40
0.2666666666666667
 40
0.2666666666666667
 40
0.2666666666666667
 40
0.3333333333333333
 40
0.3333333333333333
 40
0.3333333333333333
 40
0.3333333333333333
 40
0.4
 40
0.4
 40
0.4
 40
0.4
 40
0.4666666666666667
 40
0.4666666666666667
 40
0.4666666666666667
 40
0.4666666666666667
 40
0.5333333333333333
 40
0.5333333333333333
 40
0.5333333333333333
 40
0.5333333333333333
 40
0.6
 40
0.6
 40
0.6
 40
0.6
 40
0.6666666666666666
 40
0.6666666666666666
 40
0.6666666666666666
 40
0.6666666666666666
 40
0.7333333333333333
 40
0.7333333333333333
 40
0.7333333333333333
 40
0.7333333333333333
 40
0.8
 40
0.8
 40
0.8
 40
0.8
 40
0.8666666666666667
 40
0.8666666666666667
 40
0.8666666666666667
 40
0.8666666666666667
 40
1.0
 40
1.0
 40
1.0
 40
1.0
 10
-133.8448
 20
80.1792
 30
0.0
 10
-133.1116
 20
77.4122
 30
0.0
 10
-131.8207
 20
75.0475
 30
0.0
 10
-130.1482
 20
73.4057
 30
0.0
 10
-130.1482
 20
73.4057
 30
0.0
 10
-130.953
 20
73.5182
 30
0.0
 10
-131.7632
 20
73.5182
 30
0.0
 10
-132.5679
 20
73.4057
 30
0.0
 10
-132.5679
 20
73.4057
 30
0.0
 10
-129.7477
 20
69.7232
 30
0.0
 10
-127.7934
 20
64.8026
 30
0.0
 10
-126.9897
 20
59.3611
 30
0.0
 10
-126.9897
 20
59.3611
 30
0.0
 10
-127.6307
 20
60.8733
 30
0.0
 10
-128.5061
 20
62.1369
 30
0.0
 10
-129.5434
 20
63.047
 30
0.0
 10
-129.5434
 20
63.047
 30
0.0
 10
-129.4085
 20
61.8284
 30
0.0
 10
-129.3748
 20
60.5908
 30
0.0
 10
-129.4426
 20
59.3611
 30
0.0
 10
-129.4426
 20
59.3611
 30
0.0
 10
-129.9743
 20
61.5593
 30
0.0
 10
-130.7097
 20
63.638
 30
0.0
 10
-131.6271
 20
65.5369
 30
0.0
 10
-131.6271
 20
65.5369
 30
0.0
 10
-132.6596
 20
67.9985
 30
0.0
 10
-133.4091
 20
70.6975
 30
0.0
 10
-133.8448
 20
73.523
 30
0.0
 10
-133.8448
 20
73.523
 30
0.0
 10
-134.2811
 20
70.6975
 30
0.0
 10
-135.0306
 20
67.9985
 30
0.0
 10
-136.063
 20
65.5369
 30
0.0
 10
-136.063
 20
65.5369
 30
0.0
 10
-136.9806
 20
63.638
 30
0.0
 10
-137.7154
 20
61.5593
 30
0.0
 10
-138.2471
 20
59.3611
 30
0.0
 10
-138.2471
 20
59.3611
 30
0.0
 10
-138.3154
 20
60.5908
 30
0.0
 10
-138.2812
 20
61.8284
 30
0.0
 10
-138.1463
 20
63.047
 30
0.0
 10
-138.1463
 20
63.047
 30
0.0
 10
-139.1835
 20
62.1369
 30
0.0
 10
-140.0594
 20
60.8733
 30
0.0
 10
-140.7004
 20
59.3611
 30
0.0
 10
-140.7004
 20
59.3611
 30
0.0
 10
-139.8968
 20
64.8026
 30
0.0
 10
-137.9424
 20
69.7232
 30
0.0
 10
-135.1222
 20
73.4057
 30
0.0
 10
-135.1222
 20
73.4057
 30
0.0
 10
-135.927
 20
73.5182
 30
0.0
 10
-136.7366
 20
73.5182
 30
0.0
 10
-137.5415
 20
73.4057
 30
0.0
 10
-137.5415
 20
73.4057
 30
0.0
 10
-135.869
 20
75.0475
 30
0.0
 10
-134.5781
 20
77.4122
 30
0.0
 10
-133.8448
 20
80.1792
 30
0.0
  0
SPLINE
  5
6E
330
1F
100
AcDbEntity
  8
layer 1
 62
     7
370
     9
100
AcDbSpline
210
0.0
220
0.0
230
1.0
 70
    11
 71
     3
 72
    28
 73
    24
 74
     0
 42
0.0000000001
 43
0.0000000001
 12
1.0
 22
0.0
 32
0.0
 13
1.0
 23
0.0
 33
0.0
 40
0.0
 40
0.0
 40
0.0
 40
0.0
 40
0.1428571428571428
 40
0.1428571428571428
 40
0.1428571428571428
 40
0.1428571428571428
 40
0.2857142857142857
 40
0.2857142857142857
 40
0.2857142857142857
 40
0.2857142857142857
 40
0.4285714285714285
 40
0.4285714285714285
 40
0.4285714285714285
 40
0.4285714285714285
 40
0.5714285714285714
 40
0.5714285714285714
 40
0.5714285714285714
 40
0.5714285714285714
 40
0.7142857142857143
 40
0.7142857142857143
 40
0.7142857142857143
 40
0.7142857142857143
 40
1.0
 40
1.0
 40
1.0
 40
1.0
 10
-133.8448
 20
63.7441
 30
0.0
 10
-132.7257
 20
61.4894
 30
0.0
 10
-131.884
 20
58.961
 30
0.0
 10
-131.3583
 20
56.2726
 30
0.0
 10
-131.3583
 20
56.2726
 30
0.0
 10
-130.8743
 20
54.243
 30
0.0
 10
-130.8743
 20
52.0277
 30
0.0
 10
-131.3583
 20
49.9979
 30
0.0
 10
-131.3583
 20
49.9979
 30
0.0
 10
-132.3567
 20
46.516
 30
0.0
 10
-133.1879
 20
42.9339
 30
0.0
 10
-133.8448
 20
39.2776
 30
0.0
 10
-133.8448
 20
39.2776
 30
0.0
 10
-134.5022
 20
42.9339
 30
0.0
 10
-135.333
 20
46.516
 30
0.0
 10
-136.3318
 20
49.9979
 30
0.0
 10
-136.3318
 20
49.9979
 30
0.0
 10
-136.8153
 20
52.0277
 30
0.0
 10
-136.8153
 20
54.243
 30
0.0
 10
-136.3318
 20
56.2726
 30
0.0
 10
-136.3318
 20
56.2726
 30
0.0
 10
-135.8055
 20
58.961
 30
0.0
 10
-134.964
 20
61.4894
 30
0.0
 10
-133.8448
 20
63.7441
 30
0.0
  0
SPLINE
  5
6F
330
1F
100
AcDbEntity
  8
layer 1
 62
     7
370
     9
100
AcDbSpline
210
0.0
220
0.0
230
1.0
 70
    11
 71
     3
 72
    28
 73
    24
 74
     0
 42
0.0000000001
 43
0.0000000001
 12
1.0
 22
0.0
 32
0.0
 13
1.0
 23
0.0
 33
0.0
 40
0.0
 40
0.0
 40
0.0
 40
0.0
 40
0.1428571428571428
 40
0.1428571428571428
 40
0.1428571428571428
 40
0.1428571428571428
 40
0.2857142857142857
 40
0.2857142857142857
 40
0.2857142857142857
 40
0.2857142857142857
 40
0.4285714285714285
 40
0.4285714285714285
 40
0.4285714285714285
 40
0.4285714285714285
 40
0.5714285714285714
 40
0.5714285714285714
 40
0.5714285714285714
 40
0.5714285714285714
 40
0.7142857142857143
 40
0.7142857142857143
 40
0.7142857142857143
 40
0.7142857142857143
 40
1.0
 40
1.0
 40
1.0
 40
1.0
 10
-136.2982
 20
11.3486
 30
0.0
 10
-135.6543
 20
10.3839
 30
0.0
 10
-134.7586
 20
9.8828
 30
0.0
 10
-133.8448
 20
9.9768
 30
0.0
 10
-133.8448
 20
9.9768
 30
0.0
 10
-132.9317
 20
9.8828
 30
0.0
 10
-132.0357
 20
10.3839
 30
0.0
 10
-131.3919
 20
11.3486
 30
0.0
 10
-131.3919
 20
11.3486
 30
0.0
 10
-130.6814
 20
12.7566
 30
0.0
 10
-130.6949
 20
14.6955
 30
0.0
 10
-131.4255
 20
16.0802
 30
0.0
 10
-131.4255
 20
16.0802
 30
0.0
 10
-132.368
 20
17.5581
 30
0.0
 10
-133.1809
 20
19.2063
 30
0.0
 10
-133.8448
 20
20.9863
 30
0.0
 10
-133.8448
 20
20.9863
 30
0.0
 10
-134.5086
 20
19.2063
 30
0.0
 10
-135.3222
 20
17.5581
 30
0.0
 10
-136.2645
 20
16.0802
 30
0.0
 10
-136.2645
 20
16.0802
 30
0.0
 10
-136.9952
 20
14.6955
 30
0.0
 10
-137.0087
 20
12.7566
 30
0.0
 10
-136.2982
 20
11.3486
 30
0.0
  0
SPLINE
  5
70
330
1F
100
AcDbEntity
  8
layer 1
 62
     7
370
     9
100
AcDbSpline
210
0.0
220
0.0
230
1.0
 70
    11
 71
     3
 72
    24
 73
    20
 74
     0
 42
0.0000000001
 43
0.0000000001
 12
1.0
 22
0.0
 32
0.0
 13
1.0
 23
0.0
 33
0.0
 40
0.0
 40
0.0
 40
0.0
 40
0.0
 40
0.1666666666666667
 40
0.1666666666666667
 40
0.1666666666666667
 40
0.1666666666666667
 40
0.3333333333333333
 40
0.3333333333333333
 40
0.3333333333333333
 40
0.3333333333333333
 40
0.5
 40
0.5
 40
0.5
 40
0.5
 40
0.6666666666666666
 40
0.6666666666666666
 40
0.6666666666666666
 40
0.6666666666666666
 40
1.0
 40
1.0
 40
1.0
 40
1.0
 10
-146.1444
 20
101.297
 30
0.0
 10
-144.5553
 20
102.6344
 30
0.0
 10
-143.6969
 20
105.2978
 30
0.0
 10
-143.994
 20
107.9709
 30
0.0
 10
-143.994
 20
107.9709
 30
0.0
 10
-141.5589
 20
106.9195
 30
0.0
 10
-139.8615
 20
103.6585
 30
0.0
 10
-139.7933
 20
99.902
 30
0.0
 10
-139.7933
 20
99.902
 30
0.0
 10
-139.8046
 20
98.5814
 30
0.0
 10
-140.2056
 20
97.3356
 30
0.0
 10
-140.8912
 20
96.4922
 30
0.0
 10
-140.8912
 20
96.4922
 30
0.0
 10
-141.5769
 20
95.6482
 30
0.0
 10
-142.4775
 20
95.293
 30
0.0
 10
-143.3555
 20
95.5196
 30
0.0
 10
-143.3555
 20
95.5196
 30
0.0
 10
-143.3105
 20
98.1518
 30
0.0
 10
-144.4485
 20
100.5092
 30
0.0
 10
-146.1444
 20
101.297
 30
0.0
  0
SPLINE
  5
71
330
1F
100
AcDbEntity
  8
layer 1
 62
     7
370
     9
100
AcDbSpline
210
0.0
220
0.0
230
1.0
 70
    11
 71
     3
 72
    32
 73
    28
 74
     0
 42
0.0000000001
 43
0.0000000001
 12
1.0
 22
0.0
 32
0.0
 13
1.0
 23
0.0
 33
0.0
 40
0.0
 40
0.0
 40
0.0
 40
0.0
 40
0.125
 40
0.125
 40
0.125
 40
0.125
 40
0.25
 40
0.25
 40
0.25
 40
0.25
 40
0.375
 40
0.375
 40
0.375
 40
0.375
 40
0.5
 40
0.5
 40
0.5
 40
0.5
 40
0.625
 40
0.625
 40
0.625
 40
0.625
 40
0.75
 40
0.75
 40
0.75
 40
0.75
 40
1.0
 40
1.0
 40
1.0
 40
1.0
 10
-143.8595
 20
93.5766
 30
0.0
 10
-145.3558
 20
91.331
 30
0.0
 10
-147.5772
 20
90.522
 30
0.0
 10
-149.6058
 20
91.4851
 30
0.0
 10
-149.6058
 20
91.4851
 30
0.0
 10
-151.1866
 20
92.2909
 30
0.0
 10
-152.443
 20
94.098
 30
0.0
 10
-153.0337
 20
96.416
 30
0.0
 10
-153.0337
 20
96.416
 30
0.0
 10
-153.5739
 20
95.6416
 30
0.0
 10
-153.8737
 20
94.5695
 30
0.0
 10
-153.8606
 20
93.4554
 30
0.0
 10
-153.8606
 20
93.4554
 30
0.0
 10
-153.8477
 20
92.3421
 30
0.0
 10
-153.5242
 20
91.2852
 30
0.0
 10
-152.9665
 20
90.5389
 30
0.0
 10
-152.9665
 20
90.5389
 30
0.0
 10
-151.0663
 20
88.1325
 30
0.0
 10
-148.5349
 20
87.1262
 30
0.0
 10
-146.0771
 20
87.7992
 30
0.0
 10
-146.0771
 20
87.7992
 30
0.0
 10
-143.4233
 20
88.2345
 30
0.0
 10
-141.0175
 20
90.3157
 30
0.0
 10
-139.4573
 20
93.5269
 30
0.0
 10
-139.4573
 20
93.5269
 30
0.0
 10
-140.9069
 20
93.037
 30
0.0
 10
-142.4147
 20
93.0545
 30
0.0
 10
-143.8595
 20
93.5766
 30
0.0
  0
SPLINE
  5
72
330
1F
100
AcDbEntity
  8
layer 1
 62
     7
370
     9
100
AcDbSpline
210
0.0
220
0.0
230
1.0
 70
    11
 71
     3
 72
    28
 73
    24
 74
     0
 42
0.0000000001
 43
0.0000000001
 12
1.0
 22
0.0
 32
0.0
 13
1.0
 23
0.0
 33
0.0
 40
0.0
 40
0.0
 40
0.0
 40
0.0
 40
0.1428571428571428
 40
0.1428571428571428
 40
0.1428571428571428
 40
0.1428571428571428
 40
0.2857142857142857
 40
0.2857142857142857
 40
0.2857142857142857
 40
0.2857142857142857
 40
0.4285714285714285
 40
0.4285714285714285
 40
0.4285714285714285
 40
0.4285714285714285
 40
0.5714285714285714
 40
0.5714285714285714
 40
0.5714285714285714
 40
0.5714285714285714
 40
0.7142857142857143
 40
0.7142857142857143
 40
0.7142857142857143
 40
0.7142857142857143
 40
1.0
 40
1.0
 40
1.0
 40
1.0
 10
-157.1671
 20
109.8632
 30
0.0
 10
-155.4426
 20
109.8552
 30
0.0
 10
-153.7847
 20
108.8762
 30
0.0
 10
-152.5296
 20
107.1244
 30
0.0
 10
-152.5296
 20
107.1244
 30
0.0
 10
-153.226
 20
107.5003
 30
0.0
 10
-153.9918
 20
107.4826
 30
0.0
 10
-154.68
 20
107.0746
 30
0.0
 10
-154.68
 20
107.0746
 30
0.0
 10
-153.6807
 20
105.7492
 30
0.0
 10
-153.0868
 20
103.8802
 30
0.0
 10
-153.0337
 20
101.8946
 30
0.0
 10
-153.0337
 20
101.8946
 30
0.0
 10
-151.3558
 20
102.4247
 30
0.0
 10
-149.6335
 20
102.5765
 30
0.0
 10
-147.9252
 20
102.3429
 30
0.0
 10
-147.9252
 20
102.3429
 30
0.0
 10
-147.5832
 20
104.7051
 30
0.0
 10
-148.1681
 20
107.1515
 30
0.0
 10
-149.4378
 20
108.6681
 30
0.0
 10
-149.4378
 20
108.6681
 30
0.0
 10
-151.7709
 20
110.7284
 30
0.0
 10
-154.5972
 20
111.1653
 30
0.0
 10
-157.1671
 20
109.8632
 30
0.0
  0
SPLINE
  5
73
330
1F
100
AcDbEntity
  8
layer 1
 62
     7
370
     9
100
AcDbSpline
210
0.0
220
0.0
230
1.0
 70
    11
 71
     3
 72
    40
 73
    36
 74
     0
 42
0.0000000001
 43
0.0000000001
 12
1.0
 22
0.0
 32
0.0
 13
1.0
 23
0.0
 33
0.0
 40
0.0
 40
0.0
 40
0.0
 40
0.0
 40
0.1
 40
0.1
 40
0.1
 40
0.1
 40
0.2
 40
0.2
 40
0.2
 40
0.2
 40
0.3
 40
0.3
 40
0.3
 40
0.3
 40
0.4
 40
0.4
 40
0.4
 40
0.4
 40
0.5
 40
0.5
 40
0.5
 40
0.5
 40
0.6
 40
0.6
 40
0.6
 40
0.6
 40
0.7
 40
0.7
 40
0.7
 40
0.7
 40
0.8
 40
0.8
 40
0.8
 40
0.8
 40
1.0
 40
1.0
 40
1.0
 40
1.0
 10
-168.1221
 20
91.0867
 30
0.0
 10
-167.6695
 20
97.734
 30
0.0
 10
-164.7138
 20
103.4271
 30
0.0
 10
-160.4936
 20
105.7788
 30
0.0
 10
-160.4936
 20
105.7788
 30
0.0
 10
-159.3777
 20
106.2078
 30
0.0
 10
-158.1914
 20
105.7772
 30
0.0
 10
-157.3351
 20
104.6336
 30
0.0
 10
-157.3351
 20
104.6336
 30
0.0
 10
-156.9233
 20
103.5244
 30
0.0
 10
-156.8148
 20
102.2223
 30
0.0
 10
-157.0326
 20
100.9982
 30
0.0
 10
-157.0326
 20
100.9982
 30
0.0
 10
-156.5781
 20
101.0971
 30
0.0
 10
-156.1135
 20
100.9566
 30
0.0
 10
-155.7218
 20
100.5998
 30
0.0
 10
-155.7218
 20
100.5998
 30
0.0
 10
-155.3174
 20
100.0192
 30
0.0
 10
-155.26
 20
99.0876
 30
0.0
 10
-155.5873
 20
98.4079
 30
0.0
 10
-155.5873
 20
98.4079
 30
0.0
 10
-156.222
 20
97.5284
 30
0.0
 10
-157.179
 20
97.4055
 30
0.0
 10
-157.9063
 20
98.1092
 30
0.0
 10
-157.9063
 20
98.1092
 30
0.0
 10
-159.4568
 20
95.9044
 30
0.0
 10
-161.4068
 20
94.4169
 30
0.0
 10
-163.5182
 20
93.8256
 30
0.0
 10
-163.5182
 20
93.8256
 30
0.0
 10
-163.463
 20
95.1125
 30
0.0
 10
-163.5306
 20
96.4032
 30
0.0
 10
-163.7199
 20
97.6609
 30
0.0
 10
-163.7199
 20
97.6609
 30
0.0
 10
-165.6216
 20
96.2183
 30
0.0
 10
-167.1633
 20
93.9156
 30
0.0
 10
-168.1221
 20
91.0867
 30
0.0
  0
SPLINE
  5
74
330
1F
100
AcDbEntity
  8
layer 1
 62
     7
370
     9
100
AcDbSpline
210
0.0
220
0.0
230
1.0
 70
    11
 71
     3
 72
    48
 73
    44
 74
     0
 42
0.0000000001
 43
0.0000000001
 12
1.0
 22
0.0
 32
0.0
 13
1.0
 23
0.0
 33
0.0
 40
0.0
 40
0.0
 40
0.0
 40
0.0
 40
0.0833333333333333
 40
0.0833333333333333
 40
0.0833333333333333
 40
0.0833333333333333
 40
0.1666666666666667
 40
0.1666666666666667
 40
0.1666666666666667
 40
0.1666666666666667
 40
0.25
 40
0.25
 40
0.25
 40
0.25
 40
0.3333333333333333
 40
0.3333333333333333
 40
0.3333333333333333
 40
0.3333333333333333
 40
0.4166666666666667
 40
0.4166666666666667
 40
0.4166666666666667
 40
0.4166666666666667
 40
0.5
 40
0.5
 40
0.5
 40
0.5
 40
0.5833333333333334
 40
0.5833333333333334
 40
0.5833333333333334
 40
0.5833333333333334
 40
0.6666666666666666
 40
0.6666666666666666
 40
0.6666666666666666
 40
0.6666666666666666
 40
0.75
 40
0.75
 40
0.75
 40
0.75
 40
0.8333333333333334
 40
0.8333333333333334
 40
0.8333333333333334
 40
0.8333333333333334
 40
1.0
 40
1.0
 40
1.0
 40
1.0
 10
-163.0814
 20
87.5005
 30
0.0
 10
-162.5682
 20
88.9824
 30
0.0
 10
-161.9239
 20
90.3558
 30
0.0
 10
-161.1662
 20
91.5848
 30
0.0
 10
-161.1662
 20
91.5848
 30
0.0
 10
-160.9597
 20
90.9068
 30
0.0
 10
-160.6491
 20
90.3091
 30
0.0
 10
-160.2584
 20
89.8417
 30
0.0
 10
-160.2584
 20
89.8417
 30
0.0
 10
-159.6438
 20
90.6386
 30
0.0
 10
-159.0709
 20
91.5051
 30
0.0
 10
-158.5447
 20
92.4313
 30
0.0
 10
-158.5447
 20
92.4313
 30
0.0
 10
-157.2999
 20
88.1013
 30
0.0
 10
-154.5501
 20
85.1351
 30
0.0
 10
-151.3867
 20
84.7116
 30
0.0
 10
-151.3867
 20
84.7116
 30
0.0
 10
-148.5978
 20
84.0434
 30
0.0
 10
-145.7596
 20
83.943
 30
0.0
 10
-142.9518
 20
84.4129
 30
0.0
 10
-142.9518
 20
84.4129
 30
0.0
 10
-144.0172
 20
83.0129
 30
0.0
 10
-145.2328
 20
81.8852
 30
0.0
 10
-146.5477
 20
81.0756
 30
0.0
 10
-146.5477
 20
81.0756
 30
0.0
 10
-146.9681
 20
81.5246
 30
0.0
 10
-147.4499
 20
81.8306
 30
0.0
 10
-147.9588
 20
81.9729
 30
0.0
 10
-147.9588
 20
81.9729
 30
0.0
 10
-150.2025
 20
82.0475
 30
0.0
 10
-152.4445
 20
81.7638
 30
0.0
 10
-154.6465
 20
81.1254
 30
0.0
 10
-154.6465
 20
81.1254
 30
0.0
 10
-155.5835
 20
80.801
 30
0.0
 10
-156.5699
 20
81.0819
 30
0.0
 10
-157.3589
 20
81.8998
 30
0.0
 10
-157.3589
 20
81.8998
 30
0.0
 10
-158.1475
 20
82.7165
 30
0.0
 10
-158.6646
 20
83.9928
 30
0.0
 10
-158.7799
 20
85.409
 30
0.0
 10
-158.7799
 20
85.409
 30
0.0
 10
-160.3386
 20
85.2965
 30
0.0
 10
-161.8707
 20
86.0417
 30
0.0
 10
-163.0814
 20
87.5005
 30
0.0
  0
SPLINE
  5
75
330
1F
100
AcDbEntity
  8
layer 1
 62
     7
370
     9
100
AcDbSpline
210
0.0
220
0.0
230
1.0
 70
    11
 71
     3
 72
    28
 73
    24
 74
     0
 42
0.0000000001
 43
0.0000000001
 12
1.0
 22
0.0
 32
0.0
 13
1.0
 23
0.0
 33
0.0
 40
0.0
 40
0.0
 40
0.0
 40
0.0
 40
0.1428571428571428
 40
0.1428571428571428
 40
0.1428571428571428
 40
0.1428571428571428
 40
0.2857142857142857
 40
0.2857142857142857
 40
0.2857142857142857
 40
0.2857142857142857
 40
0.4285714285714285
 40
0.4285714285714285
 40
0.4285714285714285
 40
0.4285714285714285
 40
0.5714285714285714
 40
0.5714285714285714
 40
0.5714285714285714
 40
0.5714285714285714
 40
0.7142857142857143
 40
0.7142857142857143
 40
0.7142857142857143
 40
0.7142857142857143
 40
1.0
 40
1.0
 40
1.0
 40
1.0
 10
-163.9886
 20
85.5085
 30
0.0
 10
-162.7497
 20
82.3221
 30
0.0
 10
-160.5451
 20
80.2243
 30
0.0
 10
-158.0744
 20
79.8805
 30
0.0
 10
-158.0744
 20
79.8805
 30
0.0
 10
-158.1659
 20
78.9279
 30
0.0
 10
-158.4331
 20
78.0322
 30
0.0
 10
-158.8471
 20
77.2908
 30
0.0
 10
-158.8471
 20
77.2908
 30
0.0
 10
-156.6327
 20
77.3849
 30
0.0
 10
-154.4427
 20
78.0074
 30
0.0
 10
-152.3617
 20
79.1335
 30
0.0
 10
-152.3617
 20
79.1335
 30
0.0
 10
-151.5194
 20
79.5945
 30
0.0
 10
-150.5889
 20
79.5408
 30
0.0
 10
-149.7738
 20
78.9841
 30
0.0
 10
-149.7738
 20
78.9841
 30
0.0
 10
-153.5506
 20
76.7649
 30
0.0
 10
-157.4689
 20
75.1133
 30
0.0
 10
-161.4685
 20
74.0532
 30
0.0
 10
-161.4685
 20
74.0532
 30
0.0
 10
-163.7816
 20
76.7786
 30
0.0
 10
-164.7734
 20
81.2869
 30
0.0
 10
-163.9886
 20
85.5085
 30
0.0
  0
SPLINE
  5
76
330
1F
100
AcDbEntity
  8
layer 1
 62
     7
370
     9
100
AcDbSpline
210
0.0
220
0.0
230
1.0
 70
    11
 71
     3
 72
    28
 73
    24
 74
     0
 42
0.0000000001
 43
0.0000000001
 12
1.0
 22
0.0
 32
0.0
 13
1.0
 23
0.0
 33
0.0
 40
0.0
 40
0.0
 40
0.0
 40
0.0
 40
0.1428571428571428
 40
0.1428571428571428
 40
0.1428571428571428
 40
0.1428571428571428
 40
0.2857142857142857
 40
0.2857142857142857
 40
0.2857142857142857
 40
0.2857142857142857
 40
0.4285714285714285
 40
0.4285714285714285
 40
0.4285714285714285
 40
0.4285714285714285
 40
0.5714285714285714
 40
0.5714285714285714
 40
0.5714285714285714
 40
0.5714285714285714
 40
0.7142857142857143
 40
0.7142857142857143
 40
0.7142857142857143
 40
0.7142857142857143
 40
1.0
 40
1.0
 40
1.0
 40
1.0
 10
-159.8888
 20
71.8122
 30
0.0
 10
-156.0387
 20
73.6106
 30
0.0
 10
-152.1366
 20
75.1559
 30
0.0
 10
-148.1945
 20
76.4443
 30
0.0
 10
-148.1945
 20
76.4443
 30
0.0
 10
-148.6254
 20
74.5006
 30
0.0
 10
-149.7077
 20
73.0291
 30
0.0
 10
-151.0507
 20
72.5592
 30
0.0
 10
-151.0507
 20
72.5592
 30
0.0
 10
-152.7719
 20
72.1649
 30
0.0
 10
-154.4259
 20
71.2853
 30
0.0
 10
-155.9239
 20
69.9698
 30
0.0
 10
-155.9239
 20
69.9698
 30
0.0
 10
-155.1635
 20
69.7255
 30
0.0
 10
-154.4015
 20
69.4926
 30
0.0
 10
-153.6385
 20
69.2717
 30
0.0
 10
-153.6385
 20
69.2717
 30
0.0
 10
-154.15
 20
67.7859
 30
0.0
 10
-154.2113
 20
66.0476
 30
0.0
 10
-153.8065
 20
64.4911
 30
0.0
 10
-153.8065
 20
64.4911
 30
0.0
 10
-155.7737
 20
67.0389
 30
0.0
 10
-157.8027
 20
69.4814
 30
0.0
 10
-159.8888
 20
71.8122
 30
0.0
  0
SPLINE
  5
77
330
1F
100
AcDbEntity
  8
layer 1
 62
     7
370
     9
100
AcDbSpline
210
0.0
220
0.0
230
1.0
 70
    11
 71
     3
 72
    16
 73
    12
 74
     0
 42
0.0000000001
 43
0.0000000001
 12
1.0
 22
0.0
 32
0.0
 13
1.0
 23
0.0
 33
0.0
 40
0.0
 40
0.0
 40
0.0
 40
0.0
 40
0.25
 40
0.25
 40
0.25
 40
0.25
 40
0.5
 40
0.5
 40
0.5
 40
0.5
 40
1.0
 40
1.0
 40
1.0
 40
1.0
 10
-146.6819
 20
62.1995
 30
0.0
 10
-148.0152
 20
61.4798
 30
0.0
 10
-149.4318
 20
61.1577
 30
0.0
 10
-150.849
 20
61.2533
 30
0.0
 10
-150.849
 20
61.2533
 30
0.0
 10
-146.5931
 20
57.2896
 30
0.0
 10
-142.8395
 20
52.2495
 30
0.0
 10
-139.7596
 20
46.3619
 30
0.0
 10
-139.7596
 20
46.3619
 30
0.0
 10
-141.0743
 20
52.4608
 30
0.0
 10
-143.4638
 20
57.928
 30
0.0
 10
-146.6819
 20
62.1995
 30
0.0
  0
SPLINE
  5
78
330
1F
100
AcDbEntity
  8
layer 1
 62
     7
370
     9
100
AcDbSpline
210
0.0
220
0.0
230
1.0
 70
    11
 71
     3
 72
    36
 73
    32
 74
     0
 42
0.0000000001
 43
0.0000000001
 12
1.0
 22
0.0
 32
0.0
 13
1.0
 23
0.0
 33
0.0
 40
0.0
 40
0.0
 40
0.0
 40
0.0
 40
0.1111111111111111
 40
0.1111111111111111
 40
0.1111111111111111
 40
0.1111111111111111
 40
0.2222222222222222
 40
0.2222222222222222
 40
0.2222222222222222
 40
0.2222222222222222
 40
0.3333333333333333
 40
0.3333333333333333
 40
0.3333333333333333
 40
0.3333333333333333
 40
0.4444444444444444
 40
0.4444444444444444
 40
0.4444444444444444
 40
0.4444444444444444
 40
0.5555555555555556
 40
0.5555555555555556
 40
0.5555555555555556
 40
0.5555555555555556
 40
0.6666666666666666
 40
0.6666666666666666
 40
0.6666666666666666
 40
0.6666666666666666
 40
0.7777777777777778
 40
0.7777777777777778
 40
0.7777777777777778
 40
0.7777777777777778
 40
1.0
 40
1.0
 40
1.0
 40
1.0
 10
-178.9769
 20
81.9729
 30
0.0
 10
-179.7101
 20
81.5938
 30
0.0
 10
-180.2824
 20
80.7302
 30
0.0
 10
-180.5263
 20
79.6378
 30
0.0
 10
-180.5263
 20
79.6378
 30
0.0
 10
-180.7701
 20
78.5447
 30
0.0
 10
-180.6569
 20
77.3464
 30
0.0
 10
-180.22
 20
76.3945
 30
0.0
 10
-180.22
 20
76.3945
 30
0.0
 10
-179.2136
 20
74.2846
 30
0.0
 10
-177.6502
 20
72.9087
 30
0.0
 10
-175.9185
 20
72.6091
 30
0.0
 10
-175.9185
 20
72.6091
 30
0.0
 10
-173.1227
 20
71.8805
 30
0.0
 10
-170.2579
 20
71.965
 30
0.0
 10
-167.4837
 20
72.8579
 30
0.0
 10
-167.4837
 20
72.8579
 30
0.0
 10
-168.7681
 20
75.1151
 30
0.0
 10
-170.1848
 20
77.1986
 30
0.0
 10
-171.718
 20
79.0836
 30
0.0
 10
-171.718
 20
79.0836
 30
0.0
 10
-173.1746
 20
76.7399
 30
0.0
 10
-175.4113
 20
75.8483
 30
0.0
 10
-177.4643
 20
76.7929
 30
0.0
 10
-177.4643
 20
76.7929
 30
0.0
 10
-178.2008
 20
77.0338
 30
0.0
 10
-178.8142
 20
77.784
 30
0.0
 10
-179.1139
 20
78.8097
 30
0.0
 10
-179.1139
 20
78.8097
 30
0.0
 10
-179.4136
 20
79.8354
 30
0.0
 10
-179.3621
 20
81.012
 30
0.0
 10
-178.9769
 20
81.9729
 30
0.0
  0
SPLINE
  5
79
330
1F
100
AcDbEntity
  8
layer 1
 62
     7
370
     9
100
AcDbSpline
210
0.0
220
0.0
230
1.0
 70
    11
 71
     3
 72
    48
 73
    44
 74
     0
 42
0.0000000001
 43
0.0000000001
 12
1.0
 22
0.0
 32
0.0
 13
1.0
 23
0.0
 33
0.0
 40
0.0
 40
0.0
 40
0.0
 40
0.0
 40
0.0833333333333333
 40
0.0833333333333333
 40
0.0833333333333333
 40
0.0833333333333333
 40
0.1666666666666667
 40
0.1666666666666667
 40
0.1666666666666667
 40
0.1666666666666667
 40
0.25
 40
0.25
 40
0.25
 40
0.25
 40
0.3333333333333333
 40
0.3333333333333333
 40
0.3333333333333333
 40
0.3333333333333333
 40
0.4166666666666667
 40
0.4166666666666667
 40
0.4166666666666667
 40
0.4166666666666667
 40
0.5
 40
0.5
 40
0.5
 40
0.5
 40
0.5833333333333334
 40
0.5833333333333334
 40
0.5833333333333334
 40
0.5833333333333334
 40
0.6666666666666666
 40
0.6666666666666666
 40
0.6666666666666666
 40
0.6666666666666666
 40
0.75
 40
0.75
 40
0.75
 40
0.75
 40
0.8333333333333334
 40
0.8333333333333334
 40
0.8333333333333334
 40
0.8333333333333334
 40
1.0
 40
1.0
 40
1.0
 40
1.0
 10
-174.4737
 20
61.2034
 30
0.0
 10
-175.3148
 20
58.9039
 30
0.0
 10
-174.9659
 20
56.0469
 30
0.0
 10
-173.6337
 20
54.3305
 30
0.0
 10
-173.6337
 20
54.3305
 30
0.0
 10
-172.9265
 20
55.6984
 30
0.0
 10
-171.8214
 20
56.4832
 30
0.0
 10
-170.6589
 20
56.4438
 30
0.0
 10
-170.6589
 20
56.4438
 30
0.0
 10
-169.4964
 20
56.4044
 30
0.0
 10
-168.4169
 20
55.5458
 30
0.0
 10
-167.7525
 20
54.1312
 30
0.0
 10
-167.7525
 20
54.1312
 30
0.0
 10
-162.9828
 20
55.6501
 30
0.0
 10
-158.1138
 20
56.385
 30
0.0
 10
-153.2352
 20
56.3233
 30
0.0
 10
-153.2352
 20
56.3233
 30
0.0
 10
-156.7341
 20
58.5699
 30
0.0
 10
-160.5916
 20
59.295
 30
0.0
 10
-164.3588
 20
58.4148
 30
0.0
 10
-164.3588
 20
58.4148
 30
0.0
 10
-163.7203
 20
59.8774
 30
0.0
 10
-162.695
 20
60.8717
 30
0.0
 10
-161.5358
 20
61.1538
 30
0.0
 10
-161.5358
 20
61.1538
 30
0.0
 10
-164.0228
 20
61.777
 30
0.0
 10
-166.557
 20
61.8783
 30
0.0
 10
-169.0629
 20
61.4525
 30
0.0
 10
-169.0629
 20
61.4525
 30
0.0
 10
-166.8539
 20
64.5745
 30
0.0
 10
-163.7534
 20
65.895
 30
0.0
 10
-160.7625
 20
64.9891
 30
0.0
 10
-160.7625
 20
64.9891
 30
0.0
 10
-162.0225
 20
66.6821
 30
0.0
 10
-163.3589
 20
68.246
 30
0.0
 10
-164.7614
 20
69.6709
 30
0.0
 10
-164.7614
 20
69.6709
 30
0.0
 10
-166.0589
 20
68.899
 30
0.0
 10
-167.3585
 20
68.1352
 30
0.0
 10
-168.6596
 20
67.3793
 30
0.0
 10
-168.6596
 20
67.3793
 30
0.0
 10
-170.9397
 20
66.14
 30
0.0
 10
-172.9493
 20
64.005
 30
0.0
 10
-174.4737
 20
61.2034
 30
0.0
  0
SPLINE
  5
7A
330
1F
100
AcDbEntity
  8
layer 1
 62
     7
370
     9
100
AcDbSpline
210
0.0
220
0.0
230
1.0
 70
    11
 71
     3
 72
    24
 73
    20
 74
     0
 42
0.0000000001
 43
0.0000000001
 12
1.0
 22
0.0
 32
0.0
 13
1.0
 23
0.0
 33
0.0
 40
0.0
 40
0.0
 40
0.0
 40
0.0
 40
0.1666666666666667
 40
0.1666666666666667
 40
0.1666666666666667
 40
0.1666666666666667
 40
0.3333333333333333
 40
0.3333333333333333
 40
0.3333333333333333
 40
0.3333333333333333
 40
0.5
 40
0.5
 40
0.5
 40
0.5
 40
0.6666666666666666
 40
0.6666666666666666
 40
0.6666666666666666
 40
0.6666666666666666
 40
1.0
 40
1.0
 40
1.0
 40
1.0
 10
-159.8221
 20
53.3715
 30
0.0
 10
-160.4107
 20
53.0477
 30
0.0
 10
-160.9083
 20
52.4373
 30
0.0
 10
-161.2333
 20
51.6413
 30
0.0
 10
-161.2333
 20
51.6413
 30
0.0
 10
-156.1889
 20
52.5828
 30
0.0
 10
-151.0696
 20
51.3
 30
0.0
 10
-146.514
 20
47.9554
 30
0.0
 10
-146.514
 20
47.9554
 30
0.0
 10
-150.9021
 20
49.2782
 30
0.0
 10
-155.3998
 20
49.6141
 30
0.0
 10
-159.8552
 20
48.9515
 30
0.0
 10
-159.8552
 20
48.9515
 30
0.0
 10
-163.7501
 20
47.814
 30
0.0
 10
-167.7156
 20
47.2967
 30
0.0
 10
-171.6843
 20
47.4076
 30
0.0
 10
-171.6843
 20
47.4076
 30
0.0
 10
-168.4744
 20
51.7859
 30
0.0
 10
-164.1665
 20
53.9523
 30
0.0
 10
-159.8221
 20
53.3715
 30
0.0
  0
SPLINE
  5
7B
330
1F
100
AcDbEntity
  8
layer 1
 62
     7
370
     9
100
AcDbSpline
210
0.0
220
0.0
230
1.0
 70
    11
 71
     3
 72
    24
 73
    20
 74
     0
 42
0.0000000001
 43
0.0000000001
 12
1.0
 22
0.0
 32
0.0
 13
1.0
 23
0.0
 33
0.0
 40
0.0
 40
0.0
 40
0.0
 40
0.0
 40
0.1666666666666667
 40
0.1666666666666667
 40
0.1666666666666667
 40
0.1666666666666667
 40
0.3333333333333333
 40
0.3333333333333333
 40
0.3333333333333333
 40
0.3333333333333333
 40
0.5
 40
0.5
 40
0.5
 40
0.5
 40
0.6666666666666666
 40
0.6666666666666666
 40
0.6666666666666666
 40
0.6666666666666666
 40
1.0
 40
1.0
 40
1.0
 40
1.0
 10
-164.4255
 20
42.676
 30
0.0
 10
-161.3607
 20
45.6206
 30
0.0
 10
-157.7086
 20
46.9208
 30
0.0
 10
-154.0752
 20
46.3619
 30
0.0
 10
-154.0752
 20
46.3619
 30
0.0
 10
-148.7273
 20
46.0743
 30
0.0
 10
-143.5577
 20
43.4398
 30
0.0
 10
-139.2221
 20
38.7918
 30
0.0
 10
-139.2221
 20
38.7918
 30
0.0
 10
-146.7254
 20
43.5812
 30
0.0
 10
-155.2638
 20
43.2896
 30
0.0
 10
-162.611
 20
37.9942
 30
0.0
 10
-162.611
 20
37.9942
 30
0.0
 10
-163.4596
 20
37.5049
 30
0.0
 10
-164.4227
 20
38.0085
 30
0.0
 10
-164.8764
 20
39.1788
 30
0.0
 10
-164.8764
 20
39.1788
 30
0.0
 10
-165.3305
 20
40.35
 30
0.0
 10
-165.1386
 20
41.8358
 30
0.0
 10
-164.4255
 20
42.676
 30
0.0
  0
SPLINE
  5
7C
330
1F
100
AcDbEntity
  8
layer 1
 62
     7
370
     9
100
AcDbSpline
210
0.0
220
0.0
230
1.0
 70
    11
 71
     3
 72
    52
 73
    48
 74
     0
 42
0.0000000001
 43
0.0000000001
 12
1.0
 22
0.0
 32
0.0
 13
1.0
 23
0.0
 33
0.0
 40
0.0
 40
0.0
 40
0.0
 40
0.0
 40
0.0769230769230769
 40
0.0769230769230769
 40
0.0769230769230769
 40
0.0769230769230769
 40
0.1538461538461539
 40
0.1538461538461539
 40
0.1538461538461539
 40
0.1538461538461539
 40
0.2307692307692308
 40
0.2307692307692308
 40
0.2307692307692308
 40
0.2307692307692308
 40
0.3076923076923077
 40
0.3076923076923077
 40
0.3076923076923077
 40
0.3076923076923077
 40
0.3846153846153846
 40
0.3846153846153846
 40
0.3846153846153846
 40
0.3846153846153846
 40
0.4615384615384616
 40
0.4615384615384616
 40
0.4615384615384616
 40
0.4615384615384616
 40
0.5384615384615384
 40
0.5384615384615384
 40
0.5384615384615384
 40
0.5384615384615384
 40
0.6153846153846154
 40
0.6153846153846154
 40
0.6153846153846154
 40
0.6153846153846154
 40
0.6923076923076923
 40
0.6923076923076923
 40
0.6923076923076923
 40
0.6923076923076923
 40
0.7692307692307693
 40
0.7692307692307693
 40
0.7692307692307693
 40
0.7692307692307693
 40
0.8461538461538461
 40
0.8461538461538461
 40
0.8461538461538461
 40
0.8461538461538461
 40
1.0
 40
1.0
 40
1.0
 40
1.0
 10
-161.9389
 20
28.6311
 30
0.0
 10
-159.5078
 20
33.7179
 30
0.0
 10
-155.4437
 20
36.5211
 30
0.0
 10
-151.2522
 20
36.0022
 30
0.0
 10
-151.2522
 20
36.0022
 30
0.0
 10
-148.1117
 20
36.3419
 30
0.0
 10
-144.9695
 20
35.3757
 30
0.0
 10
-142.1789
 20
33.2134
 30
0.0
 10
-142.1789
 20
33.2134
 30
0.0
 10
-139.9087
 20
31.0818
 30
0.0
 10
-138.911
 20
26.9317
 30
0.0
 10
-139.7596
 20
23.1524
 30
0.0
 10
-139.7596
 20
23.1524
 30
0.0
 10
-140.5098
 20
21.1404
 30
0.0
 10
-141.8972
 20
19.829
 30
0.0
 10
-143.4443
 20
19.6673
 30
0.0
 10
-143.4443
 20
19.6673
 30
0.0
 10
-144.9916
 20
19.5068
 30
0.0
 10
-146.4891
 20
20.5189
 30
0.0
 10
-147.4212
 20
22.3558
 30
0.0
 10
-147.4212
 20
22.3558
 30
0.0
 10
-145.7173
 20
21.7517
 30
0.0
 10
-143.9207
 20
22.2995
 30
0.0
 10
-142.5149
 20
23.8498
 30
0.0
 10
-142.5149
 20
23.8498
 30
0.0
 10
-142.0998
 20
24.7211
 30
0.0
 10
-141.9508
 20
25.8104
 30
0.0
 10
-142.1041
 20
26.8529
 30
0.0
 10
-142.1041
 20
26.8529
 30
0.0
 10
-142.2576
 20
27.8945
 30
0.0
 10
-142.6992
 20
28.7934
 30
0.0
 10
-143.3214
 20
29.3285
 30
0.0
 10
-143.3214
 20
29.3285
 30
0.0
 10
-145.9395
 20
30.8649
 30
0.0
 10
-148.8877
 20
30.5347
 30
0.0
 10
-151.3195
 20
28.4321
 30
0.0
 10
-151.3195
 20
28.4321
 30
0.0
 10
-151.6707
 20
29.1645
 30
0.0
 10
-152.0521
 20
29.8633
 30
0.0
 10
-152.4619
 20
30.5236
 30
0.0
 10
-152.4619
 20
30.5236
 30
0.0
 10
-154.3831
 20
29.5404
 30
0.0
 10
-156.2121
 20
28.2024
 30
0.0
 10
-157.9063
 20
26.5396
 30
0.0
 10
-157.9063
 20
26.5396
 30
0.0
 10
-158.8471
 20
28.3702
 30
0.0
 10
-160.4334
 20
29.1926
 30
0.0
 10
-161.9389
 20
28.6311
 30
0.0
  0
SPLINE
  5
7D
330
1F
100
AcDbEntity
  8
layer 1
 62
     7
370
     9
100
AcDbSpline
210
0.0
220
0.0
230
1.0
 70
    11
 71
     3
 72
    24
 73
    20
 74
     0
 42
0.0000000001
 43
0.0000000001
 12
1.0
 22
0.0
 32
0.0
 13
1.0
 23
0.0
 33
0.0
 40
0.0
 40
0.0
 40
0.0
 40
0.0
 40
0.1666666666666667
 40
0.1666666666666667
 40
0.1666666666666667
 40
0.1666666666666667
 40
0.3333333333333333
 40
0.3333333333333333
 40
0.3333333333333333
 40
0.3333333333333333
 40
0.5
 40
0.5
 40
0.5
 40
0.5
 40
0.6666666666666666
 40
0.6666666666666666
 40
0.6666666666666666
 40
0.6666666666666666
 40
1.0
 40
1.0
 40
1.0
 40
1.0
 10
-162.4766
 20
27.0376
 30
0.0
 10
-161.1353
 20
25.4497
 30
0.0
 10
-160.151
 20
23.2963
 30
0.0
 10
-159.6536
 20
20.8617
 30
0.0
 10
-159.6536
 20
20.8617
 30
0.0
 10
-158.581
 20
15.6192
 30
0.0
 10
-155.2838
 20
12.0763
 30
0.0
 10
-151.5882
 20
12.196
 30
0.0
 10
-151.5882
 20
12.196
 30
0.0
 10
-151.8864
 20
10.7125
 30
0.0
 10
-152.831
 20
9.7239
 30
0.0
 10
-153.8737
 20
9.8049
 30
0.0
 10
-153.8737
 20
9.8049
 30
0.0
 10
-156.5856
 20
10.307
 30
0.0
 10
-159.0406
 20
12.4337
 30
0.0
 10
-160.666
 20
15.69
 30
0.0
 10
-160.666
 20
15.69
 30
0.0
 10
-162.2918
 20
18.946
 30
0.0
 10
-162.9459
 20
23.0472
 30
0.0
 10
-162.4766
 20
27.0376
 30
0.0
  0
SPLINE
  5
7E
330
1F
100
AcDbEntity
  8
layer 1
 62
     7
370
     9
100
AcDbSpline
210
0.0
220
0.0
230
1.0
 70
    11
 71
     3
 72
    20
 73
    16
 74
     0
 42
0.0000000001
 43
0.0000000001
 12
1.0
 22
0.0
 32
0.0
 13
1.0
 23
0.0
 33
0.0
 40
0.0
 40
0.0
 40
0.0
 40
0.0
 40
0.2
 40
0.2
 40
0.2
 40
0.2
 40
0.4
 40
0.4
 40
0.4
 40
0.4
 40
0.6
 40
0.6
 40
0.6
 40
0.6
 40
1.0
 40
1.0
 40
1.0
 40
1.0
 10
-153.5377
 20
25.444
 30
0.0
 10
-154.4541
 20
25.2699
 30
0.0
 10
-155.266
 20
24.4809
 30
0.0
 10
-155.738
 20
23.3043
 30
0.0
 10
-155.738
 20
23.3043
 30
0.0
 10
-156.2106
 20
22.1276
 30
0.0
 10
-156.2912
 20
20.6939
 30
0.0
 10
-155.9574
 20
19.4176
 30
0.0
 10
-155.9574
 20
19.4176
 30
0.0
 10
-154.3333
 20
16.1558
 30
0.0
 10
-151.5813
 20
14.5823
 30
0.0
 10
-148.9003
 20
15.3831
 30
0.0
 10
-148.9003
 20
15.3831
 30
0.0
 10
-151.5254
 20
17.3061
 30
0.0
 10
-153.2834
 20
21.1197
 30
0.0
 10
-153.5377
 20
25.444
 30
0.0
  0
SPLINE
  5
7F
330
1F
100
AcDbEntity
  8
layer 1
 62
     7
370
     9
100
AcDbSpline
210
0.0
220
0.0
230
1.0
 70
    11
 71
     3
 72
    40
 73
    36
 74
     0
 42
0.0000000001
 43
0.0000000001
 12
1.0
 22
0.0
 32
0.0
 13
1.0
 23
0.0
 33
0.0
 40
0.0
 40
0.0
 40
0.0
 40
0.0
 40
0.1
 40
0.1
 40
0.1
 40
0.1
 40
0.2
 40
0.2
 40
0.2
 40
0.2
 40
0.3
 40
0.3
 40
0.3
 40
0.3
 40
0.4
 40
0.4
 40
0.4
 40
0.4
 40
0.5
 40
0.5
 40
0.5
 40
0.5
 40
0.6
 40
0.6
 40
0.6
 40
0.6
 40
0.7
 40
0.7
 40
0.7
 40
0.7
 40
0.8
 40
0.8
 40
0.8
 40
0.8
 40
1.0
 40
1.0
 40
1.0
 40
1.0
 10
-87.8058
 20
-10.8142
 30
0.0
 10
-87.4251
 20
-8.1966
 30
0.0
 10
-87.4712
 20
-5.4817
 30
0.0
 10
-87.9402
 20
-2.8953
 30
0.0
 10
-87.9402
 20
-2.8953
 30
0.0
 10
-88.5547
 20
-2.9258
 30
0.0
 10
-89.15
 20
-3.2206
 30
0.0
 10
-89.6542
 20
-3.742
 30
0.0
 10
-89.6542
 20
-3.742
 30
0.0
 10
-89.7817
 20
-1.0802
 30
0.0
 10
-91.2482
 20
1.0074
 30
0.0
 10
-93.0483
 20
1.0893
 30
0.0
 10
-93.0483
 20
1.0893
 30
0.0
 10
-92.5087
 20
1.2765
 30
0.0
 10
-92.0602
 20
1.83
 30
0.0
 10
-91.8384
 20
2.5834
 30
0.0
 10
-91.8384
 20
2.5834
 30
0.0
 10
-91.8384
 20
2.5834
 30
0.0
 10
-91.8384
 20
5.7215
 30
0.0
 10
-91.8384
 20
5.7215
 30
0.0
 10
-91.8384
 20
5.7215
 30
0.0
 10
-91.1953
 20
6.915
 30
0.0
 10
-90.2224
 20
7.6137
 30
0.0
 10
-89.1918
 20
7.6233
 30
0.0
 10
-89.1918
 20
7.6233
 30
0.0
 10
-88.1608
 20
7.6331
 30
0.0
 10
-87.1822
 20
6.9519
 30
0.0
 10
-86.5289
 20
5.7704
 30
0.0
 10
-86.5289
 20
5.7704
 30
0.0
 10
-85.6729
 20
2.837
 30
0.0
 10
-85.4613
 20
-0.4206
 30
0.0
 10
-85.924
 20
-3.5428
 30
0.0
 10
-85.924
 20
-3.5428
 30
0.0
 10
-86.3963
 20
-6.0487
 30
0.0
 10
-87.0264
 20
-8.4832
 30
0.0
 10
-87.8058
 20
-10.8142
 30
0.0
  0
SPLINE
  5
80
330
1F
100
AcDbEntity
  8
layer 1
 62
     7
370
     9
100
AcDbSpline
210
0.0
220
0.0
230
1.0
 70
    11
 71
     3
 72
    48
 73
    44
 74
     0
 42
0.0000000001
 43
0.0000000001
 12
1.0
 22
0.0
 32
0.0
 13
1.0
 23
0.0
 33
0.0
 40
0.0
 40
0.0
 40
0.0
 40
0.0
 40
0.0833333333333333
 40
0.0833333333333333
 40
0.0833333333333333
 40
0.0833333333333333
 40
0.1666666666666667
 40
0.1666666666666667
 40
0.1666666666666667
 40
0.1666666666666667
 40
0.25
 40
0.25
 40
0.25
 40
0.25
 40
0.3333333333333333
 40
0.3333333333333333
 40
0.3333333333333333
 40
0.3333333333333333
 40
0.4166666666666667
 40
0.4166666666666667
 40
0.4166666666666667
 40
0.4166666666666667
 40
0.5
 40
0.5
 40
0.5
 40
0.5
 40
0.5833333333333334
 40
0.5833333333333334
 40
0.5833333333333334
 40
0.5833333333333334
 40
0.6666666666666666
 40
0.6666666666666666
 40
0.6666666666666666
 40
0.6666666666666666
 40
0.75
 40
0.75
 40
0.75
 40
0.75
 40
0.8333333333333334
 40
0.8333333333333334
 40
0.8333333333333334
 40
0.8333333333333334
 40
1.0
 40
1.0
 40
1.0
 40
1.0
 10
-101.752
 20
2.7327
 30
0.0
 10
-101.752
 20
2.7327
 30
0.0
 10
-97.4169
 20
2.7327
 30
0.0
 10
-97.4169
 20
2.7327
 30
0.0
 10
-97.4169
 20
2.7327
 30
0.0
 10
-97.7339
 20
1.9311
 30
0.0
 10
-98.0145
 20
1.0989
 30
0.0
 10
-98.2571
 20
0.2419
 30
0.0
 10
-98.2571
 20
0.2419
 30
0.0
 10
-98.3628
 20
-0.3098
 30
0.0
 10
-98.2768
 20
-0.9033
 30
0.0
 10
-98.0277
 20
-1.3421
 30
0.0
 10
-98.0277
 20
-1.3421
 30
0.0
 10
-97.7784
 20
-1.7813
 30
0.0
 10
-97.3987
 20
-2.0087
 30
0.0
 10
-97.0137
 20
-1.9493
 30
0.0
 10
-97.0137
 20
-1.9493
 30
0.0
 10
-95.0837
 20
-1.5668
 30
0.0
 10
-93.1883
 20
-2.942
 30
0.0
 10
-92.208
 20
-5.4351
 30
0.0
 10
-92.208
 20
-5.4351
 30
0.0
 10
-91.2648
 20
-8.5862
 30
0.0
 10
-91.1804
 20
-12.1555
 30
0.0
 10
-91.9728
 20
-15.3965
 30
0.0
 10
-91.9728
 20
-15.3965
 30
0.0
 10
-92.9612
 20
-19.451
 30
0.0
 10
-94.9905
 20
-22.7626
 30
0.0
 10
-97.6186
 20
-24.61
 30
0.0
 10
-97.6186
 20
-24.61
 30
0.0
 10
-97.059
 20
-22.6502
 30
0.0
 10
-97.2375
 20
-20.398
 30
0.0
 10
-98.089
 20
-18.6831
 30
0.0
 10
-98.089
 20
-18.6831
 30
0.0
 10
-98.5428
 20
-19.786
 30
0.0
 10
-99.1228
 20
-20.7643
 30
0.0
 10
-99.8029
 20
-21.5723
 30
0.0
 10
-99.8029
 20
-21.5723
 30
0.0
 10
-100.5759
 20
-20.2019
 30
0.0
 10
-101.7659
 20
-19.5073
 30
0.0
 10
-102.9618
 20
-19.7297
 30
0.0
 10
-102.9618
 20
-19.7297
 30
0.0
 10
-98.6098
 20
-13.8968
 30
0.0
 10
-98.0795
 20
-4.0487
 30
0.0
 10
-101.752
 20
2.7327
 30
0.0
  0
SPLINE
  5
81
330
1F
100
AcDbEntity
  8
layer 1
 62
     7
370
     9
100
AcDbSpline
210
0.0
220
0.0
230
1.0
 70
    11
 71
     3
 72
    28
 73
    24
 74
     0
 42
0.0000000001
 43
0.0000000001
 12
1.0
 22
0.0
 32
0.0
 13
1.0
 23
0.0
 33
0.0
 40
0.0
 40
0.0
 40
0.0
 40
0.0
 40
0.1428571428571428
 40
0.1428571428571428
 40
0.1428571428571428
 40
0.1428571428571428
 40
0.2857142857142857
 40
0.2857142857142857
 40
0.2857142857142857
 40
0.2857142857142857
 40
0.4285714285714285
 40
0.4285714285714285
 40
0.4285714285714285
 40
0.4285714285714285
 40
0.5714285714285714
 40
0.5714285714285714
 40
0.5714285714285714
 40
0.5714285714285714
 40
0.7142857142857143
 40
0.7142857142857143
 40
0.7142857142857143
 40
0.7142857142857143
 40
1.0
 40
1.0
 40
1.0
 40
1.0
 10
-93.7204
 20
-73.768
 30
0.0
 10
-92.0163
 20
-74.6484
 30
0.0
 10
-90.1891
 20
-74.8711
 30
0.0
 10
-88.4107
 20
-74.4153
 30
0.0
 10
-88.4107
 20
-74.4153
 30
0.0
 10
-90.2731
 20
-72.9337
 30
0.0
 10
-91.9
 20
-70.8789
 30
0.0
 10
-93.1828
 20
-68.389
 30
0.0
 10
-93.1828
 20
-68.389
 30
0.0
 10
-90.3347
 20
-69.7405
 30
0.0
 10
-87.234
 20
-69.2433
 30
0.0
 10
-84.647
 20
-67.0198
 30
0.0
 10
-84.647
 20
-67.0198
 30
0.0
 10
-84.647
 20
-67.0198
 30
0.0
 10
-84.647
 20
-77.9368
 30
0.0
 10
-84.647
 20
-77.9368
 30
0.0
 10
-84.647
 20
-77.9368
 30
0.0
 10
-85.2181
 20
-78.498
 30
0.0
 10
-85.8784
 20
-78.8293
 30
0.0
 10
-86.5625
 20
-78.8978
 30
0.0
 10
-86.5625
 20
-78.8978
 30
0.0
 10
-89.3385
 20
-78.8131
 30
0.0
 10
-91.9519
 20
-76.9402
 30
0.0
 10
-93.7204
 20
-73.768
 30
0.0
  0
SPLINE
  5
82
330
1F
100
AcDbEntity
  8
layer 1
 62
     7
370
     9
100
AcDbSpline
210
0.0
220
0.0
230
1.0
 70
    11
 71
     3
 72
    16
 73
    12
 74
     0
 42
0.0000000001
 43
0.0000000001
 12
1.0
 22
0.0
 32
0.0
 13
1.0
 23
0.0
 33
0.0
 40
0.0
 40
0.0
 40
0.0
 40
0.0
 40
0.25
 40
0.25
 40
0.25
 40
0.25
 40
0.5
 40
0.5
 40
0.5
 40
0.5
 40
1.0
 40
1.0
 40
1.0
 40
1.0
 10
-84.647
 20
-16.61
 30
0.0
 10
-85.7077
 20
-17.6021
 30
0.0
 10
-86.8802
 20
-18.304
 30
0.0
 10
-88.1083
 20
-18.6831
 30
0.0
 10
-88.1083
 20
-18.6831
 30
0.0
 10
-86.9802
 20
-19.1409
 30
0.0
 10
-85.7973
 20
-19.2156
 30
0.0
 10
-84.647
 20
-18.9042
 30
0.0
 10
-84.647
 20
-18.9042
 30
0.0
 10
-84.647
 20
-18.9042
 30
0.0
 10
-84.647
 20
-16.61
 30
0.0
 10
-84.647
 20
-16.61
 30
0.0
  0
SPLINE
  5
83
330
1F
100
AcDbEntity
  8
layer 1
 62
     7
370
     9
100
AcDbSpline
210
0.0
220
0.0
230
1.0
 70
    11
 71
     3
 72
    16
 73
    12
 74
     0
 42
0.0000000001
 43
0.0000000001
 12
1.0
 22
0.0
 32
0.0
 13
1.0
 23
0.0
 33
0.0
 40
0.0
 40
0.0
 40
0.0
 40
0.0
 40
0.25
 40
0.25
 40
0.25
 40
0.25
 40
0.5
 40
0.5
 40
0.5
 40
0.5
 40
1.0
 40
1.0
 40
1.0
 40
1.0
 10
-84.647
 20
-26.0717
 30
0.0
 10
-86.4944
 20
-25.8775
 30
0.0
 10
-88.3037
 20
-25.1972
 30
0.0
 10
-89.99
 20
-24.0622
 30
0.0
 10
-89.99
 20
-24.0622
 30
0.0
 10
-88.302
 20
-22.8904
 30
0.0
 10
-86.4981
 20
-22.1265
 30
0.0
 10
-84.647
 20
-21.7996
 30
0.0
 10
-84.647
 20
-21.7996
 30
0.0
 10
-84.647
 20
-21.7996
 30
0.0
 10
-84.647
 20
-26.0717
 30
0.0
 10
-84.647
 20
-26.0717
 30
0.0
  0
SPLINE
  5
84
330
1F
100
AcDbEntity
  8
layer 1
 62
     7
370
     9
100
AcDbSpline
210
0.0
220
0.0
230
1.0
 70
    11
 71
     3
 72
    28
 73
    24
 74
     0
 42
0.0000000001
 43
0.0000000001
 12
1.0
 22
0.0
 32
0.0
 13
1.0
 23
0.0
 33
0.0
 40
0.0
 40
0.0
 40
0.0
 40
0.0
 40
0.1428571428571428
 40
0.1428571428571428
 40
0.1428571428571428
 40
0.1428571428571428
 40
0.2857142857142857
 40
0.2857142857142857
 40
0.2857142857142857
 40
0.2857142857142857
 40
0.4285714285714285
 40
0.4285714285714285
 40
0.4285714285714285
 40
0.4285714285714285
 40
0.5714285714285714
 40
0.5714285714285714
 40
0.5714285714285714
 40
0.5714285714285714
 40
0.7142857142857143
 40
0.7142857142857143
 40
0.7142857142857143
 40
0.7142857142857143
 40
1.0
 40
1.0
 40
1.0
 40
1.0
 10
-94.5941
 20
-27.5988
 30
0.0
 10
-94.6231
 20
-28.3617
 30
0.0
 10
-94.6344
 20
-29.1256
 30
0.0
 10
-94.6277
 20
-29.8895
 30
0.0
 10
-94.6277
 20
-29.8895
 30
0.0
 10
-94.1113
 20
-29.8647
 30
0.0
 10
-93.633
 20
-30.2927
 30
0.0
 10
-93.4077
 20
-30.9819
 30
0.0
 10
-93.4077
 20
-30.9819
 30
0.0
 10
-93.1825
 20
-31.6711
 30
0.0
 10
-93.2524
 20
-32.4925
 30
0.0
 10
-93.586
 20
-33.0775
 30
0.0
 10
-93.586
 20
-33.0775
 30
0.0
 10
-90.6328
 20
-33.8035
 30
0.0
 10
-87.6305
 20
-33.9866
 30
0.0
 10
-84.647
 20
-33.6221
 30
0.0
 10
-84.647
 20
-33.6221
 30
0.0
 10
-84.647
 20
-33.6221
 30
0.0
 10
-84.647
 20
-27.7755
 30
0.0
 10
-84.647
 20
-27.7755
 30
0.0
 10
-84.647
 20
-27.7755
 30
0.0
 10
-87.9331
 20
-28.7691
 30
0.0
 10
-91.3248
 20
-28.7087
 30
0.0
 10
-94.5941
 20
-27.5988
 30
0.0
  0
SPLINE
  5
85
330
1F
100
AcDbEntity
  8
layer 1
 62
     7
370
     9
100
AcDbSpline
210
0.0
220
0.0
230
1.0
 70
    11
 71
     3
 72
    28
 73
    24
 74
     0
 42
0.0000000001
 43
0.0000000001
 12
1.0
 22
0.0
 32
0.0
 13
1.0
 23
0.0
 33
0.0
 40
0.0
 40
0.0
 40
0.0
 40
0.0
 40
0.1428571428571428
 40
0.1428571428571428
 40
0.1428571428571428
 40
0.1428571428571428
 40
0.2857142857142857
 40
0.2857142857142857
 40
0.2857142857142857
 40
0.2857142857142857
 40
0.4285714285714285
 40
0.4285714285714285
 40
0.4285714285714285
 40
0.4285714285714285
 40
0.5714285714285714
 40
0.5714285714285714
 40
0.5714285714285714
 40
0.5714285714285714
 40
0.7142857142857143
 40
0.7142857142857143
 40
0.7142857142857143
 40
0.7142857142857143
 40
1.0
 40
1.0
 40
1.0
 40
1.0
 10
-97.5177
 20
-53.9953
 30
0.0
 10
-94.4345
 20
-51.0546
 30
0.0
 10
-90.7911
 20
-49.674
 30
0.0
 10
-87.1338
 20
-50.0606
 30
0.0
 10
-87.1338
 20
-50.0606
 30
0.0
 10
-88.1782
 20
-47.9536
 30
0.0
 10
-89.8391
 20
-46.7134
 30
0.0
 10
-91.6032
 20
-46.7239
 30
0.0
 10
-91.6032
 20
-46.7239
 30
0.0
 10
-90.1651
 20
-44.5978
 30
0.0
 10
-89.5027
 20
-41.5783
 30
0.0
 10
-89.8222
 20
-38.6058
 30
0.0
 10
-89.8222
 20
-38.6058
 30
0.0
 10
-87.8955
 20
-39.2066
 30
0.0
 10
-86.1101
 20
-40.5513
 30
0.0
 10
-84.647
 20
-42.5039
 30
0.0
 10
-84.647
 20
-42.5039
 30
0.0
 10
-84.647
 20
-42.5039
 30
0.0
 10
-84.647
 20
-59.0414
 30
0.0
 10
-84.647
 20
-59.0414
 30
0.0
 10
-84.647
 20
-59.0414
 30
0.0
 10
-87.9784
 20
-53.9639
 30
0.0
 10
-92.9281
 20
-52.0234
 30
0.0
 10
-97.5177
 20
-53.9953
 30
0.0
  0
SPLINE
  5
86
330
1F
100
AcDbEntity
  8
layer 1
 62
     7
370
     9
100
AcDbSpline
210
0.0
220
0.0
230
1.0
 70
    11
 71
     3
 72
    48
 73
    44
 74
     0
 42
0.0000000001
 43
0.0000000001
 12
1.0
 22
0.0
 32
0.0
 13
1.0
 23
0.0
 33
0.0
 40
0.0
 40
0.0
 40
0.0
 40
0.0
 40
0.0833333333333333
 40
0.0833333333333333
 40
0.0833333333333333
 40
0.0833333333333333
 40
0.1666666666666667
 40
0.1666666666666667
 40
0.1666666666666667
 40
0.1666666666666667
 40
0.25
 40
0.25
 40
0.25
 40
0.25
 40
0.3333333333333333
 40
0.3333333333333333
 40
0.3333333333333333
 40
0.3333333333333333
 40
0.4166666666666667
 40
0.4166666666666667
 40
0.4166666666666667
 40
0.4166666666666667
 40
0.5
 40
0.5
 40
0.5
 40
0.5
 40
0.5833333333333334
 40
0.5833333333333334
 40
0.5833333333333334
 40
0.5833333333333334
 40
0.6666666666666666
 40
0.6666666666666666
 40
0.6666666666666666
 40
0.6666666666666666
 40
0.75
 40
0.75
 40
0.75
 40
0.75
 40
0.8333333333333334
 40
0.8333333333333334
 40
0.8333333333333334
 40
0.8333333333333334
 40
1.0
 40
1.0
 40
1.0
 40
1.0
 10
-89.2508
 20
-86.1194
 30
0.0
 10
-87.8646
 20
-84.9045
 30
0.0
 10
-86.244
 20
-84.4115
 30
0.0
 10
-84.647
 20
-84.7189
 30
0.0
 10
-84.647
 20
-84.7189
 30
0.0
 10
-84.647
 20
-84.7189
 30
0.0
 10
-84.647
 20
-87.7707
 30
0.0
 10
-84.647
 20
-87.7707
 30
0.0
 10
-84.647
 20
-87.7707
 30
0.0
 10
-85.3672
 20
-88.1826
 30
0.0
 10
-86.0737
 20
-88.6455
 30
0.0
 10
-86.7641
 20
-89.1575
 30
0.0
 10
-86.7641
 20
-89.1575
 30
0.0
 10
-87.9765
 20
-87.5353
 30
0.0
 10
-89.6829
 20
-87.003
 30
0.0
 10
-91.2336
 20
-87.7632
 30
0.0
 10
-91.2336
 20
-87.7632
 30
0.0
 10
-90.543
 20
-89.0348
 30
0.0
 10
-90.4755
 20
-90.8171
 30
0.0
 10
-91.0655
 20
-92.1957
 30
0.0
 10
-91.0655
 20
-92.1957
 30
0.0
 10
-91.5416
 20
-93.016
 30
0.0
 10
-92.2415
 20
-93.4753
 30
0.0
 10
-92.9714
 20
-93.4466
 30
0.0
 10
-92.9714
 20
-93.4466
 30
0.0
 10
-93.7012
 20
-93.4176
 30
0.0
 10
-94.3835
 20
-92.9033
 30
0.0
 10
-94.8293
 20
-92.0461
 30
0.0
 10
-94.8293
 20
-92.0461
 30
0.0
 10
-95.6767
 20
-89.699
 30
0.0
 10
-95.9835
 20
-87.0057
 30
0.0
 10
-95.703
 20
-84.3762
 30
0.0
 10
-95.703
 20
-84.3762
 30
0.0
 10
-95.3108
 20
-81.7288
 30
0.0
 10
-95.1972
 20
-79.0069
 30
0.0
 10
-95.367
 20
-76.3077
 30
0.0
 10
-95.367
 20
-76.3077
 30
0.0
 10
-94.3713
 20
-77.4281
 30
0.0
 10
-93.4888
 20
-78.7528
 30
0.0
 10
-92.7457
 20
-80.2425
 30
0.0
 10
-92.7457
 20
-80.2425
 30
0.0
 10
-91.9135
 20
-82.5862
 30
0.0
 10
-90.7154
 20
-84.6014
 30
0.0
 10
-89.2508
 20
-86.1194
 30
0.0
  0
SPLINE
  5
87
330
1F
100
AcDbEntity
  8
layer 1
 62
     7
370
     9
100
AcDbSpline
210
0.0
220
0.0
230
1.0
 70
    11
 71
     3
 72
    24
 73
    20
 74
     0
 42
0.0000000001
 43
0.0000000001
 12
1.0
 22
0.0
 32
0.0
 13
1.0
 23
0.0
 33
0.0
 40
0.0
 40
0.0
 40
0.0
 40
0.0
 40
0.1666666666666667
 40
0.1666666666666667
 40
0.1666666666666667
 40
0.1666666666666667
 40
0.3333333333333333
 40
0.3333333333333333
 40
0.3333333333333333
 40
0.3333333333333333
 40
0.5
 40
0.5
 40
0.5
 40
0.5
 40
0.6666666666666666
 40
0.6666666666666666
 40
0.6666666666666666
 40
0.6666666666666666
 40
1.0
 40
1.0
 40
1.0
 40
1.0
 10
-95.4341
 20
-96.678
 30
0.0
 10
-96.1778
 20
-98.1293
 30
0.0
 10
-96.3861
 20
-100.0331
 30
0.0
 10
-95.9902
 20
-101.7582
 30
0.0
 10
-95.9902
 20
-101.7582
 30
0.0
 10
-95.9902
 20
-101.7582
 30
0.0
 10
-102.0699
 20
-101.7582
 30
0.0
 10
-102.0699
 20
-101.7582
 30
0.0
 10
-102.0699
 20
-101.7582
 30
0.0
 10
-103.7143
 20
-98.7219
 30
0.0
 10
-103.9092
 20
-94.4891
 30
0.0
 10
-102.5584
 20
-91.1497
 30
0.0
 10
-102.5584
 20
-91.1497
 30
0.0
 10
-101.1299
 20
-89.1912
 30
0.0
 10
-99.8149
 20
-87.0588
 30
0.0
 10
-98.6267
 20
-84.7747
 30
0.0
 10
-98.6267
 20
-84.7747
 30
0.0
 10
-99.4998
 20
-89.3558
 30
0.0
 10
-98.191
 20
-94.2355
 30
0.0
 10
-95.4341
 20
-96.678
 30
0.0
  0
SPLINE
  5
88
330
1F
100
AcDbEntity
  8
layer 1
 62
     7
370
     9
100
AcDbSpline
210
0.0
220
0.0
230
1.0
 70
    11
 71
     3
 72
    20
 73
    16
 74
     0
 42
0.0000000001
 43
0.0000000001
 12
1.0
 22
0.0
 32
0.0
 13
1.0
 23
0.0
 33
0.0
 40
0.0
 40
0.0
 40
0.0
 40
0.0
 40
0.2
 40
0.2
 40
0.2
 40
0.2
 40
0.4
 40
0.4
 40
0.4
 40
0.4
 40
0.6
 40
0.6
 40
0.6
 40
0.6
 40
1.0
 40
1.0
 40
1.0
 40
1.0
 10
-106.6918
 20
-94.885
 30
0.0
 10
-106.9447
 20
-97.242
 30
0.0
 10
-106.6686
 20
-99.6565
 30
0.0
 10
-105.9059
 20
-101.7582
 30
0.0
 10
-105.9059
 20
-101.7582
 30
0.0
 10
-105.9059
 20
-101.7582
 30
0.0
 10
-128.4784
 20
-101.7582
 30
0.0
 10
-128.4784
 20
-101.7582
 30
0.0
 10
-128.4784
 20
-101.7582
 30
0.0
 10
-126.6082
 20
-98.5496
 30
0.0
 10
-123.7786
 20
-96.9417
 30
0.0
 10
-120.9406
 20
-97.4749
 30
0.0
 10
-120.9406
 20
-97.4749
 30
0.0
 10
-116.1197
 20
-98.3137
 30
0.0
 10
-111.2332
 20
-97.4255
 30
0.0
 10
-106.6918
 20
-94.885
 30
0.0
  0
SPLINE
  5
89
330
1F
100
AcDbEntity
  8
layer 1
 62
     7
370
     9
100
AcDbSpline
210
0.0
220
0.0
230
1.0
 70
    11
 71
     3
 72
    52
 73
    48
 74
     0
 42
0.0000000001
 43
0.0000000001
 12
1.0
 22
0.0
 32
0.0
 13
1.0
 23
0.0
 33
0.0
 40
0.0
 40
0.0
 40
0.0
 40
0.0
 40
0.0769230769230769
 40
0.0769230769230769
 40
0.0769230769230769
 40
0.0769230769230769
 40
0.1538461538461539
 40
0.1538461538461539
 40
0.1538461538461539
 40
0.1538461538461539
 40
0.2307692307692308
 40
0.2307692307692308
 40
0.2307692307692308
 40
0.2307692307692308
 40
0.3076923076923077
 40
0.3076923076923077
 40
0.3076923076923077
 40
0.3076923076923077
 40
0.3846153846153846
 40
0.3846153846153846
 40
0.3846153846153846
 40
0.3846153846153846
 40
0.4615384615384616
 40
0.4615384615384616
 40
0.4615384615384616
 40
0.4615384615384616
 40
0.5384615384615384
 40
0.5384615384615384
 40
0.5384615384615384
 40
0.5384615384615384
 40
0.6153846153846154
 40
0.6153846153846154
 40
0.6153846153846154
 40
0.6153846153846154
 40
0.6923076923076923
 40
0.6923076923076923
 40
0.6923076923076923
 40
0.6923076923076923
 40
0.7692307692307693
 40
0.7692307692307693
 40
0.7692307692307693
 40
0.7692307692307693
 40
0.8461538461538461
 40
0.8461538461538461
 40
0.8461538461538461
 40
0.8461538461538461
 40
1.0
 40
1.0
 40
1.0
 40
1.0
 10
-133.5088
 20
-75.9093
 30
0.0
 10
-133.5429
 20
-72.8834
 30
0.0
 10
-133.13
 20
-69.8835
 30
0.0
 10
-132.2992
 20
-67.119
 30
0.0
 10
-132.2992
 20
-67.119
 30
0.0
 10
-131.3231
 20
-63.7332
 30
0.0
 10
-129.5493
 20
-60.9892
 30
0.0
 10
-127.3089
 20
-59.3991
 30
0.0
 10
-127.3089
 20
-59.3991
 30
0.0
 10
-126.3941
 20
-59.3055
 30
0.0
 10
-125.4874
 20
-59.703
 30
0.0
 10
-124.7547
 20
-60.5197
 30
0.0
 10
-124.7547
 20
-60.5197
 30
0.0
 10
-124.546
 20
-56.0654
 30
0.0
 10
-124.2939
 20
-51.6156
 30
0.0
 10
-123.9988
 20
-47.1718
 30
0.0
 10
-123.9988
 20
-47.1718
 30
0.0
 10
-123.0764
 20
-48.7667
 30
0.0
 10
-121.9291
 20
-50.0417
 30
0.0
 10
-120.6382
 20
-50.9073
 30
0.0
 10
-120.6382
 20
-50.9073
 30
0.0
 10
-120.6326
 20
-50.1027
 30
0.0
 10
-120.3932
 20
-49.3402
 30
0.0
 10
-119.9813
 20
-48.8156
 30
0.0
 10
-119.9813
 20
-48.8156
 30
0.0
 10
-119.5695
 20
-48.2913
 30
0.0
 10
-119.025
 20
-48.0552
 30
0.0
 10
-118.4874
 20
-48.1681
 30
0.0
 10
-118.4874
 20
-48.1681
 30
0.0
 10
-117.9123
 20
-48.4363
 30
0.0
 10
-117.4532
 20
-49.0827
 30
0.0
 10
-117.243
 20
-49.9201
 30
0.0
 10
-117.243
 20
-49.9201
 30
0.0
 10
-117.0327
 20
-50.757
 30
0.0
 10
-117.0952
 20
-51.6914
 30
0.0
 10
-117.4118
 20
-52.4514
 30
0.0
 10
-117.4118
 20
-52.4514
 30
0.0
 10
-118.1491
 20
-53.9486
 30
0.0
 10
-119.0873
 20
-55.2036
 30
0.0
 10
-120.1675
 20
-56.1369
 30
0.0
 10
-120.1675
 20
-56.1369
 30
0.0
 10
-121.5176
 20
-57.6637
 30
0.0
 10
-122.3419
 20
-59.9979
 30
0.0
 10
-122.4192
 20
-62.5117
 30
0.0
 10
-122.4192
 20
-62.5117
 30
0.0
 10
-127.162
 20
-64.6387
 30
0.0
 10
-131.1475
 20
-69.4532
 30
0.0
 10
-133.5088
 20
-75.9093
 30
0.0
  0
SPLINE
  5
8A
330
1F
100
AcDbEntity
  8
layer 1
 62
     7
370
     9
100
AcDbSpline
210
0.0
220
0.0
230
1.0
 70
    11
 71
     3
 72
    24
 73
    20
 74
     0
 42
0.0000000001
 43
0.0000000001
 12
1.0
 22
0.0
 32
0.0
 13
1.0
 23
0.0
 33
0.0
 40
0.0
 40
0.0
 40
0.0
 40
0.0
 40
0.1666666666666667
 40
0.1666666666666667
 40
0.1666666666666667
 40
0.1666666666666667
 40
0.3333333333333333
 40
0.3333333333333333
 40
0.3333333333333333
 40
0.3333333333333333
 40
0.5
 40
0.5
 40
0.5
 40
0.5
 40
0.6666666666666666
 40
0.6666666666666666
 40
0.6666666666666666
 40
0.6666666666666666
 40
1.0
 40
1.0
 40
1.0
 40
1.0
 10
-121.5454
 20
-85.4721
 30
0.0
 10
-123.1348
 20
-86.8092
 30
0.0
 10
-123.9932
 20
-89.4731
 30
0.0
 10
-123.6961
 20
-92.1458
 30
0.0
 10
-123.6961
 20
-92.1458
 30
0.0
 10
-126.1308
 20
-91.0949
 30
0.0
 10
-127.8286
 20
-87.834
 30
0.0
 10
-127.897
 20
-84.0775
 30
0.0
 10
-127.897
 20
-84.0775
 30
0.0
 10
-127.8854
 20
-82.7572
 30
0.0
 10
-127.4839
 20
-81.5104
 30
0.0
 10
-126.7989
 20
-80.6669
 30
0.0
 10
-126.7989
 20
-80.6669
 30
0.0
 10
-126.1134
 20
-79.8236
 30
0.0
 10
-125.2124
 20
-79.4682
 30
0.0
 10
-124.3347
 20
-79.6947
 30
0.0
 10
-124.3347
 20
-79.6947
 30
0.0
 10
-124.3794
 20
-82.3274
 30
0.0
 10
-123.2412
 20
-84.685
 30
0.0
 10
-121.5454
 20
-85.4721
 30
0.0
  0
SPLINE
  5
8B
330
1F
100
AcDbEntity
  8
layer 1
 62
     7
370
     9
100
AcDbSpline
210
0.0
220
0.0
230
1.0
 70
    11
 71
     3
 72
    32
 73
    28
 74
     0
 42
0.0000000001
 43
0.0000000001
 12
1.0
 22
0.0
 32
0.0
 13
1.0
 23
0.0
 33
0.0
 40
0.0
 40
0.0
 40
0.0
 40
0.0
 40
0.125
 40
0.125
 40
0.125
 40
0.125
 40
0.25
 40
0.25
 40
0.25
 40
0.25
 40
0.375
 40
0.375
 40
0.375
 40
0.375
 40
0.5
 40
0.5
 40
0.5
 40
0.5
 40
0.625
 40
0.625
 40
0.625
 40
0.625
 40
0.75
 40
0.75
 40
0.75
 40
0.75
 40
1.0
 40
1.0
 40
1.0
 40
1.0
 10
-123.8307
 20
-77.7524
 30
0.0
 10
-122.3339
 20
-75.5063
 30
0.0
 10
-120.1125
 20
-74.6978
 30
0.0
 10
-118.0841
 20
-75.6604
 30
0.0
 10
-118.0841
 20
-75.6604
 30
0.0
 10
-116.5033
 20
-76.466
 30
0.0
 10
-115.2468
 20
-78.2735
 30
0.0
 10
-114.6564
 20
-80.5911
 30
0.0
 10
-114.6564
 20
-80.5911
 30
0.0
 10
-114.116
 20
-79.8167
 30
0.0
 10
-113.8164
 20
-78.745
 30
0.0
 10
-113.8292
 20
-77.6308
 30
0.0
 10
-113.8292
 20
-77.6308
 30
0.0
 10
-113.8418
 20
-76.517
 30
0.0
 10
-114.1658
 20
-75.461
 30
0.0
 10
-114.7236
 20
-74.7142
 30
0.0
 10
-114.7236
 20
-74.7142
 30
0.0
 10
-116.6237
 20
-72.3081
 30
0.0
 10
-119.155
 20
-71.3015
 30
0.0
 10
-121.6127
 20
-71.975
 30
0.0
 10
-121.6127
 20
-71.975
 30
0.0
 10
-124.2667
 20
-72.4101
 30
0.0
 10
-126.6721
 20
-74.4911
 30
0.0
 10
-128.2329
 20
-77.7023
 30
0.0
 10
-128.2329
 20
-77.7023
 30
0.0
 10
-126.7826
 20
-77.2128
 30
0.0
 10
-125.2755
 20
-77.2296
 30
0.0
 10
-123.8307
 20
-77.7524
 30
0.0
  0
SPLINE
  5
8C
330
1F
100
AcDbEntity
  8
layer 1
 62
     7
370
     9
100
AcDbSpline
210
0.0
220
0.0
230
1.0
 70
    11
 71
     3
 72
    28
 73
    24
 74
     0
 42
0.0000000001
 43
0.0000000001
 12
1.0
 22
0.0
 32
0.0
 13
1.0
 23
0.0
 33
0.0
 40
0.0
 40
0.0
 40
0.0
 40
0.0
 40
0.1428571428571428
 40
0.1428571428571428
 40
0.1428571428571428
 40
0.1428571428571428
 40
0.2857142857142857
 40
0.2857142857142857
 40
0.2857142857142857
 40
0.2857142857142857
 40
0.4285714285714285
 40
0.4285714285714285
 40
0.4285714285714285
 40
0.4285714285714285
 40
0.5714285714285714
 40
0.5714285714285714
 40
0.5714285714285714
 40
0.5714285714285714
 40
0.7142857142857143
 40
0.7142857142857143
 40
0.7142857142857143
 40
0.7142857142857143
 40
1.0
 40
1.0
 40
1.0
 40
1.0
 10
-110.523
 20
-94.0385
 30
0.0
 10
-112.2473
 20
-94.0306
 30
0.0
 10
-113.9051
 20
-93.0515
 30
0.0
 10
-115.1605
 20
-91.2991
 30
0.0
 10
-115.1605
 20
-91.2991
 30
0.0
 10
-114.4638
 20
-91.6757
 30
0.0
 10
-113.6981
 20
-91.6581
 30
0.0
 10
-113.0096
 20
-91.2495
 30
0.0
 10
-113.0096
 20
-91.2495
 30
0.0
 10
-114.0091
 20
-89.9244
 30
0.0
 10
-114.6031
 20
-88.0553
 30
0.0
 10
-114.6564
 20
-86.0697
 30
0.0
 10
-114.6564
 20
-86.0697
 30
0.0
 10
-116.3342
 20
-86.6005
 30
0.0
 10
-118.0563
 20
-86.7516
 30
0.0
 10
-119.7643
 20
-86.5178
 30
0.0
 10
-119.7643
 20
-86.5178
 30
0.0
 10
-120.1069
 20
-88.8804
 30
0.0
 10
-119.5219
 20
-91.3273
 30
0.0
 10
-118.2522
 20
-92.843
 30
0.0
 10
-118.2522
 20
-92.843
 30
0.0
 10
-115.9189
 20
-94.9033
 30
0.0
 10
-113.0929
 20
-95.3402
 30
0.0
 10
-110.523
 20
-94.0385
 30
0.0
  0
SPLINE
  5
8D
330
1F
100
AcDbEntity
  8
layer 1
 62
     7
370
     9
100
AcDbSpline
210
0.0
220
0.0
230
1.0
 70
    11
 71
     3
 72
    40
 73
    36
 74
     0
 42
0.0000000001
 43
0.0000000001
 12
1.0
 22
0.0
 32
0.0
 13
1.0
 23
0.0
 33
0.0
 40
0.0
 40
0.0
 40
0.0
 40
0.0
 40
0.1
 40
0.1
 40
0.1
 40
0.1
 40
0.2
 40
0.2
 40
0.2
 40
0.2
 40
0.3
 40
0.3
 40
0.3
 40
0.3
 40
0.4
 40
0.4
 40
0.4
 40
0.4
 40
0.5
 40
0.5
 40
0.5
 40
0.5
 40
0.6
 40
0.6
 40
0.6
 40
0.6
 40
0.7
 40
0.7
 40
0.7
 40
0.7
 40
0.8
 40
0.8
 40
0.8
 40
0.8
 40
1.0
 40
1.0
 40
1.0
 40
1.0
 10
-99.5675
 20
-75.262
 30
0.0
 10
-100.0206
 20
-81.9098
 30
0.0
 10
-102.9763
 20
-87.6025
 30
0.0
 10
-107.1962
 20
-89.9544
 30
0.0
 10
-107.1962
 20
-89.9544
 30
0.0
 10
-108.3119
 20
-90.3829
 30
0.0
 10
-109.4985
 20
-89.9528
 30
0.0
 10
-110.355
 20
-88.809
 30
0.0
 10
-110.355
 20
-88.809
 30
0.0
 10
-110.7664
 20
-87.6995
 30
0.0
 10
-110.8748
 20
-86.3976
 30
0.0
 10
-110.6575
 20
-85.1731
 30
0.0
 10
-110.6575
 20
-85.1731
 30
0.0
 10
-111.1122
 20
-85.2726
 30
0.0
 10
-111.5763
 20
-85.1315
 30
0.0
 10
-111.9679
 20
-84.7747
 30
0.0
 10
-111.9679
 20
-84.7747
 30
0.0
 10
-112.3727
 20
-84.1941
 30
0.0
 10
-112.4298
 20
-83.2624
 30
0.0
 10
-112.1024
 20
-82.5835
 30
0.0
 10
-112.1024
 20
-82.5835
 30
0.0
 10
-111.4683
 20
-81.704
 30
0.0
 10
-110.5108
 20
-81.5803
 30
0.0
 10
-109.7835
 20
-82.2843
 30
0.0
 10
-109.7835
 20
-82.2843
 30
0.0
 10
-108.233
 20
-80.0799
 30
0.0
 10
-106.283
 20
-78.5918
 30
0.0
 10
-104.1716
 20
-78.0014
 30
0.0
 10
-104.1716
 20
-78.0014
 30
0.0
 10
-104.2272
 20
-79.2876
 30
0.0
 10
-104.1593
 20
-80.5785
 30
0.0
 10
-103.9699
 20
-81.8365
 30
0.0
 10
-103.9699
 20
-81.8365
 30
0.0
 10
-102.0684
 20
-80.3937
 30
0.0
 10
-100.5263
 20
-78.0911
 30
0.0
 10
-99.5675
 20
-75.262
 30
0.0
  0
SPLINE
  5
8E
330
1F
100
AcDbEntity
  8
layer 1
 62
     7
370
     9
100
AcDbSpline
210
0.0
220
0.0
230
1.0
 70
    11
 71
     3
 72
    48
 73
    44
 74
     0
 42
0.0000000001
 43
0.0000000001
 12
1.0
 22
0.0
 32
0.0
 13
1.0
 23
0.0
 33
0.0
 40
0.0
 40
0.0
 40
0.0
 40
0.0
 40
0.0833333333333333
 40
0.0833333333333333
 40
0.0833333333333333
 40
0.0833333333333333
 40
0.1666666666666667
 40
0.1666666666666667
 40
0.1666666666666667
 40
0.1666666666666667
 40
0.25
 40
0.25
 40
0.25
 40
0.25
 40
0.3333333333333333
 40
0.3333333333333333
 40
0.3333333333333333
 40
0.3333333333333333
 40
0.4166666666666667
 40
0.4166666666666667
 40
0.4166666666666667
 40
0.4166666666666667
 40
0.5
 40
0.5
 40
0.5
 40
0.5
 40
0.5833333333333334
 40
0.5833333333333334
 40
0.5833333333333334
 40
0.5833333333333334
 40
0.6666666666666666
 40
0.6666666666666666
 40
0.6666666666666666
 40
0.6666666666666666
 40
0.75
 40
0.75
 40
0.75
 40
0.75
 40
0.8333333333333334
 40
0.8333333333333334
 40
0.8333333333333334
 40
0.8333333333333334
 40
1.0
 40
1.0
 40
1.0
 40
1.0
 10
-104.6084
 20
-71.6758
 30
0.0
 10
-105.1216
 20
-73.1573
 30
0.0
 10
-105.7659
 20
-74.5307
 30
0.0
 10
-106.5241
 20
-75.7599
 30
0.0
 10
-106.5241
 20
-75.7599
 30
0.0
 10
-106.7302
 20
-75.0819
 30
0.0
 10
-107.041
 20
-74.4849
 30
0.0
 10
-107.4314
 20
-74.0168
 30
0.0
 10
-107.4314
 20
-74.0168
 30
0.0
 10
-108.0463
 20
-74.8144
 30
0.0
 10
-108.6192
 20
-75.6798
 30
0.0
 10
-109.145
 20
-76.6069
 30
0.0
 10
-109.145
 20
-76.6069
 30
0.0
 10
-110.3898
 20
-72.276
 30
0.0
 10
-113.1399
 20
-69.3102
 30
0.0
 10
-116.303
 20
-68.887
 30
0.0
 10
-116.303
 20
-68.887
 30
0.0
 10
-119.0923
 20
-68.2187
 30
0.0
 10
-121.9302
 20
-68.1183
 30
0.0
 10
-124.738
 20
-68.5882
 30
0.0
 10
-124.738
 20
-68.5882
 30
0.0
 10
-123.6725
 20
-67.188
 30
0.0
 10
-122.4573
 20
-66.0603
 30
0.0
 10
-121.1423
 20
-65.2511
 30
0.0
 10
-121.1423
 20
-65.2511
 30
0.0
 10
-120.7218
 20
-65.7001
 30
0.0
 10
-120.2401
 20
-66.0063
 30
0.0
 10
-119.7308
 20
-66.148
 30
0.0
 10
-119.7308
 20
-66.148
 30
0.0
 10
-117.4874
 20
-66.2229
 30
0.0
 10
-115.2454
 20
-65.939
 30
0.0
 10
-113.0432
 20
-65.301
 30
0.0
 10
-113.0432
 20
-65.301
 30
0.0
 10
-112.1063
 20
-64.9761
 30
0.0
 10
-111.12
 20
-65.2571
 30
0.0
 10
-110.3312
 20
-66.0749
 30
0.0
 10
-110.3312
 20
-66.0749
 30
0.0
 10
-109.5425
 20
-66.892
 30
0.0
 10
-109.0257
 20
-68.1682
 30
0.0
 10
-108.9098
 20
-69.5843
 30
0.0
 10
-108.9098
 20
-69.5843
 30
0.0
 10
-107.3512
 20
-69.4719
 30
0.0
 10
-105.8192
 20
-70.2168
 30
0.0
 10
-104.6084
 20
-71.6758
 30
0.0
  0
SPLINE
  5
8F
330
1F
100
AcDbEntity
  8
layer 1
 62
     7
370
     9
100
AcDbSpline
210
0.0
220
0.0
230
1.0
 70
    11
 71
     3
 72
    28
 73
    24
 74
     0
 42
0.0000000001
 43
0.0000000001
 12
1.0
 22
0.0
 32
0.0
 13
1.0
 23
0.0
 33
0.0
 40
0.0
 40
0.0
 40
0.0
 40
0.0
 40
0.1428571428571428
 40
0.1428571428571428
 40
0.1428571428571428
 40
0.1428571428571428
 40
0.2857142857142857
 40
0.2857142857142857
 40
0.2857142857142857
 40
0.2857142857142857
 40
0.4285714285714285
 40
0.4285714285714285
 40
0.4285714285714285
 40
0.4285714285714285
 40
0.5714285714285714
 40
0.5714285714285714
 40
0.5714285714285714
 40
0.5714285714285714
 40
0.7142857142857143
 40
0.7142857142857143
 40
0.7142857142857143
 40
0.7142857142857143
 40
1.0
 40
1.0
 40
1.0
 40
1.0
 10
-103.7012
 20
-69.6838
 30
0.0
 10
-104.94
 20
-66.4975
 30
0.0
 10
-107.1449
 20
-64.3994
 30
0.0
 10
-109.6156
 20
-64.0558
 30
0.0
 10
-109.6156
 20
-64.0558
 30
0.0
 10
-109.524
 20
-63.1034
 30
0.0
 10
-109.2564
 20
-62.2071
 30
0.0
 10
-108.8427
 20
-61.4662
 30
0.0
 10
-108.8427
 20
-61.4662
 30
0.0
 10
-111.0573
 20
-61.5604
 30
0.0
 10
-113.2474
 20
-62.1827
 30
0.0
 10
-115.3285
 20
-63.3088
 30
0.0
 10
-115.3285
 20
-63.3088
 30
0.0
 10
-116.1703
 20
-63.7698
 30
0.0
 10
-117.1012
 20
-63.7163
 30
0.0
 10
-117.9162
 20
-63.1594
 30
0.0
 10
-117.9162
 20
-63.1594
 30
0.0
 10
-114.139
 20
-60.9402
 30
0.0
 10
-110.2212
 20
-59.2887
 30
0.0
 10
-106.2214
 20
-58.2288
 30
0.0
 10
-106.2214
 20
-58.2288
 30
0.0
 10
-103.9085
 20
-60.9537
 30
0.0
 10
-102.9165
 20
-65.462
 30
0.0
 10
-103.7012
 20
-69.6838
 30
0.0
  0
SPLINE
  5
90
330
1F
100
AcDbEntity
  8
layer 1
 62
     7
370
     9
100
AcDbSpline
210
0.0
220
0.0
230
1.0
 70
    11
 71
     3
 72
    28
 73
    24
 74
     0
 42
0.0000000001
 43
0.0000000001
 12
1.0
 22
0.0
 32
0.0
 13
1.0
 23
0.0
 33
0.0
 40
0.0
 40
0.0
 40
0.0
 40
0.0
 40
0.1428571428571428
 40
0.1428571428571428
 40
0.1428571428571428
 40
0.1428571428571428
 40
0.2857142857142857
 40
0.2857142857142857
 40
0.2857142857142857
 40
0.2857142857142857
 40
0.4285714285714285
 40
0.4285714285714285
 40
0.4285714285714285
 40
0.4285714285714285
 40
0.5714285714285714
 40
0.5714285714285714
 40
0.5714285714285714
 40
0.5714285714285714
 40
0.7142857142857143
 40
0.7142857142857143
 40
0.7142857142857143
 40
0.7142857142857143
 40
1.0
 40
1.0
 40
1.0
 40
1.0
 10
-107.801
 20
-55.9873
 30
0.0
 10
-111.6511
 20
-57.786
 30
0.0
 10
-115.5531
 20
-59.3312
 30
0.0
 10
-119.4954
 20
-60.6192
 30
0.0
 10
-119.4954
 20
-60.6192
 30
0.0
 10
-119.0645
 20
-58.6757
 30
0.0
 10
-117.9824
 20
-57.2047
 30
0.0
 10
-116.6393
 20
-56.7343
 30
0.0
 10
-116.6393
 20
-56.7343
 30
0.0
 10
-114.9184
 20
-56.3402
 30
0.0
 10
-113.264
 20
-55.4611
 30
0.0
 10
-111.7663
 20
-54.1447
 30
0.0
 10
-111.7663
 20
-54.1447
 30
0.0
 10
-112.5266
 20
-53.9008
 30
0.0
 10
-113.2883
 20
-53.6684
 30
0.0
 10
-114.0515
 20
-53.4475
 30
0.0
 10
-114.0515
 20
-53.4475
 30
0.0
 10
-113.5398
 20
-51.9612
 30
0.0
 10
-113.4785
 20
-50.2227
 30
0.0
 10
-113.8836
 20
-48.6662
 30
0.0
 10
-113.8836
 20
-48.6662
 30
0.0
 10
-111.9163
 20
-51.2144
 30
0.0
 10
-109.8873
 20
-53.6565
 30
0.0
 10
-107.801
 20
-55.9873
 30
0.0
  0
SPLINE
  5
91
330
1F
100
AcDbEntity
  8
layer 1
 62
     7
370
     9
100
AcDbSpline
210
0.0
220
0.0
230
1.0
 70
    11
 71
     3
 72
    16
 73
    12
 74
     0
 42
0.0000000001
 43
0.0000000001
 12
1.0
 22
0.0
 32
0.0
 13
1.0
 23
0.0
 33
0.0
 40
0.0
 40
0.0
 40
0.0
 40
0.0
 40
0.25
 40
0.25
 40
0.25
 40
0.25
 40
0.5
 40
0.5
 40
0.5
 40
0.5
 40
1.0
 40
1.0
 40
1.0
 40
1.0
 10
-121.0079
 20
-46.3753
 30
0.0
 10
-119.6746
 20
-45.6552
 30
0.0
 10
-118.2583
 20
-45.3335
 30
0.0
 10
-116.8407
 20
-45.4291
 30
0.0
 10
-116.8407
 20
-45.4291
 30
0.0
 10
-121.097
 20
-41.465
 30
0.0
 10
-124.8505
 20
-36.4244
 30
0.0
 10
-127.9305
 20
-30.5368
 30
0.0
 10
-127.9305
 20
-30.5368
 30
0.0
 10
-126.6157
 20
-36.6356
 30
0.0
 10
-124.2257
 20
-42.1034
 30
0.0
 10
-121.0079
 20
-46.3753
 30
0.0
  0
SPLINE
  5
92
330
1F
100
AcDbEntity
  8
layer 1
 62
     7
370
     9
100
AcDbSpline
210
0.0
220
0.0
230
1.0
 70
    11
 71
     3
 72
    36
 73
    32
 74
     0
 42
0.0000000001
 43
0.0000000001
 12
1.0
 22
0.0
 32
0.0
 13
1.0
 23
0.0
 33
0.0
 40
0.0
 40
0.0
 40
0.0
 40
0.0
 40
0.1111111111111111
 40
0.1111111111111111
 40
0.1111111111111111
 40
0.1111111111111111
 40
0.2222222222222222
 40
0.2222222222222222
 40
0.2222222222222222
 40
0.2222222222222222
 40
0.3333333333333333
 40
0.3333333333333333
 40
0.3333333333333333
 40
0.3333333333333333
 40
0.4444444444444444
 40
0.4444444444444444
 40
0.4444444444444444
 40
0.4444444444444444
 40
0.5555555555555556
 40
0.5555555555555556
 40
0.5555555555555556
 40
0.5555555555555556
 40
0.6666666666666666
 40
0.6666666666666666
 40
0.6666666666666666
 40
0.6666666666666666
 40
0.7777777777777778
 40
0.7777777777777778
 40
0.7777777777777778
 40
0.7777777777777778
 40
1.0
 40
1.0
 40
1.0
 40
1.0
 10
-88.7131
 20
-66.148
 30
0.0
 10
-87.98
 20
-65.7684
 30
0.0
 10
-87.4073
 20
-64.9057
 30
0.0
 10
-87.1636
 20
-63.8129
 30
0.0
 10
-87.1636
 20
-63.8129
 30
0.0
 10
-86.92
 20
-62.72
 30
0.0
 10
-87.0332
 20
-61.5213
 30
0.0
 10
-87.4698
 20
-60.5696
 30
0.0
 10
-87.4698
 20
-60.5696
 30
0.0
 10
-88.4762
 20
-58.4604
 30
0.0
 10
-90.0401
 20
-57.0843
 30
0.0
 10
-91.7713
 20
-56.7842
 30
0.0
 10
-91.7713
 20
-56.7842
 30
0.0
 10
-94.5672
 20
-56.0554
 30
0.0
 10
-97.4321
 20
-56.1401
 30
0.0
 10
-100.206
 20
-57.0333
 30
0.0
 10
-100.206
 20
-57.0333
 30
0.0
 10
-98.922
 20
-59.2905
 30
0.0
 10
-97.505
 20
-61.3737
 30
0.0
 10
-95.9718
 20
-63.2589
 30
0.0
 10
-95.9718
 20
-63.2589
 30
0.0
 10
-94.5153
 20
-60.9154
 30
0.0
 10
-92.2787
 20
-60.0238
 30
0.0
 10
-90.2255
 20
-60.9678
 30
0.0
 10
-90.2255
 20
-60.9678
 30
0.0
 10
-89.489
 20
-61.2091
 30
0.0
 10
-88.8755
 20
-61.9593
 30
0.0
 10
-88.5759
 20
-62.985
 30
0.0
 10
-88.5759
 20
-62.985
 30
0.0
 10
-88.2766
 20
-64.0105
 30
0.0
 10
-88.3276
 20
-65.1872
 30
0.0
 10
-88.7131
 20
-66.148
 30
0.0
  0
SPLINE
  5
93
330
1F
100
AcDbEntity
  8
layer 1
 62
     7
370
     9
100
AcDbSpline
210
0.0
220
0.0
230
1.0
 70
    11
 71
     3
 72
    48
 73
    44
 74
     0
 42
0.0000000001
 43
0.0000000001
 12
1.0
 22
0.0
 32
0.0
 13
1.0
 23
0.0
 33
0.0
 40
0.0
 40
0.0
 40
0.0
 40
0.0
 40
0.0833333333333333
 40
0.0833333333333333
 40
0.0833333333333333
 40
0.0833333333333333
 40
0.1666666666666667
 40
0.1666666666666667
 40
0.1666666666666667
 40
0.1666666666666667
 40
0.25
 40
0.25
 40
0.25
 40
0.25
 40
0.3333333333333333
 40
0.3333333333333333
 40
0.3333333333333333
 40
0.3333333333333333
 40
0.4166666666666667
 40
0.4166666666666667
 40
0.4166666666666667
 40
0.4166666666666667
 40
0.5
 40
0.5
 40
0.5
 40
0.5
 40
0.5833333333333334
 40
0.5833333333333334
 40
0.5833333333333334
 40
0.5833333333333334
 40
0.6666666666666666
 40
0.6666666666666666
 40
0.6666666666666666
 40
0.6666666666666666
 40
0.75
 40
0.75
 40
0.75
 40
0.75
 40
0.8333333333333334
 40
0.8333333333333334
 40
0.8333333333333334
 40
0.8333333333333334
 40
1.0
 40
1.0
 40
1.0
 40
1.0
 10
-93.2164
 20
-45.379
 30
0.0
 10
-92.3749
 20
-43.0792
 30
0.0
 10
-92.7242
 20
-40.2218
 30
0.0
 10
-94.0564
 20
-38.5063
 30
0.0
 10
-94.0564
 20
-38.5063
 30
0.0
 10
-94.7637
 20
-39.8732
 30
0.0
 10
-95.8687
 20
-40.6583
 30
0.0
 10
-97.031
 20
-40.6191
 30
0.0
 10
-97.031
 20
-40.6191
 30
0.0
 10
-98.1932
 20
-40.58
 30
0.0
 10
-99.273
 20
-39.7207
 30
0.0
 10
-99.9374
 20
-38.307
 30
0.0
 10
-99.9374
 20
-38.307
 30
0.0
 10
-104.7073
 20
-39.8252
 30
0.0
 10
-109.5761
 20
-40.5602
 30
0.0
 10
-114.4547
 20
-40.498
 30
0.0
 10
-114.4547
 20
-40.498
 30
0.0
 10
-110.956
 20
-42.7447
 30
0.0
 10
-107.098
 20
-43.4706
 30
0.0
 10
-103.3313
 20
-42.5899
 30
0.0
 10
-103.3313
 20
-42.5899
 30
0.0
 10
-103.9695
 20
-44.0525
 30
0.0
 10
-104.9947
 20
-45.0475
 30
0.0
 10
-106.1544
 20
-45.3291
 30
0.0
 10
-106.1544
 20
-45.3291
 30
0.0
 10
-103.6671
 20
-45.9525
 30
0.0
 10
-101.1328
 20
-46.0534
 30
0.0
 10
-98.6267
 20
-45.6279
 30
0.0
 10
-98.6267
 20
-45.6279
 30
0.0
 10
-100.836
 20
-48.7496
 30
0.0
 10
-103.9366
 20
-50.0706
 30
0.0
 10
-106.9272
 20
-49.1642
 30
0.0
 10
-106.9272
 20
-49.1642
 30
0.0
 10
-105.6675
 20
-50.8574
 30
0.0
 10
-104.3312
 20
-52.4216
 30
0.0
 10
-102.928
 20
-53.846
 30
0.0
 10
-102.928
 20
-53.846
 30
0.0
 10
-101.631
 20
-53.0739
 30
0.0
 10
-100.3315
 20
-52.31
 30
0.0
 10
-99.0301
 20
-51.555
 30
0.0
 10
-99.0301
 20
-51.555
 30
0.0
 10
-96.7501
 20
-50.3156
 30
0.0
 10
-94.7404
 20
-48.1808
 30
0.0
 10
-93.2164
 20
-45.379
 30
0.0
  0
SPLINE
  5
94
330
1F
100
AcDbEntity
  8
layer 1
 62
     7
370
     9
100
AcDbSpline
210
0.0
220
0.0
230
1.0
 70
    11
 71
     3
 72
    24
 73
    20
 74
     0
 42
0.0000000001
 43
0.0000000001
 12
1.0
 22
0.0
 32
0.0
 13
1.0
 23
0.0
 33
0.0
 40
0.0
 40
0.0
 40
0.0
 40
0.0
 40
0.1666666666666667
 40
0.1666666666666667
 40
0.1666666666666667
 40
0.1666666666666667
 40
0.3333333333333333
 40
0.3333333333333333
 40
0.3333333333333333
 40
0.3333333333333333
 40
0.5
 40
0.5
 40
0.5
 40
0.5
 40
0.6666666666666666
 40
0.6666666666666666
 40
0.6666666666666666
 40
0.6666666666666666
 40
1.0
 40
1.0
 40
1.0
 40
1.0
 10
-107.8681
 20
-37.5473
 30
0.0
 10
-107.2794
 20
-37.2228
 30
0.0
 10
-106.7818
 20
-36.6131
 30
0.0
 10
-106.4566
 20
-35.8162
 30
0.0
 10
-106.4566
 20
-35.8162
 30
0.0
 10
-111.5009
 20
-36.7577
 30
0.0
 10
-116.6204
 20
-35.4758
 30
0.0
 10
-121.1758
 20
-32.1312
 30
0.0
 10
-121.1758
 20
-32.1312
 30
0.0
 10
-116.7877
 20
-33.454
 30
0.0
 10
-112.29
 20
-33.7899
 30
0.0
 10
-107.8346
 20
-33.1271
 30
0.0
 10
-107.8346
 20
-33.1271
 30
0.0
 10
-103.9398
 20
-31.9891
 30
0.0
 10
-99.9745
 20
-31.4719
 30
0.0
 10
-96.0054
 20
-31.5834
 30
0.0
 10
-96.0054
 20
-31.5834
 30
0.0
 10
-99.2153
 20
-35.9608
 30
0.0
 10
-103.5233
 20
-38.1272
 30
0.0
 10
-107.8681
 20
-37.5473
 30
0.0
  0
SPLINE
  5
95
330
1F
100
AcDbEntity
  8
layer 1
 62
     7
370
     9
100
AcDbSpline
210
0.0
220
0.0
230
1.0
 70
    11
 71
     3
 72
    24
 73
    20
 74
     0
 42
0.0000000001
 43
0.0000000001
 12
1.0
 22
0.0
 32
0.0
 13
1.0
 23
0.0
 33
0.0
 40
0.0
 40
0.0
 40
0.0
 40
0.0
 40
0.1666666666666667
 40
0.1666666666666667
 40
0.1666666666666667
 40
0.1666666666666667
 40
0.3333333333333333
 40
0.3333333333333333
 40
0.3333333333333333
 40
0.3333333333333333
 40
0.5
 40
0.5
 40
0.5
 40
0.5
 40
0.6666666666666666
 40
0.6666666666666666
 40
0.6666666666666666
 40
0.6666666666666666
 40
1.0
 40
1.0
 40
1.0
 40
1.0
 10
-103.2643
 20
-26.8518
 30
0.0
 10
-106.329
 20
-29.7964
 30
0.0
 10
-109.9817
 20
-31.0966
 30
0.0
 10
-113.6147
 20
-30.5368
 30
0.0
 10
-113.6147
 20
-30.5368
 30
0.0
 10
-118.9624
 20
-30.2501
 30
0.0
 10
-124.1323
 20
-27.6147
 30
0.0
 10
-128.4681
 20
-22.9666
 30
0.0
 10
-128.4681
 20
-22.9666
 30
0.0
 10
-120.9647
 20
-27.7561
 30
0.0
 10
-112.426
 20
-27.4654
 30
0.0
 10
-105.0789
 20
-22.1698
 30
0.0
 10
-105.0789
 20
-22.1698
 30
0.0
 10
-104.23
 20
-21.68
 30
0.0
 10
-103.2672
 20
-22.1834
 30
0.0
 10
-102.8133
 20
-23.3546
 30
0.0
 10
-102.8133
 20
-23.3546
 30
0.0
 10
-102.3596
 20
-24.5249
 30
0.0
 10
-102.5512
 20
-26.0107
 30
0.0
 10
-103.2643
 20
-26.8518
 30
0.0
  0
SPLINE
  5
96
330
1F
100
AcDbEntity
  8
layer 1
 62
     7
370
     9
100
AcDbSpline
210
0.0
220
0.0
230
1.0
 70
    11
 71
     3
 72
    52
 73
    48
 74
     0
 42
0.0000000001
 43
0.0000000001
 12
1.0
 22
0.0
 32
0.0
 13
1.0
 23
0.0
 33
0.0
 40
0.0
 40
0.0
 40
0.0
 40
0.0
 40
0.0769230769230769
 40
0.0769230769230769
 40
0.0769230769230769
 40
0.0769230769230769
 40
0.1538461538461539
 40
0.1538461538461539
 40
0.1538461538461539
 40
0.1538461538461539
 40
0.2307692307692308
 40
0.2307692307692308
 40
0.2307692307692308
 40
0.2307692307692308
 40
0.3076923076923077
 40
0.3076923076923077
 40
0.3076923076923077
 40
0.3076923076923077
 40
0.3846153846153846
 40
0.3846153846153846
 40
0.3846153846153846
 40
0.3846153846153846
 40
0.4615384615384616
 40
0.4615384615384616
 40
0.4615384615384616
 40
0.4615384615384616
 40
0.5384615384615384
 40
0.5384615384615384
 40
0.5384615384615384
 40
0.5384615384615384
 40
0.6153846153846154
 40
0.6153846153846154
 40
0.6153846153846154
 40
0.6153846153846154
 40
0.6923076923076923
 40
0.6923076923076923
 40
0.6923076923076923
 40
0.6923076923076923
 40
0.7692307692307693
 40
0.7692307692307693
 40
0.7692307692307693
 40
0.7692307692307693
 40
0.8461538461538461
 40
0.8461538461538461
 40
0.8461538461538461
 40
0.8461538461538461
 40
1.0
 40
1.0
 40
1.0
 40
1.0
 10
-105.751
 20
-12.8069
 30
0.0
 10
-108.182
 20
-17.8928
 30
0.0
 10
-112.2462
 20
-20.696
 30
0.0
 10
-116.4374
 20
-20.178
 30
0.0
 10
-116.4374
 20
-20.178
 30
0.0
 10
-119.5781
 20
-20.5168
 30
0.0
 10
-122.7205
 20
-19.5514
 30
0.0
 10
-125.5109
 20
-17.3885
 30
0.0
 10
-125.5109
 20
-17.3885
 30
0.0
 10
-127.781
 20
-15.2567
 30
0.0
 10
-128.7792
 20
-11.1073
 30
0.0
 10
-127.9305
 20
-7.3282
 30
0.0
 10
-127.9305
 20
-7.3282
 30
0.0
 10
-127.1798
 20
-5.3155
 30
0.0
 10
-125.7931
 20
-4.0039
 30
0.0
 10
-124.2456
 20
-3.8424
 30
0.0
 10
-124.2456
 20
-3.8424
 30
0.0
 10
-122.698
 20
-3.6817
 30
0.0
 10
-121.2011
 20
-4.6937
 30
0.0
 10
-120.2683
 20
-6.5307
 30
0.0
 10
-120.2683
 20
-6.5307
 30
0.0
 10
-121.9726
 20
-5.9275
 30
0.0
 10
-123.7694
 20
-6.4744
 30
0.0
 10
-125.1749
 20
-8.0254
 30
0.0
 10
-125.1749
 20
-8.0254
 30
0.0
 10
-125.5902
 20
-8.896
 30
0.0
 10
-125.7392
 20
-9.9862
 30
0.0
 10
-125.5858
 20
-11.0278
 30
0.0
 10
-125.5858
 20
-11.0278
 30
0.0
 10
-125.4324
 20
-12.0697
 30
0.0
 10
-124.9906
 20
-12.9683
 30
0.0
 10
-124.3684
 20
-13.504
 30
0.0
 10
-124.3684
 20
-13.504
 30
0.0
 10
-121.7506
 20
-15.0397
 30
0.0
 10
-118.8021
 20
-14.7096
 30
0.0
 10
-116.3701
 20
-12.6077
 30
0.0
 10
-116.3701
 20
-12.6077
 30
0.0
 10
-116.0195
 20
-13.3394
 30
0.0
 10
-115.6379
 20
-14.0382
 30
0.0
 10
-115.2276
 20
-14.6994
 30
0.0
 10
-115.2276
 20
-14.6994
 30
0.0
 10
-113.307
 20
-13.7162
 30
0.0
 10
-111.4778
 20
-12.3773
 30
0.0
 10
-109.7835
 20
-10.7145
 30
0.0
 10
-109.7835
 20
-10.7145
 30
0.0
 10
-108.843
 20
-12.5451
 30
0.0
 10
-107.2565
 20
-13.3677
 30
0.0
 10
-105.751
 20
-12.8069
 30
0.0
  0
SPLINE
  5
97
330
1F
100
AcDbEntity
  8
layer 1
 62
     7
370
     9
100
AcDbSpline
210
0.0
220
0.0
230
1.0
 70
    11
 71
     3
 72
    24
 73
    20
 74
     0
 42
0.0000000001
 43
0.0000000001
 12
1.0
 22
0.0
 32
0.0
 13
1.0
 23
0.0
 33
0.0
 40
0.0
 40
0.0
 40
0.0
 40
0.0
 40
0.1666666666666667
 40
0.1666666666666667
 40
0.1666666666666667
 40
0.1666666666666667
 40
0.3333333333333333
 40
0.3333333333333333
 40
0.3333333333333333
 40
0.3333333333333333
 40
0.5
 40
0.5
 40
0.5
 40
0.5
 40
0.6666666666666666
 40
0.6666666666666666
 40
0.6666666666666666
 40
0.6666666666666666
 40
1.0
 40
1.0
 40
1.0
 40
1.0
 10
-105.2133
 20
-11.2127
 30
0.0
 10
-106.5545
 20
-9.6255
 30
0.0
 10
-107.5389
 20
-7.4712
 30
0.0
 10
-108.0362
 20
-5.0366
 30
0.0
 10
-108.0362
 20
-5.0366
 30
0.0
 10
-109.1091
 20
0.2057
 30
0.0
 10
-112.4059
 20
3.748
 30
0.0
 10
-116.1016
 20
3.6291
 30
0.0
 10
-116.1016
 20
3.6291
 30
0.0
 10
-115.8037
 20
5.1127
 30
0.0
 10
-114.8591
 20
6.1006
 30
0.0
 10
-113.8163
 20
6.0193
 30
0.0
 10
-113.8163
 20
6.0193
 30
0.0
 10
-111.1044
 20
5.5175
 30
0.0
 10
-108.6494
 20
3.3914
 30
0.0
 10
-107.0241
 20
0.1342
 30
0.0
 10
-107.0241
 20
0.1342
 30
0.0
 10
-105.3983
 20
-3.1212
 30
0.0
 10
-104.744
 20
-7.2224
 30
0.0
 10
-105.2133
 20
-11.2127
 30
0.0
  0
SPLINE
  5
98
330
1F
100
AcDbEntity
  8
layer 1
 62
     7
370
     9
100
AcDbSpline
210
0.0
220
0.0
230
1.0
 70
    11
 71
     3
 72
    20
 73
    16
 74
     0
 42
0.0000000001
 43
0.0000000001
 12
1.0
 22
0.0
 32
0.0
 13
1.0
 23
0.0
 33
0.0
 40
0.0
 40
0.0
 40
0.0
 40
0.0
 40
0.2
 40
0.2
 40
0.2
 40
0.2
 40
0.4
 40
0.4
 40
0.4
 40
0.4
 40
0.6
 40
0.6
 40
0.6
 40
0.6
 40
1.0
 40
1.0
 40
1.0
 40
1.0
 10
-114.1524
 20
-9.6189
 30
0.0
 10
-113.2359
 20
-9.4454
 30
0.0
 10
-112.4243
 20
-8.6561
 30
0.0
 10
-111.9517
 20
-7.4792
 30
0.0
 10
-111.9517
 20
-7.4792
 30
0.0
 10
-111.4795
 20
-6.3025
 30
0.0
 10
-111.3985
 20
-4.8697
 30
0.0
 10
-111.7327
 20
-3.5924
 30
0.0
 10
-111.7327
 20
-3.5924
 30
0.0
 10
-113.3568
 20
-0.3307
 30
0.0
 10
-116.1085
 20
1.2419
 30
0.0
 10
-118.7898
 20
0.442
 30
0.0
 10
-118.7898
 20
0.442
 30
0.0
 10
-116.1646
 20
-1.4816
 30
0.0
 10
-114.4066
 20
-5.2953
 30
0.0
 10
-114.1524
 20
-9.6189
 30
0.0
  0
SPLINE
  5
99
330
1F
100
AcDbEntity
  8
layer 1
 62
     7
370
     9
100
AcDbSpline
210
0.0
220
0.0
230
1.0
 70
    11
 71
     3
 72
    52
 73
    48
 74
     0
 42
0.0000000001
 43
0.0000000001
 12
1.0
 22
0.0
 32
0.0
 13
1.0
 23
0.0
 33
0.0
 40
0.0
 40
0.0
 40
0.0
 40
0.0
 40
0.0769230769230769
 40
0.0769230769230769
 40
0.0769230769230769
 40
0.0769230769230769
 40
0.1538461538461539
 40
0.1538461538461539
 40
0.1538461538461539
 40
0.1538461538461539
 40
0.2307692307692308
 40
0.2307692307692308
 40
0.2307692307692308
 40
0.2307692307692308
 40
0.3076923076923077
 40
0.3076923076923077
 40
0.3076923076923077
 40
0.3076923076923077
 40
0.3846153846153846
 40
0.3846153846153846
 40
0.3846153846153846
 40
0.3846153846153846
 40
0.4615384615384616
 40
0.4615384615384616
 40
0.4615384615384616
 40
0.4615384615384616
 40
0.5384615384615384
 40
0.5384615384615384
 40
0.5384615384615384
 40
0.5384615384615384
 40
0.6153846153846154
 40
0.6153846153846154
 40
0.6153846153846154
 40
0.6153846153846154
 40
0.6923076923076923
 40
0.6923076923076923
 40
0.6923076923076923
 40
0.6923076923076923
 40
0.7692307692307693
 40
0.7692307692307693
 40
0.7692307692307693
 40
0.7692307692307693
 40
0.8461538461538461
 40
0.8461538461538461
 40
0.8461538461538461
 40
0.8461538461538461
 40
1.0
 40
1.0
 40
1.0
 40
1.0
 10
-118.017
 20
7.9124
 30
0.0
 10
-118.6737
 20
9.743
 30
0.0
 10
-119.889
 20
10.9864
 30
0.0
 10
-121.2767
 20
11.2491
 30
0.0
 10
-121.2767
 20
11.2491
 30
0.0
 10
-123.3663
 20
11.9141
 30
0.0
 10
-125.4304
 20
12.7454
 30
0.0
 10
-127.4601
 20
13.7397
 30
0.0
 10
-127.4601
 20
13.7397
 30
0.0
 10
-127.027
 20
13.061
 30
0.0
 10
-126.7658
 20
12.1808
 30
0.0
 10
-126.7208
 20
11.2491
 30
0.0
 10
-126.7208
 20
11.2491
 30
0.0
 10
-127.4135
 20
11.3397
 30
0.0
 10
-128.0996
 20
11.523
 30
0.0
 10
-128.7705
 20
11.7969
 30
0.0
 10
-128.7705
 20
11.7969
 30
0.0
 10
-129.106
 20
10.8748
 30
0.0
 10
-129.4533
 20
9.9607
 30
0.0
 10
-129.8122
 20
9.0579
 30
0.0
 10
-129.8122
 20
9.0579
 30
0.0
 10
-127.2752
 20
9.5768
 30
0.0
 10
-124.6908
 20
9.184
 30
0.0
 10
-122.2776
 20
7.9124
 30
0.0
 10
-122.2776
 20
7.9124
 30
0.0
 10
-124.6908
 20
6.6402
 30
0.0
 10
-127.2752
 20
6.2474
 30
0.0
 10
-129.8122
 20
6.7672
 30
0.0
 10
-129.8122
 20
6.7672
 30
0.0
 10
-129.4533
 20
5.8636
 30
0.0
 10
-129.106
 20
4.9503
 30
0.0
 10
-128.7705
 20
4.0275
 30
0.0
 10
-128.7705
 20
4.0275
 30
0.0
 10
-128.0996
 20
4.3012
 30
0.0
 10
-127.4135
 20
4.4852
 30
0.0
 10
-126.7208
 20
4.5751
 30
0.0
 10
-126.7208
 20
4.5751
 30
0.0
 10
-126.7658
 20
3.6434
 30
0.0
 10
-127.027
 20
2.7639
 30
0.0
 10
-127.4601
 20
2.0852
 30
0.0
 10
-127.4601
 20
2.0852
 30
0.0
 10
-125.4304
 20
3.0797
 30
0.0
 10
-123.3663
 20
3.9101
 30
0.0
 10
-121.2767
 20
4.5751
 30
0.0
 10
-121.2767
 20
4.5751
 30
0.0
 10
-119.889
 20
4.8379
 30
0.0
 10
-118.6737
 20
6.0821
 30
0.0
 10
-118.017
 20
7.9124
 30
0.0
  0
SPLINE
  5
9A
330
1F
100
AcDbEntity
  8
layer 1
 62
     7
370
     9
100
AcDbSpline
210
0.0
220
0.0
230
1.0
 70
    11
 71
     3
 72
    40
 73
    36
 74
     0
 42
0.0000000001
 43
0.0000000001
 12
1.0
 22
0.0
 32
0.0
 13
1.0
 23
0.0
 33
0.0
 40
0.0
 40
0.0
 40
0.0
 40
0.0
 40
0.1
 40
0.1
 40
0.1
 40
0.1
 40
0.2
 40
0.2
 40
0.2
 40
0.2
 40
0.3
 40
0.3
 40
0.3
 40
0.3
 40
0.4
 40
0.4
 40
0.4
 40
0.4
 40
0.5
 40
0.5
 40
0.5
 40
0.5
 40
0.6
 40
0.6
 40
0.6
 40
0.6
 40
0.7
 40
0.7
 40
0.7
 40
0.7
 40
0.8
 40
0.8
 40
0.8
 40
0.8
 40
1.0
 40
1.0
 40
1.0
 40
1.0
 10
-87.8058
 20
26.6393
 30
0.0
 10
-87.4251
 20
24.0217
 30
0.0
 10
-87.4712
 20
21.3059
 30
0.0
 10
-87.9402
 20
18.7204
 30
0.0
 10
-87.9402
 20
18.7204
 30
0.0
 10
-88.5547
 20
18.7509
 30
0.0
 10
-89.15
 20
19.0449
 30
0.0
 10
-89.6542
 20
19.5662
 30
0.0
 10
-89.6542
 20
19.5662
 30
0.0
 10
-89.7817
 20
16.9044
 30
0.0
 10
-91.2482
 20
14.8177
 30
0.0
 10
-93.0483
 20
14.7358
 30
0.0
 10
-93.0483
 20
14.7358
 30
0.0
 10
-92.5087
 20
14.5477
 30
0.0
 10
-92.0602
 20
13.9945
 30
0.0
 10
-91.8384
 20
13.2417
 30
0.0
 10
-91.8384
 20
13.2417
 30
0.0
 10
-91.8384
 20
13.2417
 30
0.0
 10
-91.8384
 20
10.1036
 30
0.0
 10
-91.8384
 20
10.1036
 30
0.0
 10
-91.8384
 20
10.1036
 30
0.0
 10
-91.1953
 20
8.9101
 30
0.0
 10
-90.2224
 20
8.2105
 30
0.0
 10
-89.1918
 20
8.2009
 30
0.0
 10
-89.1918
 20
8.2009
 30
0.0
 10
-88.1608
 20
8.1914
 30
0.0
 10
-87.1822
 20
8.8723
 30
0.0
 10
-86.5289
 20
10.0538
 30
0.0
 10
-86.5289
 20
10.0538
 30
0.0
 10
-85.6729
 20
12.9872
 30
0.0
 10
-85.4613
 20
16.2458
 30
0.0
 10
-85.924
 20
19.367
 30
0.0
 10
-85.924
 20
19.367
 30
0.0
 10
-86.3963
 20
21.8731
 30
0.0
 10
-87.0264
 20
24.3074
 30
0.0
 10
-87.8058
 20
26.6393
 30
0.0
  0
SPLINE
  5
9B
330
1F
100
AcDbEntity
  8
layer 1
 62
     7
370
     9
100
AcDbSpline
210
0.0
220
0.0
230
1.0
 70
    11
 71
     3
 72
    48
 73
    44
 74
     0
 42
0.0000000001
 43
0.0000000001
 12
1.0
 22
0.0
 32
0.0
 13
1.0
 23
0.0
 33
0.0
 40
0.0
 40
0.0
 40
0.0
 40
0.0
 40
0.0833333333333333
 40
0.0833333333333333
 40
0.0833333333333333
 40
0.0833333333333333
 40
0.1666666666666667
 40
0.1666666666666667
 40
0.1666666666666667
 40
0.1666666666666667
 40
0.25
 40
0.25
 40
0.25
 40
0.25
 40
0.3333333333333333
 40
0.3333333333333333
 40
0.3333333333333333
 40
0.3333333333333333
 40
0.4166666666666667
 40
0.4166666666666667
 40
0.4166666666666667
 40
0.4166666666666667
 40
0.5
 40
0.5
 40
0.5
 40
0.5
 40
0.5833333333333334
 40
0.5833333333333334
 40
0.5833333333333334
 40
0.5833333333333334
 40
0.6666666666666666
 40
0.6666666666666666
 40
0.6666666666666666
 40
0.6666666666666666
 40
0.75
 40
0.75
 40
0.75
 40
0.75
 40
0.8333333333333334
 40
0.8333333333333334
 40
0.8333333333333334
 40
0.8333333333333334
 40
1.0
 40
1.0
 40
1.0
 40
1.0
 10
-101.752
 20
13.0924
 30
0.0
 10
-101.752
 20
13.0924
 30
0.0
 10
-97.4169
 20
13.0924
 30
0.0
 10
-97.4169
 20
13.0924
 30
0.0
 10
-97.4169
 20
13.0924
 30
0.0
 10
-97.7339
 20
13.8941
 30
0.0
 10
-98.0145
 20
14.7262
 30
0.0
 10
-98.2571
 20
15.5823
 30
0.0
 10
-98.2571
 20
15.5823
 30
0.0
 10
-98.3628
 20
16.1342
 30
0.0
 10
-98.2768
 20
16.7278
 30
0.0
 10
-98.0277
 20
17.167
 30
0.0
 10
-98.0277
 20
17.167
 30
0.0
 10
-97.7784
 20
17.6057
 30
0.0
 10
-97.3987
 20
17.8338
 30
0.0
 10
-97.0137
 20
17.7735
 30
0.0
 10
-97.0137
 20
17.7735
 30
0.0
 10
-95.0837
 20
17.3919
 30
0.0
 10
-93.1883
 20
18.7671
 30
0.0
 10
-92.208
 20
21.2602
 30
0.0
 10
-92.208
 20
21.2602
 30
0.0
 10
-91.2648
 20
24.411
 30
0.0
 10
-91.1804
 20
27.9806
 30
0.0
 10
-91.9728
 20
31.2216
 30
0.0
 10
-91.9728
 20
31.2216
 30
0.0
 10
-92.9612
 20
35.2752
 30
0.0
 10
-94.9905
 20
38.5869
 30
0.0
 10
-97.6186
 20
40.4352
 30
0.0
 10
-97.6186
 20
40.4352
 30
0.0
 10
-97.059
 20
38.4744
 30
0.0
 10
-97.2375
 20
36.2222
 30
0.0
 10
-98.089
 20
34.5082
 30
0.0
 10
-98.089
 20
34.5082
 30
0.0
 10
-98.5428
 20
35.6111
 30
0.0
 10
-99.1228
 20
36.5885
 30
0.0
 10
-99.8029
 20
37.3965
 30
0.0
 10
-99.8029
 20
37.3965
 30
0.0
 10
-100.5759
 20
36.0264
 30
0.0
 10
-101.7659
 20
35.3324
 30
0.0
 10
-102.9618
 20
35.5539
 30
0.0
 10
-102.9618
 20
35.5539
 30
0.0
 10
-98.6098
 20
29.7219
 30
0.0
 10
-98.0795
 20
19.8732
 30
0.0
 10
-101.752
 20
13.0924
 30
0.0
  0
SPLINE
  5
9C
330
1F
100
AcDbEntity
  8
layer 1
 62
     7
370
     9
100
AcDbSpline
210
0.0
220
0.0
230
1.0
 70
    11
 71
     3
 72
    28
 73
    24
 74
     0
 42
0.0000000001
 43
0.0000000001
 12
1.0
 22
0.0
 32
0.0
 13
1.0
 23
0.0
 33
0.0
 40
0.0
 40
0.0
 40
0.0
 40
0.0
 40
0.1428571428571428
 40
0.1428571428571428
 40
0.1428571428571428
 40
0.1428571428571428
 40
0.2857142857142857
 40
0.2857142857142857
 40
0.2857142857142857
 40
0.2857142857142857
 40
0.4285714285714285
 40
0.4285714285714285
 40
0.4285714285714285
 40
0.4285714285714285
 40
0.5714285714285714
 40
0.5714285714285714
 40
0.5714285714285714
 40
0.5714285714285714
 40
0.7142857142857143
 40
0.7142857142857143
 40
0.7142857142857143
 40
0.7142857142857143
 40
1.0
 40
1.0
 40
1.0
 40
1.0
 10
-93.7204
 20
89.5928
 30
0.0
 10
-92.0163
 20
90.4731
 30
0.0
 10
-90.1891
 20
90.6955
 30
0.0
 10
-88.4107
 20
90.2401
 30
0.0
 10
-88.4107
 20
90.2401
 30
0.0
 10
-90.2731
 20
88.7582
 30
0.0
 10
-91.9
 20
86.7036
 30
0.0
 10
-93.1828
 20
84.2137
 30
0.0
 10
-93.1828
 20
84.2137
 30
0.0
 10
-90.3347
 20
85.5654
 30
0.0
 10
-87.234
 20
85.0675
 30
0.0
 10
-84.647
 20
82.8442
 30
0.0
 10
-84.647
 20
82.8442
 30
0.0
 10
-84.647
 20
82.8442
 30
0.0
 10
-84.647
 20
93.7614
 30
0.0
 10
-84.647
 20
93.7614
 30
0.0
 10
-84.647
 20
93.7614
 30
0.0
 10
-85.2181
 20
94.3229
 30
0.0
 10
-85.8784
 20
94.6546
 30
0.0
 10
-86.5625
 20
94.722
 30
0.0
 10
-86.5625
 20
94.722
 30
0.0
 10
-89.3385
 20
94.6378
 30
0.0
 10
-91.9519
 20
92.7647
 30
0.0
 10
-93.7204
 20
89.5928
 30
0.0
  0
SPLINE
  5
9D
330
1F
100
AcDbEntity
  8
layer 1
 62
     7
370
     9
100
AcDbSpline
210
0.0
220
0.0
230
1.0
 70
    11
 71
     3
 72
    16
 73
    12
 74
     0
 42
0.0000000001
 43
0.0000000001
 12
1.0
 22
0.0
 32
0.0
 13
1.0
 23
0.0
 33
0.0
 40
0.0
 40
0.0
 40
0.0
 40
0.0
 40
0.25
 40
0.25
 40
0.25
 40
0.25
 40
0.5
 40
0.5
 40
0.5
 40
0.5
 40
1.0
 40
1.0
 40
1.0
 40
1.0
 10
-84.647
 20
32.4352
 30
0.0
 10
-85.7077
 20
33.4272
 30
0.0
 10
-86.8802
 20
34.1291
 30
0.0
 10
-88.1083
 20
34.5082
 30
0.0
 10
-88.1083
 20
34.5082
 30
0.0
 10
-86.9802
 20
34.9651
 30
0.0
 10
-85.7973
 20
35.0407
 30
0.0
 10
-84.647
 20
34.729
 30
0.0
 10
-84.647
 20
34.729
 30
0.0
 10
-84.647
 20
34.729
 30
0.0
 10
-84.647
 20
32.4352
 30
0.0
 10
-84.647
 20
32.4352
 30
0.0
  0
SPLINE
  5
9E
330
1F
100
AcDbEntity
  8
layer 1
 62
     7
370
     9
100
AcDbSpline
210
0.0
220
0.0
230
1.0
 70
    11
 71
     3
 72
    16
 73
    12
 74
     0
 42
0.0000000001
 43
0.0000000001
 12
1.0
 22
0.0
 32
0.0
 13
1.0
 23
0.0
 33
0.0
 40
0.0
 40
0.0
 40
0.0
 40
0.0
 40
0.25
 40
0.25
 40
0.25
 40
0.25
 40
0.5
 40
0.5
 40
0.5
 40
0.5
 40
1.0
 40
1.0
 40
1.0
 40
1.0
 10
-84.647
 20
41.8969
 30
0.0
 10
-86.4944
 20
41.7024
 30
0.0
 10
-88.3037
 20
41.0221
 30
0.0
 10
-89.99
 20
39.8874
 30
0.0
 10
-89.99
 20
39.8874
 30
0.0
 10
-88.302
 20
38.7155
 30
0.0
 10
-86.4981
 20
37.9516
 30
0.0
 10
-84.647
 20
37.6247
 30
0.0
 10
-84.647
 20
37.6247
 30
0.0
 10
-84.647
 20
37.6247
 30
0.0
 10
-84.647
 20
41.8969
 30
0.0
 10
-84.647
 20
41.8969
 30
0.0
  0
SPLINE
  5
9F
330
1F
100
AcDbEntity
  8
layer 1
 62
     7
370
     9
100
AcDbSpline
210
0.0
220
0.0
230
1.0
 70
    11
 71
     3
 72
    28
 73
    24
 74
     0
 42
0.0000000001
 43
0.0000000001
 12
1.0
 22
0.0
 32
0.0
 13
1.0
 23
0.0
 33
0.0
 40
0.0
 40
0.0
 40
0.0
 40
0.0
 40
0.1428571428571428
 40
0.1428571428571428
 40
0.1428571428571428
 40
0.1428571428571428
 40
0.2857142857142857
 40
0.2857142857142857
 40
0.2857142857142857
 40
0.2857142857142857
 40
0.4285714285714285
 40
0.4285714285714285
 40
0.4285714285714285
 40
0.4285714285714285
 40
0.5714285714285714
 40
0.5714285714285714
 40
0.5714285714285714
 40
0.5714285714285714
 40
0.7142857142857143
 40
0.7142857142857143
 40
0.7142857142857143
 40
0.7142857142857143
 40
1.0
 40
1.0
 40
1.0
 40
1.0
 10
-94.5941
 20
43.423
 30
0.0
 10
-94.6231
 20
44.186
 30
0.0
 10
-94.6344
 20
44.9507
 30
0.0
 10
-94.6277
 20
45.7146
 30
0.0
 10
-94.6277
 20
45.7146
 30
0.0
 10
-94.1113
 20
45.6889
 30
0.0
 10
-93.633
 20
46.1169
 30
0.0
 10
-93.4077
 20
46.8061
 30
0.0
 10
-93.4077
 20
46.8061
 30
0.0
 10
-93.1825
 20
47.4953
 30
0.0
 10
-93.2524
 20
48.317
 30
0.0
 10
-93.586
 20
48.9017
 30
0.0
 10
-93.586
 20
48.9017
 30
0.0
 10
-90.6328
 20
49.6277
 30
0.0
 10
-87.6305
 20
49.8108
 30
0.0
 10
-84.647
 20
49.447
 30
0.0
 10
-84.647
 20
49.447
 30
0.0
 10
-84.647
 20
49.447
 30
0.0
 10
-84.647
 20
43.6006
 30
0.0
 10
-84.647
 20
43.6006
 30
0.0
 10
-84.647
 20
43.6006
 30
0.0
 10
-87.9331
 20
44.5933
 30
0.0
 10
-91.3248
 20
44.5329
 30
0.0
 10
-94.5941
 20
43.423
 30
0.0
  0
SPLINE
  5
A0
330
1F
100
AcDbEntity
  8
layer 1
 62
     7
370
     9
100
AcDbSpline
210
0.0
220
0.0
230
1.0
 70
    11
 71
     3
 72
    28
 73
    24
 74
     0
 42
0.0000000001
 43
0.0000000001
 12
1.0
 22
0.0
 32
0.0
 13
1.0
 23
0.0
 33
0.0
 40
0.0
 40
0.0
 40
0.0
 40
0.0
 40
0.1428571428571428
 40
0.1428571428571428
 40
0.1428571428571428
 40
0.1428571428571428
 40
0.2857142857142857
 40
0.2857142857142857
 40
0.2857142857142857
 40
0.2857142857142857
 40
0.4285714285714285
 40
0.4285714285714285
 40
0.4285714285714285
 40
0.4285714285714285
 40
0.5714285714285714
 40
0.5714285714285714
 40
0.5714285714285714
 40
0.5714285714285714
 40
0.7142857142857143
 40
0.7142857142857143
 40
0.7142857142857143
 40
0.7142857142857143
 40
1.0
 40
1.0
 40
1.0
 40
1.0
 10
-97.5177
 20
69.8195
 30
0.0
 10
-94.4345
 20
66.8797
 30
0.0
 10
-90.7911
 20
65.4991
 30
0.0
 10
-87.1338
 20
65.8854
 30
0.0
 10
-87.1338
 20
65.8854
 30
0.0
 10
-88.1782
 20
63.7785
 30
0.0
 10
-89.8391
 20
62.5376
 30
0.0
 10
-91.6032
 20
62.5481
 30
0.0
 10
-91.6032
 20
62.5481
 30
0.0
 10
-90.1651
 20
60.422
 30
0.0
 10
-89.5027
 20
57.4028
 30
0.0
 10
-89.8222
 20
54.4302
 30
0.0
 10
-89.8222
 20
54.4302
 30
0.0
 10
-87.8955
 20
55.0308
 30
0.0
 10
-86.1101
 20
56.3762
 30
0.0
 10
-84.647
 20
58.3288
 30
0.0
 10
-84.647
 20
58.3288
 30
0.0
 10
-84.647
 20
58.3288
 30
0.0
 10
-84.647
 20
74.8661
 30
0.0
 10
-84.647
 20
74.8661
 30
0.0
 10
-84.647
 20
74.8661
 30
0.0
 10
-87.9784
 20
69.789
 30
0.0
 10
-92.9281
 20
67.8485
 30
0.0
 10
-97.5177
 20
69.8195
 30
0.0
  0
SPLINE
  5
A1
330
1F
100
AcDbEntity
  8
layer 1
 62
     7
370
     9
100
AcDbSpline
210
0.0
220
0.0
230
1.0
 70
    11
 71
     3
 72
    48
 73
    44
 74
     0
 42
0.0000000001
 43
0.0000000001
 12
1.0
 22
0.0
 32
0.0
 13
1.0
 23
0.0
 33
0.0
 40
0.0
 40
0.0
 40
0.0
 40
0.0
 40
0.0833333333333333
 40
0.0833333333333333
 40
0.0833333333333333
 40
0.0833333333333333
 40
0.1666666666666667
 40
0.1666666666666667
 40
0.1666666666666667
 40
0.1666666666666667
 40
0.25
 40
0.25
 40
0.25
 40
0.25
 40
0.3333333333333333
 40
0.3333333333333333
 40
0.3333333333333333
 40
0.3333333333333333
 40
0.4166666666666667
 40
0.4166666666666667
 40
0.4166666666666667
 40
0.4166666666666667
 40
0.5
 40
0.5
 40
0.5
 40
0.5
 40
0.5833333333333334
 40
0.5833333333333334
 40
0.5833333333333334
 40
0.5833333333333334
 40
0.6666666666666666
 40
0.6666666666666666
 40
0.6666666666666666
 40
0.6666666666666666
 40
0.75
 40
0.75
 40
0.75
 40
0.75
 40
0.8333333333333334
 40
0.8333333333333334
 40
0.8333333333333334
 40
0.8333333333333334
 40
1.0
 40
1.0
 40
1.0
 40
1.0
 10
-89.2508
 20
101.9445
 30
0.0
 10
-87.8646
 20
100.7291
 30
0.0
 10
-86.244
 20
100.2369
 30
0.0
 10
-84.647
 20
100.5436
 30
0.0
 10
-84.647
 20
100.5436
 30
0.0
 10
-84.647
 20
100.5436
 30
0.0
 10
-84.647
 20
103.5949
 30
0.0
 10
-84.647
 20
103.5949
 30
0.0
 10
-84.647
 20
103.5949
 30
0.0
 10
-85.3672
 20
104.0079
 30
0.0
 10
-86.0737
 20
104.4706
 30
0.0
 10
-86.7641
 20
104.9822
 30
0.0
 10
-86.7641
 20
104.9822
 30
0.0
 10
-87.9765
 20
103.3604
 30
0.0
 10
-89.6829
 20
102.8279
 30
0.0
 10
-91.2336
 20
103.5879
 30
0.0
 10
-91.2336
 20
103.5879
 30
0.0
 10
-90.543
 20
104.8592
 30
0.0
 10
-90.4755
 20
106.6415
 30
0.0
 10
-91.0655
 20
108.0208
 30
0.0
 10
-91.0655
 20
108.0208
 30
0.0
 10
-91.5416
 20
108.8407
 30
0.0
 10
-92.2415
 20
109.3001
 30
0.0
 10
-92.9714
 20
109.2712
 30
0.0
 10
-92.9714
 20
109.2712
 30
0.0
 10
-93.7012
 20
109.2423
 30
0.0
 10
-94.3835
 20
108.7275
 30
0.0
 10
-94.8293
 20
107.8712
 30
0.0
 10
-94.8293
 20
107.8712
 30
0.0
 10
-95.6767
 20
105.5236
 30
0.0
 10
-95.9835
 20
102.8304
 30
0.0
 10
-95.703
 20
100.2007
 30
0.0
 10
-95.703
 20
100.2007
 30
0.0
 10
-95.3108
 20
97.5534
 30
0.0
 10
-95.1972
 20
94.8313
 30
0.0
 10
-95.367
 20
92.1326
 30
0.0
 10
-95.367
 20
92.1326
 30
0.0
 10
-94.3713
 20
93.253
 30
0.0
 10
-93.4888
 20
94.5774
 30
0.0
 10
-92.7457
 20
96.0674
 30
0.0
 10
-92.7457
 20
96.0674
 30
0.0
 10
-91.9135
 20
98.4111
 30
0.0
 10
-90.7154
 20
100.4263
 30
0.0
 10
-89.2508
 20
101.9445
 30
0.0
  0
SPLINE
  5
A2
330
1F
100
AcDbEntity
  8
layer 1
 62
     7
370
     9
100
AcDbSpline
210
0.0
220
0.0
230
1.0
 70
    11
 71
     3
 72
    24
 73
    20
 74
     0
 42
0.0000000001
 43
0.0000000001
 12
1.0
 22
0.0
 32
0.0
 13
1.0
 23
0.0
 33
0.0
 40
0.0
 40
0.0
 40
0.0
 40
0.0
 40
0.1666666666666667
 40
0.1666666666666667
 40
0.1666666666666667
 40
0.1666666666666667
 40
0.3333333333333333
 40
0.3333333333333333
 40
0.3333333333333333
 40
0.3333333333333333
 40
0.5
 40
0.5
 40
0.5
 40
0.5
 40
0.6666666666666666
 40
0.6666666666666666
 40
0.6666666666666666
 40
0.6666666666666666
 40
1.0
 40
1.0
 40
1.0
 40
1.0
 10
-95.4341
 20
112.5027
 30
0.0
 10
-96.1778
 20
113.9539
 30
0.0
 10
-96.3861
 20
115.8576
 30
0.0
 10
-95.9902
 20
117.5829
 30
0.0
 10
-95.9902
 20
117.5829
 30
0.0
 10
-95.9902
 20
117.5829
 30
0.0
 10
-102.0699
 20
117.5829
 30
0.0
 10
-102.0699
 20
117.5829
 30
0.0
 10
-102.0699
 20
117.5829
 30
0.0
 10
-103.7143
 20
114.5468
 30
0.0
 10
-103.9092
 20
110.3138
 30
0.0
 10
-102.5584
 20
106.9742
 30
0.0
 10
-102.5584
 20
106.9742
 30
0.0
 10
-101.1299
 20
105.0159
 30
0.0
 10
-99.8149
 20
102.8834
 30
0.0
 10
-98.6267
 20
100.5998
 30
0.0
 10
-98.6267
 20
100.5998
 30
0.0
 10
-99.4998
 20
105.1805
 30
0.0
 10
-98.191
 20
110.0601
 30
0.0
 10
-95.4341
 20
112.5027
 30
0.0
  0
SPLINE
  5
A3
330
1F
100
AcDbEntity
  8
layer 1
 62
     7
370
     9
100
AcDbSpline
210
0.0
220
0.0
230
1.0
 70
    11
 71
     3
 72
    20
 73
    16
 74
     0
 42
0.0000000001
 43
0.0000000001
 12
1.0
 22
0.0
 32
0.0
 13
1.0
 23
0.0
 33
0.0
 40
0.0
 40
0.0
 40
0.0
 40
0.0
 40
0.2
 40
0.2
 40
0.2
 40
0.2
 40
0.4
 40
0.4
 40
0.4
 40
0.4
 40
0.6
 40
0.6
 40
0.6
 40
0.6
 40
1.0
 40
1.0
 40
1.0
 40
1.0
 10
-106.6918
 20
110.7099
 30
0.0
 10
-106.9447
 20
113.0664
 30
0.0
 10
-106.6686
 20
115.481
 30
0.0
 10
-105.9059
 20
117.5829
 30
0.0
 10
-105.9059
 20
117.5829
 30
0.0
 10
-105.9059
 20
117.5829
 30
0.0
 10
-128.4784
 20
117.5829
 30
0.0
 10
-128.4784
 20
117.5829
 30
0.0
 10
-128.4784
 20
117.5829
 30
0.0
 10
-126.6082
 20
114.3749
 30
0.0
 10
-123.7786
 20
112.7668
 30
0.0
 10
-120.9406
 20
113.2993
 30
0.0
 10
-120.9406
 20
113.2993
 30
0.0
 10
-116.1197
 20
114.1388
 30
0.0
 10
-111.2332
 20
113.2504
 30
0.0
 10
-106.6918
 20
110.7099
 30
0.0
  0
SPLINE
  5
A4
330
1F
100
AcDbEntity
  8
layer 1
 62
     7
370
     9
100
AcDbSpline
210
0.0
220
0.0
230
1.0
 70
    11
 71
     3
 72
    52
 73
    48
 74
     0
 42
0.0000000001
 43
0.0000000001
 12
1.0
 22
0.0
 32
0.0
 13
1.0
 23
0.0
 33
0.0
 40
0.0
 40
0.0
 40
0.0
 40
0.0
 40
0.0769230769230769
 40
0.0769230769230769
 40
0.0769230769230769
 40
0.0769230769230769
 40
0.1538461538461539
 40
0.1538461538461539
 40
0.1538461538461539
 40
0.1538461538461539
 40
0.2307692307692308
 40
0.2307692307692308
 40
0.2307692307692308
 40
0.2307692307692308
 40
0.3076923076923077
 40
0.3076923076923077
 40
0.3076923076923077
 40
0.3076923076923077
 40
0.3846153846153846
 40
0.3846153846153846
 40
0.3846153846153846
 40
0.3846153846153846
 40
0.4615384615384616
 40
0.4615384615384616
 40
0.4615384615384616
 40
0.4615384615384616
 40
0.5384615384615384
 40
0.5384615384615384
 40
0.5384615384615384
 40
0.5384615384615384
 40
0.6153846153846154
 40
0.6153846153846154
 40
0.6153846153846154
 40
0.6153846153846154
 40
0.6923076923076923
 40
0.6923076923076923
 40
0.6923076923076923
 40
0.6923076923076923
 40
0.7692307692307693
 40
0.7692307692307693
 40
0.7692307692307693
 40
0.7692307692307693
 40
0.8461538461538461
 40
0.8461538461538461
 40
0.8461538461538461
 40
0.8461538461538461
 40
1.0
 40
1.0
 40
1.0
 40
1.0
 10
-133.5088
 20
91.7342
 30
0.0
 10
-133.5429
 20
88.7085
 30
0.0
 10
-133.13
 20
85.7077
 30
0.0
 10
-132.2992
 20
82.9439
 30
0.0
 10
-132.2992
 20
82.9439
 30
0.0
 10
-131.3231
 20
79.5576
 30
0.0
 10
-129.5493
 20
76.8139
 30
0.0
 10
-127.3089
 20
75.2242
 30
0.0
 10
-127.3089
 20
75.2242
 30
0.0
 10
-126.3941
 20
75.1304
 30
0.0
 10
-125.4874
 20
75.5279
 30
0.0
 10
-124.7547
 20
76.3448
 30
0.0
 10
-124.7547
 20
76.3448
 30
0.0
 10
-124.546
 20
71.8901
 30
0.0
 10
-124.2939
 20
67.4405
 30
0.0
 10
-123.9988
 20
62.9971
 30
0.0
 10
-123.9988
 20
62.9971
 30
0.0
 10
-123.0764
 20
64.5915
 30
0.0
 10
-121.9291
 20
65.8661
 30
0.0
 10
-120.6382
 20
66.732
 30
0.0
 10
-120.6382
 20
66.732
 30
0.0
 10
-120.6326
 20
65.9271
 30
0.0
 10
-120.3932
 20
65.1648
 30
0.0
 10
-119.9813
 20
64.6405
 30
0.0
 10
-119.9813
 20
64.6405
 30
0.0
 10
-119.5695
 20
64.1159
 30
0.0
 10
-119.025
 20
63.8798
 30
0.0
 10
-118.4874
 20
63.993
 30
0.0
 10
-118.4874
 20
63.993
 30
0.0
 10
-117.9123
 20
64.2605
 30
0.0
 10
-117.4532
 20
64.9071
 30
0.0
 10
-117.243
 20
65.7447
 30
0.0
 10
-117.243
 20
65.7447
 30
0.0
 10
-117.0327
 20
66.5817
 30
0.0
 10
-117.0952
 20
67.5159
 30
0.0
 10
-117.4118
 20
68.2756
 30
0.0
 10
-117.4118
 20
68.2756
 30
0.0
 10
-118.1491
 20
69.7738
 30
0.0
 10
-119.0873
 20
71.0283
 30
0.0
 10
-120.1675
 20
71.9615
 30
0.0
 10
-120.1675
 20
71.9615
 30
0.0
 10
-121.5176
 20
73.4886
 30
0.0
 10
-122.3419
 20
75.8225
 30
0.0
 10
-122.4192
 20
78.3366
 30
0.0
 10
-122.4192
 20
78.3366
 30
0.0
 10
-127.162
 20
80.4636
 30
0.0
 10
-131.1475
 20
85.2779
 30
0.0
 10
-133.5088
 20
91.7342
 30
0.0
  0
SPLINE
  5
A5
330
1F
100
AcDbEntity
  8
layer 1
 62
     7
370
     9
100
AcDbSpline
210
0.0
220
0.0
230
1.0
 70
    11
 71
     3
 72
    24
 73
    20
 74
     0
 42
0.0000000001
 43
0.0000000001
 12
1.0
 22
0.0
 32
0.0
 13
1.0
 23
0.0
 33
0.0
 40
0.0
 40
0.0
 40
0.0
 40
0.0
 40
0.1666666666666667
 40
0.1666666666666667
 40
0.1666666666666667
 40
0.1666666666666667
 40
0.3333333333333333
 40
0.3333333333333333
 40
0.3333333333333333
 40
0.3333333333333333
 40
0.5
 40
0.5
 40
0.5
 40
0.5
 40
0.6666666666666666
 40
0.6666666666666666
 40
0.6666666666666666
 40
0.6666666666666666
 40
1.0
 40
1.0
 40
1.0
 40
1.0
 10
-121.5454
 20
101.297
 30
0.0
 10
-123.1348
 20
102.6344
 30
0.0
 10
-123.9932
 20
105.2978
 30
0.0
 10
-123.6961
 20
107.9709
 30
0.0
 10
-123.6961
 20
107.9709
 30
0.0
 10
-126.1308
 20
106.9195
 30
0.0
 10
-127.8286
 20
103.6585
 30
0.0
 10
-127.897
 20
99.902
 30
0.0
 10
-127.897
 20
99.902
 30
0.0
 10
-127.8854
 20
98.5814
 30
0.0
 10
-127.4839
 20
97.3356
 30
0.0
 10
-126.7989
 20
96.4922
 30
0.0
 10
-126.7989
 20
96.4922
 30
0.0
 10
-126.1134
 20
95.6482
 30
0.0
 10
-125.2124
 20
95.293
 30
0.0
 10
-124.3347
 20
95.5196
 30
0.0
 10
-124.3347
 20
95.5196
 30
0.0
 10
-124.3794
 20
98.1518
 30
0.0
 10
-123.2412
 20
100.5092
 30
0.0
 10
-121.5454
 20
101.297
 30
0.0
  0
SPLINE
  5
A6
330
1F
100
AcDbEntity
  8
layer 1
 62
     7
370
     9
100
AcDbSpline
210
0.0
220
0.0
230
1.0
 70
    11
 71
     3
 72
    32
 73
    28
 74
     0
 42
0.0000000001
 43
0.0000000001
 12
1.0
 22
0.0
 32
0.0
 13
1.0
 23
0.0
 33
0.0
 40
0.0
 40
0.0
 40
0.0
 40
0.0
 40
0.125
 40
0.125
 40
0.125
 40
0.125
 40
0.25
 40
0.25
 40
0.25
 40
0.25
 40
0.375
 40
0.375
 40
0.375
 40
0.375
 40
0.5
 40
0.5
 40
0.5
 40
0.5
 40
0.625
 40
0.625
 40
0.625
 40
0.625
 40
0.75
 40
0.75
 40
0.75
 40
0.75
 40
1.0
 40
1.0
 40
1.0
 40
1.0
 10
-123.8307
 20
93.5766
 30
0.0
 10
-122.3339
 20
91.331
 30
0.0
 10
-120.1125
 20
90.522
 30
0.0
 10
-118.0841
 20
91.4851
 30
0.0
 10
-118.0841
 20
91.4851
 30
0.0
 10
-116.5033
 20
92.2909
 30
0.0
 10
-115.2468
 20
94.098
 30
0.0
 10
-114.6564
 20
96.416
 30
0.0
 10
-114.6564
 20
96.416
 30
0.0
 10
-114.116
 20
95.6416
 30
0.0
 10
-113.8164
 20
94.5695
 30
0.0
 10
-113.8292
 20
93.4554
 30
0.0
 10
-113.8292
 20
93.4554
 30
0.0
 10
-113.8418
 20
92.3421
 30
0.0
 10
-114.1658
 20
91.2852
 30
0.0
 10
-114.7236
 20
90.5389
 30
0.0
 10
-114.7236
 20
90.5389
 30
0.0
 10
-116.6237
 20
88.1325
 30
0.0
 10
-119.155
 20
87.1262
 30
0.0
 10
-121.6127
 20
87.7992
 30
0.0
 10
-121.6127
 20
87.7992
 30
0.0
 10
-124.2667
 20
88.2345
 30
0.0
 10
-126.6721
 20
90.3157
 30
0.0
 10
-128.2329
 20
93.5269
 30
0.0
 10
-128.2329
 20
93.5269
 30
0.0
 10
-126.7826
 20
93.037
 30
0.0
 10
-125.2755
 20
93.0545
 30
0.0
 10
-123.8307
 20
93.5766
 30
0.0
  0
SPLINE
  5
A7
330
1F
100
AcDbEntity
  8
layer 1
 62
     7
370
     9
100
AcDbSpline
210
0.0
220
0.0
230
1.0
 70
    11
 71
     3
 72
    28
 73
    24
 74
     0
 42
0.0000000001
 43
0.0000000001
 12
1.0
 22
0.0
 32
0.0
 13
1.0
 23
0.0
 33
0.0
 40
0.0
 40
0.0
 40
0.0
 40
0.0
 40
0.1428571428571428
 40
0.1428571428571428
 40
0.1428571428571428
 40
0.1428571428571428
 40
0.2857142857142857
 40
0.2857142857142857
 40
0.2857142857142857
 40
0.2857142857142857
 40
0.4285714285714285
 40
0.4285714285714285
 40
0.4285714285714285
 40
0.4285714285714285
 40
0.5714285714285714
 40
0.5714285714285714
 40
0.5714285714285714
 40
0.5714285714285714
 40
0.7142857142857143
 40
0.7142857142857143
 40
0.7142857142857143
 40
0.7142857142857143
 40
1.0
 40
1.0
 40
1.0
 40
1.0
 10
-110.523
 20
109.8632
 30
0.0
 10
-112.2473
 20
109.8552
 30
0.0
 10
-113.9051
 20
108.8762
 30
0.0
 10
-115.1605
 20
107.1244
 30
0.0
 10
-115.1605
 20
107.1244
 30
0.0
 10
-114.4638
 20
107.5003
 30
0.0
 10
-113.6981
 20
107.4826
 30
0.0
 10
-113.0096
 20
107.0746
 30
0.0
 10
-113.0096
 20
107.0746
 30
0.0
 10
-114.0091
 20
105.7492
 30
0.0
 10
-114.6031
 20
103.8802
 30
0.0
 10
-114.6564
 20
101.8946
 30
0.0
 10
-114.6564
 20
101.8946
 30
0.0
 10
-116.3342
 20
102.4247
 30
0.0
 10
-118.0563
 20
102.5765
 30
0.0
 10
-119.7643
 20
102.3429
 30
0.0
 10
-119.7643
 20
102.3429
 30
0.0
 10
-120.1069
 20
104.7051
 30
0.0
 10
-119.5219
 20
107.1515
 30
0.0
 10
-118.2522
 20
108.6681
 30
0.0
 10
-118.2522
 20
108.6681
 30
0.0
 10
-115.9189
 20
110.7284
 30
0.0
 10
-113.0929
 20
111.1653
 30
0.0
 10
-110.523
 20
109.8632
 30
0.0
  0
SPLINE
  5
A8
330
1F
100
AcDbEntity
  8
layer 1
 62
     7
370
     9
100
AcDbSpline
210
0.0
220
0.0
230
1.0
 70
    11
 71
     3
 72
    40
 73
    36
 74
     0
 42
0.0000000001
 43
0.0000000001
 12
1.0
 22
0.0
 32
0.0
 13
1.0
 23
0.0
 33
0.0
 40
0.0
 40
0.0
 40
0.0
 40
0.0
 40
0.1
 40
0.1
 40
0.1
 40
0.1
 40
0.2
 40
0.2
 40
0.2
 40
0.2
 40
0.3
 40
0.3
 40
0.3
 40
0.3
 40
0.4
 40
0.4
 40
0.4
 40
0.4
 40
0.5
 40
0.5
 40
0.5
 40
0.5
 40
0.6
 40
0.6
 40
0.6
 40
0.6
 40
0.7
 40
0.7
 40
0.7
 40
0.7
 40
0.8
 40
0.8
 40
0.8
 40
0.8
 40
1.0
 40
1.0
 40
1.0
 40
1.0
 10
-99.5675
 20
91.0867
 30
0.0
 10
-100.0206
 20
97.734
 30
0.0
 10
-102.9763
 20
103.4271
 30
0.0
 10
-107.1962
 20
105.7788
 30
0.0
 10
-107.1962
 20
105.7788
 30
0.0
 10
-108.3119
 20
106.2078
 30
0.0
 10
-109.4985
 20
105.7772
 30
0.0
 10
-110.355
 20
104.6336
 30
0.0
 10
-110.355
 20
104.6336
 30
0.0
 10
-110.7664
 20
103.5244
 30
0.0
 10
-110.8748
 20
102.2223
 30
0.0
 10
-110.6575
 20
100.9982
 30
0.0
 10
-110.6575
 20
100.9982
 30
0.0
 10
-111.1122
 20
101.0971
 30
0.0
 10
-111.5763
 20
100.9566
 30
0.0
 10
-111.9679
 20
100.5998
 30
0.0
 10
-111.9679
 20
100.5998
 30
0.0
 10
-112.3727
 20
100.0192
 30
0.0
 10
-112.4298
 20
99.0876
 30
0.0
 10
-112.1024
 20
98.4079
 30
0.0
 10
-112.1024
 20
98.4079
 30
0.0
 10
-111.4683
 20
97.5284
 30
0.0
 10
-110.5108
 20
97.4055
 30
0.0
 10
-109.7835
 20
98.1092
 30
0.0
 10
-109.7835
 20
98.1092
 30
0.0
 10
-108.233
 20
95.9044
 30
0.0
 10
-106.283
 20
94.4169
 30
0.0
 10
-104.1716
 20
93.8256
 30
0.0
 10
-104.1716
 20
93.8256
 30
0.0
 10
-104.2272
 20
95.1125
 30
0.0
 10
-104.1593
 20
96.4032
 30
0.0
 10
-103.9699
 20
97.6609
 30
0.0
 10
-103.9699
 20
97.6609
 30
0.0
 10
-102.0684
 20
96.2183
 30
0.0
 10
-100.5263
 20
93.9156
 30
0.0
 10
-99.5675
 20
91.0867
 30
0.0
  0
SPLINE
  5
A9
330
1F
100
AcDbEntity
  8
layer 1
 62
     7
370
     9
100
AcDbSpline
210
0.0
220
0.0
230
1.0
 70
    11
 71
     3
 72
    48
 73
    44
 74
     0
 42
0.0000000001
 43
0.0000000001
 12
1.0
 22
0.0
 32
0.0
 13
1.0
 23
0.0
 33
0.0
 40
0.0
 40
0.0
 40
0.0
 40
0.0
 40
0.0833333333333333
 40
0.0833333333333333
 40
0.0833333333333333
 40
0.0833333333333333
 40
0.1666666666666667
 40
0.1666666666666667
 40
0.1666666666666667
 40
0.1666666666666667
 40
0.25
 40
0.25
 40
0.25
 40
0.25
 40
0.3333333333333333
 40
0.3333333333333333
 40
0.3333333333333333
 40
0.3333333333333333
 40
0.4166666666666667
 40
0.4166666666666667
 40
0.4166666666666667
 40
0.4166666666666667
 40
0.5
 40
0.5
 40
0.5
 40
0.5
 40
0.5833333333333334
 40
0.5833333333333334
 40
0.5833333333333334
 40
0.5833333333333334
 40
0.6666666666666666
 40
0.6666666666666666
 40
0.6666666666666666
 40
0.6666666666666666
 40
0.75
 40
0.75
 40
0.75
 40
0.75
 40
0.8333333333333334
 40
0.8333333333333334
 40
0.8333333333333334
 40
0.8333333333333334
 40
1.0
 40
1.0
 40
1.0
 40
1.0
 10
-104.6084
 20
87.5005
 30
0.0
 10
-105.1216
 20
88.9824
 30
0.0
 10
-105.7659
 20
90.3558
 30
0.0
 10
-106.5241
 20
91.5848
 30
0.0
 10
-106.5241
 20
91.5848
 30
0.0
 10
-106.7302
 20
90.9068
 30
0.0
 10
-107.041
 20
90.3091
 30
0.0
 10
-107.4314
 20
89.8417
 30
0.0
 10
-107.4314
 20
89.8417
 30
0.0
 10
-108.0463
 20
90.6386
 30
0.0
 10
-108.6192
 20
91.5051
 30
0.0
 10
-109.145
 20
92.4313
 30
0.0
 10
-109.145
 20
92.4313
 30
0.0
 10
-110.3898
 20
88.1013
 30
0.0
 10
-113.1399
 20
85.1351
 30
0.0
 10
-116.303
 20
84.7116
 30
0.0
 10
-116.303
 20
84.7116
 30
0.0
 10
-119.0923
 20
84.0434
 30
0.0
 10
-121.9302
 20
83.943
 30
0.0
 10
-124.738
 20
84.4129
 30
0.0
 10
-124.738
 20
84.4129
 30
0.0
 10
-123.6725
 20
83.0129
 30
0.0
 10
-122.4573
 20
81.8852
 30
0.0
 10
-121.1423
 20
81.0756
 30
0.0
 10
-121.1423
 20
81.0756
 30
0.0
 10
-120.7218
 20
81.5246
 30
0.0
 10
-120.2401
 20
81.8306
 30
0.0
 10
-119.7308
 20
81.9729
 30
0.0
 10
-119.7308
 20
81.9729
 30
0.0
 10
-117.4874
 20
82.0475
 30
0.0
 10
-115.2454
 20
81.7638
 30
0.0
 10
-113.0432
 20
81.1254
 30
0.0
 10
-113.0432
 20
81.1254
 30
0.0
 10
-112.1063
 20
80.801
 30
0.0
 10
-111.12
 20
81.0819
 30
0.0
 10
-110.3312
 20
81.8998
 30
0.0
 10
-110.3312
 20
81.8998
 30
0.0
 10
-109.5425
 20
82.7165
 30
0.0
 10
-109.0257
 20
83.9928
 30
0.0
 10
-108.9098
 20
85.409
 30
0.0
 10
-108.9098
 20
85.409
 30
0.0
 10
-107.3512
 20
85.2965
 30
0.0
 10
-105.8192
 20
86.0417
 30
0.0
 10
-104.6084
 20
87.5005
 30
0.0
  0
SPLINE
  5
AA
330
1F
100
AcDbEntity
  8
layer 1
 62
     7
370
     9
100
AcDbSpline
210
0.0
220
0.0
230
1.0
 70
    11
 71
     3
 72
    28
 73
    24
 74
     0
 42
0.0000000001
 43
0.0000000001
 12
1.0
 22
0.0
 32
0.0
 13
1.0
 23
0.0
 33
0.0
 40
0.0
 40
0.0
 40
0.0
 40
0.0
 40
0.1428571428571428
 40
0.1428571428571428
 40
0.1428571428571428
 40
0.1428571428571428
 40
0.2857142857142857
 40
0.2857142857142857
 40
0.2857142857142857
 40
0.2857142857142857
 40
0.4285714285714285
 40
0.4285714285714285
 40
0.4285714285714285
 40
0.4285714285714285
 40
0.5714285714285714
 40
0.5714285714285714
 40
0.5714285714285714
 40
0.5714285714285714
 40
0.7142857142857143
 40
0.7142857142857143
 40
0.7142857142857143
 40
0.7142857142857143
 40
1.0
 40
1.0
 40
1.0
 40
1.0
 10
-103.7012
 20
85.5085
 30
0.0
 10
-104.94
 20
82.3221
 30
0.0
 10
-107.1449
 20
80.2243
 30
0.0
 10
-109.6156
 20
79.8805
 30
0.0
 10
-109.6156
 20
79.8805
 30
0.0
 10
-109.524
 20
78.9279
 30
0.0
 10
-109.2564
 20
78.0322
 30
0.0
 10
-108.8427
 20
77.2908
 30
0.0
 10
-108.8427
 20
77.2908
 30
0.0
 10
-111.0573
 20
77.3849
 30
0.0
 10
-113.2474
 20
78.0074
 30
0.0
 10
-115.3285
 20
79.1335
 30
0.0
 10
-115.3285
 20
79.1335
 30
0.0
 10
-116.1703
 20
79.5945
 30
0.0
 10
-117.1012
 20
79.5408
 30
0.0
 10
-117.9162
 20
78.9841
 30
0.0
 10
-117.9162
 20
78.9841
 30
0.0
 10
-114.139
 20
76.7649
 30
0.0
 10
-110.2212
 20
75.1133
 30
0.0
 10
-106.2214
 20
74.0532
 30
0.0
 10
-106.2214
 20
74.0532
 30
0.0
 10
-103.9085
 20
76.7786
 30
0.0
 10
-102.9165
 20
81.2869
 30
0.0
 10
-103.7012
 20
85.5085
 30
0.0
  0
SPLINE
  5
AB
330
1F
100
AcDbEntity
  8
layer 1
 62
     7
370
     9
100
AcDbSpline
210
0.0
220
0.0
230
1.0
 70
    11
 71
     3
 72
    28
 73
    24
 74
     0
 42
0.0000000001
 43
0.0000000001
 12
1.0
 22
0.0
 32
0.0
 13
1.0
 23
0.0
 33
0.0
 40
0.0
 40
0.0
 40
0.0
 40
0.0
 40
0.1428571428571428
 40
0.1428571428571428
 40
0.1428571428571428
 40
0.1428571428571428
 40
0.2857142857142857
 40
0.2857142857142857
 40
0.2857142857142857
 40
0.2857142857142857
 40
0.4285714285714285
 40
0.4285714285714285
 40
0.4285714285714285
 40
0.4285714285714285
 40
0.5714285714285714
 40
0.5714285714285714
 40
0.5714285714285714
 40
0.5714285714285714
 40
0.7142857142857143
 40
0.7142857142857143
 40
0.7142857142857143
 40
0.7142857142857143
 40
1.0
 40
1.0
 40
1.0
 40
1.0
 10
-107.801
 20
71.8122
 30
0.0
 10
-111.6511
 20
73.6106
 30
0.0
 10
-115.5531
 20
75.1559
 30
0.0
 10
-119.4954
 20
76.4443
 30
0.0
 10
-119.4954
 20
76.4443
 30
0.0
 10
-119.0645
 20
74.5006
 30
0.0
 10
-117.9824
 20
73.0291
 30
0.0
 10
-116.6393
 20
72.5592
 30
0.0
 10
-116.6393
 20
72.5592
 30
0.0
 10
-114.9184
 20
72.1649
 30
0.0
 10
-113.264
 20
71.2853
 30
0.0
 10
-111.7663
 20
69.9698
 30
0.0
 10
-111.7663
 20
69.9698
 30
0.0
 10
-112.5266
 20
69.7255
 30
0.0
 10
-113.2883
 20
69.4926
 30
0.0
 10
-114.0515
 20
69.2717
 30
0.0
 10
-114.0515
 20
69.2717
 30
0.0
 10
-113.5398
 20
67.7859
 30
0.0
 10
-113.4785
 20
66.0476
 30
0.0
 10
-113.8836
 20
64.4911
 30
0.0
 10
-113.8836
 20
64.4911
 30
0.0
 10
-111.9163
 20
67.0389
 30
0.0
 10
-109.8873
 20
69.4814
 30
0.0
 10
-107.801
 20
71.8122
 30
0.0
  0
SPLINE
  5
AC
330
1F
100
AcDbEntity
  8
layer 1
 62
     7
370
     9
100
AcDbSpline
210
0.0
220
0.0
230
1.0
 70
    11
 71
     3
 72
    16
 73
    12
 74
     0
 42
0.0000000001
 43
0.0000000001
 12
1.0
 22
0.0
 32
0.0
 13
1.0
 23
0.0
 33
0.0
 40
0.0
 40
0.0
 40
0.0
 40
0.0
 40
0.25
 40
0.25
 40
0.25
 40
0.25
 40
0.5
 40
0.5
 40
0.5
 40
0.5
 40
1.0
 40
1.0
 40
1.0
 40
1.0
 10
-121.0079
 20
62.1995
 30
0.0
 10
-119.6746
 20
61.4798
 30
0.0
 10
-118.2583
 20
61.1577
 30
0.0
 10
-116.8407
 20
61.2533
 30
0.0
 10
-116.8407
 20
61.2533
 30
0.0
 10
-121.097
 20
57.2896
 30
0.0
 10
-124.8505
 20
52.2495
 30
0.0
 10
-127.9305
 20
46.3619
 30
0.0
 10
-127.9305
 20
46.3619
 30
0.0
 10
-126.6157
 20
52.4608
 30
0.0
 10
-124.2257
 20
57.928
 30
0.0
 10
-121.0079
 20
62.1995
 30
0.0
  0
SPLINE
  5
AD
330
1F
100
AcDbEntity
  8
layer 1
 62
     7
370
     9
100
AcDbSpline
210
0.0
220
0.0
230
1.0
 70
    11
 71
     3
 72
    36
 73
    32
 74
     0
 42
0.0000000001
 43
0.0000000001
 12
1.0
 22
0.0
 32
0.0
 13
1.0
 23
0.0
 33
0.0
 40
0.0
 40
0.0
 40
0.0
 40
0.0
 40
0.1111111111111111
 40
0.1111111111111111
 40
0.1111111111111111
 40
0.1111111111111111
 40
0.2222222222222222
 40
0.2222222222222222
 40
0.2222222222222222
 40
0.2222222222222222
 40
0.3333333333333333
 40
0.3333333333333333
 40
0.3333333333333333
 40
0.3333333333333333
 40
0.4444444444444444
 40
0.4444444444444444
 40
0.4444444444444444
 40
0.4444444444444444
 40
0.5555555555555556
 40
0.5555555555555556
 40
0.5555555555555556
 40
0.5555555555555556
 40
0.6666666666666666
 40
0.6666666666666666
 40
0.6666666666666666
 40
0.6666666666666666
 40
0.7777777777777778
 40
0.7777777777777778
 40
0.7777777777777778
 40
0.7777777777777778
 40
1.0
 40
1.0
 40
1.0
 40
1.0
 10
-88.7131
 20
81.9729
 30
0.0
 10
-87.98
 20
81.5938
 30
0.0
 10
-87.4073
 20
80.7302
 30
0.0
 10
-87.1636
 20
79.6378
 30
0.0
 10
-87.1636
 20
79.6378
 30
0.0
 10
-86.92
 20
78.5447
 30
0.0
 10
-87.0332
 20
77.3464
 30
0.0
 10
-87.4698
 20
76.3945
 30
0.0
 10
-87.4698
 20
76.3945
 30
0.0
 10
-88.4762
 20
74.2846
 30
0.0
 10
-90.0401
 20
72.9087
 30
0.0
 10
-91.7713
 20
72.6091
 30
0.0
 10
-91.7713
 20
72.6091
 30
0.0
 10
-94.5672
 20
71.8805
 30
0.0
 10
-97.4321
 20
71.965
 30
0.0
 10
-100.206
 20
72.8579
 30
0.0
 10
-100.206
 20
72.8579
 30
0.0
 10
-98.922
 20
75.1151
 30
0.0
 10
-97.505
 20
77.1986
 30
0.0
 10
-95.9718
 20
79.0836
 30
0.0
 10
-95.9718
 20
79.0836
 30
0.0
 10
-94.5153
 20
76.7399
 30
0.0
 10
-92.2787
 20
75.8483
 30
0.0
 10
-90.2255
 20
76.7929
 30
0.0
 10
-90.2255
 20
76.7929
 30
0.0
 10
-89.489
 20
77.0338
 30
0.0
 10
-88.8755
 20
77.784
 30
0.0
 10
-88.5759
 20
78.8097
 30
0.0
 10
-88.5759
 20
78.8097
 30
0.0
 10
-88.2766
 20
79.8354
 30
0.0
 10
-88.3276
 20
81.012
 30
0.0
 10
-88.7131
 20
81.9729
 30
0.0
  0
SPLINE
  5
AE
330
1F
100
AcDbEntity
  8
layer 1
 62
     7
370
     9
100
AcDbSpline
210
0.0
220
0.0
230
1.0
 70
    11
 71
     3
 72
    48
 73
    44
 74
     0
 42
0.0000000001
 43
0.0000000001
 12
1.0
 22
0.0
 32
0.0
 13
1.0
 23
0.0
 33
0.0
 40
0.0
 40
0.0
 40
0.0
 40
0.0
 40
0.0833333333333333
 40
0.0833333333333333
 40
0.0833333333333333
 40
0.0833333333333333
 40
0.1666666666666667
 40
0.1666666666666667
 40
0.1666666666666667
 40
0.1666666666666667
 40
0.25
 40
0.25
 40
0.25
 40
0.25
 40
0.3333333333333333
 40
0.3333333333333333
 40
0.3333333333333333
 40
0.3333333333333333
 40
0.4166666666666667
 40
0.4166666666666667
 40
0.4166666666666667
 40
0.4166666666666667
 40
0.5
 40
0.5
 40
0.5
 40
0.5
 40
0.5833333333333334
 40
0.5833333333333334
 40
0.5833333333333334
 40
0.5833333333333334
 40
0.6666666666666666
 40
0.6666666666666666
 40
0.6666666666666666
 40
0.6666666666666666
 40
0.75
 40
0.75
 40
0.75
 40
0.75
 40
0.8333333333333334
 40
0.8333333333333334
 40
0.8333333333333334
 40
0.8333333333333334
 40
1.0
 40
1.0
 40
1.0
 40
1.0
 10
-93.2164
 20
61.2034
 30
0.0
 10
-92.3749
 20
58.9039
 30
0.0
 10
-92.7242
 20
56.0469
 30
0.0
 10
-94.0564
 20
54.3305
 30
0.0
 10
-94.0564
 20
54.3305
 30
0.0
 10
-94.7637
 20
55.6984
 30
0.0
 10
-95.8687
 20
56.4832
 30
0.0
 10
-97.031
 20
56.4438
 30
0.0
 10
-97.031
 20
56.4438
 30
0.0
 10
-98.1932
 20
56.4044
 30
0.0
 10
-99.273
 20
55.5458
 30
0.0
 10
-99.9374
 20
54.1312
 30
0.0
 10
-99.9374
 20
54.1312
 30
0.0
 10
-104.7073
 20
55.6501
 30
0.0
 10
-109.5761
 20
56.385
 30
0.0
 10
-114.4547
 20
56.3233
 30
0.0
 10
-114.4547
 20
56.3233
 30
0.0
 10
-110.956
 20
58.5699
 30
0.0
 10
-107.098
 20
59.295
 30
0.0
 10
-103.3313
 20
58.4148
 30
0.0
 10
-103.3313
 20
58.4148
 30
0.0
 10
-103.9695
 20
59.8774
 30
0.0
 10
-104.9947
 20
60.8717
 30
0.0
 10
-106.1544
 20
61.1538
 30
0.0
 10
-106.1544
 20
61.1538
 30
0.0
 10
-103.6671
 20
61.777
 30
0.0
 10
-101.1328
 20
61.8783
 30
0.0
 10
-98.6267
 20
61.4525
 30
0.0
 10
-98.6267
 20
61.4525
 30
0.0
 10
-100.836
 20
64.5745
 30
0.0
 10
-103.9366
 20
65.895
 30
0.0
 10
-106.9272
 20
64.9891
 30
0.0
 10
-106.9272
 20
64.9891
 30
0.0
 10
-105.6675
 20
66.6821
 30
0.0
 10
-104.3312
 20
68.246
 30
0.0
 10
-102.928
 20
69.6709
 30
0.0
 10
-102.928
 20
69.6709
 30
0.0
 10
-101.631
 20
68.899
 30
0.0
 10
-100.3315
 20
68.1352
 30
0.0
 10
-99.0301
 20
67.3793
 30
0.0
 10
-99.0301
 20
67.3793
 30
0.0
 10
-96.7501
 20
66.14
 30
0.0
 10
-94.7404
 20
64.005
 30
0.0
 10
-93.2164
 20
61.2034
 30
0.0
  0
SPLINE
  5
AF
330
1F
100
AcDbEntity
  8
layer 1
 62
     7
370
     9
100
AcDbSpline
210
0.0
220
0.0
230
1.0
 70
    11
 71
     3
 72
    24
 73
    20
 74
     0
 42
0.0000000001
 43
0.0000000001
 12
1.0
 22
0.0
 32
0.0
 13
1.0
 23
0.0
 33
0.0
 40
0.0
 40
0.0
 40
0.0
 40
0.0
 40
0.1666666666666667
 40
0.1666666666666667
 40
0.1666666666666667
 40
0.1666666666666667
 40
0.3333333333333333
 40
0.3333333333333333
 40
0.3333333333333333
 40
0.3333333333333333
 40
0.5
 40
0.5
 40
0.5
 40
0.5
 40
0.6666666666666666
 40
0.6666666666666666
 40
0.6666666666666666
 40
0.6666666666666666
 40
1.0
 40
1.0
 40
1.0
 40
1.0
 10
-107.8681
 20
53.3715
 30
0.0
 10
-107.2794
 20
53.0477
 30
0.0
 10
-106.7818
 20
52.4373
 30
0.0
 10
-106.4566
 20
51.6413
 30
0.0
 10
-106.4566
 20
51.6413
 30
0.0
 10
-111.5009
 20
52.5828
 30
0.0
 10
-116.6204
 20
51.3
 30
0.0
 10
-121.1758
 20
47.9554
 30
0.0
 10
-121.1758
 20
47.9554
 30
0.0
 10
-116.7877
 20
49.2782
 30
0.0
 10
-112.29
 20
49.6141
 30
0.0
 10
-107.8346
 20
48.9515
 30
0.0
 10
-107.8346
 20
48.9515
 30
0.0
 10
-103.9398
 20
47.814
 30
0.0
 10
-99.9745
 20
47.2967
 30
0.0
 10
-96.0054
 20
47.4076
 30
0.0
 10
-96.0054
 20
47.4076
 30
0.0
 10
-99.2153
 20
51.7859
 30
0.0
 10
-103.5233
 20
53.9523
 30
0.0
 10
-107.8681
 20
53.3715
 30
0.0
  0
SPLINE
  5
B0
330
1F
100
AcDbEntity
  8
layer 1
 62
     7
370
     9
100
AcDbSpline
210
0.0
220
0.0
230
1.0
 70
    11
 71
     3
 72
    24
 73
    20
 74
     0
 42
0.0000000001
 43
0.0000000001
 12
1.0
 22
0.0
 32
0.0
 13
1.0
 23
0.0
 33
0.0
 40
0.0
 40
0.0
 40
0.0
 40
0.0
 40
0.1666666666666667
 40
0.1666666666666667
 40
0.1666666666666667
 40
0.1666666666666667
 40
0.3333333333333333
 40
0.3333333333333333
 40
0.3333333333333333
 40
0.3333333333333333
 40
0.5
 40
0.5
 40
0.5
 40
0.5
 40
0.6666666666666666
 40
0.6666666666666666
 40
0.6666666666666666
 40
0.6666666666666666
 40
1.0
 40
1.0
 40
1.0
 40
1.0
 10
-103.2643
 20
42.676
 30
0.0
 10
-106.329
 20
45.6206
 30
0.0
 10
-109.9817
 20
46.9208
 30
0.0
 10
-113.6147
 20
46.3619
 30
0.0
 10
-113.6147
 20
46.3619
 30
0.0
 10
-118.9624
 20
46.0743
 30
0.0
 10
-124.1323
 20
43.4398
 30
0.0
 10
-128.4681
 20
38.7918
 30
0.0
 10
-128.4681
 20
38.7918
 30
0.0
 10
-120.9647
 20
43.5812
 30
0.0
 10
-112.426
 20
43.2896
 30
0.0
 10
-105.0789
 20
37.9942
 30
0.0
 10
-105.0789
 20
37.9942
 30
0.0
 10
-104.23
 20
37.5049
 30
0.0
 10
-103.2672
 20
38.0085
 30
0.0
 10
-102.8133
 20
39.1788
 30
0.0
 10
-102.8133
 20
39.1788
 30
0.0
 10
-102.3596
 20
40.35
 30
0.0
 10
-102.5512
 20
41.8358
 30
0.0
 10
-103.2643
 20
42.676
 30
0.0
  0
SPLINE
  5
B1
330
1F
100
AcDbEntity
  8
layer 1
 62
     7
370
     9
100
AcDbSpline
210
0.0
220
0.0
230
1.0
 70
    11
 71
     3
 72
    52
 73
    48
 74
     0
 42
0.0000000001
 43
0.0000000001
 12
1.0
 22
0.0
 32
0.0
 13
1.0
 23
0.0
 33
0.0
 40
0.0
 40
0.0
 40
0.0
 40
0.0
 40
0.0769230769230769
 40
0.0769230769230769
 40
0.0769230769230769
 40
0.0769230769230769
 40
0.1538461538461539
 40
0.1538461538461539
 40
0.1538461538461539
 40
0.1538461538461539
 40
0.2307692307692308
 40
0.2307692307692308
 40
0.2307692307692308
 40
0.2307692307692308
 40
0.3076923076923077
 40
0.3076923076923077
 40
0.3076923076923077
 40
0.3076923076923077
 40
0.3846153846153846
 40
0.3846153846153846
 40
0.3846153846153846
 40
0.3846153846153846
 40
0.4615384615384616
 40
0.4615384615384616
 40
0.4615384615384616
 40
0.4615384615384616
 40
0.5384615384615384
 40
0.5384615384615384
 40
0.5384615384615384
 40
0.5384615384615384
 40
0.6153846153846154
 40
0.6153846153846154
 40
0.6153846153846154
 40
0.6153846153846154
 40
0.6923076923076923
 40
0.6923076923076923
 40
0.6923076923076923
 40
0.6923076923076923
 40
0.7692307692307693
 40
0.7692307692307693
 40
0.7692307692307693
 40
0.7692307692307693
 40
0.8461538461538461
 40
0.8461538461538461
 40
0.8461538461538461
 40
0.8461538461538461
 40
1.0
 40
1.0
 40
1.0
 40
1.0
 10
-105.751
 20
28.6311
 30
0.0
 10
-108.182
 20
33.7179
 30
0.0
 10
-112.2462
 20
36.5211
 30
0.0
 10
-116.4374
 20
36.0022
 30
0.0
 10
-116.4374
 20
36.0022
 30
0.0
 10
-119.5781
 20
36.3419
 30
0.0
 10
-122.7205
 20
35.3757
 30
0.0
 10
-125.5109
 20
33.2134
 30
0.0
 10
-125.5109
 20
33.2134
 30
0.0
 10
-127.781
 20
31.0818
 30
0.0
 10
-128.7792
 20
26.9317
 30
0.0
 10
-127.9305
 20
23.1524
 30
0.0
 10
-127.9305
 20
23.1524
 30
0.0
 10
-127.1798
 20
21.1404
 30
0.0
 10
-125.7931
 20
19.829
 30
0.0
 10
-124.2456
 20
19.6673
 30
0.0
 10
-124.2456
 20
19.6673
 30
0.0
 10
-122.698
 20
19.5068
 30
0.0
 10
-121.2011
 20
20.5189
 30
0.0
 10
-120.2683
 20
22.3558
 30
0.0
 10
-120.2683
 20
22.3558
 30
0.0
 10
-121.9726
 20
21.7517
 30
0.0
 10
-123.7694
 20
22.2995
 30
0.0
 10
-125.1749
 20
23.8498
 30
0.0
 10
-125.1749
 20
23.8498
 30
0.0
 10
-125.5902
 20
24.7211
 30
0.0
 10
-125.7392
 20
25.8104
 30
0.0
 10
-125.5858
 20
26.8529
 30
0.0
 10
-125.5858
 20
26.8529
 30
0.0
 10
-125.4324
 20
27.8945
 30
0.0
 10
-124.9906
 20
28.7934
 30
0.0
 10
-124.3684
 20
29.3285
 30
0.0
 10
-124.3684
 20
29.3285
 30
0.0
 10
-121.7506
 20
30.8649
 30
0.0
 10
-118.8021
 20
30.5347
 30
0.0
 10
-116.3701
 20
28.4321
 30
0.0
 10
-116.3701
 20
28.4321
 30
0.0
 10
-116.0195
 20
29.1645
 30
0.0
 10
-115.6379
 20
29.8633
 30
0.0
 10
-115.2276
 20
30.5236
 30
0.0
 10
-115.2276
 20
30.5236
 30
0.0
 10
-113.307
 20
29.5404
 30
0.0
 10
-111.4778
 20
28.2024
 30
0.0
 10
-109.7835
 20
26.5396
 30
0.0
 10
-109.7835
 20
26.5396
 30
0.0
 10
-108.843
 20
28.3702
 30
0.0
 10
-107.2565
 20
29.1926
 30
0.0
 10
-105.751
 20
28.6311
 30
0.0
  0
SPLINE
  5
B2
330
1F
100
AcDbEntity
  8
layer 1
 62
     7
370
     9
100
AcDbSpline
210
0.0
220
0.0
230
1.0
 70
    11
 71
     3
 72
    24
 73
    20
 74
     0
 42
0.0000000001
 43
0.0000000001
 12
1.0
 22
0.0
 32
0.0
 13
1.0
 23
0.0
 33
0.0
 40
0.0
 40
0.0
 40
0.0
 40
0.0
 40
0.1666666666666667
 40
0.1666666666666667
 40
0.1666666666666667
 40
0.1666666666666667
 40
0.3333333333333333
 40
0.3333333333333333
 40
0.3333333333333333
 40
0.3333333333333333
 40
0.5
 40
0.5
 40
0.5
 40
0.5
 40
0.6666666666666666
 40
0.6666666666666666
 40
0.6666666666666666
 40
0.6666666666666666
 40
1.0
 40
1.0
 40
1.0
 40
1.0
 10
-105.2133
 20
27.0376
 30
0.0
 10
-106.5545
 20
25.4497
 30
0.0
 10
-107.5389
 20
23.2963
 30
0.0
 10
-108.0362
 20
20.8617
 30
0.0
 10
-108.0362
 20
20.8617
 30
0.0
 10
-109.1091
 20
15.6192
 30
0.0
 10
-112.4059
 20
12.0763
 30
0.0
 10
-116.1016
 20
12.196
 30
0.0
 10
-116.1016
 20
12.196
 30
0.0
 10
-115.8037
 20
10.7125
 30
0.0
 10
-114.8591
 20
9.7239
 30
0.0
 10
-113.8163
 20
9.8049
 30
0.0
 10
-113.8163
 20
9.8049
 30
0.0
 10
-111.1044
 20
10.307
 30
0.0
 10
-108.6494
 20
12.4337
 30
0.0
 10
-107.0241
 20
15.69
 30
0.0
 10
-107.0241
 20
15.69
 30
0.0
 10
-105.3983
 20
18.946
 30
0.0
 10
-104.744
 20
23.0472
 30
0.0
 10
-105.2133
 20
27.0376
 30
0.0
  0
SPLINE
  5
B3
330
1F
100
AcDbEntity
  8
layer 1
 62
     7
370
     9
100
AcDbSpline
210
0.0
220
0.0
230
1.0
 70
    11
 71
     3
 72
    20
 73
    16
 74
     0
 42
0.0000000001
 43
0.0000000001
 12
1.0
 22
0.0
 32
0.0
 13
1.0
 23
0.0
 33
0.0
 40
0.0
 40
0.0
 40
0.0
 40
0.0
 40
0.2
 40
0.2
 40
0.2
 40
0.2
 40
0.4
 40
0.4
 40
0.4
 40
0.4
 40
0.6
 40
0.6
 40
0.6
 40
0.6
 40
1.0
 40
1.0
 40
1.0
 40
1.0
 10
-114.1524
 20
25.444
 30
0.0
 10
-114.4066
 20
21.1197
 30
0.0
 10
-116.1646
 20
17.3061
 30
0.0
 10
-118.7898
 20
15.3831
 30
0.0
 10
-118.7898
 20
15.3831
 30
0.0
 10
-116.1085
 20
14.5823
 30
0.0
 10
-113.3568
 20
16.1558
 30
0.0
 10
-111.7327
 20
19.4176
 30
0.0
 10
-111.7327
 20
19.4176
 30
0.0
 10
-111.3985
 20
20.6939
 30
0.0
 10
-111.4795
 20
22.1276
 30
0.0
 10
-111.9517
 20
23.3043
 30
0.0
 10
-111.9517
 20
23.3043
 30
0.0
 10
-112.4243
 20
24.4809
 30
0.0
 10
-113.2359
 20
25.2699
 30
0.0
 10
-114.1524
 20
25.444
 30
0.0
  0
SPLINE
  5
B4
330
1F
100
AcDbEntity
  8
layer 1
 62
     7
370
     9
100
AcDbSpline
210
0.0
220
0.0
230
1.0
 70
    11
 71
     3
 72
    32
 73
    28
 74
     0
 42
0.0000000001
 43
0.0000000001
 12
1.0
 22
0.0
 32
0.0
 13
1.0
 23
0.0
 33
0.0
 40
0.0
 40
0.0
 40
0.0
 40
0.0
 40
0.125
 40
0.125
 40
0.125
 40
0.125
 40
0.25
 40
0.25
 40
0.25
 40
0.25
 40
0.375
 40
0.375
 40
0.375
 40
0.375
 40
0.5
 40
0.5
 40
0.5
 40
0.5
 40
0.625
 40
0.625
 40
0.625
 40
0.625
 40
0.75
 40
0.75
 40
0.75
 40
0.75
 40
1.0
 40
1.0
 40
1.0
 40
1.0
 10
-183.0431
 20
-90.6281
 30
0.0
 10
-183.0431
 20
-90.6281
 30
0.0
 10
-183.0431
 20
-98.6176
 30
0.0
 10
-183.0431
 20
-98.6176
 30
0.0
 10
-183.0431
 20
-98.6176
 30
0.0
 10
-182.2291
 20
-98.5436
 30
0.0
 10
-181.4124
 20
-98.6623
 30
0.0
 10
-180.6232
 20
-98.9692
 30
0.0
 10
-180.6232
 20
-98.9692
 30
0.0
 10
-179.8596
 20
-99.4316
 30
0.0
 10
-179.3615
 20
-100.5354
 30
0.0
 10
-179.3654
 20
-101.7582
 30
0.0
 10
-179.3654
 20
-101.7582
 30
0.0
 10
-179.3654
 20
-101.7582
 30
0.0
 10
-174.684
 20
-101.7582
 30
0.0
 10
-174.684
 20
-101.7582
 30
0.0
 10
-174.684
 20
-101.7582
 30
0.0
 10
-174.438
 20
-101.215
 30
0.0
 10
-174.3171
 20
-100.5686
 30
0.0
 10
-174.3393
 20
-99.9154
 30
0.0
 10
-174.3393
 20
-99.9154
 30
0.0
 10
-174.4265
 20
-98.4444
 30
0.0
 10
-175.1246
 20
-97.2113
 30
0.0
 10
-176.0866
 20
-96.8274
 30
0.0
 10
-176.0866
 20
-96.8274
 30
0.0
 10
-178.7698
 20
-95.8322
 30
0.0
 10
-181.1918
 20
-93.6736
 30
0.0
 10
-183.0431
 20
-90.6281
 30
0.0
  0
SPLINE
  5
B5
330
1F
100
AcDbEntity
  8
layer 1
 62
     7
370
     9
100
AcDbSpline
210
0.0
220
0.0
230
1.0
 70
    11
 71
     3
 72
    32
 73
    28
 74
     0
 42
0.0000000001
 43
0.0000000001
 12
1.0
 22
0.0
 32
0.0
 13
1.0
 23
0.0
 33
0.0
 40
0.0
 40
0.0
 40
0.0
 40
0.0
 40
0.125
 40
0.125
 40
0.125
 40
0.125
 40
0.25
 40
0.25
 40
0.25
 40
0.25
 40
0.375
 40
0.375
 40
0.375
 40
0.375
 40
0.5
 40
0.5
 40
0.5
 40
0.5
 40
0.625
 40
0.625
 40
0.625
 40
0.625
 40
0.75
 40
0.75
 40
0.75
 40
0.75
 40
1.0
 40
1.0
 40
1.0
 40
1.0
 10
-84.647
 20
-90.6281
 30
0.0
 10
-84.647
 20
-90.6281
 30
0.0
 10
-84.647
 20
-98.6176
 30
0.0
 10
-84.647
 20
-98.6176
 30
0.0
 10
-84.647
 20
-98.6176
 30
0.0
 10
-85.461
 20
-98.5436
 30
0.0
 10
-86.2777
 20
-98.6623
 30
0.0
 10
-87.0665
 20
-98.9692
 30
0.0
 10
-87.0665
 20
-98.9692
 30
0.0
 10
-87.8304
 20
-99.4316
 30
0.0
 10
-88.3283
 20
-100.5354
 30
0.0
 10
-88.3247
 20
-101.7582
 30
0.0
 10
-88.3247
 20
-101.7582
 30
0.0
 10
-88.3247
 20
-101.7582
 30
0.0
 10
-93.0059
 20
-101.7582
 30
0.0
 10
-93.0059
 20
-101.7582
 30
0.0
 10
-93.0059
 20
-101.7582
 30
0.0
 10
-93.2517
 20
-101.215
 30
0.0
 10
-93.3726
 20
-100.5686
 30
0.0
 10
-93.3505
 20
-99.9154
 30
0.0
 10
-93.3505
 20
-99.9154
 30
0.0
 10
-93.2634
 20
-98.4444
 30
0.0
 10
-92.5653
 20
-97.2113
 30
0.0
 10
-91.6032
 20
-96.8274
 30
0.0
 10
-91.6032
 20
-96.8274
 30
0.0
 10
-88.9202
 20
-95.8322
 30
0.0
 10
-86.4981
 20
-93.6736
 30
0.0
 10
-84.647
 20
-90.6281
 30
0.0
  0
SPLINE
  5
B6
330
1F
100
AcDbEntity
  8
layer 1
 62
     7
370
     9
100
AcDbSpline
210
0.0
220
0.0
230
1.0
 70
    11
 71
     3
 72
    32
 73
    28
 74
     0
 42
0.0000000001
 43
0.0000000001
 12
1.0
 22
0.0
 32
0.0
 13
1.0
 23
0.0
 33
0.0
 40
0.0
 40
0.0
 40
0.0
 40
0.0
 40
0.125
 40
0.125
 40
0.125
 40
0.125
 40
0.25
 40
0.25
 40
0.25
 40
0.25
 40
0.375
 40
0.375
 40
0.375
 40
0.375
 40
0.5
 40
0.5
 40
0.5
 40
0.5
 40
0.625
 40
0.625
 40
0.625
 40
0.625
 40
0.75
 40
0.75
 40
0.75
 40
0.75
 40
1.0
 40
1.0
 40
1.0
 40
1.0
 10
-84.647
 20
106.4528
 30
0.0
 10
-84.647
 20
106.4528
 30
0.0
 10
-84.647
 20
114.4423
 30
0.0
 10
-84.647
 20
114.4423
 30
0.0
 10
-84.647
 20
114.4423
 30
0.0
 10
-85.461
 20
114.3685
 30
0.0
 10
-86.2777
 20
114.4874
 30
0.0
 10
-87.0665
 20
114.7941
 30
0.0
 10
-87.0665
 20
114.7941
 30
0.0
 10
-87.8304
 20
115.2567
 30
0.0
 10
-88.3283
 20
116.3596
 30
0.0
 10
-88.3247
 20
117.5829
 30
0.0
 10
-88.3247
 20
117.5829
 30
0.0
 10
-88.3247
 20
117.5829
 30
0.0
 10
-93.0059
 20
117.5829
 30
0.0
 10
-93.0059
 20
117.5829
 30
0.0
 10
-93.0059
 20
117.5829
 30
0.0
 10
-93.2517
 20
117.0399
 30
0.0
 10
-93.3726
 20
116.3933
 30
0.0
 10
-93.3505
 20
115.7403
 30
0.0
 10
-93.3505
 20
115.7403
 30
0.0
 10
-93.2634
 20
114.2688
 30
0.0
 10
-92.5653
 20
113.0359
 30
0.0
 10
-91.6032
 20
112.652
 30
0.0
 10
-91.6032
 20
112.652
 30
0.0
 10
-88.9202
 20
111.6569
 30
0.0
 10
-86.4981
 20
109.4987
 30
0.0
 10
-84.647
 20
106.4528
 30
0.0
  0
SPLINE
  5
B7
330
1F
100
AcDbEntity
  8
layer 1
 62
     7
370
     9
100
AcDbSpline
210
0.0
220
0.0
230
1.0
 70
    11
 71
     3
 72
    32
 73
    28
 74
     0
 42
0.0000000001
 43
0.0000000001
 12
1.0
 22
0.0
 32
0.0
 13
1.0
 23
0.0
 33
0.0
 40
0.0
 40
0.0
 40
0.0
 40
0.0
 40
0.125
 40
0.125
 40
0.125
 40
0.125
 40
0.25
 40
0.25
 40
0.25
 40
0.25
 40
0.375
 40
0.375
 40
0.375
 40
0.375
 40
0.5
 40
0.5
 40
0.5
 40
0.5
 40
0.625
 40
0.625
 40
0.625
 40
0.625
 40
0.75
 40
0.75
 40
0.75
 40
0.75
 40
1.0
 40
1.0
 40
1.0
 40
1.0
 10
-183.0431
 20
106.4528
 30
0.0
 10
-183.0431
 20
106.4528
 30
0.0
 10
-183.0431
 20
114.4423
 30
0.0
 10
-183.0431
 20
114.4423
 30
0.0
 10
-183.0431
 20
114.4423
 30
0.0
 10
-182.2291
 20
114.3685
 30
0.0
 10
-181.4124
 20
114.4874
 30
0.0
 10
-180.6232
 20
114.7941
 30
0.0
 10
-180.6232
 20
114.7941
 30
0.0
 10
-179.8596
 20
115.2567
 30
0.0
 10
-179.3615
 20
116.3596
 30
0.0
 10
-179.3654
 20
117.5829
 30
0.0
 10
-179.3654
 20
117.5829
 30
0.0
 10
-179.3654
 20
117.5829
 30
0.0
 10
-174.684
 20
117.5829
 30
0.0
 10
-174.684
 20
117.5829
 30
0.0
 10
-174.684
 20
117.5829
 30
0.0
 10
-174.438
 20
117.0399
 30
0.0
 10
-174.3171
 20
116.3933
 30
0.0
 10
-174.3393
 20
115.7403
 30
0.0
 10
-174.3393
 20
115.7403
 30
0.0
 10
-174.4265
 20
114.2688
 30
0.0
 10
-175.1246
 20
113.0359
 30
0.0
 10
-176.0866
 20
112.652
 30
0.0
 10
-176.0866
 20
112.652
 30
0.0
 10
-178.7698
 20
111.6569
 30
0.0
 10
-181.1918
 20
109.4987
 30
0.0
 10
-183.0431
 20
106.4528
 30
0.0
  0
ENDSEC
  0
SECTION
  2
OBJECTS
  0
DICTIONARY
  5
C
330
0
100
AcDbDictionary
281
     1
  3
ACAD_GROUP
350
D
  3
ACAD_LAYOUT
350
1A
  3
ACAD_MATERIAL
350
3B
  3
ACAD_MLEADERSTYLE
350
D9
  3
ACAD_MLINESTYLE
350
17
  3
ACAD_PLOTSETTINGS
350
19
  3
ACAD_PLOTSTYLENAME
350
E
  3
ACAD_TABLESTYLE
350
D8
  3
ACAD_VISUALSTYLE
350
2A
  0
DICTIONARY
  5
D
102
{ACAD_REACTORS
330
C
102
}
330
C
100
AcDbDictionary
281
     1
  0
DICTIONARY
  5
1A
102
{ACAD_REACTORS
330
C
102
}
330
C
100
AcDbDictionary
281
     1
  3
Layout1
350
1E
  3
Layout2
350
26
  3
Model
350
22
  0
DICTIONARY
  5
3B
102
{ACAD_REACTORS
330
C
102
}
330
C
100
AcDbDictionary
281
     1
  3
ByBlock
350
3D
  3
ByLayer
350
3C
  3
Global
350
3E
  0
DICTIONARY
  5
D9
102
{ACAD_REACTORS
330
C
102
}
330
C
100
AcDbDictionary
281
     1
  0
DICTIONARY
  5
17
102
{ACAD_REACTORS
330
C
102
}
330
C
100
AcDbDictionary
281
     1
  3
Standard
350
18
  0
DICTIONARY
  5
19
102
{ACAD_REACTORS
330
C
102
}
330
C
100
AcDbDictionary
281
     1
  0
ACDBDICTIONARYWDFLT
  5
E
102
{ACAD_REACTORS
330
C
102
}
330
C
100
AcDbDictionary
281
     1
  3
Normal
350
F
100
AcDbDictionaryWithDefault
340
F
  0
DICTIONARY
  5
D8
102
{ACAD_REACTORS
330
C
102
}
330
C
100
AcDbDictionary
281
     1
  0
DICTIONARY
  5
2A
102
{ACAD_REACTORS
330
C
102
}
330
C
100
AcDbDictionary
281
     1
  3
2dWireframe
350
2F
  3
3D Hidden
350
31
  3
3dWireframe
350
30
  3
Basic
350
32
  3
Brighten
350
36
  3
ColorChange
350
3A
  3
Conceptual
350
34
  3
Dim
350
35
  3
Facepattern
350
39
  3
Flat
350
2B
  3
FlatWithEdges
350
2C
  3
Gouraud
350
2D
  3
GouraudWithEdges
350
2E
  3
Linepattern
350
38
  3
Realistic
350
33
  3
Thicken
350
37
  0
LAYOUT
  5
1E
102
{ACAD_REACTORS
330
1A
102
}
330
1A
100
AcDbPlotSettings
  1

  2
none_device
  4

  6

 40
0.0
 41
0.0
 42
0.0
 43
0.0
 44
0.0
 45
0.0
 46
0.0
 47
0.0
 48
0.0
 49
0.0
140
0.0
141
0.0
142
1.0
143
1.0
 70
   688
 72
     0
 73
     0
 74
     5
  7

 75
    16
 76
     0
 77
     2
 78
   300
147
1.0
148
0.0
149
0.0
100
AcDbLayout
  1
Layout1
 70
     1
 71
     1
 10
0.0
 20
0.0
 11
12.0
 21
9.0
 12
0.0
 22
0.0
 32
0.0
 14
1.000000000000000E+20
 24
1.000000000000000E+20
 34
1.000000000000000E+20
 15
-1.000000000000000E+20
 25
-1.000000000000000E+20
 35
-1.000000000000000E+20
146
0.0
 13
0.0
 23
0.0
 33
0.0
 16
1.0
 26
0.0
 36
0.0
 17
0.0
 27
1.0
 37
0.0
 76
     0
330
1B
  0
LAYOUT
  5
26
102
{ACAD_REACTORS
330
1A
102
}
330
1A
100
AcDbPlotSettings
  1

  2
none_device
  4

  6

 40
0.0
 41
0.0
 42
0.0
 43
0.0
 44
0.0
 45
0.0
 46
0.0
 47
0.0
 48
0.0
 49
0.0
140
0.0
141
0.0
142
1.0
143
1.0
 70
   688
 72
     0
 73
     0
 74
     5
  7

 75
    16
 76
     0
 77
     2
 78
   300
147
1.0
148
0.0
149
0.0
100
AcDbLayout
  1
Layout2
 70
     1
 71
     2
 10
0.0
 20
0.0
 11
0.0
 21
0.0
 12
0.0
 22
0.0
 32
0.0
 14
0.0
 24
0.0
 34
0.0
 15
0.0
 25
0.0
 35
0.0
146
0.0
 13
0.0
 23
0.0
 33
0.0
 16
1.0
 26
0.0
 36
0.0
 17
0.0
 27
1.0
 37
0.0
 76
     0
330
23
  0
LAYOUT
  5
22
102
{ACAD_REACTORS
330
1A
102
}
330
1A
100
AcDbPlotSettings
  1

  2
none_device
  4

  6

 40
0.0
 41
0.0
 42
0.0
 43
0.0
 44
0.0
 45
0.0
 46
0.0
 47
0.0
 48
0.0
 49
0.0
140
0.0
141
0.0
142
1.0
143
1.0
 70
  1712
 72
     0
 73
     0
 74
     0
  7

 75
     0
 76
     0
 77
     2
 78
   300
147
1.0
148
0.0
149
0.0
100
AcDbLayout
  1
Model
 70
     1
 71
     0
 10
0.0
 20
0.0
 11
12.0
 21
9.0
 12
0.0
 22
0.0
 32
0.0
 14
-187.434
 24
-106.5349
 34
0.0
 15
-79.9747
 25
122.9474
 35
0.0
146
0.0
 13
0.0
 23
0.0
 33
0.0
 16
1.0
 26
0.0
 36
0.0
 17
0.0
 27
1.0
 37
0.0
 76
     0
330
1F
331
29
  0
MATERIAL
  5
3D
102
{ACAD_REACTORS
330
3B
102
}
330
3B
100
AcDbMaterial
  1
ByBlock
 72
     1
 94
      127
  0
MATERIAL
  5
3C
102
{ACAD_REACTORS
330
3B
102
}
330
3B
100
AcDbMaterial
  1
ByLayer
 72
     1
 94
      127
  0
MATERIAL
  5
3E
102
{ACAD_REACTORS
330
3B
102
}
330
3B
100
AcDbMaterial
  1
Global
 72
     1
 94
      127
  0
MLINESTYLE
  5
18
102
{ACAD_REACTORS
330
17
102
}
330
17
100
AcDbMlineStyle
  2
Standard
 70
     0
  3

 62
   256
 51
90.0
 52
90.0
 71
     2
 49
0.5
 62
   256
  6
BYLAYER
 49
-0.5
 62
   256
  6
BYLAYER
  0
ACDBPLACEHOLDER
  5
F
102
{ACAD_REACTORS
330
E
102
}
330
E
  0
VISUALSTYLE
  5
2F
102
{ACAD_REACTORS
330
2A
102
}
102
{ACAD_XDICTIONARY
360
C0
102
}
330
2A
100
AcDbVisualStyle
  2
2dWireframe
 70
     4
 71
     0
 72
     2
 73
     0
 90
        0
 40
-0.6
 41
-30.0
 62
     5
 63
     7
421
 16777215
 74
     1
 91
        4
 64
     7
 65
   257
 75
     1
175
     1
 42
1.0
 92
        0
 66
   257
 43
1.0
 76
     1
 77
     6
 78
     2
 67
     7
 79
     5
170
     0
171
     0
290
     0
174
     0
 93
        1
 44
0.0
173
     0
291
     0
 45
0.0
  0
VISUALSTYLE
  5
31
102
{ACAD_REACTORS
330
2A
102
}
102
{ACAD_XDICTIONARY
360
C4
102
}
330
2A
100
AcDbVisualStyle
  2
3D Hidden
 70
     6
 71
     1
 72
     2
 73
     2
 90
        0
 40
-0.6
 41
-30.0
 62
     5
 63
     7
421
 16777215
 74
     2
 91
        2
 64
     7
 65
   257
 75
     2
175
     1
 42
40.0
 92
        0
 66
   257
 43
1.0
 76
     1
 77
     6
 78
     2
 67
     7
 79
     3
170
     0
171
     0
290
     0
174
     0
 93
        1
 44
0.0
173
     0
291
     0
 45
0.0
  0
VISUALSTYLE
  5
30
102
{ACAD_REACTORS
330
2A
102
}
102
{ACAD_XDICTIONARY
360
C2
102
}
330
2A
100
AcDbVisualStyle
  2
3dWireframe
 70
     5
 71
     0
 72
     2
 73
     0
 90
        0
 40
-0.6
 41
-30.0
 62
     5
 63
     7
421
 16777215
 74
     1
 91
        4
 64
     7
 65
   257
 75
     1
175
     1
 42
1.0
 92
        0
 66
   257
 43
1.0
 76
     1
 77
     6
 78
     2
 67
     7
 79
     5
170
     0
171
     0
290
     0
174
     0
 93
        1
 44
0.0
173
     0
291
     0
 45
0.0
  0
VISUALSTYLE
  5
32
102
{ACAD_REACTORS
330
2A
102
}
102
{ACAD_XDICTIONARY
360
C6
102
}
330
2A
100
AcDbVisualStyle
  2
Basic
 70
     7
 71
     1
 72
     0
 73
     1
 90
        0
 40
-0.6
 41
-30.0
 62
     5
 63
     7
421
 16777215
 74
     0
 91
        4
 64
     7
 65
   257
 75
     1
175
     1
 42
1.0
 92
        8
 66
     7
 43
1.0
 76
     1
 77
     6
 78
     2
 67
     7
 79
     5
170
     0
171
     0
290
     0
174
     0
 93
        1
 44
0.0
173
     0
291
     1
 45
0.0
  0
VISUALSTYLE
  5
36
102
{ACAD_REACTORS
330
2A
102
}
102
{ACAD_XDICTIONARY
360
CE
102
}
330
2A
100
AcDbVisualStyle
  2
Brighten
 70
    12
 71
     2
 72
     2
 73
     0
 90
        0
 40
-0.6
 41
-30.0
 62
     5
 63
     7
421
 16777215
 74
     1
 91
        4
 64
     7
 65
   257
 75
     1
175
     1
 42
1.0
 92
        8
 66
     7
 43
1.0
 76
     1
 77
     6
 78
     2
 67
     7
 79
     5
170
     0
171
     0
290
     0
174
     0
 93
        1
 44
50.0
173
     0
291
     1
 45
0.0
  0
VISUALSTYLE
  5
3A
102
{ACAD_REACTORS
330
2A
102
}
102
{ACAD_XDICTIONARY
360
D6
102
}
330
2A
100
AcDbVisualStyle
  2
ColorChange
 70
    16
 71
     2
 72
     2
 73
     3
 90
        0
 40
-0.6
 41
-30.0
 62
     5
 63
     8
421
  8421504
 74
     1
 91
        4
 64
     7
 65
   257
 75
     1
175
     1
 42
1.0
 92
        8
 66
     8
424
  8421504
 43
1.0
 76
     1
 77
     6
 78
     2
 67
     7
 79
     5
170
     0
171
     0
290
     0
174
     0
 93
        1
 44
0.0
173
     0
291
     1
 45
0.0
  0
VISUALSTYLE
  5
34
102
{ACAD_REACTORS
330
2A
102
}
102
{ACAD_XDICTIONARY
360
CA
102
}
330
2A
100
AcDbVisualStyle
  2
Conceptual
 70
     9
 71
     3
 72
     2
 73
     0
 90
        0
 40
-0.6
 41
-30.0
 62
     5
 63
     7
421
 16777215
 74
     2
 91
        2
 64
     7
 65
   257
 75
     1
175
     1
 42
40.0
 92
        8
 66
     7
 43
1.0
 76
     1
 77
     6
 78
     2
 67
     7
 79
     3
170
     0
171
     0
290
     0
174
     0
 93
        1
 44
0.0
173
     0
291
     0
 45
0.0
  0
VISUALSTYLE
  5
35
102
{ACAD_REACTORS
330
2A
102
}
102
{ACAD_XDICTIONARY
360
CC
102
}
330
2A
100
AcDbVisualStyle
  2
Dim
 70
    11
 71
     2
 72
     2
 73
     0
 90
        0
 40
-0.6
 41
-30.0
 62
     5
 63
     7
421
 16777215
 74
     1
 91
        4
 64
     7
 65
   257
 75
     1
175
     1
 42
1.0
 92
        8
 66
     7
 43
1.0
 76
     1
 77
     6
 78
     2
 67
     7
 79
     5
170
     0
171
     0
290
     0
174
     0
 93
        1
 44
-50.0
173
     0
291
     1
 45
0.0
  0
VISUALSTYLE
  5
39
102
{ACAD_REACTORS
330
2A
102
}
102
{ACAD_XDICTIONARY
360
D4
102
}
330
2A
100
AcDbVisualStyle
  2
Facepattern
 70
    15
 71
     2
 72
     2
 73
     0
 90
        0
 40
-0.6
 41
-30.0
 62
     5
 63
     7
421
 16777215
 74
     1
 91
        4
 64
     7
 65
   257
 75
     1
175
     1
 42
1.0
 92
        8
 66
     7
 43
1.0
 76
     1
 77
     6
 78
     2
 67
     7
 79
     5
170
     0
171
     0
290
     0
174
     0
 93
        1
 44
0.0
173
     0
291
     1
 45
0.0
  0
VISUALSTYLE
  5
2B
102
{ACAD_REACTORS
330
2A
102
}
102
{ACAD_XDICTIONARY
360
B8
102
}
330
2A
100
AcDbVisualStyle
  2
Flat
 70
     0
 71
     2
 72
     1
 73
     1
 90
        2
 40
-0.6
 41
30.0
 62
     5
 63
     7
421
 16777215
 74
     0
 91
        4
 64
     7
 65
   257
 75
     1
175
     1
 42
1.0
 92
        8
 66
     7
 43
1.0
 76
     1
 77
     6
 78
     2
 67
     7
 79
     5
170
     0
171
     0
290
     0
174
     0
 93
       13
 44
0.0
173
     0
291
     1
 45
0.0
  0
VISUALSTYLE
  5
2C
102
{ACAD_REACTORS
330
2A
102
}
102
{ACAD_XDICTIONARY
360
BA
102
}
330
2A
100
AcDbVisualStyle
  2
FlatWithEdges
 70
     1
 71
     2
 72
     1
 73
     1
 90
        2
 40
-0.6
 41
30.0
 62
     5
 63
     7
421
 16777215
 74
     1
 91
        4
 64
     7
 65
   257
 75
     1
175
     1
 42
1.0
 92
        0
 66
   257
 43
1.0
 76
     1
 77
     6
 78
     2
 67
     7
 79
     5
170
     0
171
     0
290
     0
174
     0
 93
       13
 44
0.0
173
     0
291
     1
 45
0.0
  0
VISUALSTYLE
  5
2D
102
{ACAD_REACTORS
330
2A
102
}
102
{ACAD_XDICTIONARY
360
BC
102
}
330
2A
100
AcDbVisualStyle
  2
Gouraud
 70
     2
 71
     2
 72
     2
 73
     1
 90
        2
 40
-0.6
 41
30.0
 62
     5
 63
     7
421
 16777215
 74
     0
 91
        4
 64
     7
 65
   257
 75
     1
175
     1
 42
1.0
 92
        0
 66
     7
 43
1.0
 76
     1
 77
     6
 78
     2
 67
     7
 79
     5
170
     0
171
     0
290
     0
174
     0
 93
       13
 44
0.0
173
     0
291
     1
 45
0.0
  0
VISUALSTYLE
  5
2E
102
{ACAD_REACTORS
330
2A
102
}
102
{ACAD_XDICTIONARY
360
BE
102
}
330
2A
100
AcDbVisualStyle
  2
GouraudWithEdges
 70
     3
 71
     2
 72
     2
 73
     1
 90
        2
 40
-0.6
 41
30.0
 62
     5
 63
     7
421
 16777215
 74
     1
 91
        4
 64
     7
 65
   257
 75
     1
175
     1
 42
1.0
 92
        0
 66
   257
 43
1.0
 76
     1
 77
     6
 78
     2
 67
     7
 79
     5
170
     0
171
     0
290
     0
174
     0
 93
       13
 44
0.0
173
     0
291
     1
 45
0.0
  0
VISUALSTYLE
  5
38
102
{ACAD_REACTORS
330
2A
102
}
102
{ACAD_XDICTIONARY
360
D2
102
}
330
2A
100
AcDbVisualStyle
  2
Linepattern
 70
    14
 71
     2
 72
     2
 73
     0
 90
        0
 40
-0.6
 41
-30.0
 62
     5
 63
     7
421
 16777215
 74
     1
 91
        4
 64
     7
 65
   257
 75
     7
175
     7
 42
1.0
 92
        8
 66
     7
 43
1.0
 76
     1
 77
     6
 78
     2
 67
     7
 79
     5
170
     0
171
     0
290
     0
174
     0
 93
        1
 44
0.0
173
     0
291
     1
 45
0.0
  0
VISUALSTYLE
  5
33
102
{ACAD_REACTORS
330
2A
102
}
102
{ACAD_XDICTIONARY
360
C8
102
}
330
2A
100
AcDbVisualStyle
  2
Realistic
 70
     8
 71
     2
 72
     2
 73
     0
 90
        0
 40
-0.6
 41
-30.0
 62
     5
 63
     7
421
 16777215
 74
     1
 91
        0
 64
     7
 65
   257
 75
     1
175
     1
 42
1.0
 92
        8
 66
     8
424
  7895160
 43
1.0
 76
     1
 77
     6
 78
     2
 67
     7
 79
     5
170
     0
171
     0
290
     0
174
     0
 93
       13
 44
0.0
173
     0
291
     0
 45
0.0
  0
VISUALSTYLE
  5
37
102
{ACAD_REACTORS
330
2A
102
}
102
{ACAD_XDICTIONARY
360
D0
102
}
330
2A
100
AcDbVisualStyle
  2
Thicken
 70
    13
 71
     2
 72
     2
 73
     0
 90
        0
 40
-0.6
 41
-30.0
 62
     5
 63
     7
421
 16777215
 74
     1
 91
        4
 64
     7
 65
   257
 75
     1
175
     1
 42
1.0
 92
       12
 66
     7
 43
1.0
 76
     1
 77
     6
 78
     2
 67
     7
 79
     5
170
     0
171
     0
290
     0
174
     0
 93
        1
 44
0.0
173
     0
291
     1
 45
0.0
  0
DICTIONARY
  5
C0
330
2F
100
AcDbDictionary
280
     1
281
     1
  3
ACAD_XREC_ROUNDTRIP
360
C1
  0
DICTIONARY
  5
C4
330
31
100
AcDbDictionary
280
     1
281
     1
  3
ACAD_XREC_ROUNDTRIP
360
C5
  0
DICTIONARY
  5
C2
330
30
100
AcDbDictionary
280
     1
281
     1
  3
ACAD_XREC_ROUNDTRIP
360
C3
  0
DICTIONARY
  5
C6
330
32
100
AcDbDictionary
280
     1
281
     1
  3
ACAD_XREC_ROUNDTRIP
360
C7
  0
DICTIONARY
  5
CE
330
36
100
AcDbDictionary
280
     1
281
     1
  3
ACAD_XREC_ROUNDTRIP
360
CF
  0
DICTIONARY
  5
D6
330
3A
100
AcDbDictionary
280
     1
281
     1
  3
ACAD_XREC_ROUNDTRIP
360
D7
  0
DICTIONARY
  5
CA
330
34
100
AcDbDictionary
280
     1
281
     1
  3
ACAD_XREC_ROUNDTRIP
360
CB
  0
DICTIONARY
  5
CC
330
35
100
AcDbDictionary
280
     1
281
     1
  3
ACAD_XREC_ROUNDTRIP
360
CD
  0
DICTIONARY
  5
D4
330
39
100
AcDbDictionary
280
     1
281
     1
  3
ACAD_XREC_ROUNDTRIP
360
D5
  0
DICTIONARY
  5
B8
330
2B
100
AcDbDictionary
280
     1
281
     1
  3
ACAD_XREC_ROUNDTRIP
360
B9
  0
DICTIONARY
  5
BA
330
2C
100
AcDbDictionary
280
     1
281
     1
  3
ACAD_XREC_ROUNDTRIP
360
BB
  0
DICTIONARY
  5
BC
330
2D
100
AcDbDictionary
280
     1
281
     1
  3
ACAD_XREC_ROUNDTRIP
360
BD
  0
DICTIONARY
  5
BE
330
2E
100
AcDbDictionary
280
     1
281
     1
  3
ACAD_XREC_ROUNDTRIP
360
BF
  0
DICTIONARY
  5
D2
330
38
100
AcDbDictionary
280
     1
281
     1
  3
ACAD_XREC_ROUNDTRIP
360
D3
  0
DICTIONARY
  5
C8
330
33
100
AcDbDictionary
280
     1
281
     1
  3
ACAD_XREC_ROUNDTRIP
360
C9
  0
DICTIONARY
  5
D0
330
37
100
AcDbDictionary
280
     1
281
     1
  3
ACAD_XREC_ROUNDTRIP
360
D1
  0
XRECORD
  5
C1
102
{ACAD_REACTORS
330
C0
102
}
330
C0
100
AcDbXrecord
280
     1
102
RTVSPropertyOp0
 70
     1
102
RTVSPropertyOp1
 70
     1
102
RTVSPropertyOp2
 70
     1
102
RTVSPropertyOp3
 70
     1
102
RTVSPropertyOp4
 70
     1
102
RTVSPropertyOp5
 70
     1
102
RTVSPropertyOp6
 70
     1
102
RTVSPropertyOp7
 70
     1
102
RTVSPropertyOp8
 70
     1
102
RTVSPropertyOp9
 70
     1
102
RTVSPropertyOp10
 70
     1
102
RTVSPropertyOp11
 70
     1
102
RTVSPropertyOp12
 70
     1
102
RTVSPropertyOp13
 70
     1
102
RTVSPropertyOp14
 70
     1
102
RTVSPropertyOp15
 70
     1
102
RTVSPropertyOp16
 70
     1
102
RTVSPropertyOp17
 70
     1
102
RTVSPropertyOp18
 70
     1
102
RTVSPropertyOp19
 70
     1
102
RTVSPropertyOp20
 70
     1
102
RTVSPropertyOp21
 70
     1
102
RTVSPropertyOp22
 70
     1
102
RTVSPropertyOp23
 70
     1
102
RTVSPropertyOp24
 70
     1
102
RTVSPropertyOp25
 70
     1
102
RTVSPropertyOp26
 70
     1
102
RTVSPropertyOp27
 70
     1
102
RTVSPropertyOp28
 70
     1
102
RTVSPropertyOp29
 70
     1
102
RTVSPropertyOp30
 70
     1
102
RTVSPropertyOp31
 70
     1
102
RTVSPropertyOp32
 70
     1
  0
XRECORD
  5
C5
102
{ACAD_REACTORS
330
C4
102
}
330
C4
100
AcDbXrecord
280
     1
102
RTVSPropertyOp0
 70
     1
102
RTVSPropertyOp1
 70
     1
102
RTVSPropertyOp2
 70
     1
102
RTVSPropertyOp3
 70
     1
102
RTVSPropertyOp4
 70
     1
102
RTVSPropertyOp5
 70
     1
102
RTVSPropertyOp6
 70
     1
102
RTVSPropertyOp7
 70
     1
102
RTVSPropertyOp8
 70
     1
102
RTVSPropertyOp9
 70
     1
102
RTVSPropertyOp10
 70
     1
102
RTVSPropertyOp11
 70
     1
102
RTVSPropertyOp12
 70
     1
102
RTVSPropertyOp13
 70
     1
102
RTVSPropertyOp14
 70
     1
102
RTVSPropertyOp15
 70
     1
102
RTVSPropertyOp16
 70
     1
102
RTVSPropertyOp17
 70
     1
102
RTVSPropertyOp18
 70
     1
102
RTVSPropertyOp19
 70
     1
102
RTVSPropertyOp20
 70
     1
102
RTVSPropertyOp21
 70
     1
102
RTVSPropertyOp22
 70
     1
102
RTVSPropertyOp23
 70
     1
102
RTVSPropertyOp24
 70
     1
102
RTVSPropertyOp25
 70
     1
102
RTVSPropertyOp26
 70
     1
102
RTVSPropertyOp27
 70
     1
102
RTVSPropertyOp28
 70
     1
102
RTVSPropertyOp29
 70
     1
102
RTVSPropertyOp30
 70
     1
102
RTVSPropertyOp31
 70
     1
102
RTVSPropertyOp32
 70
     1
  0
XRECORD
  5
C3
102
{ACAD_REACTORS
330
C2
102
}
330
C2
100
AcDbXrecord
280
     1
102
RTVSPropertyOp0
 70
     1
102
RTVSPropertyOp1
 70
     1
102
RTVSPropertyOp2
 70
     1
102
RTVSPropertyOp3
 70
     1
102
RTVSPropertyOp4
 70
     1
102
RTVSPropertyOp5
 70
     1
102
RTVSPropertyOp6
 70
     1
102
RTVSPropertyOp7
 70
     1
102
RTVSPropertyOp8
 70
     1
102
RTVSPropertyOp9
 70
     1
102
RTVSPropertyOp10
 70
     1
102
RTVSPropertyOp11
 70
     1
102
RTVSPropertyOp12
 70
     1
102
RTVSPropertyOp13
 70
     1
102
RTVSPropertyOp14
 70
     1
102
RTVSPropertyOp15
 70
     1
102
RTVSPropertyOp16
 70
     1
102
RTVSPropertyOp17
 70
     1
102
RTVSPropertyOp18
 70
     1
102
RTVSPropertyOp19
 70
     1
102
RTVSPropertyOp20
 70
     1
102
RTVSPropertyOp21
 70
     1
102
RTVSPropertyOp22
 70
     1
102
RTVSPropertyOp23
 70
     1
102
RTVSPropertyOp24
 70
     1
102
RTVSPropertyOp25
 70
     1
102
RTVSPropertyOp26
 70
     1
102
RTVSPropertyOp27
 70
     1
102
RTVSPropertyOp28
 70
     1
102
RTVSPropertyOp29
 70
     1
102
RTVSPropertyOp30
 70
     1
102
RTVSPropertyOp31
 70
     1
102
RTVSPropertyOp32
 70
     1
  0
XRECORD
  5
C7
102
{ACAD_REACTORS
330
C6
102
}
330
C6
100
AcDbXrecord
280
     1
102
RTVSPropertyOp0
 70
     1
102
RTVSPropertyOp1
 70
     1
102
RTVSPropertyOp2
 70
     1
102
RTVSPropertyOp3
 70
     1
102
RTVSPropertyOp4
 70
     1
102
RTVSPropertyOp5
 70
     1
102
RTVSPropertyOp6
 70
     1
102
RTVSPropertyOp7
 70
     1
102
RTVSPropertyOp8
 70
     1
102
RTVSPropertyOp9
 70
     1
102
RTVSPropertyOp10
 70
     1
102
RTVSPropertyOp11
 70
     1
102
RTVSPropertyOp12
 70
     1
102
RTVSPropertyOp13
 70
     1
102
RTVSPropertyOp14
 70
     1
102
RTVSPropertyOp15
 70
     1
102
RTVSPropertyOp16
 70
     1
102
RTVSPropertyOp17
 70
     1
102
RTVSPropertyOp18
 70
     1
102
RTVSPropertyOp19
 70
     1
102
RTVSPropertyOp20
 70
     1
102
RTVSPropertyOp21
 70
     1
102
RTVSPropertyOp22
 70
     1
102
RTVSPropertyOp23
 70
     1
102
RTVSPropertyOp24
 70
     1
102
RTVSPropertyOp25
 70
     1
102
RTVSPropertyOp26
 70
     1
102
RTVSPropertyOp27
 70
     1
102
RTVSPropertyOp28
 70
     1
102
RTVSPropertyOp29
 70
     1
102
RTVSPropertyOp30
 70
     1
102
RTVSPropertyOp31
 70
     1
102
RTVSPropertyOp32
 70
     1
  0
XRECORD
  5
CF
102
{ACAD_REACTORS
330
CE
102
}
330
CE
100
AcDbXrecord
280
     1
102
RTVSPropertyOp0
 70
     1
102
RTVSPropertyOp1
 70
     1
102
RTVSPropertyOp2
 70
     1
102
RTVSPropertyOp3
 70
     1
102
RTVSPropertyOp4
 70
     1
102
RTVSPropertyOp5
 70
     1
102
RTVSPropertyOp6
 70
     1
102
RTVSPropertyOp7
 70
     1
102
RTVSPropertyOp8
 70
     1
102
RTVSPropertyOp9
 70
     1
102
RTVSPropertyOp10
 70
     1
102
RTVSPropertyOp11
 70
     1
102
RTVSPropertyOp12
 70
     1
102
RTVSPropertyOp13
 70
     1
102
RTVSPropertyOp14
 70
     1
102
RTVSPropertyOp15
 70
     1
102
RTVSPropertyOp16
 70
     1
102
RTVSPropertyOp17
 70
     1
102
RTVSPropertyOp18
 70
     1
102
RTVSPropertyOp19
 70
     1
102
RTVSPropertyOp20
 70
     1
102
RTVSPropertyOp21
 70
     1
102
RTVSPropertyOp22
 70
     1
102
RTVSPropertyOp23
 70
     1
102
RTVSPropertyOp24
 70
     1
102
RTVSPropertyOp25
 70
     1
102
RTVSPropertyOp26
 70
     1
102
RTVSPropertyOp27
 70
     1
102
RTVSPropertyOp28
 70
     1
102
RTVSPropertyOp29
 70
     1
102
RTVSPropertyOp30
 70
     1
102
RTVSPropertyOp31
 70
     1
102
RTVSPropertyOp32
 70
     1
  0
XRECORD
  5
D7
102
{ACAD_REACTORS
330
D6
102
}
330
D6
100
AcDbXrecord
280
     1
102
RTVSPropertyOp0
 70
     1
102
RTVSPropertyOp1
 70
     1
102
RTVSPropertyOp2
 70
     1
102
RTVSPropertyOp3
 70
     1
102
RTVSPropertyOp4
 70
     1
102
RTVSPropertyOp5
 70
     1
102
RTVSPropertyOp6
 70
     1
102
RTVSPropertyOp7
 70
     1
102
RTVSPropertyOp8
 70
     1
102
RTVSPropertyOp9
 70
     1
102
RTVSPropertyOp10
 70
     1
102
RTVSPropertyOp11
 70
     1
102
RTVSPropertyOp12
 70
     1
102
RTVSPropertyOp13
 70
     1
102
RTVSPropertyOp14
 70
     1
102
RTVSPropertyOp15
 70
     1
102
RTVSPropertyOp16
 70
     1
102
RTVSPropertyOp17
 70
     1
102
RTVSPropertyOp18
 70
     1
102
RTVSPropertyOp19
 70
     1
102
RTVSPropertyOp20
 70
     1
102
RTVSPropertyOp21
 70
     1
102
RTVSPropertyOp22
 70
     1
102
RTVSPropertyOp23
 70
     1
102
RTVSPropertyOp24
 70
     1
102
RTVSPropertyOp25
 70
     1
102
RTVSPropertyOp26
 70
     1
102
RTVSPropertyOp27
 70
     1
102
RTVSPropertyOp28
 70
     1
102
RTVSPropertyOp29
 70
     1
102
RTVSPropertyOp30
 70
     1
102
RTVSPropertyOp31
 70
     1
102
RTVSPropertyOp32
 70
     1
  0
XRECORD
  5
CB
102
{ACAD_REACTORS
330
CA
102
}
330
CA
100
AcDbXrecord
280
     1
102
RTVSPropertyOp0
 70
     1
102
RTVSPropertyOp1
 70
     1
102
RTVSPropertyOp2
 70
     1
102
RTVSPropertyOp3
 70
     1
102
RTVSPropertyOp4
 70
     1
102
RTVSPropertyOp5
 70
     1
102
RTVSPropertyOp6
 70
     1
102
RTVSPropertyOp7
 70
     1
102
RTVSPropertyOp8
 70
     1
102
RTVSPropertyOp9
 70
     1
102
RTVSPropertyOp10
 70
     1
102
RTVSPropertyOp11
 70
     1
102
RTVSPropertyOp12
 70
     1
102
RTVSPropertyOp13
 70
     1
102
RTVSPropertyOp14
 70
     1
102
RTVSPropertyOp15
 70
     1
102
RTVSPropertyOp16
 70
     1
102
RTVSPropertyOp17
 70
     1
102
RTVSPropertyOp18
 70
     1
102
RTVSPropertyOp19
 70
     1
102
RTVSPropertyOp20
 70
     1
102
RTVSPropertyOp21
 70
     1
102
RTVSPropertyOp22
 70
     1
102
RTVSPropertyOp23
 70
     1
102
RTVSPropertyOp24
 70
     1
102
RTVSPropertyOp25
 70
     1
102
RTVSPropertyOp26
 70
     1
102
RTVSPropertyOp27
 70
     1
102
RTVSPropertyOp28
 70
     1
102
RTVSPropertyOp29
 70
     1
102
RTVSPropertyOp30
 70
     1
102
RTVSPropertyOp31
 70
     1
102
RTVSPropertyOp32
 70
     1
  0
XRECORD
  5
CD
102
{ACAD_REACTORS
330
CC
102
}
330
CC
100
AcDbXrecord
280
     1
102
RTVSPropertyOp0
 70
     1
102
RTVSPropertyOp1
 70
     1
102
RTVSPropertyOp2
 70
     1
102
RTVSPropertyOp3
 70
     1
102
RTVSPropertyOp4
 70
     1
102
RTVSPropertyOp5
 70
     1
102
RTVSPropertyOp6
 70
     1
102
RTVSPropertyOp7
 70
     1
102
RTVSPropertyOp8
 70
     1
102
RTVSPropertyOp9
 70
     1
102
RTVSPropertyOp10
 70
     1
102
RTVSPropertyOp11
 70
     1
102
RTVSPropertyOp12
 70
     1
102
RTVSPropertyOp13
 70
     1
102
RTVSPropertyOp14
 70
     1
102
RTVSPropertyOp15
 70
     1
102
RTVSPropertyOp16
 70
     1
102
RTVSPropertyOp17
 70
     1
102
RTVSPropertyOp18
 70
     1
102
RTVSPropertyOp19
 70
     1
102
RTVSPropertyOp20
 70
     1
102
RTVSPropertyOp21
 70
     1
102
RTVSPropertyOp22
 70
     1
102
RTVSPropertyOp23
 70
     1
102
RTVSPropertyOp24
 70
     1
102
RTVSPropertyOp25
 70
     1
102
RTVSPropertyOp26
 70
     1
102
RTVSPropertyOp27
 70
     1
102
RTVSPropertyOp28
 70
     1
102
RTVSPropertyOp29
 70
     1
102
RTVSPropertyOp30
 70
     1
102
RTVSPropertyOp31
 70
     1
102
RTVSPropertyOp32
 70
     1
  0
XRECORD
  5
D5
102
{ACAD_REACTORS
330
D4
102
}
330
D4
100
AcDbXrecord
280
     1
102
RTVSPropertyOp0
 70
     1
102
RTVSPropertyOp1
 70
     1
102
RTVSPropertyOp2
 70
     1
102
RTVSPropertyOp3
 70
     1
102
RTVSPropertyOp4
 70
     1
102
RTVSPropertyOp5
 70
     1
102
RTVSPropertyOp6
 70
     1
102
RTVSPropertyOp7
 70
     1
102
RTVSPropertyOp8
 70
     1
102
RTVSPropertyOp9
 70
     1
102
RTVSPropertyOp10
 70
     1
102
RTVSPropertyOp11
 70
     1
102
RTVSPropertyOp12
 70
     1
102
RTVSPropertyOp13
 70
     1
102
RTVSPropertyOp14
 70
     1
102
RTVSPropertyOp15
 70
     1
102
RTVSPropertyOp16
 70
     1
102
RTVSPropertyOp17
 70
     1
102
RTVSPropertyOp18
 70
     1
102
RTVSPropertyOp19
 70
     1
102
RTVSPropertyOp20
 70
     1
102
RTVSPropertyOp21
 70
     1
102
RTVSPropertyOp22
 70
     1
102
RTVSPropertyOp23
 70
     1
102
RTVSPropertyOp24
 70
     1
102
RTVSPropertyOp25
 70
     1
102
RTVSPropertyOp26
 70
     1
102
RTVSPropertyOp27
 70
     1
102
RTVSPropertyOp28
 70
     1
102
RTVSPropertyOp29
 70
     1
102
RTVSPropertyOp30
 70
     1
102
RTVSPropertyOp31
 70
     1
102
RTVSPropertyOp32
 70
     1
  0
XRECORD
  5
B9
102
{ACAD_REACTORS
330
B8
102
}
330
B8
100
AcDbXrecord
280
     1
102
RTVSPropertyOp0
 70
     1
102
RTVSPropertyOp1
 70
     1
102
RTVSPropertyOp2
 70
     1
102
RTVSPropertyOp3
 70
     1
102
RTVSPropertyOp4
 70
     1
102
RTVSPropertyOp5
 70
     1
102
RTVSPropertyOp6
 70
     1
102
RTVSPropertyOp7
 70
     1
102
RTVSPropertyOp8
 70
     1
102
RTVSPropertyOp9
 70
     1
102
RTVSPropertyOp10
 70
     1
102
RTVSPropertyOp11
 70
     1
102
RTVSPropertyOp12
 70
     1
102
RTVSPropertyOp13
 70
     1
102
RTVSPropertyOp14
 70
     1
102
RTVSPropertyOp15
 70
     1
102
RTVSPropertyOp16
 70
     1
102
RTVSPropertyOp17
 70
     1
102
RTVSPropertyOp18
 70
     1
102
RTVSPropertyOp19
 70
     1
102
RTVSPropertyOp20
 70
     1
102
RTVSPropertyOp21
 70
     1
102
RTVSPropertyOp22
 70
     1
102
RTVSPropertyOp23
 70
     1
102
RTVSPropertyOp24
 70
     1
102
RTVSPropertyOp25
 70
     1
102
RTVSPropertyOp26
 70
     1
102
RTVSPropertyOp27
 70
     1
102
RTVSPropertyOp28
 70
     1
102
RTVSPropertyOp29
 70
     1
102
RTVSPropertyOp30
 70
     1
102
RTVSPropertyOp31
 70
     1
102
RTVSPropertyOp32
 70
     1
  0
XRECORD
  5
BB
102
{ACAD_REACTORS
330
BA
102
}
330
BA
100
AcDbXrecord
280
     1
102
RTVSPropertyOp0
 70
     1
102
RTVSPropertyOp1
 70
     1
102
RTVSPropertyOp2
 70
     1
102
RTVSPropertyOp3
 70
     1
102
RTVSPropertyOp4
 70
     1
102
RTVSPropertyOp5
 70
     1
102
RTVSPropertyOp6
 70
     1
102
RTVSPropertyOp7
 70
     1
102
RTVSPropertyOp8
 70
     1
102
RTVSPropertyOp9
 70
     1
102
RTVSPropertyOp10
 70
     1
102
RTVSPropertyOp11
 70
     1
102
RTVSPropertyOp12
 70
     1
102
RTVSPropertyOp13
 70
     1
102
RTVSPropertyOp14
 70
     1
102
RTVSPropertyOp15
 70
     1
102
RTVSPropertyOp16
 70
     1
102
RTVSPropertyOp17
 70
     1
102
RTVSPropertyOp18
 70
     1
102
RTVSPropertyOp19
 70
     1
102
RTVSPropertyOp20
 70
     1
102
RTVSPropertyOp21
 70
     1
102
RTVSPropertyOp22
 70
     1
102
RTVSPropertyOp23
 70
     1
102
RTVSPropertyOp24
 70
     1
102
RTVSPropertyOp25
 70
     1
102
RTVSPropertyOp26
 70
     1
102
RTVSPropertyOp27
 70
     1
102
RTVSPropertyOp28
 70
     1
102
RTVSPropertyOp29
 70
     1
102
RTVSPropertyOp30
 70
     1
102
RTVSPropertyOp31
 70
     1
102
RTVSPropertyOp32
 70
     1
  0
XRECORD
  5
BD
102
{ACAD_REACTORS
330
BC
102
}
330
BC
100
AcDbXrecord
280
     1
102
RTVSPropertyOp0
 70
     1
102
RTVSPropertyOp1
 70
     1
102
RTVSPropertyOp2
 70
     1
102
RTVSPropertyOp3
 70
     1
102
RTVSPropertyOp4
 70
     1
102
RTVSPropertyOp5
 70
     1
102
RTVSPropertyOp6
 70
     1
102
RTVSPropertyOp7
 70
     1
102
RTVSPropertyOp8
 70
     1
102
RTVSPropertyOp9
 70
     1
102
RTVSPropertyOp10
 70
     1
102
RTVSPropertyOp11
 70
     1
102
RTVSPropertyOp12
 70
     1
102
RTVSPropertyOp13
 70
     1
102
RTVSPropertyOp14
 70
     1
102
RTVSPropertyOp15
 70
     1
102
RTVSPropertyOp16
 70
     1
102
RTVSPropertyOp17
 70
     1
102
RTVSPropertyOp18
 70
     1
102
RTVSPropertyOp19
 70
     1
102
RTVSPropertyOp20
 70
     1
102
RTVSPropertyOp21
 70
     1
102
RTVSPropertyOp22
 70
     1
102
RTVSPropertyOp23
 70
     1
102
RTVSPropertyOp24
 70
     1
102
RTVSPropertyOp25
 70
     1
102
RTVSPropertyOp26
 70
     1
102
RTVSPropertyOp27
 70
     1
102
RTVSPropertyOp28
 70
     1
102
RTVSPropertyOp29
 70
     1
102
RTVSPropertyOp30
 70
     1
102
RTVSPropertyOp31
 70
     1
102
RTVSPropertyOp32
 70
     1
  0
XRECORD
  5
BF
102
{ACAD_REACTORS
330
BE
102
}
330
BE
100
AcDbXrecord
280
     1
102
RTVSPropertyOp0
 70
     1
102
RTVSPropertyOp1
 70
     1
102
RTVSPropertyOp2
 70
     1
102
RTVSPropertyOp3
 70
     1
102
RTVSPropertyOp4
 70
     1
102
RTVSPropertyOp5
 70
     1
102
RTVSPropertyOp6
 70
     1
102
RTVSPropertyOp7
 70
     1
102
RTVSPropertyOp8
 70
     1
102
RTVSPropertyOp9
 70
     1
102
RTVSPropertyOp10
 70
     1
102
RTVSPropertyOp11
 70
     1
102
RTVSPropertyOp12
 70
     1
102
RTVSPropertyOp13
 70
     1
102
RTVSPropertyOp14
 70
     1
102
RTVSPropertyOp15
 70
     1
102
RTVSPropertyOp16
 70
     1
102
RTVSPropertyOp17
 70
     1
102
RTVSPropertyOp18
 70
     1
102
RTVSPropertyOp19
 70
     1
102
RTVSPropertyOp20
 70
     1
102
RTVSPropertyOp21
 70
     1
102
RTVSPropertyOp22
 70
     1
102
RTVSPropertyOp23
 70
     1
102
RTVSPropertyOp24
 70
     1
102
RTVSPropertyOp25
 70
     1
102
RTVSPropertyOp26
 70
     1
102
RTVSPropertyOp27
 70
     1
102
RTVSPropertyOp28
 70
     1
102
RTVSPropertyOp29
 70
     1
102
RTVSPropertyOp30
 70
     1
102
RTVSPropertyOp31
 70
     1
102
RTVSPropertyOp32
 70
     1
  0
XRECORD
  5
D3
102
{ACAD_REACTORS
330
D2
102
}
330
D2
100
AcDbXrecord
280
     1
102
RTVSPropertyOp0
 70
     1
102
RTVSPropertyOp1
 70
     1
102
RTVSPropertyOp2
 70
     1
102
RTVSPropertyOp3
 70
     1
102
RTVSPropertyOp4
 70
     1
102
RTVSPropertyOp5
 70
     1
102
RTVSPropertyOp6
 70
     1
102
RTVSPropertyOp7
 70
     1
102
RTVSPropertyOp8
 70
     1
102
RTVSPropertyOp9
 70
     1
102
RTVSPropertyOp10
 70
     1
102
RTVSPropertyOp11
 70
     1
102
RTVSPropertyOp12
 70
     1
102
RTVSPropertyOp13
 70
     1
102
RTVSPropertyOp14
 70
     1
102
RTVSPropertyOp15
 70
     1
102
RTVSPropertyOp16
 70
     1
102
RTVSPropertyOp17
 70
     1
102
RTVSPropertyOp18
 70
     1
102
RTVSPropertyOp19
 70
     1
102
RTVSPropertyOp20
 70
     1
102
RTVSPropertyOp21
 70
     1
102
RTVSPropertyOp22
 70
     1
102
RTVSPropertyOp23
 70
     1
102
RTVSPropertyOp24
 70
     1
102
RTVSPropertyOp25
 70
     1
102
RTVSPropertyOp26
 70
     1
102
RTVSPropertyOp27
 70
     1
102
RTVSPropertyOp28
 70
     1
102
RTVSPropertyOp29
 70
     1
102
RTVSPropertyOp30
 70
     1
102
RTVSPropertyOp31
 70
     1
102
RTVSPropertyOp32
 70
     1
  0
XRECORD
  5
C9
102
{ACAD_REACTORS
330
C8
102
}
330
C8
100
AcDbXrecord
280
     1
102
RTVSPropertyOp0
 70
     1
102
RTVSPropertyOp1
 70
     1
102
RTVSPropertyOp2
 70
     1
102
RTVSPropertyOp3
 70
     1
102
RTVSPropertyOp4
 70
     1
102
RTVSPropertyOp5
 70
     1
102
RTVSPropertyOp6
 70
     1
102
RTVSPropertyOp7
 70
     1
102
RTVSPropertyOp8
 70
     1
102
RTVSPropertyOp9
 70
     1
102
RTVSPropertyOp10
 70
     1
102
RTVSPropertyOp11
 70
     1
102
RTVSPropertyOp12
 70
     1
102
RTVSPropertyOp13
 70
     1
102
RTVSPropertyOp14
 70
     1
102
RTVSPropertyOp15
 70
     1
102
RTVSPropertyOp16
 70
     1
102
RTVSPropertyOp17
 70
     1
102
RTVSPropertyOp18
 70
     1
102
RTVSPropertyOp19
 70
     1
102
RTVSPropertyOp20
 70
     1
102
RTVSPropertyOp21
 70
     1
102
RTVSPropertyOp22
 70
     1
102
RTVSPropertyOp23
 70
     1
102
RTVSPropertyOp24
 70
     1
102
RTVSPropertyOp25
 70
     1
102
RTVSPropertyOp26
 70
     1
102
RTVSPropertyOp27
 70
     1
102
RTVSPropertyOp28
 70
     1
102
RTVSPropertyOp29
 70
     1
102
RTVSPropertyOp30
 70
     1
102
RTVSPropertyOp31
 70
     1
102
RTVSPropertyOp32
 70
     1
  0
XRECORD
  5
D1
102
{ACAD_REACTORS
330
D0
102
}
330
D0
100
AcDbXrecord
280
     1
102
RTVSPropertyOp0
 70
     1
102
RTVSPropertyOp1
 70
     1
102
RTVSPropertyOp2
 70
     1
102
RTVSPropertyOp3
 70
     1
102
RTVSPropertyOp4
 70
     1
102
RTVSPropertyOp5
 70
     1
102
RTVSPropertyOp6
 70
     1
102
RTVSPropertyOp7
 70
     1
102
RTVSPropertyOp8
 70
     1
102
RTVSPropertyOp9
 70
     1
102
RTVSPropertyOp10
 70
     1
102
RTVSPropertyOp11
 70
     1
102
RTVSPropertyOp12
 70
     1
102
RTVSPropertyOp13
 70
     1
102
RTVSPropertyOp14
 70
     1
102
RTVSPropertyOp15
 70
     1
102
RTVSPropertyOp16
 70
     1
102
RTVSPropertyOp17
 70
     1
102
RTVSPropertyOp18
 70
     1
102
RTVSPropertyOp19
 70
     1
102
RTVSPropertyOp20
 70
     1
102
RTVSPropertyOp21
 70
     1
102
RTVSPropertyOp22
 70
     1
102
RTVSPropertyOp23
 70
     1
102
RTVSPropertyOp24
 70
     1
102
RTVSPropertyOp25
 70
     1
102
RTVSPropertyOp26
 70
     1
102
RTVSPropertyOp27
 70
     1
102
RTVSPropertyOp28
 70
     1
102
RTVSPropertyOp29
 70
     1
102
RTVSPropertyOp30
 70
     1
102
RTVSPropertyOp31
 70
     1
102
RTVSPropertyOp32
 70
     1
  0
ENDSEC
  0
EOF
