  0
SECTION
  2
HEADER
  9
$ACADVER
  1
AC1021
  9
$ACADMAINTVER
 70
    25
  9
$DWGCODEPAGE
  3
ANSI_1252
  9
$INSBASE
 10
0.0
 20
0.0
 30
0.0
  9
$EXTMIN
 10
-187.4434
 20
-115.0798
 30
0.0
  9
$EXTMAX
 10
-48.8722
 20
131.7629
 30
0.0
  9
$LIMMIN
 10
0.0
 20
0.0
  9
$LIMMAX
 10
12.0
 20
9.0
  9
$ORTHOMODE
 70
     0
  9
$REGENMODE
 70
     1
  9
$FILLMODE
 70
     1
  9
$QTEXTMODE
 70
     0
  9
$MIRRTEXT
 70
     1
  9
$LTSCALE
 40
1.0
  9
$ATTMODE
 70
     1
  9
$TEXTSIZE
 40
0.2
  9
$TRACEWID
 40
0.05
  9
$TEXTSTYLE
  7
Standard
  9
$CLAYER
  8
0
  9
$CELTYPE
  6
ByLayer
  9
$CECOLOR
 62
   256
  9
$CELTSCALE
 40
1.0
  9
$DISPSILH
 70
     0
  9
$DIMSCALE
 40
1.0
  9
$DIMASZ
 40
0.18
  9
$DIMEXO
 40
0.0625
  9
$DIMDLI
 40
0.38
  9
$DIMRND
 40
0.0
  9
$DIMDLE
 40
0.0
  9
$DIMEXE
 40
0.18
  9
$DIMTP
 40
0.0
  9
$DIMTM
 40
0.0
  9
$DIMTXT
 40
0.18
  9
$DIMCEN
 40
0.09
  9
$DIMTSZ
 40
0.0
  9
$DIMTOL
 70
     0
  9
$DIMLIM
 70
     0
  9
$DIMTIH
 70
     1
  9
$DIMTOH
 70
     1
  9
$DIMSE1
 70
     0
  9
$DIMSE2
 70
     0
  9
$DIMTAD
 70
     0
  9
$DIMZIN
 70
     0
  9
$DIMBLK
  1

  9
$DIMASO
 70
     1
  9
$DIMSHO
 70
     1
  9
$DIMPOST
  1

  9
$DIMAPOST
  1

  9
$DIMALT
 70
     0
  9
$DIMALTD
 70
     2
  9
$DIMALTF
 40
25.4
  9
$DIMLFAC
 40
1.0
  9
$DIMTOFL
 70
     0
  9
$DIMTVP
 40
0.0
  9
$DIMTIX
 70
     0
  9
$DIMSOXD
 70
     0
  9
$DIMSAH
 70
     0
  9
$DIMBLK1
  1

  9
$DIMBLK2
  1

  9
$DIMSTYLE
  2
Standard
  9
$DIMCLRD
 70
     0
  9
$DIMCLRE
 70
     0
  9
$DIMCLRT
 70
     0
  9
$DIMTFAC
 40
1.0
  9
$DIMGAP
 40
0.09
  9
$DIMJUST
 70
     0
  9
$DIMSD1
 70
     0
  9
$DIMSD2
 70
     0
  9
$DIMTOLJ
 70
     1
  9
$DIMTZIN
 70
     0
  9
$DIMALTZ
 70
     0
  9
$DIMALTTZ
 70
     0
  9
$DIMUPT
 70
     0
  9
$DIMDEC
 70
     4
  9
$DIMTDEC
 70
     4
  9
$DIMALTU
 70
     2
  9
$DIMALTTD
 70
     2
  9
$DIMTXSTY
  7
Standard
  9
$DIMAUNIT
 70
     0
  9
$DIMADEC
 70
     0
  9
$DIMALTRND
 40
0.0
  9
$DIMAZIN
 70
     0
  9
$DIMDSEP
 70
    46
  9
$DIMATFIT
 70
     3
  9
$DIMFRAC
 70
     0
  9
$DIMLDRBLK
  1

  9
$DIMLUNIT
 70
     2
  9
$DIMLWD
 70
    -2
  9
$DIMLWE
 70
    -2
  9
$DIMTMOVE
 70
     0
  9
$DIMFXL
 40
1.0
  9
$DIMFXLON
 70
     0
  9
$DIMJOGANG
 40
0.7853981633974483
  9
$DIMTFILL
 70
     0
  9
$DIMTFILLCLR
 70
     0
  9
$DIMARCSYM
 70
     0
  9
$DIMLTYPE
  6

  9
$DIMLTEX1
  6

  9
$DIMLTEX2
  6

  9
$LUNITS
 70
     2
  9
$LUPREC
 70
     4
  9
$SKETCHINC
 40
0.1
  9
$FILLETRAD
 40
0.5
  9
$AUNITS
 70
     0
  9
$AUPREC
 70
     0
  9
$MENU
  1
.
  9
$ELEVATION
 40
0.0
  9
$PELEVATION
 40
0.0
  9
$THICKNESS
 40
0.0
  9
$LIMCHECK
 70
     0
  9
$CHAMFERA
 40
0.5
  9
$CHAMFERB
 40
0.5
  9
$CHAMFERC
 40
1.0
  9
$CHAMFERD
 40
0.0
  9
$SKPOLY
 70
     0
  9
$TDCREATE
 40
2458492.794234757
  9
$TDUCREATE
 40
2458492.794234757
  9
$TDUPDATE
 40
2458492.794234873
  9
$TDUUPDATE
 40
2458492.794234873
  9
$TDINDWG
 40
0.0000000116
  9
$TDUSRTIMER
 40
0.0000000116
  9
$USRTIMER
 70
     1
  9
$ANGBASE
 50
0.0
  9
$ANGDIR
 70
     0
  9
$PDMODE
 70
     0
  9
$PDSIZE
 40
0.0
  9
$PLINEWID
 40
0.0
  9
$SPLFRAME
 70
     0
  9
$SPLINETYPE
 70
     6
  9
$SPLINESEGS
 70
     8
  9
$HANDSEED
  5
AF
  9
$SURFTAB1
 70
     6
  9
$SURFTAB2
 70
     6
  9
$SURFTYPE
 70
     6
  9
$SURFU
 70
     6
  9
$SURFV
 70
     6
  9
$UCSBASE
  2

  9
$UCSNAME
  2

  9
$UCSORG
 10
0.0
 20
0.0
 30
0.0
  9
$UCSXDIR
 10
1.0
 20
0.0
 30
0.0
  9
$UCSYDIR
 10
0.0
 20
1.0
 30
0.0
  9
$UCSORTHOREF
  2

  9
$UCSORTHOVIEW
 70
     0
  9
$UCSORGTOP
 10
0.0
 20
0.0
 30
0.0
  9
$UCSORGBOTTOM
 10
0.0
 20
0.0
 30
0.0
  9
$UCSORGLEFT
 10
0.0
 20
0.0
 30
0.0
  9
$UCSORGRIGHT
 10
0.0
 20
0.0
 30
0.0
  9
$UCSORGFRONT
 10
0.0
 20
0.0
 30
0.0
  9
$UCSORGBACK
 10
0.0
 20
0.0
 30
0.0
  9
$PUCSBASE
  2

  9
$PUCSNAME
  2

  9
$PUCSORG
 10
0.0
 20
0.0
 30
0.0
  9
$PUCSXDIR
 10
1.0
 20
0.0
 30
0.0
  9
$PUCSYDIR
 10
0.0
 20
1.0
 30
0.0
  9
$PUCSORTHOREF
  2

  9
$PUCSORTHOVIEW
 70
     0
  9
$PUCSORGTOP
 10
0.0
 20
0.0
 30
0.0
  9
$PUCSORGBOTTOM
 10
0.0
 20
0.0
 30
0.0
  9
$PUCSORGLEFT
 10
0.0
 20
0.0
 30
0.0
  9
$PUCSORGRIGHT
 10
0.0
 20
0.0
 30
0.0
  9
$PUCSORGFRONT
 10
0.0
 20
0.0
 30
0.0
  9
$PUCSORGBACK
 10
0.0
 20
0.0
 30
0.0
  9
$USERI1
 70
     0
  9
$USERI2
 70
     0
  9
$USERI3
 70
     0
  9
$USERI4
 70
     0
  9
$USERI5
 70
     0
  9
$USERR1
 40
0.0
  9
$USERR2
 40
0.0
  9
$USERR3
 40
0.0
  9
$USERR4
 40
0.0
  9
$USERR5
 40
0.0
  9
$WORLDVIEW
 70
     1
  9
$SHADEDGE
 70
     3
  9
$SHADEDIF
 70
    70
  9
$TILEMODE
 70
     1
  9
$MAXACTVP
 70
    64
  9
$PINSBASE
 10
0.0
 20
0.0
 30
0.0
  9
$PLIMCHECK
 70
     0
  9
$PEXTMIN
 10
1.000000000000000E+20
 20
1.000000000000000E+20
 30
1.000000000000000E+20
  9
$PEXTMAX
 10
-1.000000000000000E+20
 20
-1.000000000000000E+20
 30
-1.000000000000000E+20
  9
$PLIMMIN
 10
0.0
 20
0.0
  9
$PLIMMAX
 10
12.0
 20
9.0
  9
$UNITMODE
 70
     0
  9
$VISRETAIN
 70
     1
  9
$PLINEGEN
 70
     0
  9
$PSLTSCALE
 70
     1
  9
$TREEDEPTH
 70
  3020
  9
$CMLSTYLE
  2
Standard
  9
$CMLJUST
 70
     0
  9
$CMLSCALE
 40
1.0
  9
$PROXYGRAPHICS
 70
     1
  9
$MEASUREMENT
 70
     0
  9
$CELWEIGHT
370
    -1
  9
$ENDCAPS
280
     0
  9
$JOINSTYLE
280
     0
  9
$LWDISPLAY
290
     0
  9
$INSUNITS
 70
     4
  9
$HYPERLINKBASE
  1

  9
$STYLESHEET
  1

  9
$XEDIT
290
     1
  9
$CEPSNTYPE
380
     0
  9
$PSTYLEMODE
290
     1
  9
$FINGERPRINTGUID
  2
{3E1A1157-330F-433B-96C2-31FB35384EF4}
  9
$VERSIONGUID
  2
{FAEB1C32-E019-11D5-929B-00C0DF256EC4}
  9
$EXTNAMES
290
     1
  9
$PSVPSCALE
 40
0.0
  9
$OLESTARTUP
290
     0
  9
$SORTENTS
280
   127
  9
$INDEXCTL
280
     0
  9
$HIDETEXT
280
     1
  9
$XCLIPFRAME
290
     0
  9
$HALOGAP
280
     0
  9
$OBSCOLOR
 70
   257
  9
$OBSLTYPE
280
     0
  9
$INTERSECTIONDISPLAY
280
     0
  9
$INTERSECTIONCOLOR
 70
   257
  9
$DIMASSOC
280
     2
  9
$PROJECTNAME
  1

  9
$CAMERADISPLAY
290
     0
  9
$LENSLENGTH
 40
50.0
  9
$CAMERAHEIGHT
 40
0.0
  9
$STEPSPERSEC
 40
2.0
  9
$STEPSIZE
 40
6.0
  9
$3DDWFPREC
 40
2.0
  9
$PSOLWIDTH
 40
0.25
  9
$PSOLHEIGHT
 40
4.0
  9
$LOFTANG1
 40
1.570796326794897
  9
$LOFTANG2
 40
1.570796326794897
  9
$LOFTMAG1
 40
0.0
  9
$LOFTMAG2
 40
0.0
  9
$LOFTPARAM
 70
     7
  9
$LOFTNORMALS
280
     1
  9
$LATITUDE
 40
37.795
  9
$LONGITUDE
 40
-122.394
  9
$NORTHDIRECTION
 40
0.0
  9
$TIMEZONE
 70
 -8000
  9
$LIGHTGLYPHDISPLAY
280
     1
  9
$TILEMODELIGHTSYNCH
280
     1
  9
$SOLIDHIST
280
     1
  9
$SHOWHIST
280
     1
  9
$DWFFRAME
280
     2
  9
$DGNFRAME
280
     2
  9
$REALWORLDSCALE
290
     1
  9
$INTERFERECOLOR
 62
   256
  9
$CSHADOW
280
     0
  9
$SHADOWPLANELOCATION
 40
0.0
  0
ENDSEC
  0
SECTION
  2
CLASSES
  0
CLASS
  1
ACDBDICTIONARYWDFLT
  2
AcDbDictionaryWithDefault
  3
ObjectDBX Classes
 90
        0
 91
        4
280
     0
281
     0
  0
CLASS
  1
VISUALSTYLE
  2
AcDbVisualStyle
  3
ObjectDBX Classes
 90
     4095
 91
        4
280
     0
281
     0
  0
CLASS
  1
MATERIAL
  2
AcDbMaterial
  3
ObjectDBX Classes
 90
     1153
 91
        4
280
     0
281
     0
  0
ENDSEC
  0
SECTION
  2
TABLES
  0
TABLE
  2
VPORT
  5
8
330
0
100
AcDbSymbolTable
 70
     1
  0
VPORT
  5
29
330
8
100
AcDbSymbolTableRecord
100
AcDbViewportTableRecord
  2
*Active
 70
     0
 10
0.0
 20
0.0
 11
1.0
 21
1.0
 12
10.42990654205607
 22
4.5
 13
0.0
 23
0.0
 14
0.5
 24
0.5
 15
0.5
 25
0.5
 16
0.0
 26
0.0
 36
1.0
 17
0.0
 27
0.0
 37
0.0
 40
9.0
 41
1.972972972850329
 42
50.0
 43
0.0
 44
0.0
 50
0.0
 51
0.0
 71
     0
 72
   100
 73
     1
 74
     3
 75
     0
 76
     0
 77
     0
 78
     0
281
     0
 65
     1
110
0.0
120
0.0
130
0.0
111
1.0
121
0.0
131
0.0
112
0.0
122
1.0
132
0.0
 79
     0
146
0.0
 60
     3
 61
     5
292
     1
282
     1
141
0.0
142
0.0
 63
   250
  0
ENDTAB
  0
TABLE
  2
LTYPE
  5
5
330
0
100
AcDbSymbolTable
 70
     1
  0
LTYPE
  5
14
330
5
100
AcDbSymbolTableRecord
100
AcDbLinetypeTableRecord
  2
ByBlock
 70
     0
  3

 72
    65
 73
     0
 40
0.0
  0
LTYPE
  5
15
330
5
100
AcDbSymbolTableRecord
100
AcDbLinetypeTableRecord
  2
ByLayer
 70
     0
  3

 72
    65
 73
     0
 40
0.0
  0
LTYPE
  5
16
330
5
100
AcDbSymbolTableRecord
100
AcDbLinetypeTableRecord
  2
Continuous
 70
     0
  3
Solid line
 72
    65
 73
     0
 40
0.0
  0
ENDTAB
  0
TABLE
  2
LAYER
  5
2
330
0
100
AcDbSymbolTable
 70
     2
  0
LAYER
  5
10
330
2
100
AcDbSymbolTableRecord
100
AcDbLayerTableRecord
  2
0
 70
     0
 62
     7
  6
Continuous
370
    -3
390
F
347
3E
  0
LAYER
  5
40
330
2
100
AcDbSymbolTableRecord
100
AcDbLayerTableRecord
  2
layer 1
 70
     0
 62
     7
  6
Continuous
370
    -3
390
F
347
3E
  0
ENDTAB
  0
TABLE
  2
STYLE
  5
3
330
0
100
AcDbSymbolTable
 70
     1
  0
STYLE
  5
11
330
3
100
AcDbSymbolTableRecord
100
AcDbTextStyleTableRecord
  2
Standard
 70
     0
 40
0.0
 41
1.0
 50
0.0
 71
     0
 42
0.2
  3
txt
  4

  0
ENDTAB
  0
TABLE
  2
VIEW
  5
6
330
0
100
AcDbSymbolTable
 70
     0
  0
ENDTAB
  0
TABLE
  2
UCS
  5
7
330
0
100
AcDbSymbolTable
 70
     0
  0
ENDTAB
  0
TABLE
  2
APPID
  5
9
330
0
100
AcDbSymbolTable
 70
     2
  0
APPID
  5
12
330
9
100
AcDbSymbolTableRecord
100
AcDbRegAppTableRecord
  2
ACAD
 70
     0
  0
APPID
  5
3F
330
9
100
AcDbSymbolTableRecord
100
AcDbRegAppTableRecord
  2
ODA
 70
     0
  0
ENDTAB
  0
TABLE
  2
DIMSTYLE
  5
A
330
0
100
AcDbSymbolTable
 70
     1
100
AcDbDimStyleTable
  0
DIMSTYLE
105
27
330
A
100
AcDbSymbolTableRecord
100
AcDbDimStyleTableRecord
  2
Standard
 70
     0
178
     0
340
11
  0
ENDTAB
  0
TABLE
  2
BLOCK_RECORD
  5
1
330
0
100
AcDbSymbolTable
 70
     1
  0
BLOCK_RECORD
  5
1F
330
1
100
AcDbSymbolTableRecord
100
AcDbBlockTableRecord
  2
*Model_Space
340
22
 70
     0
280
     1
281
     0
  0
BLOCK_RECORD
  5
1B
330
1
100
AcDbSymbolTableRecord
100
AcDbBlockTableRecord
  2
*Paper_Space
340
1E
 70
     0
280
     1
281
     0
  0
BLOCK_RECORD
  5
23
330
1
100
AcDbSymbolTableRecord
100
AcDbBlockTableRecord
  2
*Paper_Space0
340
26
 70
     0
280
     1
281
     0
  0
ENDTAB
  0
ENDSEC
  0
SECTION
  2
BLOCKS
  0
BLOCK
  5
20
330
1F
100
AcDbEntity
  8
0
100
AcDbBlockBegin
  2
*Model_Space
 70
     0
 10
0.0
 20
0.0
 30
0.0
  3
*Model_Space
  1

  0
ENDBLK
  5
21
330
1F
100
AcDbEntity
  8
0
100
AcDbBlockEnd
  0
BLOCK
  5
1C
330
1B
100
AcDbEntity
 67
     1
  8
0
100
AcDbBlockBegin
  2
*Paper_Space
 70
     0
 10
0.0
 20
0.0
 30
0.0
  3
*Paper_Space
  1

  0
ENDBLK
  5
1D
330
1B
100
AcDbEntity
 67
     1
  8
0
100
AcDbBlockEnd
  0
BLOCK
  5
24
330
23
100
AcDbEntity
  8
0
100
AcDbBlockBegin
  2
*Paper_Space0
 70
     0
 10
0.0
 20
0.0
 30
0.0
  3
*Paper_Space0
  1

  0
ENDBLK
  5
25
330
23
100
AcDbEntity
  8
0
100
AcDbBlockEnd
  0
ENDSEC
  0
SECTION
  2
ENTITIES
  0
SPLINE
  5
41
330
1F
100
AcDbEntity
  8
layer 1
100
AcDbSpline
210
0.0
220
0.0
230
1.0
 70
    11
 71
     3
 72
    20
 73
    16
 74
     0
 42
0.0000000001
 43
0.0000000001
 12
1.0
 22
0.0
 32
0.0
 13
1.0
 23
0.0
 33
0.0
 40
0.0
 40
0.0
 40
0.0
 40
0.0
 40
0.2
 40
0.2
 40
0.2
 40
0.2
 40
0.4
 40
0.4
 40
0.4
 40
0.4
 40
0.6
 40
0.6
 40
0.6
 40
0.6
 40
1.0
 40
1.0
 40
1.0
 40
1.0
 10
-187.4434
 20
-115.0798
 30
0.0
 10
-187.4434
 20
-115.0798
 30
0.0
 10
-187.4434
 20
131.7629
 30
0.0
 10
-187.4434
 20
131.7629
 30
0.0
 10
-187.4434
 20
131.7629
 30
0.0
 10
-187.4434
 20
131.7629
 30
0.0
 10
-48.8722
 20
131.7629
 30
0.0
 10
-48.8722
 20
131.7629
 30
0.0
 10
-48.8722
 20
131.7629
 30
0.0
 10
-48.8722
 20
131.7629
 30
0.0
 10
-48.8722
 20
-115.0798
 30
0.0
 10
-48.8722
 20
-115.0798
 30
0.0
 10
-48.8722
 20
-115.0798
 30
0.0
 10
-48.8722
 20
-115.0798
 30
0.0
 10
-187.4434
 20
-115.0798
 30
0.0
 10
-187.4434
 20
-115.0798
 30
0.0
  0
SPLINE
  5
42
330
1F
100
AcDbEntity
  8
layer 1
 62
     7
100
AcDbSpline
210
0.0
220
0.0
230
1.0
 70
    11
 71
     3
 72
    16
 73
    12
 74
     0
 42
0.0000000001
 43
0.0000000001
 12
1.0
 22
0.0
 32
0.0
 13
1.0
 23
0.0
 33
0.0
 40
0.0
 40
0.0
 40
0.0
 40
0.0
 40
0.25
 40
0.25
 40
0.25
 40
0.25
 40
0.5
 40
0.5
 40
0.5
 40
0.5
 40
1.0
 40
1.0
 40
1.0
 40
1.0
 10
-179.3467
 20
-73.1923
 30
0.0
 10
-179.3467
 20
-73.1923
 30
0.0
 10
-179.4089
 20
-48.4702
 30
0.0
 10
-179.4089
 20
-48.4702
 30
0.0
 10
-179.4089
 20
-48.4702
 30
0.0
 10
-177.5691
 20
-59.4777
 30
0.0
 10
-173.8421
 20
-65.1387
 30
0.0
 10
-170.1838
 20
-68.8811
 30
0.0
 10
-170.1838
 20
-68.8811
 30
0.0
 10
-173.1562
 20
-66.34
 30
0.0
 10
-179.3149
 20
-68.4999
 30
0.0
 10
-179.3467
 20
-73.1923
 30
0.0
  0
SPLINE
  5
43
330
1F
100
AcDbEntity
  8
layer 1
 62
     7
100
AcDbSpline
210
0.0
220
0.0
230
1.0
 70
    11
 71
     3
 72
    16
 73
    12
 74
     0
 42
0.0000000001
 43
0.0000000001
 12
1.0
 22
0.0
 32
0.0
 13
1.0
 23
0.0
 33
0.0
 40
0.0
 40
0.0
 40
0.0
 40
0.0
 40
0.25
 40
0.25
 40
0.25
 40
0.25
 40
0.5
 40
0.5
 40
0.5
 40
0.5
 40
1.0
 40
1.0
 40
1.0
 40
1.0
 10
-179.3467
 20
-42.1106
 30
0.0
 10
-179.3467
 20
-42.1106
 30
0.0
 10
-179.3094
 20
-15.5312
 30
0.0
 10
-179.3094
 20
-15.5312
 30
0.0
 10
-179.3094
 20
-15.5312
 30
0.0
 10
-178.2548
 20
-19.2926
 30
0.0
 10
-176.9765
 20
-23.1502
 30
0.0
 10
-174.2289
 20
-26.2187
 30
0.0
 10
-174.2289
 20
-26.2187
 30
0.0
 10
-177.4932
 20
-32.4925
 30
0.0
 10
-178.4415
 20
-36.633
 30
0.0
 10
-179.3467
 20
-42.1106
 30
0.0
  0
SPLINE
  5
44
330
1F
100
AcDbEntity
  8
layer 1
 62
     7
100
AcDbSpline
210
0.0
220
0.0
230
1.0
 70
    11
 71
     3
 72
    16
 73
    12
 74
     0
 42
0.0000000001
 43
0.0000000001
 12
1.0
 22
0.0
 32
0.0
 13
1.0
 23
0.0
 33
0.0
 40
0.0
 40
0.0
 40
0.0
 40
0.0
 40
0.25
 40
0.25
 40
0.25
 40
0.25
 40
0.5
 40
0.5
 40
0.5
 40
0.5
 40
1.0
 40
1.0
 40
1.0
 40
1.0
 10
-172.2744
 20
-23.2519
 30
0.0
 10
-175.9622
 20
-16.3211
 30
0.0
 10
-175.3716
 20
-10.0886
 30
0.0
 10
-172.5988
 20
-4.8165
 30
0.0
 10
-172.5988
 20
-4.8165
 30
0.0
 10
-173.661
 20
-9.9129
 30
0.0
 10
-168.8654
 20
-12.8223
 30
0.0
 10
-163.6074
 20
-11.6478
 30
0.0
 10
-163.6074
 20
-11.6478
 30
0.0
 10
-167.8947
 20
-15.3902
 30
0.0
 10
-169.7205
 20
-18.6453
 30
0.0
 10
-172.2744
 20
-23.2519
 30
0.0
  0
SPLINE
  5
45
330
1F
100
AcDbEntity
  8
layer 1
 62
     7
100
AcDbSpline
210
0.0
220
0.0
230
1.0
 70
    11
 71
     3
 72
    16
 73
    12
 74
     0
 42
0.0000000001
 43
0.0000000001
 12
1.0
 22
0.0
 32
0.0
 13
1.0
 23
0.0
 33
0.0
 40
0.0
 40
0.0
 40
0.0
 40
0.0
 40
0.25
 40
0.25
 40
0.25
 40
0.25
 40
0.5
 40
0.5
 40
0.5
 40
0.5
 40
1.0
 40
1.0
 40
1.0
 40
1.0
 10
-179.3467
 20
-5.965
 30
0.0
 10
-179.4385
 20
3.6343
 30
0.0
 10
-179.3879
 20
13.2337
 30
0.0
 10
-179.3466
 20
22.8329
 30
0.0
 10
-179.3466
 20
22.8329
 30
0.0
 10
-178.3546
 20
16.2208
 30
0.0
 10
-175.4096
 20
12.7407
 30
0.0
 10
-170.1628
 20
8.434
 30
0.0
 10
-170.1628
 20
8.434
 30
0.0
 10
-175.4096
 20
4.1265
 30
0.0
 10
-178.3546
 20
0.6472
 30
0.0
 10
-179.3467
 20
-5.965
 30
0.0
  0
SPLINE
  5
46
330
1F
100
AcDbEntity
  8
layer 1
 62
     7
100
AcDbSpline
210
0.0
220
0.0
230
1.0
 70
    11
 71
     3
 72
    60
 73
    56
 74
     0
 42
0.0000000001
 43
0.0000000001
 12
1.0
 22
0.0
 32
0.0
 13
1.0
 23
0.0
 33
0.0
 40
0.0
 40
0.0
 40
0.0
 40
0.0
 40
0.0666666666666667
 40
0.0666666666666667
 40
0.0666666666666667
 40
0.0666666666666667
 40
0.1333333333333333
 40
0.1333333333333333
 40
0.1333333333333333
 40
0.1333333333333333
 40
0.2
 40
0.2
 40
0.2
 40
0.2
 40
0.2666666666666667
 40
0.2666666666666667
 40
0.2666666666666667
 40
0.2666666666666667
 40
0.3333333333333333
 40
0.3333333333333333
 40
0.3333333333333333
 40
0.3333333333333333
 40
0.4
 40
0.4
 40
0.4
 40
0.4
 40
0.4666666666666667
 40
0.4666666666666667
 40
0.4666666666666667
 40
0.4666666666666667
 40
0.5333333333333333
 40
0.5333333333333333
 40
0.5333333333333333
 40
0.5333333333333333
 40
0.6
 40
0.6
 40
0.6
 40
0.6
 40
0.6666666666666666
 40
0.6666666666666666
 40
0.6666666666666666
 40
0.6666666666666666
 40
0.7333333333333333
 40
0.7333333333333333
 40
0.7333333333333333
 40
0.7333333333333333
 40
0.8
 40
0.8
 40
0.8
 40
0.8
 40
0.8666666666666667
 40
0.8666666666666667
 40
0.8666666666666667
 40
0.8666666666666667
 40
1.0
 40
1.0
 40
1.0
 40
1.0
 10
-153.6332
 20
-2.6198
 30
0.0
 10
-154.4644
 20
1.275
 30
0.0
 10
-150.5128
 20
2.1032
 30
0.0
 10
-148.6736
 20
0.5181
 30
0.0
 10
-148.6736
 20
0.5181
 30
0.0
 10
-145.6774
 20
-1.7809
 30
0.0
 10
-147.5898
 20
-5.887
 30
0.0
 10
-149.1594
 20
-7.3648
 30
0.0
 10
-149.1594
 20
-7.3648
 30
0.0
 10
-151.9001
 20
-6.8509
 30
0.0
 10
-156.0917
 20
-7.0593
 30
0.0
 10
-161.4425
 20
-10.0724
 30
0.0
 10
-161.4425
 20
-10.0724
 30
0.0
 10
-152.6112
 20
-4.7553
 30
0.0
 10
-160.8667
 20
2.0021
 30
0.0
 10
-162.2259
 20
1.6806
 30
0.0
 10
-162.2259
 20
1.6806
 30
0.0
 10
-160.2351
 20
-3.4623
 30
0.0
 10
-164.9924
 20
-6.0928
 30
0.0
 10
-168.3453
 20
-2.5602
 30
0.0
 10
-168.3453
 20
-2.5602
 30
0.0
 10
-170.8254
 20
0.7982
 30
0.0
 10
-166.7924
 20
7.3956
 30
0.0
 10
-161.0696
 20
8.434
 30
0.0
 10
-161.0696
 20
8.434
 30
0.0
 10
-166.7925
 20
9.4722
 30
0.0
 10
-170.8254
 20
16.0697
 30
0.0
 10
-168.3453
 20
19.4274
 30
0.0
 10
-168.3453
 20
19.4274
 30
0.0
 10
-164.9924
 20
22.9607
 30
0.0
 10
-160.235
 20
20.3295
 30
0.0
 10
-162.2259
 20
15.1866
 30
0.0
 10
-162.2259
 20
15.1866
 30
0.0
 10
-160.8667
 20
14.8652
 30
0.0
 10
-152.6112
 20
21.6233
 30
0.0
 10
-161.4425
 20
26.9396
 30
0.0
 10
-161.4425
 20
26.9396
 30
0.0
 10
-156.0917
 20
23.9272
 30
0.0
 10
-151.9
 20
23.7181
 30
0.0
 10
-149.1594
 20
24.232
 30
0.0
 10
-149.1594
 20
24.232
 30
0.0
 10
-147.5898
 20
22.755
 30
0.0
 10
-145.6774
 20
18.6481
 30
0.0
 10
-148.6736
 20
16.349
 30
0.0
 10
-148.6736
 20
16.349
 30
0.0
 10
-150.5128
 20
14.764
 30
0.0
 10
-154.4644
 20
15.5924
 30
0.0
 10
-153.6332
 20
19.487
 30
0.0
 10
-153.6332
 20
19.487
 30
0.0
 10
-156.9285
 20
18.265
 30
0.0
 10
-158.9826
 20
12.4789
 30
0.0
 10
-153.6614
 20
8.434
 30
0.0
 10
-153.6614
 20
8.434
 30
0.0
 10
-158.9826
 20
4.3884
 30
0.0
 10
-156.9284
 20
-1.3978
 30
0.0
 10
-153.6332
 20
-2.6198
 30
0.0
  0
SPLINE
  5
47
330
1F
100
AcDbEntity
  8
layer 1
 62
     7
100
AcDbSpline
210
0.0
220
0.0
230
1.0
 70
    11
 71
     3
 72
    52
 73
    48
 74
     0
 42
0.0000000001
 43
0.0000000001
 12
1.0
 22
0.0
 32
0.0
 13
1.0
 23
0.0
 33
0.0
 40
0.0
 40
0.0
 40
0.0
 40
0.0
 40
0.0769230769230769
 40
0.0769230769230769
 40
0.0769230769230769
 40
0.0769230769230769
 40
0.1538461538461539
 40
0.1538461538461539
 40
0.1538461538461539
 40
0.1538461538461539
 40
0.2307692307692308
 40
0.2307692307692308
 40
0.2307692307692308
 40
0.2307692307692308
 40
0.3076923076923077
 40
0.3076923076923077
 40
0.3076923076923077
 40
0.3076923076923077
 40
0.3846153846153846
 40
0.3846153846153846
 40
0.3846153846153846
 40
0.3846153846153846
 40
0.4615384615384616
 40
0.4615384615384616
 40
0.4615384615384616
 40
0.4615384615384616
 40
0.5384615384615384
 40
0.5384615384615384
 40
0.5384615384615384
 40
0.5384615384615384
 40
0.6153846153846154
 40
0.6153846153846154
 40
0.6153846153846154
 40
0.6153846153846154
 40
0.6923076923076923
 40
0.6923076923076923
 40
0.6923076923076923
 40
0.6923076923076923
 40
0.7692307692307693
 40
0.7692307692307693
 40
0.7692307692307693
 40
0.7692307692307693
 40
0.8461538461538461
 40
0.8461538461538461
 40
0.8461538461538461
 40
0.8461538461538461
 40
1.0
 40
1.0
 40
1.0
 40
1.0
 10
-133.3073
 20
1.5662
 30
0.0
 10
-135.7243
 20
1.5368
 30
0.0
 10
-137.2996
 20
1.5733
 30
0.0
 10
-138.333
 20
-0.1179
 30
0.0
 10
-138.333
 20
-0.1179
 30
0.0
 10
-138.4551
 20
-2.0485
 30
0.0
 10
-136.3603
 20
-3.8295
 30
0.0
 10
-135.2504
 20
-4.3974
 30
0.0
 10
-135.2504
 20
-4.3974
 30
0.0
 10
-139.1662
 20
-4.1447
 30
0.0
 10
-141.1193
 20
-8.0407
 30
0.0
 10
-141.3425
 20
-9.6717
 30
0.0
 10
-141.3425
 20
-9.6717
 30
0.0
 10
-142.5822
 20
-8.5279
 30
0.0
 10
-144.7373
 20
-7.8386
 30
0.0
 10
-146.781
 20
-7.6238
 30
0.0
 10
-146.781
 20
-7.6238
 30
0.0
 10
-141.4906
 20
-5.1387
 30
0.0
 10
-138.4178
 20
4.6888
 30
0.0
 10
-149.2836
 20
8.434
 30
0.0
 10
-149.2836
 20
8.434
 30
0.0
 10
-138.4179
 20
12.1784
 30
0.0
 10
-141.4906
 20
22.0066
 30
0.0
 10
-146.781
 20
24.4917
 30
0.0
 10
-146.781
 20
24.4917
 30
0.0
 10
-144.7374
 20
24.7066
 30
0.0
 10
-142.5822
 20
25.3959
 30
0.0
 10
-141.3425
 20
26.5389
 30
0.0
 10
-141.3425
 20
26.5389
 30
0.0
 10
-141.1194
 20
24.908
 30
0.0
 10
-139.1662
 20
21.0119
 30
0.0
 10
-135.2504
 20
21.2646
 30
0.0
 10
-135.2504
 20
21.2646
 30
0.0
 10
-136.3603
 20
20.6968
 30
0.0
 10
-138.455
 20
18.9164
 30
0.0
 10
-138.333
 20
16.9857
 30
0.0
 10
-138.333
 20
16.9857
 30
0.0
 10
-137.4423
 20
15.3657
 30
0.0
 10
-135.7243
 20
15.3305
 30
0.0
 10
-133.3073
 20
15.3016
 30
0.0
 10
-133.3073
 20
15.3016
 30
0.0
 10
-135.8296
 20
13.5417
 30
0.0
 10
-136.2494
 20
10.495
 30
0.0
 10
-134.9781
 20
8.434
 30
0.0
 10
-134.9781
 20
8.434
 30
0.0
 10
-136.2494
 20
6.3723
 30
0.0
 10
-135.8296
 20
3.3255
 30
0.0
 10
-133.3073
 20
1.5662
 30
0.0
  0
SPLINE
  5
48
330
1F
100
AcDbEntity
  8
layer 1
 62
     7
100
AcDbSpline
210
0.0
220
0.0
230
1.0
 70
    11
 71
     3
 72
    20
 73
    16
 74
     0
 42
0.0000000001
 43
0.0000000001
 12
1.0
 22
0.0
 32
0.0
 13
1.0
 23
0.0
 33
0.0
 40
0.0
 40
0.0
 40
0.0
 40
0.0
 40
0.2
 40
0.2
 40
0.2
 40
0.2
 40
0.4
 40
0.4
 40
0.4
 40
0.4
 40
0.6
 40
0.6
 40
0.6
 40
0.6
 40
1.0
 40
1.0
 40
1.0
 40
1.0
 10
-108.5615
 20
3.2869
 30
0.0
 10
-108.1367
 20
4.1195
 30
0.0
 10
-108.8169
 20
6.9589
 30
0.0
 10
-111.7408
 20
8.434
 30
0.0
 10
-111.7408
 20
8.434
 30
0.0
 10
-108.8169
 20
9.909
 30
0.0
 10
-108.1367
 20
12.7477
 30
0.0
 10
-108.5615
 20
13.5804
 30
0.0
 10
-108.5615
 20
13.5804
 30
0.0
 10
-104.9743
 20
11.2828
 30
0.0
 10
-101.9976
 20
9.5797
 30
0.0
 10
-97.4352
 20
8.434
 30
0.0
 10
-97.4352
 20
8.434
 30
0.0
 10
-101.9976
 20
7.2877
 30
0.0
 10
-104.9742
 20
5.5845
 30
0.0
 10
-108.5615
 20
3.2869
 30
0.0
  0
SPLINE
  5
49
330
1F
100
AcDbEntity
  8
layer 1
 62
     7
100
AcDbSpline
210
0.0
220
0.0
230
1.0
 70
    11
 71
     3
 72
    24
 73
    20
 74
     0
 42
0.0000000001
 43
0.0000000001
 12
1.0
 22
0.0
 32
0.0
 13
1.0
 23
0.0
 33
0.0
 40
0.0
 40
0.0
 40
0.0
 40
0.0
 40
0.1666666666666667
 40
0.1666666666666667
 40
0.1666666666666667
 40
0.1666666666666667
 40
0.3333333333333333
 40
0.3333333333333333
 40
0.3333333333333333
 40
0.3333333333333333
 40
0.5
 40
0.5
 40
0.5
 40
0.5
 40
0.6666666666666666
 40
0.6666666666666666
 40
0.6666666666666666
 40
0.6666666666666666
 40
1.0
 40
1.0
 40
1.0
 40
1.0
 10
-57.3183
 20
4.0577
 30
0.0
 10
-57.1673
 20
-0.0224
 30
0.0
 10
-57.1673
 20
-3.2046
 30
0.0
 10
-57.3989
 20
-8.1504
 30
0.0
 10
-57.3989
 20
-8.1504
 30
0.0
 10
-60.0133
 20
-1.6019
 30
0.0
 10
-76.2873
 20
0.5701
 30
0.0
 10
-76.3567
 20
-14.9064
 30
0.0
 10
-76.3567
 20
-14.9064
 30
0.0
 10
-76.3419
 20
-13.6829
 30
0.0
 10
-77.5094
 20
-11.1227
 30
0.0
 10
-81.565
 20
-11.4316
 30
0.0
 10
-81.565
 20
-11.4316
 30
0.0
 10
-76.1581
 20
-9.0566
 30
0.0
 10
-72.4368
 20
-2.2556
 30
0.0
 10
-78.2212
 20
3.3738
 30
0.0
 10
-78.2212
 20
3.3738
 30
0.0
 10
-72.3138
 20
0.6277
 30
0.0
 10
-65.3851
 20
1.039
 30
0.0
 10
-57.3183
 20
4.0577
 30
0.0
  0
SPLINE
  5
4A
330
1F
100
AcDbEntity
  8
layer 1
 62
     7
100
AcDbSpline
210
0.0
220
0.0
230
1.0
 70
    11
 71
     3
 72
    40
 73
    36
 74
     0
 42
0.0000000001
 43
0.0000000001
 12
1.0
 22
0.0
 32
0.0
 13
1.0
 23
0.0
 33
0.0
 40
0.0
 40
0.0
 40
0.0
 40
0.0
 40
0.1
 40
0.1
 40
0.1
 40
0.1
 40
0.2
 40
0.2
 40
0.2
 40
0.2
 40
0.3
 40
0.3
 40
0.3
 40
0.3
 40
0.4
 40
0.4
 40
0.4
 40
0.4
 40
0.5
 40
0.5
 40
0.5
 40
0.5
 40
0.6
 40
0.6
 40
0.6
 40
0.6
 40
0.7
 40
0.7
 40
0.7
 40
0.7
 40
0.8
 40
0.8
 40
0.8
 40
0.8
 40
1.0
 40
1.0
 40
1.0
 40
1.0
 10
-57.3183
 20
-15.5868
 30
0.0
 10
-57.1673
 20
-19.6661
 30
0.0
 10
-57.1673
 20
-37.0801
 30
0.0
 10
-57.3989
 20
-42.0258
 30
0.0
 10
-57.3989
 20
-42.0258
 30
0.0
 10
-59.4889
 20
-34.953
 30
0.0
 10
-71.0488
 20
-29.464
 30
0.0
 10
-77.5789
 20
-41.6222
 30
0.0
 10
-77.5789
 20
-41.6222
 30
0.0
 10
-78.0886
 20
-38.8274
 30
0.0
 10
-78.6446
 20
-30.7669
 30
0.0
 10
-73.8814
 20
-27.4955
 30
0.0
 10
-73.8814
 20
-27.4955
 30
0.0
 10
-73.2974
 20
-31.9471
 30
0.0
 10
-65.225
 20
-32.9355
 30
0.0
 10
-64.803
 20
-26.6982
 30
0.0
 10
-64.803
 20
-26.6982
 30
0.0
 10
-64.3467
 20
-19.9588
 30
0.0
 10
-72.7295
 20
-19.9476
 30
0.0
 10
-73.8007
 20
-24.2972
 30
0.0
 10
-73.8007
 20
-24.2972
 30
0.0
 10
-74.9914
 20
-17.6182
 30
0.0
 10
-72.1116
 20
-13.7804
 30
0.0
 10
-69.7319
 20
-10.8502
 30
0.0
 10
-69.7319
 20
-10.8502
 30
0.0
 10
-66.5939
 20
-7.972
 30
0.0
 10
-63.2952
 20
-9.6224
 30
0.0
 10
-63.6706
 20
-12.7872
 30
0.0
 10
-63.6706
 20
-12.7872
 30
0.0
 10
-63.8083
 20
-13.9475
 30
0.0
 10
-64.8592
 20
-16.3035
 30
0.0
 10
-66.9588
 20
-17.8417
 30
0.0
 10
-66.9588
 20
-17.8417
 30
0.0
 10
-63.496
 20
-20.2388
 30
0.0
 10
-58.5748
 20
-18.6054
 30
0.0
 10
-57.3183
 20
-15.5868
 30
0.0
  0
SPLINE
  5
4B
330
1F
100
AcDbEntity
  8
layer 1
 62
     7
100
AcDbSpline
210
0.0
220
0.0
230
1.0
 70
    11
 71
     3
 72
    48
 73
    44
 74
     0
 42
0.0000000001
 43
0.0000000001
 12
1.0
 22
0.0
 32
0.0
 13
1.0
 23
0.0
 33
0.0
 40
0.0
 40
0.0
 40
0.0
 40
0.0
 40
0.0833333333333333
 40
0.0833333333333333
 40
0.0833333333333333
 40
0.0833333333333333
 40
0.1666666666666667
 40
0.1666666666666667
 40
0.1666666666666667
 40
0.1666666666666667
 40
0.25
 40
0.25
 40
0.25
 40
0.25
 40
0.3333333333333333
 40
0.3333333333333333
 40
0.3333333333333333
 40
0.3333333333333333
 40
0.4166666666666667
 40
0.4166666666666667
 40
0.4166666666666667
 40
0.4166666666666667
 40
0.5
 40
0.5
 40
0.5
 40
0.5
 40
0.5833333333333334
 40
0.5833333333333334
 40
0.5833333333333334
 40
0.5833333333333334
 40
0.6666666666666666
 40
0.6666666666666666
 40
0.6666666666666666
 40
0.6666666666666666
 40
0.75
 40
0.75
 40
0.75
 40
0.75
 40
0.8333333333333334
 40
0.8333333333333334
 40
0.8333333333333334
 40
0.8333333333333334
 40
1.0
 40
1.0
 40
1.0
 40
1.0
 10
-57.3183
 20
-47.8905
 30
0.0
 10
-57.1673
 20
-51.9705
 30
0.0
 10
-57.1673
 20
-62.05
 30
0.0
 10
-57.3989
 20
-66.9955
 30
0.0
 10
-57.3989
 20
-66.9955
 30
0.0
 10
-61.9094
 20
-60.8031
 30
0.0
 10
-68.3678
 20
-65.5916
 30
0.0
 10
-66.8508
 20
-70.5106
 30
0.0
 10
-66.8508
 20
-70.5106
 30
0.0
 10
-66.7062
 20
-71.9616
 30
0.0
 10
-67.4903
 20
-72.729
 30
0.0
 10
-69.9178
 20
-73.3529
 30
0.0
 10
-69.9178
 20
-73.3529
 30
0.0
 10
-75.704
 20
-74.8406
 30
0.0
 10
-75.4603
 20
-70.029
 30
0.0
 10
-86.8335
 20
-77.6801
 30
0.0
 10
-86.8335
 20
-77.6801
 30
0.0
 10
-83.1416
 20
-73.2406
 30
0.0
 10
-81.7046
 20
-67.7868
 30
0.0
 10
-81.0594
 20
-64.8798
 30
0.0
 10
-81.0594
 20
-64.8798
 30
0.0
 10
-78.1012
 20
-71.1333
 30
0.0
 10
-68.6417
 20
-67.7545
 30
0.0
 10
-68.636
 20
-62.5273
 30
0.0
 10
-68.636
 20
-62.5273
 30
0.0
 10
-68.6318
 20
-58.2035
 30
0.0
 10
-72.8853
 20
-52.9638
 30
0.0
 10
-78.8579
 20
-58.1405
 30
0.0
 10
-78.8579
 20
-58.1405
 30
0.0
 10
-80.6967
 20
-48.8274
 30
0.0
 10
-75.9243
 20
-42.1978
 30
0.0
 10
-70.7449
 20
-40.1002
 30
0.0
 10
-70.7449
 20
-40.1002
 30
0.0
 10
-67.0031
 20
-39.3441
 30
0.0
 10
-65.8871
 20
-43.1532
 30
0.0
 10
-66.7195
 20
-44.8564
 30
0.0
 10
-66.7195
 20
-44.8564
 30
0.0
 10
-67.6835
 20
-46.8262
 30
0.0
 10
-71.0495
 20
-48.49
 30
0.0
 10
-74.031
 20
-48.9231
 30
0.0
 10
-74.031
 20
-48.9231
 30
0.0
 10
-70.742
 20
-56.7336
 30
0.0
 10
-58.6618
 20
-55.6238
 30
0.0
 10
-57.3183
 20
-47.8905
 30
0.0
  0
SPLINE
  5
4C
330
1F
100
AcDbEntity
  8
layer 1
 62
     7
100
AcDbSpline
210
0.0
220
0.0
230
1.0
 70
    11
 71
     3
 72
    16
 73
    12
 74
     0
 42
0.0000000001
 43
0.0000000001
 12
1.0
 22
0.0
 32
0.0
 13
1.0
 23
0.0
 33
0.0
 40
0.0
 40
0.0
 40
0.0
 40
0.0
 40
0.25
 40
0.25
 40
0.25
 40
0.25
 40
0.5
 40
0.5
 40
0.5
 40
0.5
 40
1.0
 40
1.0
 40
1.0
 40
1.0
 10
-57.3183
 20
-100.8857
 30
0.0
 10
-57.1673
 20
-103.307
 30
0.0
 10
-57.1673
 20
-104.6564
 30
0.0
 10
-57.3989
 20
-106.3713
 30
0.0
 10
-57.3989
 20
-106.3713
 30
0.0
 10
-57.3989
 20
-106.3713
 30
0.0
 10
-64.0568
 20
-106.6557
 30
0.0
 10
-64.0568
 20
-106.6557
 30
0.0
 10
-64.0568
 20
-106.6557
 30
0.0
 10
-60.1164
 20
-105.2846
 30
0.0
 10
-58.4028
 20
-103.3633
 30
0.0
 10
-57.3183
 20
-100.8857
 30
0.0
  0
SPLINE
  5
4D
330
1F
100
AcDbEntity
  8
layer 1
 62
     7
100
AcDbSpline
210
0.0
220
0.0
230
1.0
 70
    11
 71
     3
 72
    20
 73
    16
 74
     0
 42
0.0000000001
 43
0.0000000001
 12
1.0
 22
0.0
 32
0.0
 13
1.0
 23
0.0
 33
0.0
 40
0.0
 40
0.0
 40
0.0
 40
0.0
 40
0.2
 40
0.2
 40
0.2
 40
0.2
 40
0.4
 40
0.4
 40
0.4
 40
0.4
 40
0.6
 40
0.6
 40
0.6
 40
0.6
 40
1.0
 40
1.0
 40
1.0
 40
1.0
 10
-57.3183
 20
-70.8524
 30
0.0
 10
-57.1673
 20
-73.273
 30
0.0
 10
-56.8177
 20
-82.1309
 30
0.0
 10
-57.0494
 20
-83.846
 30
0.0
 10
-57.0494
 20
-83.846
 30
0.0
 10
-58.134
 20
-81.0309
 30
0.0
 10
-59.9171
 20
-79.3502
 30
0.0
 10
-61.1758
 20
-77.9316
 30
0.0
 10
-61.1758
 20
-77.9316
 30
0.0
 10
-61.9776
 20
-76.3919
 30
0.0
 10
-62.492
 20
-75.1115
 30
0.0
 10
-60.7947
 20
-74.5815
 30
0.0
 10
-60.7947
 20
-74.5815
 30
0.0
 10
-58.8248
 20
-73.9665
 30
0.0
 10
-57.1673
 20
-72.5788
 30
0.0
 10
-57.3183
 20
-70.8524
 30
0.0
  0
SPLINE
  5
4E
330
1F
100
AcDbEntity
  8
layer 1
 62
     7
100
AcDbSpline
210
0.0
220
0.0
230
1.0
 70
    11
 71
     3
 72
    40
 73
    36
 74
     0
 42
0.0000000001
 43
0.0000000001
 12
1.0
 22
0.0
 32
0.0
 13
1.0
 23
0.0
 33
0.0
 40
0.0
 40
0.0
 40
0.0
 40
0.0
 40
0.1
 40
0.1
 40
0.1
 40
0.1
 40
0.2
 40
0.2
 40
0.2
 40
0.2
 40
0.3
 40
0.3
 40
0.3
 40
0.3
 40
0.4
 40
0.4
 40
0.4
 40
0.4
 40
0.5
 40
0.5
 40
0.5
 40
0.5
 40
0.6
 40
0.6
 40
0.6
 40
0.6
 40
0.7
 40
0.7
 40
0.7
 40
0.7
 40
0.8
 40
0.8
 40
0.8
 40
0.8
 40
1.0
 40
1.0
 40
1.0
 40
1.0
 10
-82.5498
 20
-106.4612
 30
0.0
 10
-86.6299
 20
-106.6129
 30
0.0
 10
-92.4321
 20
-106.4197
 30
0.0
 10
-97.4647
 20
-106.5552
 30
0.0
 10
-97.4647
 20
-106.5552
 30
0.0
 10
-90.0193
 20
-103.9227
 30
0.0
 10
-90.8133
 20
-91.9058
 30
0.0
 10
-99.6579
 20
-91.0978
 30
0.0
 10
-99.6579
 20
-91.0978
 30
0.0
 10
-94.0636
 20
-88.2504
 30
0.0
 10
-90.6181
 20
-83.7722
 30
0.0
 10
-86.2692
 20
-79.4021
 30
0.0
 10
-86.2692
 20
-79.4021
 30
0.0
 10
-80.9978
 20
-76.5107
 30
0.0
 10
-76.8335
 20
-81.431
 30
0.0
 10
-77.1064
 20
-84.317
 30
0.0
 10
-77.1064
 20
-84.317
 30
0.0
 10
-74.4585
 20
-83.907
 30
0.0
 10
-71.5592
 20
-80.3302
 30
0.0
 10
-71.8471
 20
-78.2859
 30
0.0
 10
-71.8471
 20
-78.2859
 30
0.0
 10
-66.7238
 20
-81.5988
 30
0.0
 10
-69.6982
 20
-91.8713
 30
0.0
 10
-81.0461
 20
-85.7877
 30
0.0
 10
-81.0461
 20
-85.7877
 30
0.0
 10
-79.9406
 20
-91.2761
 30
0.0
 10
-73.4708
 20
-94.2329
 30
0.0
 10
-70.8727
 20
-94.6155
 30
0.0
 10
-70.8727
 20
-94.6155
 30
0.0
 10
-78.3427
 20
-100.4618
 30
0.0
 10
-86.8166
 20
-95.262
 30
0.0
 10
-87.5117
 20
-87.7407
 30
0.0
 10
-87.5117
 20
-87.7407
 30
0.0
 10
-90.5205
 20
-90.0686
 30
0.0
 10
-90.2833
 20
-105.1175
 30
0.0
 10
-82.5498
 20
-106.4612
 30
0.0
  0
SPLINE
  5
4F
330
1F
100
AcDbEntity
  8
layer 1
 62
     7
100
AcDbSpline
210
0.0
220
0.0
230
1.0
 70
    11
 71
     3
 72
    32
 73
    28
 74
     0
 42
0.0000000001
 43
0.0000000001
 12
1.0
 22
0.0
 32
0.0
 13
1.0
 23
0.0
 33
0.0
 40
0.0
 40
0.0
 40
0.0
 40
0.0
 40
0.125
 40
0.125
 40
0.125
 40
0.125
 40
0.25
 40
0.25
 40
0.25
 40
0.25
 40
0.375
 40
0.375
 40
0.375
 40
0.375
 40
0.5
 40
0.5
 40
0.5
 40
0.5
 40
0.625
 40
0.625
 40
0.625
 40
0.625
 40
0.75
 40
0.75
 40
0.75
 40
0.75
 40
1.0
 40
1.0
 40
1.0
 40
1.0
 10
-105.6453
 20
-106.4612
 30
0.0
 10
-109.7254
 20
-106.6129
 30
0.0
 10
-131.4911
 20
-106.2724
 30
0.0
 10
-136.5238
 20
-106.4079
 30
0.0
 10
-136.5238
 20
-106.4079
 30
0.0
 10
-129.1401
 20
-102.7343
 30
0.0
 10
-131.2357
 20
-96.5354
 30
0.0
 10
-135.4547
 20
-94.546
 30
0.0
 10
-135.4547
 20
-94.546
 30
0.0
 10
-130.9619
 20
-95.7738
 30
0.0
 10
-126.4001
 20
-96.5158
 30
0.0
 10
-121.3317
 20
-96.2897
 30
0.0
 10
-121.3317
 20
-96.2897
 30
0.0
 10
-124.4213
 20
-97.3511
 30
0.0
 10
-125.3479
 20
-102.5447
 30
0.0
 10
-120.5594
 20
-104.1052
 30
0.0
 10
-120.5594
 20
-104.1052
 30
0.0
 10
-115.8777
 20
-104.9904
 30
0.0
 10
-113.1716
 20
-98.9335
 30
0.0
 10
-116.0588
 20
-95.7197
 30
0.0
 10
-116.0588
 20
-95.7197
 30
0.0
 10
-112.0112
 20
-95.5429
 30
0.0
 10
-109.514
 20
-94.7474
 30
0.0
 10
-106.6211
 20
-93.3646
 30
0.0
 10
-106.6211
 20
-93.3646
 30
0.0
 10
-111.5759
 20
-97.1743
 30
0.0
 10
-110.2125
 20
-103.5549
 30
0.0
 10
-105.6453
 20
-106.4612
 30
0.0
  0
SPLINE
  5
50
330
1F
100
AcDbEntity
  8
layer 1
 62
     7
100
AcDbSpline
210
0.0
220
0.0
230
1.0
 70
    11
 71
     3
 72
    28
 73
    24
 74
     0
 42
0.0000000001
 43
0.0000000001
 12
1.0
 22
0.0
 32
0.0
 13
1.0
 23
0.0
 33
0.0
 40
0.0
 40
0.0
 40
0.0
 40
0.0
 40
0.1428571428571428
 40
0.1428571428571428
 40
0.1428571428571428
 40
0.1428571428571428
 40
0.2857142857142857
 40
0.2857142857142857
 40
0.2857142857142857
 40
0.2857142857142857
 40
0.4285714285714285
 40
0.4285714285714285
 40
0.4285714285714285
 40
0.4285714285714285
 40
0.5714285714285714
 40
0.5714285714285714
 40
0.5714285714285714
 40
0.5714285714285714
 40
0.7142857142857143
 40
0.7142857142857143
 40
0.7142857142857143
 40
0.7142857142857143
 40
1.0
 40
1.0
 40
1.0
 40
1.0
 10
-142.0607
 20
-106.5342
 30
0.0
 10
-146.1407
 20
-106.6859
 30
0.0
 10
-149.7357
 20
-106.2724
 30
0.0
 10
-154.7685
 20
-106.4079
 30
0.0
 10
-154.7685
 20
-106.4079
 30
0.0
 10
-146.3548
 20
-103.2495
 30
0.0
 10
-151.7925
 20
-92.5172
 30
0.0
 10
-158.8816
 20
-93.9858
 30
0.0
 10
-158.8816
 20
-93.9858
 30
0.0
 10
-157.7724
 20
-90.9461
 30
0.0
 10
-157.1349
 20
-86.3822
 30
0.0
 10
-160.6737
 20
-79.5357
 30
0.0
 10
-160.6737
 20
-79.5357
 30
0.0
 10
-153.2914
 20
-86.2306
 30
0.0
 10
-146.9081
 20
-89.8263
 30
0.0
 10
-140.1891
 20
-93.4389
 30
0.0
 10
-140.1891
 20
-93.4389
 30
0.0
 10
-134.2284
 20
-97.2354
 30
0.0
 10
-143.9428
 20
-102.8401
 30
0.0
 10
-145.8325
 20
-95.6453
 30
0.0
 10
-145.8325
 20
-95.6453
 30
0.0
 10
-150.6701
 20
-100.1768
 30
0.0
 10
-146.4195
 20
-105.4306
 30
0.0
 10
-142.0607
 20
-106.5342
 30
0.0
  0
SPLINE
  5
51
330
1F
100
AcDbEntity
  8
layer 1
 62
     7
100
AcDbSpline
210
0.0
220
0.0
230
1.0
 70
    11
 71
     3
 72
    16
 73
    12
 74
     0
 42
0.0000000001
 43
0.0000000001
 12
1.0
 22
0.0
 32
0.0
 13
1.0
 23
0.0
 33
0.0
 40
0.0
 40
0.0
 40
0.0
 40
0.0
 40
0.25
 40
0.25
 40
0.25
 40
0.25
 40
0.5
 40
0.5
 40
0.5
 40
0.5
 40
1.0
 40
1.0
 40
1.0
 40
1.0
 10
-179.35
 20
-100.8857
 30
0.0
 10
-179.5017
 20
-103.307
 30
0.0
 10
-179.5016
 20
-104.6564
 30
0.0
 10
-179.27
 20
-106.3713
 30
0.0
 10
-179.27
 20
-106.3713
 30
0.0
 10
-179.27
 20
-106.3713
 30
0.0
 10
-173.8624
 20
-106.4352
 30
0.0
 10
-173.8624
 20
-106.4352
 30
0.0
 10
-173.8624
 20
-106.4352
 30
0.0
 10
-176.6999
 20
-105.2846
 30
0.0
 10
-178.2654
 20
-103.3633
 30
0.0
 10
-179.35
 20
-100.8857
 30
0.0
  0
SPLINE
  5
52
330
1F
100
AcDbEntity
  8
layer 1
 62
     7
100
AcDbSpline
210
0.0
220
0.0
230
1.0
 70
    11
 71
     3
 72
    16
 73
    12
 74
     0
 42
0.0000000001
 43
0.0000000001
 12
1.0
 22
0.0
 32
0.0
 13
1.0
 23
0.0
 33
0.0
 40
0.0
 40
0.0
 40
0.0
 40
0.0
 40
0.25
 40
0.25
 40
0.25
 40
0.25
 40
0.5
 40
0.5
 40
0.5
 40
0.5
 40
1.0
 40
1.0
 40
1.0
 40
1.0
 10
-161.0324
 20
-99.856
 30
0.0
 10
-161.6987
 20
-103.6749
 30
0.0
 10
-163.3905
 20
-105.3921
 30
0.0
 10
-165.366
 20
-106.3713
 30
0.0
 10
-165.366
 20
-106.3713
 30
0.0
 10
-165.366
 20
-106.3713
 30
0.0
 10
-157.7512
 20
-106.4352
 30
0.0
 10
-157.7512
 20
-106.4352
 30
0.0
 10
-157.7512
 20
-106.4352
 30
0.0
 10
-160.1473
 20
-104.9167
 30
0.0
 10
-161.1981
 20
-103.6573
 30
0.0
 10
-161.0324
 20
-99.856
 30
0.0
  0
SPLINE
  5
53
330
1F
100
AcDbEntity
  8
layer 1
 62
     7
100
AcDbSpline
210
0.0
220
0.0
230
1.0
 70
    11
 71
     3
 72
    24
 73
    20
 74
     0
 42
0.0000000001
 43
0.0000000001
 12
1.0
 22
0.0
 32
0.0
 13
1.0
 23
0.0
 33
0.0
 40
0.0
 40
0.0
 40
0.0
 40
0.0
 40
0.1666666666666667
 40
0.1666666666666667
 40
0.1666666666666667
 40
0.1666666666666667
 40
0.3333333333333333
 40
0.3333333333333333
 40
0.3333333333333333
 40
0.3333333333333333
 40
0.5
 40
0.5
 40
0.5
 40
0.5
 40
0.6666666666666666
 40
0.6666666666666666
 40
0.6666666666666666
 40
0.6666666666666666
 40
1.0
 40
1.0
 40
1.0
 40
1.0
 10
-179.3467
 20
-75.9602
 30
0.0
 10
-179.3467
 20
-75.9602
 30
0.0
 10
-179.4089
 20
-93.1785
 30
0.0
 10
-179.4089
 20
-93.1785
 30
0.0
 10
-179.4089
 20
-93.1785
 30
0.0
 10
-178.6355
 20
-88.5487
 30
0.0
 10
-171.5717
 20
-85.3511
 30
0.0
 10
-167.7226
 20
-87.1376
 30
0.0
 10
-167.7226
 20
-87.1376
 30
0.0
 10
-176.9471
 20
-94.6513
 30
0.0
 10
-167.2045
 20
-106.4197
 30
0.0
 10
-162.3872
 20
-94.2749
 30
0.0
 10
-162.3872
 20
-94.2749
 30
0.0
 10
-160.0848
 20
-88.4258
 30
0.0
 10
-162.5143
 20
-79.6929
 30
0.0
 10
-165.625
 20
-76.3463
 30
0.0
 10
-165.625
 20
-76.3463
 30
0.0
 10
-169.3653
 20
-85.8192
 30
0.0
 10
-179.3149
 20
-80.6519
 30
0.0
 10
-179.3467
 20
-75.9602
 30
0.0
  0
SPLINE
  5
54
330
1F
100
AcDbEntity
  8
layer 1
 62
     7
100
AcDbSpline
210
0.0
220
0.0
230
1.0
 70
    11
 71
     3
 72
    36
 73
    32
 74
     0
 42
0.0000000001
 43
0.0000000001
 12
1.0
 22
0.0
 32
0.0
 13
1.0
 23
0.0
 33
0.0
 40
0.0
 40
0.0
 40
0.0
 40
0.0
 40
0.1111111111111111
 40
0.1111111111111111
 40
0.1111111111111111
 40
0.1111111111111111
 40
0.2222222222222222
 40
0.2222222222222222
 40
0.2222222222222222
 40
0.2222222222222222
 40
0.3333333333333333
 40
0.3333333333333333
 40
0.3333333333333333
 40
0.3333333333333333
 40
0.4444444444444444
 40
0.4444444444444444
 40
0.4444444444444444
 40
0.4444444444444444
 40
0.5555555555555556
 40
0.5555555555555556
 40
0.5555555555555556
 40
0.5555555555555556
 40
0.6666666666666666
 40
0.6666666666666666
 40
0.6666666666666666
 40
0.6666666666666666
 40
0.7777777777777778
 40
0.7777777777777778
 40
0.7777777777777778
 40
0.7777777777777778
 40
1.0
 40
1.0
 40
1.0
 40
1.0
 10
-111.851
 20
-12.3454
 30
0.0
 10
-110.5312
 20
-13.9664
 30
0.0
 10
-108.5944
 20
-15.1136
 30
0.0
 10
-106.5642
 20
-16.868
 30
0.0
 10
-106.5642
 20
-16.868
 30
0.0
 10
-113.8841
 20
-16.3063
 30
0.0
 10
-121.7563
 20
-20.3021
 30
0.0
 10
-125.6989
 20
-22.4616
 30
0.0
 10
-125.6989
 20
-22.4616
 30
0.0
 10
-125.1156
 20
-17.018
 30
0.0
 10
-133.0952
 20
-14.0416
 30
0.0
 10
-135.9489
 20
-20.2403
 30
0.0
 10
-135.9489
 20
-20.2403
 30
0.0
 10
-135.5966
 20
-16.8827
 30
0.0
 10
-137.4007
 20
-12.8223
 30
0.0
 10
-139.8592
 20
-11.4995
 30
0.0
 10
-139.8592
 20
-11.4995
 30
0.0
 10
-132.481
 20
-7.5085
 30
0.0
 10
-131.793
 20
-13.8114
 30
0.0
 10
-127.2847
 20
-14.0472
 30
0.0
 10
-127.2847
 20
-14.0472
 30
0.0
 10
-123.39
 20
-14.0829
 30
0.0
 10
-120.9336
 20
-11.713
 30
0.0
 10
-120.8824
 20
-9.3676
 30
0.0
 10
-120.8824
 20
-9.3676
 30
0.0
 10
-118.9862
 20
-13.7756
 30
0.0
 10
-115.9845
 20
-13.3334
 30
0.0
 10
-114.2126
 20
-12.2241
 30
0.0
 10
-114.2126
 20
-12.2241
 30
0.0
 10
-113.3569
 20
-11.6891
 30
0.0
 10
-112.7032
 20
-11.7587
 30
0.0
 10
-111.851
 20
-12.3454
 30
0.0
  0
SPLINE
  5
55
330
1F
100
AcDbEntity
  8
layer 1
 62
     7
100
AcDbSpline
210
0.0
220
0.0
230
1.0
 70
    11
 71
     3
 72
    20
 73
    16
 74
     0
 42
0.0000000001
 43
0.0000000001
 12
1.0
 22
0.0
 32
0.0
 13
1.0
 23
0.0
 33
0.0
 40
0.0
 40
0.0
 40
0.0
 40
0.0
 40
0.2
 40
0.2
 40
0.2
 40
0.2
 40
0.4
 40
0.4
 40
0.4
 40
0.4
 40
0.6
 40
0.6
 40
0.6
 40
0.6
 40
1.0
 40
1.0
 40
1.0
 40
1.0
 10
-136.427
 20
-37.4115
 30
0.0
 10
-135.5671
 20
-33.0751
 30
0.0
 10
-140.5703
 20
-32.5213
 30
0.0
 10
-142.4544
 20
-33.4599
 30
0.0
 10
-142.4544
 20
-33.4599
 30
0.0
 10
-139.749
 20
-32.5241
 30
0.0
 10
-135.2554
 20
-27.4955
 30
0.0
 10
-135.845
 20
-22.6433
 30
0.0
 10
-135.845
 20
-22.6433
 30
0.0
 10
-134.6271
 20
-26.1962
 30
0.0
 10
-132.2774
 20
-27.6542
 30
0.0
 10
-128.5309
 20
-26.5057
 30
0.0
 10
-128.5309
 20
-26.5057
 30
0.0
 10
-132.1145
 20
-29.2548
 30
0.0
 10
-134.853
 20
-34.2153
 30
0.0
 10
-136.427
 20
-37.4115
 30
0.0
  0
SPLINE
  5
56
330
1F
100
AcDbEntity
  8
layer 1
 62
     7
100
AcDbSpline
210
0.0
220
0.0
230
1.0
 70
    11
 71
     3
 72
    28
 73
    24
 74
     0
 42
0.0000000001
 43
0.0000000001
 12
1.0
 22
0.0
 32
0.0
 13
1.0
 23
0.0
 33
0.0
 40
0.0
 40
0.0
 40
0.0
 40
0.0
 40
0.1428571428571428
 40
0.1428571428571428
 40
0.1428571428571428
 40
0.1428571428571428
 40
0.2857142857142857
 40
0.2857142857142857
 40
0.2857142857142857
 40
0.2857142857142857
 40
0.4285714285714285
 40
0.4285714285714285
 40
0.4285714285714285
 40
0.4285714285714285
 40
0.5714285714285714
 40
0.5714285714285714
 40
0.5714285714285714
 40
0.5714285714285714
 40
0.7142857142857143
 40
0.7142857142857143
 40
0.7142857142857143
 40
0.7142857142857143
 40
1.0
 40
1.0
 40
1.0
 40
1.0
 10
-98.0994
 20
-31.6347
 30
0.0
 10
-99.052
 20
-31.8993
 30
0.0
 10
-100.3415
 20
-33.0822
 30
0.0
 10
-99.7413
 20
-35.1665
 30
0.0
 10
-99.7413
 20
-35.1665
 30
0.0
 10
-103.6151
 20
-30.1695
 30
0.0
 10
-106.6849
 20
-31.1959
 30
0.0
 10
-109.5639
 20
-34.3824
 30
0.0
 10
-109.5639
 20
-34.3824
 30
0.0
 10
-111.4375
 20
-37.7731
 30
0.0
 10
-115.9704
 20
-37.2893
 30
0.0
 10
-117.2847
 20
-33.3708
 30
0.0
 10
-117.2847
 20
-33.3708
 30
0.0
 10
-111.0817
 20
-31.4423
 30
0.0
 10
-111.8454
 20
-22.2256
 30
0.0
 10
-118.7883
 20
-21.7652
 30
0.0
 10
-118.7883
 20
-21.7652
 30
0.0
 10
-114.2892
 20
-17.4104
 30
0.0
 10
-103.1517
 20
-19.068
 30
0.0
 10
-99.0309
 20
-22.385
 30
0.0
 10
-99.0309
 20
-22.385
 30
0.0
 10
-105.7274
 20
-23.1326
 30
0.0
 10
-104.8907
 20
-31.377
 30
0.0
 10
-98.0994
 20
-31.6347
 30
0.0
  0
SPLINE
  5
57
330
1F
100
AcDbEntity
  8
layer 1
 62
     7
100
AcDbSpline
210
0.0
220
0.0
230
1.0
 70
    11
 71
     3
 72
    32
 73
    28
 74
     0
 42
0.0000000001
 43
0.0000000001
 12
1.0
 22
0.0
 32
0.0
 13
1.0
 23
0.0
 33
0.0
 40
0.0
 40
0.0
 40
0.0
 40
0.0
 40
0.125
 40
0.125
 40
0.125
 40
0.125
 40
0.25
 40
0.25
 40
0.25
 40
0.25
 40
0.375
 40
0.375
 40
0.375
 40
0.375
 40
0.5
 40
0.5
 40
0.5
 40
0.5
 40
0.625
 40
0.625
 40
0.625
 40
0.625
 40
0.75
 40
0.75
 40
0.75
 40
0.75
 40
1.0
 40
1.0
 40
1.0
 40
1.0
 10
-119.3618
 20
-33.7126
 30
0.0
 10
-121.595
 20
-38.6282
 30
0.0
 10
-118.1586
 20
-40.8135
 30
0.0
 10
-115.3927
 20
-41.0396
 30
0.0
 10
-115.3927
 20
-41.0396
 30
0.0
 10
-118.961
 20
-43.3932
 30
0.0
 10
-116.518
 20
-49.3065
 30
0.0
 10
-111.9297
 20
-46.4127
 30
0.0
 10
-111.9297
 20
-46.4127
 30
0.0
 10
-113.7303
 20
-48.5376
 30
0.0
 10
-114.0484
 20
-50.1179
 30
0.0
 10
-113.9549
 20
-52.5398
 30
0.0
 10
-113.9549
 20
-52.5398
 30
0.0
 10
-116.2695
 20
-49.5429
 30
0.0
 10
-121.4785
 20
-48.4141
 30
0.0
 10
-125.3731
 20
-51.3942
 30
0.0
 10
-125.3731
 20
-51.3942
 30
0.0
 10
-119.764
 20
-42.4104
 30
0.0
 10
-130.4128
 20
-37.6873
 30
0.0
 10
-134.3034
 20
-42.7546
 30
0.0
 10
-134.3034
 20
-42.7546
 30
0.0
 10
-134.399
 20
-39.9548
 30
0.0
 10
-131.4372
 20
-33.0281
 30
0.0
 10
-125.3494
 20
-26.2201
 30
0.0
 10
-125.3494
 20
-26.2201
 30
0.0
 10
-127.1683
 20
-31.7828
 30
0.0
 10
-122.1326
 20
-34.7923
 30
0.0
 10
-119.3618
 20
-33.7126
 30
0.0
  0
SPLINE
  5
58
330
1F
100
AcDbEntity
  8
layer 1
 62
     7
100
AcDbSpline
210
0.0
220
0.0
230
1.0
 70
    11
 71
     3
 72
    20
 73
    16
 74
     0
 42
0.0000000001
 43
0.0000000001
 12
1.0
 22
0.0
 32
0.0
 13
1.0
 23
0.0
 33
0.0
 40
0.0
 40
0.0
 40
0.0
 40
0.0
 40
0.2
 40
0.2
 40
0.2
 40
0.2
 40
0.4
 40
0.4
 40
0.4
 40
0.4
 40
0.6
 40
0.6
 40
0.6
 40
0.6
 40
1.0
 40
1.0
 40
1.0
 40
1.0
 10
-129.5831
 20
-57.1119
 30
0.0
 10
-120.636
 20
-51.013
 30
0.0
 10
-116.2035
 20
-62.6945
 30
0.0
 10
-126.0723
 20
-61.9742
 30
0.0
 10
-126.0723
 20
-61.9742
 30
0.0
 10
-132.1798
 20
-61.2461
 30
0.0
 10
-136.1883
 20
-55.6982
 30
0.0
 10
-134.9122
 20
-48.669
 30
0.0
 10
-134.9122
 20
-48.669
 30
0.0
 10
-133.6934
 20
-52.2218
 30
0.0
 10
-131.3444
 20
-53.887
 30
0.0
 10
-127.5978
 20
-52.7385
 30
0.0
 10
-127.5978
 20
-52.7385
 30
0.0
 10
-129.3248
 20
-53.8048
 30
0.0
 10
-129.9432
 20
-55.6349
 30
0.0
 10
-129.5831
 20
-57.1119
 30
0.0
  0
SPLINE
  5
59
330
1F
100
AcDbEntity
  8
layer 1
 62
     7
100
AcDbSpline
210
0.0
220
0.0
230
1.0
 70
    11
 71
     3
 72
    20
 73
    16
 74
     0
 42
0.0000000001
 43
0.0000000001
 12
1.0
 22
0.0
 32
0.0
 13
1.0
 23
0.0
 33
0.0
 40
0.0
 40
0.0
 40
0.0
 40
0.0
 40
0.2
 40
0.2
 40
0.2
 40
0.2
 40
0.4
 40
0.4
 40
0.4
 40
0.4
 40
0.6
 40
0.6
 40
0.6
 40
0.6
 40
1.0
 40
1.0
 40
1.0
 40
1.0
 10
-86.0424
 20
-32.1176
 30
0.0
 10
-89.8739
 20
-31.4956
 30
0.0
 10
-91.1838
 20
-32.5879
 30
0.0
 10
-92.8203
 20
-33.7266
 30
0.0
 10
-92.8203
 20
-33.7266
 30
0.0
 10
-93.2189
 20
-32.6666
 30
0.0
 10
-94.074
 20
-31.1355
 30
0.0
 10
-96.5156
 20
-31.2085
 30
0.0
 10
-96.5156
 20
-31.2085
 30
0.0
 10
-94.3016
 20
-29.8495
 30
0.0
 10
-92.7824
 20
-27.7308
 30
0.0
 10
-93.6824
 20
-24.524
 30
0.0
 10
-93.6824
 20
-24.524
 30
0.0
 10
-89.2351
 20
-26.3871
 30
0.0
 10
-87.2315
 20
-29.1797
 30
0.0
 10
-86.0424
 20
-32.1176
 30
0.0
  0
SPLINE
  5
5A
330
1F
100
AcDbEntity
  8
layer 1
 62
     7
100
AcDbSpline
210
0.0
220
0.0
230
1.0
 70
    11
 71
     3
 72
    24
 73
    20
 74
     0
 42
0.0000000001
 43
0.0000000001
 12
1.0
 22
0.0
 32
0.0
 13
1.0
 23
0.0
 33
0.0
 40
0.0
 40
0.0
 40
0.0
 40
0.0
 40
0.1666666666666667
 40
0.1666666666666667
 40
0.1666666666666667
 40
0.1666666666666667
 40
0.3333333333333333
 40
0.3333333333333333
 40
0.3333333333333333
 40
0.3333333333333333
 40
0.5
 40
0.5
 40
0.5
 40
0.5
 40
0.6666666666666666
 40
0.6666666666666666
 40
0.6666666666666666
 40
0.6666666666666666
 40
1.0
 40
1.0
 40
1.0
 40
1.0
 10
-81.8092
 20
-53.6645
 30
0.0
 10
-84.326
 20
-43.9823
 30
0.0
 10
-91.2688
 20
-41.6488
 30
0.0
 10
-99.0555
 20
-43.2094
 30
0.0
 10
-99.0555
 20
-43.2094
 30
0.0
 10
-97.7639
 20
-41.7737
 30
0.0
 10
-96.5535
 20
-40.8527
 30
0.0
 10
-98.5726
 20
-39.4241
 30
0.0
 10
-98.5726
 20
-39.4241
 30
0.0
 10
-96.5874
 20
-40.7896
 30
0.0
 10
-92.4314
 20
-39.7514
 30
0.0
 10
-92.1112
 20
-36.3542
 30
0.0
 10
-92.1112
 20
-36.3542
 30
0.0
 10
-91.0961
 20
-35.688
 30
0.0
 10
-88.9326
 20
-35.415
 30
0.0
 10
-88.9326
 20
-35.415
 30
0.0
 10
-88.9326
 20
-35.415
 30
0.0
 10
-81.5754
 20
-34.9783
 30
0.0
 10
-80.9331
 20
-50.1628
 30
0.0
 10
-81.8092
 20
-53.6645
 30
0.0
  0
SPLINE
  5
5B
330
1F
100
AcDbEntity
  8
layer 1
 62
     7
100
AcDbSpline
210
0.0
220
0.0
230
1.0
 70
    11
 71
     3
 72
    28
 73
    24
 74
     0
 42
0.0000000001
 43
0.0000000001
 12
1.0
 22
0.0
 32
0.0
 13
1.0
 23
0.0
 33
0.0
 40
0.0
 40
0.0
 40
0.0
 40
0.0
 40
0.1428571428571428
 40
0.1428571428571428
 40
0.1428571428571428
 40
0.1428571428571428
 40
0.2857142857142857
 40
0.2857142857142857
 40
0.2857142857142857
 40
0.2857142857142857
 40
0.4285714285714285
 40
0.4285714285714285
 40
0.4285714285714285
 40
0.4285714285714285
 40
0.5714285714285714
 40
0.5714285714285714
 40
0.5714285714285714
 40
0.5714285714285714
 40
0.7142857142857143
 40
0.7142857142857143
 40
0.7142857142857143
 40
0.7142857142857143
 40
1.0
 40
1.0
 40
1.0
 40
1.0
 10
-108.8304
 20
-78.2615
 30
0.0
 10
-109.7829
 20
-77.9975
 30
0.0
 10
-111.8925
 20
-77.3432
 30
0.0
 10
-112.089
 20
-75.1839
 30
0.0
 10
-112.089
 20
-75.1839
 30
0.0
 10
-114.6352
 20
-78.5871
 30
0.0
 10
-118.5012
 20
-75.4373
 30
0.0
 10
-118.4598
 20
-72.915
 30
0.0
 10
-118.4598
 20
-72.915
 30
0.0
 10
-119.8019
 20
-72.8425
 30
0.0
 10
-122.2107
 20
-71.6
 30
0.0
 10
-124.9849
 20
-71.2708
 30
0.0
 10
-124.9849
 20
-71.2708
 30
0.0
 10
-118.2772
 20
-74.8285
 30
0.0
 10
-114.0371
 20
-87.5714
 30
0.0
 10
-128.613
 20
-91.1082
 30
0.0
 10
-128.613
 20
-91.1082
 30
0.0
 10
-122.9196
 20
-92.143
 30
0.0
 10
-117.7564
 20
-91.5476
 30
0.0
 10
-111.7766
 20
-89.8243
 30
0.0
 10
-111.7766
 20
-89.8243
 30
0.0
 10
-116.8796
 20
-89.0766
 30
0.0
 10
-117.8729
 20
-78.9768
 30
0.0
 10
-108.8304
 20
-78.2615
 30
0.0
  0
SPLINE
  5
5C
330
1F
100
AcDbEntity
  8
layer 1
 62
     7
100
AcDbSpline
210
0.0
220
0.0
230
1.0
 70
    11
 71
     3
 72
    36
 73
    32
 74
     0
 42
0.0000000001
 43
0.0000000001
 12
1.0
 22
0.0
 32
0.0
 13
1.0
 23
0.0
 33
0.0
 40
0.0
 40
0.0
 40
0.0
 40
0.0
 40
0.1111111111111111
 40
0.1111111111111111
 40
0.1111111111111111
 40
0.1111111111111111
 40
0.2222222222222222
 40
0.2222222222222222
 40
0.2222222222222222
 40
0.2222222222222222
 40
0.3333333333333333
 40
0.3333333333333333
 40
0.3333333333333333
 40
0.3333333333333333
 40
0.4444444444444444
 40
0.4444444444444444
 40
0.4444444444444444
 40
0.4444444444444444
 40
0.5555555555555556
 40
0.5555555555555556
 40
0.5555555555555556
 40
0.5555555555555556
 40
0.6666666666666666
 40
0.6666666666666666
 40
0.6666666666666666
 40
0.6666666666666666
 40
0.7777777777777778
 40
0.7777777777777778
 40
0.7777777777777778
 40
0.7777777777777778
 40
1.0
 40
1.0
 40
1.0
 40
1.0
 10
-105.5344
 20
-64.7892
 30
0.0
 10
-109.9389
 20
-65.8506
 30
0.0
 10
-111.4938
 20
-67.2996
 30
0.0
 10
-111.6903
 20
-70.1806
 30
0.0
 10
-111.6903
 20
-70.1806
 30
0.0
 10
-112.5109
 20
-64.5196
 30
0.0
 10
-117.7045
 20
-67.0061
 30
0.0
 10
-118.061
 20
-69.5285
 30
0.0
 10
-118.061
 20
-69.5285
 30
0.0
 10
-121.3949
 20
-69.7335
 30
0.0
 10
-124.9989
 20
-67.9216
 30
0.0
 10
-127.5079
 20
-65.5957
 30
0.0
 10
-127.5079
 20
-65.5957
 30
0.0
 10
-115.3716
 20
-70.6937
 30
0.0
 10
-111.0529
 20
-60.5652
 30
0.0
 10
-112.4969
 20
-55.4433
 30
0.0
 10
-112.4969
 20
-55.4433
 30
0.0
 10
-111.0872
 20
-56.8165
 30
0.0
 10
-108.6442
 20
-57.1576
 30
0.0
 10
-107.3434
 20
-56.2801
 30
0.0
 10
-107.3434
 20
-56.2801
 30
0.0
 10
-110.8022
 20
-48.7644
 30
0.0
 10
-106.7446
 20
-44.6723
 30
0.0
 10
-101.528
 20
-45.2276
 30
0.0
 10
-101.528
 20
-45.2276
 30
0.0
 10
-104.8626
 20
-49.5036
 30
0.0
 10
-103.4172
 20
-55.1443
 30
0.0
 10
-97.4373
 20
-56.8677
 30
0.0
 10
-97.4373
 20
-56.8677
 30
0.0
 10
-97.8937
 20
-58.5448
 30
0.0
 10
-99.5799
 20
-62.9387
 30
0.0
 10
-105.5344
 20
-64.7892
 30
0.0
  0
SPLINE
  5
5D
330
1F
100
AcDbEntity
  8
layer 1
 62
     7
100
AcDbSpline
210
0.0
220
0.0
230
1.0
 70
    11
 71
     3
 72
    20
 73
    16
 74
     0
 42
0.0000000001
 43
0.0000000001
 12
1.0
 22
0.0
 32
0.0
 13
1.0
 23
0.0
 33
0.0
 40
0.0
 40
0.0
 40
0.0
 40
0.0
 40
0.2
 40
0.2
 40
0.2
 40
0.2
 40
0.4
 40
0.4
 40
0.4
 40
0.4
 40
0.6
 40
0.6
 40
0.6
 40
0.6
 40
1.0
 40
1.0
 40
1.0
 40
1.0
 10
-97.3272
 20
-83.2338
 30
0.0
 10
-101.5575
 20
-86.7276
 30
0.0
 10
-103.3981
 20
-87.5547
 30
0.0
 10
-106.8941
 20
-88.826
 30
0.0
 10
-106.8941
 20
-88.826
 30
0.0
 10
-101.337
 20
-84.5795
 30
0.0
 10
-103.6566
 20
-79.8185
 30
0.0
 10
-107.1371
 20
-78.4748
 30
0.0
 10
-107.1371
 20
-78.4748
 30
0.0
 10
-104.6576
 20
-78.4432
 30
0.0
 10
-102.607
 20
-77.6521
 30
0.0
 10
-100.9846
 20
-77.2337
 30
0.0
 10
-100.9846
 20
-77.2337
 30
0.0
 10
-95.0772
 20
-76.4411
 30
0.0
 10
-94.7965
 20
-80.9964
 30
0.0
 10
-97.3272
 20
-83.2338
 30
0.0
  0
SPLINE
  5
5E
330
1F
100
AcDbEntity
  8
layer 1
 62
     7
100
AcDbSpline
210
0.0
220
0.0
230
1.0
 70
    11
 71
     3
 72
    28
 73
    24
 74
     0
 42
0.0000000001
 43
0.0000000001
 12
1.0
 22
0.0
 32
0.0
 13
1.0
 23
0.0
 33
0.0
 40
0.0
 40
0.0
 40
0.0
 40
0.0
 40
0.1428571428571428
 40
0.1428571428571428
 40
0.1428571428571428
 40
0.1428571428571428
 40
0.2857142857142857
 40
0.2857142857142857
 40
0.2857142857142857
 40
0.2857142857142857
 40
0.4285714285714285
 40
0.4285714285714285
 40
0.4285714285714285
 40
0.4285714285714285
 40
0.5714285714285714
 40
0.5714285714285714
 40
0.5714285714285714
 40
0.5714285714285714
 40
0.7142857142857143
 40
0.7142857142857143
 40
0.7142857142857143
 40
0.7142857142857143
 40
1.0
 40
1.0
 40
1.0
 40
1.0
 10
-89.7799
 20
-58.9415
 30
0.0
 10
-90.006
 20
-60.9275
 30
0.0
 10
-93.2247
 20
-61.2384
 30
0.0
 10
-95.9197
 20
-58.6789
 30
0.0
 10
-95.9197
 20
-58.6789
 30
0.0
 10
-95.233
 20
-61.6463
 30
0.0
 10
-96.1639
 20
-64.1349
 30
0.0
 10
-98.9923
 20
-65.3556
 30
0.0
 10
-98.9923
 20
-65.3556
 30
0.0
 10
-93.4766
 20
-66.1624
 30
0.0
 10
-91.5039
 20
-68.227
 30
0.0
 10
-97.4212
 20
-73.3361
 30
0.0
 10
-97.4212
 20
-73.3361
 30
0.0
 10
-93.6971
 20
-74.4138
 30
0.0
 10
-91.9189
 20
-75.5201
 30
0.0
 10
-93.3138
 20
-79.4135
 30
0.0
 10
-93.3138
 20
-79.4135
 30
0.0
 10
-85.0842
 20
-74.102
 30
0.0
 10
-82.5406
 20
-57.6105
 30
0.0
 10
-86.9052
 20
-52.664
 30
0.0
 10
-86.9052
 20
-52.664
 30
0.0
 10
-92.6146
 20
-47.4305
 30
0.0
 10
-97.5994
 20
-56.3489
 30
0.0
 10
-89.7799
 20
-58.9415
 30
0.0
  0
SPLINE
  5
5F
330
1F
100
AcDbEntity
  8
layer 1
 62
     7
100
AcDbSpline
210
0.0
220
0.0
230
1.0
 70
    11
 71
     3
 72
    32
 73
    28
 74
     0
 42
0.0000000001
 43
0.0000000001
 12
1.0
 22
0.0
 32
0.0
 13
1.0
 23
0.0
 33
0.0
 40
0.0
 40
0.0
 40
0.0
 40
0.0
 40
0.125
 40
0.125
 40
0.125
 40
0.125
 40
0.25
 40
0.25
 40
0.25
 40
0.25
 40
0.375
 40
0.375
 40
0.375
 40
0.375
 40
0.5
 40
0.5
 40
0.5
 40
0.5
 40
0.625
 40
0.625
 40
0.625
 40
0.625
 40
0.75
 40
0.75
 40
0.75
 40
0.75
 40
1.0
 40
1.0
 40
1.0
 40
1.0
 10
-80.8875
 20
-35.4235
 30
0.0
 10
-82.9226
 20
-30.7079
 30
0.0
 10
-84.3204
 20
-28.6442
 30
0.0
 10
-87.1845
 20
-25.532
 30
0.0
 10
-87.1845
 20
-25.532
 30
0.0
 10
-90.3
 20
-22.0719
 30
0.0
 10
-94.1723
 20
-22.4693
 30
0.0
 10
-96.2356
 20
-15.6464
 30
0.0
 10
-96.2356
 20
-15.6464
 30
0.0
 10
-97.6873
 20
-8.8769
 30
0.0
 10
-89.0541
 20
-9.6442
 30
0.0
 10
-92.4609
 20
-16.8455
 30
0.0
 10
-92.4609
 20
-16.8455
 30
0.0
 10
-88.0543
 20
-16.8847
 30
0.0
 10
-86.8925
 20
-12.5189
 30
0.0
 10
-88.1652
 20
-10.5294
 30
0.0
 10
-88.1652
 20
-10.5294
 30
0.0
 10
-86.7654
 20
-9.7656
 30
0.0
 10
-84.9612
 20
-10.1364
 30
0.0
 10
-84.1484
 20
-11.3725
 30
0.0
 10
-84.1484
 20
-11.3725
 30
0.0
 10
-90.7993
 20
-18.9262
 30
0.0
 10
-82.043
 20
-24.5892
 30
0.0
 10
-77.0559
 20
-20.1118
 30
0.0
 10
-77.0559
 20
-20.1118
 30
0.0
 10
-79.2055
 20
-25.4056
 30
0.0
 10
-80.4263
 20
-29.3202
 30
0.0
 10
-80.8875
 20
-35.4235
 30
0.0
  0
SPLINE
  5
60
330
1F
100
AcDbEntity
  8
layer 1
 62
     7
100
AcDbSpline
210
0.0
220
0.0
230
1.0
 70
    11
 71
     3
 72
    28
 73
    24
 74
     0
 42
0.0000000001
 43
0.0000000001
 12
1.0
 22
0.0
 32
0.0
 13
1.0
 23
0.0
 33
0.0
 40
0.0
 40
0.0
 40
0.0
 40
0.0
 40
0.1428571428571428
 40
0.1428571428571428
 40
0.1428571428571428
 40
0.1428571428571428
 40
0.2857142857142857
 40
0.2857142857142857
 40
0.2857142857142857
 40
0.2857142857142857
 40
0.4285714285714285
 40
0.4285714285714285
 40
0.4285714285714285
 40
0.4285714285714285
 40
0.5714285714285714
 40
0.5714285714285714
 40
0.5714285714285714
 40
0.5714285714285714
 40
0.7142857142857143
 40
0.7142857142857143
 40
0.7142857142857143
 40
0.7142857142857143
 40
1.0
 40
1.0
 40
1.0
 40
1.0
 10
-82.2663
 20
2.7197
 30
0.0
 10
-80.6348
 20
1.5395
 30
0.0
 10
-77.6997
 20
-1.762
 30
0.0
 10
-80.7865
 20
-4.2612
 30
0.0
 10
-80.7865
 20
-4.2612
 30
0.0
 10
-84.0607
 20
-6.9119
 30
0.0
 10
-87.9687
 20
-3.5935
 30
0.0
 10
-87.2463
 20
1.2005
 30
0.0
 10
-87.2463
 20
1.2005
 30
0.0
 10
-89.1284
 20
0.5075
 30
0.0
 10
-91.9617
 20
-1.7367
 30
0.0
 10
-90.2222
 20
-6.6656
 30
0.0
 10
-90.2222
 20
-6.6656
 30
0.0
 10
-91.4275
 20
-4.7321
 30
0.0
 10
-93.7504
 20
-3.8148
 30
0.0
 10
-96.2426
 20
-4.516
 30
0.0
 10
-96.2426
 20
-4.516
 30
0.0
 10
-91.881
 20
-1.7802
 30
0.0
 10
-94.0235
 20
3.7207
 30
0.0
 10
-97.5925
 20
3.9748
 30
0.0
 10
-97.5925
 20
3.9748
 30
0.0
 10
-94.5844
 20
5.3487
 30
0.0
 10
-87.3663
 20
6.4669
 30
0.0
 10
-82.2663
 20
2.7197
 30
0.0
  0
SPLINE
  5
61
330
1F
100
AcDbEntity
  8
layer 1
 62
     7
100
AcDbSpline
210
0.0
220
0.0
230
1.0
 70
    11
 71
     3
 72
    16
 73
    12
 74
     0
 42
0.0000000001
 43
0.0000000001
 12
1.0
 22
0.0
 32
0.0
 13
1.0
 23
0.0
 33
0.0
 40
0.0
 40
0.0
 40
0.0
 40
0.0
 40
0.25
 40
0.25
 40
0.25
 40
0.25
 40
0.5
 40
0.5
 40
0.5
 40
0.5
 40
1.0
 40
1.0
 40
1.0
 40
1.0
 10
-103.4648
 20
2.6523
 30
0.0
 10
-105.8707
 20
1.0545
 30
0.0
 10
-104.9784
 20
-5.9861
 30
0.0
 10
-98.6441
 20
-5.3957
 30
0.0
 10
-98.6441
 20
-5.3957
 30
0.0
 10
-103.9605
 20
-8.2317
 30
0.0
 10
-103.4592
 20
-14.7049
 30
0.0
 10
-100.4174
 20
-17.289
 30
0.0
 10
-100.4174
 20
-17.289
 30
0.0
 10
-114.1467
 20
-15.037
 30
0.0
 10
-111.1063
 20
0.9469
 30
0.0
 10
-103.4648
 20
2.6523
 30
0.0
  0
SPLINE
  5
62
330
1F
100
AcDbEntity
  8
layer 1
 62
     7
100
AcDbSpline
210
0.0
220
0.0
230
1.0
 70
    11
 71
     3
 72
    24
 73
    20
 74
     0
 42
0.0000000001
 43
0.0000000001
 12
1.0
 22
0.0
 32
0.0
 13
1.0
 23
0.0
 33
0.0
 40
0.0
 40
0.0
 40
0.0
 40
0.0
 40
0.1666666666666667
 40
0.1666666666666667
 40
0.1666666666666667
 40
0.1666666666666667
 40
0.3333333333333333
 40
0.3333333333333333
 40
0.3333333333333333
 40
0.3333333333333333
 40
0.5
 40
0.5
 40
0.5
 40
0.5
 40
0.6666666666666666
 40
0.6666666666666666
 40
0.6666666666666666
 40
0.6666666666666666
 40
1.0
 40
1.0
 40
1.0
 40
1.0
 10
-111.7542
 20
-10.2113
 30
0.0
 10
-112.5916
 20
-9.6728
 30
0.0
 10
-113.1337
 20
-9.3241
 30
0.0
 10
-113.759
 20
-8.999
 30
0.0
 10
-113.759
 20
-8.999
 30
0.0
 10
-114.1733
 20
-4.4935
 30
0.0
 10
-118.0028
 20
-5.103
 30
0.0
 10
-119.3219
 20
-6.0197
 30
0.0
 10
-119.3219
 20
-6.0197
 30
0.0
 10
-118.3285
 20
-3.9852
 30
0.0
 10
-118.3944
 20
-2.5005
 30
0.0
 10
-119.4432
 20
0.4887
 30
0.0
 10
-119.4432
 20
0.4887
 30
0.0
 10
-117.9719
 20
-1.3072
 30
0.0
 10
-114.6429
 20
-2.7616
 30
0.0
 10
-110.2526
 20
0.3981
 30
0.0
 10
-110.2526
 20
0.3981
 30
0.0
 10
-113.1841
 20
-3.0425
 30
0.0
 10
-113.2227
 20
-7.0419
 30
0.0
 10
-111.7542
 20
-10.2113
 30
0.0
  0
SPLINE
  5
63
330
1F
100
AcDbEntity
  8
layer 1
 62
     7
100
AcDbSpline
210
0.0
220
0.0
230
1.0
 70
    11
 71
     3
 72
    44
 73
    40
 74
     0
 42
0.0000000001
 43
0.0000000001
 12
1.0
 22
0.0
 32
0.0
 13
1.0
 23
0.0
 33
0.0
 40
0.0
 40
0.0
 40
0.0
 40
0.0
 40
0.0909090909090909
 40
0.0909090909090909
 40
0.0909090909090909
 40
0.0909090909090909
 40
0.1818181818181818
 40
0.1818181818181818
 40
0.1818181818181818
 40
0.1818181818181818
 40
0.2727272727272727
 40
0.2727272727272727
 40
0.2727272727272727
 40
0.2727272727272727
 40
0.3636363636363636
 40
0.3636363636363636
 40
0.3636363636363636
 40
0.3636363636363636
 40
0.4545454545454545
 40
0.4545454545454545
 40
0.4545454545454545
 40
0.4545454545454545
 40
0.5454545454545454
 40
0.5454545454545454
 40
0.5454545454545454
 40
0.5454545454545454
 40
0.6363636363636364
 40
0.6363636363636364
 40
0.6363636363636364
 40
0.6363636363636364
 40
0.7272727272727273
 40
0.7272727272727273
 40
0.7272727272727273
 40
0.7272727272727273
 40
0.8181818181818182
 40
0.8181818181818182
 40
0.8181818181818182
 40
0.8181818181818182
 40
1.0
 40
1.0
 40
1.0
 40
1.0
 10
-135.0518
 20
-60.3686
 30
0.0
 10
-133.5522
 20
-66.6733
 30
0.0
 10
-129.859
 20
-67.0762
 30
0.0
 10
-126.7477
 20
-74.4425
 30
0.0
 10
-126.7477
 20
-74.4425
 30
0.0
 10
-123.7081
 20
-86.1653
 30
0.0
 10
-138.0156
 20
-84.8822
 30
0.0
 10
-133.8022
 20
-75.3503
 30
0.0
 10
-133.8022
 20
-75.3503
 30
0.0
 10
-135.6738
 20
-74.6489
 30
0.0
 10
-139.3403
 20
-75.8745
 30
0.0
 10
-139.2253
 20
-80.8188
 30
0.0
 10
-139.2253
 20
-80.8188
 30
0.0
 10
-141.0899
 20
-73.5094
 30
0.0
 10
-151.9014
 20
-77.426
 30
0.0
 10
-147.8663
 20
-84.9607
 30
0.0
 10
-147.8663
 20
-84.9607
 30
0.0
 10
-153.6866
 20
-81.5826
 30
0.0
 10
-159.9036
 20
-76.0467
 30
0.0
 10
-163.328
 20
-71.9959
 30
0.0
 10
-163.328
 20
-71.9959
 30
0.0
 10
-159.3259
 20
-73.3522
 30
0.0
 10
-154.0923
 20
-69.9062
 30
0.0
 10
-155.9569
 20
-64.7373
 30
0.0
 10
-155.9569
 20
-64.7373
 30
0.0
 10
-154.6989
 20
-64.7561
 30
0.0
 10
-148.0067
 20
-70.9016
 30
0.0
 10
-152.2082
 20
-74.5766
 30
0.0
 10
-152.2082
 20
-74.5766
 30
0.0
 10
-150.5375
 20
-75.6865
 30
0.0
 10
-143.7967
 20
-73.9749
 30
0.0
 10
-147.0049
 20
-68.8405
 30
0.0
 10
-147.0049
 20
-68.8405
 30
0.0
 10
-143.5054
 20
-71.6507
 30
0.0
 10
-139.3705
 20
-67.3943
 30
0.0
 10
-142.2474
 20
-64.9745
 30
0.0
 10
-142.2474
 20
-64.9745
 30
0.0
 10
-137.3509
 20
-65.7278
 30
0.0
 10
-136.1441
 20
-63.0672
 30
0.0
 10
-135.0518
 20
-60.3686
 30
0.0
  0
SPLINE
  5
64
330
1F
100
AcDbEntity
  8
layer 1
 62
     7
100
AcDbSpline
210
0.0
220
0.0
230
1.0
 70
    11
 71
     3
 72
    28
 73
    24
 74
     0
 42
0.0000000001
 43
0.0000000001
 12
1.0
 22
0.0
 32
0.0
 13
1.0
 23
0.0
 33
0.0
 40
0.0
 40
0.0
 40
0.0
 40
0.0
 40
0.1428571428571428
 40
0.1428571428571428
 40
0.1428571428571428
 40
0.1428571428571428
 40
0.2857142857142857
 40
0.2857142857142857
 40
0.2857142857142857
 40
0.2857142857142857
 40
0.4285714285714285
 40
0.4285714285714285
 40
0.4285714285714285
 40
0.4285714285714285
 40
0.5714285714285714
 40
0.5714285714285714
 40
0.5714285714285714
 40
0.5714285714285714
 40
0.7142857142857143
 40
0.7142857142857143
 40
0.7142857142857143
 40
0.7142857142857143
 40
1.0
 40
1.0
 40
1.0
 40
1.0
 10
-157.1524
 20
-55.7375
 30
0.0
 10
-158.8294
 20
-57.2987
 30
0.0
 10
-159.2872
 20
-60.7287
 30
0.0
 10
-157.898
 20
-63.0904
 30
0.0
 10
-157.898
 20
-63.0904
 30
0.0
 10
-159.4031
 20
-61.6091
 30
0.0
 10
-166.4245
 20
-61.4624
 30
0.0
 10
-165.8117
 20
-69.0139
 30
0.0
 10
-165.8117
 20
-69.0139
 30
0.0
 10
-168.0092
 20
-66.4755
 30
0.0
 10
-171.5191
 20
-62.3027
 30
0.0
 10
-173.4916
 20
-55.6189
 30
0.0
 10
-173.4916
 20
-55.6189
 30
0.0
 10
-171.3899
 20
-59.828
 30
0.0
 10
-162.5706
 20
-59.4301
 30
0.0
 10
-163.024
 20
-46.3917
 30
0.0
 10
-163.024
 20
-46.3917
 30
0.0
 10
-161.4201
 20
-48.4878
 30
0.0
 10
-160.5572
 20
-49.4531
 30
0.0
 10
-159.3461
 20
-51.0901
 30
0.0
 10
-159.3461
 20
-51.0901
 30
0.0
 10
-160.5143
 20
-53.5232
 30
0.0
 10
-158.5369
 20
-55.5907
 30
0.0
 10
-157.1524
 20
-55.7375
 30
0.0
  0
SPLINE
  5
65
330
1F
100
AcDbEntity
  8
layer 1
 62
     7
100
AcDbSpline
210
0.0
220
0.0
230
1.0
 70
    11
 71
     3
 72
    24
 73
    20
 74
     0
 42
0.0000000001
 43
0.0000000001
 12
1.0
 22
0.0
 32
0.0
 13
1.0
 23
0.0
 33
0.0
 40
0.0
 40
0.0
 40
0.0
 40
0.0
 40
0.1666666666666667
 40
0.1666666666666667
 40
0.1666666666666667
 40
0.1666666666666667
 40
0.3333333333333333
 40
0.3333333333333333
 40
0.3333333333333333
 40
0.3333333333333333
 40
0.5
 40
0.5
 40
0.5
 40
0.5
 40
0.6666666666666666
 40
0.6666666666666666
 40
0.6666666666666666
 40
0.6666666666666666
 40
1.0
 40
1.0
 40
1.0
 40
1.0
 10
-165.3141
 20
-48.2926
 30
0.0
 10
-167.298
 20
-54.3861
 30
0.0
 10
-173.2249
 20
-51.5444
 30
0.0
 10
-170.2106
 20
-46.0827
 30
0.0
 10
-170.2106
 20
-46.0827
 30
0.0
 10
-172.2704
 20
-45.3175
 30
0.0
 10
-175.0032
 20
-48.7686
 30
0.0
 10
-174.3271
 20
-53.3261
 30
0.0
 10
-174.3271
 20
-53.3261
 30
0.0
 10
-177.6225
 20
-45.9066
 30
0.0
 10
-173.6996
 20
-33.2522
 30
0.0
 10
-172.0056
 20
-30.3121
 30
0.0
 10
-172.0056
 20
-30.3121
 30
0.0
 10
-171.1324
 20
-32.7572
 30
0.0
 10
-170.0476
 20
-36.256
 30
0.0
 10
-167.253
 20
-40.2265
 30
0.0
 10
-167.253
 20
-40.2265
 30
0.0
 10
-165.597
 20
-41.922
 30
0.0
 10
-164.4385
 20
-44.7742
 30
0.0
 10
-165.3141
 20
-48.2926
 30
0.0
  0
SPLINE
  5
66
330
1F
100
AcDbEntity
  8
layer 1
 62
     7
100
AcDbSpline
210
0.0
220
0.0
230
1.0
 70
    11
 71
     3
 72
    16
 73
    12
 74
     0
 42
0.0000000001
 43
0.0000000001
 12
1.0
 22
0.0
 32
0.0
 13
1.0
 23
0.0
 33
0.0
 40
0.0
 40
0.0
 40
0.0
 40
0.0
 40
0.25
 40
0.25
 40
0.25
 40
0.25
 40
0.5
 40
0.5
 40
0.5
 40
0.5
 40
1.0
 40
1.0
 40
1.0
 40
1.0
 10
-133.6274
 20
-90.5219
 30
0.0
 10
-135.3045
 20
-90.4034
 30
0.0
 10
-139.2048
 20
-89.0893
 30
0.0
 10
-142.0143
 20
-87.7555
 30
0.0
 10
-142.0143
 20
-87.7555
 30
0.0
 10
-139.7819
 20
-87.6767
 30
0.0
 10
-138.606
 20
-86.2095
 30
0.0
 10
-138.634
 20
-83.5237
 30
0.0
 10
-138.634
 20
-83.5237
 30
0.0
 10
-138.1224
 20
-86.2081
 30
0.0
 10
-136.1027
 20
-89.0316
 30
0.0
 10
-133.6274
 20
-90.5219
 30
0.0
  0
SPLINE
  5
67
330
1F
100
AcDbEntity
  8
layer 1
 62
     7
100
AcDbSpline
210
0.0
220
0.0
230
1.0
 70
    11
 71
     3
 72
    36
 73
    32
 74
     0
 42
0.0000000001
 43
0.0000000001
 12
1.0
 22
0.0
 32
0.0
 13
1.0
 23
0.0
 33
0.0
 40
0.0
 40
0.0
 40
0.0
 40
0.0
 40
0.1111111111111111
 40
0.1111111111111111
 40
0.1111111111111111
 40
0.1111111111111111
 40
0.2222222222222222
 40
0.2222222222222222
 40
0.2222222222222222
 40
0.2222222222222222
 40
0.3333333333333333
 40
0.3333333333333333
 40
0.3333333333333333
 40
0.3333333333333333
 40
0.4444444444444444
 40
0.4444444444444444
 40
0.4444444444444444
 40
0.4444444444444444
 40
0.5555555555555556
 40
0.5555555555555556
 40
0.5555555555555556
 40
0.5555555555555556
 40
0.6666666666666666
 40
0.6666666666666666
 40
0.6666666666666666
 40
0.6666666666666666
 40
0.7777777777777778
 40
0.7777777777777778
 40
0.7777777777777778
 40
0.7777777777777778
 40
1.0
 40
1.0
 40
1.0
 40
1.0
 10
-153.9668
 20
-53.0775
 30
0.0
 10
-152.0882
 20
-51.7662
 30
0.0
 10
-148.6379
 20
-49.8567
 30
0.0
 10
-145.026
 20
-53.3078
 30
0.0
 10
-145.026
 20
-53.3078
 30
0.0
 10
-142.715
 20
-55.5549
 30
0.0
 10
-140.9894
 20
-58.2001
 30
0.0
 10
-136.5912
 20
-57.868
 30
0.0
 10
-136.5912
 20
-57.868
 30
0.0
 10
-138.8883
 20
-54.1952
 30
0.0
 10
-139.5446
 20
-49.2579
 30
0.0
 10
-138.0318
 20
-43.5906
 30
0.0
 10
-138.0318
 20
-43.5906
 30
0.0
 10
-144.6293
 20
-46.8296
 30
0.0
 10
-149.4311
 20
-38.8492
 30
0.0
 10
-144.3542
 20
-34.8744
 30
0.0
 10
-144.3542
 20
-34.8744
 30
0.0
 10
-147.3932
 20
-35.8039
 30
0.0
 10
-149.372
 20
-35.6649
 30
0.0
 10
-152.0901
 20
-34.8843
 30
0.0
 10
-152.0901
 20
-34.8843
 30
0.0
 10
-144.3864
 20
-40.0082
 30
0.0
 10
-150.3928
 20
-53.5964
 30
0.0
 10
-161.2802
 20
-44.6156
 30
0.0
 10
-161.2802
 20
-44.6156
 30
0.0
 10
-159.5688
 20
-46.6247
 30
0.0
 10
-159.0584
 20
-48.5946
 30
0.0
 10
-157.7127
 20
-50.1234
 30
0.0
 10
-157.7127
 20
-50.1234
 30
0.0
 10
-155.0885
 20
-49.4931
 30
0.0
 10
-153.8187
 20
-51.6932
 30
0.0
 10
-153.9668
 20
-53.0775
 30
0.0
  0
SPLINE
  5
68
330
1F
100
AcDbEntity
  8
layer 1
 62
     7
100
AcDbSpline
210
0.0
220
0.0
230
1.0
 70
    11
 71
     3
 72
    48
 73
    44
 74
     0
 42
0.0000000001
 43
0.0000000001
 12
1.0
 22
0.0
 32
0.0
 13
1.0
 23
0.0
 33
0.0
 40
0.0
 40
0.0
 40
0.0
 40
0.0
 40
0.0833333333333333
 40
0.0833333333333333
 40
0.0833333333333333
 40
0.0833333333333333
 40
0.1666666666666667
 40
0.1666666666666667
 40
0.1666666666666667
 40
0.1666666666666667
 40
0.25
 40
0.25
 40
0.25
 40
0.25
 40
0.3333333333333333
 40
0.3333333333333333
 40
0.3333333333333333
 40
0.3333333333333333
 40
0.4166666666666667
 40
0.4166666666666667
 40
0.4166666666666667
 40
0.4166666666666667
 40
0.5
 40
0.5
 40
0.5
 40
0.5
 40
0.5833333333333334
 40
0.5833333333333334
 40
0.5833333333333334
 40
0.5833333333333334
 40
0.6666666666666666
 40
0.6666666666666666
 40
0.6666666666666666
 40
0.6666666666666666
 40
0.75
 40
0.75
 40
0.75
 40
0.75
 40
0.8333333333333334
 40
0.8333333333333334
 40
0.8333333333333334
 40
0.8333333333333334
 40
1.0
 40
1.0
 40
1.0
 40
1.0
 10
-152.1998
 20
-13.0881
 30
0.0
 10
-146.1555
 20
-16.988
 30
0.0
 10
-150.1379
 20
-24.5177
 30
0.0
 10
-155.4009
 20
-23.6935
 30
0.0
 10
-155.4009
 20
-23.6935
 30
0.0
 10
-152.3522
 20
-26.279
 30
0.0
 10
-148.4826
 20
-24.7479
 30
0.0
 10
-147.2373
 20
-24.0726
 30
0.0
 10
-147.2373
 20
-24.0726
 30
0.0
 10
-145.4978
 20
-30.6167
 30
0.0
 10
-158.3719
 20
-33.1384
 30
0.0
 10
-163.6945
 20
-25.7798
 30
0.0
 10
-163.6945
 20
-25.7798
 30
0.0
 10
-163.0509
 20
-31.1719
 30
0.0
 10
-159.6944
 20
-33.829
 30
0.0
 10
-155.8931
 20
-34.4189
 30
0.0
 10
-155.8931
 20
-34.4189
 30
0.0
 10
-158.1485
 20
-34.6631
 30
0.0
 10
-160.0454
 20
-36.7559
 30
0.0
 10
-159.5077
 20
-37.9548
 30
0.0
 10
-159.5077
 20
-37.9548
 30
0.0
 10
-155.6074
 20
-35.5631
 30
0.0
 10
-154.3156
 20
-38.9881
 30
0.0
 10
-155.0569
 20
-40.6654
 30
0.0
 10
-155.0569
 20
-40.6654
 30
0.0
 10
-156.4702
 20
-43.8644
 30
0.0
 10
-160.5171
 20
-43.293
 30
0.0
 10
-162.666
 20
-40.3809
 30
0.0
 10
-162.666
 20
-40.3809
 30
0.0
 10
-166.0582
 20
-35.9303
 30
0.0
 10
-167.2236
 20
-31.9653
 30
0.0
 10
-169.7395
 20
-28.0453
 30
0.0
 10
-169.7395
 20
-28.0453
 30
0.0
 10
-166.2534
 20
-21.3229
 30
0.0
 10
-165.0226
 20
-19.1901
 30
0.0
 10
-162.6807
 20
-17.2477
 30
0.0
 10
-162.6807
 20
-17.2477
 30
0.0
 10
-159.4143
 20
-14.3567
 30
0.0
 10
-154.1409
 20
-16.6586
 30
0.0
 10
-156.8808
 20
-20.6299
 30
0.0
 10
-156.8808
 20
-20.6299
 30
0.0
 10
-154.9755
 20
-20.4299
 30
0.0
 10
-150.9249
 20
-16.3513
 30
0.0
 10
-152.1998
 20
-13.0881
 30
0.0
  0
SPLINE
  5
69
330
1F
100
AcDbEntity
  8
layer 1
 62
     7
100
AcDbSpline
210
0.0
220
0.0
230
1.0
 70
    11
 71
     3
 72
    16
 73
    12
 74
     0
 42
0.0000000001
 43
0.0000000001
 12
1.0
 22
0.0
 32
0.0
 13
1.0
 23
0.0
 33
0.0
 40
0.0
 40
0.0
 40
0.0
 40
0.0
 40
0.25
 40
0.25
 40
0.25
 40
0.25
 40
0.5
 40
0.5
 40
0.5
 40
0.5
 40
1.0
 40
1.0
 40
1.0
 40
1.0
 10
-179.3467
 20
90.0595
 30
0.0
 10
-179.3467
 20
90.0595
 30
0.0
 10
-179.4089
 20
65.3374
 30
0.0
 10
-179.4089
 20
65.3374
 30
0.0
 10
-179.4089
 20
65.3374
 30
0.0
 10
-177.5691
 20
76.3449
 30
0.0
 10
-173.8421
 20
82.0059
 30
0.0
 10
-170.1838
 20
85.7485
 30
0.0
 10
-170.1838
 20
85.7485
 30
0.0
 10
-173.1562
 20
83.2079
 30
0.0
 10
-179.3149
 20
85.3678
 30
0.0
 10
-179.3467
 20
90.0595
 30
0.0
  0
SPLINE
  5
6A
330
1F
100
AcDbEntity
  8
layer 1
 62
     7
100
AcDbSpline
210
0.0
220
0.0
230
1.0
 70
    11
 71
     3
 72
    16
 73
    12
 74
     0
 42
0.0000000001
 43
0.0000000001
 12
1.0
 22
0.0
 32
0.0
 13
1.0
 23
0.0
 33
0.0
 40
0.0
 40
0.0
 40
0.0
 40
0.0
 40
0.25
 40
0.25
 40
0.25
 40
0.25
 40
0.5
 40
0.5
 40
0.5
 40
0.5
 40
1.0
 40
1.0
 40
1.0
 40
1.0
 10
-179.3467
 20
58.9781
 30
0.0
 10
-179.3467
 20
58.9781
 30
0.0
 10
-179.3094
 20
32.3984
 30
0.0
 10
-179.3094
 20
32.3984
 30
0.0
 10
-179.3094
 20
32.3984
 30
0.0
 10
-178.2548
 20
36.1598
 30
0.0
 10
-176.9765
 20
40.0174
 30
0.0
 10
-174.2289
 20
43.0859
 30
0.0
 10
-174.2289
 20
43.0859
 30
0.0
 10
-177.4932
 20
49.3604
 30
0.0
 10
-178.4415
 20
53.5009
 30
0.0
 10
-179.3467
 20
58.9781
 30
0.0
  0
SPLINE
  5
6B
330
1F
100
AcDbEntity
  8
layer 1
 62
     7
100
AcDbSpline
210
0.0
220
0.0
230
1.0
 70
    11
 71
     3
 72
    16
 73
    12
 74
     0
 42
0.0000000001
 43
0.0000000001
 12
1.0
 22
0.0
 32
0.0
 13
1.0
 23
0.0
 33
0.0
 40
0.0
 40
0.0
 40
0.0
 40
0.0
 40
0.25
 40
0.25
 40
0.25
 40
0.25
 40
0.5
 40
0.5
 40
0.5
 40
0.5
 40
1.0
 40
1.0
 40
1.0
 40
1.0
 10
-172.2744
 20
40.1199
 30
0.0
 10
-175.9622
 20
33.1884
 30
0.0
 10
-175.3716
 20
26.9558
 30
0.0
 10
-172.5988
 20
21.6837
 30
0.0
 10
-172.5988
 20
21.6837
 30
0.0
 10
-173.661
 20
26.7803
 30
0.0
 10
-168.8654
 20
29.6901
 30
0.0
 10
-163.6074
 20
28.5157
 30
0.0
 10
-163.6074
 20
28.5157
 30
0.0
 10
-167.8947
 20
32.2581
 30
0.0
 10
-169.7205
 20
35.5125
 30
0.0
 10
-172.2744
 20
40.1199
 30
0.0
  0
SPLINE
  5
6C
330
1F
100
AcDbEntity
  8
layer 1
 62
     7
100
AcDbSpline
210
0.0
220
0.0
230
1.0
 70
    11
 71
     3
 72
    28
 73
    24
 74
     0
 42
0.0000000001
 43
0.0000000001
 12
1.0
 22
0.0
 32
0.0
 13
1.0
 23
0.0
 33
0.0
 40
0.0
 40
0.0
 40
0.0
 40
0.0
 40
0.1428571428571428
 40
0.1428571428571428
 40
0.1428571428571428
 40
0.1428571428571428
 40
0.2857142857142857
 40
0.2857142857142857
 40
0.2857142857142857
 40
0.2857142857142857
 40
0.4285714285714285
 40
0.4285714285714285
 40
0.4285714285714285
 40
0.4285714285714285
 40
0.5714285714285714
 40
0.5714285714285714
 40
0.5714285714285714
 40
0.5714285714285714
 40
0.7142857142857143
 40
0.7142857142857143
 40
0.7142857142857143
 40
0.7142857142857143
 40
1.0
 40
1.0
 40
1.0
 40
1.0
 10
-126.9828
 20
13.4934
 30
0.0
 10
-124.3665
 20
13.5004
 30
0.0
 10
-122.3665
 20
13.8465
 30
0.0
 10
-120.5601
 20
15.2139
 30
0.0
 10
-120.5601
 20
15.2139
 30
0.0
 10
-121.7733
 20
12.1448
 30
0.0
 10
-120.3594
 20
9.5348
 30
0.0
 10
-118.04
 20
8.434
 30
0.0
 10
-118.04
 20
8.434
 30
0.0
 10
-120.3594
 20
7.3326
 30
0.0
 10
-121.7732
 20
4.7224
 30
0.0
 10
-120.5601
 20
1.6533
 30
0.0
 10
-120.5601
 20
1.6533
 30
0.0
 10
-122.3665
 20
3.0215
 30
0.0
 10
-124.3665
 20
3.3675
 30
0.0
 10
-126.9828
 20
3.3738
 30
0.0
 10
-126.9828
 20
3.3738
 30
0.0
 10
-131.3606
 20
3.421
 30
0.0
 10
-132.4298
 20
6.0584
 30
0.0
 10
-132.3455
 20
8.434
 30
0.0
 10
-132.3455
 20
8.434
 30
0.0
 10
-132.4648
 20
11.3445
 30
0.0
 10
-131.3606
 20
13.4463
 30
0.0
 10
-126.9828
 20
13.4934
 30
0.0
  0
SPLINE
  5
6D
330
1F
100
AcDbEntity
  8
layer 1
 62
     7
100
AcDbSpline
210
0.0
220
0.0
230
1.0
 70
    11
 71
     3
 72
    24
 73
    20
 74
     0
 42
0.0000000001
 43
0.0000000001
 12
1.0
 22
0.0
 32
0.0
 13
1.0
 23
0.0
 33
0.0
 40
0.0
 40
0.0
 40
0.0
 40
0.0
 40
0.1666666666666667
 40
0.1666666666666667
 40
0.1666666666666667
 40
0.1666666666666667
 40
0.3333333333333333
 40
0.3333333333333333
 40
0.3333333333333333
 40
0.3333333333333333
 40
0.5
 40
0.5
 40
0.5
 40
0.5
 40
0.6666666666666666
 40
0.6666666666666666
 40
0.6666666666666666
 40
0.6666666666666666
 40
1.0
 40
1.0
 40
1.0
 40
1.0
 10
-57.3183
 20
12.8104
 30
0.0
 10
-57.1673
 20
16.8896
 30
0.0
 10
-57.1673
 20
20.0725
 30
0.0
 10
-57.3989
 20
25.0183
 30
0.0
 10
-57.3989
 20
25.0183
 30
0.0
 10
-60.0133
 20
18.4691
 30
0.0
 10
-76.2873
 20
16.2971
 30
0.0
 10
-76.3567
 20
31.7737
 30
0.0
 10
-76.3567
 20
31.7737
 30
0.0
 10
-76.3419
 20
30.5501
 30
0.0
 10
-77.5094
 20
27.9906
 30
0.0
 10
-81.565
 20
28.2988
 30
0.0
 10
-81.565
 20
28.2988
 30
0.0
 10
-76.1581
 20
25.9239
 30
0.0
 10
-72.4368
 20
19.1227
 30
0.0
 10
-78.2212
 20
13.4934
 30
0.0
 10
-78.2212
 20
13.4934
 30
0.0
 10
-72.3138
 20
16.2403
 30
0.0
 10
-65.3851
 20
15.8289
 30
0.0
 10
-57.3183
 20
12.8104
 30
0.0
  0
SPLINE
  5
6E
330
1F
100
AcDbEntity
  8
layer 1
 62
     7
100
AcDbSpline
210
0.0
220
0.0
230
1.0
 70
    11
 71
     3
 72
    40
 73
    36
 74
     0
 42
0.0000000001
 43
0.0000000001
 12
1.0
 22
0.0
 32
0.0
 13
1.0
 23
0.0
 33
0.0
 40
0.0
 40
0.0
 40
0.0
 40
0.0
 40
0.1
 40
0.1
 40
0.1
 40
0.1
 40
0.2
 40
0.2
 40
0.2
 40
0.2
 40
0.3
 40
0.3
 40
0.3
 40
0.3
 40
0.4
 40
0.4
 40
0.4
 40
0.4
 40
0.5
 40
0.5
 40
0.5
 40
0.5
 40
0.6
 40
0.6
 40
0.6
 40
0.6
 40
0.7
 40
0.7
 40
0.7
 40
0.7
 40
0.8
 40
0.8
 40
0.8
 40
0.8
 40
1.0
 40
1.0
 40
1.0
 40
1.0
 10
-57.3183
 20
32.454
 30
0.0
 10
-57.1673
 20
36.5341
 30
0.0
 10
-57.1673
 20
53.948
 30
0.0
 10
-57.3989
 20
58.893
 30
0.0
 10
-57.3989
 20
58.893
 30
0.0
 10
-59.4889
 20
51.821
 30
0.0
 10
-71.0488
 20
46.3313
 30
0.0
 10
-77.5789
 20
58.4901
 30
0.0
 10
-77.5789
 20
58.4901
 30
0.0
 10
-78.0886
 20
55.6947
 30
0.0
 10
-78.6446
 20
47.6348
 30
0.0
 10
-73.8814
 20
44.3635
 30
0.0
 10
-73.8814
 20
44.3635
 30
0.0
 10
-73.2974
 20
48.815
 30
0.0
 10
-65.225
 20
49.8027
 30
0.0
 10
-64.803
 20
43.566
 30
0.0
 10
-64.803
 20
43.566
 30
0.0
 10
-64.3467
 20
36.8268
 30
0.0
 10
-72.7295
 20
36.8147
 30
0.0
 10
-73.8007
 20
41.1651
 30
0.0
 10
-73.8007
 20
41.1651
 30
0.0
 10
-74.9914
 20
34.4862
 30
0.0
 10
-72.1116
 20
30.6476
 30
0.0
 10
-69.7319
 20
27.7174
 30
0.0
 10
-69.7319
 20
27.7174
 30
0.0
 10
-66.5939
 20
24.8394
 30
0.0
 10
-63.2952
 20
26.4903
 30
0.0
 10
-63.6706
 20
29.6551
 30
0.0
 10
-63.6706
 20
29.6551
 30
0.0
 10
-63.8083
 20
30.8156
 30
0.0
 10
-64.8592
 20
33.1707
 30
0.0
 10
-66.9588
 20
34.7096
 30
0.0
 10
-66.9588
 20
34.7096
 30
0.0
 10
-63.496
 20
37.1061
 30
0.0
 10
-58.5748
 20
35.4726
 30
0.0
 10
-57.3183
 20
32.454
 30
0.0
  0
SPLINE
  5
6F
330
1F
100
AcDbEntity
  8
layer 1
 62
     7
100
AcDbSpline
210
0.0
220
0.0
230
1.0
 70
    11
 71
     3
 72
    48
 73
    44
 74
     0
 42
0.0000000001
 43
0.0000000001
 12
1.0
 22
0.0
 32
0.0
 13
1.0
 23
0.0
 33
0.0
 40
0.0
 40
0.0
 40
0.0
 40
0.0
 40
0.0833333333333333
 40
0.0833333333333333
 40
0.0833333333333333
 40
0.0833333333333333
 40
0.1666666666666667
 40
0.1666666666666667
 40
0.1666666666666667
 40
0.1666666666666667
 40
0.25
 40
0.25
 40
0.25
 40
0.25
 40
0.3333333333333333
 40
0.3333333333333333
 40
0.3333333333333333
 40
0.3333333333333333
 40
0.4166666666666667
 40
0.4166666666666667
 40
0.4166666666666667
 40
0.4166666666666667
 40
0.5
 40
0.5
 40
0.5
 40
0.5
 40
0.5833333333333334
 40
0.5833333333333334
 40
0.5833333333333334
 40
0.5833333333333334
 40
0.6666666666666666
 40
0.6666666666666666
 40
0.6666666666666666
 40
0.6666666666666666
 40
0.75
 40
0.75
 40
0.75
 40
0.75
 40
0.8333333333333334
 40
0.8333333333333334
 40
0.8333333333333334
 40
0.8333333333333334
 40
1.0
 40
1.0
 40
1.0
 40
1.0
 10
-57.3183
 20
64.7584
 30
0.0
 10
-57.1673
 20
68.8377
 30
0.0
 10
-57.1673
 20
78.9179
 30
0.0
 10
-57.3989
 20
83.8634
 30
0.0
 10
-57.3989
 20
83.8634
 30
0.0
 10
-61.9094
 20
77.6703
 30
0.0
 10
-68.3678
 20
82.4588
 30
0.0
 10
-66.8508
 20
87.3778
 30
0.0
 10
-66.8508
 20
87.3778
 30
0.0
 10
-66.7062
 20
88.8289
 30
0.0
 10
-67.4903
 20
89.5968
 30
0.0
 10
-69.9178
 20
90.2208
 30
0.0
 10
-69.9178
 20
90.2208
 30
0.0
 10
-75.704
 20
91.7079
 30
0.0
 10
-75.4603
 20
86.8961
 30
0.0
 10
-86.8335
 20
94.548
 30
0.0
 10
-86.8335
 20
94.548
 30
0.0
 10
-83.1416
 20
90.1079
 30
0.0
 10
-81.7046
 20
84.6547
 30
0.0
 10
-81.0594
 20
81.7477
 30
0.0
 10
-81.0594
 20
81.7477
 30
0.0
 10
-78.1012
 20
88.0006
 30
0.0
 10
-68.6417
 20
84.6224
 30
0.0
 10
-68.636
 20
79.3952
 30
0.0
 10
-68.636
 20
79.3952
 30
0.0
 10
-68.6318
 20
75.0715
 30
0.0
 10
-72.8853
 20
69.8317
 30
0.0
 10
-78.8579
 20
75.0084
 30
0.0
 10
-78.8579
 20
75.0084
 30
0.0
 10
-80.6967
 20
65.6948
 30
0.0
 10
-75.9243
 20
59.065
 30
0.0
 10
-70.7449
 20
56.9674
 30
0.0
 10
-70.7449
 20
56.9674
 30
0.0
 10
-67.0031
 20
56.2121
 30
0.0
 10
-65.8871
 20
60.0211
 30
0.0
 10
-66.7195
 20
61.7236
 30
0.0
 10
-66.7195
 20
61.7236
 30
0.0
 10
-67.6835
 20
63.6941
 30
0.0
 10
-71.0495
 20
65.3572
 30
0.0
 10
-74.031
 20
65.791
 30
0.0
 10
-74.031
 20
65.791
 30
0.0
 10
-70.742
 20
73.6008
 30
0.0
 10
-58.6618
 20
72.4917
 30
0.0
 10
-57.3183
 20
64.7584
 30
0.0
  0
SPLINE
  5
70
330
1F
100
AcDbEntity
  8
layer 1
 62
     7
100
AcDbSpline
210
0.0
220
0.0
230
1.0
 70
    11
 71
     3
 72
    16
 73
    12
 74
     0
 42
0.0000000001
 43
0.0000000001
 12
1.0
 22
0.0
 32
0.0
 13
1.0
 23
0.0
 33
0.0
 40
0.0
 40
0.0
 40
0.0
 40
0.0
 40
0.25
 40
0.25
 40
0.25
 40
0.25
 40
0.5
 40
0.5
 40
0.5
 40
0.5
 40
1.0
 40
1.0
 40
1.0
 40
1.0
 10
-57.3183
 20
117.7538
 30
0.0
 10
-57.1673
 20
120.1743
 30
0.0
 10
-57.1673
 20
121.5235
 30
0.0
 10
-57.3989
 20
123.2392
 30
0.0
 10
-57.3989
 20
123.2392
 30
0.0
 10
-57.3989
 20
123.2392
 30
0.0
 10
-64.0568
 20
123.5236
 30
0.0
 10
-64.0568
 20
123.5236
 30
0.0
 10
-64.0568
 20
123.5236
 30
0.0
 10
-60.1164
 20
122.152
 30
0.0
 10
-58.4028
 20
120.2312
 30
0.0
 10
-57.3183
 20
117.7538
 30
0.0
  0
SPLINE
  5
71
330
1F
100
AcDbEntity
  8
layer 1
 62
     7
100
AcDbSpline
210
0.0
220
0.0
230
1.0
 70
    11
 71
     3
 72
    20
 73
    16
 74
     0
 42
0.0000000001
 43
0.0000000001
 12
1.0
 22
0.0
 32
0.0
 13
1.0
 23
0.0
 33
0.0
 40
0.0
 40
0.0
 40
0.0
 40
0.0
 40
0.2
 40
0.2
 40
0.2
 40
0.2
 40
0.4
 40
0.4
 40
0.4
 40
0.4
 40
0.6
 40
0.6
 40
0.6
 40
0.6
 40
1.0
 40
1.0
 40
1.0
 40
1.0
 10
-57.3183
 20
87.7197
 30
0.0
 10
-57.1673
 20
90.141
 30
0.0
 10
-56.8177
 20
98.9988
 30
0.0
 10
-57.0494
 20
100.7139
 30
0.0
 10
-57.0494
 20
100.7139
 30
0.0
 10
-58.134
 20
97.8982
 30
0.0
 10
-59.9171
 20
96.2174
 30
0.0
 10
-61.1758
 20
94.7987
 30
0.0
 10
-61.1758
 20
94.7987
 30
0.0
 10
-61.9776
 20
93.2594
 30
0.0
 10
-62.492
 20
91.9788
 30
0.0
 10
-60.7947
 20
91.4494
 30
0.0
 10
-60.7947
 20
91.4494
 30
0.0
 10
-58.8248
 20
90.8339
 30
0.0
 10
-57.1673
 20
89.4459
 30
0.0
 10
-57.3183
 20
87.7197
 30
0.0
  0
SPLINE
  5
72
330
1F
100
AcDbEntity
  8
layer 1
 62
     7
100
AcDbSpline
210
0.0
220
0.0
230
1.0
 70
    11
 71
     3
 72
    40
 73
    36
 74
     0
 42
0.0000000001
 43
0.0000000001
 12
1.0
 22
0.0
 32
0.0
 13
1.0
 23
0.0
 33
0.0
 40
0.0
 40
0.0
 40
0.0
 40
0.0
 40
0.1
 40
0.1
 40
0.1
 40
0.1
 40
0.2
 40
0.2
 40
0.2
 40
0.2
 40
0.3
 40
0.3
 40
0.3
 40
0.3
 40
0.4
 40
0.4
 40
0.4
 40
0.4
 40
0.5
 40
0.5
 40
0.5
 40
0.5
 40
0.6
 40
0.6
 40
0.6
 40
0.6
 40
0.7
 40
0.7
 40
0.7
 40
0.7
 40
0.8
 40
0.8
 40
0.8
 40
0.8
 40
1.0
 40
1.0
 40
1.0
 40
1.0
 10
-82.5498
 20
123.3284
 30
0.0
 10
-86.6299
 20
123.4801
 30
0.0
 10
-92.4321
 20
123.2869
 30
0.0
 10
-97.4647
 20
123.4224
 30
0.0
 10
-97.4647
 20
123.4224
 30
0.0
 10
-90.0193
 20
120.7901
 30
0.0
 10
-90.8133
 20
108.7729
 30
0.0
 10
-99.6579
 20
107.9657
 30
0.0
 10
-99.6579
 20
107.9657
 30
0.0
 10
-94.0636
 20
105.1184
 30
0.0
 10
-90.6181
 20
100.6402
 30
0.0
 10
-86.2692
 20
96.2695
 30
0.0
 10
-86.2692
 20
96.2695
 30
0.0
 10
-80.9978
 20
93.3787
 30
0.0
 10
-76.8335
 20
98.2983
 30
0.0
 10
-77.1064
 20
101.1849
 30
0.0
 10
-77.1064
 20
101.1849
 30
0.0
 10
-74.4585
 20
100.775
 30
0.0
 10
-71.5592
 20
97.1975
 30
0.0
 10
-71.8471
 20
95.1533
 30
0.0
 10
-71.8471
 20
95.1533
 30
0.0
 10
-66.7238
 20
98.4661
 30
0.0
 10
-69.6982
 20
108.7392
 30
0.0
 10
-81.0461
 20
102.6556
 30
0.0
 10
-81.0461
 20
102.6556
 30
0.0
 10
-79.9406
 20
108.144
 30
0.0
 10
-73.4708
 20
111.1001
 30
0.0
 10
-70.8727
 20
111.4827
 30
0.0
 10
-70.8727
 20
111.4827
 30
0.0
 10
-78.3427
 20
117.329
 30
0.0
 10
-86.8166
 20
112.1293
 30
0.0
 10
-87.5117
 20
104.6086
 30
0.0
 10
-87.5117
 20
104.6086
 30
0.0
 10
-90.5205
 20
106.9366
 30
0.0
 10
-90.2833
 20
121.9847
 30
0.0
 10
-82.5498
 20
123.3284
 30
0.0
  0
SPLINE
  5
73
330
1F
100
AcDbEntity
  8
layer 1
 62
     7
100
AcDbSpline
210
0.0
220
0.0
230
1.0
 70
    11
 71
     3
 72
    32
 73
    28
 74
     0
 42
0.0000000001
 43
0.0000000001
 12
1.0
 22
0.0
 32
0.0
 13
1.0
 23
0.0
 33
0.0
 40
0.0
 40
0.0
 40
0.0
 40
0.0
 40
0.125
 40
0.125
 40
0.125
 40
0.125
 40
0.25
 40
0.25
 40
0.25
 40
0.25
 40
0.375
 40
0.375
 40
0.375
 40
0.375
 40
0.5
 40
0.5
 40
0.5
 40
0.5
 40
0.625
 40
0.625
 40
0.625
 40
0.625
 40
0.75
 40
0.75
 40
0.75
 40
0.75
 40
1.0
 40
1.0
 40
1.0
 40
1.0
 10
-105.6453
 20
123.3284
 30
0.0
 10
-109.7254
 20
123.4801
 30
0.0
 10
-131.4911
 20
123.1395
 30
0.0
 10
-136.5238
 20
123.2758
 30
0.0
 10
-136.5238
 20
123.2758
 30
0.0
 10
-129.1401
 20
119.6015
 30
0.0
 10
-131.2357
 20
113.4026
 30
0.0
 10
-135.4547
 20
111.4139
 30
0.0
 10
-135.4547
 20
111.4139
 30
0.0
 10
-130.9619
 20
112.6417
 30
0.0
 10
-126.4001
 20
113.3837
 30
0.0
 10
-121.3317
 20
113.1576
 30
0.0
 10
-121.3317
 20
113.1576
 30
0.0
 10
-124.4213
 20
114.2191
 30
0.0
 10
-125.3479
 20
119.4126
 30
0.0
 10
-120.5594
 20
120.9731
 30
0.0
 10
-120.5594
 20
120.9731
 30
0.0
 10
-115.8777
 20
121.8584
 30
0.0
 10
-113.1716
 20
115.8014
 30
0.0
 10
-116.0588
 20
112.5869
 30
0.0
 10
-116.0588
 20
112.5869
 30
0.0
 10
-112.0112
 20
112.4108
 30
0.0
 10
-109.514
 20
111.6153
 30
0.0
 10
-106.6211
 20
110.2324
 30
0.0
 10
-106.6211
 20
110.2324
 30
0.0
 10
-111.5759
 20
114.0416
 30
0.0
 10
-110.2125
 20
120.4221
 30
0.0
 10
-105.6453
 20
123.3284
 30
0.0
  0
SPLINE
  5
74
330
1F
100
AcDbEntity
  8
layer 1
 62
     7
100
AcDbSpline
210
0.0
220
0.0
230
1.0
 70
    11
 71
     3
 72
    28
 73
    24
 74
     0
 42
0.0000000001
 43
0.0000000001
 12
1.0
 22
0.0
 32
0.0
 13
1.0
 23
0.0
 33
0.0
 40
0.0
 40
0.0
 40
0.0
 40
0.0
 40
0.1428571428571428
 40
0.1428571428571428
 40
0.1428571428571428
 40
0.1428571428571428
 40
0.2857142857142857
 40
0.2857142857142857
 40
0.2857142857142857
 40
0.2857142857142857
 40
0.4285714285714285
 40
0.4285714285714285
 40
0.4285714285714285
 40
0.4285714285714285
 40
0.5714285714285714
 40
0.5714285714285714
 40
0.5714285714285714
 40
0.5714285714285714
 40
0.7142857142857143
 40
0.7142857142857143
 40
0.7142857142857143
 40
0.7142857142857143
 40
1.0
 40
1.0
 40
1.0
 40
1.0
 10
-142.0607
 20
123.4023
 30
0.0
 10
-146.1407
 20
123.5539
 30
0.0
 10
-149.7357
 20
123.1395
 30
0.0
 10
-154.7685
 20
123.2758
 30
0.0
 10
-154.7685
 20
123.2758
 30
0.0
 10
-146.3548
 20
120.1169
 30
0.0
 10
-151.7925
 20
109.3843
 30
0.0
 10
-158.8816
 20
110.853
 30
0.0
 10
-158.8816
 20
110.853
 30
0.0
 10
-157.7724
 20
107.8141
 30
0.0
 10
-157.1349
 20
103.2494
 30
0.0
 10
-160.6737
 20
96.4028
 30
0.0
 10
-160.6737
 20
96.4028
 30
0.0
 10
-153.2914
 20
103.098
 30
0.0
 10
-146.9081
 20
106.6942
 30
0.0
 10
-140.1891
 20
110.3061
 30
0.0
 10
-140.1891
 20
110.3061
 30
0.0
 10
-134.2284
 20
114.1026
 30
0.0
 10
-143.9428
 20
119.7073
 30
0.0
 10
-145.8325
 20
112.5124
 30
0.0
 10
-145.8325
 20
112.5124
 30
0.0
 10
-150.6701
 20
117.0442
 30
0.0
 10
-146.4195
 20
122.2984
 30
0.0
 10
-142.0607
 20
123.4023
 30
0.0
  0
SPLINE
  5
75
330
1F
100
AcDbEntity
  8
layer 1
 62
     7
100
AcDbSpline
210
0.0
220
0.0
230
1.0
 70
    11
 71
     3
 72
    16
 73
    12
 74
     0
 42
0.0000000001
 43
0.0000000001
 12
1.0
 22
0.0
 32
0.0
 13
1.0
 23
0.0
 33
0.0
 40
0.0
 40
0.0
 40
0.0
 40
0.0
 40
0.25
 40
0.25
 40
0.25
 40
0.25
 40
0.5
 40
0.5
 40
0.5
 40
0.5
 40
1.0
 40
1.0
 40
1.0
 40
1.0
 10
-179.35
 20
117.7538
 30
0.0
 10
-179.5017
 20
120.1743
 30
0.0
 10
-179.5016
 20
121.5235
 30
0.0
 10
-179.27
 20
123.2392
 30
0.0
 10
-179.27
 20
123.2392
 30
0.0
 10
-179.27
 20
123.2392
 30
0.0
 10
-173.8624
 20
123.3024
 30
0.0
 10
-173.8624
 20
123.3024
 30
0.0
 10
-173.8624
 20
123.3024
 30
0.0
 10
-176.6999
 20
122.152
 30
0.0
 10
-178.2654
 20
120.2312
 30
0.0
 10
-179.35
 20
117.7538
 30
0.0
  0
SPLINE
  5
76
330
1F
100
AcDbEntity
  8
layer 1
 62
     7
100
AcDbSpline
210
0.0
220
0.0
230
1.0
 70
    11
 71
     3
 72
    16
 73
    12
 74
     0
 42
0.0000000001
 43
0.0000000001
 12
1.0
 22
0.0
 32
0.0
 13
1.0
 23
0.0
 33
0.0
 40
0.0
 40
0.0
 40
0.0
 40
0.0
 40
0.25
 40
0.25
 40
0.25
 40
0.25
 40
0.5
 40
0.5
 40
0.5
 40
0.5
 40
1.0
 40
1.0
 40
1.0
 40
1.0
 10
-161.0324
 20
116.7241
 30
0.0
 10
-161.6987
 20
120.5422
 30
0.0
 10
-163.3905
 20
122.2593
 30
0.0
 10
-165.366
 20
123.2392
 30
0.0
 10
-165.366
 20
123.2392
 30
0.0
 10
-165.366
 20
123.2392
 30
0.0
 10
-157.7512
 20
123.3024
 30
0.0
 10
-157.7512
 20
123.3024
 30
0.0
 10
-157.7512
 20
123.3024
 30
0.0
 10
-160.1473
 20
121.784
 30
0.0
 10
-161.1981
 20
120.5252
 30
0.0
 10
-161.0324
 20
116.7241
 30
0.0
  0
SPLINE
  5
77
330
1F
100
AcDbEntity
  8
layer 1
 62
     7
100
AcDbSpline
210
0.0
220
0.0
230
1.0
 70
    11
 71
     3
 72
    24
 73
    20
 74
     0
 42
0.0000000001
 43
0.0000000001
 12
1.0
 22
0.0
 32
0.0
 13
1.0
 23
0.0
 33
0.0
 40
0.0
 40
0.0
 40
0.0
 40
0.0
 40
0.1666666666666667
 40
0.1666666666666667
 40
0.1666666666666667
 40
0.1666666666666667
 40
0.3333333333333333
 40
0.3333333333333333
 40
0.3333333333333333
 40
0.3333333333333333
 40
0.5
 40
0.5
 40
0.5
 40
0.5
 40
0.6666666666666666
 40
0.6666666666666666
 40
0.6666666666666666
 40
0.6666666666666666
 40
1.0
 40
1.0
 40
1.0
 40
1.0
 10
-179.3467
 20
92.8276
 30
0.0
 10
-179.3467
 20
92.8276
 30
0.0
 10
-179.4089
 20
110.0457
 30
0.0
 10
-179.4089
 20
110.0457
 30
0.0
 10
-179.4089
 20
110.0457
 30
0.0
 10
-178.6355
 20
105.4166
 30
0.0
 10
-171.5717
 20
102.2183
 30
0.0
 10
-167.7226
 20
104.0055
 30
0.0
 10
-167.7226
 20
104.0055
 30
0.0
 10
-176.9471
 20
111.5186
 30
0.0
 10
-167.2045
 20
123.2869
 30
0.0
 10
-162.3872
 20
111.1429
 30
0.0
 10
-162.3872
 20
111.1429
 30
0.0
 10
-160.0848
 20
105.2931
 30
0.0
 10
-162.5143
 20
96.5608
 30
0.0
 10
-165.625
 20
93.2143
 30
0.0
 10
-165.625
 20
93.2143
 30
0.0
 10
-169.3653
 20
102.6866
 30
0.0
 10
-179.3149
 20
97.519
 30
0.0
 10
-179.3467
 20
92.8276
 30
0.0
  0
SPLINE
  5
78
330
1F
100
AcDbEntity
  8
layer 1
 62
     7
100
AcDbSpline
210
0.0
220
0.0
230
1.0
 70
    11
 71
     3
 72
    36
 73
    32
 74
     0
 42
0.0000000001
 43
0.0000000001
 12
1.0
 22
0.0
 32
0.0
 13
1.0
 23
0.0
 33
0.0
 40
0.0
 40
0.0
 40
0.0
 40
0.0
 40
0.1111111111111111
 40
0.1111111111111111
 40
0.1111111111111111
 40
0.1111111111111111
 40
0.2222222222222222
 40
0.2222222222222222
 40
0.2222222222222222
 40
0.2222222222222222
 40
0.3333333333333333
 40
0.3333333333333333
 40
0.3333333333333333
 40
0.3333333333333333
 40
0.4444444444444444
 40
0.4444444444444444
 40
0.4444444444444444
 40
0.4444444444444444
 40
0.5555555555555556
 40
0.5555555555555556
 40
0.5555555555555556
 40
0.5555555555555556
 40
0.6666666666666666
 40
0.6666666666666666
 40
0.6666666666666666
 40
0.6666666666666666
 40
0.7777777777777778
 40
0.7777777777777778
 40
0.7777777777777778
 40
0.7777777777777778
 40
1.0
 40
1.0
 40
1.0
 40
1.0
 10
-111.851
 20
29.2136
 30
0.0
 10
-110.5312
 20
30.8344
 30
0.0
 10
-108.5944
 20
31.9808
 30
0.0
 10
-106.5642
 20
33.7351
 30
0.0
 10
-106.5642
 20
33.7351
 30
0.0
 10
-113.8841
 20
33.1743
 30
0.0
 10
-121.7563
 20
37.1693
 30
0.0
 10
-125.6989
 20
39.3295
 30
0.0
 10
-125.6989
 20
39.3295
 30
0.0
 10
-125.1156
 20
33.8855
 30
0.0
 10
-133.0952
 20
30.9088
 30
0.0
 10
-135.9489
 20
37.1082
 30
0.0
 10
-135.9489
 20
37.1082
 30
0.0
 10
-135.5966
 20
33.7499
 30
0.0
 10
-137.4007
 20
29.6901
 30
0.0
 10
-139.8592
 20
28.3674
 30
0.0
 10
-139.8592
 20
28.3674
 30
0.0
 10
-132.481
 20
24.3766
 30
0.0
 10
-131.793
 20
30.6793
 30
0.0
 10
-127.2847
 20
30.915
 30
0.0
 10
-127.2847
 20
30.915
 30
0.0
 10
-123.39
 20
30.9509
 30
0.0
 10
-120.9336
 20
28.5802
 30
0.0
 10
-120.8824
 20
26.2355
 30
0.0
 10
-120.8824
 20
26.2355
 30
0.0
 10
-118.9862
 20
30.6428
 30
0.0
 10
-115.9845
 20
30.2005
 30
0.0
 10
-114.2126
 20
29.0921
 30
0.0
 10
-114.2126
 20
29.0921
 30
0.0
 10
-113.3569
 20
28.5563
 30
0.0
 10
-112.7032
 20
28.6259
 30
0.0
 10
-111.851
 20
29.2136
 30
0.0
  0
SPLINE
  5
79
330
1F
100
AcDbEntity
  8
layer 1
 62
     7
100
AcDbSpline
210
0.0
220
0.0
230
1.0
 70
    11
 71
     3
 72
    20
 73
    16
 74
     0
 42
0.0000000001
 43
0.0000000001
 12
1.0
 22
0.0
 32
0.0
 13
1.0
 23
0.0
 33
0.0
 40
0.0
 40
0.0
 40
0.0
 40
0.0
 40
0.2
 40
0.2
 40
0.2
 40
0.2
 40
0.4
 40
0.4
 40
0.4
 40
0.4
 40
0.6
 40
0.6
 40
0.6
 40
0.6
 40
1.0
 40
1.0
 40
1.0
 40
1.0
 10
-136.427
 20
54.2787
 30
0.0
 10
-135.5671
 20
49.9431
 30
0.0
 10
-140.5703
 20
49.3884
 30
0.0
 10
-142.4544
 20
50.3278
 30
0.0
 10
-142.4544
 20
50.3278
 30
0.0
 10
-139.749
 20
49.3921
 30
0.0
 10
-135.2554
 20
44.3627
 30
0.0
 10
-135.845
 20
39.5104
 30
0.0
 10
-135.845
 20
39.5104
 30
0.0
 10
-134.6271
 20
43.0634
 30
0.0
 10
-132.2774
 20
44.5214
 30
0.0
 10
-128.5309
 20
43.3731
 30
0.0
 10
-128.5309
 20
43.3731
 30
0.0
 10
-132.1145
 20
46.1228
 30
0.0
 10
-134.853
 20
51.0831
 30
0.0
 10
-136.427
 20
54.2787
 30
0.0
  0
SPLINE
  5
7A
330
1F
100
AcDbEntity
  8
layer 1
 62
     7
100
AcDbSpline
210
0.0
220
0.0
230
1.0
 70
    11
 71
     3
 72
    28
 73
    24
 74
     0
 42
0.0000000001
 43
0.0000000001
 12
1.0
 22
0.0
 32
0.0
 13
1.0
 23
0.0
 33
0.0
 40
0.0
 40
0.0
 40
0.0
 40
0.0
 40
0.1428571428571428
 40
0.1428571428571428
 40
0.1428571428571428
 40
0.1428571428571428
 40
0.2857142857142857
 40
0.2857142857142857
 40
0.2857142857142857
 40
0.2857142857142857
 40
0.4285714285714285
 40
0.4285714285714285
 40
0.4285714285714285
 40
0.4285714285714285
 40
0.5714285714285714
 40
0.5714285714285714
 40
0.5714285714285714
 40
0.5714285714285714
 40
0.7142857142857143
 40
0.7142857142857143
 40
0.7142857142857143
 40
0.7142857142857143
 40
1.0
 40
1.0
 40
1.0
 40
1.0
 10
-98.0994
 20
48.502
 30
0.0
 10
-99.052
 20
48.7665
 30
0.0
 10
-100.3415
 20
49.95
 30
0.0
 10
-99.7413
 20
52.0344
 30
0.0
 10
-99.7413
 20
52.0344
 30
0.0
 10
-103.6151
 20
47.0375
 30
0.0
 10
-106.6849
 20
48.0631
 30
0.0
 10
-109.5639
 20
51.2496
 30
0.0
 10
-109.5639
 20
51.2496
 30
0.0
 10
-111.4375
 20
54.641
 30
0.0
 10
-115.9704
 20
54.1572
 30
0.0
 10
-117.2847
 20
50.238
 30
0.0
 10
-117.2847
 20
50.238
 30
0.0
 10
-111.0817
 20
48.3095
 30
0.0
 10
-111.8454
 20
39.0928
 30
0.0
 10
-118.7883
 20
38.6323
 30
0.0
 10
-118.7883
 20
38.6323
 30
0.0
 10
-114.2892
 20
34.2785
 30
0.0
 10
-103.1517
 20
35.936
 30
0.0
 10
-99.0309
 20
39.2522
 30
0.0
 10
-99.0309
 20
39.2522
 30
0.0
 10
-105.7274
 20
40.0006
 30
0.0
 10
-104.8907
 20
48.2449
 30
0.0
 10
-98.0994
 20
48.502
 30
0.0
  0
SPLINE
  5
7B
330
1F
100
AcDbEntity
  8
layer 1
 62
     7
100
AcDbSpline
210
0.0
220
0.0
230
1.0
 70
    11
 71
     3
 72
    32
 73
    28
 74
     0
 42
0.0000000001
 43
0.0000000001
 12
1.0
 22
0.0
 32
0.0
 13
1.0
 23
0.0
 33
0.0
 40
0.0
 40
0.0
 40
0.0
 40
0.0
 40
0.125
 40
0.125
 40
0.125
 40
0.125
 40
0.25
 40
0.25
 40
0.25
 40
0.25
 40
0.375
 40
0.375
 40
0.375
 40
0.375
 40
0.5
 40
0.5
 40
0.5
 40
0.5
 40
0.625
 40
0.625
 40
0.625
 40
0.625
 40
0.75
 40
0.75
 40
0.75
 40
0.75
 40
1.0
 40
1.0
 40
1.0
 40
1.0
 10
-119.3618
 20
50.5806
 30
0.0
 10
-121.595
 20
55.4961
 30
0.0
 10
-118.1586
 20
57.6814
 30
0.0
 10
-115.3927
 20
57.9068
 30
0.0
 10
-115.3927
 20
57.9068
 30
0.0
 10
-118.961
 20
60.2612
 30
0.0
 10
-116.518
 20
66.1736
 30
0.0
 10
-111.9297
 20
63.2806
 30
0.0
 10
-111.9297
 20
63.2806
 30
0.0
 10
-113.7303
 20
65.4048
 30
0.0
 10
-114.0484
 20
66.985
 30
0.0
 10
-113.9549
 20
69.407
 30
0.0
 10
-113.9549
 20
69.407
 30
0.0
 10
-116.2695
 20
66.4102
 30
0.0
 10
-121.4785
 20
65.2821
 30
0.0
 10
-125.3731
 20
68.2621
 30
0.0
 10
-125.3731
 20
68.2621
 30
0.0
 10
-119.764
 20
59.2784
 30
0.0
 10
-130.4128
 20
54.5553
 30
0.0
 10
-134.3034
 20
59.6218
 30
0.0
 10
-134.3034
 20
59.6218
 30
0.0
 10
-134.399
 20
56.8223
 30
0.0
 10
-131.4372
 20
49.896
 30
0.0
 10
-125.3494
 20
43.0873
 30
0.0
 10
-125.3494
 20
43.0873
 30
0.0
 10
-127.1683
 20
48.6501
 30
0.0
 10
-122.1326
 20
51.6602
 30
0.0
 10
-119.3618
 20
50.5806
 30
0.0
  0
SPLINE
  5
7C
330
1F
100
AcDbEntity
  8
layer 1
 62
     7
100
AcDbSpline
210
0.0
220
0.0
230
1.0
 70
    11
 71
     3
 72
    20
 73
    16
 74
     0
 42
0.0000000001
 43
0.0000000001
 12
1.0
 22
0.0
 32
0.0
 13
1.0
 23
0.0
 33
0.0
 40
0.0
 40
0.0
 40
0.0
 40
0.0
 40
0.2
 40
0.2
 40
0.2
 40
0.2
 40
0.4
 40
0.4
 40
0.4
 40
0.4
 40
0.6
 40
0.6
 40
0.6
 40
0.6
 40
1.0
 40
1.0
 40
1.0
 40
1.0
 10
-129.5831
 20
73.98
 30
0.0
 10
-120.636
 20
67.8809
 30
0.0
 10
-116.2035
 20
79.5616
 30
0.0
 10
-126.0723
 20
78.842
 30
0.0
 10
-126.0723
 20
78.842
 30
0.0
 10
-132.1798
 20
78.1134
 30
0.0
 10
-136.1883
 20
72.566
 30
0.0
 10
-134.9122
 20
65.5362
 30
0.0
 10
-134.9122
 20
65.5362
 30
0.0
 10
-133.6934
 20
69.0889
 30
0.0
 10
-131.3444
 20
70.7549
 30
0.0
 10
-127.5978
 20
69.6063
 30
0.0
 10
-127.5978
 20
69.6063
 30
0.0
 10
-129.3248
 20
70.6721
 30
0.0
 10
-129.9432
 20
72.5023
 30
0.0
 10
-129.5831
 20
73.98
 30
0.0
  0
SPLINE
  5
7D
330
1F
100
AcDbEntity
  8
layer 1
 62
     7
100
AcDbSpline
210
0.0
220
0.0
230
1.0
 70
    11
 71
     3
 72
    20
 73
    16
 74
     0
 42
0.0000000001
 43
0.0000000001
 12
1.0
 22
0.0
 32
0.0
 13
1.0
 23
0.0
 33
0.0
 40
0.0
 40
0.0
 40
0.0
 40
0.0
 40
0.2
 40
0.2
 40
0.2
 40
0.2
 40
0.4
 40
0.4
 40
0.4
 40
0.4
 40
0.6
 40
0.6
 40
0.6
 40
0.6
 40
1.0
 40
1.0
 40
1.0
 40
1.0
 10
-86.0424
 20
48.9849
 30
0.0
 10
-89.8739
 20
48.3629
 30
0.0
 10
-91.1838
 20
49.4558
 30
0.0
 10
-92.8203
 20
50.5945
 30
0.0
 10
-92.8203
 20
50.5945
 30
0.0
 10
-93.2189
 20
49.5339
 30
0.0
 10
-94.074
 20
48.0026
 30
0.0
 10
-96.5156
 20
48.0764
 30
0.0
 10
-96.5156
 20
48.0764
 30
0.0
 10
-94.3016
 20
46.7166
 30
0.0
 10
-92.7824
 20
44.598
 30
0.0
 10
-93.6824
 20
41.3919
 30
0.0
 10
-93.6824
 20
41.3919
 30
0.0
 10
-89.2351
 20
43.255
 30
0.0
 10
-87.2315
 20
46.0476
 30
0.0
 10
-86.0424
 20
48.9849
 30
0.0
  0
SPLINE
  5
7E
330
1F
100
AcDbEntity
  8
layer 1
 62
     7
100
AcDbSpline
210
0.0
220
0.0
230
1.0
 70
    11
 71
     3
 72
    24
 73
    20
 74
     0
 42
0.0000000001
 43
0.0000000001
 12
1.0
 22
0.0
 32
0.0
 13
1.0
 23
0.0
 33
0.0
 40
0.0
 40
0.0
 40
0.0
 40
0.0
 40
0.1666666666666667
 40
0.1666666666666667
 40
0.1666666666666667
 40
0.1666666666666667
 40
0.3333333333333333
 40
0.3333333333333333
 40
0.3333333333333333
 40
0.3333333333333333
 40
0.5
 40
0.5
 40
0.5
 40
0.5
 40
0.6666666666666666
 40
0.6666666666666666
 40
0.6666666666666666
 40
0.6666666666666666
 40
1.0
 40
1.0
 40
1.0
 40
1.0
 10
-81.8092
 20
70.5318
 30
0.0
 10
-84.326
 20
60.8503
 30
0.0
 10
-91.2688
 20
58.516
 30
0.0
 10
-99.0555
 20
60.0773
 30
0.0
 10
-99.0555
 20
60.0773
 30
0.0
 10
-97.7639
 20
58.6412
 30
0.0
 10
-96.5535
 20
57.72
 30
0.0
 10
-98.5726
 20
56.2913
 30
0.0
 10
-98.5726
 20
56.2913
 30
0.0
 10
-96.5874
 20
57.6568
 30
0.0
 10
-92.4314
 20
56.6185
 30
0.0
 10
-92.1112
 20
53.2214
 30
0.0
 10
-92.1112
 20
53.2214
 30
0.0
 10
-91.0961
 20
52.556
 30
0.0
 10
-88.9326
 20
52.283
 30
0.0
 10
-88.9326
 20
52.283
 30
0.0
 10
-88.9326
 20
52.283
 30
0.0
 10
-81.5754
 20
51.8455
 30
0.0
 10
-80.9331
 20
67.0307
 30
0.0
 10
-81.8092
 20
70.5318
 30
0.0
  0
SPLINE
  5
7F
330
1F
100
AcDbEntity
  8
layer 1
 62
     7
100
AcDbSpline
210
0.0
220
0.0
230
1.0
 70
    11
 71
     3
 72
    28
 73
    24
 74
     0
 42
0.0000000001
 43
0.0000000001
 12
1.0
 22
0.0
 32
0.0
 13
1.0
 23
0.0
 33
0.0
 40
0.0
 40
0.0
 40
0.0
 40
0.0
 40
0.1428571428571428
 40
0.1428571428571428
 40
0.1428571428571428
 40
0.1428571428571428
 40
0.2857142857142857
 40
0.2857142857142857
 40
0.2857142857142857
 40
0.2857142857142857
 40
0.4285714285714285
 40
0.4285714285714285
 40
0.4285714285714285
 40
0.4285714285714285
 40
0.5714285714285714
 40
0.5714285714285714
 40
0.5714285714285714
 40
0.5714285714285714
 40
0.7142857142857143
 40
0.7142857142857143
 40
0.7142857142857143
 40
0.7142857142857143
 40
1.0
 40
1.0
 40
1.0
 40
1.0
 10
-108.8304
 20
95.1296
 30
0.0
 10
-109.7829
 20
94.8647
 30
0.0
 10
-111.8925
 20
94.2103
 30
0.0
 10
-112.089
 20
92.0518
 30
0.0
 10
-112.089
 20
92.0518
 30
0.0
 10
-114.6352
 20
95.4551
 30
0.0
 10
-118.5012
 20
92.3044
 30
0.0
 10
-118.4598
 20
89.7822
 30
0.0
 10
-118.4598
 20
89.7822
 30
0.0
 10
-119.8019
 20
89.7105
 30
0.0
 10
-122.2107
 20
88.4679
 30
0.0
 10
-124.9849
 20
88.1379
 30
0.0
 10
-124.9849
 20
88.1379
 30
0.0
 10
-118.2772
 20
91.6965
 30
0.0
 10
-114.0371
 20
104.4388
 30
0.0
 10
-128.613
 20
107.9761
 30
0.0
 10
-128.613
 20
107.9761
 30
0.0
 10
-122.9196
 20
109.0103
 30
0.0
 10
-117.7564
 20
108.4155
 30
0.0
 10
-111.7766
 20
106.6922
 30
0.0
 10
-111.7766
 20
106.6922
 30
0.0
 10
-116.8796
 20
105.9445
 30
0.0
 10
-117.8729
 20
95.8439
 30
0.0
 10
-108.8304
 20
95.1296
 30
0.0
  0
SPLINE
  5
80
330
1F
100
AcDbEntity
  8
layer 1
 62
     7
100
AcDbSpline
210
0.0
220
0.0
230
1.0
 70
    11
 71
     3
 72
    36
 73
    32
 74
     0
 42
0.0000000001
 43
0.0000000001
 12
1.0
 22
0.0
 32
0.0
 13
1.0
 23
0.0
 33
0.0
 40
0.0
 40
0.0
 40
0.0
 40
0.0
 40
0.1111111111111111
 40
0.1111111111111111
 40
0.1111111111111111
 40
0.1111111111111111
 40
0.2222222222222222
 40
0.2222222222222222
 40
0.2222222222222222
 40
0.2222222222222222
 40
0.3333333333333333
 40
0.3333333333333333
 40
0.3333333333333333
 40
0.3333333333333333
 40
0.4444444444444444
 40
0.4444444444444444
 40
0.4444444444444444
 40
0.4444444444444444
 40
0.5555555555555556
 40
0.5555555555555556
 40
0.5555555555555556
 40
0.5555555555555556
 40
0.6666666666666666
 40
0.6666666666666666
 40
0.6666666666666666
 40
0.6666666666666666
 40
0.7777777777777778
 40
0.7777777777777778
 40
0.7777777777777778
 40
0.7777777777777778
 40
1.0
 40
1.0
 40
1.0
 40
1.0
 10
-105.5344
 20
81.6572
 30
0.0
 10
-109.9389
 20
82.7178
 30
0.0
 10
-111.4938
 20
84.1668
 30
0.0
 10
-111.6903
 20
87.0478
 30
0.0
 10
-111.6903
 20
87.0478
 30
0.0
 10
-112.5109
 20
81.3877
 30
0.0
 10
-117.7045
 20
83.8733
 30
0.0
 10
-118.061
 20
86.3956
 30
0.0
 10
-118.061
 20
86.3956
 30
0.0
 10
-121.3949
 20
86.6009
 30
0.0
 10
-124.9989
 20
84.7895
 30
0.0
 10
-127.5079
 20
82.4636
 30
0.0
 10
-127.5079
 20
82.4636
 30
0.0
 10
-115.3716
 20
87.5616
 30
0.0
 10
-111.0529
 20
77.4331
 30
0.0
 10
-112.4969
 20
72.3105
 30
0.0
 10
-112.4969
 20
72.3105
 30
0.0
 10
-111.0872
 20
73.6844
 30
0.0
 10
-108.6442
 20
74.0248
 30
0.0
 10
-107.3434
 20
73.148
 30
0.0
 10
-107.3434
 20
73.148
 30
0.0
 10
-110.8022
 20
65.6317
 30
0.0
 10
-106.7446
 20
61.5402
 30
0.0
 10
-101.528
 20
62.0948
 30
0.0
 10
-101.528
 20
62.0948
 30
0.0
 10
-104.8626
 20
66.3708
 30
0.0
 10
-103.4172
 20
72.0115
 30
0.0
 10
-97.4373
 20
73.7349
 30
0.0
 10
-97.4373
 20
73.7349
 30
0.0
 10
-97.8937
 20
75.4121
 30
0.0
 10
-99.5799
 20
79.8066
 30
0.0
 10
-105.5344
 20
81.6572
 30
0.0
  0
SPLINE
  5
81
330
1F
100
AcDbEntity
  8
layer 1
 62
     7
100
AcDbSpline
210
0.0
220
0.0
230
1.0
 70
    11
 71
     3
 72
    20
 73
    16
 74
     0
 42
0.0000000001
 43
0.0000000001
 12
1.0
 22
0.0
 32
0.0
 13
1.0
 23
0.0
 33
0.0
 40
0.0
 40
0.0
 40
0.0
 40
0.0
 40
0.2
 40
0.2
 40
0.2
 40
0.2
 40
0.4
 40
0.4
 40
0.4
 40
0.4
 40
0.6
 40
0.6
 40
0.6
 40
0.6
 40
1.0
 40
1.0
 40
1.0
 40
1.0
 10
-97.3272
 20
100.1017
 30
0.0
 10
-101.5575
 20
103.595
 30
0.0
 10
-103.3981
 20
104.4226
 30
0.0
 10
-106.8941
 20
105.6939
 30
0.0
 10
-106.8941
 20
105.6939
 30
0.0
 10
-101.337
 20
101.4468
 30
0.0
 10
-103.6566
 20
96.6864
 30
0.0
 10
-107.1371
 20
95.342
 30
0.0
 10
-107.1371
 20
95.342
 30
0.0
 10
-104.6576
 20
95.3107
 30
0.0
 10
-102.607
 20
94.5193
 30
0.0
 10
-100.9846
 20
94.1016
 30
0.0
 10
-100.9846
 20
94.1016
 30
0.0
 10
-95.0772
 20
93.3091
 30
0.0
 10
-94.7965
 20
97.8637
 30
0.0
 10
-97.3272
 20
100.1017
 30
0.0
  0
SPLINE
  5
82
330
1F
100
AcDbEntity
  8
layer 1
 62
     7
100
AcDbSpline
210
0.0
220
0.0
230
1.0
 70
    11
 71
     3
 72
    28
 73
    24
 74
     0
 42
0.0000000001
 43
0.0000000001
 12
1.0
 22
0.0
 32
0.0
 13
1.0
 23
0.0
 33
0.0
 40
0.0
 40
0.0
 40
0.0
 40
0.0
 40
0.1428571428571428
 40
0.1428571428571428
 40
0.1428571428571428
 40
0.1428571428571428
 40
0.2857142857142857
 40
0.2857142857142857
 40
0.2857142857142857
 40
0.2857142857142857
 40
0.4285714285714285
 40
0.4285714285714285
 40
0.4285714285714285
 40
0.4285714285714285
 40
0.5714285714285714
 40
0.5714285714285714
 40
0.5714285714285714
 40
0.5714285714285714
 40
0.7142857142857143
 40
0.7142857142857143
 40
0.7142857142857143
 40
0.7142857142857143
 40
1.0
 40
1.0
 40
1.0
 40
1.0
 10
-89.7799
 20
75.8094
 30
0.0
 10
-90.006
 20
77.7955
 30
0.0
 10
-93.2247
 20
78.1055
 30
0.0
 10
-95.9197
 20
75.5468
 30
0.0
 10
-95.9197
 20
75.5468
 30
0.0
 10
-95.233
 20
78.5136
 30
0.0
 10
-96.1639
 20
81.002
 30
0.0
 10
-98.9923
 20
82.2236
 30
0.0
 10
-98.9923
 20
82.2236
 30
0.0
 10
-93.4766
 20
83.0304
 30
0.0
 10
-91.5039
 20
85.0949
 30
0.0
 10
-97.4212
 20
90.2034
 30
0.0
 10
-97.4212
 20
90.2034
 30
0.0
 10
-93.6971
 20
91.2811
 30
0.0
 10
-91.9189
 20
92.388
 30
0.0
 10
-93.3138
 20
96.2806
 30
0.0
 10
-93.3138
 20
96.2806
 30
0.0
 10
-85.0842
 20
90.97
 30
0.0
 10
-82.5406
 20
74.4784
 30
0.0
 10
-86.9052
 20
69.5319
 30
0.0
 10
-86.9052
 20
69.5319
 30
0.0
 10
-92.6146
 20
64.2978
 30
0.0
 10
-97.5994
 20
73.2168
 30
0.0
 10
-89.7799
 20
75.8094
 30
0.0
  0
SPLINE
  5
83
330
1F
100
AcDbEntity
  8
layer 1
 62
     7
100
AcDbSpline
210
0.0
220
0.0
230
1.0
 70
    11
 71
     3
 72
    32
 73
    28
 74
     0
 42
0.0000000001
 43
0.0000000001
 12
1.0
 22
0.0
 32
0.0
 13
1.0
 23
0.0
 33
0.0
 40
0.0
 40
0.0
 40
0.0
 40
0.0
 40
0.125
 40
0.125
 40
0.125
 40
0.125
 40
0.25
 40
0.25
 40
0.25
 40
0.25
 40
0.375
 40
0.375
 40
0.375
 40
0.375
 40
0.5
 40
0.5
 40
0.5
 40
0.5
 40
0.625
 40
0.625
 40
0.625
 40
0.625
 40
0.75
 40
0.75
 40
0.75
 40
0.75
 40
1.0
 40
1.0
 40
1.0
 40
1.0
 10
-80.8875
 20
52.2907
 30
0.0
 10
-82.9226
 20
47.5759
 30
0.0
 10
-84.3204
 20
45.512
 30
0.0
 10
-87.1845
 20
42.4001
 30
0.0
 10
-87.1845
 20
42.4001
 30
0.0
 10
-90.3
 20
38.9392
 30
0.0
 10
-94.1723
 20
39.3372
 30
0.0
 10
-96.2356
 20
32.5136
 30
0.0
 10
-96.2356
 20
32.5136
 30
0.0
 10
-97.6873
 20
25.7449
 30
0.0
 10
-89.0541
 20
26.5121
 30
0.0
 10
-92.4609
 20
33.7127
 30
0.0
 10
-92.4609
 20
33.7127
 30
0.0
 10
-88.0543
 20
33.7519
 30
0.0
 10
-86.8925
 20
29.386
 30
0.0
 10
-88.1652
 20
27.3973
 30
0.0
 10
-88.1652
 20
27.3973
 30
0.0
 10
-86.7654
 20
26.6329
 30
0.0
 10
-84.9612
 20
27.0043
 30
0.0
 10
-84.1484
 20
28.2404
 30
0.0
 10
-84.1484
 20
28.2404
 30
0.0
 10
-90.7993
 20
35.7941
 30
0.0
 10
-82.043
 20
41.4566
 30
0.0
 10
-77.0559
 20
36.979
 30
0.0
 10
-77.0559
 20
36.979
 30
0.0
 10
-79.2055
 20
42.2736
 30
0.0
 10
-80.4263
 20
46.1881
 30
0.0
 10
-80.8875
 20
52.2907
 30
0.0
  0
SPLINE
  5
84
330
1F
100
AcDbEntity
  8
layer 1
 62
     7
100
AcDbSpline
210
0.0
220
0.0
230
1.0
 70
    11
 71
     3
 72
    28
 73
    24
 74
     0
 42
0.0000000001
 43
0.0000000001
 12
1.0
 22
0.0
 32
0.0
 13
1.0
 23
0.0
 33
0.0
 40
0.0
 40
0.0
 40
0.0
 40
0.0
 40
0.1428571428571428
 40
0.1428571428571428
 40
0.1428571428571428
 40
0.1428571428571428
 40
0.2857142857142857
 40
0.2857142857142857
 40
0.2857142857142857
 40
0.2857142857142857
 40
0.4285714285714285
 40
0.4285714285714285
 40
0.4285714285714285
 40
0.4285714285714285
 40
0.5714285714285714
 40
0.5714285714285714
 40
0.5714285714285714
 40
0.5714285714285714
 40
0.7142857142857143
 40
0.7142857142857143
 40
0.7142857142857143
 40
0.7142857142857143
 40
1.0
 40
1.0
 40
1.0
 40
1.0
 10
-82.2663
 20
14.1476
 30
0.0
 10
-80.6348
 20
15.3277
 30
0.0
 10
-77.6997
 20
18.63
 30
0.0
 10
-80.7865
 20
21.1283
 30
0.0
 10
-80.7865
 20
21.1283
 30
0.0
 10
-84.0607
 20
23.7791
 30
0.0
 10
-87.9687
 20
20.4607
 30
0.0
 10
-87.2463
 20
15.6668
 30
0.0
 10
-87.2463
 20
15.6668
 30
0.0
 10
-89.1284
 20
16.3597
 30
0.0
 10
-91.9617
 20
18.6046
 30
0.0
 10
-90.2222
 20
23.5327
 30
0.0
 10
-90.2222
 20
23.5327
 30
0.0
 10
-91.4275
 20
21.5995
 30
0.0
 10
-93.7504
 20
20.6819
 30
0.0
 10
-96.2426
 20
21.3839
 30
0.0
 10
-96.2426
 20
21.3839
 30
0.0
 10
-91.881
 20
18.6476
 30
0.0
 10
-94.0235
 20
13.1465
 30
0.0
 10
-97.5925
 20
12.8924
 30
0.0
 10
-97.5925
 20
12.8924
 30
0.0
 10
-94.5844
 20
11.5192
 30
0.0
 10
-87.3663
 20
10.401
 30
0.0
 10
-82.2663
 20
14.1476
 30
0.0
  0
SPLINE
  5
85
330
1F
100
AcDbEntity
  8
layer 1
 62
     7
100
AcDbSpline
210
0.0
220
0.0
230
1.0
 70
    11
 71
     3
 72
    16
 73
    12
 74
     0
 42
0.0000000001
 43
0.0000000001
 12
1.0
 22
0.0
 32
0.0
 13
1.0
 23
0.0
 33
0.0
 40
0.0
 40
0.0
 40
0.0
 40
0.0
 40
0.25
 40
0.25
 40
0.25
 40
0.25
 40
0.5
 40
0.5
 40
0.5
 40
0.5
 40
1.0
 40
1.0
 40
1.0
 40
1.0
 10
-103.4648
 20
14.215
 30
0.0
 10
-105.8707
 20
15.8128
 30
0.0
 10
-104.9784
 20
22.8533
 30
0.0
 10
-98.6441
 20
22.2636
 30
0.0
 10
-98.6441
 20
22.2636
 30
0.0
 10
-103.9605
 20
25.0997
 30
0.0
 10
-103.4592
 20
31.5728
 30
0.0
 10
-100.4174
 20
34.1569
 30
0.0
 10
-100.4174
 20
34.1569
 30
0.0
 10
-114.1467
 20
31.905
 30
0.0
 10
-111.1063
 20
15.9209
 30
0.0
 10
-103.4648
 20
14.215
 30
0.0
  0
SPLINE
  5
86
330
1F
100
AcDbEntity
  8
layer 1
 62
     7
100
AcDbSpline
210
0.0
220
0.0
230
1.0
 70
    11
 71
     3
 72
    24
 73
    20
 74
     0
 42
0.0000000001
 43
0.0000000001
 12
1.0
 22
0.0
 32
0.0
 13
1.0
 23
0.0
 33
0.0
 40
0.0
 40
0.0
 40
0.0
 40
0.0
 40
0.1666666666666667
 40
0.1666666666666667
 40
0.1666666666666667
 40
0.1666666666666667
 40
0.3333333333333333
 40
0.3333333333333333
 40
0.3333333333333333
 40
0.3333333333333333
 40
0.5
 40
0.5
 40
0.5
 40
0.5
 40
0.6666666666666666
 40
0.6666666666666666
 40
0.6666666666666666
 40
0.6666666666666666
 40
1.0
 40
1.0
 40
1.0
 40
1.0
 10
-111.7542
 20
27.0794
 30
0.0
 10
-112.5916
 20
26.5403
 30
0.0
 10
-113.1337
 20
26.192
 30
0.0
 10
-113.759
 20
25.8664
 30
0.0
 10
-113.759
 20
25.8664
 30
0.0
 10
-114.1733
 20
21.3615
 30
0.0
 10
-118.0028
 20
21.9701
 30
0.0
 10
-119.3219
 20
22.8876
 30
0.0
 10
-119.3219
 20
22.8876
 30
0.0
 10
-118.3285
 20
20.8532
 30
0.0
 10
-118.3944
 20
19.3677
 30
0.0
 10
-119.4432
 20
16.3787
 30
0.0
 10
-119.4432
 20
16.3787
 30
0.0
 10
-117.9719
 20
18.1751
 30
0.0
 10
-114.6429
 20
19.6296
 30
0.0
 10
-110.2526
 20
16.4691
 30
0.0
 10
-110.2526
 20
16.4691
 30
0.0
 10
-113.1841
 20
19.9097
 30
0.0
 10
-113.2227
 20
23.9091
 30
0.0
 10
-111.7542
 20
27.0794
 30
0.0
  0
SPLINE
  5
87
330
1F
100
AcDbEntity
  8
layer 1
 62
     7
100
AcDbSpline
210
0.0
220
0.0
230
1.0
 70
    11
 71
     3
 72
    44
 73
    40
 74
     0
 42
0.0000000001
 43
0.0000000001
 12
1.0
 22
0.0
 32
0.0
 13
1.0
 23
0.0
 33
0.0
 40
0.0
 40
0.0
 40
0.0
 40
0.0
 40
0.0909090909090909
 40
0.0909090909090909
 40
0.0909090909090909
 40
0.0909090909090909
 40
0.1818181818181818
 40
0.1818181818181818
 40
0.1818181818181818
 40
0.1818181818181818
 40
0.2727272727272727
 40
0.2727272727272727
 40
0.2727272727272727
 40
0.2727272727272727
 40
0.3636363636363636
 40
0.3636363636363636
 40
0.3636363636363636
 40
0.3636363636363636
 40
0.4545454545454545
 40
0.4545454545454545
 40
0.4545454545454545
 40
0.4545454545454545
 40
0.5454545454545454
 40
0.5454545454545454
 40
0.5454545454545454
 40
0.5454545454545454
 40
0.6363636363636364
 40
0.6363636363636364
 40
0.6363636363636364
 40
0.6363636363636364
 40
0.7272727272727273
 40
0.7272727272727273
 40
0.7272727272727273
 40
0.7272727272727273
 40
0.8181818181818182
 40
0.8181818181818182
 40
0.8181818181818182
 40
0.8181818181818182
 40
1.0
 40
1.0
 40
1.0
 40
1.0
 10
-135.0518
 20
77.2359
 30
0.0
 10
-133.5522
 20
83.5407
 30
0.0
 10
-129.859
 20
83.9441
 30
0.0
 10
-126.7477
 20
91.3097
 30
0.0
 10
-126.7477
 20
91.3097
 30
0.0
 10
-123.7081
 20
103.0333
 30
0.0
 10
-138.0156
 20
101.7494
 30
0.0
 10
-133.8022
 20
92.2182
 30
0.0
 10
-133.8022
 20
92.2182
 30
0.0
 10
-135.6738
 20
91.5168
 30
0.0
 10
-139.3403
 20
92.7426
 30
0.0
 10
-139.2253
 20
97.6867
 30
0.0
 10
-139.2253
 20
97.6867
 30
0.0
 10
-141.0899
 20
90.3775
 30
0.0
 10
-151.9014
 20
94.2932
 30
0.0
 10
-147.8663
 20
101.8279
 30
0.0
 10
-147.8663
 20
101.8279
 30
0.0
 10
-153.6866
 20
98.45
 30
0.0
 10
-159.9036
 20
92.9139
 30
0.0
 10
-163.328
 20
88.8638
 30
0.0
 10
-163.328
 20
88.8638
 30
0.0
 10
-159.3259
 20
90.2203
 30
0.0
 10
-154.0923
 20
86.7741
 30
0.0
 10
-155.9569
 20
81.6044
 30
0.0
 10
-155.9569
 20
81.6044
 30
0.0
 10
-154.6989
 20
81.6234
 30
0.0
 10
-148.0067
 20
87.7688
 30
0.0
 10
-152.2082
 20
91.4445
 30
0.0
 10
-152.2082
 20
91.4445
 30
0.0
 10
-150.5375
 20
92.5538
 30
0.0
 10
-143.7967
 20
90.8429
 30
0.0
 10
-147.0049
 20
85.7077
 30
0.0
 10
-147.0049
 20
85.7077
 30
0.0
 10
-143.5054
 20
88.5179
 30
0.0
 10
-139.3705
 20
84.2622
 30
0.0
 10
-142.2474
 20
81.8417
 30
0.0
 10
-142.2474
 20
81.8417
 30
0.0
 10
-137.3509
 20
82.5951
 30
0.0
 10
-136.1441
 20
79.9351
 30
0.0
 10
-135.0518
 20
77.2359
 30
0.0
  0
SPLINE
  5
88
330
1F
100
AcDbEntity
  8
layer 1
 62
     7
100
AcDbSpline
210
0.0
220
0.0
230
1.0
 70
    11
 71
     3
 72
    28
 73
    24
 74
     0
 42
0.0000000001
 43
0.0000000001
 12
1.0
 22
0.0
 32
0.0
 13
1.0
 23
0.0
 33
0.0
 40
0.0
 40
0.0
 40
0.0
 40
0.0
 40
0.1428571428571428
 40
0.1428571428571428
 40
0.1428571428571428
 40
0.1428571428571428
 40
0.2857142857142857
 40
0.2857142857142857
 40
0.2857142857142857
 40
0.2857142857142857
 40
0.4285714285714285
 40
0.4285714285714285
 40
0.4285714285714285
 40
0.4285714285714285
 40
0.5714285714285714
 40
0.5714285714285714
 40
0.5714285714285714
 40
0.5714285714285714
 40
0.7142857142857143
 40
0.7142857142857143
 40
0.7142857142857143
 40
0.7142857142857143
 40
1.0
 40
1.0
 40
1.0
 40
1.0
 10
-157.1524
 20
72.6054
 30
0.0
 10
-158.8294
 20
74.1659
 30
0.0
 10
-159.2872
 20
77.5966
 30
0.0
 10
-157.898
 20
79.9583
 30
0.0
 10
-157.898
 20
79.9583
 30
0.0
 10
-159.4031
 20
78.4764
 30
0.0
 10
-166.4245
 20
78.3295
 30
0.0
 10
-165.8117
 20
85.8811
 30
0.0
 10
-165.8117
 20
85.8811
 30
0.0
 10
-168.0092
 20
83.3428
 30
0.0
 10
-171.5191
 20
79.1706
 30
0.0
 10
-173.4916
 20
72.4861
 30
0.0
 10
-173.4916
 20
72.4861
 30
0.0
 10
-171.3899
 20
76.6954
 30
0.0
 10
-162.5706
 20
76.298
 30
0.0
 10
-163.024
 20
63.2596
 30
0.0
 10
-163.024
 20
63.2596
 30
0.0
 10
-161.4201
 20
65.3558
 30
0.0
 10
-160.5572
 20
66.321
 30
0.0
 10
-159.3461
 20
67.958
 30
0.0
 10
-159.3461
 20
67.958
 30
0.0
 10
-160.5143
 20
70.3907
 30
0.0
 10
-158.5369
 20
72.4586
 30
0.0
 10
-157.1524
 20
72.6054
 30
0.0
  0
SPLINE
  5
89
330
1F
100
AcDbEntity
  8
layer 1
 62
     7
100
AcDbSpline
210
0.0
220
0.0
230
1.0
 70
    11
 71
     3
 72
    24
 73
    20
 74
     0
 42
0.0000000001
 43
0.0000000001
 12
1.0
 22
0.0
 32
0.0
 13
1.0
 23
0.0
 33
0.0
 40
0.0
 40
0.0
 40
0.0
 40
0.0
 40
0.1666666666666667
 40
0.1666666666666667
 40
0.1666666666666667
 40
0.1666666666666667
 40
0.3333333333333333
 40
0.3333333333333333
 40
0.3333333333333333
 40
0.3333333333333333
 40
0.5
 40
0.5
 40
0.5
 40
0.5
 40
0.6666666666666666
 40
0.6666666666666666
 40
0.6666666666666666
 40
0.6666666666666666
 40
1.0
 40
1.0
 40
1.0
 40
1.0
 10
-165.3141
 20
65.1606
 30
0.0
 10
-167.298
 20
71.254
 30
0.0
 10
-173.2249
 20
68.4123
 30
0.0
 10
-170.2106
 20
62.9506
 30
0.0
 10
-170.2106
 20
62.9506
 30
0.0
 10
-172.2704
 20
62.1854
 30
0.0
 10
-175.0032
 20
65.6365
 30
0.0
 10
-174.3271
 20
70.194
 30
0.0
 10
-174.3271
 20
70.194
 30
0.0
 10
-177.6225
 20
62.7738
 30
0.0
 10
-173.6996
 20
50.1194
 30
0.0
 10
-172.0056
 20
47.1799
 30
0.0
 10
-172.0056
 20
47.1799
 30
0.0
 10
-171.1324
 20
49.6245
 30
0.0
 10
-170.0476
 20
53.1231
 30
0.0
 10
-167.253
 20
57.0937
 30
0.0
 10
-167.253
 20
57.0937
 30
0.0
 10
-165.597
 20
58.7893
 30
0.0
 10
-164.4385
 20
61.6414
 30
0.0
 10
-165.3141
 20
65.1606
 30
0.0
  0
SPLINE
  5
8A
330
1F
100
AcDbEntity
  8
layer 1
 62
     7
100
AcDbSpline
210
0.0
220
0.0
230
1.0
 70
    11
 71
     3
 72
    16
 73
    12
 74
     0
 42
0.0000000001
 43
0.0000000001
 12
1.0
 22
0.0
 32
0.0
 13
1.0
 23
0.0
 33
0.0
 40
0.0
 40
0.0
 40
0.0
 40
0.0
 40
0.25
 40
0.25
 40
0.25
 40
0.25
 40
0.5
 40
0.5
 40
0.5
 40
0.5
 40
1.0
 40
1.0
 40
1.0
 40
1.0
 10
-133.6274
 20
107.3895
 30
0.0
 10
-135.3045
 20
107.2706
 30
0.0
 10
-139.2048
 20
105.9565
 30
0.0
 10
-142.0143
 20
104.6234
 30
0.0
 10
-142.0143
 20
104.6234
 30
0.0
 10
-139.7819
 20
104.5447
 30
0.0
 10
-138.606
 20
103.0767
 30
0.0
 10
-138.634
 20
100.3909
 30
0.0
 10
-138.634
 20
100.3909
 30
0.0
 10
-138.1224
 20
103.0762
 30
0.0
 10
-136.1027
 20
105.8995
 30
0.0
 10
-133.6274
 20
107.3895
 30
0.0
  0
SPLINE
  5
8B
330
1F
100
AcDbEntity
  8
layer 1
 62
     7
100
AcDbSpline
210
0.0
220
0.0
230
1.0
 70
    11
 71
     3
 72
    36
 73
    32
 74
     0
 42
0.0000000001
 43
0.0000000001
 12
1.0
 22
0.0
 32
0.0
 13
1.0
 23
0.0
 33
0.0
 40
0.0
 40
0.0
 40
0.0
 40
0.0
 40
0.1111111111111111
 40
0.1111111111111111
 40
0.1111111111111111
 40
0.1111111111111111
 40
0.2222222222222222
 40
0.2222222222222222
 40
0.2222222222222222
 40
0.2222222222222222
 40
0.3333333333333333
 40
0.3333333333333333
 40
0.3333333333333333
 40
0.3333333333333333
 40
0.4444444444444444
 40
0.4444444444444444
 40
0.4444444444444444
 40
0.4444444444444444
 40
0.5555555555555556
 40
0.5555555555555556
 40
0.5555555555555556
 40
0.5555555555555556
 40
0.6666666666666666
 40
0.6666666666666666
 40
0.6666666666666666
 40
0.6666666666666666
 40
0.7777777777777778
 40
0.7777777777777778
 40
0.7777777777777778
 40
0.7777777777777778
 40
1.0
 40
1.0
 40
1.0
 40
1.0
 10
-153.9668
 20
69.9447
 30
0.0
 10
-152.0882
 20
68.6334
 30
0.0
 10
-148.6379
 20
66.7246
 30
0.0
 10
-145.026
 20
70.1757
 30
0.0
 10
-145.026
 20
70.1757
 30
0.0
 10
-142.715
 20
72.4228
 30
0.0
 10
-140.9894
 20
75.0673
 30
0.0
 10
-136.5912
 20
74.7359
 30
0.0
 10
-136.5912
 20
74.7359
 30
0.0
 10
-138.8883
 20
71.0624
 30
0.0
 10
-139.5446
 20
66.1258
 30
0.0
 10
-138.0318
 20
60.4578
 30
0.0
 10
-138.0318
 20
60.4578
 30
0.0
 10
-144.6293
 20
63.6975
 30
0.0
 10
-149.4311
 20
55.7164
 30
0.0
 10
-144.3542
 20
51.7423
 30
0.0
 10
-144.3542
 20
51.7423
 30
0.0
 10
-147.3932
 20
52.6712
 30
0.0
 10
-149.372
 20
52.5327
 30
0.0
 10
-152.0901
 20
51.7515
 30
0.0
 10
-152.0901
 20
51.7515
 30
0.0
 10
-144.3864
 20
56.8754
 30
0.0
 10
-150.3928
 20
70.4636
 30
0.0
 10
-161.2802
 20
61.4827
 30
0.0
 10
-161.2802
 20
61.4827
 30
0.0
 10
-159.5688
 20
63.4919
 30
0.0
 10
-159.0584
 20
65.4625
 30
0.0
 10
-157.7127
 20
66.9908
 30
0.0
 10
-157.7127
 20
66.9908
 30
0.0
 10
-155.0885
 20
66.3611
 30
0.0
 10
-153.8187
 20
68.5611
 30
0.0
 10
-153.9668
 20
69.9447
 30
0.0
  0
SPLINE
  5
8C
330
1F
100
AcDbEntity
  8
layer 1
 62
     7
100
AcDbSpline
210
0.0
220
0.0
230
1.0
 70
    11
 71
     3
 72
    48
 73
    44
 74
     0
 42
0.0000000001
 43
0.0000000001
 12
1.0
 22
0.0
 32
0.0
 13
1.0
 23
0.0
 33
0.0
 40
0.0
 40
0.0
 40
0.0
 40
0.0
 40
0.0833333333333333
 40
0.0833333333333333
 40
0.0833333333333333
 40
0.0833333333333333
 40
0.1666666666666667
 40
0.1666666666666667
 40
0.1666666666666667
 40
0.1666666666666667
 40
0.25
 40
0.25
 40
0.25
 40
0.25
 40
0.3333333333333333
 40
0.3333333333333333
 40
0.3333333333333333
 40
0.3333333333333333
 40
0.4166666666666667
 40
0.4166666666666667
 40
0.4166666666666667
 40
0.4166666666666667
 40
0.5
 40
0.5
 40
0.5
 40
0.5
 40
0.5833333333333334
 40
0.5833333333333334
 40
0.5833333333333334
 40
0.5833333333333334
 40
0.6666666666666666
 40
0.6666666666666666
 40
0.6666666666666666
 40
0.6666666666666666
 40
0.75
 40
0.75
 40
0.75
 40
0.75
 40
0.8333333333333334
 40
0.8333333333333334
 40
0.8333333333333334
 40
0.8333333333333334
 40
1.0
 40
1.0
 40
1.0
 40
1.0
 10
-152.1998
 20
29.9561
 30
0.0
 10
-146.1555
 20
33.856
 30
0.0
 10
-150.1379
 20
41.3856
 30
0.0
 10
-155.4009
 20
40.5614
 30
0.0
 10
-155.4009
 20
40.5614
 30
0.0
 10
-152.3522
 20
43.147
 30
0.0
 10
-148.4826
 20
41.6151
 30
0.0
 10
-147.2373
 20
40.9405
 30
0.0
 10
-147.2373
 20
40.9405
 30
0.0
 10
-145.4978
 20
47.4841
 30
0.0
 10
-158.3719
 20
50.0063
 30
0.0
 10
-163.6945
 20
42.6477
 30
0.0
 10
-163.6945
 20
42.6477
 30
0.0
 10
-163.0509
 20
48.0392
 30
0.0
 10
-159.6944
 20
50.6964
 30
0.0
 10
-155.8931
 20
51.2868
 30
0.0
 10
-155.8931
 20
51.2868
 30
0.0
 10
-158.1485
 20
51.531
 30
0.0
 10
-160.0454
 20
53.6231
 30
0.0
 10
-159.5077
 20
54.8221
 30
0.0
 10
-159.5077
 20
54.8221
 30
0.0
 10
-155.6074
 20
52.4311
 30
0.0
 10
-154.3156
 20
55.8555
 30
0.0
 10
-155.0569
 20
57.5326
 30
0.0
 10
-155.0569
 20
57.5326
 30
0.0
 10
-156.4702
 20
60.7316
 30
0.0
 10
-160.5171
 20
60.1609
 30
0.0
 10
-162.666
 20
57.2483
 30
0.0
 10
-162.666
 20
57.2483
 30
0.0
 10
-166.0582
 20
52.7975
 30
0.0
 10
-167.2236
 20
48.8324
 30
0.0
 10
-169.7395
 20
44.9125
 30
0.0
 10
-169.7395
 20
44.9125
 30
0.0
 10
-166.2534
 20
38.1909
 30
0.0
 10
-165.0226
 20
36.0574
 30
0.0
 10
-162.6807
 20
34.1156
 30
0.0
 10
-162.6807
 20
34.1156
 30
0.0
 10
-159.4143
 20
31.2248
 30
0.0
 10
-154.1409
 20
33.5267
 30
0.0
 10
-156.8808
 20
37.4971
 30
0.0
 10
-156.8808
 20
37.4971
 30
0.0
 10
-154.9755
 20
37.2979
 30
0.0
 10
-150.9249
 20
33.2192
 30
0.0
 10
-152.1998
 20
29.9561
 30
0.0
  0
ENDSEC
  0
SECTION
  2
OBJECTS
  0
DICTIONARY
  5
C
330
0
100
AcDbDictionary
281
     1
  3
ACAD_GROUP
350
D
  3
ACAD_LAYOUT
350
1A
  3
ACAD_MATERIAL
350
3B
  3
ACAD_MLEADERSTYLE
350
AE
  3
ACAD_MLINESTYLE
350
17
  3
ACAD_PLOTSETTINGS
350
19
  3
ACAD_PLOTSTYLENAME
350
E
  3
ACAD_TABLESTYLE
350
AD
  3
ACAD_VISUALSTYLE
350
2A
  0
DICTIONARY
  5
D
102
{ACAD_REACTORS
330
C
102
}
330
C
100
AcDbDictionary
281
     1
  0
DICTIONARY
  5
1A
102
{ACAD_REACTORS
330
C
102
}
330
C
100
AcDbDictionary
281
     1
  3
Layout1
350
1E
  3
Layout2
350
26
  3
Model
350
22
  0
DICTIONARY
  5
3B
102
{ACAD_REACTORS
330
C
102
}
330
C
100
AcDbDictionary
281
     1
  3
ByBlock
350
3D
  3
ByLayer
350
3C
  3
Global
350
3E
  0
DICTIONARY
  5
AE
102
{ACAD_REACTORS
330
C
102
}
330
C
100
AcDbDictionary
281
     1
  0
DICTIONARY
  5
17
102
{ACAD_REACTORS
330
C
102
}
330
C
100
AcDbDictionary
281
     1
  3
Standard
350
18
  0
DICTIONARY
  5
19
102
{ACAD_REACTORS
330
C
102
}
330
C
100
AcDbDictionary
281
     1
  0
ACDBDICTIONARYWDFLT
  5
E
102
{ACAD_REACTORS
330
C
102
}
330
C
100
AcDbDictionary
281
     1
  3
Normal
350
F
100
AcDbDictionaryWithDefault
340
F
  0
DICTIONARY
  5
AD
102
{ACAD_REACTORS
330
C
102
}
330
C
100
AcDbDictionary
281
     1
  0
DICTIONARY
  5
2A
102
{ACAD_REACTORS
330
C
102
}
330
C
100
AcDbDictionary
281
     1
  3
2dWireframe
350
2F
  3
3D Hidden
350
31
  3
3dWireframe
350
30
  3
Basic
350
32
  3
Brighten
350
36
  3
ColorChange
350
3A
  3
Conceptual
350
34
  3
Dim
350
35
  3
Facepattern
350
39
  3
Flat
350
2B
  3
FlatWithEdges
350
2C
  3
Gouraud
350
2D
  3
GouraudWithEdges
350
2E
  3
Linepattern
350
38
  3
Realistic
350
33
  3
Thicken
350
37
  0
LAYOUT
  5
1E
102
{ACAD_REACTORS
330
1A
102
}
330
1A
100
AcDbPlotSettings
  1

  2
none_device
  4

  6

 40
0.0
 41
0.0
 42
0.0
 43
0.0
 44
0.0
 45
0.0
 46
0.0
 47
0.0
 48
0.0
 49
0.0
140
0.0
141
0.0
142
1.0
143
1.0
 70
   688
 72
     0
 73
     0
 74
     5
  7

 75
    16
 76
     0
 77
     2
 78
   300
147
1.0
148
0.0
149
0.0
100
AcDbLayout
  1
Layout1
 70
     1
 71
     1
 10
0.0
 20
0.0
 11
12.0
 21
9.0
 12
0.0
 22
0.0
 32
0.0
 14
1.000000000000000E+20
 24
1.000000000000000E+20
 34
1.000000000000000E+20
 15
-1.000000000000000E+20
 25
-1.000000000000000E+20
 35
-1.000000000000000E+20
146
0.0
 13
0.0
 23
0.0
 33
0.0
 16
1.0
 26
0.0
 36
0.0
 17
0.0
 27
1.0
 37
0.0
 76
     0
330
1B
  0
LAYOUT
  5
26
102
{ACAD_REACTORS
330
1A
102
}
330
1A
100
AcDbPlotSettings
  1

  2
none_device
  4

  6

 40
0.0
 41
0.0
 42
0.0
 43
0.0
 44
0.0
 45
0.0
 46
0.0
 47
0.0
 48
0.0
 49
0.0
140
0.0
141
0.0
142
1.0
143
1.0
 70
   688
 72
     0
 73
     0
 74
     5
  7

 75
    16
 76
     0
 77
     2
 78
   300
147
1.0
148
0.0
149
0.0
100
AcDbLayout
  1
Layout2
 70
     1
 71
     2
 10
0.0
 20
0.0
 11
0.0
 21
0.0
 12
0.0
 22
0.0
 32
0.0
 14
0.0
 24
0.0
 34
0.0
 15
0.0
 25
0.0
 35
0.0
146
0.0
 13
0.0
 23
0.0
 33
0.0
 16
1.0
 26
0.0
 36
0.0
 17
0.0
 27
1.0
 37
0.0
 76
     0
330
23
  0
LAYOUT
  5
22
102
{ACAD_REACTORS
330
1A
102
}
330
1A
100
AcDbPlotSettings
  1

  2
none_device
  4

  6

 40
0.0
 41
0.0
 42
0.0
 43
0.0
 44
0.0
 45
0.0
 46
0.0
 47
0.0
 48
0.0
 49
0.0
140
0.0
141
0.0
142
1.0
143
1.0
 70
  1712
 72
     0
 73
     0
 74
     0
  7

 75
     0
 76
     0
 77
     2
 78
   300
147
1.0
148
0.0
149
0.0
100
AcDbLayout
  1
Model
 70
     1
 71
     0
 10
0.0
 20
0.0
 11
12.0
 21
9.0
 12
0.0
 22
0.0
 32
0.0
 14
-187.4434
 24
-115.0798
 34
0.0
 15
-48.8722
 25
131.7629
 35
0.0
146
0.0
 13
0.0
 23
0.0
 33
0.0
 16
1.0
 26
0.0
 36
0.0
 17
0.0
 27
1.0
 37
0.0
 76
     0
330
1F
331
29
  0
MATERIAL
  5
3D
102
{ACAD_REACTORS
330
3B
102
}
330
3B
100
AcDbMaterial
  1
ByBlock
 72
     1
 94
      127
  0
MATERIAL
  5
3C
102
{ACAD_REACTORS
330
3B
102
}
330
3B
100
AcDbMaterial
  1
ByLayer
 72
     1
 94
      127
  0
MATERIAL
  5
3E
102
{ACAD_REACTORS
330
3B
102
}
330
3B
100
AcDbMaterial
  1
Global
 72
     1
 94
      127
  0
MLINESTYLE
  5
18
102
{ACAD_REACTORS
330
17
102
}
330
17
100
AcDbMlineStyle
  2
Standard
 70
     0
  3

 62
   256
 51
90.0
 52
90.0
 71
     2
 49
0.5
 62
   256
  6
BYLAYER
 49
-0.5
 62
   256
  6
BYLAYER
  0
ACDBPLACEHOLDER
  5
F
102
{ACAD_REACTORS
330
E
102
}
330
E
  0
VISUALSTYLE
  5
2F
102
{ACAD_REACTORS
330
2A
102
}
102
{ACAD_XDICTIONARY
360
95
102
}
330
2A
100
AcDbVisualStyle
  2
2dWireframe
 70
     4
 71
     0
 72
     2
 73
     0
 90
        0
 40
-0.6
 41
-30.0
 62
     5
 63
     7
421
 16777215
 74
     1
 91
        4
 64
     7
 65
   257
 75
     1
175
     1
 42
1.0
 92
        0
 66
   257
 43
1.0
 76
     1
 77
     6
 78
     2
 67
     7
 79
     5
170
     0
171
     0
290
     0
174
     0
 93
        1
 44
0.0
173
     0
291
     0
 45
0.0
  0
VISUALSTYLE
  5
31
102
{ACAD_REACTORS
330
2A
102
}
102
{ACAD_XDICTIONARY
360
99
102
}
330
2A
100
AcDbVisualStyle
  2
3D Hidden
 70
     6
 71
     1
 72
     2
 73
     2
 90
        0
 40
-0.6
 41
-30.0
 62
     5
 63
     7
421
 16777215
 74
     2
 91
        2
 64
     7
 65
   257
 75
     2
175
     1
 42
40.0
 92
        0
 66
   257
 43
1.0
 76
     1
 77
     6
 78
     2
 67
     7
 79
     3
170
     0
171
     0
290
     0
174
     0
 93
        1
 44
0.0
173
     0
291
     0
 45
0.0
  0
VISUALSTYLE
  5
30
102
{ACAD_REACTORS
330
2A
102
}
102
{ACAD_XDICTIONARY
360
97
102
}
330
2A
100
AcDbVisualStyle
  2
3dWireframe
 70
     5
 71
     0
 72
     2
 73
     0
 90
        0
 40
-0.6
 41
-30.0
 62
     5
 63
     7
421
 16777215
 74
     1
 91
        4
 64
     7
 65
   257
 75
     1
175
     1
 42
1.0
 92
        0
 66
   257
 43
1.0
 76
     1
 77
     6
 78
     2
 67
     7
 79
     5
170
     0
171
     0
290
     0
174
     0
 93
        1
 44
0.0
173
     0
291
     0
 45
0.0
  0
VISUALSTYLE
  5
32
102
{ACAD_REACTORS
330
2A
102
}
102
{ACAD_XDICTIONARY
360
9B
102
}
330
2A
100
AcDbVisualStyle
  2
Basic
 70
     7
 71
     1
 72
     0
 73
     1
 90
        0
 40
-0.6
 41
-30.0
 62
     5
 63
     7
421
 16777215
 74
     0
 91
        4
 64
     7
 65
   257
 75
     1
175
     1
 42
1.0
 92
        8
 66
     7
 43
1.0
 76
     1
 77
     6
 78
     2
 67
     7
 79
     5
170
     0
171
     0
290
     0
174
     0
 93
        1
 44
0.0
173
     0
291
     1
 45
0.0
  0
VISUALSTYLE
  5
36
102
{ACAD_REACTORS
330
2A
102
}
102
{ACAD_XDICTIONARY
360
A3
102
}
330
2A
100
AcDbVisualStyle
  2
Brighten
 70
    12
 71
     2
 72
     2
 73
     0
 90
        0
 40
-0.6
 41
-30.0
 62
     5
 63
     7
421
 16777215
 74
     1
 91
        4
 64
     7
 65
   257
 75
     1
175
     1
 42
1.0
 92
        8
 66
     7
 43
1.0
 76
     1
 77
     6
 78
     2
 67
     7
 79
     5
170
     0
171
     0
290
     0
174
     0
 93
        1
 44
50.0
173
     0
291
     1
 45
0.0
  0
VISUALSTYLE
  5
3A
102
{ACAD_REACTORS
330
2A
102
}
102
{ACAD_XDICTIONARY
360
AB
102
}
330
2A
100
AcDbVisualStyle
  2
ColorChange
 70
    16
 71
     2
 72
     2
 73
     3
 90
        0
 40
-0.6
 41
-30.0
 62
     5
 63
     8
421
  8421504
 74
     1
 91
        4
 64
     7
 65
   257
 75
     1
175
     1
 42
1.0
 92
        8
 66
     8
424
  8421504
 43
1.0
 76
     1
 77
     6
 78
     2
 67
     7
 79
     5
170
     0
171
     0
290
     0
174
     0
 93
        1
 44
0.0
173
     0
291
     1
 45
0.0
  0
VISUALSTYLE
  5
34
102
{ACAD_REACTORS
330
2A
102
}
102
{ACAD_XDICTIONARY
360
9F
102
}
330
2A
100
AcDbVisualStyle
  2
Conceptual
 70
     9
 71
     3
 72
     2
 73
     0
 90
        0
 40
-0.6
 41
-30.0
 62
     5
 63
     7
421
 16777215
 74
     2
 91
        2
 64
     7
 65
   257
 75
     1
175
     1
 42
40.0
 92
        8
 66
     7
 43
1.0
 76
     1
 77
     6
 78
     2
 67
     7
 79
     3
170
     0
171
     0
290
     0
174
     0
 93
        1
 44
0.0
173
     0
291
     0
 45
0.0
  0
VISUALSTYLE
  5
35
102
{ACAD_REACTORS
330
2A
102
}
102
{ACAD_XDICTIONARY
360
A1
102
}
330
2A
100
AcDbVisualStyle
  2
Dim
 70
    11
 71
     2
 72
     2
 73
     0
 90
        0
 40
-0.6
 41
-30.0
 62
     5
 63
     7
421
 16777215
 74
     1
 91
        4
 64
     7
 65
   257
 75
     1
175
     1
 42
1.0
 92
        8
 66
     7
 43
1.0
 76
     1
 77
     6
 78
     2
 67
     7
 79
     5
170
     0
171
     0
290
     0
174
     0
 93
        1
 44
-50.0
173
     0
291
     1
 45
0.0
  0
VISUALSTYLE
  5
39
102
{ACAD_REACTORS
330
2A
102
}
102
{ACAD_XDICTIONARY
360
A9
102
}
330
2A
100
AcDbVisualStyle
  2
Facepattern
 70
    15
 71
     2
 72
     2
 73
     0
 90
        0
 40
-0.6
 41
-30.0
 62
     5
 63
     7
421
 16777215
 74
     1
 91
        4
 64
     7
 65
   257
 75
     1
175
     1
 42
1.0
 92
        8
 66
     7
 43
1.0
 76
     1
 77
     6
 78
     2
 67
     7
 79
     5
170
     0
171
     0
290
     0
174
     0
 93
        1
 44
0.0
173
     0
291
     1
 45
0.0
  0
VISUALSTYLE
  5
2B
102
{ACAD_REACTORS
330
2A
102
}
102
{ACAD_XDICTIONARY
360
8D
102
}
330
2A
100
AcDbVisualStyle
  2
Flat
 70
     0
 71
     2
 72
     1
 73
     1
 90
        2
 40
-0.6
 41
30.0
 62
     5
 63
     7
421
 16777215
 74
     0
 91
        4
 64
     7
 65
   257
 75
     1
175
     1
 42
1.0
 92
        8
 66
     7
 43
1.0
 76
     1
 77
     6
 78
     2
 67
     7
 79
     5
170
     0
171
     0
290
     0
174
     0
 93
       13
 44
0.0
173
     0
291
     1
 45
0.0
  0
VISUALSTYLE
  5
2C
102
{ACAD_REACTORS
330
2A
102
}
102
{ACAD_XDICTIONARY
360
8F
102
}
330
2A
100
AcDbVisualStyle
  2
FlatWithEdges
 70
     1
 71
     2
 72
     1
 73
     1
 90
        2
 40
-0.6
 41
30.0
 62
     5
 63
     7
421
 16777215
 74
     1
 91
        4
 64
     7
 65
   257
 75
     1
175
     1
 42
1.0
 92
        0
 66
   257
 43
1.0
 76
     1
 77
     6
 78
     2
 67
     7
 79
     5
170
     0
171
     0
290
     0
174
     0
 93
       13
 44
0.0
173
     0
291
     1
 45
0.0
  0
VISUALSTYLE
  5
2D
102
{ACAD_REACTORS
330
2A
102
}
102
{ACAD_XDICTIONARY
360
91
102
}
330
2A
100
AcDbVisualStyle
  2
Gouraud
 70
     2
 71
     2
 72
     2
 73
     1
 90
        2
 40
-0.6
 41
30.0
 62
     5
 63
     7
421
 16777215
 74
     0
 91
        4
 64
     7
 65
   257
 75
     1
175
     1
 42
1.0
 92
        0
 66
     7
 43
1.0
 76
     1
 77
     6
 78
     2
 67
     7
 79
     5
170
     0
171
     0
290
     0
174
     0
 93
       13
 44
0.0
173
     0
291
     1
 45
0.0
  0
VISUALSTYLE
  5
2E
102
{ACAD_REACTORS
330
2A
102
}
102
{ACAD_XDICTIONARY
360
93
102
}
330
2A
100
AcDbVisualStyle
  2
GouraudWithEdges
 70
     3
 71
     2
 72
     2
 73
     1
 90
        2
 40
-0.6
 41
30.0
 62
     5
 63
     7
421
 16777215
 74
     1
 91
        4
 64
     7
 65
   257
 75
     1
175
     1
 42
1.0
 92
        0
 66
   257
 43
1.0
 76
     1
 77
     6
 78
     2
 67
     7
 79
     5
170
     0
171
     0
290
     0
174
     0
 93
       13
 44
0.0
173
     0
291
     1
 45
0.0
  0
VISUALSTYLE
  5
38
102
{ACAD_REACTORS
330
2A
102
}
102
{ACAD_XDICTIONARY
360
A7
102
}
330
2A
100
AcDbVisualStyle
  2
Linepattern
 70
    14
 71
     2
 72
     2
 73
     0
 90
        0
 40
-0.6
 41
-30.0
 62
     5
 63
     7
421
 16777215
 74
     1
 91
        4
 64
     7
 65
   257
 75
     7
175
     7
 42
1.0
 92
        8
 66
     7
 43
1.0
 76
     1
 77
     6
 78
     2
 67
     7
 79
     5
170
     0
171
     0
290
     0
174
     0
 93
        1
 44
0.0
173
     0
291
     1
 45
0.0
  0
VISUALSTYLE
  5
33
102
{ACAD_REACTORS
330
2A
102
}
102
{ACAD_XDICTIONARY
360
9D
102
}
330
2A
100
AcDbVisualStyle
  2
Realistic
 70
     8
 71
     2
 72
     2
 73
     0
 90
        0
 40
-0.6
 41
-30.0
 62
     5
 63
     7
421
 16777215
 74
     1
 91
        0
 64
     7
 65
   257
 75
     1
175
     1
 42
1.0
 92
        8
 66
     8
424
  7895160
 43
1.0
 76
     1
 77
     6
 78
     2
 67
     7
 79
     5
170
     0
171
     0
290
     0
174
     0
 93
       13
 44
0.0
173
     0
291
     0
 45
0.0
  0
VISUALSTYLE
  5
37
102
{ACAD_REACTORS
330
2A
102
}
102
{ACAD_XDICTIONARY
360
A5
102
}
330
2A
100
AcDbVisualStyle
  2
Thicken
 70
    13
 71
     2
 72
     2
 73
     0
 90
        0
 40
-0.6
 41
-30.0
 62
     5
 63
     7
421
 16777215
 74
     1
 91
        4
 64
     7
 65
   257
 75
     1
175
     1
 42
1.0
 92
       12
 66
     7
 43
1.0
 76
     1
 77
     6
 78
     2
 67
     7
 79
     5
170
     0
171
     0
290
     0
174
     0
 93
        1
 44
0.0
173
     0
291
     1
 45
0.0
  0
DICTIONARY
  5
95
330
2F
100
AcDbDictionary
280
     1
281
     1
  3
ACAD_XREC_ROUNDTRIP
360
96
  0
DICTIONARY
  5
99
330
31
100
AcDbDictionary
280
     1
281
     1
  3
ACAD_XREC_ROUNDTRIP
360
9A
  0
DICTIONARY
  5
97
330
30
100
AcDbDictionary
280
     1
281
     1
  3
ACAD_XREC_ROUNDTRIP
360
98
  0
DICTIONARY
  5
9B
330
32
100
AcDbDictionary
280
     1
281
     1
  3
ACAD_XREC_ROUNDTRIP
360
9C
  0
DICTIONARY
  5
A3
330
36
100
AcDbDictionary
280
     1
281
     1
  3
ACAD_XREC_ROUNDTRIP
360
A4
  0
DICTIONARY
  5
AB
330
3A
100
AcDbDictionary
280
     1
281
     1
  3
ACAD_XREC_ROUNDTRIP
360
AC
  0
DICTIONARY
  5
9F
330
34
100
AcDbDictionary
280
     1
281
     1
  3
ACAD_XREC_ROUNDTRIP
360
A0
  0
DICTIONARY
  5
A1
330
35
100
AcDbDictionary
280
     1
281
     1
  3
ACAD_XREC_ROUNDTRIP
360
A2
  0
DICTIONARY
  5
A9
330
39
100
AcDbDictionary
280
     1
281
     1
  3
ACAD_XREC_ROUNDTRIP
360
AA
  0
DICTIONARY
  5
8D
330
2B
100
AcDbDictionary
280
     1
281
     1
  3
ACAD_XREC_ROUNDTRIP
360
8E
  0
DICTIONARY
  5
8F
330
2C
100
AcDbDictionary
280
     1
281
     1
  3
ACAD_XREC_ROUNDTRIP
360
90
  0
DICTIONARY
  5
91
330
2D
100
AcDbDictionary
280
     1
281
     1
  3
ACAD_XREC_ROUNDTRIP
360
92
  0
DICTIONARY
  5
93
330
2E
100
AcDbDictionary
280
     1
281
     1
  3
ACAD_XREC_ROUNDTRIP
360
94
  0
DICTIONARY
  5
A7
330
38
100
AcDbDictionary
280
     1
281
     1
  3
ACAD_XREC_ROUNDTRIP
360
A8
  0
DICTIONARY
  5
9D
330
33
100
AcDbDictionary
280
     1
281
     1
  3
ACAD_XREC_ROUNDTRIP
360
9E
  0
DICTIONARY
  5
A5
330
37
100
AcDbDictionary
280
     1
281
     1
  3
ACAD_XREC_ROUNDTRIP
360
A6
  0
XRECORD
  5
96
102
{ACAD_REACTORS
330
95
102
}
330
95
100
AcDbXrecord
280
     1
102
RTVSPropertyOp0
 70
     1
102
RTVSPropertyOp1
 70
     1
102
RTVSPropertyOp2
 70
     1
102
RTVSPropertyOp3
 70
     1
102
RTVSPropertyOp4
 70
     1
102
RTVSPropertyOp5
 70
     1
102
RTVSPropertyOp6
 70
     1
102
RTVSPropertyOp7
 70
     1
102
RTVSPropertyOp8
 70
     1
102
RTVSPropertyOp9
 70
     1
102
RTVSPropertyOp10
 70
     1
102
RTVSPropertyOp11
 70
     1
102
RTVSPropertyOp12
 70
     1
102
RTVSPropertyOp13
 70
     1
102
RTVSPropertyOp14
 70
     1
102
RTVSPropertyOp15
 70
     1
102
RTVSPropertyOp16
 70
     1
102
RTVSPropertyOp17
 70
     1
102
RTVSPropertyOp18
 70
     1
102
RTVSPropertyOp19
 70
     1
102
RTVSPropertyOp20
 70
     1
102
RTVSPropertyOp21
 70
     1
102
RTVSPropertyOp22
 70
     1
102
RTVSPropertyOp23
 70
     1
102
RTVSPropertyOp24
 70
     1
102
RTVSPropertyOp25
 70
     1
102
RTVSPropertyOp26
 70
     1
102
RTVSPropertyOp27
 70
     1
102
RTVSPropertyOp28
 70
     1
102
RTVSPropertyOp29
 70
     1
102
RTVSPropertyOp30
 70
     1
102
RTVSPropertyOp31
 70
     1
102
RTVSPropertyOp32
 70
     1
  0
XRECORD
  5
9A
102
{ACAD_REACTORS
330
99
102
}
330
99
100
AcDbXrecord
280
     1
102
RTVSPropertyOp0
 70
     1
102
RTVSPropertyOp1
 70
     1
102
RTVSPropertyOp2
 70
     1
102
RTVSPropertyOp3
 70
     1
102
RTVSPropertyOp4
 70
     1
102
RTVSPropertyOp5
 70
     1
102
RTVSPropertyOp6
 70
     1
102
RTVSPropertyOp7
 70
     1
102
RTVSPropertyOp8
 70
     1
102
RTVSPropertyOp9
 70
     1
102
RTVSPropertyOp10
 70
     1
102
RTVSPropertyOp11
 70
     1
102
RTVSPropertyOp12
 70
     1
102
RTVSPropertyOp13
 70
     1
102
RTVSPropertyOp14
 70
     1
102
RTVSPropertyOp15
 70
     1
102
RTVSPropertyOp16
 70
     1
102
RTVSPropertyOp17
 70
     1
102
RTVSPropertyOp18
 70
     1
102
RTVSPropertyOp19
 70
     1
102
RTVSPropertyOp20
 70
     1
102
RTVSPropertyOp21
 70
     1
102
RTVSPropertyOp22
 70
     1
102
RTVSPropertyOp23
 70
     1
102
RTVSPropertyOp24
 70
     1
102
RTVSPropertyOp25
 70
     1
102
RTVSPropertyOp26
 70
     1
102
RTVSPropertyOp27
 70
     1
102
RTVSPropertyOp28
 70
     1
102
RTVSPropertyOp29
 70
     1
102
RTVSPropertyOp30
 70
     1
102
RTVSPropertyOp31
 70
     1
102
RTVSPropertyOp32
 70
     1
  0
XRECORD
  5
98
102
{ACAD_REACTORS
330
97
102
}
330
97
100
AcDbXrecord
280
     1
102
RTVSPropertyOp0
 70
     1
102
RTVSPropertyOp1
 70
     1
102
RTVSPropertyOp2
 70
     1
102
RTVSPropertyOp3
 70
     1
102
RTVSPropertyOp4
 70
     1
102
RTVSPropertyOp5
 70
     1
102
RTVSPropertyOp6
 70
     1
102
RTVSPropertyOp7
 70
     1
102
RTVSPropertyOp8
 70
     1
102
RTVSPropertyOp9
 70
     1
102
RTVSPropertyOp10
 70
     1
102
RTVSPropertyOp11
 70
     1
102
RTVSPropertyOp12
 70
     1
102
RTVSPropertyOp13
 70
     1
102
RTVSPropertyOp14
 70
     1
102
RTVSPropertyOp15
 70
     1
102
RTVSPropertyOp16
 70
     1
102
RTVSPropertyOp17
 70
     1
102
RTVSPropertyOp18
 70
     1
102
RTVSPropertyOp19
 70
     1
102
RTVSPropertyOp20
 70
     1
102
RTVSPropertyOp21
 70
     1
102
RTVSPropertyOp22
 70
     1
102
RTVSPropertyOp23
 70
     1
102
RTVSPropertyOp24
 70
     1
102
RTVSPropertyOp25
 70
     1
102
RTVSPropertyOp26
 70
     1
102
RTVSPropertyOp27
 70
     1
102
RTVSPropertyOp28
 70
     1
102
RTVSPropertyOp29
 70
     1
102
RTVSPropertyOp30
 70
     1
102
RTVSPropertyOp31
 70
     1
102
RTVSPropertyOp32
 70
     1
  0
XRECORD
  5
9C
102
{ACAD_REACTORS
330
9B
102
}
330
9B
100
AcDbXrecord
280
     1
102
RTVSPropertyOp0
 70
     1
102
RTVSPropertyOp1
 70
     1
102
RTVSPropertyOp2
 70
     1
102
RTVSPropertyOp3
 70
     1
102
RTVSPropertyOp4
 70
     1
102
RTVSPropertyOp5
 70
     1
102
RTVSPropertyOp6
 70
     1
102
RTVSPropertyOp7
 70
     1
102
RTVSPropertyOp8
 70
     1
102
RTVSPropertyOp9
 70
     1
102
RTVSPropertyOp10
 70
     1
102
RTVSPropertyOp11
 70
     1
102
RTVSPropertyOp12
 70
     1
102
RTVSPropertyOp13
 70
     1
102
RTVSPropertyOp14
 70
     1
102
RTVSPropertyOp15
 70
     1
102
RTVSPropertyOp16
 70
     1
102
RTVSPropertyOp17
 70
     1
102
RTVSPropertyOp18
 70
     1
102
RTVSPropertyOp19
 70
     1
102
RTVSPropertyOp20
 70
     1
102
RTVSPropertyOp21
 70
     1
102
RTVSPropertyOp22
 70
     1
102
RTVSPropertyOp23
 70
     1
102
RTVSPropertyOp24
 70
     1
102
RTVSPropertyOp25
 70
     1
102
RTVSPropertyOp26
 70
     1
102
RTVSPropertyOp27
 70
     1
102
RTVSPropertyOp28
 70
     1
102
RTVSPropertyOp29
 70
     1
102
RTVSPropertyOp30
 70
     1
102
RTVSPropertyOp31
 70
     1
102
RTVSPropertyOp32
 70
     1
  0
XRECORD
  5
A4
102
{ACAD_REACTORS
330
A3
102
}
330
A3
100
AcDbXrecord
280
     1
102
RTVSPropertyOp0
 70
     1
102
RTVSPropertyOp1
 70
     1
102
RTVSPropertyOp2
 70
     1
102
RTVSPropertyOp3
 70
     1
102
RTVSPropertyOp4
 70
     1
102
RTVSPropertyOp5
 70
     1
102
RTVSPropertyOp6
 70
     1
102
RTVSPropertyOp7
 70
     1
102
RTVSPropertyOp8
 70
     1
102
RTVSPropertyOp9
 70
     1
102
RTVSPropertyOp10
 70
     1
102
RTVSPropertyOp11
 70
     1
102
RTVSPropertyOp12
 70
     1
102
RTVSPropertyOp13
 70
     1
102
RTVSPropertyOp14
 70
     1
102
RTVSPropertyOp15
 70
     1
102
RTVSPropertyOp16
 70
     1
102
RTVSPropertyOp17
 70
     1
102
RTVSPropertyOp18
 70
     1
102
RTVSPropertyOp19
 70
     1
102
RTVSPropertyOp20
 70
     1
102
RTVSPropertyOp21
 70
     1
102
RTVSPropertyOp22
 70
     1
102
RTVSPropertyOp23
 70
     1
102
RTVSPropertyOp24
 70
     1
102
RTVSPropertyOp25
 70
     1
102
RTVSPropertyOp26
 70
     1
102
RTVSPropertyOp27
 70
     1
102
RTVSPropertyOp28
 70
     1
102
RTVSPropertyOp29
 70
     1
102
RTVSPropertyOp30
 70
     1
102
RTVSPropertyOp31
 70
     1
102
RTVSPropertyOp32
 70
     1
  0
XRECORD
  5
AC
102
{ACAD_REACTORS
330
AB
102
}
330
AB
100
AcDbXrecord
280
     1
102
RTVSPropertyOp0
 70
     1
102
RTVSPropertyOp1
 70
     1
102
RTVSPropertyOp2
 70
     1
102
RTVSPropertyOp3
 70
     1
102
RTVSPropertyOp4
 70
     1
102
RTVSPropertyOp5
 70
     1
102
RTVSPropertyOp6
 70
     1
102
RTVSPropertyOp7
 70
     1
102
RTVSPropertyOp8
 70
     1
102
RTVSPropertyOp9
 70
     1
102
RTVSPropertyOp10
 70
     1
102
RTVSPropertyOp11
 70
     1
102
RTVSPropertyOp12
 70
     1
102
RTVSPropertyOp13
 70
     1
102
RTVSPropertyOp14
 70
     1
102
RTVSPropertyOp15
 70
     1
102
RTVSPropertyOp16
 70
     1
102
RTVSPropertyOp17
 70
     1
102
RTVSPropertyOp18
 70
     1
102
RTVSPropertyOp19
 70
     1
102
RTVSPropertyOp20
 70
     1
102
RTVSPropertyOp21
 70
     1
102
RTVSPropertyOp22
 70
     1
102
RTVSPropertyOp23
 70
     1
102
RTVSPropertyOp24
 70
     1
102
RTVSPropertyOp25
 70
     1
102
RTVSPropertyOp26
 70
     1
102
RTVSPropertyOp27
 70
     1
102
RTVSPropertyOp28
 70
     1
102
RTVSPropertyOp29
 70
     1
102
RTVSPropertyOp30
 70
     1
102
RTVSPropertyOp31
 70
     1
102
RTVSPropertyOp32
 70
     1
  0
XRECORD
  5
A0
102
{ACAD_REACTORS
330
9F
102
}
330
9F
100
AcDbXrecord
280
     1
102
RTVSPropertyOp0
 70
     1
102
RTVSPropertyOp1
 70
     1
102
RTVSPropertyOp2
 70
     1
102
RTVSPropertyOp3
 70
     1
102
RTVSPropertyOp4
 70
     1
102
RTVSPropertyOp5
 70
     1
102
RTVSPropertyOp6
 70
     1
102
RTVSPropertyOp7
 70
     1
102
RTVSPropertyOp8
 70
     1
102
RTVSPropertyOp9
 70
     1
102
RTVSPropertyOp10
 70
     1
102
RTVSPropertyOp11
 70
     1
102
RTVSPropertyOp12
 70
     1
102
RTVSPropertyOp13
 70
     1
102
RTVSPropertyOp14
 70
     1
102
RTVSPropertyOp15
 70
     1
102
RTVSPropertyOp16
 70
     1
102
RTVSPropertyOp17
 70
     1
102
RTVSPropertyOp18
 70
     1
102
RTVSPropertyOp19
 70
     1
102
RTVSPropertyOp20
 70
     1
102
RTVSPropertyOp21
 70
     1
102
RTVSPropertyOp22
 70
     1
102
RTVSPropertyOp23
 70
     1
102
RTVSPropertyOp24
 70
     1
102
RTVSPropertyOp25
 70
     1
102
RTVSPropertyOp26
 70
     1
102
RTVSPropertyOp27
 70
     1
102
RTVSPropertyOp28
 70
     1
102
RTVSPropertyOp29
 70
     1
102
RTVSPropertyOp30
 70
     1
102
RTVSPropertyOp31
 70
     1
102
RTVSPropertyOp32
 70
     1
  0
XRECORD
  5
A2
102
{ACAD_REACTORS
330
A1
102
}
330
A1
100
AcDbXrecord
280
     1
102
RTVSPropertyOp0
 70
     1
102
RTVSPropertyOp1
 70
     1
102
RTVSPropertyOp2
 70
     1
102
RTVSPropertyOp3
 70
     1
102
RTVSPropertyOp4
 70
     1
102
RTVSPropertyOp5
 70
     1
102
RTVSPropertyOp6
 70
     1
102
RTVSPropertyOp7
 70
     1
102
RTVSPropertyOp8
 70
     1
102
RTVSPropertyOp9
 70
     1
102
RTVSPropertyOp10
 70
     1
102
RTVSPropertyOp11
 70
     1
102
RTVSPropertyOp12
 70
     1
102
RTVSPropertyOp13
 70
     1
102
RTVSPropertyOp14
 70
     1
102
RTVSPropertyOp15
 70
     1
102
RTVSPropertyOp16
 70
     1
102
RTVSPropertyOp17
 70
     1
102
RTVSPropertyOp18
 70
     1
102
RTVSPropertyOp19
 70
     1
102
RTVSPropertyOp20
 70
     1
102
RTVSPropertyOp21
 70
     1
102
RTVSPropertyOp22
 70
     1
102
RTVSPropertyOp23
 70
     1
102
RTVSPropertyOp24
 70
     1
102
RTVSPropertyOp25
 70
     1
102
RTVSPropertyOp26
 70
     1
102
RTVSPropertyOp27
 70
     1
102
RTVSPropertyOp28
 70
     1
102
RTVSPropertyOp29
 70
     1
102
RTVSPropertyOp30
 70
     1
102
RTVSPropertyOp31
 70
     1
102
RTVSPropertyOp32
 70
     1
  0
XRECORD
  5
AA
102
{ACAD_REACTORS
330
A9
102
}
330
A9
100
AcDbXrecord
280
     1
102
RTVSPropertyOp0
 70
     1
102
RTVSPropertyOp1
 70
     1
102
RTVSPropertyOp2
 70
     1
102
RTVSPropertyOp3
 70
     1
102
RTVSPropertyOp4
 70
     1
102
RTVSPropertyOp5
 70
     1
102
RTVSPropertyOp6
 70
     1
102
RTVSPropertyOp7
 70
     1
102
RTVSPropertyOp8
 70
     1
102
RTVSPropertyOp9
 70
     1
102
RTVSPropertyOp10
 70
     1
102
RTVSPropertyOp11
 70
     1
102
RTVSPropertyOp12
 70
     1
102
RTVSPropertyOp13
 70
     1
102
RTVSPropertyOp14
 70
     1
102
RTVSPropertyOp15
 70
     1
102
RTVSPropertyOp16
 70
     1
102
RTVSPropertyOp17
 70
     1
102
RTVSPropertyOp18
 70
     1
102
RTVSPropertyOp19
 70
     1
102
RTVSPropertyOp20
 70
     1
102
RTVSPropertyOp21
 70
     1
102
RTVSPropertyOp22
 70
     1
102
RTVSPropertyOp23
 70
     1
102
RTVSPropertyOp24
 70
     1
102
RTVSPropertyOp25
 70
     1
102
RTVSPropertyOp26
 70
     1
102
RTVSPropertyOp27
 70
     1
102
RTVSPropertyOp28
 70
     1
102
RTVSPropertyOp29
 70
     1
102
RTVSPropertyOp30
 70
     1
102
RTVSPropertyOp31
 70
     1
102
RTVSPropertyOp32
 70
     1
  0
XRECORD
  5
8E
102
{ACAD_REACTORS
330
8D
102
}
330
8D
100
AcDbXrecord
280
     1
102
RTVSPropertyOp0
 70
     1
102
RTVSPropertyOp1
 70
     1
102
RTVSPropertyOp2
 70
     1
102
RTVSPropertyOp3
 70
     1
102
RTVSPropertyOp4
 70
     1
102
RTVSPropertyOp5
 70
     1
102
RTVSPropertyOp6
 70
     1
102
RTVSPropertyOp7
 70
     1
102
RTVSPropertyOp8
 70
     1
102
RTVSPropertyOp9
 70
     1
102
RTVSPropertyOp10
 70
     1
102
RTVSPropertyOp11
 70
     1
102
RTVSPropertyOp12
 70
     1
102
RTVSPropertyOp13
 70
     1
102
RTVSPropertyOp14
 70
     1
102
RTVSPropertyOp15
 70
     1
102
RTVSPropertyOp16
 70
     1
102
RTVSPropertyOp17
 70
     1
102
RTVSPropertyOp18
 70
     1
102
RTVSPropertyOp19
 70
     1
102
RTVSPropertyOp20
 70
     1
102
RTVSPropertyOp21
 70
     1
102
RTVSPropertyOp22
 70
     1
102
RTVSPropertyOp23
 70
     1
102
RTVSPropertyOp24
 70
     1
102
RTVSPropertyOp25
 70
     1
102
RTVSPropertyOp26
 70
     1
102
RTVSPropertyOp27
 70
     1
102
RTVSPropertyOp28
 70
     1
102
RTVSPropertyOp29
 70
     1
102
RTVSPropertyOp30
 70
     1
102
RTVSPropertyOp31
 70
     1
102
RTVSPropertyOp32
 70
     1
  0
XRECORD
  5
90
102
{ACAD_REACTORS
330
8F
102
}
330
8F
100
AcDbXrecord
280
     1
102
RTVSPropertyOp0
 70
     1
102
RTVSPropertyOp1
 70
     1
102
RTVSPropertyOp2
 70
     1
102
RTVSPropertyOp3
 70
     1
102
RTVSPropertyOp4
 70
     1
102
RTVSPropertyOp5
 70
     1
102
RTVSPropertyOp6
 70
     1
102
RTVSPropertyOp7
 70
     1
102
RTVSPropertyOp8
 70
     1
102
RTVSPropertyOp9
 70
     1
102
RTVSPropertyOp10
 70
     1
102
RTVSPropertyOp11
 70
     1
102
RTVSPropertyOp12
 70
     1
102
RTVSPropertyOp13
 70
     1
102
RTVSPropertyOp14
 70
     1
102
RTVSPropertyOp15
 70
     1
102
RTVSPropertyOp16
 70
     1
102
RTVSPropertyOp17
 70
     1
102
RTVSPropertyOp18
 70
     1
102
RTVSPropertyOp19
 70
     1
102
RTVSPropertyOp20
 70
     1
102
RTVSPropertyOp21
 70
     1
102
RTVSPropertyOp22
 70
     1
102
RTVSPropertyOp23
 70
     1
102
RTVSPropertyOp24
 70
     1
102
RTVSPropertyOp25
 70
     1
102
RTVSPropertyOp26
 70
     1
102
RTVSPropertyOp27
 70
     1
102
RTVSPropertyOp28
 70
     1
102
RTVSPropertyOp29
 70
     1
102
RTVSPropertyOp30
 70
     1
102
RTVSPropertyOp31
 70
     1
102
RTVSPropertyOp32
 70
     1
  0
XRECORD
  5
92
102
{ACAD_REACTORS
330
91
102
}
330
91
100
AcDbXrecord
280
     1
102
RTVSPropertyOp0
 70
     1
102
RTVSPropertyOp1
 70
     1
102
RTVSPropertyOp2
 70
     1
102
RTVSPropertyOp3
 70
     1
102
RTVSPropertyOp4
 70
     1
102
RTVSPropertyOp5
 70
     1
102
RTVSPropertyOp6
 70
     1
102
RTVSPropertyOp7
 70
     1
102
RTVSPropertyOp8
 70
     1
102
RTVSPropertyOp9
 70
     1
102
RTVSPropertyOp10
 70
     1
102
RTVSPropertyOp11
 70
     1
102
RTVSPropertyOp12
 70
     1
102
RTVSPropertyOp13
 70
     1
102
RTVSPropertyOp14
 70
     1
102
RTVSPropertyOp15
 70
     1
102
RTVSPropertyOp16
 70
     1
102
RTVSPropertyOp17
 70
     1
102
RTVSPropertyOp18
 70
     1
102
RTVSPropertyOp19
 70
     1
102
RTVSPropertyOp20
 70
     1
102
RTVSPropertyOp21
 70
     1
102
RTVSPropertyOp22
 70
     1
102
RTVSPropertyOp23
 70
     1
102
RTVSPropertyOp24
 70
     1
102
RTVSPropertyOp25
 70
     1
102
RTVSPropertyOp26
 70
     1
102
RTVSPropertyOp27
 70
     1
102
RTVSPropertyOp28
 70
     1
102
RTVSPropertyOp29
 70
     1
102
RTVSPropertyOp30
 70
     1
102
RTVSPropertyOp31
 70
     1
102
RTVSPropertyOp32
 70
     1
  0
XRECORD
  5
94
102
{ACAD_REACTORS
330
93
102
}
330
93
100
AcDbXrecord
280
     1
102
RTVSPropertyOp0
 70
     1
102
RTVSPropertyOp1
 70
     1
102
RTVSPropertyOp2
 70
     1
102
RTVSPropertyOp3
 70
     1
102
RTVSPropertyOp4
 70
     1
102
RTVSPropertyOp5
 70
     1
102
RTVSPropertyOp6
 70
     1
102
RTVSPropertyOp7
 70
     1
102
RTVSPropertyOp8
 70
     1
102
RTVSPropertyOp9
 70
     1
102
RTVSPropertyOp10
 70
     1
102
RTVSPropertyOp11
 70
     1
102
RTVSPropertyOp12
 70
     1
102
RTVSPropertyOp13
 70
     1
102
RTVSPropertyOp14
 70
     1
102
RTVSPropertyOp15
 70
     1
102
RTVSPropertyOp16
 70
     1
102
RTVSPropertyOp17
 70
     1
102
RTVSPropertyOp18
 70
     1
102
RTVSPropertyOp19
 70
     1
102
RTVSPropertyOp20
 70
     1
102
RTVSPropertyOp21
 70
     1
102
RTVSPropertyOp22
 70
     1
102
RTVSPropertyOp23
 70
     1
102
RTVSPropertyOp24
 70
     1
102
RTVSPropertyOp25
 70
     1
102
RTVSPropertyOp26
 70
     1
102
RTVSPropertyOp27
 70
     1
102
RTVSPropertyOp28
 70
     1
102
RTVSPropertyOp29
 70
     1
102
RTVSPropertyOp30
 70
     1
102
RTVSPropertyOp31
 70
     1
102
RTVSPropertyOp32
 70
     1
  0
XRECORD
  5
A8
102
{ACAD_REACTORS
330
A7
102
}
330
A7
100
AcDbXrecord
280
     1
102
RTVSPropertyOp0
 70
     1
102
RTVSPropertyOp1
 70
     1
102
RTVSPropertyOp2
 70
     1
102
RTVSPropertyOp3
 70
     1
102
RTVSPropertyOp4
 70
     1
102
RTVSPropertyOp5
 70
     1
102
RTVSPropertyOp6
 70
     1
102
RTVSPropertyOp7
 70
     1
102
RTVSPropertyOp8
 70
     1
102
RTVSPropertyOp9
 70
     1
102
RTVSPropertyOp10
 70
     1
102
RTVSPropertyOp11
 70
     1
102
RTVSPropertyOp12
 70
     1
102
RTVSPropertyOp13
 70
     1
102
RTVSPropertyOp14
 70
     1
102
RTVSPropertyOp15
 70
     1
102
RTVSPropertyOp16
 70
     1
102
RTVSPropertyOp17
 70
     1
102
RTVSPropertyOp18
 70
     1
102
RTVSPropertyOp19
 70
     1
102
RTVSPropertyOp20
 70
     1
102
RTVSPropertyOp21
 70
     1
102
RTVSPropertyOp22
 70
     1
102
RTVSPropertyOp23
 70
     1
102
RTVSPropertyOp24
 70
     1
102
RTVSPropertyOp25
 70
     1
102
RTVSPropertyOp26
 70
     1
102
RTVSPropertyOp27
 70
     1
102
RTVSPropertyOp28
 70
     1
102
RTVSPropertyOp29
 70
     1
102
RTVSPropertyOp30
 70
     1
102
RTVSPropertyOp31
 70
     1
102
RTVSPropertyOp32
 70
     1
  0
XRECORD
  5
9E
102
{ACAD_REACTORS
330
9D
102
}
330
9D
100
AcDbXrecord
280
     1
102
RTVSPropertyOp0
 70
     1
102
RTVSPropertyOp1
 70
     1
102
RTVSPropertyOp2
 70
     1
102
RTVSPropertyOp3
 70
     1
102
RTVSPropertyOp4
 70
     1
102
RTVSPropertyOp5
 70
     1
102
RTVSPropertyOp6
 70
     1
102
RTVSPropertyOp7
 70
     1
102
RTVSPropertyOp8
 70
     1
102
RTVSPropertyOp9
 70
     1
102
RTVSPropertyOp10
 70
     1
102
RTVSPropertyOp11
 70
     1
102
RTVSPropertyOp12
 70
     1
102
RTVSPropertyOp13
 70
     1
102
RTVSPropertyOp14
 70
     1
102
RTVSPropertyOp15
 70
     1
102
RTVSPropertyOp16
 70
     1
102
RTVSPropertyOp17
 70
     1
102
RTVSPropertyOp18
 70
     1
102
RTVSPropertyOp19
 70
     1
102
RTVSPropertyOp20
 70
     1
102
RTVSPropertyOp21
 70
     1
102
RTVSPropertyOp22
 70
     1
102
RTVSPropertyOp23
 70
     1
102
RTVSPropertyOp24
 70
     1
102
RTVSPropertyOp25
 70
     1
102
RTVSPropertyOp26
 70
     1
102
RTVSPropertyOp27
 70
     1
102
RTVSPropertyOp28
 70
     1
102
RTVSPropertyOp29
 70
     1
102
RTVSPropertyOp30
 70
     1
102
RTVSPropertyOp31
 70
     1
102
RTVSPropertyOp32
 70
     1
  0
XRECORD
  5
A6
102
{ACAD_REACTORS
330
A5
102
}
330
A5
100
AcDbXrecord
280
     1
102
RTVSPropertyOp0
 70
     1
102
RTVSPropertyOp1
 70
     1
102
RTVSPropertyOp2
 70
     1
102
RTVSPropertyOp3
 70
     1
102
RTVSPropertyOp4
 70
     1
102
RTVSPropertyOp5
 70
     1
102
RTVSPropertyOp6
 70
     1
102
RTVSPropertyOp7
 70
     1
102
RTVSPropertyOp8
 70
     1
102
RTVSPropertyOp9
 70
     1
102
RTVSPropertyOp10
 70
     1
102
RTVSPropertyOp11
 70
     1
102
RTVSPropertyOp12
 70
     1
102
RTVSPropertyOp13
 70
     1
102
RTVSPropertyOp14
 70
     1
102
RTVSPropertyOp15
 70
     1
102
RTVSPropertyOp16
 70
     1
102
RTVSPropertyOp17
 70
     1
102
RTVSPropertyOp18
 70
     1
102
RTVSPropertyOp19
 70
     1
102
RTVSPropertyOp20
 70
     1
102
RTVSPropertyOp21
 70
     1
102
RTVSPropertyOp22
 70
     1
102
RTVSPropertyOp23
 70
     1
102
RTVSPropertyOp24
 70
     1
102
RTVSPropertyOp25
 70
     1
102
RTVSPropertyOp26
 70
     1
102
RTVSPropertyOp27
 70
     1
102
RTVSPropertyOp28
 70
     1
102
RTVSPropertyOp29
 70
     1
102
RTVSPropertyOp30
 70
     1
102
RTVSPropertyOp31
 70
     1
102
RTVSPropertyOp32
 70
     1
  0
ENDSEC
  0
EOF
