  0
SECTION
  2
HEADER
  9
$ACADVER
  1
AC1021
  9
$ACADMAINTVER
 70
    25
  9
$DWGCODEPAGE
  3
ANSI_1252
  9
$INSBASE
 10
0.0
 20
0.0
 30
0.0
  9
$EXTMIN
 10
36.747
 20
-106.5961
 30
0.0
  9
$EXTMAX
 10
195.9823
 20
113.8025
 30
0.0
  9
$LIMMIN
 10
0.0
 20
0.0
  9
$LIMMAX
 10
12.0
 20
9.0
  9
$ORTHOMODE
 70
     0
  9
$REGENMODE
 70
     1
  9
$FILLMODE
 70
     1
  9
$QTEXTMODE
 70
     0
  9
$MIRRTEXT
 70
     1
  9
$LTSCALE
 40
1.0
  9
$ATTMODE
 70
     1
  9
$TEXTSIZE
 40
0.2
  9
$TRACEWID
 40
0.05
  9
$TEXTSTYLE
  7
Standard
  9
$CLAYER
  8
0
  9
$CELTYPE
  6
ByLayer
  9
$CECOLOR
 62
   256
  9
$CELTSCALE
 40
1.0
  9
$DISPSILH
 70
     0
  9
$DIMSCALE
 40
1.0
  9
$DIMASZ
 40
0.18
  9
$DIMEXO
 40
0.0625
  9
$DIMDLI
 40
0.38
  9
$DIMRND
 40
0.0
  9
$DIMDLE
 40
0.0
  9
$DIMEXE
 40
0.18
  9
$DIMTP
 40
0.0
  9
$DIMTM
 40
0.0
  9
$DIMTXT
 40
0.18
  9
$DIMCEN
 40
0.09
  9
$DIMTSZ
 40
0.0
  9
$DIMTOL
 70
     0
  9
$DIMLIM
 70
     0
  9
$DIMTIH
 70
     1
  9
$DIMTOH
 70
     1
  9
$DIMSE1
 70
     0
  9
$DIMSE2
 70
     0
  9
$DIMTAD
 70
     0
  9
$DIMZIN
 70
     0
  9
$DIMBLK
  1

  9
$DIMASO
 70
     1
  9
$DIMSHO
 70
     1
  9
$DIMPOST
  1

  9
$DIMAPOST
  1

  9
$DIMALT
 70
     0
  9
$DIMALTD
 70
     2
  9
$DIMALTF
 40
25.4
  9
$DIMLFAC
 40
1.0
  9
$DIMTOFL
 70
     0
  9
$DIMTVP
 40
0.0
  9
$DIMTIX
 70
     0
  9
$DIMSOXD
 70
     0
  9
$DIMSAH
 70
     0
  9
$DIMBLK1
  1

  9
$DIMBLK2
  1

  9
$DIMSTYLE
  2
Standard
  9
$DIMCLRD
 70
     0
  9
$DIMCLRE
 70
     0
  9
$DIMCLRT
 70
     0
  9
$DIMTFAC
 40
1.0
  9
$DIMGAP
 40
0.09
  9
$DIMJUST
 70
     0
  9
$DIMSD1
 70
     0
  9
$DIMSD2
 70
     0
  9
$DIMTOLJ
 70
     1
  9
$DIMTZIN
 70
     0
  9
$DIMALTZ
 70
     0
  9
$DIMALTTZ
 70
     0
  9
$DIMUPT
 70
     0
  9
$DIMDEC
 70
     4
  9
$DIMTDEC
 70
     4
  9
$DIMALTU
 70
     2
  9
$DIMALTTD
 70
     2
  9
$DIMTXSTY
  7
Standard
  9
$DIMAUNIT
 70
     0
  9
$DIMADEC
 70
     0
  9
$DIMALTRND
 40
0.0
  9
$DIMAZIN
 70
     0
  9
$DIMDSEP
 70
    46
  9
$DIMATFIT
 70
     3
  9
$DIMFRAC
 70
     0
  9
$DIMLDRBLK
  1

  9
$DIMLUNIT
 70
     2
  9
$DIMLWD
 70
    -2
  9
$DIMLWE
 70
    -2
  9
$DIMTMOVE
 70
     0
  9
$DIMFXL
 40
1.0
  9
$DIMFXLON
 70
     0
  9
$DIMJOGANG
 40
0.7853981633974483
  9
$DIMTFILL
 70
     0
  9
$DIMTFILLCLR
 70
     0
  9
$DIMARCSYM
 70
     0
  9
$DIMLTYPE
  6

  9
$DIMLTEX1
  6

  9
$DIMLTEX2
  6

  9
$LUNITS
 70
     2
  9
$LUPREC
 70
     4
  9
$SKETCHINC
 40
0.1
  9
$FILLETRAD
 40
0.5
  9
$AUNITS
 70
     0
  9
$AUPREC
 70
     0
  9
$MENU
  1
.
  9
$ELEVATION
 40
0.0
  9
$PELEVATION
 40
0.0
  9
$THICKNESS
 40
0.0
  9
$LIMCHECK
 70
     0
  9
$CHAMFERA
 40
0.5
  9
$CHAMFERB
 40
0.5
  9
$CHAMFERC
 40
1.0
  9
$CHAMFERD
 40
0.0
  9
$SKPOLY
 70
     0
  9
$TDCREATE
 40
2458492.783154444
  9
$TDUCREATE
 40
2458492.783154444
  9
$TDUPDATE
 40
2458492.783154699
  9
$TDUUPDATE
 40
2458492.783154699
  9
$TDINDWG
 40
0.0000000116
  9
$TDUSRTIMER
 40
0.0000000116
  9
$USRTIMER
 70
     1
  9
$ANGBASE
 50
0.0
  9
$ANGDIR
 70
     0
  9
$PDMODE
 70
     0
  9
$PDSIZE
 40
0.0
  9
$PLINEWID
 40
0.0
  9
$SPLFRAME
 70
     0
  9
$SPLINETYPE
 70
     6
  9
$SPLINESEGS
 70
     8
  9
$HANDSEED
  5
87
  9
$SURFTAB1
 70
     6
  9
$SURFTAB2
 70
     6
  9
$SURFTYPE
 70
     6
  9
$SURFU
 70
     6
  9
$SURFV
 70
     6
  9
$UCSBASE
  2

  9
$UCSNAME
  2

  9
$UCSORG
 10
0.0
 20
0.0
 30
0.0
  9
$UCSXDIR
 10
1.0
 20
0.0
 30
0.0
  9
$UCSYDIR
 10
0.0
 20
1.0
 30
0.0
  9
$UCSORTHOREF
  2

  9
$UCSORTHOVIEW
 70
     0
  9
$UCSORGTOP
 10
0.0
 20
0.0
 30
0.0
  9
$UCSORGBOTTOM
 10
0.0
 20
0.0
 30
0.0
  9
$UCSORGLEFT
 10
0.0
 20
0.0
 30
0.0
  9
$UCSORGRIGHT
 10
0.0
 20
0.0
 30
0.0
  9
$UCSORGFRONT
 10
0.0
 20
0.0
 30
0.0
  9
$UCSORGBACK
 10
0.0
 20
0.0
 30
0.0
  9
$PUCSBASE
  2

  9
$PUCSNAME
  2

  9
$PUCSORG
 10
0.0
 20
0.0
 30
0.0
  9
$PUCSXDIR
 10
1.0
 20
0.0
 30
0.0
  9
$PUCSYDIR
 10
0.0
 20
1.0
 30
0.0
  9
$PUCSORTHOREF
  2

  9
$PUCSORTHOVIEW
 70
     0
  9
$PUCSORGTOP
 10
0.0
 20
0.0
 30
0.0
  9
$PUCSORGBOTTOM
 10
0.0
 20
0.0
 30
0.0
  9
$PUCSORGLEFT
 10
0.0
 20
0.0
 30
0.0
  9
$PUCSORGRIGHT
 10
0.0
 20
0.0
 30
0.0
  9
$PUCSORGFRONT
 10
0.0
 20
0.0
 30
0.0
  9
$PUCSORGBACK
 10
0.0
 20
0.0
 30
0.0
  9
$USERI1
 70
     0
  9
$USERI2
 70
     0
  9
$USERI3
 70
     0
  9
$USERI4
 70
     0
  9
$USERI5
 70
     0
  9
$USERR1
 40
0.0
  9
$USERR2
 40
0.0
  9
$USERR3
 40
0.0
  9
$USERR4
 40
0.0
  9
$USERR5
 40
0.0
  9
$WORLDVIEW
 70
     1
  9
$SHADEDGE
 70
     3
  9
$SHADEDIF
 70
    70
  9
$TILEMODE
 70
     1
  9
$MAXACTVP
 70
    64
  9
$PINSBASE
 10
0.0
 20
0.0
 30
0.0
  9
$PLIMCHECK
 70
     0
  9
$PEXTMIN
 10
1.000000000000000E+20
 20
1.000000000000000E+20
 30
1.000000000000000E+20
  9
$PEXTMAX
 10
-1.000000000000000E+20
 20
-1.000000000000000E+20
 30
-1.000000000000000E+20
  9
$PLIMMIN
 10
0.0
 20
0.0
  9
$PLIMMAX
 10
12.0
 20
9.0
  9
$UNITMODE
 70
     0
  9
$VISRETAIN
 70
     1
  9
$PLINEGEN
 70
     0
  9
$PSLTSCALE
 70
     1
  9
$TREEDEPTH
 70
  3020
  9
$CMLSTYLE
  2
Standard
  9
$CMLJUST
 70
     0
  9
$CMLSCALE
 40
1.0
  9
$PROXYGRAPHICS
 70
     1
  9
$MEASUREMENT
 70
     0
  9
$CELWEIGHT
370
    -1
  9
$ENDCAPS
280
     0
  9
$JOINSTYLE
280
     0
  9
$LWDISPLAY
290
     0
  9
$INSUNITS
 70
     4
  9
$HYPERLINKBASE
  1

  9
$STYLESHEET
  1

  9
$XEDIT
290
     1
  9
$CEPSNTYPE
380
     0
  9
$PSTYLEMODE
290
     1
  9
$FINGERPRINTGUID
  2
{2A37D0C5-7BF3-4DB4-B12C-E19DA8FE09B4}
  9
$VERSIONGUID
  2
{FAEB1C32-E019-11D5-929B-00C0DF256EC4}
  9
$EXTNAMES
290
     1
  9
$PSVPSCALE
 40
0.0
  9
$OLESTARTUP
290
     0
  9
$SORTENTS
280
   127
  9
$INDEXCTL
280
     0
  9
$HIDETEXT
280
     1
  9
$XCLIPFRAME
290
     0
  9
$HALOGAP
280
     0
  9
$OBSCOLOR
 70
   257
  9
$OBSLTYPE
280
     0
  9
$INTERSECTIONDISPLAY
280
     0
  9
$INTERSECTIONCOLOR
 70
   257
  9
$DIMASSOC
280
     2
  9
$PROJECTNAME
  1

  9
$CAMERADISPLAY
290
     0
  9
$LENSLENGTH
 40
50.0
  9
$CAMERAHEIGHT
 40
0.0
  9
$STEPSPERSEC
 40
2.0
  9
$STEPSIZE
 40
6.0
  9
$3DDWFPREC
 40
2.0
  9
$PSOLWIDTH
 40
0.25
  9
$PSOLHEIGHT
 40
4.0
  9
$LOFTANG1
 40
1.570796326794897
  9
$LOFTANG2
 40
1.570796326794897
  9
$LOFTMAG1
 40
0.0
  9
$LOFTMAG2
 40
0.0
  9
$LOFTPARAM
 70
     7
  9
$LOFTNORMALS
280
     1
  9
$LATITUDE
 40
37.795
  9
$LONGITUDE
 40
-122.394
  9
$NORTHDIRECTION
 40
0.0
  9
$TIMEZONE
 70
 -8000
  9
$LIGHTGLYPHDISPLAY
280
     1
  9
$TILEMODELIGHTSYNCH
280
     1
  9
$SOLIDHIST
280
     1
  9
$SHOWHIST
280
     1
  9
$DWFFRAME
280
     2
  9
$DGNFRAME
280
     2
  9
$REALWORLDSCALE
290
     1
  9
$INTERFERECOLOR
 62
   256
  9
$CSHADOW
280
     0
  9
$SHADOWPLANELOCATION
 40
0.0
  0
ENDSEC
  0
SECTION
  2
CLASSES
  0
CLASS
  1
ACDBDICTIONARYWDFLT
  2
AcDbDictionaryWithDefault
  3
ObjectDBX Classes
 90
        0
 91
        4
280
     0
281
     0
  0
CLASS
  1
VISUALSTYLE
  2
AcDbVisualStyle
  3
ObjectDBX Classes
 90
     4095
 91
        4
280
     0
281
     0
  0
CLASS
  1
MATERIAL
  2
AcDbMaterial
  3
ObjectDBX Classes
 90
     1153
 91
        4
280
     0
281
     0
  0
ENDSEC
  0
SECTION
  2
TABLES
  0
TABLE
  2
VPORT
  5
8
330
0
100
AcDbSymbolTable
 70
     1
  0
VPORT
  5
29
330
8
100
AcDbSymbolTableRecord
100
AcDbViewportTableRecord
  2
*Active
 70
     0
 10
0.0
 20
0.0
 11
1.0
 21
1.0
 12
10.42990654205607
 22
4.5
 13
0.0
 23
0.0
 14
0.5
 24
0.5
 15
0.5
 25
0.5
 16
0.0
 26
0.0
 36
1.0
 17
0.0
 27
0.0
 37
0.0
 40
9.0
 41
1.972972972850329
 42
50.0
 43
0.0
 44
0.0
 50
0.0
 51
0.0
 71
     0
 72
   100
 73
     1
 74
     3
 75
     0
 76
     0
 77
     0
 78
     0
281
     0
 65
     1
110
0.0
120
0.0
130
0.0
111
1.0
121
0.0
131
0.0
112
0.0
122
1.0
132
0.0
 79
     0
146
0.0
 60
     3
 61
     5
292
     1
282
     1
141
0.0
142
0.0
 63
   250
  0
ENDTAB
  0
TABLE
  2
LTYPE
  5
5
330
0
100
AcDbSymbolTable
 70
     1
  0
LTYPE
  5
14
330
5
100
AcDbSymbolTableRecord
100
AcDbLinetypeTableRecord
  2
ByBlock
 70
     0
  3

 72
    65
 73
     0
 40
0.0
  0
LTYPE
  5
15
330
5
100
AcDbSymbolTableRecord
100
AcDbLinetypeTableRecord
  2
ByLayer
 70
     0
  3

 72
    65
 73
     0
 40
0.0
  0
LTYPE
  5
16
330
5
100
AcDbSymbolTableRecord
100
AcDbLinetypeTableRecord
  2
Continuous
 70
     0
  3
Solid line
 72
    65
 73
     0
 40
0.0
  0
ENDTAB
  0
TABLE
  2
LAYER
  5
2
330
0
100
AcDbSymbolTable
 70
     2
  0
LAYER
  5
10
330
2
100
AcDbSymbolTableRecord
100
AcDbLayerTableRecord
  2
0
 70
     0
 62
     7
  6
Continuous
370
    -3
390
F
347
3E
  0
LAYER
  5
40
330
2
100
AcDbSymbolTableRecord
100
AcDbLayerTableRecord
  2
layer 1
 70
     0
 62
     7
  6
Continuous
370
    -3
390
F
347
3E
  0
ENDTAB
  0
TABLE
  2
STYLE
  5
3
330
0
100
AcDbSymbolTable
 70
     1
  0
STYLE
  5
11
330
3
100
AcDbSymbolTableRecord
100
AcDbTextStyleTableRecord
  2
Standard
 70
     0
 40
0.0
 41
1.0
 50
0.0
 71
     0
 42
0.2
  3
txt
  4

  0
ENDTAB
  0
TABLE
  2
VIEW
  5
6
330
0
100
AcDbSymbolTable
 70
     0
  0
ENDTAB
  0
TABLE
  2
UCS
  5
7
330
0
100
AcDbSymbolTable
 70
     0
  0
ENDTAB
  0
TABLE
  2
APPID
  5
9
330
0
100
AcDbSymbolTable
 70
     2
  0
APPID
  5
12
330
9
100
AcDbSymbolTableRecord
100
AcDbRegAppTableRecord
  2
ACAD
 70
     0
  0
APPID
  5
3F
330
9
100
AcDbSymbolTableRecord
100
AcDbRegAppTableRecord
  2
ODA
 70
     0
  0
ENDTAB
  0
TABLE
  2
DIMSTYLE
  5
A
330
0
100
AcDbSymbolTable
 70
     1
100
AcDbDimStyleTable
  0
DIMSTYLE
105
27
330
A
100
AcDbSymbolTableRecord
100
AcDbDimStyleTableRecord
  2
Standard
 70
     0
178
     0
340
11
  0
ENDTAB
  0
TABLE
  2
BLOCK_RECORD
  5
1
330
0
100
AcDbSymbolTable
 70
     1
  0
BLOCK_RECORD
  5
1F
330
1
100
AcDbSymbolTableRecord
100
AcDbBlockTableRecord
  2
*Model_Space
340
22
 70
     0
280
     1
281
     0
  0
BLOCK_RECORD
  5
1B
330
1
100
AcDbSymbolTableRecord
100
AcDbBlockTableRecord
  2
*Paper_Space
340
1E
 70
     0
280
     1
281
     0
  0
BLOCK_RECORD
  5
23
330
1
100
AcDbSymbolTableRecord
100
AcDbBlockTableRecord
  2
*Paper_Space0
340
26
 70
     0
280
     1
281
     0
  0
ENDTAB
  0
ENDSEC
  0
SECTION
  2
BLOCKS
  0
BLOCK
  5
20
330
1F
100
AcDbEntity
  8
0
100
AcDbBlockBegin
  2
*Model_Space
 70
     0
 10
0.0
 20
0.0
 30
0.0
  3
*Model_Space
  1

  0
ENDBLK
  5
21
330
1F
100
AcDbEntity
  8
0
100
AcDbBlockEnd
  0
BLOCK
  5
1C
330
1B
100
AcDbEntity
 67
     1
  8
0
100
AcDbBlockBegin
  2
*Paper_Space
 70
     0
 10
0.0
 20
0.0
 30
0.0
  3
*Paper_Space
  1

  0
ENDBLK
  5
1D
330
1B
100
AcDbEntity
 67
     1
  8
0
100
AcDbBlockEnd
  0
BLOCK
  5
24
330
23
100
AcDbEntity
  8
0
100
AcDbBlockBegin
  2
*Paper_Space0
 70
     0
 10
0.0
 20
0.0
 30
0.0
  3
*Paper_Space0
  1

  0
ENDBLK
  5
25
330
23
100
AcDbEntity
  8
0
100
AcDbBlockEnd
  0
ENDSEC
  0
SECTION
  2
ENTITIES
  0
SPLINE
  5
41
330
1F
100
AcDbEntity
  8
layer 1
 62
   250
370
     9
100
AcDbSpline
210
0.0
220
0.0
230
1.0
 70
    11
 71
     3
 72
    24
 73
    20
 74
     0
 42
0.0000000001
 43
0.0000000001
 12
1.0
 22
0.0
 32
0.0
 13
1.0
 23
0.0
 33
0.0
 40
0.0
 40
0.0
 40
0.0
 40
0.0
 40
0.1666666666666667
 40
0.1666666666666667
 40
0.1666666666666667
 40
0.1666666666666667
 40
0.3333333333333333
 40
0.3333333333333333
 40
0.3333333333333333
 40
0.3333333333333333
 40
0.5
 40
0.5
 40
0.5
 40
0.5
 40
0.6666666666666666
 40
0.6666666666666666
 40
0.6666666666666666
 40
0.6666666666666666
 40
1.0
 40
1.0
 40
1.0
 40
1.0
 10
36.7851
 20
3.6028
 30
0.0
 10
36.7851
 20
3.6028
 30
0.0
 10
36.7851
 20
113.7644
 30
0.0
 10
36.7851
 20
113.7644
 30
0.0
 10
36.7851
 20
113.7644
 30
0.0
 10
36.7851
 20
113.7644
 30
0.0
 10
195.9442
 20
113.7644
 30
0.0
 10
195.9442
 20
113.7644
 30
0.0
 10
195.9442
 20
113.7644
 30
0.0
 10
195.9442
 20
113.7644
 30
0.0
 10
195.9442
 20
-106.558
 30
0.0
 10
195.9442
 20
-106.558
 30
0.0
 10
195.9442
 20
-106.558
 30
0.0
 10
195.9442
 20
-106.558
 30
0.0
 10
36.7851
 20
-106.558
 30
0.0
 10
36.7851
 20
-106.558
 30
0.0
 10
36.7851
 20
-106.558
 30
0.0
 10
36.7851
 20
-106.558
 30
0.0
 10
36.7851
 20
3.6028
 30
0.0
 10
36.7851
 20
3.6028
 30
0.0
  0
SPLINE
  5
42
330
1F
100
AcDbEntity
  8
layer 1
 62
     7
370
     9
100
AcDbSpline
210
0.0
220
0.0
230
1.0
 70
    11
 71
     3
 72
    60
 73
    56
 74
     0
 42
0.0000000001
 43
0.0000000001
 12
1.0
 22
0.0
 32
0.0
 13
1.0
 23
0.0
 33
0.0
 40
0.0
 40
0.0
 40
0.0
 40
0.0
 40
0.0666666666666667
 40
0.0666666666666667
 40
0.0666666666666667
 40
0.0666666666666667
 40
0.1333333333333333
 40
0.1333333333333333
 40
0.1333333333333333
 40
0.1333333333333333
 40
0.2
 40
0.2
 40
0.2
 40
0.2
 40
0.2666666666666667
 40
0.2666666666666667
 40
0.2666666666666667
 40
0.2666666666666667
 40
0.3333333333333333
 40
0.3333333333333333
 40
0.3333333333333333
 40
0.3333333333333333
 40
0.4
 40
0.4
 40
0.4
 40
0.4
 40
0.4666666666666667
 40
0.4666666666666667
 40
0.4666666666666667
 40
0.4666666666666667
 40
0.5333333333333333
 40
0.5333333333333333
 40
0.5333333333333333
 40
0.5333333333333333
 40
0.6
 40
0.6
 40
0.6
 40
0.6
 40
0.6666666666666666
 40
0.6666666666666666
 40
0.6666666666666666
 40
0.6666666666666666
 40
0.7333333333333333
 40
0.7333333333333333
 40
0.7333333333333333
 40
0.7333333333333333
 40
0.8
 40
0.8
 40
0.8
 40
0.8
 40
0.8666666666666667
 40
0.8666666666666667
 40
0.8666666666666667
 40
0.8666666666666667
 40
1.0
 40
1.0
 40
1.0
 40
1.0
 10
114.632
 20
-27.0669
 30
0.0
 10
115.2082
 20
-27.1249
 30
0.0
 10
115.7861
 20
-27.1647
 30
0.0
 10
116.3645
 20
-27.1849
 30
0.0
 10
116.3645
 20
-27.1849
 30
0.0
 10
116.9436
 20
-27.1647
 30
0.0
 10
117.5214
 20
-27.1249
 30
0.0
 10
118.0971
 20
-27.0669
 30
0.0
 10
118.0971
 20
-27.0669
 30
0.0
 10
118.7544
 20
-30.6451
 30
0.0
 10
119.1736
 20
-34.2633
 30
0.0
 10
119.3538
 20
-37.8968
 30
0.0
 10
119.3538
 20
-37.8968
 30
0.0
 10
119.1269
 20
-43.0414
 30
0.0
 10
118.6637
 20
-48.1728
 30
0.0
 10
117.9678
 20
-53.2751
 30
0.0
 10
117.9678
 20
-53.2751
 30
0.0
 10
117.5864
 20
-57.1021
 30
0.0
 10
117.7177
 20
-60.9625
 30
0.0
 10
118.3569
 20
-64.7546
 30
0.0
 10
118.3569
 20
-64.7546
 30
0.0
 10
119.1728
 20
-67.9819
 30
0.0
 10
119.5514
 20
-71.3039
 30
0.0
 10
119.4837
 20
-74.6316
 30
0.0
 10
119.4837
 20
-74.6316
 30
0.0
 10
119.2651
 20
-78.7465
 30
0.0
 10
118.612
 20
-82.8269
 30
0.0
 10
117.5339
 20
-86.8042
 30
0.0
 10
117.5339
 20
-86.8042
 30
0.0
 10
117.0568
 20
-90.4438
 30
0.0
 10
116.6669
 20
-94.0941
 30
0.0
 10
116.3645
 20
-97.7521
 30
0.0
 10
116.3645
 20
-97.7521
 30
0.0
 10
116.0619
 20
-94.0941
 30
0.0
 10
115.6722
 20
-90.4438
 30
0.0
 10
115.195
 20
-86.8042
 30
0.0
 10
115.195
 20
-86.8042
 30
0.0
 10
114.1171
 20
-82.8269
 30
0.0
 10
113.4638
 20
-78.7465
 30
0.0
 10
113.2459
 20
-74.6316
 30
0.0
 10
113.2459
 20
-74.6316
 30
0.0
 10
113.1782
 20
-71.3039
 30
0.0
 10
113.5568
 20
-67.9819
 30
0.0
 10
114.3721
 20
-64.7546
 30
0.0
 10
114.3721
 20
-64.7546
 30
0.0
 10
115.0112
 20
-60.9625
 30
0.0
 10
115.1427
 20
-57.1021
 30
0.0
 10
114.7619
 20
-53.2751
 30
0.0
 10
114.7619
 20
-53.2751
 30
0.0
 10
114.0654
 20
-48.1728
 30
0.0
 10
113.6028
 20
-43.0414
 30
0.0
 10
113.3758
 20
-37.8968
 30
0.0
 10
113.3758
 20
-37.8968
 30
0.0
 10
113.5555
 20
-34.2633
 30
0.0
 10
113.9753
 20
-30.6451
 30
0.0
 10
114.632
 20
-27.0669
 30
0.0
  0
SPLINE
  5
43
330
1F
100
AcDbEntity
  8
layer 1
 62
     7
370
     9
100
AcDbSpline
210
0.0
220
0.0
230
1.0
 70
    11
 71
     3
 72
    32
 73
    28
 74
     0
 42
0.0000000001
 43
0.0000000001
 12
1.0
 22
0.0
 32
0.0
 13
1.0
 23
0.0
 33
0.0
 40
0.0
 40
0.0
 40
0.0
 40
0.0
 40
0.125
 40
0.125
 40
0.125
 40
0.125
 40
0.25
 40
0.25
 40
0.25
 40
0.25
 40
0.375
 40
0.375
 40
0.375
 40
0.375
 40
0.5
 40
0.5
 40
0.5
 40
0.5
 40
0.625
 40
0.625
 40
0.625
 40
0.625
 40
0.75
 40
0.75
 40
0.75
 40
0.75
 40
1.0
 40
1.0
 40
1.0
 40
1.0
 10
113.4624
 20
-27.1102
 30
0.0
 10
112.8637
 20
-30.3168
 30
0.0
 10
112.0233
 20
-33.4738
 30
0.0
 10
110.9496
 20
-36.5539
 30
0.0
 10
110.9496
 20
-36.5539
 30
0.0
 10
109.4176
 20
-42.4472
 30
0.0
 10
109.2687
 20
-48.6148
 30
0.0
 10
110.5165
 20
-54.5748
 30
0.0
 10
110.5165
 20
-54.5748
 30
0.0
 10
112.6423
 20
-64.1149
 30
0.0
 10
111.2904
 20
-74.1011
 30
0.0
 10
106.7042
 20
-82.7325
 30
0.0
 10
106.7042
 20
-82.7325
 30
0.0
 10
109.0619
 20
-76.2511
 30
0.0
 10
109.8347
 20
-69.2998
 30
0.0
 10
108.9572
 20
-62.4588
 30
0.0
 10
108.9572
 20
-62.4588
 30
0.0
 10
108.1209
 20
-56.6537
 30
0.0
 10
107.1099
 20
-50.8752
 30
0.0
 10
105.9245
 20
-45.1311
 30
0.0
 10
105.9245
 20
-45.1311
 30
0.0
 10
104.5042
 20
-38.1721
 30
0.0
 10
104.6223
 20
-30.9861
 30
0.0
 10
106.2709
 20
-24.0776
 30
0.0
 10
106.2709
 20
-24.0776
 30
0.0
 10
108.5799
 20
-25.2862
 30
0.0
 10
110.9852
 20
-26.3005
 30
0.0
 10
113.4624
 20
-27.1102
 30
0.0
  0
SPLINE
  5
44
330
1F
100
AcDbEntity
  8
layer 1
 62
     7
370
     9
100
AcDbSpline
210
0.0
220
0.0
230
1.0
 70
    11
 71
     3
 72
    24
 73
    20
 74
     0
 42
0.0000000001
 43
0.0000000001
 12
1.0
 22
0.0
 32
0.0
 13
1.0
 23
0.0
 33
0.0
 40
0.0
 40
0.0
 40
0.0
 40
0.0
 40
0.1666666666666667
 40
0.1666666666666667
 40
0.1666666666666667
 40
0.1666666666666667
 40
0.3333333333333333
 40
0.3333333333333333
 40
0.3333333333333333
 40
0.3333333333333333
 40
0.5
 40
0.5
 40
0.5
 40
0.5
 40
0.6666666666666666
 40
0.6666666666666666
 40
0.6666666666666666
 40
0.6666666666666666
 40
1.0
 40
1.0
 40
1.0
 40
1.0
 10
93.6218
 20
-48.8566
 30
0.0
 10
92.4022
 20
-56.8391
 30
0.0
 10
87.4448
 20
-63.7597
 30
0.0
 10
80.2799
 20
-67.4839
 30
0.0
 10
80.2799
 20
-67.4839
 30
0.0
 10
86.7092
 20
-60.1395
 30
0.0
 10
91.1007
 20
-51.237
 30
0.0
 10
93.0155
 20
-41.6655
 30
0.0
 10
93.0155
 20
-41.6655
 30
0.0
 10
95.0457
 20
-35.1065
 30
0.0
 10
98.9627
 20
-29.2906
 30
0.0
 10
104.2785
 20
-24.9446
 30
0.0
 10
104.2785
 20
-24.9446
 30
0.0
 10
103.5577
 20
-28.6527
 30
0.0
 10
103.2669
 20
-32.4323
 30
0.0
 10
103.4123
 20
-36.2076
 30
0.0
 10
103.4123
 20
-36.2076
 30
0.0
 10
98.8007
 20
-39.1828
 30
0.0
 10
95.3461
 20
-43.6464
 30
0.0
 10
93.6218
 20
-48.8566
 30
0.0
  0
SPLINE
  5
45
330
1F
100
AcDbEntity
  8
layer 1
 62
     7
370
     9
100
AcDbSpline
210
0.0
220
0.0
230
1.0
 70
    11
 71
     3
 72
    60
 73
    56
 74
     0
 42
0.0000000001
 43
0.0000000001
 12
1.0
 22
0.0
 32
0.0
 13
1.0
 23
0.0
 33
0.0
 40
0.0
 40
0.0
 40
0.0
 40
0.0
 40
0.0666666666666667
 40
0.0666666666666667
 40
0.0666666666666667
 40
0.0666666666666667
 40
0.1333333333333333
 40
0.1333333333333333
 40
0.1333333333333333
 40
0.1333333333333333
 40
0.2
 40
0.2
 40
0.2
 40
0.2
 40
0.2666666666666667
 40
0.2666666666666667
 40
0.2666666666666667
 40
0.2666666666666667
 40
0.3333333333333333
 40
0.3333333333333333
 40
0.3333333333333333
 40
0.3333333333333333
 40
0.4
 40
0.4
 40
0.4
 40
0.4
 40
0.4666666666666667
 40
0.4666666666666667
 40
0.4666666666666667
 40
0.4666666666666667
 40
0.5333333333333333
 40
0.5333333333333333
 40
0.5333333333333333
 40
0.5333333333333333
 40
0.6
 40
0.6
 40
0.6
 40
0.6
 40
0.6666666666666666
 40
0.6666666666666666
 40
0.6666666666666666
 40
0.6666666666666666
 40
0.7333333333333333
 40
0.7333333333333333
 40
0.7333333333333333
 40
0.7333333333333333
 40
0.8
 40
0.8
 40
0.8
 40
0.8
 40
0.8666666666666667
 40
0.8666666666666667
 40
0.8666666666666667
 40
0.8666666666666667
 40
1.0
 40
1.0
 40
1.0
 40
1.0
 10
99.34
 20
-42.6185
 30
0.0
 10
96.3277
 20
-46.1036
 30
0.0
 10
94.5064
 20
-50.4593
 30
0.0
 10
94.1417
 20
-55.0513
 30
0.0
 10
94.1417
 20
-55.0513
 30
0.0
 10
93.7254
 20
-58.2704
 30
0.0
 10
93.4794
 20
-61.5094
 30
0.0
 10
93.4054
 20
-64.7546
 30
0.0
 10
93.4054
 20
-64.7546
 30
0.0
 10
93.4662
 20
-68.8802
 30
0.0
 10
92.4665
 20
-72.9525
 30
0.0
 10
90.5026
 20
-76.581
 30
0.0
 10
90.5026
 20
-76.581
 30
0.0
 10
93.184
 20
-74.2823
 30
0.0
 10
94.7851
 20
-70.9696
 30
0.0
 10
94.9213
 20
-67.4405
 30
0.0
 10
94.9213
 20
-67.4405
 30
0.0
 10
95.0114
 20
-64.573
 30
0.0
 10
95.3447
 20
-61.718
 30
0.0
 10
95.9176
 20
-58.9067
 30
0.0
 10
95.9176
 20
-58.9067
 30
0.0
 10
96.341
 20
-56.6276
 30
0.0
 10
97.2575
 20
-54.469
 30
0.0
 10
98.6037
 20
-52.5818
 30
0.0
 10
98.6037
 20
-52.5818
 30
0.0
 10
98.9859
 20
-52.2921
 30
0.0
 10
99.4735
 20
-52.1786
 30
0.0
 10
99.945
 20
-52.2693
 30
0.0
 10
99.945
 20
-52.2693
 30
0.0
 10
100.4159
 20
-52.3602
 30
0.0
 10
100.826
 20
-52.6472
 30
0.0
 10
101.0726
 20
-53.0587
 30
0.0
 10
101.0726
 20
-53.0587
 30
0.0
 10
101.8536
 20
-55.3855
 30
0.0
 10
102.1631
 20
-57.8449
 30
0.0
 10
101.9829
 20
-60.2927
 30
0.0
 10
101.9829
 20
-60.2927
 30
0.0
 10
102.0263
 20
-67.0844
 30
0.0
 10
100.3888
 20
-73.7812
 30
0.0
 10
97.2177
 20
-79.7865
 30
0.0
 10
97.2177
 20
-79.7865
 30
0.0
 10
98.8524
 20
-77.806
 30
0.0
 10
100.3161
 20
-75.6901
 30
0.0
 10
101.5924
 20
-73.4618
 30
0.0
 10
101.5924
 20
-73.4618
 30
0.0
 10
104.1129
 20
-67.5371
 30
0.0
 10
104.9813
 20
-61.0403
 30
0.0
 10
104.1052
 20
-54.6613
 30
0.0
 10
104.1052
 20
-54.6613
 30
0.0
 10
103.9949
 20
-49.2275
 30
0.0
 10
103.7636
 20
-43.7969
 30
0.0
 10
103.4123
 20
-38.3733
 30
0.0
 10
103.4123
 20
-38.3733
 30
0.0
 10
101.7978
 20
-39.5173
 30
0.0
 10
100.4159
 20
-40.958
 30
0.0
 10
99.34
 20
-42.6185
 30
0.0
  0
SPLINE
  5
46
330
1F
100
AcDbEntity
  8
layer 1
 62
     7
370
     9
100
AcDbSpline
210
0.0
220
0.0
230
1.0
 70
    11
 71
     3
 72
    16
 73
    12
 74
     0
 42
0.0000000001
 43
0.0000000001
 12
1.0
 22
0.0
 32
0.0
 13
1.0
 23
0.0
 33
0.0
 40
0.0
 40
0.0
 40
0.0
 40
0.0
 40
0.25
 40
0.25
 40
0.25
 40
0.25
 40
0.5
 40
0.5
 40
0.5
 40
0.5
 40
1.0
 40
1.0
 40
1.0
 40
1.0
 10
73.3482
 20
-58.5602
 30
0.0
 10
81.6471
 20
-43.7215
 30
0.0
 10
90.1379
 20
-28.9915
 30
0.0
 10
98.8204
 20
-14.3746
 30
0.0
 10
98.8204
 20
-14.3746
 30
0.0
 10
100.1323
 20
-17.2724
 30
0.0
 10
101.9514
 20
-19.9132
 30
0.0
 10
104.1919
 20
-22.1717
 30
0.0
 10
104.1919
 20
-22.1717
 30
0.0
 10
93.0204
 20
-33.5171
 30
0.0
 10
82.7103
 20
-45.6806
 30
0.0
 10
73.3482
 20
-58.5602
 30
0.0
  0
SPLINE
  5
47
330
1F
100
AcDbEntity
  8
layer 1
 62
     7
370
     9
100
AcDbSpline
210
0.0
220
0.0
230
1.0
 70
    11
 71
     3
 72
    24
 73
    20
 74
     0
 42
0.0000000001
 43
0.0000000001
 12
1.0
 22
0.0
 32
0.0
 13
1.0
 23
0.0
 33
0.0
 40
0.0
 40
0.0
 40
0.0
 40
0.0
 40
0.1666666666666667
 40
0.1666666666666667
 40
0.1666666666666667
 40
0.1666666666666667
 40
0.3333333333333333
 40
0.3333333333333333
 40
0.3333333333333333
 40
0.3333333333333333
 40
0.5
 40
0.5
 40
0.5
 40
0.5
 40
0.6666666666666666
 40
0.6666666666666666
 40
0.6666666666666666
 40
0.6666666666666666
 40
1.0
 40
1.0
 40
1.0
 40
1.0
 10
66.7638
 20
-48.6834
 30
0.0
 10
67.5819
 20
-42.3925
 30
0.0
 10
70.7362
 20
-36.6399
 30
0.0
 10
75.6012
 20
-32.5684
 30
0.0
 10
75.6012
 20
-32.5684
 30
0.0
 10
82.0459
 20
-28.4495
 30
0.0
 10
86.8789
 20
-22.2395
 30
0.0
 10
89.2899
 20
-14.981
 30
0.0
 10
89.2899
 20
-14.981
 30
0.0
 10
91.7978
 20
-14.786
 30
0.0
 10
94.2876
 20
-14.4101
 30
0.0
 10
96.7412
 20
-13.8548
 30
0.0
 10
96.7412
 20
-13.8548
 30
0.0
 10
93.946
 20
-21.0715
 30
0.0
 10
89.0202
 20
-27.2667
 30
0.0
 10
82.6188
 20
-31.6156
 30
0.0
 10
82.6188
 20
-31.6156
 30
0.0
 10
75.5042
 20
-35.2798
 30
0.0
 10
69.8951
 20
-41.318
 30
0.0
 10
66.7638
 20
-48.6834
 30
0.0
  0
SPLINE
  5
48
330
1F
100
AcDbEntity
  8
layer 1
 62
     7
370
     9
100
AcDbSpline
210
0.0
220
0.0
230
1.0
 70
    11
 71
     3
 72
    52
 73
    48
 74
     0
 42
0.0000000001
 43
0.0000000001
 12
1.0
 22
0.0
 32
0.0
 13
1.0
 23
0.0
 33
0.0
 40
0.0
 40
0.0
 40
0.0
 40
0.0
 40
0.0769230769230769
 40
0.0769230769230769
 40
0.0769230769230769
 40
0.0769230769230769
 40
0.1538461538461539
 40
0.1538461538461539
 40
0.1538461538461539
 40
0.1538461538461539
 40
0.2307692307692308
 40
0.2307692307692308
 40
0.2307692307692308
 40
0.2307692307692308
 40
0.3076923076923077
 40
0.3076923076923077
 40
0.3076923076923077
 40
0.3076923076923077
 40
0.3846153846153846
 40
0.3846153846153846
 40
0.3846153846153846
 40
0.3846153846153846
 40
0.4615384615384616
 40
0.4615384615384616
 40
0.4615384615384616
 40
0.4615384615384616
 40
0.5384615384615384
 40
0.5384615384615384
 40
0.5384615384615384
 40
0.5384615384615384
 40
0.6153846153846154
 40
0.6153846153846154
 40
0.6153846153846154
 40
0.6153846153846154
 40
0.6923076923076923
 40
0.6923076923076923
 40
0.6923076923076923
 40
0.6923076923076923
 40
0.7692307692307693
 40
0.7692307692307693
 40
0.7692307692307693
 40
0.7692307692307693
 40
0.8461538461538461
 40
0.8461538461538461
 40
0.8461538461538461
 40
0.8461538461538461
 40
1.0
 40
1.0
 40
1.0
 40
1.0
 10
80.8862
 20
-25.3777
 30
0.0
 10
83.59
 20
-22.2668
 30
0.0
 10
85.7913
 20
-18.7521
 30
0.0
 10
87.4098
 20
-14.9614
 30
0.0
 10
87.4098
 20
-14.9614
 30
0.0
 10
84.1858
 20
-14.8481
 30
0.0
 10
80.9758
 20
-14.478
 30
0.0
 10
77.8102
 20
-13.8548
 30
0.0
 10
77.8102
 20
-13.8548
 30
0.0
 10
73.5773
 20
-13.4174
 30
0.0
 10
69.3034
 20
-14.1049
 30
0.0
 10
65.4212
 20
-15.8472
 30
0.0
 10
65.4212
 20
-15.8472
 30
0.0
 10
62.3145
 20
-17.6881
 30
0.0
 10
59.9642
 20
-20.5754
 30
0.0
 10
58.7935
 20
-23.9916
 30
0.0
 10
58.7935
 20
-23.9916
 30
0.0
 10
61.0996
 20
-20.9184
 30
0.0
 10
64.3118
 20
-18.6458
 30
0.0
 10
67.9774
 20
-17.4932
 30
0.0
 10
67.9774
 20
-17.4932
 30
0.0
 10
70.7494
 20
-16.636
 30
0.0
 10
73.7227
 20
-16.6813
 30
0.0
 10
76.4676
 20
-17.6231
 30
0.0
 10
76.4676
 20
-17.6231
 30
0.0
 10
77.8088
 20
-18.7262
 30
0.0
 10
78.2364
 20
-20.5956
 30
0.0
 10
77.507
 20
-22.1717
 30
0.0
 10
77.507
 20
-22.1717
 30
0.0
 10
76.4278
 20
-23.8576
 30
0.0
 10
74.832
 20
-25.1491
 30
0.0
 10
72.9585
 20
-25.8541
 30
0.0
 10
72.9585
 20
-25.8541
 30
0.0
 10
70.5985
 20
-26.3312
 30
0.0
 10
68.2806
 20
-26.9977
 30
0.0
 10
66.0276
 20
-27.8465
 30
0.0
 10
66.0276
 20
-27.8465
 30
0.0
 10
63.4183
 20
-28.9992
 30
0.0
 10
61.4196
 20
-31.2027
 30
0.0
 10
60.5261
 20
-33.9118
 30
0.0
 10
60.5261
 20
-33.9118
 30
0.0
 10
62.5917
 20
-31.1796
 30
0.0
 10
65.7683
 20
-29.5114
 30
0.0
 10
69.1893
 20
-29.3632
 30
0.0
 10
69.1893
 20
-29.3632
 30
0.0
 10
73.4363
 20
-29.4555
 30
0.0
 10
77.5791
 20
-28.0436
 30
0.0
 10
80.8862
 20
-25.3777
 30
0.0
  0
SPLINE
  5
49
330
1F
100
AcDbEntity
  8
layer 1
 62
     7
370
     9
100
AcDbSpline
210
0.0
220
0.0
230
1.0
 70
    11
 71
     3
 72
    32
 73
    28
 74
     0
 42
0.0000000001
 43
0.0000000001
 12
1.0
 22
0.0
 32
0.0
 13
1.0
 23
0.0
 33
0.0
 40
0.0
 40
0.0
 40
0.0
 40
0.0
 40
0.125
 40
0.125
 40
0.125
 40
0.125
 40
0.25
 40
0.25
 40
0.25
 40
0.25
 40
0.375
 40
0.375
 40
0.375
 40
0.375
 40
0.5
 40
0.5
 40
0.5
 40
0.5
 40
0.625
 40
0.625
 40
0.625
 40
0.625
 40
0.75
 40
0.75
 40
0.75
 40
0.75
 40
1.0
 40
1.0
 40
1.0
 40
1.0
 10
56.0207
 20
-10.3023
 30
0.0
 10
61.3839
 20
-4.3006
 30
0.0
 10
69.8797
 20
-2.2027
 30
0.0
 10
77.4205
 20
-5.0173
 30
0.0
 10
77.4205
 20
-5.0173
 30
0.0
 10
81.3677
 20
-6.3455
 30
0.0
 10
85.7045
 20
-5.8033
 30
0.0
 10
89.2032
 20
-3.5447
 30
0.0
 10
89.2032
 20
-3.5447
 30
0.0
 10
90.826
 20
-1.9581
 30
0.0
 10
92.9281
 20
-0.9529
 30
0.0
 10
95.1811
 20
-0.6853
 30
0.0
 10
95.1811
 20
-0.6853
 30
0.0
 10
95.4481
 20
-4.2558
 30
0.0
 10
96.2661
 20
-7.763
 30
0.0
 10
97.6074
 20
-11.082
 30
0.0
 10
97.6074
 20
-11.082
 30
0.0
 10
95.9204
 20
-11.7925
 30
0.0
 10
94.1411
 20
-12.2591
 30
0.0
 10
92.3226
 20
-12.468
 30
0.0
 10
92.3226
 20
-12.468
 30
0.0
 10
86.2899
 20
-12.913
 30
0.0
 10
80.2821
 20
-11.3271
 30
0.0
 10
75.2548
 20
-7.9634
 30
0.0
 10
75.2548
 20
-7.9634
 30
0.0
 10
68.845
 20
-5.5623
 30
0.0
 10
61.6681
 20
-6.4356
 30
0.0
 10
56.0207
 20
-10.3023
 30
0.0
  0
SPLINE
  5
4A
330
1F
100
AcDbEntity
  8
layer 1
 62
     7
370
     9
100
AcDbSpline
210
0.0
220
0.0
230
1.0
 70
    11
 71
     3
 72
    52
 73
    48
 74
     0
 42
0.0000000001
 43
0.0000000001
 12
1.0
 22
0.0
 32
0.0
 13
1.0
 23
0.0
 33
0.0
 40
0.0
 40
0.0
 40
0.0
 40
0.0
 40
0.0769230769230769
 40
0.0769230769230769
 40
0.0769230769230769
 40
0.0769230769230769
 40
0.1538461538461539
 40
0.1538461538461539
 40
0.1538461538461539
 40
0.1538461538461539
 40
0.2307692307692308
 40
0.2307692307692308
 40
0.2307692307692308
 40
0.2307692307692308
 40
0.3076923076923077
 40
0.3076923076923077
 40
0.3076923076923077
 40
0.3076923076923077
 40
0.3846153846153846
 40
0.3846153846153846
 40
0.3846153846153846
 40
0.3846153846153846
 40
0.4615384615384616
 40
0.4615384615384616
 40
0.4615384615384616
 40
0.4615384615384616
 40
0.5384615384615384
 40
0.5384615384615384
 40
0.5384615384615384
 40
0.5384615384615384
 40
0.6153846153846154
 40
0.6153846153846154
 40
0.6153846153846154
 40
0.6153846153846154
 40
0.6923076923076923
 40
0.6923076923076923
 40
0.6923076923076923
 40
0.6923076923076923
 40
0.7692307692307693
 40
0.7692307692307693
 40
0.7692307692307693
 40
0.7692307692307693
 40
0.8461538461538461
 40
0.8461538461538461
 40
0.8461538461538461
 40
0.8461538461538461
 40
1.0
 40
1.0
 40
1.0
 40
1.0
 10
50.8223
 20
3.2137
 30
0.0
 10
49.4571
 20
3.1689
 30
0.0
 10
48.0915
 20
3.2996
 30
0.0
 10
46.7591
 20
3.6028
 30
0.0
 10
46.7591
 20
3.6028
 30
0.0
 10
48.0915
 20
3.9066
 30
0.0
 10
49.4571
 20
4.0373
 30
0.0
 10
50.8223
 20
3.9934
 30
0.0
 10
50.8223
 20
3.9934
 30
0.0
 10
52.7819
 20
4.3524
 30
0.0
 10
54.6794
 20
4.9938
 30
0.0
 10
56.4537
 20
5.8992
 30
0.0
 10
56.4537
 20
5.8992
 30
0.0
 10
60.0132
 20
8.4134
 30
0.0
 10
64.7029
 20
8.6503
 30
0.0
 10
68.4964
 20
6.5056
 30
0.0
 10
68.4964
 20
6.5056
 30
0.0
 10
72.681
 20
5.2655
 30
0.0
 10
77.1353
 20
5.2655
 30
0.0
 10
81.3193
 20
6.5056
 30
0.0
 10
81.3193
 20
6.5056
 30
0.0
 10
85.6968
 20
8.3841
 30
0.0
 10
90.7025
 20
8.0956
 30
0.0
 10
94.8348
 20
5.7259
 30
0.0
 10
94.8348
 20
5.7259
 30
0.0
 10
94.8655
 20
5.0182
 30
0.0
 10
94.8884
 20
4.3112
 30
0.0
 10
94.9025
 20
3.6028
 30
0.0
 10
94.9025
 20
3.6028
 30
0.0
 10
94.8884
 20
2.8951
 30
0.0
 10
94.8655
 20
2.1881
 30
0.0
 10
94.8348
 20
1.4803
 30
0.0
 10
94.8348
 20
1.4803
 30
0.0
 10
90.7025
 20
-0.8893
 30
0.0
 10
85.6968
 20
-1.1778
 30
0.0
 10
81.3193
 20
0.7007
 30
0.0
 10
81.3193
 20
0.7007
 30
0.0
 10
77.1353
 20
1.9408
 30
0.0
 10
72.681
 20
1.9408
 30
0.0
 10
68.4964
 20
0.7007
 30
0.0
 10
68.4964
 20
0.7007
 30
0.0
 10
64.7029
 20
-1.444
 30
0.0
 10
60.0132
 20
-1.2071
 30
0.0
 10
56.4537
 20
1.3071
 30
0.0
 10
56.4537
 20
1.3071
 30
0.0
 10
54.6794
 20
2.2119
 30
0.0
 10
52.7819
 20
2.8539
 30
0.0
 10
50.8223
 20
3.2137
 30
0.0
  0
SPLINE
  5
4B
330
1F
100
AcDbEntity
  8
layer 1
 62
     7
370
     9
100
AcDbSpline
210
0.0
220
0.0
230
1.0
 70
    11
 71
     3
 72
    32
 73
    28
 74
     0
 42
0.0000000001
 43
0.0000000001
 12
1.0
 22
0.0
 32
0.0
 13
1.0
 23
0.0
 33
0.0
 40
0.0
 40
0.0
 40
0.0
 40
0.0
 40
0.125
 40
0.125
 40
0.125
 40
0.125
 40
0.25
 40
0.25
 40
0.25
 40
0.25
 40
0.375
 40
0.375
 40
0.375
 40
0.375
 40
0.5
 40
0.5
 40
0.5
 40
0.5
 40
0.625
 40
0.625
 40
0.625
 40
0.625
 40
0.75
 40
0.75
 40
0.75
 40
0.75
 40
1.0
 40
1.0
 40
1.0
 40
1.0
 10
119.2673
 20
-27.1102
 30
0.0
 10
119.8659
 20
-30.3168
 30
0.0
 10
120.7056
 20
-33.4738
 30
0.0
 10
121.7795
 20
-36.5539
 30
0.0
 10
121.7795
 20
-36.5539
 30
0.0
 10
123.3121
 20
-42.4472
 30
0.0
 10
123.4602
 20
-48.6148
 30
0.0
 10
122.2126
 20
-54.5748
 30
0.0
 10
122.2126
 20
-54.5748
 30
0.0
 10
120.0867
 20
-64.1149
 30
0.0
 10
121.4385
 20
-74.1011
 30
0.0
 10
126.0249
 20
-82.7325
 30
0.0
 10
126.0249
 20
-82.7325
 30
0.0
 10
123.6671
 20
-76.2511
 30
0.0
 10
122.895
 20
-69.2998
 30
0.0
 10
123.7725
 20
-62.4588
 30
0.0
 10
123.7725
 20
-62.4588
 30
0.0
 10
124.6082
 20
-56.6537
 30
0.0
 10
125.6197
 20
-50.8752
 30
0.0
 10
126.8045
 20
-45.1311
 30
0.0
 10
126.8045
 20
-45.1311
 30
0.0
 10
128.225
 20
-38.1721
 30
0.0
 10
128.1068
 20
-30.9861
 30
0.0
 10
126.458
 20
-24.0776
 30
0.0
 10
126.458
 20
-24.0776
 30
0.0
 10
124.1491
 20
-25.2862
 30
0.0
 10
121.7439
 20
-26.3005
 30
0.0
 10
119.2673
 20
-27.1102
 30
0.0
  0
SPLINE
  5
4C
330
1F
100
AcDbEntity
  8
layer 1
 62
     7
370
     9
100
AcDbSpline
210
0.0
220
0.0
230
1.0
 70
    11
 71
     3
 72
    24
 73
    20
 74
     0
 42
0.0000000001
 43
0.0000000001
 12
1.0
 22
0.0
 32
0.0
 13
1.0
 23
0.0
 33
0.0
 40
0.0
 40
0.0
 40
0.0
 40
0.0
 40
0.1666666666666667
 40
0.1666666666666667
 40
0.1666666666666667
 40
0.1666666666666667
 40
0.3333333333333333
 40
0.3333333333333333
 40
0.3333333333333333
 40
0.3333333333333333
 40
0.5
 40
0.5
 40
0.5
 40
0.5
 40
0.6666666666666666
 40
0.6666666666666666
 40
0.6666666666666666
 40
0.6666666666666666
 40
1.0
 40
1.0
 40
1.0
 40
1.0
 10
139.1072
 20
-48.8566
 30
0.0
 10
140.3273
 20
-56.8391
 30
0.0
 10
145.2844
 20
-63.7597
 30
0.0
 10
152.4496
 20
-67.4839
 30
0.0
 10
152.4496
 20
-67.4839
 30
0.0
 10
146.0199
 20
-60.1395
 30
0.0
 10
141.6286
 20
-51.237
 30
0.0
 10
139.7136
 20
-41.6655
 30
0.0
 10
139.7136
 20
-41.6655
 30
0.0
 10
137.6832
 20
-35.1065
 30
0.0
 10
133.7659
 20
-29.2906
 30
0.0
 10
128.4508
 20
-24.9446
 30
0.0
 10
128.4508
 20
-24.9446
 30
0.0
 10
129.1714
 20
-28.6527
 30
0.0
 10
129.4621
 20
-32.4323
 30
0.0
 10
129.3172
 20
-36.2076
 30
0.0
 10
129.3172
 20
-36.2076
 30
0.0
 10
133.9285
 20
-39.1828
 30
0.0
 10
137.3832
 20
-43.6464
 30
0.0
 10
139.1072
 20
-48.8566
 30
0.0
  0
SPLINE
  5
4D
330
1F
100
AcDbEntity
  8
layer 1
 62
     7
370
     9
100
AcDbSpline
210
0.0
220
0.0
230
1.0
 70
    11
 71
     3
 72
    60
 73
    56
 74
     0
 42
0.0000000001
 43
0.0000000001
 12
1.0
 22
0.0
 32
0.0
 13
1.0
 23
0.0
 33
0.0
 40
0.0
 40
0.0
 40
0.0
 40
0.0
 40
0.0666666666666667
 40
0.0666666666666667
 40
0.0666666666666667
 40
0.0666666666666667
 40
0.1333333333333333
 40
0.1333333333333333
 40
0.1333333333333333
 40
0.1333333333333333
 40
0.2
 40
0.2
 40
0.2
 40
0.2
 40
0.2666666666666667
 40
0.2666666666666667
 40
0.2666666666666667
 40
0.2666666666666667
 40
0.3333333333333333
 40
0.3333333333333333
 40
0.3333333333333333
 40
0.3333333333333333
 40
0.4
 40
0.4
 40
0.4
 40
0.4
 40
0.4666666666666667
 40
0.4666666666666667
 40
0.4666666666666667
 40
0.4666666666666667
 40
0.5333333333333333
 40
0.5333333333333333
 40
0.5333333333333333
 40
0.5333333333333333
 40
0.6
 40
0.6
 40
0.6
 40
0.6
 40
0.6666666666666666
 40
0.6666666666666666
 40
0.6666666666666666
 40
0.6666666666666666
 40
0.7333333333333333
 40
0.7333333333333333
 40
0.7333333333333333
 40
0.7333333333333333
 40
0.8
 40
0.8
 40
0.8
 40
0.8
 40
0.8666666666666667
 40
0.8666666666666667
 40
0.8666666666666667
 40
0.8666666666666667
 40
1.0
 40
1.0
 40
1.0
 40
1.0
 10
133.3891
 20
-42.6185
 30
0.0
 10
136.4015
 20
-46.1036
 30
0.0
 10
138.2228
 20
-50.4593
 30
0.0
 10
138.5874
 20
-55.0513
 30
0.0
 10
138.5874
 20
-55.0513
 30
0.0
 10
139.0041
 20
-58.2704
 30
0.0
 10
139.25
 20
-61.5094
 30
0.0
 10
139.3239
 20
-64.7546
 30
0.0
 10
139.3239
 20
-64.7546
 30
0.0
 10
139.2635
 20
-68.8802
 30
0.0
 10
140.2627
 20
-72.9525
 30
0.0
 10
142.2262
 20
-76.581
 30
0.0
 10
142.2262
 20
-76.581
 30
0.0
 10
139.5453
 20
-74.2823
 30
0.0
 10
137.944
 20
-70.9696
 30
0.0
 10
137.8078
 20
-67.4405
 30
0.0
 10
137.8078
 20
-67.4405
 30
0.0
 10
137.7176
 20
-64.573
 30
0.0
 10
137.3842
 20
-61.718
 30
0.0
 10
136.8115
 20
-58.9067
 30
0.0
 10
136.8115
 20
-58.9067
 30
0.0
 10
136.3887
 20
-56.6276
 30
0.0
 10
135.4718
 20
-54.469
 30
0.0
 10
134.1256
 20
-52.5818
 30
0.0
 10
134.1256
 20
-52.5818
 30
0.0
 10
133.7432
 20
-52.2921
 30
0.0
 10
133.2556
 20
-52.1786
 30
0.0
 10
132.7845
 20
-52.2693
 30
0.0
 10
132.7845
 20
-52.2693
 30
0.0
 10
132.3136
 20
-52.3602
 30
0.0
 10
131.9034
 20
-52.6472
 30
0.0
 10
131.6565
 20
-53.0587
 30
0.0
 10
131.6565
 20
-53.0587
 30
0.0
 10
130.8757
 20
-55.3855
 30
0.0
 10
130.5665
 20
-57.8449
 30
0.0
 10
130.7466
 20
-60.2927
 30
0.0
 10
130.7466
 20
-60.2927
 30
0.0
 10
130.7032
 20
-67.0844
 30
0.0
 10
132.3403
 20
-73.7812
 30
0.0
 10
135.5116
 20
-79.7865
 30
0.0
 10
135.5116
 20
-79.7865
 30
0.0
 10
133.877
 20
-77.806
 30
0.0
 10
132.4134
 20
-75.6901
 30
0.0
 10
131.1367
 20
-73.4618
 30
0.0
 10
131.1367
 20
-73.4618
 30
0.0
 10
128.6157
 20
-67.5371
 30
0.0
 10
127.7476
 20
-61.0403
 30
0.0
 10
128.6241
 20
-54.6613
 30
0.0
 10
128.6241
 20
-54.6613
 30
0.0
 10
128.734
 20
-49.2275
 30
0.0
 10
128.9651
 20
-43.7969
 30
0.0
 10
129.3172
 20
-38.3733
 30
0.0
 10
129.3172
 20
-38.3733
 30
0.0
 10
130.9313
 20
-39.5173
 30
0.0
 10
132.3132
 20
-40.958
 30
0.0
 10
133.3891
 20
-42.6185
 30
0.0
  0
SPLINE
  5
4E
330
1F
100
AcDbEntity
  8
layer 1
 62
     7
370
     9
100
AcDbSpline
210
0.0
220
0.0
230
1.0
 70
    11
 71
     3
 72
    16
 73
    12
 74
     0
 42
0.0000000001
 43
0.0000000001
 12
1.0
 22
0.0
 32
0.0
 13
1.0
 23
0.0
 33
0.0
 40
0.0
 40
0.0
 40
0.0
 40
0.0
 40
0.25
 40
0.25
 40
0.25
 40
0.25
 40
0.5
 40
0.5
 40
0.5
 40
0.5
 40
1.0
 40
1.0
 40
1.0
 40
1.0
 10
159.3807
 20
-58.5602
 30
0.0
 10
151.0824
 20
-43.7215
 30
0.0
 10
142.591
 20
-28.9915
 30
0.0
 10
133.9089
 20
-14.3746
 30
0.0
 10
133.9089
 20
-14.3746
 30
0.0
 10
132.5968
 20
-17.2724
 30
0.0
 10
130.7776
 20
-19.9132
 30
0.0
 10
128.5371
 20
-22.1717
 30
0.0
 10
128.5371
 20
-22.1717
 30
0.0
 10
139.709
 20
-33.5171
 30
0.0
 10
150.0188
 20
-45.6806
 30
0.0
 10
159.3807
 20
-58.5602
 30
0.0
  0
SPLINE
  5
4F
330
1F
100
AcDbEntity
  8
layer 1
 62
     7
370
     9
100
AcDbSpline
210
0.0
220
0.0
230
1.0
 70
    11
 71
     3
 72
    24
 73
    20
 74
     0
 42
0.0000000001
 43
0.0000000001
 12
1.0
 22
0.0
 32
0.0
 13
1.0
 23
0.0
 33
0.0
 40
0.0
 40
0.0
 40
0.0
 40
0.0
 40
0.1666666666666667
 40
0.1666666666666667
 40
0.1666666666666667
 40
0.1666666666666667
 40
0.3333333333333333
 40
0.3333333333333333
 40
0.3333333333333333
 40
0.3333333333333333
 40
0.5
 40
0.5
 40
0.5
 40
0.5
 40
0.6666666666666666
 40
0.6666666666666666
 40
0.6666666666666666
 40
0.6666666666666666
 40
1.0
 40
1.0
 40
1.0
 40
1.0
 10
165.9652
 20
-48.6834
 30
0.0
 10
165.1477
 20
-42.3925
 30
0.0
 10
161.9931
 20
-36.6399
 30
0.0
 10
157.1281
 20
-32.5684
 30
0.0
 10
157.1281
 20
-32.5684
 30
0.0
 10
150.6831
 20
-28.4495
 30
0.0
 10
145.8502
 20
-22.2395
 30
0.0
 10
143.4392
 20
-14.981
 30
0.0
 10
143.4392
 20
-14.981
 30
0.0
 10
140.9317
 20
-14.786
 30
0.0
 10
138.4415
 20
-14.4101
 30
0.0
 10
135.9884
 20
-13.8548
 30
0.0
 10
135.9884
 20
-13.8548
 30
0.0
 10
138.7831
 20
-21.0715
 30
0.0
 10
143.7087
 20
-27.2667
 30
0.0
 10
150.1104
 20
-31.6156
 30
0.0
 10
150.1104
 20
-31.6156
 30
0.0
 10
157.2253
 20
-35.2798
 30
0.0
 10
162.8341
 20
-41.318
 30
0.0
 10
165.9652
 20
-48.6834
 30
0.0
  0
SPLINE
  5
50
330
1F
100
AcDbEntity
  8
layer 1
 62
     7
370
     9
100
AcDbSpline
210
0.0
220
0.0
230
1.0
 70
    11
 71
     3
 72
    52
 73
    48
 74
     0
 42
0.0000000001
 43
0.0000000001
 12
1.0
 22
0.0
 32
0.0
 13
1.0
 23
0.0
 33
0.0
 40
0.0
 40
0.0
 40
0.0
 40
0.0
 40
0.0769230769230769
 40
0.0769230769230769
 40
0.0769230769230769
 40
0.0769230769230769
 40
0.1538461538461539
 40
0.1538461538461539
 40
0.1538461538461539
 40
0.1538461538461539
 40
0.2307692307692308
 40
0.2307692307692308
 40
0.2307692307692308
 40
0.2307692307692308
 40
0.3076923076923077
 40
0.3076923076923077
 40
0.3076923076923077
 40
0.3076923076923077
 40
0.3846153846153846
 40
0.3846153846153846
 40
0.3846153846153846
 40
0.3846153846153846
 40
0.4615384615384616
 40
0.4615384615384616
 40
0.4615384615384616
 40
0.4615384615384616
 40
0.5384615384615384
 40
0.5384615384615384
 40
0.5384615384615384
 40
0.5384615384615384
 40
0.6153846153846154
 40
0.6153846153846154
 40
0.6153846153846154
 40
0.6153846153846154
 40
0.6923076923076923
 40
0.6923076923076923
 40
0.6923076923076923
 40
0.6923076923076923
 40
0.7692307692307693
 40
0.7692307692307693
 40
0.7692307692307693
 40
0.7692307692307693
 40
0.8461538461538461
 40
0.8461538461538461
 40
0.8461538461538461
 40
0.8461538461538461
 40
1.0
 40
1.0
 40
1.0
 40
1.0
 10
151.8432
 20
-25.3777
 30
0.0
 10
149.1391
 20
-22.2668
 30
0.0
 10
146.938
 20
-18.7521
 30
0.0
 10
145.3195
 20
-14.9614
 30
0.0
 10
145.3195
 20
-14.9614
 30
0.0
 10
148.5434
 20
-14.8481
 30
0.0
 10
151.7535
 20
-14.478
 30
0.0
 10
154.9188
 20
-13.8548
 30
0.0
 10
154.9188
 20
-13.8548
 30
0.0
 10
159.152
 20
-13.4174
 30
0.0
 10
163.4255
 20
-14.1049
 30
0.0
 10
167.3083
 20
-15.8472
 30
0.0
 10
167.3083
 20
-15.8472
 30
0.0
 10
170.4152
 20
-17.6881
 30
0.0
 10
172.7648
 20
-20.5754
 30
0.0
 10
173.936
 20
-23.9916
 30
0.0
 10
173.936
 20
-23.9916
 30
0.0
 10
171.6297
 20
-20.9184
 30
0.0
 10
168.4178
 20
-18.6458
 30
0.0
 10
164.7523
 20
-17.4932
 30
0.0
 10
164.7523
 20
-17.4932
 30
0.0
 10
161.9796
 20
-16.636
 30
0.0
 10
159.0068
 20
-16.6813
 30
0.0
 10
156.2617
 20
-17.6231
 30
0.0
 10
156.2617
 20
-17.6231
 30
0.0
 10
154.9202
 20
-18.7262
 30
0.0
 10
154.4929
 20
-20.5956
 30
0.0
 10
155.222
 20
-22.1717
 30
0.0
 10
155.222
 20
-22.1717
 30
0.0
 10
156.3019
 20
-23.8576
 30
0.0
 10
157.8972
 20
-25.1491
 30
0.0
 10
159.7706
 20
-25.8541
 30
0.0
 10
159.7706
 20
-25.8541
 30
0.0
 10
162.1305
 20
-26.3312
 30
0.0
 10
164.4485
 20
-26.9977
 30
0.0
 10
166.7015
 20
-27.8465
 30
0.0
 10
166.7015
 20
-27.8465
 30
0.0
 10
169.3108
 20
-28.9992
 30
0.0
 10
171.3097
 20
-31.2027
 30
0.0
 10
172.2032
 20
-33.9118
 30
0.0
 10
172.2032
 20
-33.9118
 30
0.0
 10
170.1379
 20
-31.1796
 30
0.0
 10
166.9611
 20
-29.5114
 30
0.0
 10
163.5393
 20
-29.3632
 30
0.0
 10
163.5393
 20
-29.3632
 30
0.0
 10
159.2926
 20
-29.4555
 30
0.0
 10
155.1499
 20
-28.0436
 30
0.0
 10
151.8432
 20
-25.3777
 30
0.0
  0
SPLINE
  5
51
330
1F
100
AcDbEntity
  8
layer 1
 62
     7
370
     9
100
AcDbSpline
210
0.0
220
0.0
230
1.0
 70
    11
 71
     3
 72
    32
 73
    28
 74
     0
 42
0.0000000001
 43
0.0000000001
 12
1.0
 22
0.0
 32
0.0
 13
1.0
 23
0.0
 33
0.0
 40
0.0
 40
0.0
 40
0.0
 40
0.0
 40
0.125
 40
0.125
 40
0.125
 40
0.125
 40
0.25
 40
0.25
 40
0.25
 40
0.25
 40
0.375
 40
0.375
 40
0.375
 40
0.375
 40
0.5
 40
0.5
 40
0.5
 40
0.5
 40
0.625
 40
0.625
 40
0.625
 40
0.625
 40
0.75
 40
0.75
 40
0.75
 40
0.75
 40
1.0
 40
1.0
 40
1.0
 40
1.0
 10
176.7084
 20
-10.3023
 30
0.0
 10
171.3451
 20
-4.3006
 30
0.0
 10
162.8496
 20
-2.2027
 30
0.0
 10
155.3088
 20
-5.0173
 30
0.0
 10
155.3088
 20
-5.0173
 30
0.0
 10
151.3616
 20
-6.3455
 30
0.0
 10
147.0245
 20
-5.8033
 30
0.0
 10
143.5257
 20
-3.5447
 30
0.0
 10
143.5257
 20
-3.5447
 30
0.0
 10
141.903
 20
-1.9581
 30
0.0
 10
139.8013
 20
-0.9529
 30
0.0
 10
137.5477
 20
-0.6853
 30
0.0
 10
137.5477
 20
-0.6853
 30
0.0
 10
137.281
 20
-4.2558
 30
0.0
 10
136.4629
 20
-7.763
 30
0.0
 10
135.1219
 20
-11.082
 30
0.0
 10
135.1219
 20
-11.082
 30
0.0
 10
136.8089
 20
-11.7925
 30
0.0
 10
138.5884
 20
-12.2591
 30
0.0
 10
140.4067
 20
-12.468
 30
0.0
 10
140.4067
 20
-12.468
 30
0.0
 10
146.4393
 20
-12.913
 30
0.0
 10
152.4474
 20
-11.3271
 30
0.0
 10
157.4746
 20
-7.9634
 30
0.0
 10
157.4746
 20
-7.9634
 30
0.0
 10
163.8841
 20
-5.5623
 30
0.0
 10
171.0614
 20
-6.4356
 30
0.0
 10
176.7084
 20
-10.3023
 30
0.0
  0
SPLINE
  5
52
330
1F
100
AcDbEntity
  8
layer 1
 62
     7
370
     9
100
AcDbSpline
210
0.0
220
0.0
230
1.0
 70
    11
 71
     3
 72
    52
 73
    48
 74
     0
 42
0.0000000001
 43
0.0000000001
 12
1.0
 22
0.0
 32
0.0
 13
1.0
 23
0.0
 33
0.0
 40
0.0
 40
0.0
 40
0.0
 40
0.0
 40
0.0769230769230769
 40
0.0769230769230769
 40
0.0769230769230769
 40
0.0769230769230769
 40
0.1538461538461539
 40
0.1538461538461539
 40
0.1538461538461539
 40
0.1538461538461539
 40
0.2307692307692308
 40
0.2307692307692308
 40
0.2307692307692308
 40
0.2307692307692308
 40
0.3076923076923077
 40
0.3076923076923077
 40
0.3076923076923077
 40
0.3076923076923077
 40
0.3846153846153846
 40
0.3846153846153846
 40
0.3846153846153846
 40
0.3846153846153846
 40
0.4615384615384616
 40
0.4615384615384616
 40
0.4615384615384616
 40
0.4615384615384616
 40
0.5384615384615384
 40
0.5384615384615384
 40
0.5384615384615384
 40
0.5384615384615384
 40
0.6153846153846154
 40
0.6153846153846154
 40
0.6153846153846154
 40
0.6153846153846154
 40
0.6923076923076923
 40
0.6923076923076923
 40
0.6923076923076923
 40
0.6923076923076923
 40
0.7692307692307693
 40
0.7692307692307693
 40
0.7692307692307693
 40
0.7692307692307693
 40
0.8461538461538461
 40
0.8461538461538461
 40
0.8461538461538461
 40
0.8461538461538461
 40
1.0
 40
1.0
 40
1.0
 40
1.0
 10
181.9067
 20
3.2137
 30
0.0
 10
183.2724
 20
3.1689
 30
0.0
 10
184.6378
 20
3.2996
 30
0.0
 10
185.9697
 20
3.6028
 30
0.0
 10
185.9697
 20
3.6028
 30
0.0
 10
184.6378
 20
3.9066
 30
0.0
 10
183.2724
 20
4.0373
 30
0.0
 10
181.9067
 20
3.9934
 30
0.0
 10
181.9067
 20
3.9934
 30
0.0
 10
179.947
 20
4.3524
 30
0.0
 10
178.0501
 20
4.9938
 30
0.0
 10
176.2753
 20
5.8992
 30
0.0
 10
176.2753
 20
5.8992
 30
0.0
 10
172.7161
 20
8.4134
 30
0.0
 10
168.0261
 20
8.6503
 30
0.0
 10
164.2324
 20
6.5056
 30
0.0
 10
164.2324
 20
6.5056
 30
0.0
 10
160.048
 20
5.2655
 30
0.0
 10
155.5941
 20
5.2655
 30
0.0
 10
151.4099
 20
6.5056
 30
0.0
 10
151.4099
 20
6.5056
 30
0.0
 10
147.0326
 20
8.3841
 30
0.0
 10
142.0264
 20
8.0956
 30
0.0
 10
137.8943
 20
5.7259
 30
0.0
 10
137.8943
 20
5.7259
 30
0.0
 10
137.8636
 20
5.0182
 30
0.0
 10
137.841
 20
4.3112
 30
0.0
 10
137.8266
 20
3.6028
 30
0.0
 10
137.8266
 20
3.6028
 30
0.0
 10
137.841
 20
2.8951
 30
0.0
 10
137.8636
 20
2.1881
 30
0.0
 10
137.8943
 20
1.4803
 30
0.0
 10
137.8943
 20
1.4803
 30
0.0
 10
142.0264
 20
-0.8893
 30
0.0
 10
147.0326
 20
-1.1778
 30
0.0
 10
151.4099
 20
0.7007
 30
0.0
 10
151.4099
 20
0.7007
 30
0.0
 10
155.5941
 20
1.9408
 30
0.0
 10
160.048
 20
1.9408
 30
0.0
 10
164.2324
 20
0.7007
 30
0.0
 10
164.2324
 20
0.7007
 30
0.0
 10
168.0261
 20
-1.444
 30
0.0
 10
172.7161
 20
-1.2071
 30
0.0
 10
176.2753
 20
1.3071
 30
0.0
 10
176.2753
 20
1.3071
 30
0.0
 10
178.0501
 20
2.2119
 30
0.0
 10
179.947
 20
2.8539
 30
0.0
 10
181.9067
 20
3.2137
 30
0.0
  0
SPLINE
  5
53
330
1F
100
AcDbEntity
  8
layer 1
 62
     7
370
     9
100
AcDbSpline
210
0.0
220
0.0
230
1.0
 70
    11
 71
     3
 72
    60
 73
    56
 74
     0
 42
0.0000000001
 43
0.0000000001
 12
1.0
 22
0.0
 32
0.0
 13
1.0
 23
0.0
 33
0.0
 40
0.0
 40
0.0
 40
0.0
 40
0.0
 40
0.0666666666666667
 40
0.0666666666666667
 40
0.0666666666666667
 40
0.0666666666666667
 40
0.1333333333333333
 40
0.1333333333333333
 40
0.1333333333333333
 40
0.1333333333333333
 40
0.2
 40
0.2
 40
0.2
 40
0.2
 40
0.2666666666666667
 40
0.2666666666666667
 40
0.2666666666666667
 40
0.2666666666666667
 40
0.3333333333333333
 40
0.3333333333333333
 40
0.3333333333333333
 40
0.3333333333333333
 40
0.4
 40
0.4
 40
0.4
 40
0.4
 40
0.4666666666666667
 40
0.4666666666666667
 40
0.4666666666666667
 40
0.4666666666666667
 40
0.5333333333333333
 40
0.5333333333333333
 40
0.5333333333333333
 40
0.5333333333333333
 40
0.6
 40
0.6
 40
0.6
 40
0.6
 40
0.6666666666666666
 40
0.6666666666666666
 40
0.6666666666666666
 40
0.6666666666666666
 40
0.7333333333333333
 40
0.7333333333333333
 40
0.7333333333333333
 40
0.7333333333333333
 40
0.8
 40
0.8
 40
0.8
 40
0.8
 40
0.8666666666666667
 40
0.8666666666666667
 40
0.8666666666666667
 40
0.8666666666666667
 40
1.0
 40
1.0
 40
1.0
 40
1.0
 10
114.632
 20
34.2731
 30
0.0
 10
115.2082
 20
34.3311
 30
0.0
 10
115.7861
 20
34.3709
 30
0.0
 10
116.3645
 20
34.3911
 30
0.0
 10
116.3645
 20
34.3911
 30
0.0
 10
116.9436
 20
34.3709
 30
0.0
 10
117.5214
 20
34.3311
 30
0.0
 10
118.0971
 20
34.2731
 30
0.0
 10
118.0971
 20
34.2731
 30
0.0
 10
118.7544
 20
37.8515
 30
0.0
 10
119.1736
 20
41.4696
 30
0.0
 10
119.3538
 20
45.1031
 30
0.0
 10
119.3538
 20
45.1031
 30
0.0
 10
119.1269
 20
50.2475
 30
0.0
 10
118.6637
 20
55.3789
 30
0.0
 10
117.9678
 20
60.4816
 30
0.0
 10
117.9678
 20
60.4816
 30
0.0
 10
117.5864
 20
64.3085
 30
0.0
 10
117.7177
 20
68.1691
 30
0.0
 10
118.3569
 20
71.961
 30
0.0
 10
118.3569
 20
71.961
 30
0.0
 10
119.1728
 20
75.188
 30
0.0
 10
119.5514
 20
78.5099
 30
0.0
 10
119.4837
 20
81.838
 30
0.0
 10
119.4837
 20
81.838
 30
0.0
 10
119.2651
 20
85.9529
 30
0.0
 10
118.612
 20
90.0334
 30
0.0
 10
117.5339
 20
94.0106
 30
0.0
 10
117.5339
 20
94.0106
 30
0.0
 10
117.0568
 20
97.6504
 30
0.0
 10
116.6669
 20
101.3006
 30
0.0
 10
116.3645
 20
104.9586
 30
0.0
 10
116.3645
 20
104.9586
 30
0.0
 10
116.0619
 20
101.3006
 30
0.0
 10
115.6722
 20
97.6504
 30
0.0
 10
115.195
 20
94.0106
 30
0.0
 10
115.195
 20
94.0106
 30
0.0
 10
114.1171
 20
90.0334
 30
0.0
 10
113.4638
 20
85.9529
 30
0.0
 10
113.2459
 20
81.838
 30
0.0
 10
113.2459
 20
81.838
 30
0.0
 10
113.1782
 20
78.5099
 30
0.0
 10
113.5568
 20
75.188
 30
0.0
 10
114.3721
 20
71.961
 30
0.0
 10
114.3721
 20
71.961
 30
0.0
 10
115.0112
 20
68.1691
 30
0.0
 10
115.1427
 20
64.3085
 30
0.0
 10
114.7619
 20
60.4816
 30
0.0
 10
114.7619
 20
60.4816
 30
0.0
 10
114.0654
 20
55.3789
 30
0.0
 10
113.6028
 20
50.2475
 30
0.0
 10
113.3758
 20
45.1031
 30
0.0
 10
113.3758
 20
45.1031
 30
0.0
 10
113.5555
 20
41.4696
 30
0.0
 10
113.9753
 20
37.8515
 30
0.0
 10
114.632
 20
34.2731
 30
0.0
  0
SPLINE
  5
54
330
1F
100
AcDbEntity
  8
layer 1
 62
     7
370
     9
100
AcDbSpline
210
0.0
220
0.0
230
1.0
 70
    11
 71
     3
 72
    32
 73
    28
 74
     0
 42
0.0000000001
 43
0.0000000001
 12
1.0
 22
0.0
 32
0.0
 13
1.0
 23
0.0
 33
0.0
 40
0.0
 40
0.0
 40
0.0
 40
0.0
 40
0.125
 40
0.125
 40
0.125
 40
0.125
 40
0.25
 40
0.25
 40
0.25
 40
0.25
 40
0.375
 40
0.375
 40
0.375
 40
0.375
 40
0.5
 40
0.5
 40
0.5
 40
0.5
 40
0.625
 40
0.625
 40
0.625
 40
0.625
 40
0.75
 40
0.75
 40
0.75
 40
0.75
 40
1.0
 40
1.0
 40
1.0
 40
1.0
 10
113.4624
 20
34.3165
 30
0.0
 10
112.8637
 20
37.5232
 30
0.0
 10
112.0233
 20
40.6802
 30
0.0
 10
110.9496
 20
43.7604
 30
0.0
 10
110.9496
 20
43.7604
 30
0.0
 10
109.4176
 20
49.6538
 30
0.0
 10
109.2687
 20
55.8211
 30
0.0
 10
110.5165
 20
61.781
 30
0.0
 10
110.5165
 20
61.781
 30
0.0
 10
112.6423
 20
71.3212
 30
0.0
 10
111.2904
 20
81.3071
 30
0.0
 10
106.7042
 20
89.9385
 30
0.0
 10
106.7042
 20
89.9385
 30
0.0
 10
109.0619
 20
83.4573
 30
0.0
 10
109.8347
 20
76.5063
 30
0.0
 10
108.9572
 20
69.6649
 30
0.0
 10
108.9572
 20
69.6649
 30
0.0
 10
108.1209
 20
63.86
 30
0.0
 10
107.1099
 20
58.0818
 30
0.0
 10
105.9245
 20
52.3371
 30
0.0
 10
105.9245
 20
52.3371
 30
0.0
 10
104.5042
 20
45.3783
 30
0.0
 10
104.6223
 20
38.1924
 30
0.0
 10
106.2709
 20
31.2838
 30
0.0
 10
106.2709
 20
31.2838
 30
0.0
 10
108.5799
 20
32.4924
 30
0.0
 10
110.9852
 20
33.5067
 30
0.0
 10
113.4624
 20
34.3165
 30
0.0
  0
SPLINE
  5
55
330
1F
100
AcDbEntity
  8
layer 1
 62
     7
370
     9
100
AcDbSpline
210
0.0
220
0.0
230
1.0
 70
    11
 71
     3
 72
    24
 73
    20
 74
     0
 42
0.0000000001
 43
0.0000000001
 12
1.0
 22
0.0
 32
0.0
 13
1.0
 23
0.0
 33
0.0
 40
0.0
 40
0.0
 40
0.0
 40
0.0
 40
0.1666666666666667
 40
0.1666666666666667
 40
0.1666666666666667
 40
0.1666666666666667
 40
0.3333333333333333
 40
0.3333333333333333
 40
0.3333333333333333
 40
0.3333333333333333
 40
0.5
 40
0.5
 40
0.5
 40
0.5
 40
0.6666666666666666
 40
0.6666666666666666
 40
0.6666666666666666
 40
0.6666666666666666
 40
1.0
 40
1.0
 40
1.0
 40
1.0
 10
93.6218
 20
56.0629
 30
0.0
 10
92.4022
 20
64.0451
 30
0.0
 10
87.4448
 20
70.9663
 30
0.0
 10
80.2799
 20
74.6899
 30
0.0
 10
80.2799
 20
74.6899
 30
0.0
 10
86.7092
 20
67.3461
 30
0.0
 10
91.1007
 20
58.4436
 30
0.0
 10
93.0155
 20
48.872
 30
0.0
 10
93.0155
 20
48.872
 30
0.0
 10
95.0457
 20
42.3128
 30
0.0
 10
98.9627
 20
36.4968
 30
0.0
 10
104.2785
 20
32.1508
 30
0.0
 10
104.2785
 20
32.1508
 30
0.0
 10
103.5577
 20
35.859
 30
0.0
 10
103.2669
 20
39.6386
 30
0.0
 10
103.4123
 20
43.4138
 30
0.0
 10
103.4123
 20
43.4138
 30
0.0
 10
98.8007
 20
46.3893
 30
0.0
 10
95.3461
 20
50.8527
 30
0.0
 10
93.6218
 20
56.0629
 30
0.0
  0
SPLINE
  5
56
330
1F
100
AcDbEntity
  8
layer 1
 62
     7
370
     9
100
AcDbSpline
210
0.0
220
0.0
230
1.0
 70
    11
 71
     3
 72
    60
 73
    56
 74
     0
 42
0.0000000001
 43
0.0000000001
 12
1.0
 22
0.0
 32
0.0
 13
1.0
 23
0.0
 33
0.0
 40
0.0
 40
0.0
 40
0.0
 40
0.0
 40
0.0666666666666667
 40
0.0666666666666667
 40
0.0666666666666667
 40
0.0666666666666667
 40
0.1333333333333333
 40
0.1333333333333333
 40
0.1333333333333333
 40
0.1333333333333333
 40
0.2
 40
0.2
 40
0.2
 40
0.2
 40
0.2666666666666667
 40
0.2666666666666667
 40
0.2666666666666667
 40
0.2666666666666667
 40
0.3333333333333333
 40
0.3333333333333333
 40
0.3333333333333333
 40
0.3333333333333333
 40
0.4
 40
0.4
 40
0.4
 40
0.4
 40
0.4666666666666667
 40
0.4666666666666667
 40
0.4666666666666667
 40
0.4666666666666667
 40
0.5333333333333333
 40
0.5333333333333333
 40
0.5333333333333333
 40
0.5333333333333333
 40
0.6
 40
0.6
 40
0.6
 40
0.6
 40
0.6666666666666666
 40
0.6666666666666666
 40
0.6666666666666666
 40
0.6666666666666666
 40
0.7333333333333333
 40
0.7333333333333333
 40
0.7333333333333333
 40
0.7333333333333333
 40
0.8
 40
0.8
 40
0.8
 40
0.8
 40
0.8666666666666667
 40
0.8666666666666667
 40
0.8666666666666667
 40
0.8666666666666667
 40
1.0
 40
1.0
 40
1.0
 40
1.0
 10
99.34
 20
49.8249
 30
0.0
 10
96.3277
 20
53.3097
 30
0.0
 10
94.5064
 20
57.6654
 30
0.0
 10
94.1417
 20
62.2573
 30
0.0
 10
94.1417
 20
62.2573
 30
0.0
 10
93.7254
 20
65.4765
 30
0.0
 10
93.4794
 20
68.7161
 30
0.0
 10
93.4054
 20
71.961
 30
0.0
 10
93.4054
 20
71.961
 30
0.0
 10
93.4662
 20
76.0864
 30
0.0
 10
92.4665
 20
80.1585
 30
0.0
 10
90.5026
 20
83.7873
 30
0.0
 10
90.5026
 20
83.7873
 30
0.0
 10
93.184
 20
81.4887
 30
0.0
 10
94.7851
 20
78.1759
 30
0.0
 10
94.9213
 20
74.6465
 30
0.0
 10
94.9213
 20
74.6465
 30
0.0
 10
95.0114
 20
71.7794
 30
0.0
 10
95.3447
 20
68.9242
 30
0.0
 10
95.9176
 20
66.113
 30
0.0
 10
95.9176
 20
66.113
 30
0.0
 10
96.341
 20
63.8342
 30
0.0
 10
97.2575
 20
61.6755
 30
0.0
 10
98.6037
 20
59.7885
 30
0.0
 10
98.6037
 20
59.7885
 30
0.0
 10
98.9859
 20
59.4985
 30
0.0
 10
99.4735
 20
59.3847
 30
0.0
 10
99.945
 20
59.4756
 30
0.0
 10
99.945
 20
59.4756
 30
0.0
 10
100.4159
 20
59.5663
 30
0.0
 10
100.826
 20
59.8534
 30
0.0
 10
101.0726
 20
60.2649
 30
0.0
 10
101.0726
 20
60.2649
 30
0.0
 10
101.8536
 20
62.592
 30
0.0
 10
102.1631
 20
65.0511
 30
0.0
 10
101.9829
 20
67.499
 30
0.0
 10
101.9829
 20
67.499
 30
0.0
 10
102.0263
 20
74.2909
 30
0.0
 10
100.3888
 20
80.9871
 30
0.0
 10
97.2177
 20
86.9932
 30
0.0
 10
97.2177
 20
86.9932
 30
0.0
 10
98.8524
 20
85.0119
 30
0.0
 10
100.3161
 20
82.8965
 30
0.0
 10
101.5924
 20
80.6679
 30
0.0
 10
101.5924
 20
80.6679
 30
0.0
 10
104.1129
 20
74.7436
 30
0.0
 10
104.9813
 20
68.2466
 30
0.0
 10
104.1052
 20
61.8676
 30
0.0
 10
104.1052
 20
61.8676
 30
0.0
 10
103.9949
 20
56.4338
 30
0.0
 10
103.7636
 20
51.0036
 30
0.0
 10
103.4123
 20
45.5795
 30
0.0
 10
103.4123
 20
45.5795
 30
0.0
 10
101.7978
 20
46.7237
 30
0.0
 10
100.4159
 20
48.1644
 30
0.0
 10
99.34
 20
49.8249
 30
0.0
  0
SPLINE
  5
57
330
1F
100
AcDbEntity
  8
layer 1
 62
     7
370
     9
100
AcDbSpline
210
0.0
220
0.0
230
1.0
 70
    11
 71
     3
 72
    16
 73
    12
 74
     0
 42
0.0000000001
 43
0.0000000001
 12
1.0
 22
0.0
 32
0.0
 13
1.0
 23
0.0
 33
0.0
 40
0.0
 40
0.0
 40
0.0
 40
0.0
 40
0.25
 40
0.25
 40
0.25
 40
0.25
 40
0.5
 40
0.5
 40
0.5
 40
0.5
 40
1.0
 40
1.0
 40
1.0
 40
1.0
 10
73.3482
 20
65.7666
 30
0.0
 10
81.6471
 20
50.9281
 30
0.0
 10
90.1379
 20
36.1978
 30
0.0
 10
98.8204
 20
21.5809
 30
0.0
 10
98.8204
 20
21.5809
 30
0.0
 10
100.1323
 20
24.4787
 30
0.0
 10
101.9514
 20
27.1194
 30
0.0
 10
104.1919
 20
29.378
 30
0.0
 10
104.1919
 20
29.378
 30
0.0
 10
93.0204
 20
40.7234
 30
0.0
 10
82.7103
 20
52.8869
 30
0.0
 10
73.3482
 20
65.7666
 30
0.0
  0
SPLINE
  5
58
330
1F
100
AcDbEntity
  8
layer 1
 62
     7
370
     9
100
AcDbSpline
210
0.0
220
0.0
230
1.0
 70
    11
 71
     3
 72
    24
 73
    20
 74
     0
 42
0.0000000001
 43
0.0000000001
 12
1.0
 22
0.0
 32
0.0
 13
1.0
 23
0.0
 33
0.0
 40
0.0
 40
0.0
 40
0.0
 40
0.0
 40
0.1666666666666667
 40
0.1666666666666667
 40
0.1666666666666667
 40
0.1666666666666667
 40
0.3333333333333333
 40
0.3333333333333333
 40
0.3333333333333333
 40
0.3333333333333333
 40
0.5
 40
0.5
 40
0.5
 40
0.5
 40
0.6666666666666666
 40
0.6666666666666666
 40
0.6666666666666666
 40
0.6666666666666666
 40
1.0
 40
1.0
 40
1.0
 40
1.0
 10
66.7638
 20
55.8896
 30
0.0
 10
67.5819
 20
49.5986
 30
0.0
 10
70.7362
 20
43.8461
 30
0.0
 10
75.6012
 20
39.7748
 30
0.0
 10
75.6012
 20
39.7748
 30
0.0
 10
82.0459
 20
35.6558
 30
0.0
 10
86.8789
 20
29.4465
 30
0.0
 10
89.2899
 20
22.1873
 30
0.0
 10
89.2899
 20
22.1873
 30
0.0
 10
91.7978
 20
21.9922
 30
0.0
 10
94.2876
 20
21.6165
 30
0.0
 10
96.7412
 20
21.0611
 30
0.0
 10
96.7412
 20
21.0611
 30
0.0
 10
93.946
 20
28.2777
 30
0.0
 10
89.0202
 20
34.4729
 30
0.0
 10
82.6188
 20
38.8219
 30
0.0
 10
82.6188
 20
38.8219
 30
0.0
 10
75.5042
 20
42.4867
 30
0.0
 10
69.8951
 20
48.524
 30
0.0
 10
66.7638
 20
55.8896
 30
0.0
  0
SPLINE
  5
59
330
1F
100
AcDbEntity
  8
layer 1
 62
     7
370
     9
100
AcDbSpline
210
0.0
220
0.0
230
1.0
 70
    11
 71
     3
 72
    52
 73
    48
 74
     0
 42
0.0000000001
 43
0.0000000001
 12
1.0
 22
0.0
 32
0.0
 13
1.0
 23
0.0
 33
0.0
 40
0.0
 40
0.0
 40
0.0
 40
0.0
 40
0.0769230769230769
 40
0.0769230769230769
 40
0.0769230769230769
 40
0.0769230769230769
 40
0.1538461538461539
 40
0.1538461538461539
 40
0.1538461538461539
 40
0.1538461538461539
 40
0.2307692307692308
 40
0.2307692307692308
 40
0.2307692307692308
 40
0.2307692307692308
 40
0.3076923076923077
 40
0.3076923076923077
 40
0.3076923076923077
 40
0.3076923076923077
 40
0.3846153846153846
 40
0.3846153846153846
 40
0.3846153846153846
 40
0.3846153846153846
 40
0.4615384615384616
 40
0.4615384615384616
 40
0.4615384615384616
 40
0.4615384615384616
 40
0.5384615384615384
 40
0.5384615384615384
 40
0.5384615384615384
 40
0.5384615384615384
 40
0.6153846153846154
 40
0.6153846153846154
 40
0.6153846153846154
 40
0.6153846153846154
 40
0.6923076923076923
 40
0.6923076923076923
 40
0.6923076923076923
 40
0.6923076923076923
 40
0.7692307692307693
 40
0.7692307692307693
 40
0.7692307692307693
 40
0.7692307692307693
 40
0.8461538461538461
 40
0.8461538461538461
 40
0.8461538461538461
 40
0.8461538461538461
 40
1.0
 40
1.0
 40
1.0
 40
1.0
 10
80.8862
 20
32.5839
 30
0.0
 10
83.59
 20
29.473
 30
0.0
 10
85.7913
 20
25.9584
 30
0.0
 10
87.4098
 20
22.1677
 30
0.0
 10
87.4098
 20
22.1677
 30
0.0
 10
84.1858
 20
22.0544
 30
0.0
 10
80.9758
 20
21.6843
 30
0.0
 10
77.8102
 20
21.0611
 30
0.0
 10
77.8102
 20
21.0611
 30
0.0
 10
73.5773
 20
20.6238
 30
0.0
 10
69.3034
 20
21.3112
 30
0.0
 10
65.4212
 20
23.0535
 30
0.0
 10
65.4212
 20
23.0535
 30
0.0
 10
62.3145
 20
24.8944
 30
0.0
 10
59.9642
 20
27.7817
 30
0.0
 10
58.7935
 20
31.1979
 30
0.0
 10
58.7935
 20
31.1979
 30
0.0
 10
61.0996
 20
28.1246
 30
0.0
 10
64.3118
 20
25.852
 30
0.0
 10
67.9774
 20
24.6995
 30
0.0
 10
67.9774
 20
24.6995
 30
0.0
 10
70.7494
 20
23.8422
 30
0.0
 10
73.7227
 20
23.8876
 30
0.0
 10
76.4676
 20
24.8294
 30
0.0
 10
76.4676
 20
24.8294
 30
0.0
 10
77.8088
 20
25.9324
 30
0.0
 10
78.2364
 20
27.8019
 30
0.0
 10
77.507
 20
29.378
 30
0.0
 10
77.507
 20
29.378
 30
0.0
 10
76.4278
 20
31.0638
 30
0.0
 10
74.832
 20
32.3556
 30
0.0
 10
72.9585
 20
33.0604
 30
0.0
 10
72.9585
 20
33.0604
 30
0.0
 10
70.5985
 20
33.5376
 30
0.0
 10
68.2806
 20
34.204
 30
0.0
 10
66.0276
 20
35.0528
 30
0.0
 10
66.0276
 20
35.0528
 30
0.0
 10
63.4183
 20
36.2055
 30
0.0
 10
61.4196
 20
38.409
 30
0.0
 10
60.5261
 20
41.1175
 30
0.0
 10
60.5261
 20
41.1175
 30
0.0
 10
62.5917
 20
38.3858
 30
0.0
 10
65.7683
 20
36.7176
 30
0.0
 10
69.1893
 20
36.5695
 30
0.0
 10
69.1893
 20
36.5695
 30
0.0
 10
73.4363
 20
36.6618
 30
0.0
 10
77.5791
 20
35.2498
 30
0.0
 10
80.8862
 20
32.5839
 30
0.0
  0
SPLINE
  5
5A
330
1F
100
AcDbEntity
  8
layer 1
 62
     7
370
     9
100
AcDbSpline
210
0.0
220
0.0
230
1.0
 70
    11
 71
     3
 72
    32
 73
    28
 74
     0
 42
0.0000000001
 43
0.0000000001
 12
1.0
 22
0.0
 32
0.0
 13
1.0
 23
0.0
 33
0.0
 40
0.0
 40
0.0
 40
0.0
 40
0.0
 40
0.125
 40
0.125
 40
0.125
 40
0.125
 40
0.25
 40
0.25
 40
0.25
 40
0.25
 40
0.375
 40
0.375
 40
0.375
 40
0.375
 40
0.5
 40
0.5
 40
0.5
 40
0.5
 40
0.625
 40
0.625
 40
0.625
 40
0.625
 40
0.75
 40
0.75
 40
0.75
 40
0.75
 40
1.0
 40
1.0
 40
1.0
 40
1.0
 10
56.0207
 20
17.5086
 30
0.0
 10
61.3839
 20
11.5069
 30
0.0
 10
69.8797
 20
9.4089
 30
0.0
 10
77.4205
 20
12.2237
 30
0.0
 10
77.4205
 20
12.2237
 30
0.0
 10
81.3677
 20
13.5517
 30
0.0
 10
85.7045
 20
13.0095
 30
0.0
 10
89.2032
 20
10.751
 30
0.0
 10
89.2032
 20
10.751
 30
0.0
 10
90.826
 20
9.1643
 30
0.0
 10
92.9281
 20
8.1591
 30
0.0
 10
95.1811
 20
7.8916
 30
0.0
 10
95.1811
 20
7.8916
 30
0.0
 10
95.4481
 20
11.4621
 30
0.0
 10
96.2661
 20
14.9692
 30
0.0
 10
97.6074
 20
18.2882
 30
0.0
 10
97.6074
 20
18.2882
 30
0.0
 10
95.9204
 20
18.9988
 30
0.0
 10
94.1411
 20
19.4655
 30
0.0
 10
92.3226
 20
19.6743
 30
0.0
 10
92.3226
 20
19.6743
 30
0.0
 10
86.2899
 20
20.1194
 30
0.0
 10
80.2821
 20
18.5334
 30
0.0
 10
75.2548
 20
15.1696
 30
0.0
 10
75.2548
 20
15.1696
 30
0.0
 10
68.845
 20
12.7685
 30
0.0
 10
61.6681
 20
13.6418
 30
0.0
 10
56.0207
 20
17.5086
 30
0.0
  0
SPLINE
  5
5B
330
1F
100
AcDbEntity
  8
layer 1
 62
     7
370
     9
100
AcDbSpline
210
0.0
220
0.0
230
1.0
 70
    11
 71
     3
 72
    32
 73
    28
 74
     0
 42
0.0000000001
 43
0.0000000001
 12
1.0
 22
0.0
 32
0.0
 13
1.0
 23
0.0
 33
0.0
 40
0.0
 40
0.0
 40
0.0
 40
0.0
 40
0.125
 40
0.125
 40
0.125
 40
0.125
 40
0.25
 40
0.25
 40
0.25
 40
0.25
 40
0.375
 40
0.375
 40
0.375
 40
0.375
 40
0.5
 40
0.5
 40
0.5
 40
0.5
 40
0.625
 40
0.625
 40
0.625
 40
0.625
 40
0.75
 40
0.75
 40
0.75
 40
0.75
 40
1.0
 40
1.0
 40
1.0
 40
1.0
 10
119.2673
 20
34.3165
 30
0.0
 10
119.8659
 20
37.5232
 30
0.0
 10
120.7056
 20
40.6802
 30
0.0
 10
121.7795
 20
43.7604
 30
0.0
 10
121.7795
 20
43.7604
 30
0.0
 10
123.3121
 20
49.6538
 30
0.0
 10
123.4602
 20
55.8211
 30
0.0
 10
122.2126
 20
61.781
 30
0.0
 10
122.2126
 20
61.781
 30
0.0
 10
120.0867
 20
71.3212
 30
0.0
 10
121.4385
 20
81.3071
 30
0.0
 10
126.0249
 20
89.9385
 30
0.0
 10
126.0249
 20
89.9385
 30
0.0
 10
123.6671
 20
83.4573
 30
0.0
 10
122.895
 20
76.5063
 30
0.0
 10
123.7725
 20
69.6649
 30
0.0
 10
123.7725
 20
69.6649
 30
0.0
 10
124.6082
 20
63.86
 30
0.0
 10
125.6197
 20
58.0818
 30
0.0
 10
126.8045
 20
52.3371
 30
0.0
 10
126.8045
 20
52.3371
 30
0.0
 10
128.225
 20
45.3783
 30
0.0
 10
128.1068
 20
38.1924
 30
0.0
 10
126.458
 20
31.2838
 30
0.0
 10
126.458
 20
31.2838
 30
0.0
 10
124.1491
 20
32.4924
 30
0.0
 10
121.7439
 20
33.5067
 30
0.0
 10
119.2673
 20
34.3165
 30
0.0
  0
SPLINE
  5
5C
330
1F
100
AcDbEntity
  8
layer 1
 62
     7
370
     9
100
AcDbSpline
210
0.0
220
0.0
230
1.0
 70
    11
 71
     3
 72
    24
 73
    20
 74
     0
 42
0.0000000001
 43
0.0000000001
 12
1.0
 22
0.0
 32
0.0
 13
1.0
 23
0.0
 33
0.0
 40
0.0
 40
0.0
 40
0.0
 40
0.0
 40
0.1666666666666667
 40
0.1666666666666667
 40
0.1666666666666667
 40
0.1666666666666667
 40
0.3333333333333333
 40
0.3333333333333333
 40
0.3333333333333333
 40
0.3333333333333333
 40
0.5
 40
0.5
 40
0.5
 40
0.5
 40
0.6666666666666666
 40
0.6666666666666666
 40
0.6666666666666666
 40
0.6666666666666666
 40
1.0
 40
1.0
 40
1.0
 40
1.0
 10
139.1072
 20
56.0629
 30
0.0
 10
140.3273
 20
64.0451
 30
0.0
 10
145.2844
 20
70.9663
 30
0.0
 10
152.4496
 20
74.6899
 30
0.0
 10
152.4496
 20
74.6899
 30
0.0
 10
146.0199
 20
67.3461
 30
0.0
 10
141.6286
 20
58.4436
 30
0.0
 10
139.7136
 20
48.872
 30
0.0
 10
139.7136
 20
48.872
 30
0.0
 10
137.6832
 20
42.3128
 30
0.0
 10
133.7659
 20
36.4968
 30
0.0
 10
128.4508
 20
32.1508
 30
0.0
 10
128.4508
 20
32.1508
 30
0.0
 10
129.1714
 20
35.859
 30
0.0
 10
129.4621
 20
39.6386
 30
0.0
 10
129.3172
 20
43.4138
 30
0.0
 10
129.3172
 20
43.4138
 30
0.0
 10
133.9285
 20
46.3893
 30
0.0
 10
137.3832
 20
50.8527
 30
0.0
 10
139.1072
 20
56.0629
 30
0.0
  0
SPLINE
  5
5D
330
1F
100
AcDbEntity
  8
layer 1
 62
     7
370
     9
100
AcDbSpline
210
0.0
220
0.0
230
1.0
 70
    11
 71
     3
 72
    60
 73
    56
 74
     0
 42
0.0000000001
 43
0.0000000001
 12
1.0
 22
0.0
 32
0.0
 13
1.0
 23
0.0
 33
0.0
 40
0.0
 40
0.0
 40
0.0
 40
0.0
 40
0.0666666666666667
 40
0.0666666666666667
 40
0.0666666666666667
 40
0.0666666666666667
 40
0.1333333333333333
 40
0.1333333333333333
 40
0.1333333333333333
 40
0.1333333333333333
 40
0.2
 40
0.2
 40
0.2
 40
0.2
 40
0.2666666666666667
 40
0.2666666666666667
 40
0.2666666666666667
 40
0.2666666666666667
 40
0.3333333333333333
 40
0.3333333333333333
 40
0.3333333333333333
 40
0.3333333333333333
 40
0.4
 40
0.4
 40
0.4
 40
0.4
 40
0.4666666666666667
 40
0.4666666666666667
 40
0.4666666666666667
 40
0.4666666666666667
 40
0.5333333333333333
 40
0.5333333333333333
 40
0.5333333333333333
 40
0.5333333333333333
 40
0.6
 40
0.6
 40
0.6
 40
0.6
 40
0.6666666666666666
 40
0.6666666666666666
 40
0.6666666666666666
 40
0.6666666666666666
 40
0.7333333333333333
 40
0.7333333333333333
 40
0.7333333333333333
 40
0.7333333333333333
 40
0.8
 40
0.8
 40
0.8
 40
0.8
 40
0.8666666666666667
 40
0.8666666666666667
 40
0.8666666666666667
 40
0.8666666666666667
 40
1.0
 40
1.0
 40
1.0
 40
1.0
 10
133.3891
 20
49.8249
 30
0.0
 10
136.4015
 20
53.3097
 30
0.0
 10
138.2228
 20
57.6654
 30
0.0
 10
138.5874
 20
62.2573
 30
0.0
 10
138.5874
 20
62.2573
 30
0.0
 10
139.0041
 20
65.4765
 30
0.0
 10
139.25
 20
68.7161
 30
0.0
 10
139.3239
 20
71.961
 30
0.0
 10
139.3239
 20
71.961
 30
0.0
 10
139.2635
 20
76.0864
 30
0.0
 10
140.2627
 20
80.1585
 30
0.0
 10
142.2262
 20
83.7873
 30
0.0
 10
142.2262
 20
83.7873
 30
0.0
 10
139.5453
 20
81.4887
 30
0.0
 10
137.944
 20
78.1759
 30
0.0
 10
137.8078
 20
74.6465
 30
0.0
 10
137.8078
 20
74.6465
 30
0.0
 10
137.7176
 20
71.7794
 30
0.0
 10
137.3842
 20
68.9242
 30
0.0
 10
136.8115
 20
66.113
 30
0.0
 10
136.8115
 20
66.113
 30
0.0
 10
136.3887
 20
63.8342
 30
0.0
 10
135.4718
 20
61.6755
 30
0.0
 10
134.1256
 20
59.7885
 30
0.0
 10
134.1256
 20
59.7885
 30
0.0
 10
133.7432
 20
59.4985
 30
0.0
 10
133.2556
 20
59.3847
 30
0.0
 10
132.7845
 20
59.4756
 30
0.0
 10
132.7845
 20
59.4756
 30
0.0
 10
132.3136
 20
59.5663
 30
0.0
 10
131.9034
 20
59.8534
 30
0.0
 10
131.6565
 20
60.2649
 30
0.0
 10
131.6565
 20
60.2649
 30
0.0
 10
130.8757
 20
62.592
 30
0.0
 10
130.5665
 20
65.0511
 30
0.0
 10
130.7466
 20
67.499
 30
0.0
 10
130.7466
 20
67.499
 30
0.0
 10
130.7032
 20
74.2909
 30
0.0
 10
132.3403
 20
80.9871
 30
0.0
 10
135.5116
 20
86.9932
 30
0.0
 10
135.5116
 20
86.9932
 30
0.0
 10
133.877
 20
85.0119
 30
0.0
 10
132.4134
 20
82.8965
 30
0.0
 10
131.1367
 20
80.6679
 30
0.0
 10
131.1367
 20
80.6679
 30
0.0
 10
128.6157
 20
74.7436
 30
0.0
 10
127.7476
 20
68.2466
 30
0.0
 10
128.6241
 20
61.8676
 30
0.0
 10
128.6241
 20
61.8676
 30
0.0
 10
128.734
 20
56.4338
 30
0.0
 10
128.9651
 20
51.0036
 30
0.0
 10
129.3172
 20
45.5795
 30
0.0
 10
129.3172
 20
45.5795
 30
0.0
 10
130.9313
 20
46.7237
 30
0.0
 10
132.3132
 20
48.1644
 30
0.0
 10
133.3891
 20
49.8249
 30
0.0
  0
SPLINE
  5
5E
330
1F
100
AcDbEntity
  8
layer 1
 62
     7
370
     9
100
AcDbSpline
210
0.0
220
0.0
230
1.0
 70
    11
 71
     3
 72
    16
 73
    12
 74
     0
 42
0.0000000001
 43
0.0000000001
 12
1.0
 22
0.0
 32
0.0
 13
1.0
 23
0.0
 33
0.0
 40
0.0
 40
0.0
 40
0.0
 40
0.0
 40
0.25
 40
0.25
 40
0.25
 40
0.25
 40
0.5
 40
0.5
 40
0.5
 40
0.5
 40
1.0
 40
1.0
 40
1.0
 40
1.0
 10
159.3807
 20
65.7666
 30
0.0
 10
151.0824
 20
50.9281
 30
0.0
 10
142.591
 20
36.1978
 30
0.0
 10
133.9089
 20
21.5809
 30
0.0
 10
133.9089
 20
21.5809
 30
0.0
 10
132.5968
 20
24.4787
 30
0.0
 10
130.7776
 20
27.1194
 30
0.0
 10
128.5371
 20
29.378
 30
0.0
 10
128.5371
 20
29.378
 30
0.0
 10
139.709
 20
40.7234
 30
0.0
 10
150.0188
 20
52.8869
 30
0.0
 10
159.3807
 20
65.7666
 30
0.0
  0
SPLINE
  5
5F
330
1F
100
AcDbEntity
  8
layer 1
 62
     7
370
     9
100
AcDbSpline
210
0.0
220
0.0
230
1.0
 70
    11
 71
     3
 72
    24
 73
    20
 74
     0
 42
0.0000000001
 43
0.0000000001
 12
1.0
 22
0.0
 32
0.0
 13
1.0
 23
0.0
 33
0.0
 40
0.0
 40
0.0
 40
0.0
 40
0.0
 40
0.1666666666666667
 40
0.1666666666666667
 40
0.1666666666666667
 40
0.1666666666666667
 40
0.3333333333333333
 40
0.3333333333333333
 40
0.3333333333333333
 40
0.3333333333333333
 40
0.5
 40
0.5
 40
0.5
 40
0.5
 40
0.6666666666666666
 40
0.6666666666666666
 40
0.6666666666666666
 40
0.6666666666666666
 40
1.0
 40
1.0
 40
1.0
 40
1.0
 10
165.9652
 20
55.8896
 30
0.0
 10
165.1477
 20
49.5986
 30
0.0
 10
161.9931
 20
43.8461
 30
0.0
 10
157.1281
 20
39.7748
 30
0.0
 10
157.1281
 20
39.7748
 30
0.0
 10
150.6831
 20
35.6558
 30
0.0
 10
145.8502
 20
29.4465
 30
0.0
 10
143.4392
 20
22.1873
 30
0.0
 10
143.4392
 20
22.1873
 30
0.0
 10
140.9317
 20
21.9922
 30
0.0
 10
138.4415
 20
21.6165
 30
0.0
 10
135.9884
 20
21.0611
 30
0.0
 10
135.9884
 20
21.0611
 30
0.0
 10
138.7831
 20
28.2777
 30
0.0
 10
143.7087
 20
34.4729
 30
0.0
 10
150.1104
 20
38.8219
 30
0.0
 10
150.1104
 20
38.8219
 30
0.0
 10
157.2253
 20
42.4867
 30
0.0
 10
162.8341
 20
48.524
 30
0.0
 10
165.9652
 20
55.8896
 30
0.0
  0
SPLINE
  5
60
330
1F
100
AcDbEntity
  8
layer 1
 62
     7
370
     9
100
AcDbSpline
210
0.0
220
0.0
230
1.0
 70
    11
 71
     3
 72
    52
 73
    48
 74
     0
 42
0.0000000001
 43
0.0000000001
 12
1.0
 22
0.0
 32
0.0
 13
1.0
 23
0.0
 33
0.0
 40
0.0
 40
0.0
 40
0.0
 40
0.0
 40
0.0769230769230769
 40
0.0769230769230769
 40
0.0769230769230769
 40
0.0769230769230769
 40
0.1538461538461539
 40
0.1538461538461539
 40
0.1538461538461539
 40
0.1538461538461539
 40
0.2307692307692308
 40
0.2307692307692308
 40
0.2307692307692308
 40
0.2307692307692308
 40
0.3076923076923077
 40
0.3076923076923077
 40
0.3076923076923077
 40
0.3076923076923077
 40
0.3846153846153846
 40
0.3846153846153846
 40
0.3846153846153846
 40
0.3846153846153846
 40
0.4615384615384616
 40
0.4615384615384616
 40
0.4615384615384616
 40
0.4615384615384616
 40
0.5384615384615384
 40
0.5384615384615384
 40
0.5384615384615384
 40
0.5384615384615384
 40
0.6153846153846154
 40
0.6153846153846154
 40
0.6153846153846154
 40
0.6153846153846154
 40
0.6923076923076923
 40
0.6923076923076923
 40
0.6923076923076923
 40
0.6923076923076923
 40
0.7692307692307693
 40
0.7692307692307693
 40
0.7692307692307693
 40
0.7692307692307693
 40
0.8461538461538461
 40
0.8461538461538461
 40
0.8461538461538461
 40
0.8461538461538461
 40
1.0
 40
1.0
 40
1.0
 40
1.0
 10
151.8432
 20
32.5839
 30
0.0
 10
149.1391
 20
29.473
 30
0.0
 10
146.938
 20
25.9584
 30
0.0
 10
145.3195
 20
22.1677
 30
0.0
 10
145.3195
 20
22.1677
 30
0.0
 10
148.5434
 20
22.0544
 30
0.0
 10
151.7535
 20
21.6843
 30
0.0
 10
154.9188
 20
21.0611
 30
0.0
 10
154.9188
 20
21.0611
 30
0.0
 10
159.152
 20
20.6238
 30
0.0
 10
163.4255
 20
21.3112
 30
0.0
 10
167.3083
 20
23.0535
 30
0.0
 10
167.3083
 20
23.0535
 30
0.0
 10
170.4152
 20
24.8944
 30
0.0
 10
172.7648
 20
27.7817
 30
0.0
 10
173.936
 20
31.1979
 30
0.0
 10
173.936
 20
31.1979
 30
0.0
 10
171.6297
 20
28.1246
 30
0.0
 10
168.4178
 20
25.852
 30
0.0
 10
164.7523
 20
24.6995
 30
0.0
 10
164.7523
 20
24.6995
 30
0.0
 10
161.9796
 20
23.8422
 30
0.0
 10
159.0068
 20
23.8876
 30
0.0
 10
156.2617
 20
24.8294
 30
0.0
 10
156.2617
 20
24.8294
 30
0.0
 10
154.9202
 20
25.9324
 30
0.0
 10
154.4929
 20
27.8019
 30
0.0
 10
155.222
 20
29.378
 30
0.0
 10
155.222
 20
29.378
 30
0.0
 10
156.3019
 20
31.0638
 30
0.0
 10
157.8972
 20
32.3556
 30
0.0
 10
159.7706
 20
33.0604
 30
0.0
 10
159.7706
 20
33.0604
 30
0.0
 10
162.1305
 20
33.5376
 30
0.0
 10
164.4485
 20
34.204
 30
0.0
 10
166.7015
 20
35.0528
 30
0.0
 10
166.7015
 20
35.0528
 30
0.0
 10
169.3108
 20
36.2055
 30
0.0
 10
171.3097
 20
38.409
 30
0.0
 10
172.2032
 20
41.1175
 30
0.0
 10
172.2032
 20
41.1175
 30
0.0
 10
170.1379
 20
38.3858
 30
0.0
 10
166.9611
 20
36.7176
 30
0.0
 10
163.5393
 20
36.5695
 30
0.0
 10
163.5393
 20
36.5695
 30
0.0
 10
159.2926
 20
36.6618
 30
0.0
 10
155.1499
 20
35.2498
 30
0.0
 10
151.8432
 20
32.5839
 30
0.0
  0
SPLINE
  5
61
330
1F
100
AcDbEntity
  8
layer 1
 62
     7
370
     9
100
AcDbSpline
210
0.0
220
0.0
230
1.0
 70
    11
 71
     3
 72
    32
 73
    28
 74
     0
 42
0.0000000001
 43
0.0000000001
 12
1.0
 22
0.0
 32
0.0
 13
1.0
 23
0.0
 33
0.0
 40
0.0
 40
0.0
 40
0.0
 40
0.0
 40
0.125
 40
0.125
 40
0.125
 40
0.125
 40
0.25
 40
0.25
 40
0.25
 40
0.25
 40
0.375
 40
0.375
 40
0.375
 40
0.375
 40
0.5
 40
0.5
 40
0.5
 40
0.5
 40
0.625
 40
0.625
 40
0.625
 40
0.625
 40
0.75
 40
0.75
 40
0.75
 40
0.75
 40
1.0
 40
1.0
 40
1.0
 40
1.0
 10
176.7084
 20
17.5086
 30
0.0
 10
171.0614
 20
13.6418
 30
0.0
 10
163.8841
 20
12.7685
 30
0.0
 10
157.4746
 20
15.1696
 30
0.0
 10
157.4746
 20
15.1696
 30
0.0
 10
152.4474
 20
18.5334
 30
0.0
 10
146.4393
 20
20.1194
 30
0.0
 10
140.4067
 20
19.6743
 30
0.0
 10
140.4067
 20
19.6743
 30
0.0
 10
138.5884
 20
19.4655
 30
0.0
 10
136.8089
 20
18.9988
 30
0.0
 10
135.1219
 20
18.2882
 30
0.0
 10
135.1219
 20
18.2882
 30
0.0
 10
136.4629
 20
14.9692
 30
0.0
 10
137.281
 20
11.4621
 30
0.0
 10
137.5477
 20
7.8916
 30
0.0
 10
137.5477
 20
7.8916
 30
0.0
 10
139.8013
 20
8.1591
 30
0.0
 10
141.903
 20
9.1643
 30
0.0
 10
143.5257
 20
10.751
 30
0.0
 10
143.5257
 20
10.751
 30
0.0
 10
147.0245
 20
13.0095
 30
0.0
 10
151.3616
 20
13.5517
 30
0.0
 10
155.3088
 20
12.2237
 30
0.0
 10
155.3088
 20
12.2237
 30
0.0
 10
162.8496
 20
9.4089
 30
0.0
 10
171.3451
 20
11.5069
 30
0.0
 10
176.7084
 20
17.5086
 30
0.0
  0
SPLINE
  5
62
330
1F
100
AcDbEntity
  8
layer 1
 62
     7
370
     9
100
AcDbSpline
210
0.0
220
0.0
230
1.0
 70
    11
 71
     3
 72
    84
 73
    80
 74
     0
 42
0.0000000001
 43
0.0000000001
 12
1.0
 22
0.0
 32
0.0
 13
1.0
 23
0.0
 33
0.0
 40
0.0
 40
0.0
 40
0.0
 40
0.0
 40
0.0476190476190476
 40
0.0476190476190476
 40
0.0476190476190476
 40
0.0476190476190476
 40
0.0952380952380952
 40
0.0952380952380952
 40
0.0952380952380952
 40
0.0952380952380952
 40
0.1428571428571428
 40
0.1428571428571428
 40
0.1428571428571428
 40
0.1428571428571428
 40
0.1904761904761905
 40
0.1904761904761905
 40
0.1904761904761905
 40
0.1904761904761905
 40
0.2380952380952381
 40
0.2380952380952381
 40
0.2380952380952381
 40
0.2380952380952381
 40
0.2857142857142857
 40
0.2857142857142857
 40
0.2857142857142857
 40
0.2857142857142857
 40
0.3333333333333333
 40
0.3333333333333333
 40
0.3333333333333333
 40
0.3333333333333333
 40
0.3809523809523809
 40
0.3809523809523809
 40
0.3809523809523809
 40
0.3809523809523809
 40
0.4285714285714285
 40
0.4285714285714285
 40
0.4285714285714285
 40
0.4285714285714285
 40
0.4761904761904762
 40
0.4761904761904762
 40
0.4761904761904762
 40
0.4761904761904762
 40
0.5238095238095238
 40
0.5238095238095238
 40
0.5238095238095238
 40
0.5238095238095238
 40
0.5714285714285714
 40
0.5714285714285714
 40
0.5714285714285714
 40
0.5714285714285714
 40
0.6190476190476191
 40
0.6190476190476191
 40
0.6190476190476191
 40
0.6190476190476191
 40
0.6666666666666666
 40
0.6666666666666666
 40
0.6666666666666666
 40
0.6666666666666666
 40
0.7142857142857143
 40
0.7142857142857143
 40
0.7142857142857143
 40
0.7142857142857143
 40
0.7619047619047619
 40
0.7619047619047619
 40
0.7619047619047619
 40
0.7619047619047619
 40
0.8095238095238095
 40
0.8095238095238095
 40
0.8095238095238095
 40
0.8095238095238095
 40
0.8571428571428571
 40
0.8571428571428571
 40
0.8571428571428571
 40
0.8571428571428571
 40
0.9047619047619048
 40
0.9047619047619048
 40
0.9047619047619048
 40
0.9047619047619048
 40
1.0
 40
1.0
 40
1.0
 40
1.0
 10
104.7983
 20
-6.6633
 30
0.0
 10
104.6286
 20
-2.6924
 30
0.0
 10
107.2694
 20
0.8524
 30
0.0
 10
111.1228
 20
1.8269
 30
0.0
 10
111.1228
 20
1.8269
 30
0.0
 10
112.5821
 20
2.1917
 30
0.0
 10
113.9717
 20
2.7917
 30
0.0
 10
115.2383
 20
3.6028
 30
0.0
 10
115.2383
 20
3.6028
 30
0.0
 10
113.9717
 20
4.4146
 30
0.0
 10
112.5821
 20
5.0146
 30
0.0
 10
111.1228
 20
5.3794
 30
0.0
 10
111.1228
 20
5.3794
 30
0.0
 10
107.2694
 20
6.3533
 30
0.0
 10
104.6286
 20
9.8986
 30
0.0
 10
104.7983
 20
13.8696
 30
0.0
 10
104.7983
 20
13.8696
 30
0.0
 10
105.3453
 20
11.6926
 30
0.0
 10
106.7733
 20
9.8406
 30
0.0
 10
108.7405
 20
8.7578
 30
0.0
 10
108.7405
 20
8.7578
 30
0.0
 10
109.1576
 20
8.4037
 30
0.0
 10
109.7521
 20
8.3485
 30
0.0
 10
110.2271
 20
8.6202
 30
0.0
 10
110.2271
 20
8.6202
 30
0.0
 10
110.7022
 20
8.892
 30
0.0
 10
110.9565
 20
9.4321
 30
0.0
 10
110.8628
 20
9.9713
 30
0.0
 10
110.8628
 20
9.9713
 30
0.0
 10
111.1333
 20
11.8233
 30
0.0
 10
110.4676
 20
13.6894
 30
0.0
 10
109.0871
 20
14.9524
 30
0.0
 10
109.0871
 20
14.9524
 30
0.0
 10
107.4551
 20
16.1206
 30
0.0
 10
106.4994
 20
18.0144
 30
0.0
 10
106.5309
 20
20.0208
 30
0.0
 10
106.5309
 20
20.0208
 30
0.0
 10
107.4692
 20
18.4665
 30
0.0
 10
108.6882
 20
17.1006
 30
0.0
 10
110.1265
 20
15.9927
 30
0.0
 10
110.1265
 20
15.9927
 30
0.0
 10
112.1706
 20
14.0492
 30
0.0
 10
113.3424
 20
11.3623
 30
0.0
 10
113.3758
 20
8.5413
 30
0.0
 10
113.3758
 20
8.5413
 30
0.0
 10
113.5065
 20
6.6598
 30
0.0
 10
114.3412
 20
4.8966
 30
0.0
 10
115.7148
 20
3.6028
 30
0.0
 10
115.7148
 20
3.6028
 30
0.0
 10
114.3412
 20
2.3097
 30
0.0
 10
113.5065
 20
0.5464
 30
0.0
 10
113.3758
 20
-1.3351
 30
0.0
 10
113.3758
 20
-1.3351
 30
0.0
 10
113.3424
 20
-4.156
 30
0.0
 10
112.1706
 20
-6.8429
 30
0.0
 10
110.1265
 20
-8.7864
 30
0.0
 10
110.1265
 20
-8.7864
 30
0.0
 10
108.6882
 20
-9.8944
 30
0.0
 10
107.4692
 20
-11.2602
 30
0.0
 10
106.5309
 20
-12.8146
 30
0.0
 10
106.5309
 20
-12.8146
 30
0.0
 10
106.4994
 20
-10.8081
 30
0.0
 10
107.4551
 20
-8.9141
 30
0.0
 10
109.0871
 20
-7.7461
 30
0.0
 10
109.0871
 20
-7.7461
 30
0.0
 10
110.4676
 20
-6.4831
 30
0.0
 10
111.1333
 20
-4.617
 30
0.0
 10
110.8628
 20
-2.7651
 30
0.0
 10
110.8628
 20
-2.7651
 30
0.0
 10
110.9565
 20
-2.2256
 30
0.0
 10
110.7022
 20
-1.6856
 30
0.0
 10
110.2271
 20
-1.4139
 30
0.0
 10
110.2271
 20
-1.4139
 30
0.0
 10
109.7521
 20
-1.1422
 30
0.0
 10
109.1576
 20
-1.1974
 30
0.0
 10
108.7405
 20
-1.5523
 30
0.0
 10
108.7405
 20
-1.5523
 30
0.0
 10
106.7733
 20
-2.6344
 30
0.0
 10
105.3453
 20
-4.4863
 30
0.0
 10
104.7983
 20
-6.6633
 30
0.0
  0
SPLINE
  5
63
330
1F
100
AcDbEntity
  8
layer 1
 62
     7
370
     9
100
AcDbSpline
210
0.0
220
0.0
230
1.0
 70
    11
 71
     3
 72
   100
 73
    96
 74
     0
 42
0.0000000001
 43
0.0000000001
 12
1.0
 22
0.0
 32
0.0
 13
1.0
 23
0.0
 33
0.0
 40
0.0
 40
0.0
 40
0.0
 40
0.0
 40
0.04
 40
0.04
 40
0.04
 40
0.04
 40
0.08
 40
0.08
 40
0.08
 40
0.08
 40
0.12
 40
0.12
 40
0.12
 40
0.12
 40
0.16
 40
0.16
 40
0.16
 40
0.16
 40
0.2
 40
0.2
 40
0.2
 40
0.2
 40
0.24
 40
0.24
 40
0.24
 40
0.24
 40
0.28
 40
0.28
 40
0.28
 40
0.28
 40
0.32
 40
0.32
 40
0.32
 40
0.32
 40
0.36
 40
0.36
 40
0.36
 40
0.36
 40
0.4
 40
0.4
 40
0.4
 40
0.4
 40
0.44
 40
0.44
 40
0.44
 40
0.44
 40
0.48
 40
0.48
 40
0.48
 40
0.48
 40
0.52
 40
0.52
 40
0.52
 40
0.52
 40
0.56
 40
0.56
 40
0.56
 40
0.56
 40
0.6
 40
0.6
 40
0.6
 40
0.6
 40
0.64
 40
0.64
 40
0.64
 40
0.64
 40
0.68
 40
0.68
 40
0.68
 40
0.68
 40
0.72
 40
0.72
 40
0.72
 40
0.72
 40
0.76
 40
0.76
 40
0.76
 40
0.76
 40
0.8
 40
0.8
 40
0.8
 40
0.8
 40
0.84
 40
0.84
 40
0.84
 40
0.84
 40
0.88
 40
0.88
 40
0.88
 40
0.88
 40
0.92
 40
0.92
 40
0.92
 40
0.92
 40
1.0
 40
1.0
 40
1.0
 40
1.0
 10
116.3645
 20
5.9935
 30
0.0
 10
116.5657
 20
7.888
 30
0.0
 10
116.9576
 20
9.7576
 30
0.0
 10
117.5339
 20
11.574
 30
0.0
 10
117.5339
 20
11.574
 30
0.0
 10
118.1648
 20
13.7941
 30
0.0
 10
118.9912
 20
15.9542
 30
0.0
 10
120.0036
 20
18.0284
 30
0.0
 10
120.0036
 20
18.0284
 30
0.0
 10
121.245
 20
21.1268
 30
0.0
 10
122.075
 20
24.3745
 30
0.0
 10
122.4724
 20
27.6888
 30
0.0
 10
122.4724
 20
27.6888
 30
0.0
 10
122.8071
 20
24.9342
 30
0.0
 10
122.6164
 20
22.1411
 30
0.0
 10
121.9094
 20
19.4578
 30
0.0
 10
121.9094
 20
19.4578
 30
0.0
 10
120.582
 20
16.0968
 30
0.0
 10
119.581
 20
12.6148
 30
0.0
 10
118.9207
 20
9.0618
 30
0.0
 10
118.9207
 20
9.0618
 30
0.0
 10
118.649
 20
7.0791
 30
0.0
 10
117.8735
 20
5.1998
 30
0.0
 10
116.6677
 20
3.6028
 30
0.0
 10
116.6677
 20
3.6028
 30
0.0
 10
117.8735
 20
2.0065
 30
0.0
 10
118.649
 20
0.1272
 30
0.0
 10
118.9207
 20
-1.8555
 30
0.0
 10
118.9207
 20
-1.8555
 30
0.0
 10
119.581
 20
-5.4086
 30
0.0
 10
120.582
 20
-8.8898
 30
0.0
 10
121.9094
 20
-12.2521
 30
0.0
 10
121.9094
 20
-12.2521
 30
0.0
 10
122.6164
 20
-14.9349
 30
0.0
 10
122.8071
 20
-17.7279
 30
0.0
 10
122.4724
 20
-20.4825
 30
0.0
 10
122.4724
 20
-20.4825
 30
0.0
 10
122.075
 20
-17.1683
 30
0.0
 10
121.245
 20
-13.9204
 30
0.0
 10
120.0036
 20
-10.8222
 30
0.0
 10
120.0036
 20
-10.8222
 30
0.0
 10
118.9912
 20
-8.748
 30
0.0
 10
118.1648
 20
-6.5879
 30
0.0
 10
117.5339
 20
-4.3677
 30
0.0
 10
117.5339
 20
-4.3677
 30
0.0
 10
116.9576
 20
-2.5512
 30
0.0
 10
116.5657
 20
-0.6818
 30
0.0
 10
116.3645
 20
1.2128
 30
0.0
 10
116.3645
 20
1.2128
 30
0.0
 10
116.1633
 20
-0.6818
 30
0.0
 10
115.7714
 20
-2.5512
 30
0.0
 10
115.195
 20
-4.3677
 30
0.0
 10
115.195
 20
-4.3677
 30
0.0
 10
114.5642
 20
-6.5879
 30
0.0
 10
113.7384
 20
-8.748
 30
0.0
 10
112.7255
 20
-10.8222
 30
0.0
 10
112.7255
 20
-10.8222
 30
0.0
 10
111.4841
 20
-13.9204
 30
0.0
 10
110.6541
 20
-17.1683
 30
0.0
 10
110.2565
 20
-20.4825
 30
0.0
 10
110.2565
 20
-20.4825
 30
0.0
 10
109.922
 20
-17.7279
 30
0.0
 10
110.1133
 20
-14.9349
 30
0.0
 10
110.8197
 20
-12.2521
 30
0.0
 10
110.8197
 20
-12.2521
 30
0.0
 10
112.1471
 20
-8.8898
 30
0.0
 10
113.1481
 20
-5.4086
 30
0.0
 10
113.8089
 20
-1.8555
 30
0.0
 10
113.8089
 20
-1.8555
 30
0.0
 10
114.08
 20
0.1272
 30
0.0
 10
114.8555
 20
2.0065
 30
0.0
 10
116.0613
 20
3.6028
 30
0.0
 10
116.0613
 20
3.6028
 30
0.0
 10
114.8555
 20
5.1998
 30
0.0
 10
114.08
 20
7.0791
 30
0.0
 10
113.8089
 20
9.0618
 30
0.0
 10
113.8089
 20
9.0618
 30
0.0
 10
113.1481
 20
12.6148
 30
0.0
 10
112.1471
 20
16.0968
 30
0.0
 10
110.8197
 20
19.4578
 30
0.0
 10
110.8197
 20
19.4578
 30
0.0
 10
110.1133
 20
22.1411
 30
0.0
 10
109.922
 20
24.9342
 30
0.0
 10
110.2565
 20
27.6888
 30
0.0
 10
110.2565
 20
27.6888
 30
0.0
 10
110.6541
 20
24.3745
 30
0.0
 10
111.4841
 20
21.1268
 30
0.0
 10
112.7255
 20
18.0284
 30
0.0
 10
112.7255
 20
18.0284
 30
0.0
 10
113.7384
 20
15.9542
 30
0.0
 10
114.5642
 20
13.7941
 30
0.0
 10
115.195
 20
11.574
 30
0.0
 10
115.195
 20
11.574
 30
0.0
 10
115.7714
 20
9.7576
 30
0.0
 10
116.1633
 20
7.888
 30
0.0
 10
116.3645
 20
5.9935
 30
0.0
  0
SPLINE
  5
64
330
1F
100
AcDbEntity
  8
layer 1
 62
     7
370
     9
100
AcDbSpline
210
0.0
220
0.0
230
1.0
 70
    11
 71
     3
 72
    84
 73
    80
 74
     0
 42
0.0000000001
 43
0.0000000001
 12
1.0
 22
0.0
 32
0.0
 13
1.0
 23
0.0
 33
0.0
 40
0.0
 40
0.0
 40
0.0
 40
0.0
 40
0.0476190476190476
 40
0.0476190476190476
 40
0.0476190476190476
 40
0.0476190476190476
 40
0.0952380952380952
 40
0.0952380952380952
 40
0.0952380952380952
 40
0.0952380952380952
 40
0.1428571428571428
 40
0.1428571428571428
 40
0.1428571428571428
 40
0.1428571428571428
 40
0.1904761904761905
 40
0.1904761904761905
 40
0.1904761904761905
 40
0.1904761904761905
 40
0.2380952380952381
 40
0.2380952380952381
 40
0.2380952380952381
 40
0.2380952380952381
 40
0.2857142857142857
 40
0.2857142857142857
 40
0.2857142857142857
 40
0.2857142857142857
 40
0.3333333333333333
 40
0.3333333333333333
 40
0.3333333333333333
 40
0.3333333333333333
 40
0.3809523809523809
 40
0.3809523809523809
 40
0.3809523809523809
 40
0.3809523809523809
 40
0.4285714285714285
 40
0.4285714285714285
 40
0.4285714285714285
 40
0.4285714285714285
 40
0.4761904761904762
 40
0.4761904761904762
 40
0.4761904761904762
 40
0.4761904761904762
 40
0.5238095238095238
 40
0.5238095238095238
 40
0.5238095238095238
 40
0.5238095238095238
 40
0.5714285714285714
 40
0.5714285714285714
 40
0.5714285714285714
 40
0.5714285714285714
 40
0.6190476190476191
 40
0.6190476190476191
 40
0.6190476190476191
 40
0.6190476190476191
 40
0.6666666666666666
 40
0.6666666666666666
 40
0.6666666666666666
 40
0.6666666666666666
 40
0.7142857142857143
 40
0.7142857142857143
 40
0.7142857142857143
 40
0.7142857142857143
 40
0.7619047619047619
 40
0.7619047619047619
 40
0.7619047619047619
 40
0.7619047619047619
 40
0.8095238095238095
 40
0.8095238095238095
 40
0.8095238095238095
 40
0.8095238095238095
 40
0.8571428571428571
 40
0.8571428571428571
 40
0.8571428571428571
 40
0.8571428571428571
 40
0.9047619047619048
 40
0.9047619047619048
 40
0.9047619047619048
 40
0.9047619047619048
 40
1.0
 40
1.0
 40
1.0
 40
1.0
 10
127.9309
 20
-6.6633
 30
0.0
 10
127.3836
 20
-4.4863
 30
0.0
 10
125.9558
 20
-2.6344
 30
0.0
 10
123.9883
 20
-1.5523
 30
0.0
 10
123.9883
 20
-1.5523
 30
0.0
 10
123.5713
 20
-1.1974
 30
0.0
 10
122.9776
 20
-1.1422
 30
0.0
 10
122.5017
 20
-1.4139
 30
0.0
 10
122.5017
 20
-1.4139
 30
0.0
 10
122.0266
 20
-1.6856
 30
0.0
 10
121.7724
 20
-2.2256
 30
0.0
 10
121.866
 20
-2.7651
 30
0.0
 10
121.866
 20
-2.7651
 30
0.0
 10
121.5963
 20
-4.617
 30
0.0
 10
122.2615
 20
-6.4831
 30
0.0
 10
123.6426
 20
-7.7461
 30
0.0
 10
123.6426
 20
-7.7461
 30
0.0
 10
125.2746
 20
-8.9141
 30
0.0
 10
126.2295
 20
-10.8081
 30
0.0
 10
126.1982
 20
-12.8146
 30
0.0
 10
126.1982
 20
-12.8146
 30
0.0
 10
125.2605
 20
-11.2602
 30
0.0
 10
124.0408
 20
-9.8944
 30
0.0
 10
122.6023
 20
-8.7864
 30
0.0
 10
122.6023
 20
-8.7864
 30
0.0
 10
120.559
 20
-6.8429
 30
0.0
 10
119.3867
 20
-4.156
 30
0.0
 10
119.3538
 20
-1.3351
 30
0.0
 10
119.3538
 20
-1.3351
 30
0.0
 10
119.2225
 20
0.5464
 30
0.0
 10
118.3876
 20
2.3097
 30
0.0
 10
117.0143
 20
3.6028
 30
0.0
 10
117.0143
 20
3.6028
 30
0.0
 10
118.3876
 20
4.8966
 30
0.0
 10
119.2225
 20
6.6598
 30
0.0
 10
119.3538
 20
8.5413
 30
0.0
 10
119.3538
 20
8.5413
 30
0.0
 10
119.3867
 20
11.3623
 30
0.0
 10
120.559
 20
14.0492
 30
0.0
 10
122.6023
 20
15.9927
 30
0.0
 10
122.6023
 20
15.9927
 30
0.0
 10
124.0408
 20
17.1006
 30
0.0
 10
125.2605
 20
18.4665
 30
0.0
 10
126.1982
 20
20.0208
 30
0.0
 10
126.1982
 20
20.0208
 30
0.0
 10
126.2295
 20
18.0144
 30
0.0
 10
125.2746
 20
16.1206
 30
0.0
 10
123.6426
 20
14.9524
 30
0.0
 10
123.6426
 20
14.9524
 30
0.0
 10
122.2615
 20
13.6894
 30
0.0
 10
121.5963
 20
11.8233
 30
0.0
 10
121.866
 20
9.9713
 30
0.0
 10
121.866
 20
9.9713
 30
0.0
 10
121.7724
 20
9.4321
 30
0.0
 10
122.0266
 20
8.892
 30
0.0
 10
122.5017
 20
8.6202
 30
0.0
 10
122.5017
 20
8.6202
 30
0.0
 10
122.9776
 20
8.3485
 30
0.0
 10
123.5713
 20
8.4037
 30
0.0
 10
123.9883
 20
8.7578
 30
0.0
 10
123.9883
 20
8.7578
 30
0.0
 10
125.9558
 20
9.8406
 30
0.0
 10
127.3836
 20
11.6926
 30
0.0
 10
127.9309
 20
13.8696
 30
0.0
 10
127.9309
 20
13.8696
 30
0.0
 10
128.1005
 20
9.8986
 30
0.0
 10
125.4597
 20
6.3533
 30
0.0
 10
121.6062
 20
5.3794
 30
0.0
 10
121.6062
 20
5.3794
 30
0.0
 10
120.1467
 20
5.0146
 30
0.0
 10
118.7571
 20
4.4146
 30
0.0
 10
117.4907
 20
3.6028
 30
0.0
 10
117.4907
 20
3.6028
 30
0.0
 10
118.7571
 20
2.7917
 30
0.0
 10
120.1467
 20
2.1917
 30
0.0
 10
121.6062
 20
1.8269
 30
0.0
 10
121.6062
 20
1.8269
 30
0.0
 10
125.4597
 20
0.8524
 30
0.0
 10
128.1005
 20
-2.6924
 30
0.0
 10
127.9309
 20
-6.6633
 30
0.0
  0
ENDSEC
  0
SECTION
  2
OBJECTS
  0
DICTIONARY
  5
C
330
0
100
AcDbDictionary
281
     1
  3
ACAD_GROUP
350
D
  3
ACAD_LAYOUT
350
1A
  3
ACAD_MATERIAL
350
3B
  3
ACAD_MLEADERSTYLE
350
86
  3
ACAD_MLINESTYLE
350
17
  3
ACAD_PLOTSETTINGS
350
19
  3
ACAD_PLOTSTYLENAME
350
E
  3
ACAD_TABLESTYLE
350
85
  3
ACAD_VISUALSTYLE
350
2A
  0
DICTIONARY
  5
D
102
{ACAD_REACTORS
330
C
102
}
330
C
100
AcDbDictionary
281
     1
  0
DICTIONARY
  5
1A
102
{ACAD_REACTORS
330
C
102
}
330
C
100
AcDbDictionary
281
     1
  3
Layout1
350
1E
  3
Layout2
350
26
  3
Model
350
22
  0
DICTIONARY
  5
3B
102
{ACAD_REACTORS
330
C
102
}
330
C
100
AcDbDictionary
281
     1
  3
ByBlock
350
3D
  3
ByLayer
350
3C
  3
Global
350
3E
  0
DICTIONARY
  5
86
102
{ACAD_REACTORS
330
C
102
}
330
C
100
AcDbDictionary
281
     1
  0
DICTIONARY
  5
17
102
{ACAD_REACTORS
330
C
102
}
330
C
100
AcDbDictionary
281
     1
  3
Standard
350
18
  0
DICTIONARY
  5
19
102
{ACAD_REACTORS
330
C
102
}
330
C
100
AcDbDictionary
281
     1
  0
ACDBDICTIONARYWDFLT
  5
E
102
{ACAD_REACTORS
330
C
102
}
330
C
100
AcDbDictionary
281
     1
  3
Normal
350
F
100
AcDbDictionaryWithDefault
340
F
  0
DICTIONARY
  5
85
102
{ACAD_REACTORS
330
C
102
}
330
C
100
AcDbDictionary
281
     1
  0
DICTIONARY
  5
2A
102
{ACAD_REACTORS
330
C
102
}
330
C
100
AcDbDictionary
281
     1
  3
2dWireframe
350
2F
  3
3D Hidden
350
31
  3
3dWireframe
350
30
  3
Basic
350
32
  3
Brighten
350
36
  3
ColorChange
350
3A
  3
Conceptual
350
34
  3
Dim
350
35
  3
Facepattern
350
39
  3
Flat
350
2B
  3
FlatWithEdges
350
2C
  3
Gouraud
350
2D
  3
GouraudWithEdges
350
2E
  3
Linepattern
350
38
  3
Realistic
350
33
  3
Thicken
350
37
  0
LAYOUT
  5
1E
102
{ACAD_REACTORS
330
1A
102
}
330
1A
100
AcDbPlotSettings
  1

  2
none_device
  4

  6

 40
0.0
 41
0.0
 42
0.0
 43
0.0
 44
0.0
 45
0.0
 46
0.0
 47
0.0
 48
0.0
 49
0.0
140
0.0
141
0.0
142
1.0
143
1.0
 70
   688
 72
     0
 73
     0
 74
     5
  7

 75
    16
 76
     0
 77
     2
 78
   300
147
1.0
148
0.0
149
0.0
100
AcDbLayout
  1
Layout1
 70
     1
 71
     1
 10
0.0
 20
0.0
 11
12.0
 21
9.0
 12
0.0
 22
0.0
 32
0.0
 14
1.000000000000000E+20
 24
1.000000000000000E+20
 34
1.000000000000000E+20
 15
-1.000000000000000E+20
 25
-1.000000000000000E+20
 35
-1.000000000000000E+20
146
0.0
 13
0.0
 23
0.0
 33
0.0
 16
1.0
 26
0.0
 36
0.0
 17
0.0
 27
1.0
 37
0.0
 76
     0
330
1B
  0
LAYOUT
  5
26
102
{ACAD_REACTORS
330
1A
102
}
330
1A
100
AcDbPlotSettings
  1

  2
none_device
  4

  6

 40
0.0
 41
0.0
 42
0.0
 43
0.0
 44
0.0
 45
0.0
 46
0.0
 47
0.0
 48
0.0
 49
0.0
140
0.0
141
0.0
142
1.0
143
1.0
 70
   688
 72
     0
 73
     0
 74
     5
  7

 75
    16
 76
     0
 77
     2
 78
   300
147
1.0
148
0.0
149
0.0
100
AcDbLayout
  1
Layout2
 70
     1
 71
     2
 10
0.0
 20
0.0
 11
0.0
 21
0.0
 12
0.0
 22
0.0
 32
0.0
 14
0.0
 24
0.0
 34
0.0
 15
0.0
 25
0.0
 35
0.0
146
0.0
 13
0.0
 23
0.0
 33
0.0
 16
1.0
 26
0.0
 36
0.0
 17
0.0
 27
1.0
 37
0.0
 76
     0
330
23
  0
LAYOUT
  5
22
102
{ACAD_REACTORS
330
1A
102
}
330
1A
100
AcDbPlotSettings
  1

  2
none_device
  4

  6

 40
0.0
 41
0.0
 42
0.0
 43
0.0
 44
0.0
 45
0.0
 46
0.0
 47
0.0
 48
0.0
 49
0.0
140
0.0
141
0.0
142
1.0
143
1.0
 70
  1712
 72
     0
 73
     0
 74
     0
  7

 75
     0
 76
     0
 77
     2
 78
   300
147
1.0
148
0.0
149
0.0
100
AcDbLayout
  1
Model
 70
     1
 71
     0
 10
0.0
 20
0.0
 11
12.0
 21
9.0
 12
0.0
 22
0.0
 32
0.0
 14
36.747
 24
-106.5961
 34
0.0
 15
195.9823
 25
113.8025
 35
0.0
146
0.0
 13
0.0
 23
0.0
 33
0.0
 16
1.0
 26
0.0
 36
0.0
 17
0.0
 27
1.0
 37
0.0
 76
     0
330
1F
331
29
  0
MATERIAL
  5
3D
102
{ACAD_REACTORS
330
3B
102
}
330
3B
100
AcDbMaterial
  1
ByBlock
 72
     1
 94
      127
  0
MATERIAL
  5
3C
102
{ACAD_REACTORS
330
3B
102
}
330
3B
100
AcDbMaterial
  1
ByLayer
 72
     1
 94
      127
  0
MATERIAL
  5
3E
102
{ACAD_REACTORS
330
3B
102
}
330
3B
100
AcDbMaterial
  1
Global
 72
     1
 94
      127
  0
MLINESTYLE
  5
18
102
{ACAD_REACTORS
330
17
102
}
330
17
100
AcDbMlineStyle
  2
Standard
 70
     0
  3

 62
   256
 51
90.0
 52
90.0
 71
     2
 49
0.5
 62
   256
  6
BYLAYER
 49
-0.5
 62
   256
  6
BYLAYER
  0
ACDBPLACEHOLDER
  5
F
102
{ACAD_REACTORS
330
E
102
}
330
E
  0
VISUALSTYLE
  5
2F
102
{ACAD_REACTORS
330
2A
102
}
102
{ACAD_XDICTIONARY
360
6D
102
}
330
2A
100
AcDbVisualStyle
  2
2dWireframe
 70
     4
 71
     0
 72
     2
 73
     0
 90
        0
 40
-0.6
 41
-30.0
 62
     5
 63
     7
421
 16777215
 74
     1
 91
        4
 64
     7
 65
   257
 75
     1
175
     1
 42
1.0
 92
        0
 66
   257
 43
1.0
 76
     1
 77
     6
 78
     2
 67
     7
 79
     5
170
     0
171
     0
290
     0
174
     0
 93
        1
 44
0.0
173
     0
291
     0
 45
0.0
  0
VISUALSTYLE
  5
31
102
{ACAD_REACTORS
330
2A
102
}
102
{ACAD_XDICTIONARY
360
71
102
}
330
2A
100
AcDbVisualStyle
  2
3D Hidden
 70
     6
 71
     1
 72
     2
 73
     2
 90
        0
 40
-0.6
 41
-30.0
 62
     5
 63
     7
421
 16777215
 74
     2
 91
        2
 64
     7
 65
   257
 75
     2
175
     1
 42
40.0
 92
        0
 66
   257
 43
1.0
 76
     1
 77
     6
 78
     2
 67
     7
 79
     3
170
     0
171
     0
290
     0
174
     0
 93
        1
 44
0.0
173
     0
291
     0
 45
0.0
  0
VISUALSTYLE
  5
30
102
{ACAD_REACTORS
330
2A
102
}
102
{ACAD_XDICTIONARY
360
6F
102
}
330
2A
100
AcDbVisualStyle
  2
3dWireframe
 70
     5
 71
     0
 72
     2
 73
     0
 90
        0
 40
-0.6
 41
-30.0
 62
     5
 63
     7
421
 16777215
 74
     1
 91
        4
 64
     7
 65
   257
 75
     1
175
     1
 42
1.0
 92
        0
 66
   257
 43
1.0
 76
     1
 77
     6
 78
     2
 67
     7
 79
     5
170
     0
171
     0
290
     0
174
     0
 93
        1
 44
0.0
173
     0
291
     0
 45
0.0
  0
VISUALSTYLE
  5
32
102
{ACAD_REACTORS
330
2A
102
}
102
{ACAD_XDICTIONARY
360
73
102
}
330
2A
100
AcDbVisualStyle
  2
Basic
 70
     7
 71
     1
 72
     0
 73
     1
 90
        0
 40
-0.6
 41
-30.0
 62
     5
 63
     7
421
 16777215
 74
     0
 91
        4
 64
     7
 65
   257
 75
     1
175
     1
 42
1.0
 92
        8
 66
     7
 43
1.0
 76
     1
 77
     6
 78
     2
 67
     7
 79
     5
170
     0
171
     0
290
     0
174
     0
 93
        1
 44
0.0
173
     0
291
     1
 45
0.0
  0
VISUALSTYLE
  5
36
102
{ACAD_REACTORS
330
2A
102
}
102
{ACAD_XDICTIONARY
360
7B
102
}
330
2A
100
AcDbVisualStyle
  2
Brighten
 70
    12
 71
     2
 72
     2
 73
     0
 90
        0
 40
-0.6
 41
-30.0
 62
     5
 63
     7
421
 16777215
 74
     1
 91
        4
 64
     7
 65
   257
 75
     1
175
     1
 42
1.0
 92
        8
 66
     7
 43
1.0
 76
     1
 77
     6
 78
     2
 67
     7
 79
     5
170
     0
171
     0
290
     0
174
     0
 93
        1
 44
50.0
173
     0
291
     1
 45
0.0
  0
VISUALSTYLE
  5
3A
102
{ACAD_REACTORS
330
2A
102
}
102
{ACAD_XDICTIONARY
360
83
102
}
330
2A
100
AcDbVisualStyle
  2
ColorChange
 70
    16
 71
     2
 72
     2
 73
     3
 90
        0
 40
-0.6
 41
-30.0
 62
     5
 63
     8
421
  8421504
 74
     1
 91
        4
 64
     7
 65
   257
 75
     1
175
     1
 42
1.0
 92
        8
 66
     8
424
  8421504
 43
1.0
 76
     1
 77
     6
 78
     2
 67
     7
 79
     5
170
     0
171
     0
290
     0
174
     0
 93
        1
 44
0.0
173
     0
291
     1
 45
0.0
  0
VISUALSTYLE
  5
34
102
{ACAD_REACTORS
330
2A
102
}
102
{ACAD_XDICTIONARY
360
77
102
}
330
2A
100
AcDbVisualStyle
  2
Conceptual
 70
     9
 71
     3
 72
     2
 73
     0
 90
        0
 40
-0.6
 41
-30.0
 62
     5
 63
     7
421
 16777215
 74
     2
 91
        2
 64
     7
 65
   257
 75
     1
175
     1
 42
40.0
 92
        8
 66
     7
 43
1.0
 76
     1
 77
     6
 78
     2
 67
     7
 79
     3
170
     0
171
     0
290
     0
174
     0
 93
        1
 44
0.0
173
     0
291
     0
 45
0.0
  0
VISUALSTYLE
  5
35
102
{ACAD_REACTORS
330
2A
102
}
102
{ACAD_XDICTIONARY
360
79
102
}
330
2A
100
AcDbVisualStyle
  2
Dim
 70
    11
 71
     2
 72
     2
 73
     0
 90
        0
 40
-0.6
 41
-30.0
 62
     5
 63
     7
421
 16777215
 74
     1
 91
        4
 64
     7
 65
   257
 75
     1
175
     1
 42
1.0
 92
        8
 66
     7
 43
1.0
 76
     1
 77
     6
 78
     2
 67
     7
 79
     5
170
     0
171
     0
290
     0
174
     0
 93
        1
 44
-50.0
173
     0
291
     1
 45
0.0
  0
VISUALSTYLE
  5
39
102
{ACAD_REACTORS
330
2A
102
}
102
{ACAD_XDICTIONARY
360
81
102
}
330
2A
100
AcDbVisualStyle
  2
Facepattern
 70
    15
 71
     2
 72
     2
 73
     0
 90
        0
 40
-0.6
 41
-30.0
 62
     5
 63
     7
421
 16777215
 74
     1
 91
        4
 64
     7
 65
   257
 75
     1
175
     1
 42
1.0
 92
        8
 66
     7
 43
1.0
 76
     1
 77
     6
 78
     2
 67
     7
 79
     5
170
     0
171
     0
290
     0
174
     0
 93
        1
 44
0.0
173
     0
291
     1
 45
0.0
  0
VISUALSTYLE
  5
2B
102
{ACAD_REACTORS
330
2A
102
}
102
{ACAD_XDICTIONARY
360
65
102
}
330
2A
100
AcDbVisualStyle
  2
Flat
 70
     0
 71
     2
 72
     1
 73
     1
 90
        2
 40
-0.6
 41
30.0
 62
     5
 63
     7
421
 16777215
 74
     0
 91
        4
 64
     7
 65
   257
 75
     1
175
     1
 42
1.0
 92
        8
 66
     7
 43
1.0
 76
     1
 77
     6
 78
     2
 67
     7
 79
     5
170
     0
171
     0
290
     0
174
     0
 93
       13
 44
0.0
173
     0
291
     1
 45
0.0
  0
VISUALSTYLE
  5
2C
102
{ACAD_REACTORS
330
2A
102
}
102
{ACAD_XDICTIONARY
360
67
102
}
330
2A
100
AcDbVisualStyle
  2
FlatWithEdges
 70
     1
 71
     2
 72
     1
 73
     1
 90
        2
 40
-0.6
 41
30.0
 62
     5
 63
     7
421
 16777215
 74
     1
 91
        4
 64
     7
 65
   257
 75
     1
175
     1
 42
1.0
 92
        0
 66
   257
 43
1.0
 76
     1
 77
     6
 78
     2
 67
     7
 79
     5
170
     0
171
     0
290
     0
174
     0
 93
       13
 44
0.0
173
     0
291
     1
 45
0.0
  0
VISUALSTYLE
  5
2D
102
{ACAD_REACTORS
330
2A
102
}
102
{ACAD_XDICTIONARY
360
69
102
}
330
2A
100
AcDbVisualStyle
  2
Gouraud
 70
     2
 71
     2
 72
     2
 73
     1
 90
        2
 40
-0.6
 41
30.0
 62
     5
 63
     7
421
 16777215
 74
     0
 91
        4
 64
     7
 65
   257
 75
     1
175
     1
 42
1.0
 92
        0
 66
     7
 43
1.0
 76
     1
 77
     6
 78
     2
 67
     7
 79
     5
170
     0
171
     0
290
     0
174
     0
 93
       13
 44
0.0
173
     0
291
     1
 45
0.0
  0
VISUALSTYLE
  5
2E
102
{ACAD_REACTORS
330
2A
102
}
102
{ACAD_XDICTIONARY
360
6B
102
}
330
2A
100
AcDbVisualStyle
  2
GouraudWithEdges
 70
     3
 71
     2
 72
     2
 73
     1
 90
        2
 40
-0.6
 41
30.0
 62
     5
 63
     7
421
 16777215
 74
     1
 91
        4
 64
     7
 65
   257
 75
     1
175
     1
 42
1.0
 92
        0
 66
   257
 43
1.0
 76
     1
 77
     6
 78
     2
 67
     7
 79
     5
170
     0
171
     0
290
     0
174
     0
 93
       13
 44
0.0
173
     0
291
     1
 45
0.0
  0
VISUALSTYLE
  5
38
102
{ACAD_REACTORS
330
2A
102
}
102
{ACAD_XDICTIONARY
360
7F
102
}
330
2A
100
AcDbVisualStyle
  2
Linepattern
 70
    14
 71
     2
 72
     2
 73
     0
 90
        0
 40
-0.6
 41
-30.0
 62
     5
 63
     7
421
 16777215
 74
     1
 91
        4
 64
     7
 65
   257
 75
     7
175
     7
 42
1.0
 92
        8
 66
     7
 43
1.0
 76
     1
 77
     6
 78
     2
 67
     7
 79
     5
170
     0
171
     0
290
     0
174
     0
 93
        1
 44
0.0
173
     0
291
     1
 45
0.0
  0
VISUALSTYLE
  5
33
102
{ACAD_REACTORS
330
2A
102
}
102
{ACAD_XDICTIONARY
360
75
102
}
330
2A
100
AcDbVisualStyle
  2
Realistic
 70
     8
 71
     2
 72
     2
 73
     0
 90
        0
 40
-0.6
 41
-30.0
 62
     5
 63
     7
421
 16777215
 74
     1
 91
        0
 64
     7
 65
   257
 75
     1
175
     1
 42
1.0
 92
        8
 66
     8
424
  7895160
 43
1.0
 76
     1
 77
     6
 78
     2
 67
     7
 79
     5
170
     0
171
     0
290
     0
174
     0
 93
       13
 44
0.0
173
     0
291
     0
 45
0.0
  0
VISUALSTYLE
  5
37
102
{ACAD_REACTORS
330
2A
102
}
102
{ACAD_XDICTIONARY
360
7D
102
}
330
2A
100
AcDbVisualStyle
  2
Thicken
 70
    13
 71
     2
 72
     2
 73
     0
 90
        0
 40
-0.6
 41
-30.0
 62
     5
 63
     7
421
 16777215
 74
     1
 91
        4
 64
     7
 65
   257
 75
     1
175
     1
 42
1.0
 92
       12
 66
     7
 43
1.0
 76
     1
 77
     6
 78
     2
 67
     7
 79
     5
170
     0
171
     0
290
     0
174
     0
 93
        1
 44
0.0
173
     0
291
     1
 45
0.0
  0
DICTIONARY
  5
6D
330
2F
100
AcDbDictionary
280
     1
281
     1
  3
ACAD_XREC_ROUNDTRIP
360
6E
  0
DICTIONARY
  5
71
330
31
100
AcDbDictionary
280
     1
281
     1
  3
ACAD_XREC_ROUNDTRIP
360
72
  0
DICTIONARY
  5
6F
330
30
100
AcDbDictionary
280
     1
281
     1
  3
ACAD_XREC_ROUNDTRIP
360
70
  0
DICTIONARY
  5
73
330
32
100
AcDbDictionary
280
     1
281
     1
  3
ACAD_XREC_ROUNDTRIP
360
74
  0
DICTIONARY
  5
7B
330
36
100
AcDbDictionary
280
     1
281
     1
  3
ACAD_XREC_ROUNDTRIP
360
7C
  0
DICTIONARY
  5
83
330
3A
100
AcDbDictionary
280
     1
281
     1
  3
ACAD_XREC_ROUNDTRIP
360
84
  0
DICTIONARY
  5
77
330
34
100
AcDbDictionary
280
     1
281
     1
  3
ACAD_XREC_ROUNDTRIP
360
78
  0
DICTIONARY
  5
79
330
35
100
AcDbDictionary
280
     1
281
     1
  3
ACAD_XREC_ROUNDTRIP
360
7A
  0
DICTIONARY
  5
81
330
39
100
AcDbDictionary
280
     1
281
     1
  3
ACAD_XREC_ROUNDTRIP
360
82
  0
DICTIONARY
  5
65
330
2B
100
AcDbDictionary
280
     1
281
     1
  3
ACAD_XREC_ROUNDTRIP
360
66
  0
DICTIONARY
  5
67
330
2C
100
AcDbDictionary
280
     1
281
     1
  3
ACAD_XREC_ROUNDTRIP
360
68
  0
DICTIONARY
  5
69
330
2D
100
AcDbDictionary
280
     1
281
     1
  3
ACAD_XREC_ROUNDTRIP
360
6A
  0
DICTIONARY
  5
6B
330
2E
100
AcDbDictionary
280
     1
281
     1
  3
ACAD_XREC_ROUNDTRIP
360
6C
  0
DICTIONARY
  5
7F
330
38
100
AcDbDictionary
280
     1
281
     1
  3
ACAD_XREC_ROUNDTRIP
360
80
  0
DICTIONARY
  5
75
330
33
100
AcDbDictionary
280
     1
281
     1
  3
ACAD_XREC_ROUNDTRIP
360
76
  0
DICTIONARY
  5
7D
330
37
100
AcDbDictionary
280
     1
281
     1
  3
ACAD_XREC_ROUNDTRIP
360
7E
  0
XRECORD
  5
6E
102
{ACAD_REACTORS
330
6D
102
}
330
6D
100
AcDbXrecord
280
     1
102
RTVSPropertyOp0
 70
     1
102
RTVSPropertyOp1
 70
     1
102
RTVSPropertyOp2
 70
     1
102
RTVSPropertyOp3
 70
     1
102
RTVSPropertyOp4
 70
     1
102
RTVSPropertyOp5
 70
     1
102
RTVSPropertyOp6
 70
     1
102
RTVSPropertyOp7
 70
     1
102
RTVSPropertyOp8
 70
     1
102
RTVSPropertyOp9
 70
     1
102
RTVSPropertyOp10
 70
     1
102
RTVSPropertyOp11
 70
     1
102
RTVSPropertyOp12
 70
     1
102
RTVSPropertyOp13
 70
     1
102
RTVSPropertyOp14
 70
     1
102
RTVSPropertyOp15
 70
     1
102
RTVSPropertyOp16
 70
     1
102
RTVSPropertyOp17
 70
     1
102
RTVSPropertyOp18
 70
     1
102
RTVSPropertyOp19
 70
     1
102
RTVSPropertyOp20
 70
     1
102
RTVSPropertyOp21
 70
     1
102
RTVSPropertyOp22
 70
     1
102
RTVSPropertyOp23
 70
     1
102
RTVSPropertyOp24
 70
     1
102
RTVSPropertyOp25
 70
     1
102
RTVSPropertyOp26
 70
     1
102
RTVSPropertyOp27
 70
     1
102
RTVSPropertyOp28
 70
     1
102
RTVSPropertyOp29
 70
     1
102
RTVSPropertyOp30
 70
     1
102
RTVSPropertyOp31
 70
     1
102
RTVSPropertyOp32
 70
     1
  0
XRECORD
  5
72
102
{ACAD_REACTORS
330
71
102
}
330
71
100
AcDbXrecord
280
     1
102
RTVSPropertyOp0
 70
     1
102
RTVSPropertyOp1
 70
     1
102
RTVSPropertyOp2
 70
     1
102
RTVSPropertyOp3
 70
     1
102
RTVSPropertyOp4
 70
     1
102
RTVSPropertyOp5
 70
     1
102
RTVSPropertyOp6
 70
     1
102
RTVSPropertyOp7
 70
     1
102
RTVSPropertyOp8
 70
     1
102
RTVSPropertyOp9
 70
     1
102
RTVSPropertyOp10
 70
     1
102
RTVSPropertyOp11
 70
     1
102
RTVSPropertyOp12
 70
     1
102
RTVSPropertyOp13
 70
     1
102
RTVSPropertyOp14
 70
     1
102
RTVSPropertyOp15
 70
     1
102
RTVSPropertyOp16
 70
     1
102
RTVSPropertyOp17
 70
     1
102
RTVSPropertyOp18
 70
     1
102
RTVSPropertyOp19
 70
     1
102
RTVSPropertyOp20
 70
     1
102
RTVSPropertyOp21
 70
     1
102
RTVSPropertyOp22
 70
     1
102
RTVSPropertyOp23
 70
     1
102
RTVSPropertyOp24
 70
     1
102
RTVSPropertyOp25
 70
     1
102
RTVSPropertyOp26
 70
     1
102
RTVSPropertyOp27
 70
     1
102
RTVSPropertyOp28
 70
     1
102
RTVSPropertyOp29
 70
     1
102
RTVSPropertyOp30
 70
     1
102
RTVSPropertyOp31
 70
     1
102
RTVSPropertyOp32
 70
     1
  0
XRECORD
  5
70
102
{ACAD_REACTORS
330
6F
102
}
330
6F
100
AcDbXrecord
280
     1
102
RTVSPropertyOp0
 70
     1
102
RTVSPropertyOp1
 70
     1
102
RTVSPropertyOp2
 70
     1
102
RTVSPropertyOp3
 70
     1
102
RTVSPropertyOp4
 70
     1
102
RTVSPropertyOp5
 70
     1
102
RTVSPropertyOp6
 70
     1
102
RTVSPropertyOp7
 70
     1
102
RTVSPropertyOp8
 70
     1
102
RTVSPropertyOp9
 70
     1
102
RTVSPropertyOp10
 70
     1
102
RTVSPropertyOp11
 70
     1
102
RTVSPropertyOp12
 70
     1
102
RTVSPropertyOp13
 70
     1
102
RTVSPropertyOp14
 70
     1
102
RTVSPropertyOp15
 70
     1
102
RTVSPropertyOp16
 70
     1
102
RTVSPropertyOp17
 70
     1
102
RTVSPropertyOp18
 70
     1
102
RTVSPropertyOp19
 70
     1
102
RTVSPropertyOp20
 70
     1
102
RTVSPropertyOp21
 70
     1
102
RTVSPropertyOp22
 70
     1
102
RTVSPropertyOp23
 70
     1
102
RTVSPropertyOp24
 70
     1
102
RTVSPropertyOp25
 70
     1
102
RTVSPropertyOp26
 70
     1
102
RTVSPropertyOp27
 70
     1
102
RTVSPropertyOp28
 70
     1
102
RTVSPropertyOp29
 70
     1
102
RTVSPropertyOp30
 70
     1
102
RTVSPropertyOp31
 70
     1
102
RTVSPropertyOp32
 70
     1
  0
XRECORD
  5
74
102
{ACAD_REACTORS
330
73
102
}
330
73
100
AcDbXrecord
280
     1
102
RTVSPropertyOp0
 70
     1
102
RTVSPropertyOp1
 70
     1
102
RTVSPropertyOp2
 70
     1
102
RTVSPropertyOp3
 70
     1
102
RTVSPropertyOp4
 70
     1
102
RTVSPropertyOp5
 70
     1
102
RTVSPropertyOp6
 70
     1
102
RTVSPropertyOp7
 70
     1
102
RTVSPropertyOp8
 70
     1
102
RTVSPropertyOp9
 70
     1
102
RTVSPropertyOp10
 70
     1
102
RTVSPropertyOp11
 70
     1
102
RTVSPropertyOp12
 70
     1
102
RTVSPropertyOp13
 70
     1
102
RTVSPropertyOp14
 70
     1
102
RTVSPropertyOp15
 70
     1
102
RTVSPropertyOp16
 70
     1
102
RTVSPropertyOp17
 70
     1
102
RTVSPropertyOp18
 70
     1
102
RTVSPropertyOp19
 70
     1
102
RTVSPropertyOp20
 70
     1
102
RTVSPropertyOp21
 70
     1
102
RTVSPropertyOp22
 70
     1
102
RTVSPropertyOp23
 70
     1
102
RTVSPropertyOp24
 70
     1
102
RTVSPropertyOp25
 70
     1
102
RTVSPropertyOp26
 70
     1
102
RTVSPropertyOp27
 70
     1
102
RTVSPropertyOp28
 70
     1
102
RTVSPropertyOp29
 70
     1
102
RTVSPropertyOp30
 70
     1
102
RTVSPropertyOp31
 70
     1
102
RTVSPropertyOp32
 70
     1
  0
XRECORD
  5
7C
102
{ACAD_REACTORS
330
7B
102
}
330
7B
100
AcDbXrecord
280
     1
102
RTVSPropertyOp0
 70
     1
102
RTVSPropertyOp1
 70
     1
102
RTVSPropertyOp2
 70
     1
102
RTVSPropertyOp3
 70
     1
102
RTVSPropertyOp4
 70
     1
102
RTVSPropertyOp5
 70
     1
102
RTVSPropertyOp6
 70
     1
102
RTVSPropertyOp7
 70
     1
102
RTVSPropertyOp8
 70
     1
102
RTVSPropertyOp9
 70
     1
102
RTVSPropertyOp10
 70
     1
102
RTVSPropertyOp11
 70
     1
102
RTVSPropertyOp12
 70
     1
102
RTVSPropertyOp13
 70
     1
102
RTVSPropertyOp14
 70
     1
102
RTVSPropertyOp15
 70
     1
102
RTVSPropertyOp16
 70
     1
102
RTVSPropertyOp17
 70
     1
102
RTVSPropertyOp18
 70
     1
102
RTVSPropertyOp19
 70
     1
102
RTVSPropertyOp20
 70
     1
102
RTVSPropertyOp21
 70
     1
102
RTVSPropertyOp22
 70
     1
102
RTVSPropertyOp23
 70
     1
102
RTVSPropertyOp24
 70
     1
102
RTVSPropertyOp25
 70
     1
102
RTVSPropertyOp26
 70
     1
102
RTVSPropertyOp27
 70
     1
102
RTVSPropertyOp28
 70
     1
102
RTVSPropertyOp29
 70
     1
102
RTVSPropertyOp30
 70
     1
102
RTVSPropertyOp31
 70
     1
102
RTVSPropertyOp32
 70
     1
  0
XRECORD
  5
84
102
{ACAD_REACTORS
330
83
102
}
330
83
100
AcDbXrecord
280
     1
102
RTVSPropertyOp0
 70
     1
102
RTVSPropertyOp1
 70
     1
102
RTVSPropertyOp2
 70
     1
102
RTVSPropertyOp3
 70
     1
102
RTVSPropertyOp4
 70
     1
102
RTVSPropertyOp5
 70
     1
102
RTVSPropertyOp6
 70
     1
102
RTVSPropertyOp7
 70
     1
102
RTVSPropertyOp8
 70
     1
102
RTVSPropertyOp9
 70
     1
102
RTVSPropertyOp10
 70
     1
102
RTVSPropertyOp11
 70
     1
102
RTVSPropertyOp12
 70
     1
102
RTVSPropertyOp13
 70
     1
102
RTVSPropertyOp14
 70
     1
102
RTVSPropertyOp15
 70
     1
102
RTVSPropertyOp16
 70
     1
102
RTVSPropertyOp17
 70
     1
102
RTVSPropertyOp18
 70
     1
102
RTVSPropertyOp19
 70
     1
102
RTVSPropertyOp20
 70
     1
102
RTVSPropertyOp21
 70
     1
102
RTVSPropertyOp22
 70
     1
102
RTVSPropertyOp23
 70
     1
102
RTVSPropertyOp24
 70
     1
102
RTVSPropertyOp25
 70
     1
102
RTVSPropertyOp26
 70
     1
102
RTVSPropertyOp27
 70
     1
102
RTVSPropertyOp28
 70
     1
102
RTVSPropertyOp29
 70
     1
102
RTVSPropertyOp30
 70
     1
102
RTVSPropertyOp31
 70
     1
102
RTVSPropertyOp32
 70
     1
  0
XRECORD
  5
78
102
{ACAD_REACTORS
330
77
102
}
330
77
100
AcDbXrecord
280
     1
102
RTVSPropertyOp0
 70
     1
102
RTVSPropertyOp1
 70
     1
102
RTVSPropertyOp2
 70
     1
102
RTVSPropertyOp3
 70
     1
102
RTVSPropertyOp4
 70
     1
102
RTVSPropertyOp5
 70
     1
102
RTVSPropertyOp6
 70
     1
102
RTVSPropertyOp7
 70
     1
102
RTVSPropertyOp8
 70
     1
102
RTVSPropertyOp9
 70
     1
102
RTVSPropertyOp10
 70
     1
102
RTVSPropertyOp11
 70
     1
102
RTVSPropertyOp12
 70
     1
102
RTVSPropertyOp13
 70
     1
102
RTVSPropertyOp14
 70
     1
102
RTVSPropertyOp15
 70
     1
102
RTVSPropertyOp16
 70
     1
102
RTVSPropertyOp17
 70
     1
102
RTVSPropertyOp18
 70
     1
102
RTVSPropertyOp19
 70
     1
102
RTVSPropertyOp20
 70
     1
102
RTVSPropertyOp21
 70
     1
102
RTVSPropertyOp22
 70
     1
102
RTVSPropertyOp23
 70
     1
102
RTVSPropertyOp24
 70
     1
102
RTVSPropertyOp25
 70
     1
102
RTVSPropertyOp26
 70
     1
102
RTVSPropertyOp27
 70
     1
102
RTVSPropertyOp28
 70
     1
102
RTVSPropertyOp29
 70
     1
102
RTVSPropertyOp30
 70
     1
102
RTVSPropertyOp31
 70
     1
102
RTVSPropertyOp32
 70
     1
  0
XRECORD
  5
7A
102
{ACAD_REACTORS
330
79
102
}
330
79
100
AcDbXrecord
280
     1
102
RTVSPropertyOp0
 70
     1
102
RTVSPropertyOp1
 70
     1
102
RTVSPropertyOp2
 70
     1
102
RTVSPropertyOp3
 70
     1
102
RTVSPropertyOp4
 70
     1
102
RTVSPropertyOp5
 70
     1
102
RTVSPropertyOp6
 70
     1
102
RTVSPropertyOp7
 70
     1
102
RTVSPropertyOp8
 70
     1
102
RTVSPropertyOp9
 70
     1
102
RTVSPropertyOp10
 70
     1
102
RTVSPropertyOp11
 70
     1
102
RTVSPropertyOp12
 70
     1
102
RTVSPropertyOp13
 70
     1
102
RTVSPropertyOp14
 70
     1
102
RTVSPropertyOp15
 70
     1
102
RTVSPropertyOp16
 70
     1
102
RTVSPropertyOp17
 70
     1
102
RTVSPropertyOp18
 70
     1
102
RTVSPropertyOp19
 70
     1
102
RTVSPropertyOp20
 70
     1
102
RTVSPropertyOp21
 70
     1
102
RTVSPropertyOp22
 70
     1
102
RTVSPropertyOp23
 70
     1
102
RTVSPropertyOp24
 70
     1
102
RTVSPropertyOp25
 70
     1
102
RTVSPropertyOp26
 70
     1
102
RTVSPropertyOp27
 70
     1
102
RTVSPropertyOp28
 70
     1
102
RTVSPropertyOp29
 70
     1
102
RTVSPropertyOp30
 70
     1
102
RTVSPropertyOp31
 70
     1
102
RTVSPropertyOp32
 70
     1
  0
XRECORD
  5
82
102
{ACAD_REACTORS
330
81
102
}
330
81
100
AcDbXrecord
280
     1
102
RTVSPropertyOp0
 70
     1
102
RTVSPropertyOp1
 70
     1
102
RTVSPropertyOp2
 70
     1
102
RTVSPropertyOp3
 70
     1
102
RTVSPropertyOp4
 70
     1
102
RTVSPropertyOp5
 70
     1
102
RTVSPropertyOp6
 70
     1
102
RTVSPropertyOp7
 70
     1
102
RTVSPropertyOp8
 70
     1
102
RTVSPropertyOp9
 70
     1
102
RTVSPropertyOp10
 70
     1
102
RTVSPropertyOp11
 70
     1
102
RTVSPropertyOp12
 70
     1
102
RTVSPropertyOp13
 70
     1
102
RTVSPropertyOp14
 70
     1
102
RTVSPropertyOp15
 70
     1
102
RTVSPropertyOp16
 70
     1
102
RTVSPropertyOp17
 70
     1
102
RTVSPropertyOp18
 70
     1
102
RTVSPropertyOp19
 70
     1
102
RTVSPropertyOp20
 70
     1
102
RTVSPropertyOp21
 70
     1
102
RTVSPropertyOp22
 70
     1
102
RTVSPropertyOp23
 70
     1
102
RTVSPropertyOp24
 70
     1
102
RTVSPropertyOp25
 70
     1
102
RTVSPropertyOp26
 70
     1
102
RTVSPropertyOp27
 70
     1
102
RTVSPropertyOp28
 70
     1
102
RTVSPropertyOp29
 70
     1
102
RTVSPropertyOp30
 70
     1
102
RTVSPropertyOp31
 70
     1
102
RTVSPropertyOp32
 70
     1
  0
XRECORD
  5
66
102
{ACAD_REACTORS
330
65
102
}
330
65
100
AcDbXrecord
280
     1
102
RTVSPropertyOp0
 70
     1
102
RTVSPropertyOp1
 70
     1
102
RTVSPropertyOp2
 70
     1
102
RTVSPropertyOp3
 70
     1
102
RTVSPropertyOp4
 70
     1
102
RTVSPropertyOp5
 70
     1
102
RTVSPropertyOp6
 70
     1
102
RTVSPropertyOp7
 70
     1
102
RTVSPropertyOp8
 70
     1
102
RTVSPropertyOp9
 70
     1
102
RTVSPropertyOp10
 70
     1
102
RTVSPropertyOp11
 70
     1
102
RTVSPropertyOp12
 70
     1
102
RTVSPropertyOp13
 70
     1
102
RTVSPropertyOp14
 70
     1
102
RTVSPropertyOp15
 70
     1
102
RTVSPropertyOp16
 70
     1
102
RTVSPropertyOp17
 70
     1
102
RTVSPropertyOp18
 70
     1
102
RTVSPropertyOp19
 70
     1
102
RTVSPropertyOp20
 70
     1
102
RTVSPropertyOp21
 70
     1
102
RTVSPropertyOp22
 70
     1
102
RTVSPropertyOp23
 70
     1
102
RTVSPropertyOp24
 70
     1
102
RTVSPropertyOp25
 70
     1
102
RTVSPropertyOp26
 70
     1
102
RTVSPropertyOp27
 70
     1
102
RTVSPropertyOp28
 70
     1
102
RTVSPropertyOp29
 70
     1
102
RTVSPropertyOp30
 70
     1
102
RTVSPropertyOp31
 70
     1
102
RTVSPropertyOp32
 70
     1
  0
XRECORD
  5
68
102
{ACAD_REACTORS
330
67
102
}
330
67
100
AcDbXrecord
280
     1
102
RTVSPropertyOp0
 70
     1
102
RTVSPropertyOp1
 70
     1
102
RTVSPropertyOp2
 70
     1
102
RTVSPropertyOp3
 70
     1
102
RTVSPropertyOp4
 70
     1
102
RTVSPropertyOp5
 70
     1
102
RTVSPropertyOp6
 70
     1
102
RTVSPropertyOp7
 70
     1
102
RTVSPropertyOp8
 70
     1
102
RTVSPropertyOp9
 70
     1
102
RTVSPropertyOp10
 70
     1
102
RTVSPropertyOp11
 70
     1
102
RTVSPropertyOp12
 70
     1
102
RTVSPropertyOp13
 70
     1
102
RTVSPropertyOp14
 70
     1
102
RTVSPropertyOp15
 70
     1
102
RTVSPropertyOp16
 70
     1
102
RTVSPropertyOp17
 70
     1
102
RTVSPropertyOp18
 70
     1
102
RTVSPropertyOp19
 70
     1
102
RTVSPropertyOp20
 70
     1
102
RTVSPropertyOp21
 70
     1
102
RTVSPropertyOp22
 70
     1
102
RTVSPropertyOp23
 70
     1
102
RTVSPropertyOp24
 70
     1
102
RTVSPropertyOp25
 70
     1
102
RTVSPropertyOp26
 70
     1
102
RTVSPropertyOp27
 70
     1
102
RTVSPropertyOp28
 70
     1
102
RTVSPropertyOp29
 70
     1
102
RTVSPropertyOp30
 70
     1
102
RTVSPropertyOp31
 70
     1
102
RTVSPropertyOp32
 70
     1
  0
XRECORD
  5
6A
102
{ACAD_REACTORS
330
69
102
}
330
69
100
AcDbXrecord
280
     1
102
RTVSPropertyOp0
 70
     1
102
RTVSPropertyOp1
 70
     1
102
RTVSPropertyOp2
 70
     1
102
RTVSPropertyOp3
 70
     1
102
RTVSPropertyOp4
 70
     1
102
RTVSPropertyOp5
 70
     1
102
RTVSPropertyOp6
 70
     1
102
RTVSPropertyOp7
 70
     1
102
RTVSPropertyOp8
 70
     1
102
RTVSPropertyOp9
 70
     1
102
RTVSPropertyOp10
 70
     1
102
RTVSPropertyOp11
 70
     1
102
RTVSPropertyOp12
 70
     1
102
RTVSPropertyOp13
 70
     1
102
RTVSPropertyOp14
 70
     1
102
RTVSPropertyOp15
 70
     1
102
RTVSPropertyOp16
 70
     1
102
RTVSPropertyOp17
 70
     1
102
RTVSPropertyOp18
 70
     1
102
RTVSPropertyOp19
 70
     1
102
RTVSPropertyOp20
 70
     1
102
RTVSPropertyOp21
 70
     1
102
RTVSPropertyOp22
 70
     1
102
RTVSPropertyOp23
 70
     1
102
RTVSPropertyOp24
 70
     1
102
RTVSPropertyOp25
 70
     1
102
RTVSPropertyOp26
 70
     1
102
RTVSPropertyOp27
 70
     1
102
RTVSPropertyOp28
 70
     1
102
RTVSPropertyOp29
 70
     1
102
RTVSPropertyOp30
 70
     1
102
RTVSPropertyOp31
 70
     1
102
RTVSPropertyOp32
 70
     1
  0
XRECORD
  5
6C
102
{ACAD_REACTORS
330
6B
102
}
330
6B
100
AcDbXrecord
280
     1
102
RTVSPropertyOp0
 70
     1
102
RTVSPropertyOp1
 70
     1
102
RTVSPropertyOp2
 70
     1
102
RTVSPropertyOp3
 70
     1
102
RTVSPropertyOp4
 70
     1
102
RTVSPropertyOp5
 70
     1
102
RTVSPropertyOp6
 70
     1
102
RTVSPropertyOp7
 70
     1
102
RTVSPropertyOp8
 70
     1
102
RTVSPropertyOp9
 70
     1
102
RTVSPropertyOp10
 70
     1
102
RTVSPropertyOp11
 70
     1
102
RTVSPropertyOp12
 70
     1
102
RTVSPropertyOp13
 70
     1
102
RTVSPropertyOp14
 70
     1
102
RTVSPropertyOp15
 70
     1
102
RTVSPropertyOp16
 70
     1
102
RTVSPropertyOp17
 70
     1
102
RTVSPropertyOp18
 70
     1
102
RTVSPropertyOp19
 70
     1
102
RTVSPropertyOp20
 70
     1
102
RTVSPropertyOp21
 70
     1
102
RTVSPropertyOp22
 70
     1
102
RTVSPropertyOp23
 70
     1
102
RTVSPropertyOp24
 70
     1
102
RTVSPropertyOp25
 70
     1
102
RTVSPropertyOp26
 70
     1
102
RTVSPropertyOp27
 70
     1
102
RTVSPropertyOp28
 70
     1
102
RTVSPropertyOp29
 70
     1
102
RTVSPropertyOp30
 70
     1
102
RTVSPropertyOp31
 70
     1
102
RTVSPropertyOp32
 70
     1
  0
XRECORD
  5
80
102
{ACAD_REACTORS
330
7F
102
}
330
7F
100
AcDbXrecord
280
     1
102
RTVSPropertyOp0
 70
     1
102
RTVSPropertyOp1
 70
     1
102
RTVSPropertyOp2
 70
     1
102
RTVSPropertyOp3
 70
     1
102
RTVSPropertyOp4
 70
     1
102
RTVSPropertyOp5
 70
     1
102
RTVSPropertyOp6
 70
     1
102
RTVSPropertyOp7
 70
     1
102
RTVSPropertyOp8
 70
     1
102
RTVSPropertyOp9
 70
     1
102
RTVSPropertyOp10
 70
     1
102
RTVSPropertyOp11
 70
     1
102
RTVSPropertyOp12
 70
     1
102
RTVSPropertyOp13
 70
     1
102
RTVSPropertyOp14
 70
     1
102
RTVSPropertyOp15
 70
     1
102
RTVSPropertyOp16
 70
     1
102
RTVSPropertyOp17
 70
     1
102
RTVSPropertyOp18
 70
     1
102
RTVSPropertyOp19
 70
     1
102
RTVSPropertyOp20
 70
     1
102
RTVSPropertyOp21
 70
     1
102
RTVSPropertyOp22
 70
     1
102
RTVSPropertyOp23
 70
     1
102
RTVSPropertyOp24
 70
     1
102
RTVSPropertyOp25
 70
     1
102
RTVSPropertyOp26
 70
     1
102
RTVSPropertyOp27
 70
     1
102
RTVSPropertyOp28
 70
     1
102
RTVSPropertyOp29
 70
     1
102
RTVSPropertyOp30
 70
     1
102
RTVSPropertyOp31
 70
     1
102
RTVSPropertyOp32
 70
     1
  0
XRECORD
  5
76
102
{ACAD_REACTORS
330
75
102
}
330
75
100
AcDbXrecord
280
     1
102
RTVSPropertyOp0
 70
     1
102
RTVSPropertyOp1
 70
     1
102
RTVSPropertyOp2
 70
     1
102
RTVSPropertyOp3
 70
     1
102
RTVSPropertyOp4
 70
     1
102
RTVSPropertyOp5
 70
     1
102
RTVSPropertyOp6
 70
     1
102
RTVSPropertyOp7
 70
     1
102
RTVSPropertyOp8
 70
     1
102
RTVSPropertyOp9
 70
     1
102
RTVSPropertyOp10
 70
     1
102
RTVSPropertyOp11
 70
     1
102
RTVSPropertyOp12
 70
     1
102
RTVSPropertyOp13
 70
     1
102
RTVSPropertyOp14
 70
     1
102
RTVSPropertyOp15
 70
     1
102
RTVSPropertyOp16
 70
     1
102
RTVSPropertyOp17
 70
     1
102
RTVSPropertyOp18
 70
     1
102
RTVSPropertyOp19
 70
     1
102
RTVSPropertyOp20
 70
     1
102
RTVSPropertyOp21
 70
     1
102
RTVSPropertyOp22
 70
     1
102
RTVSPropertyOp23
 70
     1
102
RTVSPropertyOp24
 70
     1
102
RTVSPropertyOp25
 70
     1
102
RTVSPropertyOp26
 70
     1
102
RTVSPropertyOp27
 70
     1
102
RTVSPropertyOp28
 70
     1
102
RTVSPropertyOp29
 70
     1
102
RTVSPropertyOp30
 70
     1
102
RTVSPropertyOp31
 70
     1
102
RTVSPropertyOp32
 70
     1
  0
XRECORD
  5
7E
102
{ACAD_REACTORS
330
7D
102
}
330
7D
100
AcDbXrecord
280
     1
102
RTVSPropertyOp0
 70
     1
102
RTVSPropertyOp1
 70
     1
102
RTVSPropertyOp2
 70
     1
102
RTVSPropertyOp3
 70
     1
102
RTVSPropertyOp4
 70
     1
102
RTVSPropertyOp5
 70
     1
102
RTVSPropertyOp6
 70
     1
102
RTVSPropertyOp7
 70
     1
102
RTVSPropertyOp8
 70
     1
102
RTVSPropertyOp9
 70
     1
102
RTVSPropertyOp10
 70
     1
102
RTVSPropertyOp11
 70
     1
102
RTVSPropertyOp12
 70
     1
102
RTVSPropertyOp13
 70
     1
102
RTVSPropertyOp14
 70
     1
102
RTVSPropertyOp15
 70
     1
102
RTVSPropertyOp16
 70
     1
102
RTVSPropertyOp17
 70
     1
102
RTVSPropertyOp18
 70
     1
102
RTVSPropertyOp19
 70
     1
102
RTVSPropertyOp20
 70
     1
102
RTVSPropertyOp21
 70
     1
102
RTVSPropertyOp22
 70
     1
102
RTVSPropertyOp23
 70
     1
102
RTVSPropertyOp24
 70
     1
102
RTVSPropertyOp25
 70
     1
102
RTVSPropertyOp26
 70
     1
102
RTVSPropertyOp27
 70
     1
102
RTVSPropertyOp28
 70
     1
102
RTVSPropertyOp29
 70
     1
102
RTVSPropertyOp30
 70
     1
102
RTVSPropertyOp31
 70
     1
102
RTVSPropertyOp32
 70
     1
  0
ENDSEC
  0
EOF
