  0
SECTION
  2
HEADER
  9
$ACADVER
  1
AC1021
  9
$ACADMAINTVER
 70
    25
  9
$DWGCODEPAGE
  3
ANSI_1252
  9
$INSBASE
 10
0.0
 20
0.0
 30
0.0
  9
$EXTMIN
 10
-187.5834
 20
-114.7812
 30
0.0
  9
$EXTMAX
 10
-61.8534
 20
131.6994
 30
0.0
  9
$LIMMIN
 10
0.0
 20
0.0
  9
$LIMMAX
 10
12.0
 20
9.0
  9
$ORTHOMODE
 70
     0
  9
$REGENMODE
 70
     1
  9
$FILLMODE
 70
     1
  9
$QTEXTMODE
 70
     0
  9
$MIRRTEXT
 70
     1
  9
$LTSCALE
 40
1.0
  9
$ATTMODE
 70
     1
  9
$TEXTSIZE
 40
0.2
  9
$TRACEWID
 40
0.05
  9
$TEXTSTYLE
  7
Standard
  9
$CLAYER
  8
0
  9
$CELTYPE
  6
ByLayer
  9
$CECOLOR
 62
   256
  9
$CELTSCALE
 40
1.0
  9
$DISPSILH
 70
     0
  9
$DIMSCALE
 40
1.0
  9
$DIMASZ
 40
0.18
  9
$DIMEXO
 40
0.0625
  9
$DIMDLI
 40
0.38
  9
$DIMRND
 40
0.0
  9
$DIMDLE
 40
0.0
  9
$DIMEXE
 40
0.18
  9
$DIMTP
 40
0.0
  9
$DIMTM
 40
0.0
  9
$DIMTXT
 40
0.18
  9
$DIMCEN
 40
0.09
  9
$DIMTSZ
 40
0.0
  9
$DIMTOL
 70
     0
  9
$DIMLIM
 70
     0
  9
$DIMTIH
 70
     1
  9
$DIMTOH
 70
     1
  9
$DIMSE1
 70
     0
  9
$DIMSE2
 70
     0
  9
$DIMTAD
 70
     0
  9
$DIMZIN
 70
     0
  9
$DIMBLK
  1

  9
$DIMASO
 70
     1
  9
$DIMSHO
 70
     1
  9
$DIMPOST
  1

  9
$DIMAPOST
  1

  9
$DIMALT
 70
     0
  9
$DIMALTD
 70
     2
  9
$DIMALTF
 40
25.4
  9
$DIMLFAC
 40
1.0
  9
$DIMTOFL
 70
     0
  9
$DIMTVP
 40
0.0
  9
$DIMTIX
 70
     0
  9
$DIMSOXD
 70
     0
  9
$DIMSAH
 70
     0
  9
$DIMBLK1
  1

  9
$DIMBLK2
  1

  9
$DIMSTYLE
  2
Standard
  9
$DIMCLRD
 70
     0
  9
$DIMCLRE
 70
     0
  9
$DIMCLRT
 70
     0
  9
$DIMTFAC
 40
1.0
  9
$DIMGAP
 40
0.09
  9
$DIMJUST
 70
     0
  9
$DIMSD1
 70
     0
  9
$DIMSD2
 70
     0
  9
$DIMTOLJ
 70
     1
  9
$DIMTZIN
 70
     0
  9
$DIMALTZ
 70
     0
  9
$DIMALTTZ
 70
     0
  9
$DIMUPT
 70
     0
  9
$DIMDEC
 70
     4
  9
$DIMTDEC
 70
     4
  9
$DIMALTU
 70
     2
  9
$DIMALTTD
 70
     2
  9
$DIMTXSTY
  7
Standard
  9
$DIMAUNIT
 70
     0
  9
$DIMADEC
 70
     0
  9
$DIMALTRND
 40
0.0
  9
$DIMAZIN
 70
     0
  9
$DIMDSEP
 70
    46
  9
$DIMATFIT
 70
     3
  9
$DIMFRAC
 70
     0
  9
$DIMLDRBLK
  1

  9
$DIMLUNIT
 70
     2
  9
$DIMLWD
 70
    -2
  9
$DIMLWE
 70
    -2
  9
$DIMTMOVE
 70
     0
  9
$DIMFXL
 40
1.0
  9
$DIMFXLON
 70
     0
  9
$DIMJOGANG
 40
0.7853981633974483
  9
$DIMTFILL
 70
     0
  9
$DIMTFILLCLR
 70
     0
  9
$DIMARCSYM
 70
     0
  9
$DIMLTYPE
  6

  9
$DIMLTEX1
  6

  9
$DIMLTEX2
  6

  9
$LUNITS
 70
     2
  9
$LUPREC
 70
     4
  9
$SKETCHINC
 40
0.1
  9
$FILLETRAD
 40
0.5
  9
$AUNITS
 70
     0
  9
$AUPREC
 70
     0
  9
$MENU
  1
.
  9
$ELEVATION
 40
0.0
  9
$PELEVATION
 40
0.0
  9
$THICKNESS
 40
0.0
  9
$LIMCHECK
 70
     0
  9
$CHAMFERA
 40
0.5
  9
$CHAMFERB
 40
0.5
  9
$CHAMFERC
 40
1.0
  9
$CHAMFERD
 40
0.0
  9
$SKPOLY
 70
     0
  9
$TDCREATE
 40
2458492.780366088
  9
$TDUCREATE
 40
2458492.780366088
  9
$TDUPDATE
 40
2458492.780366435
  9
$TDUUPDATE
 40
2458492.780366435
  9
$TDINDWG
 40
0.0000000116
  9
$TDUSRTIMER
 40
0.0000000116
  9
$USRTIMER
 70
     1
  9
$ANGBASE
 50
0.0
  9
$ANGDIR
 70
     0
  9
$PDMODE
 70
     0
  9
$PDSIZE
 40
0.0
  9
$PLINEWID
 40
0.0
  9
$SPLFRAME
 70
     0
  9
$SPLINETYPE
 70
     6
  9
$SPLINESEGS
 70
     8
  9
$HANDSEED
  5
EB
  9
$SURFTAB1
 70
     6
  9
$SURFTAB2
 70
     6
  9
$SURFTYPE
 70
     6
  9
$SURFU
 70
     6
  9
$SURFV
 70
     6
  9
$UCSBASE
  2

  9
$UCSNAME
  2

  9
$UCSORG
 10
0.0
 20
0.0
 30
0.0
  9
$UCSXDIR
 10
1.0
 20
0.0
 30
0.0
  9
$UCSYDIR
 10
0.0
 20
1.0
 30
0.0
  9
$UCSORTHOREF
  2

  9
$UCSORTHOVIEW
 70
     0
  9
$UCSORGTOP
 10
0.0
 20
0.0
 30
0.0
  9
$UCSORGBOTTOM
 10
0.0
 20
0.0
 30
0.0
  9
$UCSORGLEFT
 10
0.0
 20
0.0
 30
0.0
  9
$UCSORGRIGHT
 10
0.0
 20
0.0
 30
0.0
  9
$UCSORGFRONT
 10
0.0
 20
0.0
 30
0.0
  9
$UCSORGBACK
 10
0.0
 20
0.0
 30
0.0
  9
$PUCSBASE
  2

  9
$PUCSNAME
  2

  9
$PUCSORG
 10
0.0
 20
0.0
 30
0.0
  9
$PUCSXDIR
 10
1.0
 20
0.0
 30
0.0
  9
$PUCSYDIR
 10
0.0
 20
1.0
 30
0.0
  9
$PUCSORTHOREF
  2

  9
$PUCSORTHOVIEW
 70
     0
  9
$PUCSORGTOP
 10
0.0
 20
0.0
 30
0.0
  9
$PUCSORGBOTTOM
 10
0.0
 20
0.0
 30
0.0
  9
$PUCSORGLEFT
 10
0.0
 20
0.0
 30
0.0
  9
$PUCSORGRIGHT
 10
0.0
 20
0.0
 30
0.0
  9
$PUCSORGFRONT
 10
0.0
 20
0.0
 30
0.0
  9
$PUCSORGBACK
 10
0.0
 20
0.0
 30
0.0
  9
$USERI1
 70
     0
  9
$USERI2
 70
     0
  9
$USERI3
 70
     0
  9
$USERI4
 70
     0
  9
$USERI5
 70
     0
  9
$USERR1
 40
0.0
  9
$USERR2
 40
0.0
  9
$USERR3
 40
0.0
  9
$USERR4
 40
0.0
  9
$USERR5
 40
0.0
  9
$WORLDVIEW
 70
     1
  9
$SHADEDGE
 70
     3
  9
$SHADEDIF
 70
    70
  9
$TILEMODE
 70
     1
  9
$MAXACTVP
 70
    64
  9
$PINSBASE
 10
0.0
 20
0.0
 30
0.0
  9
$PLIMCHECK
 70
     0
  9
$PEXTMIN
 10
1.000000000000000E+20
 20
1.000000000000000E+20
 30
1.000000000000000E+20
  9
$PEXTMAX
 10
-1.000000000000000E+20
 20
-1.000000000000000E+20
 30
-1.000000000000000E+20
  9
$PLIMMIN
 10
0.0
 20
0.0
  9
$PLIMMAX
 10
12.0
 20
9.0
  9
$UNITMODE
 70
     0
  9
$VISRETAIN
 70
     1
  9
$PLINEGEN
 70
     0
  9
$PSLTSCALE
 70
     1
  9
$TREEDEPTH
 70
  3020
  9
$CMLSTYLE
  2
Standard
  9
$CMLJUST
 70
     0
  9
$CMLSCALE
 40
1.0
  9
$PROXYGRAPHICS
 70
     1
  9
$MEASUREMENT
 70
     0
  9
$CELWEIGHT
370
    -1
  9
$ENDCAPS
280
     0
  9
$JOINSTYLE
280
     0
  9
$LWDISPLAY
290
     0
  9
$INSUNITS
 70
     4
  9
$HYPERLINKBASE
  1

  9
$STYLESHEET
  1

  9
$XEDIT
290
     1
  9
$CEPSNTYPE
380
     0
  9
$PSTYLEMODE
290
     1
  9
$FINGERPRINTGUID
  2
{D227168B-E40F-4F21-95C6-EE06E0996FC7}
  9
$VERSIONGUID
  2
{FAEB1C32-E019-11D5-929B-00C0DF256EC4}
  9
$EXTNAMES
290
     1
  9
$PSVPSCALE
 40
0.0
  9
$OLESTARTUP
290
     0
  9
$SORTENTS
280
   127
  9
$INDEXCTL
280
     0
  9
$HIDETEXT
280
     1
  9
$XCLIPFRAME
290
     0
  9
$HALOGAP
280
     0
  9
$OBSCOLOR
 70
   257
  9
$OBSLTYPE
280
     0
  9
$INTERSECTIONDISPLAY
280
     0
  9
$INTERSECTIONCOLOR
 70
   257
  9
$DIMASSOC
280
     2
  9
$PROJECTNAME
  1

  9
$CAMERADISPLAY
290
     0
  9
$LENSLENGTH
 40
50.0
  9
$CAMERAHEIGHT
 40
0.0
  9
$STEPSPERSEC
 40
2.0
  9
$STEPSIZE
 40
6.0
  9
$3DDWFPREC
 40
2.0
  9
$PSOLWIDTH
 40
0.25
  9
$PSOLHEIGHT
 40
4.0
  9
$LOFTANG1
 40
1.570796326794897
  9
$LOFTANG2
 40
1.570796326794897
  9
$LOFTMAG1
 40
0.0
  9
$LOFTMAG2
 40
0.0
  9
$LOFTPARAM
 70
     7
  9
$LOFTNORMALS
280
     1
  9
$LATITUDE
 40
37.795
  9
$LONGITUDE
 40
-122.394
  9
$NORTHDIRECTION
 40
0.0
  9
$TIMEZONE
 70
 -8000
  9
$LIGHTGLYPHDISPLAY
280
     1
  9
$TILEMODELIGHTSYNCH
280
     1
  9
$SOLIDHIST
280
     1
  9
$SHOWHIST
280
     1
  9
$DWFFRAME
280
     2
  9
$DGNFRAME
280
     2
  9
$REALWORLDSCALE
290
     1
  9
$INTERFERECOLOR
 62
   256
  9
$CSHADOW
280
     0
  9
$SHADOWPLANELOCATION
 40
0.0
  0
ENDSEC
  0
SECTION
  2
CLASSES
  0
CLASS
  1
ACDBDICTIONARYWDFLT
  2
AcDbDictionaryWithDefault
  3
ObjectDBX Classes
 90
        0
 91
        4
280
     0
281
     0
  0
CLASS
  1
VISUALSTYLE
  2
AcDbVisualStyle
  3
ObjectDBX Classes
 90
     4095
 91
        4
280
     0
281
     0
  0
CLASS
  1
MATERIAL
  2
AcDbMaterial
  3
ObjectDBX Classes
 90
     1153
 91
        4
280
     0
281
     0
  0
ENDSEC
  0
SECTION
  2
TABLES
  0
TABLE
  2
VPORT
  5
8
330
0
100
AcDbSymbolTable
 70
     1
  0
VPORT
  5
29
330
8
100
AcDbSymbolTableRecord
100
AcDbViewportTableRecord
  2
*Active
 70
     0
 10
0.0
 20
0.0
 11
1.0
 21
1.0
 12
10.42990654205607
 22
4.5
 13
0.0
 23
0.0
 14
0.5
 24
0.5
 15
0.5
 25
0.5
 16
0.0
 26
0.0
 36
1.0
 17
0.0
 27
0.0
 37
0.0
 40
9.0
 41
1.972972972850329
 42
50.0
 43
0.0
 44
0.0
 50
0.0
 51
0.0
 71
     0
 72
   100
 73
     1
 74
     3
 75
     0
 76
     0
 77
     0
 78
     0
281
     0
 65
     1
110
0.0
120
0.0
130
0.0
111
1.0
121
0.0
131
0.0
112
0.0
122
1.0
132
0.0
 79
     0
146
0.0
 60
     3
 61
     5
292
     1
282
     1
141
0.0
142
0.0
 63
   250
  0
ENDTAB
  0
TABLE
  2
LTYPE
  5
5
330
0
100
AcDbSymbolTable
 70
     1
  0
LTYPE
  5
14
330
5
100
AcDbSymbolTableRecord
100
AcDbLinetypeTableRecord
  2
ByBlock
 70
     0
  3

 72
    65
 73
     0
 40
0.0
  0
LTYPE
  5
15
330
5
100
AcDbSymbolTableRecord
100
AcDbLinetypeTableRecord
  2
ByLayer
 70
     0
  3

 72
    65
 73
     0
 40
0.0
  0
LTYPE
  5
16
330
5
100
AcDbSymbolTableRecord
100
AcDbLinetypeTableRecord
  2
Continuous
 70
     0
  3
Solid line
 72
    65
 73
     0
 40
0.0
  0
ENDTAB
  0
TABLE
  2
LAYER
  5
2
330
0
100
AcDbSymbolTable
 70
     2
  0
LAYER
  5
10
330
2
100
AcDbSymbolTableRecord
100
AcDbLayerTableRecord
  2
0
 70
     0
 62
     7
  6
Continuous
370
    -3
390
F
347
3E
  0
LAYER
  5
40
330
2
100
AcDbSymbolTableRecord
100
AcDbLayerTableRecord
  2
layer 1
 70
     0
 62
     7
  6
Continuous
370
    -3
390
F
347
3E
  0
ENDTAB
  0
TABLE
  2
STYLE
  5
3
330
0
100
AcDbSymbolTable
 70
     1
  0
STYLE
  5
11
330
3
100
AcDbSymbolTableRecord
100
AcDbTextStyleTableRecord
  2
Standard
 70
     0
 40
0.0
 41
1.0
 50
0.0
 71
     0
 42
0.2
  3
txt
  4

  0
ENDTAB
  0
TABLE
  2
VIEW
  5
6
330
0
100
AcDbSymbolTable
 70
     0
  0
ENDTAB
  0
TABLE
  2
UCS
  5
7
330
0
100
AcDbSymbolTable
 70
     0
  0
ENDTAB
  0
TABLE
  2
APPID
  5
9
330
0
100
AcDbSymbolTable
 70
     2
  0
APPID
  5
12
330
9
100
AcDbSymbolTableRecord
100
AcDbRegAppTableRecord
  2
ACAD
 70
     0
  0
APPID
  5
3F
330
9
100
AcDbSymbolTableRecord
100
AcDbRegAppTableRecord
  2
ODA
 70
     0
  0
ENDTAB
  0
TABLE
  2
DIMSTYLE
  5
A
330
0
100
AcDbSymbolTable
 70
     1
100
AcDbDimStyleTable
  0
DIMSTYLE
105
27
330
A
100
AcDbSymbolTableRecord
100
AcDbDimStyleTableRecord
  2
Standard
 70
     0
178
     0
340
11
  0
ENDTAB
  0
TABLE
  2
BLOCK_RECORD
  5
1
330
0
100
AcDbSymbolTable
 70
     1
  0
BLOCK_RECORD
  5
1F
330
1
100
AcDbSymbolTableRecord
100
AcDbBlockTableRecord
  2
*Model_Space
340
22
 70
     0
280
     1
281
     0
  0
BLOCK_RECORD
  5
1B
330
1
100
AcDbSymbolTableRecord
100
AcDbBlockTableRecord
  2
*Paper_Space
340
1E
 70
     0
280
     1
281
     0
  0
BLOCK_RECORD
  5
23
330
1
100
AcDbSymbolTableRecord
100
AcDbBlockTableRecord
  2
*Paper_Space0
340
26
 70
     0
280
     1
281
     0
  0
ENDTAB
  0
ENDSEC
  0
SECTION
  2
BLOCKS
  0
BLOCK
  5
20
330
1F
100
AcDbEntity
  8
0
100
AcDbBlockBegin
  2
*Model_Space
 70
     0
 10
0.0
 20
0.0
 30
0.0
  3
*Model_Space
  1

  0
ENDBLK
  5
21
330
1F
100
AcDbEntity
  8
0
100
AcDbBlockEnd
  0
BLOCK
  5
1C
330
1B
100
AcDbEntity
 67
     1
  8
0
100
AcDbBlockBegin
  2
*Paper_Space
 70
     0
 10
0.0
 20
0.0
 30
0.0
  3
*Paper_Space
  1

  0
ENDBLK
  5
1D
330
1B
100
AcDbEntity
 67
     1
  8
0
100
AcDbBlockEnd
  0
BLOCK
  5
24
330
23
100
AcDbEntity
  8
0
100
AcDbBlockBegin
  2
*Paper_Space0
 70
     0
 10
0.0
 20
0.0
 30
0.0
  3
*Paper_Space0
  1

  0
ENDBLK
  5
25
330
23
100
AcDbEntity
  8
0
100
AcDbBlockEnd
  0
ENDSEC
  0
SECTION
  2
ENTITIES
  0
SPLINE
  5
41
330
1F
100
AcDbEntity
  8
layer 1
100
AcDbSpline
210
0.0
220
0.0
230
1.0
 70
    11
 71
     3
 72
    20
 73
    16
 74
     0
 42
0.0000000001
 43
0.0000000001
 12
1.0
 22
0.0
 32
0.0
 13
1.0
 23
0.0
 33
0.0
 40
0.0
 40
0.0
 40
0.0
 40
0.0
 40
0.2
 40
0.2
 40
0.2
 40
0.2
 40
0.4
 40
0.4
 40
0.4
 40
0.4
 40
0.6
 40
0.6
 40
0.6
 40
0.6
 40
1.0
 40
1.0
 40
1.0
 40
1.0
 10
-187.5834
 20
-114.7812
 30
0.0
 10
-187.5834
 20
-114.7812
 30
0.0
 10
-187.5834
 20
131.6994
 30
0.0
 10
-187.5834
 20
131.6994
 30
0.0
 10
-187.5834
 20
131.6994
 30
0.0
 10
-187.5834
 20
131.6994
 30
0.0
 10
-61.8534
 20
131.6994
 30
0.0
 10
-61.8534
 20
131.6994
 30
0.0
 10
-61.8534
 20
131.6994
 30
0.0
 10
-61.8534
 20
131.6994
 30
0.0
 10
-61.8534
 20
-114.7809
 30
0.0
 10
-61.8534
 20
-114.7809
 30
0.0
 10
-61.8534
 20
-114.7809
 30
0.0
 10
-61.8534
 20
-114.7809
 30
0.0
 10
-187.5834
 20
-114.7812
 30
0.0
 10
-187.5834
 20
-114.7812
 30
0.0
  0
SPLINE
  5
42
330
1F
100
AcDbEntity
  8
layer 1
 62
     7
100
AcDbSpline
210
0.0
220
0.0
230
1.0
 70
    11
 71
     3
 72
    20
 73
    16
 74
     0
 42
0.0000000001
 43
0.0000000001
 12
1.0
 22
0.0
 32
0.0
 13
1.0
 23
0.0
 33
0.0
 40
0.0
 40
0.0
 40
0.0
 40
0.0
 40
0.2
 40
0.2
 40
0.2
 40
0.2
 40
0.4
 40
0.4
 40
0.4
 40
0.4
 40
0.6
 40
0.6
 40
0.6
 40
0.6
 40
1.0
 40
1.0
 40
1.0
 40
1.0
 10
-181.8885
 20
-19.7175
 30
0.0
 10
-181.7792
 20
-27.6494
 30
0.0
 10
-181.7792
 20
-29.4122
 30
0.0
 10
-181.8885
 20
-42.8051
 30
0.0
 10
-181.8885
 20
-42.8051
 30
0.0
 10
-178.2454
 20
-42.946
 30
0.0
 10
-177.9591
 20
-39.1282
 30
0.0
 10
-178.8405
 20
-33.6531
 30
0.0
 10
-178.8405
 20
-33.6531
 30
0.0
 10
-179.7263
 20
-28.1684
 30
0.0
 10
-180.9287
 20
-24.2428
 30
0.0
 10
-180.5938
 20
-19.6724
 30
0.0
 10
-180.5938
 20
-19.6724
 30
0.0
 10
-180.5938
 20
-19.6724
 30
0.0
 10
-181.8885
 20
-19.7175
 30
0.0
 10
-181.8885
 20
-19.7175
 30
0.0
  0
SPLINE
  5
43
330
1F
100
AcDbEntity
  8
layer 1
 62
     7
100
AcDbSpline
210
0.0
220
0.0
230
1.0
 70
    11
 71
     3
 72
    20
 73
    16
 74
     0
 42
0.0000000001
 43
0.0000000001
 12
1.0
 22
0.0
 32
0.0
 13
1.0
 23
0.0
 33
0.0
 40
0.0
 40
0.0
 40
0.0
 40
0.0
 40
0.2
 40
0.2
 40
0.2
 40
0.2
 40
0.4
 40
0.4
 40
0.4
 40
0.4
 40
0.6
 40
0.6
 40
0.6
 40
0.6
 40
1.0
 40
1.0
 40
1.0
 40
1.0
 10
-181.8885
 20
-15.792
 30
0.0
 10
-181.7792
 20
-7.8605
 30
0.0
 10
-181.7792
 20
-11.3179
 30
0.0
 10
-181.8885
 20
2.0752
 30
0.0
 10
-181.8885
 20
2.0752
 30
0.0
 10
-181.2854
 20
0.4373
 30
0.0
 10
-178.2138
 20
-2.1032
 30
0.0
 10
-173.7928
 20
-1.5134
 30
0.0
 10
-173.7928
 20
-1.5134
 30
0.0
 10
-177.891
 20
-5.9052
 30
0.0
 10
-179.5517
 20
-10.0621
 30
0.0
 10
-180.5938
 20
-15.8372
 30
0.0
 10
-180.5938
 20
-15.8372
 30
0.0
 10
-180.5938
 20
-15.8372
 30
0.0
 10
-181.8885
 20
-15.792
 30
0.0
 10
-181.8885
 20
-15.792
 30
0.0
  0
SPLINE
  5
44
330
1F
100
AcDbEntity
  8
layer 1
 62
     7
100
AcDbSpline
210
0.0
220
0.0
230
1.0
 70
    11
 71
     3
 72
    24
 73
    20
 74
     0
 42
0.0000000001
 43
0.0000000001
 12
1.0
 22
0.0
 32
0.0
 13
1.0
 23
0.0
 33
0.0
 40
0.0
 40
0.0
 40
0.0
 40
0.0
 40
0.1666666666666667
 40
0.1666666666666667
 40
0.1666666666666667
 40
0.1666666666666667
 40
0.3333333333333333
 40
0.3333333333333333
 40
0.3333333333333333
 40
0.3333333333333333
 40
0.5
 40
0.5
 40
0.5
 40
0.5
 40
0.6666666666666666
 40
0.6666666666666666
 40
0.6666666666666666
 40
0.6666666666666666
 40
1.0
 40
1.0
 40
1.0
 40
1.0
 10
-171.1034
 20
-34.0939
 30
0.0
 10
-176.4688
 20
-28.178
 30
0.0
 10
-177.7048
 20
-19.7512
 30
0.0
 10
-175.0053
 20
-11.7526
 30
0.0
 10
-175.0053
 20
-11.7526
 30
0.0
 10
-174.6879
 20
-13.6196
 30
0.0
 10
-172.4197
 20
-16.1601
 30
0.0
 10
-167.9981
 20
-14.8813
 30
0.0
 10
-167.9981
 20
-14.8813
 30
0.0
 10
-170.5588
 20
-21.935
 30
0.0
 10
-168.3703
 20
-25.7549
 30
0.0
 10
-166.921
 20
-29.7572
 30
0.0
 10
-166.921
 20
-29.7572
 30
0.0
 10
-165.346
 20
-33.3672
 30
0.0
 10
-169.9218
 20
-34.1506
 30
0.0
 10
-169.5201
 20
-31.3849
 30
0.0
 10
-169.5201
 20
-31.3849
 30
0.0
 10
-171.0131
 20
-31.602
 30
0.0
 10
-171.1876
 20
-32.8969
 30
0.0
 10
-171.1034
 20
-34.0939
 30
0.0
  0
SPLINE
  5
45
330
1F
100
AcDbEntity
  8
layer 1
 62
     7
100
AcDbSpline
210
0.0
220
0.0
230
1.0
 70
    11
 71
     3
 72
    28
 73
    24
 74
     0
 42
0.0000000001
 43
0.0000000001
 12
1.0
 22
0.0
 32
0.0
 13
1.0
 23
0.0
 33
0.0
 40
0.0
 40
0.0
 40
0.0
 40
0.0
 40
0.1428571428571428
 40
0.1428571428571428
 40
0.1428571428571428
 40
0.1428571428571428
 40
0.2857142857142857
 40
0.2857142857142857
 40
0.2857142857142857
 40
0.2857142857142857
 40
0.4285714285714285
 40
0.4285714285714285
 40
0.4285714285714285
 40
0.4285714285714285
 40
0.5714285714285714
 40
0.5714285714285714
 40
0.5714285714285714
 40
0.5714285714285714
 40
0.7142857142857143
 40
0.7142857142857143
 40
0.7142857142857143
 40
0.7142857142857143
 40
1.0
 40
1.0
 40
1.0
 40
1.0
 10
-150.8503
 20
2.2888
 30
0.0
 10
-155.5576
 20
2.9272
 30
0.0
 10
-161.491
 20
1.5501
 30
0.0
 10
-165.4692
 20
-1.1318
 30
0.0
 10
-165.4692
 20
-1.1318
 30
0.0
 10
-170.3902
 20
-4.448
 30
0.0
 10
-172.4372
 20
-9.5491
 30
0.0
 10
-166.9149
 20
-12.7656
 30
0.0
 10
-166.9149
 20
-12.7656
 30
0.0
 10
-163.6143
 20
-8.4322
 30
0.0
 10
-159.3968
 20
-5.0884
 30
0.0
 10
-152.0472
 20
-5.8508
 30
0.0
 10
-152.0472
 20
-5.8508
 30
0.0
 10
-154.5525
 20
-3.8467
 30
0.0
 10
-154.3719
 20
-1.9191
 30
0.0
 10
-156.6502
 20
-0.2698
 30
0.0
 10
-156.6502
 20
-0.2698
 30
0.0
 10
-154.3861
 20
1.6776
 30
0.0
 10
-152.3094
 20
-0.6499
 30
0.0
 10
-152.3094
 20
-0.6499
 30
0.0
 10
-152.3094
 20
-0.6499
 30
0.0
 10
-152.0803
 20
0.6003
 30
0.0
 10
-151.6219
 20
1.3209
 30
0.0
 10
-150.8503
 20
2.2888
 30
0.0
  0
SPLINE
  5
46
330
1F
100
AcDbEntity
  8
layer 1
 62
     7
100
AcDbSpline
210
0.0
220
0.0
230
1.0
 70
    11
 71
     3
 72
    24
 73
    20
 74
     0
 42
0.0000000001
 43
0.0000000001
 12
1.0
 22
0.0
 32
0.0
 13
1.0
 23
0.0
 33
0.0
 40
0.0
 40
0.0
 40
0.0
 40
0.0
 40
0.1666666666666667
 40
0.1666666666666667
 40
0.1666666666666667
 40
0.1666666666666667
 40
0.3333333333333333
 40
0.3333333333333333
 40
0.3333333333333333
 40
0.3333333333333333
 40
0.5
 40
0.5
 40
0.5
 40
0.5
 40
0.6666666666666666
 40
0.6666666666666666
 40
0.6666666666666666
 40
0.6666666666666666
 40
1.0
 40
1.0
 40
1.0
 40
1.0
 10
-144.7577
 20
0.4002
 30
0.0
 10
-138.8868
 20
-1.7271
 30
0.0
 10
-132.7929
 20
-7.1611
 30
0.0
 10
-129.6041
 20
-17.0126
 30
0.0
 10
-129.6041
 20
-17.0126
 30
0.0
 10
-131.6411
 20
-16.3796
 30
0.0
 10
-135.1238
 20
-15.8898
 30
0.0
 10
-136.3012
 20
-19.1514
 30
0.0
 10
-136.3012
 20
-19.1514
 30
0.0
 10
-137.7471
 20
-11.7881
 30
0.0
 10
-143.4277
 20
-8.7262
 30
0.0
 10
-146.7346
 20
-6.0464
 30
0.0
 10
-146.7346
 20
-6.0464
 30
0.0
 10
-152.5858
 20
-3.077
 30
0.0
 10
-147.2887
 20
3.1112
 30
0.0
 10
-145.5746
 20
-2.2776
 30
0.0
 10
-145.5746
 20
-2.2776
 30
0.0
 10
-144.3525
 20
-1.7801
 30
0.0
 10
-144.0661
 20
-0.5812
 30
0.0
 10
-144.7577
 20
0.4002
 30
0.0
  0
SPLINE
  5
47
330
1F
100
AcDbEntity
  8
layer 1
 62
     7
100
AcDbSpline
210
0.0
220
0.0
230
1.0
 70
    11
 71
     3
 72
    20
 73
    16
 74
     0
 42
0.0000000001
 43
0.0000000001
 12
1.0
 22
0.0
 32
0.0
 13
1.0
 23
0.0
 33
0.0
 40
0.0
 40
0.0
 40
0.0
 40
0.0
 40
0.2
 40
0.2
 40
0.2
 40
0.2
 40
0.4
 40
0.4
 40
0.4
 40
0.4
 40
0.6
 40
0.6
 40
0.6
 40
0.6
 40
1.0
 40
1.0
 40
1.0
 40
1.0
 10
-140.2174
 20
-23.6686
 30
0.0
 10
-143.287
 20
-17.5842
 30
0.0
 10
-152.2212
 20
-15.5453
 30
0.0
 10
-153.4553
 20
-23.455
 30
0.0
 10
-153.4553
 20
-23.455
 30
0.0
 10
-156.909
 20
-18.7301
 30
0.0
 10
-162.6464
 20
-22.897
 30
0.0
 10
-161.193
 20
-26.3562
 30
0.0
 10
-161.193
 20
-26.3562
 30
0.0
 10
-167.0444
 20
-24.1898
 30
0.0
 10
-166.5665
 20
-12.6086
 30
0.0
 10
-155.6729
 20
-10.1369
 30
0.0
 10
-155.6729
 20
-10.1369
 30
0.0
 10
-147.3222
 20
-8.683
 30
0.0
 10
-139.8823
 20
-16.125
 30
0.0
 10
-140.2174
 20
-23.6686
 30
0.0
  0
SPLINE
  5
48
330
1F
100
AcDbEntity
  8
layer 1
 62
     7
100
AcDbSpline
210
0.0
220
0.0
230
1.0
 70
    11
 71
     3
 72
    28
 73
    24
 74
     0
 42
0.0000000001
 43
0.0000000001
 12
1.0
 22
0.0
 32
0.0
 13
1.0
 23
0.0
 33
0.0
 40
0.0
 40
0.0
 40
0.0
 40
0.0
 40
0.1428571428571428
 40
0.1428571428571428
 40
0.1428571428571428
 40
0.1428571428571428
 40
0.2857142857142857
 40
0.2857142857142857
 40
0.2857142857142857
 40
0.2857142857142857
 40
0.4285714285714285
 40
0.4285714285714285
 40
0.4285714285714285
 40
0.4285714285714285
 40
0.5714285714285714
 40
0.5714285714285714
 40
0.5714285714285714
 40
0.5714285714285714
 40
0.7142857142857143
 40
0.7142857142857143
 40
0.7142857142857143
 40
0.7142857142857143
 40
1.0
 40
1.0
 40
1.0
 40
1.0
 10
-149.6275
 20
-27.9116
 30
0.0
 10
-150.7464
 20
-27.9703
 30
0.0
 10
-151.9353
 20
-27.3144
 30
0.0
 10
-152.5953
 20
-26.2308
 30
0.0
 10
-152.5953
 20
-26.2308
 30
0.0
 10
-152.6053
 20
-31.4159
 30
0.0
 10
-159.3772
 20
-33.099
 30
0.0
 10
-163.6594
 20
-30.7305
 30
0.0
 10
-163.6594
 20
-30.7305
 30
0.0
 10
-162.4194
 20
-33.3789
 30
0.0
 10
-163.8298
 20
-37.1755
 30
0.0
 10
-168.0393
 20
-37.009
 30
0.0
 10
-168.0393
 20
-37.009
 30
0.0
 10
-161.0773
 20
-41.4672
 30
0.0
 10
-154.556
 20
-41.1267
 30
0.0
 10
-149.8217
 20
-38.9187
 30
0.0
 10
-149.8217
 20
-38.9187
 30
0.0
 10
-145.9978
 20
-36.67
 30
0.0
 10
-143.516
 20
-34.433
 30
0.0
 10
-144.2918
 20
-28.5696
 30
0.0
 10
-144.2918
 20
-28.5696
 30
0.0
 10
-144.7678
 20
-24.9636
 30
0.0
 10
-148.8167
 20
-23.3688
 30
0.0
 10
-149.6275
 20
-27.9116
 30
0.0
  0
SPLINE
  5
49
330
1F
100
AcDbEntity
  8
layer 1
 62
     7
100
AcDbSpline
210
0.0
220
0.0
230
1.0
 70
    11
 71
     3
 72
    28
 73
    24
 74
     0
 42
0.0000000001
 43
0.0000000001
 12
1.0
 22
0.0
 32
0.0
 13
1.0
 23
0.0
 33
0.0
 40
0.0
 40
0.0
 40
0.0
 40
0.0
 40
0.1428571428571428
 40
0.1428571428571428
 40
0.1428571428571428
 40
0.1428571428571428
 40
0.2857142857142857
 40
0.2857142857142857
 40
0.2857142857142857
 40
0.2857142857142857
 40
0.4285714285714285
 40
0.4285714285714285
 40
0.4285714285714285
 40
0.4285714285714285
 40
0.5714285714285714
 40
0.5714285714285714
 40
0.5714285714285714
 40
0.5714285714285714
 40
0.7142857142857143
 40
0.7142857142857143
 40
0.7142857142857143
 40
0.7142857142857143
 40
1.0
 40
1.0
 40
1.0
 40
1.0
 10
-128.9556
 20
-22.6933
 30
0.0
 10
-128.6713
 20
-28.9321
 30
0.0
 10
-132.2563
 20
-38.3214
 30
0.0
 10
-136.9436
 20
-38.8951
 30
0.0
 10
-136.9436
 20
-38.8951
 30
0.0
 10
-138.7892
 20
-39.0324
 30
0.0
 10
-140.0508
 20
-36.3135
 30
0.0
 10
-136.9597
 20
-34.5427
 30
0.0
 10
-136.9597
 20
-34.5427
 30
0.0
 10
-137.2652
 20
-34.2388
 30
0.0
 10
-137.8056
 20
-34.0743
 30
0.0
 10
-138.7184
 20
-34.1175
 30
0.0
 10
-138.7184
 20
-34.1175
 30
0.0
 10
-136.6302
 20
-30.6954
 30
0.0
 10
-136.3794
 20
-29.0495
 30
0.0
 10
-135.5019
 20
-24.7559
 30
0.0
 10
-135.5019
 20
-24.7559
 30
0.0
 10
-134.4794
 20
-18.5912
 30
0.0
 10
-128.7927
 20
-20.6167
 30
0.0
 10
-131.5292
 20
-23.9802
 30
0.0
 10
-131.5292
 20
-23.9802
 30
0.0
 10
-130.0584
 20
-23.9038
 30
0.0
 10
-129.598
 20
-23.7078
 30
0.0
 10
-128.9556
 20
-22.6933
 30
0.0
  0
SPLINE
  5
4A
330
1F
100
AcDbEntity
  8
layer 1
 62
     7
100
AcDbSpline
210
0.0
220
0.0
230
1.0
 70
    11
 71
     3
 72
    28
 73
    24
 74
     0
 42
0.0000000001
 43
0.0000000001
 12
1.0
 22
0.0
 32
0.0
 13
1.0
 23
0.0
 33
0.0
 40
0.0
 40
0.0
 40
0.0
 40
0.0
 40
0.1428571428571428
 40
0.1428571428571428
 40
0.1428571428571428
 40
0.1428571428571428
 40
0.2857142857142857
 40
0.2857142857142857
 40
0.2857142857142857
 40
0.2857142857142857
 40
0.4285714285714285
 40
0.4285714285714285
 40
0.4285714285714285
 40
0.4285714285714285
 40
0.5714285714285714
 40
0.5714285714285714
 40
0.5714285714285714
 40
0.5714285714285714
 40
0.7142857142857143
 40
0.7142857142857143
 40
0.7142857142857143
 40
0.7142857142857143
 40
1.0
 40
1.0
 40
1.0
 40
1.0
 10
-137.3806
 20
-43.8728
 30
0.0
 10
-141.1025
 20
-48.0861
 30
0.0
 10
-142.799
 20
-49.7847
 30
0.0
 10
-145.7375
 20
-52.7524
 30
0.0
 10
-145.7375
 20
-52.7524
 30
0.0
 10
-145.373
 20
-51.6928
 30
0.0
 10
-145.7605
 20
-50.1257
 30
0.0
 10
-146.7205
 20
-49.2757
 30
0.0
 10
-146.7205
 20
-49.2757
 30
0.0
 10
-144.8614
 20
-48.6954
 30
0.0
 10
-144.1133
 20
-48.5309
 30
0.0
 10
-143.0005
 20
-48.7581
 30
0.0
 10
-143.0005
 20
-48.7581
 30
0.0
 10
-145.4708
 20
-44.8306
 30
0.0
 10
-150.5151
 20
-45.7633
 30
0.0
 10
-154.4719
 20
-44.7388
 30
0.0
 10
-154.4719
 20
-44.7388
 30
0.0
 10
-152.7598
 20
-44.6977
 30
0.0
 10
-147.2555
 20
-43.6375
 30
0.0
 10
-142.3034
 20
-38.852
 30
0.0
 10
-142.3034
 20
-38.852
 30
0.0
 10
-142.125
 20
-42.1958
 30
0.0
 10
-139.0203
 20
-44.0156
 30
0.0
 10
-137.3806
 20
-43.8728
 30
0.0
  0
SPLINE
  5
4B
330
1F
100
AcDbEntity
  8
layer 1
 62
     7
100
AcDbSpline
210
0.0
220
0.0
230
1.0
 70
    11
 71
     3
 72
    32
 73
    28
 74
     0
 42
0.0000000001
 43
0.0000000001
 12
1.0
 22
0.0
 32
0.0
 13
1.0
 23
0.0
 33
0.0
 40
0.0
 40
0.0
 40
0.0
 40
0.0
 40
0.125
 40
0.125
 40
0.125
 40
0.125
 40
0.25
 40
0.25
 40
0.25
 40
0.25
 40
0.375
 40
0.375
 40
0.375
 40
0.375
 40
0.5
 40
0.5
 40
0.5
 40
0.5
 40
0.625
 40
0.625
 40
0.625
 40
0.625
 40
0.75
 40
0.75
 40
0.75
 40
0.75
 40
1.0
 40
1.0
 40
1.0
 40
1.0
 10
-148.9833
 20
-56.0746
 30
0.0
 10
-152.7072
 20
-60.2866
 30
0.0
 10
-150.3972
 20
-57.5204
 30
0.0
 10
-153.3339
 20
-60.4883
 30
0.0
 10
-153.3339
 20
-60.4883
 30
0.0
 10
-152.9714
 20
-59.4285
 30
0.0
 10
-153.2653
 20
-57.5381
 30
0.0
 10
-154.2251
 20
-56.688
 30
0.0
 10
-154.2251
 20
-56.688
 30
0.0
 10
-154.9321
 20
-61.1071
 30
0.0
 10
-157.9726
 20
-58.5235
 30
0.0
 10
-158.288
 20
-57.5536
 30
0.0
 10
-158.288
 20
-57.5536
 30
0.0
 10
-160.112
 20
-53.5322
 30
0.0
 10
-158.9871
 20
-51.5654
 30
0.0
 10
-164.4176
 20
-43.4028
 30
0.0
 10
-164.4176
 20
-43.4028
 30
0.0
 10
-157.2717
 20
-46.1253
 30
0.0
 10
-154.3465
 20
-46.2628
 30
0.0
 10
-149.4866
 20
-49.0265
 30
0.0
 10
-149.4866
 20
-49.0265
 30
0.0
 10
-145.5691
 20
-51.9239
 30
0.0
 10
-151.9333
 20
-55.2854
 30
0.0
 10
-151.6435
 20
-50.3198
 30
0.0
 10
-151.6435
 20
-50.3198
 30
0.0
 10
-155.3479
 20
-51.5242
 30
0.0
 10
-153.4278
 20
-56.6469
 30
0.0
 10
-148.9833
 20
-56.0746
 30
0.0
  0
SPLINE
  5
4C
330
1F
100
AcDbEntity
  8
layer 1
 62
     7
100
AcDbSpline
210
0.0
220
0.0
230
1.0
 70
    11
 71
     3
 72
    20
 73
    16
 74
     0
 42
0.0000000001
 43
0.0000000001
 12
1.0
 22
0.0
 32
0.0
 13
1.0
 23
0.0
 33
0.0
 40
0.0
 40
0.0
 40
0.0
 40
0.0
 40
0.2
 40
0.2
 40
0.2
 40
0.2
 40
0.4
 40
0.4
 40
0.4
 40
0.4
 40
0.6
 40
0.6
 40
0.6
 40
0.6
 40
1.0
 40
1.0
 40
1.0
 40
1.0
 10
-140.4364
 20
-53.5888
 30
0.0
 10
-138.0486
 20
-54.3471
 30
0.0
 10
-138.7931
 20
-56.4608
 30
0.0
 10
-136.6383
 20
-58.6468
 30
0.0
 10
-136.6383
 20
-58.6468
 30
0.0
 10
-136.695
 20
-55.2558
 30
0.0
 10
-135.8058
 20
-50.8739
 30
0.0
 10
-130.7573
 20
-50.6778
 30
0.0
 10
-130.7573
 20
-50.6778
 30
0.0
 10
-132.1014
 20
-49.8554
 30
0.0
 10
-133.0477
 20
-48.2883
 30
0.0
 10
-133.4885
 20
-45.9884
 30
0.0
 10
-133.4885
 20
-45.9884
 30
0.0
 10
-136.0134
 20
-49.0108
 30
0.0
 10
-137.1868
 20
-50.2766
 30
0.0
 10
-140.4364
 20
-53.5888
 30
0.0
  0
SPLINE
  5
4D
330
1F
100
AcDbEntity
  8
layer 1
 62
     7
100
AcDbSpline
210
0.0
220
0.0
230
1.0
 70
    11
 71
     3
 72
    24
 73
    20
 74
     0
 42
0.0000000001
 43
0.0000000001
 12
1.0
 22
0.0
 32
0.0
 13
1.0
 23
0.0
 33
0.0
 40
0.0
 40
0.0
 40
0.0
 40
0.0
 40
0.1666666666666667
 40
0.1666666666666667
 40
0.1666666666666667
 40
0.1666666666666667
 40
0.3333333333333333
 40
0.3333333333333333
 40
0.3333333333333333
 40
0.3333333333333333
 40
0.5
 40
0.5
 40
0.5
 40
0.5
 40
0.6666666666666666
 40
0.6666666666666666
 40
0.6666666666666666
 40
0.6666666666666666
 40
1.0
 40
1.0
 40
1.0
 40
1.0
 10
-148.08
 20
-71.8672
 30
0.0
 10
-146.7522
 20
-70.2319
 30
0.0
 10
-139.3006
 20
-69.3072
 30
0.0
 10
-137.3277
 20
-70.6647
 30
0.0
 10
-137.3277
 20
-70.6647
 30
0.0
 10
-139.4119
 20
-68.3784
 30
0.0
 10
-139.7645
 20
-64.9645
 30
0.0
 10
-143.144
 20
-63.154
 30
0.0
 10
-143.144
 20
-63.154
 30
0.0
 10
-142.476
 20
-62.5844
 30
0.0
 10
-141.2438
 20
-62.5824
 30
0.0
 10
-139.753
 20
-63.3617
 30
0.0
 10
-139.753
 20
-63.3617
 30
0.0
 10
-142.139
 20
-61.7028
 30
0.0
 10
-142.4599
 20
-57.2246
 30
0.0
 10
-141.5452
 20
-54.6896
 30
0.0
 10
-141.5452
 20
-54.6896
 30
0.0
 10
-151.2088
 20
-63.6069
 30
0.0
 10
-152.4719
 20
-69.1542
 30
0.0
 10
-148.08
 20
-71.8672
 30
0.0
  0
SPLINE
  5
4E
330
1F
100
AcDbEntity
  8
layer 1
 62
     7
100
AcDbSpline
210
0.0
220
0.0
230
1.0
 70
    11
 71
     3
 72
    20
 73
    16
 74
     0
 42
0.0000000001
 43
0.0000000001
 12
1.0
 22
0.0
 32
0.0
 13
1.0
 23
0.0
 33
0.0
 40
0.0
 40
0.0
 40
0.0
 40
0.0
 40
0.2
 40
0.2
 40
0.2
 40
0.2
 40
0.4
 40
0.4
 40
0.4
 40
0.4
 40
0.6
 40
0.6
 40
0.6
 40
0.6
 40
1.0
 40
1.0
 40
1.0
 40
1.0
 10
-177.8027
 20
-81.8577
 30
0.0
 10
-176.9562
 20
-83.1645
 30
0.0
 10
-174.1669
 20
-84.3651
 30
0.0
 10
-173.5029
 20
-82.2162
 30
0.0
 10
-173.5029
 20
-82.2162
 30
0.0
 10
-176.398
 20
-81.0293
 30
0.0
 10
-176.7876
 20
-77.4873
 30
0.0
 10
-174.0455
 20
-75.7732
 30
0.0
 10
-174.0455
 20
-75.7732
 30
0.0
 10
-175.6592
 20
-75.9438
 30
0.0
 10
-176.772
 20
-74.4805
 30
0.0
 10
-176.3117
 20
-73.2011
 30
0.0
 10
-176.3117
 20
-73.2011
 30
0.0
 10
-178.112
 20
-74.5767
 30
0.0
 10
-179.832
 20
-78.1673
 30
0.0
 10
-177.8027
 20
-81.8577
 30
0.0
  0
SPLINE
  5
4F
330
1F
100
AcDbEntity
  8
layer 1
 62
     7
100
AcDbSpline
210
0.0
220
0.0
230
1.0
 70
    11
 71
     3
 72
    32
 73
    28
 74
     0
 42
0.0000000001
 43
0.0000000001
 12
1.0
 22
0.0
 32
0.0
 13
1.0
 23
0.0
 33
0.0
 40
0.0
 40
0.0
 40
0.0
 40
0.0
 40
0.125
 40
0.125
 40
0.125
 40
0.125
 40
0.25
 40
0.25
 40
0.25
 40
0.25
 40
0.375
 40
0.375
 40
0.375
 40
0.375
 40
0.5
 40
0.5
 40
0.5
 40
0.5
 40
0.625
 40
0.625
 40
0.625
 40
0.625
 40
0.75
 40
0.75
 40
0.75
 40
0.75
 40
1.0
 40
1.0
 40
1.0
 40
1.0
 10
-173.1915
 20
-42.8071
 30
0.0
 10
-169.8066
 20
-44.8251
 30
0.0
 10
-171.5752
 20
-47.6043
 30
0.0
 10
-174.0199
 20
-49.0931
 30
0.0
 10
-174.0199
 20
-49.0931
 30
0.0
 10
-176.3648
 20
-50.5193
 30
0.0
 10
-178.294
 20
-52.7032
 30
0.0
 10
-177.9535
 20
-57.0385
 30
0.0
 10
-177.9535
 20
-57.0385
 30
0.0
 10
-179.3069
 20
-55.8179
 30
0.0
 10
-181.883
 20
-56.2472
 30
0.0
 10
-181.8905
 20
-57.6339
 30
0.0
 10
-181.8905
 20
-57.6339
 30
0.0
 10
-181.8831
 20
-54.0592
 30
0.0
 10
-181.883
 20
-50.3414
 30
0.0
 10
-181.9262
 20
-45.3381
 30
0.0
 10
-181.9262
 20
-45.3381
 30
0.0
 10
-174.8113
 20
-49.0755
 30
0.0
 10
-173.9868
 20
-40.3449
 30
0.0
 10
-175.9476
 20
-35.2067
 30
0.0
 10
-175.9476
 20
-35.2067
 30
0.0
 10
-173.3561
 20
-38.6819
 30
0.0
 10
-172.3235
 20
-39.6593
 30
0.0
 10
-170.0081
 20
-42.1
 30
0.0
 10
-170.0081
 20
-42.1
 30
0.0
 10
-171.1479
 20
-41.61
 30
0.0
 10
-172.5526
 20
-41.7119
 30
0.0
 10
-173.1915
 20
-42.8071
 30
0.0
  0
SPLINE
  5
50
330
1F
100
AcDbEntity
  8
layer 1
 62
     7
100
AcDbSpline
210
0.0
220
0.0
230
1.0
 70
    11
 71
     3
 72
    28
 73
    24
 74
     0
 42
0.0000000001
 43
0.0000000001
 12
1.0
 22
0.0
 32
0.0
 13
1.0
 23
0.0
 33
0.0
 40
0.0
 40
0.0
 40
0.0
 40
0.0
 40
0.1428571428571428
 40
0.1428571428571428
 40
0.1428571428571428
 40
0.1428571428571428
 40
0.2857142857142857
 40
0.2857142857142857
 40
0.2857142857142857
 40
0.2857142857142857
 40
0.4285714285714285
 40
0.4285714285714285
 40
0.4285714285714285
 40
0.4285714285714285
 40
0.5714285714285714
 40
0.5714285714285714
 40
0.5714285714285714
 40
0.5714285714285714
 40
0.7142857142857143
 40
0.7142857142857143
 40
0.7142857142857143
 40
0.7142857142857143
 40
1.0
 40
1.0
 40
1.0
 40
1.0
 10
-181.8907
 20
-76.1614
 30
0.0
 10
-181.8831
 20
-72.5883
 30
0.0
 10
-181.883
 20
-65.6755
 30
0.0
 10
-181.9262
 20
-60.6702
 30
0.0
 10
-181.9262
 20
-60.6702
 30
0.0
 10
-181.8831
 20
-62.2117
 30
0.0
 10
-180.5782
 20
-62.0006
 30
0.0
 10
-180.5782
 20
-62.0006
 30
0.0
 10
-180.5782
 20
-62.0006
 30
0.0
 10
-181.3836
 20
-59.9671
 30
0.0
 10
-180.167
 20
-59.0525
 30
0.0
 10
-178.8957
 20
-59.4361
 30
0.0
 10
-178.8957
 20
-59.4361
 30
0.0
 10
-178.106
 20
-59.6753
 30
0.0
 10
-177.3913
 20
-60.7114
 30
0.0
 10
-176.8327
 20
-61.3969
 30
0.0
 10
-176.8327
 20
-61.3969
 30
0.0
 10
-175.3735
 20
-63.1931
 30
0.0
 10
-172.5646
 20
-65.0446
 30
0.0
 10
-169.7278
 20
-64.6605
 30
0.0
 10
-169.7278
 20
-64.6605
 30
0.0
 10
-174.173
 20
-66.994
 30
0.0
 10
-178.7469
 20
-69.1738
 30
0.0
 10
-181.8907
 20
-76.1614
 30
0.0
  0
SPLINE
  5
51
330
1F
100
AcDbEntity
  8
layer 1
 62
     7
100
AcDbSpline
210
0.0
220
0.0
230
1.0
 70
    11
 71
     3
 72
    24
 73
    20
 74
     0
 42
0.0000000001
 43
0.0000000001
 12
1.0
 22
0.0
 32
0.0
 13
1.0
 23
0.0
 33
0.0
 40
0.0
 40
0.0
 40
0.0
 40
0.0
 40
0.1666666666666667
 40
0.1666666666666667
 40
0.1666666666666667
 40
0.1666666666666667
 40
0.3333333333333333
 40
0.3333333333333333
 40
0.3333333333333333
 40
0.3333333333333333
 40
0.5
 40
0.5
 40
0.5
 40
0.5
 40
0.6666666666666666
 40
0.6666666666666666
 40
0.6666666666666666
 40
0.6666666666666666
 40
1.0
 40
1.0
 40
1.0
 40
1.0
 10
-168.2038
 20
-44.4936
 30
0.0
 10
-167.6085
 20
-47.7336
 30
0.0
 10
-169.3908
 20
-49.7084
 30
0.0
 10
-172.21
 20
-51.0599
 30
0.0
 10
-172.21
 20
-51.0599
 30
0.0
 10
-170.6862
 20
-50.4567
 30
0.0
 10
-167.1462
 20
-51.6497
 30
0.0
 10
-168.0473
 20
-55.4634
 30
0.0
 10
-168.0473
 20
-55.4634
 30
0.0
 10
-168.2314
 20
-57.2381
 30
0.0
 10
-172.3902
 20
-59.027
 30
0.0
 10
-173.9632
 20
-55.2989
 30
0.0
 10
-173.9632
 20
-55.2989
 30
0.0
 10
-176.8759
 20
-62.7273
 30
0.0
 10
-165.567
 20
-64.1886
 30
0.0
 10
-163.7004
 20
-56.833
 30
0.0
 10
-163.7004
 20
-56.833
 30
0.0
 10
-162.7914
 20
-51.3457
 30
0.0
 10
-165.209
 20
-48.7898
 30
0.0
 10
-168.2038
 20
-44.4936
 30
0.0
  0
SPLINE
  5
52
330
1F
100
AcDbEntity
  8
layer 1
 62
     7
100
AcDbSpline
210
0.0
220
0.0
230
1.0
 70
    11
 71
     3
 72
    20
 73
    16
 74
     0
 42
0.0000000001
 43
0.0000000001
 12
1.0
 22
0.0
 32
0.0
 13
1.0
 23
0.0
 33
0.0
 40
0.0
 40
0.0
 40
0.0
 40
0.0
 40
0.2
 40
0.2
 40
0.2
 40
0.2
 40
0.4
 40
0.4
 40
0.4
 40
0.4
 40
0.6
 40
0.6
 40
0.6
 40
0.6
 40
1.0
 40
1.0
 40
1.0
 40
1.0
 10
-181.8907
 20
-101.2744
 30
0.0
 10
-181.8831
 20
-97.6993
 30
0.0
 10
-181.883
 20
-99.4646
 30
0.0
 10
-181.9262
 20
-94.4593
 30
0.0
 10
-181.9262
 20
-94.4593
 30
0.0
 10
-181.2112
 20
-97.4506
 30
0.0
 10
-177.1757
 20
-99.3527
 30
0.0
 10
-173.8239
 20
-98.1969
 30
0.0
 10
-173.8239
 20
-98.1969
 30
0.0
 10
-174.2627
 20
-99.3487
 30
0.0
 10
-174.2296
 20
-100.3241
 30
0.0
 10
-173.6142
 20
-101.2839
 30
0.0
 10
-173.6142
 20
-101.2839
 30
0.0
 10
-173.6142
 20
-101.2839
 30
0.0
 10
-181.8907
 20
-101.2744
 30
0.0
 10
-181.8907
 20
-101.2744
 30
0.0
  0
SPLINE
  5
53
330
1F
100
AcDbEntity
  8
layer 1
 62
     7
100
AcDbSpline
210
0.0
220
0.0
230
1.0
 70
    11
 71
     3
 72
    16
 73
    12
 74
     0
 42
0.0000000001
 43
0.0000000001
 12
1.0
 22
0.0
 32
0.0
 13
1.0
 23
0.0
 33
0.0
 40
0.0
 40
0.0
 40
0.0
 40
0.0
 40
0.25
 40
0.25
 40
0.25
 40
0.25
 40
0.5
 40
0.5
 40
0.5
 40
0.5
 40
1.0
 40
1.0
 40
1.0
 40
1.0
 10
-181.8907
 20
-89.9656
 30
0.0
 10
-181.8831
 20
-86.3925
 30
0.0
 10
-181.883
 20
-87.0469
 30
0.0
 10
-181.9262
 20
-82.0417
 30
0.0
 10
-181.9262
 20
-82.0417
 30
0.0
 10
-180.9194
 20
-84.9744
 30
0.0
 10
-178.8405
 20
-86.4397
 30
0.0
 10
-177.5633
 20
-87.035
 30
0.0
 10
-177.5633
 20
-87.035
 30
0.0
 10
-179.7634
 20
-87.2094
 30
0.0
 10
-181.1545
 20
-88.5454
 30
0.0
 10
-181.8907
 20
-89.9656
 30
0.0
  0
SPLINE
  5
54
330
1F
100
AcDbEntity
  8
layer 1
 62
     7
100
AcDbSpline
210
0.0
220
0.0
230
1.0
 70
    11
 71
     3
 72
    28
 73
    24
 74
     0
 42
0.0000000001
 43
0.0000000001
 12
1.0
 22
0.0
 32
0.0
 13
1.0
 23
0.0
 33
0.0
 40
0.0
 40
0.0
 40
0.0
 40
0.0
 40
0.1428571428571428
 40
0.1428571428571428
 40
0.1428571428571428
 40
0.1428571428571428
 40
0.2857142857142857
 40
0.2857142857142857
 40
0.2857142857142857
 40
0.2857142857142857
 40
0.4285714285714285
 40
0.4285714285714285
 40
0.4285714285714285
 40
0.4285714285714285
 40
0.5714285714285714
 40
0.5714285714285714
 40
0.5714285714285714
 40
0.5714285714285714
 40
0.7142857142857143
 40
0.7142857142857143
 40
0.7142857142857143
 40
0.7142857142857143
 40
1.0
 40
1.0
 40
1.0
 40
1.0
 10
-171.5476
 20
-101.2744
 30
0.0
 10
-169.6124
 20
-99.3056
 30
0.0
 10
-169.2618
 20
-97.5368
 30
0.0
 10
-167.7845
 20
-95.2486
 30
0.0
 10
-167.7845
 20
-95.2486
 30
0.0
 10
-167.5068
 20
-96.4126
 30
0.0
 10
-167.1091
 20
-97.6953
 30
0.0
 10
-166.386
 20
-98.5494
 30
0.0
 10
-166.386
 20
-98.5494
 30
0.0
 10
-164.4057
 20
-96.6808
 30
0.0
 10
-163.2872
 20
-95.8188
 30
0.0
 10
-162.1489
 20
-84.4749
 30
0.0
 10
-162.1489
 20
-84.4749
 30
0.0
 10
-161.487
 20
-91.1861
 30
0.0
 10
-155.2811
 20
-99.3527
 30
0.0
 10
-161.4358
 20
-99.7153
 30
0.0
 10
-161.4358
 20
-99.7153
 30
0.0
 10
-161.1737
 20
-100.3712
 30
0.0
 10
-160.4389
 20
-100.9078
 30
0.0
 10
-159.5317
 20
-101.2839
 30
0.0
 10
-159.5317
 20
-101.2839
 30
0.0
 10
-159.5317
 20
-101.2839
 30
0.0
 10
-171.5476
 20
-101.2744
 30
0.0
 10
-171.5476
 20
-101.2744
 30
0.0
  0
SPLINE
  5
55
330
1F
100
AcDbEntity
  8
layer 1
 62
     7
100
AcDbSpline
210
0.0
220
0.0
230
1.0
 70
    11
 71
     3
 72
    28
 73
    24
 74
     0
 42
0.0000000001
 43
0.0000000001
 12
1.0
 22
0.0
 32
0.0
 13
1.0
 23
0.0
 33
0.0
 40
0.0
 40
0.0
 40
0.0
 40
0.0
 40
0.1428571428571428
 40
0.1428571428571428
 40
0.1428571428571428
 40
0.1428571428571428
 40
0.2857142857142857
 40
0.2857142857142857
 40
0.2857142857142857
 40
0.2857142857142857
 40
0.4285714285714285
 40
0.4285714285714285
 40
0.4285714285714285
 40
0.4285714285714285
 40
0.5714285714285714
 40
0.5714285714285714
 40
0.5714285714285714
 40
0.5714285714285714
 40
0.7142857142857143
 40
0.7142857142857143
 40
0.7142857142857143
 40
0.7142857142857143
 40
1.0
 40
1.0
 40
1.0
 40
1.0
 10
-156.4722
 20
-101.2744
 30
0.0
 10
-154.8876
 20
-100.4164
 30
0.0
 10
-153.9507
 20
-99.288
 30
0.0
 10
-153.7612
 20
-97.8794
 30
0.0
 10
-153.7612
 20
-97.8794
 30
0.0
 10
-151.0558
 20
-98.949
 30
0.0
 10
-150.7424
 20
-99.8698
 30
0.0
 10
-144.2095
 20
-100.1361
 30
0.0
 10
-144.2095
 20
-100.1361
 30
0.0
 10
-139.3278
 20
-100.0071
 30
0.0
 10
-137.0144
 20
-98.8944
 30
0.0
 10
-134.1975
 20
-96.9607
 30
0.0
 10
-134.1975
 20
-96.9607
 30
0.0
 10
-132.8065
 20
-96.0049
 30
0.0
 10
-132.0427
 20
-94.4162
 30
0.0
 10
-129.6646
 20
-94.5827
 30
0.0
 10
-129.6646
 20
-94.5827
 30
0.0
 10
-132.5031
 20
-96.4848
 30
0.0
 10
-133.1866
 20
-99.6681
 30
0.0
 10
-133.0713
 20
-101.2839
 30
0.0
 10
-133.0713
 20
-101.2839
 30
0.0
 10
-133.0713
 20
-101.2839
 30
0.0
 10
-156.4722
 20
-101.2744
 30
0.0
 10
-156.4722
 20
-101.2744
 30
0.0
  0
SPLINE
  5
56
330
1F
100
AcDbEntity
  8
layer 1
 62
     7
100
AcDbSpline
210
0.0
220
0.0
230
1.0
 70
    11
 71
     3
 72
    16
 73
    12
 74
     0
 42
0.0000000001
 43
0.0000000001
 12
1.0
 22
0.0
 32
0.0
 13
1.0
 23
0.0
 33
0.0
 40
0.0
 40
0.0
 40
0.0
 40
0.0
 40
0.25
 40
0.25
 40
0.25
 40
0.25
 40
0.5
 40
0.5
 40
0.5
 40
0.5
 40
1.0
 40
1.0
 40
1.0
 40
1.0
 10
-131.8486
 20
-83.9478
 30
0.0
 10
-138.3484
 20
-82.6414
 30
0.0
 10
-137.5685
 20
-94.1539
 30
0.0
 10
-148.3899
 20
-90.0438
 30
0.0
 10
-148.3899
 20
-90.0438
 30
0.0
 10
-148.5072
 20
-92.5888
 30
0.0
 10
-149.5573
 20
-93.3721
 30
0.0
 10
-151.4143
 20
-94.1654
 30
0.0
 10
-151.4143
 20
-94.1654
 30
0.0
 10
-140.3562
 20
-99.4429
 30
0.0
 10
-131.3376
 20
-90.9079
 30
0.0
 10
-131.8486
 20
-83.9478
 30
0.0
  0
SPLINE
  5
57
330
1F
100
AcDbEntity
  8
layer 1
 62
     7
100
AcDbSpline
210
0.0
220
0.0
230
1.0
 70
    11
 71
     3
 72
    28
 73
    24
 74
     0
 42
0.0000000001
 43
0.0000000001
 12
1.0
 22
0.0
 32
0.0
 13
1.0
 23
0.0
 33
0.0
 40
0.0
 40
0.0
 40
0.0
 40
0.0
 40
0.1428571428571428
 40
0.1428571428571428
 40
0.1428571428571428
 40
0.1428571428571428
 40
0.2857142857142857
 40
0.2857142857142857
 40
0.2857142857142857
 40
0.2857142857142857
 40
0.4285714285714285
 40
0.4285714285714285
 40
0.4285714285714285
 40
0.4285714285714285
 40
0.5714285714285714
 40
0.5714285714285714
 40
0.5714285714285714
 40
0.5714285714285714
 40
0.7142857142857143
 40
0.7142857142857143
 40
0.7142857142857143
 40
0.7142857142857143
 40
1.0
 40
1.0
 40
1.0
 40
1.0
 10
-144.2799
 20
-74.9293
 30
0.0
 10
-148.1642
 20
-76.555
 30
0.0
 10
-149.5844
 20
-80.3337
 30
0.0
 10
-148.8105
 20
-83.1074
 30
0.0
 10
-148.8105
 20
-83.1074
 30
0.0
 10
-147.9372
 20
-86.2415
 30
0.0
 10
-144.4603
 20
-88.1402
 30
0.0
 10
-142.1957
 20
-85.1097
 30
0.0
 10
-142.1957
 20
-85.1097
 30
0.0
 10
-145.5787
 20
-84.5044
 30
0.0
 10
-145.7841
 20
-81.3171
 30
0.0
 10
-144.1488
 20
-79.9576
 30
0.0
 10
-144.1488
 20
-79.9576
 30
0.0
 10
-141.8095
 20
-78.0124
 30
0.0
 10
-139.1106
 20
-79.7951
 30
0.0
 10
-138.9029
 20
-81.8186
 30
0.0
 10
-138.9029
 20
-81.8186
 30
0.0
 10
-138.1879
 20
-80.9079
 30
0.0
 10
-134.7185
 20
-79.5249
 30
0.0
 10
-131.974
 20
-82.8255
 30
0.0
 10
-131.974
 20
-82.8255
 30
0.0
 10
-131.5784
 20
-78.7194
 30
0.0
 10
-137.1222
 20
-71.9164
 30
0.0
 10
-144.2799
 20
-74.9293
 30
0.0
  0
SPLINE
  5
58
330
1F
100
AcDbEntity
  8
layer 1
 62
     7
100
AcDbSpline
210
0.0
220
0.0
230
1.0
 70
    11
 71
     3
 72
    20
 73
    16
 74
     0
 42
0.0000000001
 43
0.0000000001
 12
1.0
 22
0.0
 32
0.0
 13
1.0
 23
0.0
 33
0.0
 40
0.0
 40
0.0
 40
0.0
 40
0.0
 40
0.2
 40
0.2
 40
0.2
 40
0.2
 40
0.4
 40
0.4
 40
0.4
 40
0.4
 40
0.6
 40
0.6
 40
0.6
 40
0.6
 40
1.0
 40
1.0
 40
1.0
 40
1.0
 10
-125.4314
 20
-96.3729
 30
0.0
 10
-123.0257
 20
-96.3729
 30
0.0
 10
-121.0768
 20
-98.3222
 30
0.0
 10
-121.0768
 20
-100.7257
 30
0.0
 10
-121.0768
 20
-100.7257
 30
0.0
 10
-121.077
 20
-103.1294
 30
0.0
 10
-123.0256
 20
-105.0787
 30
0.0
 10
-125.4312
 20
-105.0787
 30
0.0
 10
-125.4312
 20
-105.0787
 30
0.0
 10
-127.8349
 20
-105.0785
 30
0.0
 10
-129.784
 20
-103.1294
 30
0.0
 10
-129.784
 20
-100.7257
 30
0.0
 10
-129.784
 20
-100.7257
 30
0.0
 10
-129.784
 20
-98.3222
 30
0.0
 10
-127.8349
 20
-96.3729
 30
0.0
 10
-125.4314
 20
-96.3729
 30
0.0
  0
SPLINE
  5
59
330
1F
100
AcDbEntity
  8
layer 1
 62
     7
100
AcDbSpline
210
0.0
220
0.0
230
1.0
 70
    11
 71
     3
 72
    28
 73
    24
 74
     0
 42
0.0000000001
 43
0.0000000001
 12
1.0
 22
0.0
 32
0.0
 13
1.0
 23
0.0
 33
0.0
 40
0.0
 40
0.0
 40
0.0
 40
0.0
 40
0.1428571428571428
 40
0.1428571428571428
 40
0.1428571428571428
 40
0.1428571428571428
 40
0.2857142857142857
 40
0.2857142857142857
 40
0.2857142857142857
 40
0.2857142857142857
 40
0.4285714285714285
 40
0.4285714285714285
 40
0.4285714285714285
 40
0.4285714285714285
 40
0.5714285714285714
 40
0.5714285714285714
 40
0.5714285714285714
 40
0.5714285714285714
 40
0.7142857142857143
 40
0.7142857142857143
 40
0.7142857142857143
 40
0.7142857142857143
 40
1.0
 40
1.0
 40
1.0
 40
1.0
 10
-177.6928
 20
-95.1407
 30
0.0
 10
-178.6526
 20
-94.3926
 30
0.0
 10
-180.2999
 20
-91.2077
 30
0.0
 10
-178.1511
 20
-90.5453
 30
0.0
 10
-178.1511
 20
-90.5453
 30
0.0
 10
-176.1216
 20
-94.3299
 30
0.0
 10
-171.7908
 20
-89.7755
 30
0.0
 10
-175.2676
 20
-87.7756
 30
0.0
 10
-175.2676
 20
-87.7756
 30
0.0
 10
-173.2772
 20
-87.9421
 30
0.0
 10
-172.7447
 20
-87.8754
 30
0.0
 10
-171.3931
 20
-88.0399
 30
0.0
 10
-171.3931
 20
-88.0399
 30
0.0
 10
-169.4324
 20
-88.6882
 30
0.0
 10
-168.5468
 20
-90.802
 30
0.0
 10
-170.6936
 20
-91.3466
 30
0.0
 10
-170.6936
 20
-91.3466
 30
0.0
 10
-169.9373
 20
-92.5923
 30
0.0
 10
-168.4058
 20
-92.134
 30
0.0
 10
-167.9491
 20
-91.9695
 30
0.0
 10
-167.9491
 20
-91.9695
 30
0.0
 10
-169.4225
 20
-94.859
 30
0.0
 10
-174.0023
 20
-97.1702
 30
0.0
 10
-177.6928
 20
-95.1407
 30
0.0
  0
SPLINE
  5
5A
330
1F
100
AcDbEntity
  8
layer 1
 62
     7
100
AcDbSpline
210
0.0
220
0.0
230
1.0
 70
    11
 71
     3
 72
    20
 73
    16
 74
     0
 42
0.0000000001
 43
0.0000000001
 12
1.0
 22
0.0
 32
0.0
 13
1.0
 23
0.0
 33
0.0
 40
0.0
 40
0.0
 40
0.0
 40
0.0
 40
0.2
 40
0.2
 40
0.2
 40
0.2
 40
0.4
 40
0.4
 40
0.4
 40
0.4
 40
0.6
 40
0.6
 40
0.6
 40
0.6
 40
1.0
 40
1.0
 40
1.0
 40
1.0
 10
-157.5123
 20
-85.3855
 30
0.0
 10
-156.392
 20
-87.901
 30
0.0
 10
-152.9479
 20
-91.1565
 30
0.0
 10
-150.7854
 20
-88.0539
 30
0.0
 10
-150.7854
 20
-88.0539
 30
0.0
 10
-154.5662
 20
-84.7276
 30
0.0
 10
-154.2898
 20
-76.9197
 30
0.0
 10
-149.1791
 20
-72.8742
 30
0.0
 10
-149.1791
 20
-72.8742
 30
0.0
 10
-151.3145
 20
-73.2031
 30
0.0
 10
-154.4171
 20
-71.8146
 30
0.0
 10
-154.4036
 20
-68.8098
 30
0.0
 10
-154.4036
 20
-68.8098
 30
0.0
 10
-156.9832
 20
-72.3943
 30
0.0
 10
-159.7002
 20
-79.2154
 30
0.0
 10
-157.5123
 20
-85.3855
 30
0.0
  0
SPLINE
  5
5B
330
1F
100
AcDbEntity
  8
layer 1
 62
     7
100
AcDbSpline
210
0.0
220
0.0
230
1.0
 70
    11
 71
     3
 72
    32
 73
    28
 74
     0
 42
0.0000000001
 43
0.0000000001
 12
1.0
 22
0.0
 32
0.0
 13
1.0
 23
0.0
 33
0.0
 40
0.0
 40
0.0
 40
0.0
 40
0.0
 40
0.125
 40
0.125
 40
0.125
 40
0.125
 40
0.25
 40
0.25
 40
0.25
 40
0.25
 40
0.375
 40
0.375
 40
0.375
 40
0.375
 40
0.5
 40
0.5
 40
0.5
 40
0.5
 40
0.625
 40
0.625
 40
0.625
 40
0.625
 40
0.75
 40
0.75
 40
0.75
 40
0.75
 40
1.0
 40
1.0
 40
1.0
 40
1.0
 10
-165.7887
 20
-77.2601
 30
0.0
 10
-165.4363
 20
-75.846
 30
0.0
 10
-163.0912
 20
-75.8123
 30
0.0
 10
-162.1314
 20
-76.6292
 30
0.0
 10
-162.1314
 20
-76.6292
 30
0.0
 10
-161.5201
 20
-73.17
 30
0.0
 10
-160.3626
 20
-69.3092
 30
0.0
 10
-155.4948
 20
-62.9997
 30
0.0
 10
-155.4948
 20
-62.9997
 30
0.0
 10
-157.8198
 20
-63.8752
 30
0.0
 10
-160.3566
 20
-62.2414
 30
0.0
 10
-161.142
 20
-60.0455
 30
0.0
 10
-161.142
 20
-60.0455
 30
0.0
 10
-161.3402
 20
-63.1661
 30
0.0
 10
-168.5724
 20
-66.9819
 30
0.0
 10
-166.5504
 20
-71.8793
 30
0.0
 10
-166.5504
 20
-71.8793
 30
0.0
 10
-168.5744
 20
-72.0963
 30
0.0
 10
-171.2483
 20
-70.6391
 30
0.0
 10
-170.3862
 20
-68.4573
 30
0.0
 10
-170.3862
 20
-68.4573
 30
0.0
 10
-172.6449
 20
-69.7635
 30
0.0
 10
-174.6958
 20
-71.5127
 30
0.0
 10
-176.0157
 20
-72.5101
 30
0.0
 10
-176.0157
 20
-72.5101
 30
0.0
 10
-172.9212
 20
-76.702
 30
0.0
 10
-167.8356
 20
-71.9771
 30
0.0
 10
-165.7887
 20
-77.2601
 30
0.0
  0
SPLINE
  5
5C
330
1F
100
AcDbEntity
  8
layer 1
 62
     7
100
AcDbSpline
210
0.0
220
0.0
230
1.0
 70
    11
 71
     3
 72
    16
 73
    12
 74
     0
 42
0.0000000001
 43
0.0000000001
 12
1.0
 22
0.0
 32
0.0
 13
1.0
 23
0.0
 33
0.0
 40
0.0
 40
0.0
 40
0.0
 40
0.0
 40
0.25
 40
0.25
 40
0.25
 40
0.25
 40
0.5
 40
0.5
 40
0.5
 40
0.5
 40
1.0
 40
1.0
 40
1.0
 40
1.0
 10
-168.8035
 20
-86.6041
 30
0.0
 10
-167.7596
 20
-86.9216
 30
0.0
 10
-166.4035
 20
-87.9752
 30
0.0
 10
-166.3332
 20
-89.7325
 30
0.0
 10
-166.3332
 20
-89.7325
 30
0.0
 10
-165.4206
 20
-87.2094
 30
0.0
 10
-163.4868
 20
-82.1851
 30
0.0
 10
-162.2292
 20
-77.3073
 30
0.0
 10
-162.2292
 20
-77.3073
 30
0.0
 10
-166.576
 20
-77.5149
 30
0.0
 10
-163.387
 20
-83.4032
 30
0.0
 10
-168.8035
 20
-86.6041
 30
0.0
  0
SPLINE
  5
5D
330
1F
100
AcDbEntity
  8
layer 1
 62
     7
100
AcDbSpline
210
0.0
220
0.0
230
1.0
 70
    11
 71
     3
 72
    28
 73
    24
 74
     0
 42
0.0000000001
 43
0.0000000001
 12
1.0
 22
0.0
 32
0.0
 13
1.0
 23
0.0
 33
0.0
 40
0.0
 40
0.0
 40
0.0
 40
0.0
 40
0.1428571428571428
 40
0.1428571428571428
 40
0.1428571428571428
 40
0.1428571428571428
 40
0.2857142857142857
 40
0.2857142857142857
 40
0.2857142857142857
 40
0.2857142857142857
 40
0.4285714285714285
 40
0.4285714285714285
 40
0.4285714285714285
 40
0.4285714285714285
 40
0.5714285714285714
 40
0.5714285714285714
 40
0.5714285714285714
 40
0.5714285714285714
 40
0.7142857142857143
 40
0.7142857142857143
 40
0.7142857142857143
 40
0.7142857142857143
 40
1.0
 40
1.0
 40
1.0
 40
1.0
 10
-170.5251
 20
-76.6703
 30
0.0
 10
-172.3981
 20
-76.516
 30
0.0
 10
-172.9246
 20
-77.887
 30
0.0
 10
-172.4253
 20
-78.7355
 30
0.0
 10
-172.4253
 20
-78.7355
 30
0.0
 10
-171.9555
 20
-79.5342
 30
0.0
 10
-170.5291
 20
-79.8423
 30
0.0
 10
-169.8691
 20
-78.8488
 30
0.0
 10
-169.8691
 20
-78.8488
 30
0.0
 10
-168.8307
 20
-79.7655
 30
0.0
 10
-170.494
 20
-82.6766
 30
0.0
 10
-172.8013
 20
-82.3572
 30
0.0
 10
-172.8013
 20
-82.3572
 30
0.0
 10
-172.2842
 20
-83.0822
 30
0.0
 10
-172.4644
 20
-84.2929
 30
0.0
 10
-172.8013
 20
-85.0194
 30
0.0
 10
-172.8013
 20
-85.0194
 30
0.0
 10
-171.7533
 20
-84.8806
 30
0.0
 10
-169.1386
 20
-83.6148
 30
0.0
 10
-168.2334
 20
-81.6244
 30
0.0
 10
-168.2334
 20
-81.6244
 30
0.0
 10
-167.3537
 20
-79.6933
 30
0.0
 10
-168.1296
 20
-77.0369
 30
0.0
 10
-170.5251
 20
-76.6703
 30
0.0
  0
SPLINE
  5
5E
330
1F
100
AcDbEntity
  8
layer 1
 62
     7
100
AcDbSpline
210
0.0
220
0.0
230
1.0
 70
    11
 71
     3
 72
    20
 73
    16
 74
     0
 42
0.0000000001
 43
0.0000000001
 12
1.0
 22
0.0
 32
0.0
 13
1.0
 23
0.0
 33
0.0
 40
0.0
 40
0.0
 40
0.0
 40
0.0
 40
0.2
 40
0.2
 40
0.2
 40
0.2
 40
0.4
 40
0.4
 40
0.4
 40
0.4
 40
0.6
 40
0.6
 40
0.6
 40
0.6
 40
1.0
 40
1.0
 40
1.0
 40
1.0
 10
-181.8831
 20
-107.7545
 30
0.0
 10
-181.8831
 20
-107.7545
 30
0.0
 10
-181.8831
 20
-104.8865
 30
0.0
 10
-181.8831
 20
-104.8865
 30
0.0
 10
-181.8831
 20
-104.8865
 30
0.0
 10
-181.8831
 20
-104.8865
 30
0.0
 10
-131.976
 20
-104.8865
 30
0.0
 10
-131.976
 20
-104.8865
 30
0.0
 10
-131.976
 20
-104.8865
 30
0.0
 10
-131.2689
 20
-106.1266
 30
0.0
 10
-130.2288
 20
-106.9552
 30
0.0
 10
-129.0339
 20
-107.7545
 30
0.0
 10
-129.0339
 20
-107.7545
 30
0.0
 10
-129.0339
 20
-107.7545
 30
0.0
 10
-181.8831
 20
-107.7545
 30
0.0
 10
-181.8831
 20
-107.7545
 30
0.0
  0
SPLINE
  5
5F
330
1F
100
AcDbEntity
  8
layer 1
 62
     7
100
AcDbSpline
210
0.0
220
0.0
230
1.0
 70
    11
 71
     3
 72
    20
 73
    16
 74
     0
 42
0.0000000001
 43
0.0000000001
 12
1.0
 22
0.0
 32
0.0
 13
1.0
 23
0.0
 33
0.0
 40
0.0
 40
0.0
 40
0.0
 40
0.0
 40
0.2
 40
0.2
 40
0.2
 40
0.2
 40
0.4
 40
0.4
 40
0.4
 40
0.4
 40
0.6
 40
0.6
 40
0.6
 40
0.6
 40
1.0
 40
1.0
 40
1.0
 40
1.0
 10
-69.0366
 20
-19.6978
 30
0.0
 10
-69.1485
 20
-27.6293
 30
0.0
 10
-69.1483
 20
-29.3945
 30
0.0
 10
-69.0366
 20
-42.7856
 30
0.0
 10
-69.0366
 20
-42.7856
 30
0.0
 10
-72.6823
 20
-42.9265
 30
0.0
 10
-72.9681
 20
-39.1087
 30
0.0
 10
-72.0844
 20
-33.6336
 30
0.0
 10
-72.0844
 20
-33.6336
 30
0.0
 10
-71.2014
 20
-28.1509
 30
0.0
 10
-69.9984
 20
-24.2228
 30
0.0
 10
-70.3313
 20
-19.6529
 30
0.0
 10
-70.3313
 20
-19.6529
 30
0.0
 10
-70.3313
 20
-19.6529
 30
0.0
 10
-69.0366
 20
-19.6978
 30
0.0
 10
-69.0366
 20
-19.6978
 30
0.0
  0
SPLINE
  5
60
330
1F
100
AcDbEntity
  8
layer 1
 62
     7
100
AcDbSpline
210
0.0
220
0.0
230
1.0
 70
    11
 71
     3
 72
    20
 73
    16
 74
     0
 42
0.0000000001
 43
0.0000000001
 12
1.0
 22
0.0
 32
0.0
 13
1.0
 23
0.0
 33
0.0
 40
0.0
 40
0.0
 40
0.0
 40
0.0
 40
0.2
 40
0.2
 40
0.2
 40
0.2
 40
0.4
 40
0.4
 40
0.4
 40
0.4
 40
0.6
 40
0.6
 40
0.6
 40
0.6
 40
1.0
 40
1.0
 40
1.0
 40
1.0
 10
-69.0366
 20
-15.7725
 30
0.0
 10
-69.1485
 20
-7.8426
 30
0.0
 10
-69.1483
 20
-11.2983
 30
0.0
 10
-69.0366
 20
2.0926
 30
0.0
 10
-69.0366
 20
2.0926
 30
0.0
 10
-69.6399
 20
0.4549
 30
0.0
 10
-72.7113
 20
-2.0856
 30
0.0
 10
-77.1349
 20
-1.4938
 30
0.0
 10
-77.1349
 20
-1.4938
 30
0.0
 10
-73.0369
 20
-5.8877
 30
0.0
 10
-71.3754
 20
-10.0425
 30
0.0
 10
-70.3313
 20
-15.8175
 30
0.0
 10
-70.3313
 20
-15.8175
 30
0.0
 10
-70.3313
 20
-15.8175
 30
0.0
 10
-69.0366
 20
-15.7725
 30
0.0
 10
-69.0366
 20
-15.7725
 30
0.0
  0
SPLINE
  5
61
330
1F
100
AcDbEntity
  8
layer 1
 62
     7
100
AcDbSpline
210
0.0
220
0.0
230
1.0
 70
    11
 71
     3
 72
    24
 73
    20
 74
     0
 42
0.0000000001
 43
0.0000000001
 12
1.0
 22
0.0
 32
0.0
 13
1.0
 23
0.0
 33
0.0
 40
0.0
 40
0.0
 40
0.0
 40
0.0
 40
0.1666666666666667
 40
0.1666666666666667
 40
0.1666666666666667
 40
0.1666666666666667
 40
0.3333333333333333
 40
0.3333333333333333
 40
0.3333333333333333
 40
0.3333333333333333
 40
0.5
 40
0.5
 40
0.5
 40
0.5
 40
0.6666666666666666
 40
0.6666666666666666
 40
0.6666666666666666
 40
0.6666666666666666
 40
1.0
 40
1.0
 40
1.0
 40
1.0
 10
-79.8243
 20
-34.0743
 30
0.0
 10
-74.4571
 20
-28.1584
 30
0.0
 10
-73.2208
 20
-19.7331
 30
0.0
 10
-75.9224
 20
-11.7331
 30
0.0
 10
-75.9224
 20
-11.7331
 30
0.0
 10
-76.2378
 20
-13.6
 30
0.0
 10
-78.506
 20
-16.1425
 30
0.0
 10
-82.929
 20
-14.8617
 30
0.0
 10
-82.929
 20
-14.8617
 30
0.0
 10
-80.3669
 20
-21.9154
 30
0.0
 10
-82.5549
 20
-25.7353
 30
0.0
 10
-84.0067
 20
-29.7376
 30
0.0
 10
-84.0067
 20
-29.7376
 30
0.0
 10
-85.5813
 20
-33.3476
 30
0.0
 10
-81.0039
 20
-34.131
 30
0.0
 10
-81.405
 20
-31.3653
 30
0.0
 10
-81.405
 20
-31.3653
 30
0.0
 10
-79.9146
 20
-31.5845
 30
0.0
 10
-79.7401
 20
-32.8774
 30
0.0
 10
-79.8243
 20
-34.0743
 30
0.0
  0
SPLINE
  5
62
330
1F
100
AcDbEntity
  8
layer 1
 62
     7
100
AcDbSpline
210
0.0
220
0.0
230
1.0
 70
    11
 71
     3
 72
    28
 73
    24
 74
     0
 42
0.0000000001
 43
0.0000000001
 12
1.0
 22
0.0
 32
0.0
 13
1.0
 23
0.0
 33
0.0
 40
0.0
 40
0.0
 40
0.0
 40
0.0
 40
0.1428571428571428
 40
0.1428571428571428
 40
0.1428571428571428
 40
0.1428571428571428
 40
0.2857142857142857
 40
0.2857142857142857
 40
0.2857142857142857
 40
0.2857142857142857
 40
0.4285714285714285
 40
0.4285714285714285
 40
0.4285714285714285
 40
0.4285714285714285
 40
0.5714285714285714
 40
0.5714285714285714
 40
0.5714285714285714
 40
0.5714285714285714
 40
0.7142857142857143
 40
0.7142857142857143
 40
0.7142857142857143
 40
0.7142857142857143
 40
1.0
 40
1.0
 40
1.0
 40
1.0
 10
-100.0756
 20
2.3084
 30
0.0
 10
-95.3681
 20
2.9467
 30
0.0
 10
-89.4347
 20
1.5697
 30
0.0
 10
-85.4559
 20
-1.1123
 30
0.0
 10
-85.4559
 20
-1.1123
 30
0.0
 10
-80.5375
 20
-4.4284
 30
0.0
 10
-78.4884
 20
-9.5295
 30
0.0
 10
-84.0126
 20
-12.7481
 30
0.0
 10
-84.0126
 20
-12.7481
 30
0.0
 10
-87.3114
 20
-8.4126
 30
0.0
 10
-91.5309
 20
-5.0689
 30
0.0
 10
-98.8785
 20
-5.8331
 30
0.0
 10
-98.8785
 20
-5.8331
 30
0.0
 10
-96.3751
 20
-3.8271
 30
0.0
 10
-96.5551
 20
-1.9015
 30
0.0
 10
-94.2769
 20
-0.2501
 30
0.0
 10
-94.2769
 20
-0.2501
 30
0.0
 10
-96.5396
 20
1.6952
 30
0.0
 10
-98.6182
 20
-0.6303
 30
0.0
 10
-98.6182
 20
-0.6303
 30
0.0
 10
-98.6182
 20
-0.6303
 30
0.0
 10
-98.8474
 20
0.6198
 30
0.0
 10
-99.3037
 20
1.3385
 30
0.0
 10
-100.0756
 20
2.3084
 30
0.0
  0
SPLINE
  5
63
330
1F
100
AcDbEntity
  8
layer 1
 62
     7
100
AcDbSpline
210
0.0
220
0.0
230
1.0
 70
    11
 71
     3
 72
    24
 73
    20
 74
     0
 42
0.0000000001
 43
0.0000000001
 12
1.0
 22
0.0
 32
0.0
 13
1.0
 23
0.0
 33
0.0
 40
0.0
 40
0.0
 40
0.0
 40
0.0
 40
0.1666666666666667
 40
0.1666666666666667
 40
0.1666666666666667
 40
0.1666666666666667
 40
0.3333333333333333
 40
0.3333333333333333
 40
0.3333333333333333
 40
0.3333333333333333
 40
0.5
 40
0.5
 40
0.5
 40
0.5
 40
0.6666666666666666
 40
0.6666666666666666
 40
0.6666666666666666
 40
0.6666666666666666
 40
1.0
 40
1.0
 40
1.0
 40
1.0
 10
-106.1696
 20
0.4198
 30
0.0
 10
-112.0403
 20
-1.7075
 30
0.0
 10
-118.1347
 20
-7.1415
 30
0.0
 10
-121.3236
 20
-16.9946
 30
0.0
 10
-121.3236
 20
-16.9946
 30
0.0
 10
-119.2862
 20
-16.3621
 30
0.0
 10
-115.8013
 20
-15.8703
 30
0.0
 10
-114.6243
 20
-19.1338
 30
0.0
 10
-114.6243
 20
-19.1338
 30
0.0
 10
-113.1806
 20
-11.7687
 30
0.0
 10
-107.4998
 20
-8.7066
 30
0.0
 10
-104.1911
 20
-6.0267
 30
0.0
 10
-104.1911
 20
-6.0267
 30
0.0
 10
-98.3419
 20
-3.0569
 30
0.0
 10
-103.6365
 20
3.1288
 30
0.0
 10
-105.3505
 20
-2.2582
 30
0.0
 10
-105.3505
 20
-2.2582
 30
0.0
 10
-106.5732
 20
-1.7606
 30
0.0
 10
-106.859
 20
-0.5636
 30
0.0
 10
-106.1696
 20
0.4198
 30
0.0
  0
SPLINE
  5
64
330
1F
100
AcDbEntity
  8
layer 1
 62
     7
100
AcDbSpline
210
0.0
220
0.0
230
1.0
 70
    11
 71
     3
 72
    20
 73
    16
 74
     0
 42
0.0000000001
 43
0.0000000001
 12
1.0
 22
0.0
 32
0.0
 13
1.0
 23
0.0
 33
0.0
 40
0.0
 40
0.0
 40
0.0
 40
0.0
 40
0.2
 40
0.2
 40
0.2
 40
0.2
 40
0.4
 40
0.4
 40
0.4
 40
0.4
 40
0.6
 40
0.6
 40
0.6
 40
0.6
 40
1.0
 40
1.0
 40
1.0
 40
1.0
 10
-110.7083
 20
-23.6491
 30
0.0
 10
-107.6389
 20
-17.5666
 30
0.0
 10
-98.704
 20
-15.5257
 30
0.0
 10
-97.4704
 20
-23.4356
 30
0.0
 10
-97.4704
 20
-23.4356
 30
0.0
 10
-94.0167
 20
-18.7106
 30
0.0
 10
-88.2787
 20
-22.8793
 30
0.0
 10
-89.7345
 20
-26.3366
 30
0.0
 10
-89.7345
 20
-26.3366
 30
0.0
 10
-83.8833
 20
-24.1721
 30
0.0
 10
-84.3592
 20
-12.591
 30
0.0
 10
-95.2528
 20
-10.1188
 30
0.0
 10
-95.2528
 20
-10.1188
 30
0.0
 10
-103.6055
 20
-8.6635
 30
0.0
 10
-111.0454
 20
-16.1054
 30
0.0
 10
-110.7083
 20
-23.6491
 30
0.0
  0
SPLINE
  5
65
330
1F
100
AcDbEntity
  8
layer 1
 62
     7
100
AcDbSpline
210
0.0
220
0.0
230
1.0
 70
    11
 71
     3
 72
    28
 73
    24
 74
     0
 42
0.0000000001
 43
0.0000000001
 12
1.0
 22
0.0
 32
0.0
 13
1.0
 23
0.0
 33
0.0
 40
0.0
 40
0.0
 40
0.0
 40
0.0
 40
0.1428571428571428
 40
0.1428571428571428
 40
0.1428571428571428
 40
0.1428571428571428
 40
0.2857142857142857
 40
0.2857142857142857
 40
0.2857142857142857
 40
0.2857142857142857
 40
0.4285714285714285
 40
0.4285714285714285
 40
0.4285714285714285
 40
0.4285714285714285
 40
0.5714285714285714
 40
0.5714285714285714
 40
0.5714285714285714
 40
0.5714285714285714
 40
0.7142857142857143
 40
0.7142857142857143
 40
0.7142857142857143
 40
0.7142857142857143
 40
1.0
 40
1.0
 40
1.0
 40
1.0
 10
-101.2996
 20
-27.892
 30
0.0
 10
-100.1813
 20
-27.9507
 30
0.0
 10
-98.9922
 20
-27.2944
 30
0.0
 10
-98.3298
 20
-26.2112
 30
0.0
 10
-98.3298
 20
-26.2112
 30
0.0
 10
-98.3203
 20
-31.3963
 30
0.0
 10
-91.5503
 20
-33.0814
 30
0.0
 10
-87.2662
 20
-30.713
 30
0.0
 10
-87.2662
 20
-30.713
 30
0.0
 10
-88.5079
 20
-33.3611
 30
0.0
 10
-87.0977
 20
-37.156
 30
0.0
 10
-82.8878
 20
-36.9894
 30
0.0
 10
-82.8878
 20
-36.9894
 30
0.0
 10
-89.8479
 20
-41.4475
 30
0.0
 10
-96.3691
 20
-41.1087
 30
0.0
 10
-101.106
 20
-38.8991
 30
0.0
 10
-101.106
 20
-38.8991
 30
0.0
 10
-104.9299
 20
-36.6504
 30
0.0
 10
-107.4096
 20
-34.4153
 30
0.0
 10
-106.6359
 20
-28.55
 30
0.0
 10
-106.6359
 20
-28.55
 30
0.0
 10
-106.1579
 20
-24.9439
 30
0.0
 10
-102.1105
 20
-23.3513
 30
0.0
 10
-101.2996
 20
-27.892
 30
0.0
  0
SPLINE
  5
66
330
1F
100
AcDbEntity
  8
layer 1
 62
     7
100
AcDbSpline
210
0.0
220
0.0
230
1.0
 70
    11
 71
     3
 72
    28
 73
    24
 74
     0
 42
0.0000000001
 43
0.0000000001
 12
1.0
 22
0.0
 32
0.0
 13
1.0
 23
0.0
 33
0.0
 40
0.0
 40
0.0
 40
0.0
 40
0.0
 40
0.1428571428571428
 40
0.1428571428571428
 40
0.1428571428571428
 40
0.1428571428571428
 40
0.2857142857142857
 40
0.2857142857142857
 40
0.2857142857142857
 40
0.2857142857142857
 40
0.4285714285714285
 40
0.4285714285714285
 40
0.4285714285714285
 40
0.4285714285714285
 40
0.5714285714285714
 40
0.5714285714285714
 40
0.5714285714285714
 40
0.5714285714285714
 40
0.7142857142857143
 40
0.7142857142857143
 40
0.7142857142857143
 40
0.7142857142857143
 40
1.0
 40
1.0
 40
1.0
 40
1.0
 10
-121.9721
 20
-22.6756
 30
0.0
 10
-122.254
 20
-28.9127
 30
0.0
 10
-118.6714
 20
-38.3019
 30
0.0
 10
-113.9835
 20
-38.8755
 30
0.0
 10
-113.9835
 20
-38.8755
 30
0.0
 10
-112.1365
 20
-39.0128
 30
0.0
 10
-110.8748
 20
-36.2939
 30
0.0
 10
-113.968
 20
-34.5232
 30
0.0
 10
-113.968
 20
-34.5232
 30
0.0
 10
-113.6625
 20
-34.2193
 30
0.0
 10
-113.1199
 20
-34.0548
 30
0.0
 10
-112.2068
 20
-34.0979
 30
0.0
 10
-112.2068
 20
-34.0979
 30
0.0
 10
-114.2969
 20
-30.6758
 30
0.0
 10
-114.5456
 20
-29.0301
 30
0.0
 10
-115.4252
 20
-24.7364
 30
0.0
 10
-115.4252
 20
-24.7364
 30
0.0
 10
-116.4457
 20
-18.5717
 30
0.0
 10
-122.1345
 20
-20.5992
 30
0.0
 10
-119.3979
 20
-23.9605
 30
0.0
 10
-119.3979
 20
-23.9605
 30
0.0
 10
-120.8693
 20
-23.8842
 30
0.0
 10
-121.3276
 20
-23.6883
 30
0.0
 10
-121.9721
 20
-22.6756
 30
0.0
  0
SPLINE
  5
67
330
1F
100
AcDbEntity
  8
layer 1
 62
     7
100
AcDbSpline
210
0.0
220
0.0
230
1.0
 70
    11
 71
     3
 72
    28
 73
    24
 74
     0
 42
0.0000000001
 43
0.0000000001
 12
1.0
 22
0.0
 32
0.0
 13
1.0
 23
0.0
 33
0.0
 40
0.0
 40
0.0
 40
0.0
 40
0.0
 40
0.1428571428571428
 40
0.1428571428571428
 40
0.1428571428571428
 40
0.1428571428571428
 40
0.2857142857142857
 40
0.2857142857142857
 40
0.2857142857142857
 40
0.2857142857142857
 40
0.4285714285714285
 40
0.4285714285714285
 40
0.4285714285714285
 40
0.4285714285714285
 40
0.5714285714285714
 40
0.5714285714285714
 40
0.5714285714285714
 40
0.5714285714285714
 40
0.7142857142857143
 40
0.7142857142857143
 40
0.7142857142857143
 40
0.7142857142857143
 40
1.0
 40
1.0
 40
1.0
 40
1.0
 10
-113.5468
 20
-43.8552
 30
0.0
 10
-109.8227
 20
-48.0665
 30
0.0
 10
-108.1267
 20
-49.7671
 30
0.0
 10
-105.188
 20
-52.7349
 30
0.0
 10
-105.188
 20
-52.7349
 30
0.0
 10
-105.5528
 20
-51.6752
 30
0.0
 10
-105.1664
 20
-50.1061
 30
0.0
 10
-104.2066
 20
-49.2576
 30
0.0
 10
-104.2066
 20
-49.2576
 30
0.0
 10
-106.0637
 20
-48.6779
 30
0.0
 10
-106.8118
 20
-48.5135
 30
0.0
 10
-107.9246
 20
-48.7406
 30
0.0
 10
-107.9246
 20
-48.7406
 30
0.0
 10
-105.4564
 20
-44.811
 30
0.0
 10
-100.4105
 20
-45.7438
 30
0.0
 10
-96.4553
 20
-44.7193
 30
0.0
 10
-96.4553
 20
-44.7193
 30
0.0
 10
-98.1675
 20
-44.6796
 30
0.0
 10
-103.6702
 20
-43.62
 30
0.0
 10
-108.6241
 20
-38.8324
 30
0.0
 10
-108.6241
 20
-38.8324
 30
0.0
 10
-108.8002
 20
-42.1782
 30
0.0
 10
-111.9074
 20
-43.9962
 30
0.0
 10
-113.5468
 20
-43.8552
 30
0.0
  0
SPLINE
  5
68
330
1F
100
AcDbEntity
  8
layer 1
 62
     7
100
AcDbSpline
210
0.0
220
0.0
230
1.0
 70
    11
 71
     3
 72
    32
 73
    28
 74
     0
 42
0.0000000001
 43
0.0000000001
 12
1.0
 22
0.0
 32
0.0
 13
1.0
 23
0.0
 33
0.0
 40
0.0
 40
0.0
 40
0.0
 40
0.0
 40
0.125
 40
0.125
 40
0.125
 40
0.125
 40
0.25
 40
0.25
 40
0.25
 40
0.25
 40
0.375
 40
0.375
 40
0.375
 40
0.375
 40
0.5
 40
0.5
 40
0.5
 40
0.5
 40
0.625
 40
0.625
 40
0.625
 40
0.625
 40
0.75
 40
0.75
 40
0.75
 40
0.75
 40
1.0
 40
1.0
 40
1.0
 40
1.0
 10
-101.9422
 20
-56.0551
 30
0.0
 10
-98.2206
 20
-60.2685
 30
0.0
 10
-100.5299
 20
-57.501
 30
0.0
 10
-97.5916
 20
-60.4687
 30
0.0
 10
-97.5916
 20
-60.4687
 30
0.0
 10
-97.9557
 20
-59.4091
 30
0.0
 10
-97.6618
 20
-57.5184
 30
0.0
 10
-96.702
 20
-56.6705
 30
0.0
 10
-96.702
 20
-56.6705
 30
0.0
 10
-95.995
 20
-61.0874
 30
0.0
 10
-92.9529
 20
-58.5038
 30
0.0
 10
-92.6396
 20
-57.5341
 30
0.0
 10
-92.6396
 20
-57.5341
 30
0.0
 10
-90.8137
 20
-53.5126
 30
0.0
 10
-91.938
 20
-51.5458
 30
0.0
 10
-86.5101
 20
-43.3834
 30
0.0
 10
-86.5101
 20
-43.3834
 30
0.0
 10
-93.654
 20
-46.1058
 30
0.0
 10
-96.5806
 20
-46.2453
 30
0.0
 10
-101.4405
 20
-49.0088
 30
0.0
 10
-101.4405
 20
-49.0088
 30
0.0
 10
-105.3566
 20
-51.9043
 30
0.0
 10
-98.9922
 20
-55.2658
 30
0.0
 10
-99.2842
 20
-50.3017
 30
0.0
 10
-99.2842
 20
-50.3017
 30
0.0
 10
-95.5778
 20
-51.5067
 30
0.0
 10
-97.4974
 20
-56.6293
 30
0.0
 10
-101.9422
 20
-56.0551
 30
0.0
  0
SPLINE
  5
69
330
1F
100
AcDbEntity
  8
layer 1
 62
     7
100
AcDbSpline
210
0.0
220
0.0
230
1.0
 70
    11
 71
     3
 72
    20
 73
    16
 74
     0
 42
0.0000000001
 43
0.0000000001
 12
1.0
 22
0.0
 32
0.0
 13
1.0
 23
0.0
 33
0.0
 40
0.0
 40
0.0
 40
0.0
 40
0.0
 40
0.2
 40
0.2
 40
0.2
 40
0.2
 40
0.4
 40
0.4
 40
0.4
 40
0.4
 40
0.6
 40
0.6
 40
0.6
 40
0.6
 40
1.0
 40
1.0
 40
1.0
 40
1.0
 10
-110.4887
 20
-53.5693
 30
0.0
 10
-112.8769
 20
-54.3296
 30
0.0
 10
-112.1326
 20
-56.4428
 30
0.0
 10
-114.2894
 20
-58.6272
 30
0.0
 10
-114.2894
 20
-58.6272
 30
0.0
 10
-114.2303
 20
-55.2362
 30
0.0
 10
-115.1219
 20
-50.8564
 30
0.0
 10
-120.1676
 20
-50.6582
 30
0.0
 10
-120.1676
 20
-50.6582
 30
0.0
 10
-118.8243
 20
-49.8357
 30
0.0
 10
-117.878
 20
-48.2707
 30
0.0
 10
-117.4392
 20
-45.9689
 30
0.0
 10
-117.4392
 20
-45.9689
 30
0.0
 10
-114.9122
 20
-48.9914
 30
0.0
 10
-113.7407
 20
-50.2586
 30
0.0
 10
-110.4887
 20
-53.5693
 30
0.0
  0
SPLINE
  5
6A
330
1F
100
AcDbEntity
  8
layer 1
 62
     7
100
AcDbSpline
210
0.0
220
0.0
230
1.0
 70
    11
 71
     3
 72
    24
 73
    20
 74
     0
 42
0.0000000001
 43
0.0000000001
 12
1.0
 22
0.0
 32
0.0
 13
1.0
 23
0.0
 33
0.0
 40
0.0
 40
0.0
 40
0.0
 40
0.0
 40
0.1666666666666667
 40
0.1666666666666667
 40
0.1666666666666667
 40
0.1666666666666667
 40
0.3333333333333333
 40
0.3333333333333333
 40
0.3333333333333333
 40
0.3333333333333333
 40
0.5
 40
0.5
 40
0.5
 40
0.5
 40
0.6666666666666666
 40
0.6666666666666666
 40
0.6666666666666666
 40
0.6666666666666666
 40
1.0
 40
1.0
 40
1.0
 40
1.0
 10
-102.8472
 20
-71.8477
 30
0.0
 10
-104.1756
 20
-70.2138
 30
0.0
 10
-111.6271
 20
-69.2877
 30
0.0
 10
-113.5978
 20
-70.6451
 30
0.0
 10
-113.5978
 20
-70.6451
 30
0.0
 10
-111.5133
 20
-68.3589
 30
0.0
 10
-111.1607
 20
-64.9448
 30
0.0
 10
-107.7817
 20
-63.1365
 30
0.0
 10
-107.7817
 20
-63.1365
 30
0.0
 10
-108.4517
 20
-62.5648
 30
0.0
 10
-109.6819
 20
-62.5648
 30
0.0
 10
-111.1727
 20
-63.3441
 30
0.0
 10
-111.1727
 20
-63.3441
 30
0.0
 10
-108.7867
 20
-61.6832
 30
0.0
 10
-108.4652
 20
-57.207
 30
0.0
 10
-109.3804
 20
-54.672
 30
0.0
 10
-109.3804
 20
-54.672
 30
0.0
 10
-99.7191
 20
-63.5873
 30
0.0
 10
-98.4532
 20
-69.1367
 30
0.0
 10
-102.8472
 20
-71.8477
 30
0.0
  0
SPLINE
  5
6B
330
1F
100
AcDbEntity
  8
layer 1
 62
     7
100
AcDbSpline
210
0.0
220
0.0
230
1.0
 70
    11
 71
     3
 72
    20
 73
    16
 74
     0
 42
0.0000000001
 43
0.0000000001
 12
1.0
 22
0.0
 32
0.0
 13
1.0
 23
0.0
 33
0.0
 40
0.0
 40
0.0
 40
0.0
 40
0.0
 40
0.2
 40
0.2
 40
0.2
 40
0.2
 40
0.4
 40
0.4
 40
0.4
 40
0.4
 40
0.6
 40
0.6
 40
0.6
 40
0.6
 40
1.0
 40
1.0
 40
1.0
 40
1.0
 10
-73.1231
 20
-81.8381
 30
0.0
 10
-73.9711
 20
-83.1449
 30
0.0
 10
-76.7608
 20
-84.3475
 30
0.0
 10
-77.4228
 20
-82.1967
 30
0.0
 10
-77.4228
 20
-82.1967
 30
0.0
 10
-74.5293
 20
-81.0096
 30
0.0
 10
-74.1375
 20
-77.4698
 30
0.0
 10
-76.8802
 20
-75.7557
 30
0.0
 10
-76.8802
 20
-75.7557
 30
0.0
 10
-75.2659
 20
-75.9262
 30
0.0
 10
-74.1532
 20
-74.4609
 30
0.0
 10
-74.6135
 20
-73.1836
 30
0.0
 10
-74.6135
 20
-73.1836
 30
0.0
 10
-72.8137
 20
-74.5571
 30
0.0
 10
-71.0956
 20
-78.1477
 30
0.0
 10
-73.1231
 20
-81.8381
 30
0.0
  0
SPLINE
  5
6C
330
1F
100
AcDbEntity
  8
layer 1
 62
     7
100
AcDbSpline
210
0.0
220
0.0
230
1.0
 70
    11
 71
     3
 72
    32
 73
    28
 74
     0
 42
0.0000000001
 43
0.0000000001
 12
1.0
 22
0.0
 32
0.0
 13
1.0
 23
0.0
 33
0.0
 40
0.0
 40
0.0
 40
0.0
 40
0.0
 40
0.125
 40
0.125
 40
0.125
 40
0.125
 40
0.25
 40
0.25
 40
0.25
 40
0.25
 40
0.375
 40
0.375
 40
0.375
 40
0.375
 40
0.5
 40
0.5
 40
0.5
 40
0.5
 40
0.625
 40
0.625
 40
0.625
 40
0.625
 40
0.75
 40
0.75
 40
0.75
 40
0.75
 40
1.0
 40
1.0
 40
1.0
 40
1.0
 10
-77.7361
 20
-42.7896
 30
0.0
 10
-81.1211
 20
-44.805
 30
0.0
 10
-79.3525
 20
-47.5846
 30
0.0
 10
-76.9058
 20
-49.0735
 30
0.0
 10
-76.9058
 20
-49.0735
 30
0.0
 10
-74.5629
 20
-50.4997
 30
0.0
 10
-72.6331
 20
-52.6857
 30
0.0
 10
-72.9722
 20
-57.0189
 30
0.0
 10
-72.9722
 20
-57.0189
 30
0.0
 10
-71.6186
 20
-55.8004
 30
0.0
 10
-69.0426
 20
-56.2297
 30
0.0
 10
-69.0346
 20
-57.6143
 30
0.0
 10
-69.0346
 20
-57.6143
 30
0.0
 10
-69.0426
 20
-54.0411
 30
0.0
 10
-69.0426
 20
-50.3233
 30
0.0
 10
-68.9995
 20
-45.3185
 30
0.0
 10
-68.9995
 20
-45.3185
 30
0.0
 10
-76.1144
 20
-49.056
 30
0.0
 10
-76.9388
 20
-40.3273
 30
0.0
 10
-74.9801
 20
-35.1892
 30
0.0
 10
-74.9801
 20
-35.1892
 30
0.0
 10
-77.5698
 20
-38.6618
 30
0.0
 10
-78.6022
 20
-39.6398
 30
0.0
 10
-80.9196
 20
-42.0804
 30
0.0
 10
-80.9196
 20
-42.0804
 30
0.0
 10
-79.7792
 20
-41.5905
 30
0.0
 10
-78.3725
 20
-41.6923
 30
0.0
 10
-77.7361
 20
-42.7896
 30
0.0
  0
SPLINE
  5
6D
330
1F
100
AcDbEntity
  8
layer 1
 62
     7
100
AcDbSpline
210
0.0
220
0.0
230
1.0
 70
    11
 71
     3
 72
    28
 73
    24
 74
     0
 42
0.0000000001
 43
0.0000000001
 12
1.0
 22
0.0
 32
0.0
 13
1.0
 23
0.0
 33
0.0
 40
0.0
 40
0.0
 40
0.0
 40
0.0
 40
0.1428571428571428
 40
0.1428571428571428
 40
0.1428571428571428
 40
0.1428571428571428
 40
0.2857142857142857
 40
0.2857142857142857
 40
0.2857142857142857
 40
0.2857142857142857
 40
0.4285714285714285
 40
0.4285714285714285
 40
0.4285714285714285
 40
0.4285714285714285
 40
0.5714285714285714
 40
0.5714285714285714
 40
0.5714285714285714
 40
0.5714285714285714
 40
0.7142857142857143
 40
0.7142857142857143
 40
0.7142857142857143
 40
0.7142857142857143
 40
1.0
 40
1.0
 40
1.0
 40
1.0
 10
-69.0346
 20
-76.1438
 30
0.0
 10
-69.0426
 20
-72.5688
 30
0.0
 10
-69.0426
 20
-65.6559
 30
0.0
 10
-68.9995
 20
-60.6527
 30
0.0
 10
-68.9995
 20
-60.6527
 30
0.0
 10
-69.0426
 20
-62.1942
 30
0.0
 10
-70.3474
 20
-61.9806
 30
0.0
 10
-70.3474
 20
-61.9806
 30
0.0
 10
-70.3474
 20
-61.9806
 30
0.0
 10
-69.5441
 20
-59.9497
 30
0.0
 10
-70.7606
 20
-59.0329
 30
0.0
 10
-72.0299
 20
-59.4166
 30
0.0
 10
-72.0299
 20
-59.4166
 30
0.0
 10
-72.8212
 20
-59.6557
 30
0.0
 10
-73.5342
 20
-60.6918
 30
0.0
 10
-74.0925
 20
-61.3794
 30
0.0
 10
-74.0925
 20
-61.3794
 30
0.0
 10
-75.5538
 20
-63.1736
 30
0.0
 10
-78.361
 20
-65.025
 30
0.0
 10
-81.1973
 20
-64.6409
 30
0.0
 10
-81.1973
 20
-64.6409
 30
0.0
 10
-76.7528
 20
-66.9738
 30
0.0
 10
-72.1788
 20
-69.1542
 30
0.0
 10
-69.0346
 20
-76.1438
 30
0.0
  0
SPLINE
  5
6E
330
1F
100
AcDbEntity
  8
layer 1
 62
     7
100
AcDbSpline
210
0.0
220
0.0
230
1.0
 70
    11
 71
     3
 72
    24
 73
    20
 74
     0
 42
0.0000000001
 43
0.0000000001
 12
1.0
 22
0.0
 32
0.0
 13
1.0
 23
0.0
 33
0.0
 40
0.0
 40
0.0
 40
0.0
 40
0.0
 40
0.1666666666666667
 40
0.1666666666666667
 40
0.1666666666666667
 40
0.1666666666666667
 40
0.3333333333333333
 40
0.3333333333333333
 40
0.3333333333333333
 40
0.3333333333333333
 40
0.5
 40
0.5
 40
0.5
 40
0.5
 40
0.6666666666666666
 40
0.6666666666666666
 40
0.6666666666666666
 40
0.6666666666666666
 40
1.0
 40
1.0
 40
1.0
 40
1.0
 10
-82.7233
 20
-44.4739
 30
0.0
 10
-83.3171
 20
-47.714
 30
0.0
 10
-81.5364
 20
-49.6889
 30
0.0
 10
-78.7175
 20
-51.0403
 30
0.0
 10
-78.7175
 20
-51.0403
 30
0.0
 10
-80.2395
 20
-50.437
 30
0.0
 10
-83.7815
 20
-51.6301
 30
0.0
 10
-82.8803
 20
-55.4459
 30
0.0
 10
-82.8803
 20
-55.4459
 30
0.0
 10
-82.6943
 20
-57.2205
 30
0.0
 10
-78.5356
 20
-59.0073
 30
0.0
 10
-76.9644
 20
-55.2794
 30
0.0
 10
-76.9644
 20
-55.2794
 30
0.0
 10
-74.0494
 20
-62.7097
 30
0.0
 10
-85.3601
 20
-64.169
 30
0.0
 10
-87.2271
 20
-56.8134
 30
0.0
 10
-87.2271
 20
-56.8134
 30
0.0
 10
-88.1359
 20
-51.3262
 30
0.0
 10
-85.7167
 20
-48.7722
 30
0.0
 10
-82.7233
 20
-44.4739
 30
0.0
  0
SPLINE
  5
6F
330
1F
100
AcDbEntity
  8
layer 1
 62
     7
100
AcDbSpline
210
0.0
220
0.0
230
1.0
 70
    11
 71
     3
 72
    20
 73
    16
 74
     0
 42
0.0000000001
 43
0.0000000001
 12
1.0
 22
0.0
 32
0.0
 13
1.0
 23
0.0
 33
0.0
 40
0.0
 40
0.0
 40
0.0
 40
0.0
 40
0.2
 40
0.2
 40
0.2
 40
0.2
 40
0.4
 40
0.4
 40
0.4
 40
0.4
 40
0.6
 40
0.6
 40
0.6
 40
0.6
 40
1.0
 40
1.0
 40
1.0
 40
1.0
 10
-69.0346
 20
-101.2548
 30
0.0
 10
-69.0426
 20
-97.6798
 30
0.0
 10
-69.0426
 20
-99.4445
 30
0.0
 10
-68.9995
 20
-94.4418
 30
0.0
 10
-68.9995
 20
-94.4418
 30
0.0
 10
-69.7145
 20
-97.4311
 30
0.0
 10
-73.7499
 20
-99.3332
 30
0.0
 10
-77.1032
 20
-98.1772
 30
0.0
 10
-77.1032
 20
-98.1772
 30
0.0
 10
-76.6646
 20
-99.3291
 30
0.0
 10
-76.6961
 20
-100.3045
 30
0.0
 10
-77.3129
 20
-101.2643
 30
0.0
 10
-77.3129
 20
-101.2643
 30
0.0
 10
-77.3129
 20
-101.2643
 30
0.0
 10
-69.0346
 20
-101.2548
 30
0.0
 10
-69.0346
 20
-101.2548
 30
0.0
  0
SPLINE
  5
70
330
1F
100
AcDbEntity
  8
layer 1
 62
     7
100
AcDbSpline
210
0.0
220
0.0
230
1.0
 70
    11
 71
     3
 72
    16
 73
    12
 74
     0
 42
0.0000000001
 43
0.0000000001
 12
1.0
 22
0.0
 32
0.0
 13
1.0
 23
0.0
 33
0.0
 40
0.0
 40
0.0
 40
0.0
 40
0.0
 40
0.25
 40
0.25
 40
0.25
 40
0.25
 40
0.5
 40
0.5
 40
0.5
 40
0.5
 40
1.0
 40
1.0
 40
1.0
 40
1.0
 10
-69.0346
 20
-89.948
 30
0.0
 10
-69.0426
 20
-86.373
 30
0.0
 10
-69.0426
 20
-87.0275
 30
0.0
 10
-68.9995
 20
-82.0242
 30
0.0
 10
-68.9995
 20
-82.0242
 30
0.0
 10
-70.0065
 20
-84.9567
 30
0.0
 10
-72.0844
 20
-86.4202
 30
0.0
 10
-73.3638
 20
-87.0154
 30
0.0
 10
-73.3638
 20
-87.0154
 30
0.0
 10
-71.1623
 20
-87.1898
 30
0.0
 10
-69.7712
 20
-88.5259
 30
0.0
 10
-69.0346
 20
-89.948
 30
0.0
  0
SPLINE
  5
71
330
1F
100
AcDbEntity
  8
layer 1
 62
     7
100
AcDbSpline
210
0.0
220
0.0
230
1.0
 70
    11
 71
     3
 72
    28
 73
    24
 74
     0
 42
0.0000000001
 43
0.0000000001
 12
1.0
 22
0.0
 32
0.0
 13
1.0
 23
0.0
 33
0.0
 40
0.0
 40
0.0
 40
0.0
 40
0.0
 40
0.1428571428571428
 40
0.1428571428571428
 40
0.1428571428571428
 40
0.1428571428571428
 40
0.2857142857142857
 40
0.2857142857142857
 40
0.2857142857142857
 40
0.2857142857142857
 40
0.4285714285714285
 40
0.4285714285714285
 40
0.4285714285714285
 40
0.4285714285714285
 40
0.5714285714285714
 40
0.5714285714285714
 40
0.5714285714285714
 40
0.5714285714285714
 40
0.7142857142857143
 40
0.7142857142857143
 40
0.7142857142857143
 40
0.7142857142857143
 40
1.0
 40
1.0
 40
1.0
 40
1.0
 10
-79.3775
 20
-101.2548
 30
0.0
 10
-81.3153
 20
-99.286
 30
0.0
 10
-81.6657
 20
-97.5174
 30
0.0
 10
-83.1405
 20
-95.2292
 30
0.0
 10
-83.1405
 20
-95.2292
 30
0.0
 10
-83.419
 20
-96.393
 30
0.0
 10
-83.8166
 20
-97.6759
 30
0.0
 10
-84.5392
 20
-98.5298
 30
0.0
 10
-84.5392
 20
-98.5298
 30
0.0
 10
-86.52
 20
-96.6633
 30
0.0
 10
-87.6383
 20
-95.7993
 30
0.0
 10
-88.7783
 20
-84.4554
 30
0.0
 10
-88.7783
 20
-84.4554
 30
0.0
 10
-89.4407
 20
-91.1666
 30
0.0
 10
-95.6464
 20
-99.3332
 30
0.0
 10
-89.4913
 20
-99.6973
 30
0.0
 10
-89.4913
 20
-99.6973
 30
0.0
 10
-89.7541
 20
-100.3517
 30
0.0
 10
-90.4868
 20
-100.8882
 30
0.0
 10
-91.3954
 20
-101.2643
 30
0.0
 10
-91.3954
 20
-101.2643
 30
0.0
 10
-91.3954
 20
-101.2643
 30
0.0
 10
-79.3775
 20
-101.2548
 30
0.0
 10
-79.3775
 20
-101.2548
 30
0.0
  0
SPLINE
  5
72
330
1F
100
AcDbEntity
  8
layer 1
 62
     7
100
AcDbSpline
210
0.0
220
0.0
230
1.0
 70
    11
 71
     3
 72
    28
 73
    24
 74
     0
 42
0.0000000001
 43
0.0000000001
 12
1.0
 22
0.0
 32
0.0
 13
1.0
 23
0.0
 33
0.0
 40
0.0
 40
0.0
 40
0.0
 40
0.0
 40
0.1428571428571428
 40
0.1428571428571428
 40
0.1428571428571428
 40
0.1428571428571428
 40
0.2857142857142857
 40
0.2857142857142857
 40
0.2857142857142857
 40
0.2857142857142857
 40
0.4285714285714285
 40
0.4285714285714285
 40
0.4285714285714285
 40
0.4285714285714285
 40
0.5714285714285714
 40
0.5714285714285714
 40
0.5714285714285714
 40
0.5714285714285714
 40
0.7142857142857143
 40
0.7142857142857143
 40
0.7142857142857143
 40
0.7142857142857143
 40
1.0
 40
1.0
 40
1.0
 40
1.0
 10
-94.4555
 20
-101.2548
 30
0.0
 10
-96.0402
 20
-100.3968
 30
0.0
 10
-96.9744
 20
-99.2705
 30
0.0
 10
-97.1665
 20
-97.8598
 30
0.0
 10
-97.1665
 20
-97.8598
 30
0.0
 10
-99.8719
 20
-98.9295
 30
0.0
 10
-100.1833
 20
-99.8502
 30
0.0
 10
-106.718
 20
-100.1165
 30
0.0
 10
-106.718
 20
-100.1165
 30
0.0
 10
-111.5975
 20
-99.9875
 30
0.0
 10
-113.9133
 20
-98.8748
 30
0.0
 10
-116.728
 20
-96.9411
 30
0.0
 10
-116.728
 20
-96.9411
 30
0.0
 10
-118.1188
 20
-95.9853
 30
0.0
 10
-118.8122
 20
-94.4868
 30
0.0
 10
-121.1901
 20
-94.6534
 30
0.0
 10
-121.1901
 20
-94.6534
 30
0.0
 10
-118.5305
 20
-96.4652
 30
0.0
 10
-117.8308
 20
-99.5407
 30
0.0
 10
-117.8719
 20
-101.2643
 30
0.0
 10
-117.8719
 20
-101.2643
 30
0.0
 10
-117.8719
 20
-101.2643
 30
0.0
 10
-94.4555
 20
-101.2548
 30
0.0
 10
-94.4555
 20
-101.2548
 30
0.0
  0
SPLINE
  5
73
330
1F
100
AcDbEntity
  8
layer 1
 62
     7
100
AcDbSpline
210
0.0
220
0.0
230
1.0
 70
    11
 71
     3
 72
    16
 73
    12
 74
     0
 42
0.0000000001
 43
0.0000000001
 12
1.0
 22
0.0
 32
0.0
 13
1.0
 23
0.0
 33
0.0
 40
0.0
 40
0.0
 40
0.0
 40
0.0
 40
0.25
 40
0.25
 40
0.25
 40
0.25
 40
0.5
 40
0.5
 40
0.5
 40
0.5
 40
1.0
 40
1.0
 40
1.0
 40
1.0
 10
-119.0766
 20
-83.9283
 30
0.0
 10
-112.5788
 20
-82.6239
 30
0.0
 10
-113.3566
 20
-94.1343
 30
0.0
 10
-102.5358
 20
-90.0263
 30
0.0
 10
-102.5358
 20
-90.0263
 30
0.0
 10
-102.4184
 20
-92.5706
 30
0.0
 10
-101.3703
 20
-93.3526
 30
0.0
 10
-99.5114
 20
-94.146
 30
0.0
 10
-99.5114
 20
-94.146
 30
0.0
 10
-110.5695
 20
-99.4249
 30
0.0
 10
-119.588
 20
-90.8903
 30
0.0
 10
-119.0766
 20
-83.9283
 30
0.0
  0
SPLINE
  5
74
330
1F
100
AcDbEntity
  8
layer 1
 62
     7
100
AcDbSpline
210
0.0
220
0.0
230
1.0
 70
    11
 71
     3
 72
    28
 73
    24
 74
     0
 42
0.0000000001
 43
0.0000000001
 12
1.0
 22
0.0
 32
0.0
 13
1.0
 23
0.0
 33
0.0
 40
0.0
 40
0.0
 40
0.0
 40
0.0
 40
0.1428571428571428
 40
0.1428571428571428
 40
0.1428571428571428
 40
0.1428571428571428
 40
0.2857142857142857
 40
0.2857142857142857
 40
0.2857142857142857
 40
0.2857142857142857
 40
0.4285714285714285
 40
0.4285714285714285
 40
0.4285714285714285
 40
0.4285714285714285
 40
0.5714285714285714
 40
0.5714285714285714
 40
0.5714285714285714
 40
0.5714285714285714
 40
0.7142857142857143
 40
0.7142857142857143
 40
0.7142857142857143
 40
0.7142857142857143
 40
1.0
 40
1.0
 40
1.0
 40
1.0
 10
-106.6454
 20
-74.9096
 30
0.0
 10
-102.7629
 20
-76.5354
 30
0.0
 10
-101.3427
 20
-80.3141
 30
0.0
 10
-102.1166
 20
-83.0899
 30
0.0
 10
-102.1166
 20
-83.0899
 30
0.0
 10
-102.9881
 20
-86.222
 30
0.0
 10
-106.4653
 20
-88.1202
 30
0.0
 10
-108.732
 20
-85.0897
 30
0.0
 10
-108.732
 20
-85.0897
 30
0.0
 10
-105.3471
 20
-84.4864
 30
0.0
 10
-105.143
 20
-81.2975
 30
0.0
 10
-106.7787
 20
-79.9381
 30
0.0
 10
-106.7787
 20
-79.9381
 30
0.0
 10
-109.1177
 20
-77.9928
 30
0.0
 10
-111.8171
 20
-79.7755
 30
0.0
 10
-112.0227
 20
-81.801
 30
0.0
 10
-112.0227
 20
-81.801
 30
0.0
 10
-112.738
 20
-80.8898
 30
0.0
 10
-116.207
 20
-79.5053
 30
0.0
 10
-118.9531
 20
-82.806
 30
0.0
 10
-118.9531
 20
-82.806
 30
0.0
 10
-119.3487
 20
-78.6998
 30
0.0
 10
-113.8034
 20
-71.8969
 30
0.0
 10
-106.6454
 20
-74.9096
 30
0.0
  0
SPLINE
  5
75
330
1F
100
AcDbEntity
  8
layer 1
 62
     7
100
AcDbSpline
210
0.0
220
0.0
230
1.0
 70
    11
 71
     3
 72
    20
 73
    16
 74
     0
 42
0.0000000001
 43
0.0000000001
 12
1.0
 22
0.0
 32
0.0
 13
1.0
 23
0.0
 33
0.0
 40
0.0
 40
0.0
 40
0.0
 40
0.0
 40
0.2
 40
0.2
 40
0.2
 40
0.2
 40
0.4
 40
0.4
 40
0.4
 40
0.4
 40
0.6
 40
0.6
 40
0.6
 40
0.6
 40
1.0
 40
1.0
 40
1.0
 40
1.0
 10
-125.4959
 20
-96.3534
 30
0.0
 10
-127.8995
 20
-96.3534
 30
0.0
 10
-129.8487
 20
-98.3026
 30
0.0
 10
-129.8487
 20
-100.7062
 30
0.0
 10
-129.8487
 20
-100.7062
 30
0.0
 10
-129.8489
 20
-103.1117
 30
0.0
 10
-127.8995
 20
-105.061
 30
0.0
 10
-125.4959
 20
-105.061
 30
0.0
 10
-125.4959
 20
-105.061
 30
0.0
 10
-123.0903
 20
-105.061
 30
0.0
 10
-121.1415
 20
-103.1119
 30
0.0
 10
-121.1415
 20
-100.7062
 30
0.0
 10
-121.1415
 20
-100.7062
 30
0.0
 10
-121.1417
 20
-98.3026
 30
0.0
 10
-123.0903
 20
-96.3534
 30
0.0
 10
-125.4959
 20
-96.3534
 30
0.0
  0
SPLINE
  5
76
330
1F
100
AcDbEntity
  8
layer 1
 62
     7
100
AcDbSpline
210
0.0
220
0.0
230
1.0
 70
    11
 71
     3
 72
    32
 73
    28
 74
     0
 42
0.0000000001
 43
0.0000000001
 12
1.0
 22
0.0
 32
0.0
 13
1.0
 23
0.0
 33
0.0
 40
0.0
 40
0.0
 40
0.0
 40
0.0
 40
0.125
 40
0.125
 40
0.125
 40
0.125
 40
0.25
 40
0.25
 40
0.25
 40
0.25
 40
0.375
 40
0.375
 40
0.375
 40
0.375
 40
0.5
 40
0.5
 40
0.5
 40
0.5
 40
0.625
 40
0.625
 40
0.625
 40
0.625
 40
0.75
 40
0.75
 40
0.75
 40
0.75
 40
1.0
 40
1.0
 40
1.0
 40
1.0
 10
-124.352
 20
-83.2603
 30
0.0
 10
-123.2337
 20
-86.6708
 30
0.0
 10
-122.3616
 20
-90.0438
 30
0.0
 10
-121.0574
 20
-92.2734
 30
0.0
 10
-121.0574
 20
-92.2734
 30
0.0
 10
-122.2128
 20
-92.5768
 30
0.0
 10
-122.6048
 20
-93.1039
 30
0.0
 10
-123.0161
 20
-93.7307
 30
0.0
 10
-123.0161
 20
-93.7307
 30
0.0
 10
-124.489
 20
-93.2407
 30
0.0
 10
-126.4698
 20
-93.2979
 30
0.0
 10
-127.7956
 20
-93.7091
 30
0.0
 10
-127.7956
 20
-93.7091
 30
0.0
 10
-128.207
 20
-93.0803
 30
0.0
 10
-128.7143
 20
-92.5964
 30
0.0
 10
-129.8703
 20
-92.2929
 30
0.0
 10
-129.8703
 20
-92.2929
 30
0.0
 10
-128.5655
 20
-90.0618
 30
0.0
 10
-127.6938
 20
-86.6904
 30
0.0
 10
-126.5735
 20
-83.2799
 30
0.0
 10
-126.5735
 20
-83.2799
 30
0.0
 10
-126.1208
 20
-82.0613
 30
0.0
 10
-125.4628
 20
-81.944
 30
0.0
 10
-125.4628
 20
-81.944
 30
0.0
 10
-125.4628
 20
-81.944
 30
0.0
 10
-125.4629
 20
-81.9439
 30
0.0
 10
-124.8043
 20
-82.0417
 30
0.0
 10
-124.352
 20
-83.2603
 30
0.0
  0
SPLINE
  5
77
330
1F
100
AcDbEntity
  8
layer 1
 62
     7
100
AcDbSpline
210
0.0
220
0.0
230
1.0
 70
    11
 71
     3
 72
    28
 73
    24
 74
     0
 42
0.0000000001
 43
0.0000000001
 12
1.0
 22
0.0
 32
0.0
 13
1.0
 23
0.0
 33
0.0
 40
0.0
 40
0.0
 40
0.0
 40
0.0
 40
0.1428571428571428
 40
0.1428571428571428
 40
0.1428571428571428
 40
0.1428571428571428
 40
0.2857142857142857
 40
0.2857142857142857
 40
0.2857142857142857
 40
0.2857142857142857
 40
0.4285714285714285
 40
0.4285714285714285
 40
0.4285714285714285
 40
0.4285714285714285
 40
0.5714285714285714
 40
0.5714285714285714
 40
0.5714285714285714
 40
0.5714285714285714
 40
0.7142857142857143
 40
0.7142857142857143
 40
0.7142857142857143
 40
0.7142857142857143
 40
1.0
 40
1.0
 40
1.0
 40
1.0
 10
-123.3803
 20
-68.6196
 30
0.0
 10
-121.9249
 20
-73.5481
 30
0.0
 10
-122.4399
 20
-76.369
 30
0.0
 10
-123.0296
 20
-81.0293
 30
0.0
 10
-123.0296
 20
-81.0293
 30
0.0
 10
-123.7939
 20
-80.3006
 30
0.0
 10
-124.836
 20
-80.2575
 30
0.0
 10
-125.4628
 20
-80.641
 30
0.0
 10
-125.4628
 20
-80.641
 30
0.0
 10
-126.0702
 20
-80.2574
 30
0.0
 10
-127.2119
 20
-80.2595
 30
0.0
 10
-127.8954
 20
-81.0487
 30
0.0
 10
-127.8954
 20
-81.0487
 30
0.0
 10
-128.4852
 20
-76.3886
 30
0.0
 10
-129.0022
 20
-73.5677
 30
0.0
 10
-127.547
 20
-68.6392
 30
0.0
 10
-127.547
 20
-68.6392
 30
0.0
 10
-127.1298
 20
-67.4894
 30
0.0
 10
-126.3013
 20
-66.7135
 30
0.0
 10
-125.4628
 20
-66.6589
 30
0.0
 10
-125.4628
 20
-66.6589
 30
0.0
 10
-124.6244
 20
-66.694
 30
0.0
 10
-123.7979
 20
-67.4697
 30
0.0
 10
-123.3803
 20
-68.6196
 30
0.0
  0
SPLINE
  5
78
330
1F
100
AcDbEntity
  8
layer 1
 62
     7
100
AcDbSpline
210
0.0
220
0.0
230
1.0
 70
    11
 71
     3
 72
    56
 73
    52
 74
     0
 42
0.0000000001
 43
0.0000000001
 12
1.0
 22
0.0
 32
0.0
 13
1.0
 23
0.0
 33
0.0
 40
0.0
 40
0.0
 40
0.0
 40
0.0
 40
0.0714285714285714
 40
0.0714285714285714
 40
0.0714285714285714
 40
0.0714285714285714
 40
0.1428571428571428
 40
0.1428571428571428
 40
0.1428571428571428
 40
0.1428571428571428
 40
0.2142857142857143
 40
0.2142857142857143
 40
0.2142857142857143
 40
0.2142857142857143
 40
0.2857142857142857
 40
0.2857142857142857
 40
0.2857142857142857
 40
0.2857142857142857
 40
0.3571428571428572
 40
0.3571428571428572
 40
0.3571428571428572
 40
0.3571428571428572
 40
0.4285714285714285
 40
0.4285714285714285
 40
0.4285714285714285
 40
0.4285714285714285
 40
0.5
 40
0.5
 40
0.5
 40
0.5
 40
0.5714285714285714
 40
0.5714285714285714
 40
0.5714285714285714
 40
0.5714285714285714
 40
0.6428571428571429
 40
0.6428571428571429
 40
0.6428571428571429
 40
0.6428571428571429
 40
0.7142857142857143
 40
0.7142857142857143
 40
0.7142857142857143
 40
0.7142857142857143
 40
0.7857142857142857
 40
0.7857142857142857
 40
0.7857142857142857
 40
0.7857142857142857
 40
0.8571428571428571
 40
0.8571428571428571
 40
0.8571428571428571
 40
0.8571428571428571
 40
1.0
 40
1.0
 40
1.0
 40
1.0
 10
-125.4703
 20
-56.151
 30
0.0
 10
-125.3766
 20
-57.052
 30
0.0
 10
-124.5165
 20
-57.6809
 30
0.0
 10
-123.4448
 20
-57.9708
 30
0.0
 10
-123.4448
 20
-57.9708
 30
0.0
 10
-124.3462
 20
-53.3752
 30
0.0
 10
-119.9385
 20
-53.7674
 30
0.0
 10
-118.6301
 20
-55.5617
 30
0.0
 10
-118.6301
 20
-55.5617
 30
0.0
 10
-117.9818
 20
-56.4509
 30
0.0
 10
-113.5427
 20
-62.3472
 30
0.0
 10
-119.8839
 20
-73.3561
 30
0.0
 10
-119.8839
 20
-73.3561
 30
0.0
 10
-118.0876
 20
-68.7019
 30
0.0
 10
-120.1226
 20
-66.2316
 30
0.0
 10
-120.1305
 20
-63.1931
 30
0.0
 10
-120.1305
 20
-63.1931
 30
0.0
 10
-121.255
 20
-63.497
 30
0.0
 10
-122.0386
 20
-64.835
 30
0.0
 10
-122.0638
 20
-66.1729
 30
0.0
 10
-122.0638
 20
-66.1729
 30
0.0
 10
-122.9966
 20
-64.4765
 30
0.0
 10
-124.9398
 20
-64.3551
 30
0.0
 10
-125.4628
 20
-65.1936
 30
0.0
 10
-125.4628
 20
-65.1936
 30
0.0
 10
-125.9879
 20
-64.3747
 30
0.0
 10
-127.9291
 20
-64.4961
 30
0.0
 10
-128.8613
 20
-66.1925
 30
0.0
 10
-128.8613
 20
-66.1925
 30
0.0
 10
-128.8869
 20
-64.8546
 30
0.0
 10
-129.6702
 20
-63.5147
 30
0.0
 10
-130.795
 20
-63.2127
 30
0.0
 10
-130.795
 20
-63.2127
 30
0.0
 10
-130.8025
 20
-66.2512
 30
0.0
 10
-132.84
 20
-68.7215
 30
0.0
 10
-131.0438
 20
-73.3737
 30
0.0
 10
-131.0438
 20
-73.3737
 30
0.0
 10
-137.3826
 20
-62.3667
 30
0.0
 10
-132.9439
 20
-56.4704
 30
0.0
 10
-132.2974
 20
-55.5792
 30
0.0
 10
-132.2974
 20
-55.5792
 30
0.0
 10
-130.9866
 20
-53.787
 30
0.0
 10
-126.5811
 20
-53.3928
 30
0.0
 10
-127.4802
 20
-57.9904
 30
0.0
 10
-127.4802
 20
-57.9904
 30
0.0
 10
-126.4106
 20
-57.6984
 30
0.0
 10
-125.5511
 20
-57.0717
 30
0.0
 10
-125.4548
 20
-56.171
 30
0.0
 10
-125.4548
 20
-56.171
 30
0.0
 10
-125.4548
 20
-56.171
 30
0.0
 10
-125.4703
 20
-56.151
 30
0.0
 10
-125.4703
 20
-56.151
 30
0.0
  0
SPLINE
  5
79
330
1F
100
AcDbEntity
  8
layer 1
 62
     7
100
AcDbSpline
210
0.0
220
0.0
230
1.0
 70
    11
 71
     3
 72
    20
 73
    16
 74
     0
 42
0.0000000001
 43
0.0000000001
 12
1.0
 22
0.0
 32
0.0
 13
1.0
 23
0.0
 33
0.0
 40
0.0
 40
0.0
 40
0.0
 40
0.0
 40
0.2
 40
0.2
 40
0.2
 40
0.2
 40
0.4
 40
0.4
 40
0.4
 40
0.4
 40
0.6
 40
0.6
 40
0.6
 40
0.6
 40
1.0
 40
1.0
 40
1.0
 40
1.0
 10
-121.2489
 20
-44.3291
 30
0.0
 10
-121.2726
 20
-49.1733
 30
0.0
 10
-125.6098
 20
-47.3499
 30
0.0
 10
-125.4628
 20
-45.5712
 30
0.0
 10
-125.4628
 20
-45.5712
 30
0.0
 10
-125.3159
 20
-47.3696
 30
0.0
 10
-129.6527
 20
-49.1914
 30
0.0
 10
-129.6783
 20
-44.3487
 30
0.0
 10
-129.6783
 20
-44.3487
 30
0.0
 10
-129.5394
 20
-41.5279
 30
0.0
 10
-126.3424
 20
-36.0843
 30
0.0
 10
-125.4628
 20
-30.6779
 30
0.0
 10
-125.4628
 20
-30.6779
 30
0.0
 10
-124.5833
 20
-36.0667
 30
0.0
 10
-121.3883
 20
-41.5082
 30
0.0
 10
-121.2489
 20
-44.3291
 30
0.0
  0
SPLINE
  5
7A
330
1F
100
AcDbEntity
  8
layer 1
 62
     7
100
AcDbSpline
210
0.0
220
0.0
230
1.0
 70
    11
 71
     3
 72
    20
 73
    16
 74
     0
 42
0.0000000001
 43
0.0000000001
 12
1.0
 22
0.0
 32
0.0
 13
1.0
 23
0.0
 33
0.0
 40
0.0
 40
0.0
 40
0.0
 40
0.0
 40
0.2
 40
0.2
 40
0.2
 40
0.2
 40
0.4
 40
0.4
 40
0.4
 40
0.4
 40
0.6
 40
0.6
 40
0.6
 40
0.6
 40
1.0
 40
1.0
 40
1.0
 40
1.0
 10
-123.5899
 20
-51.1206
 30
0.0
 10
-124.3246
 20
-51.3578
 30
0.0
 10
-124.9749
 20
-51.7966
 30
0.0
 10
-125.4628
 20
-52.77
 30
0.0
 10
-125.4628
 20
-52.77
 30
0.0
 10
-125.9523
 20
-51.8141
 30
0.0
 10
-126.6007
 20
-51.3774
 30
0.0
 10
-127.3373
 20
-51.1401
 30
0.0
 10
-127.3373
 20
-51.1401
 30
0.0
 10
-126.6007
 20
-50.8543
 30
0.0
 10
-125.9703
 20
-50.4682
 30
0.0
 10
-125.4628
 20
-49.5028
 30
0.0
 10
-125.4628
 20
-49.5028
 30
0.0
 10
-124.9574
 20
-50.4486
 30
0.0
 10
-124.3264
 20
-50.8348
 30
0.0
 10
-123.5899
 20
-51.1206
 30
0.0
  0
SPLINE
  5
7B
330
1F
100
AcDbEntity
  8
layer 1
 62
     7
100
AcDbSpline
210
0.0
220
0.0
230
1.0
 70
    11
 71
     3
 72
    28
 73
    24
 74
     0
 42
0.0000000001
 43
0.0000000001
 12
1.0
 22
0.0
 32
0.0
 13
1.0
 23
0.0
 33
0.0
 40
0.0
 40
0.0
 40
0.0
 40
0.0
 40
0.1428571428571428
 40
0.1428571428571428
 40
0.1428571428571428
 40
0.1428571428571428
 40
0.2857142857142857
 40
0.2857142857142857
 40
0.2857142857142857
 40
0.2857142857142857
 40
0.4285714285714285
 40
0.4285714285714285
 40
0.4285714285714285
 40
0.4285714285714285
 40
0.5714285714285714
 40
0.5714285714285714
 40
0.5714285714285714
 40
0.5714285714285714
 40
0.7142857142857143
 40
0.7142857142857143
 40
0.7142857142857143
 40
0.7142857142857143
 40
1.0
 40
1.0
 40
1.0
 40
1.0
 10
-122.3697
 20
0.5337
 30
0.0
 10
-120.7399
 20
0.6234
 30
0.0
 10
-119.286
 20
2.6313
 30
0.0
 10
-121.0002
 20
5.0605
 30
0.0
 10
-121.0002
 20
5.0605
 30
0.0
 10
-114.5517
 20
3.4422
 30
0.0
 10
-124.7652
 20
-9.3335
 30
0.0
 10
-125.4628
 20
-15.9996
 30
0.0
 10
-125.4628
 20
-15.9996
 30
0.0
 10
-126.1599
 20
-9.3509
 30
0.0
 10
-136.374
 20
3.4226
 30
0.0
 10
-129.9249
 20
5.0409
 30
0.0
 10
-129.9249
 20
5.0409
 30
0.0
 10
-131.6411
 20
2.6138
 30
0.0
 10
-130.1877
 20
0.6059
 30
0.0
 10
-128.5558
 20
0.5141
 30
0.0
 10
-128.5558
 20
0.5141
 30
0.0
 10
-126.3465
 20
0.3908
 30
0.0
 10
-125.508
 20
1.9754
 30
0.0
 10
-125.4628
 20
2.6453
 30
0.0
 10
-125.4628
 20
2.6453
 30
0.0
 10
-125.4197
 20
1.993
 30
0.0
 10
-124.5792
 20
0.4103
 30
0.0
 10
-122.3697
 20
0.5337
 30
0.0
  0
SPLINE
  5
7C
330
1F
100
AcDbEntity
  8
layer 1
 62
     7
100
AcDbSpline
210
0.0
220
0.0
230
1.0
 70
    11
 71
     3
 72
    28
 73
    24
 74
     0
 42
0.0000000001
 43
0.0000000001
 12
1.0
 22
0.0
 32
0.0
 13
1.0
 23
0.0
 33
0.0
 40
0.0
 40
0.0
 40
0.0
 40
0.0
 40
0.1428571428571428
 40
0.1428571428571428
 40
0.1428571428571428
 40
0.1428571428571428
 40
0.2857142857142857
 40
0.2857142857142857
 40
0.2857142857142857
 40
0.2857142857142857
 40
0.4285714285714285
 40
0.4285714285714285
 40
0.4285714285714285
 40
0.4285714285714285
 40
0.5714285714285714
 40
0.5714285714285714
 40
0.5714285714285714
 40
0.5714285714285714
 40
0.7142857142857143
 40
0.7142857142857143
 40
0.7142857142857143
 40
0.7142857142857143
 40
1.0
 40
1.0
 40
1.0
 40
1.0
 10
-98.6359
 20
7.6601
 30
0.0
 10
-106.0893
 20
6.4712
 30
0.0
 10
-114.0206
 20
1.9202
 30
0.0
 10
-115.5978
 20
-0.1559
 30
0.0
 10
-115.5978
 20
-0.1559
 30
0.0
 10
-115.1044
 20
3.323
 30
0.0
 10
-115.5742
 20
7.1822
 30
0.0
 10
-119.2235
 20
8.616
 30
0.0
 10
-119.2235
 20
8.616
 30
0.0
 10
-115.5743
 20
10.0477
 30
0.0
 10
-115.1042
 20
13.907
 30
0.0
 10
-115.5978
 20
17.3858
 30
0.0
 10
-115.5978
 20
17.3858
 30
0.0
 10
-114.0207
 20
15.3097
 30
0.0
 10
-106.0893
 20
10.7607
 30
0.0
 10
-98.6357
 20
9.5697
 30
0.0
 10
-98.6357
 20
9.5697
 30
0.0
 10
-97.809
 20
9.4389
 30
0.0
 10
-96.9353
 20
9.176
 30
0.0
 10
-96.8746
 20
8.616
 30
0.0
 10
-96.8746
 20
8.616
 30
0.0
 10
-96.9609
 20
8.1065
 30
0.0
 10
-97.8088
 20
7.7911
 30
0.0
 10
-98.6359
 20
7.6601
 30
0.0
  0
SPLINE
  5
7D
330
1F
100
AcDbEntity
  8
layer 1
 62
     7
100
AcDbSpline
210
0.0
220
0.0
230
1.0
 70
    11
 71
     3
 72
    36
 73
    32
 74
     0
 42
0.0000000001
 43
0.0000000001
 12
1.0
 22
0.0
 32
0.0
 13
1.0
 23
0.0
 33
0.0
 40
0.0
 40
0.0
 40
0.0
 40
0.0
 40
0.1111111111111111
 40
0.1111111111111111
 40
0.1111111111111111
 40
0.1111111111111111
 40
0.2222222222222222
 40
0.2222222222222222
 40
0.2222222222222222
 40
0.2222222222222222
 40
0.3333333333333333
 40
0.3333333333333333
 40
0.3333333333333333
 40
0.3333333333333333
 40
0.4444444444444444
 40
0.4444444444444444
 40
0.4444444444444444
 40
0.4444444444444444
 40
0.5555555555555556
 40
0.5555555555555556
 40
0.5555555555555556
 40
0.5555555555555556
 40
0.6666666666666666
 40
0.6666666666666666
 40
0.6666666666666666
 40
0.6666666666666666
 40
0.7777777777777778
 40
0.7777777777777778
 40
0.7777777777777778
 40
0.7777777777777778
 40
1.0
 40
1.0
 40
1.0
 40
1.0
 10
-76.5257
 20
6.2494
 30
0.0
 10
-72.3062
 20
8.5983
 30
0.0
 10
-70.8173
 20
0.3766
 30
0.0
 10
-78.4493
 20
2.2337
 30
0.0
 10
-78.4493
 20
2.2337
 30
0.0
 10
-83.0604
 20
3.9732
 30
0.0
 10
-87.6518
 20
5.7344
 30
0.0
 10
-94.3085
 20
6.5569
 30
0.0
 10
-94.3085
 20
6.5569
 30
0.0
 10
-93.8792
 20
7.1487
 30
0.0
 10
-94.0673
 20
8.2513
 30
0.0
 10
-94.6295
 20
8.616
 30
0.0
 10
-94.6295
 20
8.616
 30
0.0
 10
-94.0673
 20
8.98
 30
0.0
 10
-93.8792
 20
10.0813
 30
0.0
 10
-94.3085
 20
10.6745
 30
0.0
 10
-94.3085
 20
10.6745
 30
0.0
 10
-87.6518
 20
11.4955
 30
0.0
 10
-83.0604
 20
13.2566
 30
0.0
 10
-78.4493
 20
14.9963
 30
0.0
 10
-78.4493
 20
14.9963
 30
0.0
 10
-70.8173
 20
16.8553
 30
0.0
 10
-72.3062
 20
8.6315
 30
0.0
 10
-76.5255
 20
10.9824
 30
0.0
 10
-76.5255
 20
10.9824
 30
0.0
 10
-76.831
 20
9.9479
 30
0.0
 10
-76.5176
 20
8.6315
 30
0.0
 10
-74.7313
 20
8.616
 30
0.0
 10
-74.7313
 20
8.616
 30
0.0
 10
-76.5176
 20
8.5983
 30
0.0
 10
-76.831
 20
7.284
 30
0.0
 10
-76.5257
 20
6.2494
 30
0.0
  0
SPLINE
  5
7E
330
1F
100
AcDbEntity
  8
layer 1
 62
     7
100
AcDbSpline
210
0.0
220
0.0
230
1.0
 70
    11
 71
     3
 72
    28
 73
    24
 74
     0
 42
0.0000000001
 43
0.0000000001
 12
1.0
 22
0.0
 32
0.0
 13
1.0
 23
0.0
 33
0.0
 40
0.0
 40
0.0
 40
0.0
 40
0.0
 40
0.1428571428571428
 40
0.1428571428571428
 40
0.1428571428571428
 40
0.1428571428571428
 40
0.2857142857142857
 40
0.2857142857142857
 40
0.2857142857142857
 40
0.2857142857142857
 40
0.4285714285714285
 40
0.4285714285714285
 40
0.4285714285714285
 40
0.4285714285714285
 40
0.5714285714285714
 40
0.5714285714285714
 40
0.5714285714285714
 40
0.5714285714285714
 40
0.7142857142857143
 40
0.7142857142857143
 40
0.7142857142857143
 40
0.7142857142857143
 40
1.0
 40
1.0
 40
1.0
 40
1.0
 10
-73.2325
 20
-95.1233
 30
0.0
 10
-72.2746
 20
-94.375
 30
0.0
 10
-70.6273
 20
-91.1902
 30
0.0
 10
-72.776
 20
-90.5257
 30
0.0
 10
-72.776
 20
-90.5257
 30
0.0
 10
-74.8035
 20
-94.3103
 30
0.0
 10
-79.1349
 20
-89.7559
 30
0.0
 10
-75.6576
 20
-87.7561
 30
0.0
 10
-75.6576
 20
-87.7561
 30
0.0
 10
-77.6499
 20
-87.9226
 30
0.0
 10
-78.183
 20
-87.8559
 30
0.0
 10
-79.5344
 20
-88.0204
 30
0.0
 10
-79.5344
 20
-88.0204
 30
0.0
 10
-81.4933
 20
-88.6707
 30
0.0
 10
-82.3809
 20
-90.7825
 30
0.0
 10
-80.2335
 20
-91.3271
 30
0.0
 10
-80.2335
 20
-91.3271
 30
0.0
 10
-80.9878
 20
-92.5748
 30
0.0
 10
-82.5198
 20
-92.1143
 30
0.0
 10
-82.9761
 20
-91.9519
 30
0.0
 10
-82.9761
 20
-91.9519
 30
0.0
 10
-81.5054
 20
-94.8394
 30
0.0
 10
-76.9233
 20
-97.1508
 30
0.0
 10
-73.2325
 20
-95.1233
 30
0.0
  0
SPLINE
  5
7F
330
1F
100
AcDbEntity
  8
layer 1
 62
     7
100
AcDbSpline
210
0.0
220
0.0
230
1.0
 70
    11
 71
     3
 72
    20
 73
    16
 74
     0
 42
0.0000000001
 43
0.0000000001
 12
1.0
 22
0.0
 32
0.0
 13
1.0
 23
0.0
 33
0.0
 40
0.0
 40
0.0
 40
0.0
 40
0.0
 40
0.2
 40
0.2
 40
0.2
 40
0.2
 40
0.4
 40
0.4
 40
0.4
 40
0.4
 40
0.6
 40
0.6
 40
0.6
 40
0.6
 40
1.0
 40
1.0
 40
1.0
 40
1.0
 10
-93.4154
 20
-85.366
 30
0.0
 10
-94.5357
 20
-87.8815
 30
0.0
 10
-97.9793
 20
-91.1371
 30
0.0
 10
-100.1422
 20
-88.0359
 30
0.0
 10
-100.1422
 20
-88.0359
 30
0.0
 10
-96.3616
 20
-84.7101
 30
0.0
 10
-96.6354
 20
-76.8996
 30
0.0
 10
-101.7464
 20
-72.8547
 30
0.0
 10
-101.7464
 20
-72.8547
 30
0.0
 10
-99.6112
 20
-73.1836
 30
0.0
 10
-96.5084
 20
-71.795
 30
0.0
 10
-96.5241
 20
-68.7902
 30
0.0
 10
-96.5241
 20
-68.7902
 30
0.0
 10
-93.944
 20
-72.3767
 30
0.0
 10
-91.225
 20
-79.1958
 30
0.0
 10
-93.4154
 20
-85.366
 30
0.0
  0
SPLINE
  5
80
330
1F
100
AcDbEntity
  8
layer 1
 62
     7
100
AcDbSpline
210
0.0
220
0.0
230
1.0
 70
    11
 71
     3
 72
    32
 73
    28
 74
     0
 42
0.0000000001
 43
0.0000000001
 12
1.0
 22
0.0
 32
0.0
 13
1.0
 23
0.0
 33
0.0
 40
0.0
 40
0.0
 40
0.0
 40
0.0
 40
0.125
 40
0.125
 40
0.125
 40
0.125
 40
0.25
 40
0.25
 40
0.25
 40
0.25
 40
0.375
 40
0.375
 40
0.375
 40
0.375
 40
0.5
 40
0.5
 40
0.5
 40
0.5
 40
0.625
 40
0.625
 40
0.625
 40
0.625
 40
0.75
 40
0.75
 40
0.75
 40
0.75
 40
1.0
 40
1.0
 40
1.0
 40
1.0
 10
-85.139
 20
-77.2405
 30
0.0
 10
-85.4916
 20
-75.8264
 30
0.0
 10
-87.8365
 20
-75.7928
 30
0.0
 10
-88.7963
 20
-76.6098
 30
0.0
 10
-88.7963
 20
-76.6098
 30
0.0
 10
-89.4051
 20
-73.1505
 30
0.0
 10
-90.563
 20
-69.2897
 30
0.0
 10
-95.4328
 20
-62.982
 30
0.0
 10
-95.4328
 20
-62.982
 30
0.0
 10
-93.1075
 20
-63.8555
 30
0.0
 10
-90.5689
 20
-62.2218
 30
0.0
 10
-89.7831
 20
-60.0258
 30
0.0
 10
-89.7831
 20
-60.0258
 30
0.0
 10
-89.5877
 20
-63.1465
 30
0.0
 10
-82.3553
 20
-66.9623
 30
0.0
 10
-84.3747
 20
-71.8597
 30
0.0
 10
-84.3747
 20
-71.8597
 30
0.0
 10
-82.3513
 20
-72.0788
 30
0.0
 10
-79.6775
 20
-70.6195
 30
0.0
 10
-80.5395
 20
-68.4371
 30
0.0
 10
-80.5395
 20
-68.4371
 30
0.0
 10
-78.2828
 20
-69.746
 30
0.0
 10
-76.2317
 20
-71.4932
 30
0.0
 10
-74.9114
 20
-72.4901
 30
0.0
 10
-74.9114
 20
-72.4901
 30
0.0
 10
-78.0045
 20
-76.6824
 30
0.0
 10
-83.0899
 20
-71.9596
 30
0.0
 10
-85.139
 20
-77.2405
 30
0.0
  0
SPLINE
  5
81
330
1F
100
AcDbEntity
  8
layer 1
 62
     7
100
AcDbSpline
210
0.0
220
0.0
230
1.0
 70
    11
 71
     3
 72
    16
 73
    12
 74
     0
 42
0.0000000001
 43
0.0000000001
 12
1.0
 22
0.0
 32
0.0
 13
1.0
 23
0.0
 33
0.0
 40
0.0
 40
0.0
 40
0.0
 40
0.0
 40
0.25
 40
0.25
 40
0.25
 40
0.25
 40
0.5
 40
0.5
 40
0.5
 40
0.5
 40
1.0
 40
1.0
 40
1.0
 40
1.0
 10
-82.1222
 20
-86.5867
 30
0.0
 10
-83.1683
 20
-86.9019
 30
0.0
 10
-84.5237
 20
-87.9557
 30
0.0
 10
-84.5923
 20
-89.7128
 30
0.0
 10
-84.5923
 20
-89.7128
 30
0.0
 10
-85.5051
 20
-87.1898
 30
0.0
 10
-87.4388
 20
-82.167
 30
0.0
 10
-88.6979
 20
-77.2877
 30
0.0
 10
-88.6979
 20
-77.2877
 30
0.0
 10
-84.3492
 20
-77.4952
 30
0.0
 10
-87.5405
 20
-83.3837
 30
0.0
 10
-82.1222
 20
-86.5867
 30
0.0
  0
SPLINE
  5
82
330
1F
100
AcDbEntity
  8
layer 1
 62
     7
100
AcDbSpline
210
0.0
220
0.0
230
1.0
 70
    11
 71
     3
 72
    28
 73
    24
 74
     0
 42
0.0000000001
 43
0.0000000001
 12
1.0
 22
0.0
 32
0.0
 13
1.0
 23
0.0
 33
0.0
 40
0.0
 40
0.0
 40
0.0
 40
0.0
 40
0.1428571428571428
 40
0.1428571428571428
 40
0.1428571428571428
 40
0.1428571428571428
 40
0.2857142857142857
 40
0.2857142857142857
 40
0.2857142857142857
 40
0.2857142857142857
 40
0.4285714285714285
 40
0.4285714285714285
 40
0.4285714285714285
 40
0.4285714285714285
 40
0.5714285714285714
 40
0.5714285714285714
 40
0.5714285714285714
 40
0.5714285714285714
 40
0.7142857142857143
 40
0.7142857142857143
 40
0.7142857142857143
 40
0.7142857142857143
 40
1.0
 40
1.0
 40
1.0
 40
1.0
 10
-80.402
 20
-76.6528
 30
0.0
 10
-78.5296
 20
-76.4963
 30
0.0
 10
-78.0005
 20
-77.8674
 30
0.0
 10
-78.4999
 20
-78.7159
 30
0.0
 10
-78.4999
 20
-78.7159
 30
0.0
 10
-78.9704
 20
-79.5148
 30
0.0
 10
-80.3965
 20
-79.8227
 30
0.0
 10
-81.0565
 20
-78.8293
 30
0.0
 10
-81.0565
 20
-78.8293
 30
0.0
 10
-82.0946
 20
-79.7459
 30
0.0
 10
-80.4336
 20
-82.659
 30
0.0
 10
-78.1259
 20
-82.3396
 30
0.0
 10
-78.1259
 20
-82.3396
 30
0.0
 10
-78.6413
 20
-83.0627
 30
0.0
 10
-78.4628
 20
-84.2748
 30
0.0
 10
-78.1237
 20
-85.002
 30
0.0
 10
-78.1237
 20
-85.002
 30
0.0
 10
-79.172
 20
-84.8605
 30
0.0
 10
-81.7871
 20
-83.5954
 30
0.0
 10
-82.6943
 20
-81.605
 30
0.0
 10
-82.6943
 20
-81.605
 30
0.0
 10
-83.574
 20
-79.6737
 30
0.0
 10
-82.7961
 20
-77.0175
 30
0.0
 10
-80.402
 20
-76.6528
 30
0.0
  0
SPLINE
  5
83
330
1F
100
AcDbEntity
  8
layer 1
 62
     7
100
AcDbSpline
210
0.0
220
0.0
230
1.0
 70
    11
 71
     3
 72
    20
 73
    16
 74
     0
 42
0.0000000001
 43
0.0000000001
 12
1.0
 22
0.0
 32
0.0
 13
1.0
 23
0.0
 33
0.0
 40
0.0
 40
0.0
 40
0.0
 40
0.0
 40
0.2
 40
0.2
 40
0.2
 40
0.2
 40
0.4
 40
0.4
 40
0.4
 40
0.4
 40
0.6
 40
0.6
 40
0.6
 40
0.6
 40
1.0
 40
1.0
 40
1.0
 40
1.0
 10
-69.0426
 20
-107.7369
 30
0.0
 10
-69.0426
 20
-107.7369
 30
0.0
 10
-69.0426
 20
-104.869
 30
0.0
 10
-69.0426
 20
-104.869
 30
0.0
 10
-69.0426
 20
-104.869
 30
0.0
 10
-69.0426
 20
-104.869
 30
0.0
 10
-118.9513
 20
-104.869
 30
0.0
 10
-118.9513
 20
-104.869
 30
0.0
 10
-118.9513
 20
-104.869
 30
0.0
 10
-119.5685
 20
-105.9482
 30
0.0
 10
-120.6085
 20
-106.9005
 30
0.0
 10
-121.8938
 20
-107.7369
 30
0.0
 10
-121.8938
 20
-107.7369
 30
0.0
 10
-121.8938
 20
-107.7369
 30
0.0
 10
-69.0426
 20
-107.7369
 30
0.0
 10
-69.0426
 20
-107.7369
 30
0.0
  0
SPLINE
  5
84
330
1F
100
AcDbEntity
  8
layer 1
 62
     7
100
AcDbSpline
210
0.0
220
0.0
230
1.0
 70
    11
 71
     3
 72
    20
 73
    16
 74
     0
 42
0.0000000001
 43
0.0000000001
 12
1.0
 22
0.0
 32
0.0
 13
1.0
 23
0.0
 33
0.0
 40
0.0
 40
0.0
 40
0.0
 40
0.0
 40
0.2
 40
0.2
 40
0.2
 40
0.2
 40
0.4
 40
0.4
 40
0.4
 40
0.4
 40
0.6
 40
0.6
 40
0.6
 40
0.6
 40
1.0
 40
1.0
 40
1.0
 40
1.0
 10
-181.8885
 20
36.9474
 30
0.0
 10
-181.7792
 20
44.8789
 30
0.0
 10
-181.7792
 20
46.644
 30
0.0
 10
-181.8885
 20
60.0349
 30
0.0
 10
-181.8885
 20
60.0349
 30
0.0
 10
-178.2454
 20
60.1759
 30
0.0
 10
-177.9591
 20
56.3581
 30
0.0
 10
-178.8405
 20
50.8829
 30
0.0
 10
-178.8405
 20
50.8829
 30
0.0
 10
-179.7263
 20
45.3999
 30
0.0
 10
-180.9287
 20
41.4722
 30
0.0
 10
-180.5938
 20
36.9022
 30
0.0
 10
-180.5938
 20
36.9022
 30
0.0
 10
-180.5938
 20
36.9022
 30
0.0
 10
-181.8885
 20
36.9474
 30
0.0
 10
-181.8885
 20
36.9474
 30
0.0
  0
SPLINE
  5
85
330
1F
100
AcDbEntity
  8
layer 1
 62
     7
100
AcDbSpline
210
0.0
220
0.0
230
1.0
 70
    11
 71
     3
 72
    20
 73
    16
 74
     0
 42
0.0000000001
 43
0.0000000001
 12
1.0
 22
0.0
 32
0.0
 13
1.0
 23
0.0
 33
0.0
 40
0.0
 40
0.0
 40
0.0
 40
0.0
 40
0.2
 40
0.2
 40
0.2
 40
0.2
 40
0.4
 40
0.4
 40
0.4
 40
0.4
 40
0.6
 40
0.6
 40
0.6
 40
0.6
 40
1.0
 40
1.0
 40
1.0
 40
1.0
 10
-181.8885
 20
33.0219
 30
0.0
 10
-181.7792
 20
25.0921
 30
0.0
 10
-181.7792
 20
28.5477
 30
0.0
 10
-181.8885
 20
15.1568
 30
0.0
 10
-181.8885
 20
15.1568
 30
0.0
 10
-181.2854
 20
16.7941
 30
0.0
 10
-178.2138
 20
19.335
 30
0.0
 10
-173.7928
 20
18.7432
 30
0.0
 10
-173.7928
 20
18.7432
 30
0.0
 10
-177.891
 20
23.1373
 30
0.0
 10
-179.5517
 20
27.2919
 30
0.0
 10
-180.5938
 20
33.067
 30
0.0
 10
-180.5938
 20
33.067
 30
0.0
 10
-180.5938
 20
33.067
 30
0.0
 10
-181.8885
 20
33.0219
 30
0.0
 10
-181.8885
 20
33.0219
 30
0.0
  0
SPLINE
  5
86
330
1F
100
AcDbEntity
  8
layer 1
 62
     7
100
AcDbSpline
210
0.0
220
0.0
230
1.0
 70
    11
 71
     3
 72
    24
 73
    20
 74
     0
 42
0.0000000001
 43
0.0000000001
 12
1.0
 22
0.0
 32
0.0
 13
1.0
 23
0.0
 33
0.0
 40
0.0
 40
0.0
 40
0.0
 40
0.0
 40
0.1666666666666667
 40
0.1666666666666667
 40
0.1666666666666667
 40
0.1666666666666667
 40
0.3333333333333333
 40
0.3333333333333333
 40
0.3333333333333333
 40
0.3333333333333333
 40
0.5
 40
0.5
 40
0.5
 40
0.5
 40
0.6666666666666666
 40
0.6666666666666666
 40
0.6666666666666666
 40
0.6666666666666666
 40
1.0
 40
1.0
 40
1.0
 40
1.0
 10
-171.1034
 20
51.3239
 30
0.0
 10
-176.4688
 20
45.4078
 30
0.0
 10
-177.7048
 20
36.9825
 30
0.0
 10
-175.0053
 20
28.9824
 30
0.0
 10
-175.0053
 20
28.9824
 30
0.0
 10
-174.6879
 20
30.8495
 30
0.0
 10
-172.4197
 20
33.3919
 30
0.0
 10
-167.9981
 20
32.1107
 30
0.0
 10
-167.9981
 20
32.1107
 30
0.0
 10
-170.5588
 20
39.165
 30
0.0
 10
-168.3703
 20
42.9847
 30
0.0
 10
-166.921
 20
46.987
 30
0.0
 10
-166.921
 20
46.987
 30
0.0
 10
-165.346
 20
50.5972
 30
0.0
 10
-169.9218
 20
51.3804
 30
0.0
 10
-169.5201
 20
48.6147
 30
0.0
 10
-169.5201
 20
48.6147
 30
0.0
 10
-171.0131
 20
48.8341
 30
0.0
 10
-171.1876
 20
50.1268
 30
0.0
 10
-171.1034
 20
51.3239
 30
0.0
  0
SPLINE
  5
87
330
1F
100
AcDbEntity
  8
layer 1
 62
     7
100
AcDbSpline
210
0.0
220
0.0
230
1.0
 70
    11
 71
     3
 72
    28
 73
    24
 74
     0
 42
0.0000000001
 43
0.0000000001
 12
1.0
 22
0.0
 32
0.0
 13
1.0
 23
0.0
 33
0.0
 40
0.0
 40
0.0
 40
0.0
 40
0.0
 40
0.1428571428571428
 40
0.1428571428571428
 40
0.1428571428571428
 40
0.1428571428571428
 40
0.2857142857142857
 40
0.2857142857142857
 40
0.2857142857142857
 40
0.2857142857142857
 40
0.4285714285714285
 40
0.4285714285714285
 40
0.4285714285714285
 40
0.4285714285714285
 40
0.5714285714285714
 40
0.5714285714285714
 40
0.5714285714285714
 40
0.5714285714285714
 40
0.7142857142857143
 40
0.7142857142857143
 40
0.7142857142857143
 40
0.7142857142857143
 40
1.0
 40
1.0
 40
1.0
 40
1.0
 10
-150.8503
 20
14.9411
 30
0.0
 10
-155.5576
 20
14.3027
 30
0.0
 10
-161.491
 20
15.6797
 30
0.0
 10
-165.4692
 20
18.3611
 30
0.0
 10
-165.4692
 20
18.3611
 30
0.0
 10
-170.3902
 20
21.678
 30
0.0
 10
-172.4372
 20
26.7789
 30
0.0
 10
-166.9149
 20
29.9975
 30
0.0
 10
-166.9149
 20
29.9975
 30
0.0
 10
-163.6143
 20
25.6622
 30
0.0
 10
-159.3968
 20
22.3183
 30
0.0
 10
-152.0472
 20
23.0825
 30
0.0
 10
-152.0472
 20
23.0825
 30
0.0
 10
-154.5525
 20
21.0767
 30
0.0
 10
-154.3719
 20
19.1509
 30
0.0
 10
-156.6502
 20
17.4996
 30
0.0
 10
-156.6502
 20
17.4996
 30
0.0
 10
-154.3861
 20
15.5544
 30
0.0
 10
-152.3094
 20
17.8797
 30
0.0
 10
-152.3094
 20
17.8797
 30
0.0
 10
-152.3094
 20
17.8797
 30
0.0
 10
-152.0803
 20
16.6296
 30
0.0
 10
-151.6219
 20
15.9109
 30
0.0
 10
-150.8503
 20
14.9411
 30
0.0
  0
SPLINE
  5
88
330
1F
100
AcDbEntity
  8
layer 1
 62
     7
100
AcDbSpline
210
0.0
220
0.0
230
1.0
 70
    11
 71
     3
 72
    24
 73
    20
 74
     0
 42
0.0000000001
 43
0.0000000001
 12
1.0
 22
0.0
 32
0.0
 13
1.0
 23
0.0
 33
0.0
 40
0.0
 40
0.0
 40
0.0
 40
0.0
 40
0.1666666666666667
 40
0.1666666666666667
 40
0.1666666666666667
 40
0.1666666666666667
 40
0.3333333333333333
 40
0.3333333333333333
 40
0.3333333333333333
 40
0.3333333333333333
 40
0.5
 40
0.5
 40
0.5
 40
0.5
 40
0.6666666666666666
 40
0.6666666666666666
 40
0.6666666666666666
 40
0.6666666666666666
 40
1.0
 40
1.0
 40
1.0
 40
1.0
 10
-144.7577
 20
16.8296
 30
0.0
 10
-138.8868
 20
18.957
 30
0.0
 10
-132.7929
 20
24.3909
 30
0.0
 10
-129.6041
 20
34.244
 30
0.0
 10
-129.6041
 20
34.244
 30
0.0
 10
-131.6411
 20
33.6117
 30
0.0
 10
-135.1238
 20
33.1197
 30
0.0
 10
-136.3012
 20
36.3832
 30
0.0
 10
-136.3012
 20
36.3832
 30
0.0
 10
-137.7471
 20
29.0176
 30
0.0
 10
-143.4277
 20
25.956
 30
0.0
 10
-146.7346
 20
23.2762
 30
0.0
 10
-146.7346
 20
23.2762
 30
0.0
 10
-152.5858
 20
20.3065
 30
0.0
 10
-147.2887
 20
14.1202
 30
0.0
 10
-145.5746
 20
19.5076
 30
0.0
 10
-145.5746
 20
19.5076
 30
0.0
 10
-144.3525
 20
19.0096
 30
0.0
 10
-144.0661
 20
17.813
 30
0.0
 10
-144.7577
 20
16.8296
 30
0.0
  0
SPLINE
  5
89
330
1F
100
AcDbEntity
  8
layer 1
 62
     7
100
AcDbSpline
210
0.0
220
0.0
230
1.0
 70
    11
 71
     3
 72
    20
 73
    16
 74
     0
 42
0.0000000001
 43
0.0000000001
 12
1.0
 22
0.0
 32
0.0
 13
1.0
 23
0.0
 33
0.0
 40
0.0
 40
0.0
 40
0.0
 40
0.0
 40
0.2
 40
0.2
 40
0.2
 40
0.2
 40
0.4
 40
0.4
 40
0.4
 40
0.4
 40
0.6
 40
0.6
 40
0.6
 40
0.6
 40
1.0
 40
1.0
 40
1.0
 40
1.0
 10
-140.2174
 20
40.8986
 30
0.0
 10
-143.287
 20
34.8161
 30
0.0
 10
-152.2212
 20
32.7751
 30
0.0
 10
-153.4553
 20
40.685
 30
0.0
 10
-153.4553
 20
40.685
 30
0.0
 10
-156.909
 20
35.9602
 30
0.0
 10
-162.6464
 20
40.1287
 30
0.0
 10
-161.193
 20
43.586
 30
0.0
 10
-161.193
 20
43.586
 30
0.0
 10
-167.0444
 20
41.4216
 30
0.0
 10
-166.5665
 20
29.8404
 30
0.0
 10
-155.6729
 20
27.3681
 30
0.0
 10
-155.6729
 20
27.3681
 30
0.0
 10
-147.3222
 20
25.9129
 30
0.0
 10
-139.8823
 20
33.3548
 30
0.0
 10
-140.2174
 20
40.8986
 30
0.0
  0
SPLINE
  5
8A
330
1F
100
AcDbEntity
  8
layer 1
 62
     7
100
AcDbSpline
210
0.0
220
0.0
230
1.0
 70
    11
 71
     3
 72
    28
 73
    24
 74
     0
 42
0.0000000001
 43
0.0000000001
 12
1.0
 22
0.0
 32
0.0
 13
1.0
 23
0.0
 33
0.0
 40
0.0
 40
0.0
 40
0.0
 40
0.0
 40
0.1428571428571428
 40
0.1428571428571428
 40
0.1428571428571428
 40
0.1428571428571428
 40
0.2857142857142857
 40
0.2857142857142857
 40
0.2857142857142857
 40
0.2857142857142857
 40
0.4285714285714285
 40
0.4285714285714285
 40
0.4285714285714285
 40
0.4285714285714285
 40
0.5714285714285714
 40
0.5714285714285714
 40
0.5714285714285714
 40
0.5714285714285714
 40
0.7142857142857143
 40
0.7142857142857143
 40
0.7142857142857143
 40
0.7142857142857143
 40
1.0
 40
1.0
 40
1.0
 40
1.0
 10
-149.6275
 20
45.1416
 30
0.0
 10
-150.7464
 20
45.2003
 30
0.0
 10
-151.9353
 20
44.5438
 30
0.0
 10
-152.5953
 20
43.4606
 30
0.0
 10
-152.5953
 20
43.4606
 30
0.0
 10
-152.6053
 20
48.6459
 30
0.0
 10
-159.3772
 20
50.3304
 30
0.0
 10
-163.6594
 20
47.9624
 30
0.0
 10
-163.6594
 20
47.9624
 30
0.0
 10
-162.4194
 20
50.6107
 30
0.0
 10
-163.8298
 20
54.4048
 30
0.0
 10
-168.0393
 20
54.2384
 30
0.0
 10
-168.0393
 20
54.2384
 30
0.0
 10
-161.0773
 20
58.697
 30
0.0
 10
-154.556
 20
58.3581
 30
0.0
 10
-149.8217
 20
56.1485
 30
0.0
 10
-149.8217
 20
56.1485
 30
0.0
 10
-145.9978
 20
53.8999
 30
0.0
 10
-143.516
 20
51.6647
 30
0.0
 10
-144.2918
 20
45.7994
 30
0.0
 10
-144.2918
 20
45.7994
 30
0.0
 10
-144.7678
 20
42.1934
 30
0.0
 10
-148.8167
 20
40.6007
 30
0.0
 10
-149.6275
 20
45.1416
 30
0.0
  0
SPLINE
  5
8B
330
1F
100
AcDbEntity
  8
layer 1
 62
     7
100
AcDbSpline
210
0.0
220
0.0
230
1.0
 70
    11
 71
     3
 72
    28
 73
    24
 74
     0
 42
0.0000000001
 43
0.0000000001
 12
1.0
 22
0.0
 32
0.0
 13
1.0
 23
0.0
 33
0.0
 40
0.0
 40
0.0
 40
0.0
 40
0.0
 40
0.1428571428571428
 40
0.1428571428571428
 40
0.1428571428571428
 40
0.1428571428571428
 40
0.2857142857142857
 40
0.2857142857142857
 40
0.2857142857142857
 40
0.2857142857142857
 40
0.4285714285714285
 40
0.4285714285714285
 40
0.4285714285714285
 40
0.4285714285714285
 40
0.5714285714285714
 40
0.5714285714285714
 40
0.5714285714285714
 40
0.5714285714285714
 40
0.7142857142857143
 40
0.7142857142857143
 40
0.7142857142857143
 40
0.7142857142857143
 40
1.0
 40
1.0
 40
1.0
 40
1.0
 10
-128.9556
 20
39.9248
 30
0.0
 10
-128.6713
 20
46.1622
 30
0.0
 10
-132.2563
 20
55.5512
 30
0.0
 10
-136.9436
 20
56.1249
 30
0.0
 10
-136.9436
 20
56.1249
 30
0.0
 10
-138.7892
 20
56.2623
 30
0.0
 10
-140.0508
 20
53.5433
 30
0.0
 10
-136.9597
 20
51.7721
 30
0.0
 10
-136.9597
 20
51.7721
 30
0.0
 10
-137.2652
 20
51.4689
 30
0.0
 10
-137.8056
 20
51.3042
 30
0.0
 10
-138.7184
 20
51.3473
 30
0.0
 10
-138.7184
 20
51.3473
 30
0.0
 10
-136.6302
 20
47.9253
 30
0.0
 10
-136.3794
 20
46.2793
 30
0.0
 10
-135.5019
 20
41.9858
 30
0.0
 10
-135.5019
 20
41.9858
 30
0.0
 10
-134.4794
 20
35.8211
 30
0.0
 10
-128.7927
 20
37.8485
 30
0.0
 10
-131.5292
 20
41.2099
 30
0.0
 10
-131.5292
 20
41.2099
 30
0.0
 10
-130.0584
 20
41.1338
 30
0.0
 10
-129.598
 20
40.9377
 30
0.0
 10
-128.9556
 20
39.9248
 30
0.0
  0
SPLINE
  5
8C
330
1F
100
AcDbEntity
  8
layer 1
 62
     7
100
AcDbSpline
210
0.0
220
0.0
230
1.0
 70
    11
 71
     3
 72
    28
 73
    24
 74
     0
 42
0.0000000001
 43
0.0000000001
 12
1.0
 22
0.0
 32
0.0
 13
1.0
 23
0.0
 33
0.0
 40
0.0
 40
0.0
 40
0.0
 40
0.0
 40
0.1428571428571428
 40
0.1428571428571428
 40
0.1428571428571428
 40
0.1428571428571428
 40
0.2857142857142857
 40
0.2857142857142857
 40
0.2857142857142857
 40
0.2857142857142857
 40
0.4285714285714285
 40
0.4285714285714285
 40
0.4285714285714285
 40
0.4285714285714285
 40
0.5714285714285714
 40
0.5714285714285714
 40
0.5714285714285714
 40
0.5714285714285714
 40
0.7142857142857143
 40
0.7142857142857143
 40
0.7142857142857143
 40
0.7142857142857143
 40
1.0
 40
1.0
 40
1.0
 40
1.0
 10
-137.3806
 20
61.1047
 30
0.0
 10
-141.1025
 20
65.3161
 30
0.0
 10
-142.799
 20
67.0165
 30
0.0
 10
-145.7375
 20
69.9843
 30
0.0
 10
-145.7375
 20
69.9843
 30
0.0
 10
-145.373
 20
68.9247
 30
0.0
 10
-145.7605
 20
67.3555
 30
0.0
 10
-146.7205
 20
66.507
 30
0.0
 10
-146.7205
 20
66.507
 30
0.0
 10
-144.8614
 20
65.9273
 30
0.0
 10
-144.1133
 20
65.7629
 30
0.0
 10
-143.0005
 20
65.99
 30
0.0
 10
-143.0005
 20
65.99
 30
0.0
 10
-145.4708
 20
62.0605
 30
0.0
 10
-150.5151
 20
62.9926
 30
0.0
 10
-154.4719
 20
61.9687
 30
0.0
 10
-154.4719
 20
61.9687
 30
0.0
 10
-152.7598
 20
61.9271
 30
0.0
 10
-147.2555
 20
60.8695
 30
0.0
 10
-142.3034
 20
56.0818
 30
0.0
 10
-142.3034
 20
56.0818
 30
0.0
 10
-142.125
 20
59.4278
 30
0.0
 10
-139.0203
 20
61.2454
 30
0.0
 10
-137.3806
 20
61.1047
 30
0.0
  0
SPLINE
  5
8D
330
1F
100
AcDbEntity
  8
layer 1
 62
     7
100
AcDbSpline
210
0.0
220
0.0
230
1.0
 70
    11
 71
     3
 72
    32
 73
    28
 74
     0
 42
0.0000000001
 43
0.0000000001
 12
1.0
 22
0.0
 32
0.0
 13
1.0
 23
0.0
 33
0.0
 40
0.0
 40
0.0
 40
0.0
 40
0.0
 40
0.125
 40
0.125
 40
0.125
 40
0.125
 40
0.25
 40
0.25
 40
0.25
 40
0.25
 40
0.375
 40
0.375
 40
0.375
 40
0.375
 40
0.5
 40
0.5
 40
0.5
 40
0.5
 40
0.625
 40
0.625
 40
0.625
 40
0.625
 40
0.75
 40
0.75
 40
0.75
 40
0.75
 40
1.0
 40
1.0
 40
1.0
 40
1.0
 10
-148.9833
 20
73.3046
 30
0.0
 10
-152.7072
 20
77.5181
 30
0.0
 10
-150.3972
 20
74.7504
 30
0.0
 10
-153.3339
 20
77.7181
 30
0.0
 10
-153.3339
 20
77.7181
 30
0.0
 10
-152.9714
 20
76.6579
 30
0.0
 10
-153.2653
 20
74.7679
 30
0.0
 10
-154.2251
 20
73.9199
 30
0.0
 10
-154.2251
 20
73.9199
 30
0.0
 10
-154.9321
 20
78.3369
 30
0.0
 10
-157.9726
 20
75.7533
 30
0.0
 10
-158.288
 20
74.7834
 30
0.0
 10
-158.288
 20
74.7834
 30
0.0
 10
-160.112
 20
70.7622
 30
0.0
 10
-158.9871
 20
68.7952
 30
0.0
 10
-164.4176
 20
60.6322
 30
0.0
 10
-164.4176
 20
60.6322
 30
0.0
 10
-157.2717
 20
63.3553
 30
0.0
 10
-154.3465
 20
63.4941
 30
0.0
 10
-149.4866
 20
66.2583
 30
0.0
 10
-149.4866
 20
66.2583
 30
0.0
 10
-145.5691
 20
69.1539
 30
0.0
 10
-151.9333
 20
72.5152
 30
0.0
 10
-151.6435
 20
67.5511
 30
0.0
 10
-151.6435
 20
67.5511
 30
0.0
 10
-155.3479
 20
68.7561
 30
0.0
 10
-153.4278
 20
73.8787
 30
0.0
 10
-148.9833
 20
73.3046
 30
0.0
  0
SPLINE
  5
8E
330
1F
100
AcDbEntity
  8
layer 1
 62
     7
100
AcDbSpline
210
0.0
220
0.0
230
1.0
 70
    11
 71
     3
 72
    20
 73
    16
 74
     0
 42
0.0000000001
 43
0.0000000001
 12
1.0
 22
0.0
 32
0.0
 13
1.0
 23
0.0
 33
0.0
 40
0.0
 40
0.0
 40
0.0
 40
0.0
 40
0.2
 40
0.2
 40
0.2
 40
0.2
 40
0.4
 40
0.4
 40
0.4
 40
0.4
 40
0.6
 40
0.6
 40
0.6
 40
0.6
 40
1.0
 40
1.0
 40
1.0
 40
1.0
 10
-140.4364
 20
70.8188
 30
0.0
 10
-138.0486
 20
71.5791
 30
0.0
 10
-138.7931
 20
73.6922
 30
0.0
 10
-136.6383
 20
75.8766
 30
0.0
 10
-136.6383
 20
75.8766
 30
0.0
 10
-136.695
 20
72.4856
 30
0.0
 10
-135.8058
 20
68.1057
 30
0.0
 10
-130.7573
 20
67.9076
 30
0.0
 10
-130.7573
 20
67.9076
 30
0.0
 10
-132.1014
 20
67.0853
 30
0.0
 10
-133.0477
 20
65.5201
 30
0.0
 10
-133.4885
 20
63.2184
 30
0.0
 10
-133.4885
 20
63.2184
 30
0.0
 10
-136.0134
 20
66.2408
 30
0.0
 10
-137.1868
 20
67.5079
 30
0.0
 10
-140.4364
 20
70.8188
 30
0.0
  0
SPLINE
  5
8F
330
1F
100
AcDbEntity
  8
layer 1
 62
     7
100
AcDbSpline
210
0.0
220
0.0
230
1.0
 70
    11
 71
     3
 72
    24
 73
    20
 74
     0
 42
0.0000000001
 43
0.0000000001
 12
1.0
 22
0.0
 32
0.0
 13
1.0
 23
0.0
 33
0.0
 40
0.0
 40
0.0
 40
0.0
 40
0.0
 40
0.1666666666666667
 40
0.1666666666666667
 40
0.1666666666666667
 40
0.1666666666666667
 40
0.3333333333333333
 40
0.3333333333333333
 40
0.3333333333333333
 40
0.3333333333333333
 40
0.5
 40
0.5
 40
0.5
 40
0.5
 40
0.6666666666666666
 40
0.6666666666666666
 40
0.6666666666666666
 40
0.6666666666666666
 40
1.0
 40
1.0
 40
1.0
 40
1.0
 10
-148.08
 20
89.0971
 30
0.0
 10
-146.7522
 20
87.4634
 30
0.0
 10
-139.3006
 20
86.537
 30
0.0
 10
-137.3277
 20
87.8945
 30
0.0
 10
-137.3277
 20
87.8945
 30
0.0
 10
-139.4119
 20
85.6085
 30
0.0
 10
-139.7645
 20
82.1943
 30
0.0
 10
-143.144
 20
80.386
 30
0.0
 10
-143.144
 20
80.386
 30
0.0
 10
-142.476
 20
79.8138
 30
0.0
 10
-141.2438
 20
79.8138
 30
0.0
 10
-139.753
 20
80.5935
 30
0.0
 10
-139.753
 20
80.5935
 30
0.0
 10
-142.139
 20
78.9326
 30
0.0
 10
-142.4599
 20
74.4564
 30
0.0
 10
-141.5452
 20
71.9214
 30
0.0
 10
-141.5452
 20
71.9214
 30
0.0
 10
-151.2088
 20
80.8369
 30
0.0
 10
-152.4719
 20
86.3862
 30
0.0
 10
-148.08
 20
89.0971
 30
0.0
  0
SPLINE
  5
90
330
1F
100
AcDbEntity
  8
layer 1
 62
     7
100
AcDbSpline
210
0.0
220
0.0
230
1.0
 70
    11
 71
     3
 72
    20
 73
    16
 74
     0
 42
0.0000000001
 43
0.0000000001
 12
1.0
 22
0.0
 32
0.0
 13
1.0
 23
0.0
 33
0.0
 40
0.0
 40
0.0
 40
0.0
 40
0.0
 40
0.2
 40
0.2
 40
0.2
 40
0.2
 40
0.4
 40
0.4
 40
0.4
 40
0.4
 40
0.6
 40
0.6
 40
0.6
 40
0.6
 40
1.0
 40
1.0
 40
1.0
 40
1.0
 10
-177.8027
 20
99.0877
 30
0.0
 10
-176.9562
 20
100.3944
 30
0.0
 10
-174.1669
 20
101.5969
 30
0.0
 10
-173.5029
 20
99.446
 30
0.0
 10
-173.5029
 20
99.446
 30
0.0
 10
-176.398
 20
98.2592
 30
0.0
 10
-176.7876
 20
94.7192
 30
0.0
 10
-174.0455
 20
93.0051
 30
0.0
 10
-174.0455
 20
93.0051
 30
0.0
 10
-175.6592
 20
93.1756
 30
0.0
 10
-176.772
 20
91.7103
 30
0.0
 10
-176.3117
 20
90.4331
 30
0.0
 10
-176.3117
 20
90.4331
 30
0.0
 10
-178.112
 20
91.8065
 30
0.0
 10
-179.832
 20
95.3971
 30
0.0
 10
-177.8027
 20
99.0877
 30
0.0
  0
SPLINE
  5
91
330
1F
100
AcDbEntity
  8
layer 1
 62
     7
100
AcDbSpline
210
0.0
220
0.0
230
1.0
 70
    11
 71
     3
 72
    32
 73
    28
 74
     0
 42
0.0000000001
 43
0.0000000001
 12
1.0
 22
0.0
 32
0.0
 13
1.0
 23
0.0
 33
0.0
 40
0.0
 40
0.0
 40
0.0
 40
0.0
 40
0.125
 40
0.125
 40
0.125
 40
0.125
 40
0.25
 40
0.25
 40
0.25
 40
0.25
 40
0.375
 40
0.375
 40
0.375
 40
0.375
 40
0.5
 40
0.5
 40
0.5
 40
0.5
 40
0.625
 40
0.625
 40
0.625
 40
0.625
 40
0.75
 40
0.75
 40
0.75
 40
0.75
 40
1.0
 40
1.0
 40
1.0
 40
1.0
 10
-173.1915
 20
60.039
 30
0.0
 10
-169.8066
 20
62.0544
 30
0.0
 10
-171.5752
 20
64.8341
 30
0.0
 10
-174.0199
 20
66.3229
 30
0.0
 10
-174.0199
 20
66.3229
 30
0.0
 10
-176.3648
 20
67.7493
 30
0.0
 10
-178.294
 20
69.9351
 30
0.0
 10
-177.9535
 20
74.2683
 30
0.0
 10
-177.9535
 20
74.2683
 30
0.0
 10
-179.3069
 20
73.0498
 30
0.0
 10
-181.883
 20
73.4791
 30
0.0
 10
-181.8905
 20
74.8637
 30
0.0
 10
-181.8905
 20
74.8637
 30
0.0
 10
-181.8831
 20
71.2907
 30
0.0
 10
-181.883
 20
67.5726
 30
0.0
 10
-181.9262
 20
62.5679
 30
0.0
 10
-181.9262
 20
62.5679
 30
0.0
 10
-174.8113
 20
66.3055
 30
0.0
 10
-173.9868
 20
57.5767
 30
0.0
 10
-175.9476
 20
52.4366
 30
0.0
 10
-175.9476
 20
52.4366
 30
0.0
 10
-173.3561
 20
55.9114
 30
0.0
 10
-172.3235
 20
56.8892
 30
0.0
 10
-170.0081
 20
59.3298
 30
0.0
 10
-170.0081
 20
59.3298
 30
0.0
 10
-171.1479
 20
58.84
 30
0.0
 10
-172.5526
 20
58.9417
 30
0.0
 10
-173.1915
 20
60.039
 30
0.0
  0
SPLINE
  5
92
330
1F
100
AcDbEntity
  8
layer 1
 62
     7
100
AcDbSpline
210
0.0
220
0.0
230
1.0
 70
    11
 71
     3
 72
    28
 73
    24
 74
     0
 42
0.0000000001
 43
0.0000000001
 12
1.0
 22
0.0
 32
0.0
 13
1.0
 23
0.0
 33
0.0
 40
0.0
 40
0.0
 40
0.0
 40
0.0
 40
0.1428571428571428
 40
0.1428571428571428
 40
0.1428571428571428
 40
0.1428571428571428
 40
0.2857142857142857
 40
0.2857142857142857
 40
0.2857142857142857
 40
0.2857142857142857
 40
0.4285714285714285
 40
0.4285714285714285
 40
0.4285714285714285
 40
0.4285714285714285
 40
0.5714285714285714
 40
0.5714285714285714
 40
0.5714285714285714
 40
0.5714285714285714
 40
0.7142857142857143
 40
0.7142857142857143
 40
0.7142857142857143
 40
0.7142857142857143
 40
1.0
 40
1.0
 40
1.0
 40
1.0
 10
-181.8907
 20
93.3932
 30
0.0
 10
-181.8831
 20
89.8183
 30
0.0
 10
-181.883
 20
82.9053
 30
0.0
 10
-181.9262
 20
77.9022
 30
0.0
 10
-181.9262
 20
77.9022
 30
0.0
 10
-181.8831
 20
79.4436
 30
0.0
 10
-180.5782
 20
79.23
 30
0.0
 10
-180.5782
 20
79.23
 30
0.0
 10
-180.5782
 20
79.23
 30
0.0
 10
-181.3836
 20
77.1991
 30
0.0
 10
-180.167
 20
76.2818
 30
0.0
 10
-178.8957
 20
76.666
 30
0.0
 10
-178.8957
 20
76.666
 30
0.0
 10
-178.106
 20
76.9052
 30
0.0
 10
-177.3913
 20
77.9412
 30
0.0
 10
-176.8327
 20
78.6287
 30
0.0
 10
-176.8327
 20
78.6287
 30
0.0
 10
-175.3735
 20
80.4231
 30
0.0
 10
-172.5646
 20
82.2744
 30
0.0
 10
-169.7278
 20
81.8903
 30
0.0
 10
-169.7278
 20
81.8903
 30
0.0
 10
-174.173
 20
84.2232
 30
0.0
 10
-178.7469
 20
86.4036
 30
0.0
 10
-181.8907
 20
93.3932
 30
0.0
  0
SPLINE
  5
93
330
1F
100
AcDbEntity
  8
layer 1
 62
     7
100
AcDbSpline
210
0.0
220
0.0
230
1.0
 70
    11
 71
     3
 72
    24
 73
    20
 74
     0
 42
0.0000000001
 43
0.0000000001
 12
1.0
 22
0.0
 32
0.0
 13
1.0
 23
0.0
 33
0.0
 40
0.0
 40
0.0
 40
0.0
 40
0.0
 40
0.1666666666666667
 40
0.1666666666666667
 40
0.1666666666666667
 40
0.1666666666666667
 40
0.3333333333333333
 40
0.3333333333333333
 40
0.3333333333333333
 40
0.3333333333333333
 40
0.5
 40
0.5
 40
0.5
 40
0.5
 40
0.6666666666666666
 40
0.6666666666666666
 40
0.6666666666666666
 40
0.6666666666666666
 40
1.0
 40
1.0
 40
1.0
 40
1.0
 10
-168.2038
 20
61.7235
 30
0.0
 10
-167.6085
 20
64.9636
 30
0.0
 10
-169.3908
 20
66.9383
 30
0.0
 10
-172.21
 20
68.2897
 30
0.0
 10
-172.21
 20
68.2897
 30
0.0
 10
-170.6862
 20
67.6865
 30
0.0
 10
-167.1462
 20
68.8795
 30
0.0
 10
-168.0473
 20
72.6953
 30
0.0
 10
-168.0473
 20
72.6953
 30
0.0
 10
-168.2314
 20
74.4701
 30
0.0
 10
-172.3902
 20
76.2568
 30
0.0
 10
-173.9632
 20
72.5287
 30
0.0
 10
-173.9632
 20
72.5287
 30
0.0
 10
-176.8759
 20
79.9591
 30
0.0
 10
-165.567
 20
81.4184
 30
0.0
 10
-163.7004
 20
74.0628
 30
0.0
 10
-163.7004
 20
74.0628
 30
0.0
 10
-162.7914
 20
68.5756
 30
0.0
 10
-165.209
 20
66.0216
 30
0.0
 10
-168.2038
 20
61.7235
 30
0.0
  0
SPLINE
  5
94
330
1F
100
AcDbEntity
  8
layer 1
 62
     7
100
AcDbSpline
210
0.0
220
0.0
230
1.0
 70
    11
 71
     3
 72
    20
 73
    16
 74
     0
 42
0.0000000001
 43
0.0000000001
 12
1.0
 22
0.0
 32
0.0
 13
1.0
 23
0.0
 33
0.0
 40
0.0
 40
0.0
 40
0.0
 40
0.0
 40
0.2
 40
0.2
 40
0.2
 40
0.2
 40
0.4
 40
0.4
 40
0.4
 40
0.4
 40
0.6
 40
0.6
 40
0.6
 40
0.6
 40
1.0
 40
1.0
 40
1.0
 40
1.0
 10
-181.8907
 20
118.5044
 30
0.0
 10
-181.8831
 20
114.9293
 30
0.0
 10
-181.883
 20
116.6939
 30
0.0
 10
-181.9262
 20
111.6912
 30
0.0
 10
-181.9262
 20
111.6912
 30
0.0
 10
-181.2112
 20
114.6805
 30
0.0
 10
-177.1757
 20
116.5826
 30
0.0
 10
-173.8239
 20
115.4266
 30
0.0
 10
-173.8239
 20
115.4266
 30
0.0
 10
-174.2627
 20
116.5786
 30
0.0
 10
-174.2296
 20
117.5539
 30
0.0
 10
-173.6142
 20
118.5137
 30
0.0
 10
-173.6142
 20
118.5137
 30
0.0
 10
-173.6142
 20
118.5137
 30
0.0
 10
-181.8907
 20
118.5044
 30
0.0
 10
-181.8907
 20
118.5044
 30
0.0
  0
SPLINE
  5
95
330
1F
100
AcDbEntity
  8
layer 1
 62
     7
100
AcDbSpline
210
0.0
220
0.0
230
1.0
 70
    11
 71
     3
 72
    16
 73
    12
 74
     0
 42
0.0000000001
 43
0.0000000001
 12
1.0
 22
0.0
 32
0.0
 13
1.0
 23
0.0
 33
0.0
 40
0.0
 40
0.0
 40
0.0
 40
0.0
 40
0.25
 40
0.25
 40
0.25
 40
0.25
 40
0.5
 40
0.5
 40
0.5
 40
0.5
 40
1.0
 40
1.0
 40
1.0
 40
1.0
 10
-181.8907
 20
107.1975
 30
0.0
 10
-181.8831
 20
103.6226
 30
0.0
 10
-181.883
 20
104.2767
 30
0.0
 10
-181.9262
 20
99.2736
 30
0.0
 10
-181.9262
 20
99.2736
 30
0.0
 10
-180.9194
 20
102.2063
 30
0.0
 10
-178.8405
 20
103.6695
 30
0.0
 10
-177.5633
 20
104.2648
 30
0.0
 10
-177.5633
 20
104.2648
 30
0.0
 10
-179.7634
 20
104.4394
 30
0.0
 10
-181.1545
 20
105.7753
 30
0.0
 10
-181.8907
 20
107.1975
 30
0.0
  0
SPLINE
  5
96
330
1F
100
AcDbEntity
  8
layer 1
 62
     7
100
AcDbSpline
210
0.0
220
0.0
230
1.0
 70
    11
 71
     3
 72
    28
 73
    24
 74
     0
 42
0.0000000001
 43
0.0000000001
 12
1.0
 22
0.0
 32
0.0
 13
1.0
 23
0.0
 33
0.0
 40
0.0
 40
0.0
 40
0.0
 40
0.0
 40
0.1428571428571428
 40
0.1428571428571428
 40
0.1428571428571428
 40
0.1428571428571428
 40
0.2857142857142857
 40
0.2857142857142857
 40
0.2857142857142857
 40
0.2857142857142857
 40
0.4285714285714285
 40
0.4285714285714285
 40
0.4285714285714285
 40
0.4285714285714285
 40
0.5714285714285714
 40
0.5714285714285714
 40
0.5714285714285714
 40
0.5714285714285714
 40
0.7142857142857143
 40
0.7142857142857143
 40
0.7142857142857143
 40
0.7142857142857143
 40
1.0
 40
1.0
 40
1.0
 40
1.0
 10
-171.5476
 20
118.5044
 30
0.0
 10
-169.6124
 20
116.5354
 30
0.0
 10
-169.2618
 20
114.7668
 30
0.0
 10
-167.7845
 20
112.4784
 30
0.0
 10
-167.7845
 20
112.4784
 30
0.0
 10
-167.5068
 20
113.6419
 30
0.0
 10
-167.1091
 20
114.9251
 30
0.0
 10
-166.386
 20
115.7792
 30
0.0
 10
-166.386
 20
115.7792
 30
0.0
 10
-164.4057
 20
113.913
 30
0.0
 10
-163.2872
 20
113.0486
 30
0.0
 10
-162.1489
 20
101.7048
 30
0.0
 10
-162.1489
 20
101.7048
 30
0.0
 10
-161.487
 20
108.416
 30
0.0
 10
-155.2811
 20
116.5826
 30
0.0
 10
-161.4358
 20
116.9467
 30
0.0
 10
-161.4358
 20
116.9467
 30
0.0
 10
-161.1737
 20
117.6011
 30
0.0
 10
-160.4389
 20
118.1376
 30
0.0
 10
-159.5317
 20
118.5137
 30
0.0
 10
-159.5317
 20
118.5137
 30
0.0
 10
-159.5317
 20
118.5137
 30
0.0
 10
-171.5476
 20
118.5044
 30
0.0
 10
-171.5476
 20
118.5044
 30
0.0
  0
SPLINE
  5
97
330
1F
100
AcDbEntity
  8
layer 1
 62
     7
100
AcDbSpline
210
0.0
220
0.0
230
1.0
 70
    11
 71
     3
 72
    28
 73
    24
 74
     0
 42
0.0000000001
 43
0.0000000001
 12
1.0
 22
0.0
 32
0.0
 13
1.0
 23
0.0
 33
0.0
 40
0.0
 40
0.0
 40
0.0
 40
0.0
 40
0.1428571428571428
 40
0.1428571428571428
 40
0.1428571428571428
 40
0.1428571428571428
 40
0.2857142857142857
 40
0.2857142857142857
 40
0.2857142857142857
 40
0.2857142857142857
 40
0.4285714285714285
 40
0.4285714285714285
 40
0.4285714285714285
 40
0.4285714285714285
 40
0.5714285714285714
 40
0.5714285714285714
 40
0.5714285714285714
 40
0.5714285714285714
 40
0.7142857142857143
 40
0.7142857142857143
 40
0.7142857142857143
 40
0.7142857142857143
 40
1.0
 40
1.0
 40
1.0
 40
1.0
 10
-156.4722
 20
118.5044
 30
0.0
 10
-154.8876
 20
117.6463
 30
0.0
 10
-153.9507
 20
116.5199
 30
0.0
 10
-153.7612
 20
115.1092
 30
0.0
 10
-153.7612
 20
115.1092
 30
0.0
 10
-151.0558
 20
116.1789
 30
0.0
 10
-150.7424
 20
117.0996
 30
0.0
 10
-144.2095
 20
117.3659
 30
0.0
 10
-144.2095
 20
117.3659
 30
0.0
 10
-139.3278
 20
117.2368
 30
0.0
 10
-137.0144
 20
116.1242
 30
0.0
 10
-134.1975
 20
114.1905
 30
0.0
 10
-134.1975
 20
114.1905
 30
0.0
 10
-132.8065
 20
113.2348
 30
0.0
 10
-132.0427
 20
111.646
 30
0.0
 10
-129.6646
 20
111.8125
 30
0.0
 10
-129.6646
 20
111.8125
 30
0.0
 10
-132.5031
 20
113.7147
 30
0.0
 10
-133.1866
 20
116.8981
 30
0.0
 10
-133.0713
 20
118.5137
 30
0.0
 10
-133.0713
 20
118.5137
 30
0.0
 10
-133.0713
 20
118.5137
 30
0.0
 10
-156.4722
 20
118.5044
 30
0.0
 10
-156.4722
 20
118.5044
 30
0.0
  0
SPLINE
  5
98
330
1F
100
AcDbEntity
  8
layer 1
 62
     7
100
AcDbSpline
210
0.0
220
0.0
230
1.0
 70
    11
 71
     3
 72
    16
 73
    12
 74
     0
 42
0.0000000001
 43
0.0000000001
 12
1.0
 22
0.0
 32
0.0
 13
1.0
 23
0.0
 33
0.0
 40
0.0
 40
0.0
 40
0.0
 40
0.0
 40
0.25
 40
0.25
 40
0.25
 40
0.25
 40
0.5
 40
0.5
 40
0.5
 40
0.5
 40
1.0
 40
1.0
 40
1.0
 40
1.0
 10
-131.8486
 20
101.1777
 30
0.0
 10
-138.3484
 20
99.8729
 30
0.0
 10
-137.5685
 20
111.3837
 30
0.0
 10
-148.3899
 20
107.2757
 30
0.0
 10
-148.3899
 20
107.2757
 30
0.0
 10
-148.5072
 20
109.8202
 30
0.0
 10
-149.5573
 20
110.602
 30
0.0
 10
-151.4143
 20
111.3952
 30
0.0
 10
-151.4143
 20
111.3952
 30
0.0
 10
-140.3562
 20
116.6746
 30
0.0
 10
-131.3376
 20
108.1397
 30
0.0
 10
-131.8486
 20
101.1777
 30
0.0
  0
SPLINE
  5
99
330
1F
100
AcDbEntity
  8
layer 1
 62
     7
100
AcDbSpline
210
0.0
220
0.0
230
1.0
 70
    11
 71
     3
 72
    28
 73
    24
 74
     0
 42
0.0000000001
 43
0.0000000001
 12
1.0
 22
0.0
 32
0.0
 13
1.0
 23
0.0
 33
0.0
 40
0.0
 40
0.0
 40
0.0
 40
0.0
 40
0.1428571428571428
 40
0.1428571428571428
 40
0.1428571428571428
 40
0.1428571428571428
 40
0.2857142857142857
 40
0.2857142857142857
 40
0.2857142857142857
 40
0.2857142857142857
 40
0.4285714285714285
 40
0.4285714285714285
 40
0.4285714285714285
 40
0.4285714285714285
 40
0.5714285714285714
 40
0.5714285714285714
 40
0.5714285714285714
 40
0.5714285714285714
 40
0.7142857142857143
 40
0.7142857142857143
 40
0.7142857142857143
 40
0.7142857142857143
 40
1.0
 40
1.0
 40
1.0
 40
1.0
 10
-144.2799
 20
92.1592
 30
0.0
 10
-148.1642
 20
93.785
 30
0.0
 10
-149.5844
 20
97.5635
 30
0.0
 10
-148.8105
 20
100.3392
 30
0.0
 10
-148.8105
 20
100.3392
 30
0.0
 10
-147.9372
 20
103.4715
 30
0.0
 10
-144.4603
 20
105.3696
 30
0.0
 10
-142.1957
 20
102.3391
 30
0.0
 10
-142.1957
 20
102.3391
 30
0.0
 10
-145.5787
 20
101.7358
 30
0.0
 10
-145.7841
 20
98.5469
 30
0.0
 10
-144.1488
 20
97.1874
 30
0.0
 10
-144.1488
 20
97.1874
 30
0.0
 10
-141.8095
 20
95.2423
 30
0.0
 10
-139.1106
 20
97.0249
 30
0.0
 10
-138.9029
 20
99.0504
 30
0.0
 10
-138.9029
 20
99.0504
 30
0.0
 10
-138.1879
 20
98.1392
 30
0.0
 10
-134.7185
 20
96.7547
 30
0.0
 10
-131.974
 20
100.0554
 30
0.0
 10
-131.974
 20
100.0554
 30
0.0
 10
-131.5784
 20
95.9494
 30
0.0
 10
-137.1222
 20
89.1462
 30
0.0
 10
-144.2799
 20
92.1592
 30
0.0
  0
SPLINE
  5
9A
330
1F
100
AcDbEntity
  8
layer 1
 62
     7
100
AcDbSpline
210
0.0
220
0.0
230
1.0
 70
    11
 71
     3
 72
    20
 73
    16
 74
     0
 42
0.0000000001
 43
0.0000000001
 12
1.0
 22
0.0
 32
0.0
 13
1.0
 23
0.0
 33
0.0
 40
0.0
 40
0.0
 40
0.0
 40
0.0
 40
0.2
 40
0.2
 40
0.2
 40
0.2
 40
0.4
 40
0.4
 40
0.4
 40
0.4
 40
0.6
 40
0.6
 40
0.6
 40
0.6
 40
1.0
 40
1.0
 40
1.0
 40
1.0
 10
-125.4314
 20
113.603
 30
0.0
 10
-123.0257
 20
113.603
 30
0.0
 10
-121.0768
 20
115.552
 30
0.0
 10
-121.0768
 20
117.9557
 30
0.0
 10
-121.0768
 20
117.9557
 30
0.0
 10
-121.077
 20
120.3614
 30
0.0
 10
-123.0256
 20
122.3105
 30
0.0
 10
-125.4312
 20
122.3105
 30
0.0
 10
-125.4312
 20
122.3105
 30
0.0
 10
-127.8349
 20
122.3106
 30
0.0
 10
-129.784
 20
120.3613
 30
0.0
 10
-129.784
 20
117.9557
 30
0.0
 10
-129.784
 20
117.9557
 30
0.0
 10
-129.784
 20
115.5522
 30
0.0
 10
-127.8349
 20
113.6029
 30
0.0
 10
-125.4314
 20
113.603
 30
0.0
  0
SPLINE
  5
9B
330
1F
100
AcDbEntity
  8
layer 1
 62
     7
100
AcDbSpline
210
0.0
220
0.0
230
1.0
 70
    11
 71
     3
 72
    28
 73
    24
 74
     0
 42
0.0000000001
 43
0.0000000001
 12
1.0
 22
0.0
 32
0.0
 13
1.0
 23
0.0
 33
0.0
 40
0.0
 40
0.0
 40
0.0
 40
0.0
 40
0.1428571428571428
 40
0.1428571428571428
 40
0.1428571428571428
 40
0.1428571428571428
 40
0.2857142857142857
 40
0.2857142857142857
 40
0.2857142857142857
 40
0.2857142857142857
 40
0.4285714285714285
 40
0.4285714285714285
 40
0.4285714285714285
 40
0.4285714285714285
 40
0.5714285714285714
 40
0.5714285714285714
 40
0.5714285714285714
 40
0.5714285714285714
 40
0.7142857142857143
 40
0.7142857142857143
 40
0.7142857142857143
 40
0.7142857142857143
 40
1.0
 40
1.0
 40
1.0
 40
1.0
 10
-135.3279
 20
17.4053
 30
0.0
 10
-136.9045
 20
15.3292
 30
0.0
 10
-144.8384
 20
10.7784
 30
0.0
 10
-152.2918
 20
9.5893
 30
0.0
 10
-152.2918
 20
9.5893
 30
0.0
 10
-153.1184
 20
9.4585
 30
0.0
 10
-153.9648
 20
8.986
 30
0.0
 10
-154.0531
 20
8.616
 30
0.0
 10
-154.0531
 20
8.616
 30
0.0
 10
-153.9392
 20
8.089
 30
0.0
 10
-153.1183
 20
7.7734
 30
0.0
 10
-152.2918
 20
7.6405
 30
0.0
 10
-152.2918
 20
7.6405
 30
0.0
 10
-144.8386
 20
6.4511
 30
0.0
 10
-136.9045
 20
1.9006
 30
0.0
 10
-135.3279
 20
-0.1755
 30
0.0
 10
-135.3279
 20
-0.1755
 30
0.0
 10
-135.8213
 20
3.3052
 30
0.0
 10
-135.3514
 20
7.1622
 30
0.0
 10
-131.7017
 20
8.616
 30
0.0
 10
-131.7017
 20
8.616
 30
0.0
 10
-135.3515
 20
10.0673
 30
0.0
 10
-135.8213
 20
13.9266
 30
0.0
 10
-135.3279
 20
17.4053
 30
0.0
  0
SPLINE
  5
9C
330
1F
100
AcDbEntity
  8
layer 1
 62
     7
100
AcDbSpline
210
0.0
220
0.0
230
1.0
 70
    11
 71
     3
 72
    36
 73
    32
 74
     0
 42
0.0000000001
 43
0.0000000001
 12
1.0
 22
0.0
 32
0.0
 13
1.0
 23
0.0
 33
0.0
 40
0.0
 40
0.0
 40
0.0
 40
0.0
 40
0.1111111111111111
 40
0.1111111111111111
 40
0.1111111111111111
 40
0.1111111111111111
 40
0.2222222222222222
 40
0.2222222222222222
 40
0.2222222222222222
 40
0.2222222222222222
 40
0.3333333333333333
 40
0.3333333333333333
 40
0.3333333333333333
 40
0.3333333333333333
 40
0.4444444444444444
 40
0.4444444444444444
 40
0.4444444444444444
 40
0.4444444444444444
 40
0.5555555555555556
 40
0.5555555555555556
 40
0.5555555555555556
 40
0.5555555555555556
 40
0.6666666666666666
 40
0.6666666666666666
 40
0.6666666666666666
 40
0.6666666666666666
 40
0.7777777777777778
 40
0.7777777777777778
 40
0.7777777777777778
 40
0.7777777777777778
 40
1.0
 40
1.0
 40
1.0
 40
1.0
 10
-156.6192
 20
10.6925
 30
0.0
 10
-163.2753
 20
11.515
 30
0.0
 10
-167.8668
 20
13.2761
 30
0.0
 10
-172.4784
 20
15.0158
 30
0.0
 10
-172.4784
 20
15.0158
 30
0.0
 10
-180.11
 20
16.8728
 30
0.0
 10
-178.6195
 20
8.6511
 30
0.0
 10
-174.402
 20
11.0
 30
0.0
 10
-174.402
 20
11.0
 30
0.0
 10
-174.0941
 20
9.9655
 30
0.0
 10
-174.4096
 20
8.6511
 30
0.0
 10
-176.1962
 20
8.616
 30
0.0
 10
-176.1962
 20
8.616
 30
0.0
 10
-174.4097
 20
8.5789
 30
0.0
 10
-174.0941
 20
7.2644
 30
0.0
 10
-174.402
 20
6.2298
 30
0.0
 10
-174.402
 20
6.2298
 30
0.0
 10
-178.6195
 20
8.5809
 30
0.0
 10
-180.1098
 20
0.3571
 30
0.0
 10
-172.4784
 20
2.216
 30
0.0
 10
-172.4784
 20
2.216
 30
0.0
 10
-167.8668
 20
3.9557
 30
0.0
 10
-163.2753
 20
5.7169
 30
0.0
 10
-156.6192
 20
6.5373
 30
0.0
 10
-156.6192
 20
6.5373
 30
0.0
 10
-157.0479
 20
7.1292
 30
0.0
 10
-156.8579
 20
8.2317
 30
0.0
 10
-156.2976
 20
8.616
 30
0.0
 10
-156.2976
 20
8.616
 30
0.0
 10
-156.8579
 20
8.9981
 30
0.0
 10
-157.0479
 20
10.1007
 30
0.0
 10
-156.6192
 20
10.6925
 30
0.0
  0
SPLINE
  5
9D
330
1F
100
AcDbEntity
  8
layer 1
 62
     7
100
AcDbSpline
210
0.0
220
0.0
230
1.0
 70
    11
 71
     3
 72
    28
 73
    24
 74
     0
 42
0.0000000001
 43
0.0000000001
 12
1.0
 22
0.0
 32
0.0
 13
1.0
 23
0.0
 33
0.0
 40
0.0
 40
0.0
 40
0.0
 40
0.0
 40
0.1428571428571428
 40
0.1428571428571428
 40
0.1428571428571428
 40
0.1428571428571428
 40
0.2857142857142857
 40
0.2857142857142857
 40
0.2857142857142857
 40
0.2857142857142857
 40
0.4285714285714285
 40
0.4285714285714285
 40
0.4285714285714285
 40
0.4285714285714285
 40
0.5714285714285714
 40
0.5714285714285714
 40
0.5714285714285714
 40
0.5714285714285714
 40
0.7142857142857143
 40
0.7142857142857143
 40
0.7142857142857143
 40
0.7142857142857143
 40
1.0
 40
1.0
 40
1.0
 40
1.0
 10
-177.6928
 20
112.3728
 30
0.0
 10
-178.6526
 20
111.6245
 30
0.0
 10
-180.2999
 20
108.4391
 30
0.0
 10
-178.1511
 20
107.7751
 30
0.0
 10
-178.1511
 20
107.7751
 30
0.0
 10
-176.1216
 20
111.5599
 30
0.0
 10
-171.7908
 20
107.0053
 30
0.0
 10
-175.2676
 20
105.0054
 30
0.0
 10
-175.2676
 20
105.0054
 30
0.0
 10
-173.2772
 20
105.172
 30
0.0
 10
-172.7447
 20
105.1052
 30
0.0
 10
-171.3931
 20
105.2697
 30
0.0
 10
-171.3931
 20
105.2697
 30
0.0
 10
-169.4324
 20
105.9201
 30
0.0
 10
-168.5468
 20
108.0319
 30
0.0
 10
-170.6936
 20
108.5765
 30
0.0
 10
-170.6936
 20
108.5765
 30
0.0
 10
-169.9373
 20
109.8242
 30
0.0
 10
-168.4058
 20
109.3638
 30
0.0
 10
-167.9491
 20
109.2013
 30
0.0
 10
-167.9491
 20
109.2013
 30
0.0
 10
-169.4225
 20
112.0891
 30
0.0
 10
-174.0023
 20
114.4002
 30
0.0
 10
-177.6928
 20
112.3728
 30
0.0
  0
SPLINE
  5
9E
330
1F
100
AcDbEntity
  8
layer 1
 62
     7
100
AcDbSpline
210
0.0
220
0.0
230
1.0
 70
    11
 71
     3
 72
    20
 73
    16
 74
     0
 42
0.0000000001
 43
0.0000000001
 12
1.0
 22
0.0
 32
0.0
 13
1.0
 23
0.0
 33
0.0
 40
0.0
 40
0.0
 40
0.0
 40
0.0
 40
0.2
 40
0.2
 40
0.2
 40
0.2
 40
0.4
 40
0.4
 40
0.4
 40
0.4
 40
0.6
 40
0.6
 40
0.6
 40
0.6
 40
1.0
 40
1.0
 40
1.0
 40
1.0
 10
-157.5123
 20
102.6156
 30
0.0
 10
-156.392
 20
105.1309
 30
0.0
 10
-152.9479
 20
108.3865
 30
0.0
 10
-150.7854
 20
105.2853
 30
0.0
 10
-150.7854
 20
105.2853
 30
0.0
 10
-154.5662
 20
101.9595
 30
0.0
 10
-154.2898
 20
94.149
 30
0.0
 10
-149.1791
 20
90.1041
 30
0.0
 10
-149.1791
 20
90.1041
 30
0.0
 10
-151.3145
 20
90.4331
 30
0.0
 10
-154.4171
 20
89.0444
 30
0.0
 10
-154.4036
 20
86.0396
 30
0.0
 10
-154.4036
 20
86.0396
 30
0.0
 10
-156.9832
 20
89.6262
 30
0.0
 10
-159.7002
 20
96.4452
 30
0.0
 10
-157.5123
 20
102.6156
 30
0.0
  0
SPLINE
  5
9F
330
1F
100
AcDbEntity
  8
layer 1
 62
     7
100
AcDbSpline
210
0.0
220
0.0
230
1.0
 70
    11
 71
     3
 72
    32
 73
    28
 74
     0
 42
0.0000000001
 43
0.0000000001
 12
1.0
 22
0.0
 32
0.0
 13
1.0
 23
0.0
 33
0.0
 40
0.0
 40
0.0
 40
0.0
 40
0.0
 40
0.125
 40
0.125
 40
0.125
 40
0.125
 40
0.25
 40
0.25
 40
0.25
 40
0.25
 40
0.375
 40
0.375
 40
0.375
 40
0.375
 40
0.5
 40
0.5
 40
0.5
 40
0.5
 40
0.625
 40
0.625
 40
0.625
 40
0.625
 40
0.75
 40
0.75
 40
0.75
 40
0.75
 40
1.0
 40
1.0
 40
1.0
 40
1.0
 10
-165.7887
 20
94.4901
 30
0.0
 10
-165.4363
 20
93.0759
 30
0.0
 10
-163.0912
 20
93.0422
 30
0.0
 10
-162.1314
 20
93.8592
 30
0.0
 10
-162.1314
 20
93.8592
 30
0.0
 10
-161.5201
 20
90.3999
 30
0.0
 10
-160.3626
 20
86.5391
 30
0.0
 10
-155.4948
 20
80.231
 30
0.0
 10
-155.4948
 20
80.231
 30
0.0
 10
-157.8198
 20
81.1051
 30
0.0
 10
-160.3566
 20
79.4712
 30
0.0
 10
-161.142
 20
77.2753
 30
0.0
 10
-161.142
 20
77.2753
 30
0.0
 10
-161.3402
 20
80.3959
 30
0.0
 10
-168.5724
 20
84.2117
 30
0.0
 10
-166.5504
 20
89.1091
 30
0.0
 10
-166.5504
 20
89.1091
 30
0.0
 10
-168.5744
 20
89.3284
 30
0.0
 10
-171.2483
 20
87.8689
 30
0.0
 10
-170.3862
 20
85.6865
 30
0.0
 10
-170.3862
 20
85.6865
 30
0.0
 10
-172.6449
 20
86.9954
 30
0.0
 10
-174.6958
 20
88.7426
 30
0.0
 10
-176.0157
 20
89.7395
 30
0.0
 10
-176.0157
 20
89.7395
 30
0.0
 10
-172.9212
 20
93.932
 30
0.0
 10
-167.8356
 20
89.2089
 30
0.0
 10
-165.7887
 20
94.4901
 30
0.0
  0
SPLINE
  5
A0
330
1F
100
AcDbEntity
  8
layer 1
 62
     7
100
AcDbSpline
210
0.0
220
0.0
230
1.0
 70
    11
 71
     3
 72
    16
 73
    12
 74
     0
 42
0.0000000001
 43
0.0000000001
 12
1.0
 22
0.0
 32
0.0
 13
1.0
 23
0.0
 33
0.0
 40
0.0
 40
0.0
 40
0.0
 40
0.0
 40
0.25
 40
0.25
 40
0.25
 40
0.25
 40
0.5
 40
0.5
 40
0.5
 40
0.5
 40
1.0
 40
1.0
 40
1.0
 40
1.0
 10
-168.8035
 20
103.8361
 30
0.0
 10
-167.7596
 20
104.1515
 30
0.0
 10
-166.4035
 20
105.205
 30
0.0
 10
-166.3332
 20
106.9623
 30
0.0
 10
-166.3332
 20
106.9623
 30
0.0
 10
-165.4206
 20
104.4394
 30
0.0
 10
-163.4868
 20
99.4164
 30
0.0
 10
-162.2292
 20
94.5371
 30
0.0
 10
-162.2292
 20
94.5371
 30
0.0
 10
-166.576
 20
94.7446
 30
0.0
 10
-163.387
 20
100.6331
 30
0.0
 10
-168.8035
 20
103.8361
 30
0.0
  0
SPLINE
  5
A1
330
1F
100
AcDbEntity
  8
layer 1
 62
     7
100
AcDbSpline
210
0.0
220
0.0
230
1.0
 70
    11
 71
     3
 72
    28
 73
    24
 74
     0
 42
0.0000000001
 43
0.0000000001
 12
1.0
 22
0.0
 32
0.0
 13
1.0
 23
0.0
 33
0.0
 40
0.0
 40
0.0
 40
0.0
 40
0.0
 40
0.1428571428571428
 40
0.1428571428571428
 40
0.1428571428571428
 40
0.1428571428571428
 40
0.2857142857142857
 40
0.2857142857142857
 40
0.2857142857142857
 40
0.2857142857142857
 40
0.4285714285714285
 40
0.4285714285714285
 40
0.4285714285714285
 40
0.4285714285714285
 40
0.5714285714285714
 40
0.5714285714285714
 40
0.5714285714285714
 40
0.5714285714285714
 40
0.7142857142857143
 40
0.7142857142857143
 40
0.7142857142857143
 40
0.7142857142857143
 40
1.0
 40
1.0
 40
1.0
 40
1.0
 10
-170.5251
 20
93.9023
 30
0.0
 10
-172.3981
 20
93.7459
 30
0.0
 10
-172.9246
 20
95.1168
 30
0.0
 10
-172.4253
 20
95.9649
 30
0.0
 10
-172.4253
 20
95.9649
 30
0.0
 10
-171.9555
 20
96.7643
 30
0.0
 10
-170.5291
 20
97.0721
 30
0.0
 10
-169.8691
 20
96.0786
 30
0.0
 10
-169.8691
 20
96.0786
 30
0.0
 10
-168.8307
 20
96.9955
 30
0.0
 10
-170.494
 20
99.9084
 30
0.0
 10
-172.8013
 20
99.589
 30
0.0
 10
-172.8013
 20
99.589
 30
0.0
 10
-172.2842
 20
100.3117
 30
0.0
 10
-172.4644
 20
101.5241
 30
0.0
 10
-172.8013
 20
102.2514
 30
0.0
 10
-172.8013
 20
102.2514
 30
0.0
 10
-171.7533
 20
102.1101
 30
0.0
 10
-169.1386
 20
100.8446
 30
0.0
 10
-168.2334
 20
98.8544
 30
0.0
 10
-168.2334
 20
98.8544
 30
0.0
 10
-167.3537
 20
96.9233
 30
0.0
 10
-168.1296
 20
94.2669
 30
0.0
 10
-170.5251
 20
93.9023
 30
0.0
  0
SPLINE
  5
A2
330
1F
100
AcDbEntity
  8
layer 1
 62
     7
100
AcDbSpline
210
0.0
220
0.0
230
1.0
 70
    11
 71
     3
 72
    20
 73
    16
 74
     0
 42
0.0000000001
 43
0.0000000001
 12
1.0
 22
0.0
 32
0.0
 13
1.0
 23
0.0
 33
0.0
 40
0.0
 40
0.0
 40
0.0
 40
0.0
 40
0.2
 40
0.2
 40
0.2
 40
0.2
 40
0.4
 40
0.4
 40
0.4
 40
0.4
 40
0.6
 40
0.6
 40
0.6
 40
0.6
 40
1.0
 40
1.0
 40
1.0
 40
1.0
 10
-181.8831
 20
124.9863
 30
0.0
 10
-181.8831
 20
124.9863
 30
0.0
 10
-181.8831
 20
122.1184
 30
0.0
 10
-181.8831
 20
122.1184
 30
0.0
 10
-181.8831
 20
122.1184
 30
0.0
 10
-181.8831
 20
122.1184
 30
0.0
 10
-131.976
 20
122.1184
 30
0.0
 10
-131.976
 20
122.1184
 30
0.0
 10
-131.976
 20
122.1184
 30
0.0
 10
-131.2689
 20
123.3583
 30
0.0
 10
-130.2288
 20
124.185
 30
0.0
 10
-129.0339
 20
124.9863
 30
0.0
 10
-129.0339
 20
124.9863
 30
0.0
 10
-129.0339
 20
124.9863
 30
0.0
 10
-181.8831
 20
124.9863
 30
0.0
 10
-181.8831
 20
124.9863
 30
0.0
  0
SPLINE
  5
A3
330
1F
100
AcDbEntity
  8
layer 1
 62
     7
100
AcDbSpline
210
0.0
220
0.0
230
1.0
 70
    11
 71
     3
 72
    20
 73
    16
 74
     0
 42
0.0000000001
 43
0.0000000001
 12
1.0
 22
0.0
 32
0.0
 13
1.0
 23
0.0
 33
0.0
 40
0.0
 40
0.0
 40
0.0
 40
0.0
 40
0.2
 40
0.2
 40
0.2
 40
0.2
 40
0.4
 40
0.4
 40
0.4
 40
0.4
 40
0.6
 40
0.6
 40
0.6
 40
0.6
 40
1.0
 40
1.0
 40
1.0
 40
1.0
 10
-69.0366
 20
36.9299
 30
0.0
 10
-69.1485
 20
44.8594
 30
0.0
 10
-69.1483
 20
46.6245
 30
0.0
 10
-69.0366
 20
60.0154
 30
0.0
 10
-69.0366
 20
60.0154
 30
0.0
 10
-72.6823
 20
60.1583
 30
0.0
 10
-72.9681
 20
56.3385
 30
0.0
 10
-72.0844
 20
50.8634
 30
0.0
 10
-72.0844
 20
50.8634
 30
0.0
 10
-71.2014
 20
45.3804
 30
0.0
 10
-69.9984
 20
41.4547
 30
0.0
 10
-70.3313
 20
36.8847
 30
0.0
 10
-70.3313
 20
36.8847
 30
0.0
 10
-70.3313
 20
36.8847
 30
0.0
 10
-69.0366
 20
36.9299
 30
0.0
 10
-69.0366
 20
36.9299
 30
0.0
  0
SPLINE
  5
A4
330
1F
100
AcDbEntity
  8
layer 1
 62
     7
100
AcDbSpline
210
0.0
220
0.0
230
1.0
 70
    11
 71
     3
 72
    20
 73
    16
 74
     0
 42
0.0000000001
 43
0.0000000001
 12
1.0
 22
0.0
 32
0.0
 13
1.0
 23
0.0
 33
0.0
 40
0.0
 40
0.0
 40
0.0
 40
0.0
 40
0.2
 40
0.2
 40
0.2
 40
0.2
 40
0.4
 40
0.4
 40
0.4
 40
0.4
 40
0.6
 40
0.6
 40
0.6
 40
0.6
 40
1.0
 40
1.0
 40
1.0
 40
1.0
 10
-69.0366
 20
33.0043
 30
0.0
 10
-69.1485
 20
25.0725
 30
0.0
 10
-69.1483
 20
28.5281
 30
0.0
 10
-69.0366
 20
15.1372
 30
0.0
 10
-69.0366
 20
15.1372
 30
0.0
 10
-69.6399
 20
16.7744
 30
0.0
 10
-72.7113
 20
19.3154
 30
0.0
 10
-77.1349
 20
18.7238
 30
0.0
 10
-77.1349
 20
18.7238
 30
0.0
 10
-73.0369
 20
23.1177
 30
0.0
 10
-71.3754
 20
27.2744
 30
0.0
 10
-70.3313
 20
33.0475
 30
0.0
 10
-70.3313
 20
33.0475
 30
0.0
 10
-70.3313
 20
33.0475
 30
0.0
 10
-69.0366
 20
33.0043
 30
0.0
 10
-69.0366
 20
33.0043
 30
0.0
  0
SPLINE
  5
A5
330
1F
100
AcDbEntity
  8
layer 1
 62
     7
100
AcDbSpline
210
0.0
220
0.0
230
1.0
 70
    11
 71
     3
 72
    24
 73
    20
 74
     0
 42
0.0000000001
 43
0.0000000001
 12
1.0
 22
0.0
 32
0.0
 13
1.0
 23
0.0
 33
0.0
 40
0.0
 40
0.0
 40
0.0
 40
0.0
 40
0.1666666666666667
 40
0.1666666666666667
 40
0.1666666666666667
 40
0.1666666666666667
 40
0.3333333333333333
 40
0.3333333333333333
 40
0.3333333333333333
 40
0.3333333333333333
 40
0.5
 40
0.5
 40
0.5
 40
0.5
 40
0.6666666666666666
 40
0.6666666666666666
 40
0.6666666666666666
 40
0.6666666666666666
 40
1.0
 40
1.0
 40
1.0
 40
1.0
 10
-79.8243
 20
51.3064
 30
0.0
 10
-74.4571
 20
45.3903
 30
0.0
 10
-73.2208
 20
36.9629
 30
0.0
 10
-75.9224
 20
28.9649
 30
0.0
 10
-75.9224
 20
28.9649
 30
0.0
 10
-76.2378
 20
30.8319
 30
0.0
 10
-78.506
 20
33.3724
 30
0.0
 10
-82.929
 20
32.0931
 30
0.0
 10
-82.929
 20
32.0931
 30
0.0
 10
-80.3669
 20
39.1475
 30
0.0
 10
-82.5549
 20
42.9651
 30
0.0
 10
-84.0067
 20
46.9689
 30
0.0
 10
-84.0067
 20
46.9689
 30
0.0
 10
-85.5813
 20
50.5797
 30
0.0
 10
-81.0039
 20
51.3628
 30
0.0
 10
-81.405
 20
48.5967
 30
0.0
 10
-81.405
 20
48.5967
 30
0.0
 10
-79.9146
 20
48.8145
 30
0.0
 10
-79.7401
 20
50.1072
 30
0.0
 10
-79.8243
 20
51.3064
 30
0.0
  0
SPLINE
  5
A6
330
1F
100
AcDbEntity
  8
layer 1
 62
     7
100
AcDbSpline
210
0.0
220
0.0
230
1.0
 70
    11
 71
     3
 72
    28
 73
    24
 74
     0
 42
0.0000000001
 43
0.0000000001
 12
1.0
 22
0.0
 32
0.0
 13
1.0
 23
0.0
 33
0.0
 40
0.0
 40
0.0
 40
0.0
 40
0.0
 40
0.1428571428571428
 40
0.1428571428571428
 40
0.1428571428571428
 40
0.1428571428571428
 40
0.2857142857142857
 40
0.2857142857142857
 40
0.2857142857142857
 40
0.2857142857142857
 40
0.4285714285714285
 40
0.4285714285714285
 40
0.4285714285714285
 40
0.4285714285714285
 40
0.5714285714285714
 40
0.5714285714285714
 40
0.5714285714285714
 40
0.5714285714285714
 40
0.7142857142857143
 40
0.7142857142857143
 40
0.7142857142857143
 40
0.7142857142857143
 40
1.0
 40
1.0
 40
1.0
 40
1.0
 10
-100.0756
 20
14.9215
 30
0.0
 10
-95.3681
 20
14.2851
 30
0.0
 10
-89.4347
 20
15.6601
 30
0.0
 10
-85.4559
 20
18.3415
 30
0.0
 10
-85.4559
 20
18.3415
 30
0.0
 10
-80.5375
 20
21.6605
 30
0.0
 10
-78.4884
 20
26.7594
 30
0.0
 10
-84.0126
 20
29.9779
 30
0.0
 10
-84.0126
 20
29.9779
 30
0.0
 10
-87.3114
 20
25.6427
 30
0.0
 10
-91.5309
 20
22.2987
 30
0.0
 10
-98.8785
 20
23.0625
 30
0.0
 10
-98.8785
 20
23.0625
 30
0.0
 10
-96.3751
 20
21.0566
 30
0.0
 10
-96.5551
 20
19.1315
 30
0.0
 10
-94.2769
 20
17.4821
 30
0.0
 10
-94.2769
 20
17.4821
 30
0.0
 10
-96.5396
 20
15.5349
 30
0.0
 10
-98.6182
 20
17.8616
 30
0.0
 10
-98.6182
 20
17.8616
 30
0.0
 10
-98.6182
 20
17.8616
 30
0.0
 10
-98.8474
 20
16.6101
 30
0.0
 10
-99.3037
 20
15.8914
 30
0.0
 10
-100.0756
 20
14.9215
 30
0.0
  0
SPLINE
  5
A7
330
1F
100
AcDbEntity
  8
layer 1
 62
     7
100
AcDbSpline
210
0.0
220
0.0
230
1.0
 70
    11
 71
     3
 72
    24
 73
    20
 74
     0
 42
0.0000000001
 43
0.0000000001
 12
1.0
 22
0.0
 32
0.0
 13
1.0
 23
0.0
 33
0.0
 40
0.0
 40
0.0
 40
0.0
 40
0.0
 40
0.1666666666666667
 40
0.1666666666666667
 40
0.1666666666666667
 40
0.1666666666666667
 40
0.3333333333333333
 40
0.3333333333333333
 40
0.3333333333333333
 40
0.3333333333333333
 40
0.5
 40
0.5
 40
0.5
 40
0.5
 40
0.6666666666666666
 40
0.6666666666666666
 40
0.6666666666666666
 40
0.6666666666666666
 40
1.0
 40
1.0
 40
1.0
 40
1.0
 10
-106.1696
 20
16.8101
 30
0.0
 10
-112.0403
 20
18.9393
 30
0.0
 10
-118.1347
 20
24.3733
 30
0.0
 10
-121.3236
 20
34.2244
 30
0.0
 10
-121.3236
 20
34.2244
 30
0.0
 10
-119.2862
 20
33.5921
 30
0.0
 10
-115.8013
 20
33.1001
 30
0.0
 10
-114.6243
 20
36.3637
 30
0.0
 10
-114.6243
 20
36.3637
 30
0.0
 10
-113.1806
 20
29.0
 30
0.0
 10
-107.4998
 20
25.9385
 30
0.0
 10
-104.1911
 20
23.2565
 30
0.0
 10
-104.1911
 20
23.2565
 30
0.0
 10
-98.3419
 20
20.289
 30
0.0
 10
-103.6365
 20
14.1006
 30
0.0
 10
-105.3505
 20
19.488
 30
0.0
 10
-105.3505
 20
19.488
 30
0.0
 10
-106.5732
 20
18.9921
 30
0.0
 10
-106.859
 20
17.7935
 30
0.0
 10
-106.1696
 20
16.8101
 30
0.0
  0
SPLINE
  5
A8
330
1F
100
AcDbEntity
  8
layer 1
 62
     7
100
AcDbSpline
210
0.0
220
0.0
230
1.0
 70
    11
 71
     3
 72
    20
 73
    16
 74
     0
 42
0.0000000001
 43
0.0000000001
 12
1.0
 22
0.0
 32
0.0
 13
1.0
 23
0.0
 33
0.0
 40
0.0
 40
0.0
 40
0.0
 40
0.0
 40
0.2
 40
0.2
 40
0.2
 40
0.2
 40
0.4
 40
0.4
 40
0.4
 40
0.4
 40
0.6
 40
0.6
 40
0.6
 40
0.6
 40
1.0
 40
1.0
 40
1.0
 40
1.0
 10
-110.7083
 20
40.881
 30
0.0
 10
-107.6389
 20
34.7967
 30
0.0
 10
-98.704
 20
32.7575
 30
0.0
 10
-97.4704
 20
40.6674
 30
0.0
 10
-97.4704
 20
40.6674
 30
0.0
 10
-94.0167
 20
35.9405
 30
0.0
 10
-88.2787
 20
40.1093
 30
0.0
 10
-89.7345
 20
43.5684
 30
0.0
 10
-89.7345
 20
43.5684
 30
0.0
 10
-83.8833
 20
41.402
 30
0.0
 10
-84.3592
 20
29.8209
 30
0.0
 10
-95.2528
 20
27.3486
 30
0.0
 10
-95.2528
 20
27.3486
 30
0.0
 10
-103.6055
 20
25.8933
 30
0.0
 10
-111.0454
 20
33.3352
 30
0.0
 10
-110.7083
 20
40.881
 30
0.0
  0
SPLINE
  5
A9
330
1F
100
AcDbEntity
  8
layer 1
 62
     7
100
AcDbSpline
210
0.0
220
0.0
230
1.0
 70
    11
 71
     3
 72
    28
 73
    24
 74
     0
 42
0.0000000001
 43
0.0000000001
 12
1.0
 22
0.0
 32
0.0
 13
1.0
 23
0.0
 33
0.0
 40
0.0
 40
0.0
 40
0.0
 40
0.0
 40
0.1428571428571428
 40
0.1428571428571428
 40
0.1428571428571428
 40
0.1428571428571428
 40
0.2857142857142857
 40
0.2857142857142857
 40
0.2857142857142857
 40
0.2857142857142857
 40
0.4285714285714285
 40
0.4285714285714285
 40
0.4285714285714285
 40
0.4285714285714285
 40
0.5714285714285714
 40
0.5714285714285714
 40
0.5714285714285714
 40
0.5714285714285714
 40
0.7142857142857143
 40
0.7142857142857143
 40
0.7142857142857143
 40
0.7142857142857143
 40
1.0
 40
1.0
 40
1.0
 40
1.0
 10
-101.2996
 20
45.1221
 30
0.0
 10
-100.1813
 20
45.1828
 30
0.0
 10
-98.9922
 20
44.5242
 30
0.0
 10
-98.3298
 20
43.443
 30
0.0
 10
-98.3298
 20
43.443
 30
0.0
 10
-98.3203
 20
48.6264
 30
0.0
 10
-91.5503
 20
50.3108
 30
0.0
 10
-87.2662
 20
47.9428
 30
0.0
 10
-87.2662
 20
47.9428
 30
0.0
 10
-88.5079
 20
50.5911
 30
0.0
 10
-87.0977
 20
54.3852
 30
0.0
 10
-82.8878
 20
54.2208
 30
0.0
 10
-82.8878
 20
54.2208
 30
0.0
 10
-89.8479
 20
58.6775
 30
0.0
 10
-96.3691
 20
58.3385
 30
0.0
 10
-101.106
 20
56.1289
 30
0.0
 10
-101.106
 20
56.1289
 30
0.0
 10
-104.9299
 20
53.8824
 30
0.0
 10
-107.4096
 20
51.6453
 30
0.0
 10
-106.6359
 20
45.782
 30
0.0
 10
-106.6359
 20
45.782
 30
0.0
 10
-106.1579
 20
42.1737
 30
0.0
 10
-102.1105
 20
40.5811
 30
0.0
 10
-101.2996
 20
45.1221
 30
0.0
  0
SPLINE
  5
AA
330
1F
100
AcDbEntity
  8
layer 1
 62
     7
100
AcDbSpline
210
0.0
220
0.0
230
1.0
 70
    11
 71
     3
 72
    28
 73
    24
 74
     0
 42
0.0000000001
 43
0.0000000001
 12
1.0
 22
0.0
 32
0.0
 13
1.0
 23
0.0
 33
0.0
 40
0.0
 40
0.0
 40
0.0
 40
0.0
 40
0.1428571428571428
 40
0.1428571428571428
 40
0.1428571428571428
 40
0.1428571428571428
 40
0.2857142857142857
 40
0.2857142857142857
 40
0.2857142857142857
 40
0.2857142857142857
 40
0.4285714285714285
 40
0.4285714285714285
 40
0.4285714285714285
 40
0.4285714285714285
 40
0.5714285714285714
 40
0.5714285714285714
 40
0.5714285714285714
 40
0.5714285714285714
 40
0.7142857142857143
 40
0.7142857142857143
 40
0.7142857142857143
 40
0.7142857142857143
 40
1.0
 40
1.0
 40
1.0
 40
1.0
 10
-121.9721
 20
39.9051
 30
0.0
 10
-122.254
 20
46.1426
 30
0.0
 10
-118.6714
 20
55.5317
 30
0.0
 10
-113.9835
 20
56.1054
 30
0.0
 10
-113.9835
 20
56.1054
 30
0.0
 10
-112.1365
 20
56.2429
 30
0.0
 10
-110.8748
 20
53.5238
 30
0.0
 10
-113.968
 20
51.7526
 30
0.0
 10
-113.968
 20
51.7526
 30
0.0
 10
-113.6625
 20
51.4492
 30
0.0
 10
-113.1199
 20
51.2866
 30
0.0
 10
-112.2068
 20
51.3298
 30
0.0
 10
-112.2068
 20
51.3298
 30
0.0
 10
-114.2969
 20
47.9057
 30
0.0
 10
-114.5456
 20
46.2619
 30
0.0
 10
-115.4252
 20
41.9662
 30
0.0
 10
-115.4252
 20
41.9662
 30
0.0
 10
-116.4457
 20
35.8035
 30
0.0
 10
-122.1345
 20
37.829
 30
0.0
 10
-119.3979
 20
41.1925
 30
0.0
 10
-119.3979
 20
41.1925
 30
0.0
 10
-120.8693
 20
41.1143
 30
0.0
 10
-121.3276
 20
40.9201
 30
0.0
 10
-121.9721
 20
39.9051
 30
0.0
  0
SPLINE
  5
AB
330
1F
100
AcDbEntity
  8
layer 1
 62
     7
100
AcDbSpline
210
0.0
220
0.0
230
1.0
 70
    11
 71
     3
 72
    28
 73
    24
 74
     0
 42
0.0000000001
 43
0.0000000001
 12
1.0
 22
0.0
 32
0.0
 13
1.0
 23
0.0
 33
0.0
 40
0.0
 40
0.0
 40
0.0
 40
0.0
 40
0.1428571428571428
 40
0.1428571428571428
 40
0.1428571428571428
 40
0.1428571428571428
 40
0.2857142857142857
 40
0.2857142857142857
 40
0.2857142857142857
 40
0.2857142857142857
 40
0.4285714285714285
 40
0.4285714285714285
 40
0.4285714285714285
 40
0.4285714285714285
 40
0.5714285714285714
 40
0.5714285714285714
 40
0.5714285714285714
 40
0.5714285714285714
 40
0.7142857142857143
 40
0.7142857142857143
 40
0.7142857142857143
 40
0.7142857142857143
 40
1.0
 40
1.0
 40
1.0
 40
1.0
 10
-113.5468
 20
61.0851
 30
0.0
 10
-109.8227
 20
65.2966
 30
0.0
 10
-108.1267
 20
66.9969
 30
0.0
 10
-105.188
 20
69.9647
 30
0.0
 10
-105.188
 20
69.9647
 30
0.0
 10
-105.5528
 20
68.9051
 30
0.0
 10
-105.1664
 20
67.3379
 30
0.0
 10
-104.2066
 20
66.4874
 30
0.0
 10
-104.2066
 20
66.4874
 30
0.0
 10
-106.0637
 20
65.9079
 30
0.0
 10
-106.8118
 20
65.7433
 30
0.0
 10
-107.9246
 20
65.9704
 30
0.0
 10
-107.9246
 20
65.9704
 30
0.0
 10
-105.4564
 20
62.0409
 30
0.0
 10
-100.4105
 20
62.9751
 30
0.0
 10
-96.4553
 20
61.9487
 30
0.0
 10
-96.4553
 20
61.9487
 30
0.0
 10
-98.1675
 20
61.9094
 30
0.0
 10
-103.6702
 20
60.8498
 30
0.0
 10
-108.6241
 20
56.0642
 30
0.0
 10
-108.6241
 20
56.0642
 30
0.0
 10
-108.8002
 20
59.4081
 30
0.0
 10
-111.9074
 20
61.226
 30
0.0
 10
-113.5468
 20
61.0851
 30
0.0
  0
SPLINE
  5
AC
330
1F
100
AcDbEntity
  8
layer 1
 62
     7
100
AcDbSpline
210
0.0
220
0.0
230
1.0
 70
    11
 71
     3
 72
    32
 73
    28
 74
     0
 42
0.0000000001
 43
0.0000000001
 12
1.0
 22
0.0
 32
0.0
 13
1.0
 23
0.0
 33
0.0
 40
0.0
 40
0.0
 40
0.0
 40
0.0
 40
0.125
 40
0.125
 40
0.125
 40
0.125
 40
0.25
 40
0.25
 40
0.25
 40
0.25
 40
0.375
 40
0.375
 40
0.375
 40
0.375
 40
0.5
 40
0.5
 40
0.5
 40
0.5
 40
0.625
 40
0.625
 40
0.625
 40
0.625
 40
0.75
 40
0.75
 40
0.75
 40
0.75
 40
1.0
 40
1.0
 40
1.0
 40
1.0
 10
-101.9422
 20
73.2871
 30
0.0
 10
-98.2206
 20
77.4984
 30
0.0
 10
-100.5299
 20
74.7327
 30
0.0
 10
-97.5916
 20
77.7004
 30
0.0
 10
-97.5916
 20
77.7004
 30
0.0
 10
-97.9557
 20
76.6404
 30
0.0
 10
-97.6618
 20
74.7504
 30
0.0
 10
-96.702
 20
73.8997
 30
0.0
 10
-96.702
 20
73.8997
 30
0.0
 10
-95.995
 20
78.3174
 30
0.0
 10
-92.9529
 20
75.7358
 30
0.0
 10
-92.6396
 20
74.7639
 30
0.0
 10
-92.6396
 20
74.7639
 30
0.0
 10
-90.8137
 20
70.7446
 30
0.0
 10
-91.938
 20
68.7758
 30
0.0
 10
-86.5101
 20
60.6147
 30
0.0
 10
-86.5101
 20
60.6147
 30
0.0
 10
-93.654
 20
63.3356
 30
0.0
 10
-96.5806
 20
63.4745
 30
0.0
 10
-101.4405
 20
66.2388
 30
0.0
 10
-101.4405
 20
66.2388
 30
0.0
 10
-105.3566
 20
69.1358
 30
0.0
 10
-98.9922
 20
72.4977
 30
0.0
 10
-99.2842
 20
67.5315
 30
0.0
 10
-99.2842
 20
67.5315
 30
0.0
 10
-95.5778
 20
68.7367
 30
0.0
 10
-97.4974
 20
73.8587
 30
0.0
 10
-101.9422
 20
73.2871
 30
0.0
  0
SPLINE
  5
AD
330
1F
100
AcDbEntity
  8
layer 1
 62
     7
100
AcDbSpline
210
0.0
220
0.0
230
1.0
 70
    11
 71
     3
 72
    20
 73
    16
 74
     0
 42
0.0000000001
 43
0.0000000001
 12
1.0
 22
0.0
 32
0.0
 13
1.0
 23
0.0
 33
0.0
 40
0.0
 40
0.0
 40
0.0
 40
0.0
 40
0.2
 40
0.2
 40
0.2
 40
0.2
 40
0.4
 40
0.4
 40
0.4
 40
0.4
 40
0.6
 40
0.6
 40
0.6
 40
0.6
 40
1.0
 40
1.0
 40
1.0
 40
1.0
 10
-110.4887
 20
70.7993
 30
0.0
 10
-112.8769
 20
71.5595
 30
0.0
 10
-112.1326
 20
73.6726
 30
0.0
 10
-114.2894
 20
75.859
 30
0.0
 10
-114.2894
 20
75.859
 30
0.0
 10
-114.2303
 20
72.4681
 30
0.0
 10
-115.1219
 20
68.0862
 30
0.0
 10
-120.1676
 20
67.888
 30
0.0
 10
-120.1676
 20
67.888
 30
0.0
 10
-118.8243
 20
67.0658
 30
0.0
 10
-117.878
 20
65.5
 30
0.0
 10
-117.4392
 20
63.2007
 30
0.0
 10
-117.4392
 20
63.2007
 30
0.0
 10
-114.9122
 20
66.2232
 30
0.0
 10
-113.7407
 20
67.4884
 30
0.0
 10
-110.4887
 20
70.7993
 30
0.0
  0
SPLINE
  5
AE
330
1F
100
AcDbEntity
  8
layer 1
 62
     7
100
AcDbSpline
210
0.0
220
0.0
230
1.0
 70
    11
 71
     3
 72
    24
 73
    20
 74
     0
 42
0.0000000001
 43
0.0000000001
 12
1.0
 22
0.0
 32
0.0
 13
1.0
 23
0.0
 33
0.0
 40
0.0
 40
0.0
 40
0.0
 40
0.0
 40
0.1666666666666667
 40
0.1666666666666667
 40
0.1666666666666667
 40
0.1666666666666667
 40
0.3333333333333333
 40
0.3333333333333333
 40
0.3333333333333333
 40
0.3333333333333333
 40
0.5
 40
0.5
 40
0.5
 40
0.5
 40
0.6666666666666666
 40
0.6666666666666666
 40
0.6666666666666666
 40
0.6666666666666666
 40
1.0
 40
1.0
 40
1.0
 40
1.0
 10
-102.8472
 20
89.0795
 30
0.0
 10
-104.1756
 20
87.4438
 30
0.0
 10
-111.6271
 20
86.5195
 30
0.0
 10
-113.5978
 20
87.8751
 30
0.0
 10
-113.5978
 20
87.8751
 30
0.0
 10
-111.5133
 20
85.5888
 30
0.0
 10
-111.1607
 20
82.1742
 30
0.0
 10
-107.7817
 20
80.3663
 30
0.0
 10
-107.7817
 20
80.3663
 30
0.0
 10
-108.4517
 20
79.7943
 30
0.0
 10
-109.6819
 20
79.7942
 30
0.0
 10
-111.1727
 20
80.574
 30
0.0
 10
-111.1727
 20
80.574
 30
0.0
 10
-108.7867
 20
78.9131
 30
0.0
 10
-108.4652
 20
74.4369
 30
0.0
 10
-109.3804
 20
71.902
 30
0.0
 10
-109.3804
 20
71.902
 30
0.0
 10
-99.7191
 20
80.8188
 30
0.0
 10
-98.4532
 20
86.3665
 30
0.0
 10
-102.8472
 20
89.0795
 30
0.0
  0
SPLINE
  5
AF
330
1F
100
AcDbEntity
  8
layer 1
 62
     7
100
AcDbSpline
210
0.0
220
0.0
230
1.0
 70
    11
 71
     3
 72
    20
 73
    16
 74
     0
 42
0.0000000001
 43
0.0000000001
 12
1.0
 22
0.0
 32
0.0
 13
1.0
 23
0.0
 33
0.0
 40
0.0
 40
0.0
 40
0.0
 40
0.0
 40
0.2
 40
0.2
 40
0.2
 40
0.2
 40
0.4
 40
0.4
 40
0.4
 40
0.4
 40
0.6
 40
0.6
 40
0.6
 40
0.6
 40
1.0
 40
1.0
 40
1.0
 40
1.0
 10
-73.1231
 20
99.07
 30
0.0
 10
-73.9711
 20
100.3744
 30
0.0
 10
-76.7608
 20
101.5774
 30
0.0
 10
-77.4228
 20
99.4285
 30
0.0
 10
-77.4228
 20
99.4285
 30
0.0
 10
-74.5293
 20
98.2416
 30
0.0
 10
-74.1375
 20
94.6996
 30
0.0
 10
-76.8802
 20
92.9855
 30
0.0
 10
-76.8802
 20
92.9855
 30
0.0
 10
-75.2659
 20
93.1561
 30
0.0
 10
-74.1532
 20
91.6907
 30
0.0
 10
-74.6135
 20
90.4134
 30
0.0
 10
-74.6135
 20
90.4134
 30
0.0
 10
-72.8137
 20
91.7865
 30
0.0
 10
-71.0956
 20
95.3796
 30
0.0
 10
-73.1231
 20
99.07
 30
0.0
  0
SPLINE
  5
B0
330
1F
100
AcDbEntity
  8
layer 1
 62
     7
100
AcDbSpline
210
0.0
220
0.0
230
1.0
 70
    11
 71
     3
 72
    32
 73
    28
 74
     0
 42
0.0000000001
 43
0.0000000001
 12
1.0
 22
0.0
 32
0.0
 13
1.0
 23
0.0
 33
0.0
 40
0.0
 40
0.0
 40
0.0
 40
0.0
 40
0.125
 40
0.125
 40
0.125
 40
0.125
 40
0.25
 40
0.25
 40
0.25
 40
0.25
 40
0.375
 40
0.375
 40
0.375
 40
0.375
 40
0.5
 40
0.5
 40
0.5
 40
0.5
 40
0.625
 40
0.625
 40
0.625
 40
0.625
 40
0.75
 40
0.75
 40
0.75
 40
0.75
 40
1.0
 40
1.0
 40
1.0
 40
1.0
 10
-77.7361
 20
60.0194
 30
0.0
 10
-81.1211
 20
62.0369
 30
0.0
 10
-79.3525
 20
64.8166
 30
0.0
 10
-76.9058
 20
66.3035
 30
0.0
 10
-76.9058
 20
66.3035
 30
0.0
 10
-74.5629
 20
67.7317
 30
0.0
 10
-72.6331
 20
69.9155
 30
0.0
 10
-72.9722
 20
74.2509
 30
0.0
 10
-72.9722
 20
74.2509
 30
0.0
 10
-71.6186
 20
73.0302
 30
0.0
 10
-69.0426
 20
73.4595
 30
0.0
 10
-69.0346
 20
74.846
 30
0.0
 10
-69.0346
 20
74.846
 30
0.0
 10
-69.0426
 20
71.2711
 30
0.0
 10
-69.0426
 20
67.5531
 30
0.0
 10
-68.9995
 20
62.5484
 30
0.0
 10
-68.9995
 20
62.5484
 30
0.0
 10
-76.1144
 20
66.286
 30
0.0
 10
-76.9388
 20
57.5572
 30
0.0
 10
-74.9801
 20
52.419
 30
0.0
 10
-74.9801
 20
52.419
 30
0.0
 10
-77.5698
 20
55.8919
 30
0.0
 10
-78.6022
 20
56.8696
 30
0.0
 10
-80.9196
 20
59.3103
 30
0.0
 10
-80.9196
 20
59.3103
 30
0.0
 10
-79.7792
 20
58.8223
 30
0.0
 10
-78.3725
 20
58.9241
 30
0.0
 10
-77.7361
 20
60.0194
 30
0.0
  0
SPLINE
  5
B1
330
1F
100
AcDbEntity
  8
layer 1
 62
     7
100
AcDbSpline
210
0.0
220
0.0
230
1.0
 70
    11
 71
     3
 72
    28
 73
    24
 74
     0
 42
0.0000000001
 43
0.0000000001
 12
1.0
 22
0.0
 32
0.0
 13
1.0
 23
0.0
 33
0.0
 40
0.0
 40
0.0
 40
0.0
 40
0.0
 40
0.1428571428571428
 40
0.1428571428571428
 40
0.1428571428571428
 40
0.1428571428571428
 40
0.2857142857142857
 40
0.2857142857142857
 40
0.2857142857142857
 40
0.2857142857142857
 40
0.4285714285714285
 40
0.4285714285714285
 40
0.4285714285714285
 40
0.4285714285714285
 40
0.5714285714285714
 40
0.5714285714285714
 40
0.5714285714285714
 40
0.5714285714285714
 40
0.7142857142857143
 40
0.7142857142857143
 40
0.7142857142857143
 40
0.7142857142857143
 40
1.0
 40
1.0
 40
1.0
 40
1.0
 10
-69.0346
 20
93.3737
 30
0.0
 10
-69.0426
 20
89.7986
 30
0.0
 10
-69.0426
 20
82.8873
 30
0.0
 10
-68.9995
 20
77.8825
 30
0.0
 10
-68.9995
 20
77.8825
 30
0.0
 10
-69.0426
 20
79.4242
 30
0.0
 10
-70.3474
 20
79.2125
 30
0.0
 10
-70.3474
 20
79.2125
 30
0.0
 10
-70.3474
 20
79.2125
 30
0.0
 10
-69.5441
 20
77.1795
 30
0.0
 10
-70.7606
 20
76.2643
 30
0.0
 10
-72.0299
 20
76.6484
 30
0.0
 10
-72.0299
 20
76.6484
 30
0.0
 10
-72.8212
 20
76.8858
 30
0.0
 10
-73.5342
 20
77.9216
 30
0.0
 10
-74.0925
 20
78.6092
 30
0.0
 10
-74.0925
 20
78.6092
 30
0.0
 10
-75.5538
 20
80.4036
 30
0.0
 10
-78.361
 20
82.255
 30
0.0
 10
-81.1973
 20
81.8707
 30
0.0
 10
-81.1973
 20
81.8707
 30
0.0
 10
-76.7528
 20
84.2037
 30
0.0
 10
-72.1788
 20
86.384
 30
0.0
 10
-69.0346
 20
93.3737
 30
0.0
  0
SPLINE
  5
B2
330
1F
100
AcDbEntity
  8
layer 1
 62
     7
100
AcDbSpline
210
0.0
220
0.0
230
1.0
 70
    11
 71
     3
 72
    24
 73
    20
 74
     0
 42
0.0000000001
 43
0.0000000001
 12
1.0
 22
0.0
 32
0.0
 13
1.0
 23
0.0
 33
0.0
 40
0.0
 40
0.0
 40
0.0
 40
0.0
 40
0.1666666666666667
 40
0.1666666666666667
 40
0.1666666666666667
 40
0.1666666666666667
 40
0.3333333333333333
 40
0.3333333333333333
 40
0.3333333333333333
 40
0.3333333333333333
 40
0.5
 40
0.5
 40
0.5
 40
0.5
 40
0.6666666666666666
 40
0.6666666666666666
 40
0.6666666666666666
 40
0.6666666666666666
 40
1.0
 40
1.0
 40
1.0
 40
1.0
 10
-82.7233
 20
61.704
 30
0.0
 10
-83.3171
 20
64.9439
 30
0.0
 10
-81.5364
 20
66.9207
 30
0.0
 10
-78.7175
 20
68.2723
 30
0.0
 10
-78.7175
 20
68.2723
 30
0.0
 10
-80.2395
 20
67.669
 30
0.0
 10
-83.7815
 20
68.8619
 30
0.0
 10
-82.8803
 20
72.6757
 30
0.0
 10
-82.8803
 20
72.6757
 30
0.0
 10
-82.6943
 20
74.4506
 30
0.0
 10
-78.5356
 20
76.2371
 30
0.0
 10
-76.9644
 20
72.5112
 30
0.0
 10
-76.9644
 20
72.5112
 30
0.0
 10
-74.0494
 20
79.9392
 30
0.0
 10
-85.3601
 20
81.4009
 30
0.0
 10
-87.2271
 20
74.0432
 30
0.0
 10
-87.2271
 20
74.0432
 30
0.0
 10
-88.1359
 20
68.5561
 30
0.0
 10
-85.7167
 20
66.0015
 30
0.0
 10
-82.7233
 20
61.704
 30
0.0
  0
SPLINE
  5
B3
330
1F
100
AcDbEntity
  8
layer 1
 62
     7
100
AcDbSpline
210
0.0
220
0.0
230
1.0
 70
    11
 71
     3
 72
    20
 73
    16
 74
     0
 42
0.0000000001
 43
0.0000000001
 12
1.0
 22
0.0
 32
0.0
 13
1.0
 23
0.0
 33
0.0
 40
0.0
 40
0.0
 40
0.0
 40
0.0
 40
0.2
 40
0.2
 40
0.2
 40
0.2
 40
0.4
 40
0.4
 40
0.4
 40
0.4
 40
0.6
 40
0.6
 40
0.6
 40
0.6
 40
1.0
 40
1.0
 40
1.0
 40
1.0
 10
-69.0346
 20
118.4849
 30
0.0
 10
-69.0426
 20
114.9099
 30
0.0
 10
-69.0426
 20
116.6763
 30
0.0
 10
-68.9995
 20
111.6716
 30
0.0
 10
-68.9995
 20
111.6716
 30
0.0
 10
-69.7145
 20
114.663
 30
0.0
 10
-73.7499
 20
116.565
 30
0.0
 10
-77.1032
 20
115.407
 30
0.0
 10
-77.1032
 20
115.407
 30
0.0
 10
-76.6646
 20
116.5612
 30
0.0
 10
-76.6961
 20
117.5343
 30
0.0
 10
-77.3129
 20
118.4943
 30
0.0
 10
-77.3129
 20
118.4943
 30
0.0
 10
-77.3129
 20
118.4943
 30
0.0
 10
-69.0346
 20
118.4849
 30
0.0
 10
-69.0346
 20
118.4849
 30
0.0
  0
SPLINE
  5
B4
330
1F
100
AcDbEntity
  8
layer 1
 62
     7
100
AcDbSpline
210
0.0
220
0.0
230
1.0
 70
    11
 71
     3
 72
    16
 73
    12
 74
     0
 42
0.0000000001
 43
0.0000000001
 12
1.0
 22
0.0
 32
0.0
 13
1.0
 23
0.0
 33
0.0
 40
0.0
 40
0.0
 40
0.0
 40
0.0
 40
0.25
 40
0.25
 40
0.25
 40
0.25
 40
0.5
 40
0.5
 40
0.5
 40
0.5
 40
1.0
 40
1.0
 40
1.0
 40
1.0
 10
-69.0346
 20
107.1779
 30
0.0
 10
-69.0426
 20
103.6029
 30
0.0
 10
-69.0426
 20
104.2593
 30
0.0
 10
-68.9995
 20
99.254
 30
0.0
 10
-68.9995
 20
99.254
 30
0.0
 10
-70.0065
 20
102.1867
 30
0.0
 10
-72.0844
 20
103.65
 30
0.0
 10
-73.3638
 20
104.2472
 30
0.0
 10
-73.3638
 20
104.2472
 30
0.0
 10
-71.1623
 20
104.4217
 30
0.0
 10
-69.7712
 20
105.7557
 30
0.0
 10
-69.0346
 20
107.1779
 30
0.0
  0
SPLINE
  5
B5
330
1F
100
AcDbEntity
  8
layer 1
 62
     7
100
AcDbSpline
210
0.0
220
0.0
230
1.0
 70
    11
 71
     3
 72
    28
 73
    24
 74
     0
 42
0.0000000001
 43
0.0000000001
 12
1.0
 22
0.0
 32
0.0
 13
1.0
 23
0.0
 33
0.0
 40
0.0
 40
0.0
 40
0.0
 40
0.0
 40
0.1428571428571428
 40
0.1428571428571428
 40
0.1428571428571428
 40
0.1428571428571428
 40
0.2857142857142857
 40
0.2857142857142857
 40
0.2857142857142857
 40
0.2857142857142857
 40
0.4285714285714285
 40
0.4285714285714285
 40
0.4285714285714285
 40
0.4285714285714285
 40
0.5714285714285714
 40
0.5714285714285714
 40
0.5714285714285714
 40
0.5714285714285714
 40
0.7142857142857143
 40
0.7142857142857143
 40
0.7142857142857143
 40
0.7142857142857143
 40
1.0
 40
1.0
 40
1.0
 40
1.0
 10
-79.3775
 20
118.4849
 30
0.0
 10
-81.3153
 20
116.5179
 30
0.0
 10
-81.6657
 20
114.7472
 30
0.0
 10
-83.1405
 20
112.4609
 30
0.0
 10
-83.1405
 20
112.4609
 30
0.0
 10
-83.419
 20
113.6225
 30
0.0
 10
-83.8166
 20
114.9077
 30
0.0
 10
-84.5392
 20
115.7597
 30
0.0
 10
-84.5392
 20
115.7597
 30
0.0
 10
-86.52
 20
113.8927
 30
0.0
 10
-87.6383
 20
113.0291
 30
0.0
 10
-88.7783
 20
101.6872
 30
0.0
 10
-88.7783
 20
101.6872
 30
0.0
 10
-89.4407
 20
108.398
 30
0.0
 10
-95.6464
 20
116.565
 30
0.0
 10
-89.4913
 20
116.9271
 30
0.0
 10
-89.4913
 20
116.9271
 30
0.0
 10
-89.7541
 20
117.5837
 30
0.0
 10
-90.4868
 20
118.1181
 30
0.0
 10
-91.3954
 20
118.4943
 30
0.0
 10
-91.3954
 20
118.4943
 30
0.0
 10
-91.3954
 20
118.4943
 30
0.0
 10
-79.3775
 20
118.4849
 30
0.0
 10
-79.3775
 20
118.4849
 30
0.0
  0
SPLINE
  5
B6
330
1F
100
AcDbEntity
  8
layer 1
 62
     7
100
AcDbSpline
210
0.0
220
0.0
230
1.0
 70
    11
 71
     3
 72
    28
 73
    24
 74
     0
 42
0.0000000001
 43
0.0000000001
 12
1.0
 22
0.0
 32
0.0
 13
1.0
 23
0.0
 33
0.0
 40
0.0
 40
0.0
 40
0.0
 40
0.0
 40
0.1428571428571428
 40
0.1428571428571428
 40
0.1428571428571428
 40
0.1428571428571428
 40
0.2857142857142857
 40
0.2857142857142857
 40
0.2857142857142857
 40
0.2857142857142857
 40
0.4285714285714285
 40
0.4285714285714285
 40
0.4285714285714285
 40
0.4285714285714285
 40
0.5714285714285714
 40
0.5714285714285714
 40
0.5714285714285714
 40
0.5714285714285714
 40
0.7142857142857143
 40
0.7142857142857143
 40
0.7142857142857143
 40
0.7142857142857143
 40
1.0
 40
1.0
 40
1.0
 40
1.0
 10
-94.4555
 20
118.4849
 30
0.0
 10
-96.0402
 20
117.6289
 30
0.0
 10
-96.9744
 20
116.5003
 30
0.0
 10
-97.1665
 20
115.0898
 30
0.0
 10
-97.1665
 20
115.0898
 30
0.0
 10
-99.8719
 20
116.1594
 30
0.0
 10
-100.1833
 20
117.082
 30
0.0
 10
-106.718
 20
117.3464
 30
0.0
 10
-106.718
 20
117.3464
 30
0.0
 10
-111.5975
 20
117.217
 30
0.0
 10
-113.9133
 20
116.1067
 30
0.0
 10
-116.728
 20
114.1709
 30
0.0
 10
-116.728
 20
114.1709
 30
0.0
 10
-118.1188
 20
113.2173
 30
0.0
 10
-118.8122
 20
111.7168
 30
0.0
 10
-121.1901
 20
111.8832
 30
0.0
 10
-121.1901
 20
111.8832
 30
0.0
 10
-118.5305
 20
113.6952
 30
0.0
 10
-117.8308
 20
116.7727
 30
0.0
 10
-117.8719
 20
118.4943
 30
0.0
 10
-117.8719
 20
118.4943
 30
0.0
 10
-117.8719
 20
118.4943
 30
0.0
 10
-94.4555
 20
118.4849
 30
0.0
 10
-94.4555
 20
118.4849
 30
0.0
  0
SPLINE
  5
B7
330
1F
100
AcDbEntity
  8
layer 1
 62
     7
100
AcDbSpline
210
0.0
220
0.0
230
1.0
 70
    11
 71
     3
 72
    16
 73
    12
 74
     0
 42
0.0000000001
 43
0.0000000001
 12
1.0
 22
0.0
 32
0.0
 13
1.0
 23
0.0
 33
0.0
 40
0.0
 40
0.0
 40
0.0
 40
0.0
 40
0.25
 40
0.25
 40
0.25
 40
0.25
 40
0.5
 40
0.5
 40
0.5
 40
0.5
 40
1.0
 40
1.0
 40
1.0
 40
1.0
 10
-119.0766
 20
101.1581
 30
0.0
 10
-112.5788
 20
99.8534
 30
0.0
 10
-113.3566
 20
111.3643
 30
0.0
 10
-102.5358
 20
107.2561
 30
0.0
 10
-102.5358
 20
107.2561
 30
0.0
 10
-102.4184
 20
109.8009
 30
0.0
 10
-101.3703
 20
110.5844
 30
0.0
 10
-99.5114
 20
111.3778
 30
0.0
 10
-99.5114
 20
111.3778
 30
0.0
 10
-110.5695
 20
116.6548
 30
0.0
 10
-119.588
 20
108.1201
 30
0.0
 10
-119.0766
 20
101.1581
 30
0.0
  0
SPLINE
  5
B8
330
1F
100
AcDbEntity
  8
layer 1
 62
     7
100
AcDbSpline
210
0.0
220
0.0
230
1.0
 70
    11
 71
     3
 72
    28
 73
    24
 74
     0
 42
0.0000000001
 43
0.0000000001
 12
1.0
 22
0.0
 32
0.0
 13
1.0
 23
0.0
 33
0.0
 40
0.0
 40
0.0
 40
0.0
 40
0.0
 40
0.1428571428571428
 40
0.1428571428571428
 40
0.1428571428571428
 40
0.1428571428571428
 40
0.2857142857142857
 40
0.2857142857142857
 40
0.2857142857142857
 40
0.2857142857142857
 40
0.4285714285714285
 40
0.4285714285714285
 40
0.4285714285714285
 40
0.4285714285714285
 40
0.5714285714285714
 40
0.5714285714285714
 40
0.5714285714285714
 40
0.5714285714285714
 40
0.7142857142857143
 40
0.7142857142857143
 40
0.7142857142857143
 40
0.7142857142857143
 40
1.0
 40
1.0
 40
1.0
 40
1.0
 10
-106.6454
 20
92.1396
 30
0.0
 10
-102.7629
 20
93.7654
 30
0.0
 10
-101.3427
 20
97.546
 30
0.0
 10
-102.1166
 20
100.3197
 30
0.0
 10
-102.1166
 20
100.3197
 30
0.0
 10
-102.9881
 20
103.452
 30
0.0
 10
-106.4653
 20
105.352
 30
0.0
 10
-108.732
 20
102.3196
 30
0.0
 10
-108.732
 20
102.3196
 30
0.0
 10
-105.3471
 20
101.7163
 30
0.0
 10
-105.143
 20
98.5294
 30
0.0
 10
-106.7787
 20
97.1679
 30
0.0
 10
-106.7787
 20
97.1679
 30
0.0
 10
-109.1177
 20
95.2247
 30
0.0
 10
-111.8171
 20
97.0054
 30
0.0
 10
-112.0227
 20
99.0308
 30
0.0
 10
-112.0227
 20
99.0308
 30
0.0
 10
-112.738
 20
98.1197
 30
0.0
 10
-116.207
 20
96.7372
 30
0.0
 10
-118.9531
 20
100.0378
 30
0.0
 10
-118.9531
 20
100.0378
 30
0.0
 10
-119.3487
 20
95.9298
 30
0.0
 10
-113.8034
 20
89.1287
 30
0.0
 10
-106.6454
 20
92.1396
 30
0.0
  0
SPLINE
  5
B9
330
1F
100
AcDbEntity
  8
layer 1
 62
     7
100
AcDbSpline
210
0.0
220
0.0
230
1.0
 70
    11
 71
     3
 72
    20
 73
    16
 74
     0
 42
0.0000000001
 43
0.0000000001
 12
1.0
 22
0.0
 32
0.0
 13
1.0
 23
0.0
 33
0.0
 40
0.0
 40
0.0
 40
0.0
 40
0.0
 40
0.2
 40
0.2
 40
0.2
 40
0.2
 40
0.4
 40
0.4
 40
0.4
 40
0.4
 40
0.6
 40
0.6
 40
0.6
 40
0.6
 40
1.0
 40
1.0
 40
1.0
 40
1.0
 10
-125.4959
 20
113.5832
 30
0.0
 10
-127.8995
 20
113.5832
 30
0.0
 10
-129.8487
 20
115.5326
 30
0.0
 10
-129.8487
 20
117.938
 30
0.0
 10
-129.8487
 20
117.938
 30
0.0
 10
-129.8489
 20
120.342
 30
0.0
 10
-127.8995
 20
122.2908
 30
0.0
 10
-125.4959
 20
122.2908
 30
0.0
 10
-125.4959
 20
122.2908
 30
0.0
 10
-123.0903
 20
122.2911
 30
0.0
 10
-121.1415
 20
120.3417
 30
0.0
 10
-121.1415
 20
117.938
 30
0.0
 10
-121.1415
 20
117.938
 30
0.0
 10
-121.1417
 20
115.5327
 30
0.0
 10
-123.0903
 20
113.5832
 30
0.0
 10
-125.4959
 20
113.5832
 30
0.0
  0
SPLINE
  5
BA
330
1F
100
AcDbEntity
  8
layer 1
 62
     7
100
AcDbSpline
210
0.0
220
0.0
230
1.0
 70
    11
 71
     3
 72
    32
 73
    28
 74
     0
 42
0.0000000001
 43
0.0000000001
 12
1.0
 22
0.0
 32
0.0
 13
1.0
 23
0.0
 33
0.0
 40
0.0
 40
0.0
 40
0.0
 40
0.0
 40
0.125
 40
0.125
 40
0.125
 40
0.125
 40
0.25
 40
0.25
 40
0.25
 40
0.25
 40
0.375
 40
0.375
 40
0.375
 40
0.375
 40
0.5
 40
0.5
 40
0.5
 40
0.5
 40
0.625
 40
0.625
 40
0.625
 40
0.625
 40
0.75
 40
0.75
 40
0.75
 40
0.75
 40
1.0
 40
1.0
 40
1.0
 40
1.0
 10
-124.352
 20
100.4922
 30
0.0
 10
-123.2337
 20
103.9027
 30
0.0
 10
-122.3616
 20
107.2737
 30
0.0
 10
-121.0574
 20
109.5032
 30
0.0
 10
-121.0574
 20
109.5032
 30
0.0
 10
-122.2128
 20
109.8087
 30
0.0
 10
-122.6048
 20
110.3337
 30
0.0
 10
-123.0161
 20
110.9625
 30
0.0
 10
-123.0161
 20
110.9625
 30
0.0
 10
-124.489
 20
110.4707
 30
0.0
 10
-126.4698
 20
110.5277
 30
0.0
 10
-127.7956
 20
110.9389
 30
0.0
 10
-127.7956
 20
110.9389
 30
0.0
 10
-128.207
 20
110.3102
 30
0.0
 10
-128.7143
 20
109.8262
 30
0.0
 10
-129.8703
 20
109.5228
 30
0.0
 10
-129.8703
 20
109.5228
 30
0.0
 10
-128.5655
 20
107.2932
 30
0.0
 10
-127.6938
 20
103.9202
 30
0.0
 10
-126.5735
 20
100.5097
 30
0.0
 10
-126.5735
 20
100.5097
 30
0.0
 10
-126.1208
 20
99.2912
 30
0.0
 10
-125.4628
 20
99.1738
 30
0.0
 10
-125.4628
 20
99.1738
 30
0.0
 10
-125.4628
 20
99.1738
 30
0.0
 10
-125.4629
 20
99.1738
 30
0.0
 10
-124.8043
 20
99.2736
 30
0.0
 10
-124.352
 20
100.4922
 30
0.0
  0
SPLINE
  5
BB
330
1F
100
AcDbEntity
  8
layer 1
 62
     7
100
AcDbSpline
210
0.0
220
0.0
230
1.0
 70
    11
 71
     3
 72
    28
 73
    24
 74
     0
 42
0.0000000001
 43
0.0000000001
 12
1.0
 22
0.0
 32
0.0
 13
1.0
 23
0.0
 33
0.0
 40
0.0
 40
0.0
 40
0.0
 40
0.0
 40
0.1428571428571428
 40
0.1428571428571428
 40
0.1428571428571428
 40
0.1428571428571428
 40
0.2857142857142857
 40
0.2857142857142857
 40
0.2857142857142857
 40
0.2857142857142857
 40
0.4285714285714285
 40
0.4285714285714285
 40
0.4285714285714285
 40
0.4285714285714285
 40
0.5714285714285714
 40
0.5714285714285714
 40
0.5714285714285714
 40
0.5714285714285714
 40
0.7142857142857143
 40
0.7142857142857143
 40
0.7142857142857143
 40
0.7142857142857143
 40
1.0
 40
1.0
 40
1.0
 40
1.0
 10
-123.3803
 20
85.8495
 30
0.0
 10
-121.9249
 20
90.7801
 30
0.0
 10
-122.4399
 20
93.6009
 30
0.0
 10
-123.0296
 20
98.2591
 30
0.0
 10
-123.0296
 20
98.2591
 30
0.0
 10
-123.7939
 20
97.5305
 30
0.0
 10
-124.836
 20
97.4893
 30
0.0
 10
-125.4628
 20
97.873
 30
0.0
 10
-125.4628
 20
97.873
 30
0.0
 10
-126.0702
 20
97.4875
 30
0.0
 10
-127.2119
 20
97.4893
 30
0.0
 10
-127.8954
 20
98.2787
 30
0.0
 10
-127.8954
 20
98.2787
 30
0.0
 10
-128.4852
 20
93.6185
 30
0.0
 10
-129.0022
 20
90.7977
 30
0.0
 10
-127.547
 20
85.8692
 30
0.0
 10
-127.547
 20
85.8692
 30
0.0
 10
-127.1298
 20
84.7193
 30
0.0
 10
-126.3013
 20
83.9434
 30
0.0
 10
-125.4628
 20
83.8883
 30
0.0
 10
-125.4628
 20
83.8883
 30
0.0
 10
-124.6244
 20
83.926
 30
0.0
 10
-123.7979
 20
84.7017
 30
0.0
 10
-123.3803
 20
85.8495
 30
0.0
  0
SPLINE
  5
BC
330
1F
100
AcDbEntity
  8
layer 1
 62
     7
100
AcDbSpline
210
0.0
220
0.0
230
1.0
 70
    11
 71
     3
 72
    56
 73
    52
 74
     0
 42
0.0000000001
 43
0.0000000001
 12
1.0
 22
0.0
 32
0.0
 13
1.0
 23
0.0
 33
0.0
 40
0.0
 40
0.0
 40
0.0
 40
0.0
 40
0.0714285714285714
 40
0.0714285714285714
 40
0.0714285714285714
 40
0.0714285714285714
 40
0.1428571428571428
 40
0.1428571428571428
 40
0.1428571428571428
 40
0.1428571428571428
 40
0.2142857142857143
 40
0.2142857142857143
 40
0.2142857142857143
 40
0.2142857142857143
 40
0.2857142857142857
 40
0.2857142857142857
 40
0.2857142857142857
 40
0.2857142857142857
 40
0.3571428571428572
 40
0.3571428571428572
 40
0.3571428571428572
 40
0.3571428571428572
 40
0.4285714285714285
 40
0.4285714285714285
 40
0.4285714285714285
 40
0.4285714285714285
 40
0.5
 40
0.5
 40
0.5
 40
0.5
 40
0.5714285714285714
 40
0.5714285714285714
 40
0.5714285714285714
 40
0.5714285714285714
 40
0.6428571428571429
 40
0.6428571428571429
 40
0.6428571428571429
 40
0.6428571428571429
 40
0.7142857142857143
 40
0.7142857142857143
 40
0.7142857142857143
 40
0.7142857142857143
 40
0.7857142857142857
 40
0.7857142857142857
 40
0.7857142857142857
 40
0.7857142857142857
 40
0.8571428571428571
 40
0.8571428571428571
 40
0.8571428571428571
 40
0.8571428571428571
 40
1.0
 40
1.0
 40
1.0
 40
1.0
 10
-125.4703
 20
73.3829
 30
0.0
 10
-125.3766
 20
74.282
 30
0.0
 10
-124.5165
 20
74.9107
 30
0.0
 10
-123.4448
 20
75.2006
 30
0.0
 10
-123.4448
 20
75.2006
 30
0.0
 10
-124.3462
 20
70.6052
 30
0.0
 10
-119.9385
 20
70.9967
 30
0.0
 10
-118.6301
 20
72.7915
 30
0.0
 10
-118.6301
 20
72.7915
 30
0.0
 10
-117.9818
 20
73.6807
 30
0.0
 10
-113.5427
 20
79.5771
 30
0.0
 10
-119.8839
 20
90.586
 30
0.0
 10
-119.8839
 20
90.586
 30
0.0
 10
-118.0876
 20
85.9318
 30
0.0
 10
-120.1226
 20
83.4635
 30
0.0
 10
-120.1305
 20
80.4231
 30
0.0
 10
-120.1305
 20
80.4231
 30
0.0
 10
-121.255
 20
80.727
 30
0.0
 10
-122.0386
 20
82.0649
 30
0.0
 10
-122.0638
 20
83.4028
 30
0.0
 10
-122.0638
 20
83.4028
 30
0.0
 10
-122.9966
 20
81.7084
 30
0.0
 10
-124.9398
 20
81.585
 30
0.0
 10
-125.4628
 20
82.4234
 30
0.0
 10
-125.4628
 20
82.4234
 30
0.0
 10
-125.9879
 20
81.6045
 30
0.0
 10
-127.9291
 20
81.7259
 30
0.0
 10
-128.8613
 20
83.4223
 30
0.0
 10
-128.8613
 20
83.4223
 30
0.0
 10
-128.8869
 20
82.0845
 30
0.0
 10
-129.6702
 20
80.7465
 30
0.0
 10
-130.795
 20
80.4425
 30
0.0
 10
-130.795
 20
80.4425
 30
0.0
 10
-130.8025
 20
83.481
 30
0.0
 10
-132.84
 20
85.9513
 30
0.0
 10
-131.0438
 20
90.6055
 30
0.0
 10
-131.0438
 20
90.6055
 30
0.0
 10
-137.3826
 20
79.5967
 30
0.0
 10
-132.9439
 20
73.7002
 30
0.0
 10
-132.2974
 20
72.8112
 30
0.0
 10
-132.2974
 20
72.8112
 30
0.0
 10
-130.9866
 20
71.0163
 30
0.0
 10
-126.5811
 20
70.6246
 30
0.0
 10
-127.4802
 20
75.2202
 30
0.0
 10
-127.4802
 20
75.2202
 30
0.0
 10
-126.4106
 20
74.9303
 30
0.0
 10
-125.5511
 20
74.3015
 30
0.0
 10
-125.4548
 20
73.4004
 30
0.0
 10
-125.4548
 20
73.4004
 30
0.0
 10
-125.4548
 20
73.4004
 30
0.0
 10
-125.4703
 20
73.3829
 30
0.0
 10
-125.4703
 20
73.3829
 30
0.0
  0
SPLINE
  5
BD
330
1F
100
AcDbEntity
  8
layer 1
 62
     7
100
AcDbSpline
210
0.0
220
0.0
230
1.0
 70
    11
 71
     3
 72
    20
 73
    16
 74
     0
 42
0.0000000001
 43
0.0000000001
 12
1.0
 22
0.0
 32
0.0
 13
1.0
 23
0.0
 33
0.0
 40
0.0
 40
0.0
 40
0.0
 40
0.0
 40
0.2
 40
0.2
 40
0.2
 40
0.2
 40
0.4
 40
0.4
 40
0.4
 40
0.4
 40
0.6
 40
0.6
 40
0.6
 40
0.6
 40
1.0
 40
1.0
 40
1.0
 40
1.0
 10
-121.2489
 20
61.561
 30
0.0
 10
-121.2726
 20
66.4033
 30
0.0
 10
-125.6098
 20
64.5813
 30
0.0
 10
-125.4628
 20
62.8011
 30
0.0
 10
-125.4628
 20
62.8011
 30
0.0
 10
-125.3159
 20
64.5994
 30
0.0
 10
-129.6527
 20
66.4227
 30
0.0
 10
-129.6783
 20
61.5785
 30
0.0
 10
-129.6783
 20
61.5785
 30
0.0
 10
-129.5394
 20
58.7578
 30
0.0
 10
-126.3424
 20
53.3161
 30
0.0
 10
-125.4628
 20
47.9093
 30
0.0
 10
-125.4628
 20
47.9093
 30
0.0
 10
-124.5833
 20
53.2966
 30
0.0
 10
-121.3883
 20
58.7402
 30
0.0
 10
-121.2489
 20
61.561
 30
0.0
  0
SPLINE
  5
BE
330
1F
100
AcDbEntity
  8
layer 1
 62
     7
100
AcDbSpline
210
0.0
220
0.0
230
1.0
 70
    11
 71
     3
 72
    20
 73
    16
 74
     0
 42
0.0000000001
 43
0.0000000001
 12
1.0
 22
0.0
 32
0.0
 13
1.0
 23
0.0
 33
0.0
 40
0.0
 40
0.0
 40
0.0
 40
0.0
 40
0.2
 40
0.2
 40
0.2
 40
0.2
 40
0.4
 40
0.4
 40
0.4
 40
0.4
 40
0.6
 40
0.6
 40
0.6
 40
0.6
 40
1.0
 40
1.0
 40
1.0
 40
1.0
 10
-123.5899
 20
68.3506
 30
0.0
 10
-124.3246
 20
68.5897
 30
0.0
 10
-124.9749
 20
69.0265
 30
0.0
 10
-125.4628
 20
69.9998
 30
0.0
 10
-125.4628
 20
69.9998
 30
0.0
 10
-125.9523
 20
69.0461
 30
0.0
 10
-126.6007
 20
68.6072
 30
0.0
 10
-127.3373
 20
68.3701
 30
0.0
 10
-127.3373
 20
68.3701
 30
0.0
 10
-126.6007
 20
68.0842
 30
0.0
 10
-125.9703
 20
67.698
 30
0.0
 10
-125.4628
 20
66.7326
 30
0.0
 10
-125.4628
 20
66.7326
 30
0.0
 10
-124.9574
 20
67.6806
 30
0.0
 10
-124.3264
 20
68.0646
 30
0.0
 10
-123.5899
 20
68.3506
 30
0.0
  0
SPLINE
  5
BF
330
1F
100
AcDbEntity
  8
layer 1
 62
     7
100
AcDbSpline
210
0.0
220
0.0
230
1.0
 70
    11
 71
     3
 72
    28
 73
    24
 74
     0
 42
0.0000000001
 43
0.0000000001
 12
1.0
 22
0.0
 32
0.0
 13
1.0
 23
0.0
 33
0.0
 40
0.0
 40
0.0
 40
0.0
 40
0.0
 40
0.1428571428571428
 40
0.1428571428571428
 40
0.1428571428571428
 40
0.1428571428571428
 40
0.2857142857142857
 40
0.2857142857142857
 40
0.2857142857142857
 40
0.2857142857142857
 40
0.4285714285714285
 40
0.4285714285714285
 40
0.4285714285714285
 40
0.4285714285714285
 40
0.5714285714285714
 40
0.5714285714285714
 40
0.5714285714285714
 40
0.5714285714285714
 40
0.7142857142857143
 40
0.7142857142857143
 40
0.7142857142857143
 40
0.7142857142857143
 40
1.0
 40
1.0
 40
1.0
 40
1.0
 10
-122.3697
 20
16.6984
 30
0.0
 10
-120.7399
 20
16.6061
 30
0.0
 10
-119.286
 20
14.5985
 30
0.0
 10
-121.0002
 20
12.1693
 30
0.0
 10
-121.0002
 20
12.1693
 30
0.0
 10
-114.5517
 20
13.7873
 30
0.0
 10
-124.7652
 20
26.5633
 30
0.0
 10
-125.4628
 20
33.2314
 30
0.0
 10
-125.4628
 20
33.2314
 30
0.0
 10
-126.1599
 20
26.5829
 30
0.0
 10
-136.374
 20
13.8068
 30
0.0
 10
-129.9249
 20
12.1889
 30
0.0
 10
-129.9249
 20
12.1889
 30
0.0
 10
-131.6411
 20
14.6182
 30
0.0
 10
-130.1877
 20
16.626
 30
0.0
 10
-128.5558
 20
16.7157
 30
0.0
 10
-128.5558
 20
16.7157
 30
0.0
 10
-126.3465
 20
16.8393
 30
0.0
 10
-125.508
 20
15.2564
 30
0.0
 10
-125.4628
 20
14.5865
 30
0.0
 10
-125.4628
 20
14.5865
 30
0.0
 10
-125.4197
 20
15.2371
 30
0.0
 10
-124.5792
 20
16.8216
 30
0.0
 10
-122.3697
 20
16.6984
 30
0.0
  0
SPLINE
  5
C0
330
1F
100
AcDbEntity
  8
layer 1
 62
     7
100
AcDbSpline
210
0.0
220
0.0
230
1.0
 70
    11
 71
     3
 72
    20
 73
    16
 74
     0
 42
0.0000000001
 43
0.0000000001
 12
1.0
 22
0.0
 32
0.0
 13
1.0
 23
0.0
 33
0.0
 40
0.0
 40
0.0
 40
0.0
 40
0.0
 40
0.2
 40
0.2
 40
0.2
 40
0.2
 40
0.4
 40
0.4
 40
0.4
 40
0.4
 40
0.6
 40
0.6
 40
0.6
 40
0.6
 40
1.0
 40
1.0
 40
1.0
 40
1.0
 10
-125.4629
 20
11.9498
 30
0.0
 10
-125.5512
 20
10.1576
 30
0.0
 10
-127.1338
 20
8.8391
 30
0.0
 10
-128.062
 20
8.616
 30
0.0
 10
-128.062
 20
8.616
 30
0.0
 10
-127.1338
 20
8.3929
 30
0.0
 10
-125.5511
 20
7.0743
 30
0.0
 10
-125.4628
 20
5.2817
 30
0.0
 10
-125.4628
 20
5.2817
 30
0.0
 10
-125.3766
 20
7.092
 30
0.0
 10
-123.7919
 20
8.4103
 30
0.0
 10
-122.8651
 20
8.616
 30
0.0
 10
-122.8651
 20
8.616
 30
0.0
 10
-123.7919
 20
8.8195
 30
0.0
 10
-125.3765
 20
10.138
 30
0.0
 10
-125.4629
 20
11.9498
 30
0.0
  0
SPLINE
  5
C1
330
1F
100
AcDbEntity
  8
layer 1
 62
     7
100
AcDbSpline
210
0.0
220
0.0
230
1.0
 70
    11
 71
     3
 72
    16
 73
    12
 74
     0
 42
0.0000000001
 43
0.0000000001
 12
1.0
 22
0.0
 32
0.0
 13
1.0
 23
0.0
 33
0.0
 40
0.0
 40
0.0
 40
0.0
 40
0.0
 40
0.25
 40
0.25
 40
0.25
 40
0.25
 40
0.5
 40
0.5
 40
0.5
 40
0.5
 40
1.0
 40
1.0
 40
1.0
 40
1.0
 10
-69.0897
 20
11.9304
 30
0.0
 10
-69.1975
 20
10.1285
 30
0.0
 10
-70.7822
 20
8.81
 30
0.0
 10
-71.7085
 20
8.616
 30
0.0
 10
-71.7085
 20
8.616
 30
0.0
 10
-70.7822
 20
8.4199
 30
0.0
 10
-69.1975
 20
7.1015
 30
0.0
 10
-69.0897
 20
5.3017
 30
0.0
 10
-69.0897
 20
5.3017
 30
0.0
 10
-69.0897
 20
5.3017
 30
0.0
 10
-69.0897
 20
11.9304
 30
0.0
 10
-69.0897
 20
11.9304
 30
0.0
  0
SPLINE
  5
C2
330
1F
100
AcDbEntity
  8
layer 1
 62
     7
100
AcDbSpline
210
0.0
220
0.0
230
1.0
 70
    11
 71
     3
 72
    28
 73
    24
 74
     0
 42
0.0000000001
 43
0.0000000001
 12
1.0
 22
0.0
 32
0.0
 13
1.0
 23
0.0
 33
0.0
 40
0.0
 40
0.0
 40
0.0
 40
0.0
 40
0.1428571428571428
 40
0.1428571428571428
 40
0.1428571428571428
 40
0.1428571428571428
 40
0.2857142857142857
 40
0.2857142857142857
 40
0.2857142857142857
 40
0.2857142857142857
 40
0.4285714285714285
 40
0.4285714285714285
 40
0.4285714285714285
 40
0.4285714285714285
 40
0.5714285714285714
 40
0.5714285714285714
 40
0.5714285714285714
 40
0.5714285714285714
 40
0.7142857142857143
 40
0.7142857142857143
 40
0.7142857142857143
 40
0.7142857142857143
 40
1.0
 40
1.0
 40
1.0
 40
1.0
 10
-73.2325
 20
112.3533
 30
0.0
 10
-72.2746
 20
111.6051
 30
0.0
 10
-70.6273
 20
108.4196
 30
0.0
 10
-72.776
 20
107.7576
 30
0.0
 10
-72.776
 20
107.7576
 30
0.0
 10
-74.8035
 20
111.5424
 30
0.0
 10
-79.1349
 20
106.9878
 30
0.0
 10
-75.6576
 20
104.9859
 30
0.0
 10
-75.6576
 20
104.9859
 30
0.0
 10
-77.6499
 20
105.1545
 30
0.0
 10
-78.183
 20
105.0857
 30
0.0
 10
-79.5344
 20
105.2502
 30
0.0
 10
-79.5344
 20
105.2502
 30
0.0
 10
-81.4933
 20
105.9007
 30
0.0
 10
-82.3809
 20
108.0123
 30
0.0
 10
-80.2335
 20
108.5589
 30
0.0
 10
-80.2335
 20
108.5589
 30
0.0
 10
-80.9878
 20
109.8047
 30
0.0
 10
-82.5198
 20
109.3463
 30
0.0
 10
-82.9761
 20
109.1818
 30
0.0
 10
-82.9761
 20
109.1818
 30
0.0
 10
-81.5054
 20
112.0693
 30
0.0
 10
-76.9233
 20
114.3806
 30
0.0
 10
-73.2325
 20
112.3533
 30
0.0
  0
SPLINE
  5
C3
330
1F
100
AcDbEntity
  8
layer 1
 62
     7
100
AcDbSpline
210
0.0
220
0.0
230
1.0
 70
    11
 71
     3
 72
    20
 73
    16
 74
     0
 42
0.0000000001
 43
0.0000000001
 12
1.0
 22
0.0
 32
0.0
 13
1.0
 23
0.0
 33
0.0
 40
0.0
 40
0.0
 40
0.0
 40
0.0
 40
0.2
 40
0.2
 40
0.2
 40
0.2
 40
0.4
 40
0.4
 40
0.4
 40
0.4
 40
0.6
 40
0.6
 40
0.6
 40
0.6
 40
1.0
 40
1.0
 40
1.0
 40
1.0
 10
-93.4154
 20
102.5978
 30
0.0
 10
-94.5357
 20
105.1133
 30
0.0
 10
-97.9793
 20
108.3669
 30
0.0
 10
-100.1422
 20
105.2657
 30
0.0
 10
-100.1422
 20
105.2657
 30
0.0
 10
-96.3616
 20
101.9401
 30
0.0
 10
-96.6354
 20
94.1294
 30
0.0
 10
-101.7464
 20
90.0865
 30
0.0
 10
-101.7464
 20
90.0865
 30
0.0
 10
-99.6112
 20
90.4134
 30
0.0
 10
-96.5084
 20
89.0269
 30
0.0
 10
-96.5241
 20
86.0196
 30
0.0
 10
-96.5241
 20
86.0196
 30
0.0
 10
-93.944
 20
89.6066
 30
0.0
 10
-91.225
 20
96.4272
 30
0.0
 10
-93.4154
 20
102.5978
 30
0.0
  0
SPLINE
  5
C4
330
1F
100
AcDbEntity
  8
layer 1
 62
     7
100
AcDbSpline
210
0.0
220
0.0
230
1.0
 70
    11
 71
     3
 72
    32
 73
    28
 74
     0
 42
0.0000000001
 43
0.0000000001
 12
1.0
 22
0.0
 32
0.0
 13
1.0
 23
0.0
 33
0.0
 40
0.0
 40
0.0
 40
0.0
 40
0.0
 40
0.125
 40
0.125
 40
0.125
 40
0.125
 40
0.25
 40
0.25
 40
0.25
 40
0.25
 40
0.375
 40
0.375
 40
0.375
 40
0.375
 40
0.5
 40
0.5
 40
0.5
 40
0.5
 40
0.625
 40
0.625
 40
0.625
 40
0.625
 40
0.75
 40
0.75
 40
0.75
 40
0.75
 40
1.0
 40
1.0
 40
1.0
 40
1.0
 10
-85.139
 20
94.4706
 30
0.0
 10
-85.4916
 20
93.0583
 30
0.0
 10
-87.8365
 20
93.0226
 30
0.0
 10
-88.7963
 20
93.8416
 30
0.0
 10
-88.7963
 20
93.8416
 30
0.0
 10
-89.4051
 20
90.3825
 30
0.0
 10
-90.563
 20
86.5195
 30
0.0
 10
-95.4328
 20
80.2114
 30
0.0
 10
-95.4328
 20
80.2114
 30
0.0
 10
-93.1075
 20
81.0855
 30
0.0
 10
-90.5689
 20
79.4516
 30
0.0
 10
-89.7831
 20
77.2578
 30
0.0
 10
-89.7831
 20
77.2578
 30
0.0
 10
-89.5877
 20
80.3764
 30
0.0
 10
-82.3553
 20
84.1942
 30
0.0
 10
-84.3747
 20
89.0896
 30
0.0
 10
-84.3747
 20
89.0896
 30
0.0
 10
-82.3513
 20
89.3088
 30
0.0
 10
-79.6775
 20
87.8515
 30
0.0
 10
-80.5395
 20
85.667
 30
0.0
 10
-80.5395
 20
85.667
 30
0.0
 10
-78.2828
 20
86.9759
 30
0.0
 10
-76.2317
 20
88.725
 30
0.0
 10
-74.9114
 20
89.7219
 30
0.0
 10
-74.9114
 20
89.7219
 30
0.0
 10
-78.0045
 20
93.9142
 30
0.0
 10
-83.0899
 20
89.1894
 30
0.0
 10
-85.139
 20
94.4706
 30
0.0
  0
SPLINE
  5
C5
330
1F
100
AcDbEntity
  8
layer 1
 62
     7
100
AcDbSpline
210
0.0
220
0.0
230
1.0
 70
    11
 71
     3
 72
    16
 73
    12
 74
     0
 42
0.0000000001
 43
0.0000000001
 12
1.0
 22
0.0
 32
0.0
 13
1.0
 23
0.0
 33
0.0
 40
0.0
 40
0.0
 40
0.0
 40
0.0
 40
0.25
 40
0.25
 40
0.25
 40
0.25
 40
0.5
 40
0.5
 40
0.5
 40
0.5
 40
1.0
 40
1.0
 40
1.0
 40
1.0
 10
-82.1222
 20
103.8166
 30
0.0
 10
-83.1683
 20
104.1339
 30
0.0
 10
-84.5237
 20
105.1855
 30
0.0
 10
-84.5923
 20
106.9426
 30
0.0
 10
-84.5923
 20
106.9426
 30
0.0
 10
-85.5051
 20
104.4217
 30
0.0
 10
-87.4388
 20
99.397
 30
0.0
 10
-88.6979
 20
94.5196
 30
0.0
 10
-88.6979
 20
94.5196
 30
0.0
 10
-84.3492
 20
94.7272
 30
0.0
 10
-87.5405
 20
100.6135
 30
0.0
 10
-82.1222
 20
103.8166
 30
0.0
  0
SPLINE
  5
C6
330
1F
100
AcDbEntity
  8
layer 1
 62
     7
100
AcDbSpline
210
0.0
220
0.0
230
1.0
 70
    11
 71
     3
 72
    28
 73
    24
 74
     0
 42
0.0000000001
 43
0.0000000001
 12
1.0
 22
0.0
 32
0.0
 13
1.0
 23
0.0
 33
0.0
 40
0.0
 40
0.0
 40
0.0
 40
0.0
 40
0.1428571428571428
 40
0.1428571428571428
 40
0.1428571428571428
 40
0.1428571428571428
 40
0.2857142857142857
 40
0.2857142857142857
 40
0.2857142857142857
 40
0.2857142857142857
 40
0.4285714285714285
 40
0.4285714285714285
 40
0.4285714285714285
 40
0.4285714285714285
 40
0.5714285714285714
 40
0.5714285714285714
 40
0.5714285714285714
 40
0.5714285714285714
 40
0.7142857142857143
 40
0.7142857142857143
 40
0.7142857142857143
 40
0.7142857142857143
 40
1.0
 40
1.0
 40
1.0
 40
1.0
 10
-80.402
 20
93.8828
 30
0.0
 10
-78.5296
 20
93.7263
 30
0.0
 10
-78.0005
 20
95.0973
 30
0.0
 10
-78.4999
 20
95.9453
 30
0.0
 10
-78.4999
 20
95.9453
 30
0.0
 10
-78.9704
 20
96.7467
 30
0.0
 10
-80.3965
 20
97.054
 30
0.0
 10
-81.0565
 20
96.0611
 30
0.0
 10
-81.0565
 20
96.0611
 30
0.0
 10
-82.0946
 20
96.9778
 30
0.0
 10
-80.4336
 20
99.8888
 30
0.0
 10
-78.1259
 20
99.5694
 30
0.0
 10
-78.1259
 20
99.5694
 30
0.0
 10
-78.6413
 20
100.2941
 30
0.0
 10
-78.4628
 20
101.5046
 30
0.0
 10
-78.1237
 20
102.2318
 30
0.0
 10
-78.1237
 20
102.2318
 30
0.0
 10
-79.172
 20
102.0905
 30
0.0
 10
-81.7871
 20
100.8272
 30
0.0
 10
-82.6943
 20
98.8348
 30
0.0
 10
-82.6943
 20
98.8348
 30
0.0
 10
-83.574
 20
96.9036
 30
0.0
 10
-82.7961
 20
94.2493
 30
0.0
 10
-80.402
 20
93.8828
 30
0.0
  0
SPLINE
  5
C7
330
1F
100
AcDbEntity
  8
layer 1
 62
     7
100
AcDbSpline
210
0.0
220
0.0
230
1.0
 70
    11
 71
     3
 72
    20
 73
    16
 74
     0
 42
0.0000000001
 43
0.0000000001
 12
1.0
 22
0.0
 32
0.0
 13
1.0
 23
0.0
 33
0.0
 40
0.0
 40
0.0
 40
0.0
 40
0.0
 40
0.2
 40
0.2
 40
0.2
 40
0.2
 40
0.4
 40
0.4
 40
0.4
 40
0.4
 40
0.6
 40
0.6
 40
0.6
 40
0.6
 40
1.0
 40
1.0
 40
1.0
 40
1.0
 10
-69.0426
 20
124.9668
 30
0.0
 10
-69.0426
 20
124.9668
 30
0.0
 10
-69.0426
 20
122.0989
 30
0.0
 10
-69.0426
 20
122.0989
 30
0.0
 10
-69.0426
 20
122.0989
 30
0.0
 10
-69.0426
 20
122.0989
 30
0.0
 10
-118.9513
 20
122.0989
 30
0.0
 10
-118.9513
 20
122.0989
 30
0.0
 10
-118.9513
 20
122.0989
 30
0.0
 10
-119.5685
 20
123.1783
 30
0.0
 10
-120.6085
 20
124.1303
 30
0.0
 10
-121.8938
 20
124.9668
 30
0.0
 10
-121.8938
 20
124.9668
 30
0.0
 10
-121.8938
 20
124.9668
 30
0.0
 10
-69.0426
 20
124.9668
 30
0.0
 10
-69.0426
 20
124.9668
 30
0.0
  0
SPLINE
  5
C8
330
1F
100
AcDbEntity
  8
layer 1
 62
     7
100
AcDbSpline
210
0.0
220
0.0
230
1.0
 70
    11
 71
     3
 72
    16
 73
    12
 74
     0
 42
0.0000000001
 43
0.0000000001
 12
1.0
 22
0.0
 32
0.0
 13
1.0
 23
0.0
 33
0.0
 40
0.0
 40
0.0
 40
0.0
 40
0.0
 40
0.25
 40
0.25
 40
0.25
 40
0.25
 40
0.5
 40
0.5
 40
0.5
 40
0.5
 40
1.0
 40
1.0
 40
1.0
 40
1.0
 10
-181.8812
 20
5.2741
 30
0.0
 10
-181.7282
 20
7.084
 30
0.0
 10
-180.1455
 20
8.4023
 30
0.0
 10
-179.2187
 20
8.616
 30
0.0
 10
-179.2187
 20
8.616
 30
0.0
 10
-180.1455
 20
8.8295
 30
0.0
 10
-181.7281
 20
10.1459
 30
0.0
 10
-181.881
 20
11.9518
 30
0.0
 10
-181.881
 20
11.9518
 30
0.0
 10
-181.881
 20
11.9518
 30
0.0
 10
-181.8812
 20
5.2741
 30
0.0
 10
-181.8812
 20
5.2741
 30
0.0
  0
ENDSEC
  0
SECTION
  2
OBJECTS
  0
DICTIONARY
  5
C
330
0
100
AcDbDictionary
281
     1
  3
ACAD_GROUP
350
D
  3
ACAD_LAYOUT
350
1A
  3
ACAD_MATERIAL
350
3B
  3
ACAD_MLEADERSTYLE
350
EA
  3
ACAD_MLINESTYLE
350
17
  3
ACAD_PLOTSETTINGS
350
19
  3
ACAD_PLOTSTYLENAME
350
E
  3
ACAD_TABLESTYLE
350
E9
  3
ACAD_VISUALSTYLE
350
2A
  0
DICTIONARY
  5
D
102
{ACAD_REACTORS
330
C
102
}
330
C
100
AcDbDictionary
281
     1
  0
DICTIONARY
  5
1A
102
{ACAD_REACTORS
330
C
102
}
330
C
100
AcDbDictionary
281
     1
  3
Layout1
350
1E
  3
Layout2
350
26
  3
Model
350
22
  0
DICTIONARY
  5
3B
102
{ACAD_REACTORS
330
C
102
}
330
C
100
AcDbDictionary
281
     1
  3
ByBlock
350
3D
  3
ByLayer
350
3C
  3
Global
350
3E
  0
DICTIONARY
  5
EA
102
{ACAD_REACTORS
330
C
102
}
330
C
100
AcDbDictionary
281
     1
  0
DICTIONARY
  5
17
102
{ACAD_REACTORS
330
C
102
}
330
C
100
AcDbDictionary
281
     1
  3
Standard
350
18
  0
DICTIONARY
  5
19
102
{ACAD_REACTORS
330
C
102
}
330
C
100
AcDbDictionary
281
     1
  0
ACDBDICTIONARYWDFLT
  5
E
102
{ACAD_REACTORS
330
C
102
}
330
C
100
AcDbDictionary
281
     1
  3
Normal
350
F
100
AcDbDictionaryWithDefault
340
F
  0
DICTIONARY
  5
E9
102
{ACAD_REACTORS
330
C
102
}
330
C
100
AcDbDictionary
281
     1
  0
DICTIONARY
  5
2A
102
{ACAD_REACTORS
330
C
102
}
330
C
100
AcDbDictionary
281
     1
  3
2dWireframe
350
2F
  3
3D Hidden
350
31
  3
3dWireframe
350
30
  3
Basic
350
32
  3
Brighten
350
36
  3
ColorChange
350
3A
  3
Conceptual
350
34
  3
Dim
350
35
  3
Facepattern
350
39
  3
Flat
350
2B
  3
FlatWithEdges
350
2C
  3
Gouraud
350
2D
  3
GouraudWithEdges
350
2E
  3
Linepattern
350
38
  3
Realistic
350
33
  3
Thicken
350
37
  0
LAYOUT
  5
1E
102
{ACAD_REACTORS
330
1A
102
}
330
1A
100
AcDbPlotSettings
  1

  2
none_device
  4

  6

 40
0.0
 41
0.0
 42
0.0
 43
0.0
 44
0.0
 45
0.0
 46
0.0
 47
0.0
 48
0.0
 49
0.0
140
0.0
141
0.0
142
1.0
143
1.0
 70
   688
 72
     0
 73
     0
 74
     5
  7

 75
    16
 76
     0
 77
     2
 78
   300
147
1.0
148
0.0
149
0.0
100
AcDbLayout
  1
Layout1
 70
     1
 71
     1
 10
0.0
 20
0.0
 11
12.0
 21
9.0
 12
0.0
 22
0.0
 32
0.0
 14
1.000000000000000E+20
 24
1.000000000000000E+20
 34
1.000000000000000E+20
 15
-1.000000000000000E+20
 25
-1.000000000000000E+20
 35
-1.000000000000000E+20
146
0.0
 13
0.0
 23
0.0
 33
0.0
 16
1.0
 26
0.0
 36
0.0
 17
0.0
 27
1.0
 37
0.0
 76
     0
330
1B
  0
LAYOUT
  5
26
102
{ACAD_REACTORS
330
1A
102
}
330
1A
100
AcDbPlotSettings
  1

  2
none_device
  4

  6

 40
0.0
 41
0.0
 42
0.0
 43
0.0
 44
0.0
 45
0.0
 46
0.0
 47
0.0
 48
0.0
 49
0.0
140
0.0
141
0.0
142
1.0
143
1.0
 70
   688
 72
     0
 73
     0
 74
     5
  7

 75
    16
 76
     0
 77
     2
 78
   300
147
1.0
148
0.0
149
0.0
100
AcDbLayout
  1
Layout2
 70
     1
 71
     2
 10
0.0
 20
0.0
 11
0.0
 21
0.0
 12
0.0
 22
0.0
 32
0.0
 14
0.0
 24
0.0
 34
0.0
 15
0.0
 25
0.0
 35
0.0
146
0.0
 13
0.0
 23
0.0
 33
0.0
 16
1.0
 26
0.0
 36
0.0
 17
0.0
 27
1.0
 37
0.0
 76
     0
330
23
  0
LAYOUT
  5
22
102
{ACAD_REACTORS
330
1A
102
}
330
1A
100
AcDbPlotSettings
  1

  2
none_device
  4

  6

 40
0.0
 41
0.0
 42
0.0
 43
0.0
 44
0.0
 45
0.0
 46
0.0
 47
0.0
 48
0.0
 49
0.0
140
0.0
141
0.0
142
1.0
143
1.0
 70
  1712
 72
     0
 73
     0
 74
     0
  7

 75
     0
 76
     0
 77
     2
 78
   300
147
1.0
148
0.0
149
0.0
100
AcDbLayout
  1
Model
 70
     1
 71
     0
 10
0.0
 20
0.0
 11
12.0
 21
9.0
 12
0.0
 22
0.0
 32
0.0
 14
-187.5834
 24
-114.7812
 34
0.0
 15
-61.8534
 25
131.6994
 35
0.0
146
0.0
 13
0.0
 23
0.0
 33
0.0
 16
1.0
 26
0.0
 36
0.0
 17
0.0
 27
1.0
 37
0.0
 76
     0
330
1F
331
29
  0
MATERIAL
  5
3D
102
{ACAD_REACTORS
330
3B
102
}
330
3B
100
AcDbMaterial
  1
ByBlock
 72
     1
 94
      127
  0
MATERIAL
  5
3C
102
{ACAD_REACTORS
330
3B
102
}
330
3B
100
AcDbMaterial
  1
ByLayer
 72
     1
 94
      127
  0
MATERIAL
  5
3E
102
{ACAD_REACTORS
330
3B
102
}
330
3B
100
AcDbMaterial
  1
Global
 72
     1
 94
      127
  0
MLINESTYLE
  5
18
102
{ACAD_REACTORS
330
17
102
}
330
17
100
AcDbMlineStyle
  2
Standard
 70
     0
  3

 62
   256
 51
90.0
 52
90.0
 71
     2
 49
0.5
 62
   256
  6
BYLAYER
 49
-0.5
 62
   256
  6
BYLAYER
  0
ACDBPLACEHOLDER
  5
F
102
{ACAD_REACTORS
330
E
102
}
330
E
  0
VISUALSTYLE
  5
2F
102
{ACAD_REACTORS
330
2A
102
}
102
{ACAD_XDICTIONARY
360
D1
102
}
330
2A
100
AcDbVisualStyle
  2
2dWireframe
 70
     4
 71
     0
 72
     2
 73
     0
 90
        0
 40
-0.6
 41
-30.0
 62
     5
 63
     7
421
 16777215
 74
     1
 91
        4
 64
     7
 65
   257
 75
     1
175
     1
 42
1.0
 92
        0
 66
   257
 43
1.0
 76
     1
 77
     6
 78
     2
 67
     7
 79
     5
170
     0
171
     0
290
     0
174
     0
 93
        1
 44
0.0
173
     0
291
     0
 45
0.0
  0
VISUALSTYLE
  5
31
102
{ACAD_REACTORS
330
2A
102
}
102
{ACAD_XDICTIONARY
360
D5
102
}
330
2A
100
AcDbVisualStyle
  2
3D Hidden
 70
     6
 71
     1
 72
     2
 73
     2
 90
        0
 40
-0.6
 41
-30.0
 62
     5
 63
     7
421
 16777215
 74
     2
 91
        2
 64
     7
 65
   257
 75
     2
175
     1
 42
40.0
 92
        0
 66
   257
 43
1.0
 76
     1
 77
     6
 78
     2
 67
     7
 79
     3
170
     0
171
     0
290
     0
174
     0
 93
        1
 44
0.0
173
     0
291
     0
 45
0.0
  0
VISUALSTYLE
  5
30
102
{ACAD_REACTORS
330
2A
102
}
102
{ACAD_XDICTIONARY
360
D3
102
}
330
2A
100
AcDbVisualStyle
  2
3dWireframe
 70
     5
 71
     0
 72
     2
 73
     0
 90
        0
 40
-0.6
 41
-30.0
 62
     5
 63
     7
421
 16777215
 74
     1
 91
        4
 64
     7
 65
   257
 75
     1
175
     1
 42
1.0
 92
        0
 66
   257
 43
1.0
 76
     1
 77
     6
 78
     2
 67
     7
 79
     5
170
     0
171
     0
290
     0
174
     0
 93
        1
 44
0.0
173
     0
291
     0
 45
0.0
  0
VISUALSTYLE
  5
32
102
{ACAD_REACTORS
330
2A
102
}
102
{ACAD_XDICTIONARY
360
D7
102
}
330
2A
100
AcDbVisualStyle
  2
Basic
 70
     7
 71
     1
 72
     0
 73
     1
 90
        0
 40
-0.6
 41
-30.0
 62
     5
 63
     7
421
 16777215
 74
     0
 91
        4
 64
     7
 65
   257
 75
     1
175
     1
 42
1.0
 92
        8
 66
     7
 43
1.0
 76
     1
 77
     6
 78
     2
 67
     7
 79
     5
170
     0
171
     0
290
     0
174
     0
 93
        1
 44
0.0
173
     0
291
     1
 45
0.0
  0
VISUALSTYLE
  5
36
102
{ACAD_REACTORS
330
2A
102
}
102
{ACAD_XDICTIONARY
360
DF
102
}
330
2A
100
AcDbVisualStyle
  2
Brighten
 70
    12
 71
     2
 72
     2
 73
     0
 90
        0
 40
-0.6
 41
-30.0
 62
     5
 63
     7
421
 16777215
 74
     1
 91
        4
 64
     7
 65
   257
 75
     1
175
     1
 42
1.0
 92
        8
 66
     7
 43
1.0
 76
     1
 77
     6
 78
     2
 67
     7
 79
     5
170
     0
171
     0
290
     0
174
     0
 93
        1
 44
50.0
173
     0
291
     1
 45
0.0
  0
VISUALSTYLE
  5
3A
102
{ACAD_REACTORS
330
2A
102
}
102
{ACAD_XDICTIONARY
360
E7
102
}
330
2A
100
AcDbVisualStyle
  2
ColorChange
 70
    16
 71
     2
 72
     2
 73
     3
 90
        0
 40
-0.6
 41
-30.0
 62
     5
 63
     8
421
  8421504
 74
     1
 91
        4
 64
     7
 65
   257
 75
     1
175
     1
 42
1.0
 92
        8
 66
     8
424
  8421504
 43
1.0
 76
     1
 77
     6
 78
     2
 67
     7
 79
     5
170
     0
171
     0
290
     0
174
     0
 93
        1
 44
0.0
173
     0
291
     1
 45
0.0
  0
VISUALSTYLE
  5
34
102
{ACAD_REACTORS
330
2A
102
}
102
{ACAD_XDICTIONARY
360
DB
102
}
330
2A
100
AcDbVisualStyle
  2
Conceptual
 70
     9
 71
     3
 72
     2
 73
     0
 90
        0
 40
-0.6
 41
-30.0
 62
     5
 63
     7
421
 16777215
 74
     2
 91
        2
 64
     7
 65
   257
 75
     1
175
     1
 42
40.0
 92
        8
 66
     7
 43
1.0
 76
     1
 77
     6
 78
     2
 67
     7
 79
     3
170
     0
171
     0
290
     0
174
     0
 93
        1
 44
0.0
173
     0
291
     0
 45
0.0
  0
VISUALSTYLE
  5
35
102
{ACAD_REACTORS
330
2A
102
}
102
{ACAD_XDICTIONARY
360
DD
102
}
330
2A
100
AcDbVisualStyle
  2
Dim
 70
    11
 71
     2
 72
     2
 73
     0
 90
        0
 40
-0.6
 41
-30.0
 62
     5
 63
     7
421
 16777215
 74
     1
 91
        4
 64
     7
 65
   257
 75
     1
175
     1
 42
1.0
 92
        8
 66
     7
 43
1.0
 76
     1
 77
     6
 78
     2
 67
     7
 79
     5
170
     0
171
     0
290
     0
174
     0
 93
        1
 44
-50.0
173
     0
291
     1
 45
0.0
  0
VISUALSTYLE
  5
39
102
{ACAD_REACTORS
330
2A
102
}
102
{ACAD_XDICTIONARY
360
E5
102
}
330
2A
100
AcDbVisualStyle
  2
Facepattern
 70
    15
 71
     2
 72
     2
 73
     0
 90
        0
 40
-0.6
 41
-30.0
 62
     5
 63
     7
421
 16777215
 74
     1
 91
        4
 64
     7
 65
   257
 75
     1
175
     1
 42
1.0
 92
        8
 66
     7
 43
1.0
 76
     1
 77
     6
 78
     2
 67
     7
 79
     5
170
     0
171
     0
290
     0
174
     0
 93
        1
 44
0.0
173
     0
291
     1
 45
0.0
  0
VISUALSTYLE
  5
2B
102
{ACAD_REACTORS
330
2A
102
}
102
{ACAD_XDICTIONARY
360
C9
102
}
330
2A
100
AcDbVisualStyle
  2
Flat
 70
     0
 71
     2
 72
     1
 73
     1
 90
        2
 40
-0.6
 41
30.0
 62
     5
 63
     7
421
 16777215
 74
     0
 91
        4
 64
     7
 65
   257
 75
     1
175
     1
 42
1.0
 92
        8
 66
     7
 43
1.0
 76
     1
 77
     6
 78
     2
 67
     7
 79
     5
170
     0
171
     0
290
     0
174
     0
 93
       13
 44
0.0
173
     0
291
     1
 45
0.0
  0
VISUALSTYLE
  5
2C
102
{ACAD_REACTORS
330
2A
102
}
102
{ACAD_XDICTIONARY
360
CB
102
}
330
2A
100
AcDbVisualStyle
  2
FlatWithEdges
 70
     1
 71
     2
 72
     1
 73
     1
 90
        2
 40
-0.6
 41
30.0
 62
     5
 63
     7
421
 16777215
 74
     1
 91
        4
 64
     7
 65
   257
 75
     1
175
     1
 42
1.0
 92
        0
 66
   257
 43
1.0
 76
     1
 77
     6
 78
     2
 67
     7
 79
     5
170
     0
171
     0
290
     0
174
     0
 93
       13
 44
0.0
173
     0
291
     1
 45
0.0
  0
VISUALSTYLE
  5
2D
102
{ACAD_REACTORS
330
2A
102
}
102
{ACAD_XDICTIONARY
360
CD
102
}
330
2A
100
AcDbVisualStyle
  2
Gouraud
 70
     2
 71
     2
 72
     2
 73
     1
 90
        2
 40
-0.6
 41
30.0
 62
     5
 63
     7
421
 16777215
 74
     0
 91
        4
 64
     7
 65
   257
 75
     1
175
     1
 42
1.0
 92
        0
 66
     7
 43
1.0
 76
     1
 77
     6
 78
     2
 67
     7
 79
     5
170
     0
171
     0
290
     0
174
     0
 93
       13
 44
0.0
173
     0
291
     1
 45
0.0
  0
VISUALSTYLE
  5
2E
102
{ACAD_REACTORS
330
2A
102
}
102
{ACAD_XDICTIONARY
360
CF
102
}
330
2A
100
AcDbVisualStyle
  2
GouraudWithEdges
 70
     3
 71
     2
 72
     2
 73
     1
 90
        2
 40
-0.6
 41
30.0
 62
     5
 63
     7
421
 16777215
 74
     1
 91
        4
 64
     7
 65
   257
 75
     1
175
     1
 42
1.0
 92
        0
 66
   257
 43
1.0
 76
     1
 77
     6
 78
     2
 67
     7
 79
     5
170
     0
171
     0
290
     0
174
     0
 93
       13
 44
0.0
173
     0
291
     1
 45
0.0
  0
VISUALSTYLE
  5
38
102
{ACAD_REACTORS
330
2A
102
}
102
{ACAD_XDICTIONARY
360
E3
102
}
330
2A
100
AcDbVisualStyle
  2
Linepattern
 70
    14
 71
     2
 72
     2
 73
     0
 90
        0
 40
-0.6
 41
-30.0
 62
     5
 63
     7
421
 16777215
 74
     1
 91
        4
 64
     7
 65
   257
 75
     7
175
     7
 42
1.0
 92
        8
 66
     7
 43
1.0
 76
     1
 77
     6
 78
     2
 67
     7
 79
     5
170
     0
171
     0
290
     0
174
     0
 93
        1
 44
0.0
173
     0
291
     1
 45
0.0
  0
VISUALSTYLE
  5
33
102
{ACAD_REACTORS
330
2A
102
}
102
{ACAD_XDICTIONARY
360
D9
102
}
330
2A
100
AcDbVisualStyle
  2
Realistic
 70
     8
 71
     2
 72
     2
 73
     0
 90
        0
 40
-0.6
 41
-30.0
 62
     5
 63
     7
421
 16777215
 74
     1
 91
        0
 64
     7
 65
   257
 75
     1
175
     1
 42
1.0
 92
        8
 66
     8
424
  7895160
 43
1.0
 76
     1
 77
     6
 78
     2
 67
     7
 79
     5
170
     0
171
     0
290
     0
174
     0
 93
       13
 44
0.0
173
     0
291
     0
 45
0.0
  0
VISUALSTYLE
  5
37
102
{ACAD_REACTORS
330
2A
102
}
102
{ACAD_XDICTIONARY
360
E1
102
}
330
2A
100
AcDbVisualStyle
  2
Thicken
 70
    13
 71
     2
 72
     2
 73
     0
 90
        0
 40
-0.6
 41
-30.0
 62
     5
 63
     7
421
 16777215
 74
     1
 91
        4
 64
     7
 65
   257
 75
     1
175
     1
 42
1.0
 92
       12
 66
     7
 43
1.0
 76
     1
 77
     6
 78
     2
 67
     7
 79
     5
170
     0
171
     0
290
     0
174
     0
 93
        1
 44
0.0
173
     0
291
     1
 45
0.0
  0
DICTIONARY
  5
D1
330
2F
100
AcDbDictionary
280
     1
281
     1
  3
ACAD_XREC_ROUNDTRIP
360
D2
  0
DICTIONARY
  5
D5
330
31
100
AcDbDictionary
280
     1
281
     1
  3
ACAD_XREC_ROUNDTRIP
360
D6
  0
DICTIONARY
  5
D3
330
30
100
AcDbDictionary
280
     1
281
     1
  3
ACAD_XREC_ROUNDTRIP
360
D4
  0
DICTIONARY
  5
D7
330
32
100
AcDbDictionary
280
     1
281
     1
  3
ACAD_XREC_ROUNDTRIP
360
D8
  0
DICTIONARY
  5
DF
330
36
100
AcDbDictionary
280
     1
281
     1
  3
ACAD_XREC_ROUNDTRIP
360
E0
  0
DICTIONARY
  5
E7
330
3A
100
AcDbDictionary
280
     1
281
     1
  3
ACAD_XREC_ROUNDTRIP
360
E8
  0
DICTIONARY
  5
DB
330
34
100
AcDbDictionary
280
     1
281
     1
  3
ACAD_XREC_ROUNDTRIP
360
DC
  0
DICTIONARY
  5
DD
330
35
100
AcDbDictionary
280
     1
281
     1
  3
ACAD_XREC_ROUNDTRIP
360
DE
  0
DICTIONARY
  5
E5
330
39
100
AcDbDictionary
280
     1
281
     1
  3
ACAD_XREC_ROUNDTRIP
360
E6
  0
DICTIONARY
  5
C9
330
2B
100
AcDbDictionary
280
     1
281
     1
  3
ACAD_XREC_ROUNDTRIP
360
CA
  0
DICTIONARY
  5
CB
330
2C
100
AcDbDictionary
280
     1
281
     1
  3
ACAD_XREC_ROUNDTRIP
360
CC
  0
DICTIONARY
  5
CD
330
2D
100
AcDbDictionary
280
     1
281
     1
  3
ACAD_XREC_ROUNDTRIP
360
CE
  0
DICTIONARY
  5
CF
330
2E
100
AcDbDictionary
280
     1
281
     1
  3
ACAD_XREC_ROUNDTRIP
360
D0
  0
DICTIONARY
  5
E3
330
38
100
AcDbDictionary
280
     1
281
     1
  3
ACAD_XREC_ROUNDTRIP
360
E4
  0
DICTIONARY
  5
D9
330
33
100
AcDbDictionary
280
     1
281
     1
  3
ACAD_XREC_ROUNDTRIP
360
DA
  0
DICTIONARY
  5
E1
330
37
100
AcDbDictionary
280
     1
281
     1
  3
ACAD_XREC_ROUNDTRIP
360
E2
  0
XRECORD
  5
D2
102
{ACAD_REACTORS
330
D1
102
}
330
D1
100
AcDbXrecord
280
     1
102
RTVSPropertyOp0
 70
     1
102
RTVSPropertyOp1
 70
     1
102
RTVSPropertyOp2
 70
     1
102
RTVSPropertyOp3
 70
     1
102
RTVSPropertyOp4
 70
     1
102
RTVSPropertyOp5
 70
     1
102
RTVSPropertyOp6
 70
     1
102
RTVSPropertyOp7
 70
     1
102
RTVSPropertyOp8
 70
     1
102
RTVSPropertyOp9
 70
     1
102
RTVSPropertyOp10
 70
     1
102
RTVSPropertyOp11
 70
     1
102
RTVSPropertyOp12
 70
     1
102
RTVSPropertyOp13
 70
     1
102
RTVSPropertyOp14
 70
     1
102
RTVSPropertyOp15
 70
     1
102
RTVSPropertyOp16
 70
     1
102
RTVSPropertyOp17
 70
     1
102
RTVSPropertyOp18
 70
     1
102
RTVSPropertyOp19
 70
     1
102
RTVSPropertyOp20
 70
     1
102
RTVSPropertyOp21
 70
     1
102
RTVSPropertyOp22
 70
     1
102
RTVSPropertyOp23
 70
     1
102
RTVSPropertyOp24
 70
     1
102
RTVSPropertyOp25
 70
     1
102
RTVSPropertyOp26
 70
     1
102
RTVSPropertyOp27
 70
     1
102
RTVSPropertyOp28
 70
     1
102
RTVSPropertyOp29
 70
     1
102
RTVSPropertyOp30
 70
     1
102
RTVSPropertyOp31
 70
     1
102
RTVSPropertyOp32
 70
     1
  0
XRECORD
  5
D6
102
{ACAD_REACTORS
330
D5
102
}
330
D5
100
AcDbXrecord
280
     1
102
RTVSPropertyOp0
 70
     1
102
RTVSPropertyOp1
 70
     1
102
RTVSPropertyOp2
 70
     1
102
RTVSPropertyOp3
 70
     1
102
RTVSPropertyOp4
 70
     1
102
RTVSPropertyOp5
 70
     1
102
RTVSPropertyOp6
 70
     1
102
RTVSPropertyOp7
 70
     1
102
RTVSPropertyOp8
 70
     1
102
RTVSPropertyOp9
 70
     1
102
RTVSPropertyOp10
 70
     1
102
RTVSPropertyOp11
 70
     1
102
RTVSPropertyOp12
 70
     1
102
RTVSPropertyOp13
 70
     1
102
RTVSPropertyOp14
 70
     1
102
RTVSPropertyOp15
 70
     1
102
RTVSPropertyOp16
 70
     1
102
RTVSPropertyOp17
 70
     1
102
RTVSPropertyOp18
 70
     1
102
RTVSPropertyOp19
 70
     1
102
RTVSPropertyOp20
 70
     1
102
RTVSPropertyOp21
 70
     1
102
RTVSPropertyOp22
 70
     1
102
RTVSPropertyOp23
 70
     1
102
RTVSPropertyOp24
 70
     1
102
RTVSPropertyOp25
 70
     1
102
RTVSPropertyOp26
 70
     1
102
RTVSPropertyOp27
 70
     1
102
RTVSPropertyOp28
 70
     1
102
RTVSPropertyOp29
 70
     1
102
RTVSPropertyOp30
 70
     1
102
RTVSPropertyOp31
 70
     1
102
RTVSPropertyOp32
 70
     1
  0
XRECORD
  5
D4
102
{ACAD_REACTORS
330
D3
102
}
330
D3
100
AcDbXrecord
280
     1
102
RTVSPropertyOp0
 70
     1
102
RTVSPropertyOp1
 70
     1
102
RTVSPropertyOp2
 70
     1
102
RTVSPropertyOp3
 70
     1
102
RTVSPropertyOp4
 70
     1
102
RTVSPropertyOp5
 70
     1
102
RTVSPropertyOp6
 70
     1
102
RTVSPropertyOp7
 70
     1
102
RTVSPropertyOp8
 70
     1
102
RTVSPropertyOp9
 70
     1
102
RTVSPropertyOp10
 70
     1
102
RTVSPropertyOp11
 70
     1
102
RTVSPropertyOp12
 70
     1
102
RTVSPropertyOp13
 70
     1
102
RTVSPropertyOp14
 70
     1
102
RTVSPropertyOp15
 70
     1
102
RTVSPropertyOp16
 70
     1
102
RTVSPropertyOp17
 70
     1
102
RTVSPropertyOp18
 70
     1
102
RTVSPropertyOp19
 70
     1
102
RTVSPropertyOp20
 70
     1
102
RTVSPropertyOp21
 70
     1
102
RTVSPropertyOp22
 70
     1
102
RTVSPropertyOp23
 70
     1
102
RTVSPropertyOp24
 70
     1
102
RTVSPropertyOp25
 70
     1
102
RTVSPropertyOp26
 70
     1
102
RTVSPropertyOp27
 70
     1
102
RTVSPropertyOp28
 70
     1
102
RTVSPropertyOp29
 70
     1
102
RTVSPropertyOp30
 70
     1
102
RTVSPropertyOp31
 70
     1
102
RTVSPropertyOp32
 70
     1
  0
XRECORD
  5
D8
102
{ACAD_REACTORS
330
D7
102
}
330
D7
100
AcDbXrecord
280
     1
102
RTVSPropertyOp0
 70
     1
102
RTVSPropertyOp1
 70
     1
102
RTVSPropertyOp2
 70
     1
102
RTVSPropertyOp3
 70
     1
102
RTVSPropertyOp4
 70
     1
102
RTVSPropertyOp5
 70
     1
102
RTVSPropertyOp6
 70
     1
102
RTVSPropertyOp7
 70
     1
102
RTVSPropertyOp8
 70
     1
102
RTVSPropertyOp9
 70
     1
102
RTVSPropertyOp10
 70
     1
102
RTVSPropertyOp11
 70
     1
102
RTVSPropertyOp12
 70
     1
102
RTVSPropertyOp13
 70
     1
102
RTVSPropertyOp14
 70
     1
102
RTVSPropertyOp15
 70
     1
102
RTVSPropertyOp16
 70
     1
102
RTVSPropertyOp17
 70
     1
102
RTVSPropertyOp18
 70
     1
102
RTVSPropertyOp19
 70
     1
102
RTVSPropertyOp20
 70
     1
102
RTVSPropertyOp21
 70
     1
102
RTVSPropertyOp22
 70
     1
102
RTVSPropertyOp23
 70
     1
102
RTVSPropertyOp24
 70
     1
102
RTVSPropertyOp25
 70
     1
102
RTVSPropertyOp26
 70
     1
102
RTVSPropertyOp27
 70
     1
102
RTVSPropertyOp28
 70
     1
102
RTVSPropertyOp29
 70
     1
102
RTVSPropertyOp30
 70
     1
102
RTVSPropertyOp31
 70
     1
102
RTVSPropertyOp32
 70
     1
  0
XRECORD
  5
E0
102
{ACAD_REACTORS
330
DF
102
}
330
DF
100
AcDbXrecord
280
     1
102
RTVSPropertyOp0
 70
     1
102
RTVSPropertyOp1
 70
     1
102
RTVSPropertyOp2
 70
     1
102
RTVSPropertyOp3
 70
     1
102
RTVSPropertyOp4
 70
     1
102
RTVSPropertyOp5
 70
     1
102
RTVSPropertyOp6
 70
     1
102
RTVSPropertyOp7
 70
     1
102
RTVSPropertyOp8
 70
     1
102
RTVSPropertyOp9
 70
     1
102
RTVSPropertyOp10
 70
     1
102
RTVSPropertyOp11
 70
     1
102
RTVSPropertyOp12
 70
     1
102
RTVSPropertyOp13
 70
     1
102
RTVSPropertyOp14
 70
     1
102
RTVSPropertyOp15
 70
     1
102
RTVSPropertyOp16
 70
     1
102
RTVSPropertyOp17
 70
     1
102
RTVSPropertyOp18
 70
     1
102
RTVSPropertyOp19
 70
     1
102
RTVSPropertyOp20
 70
     1
102
RTVSPropertyOp21
 70
     1
102
RTVSPropertyOp22
 70
     1
102
RTVSPropertyOp23
 70
     1
102
RTVSPropertyOp24
 70
     1
102
RTVSPropertyOp25
 70
     1
102
RTVSPropertyOp26
 70
     1
102
RTVSPropertyOp27
 70
     1
102
RTVSPropertyOp28
 70
     1
102
RTVSPropertyOp29
 70
     1
102
RTVSPropertyOp30
 70
     1
102
RTVSPropertyOp31
 70
     1
102
RTVSPropertyOp32
 70
     1
  0
XRECORD
  5
E8
102
{ACAD_REACTORS
330
E7
102
}
330
E7
100
AcDbXrecord
280
     1
102
RTVSPropertyOp0
 70
     1
102
RTVSPropertyOp1
 70
     1
102
RTVSPropertyOp2
 70
     1
102
RTVSPropertyOp3
 70
     1
102
RTVSPropertyOp4
 70
     1
102
RTVSPropertyOp5
 70
     1
102
RTVSPropertyOp6
 70
     1
102
RTVSPropertyOp7
 70
     1
102
RTVSPropertyOp8
 70
     1
102
RTVSPropertyOp9
 70
     1
102
RTVSPropertyOp10
 70
     1
102
RTVSPropertyOp11
 70
     1
102
RTVSPropertyOp12
 70
     1
102
RTVSPropertyOp13
 70
     1
102
RTVSPropertyOp14
 70
     1
102
RTVSPropertyOp15
 70
     1
102
RTVSPropertyOp16
 70
     1
102
RTVSPropertyOp17
 70
     1
102
RTVSPropertyOp18
 70
     1
102
RTVSPropertyOp19
 70
     1
102
RTVSPropertyOp20
 70
     1
102
RTVSPropertyOp21
 70
     1
102
RTVSPropertyOp22
 70
     1
102
RTVSPropertyOp23
 70
     1
102
RTVSPropertyOp24
 70
     1
102
RTVSPropertyOp25
 70
     1
102
RTVSPropertyOp26
 70
     1
102
RTVSPropertyOp27
 70
     1
102
RTVSPropertyOp28
 70
     1
102
RTVSPropertyOp29
 70
     1
102
RTVSPropertyOp30
 70
     1
102
RTVSPropertyOp31
 70
     1
102
RTVSPropertyOp32
 70
     1
  0
XRECORD
  5
DC
102
{ACAD_REACTORS
330
DB
102
}
330
DB
100
AcDbXrecord
280
     1
102
RTVSPropertyOp0
 70
     1
102
RTVSPropertyOp1
 70
     1
102
RTVSPropertyOp2
 70
     1
102
RTVSPropertyOp3
 70
     1
102
RTVSPropertyOp4
 70
     1
102
RTVSPropertyOp5
 70
     1
102
RTVSPropertyOp6
 70
     1
102
RTVSPropertyOp7
 70
     1
102
RTVSPropertyOp8
 70
     1
102
RTVSPropertyOp9
 70
     1
102
RTVSPropertyOp10
 70
     1
102
RTVSPropertyOp11
 70
     1
102
RTVSPropertyOp12
 70
     1
102
RTVSPropertyOp13
 70
     1
102
RTVSPropertyOp14
 70
     1
102
RTVSPropertyOp15
 70
     1
102
RTVSPropertyOp16
 70
     1
102
RTVSPropertyOp17
 70
     1
102
RTVSPropertyOp18
 70
     1
102
RTVSPropertyOp19
 70
     1
102
RTVSPropertyOp20
 70
     1
102
RTVSPropertyOp21
 70
     1
102
RTVSPropertyOp22
 70
     1
102
RTVSPropertyOp23
 70
     1
102
RTVSPropertyOp24
 70
     1
102
RTVSPropertyOp25
 70
     1
102
RTVSPropertyOp26
 70
     1
102
RTVSPropertyOp27
 70
     1
102
RTVSPropertyOp28
 70
     1
102
RTVSPropertyOp29
 70
     1
102
RTVSPropertyOp30
 70
     1
102
RTVSPropertyOp31
 70
     1
102
RTVSPropertyOp32
 70
     1
  0
XRECORD
  5
DE
102
{ACAD_REACTORS
330
DD
102
}
330
DD
100
AcDbXrecord
280
     1
102
RTVSPropertyOp0
 70
     1
102
RTVSPropertyOp1
 70
     1
102
RTVSPropertyOp2
 70
     1
102
RTVSPropertyOp3
 70
     1
102
RTVSPropertyOp4
 70
     1
102
RTVSPropertyOp5
 70
     1
102
RTVSPropertyOp6
 70
     1
102
RTVSPropertyOp7
 70
     1
102
RTVSPropertyOp8
 70
     1
102
RTVSPropertyOp9
 70
     1
102
RTVSPropertyOp10
 70
     1
102
RTVSPropertyOp11
 70
     1
102
RTVSPropertyOp12
 70
     1
102
RTVSPropertyOp13
 70
     1
102
RTVSPropertyOp14
 70
     1
102
RTVSPropertyOp15
 70
     1
102
RTVSPropertyOp16
 70
     1
102
RTVSPropertyOp17
 70
     1
102
RTVSPropertyOp18
 70
     1
102
RTVSPropertyOp19
 70
     1
102
RTVSPropertyOp20
 70
     1
102
RTVSPropertyOp21
 70
     1
102
RTVSPropertyOp22
 70
     1
102
RTVSPropertyOp23
 70
     1
102
RTVSPropertyOp24
 70
     1
102
RTVSPropertyOp25
 70
     1
102
RTVSPropertyOp26
 70
     1
102
RTVSPropertyOp27
 70
     1
102
RTVSPropertyOp28
 70
     1
102
RTVSPropertyOp29
 70
     1
102
RTVSPropertyOp30
 70
     1
102
RTVSPropertyOp31
 70
     1
102
RTVSPropertyOp32
 70
     1
  0
XRECORD
  5
E6
102
{ACAD_REACTORS
330
E5
102
}
330
E5
100
AcDbXrecord
280
     1
102
RTVSPropertyOp0
 70
     1
102
RTVSPropertyOp1
 70
     1
102
RTVSPropertyOp2
 70
     1
102
RTVSPropertyOp3
 70
     1
102
RTVSPropertyOp4
 70
     1
102
RTVSPropertyOp5
 70
     1
102
RTVSPropertyOp6
 70
     1
102
RTVSPropertyOp7
 70
     1
102
RTVSPropertyOp8
 70
     1
102
RTVSPropertyOp9
 70
     1
102
RTVSPropertyOp10
 70
     1
102
RTVSPropertyOp11
 70
     1
102
RTVSPropertyOp12
 70
     1
102
RTVSPropertyOp13
 70
     1
102
RTVSPropertyOp14
 70
     1
102
RTVSPropertyOp15
 70
     1
102
RTVSPropertyOp16
 70
     1
102
RTVSPropertyOp17
 70
     1
102
RTVSPropertyOp18
 70
     1
102
RTVSPropertyOp19
 70
     1
102
RTVSPropertyOp20
 70
     1
102
RTVSPropertyOp21
 70
     1
102
RTVSPropertyOp22
 70
     1
102
RTVSPropertyOp23
 70
     1
102
RTVSPropertyOp24
 70
     1
102
RTVSPropertyOp25
 70
     1
102
RTVSPropertyOp26
 70
     1
102
RTVSPropertyOp27
 70
     1
102
RTVSPropertyOp28
 70
     1
102
RTVSPropertyOp29
 70
     1
102
RTVSPropertyOp30
 70
     1
102
RTVSPropertyOp31
 70
     1
102
RTVSPropertyOp32
 70
     1
  0
XRECORD
  5
CA
102
{ACAD_REACTORS
330
C9
102
}
330
C9
100
AcDbXrecord
280
     1
102
RTVSPropertyOp0
 70
     1
102
RTVSPropertyOp1
 70
     1
102
RTVSPropertyOp2
 70
     1
102
RTVSPropertyOp3
 70
     1
102
RTVSPropertyOp4
 70
     1
102
RTVSPropertyOp5
 70
     1
102
RTVSPropertyOp6
 70
     1
102
RTVSPropertyOp7
 70
     1
102
RTVSPropertyOp8
 70
     1
102
RTVSPropertyOp9
 70
     1
102
RTVSPropertyOp10
 70
     1
102
RTVSPropertyOp11
 70
     1
102
RTVSPropertyOp12
 70
     1
102
RTVSPropertyOp13
 70
     1
102
RTVSPropertyOp14
 70
     1
102
RTVSPropertyOp15
 70
     1
102
RTVSPropertyOp16
 70
     1
102
RTVSPropertyOp17
 70
     1
102
RTVSPropertyOp18
 70
     1
102
RTVSPropertyOp19
 70
     1
102
RTVSPropertyOp20
 70
     1
102
RTVSPropertyOp21
 70
     1
102
RTVSPropertyOp22
 70
     1
102
RTVSPropertyOp23
 70
     1
102
RTVSPropertyOp24
 70
     1
102
RTVSPropertyOp25
 70
     1
102
RTVSPropertyOp26
 70
     1
102
RTVSPropertyOp27
 70
     1
102
RTVSPropertyOp28
 70
     1
102
RTVSPropertyOp29
 70
     1
102
RTVSPropertyOp30
 70
     1
102
RTVSPropertyOp31
 70
     1
102
RTVSPropertyOp32
 70
     1
  0
XRECORD
  5
CC
102
{ACAD_REACTORS
330
CB
102
}
330
CB
100
AcDbXrecord
280
     1
102
RTVSPropertyOp0
 70
     1
102
RTVSPropertyOp1
 70
     1
102
RTVSPropertyOp2
 70
     1
102
RTVSPropertyOp3
 70
     1
102
RTVSPropertyOp4
 70
     1
102
RTVSPropertyOp5
 70
     1
102
RTVSPropertyOp6
 70
     1
102
RTVSPropertyOp7
 70
     1
102
RTVSPropertyOp8
 70
     1
102
RTVSPropertyOp9
 70
     1
102
RTVSPropertyOp10
 70
     1
102
RTVSPropertyOp11
 70
     1
102
RTVSPropertyOp12
 70
     1
102
RTVSPropertyOp13
 70
     1
102
RTVSPropertyOp14
 70
     1
102
RTVSPropertyOp15
 70
     1
102
RTVSPropertyOp16
 70
     1
102
RTVSPropertyOp17
 70
     1
102
RTVSPropertyOp18
 70
     1
102
RTVSPropertyOp19
 70
     1
102
RTVSPropertyOp20
 70
     1
102
RTVSPropertyOp21
 70
     1
102
RTVSPropertyOp22
 70
     1
102
RTVSPropertyOp23
 70
     1
102
RTVSPropertyOp24
 70
     1
102
RTVSPropertyOp25
 70
     1
102
RTVSPropertyOp26
 70
     1
102
RTVSPropertyOp27
 70
     1
102
RTVSPropertyOp28
 70
     1
102
RTVSPropertyOp29
 70
     1
102
RTVSPropertyOp30
 70
     1
102
RTVSPropertyOp31
 70
     1
102
RTVSPropertyOp32
 70
     1
  0
XRECORD
  5
CE
102
{ACAD_REACTORS
330
CD
102
}
330
CD
100
AcDbXrecord
280
     1
102
RTVSPropertyOp0
 70
     1
102
RTVSPropertyOp1
 70
     1
102
RTVSPropertyOp2
 70
     1
102
RTVSPropertyOp3
 70
     1
102
RTVSPropertyOp4
 70
     1
102
RTVSPropertyOp5
 70
     1
102
RTVSPropertyOp6
 70
     1
102
RTVSPropertyOp7
 70
     1
102
RTVSPropertyOp8
 70
     1
102
RTVSPropertyOp9
 70
     1
102
RTVSPropertyOp10
 70
     1
102
RTVSPropertyOp11
 70
     1
102
RTVSPropertyOp12
 70
     1
102
RTVSPropertyOp13
 70
     1
102
RTVSPropertyOp14
 70
     1
102
RTVSPropertyOp15
 70
     1
102
RTVSPropertyOp16
 70
     1
102
RTVSPropertyOp17
 70
     1
102
RTVSPropertyOp18
 70
     1
102
RTVSPropertyOp19
 70
     1
102
RTVSPropertyOp20
 70
     1
102
RTVSPropertyOp21
 70
     1
102
RTVSPropertyOp22
 70
     1
102
RTVSPropertyOp23
 70
     1
102
RTVSPropertyOp24
 70
     1
102
RTVSPropertyOp25
 70
     1
102
RTVSPropertyOp26
 70
     1
102
RTVSPropertyOp27
 70
     1
102
RTVSPropertyOp28
 70
     1
102
RTVSPropertyOp29
 70
     1
102
RTVSPropertyOp30
 70
     1
102
RTVSPropertyOp31
 70
     1
102
RTVSPropertyOp32
 70
     1
  0
XRECORD
  5
D0
102
{ACAD_REACTORS
330
CF
102
}
330
CF
100
AcDbXrecord
280
     1
102
RTVSPropertyOp0
 70
     1
102
RTVSPropertyOp1
 70
     1
102
RTVSPropertyOp2
 70
     1
102
RTVSPropertyOp3
 70
     1
102
RTVSPropertyOp4
 70
     1
102
RTVSPropertyOp5
 70
     1
102
RTVSPropertyOp6
 70
     1
102
RTVSPropertyOp7
 70
     1
102
RTVSPropertyOp8
 70
     1
102
RTVSPropertyOp9
 70
     1
102
RTVSPropertyOp10
 70
     1
102
RTVSPropertyOp11
 70
     1
102
RTVSPropertyOp12
 70
     1
102
RTVSPropertyOp13
 70
     1
102
RTVSPropertyOp14
 70
     1
102
RTVSPropertyOp15
 70
     1
102
RTVSPropertyOp16
 70
     1
102
RTVSPropertyOp17
 70
     1
102
RTVSPropertyOp18
 70
     1
102
RTVSPropertyOp19
 70
     1
102
RTVSPropertyOp20
 70
     1
102
RTVSPropertyOp21
 70
     1
102
RTVSPropertyOp22
 70
     1
102
RTVSPropertyOp23
 70
     1
102
RTVSPropertyOp24
 70
     1
102
RTVSPropertyOp25
 70
     1
102
RTVSPropertyOp26
 70
     1
102
RTVSPropertyOp27
 70
     1
102
RTVSPropertyOp28
 70
     1
102
RTVSPropertyOp29
 70
     1
102
RTVSPropertyOp30
 70
     1
102
RTVSPropertyOp31
 70
     1
102
RTVSPropertyOp32
 70
     1
  0
XRECORD
  5
E4
102
{ACAD_REACTORS
330
E3
102
}
330
E3
100
AcDbXrecord
280
     1
102
RTVSPropertyOp0
 70
     1
102
RTVSPropertyOp1
 70
     1
102
RTVSPropertyOp2
 70
     1
102
RTVSPropertyOp3
 70
     1
102
RTVSPropertyOp4
 70
     1
102
RTVSPropertyOp5
 70
     1
102
RTVSPropertyOp6
 70
     1
102
RTVSPropertyOp7
 70
     1
102
RTVSPropertyOp8
 70
     1
102
RTVSPropertyOp9
 70
     1
102
RTVSPropertyOp10
 70
     1
102
RTVSPropertyOp11
 70
     1
102
RTVSPropertyOp12
 70
     1
102
RTVSPropertyOp13
 70
     1
102
RTVSPropertyOp14
 70
     1
102
RTVSPropertyOp15
 70
     1
102
RTVSPropertyOp16
 70
     1
102
RTVSPropertyOp17
 70
     1
102
RTVSPropertyOp18
 70
     1
102
RTVSPropertyOp19
 70
     1
102
RTVSPropertyOp20
 70
     1
102
RTVSPropertyOp21
 70
     1
102
RTVSPropertyOp22
 70
     1
102
RTVSPropertyOp23
 70
     1
102
RTVSPropertyOp24
 70
     1
102
RTVSPropertyOp25
 70
     1
102
RTVSPropertyOp26
 70
     1
102
RTVSPropertyOp27
 70
     1
102
RTVSPropertyOp28
 70
     1
102
RTVSPropertyOp29
 70
     1
102
RTVSPropertyOp30
 70
     1
102
RTVSPropertyOp31
 70
     1
102
RTVSPropertyOp32
 70
     1
  0
XRECORD
  5
DA
102
{ACAD_REACTORS
330
D9
102
}
330
D9
100
AcDbXrecord
280
     1
102
RTVSPropertyOp0
 70
     1
102
RTVSPropertyOp1
 70
     1
102
RTVSPropertyOp2
 70
     1
102
RTVSPropertyOp3
 70
     1
102
RTVSPropertyOp4
 70
     1
102
RTVSPropertyOp5
 70
     1
102
RTVSPropertyOp6
 70
     1
102
RTVSPropertyOp7
 70
     1
102
RTVSPropertyOp8
 70
     1
102
RTVSPropertyOp9
 70
     1
102
RTVSPropertyOp10
 70
     1
102
RTVSPropertyOp11
 70
     1
102
RTVSPropertyOp12
 70
     1
102
RTVSPropertyOp13
 70
     1
102
RTVSPropertyOp14
 70
     1
102
RTVSPropertyOp15
 70
     1
102
RTVSPropertyOp16
 70
     1
102
RTVSPropertyOp17
 70
     1
102
RTVSPropertyOp18
 70
     1
102
RTVSPropertyOp19
 70
     1
102
RTVSPropertyOp20
 70
     1
102
RTVSPropertyOp21
 70
     1
102
RTVSPropertyOp22
 70
     1
102
RTVSPropertyOp23
 70
     1
102
RTVSPropertyOp24
 70
     1
102
RTVSPropertyOp25
 70
     1
102
RTVSPropertyOp26
 70
     1
102
RTVSPropertyOp27
 70
     1
102
RTVSPropertyOp28
 70
     1
102
RTVSPropertyOp29
 70
     1
102
RTVSPropertyOp30
 70
     1
102
RTVSPropertyOp31
 70
     1
102
RTVSPropertyOp32
 70
     1
  0
XRECORD
  5
E2
102
{ACAD_REACTORS
330
E1
102
}
330
E1
100
AcDbXrecord
280
     1
102
RTVSPropertyOp0
 70
     1
102
RTVSPropertyOp1
 70
     1
102
RTVSPropertyOp2
 70
     1
102
RTVSPropertyOp3
 70
     1
102
RTVSPropertyOp4
 70
     1
102
RTVSPropertyOp5
 70
     1
102
RTVSPropertyOp6
 70
     1
102
RTVSPropertyOp7
 70
     1
102
RTVSPropertyOp8
 70
     1
102
RTVSPropertyOp9
 70
     1
102
RTVSPropertyOp10
 70
     1
102
RTVSPropertyOp11
 70
     1
102
RTVSPropertyOp12
 70
     1
102
RTVSPropertyOp13
 70
     1
102
RTVSPropertyOp14
 70
     1
102
RTVSPropertyOp15
 70
     1
102
RTVSPropertyOp16
 70
     1
102
RTVSPropertyOp17
 70
     1
102
RTVSPropertyOp18
 70
     1
102
RTVSPropertyOp19
 70
     1
102
RTVSPropertyOp20
 70
     1
102
RTVSPropertyOp21
 70
     1
102
RTVSPropertyOp22
 70
     1
102
RTVSPropertyOp23
 70
     1
102
RTVSPropertyOp24
 70
     1
102
RTVSPropertyOp25
 70
     1
102
RTVSPropertyOp26
 70
     1
102
RTVSPropertyOp27
 70
     1
102
RTVSPropertyOp28
 70
     1
102
RTVSPropertyOp29
 70
     1
102
RTVSPropertyOp30
 70
     1
102
RTVSPropertyOp31
 70
     1
102
RTVSPropertyOp32
 70
     1
  0
ENDSEC
  0
EOF
