  0
SECTION
  2
HEADER
  9
$ACADVER
  1
AC1021
  9
$ACADMAINTVER
 70
    25
  9
$DWGCODEPAGE
  3
ANSI_1252
  9
$INSBASE
 10
0.0
 20
0.0
 30
0.0
  9
$EXTMIN
 10
115.2956
 20
-106.7362
 30
0.0
  9
$EXTMAX
 10
196.2118
 20
124.6585
 30
0.0
  9
$LIMMIN
 10
0.0
 20
0.0
  9
$LIMMAX
 10
12.0
 20
9.0
  9
$ORTHOMODE
 70
     0
  9
$REGENMODE
 70
     1
  9
$FILLMODE
 70
     1
  9
$QTEXTMODE
 70
     0
  9
$MIRRTEXT
 70
     1
  9
$LTSCALE
 40
1.0
  9
$ATTMODE
 70
     1
  9
$TEXTSIZE
 40
0.2
  9
$TRACEWID
 40
0.05
  9
$TEXTSTYLE
  7
Standard
  9
$CLAYER
  8
0
  9
$CELTYPE
  6
ByLayer
  9
$CECOLOR
 62
   256
  9
$CELTSCALE
 40
1.0
  9
$DISPSILH
 70
     0
  9
$DIMSCALE
 40
1.0
  9
$DIMASZ
 40
0.18
  9
$DIMEXO
 40
0.0625
  9
$DIMDLI
 40
0.38
  9
$DIMRND
 40
0.0
  9
$DIMDLE
 40
0.0
  9
$DIMEXE
 40
0.18
  9
$DIMTP
 40
0.0
  9
$DIMTM
 40
0.0
  9
$DIMTXT
 40
0.18
  9
$DIMCEN
 40
0.09
  9
$DIMTSZ
 40
0.0
  9
$DIMTOL
 70
     0
  9
$DIMLIM
 70
     0
  9
$DIMTIH
 70
     1
  9
$DIMTOH
 70
     1
  9
$DIMSE1
 70
     0
  9
$DIMSE2
 70
     0
  9
$DIMTAD
 70
     0
  9
$DIMZIN
 70
     0
  9
$DIMBLK
  1

  9
$DIMASO
 70
     1
  9
$DIMSHO
 70
     1
  9
$DIMPOST
  1

  9
$DIMAPOST
  1

  9
$DIMALT
 70
     0
  9
$DIMALTD
 70
     2
  9
$DIMALTF
 40
25.4
  9
$DIMLFAC
 40
1.0
  9
$DIMTOFL
 70
     0
  9
$DIMTVP
 40
0.0
  9
$DIMTIX
 70
     0
  9
$DIMSOXD
 70
     0
  9
$DIMSAH
 70
     0
  9
$DIMBLK1
  1

  9
$DIMBLK2
  1

  9
$DIMSTYLE
  2
Standard
  9
$DIMCLRD
 70
     0
  9
$DIMCLRE
 70
     0
  9
$DIMCLRT
 70
     0
  9
$DIMTFAC
 40
1.0
  9
$DIMGAP
 40
0.09
  9
$DIMJUST
 70
     0
  9
$DIMSD1
 70
     0
  9
$DIMSD2
 70
     0
  9
$DIMTOLJ
 70
     1
  9
$DIMTZIN
 70
     0
  9
$DIMALTZ
 70
     0
  9
$DIMALTTZ
 70
     0
  9
$DIMUPT
 70
     0
  9
$DIMDEC
 70
     4
  9
$DIMTDEC
 70
     4
  9
$DIMALTU
 70
     2
  9
$DIMALTTD
 70
     2
  9
$DIMTXSTY
  7
Standard
  9
$DIMAUNIT
 70
     0
  9
$DIMADEC
 70
     0
  9
$DIMALTRND
 40
0.0
  9
$DIMAZIN
 70
     0
  9
$DIMDSEP
 70
    46
  9
$DIMATFIT
 70
     3
  9
$DIMFRAC
 70
     0
  9
$DIMLDRBLK
  1

  9
$DIMLUNIT
 70
     2
  9
$DIMLWD
 70
    -2
  9
$DIMLWE
 70
    -2
  9
$DIMTMOVE
 70
     0
  9
$DIMFXL
 40
1.0
  9
$DIMFXLON
 70
     0
  9
$DIMJOGANG
 40
0.7853981633974483
  9
$DIMTFILL
 70
     0
  9
$DIMTFILLCLR
 70
     0
  9
$DIMARCSYM
 70
     0
  9
$DIMLTYPE
  6

  9
$DIMLTEX1
  6

  9
$DIMLTEX2
  6

  9
$LUNITS
 70
     2
  9
$LUPREC
 70
     4
  9
$SKETCHINC
 40
0.1
  9
$FILLETRAD
 40
0.5
  9
$AUNITS
 70
     0
  9
$AUPREC
 70
     0
  9
$MENU
  1
.
  9
$ELEVATION
 40
0.0
  9
$PELEVATION
 40
0.0
  9
$THICKNESS
 40
0.0
  9
$LIMCHECK
 70
     0
  9
$CHAMFERA
 40
0.5
  9
$CHAMFERB
 40
0.5
  9
$CHAMFERC
 40
1.0
  9
$CHAMFERD
 40
0.0
  9
$SKPOLY
 70
     0
  9
$TDCREATE
 40
2458492.777874699
  9
$TDUCREATE
 40
2458492.777874699
  9
$TDUPDATE
 40
2458492.777875
  9
$TDUUPDATE
 40
2458492.777875
  9
$TDINDWG
 40
0.0000000116
  9
$TDUSRTIMER
 40
0.0000000116
  9
$USRTIMER
 70
     1
  9
$ANGBASE
 50
0.0
  9
$ANGDIR
 70
     0
  9
$PDMODE
 70
     0
  9
$PDSIZE
 40
0.0
  9
$PLINEWID
 40
0.0
  9
$SPLFRAME
 70
     0
  9
$SPLINETYPE
 70
     6
  9
$SPLINESEGS
 70
     8
  9
$HANDSEED
  5
C1
  9
$SURFTAB1
 70
     6
  9
$SURFTAB2
 70
     6
  9
$SURFTYPE
 70
     6
  9
$SURFU
 70
     6
  9
$SURFV
 70
     6
  9
$UCSBASE
  2

  9
$UCSNAME
  2

  9
$UCSORG
 10
0.0
 20
0.0
 30
0.0
  9
$UCSXDIR
 10
1.0
 20
0.0
 30
0.0
  9
$UCSYDIR
 10
0.0
 20
1.0
 30
0.0
  9
$UCSORTHOREF
  2

  9
$UCSORTHOVIEW
 70
     0
  9
$UCSORGTOP
 10
0.0
 20
0.0
 30
0.0
  9
$UCSORGBOTTOM
 10
0.0
 20
0.0
 30
0.0
  9
$UCSORGLEFT
 10
0.0
 20
0.0
 30
0.0
  9
$UCSORGRIGHT
 10
0.0
 20
0.0
 30
0.0
  9
$UCSORGFRONT
 10
0.0
 20
0.0
 30
0.0
  9
$UCSORGBACK
 10
0.0
 20
0.0
 30
0.0
  9
$PUCSBASE
  2

  9
$PUCSNAME
  2

  9
$PUCSORG
 10
0.0
 20
0.0
 30
0.0
  9
$PUCSXDIR
 10
1.0
 20
0.0
 30
0.0
  9
$PUCSYDIR
 10
0.0
 20
1.0
 30
0.0
  9
$PUCSORTHOREF
  2

  9
$PUCSORTHOVIEW
 70
     0
  9
$PUCSORGTOP
 10
0.0
 20
0.0
 30
0.0
  9
$PUCSORGBOTTOM
 10
0.0
 20
0.0
 30
0.0
  9
$PUCSORGLEFT
 10
0.0
 20
0.0
 30
0.0
  9
$PUCSORGRIGHT
 10
0.0
 20
0.0
 30
0.0
  9
$PUCSORGFRONT
 10
0.0
 20
0.0
 30
0.0
  9
$PUCSORGBACK
 10
0.0
 20
0.0
 30
0.0
  9
$USERI1
 70
     0
  9
$USERI2
 70
     0
  9
$USERI3
 70
     0
  9
$USERI4
 70
     0
  9
$USERI5
 70
     0
  9
$USERR1
 40
0.0
  9
$USERR2
 40
0.0
  9
$USERR3
 40
0.0
  9
$USERR4
 40
0.0
  9
$USERR5
 40
0.0
  9
$WORLDVIEW
 70
     1
  9
$SHADEDGE
 70
     3
  9
$SHADEDIF
 70
    70
  9
$TILEMODE
 70
     1
  9
$MAXACTVP
 70
    64
  9
$PINSBASE
 10
0.0
 20
0.0
 30
0.0
  9
$PLIMCHECK
 70
     0
  9
$PEXTMIN
 10
1.000000000000000E+20
 20
1.000000000000000E+20
 30
1.000000000000000E+20
  9
$PEXTMAX
 10
-1.000000000000000E+20
 20
-1.000000000000000E+20
 30
-1.000000000000000E+20
  9
$PLIMMIN
 10
0.0
 20
0.0
  9
$PLIMMAX
 10
12.0
 20
9.0
  9
$UNITMODE
 70
     0
  9
$VISRETAIN
 70
     1
  9
$PLINEGEN
 70
     0
  9
$PSLTSCALE
 70
     1
  9
$TREEDEPTH
 70
  3020
  9
$CMLSTYLE
  2
Standard
  9
$CMLJUST
 70
     0
  9
$CMLSCALE
 40
1.0
  9
$PROXYGRAPHICS
 70
     1
  9
$MEASUREMENT
 70
     0
  9
$CELWEIGHT
370
    -1
  9
$ENDCAPS
280
     0
  9
$JOINSTYLE
280
     0
  9
$LWDISPLAY
290
     0
  9
$INSUNITS
 70
     4
  9
$HYPERLINKBASE
  1

  9
$STYLESHEET
  1

  9
$XEDIT
290
     1
  9
$CEPSNTYPE
380
     0
  9
$PSTYLEMODE
290
     1
  9
$FINGERPRINTGUID
  2
{183F809D-1101-407F-8A01-2BA6B8F2E7FC}
  9
$VERSIONGUID
  2
{FAEB1C32-E019-11D5-929B-00C0DF256EC4}
  9
$EXTNAMES
290
     1
  9
$PSVPSCALE
 40
0.0
  9
$OLESTARTUP
290
     0
  9
$SORTENTS
280
   127
  9
$INDEXCTL
280
     0
  9
$HIDETEXT
280
     1
  9
$XCLIPFRAME
290
     0
  9
$HALOGAP
280
     0
  9
$OBSCOLOR
 70
   257
  9
$OBSLTYPE
280
     0
  9
$INTERSECTIONDISPLAY
280
     0
  9
$INTERSECTIONCOLOR
 70
   257
  9
$DIMASSOC
280
     2
  9
$PROJECTNAME
  1

  9
$CAMERADISPLAY
290
     0
  9
$LENSLENGTH
 40
50.0
  9
$CAMERAHEIGHT
 40
0.0
  9
$STEPSPERSEC
 40
2.0
  9
$STEPSIZE
 40
6.0
  9
$3DDWFPREC
 40
2.0
  9
$PSOLWIDTH
 40
0.25
  9
$PSOLHEIGHT
 40
4.0
  9
$LOFTANG1
 40
1.570796326794897
  9
$LOFTANG2
 40
1.570796326794897
  9
$LOFTMAG1
 40
0.0
  9
$LOFTMAG2
 40
0.0
  9
$LOFTPARAM
 70
     7
  9
$LOFTNORMALS
280
     1
  9
$LATITUDE
 40
37.795
  9
$LONGITUDE
 40
-122.394
  9
$NORTHDIRECTION
 40
0.0
  9
$TIMEZONE
 70
 -8000
  9
$LIGHTGLYPHDISPLAY
280
     1
  9
$TILEMODELIGHTSYNCH
280
     1
  9
$SOLIDHIST
280
     1
  9
$SHOWHIST
280
     1
  9
$DWFFRAME
280
     2
  9
$DGNFRAME
280
     2
  9
$REALWORLDSCALE
290
     1
  9
$INTERFERECOLOR
 62
   256
  9
$CSHADOW
280
     0
  9
$SHADOWPLANELOCATION
 40
0.0
  0
ENDSEC
  0
SECTION
  2
CLASSES
  0
CLASS
  1
ACDBDICTIONARYWDFLT
  2
AcDbDictionaryWithDefault
  3
ObjectDBX Classes
 90
        0
 91
        4
280
     0
281
     0
  0
CLASS
  1
VISUALSTYLE
  2
AcDbVisualStyle
  3
ObjectDBX Classes
 90
     4095
 91
        4
280
     0
281
     0
  0
CLASS
  1
MATERIAL
  2
AcDbMaterial
  3
ObjectDBX Classes
 90
     1153
 91
        4
280
     0
281
     0
  0
ENDSEC
  0
SECTION
  2
TABLES
  0
TABLE
  2
VPORT
  5
8
330
0
100
AcDbSymbolTable
 70
     1
  0
VPORT
  5
29
330
8
100
AcDbSymbolTableRecord
100
AcDbViewportTableRecord
  2
*Active
 70
     0
 10
0.0
 20
0.0
 11
1.0
 21
1.0
 12
10.42990654205607
 22
4.5
 13
0.0
 23
0.0
 14
0.5
 24
0.5
 15
0.5
 25
0.5
 16
0.0
 26
0.0
 36
1.0
 17
0.0
 27
0.0
 37
0.0
 40
9.0
 41
1.972972972850329
 42
50.0
 43
0.0
 44
0.0
 50
0.0
 51
0.0
 71
     0
 72
   100
 73
     1
 74
     3
 75
     0
 76
     0
 77
     0
 78
     0
281
     0
 65
     1
110
0.0
120
0.0
130
0.0
111
1.0
121
0.0
131
0.0
112
0.0
122
1.0
132
0.0
 79
     0
146
0.0
 60
     3
 61
     5
292
     1
282
     1
141
0.0
142
0.0
 63
   250
  0
ENDTAB
  0
TABLE
  2
LTYPE
  5
5
330
0
100
AcDbSymbolTable
 70
     1
  0
LTYPE
  5
14
330
5
100
AcDbSymbolTableRecord
100
AcDbLinetypeTableRecord
  2
ByBlock
 70
     0
  3

 72
    65
 73
     0
 40
0.0
  0
LTYPE
  5
15
330
5
100
AcDbSymbolTableRecord
100
AcDbLinetypeTableRecord
  2
ByLayer
 70
     0
  3

 72
    65
 73
     0
 40
0.0
  0
LTYPE
  5
16
330
5
100
AcDbSymbolTableRecord
100
AcDbLinetypeTableRecord
  2
Continuous
 70
     0
  3
Solid line
 72
    65
 73
     0
 40
0.0
  0
ENDTAB
  0
TABLE
  2
LAYER
  5
2
330
0
100
AcDbSymbolTable
 70
     2
  0
LAYER
  5
10
330
2
100
AcDbSymbolTableRecord
100
AcDbLayerTableRecord
  2
0
 70
     0
 62
     7
  6
Continuous
370
    -3
390
F
347
3E
  0
LAYER
  5
40
330
2
100
AcDbSymbolTableRecord
100
AcDbLayerTableRecord
  2
layer 1
 70
     0
 62
     7
  6
Continuous
370
    -3
390
F
347
3E
  0
ENDTAB
  0
TABLE
  2
STYLE
  5
3
330
0
100
AcDbSymbolTable
 70
     1
  0
STYLE
  5
11
330
3
100
AcDbSymbolTableRecord
100
AcDbTextStyleTableRecord
  2
Standard
 70
     0
 40
0.0
 41
1.0
 50
0.0
 71
     0
 42
0.2
  3
txt
  4

  0
ENDTAB
  0
TABLE
  2
VIEW
  5
6
330
0
100
AcDbSymbolTable
 70
     0
  0
ENDTAB
  0
TABLE
  2
UCS
  5
7
330
0
100
AcDbSymbolTable
 70
     0
  0
ENDTAB
  0
TABLE
  2
APPID
  5
9
330
0
100
AcDbSymbolTable
 70
     2
  0
APPID
  5
12
330
9
100
AcDbSymbolTableRecord
100
AcDbRegAppTableRecord
  2
ACAD
 70
     0
  0
APPID
  5
3F
330
9
100
AcDbSymbolTableRecord
100
AcDbRegAppTableRecord
  2
ODA
 70
     0
  0
ENDTAB
  0
TABLE
  2
DIMSTYLE
  5
A
330
0
100
AcDbSymbolTable
 70
     1
100
AcDbDimStyleTable
  0
DIMSTYLE
105
27
330
A
100
AcDbSymbolTableRecord
100
AcDbDimStyleTableRecord
  2
Standard
 70
     0
178
     0
340
11
  0
ENDTAB
  0
TABLE
  2
BLOCK_RECORD
  5
1
330
0
100
AcDbSymbolTable
 70
     1
  0
BLOCK_RECORD
  5
1F
330
1
100
AcDbSymbolTableRecord
100
AcDbBlockTableRecord
  2
*Model_Space
340
22
 70
     0
280
     1
281
     0
  0
BLOCK_RECORD
  5
1B
330
1
100
AcDbSymbolTableRecord
100
AcDbBlockTableRecord
  2
*Paper_Space
340
1E
 70
     0
280
     1
281
     0
  0
BLOCK_RECORD
  5
23
330
1
100
AcDbSymbolTableRecord
100
AcDbBlockTableRecord
  2
*Paper_Space0
340
26
 70
     0
280
     1
281
     0
  0
ENDTAB
  0
ENDSEC
  0
SECTION
  2
BLOCKS
  0
BLOCK
  5
20
330
1F
100
AcDbEntity
  8
0
100
AcDbBlockBegin
  2
*Model_Space
 70
     0
 10
0.0
 20
0.0
 30
0.0
  3
*Model_Space
  1

  0
ENDBLK
  5
21
330
1F
100
AcDbEntity
  8
0
100
AcDbBlockEnd
  0
BLOCK
  5
1C
330
1B
100
AcDbEntity
 67
     1
  8
0
100
AcDbBlockBegin
  2
*Paper_Space
 70
     0
 10
0.0
 20
0.0
 30
0.0
  3
*Paper_Space
  1

  0
ENDBLK
  5
1D
330
1B
100
AcDbEntity
 67
     1
  8
0
100
AcDbBlockEnd
  0
BLOCK
  5
24
330
23
100
AcDbEntity
  8
0
100
AcDbBlockBegin
  2
*Paper_Space0
 70
     0
 10
0.0
 20
0.0
 30
0.0
  3
*Paper_Space0
  1

  0
ENDBLK
  5
25
330
23
100
AcDbEntity
  8
0
100
AcDbBlockEnd
  0
ENDSEC
  0
SECTION
  2
ENTITIES
  0
SPLINE
  5
41
330
1F
100
AcDbEntity
  8
layer 1
370
    25
100
AcDbSpline
210
0.0
220
0.0
230
1.0
 70
    11
 71
     3
 72
    20
 73
    16
 74
     0
 42
0.0000000001
 43
0.0000000001
 12
1.0
 22
0.0
 32
0.0
 13
1.0
 23
0.0
 33
0.0
 40
0.0
 40
0.0
 40
0.0
 40
0.0
 40
0.2
 40
0.2
 40
0.2
 40
0.2
 40
0.4
 40
0.4
 40
0.4
 40
0.4
 40
0.6
 40
0.6
 40
0.6
 40
0.6
 40
1.0
 40
1.0
 40
1.0
 40
1.0
 10
115.4284
 20
124.5257
 30
0.0
 10
115.4284
 20
124.5257
 30
0.0
 10
196.079
 20
124.5257
 30
0.0
 10
196.079
 20
124.5257
 30
0.0
 10
196.079
 20
124.5257
 30
0.0
 10
196.079
 20
124.5257
 30
0.0
 10
196.079
 20
-106.6034
 30
0.0
 10
196.079
 20
-106.6034
 30
0.0
 10
196.079
 20
-106.6034
 30
0.0
 10
196.079
 20
-106.6034
 30
0.0
 10
115.4284
 20
-106.6034
 30
0.0
 10
115.4284
 20
-106.6034
 30
0.0
 10
115.4284
 20
-106.6034
 30
0.0
 10
115.4284
 20
-106.6034
 30
0.0
 10
115.4284
 20
124.5257
 30
0.0
 10
115.4284
 20
124.5257
 30
0.0
  0
SPLINE
  5
42
330
1F
100
AcDbEntity
  8
layer 1
 62
     7
100
AcDbSpline
210
0.0
220
0.0
230
1.0
 70
    11
 71
     3
 72
    16
 73
    12
 74
     0
 42
0.0000000001
 43
0.0000000001
 12
1.0
 22
0.0
 32
0.0
 13
1.0
 23
0.0
 33
0.0
 40
0.0
 40
0.0
 40
0.0
 40
0.0
 40
0.25
 40
0.25
 40
0.25
 40
0.25
 40
0.5
 40
0.5
 40
0.5
 40
0.5
 40
1.0
 40
1.0
 40
1.0
 40
1.0
 10
126.7788
 20
-6.7086
 30
0.0
 10
123.0942
 20
-8.6489
 30
0.0
 10
122.7779
 20
-16.8205
 30
0.0
 10
126.2218
 20
-20.4452
 30
0.0
 10
126.2218
 20
-20.4452
 30
0.0
 10
127.4819
 20
-18.4567
 30
0.0
 10
129.3341
 20
-16.7312
 30
0.0
 10
130.7454
 20
-15.4527
 30
0.0
 10
130.7454
 20
-15.4527
 30
0.0
 10
126.5108
 20
-14.9234
 30
0.0
 10
124.5052
 20
-10.1922
 30
0.0
 10
126.7788
 20
-6.7086
 30
0.0
  0
SPLINE
  5
43
330
1F
100
AcDbEntity
  8
layer 1
370
    30
100
AcDbSpline
210
0.0
220
0.0
230
1.0
 70
    11
 71
     3
 72
    16
 73
    12
 74
     0
 42
0.0000000001
 43
0.0000000001
 12
1.0
 22
0.0
 32
0.0
 13
1.0
 23
0.0
 33
0.0
 40
0.0
 40
0.0
 40
0.0
 40
0.0
 40
0.25
 40
0.25
 40
0.25
 40
0.25
 40
0.5
 40
0.5
 40
0.5
 40
0.5
 40
1.0
 40
1.0
 40
1.0
 40
1.0
 10
126.7788
 20
-6.7086
 30
0.0
 10
123.0942
 20
-8.6489
 30
0.0
 10
122.7779
 20
-16.8205
 30
0.0
 10
126.2218
 20
-20.4452
 30
0.0
 10
126.2218
 20
-20.4452
 30
0.0
 10
127.4819
 20
-18.4567
 30
0.0
 10
129.3345
 20
-16.7312
 30
0.0
 10
130.7454
 20
-15.4527
 30
0.0
 10
130.7454
 20
-15.4527
 30
0.0
 10
126.5109
 20
-14.9234
 30
0.0
 10
124.5052
 20
-10.1922
 30
0.0
 10
126.7788
 20
-6.7086
 30
0.0
  0
SPLINE
  5
44
330
1F
100
AcDbEntity
  8
layer 1
 62
     7
370
    30
100
AcDbSpline
210
0.0
220
0.0
230
1.0
 70
    11
 71
     3
 72
    16
 73
    12
 74
     0
 42
0.0000000001
 43
0.0000000001
 12
1.0
 22
0.0
 32
0.0
 13
1.0
 23
0.0
 33
0.0
 40
0.0
 40
0.0
 40
0.0
 40
0.0
 40
0.25
 40
0.25
 40
0.25
 40
0.25
 40
0.5
 40
0.5
 40
0.5
 40
0.5
 40
1.0
 40
1.0
 40
1.0
 40
1.0
 10
138.0986
 20
-19.6493
 30
0.0
 10
137.3152
 20
-21.2803
 30
0.0
 10
136.0314
 20
-23.0265
 30
0.0
 10
133.5808
 20
-24.9358
 30
0.0
 10
133.5808
 20
-24.9358
 30
0.0
 10
134.9041
 20
-25.5681
 30
0.0
 10
139.8124
 20
-25.5249
 30
0.0
 10
141.6905
 20
-24.6213
 30
0.0
 10
141.6905
 20
-24.6213
 30
0.0
 10
139.1093
 20
-24.1228
 30
0.0
 10
138.0406
 20
-21.4505
 30
0.0
 10
138.0986
 20
-19.6493
 30
0.0
  0
SPLINE
  5
45
330
1F
100
AcDbEntity
  8
layer 1
 62
     7
370
    30
100
AcDbSpline
210
0.0
220
0.0
230
1.0
 70
    11
 71
     3
 72
    20
 73
    16
 74
     0
 42
0.0000000001
 43
0.0000000001
 12
1.0
 22
0.0
 32
0.0
 13
1.0
 23
0.0
 33
0.0
 40
0.0
 40
0.0
 40
0.0
 40
0.0
 40
0.2
 40
0.2
 40
0.2
 40
0.2
 40
0.4
 40
0.4
 40
0.4
 40
0.4
 40
0.6
 40
0.6
 40
0.6
 40
0.6
 40
1.0
 40
1.0
 40
1.0
 40
1.0
 10
131.4568
 20
-4.3386
 30
0.0
 10
133.4792
 20
-3.8165
 30
0.0
 10
135.4713
 20
-5.4368
 30
0.0
 10
135.7322
 20
-7.4408
 30
0.0
 10
135.7322
 20
-7.4408
 30
0.0
 10
132.2835
 20
-6.2221
 30
0.0
 10
131.3776
 20
-9.6441
 30
0.0
 10
132.9329
 20
-11.0739
 30
0.0
 10
132.9329
 20
-11.0739
 30
0.0
 10
133.8729
 20
-11.9401
 30
0.0
 10
135.6499
 20
-12.0207
 30
0.0
 10
137.5127
 20
-10.8055
 30
0.0
 10
137.5127
 20
-10.8055
 30
0.0
 10
141.8849
 20
-7.2828
 30
0.0
 10
136.6364
 20
-1.6783
 30
0.0
 10
131.4568
 20
-4.3386
 30
0.0
  0
SPLINE
  5
46
330
1F
100
AcDbEntity
  8
layer 1
 62
     7
100
AcDbSpline
210
0.0
220
0.0
230
1.0
 70
    11
 71
     3
 72
    24
 73
    20
 74
     0
 42
0.0000000001
 43
0.0000000001
 12
1.0
 22
0.0
 32
0.0
 13
1.0
 23
0.0
 33
0.0
 40
0.0
 40
0.0
 40
0.0
 40
0.0
 40
0.1666666666666667
 40
0.1666666666666667
 40
0.1666666666666667
 40
0.1666666666666667
 40
0.3333333333333333
 40
0.3333333333333333
 40
0.3333333333333333
 40
0.3333333333333333
 40
0.5
 40
0.5
 40
0.5
 40
0.5
 40
0.6666666666666666
 40
0.6666666666666666
 40
0.6666666666666666
 40
0.6666666666666666
 40
1.0
 40
1.0
 40
1.0
 40
1.0
 10
145.9888
 20
-11.9775
 30
0.0
 10
145.236
 20
-15.011
 30
0.0
 10
144.8269
 20
-15.3546
 30
0.0
 10
143.966
 20
-17.3585
 30
0.0
 10
143.966
 20
-17.3585
 30
0.0
 10
142.6566
 20
-21.1325
 30
0.0
 10
146.3513
 20
-22.2856
 30
0.0
 10
146.0267
 20
-19.2319
 30
0.0
 10
146.0267
 20
-19.2319
 30
0.0
 10
147.3258
 20
-18.8504
 30
0.0
 10
147.3843
 20
-20.5878
 30
0.0
 10
147.4341
 20
-21.3335
 30
0.0
 10
147.4341
 20
-21.3335
 30
0.0
 10
148.9827
 20
-19.9605
 30
0.0
 10
151.3061
 20
-16.0748
 30
0.0
 10
151.3593
 20
-12.1786
 30
0.0
 10
151.3593
 20
-12.1786
 30
0.0
 10
150.1495
 20
-13.7065
 30
0.0
 10
146.929
 20
-14.2151
 30
0.0
 10
145.9888
 20
-11.9775
 30
0.0
  0
SPLINE
  5
47
330
1F
100
AcDbEntity
  8
layer 1
370
    30
100
AcDbSpline
210
0.0
220
0.0
230
1.0
 70
    11
 71
     3
 72
    24
 73
    20
 74
     0
 42
0.0000000001
 43
0.0000000001
 12
1.0
 22
0.0
 32
0.0
 13
1.0
 23
0.0
 33
0.0
 40
0.0
 40
0.0
 40
0.0
 40
0.0
 40
0.1666666666666667
 40
0.1666666666666667
 40
0.1666666666666667
 40
0.1666666666666667
 40
0.3333333333333333
 40
0.3333333333333333
 40
0.3333333333333333
 40
0.3333333333333333
 40
0.5
 40
0.5
 40
0.5
 40
0.5
 40
0.6666666666666666
 40
0.6666666666666666
 40
0.6666666666666666
 40
0.6666666666666666
 40
1.0
 40
1.0
 40
1.0
 40
1.0
 10
145.9888
 20
-11.9775
 30
0.0
 10
145.236
 20
-15.011
 30
0.0
 10
144.8269
 20
-15.3546
 30
0.0
 10
143.966
 20
-17.3585
 30
0.0
 10
143.966
 20
-17.3585
 30
0.0
 10
142.6566
 20
-21.1325
 30
0.0
 10
146.3513
 20
-22.2856
 30
0.0
 10
146.0267
 20
-19.2319
 30
0.0
 10
146.0267
 20
-19.2319
 30
0.0
 10
147.3258
 20
-18.8504
 30
0.0
 10
147.3843
 20
-20.5878
 30
0.0
 10
147.4341
 20
-21.3335
 30
0.0
 10
147.4341
 20
-21.3335
 30
0.0
 10
148.9827
 20
-19.9605
 30
0.0
 10
151.3061
 20
-16.0748
 30
0.0
 10
151.3593
 20
-12.1786
 30
0.0
 10
151.3593
 20
-12.1786
 30
0.0
 10
150.1494
 20
-13.7065
 30
0.0
 10
146.929
 20
-14.2151
 30
0.0
 10
145.9888
 20
-11.9775
 30
0.0
  0
SPLINE
  5
48
330
1F
100
AcDbEntity
  8
layer 1
 62
     7
370
    30
100
AcDbSpline
210
0.0
220
0.0
230
1.0
 70
    11
 71
     3
 72
    16
 73
    12
 74
     0
 42
0.0000000001
 43
0.0000000001
 12
1.0
 22
0.0
 32
0.0
 13
1.0
 23
0.0
 33
0.0
 40
0.0
 40
0.0
 40
0.0
 40
0.0
 40
0.25
 40
0.25
 40
0.25
 40
0.25
 40
0.5
 40
0.5
 40
0.5
 40
0.5
 40
1.0
 40
1.0
 40
1.0
 40
1.0
 10
141.7473
 20
-10.2318
 30
0.0
 10
140.5893
 20
-12.5794
 30
0.0
 10
138.9324
 20
-13.8579
 30
0.0
 10
137.4802
 20
-14.4575
 30
0.0
 10
137.4802
 20
-14.4575
 30
0.0
 10
135.2152
 20
-15.2138
 30
0.0
 10
136.5074
 20
-17.979
 30
0.0
 10
138.8845
 20
-16.2639
 30
0.0
 10
138.8845
 20
-16.2639
 30
0.0
 10
141.1374
 20
-14.1122
 30
0.0
 10
141.6891
 20
-12.0325
 30
0.0
 10
141.7473
 20
-10.2318
 30
0.0
  0
SPLINE
  5
49
330
1F
100
AcDbEntity
  8
layer 1
 62
     7
370
    30
100
AcDbSpline
210
0.0
220
0.0
230
1.0
 70
    11
 71
     3
 72
    16
 73
    12
 74
     0
 42
0.0000000001
 43
0.0000000001
 12
1.0
 22
0.0
 32
0.0
 13
1.0
 23
0.0
 33
0.0
 40
0.0
 40
0.0
 40
0.0
 40
0.0
 40
0.25
 40
0.25
 40
0.25
 40
0.25
 40
0.5
 40
0.5
 40
0.5
 40
0.5
 40
1.0
 40
1.0
 40
1.0
 40
1.0
 10
138.9549
 20
-29.7546
 30
0.0
 10
145.0402
 20
-29.6996
 30
0.0
 10
148.0698
 20
-27.206
 30
0.0
 10
151.2062
 20
-23.8135
 30
0.0
 10
151.2062
 20
-23.8135
 30
0.0
 10
150.134
 20
-27.5016
 30
0.0
 10
146.8463
 20
-31.7635
 30
0.0
 10
140.5392
 20
-36.7217
 30
0.0
 10
140.5392
 20
-36.7217
 30
0.0
 10
143.1203
 20
-33.9768
 30
0.0
 10
140.9465
 20
-30.1823
 30
0.0
 10
138.9549
 20
-29.7546
 30
0.0
  0
SPLINE
  5
4A
330
1F
100
AcDbEntity
  8
layer 1
 62
     7
370
    30
100
AcDbSpline
210
0.0
220
0.0
230
1.0
 70
    11
 71
     3
 72
    24
 73
    20
 74
     0
 42
0.0000000001
 43
0.0000000001
 12
1.0
 22
0.0
 32
0.0
 13
1.0
 23
0.0
 33
0.0
 40
0.0
 40
0.0
 40
0.0
 40
0.0
 40
0.1666666666666667
 40
0.1666666666666667
 40
0.1666666666666667
 40
0.1666666666666667
 40
0.3333333333333333
 40
0.3333333333333333
 40
0.3333333333333333
 40
0.3333333333333333
 40
0.5
 40
0.5
 40
0.5
 40
0.5
 40
0.6666666666666666
 40
0.6666666666666666
 40
0.6666666666666666
 40
0.6666666666666666
 40
1.0
 40
1.0
 40
1.0
 40
1.0
 10
142.012
 20
-42.1661
 30
0.0
 10
146.226
 20
-38.7441
 30
0.0
 10
150.8762
 20
-35.3138
 30
0.0
 10
152.9524
 20
-29.177
 30
0.0
 10
152.9524
 20
-29.177
 30
0.0
 10
153.0659
 20
-32.7414
 30
0.0
 10
151.5243
 20
-41.3684
 30
0.0
 10
145.2172
 20
-46.3266
 30
0.0
 10
145.2172
 20
-46.3266
 30
0.0
 10
143.1978
 20
-47.7512
 30
0.0
 10
141.1252
 20
-46.9109
 30
0.0
 10
141.0565
 20
-45.9021
 30
0.0
 10
141.0565
 20
-45.9021
 30
0.0
 10
140.8779
 20
-43.2157
 30
0.0
 10
143.801
 20
-44.3707
 30
0.0
 10
143.6447
 20
-43.8929
 30
0.0
 10
143.6447
 20
-43.8929
 30
0.0
 10
143.3816
 20
-43.0974
 30
0.0
 10
143.0966
 20
-42.3996
 30
0.0
 10
142.012
 20
-42.1661
 30
0.0
  0
SPLINE
  5
4B
330
1F
100
AcDbEntity
  8
layer 1
 62
     7
100
AcDbSpline
210
0.0
220
0.0
230
1.0
 70
    11
 71
     3
 72
    20
 73
    16
 74
     0
 42
0.0000000001
 43
0.0000000001
 12
1.0
 22
0.0
 32
0.0
 13
1.0
 23
0.0
 33
0.0
 40
0.0
 40
0.0
 40
0.0
 40
0.0
 40
0.2
 40
0.2
 40
0.2
 40
0.2
 40
0.4
 40
0.4
 40
0.4
 40
0.4
 40
0.6
 40
0.6
 40
0.6
 40
0.6
 40
1.0
 40
1.0
 40
1.0
 40
1.0
 10
134.3249
 20
-33.0472
 30
0.0
 10
136.389
 20
-30.0089
 30
0.0
 10
139.3997
 20
-32.9461
 30
0.0
 10
137.0437
 20
-35.3072
 30
0.0
 10
137.0437
 20
-35.3072
 30
0.0
 10
131.6596
 20
-39.3957
 30
0.0
 10
127.7599
 20
-31.4832
 30
0.0
 10
129.8136
 20
-28.4947
 30
0.0
 10
129.8136
 20
-28.4947
 30
0.0
 10
130.6609
 20
-29.122
 30
0.0
 10
132.7815
 20
-29.9795
 30
0.0
 10
136.078
 20
-29.7595
 30
0.0
 10
136.078
 20
-29.7595
 30
0.0
 10
134.3385
 20
-30.6015
 30
0.0
 10
133.7063
 20
-32.0881
 30
0.0
 10
134.3249
 20
-33.0472
 30
0.0
  0
SPLINE
  5
4C
330
1F
100
AcDbEntity
  8
layer 1
370
    30
100
AcDbSpline
210
0.0
220
0.0
230
1.0
 70
    11
 71
     3
 72
    20
 73
    16
 74
     0
 42
0.0000000001
 43
0.0000000001
 12
1.0
 22
0.0
 32
0.0
 13
1.0
 23
0.0
 33
0.0
 40
0.0
 40
0.0
 40
0.0
 40
0.0
 40
0.2
 40
0.2
 40
0.2
 40
0.2
 40
0.4
 40
0.4
 40
0.4
 40
0.4
 40
0.6
 40
0.6
 40
0.6
 40
0.6
 40
1.0
 40
1.0
 40
1.0
 40
1.0
 10
134.3249
 20
-33.0472
 30
0.0
 10
136.389
 20
-30.0089
 30
0.0
 10
139.3997
 20
-32.9461
 30
0.0
 10
137.0437
 20
-35.3072
 30
0.0
 10
137.0437
 20
-35.3072
 30
0.0
 10
131.6596
 20
-39.3957
 30
0.0
 10
127.7599
 20
-31.4832
 30
0.0
 10
129.8136
 20
-28.4947
 30
0.0
 10
129.8136
 20
-28.4947
 30
0.0
 10
130.6609
 20
-29.122
 30
0.0
 10
132.7815
 20
-29.9795
 30
0.0
 10
136.078
 20
-29.7595
 30
0.0
 10
136.078
 20
-29.7595
 30
0.0
 10
134.339
 20
-30.6015
 30
0.0
 10
133.7063
 20
-32.0881
 30
0.0
 10
134.3249
 20
-33.0472
 30
0.0
  0
SPLINE
  5
4D
330
1F
100
AcDbEntity
  8
layer 1
 62
     7
370
    30
100
AcDbSpline
210
0.0
220
0.0
230
1.0
 70
    11
 71
     3
 72
    24
 73
    20
 74
     0
 42
0.0000000001
 43
0.0000000001
 12
1.0
 22
0.0
 32
0.0
 13
1.0
 23
0.0
 33
0.0
 40
0.0
 40
0.0
 40
0.0
 40
0.0
 40
0.1666666666666667
 40
0.1666666666666667
 40
0.1666666666666667
 40
0.1666666666666667
 40
0.3333333333333333
 40
0.3333333333333333
 40
0.3333333333333333
 40
0.3333333333333333
 40
0.5
 40
0.5
 40
0.5
 40
0.5
 40
0.6666666666666666
 40
0.6666666666666666
 40
0.6666666666666666
 40
0.6666666666666666
 40
1.0
 40
1.0
 40
1.0
 40
1.0
 10
137.518
 20
-39.0209
 30
0.0
 10
127.7599
 20
-42.664
 30
0.0
 10
122.3313
 20
-30.5725
 30
0.0
 10
124.9794
 20
-25.4462
 30
0.0
 10
124.9794
 20
-25.4462
 30
0.0
 10
123.5993
 20
-24.3308
 30
0.0
 10
122.3604
 20
-23.0951
 30
0.0
 10
121.4101
 20
-21.2495
 30
0.0
 10
121.4101
 20
-21.2495
 30
0.0
 10
121.4101
 20
-21.2495
 30
0.0
 10
121.6005
 20
-39.4318
 30
0.0
 10
121.6005
 20
-39.4318
 30
0.0
 10
121.6005
 20
-39.4318
 30
0.0
 10
121.8258
 20
-37.6306
 30
0.0
 10
124.3485
 20
-36.2817
 30
0.0
 10
126.2803
 20
-37.1599
 30
0.0
 10
126.2803
 20
-37.1599
 30
0.0
 10
123.0202
 20
-43.9685
 30
0.0
 10
133.8316
 20
-42.2052
 30
0.0
 10
137.518
 20
-39.0209
 30
0.0
  0
SPLINE
  5
4E
330
1F
100
AcDbEntity
  8
layer 1
 62
     7
370
    30
100
AcDbSpline
210
0.0
220
0.0
230
1.0
 70
    11
 71
     3
 72
    24
 73
    20
 74
     0
 42
0.0000000001
 43
0.0000000001
 12
1.0
 22
0.0
 32
0.0
 13
1.0
 23
0.0
 33
0.0
 40
0.0
 40
0.0
 40
0.0
 40
0.0
 40
0.1666666666666667
 40
0.1666666666666667
 40
0.1666666666666667
 40
0.1666666666666667
 40
0.3333333333333333
 40
0.3333333333333333
 40
0.3333333333333333
 40
0.3333333333333333
 40
0.5
 40
0.5
 40
0.5
 40
0.5
 40
0.6666666666666666
 40
0.6666666666666666
 40
0.6666666666666666
 40
0.6666666666666666
 40
1.0
 40
1.0
 40
1.0
 40
1.0
 10
126.4778
 20
-50.372
 30
0.0
 10
125.3283
 20
-50.5868
 30
0.0
 10
121.5438
 20
-47.9747
 30
0.0
 10
124.2935
 20
-44.8436
 30
0.0
 10
124.2935
 20
-44.8436
 30
0.0
 10
123.1012
 20
-45.1631
 30
0.0
 10
122.173
 20
-44.9241
 30
0.0
 10
121.4101
 20
-43.5168
 30
0.0
 10
121.4101
 20
-43.5168
 30
0.0
 10
121.4101
 20
-43.5168
 30
0.0
 10
121.6005
 20
-64.9419
 30
0.0
 10
121.6005
 20
-64.9419
 30
0.0
 10
121.6005
 20
-64.9419
 30
0.0
 10
123.572
 20
-56.8406
 30
0.0
 10
127.7155
 20
-49.3787
 30
0.0
 10
132.8914
 20
-44.4587
 30
0.0
 10
132.8914
 20
-44.4587
 30
0.0
 10
127.6363
 20
-44.467
 30
0.0
 10
125.5364
 20
-48.5058
 30
0.0
 10
126.4778
 20
-50.372
 30
0.0
  0
SPLINE
  5
4F
330
1F
100
AcDbEntity
  8
layer 1
 62
     7
100
AcDbSpline
210
0.0
220
0.0
230
1.0
 70
    11
 71
     3
 72
    24
 73
    20
 74
     0
 42
0.0000000001
 43
0.0000000001
 12
1.0
 22
0.0
 32
0.0
 13
1.0
 23
0.0
 33
0.0
 40
0.0
 40
0.0
 40
0.0
 40
0.0
 40
0.1666666666666667
 40
0.1666666666666667
 40
0.1666666666666667
 40
0.1666666666666667
 40
0.3333333333333333
 40
0.3333333333333333
 40
0.3333333333333333
 40
0.3333333333333333
 40
0.5
 40
0.5
 40
0.5
 40
0.5
 40
0.6666666666666666
 40
0.6666666666666666
 40
0.6666666666666666
 40
0.6666666666666666
 40
1.0
 40
1.0
 40
1.0
 40
1.0
 10
126.7889
 20
-95.9655
 30
0.0
 10
133.5619
 20
-98.4248
 30
0.0
 10
132.7714
 20
-90.0741
 30
0.0
 10
128.5351
 20
-85.8207
 30
0.0
 10
128.5351
 20
-85.8207
 30
0.0
 10
125.2835
 20
-81.7115
 30
0.0
 10
122.484
 20
-77.7312
 30
0.0
 10
121.4101
 20
-73.5795
 30
0.0
 10
121.4101
 20
-73.5795
 30
0.0
 10
121.4101
 20
-73.5795
 30
0.0
 10
121.5372
 20
-100.2445
 30
0.0
 10
121.5372
 20
-100.2445
 30
0.0
 10
121.5372
 20
-100.2445
 30
0.0
 10
121.5372
 20
-100.2445
 30
0.0
 10
129.7726
 20
-100.1552
 30
0.0
 10
129.7726
 20
-100.1552
 30
0.0
 10
129.7726
 20
-100.1552
 30
0.0
 10
127.4488
 20
-99.478
 30
0.0
 10
126.7841
 20
-98.1529
 30
0.0
 10
126.7889
 20
-95.9655
 30
0.0
  0
SPLINE
  5
50
330
1F
100
AcDbEntity
  8
layer 1
370
    30
100
AcDbSpline
210
0.0
220
0.0
230
1.0
 70
    11
 71
     3
 72
    24
 73
    20
 74
     0
 42
0.0000000001
 43
0.0000000001
 12
1.0
 22
0.0
 32
0.0
 13
1.0
 23
0.0
 33
0.0
 40
0.0
 40
0.0
 40
0.0
 40
0.0
 40
0.1666666666666667
 40
0.1666666666666667
 40
0.1666666666666667
 40
0.1666666666666667
 40
0.3333333333333333
 40
0.3333333333333333
 40
0.3333333333333333
 40
0.3333333333333333
 40
0.5
 40
0.5
 40
0.5
 40
0.5
 40
0.6666666666666666
 40
0.6666666666666666
 40
0.6666666666666666
 40
0.6666666666666666
 40
1.0
 40
1.0
 40
1.0
 40
1.0
 10
126.7889
 20
-95.9655
 30
0.0
 10
133.5619
 20
-98.4248
 30
0.0
 10
132.7714
 20
-90.0741
 30
0.0
 10
128.5351
 20
-85.8207
 30
0.0
 10
128.5351
 20
-85.8207
 30
0.0
 10
125.2834
 20
-81.7115
 30
0.0
 10
122.484
 20
-77.7312
 30
0.0
 10
121.4101
 20
-73.5795
 30
0.0
 10
121.4101
 20
-73.5795
 30
0.0
 10
121.4101
 20
-73.5795
 30
0.0
 10
121.5372
 20
-100.2445
 30
0.0
 10
121.5372
 20
-100.2445
 30
0.0
 10
121.5372
 20
-100.2445
 30
0.0
 10
121.5372
 20
-100.2445
 30
0.0
 10
129.7726
 20
-100.1552
 30
0.0
 10
129.7726
 20
-100.1552
 30
0.0
 10
129.7726
 20
-100.1552
 30
0.0
 10
127.4488
 20
-99.478
 30
0.0
 10
126.7841
 20
-98.1529
 30
0.0
 10
126.7889
 20
-95.9655
 30
0.0
  0
SPLINE
  5
51
330
1F
100
AcDbEntity
  8
layer 1
 62
     7
100
AcDbSpline
210
0.0
220
0.0
230
1.0
 70
    11
 71
     3
 72
    48
 73
    44
 74
     0
 42
0.0000000001
 43
0.0000000001
 12
1.0
 22
0.0
 32
0.0
 13
1.0
 23
0.0
 33
0.0
 40
0.0
 40
0.0
 40
0.0
 40
0.0
 40
0.0833333333333333
 40
0.0833333333333333
 40
0.0833333333333333
 40
0.0833333333333333
 40
0.1666666666666667
 40
0.1666666666666667
 40
0.1666666666666667
 40
0.1666666666666667
 40
0.25
 40
0.25
 40
0.25
 40
0.25
 40
0.3333333333333333
 40
0.3333333333333333
 40
0.3333333333333333
 40
0.3333333333333333
 40
0.4166666666666667
 40
0.4166666666666667
 40
0.4166666666666667
 40
0.4166666666666667
 40
0.5
 40
0.5
 40
0.5
 40
0.5
 40
0.5833333333333334
 40
0.5833333333333334
 40
0.5833333333333334
 40
0.5833333333333334
 40
0.6666666666666666
 40
0.6666666666666666
 40
0.6666666666666666
 40
0.6666666666666666
 40
0.75
 40
0.75
 40
0.75
 40
0.75
 40
0.8333333333333334
 40
0.8333333333333334
 40
0.8333333333333334
 40
0.8333333333333334
 40
1.0
 40
1.0
 40
1.0
 40
1.0
 10
141.3196
 20
-93.635
 30
0.0
 10
141.5325
 20
-94.7846
 30
0.0
 10
138.9839
 20
-99.1309
 30
0.0
 10
135.8528
 20
-96.3812
 30
0.0
 10
135.8528
 20
-96.3812
 30
0.0
 10
136.1722
 20
-97.5722
 30
0.0
 10
135.4969
 20
-99.3751
 30
0.0
 10
134.0895
 20
-100.138
 30
0.0
 10
134.0895
 20
-100.138
 30
0.0
 10
134.0895
 20
-100.138
 30
0.0
 10
155.0782
 20
-100.1964
 30
0.0
 10
155.0782
 20
-100.1964
 30
0.0
 10
155.0782
 20
-100.1964
 30
0.0
 10
154.7003
 20
-100.1037
 30
0.0
 10
153.4059
 20
-98.782
 30
0.0
 10
152.8217
 20
-96.8692
 30
0.0
 10
152.8217
 20
-96.8692
 30
0.0
 10
152.6171
 20
-96.2008
 30
0.0
 10
153.3664
 20
-94.5476
 30
0.0
 10
153.7737
 20
-93.8669
 30
0.0
 10
153.7737
 20
-93.8669
 30
0.0
 10
154.3012
 20
-92.9834
 30
0.0
 10
154.8256
 20
-90.6465
 30
0.0
 10
153.2994
 20
-90.3076
 30
0.0
 10
153.2994
 20
-90.3076
 30
0.0
 10
152.1617
 20
-90.0534
 30
0.0
 10
150.9141
 20
-91.5334
 30
0.0
 10
152.4798
 20
-92.9237
 30
0.0
 10
152.4798
 20
-92.9237
 30
0.0
 10
149.9123
 20
-95.3451
 30
0.0
 10
144.9628
 20
-94.2383
 30
0.0
 10
143.3527
 20
-91.6398
 30
0.0
 10
143.3527
 20
-91.6398
 30
0.0
 10
150.4741
 20
-92.2343
 30
0.0
 10
153.9612
 20
-87.1097
 30
0.0
 10
153.6123
 20
-84.4357
 30
0.0
 10
153.6123
 20
-84.4357
 30
0.0
 10
149.6219
 20
-89.9333
 30
0.0
 10
138.427
 20
-90.9817
 30
0.0
 10
134.0327
 20
-88.1564
 30
0.0
 10
134.0327
 20
-88.1564
 30
0.0
 10
136.9112
 20
-95.5959
 30
0.0
 10
139.453
 20
-94.577
 30
0.0
 10
141.3196
 20
-93.635
 30
0.0
  0
SPLINE
  5
52
330
1F
100
AcDbEntity
  8
layer 1
370
    30
100
AcDbSpline
210
0.0
220
0.0
230
1.0
 70
    11
 71
     3
 72
    48
 73
    44
 74
     0
 42
0.0000000001
 43
0.0000000001
 12
1.0
 22
0.0
 32
0.0
 13
1.0
 23
0.0
 33
0.0
 40
0.0
 40
0.0
 40
0.0
 40
0.0
 40
0.0833333333333333
 40
0.0833333333333333
 40
0.0833333333333333
 40
0.0833333333333333
 40
0.1666666666666667
 40
0.1666666666666667
 40
0.1666666666666667
 40
0.1666666666666667
 40
0.25
 40
0.25
 40
0.25
 40
0.25
 40
0.3333333333333333
 40
0.3333333333333333
 40
0.3333333333333333
 40
0.3333333333333333
 40
0.4166666666666667
 40
0.4166666666666667
 40
0.4166666666666667
 40
0.4166666666666667
 40
0.5
 40
0.5
 40
0.5
 40
0.5
 40
0.5833333333333334
 40
0.5833333333333334
 40
0.5833333333333334
 40
0.5833333333333334
 40
0.6666666666666666
 40
0.6666666666666666
 40
0.6666666666666666
 40
0.6666666666666666
 40
0.75
 40
0.75
 40
0.75
 40
0.75
 40
0.8333333333333334
 40
0.8333333333333334
 40
0.8333333333333334
 40
0.8333333333333334
 40
1.0
 40
1.0
 40
1.0
 40
1.0
 10
141.3196
 20
-93.635
 30
0.0
 10
141.5325
 20
-94.7846
 30
0.0
 10
138.9839
 20
-99.1309
 30
0.0
 10
135.8528
 20
-96.3812
 30
0.0
 10
135.8528
 20
-96.3812
 30
0.0
 10
136.1721
 20
-97.5722
 30
0.0
 10
135.4969
 20
-99.3751
 30
0.0
 10
134.0895
 20
-100.138
 30
0.0
 10
134.0895
 20
-100.138
 30
0.0
 10
134.0895
 20
-100.138
 30
0.0
 10
155.0782
 20
-100.1964
 30
0.0
 10
155.0782
 20
-100.1964
 30
0.0
 10
155.0782
 20
-100.1964
 30
0.0
 10
154.7003
 20
-100.1037
 30
0.0
 10
153.4059
 20
-98.782
 30
0.0
 10
152.8217
 20
-96.8692
 30
0.0
 10
152.8217
 20
-96.8692
 30
0.0
 10
152.6171
 20
-96.2008
 30
0.0
 10
153.3668
 20
-94.5476
 30
0.0
 10
153.7737
 20
-93.8669
 30
0.0
 10
153.7737
 20
-93.8669
 30
0.0
 10
154.3016
 20
-92.9834
 30
0.0
 10
154.8256
 20
-90.6465
 30
0.0
 10
153.2994
 20
-90.3076
 30
0.0
 10
153.2994
 20
-90.3076
 30
0.0
 10
152.1617
 20
-90.0534
 30
0.0
 10
150.9141
 20
-91.5334
 30
0.0
 10
152.4798
 20
-92.9237
 30
0.0
 10
152.4798
 20
-92.9237
 30
0.0
 10
149.9123
 20
-95.3451
 30
0.0
 10
144.9628
 20
-94.2383
 30
0.0
 10
143.3527
 20
-91.6398
 30
0.0
 10
143.3527
 20
-91.6398
 30
0.0
 10
150.4741
 20
-92.2343
 30
0.0
 10
153.9612
 20
-87.1097
 30
0.0
 10
153.6123
 20
-84.4357
 30
0.0
 10
153.6123
 20
-84.4357
 30
0.0
 10
149.6219
 20
-89.9333
 30
0.0
 10
138.427
 20
-90.9817
 30
0.0
 10
134.0327
 20
-88.1564
 30
0.0
 10
134.0327
 20
-88.1564
 30
0.0
 10
136.9112
 20
-95.5959
 30
0.0
 10
139.4533
 20
-94.577
 30
0.0
 10
141.3196
 20
-93.635
 30
0.0
  0
SPLINE
  5
53
330
1F
100
AcDbEntity
  8
layer 1
 62
     7
100
AcDbSpline
210
0.0
220
0.0
230
1.0
 70
    11
 71
     3
 72
    52
 73
    48
 74
     0
 42
0.0000000001
 43
0.0000000001
 12
1.0
 22
0.0
 32
0.0
 13
1.0
 23
0.0
 33
0.0
 40
0.0
 40
0.0
 40
0.0
 40
0.0
 40
0.0769230769230769
 40
0.0769230769230769
 40
0.0769230769230769
 40
0.0769230769230769
 40
0.1538461538461539
 40
0.1538461538461539
 40
0.1538461538461539
 40
0.1538461538461539
 40
0.2307692307692308
 40
0.2307692307692308
 40
0.2307692307692308
 40
0.2307692307692308
 40
0.3076923076923077
 40
0.3076923076923077
 40
0.3076923076923077
 40
0.3076923076923077
 40
0.3846153846153846
 40
0.3846153846153846
 40
0.3846153846153846
 40
0.3846153846153846
 40
0.4615384615384616
 40
0.4615384615384616
 40
0.4615384615384616
 40
0.4615384615384616
 40
0.5384615384615384
 40
0.5384615384615384
 40
0.5384615384615384
 40
0.5384615384615384
 40
0.6153846153846154
 40
0.6153846153846154
 40
0.6153846153846154
 40
0.6153846153846154
 40
0.6923076923076923
 40
0.6923076923076923
 40
0.6923076923076923
 40
0.6923076923076923
 40
0.7692307692307693
 40
0.7692307692307693
 40
0.7692307692307693
 40
0.7692307692307693
 40
0.8461538461538461
 40
0.8461538461538461
 40
0.8461538461538461
 40
0.8461538461538461
 40
1.0
 40
1.0
 40
1.0
 40
1.0
 10
147.8467
 20
-69.2692
 30
0.0
 10
153.4472
 20
-71.5394
 30
0.0
 10
151.6084
 20
-78.4946
 30
0.0
 10
147.24
 20
-80.0894
 30
0.0
 10
147.24
 20
-80.0894
 30
0.0
 10
138.6609
 20
-83.2258
 30
0.0
 10
135.2703
 20
-74.3044
 30
0.0
 10
136.0916
 20
-70.3779
 30
0.0
 10
136.0916
 20
-70.3779
 30
0.0
 10
135.1309
 20
-71.2248
 30
0.0
 10
131.7164
 20
-70.9156
 30
0.0
 10
131.0252
 20
-67.5024
 30
0.0
 10
131.0252
 20
-67.5024
 30
0.0
 10
129.5917
 20
-68.678
 30
0.0
 10
129.3138
 20
-71.0462
 30
0.0
 10
128.958
 20
-72.0207
 30
0.0
 10
128.958
 20
-72.0207
 30
0.0
 10
127.7978
 20
-70.6717
 30
0.0
 10
127.169
 20
-68.9446
 30
0.0
 10
126.4714
 20
-66.9388
 30
0.0
 10
126.4714
 20
-66.9388
 30
0.0
 10
126.7238
 20
-71.78
 30
0.0
 10
126.4695
 20
-76.1074
 30
0.0
 10
131.3793
 20
-81.3785
 30
0.0
 10
131.3793
 20
-81.3785
 30
0.0
 10
135.3252
 20
-84.9856
 30
0.0
 10
141.5053
 20
-87.7217
 30
0.0
 10
148.3328
 20
-83.9579
 30
0.0
 10
148.3328
 20
-83.9579
 30
0.0
 10
153.8098
 20
-80.9398
 30
0.0
 10
156.9154
 20
-70.3229
 30
0.0
 10
148.6061
 20
-66.645
 30
0.0
 10
148.6061
 20
-66.645
 30
0.0
 10
145.1071
 20
-65.8701
 30
0.0
 10
140.3192
 20
-67.5011
 30
0.0
 10
140.8058
 20
-72.7646
 30
0.0
 10
140.8058
 20
-72.7646
 30
0.0
 10
141.9056
 20
-75.7568
 30
0.0
 10
144.0588
 20
-75.3186
 30
0.0
 10
144.621
 20
-74.4783
 30
0.0
 10
144.621
 20
-74.4783
 30
0.0
 10
146.1195
 20
-72.2407
 30
0.0
 10
143.4503
 20
-71.5376
 30
0.0
 10
143.6343
 20
-71.0704
 30
0.0
 10
143.6343
 20
-71.0704
 30
0.0
 10
144.3218
 20
-69.326
 30
0.0
 10
146.7896
 20
-68.9292
 30
0.0
 10
147.8467
 20
-69.2692
 30
0.0
  0
SPLINE
  5
54
330
1F
100
AcDbEntity
  8
layer 1
370
    30
100
AcDbSpline
210
0.0
220
0.0
230
1.0
 70
    11
 71
     3
 72
    52
 73
    48
 74
     0
 42
0.0000000001
 43
0.0000000001
 12
1.0
 22
0.0
 32
0.0
 13
1.0
 23
0.0
 33
0.0
 40
0.0
 40
0.0
 40
0.0
 40
0.0
 40
0.0769230769230769
 40
0.0769230769230769
 40
0.0769230769230769
 40
0.0769230769230769
 40
0.1538461538461539
 40
0.1538461538461539
 40
0.1538461538461539
 40
0.1538461538461539
 40
0.2307692307692308
 40
0.2307692307692308
 40
0.2307692307692308
 40
0.2307692307692308
 40
0.3076923076923077
 40
0.3076923076923077
 40
0.3076923076923077
 40
0.3076923076923077
 40
0.3846153846153846
 40
0.3846153846153846
 40
0.3846153846153846
 40
0.3846153846153846
 40
0.4615384615384616
 40
0.4615384615384616
 40
0.4615384615384616
 40
0.4615384615384616
 40
0.5384615384615384
 40
0.5384615384615384
 40
0.5384615384615384
 40
0.5384615384615384
 40
0.6153846153846154
 40
0.6153846153846154
 40
0.6153846153846154
 40
0.6153846153846154
 40
0.6923076923076923
 40
0.6923076923076923
 40
0.6923076923076923
 40
0.6923076923076923
 40
0.7692307692307693
 40
0.7692307692307693
 40
0.7692307692307693
 40
0.7692307692307693
 40
0.8461538461538461
 40
0.8461538461538461
 40
0.8461538461538461
 40
0.8461538461538461
 40
1.0
 40
1.0
 40
1.0
 40
1.0
 10
147.8467
 20
-69.2692
 30
0.0
 10
153.4472
 20
-71.5394
 30
0.0
 10
151.6084
 20
-78.4946
 30
0.0
 10
147.24
 20
-80.0894
 30
0.0
 10
147.24
 20
-80.0894
 30
0.0
 10
138.6609
 20
-83.2258
 30
0.0
 10
135.2703
 20
-74.3044
 30
0.0
 10
136.0916
 20
-70.3779
 30
0.0
 10
136.0916
 20
-70.3779
 30
0.0
 10
135.1309
 20
-71.2248
 30
0.0
 10
131.7164
 20
-70.9156
 30
0.0
 10
131.0252
 20
-67.5024
 30
0.0
 10
131.0252
 20
-67.5024
 30
0.0
 10
129.5917
 20
-68.678
 30
0.0
 10
129.3138
 20
-71.0462
 30
0.0
 10
128.958
 20
-72.0207
 30
0.0
 10
128.958
 20
-72.0207
 30
0.0
 10
127.7978
 20
-70.6717
 30
0.0
 10
127.1691
 20
-68.9446
 30
0.0
 10
126.4712
 20
-66.9388
 30
0.0
 10
126.4712
 20
-66.9388
 30
0.0
 10
126.7238
 20
-71.78
 30
0.0
 10
126.4695
 20
-76.1074
 30
0.0
 10
131.3793
 20
-81.3785
 30
0.0
 10
131.3793
 20
-81.3785
 30
0.0
 10
135.3252
 20
-84.9856
 30
0.0
 10
141.5053
 20
-87.7217
 30
0.0
 10
148.3328
 20
-83.9579
 30
0.0
 10
148.3328
 20
-83.9579
 30
0.0
 10
153.8098
 20
-80.9398
 30
0.0
 10
156.9154
 20
-70.3229
 30
0.0
 10
148.6061
 20
-66.645
 30
0.0
 10
148.6061
 20
-66.645
 30
0.0
 10
145.1071
 20
-65.8701
 30
0.0
 10
140.3192
 20
-67.5011
 30
0.0
 10
140.8057
 20
-72.7646
 30
0.0
 10
140.8057
 20
-72.7646
 30
0.0
 10
141.9056
 20
-75.7568
 30
0.0
 10
144.0588
 20
-75.3186
 30
0.0
 10
144.621
 20
-74.4783
 30
0.0
 10
144.621
 20
-74.4783
 30
0.0
 10
146.1195
 20
-72.2407
 30
0.0
 10
143.4503
 20
-71.5376
 30
0.0
 10
143.6343
 20
-71.0704
 30
0.0
 10
143.6343
 20
-71.0704
 30
0.0
 10
144.3218
 20
-69.326
 30
0.0
 10
146.7896
 20
-68.9292
 30
0.0
 10
147.8467
 20
-69.2692
 30
0.0
  0
SPLINE
  5
55
330
1F
100
AcDbEntity
  8
layer 1
 62
     7
100
AcDbSpline
210
0.0
220
0.0
230
1.0
 70
    11
 71
     3
 72
    92
 73
    88
 74
     0
 42
0.0000000001
 43
0.0000000001
 12
1.0
 22
0.0
 32
0.0
 13
1.0
 23
0.0
 33
0.0
 40
0.0
 40
0.0
 40
0.0
 40
0.0
 40
0.0434782608695652
 40
0.0434782608695652
 40
0.0434782608695652
 40
0.0434782608695652
 40
0.0869565217391304
 40
0.0869565217391304
 40
0.0869565217391304
 40
0.0869565217391304
 40
0.1304347826086956
 40
0.1304347826086956
 40
0.1304347826086956
 40
0.1304347826086956
 40
0.1739130434782609
 40
0.1739130434782609
 40
0.1739130434782609
 40
0.1739130434782609
 40
0.2173913043478261
 40
0.2173913043478261
 40
0.2173913043478261
 40
0.2173913043478261
 40
0.2608695652173913
 40
0.2608695652173913
 40
0.2608695652173913
 40
0.2608695652173913
 40
0.3043478260869565
 40
0.3043478260869565
 40
0.3043478260869565
 40
0.3043478260869565
 40
0.3478260869565217
 40
0.3478260869565217
 40
0.3478260869565217
 40
0.3478260869565217
 40
0.391304347826087
 40
0.391304347826087
 40
0.391304347826087
 40
0.391304347826087
 40
0.4347826086956522
 40
0.4347826086956522
 40
0.4347826086956522
 40
0.4347826086956522
 40
0.4782608695652174
 40
0.4782608695652174
 40
0.4782608695652174
 40
0.4782608695652174
 40
0.5217391304347826
 40
0.5217391304347826
 40
0.5217391304347826
 40
0.5217391304347826
 40
0.5652173913043478
 40
0.5652173913043478
 40
0.5652173913043478
 40
0.5652173913043478
 40
0.6086956521739131
 40
0.6086956521739131
 40
0.6086956521739131
 40
0.6086956521739131
 40
0.6521739130434783
 40
0.6521739130434783
 40
0.6521739130434783
 40
0.6521739130434783
 40
0.6956521739130435
 40
0.6956521739130435
 40
0.6956521739130435
 40
0.6956521739130435
 40
0.7391304347826086
 40
0.7391304347826086
 40
0.7391304347826086
 40
0.7391304347826086
 40
0.782608695652174
 40
0.782608695652174
 40
0.782608695652174
 40
0.782608695652174
 40
0.8260869565217391
 40
0.8260869565217391
 40
0.8260869565217391
 40
0.8260869565217391
 40
0.8695652173913043
 40
0.8695652173913043
 40
0.8695652173913043
 40
0.8695652173913043
 40
0.9130434782608695
 40
0.9130434782608695
 40
0.9130434782608695
 40
0.9130434782608695
 40
1.0
 40
1.0
 40
1.0
 40
1.0
 10
139.7279
 20
-64.9146
 30
0.0
 10
139.8467
 20
-63.1117
 30
0.0
 10
137.8497
 20
-61.6044
 30
0.0
 10
137.0367
 20
-61.9929
 30
0.0
 10
137.0367
 20
-61.9929
 30
0.0
 10
138.0011
 20
-67.157
 30
0.0
 10
132.7525
 20
-66.5332
 30
0.0
 10
131.5598
 20
-61.4979
 30
0.0
 10
131.5598
 20
-61.4979
 30
0.0
 10
130.7952
 20
-56.7755
 30
0.0
 10
133.4177
 20
-50.9356
 30
0.0
 10
137.9337
 20
-45.9726
 30
0.0
 10
137.9337
 20
-45.9726
 30
0.0
 10
138.2742
 20
-48.0245
 30
0.0
 10
139.5616
 20
-49.2137
 30
0.0
 10
140.9756
 20
-49.2792
 30
0.0
 10
140.9756
 20
-49.2792
 30
0.0
 10
139.0064
 20
-50.2018
 30
0.0
 10
139.2229
 20
-54.1169
 30
0.0
 10
136.1036
 20
-56.2836
 30
0.0
 10
136.1036
 20
-56.2836
 30
0.0
 10
137.3205
 20
-56.9955
 30
0.0
 10
143.6465
 20
-57.8784
 30
0.0
 10
145.9219
 20
-52.4517
 30
0.0
 10
145.9219
 20
-52.4517
 30
0.0
 10
147.9207
 20
-54.6906
 30
0.0
 10
150.9813
 20
-52.651
 30
0.0
 10
152.2806
 20
-46.3351
 30
0.0
 10
152.2806
 20
-46.3351
 30
0.0
 10
154.4733
 20
-47.5655
 30
0.0
 10
151.746
 20
-59.4685
 30
0.0
 10
147.013
 20
-54.622
 30
0.0
 10
147.013
 20
-54.622
 30
0.0
 10
142.7442
 20
-57.0145
 30
0.0
 10
147.5251
 20
-64.2304
 30
0.0
 10
152.8648
 20
-58.5076
 30
0.0
 10
152.8648
 20
-58.5076
 30
0.0
 10
152.7755
 20
-62.5067
 30
0.0
 10
154.6814
 20
-62.0703
 30
0.0
 10
155.7535
 20
-65.3528
 30
0.0
 10
155.7535
 20
-65.3528
 30
0.0
 10
156.8261
 20
-62.0703
 30
0.0
 10
158.7337
 20
-62.5068
 30
0.0
 10
158.6444
 20
-58.5076
 30
0.0
 10
158.6444
 20
-58.5076
 30
0.0
 10
163.9836
 20
-64.2304
 30
0.0
 10
168.7633
 20
-57.0145
 30
0.0
 10
164.4958
 20
-54.622
 30
0.0
 10
164.4958
 20
-54.622
 30
0.0
 10
159.7633
 20
-59.4685
 30
0.0
 10
157.0338
 20
-47.5656
 30
0.0
 10
159.2269
 20
-46.3351
 30
0.0
 10
159.2269
 20
-46.3351
 30
0.0
 10
160.5279
 20
-52.651
 30
0.0
 10
163.5868
 20
-54.6906
 30
0.0
 10
165.5855
 20
-52.4517
 30
0.0
 10
165.5855
 20
-52.4517
 30
0.0
 10
167.8627
 20
-57.8784
 30
0.0
 10
174.1871
 20
-56.9955
 30
0.0
 10
175.4052
 20
-56.2836
 30
0.0
 10
175.4052
 20
-56.2836
 30
0.0
 10
172.2842
 20
-54.1169
 30
0.0
 10
172.5011
 20
-50.2018
 30
0.0
 10
170.5314
 20
-49.2792
 30
0.0
 10
170.5314
 20
-49.2792
 30
0.0
 10
171.9476
 20
-49.2137
 30
0.0
 10
173.2332
 20
-48.0245
 30
0.0
 10
173.5751
 20
-45.9726
 30
0.0
 10
173.5751
 20
-45.9726
 30
0.0
 10
178.0915
 20
-50.9356
 30
0.0
 10
180.7142
 20
-56.7755
 30
0.0
 10
179.9491
 20
-61.4979
 30
0.0
 10
179.9491
 20
-61.4979
 30
0.0
 10
178.755
 20
-66.5332
 30
0.0
 10
173.5064
 20
-67.157
 30
0.0
 10
174.4722
 20
-61.9929
 30
0.0
 10
174.4722
 20
-61.9929
 30
0.0
 10
173.659
 20
-61.6044
 30
0.0
 10
171.6608
 20
-63.1117
 30
0.0
 10
171.7792
 20
-64.9146
 30
0.0
 10
171.7792
 20
-64.9146
 30
0.0
 10
166.4086
 20
-59.0818
 30
0.0
 10
157.8196
 20
-62.2419
 30
0.0
 10
155.7535
 20
-68.3463
 30
0.0
 10
155.7535
 20
-68.3463
 30
0.0
 10
153.6897
 20
-62.2419
 30
0.0
 10
145.1001
 20
-59.0818
 30
0.0
 10
139.7279
 20
-64.9146
 30
0.0
  0
SPLINE
  5
56
330
1F
100
AcDbEntity
  8
layer 1
370
    30
100
AcDbSpline
210
0.0
220
0.0
230
1.0
 70
    11
 71
     3
 72
    92
 73
    88
 74
     0
 42
0.0000000001
 43
0.0000000001
 12
1.0
 22
0.0
 32
0.0
 13
1.0
 23
0.0
 33
0.0
 40
0.0
 40
0.0
 40
0.0
 40
0.0
 40
0.0434782608695652
 40
0.0434782608695652
 40
0.0434782608695652
 40
0.0434782608695652
 40
0.0869565217391304
 40
0.0869565217391304
 40
0.0869565217391304
 40
0.0869565217391304
 40
0.1304347826086956
 40
0.1304347826086956
 40
0.1304347826086956
 40
0.1304347826086956
 40
0.1739130434782609
 40
0.1739130434782609
 40
0.1739130434782609
 40
0.1739130434782609
 40
0.2173913043478261
 40
0.2173913043478261
 40
0.2173913043478261
 40
0.2173913043478261
 40
0.2608695652173913
 40
0.2608695652173913
 40
0.2608695652173913
 40
0.2608695652173913
 40
0.3043478260869565
 40
0.3043478260869565
 40
0.3043478260869565
 40
0.3043478260869565
 40
0.3478260869565217
 40
0.3478260869565217
 40
0.3478260869565217
 40
0.3478260869565217
 40
0.391304347826087
 40
0.391304347826087
 40
0.391304347826087
 40
0.391304347826087
 40
0.4347826086956522
 40
0.4347826086956522
 40
0.4347826086956522
 40
0.4347826086956522
 40
0.4782608695652174
 40
0.4782608695652174
 40
0.4782608695652174
 40
0.4782608695652174
 40
0.5217391304347826
 40
0.5217391304347826
 40
0.5217391304347826
 40
0.5217391304347826
 40
0.5652173913043478
 40
0.5652173913043478
 40
0.5652173913043478
 40
0.5652173913043478
 40
0.6086956521739131
 40
0.6086956521739131
 40
0.6086956521739131
 40
0.6086956521739131
 40
0.6521739130434783
 40
0.6521739130434783
 40
0.6521739130434783
 40
0.6521739130434783
 40
0.6956521739130435
 40
0.6956521739130435
 40
0.6956521739130435
 40
0.6956521739130435
 40
0.7391304347826086
 40
0.7391304347826086
 40
0.7391304347826086
 40
0.7391304347826086
 40
0.782608695652174
 40
0.782608695652174
 40
0.782608695652174
 40
0.782608695652174
 40
0.8260869565217391
 40
0.8260869565217391
 40
0.8260869565217391
 40
0.8260869565217391
 40
0.8695652173913043
 40
0.8695652173913043
 40
0.8695652173913043
 40
0.8695652173913043
 40
0.9130434782608695
 40
0.9130434782608695
 40
0.9130434782608695
 40
0.9130434782608695
 40
1.0
 40
1.0
 40
1.0
 40
1.0
 10
139.7283
 20
-64.9146
 30
0.0
 10
139.8467
 20
-63.1117
 30
0.0
 10
137.8497
 20
-61.6044
 30
0.0
 10
137.0367
 20
-61.9929
 30
0.0
 10
137.0367
 20
-61.9929
 30
0.0
 10
138.0011
 20
-67.157
 30
0.0
 10
132.7525
 20
-66.5332
 30
0.0
 10
131.5598
 20
-61.4979
 30
0.0
 10
131.5598
 20
-61.4979
 30
0.0
 10
130.7951
 20
-56.7755
 30
0.0
 10
133.4177
 20
-50.9356
 30
0.0
 10
137.9337
 20
-45.9726
 30
0.0
 10
137.9337
 20
-45.9726
 30
0.0
 10
138.2742
 20
-48.0245
 30
0.0
 10
139.5616
 20
-49.2137
 30
0.0
 10
140.9756
 20
-49.2792
 30
0.0
 10
140.9756
 20
-49.2792
 30
0.0
 10
139.0064
 20
-50.2018
 30
0.0
 10
139.2229
 20
-54.1169
 30
0.0
 10
136.1036
 20
-56.2836
 30
0.0
 10
136.1036
 20
-56.2836
 30
0.0
 10
137.3204
 20
-56.9955
 30
0.0
 10
143.6465
 20
-57.8784
 30
0.0
 10
145.9219
 20
-52.4517
 30
0.0
 10
145.9219
 20
-52.4517
 30
0.0
 10
147.9207
 20
-54.6906
 30
0.0
 10
150.9813
 20
-52.651
 30
0.0
 10
152.2806
 20
-46.3351
 30
0.0
 10
152.2806
 20
-46.3351
 30
0.0
 10
154.4732
 20
-47.5655
 30
0.0
 10
151.746
 20
-59.4685
 30
0.0
 10
147.013
 20
-54.622
 30
0.0
 10
147.013
 20
-54.622
 30
0.0
 10
142.7442
 20
-57.0145
 30
0.0
 10
147.5251
 20
-64.2304
 30
0.0
 10
152.8648
 20
-58.5076
 30
0.0
 10
152.8648
 20
-58.5076
 30
0.0
 10
152.7755
 20
-62.5067
 30
0.0
 10
154.6814
 20
-62.0703
 30
0.0
 10
155.7535
 20
-65.3528
 30
0.0
 10
155.7535
 20
-65.3528
 30
0.0
 10
156.8261
 20
-62.0703
 30
0.0
 10
158.7337
 20
-62.5068
 30
0.0
 10
158.6444
 20
-58.5076
 30
0.0
 10
158.6444
 20
-58.5076
 30
0.0
 10
163.9836
 20
-64.2304
 30
0.0
 10
168.7633
 20
-57.0145
 30
0.0
 10
164.4958
 20
-54.622
 30
0.0
 10
164.4958
 20
-54.622
 30
0.0
 10
159.7632
 20
-59.4685
 30
0.0
 10
157.0338
 20
-47.5656
 30
0.0
 10
159.2269
 20
-46.3351
 30
0.0
 10
159.2269
 20
-46.3351
 30
0.0
 10
160.5279
 20
-52.651
 30
0.0
 10
163.5868
 20
-54.6906
 30
0.0
 10
165.5855
 20
-52.4517
 30
0.0
 10
165.5855
 20
-52.4517
 30
0.0
 10
167.8627
 20
-57.8784
 30
0.0
 10
174.1871
 20
-56.9955
 30
0.0
 10
175.4052
 20
-56.2836
 30
0.0
 10
175.4052
 20
-56.2836
 30
0.0
 10
172.2846
 20
-54.1169
 30
0.0
 10
172.5011
 20
-50.2018
 30
0.0
 10
170.5314
 20
-49.2792
 30
0.0
 10
170.5314
 20
-49.2792
 30
0.0
 10
171.9476
 20
-49.2137
 30
0.0
 10
173.2332
 20
-48.0245
 30
0.0
 10
173.5751
 20
-45.9726
 30
0.0
 10
173.5751
 20
-45.9726
 30
0.0
 10
178.0915
 20
-50.9356
 30
0.0
 10
180.7142
 20
-56.7755
 30
0.0
 10
179.9491
 20
-61.4979
 30
0.0
 10
179.9491
 20
-61.4979
 30
0.0
 10
178.755
 20
-66.5332
 30
0.0
 10
173.5064
 20
-67.157
 30
0.0
 10
174.4722
 20
-61.9929
 30
0.0
 10
174.4722
 20
-61.9929
 30
0.0
 10
173.6595
 20
-61.6044
 30
0.0
 10
171.6608
 20
-63.1117
 30
0.0
 10
171.7792
 20
-64.9146
 30
0.0
 10
171.7792
 20
-64.9146
 30
0.0
 10
166.4086
 20
-59.0818
 30
0.0
 10
157.8196
 20
-62.2419
 30
0.0
 10
155.7535
 20
-68.3463
 30
0.0
 10
155.7535
 20
-68.3463
 30
0.0
 10
153.6897
 20
-62.2419
 30
0.0
 10
145.1001
 20
-59.0818
 30
0.0
 10
139.7283
 20
-64.9146
 30
0.0
  0
SPLINE
  5
57
330
1F
100
AcDbEntity
  8
layer 1
 62
     7
100
AcDbSpline
210
0.0
220
0.0
230
1.0
 70
    11
 71
     3
 72
    20
 73
    16
 74
     0
 42
0.0000000001
 43
0.0000000001
 12
1.0
 22
0.0
 32
0.0
 13
1.0
 23
0.0
 33
0.0
 40
0.0
 40
0.0
 40
0.0
 40
0.0
 40
0.2
 40
0.2
 40
0.2
 40
0.2
 40
0.4
 40
0.4
 40
0.4
 40
0.4
 40
0.6
 40
0.6
 40
0.6
 40
0.6
 40
1.0
 40
1.0
 40
1.0
 40
1.0
 10
146.4371
 20
-9.2076
 30
0.0
 10
152.6466
 20
-8.9841
 30
0.0
 10
149.2128
 20
2.7969
 30
0.0
 10
138.4512
 20
5.928
 30
0.0
 10
138.4512
 20
5.928
 30
0.0
 10
132.1457
 20
6.9813
 30
0.0
 10
127.2873
 20
6.7186
 30
0.0
 10
121.5975
 20
3.9483
 30
0.0
 10
121.5975
 20
3.9483
 30
0.0
 10
121.5975
 20
3.9483
 30
0.0
 10
121.6005
 20
-6.4373
 30
0.0
 10
121.6005
 20
-6.4373
 30
0.0
 10
121.6005
 20
-6.4373
 30
0.0
 10
126.3198
 20
3.5699
 30
0.0
 10
145.1208
 20
4.1009
 30
0.0
 10
146.4371
 20
-9.2076
 30
0.0
  0
SPLINE
  5
58
330
1F
100
AcDbEntity
  8
layer 1
370
    30
100
AcDbSpline
210
0.0
220
0.0
230
1.0
 70
    11
 71
     3
 72
    20
 73
    16
 74
     0
 42
0.0000000001
 43
0.0000000001
 12
1.0
 22
0.0
 32
0.0
 13
1.0
 23
0.0
 33
0.0
 40
0.0
 40
0.0
 40
0.0
 40
0.0
 40
0.2
 40
0.2
 40
0.2
 40
0.2
 40
0.4
 40
0.4
 40
0.4
 40
0.4
 40
0.6
 40
0.6
 40
0.6
 40
0.6
 40
1.0
 40
1.0
 40
1.0
 40
1.0
 10
146.4375
 20
-9.2076
 30
0.0
 10
152.6466
 20
-8.9841
 30
0.0
 10
149.2128
 20
2.7969
 30
0.0
 10
138.4512
 20
5.928
 30
0.0
 10
138.4512
 20
5.928
 30
0.0
 10
132.1457
 20
6.9813
 30
0.0
 10
127.2873
 20
6.7186
 30
0.0
 10
121.5975
 20
3.9483
 30
0.0
 10
121.5975
 20
3.9483
 30
0.0
 10
121.5975
 20
3.9483
 30
0.0
 10
121.6005
 20
-6.4373
 30
0.0
 10
121.6005
 20
-6.4373
 30
0.0
 10
121.6005
 20
-6.4373
 30
0.0
 10
126.3198
 20
3.5699
 30
0.0
 10
145.1208
 20
4.1009
 30
0.0
 10
146.4375
 20
-9.2076
 30
0.0
  0
SPLINE
  5
59
330
1F
100
AcDbEntity
  8
layer 1
 62
     7
100
AcDbSpline
210
0.0
220
0.0
230
1.0
 70
    11
 71
     3
 72
    16
 73
    12
 74
     0
 42
0.0000000001
 43
0.0000000001
 12
1.0
 22
0.0
 32
0.0
 13
1.0
 23
0.0
 33
0.0
 40
0.0
 40
0.0
 40
0.0
 40
0.0
 40
0.25
 40
0.25
 40
0.25
 40
0.25
 40
0.5
 40
0.5
 40
0.5
 40
0.5
 40
1.0
 40
1.0
 40
1.0
 40
1.0
 10
184.7305
 20
-6.7086
 30
0.0
 10
188.415
 20
-8.6489
 30
0.0
 10
188.7292
 20
-16.8205
 30
0.0
 10
185.287
 20
-20.4452
 30
0.0
 10
185.287
 20
-20.4452
 30
0.0
 10
184.0256
 20
-18.4567
 30
0.0
 10
182.173
 20
-16.7312
 30
0.0
 10
180.7638
 20
-15.4527
 30
0.0
 10
180.7638
 20
-15.4527
 30
0.0
 10
184.9966
 20
-14.9234
 30
0.0
 10
187.0023
 20
-10.1922
 30
0.0
 10
184.7305
 20
-6.7086
 30
0.0
  0
SPLINE
  5
5A
330
1F
100
AcDbEntity
  8
layer 1
370
    30
100
AcDbSpline
210
0.0
220
0.0
230
1.0
 70
    11
 71
     3
 72
    16
 73
    12
 74
     0
 42
0.0000000001
 43
0.0000000001
 12
1.0
 22
0.0
 32
0.0
 13
1.0
 23
0.0
 33
0.0
 40
0.0
 40
0.0
 40
0.0
 40
0.0
 40
0.25
 40
0.25
 40
0.25
 40
0.25
 40
0.5
 40
0.5
 40
0.5
 40
0.5
 40
1.0
 40
1.0
 40
1.0
 40
1.0
 10
184.7305
 20
-6.7086
 30
0.0
 10
188.415
 20
-8.6489
 30
0.0
 10
188.7292
 20
-16.8205
 30
0.0
 10
185.2869
 20
-20.4452
 30
0.0
 10
185.2869
 20
-20.4452
 30
0.0
 10
184.0256
 20
-18.4567
 30
0.0
 10
182.173
 20
-16.7312
 30
0.0
 10
180.7638
 20
-15.4527
 30
0.0
 10
180.7638
 20
-15.4527
 30
0.0
 10
184.9966
 20
-14.9234
 30
0.0
 10
187.0023
 20
-10.1922
 30
0.0
 10
184.7305
 20
-6.7086
 30
0.0
  0
SPLINE
  5
5B
330
1F
100
AcDbEntity
  8
layer 1
 62
     7
370
    30
100
AcDbSpline
210
0.0
220
0.0
230
1.0
 70
    11
 71
     3
 72
    16
 73
    12
 74
     0
 42
0.0000000001
 43
0.0000000001
 12
1.0
 22
0.0
 32
0.0
 13
1.0
 23
0.0
 33
0.0
 40
0.0
 40
0.0
 40
0.0
 40
0.0
 40
0.25
 40
0.25
 40
0.25
 40
0.25
 40
0.5
 40
0.5
 40
0.5
 40
0.5
 40
1.0
 40
1.0
 40
1.0
 40
1.0
 10
173.41
 20
-19.6493
 30
0.0
 10
174.1936
 20
-21.2803
 30
0.0
 10
175.4757
 20
-23.0265
 30
0.0
 10
177.9266
 20
-24.9358
 30
0.0
 10
177.9266
 20
-24.9358
 30
0.0
 10
176.605
 20
-25.5681
 30
0.0
 10
171.6951
 20
-25.5249
 30
0.0
 10
169.8166
 20
-24.6213
 30
0.0
 10
169.8166
 20
-24.6213
 30
0.0
 10
172.3977
 20
-24.1228
 30
0.0
 10
173.4669
 20
-21.4505
 30
0.0
 10
173.41
 20
-19.6493
 30
0.0
  0
SPLINE
  5
5C
330
1F
100
AcDbEntity
  8
layer 1
 62
     7
100
AcDbSpline
210
0.0
220
0.0
230
1.0
 70
    11
 71
     3
 72
    20
 73
    16
 74
     0
 42
0.0000000001
 43
0.0000000001
 12
1.0
 22
0.0
 32
0.0
 13
1.0
 23
0.0
 33
0.0
 40
0.0
 40
0.0
 40
0.0
 40
0.0
 40
0.2
 40
0.2
 40
0.2
 40
0.2
 40
0.4
 40
0.4
 40
0.4
 40
0.4
 40
0.6
 40
0.6
 40
0.6
 40
0.6
 40
1.0
 40
1.0
 40
1.0
 40
1.0
 10
180.0524
 20
-4.3386
 30
0.0
 10
178.0295
 20
-3.8165
 30
0.0
 10
176.0379
 20
-5.4368
 30
0.0
 10
175.7748
 20
-7.4408
 30
0.0
 10
175.7748
 20
-7.4408
 30
0.0
 10
179.224
 20
-6.2221
 30
0.0
 10
180.1311
 20
-9.6441
 30
0.0
 10
178.576
 20
-11.0739
 30
0.0
 10
178.576
 20
-11.0739
 30
0.0
 10
177.6344
 20
-11.9401
 30
0.0
 10
175.8576
 20
-12.0207
 30
0.0
 10
173.9961
 20
-10.8055
 30
0.0
 10
173.9961
 20
-10.8055
 30
0.0
 10
169.6225
 20
-7.2828
 30
0.0
 10
174.8707
 20
-1.6783
 30
0.0
 10
180.0524
 20
-4.3386
 30
0.0
  0
SPLINE
  5
5D
330
1F
100
AcDbEntity
  8
layer 1
370
    30
100
AcDbSpline
210
0.0
220
0.0
230
1.0
 70
    11
 71
     3
 72
    20
 73
    16
 74
     0
 42
0.0000000001
 43
0.0000000001
 12
1.0
 22
0.0
 32
0.0
 13
1.0
 23
0.0
 33
0.0
 40
0.0
 40
0.0
 40
0.0
 40
0.0
 40
0.2
 40
0.2
 40
0.2
 40
0.2
 40
0.4
 40
0.4
 40
0.4
 40
0.4
 40
0.6
 40
0.6
 40
0.6
 40
0.6
 40
1.0
 40
1.0
 40
1.0
 40
1.0
 10
180.0524
 20
-4.3386
 30
0.0
 10
178.0295
 20
-3.8165
 30
0.0
 10
176.0379
 20
-5.4368
 30
0.0
 10
175.7748
 20
-7.4408
 30
0.0
 10
175.7748
 20
-7.4408
 30
0.0
 10
179.224
 20
-6.2221
 30
0.0
 10
180.1313
 20
-9.6441
 30
0.0
 10
178.576
 20
-11.0739
 30
0.0
 10
178.576
 20
-11.0739
 30
0.0
 10
177.6344
 20
-11.9401
 30
0.0
 10
175.8576
 20
-12.0207
 30
0.0
 10
173.9961
 20
-10.8055
 30
0.0
 10
173.9961
 20
-10.8055
 30
0.0
 10
169.6225
 20
-7.2828
 30
0.0
 10
174.8707
 20
-1.6783
 30
0.0
 10
180.0524
 20
-4.3386
 30
0.0
  0
SPLINE
  5
5E
330
1F
100
AcDbEntity
  8
layer 1
 62
     7
100
AcDbSpline
210
0.0
220
0.0
230
1.0
 70
    11
 71
     3
 72
    24
 73
    20
 74
     0
 42
0.0000000001
 43
0.0000000001
 12
1.0
 22
0.0
 32
0.0
 13
1.0
 23
0.0
 33
0.0
 40
0.0
 40
0.0
 40
0.0
 40
0.0
 40
0.1666666666666667
 40
0.1666666666666667
 40
0.1666666666666667
 40
0.1666666666666667
 40
0.3333333333333333
 40
0.3333333333333333
 40
0.3333333333333333
 40
0.3333333333333333
 40
0.5
 40
0.5
 40
0.5
 40
0.5
 40
0.6666666666666666
 40
0.6666666666666666
 40
0.6666666666666666
 40
0.6666666666666666
 40
1.0
 40
1.0
 40
1.0
 40
1.0
 10
165.5187
 20
-11.9775
 30
0.0
 10
166.2727
 20
-15.011
 30
0.0
 10
166.6819
 20
-15.3546
 30
0.0
 10
167.5411
 20
-17.3585
 30
0.0
 10
167.5411
 20
-17.3585
 30
0.0
 10
168.8508
 20
-21.1325
 30
0.0
 10
165.1557
 20
-22.2856
 30
0.0
 10
165.4827
 20
-19.2319
 30
0.0
 10
165.4827
 20
-19.2319
 30
0.0
 10
164.1817
 20
-18.8504
 30
0.0
 10
164.1232
 20
-20.5878
 30
0.0
 10
164.0748
 20
-21.3335
 30
0.0
 10
164.0748
 20
-21.3335
 30
0.0
 10
162.5248
 20
-19.9605
 30
0.0
 10
160.2032
 20
-16.0748
 30
0.0
 10
160.1495
 20
-12.1786
 30
0.0
 10
160.1495
 20
-12.1786
 30
0.0
 10
161.358
 20
-13.7065
 30
0.0
 10
164.5802
 20
-14.2151
 30
0.0
 10
165.5187
 20
-11.9775
 30
0.0
  0
SPLINE
  5
5F
330
1F
100
AcDbEntity
  8
layer 1
370
    30
100
AcDbSpline
210
0.0
220
0.0
230
1.0
 70
    11
 71
     3
 72
    24
 73
    20
 74
     0
 42
0.0000000001
 43
0.0000000001
 12
1.0
 22
0.0
 32
0.0
 13
1.0
 23
0.0
 33
0.0
 40
0.0
 40
0.0
 40
0.0
 40
0.0
 40
0.1666666666666667
 40
0.1666666666666667
 40
0.1666666666666667
 40
0.1666666666666667
 40
0.3333333333333333
 40
0.3333333333333333
 40
0.3333333333333333
 40
0.3333333333333333
 40
0.5
 40
0.5
 40
0.5
 40
0.5
 40
0.6666666666666666
 40
0.6666666666666666
 40
0.6666666666666666
 40
0.6666666666666666
 40
1.0
 40
1.0
 40
1.0
 40
1.0
 10
165.5187
 20
-11.9775
 30
0.0
 10
166.2728
 20
-15.011
 30
0.0
 10
166.6819
 20
-15.3546
 30
0.0
 10
167.5411
 20
-17.3585
 30
0.0
 10
167.5411
 20
-17.3585
 30
0.0
 10
168.8508
 20
-21.1325
 30
0.0
 10
165.1557
 20
-22.2856
 30
0.0
 10
165.4827
 20
-19.2319
 30
0.0
 10
165.4827
 20
-19.2319
 30
0.0
 10
164.1817
 20
-18.8504
 30
0.0
 10
164.1232
 20
-20.5878
 30
0.0
 10
164.0748
 20
-21.3335
 30
0.0
 10
164.0748
 20
-21.3335
 30
0.0
 10
162.5248
 20
-19.9605
 30
0.0
 10
160.2032
 20
-16.0748
 30
0.0
 10
160.1495
 20
-12.1786
 30
0.0
 10
160.1495
 20
-12.1786
 30
0.0
 10
161.358
 20
-13.7065
 30
0.0
 10
164.5802
 20
-14.2151
 30
0.0
 10
165.5187
 20
-11.9775
 30
0.0
  0
SPLINE
  5
60
330
1F
100
AcDbEntity
  8
layer 1
 62
     7
370
    30
100
AcDbSpline
210
0.0
220
0.0
230
1.0
 70
    11
 71
     3
 72
    16
 73
    12
 74
     0
 42
0.0000000001
 43
0.0000000001
 12
1.0
 22
0.0
 32
0.0
 13
1.0
 23
0.0
 33
0.0
 40
0.0
 40
0.0
 40
0.0
 40
0.0
 40
0.25
 40
0.25
 40
0.25
 40
0.25
 40
0.5
 40
0.5
 40
0.5
 40
0.5
 40
1.0
 40
1.0
 40
1.0
 40
1.0
 10
169.7597
 20
-10.2318
 30
0.0
 10
170.9182
 20
-12.5794
 30
0.0
 10
172.5751
 20
-13.8579
 30
0.0
 10
174.0287
 20
-14.4575
 30
0.0
 10
174.0287
 20
-14.4575
 30
0.0
 10
176.2922
 20
-15.2138
 30
0.0
 10
175.0014
 20
-17.979
 30
0.0
 10
172.6229
 20
-16.2639
 30
0.0
 10
172.6229
 20
-16.2639
 30
0.0
 10
170.3718
 20
-14.1122
 30
0.0
 10
169.8183
 20
-12.0325
 30
0.0
 10
169.7597
 20
-10.2318
 30
0.0
  0
SPLINE
  5
61
330
1F
100
AcDbEntity
  8
layer 1
 62
     7
370
    30
100
AcDbSpline
210
0.0
220
0.0
230
1.0
 70
    11
 71
     3
 72
    16
 73
    12
 74
     0
 42
0.0000000001
 43
0.0000000001
 12
1.0
 22
0.0
 32
0.0
 13
1.0
 23
0.0
 33
0.0
 40
0.0
 40
0.0
 40
0.0
 40
0.0
 40
0.25
 40
0.25
 40
0.25
 40
0.25
 40
0.5
 40
0.5
 40
0.5
 40
0.5
 40
1.0
 40
1.0
 40
1.0
 40
1.0
 10
172.5526
 20
-29.7546
 30
0.0
 10
166.4672
 20
-29.6996
 30
0.0
 10
163.4373
 20
-27.206
 30
0.0
 10
160.3008
 20
-23.8135
 30
0.0
 10
160.3008
 20
-23.8135
 30
0.0
 10
161.3752
 20
-27.5016
 30
0.0
 10
164.6608
 20
-31.7635
 30
0.0
 10
170.9679
 20
-36.7217
 30
0.0
 10
170.9679
 20
-36.7217
 30
0.0
 10
168.3867
 20
-33.9768
 30
0.0
 10
170.561
 20
-30.1823
 30
0.0
 10
172.5526
 20
-29.7546
 30
0.0
  0
SPLINE
  5
62
330
1F
100
AcDbEntity
  8
layer 1
 62
     7
100
AcDbSpline
210
0.0
220
0.0
230
1.0
 70
    11
 71
     3
 72
    24
 73
    20
 74
     0
 42
0.0000000001
 43
0.0000000001
 12
1.0
 22
0.0
 32
0.0
 13
1.0
 23
0.0
 33
0.0
 40
0.0
 40
0.0
 40
0.0
 40
0.0
 40
0.1666666666666667
 40
0.1666666666666667
 40
0.1666666666666667
 40
0.1666666666666667
 40
0.3333333333333333
 40
0.3333333333333333
 40
0.3333333333333333
 40
0.3333333333333333
 40
0.5
 40
0.5
 40
0.5
 40
0.5
 40
0.6666666666666666
 40
0.6666666666666666
 40
0.6666666666666666
 40
0.6666666666666666
 40
1.0
 40
1.0
 40
1.0
 40
1.0
 10
169.4971
 20
-42.1661
 30
0.0
 10
165.2815
 20
-38.7441
 30
0.0
 10
160.6308
 20
-35.3138
 30
0.0
 10
158.5547
 20
-29.177
 30
0.0
 10
158.5547
 20
-29.177
 30
0.0
 10
158.4434
 20
-32.7414
 30
0.0
 10
159.9832
 20
-41.3684
 30
0.0
 10
166.2899
 20
-46.3266
 30
0.0
 10
166.2899
 20
-46.3266
 30
0.0
 10
168.3092
 20
-47.7512
 30
0.0
 10
170.3836
 20
-46.9109
 30
0.0
 10
170.451
 20
-45.9021
 30
0.0
 10
170.451
 20
-45.9021
 30
0.0
 10
170.6296
 20
-43.2157
 30
0.0
 10
167.7061
 20
-44.3707
 30
0.0
 10
167.8645
 20
-43.8929
 30
0.0
 10
167.8645
 20
-43.8929
 30
0.0
 10
168.1254
 20
-43.0974
 30
0.0
 10
168.4127
 20
-42.3996
 30
0.0
 10
169.4971
 20
-42.1661
 30
0.0
  0
SPLINE
  5
63
330
1F
100
AcDbEntity
  8
layer 1
370
    30
100
AcDbSpline
210
0.0
220
0.0
230
1.0
 70
    11
 71
     3
 72
    24
 73
    20
 74
     0
 42
0.0000000001
 43
0.0000000001
 12
1.0
 22
0.0
 32
0.0
 13
1.0
 23
0.0
 33
0.0
 40
0.0
 40
0.0
 40
0.0
 40
0.0
 40
0.1666666666666667
 40
0.1666666666666667
 40
0.1666666666666667
 40
0.1666666666666667
 40
0.3333333333333333
 40
0.3333333333333333
 40
0.3333333333333333
 40
0.3333333333333333
 40
0.5
 40
0.5
 40
0.5
 40
0.5
 40
0.6666666666666666
 40
0.6666666666666666
 40
0.6666666666666666
 40
0.6666666666666666
 40
1.0
 40
1.0
 40
1.0
 40
1.0
 10
169.4971
 20
-42.1661
 30
0.0
 10
165.2815
 20
-38.7441
 30
0.0
 10
160.6308
 20
-35.3138
 30
0.0
 10
158.5547
 20
-29.177
 30
0.0
 10
158.5547
 20
-29.177
 30
0.0
 10
158.4434
 20
-32.7414
 30
0.0
 10
159.9832
 20
-41.3684
 30
0.0
 10
166.2904
 20
-46.3266
 30
0.0
 10
166.2904
 20
-46.3266
 30
0.0
 10
168.3092
 20
-47.7512
 30
0.0
 10
170.3836
 20
-46.9109
 30
0.0
 10
170.451
 20
-45.9021
 30
0.0
 10
170.451
 20
-45.9021
 30
0.0
 10
170.6296
 20
-43.2157
 30
0.0
 10
167.7061
 20
-44.3707
 30
0.0
 10
167.8645
 20
-43.8929
 30
0.0
 10
167.8645
 20
-43.8929
 30
0.0
 10
168.1254
 20
-43.0974
 30
0.0
 10
168.4127
 20
-42.3996
 30
0.0
 10
169.4971
 20
-42.1661
 30
0.0
  0
SPLINE
  5
64
330
1F
100
AcDbEntity
  8
layer 1
 62
     7
370
    30
100
AcDbSpline
210
0.0
220
0.0
230
1.0
 70
    11
 71
     3
 72
    20
 73
    16
 74
     0
 42
0.0000000001
 43
0.0000000001
 12
1.0
 22
0.0
 32
0.0
 13
1.0
 23
0.0
 33
0.0
 40
0.0
 40
0.0
 40
0.0
 40
0.0
 40
0.2
 40
0.2
 40
0.2
 40
0.2
 40
0.4
 40
0.4
 40
0.4
 40
0.4
 40
0.6
 40
0.6
 40
0.6
 40
0.6
 40
1.0
 40
1.0
 40
1.0
 40
1.0
 10
177.1822
 20
-33.0472
 30
0.0
 10
175.1184
 20
-30.0089
 30
0.0
 10
172.1074
 20
-32.9461
 30
0.0
 10
174.4655
 20
-35.3072
 30
0.0
 10
174.4655
 20
-35.3072
 30
0.0
 10
179.8478
 20
-39.3957
 30
0.0
 10
183.7489
 20
-31.4832
 30
0.0
 10
181.6935
 20
-28.4947
 30
0.0
 10
181.6935
 20
-28.4947
 30
0.0
 10
180.8461
 20
-29.122
 30
0.0
 10
178.7273
 20
-29.9795
 30
0.0
 10
175.4312
 20
-29.7595
 30
0.0
 10
175.4312
 20
-29.7595
 30
0.0
 10
177.1703
 20
-30.6015
 30
0.0
 10
177.8025
 20
-32.0881
 30
0.0
 10
177.1822
 20
-33.0472
 30
0.0
  0
SPLINE
  5
65
330
1F
100
AcDbEntity
  8
layer 1
 62
     7
100
AcDbSpline
210
0.0
220
0.0
230
1.0
 70
    11
 71
     3
 72
    24
 73
    20
 74
     0
 42
0.0000000001
 43
0.0000000001
 12
1.0
 22
0.0
 32
0.0
 13
1.0
 23
0.0
 33
0.0
 40
0.0
 40
0.0
 40
0.0
 40
0.0
 40
0.1666666666666667
 40
0.1666666666666667
 40
0.1666666666666667
 40
0.1666666666666667
 40
0.3333333333333333
 40
0.3333333333333333
 40
0.3333333333333333
 40
0.3333333333333333
 40
0.5
 40
0.5
 40
0.5
 40
0.5
 40
0.6666666666666666
 40
0.6666666666666666
 40
0.6666666666666666
 40
0.6666666666666666
 40
1.0
 40
1.0
 40
1.0
 40
1.0
 10
173.9908
 20
-39.0209
 30
0.0
 10
183.7471
 20
-42.664
 30
0.0
 10
189.1761
 20
-30.5725
 30
0.0
 10
186.5277
 20
-25.4462
 30
0.0
 10
186.5277
 20
-25.4462
 30
0.0
 10
187.9078
 20
-24.3308
 30
0.0
 10
189.1471
 20
-23.0951
 30
0.0
 10
190.0974
 20
-21.2495
 30
0.0
 10
190.0974
 20
-21.2495
 30
0.0
 10
190.0974
 20
-21.2495
 30
0.0
 10
189.9082
 20
-39.4318
 30
0.0
 10
189.9082
 20
-39.4318
 30
0.0
 10
189.9082
 20
-39.4318
 30
0.0
 10
189.6812
 20
-37.6306
 30
0.0
 10
187.1603
 20
-36.2817
 30
0.0
 10
185.2267
 20
-37.1599
 30
0.0
 10
185.2267
 20
-37.1599
 30
0.0
 10
188.4871
 20
-43.9685
 30
0.0
 10
177.6772
 20
-42.2052
 30
0.0
 10
173.9908
 20
-39.0209
 30
0.0
  0
SPLINE
  5
66
330
1F
100
AcDbEntity
  8
layer 1
370
    30
100
AcDbSpline
210
0.0
220
0.0
230
1.0
 70
    11
 71
     3
 72
    24
 73
    20
 74
     0
 42
0.0000000001
 43
0.0000000001
 12
1.0
 22
0.0
 32
0.0
 13
1.0
 23
0.0
 33
0.0
 40
0.0
 40
0.0
 40
0.0
 40
0.0
 40
0.1666666666666667
 40
0.1666666666666667
 40
0.1666666666666667
 40
0.1666666666666667
 40
0.3333333333333333
 40
0.3333333333333333
 40
0.3333333333333333
 40
0.3333333333333333
 40
0.5
 40
0.5
 40
0.5
 40
0.5
 40
0.6666666666666666
 40
0.6666666666666666
 40
0.6666666666666666
 40
0.6666666666666666
 40
1.0
 40
1.0
 40
1.0
 40
1.0
 10
173.9908
 20
-39.0209
 30
0.0
 10
183.7471
 20
-42.664
 30
0.0
 10
189.1761
 20
-30.5725
 30
0.0
 10
186.528
 20
-25.4462
 30
0.0
 10
186.528
 20
-25.4462
 30
0.0
 10
187.9078
 20
-24.3308
 30
0.0
 10
189.1471
 20
-23.0951
 30
0.0
 10
190.0974
 20
-21.2495
 30
0.0
 10
190.0974
 20
-21.2495
 30
0.0
 10
190.0974
 20
-21.2495
 30
0.0
 10
189.9082
 20
-39.4318
 30
0.0
 10
189.9082
 20
-39.4318
 30
0.0
 10
189.9082
 20
-39.4318
 30
0.0
 10
189.6812
 20
-37.6306
 30
0.0
 10
187.1603
 20
-36.2817
 30
0.0
 10
185.2267
 20
-37.1599
 30
0.0
 10
185.2267
 20
-37.1599
 30
0.0
 10
188.4871
 20
-43.9685
 30
0.0
 10
177.6772
 20
-42.2052
 30
0.0
 10
173.9908
 20
-39.0209
 30
0.0
  0
SPLINE
  5
67
330
1F
100
AcDbEntity
  8
layer 1
 62
     7
370
    30
100
AcDbSpline
210
0.0
220
0.0
230
1.0
 70
    11
 71
     3
 72
    24
 73
    20
 74
     0
 42
0.0000000001
 43
0.0000000001
 12
1.0
 22
0.0
 32
0.0
 13
1.0
 23
0.0
 33
0.0
 40
0.0
 40
0.0
 40
0.0
 40
0.0
 40
0.1666666666666667
 40
0.1666666666666667
 40
0.1666666666666667
 40
0.1666666666666667
 40
0.3333333333333333
 40
0.3333333333333333
 40
0.3333333333333333
 40
0.3333333333333333
 40
0.5
 40
0.5
 40
0.5
 40
0.5
 40
0.6666666666666666
 40
0.6666666666666666
 40
0.6666666666666666
 40
0.6666666666666666
 40
1.0
 40
1.0
 40
1.0
 40
1.0
 10
185.0291
 20
-50.372
 30
0.0
 10
186.1792
 20
-50.5868
 30
0.0
 10
189.9632
 20
-47.9747
 30
0.0
 10
187.2153
 20
-44.8436
 30
0.0
 10
187.2153
 20
-44.8436
 30
0.0
 10
188.4062
 20
-45.1631
 30
0.0
 10
189.3341
 20
-44.9241
 30
0.0
 10
190.0974
 20
-43.5168
 30
0.0
 10
190.0974
 20
-43.5168
 30
0.0
 10
190.0974
 20
-43.5168
 30
0.0
 10
189.9082
 20
-64.9419
 30
0.0
 10
189.9082
 20
-64.9419
 30
0.0
 10
189.9082
 20
-64.9419
 30
0.0
 10
187.9354
 20
-56.8406
 30
0.0
 10
183.792
 20
-49.3787
 30
0.0
 10
178.6155
 20
-44.4587
 30
0.0
 10
178.6155
 20
-44.4587
 30
0.0
 10
183.8707
 20
-44.467
 30
0.0
 10
185.9728
 20
-48.5058
 30
0.0
 10
185.0291
 20
-50.372
 30
0.0
  0
SPLINE
  5
68
330
1F
100
AcDbEntity
  8
layer 1
 62
     7
100
AcDbSpline
210
0.0
220
0.0
230
1.0
 70
    11
 71
     3
 72
    24
 73
    20
 74
     0
 42
0.0000000001
 43
0.0000000001
 12
1.0
 22
0.0
 32
0.0
 13
1.0
 23
0.0
 33
0.0
 40
0.0
 40
0.0
 40
0.0
 40
0.0
 40
0.1666666666666667
 40
0.1666666666666667
 40
0.1666666666666667
 40
0.1666666666666667
 40
0.3333333333333333
 40
0.3333333333333333
 40
0.3333333333333333
 40
0.3333333333333333
 40
0.5
 40
0.5
 40
0.5
 40
0.5
 40
0.6666666666666666
 40
0.6666666666666666
 40
0.6666666666666666
 40
0.6666666666666666
 40
1.0
 40
1.0
 40
1.0
 40
1.0
 10
184.7181
 20
-95.9655
 30
0.0
 10
177.9472
 20
-98.4248
 30
0.0
 10
178.7374
 20
-90.0741
 30
0.0
 10
182.9737
 20
-85.8207
 30
0.0
 10
182.9737
 20
-85.8207
 30
0.0
 10
186.2236
 20
-81.7115
 30
0.0
 10
189.023
 20
-77.7312
 30
0.0
 10
190.0974
 20
-73.5795
 30
0.0
 10
190.0974
 20
-73.5795
 30
0.0
 10
190.0974
 20
-73.5795
 30
0.0
 10
189.9702
 20
-100.2445
 30
0.0
 10
189.9702
 20
-100.2445
 30
0.0
 10
189.9702
 20
-100.2445
 30
0.0
 10
189.9702
 20
-100.2445
 30
0.0
 10
181.7348
 20
-100.1552
 30
0.0
 10
181.7348
 20
-100.1552
 30
0.0
 10
181.7348
 20
-100.1552
 30
0.0
 10
184.0581
 20
-99.478
 30
0.0
 10
184.7252
 20
-98.1529
 30
0.0
 10
184.7181
 20
-95.9655
 30
0.0
  0
SPLINE
  5
69
330
1F
100
AcDbEntity
  8
layer 1
370
    30
100
AcDbSpline
210
0.0
220
0.0
230
1.0
 70
    11
 71
     3
 72
    24
 73
    20
 74
     0
 42
0.0000000001
 43
0.0000000001
 12
1.0
 22
0.0
 32
0.0
 13
1.0
 23
0.0
 33
0.0
 40
0.0
 40
0.0
 40
0.0
 40
0.0
 40
0.1666666666666667
 40
0.1666666666666667
 40
0.1666666666666667
 40
0.1666666666666667
 40
0.3333333333333333
 40
0.3333333333333333
 40
0.3333333333333333
 40
0.3333333333333333
 40
0.5
 40
0.5
 40
0.5
 40
0.5
 40
0.6666666666666666
 40
0.6666666666666666
 40
0.6666666666666666
 40
0.6666666666666666
 40
1.0
 40
1.0
 40
1.0
 40
1.0
 10
184.7181
 20
-95.9655
 30
0.0
 10
177.9472
 20
-98.4248
 30
0.0
 10
178.7375
 20
-90.0741
 30
0.0
 10
182.9737
 20
-85.8207
 30
0.0
 10
182.9737
 20
-85.8207
 30
0.0
 10
186.2236
 20
-81.7115
 30
0.0
 10
189.023
 20
-77.7312
 30
0.0
 10
190.0974
 20
-73.5795
 30
0.0
 10
190.0974
 20
-73.5795
 30
0.0
 10
190.0974
 20
-73.5795
 30
0.0
 10
189.9702
 20
-100.2445
 30
0.0
 10
189.9702
 20
-100.2445
 30
0.0
 10
189.9702
 20
-100.2445
 30
0.0
 10
189.9702
 20
-100.2445
 30
0.0
 10
181.7348
 20
-100.1552
 30
0.0
 10
181.7348
 20
-100.1552
 30
0.0
 10
181.7348
 20
-100.1552
 30
0.0
 10
184.0581
 20
-99.478
 30
0.0
 10
184.7252
 20
-98.1529
 30
0.0
 10
184.7181
 20
-95.9655
 30
0.0
  0
SPLINE
  5
6A
330
1F
100
AcDbEntity
  8
layer 1
 62
     7
100
AcDbSpline
210
0.0
220
0.0
230
1.0
 70
    11
 71
     3
 72
    48
 73
    44
 74
     0
 42
0.0000000001
 43
0.0000000001
 12
1.0
 22
0.0
 32
0.0
 13
1.0
 23
0.0
 33
0.0
 40
0.0
 40
0.0
 40
0.0
 40
0.0
 40
0.0833333333333333
 40
0.0833333333333333
 40
0.0833333333333333
 40
0.0833333333333333
 40
0.1666666666666667
 40
0.1666666666666667
 40
0.1666666666666667
 40
0.1666666666666667
 40
0.25
 40
0.25
 40
0.25
 40
0.25
 40
0.3333333333333333
 40
0.3333333333333333
 40
0.3333333333333333
 40
0.3333333333333333
 40
0.4166666666666667
 40
0.4166666666666667
 40
0.4166666666666667
 40
0.4166666666666667
 40
0.5
 40
0.5
 40
0.5
 40
0.5
 40
0.5833333333333334
 40
0.5833333333333334
 40
0.5833333333333334
 40
0.5833333333333334
 40
0.6666666666666666
 40
0.6666666666666666
 40
0.6666666666666666
 40
0.6666666666666666
 40
0.75
 40
0.75
 40
0.75
 40
0.75
 40
0.8333333333333334
 40
0.8333333333333334
 40
0.8333333333333334
 40
0.8333333333333334
 40
1.0
 40
1.0
 40
1.0
 40
1.0
 10
170.1879
 20
-93.635
 30
0.0
 10
169.9745
 20
-94.7846
 30
0.0
 10
172.5249
 20
-99.1309
 30
0.0
 10
175.6564
 20
-96.3812
 30
0.0
 10
175.6564
 20
-96.3812
 30
0.0
 10
175.3366
 20
-97.5722
 30
0.0
 10
176.0102
 20
-99.3751
 30
0.0
 10
177.4193
 20
-100.138
 30
0.0
 10
177.4193
 20
-100.138
 30
0.0
 10
177.4193
 20
-100.138
 30
0.0
 10
156.4288
 20
-100.1964
 30
0.0
 10
156.4288
 20
-100.1964
 30
0.0
 10
156.4288
 20
-100.1964
 30
0.0
 10
156.8089
 20
-100.1037
 30
0.0
 10
158.1012
 20
-98.782
 30
0.0
 10
158.6872
 20
-96.8692
 30
0.0
 10
158.6872
 20
-96.8692
 30
0.0
 10
158.89
 20
-96.2008
 30
0.0
 10
158.1424
 20
-94.5476
 30
0.0
 10
157.735
 20
-93.8669
 30
0.0
 10
157.735
 20
-93.8669
 30
0.0
 10
157.2057
 20
-92.9834
 30
0.0
 10
156.6836
 20
-90.6465
 30
0.0
 10
158.2075
 20
-90.3076
 30
0.0
 10
158.2075
 20
-90.3076
 30
0.0
 10
159.347
 20
-90.0534
 30
0.0
 10
160.593
 20
-91.5334
 30
0.0
 10
159.0276
 20
-92.9237
 30
0.0
 10
159.0276
 20
-92.9237
 30
0.0
 10
161.5952
 20
-95.3451
 30
0.0
 10
166.5464
 20
-94.2383
 30
0.0
 10
168.1548
 20
-91.6398
 30
0.0
 10
168.1548
 20
-91.6398
 30
0.0
 10
161.0347
 20
-92.2343
 30
0.0
 10
157.5458
 20
-87.1097
 30
0.0
 10
157.8948
 20
-84.4357
 30
0.0
 10
157.8948
 20
-84.4357
 30
0.0
 10
161.8855
 20
-89.9333
 30
0.0
 10
173.0801
 20
-90.9817
 30
0.0
 10
177.4743
 20
-88.1564
 30
0.0
 10
177.4743
 20
-88.1564
 30
0.0
 10
174.5975
 20
-95.5959
 30
0.0
 10
172.0559
 20
-94.577
 30
0.0
 10
170.1879
 20
-93.635
 30
0.0
  0
SPLINE
  5
6B
330
1F
100
AcDbEntity
  8
layer 1
370
    30
100
AcDbSpline
210
0.0
220
0.0
230
1.0
 70
    11
 71
     3
 72
    48
 73
    44
 74
     0
 42
0.0000000001
 43
0.0000000001
 12
1.0
 22
0.0
 32
0.0
 13
1.0
 23
0.0
 33
0.0
 40
0.0
 40
0.0
 40
0.0
 40
0.0
 40
0.0833333333333333
 40
0.0833333333333333
 40
0.0833333333333333
 40
0.0833333333333333
 40
0.1666666666666667
 40
0.1666666666666667
 40
0.1666666666666667
 40
0.1666666666666667
 40
0.25
 40
0.25
 40
0.25
 40
0.25
 40
0.3333333333333333
 40
0.3333333333333333
 40
0.3333333333333333
 40
0.3333333333333333
 40
0.4166666666666667
 40
0.4166666666666667
 40
0.4166666666666667
 40
0.4166666666666667
 40
0.5
 40
0.5
 40
0.5
 40
0.5
 40
0.5833333333333334
 40
0.5833333333333334
 40
0.5833333333333334
 40
0.5833333333333334
 40
0.6666666666666666
 40
0.6666666666666666
 40
0.6666666666666666
 40
0.6666666666666666
 40
0.75
 40
0.75
 40
0.75
 40
0.75
 40
0.8333333333333334
 40
0.8333333333333334
 40
0.8333333333333334
 40
0.8333333333333334
 40
1.0
 40
1.0
 40
1.0
 40
1.0
 10
170.1879
 20
-93.635
 30
0.0
 10
169.9748
 20
-94.7846
 30
0.0
 10
172.5249
 20
-99.1309
 30
0.0
 10
175.6564
 20
-96.3812
 30
0.0
 10
175.6564
 20
-96.3812
 30
0.0
 10
175.3366
 20
-97.5722
 30
0.0
 10
176.0102
 20
-99.3751
 30
0.0
 10
177.4193
 20
-100.138
 30
0.0
 10
177.4193
 20
-100.138
 30
0.0
 10
177.4193
 20
-100.138
 30
0.0
 10
156.4288
 20
-100.1964
 30
0.0
 10
156.4288
 20
-100.1964
 30
0.0
 10
156.4288
 20
-100.1964
 30
0.0
 10
156.8089
 20
-100.1037
 30
0.0
 10
158.1012
 20
-98.782
 30
0.0
 10
158.6872
 20
-96.8692
 30
0.0
 10
158.6872
 20
-96.8692
 30
0.0
 10
158.89
 20
-96.2008
 30
0.0
 10
158.1424
 20
-94.5476
 30
0.0
 10
157.735
 20
-93.8669
 30
0.0
 10
157.735
 20
-93.8669
 30
0.0
 10
157.2057
 20
-92.9834
 30
0.0
 10
156.6836
 20
-90.6465
 30
0.0
 10
158.2075
 20
-90.3076
 30
0.0
 10
158.2075
 20
-90.3076
 30
0.0
 10
159.347
 20
-90.0534
 30
0.0
 10
160.593
 20
-91.5334
 30
0.0
 10
159.0276
 20
-92.9237
 30
0.0
 10
159.0276
 20
-92.9237
 30
0.0
 10
161.5952
 20
-95.3451
 30
0.0
 10
166.5464
 20
-94.2383
 30
0.0
 10
168.1548
 20
-91.6398
 30
0.0
 10
168.1548
 20
-91.6398
 30
0.0
 10
161.0347
 20
-92.2343
 30
0.0
 10
157.5463
 20
-87.1097
 30
0.0
 10
157.8948
 20
-84.4357
 30
0.0
 10
157.8948
 20
-84.4357
 30
0.0
 10
161.8855
 20
-89.9333
 30
0.0
 10
173.0801
 20
-90.9817
 30
0.0
 10
177.4743
 20
-88.1564
 30
0.0
 10
177.4743
 20
-88.1564
 30
0.0
 10
174.5975
 20
-95.5959
 30
0.0
 10
172.0559
 20
-94.577
 30
0.0
 10
170.1879
 20
-93.635
 30
0.0
  0
SPLINE
  5
6C
330
1F
100
AcDbEntity
  8
layer 1
 62
     7
100
AcDbSpline
210
0.0
220
0.0
230
1.0
 70
    11
 71
     3
 72
    52
 73
    48
 74
     0
 42
0.0000000001
 43
0.0000000001
 12
1.0
 22
0.0
 32
0.0
 13
1.0
 23
0.0
 33
0.0
 40
0.0
 40
0.0
 40
0.0
 40
0.0
 40
0.0769230769230769
 40
0.0769230769230769
 40
0.0769230769230769
 40
0.0769230769230769
 40
0.1538461538461539
 40
0.1538461538461539
 40
0.1538461538461539
 40
0.1538461538461539
 40
0.2307692307692308
 40
0.2307692307692308
 40
0.2307692307692308
 40
0.2307692307692308
 40
0.3076923076923077
 40
0.3076923076923077
 40
0.3076923076923077
 40
0.3076923076923077
 40
0.3846153846153846
 40
0.3846153846153846
 40
0.3846153846153846
 40
0.3846153846153846
 40
0.4615384615384616
 40
0.4615384615384616
 40
0.4615384615384616
 40
0.4615384615384616
 40
0.5384615384615384
 40
0.5384615384615384
 40
0.5384615384615384
 40
0.5384615384615384
 40
0.6153846153846154
 40
0.6153846153846154
 40
0.6153846153846154
 40
0.6153846153846154
 40
0.6923076923076923
 40
0.6923076923076923
 40
0.6923076923076923
 40
0.6923076923076923
 40
0.7692307692307693
 40
0.7692307692307693
 40
0.7692307692307693
 40
0.7692307692307693
 40
0.8461538461538461
 40
0.8461538461538461
 40
0.8461538461538461
 40
0.8461538461538461
 40
1.0
 40
1.0
 40
1.0
 40
1.0
 10
163.6625
 20
-69.2692
 30
0.0
 10
158.0598
 20
-71.5394
 30
0.0
 10
159.8987
 20
-78.4946
 30
0.0
 10
164.2675
 20
-80.0894
 30
0.0
 10
164.2675
 20
-80.0894
 30
0.0
 10
172.8464
 20
-83.2258
 30
0.0
 10
176.2372
 20
-74.3044
 30
0.0
 10
175.4158
 20
-70.3779
 30
0.0
 10
175.4158
 20
-70.3779
 30
0.0
 10
176.3762
 20
-71.2248
 30
0.0
 10
179.7912
 20
-70.9156
 30
0.0
 10
180.4818
 20
-67.5024
 30
0.0
 10
180.4818
 20
-67.5024
 30
0.0
 10
181.9151
 20
-68.678
 30
0.0
 10
182.1955
 20
-71.0462
 30
0.0
 10
182.5496
 20
-72.0207
 30
0.0
 10
182.5496
 20
-72.0207
 30
0.0
 10
183.7093
 20
-70.6717
 30
0.0
 10
184.3385
 20
-68.9446
 30
0.0
 10
185.038
 20
-66.9388
 30
0.0
 10
185.038
 20
-66.9388
 30
0.0
 10
184.7855
 20
-71.78
 30
0.0
 10
185.038
 20
-76.1074
 30
0.0
 10
180.1299
 20
-81.3785
 30
0.0
 10
180.1299
 20
-81.3785
 30
0.0
 10
176.1822
 20
-84.9856
 30
0.0
 10
170.0022
 20
-87.7217
 30
0.0
 10
163.1759
 20
-83.9579
 30
0.0
 10
163.1759
 20
-83.9579
 30
0.0
 10
157.6972
 20
-80.9398
 30
0.0
 10
154.5921
 20
-70.3229
 30
0.0
 10
162.901
 20
-66.645
 30
0.0
 10
162.901
 20
-66.645
 30
0.0
 10
166.4016
 20
-65.8701
 30
0.0
 10
171.1897
 20
-67.5011
 30
0.0
 10
170.7018
 20
-72.7646
 30
0.0
 10
170.7018
 20
-72.7646
 30
0.0
 10
169.6018
 20
-75.7568
 30
0.0
 10
167.4501
 20
-75.3186
 30
0.0
 10
166.8865
 20
-74.4783
 30
0.0
 10
166.8865
 20
-74.4783
 30
0.0
 10
165.388
 20
-72.2407
 30
0.0
 10
168.0585
 20
-71.5376
 30
0.0
 10
167.8729
 20
-71.0704
 30
0.0
 10
167.8729
 20
-71.0704
 30
0.0
 10
167.1856
 20
-69.326
 30
0.0
 10
164.7176
 20
-68.9292
 30
0.0
 10
163.6625
 20
-69.2692
 30
0.0
  0
SPLINE
  5
6D
330
1F
100
AcDbEntity
  8
layer 1
370
    30
100
AcDbSpline
210
0.0
220
0.0
230
1.0
 70
    11
 71
     3
 72
    52
 73
    48
 74
     0
 42
0.0000000001
 43
0.0000000001
 12
1.0
 22
0.0
 32
0.0
 13
1.0
 23
0.0
 33
0.0
 40
0.0
 40
0.0
 40
0.0
 40
0.0
 40
0.0769230769230769
 40
0.0769230769230769
 40
0.0769230769230769
 40
0.0769230769230769
 40
0.1538461538461539
 40
0.1538461538461539
 40
0.1538461538461539
 40
0.1538461538461539
 40
0.2307692307692308
 40
0.2307692307692308
 40
0.2307692307692308
 40
0.2307692307692308
 40
0.3076923076923077
 40
0.3076923076923077
 40
0.3076923076923077
 40
0.3076923076923077
 40
0.3846153846153846
 40
0.3846153846153846
 40
0.3846153846153846
 40
0.3846153846153846
 40
0.4615384615384616
 40
0.4615384615384616
 40
0.4615384615384616
 40
0.4615384615384616
 40
0.5384615384615384
 40
0.5384615384615384
 40
0.5384615384615384
 40
0.5384615384615384
 40
0.6153846153846154
 40
0.6153846153846154
 40
0.6153846153846154
 40
0.6153846153846154
 40
0.6923076923076923
 40
0.6923076923076923
 40
0.6923076923076923
 40
0.6923076923076923
 40
0.7692307692307693
 40
0.7692307692307693
 40
0.7692307692307693
 40
0.7692307692307693
 40
0.8461538461538461
 40
0.8461538461538461
 40
0.8461538461538461
 40
0.8461538461538461
 40
1.0
 40
1.0
 40
1.0
 40
1.0
 10
163.6625
 20
-69.2692
 30
0.0
 10
158.0598
 20
-71.5394
 30
0.0
 10
159.8987
 20
-78.4946
 30
0.0
 10
164.2675
 20
-80.0894
 30
0.0
 10
164.2675
 20
-80.0894
 30
0.0
 10
172.8464
 20
-83.2258
 30
0.0
 10
176.2372
 20
-74.3044
 30
0.0
 10
175.4158
 20
-70.3779
 30
0.0
 10
175.4158
 20
-70.3779
 30
0.0
 10
176.3762
 20
-71.2248
 30
0.0
 10
179.7911
 20
-70.9156
 30
0.0
 10
180.4818
 20
-67.5024
 30
0.0
 10
180.4818
 20
-67.5024
 30
0.0
 10
181.9151
 20
-68.678
 30
0.0
 10
182.1955
 20
-71.0462
 30
0.0
 10
182.5496
 20
-72.0207
 30
0.0
 10
182.5496
 20
-72.0207
 30
0.0
 10
183.7093
 20
-70.6717
 30
0.0
 10
184.3385
 20
-68.9446
 30
0.0
 10
185.038
 20
-66.9388
 30
0.0
 10
185.038
 20
-66.9388
 30
0.0
 10
184.7855
 20
-71.78
 30
0.0
 10
185.038
 20
-76.1074
 30
0.0
 10
180.1299
 20
-81.3785
 30
0.0
 10
180.1299
 20
-81.3785
 30
0.0
 10
176.1822
 20
-84.9856
 30
0.0
 10
170.0022
 20
-87.7217
 30
0.0
 10
163.1759
 20
-83.9579
 30
0.0
 10
163.1759
 20
-83.9579
 30
0.0
 10
157.6972
 20
-80.9398
 30
0.0
 10
154.5921
 20
-70.3229
 30
0.0
 10
162.901
 20
-66.645
 30
0.0
 10
162.901
 20
-66.645
 30
0.0
 10
166.4016
 20
-65.8701
 30
0.0
 10
171.1897
 20
-67.5011
 30
0.0
 10
170.7018
 20
-72.7646
 30
0.0
 10
170.7018
 20
-72.7646
 30
0.0
 10
169.6018
 20
-75.7568
 30
0.0
 10
167.4501
 20
-75.3186
 30
0.0
 10
166.8865
 20
-74.4783
 30
0.0
 10
166.8865
 20
-74.4783
 30
0.0
 10
165.388
 20
-72.2407
 30
0.0
 10
168.0585
 20
-71.5376
 30
0.0
 10
167.8729
 20
-71.0704
 30
0.0
 10
167.8729
 20
-71.0704
 30
0.0
 10
167.1856
 20
-69.326
 30
0.0
 10
164.7176
 20
-68.9292
 30
0.0
 10
163.6625
 20
-69.2692
 30
0.0
  0
SPLINE
  5
6E
330
1F
100
AcDbEntity
  8
layer 1
 62
     7
370
    30
100
AcDbSpline
210
0.0
220
0.0
230
1.0
 70
    11
 71
     3
 72
    20
 73
    16
 74
     0
 42
0.0000000001
 43
0.0000000001
 12
1.0
 22
0.0
 32
0.0
 13
1.0
 23
0.0
 33
0.0
 40
0.0
 40
0.0
 40
0.0
 40
0.0
 40
0.2
 40
0.2
 40
0.2
 40
0.2
 40
0.4
 40
0.4
 40
0.4
 40
0.4
 40
0.6
 40
0.6
 40
0.6
 40
0.6
 40
1.0
 40
1.0
 40
1.0
 40
1.0
 10
165.0716
 20
-9.2076
 30
0.0
 10
158.8609
 20
-8.9841
 30
0.0
 10
162.2943
 20
2.7969
 30
0.0
 10
173.0559
 20
5.928
 30
0.0
 10
173.0559
 20
5.928
 30
0.0
 10
179.363
 20
6.9813
 30
0.0
 10
184.2196
 20
6.7186
 30
0.0
 10
189.9099
 20
3.9483
 30
0.0
 10
189.9099
 20
3.9483
 30
0.0
 10
189.9099
 20
3.9483
 30
0.0
 10
189.9082
 20
-6.4373
 30
0.0
 10
189.9082
 20
-6.4373
 30
0.0
 10
189.9082
 20
-6.4373
 30
0.0
 10
185.1893
 20
3.5699
 30
0.0
 10
166.3863
 20
4.1009
 30
0.0
 10
165.0716
 20
-9.2076
 30
0.0
  0
SPLINE
  5
6F
330
1F
100
AcDbEntity
  8
layer 1
 62
     7
100
AcDbSpline
210
0.0
220
0.0
230
1.0
 70
    11
 71
     3
 72
    16
 73
    12
 74
     0
 42
0.0000000001
 43
0.0000000001
 12
1.0
 22
0.0
 32
0.0
 13
1.0
 23
0.0
 33
0.0
 40
0.0
 40
0.0
 40
0.0
 40
0.0
 40
0.25
 40
0.25
 40
0.25
 40
0.25
 40
0.5
 40
0.5
 40
0.5
 40
0.5
 40
1.0
 40
1.0
 40
1.0
 40
1.0
 10
126.7788
 20
24.6295
 30
0.0
 10
123.0942
 20
26.5713
 30
0.0
 10
122.7779
 20
34.7413
 30
0.0
 10
126.2218
 20
38.3673
 30
0.0
 10
126.2218
 20
38.3673
 30
0.0
 10
127.4819
 20
36.3792
 30
0.0
 10
129.3341
 20
34.6537
 30
0.0
 10
130.7454
 20
33.3748
 30
0.0
 10
130.7454
 20
33.3748
 30
0.0
 10
126.5108
 20
32.8438
 30
0.0
 10
124.5052
 20
28.1143
 30
0.0
 10
126.7788
 20
24.6295
 30
0.0
  0
SPLINE
  5
70
330
1F
100
AcDbEntity
  8
layer 1
370
    30
100
AcDbSpline
210
0.0
220
0.0
230
1.0
 70
    11
 71
     3
 72
    16
 73
    12
 74
     0
 42
0.0000000001
 43
0.0000000001
 12
1.0
 22
0.0
 32
0.0
 13
1.0
 23
0.0
 33
0.0
 40
0.0
 40
0.0
 40
0.0
 40
0.0
 40
0.25
 40
0.25
 40
0.25
 40
0.25
 40
0.5
 40
0.5
 40
0.5
 40
0.5
 40
1.0
 40
1.0
 40
1.0
 40
1.0
 10
126.7788
 20
24.6295
 30
0.0
 10
123.0942
 20
26.5713
 30
0.0
 10
122.7779
 20
34.7413
 30
0.0
 10
126.2218
 20
38.3673
 30
0.0
 10
126.2218
 20
38.3673
 30
0.0
 10
127.4819
 20
36.3792
 30
0.0
 10
129.3345
 20
34.6537
 30
0.0
 10
130.7454
 20
33.3748
 30
0.0
 10
130.7454
 20
33.3748
 30
0.0
 10
126.5109
 20
32.8438
 30
0.0
 10
124.5052
 20
28.1143
 30
0.0
 10
126.7788
 20
24.6295
 30
0.0
  0
SPLINE
  5
71
330
1F
100
AcDbEntity
  8
layer 1
 62
     7
370
    30
100
AcDbSpline
210
0.0
220
0.0
230
1.0
 70
    11
 71
     3
 72
    16
 73
    12
 74
     0
 42
0.0000000001
 43
0.0000000001
 12
1.0
 22
0.0
 32
0.0
 13
1.0
 23
0.0
 33
0.0
 40
0.0
 40
0.0
 40
0.0
 40
0.0
 40
0.25
 40
0.25
 40
0.25
 40
0.25
 40
0.5
 40
0.5
 40
0.5
 40
0.5
 40
1.0
 40
1.0
 40
1.0
 40
1.0
 10
138.0986
 20
37.5719
 30
0.0
 10
137.3152
 20
39.2011
 30
0.0
 10
136.0314
 20
40.9486
 30
0.0
 10
133.5808
 20
42.8579
 30
0.0
 10
133.5808
 20
42.8579
 30
0.0
 10
134.9041
 20
43.4888
 30
0.0
 10
139.8124
 20
43.4474
 30
0.0
 10
141.6905
 20
42.5434
 30
0.0
 10
141.6905
 20
42.5434
 30
0.0
 10
139.1093
 20
42.0436
 30
0.0
 10
138.0406
 20
39.3726
 30
0.0
 10
138.0986
 20
37.5719
 30
0.0
  0
SPLINE
  5
72
330
1F
100
AcDbEntity
  8
layer 1
 62
     7
370
    30
100
AcDbSpline
210
0.0
220
0.0
230
1.0
 70
    11
 71
     3
 72
    20
 73
    16
 74
     0
 42
0.0000000001
 43
0.0000000001
 12
1.0
 22
0.0
 32
0.0
 13
1.0
 23
0.0
 33
0.0
 40
0.0
 40
0.0
 40
0.0
 40
0.0
 40
0.2
 40
0.2
 40
0.2
 40
0.2
 40
0.4
 40
0.4
 40
0.4
 40
0.4
 40
0.6
 40
0.6
 40
0.6
 40
0.6
 40
1.0
 40
1.0
 40
1.0
 40
1.0
 10
131.4568
 20
22.2595
 30
0.0
 10
133.4792
 20
21.7368
 30
0.0
 10
135.4713
 20
23.3593
 30
0.0
 10
135.7322
 20
25.3633
 30
0.0
 10
135.7322
 20
25.3633
 30
0.0
 10
132.2835
 20
24.1447
 30
0.0
 10
131.3776
 20
27.5662
 30
0.0
 10
132.9329
 20
28.996
 30
0.0
 10
132.9329
 20
28.996
 30
0.0
 10
133.8729
 20
29.8623
 30
0.0
 10
135.6499
 20
29.9414
 30
0.0
 10
137.5127
 20
28.728
 30
0.0
 10
137.5127
 20
28.728
 30
0.0
 10
141.8849
 20
25.2033
 30
0.0
 10
136.6364
 20
19.6008
 30
0.0
 10
131.4568
 20
22.2595
 30
0.0
  0
SPLINE
  5
73
330
1F
100
AcDbEntity
  8
layer 1
 62
     7
100
AcDbSpline
210
0.0
220
0.0
230
1.0
 70
    11
 71
     3
 72
    24
 73
    20
 74
     0
 42
0.0000000001
 43
0.0000000001
 12
1.0
 22
0.0
 32
0.0
 13
1.0
 23
0.0
 33
0.0
 40
0.0
 40
0.0
 40
0.0
 40
0.0
 40
0.1666666666666667
 40
0.1666666666666667
 40
0.1666666666666667
 40
0.1666666666666667
 40
0.3333333333333333
 40
0.3333333333333333
 40
0.3333333333333333
 40
0.3333333333333333
 40
0.5
 40
0.5
 40
0.5
 40
0.5
 40
0.6666666666666666
 40
0.6666666666666666
 40
0.6666666666666666
 40
0.6666666666666666
 40
1.0
 40
1.0
 40
1.0
 40
1.0
 10
145.9888
 20
29.9001
 30
0.0
 10
145.236
 20
32.9336
 30
0.0
 10
144.8269
 20
33.2772
 30
0.0
 10
143.966
 20
35.2793
 30
0.0
 10
143.966
 20
35.2793
 30
0.0
 10
142.6566
 20
39.055
 30
0.0
 10
146.3513
 20
40.2081
 30
0.0
 10
146.0267
 20
37.1539
 30
0.0
 10
146.0267
 20
37.1539
 30
0.0
 10
147.3258
 20
36.7725
 30
0.0
 10
147.3843
 20
38.5099
 30
0.0
 10
147.4341
 20
39.256
 30
0.0
 10
147.4341
 20
39.256
 30
0.0
 10
148.9827
 20
37.8812
 30
0.0
 10
151.3061
 20
33.9974
 30
0.0
 10
151.3593
 20
30.0994
 30
0.0
 10
151.3593
 20
30.0994
 30
0.0
 10
150.1495
 20
31.6274
 30
0.0
 10
146.929
 20
32.1377
 30
0.0
 10
145.9888
 20
29.9001
 30
0.0
  0
SPLINE
  5
74
330
1F
100
AcDbEntity
  8
layer 1
370
    30
100
AcDbSpline
210
0.0
220
0.0
230
1.0
 70
    11
 71
     3
 72
    24
 73
    20
 74
     0
 42
0.0000000001
 43
0.0000000001
 12
1.0
 22
0.0
 32
0.0
 13
1.0
 23
0.0
 33
0.0
 40
0.0
 40
0.0
 40
0.0
 40
0.0
 40
0.1666666666666667
 40
0.1666666666666667
 40
0.1666666666666667
 40
0.1666666666666667
 40
0.3333333333333333
 40
0.3333333333333333
 40
0.3333333333333333
 40
0.3333333333333333
 40
0.5
 40
0.5
 40
0.5
 40
0.5
 40
0.6666666666666666
 40
0.6666666666666666
 40
0.6666666666666666
 40
0.6666666666666666
 40
1.0
 40
1.0
 40
1.0
 40
1.0
 10
145.9888
 20
29.9001
 30
0.0
 10
145.236
 20
32.9336
 30
0.0
 10
144.8269
 20
33.2772
 30
0.0
 10
143.966
 20
35.2793
 30
0.0
 10
143.966
 20
35.2793
 30
0.0
 10
142.6566
 20
39.055
 30
0.0
 10
146.3513
 20
40.2081
 30
0.0
 10
146.0267
 20
37.1539
 30
0.0
 10
146.0267
 20
37.1539
 30
0.0
 10
147.3258
 20
36.7725
 30
0.0
 10
147.3843
 20
38.5099
 30
0.0
 10
147.4341
 20
39.256
 30
0.0
 10
147.4341
 20
39.256
 30
0.0
 10
148.9827
 20
37.8812
 30
0.0
 10
151.3061
 20
33.9974
 30
0.0
 10
151.3593
 20
30.0994
 30
0.0
 10
151.3593
 20
30.0994
 30
0.0
 10
150.1494
 20
31.6274
 30
0.0
 10
146.929
 20
32.1377
 30
0.0
 10
145.9888
 20
29.9001
 30
0.0
  0
SPLINE
  5
75
330
1F
100
AcDbEntity
  8
layer 1
 62
     7
370
    30
100
AcDbSpline
210
0.0
220
0.0
230
1.0
 70
    11
 71
     3
 72
    16
 73
    12
 74
     0
 42
0.0000000001
 43
0.0000000001
 12
1.0
 22
0.0
 32
0.0
 13
1.0
 23
0.0
 33
0.0
 40
0.0
 40
0.0
 40
0.0
 40
0.0
 40
0.25
 40
0.25
 40
0.25
 40
0.25
 40
0.5
 40
0.5
 40
0.5
 40
0.5
 40
1.0
 40
1.0
 40
1.0
 40
1.0
 10
141.7473
 20
28.1539
 30
0.0
 10
140.5893
 20
30.4997
 30
0.0
 10
138.9324
 20
31.78
 30
0.0
 10
137.4802
 20
32.38
 30
0.0
 10
137.4802
 20
32.38
 30
0.0
 10
135.2152
 20
33.1364
 30
0.0
 10
136.5074
 20
35.9014
 30
0.0
 10
138.8845
 20
34.1843
 30
0.0
 10
138.8845
 20
34.1843
 30
0.0
 10
141.1374
 20
32.0329
 30
0.0
 10
141.6891
 20
29.955
 30
0.0
 10
141.7473
 20
28.1539
 30
0.0
  0
SPLINE
  5
76
330
1F
100
AcDbEntity
  8
layer 1
 62
     7
370
    30
100
AcDbSpline
210
0.0
220
0.0
230
1.0
 70
    11
 71
     3
 72
    16
 73
    12
 74
     0
 42
0.0000000001
 43
0.0000000001
 12
1.0
 22
0.0
 32
0.0
 13
1.0
 23
0.0
 33
0.0
 40
0.0
 40
0.0
 40
0.0
 40
0.0
 40
0.25
 40
0.25
 40
0.25
 40
0.25
 40
0.5
 40
0.5
 40
0.5
 40
0.5
 40
1.0
 40
1.0
 40
1.0
 40
1.0
 10
138.9549
 20
47.6768
 30
0.0
 10
145.0402
 20
47.6217
 30
0.0
 10
148.0698
 20
45.1263
 30
0.0
 10
151.2062
 20
41.7356
 30
0.0
 10
151.2062
 20
41.7356
 30
0.0
 10
150.134
 20
45.4237
 30
0.0
 10
146.8463
 20
49.6842
 30
0.0
 10
140.5392
 20
54.6438
 30
0.0
 10
140.5392
 20
54.6438
 30
0.0
 10
143.1203
 20
51.8994
 30
0.0
 10
140.9465
 20
48.1047
 30
0.0
 10
138.9549
 20
47.6768
 30
0.0
  0
SPLINE
  5
77
330
1F
100
AcDbEntity
  8
layer 1
 62
     7
370
    30
100
AcDbSpline
210
0.0
220
0.0
230
1.0
 70
    11
 71
     3
 72
    24
 73
    20
 74
     0
 42
0.0000000001
 43
0.0000000001
 12
1.0
 22
0.0
 32
0.0
 13
1.0
 23
0.0
 33
0.0
 40
0.0
 40
0.0
 40
0.0
 40
0.0
 40
0.1666666666666667
 40
0.1666666666666667
 40
0.1666666666666667
 40
0.1666666666666667
 40
0.3333333333333333
 40
0.3333333333333333
 40
0.3333333333333333
 40
0.3333333333333333
 40
0.5
 40
0.5
 40
0.5
 40
0.5
 40
0.6666666666666666
 40
0.6666666666666666
 40
0.6666666666666666
 40
0.6666666666666666
 40
1.0
 40
1.0
 40
1.0
 40
1.0
 10
142.012
 20
60.0882
 30
0.0
 10
146.226
 20
56.6649
 30
0.0
 10
150.8762
 20
53.2346
 30
0.0
 10
152.9524
 20
47.0994
 30
0.0
 10
152.9524
 20
47.0994
 30
0.0
 10
153.0659
 20
50.6618
 30
0.0
 10
151.5243
 20
59.291
 30
0.0
 10
145.2172
 20
64.2487
 30
0.0
 10
145.2172
 20
64.2487
 30
0.0
 10
143.1978
 20
65.6738
 30
0.0
 10
141.1252
 20
64.833
 30
0.0
 10
141.0565
 20
63.8242
 30
0.0
 10
141.0565
 20
63.8242
 30
0.0
 10
140.8779
 20
61.1383
 30
0.0
 10
143.801
 20
62.2932
 30
0.0
 10
143.6447
 20
61.8154
 30
0.0
 10
143.6447
 20
61.8154
 30
0.0
 10
143.3816
 20
61.0182
 30
0.0
 10
143.0966
 20
60.3217
 30
0.0
 10
142.012
 20
60.0882
 30
0.0
  0
SPLINE
  5
78
330
1F
100
AcDbEntity
  8
layer 1
 62
     7
100
AcDbSpline
210
0.0
220
0.0
230
1.0
 70
    11
 71
     3
 72
    20
 73
    16
 74
     0
 42
0.0000000001
 43
0.0000000001
 12
1.0
 22
0.0
 32
0.0
 13
1.0
 23
0.0
 33
0.0
 40
0.0
 40
0.0
 40
0.0
 40
0.0
 40
0.2
 40
0.2
 40
0.2
 40
0.2
 40
0.4
 40
0.4
 40
0.4
 40
0.4
 40
0.6
 40
0.6
 40
0.6
 40
0.6
 40
1.0
 40
1.0
 40
1.0
 40
1.0
 10
134.3249
 20
50.9681
 30
0.0
 10
136.389
 20
47.9311
 30
0.0
 10
139.3997
 20
50.8663
 30
0.0
 10
137.0437
 20
53.2293
 30
0.0
 10
137.0437
 20
53.2293
 30
0.0
 10
131.6596
 20
57.3178
 30
0.0
 10
127.7599
 20
49.4057
 30
0.0
 10
129.8136
 20
46.4154
 30
0.0
 10
129.8136
 20
46.4154
 30
0.0
 10
130.6609
 20
47.0446
 30
0.0
 10
132.7815
 20
47.9019
 30
0.0
 10
136.078
 20
47.682
 30
0.0
 10
136.078
 20
47.682
 30
0.0
 10
134.3385
 20
48.524
 30
0.0
 10
133.7063
 20
50.0088
 30
0.0
 10
134.3249
 20
50.9681
 30
0.0
  0
SPLINE
  5
79
330
1F
100
AcDbEntity
  8
layer 1
370
    30
100
AcDbSpline
210
0.0
220
0.0
230
1.0
 70
    11
 71
     3
 72
    20
 73
    16
 74
     0
 42
0.0000000001
 43
0.0000000001
 12
1.0
 22
0.0
 32
0.0
 13
1.0
 23
0.0
 33
0.0
 40
0.0
 40
0.0
 40
0.0
 40
0.0
 40
0.2
 40
0.2
 40
0.2
 40
0.2
 40
0.4
 40
0.4
 40
0.4
 40
0.4
 40
0.6
 40
0.6
 40
0.6
 40
0.6
 40
1.0
 40
1.0
 40
1.0
 40
1.0
 10
134.3249
 20
50.9681
 30
0.0
 10
136.389
 20
47.9311
 30
0.0
 10
139.3997
 20
50.8663
 30
0.0
 10
137.0437
 20
53.2293
 30
0.0
 10
137.0437
 20
53.2293
 30
0.0
 10
131.6596
 20
57.3178
 30
0.0
 10
127.7599
 20
49.4057
 30
0.0
 10
129.8136
 20
46.4154
 30
0.0
 10
129.8136
 20
46.4154
 30
0.0
 10
130.6609
 20
47.0446
 30
0.0
 10
132.7815
 20
47.9019
 30
0.0
 10
136.078
 20
47.682
 30
0.0
 10
136.078
 20
47.682
 30
0.0
 10
134.339
 20
48.524
 30
0.0
 10
133.7063
 20
50.0088
 30
0.0
 10
134.3249
 20
50.9681
 30
0.0
  0
SPLINE
  5
7A
330
1F
100
AcDbEntity
  8
layer 1
 62
     7
370
    30
100
AcDbSpline
210
0.0
220
0.0
230
1.0
 70
    11
 71
     3
 72
    24
 73
    20
 74
     0
 42
0.0000000001
 43
0.0000000001
 12
1.0
 22
0.0
 32
0.0
 13
1.0
 23
0.0
 33
0.0
 40
0.0
 40
0.0
 40
0.0
 40
0.0
 40
0.1666666666666667
 40
0.1666666666666667
 40
0.1666666666666667
 40
0.1666666666666667
 40
0.3333333333333333
 40
0.3333333333333333
 40
0.3333333333333333
 40
0.3333333333333333
 40
0.5
 40
0.5
 40
0.5
 40
0.5
 40
0.6666666666666666
 40
0.6666666666666666
 40
0.6666666666666666
 40
0.6666666666666666
 40
1.0
 40
1.0
 40
1.0
 40
1.0
 10
137.518
 20
56.9417
 30
0.0
 10
127.7599
 20
60.5867
 30
0.0
 10
122.3313
 20
48.4932
 30
0.0
 10
124.9794
 20
43.3665
 30
0.0
 10
124.9794
 20
43.3665
 30
0.0
 10
123.5993
 20
42.2512
 30
0.0
 10
122.3604
 20
41.0158
 30
0.0
 10
121.4101
 20
39.1716
 30
0.0
 10
121.4101
 20
39.1716
 30
0.0
 10
121.4101
 20
39.1716
 30
0.0
 10
121.6005
 20
57.354
 30
0.0
 10
121.6005
 20
57.354
 30
0.0
 10
121.6005
 20
57.354
 30
0.0
 10
121.8258
 20
55.5532
 30
0.0
 10
124.3485
 20
54.2021
 30
0.0
 10
126.2803
 20
55.0819
 30
0.0
 10
126.2803
 20
55.0819
 30
0.0
 10
123.0202
 20
61.8893
 30
0.0
 10
133.8316
 20
60.1277
 30
0.0
 10
137.518
 20
56.9417
 30
0.0
  0
SPLINE
  5
7B
330
1F
100
AcDbEntity
  8
layer 1
 62
     7
370
    30
100
AcDbSpline
210
0.0
220
0.0
230
1.0
 70
    11
 71
     3
 72
    24
 73
    20
 74
     0
 42
0.0000000001
 43
0.0000000001
 12
1.0
 22
0.0
 32
0.0
 13
1.0
 23
0.0
 33
0.0
 40
0.0
 40
0.0
 40
0.0
 40
0.0
 40
0.1666666666666667
 40
0.1666666666666667
 40
0.1666666666666667
 40
0.1666666666666667
 40
0.3333333333333333
 40
0.3333333333333333
 40
0.3333333333333333
 40
0.3333333333333333
 40
0.5
 40
0.5
 40
0.5
 40
0.5
 40
0.6666666666666666
 40
0.6666666666666666
 40
0.6666666666666666
 40
0.6666666666666666
 40
1.0
 40
1.0
 40
1.0
 40
1.0
 10
126.4778
 20
68.2946
 30
0.0
 10
125.3283
 20
68.5076
 30
0.0
 10
121.5438
 20
65.895
 30
0.0
 10
124.2935
 20
62.7639
 30
0.0
 10
124.2935
 20
62.7639
 30
0.0
 10
123.1012
 20
63.0838
 30
0.0
 10
122.173
 20
62.8466
 30
0.0
 10
121.4101
 20
61.4375
 30
0.0
 10
121.4101
 20
61.4375
 30
0.0
 10
121.4101
 20
61.4375
 30
0.0
 10
121.6005
 20
82.8644
 30
0.0
 10
121.6005
 20
82.8644
 30
0.0
 10
121.6005
 20
82.8644
 30
0.0
 10
123.572
 20
74.7632
 30
0.0
 10
127.7155
 20
67.3012
 30
0.0
 10
132.8914
 20
62.379
 30
0.0
 10
132.8914
 20
62.379
 30
0.0
 10
127.6363
 20
62.3878
 30
0.0
 10
125.5364
 20
66.4278
 30
0.0
 10
126.4778
 20
68.2946
 30
0.0
  0
SPLINE
  5
7C
330
1F
100
AcDbEntity
  8
layer 1
 62
     7
100
AcDbSpline
210
0.0
220
0.0
230
1.0
 70
    11
 71
     3
 72
    24
 73
    20
 74
     0
 42
0.0000000001
 43
0.0000000001
 12
1.0
 22
0.0
 32
0.0
 13
1.0
 23
0.0
 33
0.0
 40
0.0
 40
0.0
 40
0.0
 40
0.0
 40
0.1666666666666667
 40
0.1666666666666667
 40
0.1666666666666667
 40
0.1666666666666667
 40
0.3333333333333333
 40
0.3333333333333333
 40
0.3333333333333333
 40
0.3333333333333333
 40
0.5
 40
0.5
 40
0.5
 40
0.5
 40
0.6666666666666666
 40
0.6666666666666666
 40
0.6666666666666666
 40
0.6666666666666666
 40
1.0
 40
1.0
 40
1.0
 40
1.0
 10
126.7889
 20
113.8875
 30
0.0
 10
133.5619
 20
116.3469
 30
0.0
 10
132.7714
 20
107.9965
 30
0.0
 10
128.5351
 20
103.7432
 30
0.0
 10
128.5351
 20
103.7432
 30
0.0
 10
125.2835
 20
99.634
 30
0.0
 10
122.484
 20
95.6538
 30
0.0
 10
121.4101
 20
91.502
 30
0.0
 10
121.4101
 20
91.502
 30
0.0
 10
121.4101
 20
91.502
 30
0.0
 10
121.5372
 20
118.1669
 30
0.0
 10
121.5372
 20
118.1669
 30
0.0
 10
121.5372
 20
118.1669
 30
0.0
 10
121.5372
 20
118.1669
 30
0.0
 10
129.7726
 20
118.0776
 30
0.0
 10
129.7726
 20
118.0776
 30
0.0
 10
129.7726
 20
118.0776
 30
0.0
 10
127.4488
 20
117.4005
 30
0.0
 10
126.7841
 20
116.0754
 30
0.0
 10
126.7889
 20
113.8875
 30
0.0
  0
SPLINE
  5
7D
330
1F
100
AcDbEntity
  8
layer 1
370
    30
100
AcDbSpline
210
0.0
220
0.0
230
1.0
 70
    11
 71
     3
 72
    24
 73
    20
 74
     0
 42
0.0000000001
 43
0.0000000001
 12
1.0
 22
0.0
 32
0.0
 13
1.0
 23
0.0
 33
0.0
 40
0.0
 40
0.0
 40
0.0
 40
0.0
 40
0.1666666666666667
 40
0.1666666666666667
 40
0.1666666666666667
 40
0.1666666666666667
 40
0.3333333333333333
 40
0.3333333333333333
 40
0.3333333333333333
 40
0.3333333333333333
 40
0.5
 40
0.5
 40
0.5
 40
0.5
 40
0.6666666666666666
 40
0.6666666666666666
 40
0.6666666666666666
 40
0.6666666666666666
 40
1.0
 40
1.0
 40
1.0
 40
1.0
 10
126.7889
 20
113.8875
 30
0.0
 10
133.5619
 20
116.3469
 30
0.0
 10
132.7714
 20
107.9965
 30
0.0
 10
128.5351
 20
103.7432
 30
0.0
 10
128.5351
 20
103.7432
 30
0.0
 10
125.2834
 20
99.634
 30
0.0
 10
122.484
 20
95.6538
 30
0.0
 10
121.4101
 20
91.502
 30
0.0
 10
121.4101
 20
91.502
 30
0.0
 10
121.4101
 20
91.502
 30
0.0
 10
121.5372
 20
118.1669
 30
0.0
 10
121.5372
 20
118.1669
 30
0.0
 10
121.5372
 20
118.1669
 30
0.0
 10
121.5372
 20
118.1669
 30
0.0
 10
129.7726
 20
118.0776
 30
0.0
 10
129.7726
 20
118.0776
 30
0.0
 10
129.7726
 20
118.0776
 30
0.0
 10
127.4488
 20
117.4005
 30
0.0
 10
126.7841
 20
116.0754
 30
0.0
 10
126.7889
 20
113.8875
 30
0.0
  0
SPLINE
  5
7E
330
1F
100
AcDbEntity
  8
layer 1
 62
     7
100
AcDbSpline
210
0.0
220
0.0
230
1.0
 70
    11
 71
     3
 72
    48
 73
    44
 74
     0
 42
0.0000000001
 43
0.0000000001
 12
1.0
 22
0.0
 32
0.0
 13
1.0
 23
0.0
 33
0.0
 40
0.0
 40
0.0
 40
0.0
 40
0.0
 40
0.0833333333333333
 40
0.0833333333333333
 40
0.0833333333333333
 40
0.0833333333333333
 40
0.1666666666666667
 40
0.1666666666666667
 40
0.1666666666666667
 40
0.1666666666666667
 40
0.25
 40
0.25
 40
0.25
 40
0.25
 40
0.3333333333333333
 40
0.3333333333333333
 40
0.3333333333333333
 40
0.3333333333333333
 40
0.4166666666666667
 40
0.4166666666666667
 40
0.4166666666666667
 40
0.4166666666666667
 40
0.5
 40
0.5
 40
0.5
 40
0.5
 40
0.5833333333333334
 40
0.5833333333333334
 40
0.5833333333333334
 40
0.5833333333333334
 40
0.6666666666666666
 40
0.6666666666666666
 40
0.6666666666666666
 40
0.6666666666666666
 40
0.75
 40
0.75
 40
0.75
 40
0.75
 40
0.8333333333333334
 40
0.8333333333333334
 40
0.8333333333333334
 40
0.8333333333333334
 40
1.0
 40
1.0
 40
1.0
 40
1.0
 10
141.3196
 20
111.5575
 30
0.0
 10
141.5325
 20
112.7072
 30
0.0
 10
138.9839
 20
117.0516
 30
0.0
 10
135.8528
 20
114.302
 30
0.0
 10
135.8528
 20
114.302
 30
0.0
 10
136.1722
 20
115.4948
 30
0.0
 10
135.4969
 20
117.2953
 30
0.0
 10
134.0895
 20
118.0587
 30
0.0
 10
134.0895
 20
118.0587
 30
0.0
 10
134.0895
 20
118.0587
 30
0.0
 10
155.0782
 20
118.119
 30
0.0
 10
155.0782
 20
118.119
 30
0.0
 10
155.0782
 20
118.119
 30
0.0
 10
154.7003
 20
118.0261
 30
0.0
 10
153.4059
 20
116.7046
 30
0.0
 10
152.8217
 20
114.7916
 30
0.0
 10
152.8217
 20
114.7916
 30
0.0
 10
152.6171
 20
114.1233
 30
0.0
 10
153.3664
 20
112.47
 30
0.0
 10
153.7737
 20
111.7894
 30
0.0
 10
153.7737
 20
111.7894
 30
0.0
 10
154.3012
 20
110.9043
 30
0.0
 10
154.8256
 20
108.569
 30
0.0
 10
153.2994
 20
108.2284
 30
0.0
 10
153.2994
 20
108.2284
 30
0.0
 10
152.1617
 20
107.976
 30
0.0
 10
150.9141
 20
109.4554
 30
0.0
 10
152.4798
 20
110.8457
 30
0.0
 10
152.4798
 20
110.8457
 30
0.0
 10
149.9123
 20
113.2672
 30
0.0
 10
144.9628
 20
112.159
 30
0.0
 10
143.3527
 20
109.5619
 30
0.0
 10
143.3527
 20
109.5619
 30
0.0
 10
150.4741
 20
110.1568
 30
0.0
 10
153.9612
 20
105.0304
 30
0.0
 10
153.6123
 20
102.3578
 30
0.0
 10
153.6123
 20
102.3578
 30
0.0
 10
149.6219
 20
107.8554
 30
0.0
 10
138.427
 20
108.9019
 30
0.0
 10
134.0327
 20
106.0784
 30
0.0
 10
134.0327
 20
106.0784
 30
0.0
 10
136.9112
 20
113.5167
 30
0.0
 10
139.453
 20
112.4991
 30
0.0
 10
141.3196
 20
111.5575
 30
0.0
  0
SPLINE
  5
7F
330
1F
100
AcDbEntity
  8
layer 1
370
    30
100
AcDbSpline
210
0.0
220
0.0
230
1.0
 70
    11
 71
     3
 72
    48
 73
    44
 74
     0
 42
0.0000000001
 43
0.0000000001
 12
1.0
 22
0.0
 32
0.0
 13
1.0
 23
0.0
 33
0.0
 40
0.0
 40
0.0
 40
0.0
 40
0.0
 40
0.0833333333333333
 40
0.0833333333333333
 40
0.0833333333333333
 40
0.0833333333333333
 40
0.1666666666666667
 40
0.1666666666666667
 40
0.1666666666666667
 40
0.1666666666666667
 40
0.25
 40
0.25
 40
0.25
 40
0.25
 40
0.3333333333333333
 40
0.3333333333333333
 40
0.3333333333333333
 40
0.3333333333333333
 40
0.4166666666666667
 40
0.4166666666666667
 40
0.4166666666666667
 40
0.4166666666666667
 40
0.5
 40
0.5
 40
0.5
 40
0.5
 40
0.5833333333333334
 40
0.5833333333333334
 40
0.5833333333333334
 40
0.5833333333333334
 40
0.6666666666666666
 40
0.6666666666666666
 40
0.6666666666666666
 40
0.6666666666666666
 40
0.75
 40
0.75
 40
0.75
 40
0.75
 40
0.8333333333333334
 40
0.8333333333333334
 40
0.8333333333333334
 40
0.8333333333333334
 40
1.0
 40
1.0
 40
1.0
 40
1.0
 10
141.3196
 20
111.5575
 30
0.0
 10
141.5325
 20
112.7072
 30
0.0
 10
138.9839
 20
117.0516
 30
0.0
 10
135.8528
 20
114.302
 30
0.0
 10
135.8528
 20
114.302
 30
0.0
 10
136.1721
 20
115.4948
 30
0.0
 10
135.4969
 20
117.2953
 30
0.0
 10
134.0895
 20
118.0587
 30
0.0
 10
134.0895
 20
118.0587
 30
0.0
 10
134.0895
 20
118.0587
 30
0.0
 10
155.0782
 20
118.119
 30
0.0
 10
155.0782
 20
118.119
 30
0.0
 10
155.0782
 20
118.119
 30
0.0
 10
154.7003
 20
118.0261
 30
0.0
 10
153.4059
 20
116.7046
 30
0.0
 10
152.8217
 20
114.7916
 30
0.0
 10
152.8217
 20
114.7916
 30
0.0
 10
152.6171
 20
114.1233
 30
0.0
 10
153.3668
 20
112.47
 30
0.0
 10
153.7737
 20
111.7894
 30
0.0
 10
153.7737
 20
111.7894
 30
0.0
 10
154.3016
 20
110.9043
 30
0.0
 10
154.8256
 20
108.569
 30
0.0
 10
153.2994
 20
108.2284
 30
0.0
 10
153.2994
 20
108.2284
 30
0.0
 10
152.1617
 20
107.976
 30
0.0
 10
150.9141
 20
109.4554
 30
0.0
 10
152.4798
 20
110.8457
 30
0.0
 10
152.4798
 20
110.8457
 30
0.0
 10
149.9123
 20
113.2672
 30
0.0
 10
144.9628
 20
112.159
 30
0.0
 10
143.3527
 20
109.5619
 30
0.0
 10
143.3527
 20
109.5619
 30
0.0
 10
150.4741
 20
110.1568
 30
0.0
 10
153.9612
 20
105.0304
 30
0.0
 10
153.6123
 20
102.3578
 30
0.0
 10
153.6123
 20
102.3578
 30
0.0
 10
149.6219
 20
107.8554
 30
0.0
 10
138.427
 20
108.9019
 30
0.0
 10
134.0327
 20
106.0784
 30
0.0
 10
134.0327
 20
106.0784
 30
0.0
 10
136.9112
 20
113.5167
 30
0.0
 10
139.4533
 20
112.4991
 30
0.0
 10
141.3196
 20
111.5575
 30
0.0
  0
SPLINE
  5
80
330
1F
100
AcDbEntity
  8
layer 1
 62
     7
100
AcDbSpline
210
0.0
220
0.0
230
1.0
 70
    11
 71
     3
 72
    52
 73
    48
 74
     0
 42
0.0000000001
 43
0.0000000001
 12
1.0
 22
0.0
 32
0.0
 13
1.0
 23
0.0
 33
0.0
 40
0.0
 40
0.0
 40
0.0
 40
0.0
 40
0.0769230769230769
 40
0.0769230769230769
 40
0.0769230769230769
 40
0.0769230769230769
 40
0.1538461538461539
 40
0.1538461538461539
 40
0.1538461538461539
 40
0.1538461538461539
 40
0.2307692307692308
 40
0.2307692307692308
 40
0.2307692307692308
 40
0.2307692307692308
 40
0.3076923076923077
 40
0.3076923076923077
 40
0.3076923076923077
 40
0.3076923076923077
 40
0.3846153846153846
 40
0.3846153846153846
 40
0.3846153846153846
 40
0.3846153846153846
 40
0.4615384615384616
 40
0.4615384615384616
 40
0.4615384615384616
 40
0.4615384615384616
 40
0.5384615384615384
 40
0.5384615384615384
 40
0.5384615384615384
 40
0.5384615384615384
 40
0.6153846153846154
 40
0.6153846153846154
 40
0.6153846153846154
 40
0.6153846153846154
 40
0.6923076923076923
 40
0.6923076923076923
 40
0.6923076923076923
 40
0.6923076923076923
 40
0.7692307692307693
 40
0.7692307692307693
 40
0.7692307692307693
 40
0.7692307692307693
 40
0.8461538461538461
 40
0.8461538461538461
 40
0.8461538461538461
 40
0.8461538461538461
 40
1.0
 40
1.0
 40
1.0
 40
1.0
 10
147.8467
 20
87.1901
 30
0.0
 10
153.4472
 20
89.4618
 30
0.0
 10
151.6084
 20
96.4153
 30
0.0
 10
147.24
 20
98.0115
 30
0.0
 10
147.24
 20
98.0115
 30
0.0
 10
138.6609
 20
101.1462
 30
0.0
 10
135.2703
 20
92.227
 30
0.0
 10
136.0916
 20
88.2983
 30
0.0
 10
136.0916
 20
88.2983
 30
0.0
 10
135.1309
 20
89.1456
 30
0.0
 10
131.7164
 20
88.838
 30
0.0
 10
131.0252
 20
85.4249
 30
0.0
 10
131.0252
 20
85.4249
 30
0.0
 10
129.5917
 20
86.6005
 30
0.0
 10
129.3138
 20
88.967
 30
0.0
 10
128.958
 20
89.9432
 30
0.0
 10
128.958
 20
89.9432
 30
0.0
 10
127.7978
 20
88.5938
 30
0.0
 10
127.169
 20
86.8654
 30
0.0
 10
126.4714
 20
84.8614
 30
0.0
 10
126.4714
 20
84.8614
 30
0.0
 10
126.7238
 20
89.7025
 30
0.0
 10
126.4695
 20
94.0298
 30
0.0
 10
131.3793
 20
99.2987
 30
0.0
 10
131.3793
 20
99.2987
 30
0.0
 10
135.3252
 20
102.9077
 30
0.0
 10
141.5053
 20
105.642
 30
0.0
 10
148.3328
 20
101.88
 30
0.0
 10
148.3328
 20
101.88
 30
0.0
 10
153.8098
 20
98.8606
 30
0.0
 10
156.9154
 20
88.245
 30
0.0
 10
148.6061
 20
84.5674
 30
0.0
 10
148.6061
 20
84.5674
 30
0.0
 10
145.1071
 20
83.7922
 30
0.0
 10
140.3192
 20
85.4231
 30
0.0
 10
140.8058
 20
90.6871
 30
0.0
 10
140.8058
 20
90.6871
 30
0.0
 10
141.9056
 20
93.6793
 30
0.0
 10
144.0588
 20
93.2411
 30
0.0
 10
144.621
 20
92.4008
 30
0.0
 10
144.621
 20
92.4008
 30
0.0
 10
146.1195
 20
90.1632
 30
0.0
 10
143.4503
 20
89.4601
 30
0.0
 10
143.6343
 20
88.9924
 30
0.0
 10
143.6343
 20
88.9924
 30
0.0
 10
144.3218
 20
87.2485
 30
0.0
 10
146.7896
 20
86.8495
 30
0.0
 10
147.8467
 20
87.1901
 30
0.0
  0
SPLINE
  5
81
330
1F
100
AcDbEntity
  8
layer 1
370
    30
100
AcDbSpline
210
0.0
220
0.0
230
1.0
 70
    11
 71
     3
 72
    52
 73
    48
 74
     0
 42
0.0000000001
 43
0.0000000001
 12
1.0
 22
0.0
 32
0.0
 13
1.0
 23
0.0
 33
0.0
 40
0.0
 40
0.0
 40
0.0
 40
0.0
 40
0.0769230769230769
 40
0.0769230769230769
 40
0.0769230769230769
 40
0.0769230769230769
 40
0.1538461538461539
 40
0.1538461538461539
 40
0.1538461538461539
 40
0.1538461538461539
 40
0.2307692307692308
 40
0.2307692307692308
 40
0.2307692307692308
 40
0.2307692307692308
 40
0.3076923076923077
 40
0.3076923076923077
 40
0.3076923076923077
 40
0.3076923076923077
 40
0.3846153846153846
 40
0.3846153846153846
 40
0.3846153846153846
 40
0.3846153846153846
 40
0.4615384615384616
 40
0.4615384615384616
 40
0.4615384615384616
 40
0.4615384615384616
 40
0.5384615384615384
 40
0.5384615384615384
 40
0.5384615384615384
 40
0.5384615384615384
 40
0.6153846153846154
 40
0.6153846153846154
 40
0.6153846153846154
 40
0.6153846153846154
 40
0.6923076923076923
 40
0.6923076923076923
 40
0.6923076923076923
 40
0.6923076923076923
 40
0.7692307692307693
 40
0.7692307692307693
 40
0.7692307692307693
 40
0.7692307692307693
 40
0.8461538461538461
 40
0.8461538461538461
 40
0.8461538461538461
 40
0.8461538461538461
 40
1.0
 40
1.0
 40
1.0
 40
1.0
 10
147.8467
 20
87.1901
 30
0.0
 10
153.4472
 20
89.4618
 30
0.0
 10
151.6084
 20
96.4153
 30
0.0
 10
147.24
 20
98.0115
 30
0.0
 10
147.24
 20
98.0115
 30
0.0
 10
138.6609
 20
101.1462
 30
0.0
 10
135.2703
 20
92.227
 30
0.0
 10
136.0916
 20
88.2983
 30
0.0
 10
136.0916
 20
88.2983
 30
0.0
 10
135.1309
 20
89.1456
 30
0.0
 10
131.7164
 20
88.838
 30
0.0
 10
131.0252
 20
85.4249
 30
0.0
 10
131.0252
 20
85.4249
 30
0.0
 10
129.5917
 20
86.6005
 30
0.0
 10
129.3138
 20
88.967
 30
0.0
 10
128.958
 20
89.9432
 30
0.0
 10
128.958
 20
89.9432
 30
0.0
 10
127.7978
 20
88.5938
 30
0.0
 10
127.1691
 20
86.8654
 30
0.0
 10
126.4712
 20
84.8614
 30
0.0
 10
126.4712
 20
84.8614
 30
0.0
 10
126.7238
 20
89.7025
 30
0.0
 10
126.4695
 20
94.0298
 30
0.0
 10
131.3793
 20
99.2987
 30
0.0
 10
131.3793
 20
99.2987
 30
0.0
 10
135.3252
 20
102.9077
 30
0.0
 10
141.5053
 20
105.642
 30
0.0
 10
148.3328
 20
101.88
 30
0.0
 10
148.3328
 20
101.88
 30
0.0
 10
153.8098
 20
98.8606
 30
0.0
 10
156.9154
 20
88.245
 30
0.0
 10
148.6061
 20
84.5674
 30
0.0
 10
148.6061
 20
84.5674
 30
0.0
 10
145.1071
 20
83.7922
 30
0.0
 10
140.3192
 20
85.4231
 30
0.0
 10
140.8057
 20
90.6871
 30
0.0
 10
140.8057
 20
90.6871
 30
0.0
 10
141.9056
 20
93.6793
 30
0.0
 10
144.0588
 20
93.2411
 30
0.0
 10
144.621
 20
92.4008
 30
0.0
 10
144.621
 20
92.4008
 30
0.0
 10
146.1195
 20
90.1632
 30
0.0
 10
143.4503
 20
89.4601
 30
0.0
 10
143.6343
 20
88.9924
 30
0.0
 10
143.6343
 20
88.9924
 30
0.0
 10
144.3218
 20
87.2485
 30
0.0
 10
146.7896
 20
86.8495
 30
0.0
 10
147.8467
 20
87.1901
 30
0.0
  0
SPLINE
  5
82
330
1F
100
AcDbEntity
  8
layer 1
 62
     7
100
AcDbSpline
210
0.0
220
0.0
230
1.0
 70
    11
 71
     3
 72
    92
 73
    88
 74
     0
 42
0.0000000001
 43
0.0000000001
 12
1.0
 22
0.0
 32
0.0
 13
1.0
 23
0.0
 33
0.0
 40
0.0
 40
0.0
 40
0.0
 40
0.0
 40
0.0434782608695652
 40
0.0434782608695652
 40
0.0434782608695652
 40
0.0434782608695652
 40
0.0869565217391304
 40
0.0869565217391304
 40
0.0869565217391304
 40
0.0869565217391304
 40
0.1304347826086956
 40
0.1304347826086956
 40
0.1304347826086956
 40
0.1304347826086956
 40
0.1739130434782609
 40
0.1739130434782609
 40
0.1739130434782609
 40
0.1739130434782609
 40
0.2173913043478261
 40
0.2173913043478261
 40
0.2173913043478261
 40
0.2173913043478261
 40
0.2608695652173913
 40
0.2608695652173913
 40
0.2608695652173913
 40
0.2608695652173913
 40
0.3043478260869565
 40
0.3043478260869565
 40
0.3043478260869565
 40
0.3043478260869565
 40
0.3478260869565217
 40
0.3478260869565217
 40
0.3478260869565217
 40
0.3478260869565217
 40
0.391304347826087
 40
0.391304347826087
 40
0.391304347826087
 40
0.391304347826087
 40
0.4347826086956522
 40
0.4347826086956522
 40
0.4347826086956522
 40
0.4347826086956522
 40
0.4782608695652174
 40
0.4782608695652174
 40
0.4782608695652174
 40
0.4782608695652174
 40
0.5217391304347826
 40
0.5217391304347826
 40
0.5217391304347826
 40
0.5217391304347826
 40
0.5652173913043478
 40
0.5652173913043478
 40
0.5652173913043478
 40
0.5652173913043478
 40
0.6086956521739131
 40
0.6086956521739131
 40
0.6086956521739131
 40
0.6086956521739131
 40
0.6521739130434783
 40
0.6521739130434783
 40
0.6521739130434783
 40
0.6521739130434783
 40
0.6956521739130435
 40
0.6956521739130435
 40
0.6956521739130435
 40
0.6956521739130435
 40
0.7391304347826086
 40
0.7391304347826086
 40
0.7391304347826086
 40
0.7391304347826086
 40
0.782608695652174
 40
0.782608695652174
 40
0.782608695652174
 40
0.782608695652174
 40
0.8260869565217391
 40
0.8260869565217391
 40
0.8260869565217391
 40
0.8260869565217391
 40
0.8695652173913043
 40
0.8695652173913043
 40
0.8695652173913043
 40
0.8695652173913043
 40
0.9130434782608695
 40
0.9130434782608695
 40
0.9130434782608695
 40
0.9130434782608695
 40
1.0
 40
1.0
 40
1.0
 40
1.0
 10
139.7279
 20
82.835
 30
0.0
 10
139.8467
 20
81.0343
 30
0.0
 10
137.8497
 20
79.5251
 30
0.0
 10
137.0367
 20
79.9154
 30
0.0
 10
137.0367
 20
79.9154
 30
0.0
 10
138.0011
 20
85.0796
 30
0.0
 10
132.7525
 20
84.4557
 30
0.0
 10
131.5598
 20
79.4204
 30
0.0
 10
131.5598
 20
79.4204
 30
0.0
 10
130.7952
 20
74.6977
 30
0.0
 10
133.4177
 20
68.8563
 30
0.0
 10
137.9337
 20
63.8933
 30
0.0
 10
137.9337
 20
63.8933
 30
0.0
 10
138.2742
 20
65.947
 30
0.0
 10
139.5616
 20
67.1362
 30
0.0
 10
140.9756
 20
67.2013
 30
0.0
 10
140.9756
 20
67.2013
 30
0.0
 10
139.0064
 20
68.1244
 30
0.0
 10
139.2229
 20
72.039
 30
0.0
 10
136.1036
 20
74.2061
 30
0.0
 10
136.1036
 20
74.2061
 30
0.0
 10
137.3205
 20
74.9176
 30
0.0
 10
143.6465
 20
75.801
 30
0.0
 10
145.9219
 20
70.3738
 30
0.0
 10
145.9219
 20
70.3738
 30
0.0
 10
147.9207
 20
72.6131
 30
0.0
 10
150.9813
 20
70.5731
 30
0.0
 10
152.2806
 20
64.2576
 30
0.0
 10
152.2806
 20
64.2576
 30
0.0
 10
154.4733
 20
65.4864
 30
0.0
 10
151.746
 20
77.3887
 30
0.0
 10
147.013
 20
72.5427
 30
0.0
 10
147.013
 20
72.5427
 30
0.0
 10
142.7442
 20
74.9348
 30
0.0
 10
147.5251
 20
82.1512
 30
0.0
 10
152.8648
 20
76.4301
 30
0.0
 10
152.8648
 20
76.4301
 30
0.0
 10
152.7755
 20
80.4293
 30
0.0
 10
154.6814
 20
79.9924
 30
0.0
 10
155.7535
 20
83.2748
 30
0.0
 10
155.7535
 20
83.2748
 30
0.0
 10
156.8261
 20
79.9924
 30
0.0
 10
158.7337
 20
80.4293
 30
0.0
 10
158.6444
 20
76.4301
 30
0.0
 10
158.6444
 20
76.4301
 30
0.0
 10
163.9836
 20
82.1513
 30
0.0
 10
168.7633
 20
74.9347
 30
0.0
 10
164.4958
 20
72.5427
 30
0.0
 10
164.4958
 20
72.5427
 30
0.0
 10
159.7633
 20
77.3889
 30
0.0
 10
157.0338
 20
65.4864
 30
0.0
 10
159.2269
 20
64.2576
 30
0.0
 10
159.2269
 20
64.2576
 30
0.0
 10
160.5279
 20
70.5731
 30
0.0
 10
163.5868
 20
72.6131
 30
0.0
 10
165.5855
 20
70.3738
 30
0.0
 10
165.5855
 20
70.3738
 30
0.0
 10
167.8627
 20
75.801
 30
0.0
 10
174.1871
 20
74.9176
 30
0.0
 10
175.4052
 20
74.2061
 30
0.0
 10
175.4052
 20
74.2061
 30
0.0
 10
172.2842
 20
72.039
 30
0.0
 10
172.5011
 20
68.1242
 30
0.0
 10
170.5314
 20
67.2013
 30
0.0
 10
170.5314
 20
67.2013
 30
0.0
 10
171.9476
 20
67.1362
 30
0.0
 10
173.2332
 20
65.9469
 30
0.0
 10
173.5751
 20
63.8933
 30
0.0
 10
173.5751
 20
63.8933
 30
0.0
 10
178.0915
 20
68.8563
 30
0.0
 10
180.7142
 20
74.6976
 30
0.0
 10
179.9491
 20
79.4204
 30
0.0
 10
179.9491
 20
79.4204
 30
0.0
 10
178.755
 20
84.4558
 30
0.0
 10
173.5064
 20
85.0795
 30
0.0
 10
174.4722
 20
79.9154
 30
0.0
 10
174.4722
 20
79.9154
 30
0.0
 10
173.659
 20
79.5253
 30
0.0
 10
171.6608
 20
81.0341
 30
0.0
 10
171.7792
 20
82.835
 30
0.0
 10
171.7792
 20
82.835
 30
0.0
 10
166.4086
 20
77.0039
 30
0.0
 10
157.8196
 20
80.1644
 30
0.0
 10
155.7535
 20
86.2687
 30
0.0
 10
155.7535
 20
86.2687
 30
0.0
 10
153.6897
 20
80.1645
 30
0.0
 10
145.1001
 20
77.0038
 30
0.0
 10
139.7279
 20
82.835
 30
0.0
  0
SPLINE
  5
83
330
1F
100
AcDbEntity
  8
layer 1
370
    30
100
AcDbSpline
210
0.0
220
0.0
230
1.0
 70
    11
 71
     3
 72
    92
 73
    88
 74
     0
 42
0.0000000001
 43
0.0000000001
 12
1.0
 22
0.0
 32
0.0
 13
1.0
 23
0.0
 33
0.0
 40
0.0
 40
0.0
 40
0.0
 40
0.0
 40
0.0434782608695652
 40
0.0434782608695652
 40
0.0434782608695652
 40
0.0434782608695652
 40
0.0869565217391304
 40
0.0869565217391304
 40
0.0869565217391304
 40
0.0869565217391304
 40
0.1304347826086956
 40
0.1304347826086956
 40
0.1304347826086956
 40
0.1304347826086956
 40
0.1739130434782609
 40
0.1739130434782609
 40
0.1739130434782609
 40
0.1739130434782609
 40
0.2173913043478261
 40
0.2173913043478261
 40
0.2173913043478261
 40
0.2173913043478261
 40
0.2608695652173913
 40
0.2608695652173913
 40
0.2608695652173913
 40
0.2608695652173913
 40
0.3043478260869565
 40
0.3043478260869565
 40
0.3043478260869565
 40
0.3043478260869565
 40
0.3478260869565217
 40
0.3478260869565217
 40
0.3478260869565217
 40
0.3478260869565217
 40
0.391304347826087
 40
0.391304347826087
 40
0.391304347826087
 40
0.391304347826087
 40
0.4347826086956522
 40
0.4347826086956522
 40
0.4347826086956522
 40
0.4347826086956522
 40
0.4782608695652174
 40
0.4782608695652174
 40
0.4782608695652174
 40
0.4782608695652174
 40
0.5217391304347826
 40
0.5217391304347826
 40
0.5217391304347826
 40
0.5217391304347826
 40
0.5652173913043478
 40
0.5652173913043478
 40
0.5652173913043478
 40
0.5652173913043478
 40
0.6086956521739131
 40
0.6086956521739131
 40
0.6086956521739131
 40
0.6086956521739131
 40
0.6521739130434783
 40
0.6521739130434783
 40
0.6521739130434783
 40
0.6521739130434783
 40
0.6956521739130435
 40
0.6956521739130435
 40
0.6956521739130435
 40
0.6956521739130435
 40
0.7391304347826086
 40
0.7391304347826086
 40
0.7391304347826086
 40
0.7391304347826086
 40
0.782608695652174
 40
0.782608695652174
 40
0.782608695652174
 40
0.782608695652174
 40
0.8260869565217391
 40
0.8260869565217391
 40
0.8260869565217391
 40
0.8260869565217391
 40
0.8695652173913043
 40
0.8695652173913043
 40
0.8695652173913043
 40
0.8695652173913043
 40
0.9130434782608695
 40
0.9130434782608695
 40
0.9130434782608695
 40
0.9130434782608695
 40
1.0
 40
1.0
 40
1.0
 40
1.0
 10
139.7283
 20
82.835
 30
0.0
 10
139.8467
 20
81.0343
 30
0.0
 10
137.8497
 20
79.5251
 30
0.0
 10
137.0367
 20
79.9154
 30
0.0
 10
137.0367
 20
79.9154
 30
0.0
 10
138.0011
 20
85.0796
 30
0.0
 10
132.7525
 20
84.4557
 30
0.0
 10
131.5598
 20
79.4204
 30
0.0
 10
131.5598
 20
79.4204
 30
0.0
 10
130.7951
 20
74.6977
 30
0.0
 10
133.4177
 20
68.8563
 30
0.0
 10
137.9337
 20
63.8933
 30
0.0
 10
137.9337
 20
63.8933
 30
0.0
 10
138.2742
 20
65.947
 30
0.0
 10
139.5616
 20
67.1362
 30
0.0
 10
140.9756
 20
67.2013
 30
0.0
 10
140.9756
 20
67.2013
 30
0.0
 10
139.0064
 20
68.1244
 30
0.0
 10
139.2229
 20
72.039
 30
0.0
 10
136.1036
 20
74.2061
 30
0.0
 10
136.1036
 20
74.2061
 30
0.0
 10
137.3204
 20
74.9176
 30
0.0
 10
143.6465
 20
75.801
 30
0.0
 10
145.9219
 20
70.3738
 30
0.0
 10
145.9219
 20
70.3738
 30
0.0
 10
147.9207
 20
72.6131
 30
0.0
 10
150.9813
 20
70.5731
 30
0.0
 10
152.2806
 20
64.2576
 30
0.0
 10
152.2806
 20
64.2576
 30
0.0
 10
154.4732
 20
65.4864
 30
0.0
 10
151.746
 20
77.3887
 30
0.0
 10
147.013
 20
72.5427
 30
0.0
 10
147.013
 20
72.5427
 30
0.0
 10
142.7442
 20
74.9348
 30
0.0
 10
147.5251
 20
82.1512
 30
0.0
 10
152.8648
 20
76.4301
 30
0.0
 10
152.8648
 20
76.4301
 30
0.0
 10
152.7755
 20
80.4293
 30
0.0
 10
154.6814
 20
79.9924
 30
0.0
 10
155.7535
 20
83.2748
 30
0.0
 10
155.7535
 20
83.2748
 30
0.0
 10
156.8261
 20
79.9924
 30
0.0
 10
158.7337
 20
80.4293
 30
0.0
 10
158.6444
 20
76.4301
 30
0.0
 10
158.6444
 20
76.4301
 30
0.0
 10
163.9836
 20
82.1513
 30
0.0
 10
168.7633
 20
74.9347
 30
0.0
 10
164.4958
 20
72.5427
 30
0.0
 10
164.4958
 20
72.5427
 30
0.0
 10
159.7632
 20
77.3889
 30
0.0
 10
157.0338
 20
65.4864
 30
0.0
 10
159.2269
 20
64.2576
 30
0.0
 10
159.2269
 20
64.2576
 30
0.0
 10
160.5279
 20
70.5731
 30
0.0
 10
163.5868
 20
72.6131
 30
0.0
 10
165.5855
 20
70.3738
 30
0.0
 10
165.5855
 20
70.3738
 30
0.0
 10
167.8627
 20
75.801
 30
0.0
 10
174.1871
 20
74.9176
 30
0.0
 10
175.4052
 20
74.2061
 30
0.0
 10
175.4052
 20
74.2061
 30
0.0
 10
172.2846
 20
72.039
 30
0.0
 10
172.5011
 20
68.1242
 30
0.0
 10
170.5314
 20
67.2013
 30
0.0
 10
170.5314
 20
67.2013
 30
0.0
 10
171.9476
 20
67.1362
 30
0.0
 10
173.2332
 20
65.9469
 30
0.0
 10
173.5751
 20
63.8933
 30
0.0
 10
173.5751
 20
63.8933
 30
0.0
 10
178.0915
 20
68.8563
 30
0.0
 10
180.7142
 20
74.6976
 30
0.0
 10
179.9491
 20
79.4204
 30
0.0
 10
179.9491
 20
79.4204
 30
0.0
 10
178.755
 20
84.4558
 30
0.0
 10
173.5064
 20
85.0795
 30
0.0
 10
174.4722
 20
79.9154
 30
0.0
 10
174.4722
 20
79.9154
 30
0.0
 10
173.6595
 20
79.5253
 30
0.0
 10
171.6608
 20
81.0341
 30
0.0
 10
171.7792
 20
82.835
 30
0.0
 10
171.7792
 20
82.835
 30
0.0
 10
166.4086
 20
77.0039
 30
0.0
 10
157.8196
 20
80.1644
 30
0.0
 10
155.7535
 20
86.2687
 30
0.0
 10
155.7535
 20
86.2687
 30
0.0
 10
153.6897
 20
80.1645
 30
0.0
 10
145.1001
 20
77.0038
 30
0.0
 10
139.7283
 20
82.835
 30
0.0
  0
SPLINE
  5
84
330
1F
100
AcDbEntity
  8
layer 1
 62
     7
100
AcDbSpline
210
0.0
220
0.0
230
1.0
 70
    11
 71
     3
 72
    20
 73
    16
 74
     0
 42
0.0000000001
 43
0.0000000001
 12
1.0
 22
0.0
 32
0.0
 13
1.0
 23
0.0
 33
0.0
 40
0.0
 40
0.0
 40
0.0
 40
0.0
 40
0.2
 40
0.2
 40
0.2
 40
0.2
 40
0.4
 40
0.4
 40
0.4
 40
0.4
 40
0.6
 40
0.6
 40
0.6
 40
0.6
 40
1.0
 40
1.0
 40
1.0
 40
1.0
 10
146.4371
 20
27.1279
 30
0.0
 10
152.6466
 20
26.9062
 30
0.0
 10
149.2128
 20
15.1257
 30
0.0
 10
138.4512
 20
11.9944
 30
0.0
 10
138.4512
 20
11.9944
 30
0.0
 10
132.1457
 20
10.9409
 30
0.0
 10
127.2873
 20
11.2022
 30
0.0
 10
121.5975
 20
13.9725
 30
0.0
 10
121.5975
 20
13.9725
 30
0.0
 10
121.5975
 20
13.9725
 30
0.0
 10
121.6005
 20
24.3594
 30
0.0
 10
121.6005
 20
24.3594
 30
0.0
 10
121.6005
 20
24.3594
 30
0.0
 10
126.3198
 20
14.3522
 30
0.0
 10
145.1208
 20
13.8212
 30
0.0
 10
146.4371
 20
27.1279
 30
0.0
  0
SPLINE
  5
85
330
1F
100
AcDbEntity
  8
layer 1
370
    30
100
AcDbSpline
210
0.0
220
0.0
230
1.0
 70
    11
 71
     3
 72
    20
 73
    16
 74
     0
 42
0.0000000001
 43
0.0000000001
 12
1.0
 22
0.0
 32
0.0
 13
1.0
 23
0.0
 33
0.0
 40
0.0
 40
0.0
 40
0.0
 40
0.0
 40
0.2
 40
0.2
 40
0.2
 40
0.2
 40
0.4
 40
0.4
 40
0.4
 40
0.4
 40
0.6
 40
0.6
 40
0.6
 40
0.6
 40
1.0
 40
1.0
 40
1.0
 40
1.0
 10
146.4375
 20
27.1279
 30
0.0
 10
152.6466
 20
26.9062
 30
0.0
 10
149.2128
 20
15.1257
 30
0.0
 10
138.4512
 20
11.9944
 30
0.0
 10
138.4512
 20
11.9944
 30
0.0
 10
132.1457
 20
10.9409
 30
0.0
 10
127.2873
 20
11.2022
 30
0.0
 10
121.5975
 20
13.9725
 30
0.0
 10
121.5975
 20
13.9725
 30
0.0
 10
121.5975
 20
13.9725
 30
0.0
 10
121.6005
 20
24.3594
 30
0.0
 10
121.6005
 20
24.3594
 30
0.0
 10
121.6005
 20
24.3594
 30
0.0
 10
126.3198
 20
14.3522
 30
0.0
 10
145.1208
 20
13.8212
 30
0.0
 10
146.4375
 20
27.1279
 30
0.0
  0
SPLINE
  5
86
330
1F
100
AcDbEntity
  8
layer 1
 62
     7
370
    30
100
AcDbSpline
210
0.0
220
0.0
230
1.0
 70
    11
 71
     3
 72
    36
 73
    32
 74
     0
 42
0.0000000001
 43
0.0000000001
 12
1.0
 22
0.0
 32
0.0
 13
1.0
 23
0.0
 33
0.0
 40
0.0
 40
0.0
 40
0.0
 40
0.0
 40
0.1111111111111111
 40
0.1111111111111111
 40
0.1111111111111111
 40
0.1111111111111111
 40
0.2222222222222222
 40
0.2222222222222222
 40
0.2222222222222222
 40
0.2222222222222222
 40
0.3333333333333333
 40
0.3333333333333333
 40
0.3333333333333333
 40
0.3333333333333333
 40
0.4444444444444444
 40
0.4444444444444444
 40
0.4444444444444444
 40
0.4444444444444444
 40
0.5555555555555556
 40
0.5555555555555556
 40
0.5555555555555556
 40
0.5555555555555556
 40
0.6666666666666666
 40
0.6666666666666666
 40
0.6666666666666666
 40
0.6666666666666666
 40
0.7777777777777778
 40
0.7777777777777778
 40
0.7777777777777778
 40
0.7777777777777778
 40
1.0
 40
1.0
 40
1.0
 40
1.0
 10
164.142
 20
12.6078
 30
0.0
 10
159.3246
 20
16.6725
 30
0.0
 10
156.5992
 20
20.3399
 30
0.0
 10
155.7535
 20
26.5934
 30
0.0
 10
155.7535
 20
26.5934
 30
0.0
 10
154.908
 20
20.3399
 30
0.0
 10
152.1842
 20
16.6725
 30
0.0
 10
147.3655
 20
12.6078
 30
0.0
 10
147.3655
 20
12.6078
 30
0.0
 10
150.4398
 20
12.881
 30
0.0
 10
152.3232
 20
11.324
 30
0.0
 10
152.3817
 20
8.961
 30
0.0
 10
152.3817
 20
8.961
 30
0.0
 10
152.3888
 20
6.6306
 30
0.0
 10
150.4398
 20
5.0411
 30
0.0
 10
147.3655
 20
5.3143
 30
0.0
 10
147.3655
 20
5.3143
 30
0.0
 10
152.1842
 20
1.25
 30
0.0
 10
154.908
 20
-2.4175
 30
0.0
 10
155.7535
 20
-8.6731
 30
0.0
 10
155.7535
 20
-8.6731
 30
0.0
 10
156.599
 20
-2.4173
 30
0.0
 10
159.3246
 20
1.25
 30
0.0
 10
164.142
 20
5.3143
 30
0.0
 10
164.142
 20
5.3143
 30
0.0
 10
161.0673
 20
5.0411
 30
0.0
 10
159.2163
 20
6.6306
 30
0.0
 10
159.1253
 20
8.961
 30
0.0
 10
159.1253
 20
8.961
 30
0.0
 10
159.1838
 20
11.2589
 30
0.0
 10
161.0673
 20
12.881
 30
0.0
 10
164.142
 20
12.6078
 30
0.0
  0
SPLINE
  5
87
330
1F
100
AcDbEntity
  8
layer 1
 62
     7
100
AcDbSpline
210
0.0
220
0.0
230
1.0
 70
    11
 71
     3
 72
    16
 73
    12
 74
     0
 42
0.0000000001
 43
0.0000000001
 12
1.0
 22
0.0
 32
0.0
 13
1.0
 23
0.0
 33
0.0
 40
0.0
 40
0.0
 40
0.0
 40
0.0
 40
0.25
 40
0.25
 40
0.25
 40
0.25
 40
0.5
 40
0.5
 40
0.5
 40
0.5
 40
1.0
 40
1.0
 40
1.0
 40
1.0
 10
184.7305
 20
24.6295
 30
0.0
 10
188.415
 20
26.5713
 30
0.0
 10
188.7292
 20
34.7413
 30
0.0
 10
185.287
 20
38.3673
 30
0.0
 10
185.287
 20
38.3673
 30
0.0
 10
184.0256
 20
36.3792
 30
0.0
 10
182.173
 20
34.6537
 30
0.0
 10
180.7638
 20
33.3748
 30
0.0
 10
180.7638
 20
33.3748
 30
0.0
 10
184.9966
 20
32.8438
 30
0.0
 10
187.0023
 20
28.1143
 30
0.0
 10
184.7305
 20
24.6295
 30
0.0
  0
SPLINE
  5
88
330
1F
100
AcDbEntity
  8
layer 1
370
    30
100
AcDbSpline
210
0.0
220
0.0
230
1.0
 70
    11
 71
     3
 72
    16
 73
    12
 74
     0
 42
0.0000000001
 43
0.0000000001
 12
1.0
 22
0.0
 32
0.0
 13
1.0
 23
0.0
 33
0.0
 40
0.0
 40
0.0
 40
0.0
 40
0.0
 40
0.25
 40
0.25
 40
0.25
 40
0.25
 40
0.5
 40
0.5
 40
0.5
 40
0.5
 40
1.0
 40
1.0
 40
1.0
 40
1.0
 10
184.7305
 20
24.6295
 30
0.0
 10
188.415
 20
26.5713
 30
0.0
 10
188.7292
 20
34.7413
 30
0.0
 10
185.2869
 20
38.3673
 30
0.0
 10
185.2869
 20
38.3673
 30
0.0
 10
184.0256
 20
36.3792
 30
0.0
 10
182.173
 20
34.6537
 30
0.0
 10
180.7638
 20
33.3748
 30
0.0
 10
180.7638
 20
33.3748
 30
0.0
 10
184.9966
 20
32.8438
 30
0.0
 10
187.0023
 20
28.1143
 30
0.0
 10
184.7305
 20
24.6295
 30
0.0
  0
SPLINE
  5
89
330
1F
100
AcDbEntity
  8
layer 1
 62
     7
370
    30
100
AcDbSpline
210
0.0
220
0.0
230
1.0
 70
    11
 71
     3
 72
    16
 73
    12
 74
     0
 42
0.0000000001
 43
0.0000000001
 12
1.0
 22
0.0
 32
0.0
 13
1.0
 23
0.0
 33
0.0
 40
0.0
 40
0.0
 40
0.0
 40
0.0
 40
0.25
 40
0.25
 40
0.25
 40
0.25
 40
0.5
 40
0.5
 40
0.5
 40
0.5
 40
1.0
 40
1.0
 40
1.0
 40
1.0
 10
173.41
 20
37.5719
 30
0.0
 10
174.1936
 20
39.2011
 30
0.0
 10
175.4757
 20
40.9486
 30
0.0
 10
177.9266
 20
42.8579
 30
0.0
 10
177.9266
 20
42.8579
 30
0.0
 10
176.605
 20
43.4888
 30
0.0
 10
171.6951
 20
43.4474
 30
0.0
 10
169.8166
 20
42.5434
 30
0.0
 10
169.8166
 20
42.5434
 30
0.0
 10
172.3977
 20
42.0436
 30
0.0
 10
173.4669
 20
39.3726
 30
0.0
 10
173.41
 20
37.5719
 30
0.0
  0
SPLINE
  5
8A
330
1F
100
AcDbEntity
  8
layer 1
 62
     7
100
AcDbSpline
210
0.0
220
0.0
230
1.0
 70
    11
 71
     3
 72
    20
 73
    16
 74
     0
 42
0.0000000001
 43
0.0000000001
 12
1.0
 22
0.0
 32
0.0
 13
1.0
 23
0.0
 33
0.0
 40
0.0
 40
0.0
 40
0.0
 40
0.0
 40
0.2
 40
0.2
 40
0.2
 40
0.2
 40
0.4
 40
0.4
 40
0.4
 40
0.4
 40
0.6
 40
0.6
 40
0.6
 40
0.6
 40
1.0
 40
1.0
 40
1.0
 40
1.0
 10
180.0524
 20
22.2595
 30
0.0
 10
178.0295
 20
21.7368
 30
0.0
 10
176.0379
 20
23.3593
 30
0.0
 10
175.7748
 20
25.3633
 30
0.0
 10
175.7748
 20
25.3633
 30
0.0
 10
179.224
 20
24.1447
 30
0.0
 10
180.1311
 20
27.5662
 30
0.0
 10
178.576
 20
28.996
 30
0.0
 10
178.576
 20
28.996
 30
0.0
 10
177.6344
 20
29.8623
 30
0.0
 10
175.8576
 20
29.9414
 30
0.0
 10
173.9961
 20
28.728
 30
0.0
 10
173.9961
 20
28.728
 30
0.0
 10
169.6225
 20
25.2033
 30
0.0
 10
174.8707
 20
19.6008
 30
0.0
 10
180.0524
 20
22.2595
 30
0.0
  0
SPLINE
  5
8B
330
1F
100
AcDbEntity
  8
layer 1
370
    30
100
AcDbSpline
210
0.0
220
0.0
230
1.0
 70
    11
 71
     3
 72
    20
 73
    16
 74
     0
 42
0.0000000001
 43
0.0000000001
 12
1.0
 22
0.0
 32
0.0
 13
1.0
 23
0.0
 33
0.0
 40
0.0
 40
0.0
 40
0.0
 40
0.0
 40
0.2
 40
0.2
 40
0.2
 40
0.2
 40
0.4
 40
0.4
 40
0.4
 40
0.4
 40
0.6
 40
0.6
 40
0.6
 40
0.6
 40
1.0
 40
1.0
 40
1.0
 40
1.0
 10
180.0524
 20
22.2595
 30
0.0
 10
178.0295
 20
21.7368
 30
0.0
 10
176.0379
 20
23.3593
 30
0.0
 10
175.7748
 20
25.3633
 30
0.0
 10
175.7748
 20
25.3633
 30
0.0
 10
179.224
 20
24.1447
 30
0.0
 10
180.1313
 20
27.5662
 30
0.0
 10
178.576
 20
28.996
 30
0.0
 10
178.576
 20
28.996
 30
0.0
 10
177.6344
 20
29.8623
 30
0.0
 10
175.8576
 20
29.9414
 30
0.0
 10
173.9961
 20
28.728
 30
0.0
 10
173.9961
 20
28.728
 30
0.0
 10
169.6225
 20
25.2033
 30
0.0
 10
174.8707
 20
19.6008
 30
0.0
 10
180.0524
 20
22.2595
 30
0.0
  0
SPLINE
  5
8C
330
1F
100
AcDbEntity
  8
layer 1
 62
     7
100
AcDbSpline
210
0.0
220
0.0
230
1.0
 70
    11
 71
     3
 72
    24
 73
    20
 74
     0
 42
0.0000000001
 43
0.0000000001
 12
1.0
 22
0.0
 32
0.0
 13
1.0
 23
0.0
 33
0.0
 40
0.0
 40
0.0
 40
0.0
 40
0.0
 40
0.1666666666666667
 40
0.1666666666666667
 40
0.1666666666666667
 40
0.1666666666666667
 40
0.3333333333333333
 40
0.3333333333333333
 40
0.3333333333333333
 40
0.3333333333333333
 40
0.5
 40
0.5
 40
0.5
 40
0.5
 40
0.6666666666666666
 40
0.6666666666666666
 40
0.6666666666666666
 40
0.6666666666666666
 40
1.0
 40
1.0
 40
1.0
 40
1.0
 10
165.5187
 20
29.9001
 30
0.0
 10
166.2727
 20
32.9336
 30
0.0
 10
166.6819
 20
33.2772
 30
0.0
 10
167.5411
 20
35.2793
 30
0.0
 10
167.5411
 20
35.2793
 30
0.0
 10
168.8508
 20
39.055
 30
0.0
 10
165.1557
 20
40.2081
 30
0.0
 10
165.4827
 20
37.1539
 30
0.0
 10
165.4827
 20
37.1539
 30
0.0
 10
164.1817
 20
36.7725
 30
0.0
 10
164.1232
 20
38.5099
 30
0.0
 10
164.0748
 20
39.256
 30
0.0
 10
164.0748
 20
39.256
 30
0.0
 10
162.5248
 20
37.8812
 30
0.0
 10
160.2032
 20
33.9974
 30
0.0
 10
160.1495
 20
30.0994
 30
0.0
 10
160.1495
 20
30.0994
 30
0.0
 10
161.358
 20
31.6274
 30
0.0
 10
164.5802
 20
32.1377
 30
0.0
 10
165.5187
 20
29.9001
 30
0.0
  0
SPLINE
  5
8D
330
1F
100
AcDbEntity
  8
layer 1
370
    30
100
AcDbSpline
210
0.0
220
0.0
230
1.0
 70
    11
 71
     3
 72
    24
 73
    20
 74
     0
 42
0.0000000001
 43
0.0000000001
 12
1.0
 22
0.0
 32
0.0
 13
1.0
 23
0.0
 33
0.0
 40
0.0
 40
0.0
 40
0.0
 40
0.0
 40
0.1666666666666667
 40
0.1666666666666667
 40
0.1666666666666667
 40
0.1666666666666667
 40
0.3333333333333333
 40
0.3333333333333333
 40
0.3333333333333333
 40
0.3333333333333333
 40
0.5
 40
0.5
 40
0.5
 40
0.5
 40
0.6666666666666666
 40
0.6666666666666666
 40
0.6666666666666666
 40
0.6666666666666666
 40
1.0
 40
1.0
 40
1.0
 40
1.0
 10
165.5187
 20
29.9001
 30
0.0
 10
166.2728
 20
32.9336
 30
0.0
 10
166.6819
 20
33.2772
 30
0.0
 10
167.5411
 20
35.2793
 30
0.0
 10
167.5411
 20
35.2793
 30
0.0
 10
168.8508
 20
39.055
 30
0.0
 10
165.1557
 20
40.2081
 30
0.0
 10
165.4827
 20
37.1539
 30
0.0
 10
165.4827
 20
37.1539
 30
0.0
 10
164.1817
 20
36.7725
 30
0.0
 10
164.1232
 20
38.5099
 30
0.0
 10
164.0748
 20
39.256
 30
0.0
 10
164.0748
 20
39.256
 30
0.0
 10
162.5248
 20
37.8812
 30
0.0
 10
160.2032
 20
33.9974
 30
0.0
 10
160.1495
 20
30.0994
 30
0.0
 10
160.1495
 20
30.0994
 30
0.0
 10
161.358
 20
31.6274
 30
0.0
 10
164.5802
 20
32.1377
 30
0.0
 10
165.5187
 20
29.9001
 30
0.0
  0
SPLINE
  5
8E
330
1F
100
AcDbEntity
  8
layer 1
 62
     7
370
    30
100
AcDbSpline
210
0.0
220
0.0
230
1.0
 70
    11
 71
     3
 72
    16
 73
    12
 74
     0
 42
0.0000000001
 43
0.0000000001
 12
1.0
 22
0.0
 32
0.0
 13
1.0
 23
0.0
 33
0.0
 40
0.0
 40
0.0
 40
0.0
 40
0.0
 40
0.25
 40
0.25
 40
0.25
 40
0.25
 40
0.5
 40
0.5
 40
0.5
 40
0.5
 40
1.0
 40
1.0
 40
1.0
 40
1.0
 10
169.7597
 20
28.1539
 30
0.0
 10
170.9182
 20
30.4997
 30
0.0
 10
172.5751
 20
31.78
 30
0.0
 10
174.0287
 20
32.38
 30
0.0
 10
174.0287
 20
32.38
 30
0.0
 10
176.2922
 20
33.1364
 30
0.0
 10
175.0014
 20
35.9014
 30
0.0
 10
172.6229
 20
34.1843
 30
0.0
 10
172.6229
 20
34.1843
 30
0.0
 10
170.3718
 20
32.0329
 30
0.0
 10
169.8183
 20
29.955
 30
0.0
 10
169.7597
 20
28.1539
 30
0.0
  0
SPLINE
  5
8F
330
1F
100
AcDbEntity
  8
layer 1
 62
     7
370
    30
100
AcDbSpline
210
0.0
220
0.0
230
1.0
 70
    11
 71
     3
 72
    16
 73
    12
 74
     0
 42
0.0000000001
 43
0.0000000001
 12
1.0
 22
0.0
 32
0.0
 13
1.0
 23
0.0
 33
0.0
 40
0.0
 40
0.0
 40
0.0
 40
0.0
 40
0.25
 40
0.25
 40
0.25
 40
0.25
 40
0.5
 40
0.5
 40
0.5
 40
0.5
 40
1.0
 40
1.0
 40
1.0
 40
1.0
 10
172.5526
 20
47.6768
 30
0.0
 10
166.4672
 20
47.6217
 30
0.0
 10
163.4373
 20
45.1263
 30
0.0
 10
160.3008
 20
41.7356
 30
0.0
 10
160.3008
 20
41.7356
 30
0.0
 10
161.3752
 20
45.4237
 30
0.0
 10
164.6608
 20
49.6842
 30
0.0
 10
170.9679
 20
54.6438
 30
0.0
 10
170.9679
 20
54.6438
 30
0.0
 10
168.3867
 20
51.8994
 30
0.0
 10
170.561
 20
48.1047
 30
0.0
 10
172.5526
 20
47.6768
 30
0.0
  0
SPLINE
  5
90
330
1F
100
AcDbEntity
  8
layer 1
 62
     7
100
AcDbSpline
210
0.0
220
0.0
230
1.0
 70
    11
 71
     3
 72
    24
 73
    20
 74
     0
 42
0.0000000001
 43
0.0000000001
 12
1.0
 22
0.0
 32
0.0
 13
1.0
 23
0.0
 33
0.0
 40
0.0
 40
0.0
 40
0.0
 40
0.0
 40
0.1666666666666667
 40
0.1666666666666667
 40
0.1666666666666667
 40
0.1666666666666667
 40
0.3333333333333333
 40
0.3333333333333333
 40
0.3333333333333333
 40
0.3333333333333333
 40
0.5
 40
0.5
 40
0.5
 40
0.5
 40
0.6666666666666666
 40
0.6666666666666666
 40
0.6666666666666666
 40
0.6666666666666666
 40
1.0
 40
1.0
 40
1.0
 40
1.0
 10
169.4971
 20
60.0882
 30
0.0
 10
165.2815
 20
56.6649
 30
0.0
 10
160.6308
 20
53.2346
 30
0.0
 10
158.5547
 20
47.0994
 30
0.0
 10
158.5547
 20
47.0994
 30
0.0
 10
158.4434
 20
50.6618
 30
0.0
 10
159.9832
 20
59.291
 30
0.0
 10
166.2899
 20
64.2487
 30
0.0
 10
166.2899
 20
64.2487
 30
0.0
 10
168.3092
 20
65.6738
 30
0.0
 10
170.3836
 20
64.833
 30
0.0
 10
170.451
 20
63.8242
 30
0.0
 10
170.451
 20
63.8242
 30
0.0
 10
170.6296
 20
61.1383
 30
0.0
 10
167.7061
 20
62.2932
 30
0.0
 10
167.8645
 20
61.8154
 30
0.0
 10
167.8645
 20
61.8154
 30
0.0
 10
168.1254
 20
61.0182
 30
0.0
 10
168.4127
 20
60.3217
 30
0.0
 10
169.4971
 20
60.0882
 30
0.0
  0
SPLINE
  5
91
330
1F
100
AcDbEntity
  8
layer 1
370
    30
100
AcDbSpline
210
0.0
220
0.0
230
1.0
 70
    11
 71
     3
 72
    24
 73
    20
 74
     0
 42
0.0000000001
 43
0.0000000001
 12
1.0
 22
0.0
 32
0.0
 13
1.0
 23
0.0
 33
0.0
 40
0.0
 40
0.0
 40
0.0
 40
0.0
 40
0.1666666666666667
 40
0.1666666666666667
 40
0.1666666666666667
 40
0.1666666666666667
 40
0.3333333333333333
 40
0.3333333333333333
 40
0.3333333333333333
 40
0.3333333333333333
 40
0.5
 40
0.5
 40
0.5
 40
0.5
 40
0.6666666666666666
 40
0.6666666666666666
 40
0.6666666666666666
 40
0.6666666666666666
 40
1.0
 40
1.0
 40
1.0
 40
1.0
 10
169.4971
 20
60.0882
 30
0.0
 10
165.2815
 20
56.6649
 30
0.0
 10
160.6308
 20
53.2346
 30
0.0
 10
158.5547
 20
47.0994
 30
0.0
 10
158.5547
 20
47.0994
 30
0.0
 10
158.4434
 20
50.6618
 30
0.0
 10
159.9832
 20
59.291
 30
0.0
 10
166.2904
 20
64.2487
 30
0.0
 10
166.2904
 20
64.2487
 30
0.0
 10
168.3092
 20
65.6738
 30
0.0
 10
170.3836
 20
64.833
 30
0.0
 10
170.451
 20
63.8242
 30
0.0
 10
170.451
 20
63.8242
 30
0.0
 10
170.6296
 20
61.1383
 30
0.0
 10
167.7061
 20
62.2932
 30
0.0
 10
167.8645
 20
61.8154
 30
0.0
 10
167.8645
 20
61.8154
 30
0.0
 10
168.1254
 20
61.0182
 30
0.0
 10
168.4127
 20
60.3217
 30
0.0
 10
169.4971
 20
60.0882
 30
0.0
  0
SPLINE
  5
92
330
1F
100
AcDbEntity
  8
layer 1
 62
     7
370
    30
100
AcDbSpline
210
0.0
220
0.0
230
1.0
 70
    11
 71
     3
 72
    20
 73
    16
 74
     0
 42
0.0000000001
 43
0.0000000001
 12
1.0
 22
0.0
 32
0.0
 13
1.0
 23
0.0
 33
0.0
 40
0.0
 40
0.0
 40
0.0
 40
0.0
 40
0.2
 40
0.2
 40
0.2
 40
0.2
 40
0.4
 40
0.4
 40
0.4
 40
0.4
 40
0.6
 40
0.6
 40
0.6
 40
0.6
 40
1.0
 40
1.0
 40
1.0
 40
1.0
 10
177.1822
 20
50.9681
 30
0.0
 10
175.1184
 20
47.9311
 30
0.0
 10
172.1074
 20
50.8663
 30
0.0
 10
174.4655
 20
53.2293
 30
0.0
 10
174.4655
 20
53.2293
 30
0.0
 10
179.8478
 20
57.3178
 30
0.0
 10
183.7489
 20
49.4057
 30
0.0
 10
181.6935
 20
46.4154
 30
0.0
 10
181.6935
 20
46.4154
 30
0.0
 10
180.8461
 20
47.0446
 30
0.0
 10
178.7273
 20
47.9019
 30
0.0
 10
175.4312
 20
47.682
 30
0.0
 10
175.4312
 20
47.682
 30
0.0
 10
177.1703
 20
48.524
 30
0.0
 10
177.8025
 20
50.0088
 30
0.0
 10
177.1822
 20
50.9681
 30
0.0
  0
SPLINE
  5
93
330
1F
100
AcDbEntity
  8
layer 1
 62
     7
100
AcDbSpline
210
0.0
220
0.0
230
1.0
 70
    11
 71
     3
 72
    24
 73
    20
 74
     0
 42
0.0000000001
 43
0.0000000001
 12
1.0
 22
0.0
 32
0.0
 13
1.0
 23
0.0
 33
0.0
 40
0.0
 40
0.0
 40
0.0
 40
0.0
 40
0.1666666666666667
 40
0.1666666666666667
 40
0.1666666666666667
 40
0.1666666666666667
 40
0.3333333333333333
 40
0.3333333333333333
 40
0.3333333333333333
 40
0.3333333333333333
 40
0.5
 40
0.5
 40
0.5
 40
0.5
 40
0.6666666666666666
 40
0.6666666666666666
 40
0.6666666666666666
 40
0.6666666666666666
 40
1.0
 40
1.0
 40
1.0
 40
1.0
 10
173.9908
 20
56.9417
 30
0.0
 10
183.7471
 20
60.5867
 30
0.0
 10
189.1761
 20
48.4932
 30
0.0
 10
186.5277
 20
43.3665
 30
0.0
 10
186.5277
 20
43.3665
 30
0.0
 10
187.9078
 20
42.2512
 30
0.0
 10
189.1471
 20
41.0158
 30
0.0
 10
190.0974
 20
39.1716
 30
0.0
 10
190.0974
 20
39.1716
 30
0.0
 10
190.0974
 20
39.1716
 30
0.0
 10
189.9082
 20
57.354
 30
0.0
 10
189.9082
 20
57.354
 30
0.0
 10
189.9082
 20
57.354
 30
0.0
 10
189.6812
 20
55.5532
 30
0.0
 10
187.1603
 20
54.2021
 30
0.0
 10
185.2267
 20
55.0819
 30
0.0
 10
185.2267
 20
55.0819
 30
0.0
 10
188.4871
 20
61.8893
 30
0.0
 10
177.6772
 20
60.1277
 30
0.0
 10
173.9908
 20
56.9417
 30
0.0
  0
SPLINE
  5
94
330
1F
100
AcDbEntity
  8
layer 1
370
    30
100
AcDbSpline
210
0.0
220
0.0
230
1.0
 70
    11
 71
     3
 72
    24
 73
    20
 74
     0
 42
0.0000000001
 43
0.0000000001
 12
1.0
 22
0.0
 32
0.0
 13
1.0
 23
0.0
 33
0.0
 40
0.0
 40
0.0
 40
0.0
 40
0.0
 40
0.1666666666666667
 40
0.1666666666666667
 40
0.1666666666666667
 40
0.1666666666666667
 40
0.3333333333333333
 40
0.3333333333333333
 40
0.3333333333333333
 40
0.3333333333333333
 40
0.5
 40
0.5
 40
0.5
 40
0.5
 40
0.6666666666666666
 40
0.6666666666666666
 40
0.6666666666666666
 40
0.6666666666666666
 40
1.0
 40
1.0
 40
1.0
 40
1.0
 10
173.9908
 20
56.9417
 30
0.0
 10
183.7471
 20
60.5867
 30
0.0
 10
189.1761
 20
48.4932
 30
0.0
 10
186.528
 20
43.3665
 30
0.0
 10
186.528
 20
43.3665
 30
0.0
 10
187.9078
 20
42.2512
 30
0.0
 10
189.1471
 20
41.0158
 30
0.0
 10
190.0974
 20
39.1716
 30
0.0
 10
190.0974
 20
39.1716
 30
0.0
 10
190.0974
 20
39.1716
 30
0.0
 10
189.9082
 20
57.354
 30
0.0
 10
189.9082
 20
57.354
 30
0.0
 10
189.9082
 20
57.354
 30
0.0
 10
189.6812
 20
55.5532
 30
0.0
 10
187.1603
 20
54.2021
 30
0.0
 10
185.2267
 20
55.0819
 30
0.0
 10
185.2267
 20
55.0819
 30
0.0
 10
188.4871
 20
61.8893
 30
0.0
 10
177.6772
 20
60.1277
 30
0.0
 10
173.9908
 20
56.9417
 30
0.0
  0
SPLINE
  5
95
330
1F
100
AcDbEntity
  8
layer 1
 62
     7
370
    30
100
AcDbSpline
210
0.0
220
0.0
230
1.0
 70
    11
 71
     3
 72
    24
 73
    20
 74
     0
 42
0.0000000001
 43
0.0000000001
 12
1.0
 22
0.0
 32
0.0
 13
1.0
 23
0.0
 33
0.0
 40
0.0
 40
0.0
 40
0.0
 40
0.0
 40
0.1666666666666667
 40
0.1666666666666667
 40
0.1666666666666667
 40
0.1666666666666667
 40
0.3333333333333333
 40
0.3333333333333333
 40
0.3333333333333333
 40
0.3333333333333333
 40
0.5
 40
0.5
 40
0.5
 40
0.5
 40
0.6666666666666666
 40
0.6666666666666666
 40
0.6666666666666666
 40
0.6666666666666666
 40
1.0
 40
1.0
 40
1.0
 40
1.0
 10
185.0291
 20
68.2946
 30
0.0
 10
186.1792
 20
68.5076
 30
0.0
 10
189.9632
 20
65.895
 30
0.0
 10
187.2153
 20
62.7639
 30
0.0
 10
187.2153
 20
62.7639
 30
0.0
 10
188.4062
 20
63.0838
 30
0.0
 10
189.3341
 20
62.8466
 30
0.0
 10
190.0974
 20
61.4375
 30
0.0
 10
190.0974
 20
61.4375
 30
0.0
 10
190.0974
 20
61.4375
 30
0.0
 10
189.9082
 20
82.8644
 30
0.0
 10
189.9082
 20
82.8644
 30
0.0
 10
189.9082
 20
82.8644
 30
0.0
 10
187.9354
 20
74.7632
 30
0.0
 10
183.792
 20
67.3012
 30
0.0
 10
178.6155
 20
62.379
 30
0.0
 10
178.6155
 20
62.379
 30
0.0
 10
183.8707
 20
62.3878
 30
0.0
 10
185.9728
 20
66.4278
 30
0.0
 10
185.0291
 20
68.2946
 30
0.0
  0
SPLINE
  5
96
330
1F
100
AcDbEntity
  8
layer 1
 62
     7
100
AcDbSpline
210
0.0
220
0.0
230
1.0
 70
    11
 71
     3
 72
    24
 73
    20
 74
     0
 42
0.0000000001
 43
0.0000000001
 12
1.0
 22
0.0
 32
0.0
 13
1.0
 23
0.0
 33
0.0
 40
0.0
 40
0.0
 40
0.0
 40
0.0
 40
0.1666666666666667
 40
0.1666666666666667
 40
0.1666666666666667
 40
0.1666666666666667
 40
0.3333333333333333
 40
0.3333333333333333
 40
0.3333333333333333
 40
0.3333333333333333
 40
0.5
 40
0.5
 40
0.5
 40
0.5
 40
0.6666666666666666
 40
0.6666666666666666
 40
0.6666666666666666
 40
0.6666666666666666
 40
1.0
 40
1.0
 40
1.0
 40
1.0
 10
184.7181
 20
113.8875
 30
0.0
 10
177.9472
 20
116.3469
 30
0.0
 10
178.7374
 20
107.9965
 30
0.0
 10
182.9737
 20
103.7432
 30
0.0
 10
182.9737
 20
103.7432
 30
0.0
 10
186.2236
 20
99.634
 30
0.0
 10
189.023
 20
95.6538
 30
0.0
 10
190.0974
 20
91.502
 30
0.0
 10
190.0974
 20
91.502
 30
0.0
 10
190.0974
 20
91.502
 30
0.0
 10
189.9702
 20
118.1669
 30
0.0
 10
189.9702
 20
118.1669
 30
0.0
 10
189.9702
 20
118.1669
 30
0.0
 10
189.9702
 20
118.1669
 30
0.0
 10
181.7348
 20
118.0776
 30
0.0
 10
181.7348
 20
118.0776
 30
0.0
 10
181.7348
 20
118.0776
 30
0.0
 10
184.0581
 20
117.4005
 30
0.0
 10
184.7252
 20
116.0754
 30
0.0
 10
184.7181
 20
113.8875
 30
0.0
  0
SPLINE
  5
97
330
1F
100
AcDbEntity
  8
layer 1
370
    30
100
AcDbSpline
210
0.0
220
0.0
230
1.0
 70
    11
 71
     3
 72
    24
 73
    20
 74
     0
 42
0.0000000001
 43
0.0000000001
 12
1.0
 22
0.0
 32
0.0
 13
1.0
 23
0.0
 33
0.0
 40
0.0
 40
0.0
 40
0.0
 40
0.0
 40
0.1666666666666667
 40
0.1666666666666667
 40
0.1666666666666667
 40
0.1666666666666667
 40
0.3333333333333333
 40
0.3333333333333333
 40
0.3333333333333333
 40
0.3333333333333333
 40
0.5
 40
0.5
 40
0.5
 40
0.5
 40
0.6666666666666666
 40
0.6666666666666666
 40
0.6666666666666666
 40
0.6666666666666666
 40
1.0
 40
1.0
 40
1.0
 40
1.0
 10
184.7181
 20
113.8875
 30
0.0
 10
177.9472
 20
116.3469
 30
0.0
 10
178.7375
 20
107.9965
 30
0.0
 10
182.9737
 20
103.7432
 30
0.0
 10
182.9737
 20
103.7432
 30
0.0
 10
186.2236
 20
99.634
 30
0.0
 10
189.023
 20
95.6538
 30
0.0
 10
190.0974
 20
91.502
 30
0.0
 10
190.0974
 20
91.502
 30
0.0
 10
190.0974
 20
91.502
 30
0.0
 10
189.9702
 20
118.1669
 30
0.0
 10
189.9702
 20
118.1669
 30
0.0
 10
189.9702
 20
118.1669
 30
0.0
 10
189.9702
 20
118.1669
 30
0.0
 10
181.7348
 20
118.0776
 30
0.0
 10
181.7348
 20
118.0776
 30
0.0
 10
181.7348
 20
118.0776
 30
0.0
 10
184.0581
 20
117.4005
 30
0.0
 10
184.7252
 20
116.0754
 30
0.0
 10
184.7181
 20
113.8875
 30
0.0
  0
SPLINE
  5
98
330
1F
100
AcDbEntity
  8
layer 1
 62
     7
100
AcDbSpline
210
0.0
220
0.0
230
1.0
 70
    11
 71
     3
 72
    48
 73
    44
 74
     0
 42
0.0000000001
 43
0.0000000001
 12
1.0
 22
0.0
 32
0.0
 13
1.0
 23
0.0
 33
0.0
 40
0.0
 40
0.0
 40
0.0
 40
0.0
 40
0.0833333333333333
 40
0.0833333333333333
 40
0.0833333333333333
 40
0.0833333333333333
 40
0.1666666666666667
 40
0.1666666666666667
 40
0.1666666666666667
 40
0.1666666666666667
 40
0.25
 40
0.25
 40
0.25
 40
0.25
 40
0.3333333333333333
 40
0.3333333333333333
 40
0.3333333333333333
 40
0.3333333333333333
 40
0.4166666666666667
 40
0.4166666666666667
 40
0.4166666666666667
 40
0.4166666666666667
 40
0.5
 40
0.5
 40
0.5
 40
0.5
 40
0.5833333333333334
 40
0.5833333333333334
 40
0.5833333333333334
 40
0.5833333333333334
 40
0.6666666666666666
 40
0.6666666666666666
 40
0.6666666666666666
 40
0.6666666666666666
 40
0.75
 40
0.75
 40
0.75
 40
0.75
 40
0.8333333333333334
 40
0.8333333333333334
 40
0.8333333333333334
 40
0.8333333333333334
 40
1.0
 40
1.0
 40
1.0
 40
1.0
 10
170.1879
 20
111.5575
 30
0.0
 10
169.9745
 20
112.7072
 30
0.0
 10
172.5249
 20
117.0516
 30
0.0
 10
175.6564
 20
114.302
 30
0.0
 10
175.6564
 20
114.302
 30
0.0
 10
175.3366
 20
115.4948
 30
0.0
 10
176.0102
 20
117.2953
 30
0.0
 10
177.4193
 20
118.0587
 30
0.0
 10
177.4193
 20
118.0587
 30
0.0
 10
177.4193
 20
118.0587
 30
0.0
 10
156.4288
 20
118.119
 30
0.0
 10
156.4288
 20
118.119
 30
0.0
 10
156.4288
 20
118.119
 30
0.0
 10
156.8089
 20
118.0261
 30
0.0
 10
158.1012
 20
116.7046
 30
0.0
 10
158.6872
 20
114.7916
 30
0.0
 10
158.6872
 20
114.7916
 30
0.0
 10
158.89
 20
114.1233
 30
0.0
 10
158.1424
 20
112.47
 30
0.0
 10
157.735
 20
111.7894
 30
0.0
 10
157.735
 20
111.7894
 30
0.0
 10
157.2057
 20
110.9043
 30
0.0
 10
156.6836
 20
108.569
 30
0.0
 10
158.2075
 20
108.2284
 30
0.0
 10
158.2075
 20
108.2284
 30
0.0
 10
159.347
 20
107.976
 30
0.0
 10
160.593
 20
109.4554
 30
0.0
 10
159.0276
 20
110.8457
 30
0.0
 10
159.0276
 20
110.8457
 30
0.0
 10
161.5952
 20
113.2672
 30
0.0
 10
166.5464
 20
112.159
 30
0.0
 10
168.1548
 20
109.5619
 30
0.0
 10
168.1548
 20
109.5619
 30
0.0
 10
161.0347
 20
110.1568
 30
0.0
 10
157.5458
 20
105.0304
 30
0.0
 10
157.8948
 20
102.3578
 30
0.0
 10
157.8948
 20
102.3578
 30
0.0
 10
161.8855
 20
107.8554
 30
0.0
 10
173.0801
 20
108.9019
 30
0.0
 10
177.4743
 20
106.0784
 30
0.0
 10
177.4743
 20
106.0784
 30
0.0
 10
174.5975
 20
113.5167
 30
0.0
 10
172.0559
 20
112.4991
 30
0.0
 10
170.1879
 20
111.5575
 30
0.0
  0
SPLINE
  5
99
330
1F
100
AcDbEntity
  8
layer 1
370
    30
100
AcDbSpline
210
0.0
220
0.0
230
1.0
 70
    11
 71
     3
 72
    48
 73
    44
 74
     0
 42
0.0000000001
 43
0.0000000001
 12
1.0
 22
0.0
 32
0.0
 13
1.0
 23
0.0
 33
0.0
 40
0.0
 40
0.0
 40
0.0
 40
0.0
 40
0.0833333333333333
 40
0.0833333333333333
 40
0.0833333333333333
 40
0.0833333333333333
 40
0.1666666666666667
 40
0.1666666666666667
 40
0.1666666666666667
 40
0.1666666666666667
 40
0.25
 40
0.25
 40
0.25
 40
0.25
 40
0.3333333333333333
 40
0.3333333333333333
 40
0.3333333333333333
 40
0.3333333333333333
 40
0.4166666666666667
 40
0.4166666666666667
 40
0.4166666666666667
 40
0.4166666666666667
 40
0.5
 40
0.5
 40
0.5
 40
0.5
 40
0.5833333333333334
 40
0.5833333333333334
 40
0.5833333333333334
 40
0.5833333333333334
 40
0.6666666666666666
 40
0.6666666666666666
 40
0.6666666666666666
 40
0.6666666666666666
 40
0.75
 40
0.75
 40
0.75
 40
0.75
 40
0.8333333333333334
 40
0.8333333333333334
 40
0.8333333333333334
 40
0.8333333333333334
 40
1.0
 40
1.0
 40
1.0
 40
1.0
 10
170.1879
 20
111.5575
 30
0.0
 10
169.9748
 20
112.7072
 30
0.0
 10
172.5249
 20
117.0516
 30
0.0
 10
175.6564
 20
114.302
 30
0.0
 10
175.6564
 20
114.302
 30
0.0
 10
175.3366
 20
115.4948
 30
0.0
 10
176.0102
 20
117.2953
 30
0.0
 10
177.4193
 20
118.0587
 30
0.0
 10
177.4193
 20
118.0587
 30
0.0
 10
177.4193
 20
118.0587
 30
0.0
 10
156.4288
 20
118.119
 30
0.0
 10
156.4288
 20
118.119
 30
0.0
 10
156.4288
 20
118.119
 30
0.0
 10
156.8089
 20
118.0261
 30
0.0
 10
158.1012
 20
116.7046
 30
0.0
 10
158.6872
 20
114.7916
 30
0.0
 10
158.6872
 20
114.7916
 30
0.0
 10
158.89
 20
114.1233
 30
0.0
 10
158.1424
 20
112.47
 30
0.0
 10
157.735
 20
111.7894
 30
0.0
 10
157.735
 20
111.7894
 30
0.0
 10
157.2057
 20
110.9043
 30
0.0
 10
156.6836
 20
108.569
 30
0.0
 10
158.2075
 20
108.2284
 30
0.0
 10
158.2075
 20
108.2284
 30
0.0
 10
159.347
 20
107.976
 30
0.0
 10
160.593
 20
109.4554
 30
0.0
 10
159.0276
 20
110.8457
 30
0.0
 10
159.0276
 20
110.8457
 30
0.0
 10
161.5952
 20
113.2672
 30
0.0
 10
166.5464
 20
112.159
 30
0.0
 10
168.1548
 20
109.5619
 30
0.0
 10
168.1548
 20
109.5619
 30
0.0
 10
161.0347
 20
110.1568
 30
0.0
 10
157.5463
 20
105.0304
 30
0.0
 10
157.8948
 20
102.3578
 30
0.0
 10
157.8948
 20
102.3578
 30
0.0
 10
161.8855
 20
107.8554
 30
0.0
 10
173.0801
 20
108.9019
 30
0.0
 10
177.4743
 20
106.0784
 30
0.0
 10
177.4743
 20
106.0784
 30
0.0
 10
174.5975
 20
113.5167
 30
0.0
 10
172.0559
 20
112.4991
 30
0.0
 10
170.1879
 20
111.5575
 30
0.0
  0
SPLINE
  5
9A
330
1F
100
AcDbEntity
  8
layer 1
 62
     7
100
AcDbSpline
210
0.0
220
0.0
230
1.0
 70
    11
 71
     3
 72
    52
 73
    48
 74
     0
 42
0.0000000001
 43
0.0000000001
 12
1.0
 22
0.0
 32
0.0
 13
1.0
 23
0.0
 33
0.0
 40
0.0
 40
0.0
 40
0.0
 40
0.0
 40
0.0769230769230769
 40
0.0769230769230769
 40
0.0769230769230769
 40
0.0769230769230769
 40
0.1538461538461539
 40
0.1538461538461539
 40
0.1538461538461539
 40
0.1538461538461539
 40
0.2307692307692308
 40
0.2307692307692308
 40
0.2307692307692308
 40
0.2307692307692308
 40
0.3076923076923077
 40
0.3076923076923077
 40
0.3076923076923077
 40
0.3076923076923077
 40
0.3846153846153846
 40
0.3846153846153846
 40
0.3846153846153846
 40
0.3846153846153846
 40
0.4615384615384616
 40
0.4615384615384616
 40
0.4615384615384616
 40
0.4615384615384616
 40
0.5384615384615384
 40
0.5384615384615384
 40
0.5384615384615384
 40
0.5384615384615384
 40
0.6153846153846154
 40
0.6153846153846154
 40
0.6153846153846154
 40
0.6153846153846154
 40
0.6923076923076923
 40
0.6923076923076923
 40
0.6923076923076923
 40
0.6923076923076923
 40
0.7692307692307693
 40
0.7692307692307693
 40
0.7692307692307693
 40
0.7692307692307693
 40
0.8461538461538461
 40
0.8461538461538461
 40
0.8461538461538461
 40
0.8461538461538461
 40
1.0
 40
1.0
 40
1.0
 40
1.0
 10
163.6625
 20
87.1901
 30
0.0
 10
158.0598
 20
89.4618
 30
0.0
 10
159.8987
 20
96.4153
 30
0.0
 10
164.2675
 20
98.0115
 30
0.0
 10
164.2675
 20
98.0115
 30
0.0
 10
172.8464
 20
101.1462
 30
0.0
 10
176.2372
 20
92.227
 30
0.0
 10
175.4158
 20
88.2983
 30
0.0
 10
175.4158
 20
88.2983
 30
0.0
 10
176.3762
 20
89.1456
 30
0.0
 10
179.7912
 20
88.838
 30
0.0
 10
180.4818
 20
85.4249
 30
0.0
 10
180.4818
 20
85.4249
 30
0.0
 10
181.9151
 20
86.6005
 30
0.0
 10
182.1955
 20
88.967
 30
0.0
 10
182.5496
 20
89.9432
 30
0.0
 10
182.5496
 20
89.9432
 30
0.0
 10
183.7093
 20
88.5938
 30
0.0
 10
184.3385
 20
86.8654
 30
0.0
 10
185.038
 20
84.8614
 30
0.0
 10
185.038
 20
84.8614
 30
0.0
 10
184.7855
 20
89.7025
 30
0.0
 10
185.038
 20
94.0298
 30
0.0
 10
180.1299
 20
99.2987
 30
0.0
 10
180.1299
 20
99.2987
 30
0.0
 10
176.1822
 20
102.9077
 30
0.0
 10
170.0022
 20
105.642
 30
0.0
 10
163.1759
 20
101.88
 30
0.0
 10
163.1759
 20
101.88
 30
0.0
 10
157.6972
 20
98.8606
 30
0.0
 10
154.5921
 20
88.245
 30
0.0
 10
162.901
 20
84.5674
 30
0.0
 10
162.901
 20
84.5674
 30
0.0
 10
166.4016
 20
83.7922
 30
0.0
 10
171.1897
 20
85.4231
 30
0.0
 10
170.7018
 20
90.6871
 30
0.0
 10
170.7018
 20
90.6871
 30
0.0
 10
169.6018
 20
93.6793
 30
0.0
 10
167.4501
 20
93.2411
 30
0.0
 10
166.8865
 20
92.4008
 30
0.0
 10
166.8865
 20
92.4008
 30
0.0
 10
165.388
 20
90.1632
 30
0.0
 10
168.0585
 20
89.4601
 30
0.0
 10
167.8729
 20
88.9924
 30
0.0
 10
167.8729
 20
88.9924
 30
0.0
 10
167.1856
 20
87.2485
 30
0.0
 10
164.7176
 20
86.8495
 30
0.0
 10
163.6625
 20
87.1901
 30
0.0
  0
SPLINE
  5
9B
330
1F
100
AcDbEntity
  8
layer 1
370
    30
100
AcDbSpline
210
0.0
220
0.0
230
1.0
 70
    11
 71
     3
 72
    52
 73
    48
 74
     0
 42
0.0000000001
 43
0.0000000001
 12
1.0
 22
0.0
 32
0.0
 13
1.0
 23
0.0
 33
0.0
 40
0.0
 40
0.0
 40
0.0
 40
0.0
 40
0.0769230769230769
 40
0.0769230769230769
 40
0.0769230769230769
 40
0.0769230769230769
 40
0.1538461538461539
 40
0.1538461538461539
 40
0.1538461538461539
 40
0.1538461538461539
 40
0.2307692307692308
 40
0.2307692307692308
 40
0.2307692307692308
 40
0.2307692307692308
 40
0.3076923076923077
 40
0.3076923076923077
 40
0.3076923076923077
 40
0.3076923076923077
 40
0.3846153846153846
 40
0.3846153846153846
 40
0.3846153846153846
 40
0.3846153846153846
 40
0.4615384615384616
 40
0.4615384615384616
 40
0.4615384615384616
 40
0.4615384615384616
 40
0.5384615384615384
 40
0.5384615384615384
 40
0.5384615384615384
 40
0.5384615384615384
 40
0.6153846153846154
 40
0.6153846153846154
 40
0.6153846153846154
 40
0.6153846153846154
 40
0.6923076923076923
 40
0.6923076923076923
 40
0.6923076923076923
 40
0.6923076923076923
 40
0.7692307692307693
 40
0.7692307692307693
 40
0.7692307692307693
 40
0.7692307692307693
 40
0.8461538461538461
 40
0.8461538461538461
 40
0.8461538461538461
 40
0.8461538461538461
 40
1.0
 40
1.0
 40
1.0
 40
1.0
 10
163.6625
 20
87.1901
 30
0.0
 10
158.0598
 20
89.4618
 30
0.0
 10
159.8987
 20
96.4153
 30
0.0
 10
164.2675
 20
98.0115
 30
0.0
 10
164.2675
 20
98.0115
 30
0.0
 10
172.8464
 20
101.1462
 30
0.0
 10
176.2372
 20
92.227
 30
0.0
 10
175.4158
 20
88.2983
 30
0.0
 10
175.4158
 20
88.2983
 30
0.0
 10
176.3762
 20
89.1456
 30
0.0
 10
179.7911
 20
88.838
 30
0.0
 10
180.4818
 20
85.4249
 30
0.0
 10
180.4818
 20
85.4249
 30
0.0
 10
181.9151
 20
86.6005
 30
0.0
 10
182.1955
 20
88.967
 30
0.0
 10
182.5496
 20
89.9432
 30
0.0
 10
182.5496
 20
89.9432
 30
0.0
 10
183.7093
 20
88.5938
 30
0.0
 10
184.3385
 20
86.8654
 30
0.0
 10
185.038
 20
84.8614
 30
0.0
 10
185.038
 20
84.8614
 30
0.0
 10
184.7855
 20
89.7025
 30
0.0
 10
185.038
 20
94.0298
 30
0.0
 10
180.1299
 20
99.2987
 30
0.0
 10
180.1299
 20
99.2987
 30
0.0
 10
176.1822
 20
102.9077
 30
0.0
 10
170.0022
 20
105.642
 30
0.0
 10
163.1759
 20
101.88
 30
0.0
 10
163.1759
 20
101.88
 30
0.0
 10
157.6972
 20
98.8606
 30
0.0
 10
154.5921
 20
88.245
 30
0.0
 10
162.901
 20
84.5674
 30
0.0
 10
162.901
 20
84.5674
 30
0.0
 10
166.4016
 20
83.7922
 30
0.0
 10
171.1897
 20
85.4231
 30
0.0
 10
170.7018
 20
90.6871
 30
0.0
 10
170.7018
 20
90.6871
 30
0.0
 10
169.6018
 20
93.6793
 30
0.0
 10
167.4501
 20
93.2411
 30
0.0
 10
166.8865
 20
92.4008
 30
0.0
 10
166.8865
 20
92.4008
 30
0.0
 10
165.388
 20
90.1632
 30
0.0
 10
168.0585
 20
89.4601
 30
0.0
 10
167.8729
 20
88.9924
 30
0.0
 10
167.8729
 20
88.9924
 30
0.0
 10
167.1856
 20
87.2485
 30
0.0
 10
164.7176
 20
86.8495
 30
0.0
 10
163.6625
 20
87.1901
 30
0.0
  0
SPLINE
  5
9C
330
1F
100
AcDbEntity
  8
layer 1
 62
     7
370
    30
100
AcDbSpline
210
0.0
220
0.0
230
1.0
 70
    11
 71
     3
 72
    20
 73
    16
 74
     0
 42
0.0000000001
 43
0.0000000001
 12
1.0
 22
0.0
 32
0.0
 13
1.0
 23
0.0
 33
0.0
 40
0.0
 40
0.0
 40
0.0
 40
0.0
 40
0.2
 40
0.2
 40
0.2
 40
0.2
 40
0.4
 40
0.4
 40
0.4
 40
0.4
 40
0.6
 40
0.6
 40
0.6
 40
0.6
 40
1.0
 40
1.0
 40
1.0
 40
1.0
 10
165.0716
 20
27.1279
 30
0.0
 10
158.8609
 20
26.9062
 30
0.0
 10
162.2943
 20
15.1257
 30
0.0
 10
173.0559
 20
11.9944
 30
0.0
 10
173.0559
 20
11.9944
 30
0.0
 10
179.363
 20
10.9409
 30
0.0
 10
184.2196
 20
11.2022
 30
0.0
 10
189.9099
 20
13.9725
 30
0.0
 10
189.9099
 20
13.9725
 30
0.0
 10
189.9099
 20
13.9725
 30
0.0
 10
189.9082
 20
24.3594
 30
0.0
 10
189.9082
 20
24.3594
 30
0.0
 10
189.9082
 20
24.3594
 30
0.0
 10
185.1893
 20
14.3522
 30
0.0
 10
166.3863
 20
13.8212
 30
0.0
 10
165.0716
 20
27.1279
 30
0.0
  0
SPLINE
  5
9D
330
1F
100
AcDbEntity
  8
layer 1
 62
     7
100
AcDbSpline
210
0.0
220
0.0
230
1.0
 70
    11
 71
     3
 72
    16
 73
    12
 74
     0
 42
0.0000000001
 43
0.0000000001
 12
1.0
 22
0.0
 32
0.0
 13
1.0
 23
0.0
 33
0.0
 40
0.0
 40
0.0
 40
0.0
 40
0.0
 40
0.25
 40
0.25
 40
0.25
 40
0.25
 40
0.5
 40
0.5
 40
0.5
 40
0.5
 40
1.0
 40
1.0
 40
1.0
 40
1.0
 10
146.269
 20
7.5158
 30
0.0
 10
149.328
 20
6.5123
 30
0.0
 10
149.4345
 20
11.3068
 30
0.0
 10
146.2
 20
10.3377
 30
0.0
 10
146.2
 20
10.3377
 30
0.0
 10
143.3248
 20
9.8274
 30
0.0
 10
141.6667
 20
9.3223
 30
0.0
 10
138.7054
 20
8.8374
 30
0.0
 10
138.7054
 20
8.8374
 30
0.0
 10
141.6307
 20
8.3768
 30
0.0
 10
143.6465
 20
7.9882
 30
0.0
 10
146.269
 20
7.5158
 30
0.0
  0
SPLINE
  5
9E
330
1F
100
AcDbEntity
  8
layer 1
 62
     7
100
AcDbSpline
210
0.0
220
0.0
230
1.0
 70
    11
 71
     3
 72
    16
 73
    12
 74
     0
 42
0.0000000001
 43
0.0000000001
 12
1.0
 22
0.0
 32
0.0
 13
1.0
 23
0.0
 33
0.0
 40
0.0
 40
0.0
 40
0.0
 40
0.0
 40
0.25
 40
0.25
 40
0.25
 40
0.25
 40
0.5
 40
0.5
 40
0.5
 40
0.5
 40
1.0
 40
1.0
 40
1.0
 40
1.0
 10
164.9924
 20
7.5158
 30
0.0
 10
161.9335
 20
6.5123
 30
0.0
 10
161.8253
 20
11.3068
 30
0.0
 10
165.0616
 20
10.3377
 30
0.0
 10
165.0616
 20
10.3377
 30
0.0
 10
167.9348
 20
9.8274
 30
0.0
 10
169.7308
 20
9.4234
 30
0.0
 10
172.6899
 20
8.939
 30
0.0
 10
172.6899
 20
8.939
 30
0.0
 10
169.7651
 20
8.4785
 30
0.0
 10
167.6151
 20
7.9882
 30
0.0
 10
164.9924
 20
7.5158
 30
0.0
  0
ENDSEC
  0
SECTION
  2
OBJECTS
  0
DICTIONARY
  5
C
330
0
100
AcDbDictionary
281
     1
  3
ACAD_GROUP
350
D
  3
ACAD_LAYOUT
350
1A
  3
ACAD_MATERIAL
350
3B
  3
ACAD_MLEADERSTYLE
350
C0
  3
ACAD_MLINESTYLE
350
17
  3
ACAD_PLOTSETTINGS
350
19
  3
ACAD_PLOTSTYLENAME
350
E
  3
ACAD_TABLESTYLE
350
BF
  3
ACAD_VISUALSTYLE
350
2A
  0
DICTIONARY
  5
D
102
{ACAD_REACTORS
330
C
102
}
330
C
100
AcDbDictionary
281
     1
  0
DICTIONARY
  5
1A
102
{ACAD_REACTORS
330
C
102
}
330
C
100
AcDbDictionary
281
     1
  3
Layout1
350
1E
  3
Layout2
350
26
  3
Model
350
22
  0
DICTIONARY
  5
3B
102
{ACAD_REACTORS
330
C
102
}
330
C
100
AcDbDictionary
281
     1
  3
ByBlock
350
3D
  3
ByLayer
350
3C
  3
Global
350
3E
  0
DICTIONARY
  5
C0
102
{ACAD_REACTORS
330
C
102
}
330
C
100
AcDbDictionary
281
     1
  0
DICTIONARY
  5
17
102
{ACAD_REACTORS
330
C
102
}
330
C
100
AcDbDictionary
281
     1
  3
Standard
350
18
  0
DICTIONARY
  5
19
102
{ACAD_REACTORS
330
C
102
}
330
C
100
AcDbDictionary
281
     1
  0
ACDBDICTIONARYWDFLT
  5
E
102
{ACAD_REACTORS
330
C
102
}
330
C
100
AcDbDictionary
281
     1
  3
Normal
350
F
100
AcDbDictionaryWithDefault
340
F
  0
DICTIONARY
  5
BF
102
{ACAD_REACTORS
330
C
102
}
330
C
100
AcDbDictionary
281
     1
  0
DICTIONARY
  5
2A
102
{ACAD_REACTORS
330
C
102
}
330
C
100
AcDbDictionary
281
     1
  3
2dWireframe
350
2F
  3
3D Hidden
350
31
  3
3dWireframe
350
30
  3
Basic
350
32
  3
Brighten
350
36
  3
ColorChange
350
3A
  3
Conceptual
350
34
  3
Dim
350
35
  3
Facepattern
350
39
  3
Flat
350
2B
  3
FlatWithEdges
350
2C
  3
Gouraud
350
2D
  3
GouraudWithEdges
350
2E
  3
Linepattern
350
38
  3
Realistic
350
33
  3
Thicken
350
37
  0
LAYOUT
  5
1E
102
{ACAD_REACTORS
330
1A
102
}
330
1A
100
AcDbPlotSettings
  1

  2
none_device
  4

  6

 40
0.0
 41
0.0
 42
0.0
 43
0.0
 44
0.0
 45
0.0
 46
0.0
 47
0.0
 48
0.0
 49
0.0
140
0.0
141
0.0
142
1.0
143
1.0
 70
   688
 72
     0
 73
     0
 74
     5
  7

 75
    16
 76
     0
 77
     2
 78
   300
147
1.0
148
0.0
149
0.0
100
AcDbLayout
  1
Layout1
 70
     1
 71
     1
 10
0.0
 20
0.0
 11
12.0
 21
9.0
 12
0.0
 22
0.0
 32
0.0
 14
1.000000000000000E+20
 24
1.000000000000000E+20
 34
1.000000000000000E+20
 15
-1.000000000000000E+20
 25
-1.000000000000000E+20
 35
-1.000000000000000E+20
146
0.0
 13
0.0
 23
0.0
 33
0.0
 16
1.0
 26
0.0
 36
0.0
 17
0.0
 27
1.0
 37
0.0
 76
     0
330
1B
  0
LAYOUT
  5
26
102
{ACAD_REACTORS
330
1A
102
}
330
1A
100
AcDbPlotSettings
  1

  2
none_device
  4

  6

 40
0.0
 41
0.0
 42
0.0
 43
0.0
 44
0.0
 45
0.0
 46
0.0
 47
0.0
 48
0.0
 49
0.0
140
0.0
141
0.0
142
1.0
143
1.0
 70
   688
 72
     0
 73
     0
 74
     5
  7

 75
    16
 76
     0
 77
     2
 78
   300
147
1.0
148
0.0
149
0.0
100
AcDbLayout
  1
Layout2
 70
     1
 71
     2
 10
0.0
 20
0.0
 11
0.0
 21
0.0
 12
0.0
 22
0.0
 32
0.0
 14
0.0
 24
0.0
 34
0.0
 15
0.0
 25
0.0
 35
0.0
146
0.0
 13
0.0
 23
0.0
 33
0.0
 16
1.0
 26
0.0
 36
0.0
 17
0.0
 27
1.0
 37
0.0
 76
     0
330
23
  0
LAYOUT
  5
22
102
{ACAD_REACTORS
330
1A
102
}
330
1A
100
AcDbPlotSettings
  1

  2
none_device
  4

  6

 40
0.0
 41
0.0
 42
0.0
 43
0.0
 44
0.0
 45
0.0
 46
0.0
 47
0.0
 48
0.0
 49
0.0
140
0.0
141
0.0
142
1.0
143
1.0
 70
  1712
 72
     0
 73
     0
 74
     0
  7

 75
     0
 76
     0
 77
     2
 78
   300
147
1.0
148
0.0
149
0.0
100
AcDbLayout
  1
Model
 70
     1
 71
     0
 10
0.0
 20
0.0
 11
12.0
 21
9.0
 12
0.0
 22
0.0
 32
0.0
 14
115.2956
 24
-106.7362
 34
0.0
 15
196.2118
 25
124.6585
 35
0.0
146
0.0
 13
0.0
 23
0.0
 33
0.0
 16
1.0
 26
0.0
 36
0.0
 17
0.0
 27
1.0
 37
0.0
 76
     0
330
1F
331
29
  0
MATERIAL
  5
3D
102
{ACAD_REACTORS
330
3B
102
}
330
3B
100
AcDbMaterial
  1
ByBlock
 72
     1
 94
      127
  0
MATERIAL
  5
3C
102
{ACAD_REACTORS
330
3B
102
}
330
3B
100
AcDbMaterial
  1
ByLayer
 72
     1
 94
      127
  0
MATERIAL
  5
3E
102
{ACAD_REACTORS
330
3B
102
}
330
3B
100
AcDbMaterial
  1
Global
 72
     1
 94
      127
  0
MLINESTYLE
  5
18
102
{ACAD_REACTORS
330
17
102
}
330
17
100
AcDbMlineStyle
  2
Standard
 70
     0
  3

 62
   256
 51
90.0
 52
90.0
 71
     2
 49
0.5
 62
   256
  6
BYLAYER
 49
-0.5
 62
   256
  6
BYLAYER
  0
ACDBPLACEHOLDER
  5
F
102
{ACAD_REACTORS
330
E
102
}
330
E
  0
VISUALSTYLE
  5
2F
102
{ACAD_REACTORS
330
2A
102
}
102
{ACAD_XDICTIONARY
360
A7
102
}
330
2A
100
AcDbVisualStyle
  2
2dWireframe
 70
     4
 71
     0
 72
     2
 73
     0
 90
        0
 40
-0.6
 41
-30.0
 62
     5
 63
     7
421
 16777215
 74
     1
 91
        4
 64
     7
 65
   257
 75
     1
175
     1
 42
1.0
 92
        0
 66
   257
 43
1.0
 76
     1
 77
     6
 78
     2
 67
     7
 79
     5
170
     0
171
     0
290
     0
174
     0
 93
        1
 44
0.0
173
     0
291
     0
 45
0.0
  0
VISUALSTYLE
  5
31
102
{ACAD_REACTORS
330
2A
102
}
102
{ACAD_XDICTIONARY
360
AB
102
}
330
2A
100
AcDbVisualStyle
  2
3D Hidden
 70
     6
 71
     1
 72
     2
 73
     2
 90
        0
 40
-0.6
 41
-30.0
 62
     5
 63
     7
421
 16777215
 74
     2
 91
        2
 64
     7
 65
   257
 75
     2
175
     1
 42
40.0
 92
        0
 66
   257
 43
1.0
 76
     1
 77
     6
 78
     2
 67
     7
 79
     3
170
     0
171
     0
290
     0
174
     0
 93
        1
 44
0.0
173
     0
291
     0
 45
0.0
  0
VISUALSTYLE
  5
30
102
{ACAD_REACTORS
330
2A
102
}
102
{ACAD_XDICTIONARY
360
A9
102
}
330
2A
100
AcDbVisualStyle
  2
3dWireframe
 70
     5
 71
     0
 72
     2
 73
     0
 90
        0
 40
-0.6
 41
-30.0
 62
     5
 63
     7
421
 16777215
 74
     1
 91
        4
 64
     7
 65
   257
 75
     1
175
     1
 42
1.0
 92
        0
 66
   257
 43
1.0
 76
     1
 77
     6
 78
     2
 67
     7
 79
     5
170
     0
171
     0
290
     0
174
     0
 93
        1
 44
0.0
173
     0
291
     0
 45
0.0
  0
VISUALSTYLE
  5
32
102
{ACAD_REACTORS
330
2A
102
}
102
{ACAD_XDICTIONARY
360
AD
102
}
330
2A
100
AcDbVisualStyle
  2
Basic
 70
     7
 71
     1
 72
     0
 73
     1
 90
        0
 40
-0.6
 41
-30.0
 62
     5
 63
     7
421
 16777215
 74
     0
 91
        4
 64
     7
 65
   257
 75
     1
175
     1
 42
1.0
 92
        8
 66
     7
 43
1.0
 76
     1
 77
     6
 78
     2
 67
     7
 79
     5
170
     0
171
     0
290
     0
174
     0
 93
        1
 44
0.0
173
     0
291
     1
 45
0.0
  0
VISUALSTYLE
  5
36
102
{ACAD_REACTORS
330
2A
102
}
102
{ACAD_XDICTIONARY
360
B5
102
}
330
2A
100
AcDbVisualStyle
  2
Brighten
 70
    12
 71
     2
 72
     2
 73
     0
 90
        0
 40
-0.6
 41
-30.0
 62
     5
 63
     7
421
 16777215
 74
     1
 91
        4
 64
     7
 65
   257
 75
     1
175
     1
 42
1.0
 92
        8
 66
     7
 43
1.0
 76
     1
 77
     6
 78
     2
 67
     7
 79
     5
170
     0
171
     0
290
     0
174
     0
 93
        1
 44
50.0
173
     0
291
     1
 45
0.0
  0
VISUALSTYLE
  5
3A
102
{ACAD_REACTORS
330
2A
102
}
102
{ACAD_XDICTIONARY
360
BD
102
}
330
2A
100
AcDbVisualStyle
  2
ColorChange
 70
    16
 71
     2
 72
     2
 73
     3
 90
        0
 40
-0.6
 41
-30.0
 62
     5
 63
     8
421
  8421504
 74
     1
 91
        4
 64
     7
 65
   257
 75
     1
175
     1
 42
1.0
 92
        8
 66
     8
424
  8421504
 43
1.0
 76
     1
 77
     6
 78
     2
 67
     7
 79
     5
170
     0
171
     0
290
     0
174
     0
 93
        1
 44
0.0
173
     0
291
     1
 45
0.0
  0
VISUALSTYLE
  5
34
102
{ACAD_REACTORS
330
2A
102
}
102
{ACAD_XDICTIONARY
360
B1
102
}
330
2A
100
AcDbVisualStyle
  2
Conceptual
 70
     9
 71
     3
 72
     2
 73
     0
 90
        0
 40
-0.6
 41
-30.0
 62
     5
 63
     7
421
 16777215
 74
     2
 91
        2
 64
     7
 65
   257
 75
     1
175
     1
 42
40.0
 92
        8
 66
     7
 43
1.0
 76
     1
 77
     6
 78
     2
 67
     7
 79
     3
170
     0
171
     0
290
     0
174
     0
 93
        1
 44
0.0
173
     0
291
     0
 45
0.0
  0
VISUALSTYLE
  5
35
102
{ACAD_REACTORS
330
2A
102
}
102
{ACAD_XDICTIONARY
360
B3
102
}
330
2A
100
AcDbVisualStyle
  2
Dim
 70
    11
 71
     2
 72
     2
 73
     0
 90
        0
 40
-0.6
 41
-30.0
 62
     5
 63
     7
421
 16777215
 74
     1
 91
        4
 64
     7
 65
   257
 75
     1
175
     1
 42
1.0
 92
        8
 66
     7
 43
1.0
 76
     1
 77
     6
 78
     2
 67
     7
 79
     5
170
     0
171
     0
290
     0
174
     0
 93
        1
 44
-50.0
173
     0
291
     1
 45
0.0
  0
VISUALSTYLE
  5
39
102
{ACAD_REACTORS
330
2A
102
}
102
{ACAD_XDICTIONARY
360
BB
102
}
330
2A
100
AcDbVisualStyle
  2
Facepattern
 70
    15
 71
     2
 72
     2
 73
     0
 90
        0
 40
-0.6
 41
-30.0
 62
     5
 63
     7
421
 16777215
 74
     1
 91
        4
 64
     7
 65
   257
 75
     1
175
     1
 42
1.0
 92
        8
 66
     7
 43
1.0
 76
     1
 77
     6
 78
     2
 67
     7
 79
     5
170
     0
171
     0
290
     0
174
     0
 93
        1
 44
0.0
173
     0
291
     1
 45
0.0
  0
VISUALSTYLE
  5
2B
102
{ACAD_REACTORS
330
2A
102
}
102
{ACAD_XDICTIONARY
360
9F
102
}
330
2A
100
AcDbVisualStyle
  2
Flat
 70
     0
 71
     2
 72
     1
 73
     1
 90
        2
 40
-0.6
 41
30.0
 62
     5
 63
     7
421
 16777215
 74
     0
 91
        4
 64
     7
 65
   257
 75
     1
175
     1
 42
1.0
 92
        8
 66
     7
 43
1.0
 76
     1
 77
     6
 78
     2
 67
     7
 79
     5
170
     0
171
     0
290
     0
174
     0
 93
       13
 44
0.0
173
     0
291
     1
 45
0.0
  0
VISUALSTYLE
  5
2C
102
{ACAD_REACTORS
330
2A
102
}
102
{ACAD_XDICTIONARY
360
A1
102
}
330
2A
100
AcDbVisualStyle
  2
FlatWithEdges
 70
     1
 71
     2
 72
     1
 73
     1
 90
        2
 40
-0.6
 41
30.0
 62
     5
 63
     7
421
 16777215
 74
     1
 91
        4
 64
     7
 65
   257
 75
     1
175
     1
 42
1.0
 92
        0
 66
   257
 43
1.0
 76
     1
 77
     6
 78
     2
 67
     7
 79
     5
170
     0
171
     0
290
     0
174
     0
 93
       13
 44
0.0
173
     0
291
     1
 45
0.0
  0
VISUALSTYLE
  5
2D
102
{ACAD_REACTORS
330
2A
102
}
102
{ACAD_XDICTIONARY
360
A3
102
}
330
2A
100
AcDbVisualStyle
  2
Gouraud
 70
     2
 71
     2
 72
     2
 73
     1
 90
        2
 40
-0.6
 41
30.0
 62
     5
 63
     7
421
 16777215
 74
     0
 91
        4
 64
     7
 65
   257
 75
     1
175
     1
 42
1.0
 92
        0
 66
     7
 43
1.0
 76
     1
 77
     6
 78
     2
 67
     7
 79
     5
170
     0
171
     0
290
     0
174
     0
 93
       13
 44
0.0
173
     0
291
     1
 45
0.0
  0
VISUALSTYLE
  5
2E
102
{ACAD_REACTORS
330
2A
102
}
102
{ACAD_XDICTIONARY
360
A5
102
}
330
2A
100
AcDbVisualStyle
  2
GouraudWithEdges
 70
     3
 71
     2
 72
     2
 73
     1
 90
        2
 40
-0.6
 41
30.0
 62
     5
 63
     7
421
 16777215
 74
     1
 91
        4
 64
     7
 65
   257
 75
     1
175
     1
 42
1.0
 92
        0
 66
   257
 43
1.0
 76
     1
 77
     6
 78
     2
 67
     7
 79
     5
170
     0
171
     0
290
     0
174
     0
 93
       13
 44
0.0
173
     0
291
     1
 45
0.0
  0
VISUALSTYLE
  5
38
102
{ACAD_REACTORS
330
2A
102
}
102
{ACAD_XDICTIONARY
360
B9
102
}
330
2A
100
AcDbVisualStyle
  2
Linepattern
 70
    14
 71
     2
 72
     2
 73
     0
 90
        0
 40
-0.6
 41
-30.0
 62
     5
 63
     7
421
 16777215
 74
     1
 91
        4
 64
     7
 65
   257
 75
     7
175
     7
 42
1.0
 92
        8
 66
     7
 43
1.0
 76
     1
 77
     6
 78
     2
 67
     7
 79
     5
170
     0
171
     0
290
     0
174
     0
 93
        1
 44
0.0
173
     0
291
     1
 45
0.0
  0
VISUALSTYLE
  5
33
102
{ACAD_REACTORS
330
2A
102
}
102
{ACAD_XDICTIONARY
360
AF
102
}
330
2A
100
AcDbVisualStyle
  2
Realistic
 70
     8
 71
     2
 72
     2
 73
     0
 90
        0
 40
-0.6
 41
-30.0
 62
     5
 63
     7
421
 16777215
 74
     1
 91
        0
 64
     7
 65
   257
 75
     1
175
     1
 42
1.0
 92
        8
 66
     8
424
  7895160
 43
1.0
 76
     1
 77
     6
 78
     2
 67
     7
 79
     5
170
     0
171
     0
290
     0
174
     0
 93
       13
 44
0.0
173
     0
291
     0
 45
0.0
  0
VISUALSTYLE
  5
37
102
{ACAD_REACTORS
330
2A
102
}
102
{ACAD_XDICTIONARY
360
B7
102
}
330
2A
100
AcDbVisualStyle
  2
Thicken
 70
    13
 71
     2
 72
     2
 73
     0
 90
        0
 40
-0.6
 41
-30.0
 62
     5
 63
     7
421
 16777215
 74
     1
 91
        4
 64
     7
 65
   257
 75
     1
175
     1
 42
1.0
 92
       12
 66
     7
 43
1.0
 76
     1
 77
     6
 78
     2
 67
     7
 79
     5
170
     0
171
     0
290
     0
174
     0
 93
        1
 44
0.0
173
     0
291
     1
 45
0.0
  0
DICTIONARY
  5
A7
330
2F
100
AcDbDictionary
280
     1
281
     1
  3
ACAD_XREC_ROUNDTRIP
360
A8
  0
DICTIONARY
  5
AB
330
31
100
AcDbDictionary
280
     1
281
     1
  3
ACAD_XREC_ROUNDTRIP
360
AC
  0
DICTIONARY
  5
A9
330
30
100
AcDbDictionary
280
     1
281
     1
  3
ACAD_XREC_ROUNDTRIP
360
AA
  0
DICTIONARY
  5
AD
330
32
100
AcDbDictionary
280
     1
281
     1
  3
ACAD_XREC_ROUNDTRIP
360
AE
  0
DICTIONARY
  5
B5
330
36
100
AcDbDictionary
280
     1
281
     1
  3
ACAD_XREC_ROUNDTRIP
360
B6
  0
DICTIONARY
  5
BD
330
3A
100
AcDbDictionary
280
     1
281
     1
  3
ACAD_XREC_ROUNDTRIP
360
BE
  0
DICTIONARY
  5
B1
330
34
100
AcDbDictionary
280
     1
281
     1
  3
ACAD_XREC_ROUNDTRIP
360
B2
  0
DICTIONARY
  5
B3
330
35
100
AcDbDictionary
280
     1
281
     1
  3
ACAD_XREC_ROUNDTRIP
360
B4
  0
DICTIONARY
  5
BB
330
39
100
AcDbDictionary
280
     1
281
     1
  3
ACAD_XREC_ROUNDTRIP
360
BC
  0
DICTIONARY
  5
9F
330
2B
100
AcDbDictionary
280
     1
281
     1
  3
ACAD_XREC_ROUNDTRIP
360
A0
  0
DICTIONARY
  5
A1
330
2C
100
AcDbDictionary
280
     1
281
     1
  3
ACAD_XREC_ROUNDTRIP
360
A2
  0
DICTIONARY
  5
A3
330
2D
100
AcDbDictionary
280
     1
281
     1
  3
ACAD_XREC_ROUNDTRIP
360
A4
  0
DICTIONARY
  5
A5
330
2E
100
AcDbDictionary
280
     1
281
     1
  3
ACAD_XREC_ROUNDTRIP
360
A6
  0
DICTIONARY
  5
B9
330
38
100
AcDbDictionary
280
     1
281
     1
  3
ACAD_XREC_ROUNDTRIP
360
BA
  0
DICTIONARY
  5
AF
330
33
100
AcDbDictionary
280
     1
281
     1
  3
ACAD_XREC_ROUNDTRIP
360
B0
  0
DICTIONARY
  5
B7
330
37
100
AcDbDictionary
280
     1
281
     1
  3
ACAD_XREC_ROUNDTRIP
360
B8
  0
XRECORD
  5
A8
102
{ACAD_REACTORS
330
A7
102
}
330
A7
100
AcDbXrecord
280
     1
102
RTVSPropertyOp0
 70
     1
102
RTVSPropertyOp1
 70
     1
102
RTVSPropertyOp2
 70
     1
102
RTVSPropertyOp3
 70
     1
102
RTVSPropertyOp4
 70
     1
102
RTVSPropertyOp5
 70
     1
102
RTVSPropertyOp6
 70
     1
102
RTVSPropertyOp7
 70
     1
102
RTVSPropertyOp8
 70
     1
102
RTVSPropertyOp9
 70
     1
102
RTVSPropertyOp10
 70
     1
102
RTVSPropertyOp11
 70
     1
102
RTVSPropertyOp12
 70
     1
102
RTVSPropertyOp13
 70
     1
102
RTVSPropertyOp14
 70
     1
102
RTVSPropertyOp15
 70
     1
102
RTVSPropertyOp16
 70
     1
102
RTVSPropertyOp17
 70
     1
102
RTVSPropertyOp18
 70
     1
102
RTVSPropertyOp19
 70
     1
102
RTVSPropertyOp20
 70
     1
102
RTVSPropertyOp21
 70
     1
102
RTVSPropertyOp22
 70
     1
102
RTVSPropertyOp23
 70
     1
102
RTVSPropertyOp24
 70
     1
102
RTVSPropertyOp25
 70
     1
102
RTVSPropertyOp26
 70
     1
102
RTVSPropertyOp27
 70
     1
102
RTVSPropertyOp28
 70
     1
102
RTVSPropertyOp29
 70
     1
102
RTVSPropertyOp30
 70
     1
102
RTVSPropertyOp31
 70
     1
102
RTVSPropertyOp32
 70
     1
  0
XRECORD
  5
AC
102
{ACAD_REACTORS
330
AB
102
}
330
AB
100
AcDbXrecord
280
     1
102
RTVSPropertyOp0
 70
     1
102
RTVSPropertyOp1
 70
     1
102
RTVSPropertyOp2
 70
     1
102
RTVSPropertyOp3
 70
     1
102
RTVSPropertyOp4
 70
     1
102
RTVSPropertyOp5
 70
     1
102
RTVSPropertyOp6
 70
     1
102
RTVSPropertyOp7
 70
     1
102
RTVSPropertyOp8
 70
     1
102
RTVSPropertyOp9
 70
     1
102
RTVSPropertyOp10
 70
     1
102
RTVSPropertyOp11
 70
     1
102
RTVSPropertyOp12
 70
     1
102
RTVSPropertyOp13
 70
     1
102
RTVSPropertyOp14
 70
     1
102
RTVSPropertyOp15
 70
     1
102
RTVSPropertyOp16
 70
     1
102
RTVSPropertyOp17
 70
     1
102
RTVSPropertyOp18
 70
     1
102
RTVSPropertyOp19
 70
     1
102
RTVSPropertyOp20
 70
     1
102
RTVSPropertyOp21
 70
     1
102
RTVSPropertyOp22
 70
     1
102
RTVSPropertyOp23
 70
     1
102
RTVSPropertyOp24
 70
     1
102
RTVSPropertyOp25
 70
     1
102
RTVSPropertyOp26
 70
     1
102
RTVSPropertyOp27
 70
     1
102
RTVSPropertyOp28
 70
     1
102
RTVSPropertyOp29
 70
     1
102
RTVSPropertyOp30
 70
     1
102
RTVSPropertyOp31
 70
     1
102
RTVSPropertyOp32
 70
     1
  0
XRECORD
  5
AA
102
{ACAD_REACTORS
330
A9
102
}
330
A9
100
AcDbXrecord
280
     1
102
RTVSPropertyOp0
 70
     1
102
RTVSPropertyOp1
 70
     1
102
RTVSPropertyOp2
 70
     1
102
RTVSPropertyOp3
 70
     1
102
RTVSPropertyOp4
 70
     1
102
RTVSPropertyOp5
 70
     1
102
RTVSPropertyOp6
 70
     1
102
RTVSPropertyOp7
 70
     1
102
RTVSPropertyOp8
 70
     1
102
RTVSPropertyOp9
 70
     1
102
RTVSPropertyOp10
 70
     1
102
RTVSPropertyOp11
 70
     1
102
RTVSPropertyOp12
 70
     1
102
RTVSPropertyOp13
 70
     1
102
RTVSPropertyOp14
 70
     1
102
RTVSPropertyOp15
 70
     1
102
RTVSPropertyOp16
 70
     1
102
RTVSPropertyOp17
 70
     1
102
RTVSPropertyOp18
 70
     1
102
RTVSPropertyOp19
 70
     1
102
RTVSPropertyOp20
 70
     1
102
RTVSPropertyOp21
 70
     1
102
RTVSPropertyOp22
 70
     1
102
RTVSPropertyOp23
 70
     1
102
RTVSPropertyOp24
 70
     1
102
RTVSPropertyOp25
 70
     1
102
RTVSPropertyOp26
 70
     1
102
RTVSPropertyOp27
 70
     1
102
RTVSPropertyOp28
 70
     1
102
RTVSPropertyOp29
 70
     1
102
RTVSPropertyOp30
 70
     1
102
RTVSPropertyOp31
 70
     1
102
RTVSPropertyOp32
 70
     1
  0
XRECORD
  5
AE
102
{ACAD_REACTORS
330
AD
102
}
330
AD
100
AcDbXrecord
280
     1
102
RTVSPropertyOp0
 70
     1
102
RTVSPropertyOp1
 70
     1
102
RTVSPropertyOp2
 70
     1
102
RTVSPropertyOp3
 70
     1
102
RTVSPropertyOp4
 70
     1
102
RTVSPropertyOp5
 70
     1
102
RTVSPropertyOp6
 70
     1
102
RTVSPropertyOp7
 70
     1
102
RTVSPropertyOp8
 70
     1
102
RTVSPropertyOp9
 70
     1
102
RTVSPropertyOp10
 70
     1
102
RTVSPropertyOp11
 70
     1
102
RTVSPropertyOp12
 70
     1
102
RTVSPropertyOp13
 70
     1
102
RTVSPropertyOp14
 70
     1
102
RTVSPropertyOp15
 70
     1
102
RTVSPropertyOp16
 70
     1
102
RTVSPropertyOp17
 70
     1
102
RTVSPropertyOp18
 70
     1
102
RTVSPropertyOp19
 70
     1
102
RTVSPropertyOp20
 70
     1
102
RTVSPropertyOp21
 70
     1
102
RTVSPropertyOp22
 70
     1
102
RTVSPropertyOp23
 70
     1
102
RTVSPropertyOp24
 70
     1
102
RTVSPropertyOp25
 70
     1
102
RTVSPropertyOp26
 70
     1
102
RTVSPropertyOp27
 70
     1
102
RTVSPropertyOp28
 70
     1
102
RTVSPropertyOp29
 70
     1
102
RTVSPropertyOp30
 70
     1
102
RTVSPropertyOp31
 70
     1
102
RTVSPropertyOp32
 70
     1
  0
XRECORD
  5
B6
102
{ACAD_REACTORS
330
B5
102
}
330
B5
100
AcDbXrecord
280
     1
102
RTVSPropertyOp0
 70
     1
102
RTVSPropertyOp1
 70
     1
102
RTVSPropertyOp2
 70
     1
102
RTVSPropertyOp3
 70
     1
102
RTVSPropertyOp4
 70
     1
102
RTVSPropertyOp5
 70
     1
102
RTVSPropertyOp6
 70
     1
102
RTVSPropertyOp7
 70
     1
102
RTVSPropertyOp8
 70
     1
102
RTVSPropertyOp9
 70
     1
102
RTVSPropertyOp10
 70
     1
102
RTVSPropertyOp11
 70
     1
102
RTVSPropertyOp12
 70
     1
102
RTVSPropertyOp13
 70
     1
102
RTVSPropertyOp14
 70
     1
102
RTVSPropertyOp15
 70
     1
102
RTVSPropertyOp16
 70
     1
102
RTVSPropertyOp17
 70
     1
102
RTVSPropertyOp18
 70
     1
102
RTVSPropertyOp19
 70
     1
102
RTVSPropertyOp20
 70
     1
102
RTVSPropertyOp21
 70
     1
102
RTVSPropertyOp22
 70
     1
102
RTVSPropertyOp23
 70
     1
102
RTVSPropertyOp24
 70
     1
102
RTVSPropertyOp25
 70
     1
102
RTVSPropertyOp26
 70
     1
102
RTVSPropertyOp27
 70
     1
102
RTVSPropertyOp28
 70
     1
102
RTVSPropertyOp29
 70
     1
102
RTVSPropertyOp30
 70
     1
102
RTVSPropertyOp31
 70
     1
102
RTVSPropertyOp32
 70
     1
  0
XRECORD
  5
BE
102
{ACAD_REACTORS
330
BD
102
}
330
BD
100
AcDbXrecord
280
     1
102
RTVSPropertyOp0
 70
     1
102
RTVSPropertyOp1
 70
     1
102
RTVSPropertyOp2
 70
     1
102
RTVSPropertyOp3
 70
     1
102
RTVSPropertyOp4
 70
     1
102
RTVSPropertyOp5
 70
     1
102
RTVSPropertyOp6
 70
     1
102
RTVSPropertyOp7
 70
     1
102
RTVSPropertyOp8
 70
     1
102
RTVSPropertyOp9
 70
     1
102
RTVSPropertyOp10
 70
     1
102
RTVSPropertyOp11
 70
     1
102
RTVSPropertyOp12
 70
     1
102
RTVSPropertyOp13
 70
     1
102
RTVSPropertyOp14
 70
     1
102
RTVSPropertyOp15
 70
     1
102
RTVSPropertyOp16
 70
     1
102
RTVSPropertyOp17
 70
     1
102
RTVSPropertyOp18
 70
     1
102
RTVSPropertyOp19
 70
     1
102
RTVSPropertyOp20
 70
     1
102
RTVSPropertyOp21
 70
     1
102
RTVSPropertyOp22
 70
     1
102
RTVSPropertyOp23
 70
     1
102
RTVSPropertyOp24
 70
     1
102
RTVSPropertyOp25
 70
     1
102
RTVSPropertyOp26
 70
     1
102
RTVSPropertyOp27
 70
     1
102
RTVSPropertyOp28
 70
     1
102
RTVSPropertyOp29
 70
     1
102
RTVSPropertyOp30
 70
     1
102
RTVSPropertyOp31
 70
     1
102
RTVSPropertyOp32
 70
     1
  0
XRECORD
  5
B2
102
{ACAD_REACTORS
330
B1
102
}
330
B1
100
AcDbXrecord
280
     1
102
RTVSPropertyOp0
 70
     1
102
RTVSPropertyOp1
 70
     1
102
RTVSPropertyOp2
 70
     1
102
RTVSPropertyOp3
 70
     1
102
RTVSPropertyOp4
 70
     1
102
RTVSPropertyOp5
 70
     1
102
RTVSPropertyOp6
 70
     1
102
RTVSPropertyOp7
 70
     1
102
RTVSPropertyOp8
 70
     1
102
RTVSPropertyOp9
 70
     1
102
RTVSPropertyOp10
 70
     1
102
RTVSPropertyOp11
 70
     1
102
RTVSPropertyOp12
 70
     1
102
RTVSPropertyOp13
 70
     1
102
RTVSPropertyOp14
 70
     1
102
RTVSPropertyOp15
 70
     1
102
RTVSPropertyOp16
 70
     1
102
RTVSPropertyOp17
 70
     1
102
RTVSPropertyOp18
 70
     1
102
RTVSPropertyOp19
 70
     1
102
RTVSPropertyOp20
 70
     1
102
RTVSPropertyOp21
 70
     1
102
RTVSPropertyOp22
 70
     1
102
RTVSPropertyOp23
 70
     1
102
RTVSPropertyOp24
 70
     1
102
RTVSPropertyOp25
 70
     1
102
RTVSPropertyOp26
 70
     1
102
RTVSPropertyOp27
 70
     1
102
RTVSPropertyOp28
 70
     1
102
RTVSPropertyOp29
 70
     1
102
RTVSPropertyOp30
 70
     1
102
RTVSPropertyOp31
 70
     1
102
RTVSPropertyOp32
 70
     1
  0
XRECORD
  5
B4
102
{ACAD_REACTORS
330
B3
102
}
330
B3
100
AcDbXrecord
280
     1
102
RTVSPropertyOp0
 70
     1
102
RTVSPropertyOp1
 70
     1
102
RTVSPropertyOp2
 70
     1
102
RTVSPropertyOp3
 70
     1
102
RTVSPropertyOp4
 70
     1
102
RTVSPropertyOp5
 70
     1
102
RTVSPropertyOp6
 70
     1
102
RTVSPropertyOp7
 70
     1
102
RTVSPropertyOp8
 70
     1
102
RTVSPropertyOp9
 70
     1
102
RTVSPropertyOp10
 70
     1
102
RTVSPropertyOp11
 70
     1
102
RTVSPropertyOp12
 70
     1
102
RTVSPropertyOp13
 70
     1
102
RTVSPropertyOp14
 70
     1
102
RTVSPropertyOp15
 70
     1
102
RTVSPropertyOp16
 70
     1
102
RTVSPropertyOp17
 70
     1
102
RTVSPropertyOp18
 70
     1
102
RTVSPropertyOp19
 70
     1
102
RTVSPropertyOp20
 70
     1
102
RTVSPropertyOp21
 70
     1
102
RTVSPropertyOp22
 70
     1
102
RTVSPropertyOp23
 70
     1
102
RTVSPropertyOp24
 70
     1
102
RTVSPropertyOp25
 70
     1
102
RTVSPropertyOp26
 70
     1
102
RTVSPropertyOp27
 70
     1
102
RTVSPropertyOp28
 70
     1
102
RTVSPropertyOp29
 70
     1
102
RTVSPropertyOp30
 70
     1
102
RTVSPropertyOp31
 70
     1
102
RTVSPropertyOp32
 70
     1
  0
XRECORD
  5
BC
102
{ACAD_REACTORS
330
BB
102
}
330
BB
100
AcDbXrecord
280
     1
102
RTVSPropertyOp0
 70
     1
102
RTVSPropertyOp1
 70
     1
102
RTVSPropertyOp2
 70
     1
102
RTVSPropertyOp3
 70
     1
102
RTVSPropertyOp4
 70
     1
102
RTVSPropertyOp5
 70
     1
102
RTVSPropertyOp6
 70
     1
102
RTVSPropertyOp7
 70
     1
102
RTVSPropertyOp8
 70
     1
102
RTVSPropertyOp9
 70
     1
102
RTVSPropertyOp10
 70
     1
102
RTVSPropertyOp11
 70
     1
102
RTVSPropertyOp12
 70
     1
102
RTVSPropertyOp13
 70
     1
102
RTVSPropertyOp14
 70
     1
102
RTVSPropertyOp15
 70
     1
102
RTVSPropertyOp16
 70
     1
102
RTVSPropertyOp17
 70
     1
102
RTVSPropertyOp18
 70
     1
102
RTVSPropertyOp19
 70
     1
102
RTVSPropertyOp20
 70
     1
102
RTVSPropertyOp21
 70
     1
102
RTVSPropertyOp22
 70
     1
102
RTVSPropertyOp23
 70
     1
102
RTVSPropertyOp24
 70
     1
102
RTVSPropertyOp25
 70
     1
102
RTVSPropertyOp26
 70
     1
102
RTVSPropertyOp27
 70
     1
102
RTVSPropertyOp28
 70
     1
102
RTVSPropertyOp29
 70
     1
102
RTVSPropertyOp30
 70
     1
102
RTVSPropertyOp31
 70
     1
102
RTVSPropertyOp32
 70
     1
  0
XRECORD
  5
A0
102
{ACAD_REACTORS
330
9F
102
}
330
9F
100
AcDbXrecord
280
     1
102
RTVSPropertyOp0
 70
     1
102
RTVSPropertyOp1
 70
     1
102
RTVSPropertyOp2
 70
     1
102
RTVSPropertyOp3
 70
     1
102
RTVSPropertyOp4
 70
     1
102
RTVSPropertyOp5
 70
     1
102
RTVSPropertyOp6
 70
     1
102
RTVSPropertyOp7
 70
     1
102
RTVSPropertyOp8
 70
     1
102
RTVSPropertyOp9
 70
     1
102
RTVSPropertyOp10
 70
     1
102
RTVSPropertyOp11
 70
     1
102
RTVSPropertyOp12
 70
     1
102
RTVSPropertyOp13
 70
     1
102
RTVSPropertyOp14
 70
     1
102
RTVSPropertyOp15
 70
     1
102
RTVSPropertyOp16
 70
     1
102
RTVSPropertyOp17
 70
     1
102
RTVSPropertyOp18
 70
     1
102
RTVSPropertyOp19
 70
     1
102
RTVSPropertyOp20
 70
     1
102
RTVSPropertyOp21
 70
     1
102
RTVSPropertyOp22
 70
     1
102
RTVSPropertyOp23
 70
     1
102
RTVSPropertyOp24
 70
     1
102
RTVSPropertyOp25
 70
     1
102
RTVSPropertyOp26
 70
     1
102
RTVSPropertyOp27
 70
     1
102
RTVSPropertyOp28
 70
     1
102
RTVSPropertyOp29
 70
     1
102
RTVSPropertyOp30
 70
     1
102
RTVSPropertyOp31
 70
     1
102
RTVSPropertyOp32
 70
     1
  0
XRECORD
  5
A2
102
{ACAD_REACTORS
330
A1
102
}
330
A1
100
AcDbXrecord
280
     1
102
RTVSPropertyOp0
 70
     1
102
RTVSPropertyOp1
 70
     1
102
RTVSPropertyOp2
 70
     1
102
RTVSPropertyOp3
 70
     1
102
RTVSPropertyOp4
 70
     1
102
RTVSPropertyOp5
 70
     1
102
RTVSPropertyOp6
 70
     1
102
RTVSPropertyOp7
 70
     1
102
RTVSPropertyOp8
 70
     1
102
RTVSPropertyOp9
 70
     1
102
RTVSPropertyOp10
 70
     1
102
RTVSPropertyOp11
 70
     1
102
RTVSPropertyOp12
 70
     1
102
RTVSPropertyOp13
 70
     1
102
RTVSPropertyOp14
 70
     1
102
RTVSPropertyOp15
 70
     1
102
RTVSPropertyOp16
 70
     1
102
RTVSPropertyOp17
 70
     1
102
RTVSPropertyOp18
 70
     1
102
RTVSPropertyOp19
 70
     1
102
RTVSPropertyOp20
 70
     1
102
RTVSPropertyOp21
 70
     1
102
RTVSPropertyOp22
 70
     1
102
RTVSPropertyOp23
 70
     1
102
RTVSPropertyOp24
 70
     1
102
RTVSPropertyOp25
 70
     1
102
RTVSPropertyOp26
 70
     1
102
RTVSPropertyOp27
 70
     1
102
RTVSPropertyOp28
 70
     1
102
RTVSPropertyOp29
 70
     1
102
RTVSPropertyOp30
 70
     1
102
RTVSPropertyOp31
 70
     1
102
RTVSPropertyOp32
 70
     1
  0
XRECORD
  5
A4
102
{ACAD_REACTORS
330
A3
102
}
330
A3
100
AcDbXrecord
280
     1
102
RTVSPropertyOp0
 70
     1
102
RTVSPropertyOp1
 70
     1
102
RTVSPropertyOp2
 70
     1
102
RTVSPropertyOp3
 70
     1
102
RTVSPropertyOp4
 70
     1
102
RTVSPropertyOp5
 70
     1
102
RTVSPropertyOp6
 70
     1
102
RTVSPropertyOp7
 70
     1
102
RTVSPropertyOp8
 70
     1
102
RTVSPropertyOp9
 70
     1
102
RTVSPropertyOp10
 70
     1
102
RTVSPropertyOp11
 70
     1
102
RTVSPropertyOp12
 70
     1
102
RTVSPropertyOp13
 70
     1
102
RTVSPropertyOp14
 70
     1
102
RTVSPropertyOp15
 70
     1
102
RTVSPropertyOp16
 70
     1
102
RTVSPropertyOp17
 70
     1
102
RTVSPropertyOp18
 70
     1
102
RTVSPropertyOp19
 70
     1
102
RTVSPropertyOp20
 70
     1
102
RTVSPropertyOp21
 70
     1
102
RTVSPropertyOp22
 70
     1
102
RTVSPropertyOp23
 70
     1
102
RTVSPropertyOp24
 70
     1
102
RTVSPropertyOp25
 70
     1
102
RTVSPropertyOp26
 70
     1
102
RTVSPropertyOp27
 70
     1
102
RTVSPropertyOp28
 70
     1
102
RTVSPropertyOp29
 70
     1
102
RTVSPropertyOp30
 70
     1
102
RTVSPropertyOp31
 70
     1
102
RTVSPropertyOp32
 70
     1
  0
XRECORD
  5
A6
102
{ACAD_REACTORS
330
A5
102
}
330
A5
100
AcDbXrecord
280
     1
102
RTVSPropertyOp0
 70
     1
102
RTVSPropertyOp1
 70
     1
102
RTVSPropertyOp2
 70
     1
102
RTVSPropertyOp3
 70
     1
102
RTVSPropertyOp4
 70
     1
102
RTVSPropertyOp5
 70
     1
102
RTVSPropertyOp6
 70
     1
102
RTVSPropertyOp7
 70
     1
102
RTVSPropertyOp8
 70
     1
102
RTVSPropertyOp9
 70
     1
102
RTVSPropertyOp10
 70
     1
102
RTVSPropertyOp11
 70
     1
102
RTVSPropertyOp12
 70
     1
102
RTVSPropertyOp13
 70
     1
102
RTVSPropertyOp14
 70
     1
102
RTVSPropertyOp15
 70
     1
102
RTVSPropertyOp16
 70
     1
102
RTVSPropertyOp17
 70
     1
102
RTVSPropertyOp18
 70
     1
102
RTVSPropertyOp19
 70
     1
102
RTVSPropertyOp20
 70
     1
102
RTVSPropertyOp21
 70
     1
102
RTVSPropertyOp22
 70
     1
102
RTVSPropertyOp23
 70
     1
102
RTVSPropertyOp24
 70
     1
102
RTVSPropertyOp25
 70
     1
102
RTVSPropertyOp26
 70
     1
102
RTVSPropertyOp27
 70
     1
102
RTVSPropertyOp28
 70
     1
102
RTVSPropertyOp29
 70
     1
102
RTVSPropertyOp30
 70
     1
102
RTVSPropertyOp31
 70
     1
102
RTVSPropertyOp32
 70
     1
  0
XRECORD
  5
BA
102
{ACAD_REACTORS
330
B9
102
}
330
B9
100
AcDbXrecord
280
     1
102
RTVSPropertyOp0
 70
     1
102
RTVSPropertyOp1
 70
     1
102
RTVSPropertyOp2
 70
     1
102
RTVSPropertyOp3
 70
     1
102
RTVSPropertyOp4
 70
     1
102
RTVSPropertyOp5
 70
     1
102
RTVSPropertyOp6
 70
     1
102
RTVSPropertyOp7
 70
     1
102
RTVSPropertyOp8
 70
     1
102
RTVSPropertyOp9
 70
     1
102
RTVSPropertyOp10
 70
     1
102
RTVSPropertyOp11
 70
     1
102
RTVSPropertyOp12
 70
     1
102
RTVSPropertyOp13
 70
     1
102
RTVSPropertyOp14
 70
     1
102
RTVSPropertyOp15
 70
     1
102
RTVSPropertyOp16
 70
     1
102
RTVSPropertyOp17
 70
     1
102
RTVSPropertyOp18
 70
     1
102
RTVSPropertyOp19
 70
     1
102
RTVSPropertyOp20
 70
     1
102
RTVSPropertyOp21
 70
     1
102
RTVSPropertyOp22
 70
     1
102
RTVSPropertyOp23
 70
     1
102
RTVSPropertyOp24
 70
     1
102
RTVSPropertyOp25
 70
     1
102
RTVSPropertyOp26
 70
     1
102
RTVSPropertyOp27
 70
     1
102
RTVSPropertyOp28
 70
     1
102
RTVSPropertyOp29
 70
     1
102
RTVSPropertyOp30
 70
     1
102
RTVSPropertyOp31
 70
     1
102
RTVSPropertyOp32
 70
     1
  0
XRECORD
  5
B0
102
{ACAD_REACTORS
330
AF
102
}
330
AF
100
AcDbXrecord
280
     1
102
RTVSPropertyOp0
 70
     1
102
RTVSPropertyOp1
 70
     1
102
RTVSPropertyOp2
 70
     1
102
RTVSPropertyOp3
 70
     1
102
RTVSPropertyOp4
 70
     1
102
RTVSPropertyOp5
 70
     1
102
RTVSPropertyOp6
 70
     1
102
RTVSPropertyOp7
 70
     1
102
RTVSPropertyOp8
 70
     1
102
RTVSPropertyOp9
 70
     1
102
RTVSPropertyOp10
 70
     1
102
RTVSPropertyOp11
 70
     1
102
RTVSPropertyOp12
 70
     1
102
RTVSPropertyOp13
 70
     1
102
RTVSPropertyOp14
 70
     1
102
RTVSPropertyOp15
 70
     1
102
RTVSPropertyOp16
 70
     1
102
RTVSPropertyOp17
 70
     1
102
RTVSPropertyOp18
 70
     1
102
RTVSPropertyOp19
 70
     1
102
RTVSPropertyOp20
 70
     1
102
RTVSPropertyOp21
 70
     1
102
RTVSPropertyOp22
 70
     1
102
RTVSPropertyOp23
 70
     1
102
RTVSPropertyOp24
 70
     1
102
RTVSPropertyOp25
 70
     1
102
RTVSPropertyOp26
 70
     1
102
RTVSPropertyOp27
 70
     1
102
RTVSPropertyOp28
 70
     1
102
RTVSPropertyOp29
 70
     1
102
RTVSPropertyOp30
 70
     1
102
RTVSPropertyOp31
 70
     1
102
RTVSPropertyOp32
 70
     1
  0
XRECORD
  5
B8
102
{ACAD_REACTORS
330
B7
102
}
330
B7
100
AcDbXrecord
280
     1
102
RTVSPropertyOp0
 70
     1
102
RTVSPropertyOp1
 70
     1
102
RTVSPropertyOp2
 70
     1
102
RTVSPropertyOp3
 70
     1
102
RTVSPropertyOp4
 70
     1
102
RTVSPropertyOp5
 70
     1
102
RTVSPropertyOp6
 70
     1
102
RTVSPropertyOp7
 70
     1
102
RTVSPropertyOp8
 70
     1
102
RTVSPropertyOp9
 70
     1
102
RTVSPropertyOp10
 70
     1
102
RTVSPropertyOp11
 70
     1
102
RTVSPropertyOp12
 70
     1
102
RTVSPropertyOp13
 70
     1
102
RTVSPropertyOp14
 70
     1
102
RTVSPropertyOp15
 70
     1
102
RTVSPropertyOp16
 70
     1
102
RTVSPropertyOp17
 70
     1
102
RTVSPropertyOp18
 70
     1
102
RTVSPropertyOp19
 70
     1
102
RTVSPropertyOp20
 70
     1
102
RTVSPropertyOp21
 70
     1
102
RTVSPropertyOp22
 70
     1
102
RTVSPropertyOp23
 70
     1
102
RTVSPropertyOp24
 70
     1
102
RTVSPropertyOp25
 70
     1
102
RTVSPropertyOp26
 70
     1
102
RTVSPropertyOp27
 70
     1
102
RTVSPropertyOp28
 70
     1
102
RTVSPropertyOp29
 70
     1
102
RTVSPropertyOp30
 70
     1
102
RTVSPropertyOp31
 70
     1
102
RTVSPropertyOp32
 70
     1
  0
ENDSEC
  0
EOF
