  0
SECTION
  2
HEADER
  9
$ACADVER
  1
AC1021
  9
$ACADMAINTVER
 70
    25
  9
$DWGCODEPAGE
  3
ANSI_1252
  9
$INSBASE
 10
0.0
 20
0.0
 30
0.0
  9
$EXTMIN
 10
8.503
 20
-114.7127
 30
0.0
  9
$EXTMAX
 10
186.0394
 20
132.4935
 30
0.0
  9
$LIMMIN
 10
0.0
 20
0.0
  9
$LIMMAX
 10
12.0
 20
9.0
  9
$ORTHOMODE
 70
     0
  9
$REGENMODE
 70
     1
  9
$FILLMODE
 70
     1
  9
$QTEXTMODE
 70
     0
  9
$MIRRTEXT
 70
     1
  9
$LTSCALE
 40
1.0
  9
$ATTMODE
 70
     1
  9
$TEXTSIZE
 40
0.2
  9
$TRACEWID
 40
0.05
  9
$TEXTSTYLE
  7
Standard
  9
$CLAYER
  8
0
  9
$CELTYPE
  6
ByLayer
  9
$CECOLOR
 62
   256
  9
$CELTSCALE
 40
1.0
  9
$DISPSILH
 70
     0
  9
$DIMSCALE
 40
1.0
  9
$DIMASZ
 40
0.18
  9
$DIMEXO
 40
0.0625
  9
$DIMDLI
 40
0.38
  9
$DIMRND
 40
0.0
  9
$DIMDLE
 40
0.0
  9
$DIMEXE
 40
0.18
  9
$DIMTP
 40
0.0
  9
$DIMTM
 40
0.0
  9
$DIMTXT
 40
0.18
  9
$DIMCEN
 40
0.09
  9
$DIMTSZ
 40
0.0
  9
$DIMTOL
 70
     0
  9
$DIMLIM
 70
     0
  9
$DIMTIH
 70
     1
  9
$DIMTOH
 70
     1
  9
$DIMSE1
 70
     0
  9
$DIMSE2
 70
     0
  9
$DIMTAD
 70
     0
  9
$DIMZIN
 70
     0
  9
$DIMBLK
  1

  9
$DIMASO
 70
     1
  9
$DIMSHO
 70
     1
  9
$DIMPOST
  1

  9
$DIMAPOST
  1

  9
$DIMALT
 70
     0
  9
$DIMALTD
 70
     2
  9
$DIMALTF
 40
25.4
  9
$DIMLFAC
 40
1.0
  9
$DIMTOFL
 70
     0
  9
$DIMTVP
 40
0.0
  9
$DIMTIX
 70
     0
  9
$DIMSOXD
 70
     0
  9
$DIMSAH
 70
     0
  9
$DIMBLK1
  1

  9
$DIMBLK2
  1

  9
$DIMSTYLE
  2
Standard
  9
$DIMCLRD
 70
     0
  9
$DIMCLRE
 70
     0
  9
$DIMCLRT
 70
     0
  9
$DIMTFAC
 40
1.0
  9
$DIMGAP
 40
0.09
  9
$DIMJUST
 70
     0
  9
$DIMSD1
 70
     0
  9
$DIMSD2
 70
     0
  9
$DIMTOLJ
 70
     1
  9
$DIMTZIN
 70
     0
  9
$DIMALTZ
 70
     0
  9
$DIMALTTZ
 70
     0
  9
$DIMUPT
 70
     0
  9
$DIMDEC
 70
     4
  9
$DIMTDEC
 70
     4
  9
$DIMALTU
 70
     2
  9
$DIMALTTD
 70
     2
  9
$DIMTXSTY
  7
Standard
  9
$DIMAUNIT
 70
     0
  9
$DIMADEC
 70
     0
  9
$DIMALTRND
 40
0.0
  9
$DIMAZIN
 70
     0
  9
$DIMDSEP
 70
    46
  9
$DIMATFIT
 70
     3
  9
$DIMFRAC
 70
     0
  9
$DIMLDRBLK
  1

  9
$DIMLUNIT
 70
     2
  9
$DIMLWD
 70
    -2
  9
$DIMLWE
 70
    -2
  9
$DIMTMOVE
 70
     0
  9
$DIMFXL
 40
1.0
  9
$DIMFXLON
 70
     0
  9
$DIMJOGANG
 40
0.7853981633974483
  9
$DIMTFILL
 70
     0
  9
$DIMTFILLCLR
 70
     0
  9
$DIMARCSYM
 70
     0
  9
$DIMLTYPE
  6

  9
$DIMLTEX1
  6

  9
$DIMLTEX2
  6

  9
$LUNITS
 70
     2
  9
$LUPREC
 70
     4
  9
$SKETCHINC
 40
0.1
  9
$FILLETRAD
 40
0.5
  9
$AUNITS
 70
     0
  9
$AUPREC
 70
     0
  9
$MENU
  1
.
  9
$ELEVATION
 40
0.0
  9
$PELEVATION
 40
0.0
  9
$THICKNESS
 40
0.0
  9
$LIMCHECK
 70
     0
  9
$CHAMFERA
 40
0.5
  9
$CHAMFERB
 40
0.5
  9
$CHAMFERC
 40
1.0
  9
$CHAMFERD
 40
0.0
  9
$SKPOLY
 70
     0
  9
$TDCREATE
 40
2458492.677256759
  9
$TDUCREATE
 40
2458492.677256759
  9
$TDUPDATE
 40
2458492.677256875
  9
$TDUUPDATE
 40
2458492.677256875
  9
$TDINDWG
 40
0.0000000116
  9
$TDUSRTIMER
 40
0.0000000116
  9
$USRTIMER
 70
     1
  9
$ANGBASE
 50
0.0
  9
$ANGDIR
 70
     0
  9
$PDMODE
 70
     0
  9
$PDSIZE
 40
0.0
  9
$PLINEWID
 40
0.0
  9
$SPLFRAME
 70
     0
  9
$SPLINETYPE
 70
     6
  9
$SPLINESEGS
 70
     8
  9
$HANDSEED
  5
98
  9
$SURFTAB1
 70
     6
  9
$SURFTAB2
 70
     6
  9
$SURFTYPE
 70
     6
  9
$SURFU
 70
     6
  9
$SURFV
 70
     6
  9
$UCSBASE
  2

  9
$UCSNAME
  2

  9
$UCSORG
 10
0.0
 20
0.0
 30
0.0
  9
$UCSXDIR
 10
1.0
 20
0.0
 30
0.0
  9
$UCSYDIR
 10
0.0
 20
1.0
 30
0.0
  9
$UCSORTHOREF
  2

  9
$UCSORTHOVIEW
 70
     0
  9
$UCSORGTOP
 10
0.0
 20
0.0
 30
0.0
  9
$UCSORGBOTTOM
 10
0.0
 20
0.0
 30
0.0
  9
$UCSORGLEFT
 10
0.0
 20
0.0
 30
0.0
  9
$UCSORGRIGHT
 10
0.0
 20
0.0
 30
0.0
  9
$UCSORGFRONT
 10
0.0
 20
0.0
 30
0.0
  9
$UCSORGBACK
 10
0.0
 20
0.0
 30
0.0
  9
$PUCSBASE
  2

  9
$PUCSNAME
  2

  9
$PUCSORG
 10
0.0
 20
0.0
 30
0.0
  9
$PUCSXDIR
 10
1.0
 20
0.0
 30
0.0
  9
$PUCSYDIR
 10
0.0
 20
1.0
 30
0.0
  9
$PUCSORTHOREF
  2

  9
$PUCSORTHOVIEW
 70
     0
  9
$PUCSORGTOP
 10
0.0
 20
0.0
 30
0.0
  9
$PUCSORGBOTTOM
 10
0.0
 20
0.0
 30
0.0
  9
$PUCSORGLEFT
 10
0.0
 20
0.0
 30
0.0
  9
$PUCSORGRIGHT
 10
0.0
 20
0.0
 30
0.0
  9
$PUCSORGFRONT
 10
0.0
 20
0.0
 30
0.0
  9
$PUCSORGBACK
 10
0.0
 20
0.0
 30
0.0
  9
$USERI1
 70
     0
  9
$USERI2
 70
     0
  9
$USERI3
 70
     0
  9
$USERI4
 70
     0
  9
$USERI5
 70
     0
  9
$USERR1
 40
0.0
  9
$USERR2
 40
0.0
  9
$USERR3
 40
0.0
  9
$USERR4
 40
0.0
  9
$USERR5
 40
0.0
  9
$WORLDVIEW
 70
     1
  9
$SHADEDGE
 70
     3
  9
$SHADEDIF
 70
    70
  9
$TILEMODE
 70
     1
  9
$MAXACTVP
 70
    64
  9
$PINSBASE
 10
0.0
 20
0.0
 30
0.0
  9
$PLIMCHECK
 70
     0
  9
$PEXTMIN
 10
1.000000000000000E+20
 20
1.000000000000000E+20
 30
1.000000000000000E+20
  9
$PEXTMAX
 10
-1.000000000000000E+20
 20
-1.000000000000000E+20
 30
-1.000000000000000E+20
  9
$PLIMMIN
 10
0.0
 20
0.0
  9
$PLIMMAX
 10
12.0
 20
9.0
  9
$UNITMODE
 70
     0
  9
$VISRETAIN
 70
     1
  9
$PLINEGEN
 70
     0
  9
$PSLTSCALE
 70
     1
  9
$TREEDEPTH
 70
  3020
  9
$CMLSTYLE
  2
Standard
  9
$CMLJUST
 70
     0
  9
$CMLSCALE
 40
1.0
  9
$PROXYGRAPHICS
 70
     1
  9
$MEASUREMENT
 70
     0
  9
$CELWEIGHT
370
    -1
  9
$ENDCAPS
280
     0
  9
$JOINSTYLE
280
     0
  9
$LWDISPLAY
290
     0
  9
$INSUNITS
 70
     4
  9
$HYPERLINKBASE
  1

  9
$STYLESHEET
  1

  9
$XEDIT
290
     1
  9
$CEPSNTYPE
380
     0
  9
$PSTYLEMODE
290
     1
  9
$FINGERPRINTGUID
  2
{A8216F34-D492-4795-B8B8-A945E3C3B113}
  9
$VERSIONGUID
  2
{FAEB1C32-E019-11D5-929B-00C0DF256EC4}
  9
$EXTNAMES
290
     1
  9
$PSVPSCALE
 40
0.0
  9
$OLESTARTUP
290
     0
  9
$SORTENTS
280
   127
  9
$INDEXCTL
280
     0
  9
$HIDETEXT
280
     1
  9
$XCLIPFRAME
290
     0
  9
$HALOGAP
280
     0
  9
$OBSCOLOR
 70
   257
  9
$OBSLTYPE
280
     0
  9
$INTERSECTIONDISPLAY
280
     0
  9
$INTERSECTIONCOLOR
 70
   257
  9
$DIMASSOC
280
     2
  9
$PROJECTNAME
  1

  9
$CAMERADISPLAY
290
     0
  9
$LENSLENGTH
 40
50.0
  9
$CAMERAHEIGHT
 40
0.0
  9
$STEPSPERSEC
 40
2.0
  9
$STEPSIZE
 40
6.0
  9
$3DDWFPREC
 40
2.0
  9
$PSOLWIDTH
 40
0.25
  9
$PSOLHEIGHT
 40
4.0
  9
$LOFTANG1
 40
1.570796326794897
  9
$LOFTANG2
 40
1.570796326794897
  9
$LOFTMAG1
 40
0.0
  9
$LOFTMAG2
 40
0.0
  9
$LOFTPARAM
 70
     7
  9
$LOFTNORMALS
280
     1
  9
$LATITUDE
 40
37.795
  9
$LONGITUDE
 40
-122.394
  9
$NORTHDIRECTION
 40
0.0
  9
$TIMEZONE
 70
 -8000
  9
$LIGHTGLYPHDISPLAY
280
     1
  9
$TILEMODELIGHTSYNCH
280
     1
  9
$SOLIDHIST
280
     1
  9
$SHOWHIST
280
     1
  9
$DWFFRAME
280
     2
  9
$DGNFRAME
280
     2
  9
$REALWORLDSCALE
290
     1
  9
$INTERFERECOLOR
 62
   256
  9
$CSHADOW
280
     0
  9
$SHADOWPLANELOCATION
 40
0.0
  0
ENDSEC
  0
SECTION
  2
CLASSES
  0
CLASS
  1
ACDBDICTIONARYWDFLT
  2
AcDbDictionaryWithDefault
  3
ObjectDBX Classes
 90
        0
 91
        4
280
     0
281
     0
  0
CLASS
  1
VISUALSTYLE
  2
AcDbVisualStyle
  3
ObjectDBX Classes
 90
     4095
 91
        4
280
     0
281
     0
  0
CLASS
  1
MATERIAL
  2
AcDbMaterial
  3
ObjectDBX Classes
 90
     1153
 91
        4
280
     0
281
     0
  0
ENDSEC
  0
SECTION
  2
TABLES
  0
TABLE
  2
VPORT
  5
8
330
0
100
AcDbSymbolTable
 70
     1
  0
VPORT
  5
29
330
8
100
AcDbSymbolTableRecord
100
AcDbViewportTableRecord
  2
*Active
 70
     0
 10
0.0
 20
0.0
 11
1.0
 21
1.0
 12
10.42990654205607
 22
4.5
 13
0.0
 23
0.0
 14
0.5
 24
0.5
 15
0.5
 25
0.5
 16
0.0
 26
0.0
 36
1.0
 17
0.0
 27
0.0
 37
0.0
 40
9.0
 41
1.972972972850329
 42
50.0
 43
0.0
 44
0.0
 50
0.0
 51
0.0
 71
     0
 72
   100
 73
     1
 74
     3
 75
     0
 76
     0
 77
     0
 78
     0
281
     0
 65
     1
110
0.0
120
0.0
130
0.0
111
1.0
121
0.0
131
0.0
112
0.0
122
1.0
132
0.0
 79
     0
146
0.0
 60
     3
 61
     5
292
     1
282
     1
141
0.0
142
0.0
 63
   250
  0
ENDTAB
  0
TABLE
  2
LTYPE
  5
5
330
0
100
AcDbSymbolTable
 70
     1
  0
LTYPE
  5
14
330
5
100
AcDbSymbolTableRecord
100
AcDbLinetypeTableRecord
  2
ByBlock
 70
     0
  3

 72
    65
 73
     0
 40
0.0
  0
LTYPE
  5
15
330
5
100
AcDbSymbolTableRecord
100
AcDbLinetypeTableRecord
  2
ByLayer
 70
     0
  3

 72
    65
 73
     0
 40
0.0
  0
LTYPE
  5
16
330
5
100
AcDbSymbolTableRecord
100
AcDbLinetypeTableRecord
  2
Continuous
 70
     0
  3
Solid line
 72
    65
 73
     0
 40
0.0
  0
ENDTAB
  0
TABLE
  2
LAYER
  5
2
330
0
100
AcDbSymbolTable
 70
     2
  0
LAYER
  5
10
330
2
100
AcDbSymbolTableRecord
100
AcDbLayerTableRecord
  2
0
 70
     0
 62
     7
  6
Continuous
370
    -3
390
F
347
3E
  0
LAYER
  5
40
330
2
100
AcDbSymbolTableRecord
100
AcDbLayerTableRecord
  2
layer 1
 70
     0
 62
     7
  6
Continuous
370
    -3
390
F
347
3E
  0
ENDTAB
  0
TABLE
  2
STYLE
  5
3
330
0
100
AcDbSymbolTable
 70
     1
  0
STYLE
  5
11
330
3
100
AcDbSymbolTableRecord
100
AcDbTextStyleTableRecord
  2
Standard
 70
     0
 40
0.0
 41
1.0
 50
0.0
 71
     0
 42
0.2
  3
txt
  4

  0
ENDTAB
  0
TABLE
  2
VIEW
  5
6
330
0
100
AcDbSymbolTable
 70
     0
  0
ENDTAB
  0
TABLE
  2
UCS
  5
7
330
0
100
AcDbSymbolTable
 70
     0
  0
ENDTAB
  0
TABLE
  2
APPID
  5
9
330
0
100
AcDbSymbolTable
 70
     2
  0
APPID
  5
12
330
9
100
AcDbSymbolTableRecord
100
AcDbRegAppTableRecord
  2
ACAD
 70
     0
  0
APPID
  5
3F
330
9
100
AcDbSymbolTableRecord
100
AcDbRegAppTableRecord
  2
ODA
 70
     0
  0
ENDTAB
  0
TABLE
  2
DIMSTYLE
  5
A
330
0
100
AcDbSymbolTable
 70
     1
100
AcDbDimStyleTable
  0
DIMSTYLE
105
27
330
A
100
AcDbSymbolTableRecord
100
AcDbDimStyleTableRecord
  2
Standard
 70
     0
178
     0
340
11
  0
ENDTAB
  0
TABLE
  2
BLOCK_RECORD
  5
1
330
0
100
AcDbSymbolTable
 70
     1
  0
BLOCK_RECORD
  5
1F
330
1
100
AcDbSymbolTableRecord
100
AcDbBlockTableRecord
  2
*Model_Space
340
22
 70
     0
280
     1
281
     0
  0
BLOCK_RECORD
  5
1B
330
1
100
AcDbSymbolTableRecord
100
AcDbBlockTableRecord
  2
*Paper_Space
340
1E
 70
     0
280
     1
281
     0
  0
BLOCK_RECORD
  5
23
330
1
100
AcDbSymbolTableRecord
100
AcDbBlockTableRecord
  2
*Paper_Space0
340
26
 70
     0
280
     1
281
     0
  0
ENDTAB
  0
ENDSEC
  0
SECTION
  2
BLOCKS
  0
BLOCK
  5
20
330
1F
100
AcDbEntity
  8
0
100
AcDbBlockBegin
  2
*Model_Space
 70
     0
 10
0.0
 20
0.0
 30
0.0
  3
*Model_Space
  1

  0
ENDBLK
  5
21
330
1F
100
AcDbEntity
  8
0
100
AcDbBlockEnd
  0
BLOCK
  5
1C
330
1B
100
AcDbEntity
 67
     1
  8
0
100
AcDbBlockBegin
  2
*Paper_Space
 70
     0
 10
0.0
 20
0.0
 30
0.0
  3
*Paper_Space
  1

  0
ENDBLK
  5
1D
330
1B
100
AcDbEntity
 67
     1
  8
0
100
AcDbBlockEnd
  0
BLOCK
  5
24
330
23
100
AcDbEntity
  8
0
100
AcDbBlockBegin
  2
*Paper_Space0
 70
     0
 10
0.0
 20
0.0
 30
0.0
  3
*Paper_Space0
  1

  0
ENDBLK
  5
25
330
23
100
AcDbEntity
  8
0
100
AcDbBlockEnd
  0
ENDSEC
  0
SECTION
  2
ENTITIES
  0
SPLINE
  5
41
330
1F
100
AcDbEntity
  8
layer 1
 62
   250
370
     9
100
AcDbSpline
210
0.0
220
0.0
230
1.0
 70
    11
 71
     3
 72
    24
 73
    20
 74
     0
 42
0.0000000001
 43
0.0000000001
 12
1.0
 22
0.0
 32
0.0
 13
1.0
 23
0.0
 33
0.0
 40
0.0
 40
0.0
 40
0.0
 40
0.0
 40
0.1666666666666667
 40
0.1666666666666667
 40
0.1666666666666667
 40
0.1666666666666667
 40
0.3333333333333333
 40
0.3333333333333333
 40
0.3333333333333333
 40
0.3333333333333333
 40
0.5
 40
0.5
 40
0.5
 40
0.5
 40
0.6666666666666666
 40
0.6666666666666666
 40
0.6666666666666666
 40
0.6666666666666666
 40
1.0
 40
1.0
 40
1.0
 40
1.0
 10
8.5411
 20
8.8904
 30
0.0
 10
8.5411
 20
8.8904
 30
0.0
 10
8.5411
 20
132.4554
 30
0.0
 10
8.5411
 20
132.4554
 30
0.0
 10
8.5411
 20
132.4554
 30
0.0
 10
8.5411
 20
132.4554
 30
0.0
 10
186.0013
 20
132.4554
 30
0.0
 10
186.0013
 20
132.4554
 30
0.0
 10
186.0013
 20
132.4554
 30
0.0
 10
186.0013
 20
132.4554
 30
0.0
 10
186.0013
 20
-114.6746
 30
0.0
 10
186.0013
 20
-114.6746
 30
0.0
 10
186.0013
 20
-114.6746
 30
0.0
 10
186.0013
 20
-114.6746
 30
0.0
 10
8.5411
 20
-114.6746
 30
0.0
 10
8.5411
 20
-114.6746
 30
0.0
 10
8.5411
 20
-114.6746
 30
0.0
 10
8.5411
 20
-114.6746
 30
0.0
 10
8.5411
 20
8.8904
 30
0.0
 10
8.5411
 20
8.8904
 30
0.0
  0
SPLINE
  5
42
330
1F
100
AcDbEntity
  8
layer 1
 62
     7
370
     9
100
AcDbSpline
210
0.0
220
0.0
230
1.0
 70
    11
 71
     3
 72
    16
 73
    12
 74
     0
 42
0.0000000001
 43
0.0000000001
 12
1.0
 22
0.0
 32
0.0
 13
1.0
 23
0.0
 33
0.0
 40
0.0
 40
0.0
 40
0.0
 40
0.0
 40
0.25
 40
0.25
 40
0.25
 40
0.25
 40
0.5
 40
0.5
 40
0.5
 40
0.5
 40
1.0
 40
1.0
 40
1.0
 40
1.0
 10
26.6347
 20
-31.0727
 30
0.0
 10
26.6347
 20
-31.0727
 30
0.0
 10
26.6347
 20
-6.0146
 30
0.0
 10
26.6347
 20
-6.0146
 30
0.0
 10
26.6347
 20
-6.0146
 30
0.0
 10
27.3951
 20
-10.8685
 30
0.0
 10
28.3581
 20
-15.6882
 30
0.0
 10
29.5222
 20
-20.4612
 30
0.0
 10
29.5222
 20
-20.4612
 30
0.0
 10
28.4263
 20
-23.9608
 30
0.0
 10
27.4635
 20
-27.5009
 30
0.0
 10
26.6347
 20
-31.0727
 30
0.0
  0
SPLINE
  5
43
330
1F
100
AcDbEntity
  8
layer 1
 62
     7
370
     9
100
AcDbSpline
210
0.0
220
0.0
230
1.0
 70
    11
 71
     3
 72
    16
 73
    12
 74
     0
 42
0.0000000001
 43
0.0000000001
 12
1.0
 22
0.0
 32
0.0
 13
1.0
 23
0.0
 33
0.0
 40
0.0
 40
0.0
 40
0.0
 40
0.0
 40
0.25
 40
0.25
 40
0.25
 40
0.25
 40
0.5
 40
0.5
 40
0.5
 40
0.5
 40
1.0
 40
1.0
 40
1.0
 40
1.0
 10
37.3168
 20
-85.2268
 30
0.0
 10
31.9873
 20
-77.9638
 30
0.0
 10
28.3387
 20
-69.6072
 30
0.0
 10
26.6347
 20
-60.7613
 30
0.0
 10
26.6347
 20
-60.7613
 30
0.0
 10
26.6347
 20
-60.7613
 30
0.0
 10
26.6347
 20
-96.6302
 30
0.0
 10
26.6347
 20
-96.6302
 30
0.0
 10
26.6347
 20
-96.6302
 30
0.0
 10
31.4644
 20
-94.2553
 30
0.0
 10
35.2621
 20
-90.2011
 30
0.0
 10
37.3168
 20
-85.2268
 30
0.0
  0
SPLINE
  5
44
330
1F
100
AcDbEntity
  8
layer 1
 62
     7
370
     9
100
AcDbSpline
210
0.0
220
0.0
230
1.0
 70
    11
 71
     3
 72
    16
 73
    12
 74
     0
 42
0.0000000001
 43
0.0000000001
 12
1.0
 22
0.0
 32
0.0
 13
1.0
 23
0.0
 33
0.0
 40
0.0
 40
0.0
 40
0.0
 40
0.0
 40
0.25
 40
0.25
 40
0.25
 40
0.25
 40
0.5
 40
0.5
 40
0.5
 40
0.5
 40
1.0
 40
1.0
 40
1.0
 40
1.0
 10
37.649
 20
-97.1601
 30
0.0
 10
37.649
 20
-97.1601
 30
0.0
 10
52.0762
 20
-97.1601
 30
0.0
 10
52.0762
 20
-97.1601
 30
0.0
 10
52.0762
 20
-97.1601
 30
0.0
 10
49.1304
 20
-95.8988
 30
0.0
 10
46.3672
 20
-94.248
 30
0.0
 10
43.8608
 20
-92.2521
 30
0.0
 10
43.8608
 20
-92.2521
 30
0.0
 10
42.1582
 20
-94.3065
 30
0.0
 10
40.0422
 20
-95.9789
 30
0.0
 10
37.649
 20
-97.1601
 30
0.0
  0
SPLINE
  5
45
330
1F
100
AcDbEntity
  8
layer 1
 62
     7
370
     9
100
AcDbSpline
210
0.0
220
0.0
230
1.0
 70
    11
 71
     3
 72
    20
 73
    16
 74
     0
 42
0.0000000001
 43
0.0000000001
 12
1.0
 22
0.0
 32
0.0
 13
1.0
 23
0.0
 33
0.0
 40
0.0
 40
0.0
 40
0.0
 40
0.0
 40
0.2
 40
0.2
 40
0.2
 40
0.2
 40
0.4
 40
0.4
 40
0.4
 40
0.4
 40
0.6
 40
0.6
 40
0.6
 40
0.6
 40
1.0
 40
1.0
 40
1.0
 40
1.0
 10
73.4583
 20
-97.2081
 30
0.0
 10
73.4583
 20
-97.2081
 30
0.0
 10
93.7232
 20
-97.1601
 30
0.0
 10
93.7232
 20
-97.1601
 30
0.0
 10
93.7232
 20
-97.1601
 30
0.0
 10
93.8963
 20
-96.4842
 30
0.0
 10
93.7302
 20
-95.766
 30
0.0
 10
93.2771
 20
-95.2352
 30
0.0
 10
93.2771
 20
-95.2352
 30
0.0
 10
92.598
 20
-95.0553
 30
0.0
 10
91.9067
 20
-94.9266
 30
0.0
 10
91.2083
 20
-94.8503
 30
0.0
 10
91.2083
 20
-94.8503
 30
0.0
 10
85.1976
 20
-94.5562
 30
0.0
 10
79.1835
 20
-95.3553
 30
0.0
 10
73.4583
 20
-97.2081
 30
0.0
  0
SPLINE
  5
46
330
1F
100
AcDbEntity
  8
layer 1
 62
     7
370
     9
100
AcDbSpline
210
0.0
220
0.0
230
1.0
 70
    11
 71
     3
 72
    20
 73
    16
 74
     0
 42
0.0000000001
 43
0.0000000001
 12
1.0
 22
0.0
 32
0.0
 13
1.0
 23
0.0
 33
0.0
 40
0.0
 40
0.0
 40
0.0
 40
0.0
 40
0.2
 40
0.2
 40
0.2
 40
0.2
 40
0.4
 40
0.4
 40
0.4
 40
0.4
 40
0.6
 40
0.6
 40
0.6
 40
0.6
 40
1.0
 40
1.0
 40
1.0
 40
1.0
 10
91.3044
 20
-85.9967
 30
0.0
 10
93.7643
 20
-83.0826
 30
0.0
 10
95.775
 20
-79.8177
 30
0.0
 10
97.271
 20
-76.3099
 30
0.0
 10
97.271
 20
-76.3099
 30
0.0
 10
98.7672
 20
-79.8177
 30
0.0
 10
100.7776
 20
-83.0826
 30
0.0
 10
103.2377
 20
-85.9967
 30
0.0
 10
103.2377
 20
-85.9967
 30
0.0
 10
101.1107
 20
-86.4897
 30
0.0
 10
99.0892
 20
-87.3614
 30
0.0
 10
97.271
 20
-88.5699
 30
0.0
 10
97.271
 20
-88.5699
 30
0.0
 10
95.453
 20
-87.3614
 30
0.0
 10
93.4315
 20
-86.4897
 30
0.0
 10
91.3044
 20
-85.9967
 30
0.0
  0
SPLINE
  5
47
330
1F
100
AcDbEntity
  8
layer 1
 62
     7
370
     9
100
AcDbSpline
210
0.0
220
0.0
230
1.0
 70
    11
 71
     3
 72
    20
 73
    16
 74
     0
 42
0.0000000001
 43
0.0000000001
 12
1.0
 22
0.0
 32
0.0
 13
1.0
 23
0.0
 33
0.0
 40
0.0
 40
0.0
 40
0.0
 40
0.0
 40
0.2
 40
0.2
 40
0.2
 40
0.2
 40
0.4
 40
0.4
 40
0.4
 40
0.4
 40
0.6
 40
0.6
 40
0.6
 40
0.6
 40
1.0
 40
1.0
 40
1.0
 40
1.0
 10
97.271
 20
-47.0712
 30
0.0
 10
97.9361
 20
-44.6535
 30
0.0
 10
98.9922
 20
-42.3613
 30
0.0
 10
100.3982
 20
-40.2855
 30
0.0
 10
100.3982
 20
-40.2855
 30
0.0
 10
100.1818
 20
-36.001
 30
0.0
 10
99.1187
 20
-31.8015
 30
0.0
 10
97.271
 20
-27.9301
 30
0.0
 10
97.271
 20
-27.9301
 30
0.0
 10
95.4235
 20
-31.8015
 30
0.0
 10
94.3611
 20
-36.001
 30
0.0
 10
94.1431
 20
-40.2855
 30
0.0
 10
94.1431
 20
-40.2855
 30
0.0
 10
95.55
 20
-42.3613
 30
0.0
 10
96.606
 20
-44.6535
 30
0.0
 10
97.271
 20
-47.0712
 30
0.0
  0
SPLINE
  5
48
330
1F
100
AcDbEntity
  8
layer 1
 62
     7
370
     9
100
AcDbSpline
210
0.0
220
0.0
230
1.0
 70
    11
 71
     3
 72
    20
 73
    16
 74
     0
 42
0.0000000001
 43
0.0000000001
 12
1.0
 22
0.0
 32
0.0
 13
1.0
 23
0.0
 33
0.0
 40
0.0
 40
0.0
 40
0.0
 40
0.0
 40
0.2
 40
0.2
 40
0.2
 40
0.2
 40
0.4
 40
0.4
 40
0.4
 40
0.4
 40
0.6
 40
0.6
 40
0.6
 40
0.6
 40
1.0
 40
1.0
 40
1.0
 40
1.0
 10
91.3526
 20
2.972
 30
0.0
 10
93.2942
 20
3.4151
 30
0.0
 10
95.2798
 20
3.637
 30
0.0
 10
97.271
 20
3.6333
 30
0.0
 10
97.271
 20
3.6333
 30
0.0
 10
99.2623
 20
3.637
 30
0.0
 10
101.2479
 20
3.4151
 30
0.0
 10
103.1895
 20
2.972
 30
0.0
 10
103.1895
 20
2.972
 30
0.0
 10
100.9538
 20
0.7651
 30
0.0
 10
98.9689
 20
-1.6824
 30
0.0
 10
97.271
 20
-4.3253
 30
0.0
 10
97.271
 20
-4.3253
 30
0.0
 10
95.5733
 20
-1.6824
 30
0.0
 10
93.5883
 20
0.7651
 30
0.0
 10
91.3526
 20
2.972
 30
0.0
  0
SPLINE
  5
49
330
1F
100
AcDbEntity
  8
layer 1
 62
     7
370
     9
100
AcDbSpline
210
0.0
220
0.0
230
1.0
 70
    11
 71
     3
 72
    20
 73
    16
 74
     0
 42
0.0000000001
 43
0.0000000001
 12
1.0
 22
0.0
 32
0.0
 13
1.0
 23
0.0
 33
0.0
 40
0.0
 40
0.0
 40
0.0
 40
0.0
 40
0.2
 40
0.2
 40
0.2
 40
0.2
 40
0.4
 40
0.4
 40
0.4
 40
0.4
 40
0.6
 40
0.6
 40
0.6
 40
0.6
 40
1.0
 40
1.0
 40
1.0
 40
1.0
 10
40.541
 20
-0.4447
 30
0.0
 10
38.7756
 20
2.3458
 30
0.0
 10
37.8617
 20
5.5894
 30
0.0
 10
37.912
 20
8.8904
 30
0.0
 10
37.912
 20
8.8904
 30
0.0
 10
37.8617
 20
12.1914
 30
0.0
 10
38.7756
 20
15.4352
 30
0.0
 10
40.541
 20
18.2248
 30
0.0
 10
40.541
 20
18.2248
 30
0.0
 10
45.9559
 20
14.1493
 30
0.0
 10
52.0071
 20
10.995
 30
0.0
 10
58.4492
 20
8.8904
 30
0.0
 10
58.4492
 20
8.8904
 30
0.0
 10
52.0071
 20
6.786
 30
0.0
 10
45.9559
 20
3.6317
 30
0.0
 10
40.541
 20
-0.4447
 30
0.0
  0
SPLINE
  5
4A
330
1F
100
AcDbEntity
  8
layer 1
 62
     7
370
     9
100
AcDbSpline
210
0.0
220
0.0
230
1.0
 70
    11
 71
     3
 72
    76
 73
    72
 74
     0
 42
0.0000000001
 43
0.0000000001
 12
1.0
 22
0.0
 32
0.0
 13
1.0
 23
0.0
 33
0.0
 40
0.0
 40
0.0
 40
0.0
 40
0.0
 40
0.0526315789473684
 40
0.0526315789473684
 40
0.0526315789473684
 40
0.0526315789473684
 40
0.1052631578947368
 40
0.1052631578947368
 40
0.1052631578947368
 40
0.1052631578947368
 40
0.1578947368421053
 40
0.1578947368421053
 40
0.1578947368421053
 40
0.1578947368421053
 40
0.2105263157894737
 40
0.2105263157894737
 40
0.2105263157894737
 40
0.2105263157894737
 40
0.2631578947368421
 40
0.2631578947368421
 40
0.2631578947368421
 40
0.2631578947368421
 40
0.3157894736842105
 40
0.3157894736842105
 40
0.3157894736842105
 40
0.3157894736842105
 40
0.3684210526315789
 40
0.3684210526315789
 40
0.3684210526315789
 40
0.3684210526315789
 40
0.4210526315789473
 40
0.4210526315789473
 40
0.4210526315789473
 40
0.4210526315789473
 40
0.4736842105263158
 40
0.4736842105263158
 40
0.4736842105263158
 40
0.4736842105263158
 40
0.5263157894736842
 40
0.5263157894736842
 40
0.5263157894736842
 40
0.5263157894736842
 40
0.5789473684210527
 40
0.5789473684210527
 40
0.5789473684210527
 40
0.5789473684210527
 40
0.631578947368421
 40
0.631578947368421
 40
0.631578947368421
 40
0.631578947368421
 40
0.6842105263157895
 40
0.6842105263157895
 40
0.6842105263157895
 40
0.6842105263157895
 40
0.7368421052631579
 40
0.7368421052631579
 40
0.7368421052631579
 40
0.7368421052631579
 40
0.7894736842105263
 40
0.7894736842105263
 40
0.7894736842105263
 40
0.7894736842105263
 40
0.8421052631578947
 40
0.8421052631578947
 40
0.8421052631578947
 40
0.8421052631578947
 40
0.8947368421052632
 40
0.8947368421052632
 40
0.8947368421052632
 40
0.8947368421052632
 40
1.0
 40
1.0
 40
1.0
 40
1.0
 10
63.8773
 20
-57.704
 30
0.0
 10
63.0632
 20
-53.2442
 30
0.0
 10
64.7635
 20
-48.6976
 30
0.0
 10
68.3043
 20
-45.8671
 30
0.0
 10
68.3043
 20
-45.8671
 30
0.0
 10
74.3687
 20
-43.268
 30
0.0
 10
81.3106
 20
-43.7332
 30
0.0
 10
86.9738
 20
-47.1182
 30
0.0
 10
86.9738
 20
-47.1182
 30
0.0
 10
93.1359
 20
-53.1288
 30
0.0
 10
95.6292
 20
-61.9658
 30
0.0
 10
93.5177
 20
-70.3106
 30
0.0
 10
93.5177
 20
-70.3106
 30
0.0
 10
91.344
 20
-76.7153
 30
0.0
 10
87.6449
 20
-82.4951
 30
0.0
 10
82.7392
 20
-87.1517
 30
0.0
 10
82.7392
 20
-87.1517
 30
0.0
 10
82.8525
 20
-84.8164
 30
0.0
 10
81.9383
 20
-82.5486
 30
0.0
 10
80.2374
 20
-80.9444
 30
0.0
 10
80.2374
 20
-80.9444
 30
0.0
 10
77.6387
 20
-79.72
 30
0.0
 10
74.5354
 20
-80.6041
 30
0.0
 10
72.9719
 20
-83.0136
 30
0.0
 10
72.9719
 20
-83.0136
 30
0.0
 10
71.7822
 20
-85.3964
 30
0.0
 10
71.873
 20
-88.2181
 30
0.0
 10
73.2124
 20
-90.5198
 30
0.0
 10
73.2124
 20
-90.5198
 30
0.0
 10
64.0209
 20
-94.6772
 30
0.0
 10
53.2532
 20
-93.139
 30
0.0
 10
45.5928
 20
-86.5743
 30
0.0
 10
45.5928
 20
-86.5743
 30
0.0
 10
46.1585
 20
-84.6712
 30
0.0
 10
46.6396
 20
-82.745
 30
0.0
 10
47.0368
 20
-80.8001
 30
0.0
 10
47.0368
 20
-80.8001
 30
0.0
 10
48.9837
 20
-82.5903
 30
0.0
 10
51.5817
 20
-83.5012
 30
0.0
 10
54.2202
 20
-83.3191
 30
0.0
 10
54.2202
 20
-83.3191
 30
0.0
 10
56.8593
 20
-83.1372
 30
0.0
 10
59.3075
 20
-81.8783
 30
0.0
 10
60.9907
 20
-79.8377
 30
0.0
 10
60.9907
 20
-79.8377
 30
0.0
 10
65.8273
 20
-81.2728
 30
0.0
 10
70.9109
 20
-78.5153
 30
0.0
 10
72.3464
 20
-73.6787
 30
0.0
 10
72.3464
 20
-73.6787
 30
0.0
 10
75.5862
 20
-75.2079
 30
0.0
 10
79.4576
 20
-74.0958
 30
0.0
 10
81.392
 20
-71.0807
 30
0.0
 10
81.392
 20
-71.0807
 30
0.0
 10
83.1783
 20
-66.7736
 30
0.0
 10
83.2133
 20
-61.9394
 30
0.0
 10
81.4883
 20
-57.6077
 30
0.0
 10
81.4883
 20
-57.6077
 30
0.0
 10
79.7803
 20
-53.9827
 30
0.0
 10
75.7622
 20
-52.0538
 30
0.0
 10
71.8653
 20
-52.9882
 30
0.0
 10
71.8653
 20
-52.9882
 30
0.0
 10
72.7709
 20
-54.5255
 30
0.0
 10
73.0463
 20
-56.353
 30
0.0
 10
72.6352
 20
-58.089
 30
0.0
 10
72.6352
 20
-58.089
 30
0.0
 10
72.0958
 20
-60.1282
 30
0.0
 10
70.2085
 20
-61.5167
 30
0.0
 10
68.101
 20
-61.4241
 30
0.0
 10
68.101
 20
-61.4241
 30
0.0
 10
65.9933
 20
-61.3315
 30
0.0
 10
64.2358
 20
-59.7827
 30
0.0
 10
63.8773
 20
-57.704
 30
0.0
  0
SPLINE
  5
4B
330
1F
100
AcDbEntity
  8
layer 1
 62
     7
370
     9
100
AcDbSpline
210
0.0
220
0.0
230
1.0
 70
    11
 71
     3
 72
    20
 73
    16
 74
     0
 42
0.0000000001
 43
0.0000000001
 12
1.0
 22
0.0
 32
0.0
 13
1.0
 23
0.0
 33
0.0
 40
0.0
 40
0.0
 40
0.0
 40
0.0
 40
0.2
 40
0.2
 40
0.2
 40
0.2
 40
0.4
 40
0.4
 40
0.4
 40
0.4
 40
0.6
 40
0.6
 40
0.6
 40
0.6
 40
1.0
 40
1.0
 40
1.0
 40
1.0
 10
54.6392
 20
-34.1263
 30
0.0
 10
60.7826
 20
-36.5892
 30
0.0
 10
67.3661
 20
-37.768
 30
0.0
 10
73.9822
 20
-37.5911
 30
0.0
 10
73.9822
 20
-37.5911
 30
0.0
 10
79.5933
 20
-37.4614
 30
0.0
 10
85.0849
 20
-39.2244
 30
0.0
 10
89.5724
 20
-42.5949
 30
0.0
 10
89.5724
 20
-42.5949
 30
0.0
 10
86.5182
 20
-36.3556
 30
0.0
 10
80.8449
 20
-31.799
 30
0.0
 10
74.0931
 20
-30.1625
 30
0.0
 10
74.0931
 20
-30.1625
 30
0.0
 10
67.3413
 20
-28.5253
 30
0.0
 10
60.2122
 20
-29.978
 30
0.0
 10
54.6392
 20
-34.1263
 30
0.0
  0
SPLINE
  5
4C
330
1F
100
AcDbEntity
  8
layer 1
 62
     7
370
     9
100
AcDbSpline
210
0.0
220
0.0
230
1.0
 70
    11
 71
     3
 72
    28
 73
    24
 74
     0
 42
0.0000000001
 43
0.0000000001
 12
1.0
 22
0.0
 32
0.0
 13
1.0
 23
0.0
 33
0.0
 40
0.0
 40
0.0
 40
0.0
 40
0.0
 40
0.1428571428571428
 40
0.1428571428571428
 40
0.1428571428571428
 40
0.1428571428571428
 40
0.2857142857142857
 40
0.2857142857142857
 40
0.2857142857142857
 40
0.2857142857142857
 40
0.4285714285714285
 40
0.4285714285714285
 40
0.4285714285714285
 40
0.4285714285714285
 40
0.5714285714285714
 40
0.5714285714285714
 40
0.5714285714285714
 40
0.5714285714285714
 40
0.7142857142857143
 40
0.7142857142857143
 40
0.7142857142857143
 40
0.7142857142857143
 40
1.0
 40
1.0
 40
1.0
 40
1.0
 10
49.2499
 20
-44.0867
 30
0.0
 10
47.5986
 20
-49.339
 30
0.0
 10
47.026
 20
-54.8711
 30
0.0
 10
47.5661
 20
-60.3502
 30
0.0
 10
47.5661
 20
-60.3502
 30
0.0
 10
47.7601
 20
-67.0846
 30
0.0
 10
52.1134
 20
-72.9915
 30
0.0
 10
58.4882
 20
-75.1703
 30
0.0
 10
58.4882
 20
-75.1703
 30
0.0
 10
59.3036
 20
-73.5947
 30
0.0
 10
60.2371
 20
-72.0826
 30
0.0
 10
61.2793
 20
-70.6474
 30
0.0
 10
61.2793
 20
-70.6474
 30
0.0
 10
62.2493
 20
-68.8987
 30
0.0
 10
62.1935
 20
-66.7622
 30
0.0
 10
61.135
 20
-65.0658
 30
0.0
 10
61.135
 20
-65.0658
 30
0.0
 10
57.2744
 20
-59.2013
 30
0.0
 10
57.6041
 20
-51.5232
 30
0.0
 10
61.9528
 20
-46.0114
 30
0.0
 10
61.9528
 20
-46.0114
 30
0.0
 10
57.6222
 20
-46.5908
 30
0.0
 10
53.2152
 20
-45.9229
 30
0.0
 10
49.2499
 20
-44.0867
 30
0.0
  0
SPLINE
  5
4D
330
1F
100
AcDbEntity
  8
layer 1
 62
     7
370
     9
100
AcDbSpline
210
0.0
220
0.0
230
1.0
 70
    11
 71
     3
 72
    36
 73
    32
 74
     0
 42
0.0000000001
 43
0.0000000001
 12
1.0
 22
0.0
 32
0.0
 13
1.0
 23
0.0
 33
0.0
 40
0.0
 40
0.0
 40
0.0
 40
0.0
 40
0.1111111111111111
 40
0.1111111111111111
 40
0.1111111111111111
 40
0.1111111111111111
 40
0.2222222222222222
 40
0.2222222222222222
 40
0.2222222222222222
 40
0.2222222222222222
 40
0.3333333333333333
 40
0.3333333333333333
 40
0.3333333333333333
 40
0.3333333333333333
 40
0.4444444444444444
 40
0.4444444444444444
 40
0.4444444444444444
 40
0.4444444444444444
 40
0.5555555555555556
 40
0.5555555555555556
 40
0.5555555555555556
 40
0.5555555555555556
 40
0.6666666666666666
 40
0.6666666666666666
 40
0.6666666666666666
 40
0.6666666666666666
 40
0.7777777777777778
 40
0.7777777777777778
 40
0.7777777777777778
 40
0.7777777777777778
 40
1.0
 40
1.0
 40
1.0
 40
1.0
 10
43.5722
 20
-42.6915
 30
0.0
 10
38.4591
 20
-38.5563
 30
0.0
 10
34.3603
 20
-33.306
 30
0.0
 10
31.5909
 20
-27.3419
 30
0.0
 10
31.5909
 20
-27.3419
 30
0.0
 10
30.5263
 20
-32.6767
 30
0.0
 10
30.1383
 20
-38.125
 30
0.0
 10
30.4361
 20
-43.5575
 30
0.0
 10
30.4361
 20
-43.5575
 30
0.0
 10
31.6327
 20
-43.3091
 30
0.0
 10
32.872
 20
-43.3588
 30
0.0
 10
34.0453
 20
-43.7015
 30
0.0
 10
34.0453
 20
-43.7015
 30
0.0
 10
36.3111
 20
-45.1366
 30
0.0
 10
37.3751
 20
-47.8826
 30
0.0
 10
36.6681
 20
-50.4701
 30
0.0
 10
36.6681
 20
-50.4701
 30
0.0
 10
35.9605
 20
-53.0571
 30
0.0
 10
33.6465
 20
-54.8795
 30
0.0
 10
30.9653
 20
-54.9613
 30
0.0
 10
30.9653
 20
-54.9613
 30
0.0
 10
31.8555
 20
-63.1198
 30
0.0
 10
34.5156
 20
-70.9857
 30
0.0
 10
38.7602
 20
-78.0094
 30
0.0
 10
38.7602
 20
-78.0094
 30
0.0
 10
39.7954
 20
-74.1798
 30
0.0
 10
40.3448
 20
-70.2352
 30
0.0
 10
40.3968
 20
-66.269
 30
0.0
 10
40.3968
 20
-66.269
 30
0.0
 10
40.2927
 20
-58.2964
 30
0.0
 10
41.3628
 20
-50.3521
 30
0.0
 10
43.5722
 20
-42.6915
 30
0.0
  0
SPLINE
  5
4E
330
1F
100
AcDbEntity
  8
layer 1
 62
     7
370
     9
100
AcDbSpline
210
0.0
220
0.0
230
1.0
 70
    11
 71
     3
 72
    20
 73
    16
 74
     0
 42
0.0000000001
 43
0.0000000001
 12
1.0
 22
0.0
 32
0.0
 13
1.0
 23
0.0
 33
0.0
 40
0.0
 40
0.0
 40
0.0
 40
0.0
 40
0.2
 40
0.2
 40
0.2
 40
0.2
 40
0.4
 40
0.4
 40
0.4
 40
0.4
 40
0.6
 40
0.6
 40
0.6
 40
0.6
 40
1.0
 40
1.0
 40
1.0
 40
1.0
 10
34.6709
 20
-17.1415
 30
0.0
 10
37.1866
 20
-24.0541
 30
0.0
 10
42.2227
 20
-29.7597
 30
0.0
 10
48.7688
 20
-33.116
 30
0.0
 10
48.7688
 20
-33.116
 30
0.0
 10
50.587
 20
-30.8198
 30
0.0
 10
52.7838
 20
-28.8504
 30
0.0
 10
55.2646
 20
-27.2937
 30
0.0
 10
55.2646
 20
-27.2937
 30
0.0
 10
48.5392
 20
-22.9499
 30
0.0
 10
43.0786
 20
-16.9088
 30
0.0
 10
39.4337
 20
-9.7791
 30
0.0
 10
39.4337
 20
-9.7791
 30
0.0
 10
37.8491
 20
-12.235
 30
0.0
 10
36.2614
 20
-14.6893
 30
0.0
 10
34.6709
 20
-17.1415
 30
0.0
  0
SPLINE
  5
4F
330
1F
100
AcDbEntity
  8
layer 1
 62
     7
370
     9
100
AcDbSpline
210
0.0
220
0.0
230
1.0
 70
    11
 71
     3
 72
    40
 73
    36
 74
     0
 42
0.0000000001
 43
0.0000000001
 12
1.0
 22
0.0
 32
0.0
 13
1.0
 23
0.0
 33
0.0
 40
0.0
 40
0.0
 40
0.0
 40
0.0
 40
0.1
 40
0.1
 40
0.1
 40
0.1
 40
0.2
 40
0.2
 40
0.2
 40
0.2
 40
0.3
 40
0.3
 40
0.3
 40
0.3
 40
0.4
 40
0.4
 40
0.4
 40
0.4
 40
0.5
 40
0.5
 40
0.5
 40
0.5
 40
0.6
 40
0.6
 40
0.6
 40
0.6
 40
0.7
 40
0.7
 40
0.7
 40
0.7
 40
0.8
 40
0.8
 40
0.8
 40
0.8
 40
1.0
 40
1.0
 40
1.0
 40
1.0
 10
44.005
 20
-4.9671
 30
0.0
 10
49.7659
 20
-14.6964
 30
0.0
 10
59.4169
 20
-21.4924
 30
0.0
 10
70.5182
 20
-23.6373
 30
0.0
 10
70.5182
 20
-23.6373
 30
0.0
 10
68.7838
 20
-19.9995
 30
0.0
 10
67.6781
 20
-16.0947
 30
0.0
 10
67.2458
 20
-12.0891
 30
0.0
 10
67.2458
 20
-12.0891
 30
0.0
 10
66.5094
 20
-5.6345
 30
0.0
 10
68.4974
 20
0.8358
 30
0.0
 10
72.7313
 20
5.7632
 30
0.0
 10
72.7313
 20
5.7632
 30
0.0
 10
70.1907
 20
5.5971
 30
0.0
 10
67.6741
 20
5.1618
 30
0.0
 10
65.2252
 20
4.4634
 30
0.0
 10
65.2252
 20
4.4634
 30
0.0
 10
62.9462
 20
3.6751
 30
0.0
 10
61.2553
 20
1.7389
 30
0.0
 10
60.7804
 20
-0.6255
 30
0.0
 10
60.7804
 20
-0.6255
 30
0.0
 10
60.3055
 20
-2.9899
 30
0.0
 10
61.1178
 20
-5.4288
 30
0.0
 10
62.9158
 20
-7.0365
 30
0.0
 10
62.9158
 20
-7.0365
 30
0.0
 10
60.3535
 20
-9.3484
 30
0.0
 10
56.6116
 20
-9.792
 30
0.0
 10
53.5808
 20
-8.1432
 30
0.0
 10
53.5808
 20
-8.1432
 30
0.0
 10
51.0798
 20
-6.0225
 30
0.0
 10
50.0934
 20
-2.6095
 30
0.0
 10
51.0789
 20
0.5183
 30
0.0
 10
51.0789
 20
0.5183
 30
0.0
 10
48.3381
 20
-0.7559
 30
0.0
 10
45.9209
 20
-2.6307
 30
0.0
 10
44.005
 20
-4.9671
 30
0.0
  0
SPLINE
  5
50
330
1F
100
AcDbEntity
  8
layer 1
 62
     7
370
     9
100
AcDbSpline
210
0.0
220
0.0
230
1.0
 70
    11
 71
     3
 72
    48
 73
    44
 74
     0
 42
0.0000000001
 43
0.0000000001
 12
1.0
 22
0.0
 32
0.0
 13
1.0
 23
0.0
 33
0.0
 40
0.0
 40
0.0
 40
0.0
 40
0.0
 40
0.0833333333333333
 40
0.0833333333333333
 40
0.0833333333333333
 40
0.0833333333333333
 40
0.1666666666666667
 40
0.1666666666666667
 40
0.1666666666666667
 40
0.1666666666666667
 40
0.25
 40
0.25
 40
0.25
 40
0.25
 40
0.3333333333333333
 40
0.3333333333333333
 40
0.3333333333333333
 40
0.3333333333333333
 40
0.4166666666666667
 40
0.4166666666666667
 40
0.4166666666666667
 40
0.4166666666666667
 40
0.5
 40
0.5
 40
0.5
 40
0.5
 40
0.5833333333333334
 40
0.5833333333333334
 40
0.5833333333333334
 40
0.5833333333333334
 40
0.6666666666666666
 40
0.6666666666666666
 40
0.6666666666666666
 40
0.6666666666666666
 40
0.75
 40
0.75
 40
0.75
 40
0.75
 40
0.8333333333333334
 40
0.8333333333333334
 40
0.8333333333333334
 40
0.8333333333333334
 40
1.0
 40
1.0
 40
1.0
 40
1.0
 10
85.5785
 20
1.4807
 30
0.0
 10
89.4941
 20
-1.6846
 30
0.0
 10
92.5686
 20
-5.7671
 30
0.0
 10
94.5287
 20
-10.4044
 30
0.0
 10
94.5287
 20
-10.4044
 30
0.0
 10
93.9779
 20
-12.1278
 30
0.0
 10
93.7652
 20
-13.9414
 30
0.0
 10
93.9024
 20
-15.7456
 30
0.0
 10
93.9024
 20
-15.7456
 30
0.0
 10
92.7067
 20
-14.7593
 30
0.0
 10
91.0601
 20
-14.5211
 30
0.0
 10
89.6338
 20
-15.1286
 30
0.0
 10
89.6338
 20
-15.1286
 30
0.0
 10
88.2067
 20
-15.7355
 30
0.0
 10
87.2369
 20
-17.0865
 30
0.0
 10
87.1181
 20
-18.6328
 30
0.0
 10
87.1181
 20
-18.6328
 30
0.0
 10
86.754
 20
-20.1834
 30
0.0
 10
87.0211
 20
-21.8153
 30
0.0
 10
87.8607
 20
-23.1685
 30
0.0
 10
87.8607
 20
-23.1685
 30
0.0
 10
88.6996
 20
-24.522
 30
0.0
 10
90.0427
 20
-25.4872
 30
0.0
 10
91.5932
 20
-25.8503
 30
0.0
 10
91.5932
 20
-25.8503
 30
0.0
 10
91.1144
 20
-28.8907
 30
0.0
 10
90.8731
 20
-31.9629
 30
0.0
 10
90.8715
 20
-35.0404
 30
0.0
 10
90.8715
 20
-35.0404
 30
0.0
 10
88.4728
 20
-32.2049
 30
0.0
 10
85.6678
 20
-29.7404
 30
0.0
 10
82.5474
 20
-27.7266
 30
0.0
 10
82.5474
 20
-27.7266
 30
0.0
 10
81.5644
 20
-27.594
 30
0.0
 10
80.7239
 20
-26.9545
 30
0.0
 10
80.3337
 20
-26.0428
 30
0.0
 10
80.3337
 20
-26.0428
 30
0.0
 10
77.468
 20
-22.1769
 30
0.0
 10
75.947
 20
-17.4783
 30
0.0
 10
76.0037
 20
-12.6663
 30
0.0
 10
76.0037
 20
-12.6663
 30
0.0
 10
76.0842
 20
-6.4616
 30
0.0
 10
79.8487
 20
-0.9002
 30
0.0
 10
85.5785
 20
1.4807
 30
0.0
  0
SPLINE
  5
51
330
1F
100
AcDbEntity
  8
layer 1
 62
     7
370
     9
100
AcDbSpline
210
0.0
220
0.0
230
1.0
 70
    11
 71
     3
 72
    16
 73
    12
 74
     0
 42
0.0000000001
 43
0.0000000001
 12
1.0
 22
0.0
 32
0.0
 13
1.0
 23
0.0
 33
0.0
 40
0.0
 40
0.0
 40
0.0
 40
0.0
 40
0.25
 40
0.25
 40
0.25
 40
0.25
 40
0.5
 40
0.5
 40
0.5
 40
0.5
 40
1.0
 40
1.0
 40
1.0
 40
1.0
 10
167.9073
 20
-31.0727
 30
0.0
 10
167.9073
 20
-31.0727
 30
0.0
 10
167.9073
 20
-6.0146
 30
0.0
 10
167.9073
 20
-6.0146
 30
0.0
 10
167.9073
 20
-6.0146
 30
0.0
 10
167.1473
 20
-10.8685
 30
0.0
 10
166.184
 20
-15.6882
 30
0.0
 10
165.02
 20
-20.4612
 30
0.0
 10
165.02
 20
-20.4612
 30
0.0
 10
166.1159
 20
-23.9608
 30
0.0
 10
167.0789
 20
-27.5009
 30
0.0
 10
167.9073
 20
-31.0727
 30
0.0
  0
SPLINE
  5
52
330
1F
100
AcDbEntity
  8
layer 1
 62
     7
370
     9
100
AcDbSpline
210
0.0
220
0.0
230
1.0
 70
    11
 71
     3
 72
    16
 73
    12
 74
     0
 42
0.0000000001
 43
0.0000000001
 12
1.0
 22
0.0
 32
0.0
 13
1.0
 23
0.0
 33
0.0
 40
0.0
 40
0.0
 40
0.0
 40
0.0
 40
0.25
 40
0.25
 40
0.25
 40
0.25
 40
0.5
 40
0.5
 40
0.5
 40
0.5
 40
1.0
 40
1.0
 40
1.0
 40
1.0
 10
157.2251
 20
-85.2268
 30
0.0
 10
162.5544
 20
-77.9638
 30
0.0
 10
166.2032
 20
-69.6072
 30
0.0
 10
167.9073
 20
-60.7613
 30
0.0
 10
167.9073
 20
-60.7613
 30
0.0
 10
167.9073
 20
-60.7613
 30
0.0
 10
167.9073
 20
-96.6302
 30
0.0
 10
167.9073
 20
-96.6302
 30
0.0
 10
167.9073
 20
-96.6302
 30
0.0
 10
163.0777
 20
-94.2553
 30
0.0
 10
159.2798
 20
-90.2011
 30
0.0
 10
157.2251
 20
-85.2268
 30
0.0
  0
SPLINE
  5
53
330
1F
100
AcDbEntity
  8
layer 1
 62
     7
370
     9
100
AcDbSpline
210
0.0
220
0.0
230
1.0
 70
    11
 71
     3
 72
    16
 73
    12
 74
     0
 42
0.0000000001
 43
0.0000000001
 12
1.0
 22
0.0
 32
0.0
 13
1.0
 23
0.0
 33
0.0
 40
0.0
 40
0.0
 40
0.0
 40
0.0
 40
0.25
 40
0.25
 40
0.25
 40
0.25
 40
0.5
 40
0.5
 40
0.5
 40
0.5
 40
1.0
 40
1.0
 40
1.0
 40
1.0
 10
156.893
 20
-97.1601
 30
0.0
 10
156.893
 20
-97.1601
 30
0.0
 10
142.4662
 20
-97.1601
 30
0.0
 10
142.4662
 20
-97.1601
 30
0.0
 10
142.4662
 20
-97.1601
 30
0.0
 10
145.4117
 20
-95.8988
 30
0.0
 10
148.1747
 20
-94.248
 30
0.0
 10
150.6812
 20
-92.2521
 30
0.0
 10
150.6812
 20
-92.2521
 30
0.0
 10
152.3835
 20
-94.3065
 30
0.0
 10
154.5002
 20
-95.9789
 30
0.0
 10
156.893
 20
-97.1601
 30
0.0
  0
SPLINE
  5
54
330
1F
100
AcDbEntity
  8
layer 1
 62
     7
370
     9
100
AcDbSpline
210
0.0
220
0.0
230
1.0
 70
    11
 71
     3
 72
    20
 73
    16
 74
     0
 42
0.0000000001
 43
0.0000000001
 12
1.0
 22
0.0
 32
0.0
 13
1.0
 23
0.0
 33
0.0
 40
0.0
 40
0.0
 40
0.0
 40
0.0
 40
0.2
 40
0.2
 40
0.2
 40
0.2
 40
0.4
 40
0.4
 40
0.4
 40
0.4
 40
0.6
 40
0.6
 40
0.6
 40
0.6
 40
1.0
 40
1.0
 40
1.0
 40
1.0
 10
121.0839
 20
-97.2081
 30
0.0
 10
121.0839
 20
-97.2081
 30
0.0
 10
100.8188
 20
-97.1601
 30
0.0
 10
100.8188
 20
-97.1601
 30
0.0
 10
100.8188
 20
-97.1601
 30
0.0
 10
100.6459
 20
-96.4842
 30
0.0
 10
100.812
 20
-95.766
 30
0.0
 10
101.2642
 20
-95.2352
 30
0.0
 10
101.2642
 20
-95.2352
 30
0.0
 10
101.9441
 20
-95.0553
 30
0.0
 10
102.6355
 20
-94.9266
 30
0.0
 10
103.3338
 20
-94.8503
 30
0.0
 10
103.3338
 20
-94.8503
 30
0.0
 10
109.3446
 20
-94.5562
 30
0.0
 10
115.3584
 20
-95.3553
 30
0.0
 10
121.0839
 20
-97.2081
 30
0.0
  0
SPLINE
  5
55
330
1F
100
AcDbEntity
  8
layer 1
 62
     7
370
     9
100
AcDbSpline
210
0.0
220
0.0
230
1.0
 70
    11
 71
     3
 72
    20
 73
    16
 74
     0
 42
0.0000000001
 43
0.0000000001
 12
1.0
 22
0.0
 32
0.0
 13
1.0
 23
0.0
 33
0.0
 40
0.0
 40
0.0
 40
0.0
 40
0.0
 40
0.2
 40
0.2
 40
0.2
 40
0.2
 40
0.4
 40
0.4
 40
0.4
 40
0.4
 40
0.6
 40
0.6
 40
0.6
 40
0.6
 40
1.0
 40
1.0
 40
1.0
 40
1.0
 10
154.0013
 20
-0.4447
 30
0.0
 10
155.7668
 20
2.3458
 30
0.0
 10
156.6803
 20
5.5894
 30
0.0
 10
156.6303
 20
8.8904
 30
0.0
 10
156.6303
 20
8.8904
 30
0.0
 10
156.6803
 20
12.1914
 30
0.0
 10
155.7668
 20
15.4352
 30
0.0
 10
154.0013
 20
18.2248
 30
0.0
 10
154.0013
 20
18.2248
 30
0.0
 10
148.5865
 20
14.1493
 30
0.0
 10
142.5352
 20
10.995
 30
0.0
 10
136.0927
 20
8.8904
 30
0.0
 10
136.0927
 20
8.8904
 30
0.0
 10
142.5352
 20
6.786
 30
0.0
 10
148.5865
 20
3.6317
 30
0.0
 10
154.0013
 20
-0.4447
 30
0.0
  0
SPLINE
  5
56
330
1F
100
AcDbEntity
  8
layer 1
 62
     7
370
     9
100
AcDbSpline
210
0.0
220
0.0
230
1.0
 70
    11
 71
     3
 72
    76
 73
    72
 74
     0
 42
0.0000000001
 43
0.0000000001
 12
1.0
 22
0.0
 32
0.0
 13
1.0
 23
0.0
 33
0.0
 40
0.0
 40
0.0
 40
0.0
 40
0.0
 40
0.0526315789473684
 40
0.0526315789473684
 40
0.0526315789473684
 40
0.0526315789473684
 40
0.1052631578947368
 40
0.1052631578947368
 40
0.1052631578947368
 40
0.1052631578947368
 40
0.1578947368421053
 40
0.1578947368421053
 40
0.1578947368421053
 40
0.1578947368421053
 40
0.2105263157894737
 40
0.2105263157894737
 40
0.2105263157894737
 40
0.2105263157894737
 40
0.2631578947368421
 40
0.2631578947368421
 40
0.2631578947368421
 40
0.2631578947368421
 40
0.3157894736842105
 40
0.3157894736842105
 40
0.3157894736842105
 40
0.3157894736842105
 40
0.3684210526315789
 40
0.3684210526315789
 40
0.3684210526315789
 40
0.3684210526315789
 40
0.4210526315789473
 40
0.4210526315789473
 40
0.4210526315789473
 40
0.4210526315789473
 40
0.4736842105263158
 40
0.4736842105263158
 40
0.4736842105263158
 40
0.4736842105263158
 40
0.5263157894736842
 40
0.5263157894736842
 40
0.5263157894736842
 40
0.5263157894736842
 40
0.5789473684210527
 40
0.5789473684210527
 40
0.5789473684210527
 40
0.5789473684210527
 40
0.631578947368421
 40
0.631578947368421
 40
0.631578947368421
 40
0.631578947368421
 40
0.6842105263157895
 40
0.6842105263157895
 40
0.6842105263157895
 40
0.6842105263157895
 40
0.7368421052631579
 40
0.7368421052631579
 40
0.7368421052631579
 40
0.7368421052631579
 40
0.7894736842105263
 40
0.7894736842105263
 40
0.7894736842105263
 40
0.7894736842105263
 40
0.8421052631578947
 40
0.8421052631578947
 40
0.8421052631578947
 40
0.8421052631578947
 40
0.8947368421052632
 40
0.8947368421052632
 40
0.8947368421052632
 40
0.8947368421052632
 40
1.0
 40
1.0
 40
1.0
 40
1.0
 10
130.6644
 20
-57.704
 30
0.0
 10
131.4789
 20
-53.2442
 30
0.0
 10
129.7786
 20
-48.6976
 30
0.0
 10
126.2376
 20
-45.8671
 30
0.0
 10
126.2376
 20
-45.8671
 30
0.0
 10
120.1734
 20
-43.268
 30
0.0
 10
113.2311
 20
-43.7332
 30
0.0
 10
107.5675
 20
-47.1182
 30
0.0
 10
107.5675
 20
-47.1182
 30
0.0
 10
101.4063
 20
-53.1288
 30
0.0
 10
98.913
 20
-61.9658
 30
0.0
 10
101.0244
 20
-70.3106
 30
0.0
 10
101.0244
 20
-70.3106
 30
0.0
 10
103.1981
 20
-76.7153
 30
0.0
 10
106.897
 20
-82.4951
 30
0.0
 10
111.8025
 20
-87.1517
 30
0.0
 10
111.8025
 20
-87.1517
 30
0.0
 10
111.6894
 20
-84.8164
 30
0.0
 10
112.6036
 20
-82.5486
 30
0.0
 10
114.3046
 20
-80.9444
 30
0.0
 10
114.3046
 20
-80.9444
 30
0.0
 10
116.9032
 20
-79.72
 30
0.0
 10
120.0065
 20
-80.6041
 30
0.0
 10
121.5702
 20
-83.0136
 30
0.0
 10
121.5702
 20
-83.0136
 30
0.0
 10
122.7598
 20
-85.3964
 30
0.0
 10
122.6694
 20
-88.2181
 30
0.0
 10
121.3296
 20
-90.5198
 30
0.0
 10
121.3296
 20
-90.5198
 30
0.0
 10
130.5214
 20
-94.6772
 30
0.0
 10
141.2889
 20
-93.139
 30
0.0
 10
148.949
 20
-86.5743
 30
0.0
 10
148.949
 20
-86.5743
 30
0.0
 10
148.3843
 20
-84.6712
 30
0.0
 10
147.9026
 20
-82.745
 30
0.0
 10
147.5056
 20
-80.8001
 30
0.0
 10
147.5056
 20
-80.8001
 30
0.0
 10
145.558
 20
-82.5903
 30
0.0
 10
142.9604
 20
-83.5012
 30
0.0
 10
140.3215
 20
-83.3191
 30
0.0
 10
140.3215
 20
-83.3191
 30
0.0
 10
137.6826
 20
-83.1372
 30
0.0
 10
135.2346
 20
-81.8783
 30
0.0
 10
133.5515
 20
-79.8377
 30
0.0
 10
133.5515
 20
-79.8377
 30
0.0
 10
128.7147
 20
-81.2728
 30
0.0
 10
123.6308
 20
-78.5153
 30
0.0
 10
122.1956
 20
-73.6787
 30
0.0
 10
122.1956
 20
-73.6787
 30
0.0
 10
118.9559
 20
-75.2079
 30
0.0
 10
115.0843
 20
-74.0958
 30
0.0
 10
113.1498
 20
-71.0807
 30
0.0
 10
113.1498
 20
-71.0807
 30
0.0
 10
111.3634
 20
-66.7736
 30
0.0
 10
111.3289
 20
-61.9394
 30
0.0
 10
113.0534
 20
-57.6077
 30
0.0
 10
113.0534
 20
-57.6077
 30
0.0
 10
114.7619
 20
-53.9827
 30
0.0
 10
118.7797
 20
-52.0538
 30
0.0
 10
122.6771
 20
-52.9882
 30
0.0
 10
122.6771
 20
-52.9882
 30
0.0
 10
121.7715
 20
-54.5255
 30
0.0
 10
121.4956
 20
-56.353
 30
0.0
 10
121.907
 20
-58.089
 30
0.0
 10
121.907
 20
-58.089
 30
0.0
 10
122.4459
 20
-60.1282
 30
0.0
 10
124.3332
 20
-61.5167
 30
0.0
 10
126.4409
 20
-61.4241
 30
0.0
 10
126.4409
 20
-61.4241
 30
0.0
 10
128.5484
 20
-61.3315
 30
0.0
 10
130.3065
 20
-59.7827
 30
0.0
 10
130.6644
 20
-57.704
 30
0.0
  0
SPLINE
  5
57
330
1F
100
AcDbEntity
  8
layer 1
 62
     7
370
     9
100
AcDbSpline
210
0.0
220
0.0
230
1.0
 70
    11
 71
     3
 72
    20
 73
    16
 74
     0
 42
0.0000000001
 43
0.0000000001
 12
1.0
 22
0.0
 32
0.0
 13
1.0
 23
0.0
 33
0.0
 40
0.0
 40
0.0
 40
0.0
 40
0.0
 40
0.2
 40
0.2
 40
0.2
 40
0.2
 40
0.4
 40
0.4
 40
0.4
 40
0.4
 40
0.6
 40
0.6
 40
0.6
 40
0.6
 40
1.0
 40
1.0
 40
1.0
 40
1.0
 10
139.9029
 20
-34.1263
 30
0.0
 10
133.7593
 20
-36.5892
 30
0.0
 10
127.1764
 20
-37.768
 30
0.0
 10
120.5597
 20
-37.5911
 30
0.0
 10
120.5597
 20
-37.5911
 30
0.0
 10
114.9486
 20
-37.4614
 30
0.0
 10
109.4572
 20
-39.2244
 30
0.0
 10
104.9695
 20
-42.5949
 30
0.0
 10
104.9695
 20
-42.5949
 30
0.0
 10
108.0246
 20
-36.3556
 30
0.0
 10
113.6972
 20
-31.799
 30
0.0
 10
120.4488
 20
-30.1625
 30
0.0
 10
120.4488
 20
-30.1625
 30
0.0
 10
127.2004
 20
-28.5253
 30
0.0
 10
134.3301
 20
-29.978
 30
0.0
 10
139.9029
 20
-34.1263
 30
0.0
  0
SPLINE
  5
58
330
1F
100
AcDbEntity
  8
layer 1
 62
     7
370
     9
100
AcDbSpline
210
0.0
220
0.0
230
1.0
 70
    11
 71
     3
 72
    28
 73
    24
 74
     0
 42
0.0000000001
 43
0.0000000001
 12
1.0
 22
0.0
 32
0.0
 13
1.0
 23
0.0
 33
0.0
 40
0.0
 40
0.0
 40
0.0
 40
0.0
 40
0.1428571428571428
 40
0.1428571428571428
 40
0.1428571428571428
 40
0.1428571428571428
 40
0.2857142857142857
 40
0.2857142857142857
 40
0.2857142857142857
 40
0.2857142857142857
 40
0.4285714285714285
 40
0.4285714285714285
 40
0.4285714285714285
 40
0.4285714285714285
 40
0.5714285714285714
 40
0.5714285714285714
 40
0.5714285714285714
 40
0.5714285714285714
 40
0.7142857142857143
 40
0.7142857142857143
 40
0.7142857142857143
 40
0.7142857142857143
 40
1.0
 40
1.0
 40
1.0
 40
1.0
 10
145.2921
 20
-44.0867
 30
0.0
 10
146.9431
 20
-49.339
 30
0.0
 10
147.5161
 20
-54.8711
 30
0.0
 10
146.9761
 20
-60.3502
 30
0.0
 10
146.9761
 20
-60.3502
 30
0.0
 10
146.7819
 20
-67.0846
 30
0.0
 10
142.4286
 20
-72.9915
 30
0.0
 10
136.0535
 20
-75.1703
 30
0.0
 10
136.0535
 20
-75.1703
 30
0.0
 10
135.2381
 20
-73.5947
 30
0.0
 10
134.3053
 20
-72.0826
 30
0.0
 10
133.2629
 20
-70.6474
 30
0.0
 10
133.2629
 20
-70.6474
 30
0.0
 10
132.293
 20
-68.8987
 30
0.0
 10
132.3487
 20
-66.7622
 30
0.0
 10
133.4072
 20
-65.0658
 30
0.0
 10
133.4072
 20
-65.0658
 30
0.0
 10
137.268
 20
-59.2013
 30
0.0
 10
136.938
 20
-51.5232
 30
0.0
 10
132.5889
 20
-46.0114
 30
0.0
 10
132.5889
 20
-46.0114
 30
0.0
 10
136.9202
 20
-46.5908
 30
0.0
 10
141.3268
 20
-45.9229
 30
0.0
 10
145.2921
 20
-44.0867
 30
0.0
  0
SPLINE
  5
59
330
1F
100
AcDbEntity
  8
layer 1
 62
     7
370
     9
100
AcDbSpline
210
0.0
220
0.0
230
1.0
 70
    11
 71
     3
 72
    36
 73
    32
 74
     0
 42
0.0000000001
 43
0.0000000001
 12
1.0
 22
0.0
 32
0.0
 13
1.0
 23
0.0
 33
0.0
 40
0.0
 40
0.0
 40
0.0
 40
0.0
 40
0.1111111111111111
 40
0.1111111111111111
 40
0.1111111111111111
 40
0.1111111111111111
 40
0.2222222222222222
 40
0.2222222222222222
 40
0.2222222222222222
 40
0.2222222222222222
 40
0.3333333333333333
 40
0.3333333333333333
 40
0.3333333333333333
 40
0.3333333333333333
 40
0.4444444444444444
 40
0.4444444444444444
 40
0.4444444444444444
 40
0.4444444444444444
 40
0.5555555555555556
 40
0.5555555555555556
 40
0.5555555555555556
 40
0.5555555555555556
 40
0.6666666666666666
 40
0.6666666666666666
 40
0.6666666666666666
 40
0.6666666666666666
 40
0.7777777777777778
 40
0.7777777777777778
 40
0.7777777777777778
 40
0.7777777777777778
 40
1.0
 40
1.0
 40
1.0
 40
1.0
 10
150.9698
 20
-42.6915
 30
0.0
 10
156.0831
 20
-38.5563
 30
0.0
 10
160.1817
 20
-33.306
 30
0.0
 10
162.951
 20
-27.3419
 30
0.0
 10
162.951
 20
-27.3419
 30
0.0
 10
164.0156
 20
-32.6767
 30
0.0
 10
164.4037
 20
-38.125
 30
0.0
 10
164.1058
 20
-43.5575
 30
0.0
 10
164.1058
 20
-43.5575
 30
0.0
 10
162.9094
 20
-43.3091
 30
0.0
 10
161.6699
 20
-43.3588
 30
0.0
 10
160.4971
 20
-43.7015
 30
0.0
 10
160.4971
 20
-43.7015
 30
0.0
 10
158.2308
 20
-45.1366
 30
0.0
 10
157.1668
 20
-47.8826
 30
0.0
 10
157.8742
 20
-50.4701
 30
0.0
 10
157.8742
 20
-50.4701
 30
0.0
 10
158.5821
 20
-53.0571
 30
0.0
 10
160.8954
 20
-54.8795
 30
0.0
 10
163.5766
 20
-54.9613
 30
0.0
 10
163.5766
 20
-54.9613
 30
0.0
 10
162.6868
 20
-63.1198
 30
0.0
 10
160.0268
 20
-70.9857
 30
0.0
 10
155.7815
 20
-78.0094
 30
0.0
 10
155.7815
 20
-78.0094
 30
0.0
 10
154.7472
 20
-74.1798
 30
0.0
 10
154.1975
 20
-70.2352
 30
0.0
 10
154.1456
 20
-66.269
 30
0.0
 10
154.1456
 20
-66.269
 30
0.0
 10
154.2497
 20
-58.2964
 30
0.0
 10
153.1793
 20
-50.3521
 30
0.0
 10
150.9698
 20
-42.6915
 30
0.0
  0
SPLINE
  5
5A
330
1F
100
AcDbEntity
  8
layer 1
 62
     7
370
     9
100
AcDbSpline
210
0.0
220
0.0
230
1.0
 70
    11
 71
     3
 72
    20
 73
    16
 74
     0
 42
0.0000000001
 43
0.0000000001
 12
1.0
 22
0.0
 32
0.0
 13
1.0
 23
0.0
 33
0.0
 40
0.0
 40
0.0
 40
0.0
 40
0.0
 40
0.2
 40
0.2
 40
0.2
 40
0.2
 40
0.4
 40
0.4
 40
0.4
 40
0.4
 40
0.6
 40
0.6
 40
0.6
 40
0.6
 40
1.0
 40
1.0
 40
1.0
 40
1.0
 10
159.8715
 20
-17.1415
 30
0.0
 10
157.3553
 20
-24.0541
 30
0.0
 10
152.3193
 20
-29.7597
 30
0.0
 10
145.7731
 20
-33.116
 30
0.0
 10
145.7731
 20
-33.116
 30
0.0
 10
143.9551
 20
-30.8198
 30
0.0
 10
141.7583
 20
-28.8504
 30
0.0
 10
139.2773
 20
-27.2937
 30
0.0
 10
139.2773
 20
-27.2937
 30
0.0
 10
146.0032
 20
-22.9499
 30
0.0
 10
151.4636
 20
-16.9088
 30
0.0
 10
155.108
 20
-9.7791
 30
0.0
 10
155.108
 20
-9.7791
 30
0.0
 10
156.6926
 20
-12.235
 30
0.0
 10
158.2805
 20
-14.6893
 30
0.0
 10
159.8715
 20
-17.1415
 30
0.0
  0
SPLINE
  5
5B
330
1F
100
AcDbEntity
  8
layer 1
 62
     7
370
     9
100
AcDbSpline
210
0.0
220
0.0
230
1.0
 70
    11
 71
     3
 72
    40
 73
    36
 74
     0
 42
0.0000000001
 43
0.0000000001
 12
1.0
 22
0.0
 32
0.0
 13
1.0
 23
0.0
 33
0.0
 40
0.0
 40
0.0
 40
0.0
 40
0.0
 40
0.1
 40
0.1
 40
0.1
 40
0.1
 40
0.2
 40
0.2
 40
0.2
 40
0.2
 40
0.3
 40
0.3
 40
0.3
 40
0.3
 40
0.4
 40
0.4
 40
0.4
 40
0.4
 40
0.5
 40
0.5
 40
0.5
 40
0.5
 40
0.6
 40
0.6
 40
0.6
 40
0.6
 40
0.7
 40
0.7
 40
0.7
 40
0.7
 40
0.8
 40
0.8
 40
0.8
 40
0.8
 40
1.0
 40
1.0
 40
1.0
 40
1.0
 10
150.5367
 20
-4.9671
 30
0.0
 10
144.7762
 20
-14.6964
 30
0.0
 10
135.1251
 20
-21.4924
 30
0.0
 10
124.0244
 20
-23.6373
 30
0.0
 10
124.0244
 20
-23.6373
 30
0.0
 10
125.7579
 20
-19.9995
 30
0.0
 10
126.8639
 20
-16.0947
 30
0.0
 10
127.2961
 20
-12.0891
 30
0.0
 10
127.2961
 20
-12.0891
 30
0.0
 10
128.0325
 20
-5.6345
 30
0.0
 10
126.0445
 20
0.8358
 30
0.0
 10
121.8111
 20
5.7632
 30
0.0
 10
121.8111
 20
5.7632
 30
0.0
 10
124.3521
 20
5.5971
 30
0.0
 10
126.8683
 20
5.1618
 30
0.0
 10
129.3171
 20
4.4634
 30
0.0
 10
129.3171
 20
4.4634
 30
0.0
 10
131.596
 20
3.6751
 30
0.0
 10
133.2871
 20
1.7389
 30
0.0
 10
133.762
 20
-0.6255
 30
0.0
 10
133.762
 20
-0.6255
 30
0.0
 10
134.2369
 20
-2.9899
 30
0.0
 10
133.4243
 20
-5.4288
 30
0.0
 10
131.627
 20
-7.0365
 30
0.0
 10
131.627
 20
-7.0365
 30
0.0
 10
134.1882
 20
-9.3484
 30
0.0
 10
137.9303
 20
-9.792
 30
0.0
 10
140.9614
 20
-8.1432
 30
0.0
 10
140.9614
 20
-8.1432
 30
0.0
 10
143.4622
 20
-6.0225
 30
0.0
 10
144.4483
 20
-2.6095
 30
0.0
 10
143.4637
 20
0.5183
 30
0.0
 10
143.4637
 20
0.5183
 30
0.0
 10
146.2036
 20
-0.7559
 30
0.0
 10
148.6212
 20
-2.6307
 30
0.0
 10
150.5367
 20
-4.9671
 30
0.0
  0
SPLINE
  5
5C
330
1F
100
AcDbEntity
  8
layer 1
 62
     7
370
     9
100
AcDbSpline
210
0.0
220
0.0
230
1.0
 70
    11
 71
     3
 72
    48
 73
    44
 74
     0
 42
0.0000000001
 43
0.0000000001
 12
1.0
 22
0.0
 32
0.0
 13
1.0
 23
0.0
 33
0.0
 40
0.0
 40
0.0
 40
0.0
 40
0.0
 40
0.0833333333333333
 40
0.0833333333333333
 40
0.0833333333333333
 40
0.0833333333333333
 40
0.1666666666666667
 40
0.1666666666666667
 40
0.1666666666666667
 40
0.1666666666666667
 40
0.25
 40
0.25
 40
0.25
 40
0.25
 40
0.3333333333333333
 40
0.3333333333333333
 40
0.3333333333333333
 40
0.3333333333333333
 40
0.4166666666666667
 40
0.4166666666666667
 40
0.4166666666666667
 40
0.4166666666666667
 40
0.5
 40
0.5
 40
0.5
 40
0.5
 40
0.5833333333333334
 40
0.5833333333333334
 40
0.5833333333333334
 40
0.5833333333333334
 40
0.6666666666666666
 40
0.6666666666666666
 40
0.6666666666666666
 40
0.6666666666666666
 40
0.75
 40
0.75
 40
0.75
 40
0.75
 40
0.8333333333333334
 40
0.8333333333333334
 40
0.8333333333333334
 40
0.8333333333333334
 40
1.0
 40
1.0
 40
1.0
 40
1.0
 10
108.9636
 20
1.4807
 30
0.0
 10
105.0471
 20
-1.6846
 30
0.0
 10
101.9736
 20
-5.7671
 30
0.0
 10
100.0135
 20
-10.4044
 30
0.0
 10
100.0135
 20
-10.4044
 30
0.0
 10
100.5643
 20
-12.1278
 30
0.0
 10
100.777
 20
-13.9414
 30
0.0
 10
100.6395
 20
-15.7456
 30
0.0
 10
100.6395
 20
-15.7456
 30
0.0
 10
101.8354
 20
-14.7593
 30
0.0
 10
103.4812
 20
-14.5211
 30
0.0
 10
104.9083
 20
-15.1286
 30
0.0
 10
104.9083
 20
-15.1286
 30
0.0
 10
106.3353
 20
-15.7355
 30
0.0
 10
107.3053
 20
-17.0865
 30
0.0
 10
107.4241
 20
-18.6328
 30
0.0
 10
107.4241
 20
-18.6328
 30
0.0
 10
107.7879
 20
-20.1834
 30
0.0
 10
107.5211
 20
-21.8153
 30
0.0
 10
106.6815
 20
-23.1685
 30
0.0
 10
106.6815
 20
-23.1685
 30
0.0
 10
105.8425
 20
-24.522
 30
0.0
 10
104.4994
 20
-25.4872
 30
0.0
 10
102.9489
 20
-25.8503
 30
0.0
 10
102.9489
 20
-25.8503
 30
0.0
 10
103.4278
 20
-28.8907
 30
0.0
 10
103.6691
 20
-31.9629
 30
0.0
 10
103.6706
 20
-35.0404
 30
0.0
 10
103.6706
 20
-35.0404
 30
0.0
 10
106.0691
 20
-32.2049
 30
0.0
 10
108.8743
 20
-29.7404
 30
0.0
 10
111.9952
 20
-27.7266
 30
0.0
 10
111.9952
 20
-27.7266
 30
0.0
 10
112.9777
 20
-27.594
 30
0.0
 10
113.8182
 20
-26.9545
 30
0.0
 10
114.2084
 20
-26.0428
 30
0.0
 10
114.2084
 20
-26.0428
 30
0.0
 10
117.0744
 20
-22.1769
 30
0.0
 10
118.5954
 20
-17.4783
 30
0.0
 10
118.5389
 20
-12.6663
 30
0.0
 10
118.5389
 20
-12.6663
 30
0.0
 10
118.4579
 20
-6.4616
 30
0.0
 10
114.6935
 20
-0.9002
 30
0.0
 10
108.9636
 20
1.4807
 30
0.0
  0
SPLINE
  5
5D
330
1F
100
AcDbEntity
  8
layer 1
 62
     7
370
     9
100
AcDbSpline
210
0.0
220
0.0
230
1.0
 70
    11
 71
     3
 72
    16
 73
    12
 74
     0
 42
0.0000000001
 43
0.0000000001
 12
1.0
 22
0.0
 32
0.0
 13
1.0
 23
0.0
 33
0.0
 40
0.0
 40
0.0
 40
0.0
 40
0.0
 40
0.25
 40
0.25
 40
0.25
 40
0.25
 40
0.5
 40
0.5
 40
0.5
 40
0.5
 40
1.0
 40
1.0
 40
1.0
 40
1.0
 10
26.6347
 20
48.8538
 30
0.0
 10
26.6347
 20
48.8538
 30
0.0
 10
26.6347
 20
23.7956
 30
0.0
 10
26.6347
 20
23.7956
 30
0.0
 10
26.6347
 20
23.7956
 30
0.0
 10
27.3951
 20
28.6494
 30
0.0
 10
28.3581
 20
33.469
 30
0.0
 10
29.5222
 20
38.242
 30
0.0
 10
29.5222
 20
38.242
 30
0.0
 10
28.4263
 20
41.7419
 30
0.0
 10
27.4635
 20
45.2811
 30
0.0
 10
26.6347
 20
48.8538
 30
0.0
  0
SPLINE
  5
5E
330
1F
100
AcDbEntity
  8
layer 1
 62
     7
370
     9
100
AcDbSpline
210
0.0
220
0.0
230
1.0
 70
    11
 71
     3
 72
    16
 73
    12
 74
     0
 42
0.0000000001
 43
0.0000000001
 12
1.0
 22
0.0
 32
0.0
 13
1.0
 23
0.0
 33
0.0
 40
0.0
 40
0.0
 40
0.0
 40
0.0
 40
0.25
 40
0.25
 40
0.25
 40
0.25
 40
0.5
 40
0.5
 40
0.5
 40
0.5
 40
1.0
 40
1.0
 40
1.0
 40
1.0
 10
37.3168
 20
103.0074
 30
0.0
 10
31.9873
 20
95.7442
 30
0.0
 10
28.3387
 20
87.3876
 30
0.0
 10
26.6347
 20
78.5421
 30
0.0
 10
26.6347
 20
78.5421
 30
0.0
 10
26.6347
 20
78.5421
 30
0.0
 10
26.6347
 20
114.4106
 30
0.0
 10
26.6347
 20
114.4106
 30
0.0
 10
26.6347
 20
114.4106
 30
0.0
 10
31.4644
 20
112.0361
 30
0.0
 10
35.2621
 20
107.9815
 30
0.0
 10
37.3168
 20
103.0074
 30
0.0
  0
SPLINE
  5
5F
330
1F
100
AcDbEntity
  8
layer 1
 62
     7
370
     9
100
AcDbSpline
210
0.0
220
0.0
230
1.0
 70
    11
 71
     3
 72
    16
 73
    12
 74
     0
 42
0.0000000001
 43
0.0000000001
 12
1.0
 22
0.0
 32
0.0
 13
1.0
 23
0.0
 33
0.0
 40
0.0
 40
0.0
 40
0.0
 40
0.0
 40
0.25
 40
0.25
 40
0.25
 40
0.25
 40
0.5
 40
0.5
 40
0.5
 40
0.5
 40
1.0
 40
1.0
 40
1.0
 40
1.0
 10
37.649
 20
114.9405
 30
0.0
 10
37.649
 20
114.9405
 30
0.0
 10
52.0762
 20
114.9405
 30
0.0
 10
52.0762
 20
114.9405
 30
0.0
 10
52.0762
 20
114.9405
 30
0.0
 10
49.1304
 20
113.6794
 30
0.0
 10
46.3672
 20
112.0291
 30
0.0
 10
43.8608
 20
110.0331
 30
0.0
 10
43.8608
 20
110.0331
 30
0.0
 10
42.1582
 20
112.0871
 30
0.0
 10
40.0422
 20
113.7595
 30
0.0
 10
37.649
 20
114.9405
 30
0.0
  0
SPLINE
  5
60
330
1F
100
AcDbEntity
  8
layer 1
 62
     7
370
     9
100
AcDbSpline
210
0.0
220
0.0
230
1.0
 70
    11
 71
     3
 72
    20
 73
    16
 74
     0
 42
0.0000000001
 43
0.0000000001
 12
1.0
 22
0.0
 32
0.0
 13
1.0
 23
0.0
 33
0.0
 40
0.0
 40
0.0
 40
0.0
 40
0.0
 40
0.2
 40
0.2
 40
0.2
 40
0.2
 40
0.4
 40
0.4
 40
0.4
 40
0.4
 40
0.6
 40
0.6
 40
0.6
 40
0.6
 40
1.0
 40
1.0
 40
1.0
 40
1.0
 10
73.4583
 20
114.9887
 30
0.0
 10
73.4583
 20
114.9887
 30
0.0
 10
93.7232
 20
114.9405
 30
0.0
 10
93.7232
 20
114.9405
 30
0.0
 10
93.7232
 20
114.9405
 30
0.0
 10
93.8963
 20
114.2646
 30
0.0
 10
93.7302
 20
113.5468
 30
0.0
 10
93.2771
 20
113.016
 30
0.0
 10
93.2771
 20
113.016
 30
0.0
 10
92.598
 20
112.8361
 30
0.0
 10
91.9067
 20
112.7072
 30
0.0
 10
91.2083
 20
112.6311
 30
0.0
 10
91.2083
 20
112.6311
 30
0.0
 10
85.1976
 20
112.337
 30
0.0
 10
79.1835
 20
113.1355
 30
0.0
 10
73.4583
 20
114.9887
 30
0.0
  0
SPLINE
  5
61
330
1F
100
AcDbEntity
  8
layer 1
 62
     7
370
     9
100
AcDbSpline
210
0.0
220
0.0
230
1.0
 70
    11
 71
     3
 72
    20
 73
    16
 74
     0
 42
0.0000000001
 43
0.0000000001
 12
1.0
 22
0.0
 32
0.0
 13
1.0
 23
0.0
 33
0.0
 40
0.0
 40
0.0
 40
0.0
 40
0.0
 40
0.2
 40
0.2
 40
0.2
 40
0.2
 40
0.4
 40
0.4
 40
0.4
 40
0.4
 40
0.6
 40
0.6
 40
0.6
 40
0.6
 40
1.0
 40
1.0
 40
1.0
 40
1.0
 10
91.3044
 20
103.7771
 30
0.0
 10
93.7643
 20
100.8634
 30
0.0
 10
95.775
 20
97.5987
 30
0.0
 10
97.271
 20
94.0905
 30
0.0
 10
97.271
 20
94.0905
 30
0.0
 10
98.7672
 20
97.5987
 30
0.0
 10
100.7776
 20
100.8634
 30
0.0
 10
103.2377
 20
103.7771
 30
0.0
 10
103.2377
 20
103.7771
 30
0.0
 10
101.1107
 20
104.2707
 30
0.0
 10
99.0892
 20
105.1422
 30
0.0
 10
97.271
 20
106.3511
 30
0.0
 10
97.271
 20
106.3511
 30
0.0
 10
95.453
 20
105.1422
 30
0.0
 10
93.4315
 20
104.2707
 30
0.0
 10
91.3044
 20
103.7771
 30
0.0
  0
SPLINE
  5
62
330
1F
100
AcDbEntity
  8
layer 1
 62
     7
370
     9
100
AcDbSpline
210
0.0
220
0.0
230
1.0
 70
    11
 71
     3
 72
    20
 73
    16
 74
     0
 42
0.0000000001
 43
0.0000000001
 12
1.0
 22
0.0
 32
0.0
 13
1.0
 23
0.0
 33
0.0
 40
0.0
 40
0.0
 40
0.0
 40
0.0
 40
0.2
 40
0.2
 40
0.2
 40
0.2
 40
0.4
 40
0.4
 40
0.4
 40
0.4
 40
0.6
 40
0.6
 40
0.6
 40
0.6
 40
1.0
 40
1.0
 40
1.0
 40
1.0
 10
97.271
 20
64.8515
 30
0.0
 10
97.9361
 20
62.4341
 30
0.0
 10
98.9922
 20
60.1419
 30
0.0
 10
100.3982
 20
58.0663
 30
0.0
 10
100.3982
 20
58.0663
 30
0.0
 10
100.1818
 20
53.7812
 30
0.0
 10
99.1187
 20
49.5823
 30
0.0
 10
97.271
 20
45.7102
 30
0.0
 10
97.271
 20
45.7102
 30
0.0
 10
95.4235
 20
49.5823
 30
0.0
 10
94.3611
 20
53.7812
 30
0.0
 10
94.1431
 20
58.0663
 30
0.0
 10
94.1431
 20
58.0663
 30
0.0
 10
95.55
 20
60.1419
 30
0.0
 10
96.606
 20
62.4341
 30
0.0
 10
97.271
 20
64.8515
 30
0.0
  0
SPLINE
  5
63
330
1F
100
AcDbEntity
  8
layer 1
 62
     7
370
     9
100
AcDbSpline
210
0.0
220
0.0
230
1.0
 70
    11
 71
     3
 72
    20
 73
    16
 74
     0
 42
0.0000000001
 43
0.0000000001
 12
1.0
 22
0.0
 32
0.0
 13
1.0
 23
0.0
 33
0.0
 40
0.0
 40
0.0
 40
0.0
 40
0.0
 40
0.2
 40
0.2
 40
0.2
 40
0.2
 40
0.4
 40
0.4
 40
0.4
 40
0.4
 40
0.6
 40
0.6
 40
0.6
 40
0.6
 40
1.0
 40
1.0
 40
1.0
 40
1.0
 10
91.3526
 20
14.809
 30
0.0
 10
93.2942
 20
14.3651
 30
0.0
 10
95.2798
 20
14.1438
 30
0.0
 10
97.271
 20
14.1469
 30
0.0
 10
97.271
 20
14.1469
 30
0.0
 10
99.2623
 20
14.1438
 30
0.0
 10
101.2479
 20
14.3651
 30
0.0
 10
103.1895
 20
14.809
 30
0.0
 10
103.1895
 20
14.809
 30
0.0
 10
100.9538
 20
17.0159
 30
0.0
 10
98.9689
 20
19.4632
 30
0.0
 10
97.271
 20
22.1054
 30
0.0
 10
97.271
 20
22.1054
 30
0.0
 10
95.5733
 20
19.4632
 30
0.0
 10
93.5883
 20
17.0159
 30
0.0
 10
91.3526
 20
14.809
 30
0.0
  0
SPLINE
  5
64
330
1F
100
AcDbEntity
  8
layer 1
 62
     7
370
     9
100
AcDbSpline
210
0.0
220
0.0
230
1.0
 70
    11
 71
     3
 72
    76
 73
    72
 74
     0
 42
0.0000000001
 43
0.0000000001
 12
1.0
 22
0.0
 32
0.0
 13
1.0
 23
0.0
 33
0.0
 40
0.0
 40
0.0
 40
0.0
 40
0.0
 40
0.0526315789473684
 40
0.0526315789473684
 40
0.0526315789473684
 40
0.0526315789473684
 40
0.1052631578947368
 40
0.1052631578947368
 40
0.1052631578947368
 40
0.1052631578947368
 40
0.1578947368421053
 40
0.1578947368421053
 40
0.1578947368421053
 40
0.1578947368421053
 40
0.2105263157894737
 40
0.2105263157894737
 40
0.2105263157894737
 40
0.2105263157894737
 40
0.2631578947368421
 40
0.2631578947368421
 40
0.2631578947368421
 40
0.2631578947368421
 40
0.3157894736842105
 40
0.3157894736842105
 40
0.3157894736842105
 40
0.3157894736842105
 40
0.3684210526315789
 40
0.3684210526315789
 40
0.3684210526315789
 40
0.3684210526315789
 40
0.4210526315789473
 40
0.4210526315789473
 40
0.4210526315789473
 40
0.4210526315789473
 40
0.4736842105263158
 40
0.4736842105263158
 40
0.4736842105263158
 40
0.4736842105263158
 40
0.5263157894736842
 40
0.5263157894736842
 40
0.5263157894736842
 40
0.5263157894736842
 40
0.5789473684210527
 40
0.5789473684210527
 40
0.5789473684210527
 40
0.5789473684210527
 40
0.631578947368421
 40
0.631578947368421
 40
0.631578947368421
 40
0.631578947368421
 40
0.6842105263157895
 40
0.6842105263157895
 40
0.6842105263157895
 40
0.6842105263157895
 40
0.7368421052631579
 40
0.7368421052631579
 40
0.7368421052631579
 40
0.7368421052631579
 40
0.7894736842105263
 40
0.7894736842105263
 40
0.7894736842105263
 40
0.7894736842105263
 40
0.8421052631578947
 40
0.8421052631578947
 40
0.8421052631578947
 40
0.8421052631578947
 40
0.8947368421052632
 40
0.8947368421052632
 40
0.8947368421052632
 40
0.8947368421052632
 40
1.0
 40
1.0
 40
1.0
 40
1.0
 10
63.8773
 20
75.4848
 30
0.0
 10
63.0632
 20
71.0253
 30
0.0
 10
64.7635
 20
66.478
 30
0.0
 10
68.3043
 20
63.6479
 30
0.0
 10
68.3043
 20
63.6479
 30
0.0
 10
74.3687
 20
61.049
 30
0.0
 10
81.3106
 20
61.514
 30
0.0
 10
86.9738
 20
64.8988
 30
0.0
 10
86.9738
 20
64.8988
 30
0.0
 10
93.1359
 20
70.9096
 30
0.0
 10
95.6292
 20
79.7464
 30
0.0
 10
93.5177
 20
88.0914
 30
0.0
 10
93.5177
 20
88.0914
 30
0.0
 10
91.344
 20
94.4964
 30
0.0
 10
87.6449
 20
100.2759
 30
0.0
 10
82.7392
 20
104.9326
 30
0.0
 10
82.7392
 20
104.9326
 30
0.0
 10
82.8525
 20
102.597
 30
0.0
 10
81.9383
 20
100.3296
 30
0.0
 10
80.2374
 20
98.7256
 30
0.0
 10
80.2374
 20
98.7256
 30
0.0
 10
77.6387
 20
97.5011
 30
0.0
 10
74.5354
 20
98.3849
 30
0.0
 10
72.9719
 20
100.7944
 30
0.0
 10
72.9719
 20
100.7944
 30
0.0
 10
71.7822
 20
103.1773
 30
0.0
 10
71.873
 20
105.9987
 30
0.0
 10
73.2124
 20
108.3004
 30
0.0
 10
73.2124
 20
108.3004
 30
0.0
 10
64.0209
 20
112.4582
 30
0.0
 10
53.2532
 20
110.9202
 30
0.0
 10
45.5928
 20
104.3545
 30
0.0
 10
45.5928
 20
104.3545
 30
0.0
 10
46.1585
 20
102.4518
 30
0.0
 10
46.6396
 20
100.5258
 30
0.0
 10
47.0368
 20
98.5804
 30
0.0
 10
47.0368
 20
98.5804
 30
0.0
 10
48.9837
 20
100.3705
 30
0.0
 10
51.5817
 20
101.2816
 30
0.0
 10
54.2202
 20
101.1001
 30
0.0
 10
54.2202
 20
101.1001
 30
0.0
 10
56.8593
 20
100.9178
 30
0.0
 10
59.3075
 20
99.6591
 30
0.0
 10
60.9907
 20
97.619
 30
0.0
 10
60.9907
 20
97.619
 30
0.0
 10
65.8273
 20
99.0538
 30
0.0
 10
70.9109
 20
96.2959
 30
0.0
 10
72.3464
 20
91.4591
 30
0.0
 10
72.3464
 20
91.4591
 30
0.0
 10
75.5862
 20
92.9887
 30
0.0
 10
79.4576
 20
91.8766
 30
0.0
 10
81.392
 20
88.8611
 30
0.0
 10
81.392
 20
88.8611
 30
0.0
 10
83.1783
 20
84.5544
 30
0.0
 10
83.2133
 20
79.72
 30
0.0
 10
81.4883
 20
75.3885
 30
0.0
 10
81.4883
 20
75.3885
 30
0.0
 10
79.7803
 20
71.763
 30
0.0
 10
75.7622
 20
69.8348
 30
0.0
 10
71.8653
 20
70.769
 30
0.0
 10
71.8653
 20
70.769
 30
0.0
 10
72.7709
 20
72.3064
 30
0.0
 10
73.0463
 20
74.1338
 30
0.0
 10
72.6352
 20
75.8696
 30
0.0
 10
72.6352
 20
75.8696
 30
0.0
 10
72.0958
 20
77.9088
 30
0.0
 10
70.2085
 20
79.2973
 30
0.0
 10
68.101
 20
79.2049
 30
0.0
 10
68.101
 20
79.2049
 30
0.0
 10
65.9933
 20
79.1125
 30
0.0
 10
64.2358
 20
77.5637
 30
0.0
 10
63.8773
 20
75.4848
 30
0.0
  0
SPLINE
  5
65
330
1F
100
AcDbEntity
  8
layer 1
 62
     7
370
     9
100
AcDbSpline
210
0.0
220
0.0
230
1.0
 70
    11
 71
     3
 72
    20
 73
    16
 74
     0
 42
0.0000000001
 43
0.0000000001
 12
1.0
 22
0.0
 32
0.0
 13
1.0
 23
0.0
 33
0.0
 40
0.0
 40
0.0
 40
0.0
 40
0.0
 40
0.2
 40
0.2
 40
0.2
 40
0.2
 40
0.4
 40
0.4
 40
0.4
 40
0.4
 40
0.6
 40
0.6
 40
0.6
 40
0.6
 40
1.0
 40
1.0
 40
1.0
 40
1.0
 10
54.6392
 20
51.9073
 30
0.0
 10
60.7826
 20
54.3702
 30
0.0
 10
67.3661
 20
55.549
 30
0.0
 10
73.9822
 20
55.372
 30
0.0
 10
73.9822
 20
55.372
 30
0.0
 10
79.5933
 20
55.2424
 30
0.0
 10
85.0849
 20
57.0054
 30
0.0
 10
89.5724
 20
60.3755
 30
0.0
 10
89.5724
 20
60.3755
 30
0.0
 10
86.5182
 20
54.1358
 30
0.0
 10
80.8449
 20
49.5801
 30
0.0
 10
74.0931
 20
47.9435
 30
0.0
 10
74.0931
 20
47.9435
 30
0.0
 10
67.3413
 20
46.3061
 30
0.0
 10
60.2122
 20
47.7588
 30
0.0
 10
54.6392
 20
51.9073
 30
0.0
  0
SPLINE
  5
66
330
1F
100
AcDbEntity
  8
layer 1
 62
     7
370
     9
100
AcDbSpline
210
0.0
220
0.0
230
1.0
 70
    11
 71
     3
 72
    28
 73
    24
 74
     0
 42
0.0000000001
 43
0.0000000001
 12
1.0
 22
0.0
 32
0.0
 13
1.0
 23
0.0
 33
0.0
 40
0.0
 40
0.0
 40
0.0
 40
0.0
 40
0.1428571428571428
 40
0.1428571428571428
 40
0.1428571428571428
 40
0.1428571428571428
 40
0.2857142857142857
 40
0.2857142857142857
 40
0.2857142857142857
 40
0.2857142857142857
 40
0.4285714285714285
 40
0.4285714285714285
 40
0.4285714285714285
 40
0.4285714285714285
 40
0.5714285714285714
 40
0.5714285714285714
 40
0.5714285714285714
 40
0.5714285714285714
 40
0.7142857142857143
 40
0.7142857142857143
 40
0.7142857142857143
 40
0.7142857142857143
 40
1.0
 40
1.0
 40
1.0
 40
1.0
 10
49.2499
 20
61.8677
 30
0.0
 10
47.5986
 20
67.1196
 30
0.0
 10
47.026
 20
72.6517
 30
0.0
 10
47.5661
 20
78.1308
 30
0.0
 10
47.5661
 20
78.1308
 30
0.0
 10
47.7601
 20
84.8657
 30
0.0
 10
52.1134
 20
90.7724
 30
0.0
 10
58.4882
 20
92.9513
 30
0.0
 10
58.4882
 20
92.9513
 30
0.0
 10
59.3036
 20
91.3753
 30
0.0
 10
60.2371
 20
89.8637
 30
0.0
 10
61.2793
 20
88.4282
 30
0.0
 10
61.2793
 20
88.4282
 30
0.0
 10
62.2493
 20
86.6799
 30
0.0
 10
62.1935
 20
84.5428
 30
0.0
 10
61.135
 20
82.8466
 30
0.0
 10
61.135
 20
82.8466
 30
0.0
 10
57.2744
 20
76.9817
 30
0.0
 10
57.6041
 20
69.3041
 30
0.0
 10
61.9528
 20
63.7922
 30
0.0
 10
61.9528
 20
63.7922
 30
0.0
 10
57.6222
 20
64.3711
 30
0.0
 10
53.2152
 20
63.7038
 30
0.0
 10
49.2499
 20
61.8677
 30
0.0
  0
SPLINE
  5
67
330
1F
100
AcDbEntity
  8
layer 1
 62
     7
370
     9
100
AcDbSpline
210
0.0
220
0.0
230
1.0
 70
    11
 71
     3
 72
    36
 73
    32
 74
     0
 42
0.0000000001
 43
0.0000000001
 12
1.0
 22
0.0
 32
0.0
 13
1.0
 23
0.0
 33
0.0
 40
0.0
 40
0.0
 40
0.0
 40
0.0
 40
0.1111111111111111
 40
0.1111111111111111
 40
0.1111111111111111
 40
0.1111111111111111
 40
0.2222222222222222
 40
0.2222222222222222
 40
0.2222222222222222
 40
0.2222222222222222
 40
0.3333333333333333
 40
0.3333333333333333
 40
0.3333333333333333
 40
0.3333333333333333
 40
0.4444444444444444
 40
0.4444444444444444
 40
0.4444444444444444
 40
0.4444444444444444
 40
0.5555555555555556
 40
0.5555555555555556
 40
0.5555555555555556
 40
0.5555555555555556
 40
0.6666666666666666
 40
0.6666666666666666
 40
0.6666666666666666
 40
0.6666666666666666
 40
0.7777777777777778
 40
0.7777777777777778
 40
0.7777777777777778
 40
0.7777777777777778
 40
1.0
 40
1.0
 40
1.0
 40
1.0
 10
43.5722
 20
60.4718
 30
0.0
 10
38.4591
 20
56.3374
 30
0.0
 10
34.3603
 20
51.0871
 30
0.0
 10
31.5909
 20
45.1227
 30
0.0
 10
31.5909
 20
45.1227
 30
0.0
 10
30.5263
 20
50.4577
 30
0.0
 10
30.1383
 20
55.9058
 30
0.0
 10
30.4361
 20
61.3385
 30
0.0
 10
30.4361
 20
61.3385
 30
0.0
 10
31.6327
 20
61.0895
 30
0.0
 10
32.872
 20
61.1392
 30
0.0
 10
34.0453
 20
61.4828
 30
0.0
 10
34.0453
 20
61.4828
 30
0.0
 10
36.3111
 20
62.917
 30
0.0
 10
37.3751
 20
65.6632
 30
0.0
 10
36.6681
 20
68.2502
 30
0.0
 10
36.6681
 20
68.2502
 30
0.0
 10
35.9605
 20
70.8381
 30
0.0
 10
33.6465
 20
72.6603
 30
0.0
 10
30.9653
 20
72.7417
 30
0.0
 10
30.9653
 20
72.7417
 30
0.0
 10
31.8555
 20
80.9004
 30
0.0
 10
34.5156
 20
88.7665
 30
0.0
 10
38.7602
 20
95.79
 30
0.0
 10
38.7602
 20
95.79
 30
0.0
 10
39.7954
 20
91.9604
 30
0.0
 10
40.3448
 20
88.0162
 30
0.0
 10
40.3968
 20
84.0494
 30
0.0
 10
40.3968
 20
84.0494
 30
0.0
 10
40.2927
 20
76.0768
 30
0.0
 10
41.3628
 20
68.133
 30
0.0
 10
43.5722
 20
60.4718
 30
0.0
  0
SPLINE
  5
68
330
1F
100
AcDbEntity
  8
layer 1
 62
     7
370
     9
100
AcDbSpline
210
0.0
220
0.0
230
1.0
 70
    11
 71
     3
 72
    20
 73
    16
 74
     0
 42
0.0000000001
 43
0.0000000001
 12
1.0
 22
0.0
 32
0.0
 13
1.0
 23
0.0
 33
0.0
 40
0.0
 40
0.0
 40
0.0
 40
0.0
 40
0.2
 40
0.2
 40
0.2
 40
0.2
 40
0.4
 40
0.4
 40
0.4
 40
0.4
 40
0.6
 40
0.6
 40
0.6
 40
0.6
 40
1.0
 40
1.0
 40
1.0
 40
1.0
 10
34.6709
 20
34.9217
 30
0.0
 10
37.1866
 20
41.8343
 30
0.0
 10
42.2227
 20
47.5408
 30
0.0
 10
48.7688
 20
50.8968
 30
0.0
 10
48.7688
 20
50.8968
 30
0.0
 10
50.587
 20
48.5999
 30
0.0
 10
52.7838
 20
46.6312
 30
0.0
 10
55.2646
 20
45.0748
 30
0.0
 10
55.2646
 20
45.0748
 30
0.0
 10
48.5392
 20
40.7307
 30
0.0
 10
43.0786
 20
34.6889
 30
0.0
 10
39.4337
 20
27.5599
 30
0.0
 10
39.4337
 20
27.5599
 30
0.0
 10
37.8491
 20
30.016
 30
0.0
 10
36.2614
 20
32.4695
 30
0.0
 10
34.6709
 20
34.9217
 30
0.0
  0
SPLINE
  5
69
330
1F
100
AcDbEntity
  8
layer 1
 62
     7
370
     9
100
AcDbSpline
210
0.0
220
0.0
230
1.0
 70
    11
 71
     3
 72
    40
 73
    36
 74
     0
 42
0.0000000001
 43
0.0000000001
 12
1.0
 22
0.0
 32
0.0
 13
1.0
 23
0.0
 33
0.0
 40
0.0
 40
0.0
 40
0.0
 40
0.0
 40
0.1
 40
0.1
 40
0.1
 40
0.1
 40
0.2
 40
0.2
 40
0.2
 40
0.2
 40
0.3
 40
0.3
 40
0.3
 40
0.3
 40
0.4
 40
0.4
 40
0.4
 40
0.4
 40
0.5
 40
0.5
 40
0.5
 40
0.5
 40
0.6
 40
0.6
 40
0.6
 40
0.6
 40
0.7
 40
0.7
 40
0.7
 40
0.7
 40
0.8
 40
0.8
 40
0.8
 40
0.8
 40
1.0
 40
1.0
 40
1.0
 40
1.0
 10
44.005
 20
22.7479
 30
0.0
 10
49.7659
 20
32.4774
 30
0.0
 10
59.4169
 20
39.2725
 30
0.0
 10
70.5182
 20
41.4174
 30
0.0
 10
70.5182
 20
41.4174
 30
0.0
 10
68.7838
 20
37.7803
 30
0.0
 10
67.6781
 20
33.8757
 30
0.0
 10
67.2458
 20
29.8693
 30
0.0
 10
67.2458
 20
29.8693
 30
0.0
 10
66.5094
 20
23.4147
 30
0.0
 10
68.4974
 20
16.9453
 30
0.0
 10
72.7313
 20
12.0176
 30
0.0
 10
72.7313
 20
12.0176
 30
0.0
 10
70.1907
 20
12.1837
 30
0.0
 10
67.6741
 20
12.619
 30
0.0
 10
65.2252
 20
13.3174
 30
0.0
 10
65.2252
 20
13.3174
 30
0.0
 10
62.9462
 20
14.1058
 30
0.0
 10
61.2553
 20
16.0419
 30
0.0
 10
60.7804
 20
18.4063
 30
0.0
 10
60.7804
 20
18.4063
 30
0.0
 10
60.3055
 20
20.7709
 30
0.0
 10
61.1178
 20
23.2097
 30
0.0
 10
62.9158
 20
24.8176
 30
0.0
 10
62.9158
 20
24.8176
 30
0.0
 10
60.3535
 20
27.1292
 30
0.0
 10
56.6116
 20
27.5731
 30
0.0
 10
53.5808
 20
25.9242
 30
0.0
 10
53.5808
 20
25.9242
 30
0.0
 10
51.0798
 20
23.8033
 30
0.0
 10
50.0934
 20
20.3906
 30
0.0
 10
51.0789
 20
17.2625
 30
0.0
 10
51.0789
 20
17.2625
 30
0.0
 10
48.3381
 20
18.5361
 30
0.0
 10
45.9209
 20
20.4115
 30
0.0
 10
44.005
 20
22.7479
 30
0.0
  0
SPLINE
  5
6A
330
1F
100
AcDbEntity
  8
layer 1
 62
     7
370
     9
100
AcDbSpline
210
0.0
220
0.0
230
1.0
 70
    11
 71
     3
 72
    48
 73
    44
 74
     0
 42
0.0000000001
 43
0.0000000001
 12
1.0
 22
0.0
 32
0.0
 13
1.0
 23
0.0
 33
0.0
 40
0.0
 40
0.0
 40
0.0
 40
0.0
 40
0.0833333333333333
 40
0.0833333333333333
 40
0.0833333333333333
 40
0.0833333333333333
 40
0.1666666666666667
 40
0.1666666666666667
 40
0.1666666666666667
 40
0.1666666666666667
 40
0.25
 40
0.25
 40
0.25
 40
0.25
 40
0.3333333333333333
 40
0.3333333333333333
 40
0.3333333333333333
 40
0.3333333333333333
 40
0.4166666666666667
 40
0.4166666666666667
 40
0.4166666666666667
 40
0.4166666666666667
 40
0.5
 40
0.5
 40
0.5
 40
0.5
 40
0.5833333333333334
 40
0.5833333333333334
 40
0.5833333333333334
 40
0.5833333333333334
 40
0.6666666666666666
 40
0.6666666666666666
 40
0.6666666666666666
 40
0.6666666666666666
 40
0.75
 40
0.75
 40
0.75
 40
0.75
 40
0.8333333333333334
 40
0.8333333333333334
 40
0.8333333333333334
 40
0.8333333333333334
 40
1.0
 40
1.0
 40
1.0
 40
1.0
 10
85.5785
 20
16.3003
 30
0.0
 10
89.4941
 20
19.4648
 30
0.0
 10
92.5686
 20
23.5473
 30
0.0
 10
94.5287
 20
28.1852
 30
0.0
 10
94.5287
 20
28.1852
 30
0.0
 10
93.9779
 20
29.9089
 30
0.0
 10
93.7652
 20
31.7223
 30
0.0
 10
93.9024
 20
33.5264
 30
0.0
 10
93.9024
 20
33.5264
 30
0.0
 10
92.7067
 20
32.5401
 30
0.0
 10
91.0601
 20
32.3019
 30
0.0
 10
89.6338
 20
32.9088
 30
0.0
 10
89.6338
 20
32.9088
 30
0.0
 10
88.2067
 20
33.5163
 30
0.0
 10
87.2369
 20
34.8673
 30
0.0
 10
87.1181
 20
36.4132
 30
0.0
 10
87.1181
 20
36.4132
 30
0.0
 10
86.754
 20
37.9635
 30
0.0
 10
87.0211
 20
39.5955
 30
0.0
 10
87.8607
 20
40.9496
 30
0.0
 10
87.8607
 20
40.9496
 30
0.0
 10
88.6996
 20
42.3028
 30
0.0
 10
90.0427
 20
43.2673
 30
0.0
 10
91.5932
 20
43.6314
 30
0.0
 10
91.5932
 20
43.6314
 30
0.0
 10
91.1144
 20
46.6708
 30
0.0
 10
90.8731
 20
49.7437
 30
0.0
 10
90.8715
 20
52.8213
 30
0.0
 10
90.8715
 20
52.8213
 30
0.0
 10
88.4728
 20
49.9859
 30
0.0
 10
85.6678
 20
47.5206
 30
0.0
 10
82.5474
 20
45.5077
 30
0.0
 10
82.5474
 20
45.5077
 30
0.0
 10
81.5644
 20
45.375
 30
0.0
 10
80.7239
 20
44.7356
 30
0.0
 10
80.3337
 20
43.8238
 30
0.0
 10
80.3337
 20
43.8238
 30
0.0
 10
77.468
 20
39.9577
 30
0.0
 10
75.947
 20
35.2593
 30
0.0
 10
76.0037
 20
30.4465
 30
0.0
 10
76.0037
 20
30.4465
 30
0.0
 10
76.0842
 20
24.2426
 30
0.0
 10
79.8487
 20
18.681
 30
0.0
 10
85.5785
 20
16.3003
 30
0.0
  0
SPLINE
  5
6B
330
1F
100
AcDbEntity
  8
layer 1
 62
     7
370
     9
100
AcDbSpline
210
0.0
220
0.0
230
1.0
 70
    11
 71
     3
 72
    16
 73
    12
 74
     0
 42
0.0000000001
 43
0.0000000001
 12
1.0
 22
0.0
 32
0.0
 13
1.0
 23
0.0
 33
0.0
 40
0.0
 40
0.0
 40
0.0
 40
0.0
 40
0.25
 40
0.25
 40
0.25
 40
0.25
 40
0.5
 40
0.5
 40
0.5
 40
0.5
 40
1.0
 40
1.0
 40
1.0
 40
1.0
 10
167.9073
 20
48.8538
 30
0.0
 10
167.9073
 20
48.8538
 30
0.0
 10
167.9073
 20
23.7956
 30
0.0
 10
167.9073
 20
23.7956
 30
0.0
 10
167.9073
 20
23.7956
 30
0.0
 10
167.1473
 20
28.6494
 30
0.0
 10
166.184
 20
33.469
 30
0.0
 10
165.02
 20
38.242
 30
0.0
 10
165.02
 20
38.242
 30
0.0
 10
166.1159
 20
41.7419
 30
0.0
 10
167.0789
 20
45.2811
 30
0.0
 10
167.9073
 20
48.8538
 30
0.0
  0
SPLINE
  5
6C
330
1F
100
AcDbEntity
  8
layer 1
 62
     7
370
     9
100
AcDbSpline
210
0.0
220
0.0
230
1.0
 70
    11
 71
     3
 72
    16
 73
    12
 74
     0
 42
0.0000000001
 43
0.0000000001
 12
1.0
 22
0.0
 32
0.0
 13
1.0
 23
0.0
 33
0.0
 40
0.0
 40
0.0
 40
0.0
 40
0.0
 40
0.25
 40
0.25
 40
0.25
 40
0.25
 40
0.5
 40
0.5
 40
0.5
 40
0.5
 40
1.0
 40
1.0
 40
1.0
 40
1.0
 10
157.2251
 20
103.0074
 30
0.0
 10
162.5544
 20
95.7442
 30
0.0
 10
166.2032
 20
87.3876
 30
0.0
 10
167.9073
 20
78.5421
 30
0.0
 10
167.9073
 20
78.5421
 30
0.0
 10
167.9073
 20
78.5421
 30
0.0
 10
167.9073
 20
114.4106
 30
0.0
 10
167.9073
 20
114.4106
 30
0.0
 10
167.9073
 20
114.4106
 30
0.0
 10
163.0777
 20
112.0361
 30
0.0
 10
159.2798
 20
107.9815
 30
0.0
 10
157.2251
 20
103.0074
 30
0.0
  0
SPLINE
  5
6D
330
1F
100
AcDbEntity
  8
layer 1
 62
     7
370
     9
100
AcDbSpline
210
0.0
220
0.0
230
1.0
 70
    11
 71
     3
 72
    16
 73
    12
 74
     0
 42
0.0000000001
 43
0.0000000001
 12
1.0
 22
0.0
 32
0.0
 13
1.0
 23
0.0
 33
0.0
 40
0.0
 40
0.0
 40
0.0
 40
0.0
 40
0.25
 40
0.25
 40
0.25
 40
0.25
 40
0.5
 40
0.5
 40
0.5
 40
0.5
 40
1.0
 40
1.0
 40
1.0
 40
1.0
 10
156.893
 20
114.9405
 30
0.0
 10
156.893
 20
114.9405
 30
0.0
 10
142.4662
 20
114.9405
 30
0.0
 10
142.4662
 20
114.9405
 30
0.0
 10
142.4662
 20
114.9405
 30
0.0
 10
145.4117
 20
113.6794
 30
0.0
 10
148.1747
 20
112.0291
 30
0.0
 10
150.6812
 20
110.0331
 30
0.0
 10
150.6812
 20
110.0331
 30
0.0
 10
152.3835
 20
112.0871
 30
0.0
 10
154.5002
 20
113.7595
 30
0.0
 10
156.893
 20
114.9405
 30
0.0
  0
SPLINE
  5
6E
330
1F
100
AcDbEntity
  8
layer 1
 62
     7
370
     9
100
AcDbSpline
210
0.0
220
0.0
230
1.0
 70
    11
 71
     3
 72
    20
 73
    16
 74
     0
 42
0.0000000001
 43
0.0000000001
 12
1.0
 22
0.0
 32
0.0
 13
1.0
 23
0.0
 33
0.0
 40
0.0
 40
0.0
 40
0.0
 40
0.0
 40
0.2
 40
0.2
 40
0.2
 40
0.2
 40
0.4
 40
0.4
 40
0.4
 40
0.4
 40
0.6
 40
0.6
 40
0.6
 40
0.6
 40
1.0
 40
1.0
 40
1.0
 40
1.0
 10
121.0839
 20
114.9887
 30
0.0
 10
121.0839
 20
114.9887
 30
0.0
 10
100.8188
 20
114.9405
 30
0.0
 10
100.8188
 20
114.9405
 30
0.0
 10
100.8188
 20
114.9405
 30
0.0
 10
100.6459
 20
114.2646
 30
0.0
 10
100.812
 20
113.5468
 30
0.0
 10
101.2642
 20
113.016
 30
0.0
 10
101.2642
 20
113.016
 30
0.0
 10
101.9441
 20
112.8361
 30
0.0
 10
102.6355
 20
112.7072
 30
0.0
 10
103.3338
 20
112.6311
 30
0.0
 10
103.3338
 20
112.6311
 30
0.0
 10
109.3446
 20
112.337
 30
0.0
 10
115.3584
 20
113.1355
 30
0.0
 10
121.0839
 20
114.9887
 30
0.0
  0
SPLINE
  5
6F
330
1F
100
AcDbEntity
  8
layer 1
 62
     7
370
     9
100
AcDbSpline
210
0.0
220
0.0
230
1.0
 70
    11
 71
     3
 72
    76
 73
    72
 74
     0
 42
0.0000000001
 43
0.0000000001
 12
1.0
 22
0.0
 32
0.0
 13
1.0
 23
0.0
 33
0.0
 40
0.0
 40
0.0
 40
0.0
 40
0.0
 40
0.0526315789473684
 40
0.0526315789473684
 40
0.0526315789473684
 40
0.0526315789473684
 40
0.1052631578947368
 40
0.1052631578947368
 40
0.1052631578947368
 40
0.1052631578947368
 40
0.1578947368421053
 40
0.1578947368421053
 40
0.1578947368421053
 40
0.1578947368421053
 40
0.2105263157894737
 40
0.2105263157894737
 40
0.2105263157894737
 40
0.2105263157894737
 40
0.2631578947368421
 40
0.2631578947368421
 40
0.2631578947368421
 40
0.2631578947368421
 40
0.3157894736842105
 40
0.3157894736842105
 40
0.3157894736842105
 40
0.3157894736842105
 40
0.3684210526315789
 40
0.3684210526315789
 40
0.3684210526315789
 40
0.3684210526315789
 40
0.4210526315789473
 40
0.4210526315789473
 40
0.4210526315789473
 40
0.4210526315789473
 40
0.4736842105263158
 40
0.4736842105263158
 40
0.4736842105263158
 40
0.4736842105263158
 40
0.5263157894736842
 40
0.5263157894736842
 40
0.5263157894736842
 40
0.5263157894736842
 40
0.5789473684210527
 40
0.5789473684210527
 40
0.5789473684210527
 40
0.5789473684210527
 40
0.631578947368421
 40
0.631578947368421
 40
0.631578947368421
 40
0.631578947368421
 40
0.6842105263157895
 40
0.6842105263157895
 40
0.6842105263157895
 40
0.6842105263157895
 40
0.7368421052631579
 40
0.7368421052631579
 40
0.7368421052631579
 40
0.7368421052631579
 40
0.7894736842105263
 40
0.7894736842105263
 40
0.7894736842105263
 40
0.7894736842105263
 40
0.8421052631578947
 40
0.8421052631578947
 40
0.8421052631578947
 40
0.8421052631578947
 40
0.8947368421052632
 40
0.8947368421052632
 40
0.8947368421052632
 40
0.8947368421052632
 40
1.0
 40
1.0
 40
1.0
 40
1.0
 10
130.6644
 20
75.4848
 30
0.0
 10
131.4789
 20
71.0253
 30
0.0
 10
129.7786
 20
66.478
 30
0.0
 10
126.2376
 20
63.6479
 30
0.0
 10
126.2376
 20
63.6479
 30
0.0
 10
120.1734
 20
61.049
 30
0.0
 10
113.2311
 20
61.514
 30
0.0
 10
107.5675
 20
64.8988
 30
0.0
 10
107.5675
 20
64.8988
 30
0.0
 10
101.4063
 20
70.9096
 30
0.0
 10
98.913
 20
79.7464
 30
0.0
 10
101.0244
 20
88.0914
 30
0.0
 10
101.0244
 20
88.0914
 30
0.0
 10
103.1981
 20
94.4964
 30
0.0
 10
106.897
 20
100.2759
 30
0.0
 10
111.8025
 20
104.9326
 30
0.0
 10
111.8025
 20
104.9326
 30
0.0
 10
111.6894
 20
102.597
 30
0.0
 10
112.6036
 20
100.3296
 30
0.0
 10
114.3046
 20
98.7256
 30
0.0
 10
114.3046
 20
98.7256
 30
0.0
 10
116.9032
 20
97.5011
 30
0.0
 10
120.0065
 20
98.3849
 30
0.0
 10
121.5702
 20
100.7944
 30
0.0
 10
121.5702
 20
100.7944
 30
0.0
 10
122.7598
 20
103.1773
 30
0.0
 10
122.6694
 20
105.9987
 30
0.0
 10
121.3296
 20
108.3004
 30
0.0
 10
121.3296
 20
108.3004
 30
0.0
 10
130.5214
 20
112.4582
 30
0.0
 10
141.2889
 20
110.9202
 30
0.0
 10
148.949
 20
104.3545
 30
0.0
 10
148.949
 20
104.3545
 30
0.0
 10
148.3843
 20
102.4518
 30
0.0
 10
147.9026
 20
100.5258
 30
0.0
 10
147.5056
 20
98.5804
 30
0.0
 10
147.5056
 20
98.5804
 30
0.0
 10
145.558
 20
100.3705
 30
0.0
 10
142.9604
 20
101.2816
 30
0.0
 10
140.3215
 20
101.1001
 30
0.0
 10
140.3215
 20
101.1001
 30
0.0
 10
137.6826
 20
100.9178
 30
0.0
 10
135.2346
 20
99.6591
 30
0.0
 10
133.5515
 20
97.619
 30
0.0
 10
133.5515
 20
97.619
 30
0.0
 10
128.7147
 20
99.0538
 30
0.0
 10
123.6308
 20
96.2959
 30
0.0
 10
122.1956
 20
91.4591
 30
0.0
 10
122.1956
 20
91.4591
 30
0.0
 10
118.9559
 20
92.9887
 30
0.0
 10
115.0843
 20
91.8766
 30
0.0
 10
113.1498
 20
88.8611
 30
0.0
 10
113.1498
 20
88.8611
 30
0.0
 10
111.3634
 20
84.5544
 30
0.0
 10
111.3289
 20
79.72
 30
0.0
 10
113.0534
 20
75.3885
 30
0.0
 10
113.0534
 20
75.3885
 30
0.0
 10
114.7619
 20
71.763
 30
0.0
 10
118.7797
 20
69.8348
 30
0.0
 10
122.6771
 20
70.769
 30
0.0
 10
122.6771
 20
70.769
 30
0.0
 10
121.7715
 20
72.3064
 30
0.0
 10
121.4956
 20
74.1338
 30
0.0
 10
121.907
 20
75.8696
 30
0.0
 10
121.907
 20
75.8696
 30
0.0
 10
122.4459
 20
77.9088
 30
0.0
 10
124.3332
 20
79.2973
 30
0.0
 10
126.4409
 20
79.2049
 30
0.0
 10
126.4409
 20
79.2049
 30
0.0
 10
128.5484
 20
79.1125
 30
0.0
 10
130.3065
 20
77.5637
 30
0.0
 10
130.6644
 20
75.4848
 30
0.0
  0
SPLINE
  5
70
330
1F
100
AcDbEntity
  8
layer 1
 62
     7
370
     9
100
AcDbSpline
210
0.0
220
0.0
230
1.0
 70
    11
 71
     3
 72
    20
 73
    16
 74
     0
 42
0.0000000001
 43
0.0000000001
 12
1.0
 22
0.0
 32
0.0
 13
1.0
 23
0.0
 33
0.0
 40
0.0
 40
0.0
 40
0.0
 40
0.0
 40
0.2
 40
0.2
 40
0.2
 40
0.2
 40
0.4
 40
0.4
 40
0.4
 40
0.4
 40
0.6
 40
0.6
 40
0.6
 40
0.6
 40
1.0
 40
1.0
 40
1.0
 40
1.0
 10
139.9029
 20
51.9073
 30
0.0
 10
133.7593
 20
54.3702
 30
0.0
 10
127.1764
 20
55.549
 30
0.0
 10
120.5597
 20
55.372
 30
0.0
 10
120.5597
 20
55.372
 30
0.0
 10
114.9486
 20
55.2424
 30
0.0
 10
109.4572
 20
57.0054
 30
0.0
 10
104.9695
 20
60.3755
 30
0.0
 10
104.9695
 20
60.3755
 30
0.0
 10
108.0246
 20
54.1358
 30
0.0
 10
113.6972
 20
49.5801
 30
0.0
 10
120.4488
 20
47.9435
 30
0.0
 10
120.4488
 20
47.9435
 30
0.0
 10
127.2004
 20
46.3061
 30
0.0
 10
134.3301
 20
47.7588
 30
0.0
 10
139.9029
 20
51.9073
 30
0.0
  0
SPLINE
  5
71
330
1F
100
AcDbEntity
  8
layer 1
 62
     7
370
     9
100
AcDbSpline
210
0.0
220
0.0
230
1.0
 70
    11
 71
     3
 72
    28
 73
    24
 74
     0
 42
0.0000000001
 43
0.0000000001
 12
1.0
 22
0.0
 32
0.0
 13
1.0
 23
0.0
 33
0.0
 40
0.0
 40
0.0
 40
0.0
 40
0.0
 40
0.1428571428571428
 40
0.1428571428571428
 40
0.1428571428571428
 40
0.1428571428571428
 40
0.2857142857142857
 40
0.2857142857142857
 40
0.2857142857142857
 40
0.2857142857142857
 40
0.4285714285714285
 40
0.4285714285714285
 40
0.4285714285714285
 40
0.4285714285714285
 40
0.5714285714285714
 40
0.5714285714285714
 40
0.5714285714285714
 40
0.5714285714285714
 40
0.7142857142857143
 40
0.7142857142857143
 40
0.7142857142857143
 40
0.7142857142857143
 40
1.0
 40
1.0
 40
1.0
 40
1.0
 10
145.2921
 20
61.8677
 30
0.0
 10
146.9431
 20
67.1196
 30
0.0
 10
147.5161
 20
72.6517
 30
0.0
 10
146.9761
 20
78.1308
 30
0.0
 10
146.9761
 20
78.1308
 30
0.0
 10
146.7819
 20
84.8657
 30
0.0
 10
142.4286
 20
90.7724
 30
0.0
 10
136.0535
 20
92.9513
 30
0.0
 10
136.0535
 20
92.9513
 30
0.0
 10
135.2381
 20
91.3753
 30
0.0
 10
134.3053
 20
89.8637
 30
0.0
 10
133.2629
 20
88.4282
 30
0.0
 10
133.2629
 20
88.4282
 30
0.0
 10
132.293
 20
86.6799
 30
0.0
 10
132.3487
 20
84.5428
 30
0.0
 10
133.4072
 20
82.8466
 30
0.0
 10
133.4072
 20
82.8466
 30
0.0
 10
137.268
 20
76.9817
 30
0.0
 10
136.938
 20
69.3041
 30
0.0
 10
132.5889
 20
63.7922
 30
0.0
 10
132.5889
 20
63.7922
 30
0.0
 10
136.9202
 20
64.3711
 30
0.0
 10
141.3268
 20
63.7038
 30
0.0
 10
145.2921
 20
61.8677
 30
0.0
  0
SPLINE
  5
72
330
1F
100
AcDbEntity
  8
layer 1
 62
     7
370
     9
100
AcDbSpline
210
0.0
220
0.0
230
1.0
 70
    11
 71
     3
 72
    36
 73
    32
 74
     0
 42
0.0000000001
 43
0.0000000001
 12
1.0
 22
0.0
 32
0.0
 13
1.0
 23
0.0
 33
0.0
 40
0.0
 40
0.0
 40
0.0
 40
0.0
 40
0.1111111111111111
 40
0.1111111111111111
 40
0.1111111111111111
 40
0.1111111111111111
 40
0.2222222222222222
 40
0.2222222222222222
 40
0.2222222222222222
 40
0.2222222222222222
 40
0.3333333333333333
 40
0.3333333333333333
 40
0.3333333333333333
 40
0.3333333333333333
 40
0.4444444444444444
 40
0.4444444444444444
 40
0.4444444444444444
 40
0.4444444444444444
 40
0.5555555555555556
 40
0.5555555555555556
 40
0.5555555555555556
 40
0.5555555555555556
 40
0.6666666666666666
 40
0.6666666666666666
 40
0.6666666666666666
 40
0.6666666666666666
 40
0.7777777777777778
 40
0.7777777777777778
 40
0.7777777777777778
 40
0.7777777777777778
 40
1.0
 40
1.0
 40
1.0
 40
1.0
 10
150.9698
 20
60.4718
 30
0.0
 10
156.0831
 20
56.3374
 30
0.0
 10
160.1817
 20
51.0871
 30
0.0
 10
162.951
 20
45.1227
 30
0.0
 10
162.951
 20
45.1227
 30
0.0
 10
164.0156
 20
50.4577
 30
0.0
 10
164.4037
 20
55.9058
 30
0.0
 10
164.1058
 20
61.3385
 30
0.0
 10
164.1058
 20
61.3385
 30
0.0
 10
162.9094
 20
61.0895
 30
0.0
 10
161.6699
 20
61.1392
 30
0.0
 10
160.4971
 20
61.4828
 30
0.0
 10
160.4971
 20
61.4828
 30
0.0
 10
158.2308
 20
62.917
 30
0.0
 10
157.1668
 20
65.6632
 30
0.0
 10
157.8742
 20
68.2502
 30
0.0
 10
157.8742
 20
68.2502
 30
0.0
 10
158.5821
 20
70.8381
 30
0.0
 10
160.8954
 20
72.6603
 30
0.0
 10
163.5766
 20
72.7417
 30
0.0
 10
163.5766
 20
72.7417
 30
0.0
 10
162.6868
 20
80.9004
 30
0.0
 10
160.0268
 20
88.7665
 30
0.0
 10
155.7815
 20
95.79
 30
0.0
 10
155.7815
 20
95.79
 30
0.0
 10
154.7472
 20
91.9604
 30
0.0
 10
154.1975
 20
88.0162
 30
0.0
 10
154.1456
 20
84.0494
 30
0.0
 10
154.1456
 20
84.0494
 30
0.0
 10
154.2497
 20
76.0768
 30
0.0
 10
153.1793
 20
68.133
 30
0.0
 10
150.9698
 20
60.4718
 30
0.0
  0
SPLINE
  5
73
330
1F
100
AcDbEntity
  8
layer 1
 62
     7
370
     9
100
AcDbSpline
210
0.0
220
0.0
230
1.0
 70
    11
 71
     3
 72
    20
 73
    16
 74
     0
 42
0.0000000001
 43
0.0000000001
 12
1.0
 22
0.0
 32
0.0
 13
1.0
 23
0.0
 33
0.0
 40
0.0
 40
0.0
 40
0.0
 40
0.0
 40
0.2
 40
0.2
 40
0.2
 40
0.2
 40
0.4
 40
0.4
 40
0.4
 40
0.4
 40
0.6
 40
0.6
 40
0.6
 40
0.6
 40
1.0
 40
1.0
 40
1.0
 40
1.0
 10
159.8715
 20
34.9217
 30
0.0
 10
157.3553
 20
41.8343
 30
0.0
 10
152.3193
 20
47.5408
 30
0.0
 10
145.7731
 20
50.8968
 30
0.0
 10
145.7731
 20
50.8968
 30
0.0
 10
143.9551
 20
48.5999
 30
0.0
 10
141.7583
 20
46.6312
 30
0.0
 10
139.2773
 20
45.0748
 30
0.0
 10
139.2773
 20
45.0748
 30
0.0
 10
146.0032
 20
40.7307
 30
0.0
 10
151.4636
 20
34.6889
 30
0.0
 10
155.108
 20
27.5599
 30
0.0
 10
155.108
 20
27.5599
 30
0.0
 10
156.6926
 20
30.016
 30
0.0
 10
158.2805
 20
32.4695
 30
0.0
 10
159.8715
 20
34.9217
 30
0.0
  0
SPLINE
  5
74
330
1F
100
AcDbEntity
  8
layer 1
 62
     7
370
     9
100
AcDbSpline
210
0.0
220
0.0
230
1.0
 70
    11
 71
     3
 72
    40
 73
    36
 74
     0
 42
0.0000000001
 43
0.0000000001
 12
1.0
 22
0.0
 32
0.0
 13
1.0
 23
0.0
 33
0.0
 40
0.0
 40
0.0
 40
0.0
 40
0.0
 40
0.1
 40
0.1
 40
0.1
 40
0.1
 40
0.2
 40
0.2
 40
0.2
 40
0.2
 40
0.3
 40
0.3
 40
0.3
 40
0.3
 40
0.4
 40
0.4
 40
0.4
 40
0.4
 40
0.5
 40
0.5
 40
0.5
 40
0.5
 40
0.6
 40
0.6
 40
0.6
 40
0.6
 40
0.7
 40
0.7
 40
0.7
 40
0.7
 40
0.8
 40
0.8
 40
0.8
 40
0.8
 40
1.0
 40
1.0
 40
1.0
 40
1.0
 10
150.5367
 20
22.7479
 30
0.0
 10
144.7762
 20
32.4774
 30
0.0
 10
135.1251
 20
39.2725
 30
0.0
 10
124.0244
 20
41.4174
 30
0.0
 10
124.0244
 20
41.4174
 30
0.0
 10
125.7579
 20
37.7803
 30
0.0
 10
126.8639
 20
33.8757
 30
0.0
 10
127.2961
 20
29.8693
 30
0.0
 10
127.2961
 20
29.8693
 30
0.0
 10
128.0325
 20
23.4147
 30
0.0
 10
126.0445
 20
16.9453
 30
0.0
 10
121.8111
 20
12.0176
 30
0.0
 10
121.8111
 20
12.0176
 30
0.0
 10
124.3521
 20
12.1837
 30
0.0
 10
126.8683
 20
12.619
 30
0.0
 10
129.3171
 20
13.3174
 30
0.0
 10
129.3171
 20
13.3174
 30
0.0
 10
131.596
 20
14.1058
 30
0.0
 10
133.2871
 20
16.0419
 30
0.0
 10
133.762
 20
18.4063
 30
0.0
 10
133.762
 20
18.4063
 30
0.0
 10
134.2369
 20
20.7709
 30
0.0
 10
133.4243
 20
23.2097
 30
0.0
 10
131.627
 20
24.8176
 30
0.0
 10
131.627
 20
24.8176
 30
0.0
 10
134.1882
 20
27.1292
 30
0.0
 10
137.9303
 20
27.5731
 30
0.0
 10
140.9614
 20
25.9242
 30
0.0
 10
140.9614
 20
25.9242
 30
0.0
 10
143.4622
 20
23.8033
 30
0.0
 10
144.4483
 20
20.3906
 30
0.0
 10
143.4637
 20
17.2625
 30
0.0
 10
143.4637
 20
17.2625
 30
0.0
 10
146.2036
 20
18.5361
 30
0.0
 10
148.6212
 20
20.4115
 30
0.0
 10
150.5367
 20
22.7479
 30
0.0
  0
SPLINE
  5
75
330
1F
100
AcDbEntity
  8
layer 1
 62
     7
370
     9
100
AcDbSpline
210
0.0
220
0.0
230
1.0
 70
    11
 71
     3
 72
    48
 73
    44
 74
     0
 42
0.0000000001
 43
0.0000000001
 12
1.0
 22
0.0
 32
0.0
 13
1.0
 23
0.0
 33
0.0
 40
0.0
 40
0.0
 40
0.0
 40
0.0
 40
0.0833333333333333
 40
0.0833333333333333
 40
0.0833333333333333
 40
0.0833333333333333
 40
0.1666666666666667
 40
0.1666666666666667
 40
0.1666666666666667
 40
0.1666666666666667
 40
0.25
 40
0.25
 40
0.25
 40
0.25
 40
0.3333333333333333
 40
0.3333333333333333
 40
0.3333333333333333
 40
0.3333333333333333
 40
0.4166666666666667
 40
0.4166666666666667
 40
0.4166666666666667
 40
0.4166666666666667
 40
0.5
 40
0.5
 40
0.5
 40
0.5
 40
0.5833333333333334
 40
0.5833333333333334
 40
0.5833333333333334
 40
0.5833333333333334
 40
0.6666666666666666
 40
0.6666666666666666
 40
0.6666666666666666
 40
0.6666666666666666
 40
0.75
 40
0.75
 40
0.75
 40
0.75
 40
0.8333333333333334
 40
0.8333333333333334
 40
0.8333333333333334
 40
0.8333333333333334
 40
1.0
 40
1.0
 40
1.0
 40
1.0
 10
108.9636
 20
16.3003
 30
0.0
 10
114.6935
 20
18.681
 30
0.0
 10
118.4579
 20
24.2426
 30
0.0
 10
118.5389
 20
30.4465
 30
0.0
 10
118.5389
 20
30.4465
 30
0.0
 10
118.5954
 20
35.2593
 30
0.0
 10
117.0744
 20
39.9577
 30
0.0
 10
114.2084
 20
43.8238
 30
0.0
 10
114.2084
 20
43.8238
 30
0.0
 10
113.8182
 20
44.7356
 30
0.0
 10
112.9777
 20
45.375
 30
0.0
 10
111.9952
 20
45.5077
 30
0.0
 10
111.9952
 20
45.5077
 30
0.0
 10
108.8743
 20
47.5206
 30
0.0
 10
106.0691
 20
49.9859
 30
0.0
 10
103.6706
 20
52.8213
 30
0.0
 10
103.6706
 20
52.8213
 30
0.0
 10
103.6691
 20
49.7437
 30
0.0
 10
103.4278
 20
46.6708
 30
0.0
 10
102.9489
 20
43.6314
 30
0.0
 10
102.9489
 20
43.6314
 30
0.0
 10
104.4994
 20
43.2673
 30
0.0
 10
105.8425
 20
42.3028
 30
0.0
 10
106.6815
 20
40.9496
 30
0.0
 10
106.6815
 20
40.9496
 30
0.0
 10
107.5211
 20
39.5955
 30
0.0
 10
107.7879
 20
37.9635
 30
0.0
 10
107.4241
 20
36.4132
 30
0.0
 10
107.4241
 20
36.4132
 30
0.0
 10
107.3053
 20
34.8673
 30
0.0
 10
106.3353
 20
33.5163
 30
0.0
 10
104.9083
 20
32.9088
 30
0.0
 10
104.9083
 20
32.9088
 30
0.0
 10
103.4812
 20
32.3019
 30
0.0
 10
101.8354
 20
32.5401
 30
0.0
 10
100.6395
 20
33.5264
 30
0.0
 10
100.6395
 20
33.5264
 30
0.0
 10
100.777
 20
31.7223
 30
0.0
 10
100.5643
 20
29.9089
 30
0.0
 10
100.0135
 20
28.1852
 30
0.0
 10
100.0135
 20
28.1852
 30
0.0
 10
101.9736
 20
23.5473
 30
0.0
 10
105.0471
 20
19.4648
 30
0.0
 10
108.9636
 20
16.3003
 30
0.0
  0
ENDSEC
  0
SECTION
  2
OBJECTS
  0
DICTIONARY
  5
C
330
0
100
AcDbDictionary
281
     1
  3
ACAD_GROUP
350
D
  3
ACAD_LAYOUT
350
1A
  3
ACAD_MATERIAL
350
3B
  3
ACAD_MLEADERSTYLE
350
97
  3
ACAD_MLINESTYLE
350
17
  3
ACAD_PLOTSETTINGS
350
19
  3
ACAD_PLOTSTYLENAME
350
E
  3
ACAD_TABLESTYLE
350
96
  3
ACAD_VISUALSTYLE
350
2A
  0
DICTIONARY
  5
D
102
{ACAD_REACTORS
330
C
102
}
330
C
100
AcDbDictionary
281
     1
  0
DICTIONARY
  5
1A
102
{ACAD_REACTORS
330
C
102
}
330
C
100
AcDbDictionary
281
     1
  3
Layout1
350
1E
  3
Layout2
350
26
  3
Model
350
22
  0
DICTIONARY
  5
3B
102
{ACAD_REACTORS
330
C
102
}
330
C
100
AcDbDictionary
281
     1
  3
ByBlock
350
3D
  3
ByLayer
350
3C
  3
Global
350
3E
  0
DICTIONARY
  5
97
102
{ACAD_REACTORS
330
C
102
}
330
C
100
AcDbDictionary
281
     1
  0
DICTIONARY
  5
17
102
{ACAD_REACTORS
330
C
102
}
330
C
100
AcDbDictionary
281
     1
  3
Standard
350
18
  0
DICTIONARY
  5
19
102
{ACAD_REACTORS
330
C
102
}
330
C
100
AcDbDictionary
281
     1
  0
ACDBDICTIONARYWDFLT
  5
E
102
{ACAD_REACTORS
330
C
102
}
330
C
100
AcDbDictionary
281
     1
  3
Normal
350
F
100
AcDbDictionaryWithDefault
340
F
  0
DICTIONARY
  5
96
102
{ACAD_REACTORS
330
C
102
}
330
C
100
AcDbDictionary
281
     1
  0
DICTIONARY
  5
2A
102
{ACAD_REACTORS
330
C
102
}
330
C
100
AcDbDictionary
281
     1
  3
2dWireframe
350
2F
  3
3D Hidden
350
31
  3
3dWireframe
350
30
  3
Basic
350
32
  3
Brighten
350
36
  3
ColorChange
350
3A
  3
Conceptual
350
34
  3
Dim
350
35
  3
Facepattern
350
39
  3
Flat
350
2B
  3
FlatWithEdges
350
2C
  3
Gouraud
350
2D
  3
GouraudWithEdges
350
2E
  3
Linepattern
350
38
  3
Realistic
350
33
  3
Thicken
350
37
  0
LAYOUT
  5
1E
102
{ACAD_REACTORS
330
1A
102
}
330
1A
100
AcDbPlotSettings
  1

  2
none_device
  4

  6

 40
0.0
 41
0.0
 42
0.0
 43
0.0
 44
0.0
 45
0.0
 46
0.0
 47
0.0
 48
0.0
 49
0.0
140
0.0
141
0.0
142
1.0
143
1.0
 70
   688
 72
     0
 73
     0
 74
     5
  7

 75
    16
 76
     0
 77
     2
 78
   300
147
1.0
148
0.0
149
0.0
100
AcDbLayout
  1
Layout1
 70
     1
 71
     1
 10
0.0
 20
0.0
 11
12.0
 21
9.0
 12
0.0
 22
0.0
 32
0.0
 14
1.000000000000000E+20
 24
1.000000000000000E+20
 34
1.000000000000000E+20
 15
-1.000000000000000E+20
 25
-1.000000000000000E+20
 35
-1.000000000000000E+20
146
0.0
 13
0.0
 23
0.0
 33
0.0
 16
1.0
 26
0.0
 36
0.0
 17
0.0
 27
1.0
 37
0.0
 76
     0
330
1B
  0
LAYOUT
  5
26
102
{ACAD_REACTORS
330
1A
102
}
330
1A
100
AcDbPlotSettings
  1

  2
none_device
  4

  6

 40
0.0
 41
0.0
 42
0.0
 43
0.0
 44
0.0
 45
0.0
 46
0.0
 47
0.0
 48
0.0
 49
0.0
140
0.0
141
0.0
142
1.0
143
1.0
 70
   688
 72
     0
 73
     0
 74
     5
  7

 75
    16
 76
     0
 77
     2
 78
   300
147
1.0
148
0.0
149
0.0
100
AcDbLayout
  1
Layout2
 70
     1
 71
     2
 10
0.0
 20
0.0
 11
0.0
 21
0.0
 12
0.0
 22
0.0
 32
0.0
 14
0.0
 24
0.0
 34
0.0
 15
0.0
 25
0.0
 35
0.0
146
0.0
 13
0.0
 23
0.0
 33
0.0
 16
1.0
 26
0.0
 36
0.0
 17
0.0
 27
1.0
 37
0.0
 76
     0
330
23
  0
LAYOUT
  5
22
102
{ACAD_REACTORS
330
1A
102
}
330
1A
100
AcDbPlotSettings
  1

  2
none_device
  4

  6

 40
0.0
 41
0.0
 42
0.0
 43
0.0
 44
0.0
 45
0.0
 46
0.0
 47
0.0
 48
0.0
 49
0.0
140
0.0
141
0.0
142
1.0
143
1.0
 70
  1712
 72
     0
 73
     0
 74
     0
  7

 75
     0
 76
     0
 77
     2
 78
   300
147
1.0
148
0.0
149
0.0
100
AcDbLayout
  1
Model
 70
     1
 71
     0
 10
0.0
 20
0.0
 11
12.0
 21
9.0
 12
0.0
 22
0.0
 32
0.0
 14
8.503
 24
-114.7127
 34
0.0
 15
186.0394
 25
132.4935
 35
0.0
146
0.0
 13
0.0
 23
0.0
 33
0.0
 16
1.0
 26
0.0
 36
0.0
 17
0.0
 27
1.0
 37
0.0
 76
     0
330
1F
331
29
  0
MATERIAL
  5
3D
102
{ACAD_REACTORS
330
3B
102
}
330
3B
100
AcDbMaterial
  1
ByBlock
 72
     1
 94
      127
  0
MATERIAL
  5
3C
102
{ACAD_REACTORS
330
3B
102
}
330
3B
100
AcDbMaterial
  1
ByLayer
 72
     1
 94
      127
  0
MATERIAL
  5
3E
102
{ACAD_REACTORS
330
3B
102
}
330
3B
100
AcDbMaterial
  1
Global
 72
     1
 94
      127
  0
MLINESTYLE
  5
18
102
{ACAD_REACTORS
330
17
102
}
330
17
100
AcDbMlineStyle
  2
Standard
 70
     0
  3

 62
   256
 51
90.0
 52
90.0
 71
     2
 49
0.5
 62
   256
  6
BYLAYER
 49
-0.5
 62
   256
  6
BYLAYER
  0
ACDBPLACEHOLDER
  5
F
102
{ACAD_REACTORS
330
E
102
}
330
E
  0
VISUALSTYLE
  5
2F
102
{ACAD_REACTORS
330
2A
102
}
102
{ACAD_XDICTIONARY
360
7E
102
}
330
2A
100
AcDbVisualStyle
  2
2dWireframe
 70
     4
 71
     0
 72
     2
 73
     0
 90
        0
 40
-0.6
 41
-30.0
 62
     5
 63
     7
421
 16777215
 74
     1
 91
        4
 64
     7
 65
   257
 75
     1
175
     1
 42
1.0
 92
        0
 66
   257
 43
1.0
 76
     1
 77
     6
 78
     2
 67
     7
 79
     5
170
     0
171
     0
290
     0
174
     0
 93
        1
 44
0.0
173
     0
291
     0
 45
0.0
  0
VISUALSTYLE
  5
31
102
{ACAD_REACTORS
330
2A
102
}
102
{ACAD_XDICTIONARY
360
82
102
}
330
2A
100
AcDbVisualStyle
  2
3D Hidden
 70
     6
 71
     1
 72
     2
 73
     2
 90
        0
 40
-0.6
 41
-30.0
 62
     5
 63
     7
421
 16777215
 74
     2
 91
        2
 64
     7
 65
   257
 75
     2
175
     1
 42
40.0
 92
        0
 66
   257
 43
1.0
 76
     1
 77
     6
 78
     2
 67
     7
 79
     3
170
     0
171
     0
290
     0
174
     0
 93
        1
 44
0.0
173
     0
291
     0
 45
0.0
  0
VISUALSTYLE
  5
30
102
{ACAD_REACTORS
330
2A
102
}
102
{ACAD_XDICTIONARY
360
80
102
}
330
2A
100
AcDbVisualStyle
  2
3dWireframe
 70
     5
 71
     0
 72
     2
 73
     0
 90
        0
 40
-0.6
 41
-30.0
 62
     5
 63
     7
421
 16777215
 74
     1
 91
        4
 64
     7
 65
   257
 75
     1
175
     1
 42
1.0
 92
        0
 66
   257
 43
1.0
 76
     1
 77
     6
 78
     2
 67
     7
 79
     5
170
     0
171
     0
290
     0
174
     0
 93
        1
 44
0.0
173
     0
291
     0
 45
0.0
  0
VISUALSTYLE
  5
32
102
{ACAD_REACTORS
330
2A
102
}
102
{ACAD_XDICTIONARY
360
84
102
}
330
2A
100
AcDbVisualStyle
  2
Basic
 70
     7
 71
     1
 72
     0
 73
     1
 90
        0
 40
-0.6
 41
-30.0
 62
     5
 63
     7
421
 16777215
 74
     0
 91
        4
 64
     7
 65
   257
 75
     1
175
     1
 42
1.0
 92
        8
 66
     7
 43
1.0
 76
     1
 77
     6
 78
     2
 67
     7
 79
     5
170
     0
171
     0
290
     0
174
     0
 93
        1
 44
0.0
173
     0
291
     1
 45
0.0
  0
VISUALSTYLE
  5
36
102
{ACAD_REACTORS
330
2A
102
}
102
{ACAD_XDICTIONARY
360
8C
102
}
330
2A
100
AcDbVisualStyle
  2
Brighten
 70
    12
 71
     2
 72
     2
 73
     0
 90
        0
 40
-0.6
 41
-30.0
 62
     5
 63
     7
421
 16777215
 74
     1
 91
        4
 64
     7
 65
   257
 75
     1
175
     1
 42
1.0
 92
        8
 66
     7
 43
1.0
 76
     1
 77
     6
 78
     2
 67
     7
 79
     5
170
     0
171
     0
290
     0
174
     0
 93
        1
 44
50.0
173
     0
291
     1
 45
0.0
  0
VISUALSTYLE
  5
3A
102
{ACAD_REACTORS
330
2A
102
}
102
{ACAD_XDICTIONARY
360
94
102
}
330
2A
100
AcDbVisualStyle
  2
ColorChange
 70
    16
 71
     2
 72
     2
 73
     3
 90
        0
 40
-0.6
 41
-30.0
 62
     5
 63
     8
421
  8421504
 74
     1
 91
        4
 64
     7
 65
   257
 75
     1
175
     1
 42
1.0
 92
        8
 66
     8
424
  8421504
 43
1.0
 76
     1
 77
     6
 78
     2
 67
     7
 79
     5
170
     0
171
     0
290
     0
174
     0
 93
        1
 44
0.0
173
     0
291
     1
 45
0.0
  0
VISUALSTYLE
  5
34
102
{ACAD_REACTORS
330
2A
102
}
102
{ACAD_XDICTIONARY
360
88
102
}
330
2A
100
AcDbVisualStyle
  2
Conceptual
 70
     9
 71
     3
 72
     2
 73
     0
 90
        0
 40
-0.6
 41
-30.0
 62
     5
 63
     7
421
 16777215
 74
     2
 91
        2
 64
     7
 65
   257
 75
     1
175
     1
 42
40.0
 92
        8
 66
     7
 43
1.0
 76
     1
 77
     6
 78
     2
 67
     7
 79
     3
170
     0
171
     0
290
     0
174
     0
 93
        1
 44
0.0
173
     0
291
     0
 45
0.0
  0
VISUALSTYLE
  5
35
102
{ACAD_REACTORS
330
2A
102
}
102
{ACAD_XDICTIONARY
360
8A
102
}
330
2A
100
AcDbVisualStyle
  2
Dim
 70
    11
 71
     2
 72
     2
 73
     0
 90
        0
 40
-0.6
 41
-30.0
 62
     5
 63
     7
421
 16777215
 74
     1
 91
        4
 64
     7
 65
   257
 75
     1
175
     1
 42
1.0
 92
        8
 66
     7
 43
1.0
 76
     1
 77
     6
 78
     2
 67
     7
 79
     5
170
     0
171
     0
290
     0
174
     0
 93
        1
 44
-50.0
173
     0
291
     1
 45
0.0
  0
VISUALSTYLE
  5
39
102
{ACAD_REACTORS
330
2A
102
}
102
{ACAD_XDICTIONARY
360
92
102
}
330
2A
100
AcDbVisualStyle
  2
Facepattern
 70
    15
 71
     2
 72
     2
 73
     0
 90
        0
 40
-0.6
 41
-30.0
 62
     5
 63
     7
421
 16777215
 74
     1
 91
        4
 64
     7
 65
   257
 75
     1
175
     1
 42
1.0
 92
        8
 66
     7
 43
1.0
 76
     1
 77
     6
 78
     2
 67
     7
 79
     5
170
     0
171
     0
290
     0
174
     0
 93
        1
 44
0.0
173
     0
291
     1
 45
0.0
  0
VISUALSTYLE
  5
2B
102
{ACAD_REACTORS
330
2A
102
}
102
{ACAD_XDICTIONARY
360
76
102
}
330
2A
100
AcDbVisualStyle
  2
Flat
 70
     0
 71
     2
 72
     1
 73
     1
 90
        2
 40
-0.6
 41
30.0
 62
     5
 63
     7
421
 16777215
 74
     0
 91
        4
 64
     7
 65
   257
 75
     1
175
     1
 42
1.0
 92
        8
 66
     7
 43
1.0
 76
     1
 77
     6
 78
     2
 67
     7
 79
     5
170
     0
171
     0
290
     0
174
     0
 93
       13
 44
0.0
173
     0
291
     1
 45
0.0
  0
VISUALSTYLE
  5
2C
102
{ACAD_REACTORS
330
2A
102
}
102
{ACAD_XDICTIONARY
360
78
102
}
330
2A
100
AcDbVisualStyle
  2
FlatWithEdges
 70
     1
 71
     2
 72
     1
 73
     1
 90
        2
 40
-0.6
 41
30.0
 62
     5
 63
     7
421
 16777215
 74
     1
 91
        4
 64
     7
 65
   257
 75
     1
175
     1
 42
1.0
 92
        0
 66
   257
 43
1.0
 76
     1
 77
     6
 78
     2
 67
     7
 79
     5
170
     0
171
     0
290
     0
174
     0
 93
       13
 44
0.0
173
     0
291
     1
 45
0.0
  0
VISUALSTYLE
  5
2D
102
{ACAD_REACTORS
330
2A
102
}
102
{ACAD_XDICTIONARY
360
7A
102
}
330
2A
100
AcDbVisualStyle
  2
Gouraud
 70
     2
 71
     2
 72
     2
 73
     1
 90
        2
 40
-0.6
 41
30.0
 62
     5
 63
     7
421
 16777215
 74
     0
 91
        4
 64
     7
 65
   257
 75
     1
175
     1
 42
1.0
 92
        0
 66
     7
 43
1.0
 76
     1
 77
     6
 78
     2
 67
     7
 79
     5
170
     0
171
     0
290
     0
174
     0
 93
       13
 44
0.0
173
     0
291
     1
 45
0.0
  0
VISUALSTYLE
  5
2E
102
{ACAD_REACTORS
330
2A
102
}
102
{ACAD_XDICTIONARY
360
7C
102
}
330
2A
100
AcDbVisualStyle
  2
GouraudWithEdges
 70
     3
 71
     2
 72
     2
 73
     1
 90
        2
 40
-0.6
 41
30.0
 62
     5
 63
     7
421
 16777215
 74
     1
 91
        4
 64
     7
 65
   257
 75
     1
175
     1
 42
1.0
 92
        0
 66
   257
 43
1.0
 76
     1
 77
     6
 78
     2
 67
     7
 79
     5
170
     0
171
     0
290
     0
174
     0
 93
       13
 44
0.0
173
     0
291
     1
 45
0.0
  0
VISUALSTYLE
  5
38
102
{ACAD_REACTORS
330
2A
102
}
102
{ACAD_XDICTIONARY
360
90
102
}
330
2A
100
AcDbVisualStyle
  2
Linepattern
 70
    14
 71
     2
 72
     2
 73
     0
 90
        0
 40
-0.6
 41
-30.0
 62
     5
 63
     7
421
 16777215
 74
     1
 91
        4
 64
     7
 65
   257
 75
     7
175
     7
 42
1.0
 92
        8
 66
     7
 43
1.0
 76
     1
 77
     6
 78
     2
 67
     7
 79
     5
170
     0
171
     0
290
     0
174
     0
 93
        1
 44
0.0
173
     0
291
     1
 45
0.0
  0
VISUALSTYLE
  5
33
102
{ACAD_REACTORS
330
2A
102
}
102
{ACAD_XDICTIONARY
360
86
102
}
330
2A
100
AcDbVisualStyle
  2
Realistic
 70
     8
 71
     2
 72
     2
 73
     0
 90
        0
 40
-0.6
 41
-30.0
 62
     5
 63
     7
421
 16777215
 74
     1
 91
        0
 64
     7
 65
   257
 75
     1
175
     1
 42
1.0
 92
        8
 66
     8
424
  7895160
 43
1.0
 76
     1
 77
     6
 78
     2
 67
     7
 79
     5
170
     0
171
     0
290
     0
174
     0
 93
       13
 44
0.0
173
     0
291
     0
 45
0.0
  0
VISUALSTYLE
  5
37
102
{ACAD_REACTORS
330
2A
102
}
102
{ACAD_XDICTIONARY
360
8E
102
}
330
2A
100
AcDbVisualStyle
  2
Thicken
 70
    13
 71
     2
 72
     2
 73
     0
 90
        0
 40
-0.6
 41
-30.0
 62
     5
 63
     7
421
 16777215
 74
     1
 91
        4
 64
     7
 65
   257
 75
     1
175
     1
 42
1.0
 92
       12
 66
     7
 43
1.0
 76
     1
 77
     6
 78
     2
 67
     7
 79
     5
170
     0
171
     0
290
     0
174
     0
 93
        1
 44
0.0
173
     0
291
     1
 45
0.0
  0
DICTIONARY
  5
7E
330
2F
100
AcDbDictionary
280
     1
281
     1
  3
ACAD_XREC_ROUNDTRIP
360
7F
  0
DICTIONARY
  5
82
330
31
100
AcDbDictionary
280
     1
281
     1
  3
ACAD_XREC_ROUNDTRIP
360
83
  0
DICTIONARY
  5
80
330
30
100
AcDbDictionary
280
     1
281
     1
  3
ACAD_XREC_ROUNDTRIP
360
81
  0
DICTIONARY
  5
84
330
32
100
AcDbDictionary
280
     1
281
     1
  3
ACAD_XREC_ROUNDTRIP
360
85
  0
DICTIONARY
  5
8C
330
36
100
AcDbDictionary
280
     1
281
     1
  3
ACAD_XREC_ROUNDTRIP
360
8D
  0
DICTIONARY
  5
94
330
3A
100
AcDbDictionary
280
     1
281
     1
  3
ACAD_XREC_ROUNDTRIP
360
95
  0
DICTIONARY
  5
88
330
34
100
AcDbDictionary
280
     1
281
     1
  3
ACAD_XREC_ROUNDTRIP
360
89
  0
DICTIONARY
  5
8A
330
35
100
AcDbDictionary
280
     1
281
     1
  3
ACAD_XREC_ROUNDTRIP
360
8B
  0
DICTIONARY
  5
92
330
39
100
AcDbDictionary
280
     1
281
     1
  3
ACAD_XREC_ROUNDTRIP
360
93
  0
DICTIONARY
  5
76
330
2B
100
AcDbDictionary
280
     1
281
     1
  3
ACAD_XREC_ROUNDTRIP
360
77
  0
DICTIONARY
  5
78
330
2C
100
AcDbDictionary
280
     1
281
     1
  3
ACAD_XREC_ROUNDTRIP
360
79
  0
DICTIONARY
  5
7A
330
2D
100
AcDbDictionary
280
     1
281
     1
  3
ACAD_XREC_ROUNDTRIP
360
7B
  0
DICTIONARY
  5
7C
330
2E
100
AcDbDictionary
280
     1
281
     1
  3
ACAD_XREC_ROUNDTRIP
360
7D
  0
DICTIONARY
  5
90
330
38
100
AcDbDictionary
280
     1
281
     1
  3
ACAD_XREC_ROUNDTRIP
360
91
  0
DICTIONARY
  5
86
330
33
100
AcDbDictionary
280
     1
281
     1
  3
ACAD_XREC_ROUNDTRIP
360
87
  0
DICTIONARY
  5
8E
330
37
100
AcDbDictionary
280
     1
281
     1
  3
ACAD_XREC_ROUNDTRIP
360
8F
  0
XRECORD
  5
7F
102
{ACAD_REACTORS
330
7E
102
}
330
7E
100
AcDbXrecord
280
     1
102
RTVSPropertyOp0
 70
     1
102
RTVSPropertyOp1
 70
     1
102
RTVSPropertyOp2
 70
     1
102
RTVSPropertyOp3
 70
     1
102
RTVSPropertyOp4
 70
     1
102
RTVSPropertyOp5
 70
     1
102
RTVSPropertyOp6
 70
     1
102
RTVSPropertyOp7
 70
     1
102
RTVSPropertyOp8
 70
     1
102
RTVSPropertyOp9
 70
     1
102
RTVSPropertyOp10
 70
     1
102
RTVSPropertyOp11
 70
     1
102
RTVSPropertyOp12
 70
     1
102
RTVSPropertyOp13
 70
     1
102
RTVSPropertyOp14
 70
     1
102
RTVSPropertyOp15
 70
     1
102
RTVSPropertyOp16
 70
     1
102
RTVSPropertyOp17
 70
     1
102
RTVSPropertyOp18
 70
     1
102
RTVSPropertyOp19
 70
     1
102
RTVSPropertyOp20
 70
     1
102
RTVSPropertyOp21
 70
     1
102
RTVSPropertyOp22
 70
     1
102
RTVSPropertyOp23
 70
     1
102
RTVSPropertyOp24
 70
     1
102
RTVSPropertyOp25
 70
     1
102
RTVSPropertyOp26
 70
     1
102
RTVSPropertyOp27
 70
     1
102
RTVSPropertyOp28
 70
     1
102
RTVSPropertyOp29
 70
     1
102
RTVSPropertyOp30
 70
     1
102
RTVSPropertyOp31
 70
     1
102
RTVSPropertyOp32
 70
     1
  0
XRECORD
  5
83
102
{ACAD_REACTORS
330
82
102
}
330
82
100
AcDbXrecord
280
     1
102
RTVSPropertyOp0
 70
     1
102
RTVSPropertyOp1
 70
     1
102
RTVSPropertyOp2
 70
     1
102
RTVSPropertyOp3
 70
     1
102
RTVSPropertyOp4
 70
     1
102
RTVSPropertyOp5
 70
     1
102
RTVSPropertyOp6
 70
     1
102
RTVSPropertyOp7
 70
     1
102
RTVSPropertyOp8
 70
     1
102
RTVSPropertyOp9
 70
     1
102
RTVSPropertyOp10
 70
     1
102
RTVSPropertyOp11
 70
     1
102
RTVSPropertyOp12
 70
     1
102
RTVSPropertyOp13
 70
     1
102
RTVSPropertyOp14
 70
     1
102
RTVSPropertyOp15
 70
     1
102
RTVSPropertyOp16
 70
     1
102
RTVSPropertyOp17
 70
     1
102
RTVSPropertyOp18
 70
     1
102
RTVSPropertyOp19
 70
     1
102
RTVSPropertyOp20
 70
     1
102
RTVSPropertyOp21
 70
     1
102
RTVSPropertyOp22
 70
     1
102
RTVSPropertyOp23
 70
     1
102
RTVSPropertyOp24
 70
     1
102
RTVSPropertyOp25
 70
     1
102
RTVSPropertyOp26
 70
     1
102
RTVSPropertyOp27
 70
     1
102
RTVSPropertyOp28
 70
     1
102
RTVSPropertyOp29
 70
     1
102
RTVSPropertyOp30
 70
     1
102
RTVSPropertyOp31
 70
     1
102
RTVSPropertyOp32
 70
     1
  0
XRECORD
  5
81
102
{ACAD_REACTORS
330
80
102
}
330
80
100
AcDbXrecord
280
     1
102
RTVSPropertyOp0
 70
     1
102
RTVSPropertyOp1
 70
     1
102
RTVSPropertyOp2
 70
     1
102
RTVSPropertyOp3
 70
     1
102
RTVSPropertyOp4
 70
     1
102
RTVSPropertyOp5
 70
     1
102
RTVSPropertyOp6
 70
     1
102
RTVSPropertyOp7
 70
     1
102
RTVSPropertyOp8
 70
     1
102
RTVSPropertyOp9
 70
     1
102
RTVSPropertyOp10
 70
     1
102
RTVSPropertyOp11
 70
     1
102
RTVSPropertyOp12
 70
     1
102
RTVSPropertyOp13
 70
     1
102
RTVSPropertyOp14
 70
     1
102
RTVSPropertyOp15
 70
     1
102
RTVSPropertyOp16
 70
     1
102
RTVSPropertyOp17
 70
     1
102
RTVSPropertyOp18
 70
     1
102
RTVSPropertyOp19
 70
     1
102
RTVSPropertyOp20
 70
     1
102
RTVSPropertyOp21
 70
     1
102
RTVSPropertyOp22
 70
     1
102
RTVSPropertyOp23
 70
     1
102
RTVSPropertyOp24
 70
     1
102
RTVSPropertyOp25
 70
     1
102
RTVSPropertyOp26
 70
     1
102
RTVSPropertyOp27
 70
     1
102
RTVSPropertyOp28
 70
     1
102
RTVSPropertyOp29
 70
     1
102
RTVSPropertyOp30
 70
     1
102
RTVSPropertyOp31
 70
     1
102
RTVSPropertyOp32
 70
     1
  0
XRECORD
  5
85
102
{ACAD_REACTORS
330
84
102
}
330
84
100
AcDbXrecord
280
     1
102
RTVSPropertyOp0
 70
     1
102
RTVSPropertyOp1
 70
     1
102
RTVSPropertyOp2
 70
     1
102
RTVSPropertyOp3
 70
     1
102
RTVSPropertyOp4
 70
     1
102
RTVSPropertyOp5
 70
     1
102
RTVSPropertyOp6
 70
     1
102
RTVSPropertyOp7
 70
     1
102
RTVSPropertyOp8
 70
     1
102
RTVSPropertyOp9
 70
     1
102
RTVSPropertyOp10
 70
     1
102
RTVSPropertyOp11
 70
     1
102
RTVSPropertyOp12
 70
     1
102
RTVSPropertyOp13
 70
     1
102
RTVSPropertyOp14
 70
     1
102
RTVSPropertyOp15
 70
     1
102
RTVSPropertyOp16
 70
     1
102
RTVSPropertyOp17
 70
     1
102
RTVSPropertyOp18
 70
     1
102
RTVSPropertyOp19
 70
     1
102
RTVSPropertyOp20
 70
     1
102
RTVSPropertyOp21
 70
     1
102
RTVSPropertyOp22
 70
     1
102
RTVSPropertyOp23
 70
     1
102
RTVSPropertyOp24
 70
     1
102
RTVSPropertyOp25
 70
     1
102
RTVSPropertyOp26
 70
     1
102
RTVSPropertyOp27
 70
     1
102
RTVSPropertyOp28
 70
     1
102
RTVSPropertyOp29
 70
     1
102
RTVSPropertyOp30
 70
     1
102
RTVSPropertyOp31
 70
     1
102
RTVSPropertyOp32
 70
     1
  0
XRECORD
  5
8D
102
{ACAD_REACTORS
330
8C
102
}
330
8C
100
AcDbXrecord
280
     1
102
RTVSPropertyOp0
 70
     1
102
RTVSPropertyOp1
 70
     1
102
RTVSPropertyOp2
 70
     1
102
RTVSPropertyOp3
 70
     1
102
RTVSPropertyOp4
 70
     1
102
RTVSPropertyOp5
 70
     1
102
RTVSPropertyOp6
 70
     1
102
RTVSPropertyOp7
 70
     1
102
RTVSPropertyOp8
 70
     1
102
RTVSPropertyOp9
 70
     1
102
RTVSPropertyOp10
 70
     1
102
RTVSPropertyOp11
 70
     1
102
RTVSPropertyOp12
 70
     1
102
RTVSPropertyOp13
 70
     1
102
RTVSPropertyOp14
 70
     1
102
RTVSPropertyOp15
 70
     1
102
RTVSPropertyOp16
 70
     1
102
RTVSPropertyOp17
 70
     1
102
RTVSPropertyOp18
 70
     1
102
RTVSPropertyOp19
 70
     1
102
RTVSPropertyOp20
 70
     1
102
RTVSPropertyOp21
 70
     1
102
RTVSPropertyOp22
 70
     1
102
RTVSPropertyOp23
 70
     1
102
RTVSPropertyOp24
 70
     1
102
RTVSPropertyOp25
 70
     1
102
RTVSPropertyOp26
 70
     1
102
RTVSPropertyOp27
 70
     1
102
RTVSPropertyOp28
 70
     1
102
RTVSPropertyOp29
 70
     1
102
RTVSPropertyOp30
 70
     1
102
RTVSPropertyOp31
 70
     1
102
RTVSPropertyOp32
 70
     1
  0
XRECORD
  5
95
102
{ACAD_REACTORS
330
94
102
}
330
94
100
AcDbXrecord
280
     1
102
RTVSPropertyOp0
 70
     1
102
RTVSPropertyOp1
 70
     1
102
RTVSPropertyOp2
 70
     1
102
RTVSPropertyOp3
 70
     1
102
RTVSPropertyOp4
 70
     1
102
RTVSPropertyOp5
 70
     1
102
RTVSPropertyOp6
 70
     1
102
RTVSPropertyOp7
 70
     1
102
RTVSPropertyOp8
 70
     1
102
RTVSPropertyOp9
 70
     1
102
RTVSPropertyOp10
 70
     1
102
RTVSPropertyOp11
 70
     1
102
RTVSPropertyOp12
 70
     1
102
RTVSPropertyOp13
 70
     1
102
RTVSPropertyOp14
 70
     1
102
RTVSPropertyOp15
 70
     1
102
RTVSPropertyOp16
 70
     1
102
RTVSPropertyOp17
 70
     1
102
RTVSPropertyOp18
 70
     1
102
RTVSPropertyOp19
 70
     1
102
RTVSPropertyOp20
 70
     1
102
RTVSPropertyOp21
 70
     1
102
RTVSPropertyOp22
 70
     1
102
RTVSPropertyOp23
 70
     1
102
RTVSPropertyOp24
 70
     1
102
RTVSPropertyOp25
 70
     1
102
RTVSPropertyOp26
 70
     1
102
RTVSPropertyOp27
 70
     1
102
RTVSPropertyOp28
 70
     1
102
RTVSPropertyOp29
 70
     1
102
RTVSPropertyOp30
 70
     1
102
RTVSPropertyOp31
 70
     1
102
RTVSPropertyOp32
 70
     1
  0
XRECORD
  5
89
102
{ACAD_REACTORS
330
88
102
}
330
88
100
AcDbXrecord
280
     1
102
RTVSPropertyOp0
 70
     1
102
RTVSPropertyOp1
 70
     1
102
RTVSPropertyOp2
 70
     1
102
RTVSPropertyOp3
 70
     1
102
RTVSPropertyOp4
 70
     1
102
RTVSPropertyOp5
 70
     1
102
RTVSPropertyOp6
 70
     1
102
RTVSPropertyOp7
 70
     1
102
RTVSPropertyOp8
 70
     1
102
RTVSPropertyOp9
 70
     1
102
RTVSPropertyOp10
 70
     1
102
RTVSPropertyOp11
 70
     1
102
RTVSPropertyOp12
 70
     1
102
RTVSPropertyOp13
 70
     1
102
RTVSPropertyOp14
 70
     1
102
RTVSPropertyOp15
 70
     1
102
RTVSPropertyOp16
 70
     1
102
RTVSPropertyOp17
 70
     1
102
RTVSPropertyOp18
 70
     1
102
RTVSPropertyOp19
 70
     1
102
RTVSPropertyOp20
 70
     1
102
RTVSPropertyOp21
 70
     1
102
RTVSPropertyOp22
 70
     1
102
RTVSPropertyOp23
 70
     1
102
RTVSPropertyOp24
 70
     1
102
RTVSPropertyOp25
 70
     1
102
RTVSPropertyOp26
 70
     1
102
RTVSPropertyOp27
 70
     1
102
RTVSPropertyOp28
 70
     1
102
RTVSPropertyOp29
 70
     1
102
RTVSPropertyOp30
 70
     1
102
RTVSPropertyOp31
 70
     1
102
RTVSPropertyOp32
 70
     1
  0
XRECORD
  5
8B
102
{ACAD_REACTORS
330
8A
102
}
330
8A
100
AcDbXrecord
280
     1
102
RTVSPropertyOp0
 70
     1
102
RTVSPropertyOp1
 70
     1
102
RTVSPropertyOp2
 70
     1
102
RTVSPropertyOp3
 70
     1
102
RTVSPropertyOp4
 70
     1
102
RTVSPropertyOp5
 70
     1
102
RTVSPropertyOp6
 70
     1
102
RTVSPropertyOp7
 70
     1
102
RTVSPropertyOp8
 70
     1
102
RTVSPropertyOp9
 70
     1
102
RTVSPropertyOp10
 70
     1
102
RTVSPropertyOp11
 70
     1
102
RTVSPropertyOp12
 70
     1
102
RTVSPropertyOp13
 70
     1
102
RTVSPropertyOp14
 70
     1
102
RTVSPropertyOp15
 70
     1
102
RTVSPropertyOp16
 70
     1
102
RTVSPropertyOp17
 70
     1
102
RTVSPropertyOp18
 70
     1
102
RTVSPropertyOp19
 70
     1
102
RTVSPropertyOp20
 70
     1
102
RTVSPropertyOp21
 70
     1
102
RTVSPropertyOp22
 70
     1
102
RTVSPropertyOp23
 70
     1
102
RTVSPropertyOp24
 70
     1
102
RTVSPropertyOp25
 70
     1
102
RTVSPropertyOp26
 70
     1
102
RTVSPropertyOp27
 70
     1
102
RTVSPropertyOp28
 70
     1
102
RTVSPropertyOp29
 70
     1
102
RTVSPropertyOp30
 70
     1
102
RTVSPropertyOp31
 70
     1
102
RTVSPropertyOp32
 70
     1
  0
XRECORD
  5
93
102
{ACAD_REACTORS
330
92
102
}
330
92
100
AcDbXrecord
280
     1
102
RTVSPropertyOp0
 70
     1
102
RTVSPropertyOp1
 70
     1
102
RTVSPropertyOp2
 70
     1
102
RTVSPropertyOp3
 70
     1
102
RTVSPropertyOp4
 70
     1
102
RTVSPropertyOp5
 70
     1
102
RTVSPropertyOp6
 70
     1
102
RTVSPropertyOp7
 70
     1
102
RTVSPropertyOp8
 70
     1
102
RTVSPropertyOp9
 70
     1
102
RTVSPropertyOp10
 70
     1
102
RTVSPropertyOp11
 70
     1
102
RTVSPropertyOp12
 70
     1
102
RTVSPropertyOp13
 70
     1
102
RTVSPropertyOp14
 70
     1
102
RTVSPropertyOp15
 70
     1
102
RTVSPropertyOp16
 70
     1
102
RTVSPropertyOp17
 70
     1
102
RTVSPropertyOp18
 70
     1
102
RTVSPropertyOp19
 70
     1
102
RTVSPropertyOp20
 70
     1
102
RTVSPropertyOp21
 70
     1
102
RTVSPropertyOp22
 70
     1
102
RTVSPropertyOp23
 70
     1
102
RTVSPropertyOp24
 70
     1
102
RTVSPropertyOp25
 70
     1
102
RTVSPropertyOp26
 70
     1
102
RTVSPropertyOp27
 70
     1
102
RTVSPropertyOp28
 70
     1
102
RTVSPropertyOp29
 70
     1
102
RTVSPropertyOp30
 70
     1
102
RTVSPropertyOp31
 70
     1
102
RTVSPropertyOp32
 70
     1
  0
XRECORD
  5
77
102
{ACAD_REACTORS
330
76
102
}
330
76
100
AcDbXrecord
280
     1
102
RTVSPropertyOp0
 70
     1
102
RTVSPropertyOp1
 70
     1
102
RTVSPropertyOp2
 70
     1
102
RTVSPropertyOp3
 70
     1
102
RTVSPropertyOp4
 70
     1
102
RTVSPropertyOp5
 70
     1
102
RTVSPropertyOp6
 70
     1
102
RTVSPropertyOp7
 70
     1
102
RTVSPropertyOp8
 70
     1
102
RTVSPropertyOp9
 70
     1
102
RTVSPropertyOp10
 70
     1
102
RTVSPropertyOp11
 70
     1
102
RTVSPropertyOp12
 70
     1
102
RTVSPropertyOp13
 70
     1
102
RTVSPropertyOp14
 70
     1
102
RTVSPropertyOp15
 70
     1
102
RTVSPropertyOp16
 70
     1
102
RTVSPropertyOp17
 70
     1
102
RTVSPropertyOp18
 70
     1
102
RTVSPropertyOp19
 70
     1
102
RTVSPropertyOp20
 70
     1
102
RTVSPropertyOp21
 70
     1
102
RTVSPropertyOp22
 70
     1
102
RTVSPropertyOp23
 70
     1
102
RTVSPropertyOp24
 70
     1
102
RTVSPropertyOp25
 70
     1
102
RTVSPropertyOp26
 70
     1
102
RTVSPropertyOp27
 70
     1
102
RTVSPropertyOp28
 70
     1
102
RTVSPropertyOp29
 70
     1
102
RTVSPropertyOp30
 70
     1
102
RTVSPropertyOp31
 70
     1
102
RTVSPropertyOp32
 70
     1
  0
XRECORD
  5
79
102
{ACAD_REACTORS
330
78
102
}
330
78
100
AcDbXrecord
280
     1
102
RTVSPropertyOp0
 70
     1
102
RTVSPropertyOp1
 70
     1
102
RTVSPropertyOp2
 70
     1
102
RTVSPropertyOp3
 70
     1
102
RTVSPropertyOp4
 70
     1
102
RTVSPropertyOp5
 70
     1
102
RTVSPropertyOp6
 70
     1
102
RTVSPropertyOp7
 70
     1
102
RTVSPropertyOp8
 70
     1
102
RTVSPropertyOp9
 70
     1
102
RTVSPropertyOp10
 70
     1
102
RTVSPropertyOp11
 70
     1
102
RTVSPropertyOp12
 70
     1
102
RTVSPropertyOp13
 70
     1
102
RTVSPropertyOp14
 70
     1
102
RTVSPropertyOp15
 70
     1
102
RTVSPropertyOp16
 70
     1
102
RTVSPropertyOp17
 70
     1
102
RTVSPropertyOp18
 70
     1
102
RTVSPropertyOp19
 70
     1
102
RTVSPropertyOp20
 70
     1
102
RTVSPropertyOp21
 70
     1
102
RTVSPropertyOp22
 70
     1
102
RTVSPropertyOp23
 70
     1
102
RTVSPropertyOp24
 70
     1
102
RTVSPropertyOp25
 70
     1
102
RTVSPropertyOp26
 70
     1
102
RTVSPropertyOp27
 70
     1
102
RTVSPropertyOp28
 70
     1
102
RTVSPropertyOp29
 70
     1
102
RTVSPropertyOp30
 70
     1
102
RTVSPropertyOp31
 70
     1
102
RTVSPropertyOp32
 70
     1
  0
XRECORD
  5
7B
102
{ACAD_REACTORS
330
7A
102
}
330
7A
100
AcDbXrecord
280
     1
102
RTVSPropertyOp0
 70
     1
102
RTVSPropertyOp1
 70
     1
102
RTVSPropertyOp2
 70
     1
102
RTVSPropertyOp3
 70
     1
102
RTVSPropertyOp4
 70
     1
102
RTVSPropertyOp5
 70
     1
102
RTVSPropertyOp6
 70
     1
102
RTVSPropertyOp7
 70
     1
102
RTVSPropertyOp8
 70
     1
102
RTVSPropertyOp9
 70
     1
102
RTVSPropertyOp10
 70
     1
102
RTVSPropertyOp11
 70
     1
102
RTVSPropertyOp12
 70
     1
102
RTVSPropertyOp13
 70
     1
102
RTVSPropertyOp14
 70
     1
102
RTVSPropertyOp15
 70
     1
102
RTVSPropertyOp16
 70
     1
102
RTVSPropertyOp17
 70
     1
102
RTVSPropertyOp18
 70
     1
102
RTVSPropertyOp19
 70
     1
102
RTVSPropertyOp20
 70
     1
102
RTVSPropertyOp21
 70
     1
102
RTVSPropertyOp22
 70
     1
102
RTVSPropertyOp23
 70
     1
102
RTVSPropertyOp24
 70
     1
102
RTVSPropertyOp25
 70
     1
102
RTVSPropertyOp26
 70
     1
102
RTVSPropertyOp27
 70
     1
102
RTVSPropertyOp28
 70
     1
102
RTVSPropertyOp29
 70
     1
102
RTVSPropertyOp30
 70
     1
102
RTVSPropertyOp31
 70
     1
102
RTVSPropertyOp32
 70
     1
  0
XRECORD
  5
7D
102
{ACAD_REACTORS
330
7C
102
}
330
7C
100
AcDbXrecord
280
     1
102
RTVSPropertyOp0
 70
     1
102
RTVSPropertyOp1
 70
     1
102
RTVSPropertyOp2
 70
     1
102
RTVSPropertyOp3
 70
     1
102
RTVSPropertyOp4
 70
     1
102
RTVSPropertyOp5
 70
     1
102
RTVSPropertyOp6
 70
     1
102
RTVSPropertyOp7
 70
     1
102
RTVSPropertyOp8
 70
     1
102
RTVSPropertyOp9
 70
     1
102
RTVSPropertyOp10
 70
     1
102
RTVSPropertyOp11
 70
     1
102
RTVSPropertyOp12
 70
     1
102
RTVSPropertyOp13
 70
     1
102
RTVSPropertyOp14
 70
     1
102
RTVSPropertyOp15
 70
     1
102
RTVSPropertyOp16
 70
     1
102
RTVSPropertyOp17
 70
     1
102
RTVSPropertyOp18
 70
     1
102
RTVSPropertyOp19
 70
     1
102
RTVSPropertyOp20
 70
     1
102
RTVSPropertyOp21
 70
     1
102
RTVSPropertyOp22
 70
     1
102
RTVSPropertyOp23
 70
     1
102
RTVSPropertyOp24
 70
     1
102
RTVSPropertyOp25
 70
     1
102
RTVSPropertyOp26
 70
     1
102
RTVSPropertyOp27
 70
     1
102
RTVSPropertyOp28
 70
     1
102
RTVSPropertyOp29
 70
     1
102
RTVSPropertyOp30
 70
     1
102
RTVSPropertyOp31
 70
     1
102
RTVSPropertyOp32
 70
     1
  0
XRECORD
  5
91
102
{ACAD_REACTORS
330
90
102
}
330
90
100
AcDbXrecord
280
     1
102
RTVSPropertyOp0
 70
     1
102
RTVSPropertyOp1
 70
     1
102
RTVSPropertyOp2
 70
     1
102
RTVSPropertyOp3
 70
     1
102
RTVSPropertyOp4
 70
     1
102
RTVSPropertyOp5
 70
     1
102
RTVSPropertyOp6
 70
     1
102
RTVSPropertyOp7
 70
     1
102
RTVSPropertyOp8
 70
     1
102
RTVSPropertyOp9
 70
     1
102
RTVSPropertyOp10
 70
     1
102
RTVSPropertyOp11
 70
     1
102
RTVSPropertyOp12
 70
     1
102
RTVSPropertyOp13
 70
     1
102
RTVSPropertyOp14
 70
     1
102
RTVSPropertyOp15
 70
     1
102
RTVSPropertyOp16
 70
     1
102
RTVSPropertyOp17
 70
     1
102
RTVSPropertyOp18
 70
     1
102
RTVSPropertyOp19
 70
     1
102
RTVSPropertyOp20
 70
     1
102
RTVSPropertyOp21
 70
     1
102
RTVSPropertyOp22
 70
     1
102
RTVSPropertyOp23
 70
     1
102
RTVSPropertyOp24
 70
     1
102
RTVSPropertyOp25
 70
     1
102
RTVSPropertyOp26
 70
     1
102
RTVSPropertyOp27
 70
     1
102
RTVSPropertyOp28
 70
     1
102
RTVSPropertyOp29
 70
     1
102
RTVSPropertyOp30
 70
     1
102
RTVSPropertyOp31
 70
     1
102
RTVSPropertyOp32
 70
     1
  0
XRECORD
  5
87
102
{ACAD_REACTORS
330
86
102
}
330
86
100
AcDbXrecord
280
     1
102
RTVSPropertyOp0
 70
     1
102
RTVSPropertyOp1
 70
     1
102
RTVSPropertyOp2
 70
     1
102
RTVSPropertyOp3
 70
     1
102
RTVSPropertyOp4
 70
     1
102
RTVSPropertyOp5
 70
     1
102
RTVSPropertyOp6
 70
     1
102
RTVSPropertyOp7
 70
     1
102
RTVSPropertyOp8
 70
     1
102
RTVSPropertyOp9
 70
     1
102
RTVSPropertyOp10
 70
     1
102
RTVSPropertyOp11
 70
     1
102
RTVSPropertyOp12
 70
     1
102
RTVSPropertyOp13
 70
     1
102
RTVSPropertyOp14
 70
     1
102
RTVSPropertyOp15
 70
     1
102
RTVSPropertyOp16
 70
     1
102
RTVSPropertyOp17
 70
     1
102
RTVSPropertyOp18
 70
     1
102
RTVSPropertyOp19
 70
     1
102
RTVSPropertyOp20
 70
     1
102
RTVSPropertyOp21
 70
     1
102
RTVSPropertyOp22
 70
     1
102
RTVSPropertyOp23
 70
     1
102
RTVSPropertyOp24
 70
     1
102
RTVSPropertyOp25
 70
     1
102
RTVSPropertyOp26
 70
     1
102
RTVSPropertyOp27
 70
     1
102
RTVSPropertyOp28
 70
     1
102
RTVSPropertyOp29
 70
     1
102
RTVSPropertyOp30
 70
     1
102
RTVSPropertyOp31
 70
     1
102
RTVSPropertyOp32
 70
     1
  0
XRECORD
  5
8F
102
{ACAD_REACTORS
330
8E
102
}
330
8E
100
AcDbXrecord
280
     1
102
RTVSPropertyOp0
 70
     1
102
RTVSPropertyOp1
 70
     1
102
RTVSPropertyOp2
 70
     1
102
RTVSPropertyOp3
 70
     1
102
RTVSPropertyOp4
 70
     1
102
RTVSPropertyOp5
 70
     1
102
RTVSPropertyOp6
 70
     1
102
RTVSPropertyOp7
 70
     1
102
RTVSPropertyOp8
 70
     1
102
RTVSPropertyOp9
 70
     1
102
RTVSPropertyOp10
 70
     1
102
RTVSPropertyOp11
 70
     1
102
RTVSPropertyOp12
 70
     1
102
RTVSPropertyOp13
 70
     1
102
RTVSPropertyOp14
 70
     1
102
RTVSPropertyOp15
 70
     1
102
RTVSPropertyOp16
 70
     1
102
RTVSPropertyOp17
 70
     1
102
RTVSPropertyOp18
 70
     1
102
RTVSPropertyOp19
 70
     1
102
RTVSPropertyOp20
 70
     1
102
RTVSPropertyOp21
 70
     1
102
RTVSPropertyOp22
 70
     1
102
RTVSPropertyOp23
 70
     1
102
RTVSPropertyOp24
 70
     1
102
RTVSPropertyOp25
 70
     1
102
RTVSPropertyOp26
 70
     1
102
RTVSPropertyOp27
 70
     1
102
RTVSPropertyOp28
 70
     1
102
RTVSPropertyOp29
 70
     1
102
RTVSPropertyOp30
 70
     1
102
RTVSPropertyOp31
 70
     1
102
RTVSPropertyOp32
 70
     1
  0
ENDSEC
  0
EOF
