  0
SECTION
  2
HEADER
  9
$ACADVER
  1
AC1021
  9
$ACADMAINTVER
 70
    25
  9
$DWGCODEPAGE
  3
ANSI_1252
  9
$INSBASE
 10
0.0
 20
0.0
 30
0.0
  9
$EXTMIN
 10
-24.0724
 20
-115.3073
 30
0.0
  9
$EXTMAX
 10
77.3369
 20
131.568
 30
0.0
  9
$LIMMIN
 10
0.0
 20
0.0
  9
$LIMMAX
 10
12.0
 20
9.0
  9
$ORTHOMODE
 70
     0
  9
$REGENMODE
 70
     1
  9
$FILLMODE
 70
     1
  9
$QTEXTMODE
 70
     0
  9
$MIRRTEXT
 70
     1
  9
$LTSCALE
 40
1.0
  9
$ATTMODE
 70
     1
  9
$TEXTSIZE
 40
0.2
  9
$TRACEWID
 40
0.05
  9
$TEXTSTYLE
  7
Standard
  9
$CLAYER
  8
0
  9
$CELTYPE
  6
ByLayer
  9
$CECOLOR
 62
   256
  9
$CELTSCALE
 40
1.0
  9
$DISPSILH
 70
     0
  9
$DIMSCALE
 40
1.0
  9
$DIMASZ
 40
0.18
  9
$DIMEXO
 40
0.0625
  9
$DIMDLI
 40
0.38
  9
$DIMRND
 40
0.0
  9
$DIMDLE
 40
0.0
  9
$DIMEXE
 40
0.18
  9
$DIMTP
 40
0.0
  9
$DIMTM
 40
0.0
  9
$DIMTXT
 40
0.18
  9
$DIMCEN
 40
0.09
  9
$DIMTSZ
 40
0.0
  9
$DIMTOL
 70
     0
  9
$DIMLIM
 70
     0
  9
$DIMTIH
 70
     1
  9
$DIMTOH
 70
     1
  9
$DIMSE1
 70
     0
  9
$DIMSE2
 70
     0
  9
$DIMTAD
 70
     0
  9
$DIMZIN
 70
     0
  9
$DIMBLK
  1

  9
$DIMASO
 70
     1
  9
$DIMSHO
 70
     1
  9
$DIMPOST
  1

  9
$DIMAPOST
  1

  9
$DIMALT
 70
     0
  9
$DIMALTD
 70
     2
  9
$DIMALTF
 40
25.4
  9
$DIMLFAC
 40
1.0
  9
$DIMTOFL
 70
     0
  9
$DIMTVP
 40
0.0
  9
$DIMTIX
 70
     0
  9
$DIMSOXD
 70
     0
  9
$DIMSAH
 70
     0
  9
$DIMBLK1
  1

  9
$DIMBLK2
  1

  9
$DIMSTYLE
  2
Standard
  9
$DIMCLRD
 70
     0
  9
$DIMCLRE
 70
     0
  9
$DIMCLRT
 70
     0
  9
$DIMTFAC
 40
1.0
  9
$DIMGAP
 40
0.09
  9
$DIMJUST
 70
     0
  9
$DIMSD1
 70
     0
  9
$DIMSD2
 70
     0
  9
$DIMTOLJ
 70
     1
  9
$DIMTZIN
 70
     0
  9
$DIMALTZ
 70
     0
  9
$DIMALTTZ
 70
     0
  9
$DIMUPT
 70
     0
  9
$DIMDEC
 70
     4
  9
$DIMTDEC
 70
     4
  9
$DIMALTU
 70
     2
  9
$DIMALTTD
 70
     2
  9
$DIMTXSTY
  7
Standard
  9
$DIMAUNIT
 70
     0
  9
$DIMADEC
 70
     0
  9
$DIMALTRND
 40
0.0
  9
$DIMAZIN
 70
     0
  9
$DIMDSEP
 70
    46
  9
$DIMATFIT
 70
     3
  9
$DIMFRAC
 70
     0
  9
$DIMLDRBLK
  1

  9
$DIMLUNIT
 70
     2
  9
$DIMLWD
 70
    -2
  9
$DIMLWE
 70
    -2
  9
$DIMTMOVE
 70
     0
  9
$DIMFXL
 40
1.0
  9
$DIMFXLON
 70
     0
  9
$DIMJOGANG
 40
0.7853981633974483
  9
$DIMTFILL
 70
     0
  9
$DIMTFILLCLR
 70
     0
  9
$DIMARCSYM
 70
     0
  9
$DIMLTYPE
  6

  9
$DIMLTEX1
  6

  9
$DIMLTEX2
  6

  9
$LUNITS
 70
     2
  9
$LUPREC
 70
     4
  9
$SKETCHINC
 40
0.1
  9
$FILLETRAD
 40
0.5
  9
$AUNITS
 70
     0
  9
$AUPREC
 70
     0
  9
$MENU
  1
.
  9
$ELEVATION
 40
0.0
  9
$PELEVATION
 40
0.0
  9
$THICKNESS
 40
0.0
  9
$LIMCHECK
 70
     0
  9
$CHAMFERA
 40
0.5
  9
$CHAMFERB
 40
0.5
  9
$CHAMFERC
 40
1.0
  9
$CHAMFERD
 40
0.0
  9
$SKPOLY
 70
     0
  9
$TDCREATE
 40
2458492.741064583
  9
$TDUCREATE
 40
2458492.741064583
  9
$TDUPDATE
 40
2458492.741064873
  9
$TDUUPDATE
 40
2458492.741064873
  9
$TDINDWG
 40
0.0000000116
  9
$TDUSRTIMER
 40
0.0000000116
  9
$USRTIMER
 70
     1
  9
$ANGBASE
 50
0.0
  9
$ANGDIR
 70
     0
  9
$PDMODE
 70
     0
  9
$PDSIZE
 40
0.0
  9
$PLINEWID
 40
0.0
  9
$SPLFRAME
 70
     0
  9
$SPLINETYPE
 70
     6
  9
$SPLINESEGS
 70
     8
  9
$HANDSEED
  5
D9
  9
$SURFTAB1
 70
     6
  9
$SURFTAB2
 70
     6
  9
$SURFTYPE
 70
     6
  9
$SURFU
 70
     6
  9
$SURFV
 70
     6
  9
$UCSBASE
  2

  9
$UCSNAME
  2

  9
$UCSORG
 10
0.0
 20
0.0
 30
0.0
  9
$UCSXDIR
 10
1.0
 20
0.0
 30
0.0
  9
$UCSYDIR
 10
0.0
 20
1.0
 30
0.0
  9
$UCSORTHOREF
  2

  9
$UCSORTHOVIEW
 70
     0
  9
$UCSORGTOP
 10
0.0
 20
0.0
 30
0.0
  9
$UCSORGBOTTOM
 10
0.0
 20
0.0
 30
0.0
  9
$UCSORGLEFT
 10
0.0
 20
0.0
 30
0.0
  9
$UCSORGRIGHT
 10
0.0
 20
0.0
 30
0.0
  9
$UCSORGFRONT
 10
0.0
 20
0.0
 30
0.0
  9
$UCSORGBACK
 10
0.0
 20
0.0
 30
0.0
  9
$PUCSBASE
  2

  9
$PUCSNAME
  2

  9
$PUCSORG
 10
0.0
 20
0.0
 30
0.0
  9
$PUCSXDIR
 10
1.0
 20
0.0
 30
0.0
  9
$PUCSYDIR
 10
0.0
 20
1.0
 30
0.0
  9
$PUCSORTHOREF
  2

  9
$PUCSORTHOVIEW
 70
     0
  9
$PUCSORGTOP
 10
0.0
 20
0.0
 30
0.0
  9
$PUCSORGBOTTOM
 10
0.0
 20
0.0
 30
0.0
  9
$PUCSORGLEFT
 10
0.0
 20
0.0
 30
0.0
  9
$PUCSORGRIGHT
 10
0.0
 20
0.0
 30
0.0
  9
$PUCSORGFRONT
 10
0.0
 20
0.0
 30
0.0
  9
$PUCSORGBACK
 10
0.0
 20
0.0
 30
0.0
  9
$USERI1
 70
     0
  9
$USERI2
 70
     0
  9
$USERI3
 70
     0
  9
$USERI4
 70
     0
  9
$USERI5
 70
     0
  9
$USERR1
 40
0.0
  9
$USERR2
 40
0.0
  9
$USERR3
 40
0.0
  9
$USERR4
 40
0.0
  9
$USERR5
 40
0.0
  9
$WORLDVIEW
 70
     1
  9
$SHADEDGE
 70
     3
  9
$SHADEDIF
 70
    70
  9
$TILEMODE
 70
     1
  9
$MAXACTVP
 70
    64
  9
$PINSBASE
 10
0.0
 20
0.0
 30
0.0
  9
$PLIMCHECK
 70
     0
  9
$PEXTMIN
 10
1.000000000000000E+20
 20
1.000000000000000E+20
 30
1.000000000000000E+20
  9
$PEXTMAX
 10
-1.000000000000000E+20
 20
-1.000000000000000E+20
 30
-1.000000000000000E+20
  9
$PLIMMIN
 10
0.0
 20
0.0
  9
$PLIMMAX
 10
12.0
 20
9.0
  9
$UNITMODE
 70
     0
  9
$VISRETAIN
 70
     1
  9
$PLINEGEN
 70
     0
  9
$PSLTSCALE
 70
     1
  9
$TREEDEPTH
 70
  3020
  9
$CMLSTYLE
  2
Standard
  9
$CMLJUST
 70
     0
  9
$CMLSCALE
 40
1.0
  9
$PROXYGRAPHICS
 70
     1
  9
$MEASUREMENT
 70
     0
  9
$CELWEIGHT
370
    -1
  9
$ENDCAPS
280
     0
  9
$JOINSTYLE
280
     0
  9
$LWDISPLAY
290
     0
  9
$INSUNITS
 70
     4
  9
$HYPERLINKBASE
  1

  9
$STYLESHEET
  1

  9
$XEDIT
290
     1
  9
$CEPSNTYPE
380
     0
  9
$PSTYLEMODE
290
     1
  9
$FINGERPRINTGUID
  2
{400C6020-5014-4F1E-A874-FA7F876D9564}
  9
$VERSIONGUID
  2
{FAEB1C32-E019-11D5-929B-00C0DF256EC4}
  9
$EXTNAMES
290
     1
  9
$PSVPSCALE
 40
0.0
  9
$OLESTARTUP
290
     0
  9
$SORTENTS
280
   127
  9
$INDEXCTL
280
     0
  9
$HIDETEXT
280
     1
  9
$XCLIPFRAME
290
     0
  9
$HALOGAP
280
     0
  9
$OBSCOLOR
 70
   257
  9
$OBSLTYPE
280
     0
  9
$INTERSECTIONDISPLAY
280
     0
  9
$INTERSECTIONCOLOR
 70
   257
  9
$DIMASSOC
280
     2
  9
$PROJECTNAME
  1

  9
$CAMERADISPLAY
290
     0
  9
$LENSLENGTH
 40
50.0
  9
$CAMERAHEIGHT
 40
0.0
  9
$STEPSPERSEC
 40
2.0
  9
$STEPSIZE
 40
6.0
  9
$3DDWFPREC
 40
2.0
  9
$PSOLWIDTH
 40
0.25
  9
$PSOLHEIGHT
 40
4.0
  9
$LOFTANG1
 40
1.570796326794897
  9
$LOFTANG2
 40
1.570796326794897
  9
$LOFTMAG1
 40
0.0
  9
$LOFTMAG2
 40
0.0
  9
$LOFTPARAM
 70
     7
  9
$LOFTNORMALS
280
     1
  9
$LATITUDE
 40
37.795
  9
$LONGITUDE
 40
-122.394
  9
$NORTHDIRECTION
 40
0.0
  9
$TIMEZONE
 70
 -8000
  9
$LIGHTGLYPHDISPLAY
280
     1
  9
$TILEMODELIGHTSYNCH
280
     1
  9
$SOLIDHIST
280
     1
  9
$SHOWHIST
280
     1
  9
$DWFFRAME
280
     2
  9
$DGNFRAME
280
     2
  9
$REALWORLDSCALE
290
     1
  9
$INTERFERECOLOR
 62
   256
  9
$CSHADOW
280
     0
  9
$SHADOWPLANELOCATION
 40
0.0
  0
ENDSEC
  0
SECTION
  2
CLASSES
  0
CLASS
  1
ACDBDICTIONARYWDFLT
  2
AcDbDictionaryWithDefault
  3
ObjectDBX Classes
 90
        0
 91
        4
280
     0
281
     0
  0
CLASS
  1
VISUALSTYLE
  2
AcDbVisualStyle
  3
ObjectDBX Classes
 90
     4095
 91
        4
280
     0
281
     0
  0
CLASS
  1
MATERIAL
  2
AcDbMaterial
  3
ObjectDBX Classes
 90
     1153
 91
        4
280
     0
281
     0
  0
ENDSEC
  0
SECTION
  2
TABLES
  0
TABLE
  2
VPORT
  5
8
330
0
100
AcDbSymbolTable
 70
     1
  0
VPORT
  5
29
330
8
100
AcDbSymbolTableRecord
100
AcDbViewportTableRecord
  2
*Active
 70
     0
 10
0.0
 20
0.0
 11
1.0
 21
1.0
 12
10.42990654205607
 22
4.5
 13
0.0
 23
0.0
 14
0.5
 24
0.5
 15
0.5
 25
0.5
 16
0.0
 26
0.0
 36
1.0
 17
0.0
 27
0.0
 37
0.0
 40
9.0
 41
1.972972972850329
 42
50.0
 43
0.0
 44
0.0
 50
0.0
 51
0.0
 71
     0
 72
   100
 73
     1
 74
     3
 75
     0
 76
     0
 77
     0
 78
     0
281
     0
 65
     1
110
0.0
120
0.0
130
0.0
111
1.0
121
0.0
131
0.0
112
0.0
122
1.0
132
0.0
 79
     0
146
0.0
 60
     3
 61
     5
292
     1
282
     1
141
0.0
142
0.0
 63
   250
  0
ENDTAB
  0
TABLE
  2
LTYPE
  5
5
330
0
100
AcDbSymbolTable
 70
     1
  0
LTYPE
  5
14
330
5
100
AcDbSymbolTableRecord
100
AcDbLinetypeTableRecord
  2
ByBlock
 70
     0
  3

 72
    65
 73
     0
 40
0.0
  0
LTYPE
  5
15
330
5
100
AcDbSymbolTableRecord
100
AcDbLinetypeTableRecord
  2
ByLayer
 70
     0
  3

 72
    65
 73
     0
 40
0.0
  0
LTYPE
  5
16
330
5
100
AcDbSymbolTableRecord
100
AcDbLinetypeTableRecord
  2
Continuous
 70
     0
  3
Solid line
 72
    65
 73
     0
 40
0.0
  0
ENDTAB
  0
TABLE
  2
LAYER
  5
2
330
0
100
AcDbSymbolTable
 70
     2
  0
LAYER
  5
10
330
2
100
AcDbSymbolTableRecord
100
AcDbLayerTableRecord
  2
0
 70
     0
 62
     7
  6
Continuous
370
    -3
390
F
347
3E
  0
LAYER
  5
40
330
2
100
AcDbSymbolTableRecord
100
AcDbLayerTableRecord
  2
layer 1
 70
     0
 62
     7
  6
Continuous
370
    -3
390
F
347
3E
  0
ENDTAB
  0
TABLE
  2
STYLE
  5
3
330
0
100
AcDbSymbolTable
 70
     1
  0
STYLE
  5
11
330
3
100
AcDbSymbolTableRecord
100
AcDbTextStyleTableRecord
  2
Standard
 70
     0
 40
0.0
 41
1.0
 50
0.0
 71
     0
 42
0.2
  3
txt
  4

  0
ENDTAB
  0
TABLE
  2
VIEW
  5
6
330
0
100
AcDbSymbolTable
 70
     0
  0
ENDTAB
  0
TABLE
  2
UCS
  5
7
330
0
100
AcDbSymbolTable
 70
     0
  0
ENDTAB
  0
TABLE
  2
APPID
  5
9
330
0
100
AcDbSymbolTable
 70
     2
  0
APPID
  5
12
330
9
100
AcDbSymbolTableRecord
100
AcDbRegAppTableRecord
  2
ACAD
 70
     0
  0
APPID
  5
3F
330
9
100
AcDbSymbolTableRecord
100
AcDbRegAppTableRecord
  2
ODA
 70
     0
  0
ENDTAB
  0
TABLE
  2
DIMSTYLE
  5
A
330
0
100
AcDbSymbolTable
 70
     1
100
AcDbDimStyleTable
  0
DIMSTYLE
105
27
330
A
100
AcDbSymbolTableRecord
100
AcDbDimStyleTableRecord
  2
Standard
 70
     0
178
     0
340
11
  0
ENDTAB
  0
TABLE
  2
BLOCK_RECORD
  5
1
330
0
100
AcDbSymbolTable
 70
     1
  0
BLOCK_RECORD
  5
1F
330
1
100
AcDbSymbolTableRecord
100
AcDbBlockTableRecord
  2
*Model_Space
340
22
 70
     0
280
     1
281
     0
  0
BLOCK_RECORD
  5
1B
330
1
100
AcDbSymbolTableRecord
100
AcDbBlockTableRecord
  2
*Paper_Space
340
1E
 70
     0
280
     1
281
     0
  0
BLOCK_RECORD
  5
23
330
1
100
AcDbSymbolTableRecord
100
AcDbBlockTableRecord
  2
*Paper_Space0
340
26
 70
     0
280
     1
281
     0
  0
ENDTAB
  0
ENDSEC
  0
SECTION
  2
BLOCKS
  0
BLOCK
  5
20
330
1F
100
AcDbEntity
  8
0
100
AcDbBlockBegin
  2
*Model_Space
 70
     0
 10
0.0
 20
0.0
 30
0.0
  3
*Model_Space
  1

  0
ENDBLK
  5
21
330
1F
100
AcDbEntity
  8
0
100
AcDbBlockEnd
  0
BLOCK
  5
1C
330
1B
100
AcDbEntity
 67
     1
  8
0
100
AcDbBlockBegin
  2
*Paper_Space
 70
     0
 10
0.0
 20
0.0
 30
0.0
  3
*Paper_Space
  1

  0
ENDBLK
  5
1D
330
1B
100
AcDbEntity
 67
     1
  8
0
100
AcDbBlockEnd
  0
BLOCK
  5
24
330
23
100
AcDbEntity
  8
0
100
AcDbBlockBegin
  2
*Paper_Space0
 70
     0
 10
0.0
 20
0.0
 30
0.0
  3
*Paper_Space0
  1

  0
ENDBLK
  5
25
330
23
100
AcDbEntity
  8
0
100
AcDbBlockEnd
  0
ENDSEC
  0
SECTION
  2
ENTITIES
  0
SPLINE
  5
41
330
1F
100
AcDbEntity
  8
layer 1
 62
   250
370
     9
100
AcDbSpline
210
0.0
220
0.0
230
1.0
 70
    11
 71
     3
 72
    20
 73
    16
 74
     0
 42
0.0000000001
 43
0.0000000001
 12
1.0
 22
0.0
 32
0.0
 13
1.0
 23
0.0
 33
0.0
 40
0.0
 40
0.0
 40
0.0
 40
0.0
 40
0.2
 40
0.2
 40
0.2
 40
0.2
 40
0.4
 40
0.4
 40
0.4
 40
0.4
 40
0.6
 40
0.6
 40
0.6
 40
0.6
 40
1.0
 40
1.0
 40
1.0
 40
1.0
 10
-24.0343
 20
-115.2692
 30
0.0
 10
-24.0343
 20
-115.2692
 30
0.0
 10
-24.0343
 20
131.5299
 30
0.0
 10
-24.0343
 20
131.5299
 30
0.0
 10
-24.0343
 20
131.5299
 30
0.0
 10
-24.0343
 20
131.5299
 30
0.0
 10
77.2988
 20
131.5299
 30
0.0
 10
77.2988
 20
131.5299
 30
0.0
 10
77.2988
 20
131.5299
 30
0.0
 10
77.2988
 20
131.5299
 30
0.0
 10
77.2988
 20
-115.2692
 30
0.0
 10
77.2988
 20
-115.2692
 30
0.0
 10
77.2988
 20
-115.2692
 30
0.0
 10
77.2988
 20
-115.2692
 30
0.0
 10
-24.0343
 20
-115.2692
 30
0.0
 10
-24.0343
 20
-115.2692
 30
0.0
  0
SPLINE
  5
42
330
1F
100
AcDbEntity
  8
layer 1
 62
     7
370
     9
100
AcDbSpline
210
0.0
220
0.0
230
1.0
 70
    11
 71
     3
 72
    84
 73
    80
 74
     0
 42
0.0000000001
 43
0.0000000001
 12
1.0
 22
0.0
 32
0.0
 13
1.0
 23
0.0
 33
0.0
 40
0.0
 40
0.0
 40
0.0
 40
0.0
 40
0.0476190476190476
 40
0.0476190476190476
 40
0.0476190476190476
 40
0.0476190476190476
 40
0.0952380952380952
 40
0.0952380952380952
 40
0.0952380952380952
 40
0.0952380952380952
 40
0.1428571428571428
 40
0.1428571428571428
 40
0.1428571428571428
 40
0.1428571428571428
 40
0.1904761904761905
 40
0.1904761904761905
 40
0.1904761904761905
 40
0.1904761904761905
 40
0.2380952380952381
 40
0.2380952380952381
 40
0.2380952380952381
 40
0.2380952380952381
 40
0.2857142857142857
 40
0.2857142857142857
 40
0.2857142857142857
 40
0.2857142857142857
 40
0.3333333333333333
 40
0.3333333333333333
 40
0.3333333333333333
 40
0.3333333333333333
 40
0.3809523809523809
 40
0.3809523809523809
 40
0.3809523809523809
 40
0.3809523809523809
 40
0.4285714285714285
 40
0.4285714285714285
 40
0.4285714285714285
 40
0.4285714285714285
 40
0.4761904761904762
 40
0.4761904761904762
 40
0.4761904761904762
 40
0.4761904761904762
 40
0.5238095238095238
 40
0.5238095238095238
 40
0.5238095238095238
 40
0.5238095238095238
 40
0.5714285714285714
 40
0.5714285714285714
 40
0.5714285714285714
 40
0.5714285714285714
 40
0.6190476190476191
 40
0.6190476190476191
 40
0.6190476190476191
 40
0.6190476190476191
 40
0.6666666666666666
 40
0.6666666666666666
 40
0.6666666666666666
 40
0.6666666666666666
 40
0.7142857142857143
 40
0.7142857142857143
 40
0.7142857142857143
 40
0.7142857142857143
 40
0.7619047619047619
 40
0.7619047619047619
 40
0.7619047619047619
 40
0.7619047619047619
 40
0.8095238095238095
 40
0.8095238095238095
 40
0.8095238095238095
 40
0.8095238095238095
 40
0.8571428571428571
 40
0.8571428571428571
 40
0.8571428571428571
 40
0.8571428571428571
 40
0.9047619047619048
 40
0.9047619047619048
 40
0.9047619047619048
 40
0.9047619047619048
 40
1.0
 40
1.0
 40
1.0
 40
1.0
 10
23.0011
 20
11.9891
 30
0.0
 10
22.9878
 20
13.4421
 30
0.0
 10
23.5089
 20
14.8494
 30
0.0
 10
24.4655
 20
15.9433
 30
0.0
 10
24.4655
 20
15.9433
 30
0.0
 10
25.4364
 20
17.3829
 30
0.0
 10
26.1364
 20
18.9877
 30
0.0
 10
26.5312
 20
20.6785
 30
0.0
 10
26.5312
 20
20.6785
 30
0.0
 10
26.9259
 20
18.9877
 30
0.0
 10
27.6261
 20
17.3829
 30
0.0
 10
28.597
 20
15.9433
 30
0.0
 10
28.597
 20
15.9433
 30
0.0
 10
29.5536
 20
14.8494
 30
0.0
 10
30.0745
 20
13.4421
 30
0.0
 10
30.0612
 20
11.9891
 30
0.0
 10
30.0612
 20
11.9891
 30
0.0
 10
30.0612
 20
11.9891
 30
0.0
 10
30.0612
 20
11.9781
 30
0.0
 10
30.0612
 20
11.9781
 30
0.0
 10
30.0612
 20
11.9781
 30
0.0
 10
31.4612
 20
12.0741
 30
0.0
 10
32.8497
 20
11.6701
 30
0.0
 10
33.9794
 20
10.838
 30
0.0
 10
33.9794
 20
10.838
 30
0.0
 10
35.701
 20
9.9392
 30
0.0
 10
37.48
 20
9.1552
 30
0.0
 10
39.3049
 20
8.4908
 30
0.0
 10
39.3049
 20
8.4908
 30
0.0
 10
37.48
 20
7.8262
 30
0.0
 10
35.701
 20
7.0421
 30
0.0
 10
33.9794
 20
6.1434
 30
0.0
 10
33.9794
 20
6.1434
 30
0.0
 10
32.8497
 20
5.3113
 30
0.0
 10
31.4612
 20
4.9072
 30
0.0
 10
30.0612
 20
5.0031
 30
0.0
 10
30.0612
 20
5.0031
 30
0.0
 10
30.0612
 20
5.0031
 30
0.0
 10
30.0612
 20
4.9921
 30
0.0
 10
30.0612
 20
4.9921
 30
0.0
 10
30.0612
 20
4.9921
 30
0.0
 10
30.0745
 20
3.5392
 30
0.0
 10
29.5536
 20
2.1319
 30
0.0
 10
28.597
 20
1.038
 30
0.0
 10
28.597
 20
1.038
 30
0.0
 10
27.6261
 20
-0.4016
 30
0.0
 10
26.9259
 20
-2.0064
 30
0.0
 10
26.5312
 20
-3.6973
 30
0.0
 10
26.5312
 20
-3.6973
 30
0.0
 10
26.1364
 20
-2.0064
 30
0.0
 10
25.4364
 20
-0.4016
 30
0.0
 10
24.4655
 20
1.038
 30
0.0
 10
24.4655
 20
1.038
 30
0.0
 10
23.5089
 20
2.1319
 30
0.0
 10
22.9878
 20
3.5392
 30
0.0
 10
23.0011
 20
4.9921
 30
0.0
 10
23.0011
 20
4.9921
 30
0.0
 10
23.0011
 20
4.9921
 30
0.0
 10
23.0011
 20
5.0031
 30
0.0
 10
23.0011
 20
5.0031
 30
0.0
 10
23.0011
 20
5.0031
 30
0.0
 10
21.6013
 20
4.9072
 30
0.0
 10
20.2128
 20
5.3113
 30
0.0
 10
19.083
 20
6.1434
 30
0.0
 10
19.083
 20
6.1434
 30
0.0
 10
17.3615
 20
7.0421
 30
0.0
 10
15.5823
 20
7.8262
 30
0.0
 10
13.7576
 20
8.4908
 30
0.0
 10
13.7576
 20
8.4908
 30
0.0
 10
15.5823
 20
9.1552
 30
0.0
 10
17.3615
 20
9.9392
 30
0.0
 10
19.083
 20
10.838
 30
0.0
 10
19.083
 20
10.838
 30
0.0
 10
20.2128
 20
11.6701
 30
0.0
 10
21.6013
 20
12.0741
 30
0.0
 10
23.0011
 20
11.9781
 30
0.0
 10
23.0011
 20
11.9781
 30
0.0
 10
23.0011
 20
11.9781
 30
0.0
 10
23.0011
 20
11.9891
 30
0.0
 10
23.0011
 20
11.9891
 30
0.0
  0
SPLINE
  5
43
330
1F
100
AcDbEntity
  8
layer 1
 62
     7
370
     9
100
AcDbSpline
210
0.0
220
0.0
230
1.0
 70
    11
 71
     3
 72
    24
 73
    20
 74
     0
 42
0.0000000001
 43
0.0000000001
 12
1.0
 22
0.0
 32
0.0
 13
1.0
 23
0.0
 33
0.0
 40
0.0
 40
0.0
 40
0.0
 40
0.0
 40
0.1666666666666667
 40
0.1666666666666667
 40
0.1666666666666667
 40
0.1666666666666667
 40
0.3333333333333333
 40
0.3333333333333333
 40
0.3333333333333333
 40
0.3333333333333333
 40
0.5
 40
0.5
 40
0.5
 40
0.5
 40
0.6666666666666666
 40
0.6666666666666666
 40
0.6666666666666666
 40
0.6666666666666666
 40
1.0
 40
1.0
 40
1.0
 40
1.0
 10
-2.235
 20
124.5914
 30
0.0
 10
-2.235
 20
124.5914
 30
0.0
 10
-12.6067
 20
124.5914
 30
0.0
 10
-12.6067
 20
124.5914
 30
0.0
 10
-12.6067
 20
124.5914
 30
0.0
 10
-12.6229
 20
124.563
 30
0.0
 10
-12.6376
 20
124.5329
 30
0.0
 10
-12.6508
 20
124.5012
 30
0.0
 10
-12.6508
 20
124.5012
 30
0.0
 10
-13.1014
 20
123.2117
 30
0.0
 10
-12.9531
 20
121.787
 30
0.0
 10
-12.2459
 20
120.6178
 30
0.0
 10
-12.2459
 20
120.6178
 30
0.0
 10
-11.5387
 20
119.4469
 30
0.0
 10
-10.3467
 20
118.6536
 30
0.0
 10
-8.9944
 20
118.4532
 30
0.0
 10
-8.9944
 20
118.4532
 30
0.0
 10
-8.165
 20
121.6634
 30
0.0
 10
-5.5097
 20
124.0753
 30
0.0
 10
-2.235
 20
124.5914
 30
0.0
  0
SPLINE
  5
44
330
1F
100
AcDbEntity
  8
layer 1
 62
     7
370
     9
100
AcDbSpline
210
0.0
220
0.0
230
1.0
 70
    11
 71
     3
 72
    20
 73
    16
 74
     0
 42
0.0000000001
 43
0.0000000001
 12
1.0
 22
0.0
 32
0.0
 13
1.0
 23
0.0
 33
0.0
 40
0.0
 40
0.0
 40
0.0
 40
0.0
 40
0.2
 40
0.2
 40
0.2
 40
0.2
 40
0.4
 40
0.4
 40
0.4
 40
0.4
 40
0.6
 40
0.6
 40
0.6
 40
0.6
 40
1.0
 40
1.0
 40
1.0
 40
1.0
 10
19.8567
 20
124.5914
 30
0.0
 10
19.8567
 20
124.5914
 30
0.0
 10
0.9816
 20
124.5914
 30
0.0
 10
0.9816
 20
124.5914
 30
0.0
 10
0.9816
 20
124.5914
 30
0.0
 10
5.7493
 20
123.9416
 30
0.0
 10
9.5929
 20
120.3639
 30
0.0
 10
10.5816
 20
115.6538
 30
0.0
 10
10.5816
 20
115.6538
 30
0.0
 10
12.0367
 20
115.9778
 30
0.0
 10
13.5503
 20
115.455
 30
0.0
 10
14.4936
 20
114.3009
 30
0.0
 10
14.4936
 20
114.3009
 30
0.0
 10
13.3465
 20
118.6018
 30
0.0
 10
15.6737
 20
123.0681
 30
0.0
 10
19.8567
 20
124.5914
 30
0.0
  0
SPLINE
  5
45
330
1F
100
AcDbEntity
  8
layer 1
 62
     7
370
     9
100
AcDbSpline
210
0.0
220
0.0
230
1.0
 70
    11
 71
     3
 72
    16
 73
    12
 74
     0
 42
0.0000000001
 43
0.0000000001
 12
1.0
 22
0.0
 32
0.0
 13
1.0
 23
0.0
 33
0.0
 40
0.0
 40
0.0
 40
0.0
 40
0.0
 40
0.25
 40
0.25
 40
0.25
 40
0.25
 40
0.5
 40
0.5
 40
0.5
 40
0.5
 40
1.0
 40
1.0
 40
1.0
 40
1.0
 10
-17.3454
 20
96.4007
 30
0.0
 10
-17.3454
 20
96.4007
 30
0.0
 10
-17.3454
 20
109.9665
 30
0.0
 10
-17.3454
 20
109.9665
 30
0.0
 10
-17.3454
 20
109.9665
 30
0.0
 10
-16.0965
 20
106.3571
 30
0.0
 10
-13.5692
 20
103.3306
 30
0.0
 10
-10.2408
 20
101.4582
 30
0.0
 10
-10.2408
 20
101.4582
 30
0.0
 10
-13.5399
 20
101.7839
 30
0.0
 10
-16.5729
 20
99.6243
 30
0.0
 10
-17.3454
 20
96.4007
 30
0.0
  0
SPLINE
  5
46
330
1F
100
AcDbEntity
  8
layer 1
 62
     7
370
     9
100
AcDbSpline
210
0.0
220
0.0
230
1.0
 70
    11
 71
     3
 72
    28
 73
    24
 74
     0
 42
0.0000000001
 43
0.0000000001
 12
1.0
 22
0.0
 32
0.0
 13
1.0
 23
0.0
 33
0.0
 40
0.0
 40
0.0
 40
0.0
 40
0.0
 40
0.1428571428571428
 40
0.1428571428571428
 40
0.1428571428571428
 40
0.1428571428571428
 40
0.2857142857142857
 40
0.2857142857142857
 40
0.2857142857142857
 40
0.2857142857142857
 40
0.4285714285714285
 40
0.4285714285714285
 40
0.4285714285714285
 40
0.4285714285714285
 40
0.5714285714285714
 40
0.5714285714285714
 40
0.5714285714285714
 40
0.5714285714285714
 40
0.7142857142857143
 40
0.7142857142857143
 40
0.7142857142857143
 40
0.7142857142857143
 40
1.0
 40
1.0
 40
1.0
 40
1.0
 10
-17.3454
 20
64.1846
 30
0.0
 10
-17.3454
 20
64.1846
 30
0.0
 10
-17.3454
 20
93.3074
 30
0.0
 10
-17.3454
 20
93.3074
 30
0.0
 10
-17.3454
 20
93.3074
 30
0.0
 10
-16.865
 20
91.303
 30
0.0
 10
-15.4806
 20
89.6361
 30
0.0
 10
-13.5986
 20
88.796
 30
0.0
 10
-13.5986
 20
88.796
 30
0.0
 10
-11.6678
 20
87.9943
 30
0.0
 10
-9.5039
 20
87.9625
 30
0.0
 10
-7.5498
 20
88.7058
 30
0.0
 10
-7.5498
 20
88.7058
 30
0.0
 10
-12.8953
 20
82.8766
 30
0.0
 10
-14.2454
 20
74.4217
 30
0.0
 10
-10.9805
 20
67.2178
 30
0.0
 10
-10.9805
 20
67.2178
 30
0.0
 10
-12.2066
 20
67.8826
 30
0.0
 10
-13.6762
 20
67.9194
 30
0.0
 10
-14.9345
 20
67.3197
 30
0.0
 10
-14.9345
 20
67.3197
 30
0.0
 10
-16.1931
 20
66.7201
 30
0.0
 10
-17.089
 20
65.5543
 30
0.0
 10
-17.3454
 20
64.1846
 30
0.0
  0
SPLINE
  5
47
330
1F
100
AcDbEntity
  8
layer 1
 62
     7
370
     9
100
AcDbSpline
210
0.0
220
0.0
230
1.0
 70
    11
 71
     3
 72
    20
 73
    16
 74
     0
 42
0.0000000001
 43
0.0000000001
 12
1.0
 22
0.0
 32
0.0
 13
1.0
 23
0.0
 33
0.0
 40
0.0
 40
0.0
 40
0.0
 40
0.0
 40
0.2
 40
0.2
 40
0.2
 40
0.2
 40
0.4
 40
0.4
 40
0.4
 40
0.4
 40
0.6
 40
0.6
 40
0.6
 40
0.6
 40
1.0
 40
1.0
 40
1.0
 40
1.0
 10
-17.3454
 20
54.0812
 30
0.0
 10
-17.3454
 20
54.0812
 30
0.0
 10
-17.3454
 20
62.5795
 30
0.0
 10
-17.3454
 20
62.5795
 30
0.0
 10
-17.3454
 20
62.5795
 30
0.0
 10
-17.1034
 20
61.2851
 30
0.0
 10
-16.2906
 20
60.171
 30
0.0
 10
-15.1335
 20
59.5447
 30
0.0
 10
-15.1335
 20
59.5447
 30
0.0
 10
-14.5288
 20
59.1505
 30
0.0
 10
-13.8549
 20
58.8749
 30
0.0
 10
-13.1474
 20
58.7313
 30
0.0
 10
-13.1474
 20
58.7313
 30
0.0
 10
-15.2456
 20
57.9947
 30
0.0
 10
-16.8265
 20
56.2442
 30
0.0
 10
-17.3454
 20
54.0812
 30
0.0
  0
SPLINE
  5
48
330
1F
100
AcDbEntity
  8
layer 1
 62
     7
370
     9
100
AcDbSpline
210
0.0
220
0.0
230
1.0
 70
    11
 71
     3
 72
    84
 73
    80
 74
     0
 42
0.0000000001
 43
0.0000000001
 12
1.0
 22
0.0
 32
0.0
 13
1.0
 23
0.0
 33
0.0
 40
0.0
 40
0.0
 40
0.0
 40
0.0
 40
0.0476190476190476
 40
0.0476190476190476
 40
0.0476190476190476
 40
0.0476190476190476
 40
0.0952380952380952
 40
0.0952380952380952
 40
0.0952380952380952
 40
0.0952380952380952
 40
0.1428571428571428
 40
0.1428571428571428
 40
0.1428571428571428
 40
0.1428571428571428
 40
0.1904761904761905
 40
0.1904761904761905
 40
0.1904761904761905
 40
0.1904761904761905
 40
0.2380952380952381
 40
0.2380952380952381
 40
0.2380952380952381
 40
0.2380952380952381
 40
0.2857142857142857
 40
0.2857142857142857
 40
0.2857142857142857
 40
0.2857142857142857
 40
0.3333333333333333
 40
0.3333333333333333
 40
0.3333333333333333
 40
0.3333333333333333
 40
0.3809523809523809
 40
0.3809523809523809
 40
0.3809523809523809
 40
0.3809523809523809
 40
0.4285714285714285
 40
0.4285714285714285
 40
0.4285714285714285
 40
0.4285714285714285
 40
0.4761904761904762
 40
0.4761904761904762
 40
0.4761904761904762
 40
0.4761904761904762
 40
0.5238095238095238
 40
0.5238095238095238
 40
0.5238095238095238
 40
0.5238095238095238
 40
0.5714285714285714
 40
0.5714285714285714
 40
0.5714285714285714
 40
0.5714285714285714
 40
0.6190476190476191
 40
0.6190476190476191
 40
0.6190476190476191
 40
0.6190476190476191
 40
0.6666666666666666
 40
0.6666666666666666
 40
0.6666666666666666
 40
0.6666666666666666
 40
0.7142857142857143
 40
0.7142857142857143
 40
0.7142857142857143
 40
0.7142857142857143
 40
0.7619047619047619
 40
0.7619047619047619
 40
0.7619047619047619
 40
0.7619047619047619
 40
0.8095238095238095
 40
0.8095238095238095
 40
0.8095238095238095
 40
0.8095238095238095
 40
0.8571428571428571
 40
0.8571428571428571
 40
0.8571428571428571
 40
0.8571428571428571
 40
0.9047619047619048
 40
0.9047619047619048
 40
0.9047619047619048
 40
0.9047619047619048
 40
1.0
 40
1.0
 40
1.0
 40
1.0
 10
-17.3454
 20
30.0259
 30
0.0
 10
-17.3454
 20
30.0259
 30
0.0
 10
-17.3454
 20
51.025
 30
0.0
 10
-17.3454
 20
51.025
 30
0.0
 10
-17.3454
 20
51.025
 30
0.0
 10
-16.9075
 20
49.2001
 30
0.0
 10
-15.7075
 20
47.6505
 30
0.0
 10
-14.0501
 20
46.7698
 30
0.0
 10
-14.0501
 20
46.7698
 30
0.0
 10
-12.6396
 20
46.084
 30
0.0
 10
-11.1554
 20
45.5616
 30
0.0
 10
-9.6264
 20
45.2125
 30
0.0
 10
-9.6264
 20
45.2125
 30
0.0
 10
-8.6097
 20
45.0925
 30
0.0
 10
-7.6966
 20
44.5335
 30
0.0
 10
-7.1279
 20
43.6823
 30
0.0
 10
-7.1279
 20
43.6823
 30
0.0
 10
-6.559
 20
42.8314
 30
0.0
 10
-6.3917
 20
41.7739
 30
0.0
 10
-6.6697
 20
40.7888
 30
0.0
 10
-6.6697
 20
40.7888
 30
0.0
 10
-7.0255
 20
40.0831
 30
0.0
 10
-7.6849
 20
39.5792
 30
0.0
 10
-8.4591
 20
39.4207
 30
0.0
 10
-8.4591
 20
39.4207
 30
0.0
 10
-9.2334
 20
39.2623
 30
0.0
 10
-10.0377
 20
39.4669
 30
0.0
 10
-10.6419
 20
39.9762
 30
0.0
 10
-10.6419
 20
39.9762
 30
0.0
 10
-10.6794
 20
40.0258
 30
0.0
 10
-10.7378
 20
40.0552
 30
0.0
 10
-10.8
 20
40.0552
 30
0.0
 10
-10.8
 20
40.0552
 30
0.0
 10
-10.8621
 20
40.0552
 30
0.0
 10
-10.9207
 20
40.0258
 30
0.0
 10
-10.958
 20
39.9762
 30
0.0
 10
-10.958
 20
39.9762
 30
0.0
 10
-11.7782
 20
38.7264
 30
0.0
 10
-11.5791
 20
37.0673
 30
0.0
 10
-10.4864
 20
36.0471
 30
0.0
 10
-10.4864
 20
36.0471
 30
0.0
 10
-9.3938
 20
35.0267
 30
0.0
 10
-7.725
 20
34.9417
 30
0.0
 10
-6.5343
 20
35.8458
 30
0.0
 10
-6.5343
 20
35.8458
 30
0.0
 10
-5.4972
 20
36.7309
 30
0.0
 10
-4.6788
 20
37.8438
 30
0.0
 10
-4.1433
 20
39.0976
 30
0.0
 10
-4.1433
 20
39.0976
 30
0.0
 10
-4.9031
 20
35.2766
 30
0.0
 10
-4.8488
 20
31.3384
 30
0.0
 10
-3.9838
 20
27.5399
 30
0.0
 10
-3.9838
 20
27.5399
 30
0.0
 10
-5.9021
 20
29.9257
 30
0.0
 10
-9.3811
 20
30.3279
 30
0.0
 10
-11.7931
 20
28.4427
 30
0.0
 10
-11.7931
 20
28.4427
 30
0.0
 10
-12.51
 20
27.9132
 30
0.0
 10
-13.505
 20
27.9809
 30
0.0
 10
-14.1435
 20
28.6027
 30
0.0
 10
-14.1435
 20
28.6027
 30
0.0
 10
-14.782
 20
29.2246
 30
0.0
 10
-14.8764
 20
30.2172
 30
0.0
 10
-14.3662
 20
30.9481
 30
0.0
 10
-14.3662
 20
30.9481
 30
0.0
 10
-14.2608
 20
31.0542
 30
0.0
 10
-14.2608
 20
31.2255
 30
0.0
 10
-14.3662
 20
31.3318
 30
0.0
 10
-14.3662
 20
31.3318
 30
0.0
 10
-14.9202
 20
31.5848
 30
0.0
 10
-15.5549
 20
31.5945
 30
0.0
 10
-16.1164
 20
31.3586
 30
0.0
 10
-16.1164
 20
31.3586
 30
0.0
 10
-16.6779
 20
31.123
 30
0.0
 10
-17.1154
 20
30.6632
 30
0.0
 10
-17.3229
 20
30.0904
 30
0.0
 10
-17.3229
 20
30.0904
 30
0.0
 10
-17.3309
 20
30.069
 30
0.0
 10
-17.3385
 20
30.0477
 30
0.0
 10
-17.3454
 20
30.0259
 30
0.0
  0
SPLINE
  5
49
330
1F
100
AcDbEntity
  8
layer 1
 62
     7
370
     9
100
AcDbSpline
210
0.0
220
0.0
230
1.0
 70
    11
 71
     3
 72
    36
 73
    32
 74
     0
 42
0.0000000001
 43
0.0000000001
 12
1.0
 22
0.0
 32
0.0
 13
1.0
 23
0.0
 33
0.0
 40
0.0
 40
0.0
 40
0.0
 40
0.0
 40
0.1111111111111111
 40
0.1111111111111111
 40
0.1111111111111111
 40
0.1111111111111111
 40
0.2222222222222222
 40
0.2222222222222222
 40
0.2222222222222222
 40
0.2222222222222222
 40
0.3333333333333333
 40
0.3333333333333333
 40
0.3333333333333333
 40
0.3333333333333333
 40
0.4444444444444444
 40
0.4444444444444444
 40
0.4444444444444444
 40
0.4444444444444444
 40
0.5555555555555556
 40
0.5555555555555556
 40
0.5555555555555556
 40
0.5555555555555556
 40
0.6666666666666666
 40
0.6666666666666666
 40
0.6666666666666666
 40
0.6666666666666666
 40
0.7777777777777778
 40
0.7777777777777778
 40
0.7777777777777778
 40
0.7777777777777778
 40
1.0
 40
1.0
 40
1.0
 40
1.0
 10
-17.3454
 20
12.5533
 30
0.0
 10
-17.3454
 20
12.5533
 30
0.0
 10
-17.3454
 20
26.8
 30
0.0
 10
-17.3454
 20
26.8
 30
0.0
 10
-17.3454
 20
26.8
 30
0.0
 10
-17.3309
 20
26.7606
 30
0.0
 10
-17.3158
 20
26.7213
 30
0.0
 10
-17.3003
 20
26.6822
 30
0.0
 10
-17.3003
 20
26.6822
 30
0.0
 10
-16.9898
 20
25.9082
 30
0.0
 10
-16.3604
 20
25.3058
 30
0.0
 10
-15.5738
 20
25.029
 30
0.0
 10
-15.5738
 20
25.029
 30
0.0
 10
-14.7869
 20
24.7524
 30
0.0
 10
-13.919
 20
24.8284
 30
0.0
 10
-13.1925
 20
25.2378
 30
0.0
 10
-13.1925
 20
25.2378
 30
0.0
 10
-14.3439
 20
23.9358
 30
0.0
 10
-14.9214
 20
22.2243
 30
0.0
 10
-14.7939
 20
20.4907
 30
0.0
 10
-14.7939
 20
20.4907
 30
0.0
 10
-14.6665
 20
18.7573
 30
0.0
 10
-13.845
 20
17.1486
 30
0.0
 10
-12.5153
 20
16.0292
 30
0.0
 10
-12.5153
 20
16.0292
 30
0.0
 10
-13.6197
 20
16.2306
 30
0.0
 10
-14.7583
 20
15.974
 30
0.0
 10
-15.6695
 20
15.3185
 30
0.0
 10
-15.6695
 20
15.3185
 30
0.0
 10
-16.5806
 20
14.6627
 30
0.0
 10
-17.1857
 20
13.6644
 30
0.0
 10
-17.3454
 20
12.5533
 30
0.0
  0
SPLINE
  5
4A
330
1F
100
AcDbEntity
  8
layer 1
 62
     7
370
     9
100
AcDbSpline
210
0.0
220
0.0
230
1.0
 70
    11
 71
     3
 72
    44
 73
    40
 74
     0
 42
0.0000000001
 43
0.0000000001
 12
1.0
 22
0.0
 32
0.0
 13
1.0
 23
0.0
 33
0.0
 40
0.0
 40
0.0
 40
0.0
 40
0.0
 40
0.0909090909090909
 40
0.0909090909090909
 40
0.0909090909090909
 40
0.0909090909090909
 40
0.1818181818181818
 40
0.1818181818181818
 40
0.1818181818181818
 40
0.1818181818181818
 40
0.2727272727272727
 40
0.2727272727272727
 40
0.2727272727272727
 40
0.2727272727272727
 40
0.3636363636363636
 40
0.3636363636363636
 40
0.3636363636363636
 40
0.3636363636363636
 40
0.4545454545454545
 40
0.4545454545454545
 40
0.4545454545454545
 40
0.4545454545454545
 40
0.5454545454545454
 40
0.5454545454545454
 40
0.5454545454545454
 40
0.5454545454545454
 40
0.6363636363636364
 40
0.6363636363636364
 40
0.6363636363636364
 40
0.6363636363636364
 40
0.7272727272727273
 40
0.7272727272727273
 40
0.7272727272727273
 40
0.7272727272727273
 40
0.8181818181818182
 40
0.8181818181818182
 40
0.8181818181818182
 40
0.8181818181818182
 40
1.0
 40
1.0
 40
1.0
 40
1.0
 10
-5.7696
 20
22.6112
 30
0.0
 10
-5.7611
 20
22.56
 30
0.0
 10
-5.7317
 20
22.5146
 30
0.0
 10
-5.6881
 20
22.4862
 30
0.0
 10
-5.6881
 20
22.4862
 30
0.0
 10
-5.6449
 20
22.4578
 30
0.0
 10
-5.5914
 20
22.449
 30
0.0
 10
-5.5412
 20
22.4617
 30
0.0
 10
-5.5412
 20
22.4617
 30
0.0
 10
-4.1505
 20
22.5462
 30
0.0
 10
-3.059
 20
23.6868
 30
0.0
 10
-3.0359
 20
25.0798
 30
0.0
 10
-3.0359
 20
25.0798
 30
0.0
 10
-2.7451
 20
22.4755
 30
0.0
 10
-1.1208
 20
20.2098
 30
0.0
 10
1.2525
 20
19.0986
 30
0.0
 10
1.2525
 20
19.0986
 30
0.0
 10
-1.7642
 20
17.1858
 30
0.0
 10
-5.5295
 20
16.882
 30
0.0
 10
-8.8139
 20
18.2862
 30
0.0
 10
-8.8139
 20
18.2862
 30
0.0
 10
-9.9847
 20
18.7754
 30
0.0
 10
-10.8287
 20
19.8237
 30
0.0
 10
-11.0564
 20
21.072
 30
0.0
 10
-11.0564
 20
21.072
 30
0.0
 10
-11.2842
 20
22.3203
 30
0.0
 10
-10.8649
 20
23.5991
 30
0.0
 10
-9.9423
 20
24.4703
 30
0.0
 10
-9.9423
 20
24.4703
 30
0.0
 10
-9.2256
 20
25.0748
 30
0.0
 10
-8.2335
 20
25.234
 30
0.0
 10
-7.3637
 20
24.884
 30
0.0
 10
-7.3637
 20
24.884
 30
0.0
 10
-6.4937
 20
24.5341
 30
0.0
 10
-5.8882
 20
23.7326
 30
0.0
 10
-5.7894
 20
22.8002
 30
0.0
 10
-5.7894
 20
22.8002
 30
0.0
 10
-5.7803
 20
22.7374
 30
0.0
 10
-5.7738
 20
22.6745
 30
0.0
 10
-5.7696
 20
22.6112
 30
0.0
  0
SPLINE
  5
4B
330
1F
100
AcDbEntity
  8
layer 1
 62
     7
370
     9
100
AcDbSpline
210
0.0
220
0.0
230
1.0
 70
    11
 71
     3
 72
    28
 73
    24
 74
     0
 42
0.0000000001
 43
0.0000000001
 12
1.0
 22
0.0
 32
0.0
 13
1.0
 23
0.0
 33
0.0
 40
0.0
 40
0.0
 40
0.0
 40
0.0
 40
0.1428571428571428
 40
0.1428571428571428
 40
0.1428571428571428
 40
0.1428571428571428
 40
0.2857142857142857
 40
0.2857142857142857
 40
0.2857142857142857
 40
0.2857142857142857
 40
0.4285714285714285
 40
0.4285714285714285
 40
0.4285714285714285
 40
0.4285714285714285
 40
0.5714285714285714
 40
0.5714285714285714
 40
0.5714285714285714
 40
0.5714285714285714
 40
0.7142857142857143
 40
0.7142857142857143
 40
0.7142857142857143
 40
0.7142857142857143
 40
1.0
 40
1.0
 40
1.0
 40
1.0
 10
1.388
 20
42.3009
 30
0.0
 10
1.1008
 20
44.27
 30
0.0
 10
0.5702
 20
46.1956
 30
0.0
 10
-0.192
 20
48.0337
 30
0.0
 10
-0.192
 20
48.0337
 30
0.0
 10
0.4583
 20
43.1509
 30
0.0
 10
0.1827
 20
38.189
 30
0.0
 10
-1.0045
 20
33.4082
 30
0.0
 10
-1.0045
 20
33.4082
 30
0.0
 10
-1.7291
 20
31.144
 30
0.0
 10
-1.8228
 20
28.725
 30
0.0
 10
-1.2753
 20
26.4115
 30
0.0
 10
-1.2753
 20
26.4115
 30
0.0
 10
-1.1215
 20
28.197
 30
0.0
 10
-0.1412
 20
29.8078
 30
0.0
 10
1.3741
 20
30.7649
 30
0.0
 10
1.3741
 20
30.7649
 30
0.0
 10
2.8895
 20
31.7219
 30
0.0
 10
4.7652
 20
31.915
 30
0.0
 10
6.4437
 20
31.2867
 30
0.0
 10
6.4437
 20
31.2867
 30
0.0
 10
3.6545
 20
34.3433
 30
0.0
 10
1.8872
 20
38.1932
 30
0.0
 10
1.388
 20
42.3009
 30
0.0
  0
SPLINE
  5
4C
330
1F
100
AcDbEntity
  8
layer 1
 62
     7
370
     9
100
AcDbSpline
210
0.0
220
0.0
230
1.0
 70
    11
 71
     3
 72
    48
 73
    44
 74
     0
 42
0.0000000001
 43
0.0000000001
 12
1.0
 22
0.0
 32
0.0
 13
1.0
 23
0.0
 33
0.0
 40
0.0
 40
0.0
 40
0.0
 40
0.0
 40
0.0833333333333333
 40
0.0833333333333333
 40
0.0833333333333333
 40
0.0833333333333333
 40
0.1666666666666667
 40
0.1666666666666667
 40
0.1666666666666667
 40
0.1666666666666667
 40
0.25
 40
0.25
 40
0.25
 40
0.25
 40
0.3333333333333333
 40
0.3333333333333333
 40
0.3333333333333333
 40
0.3333333333333333
 40
0.4166666666666667
 40
0.4166666666666667
 40
0.4166666666666667
 40
0.4166666666666667
 40
0.5
 40
0.5
 40
0.5
 40
0.5
 40
0.5833333333333334
 40
0.5833333333333334
 40
0.5833333333333334
 40
0.5833333333333334
 40
0.6666666666666666
 40
0.6666666666666666
 40
0.6666666666666666
 40
0.6666666666666666
 40
0.75
 40
0.75
 40
0.75
 40
0.75
 40
0.8333333333333334
 40
0.8333333333333334
 40
0.8333333333333334
 40
0.8333333333333334
 40
1.0
 40
1.0
 40
1.0
 40
1.0
 10
-5.1575
 20
82.7012
 30
0.0
 10
-3.5215
 20
86.2321
 30
0.0
 10
0.072
 20
88.4385
 30
0.0
 10
3.961
 20
88.2999
 30
0.0
 10
3.961
 20
88.2999
 30
0.0
 10
4.058
 20
88.2999
 30
0.0
 10
4.1479
 20
88.2481
 30
0.0
 10
4.1951
 20
88.163
 30
0.0
 10
4.1951
 20
88.163
 30
0.0
 10
4.2422
 20
88.0778
 30
0.0
 10
4.2391
 20
87.9742
 30
0.0
 10
4.1866
 20
87.8924
 30
0.0
 10
4.1866
 20
87.8924
 30
0.0
 10
1.581
 20
84.1744
 30
0.0
 10
0.0932
 20
79.7899
 30
0.0
 10
-0.1018
 20
75.2535
 30
0.0
 10
-0.1018
 20
75.2535
 30
0.0
 10
-0.1536
 20
69.1387
 30
0.0
 10
1.7176
 20
63.1608
 30
0.0
 10
5.2474
 20
58.1684
 30
0.0
 10
5.2474
 20
58.1684
 30
0.0
 10
7.3037
 20
55.1769
 30
0.0
 10
9.6843
 20
52.421
 30
0.0
 10
12.3459
 20
49.9522
 30
0.0
 10
12.3459
 20
49.9522
 30
0.0
 10
12.401
 20
49.8718
 30
0.0
 10
12.3951
 20
49.7643
 30
0.0
 10
12.3317
 20
49.6903
 30
0.0
 10
12.3317
 20
49.6903
 30
0.0
 10
12.2682
 20
49.6161
 30
0.0
 10
12.1628
 20
49.5941
 30
0.0
 10
12.0749
 20
49.6362
 30
0.0
 10
12.0749
 20
49.6362
 30
0.0
 10
12.0749
 20
49.6362
 30
0.0
 10
11.3188
 20
50.0651
 30
0.0
 10
11.3188
 20
50.0651
 30
0.0
 10
11.3188
 20
50.0651
 30
0.0
 10
4.4732
 20
54.5005
 30
0.0
 10
-1.0229
 20
60.7305
 30
0.0
 10
-4.5706
 20
68.0764
 30
0.0
 10
-4.5706
 20
68.0764
 30
0.0
 10
-6.6131
 20
72.7013
 30
0.0
 10
-6.8229
 20
77.9276
 30
0.0
 10
-5.1575
 20
82.7012
 30
0.0
  0
SPLINE
  5
4D
330
1F
100
AcDbEntity
  8
layer 1
 62
     7
370
     9
100
AcDbSpline
210
0.0
220
0.0
230
1.0
 70
    11
 71
     3
 72
    36
 73
    32
 74
     0
 42
0.0000000001
 43
0.0000000001
 12
1.0
 22
0.0
 32
0.0
 13
1.0
 23
0.0
 33
0.0
 40
0.0
 40
0.0
 40
0.0
 40
0.0
 40
0.1111111111111111
 40
0.1111111111111111
 40
0.1111111111111111
 40
0.1111111111111111
 40
0.2222222222222222
 40
0.2222222222222222
 40
0.2222222222222222
 40
0.2222222222222222
 40
0.3333333333333333
 40
0.3333333333333333
 40
0.3333333333333333
 40
0.3333333333333333
 40
0.4444444444444444
 40
0.4444444444444444
 40
0.4444444444444444
 40
0.4444444444444444
 40
0.5555555555555556
 40
0.5555555555555556
 40
0.5555555555555556
 40
0.5555555555555556
 40
0.6666666666666666
 40
0.6666666666666666
 40
0.6666666666666666
 40
0.6666666666666666
 40
0.7777777777777778
 40
0.7777777777777778
 40
0.7777777777777778
 40
0.7777777777777778
 40
1.0
 40
1.0
 40
1.0
 40
1.0
 10
-10.3712
 20
63.7203
 30
0.0
 10
-10.3911
 20
63.6418
 30
0.0
 10
-10.4567
 20
63.585
 30
0.0
 10
-10.5364
 20
63.575
 30
0.0
 10
-10.5364
 20
63.575
 30
0.0
 10
-10.6161
 20
63.565
 30
0.0
 10
-10.6938
 20
63.6051
 30
0.0
 10
-10.7323
 20
63.6752
 30
0.0
 10
-10.7323
 20
63.6752
 30
0.0
 10
-11.1743
 20
64.3584
 30
0.0
 10
-11.9738
 20
64.7208
 30
0.0
 10
-12.7792
 20
64.6055
 30
0.0
 10
-12.7792
 20
64.6055
 30
0.0
 10
-13.5848
 20
64.4886
 30
0.0
 10
-14.2486
 20
63.9141
 30
0.0
 10
-14.4791
 20
63.1341
 30
0.0
 10
-14.4791
 20
63.1341
 30
0.0
 10
-14.5283
 20
61.4254
 30
0.0
 10
-13.3511
 20
59.9255
 30
0.0
 10
-11.6802
 20
59.5664
 30
0.0
 10
-11.6802
 20
59.5664
 30
0.0
 10
-9.7524
 20
59.4745
 30
0.0
 10
-7.8351
 20
59.2256
 30
0.0
 10
-5.9473
 20
58.8231
 30
0.0
 10
-5.9473
 20
58.8231
 30
0.0
 10
-7.7604
 20
60.7606
 30
0.0
 10
-9.1855
 20
63.0288
 30
0.0
 10
-10.1454
 20
65.5025
 30
0.0
 10
-10.1454
 20
65.5025
 30
0.0
 10
-9.9974
 20
64.9012
 30
0.0
 10
-10.0777
 20
64.2665
 30
0.0
 10
-10.3712
 20
63.7203
 30
0.0
  0
SPLINE
  5
4E
330
1F
100
AcDbEntity
  8
layer 1
 62
     7
370
     9
100
AcDbSpline
210
0.0
220
0.0
230
1.0
 70
    11
 71
     3
 72
    52
 73
    48
 74
     0
 42
0.0000000001
 43
0.0000000001
 12
1.0
 22
0.0
 32
0.0
 13
1.0
 23
0.0
 33
0.0
 40
0.0
 40
0.0
 40
0.0
 40
0.0
 40
0.0769230769230769
 40
0.0769230769230769
 40
0.0769230769230769
 40
0.0769230769230769
 40
0.1538461538461539
 40
0.1538461538461539
 40
0.1538461538461539
 40
0.1538461538461539
 40
0.2307692307692308
 40
0.2307692307692308
 40
0.2307692307692308
 40
0.2307692307692308
 40
0.3076923076923077
 40
0.3076923076923077
 40
0.3076923076923077
 40
0.3076923076923077
 40
0.3846153846153846
 40
0.3846153846153846
 40
0.3846153846153846
 40
0.3846153846153846
 40
0.4615384615384616
 40
0.4615384615384616
 40
0.4615384615384616
 40
0.4615384615384616
 40
0.5384615384615384
 40
0.5384615384615384
 40
0.5384615384615384
 40
0.5384615384615384
 40
0.6153846153846154
 40
0.6153846153846154
 40
0.6153846153846154
 40
0.6153846153846154
 40
0.6923076923076923
 40
0.6923076923076923
 40
0.6923076923076923
 40
0.6923076923076923
 40
0.7692307692307693
 40
0.7692307692307693
 40
0.7692307692307693
 40
0.7692307692307693
 40
0.8461538461538461
 40
0.8461538461538461
 40
0.8461538461538461
 40
0.8461538461538461
 40
1.0
 40
1.0
 40
1.0
 40
1.0
 10
-3.8483
 20
41.2175
 30
0.0
 10
-4.0927
 20
44.0077
 30
0.0
 10
-6.0312
 20
46.3589
 30
0.0
 10
-8.7235
 20
47.1309
 30
0.0
 10
-8.7235
 20
47.1309
 30
0.0
 10
-6.9485
 20
47.4749
 30
0.0
 10
-5.7852
 20
49.1884
 30
0.0
 10
-6.1207
 20
50.965
 30
0.0
 10
-6.1207
 20
50.965
 30
0.0
 10
-6.4561
 20
52.7415
 30
0.0
 10
-8.1643
 20
53.9125
 30
0.0
 10
-9.9423
 20
53.5869
 30
0.0
 10
-9.9423
 20
53.5869
 30
0.0
 10
-10.0084
 20
53.6052
 30
0.0
 10
-10.0799
 20
53.5869
 30
0.0
 10
-10.1275
 20
53.5367
 30
0.0
 10
-10.1275
 20
53.5367
 30
0.0
 10
-10.1749
 20
53.4866
 30
0.0
 10
-10.1907
 20
53.4148
 30
0.0
 10
-10.168
 20
53.3496
 30
0.0
 10
-10.168
 20
53.3496
 30
0.0
 10
-9.5414
 20
52.7061
 30
0.0
 10
-9.4118
 20
51.7277
 30
0.0
 10
-9.8494
 20
50.9436
 30
0.0
 10
-9.8494
 20
50.9436
 30
0.0
 10
-10.287
 20
50.1598
 30
0.0
 10
-11.1878
 20
49.7564
 30
0.0
 10
-12.064
 20
49.9522
 30
0.0
 10
-12.064
 20
49.9522
 30
0.0
 10
-12.9521
 20
50.1331
 30
0.0
 10
-13.7239
 20
50.6779
 30
0.0
 10
-14.1914
 20
51.4544
 30
0.0
 10
-14.1914
 20
51.4544
 30
0.0
 10
-14.6589
 20
52.2309
 30
0.0
 10
-14.7797
 20
53.1676
 30
0.0
 10
-14.5241
 20
54.0378
 30
0.0
 10
-14.5241
 20
54.0378
 30
0.0
 10
-13.8368
 20
56.3328
 30
0.0
 10
-11.5678
 20
57.7759
 30
0.0
 10
-9.1975
 20
57.4234
 30
0.0
 10
-9.1975
 20
57.4234
 30
0.0
 10
-5.8545
 20
56.7537
 30
0.0
 10
-3.3807
 20
53.9192
 30
0.0
 10
-3.1712
 20
50.5166
 30
0.0
 10
-3.1712
 20
50.5166
 30
0.0
 10
-2.9454
 20
47.4004
 30
0.0
 10
-3.1736
 20
44.2681
 30
0.0
 10
-3.8483
 20
41.2175
 30
0.0
  0
SPLINE
  5
4F
330
1F
100
AcDbEntity
  8
layer 1
 62
     7
370
     9
100
AcDbSpline
210
0.0
220
0.0
230
1.0
 70
    11
 71
     3
 72
    96
 73
    92
 74
     0
 42
0.0000000001
 43
0.0000000001
 12
1.0
 22
0.0
 32
0.0
 13
1.0
 23
0.0
 33
0.0
 40
0.0
 40
0.0
 40
0.0
 40
0.0
 40
0.0416666666666667
 40
0.0416666666666667
 40
0.0416666666666667
 40
0.0416666666666667
 40
0.0833333333333333
 40
0.0833333333333333
 40
0.0833333333333333
 40
0.0833333333333333
 40
0.125
 40
0.125
 40
0.125
 40
0.125
 40
0.1666666666666667
 40
0.1666666666666667
 40
0.1666666666666667
 40
0.1666666666666667
 40
0.2083333333333333
 40
0.2083333333333333
 40
0.2083333333333333
 40
0.2083333333333333
 40
0.25
 40
0.25
 40
0.25
 40
0.25
 40
0.2916666666666667
 40
0.2916666666666667
 40
0.2916666666666667
 40
0.2916666666666667
 40
0.3333333333333333
 40
0.3333333333333333
 40
0.3333333333333333
 40
0.3333333333333333
 40
0.375
 40
0.375
 40
0.375
 40
0.375
 40
0.4166666666666667
 40
0.4166666666666667
 40
0.4166666666666667
 40
0.4166666666666667
 40
0.4583333333333333
 40
0.4583333333333333
 40
0.4583333333333333
 40
0.4583333333333333
 40
0.5
 40
0.5
 40
0.5
 40
0.5
 40
0.5416666666666666
 40
0.5416666666666666
 40
0.5416666666666666
 40
0.5416666666666666
 40
0.5833333333333334
 40
0.5833333333333334
 40
0.5833333333333334
 40
0.5833333333333334
 40
0.625
 40
0.625
 40
0.625
 40
0.625
 40
0.6666666666666666
 40
0.6666666666666666
 40
0.6666666666666666
 40
0.6666666666666666
 40
0.7083333333333334
 40
0.7083333333333334
 40
0.7083333333333334
 40
0.7083333333333334
 40
0.75
 40
0.75
 40
0.75
 40
0.75
 40
0.7916666666666666
 40
0.7916666666666666
 40
0.7916666666666666
 40
0.7916666666666666
 40
0.8333333333333334
 40
0.8333333333333334
 40
0.8333333333333334
 40
0.8333333333333334
 40
0.875
 40
0.875
 40
0.875
 40
0.875
 40
0.9166666666666666
 40
0.9166666666666666
 40
0.9166666666666666
 40
0.9166666666666666
 40
1.0
 40
1.0
 40
1.0
 40
1.0
 10
13.8693
 20
107.8904
 30
0.0
 10
12.4625
 20
109.0529
 30
0.0
 10
11.4074
 20
110.5845
 30
0.0
 10
10.8223
 20
112.3133
 30
0.0
 10
10.8223
 20
112.3133
 30
0.0
 10
11.036
 20
108.4583
 30
0.0
 10
9.3917
 20
104.7336
 30
0.0
 10
6.3986
 20
102.2934
 30
0.0
 10
6.3986
 20
102.2934
 30
0.0
 10
2.2181
 20
99.3554
 30
0.0
 10
-3.1346
 20
98.6489
 30
0.0
 10
-7.9346
 20
100.3976
 30
0.0
 10
-7.9346
 20
100.3976
 30
0.0
 10
-7.0627
 20
99.5224
 30
0.0
 10
-6.7648
 20
98.2263
 30
0.0
 10
-7.1661
 20
97.0571
 30
0.0
 10
-7.1661
 20
97.0571
 30
0.0
 10
-7.2047
 20
96.9518
 30
0.0
 10
-7.3003
 20
96.8784
 30
0.0
 10
-7.4115
 20
96.8683
 30
0.0
 10
-7.4115
 20
96.8683
 30
0.0
 10
-7.5226
 20
96.86
 30
0.0
 10
-7.6293
 20
96.9151
 30
0.0
 10
-7.6852
 20
97.012
 30
0.0
 10
-7.6852
 20
97.012
 30
0.0
 10
-8.2555
 20
97.6016
 30
0.0
 10
-9.0569
 20
97.9089
 30
0.0
 10
-9.8751
 20
97.8521
 30
0.0
 10
-9.8751
 20
97.8521
 30
0.0
 10
-10.6936
 20
97.7954
 30
0.0
 10
-11.445
 20
97.3811
 30
0.0
 10
-11.9286
 20
96.718
 30
0.0
 10
-11.9286
 20
96.718
 30
0.0
 10
-12.2975
 20
95.6774
 30
0.0
 10
-12.0776
 20
94.52
 30
0.0
 10
-11.3528
 20
93.6865
 30
0.0
 10
-11.3528
 20
93.6865
 30
0.0
 10
-10.6281
 20
92.8547
 30
0.0
 10
-9.511
 20
92.4772
 30
0.0
 10
-8.4302
 20
92.7011
 30
0.0
 10
-8.4302
 20
92.7011
 30
0.0
 10
-6.8176
 20
93.1069
 30
0.0
 10
-5.2894
 20
93.7934
 30
0.0
 10
-3.9161
 20
94.7321
 30
0.0
 10
-3.9161
 20
94.7321
 30
0.0
 10
-0.6214
 20
96.8734
 30
0.0
 10
3.6547
 20
96.7581
 30
0.0
 10
6.8273
 20
94.4381
 30
0.0
 10
6.8273
 20
94.4381
 30
0.0
 10
6.912
 20
94.363
 30
0.0
 10
7.0025
 20
94.2962
 30
0.0
 10
7.0982
 20
94.2343
 30
0.0
 10
7.0982
 20
94.2343
 30
0.0
 10
6.8145
 20
95.4737
 30
0.0
 10
7.1452
 20
96.7748
 30
0.0
 10
7.9863
 20
97.7269
 30
0.0
 10
7.9863
 20
97.7269
 30
0.0
 10
8.8276
 20
98.6806
 30
0.0
 10
10.0765
 20
99.17
 30
0.0
 10
11.3414
 20
99.043
 30
0.0
 10
11.3414
 20
99.043
 30
0.0
 10
10.7317
 20
99.7546
 30
0.0
 10
10.4313
 20
100.6816
 30
0.0
 10
10.5062
 20
101.6152
 30
0.0
 10
10.5062
 20
101.6152
 30
0.0
 10
10.5639
 20
101.7355
 30
0.0
 10
10.6896
 20
101.8073
 30
0.0
 10
10.8223
 20
101.7956
 30
0.0
 10
10.8223
 20
101.7956
 30
0.0
 10
12.7639
 20
102.0796
 30
0.0
 10
14.7427
 20
101.6553
 30
0.0
 10
16.3973
 20
100.5997
 30
0.0
 10
16.3973
 20
100.5997
 30
0.0
 10
14.878
 20
101.7906
 30
0.0
 10
13.5924
 20
103.2521
 30
0.0
 10
12.6054
 20
104.9107
 30
0.0
 10
12.6054
 20
104.9107
 30
0.0
 10
12.1259
 20
105.684
 30
0.0
 10
11.7753
 20
106.5308
 30
0.0
 10
11.5672
 20
107.4161
 30
0.0
 10
11.5672
 20
107.4161
 30
0.0
 10
11.5116
 20
107.5263
 30
0.0
 10
11.5134
 20
107.6549
 30
0.0
 10
11.5719
 20
107.7635
 30
0.0
 10
11.5719
 20
107.7635
 30
0.0
 10
11.6305
 20
107.872
 30
0.0
 10
11.7384
 20
107.9439
 30
0.0
 10
11.8605
 20
107.9572
 30
0.0
 10
11.8605
 20
107.9572
 30
0.0
 10
12.5258
 20
108.0975
 30
0.0
 10
13.2151
 20
108.0741
 30
0.0
 10
13.8693
 20
107.8904
 30
0.0
  0
SPLINE
  5
50
330
1F
100
AcDbEntity
  8
layer 1
 62
     7
370
     9
100
AcDbSpline
210
0.0
220
0.0
230
1.0
 70
    11
 71
     3
 72
    28
 73
    24
 74
     0
 42
0.0000000001
 43
0.0000000001
 12
1.0
 22
0.0
 32
0.0
 13
1.0
 23
0.0
 33
0.0
 40
0.0
 40
0.0
 40
0.0
 40
0.0
 40
0.1428571428571428
 40
0.1428571428571428
 40
0.1428571428571428
 40
0.1428571428571428
 40
0.2857142857142857
 40
0.2857142857142857
 40
0.2857142857142857
 40
0.2857142857142857
 40
0.4285714285714285
 40
0.4285714285714285
 40
0.4285714285714285
 40
0.4285714285714285
 40
0.5714285714285714
 40
0.5714285714285714
 40
0.5714285714285714
 40
0.5714285714285714
 40
0.7142857142857143
 40
0.7142857142857143
 40
0.7142857142857143
 40
0.7142857142857143
 40
1.0
 40
1.0
 40
1.0
 40
1.0
 10
-5.4278
 20
107.3008
 30
0.0
 10
-12.0817
 20
108.4366
 30
0.0
 10
-17.0439
 20
114.057
 30
0.0
 10
-17.3454
 20
120.7999
 30
0.0
 10
-17.3454
 20
120.7999
 30
0.0
 10
-15.5622
 20
118.221
 30
0.0
 10
-12.579
 20
116.7378
 30
0.0
 10
-9.4457
 20
116.8731
 30
0.0
 10
-9.4457
 20
116.8731
 30
0.0
 10
-10.2322
 20
113.1935
 30
0.0
 10
-8.5859
 20
109.4204
 30
0.0
 10
-5.3529
 20
107.4946
 30
0.0
 10
-5.3529
 20
107.4946
 30
0.0
 10
-5.3534
 20
107.4929
 30
0.0
 10
-5.3542
 20
107.4896
 30
0.0
 10
-5.3549
 20
107.4862
 30
0.0
 10
-5.3549
 20
107.4862
 30
0.0
 10
-5.3648
 20
107.4545
 30
0.0
 10
-5.3751
 20
107.4228
 30
0.0
 10
-5.3873
 20
107.3927
 30
0.0
 10
-5.3873
 20
107.3927
 30
0.0
 10
-5.3993
 20
107.3609
 30
0.0
 10
-5.4134
 20
107.3309
 30
0.0
 10
-5.4278
 20
107.3008
 30
0.0
  0
SPLINE
  5
51
330
1F
100
AcDbEntity
  8
layer 1
 62
     7
370
     9
100
AcDbSpline
210
0.0
220
0.0
230
1.0
 70
    11
 71
     3
 72
    24
 73
    20
 74
     0
 42
0.0000000001
 43
0.0000000001
 12
1.0
 22
0.0
 32
0.0
 13
1.0
 23
0.0
 33
0.0
 40
0.0
 40
0.0
 40
0.0
 40
0.0
 40
0.1666666666666667
 40
0.1666666666666667
 40
0.1666666666666667
 40
0.1666666666666667
 40
0.3333333333333333
 40
0.3333333333333333
 40
0.3333333333333333
 40
0.3333333333333333
 40
0.5
 40
0.5
 40
0.5
 40
0.5
 40
0.6666666666666666
 40
0.6666666666666666
 40
0.6666666666666666
 40
0.6666666666666666
 40
1.0
 40
1.0
 40
1.0
 40
1.0
 10
-4.1643
 20
102.1113
 30
0.0
 10
-1.1156
 20
101.7739
 30
0.0
 10
1.8706
 20
103.1469
 30
0.0
 10
3.6004
 20
105.679
 30
0.0
 10
3.6004
 20
105.679
 30
0.0
 10
5.3301
 20
108.2128
 30
0.0
 10
5.5208
 20
111.4932
 30
0.0
 10
4.0963
 20
114.209
 30
0.0
 10
4.0963
 20
114.209
 30
0.0
 10
4.1855
 20
112.3033
 30
0.0
 10
3.4952
 20
110.4409
 30
0.0
 10
2.184
 20
109.0529
 30
0.0
 10
2.184
 20
109.0529
 30
0.0
 10
0.8728
 20
107.6666
 30
0.0
 10
-0.9462
 20
106.8716
 30
0.0
 10
-2.8552
 20
106.8515
 30
0.0
 10
-2.8552
 20
106.8515
 30
0.0
 10
-2.4483
 20
105.1512
 30
0.0
 10
-2.9426
 20
103.3623
 30
0.0
 10
-4.1643
 20
102.1113
 30
0.0
  0
SPLINE
  5
52
330
1F
100
AcDbEntity
  8
layer 1
 62
     7
370
     9
100
AcDbSpline
210
0.0
220
0.0
230
1.0
 70
    11
 71
     3
 72
    48
 73
    44
 74
     0
 42
0.0000000001
 43
0.0000000001
 12
1.0
 22
0.0
 32
0.0
 13
1.0
 23
0.0
 33
0.0
 40
0.0
 40
0.0
 40
0.0
 40
0.0
 40
0.0833333333333333
 40
0.0833333333333333
 40
0.0833333333333333
 40
0.0833333333333333
 40
0.1666666666666667
 40
0.1666666666666667
 40
0.1666666666666667
 40
0.1666666666666667
 40
0.25
 40
0.25
 40
0.25
 40
0.25
 40
0.3333333333333333
 40
0.3333333333333333
 40
0.3333333333333333
 40
0.3333333333333333
 40
0.4166666666666667
 40
0.4166666666666667
 40
0.4166666666666667
 40
0.4166666666666667
 40
0.5
 40
0.5
 40
0.5
 40
0.5
 40
0.5833333333333334
 40
0.5833333333333334
 40
0.5833333333333334
 40
0.5833333333333334
 40
0.6666666666666666
 40
0.6666666666666666
 40
0.6666666666666666
 40
0.6666666666666666
 40
0.75
 40
0.75
 40
0.75
 40
0.75
 40
0.8333333333333334
 40
0.8333333333333334
 40
0.8333333333333334
 40
0.8333333333333334
 40
1.0
 40
1.0
 40
1.0
 40
1.0
 10
-1.7268
 20
115.0675
 30
0.0
 10
-1.8203
 20
115.1393
 30
0.0
 10
-1.8712
 20
115.2546
 30
0.0
 10
-1.8621
 20
115.3732
 30
0.0
 10
-1.8621
 20
115.3732
 30
0.0
 10
-1.853
 20
115.4918
 30
0.0
 10
-1.7852
 20
115.597
 30
0.0
 10
-1.6817
 20
115.6538
 30
0.0
 10
-1.6817
 20
115.6538
 30
0.0
 10
-0.5168
 20
116.4739
 30
0.0
 10
0.9971
 20
116.6125
 30
0.0
 10
2.2907
 20
116.0146
 30
0.0
 10
2.2907
 20
116.0146
 30
0.0
 10
2.2095
 20
116.7863
 30
0.0
 10
2.4489
 20
117.5562
 30
0.0
 10
2.9525
 20
118.1458
 30
0.0
 10
2.9525
 20
118.1458
 30
0.0
 10
3.4562
 20
118.7338
 30
0.0
 10
4.1799
 20
119.0912
 30
0.0
 10
4.9541
 20
119.1296
 30
0.0
 10
4.9541
 20
119.1296
 30
0.0
 10
2.3961
 20
121.625
 30
0.0
 10
-1.5612
 20
121.9824
 30
0.0
 10
-4.5254
 20
119.9881
 30
0.0
 10
-4.5254
 20
119.9881
 30
0.0
 10
-6.8672
 20
118.1792
 30
0.0
 10
-7.5047
 20
114.9155
 30
0.0
 10
-6.0151
 20
112.3584
 30
0.0
 10
-6.0151
 20
112.3584
 30
0.0
 10
-5.541
 20
111.6084
 30
0.0
 10
-4.7785
 20
111.0873
 30
0.0
 10
-3.9074
 20
110.9153
 30
0.0
 10
-3.9074
 20
110.9153
 30
0.0
 10
-3.0362
 20
110.7449
 30
0.0
 10
-2.1333
 20
110.9403
 30
0.0
 10
-1.4108
 20
111.4564
 30
0.0
 10
-1.4108
 20
111.4564
 30
0.0
 10
-0.8599
 20
111.9208
 30
0.0
 10
-0.5696
 20
112.6256
 30
0.0
 10
-0.6326
 20
113.3438
 30
0.0
 10
-0.6326
 20
113.3438
 30
0.0
 10
-0.6954
 20
114.062
 30
0.0
 10
-1.1036
 20
114.7051
 30
0.0
 10
-1.7268
 20
115.0675
 30
0.0
  0
SPLINE
  5
53
330
1F
100
AcDbEntity
  8
layer 1
 62
     7
370
     9
100
AcDbSpline
210
0.0
220
0.0
230
1.0
 70
    11
 71
     3
 72
    16
 73
    12
 74
     0
 42
0.0000000001
 43
0.0000000001
 12
1.0
 22
0.0
 32
0.0
 13
1.0
 23
0.0
 33
0.0
 40
0.0
 40
0.0
 40
0.0
 40
0.0
 40
0.25
 40
0.25
 40
0.25
 40
0.25
 40
0.5
 40
0.5
 40
0.5
 40
0.5
 40
1.0
 40
1.0
 40
1.0
 40
1.0
 10
26.5312
 20
121.2909
 30
0.0
 10
26.7011
 20
122.8242
 30
0.0
 10
27.7515
 20
124.1137
 30
0.0
 10
29.217
 20
124.5914
 30
0.0
 10
29.217
 20
124.5914
 30
0.0
 10
29.217
 20
124.5914
 30
0.0
 10
23.8453
 20
124.5914
 30
0.0
 10
23.8453
 20
124.5914
 30
0.0
 10
23.8453
 20
124.5914
 30
0.0
 10
25.3108
 20
124.1137
 30
0.0
 10
26.3612
 20
122.8242
 30
0.0
 10
26.5312
 20
121.2909
 30
0.0
  0
SPLINE
  5
54
330
1F
100
AcDbEntity
  8
layer 1
 62
     7
370
     9
100
AcDbSpline
210
0.0
220
0.0
230
1.0
 70
    11
 71
     3
 72
   100
 73
    96
 74
     0
 42
0.0000000001
 43
0.0000000001
 12
1.0
 22
0.0
 32
0.0
 13
1.0
 23
0.0
 33
0.0
 40
0.0
 40
0.0
 40
0.0
 40
0.0
 40
0.04
 40
0.04
 40
0.04
 40
0.04
 40
0.08
 40
0.08
 40
0.08
 40
0.08
 40
0.12
 40
0.12
 40
0.12
 40
0.12
 40
0.16
 40
0.16
 40
0.16
 40
0.16
 40
0.2
 40
0.2
 40
0.2
 40
0.2
 40
0.24
 40
0.24
 40
0.24
 40
0.24
 40
0.28
 40
0.28
 40
0.28
 40
0.28
 40
0.32
 40
0.32
 40
0.32
 40
0.32
 40
0.36
 40
0.36
 40
0.36
 40
0.36
 40
0.4
 40
0.4
 40
0.4
 40
0.4
 40
0.44
 40
0.44
 40
0.44
 40
0.44
 40
0.48
 40
0.48
 40
0.48
 40
0.48
 40
0.52
 40
0.52
 40
0.52
 40
0.52
 40
0.56
 40
0.56
 40
0.56
 40
0.56
 40
0.6
 40
0.6
 40
0.6
 40
0.6
 40
0.64
 40
0.64
 40
0.64
 40
0.64
 40
0.68
 40
0.68
 40
0.68
 40
0.68
 40
0.72
 40
0.72
 40
0.72
 40
0.72
 40
0.76
 40
0.76
 40
0.76
 40
0.76
 40
0.8
 40
0.8
 40
0.8
 40
0.8
 40
0.84
 40
0.84
 40
0.84
 40
0.84
 40
0.88
 40
0.88
 40
0.88
 40
0.88
 40
0.92
 40
0.92
 40
0.92
 40
0.92
 40
1.0
 40
1.0
 40
1.0
 40
1.0
 10
26.5312
 20
120.4257
 30
0.0
 10
26.6629
 20
119.2382
 30
0.0
 10
27.3273
 20
118.1759
 30
0.0
 10
28.3368
 20
117.5395
 30
0.0
 10
28.3368
 20
117.5395
 30
0.0
 10
28.3744
 20
117.4961
 30
0.0
 10
28.4353
 20
117.4827
 30
0.0
 10
28.4871
 20
117.5061
 30
0.0
 10
28.4871
 20
117.5061
 30
0.0
 10
28.5389
 20
117.5295
 30
0.0
 10
28.5695
 20
117.5846
 30
0.0
 10
28.5624
 20
117.6398
 30
0.0
 10
28.5624
 20
117.6398
 30
0.0
 10
28.7944
 20
118.5317
 30
0.0
 10
29.4537
 20
119.2499
 30
0.0
 10
30.3221
 20
119.5572
 30
0.0
 10
30.3221
 20
119.5572
 30
0.0
 10
31.1903
 20
119.8645
 30
0.0
 10
32.1547
 20
119.7226
 30
0.0
 10
32.8959
 20
119.1747
 30
0.0
 10
32.8959
 20
119.1747
 30
0.0
 10
34.4623
 20
117.5395
 30
0.0
 10
35.3078
 20
115.3448
 30
0.0
 10
35.2433
 20
113.0816
 30
0.0
 10
35.2433
 20
113.0816
 30
0.0
 10
35.1244
 20
109.3202
 30
0.0
 10
33.8824
 20
105.6807
 30
0.0
 10
31.6772
 20
102.6307
 30
0.0
 10
31.6772
 20
102.6307
 30
0.0
 10
32.1624
 20
104.1156
 30
0.0
 10
32.2861
 20
105.694
 30
0.0
 10
32.0383
 20
107.2357
 30
0.0
 10
32.0383
 20
107.2357
 30
0.0
 10
32.0017
 20
107.4428
 30
0.0
 10
31.8671
 20
107.6198
 30
0.0
 10
31.6772
 20
107.71
 30
0.0
 10
31.6772
 20
107.71
 30
0.0
 10
30.8731
 20
107.8253
 30
0.0
 10
30.0568
 20
107.6048
 30
0.0
 10
29.4201
 20
107.1004
 30
0.0
 10
29.4201
 20
107.1004
 30
0.0
 10
30.0648
 20
109.6342
 30
0.0
 10
29.0318
 20
112.2983
 30
0.0
 10
26.8471
 20
113.7363
 30
0.0
 10
26.8471
 20
113.7363
 30
0.0
 10
26.7577
 20
113.8065
 30
0.0
 10
26.6448
 20
113.8416
 30
0.0
 10
26.5312
 20
113.8315
 30
0.0
 10
26.5312
 20
113.8315
 30
0.0
 10
26.4175
 20
113.8416
 30
0.0
 10
26.3046
 20
113.8065
 30
0.0
 10
26.2152
 20
113.7363
 30
0.0
 10
26.2152
 20
113.7363
 30
0.0
 10
24.0305
 20
112.2983
 30
0.0
 10
22.9975
 20
109.6342
 30
0.0
 10
23.6422
 20
107.1004
 30
0.0
 10
23.6422
 20
107.1004
 30
0.0
 10
23.0055
 20
107.6048
 30
0.0
 10
22.1892
 20
107.8253
 30
0.0
 10
21.3852
 20
107.71
 30
0.0
 10
21.3852
 20
107.71
 30
0.0
 10
21.1953
 20
107.6198
 30
0.0
 10
21.0608
 20
107.4428
 30
0.0
 10
21.0241
 20
107.2357
 30
0.0
 10
21.0241
 20
107.2357
 30
0.0
 10
20.7762
 20
105.694
 30
0.0
 10
20.9001
 20
104.1156
 30
0.0
 10
21.3852
 20
102.6307
 30
0.0
 10
21.3852
 20
102.6307
 30
0.0
 10
19.1801
 20
105.6807
 30
0.0
 10
17.9381
 20
109.3202
 30
0.0
 10
17.819
 20
113.0816
 30
0.0
 10
17.819
 20
113.0816
 30
0.0
 10
17.7547
 20
115.3448
 30
0.0
 10
18.6002
 20
117.5395
 30
0.0
 10
20.1664
 20
119.1747
 30
0.0
 10
20.1664
 20
119.1747
 30
0.0
 10
20.9078
 20
119.7226
 30
0.0
 10
21.872
 20
119.8645
 30
0.0
 10
22.7404
 20
119.5572
 30
0.0
 10
22.7404
 20
119.5572
 30
0.0
 10
23.6088
 20
119.2499
 30
0.0
 10
24.2679
 20
118.5317
 30
0.0
 10
24.4998
 20
117.6398
 30
0.0
 10
24.4998
 20
117.6398
 30
0.0
 10
24.4929
 20
117.5846
 30
0.0
 10
24.5236
 20
117.5295
 30
0.0
 10
24.5752
 20
117.5061
 30
0.0
 10
24.5752
 20
117.5061
 30
0.0
 10
24.6271
 20
117.4827
 30
0.0
 10
24.6879
 20
117.4961
 30
0.0
 10
24.7255
 20
117.5395
 30
0.0
 10
24.7255
 20
117.5395
 30
0.0
 10
25.735
 20
118.1759
 30
0.0
 10
26.3996
 20
119.2382
 30
0.0
 10
26.5312
 20
120.4257
 30
0.0
  0
SPLINE
  5
55
330
1F
100
AcDbEntity
  8
layer 1
 62
     7
370
     9
100
AcDbSpline
210
0.0
220
0.0
230
1.0
 70
    11
 71
     3
 72
    28
 73
    24
 74
     0
 42
0.0000000001
 43
0.0000000001
 12
1.0
 22
0.0
 32
0.0
 13
1.0
 23
0.0
 33
0.0
 40
0.0
 40
0.0
 40
0.0
 40
0.0
 40
0.1428571428571428
 40
0.1428571428571428
 40
0.1428571428571428
 40
0.1428571428571428
 40
0.2857142857142857
 40
0.2857142857142857
 40
0.2857142857142857
 40
0.2857142857142857
 40
0.4285714285714285
 40
0.4285714285714285
 40
0.4285714285714285
 40
0.4285714285714285
 40
0.5714285714285714
 40
0.5714285714285714
 40
0.5714285714285714
 40
0.5714285714285714
 40
0.7142857142857143
 40
0.7142857142857143
 40
0.7142857142857143
 40
0.7142857142857143
 40
1.0
 40
1.0
 40
1.0
 40
1.0
 10
12.7633
 20
96.379
 30
0.0
 10
17.6347
 20
95.9648
 30
0.0
 10
21.8334
 20
92.7862
 30
0.0
 10
23.552
 20
88.208
 30
0.0
 10
23.552
 20
88.208
 30
0.0
 10
19.0967
 20
91.0091
 30
0.0
 10
13.3691
 20
90.7385
 30
0.0
 10
9.1972
 20
87.5316
 30
0.0
 10
9.1972
 20
87.5316
 30
0.0
 10
10.3309
 20
89.2687
 30
0.0
 10
9.9813
 20
91.5803
 30
0.0
 10
8.3847
 20
92.9032
 30
0.0
 10
8.3847
 20
92.9032
 30
0.0
 10
8.9512
 20
92.7144
 30
0.0
 10
9.5522
 20
92.6543
 30
0.0
 10
10.1451
 20
92.7228
 30
0.0
 10
10.1451
 20
92.7228
 30
0.0
 10
9.7964
 20
93.5679
 30
0.0
 10
9.9079
 20
94.5333
 30
0.0
 10
10.4404
 20
95.2766
 30
0.0
 10
10.4404
 20
95.2766
 30
0.0
 10
10.9727
 20
96.0199
 30
0.0
 10
11.8508
 20
96.4374
 30
0.0
 10
12.7633
 20
96.379
 30
0.0
  0
SPLINE
  5
56
330
1F
100
AcDbEntity
  8
layer 1
 62
     7
370
     9
100
AcDbSpline
210
0.0
220
0.0
230
1.0
 70
    11
 71
     3
 72
    36
 73
    32
 74
     0
 42
0.0000000001
 43
0.0000000001
 12
1.0
 22
0.0
 32
0.0
 13
1.0
 23
0.0
 33
0.0
 40
0.0
 40
0.0
 40
0.0
 40
0.0
 40
0.1111111111111111
 40
0.1111111111111111
 40
0.1111111111111111
 40
0.1111111111111111
 40
0.2222222222222222
 40
0.2222222222222222
 40
0.2222222222222222
 40
0.2222222222222222
 40
0.3333333333333333
 40
0.3333333333333333
 40
0.3333333333333333
 40
0.3333333333333333
 40
0.4444444444444444
 40
0.4444444444444444
 40
0.4444444444444444
 40
0.4444444444444444
 40
0.5555555555555556
 40
0.5555555555555556
 40
0.5555555555555556
 40
0.5555555555555556
 40
0.6666666666666666
 40
0.6666666666666666
 40
0.6666666666666666
 40
0.6666666666666666
 40
0.7777777777777778
 40
0.7777777777777778
 40
0.7777777777777778
 40
0.7777777777777778
 40
1.0
 40
1.0
 40
1.0
 40
1.0
 10
22.92
 20
79.678
 30
0.0
 10
23.79
 20
81.6389
 30
0.0
 10
23.191
 20
83.9405
 30
0.0
 10
21.4753
 20
85.23
 30
0.0
 10
21.4753
 20
85.23
 30
0.0
 10
17.741
 20
87.0155
 30
0.0
 10
13.3285
 20
86.6163
 30
0.0
 10
9.9763
 20
84.186
 30
0.0
 10
9.9763
 20
84.186
 30
0.0
 10
6.6244
 20
81.7575
 30
0.0
 10
4.8703
 20
77.6887
 30
0.0
 10
5.4054
 20
73.5832
 30
0.0
 10
5.4054
 20
73.5832
 30
0.0
 10
5.9897
 20
75.0263
 30
0.0
 10
7.1939
 20
76.1304
 30
0.0
 10
8.6831
 20
76.5847
 30
0.0
 10
8.6831
 20
76.5847
 30
0.0
 10
10.1723
 20
77.0407
 30
0.0
 10
11.7875
 20
76.8001
 30
0.0
 10
13.0793
 20
75.9299
 30
0.0
 10
13.0793
 20
75.9299
 30
0.0
 10
12.1095
 20
78.0629
 30
0.0
 10
12.5844
 20
80.5733
 30
0.0
 10
14.2657
 20
82.2034
 30
0.0
 10
14.2657
 20
82.2034
 30
0.0
 10
15.9468
 20
83.8353
 30
0.0
 10
18.4714
 20
84.2328
 30
0.0
 10
20.5726
 20
83.1989
 30
0.0
 10
20.5726
 20
83.1989
 30
0.0
 10
21.6783
 20
82.2753
 30
0.0
 10
22.4934
 20
81.0526
 30
0.0
 10
22.92
 20
79.678
 30
0.0
  0
SPLINE
  5
57
330
1F
100
AcDbEntity
  8
layer 1
 62
     7
370
     9
100
AcDbSpline
210
0.0
220
0.0
230
1.0
 70
    11
 71
     3
 72
    20
 73
    16
 74
     0
 42
0.0000000001
 43
0.0000000001
 12
1.0
 22
0.0
 32
0.0
 13
1.0
 23
0.0
 33
0.0
 40
0.0
 40
0.0
 40
0.0
 40
0.0
 40
0.2
 40
0.2
 40
0.2
 40
0.2
 40
0.4
 40
0.4
 40
0.4
 40
0.4
 40
0.6
 40
0.6
 40
0.6
 40
0.6
 40
1.0
 40
1.0
 40
1.0
 40
1.0
 10
19.038
 20
76.426
 30
0.0
 10
17.6667
 20
76.426
 30
0.0
 10
16.5548
 20
77.5384
 30
0.0
 10
16.5548
 20
78.9097
 30
0.0
 10
16.5548
 20
78.9097
 30
0.0
 10
16.5548
 20
80.281
 30
0.0
 10
17.6667
 20
81.3934
 30
0.0
 10
19.038
 20
81.3934
 30
0.0
 10
19.038
 20
81.3934
 30
0.0
 10
20.4092
 20
81.3934
 30
0.0
 10
21.5209
 20
80.281
 30
0.0
 10
21.5209
 20
78.9097
 30
0.0
 10
21.5209
 20
78.9097
 30
0.0
 10
21.5209
 20
77.5384
 30
0.0
 10
20.4092
 20
76.426
 30
0.0
 10
19.038
 20
76.426
 30
0.0
  0
SPLINE
  5
58
330
1F
100
AcDbEntity
  8
layer 1
 62
     7
370
     9
100
AcDbSpline
210
0.0
220
0.0
230
1.0
 70
    11
 71
     3
 72
    36
 73
    32
 74
     0
 42
0.0000000001
 43
0.0000000001
 12
1.0
 22
0.0
 32
0.0
 13
1.0
 23
0.0
 33
0.0
 40
0.0
 40
0.0
 40
0.0
 40
0.0
 40
0.1111111111111111
 40
0.1111111111111111
 40
0.1111111111111111
 40
0.1111111111111111
 40
0.2222222222222222
 40
0.2222222222222222
 40
0.2222222222222222
 40
0.2222222222222222
 40
0.3333333333333333
 40
0.3333333333333333
 40
0.3333333333333333
 40
0.3333333333333333
 40
0.4444444444444444
 40
0.4444444444444444
 40
0.4444444444444444
 40
0.4444444444444444
 40
0.5555555555555556
 40
0.5555555555555556
 40
0.5555555555555556
 40
0.5555555555555556
 40
0.6666666666666666
 40
0.6666666666666666
 40
0.6666666666666666
 40
0.6666666666666666
 40
0.7777777777777778
 40
0.7777777777777778
 40
0.7777777777777778
 40
0.7777777777777778
 40
1.0
 40
1.0
 40
1.0
 40
1.0
 10
23.6422
 20
72.8617
 30
0.0
 10
23.6694
 20
72.9118
 30
0.0
 10
23.6582
 20
72.9736
 30
0.0
 10
23.615
 20
73.012
 30
0.0
 10
23.615
 20
73.012
 30
0.0
 10
23.5717
 20
73.0504
 30
0.0
 10
23.5081
 20
73.0521
 30
0.0
 10
23.4616
 20
73.0187
 30
0.0
 10
23.4616
 20
73.0187
 30
0.0
 10
21.3753
 20
71.3267
 30
0.0
 10
18.59
 20
70.7705
 30
0.0
 10
16.0134
 20
71.5288
 30
0.0
 10
16.0134
 20
71.5288
 30
0.0
 10
15.8392
 20
71.5388
 30
0.0
 10
15.6645
 20
71.5238
 30
0.0
 10
15.4943
 20
71.4837
 30
0.0
 10
15.4943
 20
71.4837
 30
0.0
 10
14.7893
 20
71.2181
 30
0.0
 10
14.2986
 20
70.5734
 30
0.0
 10
14.2313
 20
69.8235
 30
0.0
 10
14.2313
 20
69.8235
 30
0.0
 10
14.1638
 20
69.0718
 30
0.0
 10
14.5319
 20
68.3503
 30
0.0
 10
15.1783
 20
67.9628
 30
0.0
 10
15.1783
 20
67.9628
 30
0.0
 10
17.192
 20
67.3966
 30
0.0
 10
19.3519
 20
68.0379
 30
0.0
 10
20.7306
 20
69.6113
 30
0.0
 10
20.7306
 20
69.6113
 30
0.0
 10
21.8378
 20
70.5634
 30
0.0
 10
22.8166
 20
71.6557
 30
0.0
 10
23.6422
 20
72.8617
 30
0.0
  0
SPLINE
  5
59
330
1F
100
AcDbEntity
  8
layer 1
 62
     7
370
     9
100
AcDbSpline
210
0.0
220
0.0
230
1.0
 70
    11
 71
     3
 72
    32
 73
    28
 74
     0
 42
0.0000000001
 43
0.0000000001
 12
1.0
 22
0.0
 32
0.0
 13
1.0
 23
0.0
 33
0.0
 40
0.0
 40
0.0
 40
0.0
 40
0.0
 40
0.125
 40
0.125
 40
0.125
 40
0.125
 40
0.25
 40
0.25
 40
0.25
 40
0.25
 40
0.375
 40
0.375
 40
0.375
 40
0.375
 40
0.5
 40
0.5
 40
0.5
 40
0.5
 40
0.625
 40
0.625
 40
0.625
 40
0.625
 40
0.75
 40
0.75
 40
0.75
 40
0.75
 40
1.0
 40
1.0
 40
1.0
 40
1.0
 10
23.0497
 20
68.3887
 30
0.0
 10
21.8495
 20
66.9072
 30
0.0
 10
20.3521
 20
65.6946
 30
0.0
 10
18.6541
 20
64.826
 30
0.0
 10
18.6541
 20
64.826
 30
0.0
 10
18.0635
 20
64.5688
 30
0.0
 10
17.5095
 20
64.2348
 30
0.0
 10
17.0066
 20
63.8322
 30
0.0
 10
17.0066
 20
63.8322
 30
0.0
 10
16.5312
 20
63.1207
 30
0.0
 10
16.5952
 20
62.1787
 30
0.0
 10
17.1622
 20
61.5373
 30
0.0
 10
17.1622
 20
61.5373
 30
0.0
 10
17.7291
 20
60.8959
 30
0.0
 10
18.6569
 20
60.7172
 30
0.0
 10
19.4216
 20
61.1013
 30
0.0
 10
19.4216
 20
61.1013
 30
0.0
 10
21.9554
 20
62.5912
 30
0.0
 10
23.4513
 20
65.3655
 30
0.0
 10
23.3036
 20
68.3018
 30
0.0
 10
23.3036
 20
68.3018
 30
0.0
 10
23.3056
 20
68.3637
 30
0.0
 10
23.2674
 20
68.4188
 30
0.0
 10
23.2089
 20
68.4388
 30
0.0
 10
23.2089
 20
68.4388
 30
0.0
 10
23.1506
 20
68.4588
 30
0.0
 10
23.086
 20
68.4388
 30
0.0
 10
23.0497
 20
68.3887
 30
0.0
  0
SPLINE
  5
5A
330
1F
100
AcDbEntity
  8
layer 1
 62
     7
370
     9
100
AcDbSpline
210
0.0
220
0.0
230
1.0
 70
    11
 71
     3
 72
    32
 73
    28
 74
     0
 42
0.0000000001
 43
0.0000000001
 12
1.0
 22
0.0
 32
0.0
 13
1.0
 23
0.0
 33
0.0
 40
0.0
 40
0.0
 40
0.0
 40
0.0
 40
0.125
 40
0.125
 40
0.125
 40
0.125
 40
0.25
 40
0.25
 40
0.25
 40
0.25
 40
0.375
 40
0.375
 40
0.375
 40
0.375
 40
0.5
 40
0.5
 40
0.5
 40
0.5
 40
0.625
 40
0.625
 40
0.625
 40
0.625
 40
0.75
 40
0.75
 40
0.75
 40
0.75
 40
1.0
 40
1.0
 40
1.0
 40
1.0
 10
21.7237
 20
57.9646
 30
0.0
 10
22.8024
 20
59.1338
 30
0.0
 10
23.5536
 20
60.5652
 30
0.0
 10
23.9017
 20
62.1169
 30
0.0
 10
23.9017
 20
62.1169
 30
0.0
 10
23.9279
 20
62.2238
 30
0.0
 10
24.027
 20
62.2956
 30
0.0
 10
24.1363
 20
62.2872
 30
0.0
 10
24.1363
 20
62.2872
 30
0.0
 10
24.2452
 20
62.2789
 30
0.0
 10
24.3322
 20
62.192
 30
0.0
 10
24.3419
 20
62.0835
 30
0.0
 10
24.3419
 20
62.0835
 30
0.0
 10
25.1048
 20
59.239
 30
0.0
 10
24.638
 20
56.2058
 30
0.0
 10
23.0554
 20
53.7221
 30
0.0
 10
23.0554
 20
53.7221
 30
0.0
 10
22.4376
 20
53.1125
 30
0.0
 10
21.4727
 20
53.0323
 30
0.0
 10
20.763
 20
53.5317
 30
0.0
 10
20.763
 20
53.5317
 30
0.0
 10
20.0534
 20
54.0295
 30
0.0
 10
19.8022
 20
54.9648
 30
0.0
 10
20.1664
 20
55.7532
 30
0.0
 10
20.1664
 20
55.7532
 30
0.0
 10
20.5684
 20
56.5666
 30
0.0
 10
21.0937
 20
57.3115
 30
0.0
 10
21.7237
 20
57.9646
 30
0.0
  0
SPLINE
  5
5B
330
1F
100
AcDbEntity
  8
layer 1
 62
     7
370
     9
100
AcDbSpline
210
0.0
220
0.0
230
1.0
 70
    11
 71
     3
 72
    68
 73
    64
 74
     0
 42
0.0000000001
 43
0.0000000001
 12
1.0
 22
0.0
 32
0.0
 13
1.0
 23
0.0
 33
0.0
 40
0.0
 40
0.0
 40
0.0
 40
0.0
 40
0.0588235294117647
 40
0.0588235294117647
 40
0.0588235294117647
 40
0.0588235294117647
 40
0.1176470588235294
 40
0.1176470588235294
 40
0.1176470588235294
 40
0.1176470588235294
 40
0.1764705882352941
 40
0.1764705882352941
 40
0.1764705882352941
 40
0.1764705882352941
 40
0.2352941176470588
 40
0.2352941176470588
 40
0.2352941176470588
 40
0.2352941176470588
 40
0.2941176470588235
 40
0.2941176470588235
 40
0.2941176470588235
 40
0.2941176470588235
 40
0.3529411764705883
 40
0.3529411764705883
 40
0.3529411764705883
 40
0.3529411764705883
 40
0.4117647058823529
 40
0.4117647058823529
 40
0.4117647058823529
 40
0.4117647058823529
 40
0.4705882352941176
 40
0.4705882352941176
 40
0.4705882352941176
 40
0.4705882352941176
 40
0.5294117647058824
 40
0.5294117647058824
 40
0.5294117647058824
 40
0.5294117647058824
 40
0.5882352941176471
 40
0.5882352941176471
 40
0.5882352941176471
 40
0.5882352941176471
 40
0.6470588235294118
 40
0.6470588235294118
 40
0.6470588235294118
 40
0.6470588235294118
 40
0.7058823529411765
 40
0.7058823529411765
 40
0.7058823529411765
 40
0.7058823529411765
 40
0.7647058823529411
 40
0.7647058823529411
 40
0.7647058823529411
 40
0.7647058823529411
 40
0.8235294117647058
 40
0.8235294117647058
 40
0.8235294117647058
 40
0.8235294117647058
 40
0.8823529411764706
 40
0.8823529411764706
 40
0.8823529411764706
 40
0.8823529411764706
 40
1.0
 40
1.0
 40
1.0
 40
1.0
 10
17.0967
 20
50.0651
 30
0.0
 10
18.672
 20
48.4073
 30
0.0
 10
20.0089
 20
46.5388
 30
0.0
 10
21.0692
 20
44.5128
 30
0.0
 10
21.0692
 20
44.5128
 30
0.0
 10
21.6798
 20
46.9303
 30
0.0
 10
20.8973
 20
49.487
 30
0.0
 10
19.038
 20
51.1484
 30
0.0
 10
19.038
 20
51.1484
 30
0.0
 10
18.2128
 20
51.7826
 30
0.0
 10
17.8856
 20
52.8733
 30
0.0
 10
18.2254
 20
53.8574
 30
0.0
 10
18.2254
 20
53.8574
 30
0.0
 10
18.3451
 20
55.4308
 30
0.0
 10
17.6877
 20
56.9658
 30
0.0
 10
16.4649
 20
57.9646
 30
0.0
 10
16.4649
 20
57.9646
 30
0.0
 10
14.799
 20
59.0219
 30
0.0
 10
13.9558
 20
60.9961
 30
0.0
 10
14.3433
 20
62.9303
 30
0.0
 10
14.3433
 20
62.9303
 30
0.0
 10
14.6378
 20
64.664
 30
0.0
 10
13.9198
 20
66.4161
 30
0.0
 10
12.4925
 20
67.4433
 30
0.0
 10
12.4925
 20
67.4433
 30
0.0
 10
11.9006
 20
68.2117
 30
0.0
 10
11.6522
 20
69.1904
 30
0.0
 10
11.806
 20
70.1475
 30
0.0
 10
11.806
 20
70.1475
 30
0.0
 10
11.96
 20
71.1045
 30
0.0
 10
12.5024
 20
71.9564
 30
0.0
 10
13.3051
 20
72.4992
 30
0.0
 10
13.3051
 20
72.4992
 30
0.0
 10
12.0115
 20
73.2843
 30
0.0
 10
10.3726
 20
73.2141
 30
0.0
 10
9.1522
 20
72.3188
 30
0.0
 10
9.1522
 20
72.3188
 30
0.0
 10
8.7439
 20
72.0349
 30
0.0
 10
8.4934
 20
71.5756
 30
0.0
 10
8.4757
 20
71.0778
 30
0.0
 10
8.4757
 20
71.0778
 30
0.0
 10
8.4578
 20
70.5801
 30
0.0
 10
8.675
 20
70.1041
 30
0.0
 10
9.0618
 20
69.7917
 30
0.0
 10
9.0618
 20
69.7917
 30
0.0
 10
9.1154
 20
69.6731
 30
0.0
 10
9.1136
 20
69.5362
 30
0.0
 10
9.057
 20
69.4193
 30
0.0
 10
9.057
 20
69.4193
 30
0.0
 10
9.0005
 20
69.3007
 30
0.0
 10
8.8948
 20
69.2138
 30
0.0
 10
8.7683
 20
69.1821
 30
0.0
 10
8.7683
 20
69.1821
 30
0.0
 10
7.4009
 20
68.833
 30
0.0
 10
5.9827
 20
69.5311
 30
0.0
 10
5.428
 20
70.829
 30
0.0
 10
5.428
 20
70.829
 30
0.0
 10
5.7238
 20
65.9151
 30
0.0
 10
7.6
 20
61.2283
 30
0.0
 10
10.7772
 20
57.4685
 30
0.0
 10
10.7772
 20
57.4685
 30
0.0
 10
13.0522
 20
55.1502
 30
0.0
 10
15.1639
 20
52.6759
 30
0.0
 10
17.0967
 20
50.0651
 30
0.0
  0
SPLINE
  5
5C
330
1F
100
AcDbEntity
  8
layer 1
 62
     7
370
     9
100
AcDbSpline
210
0.0
220
0.0
230
1.0
 70
    11
 71
     3
 72
    20
 73
    16
 74
     0
 42
0.0000000001
 43
0.0000000001
 12
1.0
 22
0.0
 32
0.0
 13
1.0
 23
0.0
 33
0.0
 40
0.0
 40
0.0
 40
0.0
 40
0.0
 40
0.2
 40
0.2
 40
0.2
 40
0.2
 40
0.4
 40
0.4
 40
0.4
 40
0.4
 40
0.6
 40
0.6
 40
0.6
 40
0.6
 40
1.0
 40
1.0
 40
1.0
 40
1.0
 10
26.5312
 20
50.2872
 30
0.0
 10
27.3946
 20
46.7824
 30
0.0
 10
28.4647
 20
43.3318
 30
0.0
 10
29.7361
 20
39.9537
 30
0.0
 10
29.7361
 20
39.9537
 30
0.0
 10
28.359
 20
36.3491
 30
0.0
 10
27.287
 20
32.6352
 30
0.0
 10
26.5312
 20
28.8512
 30
0.0
 10
26.5312
 20
28.8512
 30
0.0
 10
25.7754
 20
32.6352
 30
0.0
 10
24.7033
 20
36.3491
 30
0.0
 10
23.3262
 20
39.9537
 30
0.0
 10
23.3262
 20
39.9537
 30
0.0
 10
24.5976
 20
43.3318
 30
0.0
 10
25.6679
 20
46.7824
 30
0.0
 10
26.5312
 20
50.2872
 30
0.0
  0
SPLINE
  5
5D
330
1F
100
AcDbEntity
  8
layer 1
 62
     7
370
     9
100
AcDbSpline
210
0.0
220
0.0
230
1.0
 70
    11
 71
     3
 72
    44
 73
    40
 74
     0
 42
0.0000000001
 43
0.0000000001
 12
1.0
 22
0.0
 32
0.0
 13
1.0
 23
0.0
 33
0.0
 40
0.0
 40
0.0
 40
0.0
 40
0.0
 40
0.0909090909090909
 40
0.0909090909090909
 40
0.0909090909090909
 40
0.0909090909090909
 40
0.1818181818181818
 40
0.1818181818181818
 40
0.1818181818181818
 40
0.1818181818181818
 40
0.2727272727272727
 40
0.2727272727272727
 40
0.2727272727272727
 40
0.2727272727272727
 40
0.3636363636363636
 40
0.3636363636363636
 40
0.3636363636363636
 40
0.3636363636363636
 40
0.4545454545454545
 40
0.4545454545454545
 40
0.4545454545454545
 40
0.4545454545454545
 40
0.5454545454545454
 40
0.5454545454545454
 40
0.5454545454545454
 40
0.5454545454545454
 40
0.6363636363636364
 40
0.6363636363636364
 40
0.6363636363636364
 40
0.6363636363636364
 40
0.7272727272727273
 40
0.7272727272727273
 40
0.7272727272727273
 40
0.7272727272727273
 40
0.8181818181818182
 40
0.8181818181818182
 40
0.8181818181818182
 40
0.8181818181818182
 40
1.0
 40
1.0
 40
1.0
 40
1.0
 10
-0.508
 20
54.0829
 30
0.0
 10
3.3941
 20
51.0723
 30
0.0
 10
7.4308
 20
48.2405
 30
0.0
 10
11.5897
 20
45.5961
 30
0.0
 10
11.5897
 20
45.5961
 30
0.0
 10
14.5996
 20
43.2937
 30
0.0
 10
17.2802
 20
40.5904
 30
0.0
 10
19.557
 20
37.5612
 30
0.0
 10
19.557
 20
37.5612
 30
0.0
 10
19.7167
 20
37.2966
 30
0.0
 10
19.7577
 20
36.9771
 30
0.0
 10
19.6698
 20
36.6809
 30
0.0
 10
19.6698
 20
36.6809
 30
0.0
 10
19.1298
 20
34.4233
 30
0.0
 10
17.5325
 20
32.5654
 30
0.0
 10
15.3816
 20
31.6929
 30
0.0
 10
15.3816
 20
31.6929
 30
0.0
 10
16.0388
 20
31.9928
 30
0.0
 10
16.532
 20
32.5652
 30
0.0
 10
16.7316
 20
33.2596
 30
0.0
 10
16.7316
 20
33.2596
 30
0.0
 10
16.9312
 20
33.9539
 30
0.0
 10
16.8173
 20
34.7009
 30
0.0
 10
16.4196
 20
35.3041
 30
0.0
 10
16.4196
 20
35.3041
 30
0.0
 10
15.1689
 20
36.4972
 30
0.0
 10
13.2518
 20
36.6472
 30
0.0
 10
11.8306
 20
35.6633
 30
0.0
 10
11.8306
 20
35.6633
 30
0.0
 10
10.4094
 20
34.6793
 30
0.0
 10
9.875
 20
32.8323
 30
0.0
 10
10.5515
 20
31.2414
 30
0.0
 10
10.5515
 20
31.2414
 30
0.0
 10
8.9187
 20
33.5644
 30
0.0
 10
7.6831
 20
36.1424
 30
0.0
 10
6.8951
 20
38.8702
 30
0.0
 10
6.8951
 20
38.8702
 30
0.0
 10
5.06
 20
44.2252
 30
0.0
 10
2.5737
 20
49.3342
 30
0.0
 10
-0.508
 20
54.0829
 30
0.0
  0
SPLINE
  5
5E
330
1F
100
AcDbEntity
  8
layer 1
 62
     7
370
     9
100
AcDbSpline
210
0.0
220
0.0
230
1.0
 70
    11
 71
     3
 72
    28
 73
    24
 74
     0
 42
0.0000000001
 43
0.0000000001
 12
1.0
 22
0.0
 32
0.0
 13
1.0
 23
0.0
 33
0.0
 40
0.0
 40
0.0
 40
0.0
 40
0.0
 40
0.1428571428571428
 40
0.1428571428571428
 40
0.1428571428571428
 40
0.1428571428571428
 40
0.2857142857142857
 40
0.2857142857142857
 40
0.2857142857142857
 40
0.2857142857142857
 40
0.4285714285714285
 40
0.4285714285714285
 40
0.4285714285714285
 40
0.4285714285714285
 40
0.5714285714285714
 40
0.5714285714285714
 40
0.5714285714285714
 40
0.5714285714285714
 40
0.7142857142857143
 40
0.7142857142857143
 40
0.7142857142857143
 40
0.7142857142857143
 40
1.0
 40
1.0
 40
1.0
 40
1.0
 10
22.0623
 20
17.88
 30
0.0
 10
22.2154
 20
17.7258
 30
0.0
 10
22.4617
 20
17.716
 30
0.0
 10
22.6265
 20
17.8572
 30
0.0
 10
22.6265
 20
17.8572
 30
0.0
 10
23.5627
 20
20.778
 30
0.0
 10
23.8099
 20
23.8759
 30
0.0
 10
23.3487
 20
26.9081
 30
0.0
 10
23.3487
 20
26.9081
 30
0.0
 10
23.0207
 20
29.3634
 30
0.0
 10
22.3601
 20
31.7628
 30
0.0
 10
21.3852
 20
34.0403
 30
0.0
 10
21.3852
 20
34.0403
 30
0.0
 10
21.1518
 20
31.9693
 30
0.0
 10
19.855
 20
30.1701
 30
0.0
 10
17.9641
 20
29.2939
 30
0.0
 10
17.9641
 20
29.2939
 30
0.0
 10
16.0734
 20
28.4176
 30
0.0
 10
13.8623
 20
28.5912
 30
0.0
 10
12.1314
 20
29.7518
 30
0.0
 10
12.1314
 20
29.7518
 30
0.0
 10
15.9439
 20
26.2431
 30
0.0
 10
19.2823
 20
22.2522
 30
0.0
 10
22.0623
 20
17.88
 30
0.0
  0
SPLINE
  5
5F
330
1F
100
AcDbEntity
  8
layer 1
 62
     7
370
     9
100
AcDbSpline
210
0.0
220
0.0
230
1.0
 70
    11
 71
     3
 72
    72
 73
    68
 74
     0
 42
0.0000000001
 43
0.0000000001
 12
1.0
 22
0.0
 32
0.0
 13
1.0
 23
0.0
 33
0.0
 40
0.0
 40
0.0
 40
0.0
 40
0.0
 40
0.0555555555555556
 40
0.0555555555555556
 40
0.0555555555555556
 40
0.0555555555555556
 40
0.1111111111111111
 40
0.1111111111111111
 40
0.1111111111111111
 40
0.1111111111111111
 40
0.1666666666666667
 40
0.1666666666666667
 40
0.1666666666666667
 40
0.1666666666666667
 40
0.2222222222222222
 40
0.2222222222222222
 40
0.2222222222222222
 40
0.2222222222222222
 40
0.2777777777777778
 40
0.2777777777777778
 40
0.2777777777777778
 40
0.2777777777777778
 40
0.3333333333333333
 40
0.3333333333333333
 40
0.3333333333333333
 40
0.3333333333333333
 40
0.3888888888888889
 40
0.3888888888888889
 40
0.3888888888888889
 40
0.3888888888888889
 40
0.4444444444444444
 40
0.4444444444444444
 40
0.4444444444444444
 40
0.4444444444444444
 40
0.5
 40
0.5
 40
0.5
 40
0.5
 40
0.5555555555555556
 40
0.5555555555555556
 40
0.5555555555555556
 40
0.5555555555555556
 40
0.6111111111111112
 40
0.6111111111111112
 40
0.6111111111111112
 40
0.6111111111111112
 40
0.6666666666666666
 40
0.6666666666666666
 40
0.6666666666666666
 40
0.6666666666666666
 40
0.7222222222222222
 40
0.7222222222222222
 40
0.7222222222222222
 40
0.7222222222222222
 40
0.7777777777777778
 40
0.7777777777777778
 40
0.7777777777777778
 40
0.7777777777777778
 40
0.8333333333333334
 40
0.8333333333333334
 40
0.8333333333333334
 40
0.8333333333333334
 40
0.8888888888888888
 40
0.8888888888888888
 40
0.8888888888888888
 40
0.8888888888888888
 40
1.0
 40
1.0
 40
1.0
 40
1.0
 10
6.2856
 20
28.8491
 30
0.0
 10
4.656
 20
29.1634
 30
0.0
 10
2.9847
 20
28.5636
 30
0.0
 10
1.9268
 20
27.2847
 30
0.0
 10
1.9268
 20
27.2847
 30
0.0
 10
0.869
 20
26.0058
 30
0.0
 10
0.5931
 20
24.2517
 30
0.0
 10
1.2074
 20
22.7099
 30
0.0
 10
1.2074
 20
22.7099
 30
0.0
 10
1.1027
 20
23.79
 30
0.0
 10
1.5101
 20
24.857
 30
0.0
 10
2.3077
 20
25.5927
 30
0.0
 10
2.3077
 20
25.5927
 30
0.0
 10
3.1055
 20
26.3285
 30
0.0
 10
4.2018
 20
26.6482
 30
0.0
 10
5.27
 20
26.4566
 30
0.0
 10
5.27
 20
26.4566
 30
0.0
 10
6.5875
 20
26.2196
 30
0.0
 10
7.6523
 20
25.2482
 30
0.0
 10
8.0087
 20
23.9577
 30
0.0
 10
8.0087
 20
23.9577
 30
0.0
 10
8.3649
 20
22.6674
 30
0.0
 10
7.9496
 20
21.2871
 30
0.0
 10
6.9402
 20
20.4078
 30
0.0
 10
6.9402
 20
20.4078
 30
0.0
 10
8.0833
 20
21.1149
 30
0.0
 10
9.4907
 20
21.2494
 30
0.0
 10
10.7469
 20
20.7715
 30
0.0
 10
10.7469
 20
20.7715
 30
0.0
 10
12.0035
 20
20.2938
 30
0.0
 10
12.9657
 20
19.2583
 30
0.0
 10
13.3502
 20
17.9701
 30
0.0
 10
13.3502
 20
17.9701
 30
0.0
 10
13.3652
 20
17.8785
 30
0.0
 10
13.3385
 20
17.7849
 30
0.0
 10
13.2774
 20
17.7151
 30
0.0
 10
13.2774
 20
17.7151
 30
0.0
 10
13.2163
 20
17.6451
 30
0.0
 10
13.127
 20
17.6062
 30
0.0
 10
13.0342
 20
17.609
 30
0.0
 10
13.0342
 20
17.609
 30
0.0
 10
12.2722
 20
18.0416
 30
0.0
 10
11.3385
 20
18.0397
 30
0.0
 10
10.5784
 20
17.6039
 30
0.0
 10
10.5784
 20
17.6039
 30
0.0
 10
9.8183
 20
17.1683
 30
0.0
 10
9.3446
 20
16.3635
 30
0.0
 10
9.3327
 20
15.4875
 30
0.0
 10
9.3327
 20
15.4875
 30
0.0
 10
9.2616
 20
13.9754
 30
0.0
 10
10.173
 20
12.5899
 30
0.0
 10
11.5897
 20
12.0567
 30
0.0
 10
11.5897
 20
12.0567
 30
0.0
 10
14.3866
 20
10.8998
 30
0.0
 10
17.6079
 20
11.6016
 30
0.0
 10
19.6698
 20
13.8172
 30
0.0
 10
19.6698
 20
13.8172
 30
0.0
 10
20.0438
 20
14.0915
 30
0.0
 10
20.1246
 20
14.6169
 30
0.0
 10
19.8504
 20
14.9909
 30
0.0
 10
19.8504
 20
14.9909
 30
0.0
 10
18.3814
 20
19.0523
 30
0.0
 10
15.9857
 20
22.7154
 30
0.0
 10
12.8536
 20
25.6893
 30
0.0
 10
12.8536
 20
25.6893
 30
0.0
 10
10.9826
 20
27.3053
 30
0.0
 10
8.7161
 20
28.3956
 30
0.0
 10
6.2856
 20
28.8491
 30
0.0
  0
SPLINE
  5
60
330
1F
100
AcDbEntity
  8
layer 1
 62
     7
370
     9
100
AcDbSpline
210
0.0
220
0.0
230
1.0
 70
    11
 71
     3
 72
    20
 73
    16
 74
     0
 42
0.0000000001
 43
0.0000000001
 12
1.0
 22
0.0
 32
0.0
 13
1.0
 23
0.0
 33
0.0
 40
0.0
 40
0.0
 40
0.0
 40
0.0
 40
0.2
 40
0.2
 40
0.2
 40
0.2
 40
0.4
 40
0.4
 40
0.4
 40
0.4
 40
0.6
 40
0.6
 40
0.6
 40
0.6
 40
1.0
 40
1.0
 40
1.0
 40
1.0
 10
-11.0709
 20
15.5326
 30
0.0
 10
-6.299
 20
14.4442
 30
0.0
 10
-1.2893
 20
15.4462
 30
0.0
 10
2.6969
 20
18.2862
 30
0.0
 10
2.6969
 20
18.2862
 30
0.0
 10
-0.672
 20
14.0115
 30
0.0
 10
-5.9064
 20
11.6384
 30
0.0
 10
-11.3416
 20
11.9213
 30
0.0
 10
-11.3416
 20
11.9213
 30
0.0
 10
-12.0946
 20
12.2428
 30
0.0
 10
-12.5596
 20
13.0076
 30
0.0
 10
-12.4983
 20
13.8239
 30
0.0
 10
-12.4983
 20
13.8239
 30
0.0
 10
-12.4372
 20
14.6402
 30
0.0
 10
-11.8633
 20
15.3271
 30
0.0
 10
-11.0709
 20
15.5326
 30
0.0
  0
SPLINE
  5
61
330
1F
100
AcDbEntity
  8
layer 1
 62
     7
370
     9
100
AcDbSpline
210
0.0
220
0.0
230
1.0
 70
    11
 71
     3
 72
    36
 73
    32
 74
     0
 42
0.0000000001
 43
0.0000000001
 12
1.0
 22
0.0
 32
0.0
 13
1.0
 23
0.0
 33
0.0
 40
0.0
 40
0.0
 40
0.0
 40
0.0
 40
0.1111111111111111
 40
0.1111111111111111
 40
0.1111111111111111
 40
0.1111111111111111
 40
0.2222222222222222
 40
0.2222222222222222
 40
0.2222222222222222
 40
0.2222222222222222
 40
0.3333333333333333
 40
0.3333333333333333
 40
0.3333333333333333
 40
0.3333333333333333
 40
0.4444444444444444
 40
0.4444444444444444
 40
0.4444444444444444
 40
0.4444444444444444
 40
0.5555555555555556
 40
0.5555555555555556
 40
0.5555555555555556
 40
0.5555555555555556
 40
0.6666666666666666
 40
0.6666666666666666
 40
0.6666666666666666
 40
0.6666666666666666
 40
0.7777777777777778
 40
0.7777777777777778
 40
0.7777777777777778
 40
0.7777777777777778
 40
1.0
 40
1.0
 40
1.0
 40
1.0
 10
-0.5783
 20
8.4908
 30
0.0
 10
-0.57
 20
8.4755
 30
0.0
 10
-0.5616
 20
8.4605
 30
0.0
 10
-0.5531
 20
8.4455
 30
0.0
 10
-0.5531
 20
8.4455
 30
0.0
 10
0.6348
 20
5.7998
 30
0.0
 10
3.2289
 20
4.0645
 30
0.0
 10
6.1276
 20
3.9765
 30
0.0
 10
6.1276
 20
3.9765
 30
0.0
 10
4.9389
 20
2.2483
 30
0.0
 10
4.817
 20
0.0003
 30
0.0
 10
5.8116
 20
-1.8465
 30
0.0
 10
5.8116
 20
-1.8465
 30
0.0
 10
2.2667
 20
2.5621
 30
0.0
 10
-2.2427
 20
6.0986
 30
0.0
 10
-7.3694
 20
8.4908
 30
0.0
 10
-7.3694
 20
8.4908
 30
0.0
 10
-2.2427
 20
10.8826
 30
0.0
 10
2.2667
 20
14.4192
 30
0.0
 10
5.8116
 20
18.8278
 30
0.0
 10
5.8116
 20
18.8278
 30
0.0
 10
4.817
 20
16.981
 30
0.0
 10
4.9389
 20
14.733
 30
0.0
 10
6.1276
 20
13.0046
 30
0.0
 10
6.1276
 20
13.0046
 30
0.0
 10
3.2289
 20
12.9168
 30
0.0
 10
0.6348
 20
11.1815
 30
0.0
 10
-0.5531
 20
8.5358
 30
0.0
 10
-0.5531
 20
8.5358
 30
0.0
 10
-0.5616
 20
8.5208
 30
0.0
 10
-0.57
 20
8.5058
 30
0.0
 10
-0.5783
 20
8.4908
 30
0.0
  0
SPLINE
  5
62
330
1F
100
AcDbEntity
  8
layer 1
 62
     7
370
     9
100
AcDbSpline
210
0.0
220
0.0
230
1.0
 70
    11
 71
     3
 72
    24
 73
    20
 74
     0
 42
0.0000000001
 43
0.0000000001
 12
1.0
 22
0.0
 32
0.0
 13
1.0
 23
0.0
 33
0.0
 40
0.0
 40
0.0
 40
0.0
 40
0.0
 40
0.1666666666666667
 40
0.1666666666666667
 40
0.1666666666666667
 40
0.1666666666666667
 40
0.3333333333333333
 40
0.3333333333333333
 40
0.3333333333333333
 40
0.3333333333333333
 40
0.5
 40
0.5
 40
0.5
 40
0.5
 40
0.6666666666666666
 40
0.6666666666666666
 40
0.6666666666666666
 40
0.6666666666666666
 40
1.0
 40
1.0
 40
1.0
 40
1.0
 10
-2.235
 20
-107.6107
 30
0.0
 10
-2.235
 20
-107.6107
 30
0.0
 10
-12.6067
 20
-107.6107
 30
0.0
 10
-12.6067
 20
-107.6107
 30
0.0
 10
-12.6067
 20
-107.6107
 30
0.0
 10
-12.6229
 20
-107.5814
 30
0.0
 10
-12.6376
 20
-107.5513
 30
0.0
 10
-12.6508
 20
-107.5204
 30
0.0
 10
-12.6508
 20
-107.5204
 30
0.0
 10
-13.1014
 20
-106.2299
 30
0.0
 10
-12.9531
 20
-104.8055
 30
0.0
 10
-12.2459
 20
-103.6357
 30
0.0
 10
-12.2459
 20
-103.6357
 30
0.0
 10
-11.5387
 20
-102.4658
 30
0.0
 10
-10.3467
 20
-101.6723
 30
0.0
 10
-8.9944
 20
-101.4717
 30
0.0
 10
-8.9944
 20
-101.4717
 30
0.0
 10
-8.165
 20
-104.6816
 30
0.0
 10
-5.5097
 20
-107.0931
 30
0.0
 10
-2.235
 20
-107.6107
 30
0.0
  0
SPLINE
  5
63
330
1F
100
AcDbEntity
  8
layer 1
 62
     7
370
     9
100
AcDbSpline
210
0.0
220
0.0
230
1.0
 70
    11
 71
     3
 72
    20
 73
    16
 74
     0
 42
0.0000000001
 43
0.0000000001
 12
1.0
 22
0.0
 32
0.0
 13
1.0
 23
0.0
 33
0.0
 40
0.0
 40
0.0
 40
0.0
 40
0.0
 40
0.2
 40
0.2
 40
0.2
 40
0.2
 40
0.4
 40
0.4
 40
0.4
 40
0.4
 40
0.6
 40
0.6
 40
0.6
 40
0.6
 40
1.0
 40
1.0
 40
1.0
 40
1.0
 10
19.8567
 20
-107.6107
 30
0.0
 10
19.8567
 20
-107.6107
 30
0.0
 10
0.9816
 20
-107.6107
 30
0.0
 10
0.9816
 20
-107.6107
 30
0.0
 10
0.9816
 20
-107.6107
 30
0.0
 10
5.7493
 20
-106.9606
 30
0.0
 10
9.5929
 20
-103.3822
 30
0.0
 10
10.5816
 20
-98.6729
 30
0.0
 10
10.5816
 20
-98.6729
 30
0.0
 10
12.0367
 20
-98.997
 30
0.0
 10
13.5503
 20
-98.4732
 30
0.0
 10
14.4936
 20
-97.3187
 30
0.0
 10
14.4936
 20
-97.3187
 30
0.0
 10
13.3465
 20
-101.6205
 30
0.0
 10
15.6737
 20
-106.0864
 30
0.0
 10
19.8567
 20
-107.6107
 30
0.0
  0
SPLINE
  5
64
330
1F
100
AcDbEntity
  8
layer 1
 62
     7
370
     9
100
AcDbSpline
210
0.0
220
0.0
230
1.0
 70
    11
 71
     3
 72
    16
 73
    12
 74
     0
 42
0.0000000001
 43
0.0000000001
 12
1.0
 22
0.0
 32
0.0
 13
1.0
 23
0.0
 33
0.0
 40
0.0
 40
0.0
 40
0.0
 40
0.0
 40
0.25
 40
0.25
 40
0.25
 40
0.25
 40
0.5
 40
0.5
 40
0.5
 40
0.5
 40
1.0
 40
1.0
 40
1.0
 40
1.0
 10
-17.3454
 20
-79.42
 30
0.0
 10
-17.3454
 20
-79.42
 30
0.0
 10
-17.3454
 20
-92.9852
 30
0.0
 10
-17.3454
 20
-92.9852
 30
0.0
 10
-17.3454
 20
-92.9852
 30
0.0
 10
-16.0965
 20
-89.3763
 30
0.0
 10
-13.5692
 20
-86.35
 30
0.0
 10
-10.2408
 20
-84.4778
 30
0.0
 10
-10.2408
 20
-84.4778
 30
0.0
 10
-13.5399
 20
-84.8029
 30
0.0
 10
-16.5729
 20
-82.6438
 30
0.0
 10
-17.3454
 20
-79.42
 30
0.0
  0
SPLINE
  5
65
330
1F
100
AcDbEntity
  8
layer 1
 62
     7
370
     9
100
AcDbSpline
210
0.0
220
0.0
230
1.0
 70
    11
 71
     3
 72
    28
 73
    24
 74
     0
 42
0.0000000001
 43
0.0000000001
 12
1.0
 22
0.0
 32
0.0
 13
1.0
 23
0.0
 33
0.0
 40
0.0
 40
0.0
 40
0.0
 40
0.0
 40
0.1428571428571428
 40
0.1428571428571428
 40
0.1428571428571428
 40
0.1428571428571428
 40
0.2857142857142857
 40
0.2857142857142857
 40
0.2857142857142857
 40
0.2857142857142857
 40
0.4285714285714285
 40
0.4285714285714285
 40
0.4285714285714285
 40
0.4285714285714285
 40
0.5714285714285714
 40
0.5714285714285714
 40
0.5714285714285714
 40
0.5714285714285714
 40
0.7142857142857143
 40
0.7142857142857143
 40
0.7142857142857143
 40
0.7142857142857143
 40
1.0
 40
1.0
 40
1.0
 40
1.0
 10
-17.3454
 20
-47.2027
 30
0.0
 10
-17.3454
 20
-47.2027
 30
0.0
 10
-17.3454
 20
-76.3267
 30
0.0
 10
-17.3454
 20
-76.3267
 30
0.0
 10
-17.3454
 20
-76.3267
 30
0.0
 10
-16.865
 20
-74.3224
 30
0.0
 10
-15.4806
 20
-72.655
 30
0.0
 10
-13.5986
 20
-71.8143
 30
0.0
 10
-13.5986
 20
-71.8143
 30
0.0
 10
-11.6678
 20
-71.0133
 30
0.0
 10
-9.5039
 20
-70.981
 30
0.0
 10
-7.5498
 20
-71.724
 30
0.0
 10
-7.5498
 20
-71.724
 30
0.0
 10
-12.8953
 20
-65.8961
 30
0.0
 10
-14.2454
 20
-57.4399
 30
0.0
 10
-10.9805
 20
-50.2372
 30
0.0
 10
-10.9805
 20
-50.2372
 30
0.0
 10
-12.2066
 20
-50.9006
 30
0.0
 10
-13.6762
 20
-50.9384
 30
0.0
 10
-14.9345
 20
-50.3384
 30
0.0
 10
-14.9345
 20
-50.3384
 30
0.0
 10
-16.1931
 20
-49.7383
 30
0.0
 10
-17.089
 20
-48.573
 30
0.0
 10
-17.3454
 20
-47.2027
 30
0.0
  0
SPLINE
  5
66
330
1F
100
AcDbEntity
  8
layer 1
 62
     7
370
     9
100
AcDbSpline
210
0.0
220
0.0
230
1.0
 70
    11
 71
     3
 72
    20
 73
    16
 74
     0
 42
0.0000000001
 43
0.0000000001
 12
1.0
 22
0.0
 32
0.0
 13
1.0
 23
0.0
 33
0.0
 40
0.0
 40
0.0
 40
0.0
 40
0.0
 40
0.2
 40
0.2
 40
0.2
 40
0.2
 40
0.4
 40
0.4
 40
0.4
 40
0.4
 40
0.6
 40
0.6
 40
0.6
 40
0.6
 40
1.0
 40
1.0
 40
1.0
 40
1.0
 10
-17.3454
 20
-37.0997
 30
0.0
 10
-17.3454
 20
-37.0997
 30
0.0
 10
-17.3454
 20
-45.5977
 30
0.0
 10
-17.3454
 20
-45.5977
 30
0.0
 10
-17.3454
 20
-45.5977
 30
0.0
 10
-17.1034
 20
-44.3046
 30
0.0
 10
-16.2906
 20
-43.1895
 30
0.0
 10
-15.1335
 20
-42.5633
 30
0.0
 10
-15.1335
 20
-42.5633
 30
0.0
 10
-14.5288
 20
-42.1693
 30
0.0
 10
-13.8549
 20
-41.8936
 30
0.0
 10
-13.1474
 20
-41.7508
 30
0.0
 10
-13.1474
 20
-41.7508
 30
0.0
 10
-15.2456
 20
-41.0138
 30
0.0
 10
-16.8265
 20
-39.2624
 30
0.0
 10
-17.3454
 20
-37.0997
 30
0.0
  0
SPLINE
  5
67
330
1F
100
AcDbEntity
  8
layer 1
 62
     7
370
     9
100
AcDbSpline
210
0.0
220
0.0
230
1.0
 70
    11
 71
     3
 72
    84
 73
    80
 74
     0
 42
0.0000000001
 43
0.0000000001
 12
1.0
 22
0.0
 32
0.0
 13
1.0
 23
0.0
 33
0.0
 40
0.0
 40
0.0
 40
0.0
 40
0.0
 40
0.0476190476190476
 40
0.0476190476190476
 40
0.0476190476190476
 40
0.0476190476190476
 40
0.0952380952380952
 40
0.0952380952380952
 40
0.0952380952380952
 40
0.0952380952380952
 40
0.1428571428571428
 40
0.1428571428571428
 40
0.1428571428571428
 40
0.1428571428571428
 40
0.1904761904761905
 40
0.1904761904761905
 40
0.1904761904761905
 40
0.1904761904761905
 40
0.2380952380952381
 40
0.2380952380952381
 40
0.2380952380952381
 40
0.2380952380952381
 40
0.2857142857142857
 40
0.2857142857142857
 40
0.2857142857142857
 40
0.2857142857142857
 40
0.3333333333333333
 40
0.3333333333333333
 40
0.3333333333333333
 40
0.3333333333333333
 40
0.3809523809523809
 40
0.3809523809523809
 40
0.3809523809523809
 40
0.3809523809523809
 40
0.4285714285714285
 40
0.4285714285714285
 40
0.4285714285714285
 40
0.4285714285714285
 40
0.4761904761904762
 40
0.4761904761904762
 40
0.4761904761904762
 40
0.4761904761904762
 40
0.5238095238095238
 40
0.5238095238095238
 40
0.5238095238095238
 40
0.5238095238095238
 40
0.5714285714285714
 40
0.5714285714285714
 40
0.5714285714285714
 40
0.5714285714285714
 40
0.6190476190476191
 40
0.6190476190476191
 40
0.6190476190476191
 40
0.6190476190476191
 40
0.6666666666666666
 40
0.6666666666666666
 40
0.6666666666666666
 40
0.6666666666666666
 40
0.7142857142857143
 40
0.7142857142857143
 40
0.7142857142857143
 40
0.7142857142857143
 40
0.7619047619047619
 40
0.7619047619047619
 40
0.7619047619047619
 40
0.7619047619047619
 40
0.8095238095238095
 40
0.8095238095238095
 40
0.8095238095238095
 40
0.8095238095238095
 40
0.8571428571428571
 40
0.8571428571428571
 40
0.8571428571428571
 40
0.8571428571428571
 40
0.9047619047619048
 40
0.9047619047619048
 40
0.9047619047619048
 40
0.9047619047619048
 40
1.0
 40
1.0
 40
1.0
 40
1.0
 10
-17.3454
 20
-13.0446
 30
0.0
 10
-17.3454
 20
-13.0446
 30
0.0
 10
-17.3454
 20
-34.0437
 30
0.0
 10
-17.3454
 20
-34.0437
 30
0.0
 10
-17.3454
 20
-34.0437
 30
0.0
 10
-16.9075
 20
-32.2187
 30
0.0
 10
-15.7075
 20
-30.6692
 30
0.0
 10
-14.0501
 20
-29.7885
 30
0.0
 10
-14.0501
 20
-29.7885
 30
0.0
 10
-12.6396
 20
-29.1027
 30
0.0
 10
-11.1554
 20
-28.5802
 30
0.0
 10
-9.6264
 20
-28.2312
 30
0.0
 10
-9.6264
 20
-28.2312
 30
0.0
 10
-8.6097
 20
-28.1114
 30
0.0
 10
-7.6966
 20
-27.552
 30
0.0
 10
-7.1279
 20
-26.701
 30
0.0
 10
-7.1279
 20
-26.701
 30
0.0
 10
-6.559
 20
-25.85
 30
0.0
 10
-6.3917
 20
-24.7926
 30
0.0
 10
-6.6697
 20
-23.8075
 30
0.0
 10
-6.6697
 20
-23.8075
 30
0.0
 10
-7.0255
 20
-23.1018
 30
0.0
 10
-7.6849
 20
-22.5978
 30
0.0
 10
-8.4591
 20
-22.4395
 30
0.0
 10
-8.4591
 20
-22.4395
 30
0.0
 10
-9.2334
 20
-22.281
 30
0.0
 10
-10.0377
 20
-22.4856
 30
0.0
 10
-10.6419
 20
-22.9949
 30
0.0
 10
-10.6419
 20
-22.9949
 30
0.0
 10
-10.6794
 20
-23.0447
 30
0.0
 10
-10.7378
 20
-23.0739
 30
0.0
 10
-10.8
 20
-23.0739
 30
0.0
 10
-10.8
 20
-23.0739
 30
0.0
 10
-10.8621
 20
-23.0739
 30
0.0
 10
-10.9207
 20
-23.0447
 30
0.0
 10
-10.958
 20
-22.9949
 30
0.0
 10
-10.958
 20
-22.9949
 30
0.0
 10
-11.7782
 20
-21.745
 30
0.0
 10
-11.5791
 20
-20.0859
 30
0.0
 10
-10.4864
 20
-19.0658
 30
0.0
 10
-10.4864
 20
-19.0658
 30
0.0
 10
-9.3938
 20
-18.0454
 30
0.0
 10
-7.725
 20
-17.9605
 30
0.0
 10
-6.5343
 20
-18.8645
 30
0.0
 10
-6.5343
 20
-18.8645
 30
0.0
 10
-5.4972
 20
-19.7495
 30
0.0
 10
-4.6788
 20
-20.8625
 30
0.0
 10
-4.1433
 20
-22.1163
 30
0.0
 10
-4.1433
 20
-22.1163
 30
0.0
 10
-4.9031
 20
-18.2954
 30
0.0
 10
-4.8488
 20
-14.3571
 30
0.0
 10
-3.9838
 20
-10.5586
 30
0.0
 10
-3.9838
 20
-10.5586
 30
0.0
 10
-5.9021
 20
-12.9444
 30
0.0
 10
-9.3811
 20
-13.3466
 30
0.0
 10
-11.7931
 20
-11.4615
 30
0.0
 10
-11.7931
 20
-11.4615
 30
0.0
 10
-12.51
 20
-10.9319
 30
0.0
 10
-13.505
 20
-10.9997
 30
0.0
 10
-14.1435
 20
-11.6214
 30
0.0
 10
-14.1435
 20
-11.6214
 30
0.0
 10
-14.782
 20
-12.2432
 30
0.0
 10
-14.8764
 20
-13.236
 30
0.0
 10
-14.3662
 20
-13.9668
 30
0.0
 10
-14.3662
 20
-13.9668
 30
0.0
 10
-14.2608
 20
-14.073
 30
0.0
 10
-14.2608
 20
-14.2442
 30
0.0
 10
-14.3662
 20
-14.3504
 30
0.0
 10
-14.3662
 20
-14.3504
 30
0.0
 10
-14.9202
 20
-14.6035
 30
0.0
 10
-15.5549
 20
-14.6132
 30
0.0
 10
-16.1164
 20
-14.3775
 30
0.0
 10
-16.1164
 20
-14.3775
 30
0.0
 10
-16.6779
 20
-14.1416
 30
0.0
 10
-17.1154
 20
-13.6817
 30
0.0
 10
-17.3229
 20
-13.1091
 30
0.0
 10
-17.3229
 20
-13.1091
 30
0.0
 10
-17.3309
 20
-13.0879
 30
0.0
 10
-17.3385
 20
-13.0663
 30
0.0
 10
-17.3454
 20
-13.0446
 30
0.0
  0
SPLINE
  5
68
330
1F
100
AcDbEntity
  8
layer 1
 62
     7
370
     9
100
AcDbSpline
210
0.0
220
0.0
230
1.0
 70
    11
 71
     3
 72
    36
 73
    32
 74
     0
 42
0.0000000001
 43
0.0000000001
 12
1.0
 22
0.0
 32
0.0
 13
1.0
 23
0.0
 33
0.0
 40
0.0
 40
0.0
 40
0.0
 40
0.0
 40
0.1111111111111111
 40
0.1111111111111111
 40
0.1111111111111111
 40
0.1111111111111111
 40
0.2222222222222222
 40
0.2222222222222222
 40
0.2222222222222222
 40
0.2222222222222222
 40
0.3333333333333333
 40
0.3333333333333333
 40
0.3333333333333333
 40
0.3333333333333333
 40
0.4444444444444444
 40
0.4444444444444444
 40
0.4444444444444444
 40
0.4444444444444444
 40
0.5555555555555556
 40
0.5555555555555556
 40
0.5555555555555556
 40
0.5555555555555556
 40
0.6666666666666666
 40
0.6666666666666666
 40
0.6666666666666666
 40
0.6666666666666666
 40
0.7777777777777778
 40
0.7777777777777778
 40
0.7777777777777778
 40
0.7777777777777778
 40
1.0
 40
1.0
 40
1.0
 40
1.0
 10
-17.3454
 20
4.428
 30
0.0
 10
-17.3454
 20
4.428
 30
0.0
 10
-17.3454
 20
-9.8187
 30
0.0
 10
-17.3454
 20
-9.8187
 30
0.0
 10
-17.3454
 20
-9.8187
 30
0.0
 10
-17.3309
 20
-9.7793
 30
0.0
 10
-17.3158
 20
-9.74
 30
0.0
 10
-17.3003
 20
-9.7009
 30
0.0
 10
-17.3003
 20
-9.7009
 30
0.0
 10
-16.9898
 20
-8.9269
 30
0.0
 10
-16.3604
 20
-8.3243
 30
0.0
 10
-15.5738
 20
-8.0477
 30
0.0
 10
-15.5738
 20
-8.0477
 30
0.0
 10
-14.7869
 20
-7.7711
 30
0.0
 10
-13.919
 20
-7.8471
 30
0.0
 10
-13.1925
 20
-8.2565
 30
0.0
 10
-13.1925
 20
-8.2565
 30
0.0
 10
-14.3439
 20
-6.9545
 30
0.0
 10
-14.9214
 20
-5.243
 30
0.0
 10
-14.7939
 20
-3.5096
 30
0.0
 10
-14.7939
 20
-3.5096
 30
0.0
 10
-14.6665
 20
-1.776
 30
0.0
 10
-13.845
 20
-0.1674
 30
0.0
 10
-12.5153
 20
0.9522
 30
0.0
 10
-12.5153
 20
0.9522
 30
0.0
 10
-13.6197
 20
0.7506
 30
0.0
 10
-14.7583
 20
1.0073
 30
0.0
 10
-15.6695
 20
1.6629
 30
0.0
 10
-15.6695
 20
1.6629
 30
0.0
 10
-16.5806
 20
2.3186
 30
0.0
 10
-17.1857
 20
3.317
 30
0.0
 10
-17.3454
 20
4.428
 30
0.0
  0
SPLINE
  5
69
330
1F
100
AcDbEntity
  8
layer 1
 62
     7
370
     9
100
AcDbSpline
210
0.0
220
0.0
230
1.0
 70
    11
 71
     3
 72
    44
 73
    40
 74
     0
 42
0.0000000001
 43
0.0000000001
 12
1.0
 22
0.0
 32
0.0
 13
1.0
 23
0.0
 33
0.0
 40
0.0
 40
0.0
 40
0.0
 40
0.0
 40
0.0909090909090909
 40
0.0909090909090909
 40
0.0909090909090909
 40
0.0909090909090909
 40
0.1818181818181818
 40
0.1818181818181818
 40
0.1818181818181818
 40
0.1818181818181818
 40
0.2727272727272727
 40
0.2727272727272727
 40
0.2727272727272727
 40
0.2727272727272727
 40
0.3636363636363636
 40
0.3636363636363636
 40
0.3636363636363636
 40
0.3636363636363636
 40
0.4545454545454545
 40
0.4545454545454545
 40
0.4545454545454545
 40
0.4545454545454545
 40
0.5454545454545454
 40
0.5454545454545454
 40
0.5454545454545454
 40
0.5454545454545454
 40
0.6363636363636364
 40
0.6363636363636364
 40
0.6363636363636364
 40
0.6363636363636364
 40
0.7272727272727273
 40
0.7272727272727273
 40
0.7272727272727273
 40
0.7272727272727273
 40
0.8181818181818182
 40
0.8181818181818182
 40
0.8181818181818182
 40
0.8181818181818182
 40
1.0
 40
1.0
 40
1.0
 40
1.0
 10
-5.7696
 20
-5.6298
 30
0.0
 10
-5.7611
 20
-5.5787
 30
0.0
 10
-5.7317
 20
-5.5333
 30
0.0
 10
-5.6881
 20
-5.5049
 30
0.0
 10
-5.6881
 20
-5.5049
 30
0.0
 10
-5.6449
 20
-5.4765
 30
0.0
 10
-5.5914
 20
-5.4676
 30
0.0
 10
-5.5412
 20
-5.4803
 30
0.0
 10
-5.5412
 20
-5.4803
 30
0.0
 10
-4.1505
 20
-5.5648
 30
0.0
 10
-3.059
 20
-6.7055
 30
0.0
 10
-3.0359
 20
-8.0985
 30
0.0
 10
-3.0359
 20
-8.0985
 30
0.0
 10
-2.7451
 20
-5.4942
 30
0.0
 10
-1.1208
 20
-3.2285
 30
0.0
 10
1.2525
 20
-2.1174
 30
0.0
 10
1.2525
 20
-2.1174
 30
0.0
 10
-1.7642
 20
-0.2045
 30
0.0
 10
-5.5295
 20
0.0994
 30
0.0
 10
-8.8139
 20
-1.3048
 30
0.0
 10
-8.8139
 20
-1.3048
 30
0.0
 10
-9.9847
 20
-1.7941
 30
0.0
 10
-10.8287
 20
-2.8423
 30
0.0
 10
-11.0564
 20
-4.0907
 30
0.0
 10
-11.0564
 20
-4.0907
 30
0.0
 10
-11.2842
 20
-5.339
 30
0.0
 10
-10.8649
 20
-6.6179
 30
0.0
 10
-9.9423
 20
-7.4892
 30
0.0
 10
-9.9423
 20
-7.4892
 30
0.0
 10
-9.2256
 20
-8.0935
 30
0.0
 10
-8.2335
 20
-8.2525
 30
0.0
 10
-7.3637
 20
-7.9027
 30
0.0
 10
-7.3637
 20
-7.9027
 30
0.0
 10
-6.4937
 20
-7.5528
 30
0.0
 10
-5.8882
 20
-6.7512
 30
0.0
 10
-5.7894
 20
-5.8189
 30
0.0
 10
-5.7894
 20
-5.8189
 30
0.0
 10
-5.7803
 20
-5.7561
 30
0.0
 10
-5.7738
 20
-5.6931
 30
0.0
 10
-5.7696
 20
-5.6298
 30
0.0
  0
SPLINE
  5
6A
330
1F
100
AcDbEntity
  8
layer 1
 62
     7
370
     9
100
AcDbSpline
210
0.0
220
0.0
230
1.0
 70
    11
 71
     3
 72
    28
 73
    24
 74
     0
 42
0.0000000001
 43
0.0000000001
 12
1.0
 22
0.0
 32
0.0
 13
1.0
 23
0.0
 33
0.0
 40
0.0
 40
0.0
 40
0.0
 40
0.0
 40
0.1428571428571428
 40
0.1428571428571428
 40
0.1428571428571428
 40
0.1428571428571428
 40
0.2857142857142857
 40
0.2857142857142857
 40
0.2857142857142857
 40
0.2857142857142857
 40
0.4285714285714285
 40
0.4285714285714285
 40
0.4285714285714285
 40
0.4285714285714285
 40
0.5714285714285714
 40
0.5714285714285714
 40
0.5714285714285714
 40
0.5714285714285714
 40
0.7142857142857143
 40
0.7142857142857143
 40
0.7142857142857143
 40
0.7142857142857143
 40
1.0
 40
1.0
 40
1.0
 40
1.0
 10
1.388
 20
-25.3195
 30
0.0
 10
1.1008
 20
-27.2886
 30
0.0
 10
0.5702
 20
-29.2142
 30
0.0
 10
-0.192
 20
-31.0524
 30
0.0
 10
-0.192
 20
-31.0524
 30
0.0
 10
0.4583
 20
-26.1695
 30
0.0
 10
0.1827
 20
-21.2077
 30
0.0
 10
-1.0045
 20
-16.4269
 30
0.0
 10
-1.0045
 20
-16.4269
 30
0.0
 10
-1.7291
 20
-14.1627
 30
0.0
 10
-1.8228
 20
-11.7437
 30
0.0
 10
-1.2753
 20
-9.4302
 30
0.0
 10
-1.2753
 20
-9.4302
 30
0.0
 10
-1.1215
 20
-11.2157
 30
0.0
 10
-0.1412
 20
-12.8265
 30
0.0
 10
1.3741
 20
-13.7835
 30
0.0
 10
1.3741
 20
-13.7835
 30
0.0
 10
2.8895
 20
-14.7406
 30
0.0
 10
4.7652
 20
-14.9337
 30
0.0
 10
6.4437
 20
-14.3053
 30
0.0
 10
6.4437
 20
-14.3053
 30
0.0
 10
3.6545
 20
-17.3619
 30
0.0
 10
1.8872
 20
-21.2119
 30
0.0
 10
1.388
 20
-25.3195
 30
0.0
  0
SPLINE
  5
6B
330
1F
100
AcDbEntity
  8
layer 1
 62
     7
370
     9
100
AcDbSpline
210
0.0
220
0.0
230
1.0
 70
    11
 71
     3
 72
    48
 73
    44
 74
     0
 42
0.0000000001
 43
0.0000000001
 12
1.0
 22
0.0
 32
0.0
 13
1.0
 23
0.0
 33
0.0
 40
0.0
 40
0.0
 40
0.0
 40
0.0
 40
0.0833333333333333
 40
0.0833333333333333
 40
0.0833333333333333
 40
0.0833333333333333
 40
0.1666666666666667
 40
0.1666666666666667
 40
0.1666666666666667
 40
0.1666666666666667
 40
0.25
 40
0.25
 40
0.25
 40
0.25
 40
0.3333333333333333
 40
0.3333333333333333
 40
0.3333333333333333
 40
0.3333333333333333
 40
0.4166666666666667
 40
0.4166666666666667
 40
0.4166666666666667
 40
0.4166666666666667
 40
0.5
 40
0.5
 40
0.5
 40
0.5
 40
0.5833333333333334
 40
0.5833333333333334
 40
0.5833333333333334
 40
0.5833333333333334
 40
0.6666666666666666
 40
0.6666666666666666
 40
0.6666666666666666
 40
0.6666666666666666
 40
0.75
 40
0.75
 40
0.75
 40
0.75
 40
0.8333333333333334
 40
0.8333333333333334
 40
0.8333333333333334
 40
0.8333333333333334
 40
1.0
 40
1.0
 40
1.0
 40
1.0
 10
-5.1575
 20
-65.7203
 30
0.0
 10
-3.5215
 20
-69.2511
 30
0.0
 10
0.072
 20
-71.457
 30
0.0
 10
3.961
 20
-71.3177
 30
0.0
 10
3.961
 20
-71.3177
 30
0.0
 10
4.058
 20
-71.3191
 30
0.0
 10
4.1479
 20
-71.267
 30
0.0
 10
4.1951
 20
-71.182
 30
0.0
 10
4.1951
 20
-71.182
 30
0.0
 10
4.2422
 20
-71.0971
 30
0.0
 10
4.2391
 20
-70.9932
 30
0.0
 10
4.1866
 20
-70.9115
 30
0.0
 10
4.1866
 20
-70.9115
 30
0.0
 10
1.581
 20
-67.1935
 30
0.0
 10
0.0932
 20
-62.8081
 30
0.0
 10
-0.1018
 20
-58.2722
 30
0.0
 10
-0.1018
 20
-58.2722
 30
0.0
 10
-0.1536
 20
-52.157
 30
0.0
 10
1.7176
 20
-46.1803
 30
0.0
 10
5.2474
 20
-41.1866
 30
0.0
 10
5.2474
 20
-41.1866
 30
0.0
 10
7.3037
 20
-38.1948
 30
0.0
 10
9.6843
 20
-35.4397
 30
0.0
 10
12.3459
 20
-32.9708
 30
0.0
 10
12.3459
 20
-32.9708
 30
0.0
 10
12.401
 20
-32.8905
 30
0.0
 10
12.3951
 20
-32.783
 30
0.0
 10
12.3317
 20
-32.7089
 30
0.0
 10
12.3317
 20
-32.7089
 30
0.0
 10
12.2682
 20
-32.635
 30
0.0
 10
12.1628
 20
-32.6127
 30
0.0
 10
12.0749
 20
-32.655
 30
0.0
 10
12.0749
 20
-32.655
 30
0.0
 10
12.0749
 20
-32.655
 30
0.0
 10
11.3188
 20
-33.0837
 30
0.0
 10
11.3188
 20
-33.0837
 30
0.0
 10
11.3188
 20
-33.0837
 30
0.0
 10
4.4732
 20
-37.5195
 30
0.0
 10
-1.0229
 20
-43.7497
 30
0.0
 10
-4.5706
 20
-51.0949
 30
0.0
 10
-4.5706
 20
-51.0949
 30
0.0
 10
-6.6131
 20
-55.7193
 30
0.0
 10
-6.8229
 20
-60.9471
 30
0.0
 10
-5.1575
 20
-65.7203
 30
0.0
  0
SPLINE
  5
6C
330
1F
100
AcDbEntity
  8
layer 1
 62
     7
370
     9
100
AcDbSpline
210
0.0
220
0.0
230
1.0
 70
    11
 71
     3
 72
    36
 73
    32
 74
     0
 42
0.0000000001
 43
0.0000000001
 12
1.0
 22
0.0
 32
0.0
 13
1.0
 23
0.0
 33
0.0
 40
0.0
 40
0.0
 40
0.0
 40
0.0
 40
0.1111111111111111
 40
0.1111111111111111
 40
0.1111111111111111
 40
0.1111111111111111
 40
0.2222222222222222
 40
0.2222222222222222
 40
0.2222222222222222
 40
0.2222222222222222
 40
0.3333333333333333
 40
0.3333333333333333
 40
0.3333333333333333
 40
0.3333333333333333
 40
0.4444444444444444
 40
0.4444444444444444
 40
0.4444444444444444
 40
0.4444444444444444
 40
0.5555555555555556
 40
0.5555555555555556
 40
0.5555555555555556
 40
0.5555555555555556
 40
0.6666666666666666
 40
0.6666666666666666
 40
0.6666666666666666
 40
0.6666666666666666
 40
0.7777777777777778
 40
0.7777777777777778
 40
0.7777777777777778
 40
0.7777777777777778
 40
1.0
 40
1.0
 40
1.0
 40
1.0
 10
-10.3712
 20
-46.7388
 30
0.0
 10
-10.3911
 20
-46.661
 30
0.0
 10
-10.4567
 20
-46.6034
 30
0.0
 10
-10.5364
 20
-46.5933
 30
0.0
 10
-10.5364
 20
-46.5933
 30
0.0
 10
-10.6161
 20
-46.5833
 30
0.0
 10
-10.6938
 20
-46.6232
 30
0.0
 10
-10.7323
 20
-46.6936
 30
0.0
 10
-10.7323
 20
-46.6936
 30
0.0
 10
-11.1743
 20
-47.3768
 30
0.0
 10
-11.9738
 20
-47.7403
 30
0.0
 10
-12.7792
 20
-47.6239
 30
0.0
 10
-12.7792
 20
-47.6239
 30
0.0
 10
-13.5848
 20
-47.5075
 30
0.0
 10
-14.2486
 20
-46.9324
 30
0.0
 10
-14.4791
 20
-46.1519
 30
0.0
 10
-14.4791
 20
-46.1519
 30
0.0
 10
-14.5283
 20
-44.4437
 30
0.0
 10
-13.3511
 20
-42.9438
 30
0.0
 10
-11.6802
 20
-42.5859
 30
0.0
 10
-11.6802
 20
-42.5859
 30
0.0
 10
-9.7524
 20
-42.4928
 30
0.0
 10
-7.8351
 20
-42.2438
 30
0.0
 10
-5.9473
 20
-41.8409
 30
0.0
 10
-5.9473
 20
-41.8409
 30
0.0
 10
-7.7604
 20
-43.7796
 30
0.0
 10
-9.1855
 20
-46.0473
 30
0.0
 10
-10.1454
 20
-48.5218
 30
0.0
 10
-10.1454
 20
-48.5218
 30
0.0
 10
-9.9974
 20
-47.92
 30
0.0
 10
-10.0777
 20
-47.2847
 30
0.0
 10
-10.3712
 20
-46.7388
 30
0.0
  0
SPLINE
  5
6D
330
1F
100
AcDbEntity
  8
layer 1
 62
     7
370
     9
100
AcDbSpline
210
0.0
220
0.0
230
1.0
 70
    11
 71
     3
 72
    52
 73
    48
 74
     0
 42
0.0000000001
 43
0.0000000001
 12
1.0
 22
0.0
 32
0.0
 13
1.0
 23
0.0
 33
0.0
 40
0.0
 40
0.0
 40
0.0
 40
0.0
 40
0.0769230769230769
 40
0.0769230769230769
 40
0.0769230769230769
 40
0.0769230769230769
 40
0.1538461538461539
 40
0.1538461538461539
 40
0.1538461538461539
 40
0.1538461538461539
 40
0.2307692307692308
 40
0.2307692307692308
 40
0.2307692307692308
 40
0.2307692307692308
 40
0.3076923076923077
 40
0.3076923076923077
 40
0.3076923076923077
 40
0.3076923076923077
 40
0.3846153846153846
 40
0.3846153846153846
 40
0.3846153846153846
 40
0.3846153846153846
 40
0.4615384615384616
 40
0.4615384615384616
 40
0.4615384615384616
 40
0.4615384615384616
 40
0.5384615384615384
 40
0.5384615384615384
 40
0.5384615384615384
 40
0.5384615384615384
 40
0.6153846153846154
 40
0.6153846153846154
 40
0.6153846153846154
 40
0.6153846153846154
 40
0.6923076923076923
 40
0.6923076923076923
 40
0.6923076923076923
 40
0.6923076923076923
 40
0.7692307692307693
 40
0.7692307692307693
 40
0.7692307692307693
 40
0.7692307692307693
 40
0.8461538461538461
 40
0.8461538461538461
 40
0.8461538461538461
 40
0.8461538461538461
 40
1.0
 40
1.0
 40
1.0
 40
1.0
 10
-3.8483
 20
-24.2362
 30
0.0
 10
-4.0927
 20
-27.0264
 30
0.0
 10
-6.0312
 20
-29.3776
 30
0.0
 10
-8.7235
 20
-30.1496
 30
0.0
 10
-8.7235
 20
-30.1496
 30
0.0
 10
-6.9485
 20
-30.4935
 30
0.0
 10
-5.7852
 20
-32.207
 30
0.0
 10
-6.1207
 20
-33.9837
 30
0.0
 10
-6.1207
 20
-33.9837
 30
0.0
 10
-6.4561
 20
-35.7602
 30
0.0
 10
-8.1643
 20
-36.9317
 30
0.0
 10
-9.9423
 20
-36.6047
 30
0.0
 10
-9.9423
 20
-36.6047
 30
0.0
 10
-10.0084
 20
-36.6242
 30
0.0
 10
-10.0799
 20
-36.605
 30
0.0
 10
-10.1275
 20
-36.5551
 30
0.0
 10
-10.1275
 20
-36.5551
 30
0.0
 10
-10.1749
 20
-36.5051
 30
0.0
 10
-10.1907
 20
-36.4328
 30
0.0
 10
-10.168
 20
-36.3678
 30
0.0
 10
-10.168
 20
-36.3678
 30
0.0
 10
-9.5414
 20
-35.7248
 30
0.0
 10
-9.4118
 20
-34.7463
 30
0.0
 10
-9.8494
 20
-33.9623
 30
0.0
 10
-9.8494
 20
-33.9623
 30
0.0
 10
-10.287
 20
-33.1785
 30
0.0
 10
-11.1878
 20
-32.7751
 30
0.0
 10
-12.064
 20
-32.9708
 30
0.0
 10
-12.064
 20
-32.9708
 30
0.0
 10
-12.9521
 20
-33.1517
 30
0.0
 10
-13.7239
 20
-33.6966
 30
0.0
 10
-14.1914
 20
-34.4731
 30
0.0
 10
-14.1914
 20
-34.4731
 30
0.0
 10
-14.6589
 20
-35.2496
 30
0.0
 10
-14.7797
 20
-36.1864
 30
0.0
 10
-14.5241
 20
-37.0562
 30
0.0
 10
-14.5241
 20
-37.0562
 30
0.0
 10
-13.8368
 20
-39.3518
 30
0.0
 10
-11.5678
 20
-40.794
 30
0.0
 10
-9.1975
 20
-40.4416
 30
0.0
 10
-9.1975
 20
-40.4416
 30
0.0
 10
-5.8545
 20
-39.7732
 30
0.0
 10
-3.3807
 20
-36.9379
 30
0.0
 10
-3.1712
 20
-33.5352
 30
0.0
 10
-3.1712
 20
-33.5352
 30
0.0
 10
-2.9454
 20
-30.419
 30
0.0
 10
-3.1736
 20
-27.2866
 30
0.0
 10
-3.8483
 20
-24.2362
 30
0.0
  0
SPLINE
  5
6E
330
1F
100
AcDbEntity
  8
layer 1
 62
     7
370
     9
100
AcDbSpline
210
0.0
220
0.0
230
1.0
 70
    11
 71
     3
 72
    96
 73
    92
 74
     0
 42
0.0000000001
 43
0.0000000001
 12
1.0
 22
0.0
 32
0.0
 13
1.0
 23
0.0
 33
0.0
 40
0.0
 40
0.0
 40
0.0
 40
0.0
 40
0.0416666666666667
 40
0.0416666666666667
 40
0.0416666666666667
 40
0.0416666666666667
 40
0.0833333333333333
 40
0.0833333333333333
 40
0.0833333333333333
 40
0.0833333333333333
 40
0.125
 40
0.125
 40
0.125
 40
0.125
 40
0.1666666666666667
 40
0.1666666666666667
 40
0.1666666666666667
 40
0.1666666666666667
 40
0.2083333333333333
 40
0.2083333333333333
 40
0.2083333333333333
 40
0.2083333333333333
 40
0.25
 40
0.25
 40
0.25
 40
0.25
 40
0.2916666666666667
 40
0.2916666666666667
 40
0.2916666666666667
 40
0.2916666666666667
 40
0.3333333333333333
 40
0.3333333333333333
 40
0.3333333333333333
 40
0.3333333333333333
 40
0.375
 40
0.375
 40
0.375
 40
0.375
 40
0.4166666666666667
 40
0.4166666666666667
 40
0.4166666666666667
 40
0.4166666666666667
 40
0.4583333333333333
 40
0.4583333333333333
 40
0.4583333333333333
 40
0.4583333333333333
 40
0.5
 40
0.5
 40
0.5
 40
0.5
 40
0.5416666666666666
 40
0.5416666666666666
 40
0.5416666666666666
 40
0.5416666666666666
 40
0.5833333333333334
 40
0.5833333333333334
 40
0.5833333333333334
 40
0.5833333333333334
 40
0.625
 40
0.625
 40
0.625
 40
0.625
 40
0.6666666666666666
 40
0.6666666666666666
 40
0.6666666666666666
 40
0.6666666666666666
 40
0.7083333333333334
 40
0.7083333333333334
 40
0.7083333333333334
 40
0.7083333333333334
 40
0.75
 40
0.75
 40
0.75
 40
0.75
 40
0.7916666666666666
 40
0.7916666666666666
 40
0.7916666666666666
 40
0.7916666666666666
 40
0.8333333333333334
 40
0.8333333333333334
 40
0.8333333333333334
 40
0.8333333333333334
 40
0.875
 40
0.875
 40
0.875
 40
0.875
 40
0.9166666666666666
 40
0.9166666666666666
 40
0.9166666666666666
 40
0.9166666666666666
 40
1.0
 40
1.0
 40
1.0
 40
1.0
 10
13.8693
 20
-90.9088
 30
0.0
 10
12.4625
 20
-92.0716
 30
0.0
 10
11.4074
 20
-93.6035
 30
0.0
 10
10.8223
 20
-95.3324
 30
0.0
 10
10.8223
 20
-95.3324
 30
0.0
 10
11.036
 20
-91.4767
 30
0.0
 10
9.3917
 20
-87.7515
 30
0.0
 10
6.3986
 20
-85.3114
 30
0.0
 10
6.3986
 20
-85.3114
 30
0.0
 10
2.2181
 20
-82.3741
 30
0.0
 10
-3.1346
 20
-81.6667
 30
0.0
 10
-7.9346
 20
-83.4171
 30
0.0
 10
-7.9346
 20
-83.4171
 30
0.0
 10
-7.0627
 20
-82.5404
 30
0.0
 10
-6.7648
 20
-81.2444
 30
0.0
 10
-7.1661
 20
-80.0749
 30
0.0
 10
-7.1661
 20
-80.0749
 30
0.0
 10
-7.2047
 20
-79.9702
 30
0.0
 10
-7.3003
 20
-79.8972
 30
0.0
 10
-7.4115
 20
-79.8877
 30
0.0
 10
-7.4115
 20
-79.8877
 30
0.0
 10
-7.5226
 20
-79.878
 30
0.0
 10
-7.6293
 20
-79.9334
 30
0.0
 10
-7.6852
 20
-80.0298
 30
0.0
 10
-7.6852
 20
-80.0298
 30
0.0
 10
-8.2555
 20
-80.6196
 30
0.0
 10
-9.0569
 20
-80.9274
 30
0.0
 10
-9.8751
 20
-80.8708
 30
0.0
 10
-9.8751
 20
-80.8708
 30
0.0
 10
-10.6936
 20
-80.8142
 30
0.0
 10
-11.445
 20
-80.399
 30
0.0
 10
-11.9286
 20
-79.7364
 30
0.0
 10
-11.9286
 20
-79.7364
 30
0.0
 10
-12.2975
 20
-78.6964
 30
0.0
 10
-12.0776
 20
-77.5381
 30
0.0
 10
-11.3528
 20
-76.7058
 30
0.0
 10
-11.3528
 20
-76.7058
 30
0.0
 10
-10.6281
 20
-75.8737
 30
0.0
 10
-9.511
 20
-75.4964
 30
0.0
 10
-8.4302
 20
-75.7189
 30
0.0
 10
-8.4302
 20
-75.7189
 30
0.0
 10
-6.8176
 20
-76.1251
 30
0.0
 10
-5.2894
 20
-76.8127
 30
0.0
 10
-3.9161
 20
-77.7502
 30
0.0
 10
-3.9161
 20
-77.7502
 30
0.0
 10
-0.6214
 20
-79.8929
 30
0.0
 10
3.6547
 20
-79.7761
 30
0.0
 10
6.8273
 20
-77.4568
 30
0.0
 10
6.8273
 20
-77.4568
 30
0.0
 10
6.912
 20
-77.382
 30
0.0
 10
7.0025
 20
-77.3142
 30
0.0
 10
7.0982
 20
-77.2537
 30
0.0
 10
7.0982
 20
-77.2537
 30
0.0
 10
6.8145
 20
-78.493
 30
0.0
 10
7.1452
 20
-79.793
 30
0.0
 10
7.9863
 20
-80.7462
 30
0.0
 10
7.9863
 20
-80.7462
 30
0.0
 10
8.8276
 20
-81.6993
 30
0.0
 10
10.0765
 20
-82.1888
 30
0.0
 10
11.3414
 20
-82.0612
 30
0.0
 10
11.3414
 20
-82.0612
 30
0.0
 10
10.7317
 20
-82.7736
 30
0.0
 10
10.4313
 20
-83.6996
 30
0.0
 10
10.5062
 20
-84.6343
 30
0.0
 10
10.5062
 20
-84.6343
 30
0.0
 10
10.5639
 20
-84.7542
 30
0.0
 10
10.6896
 20
-84.8262
 30
0.0
 10
10.8223
 20
-84.8148
 30
0.0
 10
10.8223
 20
-84.8148
 30
0.0
 10
12.7639
 20
-85.0979
 30
0.0
 10
14.7427
 20
-84.6733
 30
0.0
 10
16.3973
 20
-83.6186
 30
0.0
 10
16.3973
 20
-83.6186
 30
0.0
 10
14.878
 20
-84.8091
 30
0.0
 10
13.5924
 20
-86.2708
 30
0.0
 10
12.6054
 20
-87.9295
 30
0.0
 10
12.6054
 20
-87.9295
 30
0.0
 10
12.1259
 20
-88.7028
 30
0.0
 10
11.7753
 20
-89.549
 30
0.0
 10
11.5672
 20
-90.4347
 30
0.0
 10
11.5672
 20
-90.4347
 30
0.0
 10
11.5116
 20
-90.5445
 30
0.0
 10
11.5134
 20
-90.6744
 30
0.0
 10
11.5719
 20
-90.7825
 30
0.0
 10
11.5719
 20
-90.7825
 30
0.0
 10
11.6305
 20
-90.8905
 30
0.0
 10
11.7384
 20
-90.963
 30
0.0
 10
11.8605
 20
-90.9764
 30
0.0
 10
11.8605
 20
-90.9764
 30
0.0
 10
12.5258
 20
-91.1165
 30
0.0
 10
13.2151
 20
-91.0933
 30
0.0
 10
13.8693
 20
-90.9088
 30
0.0
  0
SPLINE
  5
6F
330
1F
100
AcDbEntity
  8
layer 1
 62
     7
370
     9
100
AcDbSpline
210
0.0
220
0.0
230
1.0
 70
    11
 71
     3
 72
    28
 73
    24
 74
     0
 42
0.0000000001
 43
0.0000000001
 12
1.0
 22
0.0
 32
0.0
 13
1.0
 23
0.0
 33
0.0
 40
0.0
 40
0.0
 40
0.0
 40
0.0
 40
0.1428571428571428
 40
0.1428571428571428
 40
0.1428571428571428
 40
0.1428571428571428
 40
0.2857142857142857
 40
0.2857142857142857
 40
0.2857142857142857
 40
0.2857142857142857
 40
0.4285714285714285
 40
0.4285714285714285
 40
0.4285714285714285
 40
0.4285714285714285
 40
0.5714285714285714
 40
0.5714285714285714
 40
0.5714285714285714
 40
0.5714285714285714
 40
0.7142857142857143
 40
0.7142857142857143
 40
0.7142857142857143
 40
0.7142857142857143
 40
1.0
 40
1.0
 40
1.0
 40
1.0
 10
-5.4278
 20
-90.3193
 30
0.0
 10
-12.0817
 20
-91.4546
 30
0.0
 10
-17.0439
 20
-97.0755
 30
0.0
 10
-17.3454
 20
-103.819
 30
0.0
 10
-17.3454
 20
-103.819
 30
0.0
 10
-15.5622
 20
-101.2391
 30
0.0
 10
-12.579
 20
-99.756
 30
0.0
 10
-9.4457
 20
-99.8917
 30
0.0
 10
-9.4457
 20
-99.8917
 30
0.0
 10
-10.2322
 20
-96.2115
 30
0.0
 10
-8.5859
 20
-92.4396
 30
0.0
 10
-5.3529
 20
-90.5136
 30
0.0
 10
-5.3529
 20
-90.5136
 30
0.0
 10
-5.3534
 20
-90.5109
 30
0.0
 10
-5.3542
 20
-90.5082
 30
0.0
 10
-5.3549
 20
-90.5054
 30
0.0
 10
-5.3549
 20
-90.5054
 30
0.0
 10
-5.3648
 20
-90.4735
 30
0.0
 10
-5.3751
 20
-90.4418
 30
0.0
 10
-5.3873
 20
-90.4107
 30
0.0
 10
-5.3873
 20
-90.4107
 30
0.0
 10
-5.3993
 20
-90.3796
 30
0.0
 10
-5.4134
 20
-90.3492
 30
0.0
 10
-5.4278
 20
-90.3193
 30
0.0
  0
SPLINE
  5
70
330
1F
100
AcDbEntity
  8
layer 1
 62
     7
370
     9
100
AcDbSpline
210
0.0
220
0.0
230
1.0
 70
    11
 71
     3
 72
    24
 73
    20
 74
     0
 42
0.0000000001
 43
0.0000000001
 12
1.0
 22
0.0
 32
0.0
 13
1.0
 23
0.0
 33
0.0
 40
0.0
 40
0.0
 40
0.0
 40
0.0
 40
0.1666666666666667
 40
0.1666666666666667
 40
0.1666666666666667
 40
0.1666666666666667
 40
0.3333333333333333
 40
0.3333333333333333
 40
0.3333333333333333
 40
0.3333333333333333
 40
0.5
 40
0.5
 40
0.5
 40
0.5
 40
0.6666666666666666
 40
0.6666666666666666
 40
0.6666666666666666
 40
0.6666666666666666
 40
1.0
 40
1.0
 40
1.0
 40
1.0
 10
-4.1643
 20
-85.1308
 30
0.0
 10
-1.1156
 20
-84.7929
 30
0.0
 10
1.8706
 20
-86.1649
 30
0.0
 10
3.6004
 20
-88.698
 30
0.0
 10
3.6004
 20
-88.698
 30
0.0
 10
5.3301
 20
-91.2311
 30
0.0
 10
5.5208
 20
-94.5118
 30
0.0
 10
4.0963
 20
-97.2284
 30
0.0
 10
4.0963
 20
-97.2284
 30
0.0
 10
4.1855
 20
-95.3214
 30
0.0
 10
3.4952
 20
-93.4601
 30
0.0
 10
2.184
 20
-92.0722
 30
0.0
 10
2.184
 20
-92.0722
 30
0.0
 10
0.8728
 20
-90.6846
 30
0.0
 10
-0.9462
 20
-89.8897
 30
0.0
 10
-2.8552
 20
-89.8705
 30
0.0
 10
-2.8552
 20
-89.8705
 30
0.0
 10
-2.4483
 20
-88.1707
 30
0.0
 10
-2.9426
 20
-86.3808
 30
0.0
 10
-4.1643
 20
-85.1308
 30
0.0
  0
SPLINE
  5
71
330
1F
100
AcDbEntity
  8
layer 1
 62
     7
370
     9
100
AcDbSpline
210
0.0
220
0.0
230
1.0
 70
    11
 71
     3
 72
    48
 73
    44
 74
     0
 42
0.0000000001
 43
0.0000000001
 12
1.0
 22
0.0
 32
0.0
 13
1.0
 23
0.0
 33
0.0
 40
0.0
 40
0.0
 40
0.0
 40
0.0
 40
0.0833333333333333
 40
0.0833333333333333
 40
0.0833333333333333
 40
0.0833333333333333
 40
0.1666666666666667
 40
0.1666666666666667
 40
0.1666666666666667
 40
0.1666666666666667
 40
0.25
 40
0.25
 40
0.25
 40
0.25
 40
0.3333333333333333
 40
0.3333333333333333
 40
0.3333333333333333
 40
0.3333333333333333
 40
0.4166666666666667
 40
0.4166666666666667
 40
0.4166666666666667
 40
0.4166666666666667
 40
0.5
 40
0.5
 40
0.5
 40
0.5
 40
0.5833333333333334
 40
0.5833333333333334
 40
0.5833333333333334
 40
0.5833333333333334
 40
0.6666666666666666
 40
0.6666666666666666
 40
0.6666666666666666
 40
0.6666666666666666
 40
0.75
 40
0.75
 40
0.75
 40
0.75
 40
0.8333333333333334
 40
0.8333333333333334
 40
0.8333333333333334
 40
0.8333333333333334
 40
1.0
 40
1.0
 40
1.0
 40
1.0
 10
-1.7268
 20
-98.0861
 30
0.0
 10
-1.8203
 20
-98.1587
 30
0.0
 10
-1.8712
 20
-98.2735
 30
0.0
 10
-1.8621
 20
-98.3917
 30
0.0
 10
-1.8621
 20
-98.3917
 30
0.0
 10
-1.853
 20
-98.5097
 30
0.0
 10
-1.7852
 20
-98.6155
 30
0.0
 10
-1.6817
 20
-98.6729
 30
0.0
 10
-1.6817
 20
-98.6729
 30
0.0
 10
-0.5168
 20
-99.4934
 30
0.0
 10
0.9971
 20
-99.631
 30
0.0
 10
2.2907
 20
-99.0341
 30
0.0
 10
2.2907
 20
-99.0341
 30
0.0
 10
2.2095
 20
-99.8049
 30
0.0
 10
2.4489
 20
-100.5751
 30
0.0
 10
2.9525
 20
-101.1642
 30
0.0
 10
2.9525
 20
-101.1642
 30
0.0
 10
3.4562
 20
-101.7532
 30
0.0
 10
4.1799
 20
-102.1093
 30
0.0
 10
4.9541
 20
-102.1488
 30
0.0
 10
4.9541
 20
-102.1488
 30
0.0
 10
2.3961
 20
-104.6435
 30
0.0
 10
-1.5612
 20
-105.0016
 30
0.0
 10
-4.5254
 20
-103.0064
 30
0.0
 10
-4.5254
 20
-103.0064
 30
0.0
 10
-6.8672
 20
-101.1984
 30
0.0
 10
-7.5047
 20
-97.9338
 30
0.0
 10
-6.0151
 20
-95.3777
 30
0.0
 10
-6.0151
 20
-95.3777
 30
0.0
 10
-5.541
 20
-94.6271
 30
0.0
 10
-4.7785
 20
-94.1051
 30
0.0
 10
-3.9074
 20
-93.9343
 30
0.0
 10
-3.9074
 20
-93.9343
 30
0.0
 10
-3.0362
 20
-93.7636
 30
0.0
 10
-2.1333
 20
-93.959
 30
0.0
 10
-1.4108
 20
-94.4748
 30
0.0
 10
-1.4108
 20
-94.4748
 30
0.0
 10
-0.8599
 20
-94.9401
 30
0.0
 10
-0.5696
 20
-95.6441
 30
0.0
 10
-0.6326
 20
-96.3625
 30
0.0
 10
-0.6326
 20
-96.3625
 30
0.0
 10
-0.6954
 20
-97.0807
 30
0.0
 10
-1.1036
 20
-97.7236
 30
0.0
 10
-1.7268
 20
-98.0861
 30
0.0
  0
SPLINE
  5
72
330
1F
100
AcDbEntity
  8
layer 1
 62
     7
370
     9
100
AcDbSpline
210
0.0
220
0.0
230
1.0
 70
    11
 71
     3
 72
    16
 73
    12
 74
     0
 42
0.0000000001
 43
0.0000000001
 12
1.0
 22
0.0
 32
0.0
 13
1.0
 23
0.0
 33
0.0
 40
0.0
 40
0.0
 40
0.0
 40
0.0
 40
0.25
 40
0.25
 40
0.25
 40
0.25
 40
0.5
 40
0.5
 40
0.5
 40
0.5
 40
1.0
 40
1.0
 40
1.0
 40
1.0
 10
26.5312
 20
-104.3102
 30
0.0
 10
26.7011
 20
-105.8422
 30
0.0
 10
27.7515
 20
-107.1331
 30
0.0
 10
29.217
 20
-107.6107
 30
0.0
 10
29.217
 20
-107.6107
 30
0.0
 10
29.217
 20
-107.6107
 30
0.0
 10
23.8453
 20
-107.6107
 30
0.0
 10
23.8453
 20
-107.6107
 30
0.0
 10
23.8453
 20
-107.6107
 30
0.0
 10
25.3108
 20
-107.1331
 30
0.0
 10
26.3612
 20
-105.8422
 30
0.0
 10
26.5312
 20
-104.3102
 30
0.0
  0
SPLINE
  5
73
330
1F
100
AcDbEntity
  8
layer 1
 62
     7
370
     9
100
AcDbSpline
210
0.0
220
0.0
230
1.0
 70
    11
 71
     3
 72
   100
 73
    96
 74
     0
 42
0.0000000001
 43
0.0000000001
 12
1.0
 22
0.0
 32
0.0
 13
1.0
 23
0.0
 33
0.0
 40
0.0
 40
0.0
 40
0.0
 40
0.0
 40
0.04
 40
0.04
 40
0.04
 40
0.04
 40
0.08
 40
0.08
 40
0.08
 40
0.08
 40
0.12
 40
0.12
 40
0.12
 40
0.12
 40
0.16
 40
0.16
 40
0.16
 40
0.16
 40
0.2
 40
0.2
 40
0.2
 40
0.2
 40
0.24
 40
0.24
 40
0.24
 40
0.24
 40
0.28
 40
0.28
 40
0.28
 40
0.28
 40
0.32
 40
0.32
 40
0.32
 40
0.32
 40
0.36
 40
0.36
 40
0.36
 40
0.36
 40
0.4
 40
0.4
 40
0.4
 40
0.4
 40
0.44
 40
0.44
 40
0.44
 40
0.44
 40
0.48
 40
0.48
 40
0.48
 40
0.48
 40
0.52
 40
0.52
 40
0.52
 40
0.52
 40
0.56
 40
0.56
 40
0.56
 40
0.56
 40
0.6
 40
0.6
 40
0.6
 40
0.6
 40
0.64
 40
0.64
 40
0.64
 40
0.64
 40
0.68
 40
0.68
 40
0.68
 40
0.68
 40
0.72
 40
0.72
 40
0.72
 40
0.72
 40
0.76
 40
0.76
 40
0.76
 40
0.76
 40
0.8
 40
0.8
 40
0.8
 40
0.8
 40
0.84
 40
0.84
 40
0.84
 40
0.84
 40
0.88
 40
0.88
 40
0.88
 40
0.88
 40
0.92
 40
0.92
 40
0.92
 40
0.92
 40
1.0
 40
1.0
 40
1.0
 40
1.0
 10
26.5312
 20
-103.4445
 30
0.0
 10
26.6629
 20
-102.2576
 30
0.0
 10
27.3273
 20
-101.1953
 30
0.0
 10
28.3368
 20
-100.5575
 30
0.0
 10
28.3368
 20
-100.5575
 30
0.0
 10
28.3744
 20
-100.515
 30
0.0
 10
28.4353
 20
-100.5018
 30
0.0
 10
28.4871
 20
-100.5251
 30
0.0
 10
28.4871
 20
-100.5251
 30
0.0
 10
28.5389
 20
-100.5484
 30
0.0
 10
28.5695
 20
-100.6027
 30
0.0
 10
28.5624
 20
-100.6591
 30
0.0
 10
28.5624
 20
-100.6591
 30
0.0
 10
28.7944
 20
-101.5506
 30
0.0
 10
29.4537
 20
-102.2689
 30
0.0
 10
30.3221
 20
-102.5764
 30
0.0
 10
30.3221
 20
-102.5764
 30
0.0
 10
31.1903
 20
-102.8839
 30
0.0
 10
32.1547
 20
-102.7406
 30
0.0
 10
32.8959
 20
-102.1939
 30
0.0
 10
32.8959
 20
-102.1939
 30
0.0
 10
34.4623
 20
-100.5584
 30
0.0
 10
35.3078
 20
-98.3635
 30
0.0
 10
35.2433
 20
-96.0999
 30
0.0
 10
35.2433
 20
-96.0999
 30
0.0
 10
35.1244
 20
-92.3387
 30
0.0
 10
33.8824
 20
-88.6991
 30
0.0
 10
31.6772
 20
-85.6499
 30
0.0
 10
31.6772
 20
-85.6499
 30
0.0
 10
32.1624
 20
-87.134
 30
0.0
 10
32.2861
 20
-88.7125
 30
0.0
 10
32.0383
 20
-90.2542
 30
0.0
 10
32.0383
 20
-90.2542
 30
0.0
 10
32.0017
 20
-90.4613
 30
0.0
 10
31.8671
 20
-90.6378
 30
0.0
 10
31.6772
 20
-90.7282
 30
0.0
 10
31.6772
 20
-90.7282
 30
0.0
 10
30.8731
 20
-90.8438
 30
0.0
 10
30.0568
 20
-90.6235
 30
0.0
 10
29.4201
 20
-90.1187
 30
0.0
 10
29.4201
 20
-90.1187
 30
0.0
 10
30.0648
 20
-92.653
 30
0.0
 10
29.0318
 20
-95.3173
 30
0.0
 10
26.8471
 20
-96.7545
 30
0.0
 10
26.8471
 20
-96.7545
 30
0.0
 10
26.7577
 20
-96.8253
 30
0.0
 10
26.6448
 20
-96.8595
 30
0.0
 10
26.5312
 20
-96.8507
 30
0.0
 10
26.5312
 20
-96.8507
 30
0.0
 10
26.4175
 20
-96.8595
 30
0.0
 10
26.3046
 20
-96.8253
 30
0.0
 10
26.2152
 20
-96.7545
 30
0.0
 10
26.2152
 20
-96.7545
 30
0.0
 10
24.0305
 20
-95.3173
 30
0.0
 10
22.9975
 20
-92.653
 30
0.0
 10
23.6422
 20
-90.1187
 30
0.0
 10
23.6422
 20
-90.1187
 30
0.0
 10
23.0055
 20
-90.6235
 30
0.0
 10
22.1892
 20
-90.8438
 30
0.0
 10
21.3852
 20
-90.7282
 30
0.0
 10
21.3852
 20
-90.7282
 30
0.0
 10
21.1953
 20
-90.6378
 30
0.0
 10
21.0608
 20
-90.4613
 30
0.0
 10
21.0241
 20
-90.2542
 30
0.0
 10
21.0241
 20
-90.2542
 30
0.0
 10
20.7762
 20
-88.7125
 30
0.0
 10
20.9001
 20
-87.134
 30
0.0
 10
21.3852
 20
-85.6499
 30
0.0
 10
21.3852
 20
-85.6499
 30
0.0
 10
19.1801
 20
-88.6991
 30
0.0
 10
17.9381
 20
-92.3387
 30
0.0
 10
17.819
 20
-96.0999
 30
0.0
 10
17.819
 20
-96.0999
 30
0.0
 10
17.7547
 20
-98.3635
 30
0.0
 10
18.6002
 20
-100.5584
 30
0.0
 10
20.1664
 20
-102.1939
 30
0.0
 10
20.1664
 20
-102.1939
 30
0.0
 10
20.9078
 20
-102.7406
 30
0.0
 10
21.872
 20
-102.8839
 30
0.0
 10
22.7404
 20
-102.5764
 30
0.0
 10
22.7404
 20
-102.5764
 30
0.0
 10
23.6088
 20
-102.2689
 30
0.0
 10
24.2679
 20
-101.5506
 30
0.0
 10
24.4998
 20
-100.6591
 30
0.0
 10
24.4998
 20
-100.6591
 30
0.0
 10
24.4929
 20
-100.6027
 30
0.0
 10
24.5236
 20
-100.5484
 30
0.0
 10
24.5752
 20
-100.5251
 30
0.0
 10
24.5752
 20
-100.5251
 30
0.0
 10
24.6271
 20
-100.5018
 30
0.0
 10
24.6879
 20
-100.515
 30
0.0
 10
24.7255
 20
-100.5575
 30
0.0
 10
24.7255
 20
-100.5575
 30
0.0
 10
25.735
 20
-101.1953
 30
0.0
 10
26.3996
 20
-102.2576
 30
0.0
 10
26.5312
 20
-103.4445
 30
0.0
  0
SPLINE
  5
74
330
1F
100
AcDbEntity
  8
layer 1
 62
     7
370
     9
100
AcDbSpline
210
0.0
220
0.0
230
1.0
 70
    11
 71
     3
 72
    28
 73
    24
 74
     0
 42
0.0000000001
 43
0.0000000001
 12
1.0
 22
0.0
 32
0.0
 13
1.0
 23
0.0
 33
0.0
 40
0.0
 40
0.0
 40
0.0
 40
0.0
 40
0.1428571428571428
 40
0.1428571428571428
 40
0.1428571428571428
 40
0.1428571428571428
 40
0.2857142857142857
 40
0.2857142857142857
 40
0.2857142857142857
 40
0.2857142857142857
 40
0.4285714285714285
 40
0.4285714285714285
 40
0.4285714285714285
 40
0.4285714285714285
 40
0.5714285714285714
 40
0.5714285714285714
 40
0.5714285714285714
 40
0.5714285714285714
 40
0.7142857142857143
 40
0.7142857142857143
 40
0.7142857142857143
 40
0.7142857142857143
 40
1.0
 40
1.0
 40
1.0
 40
1.0
 10
12.7633
 20
-79.398
 30
0.0
 10
17.6347
 20
-78.9843
 30
0.0
 10
21.8334
 20
-75.8044
 30
0.0
 10
23.552
 20
-71.2276
 30
0.0
 10
23.552
 20
-71.2276
 30
0.0
 10
19.0967
 20
-74.0274
 30
0.0
 10
13.3691
 20
-73.7573
 30
0.0
 10
9.1972
 20
-70.5504
 30
0.0
 10
9.1972
 20
-70.5504
 30
0.0
 10
10.3309
 20
-72.2872
 30
0.0
 10
9.9813
 20
-74.5983
 30
0.0
 10
8.3847
 20
-75.9222
 30
0.0
 10
8.3847
 20
-75.9222
 30
0.0
 10
8.9512
 20
-75.7338
 30
0.0
 10
9.5522
 20
-75.6721
 30
0.0
 10
10.1451
 20
-75.7416
 30
0.0
 10
10.1451
 20
-75.7416
 30
0.0
 10
9.7964
 20
-76.5868
 30
0.0
 10
9.9079
 20
-77.5523
 30
0.0
 10
10.4404
 20
-78.2958
 30
0.0
 10
10.4404
 20
-78.2958
 30
0.0
 10
10.9727
 20
-79.0392
 30
0.0
 10
11.8508
 20
-79.4558
 30
0.0
 10
12.7633
 20
-79.398
 30
0.0
  0
SPLINE
  5
75
330
1F
100
AcDbEntity
  8
layer 1
 62
     7
370
     9
100
AcDbSpline
210
0.0
220
0.0
230
1.0
 70
    11
 71
     3
 72
    36
 73
    32
 74
     0
 42
0.0000000001
 43
0.0000000001
 12
1.0
 22
0.0
 32
0.0
 13
1.0
 23
0.0
 33
0.0
 40
0.0
 40
0.0
 40
0.0
 40
0.0
 40
0.1111111111111111
 40
0.1111111111111111
 40
0.1111111111111111
 40
0.1111111111111111
 40
0.2222222222222222
 40
0.2222222222222222
 40
0.2222222222222222
 40
0.2222222222222222
 40
0.3333333333333333
 40
0.3333333333333333
 40
0.3333333333333333
 40
0.3333333333333333
 40
0.4444444444444444
 40
0.4444444444444444
 40
0.4444444444444444
 40
0.4444444444444444
 40
0.5555555555555556
 40
0.5555555555555556
 40
0.5555555555555556
 40
0.5555555555555556
 40
0.6666666666666666
 40
0.6666666666666666
 40
0.6666666666666666
 40
0.6666666666666666
 40
0.7777777777777778
 40
0.7777777777777778
 40
0.7777777777777778
 40
0.7777777777777778
 40
1.0
 40
1.0
 40
1.0
 40
1.0
 10
22.92
 20
-62.6958
 30
0.0
 10
23.79
 20
-64.6572
 30
0.0
 10
23.191
 20
-66.9595
 30
0.0
 10
21.4753
 20
-68.2483
 30
0.0
 10
21.4753
 20
-68.2483
 30
0.0
 10
17.741
 20
-70.0346
 30
0.0
 10
13.3285
 20
-69.6343
 30
0.0
 10
9.9763
 20
-67.205
 30
0.0
 10
9.9763
 20
-67.205
 30
0.0
 10
6.6244
 20
-64.7757
 30
0.0
 10
4.8703
 20
-60.7071
 30
0.0
 10
5.4054
 20
-56.6019
 30
0.0
 10
5.4054
 20
-56.6019
 30
0.0
 10
5.9897
 20
-58.0455
 30
0.0
 10
7.1939
 20
-59.1485
 30
0.0
 10
8.6831
 20
-59.604
 30
0.0
 10
8.6831
 20
-59.604
 30
0.0
 10
10.1723
 20
-60.0595
 30
0.0
 10
11.7875
 20
-59.819
 30
0.0
 10
13.0793
 20
-58.9493
 30
0.0
 10
13.0793
 20
-58.9493
 30
0.0
 10
12.1095
 20
-61.081
 30
0.0
 10
12.5844
 20
-63.5924
 30
0.0
 10
14.2657
 20
-65.223
 30
0.0
 10
14.2657
 20
-65.223
 30
0.0
 10
15.9468
 20
-66.8535
 30
0.0
 10
18.4714
 20
-67.2513
 30
0.0
 10
20.5726
 20
-66.2169
 30
0.0
 10
20.5726
 20
-66.2169
 30
0.0
 10
21.6783
 20
-65.2941
 30
0.0
 10
22.4934
 20
-64.0713
 30
0.0
 10
22.92
 20
-62.6958
 30
0.0
  0
SPLINE
  5
76
330
1F
100
AcDbEntity
  8
layer 1
 62
     7
370
     9
100
AcDbSpline
210
0.0
220
0.0
230
1.0
 70
    11
 71
     3
 72
    20
 73
    16
 74
     0
 42
0.0000000001
 43
0.0000000001
 12
1.0
 22
0.0
 32
0.0
 13
1.0
 23
0.0
 33
0.0
 40
0.0
 40
0.0
 40
0.0
 40
0.0
 40
0.2
 40
0.2
 40
0.2
 40
0.2
 40
0.4
 40
0.4
 40
0.4
 40
0.4
 40
0.6
 40
0.6
 40
0.6
 40
0.6
 40
1.0
 40
1.0
 40
1.0
 40
1.0
 10
19.038
 20
-59.4453
 30
0.0
 10
17.6667
 20
-59.4453
 30
0.0
 10
16.5548
 20
-60.5571
 30
0.0
 10
16.5548
 20
-61.9285
 30
0.0
 10
16.5548
 20
-61.9285
 30
0.0
 10
16.5548
 20
-63.2998
 30
0.0
 10
17.6667
 20
-64.4115
 30
0.0
 10
19.038
 20
-64.4115
 30
0.0
 10
19.038
 20
-64.4115
 30
0.0
 10
20.4092
 20
-64.4115
 30
0.0
 10
21.5209
 20
-63.2998
 30
0.0
 10
21.5209
 20
-61.9285
 30
0.0
 10
21.5209
 20
-61.9285
 30
0.0
 10
21.5209
 20
-60.5571
 30
0.0
 10
20.4092
 20
-59.4453
 30
0.0
 10
19.038
 20
-59.4453
 30
0.0
  0
SPLINE
  5
77
330
1F
100
AcDbEntity
  8
layer 1
 62
     7
370
     9
100
AcDbSpline
210
0.0
220
0.0
230
1.0
 70
    11
 71
     3
 72
    36
 73
    32
 74
     0
 42
0.0000000001
 43
0.0000000001
 12
1.0
 22
0.0
 32
0.0
 13
1.0
 23
0.0
 33
0.0
 40
0.0
 40
0.0
 40
0.0
 40
0.0
 40
0.1111111111111111
 40
0.1111111111111111
 40
0.1111111111111111
 40
0.1111111111111111
 40
0.2222222222222222
 40
0.2222222222222222
 40
0.2222222222222222
 40
0.2222222222222222
 40
0.3333333333333333
 40
0.3333333333333333
 40
0.3333333333333333
 40
0.3333333333333333
 40
0.4444444444444444
 40
0.4444444444444444
 40
0.4444444444444444
 40
0.4444444444444444
 40
0.5555555555555556
 40
0.5555555555555556
 40
0.5555555555555556
 40
0.5555555555555556
 40
0.6666666666666666
 40
0.6666666666666666
 40
0.6666666666666666
 40
0.6666666666666666
 40
0.7777777777777778
 40
0.7777777777777778
 40
0.7777777777777778
 40
0.7777777777777778
 40
1.0
 40
1.0
 40
1.0
 40
1.0
 10
23.6422
 20
-55.8797
 30
0.0
 10
23.6694
 20
-55.9303
 30
0.0
 10
23.6582
 20
-55.9929
 30
0.0
 10
23.615
 20
-56.0307
 30
0.0
 10
23.615
 20
-56.0307
 30
0.0
 10
23.5717
 20
-56.0686
 30
0.0
 10
23.5081
 20
-56.0714
 30
0.0
 10
23.4616
 20
-56.0377
 30
0.0
 10
23.4616
 20
-56.0377
 30
0.0
 10
21.3753
 20
-54.3459
 30
0.0
 10
18.59
 20
-53.7889
 30
0.0
 10
16.0134
 20
-54.548
 30
0.0
 10
16.0134
 20
-54.548
 30
0.0
 10
15.8392
 20
-54.5568
 30
0.0
 10
15.6645
 20
-54.5416
 30
0.0
 10
15.4943
 20
-54.5029
 30
0.0
 10
15.4943
 20
-54.5029
 30
0.0
 10
14.7893
 20
-54.2375
 30
0.0
 10
14.2986
 20
-53.5919
 30
0.0
 10
14.2313
 20
-52.8416
 30
0.0
 10
14.2313
 20
-52.8416
 30
0.0
 10
14.1638
 20
-52.0913
 30
0.0
 10
14.5319
 20
-51.3688
 30
0.0
 10
15.1783
 20
-50.982
 30
0.0
 10
15.1783
 20
-50.982
 30
0.0
 10
17.192
 20
-50.4154
 30
0.0
 10
19.3519
 20
-51.0563
 30
0.0
 10
20.7306
 20
-52.6295
 30
0.0
 10
20.7306
 20
-52.6295
 30
0.0
 10
21.8378
 20
-53.5822
 30
0.0
 10
22.8166
 20
-54.6747
 30
0.0
 10
23.6422
 20
-55.8797
 30
0.0
  0
SPLINE
  5
78
330
1F
100
AcDbEntity
  8
layer 1
 62
     7
370
     9
100
AcDbSpline
210
0.0
220
0.0
230
1.0
 70
    11
 71
     3
 72
    32
 73
    28
 74
     0
 42
0.0000000001
 43
0.0000000001
 12
1.0
 22
0.0
 32
0.0
 13
1.0
 23
0.0
 33
0.0
 40
0.0
 40
0.0
 40
0.0
 40
0.0
 40
0.125
 40
0.125
 40
0.125
 40
0.125
 40
0.25
 40
0.25
 40
0.25
 40
0.25
 40
0.375
 40
0.375
 40
0.375
 40
0.375
 40
0.5
 40
0.5
 40
0.5
 40
0.5
 40
0.625
 40
0.625
 40
0.625
 40
0.625
 40
0.75
 40
0.75
 40
0.75
 40
0.75
 40
1.0
 40
1.0
 40
1.0
 40
1.0
 10
23.0497
 20
-51.4079
 30
0.0
 10
21.8495
 20
-49.9263
 30
0.0
 10
20.3521
 20
-48.7126
 30
0.0
 10
18.6541
 20
-47.8447
 30
0.0
 10
18.6541
 20
-47.8447
 30
0.0
 10
18.0635
 20
-47.588
 30
0.0
 10
17.5095
 20
-47.2541
 30
0.0
 10
17.0066
 20
-46.8516
 30
0.0
 10
17.0066
 20
-46.8516
 30
0.0
 10
16.5312
 20
-46.1397
 30
0.0
 10
16.5952
 20
-45.1972
 30
0.0
 10
17.1622
 20
-44.556
 30
0.0
 10
17.1622
 20
-44.556
 30
0.0
 10
17.7291
 20
-43.9147
 30
0.0
 10
18.6569
 20
-43.736
 30
0.0
 10
19.4216
 20
-44.1205
 30
0.0
 10
19.4216
 20
-44.1205
 30
0.0
 10
21.9554
 20
-45.6104
 30
0.0
 10
23.4513
 20
-48.3849
 30
0.0
 10
23.3036
 20
-51.3205
 30
0.0
 10
23.3036
 20
-51.3205
 30
0.0
 10
23.3056
 20
-51.3822
 30
0.0
 10
23.2674
 20
-51.438
 30
0.0
 10
23.2089
 20
-51.458
 30
0.0
 10
23.2089
 20
-51.458
 30
0.0
 10
23.1506
 20
-51.478
 30
0.0
 10
23.086
 20
-51.4578
 30
0.0
 10
23.0497
 20
-51.4079
 30
0.0
  0
SPLINE
  5
79
330
1F
100
AcDbEntity
  8
layer 1
 62
     7
370
     9
100
AcDbSpline
210
0.0
220
0.0
230
1.0
 70
    11
 71
     3
 72
    32
 73
    28
 74
     0
 42
0.0000000001
 43
0.0000000001
 12
1.0
 22
0.0
 32
0.0
 13
1.0
 23
0.0
 33
0.0
 40
0.0
 40
0.0
 40
0.0
 40
0.0
 40
0.125
 40
0.125
 40
0.125
 40
0.125
 40
0.25
 40
0.25
 40
0.25
 40
0.25
 40
0.375
 40
0.375
 40
0.375
 40
0.375
 40
0.5
 40
0.5
 40
0.5
 40
0.5
 40
0.625
 40
0.625
 40
0.625
 40
0.625
 40
0.75
 40
0.75
 40
0.75
 40
0.75
 40
1.0
 40
1.0
 40
1.0
 40
1.0
 10
21.7237
 20
-40.9834
 30
0.0
 10
22.8024
 20
-42.1519
 30
0.0
 10
23.5536
 20
-43.5845
 30
0.0
 10
23.9017
 20
-45.1362
 30
0.0
 10
23.9017
 20
-45.1362
 30
0.0
 10
23.9279
 20
-45.2424
 30
0.0
 10
24.027
 20
-45.3141
 30
0.0
 10
24.1363
 20
-45.3057
 30
0.0
 10
24.1363
 20
-45.3057
 30
0.0
 10
24.2452
 20
-45.2974
 30
0.0
 10
24.3322
 20
-45.2114
 30
0.0
 10
24.3419
 20
-45.1025
 30
0.0
 10
24.3419
 20
-45.1025
 30
0.0
 10
25.1048
 20
-42.2578
 30
0.0
 10
24.638
 20
-39.2238
 30
0.0
 10
23.0554
 20
-36.7401
 30
0.0
 10
23.0554
 20
-36.7401
 30
0.0
 10
22.4376
 20
-36.131
 30
0.0
 10
21.4727
 20
-36.051
 30
0.0
 10
20.763
 20
-36.55
 30
0.0
 10
20.763
 20
-36.55
 30
0.0
 10
20.0534
 20
-37.049
 30
0.0
 10
19.8022
 20
-37.984
 30
0.0
 10
20.1664
 20
-38.7715
 30
0.0
 10
20.1664
 20
-38.7715
 30
0.0
 10
20.5684
 20
-39.5846
 30
0.0
 10
21.0937
 20
-40.3307
 30
0.0
 10
21.7237
 20
-40.9834
 30
0.0
  0
SPLINE
  5
7A
330
1F
100
AcDbEntity
  8
layer 1
 62
     7
370
     9
100
AcDbSpline
210
0.0
220
0.0
230
1.0
 70
    11
 71
     3
 72
    68
 73
    64
 74
     0
 42
0.0000000001
 43
0.0000000001
 12
1.0
 22
0.0
 32
0.0
 13
1.0
 23
0.0
 33
0.0
 40
0.0
 40
0.0
 40
0.0
 40
0.0
 40
0.0588235294117647
 40
0.0588235294117647
 40
0.0588235294117647
 40
0.0588235294117647
 40
0.1176470588235294
 40
0.1176470588235294
 40
0.1176470588235294
 40
0.1176470588235294
 40
0.1764705882352941
 40
0.1764705882352941
 40
0.1764705882352941
 40
0.1764705882352941
 40
0.2352941176470588
 40
0.2352941176470588
 40
0.2352941176470588
 40
0.2352941176470588
 40
0.2941176470588235
 40
0.2941176470588235
 40
0.2941176470588235
 40
0.2941176470588235
 40
0.3529411764705883
 40
0.3529411764705883
 40
0.3529411764705883
 40
0.3529411764705883
 40
0.4117647058823529
 40
0.4117647058823529
 40
0.4117647058823529
 40
0.4117647058823529
 40
0.4705882352941176
 40
0.4705882352941176
 40
0.4705882352941176
 40
0.4705882352941176
 40
0.5294117647058824
 40
0.5294117647058824
 40
0.5294117647058824
 40
0.5294117647058824
 40
0.5882352941176471
 40
0.5882352941176471
 40
0.5882352941176471
 40
0.5882352941176471
 40
0.6470588235294118
 40
0.6470588235294118
 40
0.6470588235294118
 40
0.6470588235294118
 40
0.7058823529411765
 40
0.7058823529411765
 40
0.7058823529411765
 40
0.7058823529411765
 40
0.7647058823529411
 40
0.7647058823529411
 40
0.7647058823529411
 40
0.7647058823529411
 40
0.8235294117647058
 40
0.8235294117647058
 40
0.8235294117647058
 40
0.8235294117647058
 40
0.8823529411764706
 40
0.8823529411764706
 40
0.8823529411764706
 40
0.8823529411764706
 40
1.0
 40
1.0
 40
1.0
 40
1.0
 10
17.0967
 20
-33.0837
 30
0.0
 10
18.672
 20
-31.4262
 30
0.0
 10
20.0089
 20
-29.5575
 30
0.0
 10
21.0692
 20
-27.5315
 30
0.0
 10
21.0692
 20
-27.5315
 30
0.0
 10
21.6798
 20
-29.949
 30
0.0
 10
20.8973
 20
-32.5057
 30
0.0
 10
19.038
 20
-34.1671
 30
0.0
 10
19.038
 20
-34.1671
 30
0.0
 10
18.2128
 20
-34.8013
 30
0.0
 10
17.8856
 20
-35.892
 30
0.0
 10
18.2254
 20
-36.8756
 30
0.0
 10
18.2254
 20
-36.8756
 30
0.0
 10
18.3451
 20
-38.4503
 30
0.0
 10
17.6877
 20
-39.9841
 30
0.0
 10
16.4649
 20
-40.9834
 30
0.0
 10
16.4649
 20
-40.9834
 30
0.0
 10
14.799
 20
-42.0407
 30
0.0
 10
13.9558
 20
-44.0141
 30
0.0
 10
14.3433
 20
-45.9488
 30
0.0
 10
14.3433
 20
-45.9488
 30
0.0
 10
14.6378
 20
-47.6833
 30
0.0
 10
13.9198
 20
-49.4343
 30
0.0
 10
12.4925
 20
-50.4628
 30
0.0
 10
12.4925
 20
-50.4628
 30
0.0
 10
11.9006
 20
-51.2308
 30
0.0
 10
11.6522
 20
-52.2091
 30
0.0
 10
11.806
 20
-53.1663
 30
0.0
 10
11.806
 20
-53.1663
 30
0.0
 10
11.96
 20
-54.1235
 30
0.0
 10
12.5024
 20
-54.9747
 30
0.0
 10
13.3051
 20
-55.5186
 30
0.0
 10
13.3051
 20
-55.5186
 30
0.0
 10
12.0115
 20
-56.3032
 30
0.0
 10
10.3726
 20
-56.2321
 30
0.0
 10
9.1522
 20
-55.338
 30
0.0
 10
9.1522
 20
-55.338
 30
0.0
 10
8.7439
 20
-55.0535
 30
0.0
 10
8.4934
 20
-54.5937
 30
0.0
 10
8.4757
 20
-54.0967
 30
0.0
 10
8.4757
 20
-54.0967
 30
0.0
 10
8.4578
 20
-53.5996
 30
0.0
 10
8.675
 20
-53.1229
 30
0.0
 10
9.0618
 20
-52.8102
 30
0.0
 10
9.0618
 20
-52.8102
 30
0.0
 10
9.1154
 20
-52.6912
 30
0.0
 10
9.1136
 20
-52.5547
 30
0.0
 10
9.057
 20
-52.4371
 30
0.0
 10
9.057
 20
-52.4371
 30
0.0
 10
9.0005
 20
-52.3197
 30
0.0
 10
8.8948
 20
-52.2332
 30
0.0
 10
8.7683
 20
-52.2007
 30
0.0
 10
8.7683
 20
-52.2007
 30
0.0
 10
7.4009
 20
-51.8508
 30
0.0
 10
5.9827
 20
-52.5503
 30
0.0
 10
5.428
 20
-53.8483
 30
0.0
 10
5.428
 20
-53.8483
 30
0.0
 10
5.7238
 20
-48.9342
 30
0.0
 10
7.6
 20
-44.2474
 30
0.0
 10
10.7772
 20
-40.4867
 30
0.0
 10
10.7772
 20
-40.4867
 30
0.0
 10
13.0522
 20
-38.168
 30
0.0
 10
15.1639
 20
-35.6945
 30
0.0
 10
17.0967
 20
-33.0837
 30
0.0
  0
SPLINE
  5
7B
330
1F
100
AcDbEntity
  8
layer 1
 62
     7
370
     9
100
AcDbSpline
210
0.0
220
0.0
230
1.0
 70
    11
 71
     3
 72
    20
 73
    16
 74
     0
 42
0.0000000001
 43
0.0000000001
 12
1.0
 22
0.0
 32
0.0
 13
1.0
 23
0.0
 33
0.0
 40
0.0
 40
0.0
 40
0.0
 40
0.0
 40
0.2
 40
0.2
 40
0.2
 40
0.2
 40
0.4
 40
0.4
 40
0.4
 40
0.4
 40
0.6
 40
0.6
 40
0.6
 40
0.6
 40
1.0
 40
1.0
 40
1.0
 40
1.0
 10
26.5312
 20
-33.3059
 30
0.0
 10
27.3946
 20
-29.8012
 30
0.0
 10
28.4647
 20
-26.3506
 30
0.0
 10
29.7361
 20
-22.9723
 30
0.0
 10
29.7361
 20
-22.9723
 30
0.0
 10
28.359
 20
-19.3677
 30
0.0
 10
27.287
 20
-15.6539
 30
0.0
 10
26.5312
 20
-11.8701
 30
0.0
 10
26.5312
 20
-11.8701
 30
0.0
 10
25.7754
 20
-15.6539
 30
0.0
 10
24.7033
 20
-19.3677
 30
0.0
 10
23.3262
 20
-22.9723
 30
0.0
 10
23.3262
 20
-22.9723
 30
0.0
 10
24.5976
 20
-26.3506
 30
0.0
 10
25.6679
 20
-29.8012
 30
0.0
 10
26.5312
 20
-33.3059
 30
0.0
  0
SPLINE
  5
7C
330
1F
100
AcDbEntity
  8
layer 1
 62
     7
370
     9
100
AcDbSpline
210
0.0
220
0.0
230
1.0
 70
    11
 71
     3
 72
    44
 73
    40
 74
     0
 42
0.0000000001
 43
0.0000000001
 12
1.0
 22
0.0
 32
0.0
 13
1.0
 23
0.0
 33
0.0
 40
0.0
 40
0.0
 40
0.0
 40
0.0
 40
0.0909090909090909
 40
0.0909090909090909
 40
0.0909090909090909
 40
0.0909090909090909
 40
0.1818181818181818
 40
0.1818181818181818
 40
0.1818181818181818
 40
0.1818181818181818
 40
0.2727272727272727
 40
0.2727272727272727
 40
0.2727272727272727
 40
0.2727272727272727
 40
0.3636363636363636
 40
0.3636363636363636
 40
0.3636363636363636
 40
0.3636363636363636
 40
0.4545454545454545
 40
0.4545454545454545
 40
0.4545454545454545
 40
0.4545454545454545
 40
0.5454545454545454
 40
0.5454545454545454
 40
0.5454545454545454
 40
0.5454545454545454
 40
0.6363636363636364
 40
0.6363636363636364
 40
0.6363636363636364
 40
0.6363636363636364
 40
0.7272727272727273
 40
0.7272727272727273
 40
0.7272727272727273
 40
0.7272727272727273
 40
0.8181818181818182
 40
0.8181818181818182
 40
0.8181818181818182
 40
0.8181818181818182
 40
1.0
 40
1.0
 40
1.0
 40
1.0
 10
-0.508
 20
-37.1012
 30
0.0
 10
3.3941
 20
-34.0909
 30
0.0
 10
7.4308
 20
-31.2592
 30
0.0
 10
11.5897
 20
-28.6148
 30
0.0
 10
11.5897
 20
-28.6148
 30
0.0
 10
14.5996
 20
-26.3123
 30
0.0
 10
17.2802
 20
-23.609
 30
0.0
 10
19.557
 20
-20.5799
 30
0.0
 10
19.557
 20
-20.5799
 30
0.0
 10
19.7167
 20
-20.3154
 30
0.0
 10
19.7577
 20
-19.9959
 30
0.0
 10
19.6698
 20
-19.6996
 30
0.0
 10
19.6698
 20
-19.6996
 30
0.0
 10
19.1298
 20
-17.4419
 30
0.0
 10
17.5325
 20
-15.5841
 30
0.0
 10
15.3816
 20
-14.7115
 30
0.0
 10
15.3816
 20
-14.7115
 30
0.0
 10
16.0388
 20
-15.0115
 30
0.0
 10
16.532
 20
-15.5839
 30
0.0
 10
16.7316
 20
-16.2782
 30
0.0
 10
16.7316
 20
-16.2782
 30
0.0
 10
16.9312
 20
-16.9726
 30
0.0
 10
16.8173
 20
-17.7195
 30
0.0
 10
16.4196
 20
-18.3228
 30
0.0
 10
16.4196
 20
-18.3228
 30
0.0
 10
15.1689
 20
-19.5159
 30
0.0
 10
13.2518
 20
-19.6659
 30
0.0
 10
11.8306
 20
-18.6819
 30
0.0
 10
11.8306
 20
-18.6819
 30
0.0
 10
10.4094
 20
-17.698
 30
0.0
 10
9.875
 20
-15.851
 30
0.0
 10
10.5515
 20
-14.2601
 30
0.0
 10
10.5515
 20
-14.2601
 30
0.0
 10
8.9187
 20
-16.5831
 30
0.0
 10
7.6831
 20
-19.1611
 30
0.0
 10
6.8951
 20
-21.889
 30
0.0
 10
6.8951
 20
-21.889
 30
0.0
 10
5.06
 20
-27.2439
 30
0.0
 10
2.5737
 20
-32.3529
 30
0.0
 10
-0.508
 20
-37.1012
 30
0.0
  0
SPLINE
  5
7D
330
1F
100
AcDbEntity
  8
layer 1
 62
     7
370
     9
100
AcDbSpline
210
0.0
220
0.0
230
1.0
 70
    11
 71
     3
 72
    28
 73
    24
 74
     0
 42
0.0000000001
 43
0.0000000001
 12
1.0
 22
0.0
 32
0.0
 13
1.0
 23
0.0
 33
0.0
 40
0.0
 40
0.0
 40
0.0
 40
0.0
 40
0.1428571428571428
 40
0.1428571428571428
 40
0.1428571428571428
 40
0.1428571428571428
 40
0.2857142857142857
 40
0.2857142857142857
 40
0.2857142857142857
 40
0.2857142857142857
 40
0.4285714285714285
 40
0.4285714285714285
 40
0.4285714285714285
 40
0.4285714285714285
 40
0.5714285714285714
 40
0.5714285714285714
 40
0.5714285714285714
 40
0.5714285714285714
 40
0.7142857142857143
 40
0.7142857142857143
 40
0.7142857142857143
 40
0.7142857142857143
 40
1.0
 40
1.0
 40
1.0
 40
1.0
 10
22.0623
 20
-0.8986
 30
0.0
 10
22.2154
 20
-0.7443
 30
0.0
 10
22.4617
 20
-0.7345
 30
0.0
 10
22.6265
 20
-0.8759
 30
0.0
 10
22.6265
 20
-0.8759
 30
0.0
 10
23.5627
 20
-3.7967
 30
0.0
 10
23.8099
 20
-6.8945
 30
0.0
 10
23.3487
 20
-9.9266
 30
0.0
 10
23.3487
 20
-9.9266
 30
0.0
 10
23.0207
 20
-12.3822
 30
0.0
 10
22.3601
 20
-14.7815
 30
0.0
 10
21.3852
 20
-17.0589
 30
0.0
 10
21.3852
 20
-17.0589
 30
0.0
 10
21.1518
 20
-14.988
 30
0.0
 10
19.855
 20
-13.1888
 30
0.0
 10
17.9641
 20
-12.3125
 30
0.0
 10
17.9641
 20
-12.3125
 30
0.0
 10
16.0734
 20
-11.4363
 30
0.0
 10
13.8623
 20
-11.6099
 30
0.0
 10
12.1314
 20
-12.7705
 30
0.0
 10
12.1314
 20
-12.7705
 30
0.0
 10
15.9439
 20
-9.2618
 30
0.0
 10
19.2823
 20
-5.2709
 30
0.0
 10
22.0623
 20
-0.8986
 30
0.0
  0
SPLINE
  5
7E
330
1F
100
AcDbEntity
  8
layer 1
 62
     7
370
     9
100
AcDbSpline
210
0.0
220
0.0
230
1.0
 70
    11
 71
     3
 72
    72
 73
    68
 74
     0
 42
0.0000000001
 43
0.0000000001
 12
1.0
 22
0.0
 32
0.0
 13
1.0
 23
0.0
 33
0.0
 40
0.0
 40
0.0
 40
0.0
 40
0.0
 40
0.0555555555555556
 40
0.0555555555555556
 40
0.0555555555555556
 40
0.0555555555555556
 40
0.1111111111111111
 40
0.1111111111111111
 40
0.1111111111111111
 40
0.1111111111111111
 40
0.1666666666666667
 40
0.1666666666666667
 40
0.1666666666666667
 40
0.1666666666666667
 40
0.2222222222222222
 40
0.2222222222222222
 40
0.2222222222222222
 40
0.2222222222222222
 40
0.2777777777777778
 40
0.2777777777777778
 40
0.2777777777777778
 40
0.2777777777777778
 40
0.3333333333333333
 40
0.3333333333333333
 40
0.3333333333333333
 40
0.3333333333333333
 40
0.3888888888888889
 40
0.3888888888888889
 40
0.3888888888888889
 40
0.3888888888888889
 40
0.4444444444444444
 40
0.4444444444444444
 40
0.4444444444444444
 40
0.4444444444444444
 40
0.5
 40
0.5
 40
0.5
 40
0.5
 40
0.5555555555555556
 40
0.5555555555555556
 40
0.5555555555555556
 40
0.5555555555555556
 40
0.6111111111111112
 40
0.6111111111111112
 40
0.6111111111111112
 40
0.6111111111111112
 40
0.6666666666666666
 40
0.6666666666666666
 40
0.6666666666666666
 40
0.6666666666666666
 40
0.7222222222222222
 40
0.7222222222222222
 40
0.7222222222222222
 40
0.7222222222222222
 40
0.7777777777777778
 40
0.7777777777777778
 40
0.7777777777777778
 40
0.7777777777777778
 40
0.8333333333333334
 40
0.8333333333333334
 40
0.8333333333333334
 40
0.8333333333333334
 40
0.8888888888888888
 40
0.8888888888888888
 40
0.8888888888888888
 40
0.8888888888888888
 40
1.0
 40
1.0
 40
1.0
 40
1.0
 10
6.2856
 20
-11.8677
 30
0.0
 10
4.656
 20
-12.1821
 30
0.0
 10
2.9847
 20
-11.5823
 30
0.0
 10
1.9268
 20
-10.3034
 30
0.0
 10
1.9268
 20
-10.3034
 30
0.0
 10
0.869
 20
-9.0246
 30
0.0
 10
0.5931
 20
-7.2703
 30
0.0
 10
1.2074
 20
-5.7285
 30
0.0
 10
1.2074
 20
-5.7285
 30
0.0
 10
1.1027
 20
-6.8089
 30
0.0
 10
1.5101
 20
-7.8756
 30
0.0
 10
2.3077
 20
-8.6114
 30
0.0
 10
2.3077
 20
-8.6114
 30
0.0
 10
3.1055
 20
-9.3471
 30
0.0
 10
4.2018
 20
-9.6668
 30
0.0
 10
5.27
 20
-9.4753
 30
0.0
 10
5.27
 20
-9.4753
 30
0.0
 10
6.5875
 20
-9.2384
 30
0.0
 10
7.6523
 20
-8.2668
 30
0.0
 10
8.0087
 20
-6.9764
 30
0.0
 10
8.0087
 20
-6.9764
 30
0.0
 10
8.3649
 20
-5.6861
 30
0.0
 10
7.9496
 20
-4.3058
 30
0.0
 10
6.9402
 20
-3.4264
 30
0.0
 10
6.9402
 20
-3.4264
 30
0.0
 10
8.0833
 20
-4.1334
 30
0.0
 10
9.4907
 20
-4.2681
 30
0.0
 10
10.7469
 20
-3.7902
 30
0.0
 10
10.7469
 20
-3.7902
 30
0.0
 10
12.0035
 20
-3.3125
 30
0.0
 10
12.9657
 20
-2.2769
 30
0.0
 10
13.3502
 20
-0.9888
 30
0.0
 10
13.3502
 20
-0.9888
 30
0.0
 10
13.3652
 20
-0.8971
 30
0.0
 10
13.3385
 20
-0.8036
 30
0.0
 10
13.2774
 20
-0.7338
 30
0.0
 10
13.2774
 20
-0.7338
 30
0.0
 10
13.2163
 20
-0.6638
 30
0.0
 10
13.127
 20
-0.6249
 30
0.0
 10
13.0342
 20
-0.6277
 30
0.0
 10
13.0342
 20
-0.6277
 30
0.0
 10
12.2722
 20
-1.0601
 30
0.0
 10
11.3385
 20
-1.0583
 30
0.0
 10
10.5784
 20
-0.6227
 30
0.0
 10
10.5784
 20
-0.6227
 30
0.0
 10
9.8183
 20
-0.1869
 30
0.0
 10
9.3446
 20
0.6178
 30
0.0
 10
9.3327
 20
1.4938
 30
0.0
 10
9.3327
 20
1.4938
 30
0.0
 10
9.2616
 20
3.006
 30
0.0
 10
10.173
 20
4.3914
 30
0.0
 10
11.5897
 20
4.9246
 30
0.0
 10
11.5897
 20
4.9246
 30
0.0
 10
14.3866
 20
6.0816
 30
0.0
 10
17.6079
 20
5.3797
 30
0.0
 10
19.6698
 20
3.1641
 30
0.0
 10
19.6698
 20
3.1641
 30
0.0
 10
20.0438
 20
2.8899
 30
0.0
 10
20.1246
 20
2.3644
 30
0.0
 10
19.8504
 20
1.9904
 30
0.0
 10
19.8504
 20
1.9904
 30
0.0
 10
18.3814
 20
-2.071
 30
0.0
 10
15.9857
 20
-5.734
 30
0.0
 10
12.8536
 20
-8.7079
 30
0.0
 10
12.8536
 20
-8.7079
 30
0.0
 10
10.9826
 20
-10.3239
 30
0.0
 10
8.7161
 20
-11.4143
 30
0.0
 10
6.2856
 20
-11.8677
 30
0.0
  0
SPLINE
  5
7F
330
1F
100
AcDbEntity
  8
layer 1
 62
     7
370
     9
100
AcDbSpline
210
0.0
220
0.0
230
1.0
 70
    11
 71
     3
 72
    20
 73
    16
 74
     0
 42
0.0000000001
 43
0.0000000001
 12
1.0
 22
0.0
 32
0.0
 13
1.0
 23
0.0
 33
0.0
 40
0.0
 40
0.0
 40
0.0
 40
0.0
 40
0.2
 40
0.2
 40
0.2
 40
0.2
 40
0.4
 40
0.4
 40
0.4
 40
0.4
 40
0.6
 40
0.6
 40
0.6
 40
0.6
 40
1.0
 40
1.0
 40
1.0
 40
1.0
 10
-11.0709
 20
1.4487
 30
0.0
 10
-6.299
 20
2.5371
 30
0.0
 10
-1.2893
 20
1.5351
 30
0.0
 10
2.6969
 20
-1.3048
 30
0.0
 10
2.6969
 20
-1.3048
 30
0.0
 10
-0.672
 20
2.9699
 30
0.0
 10
-5.9064
 20
5.343
 30
0.0
 10
-11.3416
 20
5.06
 30
0.0
 10
-11.3416
 20
5.06
 30
0.0
 10
-12.0946
 20
4.7385
 30
0.0
 10
-12.5596
 20
3.9739
 30
0.0
 10
-12.4983
 20
3.1574
 30
0.0
 10
-12.4983
 20
3.1574
 30
0.0
 10
-12.4372
 20
2.3412
 30
0.0
 10
-11.8633
 20
1.6542
 30
0.0
 10
-11.0709
 20
1.4487
 30
0.0
  0
SPLINE
  5
80
330
1F
100
AcDbEntity
  8
layer 1
 62
     7
370
     9
100
AcDbSpline
210
0.0
220
0.0
230
1.0
 70
    11
 71
     3
 72
    24
 73
    20
 74
     0
 42
0.0000000001
 43
0.0000000001
 12
1.0
 22
0.0
 32
0.0
 13
1.0
 23
0.0
 33
0.0
 40
0.0
 40
0.0
 40
0.0
 40
0.0
 40
0.1666666666666667
 40
0.1666666666666667
 40
0.1666666666666667
 40
0.1666666666666667
 40
0.3333333333333333
 40
0.3333333333333333
 40
0.3333333333333333
 40
0.3333333333333333
 40
0.5
 40
0.5
 40
0.5
 40
0.5
 40
0.6666666666666666
 40
0.6666666666666666
 40
0.6666666666666666
 40
0.6666666666666666
 40
1.0
 40
1.0
 40
1.0
 40
1.0
 10
55.2973
 20
124.5914
 30
0.0
 10
55.2973
 20
124.5914
 30
0.0
 10
65.6691
 20
124.5914
 30
0.0
 10
65.6691
 20
124.5914
 30
0.0
 10
65.6691
 20
124.5914
 30
0.0
 10
65.6853
 20
124.563
 30
0.0
 10
65.7
 20
124.5329
 30
0.0
 10
65.7132
 20
124.5012
 30
0.0
 10
65.7132
 20
124.5012
 30
0.0
 10
66.1639
 20
123.2117
 30
0.0
 10
66.0155
 20
121.787
 30
0.0
 10
65.3083
 20
120.6178
 30
0.0
 10
65.3083
 20
120.6178
 30
0.0
 10
64.6011
 20
119.4469
 30
0.0
 10
63.4089
 20
118.6536
 30
0.0
 10
62.0568
 20
118.4532
 30
0.0
 10
62.0568
 20
118.4532
 30
0.0
 10
61.2273
 20
121.6634
 30
0.0
 10
58.5721
 20
124.0753
 30
0.0
 10
55.2973
 20
124.5914
 30
0.0
  0
SPLINE
  5
81
330
1F
100
AcDbEntity
  8
layer 1
 62
     7
370
     9
100
AcDbSpline
210
0.0
220
0.0
230
1.0
 70
    11
 71
     3
 72
    20
 73
    16
 74
     0
 42
0.0000000001
 43
0.0000000001
 12
1.0
 22
0.0
 32
0.0
 13
1.0
 23
0.0
 33
0.0
 40
0.0
 40
0.0
 40
0.0
 40
0.0
 40
0.2
 40
0.2
 40
0.2
 40
0.2
 40
0.4
 40
0.4
 40
0.4
 40
0.4
 40
0.6
 40
0.6
 40
0.6
 40
0.6
 40
1.0
 40
1.0
 40
1.0
 40
1.0
 10
33.2056
 20
124.5914
 30
0.0
 10
33.2056
 20
124.5914
 30
0.0
 10
52.0807
 20
124.5914
 30
0.0
 10
52.0807
 20
124.5914
 30
0.0
 10
52.0807
 20
124.5914
 30
0.0
 10
47.313
 20
123.9416
 30
0.0
 10
43.4694
 20
120.3639
 30
0.0
 10
42.4807
 20
115.6538
 30
0.0
 10
42.4807
 20
115.6538
 30
0.0
 10
41.0256
 20
115.9778
 30
0.0
 10
39.512
 20
115.455
 30
0.0
 10
38.5687
 20
114.3009
 30
0.0
 10
38.5687
 20
114.3009
 30
0.0
 10
39.7158
 20
118.6018
 30
0.0
 10
37.3888
 20
123.0681
 30
0.0
 10
33.2056
 20
124.5914
 30
0.0
  0
SPLINE
  5
82
330
1F
100
AcDbEntity
  8
layer 1
 62
     7
370
     9
100
AcDbSpline
210
0.0
220
0.0
230
1.0
 70
    11
 71
     3
 72
    16
 73
    12
 74
     0
 42
0.0000000001
 43
0.0000000001
 12
1.0
 22
0.0
 32
0.0
 13
1.0
 23
0.0
 33
0.0
 40
0.0
 40
0.0
 40
0.0
 40
0.0
 40
0.25
 40
0.25
 40
0.25
 40
0.25
 40
0.5
 40
0.5
 40
0.5
 40
0.5
 40
1.0
 40
1.0
 40
1.0
 40
1.0
 10
70.4078
 20
96.4007
 30
0.0
 10
70.4078
 20
96.4007
 30
0.0
 10
70.4078
 20
109.9665
 30
0.0
 10
70.4078
 20
109.9665
 30
0.0
 10
70.4078
 20
109.9665
 30
0.0
 10
69.159
 20
106.3571
 30
0.0
 10
66.6316
 20
103.3306
 30
0.0
 10
63.3032
 20
101.4582
 30
0.0
 10
63.3032
 20
101.4582
 30
0.0
 10
66.6023
 20
101.7839
 30
0.0
 10
69.6353
 20
99.6243
 30
0.0
 10
70.4078
 20
96.4007
 30
0.0
  0
SPLINE
  5
83
330
1F
100
AcDbEntity
  8
layer 1
 62
     7
370
     9
100
AcDbSpline
210
0.0
220
0.0
230
1.0
 70
    11
 71
     3
 72
    28
 73
    24
 74
     0
 42
0.0000000001
 43
0.0000000001
 12
1.0
 22
0.0
 32
0.0
 13
1.0
 23
0.0
 33
0.0
 40
0.0
 40
0.0
 40
0.0
 40
0.0
 40
0.1428571428571428
 40
0.1428571428571428
 40
0.1428571428571428
 40
0.1428571428571428
 40
0.2857142857142857
 40
0.2857142857142857
 40
0.2857142857142857
 40
0.2857142857142857
 40
0.4285714285714285
 40
0.4285714285714285
 40
0.4285714285714285
 40
0.4285714285714285
 40
0.5714285714285714
 40
0.5714285714285714
 40
0.5714285714285714
 40
0.5714285714285714
 40
0.7142857142857143
 40
0.7142857142857143
 40
0.7142857142857143
 40
0.7142857142857143
 40
1.0
 40
1.0
 40
1.0
 40
1.0
 10
70.4078
 20
64.1846
 30
0.0
 10
70.4078
 20
64.1846
 30
0.0
 10
70.4078
 20
93.3074
 30
0.0
 10
70.4078
 20
93.3074
 30
0.0
 10
70.4078
 20
93.3074
 30
0.0
 10
69.9274
 20
91.303
 30
0.0
 10
68.543
 20
89.6361
 30
0.0
 10
66.6612
 20
88.796
 30
0.0
 10
66.6612
 20
88.796
 30
0.0
 10
64.7303
 20
87.9943
 30
0.0
 10
62.5662
 20
87.9625
 30
0.0
 10
60.6123
 20
88.7058
 30
0.0
 10
60.6123
 20
88.7058
 30
0.0
 10
65.9577
 20
82.8766
 30
0.0
 10
67.3078
 20
74.4217
 30
0.0
 10
64.043
 20
67.2178
 30
0.0
 10
64.043
 20
67.2178
 30
0.0
 10
65.2691
 20
67.8826
 30
0.0
 10
66.7385
 20
67.9194
 30
0.0
 10
67.9969
 20
67.3197
 30
0.0
 10
67.9969
 20
67.3197
 30
0.0
 10
69.2555
 20
66.7201
 30
0.0
 10
70.1513
 20
65.5543
 30
0.0
 10
70.4078
 20
64.1846
 30
0.0
  0
SPLINE
  5
84
330
1F
100
AcDbEntity
  8
layer 1
 62
     7
370
     9
100
AcDbSpline
210
0.0
220
0.0
230
1.0
 70
    11
 71
     3
 72
    20
 73
    16
 74
     0
 42
0.0000000001
 43
0.0000000001
 12
1.0
 22
0.0
 32
0.0
 13
1.0
 23
0.0
 33
0.0
 40
0.0
 40
0.0
 40
0.0
 40
0.0
 40
0.2
 40
0.2
 40
0.2
 40
0.2
 40
0.4
 40
0.4
 40
0.4
 40
0.4
 40
0.6
 40
0.6
 40
0.6
 40
0.6
 40
1.0
 40
1.0
 40
1.0
 40
1.0
 10
70.4078
 20
54.0812
 30
0.0
 10
70.4078
 20
54.0812
 30
0.0
 10
70.4078
 20
62.5795
 30
0.0
 10
70.4078
 20
62.5795
 30
0.0
 10
70.4078
 20
62.5795
 30
0.0
 10
70.1657
 20
61.2851
 30
0.0
 10
69.3531
 20
60.171
 30
0.0
 10
68.1959
 20
59.5447
 30
0.0
 10
68.1959
 20
59.5447
 30
0.0
 10
67.5912
 20
59.1505
 30
0.0
 10
66.9172
 20
58.8749
 30
0.0
 10
66.2097
 20
58.7313
 30
0.0
 10
66.2097
 20
58.7313
 30
0.0
 10
68.3079
 20
57.9947
 30
0.0
 10
69.8889
 20
56.2442
 30
0.0
 10
70.4078
 20
54.0812
 30
0.0
  0
SPLINE
  5
85
330
1F
100
AcDbEntity
  8
layer 1
 62
     7
370
     9
100
AcDbSpline
210
0.0
220
0.0
230
1.0
 70
    11
 71
     3
 72
    84
 73
    80
 74
     0
 42
0.0000000001
 43
0.0000000001
 12
1.0
 22
0.0
 32
0.0
 13
1.0
 23
0.0
 33
0.0
 40
0.0
 40
0.0
 40
0.0
 40
0.0
 40
0.0476190476190476
 40
0.0476190476190476
 40
0.0476190476190476
 40
0.0476190476190476
 40
0.0952380952380952
 40
0.0952380952380952
 40
0.0952380952380952
 40
0.0952380952380952
 40
0.1428571428571428
 40
0.1428571428571428
 40
0.1428571428571428
 40
0.1428571428571428
 40
0.1904761904761905
 40
0.1904761904761905
 40
0.1904761904761905
 40
0.1904761904761905
 40
0.2380952380952381
 40
0.2380952380952381
 40
0.2380952380952381
 40
0.2380952380952381
 40
0.2857142857142857
 40
0.2857142857142857
 40
0.2857142857142857
 40
0.2857142857142857
 40
0.3333333333333333
 40
0.3333333333333333
 40
0.3333333333333333
 40
0.3333333333333333
 40
0.3809523809523809
 40
0.3809523809523809
 40
0.3809523809523809
 40
0.3809523809523809
 40
0.4285714285714285
 40
0.4285714285714285
 40
0.4285714285714285
 40
0.4285714285714285
 40
0.4761904761904762
 40
0.4761904761904762
 40
0.4761904761904762
 40
0.4761904761904762
 40
0.5238095238095238
 40
0.5238095238095238
 40
0.5238095238095238
 40
0.5238095238095238
 40
0.5714285714285714
 40
0.5714285714285714
 40
0.5714285714285714
 40
0.5714285714285714
 40
0.6190476190476191
 40
0.6190476190476191
 40
0.6190476190476191
 40
0.6190476190476191
 40
0.6666666666666666
 40
0.6666666666666666
 40
0.6666666666666666
 40
0.6666666666666666
 40
0.7142857142857143
 40
0.7142857142857143
 40
0.7142857142857143
 40
0.7142857142857143
 40
0.7619047619047619
 40
0.7619047619047619
 40
0.7619047619047619
 40
0.7619047619047619
 40
0.8095238095238095
 40
0.8095238095238095
 40
0.8095238095238095
 40
0.8095238095238095
 40
0.8571428571428571
 40
0.8571428571428571
 40
0.8571428571428571
 40
0.8571428571428571
 40
0.9047619047619048
 40
0.9047619047619048
 40
0.9047619047619048
 40
0.9047619047619048
 40
1.0
 40
1.0
 40
1.0
 40
1.0
 10
70.4078
 20
30.0259
 30
0.0
 10
70.4078
 20
30.0259
 30
0.0
 10
70.4078
 20
51.025
 30
0.0
 10
70.4078
 20
51.025
 30
0.0
 10
70.4078
 20
51.025
 30
0.0
 10
69.9699
 20
49.2001
 30
0.0
 10
68.77
 20
47.6505
 30
0.0
 10
67.1125
 20
46.7698
 30
0.0
 10
67.1125
 20
46.7698
 30
0.0
 10
65.702
 20
46.084
 30
0.0
 10
64.2178
 20
45.5616
 30
0.0
 10
62.6888
 20
45.2125
 30
0.0
 10
62.6888
 20
45.2125
 30
0.0
 10
61.6721
 20
45.0925
 30
0.0
 10
60.7591
 20
44.5335
 30
0.0
 10
60.1904
 20
43.6823
 30
0.0
 10
60.1904
 20
43.6823
 30
0.0
 10
59.6215
 20
42.8314
 30
0.0
 10
59.4539
 20
41.7739
 30
0.0
 10
59.732
 20
40.7888
 30
0.0
 10
59.732
 20
40.7888
 30
0.0
 10
60.088
 20
40.0831
 30
0.0
 10
60.7473
 20
39.5792
 30
0.0
 10
61.5216
 20
39.4207
 30
0.0
 10
61.5216
 20
39.4207
 30
0.0
 10
62.2958
 20
39.2623
 30
0.0
 10
63.1
 20
39.4669
 30
0.0
 10
63.7044
 20
39.9762
 30
0.0
 10
63.7044
 20
39.9762
 30
0.0
 10
63.7417
 20
40.0258
 30
0.0
 10
63.8002
 20
40.0552
 30
0.0
 10
63.8624
 20
40.0552
 30
0.0
 10
63.8624
 20
40.0552
 30
0.0
 10
63.9246
 20
40.0552
 30
0.0
 10
63.9831
 20
40.0258
 30
0.0
 10
64.0204
 20
39.9762
 30
0.0
 10
64.0204
 20
39.9762
 30
0.0
 10
64.8407
 20
38.7264
 30
0.0
 10
64.6416
 20
37.0673
 30
0.0
 10
63.5488
 20
36.0471
 30
0.0
 10
63.5488
 20
36.0471
 30
0.0
 10
62.4561
 20
35.0267
 30
0.0
 10
60.7873
 20
34.9417
 30
0.0
 10
59.5966
 20
35.8458
 30
0.0
 10
59.5966
 20
35.8458
 30
0.0
 10
58.5595
 20
36.7309
 30
0.0
 10
57.7413
 20
37.8438
 30
0.0
 10
57.2056
 20
39.0976
 30
0.0
 10
57.2056
 20
39.0976
 30
0.0
 10
57.9656
 20
35.2766
 30
0.0
 10
57.9113
 20
31.3384
 30
0.0
 10
57.0461
 20
27.5399
 30
0.0
 10
57.0461
 20
27.5399
 30
0.0
 10
58.9644
 20
29.9257
 30
0.0
 10
62.4434
 20
30.3279
 30
0.0
 10
64.8555
 20
28.4427
 30
0.0
 10
64.8555
 20
28.4427
 30
0.0
 10
65.5724
 20
27.9132
 30
0.0
 10
66.5674
 20
27.9809
 30
0.0
 10
67.2059
 20
28.6027
 30
0.0
 10
67.2059
 20
28.6027
 30
0.0
 10
67.8445
 20
29.2246
 30
0.0
 10
67.9387
 20
30.2172
 30
0.0
 10
67.4285
 20
30.9481
 30
0.0
 10
67.4285
 20
30.9481
 30
0.0
 10
67.3231
 20
31.0542
 30
0.0
 10
67.3231
 20
31.2255
 30
0.0
 10
67.4285
 20
31.3318
 30
0.0
 10
67.4285
 20
31.3318
 30
0.0
 10
67.9826
 20
31.5848
 30
0.0
 10
68.6172
 20
31.5945
 30
0.0
 10
69.1788
 20
31.3586
 30
0.0
 10
69.1788
 20
31.3586
 30
0.0
 10
69.7403
 20
31.123
 30
0.0
 10
70.1778
 20
30.6632
 30
0.0
 10
70.3852
 20
30.0904
 30
0.0
 10
70.3852
 20
30.0904
 30
0.0
 10
70.3933
 20
30.069
 30
0.0
 10
70.4008
 20
30.0477
 30
0.0
 10
70.4078
 20
30.0259
 30
0.0
  0
SPLINE
  5
86
330
1F
100
AcDbEntity
  8
layer 1
 62
     7
370
     9
100
AcDbSpline
210
0.0
220
0.0
230
1.0
 70
    11
 71
     3
 72
    36
 73
    32
 74
     0
 42
0.0000000001
 43
0.0000000001
 12
1.0
 22
0.0
 32
0.0
 13
1.0
 23
0.0
 33
0.0
 40
0.0
 40
0.0
 40
0.0
 40
0.0
 40
0.1111111111111111
 40
0.1111111111111111
 40
0.1111111111111111
 40
0.1111111111111111
 40
0.2222222222222222
 40
0.2222222222222222
 40
0.2222222222222222
 40
0.2222222222222222
 40
0.3333333333333333
 40
0.3333333333333333
 40
0.3333333333333333
 40
0.3333333333333333
 40
0.4444444444444444
 40
0.4444444444444444
 40
0.4444444444444444
 40
0.4444444444444444
 40
0.5555555555555556
 40
0.5555555555555556
 40
0.5555555555555556
 40
0.5555555555555556
 40
0.6666666666666666
 40
0.6666666666666666
 40
0.6666666666666666
 40
0.6666666666666666
 40
0.7777777777777778
 40
0.7777777777777778
 40
0.7777777777777778
 40
0.7777777777777778
 40
1.0
 40
1.0
 40
1.0
 40
1.0
 10
70.4078
 20
12.5533
 30
0.0
 10
70.4078
 20
12.5533
 30
0.0
 10
70.4078
 20
26.8
 30
0.0
 10
70.4078
 20
26.8
 30
0.0
 10
70.4078
 20
26.8
 30
0.0
 10
70.3933
 20
26.7606
 30
0.0
 10
70.3782
 20
26.7213
 30
0.0
 10
70.3627
 20
26.6822
 30
0.0
 10
70.3627
 20
26.6822
 30
0.0
 10
70.0522
 20
25.9082
 30
0.0
 10
69.4229
 20
25.3058
 30
0.0
 10
68.6362
 20
25.029
 30
0.0
 10
68.6362
 20
25.029
 30
0.0
 10
67.8494
 20
24.7524
 30
0.0
 10
66.9815
 20
24.8284
 30
0.0
 10
66.2549
 20
25.2378
 30
0.0
 10
66.2549
 20
25.2378
 30
0.0
 10
67.4064
 20
23.9358
 30
0.0
 10
67.9838
 20
22.2243
 30
0.0
 10
67.8563
 20
20.4907
 30
0.0
 10
67.8563
 20
20.4907
 30
0.0
 10
67.7288
 20
18.7573
 30
0.0
 10
66.9073
 20
17.1486
 30
0.0
 10
65.5777
 20
16.0292
 30
0.0
 10
65.5777
 20
16.0292
 30
0.0
 10
66.682
 20
16.2306
 30
0.0
 10
67.8208
 20
15.974
 30
0.0
 10
68.7319
 20
15.3185
 30
0.0
 10
68.7319
 20
15.3185
 30
0.0
 10
69.6431
 20
14.6627
 30
0.0
 10
70.2481
 20
13.6644
 30
0.0
 10
70.4078
 20
12.5533
 30
0.0
  0
SPLINE
  5
87
330
1F
100
AcDbEntity
  8
layer 1
 62
     7
370
     9
100
AcDbSpline
210
0.0
220
0.0
230
1.0
 70
    11
 71
     3
 72
    44
 73
    40
 74
     0
 42
0.0000000001
 43
0.0000000001
 12
1.0
 22
0.0
 32
0.0
 13
1.0
 23
0.0
 33
0.0
 40
0.0
 40
0.0
 40
0.0
 40
0.0
 40
0.0909090909090909
 40
0.0909090909090909
 40
0.0909090909090909
 40
0.0909090909090909
 40
0.1818181818181818
 40
0.1818181818181818
 40
0.1818181818181818
 40
0.1818181818181818
 40
0.2727272727272727
 40
0.2727272727272727
 40
0.2727272727272727
 40
0.2727272727272727
 40
0.3636363636363636
 40
0.3636363636363636
 40
0.3636363636363636
 40
0.3636363636363636
 40
0.4545454545454545
 40
0.4545454545454545
 40
0.4545454545454545
 40
0.4545454545454545
 40
0.5454545454545454
 40
0.5454545454545454
 40
0.5454545454545454
 40
0.5454545454545454
 40
0.6363636363636364
 40
0.6363636363636364
 40
0.6363636363636364
 40
0.6363636363636364
 40
0.7272727272727273
 40
0.7272727272727273
 40
0.7272727272727273
 40
0.7272727272727273
 40
0.8181818181818182
 40
0.8181818181818182
 40
0.8181818181818182
 40
0.8181818181818182
 40
1.0
 40
1.0
 40
1.0
 40
1.0
 10
58.8321
 20
22.6112
 30
0.0
 10
58.8236
 20
22.56
 30
0.0
 10
58.794
 20
22.5146
 30
0.0
 10
58.7506
 20
22.4862
 30
0.0
 10
58.7506
 20
22.4862
 30
0.0
 10
58.7072
 20
22.4578
 30
0.0
 10
58.6539
 20
22.449
 30
0.0
 10
58.6036
 20
22.4617
 30
0.0
 10
58.6036
 20
22.4617
 30
0.0
 10
57.2128
 20
22.5462
 30
0.0
 10
56.1214
 20
23.6868
 30
0.0
 10
56.0982
 20
25.0798
 30
0.0
 10
56.0982
 20
25.0798
 30
0.0
 10
55.8076
 20
22.4755
 30
0.0
 10
54.1831
 20
20.2098
 30
0.0
 10
51.8098
 20
19.0986
 30
0.0
 10
51.8098
 20
19.0986
 30
0.0
 10
54.8265
 20
17.1858
 30
0.0
 10
58.5919
 20
16.882
 30
0.0
 10
61.8762
 20
18.2862
 30
0.0
 10
61.8762
 20
18.2862
 30
0.0
 10
63.0471
 20
18.7754
 30
0.0
 10
63.891
 20
19.8237
 30
0.0
 10
64.1188
 20
21.072
 30
0.0
 10
64.1188
 20
21.072
 30
0.0
 10
64.3466
 20
22.3203
 30
0.0
 10
63.9274
 20
23.5991
 30
0.0
 10
63.0047
 20
24.4703
 30
0.0
 10
63.0047
 20
24.4703
 30
0.0
 10
62.2879
 20
25.0748
 30
0.0
 10
61.2959
 20
25.234
 30
0.0
 10
60.426
 20
24.884
 30
0.0
 10
60.426
 20
24.884
 30
0.0
 10
59.5562
 20
24.5341
 30
0.0
 10
58.9505
 20
23.7326
 30
0.0
 10
58.8518
 20
22.8002
 30
0.0
 10
58.8518
 20
22.8002
 30
0.0
 10
58.8428
 20
22.7374
 30
0.0
 10
58.8363
 20
22.6745
 30
0.0
 10
58.8321
 20
22.6112
 30
0.0
  0
SPLINE
  5
88
330
1F
100
AcDbEntity
  8
layer 1
 62
     7
370
     9
100
AcDbSpline
210
0.0
220
0.0
230
1.0
 70
    11
 71
     3
 72
    28
 73
    24
 74
     0
 42
0.0000000001
 43
0.0000000001
 12
1.0
 22
0.0
 32
0.0
 13
1.0
 23
0.0
 33
0.0
 40
0.0
 40
0.0
 40
0.0
 40
0.0
 40
0.1428571428571428
 40
0.1428571428571428
 40
0.1428571428571428
 40
0.1428571428571428
 40
0.2857142857142857
 40
0.2857142857142857
 40
0.2857142857142857
 40
0.2857142857142857
 40
0.4285714285714285
 40
0.4285714285714285
 40
0.4285714285714285
 40
0.4285714285714285
 40
0.5714285714285714
 40
0.5714285714285714
 40
0.5714285714285714
 40
0.5714285714285714
 40
0.7142857142857143
 40
0.7142857142857143
 40
0.7142857142857143
 40
0.7142857142857143
 40
1.0
 40
1.0
 40
1.0
 40
1.0
 10
51.6744
 20
42.3009
 30
0.0
 10
51.9615
 20
44.27
 30
0.0
 10
52.4921
 20
46.1956
 30
0.0
 10
53.2544
 20
48.0337
 30
0.0
 10
53.2544
 20
48.0337
 30
0.0
 10
52.6041
 20
43.1509
 30
0.0
 10
52.8798
 20
38.189
 30
0.0
 10
54.0669
 20
33.4082
 30
0.0
 10
54.0669
 20
33.4082
 30
0.0
 10
54.7914
 20
31.144
 30
0.0
 10
54.8851
 20
28.725
 30
0.0
 10
54.3378
 20
26.4115
 30
0.0
 10
54.3378
 20
26.4115
 30
0.0
 10
54.1839
 20
28.197
 30
0.0
 10
53.2035
 20
29.8078
 30
0.0
 10
51.6882
 20
30.7649
 30
0.0
 10
51.6882
 20
30.7649
 30
0.0
 10
50.173
 20
31.7219
 30
0.0
 10
48.2971
 20
31.915
 30
0.0
 10
46.6187
 20
31.2867
 30
0.0
 10
46.6187
 20
31.2867
 30
0.0
 10
49.408
 20
34.3433
 30
0.0
 10
51.1751
 20
38.1932
 30
0.0
 10
51.6744
 20
42.3009
 30
0.0
  0
SPLINE
  5
89
330
1F
100
AcDbEntity
  8
layer 1
 62
     7
370
     9
100
AcDbSpline
210
0.0
220
0.0
230
1.0
 70
    11
 71
     3
 72
    48
 73
    44
 74
     0
 42
0.0000000001
 43
0.0000000001
 12
1.0
 22
0.0
 32
0.0
 13
1.0
 23
0.0
 33
0.0
 40
0.0
 40
0.0
 40
0.0
 40
0.0
 40
0.0833333333333333
 40
0.0833333333333333
 40
0.0833333333333333
 40
0.0833333333333333
 40
0.1666666666666667
 40
0.1666666666666667
 40
0.1666666666666667
 40
0.1666666666666667
 40
0.25
 40
0.25
 40
0.25
 40
0.25
 40
0.3333333333333333
 40
0.3333333333333333
 40
0.3333333333333333
 40
0.3333333333333333
 40
0.4166666666666667
 40
0.4166666666666667
 40
0.4166666666666667
 40
0.4166666666666667
 40
0.5
 40
0.5
 40
0.5
 40
0.5
 40
0.5833333333333334
 40
0.5833333333333334
 40
0.5833333333333334
 40
0.5833333333333334
 40
0.6666666666666666
 40
0.6666666666666666
 40
0.6666666666666666
 40
0.6666666666666666
 40
0.75
 40
0.75
 40
0.75
 40
0.75
 40
0.8333333333333334
 40
0.8333333333333334
 40
0.8333333333333334
 40
0.8333333333333334
 40
1.0
 40
1.0
 40
1.0
 40
1.0
 10
58.2198
 20
82.7012
 30
0.0
 10
56.5838
 20
86.2321
 30
0.0
 10
52.9904
 20
88.4385
 30
0.0
 10
49.1015
 20
88.2999
 30
0.0
 10
49.1015
 20
88.2999
 30
0.0
 10
49.0043
 20
88.2999
 30
0.0
 10
48.9144
 20
88.2481
 30
0.0
 10
48.8673
 20
88.163
 30
0.0
 10
48.8673
 20
88.163
 30
0.0
 10
48.82
 20
88.0778
 30
0.0
 10
48.8234
 20
87.9742
 30
0.0
 10
48.8758
 20
87.8924
 30
0.0
 10
48.8758
 20
87.8924
 30
0.0
 10
51.4813
 20
84.1744
 30
0.0
 10
52.9693
 20
79.7899
 30
0.0
 10
53.1641
 20
75.2535
 30
0.0
 10
53.1641
 20
75.2535
 30
0.0
 10
53.216
 20
69.1387
 30
0.0
 10
51.3448
 20
63.1608
 30
0.0
 10
47.8149
 20
58.1684
 30
0.0
 10
47.8149
 20
58.1684
 30
0.0
 10
45.7586
 20
55.1769
 30
0.0
 10
43.3782
 20
52.421
 30
0.0
 10
40.7166
 20
49.9522
 30
0.0
 10
40.7166
 20
49.9522
 30
0.0
 10
40.6615
 20
49.8718
 30
0.0
 10
40.6673
 20
49.7643
 30
0.0
 10
40.7308
 20
49.6903
 30
0.0
 10
40.7308
 20
49.6903
 30
0.0
 10
40.7941
 20
49.6161
 30
0.0
 10
40.8995
 20
49.5941
 30
0.0
 10
40.9874
 20
49.6362
 30
0.0
 10
40.9874
 20
49.6362
 30
0.0
 10
40.9874
 20
49.6362
 30
0.0
 10
41.7435
 20
50.0651
 30
0.0
 10
41.7435
 20
50.0651
 30
0.0
 10
41.7435
 20
50.0651
 30
0.0
 10
48.589
 20
54.5005
 30
0.0
 10
54.0854
 20
60.7305
 30
0.0
 10
57.633
 20
68.0764
 30
0.0
 10
57.633
 20
68.0764
 30
0.0
 10
59.6754
 20
72.7013
 30
0.0
 10
59.8852
 20
77.9276
 30
0.0
 10
58.2198
 20
82.7012
 30
0.0
  0
SPLINE
  5
8A
330
1F
100
AcDbEntity
  8
layer 1
 62
     7
370
     9
100
AcDbSpline
210
0.0
220
0.0
230
1.0
 70
    11
 71
     3
 72
    36
 73
    32
 74
     0
 42
0.0000000001
 43
0.0000000001
 12
1.0
 22
0.0
 32
0.0
 13
1.0
 23
0.0
 33
0.0
 40
0.0
 40
0.0
 40
0.0
 40
0.0
 40
0.1111111111111111
 40
0.1111111111111111
 40
0.1111111111111111
 40
0.1111111111111111
 40
0.2222222222222222
 40
0.2222222222222222
 40
0.2222222222222222
 40
0.2222222222222222
 40
0.3333333333333333
 40
0.3333333333333333
 40
0.3333333333333333
 40
0.3333333333333333
 40
0.4444444444444444
 40
0.4444444444444444
 40
0.4444444444444444
 40
0.4444444444444444
 40
0.5555555555555556
 40
0.5555555555555556
 40
0.5555555555555556
 40
0.5555555555555556
 40
0.6666666666666666
 40
0.6666666666666666
 40
0.6666666666666666
 40
0.6666666666666666
 40
0.7777777777777778
 40
0.7777777777777778
 40
0.7777777777777778
 40
0.7777777777777778
 40
1.0
 40
1.0
 40
1.0
 40
1.0
 10
63.4336
 20
63.7203
 30
0.0
 10
63.4536
 20
63.6418
 30
0.0
 10
63.5191
 20
63.585
 30
0.0
 10
63.5988
 20
63.575
 30
0.0
 10
63.5988
 20
63.575
 30
0.0
 10
63.6785
 20
63.565
 30
0.0
 10
63.7562
 20
63.6051
 30
0.0
 10
63.7947
 20
63.6752
 30
0.0
 10
63.7947
 20
63.6752
 30
0.0
 10
64.2367
 20
64.3584
 30
0.0
 10
65.0362
 20
64.7208
 30
0.0
 10
65.8417
 20
64.6055
 30
0.0
 10
65.8417
 20
64.6055
 30
0.0
 10
66.6472
 20
64.4886
 30
0.0
 10
67.311
 20
63.9141
 30
0.0
 10
67.5414
 20
63.1341
 30
0.0
 10
67.5414
 20
63.1341
 30
0.0
 10
67.5907
 20
61.4254
 30
0.0
 10
66.4135
 20
59.9255
 30
0.0
 10
64.7426
 20
59.5664
 30
0.0
 10
64.7426
 20
59.5664
 30
0.0
 10
62.8147
 20
59.4745
 30
0.0
 10
60.8976
 20
59.2256
 30
0.0
 10
59.0098
 20
58.8231
 30
0.0
 10
59.0098
 20
58.8231
 30
0.0
 10
60.8227
 20
60.7606
 30
0.0
 10
62.2478
 20
63.0288
 30
0.0
 10
63.2079
 20
65.5025
 30
0.0
 10
63.2079
 20
65.5025
 30
0.0
 10
63.0598
 20
64.9012
 30
0.0
 10
63.1402
 20
64.2665
 30
0.0
 10
63.4336
 20
63.7203
 30
0.0
  0
SPLINE
  5
8B
330
1F
100
AcDbEntity
  8
layer 1
 62
     7
370
     9
100
AcDbSpline
210
0.0
220
0.0
230
1.0
 70
    11
 71
     3
 72
    52
 73
    48
 74
     0
 42
0.0000000001
 43
0.0000000001
 12
1.0
 22
0.0
 32
0.0
 13
1.0
 23
0.0
 33
0.0
 40
0.0
 40
0.0
 40
0.0
 40
0.0
 40
0.0769230769230769
 40
0.0769230769230769
 40
0.0769230769230769
 40
0.0769230769230769
 40
0.1538461538461539
 40
0.1538461538461539
 40
0.1538461538461539
 40
0.1538461538461539
 40
0.2307692307692308
 40
0.2307692307692308
 40
0.2307692307692308
 40
0.2307692307692308
 40
0.3076923076923077
 40
0.3076923076923077
 40
0.3076923076923077
 40
0.3076923076923077
 40
0.3846153846153846
 40
0.3846153846153846
 40
0.3846153846153846
 40
0.3846153846153846
 40
0.4615384615384616
 40
0.4615384615384616
 40
0.4615384615384616
 40
0.4615384615384616
 40
0.5384615384615384
 40
0.5384615384615384
 40
0.5384615384615384
 40
0.5384615384615384
 40
0.6153846153846154
 40
0.6153846153846154
 40
0.6153846153846154
 40
0.6153846153846154
 40
0.6923076923076923
 40
0.6923076923076923
 40
0.6923076923076923
 40
0.6923076923076923
 40
0.7692307692307693
 40
0.7692307692307693
 40
0.7692307692307693
 40
0.7692307692307693
 40
0.8461538461538461
 40
0.8461538461538461
 40
0.8461538461538461
 40
0.8461538461538461
 40
1.0
 40
1.0
 40
1.0
 40
1.0
 10
56.9108
 20
41.2175
 30
0.0
 10
57.1552
 20
44.0077
 30
0.0
 10
59.0935
 20
46.3589
 30
0.0
 10
61.7859
 20
47.1309
 30
0.0
 10
61.7859
 20
47.1309
 30
0.0
 10
60.011
 20
47.4749
 30
0.0
 10
58.8476
 20
49.1884
 30
0.0
 10
59.183
 20
50.965
 30
0.0
 10
59.183
 20
50.965
 30
0.0
 10
59.5186
 20
52.7415
 30
0.0
 10
61.2266
 20
53.9125
 30
0.0
 10
63.0047
 20
53.5869
 30
0.0
 10
63.0047
 20
53.5869
 30
0.0
 10
63.0708
 20
53.6052
 30
0.0
 10
63.1424
 20
53.5869
 30
0.0
 10
63.1899
 20
53.5367
 30
0.0
 10
63.1899
 20
53.5367
 30
0.0
 10
63.2374
 20
53.4866
 30
0.0
 10
63.2531
 20
53.4148
 30
0.0
 10
63.2304
 20
53.3496
 30
0.0
 10
63.2304
 20
53.3496
 30
0.0
 10
62.6038
 20
52.7061
 30
0.0
 10
62.4743
 20
51.7277
 30
0.0
 10
62.9118
 20
50.9436
 30
0.0
 10
62.9118
 20
50.9436
 30
0.0
 10
63.3494
 20
50.1598
 30
0.0
 10
64.2501
 20
49.7564
 30
0.0
 10
65.1263
 20
49.9522
 30
0.0
 10
65.1263
 20
49.9522
 30
0.0
 10
66.0145
 20
50.1331
 30
0.0
 10
66.7862
 20
50.6779
 30
0.0
 10
67.2538
 20
51.4544
 30
0.0
 10
67.2538
 20
51.4544
 30
0.0
 10
67.7214
 20
52.2309
 30
0.0
 10
67.842
 20
53.1676
 30
0.0
 10
67.5865
 20
54.0378
 30
0.0
 10
67.5865
 20
54.0378
 30
0.0
 10
66.8993
 20
56.3328
 30
0.0
 10
64.6301
 20
57.7759
 30
0.0
 10
62.2599
 20
57.4234
 30
0.0
 10
62.2599
 20
57.4234
 30
0.0
 10
58.917
 20
56.7537
 30
0.0
 10
56.443
 20
53.9192
 30
0.0
 10
56.2337
 20
50.5166
 30
0.0
 10
56.2337
 20
50.5166
 30
0.0
 10
56.0077
 20
47.4004
 30
0.0
 10
56.2358
 20
44.2681
 30
0.0
 10
56.9108
 20
41.2175
 30
0.0
  0
SPLINE
  5
8C
330
1F
100
AcDbEntity
  8
layer 1
 62
     7
370
     9
100
AcDbSpline
210
0.0
220
0.0
230
1.0
 70
    11
 71
     3
 72
    96
 73
    92
 74
     0
 42
0.0000000001
 43
0.0000000001
 12
1.0
 22
0.0
 32
0.0
 13
1.0
 23
0.0
 33
0.0
 40
0.0
 40
0.0
 40
0.0
 40
0.0
 40
0.0416666666666667
 40
0.0416666666666667
 40
0.0416666666666667
 40
0.0416666666666667
 40
0.0833333333333333
 40
0.0833333333333333
 40
0.0833333333333333
 40
0.0833333333333333
 40
0.125
 40
0.125
 40
0.125
 40
0.125
 40
0.1666666666666667
 40
0.1666666666666667
 40
0.1666666666666667
 40
0.1666666666666667
 40
0.2083333333333333
 40
0.2083333333333333
 40
0.2083333333333333
 40
0.2083333333333333
 40
0.25
 40
0.25
 40
0.25
 40
0.25
 40
0.2916666666666667
 40
0.2916666666666667
 40
0.2916666666666667
 40
0.2916666666666667
 40
0.3333333333333333
 40
0.3333333333333333
 40
0.3333333333333333
 40
0.3333333333333333
 40
0.375
 40
0.375
 40
0.375
 40
0.375
 40
0.4166666666666667
 40
0.4166666666666667
 40
0.4166666666666667
 40
0.4166666666666667
 40
0.4583333333333333
 40
0.4583333333333333
 40
0.4583333333333333
 40
0.4583333333333333
 40
0.5
 40
0.5
 40
0.5
 40
0.5
 40
0.5416666666666666
 40
0.5416666666666666
 40
0.5416666666666666
 40
0.5416666666666666
 40
0.5833333333333334
 40
0.5833333333333334
 40
0.5833333333333334
 40
0.5833333333333334
 40
0.625
 40
0.625
 40
0.625
 40
0.625
 40
0.6666666666666666
 40
0.6666666666666666
 40
0.6666666666666666
 40
0.6666666666666666
 40
0.7083333333333334
 40
0.7083333333333334
 40
0.7083333333333334
 40
0.7083333333333334
 40
0.75
 40
0.75
 40
0.75
 40
0.75
 40
0.7916666666666666
 40
0.7916666666666666
 40
0.7916666666666666
 40
0.7916666666666666
 40
0.8333333333333334
 40
0.8333333333333334
 40
0.8333333333333334
 40
0.8333333333333334
 40
0.875
 40
0.875
 40
0.875
 40
0.875
 40
0.9166666666666666
 40
0.9166666666666666
 40
0.9166666666666666
 40
0.9166666666666666
 40
1.0
 40
1.0
 40
1.0
 40
1.0
 10
39.1932
 20
107.8904
 30
0.0
 10
40.5999
 20
109.0529
 30
0.0
 10
41.6551
 20
110.5845
 30
0.0
 10
42.2401
 20
112.3133
 30
0.0
 10
42.2401
 20
112.3133
 30
0.0
 10
42.0263
 20
108.4583
 30
0.0
 10
43.6708
 20
104.7336
 30
0.0
 10
46.6639
 20
102.2934
 30
0.0
 10
46.6639
 20
102.2934
 30
0.0
 10
50.8444
 20
99.3554
 30
0.0
 10
56.1969
 20
98.6489
 30
0.0
 10
60.997
 20
100.3976
 30
0.0
 10
60.997
 20
100.3976
 30
0.0
 10
60.1252
 20
99.5224
 30
0.0
 10
59.8273
 20
98.2263
 30
0.0
 10
60.2286
 20
97.0571
 30
0.0
 10
60.2286
 20
97.0571
 30
0.0
 10
60.267
 20
96.9518
 30
0.0
 10
60.3627
 20
96.8784
 30
0.0
 10
60.4738
 20
96.8683
 30
0.0
 10
60.4738
 20
96.8683
 30
0.0
 10
60.5849
 20
96.86
 30
0.0
 10
60.6916
 20
96.9151
 30
0.0
 10
60.7477
 20
97.012
 30
0.0
 10
60.7477
 20
97.012
 30
0.0
 10
61.3178
 20
97.6016
 30
0.0
 10
62.1193
 20
97.9089
 30
0.0
 10
62.9376
 20
97.8521
 30
0.0
 10
62.9376
 20
97.8521
 30
0.0
 10
63.7558
 20
97.7954
 30
0.0
 10
64.5074
 20
97.3811
 30
0.0
 10
64.9909
 20
96.718
 30
0.0
 10
64.9909
 20
96.718
 30
0.0
 10
65.3599
 20
95.6774
 30
0.0
 10
65.1399
 20
94.52
 30
0.0
 10
64.4151
 20
93.6865
 30
0.0
 10
64.4151
 20
93.6865
 30
0.0
 10
63.6904
 20
92.8547
 30
0.0
 10
62.5735
 20
92.4772
 30
0.0
 10
61.4925
 20
92.7011
 30
0.0
 10
61.4925
 20
92.7011
 30
0.0
 10
59.88
 20
93.1069
 30
0.0
 10
58.3519
 20
93.7934
 30
0.0
 10
56.9785
 20
94.7321
 30
0.0
 10
56.9785
 20
94.7321
 30
0.0
 10
53.6839
 20
96.8734
 30
0.0
 10
49.4078
 20
96.7581
 30
0.0
 10
46.235
 20
94.4381
 30
0.0
 10
46.235
 20
94.4381
 30
0.0
 10
46.1503
 20
94.363
 30
0.0
 10
46.0598
 20
94.2962
 30
0.0
 10
45.9641
 20
94.2343
 30
0.0
 10
45.9641
 20
94.2343
 30
0.0
 10
46.2479
 20
95.4737
 30
0.0
 10
45.9173
 20
96.7748
 30
0.0
 10
45.076
 20
97.7269
 30
0.0
 10
45.076
 20
97.7269
 30
0.0
 10
44.2348
 20
98.6806
 30
0.0
 10
42.9858
 20
99.17
 30
0.0
 10
41.7209
 20
99.043
 30
0.0
 10
41.7209
 20
99.043
 30
0.0
 10
42.3306
 20
99.7546
 30
0.0
 10
42.6311
 20
100.6816
 30
0.0
 10
42.5561
 20
101.6152
 30
0.0
 10
42.5561
 20
101.6152
 30
0.0
 10
42.4986
 20
101.7355
 30
0.0
 10
42.3727
 20
101.8073
 30
0.0
 10
42.2401
 20
101.7956
 30
0.0
 10
42.2401
 20
101.7956
 30
0.0
 10
40.2984
 20
102.0796
 30
0.0
 10
38.3198
 20
101.6553
 30
0.0
 10
36.6652
 20
100.5997
 30
0.0
 10
36.6652
 20
100.5997
 30
0.0
 10
38.1845
 20
101.7906
 30
0.0
 10
39.4701
 20
103.2521
 30
0.0
 10
40.4571
 20
104.9107
 30
0.0
 10
40.4571
 20
104.9107
 30
0.0
 10
40.9364
 20
105.684
 30
0.0
 10
41.2872
 20
106.5308
 30
0.0
 10
41.4953
 20
107.4161
 30
0.0
 10
41.4953
 20
107.4161
 30
0.0
 10
41.5507
 20
107.5263
 30
0.0
 10
41.5491
 20
107.6549
 30
0.0
 10
41.4905
 20
107.7635
 30
0.0
 10
41.4905
 20
107.7635
 30
0.0
 10
41.432
 20
107.872
 30
0.0
 10
41.3241
 20
107.9439
 30
0.0
 10
41.2018
 20
107.9572
 30
0.0
 10
41.2018
 20
107.9572
 30
0.0
 10
40.5367
 20
108.0975
 30
0.0
 10
39.8474
 20
108.0741
 30
0.0
 10
39.1932
 20
107.8904
 30
0.0
  0
SPLINE
  5
8D
330
1F
100
AcDbEntity
  8
layer 1
 62
     7
370
     9
100
AcDbSpline
210
0.0
220
0.0
230
1.0
 70
    11
 71
     3
 72
    28
 73
    24
 74
     0
 42
0.0000000001
 43
0.0000000001
 12
1.0
 22
0.0
 32
0.0
 13
1.0
 23
0.0
 33
0.0
 40
0.0
 40
0.0
 40
0.0
 40
0.0
 40
0.1428571428571428
 40
0.1428571428571428
 40
0.1428571428571428
 40
0.1428571428571428
 40
0.2857142857142857
 40
0.2857142857142857
 40
0.2857142857142857
 40
0.2857142857142857
 40
0.4285714285714285
 40
0.4285714285714285
 40
0.4285714285714285
 40
0.4285714285714285
 40
0.5714285714285714
 40
0.5714285714285714
 40
0.5714285714285714
 40
0.5714285714285714
 40
0.7142857142857143
 40
0.7142857142857143
 40
0.7142857142857143
 40
0.7142857142857143
 40
1.0
 40
1.0
 40
1.0
 40
1.0
 10
58.4902
 20
107.3008
 30
0.0
 10
65.1442
 20
108.4366
 30
0.0
 10
70.1064
 20
114.057
 30
0.0
 10
70.4078
 20
120.7999
 30
0.0
 10
70.4078
 20
120.7999
 30
0.0
 10
68.6245
 20
118.221
 30
0.0
 10
65.6414
 20
116.7378
 30
0.0
 10
62.5082
 20
116.8731
 30
0.0
 10
62.5082
 20
116.8731
 30
0.0
 10
63.2946
 20
113.1935
 30
0.0
 10
61.6483
 20
109.4204
 30
0.0
 10
58.4152
 20
107.4946
 30
0.0
 10
58.4152
 20
107.4946
 30
0.0
 10
58.4159
 20
107.4929
 30
0.0
 10
58.4166
 20
107.4896
 30
0.0
 10
58.4174
 20
107.4862
 30
0.0
 10
58.4174
 20
107.4862
 30
0.0
 10
58.4271
 20
107.4545
 30
0.0
 10
58.4374
 20
107.4228
 30
0.0
 10
58.4496
 20
107.3927
 30
0.0
 10
58.4496
 20
107.3927
 30
0.0
 10
58.4618
 20
107.3609
 30
0.0
 10
58.4757
 20
107.3309
 30
0.0
 10
58.4902
 20
107.3008
 30
0.0
  0
SPLINE
  5
8E
330
1F
100
AcDbEntity
  8
layer 1
 62
     7
370
     9
100
AcDbSpline
210
0.0
220
0.0
230
1.0
 70
    11
 71
     3
 72
    24
 73
    20
 74
     0
 42
0.0000000001
 43
0.0000000001
 12
1.0
 22
0.0
 32
0.0
 13
1.0
 23
0.0
 33
0.0
 40
0.0
 40
0.0
 40
0.0
 40
0.0
 40
0.1666666666666667
 40
0.1666666666666667
 40
0.1666666666666667
 40
0.1666666666666667
 40
0.3333333333333333
 40
0.3333333333333333
 40
0.3333333333333333
 40
0.3333333333333333
 40
0.5
 40
0.5
 40
0.5
 40
0.5
 40
0.6666666666666666
 40
0.6666666666666666
 40
0.6666666666666666
 40
0.6666666666666666
 40
1.0
 40
1.0
 40
1.0
 40
1.0
 10
57.2268
 20
102.1113
 30
0.0
 10
54.1781
 20
101.7739
 30
0.0
 10
51.1918
 20
103.1469
 30
0.0
 10
49.4621
 20
105.679
 30
0.0
 10
49.4621
 20
105.679
 30
0.0
 10
47.7324
 20
108.2128
 30
0.0
 10
47.5416
 20
111.4932
 30
0.0
 10
48.966
 20
114.209
 30
0.0
 10
48.966
 20
114.209
 30
0.0
 10
48.877
 20
112.3033
 30
0.0
 10
49.5673
 20
110.4409
 30
0.0
 10
50.8783
 20
109.0529
 30
0.0
 10
50.8783
 20
109.0529
 30
0.0
 10
52.1895
 20
107.6666
 30
0.0
 10
54.0086
 20
106.8716
 30
0.0
 10
55.9177
 20
106.8515
 30
0.0
 10
55.9177
 20
106.8515
 30
0.0
 10
55.5106
 20
105.1512
 30
0.0
 10
56.005
 20
103.3623
 30
0.0
 10
57.2268
 20
102.1113
 30
0.0
  0
SPLINE
  5
8F
330
1F
100
AcDbEntity
  8
layer 1
 62
     7
370
     9
100
AcDbSpline
210
0.0
220
0.0
230
1.0
 70
    11
 71
     3
 72
    48
 73
    44
 74
     0
 42
0.0000000001
 43
0.0000000001
 12
1.0
 22
0.0
 32
0.0
 13
1.0
 23
0.0
 33
0.0
 40
0.0
 40
0.0
 40
0.0
 40
0.0
 40
0.0833333333333333
 40
0.0833333333333333
 40
0.0833333333333333
 40
0.0833333333333333
 40
0.1666666666666667
 40
0.1666666666666667
 40
0.1666666666666667
 40
0.1666666666666667
 40
0.25
 40
0.25
 40
0.25
 40
0.25
 40
0.3333333333333333
 40
0.3333333333333333
 40
0.3333333333333333
 40
0.3333333333333333
 40
0.4166666666666667
 40
0.4166666666666667
 40
0.4166666666666667
 40
0.4166666666666667
 40
0.5
 40
0.5
 40
0.5
 40
0.5
 40
0.5833333333333334
 40
0.5833333333333334
 40
0.5833333333333334
 40
0.5833333333333334
 40
0.6666666666666666
 40
0.6666666666666666
 40
0.6666666666666666
 40
0.6666666666666666
 40
0.75
 40
0.75
 40
0.75
 40
0.75
 40
0.8333333333333334
 40
0.8333333333333334
 40
0.8333333333333334
 40
0.8333333333333334
 40
1.0
 40
1.0
 40
1.0
 40
1.0
 10
54.7891
 20
115.0675
 30
0.0
 10
54.8828
 20
115.1393
 30
0.0
 10
54.9336
 20
115.2546
 30
0.0
 10
54.9245
 20
115.3732
 30
0.0
 10
54.9245
 20
115.3732
 30
0.0
 10
54.9153
 20
115.4918
 30
0.0
 10
54.8475
 20
115.597
 30
0.0
 10
54.744
 20
115.6538
 30
0.0
 10
54.744
 20
115.6538
 30
0.0
 10
53.5791
 20
116.4739
 30
0.0
 10
52.0654
 20
116.6125
 30
0.0
 10
50.7716
 20
116.0146
 30
0.0
 10
50.7716
 20
116.0146
 30
0.0
 10
50.8529
 20
116.7863
 30
0.0
 10
50.6136
 20
117.5562
 30
0.0
 10
50.1098
 20
118.1458
 30
0.0
 10
50.1098
 20
118.1458
 30
0.0
 10
49.6062
 20
118.7338
 30
0.0
 10
48.8824
 20
119.0912
 30
0.0
 10
48.1084
 20
119.1296
 30
0.0
 10
48.1084
 20
119.1296
 30
0.0
 10
50.6664
 20
121.625
 30
0.0
 10
54.6237
 20
121.9824
 30
0.0
 10
57.5879
 20
119.9881
 30
0.0
 10
57.5879
 20
119.9881
 30
0.0
 10
59.9296
 20
118.1792
 30
0.0
 10
60.567
 20
114.9155
 30
0.0
 10
59.0775
 20
112.3584
 30
0.0
 10
59.0775
 20
112.3584
 30
0.0
 10
58.6033
 20
111.6084
 30
0.0
 10
57.841
 20
111.0873
 30
0.0
 10
56.9698
 20
110.9153
 30
0.0
 10
56.9698
 20
110.9153
 30
0.0
 10
56.0987
 20
110.7449
 30
0.0
 10
55.1956
 20
110.9403
 30
0.0
 10
54.4732
 20
111.4564
 30
0.0
 10
54.4732
 20
111.4564
 30
0.0
 10
53.9224
 20
111.9208
 30
0.0
 10
53.6321
 20
112.6256
 30
0.0
 10
53.6949
 20
113.3438
 30
0.0
 10
53.6949
 20
113.3438
 30
0.0
 10
53.7577
 20
114.062
 30
0.0
 10
54.1659
 20
114.7051
 30
0.0
 10
54.7891
 20
115.0675
 30
0.0
  0
SPLINE
  5
90
330
1F
100
AcDbEntity
  8
layer 1
 62
     7
370
     9
100
AcDbSpline
210
0.0
220
0.0
230
1.0
 70
    11
 71
     3
 72
    28
 73
    24
 74
     0
 42
0.0000000001
 43
0.0000000001
 12
1.0
 22
0.0
 32
0.0
 13
1.0
 23
0.0
 33
0.0
 40
0.0
 40
0.0
 40
0.0
 40
0.0
 40
0.1428571428571428
 40
0.1428571428571428
 40
0.1428571428571428
 40
0.1428571428571428
 40
0.2857142857142857
 40
0.2857142857142857
 40
0.2857142857142857
 40
0.2857142857142857
 40
0.4285714285714285
 40
0.4285714285714285
 40
0.4285714285714285
 40
0.4285714285714285
 40
0.5714285714285714
 40
0.5714285714285714
 40
0.5714285714285714
 40
0.5714285714285714
 40
0.7142857142857143
 40
0.7142857142857143
 40
0.7142857142857143
 40
0.7142857142857143
 40
1.0
 40
1.0
 40
1.0
 40
1.0
 10
40.299
 20
96.379
 30
0.0
 10
35.4275
 20
95.9648
 30
0.0
 10
31.229
 20
92.7862
 30
0.0
 10
29.5105
 20
88.208
 30
0.0
 10
29.5105
 20
88.208
 30
0.0
 10
33.9658
 20
91.0091
 30
0.0
 10
39.6932
 20
90.7385
 30
0.0
 10
43.8652
 20
87.5316
 30
0.0
 10
43.8652
 20
87.5316
 30
0.0
 10
42.7315
 20
89.2687
 30
0.0
 10
43.081
 20
91.5803
 30
0.0
 10
44.6776
 20
92.9032
 30
0.0
 10
44.6776
 20
92.9032
 30
0.0
 10
44.1111
 20
92.7144
 30
0.0
 10
43.5101
 20
92.6543
 30
0.0
 10
42.9172
 20
92.7228
 30
0.0
 10
42.9172
 20
92.7228
 30
0.0
 10
43.2659
 20
93.5679
 30
0.0
 10
43.1543
 20
94.5333
 30
0.0
 10
42.6221
 20
95.2766
 30
0.0
 10
42.6221
 20
95.2766
 30
0.0
 10
42.0896
 20
96.0199
 30
0.0
 10
41.2117
 20
96.4374
 30
0.0
 10
40.299
 20
96.379
 30
0.0
  0
SPLINE
  5
91
330
1F
100
AcDbEntity
  8
layer 1
 62
     7
370
     9
100
AcDbSpline
210
0.0
220
0.0
230
1.0
 70
    11
 71
     3
 72
    36
 73
    32
 74
     0
 42
0.0000000001
 43
0.0000000001
 12
1.0
 22
0.0
 32
0.0
 13
1.0
 23
0.0
 33
0.0
 40
0.0
 40
0.0
 40
0.0
 40
0.0
 40
0.1111111111111111
 40
0.1111111111111111
 40
0.1111111111111111
 40
0.1111111111111111
 40
0.2222222222222222
 40
0.2222222222222222
 40
0.2222222222222222
 40
0.2222222222222222
 40
0.3333333333333333
 40
0.3333333333333333
 40
0.3333333333333333
 40
0.3333333333333333
 40
0.4444444444444444
 40
0.4444444444444444
 40
0.4444444444444444
 40
0.4444444444444444
 40
0.5555555555555556
 40
0.5555555555555556
 40
0.5555555555555556
 40
0.5555555555555556
 40
0.6666666666666666
 40
0.6666666666666666
 40
0.6666666666666666
 40
0.6666666666666666
 40
0.7777777777777778
 40
0.7777777777777778
 40
0.7777777777777778
 40
0.7777777777777778
 40
1.0
 40
1.0
 40
1.0
 40
1.0
 10
30.1425
 20
79.678
 30
0.0
 10
29.2723
 20
81.6389
 30
0.0
 10
29.8714
 20
83.9405
 30
0.0
 10
31.5869
 20
85.23
 30
0.0
 10
31.5869
 20
85.23
 30
0.0
 10
35.3213
 20
87.0155
 30
0.0
 10
39.734
 20
86.6163
 30
0.0
 10
43.086
 20
84.186
 30
0.0
 10
43.086
 20
84.186
 30
0.0
 10
46.4381
 20
81.7575
 30
0.0
 10
48.192
 20
77.6887
 30
0.0
 10
47.6569
 20
73.5832
 30
0.0
 10
47.6569
 20
73.5832
 30
0.0
 10
47.0728
 20
75.0263
 30
0.0
 10
45.8685
 20
76.1304
 30
0.0
 10
44.3793
 20
76.5847
 30
0.0
 10
44.3793
 20
76.5847
 30
0.0
 10
42.8901
 20
77.0407
 30
0.0
 10
41.2748
 20
76.8001
 30
0.0
 10
39.983
 20
75.9299
 30
0.0
 10
39.983
 20
75.9299
 30
0.0
 10
40.9528
 20
78.0629
 30
0.0
 10
40.4779
 20
80.5733
 30
0.0
 10
38.7968
 20
82.2034
 30
0.0
 10
38.7968
 20
82.2034
 30
0.0
 10
37.1155
 20
83.8353
 30
0.0
 10
34.5909
 20
84.2328
 30
0.0
 10
32.4897
 20
83.1989
 30
0.0
 10
32.4897
 20
83.1989
 30
0.0
 10
31.3842
 20
82.2753
 30
0.0
 10
30.5689
 20
81.0526
 30
0.0
 10
30.1425
 20
79.678
 30
0.0
  0
SPLINE
  5
92
330
1F
100
AcDbEntity
  8
layer 1
 62
     7
370
     9
100
AcDbSpline
210
0.0
220
0.0
230
1.0
 70
    11
 71
     3
 72
    20
 73
    16
 74
     0
 42
0.0000000001
 43
0.0000000001
 12
1.0
 22
0.0
 32
0.0
 13
1.0
 23
0.0
 33
0.0
 40
0.0
 40
0.0
 40
0.0
 40
0.0
 40
0.2
 40
0.2
 40
0.2
 40
0.2
 40
0.4
 40
0.4
 40
0.4
 40
0.4
 40
0.6
 40
0.6
 40
0.6
 40
0.6
 40
1.0
 40
1.0
 40
1.0
 40
1.0
 10
34.0246
 20
76.426
 30
0.0
 10
35.3958
 20
76.426
 30
0.0
 10
36.5076
 20
77.5384
 30
0.0
 10
36.5076
 20
78.9097
 30
0.0
 10
36.5076
 20
78.9097
 30
0.0
 10
36.5076
 20
80.281
 30
0.0
 10
35.3958
 20
81.3934
 30
0.0
 10
34.0246
 20
81.3934
 30
0.0
 10
34.0246
 20
81.3934
 30
0.0
 10
32.6531
 20
81.3934
 30
0.0
 10
31.5413
 20
80.281
 30
0.0
 10
31.5413
 20
78.9097
 30
0.0
 10
31.5413
 20
78.9097
 30
0.0
 10
31.5413
 20
77.5384
 30
0.0
 10
32.6531
 20
76.426
 30
0.0
 10
34.0246
 20
76.426
 30
0.0
  0
SPLINE
  5
93
330
1F
100
AcDbEntity
  8
layer 1
 62
     7
370
     9
100
AcDbSpline
210
0.0
220
0.0
230
1.0
 70
    11
 71
     3
 72
    36
 73
    32
 74
     0
 42
0.0000000001
 43
0.0000000001
 12
1.0
 22
0.0
 32
0.0
 13
1.0
 23
0.0
 33
0.0
 40
0.0
 40
0.0
 40
0.0
 40
0.0
 40
0.1111111111111111
 40
0.1111111111111111
 40
0.1111111111111111
 40
0.1111111111111111
 40
0.2222222222222222
 40
0.2222222222222222
 40
0.2222222222222222
 40
0.2222222222222222
 40
0.3333333333333333
 40
0.3333333333333333
 40
0.3333333333333333
 40
0.3333333333333333
 40
0.4444444444444444
 40
0.4444444444444444
 40
0.4444444444444444
 40
0.4444444444444444
 40
0.5555555555555556
 40
0.5555555555555556
 40
0.5555555555555556
 40
0.5555555555555556
 40
0.6666666666666666
 40
0.6666666666666666
 40
0.6666666666666666
 40
0.6666666666666666
 40
0.7777777777777778
 40
0.7777777777777778
 40
0.7777777777777778
 40
0.7777777777777778
 40
1.0
 40
1.0
 40
1.0
 40
1.0
 10
29.4201
 20
72.8617
 30
0.0
 10
29.3929
 20
72.9118
 30
0.0
 10
29.4042
 20
72.9736
 30
0.0
 10
29.4474
 20
73.012
 30
0.0
 10
29.4474
 20
73.012
 30
0.0
 10
29.4906
 20
73.0504
 30
0.0
 10
29.5543
 20
73.0521
 30
0.0
 10
29.6007
 20
73.0187
 30
0.0
 10
29.6007
 20
73.0187
 30
0.0
 10
31.6872
 20
71.3267
 30
0.0
 10
34.4723
 20
70.7705
 30
0.0
 10
37.0489
 20
71.5288
 30
0.0
 10
37.0489
 20
71.5288
 30
0.0
 10
37.2232
 20
71.5388
 30
0.0
 10
37.3978
 20
71.5238
 30
0.0
 10
37.568
 20
71.4837
 30
0.0
 10
37.568
 20
71.4837
 30
0.0
 10
38.273
 20
71.2181
 30
0.0
 10
38.7639
 20
70.5734
 30
0.0
 10
38.8312
 20
69.8235
 30
0.0
 10
38.8312
 20
69.8235
 30
0.0
 10
38.8985
 20
69.0718
 30
0.0
 10
38.5306
 20
68.3503
 30
0.0
 10
37.884
 20
67.9628
 30
0.0
 10
37.884
 20
67.9628
 30
0.0
 10
35.8703
 20
67.3966
 30
0.0
 10
33.7104
 20
68.0379
 30
0.0
 10
32.3317
 20
69.6113
 30
0.0
 10
32.3317
 20
69.6113
 30
0.0
 10
31.2247
 20
70.5634
 30
0.0
 10
30.2459
 20
71.6557
 30
0.0
 10
29.4201
 20
72.8617
 30
0.0
  0
SPLINE
  5
94
330
1F
100
AcDbEntity
  8
layer 1
 62
     7
370
     9
100
AcDbSpline
210
0.0
220
0.0
230
1.0
 70
    11
 71
     3
 72
    32
 73
    28
 74
     0
 42
0.0000000001
 43
0.0000000001
 12
1.0
 22
0.0
 32
0.0
 13
1.0
 23
0.0
 33
0.0
 40
0.0
 40
0.0
 40
0.0
 40
0.0
 40
0.125
 40
0.125
 40
0.125
 40
0.125
 40
0.25
 40
0.25
 40
0.25
 40
0.25
 40
0.375
 40
0.375
 40
0.375
 40
0.375
 40
0.5
 40
0.5
 40
0.5
 40
0.5
 40
0.625
 40
0.625
 40
0.625
 40
0.625
 40
0.75
 40
0.75
 40
0.75
 40
0.75
 40
1.0
 40
1.0
 40
1.0
 40
1.0
 10
30.0126
 20
68.3887
 30
0.0
 10
31.213
 20
66.9072
 30
0.0
 10
32.7104
 20
65.6946
 30
0.0
 10
34.4082
 20
64.826
 30
0.0
 10
34.4082
 20
64.826
 30
0.0
 10
34.999
 20
64.5688
 30
0.0
 10
35.553
 20
64.2348
 30
0.0
 10
36.0559
 20
63.8322
 30
0.0
 10
36.0559
 20
63.8322
 30
0.0
 10
36.5311
 20
63.1207
 30
0.0
 10
36.4673
 20
62.1787
 30
0.0
 10
35.9003
 20
61.5373
 30
0.0
 10
35.9003
 20
61.5373
 30
0.0
 10
35.3332
 20
60.8959
 30
0.0
 10
34.4055
 20
60.7172
 30
0.0
 10
33.6409
 20
61.1013
 30
0.0
 10
33.6409
 20
61.1013
 30
0.0
 10
31.1071
 20
62.5912
 30
0.0
 10
29.611
 20
65.3655
 30
0.0
 10
29.7587
 20
68.3018
 30
0.0
 10
29.7587
 20
68.3018
 30
0.0
 10
29.7567
 20
68.3637
 30
0.0
 10
29.7951
 20
68.4188
 30
0.0
 10
29.8534
 20
68.4388
 30
0.0
 10
29.8534
 20
68.4388
 30
0.0
 10
29.9117
 20
68.4588
 30
0.0
 10
29.9763
 20
68.4388
 30
0.0
 10
30.0126
 20
68.3887
 30
0.0
  0
SPLINE
  5
95
330
1F
100
AcDbEntity
  8
layer 1
 62
     7
370
     9
100
AcDbSpline
210
0.0
220
0.0
230
1.0
 70
    11
 71
     3
 72
    32
 73
    28
 74
     0
 42
0.0000000001
 43
0.0000000001
 12
1.0
 22
0.0
 32
0.0
 13
1.0
 23
0.0
 33
0.0
 40
0.0
 40
0.0
 40
0.0
 40
0.0
 40
0.125
 40
0.125
 40
0.125
 40
0.125
 40
0.25
 40
0.25
 40
0.25
 40
0.25
 40
0.375
 40
0.375
 40
0.375
 40
0.375
 40
0.5
 40
0.5
 40
0.5
 40
0.5
 40
0.625
 40
0.625
 40
0.625
 40
0.625
 40
0.75
 40
0.75
 40
0.75
 40
0.75
 40
1.0
 40
1.0
 40
1.0
 40
1.0
 10
31.3386
 20
57.9646
 30
0.0
 10
30.26
 20
59.1338
 30
0.0
 10
29.5086
 20
60.5652
 30
0.0
 10
29.1607
 20
62.1169
 30
0.0
 10
29.1607
 20
62.1169
 30
0.0
 10
29.1345
 20
62.2238
 30
0.0
 10
29.0353
 20
62.2956
 30
0.0
 10
28.9262
 20
62.2872
 30
0.0
 10
28.9262
 20
62.2872
 30
0.0
 10
28.8172
 20
62.2789
 30
0.0
 10
28.7301
 20
62.192
 30
0.0
 10
28.7205
 20
62.0835
 30
0.0
 10
28.7205
 20
62.0835
 30
0.0
 10
27.9576
 20
59.239
 30
0.0
 10
28.4243
 20
56.2058
 30
0.0
 10
30.0071
 20
53.7221
 30
0.0
 10
30.0071
 20
53.7221
 30
0.0
 10
30.6247
 20
53.1125
 30
0.0
 10
31.5898
 20
53.0323
 30
0.0
 10
32.2993
 20
53.5317
 30
0.0
 10
32.2993
 20
53.5317
 30
0.0
 10
33.009
 20
54.0295
 30
0.0
 10
33.2601
 20
54.9648
 30
0.0
 10
32.8959
 20
55.7532
 30
0.0
 10
32.8959
 20
55.7532
 30
0.0
 10
32.4941
 20
56.5666
 30
0.0
 10
31.9688
 20
57.3115
 30
0.0
 10
31.3386
 20
57.9646
 30
0.0
  0
SPLINE
  5
96
330
1F
100
AcDbEntity
  8
layer 1
 62
     7
370
     9
100
AcDbSpline
210
0.0
220
0.0
230
1.0
 70
    11
 71
     3
 72
    68
 73
    64
 74
     0
 42
0.0000000001
 43
0.0000000001
 12
1.0
 22
0.0
 32
0.0
 13
1.0
 23
0.0
 33
0.0
 40
0.0
 40
0.0
 40
0.0
 40
0.0
 40
0.0588235294117647
 40
0.0588235294117647
 40
0.0588235294117647
 40
0.0588235294117647
 40
0.1176470588235294
 40
0.1176470588235294
 40
0.1176470588235294
 40
0.1176470588235294
 40
0.1764705882352941
 40
0.1764705882352941
 40
0.1764705882352941
 40
0.1764705882352941
 40
0.2352941176470588
 40
0.2352941176470588
 40
0.2352941176470588
 40
0.2352941176470588
 40
0.2941176470588235
 40
0.2941176470588235
 40
0.2941176470588235
 40
0.2941176470588235
 40
0.3529411764705883
 40
0.3529411764705883
 40
0.3529411764705883
 40
0.3529411764705883
 40
0.4117647058823529
 40
0.4117647058823529
 40
0.4117647058823529
 40
0.4117647058823529
 40
0.4705882352941176
 40
0.4705882352941176
 40
0.4705882352941176
 40
0.4705882352941176
 40
0.5294117647058824
 40
0.5294117647058824
 40
0.5294117647058824
 40
0.5294117647058824
 40
0.5882352941176471
 40
0.5882352941176471
 40
0.5882352941176471
 40
0.5882352941176471
 40
0.6470588235294118
 40
0.6470588235294118
 40
0.6470588235294118
 40
0.6470588235294118
 40
0.7058823529411765
 40
0.7058823529411765
 40
0.7058823529411765
 40
0.7058823529411765
 40
0.7647058823529411
 40
0.7647058823529411
 40
0.7647058823529411
 40
0.7647058823529411
 40
0.8235294117647058
 40
0.8235294117647058
 40
0.8235294117647058
 40
0.8235294117647058
 40
0.8823529411764706
 40
0.8823529411764706
 40
0.8823529411764706
 40
0.8823529411764706
 40
1.0
 40
1.0
 40
1.0
 40
1.0
 10
35.9655
 20
50.0651
 30
0.0
 10
34.3905
 20
48.4073
 30
0.0
 10
33.0535
 20
46.5388
 30
0.0
 10
31.9932
 20
44.5128
 30
0.0
 10
31.9932
 20
44.5128
 30
0.0
 10
31.3825
 20
46.9303
 30
0.0
 10
32.1652
 20
49.487
 30
0.0
 10
34.0246
 20
51.1484
 30
0.0
 10
34.0246
 20
51.1484
 30
0.0
 10
34.8497
 20
51.7826
 30
0.0
 10
35.1769
 20
52.8733
 30
0.0
 10
34.8371
 20
53.8574
 30
0.0
 10
34.8371
 20
53.8574
 30
0.0
 10
34.7174
 20
55.4308
 30
0.0
 10
35.3746
 20
56.9658
 30
0.0
 10
36.5976
 20
57.9646
 30
0.0
 10
36.5976
 20
57.9646
 30
0.0
 10
38.2633
 20
59.0219
 30
0.0
 10
39.1067
 20
60.9961
 30
0.0
 10
38.7192
 20
62.9303
 30
0.0
 10
38.7192
 20
62.9303
 30
0.0
 10
38.4247
 20
64.664
 30
0.0
 10
39.1426
 20
66.4161
 30
0.0
 10
40.57
 20
67.4433
 30
0.0
 10
40.57
 20
67.4433
 30
0.0
 10
41.1617
 20
68.2117
 30
0.0
 10
41.4101
 20
69.1904
 30
0.0
 10
41.2563
 20
70.1475
 30
0.0
 10
41.2563
 20
70.1475
 30
0.0
 10
41.1024
 20
71.1045
 30
0.0
 10
40.5599
 20
71.9564
 30
0.0
 10
39.7574
 20
72.4992
 30
0.0
 10
39.7574
 20
72.4992
 30
0.0
 10
41.0508
 20
73.2843
 30
0.0
 10
42.6897
 20
73.2141
 30
0.0
 10
43.9103
 20
72.3188
 30
0.0
 10
43.9103
 20
72.3188
 30
0.0
 10
44.3184
 20
72.0349
 30
0.0
 10
44.5691
 20
71.5756
 30
0.0
 10
44.5868
 20
71.0778
 30
0.0
 10
44.5868
 20
71.0778
 30
0.0
 10
44.6045
 20
70.5801
 30
0.0
 10
44.3873
 20
70.1041
 30
0.0
 10
44.0005
 20
69.7917
 30
0.0
 10
44.0005
 20
69.7917
 30
0.0
 10
43.9471
 20
69.6731
 30
0.0
 10
43.9487
 20
69.5362
 30
0.0
 10
44.0054
 20
69.4193
 30
0.0
 10
44.0054
 20
69.4193
 30
0.0
 10
44.062
 20
69.3007
 30
0.0
 10
44.1675
 20
69.2138
 30
0.0
 10
44.294
 20
69.1821
 30
0.0
 10
44.294
 20
69.1821
 30
0.0
 10
45.6614
 20
68.833
 30
0.0
 10
47.0798
 20
69.5311
 30
0.0
 10
47.6343
 20
70.829
 30
0.0
 10
47.6343
 20
70.829
 30
0.0
 10
47.3387
 20
65.9151
 30
0.0
 10
45.4623
 20
61.2283
 30
0.0
 10
42.2852
 20
57.4685
 30
0.0
 10
42.2852
 20
57.4685
 30
0.0
 10
40.0101
 20
55.1502
 30
0.0
 10
37.8986
 20
52.6759
 30
0.0
 10
35.9655
 20
50.0651
 30
0.0
  0
SPLINE
  5
97
330
1F
100
AcDbEntity
  8
layer 1
 62
     7
370
     9
100
AcDbSpline
210
0.0
220
0.0
230
1.0
 70
    11
 71
     3
 72
    44
 73
    40
 74
     0
 42
0.0000000001
 43
0.0000000001
 12
1.0
 22
0.0
 32
0.0
 13
1.0
 23
0.0
 33
0.0
 40
0.0
 40
0.0
 40
0.0
 40
0.0
 40
0.0909090909090909
 40
0.0909090909090909
 40
0.0909090909090909
 40
0.0909090909090909
 40
0.1818181818181818
 40
0.1818181818181818
 40
0.1818181818181818
 40
0.1818181818181818
 40
0.2727272727272727
 40
0.2727272727272727
 40
0.2727272727272727
 40
0.2727272727272727
 40
0.3636363636363636
 40
0.3636363636363636
 40
0.3636363636363636
 40
0.3636363636363636
 40
0.4545454545454545
 40
0.4545454545454545
 40
0.4545454545454545
 40
0.4545454545454545
 40
0.5454545454545454
 40
0.5454545454545454
 40
0.5454545454545454
 40
0.5454545454545454
 40
0.6363636363636364
 40
0.6363636363636364
 40
0.6363636363636364
 40
0.6363636363636364
 40
0.7272727272727273
 40
0.7272727272727273
 40
0.7272727272727273
 40
0.7272727272727273
 40
0.8181818181818182
 40
0.8181818181818182
 40
0.8181818181818182
 40
0.8181818181818182
 40
1.0
 40
1.0
 40
1.0
 40
1.0
 10
53.5705
 20
54.0829
 30
0.0
 10
49.6682
 20
51.0723
 30
0.0
 10
45.6315
 20
48.2405
 30
0.0
 10
41.4727
 20
45.5961
 30
0.0
 10
41.4727
 20
45.5961
 30
0.0
 10
38.4629
 20
43.2937
 30
0.0
 10
35.7823
 20
40.5904
 30
0.0
 10
33.5054
 20
37.5612
 30
0.0
 10
33.5054
 20
37.5612
 30
0.0
 10
33.3457
 20
37.2966
 30
0.0
 10
33.3048
 20
36.9771
 30
0.0
 10
33.3925
 20
36.6809
 30
0.0
 10
33.3925
 20
36.6809
 30
0.0
 10
33.9327
 20
34.4233
 30
0.0
 10
35.5298
 20
32.5654
 30
0.0
 10
37.6809
 20
31.6929
 30
0.0
 10
37.6809
 20
31.6929
 30
0.0
 10
37.0237
 20
31.9928
 30
0.0
 10
36.5304
 20
32.5652
 30
0.0
 10
36.3307
 20
33.2596
 30
0.0
 10
36.3307
 20
33.2596
 30
0.0
 10
36.1311
 20
33.9539
 30
0.0
 10
36.245
 20
34.7009
 30
0.0
 10
36.6427
 20
35.3041
 30
0.0
 10
36.6427
 20
35.3041
 30
0.0
 10
37.8935
 20
36.4972
 30
0.0
 10
39.8105
 20
36.6472
 30
0.0
 10
41.2317
 20
35.6633
 30
0.0
 10
41.2317
 20
35.6633
 30
0.0
 10
42.6529
 20
34.6793
 30
0.0
 10
43.1873
 20
32.8323
 30
0.0
 10
42.511
 20
31.2414
 30
0.0
 10
42.511
 20
31.2414
 30
0.0
 10
44.1436
 20
33.5644
 30
0.0
 10
45.3793
 20
36.1424
 30
0.0
 10
46.1673
 20
38.8702
 30
0.0
 10
46.1673
 20
38.8702
 30
0.0
 10
48.0025
 20
44.2252
 30
0.0
 10
50.4888
 20
49.3342
 30
0.0
 10
53.5705
 20
54.0829
 30
0.0
  0
SPLINE
  5
98
330
1F
100
AcDbEntity
  8
layer 1
 62
     7
370
     9
100
AcDbSpline
210
0.0
220
0.0
230
1.0
 70
    11
 71
     3
 72
    28
 73
    24
 74
     0
 42
0.0000000001
 43
0.0000000001
 12
1.0
 22
0.0
 32
0.0
 13
1.0
 23
0.0
 33
0.0
 40
0.0
 40
0.0
 40
0.0
 40
0.0
 40
0.1428571428571428
 40
0.1428571428571428
 40
0.1428571428571428
 40
0.1428571428571428
 40
0.2857142857142857
 40
0.2857142857142857
 40
0.2857142857142857
 40
0.2857142857142857
 40
0.4285714285714285
 40
0.4285714285714285
 40
0.4285714285714285
 40
0.4285714285714285
 40
0.5714285714285714
 40
0.5714285714285714
 40
0.5714285714285714
 40
0.5714285714285714
 40
0.7142857142857143
 40
0.7142857142857143
 40
0.7142857142857143
 40
0.7142857142857143
 40
1.0
 40
1.0
 40
1.0
 40
1.0
 10
31.0
 20
17.88
 30
0.0
 10
30.847
 20
17.7258
 30
0.0
 10
30.6008
 20
17.716
 30
0.0
 10
30.4358
 20
17.8572
 30
0.0
 10
30.4358
 20
17.8572
 30
0.0
 10
29.4996
 20
20.778
 30
0.0
 10
29.2524
 20
23.8759
 30
0.0
 10
29.7136
 20
26.9081
 30
0.0
 10
29.7136
 20
26.9081
 30
0.0
 10
30.0418
 20
29.3634
 30
0.0
 10
30.7024
 20
31.7628
 30
0.0
 10
31.6772
 20
34.0403
 30
0.0
 10
31.6772
 20
34.0403
 30
0.0
 10
31.9106
 20
31.9693
 30
0.0
 10
33.2074
 20
30.1701
 30
0.0
 10
35.0982
 20
29.2939
 30
0.0
 10
35.0982
 20
29.2939
 30
0.0
 10
36.9891
 20
28.4176
 30
0.0
 10
39.2002
 20
28.5912
 30
0.0
 10
40.9311
 20
29.7518
 30
0.0
 10
40.9311
 20
29.7518
 30
0.0
 10
37.1185
 20
26.2431
 30
0.0
 10
33.78
 20
22.2522
 30
0.0
 10
31.0
 20
17.88
 30
0.0
  0
SPLINE
  5
99
330
1F
100
AcDbEntity
  8
layer 1
 62
     7
370
     9
100
AcDbSpline
210
0.0
220
0.0
230
1.0
 70
    11
 71
     3
 72
    72
 73
    68
 74
     0
 42
0.0000000001
 43
0.0000000001
 12
1.0
 22
0.0
 32
0.0
 13
1.0
 23
0.0
 33
0.0
 40
0.0
 40
0.0
 40
0.0
 40
0.0
 40
0.0555555555555556
 40
0.0555555555555556
 40
0.0555555555555556
 40
0.0555555555555556
 40
0.1111111111111111
 40
0.1111111111111111
 40
0.1111111111111111
 40
0.1111111111111111
 40
0.1666666666666667
 40
0.1666666666666667
 40
0.1666666666666667
 40
0.1666666666666667
 40
0.2222222222222222
 40
0.2222222222222222
 40
0.2222222222222222
 40
0.2222222222222222
 40
0.2777777777777778
 40
0.2777777777777778
 40
0.2777777777777778
 40
0.2777777777777778
 40
0.3333333333333333
 40
0.3333333333333333
 40
0.3333333333333333
 40
0.3333333333333333
 40
0.3888888888888889
 40
0.3888888888888889
 40
0.3888888888888889
 40
0.3888888888888889
 40
0.4444444444444444
 40
0.4444444444444444
 40
0.4444444444444444
 40
0.4444444444444444
 40
0.5
 40
0.5
 40
0.5
 40
0.5
 40
0.5555555555555556
 40
0.5555555555555556
 40
0.5555555555555556
 40
0.5555555555555556
 40
0.6111111111111112
 40
0.6111111111111112
 40
0.6111111111111112
 40
0.6111111111111112
 40
0.6666666666666666
 40
0.6666666666666666
 40
0.6666666666666666
 40
0.6666666666666666
 40
0.7222222222222222
 40
0.7222222222222222
 40
0.7222222222222222
 40
0.7222222222222222
 40
0.7777777777777778
 40
0.7777777777777778
 40
0.7777777777777778
 40
0.7777777777777778
 40
0.8333333333333334
 40
0.8333333333333334
 40
0.8333333333333334
 40
0.8333333333333334
 40
0.8888888888888888
 40
0.8888888888888888
 40
0.8888888888888888
 40
0.8888888888888888
 40
1.0
 40
1.0
 40
1.0
 40
1.0
 10
46.7766
 20
28.8491
 30
0.0
 10
48.4063
 20
29.1634
 30
0.0
 10
50.0778
 20
28.5636
 30
0.0
 10
51.1356
 20
27.2847
 30
0.0
 10
51.1356
 20
27.2847
 30
0.0
 10
52.1933
 20
26.0058
 30
0.0
 10
52.4693
 20
24.2517
 30
0.0
 10
51.8551
 20
22.7099
 30
0.0
 10
51.8551
 20
22.7099
 30
0.0
 10
51.9597
 20
23.79
 30
0.0
 10
51.5525
 20
24.857
 30
0.0
 10
50.7546
 20
25.5927
 30
0.0
 10
50.7546
 20
25.5927
 30
0.0
 10
49.9568
 20
26.3285
 30
0.0
 10
48.8607
 20
26.6482
 30
0.0
 10
47.7924
 20
26.4566
 30
0.0
 10
47.7924
 20
26.4566
 30
0.0
 10
46.4749
 20
26.2196
 30
0.0
 10
45.41
 20
25.2482
 30
0.0
 10
45.0538
 20
23.9577
 30
0.0
 10
45.0538
 20
23.9577
 30
0.0
 10
44.6975
 20
22.6674
 30
0.0
 10
45.1129
 20
21.2871
 30
0.0
 10
46.1223
 20
20.4078
 30
0.0
 10
46.1223
 20
20.4078
 30
0.0
 10
44.979
 20
21.1149
 30
0.0
 10
43.5718
 20
21.2494
 30
0.0
 10
42.3154
 20
20.7715
 30
0.0
 10
42.3154
 20
20.7715
 30
0.0
 10
41.059
 20
20.2938
 30
0.0
 10
40.0968
 20
19.2583
 30
0.0
 10
39.7123
 20
17.9701
 30
0.0
 10
39.7123
 20
17.9701
 30
0.0
 10
39.6971
 20
17.8785
 30
0.0
 10
39.7238
 20
17.7849
 30
0.0
 10
39.7851
 20
17.7151
 30
0.0
 10
39.7851
 20
17.7151
 30
0.0
 10
39.8463
 20
17.6451
 30
0.0
 10
39.9354
 20
17.6062
 30
0.0
 10
40.0281
 20
17.609
 30
0.0
 10
40.0281
 20
17.609
 30
0.0
 10
40.7903
 20
18.0416
 30
0.0
 10
41.7239
 20
18.0397
 30
0.0
 10
42.4841
 20
17.6039
 30
0.0
 10
42.4841
 20
17.6039
 30
0.0
 10
43.2442
 20
17.1683
 30
0.0
 10
43.7179
 20
16.3635
 30
0.0
 10
43.7298
 20
15.4875
 30
0.0
 10
43.7298
 20
15.4875
 30
0.0
 10
43.8009
 20
13.9754
 30
0.0
 10
42.8894
 20
12.5899
 30
0.0
 10
41.4727
 20
12.0567
 30
0.0
 10
41.4727
 20
12.0567
 30
0.0
 10
38.6759
 20
10.8998
 30
0.0
 10
35.4546
 20
11.6016
 30
0.0
 10
33.3925
 20
13.8172
 30
0.0
 10
33.3925
 20
13.8172
 30
0.0
 10
33.0185
 20
14.0915
 30
0.0
 10
32.9377
 20
14.6169
 30
0.0
 10
33.212
 20
14.9909
 30
0.0
 10
33.212
 20
14.9909
 30
0.0
 10
34.681
 20
19.0523
 30
0.0
 10
37.0766
 20
22.7154
 30
0.0
 10
40.2089
 20
25.6893
 30
0.0
 10
40.2089
 20
25.6893
 30
0.0
 10
42.0799
 20
27.3053
 30
0.0
 10
44.3463
 20
28.3956
 30
0.0
 10
46.7766
 20
28.8491
 30
0.0
  0
SPLINE
  5
9A
330
1F
100
AcDbEntity
  8
layer 1
 62
     7
370
     9
100
AcDbSpline
210
0.0
220
0.0
230
1.0
 70
    11
 71
     3
 72
    20
 73
    16
 74
     0
 42
0.0000000001
 43
0.0000000001
 12
1.0
 22
0.0
 32
0.0
 13
1.0
 23
0.0
 33
0.0
 40
0.0
 40
0.0
 40
0.0
 40
0.0
 40
0.2
 40
0.2
 40
0.2
 40
0.2
 40
0.4
 40
0.4
 40
0.4
 40
0.4
 40
0.6
 40
0.6
 40
0.6
 40
0.6
 40
1.0
 40
1.0
 40
1.0
 40
1.0
 10
64.1332
 20
15.5326
 30
0.0
 10
59.3612
 20
14.4442
 30
0.0
 10
54.3516
 20
15.4462
 30
0.0
 10
50.3654
 20
18.2862
 30
0.0
 10
50.3654
 20
18.2862
 30
0.0
 10
53.7343
 20
14.0115
 30
0.0
 10
58.9687
 20
11.6384
 30
0.0
 10
64.4041
 20
11.9213
 30
0.0
 10
64.4041
 20
11.9213
 30
0.0
 10
65.157
 20
12.2428
 30
0.0
 10
65.6219
 20
13.0076
 30
0.0
 10
65.5607
 20
13.8239
 30
0.0
 10
65.5607
 20
13.8239
 30
0.0
 10
65.4994
 20
14.6402
 30
0.0
 10
64.9256
 20
15.3271
 30
0.0
 10
64.1332
 20
15.5326
 30
0.0
  0
SPLINE
  5
9B
330
1F
100
AcDbEntity
  8
layer 1
 62
     7
370
     9
100
AcDbSpline
210
0.0
220
0.0
230
1.0
 70
    11
 71
     3
 72
    36
 73
    32
 74
     0
 42
0.0000000001
 43
0.0000000001
 12
1.0
 22
0.0
 32
0.0
 13
1.0
 23
0.0
 33
0.0
 40
0.0
 40
0.0
 40
0.0
 40
0.0
 40
0.1111111111111111
 40
0.1111111111111111
 40
0.1111111111111111
 40
0.1111111111111111
 40
0.2222222222222222
 40
0.2222222222222222
 40
0.2222222222222222
 40
0.2222222222222222
 40
0.3333333333333333
 40
0.3333333333333333
 40
0.3333333333333333
 40
0.3333333333333333
 40
0.4444444444444444
 40
0.4444444444444444
 40
0.4444444444444444
 40
0.4444444444444444
 40
0.5555555555555556
 40
0.5555555555555556
 40
0.5555555555555556
 40
0.5555555555555556
 40
0.6666666666666666
 40
0.6666666666666666
 40
0.6666666666666666
 40
0.6666666666666666
 40
0.7777777777777778
 40
0.7777777777777778
 40
0.7777777777777778
 40
0.7777777777777778
 40
1.0
 40
1.0
 40
1.0
 40
1.0
 10
53.6406
 20
8.4908
 30
0.0
 10
53.6324
 20
8.4755
 30
0.0
 10
53.6239
 20
8.4605
 30
0.0
 10
53.6155
 20
8.4455
 30
0.0
 10
53.6155
 20
8.4455
 30
0.0
 10
52.4277
 20
5.7998
 30
0.0
 10
49.8336
 20
4.0645
 30
0.0
 10
46.9347
 20
3.9765
 30
0.0
 10
46.9347
 20
3.9765
 30
0.0
 10
48.1234
 20
2.2483
 30
0.0
 10
48.2455
 20
0.0003
 30
0.0
 10
47.2507
 20
-1.8465
 30
0.0
 10
47.2507
 20
-1.8465
 30
0.0
 10
50.7957
 20
2.5621
 30
0.0
 10
55.305
 20
6.0986
 30
0.0
 10
60.4317
 20
8.4908
 30
0.0
 10
60.4317
 20
8.4908
 30
0.0
 10
55.305
 20
10.8826
 30
0.0
 10
50.7957
 20
14.4192
 30
0.0
 10
47.2507
 20
18.8278
 30
0.0
 10
47.2507
 20
18.8278
 30
0.0
 10
48.2455
 20
16.981
 30
0.0
 10
48.1234
 20
14.733
 30
0.0
 10
46.9347
 20
13.0046
 30
0.0
 10
46.9347
 20
13.0046
 30
0.0
 10
49.8336
 20
12.9168
 30
0.0
 10
52.4277
 20
11.1815
 30
0.0
 10
53.6155
 20
8.5358
 30
0.0
 10
53.6155
 20
8.5358
 30
0.0
 10
53.6239
 20
8.5208
 30
0.0
 10
53.6324
 20
8.5058
 30
0.0
 10
53.6406
 20
8.4908
 30
0.0
  0
SPLINE
  5
9C
330
1F
100
AcDbEntity
  8
layer 1
 62
     7
370
     9
100
AcDbSpline
210
0.0
220
0.0
230
1.0
 70
    11
 71
     3
 72
    24
 73
    20
 74
     0
 42
0.0000000001
 43
0.0000000001
 12
1.0
 22
0.0
 32
0.0
 13
1.0
 23
0.0
 33
0.0
 40
0.0
 40
0.0
 40
0.0
 40
0.0
 40
0.1666666666666667
 40
0.1666666666666667
 40
0.1666666666666667
 40
0.1666666666666667
 40
0.3333333333333333
 40
0.3333333333333333
 40
0.3333333333333333
 40
0.3333333333333333
 40
0.5
 40
0.5
 40
0.5
 40
0.5
 40
0.6666666666666666
 40
0.6666666666666666
 40
0.6666666666666666
 40
0.6666666666666666
 40
1.0
 40
1.0
 40
1.0
 40
1.0
 10
55.2973
 20
-107.6107
 30
0.0
 10
55.2973
 20
-107.6107
 30
0.0
 10
65.6691
 20
-107.6107
 30
0.0
 10
65.6691
 20
-107.6107
 30
0.0
 10
65.6691
 20
-107.6107
 30
0.0
 10
65.6853
 20
-107.5814
 30
0.0
 10
65.7
 20
-107.5513
 30
0.0
 10
65.7132
 20
-107.5204
 30
0.0
 10
65.7132
 20
-107.5204
 30
0.0
 10
66.1639
 20
-106.2299
 30
0.0
 10
66.0155
 20
-104.8055
 30
0.0
 10
65.3083
 20
-103.6357
 30
0.0
 10
65.3083
 20
-103.6357
 30
0.0
 10
64.6011
 20
-102.4658
 30
0.0
 10
63.4089
 20
-101.6723
 30
0.0
 10
62.0568
 20
-101.4717
 30
0.0
 10
62.0568
 20
-101.4717
 30
0.0
 10
61.2273
 20
-104.6816
 30
0.0
 10
58.5721
 20
-107.0931
 30
0.0
 10
55.2973
 20
-107.6107
 30
0.0
  0
SPLINE
  5
9D
330
1F
100
AcDbEntity
  8
layer 1
 62
     7
370
     9
100
AcDbSpline
210
0.0
220
0.0
230
1.0
 70
    11
 71
     3
 72
    20
 73
    16
 74
     0
 42
0.0000000001
 43
0.0000000001
 12
1.0
 22
0.0
 32
0.0
 13
1.0
 23
0.0
 33
0.0
 40
0.0
 40
0.0
 40
0.0
 40
0.0
 40
0.2
 40
0.2
 40
0.2
 40
0.2
 40
0.4
 40
0.4
 40
0.4
 40
0.4
 40
0.6
 40
0.6
 40
0.6
 40
0.6
 40
1.0
 40
1.0
 40
1.0
 40
1.0
 10
33.2056
 20
-107.6107
 30
0.0
 10
33.2056
 20
-107.6107
 30
0.0
 10
52.0807
 20
-107.6107
 30
0.0
 10
52.0807
 20
-107.6107
 30
0.0
 10
52.0807
 20
-107.6107
 30
0.0
 10
47.313
 20
-106.9606
 30
0.0
 10
43.4694
 20
-103.3822
 30
0.0
 10
42.4807
 20
-98.6729
 30
0.0
 10
42.4807
 20
-98.6729
 30
0.0
 10
41.0256
 20
-98.997
 30
0.0
 10
39.512
 20
-98.4732
 30
0.0
 10
38.5687
 20
-97.3187
 30
0.0
 10
38.5687
 20
-97.3187
 30
0.0
 10
39.7158
 20
-101.6205
 30
0.0
 10
37.3888
 20
-106.0864
 30
0.0
 10
33.2056
 20
-107.6107
 30
0.0
  0
SPLINE
  5
9E
330
1F
100
AcDbEntity
  8
layer 1
 62
     7
370
     9
100
AcDbSpline
210
0.0
220
0.0
230
1.0
 70
    11
 71
     3
 72
    16
 73
    12
 74
     0
 42
0.0000000001
 43
0.0000000001
 12
1.0
 22
0.0
 32
0.0
 13
1.0
 23
0.0
 33
0.0
 40
0.0
 40
0.0
 40
0.0
 40
0.0
 40
0.25
 40
0.25
 40
0.25
 40
0.25
 40
0.5
 40
0.5
 40
0.5
 40
0.5
 40
1.0
 40
1.0
 40
1.0
 40
1.0
 10
70.4078
 20
-79.42
 30
0.0
 10
70.4078
 20
-79.42
 30
0.0
 10
70.4078
 20
-92.9852
 30
0.0
 10
70.4078
 20
-92.9852
 30
0.0
 10
70.4078
 20
-92.9852
 30
0.0
 10
69.159
 20
-89.3763
 30
0.0
 10
66.6316
 20
-86.35
 30
0.0
 10
63.3032
 20
-84.4778
 30
0.0
 10
63.3032
 20
-84.4778
 30
0.0
 10
66.6023
 20
-84.8029
 30
0.0
 10
69.6353
 20
-82.6438
 30
0.0
 10
70.4078
 20
-79.42
 30
0.0
  0
SPLINE
  5
9F
330
1F
100
AcDbEntity
  8
layer 1
 62
     7
370
     9
100
AcDbSpline
210
0.0
220
0.0
230
1.0
 70
    11
 71
     3
 72
    28
 73
    24
 74
     0
 42
0.0000000001
 43
0.0000000001
 12
1.0
 22
0.0
 32
0.0
 13
1.0
 23
0.0
 33
0.0
 40
0.0
 40
0.0
 40
0.0
 40
0.0
 40
0.1428571428571428
 40
0.1428571428571428
 40
0.1428571428571428
 40
0.1428571428571428
 40
0.2857142857142857
 40
0.2857142857142857
 40
0.2857142857142857
 40
0.2857142857142857
 40
0.4285714285714285
 40
0.4285714285714285
 40
0.4285714285714285
 40
0.4285714285714285
 40
0.5714285714285714
 40
0.5714285714285714
 40
0.5714285714285714
 40
0.5714285714285714
 40
0.7142857142857143
 40
0.7142857142857143
 40
0.7142857142857143
 40
0.7142857142857143
 40
1.0
 40
1.0
 40
1.0
 40
1.0
 10
70.4078
 20
-47.2027
 30
0.0
 10
70.4078
 20
-47.2027
 30
0.0
 10
70.4078
 20
-76.3267
 30
0.0
 10
70.4078
 20
-76.3267
 30
0.0
 10
70.4078
 20
-76.3267
 30
0.0
 10
69.9274
 20
-74.3224
 30
0.0
 10
68.543
 20
-72.655
 30
0.0
 10
66.6612
 20
-71.8143
 30
0.0
 10
66.6612
 20
-71.8143
 30
0.0
 10
64.7303
 20
-71.0133
 30
0.0
 10
62.5662
 20
-70.981
 30
0.0
 10
60.6123
 20
-71.724
 30
0.0
 10
60.6123
 20
-71.724
 30
0.0
 10
65.9577
 20
-65.8961
 30
0.0
 10
67.3078
 20
-57.4399
 30
0.0
 10
64.043
 20
-50.2372
 30
0.0
 10
64.043
 20
-50.2372
 30
0.0
 10
65.2691
 20
-50.9006
 30
0.0
 10
66.7385
 20
-50.9384
 30
0.0
 10
67.9969
 20
-50.3384
 30
0.0
 10
67.9969
 20
-50.3384
 30
0.0
 10
69.2555
 20
-49.7383
 30
0.0
 10
70.1513
 20
-48.573
 30
0.0
 10
70.4078
 20
-47.2027
 30
0.0
  0
SPLINE
  5
A0
330
1F
100
AcDbEntity
  8
layer 1
 62
     7
370
     9
100
AcDbSpline
210
0.0
220
0.0
230
1.0
 70
    11
 71
     3
 72
    20
 73
    16
 74
     0
 42
0.0000000001
 43
0.0000000001
 12
1.0
 22
0.0
 32
0.0
 13
1.0
 23
0.0
 33
0.0
 40
0.0
 40
0.0
 40
0.0
 40
0.0
 40
0.2
 40
0.2
 40
0.2
 40
0.2
 40
0.4
 40
0.4
 40
0.4
 40
0.4
 40
0.6
 40
0.6
 40
0.6
 40
0.6
 40
1.0
 40
1.0
 40
1.0
 40
1.0
 10
70.4078
 20
-37.0997
 30
0.0
 10
70.4078
 20
-37.0997
 30
0.0
 10
70.4078
 20
-45.5977
 30
0.0
 10
70.4078
 20
-45.5977
 30
0.0
 10
70.4078
 20
-45.5977
 30
0.0
 10
70.1657
 20
-44.3046
 30
0.0
 10
69.3531
 20
-43.1895
 30
0.0
 10
68.1959
 20
-42.5633
 30
0.0
 10
68.1959
 20
-42.5633
 30
0.0
 10
67.5912
 20
-42.1693
 30
0.0
 10
66.9172
 20
-41.8936
 30
0.0
 10
66.2097
 20
-41.7508
 30
0.0
 10
66.2097
 20
-41.7508
 30
0.0
 10
68.3079
 20
-41.0138
 30
0.0
 10
69.8889
 20
-39.2624
 30
0.0
 10
70.4078
 20
-37.0997
 30
0.0
  0
SPLINE
  5
A1
330
1F
100
AcDbEntity
  8
layer 1
 62
     7
370
     9
100
AcDbSpline
210
0.0
220
0.0
230
1.0
 70
    11
 71
     3
 72
    84
 73
    80
 74
     0
 42
0.0000000001
 43
0.0000000001
 12
1.0
 22
0.0
 32
0.0
 13
1.0
 23
0.0
 33
0.0
 40
0.0
 40
0.0
 40
0.0
 40
0.0
 40
0.0476190476190476
 40
0.0476190476190476
 40
0.0476190476190476
 40
0.0476190476190476
 40
0.0952380952380952
 40
0.0952380952380952
 40
0.0952380952380952
 40
0.0952380952380952
 40
0.1428571428571428
 40
0.1428571428571428
 40
0.1428571428571428
 40
0.1428571428571428
 40
0.1904761904761905
 40
0.1904761904761905
 40
0.1904761904761905
 40
0.1904761904761905
 40
0.2380952380952381
 40
0.2380952380952381
 40
0.2380952380952381
 40
0.2380952380952381
 40
0.2857142857142857
 40
0.2857142857142857
 40
0.2857142857142857
 40
0.2857142857142857
 40
0.3333333333333333
 40
0.3333333333333333
 40
0.3333333333333333
 40
0.3333333333333333
 40
0.3809523809523809
 40
0.3809523809523809
 40
0.3809523809523809
 40
0.3809523809523809
 40
0.4285714285714285
 40
0.4285714285714285
 40
0.4285714285714285
 40
0.4285714285714285
 40
0.4761904761904762
 40
0.4761904761904762
 40
0.4761904761904762
 40
0.4761904761904762
 40
0.5238095238095238
 40
0.5238095238095238
 40
0.5238095238095238
 40
0.5238095238095238
 40
0.5714285714285714
 40
0.5714285714285714
 40
0.5714285714285714
 40
0.5714285714285714
 40
0.6190476190476191
 40
0.6190476190476191
 40
0.6190476190476191
 40
0.6190476190476191
 40
0.6666666666666666
 40
0.6666666666666666
 40
0.6666666666666666
 40
0.6666666666666666
 40
0.7142857142857143
 40
0.7142857142857143
 40
0.7142857142857143
 40
0.7142857142857143
 40
0.7619047619047619
 40
0.7619047619047619
 40
0.7619047619047619
 40
0.7619047619047619
 40
0.8095238095238095
 40
0.8095238095238095
 40
0.8095238095238095
 40
0.8095238095238095
 40
0.8571428571428571
 40
0.8571428571428571
 40
0.8571428571428571
 40
0.8571428571428571
 40
0.9047619047619048
 40
0.9047619047619048
 40
0.9047619047619048
 40
0.9047619047619048
 40
1.0
 40
1.0
 40
1.0
 40
1.0
 10
70.4078
 20
-13.0446
 30
0.0
 10
70.4078
 20
-13.0446
 30
0.0
 10
70.4078
 20
-34.0437
 30
0.0
 10
70.4078
 20
-34.0437
 30
0.0
 10
70.4078
 20
-34.0437
 30
0.0
 10
69.9699
 20
-32.2187
 30
0.0
 10
68.77
 20
-30.6692
 30
0.0
 10
67.1125
 20
-29.7885
 30
0.0
 10
67.1125
 20
-29.7885
 30
0.0
 10
65.702
 20
-29.1027
 30
0.0
 10
64.2178
 20
-28.5802
 30
0.0
 10
62.6888
 20
-28.2312
 30
0.0
 10
62.6888
 20
-28.2312
 30
0.0
 10
61.6721
 20
-28.1114
 30
0.0
 10
60.7591
 20
-27.552
 30
0.0
 10
60.1904
 20
-26.701
 30
0.0
 10
60.1904
 20
-26.701
 30
0.0
 10
59.6215
 20
-25.85
 30
0.0
 10
59.4539
 20
-24.7926
 30
0.0
 10
59.732
 20
-23.8075
 30
0.0
 10
59.732
 20
-23.8075
 30
0.0
 10
60.088
 20
-23.1018
 30
0.0
 10
60.7473
 20
-22.5978
 30
0.0
 10
61.5216
 20
-22.4395
 30
0.0
 10
61.5216
 20
-22.4395
 30
0.0
 10
62.2958
 20
-22.281
 30
0.0
 10
63.1
 20
-22.4856
 30
0.0
 10
63.7044
 20
-22.9949
 30
0.0
 10
63.7044
 20
-22.9949
 30
0.0
 10
63.7417
 20
-23.0447
 30
0.0
 10
63.8002
 20
-23.0739
 30
0.0
 10
63.8624
 20
-23.0739
 30
0.0
 10
63.8624
 20
-23.0739
 30
0.0
 10
63.9246
 20
-23.0739
 30
0.0
 10
63.9831
 20
-23.0447
 30
0.0
 10
64.0204
 20
-22.9949
 30
0.0
 10
64.0204
 20
-22.9949
 30
0.0
 10
64.8407
 20
-21.745
 30
0.0
 10
64.6416
 20
-20.0859
 30
0.0
 10
63.5488
 20
-19.0658
 30
0.0
 10
63.5488
 20
-19.0658
 30
0.0
 10
62.4561
 20
-18.0454
 30
0.0
 10
60.7873
 20
-17.9605
 30
0.0
 10
59.5966
 20
-18.8645
 30
0.0
 10
59.5966
 20
-18.8645
 30
0.0
 10
58.5595
 20
-19.7495
 30
0.0
 10
57.7413
 20
-20.8625
 30
0.0
 10
57.2056
 20
-22.1163
 30
0.0
 10
57.2056
 20
-22.1163
 30
0.0
 10
57.9656
 20
-18.2954
 30
0.0
 10
57.9113
 20
-14.3571
 30
0.0
 10
57.0461
 20
-10.5586
 30
0.0
 10
57.0461
 20
-10.5586
 30
0.0
 10
58.9644
 20
-12.9444
 30
0.0
 10
62.4434
 20
-13.3466
 30
0.0
 10
64.8555
 20
-11.4615
 30
0.0
 10
64.8555
 20
-11.4615
 30
0.0
 10
65.5724
 20
-10.9319
 30
0.0
 10
66.5674
 20
-10.9997
 30
0.0
 10
67.2059
 20
-11.6214
 30
0.0
 10
67.2059
 20
-11.6214
 30
0.0
 10
67.8445
 20
-12.2432
 30
0.0
 10
67.9387
 20
-13.236
 30
0.0
 10
67.4285
 20
-13.9668
 30
0.0
 10
67.4285
 20
-13.9668
 30
0.0
 10
67.3231
 20
-14.073
 30
0.0
 10
67.3231
 20
-14.2442
 30
0.0
 10
67.4285
 20
-14.3504
 30
0.0
 10
67.4285
 20
-14.3504
 30
0.0
 10
67.9826
 20
-14.6035
 30
0.0
 10
68.6172
 20
-14.6132
 30
0.0
 10
69.1788
 20
-14.3775
 30
0.0
 10
69.1788
 20
-14.3775
 30
0.0
 10
69.7403
 20
-14.1416
 30
0.0
 10
70.1778
 20
-13.6817
 30
0.0
 10
70.3852
 20
-13.1091
 30
0.0
 10
70.3852
 20
-13.1091
 30
0.0
 10
70.3933
 20
-13.0879
 30
0.0
 10
70.4008
 20
-13.0663
 30
0.0
 10
70.4078
 20
-13.0446
 30
0.0
  0
SPLINE
  5
A2
330
1F
100
AcDbEntity
  8
layer 1
 62
     7
370
     9
100
AcDbSpline
210
0.0
220
0.0
230
1.0
 70
    11
 71
     3
 72
    36
 73
    32
 74
     0
 42
0.0000000001
 43
0.0000000001
 12
1.0
 22
0.0
 32
0.0
 13
1.0
 23
0.0
 33
0.0
 40
0.0
 40
0.0
 40
0.0
 40
0.0
 40
0.1111111111111111
 40
0.1111111111111111
 40
0.1111111111111111
 40
0.1111111111111111
 40
0.2222222222222222
 40
0.2222222222222222
 40
0.2222222222222222
 40
0.2222222222222222
 40
0.3333333333333333
 40
0.3333333333333333
 40
0.3333333333333333
 40
0.3333333333333333
 40
0.4444444444444444
 40
0.4444444444444444
 40
0.4444444444444444
 40
0.4444444444444444
 40
0.5555555555555556
 40
0.5555555555555556
 40
0.5555555555555556
 40
0.5555555555555556
 40
0.6666666666666666
 40
0.6666666666666666
 40
0.6666666666666666
 40
0.6666666666666666
 40
0.7777777777777778
 40
0.7777777777777778
 40
0.7777777777777778
 40
0.7777777777777778
 40
1.0
 40
1.0
 40
1.0
 40
1.0
 10
70.4078
 20
4.428
 30
0.0
 10
70.4078
 20
4.428
 30
0.0
 10
70.4078
 20
-9.8187
 30
0.0
 10
70.4078
 20
-9.8187
 30
0.0
 10
70.4078
 20
-9.8187
 30
0.0
 10
70.3933
 20
-9.7793
 30
0.0
 10
70.3782
 20
-9.74
 30
0.0
 10
70.3627
 20
-9.7009
 30
0.0
 10
70.3627
 20
-9.7009
 30
0.0
 10
70.0522
 20
-8.9269
 30
0.0
 10
69.4229
 20
-8.3243
 30
0.0
 10
68.6362
 20
-8.0477
 30
0.0
 10
68.6362
 20
-8.0477
 30
0.0
 10
67.8494
 20
-7.7711
 30
0.0
 10
66.9815
 20
-7.8471
 30
0.0
 10
66.2549
 20
-8.2565
 30
0.0
 10
66.2549
 20
-8.2565
 30
0.0
 10
67.4064
 20
-6.9545
 30
0.0
 10
67.9838
 20
-5.243
 30
0.0
 10
67.8563
 20
-3.5096
 30
0.0
 10
67.8563
 20
-3.5096
 30
0.0
 10
67.7288
 20
-1.776
 30
0.0
 10
66.9073
 20
-0.1674
 30
0.0
 10
65.5777
 20
0.9522
 30
0.0
 10
65.5777
 20
0.9522
 30
0.0
 10
66.682
 20
0.7506
 30
0.0
 10
67.8208
 20
1.0073
 30
0.0
 10
68.7319
 20
1.6629
 30
0.0
 10
68.7319
 20
1.6629
 30
0.0
 10
69.6431
 20
2.3186
 30
0.0
 10
70.2481
 20
3.317
 30
0.0
 10
70.4078
 20
4.428
 30
0.0
  0
SPLINE
  5
A3
330
1F
100
AcDbEntity
  8
layer 1
 62
     7
370
     9
100
AcDbSpline
210
0.0
220
0.0
230
1.0
 70
    11
 71
     3
 72
    44
 73
    40
 74
     0
 42
0.0000000001
 43
0.0000000001
 12
1.0
 22
0.0
 32
0.0
 13
1.0
 23
0.0
 33
0.0
 40
0.0
 40
0.0
 40
0.0
 40
0.0
 40
0.0909090909090909
 40
0.0909090909090909
 40
0.0909090909090909
 40
0.0909090909090909
 40
0.1818181818181818
 40
0.1818181818181818
 40
0.1818181818181818
 40
0.1818181818181818
 40
0.2727272727272727
 40
0.2727272727272727
 40
0.2727272727272727
 40
0.2727272727272727
 40
0.3636363636363636
 40
0.3636363636363636
 40
0.3636363636363636
 40
0.3636363636363636
 40
0.4545454545454545
 40
0.4545454545454545
 40
0.4545454545454545
 40
0.4545454545454545
 40
0.5454545454545454
 40
0.5454545454545454
 40
0.5454545454545454
 40
0.5454545454545454
 40
0.6363636363636364
 40
0.6363636363636364
 40
0.6363636363636364
 40
0.6363636363636364
 40
0.7272727272727273
 40
0.7272727272727273
 40
0.7272727272727273
 40
0.7272727272727273
 40
0.8181818181818182
 40
0.8181818181818182
 40
0.8181818181818182
 40
0.8181818181818182
 40
1.0
 40
1.0
 40
1.0
 40
1.0
 10
58.8321
 20
-5.6298
 30
0.0
 10
58.8236
 20
-5.5787
 30
0.0
 10
58.794
 20
-5.5333
 30
0.0
 10
58.7506
 20
-5.5049
 30
0.0
 10
58.7506
 20
-5.5049
 30
0.0
 10
58.7072
 20
-5.4765
 30
0.0
 10
58.6539
 20
-5.4676
 30
0.0
 10
58.6036
 20
-5.4803
 30
0.0
 10
58.6036
 20
-5.4803
 30
0.0
 10
57.2128
 20
-5.5648
 30
0.0
 10
56.1214
 20
-6.7055
 30
0.0
 10
56.0982
 20
-8.0985
 30
0.0
 10
56.0982
 20
-8.0985
 30
0.0
 10
55.8076
 20
-5.4942
 30
0.0
 10
54.1831
 20
-3.2285
 30
0.0
 10
51.8098
 20
-2.1174
 30
0.0
 10
51.8098
 20
-2.1174
 30
0.0
 10
54.8265
 20
-0.2045
 30
0.0
 10
58.5919
 20
0.0994
 30
0.0
 10
61.8762
 20
-1.3048
 30
0.0
 10
61.8762
 20
-1.3048
 30
0.0
 10
63.0471
 20
-1.7941
 30
0.0
 10
63.891
 20
-2.8423
 30
0.0
 10
64.1188
 20
-4.0907
 30
0.0
 10
64.1188
 20
-4.0907
 30
0.0
 10
64.3466
 20
-5.339
 30
0.0
 10
63.9274
 20
-6.6179
 30
0.0
 10
63.0047
 20
-7.4892
 30
0.0
 10
63.0047
 20
-7.4892
 30
0.0
 10
62.2879
 20
-8.0935
 30
0.0
 10
61.2959
 20
-8.2525
 30
0.0
 10
60.426
 20
-7.9027
 30
0.0
 10
60.426
 20
-7.9027
 30
0.0
 10
59.5562
 20
-7.5528
 30
0.0
 10
58.9505
 20
-6.7512
 30
0.0
 10
58.8518
 20
-5.8189
 30
0.0
 10
58.8518
 20
-5.8189
 30
0.0
 10
58.8428
 20
-5.7561
 30
0.0
 10
58.8363
 20
-5.6931
 30
0.0
 10
58.8321
 20
-5.6298
 30
0.0
  0
SPLINE
  5
A4
330
1F
100
AcDbEntity
  8
layer 1
 62
     7
370
     9
100
AcDbSpline
210
0.0
220
0.0
230
1.0
 70
    11
 71
     3
 72
    28
 73
    24
 74
     0
 42
0.0000000001
 43
0.0000000001
 12
1.0
 22
0.0
 32
0.0
 13
1.0
 23
0.0
 33
0.0
 40
0.0
 40
0.0
 40
0.0
 40
0.0
 40
0.1428571428571428
 40
0.1428571428571428
 40
0.1428571428571428
 40
0.1428571428571428
 40
0.2857142857142857
 40
0.2857142857142857
 40
0.2857142857142857
 40
0.2857142857142857
 40
0.4285714285714285
 40
0.4285714285714285
 40
0.4285714285714285
 40
0.4285714285714285
 40
0.5714285714285714
 40
0.5714285714285714
 40
0.5714285714285714
 40
0.5714285714285714
 40
0.7142857142857143
 40
0.7142857142857143
 40
0.7142857142857143
 40
0.7142857142857143
 40
1.0
 40
1.0
 40
1.0
 40
1.0
 10
51.6744
 20
-25.3195
 30
0.0
 10
51.9615
 20
-27.2886
 30
0.0
 10
52.4921
 20
-29.2142
 30
0.0
 10
53.2544
 20
-31.0524
 30
0.0
 10
53.2544
 20
-31.0524
 30
0.0
 10
52.6041
 20
-26.1695
 30
0.0
 10
52.8798
 20
-21.2077
 30
0.0
 10
54.0669
 20
-16.4269
 30
0.0
 10
54.0669
 20
-16.4269
 30
0.0
 10
54.7914
 20
-14.1627
 30
0.0
 10
54.8851
 20
-11.7437
 30
0.0
 10
54.3378
 20
-9.4302
 30
0.0
 10
54.3378
 20
-9.4302
 30
0.0
 10
54.1839
 20
-11.2157
 30
0.0
 10
53.2035
 20
-12.8265
 30
0.0
 10
51.6882
 20
-13.7835
 30
0.0
 10
51.6882
 20
-13.7835
 30
0.0
 10
50.173
 20
-14.7406
 30
0.0
 10
48.2971
 20
-14.9337
 30
0.0
 10
46.6187
 20
-14.3053
 30
0.0
 10
46.6187
 20
-14.3053
 30
0.0
 10
49.408
 20
-17.3619
 30
0.0
 10
51.1751
 20
-21.2119
 30
0.0
 10
51.6744
 20
-25.3195
 30
0.0
  0
SPLINE
  5
A5
330
1F
100
AcDbEntity
  8
layer 1
 62
     7
370
     9
100
AcDbSpline
210
0.0
220
0.0
230
1.0
 70
    11
 71
     3
 72
    48
 73
    44
 74
     0
 42
0.0000000001
 43
0.0000000001
 12
1.0
 22
0.0
 32
0.0
 13
1.0
 23
0.0
 33
0.0
 40
0.0
 40
0.0
 40
0.0
 40
0.0
 40
0.0833333333333333
 40
0.0833333333333333
 40
0.0833333333333333
 40
0.0833333333333333
 40
0.1666666666666667
 40
0.1666666666666667
 40
0.1666666666666667
 40
0.1666666666666667
 40
0.25
 40
0.25
 40
0.25
 40
0.25
 40
0.3333333333333333
 40
0.3333333333333333
 40
0.3333333333333333
 40
0.3333333333333333
 40
0.4166666666666667
 40
0.4166666666666667
 40
0.4166666666666667
 40
0.4166666666666667
 40
0.5
 40
0.5
 40
0.5
 40
0.5
 40
0.5833333333333334
 40
0.5833333333333334
 40
0.5833333333333334
 40
0.5833333333333334
 40
0.6666666666666666
 40
0.6666666666666666
 40
0.6666666666666666
 40
0.6666666666666666
 40
0.75
 40
0.75
 40
0.75
 40
0.75
 40
0.8333333333333334
 40
0.8333333333333334
 40
0.8333333333333334
 40
0.8333333333333334
 40
1.0
 40
1.0
 40
1.0
 40
1.0
 10
58.2198
 20
-65.7203
 30
0.0
 10
56.5838
 20
-69.2511
 30
0.0
 10
52.9904
 20
-71.457
 30
0.0
 10
49.1015
 20
-71.3177
 30
0.0
 10
49.1015
 20
-71.3177
 30
0.0
 10
49.0043
 20
-71.3191
 30
0.0
 10
48.9144
 20
-71.267
 30
0.0
 10
48.8673
 20
-71.182
 30
0.0
 10
48.8673
 20
-71.182
 30
0.0
 10
48.82
 20
-71.0971
 30
0.0
 10
48.8234
 20
-70.9932
 30
0.0
 10
48.8758
 20
-70.9115
 30
0.0
 10
48.8758
 20
-70.9115
 30
0.0
 10
51.4813
 20
-67.1935
 30
0.0
 10
52.9693
 20
-62.8081
 30
0.0
 10
53.1641
 20
-58.2722
 30
0.0
 10
53.1641
 20
-58.2722
 30
0.0
 10
53.216
 20
-52.157
 30
0.0
 10
51.3448
 20
-46.1803
 30
0.0
 10
47.8149
 20
-41.1866
 30
0.0
 10
47.8149
 20
-41.1866
 30
0.0
 10
45.7586
 20
-38.1948
 30
0.0
 10
43.3782
 20
-35.4397
 30
0.0
 10
40.7166
 20
-32.9708
 30
0.0
 10
40.7166
 20
-32.9708
 30
0.0
 10
40.6615
 20
-32.8905
 30
0.0
 10
40.6673
 20
-32.783
 30
0.0
 10
40.7308
 20
-32.7089
 30
0.0
 10
40.7308
 20
-32.7089
 30
0.0
 10
40.7941
 20
-32.635
 30
0.0
 10
40.8995
 20
-32.6127
 30
0.0
 10
40.9874
 20
-32.655
 30
0.0
 10
40.9874
 20
-32.655
 30
0.0
 10
40.9874
 20
-32.655
 30
0.0
 10
41.7435
 20
-33.0837
 30
0.0
 10
41.7435
 20
-33.0837
 30
0.0
 10
41.7435
 20
-33.0837
 30
0.0
 10
48.589
 20
-37.5195
 30
0.0
 10
54.0854
 20
-43.7497
 30
0.0
 10
57.633
 20
-51.0949
 30
0.0
 10
57.633
 20
-51.0949
 30
0.0
 10
59.6754
 20
-55.7193
 30
0.0
 10
59.8852
 20
-60.9471
 30
0.0
 10
58.2198
 20
-65.7203
 30
0.0
  0
SPLINE
  5
A6
330
1F
100
AcDbEntity
  8
layer 1
 62
     7
370
     9
100
AcDbSpline
210
0.0
220
0.0
230
1.0
 70
    11
 71
     3
 72
    36
 73
    32
 74
     0
 42
0.0000000001
 43
0.0000000001
 12
1.0
 22
0.0
 32
0.0
 13
1.0
 23
0.0
 33
0.0
 40
0.0
 40
0.0
 40
0.0
 40
0.0
 40
0.1111111111111111
 40
0.1111111111111111
 40
0.1111111111111111
 40
0.1111111111111111
 40
0.2222222222222222
 40
0.2222222222222222
 40
0.2222222222222222
 40
0.2222222222222222
 40
0.3333333333333333
 40
0.3333333333333333
 40
0.3333333333333333
 40
0.3333333333333333
 40
0.4444444444444444
 40
0.4444444444444444
 40
0.4444444444444444
 40
0.4444444444444444
 40
0.5555555555555556
 40
0.5555555555555556
 40
0.5555555555555556
 40
0.5555555555555556
 40
0.6666666666666666
 40
0.6666666666666666
 40
0.6666666666666666
 40
0.6666666666666666
 40
0.7777777777777778
 40
0.7777777777777778
 40
0.7777777777777778
 40
0.7777777777777778
 40
1.0
 40
1.0
 40
1.0
 40
1.0
 10
63.4336
 20
-46.7388
 30
0.0
 10
63.4536
 20
-46.661
 30
0.0
 10
63.5191
 20
-46.6034
 30
0.0
 10
63.5988
 20
-46.5933
 30
0.0
 10
63.5988
 20
-46.5933
 30
0.0
 10
63.6785
 20
-46.5833
 30
0.0
 10
63.7562
 20
-46.6232
 30
0.0
 10
63.7947
 20
-46.6936
 30
0.0
 10
63.7947
 20
-46.6936
 30
0.0
 10
64.2367
 20
-47.3768
 30
0.0
 10
65.0362
 20
-47.7403
 30
0.0
 10
65.8417
 20
-47.6239
 30
0.0
 10
65.8417
 20
-47.6239
 30
0.0
 10
66.6472
 20
-47.5075
 30
0.0
 10
67.311
 20
-46.9324
 30
0.0
 10
67.5414
 20
-46.1519
 30
0.0
 10
67.5414
 20
-46.1519
 30
0.0
 10
67.5907
 20
-44.4437
 30
0.0
 10
66.4135
 20
-42.9438
 30
0.0
 10
64.7426
 20
-42.5859
 30
0.0
 10
64.7426
 20
-42.5859
 30
0.0
 10
62.8147
 20
-42.4928
 30
0.0
 10
60.8976
 20
-42.2438
 30
0.0
 10
59.0098
 20
-41.8409
 30
0.0
 10
59.0098
 20
-41.8409
 30
0.0
 10
60.8227
 20
-43.7796
 30
0.0
 10
62.2478
 20
-46.0473
 30
0.0
 10
63.2079
 20
-48.5218
 30
0.0
 10
63.2079
 20
-48.5218
 30
0.0
 10
63.0598
 20
-47.92
 30
0.0
 10
63.1402
 20
-47.2847
 30
0.0
 10
63.4336
 20
-46.7388
 30
0.0
  0
SPLINE
  5
A7
330
1F
100
AcDbEntity
  8
layer 1
 62
     7
370
     9
100
AcDbSpline
210
0.0
220
0.0
230
1.0
 70
    11
 71
     3
 72
    52
 73
    48
 74
     0
 42
0.0000000001
 43
0.0000000001
 12
1.0
 22
0.0
 32
0.0
 13
1.0
 23
0.0
 33
0.0
 40
0.0
 40
0.0
 40
0.0
 40
0.0
 40
0.0769230769230769
 40
0.0769230769230769
 40
0.0769230769230769
 40
0.0769230769230769
 40
0.1538461538461539
 40
0.1538461538461539
 40
0.1538461538461539
 40
0.1538461538461539
 40
0.2307692307692308
 40
0.2307692307692308
 40
0.2307692307692308
 40
0.2307692307692308
 40
0.3076923076923077
 40
0.3076923076923077
 40
0.3076923076923077
 40
0.3076923076923077
 40
0.3846153846153846
 40
0.3846153846153846
 40
0.3846153846153846
 40
0.3846153846153846
 40
0.4615384615384616
 40
0.4615384615384616
 40
0.4615384615384616
 40
0.4615384615384616
 40
0.5384615384615384
 40
0.5384615384615384
 40
0.5384615384615384
 40
0.5384615384615384
 40
0.6153846153846154
 40
0.6153846153846154
 40
0.6153846153846154
 40
0.6153846153846154
 40
0.6923076923076923
 40
0.6923076923076923
 40
0.6923076923076923
 40
0.6923076923076923
 40
0.7692307692307693
 40
0.7692307692307693
 40
0.7692307692307693
 40
0.7692307692307693
 40
0.8461538461538461
 40
0.8461538461538461
 40
0.8461538461538461
 40
0.8461538461538461
 40
1.0
 40
1.0
 40
1.0
 40
1.0
 10
56.9108
 20
-24.2362
 30
0.0
 10
57.1552
 20
-27.0264
 30
0.0
 10
59.0935
 20
-29.3776
 30
0.0
 10
61.7859
 20
-30.1496
 30
0.0
 10
61.7859
 20
-30.1496
 30
0.0
 10
60.011
 20
-30.4935
 30
0.0
 10
58.8476
 20
-32.207
 30
0.0
 10
59.183
 20
-33.9837
 30
0.0
 10
59.183
 20
-33.9837
 30
0.0
 10
59.5186
 20
-35.7602
 30
0.0
 10
61.2266
 20
-36.9317
 30
0.0
 10
63.0047
 20
-36.6047
 30
0.0
 10
63.0047
 20
-36.6047
 30
0.0
 10
63.0708
 20
-36.6242
 30
0.0
 10
63.1424
 20
-36.605
 30
0.0
 10
63.1899
 20
-36.5551
 30
0.0
 10
63.1899
 20
-36.5551
 30
0.0
 10
63.2374
 20
-36.5051
 30
0.0
 10
63.2531
 20
-36.4328
 30
0.0
 10
63.2304
 20
-36.3678
 30
0.0
 10
63.2304
 20
-36.3678
 30
0.0
 10
62.6038
 20
-35.7248
 30
0.0
 10
62.4743
 20
-34.7463
 30
0.0
 10
62.9118
 20
-33.9623
 30
0.0
 10
62.9118
 20
-33.9623
 30
0.0
 10
63.3494
 20
-33.1785
 30
0.0
 10
64.2501
 20
-32.7751
 30
0.0
 10
65.1263
 20
-32.9708
 30
0.0
 10
65.1263
 20
-32.9708
 30
0.0
 10
66.0145
 20
-33.1517
 30
0.0
 10
66.7862
 20
-33.6966
 30
0.0
 10
67.2538
 20
-34.4731
 30
0.0
 10
67.2538
 20
-34.4731
 30
0.0
 10
67.7214
 20
-35.2496
 30
0.0
 10
67.842
 20
-36.1864
 30
0.0
 10
67.5865
 20
-37.0562
 30
0.0
 10
67.5865
 20
-37.0562
 30
0.0
 10
66.8993
 20
-39.3518
 30
0.0
 10
64.6301
 20
-40.794
 30
0.0
 10
62.2599
 20
-40.4416
 30
0.0
 10
62.2599
 20
-40.4416
 30
0.0
 10
58.917
 20
-39.7732
 30
0.0
 10
56.443
 20
-36.9379
 30
0.0
 10
56.2337
 20
-33.5352
 30
0.0
 10
56.2337
 20
-33.5352
 30
0.0
 10
56.0077
 20
-30.419
 30
0.0
 10
56.2358
 20
-27.2866
 30
0.0
 10
56.9108
 20
-24.2362
 30
0.0
  0
SPLINE
  5
A8
330
1F
100
AcDbEntity
  8
layer 1
 62
     7
370
     9
100
AcDbSpline
210
0.0
220
0.0
230
1.0
 70
    11
 71
     3
 72
    96
 73
    92
 74
     0
 42
0.0000000001
 43
0.0000000001
 12
1.0
 22
0.0
 32
0.0
 13
1.0
 23
0.0
 33
0.0
 40
0.0
 40
0.0
 40
0.0
 40
0.0
 40
0.0416666666666667
 40
0.0416666666666667
 40
0.0416666666666667
 40
0.0416666666666667
 40
0.0833333333333333
 40
0.0833333333333333
 40
0.0833333333333333
 40
0.0833333333333333
 40
0.125
 40
0.125
 40
0.125
 40
0.125
 40
0.1666666666666667
 40
0.1666666666666667
 40
0.1666666666666667
 40
0.1666666666666667
 40
0.2083333333333333
 40
0.2083333333333333
 40
0.2083333333333333
 40
0.2083333333333333
 40
0.25
 40
0.25
 40
0.25
 40
0.25
 40
0.2916666666666667
 40
0.2916666666666667
 40
0.2916666666666667
 40
0.2916666666666667
 40
0.3333333333333333
 40
0.3333333333333333
 40
0.3333333333333333
 40
0.3333333333333333
 40
0.375
 40
0.375
 40
0.375
 40
0.375
 40
0.4166666666666667
 40
0.4166666666666667
 40
0.4166666666666667
 40
0.4166666666666667
 40
0.4583333333333333
 40
0.4583333333333333
 40
0.4583333333333333
 40
0.4583333333333333
 40
0.5
 40
0.5
 40
0.5
 40
0.5
 40
0.5416666666666666
 40
0.5416666666666666
 40
0.5416666666666666
 40
0.5416666666666666
 40
0.5833333333333334
 40
0.5833333333333334
 40
0.5833333333333334
 40
0.5833333333333334
 40
0.625
 40
0.625
 40
0.625
 40
0.625
 40
0.6666666666666666
 40
0.6666666666666666
 40
0.6666666666666666
 40
0.6666666666666666
 40
0.7083333333333334
 40
0.7083333333333334
 40
0.7083333333333334
 40
0.7083333333333334
 40
0.75
 40
0.75
 40
0.75
 40
0.75
 40
0.7916666666666666
 40
0.7916666666666666
 40
0.7916666666666666
 40
0.7916666666666666
 40
0.8333333333333334
 40
0.8333333333333334
 40
0.8333333333333334
 40
0.8333333333333334
 40
0.875
 40
0.875
 40
0.875
 40
0.875
 40
0.9166666666666666
 40
0.9166666666666666
 40
0.9166666666666666
 40
0.9166666666666666
 40
1.0
 40
1.0
 40
1.0
 40
1.0
 10
39.1932
 20
-90.9088
 30
0.0
 10
40.5999
 20
-92.0716
 30
0.0
 10
41.6551
 20
-93.6035
 30
0.0
 10
42.2401
 20
-95.3324
 30
0.0
 10
42.2401
 20
-95.3324
 30
0.0
 10
42.0263
 20
-91.4767
 30
0.0
 10
43.6708
 20
-87.7515
 30
0.0
 10
46.6639
 20
-85.3114
 30
0.0
 10
46.6639
 20
-85.3114
 30
0.0
 10
50.8444
 20
-82.3741
 30
0.0
 10
56.1969
 20
-81.6667
 30
0.0
 10
60.997
 20
-83.4171
 30
0.0
 10
60.997
 20
-83.4171
 30
0.0
 10
60.1252
 20
-82.5404
 30
0.0
 10
59.8273
 20
-81.2444
 30
0.0
 10
60.2286
 20
-80.0749
 30
0.0
 10
60.2286
 20
-80.0749
 30
0.0
 10
60.267
 20
-79.9702
 30
0.0
 10
60.3627
 20
-79.8972
 30
0.0
 10
60.4738
 20
-79.8877
 30
0.0
 10
60.4738
 20
-79.8877
 30
0.0
 10
60.5849
 20
-79.878
 30
0.0
 10
60.6916
 20
-79.9334
 30
0.0
 10
60.7477
 20
-80.0298
 30
0.0
 10
60.7477
 20
-80.0298
 30
0.0
 10
61.3178
 20
-80.6196
 30
0.0
 10
62.1193
 20
-80.9274
 30
0.0
 10
62.9376
 20
-80.8708
 30
0.0
 10
62.9376
 20
-80.8708
 30
0.0
 10
63.7558
 20
-80.8142
 30
0.0
 10
64.5074
 20
-80.399
 30
0.0
 10
64.9909
 20
-79.7364
 30
0.0
 10
64.9909
 20
-79.7364
 30
0.0
 10
65.3599
 20
-78.6964
 30
0.0
 10
65.1399
 20
-77.5381
 30
0.0
 10
64.4151
 20
-76.7058
 30
0.0
 10
64.4151
 20
-76.7058
 30
0.0
 10
63.6904
 20
-75.8737
 30
0.0
 10
62.5735
 20
-75.4964
 30
0.0
 10
61.4925
 20
-75.7189
 30
0.0
 10
61.4925
 20
-75.7189
 30
0.0
 10
59.88
 20
-76.1251
 30
0.0
 10
58.3519
 20
-76.8127
 30
0.0
 10
56.9785
 20
-77.7502
 30
0.0
 10
56.9785
 20
-77.7502
 30
0.0
 10
53.6839
 20
-79.8929
 30
0.0
 10
49.4078
 20
-79.7761
 30
0.0
 10
46.235
 20
-77.4568
 30
0.0
 10
46.235
 20
-77.4568
 30
0.0
 10
46.1503
 20
-77.382
 30
0.0
 10
46.0598
 20
-77.3142
 30
0.0
 10
45.9641
 20
-77.2537
 30
0.0
 10
45.9641
 20
-77.2537
 30
0.0
 10
46.2479
 20
-78.493
 30
0.0
 10
45.9173
 20
-79.793
 30
0.0
 10
45.076
 20
-80.7462
 30
0.0
 10
45.076
 20
-80.7462
 30
0.0
 10
44.2348
 20
-81.6993
 30
0.0
 10
42.9858
 20
-82.1888
 30
0.0
 10
41.7209
 20
-82.0612
 30
0.0
 10
41.7209
 20
-82.0612
 30
0.0
 10
42.3306
 20
-82.7736
 30
0.0
 10
42.6311
 20
-83.6996
 30
0.0
 10
42.5561
 20
-84.6343
 30
0.0
 10
42.5561
 20
-84.6343
 30
0.0
 10
42.4986
 20
-84.7542
 30
0.0
 10
42.3727
 20
-84.8262
 30
0.0
 10
42.2401
 20
-84.8148
 30
0.0
 10
42.2401
 20
-84.8148
 30
0.0
 10
40.2984
 20
-85.0979
 30
0.0
 10
38.3198
 20
-84.6733
 30
0.0
 10
36.6652
 20
-83.6186
 30
0.0
 10
36.6652
 20
-83.6186
 30
0.0
 10
38.1845
 20
-84.8091
 30
0.0
 10
39.4701
 20
-86.2708
 30
0.0
 10
40.4571
 20
-87.9295
 30
0.0
 10
40.4571
 20
-87.9295
 30
0.0
 10
40.9364
 20
-88.7028
 30
0.0
 10
41.2872
 20
-89.549
 30
0.0
 10
41.4953
 20
-90.4347
 30
0.0
 10
41.4953
 20
-90.4347
 30
0.0
 10
41.5507
 20
-90.5445
 30
0.0
 10
41.5491
 20
-90.6744
 30
0.0
 10
41.4905
 20
-90.7825
 30
0.0
 10
41.4905
 20
-90.7825
 30
0.0
 10
41.432
 20
-90.8905
 30
0.0
 10
41.3241
 20
-90.963
 30
0.0
 10
41.2018
 20
-90.9764
 30
0.0
 10
41.2018
 20
-90.9764
 30
0.0
 10
40.5367
 20
-91.1165
 30
0.0
 10
39.8474
 20
-91.0933
 30
0.0
 10
39.1932
 20
-90.9088
 30
0.0
  0
SPLINE
  5
A9
330
1F
100
AcDbEntity
  8
layer 1
 62
     7
370
     9
100
AcDbSpline
210
0.0
220
0.0
230
1.0
 70
    11
 71
     3
 72
    28
 73
    24
 74
     0
 42
0.0000000001
 43
0.0000000001
 12
1.0
 22
0.0
 32
0.0
 13
1.0
 23
0.0
 33
0.0
 40
0.0
 40
0.0
 40
0.0
 40
0.0
 40
0.1428571428571428
 40
0.1428571428571428
 40
0.1428571428571428
 40
0.1428571428571428
 40
0.2857142857142857
 40
0.2857142857142857
 40
0.2857142857142857
 40
0.2857142857142857
 40
0.4285714285714285
 40
0.4285714285714285
 40
0.4285714285714285
 40
0.4285714285714285
 40
0.5714285714285714
 40
0.5714285714285714
 40
0.5714285714285714
 40
0.5714285714285714
 40
0.7142857142857143
 40
0.7142857142857143
 40
0.7142857142857143
 40
0.7142857142857143
 40
1.0
 40
1.0
 40
1.0
 40
1.0
 10
58.4902
 20
-90.3193
 30
0.0
 10
65.1442
 20
-91.4546
 30
0.0
 10
70.1064
 20
-97.0755
 30
0.0
 10
70.4078
 20
-103.819
 30
0.0
 10
70.4078
 20
-103.819
 30
0.0
 10
68.6245
 20
-101.2391
 30
0.0
 10
65.6414
 20
-99.756
 30
0.0
 10
62.5082
 20
-99.8917
 30
0.0
 10
62.5082
 20
-99.8917
 30
0.0
 10
63.2946
 20
-96.2115
 30
0.0
 10
61.6483
 20
-92.4396
 30
0.0
 10
58.4152
 20
-90.5136
 30
0.0
 10
58.4152
 20
-90.5136
 30
0.0
 10
58.4159
 20
-90.5109
 30
0.0
 10
58.4166
 20
-90.5082
 30
0.0
 10
58.4174
 20
-90.5054
 30
0.0
 10
58.4174
 20
-90.5054
 30
0.0
 10
58.4271
 20
-90.4735
 30
0.0
 10
58.4374
 20
-90.4418
 30
0.0
 10
58.4496
 20
-90.4107
 30
0.0
 10
58.4496
 20
-90.4107
 30
0.0
 10
58.4618
 20
-90.3796
 30
0.0
 10
58.4757
 20
-90.3492
 30
0.0
 10
58.4902
 20
-90.3193
 30
0.0
  0
SPLINE
  5
AA
330
1F
100
AcDbEntity
  8
layer 1
 62
     7
370
     9
100
AcDbSpline
210
0.0
220
0.0
230
1.0
 70
    11
 71
     3
 72
    24
 73
    20
 74
     0
 42
0.0000000001
 43
0.0000000001
 12
1.0
 22
0.0
 32
0.0
 13
1.0
 23
0.0
 33
0.0
 40
0.0
 40
0.0
 40
0.0
 40
0.0
 40
0.1666666666666667
 40
0.1666666666666667
 40
0.1666666666666667
 40
0.1666666666666667
 40
0.3333333333333333
 40
0.3333333333333333
 40
0.3333333333333333
 40
0.3333333333333333
 40
0.5
 40
0.5
 40
0.5
 40
0.5
 40
0.6666666666666666
 40
0.6666666666666666
 40
0.6666666666666666
 40
0.6666666666666666
 40
1.0
 40
1.0
 40
1.0
 40
1.0
 10
57.2268
 20
-85.1308
 30
0.0
 10
54.1781
 20
-84.7929
 30
0.0
 10
51.1918
 20
-86.1649
 30
0.0
 10
49.4621
 20
-88.698
 30
0.0
 10
49.4621
 20
-88.698
 30
0.0
 10
47.7324
 20
-91.2311
 30
0.0
 10
47.5416
 20
-94.5118
 30
0.0
 10
48.966
 20
-97.2284
 30
0.0
 10
48.966
 20
-97.2284
 30
0.0
 10
48.877
 20
-95.3214
 30
0.0
 10
49.5673
 20
-93.4601
 30
0.0
 10
50.8783
 20
-92.0722
 30
0.0
 10
50.8783
 20
-92.0722
 30
0.0
 10
52.1895
 20
-90.6846
 30
0.0
 10
54.0086
 20
-89.8897
 30
0.0
 10
55.9177
 20
-89.8705
 30
0.0
 10
55.9177
 20
-89.8705
 30
0.0
 10
55.5106
 20
-88.1707
 30
0.0
 10
56.005
 20
-86.3808
 30
0.0
 10
57.2268
 20
-85.1308
 30
0.0
  0
SPLINE
  5
AB
330
1F
100
AcDbEntity
  8
layer 1
 62
     7
370
     9
100
AcDbSpline
210
0.0
220
0.0
230
1.0
 70
    11
 71
     3
 72
    48
 73
    44
 74
     0
 42
0.0000000001
 43
0.0000000001
 12
1.0
 22
0.0
 32
0.0
 13
1.0
 23
0.0
 33
0.0
 40
0.0
 40
0.0
 40
0.0
 40
0.0
 40
0.0833333333333333
 40
0.0833333333333333
 40
0.0833333333333333
 40
0.0833333333333333
 40
0.1666666666666667
 40
0.1666666666666667
 40
0.1666666666666667
 40
0.1666666666666667
 40
0.25
 40
0.25
 40
0.25
 40
0.25
 40
0.3333333333333333
 40
0.3333333333333333
 40
0.3333333333333333
 40
0.3333333333333333
 40
0.4166666666666667
 40
0.4166666666666667
 40
0.4166666666666667
 40
0.4166666666666667
 40
0.5
 40
0.5
 40
0.5
 40
0.5
 40
0.5833333333333334
 40
0.5833333333333334
 40
0.5833333333333334
 40
0.5833333333333334
 40
0.6666666666666666
 40
0.6666666666666666
 40
0.6666666666666666
 40
0.6666666666666666
 40
0.75
 40
0.75
 40
0.75
 40
0.75
 40
0.8333333333333334
 40
0.8333333333333334
 40
0.8333333333333334
 40
0.8333333333333334
 40
1.0
 40
1.0
 40
1.0
 40
1.0
 10
54.7891
 20
-98.0861
 30
0.0
 10
54.8828
 20
-98.1587
 30
0.0
 10
54.9336
 20
-98.2735
 30
0.0
 10
54.9245
 20
-98.3917
 30
0.0
 10
54.9245
 20
-98.3917
 30
0.0
 10
54.9153
 20
-98.5097
 30
0.0
 10
54.8475
 20
-98.6155
 30
0.0
 10
54.744
 20
-98.6729
 30
0.0
 10
54.744
 20
-98.6729
 30
0.0
 10
53.5791
 20
-99.4934
 30
0.0
 10
52.0654
 20
-99.631
 30
0.0
 10
50.7716
 20
-99.0341
 30
0.0
 10
50.7716
 20
-99.0341
 30
0.0
 10
50.8529
 20
-99.8049
 30
0.0
 10
50.6136
 20
-100.5751
 30
0.0
 10
50.1098
 20
-101.1642
 30
0.0
 10
50.1098
 20
-101.1642
 30
0.0
 10
49.6062
 20
-101.7532
 30
0.0
 10
48.8824
 20
-102.1093
 30
0.0
 10
48.1084
 20
-102.1488
 30
0.0
 10
48.1084
 20
-102.1488
 30
0.0
 10
50.6664
 20
-104.6435
 30
0.0
 10
54.6237
 20
-105.0016
 30
0.0
 10
57.5879
 20
-103.0064
 30
0.0
 10
57.5879
 20
-103.0064
 30
0.0
 10
59.9296
 20
-101.1984
 30
0.0
 10
60.567
 20
-97.9338
 30
0.0
 10
59.0775
 20
-95.3777
 30
0.0
 10
59.0775
 20
-95.3777
 30
0.0
 10
58.6033
 20
-94.6271
 30
0.0
 10
57.841
 20
-94.1051
 30
0.0
 10
56.9698
 20
-93.9343
 30
0.0
 10
56.9698
 20
-93.9343
 30
0.0
 10
56.0987
 20
-93.7636
 30
0.0
 10
55.1956
 20
-93.959
 30
0.0
 10
54.4732
 20
-94.4748
 30
0.0
 10
54.4732
 20
-94.4748
 30
0.0
 10
53.9224
 20
-94.9401
 30
0.0
 10
53.6321
 20
-95.6441
 30
0.0
 10
53.6949
 20
-96.3625
 30
0.0
 10
53.6949
 20
-96.3625
 30
0.0
 10
53.7577
 20
-97.0807
 30
0.0
 10
54.1659
 20
-97.7236
 30
0.0
 10
54.7891
 20
-98.0861
 30
0.0
  0
SPLINE
  5
AC
330
1F
100
AcDbEntity
  8
layer 1
 62
     7
370
     9
100
AcDbSpline
210
0.0
220
0.0
230
1.0
 70
    11
 71
     3
 72
    28
 73
    24
 74
     0
 42
0.0000000001
 43
0.0000000001
 12
1.0
 22
0.0
 32
0.0
 13
1.0
 23
0.0
 33
0.0
 40
0.0
 40
0.0
 40
0.0
 40
0.0
 40
0.1428571428571428
 40
0.1428571428571428
 40
0.1428571428571428
 40
0.1428571428571428
 40
0.2857142857142857
 40
0.2857142857142857
 40
0.2857142857142857
 40
0.2857142857142857
 40
0.4285714285714285
 40
0.4285714285714285
 40
0.4285714285714285
 40
0.4285714285714285
 40
0.5714285714285714
 40
0.5714285714285714
 40
0.5714285714285714
 40
0.5714285714285714
 40
0.7142857142857143
 40
0.7142857142857143
 40
0.7142857142857143
 40
0.7142857142857143
 40
1.0
 40
1.0
 40
1.0
 40
1.0
 10
40.299
 20
-79.398
 30
0.0
 10
35.4275
 20
-78.9843
 30
0.0
 10
31.229
 20
-75.8044
 30
0.0
 10
29.5105
 20
-71.2276
 30
0.0
 10
29.5105
 20
-71.2276
 30
0.0
 10
33.9658
 20
-74.0274
 30
0.0
 10
39.6932
 20
-73.7573
 30
0.0
 10
43.8652
 20
-70.5504
 30
0.0
 10
43.8652
 20
-70.5504
 30
0.0
 10
42.7315
 20
-72.2872
 30
0.0
 10
43.081
 20
-74.5983
 30
0.0
 10
44.6776
 20
-75.9222
 30
0.0
 10
44.6776
 20
-75.9222
 30
0.0
 10
44.1111
 20
-75.7338
 30
0.0
 10
43.5101
 20
-75.6721
 30
0.0
 10
42.9172
 20
-75.7416
 30
0.0
 10
42.9172
 20
-75.7416
 30
0.0
 10
43.2659
 20
-76.5868
 30
0.0
 10
43.1543
 20
-77.5523
 30
0.0
 10
42.6221
 20
-78.2958
 30
0.0
 10
42.6221
 20
-78.2958
 30
0.0
 10
42.0896
 20
-79.0392
 30
0.0
 10
41.2117
 20
-79.4558
 30
0.0
 10
40.299
 20
-79.398
 30
0.0
  0
SPLINE
  5
AD
330
1F
100
AcDbEntity
  8
layer 1
 62
     7
370
     9
100
AcDbSpline
210
0.0
220
0.0
230
1.0
 70
    11
 71
     3
 72
    36
 73
    32
 74
     0
 42
0.0000000001
 43
0.0000000001
 12
1.0
 22
0.0
 32
0.0
 13
1.0
 23
0.0
 33
0.0
 40
0.0
 40
0.0
 40
0.0
 40
0.0
 40
0.1111111111111111
 40
0.1111111111111111
 40
0.1111111111111111
 40
0.1111111111111111
 40
0.2222222222222222
 40
0.2222222222222222
 40
0.2222222222222222
 40
0.2222222222222222
 40
0.3333333333333333
 40
0.3333333333333333
 40
0.3333333333333333
 40
0.3333333333333333
 40
0.4444444444444444
 40
0.4444444444444444
 40
0.4444444444444444
 40
0.4444444444444444
 40
0.5555555555555556
 40
0.5555555555555556
 40
0.5555555555555556
 40
0.5555555555555556
 40
0.6666666666666666
 40
0.6666666666666666
 40
0.6666666666666666
 40
0.6666666666666666
 40
0.7777777777777778
 40
0.7777777777777778
 40
0.7777777777777778
 40
0.7777777777777778
 40
1.0
 40
1.0
 40
1.0
 40
1.0
 10
30.1425
 20
-62.6958
 30
0.0
 10
29.2723
 20
-64.6572
 30
0.0
 10
29.8714
 20
-66.9595
 30
0.0
 10
31.5869
 20
-68.2483
 30
0.0
 10
31.5869
 20
-68.2483
 30
0.0
 10
35.3213
 20
-70.0346
 30
0.0
 10
39.734
 20
-69.6343
 30
0.0
 10
43.086
 20
-67.205
 30
0.0
 10
43.086
 20
-67.205
 30
0.0
 10
46.4381
 20
-64.7757
 30
0.0
 10
48.192
 20
-60.7071
 30
0.0
 10
47.6569
 20
-56.6019
 30
0.0
 10
47.6569
 20
-56.6019
 30
0.0
 10
47.0728
 20
-58.0455
 30
0.0
 10
45.8685
 20
-59.1485
 30
0.0
 10
44.3793
 20
-59.604
 30
0.0
 10
44.3793
 20
-59.604
 30
0.0
 10
42.8901
 20
-60.0595
 30
0.0
 10
41.2748
 20
-59.819
 30
0.0
 10
39.983
 20
-58.9493
 30
0.0
 10
39.983
 20
-58.9493
 30
0.0
 10
40.9528
 20
-61.081
 30
0.0
 10
40.4779
 20
-63.5924
 30
0.0
 10
38.7968
 20
-65.223
 30
0.0
 10
38.7968
 20
-65.223
 30
0.0
 10
37.1155
 20
-66.8535
 30
0.0
 10
34.5909
 20
-67.2513
 30
0.0
 10
32.4897
 20
-66.2169
 30
0.0
 10
32.4897
 20
-66.2169
 30
0.0
 10
31.3842
 20
-65.2941
 30
0.0
 10
30.5689
 20
-64.0713
 30
0.0
 10
30.1425
 20
-62.6958
 30
0.0
  0
SPLINE
  5
AE
330
1F
100
AcDbEntity
  8
layer 1
 62
     7
370
     9
100
AcDbSpline
210
0.0
220
0.0
230
1.0
 70
    11
 71
     3
 72
    20
 73
    16
 74
     0
 42
0.0000000001
 43
0.0000000001
 12
1.0
 22
0.0
 32
0.0
 13
1.0
 23
0.0
 33
0.0
 40
0.0
 40
0.0
 40
0.0
 40
0.0
 40
0.2
 40
0.2
 40
0.2
 40
0.2
 40
0.4
 40
0.4
 40
0.4
 40
0.4
 40
0.6
 40
0.6
 40
0.6
 40
0.6
 40
1.0
 40
1.0
 40
1.0
 40
1.0
 10
34.0246
 20
-59.4453
 30
0.0
 10
35.3958
 20
-59.4453
 30
0.0
 10
36.5076
 20
-60.5571
 30
0.0
 10
36.5076
 20
-61.9285
 30
0.0
 10
36.5076
 20
-61.9285
 30
0.0
 10
36.5076
 20
-63.2998
 30
0.0
 10
35.3958
 20
-64.4115
 30
0.0
 10
34.0246
 20
-64.4115
 30
0.0
 10
34.0246
 20
-64.4115
 30
0.0
 10
32.6531
 20
-64.4115
 30
0.0
 10
31.5413
 20
-63.2998
 30
0.0
 10
31.5413
 20
-61.9285
 30
0.0
 10
31.5413
 20
-61.9285
 30
0.0
 10
31.5413
 20
-60.5571
 30
0.0
 10
32.6531
 20
-59.4453
 30
0.0
 10
34.0246
 20
-59.4453
 30
0.0
  0
SPLINE
  5
AF
330
1F
100
AcDbEntity
  8
layer 1
 62
     7
370
     9
100
AcDbSpline
210
0.0
220
0.0
230
1.0
 70
    11
 71
     3
 72
    36
 73
    32
 74
     0
 42
0.0000000001
 43
0.0000000001
 12
1.0
 22
0.0
 32
0.0
 13
1.0
 23
0.0
 33
0.0
 40
0.0
 40
0.0
 40
0.0
 40
0.0
 40
0.1111111111111111
 40
0.1111111111111111
 40
0.1111111111111111
 40
0.1111111111111111
 40
0.2222222222222222
 40
0.2222222222222222
 40
0.2222222222222222
 40
0.2222222222222222
 40
0.3333333333333333
 40
0.3333333333333333
 40
0.3333333333333333
 40
0.3333333333333333
 40
0.4444444444444444
 40
0.4444444444444444
 40
0.4444444444444444
 40
0.4444444444444444
 40
0.5555555555555556
 40
0.5555555555555556
 40
0.5555555555555556
 40
0.5555555555555556
 40
0.6666666666666666
 40
0.6666666666666666
 40
0.6666666666666666
 40
0.6666666666666666
 40
0.7777777777777778
 40
0.7777777777777778
 40
0.7777777777777778
 40
0.7777777777777778
 40
1.0
 40
1.0
 40
1.0
 40
1.0
 10
29.4201
 20
-55.8797
 30
0.0
 10
29.3929
 20
-55.9303
 30
0.0
 10
29.4042
 20
-55.9929
 30
0.0
 10
29.4474
 20
-56.0307
 30
0.0
 10
29.4474
 20
-56.0307
 30
0.0
 10
29.4906
 20
-56.0686
 30
0.0
 10
29.5543
 20
-56.0714
 30
0.0
 10
29.6007
 20
-56.0377
 30
0.0
 10
29.6007
 20
-56.0377
 30
0.0
 10
31.6872
 20
-54.3459
 30
0.0
 10
34.4723
 20
-53.7889
 30
0.0
 10
37.0489
 20
-54.548
 30
0.0
 10
37.0489
 20
-54.548
 30
0.0
 10
37.2232
 20
-54.5568
 30
0.0
 10
37.3978
 20
-54.5416
 30
0.0
 10
37.568
 20
-54.5029
 30
0.0
 10
37.568
 20
-54.5029
 30
0.0
 10
38.273
 20
-54.2375
 30
0.0
 10
38.7639
 20
-53.5919
 30
0.0
 10
38.8312
 20
-52.8416
 30
0.0
 10
38.8312
 20
-52.8416
 30
0.0
 10
38.8985
 20
-52.0913
 30
0.0
 10
38.5306
 20
-51.3688
 30
0.0
 10
37.884
 20
-50.982
 30
0.0
 10
37.884
 20
-50.982
 30
0.0
 10
35.8703
 20
-50.4154
 30
0.0
 10
33.7104
 20
-51.0563
 30
0.0
 10
32.3317
 20
-52.6295
 30
0.0
 10
32.3317
 20
-52.6295
 30
0.0
 10
31.2247
 20
-53.5822
 30
0.0
 10
30.2459
 20
-54.6747
 30
0.0
 10
29.4201
 20
-55.8797
 30
0.0
  0
SPLINE
  5
B0
330
1F
100
AcDbEntity
  8
layer 1
 62
     7
370
     9
100
AcDbSpline
210
0.0
220
0.0
230
1.0
 70
    11
 71
     3
 72
    32
 73
    28
 74
     0
 42
0.0000000001
 43
0.0000000001
 12
1.0
 22
0.0
 32
0.0
 13
1.0
 23
0.0
 33
0.0
 40
0.0
 40
0.0
 40
0.0
 40
0.0
 40
0.125
 40
0.125
 40
0.125
 40
0.125
 40
0.25
 40
0.25
 40
0.25
 40
0.25
 40
0.375
 40
0.375
 40
0.375
 40
0.375
 40
0.5
 40
0.5
 40
0.5
 40
0.5
 40
0.625
 40
0.625
 40
0.625
 40
0.625
 40
0.75
 40
0.75
 40
0.75
 40
0.75
 40
1.0
 40
1.0
 40
1.0
 40
1.0
 10
30.0126
 20
-51.4079
 30
0.0
 10
31.213
 20
-49.9263
 30
0.0
 10
32.7104
 20
-48.7126
 30
0.0
 10
34.4082
 20
-47.8447
 30
0.0
 10
34.4082
 20
-47.8447
 30
0.0
 10
34.999
 20
-47.588
 30
0.0
 10
35.553
 20
-47.2541
 30
0.0
 10
36.0559
 20
-46.8516
 30
0.0
 10
36.0559
 20
-46.8516
 30
0.0
 10
36.5311
 20
-46.1397
 30
0.0
 10
36.4673
 20
-45.1972
 30
0.0
 10
35.9003
 20
-44.556
 30
0.0
 10
35.9003
 20
-44.556
 30
0.0
 10
35.3332
 20
-43.9147
 30
0.0
 10
34.4055
 20
-43.736
 30
0.0
 10
33.6409
 20
-44.1205
 30
0.0
 10
33.6409
 20
-44.1205
 30
0.0
 10
31.1071
 20
-45.6104
 30
0.0
 10
29.611
 20
-48.3849
 30
0.0
 10
29.7587
 20
-51.3205
 30
0.0
 10
29.7587
 20
-51.3205
 30
0.0
 10
29.7567
 20
-51.3822
 30
0.0
 10
29.7951
 20
-51.438
 30
0.0
 10
29.8534
 20
-51.458
 30
0.0
 10
29.8534
 20
-51.458
 30
0.0
 10
29.9117
 20
-51.478
 30
0.0
 10
29.9763
 20
-51.4578
 30
0.0
 10
30.0126
 20
-51.4079
 30
0.0
  0
SPLINE
  5
B1
330
1F
100
AcDbEntity
  8
layer 1
 62
     7
370
     9
100
AcDbSpline
210
0.0
220
0.0
230
1.0
 70
    11
 71
     3
 72
    32
 73
    28
 74
     0
 42
0.0000000001
 43
0.0000000001
 12
1.0
 22
0.0
 32
0.0
 13
1.0
 23
0.0
 33
0.0
 40
0.0
 40
0.0
 40
0.0
 40
0.0
 40
0.125
 40
0.125
 40
0.125
 40
0.125
 40
0.25
 40
0.25
 40
0.25
 40
0.25
 40
0.375
 40
0.375
 40
0.375
 40
0.375
 40
0.5
 40
0.5
 40
0.5
 40
0.5
 40
0.625
 40
0.625
 40
0.625
 40
0.625
 40
0.75
 40
0.75
 40
0.75
 40
0.75
 40
1.0
 40
1.0
 40
1.0
 40
1.0
 10
31.3386
 20
-40.9834
 30
0.0
 10
30.26
 20
-42.1519
 30
0.0
 10
29.5086
 20
-43.5845
 30
0.0
 10
29.1607
 20
-45.1362
 30
0.0
 10
29.1607
 20
-45.1362
 30
0.0
 10
29.1345
 20
-45.2424
 30
0.0
 10
29.0353
 20
-45.3141
 30
0.0
 10
28.9262
 20
-45.3057
 30
0.0
 10
28.9262
 20
-45.3057
 30
0.0
 10
28.8172
 20
-45.2974
 30
0.0
 10
28.7301
 20
-45.2114
 30
0.0
 10
28.7205
 20
-45.1025
 30
0.0
 10
28.7205
 20
-45.1025
 30
0.0
 10
27.9576
 20
-42.2578
 30
0.0
 10
28.4243
 20
-39.2238
 30
0.0
 10
30.0071
 20
-36.7401
 30
0.0
 10
30.0071
 20
-36.7401
 30
0.0
 10
30.6247
 20
-36.131
 30
0.0
 10
31.5898
 20
-36.051
 30
0.0
 10
32.2993
 20
-36.55
 30
0.0
 10
32.2993
 20
-36.55
 30
0.0
 10
33.009
 20
-37.049
 30
0.0
 10
33.2601
 20
-37.984
 30
0.0
 10
32.8959
 20
-38.7715
 30
0.0
 10
32.8959
 20
-38.7715
 30
0.0
 10
32.4941
 20
-39.5846
 30
0.0
 10
31.9688
 20
-40.3307
 30
0.0
 10
31.3386
 20
-40.9834
 30
0.0
  0
SPLINE
  5
B2
330
1F
100
AcDbEntity
  8
layer 1
 62
     7
370
     9
100
AcDbSpline
210
0.0
220
0.0
230
1.0
 70
    11
 71
     3
 72
    68
 73
    64
 74
     0
 42
0.0000000001
 43
0.0000000001
 12
1.0
 22
0.0
 32
0.0
 13
1.0
 23
0.0
 33
0.0
 40
0.0
 40
0.0
 40
0.0
 40
0.0
 40
0.0588235294117647
 40
0.0588235294117647
 40
0.0588235294117647
 40
0.0588235294117647
 40
0.1176470588235294
 40
0.1176470588235294
 40
0.1176470588235294
 40
0.1176470588235294
 40
0.1764705882352941
 40
0.1764705882352941
 40
0.1764705882352941
 40
0.1764705882352941
 40
0.2352941176470588
 40
0.2352941176470588
 40
0.2352941176470588
 40
0.2352941176470588
 40
0.2941176470588235
 40
0.2941176470588235
 40
0.2941176470588235
 40
0.2941176470588235
 40
0.3529411764705883
 40
0.3529411764705883
 40
0.3529411764705883
 40
0.3529411764705883
 40
0.4117647058823529
 40
0.4117647058823529
 40
0.4117647058823529
 40
0.4117647058823529
 40
0.4705882352941176
 40
0.4705882352941176
 40
0.4705882352941176
 40
0.4705882352941176
 40
0.5294117647058824
 40
0.5294117647058824
 40
0.5294117647058824
 40
0.5294117647058824
 40
0.5882352941176471
 40
0.5882352941176471
 40
0.5882352941176471
 40
0.5882352941176471
 40
0.6470588235294118
 40
0.6470588235294118
 40
0.6470588235294118
 40
0.6470588235294118
 40
0.7058823529411765
 40
0.7058823529411765
 40
0.7058823529411765
 40
0.7058823529411765
 40
0.7647058823529411
 40
0.7647058823529411
 40
0.7647058823529411
 40
0.7647058823529411
 40
0.8235294117647058
 40
0.8235294117647058
 40
0.8235294117647058
 40
0.8235294117647058
 40
0.8823529411764706
 40
0.8823529411764706
 40
0.8823529411764706
 40
0.8823529411764706
 40
1.0
 40
1.0
 40
1.0
 40
1.0
 10
35.9655
 20
-33.0837
 30
0.0
 10
34.3905
 20
-31.4262
 30
0.0
 10
33.0535
 20
-29.5575
 30
0.0
 10
31.9932
 20
-27.5315
 30
0.0
 10
31.9932
 20
-27.5315
 30
0.0
 10
31.3825
 20
-29.949
 30
0.0
 10
32.1652
 20
-32.5057
 30
0.0
 10
34.0246
 20
-34.1671
 30
0.0
 10
34.0246
 20
-34.1671
 30
0.0
 10
34.8497
 20
-34.8013
 30
0.0
 10
35.1769
 20
-35.892
 30
0.0
 10
34.8371
 20
-36.8756
 30
0.0
 10
34.8371
 20
-36.8756
 30
0.0
 10
34.7174
 20
-38.4503
 30
0.0
 10
35.3746
 20
-39.9841
 30
0.0
 10
36.5976
 20
-40.9834
 30
0.0
 10
36.5976
 20
-40.9834
 30
0.0
 10
38.2633
 20
-42.0407
 30
0.0
 10
39.1067
 20
-44.0141
 30
0.0
 10
38.7192
 20
-45.9488
 30
0.0
 10
38.7192
 20
-45.9488
 30
0.0
 10
38.4247
 20
-47.6833
 30
0.0
 10
39.1426
 20
-49.4343
 30
0.0
 10
40.57
 20
-50.4628
 30
0.0
 10
40.57
 20
-50.4628
 30
0.0
 10
41.1617
 20
-51.2308
 30
0.0
 10
41.4101
 20
-52.2091
 30
0.0
 10
41.2563
 20
-53.1663
 30
0.0
 10
41.2563
 20
-53.1663
 30
0.0
 10
41.1024
 20
-54.1235
 30
0.0
 10
40.5599
 20
-54.9747
 30
0.0
 10
39.7574
 20
-55.5186
 30
0.0
 10
39.7574
 20
-55.5186
 30
0.0
 10
41.0508
 20
-56.3032
 30
0.0
 10
42.6897
 20
-56.2321
 30
0.0
 10
43.9103
 20
-55.338
 30
0.0
 10
43.9103
 20
-55.338
 30
0.0
 10
44.3184
 20
-55.0535
 30
0.0
 10
44.5691
 20
-54.5937
 30
0.0
 10
44.5868
 20
-54.0967
 30
0.0
 10
44.5868
 20
-54.0967
 30
0.0
 10
44.6045
 20
-53.5996
 30
0.0
 10
44.3873
 20
-53.1229
 30
0.0
 10
44.0005
 20
-52.8102
 30
0.0
 10
44.0005
 20
-52.8102
 30
0.0
 10
43.9471
 20
-52.6912
 30
0.0
 10
43.9487
 20
-52.5547
 30
0.0
 10
44.0054
 20
-52.4371
 30
0.0
 10
44.0054
 20
-52.4371
 30
0.0
 10
44.062
 20
-52.3197
 30
0.0
 10
44.1675
 20
-52.2332
 30
0.0
 10
44.294
 20
-52.2007
 30
0.0
 10
44.294
 20
-52.2007
 30
0.0
 10
45.6614
 20
-51.8508
 30
0.0
 10
47.0798
 20
-52.5503
 30
0.0
 10
47.6343
 20
-53.8483
 30
0.0
 10
47.6343
 20
-53.8483
 30
0.0
 10
47.3387
 20
-48.9342
 30
0.0
 10
45.4623
 20
-44.2474
 30
0.0
 10
42.2852
 20
-40.4867
 30
0.0
 10
42.2852
 20
-40.4867
 30
0.0
 10
40.0101
 20
-38.168
 30
0.0
 10
37.8986
 20
-35.6945
 30
0.0
 10
35.9655
 20
-33.0837
 30
0.0
  0
SPLINE
  5
B3
330
1F
100
AcDbEntity
  8
layer 1
 62
     7
370
     9
100
AcDbSpline
210
0.0
220
0.0
230
1.0
 70
    11
 71
     3
 72
    44
 73
    40
 74
     0
 42
0.0000000001
 43
0.0000000001
 12
1.0
 22
0.0
 32
0.0
 13
1.0
 23
0.0
 33
0.0
 40
0.0
 40
0.0
 40
0.0
 40
0.0
 40
0.0909090909090909
 40
0.0909090909090909
 40
0.0909090909090909
 40
0.0909090909090909
 40
0.1818181818181818
 40
0.1818181818181818
 40
0.1818181818181818
 40
0.1818181818181818
 40
0.2727272727272727
 40
0.2727272727272727
 40
0.2727272727272727
 40
0.2727272727272727
 40
0.3636363636363636
 40
0.3636363636363636
 40
0.3636363636363636
 40
0.3636363636363636
 40
0.4545454545454545
 40
0.4545454545454545
 40
0.4545454545454545
 40
0.4545454545454545
 40
0.5454545454545454
 40
0.5454545454545454
 40
0.5454545454545454
 40
0.5454545454545454
 40
0.6363636363636364
 40
0.6363636363636364
 40
0.6363636363636364
 40
0.6363636363636364
 40
0.7272727272727273
 40
0.7272727272727273
 40
0.7272727272727273
 40
0.7272727272727273
 40
0.8181818181818182
 40
0.8181818181818182
 40
0.8181818181818182
 40
0.8181818181818182
 40
1.0
 40
1.0
 40
1.0
 40
1.0
 10
53.5705
 20
-37.1012
 30
0.0
 10
49.6682
 20
-34.0909
 30
0.0
 10
45.6315
 20
-31.2592
 30
0.0
 10
41.4727
 20
-28.6148
 30
0.0
 10
41.4727
 20
-28.6148
 30
0.0
 10
38.4629
 20
-26.3123
 30
0.0
 10
35.7823
 20
-23.609
 30
0.0
 10
33.5054
 20
-20.5799
 30
0.0
 10
33.5054
 20
-20.5799
 30
0.0
 10
33.3457
 20
-20.3154
 30
0.0
 10
33.3048
 20
-19.9959
 30
0.0
 10
33.3925
 20
-19.6996
 30
0.0
 10
33.3925
 20
-19.6996
 30
0.0
 10
33.9327
 20
-17.4419
 30
0.0
 10
35.5298
 20
-15.5841
 30
0.0
 10
37.6809
 20
-14.7115
 30
0.0
 10
37.6809
 20
-14.7115
 30
0.0
 10
37.0237
 20
-15.0115
 30
0.0
 10
36.5304
 20
-15.5839
 30
0.0
 10
36.3307
 20
-16.2782
 30
0.0
 10
36.3307
 20
-16.2782
 30
0.0
 10
36.1311
 20
-16.9726
 30
0.0
 10
36.245
 20
-17.7195
 30
0.0
 10
36.6427
 20
-18.3228
 30
0.0
 10
36.6427
 20
-18.3228
 30
0.0
 10
37.8935
 20
-19.5159
 30
0.0
 10
39.8105
 20
-19.6659
 30
0.0
 10
41.2317
 20
-18.6819
 30
0.0
 10
41.2317
 20
-18.6819
 30
0.0
 10
42.6529
 20
-17.698
 30
0.0
 10
43.1873
 20
-15.851
 30
0.0
 10
42.511
 20
-14.2601
 30
0.0
 10
42.511
 20
-14.2601
 30
0.0
 10
44.1436
 20
-16.5831
 30
0.0
 10
45.3793
 20
-19.1611
 30
0.0
 10
46.1673
 20
-21.889
 30
0.0
 10
46.1673
 20
-21.889
 30
0.0
 10
48.0025
 20
-27.2439
 30
0.0
 10
50.4888
 20
-32.3529
 30
0.0
 10
53.5705
 20
-37.1012
 30
0.0
  0
SPLINE
  5
B4
330
1F
100
AcDbEntity
  8
layer 1
 62
     7
370
     9
100
AcDbSpline
210
0.0
220
0.0
230
1.0
 70
    11
 71
     3
 72
    28
 73
    24
 74
     0
 42
0.0000000001
 43
0.0000000001
 12
1.0
 22
0.0
 32
0.0
 13
1.0
 23
0.0
 33
0.0
 40
0.0
 40
0.0
 40
0.0
 40
0.0
 40
0.1428571428571428
 40
0.1428571428571428
 40
0.1428571428571428
 40
0.1428571428571428
 40
0.2857142857142857
 40
0.2857142857142857
 40
0.2857142857142857
 40
0.2857142857142857
 40
0.4285714285714285
 40
0.4285714285714285
 40
0.4285714285714285
 40
0.4285714285714285
 40
0.5714285714285714
 40
0.5714285714285714
 40
0.5714285714285714
 40
0.5714285714285714
 40
0.7142857142857143
 40
0.7142857142857143
 40
0.7142857142857143
 40
0.7142857142857143
 40
1.0
 40
1.0
 40
1.0
 40
1.0
 10
31.0
 20
-0.8986
 30
0.0
 10
30.847
 20
-0.7443
 30
0.0
 10
30.6008
 20
-0.7345
 30
0.0
 10
30.4358
 20
-0.8759
 30
0.0
 10
30.4358
 20
-0.8759
 30
0.0
 10
29.4996
 20
-3.7967
 30
0.0
 10
29.2524
 20
-6.8945
 30
0.0
 10
29.7136
 20
-9.9266
 30
0.0
 10
29.7136
 20
-9.9266
 30
0.0
 10
30.0418
 20
-12.3822
 30
0.0
 10
30.7024
 20
-14.7815
 30
0.0
 10
31.6772
 20
-17.0589
 30
0.0
 10
31.6772
 20
-17.0589
 30
0.0
 10
31.9106
 20
-14.988
 30
0.0
 10
33.2074
 20
-13.1888
 30
0.0
 10
35.0982
 20
-12.3125
 30
0.0
 10
35.0982
 20
-12.3125
 30
0.0
 10
36.9891
 20
-11.4363
 30
0.0
 10
39.2002
 20
-11.6099
 30
0.0
 10
40.9311
 20
-12.7705
 30
0.0
 10
40.9311
 20
-12.7705
 30
0.0
 10
37.1185
 20
-9.2618
 30
0.0
 10
33.78
 20
-5.2709
 30
0.0
 10
31.0
 20
-0.8986
 30
0.0
  0
SPLINE
  5
B5
330
1F
100
AcDbEntity
  8
layer 1
 62
     7
370
     9
100
AcDbSpline
210
0.0
220
0.0
230
1.0
 70
    11
 71
     3
 72
    72
 73
    68
 74
     0
 42
0.0000000001
 43
0.0000000001
 12
1.0
 22
0.0
 32
0.0
 13
1.0
 23
0.0
 33
0.0
 40
0.0
 40
0.0
 40
0.0
 40
0.0
 40
0.0555555555555556
 40
0.0555555555555556
 40
0.0555555555555556
 40
0.0555555555555556
 40
0.1111111111111111
 40
0.1111111111111111
 40
0.1111111111111111
 40
0.1111111111111111
 40
0.1666666666666667
 40
0.1666666666666667
 40
0.1666666666666667
 40
0.1666666666666667
 40
0.2222222222222222
 40
0.2222222222222222
 40
0.2222222222222222
 40
0.2222222222222222
 40
0.2777777777777778
 40
0.2777777777777778
 40
0.2777777777777778
 40
0.2777777777777778
 40
0.3333333333333333
 40
0.3333333333333333
 40
0.3333333333333333
 40
0.3333333333333333
 40
0.3888888888888889
 40
0.3888888888888889
 40
0.3888888888888889
 40
0.3888888888888889
 40
0.4444444444444444
 40
0.4444444444444444
 40
0.4444444444444444
 40
0.4444444444444444
 40
0.5
 40
0.5
 40
0.5
 40
0.5
 40
0.5555555555555556
 40
0.5555555555555556
 40
0.5555555555555556
 40
0.5555555555555556
 40
0.6111111111111112
 40
0.6111111111111112
 40
0.6111111111111112
 40
0.6111111111111112
 40
0.6666666666666666
 40
0.6666666666666666
 40
0.6666666666666666
 40
0.6666666666666666
 40
0.7222222222222222
 40
0.7222222222222222
 40
0.7222222222222222
 40
0.7222222222222222
 40
0.7777777777777778
 40
0.7777777777777778
 40
0.7777777777777778
 40
0.7777777777777778
 40
0.8333333333333334
 40
0.8333333333333334
 40
0.8333333333333334
 40
0.8333333333333334
 40
0.8888888888888888
 40
0.8888888888888888
 40
0.8888888888888888
 40
0.8888888888888888
 40
1.0
 40
1.0
 40
1.0
 40
1.0
 10
46.7766
 20
-11.8677
 30
0.0
 10
48.4063
 20
-12.1821
 30
0.0
 10
50.0778
 20
-11.5823
 30
0.0
 10
51.1356
 20
-10.3034
 30
0.0
 10
51.1356
 20
-10.3034
 30
0.0
 10
52.1933
 20
-9.0246
 30
0.0
 10
52.4693
 20
-7.2703
 30
0.0
 10
51.8551
 20
-5.7285
 30
0.0
 10
51.8551
 20
-5.7285
 30
0.0
 10
51.9597
 20
-6.8089
 30
0.0
 10
51.5525
 20
-7.8756
 30
0.0
 10
50.7546
 20
-8.6114
 30
0.0
 10
50.7546
 20
-8.6114
 30
0.0
 10
49.9568
 20
-9.3471
 30
0.0
 10
48.8607
 20
-9.6668
 30
0.0
 10
47.7924
 20
-9.4753
 30
0.0
 10
47.7924
 20
-9.4753
 30
0.0
 10
46.4749
 20
-9.2384
 30
0.0
 10
45.41
 20
-8.2668
 30
0.0
 10
45.0538
 20
-6.9764
 30
0.0
 10
45.0538
 20
-6.9764
 30
0.0
 10
44.6975
 20
-5.6861
 30
0.0
 10
45.1129
 20
-4.3058
 30
0.0
 10
46.1223
 20
-3.4264
 30
0.0
 10
46.1223
 20
-3.4264
 30
0.0
 10
44.979
 20
-4.1334
 30
0.0
 10
43.5718
 20
-4.2681
 30
0.0
 10
42.3154
 20
-3.7902
 30
0.0
 10
42.3154
 20
-3.7902
 30
0.0
 10
41.059
 20
-3.3125
 30
0.0
 10
40.0968
 20
-2.2769
 30
0.0
 10
39.7123
 20
-0.9888
 30
0.0
 10
39.7123
 20
-0.9888
 30
0.0
 10
39.6971
 20
-0.8971
 30
0.0
 10
39.7238
 20
-0.8036
 30
0.0
 10
39.7851
 20
-0.7338
 30
0.0
 10
39.7851
 20
-0.7338
 30
0.0
 10
39.8463
 20
-0.6638
 30
0.0
 10
39.9354
 20
-0.6249
 30
0.0
 10
40.0281
 20
-0.6277
 30
0.0
 10
40.0281
 20
-0.6277
 30
0.0
 10
40.7903
 20
-1.0601
 30
0.0
 10
41.7239
 20
-1.0583
 30
0.0
 10
42.4841
 20
-0.6227
 30
0.0
 10
42.4841
 20
-0.6227
 30
0.0
 10
43.2442
 20
-0.1869
 30
0.0
 10
43.7179
 20
0.6178
 30
0.0
 10
43.7298
 20
1.4938
 30
0.0
 10
43.7298
 20
1.4938
 30
0.0
 10
43.8009
 20
3.006
 30
0.0
 10
42.8894
 20
4.3914
 30
0.0
 10
41.4727
 20
4.9246
 30
0.0
 10
41.4727
 20
4.9246
 30
0.0
 10
38.6759
 20
6.0816
 30
0.0
 10
35.4546
 20
5.3797
 30
0.0
 10
33.3925
 20
3.1641
 30
0.0
 10
33.3925
 20
3.1641
 30
0.0
 10
33.0185
 20
2.8899
 30
0.0
 10
32.9377
 20
2.3644
 30
0.0
 10
33.212
 20
1.9904
 30
0.0
 10
33.212
 20
1.9904
 30
0.0
 10
34.681
 20
-2.071
 30
0.0
 10
37.0766
 20
-5.734
 30
0.0
 10
40.2089
 20
-8.7079
 30
0.0
 10
40.2089
 20
-8.7079
 30
0.0
 10
42.0799
 20
-10.3239
 30
0.0
 10
44.3463
 20
-11.4143
 30
0.0
 10
46.7766
 20
-11.8677
 30
0.0
  0
SPLINE
  5
B6
330
1F
100
AcDbEntity
  8
layer 1
 62
     7
370
     9
100
AcDbSpline
210
0.0
220
0.0
230
1.0
 70
    11
 71
     3
 72
    20
 73
    16
 74
     0
 42
0.0000000001
 43
0.0000000001
 12
1.0
 22
0.0
 32
0.0
 13
1.0
 23
0.0
 33
0.0
 40
0.0
 40
0.0
 40
0.0
 40
0.0
 40
0.2
 40
0.2
 40
0.2
 40
0.2
 40
0.4
 40
0.4
 40
0.4
 40
0.4
 40
0.6
 40
0.6
 40
0.6
 40
0.6
 40
1.0
 40
1.0
 40
1.0
 40
1.0
 10
64.1332
 20
1.4487
 30
0.0
 10
64.9256
 20
1.6542
 30
0.0
 10
65.4994
 20
2.3412
 30
0.0
 10
65.5607
 20
3.1574
 30
0.0
 10
65.5607
 20
3.1574
 30
0.0
 10
65.6219
 20
3.9739
 30
0.0
 10
65.157
 20
4.7385
 30
0.0
 10
64.4041
 20
5.06
 30
0.0
 10
64.4041
 20
5.06
 30
0.0
 10
58.9687
 20
5.343
 30
0.0
 10
53.7343
 20
2.9699
 30
0.0
 10
50.3654
 20
-1.3048
 30
0.0
 10
50.3654
 20
-1.3048
 30
0.0
 10
54.3516
 20
1.5351
 30
0.0
 10
59.3612
 20
2.5371
 30
0.0
 10
64.1332
 20
1.4487
 30
0.0
  0
ENDSEC
  0
SECTION
  2
OBJECTS
  0
DICTIONARY
  5
C
330
0
100
AcDbDictionary
281
     1
  3
ACAD_GROUP
350
D
  3
ACAD_LAYOUT
350
1A
  3
ACAD_MATERIAL
350
3B
  3
ACAD_MLEADERSTYLE
350
D8
  3
ACAD_MLINESTYLE
350
17
  3
ACAD_PLOTSETTINGS
350
19
  3
ACAD_PLOTSTYLENAME
350
E
  3
ACAD_TABLESTYLE
350
D7
  3
ACAD_VISUALSTYLE
350
2A
  0
DICTIONARY
  5
D
102
{ACAD_REACTORS
330
C
102
}
330
C
100
AcDbDictionary
281
     1
  0
DICTIONARY
  5
1A
102
{ACAD_REACTORS
330
C
102
}
330
C
100
AcDbDictionary
281
     1
  3
Layout1
350
1E
  3
Layout2
350
26
  3
Model
350
22
  0
DICTIONARY
  5
3B
102
{ACAD_REACTORS
330
C
102
}
330
C
100
AcDbDictionary
281
     1
  3
ByBlock
350
3D
  3
ByLayer
350
3C
  3
Global
350
3E
  0
DICTIONARY
  5
D8
102
{ACAD_REACTORS
330
C
102
}
330
C
100
AcDbDictionary
281
     1
  0
DICTIONARY
  5
17
102
{ACAD_REACTORS
330
C
102
}
330
C
100
AcDbDictionary
281
     1
  3
Standard
350
18
  0
DICTIONARY
  5
19
102
{ACAD_REACTORS
330
C
102
}
330
C
100
AcDbDictionary
281
     1
  0
ACDBDICTIONARYWDFLT
  5
E
102
{ACAD_REACTORS
330
C
102
}
330
C
100
AcDbDictionary
281
     1
  3
Normal
350
F
100
AcDbDictionaryWithDefault
340
F
  0
DICTIONARY
  5
D7
102
{ACAD_REACTORS
330
C
102
}
330
C
100
AcDbDictionary
281
     1
  0
DICTIONARY
  5
2A
102
{ACAD_REACTORS
330
C
102
}
330
C
100
AcDbDictionary
281
     1
  3
2dWireframe
350
2F
  3
3D Hidden
350
31
  3
3dWireframe
350
30
  3
Basic
350
32
  3
Brighten
350
36
  3
ColorChange
350
3A
  3
Conceptual
350
34
  3
Dim
350
35
  3
Facepattern
350
39
  3
Flat
350
2B
  3
FlatWithEdges
350
2C
  3
Gouraud
350
2D
  3
GouraudWithEdges
350
2E
  3
Linepattern
350
38
  3
Realistic
350
33
  3
Thicken
350
37
  0
LAYOUT
  5
1E
102
{ACAD_REACTORS
330
1A
102
}
330
1A
100
AcDbPlotSettings
  1

  2
none_device
  4

  6

 40
0.0
 41
0.0
 42
0.0
 43
0.0
 44
0.0
 45
0.0
 46
0.0
 47
0.0
 48
0.0
 49
0.0
140
0.0
141
0.0
142
1.0
143
1.0
 70
   688
 72
     0
 73
     0
 74
     5
  7

 75
    16
 76
     0
 77
     2
 78
   300
147
1.0
148
0.0
149
0.0
100
AcDbLayout
  1
Layout1
 70
     1
 71
     1
 10
0.0
 20
0.0
 11
12.0
 21
9.0
 12
0.0
 22
0.0
 32
0.0
 14
1.000000000000000E+20
 24
1.000000000000000E+20
 34
1.000000000000000E+20
 15
-1.000000000000000E+20
 25
-1.000000000000000E+20
 35
-1.000000000000000E+20
146
0.0
 13
0.0
 23
0.0
 33
0.0
 16
1.0
 26
0.0
 36
0.0
 17
0.0
 27
1.0
 37
0.0
 76
     0
330
1B
  0
LAYOUT
  5
26
102
{ACAD_REACTORS
330
1A
102
}
330
1A
100
AcDbPlotSettings
  1

  2
none_device
  4

  6

 40
0.0
 41
0.0
 42
0.0
 43
0.0
 44
0.0
 45
0.0
 46
0.0
 47
0.0
 48
0.0
 49
0.0
140
0.0
141
0.0
142
1.0
143
1.0
 70
   688
 72
     0
 73
     0
 74
     5
  7

 75
    16
 76
     0
 77
     2
 78
   300
147
1.0
148
0.0
149
0.0
100
AcDbLayout
  1
Layout2
 70
     1
 71
     2
 10
0.0
 20
0.0
 11
0.0
 21
0.0
 12
0.0
 22
0.0
 32
0.0
 14
0.0
 24
0.0
 34
0.0
 15
0.0
 25
0.0
 35
0.0
146
0.0
 13
0.0
 23
0.0
 33
0.0
 16
1.0
 26
0.0
 36
0.0
 17
0.0
 27
1.0
 37
0.0
 76
     0
330
23
  0
LAYOUT
  5
22
102
{ACAD_REACTORS
330
1A
102
}
330
1A
100
AcDbPlotSettings
  1

  2
none_device
  4

  6

 40
0.0
 41
0.0
 42
0.0
 43
0.0
 44
0.0
 45
0.0
 46
0.0
 47
0.0
 48
0.0
 49
0.0
140
0.0
141
0.0
142
1.0
143
1.0
 70
  1712
 72
     0
 73
     0
 74
     0
  7

 75
     0
 76
     0
 77
     2
 78
   300
147
1.0
148
0.0
149
0.0
100
AcDbLayout
  1
Model
 70
     1
 71
     0
 10
0.0
 20
0.0
 11
12.0
 21
9.0
 12
0.0
 22
0.0
 32
0.0
 14
-24.0724
 24
-115.3073
 34
0.0
 15
77.3369
 25
131.568
 35
0.0
146
0.0
 13
0.0
 23
0.0
 33
0.0
 16
1.0
 26
0.0
 36
0.0
 17
0.0
 27
1.0
 37
0.0
 76
     0
330
1F
331
29
  0
MATERIAL
  5
3D
102
{ACAD_REACTORS
330
3B
102
}
330
3B
100
AcDbMaterial
  1
ByBlock
 72
     1
 94
      127
  0
MATERIAL
  5
3C
102
{ACAD_REACTORS
330
3B
102
}
330
3B
100
AcDbMaterial
  1
ByLayer
 72
     1
 94
      127
  0
MATERIAL
  5
3E
102
{ACAD_REACTORS
330
3B
102
}
330
3B
100
AcDbMaterial
  1
Global
 72
     1
 94
      127
  0
MLINESTYLE
  5
18
102
{ACAD_REACTORS
330
17
102
}
330
17
100
AcDbMlineStyle
  2
Standard
 70
     0
  3

 62
   256
 51
90.0
 52
90.0
 71
     2
 49
0.5
 62
   256
  6
BYLAYER
 49
-0.5
 62
   256
  6
BYLAYER
  0
ACDBPLACEHOLDER
  5
F
102
{ACAD_REACTORS
330
E
102
}
330
E
  0
VISUALSTYLE
  5
2F
102
{ACAD_REACTORS
330
2A
102
}
102
{ACAD_XDICTIONARY
360
BF
102
}
330
2A
100
AcDbVisualStyle
  2
2dWireframe
 70
     4
 71
     0
 72
     2
 73
     0
 90
        0
 40
-0.6
 41
-30.0
 62
     5
 63
     7
421
 16777215
 74
     1
 91
        4
 64
     7
 65
   257
 75
     1
175
     1
 42
1.0
 92
        0
 66
   257
 43
1.0
 76
     1
 77
     6
 78
     2
 67
     7
 79
     5
170
     0
171
     0
290
     0
174
     0
 93
        1
 44
0.0
173
     0
291
     0
 45
0.0
  0
VISUALSTYLE
  5
31
102
{ACAD_REACTORS
330
2A
102
}
102
{ACAD_XDICTIONARY
360
C3
102
}
330
2A
100
AcDbVisualStyle
  2
3D Hidden
 70
     6
 71
     1
 72
     2
 73
     2
 90
        0
 40
-0.6
 41
-30.0
 62
     5
 63
     7
421
 16777215
 74
     2
 91
        2
 64
     7
 65
   257
 75
     2
175
     1
 42
40.0
 92
        0
 66
   257
 43
1.0
 76
     1
 77
     6
 78
     2
 67
     7
 79
     3
170
     0
171
     0
290
     0
174
     0
 93
        1
 44
0.0
173
     0
291
     0
 45
0.0
  0
VISUALSTYLE
  5
30
102
{ACAD_REACTORS
330
2A
102
}
102
{ACAD_XDICTIONARY
360
C1
102
}
330
2A
100
AcDbVisualStyle
  2
3dWireframe
 70
     5
 71
     0
 72
     2
 73
     0
 90
        0
 40
-0.6
 41
-30.0
 62
     5
 63
     7
421
 16777215
 74
     1
 91
        4
 64
     7
 65
   257
 75
     1
175
     1
 42
1.0
 92
        0
 66
   257
 43
1.0
 76
     1
 77
     6
 78
     2
 67
     7
 79
     5
170
     0
171
     0
290
     0
174
     0
 93
        1
 44
0.0
173
     0
291
     0
 45
0.0
  0
VISUALSTYLE
  5
32
102
{ACAD_REACTORS
330
2A
102
}
102
{ACAD_XDICTIONARY
360
C5
102
}
330
2A
100
AcDbVisualStyle
  2
Basic
 70
     7
 71
     1
 72
     0
 73
     1
 90
        0
 40
-0.6
 41
-30.0
 62
     5
 63
     7
421
 16777215
 74
     0
 91
        4
 64
     7
 65
   257
 75
     1
175
     1
 42
1.0
 92
        8
 66
     7
 43
1.0
 76
     1
 77
     6
 78
     2
 67
     7
 79
     5
170
     0
171
     0
290
     0
174
     0
 93
        1
 44
0.0
173
     0
291
     1
 45
0.0
  0
VISUALSTYLE
  5
36
102
{ACAD_REACTORS
330
2A
102
}
102
{ACAD_XDICTIONARY
360
CD
102
}
330
2A
100
AcDbVisualStyle
  2
Brighten
 70
    12
 71
     2
 72
     2
 73
     0
 90
        0
 40
-0.6
 41
-30.0
 62
     5
 63
     7
421
 16777215
 74
     1
 91
        4
 64
     7
 65
   257
 75
     1
175
     1
 42
1.0
 92
        8
 66
     7
 43
1.0
 76
     1
 77
     6
 78
     2
 67
     7
 79
     5
170
     0
171
     0
290
     0
174
     0
 93
        1
 44
50.0
173
     0
291
     1
 45
0.0
  0
VISUALSTYLE
  5
3A
102
{ACAD_REACTORS
330
2A
102
}
102
{ACAD_XDICTIONARY
360
D5
102
}
330
2A
100
AcDbVisualStyle
  2
ColorChange
 70
    16
 71
     2
 72
     2
 73
     3
 90
        0
 40
-0.6
 41
-30.0
 62
     5
 63
     8
421
  8421504
 74
     1
 91
        4
 64
     7
 65
   257
 75
     1
175
     1
 42
1.0
 92
        8
 66
     8
424
  8421504
 43
1.0
 76
     1
 77
     6
 78
     2
 67
     7
 79
     5
170
     0
171
     0
290
     0
174
     0
 93
        1
 44
0.0
173
     0
291
     1
 45
0.0
  0
VISUALSTYLE
  5
34
102
{ACAD_REACTORS
330
2A
102
}
102
{ACAD_XDICTIONARY
360
C9
102
}
330
2A
100
AcDbVisualStyle
  2
Conceptual
 70
     9
 71
     3
 72
     2
 73
     0
 90
        0
 40
-0.6
 41
-30.0
 62
     5
 63
     7
421
 16777215
 74
     2
 91
        2
 64
     7
 65
   257
 75
     1
175
     1
 42
40.0
 92
        8
 66
     7
 43
1.0
 76
     1
 77
     6
 78
     2
 67
     7
 79
     3
170
     0
171
     0
290
     0
174
     0
 93
        1
 44
0.0
173
     0
291
     0
 45
0.0
  0
VISUALSTYLE
  5
35
102
{ACAD_REACTORS
330
2A
102
}
102
{ACAD_XDICTIONARY
360
CB
102
}
330
2A
100
AcDbVisualStyle
  2
Dim
 70
    11
 71
     2
 72
     2
 73
     0
 90
        0
 40
-0.6
 41
-30.0
 62
     5
 63
     7
421
 16777215
 74
     1
 91
        4
 64
     7
 65
   257
 75
     1
175
     1
 42
1.0
 92
        8
 66
     7
 43
1.0
 76
     1
 77
     6
 78
     2
 67
     7
 79
     5
170
     0
171
     0
290
     0
174
     0
 93
        1
 44
-50.0
173
     0
291
     1
 45
0.0
  0
VISUALSTYLE
  5
39
102
{ACAD_REACTORS
330
2A
102
}
102
{ACAD_XDICTIONARY
360
D3
102
}
330
2A
100
AcDbVisualStyle
  2
Facepattern
 70
    15
 71
     2
 72
     2
 73
     0
 90
        0
 40
-0.6
 41
-30.0
 62
     5
 63
     7
421
 16777215
 74
     1
 91
        4
 64
     7
 65
   257
 75
     1
175
     1
 42
1.0
 92
        8
 66
     7
 43
1.0
 76
     1
 77
     6
 78
     2
 67
     7
 79
     5
170
     0
171
     0
290
     0
174
     0
 93
        1
 44
0.0
173
     0
291
     1
 45
0.0
  0
VISUALSTYLE
  5
2B
102
{ACAD_REACTORS
330
2A
102
}
102
{ACAD_XDICTIONARY
360
B7
102
}
330
2A
100
AcDbVisualStyle
  2
Flat
 70
     0
 71
     2
 72
     1
 73
     1
 90
        2
 40
-0.6
 41
30.0
 62
     5
 63
     7
421
 16777215
 74
     0
 91
        4
 64
     7
 65
   257
 75
     1
175
     1
 42
1.0
 92
        8
 66
     7
 43
1.0
 76
     1
 77
     6
 78
     2
 67
     7
 79
     5
170
     0
171
     0
290
     0
174
     0
 93
       13
 44
0.0
173
     0
291
     1
 45
0.0
  0
VISUALSTYLE
  5
2C
102
{ACAD_REACTORS
330
2A
102
}
102
{ACAD_XDICTIONARY
360
B9
102
}
330
2A
100
AcDbVisualStyle
  2
FlatWithEdges
 70
     1
 71
     2
 72
     1
 73
     1
 90
        2
 40
-0.6
 41
30.0
 62
     5
 63
     7
421
 16777215
 74
     1
 91
        4
 64
     7
 65
   257
 75
     1
175
     1
 42
1.0
 92
        0
 66
   257
 43
1.0
 76
     1
 77
     6
 78
     2
 67
     7
 79
     5
170
     0
171
     0
290
     0
174
     0
 93
       13
 44
0.0
173
     0
291
     1
 45
0.0
  0
VISUALSTYLE
  5
2D
102
{ACAD_REACTORS
330
2A
102
}
102
{ACAD_XDICTIONARY
360
BB
102
}
330
2A
100
AcDbVisualStyle
  2
Gouraud
 70
     2
 71
     2
 72
     2
 73
     1
 90
        2
 40
-0.6
 41
30.0
 62
     5
 63
     7
421
 16777215
 74
     0
 91
        4
 64
     7
 65
   257
 75
     1
175
     1
 42
1.0
 92
        0
 66
     7
 43
1.0
 76
     1
 77
     6
 78
     2
 67
     7
 79
     5
170
     0
171
     0
290
     0
174
     0
 93
       13
 44
0.0
173
     0
291
     1
 45
0.0
  0
VISUALSTYLE
  5
2E
102
{ACAD_REACTORS
330
2A
102
}
102
{ACAD_XDICTIONARY
360
BD
102
}
330
2A
100
AcDbVisualStyle
  2
GouraudWithEdges
 70
     3
 71
     2
 72
     2
 73
     1
 90
        2
 40
-0.6
 41
30.0
 62
     5
 63
     7
421
 16777215
 74
     1
 91
        4
 64
     7
 65
   257
 75
     1
175
     1
 42
1.0
 92
        0
 66
   257
 43
1.0
 76
     1
 77
     6
 78
     2
 67
     7
 79
     5
170
     0
171
     0
290
     0
174
     0
 93
       13
 44
0.0
173
     0
291
     1
 45
0.0
  0
VISUALSTYLE
  5
38
102
{ACAD_REACTORS
330
2A
102
}
102
{ACAD_XDICTIONARY
360
D1
102
}
330
2A
100
AcDbVisualStyle
  2
Linepattern
 70
    14
 71
     2
 72
     2
 73
     0
 90
        0
 40
-0.6
 41
-30.0
 62
     5
 63
     7
421
 16777215
 74
     1
 91
        4
 64
     7
 65
   257
 75
     7
175
     7
 42
1.0
 92
        8
 66
     7
 43
1.0
 76
     1
 77
     6
 78
     2
 67
     7
 79
     5
170
     0
171
     0
290
     0
174
     0
 93
        1
 44
0.0
173
     0
291
     1
 45
0.0
  0
VISUALSTYLE
  5
33
102
{ACAD_REACTORS
330
2A
102
}
102
{ACAD_XDICTIONARY
360
C7
102
}
330
2A
100
AcDbVisualStyle
  2
Realistic
 70
     8
 71
     2
 72
     2
 73
     0
 90
        0
 40
-0.6
 41
-30.0
 62
     5
 63
     7
421
 16777215
 74
     1
 91
        0
 64
     7
 65
   257
 75
     1
175
     1
 42
1.0
 92
        8
 66
     8
424
  7895160
 43
1.0
 76
     1
 77
     6
 78
     2
 67
     7
 79
     5
170
     0
171
     0
290
     0
174
     0
 93
       13
 44
0.0
173
     0
291
     0
 45
0.0
  0
VISUALSTYLE
  5
37
102
{ACAD_REACTORS
330
2A
102
}
102
{ACAD_XDICTIONARY
360
CF
102
}
330
2A
100
AcDbVisualStyle
  2
Thicken
 70
    13
 71
     2
 72
     2
 73
     0
 90
        0
 40
-0.6
 41
-30.0
 62
     5
 63
     7
421
 16777215
 74
     1
 91
        4
 64
     7
 65
   257
 75
     1
175
     1
 42
1.0
 92
       12
 66
     7
 43
1.0
 76
     1
 77
     6
 78
     2
 67
     7
 79
     5
170
     0
171
     0
290
     0
174
     0
 93
        1
 44
0.0
173
     0
291
     1
 45
0.0
  0
DICTIONARY
  5
BF
330
2F
100
AcDbDictionary
280
     1
281
     1
  3
ACAD_XREC_ROUNDTRIP
360
C0
  0
DICTIONARY
  5
C3
330
31
100
AcDbDictionary
280
     1
281
     1
  3
ACAD_XREC_ROUNDTRIP
360
C4
  0
DICTIONARY
  5
C1
330
30
100
AcDbDictionary
280
     1
281
     1
  3
ACAD_XREC_ROUNDTRIP
360
C2
  0
DICTIONARY
  5
C5
330
32
100
AcDbDictionary
280
     1
281
     1
  3
ACAD_XREC_ROUNDTRIP
360
C6
  0
DICTIONARY
  5
CD
330
36
100
AcDbDictionary
280
     1
281
     1
  3
ACAD_XREC_ROUNDTRIP
360
CE
  0
DICTIONARY
  5
D5
330
3A
100
AcDbDictionary
280
     1
281
     1
  3
ACAD_XREC_ROUNDTRIP
360
D6
  0
DICTIONARY
  5
C9
330
34
100
AcDbDictionary
280
     1
281
     1
  3
ACAD_XREC_ROUNDTRIP
360
CA
  0
DICTIONARY
  5
CB
330
35
100
AcDbDictionary
280
     1
281
     1
  3
ACAD_XREC_ROUNDTRIP
360
CC
  0
DICTIONARY
  5
D3
330
39
100
AcDbDictionary
280
     1
281
     1
  3
ACAD_XREC_ROUNDTRIP
360
D4
  0
DICTIONARY
  5
B7
330
2B
100
AcDbDictionary
280
     1
281
     1
  3
ACAD_XREC_ROUNDTRIP
360
B8
  0
DICTIONARY
  5
B9
330
2C
100
AcDbDictionary
280
     1
281
     1
  3
ACAD_XREC_ROUNDTRIP
360
BA
  0
DICTIONARY
  5
BB
330
2D
100
AcDbDictionary
280
     1
281
     1
  3
ACAD_XREC_ROUNDTRIP
360
BC
  0
DICTIONARY
  5
BD
330
2E
100
AcDbDictionary
280
     1
281
     1
  3
ACAD_XREC_ROUNDTRIP
360
BE
  0
DICTIONARY
  5
D1
330
38
100
AcDbDictionary
280
     1
281
     1
  3
ACAD_XREC_ROUNDTRIP
360
D2
  0
DICTIONARY
  5
C7
330
33
100
AcDbDictionary
280
     1
281
     1
  3
ACAD_XREC_ROUNDTRIP
360
C8
  0
DICTIONARY
  5
CF
330
37
100
AcDbDictionary
280
     1
281
     1
  3
ACAD_XREC_ROUNDTRIP
360
D0
  0
XRECORD
  5
C0
102
{ACAD_REACTORS
330
BF
102
}
330
BF
100
AcDbXrecord
280
     1
102
RTVSPropertyOp0
 70
     1
102
RTVSPropertyOp1
 70
     1
102
RTVSPropertyOp2
 70
     1
102
RTVSPropertyOp3
 70
     1
102
RTVSPropertyOp4
 70
     1
102
RTVSPropertyOp5
 70
     1
102
RTVSPropertyOp6
 70
     1
102
RTVSPropertyOp7
 70
     1
102
RTVSPropertyOp8
 70
     1
102
RTVSPropertyOp9
 70
     1
102
RTVSPropertyOp10
 70
     1
102
RTVSPropertyOp11
 70
     1
102
RTVSPropertyOp12
 70
     1
102
RTVSPropertyOp13
 70
     1
102
RTVSPropertyOp14
 70
     1
102
RTVSPropertyOp15
 70
     1
102
RTVSPropertyOp16
 70
     1
102
RTVSPropertyOp17
 70
     1
102
RTVSPropertyOp18
 70
     1
102
RTVSPropertyOp19
 70
     1
102
RTVSPropertyOp20
 70
     1
102
RTVSPropertyOp21
 70
     1
102
RTVSPropertyOp22
 70
     1
102
RTVSPropertyOp23
 70
     1
102
RTVSPropertyOp24
 70
     1
102
RTVSPropertyOp25
 70
     1
102
RTVSPropertyOp26
 70
     1
102
RTVSPropertyOp27
 70
     1
102
RTVSPropertyOp28
 70
     1
102
RTVSPropertyOp29
 70
     1
102
RTVSPropertyOp30
 70
     1
102
RTVSPropertyOp31
 70
     1
102
RTVSPropertyOp32
 70
     1
  0
XRECORD
  5
C4
102
{ACAD_REACTORS
330
C3
102
}
330
C3
100
AcDbXrecord
280
     1
102
RTVSPropertyOp0
 70
     1
102
RTVSPropertyOp1
 70
     1
102
RTVSPropertyOp2
 70
     1
102
RTVSPropertyOp3
 70
     1
102
RTVSPropertyOp4
 70
     1
102
RTVSPropertyOp5
 70
     1
102
RTVSPropertyOp6
 70
     1
102
RTVSPropertyOp7
 70
     1
102
RTVSPropertyOp8
 70
     1
102
RTVSPropertyOp9
 70
     1
102
RTVSPropertyOp10
 70
     1
102
RTVSPropertyOp11
 70
     1
102
RTVSPropertyOp12
 70
     1
102
RTVSPropertyOp13
 70
     1
102
RTVSPropertyOp14
 70
     1
102
RTVSPropertyOp15
 70
     1
102
RTVSPropertyOp16
 70
     1
102
RTVSPropertyOp17
 70
     1
102
RTVSPropertyOp18
 70
     1
102
RTVSPropertyOp19
 70
     1
102
RTVSPropertyOp20
 70
     1
102
RTVSPropertyOp21
 70
     1
102
RTVSPropertyOp22
 70
     1
102
RTVSPropertyOp23
 70
     1
102
RTVSPropertyOp24
 70
     1
102
RTVSPropertyOp25
 70
     1
102
RTVSPropertyOp26
 70
     1
102
RTVSPropertyOp27
 70
     1
102
RTVSPropertyOp28
 70
     1
102
RTVSPropertyOp29
 70
     1
102
RTVSPropertyOp30
 70
     1
102
RTVSPropertyOp31
 70
     1
102
RTVSPropertyOp32
 70
     1
  0
XRECORD
  5
C2
102
{ACAD_REACTORS
330
C1
102
}
330
C1
100
AcDbXrecord
280
     1
102
RTVSPropertyOp0
 70
     1
102
RTVSPropertyOp1
 70
     1
102
RTVSPropertyOp2
 70
     1
102
RTVSPropertyOp3
 70
     1
102
RTVSPropertyOp4
 70
     1
102
RTVSPropertyOp5
 70
     1
102
RTVSPropertyOp6
 70
     1
102
RTVSPropertyOp7
 70
     1
102
RTVSPropertyOp8
 70
     1
102
RTVSPropertyOp9
 70
     1
102
RTVSPropertyOp10
 70
     1
102
RTVSPropertyOp11
 70
     1
102
RTVSPropertyOp12
 70
     1
102
RTVSPropertyOp13
 70
     1
102
RTVSPropertyOp14
 70
     1
102
RTVSPropertyOp15
 70
     1
102
RTVSPropertyOp16
 70
     1
102
RTVSPropertyOp17
 70
     1
102
RTVSPropertyOp18
 70
     1
102
RTVSPropertyOp19
 70
     1
102
RTVSPropertyOp20
 70
     1
102
RTVSPropertyOp21
 70
     1
102
RTVSPropertyOp22
 70
     1
102
RTVSPropertyOp23
 70
     1
102
RTVSPropertyOp24
 70
     1
102
RTVSPropertyOp25
 70
     1
102
RTVSPropertyOp26
 70
     1
102
RTVSPropertyOp27
 70
     1
102
RTVSPropertyOp28
 70
     1
102
RTVSPropertyOp29
 70
     1
102
RTVSPropertyOp30
 70
     1
102
RTVSPropertyOp31
 70
     1
102
RTVSPropertyOp32
 70
     1
  0
XRECORD
  5
C6
102
{ACAD_REACTORS
330
C5
102
}
330
C5
100
AcDbXrecord
280
     1
102
RTVSPropertyOp0
 70
     1
102
RTVSPropertyOp1
 70
     1
102
RTVSPropertyOp2
 70
     1
102
RTVSPropertyOp3
 70
     1
102
RTVSPropertyOp4
 70
     1
102
RTVSPropertyOp5
 70
     1
102
RTVSPropertyOp6
 70
     1
102
RTVSPropertyOp7
 70
     1
102
RTVSPropertyOp8
 70
     1
102
RTVSPropertyOp9
 70
     1
102
RTVSPropertyOp10
 70
     1
102
RTVSPropertyOp11
 70
     1
102
RTVSPropertyOp12
 70
     1
102
RTVSPropertyOp13
 70
     1
102
RTVSPropertyOp14
 70
     1
102
RTVSPropertyOp15
 70
     1
102
RTVSPropertyOp16
 70
     1
102
RTVSPropertyOp17
 70
     1
102
RTVSPropertyOp18
 70
     1
102
RTVSPropertyOp19
 70
     1
102
RTVSPropertyOp20
 70
     1
102
RTVSPropertyOp21
 70
     1
102
RTVSPropertyOp22
 70
     1
102
RTVSPropertyOp23
 70
     1
102
RTVSPropertyOp24
 70
     1
102
RTVSPropertyOp25
 70
     1
102
RTVSPropertyOp26
 70
     1
102
RTVSPropertyOp27
 70
     1
102
RTVSPropertyOp28
 70
     1
102
RTVSPropertyOp29
 70
     1
102
RTVSPropertyOp30
 70
     1
102
RTVSPropertyOp31
 70
     1
102
RTVSPropertyOp32
 70
     1
  0
XRECORD
  5
CE
102
{ACAD_REACTORS
330
CD
102
}
330
CD
100
AcDbXrecord
280
     1
102
RTVSPropertyOp0
 70
     1
102
RTVSPropertyOp1
 70
     1
102
RTVSPropertyOp2
 70
     1
102
RTVSPropertyOp3
 70
     1
102
RTVSPropertyOp4
 70
     1
102
RTVSPropertyOp5
 70
     1
102
RTVSPropertyOp6
 70
     1
102
RTVSPropertyOp7
 70
     1
102
RTVSPropertyOp8
 70
     1
102
RTVSPropertyOp9
 70
     1
102
RTVSPropertyOp10
 70
     1
102
RTVSPropertyOp11
 70
     1
102
RTVSPropertyOp12
 70
     1
102
RTVSPropertyOp13
 70
     1
102
RTVSPropertyOp14
 70
     1
102
RTVSPropertyOp15
 70
     1
102
RTVSPropertyOp16
 70
     1
102
RTVSPropertyOp17
 70
     1
102
RTVSPropertyOp18
 70
     1
102
RTVSPropertyOp19
 70
     1
102
RTVSPropertyOp20
 70
     1
102
RTVSPropertyOp21
 70
     1
102
RTVSPropertyOp22
 70
     1
102
RTVSPropertyOp23
 70
     1
102
RTVSPropertyOp24
 70
     1
102
RTVSPropertyOp25
 70
     1
102
RTVSPropertyOp26
 70
     1
102
RTVSPropertyOp27
 70
     1
102
RTVSPropertyOp28
 70
     1
102
RTVSPropertyOp29
 70
     1
102
RTVSPropertyOp30
 70
     1
102
RTVSPropertyOp31
 70
     1
102
RTVSPropertyOp32
 70
     1
  0
XRECORD
  5
D6
102
{ACAD_REACTORS
330
D5
102
}
330
D5
100
AcDbXrecord
280
     1
102
RTVSPropertyOp0
 70
     1
102
RTVSPropertyOp1
 70
     1
102
RTVSPropertyOp2
 70
     1
102
RTVSPropertyOp3
 70
     1
102
RTVSPropertyOp4
 70
     1
102
RTVSPropertyOp5
 70
     1
102
RTVSPropertyOp6
 70
     1
102
RTVSPropertyOp7
 70
     1
102
RTVSPropertyOp8
 70
     1
102
RTVSPropertyOp9
 70
     1
102
RTVSPropertyOp10
 70
     1
102
RTVSPropertyOp11
 70
     1
102
RTVSPropertyOp12
 70
     1
102
RTVSPropertyOp13
 70
     1
102
RTVSPropertyOp14
 70
     1
102
RTVSPropertyOp15
 70
     1
102
RTVSPropertyOp16
 70
     1
102
RTVSPropertyOp17
 70
     1
102
RTVSPropertyOp18
 70
     1
102
RTVSPropertyOp19
 70
     1
102
RTVSPropertyOp20
 70
     1
102
RTVSPropertyOp21
 70
     1
102
RTVSPropertyOp22
 70
     1
102
RTVSPropertyOp23
 70
     1
102
RTVSPropertyOp24
 70
     1
102
RTVSPropertyOp25
 70
     1
102
RTVSPropertyOp26
 70
     1
102
RTVSPropertyOp27
 70
     1
102
RTVSPropertyOp28
 70
     1
102
RTVSPropertyOp29
 70
     1
102
RTVSPropertyOp30
 70
     1
102
RTVSPropertyOp31
 70
     1
102
RTVSPropertyOp32
 70
     1
  0
XRECORD
  5
CA
102
{ACAD_REACTORS
330
C9
102
}
330
C9
100
AcDbXrecord
280
     1
102
RTVSPropertyOp0
 70
     1
102
RTVSPropertyOp1
 70
     1
102
RTVSPropertyOp2
 70
     1
102
RTVSPropertyOp3
 70
     1
102
RTVSPropertyOp4
 70
     1
102
RTVSPropertyOp5
 70
     1
102
RTVSPropertyOp6
 70
     1
102
RTVSPropertyOp7
 70
     1
102
RTVSPropertyOp8
 70
     1
102
RTVSPropertyOp9
 70
     1
102
RTVSPropertyOp10
 70
     1
102
RTVSPropertyOp11
 70
     1
102
RTVSPropertyOp12
 70
     1
102
RTVSPropertyOp13
 70
     1
102
RTVSPropertyOp14
 70
     1
102
RTVSPropertyOp15
 70
     1
102
RTVSPropertyOp16
 70
     1
102
RTVSPropertyOp17
 70
     1
102
RTVSPropertyOp18
 70
     1
102
RTVSPropertyOp19
 70
     1
102
RTVSPropertyOp20
 70
     1
102
RTVSPropertyOp21
 70
     1
102
RTVSPropertyOp22
 70
     1
102
RTVSPropertyOp23
 70
     1
102
RTVSPropertyOp24
 70
     1
102
RTVSPropertyOp25
 70
     1
102
RTVSPropertyOp26
 70
     1
102
RTVSPropertyOp27
 70
     1
102
RTVSPropertyOp28
 70
     1
102
RTVSPropertyOp29
 70
     1
102
RTVSPropertyOp30
 70
     1
102
RTVSPropertyOp31
 70
     1
102
RTVSPropertyOp32
 70
     1
  0
XRECORD
  5
CC
102
{ACAD_REACTORS
330
CB
102
}
330
CB
100
AcDbXrecord
280
     1
102
RTVSPropertyOp0
 70
     1
102
RTVSPropertyOp1
 70
     1
102
RTVSPropertyOp2
 70
     1
102
RTVSPropertyOp3
 70
     1
102
RTVSPropertyOp4
 70
     1
102
RTVSPropertyOp5
 70
     1
102
RTVSPropertyOp6
 70
     1
102
RTVSPropertyOp7
 70
     1
102
RTVSPropertyOp8
 70
     1
102
RTVSPropertyOp9
 70
     1
102
RTVSPropertyOp10
 70
     1
102
RTVSPropertyOp11
 70
     1
102
RTVSPropertyOp12
 70
     1
102
RTVSPropertyOp13
 70
     1
102
RTVSPropertyOp14
 70
     1
102
RTVSPropertyOp15
 70
     1
102
RTVSPropertyOp16
 70
     1
102
RTVSPropertyOp17
 70
     1
102
RTVSPropertyOp18
 70
     1
102
RTVSPropertyOp19
 70
     1
102
RTVSPropertyOp20
 70
     1
102
RTVSPropertyOp21
 70
     1
102
RTVSPropertyOp22
 70
     1
102
RTVSPropertyOp23
 70
     1
102
RTVSPropertyOp24
 70
     1
102
RTVSPropertyOp25
 70
     1
102
RTVSPropertyOp26
 70
     1
102
RTVSPropertyOp27
 70
     1
102
RTVSPropertyOp28
 70
     1
102
RTVSPropertyOp29
 70
     1
102
RTVSPropertyOp30
 70
     1
102
RTVSPropertyOp31
 70
     1
102
RTVSPropertyOp32
 70
     1
  0
XRECORD
  5
D4
102
{ACAD_REACTORS
330
D3
102
}
330
D3
100
AcDbXrecord
280
     1
102
RTVSPropertyOp0
 70
     1
102
RTVSPropertyOp1
 70
     1
102
RTVSPropertyOp2
 70
     1
102
RTVSPropertyOp3
 70
     1
102
RTVSPropertyOp4
 70
     1
102
RTVSPropertyOp5
 70
     1
102
RTVSPropertyOp6
 70
     1
102
RTVSPropertyOp7
 70
     1
102
RTVSPropertyOp8
 70
     1
102
RTVSPropertyOp9
 70
     1
102
RTVSPropertyOp10
 70
     1
102
RTVSPropertyOp11
 70
     1
102
RTVSPropertyOp12
 70
     1
102
RTVSPropertyOp13
 70
     1
102
RTVSPropertyOp14
 70
     1
102
RTVSPropertyOp15
 70
     1
102
RTVSPropertyOp16
 70
     1
102
RTVSPropertyOp17
 70
     1
102
RTVSPropertyOp18
 70
     1
102
RTVSPropertyOp19
 70
     1
102
RTVSPropertyOp20
 70
     1
102
RTVSPropertyOp21
 70
     1
102
RTVSPropertyOp22
 70
     1
102
RTVSPropertyOp23
 70
     1
102
RTVSPropertyOp24
 70
     1
102
RTVSPropertyOp25
 70
     1
102
RTVSPropertyOp26
 70
     1
102
RTVSPropertyOp27
 70
     1
102
RTVSPropertyOp28
 70
     1
102
RTVSPropertyOp29
 70
     1
102
RTVSPropertyOp30
 70
     1
102
RTVSPropertyOp31
 70
     1
102
RTVSPropertyOp32
 70
     1
  0
XRECORD
  5
B8
102
{ACAD_REACTORS
330
B7
102
}
330
B7
100
AcDbXrecord
280
     1
102
RTVSPropertyOp0
 70
     1
102
RTVSPropertyOp1
 70
     1
102
RTVSPropertyOp2
 70
     1
102
RTVSPropertyOp3
 70
     1
102
RTVSPropertyOp4
 70
     1
102
RTVSPropertyOp5
 70
     1
102
RTVSPropertyOp6
 70
     1
102
RTVSPropertyOp7
 70
     1
102
RTVSPropertyOp8
 70
     1
102
RTVSPropertyOp9
 70
     1
102
RTVSPropertyOp10
 70
     1
102
RTVSPropertyOp11
 70
     1
102
RTVSPropertyOp12
 70
     1
102
RTVSPropertyOp13
 70
     1
102
RTVSPropertyOp14
 70
     1
102
RTVSPropertyOp15
 70
     1
102
RTVSPropertyOp16
 70
     1
102
RTVSPropertyOp17
 70
     1
102
RTVSPropertyOp18
 70
     1
102
RTVSPropertyOp19
 70
     1
102
RTVSPropertyOp20
 70
     1
102
RTVSPropertyOp21
 70
     1
102
RTVSPropertyOp22
 70
     1
102
RTVSPropertyOp23
 70
     1
102
RTVSPropertyOp24
 70
     1
102
RTVSPropertyOp25
 70
     1
102
RTVSPropertyOp26
 70
     1
102
RTVSPropertyOp27
 70
     1
102
RTVSPropertyOp28
 70
     1
102
RTVSPropertyOp29
 70
     1
102
RTVSPropertyOp30
 70
     1
102
RTVSPropertyOp31
 70
     1
102
RTVSPropertyOp32
 70
     1
  0
XRECORD
  5
BA
102
{ACAD_REACTORS
330
B9
102
}
330
B9
100
AcDbXrecord
280
     1
102
RTVSPropertyOp0
 70
     1
102
RTVSPropertyOp1
 70
     1
102
RTVSPropertyOp2
 70
     1
102
RTVSPropertyOp3
 70
     1
102
RTVSPropertyOp4
 70
     1
102
RTVSPropertyOp5
 70
     1
102
RTVSPropertyOp6
 70
     1
102
RTVSPropertyOp7
 70
     1
102
RTVSPropertyOp8
 70
     1
102
RTVSPropertyOp9
 70
     1
102
RTVSPropertyOp10
 70
     1
102
RTVSPropertyOp11
 70
     1
102
RTVSPropertyOp12
 70
     1
102
RTVSPropertyOp13
 70
     1
102
RTVSPropertyOp14
 70
     1
102
RTVSPropertyOp15
 70
     1
102
RTVSPropertyOp16
 70
     1
102
RTVSPropertyOp17
 70
     1
102
RTVSPropertyOp18
 70
     1
102
RTVSPropertyOp19
 70
     1
102
RTVSPropertyOp20
 70
     1
102
RTVSPropertyOp21
 70
     1
102
RTVSPropertyOp22
 70
     1
102
RTVSPropertyOp23
 70
     1
102
RTVSPropertyOp24
 70
     1
102
RTVSPropertyOp25
 70
     1
102
RTVSPropertyOp26
 70
     1
102
RTVSPropertyOp27
 70
     1
102
RTVSPropertyOp28
 70
     1
102
RTVSPropertyOp29
 70
     1
102
RTVSPropertyOp30
 70
     1
102
RTVSPropertyOp31
 70
     1
102
RTVSPropertyOp32
 70
     1
  0
XRECORD
  5
BC
102
{ACAD_REACTORS
330
BB
102
}
330
BB
100
AcDbXrecord
280
     1
102
RTVSPropertyOp0
 70
     1
102
RTVSPropertyOp1
 70
     1
102
RTVSPropertyOp2
 70
     1
102
RTVSPropertyOp3
 70
     1
102
RTVSPropertyOp4
 70
     1
102
RTVSPropertyOp5
 70
     1
102
RTVSPropertyOp6
 70
     1
102
RTVSPropertyOp7
 70
     1
102
RTVSPropertyOp8
 70
     1
102
RTVSPropertyOp9
 70
     1
102
RTVSPropertyOp10
 70
     1
102
RTVSPropertyOp11
 70
     1
102
RTVSPropertyOp12
 70
     1
102
RTVSPropertyOp13
 70
     1
102
RTVSPropertyOp14
 70
     1
102
RTVSPropertyOp15
 70
     1
102
RTVSPropertyOp16
 70
     1
102
RTVSPropertyOp17
 70
     1
102
RTVSPropertyOp18
 70
     1
102
RTVSPropertyOp19
 70
     1
102
RTVSPropertyOp20
 70
     1
102
RTVSPropertyOp21
 70
     1
102
RTVSPropertyOp22
 70
     1
102
RTVSPropertyOp23
 70
     1
102
RTVSPropertyOp24
 70
     1
102
RTVSPropertyOp25
 70
     1
102
RTVSPropertyOp26
 70
     1
102
RTVSPropertyOp27
 70
     1
102
RTVSPropertyOp28
 70
     1
102
RTVSPropertyOp29
 70
     1
102
RTVSPropertyOp30
 70
     1
102
RTVSPropertyOp31
 70
     1
102
RTVSPropertyOp32
 70
     1
  0
XRECORD
  5
BE
102
{ACAD_REACTORS
330
BD
102
}
330
BD
100
AcDbXrecord
280
     1
102
RTVSPropertyOp0
 70
     1
102
RTVSPropertyOp1
 70
     1
102
RTVSPropertyOp2
 70
     1
102
RTVSPropertyOp3
 70
     1
102
RTVSPropertyOp4
 70
     1
102
RTVSPropertyOp5
 70
     1
102
RTVSPropertyOp6
 70
     1
102
RTVSPropertyOp7
 70
     1
102
RTVSPropertyOp8
 70
     1
102
RTVSPropertyOp9
 70
     1
102
RTVSPropertyOp10
 70
     1
102
RTVSPropertyOp11
 70
     1
102
RTVSPropertyOp12
 70
     1
102
RTVSPropertyOp13
 70
     1
102
RTVSPropertyOp14
 70
     1
102
RTVSPropertyOp15
 70
     1
102
RTVSPropertyOp16
 70
     1
102
RTVSPropertyOp17
 70
     1
102
RTVSPropertyOp18
 70
     1
102
RTVSPropertyOp19
 70
     1
102
RTVSPropertyOp20
 70
     1
102
RTVSPropertyOp21
 70
     1
102
RTVSPropertyOp22
 70
     1
102
RTVSPropertyOp23
 70
     1
102
RTVSPropertyOp24
 70
     1
102
RTVSPropertyOp25
 70
     1
102
RTVSPropertyOp26
 70
     1
102
RTVSPropertyOp27
 70
     1
102
RTVSPropertyOp28
 70
     1
102
RTVSPropertyOp29
 70
     1
102
RTVSPropertyOp30
 70
     1
102
RTVSPropertyOp31
 70
     1
102
RTVSPropertyOp32
 70
     1
  0
XRECORD
  5
D2
102
{ACAD_REACTORS
330
D1
102
}
330
D1
100
AcDbXrecord
280
     1
102
RTVSPropertyOp0
 70
     1
102
RTVSPropertyOp1
 70
     1
102
RTVSPropertyOp2
 70
     1
102
RTVSPropertyOp3
 70
     1
102
RTVSPropertyOp4
 70
     1
102
RTVSPropertyOp5
 70
     1
102
RTVSPropertyOp6
 70
     1
102
RTVSPropertyOp7
 70
     1
102
RTVSPropertyOp8
 70
     1
102
RTVSPropertyOp9
 70
     1
102
RTVSPropertyOp10
 70
     1
102
RTVSPropertyOp11
 70
     1
102
RTVSPropertyOp12
 70
     1
102
RTVSPropertyOp13
 70
     1
102
RTVSPropertyOp14
 70
     1
102
RTVSPropertyOp15
 70
     1
102
RTVSPropertyOp16
 70
     1
102
RTVSPropertyOp17
 70
     1
102
RTVSPropertyOp18
 70
     1
102
RTVSPropertyOp19
 70
     1
102
RTVSPropertyOp20
 70
     1
102
RTVSPropertyOp21
 70
     1
102
RTVSPropertyOp22
 70
     1
102
RTVSPropertyOp23
 70
     1
102
RTVSPropertyOp24
 70
     1
102
RTVSPropertyOp25
 70
     1
102
RTVSPropertyOp26
 70
     1
102
RTVSPropertyOp27
 70
     1
102
RTVSPropertyOp28
 70
     1
102
RTVSPropertyOp29
 70
     1
102
RTVSPropertyOp30
 70
     1
102
RTVSPropertyOp31
 70
     1
102
RTVSPropertyOp32
 70
     1
  0
XRECORD
  5
C8
102
{ACAD_REACTORS
330
C7
102
}
330
C7
100
AcDbXrecord
280
     1
102
RTVSPropertyOp0
 70
     1
102
RTVSPropertyOp1
 70
     1
102
RTVSPropertyOp2
 70
     1
102
RTVSPropertyOp3
 70
     1
102
RTVSPropertyOp4
 70
     1
102
RTVSPropertyOp5
 70
     1
102
RTVSPropertyOp6
 70
     1
102
RTVSPropertyOp7
 70
     1
102
RTVSPropertyOp8
 70
     1
102
RTVSPropertyOp9
 70
     1
102
RTVSPropertyOp10
 70
     1
102
RTVSPropertyOp11
 70
     1
102
RTVSPropertyOp12
 70
     1
102
RTVSPropertyOp13
 70
     1
102
RTVSPropertyOp14
 70
     1
102
RTVSPropertyOp15
 70
     1
102
RTVSPropertyOp16
 70
     1
102
RTVSPropertyOp17
 70
     1
102
RTVSPropertyOp18
 70
     1
102
RTVSPropertyOp19
 70
     1
102
RTVSPropertyOp20
 70
     1
102
RTVSPropertyOp21
 70
     1
102
RTVSPropertyOp22
 70
     1
102
RTVSPropertyOp23
 70
     1
102
RTVSPropertyOp24
 70
     1
102
RTVSPropertyOp25
 70
     1
102
RTVSPropertyOp26
 70
     1
102
RTVSPropertyOp27
 70
     1
102
RTVSPropertyOp28
 70
     1
102
RTVSPropertyOp29
 70
     1
102
RTVSPropertyOp30
 70
     1
102
RTVSPropertyOp31
 70
     1
102
RTVSPropertyOp32
 70
     1
  0
XRECORD
  5
D0
102
{ACAD_REACTORS
330
CF
102
}
330
CF
100
AcDbXrecord
280
     1
102
RTVSPropertyOp0
 70
     1
102
RTVSPropertyOp1
 70
     1
102
RTVSPropertyOp2
 70
     1
102
RTVSPropertyOp3
 70
     1
102
RTVSPropertyOp4
 70
     1
102
RTVSPropertyOp5
 70
     1
102
RTVSPropertyOp6
 70
     1
102
RTVSPropertyOp7
 70
     1
102
RTVSPropertyOp8
 70
     1
102
RTVSPropertyOp9
 70
     1
102
RTVSPropertyOp10
 70
     1
102
RTVSPropertyOp11
 70
     1
102
RTVSPropertyOp12
 70
     1
102
RTVSPropertyOp13
 70
     1
102
RTVSPropertyOp14
 70
     1
102
RTVSPropertyOp15
 70
     1
102
RTVSPropertyOp16
 70
     1
102
RTVSPropertyOp17
 70
     1
102
RTVSPropertyOp18
 70
     1
102
RTVSPropertyOp19
 70
     1
102
RTVSPropertyOp20
 70
     1
102
RTVSPropertyOp21
 70
     1
102
RTVSPropertyOp22
 70
     1
102
RTVSPropertyOp23
 70
     1
102
RTVSPropertyOp24
 70
     1
102
RTVSPropertyOp25
 70
     1
102
RTVSPropertyOp26
 70
     1
102
RTVSPropertyOp27
 70
     1
102
RTVSPropertyOp28
 70
     1
102
RTVSPropertyOp29
 70
     1
102
RTVSPropertyOp30
 70
     1
102
RTVSPropertyOp31
 70
     1
102
RTVSPropertyOp32
 70
     1
  0
ENDSEC
  0
EOF
