  0
SECTION
  2
HEADER
  9
$ACADVER
  1
AC1021
  9
$ACADMAINTVER
 70
    25
  9
$DWGCODEPAGE
  3
ANSI_1252
  9
$INSBASE
 10
0.0
 20
0.0
 30
0.0
  9
$EXTMIN
 10
-18.8928
 20
-100.3528
 30
0.0
  9
$EXTMAX
 10
36.7579
 20
130.7633
 30
0.0
  9
$LIMMIN
 10
0.0
 20
0.0
  9
$LIMMAX
 10
12.0
 20
9.0
  9
$ORTHOMODE
 70
     0
  9
$REGENMODE
 70
     1
  9
$FILLMODE
 70
     1
  9
$QTEXTMODE
 70
     0
  9
$MIRRTEXT
 70
     1
  9
$LTSCALE
 40
1.0
  9
$ATTMODE
 70
     1
  9
$TEXTSIZE
 40
0.2
  9
$TRACEWID
 40
0.05
  9
$TEXTSTYLE
  7
Standard
  9
$CLAYER
  8
0
  9
$CELTYPE
  6
ByLayer
  9
$CECOLOR
 62
   256
  9
$CELTSCALE
 40
1.0
  9
$DISPSILH
 70
     0
  9
$DIMSCALE
 40
1.0
  9
$DIMASZ
 40
0.18
  9
$DIMEXO
 40
0.0625
  9
$DIMDLI
 40
0.38
  9
$DIMRND
 40
0.0
  9
$DIMDLE
 40
0.0
  9
$DIMEXE
 40
0.18
  9
$DIMTP
 40
0.0
  9
$DIMTM
 40
0.0
  9
$DIMTXT
 40
0.18
  9
$DIMCEN
 40
0.09
  9
$DIMTSZ
 40
0.0
  9
$DIMTOL
 70
     0
  9
$DIMLIM
 70
     0
  9
$DIMTIH
 70
     1
  9
$DIMTOH
 70
     1
  9
$DIMSE1
 70
     0
  9
$DIMSE2
 70
     0
  9
$DIMTAD
 70
     0
  9
$DIMZIN
 70
     0
  9
$DIMBLK
  1

  9
$DIMASO
 70
     1
  9
$DIMSHO
 70
     1
  9
$DIMPOST
  1

  9
$DIMAPOST
  1

  9
$DIMALT
 70
     0
  9
$DIMALTD
 70
     2
  9
$DIMALTF
 40
25.4
  9
$DIMLFAC
 40
1.0
  9
$DIMTOFL
 70
     0
  9
$DIMTVP
 40
0.0
  9
$DIMTIX
 70
     0
  9
$DIMSOXD
 70
     0
  9
$DIMSAH
 70
     0
  9
$DIMBLK1
  1

  9
$DIMBLK2
  1

  9
$DIMSTYLE
  2
Standard
  9
$DIMCLRD
 70
     0
  9
$DIMCLRE
 70
     0
  9
$DIMCLRT
 70
     0
  9
$DIMTFAC
 40
1.0
  9
$DIMGAP
 40
0.09
  9
$DIMJUST
 70
     0
  9
$DIMSD1
 70
     0
  9
$DIMSD2
 70
     0
  9
$DIMTOLJ
 70
     1
  9
$DIMTZIN
 70
     0
  9
$DIMALTZ
 70
     0
  9
$DIMALTTZ
 70
     0
  9
$DIMUPT
 70
     0
  9
$DIMDEC
 70
     4
  9
$DIMTDEC
 70
     4
  9
$DIMALTU
 70
     2
  9
$DIMALTTD
 70
     2
  9
$DIMTXSTY
  7
Standard
  9
$DIMAUNIT
 70
     0
  9
$DIMADEC
 70
     0
  9
$DIMALTRND
 40
0.0
  9
$DIMAZIN
 70
     0
  9
$DIMDSEP
 70
    46
  9
$DIMATFIT
 70
     3
  9
$DIMFRAC
 70
     0
  9
$DIMLDRBLK
  1

  9
$DIMLUNIT
 70
     2
  9
$DIMLWD
 70
    -2
  9
$DIMLWE
 70
    -2
  9
$DIMTMOVE
 70
     0
  9
$DIMFXL
 40
1.0
  9
$DIMFXLON
 70
     0
  9
$DIMJOGANG
 40
0.7853981633974483
  9
$DIMTFILL
 70
     0
  9
$DIMTFILLCLR
 70
     0
  9
$DIMARCSYM
 70
     0
  9
$DIMLTYPE
  6

  9
$DIMLTEX1
  6

  9
$DIMLTEX2
  6

  9
$LUNITS
 70
     2
  9
$LUPREC
 70
     4
  9
$SKETCHINC
 40
0.1
  9
$FILLETRAD
 40
0.5
  9
$AUNITS
 70
     0
  9
$AUPREC
 70
     0
  9
$MENU
  1
.
  9
$ELEVATION
 40
0.0
  9
$PELEVATION
 40
0.0
  9
$THICKNESS
 40
0.0
  9
$LIMCHECK
 70
     0
  9
$CHAMFERA
 40
0.5
  9
$CHAMFERB
 40
0.5
  9
$CHAMFERC
 40
1.0
  9
$CHAMFERD
 40
0.0
  9
$SKPOLY
 70
     0
  9
$TDCREATE
 40
2458492.726282118
  9
$TDUCREATE
 40
2458492.726282118
  9
$TDUPDATE
 40
2458492.726282384
  9
$TDUUPDATE
 40
2458492.726282384
  9
$TDINDWG
 40
0.0000000116
  9
$TDUSRTIMER
 40
0.0000000116
  9
$USRTIMER
 70
     1
  9
$ANGBASE
 50
0.0
  9
$ANGDIR
 70
     0
  9
$PDMODE
 70
     0
  9
$PDSIZE
 40
0.0
  9
$PLINEWID
 40
0.0
  9
$SPLFRAME
 70
     0
  9
$SPLINETYPE
 70
     6
  9
$SPLINESEGS
 70
     8
  9
$HANDSEED
  5
D0
  9
$SURFTAB1
 70
     6
  9
$SURFTAB2
 70
     6
  9
$SURFTYPE
 70
     6
  9
$SURFU
 70
     6
  9
$SURFV
 70
     6
  9
$UCSBASE
  2

  9
$UCSNAME
  2

  9
$UCSORG
 10
0.0
 20
0.0
 30
0.0
  9
$UCSXDIR
 10
1.0
 20
0.0
 30
0.0
  9
$UCSYDIR
 10
0.0
 20
1.0
 30
0.0
  9
$UCSORTHOREF
  2

  9
$UCSORTHOVIEW
 70
     0
  9
$UCSORGTOP
 10
0.0
 20
0.0
 30
0.0
  9
$UCSORGBOTTOM
 10
0.0
 20
0.0
 30
0.0
  9
$UCSORGLEFT
 10
0.0
 20
0.0
 30
0.0
  9
$UCSORGRIGHT
 10
0.0
 20
0.0
 30
0.0
  9
$UCSORGFRONT
 10
0.0
 20
0.0
 30
0.0
  9
$UCSORGBACK
 10
0.0
 20
0.0
 30
0.0
  9
$PUCSBASE
  2

  9
$PUCSNAME
  2

  9
$PUCSORG
 10
0.0
 20
0.0
 30
0.0
  9
$PUCSXDIR
 10
1.0
 20
0.0
 30
0.0
  9
$PUCSYDIR
 10
0.0
 20
1.0
 30
0.0
  9
$PUCSORTHOREF
  2

  9
$PUCSORTHOVIEW
 70
     0
  9
$PUCSORGTOP
 10
0.0
 20
0.0
 30
0.0
  9
$PUCSORGBOTTOM
 10
0.0
 20
0.0
 30
0.0
  9
$PUCSORGLEFT
 10
0.0
 20
0.0
 30
0.0
  9
$PUCSORGRIGHT
 10
0.0
 20
0.0
 30
0.0
  9
$PUCSORGFRONT
 10
0.0
 20
0.0
 30
0.0
  9
$PUCSORGBACK
 10
0.0
 20
0.0
 30
0.0
  9
$USERI1
 70
     0
  9
$USERI2
 70
     0
  9
$USERI3
 70
     0
  9
$USERI4
 70
     0
  9
$USERI5
 70
     0
  9
$USERR1
 40
0.0
  9
$USERR2
 40
0.0
  9
$USERR3
 40
0.0
  9
$USERR4
 40
0.0
  9
$USERR5
 40
0.0
  9
$WORLDVIEW
 70
     1
  9
$SHADEDGE
 70
     3
  9
$SHADEDIF
 70
    70
  9
$TILEMODE
 70
     1
  9
$MAXACTVP
 70
    64
  9
$PINSBASE
 10
0.0
 20
0.0
 30
0.0
  9
$PLIMCHECK
 70
     0
  9
$PEXTMIN
 10
1.000000000000000E+20
 20
1.000000000000000E+20
 30
1.000000000000000E+20
  9
$PEXTMAX
 10
-1.000000000000000E+20
 20
-1.000000000000000E+20
 30
-1.000000000000000E+20
  9
$PLIMMIN
 10
0.0
 20
0.0
  9
$PLIMMAX
 10
12.0
 20
9.0
  9
$UNITMODE
 70
     0
  9
$VISRETAIN
 70
     1
  9
$PLINEGEN
 70
     0
  9
$PSLTSCALE
 70
     1
  9
$TREEDEPTH
 70
  3020
  9
$CMLSTYLE
  2
Standard
  9
$CMLJUST
 70
     0
  9
$CMLSCALE
 40
1.0
  9
$PROXYGRAPHICS
 70
     1
  9
$MEASUREMENT
 70
     0
  9
$CELWEIGHT
370
    -1
  9
$ENDCAPS
280
     0
  9
$JOINSTYLE
280
     0
  9
$LWDISPLAY
290
     0
  9
$INSUNITS
 70
     4
  9
$HYPERLINKBASE
  1

  9
$STYLESHEET
  1

  9
$XEDIT
290
     1
  9
$CEPSNTYPE
380
     0
  9
$PSTYLEMODE
290
     1
  9
$FINGERPRINTGUID
  2
{04789B1D-5907-403C-A551-12814656C99B}
  9
$VERSIONGUID
  2
{FAEB1C32-E019-11D5-929B-00C0DF256EC4}
  9
$EXTNAMES
290
     1
  9
$PSVPSCALE
 40
0.0
  9
$OLESTARTUP
290
     0
  9
$SORTENTS
280
   127
  9
$INDEXCTL
280
     0
  9
$HIDETEXT
280
     1
  9
$XCLIPFRAME
290
     0
  9
$HALOGAP
280
     0
  9
$OBSCOLOR
 70
   257
  9
$OBSLTYPE
280
     0
  9
$INTERSECTIONDISPLAY
280
     0
  9
$INTERSECTIONCOLOR
 70
   257
  9
$DIMASSOC
280
     2
  9
$PROJECTNAME
  1

  9
$CAMERADISPLAY
290
     0
  9
$LENSLENGTH
 40
50.0
  9
$CAMERAHEIGHT
 40
0.0
  9
$STEPSPERSEC
 40
2.0
  9
$STEPSIZE
 40
6.0
  9
$3DDWFPREC
 40
2.0
  9
$PSOLWIDTH
 40
0.25
  9
$PSOLHEIGHT
 40
4.0
  9
$LOFTANG1
 40
1.570796326794897
  9
$LOFTANG2
 40
1.570796326794897
  9
$LOFTMAG1
 40
0.0
  9
$LOFTMAG2
 40
0.0
  9
$LOFTPARAM
 70
     7
  9
$LOFTNORMALS
280
     1
  9
$LATITUDE
 40
37.795
  9
$LONGITUDE
 40
-122.394
  9
$NORTHDIRECTION
 40
0.0
  9
$TIMEZONE
 70
 -8000
  9
$LIGHTGLYPHDISPLAY
280
     1
  9
$TILEMODELIGHTSYNCH
280
     1
  9
$SOLIDHIST
280
     1
  9
$SHOWHIST
280
     1
  9
$DWFFRAME
280
     2
  9
$DGNFRAME
280
     2
  9
$REALWORLDSCALE
290
     1
  9
$INTERFERECOLOR
 62
   256
  9
$CSHADOW
280
     0
  9
$SHADOWPLANELOCATION
 40
0.0
  0
ENDSEC
  0
SECTION
  2
CLASSES
  0
CLASS
  1
ACDBDICTIONARYWDFLT
  2
AcDbDictionaryWithDefault
  3
ObjectDBX Classes
 90
        0
 91
        4
280
     0
281
     0
  0
CLASS
  1
VISUALSTYLE
  2
AcDbVisualStyle
  3
ObjectDBX Classes
 90
     4095
 91
        4
280
     0
281
     0
  0
CLASS
  1
MATERIAL
  2
AcDbMaterial
  3
ObjectDBX Classes
 90
     1153
 91
        4
280
     0
281
     0
  0
ENDSEC
  0
SECTION
  2
TABLES
  0
TABLE
  2
VPORT
  5
8
330
0
100
AcDbSymbolTable
 70
     1
  0
VPORT
  5
29
330
8
100
AcDbSymbolTableRecord
100
AcDbViewportTableRecord
  2
*Active
 70
     0
 10
0.0
 20
0.0
 11
1.0
 21
1.0
 12
10.42990654205607
 22
4.5
 13
0.0
 23
0.0
 14
0.5
 24
0.5
 15
0.5
 25
0.5
 16
0.0
 26
0.0
 36
1.0
 17
0.0
 27
0.0
 37
0.0
 40
9.0
 41
1.972972972850329
 42
50.0
 43
0.0
 44
0.0
 50
0.0
 51
0.0
 71
     0
 72
   100
 73
     1
 74
     3
 75
     0
 76
     0
 77
     0
 78
     0
281
     0
 65
     1
110
0.0
120
0.0
130
0.0
111
1.0
121
0.0
131
0.0
112
0.0
122
1.0
132
0.0
 79
     0
146
0.0
 60
     3
 61
     5
292
     1
282
     1
141
0.0
142
0.0
 63
   250
  0
ENDTAB
  0
TABLE
  2
LTYPE
  5
5
330
0
100
AcDbSymbolTable
 70
     1
  0
LTYPE
  5
14
330
5
100
AcDbSymbolTableRecord
100
AcDbLinetypeTableRecord
  2
ByBlock
 70
     0
  3

 72
    65
 73
     0
 40
0.0
  0
LTYPE
  5
15
330
5
100
AcDbSymbolTableRecord
100
AcDbLinetypeTableRecord
  2
ByLayer
 70
     0
  3

 72
    65
 73
     0
 40
0.0
  0
LTYPE
  5
16
330
5
100
AcDbSymbolTableRecord
100
AcDbLinetypeTableRecord
  2
Continuous
 70
     0
  3
Solid line
 72
    65
 73
     0
 40
0.0
  0
ENDTAB
  0
TABLE
  2
LAYER
  5
2
330
0
100
AcDbSymbolTable
 70
     2
  0
LAYER
  5
10
330
2
100
AcDbSymbolTableRecord
100
AcDbLayerTableRecord
  2
0
 70
     0
 62
     7
  6
Continuous
370
    -3
390
F
347
3E
  0
LAYER
  5
40
330
2
100
AcDbSymbolTableRecord
100
AcDbLayerTableRecord
  2
layer 1
 70
     0
 62
     7
  6
Continuous
370
    -3
390
F
347
3E
  0
ENDTAB
  0
TABLE
  2
STYLE
  5
3
330
0
100
AcDbSymbolTable
 70
     1
  0
STYLE
  5
11
330
3
100
AcDbSymbolTableRecord
100
AcDbTextStyleTableRecord
  2
Standard
 70
     0
 40
0.0
 41
1.0
 50
0.0
 71
     0
 42
0.2
  3
txt
  4

  0
ENDTAB
  0
TABLE
  2
VIEW
  5
6
330
0
100
AcDbSymbolTable
 70
     0
  0
ENDTAB
  0
TABLE
  2
UCS
  5
7
330
0
100
AcDbSymbolTable
 70
     0
  0
ENDTAB
  0
TABLE
  2
APPID
  5
9
330
0
100
AcDbSymbolTable
 70
     2
  0
APPID
  5
12
330
9
100
AcDbSymbolTableRecord
100
AcDbRegAppTableRecord
  2
ACAD
 70
     0
  0
APPID
  5
3F
330
9
100
AcDbSymbolTableRecord
100
AcDbRegAppTableRecord
  2
ODA
 70
     0
  0
ENDTAB
  0
TABLE
  2
DIMSTYLE
  5
A
330
0
100
AcDbSymbolTable
 70
     1
100
AcDbDimStyleTable
  0
DIMSTYLE
105
27
330
A
100
AcDbSymbolTableRecord
100
AcDbDimStyleTableRecord
  2
Standard
 70
     0
178
     0
340
11
  0
ENDTAB
  0
TABLE
  2
BLOCK_RECORD
  5
1
330
0
100
AcDbSymbolTable
 70
     1
  0
BLOCK_RECORD
  5
1F
330
1
100
AcDbSymbolTableRecord
100
AcDbBlockTableRecord
  2
*Model_Space
340
22
 70
     0
280
     1
281
     0
  0
BLOCK_RECORD
  5
1B
330
1
100
AcDbSymbolTableRecord
100
AcDbBlockTableRecord
  2
*Paper_Space
340
1E
 70
     0
280
     1
281
     0
  0
BLOCK_RECORD
  5
23
330
1
100
AcDbSymbolTableRecord
100
AcDbBlockTableRecord
  2
*Paper_Space0
340
26
 70
     0
280
     1
281
     0
  0
ENDTAB
  0
ENDSEC
  0
SECTION
  2
BLOCKS
  0
BLOCK
  5
20
330
1F
100
AcDbEntity
  8
0
100
AcDbBlockBegin
  2
*Model_Space
 70
     0
 10
0.0
 20
0.0
 30
0.0
  3
*Model_Space
  1

  0
ENDBLK
  5
21
330
1F
100
AcDbEntity
  8
0
100
AcDbBlockEnd
  0
BLOCK
  5
1C
330
1B
100
AcDbEntity
 67
     1
  8
0
100
AcDbBlockBegin
  2
*Paper_Space
 70
     0
 10
0.0
 20
0.0
 30
0.0
  3
*Paper_Space
  1

  0
ENDBLK
  5
1D
330
1B
100
AcDbEntity
 67
     1
  8
0
100
AcDbBlockEnd
  0
BLOCK
  5
24
330
23
100
AcDbEntity
  8
0
100
AcDbBlockBegin
  2
*Paper_Space0
 70
     0
 10
0.0
 20
0.0
 30
0.0
  3
*Paper_Space0
  1

  0
ENDBLK
  5
25
330
23
100
AcDbEntity
  8
0
100
AcDbBlockEnd
  0
ENDSEC
  0
SECTION
  2
ENTITIES
  0
SPLINE
  5
41
330
1F
100
AcDbEntity
  8
layer 1
 62
   250
370
     9
100
AcDbSpline
210
0.0
220
0.0
230
1.0
 70
    11
 71
     3
 72
    24
 73
    20
 74
     0
 42
0.0000000001
 43
0.0000000001
 12
1.0
 22
0.0
 32
0.0
 13
1.0
 23
0.0
 33
0.0
 40
0.0
 40
0.0
 40
0.0
 40
0.0
 40
0.1666666666666667
 40
0.1666666666666667
 40
0.1666666666666667
 40
0.1666666666666667
 40
0.3333333333333333
 40
0.3333333333333333
 40
0.3333333333333333
 40
0.3333333333333333
 40
0.5
 40
0.5
 40
0.5
 40
0.5
 40
0.6666666666666666
 40
0.6666666666666666
 40
0.6666666666666666
 40
0.6666666666666666
 40
1.0
 40
1.0
 40
1.0
 40
1.0
 10
36.7196
 20
103.2536
 30
0.0
 10
36.7196
 20
103.2536
 30
0.0
 10
36.7198
 20
-100.2861
 30
0.0
 10
36.7198
 20
-100.2861
 30
0.0
 10
36.7198
 20
-100.2861
 30
0.0
 10
36.7198
 20
-100.2861
 30
0.0
 10
-18.8472
 20
-100.3147
 30
0.0
 10
-18.8472
 20
-100.3147
 30
0.0
 10
-18.8472
 20
-100.3147
 30
0.0
 10
-18.8472
 20
-100.3147
 30
0.0
 10
-18.8547
 20
103.2536
 30
0.0
 10
-18.8547
 20
103.2536
 30
0.0
 10
-18.8547
 20
103.2536
 30
0.0
 10
-18.8547
 20
118.3844
 30
0.0
 10
-6.3722
 20
130.7252
 30
0.0
 10
8.9324
 20
130.7252
 30
0.0
 10
8.9324
 20
130.7252
 30
0.0
 10
24.237
 20
130.7252
 30
0.0
 10
36.7196
 20
118.3844
 30
0.0
 10
36.7196
 20
103.2536
 30
0.0
  0
SPLINE
  5
42
330
1F
100
AcDbEntity
  8
layer 1
 62
     7
370
     9
100
AcDbSpline
210
0.0
220
0.0
230
1.0
 70
    11
 71
     3
 72
    28
 73
    24
 74
     0
 42
0.0000000001
 43
0.0000000001
 12
1.0
 22
0.0
 32
0.0
 13
1.0
 23
0.0
 33
0.0
 40
0.0
 40
0.0
 40
0.0
 40
0.0
 40
0.1428571428571428
 40
0.1428571428571428
 40
0.1428571428571428
 40
0.1428571428571428
 40
0.2857142857142857
 40
0.2857142857142857
 40
0.2857142857142857
 40
0.2857142857142857
 40
0.4285714285714285
 40
0.4285714285714285
 40
0.4285714285714285
 40
0.4285714285714285
 40
0.5714285714285714
 40
0.5714285714285714
 40
0.5714285714285714
 40
0.5714285714285714
 40
0.7142857142857143
 40
0.7142857142857143
 40
0.7142857142857143
 40
0.7142857142857143
 40
1.0
 40
1.0
 40
1.0
 40
1.0
 10
22.0086
 20
70.7955
 30
0.0
 10
22.0388
 20
69.8926
 30
0.0
 10
22.1484
 20
67.372
 30
0.0
 10
24.2112
 20
66.6515
 30
0.0
 10
24.2112
 20
66.6515
 30
0.0
 10
24.9046
 20
66.4093
 30
0.0
 10
26.0182
 20
66.9078
 30
0.0
 10
27.0403
 20
68.1655
 30
0.0
 10
27.0403
 20
68.1655
 30
0.0
 10
27.0403
 20
68.1655
 30
0.0
 10
27.0404
 20
73.4128
 30
0.0
 10
27.0404
 20
73.4128
 30
0.0
 10
27.0404
 20
73.4128
 30
0.0
 10
26.0183
 20
74.6706
 30
0.0
 10
24.9046
 20
75.1816
 30
0.0
 10
24.2112
 20
74.9394
 30
0.0
 10
24.2112
 20
74.9394
 30
0.0
 10
22.1484
 20
74.2189
 30
0.0
 10
22.0388
 20
71.6982
 30
0.0
 10
22.0086
 20
70.7955
 30
0.0
 10
22.0086
 20
70.7955
 30
0.0
 10
22.0086
 20
70.7955
 30
0.0
 10
22.0086
 20
70.7955
 30
0.0
 10
22.0086
 20
70.7955
 30
0.0
  0
SPLINE
  5
43
330
1F
100
AcDbEntity
  8
layer 1
 62
     7
370
     9
100
AcDbSpline
210
0.0
220
0.0
230
1.0
 70
    11
 71
     3
 72
    20
 73
    16
 74
     0
 42
0.0000000001
 43
0.0000000001
 12
1.0
 22
0.0
 32
0.0
 13
1.0
 23
0.0
 33
0.0
 40
0.0
 40
0.0
 40
0.0
 40
0.0
 40
0.2
 40
0.2
 40
0.2
 40
0.2
 40
0.4
 40
0.4
 40
0.4
 40
0.4
 40
0.6
 40
0.6
 40
0.6
 40
0.6
 40
1.0
 40
1.0
 40
1.0
 40
1.0
 10
19.5853
 20
-89.353
 30
0.0
 10
19.5853
 20
-89.353
 30
0.0
 10
27.0392
 20
-89.353
 30
0.0
 10
27.0392
 20
-89.353
 30
0.0
 10
27.0392
 20
-89.353
 30
0.0
 10
27.0392
 20
-89.353
 30
0.0
 10
27.0392
 20
-68.0426
 30
0.0
 10
27.0392
 20
-68.0426
 30
0.0
 10
27.0392
 20
-68.0426
 30
0.0
 10
25.4787
 20
-73.3084
 30
0.0
 10
19.9916
 20
-80.988
 30
0.0
 10
17.909
 20
-83.3385
 30
0.0
 10
17.909
 20
-83.3385
 30
0.0
 10
15.8329
 20
-85.6819
 30
0.0
 10
18.2136
 20
-87.6395
 30
0.0
 10
19.5853
 20
-89.353
 30
0.0
  0
SPLINE
  5
44
330
1F
100
AcDbEntity
  8
layer 1
 62
     7
370
     9
100
AcDbSpline
210
0.0
220
0.0
230
1.0
 70
    11
 71
     3
 72
    16
 73
    12
 74
     0
 42
0.0000000001
 43
0.0000000001
 12
1.0
 22
0.0
 32
0.0
 13
1.0
 23
0.0
 33
0.0
 40
0.0
 40
0.0
 40
0.0
 40
0.0
 40
0.25
 40
0.25
 40
0.25
 40
0.25
 40
0.5
 40
0.5
 40
0.5
 40
0.5
 40
1.0
 40
1.0
 40
1.0
 40
1.0
 10
-0.7039
 20
-89.346
 30
0.0
 10
-0.7039
 20
-89.346
 30
0.0
 10
8.2202
 20
-89.3388
 30
0.0
 10
8.2202
 20
-89.3388
 30
0.0
 10
8.2202
 20
-89.3388
 30
0.0
 10
6.2614
 20
-88.9648
 30
0.0
 10
5.1562
 20
-87.1184
 30
0.0
 10
5.186
 20
-85.612
 30
0.0
 10
5.186
 20
-85.612
 30
0.0
 10
4.7596
 20
-87.6831
 30
0.0
 10
1.2215
 20
-89.1002
 30
0.0
 10
-0.7039
 20
-89.346
 30
0.0
  0
SPLINE
  5
45
330
1F
100
AcDbEntity
  8
layer 1
 62
     7
370
     9
100
AcDbSpline
210
0.0
220
0.0
230
1.0
 70
    11
 71
     3
 72
    20
 73
    16
 74
     0
 42
0.0000000001
 43
0.0000000001
 12
1.0
 22
0.0
 32
0.0
 13
1.0
 23
0.0
 33
0.0
 40
0.0
 40
0.0
 40
0.0
 40
0.0
 40
0.2
 40
0.2
 40
0.2
 40
0.2
 40
0.4
 40
0.4
 40
0.4
 40
0.4
 40
0.6
 40
0.6
 40
0.6
 40
0.6
 40
1.0
 40
1.0
 40
1.0
 40
1.0
 10
-9.1718
 20
-67.9708
 30
0.0
 10
-9.1718
 20
-67.9708
 30
0.0
 10
-9.1713
 20
-89.353
 30
0.0
 10
-9.1713
 20
-89.353
 30
0.0
 10
-9.1713
 20
-89.353
 30
0.0
 10
-9.1713
 20
-89.353
 30
0.0
 10
-1.6722
 20
-89.3468
 30
0.0
 10
-1.6722
 20
-89.3468
 30
0.0
 10
-1.6722
 20
-89.3468
 30
0.0
 10
-0.3004
 20
-87.6333
 30
0.0
 10
2.0597
 20
-85.6818
 30
0.0
 10
-0.0164
 20
-83.3385
 30
0.0
 10
-0.0164
 20
-83.3385
 30
0.0
 10
-2.0989
 20
-80.988
 30
0.0
 10
-7.6114
 20
-73.2366
 30
0.0
 10
-9.1718
 20
-67.9708
 30
0.0
  0
SPLINE
  5
46
330
1F
100
AcDbEntity
  8
layer 1
 62
     7
370
     9
100
AcDbSpline
210
0.0
220
0.0
230
1.0
 70
    11
 71
     3
 72
    60
 73
    56
 74
     0
 42
0.0000000001
 43
0.0000000001
 12
1.0
 22
0.0
 32
0.0
 13
1.0
 23
0.0
 33
0.0
 40
0.0
 40
0.0
 40
0.0
 40
0.0
 40
0.0666666666666667
 40
0.0666666666666667
 40
0.0666666666666667
 40
0.0666666666666667
 40
0.1333333333333333
 40
0.1333333333333333
 40
0.1333333333333333
 40
0.1333333333333333
 40
0.2
 40
0.2
 40
0.2
 40
0.2
 40
0.2666666666666667
 40
0.2666666666666667
 40
0.2666666666666667
 40
0.2666666666666667
 40
0.3333333333333333
 40
0.3333333333333333
 40
0.3333333333333333
 40
0.3333333333333333
 40
0.4
 40
0.4
 40
0.4
 40
0.4
 40
0.4666666666666667
 40
0.4666666666666667
 40
0.4666666666666667
 40
0.4666666666666667
 40
0.5333333333333333
 40
0.5333333333333333
 40
0.5333333333333333
 40
0.5333333333333333
 40
0.6
 40
0.6
 40
0.6
 40
0.6
 40
0.6666666666666666
 40
0.6666666666666666
 40
0.6666666666666666
 40
0.6666666666666666
 40
0.7333333333333333
 40
0.7333333333333333
 40
0.7333333333333333
 40
0.7333333333333333
 40
0.8
 40
0.8
 40
0.8
 40
0.8
 40
0.8666666666666667
 40
0.8666666666666667
 40
0.8666666666666667
 40
0.8666666666666667
 40
1.0
 40
1.0
 40
1.0
 40
1.0
 10
-9.1726
 20
-32.2124
 30
0.0
 10
-9.1726
 20
-32.2124
 30
0.0
 10
-9.1724
 20
-40.0839
 30
0.0
 10
-9.1724
 20
-40.0839
 30
0.0
 10
-9.1724
 20
-40.0839
 30
0.0
 10
-8.1903
 20
-33.809
 30
0.0
 10
-2.3863
 20
-34.5251
 30
0.0
 10
-0.8523
 20
-36.3245
 30
0.0
 10
-0.8523
 20
-36.3245
 30
0.0
 10
0.7555
 20
-38.2104
 30
0.0
 10
0.311
 20
-40.292
 30
0.0
 10
-0.7982
 20
-41.6066
 30
0.0
 10
-0.7982
 20
-41.6066
 30
0.0
 10
-0.5451
 20
-39.4885
 30
0.0
 10
-2.108
 20
-38.3105
 30
0.0
 10
-3.3234
 20
-38.3052
 30
0.0
 10
-3.3234
 20
-38.3052
 30
0.0
 10
-10.2596
 20
-38.2741
 30
0.0
 10
-6.5029
 20
-47.7097
 30
0.0
 10
-1.1017
 20
-47.1397
 30
0.0
 10
-1.1017
 20
-47.1397
 30
0.0
 10
-1.5914
 20
-46.8873
 30
0.0
 10
-2.0551
 20
-46.2048
 30
0.0
 10
-2.3589
 20
-45.1652
 30
0.0
 10
-2.3589
 20
-45.1652
 30
0.0
 10
-0.502
 20
-46.2639
 30
0.0
 10
0.8352
 20
-46.9957
 30
0.0
 10
2.6118
 20
-46.5305
 30
0.0
 10
2.6118
 20
-46.5305
 30
0.0
 10
3.2556
 20
-46.362
 30
0.0
 10
3.8291
 20
-46.0708
 30
0.0
 10
4.3024
 20
-45.6832
 30
0.0
 10
4.3024
 20
-45.6832
 30
0.0
 10
4.9989
 20
-45.1129
 30
0.0
 10
6.2994
 20
-44.0886
 30
0.0
 10
6.6803
 20
-42.3623
 30
0.0
 10
6.6803
 20
-42.3623
 30
0.0
 10
6.7828
 20
-41.8981
 30
0.0
 10
6.8652
 20
-41.1222
 30
0.0
 10
6.8237
 20
-40.8611
 30
0.0
 10
6.8237
 20
-40.8611
 30
0.0
 10
3.6145
 20
-40.2509
 30
0.0
 10
1.9284
 20
-39.04
 30
0.0
 10
0.0845
 20
-37.3512
 30
0.0
 10
0.0845
 20
-37.3512
 30
0.0
 10
-2.2535
 20
-35.2099
 30
0.0
 10
-3.5242
 20
-31.455
 30
0.0
 10
-3.4917
 20
-29.8931
 30
0.0
 10
-3.4917
 20
-29.8931
 30
0.0
 10
-3.7564
 20
-32.9175
 30
0.0
 10
-4.7461
 20
-34.9865
 30
0.0
 10
-6.0896
 20
-35.4936
 30
0.0
 10
-6.0896
 20
-35.4936
 30
0.0
 10
-7.8267
 20
-36.1492
 30
0.0
 10
-8.9633
 20
-33.8047
 30
0.0
 10
-9.1726
 20
-32.2124
 30
0.0
  0
SPLINE
  5
47
330
1F
100
AcDbEntity
  8
layer 1
 62
     7
370
     9
100
AcDbSpline
210
0.0
220
0.0
230
1.0
 70
    11
 71
     3
 72
    24
 73
    20
 74
     0
 42
0.0000000001
 43
0.0000000001
 12
1.0
 22
0.0
 32
0.0
 13
1.0
 23
0.0
 33
0.0
 40
0.0
 40
0.0
 40
0.0
 40
0.0
 40
0.1666666666666667
 40
0.1666666666666667
 40
0.1666666666666667
 40
0.1666666666666667
 40
0.3333333333333333
 40
0.3333333333333333
 40
0.3333333333333333
 40
0.3333333333333333
 40
0.5
 40
0.5
 40
0.5
 40
0.5
 40
0.6666666666666666
 40
0.6666666666666666
 40
0.6666666666666666
 40
0.6666666666666666
 40
1.0
 40
1.0
 40
1.0
 40
1.0
 10
-9.1727
 20
-26.022
 30
0.0
 10
-9.1727
 20
-26.022
 30
0.0
 10
-9.1726
 20
-31.2567
 30
0.0
 10
-9.1726
 20
-31.2567
 30
0.0
 10
-9.1726
 20
-31.2567
 30
0.0
 10
-8.1505
 20
-32.5144
 30
0.0
 10
-7.012
 20
-33.0102
 30
0.0
 10
-6.3187
 20
-32.7679
 30
0.0
 10
-6.3187
 20
-32.7679
 30
0.0
 10
-4.2558
 20
-32.0475
 30
0.0
 10
-4.1463
 20
-29.5268
 30
0.0
 10
-4.1161
 20
-28.624
 30
0.0
 10
-4.1161
 20
-28.624
 30
0.0
 10
-4.1463
 20
-27.7212
 30
0.0
 10
-4.2287
 20
-25.1993
 30
0.0
 10
-6.2914
 20
-24.4789
 30
0.0
 10
-6.2914
 20
-24.4789
 30
0.0
 10
-6.9848
 20
-24.2368
 30
0.0
 10
-8.1506
 20
-24.7643
 30
0.0
 10
-9.1727
 20
-26.022
 30
0.0
  0
SPLINE
  5
48
330
1F
100
AcDbEntity
  8
layer 1
 62
     7
370
     9
100
AcDbSpline
210
0.0
220
0.0
230
1.0
 70
    11
 71
     3
 72
    24
 73
    20
 74
     0
 42
0.0000000001
 43
0.0000000001
 12
1.0
 22
0.0
 32
0.0
 13
1.0
 23
0.0
 33
0.0
 40
0.0
 40
0.0
 40
0.0
 40
0.0
 40
0.1666666666666667
 40
0.1666666666666667
 40
0.1666666666666667
 40
0.1666666666666667
 40
0.3333333333333333
 40
0.3333333333333333
 40
0.3333333333333333
 40
0.3333333333333333
 40
0.5
 40
0.5
 40
0.5
 40
0.5
 40
0.6666666666666666
 40
0.6666666666666666
 40
0.6666666666666666
 40
0.6666666666666666
 40
1.0
 40
1.0
 40
1.0
 40
1.0
 10
-9.1729
 20
-4.0112
 30
0.0
 10
-9.1729
 20
-4.0112
 30
0.0
 10
-9.1728
 20
-13.6681
 30
0.0
 10
-9.1728
 20
-13.6681
 30
0.0
 10
-9.1728
 20
-13.6681
 30
0.0
 10
-9.0437
 20
-11.8538
 30
0.0
 10
-8.5496
 20
-9.8254
 30
0.0
 10
-7.6724
 20
-8.0867
 30
0.0
 10
-7.6724
 20
-8.0867
 30
0.0
 10
-6.903
 20
-6.5619
 30
0.0
 10
-5.2359
 20
-4.8268
 30
0.0
 10
-4.1598
 20
-4.3086
 30
0.0
 10
-4.1598
 20
-4.3086
 30
0.0
 10
-5.415
 20
-4.3788
 30
0.0
 10
-5.5248
 20
-4.7986
 30
0.0
 10
-6.6501
 20
-4.7942
 30
0.0
 10
-6.6501
 20
-4.7942
 30
0.0
 10
-7.1512
 20
-4.7922
 30
0.0
 10
-8.5048
 20
-4.4009
 30
0.0
 10
-9.1729
 20
-4.0112
 30
0.0
  0
SPLINE
  5
49
330
1F
100
AcDbEntity
  8
layer 1
 62
     7
370
     9
100
AcDbSpline
210
0.0
220
0.0
230
1.0
 70
    11
 71
     3
 72
    40
 73
    36
 74
     0
 42
0.0000000001
 43
0.0000000001
 12
1.0
 22
0.0
 32
0.0
 13
1.0
 23
0.0
 33
0.0
 40
0.0
 40
0.0
 40
0.0
 40
0.0
 40
0.1
 40
0.1
 40
0.1
 40
0.1
 40
0.2
 40
0.2
 40
0.2
 40
0.2
 40
0.3
 40
0.3
 40
0.3
 40
0.3
 40
0.4
 40
0.4
 40
0.4
 40
0.4
 40
0.5
 40
0.5
 40
0.5
 40
0.5
 40
0.6
 40
0.6
 40
0.6
 40
0.6
 40
0.7
 40
0.7
 40
0.7
 40
0.7
 40
0.8
 40
0.8
 40
0.8
 40
0.8
 40
1.0
 40
1.0
 40
1.0
 40
1.0
 10
-0.4272
 20
12.8709
 30
0.0
 10
0.7008
 20
11.1331
 30
0.0
 10
0.209
 20
9.2974
 30
0.0
 10
-0.7982
 20
8.1037
 30
0.0
 10
-0.7982
 20
8.1037
 30
0.0
 10
-0.5451
 20
10.2218
 30
0.0
 10
-2.1078
 20
11.419
 30
0.0
 10
-3.3234
 20
11.4052
 30
0.0
 10
-3.3234
 20
11.4052
 30
0.0
 10
-6.4172
 20
11.3698
 30
0.0
 10
-6.9325
 20
7.5333
 30
0.0
 10
-6.3128
 20
5.3194
 30
0.0
 10
-6.3128
 20
5.3194
 30
0.0
 10
-5.9766
 20
6.809
 30
0.0
 10
-4.5695
 20
7.0778
 30
0.0
 10
-3.2176
 20
7.1882
 30
0.0
 10
-3.2176
 20
7.1882
 30
0.0
 10
-5.3758
 20
4.7194
 30
0.0
 10
-4.9162
 20
0.0592
 30
0.0
 10
-2.7858
 20
-0.5964
 30
0.0
 10
-2.7858
 20
-0.5964
 30
0.0
 10
1.3383
 20
-1.8657
 30
0.0
 10
5.8673
 20
3.6653
 30
0.0
 10
6.6803
 20
7.3481
 30
0.0
 10
6.6803
 20
7.3481
 30
0.0
 10
6.7828
 20
7.8125
 30
0.0
 10
6.8652
 20
8.5882
 30
0.0
 10
6.8237
 20
8.8492
 30
0.0
 10
6.8237
 20
8.8492
 30
0.0
 10
3.6145
 20
9.4594
 30
0.0
 10
1.9284
 20
10.6704
 30
0.0
 10
0.0845
 20
12.3591
 30
0.0
 10
0.0845
 20
12.3591
 30
0.0
 10
-0.0921
 20
12.5209
 30
0.0
 10
-0.2627
 20
12.6922
 30
0.0
 10
-0.4272
 20
12.8709
 30
0.0
  0
SPLINE
  5
4A
330
1F
100
AcDbEntity
  8
layer 1
 62
     7
370
     9
100
AcDbSpline
210
0.0
220
0.0
230
1.0
 70
    11
 71
     3
 72
    28
 73
    24
 74
     0
 42
0.0000000001
 43
0.0000000001
 12
1.0
 22
0.0
 32
0.0
 13
1.0
 23
0.0
 33
0.0
 40
0.0
 40
0.0
 40
0.0
 40
0.0
 40
0.1428571428571428
 40
0.1428571428571428
 40
0.1428571428571428
 40
0.1428571428571428
 40
0.2857142857142857
 40
0.2857142857142857
 40
0.2857142857142857
 40
0.2857142857142857
 40
0.4285714285714285
 40
0.4285714285714285
 40
0.4285714285714285
 40
0.4285714285714285
 40
0.5714285714285714
 40
0.5714285714285714
 40
0.5714285714285714
 40
0.5714285714285714
 40
0.7142857142857143
 40
0.7142857142857143
 40
0.7142857142857143
 40
0.7142857142857143
 40
1.0
 40
1.0
 40
1.0
 40
1.0
 10
-1.1083
 20
13.6977
 30
0.0
 10
-2.6812
 20
15.822
 30
0.0
 10
-3.5181
 20
18.5462
 30
0.0
 10
-3.4917
 20
19.8173
 30
0.0
 10
-3.4917
 20
19.8173
 30
0.0
 10
-3.7564
 20
16.7928
 30
0.0
 10
-4.7461
 20
14.7239
 30
0.0
 10
-6.0896
 20
14.2168
 30
0.0
 10
-6.0896
 20
14.2168
 30
0.0
 10
-7.7627
 20
13.5852
 30
0.0
 10
-8.9372
 20
15.532
 30
0.0
 10
-9.1736
 20
17.2097
 30
0.0
 10
-9.1736
 20
17.2097
 30
0.0
 10
-9.1736
 20
17.2097
 30
0.0
 10
-9.1733
 20
8.0535
 30
0.0
 10
-9.1733
 20
8.0535
 30
0.0
 10
-9.1733
 20
8.0535
 30
0.0
 10
-9.1659
 20
8.2712
 30
0.0
 10
-9.1341
 20
8.4769
 30
0.0
 10
-9.1194
 20
8.6775
 30
0.0
 10
-9.1194
 20
8.6775
 30
0.0
 10
-8.6093
 20
15.5901
 30
0.0
 10
-3.0553
 20
15.3485
 30
0.0
 10
-1.1083
 20
13.6977
 30
0.0
  0
SPLINE
  5
4B
330
1F
100
AcDbEntity
  8
layer 1
 62
     7
370
     9
100
AcDbSpline
210
0.0
220
0.0
230
1.0
 70
    11
 71
     3
 72
    24
 73
    20
 74
     0
 42
0.0000000001
 43
0.0000000001
 12
1.0
 22
0.0
 32
0.0
 13
1.0
 23
0.0
 33
0.0
 40
0.0
 40
0.0
 40
0.0
 40
0.0
 40
0.1666666666666667
 40
0.1666666666666667
 40
0.1666666666666667
 40
0.1666666666666667
 40
0.3333333333333333
 40
0.3333333333333333
 40
0.3333333333333333
 40
0.3333333333333333
 40
0.5
 40
0.5
 40
0.5
 40
0.5
 40
0.6666666666666666
 40
0.6666666666666666
 40
0.6666666666666666
 40
0.6666666666666666
 40
1.0
 40
1.0
 40
1.0
 40
1.0
 10
-1.0946
 20
28.4935
 30
0.0
 10
-3.0263
 20
26.8267
 30
0.0
 10
-8.6614
 20
26.564
 30
0.0
 10
-9.1739
 20
33.5027
 30
0.0
 10
-9.1739
 20
33.5027
 30
0.0
 10
-9.1739
 20
33.5027
 30
0.0
 10
-9.1737
 20
25.0244
 30
0.0
 10
-9.1737
 20
25.0244
 30
0.0
 10
-9.1737
 20
25.0244
 30
0.0
 10
-8.9222
 20
26.6906
 30
0.0
 10
-7.7467
 20
28.5814
 30
0.0
 10
-6.0896
 20
27.9559
 30
0.0
 10
-6.0896
 20
27.9559
 30
0.0
 10
-4.7462
 20
27.4488
 30
0.0
 10
-3.7564
 20
25.3798
 30
0.0
 10
-3.4917
 20
22.3554
 30
0.0
 10
-3.4917
 20
22.3554
 30
0.0
 10
-3.5182
 20
23.6301
 30
0.0
 10
-2.6765
 20
26.3665
 30
0.0
 10
-1.0946
 20
28.4935
 30
0.0
  0
SPLINE
  5
4C
330
1F
100
AcDbEntity
  8
layer 1
 62
     7
370
     9
100
AcDbSpline
210
0.0
220
0.0
230
1.0
 70
    11
 71
     3
 72
    40
 73
    36
 74
     0
 42
0.0000000001
 43
0.0000000001
 12
1.0
 22
0.0
 32
0.0
 13
1.0
 23
0.0
 33
0.0
 40
0.0
 40
0.0
 40
0.0
 40
0.0
 40
0.1
 40
0.1
 40
0.1
 40
0.1
 40
0.2
 40
0.2
 40
0.2
 40
0.2
 40
0.3
 40
0.3
 40
0.3
 40
0.3
 40
0.4
 40
0.4
 40
0.4
 40
0.4
 40
0.5
 40
0.5
 40
0.5
 40
0.5
 40
0.6
 40
0.6
 40
0.6
 40
0.6
 40
0.7
 40
0.7
 40
0.7
 40
0.7
 40
0.8
 40
0.8
 40
0.8
 40
0.8
 40
1.0
 40
1.0
 40
1.0
 40
1.0
 10
-0.3816
 20
29.3512
 30
0.0
 10
-0.2313
 20
29.5121
 30
0.0
 10
-0.0759
 20
29.6668
 30
0.0
 10
0.0845
 20
29.8135
 30
0.0
 10
0.0845
 20
29.8135
 30
0.0
 10
1.9283
 20
31.5023
 30
0.0
 10
3.6145
 20
32.7132
 30
0.0
 10
6.8237
 20
33.3234
 30
0.0
 10
6.8237
 20
33.3234
 30
0.0
 10
6.8652
 20
33.5845
 30
0.0
 10
6.7828
 20
34.3602
 30
0.0
 10
6.6803
 20
34.8246
 30
0.0
 10
6.6803
 20
34.8246
 30
0.0
 10
5.8673
 20
38.5073
 30
0.0
 10
1.3383
 20
44.0383
 30
0.0
 10
-2.7858
 20
42.769
 30
0.0
 10
-2.7858
 20
42.769
 30
0.0
 10
-4.9162
 20
42.1134
 30
0.0
 10
-5.3758
 20
37.4533
 30
0.0
 10
-3.2176
 20
34.9845
 30
0.0
 10
-3.2176
 20
34.9845
 30
0.0
 10
-4.5695
 20
35.0949
 30
0.0
 10
-5.9766
 20
35.3637
 30
0.0
 10
-6.3128
 20
36.8533
 30
0.0
 10
-6.3128
 20
36.8533
 30
0.0
 10
-6.9325
 20
34.6394
 30
0.0
 10
-6.4172
 20
30.8029
 30
0.0
 10
-3.3234
 20
30.7675
 30
0.0
 10
-3.3234
 20
30.7675
 30
0.0
 10
-2.1078
 20
30.7537
 30
0.0
 10
-0.5451
 20
31.9508
 30
0.0
 10
-0.7982
 20
34.0689
 30
0.0
 10
-0.7982
 20
34.0689
 30
0.0
 10
0.1954
 20
32.8914
 30
0.0
 10
0.6891
 20
31.0678
 30
0.0
 10
-0.3816
 20
29.3512
 30
0.0
  0
SPLINE
  5
4D
330
1F
100
AcDbEntity
  8
layer 1
 62
     7
370
     9
100
AcDbSpline
210
0.0
220
0.0
230
1.0
 70
    11
 71
     3
 72
    40
 73
    36
 74
     0
 42
0.0000000001
 43
0.0000000001
 12
1.0
 22
0.0
 32
0.0
 13
1.0
 23
0.0
 33
0.0
 40
0.0
 40
0.0
 40
0.0
 40
0.0
 40
0.1
 40
0.1
 40
0.1
 40
0.1
 40
0.2
 40
0.2
 40
0.2
 40
0.2
 40
0.3
 40
0.3
 40
0.3
 40
0.3
 40
0.4
 40
0.4
 40
0.4
 40
0.4
 40
0.5
 40
0.5
 40
0.5
 40
0.5
 40
0.6
 40
0.6
 40
0.6
 40
0.6
 40
0.7
 40
0.7
 40
0.7
 40
0.7
 40
0.8
 40
0.8
 40
0.8
 40
0.8
 40
1.0
 40
1.0
 40
1.0
 40
1.0
 10
-0.1986
 20
62.2562
 30
0.0
 10
-0.1789
 20
62.2182
 30
0.0
 10
-0.1597
 20
62.1801
 30
0.0
 10
-0.1414
 20
62.142
 30
0.0
 10
-0.1414
 20
62.142
 30
0.0
 10
0.6214
 20
60.5533
 30
0.0
 10
0.1157
 20
58.8959
 30
0.0
 10
-0.7982
 20
57.8129
 30
0.0
 10
-0.7982
 20
57.8129
 30
0.0
 10
-0.5451
 20
59.9309
 30
0.0
 10
-2.1078
 20
61.1281
 30
0.0
 10
-3.3234
 20
61.1143
 30
0.0
 10
-3.3234
 20
61.1143
 30
0.0
 10
-6.4172
 20
61.0789
 30
0.0
 10
-6.9325
 20
57.2424
 30
0.0
 10
-6.3128
 20
55.0285
 30
0.0
 10
-6.3128
 20
55.0285
 30
0.0
 10
-5.9766
 20
56.5181
 30
0.0
 10
-4.5695
 20
56.7869
 30
0.0
 10
-3.2176
 20
56.8973
 30
0.0
 10
-3.2176
 20
56.8973
 30
0.0
 10
-5.3758
 20
54.4285
 30
0.0
 10
-4.9162
 20
49.7684
 30
0.0
 10
-2.7858
 20
49.1127
 30
0.0
 10
-2.7858
 20
49.1127
 30
0.0
 10
1.3383
 20
47.8434
 30
0.0
 10
5.8673
 20
53.3745
 30
0.0
 10
6.6803
 20
57.0572
 30
0.0
 10
6.6803
 20
57.0572
 30
0.0
 10
6.7828
 20
57.5216
 30
0.0
 10
6.8652
 20
58.2973
 30
0.0
 10
6.8237
 20
58.5584
 30
0.0
 10
6.8237
 20
58.5584
 30
0.0
 10
4.1422
 20
59.0682
 30
0.0
 10
1.7352
 20
60.3473
 30
0.0
 10
-0.1986
 20
62.2562
 30
0.0
  0
SPLINE
  5
4E
330
1F
100
AcDbEntity
  8
layer 1
 62
     7
370
     9
100
AcDbSpline
210
0.0
220
0.0
230
1.0
 70
    11
 71
     3
 72
    28
 73
    24
 74
     0
 42
0.0000000001
 43
0.0000000001
 12
1.0
 22
0.0
 32
0.0
 13
1.0
 23
0.0
 33
0.0
 40
0.0
 40
0.0
 40
0.0
 40
0.0
 40
0.1428571428571428
 40
0.1428571428571428
 40
0.1428571428571428
 40
0.1428571428571428
 40
0.2857142857142857
 40
0.2857142857142857
 40
0.2857142857142857
 40
0.2857142857142857
 40
0.4285714285714285
 40
0.4285714285714285
 40
0.4285714285714285
 40
0.4285714285714285
 40
0.5714285714285714
 40
0.5714285714285714
 40
0.5714285714285714
 40
0.5714285714285714
 40
0.7142857142857143
 40
0.7142857142857143
 40
0.7142857142857143
 40
0.7142857142857143
 40
1.0
 40
1.0
 40
1.0
 40
1.0
 10
-1.2184
 20
63.5585
 30
0.0
 10
-2.7202
 20
65.6592
 30
0.0
 10
-3.5173
 20
68.2853
 30
0.0
 10
-3.4917
 20
69.5264
 30
0.0
 10
-3.4917
 20
69.5264
 30
0.0
 10
-3.7564
 20
66.5019
 30
0.0
 10
-4.7461
 20
64.433
 30
0.0
 10
-6.0896
 20
63.9259
 30
0.0
 10
-6.0896
 20
63.9259
 30
0.0
 10
-7.7676
 20
63.2925
 30
0.0
 10
-8.943
 20
65.2561
 30
0.0
 10
-9.1748
 20
66.9371
 30
0.0
 10
-9.1748
 20
66.9371
 30
0.0
 10
-9.1748
 20
66.9371
 30
0.0
 10
-9.1746
 20
57.7591
 30
0.0
 10
-9.1746
 20
57.7591
 30
0.0
 10
-9.1746
 20
57.7591
 30
0.0
 10
-9.1673
 20
57.9754
 30
0.0
 10
-9.134
 20
58.1873
 30
0.0
 10
-9.1194
 20
58.3867
 30
0.0
 10
-9.1194
 20
58.3867
 30
0.0
 10
-8.6229
 20
65.1131
 30
0.0
 10
-3.2939
 20
65.0883
 30
0.0
 10
-1.2184
 20
63.5585
 30
0.0
  0
SPLINE
  5
4F
330
1F
100
AcDbEntity
  8
layer 1
 62
     7
370
     9
100
AcDbSpline
210
0.0
220
0.0
230
1.0
 70
    11
 71
     3
 72
    24
 73
    20
 74
     0
 42
0.0000000001
 43
0.0000000001
 12
1.0
 22
0.0
 32
0.0
 13
1.0
 23
0.0
 33
0.0
 40
0.0
 40
0.0
 40
0.0
 40
0.0
 40
0.1666666666666667
 40
0.1666666666666667
 40
0.1666666666666667
 40
0.1666666666666667
 40
0.3333333333333333
 40
0.3333333333333333
 40
0.3333333333333333
 40
0.3333333333333333
 40
0.5
 40
0.5
 40
0.5
 40
0.5
 40
0.6666666666666666
 40
0.6666666666666666
 40
0.6666666666666666
 40
0.6666666666666666
 40
1.0
 40
1.0
 40
1.0
 40
1.0
 10
-1.0901
 20
78.2551
 30
0.0
 10
-2.9102
 20
76.6451
 30
0.0
 10
-8.2384
 20
76.2648
 30
0.0
 10
-9.1753
 20
82.251
 30
0.0
 10
-9.1753
 20
82.251
 30
0.0
 10
-9.1753
 20
82.251
 30
0.0
 10
-9.1749
 20
74.3891
 30
0.0
 10
-9.1749
 20
74.3891
 30
0.0
 10
-9.1749
 20
74.3891
 30
0.0
 10
-8.9693
 20
75.9817
 30
0.0
 10
-7.8304
 20
78.3221
 30
0.0
 10
-6.0896
 20
77.665
 30
0.0
 10
-6.0896
 20
77.665
 30
0.0
 10
-4.7461
 20
77.158
 30
0.0
 10
-3.7564
 20
75.089
 30
0.0
 10
-3.4917
 20
72.0645
 30
0.0
 10
-3.4917
 20
72.0645
 30
0.0
 10
-3.5182
 20
73.3423
 30
0.0
 10
-2.679
 20
76.126
 30
0.0
 10
-1.0901
 20
78.2551
 30
0.0
  0
SPLINE
  5
50
330
1F
100
AcDbEntity
  8
layer 1
 62
     7
370
     9
100
AcDbSpline
210
0.0
220
0.0
230
1.0
 70
    11
 71
     3
 72
    44
 73
    40
 74
     0
 42
0.0000000001
 43
0.0000000001
 12
1.0
 22
0.0
 32
0.0
 13
1.0
 23
0.0
 33
0.0
 40
0.0
 40
0.0
 40
0.0
 40
0.0
 40
0.0909090909090909
 40
0.0909090909090909
 40
0.0909090909090909
 40
0.0909090909090909
 40
0.1818181818181818
 40
0.1818181818181818
 40
0.1818181818181818
 40
0.1818181818181818
 40
0.2727272727272727
 40
0.2727272727272727
 40
0.2727272727272727
 40
0.2727272727272727
 40
0.3636363636363636
 40
0.3636363636363636
 40
0.3636363636363636
 40
0.3636363636363636
 40
0.4545454545454545
 40
0.4545454545454545
 40
0.4545454545454545
 40
0.4545454545454545
 40
0.5454545454545454
 40
0.5454545454545454
 40
0.5454545454545454
 40
0.5454545454545454
 40
0.6363636363636364
 40
0.6363636363636364
 40
0.6363636363636364
 40
0.6363636363636364
 40
0.7272727272727273
 40
0.7272727272727273
 40
0.7272727272727273
 40
0.7272727272727273
 40
0.8181818181818182
 40
0.8181818181818182
 40
0.8181818181818182
 40
0.8181818181818182
 40
1.0
 40
1.0
 40
1.0
 40
1.0
 10
-0.2845
 20
79.1624
 30
0.0
 10
-0.1647
 20
79.2868
 30
0.0
 10
-0.0415
 20
79.4073
 30
0.0
 10
0.0845
 20
79.5226
 30
0.0
 10
0.0845
 20
79.5226
 30
0.0
 10
1.9283
 20
81.2113
 30
0.0
 10
3.6145
 20
82.4224
 30
0.0
 10
6.8237
 20
83.0325
 30
0.0
 10
6.8237
 20
83.0325
 30
0.0
 10
6.8652
 20
83.2936
 30
0.0
 10
6.7828
 20
84.0695
 30
0.0
 10
6.6803
 20
84.5337
 30
0.0
 10
6.6803
 20
84.5337
 30
0.0
 10
6.2994
 20
86.26
 30
0.0
 10
4.9989
 20
87.2843
 30
0.0
 10
4.3024
 20
87.8547
 30
0.0
 10
4.3024
 20
87.8547
 30
0.0
 10
3.8291
 20
88.2423
 30
0.0
 10
3.2556
 20
88.5334
 30
0.0
 10
2.6118
 20
88.702
 30
0.0
 10
2.6118
 20
88.702
 30
0.0
 10
0.8352
 20
89.1672
 30
0.0
 10
-0.502
 20
88.4353
 30
0.0
 10
-2.3589
 20
87.3366
 30
0.0
 10
-2.3589
 20
87.3366
 30
0.0
 10
-2.0551
 20
88.3762
 30
0.0
 10
-1.5914
 20
89.0588
 30
0.0
 10
-1.1017
 20
89.3112
 30
0.0
 10
-1.1017
 20
89.3112
 30
0.0
 10
-6.5029
 20
89.8811
 30
0.0
 10
-10.2596
 20
80.4456
 30
0.0
 10
-3.3234
 20
80.4766
 30
0.0
 10
-3.3234
 20
80.4766
 30
0.0
 10
-2.108
 20
80.4819
 30
0.0
 10
-0.5451
 20
81.66
 30
0.0
 10
-0.7982
 20
83.778
 30
0.0
 10
-0.7982
 20
83.778
 30
0.0
 10
0.1748
 20
82.625
 30
0.0
 10
0.7018
 20
80.8461
 30
0.0
 10
-0.2845
 20
79.1624
 30
0.0
  0
SPLINE
  5
51
330
1F
100
AcDbEntity
  8
layer 1
 62
     7
370
     9
100
AcDbSpline
210
0.0
220
0.0
230
1.0
 70
    11
 71
     3
 72
    24
 73
    20
 74
     0
 42
0.0000000001
 43
0.0000000001
 12
1.0
 22
0.0
 32
0.0
 13
1.0
 23
0.0
 33
0.0
 40
0.0
 40
0.0
 40
0.0
 40
0.0
 40
0.1666666666666667
 40
0.1666666666666667
 40
0.1666666666666667
 40
0.1666666666666667
 40
0.3333333333333333
 40
0.3333333333333333
 40
0.3333333333333333
 40
0.3333333333333333
 40
0.5
 40
0.5
 40
0.5
 40
0.5
 40
0.6666666666666666
 40
0.6666666666666666
 40
0.6666666666666666
 40
0.6666666666666666
 40
1.0
 40
1.0
 40
1.0
 40
1.0
 10
-9.1762
 20
101.1112
 30
0.0
 10
-9.1762
 20
101.1112
 30
0.0
 10
-9.1753
 20
84.0859
 30
0.0
 10
-9.1753
 20
84.0859
 30
0.0
 10
-9.1753
 20
84.0859
 30
0.0
 10
-8.7973
 20
88.2127
 30
0.0
 10
-3.5955
 20
91.1505
 30
0.0
 10
0.2018
 20
90.412
 30
0.0
 10
0.2018
 20
90.412
 30
0.0
 10
-3.1092
 20
93.1826
 30
0.0
 10
-5.2645
 20
91.3319
 30
0.0
 10
-7.4323
 20
92.2959
 30
0.0
 10
-7.4323
 20
92.2959
 30
0.0
 10
-5.1742
 20
92.8263
 30
0.0
 10
-5.0301
 20
94.2008
 30
0.0
 10
-2.3876
 20
93.4227
 30
0.0
 10
-2.3876
 20
93.4227
 30
0.0
 10
-6.732
 20
96.1619
 30
0.0
 10
-8.8515
 20
98.3608
 30
0.0
 10
-9.1762
 20
101.1112
 30
0.0
  0
SPLINE
  5
52
330
1F
100
AcDbEntity
  8
layer 1
 62
     7
370
     9
100
AcDbSpline
210
0.0
220
0.0
230
1.0
 70
    11
 71
     3
 72
    16
 73
    12
 74
     0
 42
0.0000000001
 43
0.0000000001
 12
1.0
 22
0.0
 32
0.0
 13
1.0
 23
0.0
 33
0.0
 40
0.0
 40
0.0
 40
0.0
 40
0.0
 40
0.25
 40
0.25
 40
0.25
 40
0.25
 40
0.5
 40
0.5
 40
0.5
 40
0.5
 40
1.0
 40
1.0
 40
1.0
 40
1.0
 10
-9.0091
 20
104.8606
 30
0.0
 10
-7.4485
 20
110.1266
 30
0.0
 10
-2.0993
 20
109.6742
 30
0.0
 10
-0.0164
 20
112.0249
 30
0.0
 10
-0.0164
 20
112.0249
 30
0.0
 10
2.0599
 20
114.3686
 30
0.0
 10
0.1807
 20
115.6539
 30
0.0
 10
-1.1911
 20
117.3674
 30
0.0
 10
-1.1911
 20
117.3674
 30
0.0
 10
-5.4561
 20
114.506
 30
0.0
 10
-8.3097
 20
109.884
 30
0.0
 10
-9.0091
 20
104.8606
 30
0.0
  0
SPLINE
  5
53
330
1F
100
AcDbEntity
  8
layer 1
 62
     7
370
     9
100
AcDbSpline
210
0.0
220
0.0
230
1.0
 70
    11
 71
     3
 72
    24
 73
    20
 74
     0
 42
0.0000000001
 43
0.0000000001
 12
1.0
 22
0.0
 32
0.0
 13
1.0
 23
0.0
 33
0.0
 40
0.0
 40
0.0
 40
0.0
 40
0.0
 40
0.1666666666666667
 40
0.1666666666666667
 40
0.1666666666666667
 40
0.1666666666666667
 40
0.3333333333333333
 40
0.3333333333333333
 40
0.3333333333333333
 40
0.3333333333333333
 40
0.5
 40
0.5
 40
0.5
 40
0.5
 40
0.6666666666666666
 40
0.6666666666666666
 40
0.6666666666666666
 40
0.6666666666666666
 40
1.0
 40
1.0
 40
1.0
 40
1.0
 10
-9.1749
 20
73.4282
 30
0.0
 10
-9.1749
 20
73.4282
 30
0.0
 10
-9.1748
 20
68.152
 30
0.0
 10
-9.1748
 20
68.152
 30
0.0
 10
-9.1748
 20
68.152
 30
0.0
 10
-8.1527
 20
66.8942
 30
0.0
 10
-7.012
 20
66.4094
 30
0.0
 10
-6.3187
 20
66.6515
 30
0.0
 10
-6.3187
 20
66.6515
 30
0.0
 10
-4.2559
 20
67.372
 30
0.0
 10
-4.1463
 20
69.8926
 30
0.0
 10
-4.1161
 20
70.7955
 30
0.0
 10
-4.1161
 20
70.7955
 30
0.0
 10
-4.1463
 20
71.6982
 30
0.0
 10
-4.2558
 20
74.2189
 30
0.0
 10
-6.3187
 20
74.9394
 30
0.0
 10
-6.3187
 20
74.9394
 30
0.0
 10
-7.012
 20
75.1816
 30
0.0
 10
-8.1529
 20
74.686
 30
0.0
 10
-9.1749
 20
73.4282
 30
0.0
  0
SPLINE
  5
54
330
1F
100
AcDbEntity
  8
layer 1
 62
     7
370
     9
100
AcDbSpline
210
0.0
220
0.0
230
1.0
 70
    11
 71
     3
 72
    24
 73
    20
 74
     0
 42
0.0000000001
 43
0.0000000001
 12
1.0
 22
0.0
 32
0.0
 13
1.0
 23
0.0
 33
0.0
 40
0.0
 40
0.0
 40
0.0
 40
0.0
 40
0.1666666666666667
 40
0.1666666666666667
 40
0.1666666666666667
 40
0.1666666666666667
 40
0.3333333333333333
 40
0.3333333333333333
 40
0.3333333333333333
 40
0.3333333333333333
 40
0.5
 40
0.5
 40
0.5
 40
0.5
 40
0.6666666666666666
 40
0.6666666666666666
 40
0.6666666666666666
 40
0.6666666666666666
 40
1.0
 40
1.0
 40
1.0
 40
1.0
 10
-9.1746
 20
56.3992
 30
0.0
 10
-9.1746
 20
56.3992
 30
0.0
 10
-9.1742
 20
46.1948
 30
0.0
 10
-9.1742
 20
46.1948
 30
0.0
 10
-9.1742
 20
46.1948
 30
0.0
 10
-8.506
 20
46.5846
 30
0.0
 10
-7.1784
 20
46.9649
 30
0.0
 10
-6.6773
 20
46.9668
 30
0.0
 10
-6.6773
 20
46.9668
 30
0.0
 10
-5.552
 20
46.9713
 30
0.0
 10
-5.4422
 20
46.5514
 30
0.0
 10
-4.187
 20
46.4813
 30
0.0
 10
-4.187
 20
46.4813
 30
0.0
 10
-5.2631
 20
46.9995
 30
0.0
 10
-6.9302
 20
48.7345
 30
0.0
 10
-7.6997
 20
50.2594
 30
0.0
 10
-7.6997
 20
50.2594
 30
0.0
 10
-8.6678
 20
52.1779
 30
0.0
 10
-9.0938
 20
54.4526
 30
0.0
 10
-9.1746
 20
56.3992
 30
0.0
  0
SPLINE
  5
55
330
1F
100
AcDbEntity
  8
layer 1
 62
     7
370
     9
100
AcDbSpline
210
0.0
220
0.0
230
1.0
 70
    11
 71
     3
 72
    24
 73
    20
 74
     0
 42
0.0000000001
 43
0.0000000001
 12
1.0
 22
0.0
 32
0.0
 13
1.0
 23
0.0
 33
0.0
 40
0.0
 40
0.0
 40
0.0
 40
0.0
 40
0.1666666666666667
 40
0.1666666666666667
 40
0.1666666666666667
 40
0.1666666666666667
 40
0.3333333333333333
 40
0.3333333333333333
 40
0.3333333333333333
 40
0.3333333333333333
 40
0.5
 40
0.5
 40
0.5
 40
0.5
 40
0.6666666666666666
 40
0.6666666666666666
 40
0.6666666666666666
 40
0.6666666666666666
 40
1.0
 40
1.0
 40
1.0
 40
1.0
 10
-9.1742
 20
45.6906
 30
0.0
 10
-9.1742
 20
45.6906
 30
0.0
 10
-9.1739
 20
35.5334
 30
0.0
 10
-9.1739
 20
35.5334
 30
0.0
 10
-9.1739
 20
35.5334
 30
0.0
 10
-9.0879
 20
37.4675
 30
0.0
 10
-8.6585
 20
39.7221
 30
0.0
 10
-7.6997
 20
41.6224
 30
0.0
 10
-7.6997
 20
41.6224
 30
0.0
 10
-6.9304
 20
43.1473
 30
0.0
 10
-5.2631
 20
44.8823
 30
0.0
 10
-4.187
 20
45.4005
 30
0.0
 10
-4.187
 20
45.4005
 30
0.0
 10
-5.4422
 20
45.3303
 30
0.0
 10
-5.552
 20
44.9105
 30
0.0
 10
-6.6773
 20
44.9149
 30
0.0
 10
-6.6773
 20
44.9149
 30
0.0
 10
-7.1784
 20
44.9169
 30
0.0
 10
-8.506
 20
45.3008
 30
0.0
 10
-9.1742
 20
45.6906
 30
0.0
  0
SPLINE
  5
56
330
1F
100
AcDbEntity
  8
layer 1
 62
     7
370
     9
100
AcDbSpline
210
0.0
220
0.0
230
1.0
 70
    11
 71
     3
 72
    24
 73
    20
 74
     0
 42
0.0000000001
 43
0.0000000001
 12
1.0
 22
0.0
 32
0.0
 13
1.0
 23
0.0
 33
0.0
 40
0.0
 40
0.0
 40
0.0
 40
0.0
 40
0.1666666666666667
 40
0.1666666666666667
 40
0.1666666666666667
 40
0.1666666666666667
 40
0.3333333333333333
 40
0.3333333333333333
 40
0.3333333333333333
 40
0.3333333333333333
 40
0.5
 40
0.5
 40
0.5
 40
0.5
 40
0.6666666666666666
 40
0.6666666666666666
 40
0.6666666666666666
 40
0.6666666666666666
 40
1.0
 40
1.0
 40
1.0
 40
1.0
 10
-9.1736
 20
23.7444
 30
0.0
 10
-9.1736
 20
23.7444
 30
0.0
 10
-9.1736
 20
18.4245
 30
0.0
 10
-9.1736
 20
18.4245
 30
0.0
 10
-9.1736
 20
18.4245
 30
0.0
 10
-8.1515
 20
17.1668
 30
0.0
 10
-7.012
 20
16.7002
 30
0.0
 10
-6.3187
 20
16.9424
 30
0.0
 10
-6.3187
 20
16.9424
 30
0.0
 10
-4.2558
 20
17.6628
 30
0.0
 10
-4.1463
 20
20.1835
 30
0.0
 10
-4.1161
 20
21.0863
 30
0.0
 10
-4.1161
 20
21.0863
 30
0.0
 10
-4.1463
 20
21.9891
 30
0.0
 10
-4.2559
 20
24.5098
 30
0.0
 10
-6.3187
 20
25.2302
 30
0.0
 10
-6.3187
 20
25.2302
 30
0.0
 10
-7.012
 20
25.4723
 30
0.0
 10
-8.1515
 20
25.0022
 30
0.0
 10
-9.1736
 20
23.7444
 30
0.0
  0
SPLINE
  5
57
330
1F
100
AcDbEntity
  8
layer 1
 62
     7
370
     9
100
AcDbSpline
210
0.0
220
0.0
230
1.0
 70
    11
 71
     3
 72
    24
 73
    20
 74
     0
 42
0.0000000001
 43
0.0000000001
 12
1.0
 22
0.0
 32
0.0
 13
1.0
 23
0.0
 33
0.0
 40
0.0
 40
0.0
 40
0.0
 40
0.0
 40
0.1666666666666667
 40
0.1666666666666667
 40
0.1666666666666667
 40
0.1666666666666667
 40
0.3333333333333333
 40
0.3333333333333333
 40
0.3333333333333333
 40
0.3333333333333333
 40
0.5
 40
0.5
 40
0.5
 40
0.5
 40
0.6666666666666666
 40
0.6666666666666666
 40
0.6666666666666666
 40
0.6666666666666666
 40
1.0
 40
1.0
 40
1.0
 40
1.0
 10
-9.1733
 20
6.6754
 30
0.0
 10
-9.1733
 20
6.6754
 30
0.0
 10
-9.1731
 20
-3.5071
 30
0.0
 10
-9.1731
 20
-3.5071
 30
0.0
 10
-9.1731
 20
-3.5071
 30
0.0
 10
-8.5049
 20
-3.1173
 30
0.0
 10
-7.1784
 20
-2.7443
 30
0.0
 10
-6.6773
 20
-2.7423
 30
0.0
 10
-6.6773
 20
-2.7423
 30
0.0
 10
-5.552
 20
-2.7378
 30
0.0
 10
-5.4422
 20
-3.1577
 30
0.0
 10
-4.187
 20
-3.2278
 30
0.0
 10
-4.187
 20
-3.2278
 30
0.0
 10
-5.2631
 20
-2.7096
 30
0.0
 10
-6.9302
 20
-0.9747
 30
0.0
 10
-7.6997
 20
0.5502
 30
0.0
 10
-7.6997
 20
0.5502
 30
0.0
 10
-8.6653
 20
2.464
 30
0.0
 10
-9.0911
 20
4.7321
 30
0.0
 10
-9.1733
 20
6.6754
 30
0.0
  0
SPLINE
  5
58
330
1F
100
AcDbEntity
  8
layer 1
 62
     7
370
     9
100
AcDbSpline
210
0.0
220
0.0
230
1.0
 70
    11
 71
     3
 72
    40
 73
    36
 74
     0
 42
0.0000000001
 43
0.0000000001
 12
1.0
 22
0.0
 32
0.0
 13
1.0
 23
0.0
 33
0.0
 40
0.0
 40
0.0
 40
0.0
 40
0.0
 40
0.1
 40
0.1
 40
0.1
 40
0.1
 40
0.2
 40
0.2
 40
0.2
 40
0.2
 40
0.3
 40
0.3
 40
0.3
 40
0.3
 40
0.4
 40
0.4
 40
0.4
 40
0.4
 40
0.5
 40
0.5
 40
0.5
 40
0.5
 40
0.6
 40
0.6
 40
0.6
 40
0.6
 40
0.7
 40
0.7
 40
0.7
 40
0.7
 40
0.8
 40
0.8
 40
0.8
 40
0.8
 40
1.0
 40
1.0
 40
1.0
 40
1.0
 10
-0.3566
 20
-20.3603
 30
0.0
 10
-0.2056
 20
-20.1986
 30
0.0
 10
-0.0494
 20
-20.0431
 30
0.0
 10
0.1117
 20
-19.8956
 30
0.0
 10
0.1117
 20
-19.8956
 30
0.0
 10
1.9555
 20
-18.2068
 30
0.0
 10
3.6417
 20
-16.9959
 30
0.0
 10
6.8509
 20
-16.3857
 30
0.0
 10
6.8509
 20
-16.3857
 30
0.0
 10
6.8924
 20
-16.1246
 30
0.0
 10
6.81
 20
-15.3489
 30
0.0
 10
6.7076
 20
-14.8845
 30
0.0
 10
6.7076
 20
-14.8845
 30
0.0
 10
5.8946
 20
-11.2018
 30
0.0
 10
1.3656
 20
-5.6708
 30
0.0
 10
-2.7585
 20
-6.9401
 30
0.0
 10
-2.7585
 20
-6.9401
 30
0.0
 10
-4.889
 20
-7.5957
 30
0.0
 10
-5.3485
 20
-12.2558
 30
0.0
 10
-3.1904
 20
-14.7246
 30
0.0
 10
-3.1904
 20
-14.7246
 30
0.0
 10
-4.5423
 20
-14.6142
 30
0.0
 10
-5.9494
 20
-14.3455
 30
0.0
 10
-6.2856
 20
-12.8558
 30
0.0
 10
-6.2856
 20
-12.8558
 30
0.0
 10
-6.9053
 20
-15.0697
 30
0.0
 10
-6.39
 20
-18.9063
 30
0.0
 10
-3.2962
 20
-18.9416
 30
0.0
 10
-3.2962
 20
-18.9416
 30
0.0
 10
-2.0805
 20
-18.9554
 30
0.0
 10
-0.5178
 20
-17.7583
 30
0.0
 10
-0.771
 20
-15.6402
 30
0.0
 10
-0.771
 20
-15.6402
 30
0.0
 10
0.2255
 20
-16.8212
 30
0.0
 10
0.7262
 20
-18.6392
 30
0.0
 10
-0.3566
 20
-20.3603
 30
0.0
  0
SPLINE
  5
59
330
1F
100
AcDbEntity
  8
layer 1
 62
     7
370
     9
100
AcDbSpline
210
0.0
220
0.0
230
1.0
 70
    11
 71
     3
 72
    24
 73
    20
 74
     0
 42
0.0000000001
 43
0.0000000001
 12
1.0
 22
0.0
 32
0.0
 13
1.0
 23
0.0
 33
0.0
 40
0.0
 40
0.0
 40
0.0
 40
0.0
 40
0.1666666666666667
 40
0.1666666666666667
 40
0.1666666666666667
 40
0.1666666666666667
 40
0.3333333333333333
 40
0.3333333333333333
 40
0.3333333333333333
 40
0.3333333333333333
 40
0.5
 40
0.5
 40
0.5
 40
0.5
 40
0.6666666666666666
 40
0.6666666666666666
 40
0.6666666666666666
 40
0.6666666666666666
 40
1.0
 40
1.0
 40
1.0
 40
1.0
 10
-1.0697
 20
-21.2189
 30
0.0
 10
-3.0023
 20
-22.8882
 30
0.0
 10
-8.6602
 20
-23.1617
 30
0.0
 10
-9.1728
 20
-16.2211
 30
0.0
 10
-9.1728
 20
-16.2211
 30
0.0
 10
-9.1728
 20
-16.2211
 30
0.0
 10
-9.1727
 20
-24.962
 30
0.0
 10
-9.1727
 20
-24.962
 30
0.0
 10
-9.1727
 20
-24.962
 30
0.0
 10
-9.0142
 20
-23.2385
 30
0.0
 10
-7.8121
 20
-21.0927
 30
0.0
 10
-6.0624
 20
-21.7532
 30
0.0
 10
-6.0624
 20
-21.7532
 30
0.0
 10
-4.7189
 20
-22.2602
 30
0.0
 10
-3.7292
 20
-24.3293
 30
0.0
 10
-3.4645
 20
-27.3537
 30
0.0
 10
-3.4645
 20
-27.3537
 30
0.0
 10
-3.491
 20
-26.0796
 30
0.0
 10
-2.65
 20
-23.3456
 30
0.0
 10
-1.0697
 20
-21.2189
 30
0.0
  0
SPLINE
  5
5A
330
1F
100
AcDbEntity
  8
layer 1
 62
     7
370
     9
100
AcDbSpline
210
0.0
220
0.0
230
1.0
 70
    11
 71
     3
 72
    24
 73
    20
 74
     0
 42
0.0000000001
 43
0.0000000001
 12
1.0
 22
0.0
 32
0.0
 13
1.0
 23
0.0
 33
0.0
 40
0.0
 40
0.0
 40
0.0
 40
0.0
 40
0.1666666666666667
 40
0.1666666666666667
 40
0.1666666666666667
 40
0.1666666666666667
 40
0.3333333333333333
 40
0.3333333333333333
 40
0.3333333333333333
 40
0.3333333333333333
 40
0.5
 40
0.5
 40
0.5
 40
0.5
 40
0.6666666666666666
 40
0.6666666666666666
 40
0.6666666666666666
 40
0.6666666666666666
 40
1.0
 40
1.0
 40
1.0
 40
1.0
 10
-9.1723
 20
-41.9236
 30
0.0
 10
-9.1723
 20
-41.9236
 30
0.0
 10
-9.1718
 20
-64.2192
 30
0.0
 10
-9.1718
 20
-64.2192
 30
0.0
 10
-9.1718
 20
-64.2192
 30
0.0
 10
-8.7323
 20
-60.8109
 30
0.0
 10
-6.6727
 20
-56.0951
 30
0.0
 10
-2.3876
 20
-51.2513
 30
0.0
 10
-2.3876
 20
-51.2513
 30
0.0
 10
-5.0301
 20
-52.0294
 30
0.0
 10
-5.1742
 20
-50.6548
 30
0.0
 10
-7.4323
 20
-50.1245
 30
0.0
 10
-7.4323
 20
-50.1245
 30
0.0
 10
-5.2645
 20
-49.1605
 30
0.0
 10
-3.1092
 20
-51.0112
 30
0.0
 10
0.2018
 20
-48.2406
 30
0.0
 10
0.2018
 20
-48.2406
 30
0.0
 10
-3.5883
 20
-48.9776
 30
0.0
 10
-8.7768
 20
-46.0379
 30
0.0
 10
-9.1723
 20
-41.9236
 30
0.0
  0
SPLINE
  5
5B
330
1F
100
AcDbEntity
  8
layer 1
 62
     7
370
     9
100
AcDbSpline
210
0.0
220
0.0
230
1.0
 70
    11
 71
     3
 72
    16
 73
    12
 74
     0
 42
0.0000000001
 43
0.0000000001
 12
1.0
 22
0.0
 32
0.0
 13
1.0
 23
0.0
 33
0.0
 40
0.0
 40
0.0
 40
0.0
 40
0.0
 40
0.25
 40
0.25
 40
0.25
 40
0.25
 40
0.5
 40
0.5
 40
0.5
 40
0.5
 40
1.0
 40
1.0
 40
1.0
 40
1.0
 10
9.6087
 20
-89.353
 30
0.0
 10
9.6087
 20
-89.353
 30
0.0
 10
18.6133
 20
-89.353
 30
0.0
 10
18.6133
 20
-89.353
 30
0.0
 10
18.6133
 20
-89.353
 30
0.0
 10
16.688
 20
-89.1073
 30
0.0
 10
13.133
 20
-87.6831
 30
0.0
 10
12.7066
 20
-85.612
 30
0.0
 10
12.7066
 20
-85.612
 30
0.0
 10
12.7364
 20
-87.1367
 30
0.0
 10
11.6104
 20
-89.0107
 30
0.0
 10
9.6087
 20
-89.353
 30
0.0
  0
SPLINE
  5
5C
330
1F
100
AcDbEntity
  8
layer 1
 62
     7
370
     9
100
AcDbSpline
210
0.0
220
0.0
230
1.0
 70
    11
 71
     3
 72
    24
 73
    20
 74
     0
 42
0.0000000001
 43
0.0000000001
 12
1.0
 22
0.0
 32
0.0
 13
1.0
 23
0.0
 33
0.0
 40
0.0
 40
0.0
 40
0.0
 40
0.0
 40
0.1666666666666667
 40
0.1666666666666667
 40
0.1666666666666667
 40
0.1666666666666667
 40
0.3333333333333333
 40
0.3333333333333333
 40
0.3333333333333333
 40
0.3333333333333333
 40
0.5
 40
0.5
 40
0.5
 40
0.5
 40
0.6666666666666666
 40
0.6666666666666666
 40
0.6666666666666666
 40
0.6666666666666666
 40
1.0
 40
1.0
 40
1.0
 40
1.0
 10
27.0392
 20
-64.1683
 30
0.0
 10
27.0392
 20
-64.1683
 30
0.0
 10
27.0392
 20
-42.0473
 30
0.0
 10
27.0392
 20
-42.0473
 30
0.0
 10
27.0392
 20
-42.0473
 30
0.0
 10
26.5491
 20
-46.0938
 30
0.0
 10
21.441
 20
-48.9699
 30
0.0
 10
17.6908
 20
-48.2406
 30
0.0
 10
17.6908
 20
-48.2406
 30
0.0
 10
21.0018
 20
-51.0112
 30
0.0
 10
23.1571
 20
-49.1605
 30
0.0
 10
25.3248
 20
-50.1245
 30
0.0
 10
25.3248
 20
-50.1245
 30
0.0
 10
23.0668
 20
-50.6548
 30
0.0
 10
22.9227
 20
-52.0294
 30
0.0
 10
20.2802
 20
-51.2513
 30
0.0
 10
20.2802
 20
-51.2513
 30
0.0
 10
24.5303
 20
-56.0556
 30
0.0
 10
26.5772
 20
-60.7662
 30
0.0
 10
27.0392
 20
-64.1683
 30
0.0
  0
SPLINE
  5
5D
330
1F
100
AcDbEntity
  8
layer 1
 62
     7
370
     9
100
AcDbSpline
210
0.0
220
0.0
230
1.0
 70
    11
 71
     3
 72
    44
 73
    40
 74
     0
 42
0.0000000001
 43
0.0000000001
 12
1.0
 22
0.0
 32
0.0
 13
1.0
 23
0.0
 33
0.0
 40
0.0
 40
0.0
 40
0.0
 40
0.0
 40
0.0909090909090909
 40
0.0909090909090909
 40
0.0909090909090909
 40
0.0909090909090909
 40
0.1818181818181818
 40
0.1818181818181818
 40
0.1818181818181818
 40
0.1818181818181818
 40
0.2727272727272727
 40
0.2727272727272727
 40
0.2727272727272727
 40
0.2727272727272727
 40
0.3636363636363636
 40
0.3636363636363636
 40
0.3636363636363636
 40
0.3636363636363636
 40
0.4545454545454545
 40
0.4545454545454545
 40
0.4545454545454545
 40
0.4545454545454545
 40
0.5454545454545454
 40
0.5454545454545454
 40
0.5454545454545454
 40
0.5454545454545454
 40
0.6363636363636364
 40
0.6363636363636364
 40
0.6363636363636364
 40
0.6363636363636364
 40
0.7272727272727273
 40
0.7272727272727273
 40
0.7272727272727273
 40
0.7272727272727273
 40
0.8181818181818182
 40
0.8181818181818182
 40
0.8181818181818182
 40
0.8181818181818182
 40
1.0
 40
1.0
 40
1.0
 40
1.0
 10
18.3295
 20
-36.8292
 30
0.0
 10
18.162
 20
-37.0117
 30
0.0
 10
17.988
 20
-37.1863
 30
0.0
 10
17.8081
 20
-37.3512
 30
0.0
 10
17.8081
 20
-37.3512
 30
0.0
 10
15.9643
 20
-39.0399
 30
0.0
 10
14.278
 20
-40.2509
 30
0.0
 10
11.0689
 20
-40.8611
 30
0.0
 10
11.0689
 20
-40.8611
 30
0.0
 10
11.0274
 20
-41.1222
 30
0.0
 10
11.1098
 20
-41.8981
 30
0.0
 10
11.2122
 20
-42.3623
 30
0.0
 10
11.2122
 20
-42.3623
 30
0.0
 10
11.5931
 20
-44.0886
 30
0.0
 10
12.8937
 20
-45.1129
 30
0.0
 10
13.5902
 20
-45.6832
 30
0.0
 10
13.5902
 20
-45.6832
 30
0.0
 10
14.0635
 20
-46.0708
 30
0.0
 10
14.637
 20
-46.362
 30
0.0
 10
15.2808
 20
-46.5305
 30
0.0
 10
15.2808
 20
-46.5305
 30
0.0
 10
17.0574
 20
-46.9957
 30
0.0
 10
18.3945
 20
-46.2639
 30
0.0
 10
20.2515
 20
-45.1652
 30
0.0
 10
20.2515
 20
-45.1652
 30
0.0
 10
19.9476
 20
-46.2048
 30
0.0
 10
19.4839
 20
-46.8873
 30
0.0
 10
18.9942
 20
-47.1397
 30
0.0
 10
18.9942
 20
-47.1397
 30
0.0
 10
24.3954
 20
-47.7097
 30
0.0
 10
28.1521
 20
-38.2741
 30
0.0
 10
21.216
 20
-38.3052
 30
0.0
 10
21.216
 20
-38.3052
 30
0.0
 10
20.0006
 20
-38.3105
 30
0.0
 10
18.4376
 20
-39.4885
 30
0.0
 10
18.6908
 20
-41.6066
 30
0.0
 10
18.6908
 20
-41.6066
 30
0.0
 10
17.6817
 20
-40.4108
 30
0.0
 10
17.1938
 20
-38.57
 30
0.0
 10
18.3295
 20
-36.8292
 30
0.0
  0
SPLINE
  5
5E
330
1F
100
AcDbEntity
  8
layer 1
 62
     7
370
     9
100
AcDbSpline
210
0.0
220
0.0
230
1.0
 70
    11
 71
     3
 72
    28
 73
    24
 74
     0
 42
0.0000000001
 43
0.0000000001
 12
1.0
 22
0.0
 32
0.0
 13
1.0
 23
0.0
 33
0.0
 40
0.0
 40
0.0
 40
0.0
 40
0.0
 40
0.1428571428571428
 40
0.1428571428571428
 40
0.1428571428571428
 40
0.1428571428571428
 40
0.2857142857142857
 40
0.2857142857142857
 40
0.2857142857142857
 40
0.2857142857142857
 40
0.4285714285714285
 40
0.4285714285714285
 40
0.4285714285714285
 40
0.4285714285714285
 40
0.5714285714285714
 40
0.5714285714285714
 40
0.5714285714285714
 40
0.5714285714285714
 40
0.7142857142857143
 40
0.7142857142857143
 40
0.7142857142857143
 40
0.7142857142857143
 40
1.0
 40
1.0
 40
1.0
 40
1.0
 10
18.981
 20
-36.0395
 30
0.0
 10
20.8312
 20
-34.4583
 30
0.0
 10
26.0774
 20
-34.1344
 30
0.0
 10
27.0074
 20
-40.0785
 30
0.0
 10
27.0074
 20
-40.0785
 30
0.0
 10
27.0206
 20
-40.163
 30
0.0
 10
27.0345
 20
-40.2543
 30
0.0
 10
27.0392
 20
-40.3416
 30
0.0
 10
27.0392
 20
-40.3416
 30
0.0
 10
27.0392
 20
-40.3416
 30
0.0
 10
27.0392
 20
-32.2618
 30
0.0
 10
27.0392
 20
-32.2618
 30
0.0
 10
27.0392
 20
-32.2618
 30
0.0
 10
26.818
 20
-33.853
 30
0.0
 10
25.7059
 20
-36.1443
 30
0.0
 10
23.9822
 20
-35.4936
 30
0.0
 10
23.9822
 20
-35.4936
 30
0.0
 10
22.6387
 20
-34.9866
 30
0.0
 10
21.649
 20
-32.9175
 30
0.0
 10
21.3843
 20
-29.8931
 30
0.0
 10
21.3843
 20
-29.8931
 30
0.0
 10
21.4108
 20
-31.1695
 30
0.0
 10
20.5668
 20
-33.9113
 30
0.0
 10
18.981
 20
-36.0395
 30
0.0
  0
SPLINE
  5
5F
330
1F
100
AcDbEntity
  8
layer 1
 62
     7
370
     9
100
AcDbSpline
210
0.0
220
0.0
230
1.0
 70
    11
 71
     3
 72
    24
 73
    20
 74
     0
 42
0.0000000001
 43
0.0000000001
 12
1.0
 22
0.0
 32
0.0
 13
1.0
 23
0.0
 33
0.0
 40
0.0
 40
0.0
 40
0.0
 40
0.0
 40
0.1666666666666667
 40
0.1666666666666667
 40
0.1666666666666667
 40
0.1666666666666667
 40
0.3333333333333333
 40
0.3333333333333333
 40
0.3333333333333333
 40
0.3333333333333333
 40
0.5
 40
0.5
 40
0.5
 40
0.5
 40
0.6666666666666666
 40
0.6666666666666666
 40
0.6666666666666666
 40
0.6666666666666666
 40
1.0
 40
1.0
 40
1.0
 40
1.0
 10
27.0392
 20
-31.2809
 30
0.0
 10
27.0392
 20
-31.2809
 30
0.0
 10
27.0392
 20
-25.9732
 30
0.0
 10
27.0392
 20
-25.9732
 30
0.0
 10
27.0392
 20
-25.9732
 30
0.0
 10
26.0171
 20
-24.7155
 30
0.0
 10
24.9046
 20
-24.2367
 30
0.0
 10
24.2112
 20
-24.4789
 30
0.0
 10
24.2112
 20
-24.4789
 30
0.0
 10
22.1484
 20
-25.1993
 30
0.0
 10
22.0388
 20
-27.72
 30
0.0
 10
22.0086
 20
-28.6306
 30
0.0
 10
22.0086
 20
-28.6306
 30
0.0
 10
22.0388
 20
-29.5412
 30
0.0
 10
22.1485
 20
-32.0476
 30
0.0
 10
24.2112
 20
-32.7679
 30
0.0
 10
24.2112
 20
-32.7679
 30
0.0
 10
24.9045
 20
-33.01
 30
0.0
 10
26.0171
 20
-32.5386
 30
0.0
 10
27.0392
 20
-31.2809
 30
0.0
  0
SPLINE
  5
60
330
1F
100
AcDbEntity
  8
layer 1
 62
     7
370
     9
100
AcDbSpline
210
0.0
220
0.0
230
1.0
 70
    11
 71
     3
 72
    28
 73
    24
 74
     0
 42
0.0000000001
 43
0.0000000001
 12
1.0
 22
0.0
 32
0.0
 13
1.0
 23
0.0
 33
0.0
 40
0.0
 40
0.0
 40
0.0
 40
0.0
 40
0.1428571428571428
 40
0.1428571428571428
 40
0.1428571428571428
 40
0.1428571428571428
 40
0.2857142857142857
 40
0.2857142857142857
 40
0.2857142857142857
 40
0.2857142857142857
 40
0.4285714285714285
 40
0.4285714285714285
 40
0.4285714285714285
 40
0.4285714285714285
 40
0.5714285714285714
 40
0.5714285714285714
 40
0.5714285714285714
 40
0.5714285714285714
 40
0.7142857142857143
 40
0.7142857142857143
 40
0.7142857142857143
 40
0.7142857142857143
 40
1.0
 40
1.0
 40
1.0
 40
1.0
 10
19.0196
 20
-21.2592
 30
0.0
 10
20.5805
 20
-23.3799
 30
0.0
 10
21.4105
 20
-26.0876
 30
0.0
 10
21.3843
 20
-27.3537
 30
0.0
 10
21.3843
 20
-27.3537
 30
0.0
 10
21.649
 20
-24.3293
 30
0.0
 10
22.6387
 20
-22.2604
 30
0.0
 10
23.9822
 20
-21.7532
 30
0.0
 10
23.9822
 20
-21.7532
 30
0.0
 10
25.6336
 20
-21.1299
 30
0.0
 10
26.7824
 20
-22.982
 30
0.0
 10
27.0392
 20
-24.644
 30
0.0
 10
27.0392
 20
-24.644
 30
0.0
 10
27.0392
 20
-24.644
 30
0.0
 10
27.0392
 20
-15.946
 30
0.0
 10
27.0392
 20
-15.946
 30
0.0
 10
27.0392
 20
-15.946
 30
0.0
 10
27.034
 20
-16.0388
 30
0.0
 10
27.0184
 20
-16.1252
 30
0.0
 10
27.0119
 20
-16.214
 30
0.0
 10
27.0119
 20
-16.214
 30
0.0
 10
26.5029
 20
-23.1115
 30
0.0
 10
20.9776
 20
-22.9005
 30
0.0
 10
19.0196
 20
-21.2592
 30
0.0
  0
SPLINE
  5
61
330
1F
100
AcDbEntity
  8
layer 1
 62
     7
370
     9
100
AcDbSpline
210
0.0
220
0.0
230
1.0
 70
    11
 71
     3
 72
    40
 73
    36
 74
     0
 42
0.0000000001
 43
0.0000000001
 12
1.0
 22
0.0
 32
0.0
 13
1.0
 23
0.0
 33
0.0
 40
0.0
 40
0.0
 40
0.0
 40
0.0
 40
0.1
 40
0.1
 40
0.1
 40
0.1
 40
0.2
 40
0.2
 40
0.2
 40
0.2
 40
0.3
 40
0.3
 40
0.3
 40
0.3
 40
0.4
 40
0.4
 40
0.4
 40
0.4
 40
0.5
 40
0.5
 40
0.5
 40
0.5
 40
0.6
 40
0.6
 40
0.6
 40
0.6
 40
0.7
 40
0.7
 40
0.7
 40
0.7
 40
0.8
 40
0.8
 40
0.8
 40
0.8
 40
1.0
 40
1.0
 40
1.0
 40
1.0
 10
18.2854
 20
-20.3698
 30
0.0
 10
17.2026
 20
-18.6487
 30
0.0
 10
17.6943
 20
-16.8212
 30
0.0
 10
18.6908
 20
-15.6402
 30
0.0
 10
18.6908
 20
-15.6402
 30
0.0
 10
18.4376
 20
-17.7583
 30
0.0
 10
20.0003
 20
-18.9554
 30
0.0
 10
21.216
 20
-18.9416
 30
0.0
 10
21.216
 20
-18.9416
 30
0.0
 10
24.3098
 20
-18.9063
 30
0.0
 10
24.825
 20
-15.0697
 30
0.0
 10
24.2054
 20
-12.8558
 30
0.0
 10
24.2054
 20
-12.8558
 30
0.0
 10
23.8692
 20
-14.3455
 30
0.0
 10
22.4621
 20
-14.6142
 30
0.0
 10
21.1102
 20
-14.7246
 30
0.0
 10
21.1102
 20
-14.7246
 30
0.0
 10
23.2683
 20
-12.2558
 30
0.0
 10
22.8088
 20
-7.5957
 30
0.0
 10
20.6783
 20
-6.9401
 30
0.0
 10
20.6783
 20
-6.9401
 30
0.0
 10
16.5542
 20
-5.6708
 30
0.0
 10
12.0252
 20
-11.2018
 30
0.0
 10
11.2122
 20
-14.8845
 30
0.0
 10
11.2122
 20
-14.8845
 30
0.0
 10
11.1098
 20
-15.3489
 30
0.0
 10
11.0274
 20
-16.1246
 30
0.0
 10
11.0689
 20
-16.3857
 30
0.0
 10
11.0689
 20
-16.3857
 30
0.0
 10
14.278
 20
-16.9959
 30
0.0
 10
15.9641
 20
-18.2068
 30
0.0
 10
17.8081
 20
-19.8956
 30
0.0
 10
17.8081
 20
-19.8956
 30
0.0
 10
17.9724
 20
-20.0461
 30
0.0
 10
18.1317
 20
-20.2046
 30
0.0
 10
18.2854
 20
-20.3698
 30
0.0
  0
SPLINE
  5
62
330
1F
100
AcDbEntity
  8
layer 1
 62
     7
370
     9
100
AcDbSpline
210
0.0
220
0.0
230
1.0
 70
    11
 71
     3
 72
    24
 73
    20
 74
     0
 42
0.0000000001
 43
0.0000000001
 12
1.0
 22
0.0
 32
0.0
 13
1.0
 23
0.0
 33
0.0
 40
0.0
 40
0.0
 40
0.0
 40
0.0
 40
0.1666666666666667
 40
0.1666666666666667
 40
0.1666666666666667
 40
0.1666666666666667
 40
0.3333333333333333
 40
0.3333333333333333
 40
0.3333333333333333
 40
0.3333333333333333
 40
0.5
 40
0.5
 40
0.5
 40
0.5
 40
0.6666666666666666
 40
0.6666666666666666
 40
0.6666666666666666
 40
0.6666666666666666
 40
1.0
 40
1.0
 40
1.0
 40
1.0
 10
27.0392
 20
-14.0766
 30
0.0
 10
27.0392
 20
-14.0766
 30
0.0
 10
27.0392
 20
-4.0227
 30
0.0
 10
27.0392
 20
-4.0227
 30
0.0
 10
27.0392
 20
-4.0227
 30
0.0
 10
26.371
 20
-4.4125
 30
0.0
 10
25.071
 20
-4.7922
 30
0.0
 10
24.5699
 20
-4.7942
 30
0.0
 10
24.5699
 20
-4.7942
 30
0.0
 10
23.4446
 20
-4.7986
 30
0.0
 10
23.3348
 20
-4.3788
 30
0.0
 10
22.0796
 20
-4.3086
 30
0.0
 10
22.0796
 20
-4.3086
 30
0.0
 10
23.1557
 20
-4.8268
 30
0.0
 10
24.8228
 20
-6.5618
 30
0.0
 10
25.5922
 20
-8.0867
 30
0.0
 10
25.5922
 20
-8.0867
 30
0.0
 10
26.5362
 20
-9.9577
 30
0.0
 10
26.9449
 20
-12.163
 30
0.0
 10
27.0392
 20
-14.0766
 30
0.0
  0
SPLINE
  5
63
330
1F
100
AcDbEntity
  8
layer 1
 62
     7
370
     9
100
AcDbSpline
210
0.0
220
0.0
230
1.0
 70
    11
 71
     3
 72
    24
 73
    20
 74
     0
 42
0.0000000001
 43
0.0000000001
 12
1.0
 22
0.0
 32
0.0
 13
1.0
 23
0.0
 33
0.0
 40
0.0
 40
0.0
 40
0.0
 40
0.0
 40
0.1666666666666667
 40
0.1666666666666667
 40
0.1666666666666667
 40
0.1666666666666667
 40
0.3333333333333333
 40
0.3333333333333333
 40
0.3333333333333333
 40
0.3333333333333333
 40
0.5
 40
0.5
 40
0.5
 40
0.5
 40
0.6666666666666666
 40
0.6666666666666666
 40
0.6666666666666666
 40
0.6666666666666666
 40
1.0
 40
1.0
 40
1.0
 40
1.0
 10
27.0392
 20
-3.5056
 30
0.0
 10
27.0392
 20
-3.5056
 30
0.0
 10
27.0392
 20
6.552
 30
0.0
 10
27.0392
 20
6.552
 30
0.0
 10
27.0392
 20
6.552
 30
0.0
 10
26.9471
 20
4.6326
 30
0.0
 10
26.5401
 20
2.4291
 30
0.0
 10
25.5922
 20
0.5502
 30
0.0
 10
25.5922
 20
0.5502
 30
0.0
 10
24.8229
 20
-0.9745
 30
0.0
 10
23.1557
 20
-2.7096
 30
0.0
 10
22.0796
 20
-3.2278
 30
0.0
 10
22.0796
 20
-3.2278
 30
0.0
 10
23.3348
 20
-3.1577
 30
0.0
 10
23.4446
 20
-2.7378
 30
0.0
 10
24.5699
 20
-2.7423
 30
0.0
 10
24.5699
 20
-2.7423
 30
0.0
 10
25.071
 20
-2.7443
 30
0.0
 10
26.371
 20
-3.1158
 30
0.0
 10
27.0392
 20
-3.5056
 30
0.0
  0
SPLINE
  5
64
330
1F
100
AcDbEntity
  8
layer 1
 62
     7
370
     9
100
AcDbSpline
210
0.0
220
0.0
230
1.0
 70
    11
 71
     3
 72
    40
 73
    36
 74
     0
 42
0.0000000001
 43
0.0000000001
 12
1.0
 22
0.0
 32
0.0
 13
1.0
 23
0.0
 33
0.0
 40
0.0
 40
0.0
 40
0.0
 40
0.0
 40
0.1
 40
0.1
 40
0.1
 40
0.1
 40
0.2
 40
0.2
 40
0.2
 40
0.2
 40
0.3
 40
0.3
 40
0.3
 40
0.3
 40
0.4
 40
0.4
 40
0.4
 40
0.4
 40
0.5
 40
0.5
 40
0.5
 40
0.5
 40
0.6
 40
0.6
 40
0.6
 40
0.6
 40
0.7
 40
0.7
 40
0.7
 40
0.7
 40
0.8
 40
0.8
 40
0.8
 40
0.8
 40
1.0
 40
1.0
 40
1.0
 40
1.0
 10
18.2537
 20
12.7995
 30
0.0
 10
18.1097
 20
12.6464
 30
0.0
 10
17.9611
 20
12.4992
 30
0.0
 10
17.8081
 20
12.3591
 30
0.0
 10
17.8081
 20
12.3591
 30
0.0
 10
15.9643
 20
10.6705
 30
0.0
 10
14.278
 20
9.4594
 30
0.0
 10
11.0689
 20
8.8492
 30
0.0
 10
11.0689
 20
8.8492
 30
0.0
 10
11.0274
 20
8.5882
 30
0.0
 10
11.1098
 20
7.8125
 30
0.0
 10
11.2122
 20
7.3481
 30
0.0
 10
11.2122
 20
7.3481
 30
0.0
 10
12.0252
 20
3.6653
 30
0.0
 10
16.5542
 20
-1.8657
 30
0.0
 10
20.6783
 20
-0.5964
 30
0.0
 10
20.6783
 20
-0.5964
 30
0.0
 10
22.8088
 20
0.0592
 30
0.0
 10
23.2683
 20
4.7194
 30
0.0
 10
21.1102
 20
7.1882
 30
0.0
 10
21.1102
 20
7.1882
 30
0.0
 10
22.4621
 20
7.0778
 30
0.0
 10
23.8692
 20
6.809
 30
0.0
 10
24.2054
 20
5.3194
 30
0.0
 10
24.2054
 20
5.3194
 30
0.0
 10
24.825
 20
7.5333
 30
0.0
 10
24.3098
 20
11.3698
 30
0.0
 10
21.216
 20
11.4052
 30
0.0
 10
21.216
 20
11.4052
 30
0.0
 10
20.0003
 20
11.419
 30
0.0
 10
18.4376
 20
10.2218
 30
0.0
 10
18.6908
 20
8.1037
 30
0.0
 10
18.6908
 20
8.1037
 30
0.0
 10
17.7002
 20
9.2777
 30
0.0
 10
17.1956
 20
11.0875
 30
0.0
 10
18.2537
 20
12.7995
 30
0.0
  0
SPLINE
  5
65
330
1F
100
AcDbEntity
  8
layer 1
 62
     7
370
     9
100
AcDbSpline
210
0.0
220
0.0
230
1.0
 70
    11
 71
     3
 72
    28
 73
    24
 74
     0
 42
0.0000000001
 43
0.0000000001
 12
1.0
 22
0.0
 32
0.0
 13
1.0
 23
0.0
 33
0.0
 40
0.0
 40
0.0
 40
0.0
 40
0.0
 40
0.1428571428571428
 40
0.1428571428571428
 40
0.1428571428571428
 40
0.1428571428571428
 40
0.2857142857142857
 40
0.2857142857142857
 40
0.2857142857142857
 40
0.2857142857142857
 40
0.4285714285714285
 40
0.4285714285714285
 40
0.4285714285714285
 40
0.4285714285714285
 40
0.5714285714285714
 40
0.5714285714285714
 40
0.5714285714285714
 40
0.5714285714285714
 40
0.7142857142857143
 40
0.7142857142857143
 40
0.7142857142857143
 40
0.7142857142857143
 40
1.0
 40
1.0
 40
1.0
 40
1.0
 10
18.9942
 20
13.6886
 30
0.0
 10
20.9292
 20
15.3492
 30
0.0
 10
26.5005
 20
15.6056
 30
0.0
 10
27.0119
 20
8.6775
 30
0.0
 10
27.0119
 20
8.6775
 30
0.0
 10
27.0194
 20
8.5759
 30
0.0
 10
27.0335
 20
8.4815
 30
0.0
 10
27.0392
 20
8.375
 30
0.0
 10
27.0392
 20
8.375
 30
0.0
 10
27.0392
 20
8.375
 30
0.0
 10
27.0392
 20
17.0964
 30
0.0
 10
27.0392
 20
17.0964
 30
0.0
 10
27.0392
 20
17.0964
 30
0.0
 10
26.7735
 20
15.4415
 30
0.0
 10
25.6239
 20
13.597
 30
0.0
 10
23.9822
 20
14.2168
 30
0.0
 10
23.9822
 20
14.2168
 30
0.0
 10
22.6387
 20
14.7238
 30
0.0
 10
21.649
 20
16.7928
 30
0.0
 10
21.3843
 20
19.8173
 30
0.0
 10
21.3843
 20
19.8173
 30
0.0
 10
21.4107
 20
18.5443
 30
0.0
 10
20.5716
 20
15.8142
 30
0.0
 10
18.9942
 20
13.6886
 30
0.0
  0
SPLINE
  5
66
330
1F
100
AcDbEntity
  8
layer 1
 62
     7
370
     9
100
AcDbSpline
210
0.0
220
0.0
230
1.0
 70
    11
 71
     3
 72
    24
 73
    20
 74
     0
 42
0.0000000001
 43
0.0000000001
 12
1.0
 22
0.0
 32
0.0
 13
1.0
 23
0.0
 33
0.0
 40
0.0
 40
0.0
 40
0.0
 40
0.0
 40
0.1666666666666667
 40
0.1666666666666667
 40
0.1666666666666667
 40
0.1666666666666667
 40
0.3333333333333333
 40
0.3333333333333333
 40
0.3333333333333333
 40
0.3333333333333333
 40
0.5
 40
0.5
 40
0.5
 40
0.5
 40
0.6666666666666666
 40
0.6666666666666666
 40
0.6666666666666666
 40
0.6666666666666666
 40
1.0
 40
1.0
 40
1.0
 40
1.0
 10
27.0393
 20
18.436
 30
0.0
 10
27.0393
 20
18.436
 30
0.0
 10
27.0394
 20
23.735
 30
0.0
 10
27.0394
 20
23.735
 30
0.0
 10
27.0394
 20
23.735
 30
0.0
 10
26.0173
 20
24.9928
 30
0.0
 10
24.9046
 20
25.4723
 30
0.0
 10
24.2112
 20
25.2302
 30
0.0
 10
24.2112
 20
25.2302
 30
0.0
 10
22.1485
 20
24.5098
 30
0.0
 10
22.0388
 20
21.9891
 30
0.0
 10
22.0086
 20
21.0863
 30
0.0
 10
22.0086
 20
21.0863
 30
0.0
 10
22.0388
 20
20.1835
 30
0.0
 10
22.1484
 20
17.6628
 30
0.0
 10
24.2112
 20
16.9424
 30
0.0
 10
24.2112
 20
16.9424
 30
0.0
 10
24.9046
 20
16.7002
 30
0.0
 10
26.0172
 20
17.1783
 30
0.0
 10
27.0393
 20
18.436
 30
0.0
  0
SPLINE
  5
67
330
1F
100
AcDbEntity
  8
layer 1
 62
     7
370
     9
100
AcDbSpline
210
0.0
220
0.0
230
1.0
 70
    11
 71
     3
 72
    24
 73
    20
 74
     0
 42
0.0000000001
 43
0.0000000001
 12
1.0
 22
0.0
 32
0.0
 13
1.0
 23
0.0
 33
0.0
 40
0.0
 40
0.0
 40
0.0
 40
0.0
 40
0.1666666666666667
 40
0.1666666666666667
 40
0.1666666666666667
 40
0.1666666666666667
 40
0.3333333333333333
 40
0.3333333333333333
 40
0.3333333333333333
 40
0.3333333333333333
 40
0.5
 40
0.5
 40
0.5
 40
0.5
 40
0.6666666666666666
 40
0.6666666666666666
 40
0.6666666666666666
 40
0.6666666666666666
 40
1.0
 40
1.0
 40
1.0
 40
1.0
 10
19.0192
 20
28.4505
 30
0.0
 10
20.5804
 20
26.3297
 30
0.0
 10
21.4105
 20
23.6217
 30
0.0
 10
21.3843
 20
22.3554
 30
0.0
 10
21.3843
 20
22.3554
 30
0.0
 10
21.649
 20
25.3798
 30
0.0
 10
22.6387
 20
27.4488
 30
0.0
 10
23.9822
 20
27.9559
 30
0.0
 10
23.9822
 20
27.9559
 30
0.0
 10
25.6195
 20
28.5739
 30
0.0
 10
26.7698
 20
26.7348
 30
0.0
 10
27.0395
 20
25.0836
 30
0.0
 10
27.0395
 20
25.0836
 30
0.0
 10
27.0395
 20
25.0836
 30
0.0
 10
27.0397
 20
33.5028
 30
0.0
 10
27.0397
 20
33.5028
 30
0.0
 10
27.0397
 20
33.5028
 30
0.0
 10
26.5304
 20
26.6053
 30
0.0
 10
20.9799
 20
26.8101
 30
0.0
 10
19.0192
 20
28.4505
 30
0.0
  0
SPLINE
  5
68
330
1F
100
AcDbEntity
  8
layer 1
 62
     7
370
     9
100
AcDbSpline
210
0.0
220
0.0
230
1.0
 70
    11
 71
     3
 72
    40
 73
    36
 74
     0
 42
0.0000000001
 43
0.0000000001
 12
1.0
 22
0.0
 32
0.0
 13
1.0
 23
0.0
 33
0.0
 40
0.0
 40
0.0
 40
0.0
 40
0.0
 40
0.1
 40
0.1
 40
0.1
 40
0.1
 40
0.2
 40
0.2
 40
0.2
 40
0.2
 40
0.3
 40
0.3
 40
0.3
 40
0.3
 40
0.4
 40
0.4
 40
0.4
 40
0.4
 40
0.5
 40
0.5
 40
0.5
 40
0.5
 40
0.6
 40
0.6
 40
0.6
 40
0.6
 40
0.7
 40
0.7
 40
0.7
 40
0.7
 40
0.8
 40
0.8
 40
0.8
 40
0.8
 40
1.0
 40
1.0
 40
1.0
 40
1.0
 10
18.2934
 20
29.3307
 30
0.0
 10
17.1958
 20
31.0575
 30
0.0
 10
17.6907
 20
32.8837
 30
0.0
 10
18.6908
 20
34.0689
 30
0.0
 10
18.6908
 20
34.0689
 30
0.0
 10
18.4376
 20
31.9508
 30
0.0
 10
20.0003
 20
30.7537
 30
0.0
 10
21.216
 20
30.7675
 30
0.0
 10
21.216
 20
30.7675
 30
0.0
 10
24.3098
 20
30.8029
 30
0.0
 10
24.825
 20
34.6394
 30
0.0
 10
24.2054
 20
36.8533
 30
0.0
 10
24.2054
 20
36.8533
 30
0.0
 10
23.8692
 20
35.3637
 30
0.0
 10
22.4621
 20
35.0949
 30
0.0
 10
21.1102
 20
34.9845
 30
0.0
 10
21.1102
 20
34.9845
 30
0.0
 10
23.2683
 20
37.4533
 30
0.0
 10
22.8088
 20
42.1134
 30
0.0
 10
20.6783
 20
42.769
 30
0.0
 10
20.6783
 20
42.769
 30
0.0
 10
16.5542
 20
44.0383
 30
0.0
 10
12.0252
 20
38.5073
 30
0.0
 10
11.2122
 20
34.8246
 30
0.0
 10
11.2122
 20
34.8246
 30
0.0
 10
11.1098
 20
34.3602
 30
0.0
 10
11.0274
 20
33.5845
 30
0.0
 10
11.0689
 20
33.3234
 30
0.0
 10
11.0689
 20
33.3234
 30
0.0
 10
14.278
 20
32.7132
 30
0.0
 10
15.9641
 20
31.5023
 30
0.0
 10
17.8081
 20
29.8135
 30
0.0
 10
17.8081
 20
29.8135
 30
0.0
 10
17.9753
 20
29.6604
 30
0.0
 10
18.1371
 20
29.4991
 30
0.0
 10
18.2934
 20
29.3307
 30
0.0
  0
SPLINE
  5
69
330
1F
100
AcDbEntity
  8
layer 1
 62
     7
370
     9
100
AcDbSpline
210
0.0
220
0.0
230
1.0
 70
    11
 71
     3
 72
    24
 73
    20
 74
     0
 42
0.0000000001
 43
0.0000000001
 12
1.0
 22
0.0
 32
0.0
 13
1.0
 23
0.0
 33
0.0
 40
0.0
 40
0.0
 40
0.0
 40
0.0
 40
0.1666666666666667
 40
0.1666666666666667
 40
0.1666666666666667
 40
0.1666666666666667
 40
0.3333333333333333
 40
0.3333333333333333
 40
0.3333333333333333
 40
0.3333333333333333
 40
0.5
 40
0.5
 40
0.5
 40
0.5
 40
0.6666666666666666
 40
0.6666666666666666
 40
0.6666666666666666
 40
0.6666666666666666
 40
1.0
 40
1.0
 40
1.0
 40
1.0
 10
27.0398
 20
35.6547
 30
0.0
 10
27.0398
 20
35.6547
 30
0.0
 10
27.0399
 20
45.673
 30
0.0
 10
27.0399
 20
45.673
 30
0.0
 10
27.0399
 20
45.673
 30
0.0
 10
26.3718
 20
45.2832
 30
0.0
 10
25.071
 20
44.9169
 30
0.0
 10
24.5699
 20
44.9149
 30
0.0
 10
24.5699
 20
44.9149
 30
0.0
 10
23.4446
 20
44.9105
 30
0.0
 10
23.3348
 20
45.3303
 30
0.0
 10
22.0796
 20
45.4005
 30
0.0
 10
22.0796
 20
45.4005
 30
0.0
 10
23.1557
 20
44.8823
 30
0.0
 10
24.8228
 20
43.1473
 30
0.0
 10
25.5922
 20
41.6224
 30
0.0
 10
25.5922
 20
41.6224
 30
0.0
 10
26.5339
 20
39.7562
 30
0.0
 10
26.9441
 20
37.5648
 30
0.0
 10
27.0398
 20
35.6547
 30
0.0
  0
SPLINE
  5
6A
330
1F
100
AcDbEntity
  8
layer 1
 62
     7
370
     9
100
AcDbSpline
210
0.0
220
0.0
230
1.0
 70
    11
 71
     3
 72
    24
 73
    20
 74
     0
 42
0.0000000001
 43
0.0000000001
 12
1.0
 22
0.0
 32
0.0
 13
1.0
 23
0.0
 33
0.0
 40
0.0
 40
0.0
 40
0.0
 40
0.0
 40
0.1666666666666667
 40
0.1666666666666667
 40
0.1666666666666667
 40
0.1666666666666667
 40
0.3333333333333333
 40
0.3333333333333333
 40
0.3333333333333333
 40
0.3333333333333333
 40
0.5
 40
0.5
 40
0.5
 40
0.5
 40
0.6666666666666666
 40
0.6666666666666666
 40
0.6666666666666666
 40
0.6666666666666666
 40
1.0
 40
1.0
 40
1.0
 40
1.0
 10
27.04
 20
46.199
 30
0.0
 10
27.04
 20
46.199
 30
0.0
 10
27.0402
 20
55.5328
 30
0.0
 10
27.0402
 20
55.5328
 30
0.0
 10
27.0402
 20
55.5328
 30
0.0
 10
26.8882
 20
53.7981
 30
0.0
 10
26.4205
 20
51.9011
 30
0.0
 10
25.5922
 20
50.2594
 30
0.0
 10
25.5922
 20
50.2594
 30
0.0
 10
24.8228
 20
48.7346
 30
0.0
 10
23.1557
 20
46.9995
 30
0.0
 10
22.0796
 20
46.4813
 30
0.0
 10
22.0796
 20
46.4813
 30
0.0
 10
23.3348
 20
46.5514
 30
0.0
 10
23.4446
 20
46.9713
 30
0.0
 10
24.5699
 20
46.9668
 30
0.0
 10
24.5699
 20
46.9668
 30
0.0
 10
25.071
 20
46.9649
 30
0.0
 10
26.3719
 20
46.5888
 30
0.0
 10
27.04
 20
46.199
 30
0.0
  0
SPLINE
  5
6B
330
1F
100
AcDbEntity
  8
layer 1
 62
     7
370
     9
100
AcDbSpline
210
0.0
220
0.0
230
1.0
 70
    11
 71
     3
 72
    24
 73
    20
 74
     0
 42
0.0000000001
 43
0.0000000001
 12
1.0
 22
0.0
 32
0.0
 13
1.0
 23
0.0
 33
0.0
 40
0.0
 40
0.0
 40
0.0
 40
0.0
 40
0.1666666666666667
 40
0.1666666666666667
 40
0.1666666666666667
 40
0.1666666666666667
 40
0.3333333333333333
 40
0.3333333333333333
 40
0.3333333333333333
 40
0.3333333333333333
 40
0.5
 40
0.5
 40
0.5
 40
0.5
 40
0.6666666666666666
 40
0.6666666666666666
 40
0.6666666666666666
 40
0.6666666666666666
 40
1.0
 40
1.0
 40
1.0
 40
1.0
 10
19.0241
 20
63.3727
 30
0.0
 10
20.9635
 20
65.0317
 30
0.0
 10
26.5286
 20
65.3116
 30
0.0
 10
27.0402
 20
58.386
 30
0.0
 10
27.0402
 20
58.386
 30
0.0
 10
27.0402
 20
58.386
 30
0.0
 10
27.0403
 20
66.6858
 30
0.0
 10
27.0403
 20
66.6858
 30
0.0
 10
27.0403
 20
66.6858
 30
0.0
 10
26.7484
 20
65.0549
 30
0.0
 10
25.594
 20
63.3174
 30
0.0
 10
23.9822
 20
63.9259
 30
0.0
 10
23.9822
 20
63.9259
 30
0.0
 10
22.6387
 20
64.4329
 30
0.0
 10
21.649
 20
66.5019
 30
0.0
 10
21.3843
 20
69.5264
 30
0.0
 10
21.3843
 20
69.5264
 30
0.0
 10
21.4107
 20
68.2542
 30
0.0
 10
20.5998
 20
65.4977
 30
0.0
 10
19.0241
 20
63.3727
 30
0.0
  0
SPLINE
  5
6C
330
1F
100
AcDbEntity
  8
layer 1
 62
     7
370
     9
100
AcDbSpline
210
0.0
220
0.0
230
1.0
 70
    11
 71
     3
 72
    40
 73
    36
 74
     0
 42
0.0000000001
 43
0.0000000001
 12
1.0
 22
0.0
 32
0.0
 13
1.0
 23
0.0
 33
0.0
 40
0.0
 40
0.0
 40
0.0
 40
0.0
 40
0.1
 40
0.1
 40
0.1
 40
0.1
 40
0.2
 40
0.2
 40
0.2
 40
0.2
 40
0.3
 40
0.3
 40
0.3
 40
0.3
 40
0.4
 40
0.4
 40
0.4
 40
0.4
 40
0.5
 40
0.5
 40
0.5
 40
0.5
 40
0.6
 40
0.6
 40
0.6
 40
0.6
 40
0.7
 40
0.7
 40
0.7
 40
0.7
 40
0.8
 40
0.8
 40
0.8
 40
0.8
 40
1.0
 40
1.0
 40
1.0
 40
1.0
 10
18.311
 20
62.5056
 30
0.0
 10
18.1571
 20
62.3404
 30
0.0
 10
17.9723
 20
62.2186
 30
0.0
 10
17.8081
 20
62.0683
 30
0.0
 10
17.8081
 20
62.0683
 30
0.0
 10
15.9643
 20
60.3796
 30
0.0
 10
14.278
 20
59.1685
 30
0.0
 10
11.0689
 20
58.5584
 30
0.0
 10
11.0689
 20
58.5584
 30
0.0
 10
11.0274
 20
58.2973
 30
0.0
 10
11.1098
 20
57.5216
 30
0.0
 10
11.2122
 20
57.0572
 30
0.0
 10
11.2122
 20
57.0572
 30
0.0
 10
12.0252
 20
53.3745
 30
0.0
 10
16.5542
 20
47.8434
 30
0.0
 10
20.6783
 20
49.1127
 30
0.0
 10
20.6783
 20
49.1127
 30
0.0
 10
22.8088
 20
49.7684
 30
0.0
 10
23.2683
 20
54.4285
 30
0.0
 10
21.1102
 20
56.8973
 30
0.0
 10
21.1102
 20
56.8973
 30
0.0
 10
22.4621
 20
56.7869
 30
0.0
 10
23.8692
 20
56.5181
 30
0.0
 10
24.2054
 20
55.0285
 30
0.0
 10
24.2054
 20
55.0285
 30
0.0
 10
24.825
 20
57.2424
 30
0.0
 10
24.3098
 20
61.0789
 30
0.0
 10
21.216
 20
61.1143
 30
0.0
 10
21.216
 20
61.1143
 30
0.0
 10
20.0003
 20
61.1281
 30
0.0
 10
18.4376
 20
59.9309
 30
0.0
 10
18.6908
 20
57.8129
 30
0.0
 10
18.6908
 20
57.8129
 30
0.0
 10
17.6962
 20
58.9916
 30
0.0
 10
17.2358
 20
60.7873
 30
0.0
 10
18.311
 20
62.5056
 30
0.0
  0
SPLINE
  5
6D
330
1F
100
AcDbEntity
  8
layer 1
 62
     7
370
     9
100
AcDbSpline
210
0.0
220
0.0
230
1.0
 70
    11
 71
     3
 72
    24
 73
    20
 74
     0
 42
0.0000000001
 43
0.0000000001
 12
1.0
 22
0.0
 32
0.0
 13
1.0
 23
0.0
 33
0.0
 40
0.0
 40
0.0
 40
0.0
 40
0.0
 40
0.1666666666666667
 40
0.1666666666666667
 40
0.1666666666666667
 40
0.1666666666666667
 40
0.3333333333333333
 40
0.3333333333333333
 40
0.3333333333333333
 40
0.3333333333333333
 40
0.5
 40
0.5
 40
0.5
 40
0.5
 40
0.6666666666666666
 40
0.6666666666666666
 40
0.6666666666666666
 40
0.6666666666666666
 40
1.0
 40
1.0
 40
1.0
 40
1.0
 10
18.9584
 20
78.2411
 30
0.0
 10
20.5587
 20
76.1088
 30
0.0
 10
21.4108
 20
73.3471
 30
0.0
 10
21.3843
 20
72.0645
 30
0.0
 10
21.3843
 20
72.0645
 30
0.0
 10
21.649
 20
75.089
 30
0.0
 10
22.6387
 20
77.1579
 30
0.0
 10
23.9822
 20
77.665
 30
0.0
 10
23.9822
 20
77.665
 30
0.0
 10
25.669
 20
78.3017
 30
0.0
 10
26.7873
 20
76.1517
 30
0.0
 10
27.0404
 20
74.5665
 30
0.0
 10
27.0404
 20
74.5665
 30
0.0
 10
27.0404
 20
74.5665
 30
0.0
 10
27.0405
 20
82.2657
 30
0.0
 10
27.0405
 20
82.2657
 30
0.0
 10
27.0405
 20
82.2657
 30
0.0
 10
26.1035
 20
76.2779
 30
0.0
 10
20.775
 20
76.6315
 30
0.0
 10
18.9584
 20
78.2411
 30
0.0
  0
SPLINE
  5
6E
330
1F
100
AcDbEntity
  8
layer 1
 62
     7
370
     9
100
AcDbSpline
210
0.0
220
0.0
230
1.0
 70
    11
 71
     3
 72
    44
 73
    40
 74
     0
 42
0.0000000001
 43
0.0000000001
 12
1.0
 22
0.0
 32
0.0
 13
1.0
 23
0.0
 33
0.0
 40
0.0
 40
0.0
 40
0.0
 40
0.0
 40
0.0909090909090909
 40
0.0909090909090909
 40
0.0909090909090909
 40
0.0909090909090909
 40
0.1818181818181818
 40
0.1818181818181818
 40
0.1818181818181818
 40
0.1818181818181818
 40
0.2727272727272727
 40
0.2727272727272727
 40
0.2727272727272727
 40
0.2727272727272727
 40
0.3636363636363636
 40
0.3636363636363636
 40
0.3636363636363636
 40
0.3636363636363636
 40
0.4545454545454545
 40
0.4545454545454545
 40
0.4545454545454545
 40
0.4545454545454545
 40
0.5454545454545454
 40
0.5454545454545454
 40
0.5454545454545454
 40
0.5454545454545454
 40
0.6363636363636364
 40
0.6363636363636364
 40
0.6363636363636364
 40
0.6363636363636364
 40
0.7272727272727273
 40
0.7272727272727273
 40
0.7272727272727273
 40
0.7272727272727273
 40
0.8181818181818182
 40
0.8181818181818182
 40
0.8181818181818182
 40
0.8181818181818182
 40
1.0
 40
1.0
 40
1.0
 40
1.0
 10
18.387
 20
78.9372
 30
0.0
 10
17.1928
 20
80.6986
 30
0.0
 10
17.6682
 20
82.5662
 30
0.0
 10
18.6908
 20
83.778
 30
0.0
 10
18.6908
 20
83.778
 30
0.0
 10
18.4376
 20
81.66
 30
0.0
 10
20.0006
 20
80.4819
 30
0.0
 10
21.216
 20
80.4766
 30
0.0
 10
21.216
 20
80.4766
 30
0.0
 10
28.1521
 20
80.4456
 30
0.0
 10
24.3954
 20
89.8811
 30
0.0
 10
18.9942
 20
89.3112
 30
0.0
 10
18.9942
 20
89.3112
 30
0.0
 10
19.4839
 20
89.0588
 30
0.0
 10
19.9476
 20
88.3762
 30
0.0
 10
20.2515
 20
87.3366
 30
0.0
 10
20.2515
 20
87.3366
 30
0.0
 10
18.3945
 20
88.4353
 30
0.0
 10
17.0574
 20
89.1672
 30
0.0
 10
15.2808
 20
88.702
 30
0.0
 10
15.2808
 20
88.702
 30
0.0
 10
14.637
 20
88.5334
 30
0.0
 10
14.0635
 20
88.2423
 30
0.0
 10
13.5902
 20
87.8547
 30
0.0
 10
13.5902
 20
87.8547
 30
0.0
 10
12.8937
 20
87.2843
 30
0.0
 10
11.5931
 20
86.26
 30
0.0
 10
11.2122
 20
84.5337
 30
0.0
 10
11.2122
 20
84.5337
 30
0.0
 10
11.1098
 20
84.0695
 30
0.0
 10
11.0274
 20
83.2936
 30
0.0
 10
11.0689
 20
83.0325
 30
0.0
 10
11.0689
 20
83.0325
 30
0.0
 10
14.278
 20
82.4224
 30
0.0
 10
15.9641
 20
81.2114
 30
0.0
 10
17.8081
 20
79.5226
 30
0.0
 10
17.8081
 20
79.5226
 30
0.0
 10
18.0089
 20
79.3387
 30
0.0
 10
18.202
 20
79.1426
 30
0.0
 10
18.387
 20
78.9372
 30
0.0
  0
SPLINE
  5
6F
330
1F
100
AcDbEntity
  8
layer 1
 62
     7
370
     9
100
AcDbSpline
210
0.0
220
0.0
230
1.0
 70
    11
 71
     3
 72
    24
 73
    20
 74
     0
 42
0.0000000001
 43
0.0000000001
 12
1.0
 22
0.0
 32
0.0
 13
1.0
 23
0.0
 33
0.0
 40
0.0
 40
0.0
 40
0.0
 40
0.0
 40
0.1666666666666667
 40
0.1666666666666667
 40
0.1666666666666667
 40
0.1666666666666667
 40
0.3333333333333333
 40
0.3333333333333333
 40
0.3333333333333333
 40
0.3333333333333333
 40
0.5
 40
0.5
 40
0.5
 40
0.5
 40
0.6666666666666666
 40
0.6666666666666666
 40
0.6666666666666666
 40
0.6666666666666666
 40
1.0
 40
1.0
 40
1.0
 40
1.0
 10
27.0407
 20
84.3091
 30
0.0
 10
27.0407
 20
84.3091
 30
0.0
 10
27.0409
 20
100.8109
 30
0.0
 10
27.0409
 20
100.8109
 30
0.0
 10
27.0409
 20
100.8109
 30
0.0
 10
26.5959
 20
98.2072
 30
0.0
 10
24.4559
 20
96.0555
 30
0.0
 10
20.2802
 20
93.4227
 30
0.0
 10
20.2802
 20
93.4227
 30
0.0
 10
22.9227
 20
94.2008
 30
0.0
 10
23.0668
 20
92.8263
 30
0.0
 10
25.3248
 20
92.2959
 30
0.0
 10
25.3248
 20
92.2959
 30
0.0
 10
23.1571
 20
91.3319
 30
0.0
 10
21.0018
 20
93.1826
 30
0.0
 10
17.6908
 20
90.412
 30
0.0
 10
17.6908
 20
90.412
 30
0.0
 10
21.3942
 20
91.1322
 30
0.0
 10
26.444
 20
88.2755
 30
0.0
 10
27.0407
 20
84.3091
 30
0.0
  0
SPLINE
  5
70
330
1F
100
AcDbEntity
  8
layer 1
 62
     7
370
     9
100
AcDbSpline
210
0.0
220
0.0
230
1.0
 70
    11
 71
     3
 72
    20
 73
    16
 74
     0
 42
0.0000000001
 43
0.0000000001
 12
1.0
 22
0.0
 32
0.0
 13
1.0
 23
0.0
 33
0.0
 40
0.0
 40
0.0
 40
0.0
 40
0.0
 40
0.2
 40
0.2
 40
0.2
 40
0.2
 40
0.4
 40
0.4
 40
0.4
 40
0.4
 40
0.6
 40
0.6
 40
0.6
 40
0.6
 40
1.0
 40
1.0
 40
1.0
 40
1.0
 10
26.9346
 20
104.4096
 30
0.0
 10
26.347
 20
109.7777
 30
0.0
 10
23.3686
 20
114.4506
 30
0.0
 10
19.0854
 20
117.3477
 30
0.0
 10
19.0854
 20
117.3477
 30
0.0
 10
17.7137
 20
115.6343
 30
0.0
 10
15.8325
 20
114.3686
 30
0.0
 10
17.909
 20
112.0249
 30
0.0
 10
17.909
 20
112.0249
 30
0.0
 10
19.9918
 20
109.6741
 30
0.0
 10
25.1866
 20
110.1522
 30
0.0
 10
26.7471
 20
104.8862
 30
0.0
 10
26.7471
 20
104.8862
 30
0.0
 10
26.7704
 20
104.8074
 30
0.0
 10
26.8794
 20
104.5725
 30
0.0
 10
26.9346
 20
104.4096
 30
0.0
  0
SPLINE
  5
71
330
1F
100
AcDbEntity
  8
layer 1
 62
     7
370
     9
100
AcDbSpline
210
0.0
220
0.0
230
1.0
 70
    11
 71
     3
 72
    28
 73
    24
 74
     0
 42
0.0000000001
 43
0.0000000001
 12
1.0
 22
0.0
 32
0.0
 13
1.0
 23
0.0
 33
0.0
 40
0.0
 40
0.0
 40
0.0
 40
0.0
 40
0.1428571428571428
 40
0.1428571428571428
 40
0.1428571428571428
 40
0.1428571428571428
 40
0.2857142857142857
 40
0.2857142857142857
 40
0.2857142857142857
 40
0.2857142857142857
 40
0.4285714285714285
 40
0.4285714285714285
 40
0.4285714285714285
 40
0.4285714285714285
 40
0.5714285714285714
 40
0.5714285714285714
 40
0.5714285714285714
 40
0.5714285714285714
 40
0.7142857142857143
 40
0.7142857142857143
 40
0.7142857142857143
 40
0.7142857142857143
 40
1.0
 40
1.0
 40
1.0
 40
1.0
 10
18.4537
 20
117.7562
 30
0.0
 10
15.6845
 20
119.4669
 30
0.0
 10
12.421
 20
120.4563
 30
0.0
 10
8.9325
 20
120.4563
 30
0.0
 10
8.9325
 20
120.4563
 30
0.0
 10
5.4479
 20
120.4563
 30
0.0
 10
2.1576
 20
119.4625
 30
0.0
 10
-0.6096
 20
117.7551
 30
0.0
 10
-0.6096
 20
117.7551
 30
0.0
 10
1.2603
 20
117.5161
 30
0.0
 10
4.735
 20
116.4916
 30
0.0
 10
5.186
 20
114.2984
 30
0.0
 10
5.186
 20
114.2984
 30
0.0
 10
5.1529
 20
115.9834
 30
0.0
 10
6.5354
 20
118.0212
 30
0.0
 10
8.9327
 20
118.023
 30
0.0
 10
8.9327
 20
118.023
 30
0.0
 10
11.33
 20
118.0212
 30
0.0
 10
12.7397
 20
115.9834
 30
0.0
 10
12.7066
 20
114.2984
 30
0.0
 10
12.7066
 20
114.2984
 30
0.0
 10
13.133
 20
116.3695
 30
0.0
 10
16.5282
 20
117.5099
 30
0.0
 10
18.4537
 20
117.7562
 30
0.0
  0
SPLINE
  5
72
330
1F
100
AcDbEntity
  8
layer 1
 62
     7
370
     9
100
AcDbSpline
210
0.0
220
0.0
230
1.0
 70
    11
 71
     3
 72
    20
 73
    16
 74
     0
 42
0.0000000001
 43
0.0000000001
 12
1.0
 22
0.0
 32
0.0
 13
1.0
 23
0.0
 33
0.0
 40
0.0
 40
0.0
 40
0.0
 40
0.0
 40
0.2
 40
0.2
 40
0.2
 40
0.2
 40
0.4
 40
0.4
 40
0.4
 40
0.4
 40
0.6
 40
0.6
 40
0.6
 40
0.6
 40
1.0
 40
1.0
 40
1.0
 40
1.0
 10
9.1607
 20
45.9409
 30
0.0
 10
10.3625
 20
48.359
 30
0.0
 10
12.0731
 20
49.02
 30
0.0
 10
12.0731
 20
52.0977
 30
0.0
 10
12.0731
 20
52.0977
 30
0.0
 10
12.9569
 20
50.332
 30
0.0
 10
15.1237
 20
45.908
 30
0.0
 10
19.9882
 20
45.9409
 30
0.0
 10
19.9882
 20
45.9409
 30
0.0
 10
15.1237
 20
45.9738
 30
0.0
 10
12.9569
 20
41.5498
 30
0.0
 10
12.0731
 20
39.7841
 30
0.0
 10
12.0731
 20
39.7841
 30
0.0
 10
12.0731
 20
42.8618
 30
0.0
 10
10.3625
 20
43.5228
 30
0.0
 10
9.1607
 20
45.9409
 30
0.0
  0
SPLINE
  5
73
330
1F
100
AcDbEntity
  8
layer 1
 62
     7
370
     9
100
AcDbSpline
210
0.0
220
0.0
230
1.0
 70
    11
 71
     3
 72
    20
 73
    16
 74
     0
 42
0.0000000001
 43
0.0000000001
 12
1.0
 22
0.0
 32
0.0
 13
1.0
 23
0.0
 33
0.0
 40
0.0
 40
0.0
 40
0.0
 40
0.0
 40
0.2
 40
0.2
 40
0.2
 40
0.2
 40
0.4
 40
0.4
 40
0.4
 40
0.4
 40
0.6
 40
0.6
 40
0.6
 40
0.6
 40
1.0
 40
1.0
 40
1.0
 40
1.0
 10
8.7319
 20
45.9409
 30
0.0
 10
7.5301
 20
43.5228
 30
0.0
 10
5.8195
 20
42.8618
 30
0.0
 10
5.8195
 20
39.7841
 30
0.0
 10
5.8195
 20
39.7841
 30
0.0
 10
4.9357
 20
41.5498
 30
0.0
 10
2.7689
 20
45.9738
 30
0.0
 10
-2.0956
 20
45.9409
 30
0.0
 10
-2.0956
 20
45.9409
 30
0.0
 10
2.7689
 20
45.908
 30
0.0
 10
4.9357
 20
50.332
 30
0.0
 10
5.8195
 20
52.0977
 30
0.0
 10
5.8195
 20
52.0977
 30
0.0
 10
5.8195
 20
49.02
 30
0.0
 10
7.5301
 20
48.359
 30
0.0
 10
8.7319
 20
45.9409
 30
0.0
  0
SPLINE
  5
74
330
1F
100
AcDbEntity
  8
layer 1
 62
     7
370
     9
100
AcDbSpline
210
0.0
220
0.0
230
1.0
 70
    11
 71
     3
 72
    20
 73
    16
 74
     0
 42
0.0000000001
 43
0.0000000001
 12
1.0
 22
0.0
 32
0.0
 13
1.0
 23
0.0
 33
0.0
 40
0.0
 40
0.0
 40
0.0
 40
0.0
 40
0.2
 40
0.2
 40
0.2
 40
0.2
 40
0.4
 40
0.4
 40
0.4
 40
0.4
 40
0.6
 40
0.6
 40
0.6
 40
0.6
 40
1.0
 40
1.0
 40
1.0
 40
1.0
 10
8.7362
 20
-3.7551
 30
0.0
 10
7.5388
 20
-6.1599
 30
0.0
 10
5.8467
 20
-6.8473
 30
0.0
 10
5.8467
 20
-9.9251
 30
0.0
 10
5.8467
 20
-9.9251
 30
0.0
 10
4.9629
 20
-8.1593
 30
0.0
 10
2.7689
 20
-3.7353
 30
0.0
 10
-2.0956
 20
-3.7682
 30
0.0
 10
-2.0956
 20
-3.7682
 30
0.0
 10
2.7689
 20
-3.8011
 30
0.0
 10
4.9357
 20
0.6229
 30
0.0
 10
5.8195
 20
2.3886
 30
0.0
 10
5.8195
 20
2.3886
 30
0.0
 10
5.8195
 20
-0.6891
 30
0.0
 10
7.5301
 20
-1.3501
 30
0.0
 10
8.7362
 20
-3.7551
 30
0.0
  0
SPLINE
  5
75
330
1F
100
AcDbEntity
  8
layer 1
 62
     7
370
     9
100
AcDbSpline
210
0.0
220
0.0
230
1.0
 70
    11
 71
     3
 72
    20
 73
    16
 74
     0
 42
0.0000000001
 43
0.0000000001
 12
1.0
 22
0.0
 32
0.0
 13
1.0
 23
0.0
 33
0.0
 40
0.0
 40
0.0
 40
0.0
 40
0.0
 40
0.2
 40
0.2
 40
0.2
 40
0.2
 40
0.4
 40
0.4
 40
0.4
 40
0.4
 40
0.6
 40
0.6
 40
0.6
 40
0.6
 40
1.0
 40
1.0
 40
1.0
 40
1.0
 10
19.9882
 20
-3.7682
 30
0.0
 10
15.1237
 20
-3.7353
 30
0.0
 10
12.9569
 20
-8.1593
 30
0.0
 10
12.0731
 20
-9.9251
 30
0.0
 10
12.0731
 20
-9.9251
 30
0.0
 10
12.0731
 20
-6.8473
 30
0.0
 10
10.3524
 20
-6.1512
 30
0.0
 10
9.1567
 20
-3.7598
 30
0.0
 10
9.1567
 20
-3.7598
 30
0.0
 10
10.3646
 20
-1.3685
 30
0.0
 10
12.0731
 20
-0.6891
 30
0.0
 10
12.0731
 20
2.3886
 30
0.0
 10
12.0731
 20
2.3886
 30
0.0
 10
12.9569
 20
0.6229
 30
0.0
 10
15.1237
 20
-3.8011
 30
0.0
 10
19.9882
 20
-3.7682
 30
0.0
  0
SPLINE
  5
76
330
1F
100
AcDbEntity
  8
layer 1
 62
     7
370
     9
100
AcDbSpline
210
0.0
220
0.0
230
1.0
 70
    11
 71
     3
 72
    92
 73
    88
 74
     0
 42
0.0000000001
 43
0.0000000001
 12
1.0
 22
0.0
 32
0.0
 13
1.0
 23
0.0
 33
0.0
 40
0.0
 40
0.0
 40
0.0
 40
0.0
 40
0.0434782608695652
 40
0.0434782608695652
 40
0.0434782608695652
 40
0.0434782608695652
 40
0.0869565217391304
 40
0.0869565217391304
 40
0.0869565217391304
 40
0.0869565217391304
 40
0.1304347826086956
 40
0.1304347826086956
 40
0.1304347826086956
 40
0.1304347826086956
 40
0.1739130434782609
 40
0.1739130434782609
 40
0.1739130434782609
 40
0.1739130434782609
 40
0.2173913043478261
 40
0.2173913043478261
 40
0.2173913043478261
 40
0.2173913043478261
 40
0.2608695652173913
 40
0.2608695652173913
 40
0.2608695652173913
 40
0.2608695652173913
 40
0.3043478260869565
 40
0.3043478260869565
 40
0.3043478260869565
 40
0.3043478260869565
 40
0.3478260869565217
 40
0.3478260869565217
 40
0.3478260869565217
 40
0.3478260869565217
 40
0.391304347826087
 40
0.391304347826087
 40
0.391304347826087
 40
0.391304347826087
 40
0.4347826086956522
 40
0.4347826086956522
 40
0.4347826086956522
 40
0.4347826086956522
 40
0.4782608695652174
 40
0.4782608695652174
 40
0.4782608695652174
 40
0.4782608695652174
 40
0.5217391304347826
 40
0.5217391304347826
 40
0.5217391304347826
 40
0.5217391304347826
 40
0.5652173913043478
 40
0.5652173913043478
 40
0.5652173913043478
 40
0.5652173913043478
 40
0.6086956521739131
 40
0.6086956521739131
 40
0.6086956521739131
 40
0.6086956521739131
 40
0.6521739130434783
 40
0.6521739130434783
 40
0.6521739130434783
 40
0.6521739130434783
 40
0.6956521739130435
 40
0.6956521739130435
 40
0.6956521739130435
 40
0.6956521739130435
 40
0.7391304347826086
 40
0.7391304347826086
 40
0.7391304347826086
 40
0.7391304347826086
 40
0.782608695652174
 40
0.782608695652174
 40
0.782608695652174
 40
0.782608695652174
 40
0.8260869565217391
 40
0.8260869565217391
 40
0.8260869565217391
 40
0.8260869565217391
 40
0.8695652173913043
 40
0.8695652173913043
 40
0.8695652173913043
 40
0.8695652173913043
 40
0.9130434782608695
 40
0.9130434782608695
 40
0.9130434782608695
 40
0.9130434782608695
 40
1.0
 40
1.0
 40
1.0
 40
1.0
 10
8.9463
 20
-68.5214
 30
0.0
 10
10.1674
 20
-65.205
 30
0.0
 10
13.0499
 20
-64.9291
 30
0.0
 10
11.3754
 20
-59.5367
 30
0.0
 10
11.3754
 20
-59.5367
 30
0.0
 10
12.0698
 20
-61.8981
 30
0.0
 10
15.8059
 20
-61.2574
 30
0.0
 10
17.8601
 20
-64.5391
 30
0.0
 10
17.8601
 20
-64.5391
 30
0.0
 10
17.6681
 20
-56.0739
 30
0.0
 10
11.9739
 20
-59.5979
 30
0.0
 10
9.8244
 20
-45.4417
 30
0.0
 10
9.8244
 20
-45.4417
 30
0.0
 10
12.3222
 20
-50.4321
 30
0.0
 10
24.0871
 20
-58.4514
 30
0.0
 10
24.1811
 20
-65.9579
 30
0.0
 10
24.1811
 20
-65.9579
 30
0.0
 10
24.2752
 20
-73.4643
 30
0.0
 10
16.9763
 20
-81.2818
 30
0.0
 10
17.8069
 20
-76.0414
 30
0.0
 10
17.8069
 20
-76.0414
 30
0.0
 10
18.2092
 20
-73.5038
 30
0.0
 10
17.3627
 20
-72.3722
 30
0.0
 10
16.4677
 20
-70.1142
 30
0.0
 10
16.4677
 20
-70.1142
 30
0.0
 10
16.093
 20
-72.8772
 30
0.0
 10
10.9672
 20
-76.4305
 30
0.0
 10
16.671
 20
-79.9705
 30
0.0
 10
16.671
 20
-79.9705
 30
0.0
 10
15.5662
 20
-80.1236
 30
0.0
 10
16.3003
 20
-78.8937
 30
0.0
 10
13.0542
 20
-79.7881
 30
0.0
 10
13.0542
 20
-79.7881
 30
0.0
 10
14.1479
 20
-82.0447
 30
0.0
 10
15.7716
 20
-81.3834
 30
0.0
 10
16.7337
 20
-81.2641
 30
0.0
 10
16.7337
 20
-81.2641
 30
0.0
 10
13.4292
 20
-82.4171
 30
0.0
 10
12.7205
 20
-83.9088
 30
0.0
 10
12.6414
 20
-85.031
 30
0.0
 10
12.6414
 20
-85.031
 30
0.0
 10
12.4749
 20
-83.5745
 30
0.0
 10
11.1683
 20
-81.954
 30
0.0
 10
8.9463
 20
-81.8877
 30
0.0
 10
8.9463
 20
-81.8877
 30
0.0
 10
6.7243
 20
-81.954
 30
0.0
 10
5.4176
 20
-83.5745
 30
0.0
 10
5.2512
 20
-85.031
 30
0.0
 10
5.2512
 20
-85.031
 30
0.0
 10
5.1721
 20
-83.9088
 30
0.0
 10
4.4634
 20
-82.4171
 30
0.0
 10
1.1589
 20
-81.2641
 30
0.0
 10
1.1589
 20
-81.2641
 30
0.0
 10
2.121
 20
-81.3834
 30
0.0
 10
3.7447
 20
-82.0447
 30
0.0
 10
4.8384
 20
-79.7881
 30
0.0
 10
4.8384
 20
-79.7881
 30
0.0
 10
1.5922
 20
-78.8937
 30
0.0
 10
2.3263
 20
-80.1236
 30
0.0
 10
1.2216
 20
-79.9705
 30
0.0
 10
1.2216
 20
-79.9705
 30
0.0
 10
6.9254
 20
-76.4305
 30
0.0
 10
1.7995
 20
-72.8772
 30
0.0
 10
1.4249
 20
-70.1142
 30
0.0
 10
1.4249
 20
-70.1142
 30
0.0
 10
0.5298
 20
-72.3722
 30
0.0
 10
-0.3166
 20
-73.5038
 30
0.0
 10
0.0856
 20
-76.0414
 30
0.0
 10
0.0856
 20
-76.0414
 30
0.0
 10
0.9162
 20
-81.2818
 30
0.0
 10
-6.3826
 20
-73.4643
 30
0.0
 10
-6.2886
 20
-65.9579
 30
0.0
 10
-6.2886
 20
-65.9579
 30
0.0
 10
-6.1945
 20
-58.4514
 30
0.0
 10
5.5704
 20
-50.4321
 30
0.0
 10
8.0682
 20
-45.4417
 30
0.0
 10
8.0682
 20
-45.4417
 30
0.0
 10
5.9187
 20
-59.5979
 30
0.0
 10
0.2245
 20
-56.0739
 30
0.0
 10
0.0324
 20
-64.5391
 30
0.0
 10
0.0324
 20
-64.5391
 30
0.0
 10
2.0867
 20
-61.2574
 30
0.0
 10
5.8228
 20
-61.8981
 30
0.0
 10
6.5171
 20
-59.5367
 30
0.0
 10
6.5171
 20
-59.5367
 30
0.0
 10
4.8427
 20
-64.9291
 30
0.0
 10
7.7251
 20
-65.205
 30
0.0
 10
8.9463
 20
-68.5214
 30
0.0
  0
SPLINE
  5
77
330
1F
100
AcDbEntity
  8
layer 1
 62
     7
370
     9
100
AcDbSpline
210
0.0
220
0.0
230
1.0
 70
    11
 71
     3
 72
    96
 73
    92
 74
     0
 42
0.0000000001
 43
0.0000000001
 12
1.0
 22
0.0
 32
0.0
 13
1.0
 23
0.0
 33
0.0
 40
0.0
 40
0.0
 40
0.0
 40
0.0
 40
0.0416666666666667
 40
0.0416666666666667
 40
0.0416666666666667
 40
0.0416666666666667
 40
0.0833333333333333
 40
0.0833333333333333
 40
0.0833333333333333
 40
0.0833333333333333
 40
0.125
 40
0.125
 40
0.125
 40
0.125
 40
0.1666666666666667
 40
0.1666666666666667
 40
0.1666666666666667
 40
0.1666666666666667
 40
0.2083333333333333
 40
0.2083333333333333
 40
0.2083333333333333
 40
0.2083333333333333
 40
0.25
 40
0.25
 40
0.25
 40
0.25
 40
0.2916666666666667
 40
0.2916666666666667
 40
0.2916666666666667
 40
0.2916666666666667
 40
0.3333333333333333
 40
0.3333333333333333
 40
0.3333333333333333
 40
0.3333333333333333
 40
0.375
 40
0.375
 40
0.375
 40
0.375
 40
0.4166666666666667
 40
0.4166666666666667
 40
0.4166666666666667
 40
0.4166666666666667
 40
0.4583333333333333
 40
0.4583333333333333
 40
0.4583333333333333
 40
0.4583333333333333
 40
0.5
 40
0.5
 40
0.5
 40
0.5
 40
0.5416666666666666
 40
0.5416666666666666
 40
0.5416666666666666
 40
0.5416666666666666
 40
0.5833333333333334
 40
0.5833333333333334
 40
0.5833333333333334
 40
0.5833333333333334
 40
0.625
 40
0.625
 40
0.625
 40
0.625
 40
0.6666666666666666
 40
0.6666666666666666
 40
0.6666666666666666
 40
0.6666666666666666
 40
0.7083333333333334
 40
0.7083333333333334
 40
0.7083333333333334
 40
0.7083333333333334
 40
0.75
 40
0.75
 40
0.75
 40
0.75
 40
0.7916666666666666
 40
0.7916666666666666
 40
0.7916666666666666
 40
0.7916666666666666
 40
0.8333333333333334
 40
0.8333333333333334
 40
0.8333333333333334
 40
0.8333333333333334
 40
0.875
 40
0.875
 40
0.875
 40
0.875
 40
0.9166666666666666
 40
0.9166666666666666
 40
0.9166666666666666
 40
0.9166666666666666
 40
1.0
 40
1.0
 40
1.0
 40
1.0
 10
8.9305
 20
102.4729
 30
0.0
 10
7.7251
 20
99.1566
 30
0.0
 10
6.3774
 20
99.317
 30
0.0
 10
8.0518
 20
93.9246
 30
0.0
 10
8.0518
 20
93.9246
 30
0.0
 10
7.3575
 20
96.286
 30
0.0
 10
5.4028
 20
96.1131
 30
0.0
 10
3.3485
 20
99.3948
 30
0.0
 10
3.3485
 20
99.3948
 30
0.0
 10
3.5406
 20
90.9296
 30
0.0
 10
7.2924
 20
93.0977
 30
0.0
 10
8.0682
 20
87.6131
 30
0.0
 10
8.0682
 20
87.6131
 30
0.0
 10
5.5704
 20
92.6036
 30
0.0
 10
-8.1791
 20
96.6499
 30
0.0
 10
-7.9637
 20
102.4116
 30
0.0
 10
-7.9637
 20
102.4116
 30
0.0
 10
-7.7482
 20
108.1733
 30
0.0
 10
0.9169
 20
109.9685
 30
0.0
 10
0.0856
 20
104.7278
 30
0.0
 10
0.0856
 20
104.7278
 30
0.0
 10
-0.317
 20
102.1896
 30
0.0
 10
0.5298
 20
101.0586
 30
0.0
 10
1.4249
 20
98.8006
 30
0.0
 10
1.4249
 20
98.8006
 30
0.0
 10
1.7995
 20
101.5636
 30
0.0
 10
6.9254
 20
105.1169
 30
0.0
 10
1.2216
 20
108.6569
 30
0.0
 10
1.2216
 20
108.6569
 30
0.0
 10
2.3263
 20
108.81
 30
0.0
 10
1.5922
 20
107.5801
 30
0.0
 10
4.8384
 20
108.4746
 30
0.0
 10
4.8384
 20
108.4746
 30
0.0
 10
3.7447
 20
110.7311
 30
0.0
 10
2.121
 20
110.0699
 30
0.0
 10
1.1589
 20
109.9505
 30
0.0
 10
1.1589
 20
109.9505
 30
0.0
 10
4.4634
 20
111.1035
 30
0.0
 10
5.1721
 20
112.5953
 30
0.0
 10
5.2512
 20
113.7174
 30
0.0
 10
5.2512
 20
113.7174
 30
0.0
 10
5.4176
 20
112.2609
 30
0.0
 10
6.7243
 20
110.6404
 30
0.0
 10
8.9327
 20
110.5741
 30
0.0
 10
8.9327
 20
110.5741
 30
0.0
 10
11.141
 20
110.6404
 30
0.0
 10
12.4749
 20
112.2609
 30
0.0
 10
12.6414
 20
113.7174
 30
0.0
 10
12.6414
 20
113.7174
 30
0.0
 10
12.7205
 20
112.5953
 30
0.0
 10
13.4292
 20
111.1035
 30
0.0
 10
16.7337
 20
109.9505
 30
0.0
 10
16.7337
 20
109.9505
 30
0.0
 10
15.7716
 20
110.0699
 30
0.0
 10
14.1479
 20
110.7311
 30
0.0
 10
13.0542
 20
108.4746
 30
0.0
 10
13.0542
 20
108.4746
 30
0.0
 10
16.3003
 20
107.5801
 30
0.0
 10
15.5662
 20
108.81
 30
0.0
 10
16.671
 20
108.6569
 30
0.0
 10
16.671
 20
108.6569
 30
0.0
 10
10.9672
 20
105.1169
 30
0.0
 10
16.093
 20
101.5636
 30
0.0
 10
16.4677
 20
98.8006
 30
0.0
 10
16.4677
 20
98.8006
 30
0.0
 10
17.3627
 20
101.0586
 30
0.0
 10
18.2096
 20
102.1896
 30
0.0
 10
17.8069
 20
104.7278
 30
0.0
 10
17.8069
 20
104.7278
 30
0.0
 10
16.9757
 20
109.9685
 30
0.0
 10
25.6408
 20
108.1733
 30
0.0
 10
25.8562
 20
102.4116
 30
0.0
 10
25.8562
 20
102.4116
 30
0.0
 10
26.0717
 20
96.6499
 30
0.0
 10
12.3222
 20
92.6036
 30
0.0
 10
9.8244
 20
87.6131
 30
0.0
 10
9.8244
 20
87.6131
 30
0.0
 10
10.6002
 20
93.0977
 30
0.0
 10
14.352
 20
90.9296
 30
0.0
 10
14.5441
 20
99.3948
 30
0.0
 10
14.5441
 20
99.3948
 30
0.0
 10
12.4898
 20
96.1131
 30
0.0
 10
10.5351
 20
96.286
 30
0.0
 10
9.8407
 20
93.9246
 30
0.0
 10
9.8407
 20
93.9246
 30
0.0
 10
11.5152
 20
99.317
 30
0.0
 10
10.1674
 20
99.1566
 30
0.0
 10
8.962
 20
102.4729
 30
0.0
 10
8.962
 20
102.4729
 30
0.0
 10
8.962
 20
102.4729
 30
0.0
 10
8.9305
 20
102.4729
 30
0.0
 10
8.9305
 20
102.4729
 30
0.0
  0
SPLINE
  5
78
330
1F
100
AcDbEntity
  8
layer 1
 62
     7
370
     9
100
AcDbSpline
210
0.0
220
0.0
230
1.0
 70
    11
 71
     3
 72
    24
 73
    20
 74
     0
 42
0.0000000001
 43
0.0000000001
 12
1.0
 22
0.0
 32
0.0
 13
1.0
 23
0.0
 33
0.0
 40
0.0
 40
0.0
 40
0.0
 40
0.0
 40
0.1666666666666667
 40
0.1666666666666667
 40
0.1666666666666667
 40
0.1666666666666667
 40
0.3333333333333333
 40
0.3333333333333333
 40
0.3333333333333333
 40
0.3333333333333333
 40
0.5
 40
0.5
 40
0.5
 40
0.5
 40
0.6666666666666666
 40
0.6666666666666666
 40
0.6666666666666666
 40
0.6666666666666666
 40
1.0
 40
1.0
 40
1.0
 40
1.0
 10
22.0086
 20
70.7955
 30
0.0
 10
22.0388
 20
69.8926
 30
0.0
 10
22.1484
 20
67.372
 30
0.0
 10
24.2112
 20
66.6515
 30
0.0
 10
24.2112
 20
66.6515
 30
0.0
 10
24.9046
 20
66.4093
 30
0.0
 10
26.0182
 20
66.9078
 30
0.0
 10
27.0403
 20
68.1655
 30
0.0
 10
27.0403
 20
68.1655
 30
0.0
 10
27.0403
 20
68.1655
 30
0.0
 10
27.0404
 20
73.4128
 30
0.0
 10
27.0404
 20
73.4128
 30
0.0
 10
27.0404
 20
73.4128
 30
0.0
 10
26.0183
 20
74.6706
 30
0.0
 10
24.9046
 20
75.1816
 30
0.0
 10
24.2112
 20
74.9394
 30
0.0
 10
24.2112
 20
74.9394
 30
0.0
 10
22.1484
 20
74.2189
 30
0.0
 10
22.0388
 20
71.6982
 30
0.0
 10
22.0086
 20
70.7955
 30
0.0
  0
SPLINE
  5
79
330
1F
100
AcDbEntity
  8
layer 1
 62
     7
370
     9
100
AcDbSpline
210
0.0
220
0.0
230
1.0
 70
    11
 71
     3
 72
    20
 73
    16
 74
     0
 42
0.0000000001
 43
0.0000000001
 12
1.0
 22
0.0
 32
0.0
 13
1.0
 23
0.0
 33
0.0
 40
0.0
 40
0.0
 40
0.0
 40
0.0
 40
0.2
 40
0.2
 40
0.2
 40
0.2
 40
0.4
 40
0.4
 40
0.4
 40
0.4
 40
0.6
 40
0.6
 40
0.6
 40
0.6
 40
1.0
 40
1.0
 40
1.0
 40
1.0
 10
19.5853
 20
-89.353
 30
0.0
 10
19.5853
 20
-89.353
 30
0.0
 10
27.0392
 20
-89.353
 30
0.0
 10
27.0392
 20
-89.353
 30
0.0
 10
27.0392
 20
-89.353
 30
0.0
 10
27.0392
 20
-89.353
 30
0.0
 10
27.0392
 20
-68.0426
 30
0.0
 10
27.0392
 20
-68.0426
 30
0.0
 10
27.0392
 20
-68.0426
 30
0.0
 10
25.4787
 20
-73.3084
 30
0.0
 10
19.9916
 20
-80.988
 30
0.0
 10
17.909
 20
-83.3385
 30
0.0
 10
17.909
 20
-83.3385
 30
0.0
 10
15.8329
 20
-85.6819
 30
0.0
 10
18.2136
 20
-87.6395
 30
0.0
 10
19.5853
 20
-89.353
 30
0.0
  0
SPLINE
  5
7A
330
1F
100
AcDbEntity
  8
layer 1
 62
     7
370
     9
100
AcDbSpline
210
0.0
220
0.0
230
1.0
 70
    11
 71
     3
 72
    16
 73
    12
 74
     0
 42
0.0000000001
 43
0.0000000001
 12
1.0
 22
0.0
 32
0.0
 13
1.0
 23
0.0
 33
0.0
 40
0.0
 40
0.0
 40
0.0
 40
0.0
 40
0.25
 40
0.25
 40
0.25
 40
0.25
 40
0.5
 40
0.5
 40
0.5
 40
0.5
 40
1.0
 40
1.0
 40
1.0
 40
1.0
 10
-0.7039
 20
-89.346
 30
0.0
 10
-0.7039
 20
-89.346
 30
0.0
 10
8.2202
 20
-89.3388
 30
0.0
 10
8.2202
 20
-89.3388
 30
0.0
 10
8.2202
 20
-89.3388
 30
0.0
 10
6.2614
 20
-88.9648
 30
0.0
 10
5.1562
 20
-87.1184
 30
0.0
 10
5.186
 20
-85.612
 30
0.0
 10
5.186
 20
-85.612
 30
0.0
 10
4.7596
 20
-87.6831
 30
0.0
 10
1.2215
 20
-89.1002
 30
0.0
 10
-0.7039
 20
-89.346
 30
0.0
  0
SPLINE
  5
7B
330
1F
100
AcDbEntity
  8
layer 1
 62
     7
370
     9
100
AcDbSpline
210
0.0
220
0.0
230
1.0
 70
    11
 71
     3
 72
    20
 73
    16
 74
     0
 42
0.0000000001
 43
0.0000000001
 12
1.0
 22
0.0
 32
0.0
 13
1.0
 23
0.0
 33
0.0
 40
0.0
 40
0.0
 40
0.0
 40
0.0
 40
0.2
 40
0.2
 40
0.2
 40
0.2
 40
0.4
 40
0.4
 40
0.4
 40
0.4
 40
0.6
 40
0.6
 40
0.6
 40
0.6
 40
1.0
 40
1.0
 40
1.0
 40
1.0
 10
-9.1718
 20
-67.9708
 30
0.0
 10
-9.1718
 20
-67.9708
 30
0.0
 10
-9.1713
 20
-89.353
 30
0.0
 10
-9.1713
 20
-89.353
 30
0.0
 10
-9.1713
 20
-89.353
 30
0.0
 10
-9.1713
 20
-89.353
 30
0.0
 10
-1.6722
 20
-89.3468
 30
0.0
 10
-1.6722
 20
-89.3468
 30
0.0
 10
-1.6722
 20
-89.3468
 30
0.0
 10
-0.3004
 20
-87.6333
 30
0.0
 10
2.0597
 20
-85.6818
 30
0.0
 10
-0.0164
 20
-83.3385
 30
0.0
 10
-0.0164
 20
-83.3385
 30
0.0
 10
-2.0989
 20
-80.988
 30
0.0
 10
-7.6114
 20
-73.2366
 30
0.0
 10
-9.1718
 20
-67.9708
 30
0.0
  0
SPLINE
  5
7C
330
1F
100
AcDbEntity
  8
layer 1
 62
     7
370
     9
100
AcDbSpline
210
0.0
220
0.0
230
1.0
 70
    11
 71
     3
 72
    60
 73
    56
 74
     0
 42
0.0000000001
 43
0.0000000001
 12
1.0
 22
0.0
 32
0.0
 13
1.0
 23
0.0
 33
0.0
 40
0.0
 40
0.0
 40
0.0
 40
0.0
 40
0.0666666666666667
 40
0.0666666666666667
 40
0.0666666666666667
 40
0.0666666666666667
 40
0.1333333333333333
 40
0.1333333333333333
 40
0.1333333333333333
 40
0.1333333333333333
 40
0.2
 40
0.2
 40
0.2
 40
0.2
 40
0.2666666666666667
 40
0.2666666666666667
 40
0.2666666666666667
 40
0.2666666666666667
 40
0.3333333333333333
 40
0.3333333333333333
 40
0.3333333333333333
 40
0.3333333333333333
 40
0.4
 40
0.4
 40
0.4
 40
0.4
 40
0.4666666666666667
 40
0.4666666666666667
 40
0.4666666666666667
 40
0.4666666666666667
 40
0.5333333333333333
 40
0.5333333333333333
 40
0.5333333333333333
 40
0.5333333333333333
 40
0.6
 40
0.6
 40
0.6
 40
0.6
 40
0.6666666666666666
 40
0.6666666666666666
 40
0.6666666666666666
 40
0.6666666666666666
 40
0.7333333333333333
 40
0.7333333333333333
 40
0.7333333333333333
 40
0.7333333333333333
 40
0.8
 40
0.8
 40
0.8
 40
0.8
 40
0.8666666666666667
 40
0.8666666666666667
 40
0.8666666666666667
 40
0.8666666666666667
 40
1.0
 40
1.0
 40
1.0
 40
1.0
 10
-9.1726
 20
-32.2124
 30
0.0
 10
-9.1726
 20
-32.2124
 30
0.0
 10
-9.1724
 20
-40.0839
 30
0.0
 10
-9.1724
 20
-40.0839
 30
0.0
 10
-9.1724
 20
-40.0839
 30
0.0
 10
-8.1903
 20
-33.809
 30
0.0
 10
-2.3863
 20
-34.5251
 30
0.0
 10
-0.8523
 20
-36.3245
 30
0.0
 10
-0.8523
 20
-36.3245
 30
0.0
 10
0.7555
 20
-38.2104
 30
0.0
 10
0.311
 20
-40.292
 30
0.0
 10
-0.7982
 20
-41.6066
 30
0.0
 10
-0.7982
 20
-41.6066
 30
0.0
 10
-0.5451
 20
-39.4885
 30
0.0
 10
-2.108
 20
-38.3105
 30
0.0
 10
-3.3234
 20
-38.3052
 30
0.0
 10
-3.3234
 20
-38.3052
 30
0.0
 10
-10.2596
 20
-38.2741
 30
0.0
 10
-6.5029
 20
-47.7097
 30
0.0
 10
-1.1017
 20
-47.1397
 30
0.0
 10
-1.1017
 20
-47.1397
 30
0.0
 10
-1.5914
 20
-46.8873
 30
0.0
 10
-2.0551
 20
-46.2048
 30
0.0
 10
-2.3589
 20
-45.1652
 30
0.0
 10
-2.3589
 20
-45.1652
 30
0.0
 10
-0.502
 20
-46.2639
 30
0.0
 10
0.8352
 20
-46.9957
 30
0.0
 10
2.6118
 20
-46.5305
 30
0.0
 10
2.6118
 20
-46.5305
 30
0.0
 10
3.2556
 20
-46.362
 30
0.0
 10
3.8291
 20
-46.0708
 30
0.0
 10
4.3024
 20
-45.6832
 30
0.0
 10
4.3024
 20
-45.6832
 30
0.0
 10
4.9989
 20
-45.1129
 30
0.0
 10
6.2994
 20
-44.0886
 30
0.0
 10
6.6803
 20
-42.3623
 30
0.0
 10
6.6803
 20
-42.3623
 30
0.0
 10
6.7828
 20
-41.8981
 30
0.0
 10
6.8652
 20
-41.1222
 30
0.0
 10
6.8237
 20
-40.8611
 30
0.0
 10
6.8237
 20
-40.8611
 30
0.0
 10
3.6145
 20
-40.2509
 30
0.0
 10
1.9284
 20
-39.04
 30
0.0
 10
0.0845
 20
-37.3512
 30
0.0
 10
0.0845
 20
-37.3512
 30
0.0
 10
-2.2535
 20
-35.2099
 30
0.0
 10
-3.5242
 20
-31.455
 30
0.0
 10
-3.4917
 20
-29.8931
 30
0.0
 10
-3.4917
 20
-29.8931
 30
0.0
 10
-3.7564
 20
-32.9175
 30
0.0
 10
-4.7461
 20
-34.9865
 30
0.0
 10
-6.0896
 20
-35.4936
 30
0.0
 10
-6.0896
 20
-35.4936
 30
0.0
 10
-7.8267
 20
-36.1492
 30
0.0
 10
-8.9633
 20
-33.8047
 30
0.0
 10
-9.1726
 20
-32.2124
 30
0.0
  0
SPLINE
  5
7D
330
1F
100
AcDbEntity
  8
layer 1
 62
     7
370
     9
100
AcDbSpline
210
0.0
220
0.0
230
1.0
 70
    11
 71
     3
 72
    24
 73
    20
 74
     0
 42
0.0000000001
 43
0.0000000001
 12
1.0
 22
0.0
 32
0.0
 13
1.0
 23
0.0
 33
0.0
 40
0.0
 40
0.0
 40
0.0
 40
0.0
 40
0.1666666666666667
 40
0.1666666666666667
 40
0.1666666666666667
 40
0.1666666666666667
 40
0.3333333333333333
 40
0.3333333333333333
 40
0.3333333333333333
 40
0.3333333333333333
 40
0.5
 40
0.5
 40
0.5
 40
0.5
 40
0.6666666666666666
 40
0.6666666666666666
 40
0.6666666666666666
 40
0.6666666666666666
 40
1.0
 40
1.0
 40
1.0
 40
1.0
 10
-9.1727
 20
-26.022
 30
0.0
 10
-9.1727
 20
-26.022
 30
0.0
 10
-9.1726
 20
-31.2567
 30
0.0
 10
-9.1726
 20
-31.2567
 30
0.0
 10
-9.1726
 20
-31.2567
 30
0.0
 10
-8.1505
 20
-32.5144
 30
0.0
 10
-7.012
 20
-33.0102
 30
0.0
 10
-6.3187
 20
-32.7679
 30
0.0
 10
-6.3187
 20
-32.7679
 30
0.0
 10
-4.2558
 20
-32.0475
 30
0.0
 10
-4.1463
 20
-29.5268
 30
0.0
 10
-4.1161
 20
-28.624
 30
0.0
 10
-4.1161
 20
-28.624
 30
0.0
 10
-4.1463
 20
-27.7212
 30
0.0
 10
-4.2287
 20
-25.1993
 30
0.0
 10
-6.2914
 20
-24.4789
 30
0.0
 10
-6.2914
 20
-24.4789
 30
0.0
 10
-6.9848
 20
-24.2368
 30
0.0
 10
-8.1506
 20
-24.7643
 30
0.0
 10
-9.1727
 20
-26.022
 30
0.0
  0
SPLINE
  5
7E
330
1F
100
AcDbEntity
  8
layer 1
 62
     7
370
     9
100
AcDbSpline
210
0.0
220
0.0
230
1.0
 70
    11
 71
     3
 72
    24
 73
    20
 74
     0
 42
0.0000000001
 43
0.0000000001
 12
1.0
 22
0.0
 32
0.0
 13
1.0
 23
0.0
 33
0.0
 40
0.0
 40
0.0
 40
0.0
 40
0.0
 40
0.1666666666666667
 40
0.1666666666666667
 40
0.1666666666666667
 40
0.1666666666666667
 40
0.3333333333333333
 40
0.3333333333333333
 40
0.3333333333333333
 40
0.3333333333333333
 40
0.5
 40
0.5
 40
0.5
 40
0.5
 40
0.6666666666666666
 40
0.6666666666666666
 40
0.6666666666666666
 40
0.6666666666666666
 40
1.0
 40
1.0
 40
1.0
 40
1.0
 10
-9.1729
 20
-4.0112
 30
0.0
 10
-9.1729
 20
-4.0112
 30
0.0
 10
-9.1728
 20
-13.6681
 30
0.0
 10
-9.1728
 20
-13.6681
 30
0.0
 10
-9.1728
 20
-13.6681
 30
0.0
 10
-9.0437
 20
-11.8538
 30
0.0
 10
-8.5496
 20
-9.8254
 30
0.0
 10
-7.6724
 20
-8.0867
 30
0.0
 10
-7.6724
 20
-8.0867
 30
0.0
 10
-6.903
 20
-6.5619
 30
0.0
 10
-5.2359
 20
-4.8268
 30
0.0
 10
-4.1598
 20
-4.3086
 30
0.0
 10
-4.1598
 20
-4.3086
 30
0.0
 10
-5.415
 20
-4.3788
 30
0.0
 10
-5.5248
 20
-4.7986
 30
0.0
 10
-6.6501
 20
-4.7942
 30
0.0
 10
-6.6501
 20
-4.7942
 30
0.0
 10
-7.1512
 20
-4.7922
 30
0.0
 10
-8.5048
 20
-4.4009
 30
0.0
 10
-9.1729
 20
-4.0112
 30
0.0
  0
SPLINE
  5
7F
330
1F
100
AcDbEntity
  8
layer 1
 62
     7
370
     9
100
AcDbSpline
210
0.0
220
0.0
230
1.0
 70
    11
 71
     3
 72
    40
 73
    36
 74
     0
 42
0.0000000001
 43
0.0000000001
 12
1.0
 22
0.0
 32
0.0
 13
1.0
 23
0.0
 33
0.0
 40
0.0
 40
0.0
 40
0.0
 40
0.0
 40
0.1
 40
0.1
 40
0.1
 40
0.1
 40
0.2
 40
0.2
 40
0.2
 40
0.2
 40
0.3
 40
0.3
 40
0.3
 40
0.3
 40
0.4
 40
0.4
 40
0.4
 40
0.4
 40
0.5
 40
0.5
 40
0.5
 40
0.5
 40
0.6
 40
0.6
 40
0.6
 40
0.6
 40
0.7
 40
0.7
 40
0.7
 40
0.7
 40
0.8
 40
0.8
 40
0.8
 40
0.8
 40
1.0
 40
1.0
 40
1.0
 40
1.0
 10
-0.4272
 20
12.8709
 30
0.0
 10
0.7008
 20
11.1331
 30
0.0
 10
0.209
 20
9.2974
 30
0.0
 10
-0.7982
 20
8.1037
 30
0.0
 10
-0.7982
 20
8.1037
 30
0.0
 10
-0.5451
 20
10.2218
 30
0.0
 10
-2.1078
 20
11.419
 30
0.0
 10
-3.3234
 20
11.4052
 30
0.0
 10
-3.3234
 20
11.4052
 30
0.0
 10
-6.4172
 20
11.3698
 30
0.0
 10
-6.9325
 20
7.5333
 30
0.0
 10
-6.3128
 20
5.3194
 30
0.0
 10
-6.3128
 20
5.3194
 30
0.0
 10
-5.9766
 20
6.809
 30
0.0
 10
-4.5695
 20
7.0778
 30
0.0
 10
-3.2176
 20
7.1882
 30
0.0
 10
-3.2176
 20
7.1882
 30
0.0
 10
-5.3758
 20
4.7194
 30
0.0
 10
-4.9162
 20
0.0592
 30
0.0
 10
-2.7858
 20
-0.5964
 30
0.0
 10
-2.7858
 20
-0.5964
 30
0.0
 10
1.3383
 20
-1.8657
 30
0.0
 10
5.8673
 20
3.6653
 30
0.0
 10
6.6803
 20
7.3481
 30
0.0
 10
6.6803
 20
7.3481
 30
0.0
 10
6.7828
 20
7.8125
 30
0.0
 10
6.8652
 20
8.5882
 30
0.0
 10
6.8237
 20
8.8492
 30
0.0
 10
6.8237
 20
8.8492
 30
0.0
 10
3.6145
 20
9.4594
 30
0.0
 10
1.9284
 20
10.6704
 30
0.0
 10
0.0845
 20
12.3591
 30
0.0
 10
0.0845
 20
12.3591
 30
0.0
 10
-0.0921
 20
12.5209
 30
0.0
 10
-0.2627
 20
12.6922
 30
0.0
 10
-0.4272
 20
12.8709
 30
0.0
  0
SPLINE
  5
80
330
1F
100
AcDbEntity
  8
layer 1
 62
     7
370
     9
100
AcDbSpline
210
0.0
220
0.0
230
1.0
 70
    11
 71
     3
 72
    28
 73
    24
 74
     0
 42
0.0000000001
 43
0.0000000001
 12
1.0
 22
0.0
 32
0.0
 13
1.0
 23
0.0
 33
0.0
 40
0.0
 40
0.0
 40
0.0
 40
0.0
 40
0.1428571428571428
 40
0.1428571428571428
 40
0.1428571428571428
 40
0.1428571428571428
 40
0.2857142857142857
 40
0.2857142857142857
 40
0.2857142857142857
 40
0.2857142857142857
 40
0.4285714285714285
 40
0.4285714285714285
 40
0.4285714285714285
 40
0.4285714285714285
 40
0.5714285714285714
 40
0.5714285714285714
 40
0.5714285714285714
 40
0.5714285714285714
 40
0.7142857142857143
 40
0.7142857142857143
 40
0.7142857142857143
 40
0.7142857142857143
 40
1.0
 40
1.0
 40
1.0
 40
1.0
 10
-1.1083
 20
13.6977
 30
0.0
 10
-2.6812
 20
15.822
 30
0.0
 10
-3.5181
 20
18.5462
 30
0.0
 10
-3.4917
 20
19.8173
 30
0.0
 10
-3.4917
 20
19.8173
 30
0.0
 10
-3.7564
 20
16.7928
 30
0.0
 10
-4.7461
 20
14.7239
 30
0.0
 10
-6.0896
 20
14.2168
 30
0.0
 10
-6.0896
 20
14.2168
 30
0.0
 10
-7.7627
 20
13.5852
 30
0.0
 10
-8.9372
 20
15.532
 30
0.0
 10
-9.1736
 20
17.2097
 30
0.0
 10
-9.1736
 20
17.2097
 30
0.0
 10
-9.1736
 20
17.2097
 30
0.0
 10
-9.1733
 20
8.0535
 30
0.0
 10
-9.1733
 20
8.0535
 30
0.0
 10
-9.1733
 20
8.0535
 30
0.0
 10
-9.1659
 20
8.2712
 30
0.0
 10
-9.1341
 20
8.4769
 30
0.0
 10
-9.1194
 20
8.6775
 30
0.0
 10
-9.1194
 20
8.6775
 30
0.0
 10
-8.6093
 20
15.5901
 30
0.0
 10
-3.0553
 20
15.3485
 30
0.0
 10
-1.1083
 20
13.6977
 30
0.0
  0
SPLINE
  5
81
330
1F
100
AcDbEntity
  8
layer 1
 62
     7
370
     9
100
AcDbSpline
210
0.0
220
0.0
230
1.0
 70
    11
 71
     3
 72
    24
 73
    20
 74
     0
 42
0.0000000001
 43
0.0000000001
 12
1.0
 22
0.0
 32
0.0
 13
1.0
 23
0.0
 33
0.0
 40
0.0
 40
0.0
 40
0.0
 40
0.0
 40
0.1666666666666667
 40
0.1666666666666667
 40
0.1666666666666667
 40
0.1666666666666667
 40
0.3333333333333333
 40
0.3333333333333333
 40
0.3333333333333333
 40
0.3333333333333333
 40
0.5
 40
0.5
 40
0.5
 40
0.5
 40
0.6666666666666666
 40
0.6666666666666666
 40
0.6666666666666666
 40
0.6666666666666666
 40
1.0
 40
1.0
 40
1.0
 40
1.0
 10
-1.0946
 20
28.4935
 30
0.0
 10
-3.0263
 20
26.8267
 30
0.0
 10
-8.6614
 20
26.564
 30
0.0
 10
-9.1739
 20
33.5027
 30
0.0
 10
-9.1739
 20
33.5027
 30
0.0
 10
-9.1739
 20
33.5027
 30
0.0
 10
-9.1737
 20
25.0244
 30
0.0
 10
-9.1737
 20
25.0244
 30
0.0
 10
-9.1737
 20
25.0244
 30
0.0
 10
-8.9222
 20
26.6906
 30
0.0
 10
-7.7467
 20
28.5814
 30
0.0
 10
-6.0896
 20
27.9559
 30
0.0
 10
-6.0896
 20
27.9559
 30
0.0
 10
-4.7462
 20
27.4488
 30
0.0
 10
-3.7564
 20
25.3798
 30
0.0
 10
-3.4917
 20
22.3554
 30
0.0
 10
-3.4917
 20
22.3554
 30
0.0
 10
-3.5182
 20
23.6301
 30
0.0
 10
-2.6765
 20
26.3665
 30
0.0
 10
-1.0946
 20
28.4935
 30
0.0
  0
SPLINE
  5
82
330
1F
100
AcDbEntity
  8
layer 1
 62
     7
370
     9
100
AcDbSpline
210
0.0
220
0.0
230
1.0
 70
    11
 71
     3
 72
    40
 73
    36
 74
     0
 42
0.0000000001
 43
0.0000000001
 12
1.0
 22
0.0
 32
0.0
 13
1.0
 23
0.0
 33
0.0
 40
0.0
 40
0.0
 40
0.0
 40
0.0
 40
0.1
 40
0.1
 40
0.1
 40
0.1
 40
0.2
 40
0.2
 40
0.2
 40
0.2
 40
0.3
 40
0.3
 40
0.3
 40
0.3
 40
0.4
 40
0.4
 40
0.4
 40
0.4
 40
0.5
 40
0.5
 40
0.5
 40
0.5
 40
0.6
 40
0.6
 40
0.6
 40
0.6
 40
0.7
 40
0.7
 40
0.7
 40
0.7
 40
0.8
 40
0.8
 40
0.8
 40
0.8
 40
1.0
 40
1.0
 40
1.0
 40
1.0
 10
-0.3816
 20
29.3512
 30
0.0
 10
-0.2313
 20
29.5121
 30
0.0
 10
-0.0759
 20
29.6668
 30
0.0
 10
0.0845
 20
29.8135
 30
0.0
 10
0.0845
 20
29.8135
 30
0.0
 10
1.9283
 20
31.5023
 30
0.0
 10
3.6145
 20
32.7132
 30
0.0
 10
6.8237
 20
33.3234
 30
0.0
 10
6.8237
 20
33.3234
 30
0.0
 10
6.8652
 20
33.5845
 30
0.0
 10
6.7828
 20
34.3602
 30
0.0
 10
6.6803
 20
34.8246
 30
0.0
 10
6.6803
 20
34.8246
 30
0.0
 10
5.8673
 20
38.5073
 30
0.0
 10
1.3383
 20
44.0383
 30
0.0
 10
-2.7858
 20
42.769
 30
0.0
 10
-2.7858
 20
42.769
 30
0.0
 10
-4.9162
 20
42.1134
 30
0.0
 10
-5.3758
 20
37.4533
 30
0.0
 10
-3.2176
 20
34.9845
 30
0.0
 10
-3.2176
 20
34.9845
 30
0.0
 10
-4.5695
 20
35.0949
 30
0.0
 10
-5.9766
 20
35.3637
 30
0.0
 10
-6.3128
 20
36.8533
 30
0.0
 10
-6.3128
 20
36.8533
 30
0.0
 10
-6.9325
 20
34.6394
 30
0.0
 10
-6.4172
 20
30.8029
 30
0.0
 10
-3.3234
 20
30.7675
 30
0.0
 10
-3.3234
 20
30.7675
 30
0.0
 10
-2.1078
 20
30.7537
 30
0.0
 10
-0.5451
 20
31.9508
 30
0.0
 10
-0.7982
 20
34.0689
 30
0.0
 10
-0.7982
 20
34.0689
 30
0.0
 10
0.1954
 20
32.8914
 30
0.0
 10
0.6891
 20
31.0678
 30
0.0
 10
-0.3816
 20
29.3512
 30
0.0
  0
SPLINE
  5
83
330
1F
100
AcDbEntity
  8
layer 1
 62
     7
370
     9
100
AcDbSpline
210
0.0
220
0.0
230
1.0
 70
    11
 71
     3
 72
    40
 73
    36
 74
     0
 42
0.0000000001
 43
0.0000000001
 12
1.0
 22
0.0
 32
0.0
 13
1.0
 23
0.0
 33
0.0
 40
0.0
 40
0.0
 40
0.0
 40
0.0
 40
0.1
 40
0.1
 40
0.1
 40
0.1
 40
0.2
 40
0.2
 40
0.2
 40
0.2
 40
0.3
 40
0.3
 40
0.3
 40
0.3
 40
0.4
 40
0.4
 40
0.4
 40
0.4
 40
0.5
 40
0.5
 40
0.5
 40
0.5
 40
0.6
 40
0.6
 40
0.6
 40
0.6
 40
0.7
 40
0.7
 40
0.7
 40
0.7
 40
0.8
 40
0.8
 40
0.8
 40
0.8
 40
1.0
 40
1.0
 40
1.0
 40
1.0
 10
-0.1986
 20
62.2562
 30
0.0
 10
-0.1789
 20
62.2182
 30
0.0
 10
-0.1597
 20
62.1801
 30
0.0
 10
-0.1414
 20
62.142
 30
0.0
 10
-0.1414
 20
62.142
 30
0.0
 10
0.6214
 20
60.5533
 30
0.0
 10
0.1157
 20
58.8959
 30
0.0
 10
-0.7982
 20
57.8129
 30
0.0
 10
-0.7982
 20
57.8129
 30
0.0
 10
-0.5451
 20
59.9309
 30
0.0
 10
-2.1078
 20
61.1281
 30
0.0
 10
-3.3234
 20
61.1143
 30
0.0
 10
-3.3234
 20
61.1143
 30
0.0
 10
-6.4172
 20
61.0789
 30
0.0
 10
-6.9325
 20
57.2424
 30
0.0
 10
-6.3128
 20
55.0285
 30
0.0
 10
-6.3128
 20
55.0285
 30
0.0
 10
-5.9766
 20
56.5181
 30
0.0
 10
-4.5695
 20
56.7869
 30
0.0
 10
-3.2176
 20
56.8973
 30
0.0
 10
-3.2176
 20
56.8973
 30
0.0
 10
-5.3758
 20
54.4285
 30
0.0
 10
-4.9162
 20
49.7684
 30
0.0
 10
-2.7858
 20
49.1127
 30
0.0
 10
-2.7858
 20
49.1127
 30
0.0
 10
1.3383
 20
47.8434
 30
0.0
 10
5.8673
 20
53.3745
 30
0.0
 10
6.6803
 20
57.0572
 30
0.0
 10
6.6803
 20
57.0572
 30
0.0
 10
6.7828
 20
57.5216
 30
0.0
 10
6.8652
 20
58.2973
 30
0.0
 10
6.8237
 20
58.5584
 30
0.0
 10
6.8237
 20
58.5584
 30
0.0
 10
4.1422
 20
59.0682
 30
0.0
 10
1.7352
 20
60.3473
 30
0.0
 10
-0.1986
 20
62.2562
 30
0.0
  0
SPLINE
  5
84
330
1F
100
AcDbEntity
  8
layer 1
 62
     7
370
     9
100
AcDbSpline
210
0.0
220
0.0
230
1.0
 70
    11
 71
     3
 72
    28
 73
    24
 74
     0
 42
0.0000000001
 43
0.0000000001
 12
1.0
 22
0.0
 32
0.0
 13
1.0
 23
0.0
 33
0.0
 40
0.0
 40
0.0
 40
0.0
 40
0.0
 40
0.1428571428571428
 40
0.1428571428571428
 40
0.1428571428571428
 40
0.1428571428571428
 40
0.2857142857142857
 40
0.2857142857142857
 40
0.2857142857142857
 40
0.2857142857142857
 40
0.4285714285714285
 40
0.4285714285714285
 40
0.4285714285714285
 40
0.4285714285714285
 40
0.5714285714285714
 40
0.5714285714285714
 40
0.5714285714285714
 40
0.5714285714285714
 40
0.7142857142857143
 40
0.7142857142857143
 40
0.7142857142857143
 40
0.7142857142857143
 40
1.0
 40
1.0
 40
1.0
 40
1.0
 10
-1.2184
 20
63.5585
 30
0.0
 10
-2.7202
 20
65.6592
 30
0.0
 10
-3.5173
 20
68.2853
 30
0.0
 10
-3.4917
 20
69.5264
 30
0.0
 10
-3.4917
 20
69.5264
 30
0.0
 10
-3.7564
 20
66.5019
 30
0.0
 10
-4.7461
 20
64.433
 30
0.0
 10
-6.0896
 20
63.9259
 30
0.0
 10
-6.0896
 20
63.9259
 30
0.0
 10
-7.7676
 20
63.2925
 30
0.0
 10
-8.943
 20
65.2561
 30
0.0
 10
-9.1748
 20
66.9371
 30
0.0
 10
-9.1748
 20
66.9371
 30
0.0
 10
-9.1748
 20
66.9371
 30
0.0
 10
-9.1746
 20
57.7591
 30
0.0
 10
-9.1746
 20
57.7591
 30
0.0
 10
-9.1746
 20
57.7591
 30
0.0
 10
-9.1673
 20
57.9754
 30
0.0
 10
-9.134
 20
58.1873
 30
0.0
 10
-9.1194
 20
58.3867
 30
0.0
 10
-9.1194
 20
58.3867
 30
0.0
 10
-8.6229
 20
65.1131
 30
0.0
 10
-3.2939
 20
65.0883
 30
0.0
 10
-1.2184
 20
63.5585
 30
0.0
  0
SPLINE
  5
85
330
1F
100
AcDbEntity
  8
layer 1
 62
     7
370
     9
100
AcDbSpline
210
0.0
220
0.0
230
1.0
 70
    11
 71
     3
 72
    24
 73
    20
 74
     0
 42
0.0000000001
 43
0.0000000001
 12
1.0
 22
0.0
 32
0.0
 13
1.0
 23
0.0
 33
0.0
 40
0.0
 40
0.0
 40
0.0
 40
0.0
 40
0.1666666666666667
 40
0.1666666666666667
 40
0.1666666666666667
 40
0.1666666666666667
 40
0.3333333333333333
 40
0.3333333333333333
 40
0.3333333333333333
 40
0.3333333333333333
 40
0.5
 40
0.5
 40
0.5
 40
0.5
 40
0.6666666666666666
 40
0.6666666666666666
 40
0.6666666666666666
 40
0.6666666666666666
 40
1.0
 40
1.0
 40
1.0
 40
1.0
 10
-1.0901
 20
78.2551
 30
0.0
 10
-2.9102
 20
76.6451
 30
0.0
 10
-8.2384
 20
76.2648
 30
0.0
 10
-9.1753
 20
82.251
 30
0.0
 10
-9.1753
 20
82.251
 30
0.0
 10
-9.1753
 20
82.251
 30
0.0
 10
-9.1749
 20
74.3891
 30
0.0
 10
-9.1749
 20
74.3891
 30
0.0
 10
-9.1749
 20
74.3891
 30
0.0
 10
-8.9693
 20
75.9817
 30
0.0
 10
-7.8304
 20
78.3221
 30
0.0
 10
-6.0896
 20
77.665
 30
0.0
 10
-6.0896
 20
77.665
 30
0.0
 10
-4.7461
 20
77.158
 30
0.0
 10
-3.7564
 20
75.089
 30
0.0
 10
-3.4917
 20
72.0645
 30
0.0
 10
-3.4917
 20
72.0645
 30
0.0
 10
-3.5182
 20
73.3423
 30
0.0
 10
-2.679
 20
76.126
 30
0.0
 10
-1.0901
 20
78.2551
 30
0.0
  0
SPLINE
  5
86
330
1F
100
AcDbEntity
  8
layer 1
 62
     7
370
     9
100
AcDbSpline
210
0.0
220
0.0
230
1.0
 70
    11
 71
     3
 72
    44
 73
    40
 74
     0
 42
0.0000000001
 43
0.0000000001
 12
1.0
 22
0.0
 32
0.0
 13
1.0
 23
0.0
 33
0.0
 40
0.0
 40
0.0
 40
0.0
 40
0.0
 40
0.0909090909090909
 40
0.0909090909090909
 40
0.0909090909090909
 40
0.0909090909090909
 40
0.1818181818181818
 40
0.1818181818181818
 40
0.1818181818181818
 40
0.1818181818181818
 40
0.2727272727272727
 40
0.2727272727272727
 40
0.2727272727272727
 40
0.2727272727272727
 40
0.3636363636363636
 40
0.3636363636363636
 40
0.3636363636363636
 40
0.3636363636363636
 40
0.4545454545454545
 40
0.4545454545454545
 40
0.4545454545454545
 40
0.4545454545454545
 40
0.5454545454545454
 40
0.5454545454545454
 40
0.5454545454545454
 40
0.5454545454545454
 40
0.6363636363636364
 40
0.6363636363636364
 40
0.6363636363636364
 40
0.6363636363636364
 40
0.7272727272727273
 40
0.7272727272727273
 40
0.7272727272727273
 40
0.7272727272727273
 40
0.8181818181818182
 40
0.8181818181818182
 40
0.8181818181818182
 40
0.8181818181818182
 40
1.0
 40
1.0
 40
1.0
 40
1.0
 10
-0.2845
 20
79.1624
 30
0.0
 10
-0.1647
 20
79.2868
 30
0.0
 10
-0.0415
 20
79.4073
 30
0.0
 10
0.0845
 20
79.5226
 30
0.0
 10
0.0845
 20
79.5226
 30
0.0
 10
1.9283
 20
81.2113
 30
0.0
 10
3.6145
 20
82.4224
 30
0.0
 10
6.8237
 20
83.0325
 30
0.0
 10
6.8237
 20
83.0325
 30
0.0
 10
6.8652
 20
83.2936
 30
0.0
 10
6.7828
 20
84.0695
 30
0.0
 10
6.6803
 20
84.5337
 30
0.0
 10
6.6803
 20
84.5337
 30
0.0
 10
6.2994
 20
86.26
 30
0.0
 10
4.9989
 20
87.2843
 30
0.0
 10
4.3024
 20
87.8547
 30
0.0
 10
4.3024
 20
87.8547
 30
0.0
 10
3.8291
 20
88.2423
 30
0.0
 10
3.2556
 20
88.5334
 30
0.0
 10
2.6118
 20
88.702
 30
0.0
 10
2.6118
 20
88.702
 30
0.0
 10
0.8352
 20
89.1672
 30
0.0
 10
-0.502
 20
88.4353
 30
0.0
 10
-2.3589
 20
87.3366
 30
0.0
 10
-2.3589
 20
87.3366
 30
0.0
 10
-2.0551
 20
88.3762
 30
0.0
 10
-1.5914
 20
89.0588
 30
0.0
 10
-1.1017
 20
89.3112
 30
0.0
 10
-1.1017
 20
89.3112
 30
0.0
 10
-6.5029
 20
89.8811
 30
0.0
 10
-10.2596
 20
80.4456
 30
0.0
 10
-3.3234
 20
80.4766
 30
0.0
 10
-3.3234
 20
80.4766
 30
0.0
 10
-2.108
 20
80.4819
 30
0.0
 10
-0.5451
 20
81.66
 30
0.0
 10
-0.7982
 20
83.778
 30
0.0
 10
-0.7982
 20
83.778
 30
0.0
 10
0.1748
 20
82.625
 30
0.0
 10
0.7018
 20
80.8461
 30
0.0
 10
-0.2845
 20
79.1624
 30
0.0
  0
SPLINE
  5
87
330
1F
100
AcDbEntity
  8
layer 1
 62
     7
370
     9
100
AcDbSpline
210
0.0
220
0.0
230
1.0
 70
    11
 71
     3
 72
    24
 73
    20
 74
     0
 42
0.0000000001
 43
0.0000000001
 12
1.0
 22
0.0
 32
0.0
 13
1.0
 23
0.0
 33
0.0
 40
0.0
 40
0.0
 40
0.0
 40
0.0
 40
0.1666666666666667
 40
0.1666666666666667
 40
0.1666666666666667
 40
0.1666666666666667
 40
0.3333333333333333
 40
0.3333333333333333
 40
0.3333333333333333
 40
0.3333333333333333
 40
0.5
 40
0.5
 40
0.5
 40
0.5
 40
0.6666666666666666
 40
0.6666666666666666
 40
0.6666666666666666
 40
0.6666666666666666
 40
1.0
 40
1.0
 40
1.0
 40
1.0
 10
-9.1762
 20
101.1112
 30
0.0
 10
-9.1762
 20
101.1112
 30
0.0
 10
-9.1753
 20
84.0859
 30
0.0
 10
-9.1753
 20
84.0859
 30
0.0
 10
-9.1753
 20
84.0859
 30
0.0
 10
-8.7973
 20
88.2127
 30
0.0
 10
-3.5955
 20
91.1505
 30
0.0
 10
0.2018
 20
90.412
 30
0.0
 10
0.2018
 20
90.412
 30
0.0
 10
-3.1092
 20
93.1826
 30
0.0
 10
-5.2645
 20
91.3319
 30
0.0
 10
-7.4323
 20
92.2959
 30
0.0
 10
-7.4323
 20
92.2959
 30
0.0
 10
-5.1742
 20
92.8263
 30
0.0
 10
-5.0301
 20
94.2008
 30
0.0
 10
-2.3876
 20
93.4227
 30
0.0
 10
-2.3876
 20
93.4227
 30
0.0
 10
-6.732
 20
96.1619
 30
0.0
 10
-8.8515
 20
98.3608
 30
0.0
 10
-9.1762
 20
101.1112
 30
0.0
  0
SPLINE
  5
88
330
1F
100
AcDbEntity
  8
layer 1
 62
     7
370
     9
100
AcDbSpline
210
0.0
220
0.0
230
1.0
 70
    11
 71
     3
 72
    16
 73
    12
 74
     0
 42
0.0000000001
 43
0.0000000001
 12
1.0
 22
0.0
 32
0.0
 13
1.0
 23
0.0
 33
0.0
 40
0.0
 40
0.0
 40
0.0
 40
0.0
 40
0.25
 40
0.25
 40
0.25
 40
0.25
 40
0.5
 40
0.5
 40
0.5
 40
0.5
 40
1.0
 40
1.0
 40
1.0
 40
1.0
 10
-9.0091
 20
104.8606
 30
0.0
 10
-7.4485
 20
110.1266
 30
0.0
 10
-2.0993
 20
109.6742
 30
0.0
 10
-0.0164
 20
112.0249
 30
0.0
 10
-0.0164
 20
112.0249
 30
0.0
 10
2.0599
 20
114.3686
 30
0.0
 10
0.1807
 20
115.6539
 30
0.0
 10
-1.1911
 20
117.3674
 30
0.0
 10
-1.1911
 20
117.3674
 30
0.0
 10
-5.4561
 20
114.506
 30
0.0
 10
-8.3097
 20
109.884
 30
0.0
 10
-9.0091
 20
104.8606
 30
0.0
  0
SPLINE
  5
89
330
1F
100
AcDbEntity
  8
layer 1
 62
     7
370
     9
100
AcDbSpline
210
0.0
220
0.0
230
1.0
 70
    11
 71
     3
 72
    24
 73
    20
 74
     0
 42
0.0000000001
 43
0.0000000001
 12
1.0
 22
0.0
 32
0.0
 13
1.0
 23
0.0
 33
0.0
 40
0.0
 40
0.0
 40
0.0
 40
0.0
 40
0.1666666666666667
 40
0.1666666666666667
 40
0.1666666666666667
 40
0.1666666666666667
 40
0.3333333333333333
 40
0.3333333333333333
 40
0.3333333333333333
 40
0.3333333333333333
 40
0.5
 40
0.5
 40
0.5
 40
0.5
 40
0.6666666666666666
 40
0.6666666666666666
 40
0.6666666666666666
 40
0.6666666666666666
 40
1.0
 40
1.0
 40
1.0
 40
1.0
 10
-9.1749
 20
73.4282
 30
0.0
 10
-9.1749
 20
73.4282
 30
0.0
 10
-9.1748
 20
68.152
 30
0.0
 10
-9.1748
 20
68.152
 30
0.0
 10
-9.1748
 20
68.152
 30
0.0
 10
-8.1527
 20
66.8942
 30
0.0
 10
-7.012
 20
66.4094
 30
0.0
 10
-6.3187
 20
66.6515
 30
0.0
 10
-6.3187
 20
66.6515
 30
0.0
 10
-4.2559
 20
67.372
 30
0.0
 10
-4.1463
 20
69.8926
 30
0.0
 10
-4.1161
 20
70.7955
 30
0.0
 10
-4.1161
 20
70.7955
 30
0.0
 10
-4.1463
 20
71.6982
 30
0.0
 10
-4.2558
 20
74.2189
 30
0.0
 10
-6.3187
 20
74.9394
 30
0.0
 10
-6.3187
 20
74.9394
 30
0.0
 10
-7.012
 20
75.1816
 30
0.0
 10
-8.1529
 20
74.686
 30
0.0
 10
-9.1749
 20
73.4282
 30
0.0
  0
SPLINE
  5
8A
330
1F
100
AcDbEntity
  8
layer 1
 62
     7
370
     9
100
AcDbSpline
210
0.0
220
0.0
230
1.0
 70
    11
 71
     3
 72
    24
 73
    20
 74
     0
 42
0.0000000001
 43
0.0000000001
 12
1.0
 22
0.0
 32
0.0
 13
1.0
 23
0.0
 33
0.0
 40
0.0
 40
0.0
 40
0.0
 40
0.0
 40
0.1666666666666667
 40
0.1666666666666667
 40
0.1666666666666667
 40
0.1666666666666667
 40
0.3333333333333333
 40
0.3333333333333333
 40
0.3333333333333333
 40
0.3333333333333333
 40
0.5
 40
0.5
 40
0.5
 40
0.5
 40
0.6666666666666666
 40
0.6666666666666666
 40
0.6666666666666666
 40
0.6666666666666666
 40
1.0
 40
1.0
 40
1.0
 40
1.0
 10
-9.1746
 20
56.3992
 30
0.0
 10
-9.1746
 20
56.3992
 30
0.0
 10
-9.1742
 20
46.1948
 30
0.0
 10
-9.1742
 20
46.1948
 30
0.0
 10
-9.1742
 20
46.1948
 30
0.0
 10
-8.506
 20
46.5846
 30
0.0
 10
-7.1784
 20
46.9649
 30
0.0
 10
-6.6773
 20
46.9668
 30
0.0
 10
-6.6773
 20
46.9668
 30
0.0
 10
-5.552
 20
46.9713
 30
0.0
 10
-5.4422
 20
46.5514
 30
0.0
 10
-4.187
 20
46.4813
 30
0.0
 10
-4.187
 20
46.4813
 30
0.0
 10
-5.2631
 20
46.9995
 30
0.0
 10
-6.9302
 20
48.7345
 30
0.0
 10
-7.6997
 20
50.2594
 30
0.0
 10
-7.6997
 20
50.2594
 30
0.0
 10
-8.6678
 20
52.1779
 30
0.0
 10
-9.0938
 20
54.4526
 30
0.0
 10
-9.1746
 20
56.3992
 30
0.0
  0
SPLINE
  5
8B
330
1F
100
AcDbEntity
  8
layer 1
 62
     7
370
     9
100
AcDbSpline
210
0.0
220
0.0
230
1.0
 70
    11
 71
     3
 72
    24
 73
    20
 74
     0
 42
0.0000000001
 43
0.0000000001
 12
1.0
 22
0.0
 32
0.0
 13
1.0
 23
0.0
 33
0.0
 40
0.0
 40
0.0
 40
0.0
 40
0.0
 40
0.1666666666666667
 40
0.1666666666666667
 40
0.1666666666666667
 40
0.1666666666666667
 40
0.3333333333333333
 40
0.3333333333333333
 40
0.3333333333333333
 40
0.3333333333333333
 40
0.5
 40
0.5
 40
0.5
 40
0.5
 40
0.6666666666666666
 40
0.6666666666666666
 40
0.6666666666666666
 40
0.6666666666666666
 40
1.0
 40
1.0
 40
1.0
 40
1.0
 10
-9.1742
 20
45.6906
 30
0.0
 10
-9.1742
 20
45.6906
 30
0.0
 10
-9.1739
 20
35.5334
 30
0.0
 10
-9.1739
 20
35.5334
 30
0.0
 10
-9.1739
 20
35.5334
 30
0.0
 10
-9.0879
 20
37.4675
 30
0.0
 10
-8.6585
 20
39.7221
 30
0.0
 10
-7.6997
 20
41.6224
 30
0.0
 10
-7.6997
 20
41.6224
 30
0.0
 10
-6.9304
 20
43.1473
 30
0.0
 10
-5.2631
 20
44.8823
 30
0.0
 10
-4.187
 20
45.4005
 30
0.0
 10
-4.187
 20
45.4005
 30
0.0
 10
-5.4422
 20
45.3303
 30
0.0
 10
-5.552
 20
44.9105
 30
0.0
 10
-6.6773
 20
44.9149
 30
0.0
 10
-6.6773
 20
44.9149
 30
0.0
 10
-7.1784
 20
44.9169
 30
0.0
 10
-8.506
 20
45.3008
 30
0.0
 10
-9.1742
 20
45.6906
 30
0.0
  0
SPLINE
  5
8C
330
1F
100
AcDbEntity
  8
layer 1
 62
     7
370
     9
100
AcDbSpline
210
0.0
220
0.0
230
1.0
 70
    11
 71
     3
 72
    24
 73
    20
 74
     0
 42
0.0000000001
 43
0.0000000001
 12
1.0
 22
0.0
 32
0.0
 13
1.0
 23
0.0
 33
0.0
 40
0.0
 40
0.0
 40
0.0
 40
0.0
 40
0.1666666666666667
 40
0.1666666666666667
 40
0.1666666666666667
 40
0.1666666666666667
 40
0.3333333333333333
 40
0.3333333333333333
 40
0.3333333333333333
 40
0.3333333333333333
 40
0.5
 40
0.5
 40
0.5
 40
0.5
 40
0.6666666666666666
 40
0.6666666666666666
 40
0.6666666666666666
 40
0.6666666666666666
 40
1.0
 40
1.0
 40
1.0
 40
1.0
 10
-9.1736
 20
23.7444
 30
0.0
 10
-9.1736
 20
23.7444
 30
0.0
 10
-9.1736
 20
18.4245
 30
0.0
 10
-9.1736
 20
18.4245
 30
0.0
 10
-9.1736
 20
18.4245
 30
0.0
 10
-8.1515
 20
17.1668
 30
0.0
 10
-7.012
 20
16.7002
 30
0.0
 10
-6.3187
 20
16.9424
 30
0.0
 10
-6.3187
 20
16.9424
 30
0.0
 10
-4.2558
 20
17.6628
 30
0.0
 10
-4.1463
 20
20.1835
 30
0.0
 10
-4.1161
 20
21.0863
 30
0.0
 10
-4.1161
 20
21.0863
 30
0.0
 10
-4.1463
 20
21.9891
 30
0.0
 10
-4.2559
 20
24.5098
 30
0.0
 10
-6.3187
 20
25.2302
 30
0.0
 10
-6.3187
 20
25.2302
 30
0.0
 10
-7.012
 20
25.4723
 30
0.0
 10
-8.1515
 20
25.0022
 30
0.0
 10
-9.1736
 20
23.7444
 30
0.0
  0
SPLINE
  5
8D
330
1F
100
AcDbEntity
  8
layer 1
 62
     7
370
     9
100
AcDbSpline
210
0.0
220
0.0
230
1.0
 70
    11
 71
     3
 72
    24
 73
    20
 74
     0
 42
0.0000000001
 43
0.0000000001
 12
1.0
 22
0.0
 32
0.0
 13
1.0
 23
0.0
 33
0.0
 40
0.0
 40
0.0
 40
0.0
 40
0.0
 40
0.1666666666666667
 40
0.1666666666666667
 40
0.1666666666666667
 40
0.1666666666666667
 40
0.3333333333333333
 40
0.3333333333333333
 40
0.3333333333333333
 40
0.3333333333333333
 40
0.5
 40
0.5
 40
0.5
 40
0.5
 40
0.6666666666666666
 40
0.6666666666666666
 40
0.6666666666666666
 40
0.6666666666666666
 40
1.0
 40
1.0
 40
1.0
 40
1.0
 10
-9.1733
 20
6.6754
 30
0.0
 10
-9.1733
 20
6.6754
 30
0.0
 10
-9.1731
 20
-3.5071
 30
0.0
 10
-9.1731
 20
-3.5071
 30
0.0
 10
-9.1731
 20
-3.5071
 30
0.0
 10
-8.5049
 20
-3.1173
 30
0.0
 10
-7.1784
 20
-2.7443
 30
0.0
 10
-6.6773
 20
-2.7423
 30
0.0
 10
-6.6773
 20
-2.7423
 30
0.0
 10
-5.552
 20
-2.7378
 30
0.0
 10
-5.4422
 20
-3.1577
 30
0.0
 10
-4.187
 20
-3.2278
 30
0.0
 10
-4.187
 20
-3.2278
 30
0.0
 10
-5.2631
 20
-2.7096
 30
0.0
 10
-6.9302
 20
-0.9747
 30
0.0
 10
-7.6997
 20
0.5502
 30
0.0
 10
-7.6997
 20
0.5502
 30
0.0
 10
-8.6653
 20
2.464
 30
0.0
 10
-9.0911
 20
4.7321
 30
0.0
 10
-9.1733
 20
6.6754
 30
0.0
  0
SPLINE
  5
8E
330
1F
100
AcDbEntity
  8
layer 1
 62
     7
370
     9
100
AcDbSpline
210
0.0
220
0.0
230
1.0
 70
    11
 71
     3
 72
    40
 73
    36
 74
     0
 42
0.0000000001
 43
0.0000000001
 12
1.0
 22
0.0
 32
0.0
 13
1.0
 23
0.0
 33
0.0
 40
0.0
 40
0.0
 40
0.0
 40
0.0
 40
0.1
 40
0.1
 40
0.1
 40
0.1
 40
0.2
 40
0.2
 40
0.2
 40
0.2
 40
0.3
 40
0.3
 40
0.3
 40
0.3
 40
0.4
 40
0.4
 40
0.4
 40
0.4
 40
0.5
 40
0.5
 40
0.5
 40
0.5
 40
0.6
 40
0.6
 40
0.6
 40
0.6
 40
0.7
 40
0.7
 40
0.7
 40
0.7
 40
0.8
 40
0.8
 40
0.8
 40
0.8
 40
1.0
 40
1.0
 40
1.0
 40
1.0
 10
-0.3566
 20
-20.3603
 30
0.0
 10
-0.2056
 20
-20.1986
 30
0.0
 10
-0.0494
 20
-20.0431
 30
0.0
 10
0.1117
 20
-19.8956
 30
0.0
 10
0.1117
 20
-19.8956
 30
0.0
 10
1.9555
 20
-18.2068
 30
0.0
 10
3.6417
 20
-16.9959
 30
0.0
 10
6.8509
 20
-16.3857
 30
0.0
 10
6.8509
 20
-16.3857
 30
0.0
 10
6.8924
 20
-16.1246
 30
0.0
 10
6.81
 20
-15.3489
 30
0.0
 10
6.7076
 20
-14.8845
 30
0.0
 10
6.7076
 20
-14.8845
 30
0.0
 10
5.8946
 20
-11.2018
 30
0.0
 10
1.3656
 20
-5.6708
 30
0.0
 10
-2.7585
 20
-6.9401
 30
0.0
 10
-2.7585
 20
-6.9401
 30
0.0
 10
-4.889
 20
-7.5957
 30
0.0
 10
-5.3485
 20
-12.2558
 30
0.0
 10
-3.1904
 20
-14.7246
 30
0.0
 10
-3.1904
 20
-14.7246
 30
0.0
 10
-4.5423
 20
-14.6142
 30
0.0
 10
-5.9494
 20
-14.3455
 30
0.0
 10
-6.2856
 20
-12.8558
 30
0.0
 10
-6.2856
 20
-12.8558
 30
0.0
 10
-6.9053
 20
-15.0697
 30
0.0
 10
-6.39
 20
-18.9063
 30
0.0
 10
-3.2962
 20
-18.9416
 30
0.0
 10
-3.2962
 20
-18.9416
 30
0.0
 10
-2.0805
 20
-18.9554
 30
0.0
 10
-0.5178
 20
-17.7583
 30
0.0
 10
-0.771
 20
-15.6402
 30
0.0
 10
-0.771
 20
-15.6402
 30
0.0
 10
0.2255
 20
-16.8212
 30
0.0
 10
0.7262
 20
-18.6392
 30
0.0
 10
-0.3566
 20
-20.3603
 30
0.0
  0
SPLINE
  5
8F
330
1F
100
AcDbEntity
  8
layer 1
 62
     7
370
     9
100
AcDbSpline
210
0.0
220
0.0
230
1.0
 70
    11
 71
     3
 72
    24
 73
    20
 74
     0
 42
0.0000000001
 43
0.0000000001
 12
1.0
 22
0.0
 32
0.0
 13
1.0
 23
0.0
 33
0.0
 40
0.0
 40
0.0
 40
0.0
 40
0.0
 40
0.1666666666666667
 40
0.1666666666666667
 40
0.1666666666666667
 40
0.1666666666666667
 40
0.3333333333333333
 40
0.3333333333333333
 40
0.3333333333333333
 40
0.3333333333333333
 40
0.5
 40
0.5
 40
0.5
 40
0.5
 40
0.6666666666666666
 40
0.6666666666666666
 40
0.6666666666666666
 40
0.6666666666666666
 40
1.0
 40
1.0
 40
1.0
 40
1.0
 10
-1.0697
 20
-21.2189
 30
0.0
 10
-3.0023
 20
-22.8882
 30
0.0
 10
-8.6602
 20
-23.1617
 30
0.0
 10
-9.1728
 20
-16.2211
 30
0.0
 10
-9.1728
 20
-16.2211
 30
0.0
 10
-9.1728
 20
-16.2211
 30
0.0
 10
-9.1727
 20
-24.962
 30
0.0
 10
-9.1727
 20
-24.962
 30
0.0
 10
-9.1727
 20
-24.962
 30
0.0
 10
-9.0142
 20
-23.2385
 30
0.0
 10
-7.8121
 20
-21.0927
 30
0.0
 10
-6.0624
 20
-21.7532
 30
0.0
 10
-6.0624
 20
-21.7532
 30
0.0
 10
-4.7189
 20
-22.2602
 30
0.0
 10
-3.7292
 20
-24.3293
 30
0.0
 10
-3.4645
 20
-27.3537
 30
0.0
 10
-3.4645
 20
-27.3537
 30
0.0
 10
-3.491
 20
-26.0796
 30
0.0
 10
-2.65
 20
-23.3456
 30
0.0
 10
-1.0697
 20
-21.2189
 30
0.0
  0
SPLINE
  5
90
330
1F
100
AcDbEntity
  8
layer 1
 62
     7
370
     9
100
AcDbSpline
210
0.0
220
0.0
230
1.0
 70
    11
 71
     3
 72
    24
 73
    20
 74
     0
 42
0.0000000001
 43
0.0000000001
 12
1.0
 22
0.0
 32
0.0
 13
1.0
 23
0.0
 33
0.0
 40
0.0
 40
0.0
 40
0.0
 40
0.0
 40
0.1666666666666667
 40
0.1666666666666667
 40
0.1666666666666667
 40
0.1666666666666667
 40
0.3333333333333333
 40
0.3333333333333333
 40
0.3333333333333333
 40
0.3333333333333333
 40
0.5
 40
0.5
 40
0.5
 40
0.5
 40
0.6666666666666666
 40
0.6666666666666666
 40
0.6666666666666666
 40
0.6666666666666666
 40
1.0
 40
1.0
 40
1.0
 40
1.0
 10
-9.1723
 20
-41.9236
 30
0.0
 10
-9.1723
 20
-41.9236
 30
0.0
 10
-9.1718
 20
-64.2192
 30
0.0
 10
-9.1718
 20
-64.2192
 30
0.0
 10
-9.1718
 20
-64.2192
 30
0.0
 10
-8.7323
 20
-60.8109
 30
0.0
 10
-6.6727
 20
-56.0951
 30
0.0
 10
-2.3876
 20
-51.2513
 30
0.0
 10
-2.3876
 20
-51.2513
 30
0.0
 10
-5.0301
 20
-52.0294
 30
0.0
 10
-5.1742
 20
-50.6548
 30
0.0
 10
-7.4323
 20
-50.1245
 30
0.0
 10
-7.4323
 20
-50.1245
 30
0.0
 10
-5.2645
 20
-49.1605
 30
0.0
 10
-3.1092
 20
-51.0112
 30
0.0
 10
0.2018
 20
-48.2406
 30
0.0
 10
0.2018
 20
-48.2406
 30
0.0
 10
-3.5883
 20
-48.9776
 30
0.0
 10
-8.7768
 20
-46.0379
 30
0.0
 10
-9.1723
 20
-41.9236
 30
0.0
  0
SPLINE
  5
91
330
1F
100
AcDbEntity
  8
layer 1
 62
     7
370
     9
100
AcDbSpline
210
0.0
220
0.0
230
1.0
 70
    11
 71
     3
 72
    16
 73
    12
 74
     0
 42
0.0000000001
 43
0.0000000001
 12
1.0
 22
0.0
 32
0.0
 13
1.0
 23
0.0
 33
0.0
 40
0.0
 40
0.0
 40
0.0
 40
0.0
 40
0.25
 40
0.25
 40
0.25
 40
0.25
 40
0.5
 40
0.5
 40
0.5
 40
0.5
 40
1.0
 40
1.0
 40
1.0
 40
1.0
 10
9.6087
 20
-89.353
 30
0.0
 10
9.6087
 20
-89.353
 30
0.0
 10
18.6133
 20
-89.353
 30
0.0
 10
18.6133
 20
-89.353
 30
0.0
 10
18.6133
 20
-89.353
 30
0.0
 10
16.688
 20
-89.1073
 30
0.0
 10
13.133
 20
-87.6831
 30
0.0
 10
12.7066
 20
-85.612
 30
0.0
 10
12.7066
 20
-85.612
 30
0.0
 10
12.7364
 20
-87.1367
 30
0.0
 10
11.6104
 20
-89.0107
 30
0.0
 10
9.6087
 20
-89.353
 30
0.0
  0
SPLINE
  5
92
330
1F
100
AcDbEntity
  8
layer 1
 62
     7
370
     9
100
AcDbSpline
210
0.0
220
0.0
230
1.0
 70
    11
 71
     3
 72
    24
 73
    20
 74
     0
 42
0.0000000001
 43
0.0000000001
 12
1.0
 22
0.0
 32
0.0
 13
1.0
 23
0.0
 33
0.0
 40
0.0
 40
0.0
 40
0.0
 40
0.0
 40
0.1666666666666667
 40
0.1666666666666667
 40
0.1666666666666667
 40
0.1666666666666667
 40
0.3333333333333333
 40
0.3333333333333333
 40
0.3333333333333333
 40
0.3333333333333333
 40
0.5
 40
0.5
 40
0.5
 40
0.5
 40
0.6666666666666666
 40
0.6666666666666666
 40
0.6666666666666666
 40
0.6666666666666666
 40
1.0
 40
1.0
 40
1.0
 40
1.0
 10
27.0392
 20
-64.1683
 30
0.0
 10
27.0392
 20
-64.1683
 30
0.0
 10
27.0392
 20
-42.0473
 30
0.0
 10
27.0392
 20
-42.0473
 30
0.0
 10
27.0392
 20
-42.0473
 30
0.0
 10
26.5491
 20
-46.0938
 30
0.0
 10
21.441
 20
-48.9699
 30
0.0
 10
17.6908
 20
-48.2406
 30
0.0
 10
17.6908
 20
-48.2406
 30
0.0
 10
21.0018
 20
-51.0112
 30
0.0
 10
23.1571
 20
-49.1605
 30
0.0
 10
25.3248
 20
-50.1245
 30
0.0
 10
25.3248
 20
-50.1245
 30
0.0
 10
23.0668
 20
-50.6548
 30
0.0
 10
22.9227
 20
-52.0294
 30
0.0
 10
20.2802
 20
-51.2513
 30
0.0
 10
20.2802
 20
-51.2513
 30
0.0
 10
24.5303
 20
-56.0556
 30
0.0
 10
26.5772
 20
-60.7662
 30
0.0
 10
27.0392
 20
-64.1683
 30
0.0
  0
SPLINE
  5
93
330
1F
100
AcDbEntity
  8
layer 1
 62
     7
370
     9
100
AcDbSpline
210
0.0
220
0.0
230
1.0
 70
    11
 71
     3
 72
    44
 73
    40
 74
     0
 42
0.0000000001
 43
0.0000000001
 12
1.0
 22
0.0
 32
0.0
 13
1.0
 23
0.0
 33
0.0
 40
0.0
 40
0.0
 40
0.0
 40
0.0
 40
0.0909090909090909
 40
0.0909090909090909
 40
0.0909090909090909
 40
0.0909090909090909
 40
0.1818181818181818
 40
0.1818181818181818
 40
0.1818181818181818
 40
0.1818181818181818
 40
0.2727272727272727
 40
0.2727272727272727
 40
0.2727272727272727
 40
0.2727272727272727
 40
0.3636363636363636
 40
0.3636363636363636
 40
0.3636363636363636
 40
0.3636363636363636
 40
0.4545454545454545
 40
0.4545454545454545
 40
0.4545454545454545
 40
0.4545454545454545
 40
0.5454545454545454
 40
0.5454545454545454
 40
0.5454545454545454
 40
0.5454545454545454
 40
0.6363636363636364
 40
0.6363636363636364
 40
0.6363636363636364
 40
0.6363636363636364
 40
0.7272727272727273
 40
0.7272727272727273
 40
0.7272727272727273
 40
0.7272727272727273
 40
0.8181818181818182
 40
0.8181818181818182
 40
0.8181818181818182
 40
0.8181818181818182
 40
1.0
 40
1.0
 40
1.0
 40
1.0
 10
18.3295
 20
-36.8292
 30
0.0
 10
18.162
 20
-37.0117
 30
0.0
 10
17.988
 20
-37.1863
 30
0.0
 10
17.8081
 20
-37.3512
 30
0.0
 10
17.8081
 20
-37.3512
 30
0.0
 10
15.9643
 20
-39.0399
 30
0.0
 10
14.278
 20
-40.2509
 30
0.0
 10
11.0689
 20
-40.8611
 30
0.0
 10
11.0689
 20
-40.8611
 30
0.0
 10
11.0274
 20
-41.1222
 30
0.0
 10
11.1098
 20
-41.8981
 30
0.0
 10
11.2122
 20
-42.3623
 30
0.0
 10
11.2122
 20
-42.3623
 30
0.0
 10
11.5931
 20
-44.0886
 30
0.0
 10
12.8937
 20
-45.1129
 30
0.0
 10
13.5902
 20
-45.6832
 30
0.0
 10
13.5902
 20
-45.6832
 30
0.0
 10
14.0635
 20
-46.0708
 30
0.0
 10
14.637
 20
-46.362
 30
0.0
 10
15.2808
 20
-46.5305
 30
0.0
 10
15.2808
 20
-46.5305
 30
0.0
 10
17.0574
 20
-46.9957
 30
0.0
 10
18.3945
 20
-46.2639
 30
0.0
 10
20.2515
 20
-45.1652
 30
0.0
 10
20.2515
 20
-45.1652
 30
0.0
 10
19.9476
 20
-46.2048
 30
0.0
 10
19.4839
 20
-46.8873
 30
0.0
 10
18.9942
 20
-47.1397
 30
0.0
 10
18.9942
 20
-47.1397
 30
0.0
 10
24.3954
 20
-47.7097
 30
0.0
 10
28.1521
 20
-38.2741
 30
0.0
 10
21.216
 20
-38.3052
 30
0.0
 10
21.216
 20
-38.3052
 30
0.0
 10
20.0006
 20
-38.3105
 30
0.0
 10
18.4376
 20
-39.4885
 30
0.0
 10
18.6908
 20
-41.6066
 30
0.0
 10
18.6908
 20
-41.6066
 30
0.0
 10
17.6817
 20
-40.4108
 30
0.0
 10
17.1938
 20
-38.57
 30
0.0
 10
18.3295
 20
-36.8292
 30
0.0
  0
SPLINE
  5
94
330
1F
100
AcDbEntity
  8
layer 1
 62
     7
370
     9
100
AcDbSpline
210
0.0
220
0.0
230
1.0
 70
    11
 71
     3
 72
    28
 73
    24
 74
     0
 42
0.0000000001
 43
0.0000000001
 12
1.0
 22
0.0
 32
0.0
 13
1.0
 23
0.0
 33
0.0
 40
0.0
 40
0.0
 40
0.0
 40
0.0
 40
0.1428571428571428
 40
0.1428571428571428
 40
0.1428571428571428
 40
0.1428571428571428
 40
0.2857142857142857
 40
0.2857142857142857
 40
0.2857142857142857
 40
0.2857142857142857
 40
0.4285714285714285
 40
0.4285714285714285
 40
0.4285714285714285
 40
0.4285714285714285
 40
0.5714285714285714
 40
0.5714285714285714
 40
0.5714285714285714
 40
0.5714285714285714
 40
0.7142857142857143
 40
0.7142857142857143
 40
0.7142857142857143
 40
0.7142857142857143
 40
1.0
 40
1.0
 40
1.0
 40
1.0
 10
18.981
 20
-36.0395
 30
0.0
 10
20.8312
 20
-34.4583
 30
0.0
 10
26.0774
 20
-34.1344
 30
0.0
 10
27.0074
 20
-40.0785
 30
0.0
 10
27.0074
 20
-40.0785
 30
0.0
 10
27.0206
 20
-40.163
 30
0.0
 10
27.0345
 20
-40.2543
 30
0.0
 10
27.0392
 20
-40.3416
 30
0.0
 10
27.0392
 20
-40.3416
 30
0.0
 10
27.0392
 20
-40.3416
 30
0.0
 10
27.0392
 20
-32.2618
 30
0.0
 10
27.0392
 20
-32.2618
 30
0.0
 10
27.0392
 20
-32.2618
 30
0.0
 10
26.818
 20
-33.853
 30
0.0
 10
25.7059
 20
-36.1443
 30
0.0
 10
23.9822
 20
-35.4936
 30
0.0
 10
23.9822
 20
-35.4936
 30
0.0
 10
22.6387
 20
-34.9866
 30
0.0
 10
21.649
 20
-32.9175
 30
0.0
 10
21.3843
 20
-29.8931
 30
0.0
 10
21.3843
 20
-29.8931
 30
0.0
 10
21.4108
 20
-31.1695
 30
0.0
 10
20.5668
 20
-33.9113
 30
0.0
 10
18.981
 20
-36.0395
 30
0.0
  0
SPLINE
  5
95
330
1F
100
AcDbEntity
  8
layer 1
 62
     7
370
     9
100
AcDbSpline
210
0.0
220
0.0
230
1.0
 70
    11
 71
     3
 72
    24
 73
    20
 74
     0
 42
0.0000000001
 43
0.0000000001
 12
1.0
 22
0.0
 32
0.0
 13
1.0
 23
0.0
 33
0.0
 40
0.0
 40
0.0
 40
0.0
 40
0.0
 40
0.1666666666666667
 40
0.1666666666666667
 40
0.1666666666666667
 40
0.1666666666666667
 40
0.3333333333333333
 40
0.3333333333333333
 40
0.3333333333333333
 40
0.3333333333333333
 40
0.5
 40
0.5
 40
0.5
 40
0.5
 40
0.6666666666666666
 40
0.6666666666666666
 40
0.6666666666666666
 40
0.6666666666666666
 40
1.0
 40
1.0
 40
1.0
 40
1.0
 10
27.0392
 20
-31.2809
 30
0.0
 10
27.0392
 20
-31.2809
 30
0.0
 10
27.0392
 20
-25.9732
 30
0.0
 10
27.0392
 20
-25.9732
 30
0.0
 10
27.0392
 20
-25.9732
 30
0.0
 10
26.0171
 20
-24.7155
 30
0.0
 10
24.9046
 20
-24.2367
 30
0.0
 10
24.2112
 20
-24.4789
 30
0.0
 10
24.2112
 20
-24.4789
 30
0.0
 10
22.1484
 20
-25.1993
 30
0.0
 10
22.0388
 20
-27.72
 30
0.0
 10
22.0086
 20
-28.6306
 30
0.0
 10
22.0086
 20
-28.6306
 30
0.0
 10
22.0388
 20
-29.5412
 30
0.0
 10
22.1485
 20
-32.0476
 30
0.0
 10
24.2112
 20
-32.7679
 30
0.0
 10
24.2112
 20
-32.7679
 30
0.0
 10
24.9045
 20
-33.01
 30
0.0
 10
26.0171
 20
-32.5386
 30
0.0
 10
27.0392
 20
-31.2809
 30
0.0
  0
SPLINE
  5
96
330
1F
100
AcDbEntity
  8
layer 1
 62
     7
370
     9
100
AcDbSpline
210
0.0
220
0.0
230
1.0
 70
    11
 71
     3
 72
    28
 73
    24
 74
     0
 42
0.0000000001
 43
0.0000000001
 12
1.0
 22
0.0
 32
0.0
 13
1.0
 23
0.0
 33
0.0
 40
0.0
 40
0.0
 40
0.0
 40
0.0
 40
0.1428571428571428
 40
0.1428571428571428
 40
0.1428571428571428
 40
0.1428571428571428
 40
0.2857142857142857
 40
0.2857142857142857
 40
0.2857142857142857
 40
0.2857142857142857
 40
0.4285714285714285
 40
0.4285714285714285
 40
0.4285714285714285
 40
0.4285714285714285
 40
0.5714285714285714
 40
0.5714285714285714
 40
0.5714285714285714
 40
0.5714285714285714
 40
0.7142857142857143
 40
0.7142857142857143
 40
0.7142857142857143
 40
0.7142857142857143
 40
1.0
 40
1.0
 40
1.0
 40
1.0
 10
19.0196
 20
-21.2592
 30
0.0
 10
20.5805
 20
-23.3799
 30
0.0
 10
21.4105
 20
-26.0876
 30
0.0
 10
21.3843
 20
-27.3537
 30
0.0
 10
21.3843
 20
-27.3537
 30
0.0
 10
21.649
 20
-24.3293
 30
0.0
 10
22.6387
 20
-22.2604
 30
0.0
 10
23.9822
 20
-21.7532
 30
0.0
 10
23.9822
 20
-21.7532
 30
0.0
 10
25.6336
 20
-21.1299
 30
0.0
 10
26.7824
 20
-22.982
 30
0.0
 10
27.0392
 20
-24.644
 30
0.0
 10
27.0392
 20
-24.644
 30
0.0
 10
27.0392
 20
-24.644
 30
0.0
 10
27.0392
 20
-15.946
 30
0.0
 10
27.0392
 20
-15.946
 30
0.0
 10
27.0392
 20
-15.946
 30
0.0
 10
27.034
 20
-16.0388
 30
0.0
 10
27.0184
 20
-16.1252
 30
0.0
 10
27.0119
 20
-16.214
 30
0.0
 10
27.0119
 20
-16.214
 30
0.0
 10
26.5029
 20
-23.1115
 30
0.0
 10
20.9776
 20
-22.9005
 30
0.0
 10
19.0196
 20
-21.2592
 30
0.0
  0
SPLINE
  5
97
330
1F
100
AcDbEntity
  8
layer 1
 62
     7
370
     9
100
AcDbSpline
210
0.0
220
0.0
230
1.0
 70
    11
 71
     3
 72
    40
 73
    36
 74
     0
 42
0.0000000001
 43
0.0000000001
 12
1.0
 22
0.0
 32
0.0
 13
1.0
 23
0.0
 33
0.0
 40
0.0
 40
0.0
 40
0.0
 40
0.0
 40
0.1
 40
0.1
 40
0.1
 40
0.1
 40
0.2
 40
0.2
 40
0.2
 40
0.2
 40
0.3
 40
0.3
 40
0.3
 40
0.3
 40
0.4
 40
0.4
 40
0.4
 40
0.4
 40
0.5
 40
0.5
 40
0.5
 40
0.5
 40
0.6
 40
0.6
 40
0.6
 40
0.6
 40
0.7
 40
0.7
 40
0.7
 40
0.7
 40
0.8
 40
0.8
 40
0.8
 40
0.8
 40
1.0
 40
1.0
 40
1.0
 40
1.0
 10
18.2854
 20
-20.3698
 30
0.0
 10
17.2026
 20
-18.6487
 30
0.0
 10
17.6943
 20
-16.8212
 30
0.0
 10
18.6908
 20
-15.6402
 30
0.0
 10
18.6908
 20
-15.6402
 30
0.0
 10
18.4376
 20
-17.7583
 30
0.0
 10
20.0003
 20
-18.9554
 30
0.0
 10
21.216
 20
-18.9416
 30
0.0
 10
21.216
 20
-18.9416
 30
0.0
 10
24.3098
 20
-18.9063
 30
0.0
 10
24.825
 20
-15.0697
 30
0.0
 10
24.2054
 20
-12.8558
 30
0.0
 10
24.2054
 20
-12.8558
 30
0.0
 10
23.8692
 20
-14.3455
 30
0.0
 10
22.4621
 20
-14.6142
 30
0.0
 10
21.1102
 20
-14.7246
 30
0.0
 10
21.1102
 20
-14.7246
 30
0.0
 10
23.2683
 20
-12.2558
 30
0.0
 10
22.8088
 20
-7.5957
 30
0.0
 10
20.6783
 20
-6.9401
 30
0.0
 10
20.6783
 20
-6.9401
 30
0.0
 10
16.5542
 20
-5.6708
 30
0.0
 10
12.0252
 20
-11.2018
 30
0.0
 10
11.2122
 20
-14.8845
 30
0.0
 10
11.2122
 20
-14.8845
 30
0.0
 10
11.1098
 20
-15.3489
 30
0.0
 10
11.0274
 20
-16.1246
 30
0.0
 10
11.0689
 20
-16.3857
 30
0.0
 10
11.0689
 20
-16.3857
 30
0.0
 10
14.278
 20
-16.9959
 30
0.0
 10
15.9641
 20
-18.2068
 30
0.0
 10
17.8081
 20
-19.8956
 30
0.0
 10
17.8081
 20
-19.8956
 30
0.0
 10
17.9724
 20
-20.0461
 30
0.0
 10
18.1317
 20
-20.2046
 30
0.0
 10
18.2854
 20
-20.3698
 30
0.0
  0
SPLINE
  5
98
330
1F
100
AcDbEntity
  8
layer 1
 62
     7
370
     9
100
AcDbSpline
210
0.0
220
0.0
230
1.0
 70
    11
 71
     3
 72
    24
 73
    20
 74
     0
 42
0.0000000001
 43
0.0000000001
 12
1.0
 22
0.0
 32
0.0
 13
1.0
 23
0.0
 33
0.0
 40
0.0
 40
0.0
 40
0.0
 40
0.0
 40
0.1666666666666667
 40
0.1666666666666667
 40
0.1666666666666667
 40
0.1666666666666667
 40
0.3333333333333333
 40
0.3333333333333333
 40
0.3333333333333333
 40
0.3333333333333333
 40
0.5
 40
0.5
 40
0.5
 40
0.5
 40
0.6666666666666666
 40
0.6666666666666666
 40
0.6666666666666666
 40
0.6666666666666666
 40
1.0
 40
1.0
 40
1.0
 40
1.0
 10
27.0392
 20
-14.0766
 30
0.0
 10
27.0392
 20
-14.0766
 30
0.0
 10
27.0392
 20
-4.0227
 30
0.0
 10
27.0392
 20
-4.0227
 30
0.0
 10
27.0392
 20
-4.0227
 30
0.0
 10
26.371
 20
-4.4125
 30
0.0
 10
25.071
 20
-4.7922
 30
0.0
 10
24.5699
 20
-4.7942
 30
0.0
 10
24.5699
 20
-4.7942
 30
0.0
 10
23.4446
 20
-4.7986
 30
0.0
 10
23.3348
 20
-4.3788
 30
0.0
 10
22.0796
 20
-4.3086
 30
0.0
 10
22.0796
 20
-4.3086
 30
0.0
 10
23.1557
 20
-4.8268
 30
0.0
 10
24.8228
 20
-6.5618
 30
0.0
 10
25.5922
 20
-8.0867
 30
0.0
 10
25.5922
 20
-8.0867
 30
0.0
 10
26.5362
 20
-9.9577
 30
0.0
 10
26.9449
 20
-12.163
 30
0.0
 10
27.0392
 20
-14.0766
 30
0.0
  0
SPLINE
  5
99
330
1F
100
AcDbEntity
  8
layer 1
 62
     7
370
     9
100
AcDbSpline
210
0.0
220
0.0
230
1.0
 70
    11
 71
     3
 72
    24
 73
    20
 74
     0
 42
0.0000000001
 43
0.0000000001
 12
1.0
 22
0.0
 32
0.0
 13
1.0
 23
0.0
 33
0.0
 40
0.0
 40
0.0
 40
0.0
 40
0.0
 40
0.1666666666666667
 40
0.1666666666666667
 40
0.1666666666666667
 40
0.1666666666666667
 40
0.3333333333333333
 40
0.3333333333333333
 40
0.3333333333333333
 40
0.3333333333333333
 40
0.5
 40
0.5
 40
0.5
 40
0.5
 40
0.6666666666666666
 40
0.6666666666666666
 40
0.6666666666666666
 40
0.6666666666666666
 40
1.0
 40
1.0
 40
1.0
 40
1.0
 10
27.0392
 20
-3.5056
 30
0.0
 10
27.0392
 20
-3.5056
 30
0.0
 10
27.0392
 20
6.552
 30
0.0
 10
27.0392
 20
6.552
 30
0.0
 10
27.0392
 20
6.552
 30
0.0
 10
26.9471
 20
4.6326
 30
0.0
 10
26.5401
 20
2.4291
 30
0.0
 10
25.5922
 20
0.5502
 30
0.0
 10
25.5922
 20
0.5502
 30
0.0
 10
24.8229
 20
-0.9745
 30
0.0
 10
23.1557
 20
-2.7096
 30
0.0
 10
22.0796
 20
-3.2278
 30
0.0
 10
22.0796
 20
-3.2278
 30
0.0
 10
23.3348
 20
-3.1577
 30
0.0
 10
23.4446
 20
-2.7378
 30
0.0
 10
24.5699
 20
-2.7423
 30
0.0
 10
24.5699
 20
-2.7423
 30
0.0
 10
25.071
 20
-2.7443
 30
0.0
 10
26.371
 20
-3.1158
 30
0.0
 10
27.0392
 20
-3.5056
 30
0.0
  0
SPLINE
  5
9A
330
1F
100
AcDbEntity
  8
layer 1
 62
     7
370
     9
100
AcDbSpline
210
0.0
220
0.0
230
1.0
 70
    11
 71
     3
 72
    40
 73
    36
 74
     0
 42
0.0000000001
 43
0.0000000001
 12
1.0
 22
0.0
 32
0.0
 13
1.0
 23
0.0
 33
0.0
 40
0.0
 40
0.0
 40
0.0
 40
0.0
 40
0.1
 40
0.1
 40
0.1
 40
0.1
 40
0.2
 40
0.2
 40
0.2
 40
0.2
 40
0.3
 40
0.3
 40
0.3
 40
0.3
 40
0.4
 40
0.4
 40
0.4
 40
0.4
 40
0.5
 40
0.5
 40
0.5
 40
0.5
 40
0.6
 40
0.6
 40
0.6
 40
0.6
 40
0.7
 40
0.7
 40
0.7
 40
0.7
 40
0.8
 40
0.8
 40
0.8
 40
0.8
 40
1.0
 40
1.0
 40
1.0
 40
1.0
 10
18.2537
 20
12.7995
 30
0.0
 10
18.1097
 20
12.6464
 30
0.0
 10
17.9611
 20
12.4992
 30
0.0
 10
17.8081
 20
12.3591
 30
0.0
 10
17.8081
 20
12.3591
 30
0.0
 10
15.9643
 20
10.6705
 30
0.0
 10
14.278
 20
9.4594
 30
0.0
 10
11.0689
 20
8.8492
 30
0.0
 10
11.0689
 20
8.8492
 30
0.0
 10
11.0274
 20
8.5882
 30
0.0
 10
11.1098
 20
7.8125
 30
0.0
 10
11.2122
 20
7.3481
 30
0.0
 10
11.2122
 20
7.3481
 30
0.0
 10
12.0252
 20
3.6653
 30
0.0
 10
16.5542
 20
-1.8657
 30
0.0
 10
20.6783
 20
-0.5964
 30
0.0
 10
20.6783
 20
-0.5964
 30
0.0
 10
22.8088
 20
0.0592
 30
0.0
 10
23.2683
 20
4.7194
 30
0.0
 10
21.1102
 20
7.1882
 30
0.0
 10
21.1102
 20
7.1882
 30
0.0
 10
22.4621
 20
7.0778
 30
0.0
 10
23.8692
 20
6.809
 30
0.0
 10
24.2054
 20
5.3194
 30
0.0
 10
24.2054
 20
5.3194
 30
0.0
 10
24.825
 20
7.5333
 30
0.0
 10
24.3098
 20
11.3698
 30
0.0
 10
21.216
 20
11.4052
 30
0.0
 10
21.216
 20
11.4052
 30
0.0
 10
20.0003
 20
11.419
 30
0.0
 10
18.4376
 20
10.2218
 30
0.0
 10
18.6908
 20
8.1037
 30
0.0
 10
18.6908
 20
8.1037
 30
0.0
 10
17.7002
 20
9.2777
 30
0.0
 10
17.1956
 20
11.0875
 30
0.0
 10
18.2537
 20
12.7995
 30
0.0
  0
SPLINE
  5
9B
330
1F
100
AcDbEntity
  8
layer 1
 62
     7
370
     9
100
AcDbSpline
210
0.0
220
0.0
230
1.0
 70
    11
 71
     3
 72
    28
 73
    24
 74
     0
 42
0.0000000001
 43
0.0000000001
 12
1.0
 22
0.0
 32
0.0
 13
1.0
 23
0.0
 33
0.0
 40
0.0
 40
0.0
 40
0.0
 40
0.0
 40
0.1428571428571428
 40
0.1428571428571428
 40
0.1428571428571428
 40
0.1428571428571428
 40
0.2857142857142857
 40
0.2857142857142857
 40
0.2857142857142857
 40
0.2857142857142857
 40
0.4285714285714285
 40
0.4285714285714285
 40
0.4285714285714285
 40
0.4285714285714285
 40
0.5714285714285714
 40
0.5714285714285714
 40
0.5714285714285714
 40
0.5714285714285714
 40
0.7142857142857143
 40
0.7142857142857143
 40
0.7142857142857143
 40
0.7142857142857143
 40
1.0
 40
1.0
 40
1.0
 40
1.0
 10
18.9942
 20
13.6886
 30
0.0
 10
20.9292
 20
15.3492
 30
0.0
 10
26.5005
 20
15.6056
 30
0.0
 10
27.0119
 20
8.6775
 30
0.0
 10
27.0119
 20
8.6775
 30
0.0
 10
27.0194
 20
8.5759
 30
0.0
 10
27.0335
 20
8.4815
 30
0.0
 10
27.0392
 20
8.375
 30
0.0
 10
27.0392
 20
8.375
 30
0.0
 10
27.0392
 20
8.375
 30
0.0
 10
27.0392
 20
17.0964
 30
0.0
 10
27.0392
 20
17.0964
 30
0.0
 10
27.0392
 20
17.0964
 30
0.0
 10
26.7735
 20
15.4415
 30
0.0
 10
25.6239
 20
13.597
 30
0.0
 10
23.9822
 20
14.2168
 30
0.0
 10
23.9822
 20
14.2168
 30
0.0
 10
22.6387
 20
14.7238
 30
0.0
 10
21.649
 20
16.7928
 30
0.0
 10
21.3843
 20
19.8173
 30
0.0
 10
21.3843
 20
19.8173
 30
0.0
 10
21.4107
 20
18.5443
 30
0.0
 10
20.5716
 20
15.8142
 30
0.0
 10
18.9942
 20
13.6886
 30
0.0
  0
SPLINE
  5
9C
330
1F
100
AcDbEntity
  8
layer 1
 62
     7
370
     9
100
AcDbSpline
210
0.0
220
0.0
230
1.0
 70
    11
 71
     3
 72
    24
 73
    20
 74
     0
 42
0.0000000001
 43
0.0000000001
 12
1.0
 22
0.0
 32
0.0
 13
1.0
 23
0.0
 33
0.0
 40
0.0
 40
0.0
 40
0.0
 40
0.0
 40
0.1666666666666667
 40
0.1666666666666667
 40
0.1666666666666667
 40
0.1666666666666667
 40
0.3333333333333333
 40
0.3333333333333333
 40
0.3333333333333333
 40
0.3333333333333333
 40
0.5
 40
0.5
 40
0.5
 40
0.5
 40
0.6666666666666666
 40
0.6666666666666666
 40
0.6666666666666666
 40
0.6666666666666666
 40
1.0
 40
1.0
 40
1.0
 40
1.0
 10
27.0393
 20
18.436
 30
0.0
 10
27.0393
 20
18.436
 30
0.0
 10
27.0394
 20
23.735
 30
0.0
 10
27.0394
 20
23.735
 30
0.0
 10
27.0394
 20
23.735
 30
0.0
 10
26.0173
 20
24.9928
 30
0.0
 10
24.9046
 20
25.4723
 30
0.0
 10
24.2112
 20
25.2302
 30
0.0
 10
24.2112
 20
25.2302
 30
0.0
 10
22.1485
 20
24.5098
 30
0.0
 10
22.0388
 20
21.9891
 30
0.0
 10
22.0086
 20
21.0863
 30
0.0
 10
22.0086
 20
21.0863
 30
0.0
 10
22.0388
 20
20.1835
 30
0.0
 10
22.1484
 20
17.6628
 30
0.0
 10
24.2112
 20
16.9424
 30
0.0
 10
24.2112
 20
16.9424
 30
0.0
 10
24.9046
 20
16.7002
 30
0.0
 10
26.0172
 20
17.1783
 30
0.0
 10
27.0393
 20
18.436
 30
0.0
  0
SPLINE
  5
9D
330
1F
100
AcDbEntity
  8
layer 1
 62
     7
370
     9
100
AcDbSpline
210
0.0
220
0.0
230
1.0
 70
    11
 71
     3
 72
    24
 73
    20
 74
     0
 42
0.0000000001
 43
0.0000000001
 12
1.0
 22
0.0
 32
0.0
 13
1.0
 23
0.0
 33
0.0
 40
0.0
 40
0.0
 40
0.0
 40
0.0
 40
0.1666666666666667
 40
0.1666666666666667
 40
0.1666666666666667
 40
0.1666666666666667
 40
0.3333333333333333
 40
0.3333333333333333
 40
0.3333333333333333
 40
0.3333333333333333
 40
0.5
 40
0.5
 40
0.5
 40
0.5
 40
0.6666666666666666
 40
0.6666666666666666
 40
0.6666666666666666
 40
0.6666666666666666
 40
1.0
 40
1.0
 40
1.0
 40
1.0
 10
19.0192
 20
28.4505
 30
0.0
 10
20.5804
 20
26.3297
 30
0.0
 10
21.4105
 20
23.6217
 30
0.0
 10
21.3843
 20
22.3554
 30
0.0
 10
21.3843
 20
22.3554
 30
0.0
 10
21.649
 20
25.3798
 30
0.0
 10
22.6387
 20
27.4488
 30
0.0
 10
23.9822
 20
27.9559
 30
0.0
 10
23.9822
 20
27.9559
 30
0.0
 10
25.6195
 20
28.5739
 30
0.0
 10
26.7698
 20
26.7348
 30
0.0
 10
27.0395
 20
25.0836
 30
0.0
 10
27.0395
 20
25.0836
 30
0.0
 10
27.0395
 20
25.0836
 30
0.0
 10
27.0397
 20
33.5028
 30
0.0
 10
27.0397
 20
33.5028
 30
0.0
 10
27.0397
 20
33.5028
 30
0.0
 10
26.5304
 20
26.6053
 30
0.0
 10
20.9799
 20
26.8101
 30
0.0
 10
19.0192
 20
28.4505
 30
0.0
  0
SPLINE
  5
9E
330
1F
100
AcDbEntity
  8
layer 1
 62
     7
370
     9
100
AcDbSpline
210
0.0
220
0.0
230
1.0
 70
    11
 71
     3
 72
    40
 73
    36
 74
     0
 42
0.0000000001
 43
0.0000000001
 12
1.0
 22
0.0
 32
0.0
 13
1.0
 23
0.0
 33
0.0
 40
0.0
 40
0.0
 40
0.0
 40
0.0
 40
0.1
 40
0.1
 40
0.1
 40
0.1
 40
0.2
 40
0.2
 40
0.2
 40
0.2
 40
0.3
 40
0.3
 40
0.3
 40
0.3
 40
0.4
 40
0.4
 40
0.4
 40
0.4
 40
0.5
 40
0.5
 40
0.5
 40
0.5
 40
0.6
 40
0.6
 40
0.6
 40
0.6
 40
0.7
 40
0.7
 40
0.7
 40
0.7
 40
0.8
 40
0.8
 40
0.8
 40
0.8
 40
1.0
 40
1.0
 40
1.0
 40
1.0
 10
18.2934
 20
29.3307
 30
0.0
 10
17.1958
 20
31.0575
 30
0.0
 10
17.6907
 20
32.8837
 30
0.0
 10
18.6908
 20
34.0689
 30
0.0
 10
18.6908
 20
34.0689
 30
0.0
 10
18.4376
 20
31.9508
 30
0.0
 10
20.0003
 20
30.7537
 30
0.0
 10
21.216
 20
30.7675
 30
0.0
 10
21.216
 20
30.7675
 30
0.0
 10
24.3098
 20
30.8029
 30
0.0
 10
24.825
 20
34.6394
 30
0.0
 10
24.2054
 20
36.8533
 30
0.0
 10
24.2054
 20
36.8533
 30
0.0
 10
23.8692
 20
35.3637
 30
0.0
 10
22.4621
 20
35.0949
 30
0.0
 10
21.1102
 20
34.9845
 30
0.0
 10
21.1102
 20
34.9845
 30
0.0
 10
23.2683
 20
37.4533
 30
0.0
 10
22.8088
 20
42.1134
 30
0.0
 10
20.6783
 20
42.769
 30
0.0
 10
20.6783
 20
42.769
 30
0.0
 10
16.5542
 20
44.0383
 30
0.0
 10
12.0252
 20
38.5073
 30
0.0
 10
11.2122
 20
34.8246
 30
0.0
 10
11.2122
 20
34.8246
 30
0.0
 10
11.1098
 20
34.3602
 30
0.0
 10
11.0274
 20
33.5845
 30
0.0
 10
11.0689
 20
33.3234
 30
0.0
 10
11.0689
 20
33.3234
 30
0.0
 10
14.278
 20
32.7132
 30
0.0
 10
15.9641
 20
31.5023
 30
0.0
 10
17.8081
 20
29.8135
 30
0.0
 10
17.8081
 20
29.8135
 30
0.0
 10
17.9753
 20
29.6604
 30
0.0
 10
18.1371
 20
29.4991
 30
0.0
 10
18.2934
 20
29.3307
 30
0.0
  0
SPLINE
  5
9F
330
1F
100
AcDbEntity
  8
layer 1
 62
     7
370
     9
100
AcDbSpline
210
0.0
220
0.0
230
1.0
 70
    11
 71
     3
 72
    24
 73
    20
 74
     0
 42
0.0000000001
 43
0.0000000001
 12
1.0
 22
0.0
 32
0.0
 13
1.0
 23
0.0
 33
0.0
 40
0.0
 40
0.0
 40
0.0
 40
0.0
 40
0.1666666666666667
 40
0.1666666666666667
 40
0.1666666666666667
 40
0.1666666666666667
 40
0.3333333333333333
 40
0.3333333333333333
 40
0.3333333333333333
 40
0.3333333333333333
 40
0.5
 40
0.5
 40
0.5
 40
0.5
 40
0.6666666666666666
 40
0.6666666666666666
 40
0.6666666666666666
 40
0.6666666666666666
 40
1.0
 40
1.0
 40
1.0
 40
1.0
 10
27.0398
 20
35.6547
 30
0.0
 10
27.0398
 20
35.6547
 30
0.0
 10
27.0399
 20
45.673
 30
0.0
 10
27.0399
 20
45.673
 30
0.0
 10
27.0399
 20
45.673
 30
0.0
 10
26.3718
 20
45.2832
 30
0.0
 10
25.071
 20
44.9169
 30
0.0
 10
24.5699
 20
44.9149
 30
0.0
 10
24.5699
 20
44.9149
 30
0.0
 10
23.4446
 20
44.9105
 30
0.0
 10
23.3348
 20
45.3303
 30
0.0
 10
22.0796
 20
45.4005
 30
0.0
 10
22.0796
 20
45.4005
 30
0.0
 10
23.1557
 20
44.8823
 30
0.0
 10
24.8228
 20
43.1473
 30
0.0
 10
25.5922
 20
41.6224
 30
0.0
 10
25.5922
 20
41.6224
 30
0.0
 10
26.5339
 20
39.7562
 30
0.0
 10
26.9441
 20
37.5648
 30
0.0
 10
27.0398
 20
35.6547
 30
0.0
  0
SPLINE
  5
A0
330
1F
100
AcDbEntity
  8
layer 1
 62
     7
370
     9
100
AcDbSpline
210
0.0
220
0.0
230
1.0
 70
    11
 71
     3
 72
    24
 73
    20
 74
     0
 42
0.0000000001
 43
0.0000000001
 12
1.0
 22
0.0
 32
0.0
 13
1.0
 23
0.0
 33
0.0
 40
0.0
 40
0.0
 40
0.0
 40
0.0
 40
0.1666666666666667
 40
0.1666666666666667
 40
0.1666666666666667
 40
0.1666666666666667
 40
0.3333333333333333
 40
0.3333333333333333
 40
0.3333333333333333
 40
0.3333333333333333
 40
0.5
 40
0.5
 40
0.5
 40
0.5
 40
0.6666666666666666
 40
0.6666666666666666
 40
0.6666666666666666
 40
0.6666666666666666
 40
1.0
 40
1.0
 40
1.0
 40
1.0
 10
27.04
 20
46.199
 30
0.0
 10
27.04
 20
46.199
 30
0.0
 10
27.0402
 20
55.5328
 30
0.0
 10
27.0402
 20
55.5328
 30
0.0
 10
27.0402
 20
55.5328
 30
0.0
 10
26.8882
 20
53.7981
 30
0.0
 10
26.4205
 20
51.9011
 30
0.0
 10
25.5922
 20
50.2594
 30
0.0
 10
25.5922
 20
50.2594
 30
0.0
 10
24.8228
 20
48.7346
 30
0.0
 10
23.1557
 20
46.9995
 30
0.0
 10
22.0796
 20
46.4813
 30
0.0
 10
22.0796
 20
46.4813
 30
0.0
 10
23.3348
 20
46.5514
 30
0.0
 10
23.4446
 20
46.9713
 30
0.0
 10
24.5699
 20
46.9668
 30
0.0
 10
24.5699
 20
46.9668
 30
0.0
 10
25.071
 20
46.9649
 30
0.0
 10
26.3719
 20
46.5888
 30
0.0
 10
27.04
 20
46.199
 30
0.0
  0
SPLINE
  5
A1
330
1F
100
AcDbEntity
  8
layer 1
 62
     7
370
     9
100
AcDbSpline
210
0.0
220
0.0
230
1.0
 70
    11
 71
     3
 72
    24
 73
    20
 74
     0
 42
0.0000000001
 43
0.0000000001
 12
1.0
 22
0.0
 32
0.0
 13
1.0
 23
0.0
 33
0.0
 40
0.0
 40
0.0
 40
0.0
 40
0.0
 40
0.1666666666666667
 40
0.1666666666666667
 40
0.1666666666666667
 40
0.1666666666666667
 40
0.3333333333333333
 40
0.3333333333333333
 40
0.3333333333333333
 40
0.3333333333333333
 40
0.5
 40
0.5
 40
0.5
 40
0.5
 40
0.6666666666666666
 40
0.6666666666666666
 40
0.6666666666666666
 40
0.6666666666666666
 40
1.0
 40
1.0
 40
1.0
 40
1.0
 10
19.0241
 20
63.3727
 30
0.0
 10
20.9635
 20
65.0317
 30
0.0
 10
26.5286
 20
65.3116
 30
0.0
 10
27.0402
 20
58.386
 30
0.0
 10
27.0402
 20
58.386
 30
0.0
 10
27.0402
 20
58.386
 30
0.0
 10
27.0403
 20
66.6858
 30
0.0
 10
27.0403
 20
66.6858
 30
0.0
 10
27.0403
 20
66.6858
 30
0.0
 10
26.7484
 20
65.0549
 30
0.0
 10
25.594
 20
63.3174
 30
0.0
 10
23.9822
 20
63.9259
 30
0.0
 10
23.9822
 20
63.9259
 30
0.0
 10
22.6387
 20
64.4329
 30
0.0
 10
21.649
 20
66.5019
 30
0.0
 10
21.3843
 20
69.5264
 30
0.0
 10
21.3843
 20
69.5264
 30
0.0
 10
21.4107
 20
68.2542
 30
0.0
 10
20.5998
 20
65.4977
 30
0.0
 10
19.0241
 20
63.3727
 30
0.0
  0
SPLINE
  5
A2
330
1F
100
AcDbEntity
  8
layer 1
 62
     7
370
     9
100
AcDbSpline
210
0.0
220
0.0
230
1.0
 70
    11
 71
     3
 72
    40
 73
    36
 74
     0
 42
0.0000000001
 43
0.0000000001
 12
1.0
 22
0.0
 32
0.0
 13
1.0
 23
0.0
 33
0.0
 40
0.0
 40
0.0
 40
0.0
 40
0.0
 40
0.1
 40
0.1
 40
0.1
 40
0.1
 40
0.2
 40
0.2
 40
0.2
 40
0.2
 40
0.3
 40
0.3
 40
0.3
 40
0.3
 40
0.4
 40
0.4
 40
0.4
 40
0.4
 40
0.5
 40
0.5
 40
0.5
 40
0.5
 40
0.6
 40
0.6
 40
0.6
 40
0.6
 40
0.7
 40
0.7
 40
0.7
 40
0.7
 40
0.8
 40
0.8
 40
0.8
 40
0.8
 40
1.0
 40
1.0
 40
1.0
 40
1.0
 10
18.311
 20
62.5056
 30
0.0
 10
18.1571
 20
62.3404
 30
0.0
 10
17.9723
 20
62.2186
 30
0.0
 10
17.8081
 20
62.0683
 30
0.0
 10
17.8081
 20
62.0683
 30
0.0
 10
15.9643
 20
60.3796
 30
0.0
 10
14.278
 20
59.1685
 30
0.0
 10
11.0689
 20
58.5584
 30
0.0
 10
11.0689
 20
58.5584
 30
0.0
 10
11.0274
 20
58.2973
 30
0.0
 10
11.1098
 20
57.5216
 30
0.0
 10
11.2122
 20
57.0572
 30
0.0
 10
11.2122
 20
57.0572
 30
0.0
 10
12.0252
 20
53.3745
 30
0.0
 10
16.5542
 20
47.8434
 30
0.0
 10
20.6783
 20
49.1127
 30
0.0
 10
20.6783
 20
49.1127
 30
0.0
 10
22.8088
 20
49.7684
 30
0.0
 10
23.2683
 20
54.4285
 30
0.0
 10
21.1102
 20
56.8973
 30
0.0
 10
21.1102
 20
56.8973
 30
0.0
 10
22.4621
 20
56.7869
 30
0.0
 10
23.8692
 20
56.5181
 30
0.0
 10
24.2054
 20
55.0285
 30
0.0
 10
24.2054
 20
55.0285
 30
0.0
 10
24.825
 20
57.2424
 30
0.0
 10
24.3098
 20
61.0789
 30
0.0
 10
21.216
 20
61.1143
 30
0.0
 10
21.216
 20
61.1143
 30
0.0
 10
20.0003
 20
61.1281
 30
0.0
 10
18.4376
 20
59.9309
 30
0.0
 10
18.6908
 20
57.8129
 30
0.0
 10
18.6908
 20
57.8129
 30
0.0
 10
17.6962
 20
58.9916
 30
0.0
 10
17.2358
 20
60.7873
 30
0.0
 10
18.311
 20
62.5056
 30
0.0
  0
SPLINE
  5
A3
330
1F
100
AcDbEntity
  8
layer 1
 62
     7
370
     9
100
AcDbSpline
210
0.0
220
0.0
230
1.0
 70
    11
 71
     3
 72
    24
 73
    20
 74
     0
 42
0.0000000001
 43
0.0000000001
 12
1.0
 22
0.0
 32
0.0
 13
1.0
 23
0.0
 33
0.0
 40
0.0
 40
0.0
 40
0.0
 40
0.0
 40
0.1666666666666667
 40
0.1666666666666667
 40
0.1666666666666667
 40
0.1666666666666667
 40
0.3333333333333333
 40
0.3333333333333333
 40
0.3333333333333333
 40
0.3333333333333333
 40
0.5
 40
0.5
 40
0.5
 40
0.5
 40
0.6666666666666666
 40
0.6666666666666666
 40
0.6666666666666666
 40
0.6666666666666666
 40
1.0
 40
1.0
 40
1.0
 40
1.0
 10
18.9584
 20
78.2411
 30
0.0
 10
20.5587
 20
76.1088
 30
0.0
 10
21.4108
 20
73.3471
 30
0.0
 10
21.3843
 20
72.0645
 30
0.0
 10
21.3843
 20
72.0645
 30
0.0
 10
21.649
 20
75.089
 30
0.0
 10
22.6387
 20
77.1579
 30
0.0
 10
23.9822
 20
77.665
 30
0.0
 10
23.9822
 20
77.665
 30
0.0
 10
25.669
 20
78.3017
 30
0.0
 10
26.7873
 20
76.1517
 30
0.0
 10
27.0404
 20
74.5665
 30
0.0
 10
27.0404
 20
74.5665
 30
0.0
 10
27.0404
 20
74.5665
 30
0.0
 10
27.0405
 20
82.2657
 30
0.0
 10
27.0405
 20
82.2657
 30
0.0
 10
27.0405
 20
82.2657
 30
0.0
 10
26.1035
 20
76.2779
 30
0.0
 10
20.775
 20
76.6315
 30
0.0
 10
18.9584
 20
78.2411
 30
0.0
  0
SPLINE
  5
A4
330
1F
100
AcDbEntity
  8
layer 1
 62
     7
370
     9
100
AcDbSpline
210
0.0
220
0.0
230
1.0
 70
    11
 71
     3
 72
    44
 73
    40
 74
     0
 42
0.0000000001
 43
0.0000000001
 12
1.0
 22
0.0
 32
0.0
 13
1.0
 23
0.0
 33
0.0
 40
0.0
 40
0.0
 40
0.0
 40
0.0
 40
0.0909090909090909
 40
0.0909090909090909
 40
0.0909090909090909
 40
0.0909090909090909
 40
0.1818181818181818
 40
0.1818181818181818
 40
0.1818181818181818
 40
0.1818181818181818
 40
0.2727272727272727
 40
0.2727272727272727
 40
0.2727272727272727
 40
0.2727272727272727
 40
0.3636363636363636
 40
0.3636363636363636
 40
0.3636363636363636
 40
0.3636363636363636
 40
0.4545454545454545
 40
0.4545454545454545
 40
0.4545454545454545
 40
0.4545454545454545
 40
0.5454545454545454
 40
0.5454545454545454
 40
0.5454545454545454
 40
0.5454545454545454
 40
0.6363636363636364
 40
0.6363636363636364
 40
0.6363636363636364
 40
0.6363636363636364
 40
0.7272727272727273
 40
0.7272727272727273
 40
0.7272727272727273
 40
0.7272727272727273
 40
0.8181818181818182
 40
0.8181818181818182
 40
0.8181818181818182
 40
0.8181818181818182
 40
1.0
 40
1.0
 40
1.0
 40
1.0
 10
18.387
 20
78.9372
 30
0.0
 10
17.1928
 20
80.6986
 30
0.0
 10
17.6682
 20
82.5662
 30
0.0
 10
18.6908
 20
83.778
 30
0.0
 10
18.6908
 20
83.778
 30
0.0
 10
18.4376
 20
81.66
 30
0.0
 10
20.0006
 20
80.4819
 30
0.0
 10
21.216
 20
80.4766
 30
0.0
 10
21.216
 20
80.4766
 30
0.0
 10
28.1521
 20
80.4456
 30
0.0
 10
24.3954
 20
89.8811
 30
0.0
 10
18.9942
 20
89.3112
 30
0.0
 10
18.9942
 20
89.3112
 30
0.0
 10
19.4839
 20
89.0588
 30
0.0
 10
19.9476
 20
88.3762
 30
0.0
 10
20.2515
 20
87.3366
 30
0.0
 10
20.2515
 20
87.3366
 30
0.0
 10
18.3945
 20
88.4353
 30
0.0
 10
17.0574
 20
89.1672
 30
0.0
 10
15.2808
 20
88.702
 30
0.0
 10
15.2808
 20
88.702
 30
0.0
 10
14.637
 20
88.5334
 30
0.0
 10
14.0635
 20
88.2423
 30
0.0
 10
13.5902
 20
87.8547
 30
0.0
 10
13.5902
 20
87.8547
 30
0.0
 10
12.8937
 20
87.2843
 30
0.0
 10
11.5931
 20
86.26
 30
0.0
 10
11.2122
 20
84.5337
 30
0.0
 10
11.2122
 20
84.5337
 30
0.0
 10
11.1098
 20
84.0695
 30
0.0
 10
11.0274
 20
83.2936
 30
0.0
 10
11.0689
 20
83.0325
 30
0.0
 10
11.0689
 20
83.0325
 30
0.0
 10
14.278
 20
82.4224
 30
0.0
 10
15.9641
 20
81.2114
 30
0.0
 10
17.8081
 20
79.5226
 30
0.0
 10
17.8081
 20
79.5226
 30
0.0
 10
18.0089
 20
79.3387
 30
0.0
 10
18.202
 20
79.1426
 30
0.0
 10
18.387
 20
78.9372
 30
0.0
  0
SPLINE
  5
A5
330
1F
100
AcDbEntity
  8
layer 1
 62
     7
370
     9
100
AcDbSpline
210
0.0
220
0.0
230
1.0
 70
    11
 71
     3
 72
    24
 73
    20
 74
     0
 42
0.0000000001
 43
0.0000000001
 12
1.0
 22
0.0
 32
0.0
 13
1.0
 23
0.0
 33
0.0
 40
0.0
 40
0.0
 40
0.0
 40
0.0
 40
0.1666666666666667
 40
0.1666666666666667
 40
0.1666666666666667
 40
0.1666666666666667
 40
0.3333333333333333
 40
0.3333333333333333
 40
0.3333333333333333
 40
0.3333333333333333
 40
0.5
 40
0.5
 40
0.5
 40
0.5
 40
0.6666666666666666
 40
0.6666666666666666
 40
0.6666666666666666
 40
0.6666666666666666
 40
1.0
 40
1.0
 40
1.0
 40
1.0
 10
27.0407
 20
84.3091
 30
0.0
 10
27.0407
 20
84.3091
 30
0.0
 10
27.0409
 20
100.8109
 30
0.0
 10
27.0409
 20
100.8109
 30
0.0
 10
27.0409
 20
100.8109
 30
0.0
 10
26.5959
 20
98.2072
 30
0.0
 10
24.4559
 20
96.0555
 30
0.0
 10
20.2802
 20
93.4227
 30
0.0
 10
20.2802
 20
93.4227
 30
0.0
 10
22.9227
 20
94.2008
 30
0.0
 10
23.0668
 20
92.8263
 30
0.0
 10
25.3248
 20
92.2959
 30
0.0
 10
25.3248
 20
92.2959
 30
0.0
 10
23.1571
 20
91.3319
 30
0.0
 10
21.0018
 20
93.1826
 30
0.0
 10
17.6908
 20
90.412
 30
0.0
 10
17.6908
 20
90.412
 30
0.0
 10
21.3942
 20
91.1322
 30
0.0
 10
26.444
 20
88.2755
 30
0.0
 10
27.0407
 20
84.3091
 30
0.0
  0
SPLINE
  5
A6
330
1F
100
AcDbEntity
  8
layer 1
 62
     7
370
     9
100
AcDbSpline
210
0.0
220
0.0
230
1.0
 70
    11
 71
     3
 72
    20
 73
    16
 74
     0
 42
0.0000000001
 43
0.0000000001
 12
1.0
 22
0.0
 32
0.0
 13
1.0
 23
0.0
 33
0.0
 40
0.0
 40
0.0
 40
0.0
 40
0.0
 40
0.2
 40
0.2
 40
0.2
 40
0.2
 40
0.4
 40
0.4
 40
0.4
 40
0.4
 40
0.6
 40
0.6
 40
0.6
 40
0.6
 40
1.0
 40
1.0
 40
1.0
 40
1.0
 10
26.9346
 20
104.4096
 30
0.0
 10
26.347
 20
109.7777
 30
0.0
 10
23.3686
 20
114.4506
 30
0.0
 10
19.0854
 20
117.3477
 30
0.0
 10
19.0854
 20
117.3477
 30
0.0
 10
17.7137
 20
115.6343
 30
0.0
 10
15.8325
 20
114.3686
 30
0.0
 10
17.909
 20
112.0249
 30
0.0
 10
17.909
 20
112.0249
 30
0.0
 10
19.9918
 20
109.6741
 30
0.0
 10
25.1866
 20
110.1522
 30
0.0
 10
26.7471
 20
104.8862
 30
0.0
 10
26.7471
 20
104.8862
 30
0.0
 10
26.7704
 20
104.8074
 30
0.0
 10
26.8794
 20
104.5725
 30
0.0
 10
26.9346
 20
104.4096
 30
0.0
  0
SPLINE
  5
A7
330
1F
100
AcDbEntity
  8
layer 1
 62
     7
370
     9
100
AcDbSpline
210
0.0
220
0.0
230
1.0
 70
    11
 71
     3
 72
    28
 73
    24
 74
     0
 42
0.0000000001
 43
0.0000000001
 12
1.0
 22
0.0
 32
0.0
 13
1.0
 23
0.0
 33
0.0
 40
0.0
 40
0.0
 40
0.0
 40
0.0
 40
0.1428571428571428
 40
0.1428571428571428
 40
0.1428571428571428
 40
0.1428571428571428
 40
0.2857142857142857
 40
0.2857142857142857
 40
0.2857142857142857
 40
0.2857142857142857
 40
0.4285714285714285
 40
0.4285714285714285
 40
0.4285714285714285
 40
0.4285714285714285
 40
0.5714285714285714
 40
0.5714285714285714
 40
0.5714285714285714
 40
0.5714285714285714
 40
0.7142857142857143
 40
0.7142857142857143
 40
0.7142857142857143
 40
0.7142857142857143
 40
1.0
 40
1.0
 40
1.0
 40
1.0
 10
18.4537
 20
117.7562
 30
0.0
 10
15.6845
 20
119.4669
 30
0.0
 10
12.421
 20
120.4563
 30
0.0
 10
8.9325
 20
120.4563
 30
0.0
 10
8.9325
 20
120.4563
 30
0.0
 10
5.4479
 20
120.4563
 30
0.0
 10
2.1576
 20
119.4625
 30
0.0
 10
-0.6096
 20
117.7551
 30
0.0
 10
-0.6096
 20
117.7551
 30
0.0
 10
1.2603
 20
117.5161
 30
0.0
 10
4.735
 20
116.4916
 30
0.0
 10
5.186
 20
114.2984
 30
0.0
 10
5.186
 20
114.2984
 30
0.0
 10
5.1529
 20
115.9834
 30
0.0
 10
6.5354
 20
118.0212
 30
0.0
 10
8.9327
 20
118.023
 30
0.0
 10
8.9327
 20
118.023
 30
0.0
 10
11.33
 20
118.0212
 30
0.0
 10
12.7397
 20
115.9834
 30
0.0
 10
12.7066
 20
114.2984
 30
0.0
 10
12.7066
 20
114.2984
 30
0.0
 10
13.133
 20
116.3695
 30
0.0
 10
16.5282
 20
117.5099
 30
0.0
 10
18.4537
 20
117.7562
 30
0.0
  0
SPLINE
  5
A8
330
1F
100
AcDbEntity
  8
layer 1
 62
     7
370
     9
100
AcDbSpline
210
0.0
220
0.0
230
1.0
 70
    11
 71
     3
 72
    20
 73
    16
 74
     0
 42
0.0000000001
 43
0.0000000001
 12
1.0
 22
0.0
 32
0.0
 13
1.0
 23
0.0
 33
0.0
 40
0.0
 40
0.0
 40
0.0
 40
0.0
 40
0.2
 40
0.2
 40
0.2
 40
0.2
 40
0.4
 40
0.4
 40
0.4
 40
0.4
 40
0.6
 40
0.6
 40
0.6
 40
0.6
 40
1.0
 40
1.0
 40
1.0
 40
1.0
 10
9.1607
 20
45.9409
 30
0.0
 10
10.3625
 20
48.359
 30
0.0
 10
12.0731
 20
49.02
 30
0.0
 10
12.0731
 20
52.0977
 30
0.0
 10
12.0731
 20
52.0977
 30
0.0
 10
12.9569
 20
50.332
 30
0.0
 10
15.1237
 20
45.908
 30
0.0
 10
19.9882
 20
45.9409
 30
0.0
 10
19.9882
 20
45.9409
 30
0.0
 10
15.1237
 20
45.9738
 30
0.0
 10
12.9569
 20
41.5498
 30
0.0
 10
12.0731
 20
39.7841
 30
0.0
 10
12.0731
 20
39.7841
 30
0.0
 10
12.0731
 20
42.8618
 30
0.0
 10
10.3625
 20
43.5228
 30
0.0
 10
9.1607
 20
45.9409
 30
0.0
  0
SPLINE
  5
A9
330
1F
100
AcDbEntity
  8
layer 1
 62
     7
370
     9
100
AcDbSpline
210
0.0
220
0.0
230
1.0
 70
    11
 71
     3
 72
    20
 73
    16
 74
     0
 42
0.0000000001
 43
0.0000000001
 12
1.0
 22
0.0
 32
0.0
 13
1.0
 23
0.0
 33
0.0
 40
0.0
 40
0.0
 40
0.0
 40
0.0
 40
0.2
 40
0.2
 40
0.2
 40
0.2
 40
0.4
 40
0.4
 40
0.4
 40
0.4
 40
0.6
 40
0.6
 40
0.6
 40
0.6
 40
1.0
 40
1.0
 40
1.0
 40
1.0
 10
8.7319
 20
45.9409
 30
0.0
 10
7.5301
 20
43.5228
 30
0.0
 10
5.8195
 20
42.8618
 30
0.0
 10
5.8195
 20
39.7841
 30
0.0
 10
5.8195
 20
39.7841
 30
0.0
 10
4.9357
 20
41.5498
 30
0.0
 10
2.7689
 20
45.9738
 30
0.0
 10
-2.0956
 20
45.9409
 30
0.0
 10
-2.0956
 20
45.9409
 30
0.0
 10
2.7689
 20
45.908
 30
0.0
 10
4.9357
 20
50.332
 30
0.0
 10
5.8195
 20
52.0977
 30
0.0
 10
5.8195
 20
52.0977
 30
0.0
 10
5.8195
 20
49.02
 30
0.0
 10
7.5301
 20
48.359
 30
0.0
 10
8.7319
 20
45.9409
 30
0.0
  0
SPLINE
  5
AA
330
1F
100
AcDbEntity
  8
layer 1
 62
     7
370
     9
100
AcDbSpline
210
0.0
220
0.0
230
1.0
 70
    11
 71
     3
 72
    20
 73
    16
 74
     0
 42
0.0000000001
 43
0.0000000001
 12
1.0
 22
0.0
 32
0.0
 13
1.0
 23
0.0
 33
0.0
 40
0.0
 40
0.0
 40
0.0
 40
0.0
 40
0.2
 40
0.2
 40
0.2
 40
0.2
 40
0.4
 40
0.4
 40
0.4
 40
0.4
 40
0.6
 40
0.6
 40
0.6
 40
0.6
 40
1.0
 40
1.0
 40
1.0
 40
1.0
 10
8.7362
 20
-3.7551
 30
0.0
 10
7.5388
 20
-6.1599
 30
0.0
 10
5.8467
 20
-6.8473
 30
0.0
 10
5.8467
 20
-9.9251
 30
0.0
 10
5.8467
 20
-9.9251
 30
0.0
 10
4.9629
 20
-8.1593
 30
0.0
 10
2.7689
 20
-3.7353
 30
0.0
 10
-2.0956
 20
-3.7682
 30
0.0
 10
-2.0956
 20
-3.7682
 30
0.0
 10
2.7689
 20
-3.8011
 30
0.0
 10
4.9357
 20
0.6229
 30
0.0
 10
5.8195
 20
2.3886
 30
0.0
 10
5.8195
 20
2.3886
 30
0.0
 10
5.8195
 20
-0.6891
 30
0.0
 10
7.5301
 20
-1.3501
 30
0.0
 10
8.7362
 20
-3.7551
 30
0.0
  0
SPLINE
  5
AB
330
1F
100
AcDbEntity
  8
layer 1
 62
     7
370
     9
100
AcDbSpline
210
0.0
220
0.0
230
1.0
 70
    11
 71
     3
 72
    20
 73
    16
 74
     0
 42
0.0000000001
 43
0.0000000001
 12
1.0
 22
0.0
 32
0.0
 13
1.0
 23
0.0
 33
0.0
 40
0.0
 40
0.0
 40
0.0
 40
0.0
 40
0.2
 40
0.2
 40
0.2
 40
0.2
 40
0.4
 40
0.4
 40
0.4
 40
0.4
 40
0.6
 40
0.6
 40
0.6
 40
0.6
 40
1.0
 40
1.0
 40
1.0
 40
1.0
 10
19.9882
 20
-3.7682
 30
0.0
 10
15.1237
 20
-3.7353
 30
0.0
 10
12.9569
 20
-8.1593
 30
0.0
 10
12.0731
 20
-9.9251
 30
0.0
 10
12.0731
 20
-9.9251
 30
0.0
 10
12.0731
 20
-6.8473
 30
0.0
 10
10.3524
 20
-6.1512
 30
0.0
 10
9.1567
 20
-3.7598
 30
0.0
 10
9.1567
 20
-3.7598
 30
0.0
 10
10.3646
 20
-1.3685
 30
0.0
 10
12.0731
 20
-0.6891
 30
0.0
 10
12.0731
 20
2.3886
 30
0.0
 10
12.0731
 20
2.3886
 30
0.0
 10
12.9569
 20
0.6229
 30
0.0
 10
15.1237
 20
-3.8011
 30
0.0
 10
19.9882
 20
-3.7682
 30
0.0
  0
SPLINE
  5
AC
330
1F
100
AcDbEntity
  8
layer 1
 62
     7
370
     9
100
AcDbSpline
210
0.0
220
0.0
230
1.0
 70
    11
 71
     3
 72
    92
 73
    88
 74
     0
 42
0.0000000001
 43
0.0000000001
 12
1.0
 22
0.0
 32
0.0
 13
1.0
 23
0.0
 33
0.0
 40
0.0
 40
0.0
 40
0.0
 40
0.0
 40
0.0434782608695652
 40
0.0434782608695652
 40
0.0434782608695652
 40
0.0434782608695652
 40
0.0869565217391304
 40
0.0869565217391304
 40
0.0869565217391304
 40
0.0869565217391304
 40
0.1304347826086956
 40
0.1304347826086956
 40
0.1304347826086956
 40
0.1304347826086956
 40
0.1739130434782609
 40
0.1739130434782609
 40
0.1739130434782609
 40
0.1739130434782609
 40
0.2173913043478261
 40
0.2173913043478261
 40
0.2173913043478261
 40
0.2173913043478261
 40
0.2608695652173913
 40
0.2608695652173913
 40
0.2608695652173913
 40
0.2608695652173913
 40
0.3043478260869565
 40
0.3043478260869565
 40
0.3043478260869565
 40
0.3043478260869565
 40
0.3478260869565217
 40
0.3478260869565217
 40
0.3478260869565217
 40
0.3478260869565217
 40
0.391304347826087
 40
0.391304347826087
 40
0.391304347826087
 40
0.391304347826087
 40
0.4347826086956522
 40
0.4347826086956522
 40
0.4347826086956522
 40
0.4347826086956522
 40
0.4782608695652174
 40
0.4782608695652174
 40
0.4782608695652174
 40
0.4782608695652174
 40
0.5217391304347826
 40
0.5217391304347826
 40
0.5217391304347826
 40
0.5217391304347826
 40
0.5652173913043478
 40
0.5652173913043478
 40
0.5652173913043478
 40
0.5652173913043478
 40
0.6086956521739131
 40
0.6086956521739131
 40
0.6086956521739131
 40
0.6086956521739131
 40
0.6521739130434783
 40
0.6521739130434783
 40
0.6521739130434783
 40
0.6521739130434783
 40
0.6956521739130435
 40
0.6956521739130435
 40
0.6956521739130435
 40
0.6956521739130435
 40
0.7391304347826086
 40
0.7391304347826086
 40
0.7391304347826086
 40
0.7391304347826086
 40
0.782608695652174
 40
0.782608695652174
 40
0.782608695652174
 40
0.782608695652174
 40
0.8260869565217391
 40
0.8260869565217391
 40
0.8260869565217391
 40
0.8260869565217391
 40
0.8695652173913043
 40
0.8695652173913043
 40
0.8695652173913043
 40
0.8695652173913043
 40
0.9130434782608695
 40
0.9130434782608695
 40
0.9130434782608695
 40
0.9130434782608695
 40
1.0
 40
1.0
 40
1.0
 40
1.0
 10
8.9463
 20
-68.5214
 30
0.0
 10
10.1674
 20
-65.205
 30
0.0
 10
13.0499
 20
-64.9291
 30
0.0
 10
11.3754
 20
-59.5367
 30
0.0
 10
11.3754
 20
-59.5367
 30
0.0
 10
12.0698
 20
-61.8981
 30
0.0
 10
15.8059
 20
-61.2574
 30
0.0
 10
17.8601
 20
-64.5391
 30
0.0
 10
17.8601
 20
-64.5391
 30
0.0
 10
17.6681
 20
-56.0739
 30
0.0
 10
11.9739
 20
-59.5979
 30
0.0
 10
9.8244
 20
-45.4417
 30
0.0
 10
9.8244
 20
-45.4417
 30
0.0
 10
12.3222
 20
-50.4321
 30
0.0
 10
24.0871
 20
-58.4514
 30
0.0
 10
24.1811
 20
-65.9579
 30
0.0
 10
24.1811
 20
-65.9579
 30
0.0
 10
24.2752
 20
-73.4643
 30
0.0
 10
16.9763
 20
-81.2818
 30
0.0
 10
17.8069
 20
-76.0414
 30
0.0
 10
17.8069
 20
-76.0414
 30
0.0
 10
18.2092
 20
-73.5038
 30
0.0
 10
17.3627
 20
-72.3722
 30
0.0
 10
16.4677
 20
-70.1142
 30
0.0
 10
16.4677
 20
-70.1142
 30
0.0
 10
16.093
 20
-72.8772
 30
0.0
 10
10.9672
 20
-76.4305
 30
0.0
 10
16.671
 20
-79.9705
 30
0.0
 10
16.671
 20
-79.9705
 30
0.0
 10
15.5662
 20
-80.1236
 30
0.0
 10
16.3003
 20
-78.8937
 30
0.0
 10
13.0542
 20
-79.7881
 30
0.0
 10
13.0542
 20
-79.7881
 30
0.0
 10
14.1479
 20
-82.0447
 30
0.0
 10
15.7716
 20
-81.3834
 30
0.0
 10
16.7337
 20
-81.2641
 30
0.0
 10
16.7337
 20
-81.2641
 30
0.0
 10
13.4292
 20
-82.4171
 30
0.0
 10
12.7205
 20
-83.9088
 30
0.0
 10
12.6414
 20
-85.031
 30
0.0
 10
12.6414
 20
-85.031
 30
0.0
 10
12.4749
 20
-83.5745
 30
0.0
 10
11.1683
 20
-81.954
 30
0.0
 10
8.9463
 20
-81.8877
 30
0.0
 10
8.9463
 20
-81.8877
 30
0.0
 10
6.7243
 20
-81.954
 30
0.0
 10
5.4176
 20
-83.5745
 30
0.0
 10
5.2512
 20
-85.031
 30
0.0
 10
5.2512
 20
-85.031
 30
0.0
 10
5.1721
 20
-83.9088
 30
0.0
 10
4.4634
 20
-82.4171
 30
0.0
 10
1.1589
 20
-81.2641
 30
0.0
 10
1.1589
 20
-81.2641
 30
0.0
 10
2.121
 20
-81.3834
 30
0.0
 10
3.7447
 20
-82.0447
 30
0.0
 10
4.8384
 20
-79.7881
 30
0.0
 10
4.8384
 20
-79.7881
 30
0.0
 10
1.5922
 20
-78.8937
 30
0.0
 10
2.3263
 20
-80.1236
 30
0.0
 10
1.2216
 20
-79.9705
 30
0.0
 10
1.2216
 20
-79.9705
 30
0.0
 10
6.9254
 20
-76.4305
 30
0.0
 10
1.7995
 20
-72.8772
 30
0.0
 10
1.4249
 20
-70.1142
 30
0.0
 10
1.4249
 20
-70.1142
 30
0.0
 10
0.5298
 20
-72.3722
 30
0.0
 10
-0.3166
 20
-73.5038
 30
0.0
 10
0.0856
 20
-76.0414
 30
0.0
 10
0.0856
 20
-76.0414
 30
0.0
 10
0.9162
 20
-81.2818
 30
0.0
 10
-6.3826
 20
-73.4643
 30
0.0
 10
-6.2886
 20
-65.9579
 30
0.0
 10
-6.2886
 20
-65.9579
 30
0.0
 10
-6.1945
 20
-58.4514
 30
0.0
 10
5.5704
 20
-50.4321
 30
0.0
 10
8.0682
 20
-45.4417
 30
0.0
 10
8.0682
 20
-45.4417
 30
0.0
 10
5.9187
 20
-59.5979
 30
0.0
 10
0.2245
 20
-56.0739
 30
0.0
 10
0.0324
 20
-64.5391
 30
0.0
 10
0.0324
 20
-64.5391
 30
0.0
 10
2.0867
 20
-61.2574
 30
0.0
 10
5.8228
 20
-61.8981
 30
0.0
 10
6.5171
 20
-59.5367
 30
0.0
 10
6.5171
 20
-59.5367
 30
0.0
 10
4.8427
 20
-64.9291
 30
0.0
 10
7.7251
 20
-65.205
 30
0.0
 10
8.9463
 20
-68.5214
 30
0.0
  0
SPLINE
  5
AD
330
1F
100
AcDbEntity
  8
layer 1
 62
   250
370
     9
100
AcDbSpline
210
0.0
220
0.0
230
1.0
 70
     8
 71
     3
 72
    92
 73
    88
 74
     0
 42
0.0000000001
 43
0.0000000001
 12
1.0
 22
0.0
 32
0.0
 13
1.0
 23
0.0
 33
0.0
 40
0.0
 40
0.0
 40
0.0
 40
0.0
 40
0.0434782608695652
 40
0.0434782608695652
 40
0.0434782608695652
 40
0.0434782608695652
 40
0.0869565217391304
 40
0.0869565217391304
 40
0.0869565217391304
 40
0.0869565217391304
 40
0.1304347826086956
 40
0.1304347826086956
 40
0.1304347826086956
 40
0.1304347826086956
 40
0.1739130434782609
 40
0.1739130434782609
 40
0.1739130434782609
 40
0.1739130434782609
 40
0.2173913043478261
 40
0.2173913043478261
 40
0.2173913043478261
 40
0.2173913043478261
 40
0.2608695652173913
 40
0.2608695652173913
 40
0.2608695652173913
 40
0.2608695652173913
 40
0.3043478260869565
 40
0.3043478260869565
 40
0.3043478260869565
 40
0.3043478260869565
 40
0.3478260869565217
 40
0.3478260869565217
 40
0.3478260869565217
 40
0.3478260869565217
 40
0.391304347826087
 40
0.391304347826087
 40
0.391304347826087
 40
0.391304347826087
 40
0.4347826086956522
 40
0.4347826086956522
 40
0.4347826086956522
 40
0.4347826086956522
 40
0.4782608695652174
 40
0.4782608695652174
 40
0.4782608695652174
 40
0.4782608695652174
 40
0.5217391304347826
 40
0.5217391304347826
 40
0.5217391304347826
 40
0.5217391304347826
 40
0.5652173913043478
 40
0.5652173913043478
 40
0.5652173913043478
 40
0.5652173913043478
 40
0.6086956521739131
 40
0.6086956521739131
 40
0.6086956521739131
 40
0.6086956521739131
 40
0.6521739130434783
 40
0.6521739130434783
 40
0.6521739130434783
 40
0.6521739130434783
 40
0.6956521739130435
 40
0.6956521739130435
 40
0.6956521739130435
 40
0.6956521739130435
 40
0.7391304347826086
 40
0.7391304347826086
 40
0.7391304347826086
 40
0.7391304347826086
 40
0.782608695652174
 40
0.782608695652174
 40
0.782608695652174
 40
0.782608695652174
 40
0.8260869565217391
 40
0.8260869565217391
 40
0.8260869565217391
 40
0.8260869565217391
 40
0.8695652173913043
 40
0.8695652173913043
 40
0.8695652173913043
 40
0.8695652173913043
 40
0.9130434782608695
 40
0.9130434782608695
 40
0.9130434782608695
 40
0.9130434782608695
 40
1.0
 40
1.0
 40
1.0
 40
1.0
 10
8.9305
 20
102.4729
 30
0.0
 10
7.7251
 20
99.1566
 30
0.0
 10
6.3774
 20
99.317
 30
0.0
 10
8.0518
 20
93.9246
 30
0.0
 10
8.0518
 20
93.9246
 30
0.0
 10
7.3575
 20
96.286
 30
0.0
 10
5.4028
 20
96.1131
 30
0.0
 10
3.3485
 20
99.3948
 30
0.0
 10
3.3485
 20
99.3948
 30
0.0
 10
3.5406
 20
90.9296
 30
0.0
 10
7.2924
 20
93.0977
 30
0.0
 10
8.0682
 20
87.6131
 30
0.0
 10
8.0682
 20
87.6131
 30
0.0
 10
5.5704
 20
92.6036
 30
0.0
 10
-8.1791
 20
96.6499
 30
0.0
 10
-7.9637
 20
102.4116
 30
0.0
 10
-7.9637
 20
102.4116
 30
0.0
 10
-7.7482
 20
108.1733
 30
0.0
 10
0.9169
 20
109.9685
 30
0.0
 10
0.0856
 20
104.7278
 30
0.0
 10
0.0856
 20
104.7278
 30
0.0
 10
-0.317
 20
102.1896
 30
0.0
 10
0.5298
 20
101.0586
 30
0.0
 10
1.4249
 20
98.8006
 30
0.0
 10
1.4249
 20
98.8006
 30
0.0
 10
1.7995
 20
101.5636
 30
0.0
 10
6.9254
 20
105.1169
 30
0.0
 10
1.2216
 20
108.6569
 30
0.0
 10
1.2216
 20
108.6569
 30
0.0
 10
2.3263
 20
108.81
 30
0.0
 10
1.5922
 20
107.5801
 30
0.0
 10
4.8384
 20
108.4746
 30
0.0
 10
4.8384
 20
108.4746
 30
0.0
 10
3.7447
 20
110.7311
 30
0.0
 10
2.121
 20
110.0699
 30
0.0
 10
1.1589
 20
109.9505
 30
0.0
 10
1.1589
 20
109.9505
 30
0.0
 10
4.4634
 20
111.1035
 30
0.0
 10
5.1721
 20
112.5953
 30
0.0
 10
5.2512
 20
113.7174
 30
0.0
 10
5.2512
 20
113.7174
 30
0.0
 10
5.4176
 20
112.2609
 30
0.0
 10
6.7243
 20
110.6404
 30
0.0
 10
8.9327
 20
110.5741
 30
0.0
 10
8.9327
 20
110.5741
 30
0.0
 10
11.141
 20
110.6404
 30
0.0
 10
12.4749
 20
112.2609
 30
0.0
 10
12.6414
 20
113.7174
 30
0.0
 10
12.6414
 20
113.7174
 30
0.0
 10
12.7205
 20
112.5953
 30
0.0
 10
13.4292
 20
111.1035
 30
0.0
 10
16.7337
 20
109.9505
 30
0.0
 10
16.7337
 20
109.9505
 30
0.0
 10
15.7716
 20
110.0699
 30
0.0
 10
14.1479
 20
110.7311
 30
0.0
 10
13.0542
 20
108.4746
 30
0.0
 10
13.0542
 20
108.4746
 30
0.0
 10
16.3003
 20
107.5801
 30
0.0
 10
15.5662
 20
108.81
 30
0.0
 10
16.671
 20
108.6569
 30
0.0
 10
16.671
 20
108.6569
 30
0.0
 10
10.9672
 20
105.1169
 30
0.0
 10
16.093
 20
101.5636
 30
0.0
 10
16.4677
 20
98.8006
 30
0.0
 10
16.4677
 20
98.8006
 30
0.0
 10
17.3627
 20
101.0586
 30
0.0
 10
18.2096
 20
102.1896
 30
0.0
 10
17.8069
 20
104.7278
 30
0.0
 10
17.8069
 20
104.7278
 30
0.0
 10
16.9757
 20
109.9685
 30
0.0
 10
25.6408
 20
108.1733
 30
0.0
 10
25.8562
 20
102.4116
 30
0.0
 10
25.8562
 20
102.4116
 30
0.0
 10
26.0717
 20
96.6499
 30
0.0
 10
12.3222
 20
92.6036
 30
0.0
 10
9.8244
 20
87.6131
 30
0.0
 10
9.8244
 20
87.6131
 30
0.0
 10
10.6002
 20
93.0977
 30
0.0
 10
14.352
 20
90.9296
 30
0.0
 10
14.5441
 20
99.3948
 30
0.0
 10
14.5441
 20
99.3948
 30
0.0
 10
12.4898
 20
96.1131
 30
0.0
 10
10.5351
 20
96.286
 30
0.0
 10
9.8407
 20
93.9246
 30
0.0
 10
9.8407
 20
93.9246
 30
0.0
 10
11.5152
 20
99.317
 30
0.0
 10
10.1674
 20
99.1566
 30
0.0
 10
8.962
 20
102.4729
 30
0.0
  0
ENDSEC
  0
SECTION
  2
OBJECTS
  0
DICTIONARY
  5
C
330
0
100
AcDbDictionary
281
     1
  3
ACAD_GROUP
350
D
  3
ACAD_LAYOUT
350
1A
  3
ACAD_MATERIAL
350
3B
  3
ACAD_MLEADERSTYLE
350
CF
  3
ACAD_MLINESTYLE
350
17
  3
ACAD_PLOTSETTINGS
350
19
  3
ACAD_PLOTSTYLENAME
350
E
  3
ACAD_TABLESTYLE
350
CE
  3
ACAD_VISUALSTYLE
350
2A
  0
DICTIONARY
  5
D
102
{ACAD_REACTORS
330
C
102
}
330
C
100
AcDbDictionary
281
     1
  0
DICTIONARY
  5
1A
102
{ACAD_REACTORS
330
C
102
}
330
C
100
AcDbDictionary
281
     1
  3
Layout1
350
1E
  3
Layout2
350
26
  3
Model
350
22
  0
DICTIONARY
  5
3B
102
{ACAD_REACTORS
330
C
102
}
330
C
100
AcDbDictionary
281
     1
  3
ByBlock
350
3D
  3
ByLayer
350
3C
  3
Global
350
3E
  0
DICTIONARY
  5
CF
102
{ACAD_REACTORS
330
C
102
}
330
C
100
AcDbDictionary
281
     1
  0
DICTIONARY
  5
17
102
{ACAD_REACTORS
330
C
102
}
330
C
100
AcDbDictionary
281
     1
  3
Standard
350
18
  0
DICTIONARY
  5
19
102
{ACAD_REACTORS
330
C
102
}
330
C
100
AcDbDictionary
281
     1
  0
ACDBDICTIONARYWDFLT
  5
E
102
{ACAD_REACTORS
330
C
102
}
330
C
100
AcDbDictionary
281
     1
  3
Normal
350
F
100
AcDbDictionaryWithDefault
340
F
  0
DICTIONARY
  5
CE
102
{ACAD_REACTORS
330
C
102
}
330
C
100
AcDbDictionary
281
     1
  0
DICTIONARY
  5
2A
102
{ACAD_REACTORS
330
C
102
}
330
C
100
AcDbDictionary
281
     1
  3
2dWireframe
350
2F
  3
3D Hidden
350
31
  3
3dWireframe
350
30
  3
Basic
350
32
  3
Brighten
350
36
  3
ColorChange
350
3A
  3
Conceptual
350
34
  3
Dim
350
35
  3
Facepattern
350
39
  3
Flat
350
2B
  3
FlatWithEdges
350
2C
  3
Gouraud
350
2D
  3
GouraudWithEdges
350
2E
  3
Linepattern
350
38
  3
Realistic
350
33
  3
Thicken
350
37
  0
LAYOUT
  5
1E
102
{ACAD_REACTORS
330
1A
102
}
330
1A
100
AcDbPlotSettings
  1

  2
none_device
  4

  6

 40
0.0
 41
0.0
 42
0.0
 43
0.0
 44
0.0
 45
0.0
 46
0.0
 47
0.0
 48
0.0
 49
0.0
140
0.0
141
0.0
142
1.0
143
1.0
 70
   688
 72
     0
 73
     0
 74
     5
  7

 75
    16
 76
     0
 77
     2
 78
   300
147
1.0
148
0.0
149
0.0
100
AcDbLayout
  1
Layout1
 70
     1
 71
     1
 10
0.0
 20
0.0
 11
12.0
 21
9.0
 12
0.0
 22
0.0
 32
0.0
 14
1.000000000000000E+20
 24
1.000000000000000E+20
 34
1.000000000000000E+20
 15
-1.000000000000000E+20
 25
-1.000000000000000E+20
 35
-1.000000000000000E+20
146
0.0
 13
0.0
 23
0.0
 33
0.0
 16
1.0
 26
0.0
 36
0.0
 17
0.0
 27
1.0
 37
0.0
 76
     0
330
1B
  0
LAYOUT
  5
26
102
{ACAD_REACTORS
330
1A
102
}
330
1A
100
AcDbPlotSettings
  1

  2
none_device
  4

  6

 40
0.0
 41
0.0
 42
0.0
 43
0.0
 44
0.0
 45
0.0
 46
0.0
 47
0.0
 48
0.0
 49
0.0
140
0.0
141
0.0
142
1.0
143
1.0
 70
   688
 72
     0
 73
     0
 74
     5
  7

 75
    16
 76
     0
 77
     2
 78
   300
147
1.0
148
0.0
149
0.0
100
AcDbLayout
  1
Layout2
 70
     1
 71
     2
 10
0.0
 20
0.0
 11
0.0
 21
0.0
 12
0.0
 22
0.0
 32
0.0
 14
0.0
 24
0.0
 34
0.0
 15
0.0
 25
0.0
 35
0.0
146
0.0
 13
0.0
 23
0.0
 33
0.0
 16
1.0
 26
0.0
 36
0.0
 17
0.0
 27
1.0
 37
0.0
 76
     0
330
23
  0
LAYOUT
  5
22
102
{ACAD_REACTORS
330
1A
102
}
330
1A
100
AcDbPlotSettings
  1

  2
none_device
  4

  6

 40
0.0
 41
0.0
 42
0.0
 43
0.0
 44
0.0
 45
0.0
 46
0.0
 47
0.0
 48
0.0
 49
0.0
140
0.0
141
0.0
142
1.0
143
1.0
 70
  1712
 72
     0
 73
     0
 74
     0
  7

 75
     0
 76
     0
 77
     2
 78
   300
147
1.0
148
0.0
149
0.0
100
AcDbLayout
  1
Model
 70
     1
 71
     0
 10
0.0
 20
0.0
 11
12.0
 21
9.0
 12
0.0
 22
0.0
 32
0.0
 14
-18.8928
 24
-100.3528
 34
0.0
 15
36.7579
 25
130.7633
 35
0.0
146
0.0
 13
0.0
 23
0.0
 33
0.0
 16
1.0
 26
0.0
 36
0.0
 17
0.0
 27
1.0
 37
0.0
 76
     0
330
1F
331
29
  0
MATERIAL
  5
3D
102
{ACAD_REACTORS
330
3B
102
}
330
3B
100
AcDbMaterial
  1
ByBlock
 72
     1
 94
      127
  0
MATERIAL
  5
3C
102
{ACAD_REACTORS
330
3B
102
}
330
3B
100
AcDbMaterial
  1
ByLayer
 72
     1
 94
      127
  0
MATERIAL
  5
3E
102
{ACAD_REACTORS
330
3B
102
}
330
3B
100
AcDbMaterial
  1
Global
 72
     1
 94
      127
  0
MLINESTYLE
  5
18
102
{ACAD_REACTORS
330
17
102
}
330
17
100
AcDbMlineStyle
  2
Standard
 70
     0
  3

 62
   256
 51
90.0
 52
90.0
 71
     2
 49
0.5
 62
   256
  6
BYLAYER
 49
-0.5
 62
   256
  6
BYLAYER
  0
ACDBPLACEHOLDER
  5
F
102
{ACAD_REACTORS
330
E
102
}
330
E
  0
VISUALSTYLE
  5
2F
102
{ACAD_REACTORS
330
2A
102
}
102
{ACAD_XDICTIONARY
360
B6
102
}
330
2A
100
AcDbVisualStyle
  2
2dWireframe
 70
     4
 71
     0
 72
     2
 73
     0
 90
        0
 40
-0.6
 41
-30.0
 62
     5
 63
     7
421
 16777215
 74
     1
 91
        4
 64
     7
 65
   257
 75
     1
175
     1
 42
1.0
 92
        0
 66
   257
 43
1.0
 76
     1
 77
     6
 78
     2
 67
     7
 79
     5
170
     0
171
     0
290
     0
174
     0
 93
        1
 44
0.0
173
     0
291
     0
 45
0.0
  0
VISUALSTYLE
  5
31
102
{ACAD_REACTORS
330
2A
102
}
102
{ACAD_XDICTIONARY
360
BA
102
}
330
2A
100
AcDbVisualStyle
  2
3D Hidden
 70
     6
 71
     1
 72
     2
 73
     2
 90
        0
 40
-0.6
 41
-30.0
 62
     5
 63
     7
421
 16777215
 74
     2
 91
        2
 64
     7
 65
   257
 75
     2
175
     1
 42
40.0
 92
        0
 66
   257
 43
1.0
 76
     1
 77
     6
 78
     2
 67
     7
 79
     3
170
     0
171
     0
290
     0
174
     0
 93
        1
 44
0.0
173
     0
291
     0
 45
0.0
  0
VISUALSTYLE
  5
30
102
{ACAD_REACTORS
330
2A
102
}
102
{ACAD_XDICTIONARY
360
B8
102
}
330
2A
100
AcDbVisualStyle
  2
3dWireframe
 70
     5
 71
     0
 72
     2
 73
     0
 90
        0
 40
-0.6
 41
-30.0
 62
     5
 63
     7
421
 16777215
 74
     1
 91
        4
 64
     7
 65
   257
 75
     1
175
     1
 42
1.0
 92
        0
 66
   257
 43
1.0
 76
     1
 77
     6
 78
     2
 67
     7
 79
     5
170
     0
171
     0
290
     0
174
     0
 93
        1
 44
0.0
173
     0
291
     0
 45
0.0
  0
VISUALSTYLE
  5
32
102
{ACAD_REACTORS
330
2A
102
}
102
{ACAD_XDICTIONARY
360
BC
102
}
330
2A
100
AcDbVisualStyle
  2
Basic
 70
     7
 71
     1
 72
     0
 73
     1
 90
        0
 40
-0.6
 41
-30.0
 62
     5
 63
     7
421
 16777215
 74
     0
 91
        4
 64
     7
 65
   257
 75
     1
175
     1
 42
1.0
 92
        8
 66
     7
 43
1.0
 76
     1
 77
     6
 78
     2
 67
     7
 79
     5
170
     0
171
     0
290
     0
174
     0
 93
        1
 44
0.0
173
     0
291
     1
 45
0.0
  0
VISUALSTYLE
  5
36
102
{ACAD_REACTORS
330
2A
102
}
102
{ACAD_XDICTIONARY
360
C4
102
}
330
2A
100
AcDbVisualStyle
  2
Brighten
 70
    12
 71
     2
 72
     2
 73
     0
 90
        0
 40
-0.6
 41
-30.0
 62
     5
 63
     7
421
 16777215
 74
     1
 91
        4
 64
     7
 65
   257
 75
     1
175
     1
 42
1.0
 92
        8
 66
     7
 43
1.0
 76
     1
 77
     6
 78
     2
 67
     7
 79
     5
170
     0
171
     0
290
     0
174
     0
 93
        1
 44
50.0
173
     0
291
     1
 45
0.0
  0
VISUALSTYLE
  5
3A
102
{ACAD_REACTORS
330
2A
102
}
102
{ACAD_XDICTIONARY
360
CC
102
}
330
2A
100
AcDbVisualStyle
  2
ColorChange
 70
    16
 71
     2
 72
     2
 73
     3
 90
        0
 40
-0.6
 41
-30.0
 62
     5
 63
     8
421
  8421504
 74
     1
 91
        4
 64
     7
 65
   257
 75
     1
175
     1
 42
1.0
 92
        8
 66
     8
424
  8421504
 43
1.0
 76
     1
 77
     6
 78
     2
 67
     7
 79
     5
170
     0
171
     0
290
     0
174
     0
 93
        1
 44
0.0
173
     0
291
     1
 45
0.0
  0
VISUALSTYLE
  5
34
102
{ACAD_REACTORS
330
2A
102
}
102
{ACAD_XDICTIONARY
360
C0
102
}
330
2A
100
AcDbVisualStyle
  2
Conceptual
 70
     9
 71
     3
 72
     2
 73
     0
 90
        0
 40
-0.6
 41
-30.0
 62
     5
 63
     7
421
 16777215
 74
     2
 91
        2
 64
     7
 65
   257
 75
     1
175
     1
 42
40.0
 92
        8
 66
     7
 43
1.0
 76
     1
 77
     6
 78
     2
 67
     7
 79
     3
170
     0
171
     0
290
     0
174
     0
 93
        1
 44
0.0
173
     0
291
     0
 45
0.0
  0
VISUALSTYLE
  5
35
102
{ACAD_REACTORS
330
2A
102
}
102
{ACAD_XDICTIONARY
360
C2
102
}
330
2A
100
AcDbVisualStyle
  2
Dim
 70
    11
 71
     2
 72
     2
 73
     0
 90
        0
 40
-0.6
 41
-30.0
 62
     5
 63
     7
421
 16777215
 74
     1
 91
        4
 64
     7
 65
   257
 75
     1
175
     1
 42
1.0
 92
        8
 66
     7
 43
1.0
 76
     1
 77
     6
 78
     2
 67
     7
 79
     5
170
     0
171
     0
290
     0
174
     0
 93
        1
 44
-50.0
173
     0
291
     1
 45
0.0
  0
VISUALSTYLE
  5
39
102
{ACAD_REACTORS
330
2A
102
}
102
{ACAD_XDICTIONARY
360
CA
102
}
330
2A
100
AcDbVisualStyle
  2
Facepattern
 70
    15
 71
     2
 72
     2
 73
     0
 90
        0
 40
-0.6
 41
-30.0
 62
     5
 63
     7
421
 16777215
 74
     1
 91
        4
 64
     7
 65
   257
 75
     1
175
     1
 42
1.0
 92
        8
 66
     7
 43
1.0
 76
     1
 77
     6
 78
     2
 67
     7
 79
     5
170
     0
171
     0
290
     0
174
     0
 93
        1
 44
0.0
173
     0
291
     1
 45
0.0
  0
VISUALSTYLE
  5
2B
102
{ACAD_REACTORS
330
2A
102
}
102
{ACAD_XDICTIONARY
360
AE
102
}
330
2A
100
AcDbVisualStyle
  2
Flat
 70
     0
 71
     2
 72
     1
 73
     1
 90
        2
 40
-0.6
 41
30.0
 62
     5
 63
     7
421
 16777215
 74
     0
 91
        4
 64
     7
 65
   257
 75
     1
175
     1
 42
1.0
 92
        8
 66
     7
 43
1.0
 76
     1
 77
     6
 78
     2
 67
     7
 79
     5
170
     0
171
     0
290
     0
174
     0
 93
       13
 44
0.0
173
     0
291
     1
 45
0.0
  0
VISUALSTYLE
  5
2C
102
{ACAD_REACTORS
330
2A
102
}
102
{ACAD_XDICTIONARY
360
B0
102
}
330
2A
100
AcDbVisualStyle
  2
FlatWithEdges
 70
     1
 71
     2
 72
     1
 73
     1
 90
        2
 40
-0.6
 41
30.0
 62
     5
 63
     7
421
 16777215
 74
     1
 91
        4
 64
     7
 65
   257
 75
     1
175
     1
 42
1.0
 92
        0
 66
   257
 43
1.0
 76
     1
 77
     6
 78
     2
 67
     7
 79
     5
170
     0
171
     0
290
     0
174
     0
 93
       13
 44
0.0
173
     0
291
     1
 45
0.0
  0
VISUALSTYLE
  5
2D
102
{ACAD_REACTORS
330
2A
102
}
102
{ACAD_XDICTIONARY
360
B2
102
}
330
2A
100
AcDbVisualStyle
  2
Gouraud
 70
     2
 71
     2
 72
     2
 73
     1
 90
        2
 40
-0.6
 41
30.0
 62
     5
 63
     7
421
 16777215
 74
     0
 91
        4
 64
     7
 65
   257
 75
     1
175
     1
 42
1.0
 92
        0
 66
     7
 43
1.0
 76
     1
 77
     6
 78
     2
 67
     7
 79
     5
170
     0
171
     0
290
     0
174
     0
 93
       13
 44
0.0
173
     0
291
     1
 45
0.0
  0
VISUALSTYLE
  5
2E
102
{ACAD_REACTORS
330
2A
102
}
102
{ACAD_XDICTIONARY
360
B4
102
}
330
2A
100
AcDbVisualStyle
  2
GouraudWithEdges
 70
     3
 71
     2
 72
     2
 73
     1
 90
        2
 40
-0.6
 41
30.0
 62
     5
 63
     7
421
 16777215
 74
     1
 91
        4
 64
     7
 65
   257
 75
     1
175
     1
 42
1.0
 92
        0
 66
   257
 43
1.0
 76
     1
 77
     6
 78
     2
 67
     7
 79
     5
170
     0
171
     0
290
     0
174
     0
 93
       13
 44
0.0
173
     0
291
     1
 45
0.0
  0
VISUALSTYLE
  5
38
102
{ACAD_REACTORS
330
2A
102
}
102
{ACAD_XDICTIONARY
360
C8
102
}
330
2A
100
AcDbVisualStyle
  2
Linepattern
 70
    14
 71
     2
 72
     2
 73
     0
 90
        0
 40
-0.6
 41
-30.0
 62
     5
 63
     7
421
 16777215
 74
     1
 91
        4
 64
     7
 65
   257
 75
     7
175
     7
 42
1.0
 92
        8
 66
     7
 43
1.0
 76
     1
 77
     6
 78
     2
 67
     7
 79
     5
170
     0
171
     0
290
     0
174
     0
 93
        1
 44
0.0
173
     0
291
     1
 45
0.0
  0
VISUALSTYLE
  5
33
102
{ACAD_REACTORS
330
2A
102
}
102
{ACAD_XDICTIONARY
360
BE
102
}
330
2A
100
AcDbVisualStyle
  2
Realistic
 70
     8
 71
     2
 72
     2
 73
     0
 90
        0
 40
-0.6
 41
-30.0
 62
     5
 63
     7
421
 16777215
 74
     1
 91
        0
 64
     7
 65
   257
 75
     1
175
     1
 42
1.0
 92
        8
 66
     8
424
  7895160
 43
1.0
 76
     1
 77
     6
 78
     2
 67
     7
 79
     5
170
     0
171
     0
290
     0
174
     0
 93
       13
 44
0.0
173
     0
291
     0
 45
0.0
  0
VISUALSTYLE
  5
37
102
{ACAD_REACTORS
330
2A
102
}
102
{ACAD_XDICTIONARY
360
C6
102
}
330
2A
100
AcDbVisualStyle
  2
Thicken
 70
    13
 71
     2
 72
     2
 73
     0
 90
        0
 40
-0.6
 41
-30.0
 62
     5
 63
     7
421
 16777215
 74
     1
 91
        4
 64
     7
 65
   257
 75
     1
175
     1
 42
1.0
 92
       12
 66
     7
 43
1.0
 76
     1
 77
     6
 78
     2
 67
     7
 79
     5
170
     0
171
     0
290
     0
174
     0
 93
        1
 44
0.0
173
     0
291
     1
 45
0.0
  0
DICTIONARY
  5
B6
330
2F
100
AcDbDictionary
280
     1
281
     1
  3
ACAD_XREC_ROUNDTRIP
360
B7
  0
DICTIONARY
  5
BA
330
31
100
AcDbDictionary
280
     1
281
     1
  3
ACAD_XREC_ROUNDTRIP
360
BB
  0
DICTIONARY
  5
B8
330
30
100
AcDbDictionary
280
     1
281
     1
  3
ACAD_XREC_ROUNDTRIP
360
B9
  0
DICTIONARY
  5
BC
330
32
100
AcDbDictionary
280
     1
281
     1
  3
ACAD_XREC_ROUNDTRIP
360
BD
  0
DICTIONARY
  5
C4
330
36
100
AcDbDictionary
280
     1
281
     1
  3
ACAD_XREC_ROUNDTRIP
360
C5
  0
DICTIONARY
  5
CC
330
3A
100
AcDbDictionary
280
     1
281
     1
  3
ACAD_XREC_ROUNDTRIP
360
CD
  0
DICTIONARY
  5
C0
330
34
100
AcDbDictionary
280
     1
281
     1
  3
ACAD_XREC_ROUNDTRIP
360
C1
  0
DICTIONARY
  5
C2
330
35
100
AcDbDictionary
280
     1
281
     1
  3
ACAD_XREC_ROUNDTRIP
360
C3
  0
DICTIONARY
  5
CA
330
39
100
AcDbDictionary
280
     1
281
     1
  3
ACAD_XREC_ROUNDTRIP
360
CB
  0
DICTIONARY
  5
AE
330
2B
100
AcDbDictionary
280
     1
281
     1
  3
ACAD_XREC_ROUNDTRIP
360
AF
  0
DICTIONARY
  5
B0
330
2C
100
AcDbDictionary
280
     1
281
     1
  3
ACAD_XREC_ROUNDTRIP
360
B1
  0
DICTIONARY
  5
B2
330
2D
100
AcDbDictionary
280
     1
281
     1
  3
ACAD_XREC_ROUNDTRIP
360
B3
  0
DICTIONARY
  5
B4
330
2E
100
AcDbDictionary
280
     1
281
     1
  3
ACAD_XREC_ROUNDTRIP
360
B5
  0
DICTIONARY
  5
C8
330
38
100
AcDbDictionary
280
     1
281
     1
  3
ACAD_XREC_ROUNDTRIP
360
C9
  0
DICTIONARY
  5
BE
330
33
100
AcDbDictionary
280
     1
281
     1
  3
ACAD_XREC_ROUNDTRIP
360
BF
  0
DICTIONARY
  5
C6
330
37
100
AcDbDictionary
280
     1
281
     1
  3
ACAD_XREC_ROUNDTRIP
360
C7
  0
XRECORD
  5
B7
102
{ACAD_REACTORS
330
B6
102
}
330
B6
100
AcDbXrecord
280
     1
102
RTVSPropertyOp0
 70
     1
102
RTVSPropertyOp1
 70
     1
102
RTVSPropertyOp2
 70
     1
102
RTVSPropertyOp3
 70
     1
102
RTVSPropertyOp4
 70
     1
102
RTVSPropertyOp5
 70
     1
102
RTVSPropertyOp6
 70
     1
102
RTVSPropertyOp7
 70
     1
102
RTVSPropertyOp8
 70
     1
102
RTVSPropertyOp9
 70
     1
102
RTVSPropertyOp10
 70
     1
102
RTVSPropertyOp11
 70
     1
102
RTVSPropertyOp12
 70
     1
102
RTVSPropertyOp13
 70
     1
102
RTVSPropertyOp14
 70
     1
102
RTVSPropertyOp15
 70
     1
102
RTVSPropertyOp16
 70
     1
102
RTVSPropertyOp17
 70
     1
102
RTVSPropertyOp18
 70
     1
102
RTVSPropertyOp19
 70
     1
102
RTVSPropertyOp20
 70
     1
102
RTVSPropertyOp21
 70
     1
102
RTVSPropertyOp22
 70
     1
102
RTVSPropertyOp23
 70
     1
102
RTVSPropertyOp24
 70
     1
102
RTVSPropertyOp25
 70
     1
102
RTVSPropertyOp26
 70
     1
102
RTVSPropertyOp27
 70
     1
102
RTVSPropertyOp28
 70
     1
102
RTVSPropertyOp29
 70
     1
102
RTVSPropertyOp30
 70
     1
102
RTVSPropertyOp31
 70
     1
102
RTVSPropertyOp32
 70
     1
  0
XRECORD
  5
BB
102
{ACAD_REACTORS
330
BA
102
}
330
BA
100
AcDbXrecord
280
     1
102
RTVSPropertyOp0
 70
     1
102
RTVSPropertyOp1
 70
     1
102
RTVSPropertyOp2
 70
     1
102
RTVSPropertyOp3
 70
     1
102
RTVSPropertyOp4
 70
     1
102
RTVSPropertyOp5
 70
     1
102
RTVSPropertyOp6
 70
     1
102
RTVSPropertyOp7
 70
     1
102
RTVSPropertyOp8
 70
     1
102
RTVSPropertyOp9
 70
     1
102
RTVSPropertyOp10
 70
     1
102
RTVSPropertyOp11
 70
     1
102
RTVSPropertyOp12
 70
     1
102
RTVSPropertyOp13
 70
     1
102
RTVSPropertyOp14
 70
     1
102
RTVSPropertyOp15
 70
     1
102
RTVSPropertyOp16
 70
     1
102
RTVSPropertyOp17
 70
     1
102
RTVSPropertyOp18
 70
     1
102
RTVSPropertyOp19
 70
     1
102
RTVSPropertyOp20
 70
     1
102
RTVSPropertyOp21
 70
     1
102
RTVSPropertyOp22
 70
     1
102
RTVSPropertyOp23
 70
     1
102
RTVSPropertyOp24
 70
     1
102
RTVSPropertyOp25
 70
     1
102
RTVSPropertyOp26
 70
     1
102
RTVSPropertyOp27
 70
     1
102
RTVSPropertyOp28
 70
     1
102
RTVSPropertyOp29
 70
     1
102
RTVSPropertyOp30
 70
     1
102
RTVSPropertyOp31
 70
     1
102
RTVSPropertyOp32
 70
     1
  0
XRECORD
  5
B9
102
{ACAD_REACTORS
330
B8
102
}
330
B8
100
AcDbXrecord
280
     1
102
RTVSPropertyOp0
 70
     1
102
RTVSPropertyOp1
 70
     1
102
RTVSPropertyOp2
 70
     1
102
RTVSPropertyOp3
 70
     1
102
RTVSPropertyOp4
 70
     1
102
RTVSPropertyOp5
 70
     1
102
RTVSPropertyOp6
 70
     1
102
RTVSPropertyOp7
 70
     1
102
RTVSPropertyOp8
 70
     1
102
RTVSPropertyOp9
 70
     1
102
RTVSPropertyOp10
 70
     1
102
RTVSPropertyOp11
 70
     1
102
RTVSPropertyOp12
 70
     1
102
RTVSPropertyOp13
 70
     1
102
RTVSPropertyOp14
 70
     1
102
RTVSPropertyOp15
 70
     1
102
RTVSPropertyOp16
 70
     1
102
RTVSPropertyOp17
 70
     1
102
RTVSPropertyOp18
 70
     1
102
RTVSPropertyOp19
 70
     1
102
RTVSPropertyOp20
 70
     1
102
RTVSPropertyOp21
 70
     1
102
RTVSPropertyOp22
 70
     1
102
RTVSPropertyOp23
 70
     1
102
RTVSPropertyOp24
 70
     1
102
RTVSPropertyOp25
 70
     1
102
RTVSPropertyOp26
 70
     1
102
RTVSPropertyOp27
 70
     1
102
RTVSPropertyOp28
 70
     1
102
RTVSPropertyOp29
 70
     1
102
RTVSPropertyOp30
 70
     1
102
RTVSPropertyOp31
 70
     1
102
RTVSPropertyOp32
 70
     1
  0
XRECORD
  5
BD
102
{ACAD_REACTORS
330
BC
102
}
330
BC
100
AcDbXrecord
280
     1
102
RTVSPropertyOp0
 70
     1
102
RTVSPropertyOp1
 70
     1
102
RTVSPropertyOp2
 70
     1
102
RTVSPropertyOp3
 70
     1
102
RTVSPropertyOp4
 70
     1
102
RTVSPropertyOp5
 70
     1
102
RTVSPropertyOp6
 70
     1
102
RTVSPropertyOp7
 70
     1
102
RTVSPropertyOp8
 70
     1
102
RTVSPropertyOp9
 70
     1
102
RTVSPropertyOp10
 70
     1
102
RTVSPropertyOp11
 70
     1
102
RTVSPropertyOp12
 70
     1
102
RTVSPropertyOp13
 70
     1
102
RTVSPropertyOp14
 70
     1
102
RTVSPropertyOp15
 70
     1
102
RTVSPropertyOp16
 70
     1
102
RTVSPropertyOp17
 70
     1
102
RTVSPropertyOp18
 70
     1
102
RTVSPropertyOp19
 70
     1
102
RTVSPropertyOp20
 70
     1
102
RTVSPropertyOp21
 70
     1
102
RTVSPropertyOp22
 70
     1
102
RTVSPropertyOp23
 70
     1
102
RTVSPropertyOp24
 70
     1
102
RTVSPropertyOp25
 70
     1
102
RTVSPropertyOp26
 70
     1
102
RTVSPropertyOp27
 70
     1
102
RTVSPropertyOp28
 70
     1
102
RTVSPropertyOp29
 70
     1
102
RTVSPropertyOp30
 70
     1
102
RTVSPropertyOp31
 70
     1
102
RTVSPropertyOp32
 70
     1
  0
XRECORD
  5
C5
102
{ACAD_REACTORS
330
C4
102
}
330
C4
100
AcDbXrecord
280
     1
102
RTVSPropertyOp0
 70
     1
102
RTVSPropertyOp1
 70
     1
102
RTVSPropertyOp2
 70
     1
102
RTVSPropertyOp3
 70
     1
102
RTVSPropertyOp4
 70
     1
102
RTVSPropertyOp5
 70
     1
102
RTVSPropertyOp6
 70
     1
102
RTVSPropertyOp7
 70
     1
102
RTVSPropertyOp8
 70
     1
102
RTVSPropertyOp9
 70
     1
102
RTVSPropertyOp10
 70
     1
102
RTVSPropertyOp11
 70
     1
102
RTVSPropertyOp12
 70
     1
102
RTVSPropertyOp13
 70
     1
102
RTVSPropertyOp14
 70
     1
102
RTVSPropertyOp15
 70
     1
102
RTVSPropertyOp16
 70
     1
102
RTVSPropertyOp17
 70
     1
102
RTVSPropertyOp18
 70
     1
102
RTVSPropertyOp19
 70
     1
102
RTVSPropertyOp20
 70
     1
102
RTVSPropertyOp21
 70
     1
102
RTVSPropertyOp22
 70
     1
102
RTVSPropertyOp23
 70
     1
102
RTVSPropertyOp24
 70
     1
102
RTVSPropertyOp25
 70
     1
102
RTVSPropertyOp26
 70
     1
102
RTVSPropertyOp27
 70
     1
102
RTVSPropertyOp28
 70
     1
102
RTVSPropertyOp29
 70
     1
102
RTVSPropertyOp30
 70
     1
102
RTVSPropertyOp31
 70
     1
102
RTVSPropertyOp32
 70
     1
  0
XRECORD
  5
CD
102
{ACAD_REACTORS
330
CC
102
}
330
CC
100
AcDbXrecord
280
     1
102
RTVSPropertyOp0
 70
     1
102
RTVSPropertyOp1
 70
     1
102
RTVSPropertyOp2
 70
     1
102
RTVSPropertyOp3
 70
     1
102
RTVSPropertyOp4
 70
     1
102
RTVSPropertyOp5
 70
     1
102
RTVSPropertyOp6
 70
     1
102
RTVSPropertyOp7
 70
     1
102
RTVSPropertyOp8
 70
     1
102
RTVSPropertyOp9
 70
     1
102
RTVSPropertyOp10
 70
     1
102
RTVSPropertyOp11
 70
     1
102
RTVSPropertyOp12
 70
     1
102
RTVSPropertyOp13
 70
     1
102
RTVSPropertyOp14
 70
     1
102
RTVSPropertyOp15
 70
     1
102
RTVSPropertyOp16
 70
     1
102
RTVSPropertyOp17
 70
     1
102
RTVSPropertyOp18
 70
     1
102
RTVSPropertyOp19
 70
     1
102
RTVSPropertyOp20
 70
     1
102
RTVSPropertyOp21
 70
     1
102
RTVSPropertyOp22
 70
     1
102
RTVSPropertyOp23
 70
     1
102
RTVSPropertyOp24
 70
     1
102
RTVSPropertyOp25
 70
     1
102
RTVSPropertyOp26
 70
     1
102
RTVSPropertyOp27
 70
     1
102
RTVSPropertyOp28
 70
     1
102
RTVSPropertyOp29
 70
     1
102
RTVSPropertyOp30
 70
     1
102
RTVSPropertyOp31
 70
     1
102
RTVSPropertyOp32
 70
     1
  0
XRECORD
  5
C1
102
{ACAD_REACTORS
330
C0
102
}
330
C0
100
AcDbXrecord
280
     1
102
RTVSPropertyOp0
 70
     1
102
RTVSPropertyOp1
 70
     1
102
RTVSPropertyOp2
 70
     1
102
RTVSPropertyOp3
 70
     1
102
RTVSPropertyOp4
 70
     1
102
RTVSPropertyOp5
 70
     1
102
RTVSPropertyOp6
 70
     1
102
RTVSPropertyOp7
 70
     1
102
RTVSPropertyOp8
 70
     1
102
RTVSPropertyOp9
 70
     1
102
RTVSPropertyOp10
 70
     1
102
RTVSPropertyOp11
 70
     1
102
RTVSPropertyOp12
 70
     1
102
RTVSPropertyOp13
 70
     1
102
RTVSPropertyOp14
 70
     1
102
RTVSPropertyOp15
 70
     1
102
RTVSPropertyOp16
 70
     1
102
RTVSPropertyOp17
 70
     1
102
RTVSPropertyOp18
 70
     1
102
RTVSPropertyOp19
 70
     1
102
RTVSPropertyOp20
 70
     1
102
RTVSPropertyOp21
 70
     1
102
RTVSPropertyOp22
 70
     1
102
RTVSPropertyOp23
 70
     1
102
RTVSPropertyOp24
 70
     1
102
RTVSPropertyOp25
 70
     1
102
RTVSPropertyOp26
 70
     1
102
RTVSPropertyOp27
 70
     1
102
RTVSPropertyOp28
 70
     1
102
RTVSPropertyOp29
 70
     1
102
RTVSPropertyOp30
 70
     1
102
RTVSPropertyOp31
 70
     1
102
RTVSPropertyOp32
 70
     1
  0
XRECORD
  5
C3
102
{ACAD_REACTORS
330
C2
102
}
330
C2
100
AcDbXrecord
280
     1
102
RTVSPropertyOp0
 70
     1
102
RTVSPropertyOp1
 70
     1
102
RTVSPropertyOp2
 70
     1
102
RTVSPropertyOp3
 70
     1
102
RTVSPropertyOp4
 70
     1
102
RTVSPropertyOp5
 70
     1
102
RTVSPropertyOp6
 70
     1
102
RTVSPropertyOp7
 70
     1
102
RTVSPropertyOp8
 70
     1
102
RTVSPropertyOp9
 70
     1
102
RTVSPropertyOp10
 70
     1
102
RTVSPropertyOp11
 70
     1
102
RTVSPropertyOp12
 70
     1
102
RTVSPropertyOp13
 70
     1
102
RTVSPropertyOp14
 70
     1
102
RTVSPropertyOp15
 70
     1
102
RTVSPropertyOp16
 70
     1
102
RTVSPropertyOp17
 70
     1
102
RTVSPropertyOp18
 70
     1
102
RTVSPropertyOp19
 70
     1
102
RTVSPropertyOp20
 70
     1
102
RTVSPropertyOp21
 70
     1
102
RTVSPropertyOp22
 70
     1
102
RTVSPropertyOp23
 70
     1
102
RTVSPropertyOp24
 70
     1
102
RTVSPropertyOp25
 70
     1
102
RTVSPropertyOp26
 70
     1
102
RTVSPropertyOp27
 70
     1
102
RTVSPropertyOp28
 70
     1
102
RTVSPropertyOp29
 70
     1
102
RTVSPropertyOp30
 70
     1
102
RTVSPropertyOp31
 70
     1
102
RTVSPropertyOp32
 70
     1
  0
XRECORD
  5
CB
102
{ACAD_REACTORS
330
CA
102
}
330
CA
100
AcDbXrecord
280
     1
102
RTVSPropertyOp0
 70
     1
102
RTVSPropertyOp1
 70
     1
102
RTVSPropertyOp2
 70
     1
102
RTVSPropertyOp3
 70
     1
102
RTVSPropertyOp4
 70
     1
102
RTVSPropertyOp5
 70
     1
102
RTVSPropertyOp6
 70
     1
102
RTVSPropertyOp7
 70
     1
102
RTVSPropertyOp8
 70
     1
102
RTVSPropertyOp9
 70
     1
102
RTVSPropertyOp10
 70
     1
102
RTVSPropertyOp11
 70
     1
102
RTVSPropertyOp12
 70
     1
102
RTVSPropertyOp13
 70
     1
102
RTVSPropertyOp14
 70
     1
102
RTVSPropertyOp15
 70
     1
102
RTVSPropertyOp16
 70
     1
102
RTVSPropertyOp17
 70
     1
102
RTVSPropertyOp18
 70
     1
102
RTVSPropertyOp19
 70
     1
102
RTVSPropertyOp20
 70
     1
102
RTVSPropertyOp21
 70
     1
102
RTVSPropertyOp22
 70
     1
102
RTVSPropertyOp23
 70
     1
102
RTVSPropertyOp24
 70
     1
102
RTVSPropertyOp25
 70
     1
102
RTVSPropertyOp26
 70
     1
102
RTVSPropertyOp27
 70
     1
102
RTVSPropertyOp28
 70
     1
102
RTVSPropertyOp29
 70
     1
102
RTVSPropertyOp30
 70
     1
102
RTVSPropertyOp31
 70
     1
102
RTVSPropertyOp32
 70
     1
  0
XRECORD
  5
AF
102
{ACAD_REACTORS
330
AE
102
}
330
AE
100
AcDbXrecord
280
     1
102
RTVSPropertyOp0
 70
     1
102
RTVSPropertyOp1
 70
     1
102
RTVSPropertyOp2
 70
     1
102
RTVSPropertyOp3
 70
     1
102
RTVSPropertyOp4
 70
     1
102
RTVSPropertyOp5
 70
     1
102
RTVSPropertyOp6
 70
     1
102
RTVSPropertyOp7
 70
     1
102
RTVSPropertyOp8
 70
     1
102
RTVSPropertyOp9
 70
     1
102
RTVSPropertyOp10
 70
     1
102
RTVSPropertyOp11
 70
     1
102
RTVSPropertyOp12
 70
     1
102
RTVSPropertyOp13
 70
     1
102
RTVSPropertyOp14
 70
     1
102
RTVSPropertyOp15
 70
     1
102
RTVSPropertyOp16
 70
     1
102
RTVSPropertyOp17
 70
     1
102
RTVSPropertyOp18
 70
     1
102
RTVSPropertyOp19
 70
     1
102
RTVSPropertyOp20
 70
     1
102
RTVSPropertyOp21
 70
     1
102
RTVSPropertyOp22
 70
     1
102
RTVSPropertyOp23
 70
     1
102
RTVSPropertyOp24
 70
     1
102
RTVSPropertyOp25
 70
     1
102
RTVSPropertyOp26
 70
     1
102
RTVSPropertyOp27
 70
     1
102
RTVSPropertyOp28
 70
     1
102
RTVSPropertyOp29
 70
     1
102
RTVSPropertyOp30
 70
     1
102
RTVSPropertyOp31
 70
     1
102
RTVSPropertyOp32
 70
     1
  0
XRECORD
  5
B1
102
{ACAD_REACTORS
330
B0
102
}
330
B0
100
AcDbXrecord
280
     1
102
RTVSPropertyOp0
 70
     1
102
RTVSPropertyOp1
 70
     1
102
RTVSPropertyOp2
 70
     1
102
RTVSPropertyOp3
 70
     1
102
RTVSPropertyOp4
 70
     1
102
RTVSPropertyOp5
 70
     1
102
RTVSPropertyOp6
 70
     1
102
RTVSPropertyOp7
 70
     1
102
RTVSPropertyOp8
 70
     1
102
RTVSPropertyOp9
 70
     1
102
RTVSPropertyOp10
 70
     1
102
RTVSPropertyOp11
 70
     1
102
RTVSPropertyOp12
 70
     1
102
RTVSPropertyOp13
 70
     1
102
RTVSPropertyOp14
 70
     1
102
RTVSPropertyOp15
 70
     1
102
RTVSPropertyOp16
 70
     1
102
RTVSPropertyOp17
 70
     1
102
RTVSPropertyOp18
 70
     1
102
RTVSPropertyOp19
 70
     1
102
RTVSPropertyOp20
 70
     1
102
RTVSPropertyOp21
 70
     1
102
RTVSPropertyOp22
 70
     1
102
RTVSPropertyOp23
 70
     1
102
RTVSPropertyOp24
 70
     1
102
RTVSPropertyOp25
 70
     1
102
RTVSPropertyOp26
 70
     1
102
RTVSPropertyOp27
 70
     1
102
RTVSPropertyOp28
 70
     1
102
RTVSPropertyOp29
 70
     1
102
RTVSPropertyOp30
 70
     1
102
RTVSPropertyOp31
 70
     1
102
RTVSPropertyOp32
 70
     1
  0
XRECORD
  5
B3
102
{ACAD_REACTORS
330
B2
102
}
330
B2
100
AcDbXrecord
280
     1
102
RTVSPropertyOp0
 70
     1
102
RTVSPropertyOp1
 70
     1
102
RTVSPropertyOp2
 70
     1
102
RTVSPropertyOp3
 70
     1
102
RTVSPropertyOp4
 70
     1
102
RTVSPropertyOp5
 70
     1
102
RTVSPropertyOp6
 70
     1
102
RTVSPropertyOp7
 70
     1
102
RTVSPropertyOp8
 70
     1
102
RTVSPropertyOp9
 70
     1
102
RTVSPropertyOp10
 70
     1
102
RTVSPropertyOp11
 70
     1
102
RTVSPropertyOp12
 70
     1
102
RTVSPropertyOp13
 70
     1
102
RTVSPropertyOp14
 70
     1
102
RTVSPropertyOp15
 70
     1
102
RTVSPropertyOp16
 70
     1
102
RTVSPropertyOp17
 70
     1
102
RTVSPropertyOp18
 70
     1
102
RTVSPropertyOp19
 70
     1
102
RTVSPropertyOp20
 70
     1
102
RTVSPropertyOp21
 70
     1
102
RTVSPropertyOp22
 70
     1
102
RTVSPropertyOp23
 70
     1
102
RTVSPropertyOp24
 70
     1
102
RTVSPropertyOp25
 70
     1
102
RTVSPropertyOp26
 70
     1
102
RTVSPropertyOp27
 70
     1
102
RTVSPropertyOp28
 70
     1
102
RTVSPropertyOp29
 70
     1
102
RTVSPropertyOp30
 70
     1
102
RTVSPropertyOp31
 70
     1
102
RTVSPropertyOp32
 70
     1
  0
XRECORD
  5
B5
102
{ACAD_REACTORS
330
B4
102
}
330
B4
100
AcDbXrecord
280
     1
102
RTVSPropertyOp0
 70
     1
102
RTVSPropertyOp1
 70
     1
102
RTVSPropertyOp2
 70
     1
102
RTVSPropertyOp3
 70
     1
102
RTVSPropertyOp4
 70
     1
102
RTVSPropertyOp5
 70
     1
102
RTVSPropertyOp6
 70
     1
102
RTVSPropertyOp7
 70
     1
102
RTVSPropertyOp8
 70
     1
102
RTVSPropertyOp9
 70
     1
102
RTVSPropertyOp10
 70
     1
102
RTVSPropertyOp11
 70
     1
102
RTVSPropertyOp12
 70
     1
102
RTVSPropertyOp13
 70
     1
102
RTVSPropertyOp14
 70
     1
102
RTVSPropertyOp15
 70
     1
102
RTVSPropertyOp16
 70
     1
102
RTVSPropertyOp17
 70
     1
102
RTVSPropertyOp18
 70
     1
102
RTVSPropertyOp19
 70
     1
102
RTVSPropertyOp20
 70
     1
102
RTVSPropertyOp21
 70
     1
102
RTVSPropertyOp22
 70
     1
102
RTVSPropertyOp23
 70
     1
102
RTVSPropertyOp24
 70
     1
102
RTVSPropertyOp25
 70
     1
102
RTVSPropertyOp26
 70
     1
102
RTVSPropertyOp27
 70
     1
102
RTVSPropertyOp28
 70
     1
102
RTVSPropertyOp29
 70
     1
102
RTVSPropertyOp30
 70
     1
102
RTVSPropertyOp31
 70
     1
102
RTVSPropertyOp32
 70
     1
  0
XRECORD
  5
C9
102
{ACAD_REACTORS
330
C8
102
}
330
C8
100
AcDbXrecord
280
     1
102
RTVSPropertyOp0
 70
     1
102
RTVSPropertyOp1
 70
     1
102
RTVSPropertyOp2
 70
     1
102
RTVSPropertyOp3
 70
     1
102
RTVSPropertyOp4
 70
     1
102
RTVSPropertyOp5
 70
     1
102
RTVSPropertyOp6
 70
     1
102
RTVSPropertyOp7
 70
     1
102
RTVSPropertyOp8
 70
     1
102
RTVSPropertyOp9
 70
     1
102
RTVSPropertyOp10
 70
     1
102
RTVSPropertyOp11
 70
     1
102
RTVSPropertyOp12
 70
     1
102
RTVSPropertyOp13
 70
     1
102
RTVSPropertyOp14
 70
     1
102
RTVSPropertyOp15
 70
     1
102
RTVSPropertyOp16
 70
     1
102
RTVSPropertyOp17
 70
     1
102
RTVSPropertyOp18
 70
     1
102
RTVSPropertyOp19
 70
     1
102
RTVSPropertyOp20
 70
     1
102
RTVSPropertyOp21
 70
     1
102
RTVSPropertyOp22
 70
     1
102
RTVSPropertyOp23
 70
     1
102
RTVSPropertyOp24
 70
     1
102
RTVSPropertyOp25
 70
     1
102
RTVSPropertyOp26
 70
     1
102
RTVSPropertyOp27
 70
     1
102
RTVSPropertyOp28
 70
     1
102
RTVSPropertyOp29
 70
     1
102
RTVSPropertyOp30
 70
     1
102
RTVSPropertyOp31
 70
     1
102
RTVSPropertyOp32
 70
     1
  0
XRECORD
  5
BF
102
{ACAD_REACTORS
330
BE
102
}
330
BE
100
AcDbXrecord
280
     1
102
RTVSPropertyOp0
 70
     1
102
RTVSPropertyOp1
 70
     1
102
RTVSPropertyOp2
 70
     1
102
RTVSPropertyOp3
 70
     1
102
RTVSPropertyOp4
 70
     1
102
RTVSPropertyOp5
 70
     1
102
RTVSPropertyOp6
 70
     1
102
RTVSPropertyOp7
 70
     1
102
RTVSPropertyOp8
 70
     1
102
RTVSPropertyOp9
 70
     1
102
RTVSPropertyOp10
 70
     1
102
RTVSPropertyOp11
 70
     1
102
RTVSPropertyOp12
 70
     1
102
RTVSPropertyOp13
 70
     1
102
RTVSPropertyOp14
 70
     1
102
RTVSPropertyOp15
 70
     1
102
RTVSPropertyOp16
 70
     1
102
RTVSPropertyOp17
 70
     1
102
RTVSPropertyOp18
 70
     1
102
RTVSPropertyOp19
 70
     1
102
RTVSPropertyOp20
 70
     1
102
RTVSPropertyOp21
 70
     1
102
RTVSPropertyOp22
 70
     1
102
RTVSPropertyOp23
 70
     1
102
RTVSPropertyOp24
 70
     1
102
RTVSPropertyOp25
 70
     1
102
RTVSPropertyOp26
 70
     1
102
RTVSPropertyOp27
 70
     1
102
RTVSPropertyOp28
 70
     1
102
RTVSPropertyOp29
 70
     1
102
RTVSPropertyOp30
 70
     1
102
RTVSPropertyOp31
 70
     1
102
RTVSPropertyOp32
 70
     1
  0
XRECORD
  5
C7
102
{ACAD_REACTORS
330
C6
102
}
330
C6
100
AcDbXrecord
280
     1
102
RTVSPropertyOp0
 70
     1
102
RTVSPropertyOp1
 70
     1
102
RTVSPropertyOp2
 70
     1
102
RTVSPropertyOp3
 70
     1
102
RTVSPropertyOp4
 70
     1
102
RTVSPropertyOp5
 70
     1
102
RTVSPropertyOp6
 70
     1
102
RTVSPropertyOp7
 70
     1
102
RTVSPropertyOp8
 70
     1
102
RTVSPropertyOp9
 70
     1
102
RTVSPropertyOp10
 70
     1
102
RTVSPropertyOp11
 70
     1
102
RTVSPropertyOp12
 70
     1
102
RTVSPropertyOp13
 70
     1
102
RTVSPropertyOp14
 70
     1
102
RTVSPropertyOp15
 70
     1
102
RTVSPropertyOp16
 70
     1
102
RTVSPropertyOp17
 70
     1
102
RTVSPropertyOp18
 70
     1
102
RTVSPropertyOp19
 70
     1
102
RTVSPropertyOp20
 70
     1
102
RTVSPropertyOp21
 70
     1
102
RTVSPropertyOp22
 70
     1
102
RTVSPropertyOp23
 70
     1
102
RTVSPropertyOp24
 70
     1
102
RTVSPropertyOp25
 70
     1
102
RTVSPropertyOp26
 70
     1
102
RTVSPropertyOp27
 70
     1
102
RTVSPropertyOp28
 70
     1
102
RTVSPropertyOp29
 70
     1
102
RTVSPropertyOp30
 70
     1
102
RTVSPropertyOp31
 70
     1
102
RTVSPropertyOp32
 70
     1
  0
ENDSEC
  0
EOF
