  0
SECTION
  2
HEADER
  9
$ACADVER
  1
AC1021
  9
$ACADMAINTVER
 70
    25
  9
$DWGCODEPAGE
  3
ANSI_1252
  9
$INSBASE
 10
0.0
 20
0.0
 30
0.0
  9
$EXTMIN
 10
-9.4031
 20
-101.9658
 30
0.0
  9
$EXTMAX
 10
196.1841
 20
118.128
 30
0.0
  9
$LIMMIN
 10
0.0
 20
0.0
  9
$LIMMAX
 10
12.0
 20
9.0
  9
$ORTHOMODE
 70
     0
  9
$REGENMODE
 70
     1
  9
$FILLMODE
 70
     1
  9
$QTEXTMODE
 70
     0
  9
$MIRRTEXT
 70
     1
  9
$LTSCALE
 40
1.0
  9
$ATTMODE
 70
     1
  9
$TEXTSIZE
 40
0.2
  9
$TRACEWID
 40
0.05
  9
$TEXTSTYLE
  7
Standard
  9
$CLAYER
  8
0
  9
$CELTYPE
  6
ByLayer
  9
$CECOLOR
 62
   256
  9
$CELTSCALE
 40
1.0
  9
$DISPSILH
 70
     0
  9
$DIMSCALE
 40
1.0
  9
$DIMASZ
 40
0.18
  9
$DIMEXO
 40
0.0625
  9
$DIMDLI
 40
0.38
  9
$DIMRND
 40
0.0
  9
$DIMDLE
 40
0.0
  9
$DIMEXE
 40
0.18
  9
$DIMTP
 40
0.0
  9
$DIMTM
 40
0.0
  9
$DIMTXT
 40
0.18
  9
$DIMCEN
 40
0.09
  9
$DIMTSZ
 40
0.0
  9
$DIMTOL
 70
     0
  9
$DIMLIM
 70
     0
  9
$DIMTIH
 70
     1
  9
$DIMTOH
 70
     1
  9
$DIMSE1
 70
     0
  9
$DIMSE2
 70
     0
  9
$DIMTAD
 70
     0
  9
$DIMZIN
 70
     0
  9
$DIMBLK
  1

  9
$DIMASO
 70
     1
  9
$DIMSHO
 70
     1
  9
$DIMPOST
  1

  9
$DIMAPOST
  1

  9
$DIMALT
 70
     0
  9
$DIMALTD
 70
     2
  9
$DIMALTF
 40
25.4
  9
$DIMLFAC
 40
1.0
  9
$DIMTOFL
 70
     0
  9
$DIMTVP
 40
0.0
  9
$DIMTIX
 70
     0
  9
$DIMSOXD
 70
     0
  9
$DIMSAH
 70
     0
  9
$DIMBLK1
  1

  9
$DIMBLK2
  1

  9
$DIMSTYLE
  2
Standard
  9
$DIMCLRD
 70
     0
  9
$DIMCLRE
 70
     0
  9
$DIMCLRT
 70
     0
  9
$DIMTFAC
 40
1.0
  9
$DIMGAP
 40
0.09
  9
$DIMJUST
 70
     0
  9
$DIMSD1
 70
     0
  9
$DIMSD2
 70
     0
  9
$DIMTOLJ
 70
     1
  9
$DIMTZIN
 70
     0
  9
$DIMALTZ
 70
     0
  9
$DIMALTTZ
 70
     0
  9
$DIMUPT
 70
     0
  9
$DIMDEC
 70
     4
  9
$DIMTDEC
 70
     4
  9
$DIMALTU
 70
     2
  9
$DIMALTTD
 70
     2
  9
$DIMTXSTY
  7
Standard
  9
$DIMAUNIT
 70
     0
  9
$DIMADEC
 70
     0
  9
$DIMALTRND
 40
0.0
  9
$DIMAZIN
 70
     0
  9
$DIMDSEP
 70
    46
  9
$DIMATFIT
 70
     3
  9
$DIMFRAC
 70
     0
  9
$DIMLDRBLK
  1

  9
$DIMLUNIT
 70
     2
  9
$DIMLWD
 70
    -2
  9
$DIMLWE
 70
    -2
  9
$DIMTMOVE
 70
     0
  9
$DIMFXL
 40
1.0
  9
$DIMFXLON
 70
     0
  9
$DIMJOGANG
 40
0.7853981633974483
  9
$DIMTFILL
 70
     0
  9
$DIMTFILLCLR
 70
     0
  9
$DIMARCSYM
 70
     0
  9
$DIMLTYPE
  6

  9
$DIMLTEX1
  6

  9
$DIMLTEX2
  6

  9
$LUNITS
 70
     2
  9
$LUPREC
 70
     4
  9
$SKETCHINC
 40
0.1
  9
$FILLETRAD
 40
0.5
  9
$AUNITS
 70
     0
  9
$AUPREC
 70
     0
  9
$MENU
  1
.
  9
$ELEVATION
 40
0.0
  9
$PELEVATION
 40
0.0
  9
$THICKNESS
 40
0.0
  9
$LIMCHECK
 70
     0
  9
$CHAMFERA
 40
0.5
  9
$CHAMFERB
 40
0.5
  9
$CHAMFERC
 40
1.0
  9
$CHAMFERD
 40
0.0
  9
$SKPOLY
 70
     0
  9
$TDCREATE
 40
2458492.724866019
  9
$TDUCREATE
 40
2458492.724866019
  9
$TDUPDATE
 40
2458492.724866296
  9
$TDUUPDATE
 40
2458492.724866296
  9
$TDINDWG
 40
0.0000000116
  9
$TDUSRTIMER
 40
0.0000000116
  9
$USRTIMER
 70
     1
  9
$ANGBASE
 50
0.0
  9
$ANGDIR
 70
     0
  9
$PDMODE
 70
     0
  9
$PDSIZE
 40
0.0
  9
$PLINEWID
 40
0.0
  9
$SPLFRAME
 70
     0
  9
$SPLINETYPE
 70
     6
  9
$SPLINESEGS
 70
     8
  9
$HANDSEED
  5
A4
  9
$SURFTAB1
 70
     6
  9
$SURFTAB2
 70
     6
  9
$SURFTYPE
 70
     6
  9
$SURFU
 70
     6
  9
$SURFV
 70
     6
  9
$UCSBASE
  2

  9
$UCSNAME
  2

  9
$UCSORG
 10
0.0
 20
0.0
 30
0.0
  9
$UCSXDIR
 10
1.0
 20
0.0
 30
0.0
  9
$UCSYDIR
 10
0.0
 20
1.0
 30
0.0
  9
$UCSORTHOREF
  2

  9
$UCSORTHOVIEW
 70
     0
  9
$UCSORGTOP
 10
0.0
 20
0.0
 30
0.0
  9
$UCSORGBOTTOM
 10
0.0
 20
0.0
 30
0.0
  9
$UCSORGLEFT
 10
0.0
 20
0.0
 30
0.0
  9
$UCSORGRIGHT
 10
0.0
 20
0.0
 30
0.0
  9
$UCSORGFRONT
 10
0.0
 20
0.0
 30
0.0
  9
$UCSORGBACK
 10
0.0
 20
0.0
 30
0.0
  9
$PUCSBASE
  2

  9
$PUCSNAME
  2

  9
$PUCSORG
 10
0.0
 20
0.0
 30
0.0
  9
$PUCSXDIR
 10
1.0
 20
0.0
 30
0.0
  9
$PUCSYDIR
 10
0.0
 20
1.0
 30
0.0
  9
$PUCSORTHOREF
  2

  9
$PUCSORTHOVIEW
 70
     0
  9
$PUCSORGTOP
 10
0.0
 20
0.0
 30
0.0
  9
$PUCSORGBOTTOM
 10
0.0
 20
0.0
 30
0.0
  9
$PUCSORGLEFT
 10
0.0
 20
0.0
 30
0.0
  9
$PUCSORGRIGHT
 10
0.0
 20
0.0
 30
0.0
  9
$PUCSORGFRONT
 10
0.0
 20
0.0
 30
0.0
  9
$PUCSORGBACK
 10
0.0
 20
0.0
 30
0.0
  9
$USERI1
 70
     0
  9
$USERI2
 70
     0
  9
$USERI3
 70
     0
  9
$USERI4
 70
     0
  9
$USERI5
 70
     0
  9
$USERR1
 40
0.0
  9
$USERR2
 40
0.0
  9
$USERR3
 40
0.0
  9
$USERR4
 40
0.0
  9
$USERR5
 40
0.0
  9
$WORLDVIEW
 70
     1
  9
$SHADEDGE
 70
     3
  9
$SHADEDIF
 70
    70
  9
$TILEMODE
 70
     1
  9
$MAXACTVP
 70
    64
  9
$PINSBASE
 10
0.0
 20
0.0
 30
0.0
  9
$PLIMCHECK
 70
     0
  9
$PEXTMIN
 10
1.000000000000000E+20
 20
1.000000000000000E+20
 30
1.000000000000000E+20
  9
$PEXTMAX
 10
-1.000000000000000E+20
 20
-1.000000000000000E+20
 30
-1.000000000000000E+20
  9
$PLIMMIN
 10
0.0
 20
0.0
  9
$PLIMMAX
 10
12.0
 20
9.0
  9
$UNITMODE
 70
     0
  9
$VISRETAIN
 70
     1
  9
$PLINEGEN
 70
     0
  9
$PSLTSCALE
 70
     1
  9
$TREEDEPTH
 70
  3020
  9
$CMLSTYLE
  2
Standard
  9
$CMLJUST
 70
     0
  9
$CMLSCALE
 40
1.0
  9
$PROXYGRAPHICS
 70
     1
  9
$MEASUREMENT
 70
     0
  9
$CELWEIGHT
370
    -1
  9
$ENDCAPS
280
     0
  9
$JOINSTYLE
280
     0
  9
$LWDISPLAY
290
     0
  9
$INSUNITS
 70
     4
  9
$HYPERLINKBASE
  1

  9
$STYLESHEET
  1

  9
$XEDIT
290
     1
  9
$CEPSNTYPE
380
     0
  9
$PSTYLEMODE
290
     1
  9
$FINGERPRINTGUID
  2
{9FE5F7B7-62D0-4BB5-86FE-A91229570DF4}
  9
$VERSIONGUID
  2
{FAEB1C32-E019-11D5-929B-00C0DF256EC4}
  9
$EXTNAMES
290
     1
  9
$PSVPSCALE
 40
0.0
  9
$OLESTARTUP
290
     0
  9
$SORTENTS
280
   127
  9
$INDEXCTL
280
     0
  9
$HIDETEXT
280
     1
  9
$XCLIPFRAME
290
     0
  9
$HALOGAP
280
     0
  9
$OBSCOLOR
 70
   257
  9
$OBSLTYPE
280
     0
  9
$INTERSECTIONDISPLAY
280
     0
  9
$INTERSECTIONCOLOR
 70
   257
  9
$DIMASSOC
280
     2
  9
$PROJECTNAME
  1

  9
$CAMERADISPLAY
290
     0
  9
$LENSLENGTH
 40
50.0
  9
$CAMERAHEIGHT
 40
0.0
  9
$STEPSPERSEC
 40
2.0
  9
$STEPSIZE
 40
6.0
  9
$3DDWFPREC
 40
2.0
  9
$PSOLWIDTH
 40
0.25
  9
$PSOLHEIGHT
 40
4.0
  9
$LOFTANG1
 40
1.570796326794897
  9
$LOFTANG2
 40
1.570796326794897
  9
$LOFTMAG1
 40
0.0
  9
$LOFTMAG2
 40
0.0
  9
$LOFTPARAM
 70
     7
  9
$LOFTNORMALS
280
     1
  9
$LATITUDE
 40
37.795
  9
$LONGITUDE
 40
-122.394
  9
$NORTHDIRECTION
 40
0.0
  9
$TIMEZONE
 70
 -8000
  9
$LIGHTGLYPHDISPLAY
280
     1
  9
$TILEMODELIGHTSYNCH
280
     1
  9
$SOLIDHIST
280
     1
  9
$SHOWHIST
280
     1
  9
$DWFFRAME
280
     2
  9
$DGNFRAME
280
     2
  9
$REALWORLDSCALE
290
     1
  9
$INTERFERECOLOR
 62
   256
  9
$CSHADOW
280
     0
  9
$SHADOWPLANELOCATION
 40
0.0
  0
ENDSEC
  0
SECTION
  2
CLASSES
  0
CLASS
  1
ACDBDICTIONARYWDFLT
  2
AcDbDictionaryWithDefault
  3
ObjectDBX Classes
 90
        0
 91
        4
280
     0
281
     0
  0
CLASS
  1
VISUALSTYLE
  2
AcDbVisualStyle
  3
ObjectDBX Classes
 90
     4095
 91
        4
280
     0
281
     0
  0
CLASS
  1
MATERIAL
  2
AcDbMaterial
  3
ObjectDBX Classes
 90
     1153
 91
        4
280
     0
281
     0
  0
ENDSEC
  0
SECTION
  2
TABLES
  0
TABLE
  2
VPORT
  5
8
330
0
100
AcDbSymbolTable
 70
     1
  0
VPORT
  5
29
330
8
100
AcDbSymbolTableRecord
100
AcDbViewportTableRecord
  2
*Active
 70
     0
 10
0.0
 20
0.0
 11
1.0
 21
1.0
 12
10.42990654205607
 22
4.5
 13
0.0
 23
0.0
 14
0.5
 24
0.5
 15
0.5
 25
0.5
 16
0.0
 26
0.0
 36
1.0
 17
0.0
 27
0.0
 37
0.0
 40
9.0
 41
1.972972972850329
 42
50.0
 43
0.0
 44
0.0
 50
0.0
 51
0.0
 71
     0
 72
   100
 73
     1
 74
     3
 75
     0
 76
     0
 77
     0
 78
     0
281
     0
 65
     1
110
0.0
120
0.0
130
0.0
111
1.0
121
0.0
131
0.0
112
0.0
122
1.0
132
0.0
 79
     0
146
0.0
 60
     3
 61
     5
292
     1
282
     1
141
0.0
142
0.0
 63
   250
  0
ENDTAB
  0
TABLE
  2
LTYPE
  5
5
330
0
100
AcDbSymbolTable
 70
     1
  0
LTYPE
  5
14
330
5
100
AcDbSymbolTableRecord
100
AcDbLinetypeTableRecord
  2
ByBlock
 70
     0
  3

 72
    65
 73
     0
 40
0.0
  0
LTYPE
  5
15
330
5
100
AcDbSymbolTableRecord
100
AcDbLinetypeTableRecord
  2
ByLayer
 70
     0
  3

 72
    65
 73
     0
 40
0.0
  0
LTYPE
  5
16
330
5
100
AcDbSymbolTableRecord
100
AcDbLinetypeTableRecord
  2
Continuous
 70
     0
  3
Solid line
 72
    65
 73
     0
 40
0.0
  0
ENDTAB
  0
TABLE
  2
LAYER
  5
2
330
0
100
AcDbSymbolTable
 70
     2
  0
LAYER
  5
10
330
2
100
AcDbSymbolTableRecord
100
AcDbLayerTableRecord
  2
0
 70
     0
 62
     7
  6
Continuous
370
    -3
390
F
347
3E
  0
LAYER
  5
40
330
2
100
AcDbSymbolTableRecord
100
AcDbLayerTableRecord
  2
layer 1
 70
     0
 62
     7
  6
Continuous
370
    -3
390
F
347
3E
  0
ENDTAB
  0
TABLE
  2
STYLE
  5
3
330
0
100
AcDbSymbolTable
 70
     1
  0
STYLE
  5
11
330
3
100
AcDbSymbolTableRecord
100
AcDbTextStyleTableRecord
  2
Standard
 70
     0
 40
0.0
 41
1.0
 50
0.0
 71
     0
 42
0.2
  3
txt
  4

  0
ENDTAB
  0
TABLE
  2
VIEW
  5
6
330
0
100
AcDbSymbolTable
 70
     0
  0
ENDTAB
  0
TABLE
  2
UCS
  5
7
330
0
100
AcDbSymbolTable
 70
     0
  0
ENDTAB
  0
TABLE
  2
APPID
  5
9
330
0
100
AcDbSymbolTable
 70
     2
  0
APPID
  5
12
330
9
100
AcDbSymbolTableRecord
100
AcDbRegAppTableRecord
  2
ACAD
 70
     0
  0
APPID
  5
3F
330
9
100
AcDbSymbolTableRecord
100
AcDbRegAppTableRecord
  2
ODA
 70
     0
  0
ENDTAB
  0
TABLE
  2
DIMSTYLE
  5
A
330
0
100
AcDbSymbolTable
 70
     1
100
AcDbDimStyleTable
  0
DIMSTYLE
105
27
330
A
100
AcDbSymbolTableRecord
100
AcDbDimStyleTableRecord
  2
Standard
 70
     0
178
     0
340
11
  0
ENDTAB
  0
TABLE
  2
BLOCK_RECORD
  5
1
330
0
100
AcDbSymbolTable
 70
     1
  0
BLOCK_RECORD
  5
1F
330
1
100
AcDbSymbolTableRecord
100
AcDbBlockTableRecord
  2
*Model_Space
340
22
 70
     0
280
     1
281
     0
  0
BLOCK_RECORD
  5
1B
330
1
100
AcDbSymbolTableRecord
100
AcDbBlockTableRecord
  2
*Paper_Space
340
1E
 70
     0
280
     1
281
     0
  0
BLOCK_RECORD
  5
23
330
1
100
AcDbSymbolTableRecord
100
AcDbBlockTableRecord
  2
*Paper_Space0
340
26
 70
     0
280
     1
281
     0
  0
ENDTAB
  0
ENDSEC
  0
SECTION
  2
BLOCKS
  0
BLOCK
  5
20
330
1F
100
AcDbEntity
  8
0
100
AcDbBlockBegin
  2
*Model_Space
 70
     0
 10
0.0
 20
0.0
 30
0.0
  3
*Model_Space
  1

  0
ENDBLK
  5
21
330
1F
100
AcDbEntity
  8
0
100
AcDbBlockEnd
  0
BLOCK
  5
1C
330
1B
100
AcDbEntity
 67
     1
  8
0
100
AcDbBlockBegin
  2
*Paper_Space
 70
     0
 10
0.0
 20
0.0
 30
0.0
  3
*Paper_Space
  1

  0
ENDBLK
  5
1D
330
1B
100
AcDbEntity
 67
     1
  8
0
100
AcDbBlockEnd
  0
BLOCK
  5
24
330
23
100
AcDbEntity
  8
0
100
AcDbBlockBegin
  2
*Paper_Space0
 70
     0
 10
0.0
 20
0.0
 30
0.0
  3
*Paper_Space0
  1

  0
ENDBLK
  5
25
330
23
100
AcDbEntity
  8
0
100
AcDbBlockEnd
  0
ENDSEC
  0
SECTION
  2
ENTITIES
  0
SPLINE
  5
41
330
1F
100
AcDbEntity
  8
layer 1
 62
   250
370
     9
100
AcDbSpline
210
0.0
220
0.0
230
1.0
 70
    11
 71
     3
 72
    24
 73
    20
 74
     0
 42
0.0000000001
 43
0.0000000001
 12
1.0
 22
0.0
 32
0.0
 13
1.0
 23
0.0
 33
0.0
 40
0.0
 40
0.0
 40
0.0
 40
0.0
 40
0.1666666666666667
 40
0.1666666666666667
 40
0.1666666666666667
 40
0.1666666666666667
 40
0.3333333333333333
 40
0.3333333333333333
 40
0.3333333333333333
 40
0.3333333333333333
 40
0.5
 40
0.5
 40
0.5
 40
0.5
 40
0.6666666666666666
 40
0.6666666666666666
 40
0.6666666666666666
 40
0.6666666666666666
 40
1.0
 40
1.0
 40
1.0
 40
1.0
 10
-9.365
 20
8.0815
 30
0.0
 10
-9.365
 20
8.0815
 30
0.0
 10
-9.365
 20
118.0899
 30
0.0
 10
-9.365
 20
118.0899
 30
0.0
 10
-9.365
 20
118.0899
 30
0.0
 10
-9.365
 20
118.0899
 30
0.0
 10
196.146
 20
118.0899
 30
0.0
 10
196.146
 20
118.0899
 30
0.0
 10
196.146
 20
118.0899
 30
0.0
 10
196.146
 20
118.0899
 30
0.0
 10
196.146
 20
-101.9277
 30
0.0
 10
196.146
 20
-101.9277
 30
0.0
 10
196.146
 20
-101.9277
 30
0.0
 10
196.146
 20
-101.9277
 30
0.0
 10
-9.365
 20
-101.9277
 30
0.0
 10
-9.365
 20
-101.9277
 30
0.0
 10
-9.365
 20
-101.9277
 30
0.0
 10
-9.365
 20
-101.9277
 30
0.0
 10
-9.365
 20
8.0815
 30
0.0
 10
-9.365
 20
8.0815
 30
0.0
  0
SPLINE
  5
42
330
1F
100
AcDbEntity
  8
layer 1
 62
     7
370
     9
100
AcDbSpline
210
0.0
220
0.0
230
1.0
 70
    11
 71
     3
 72
    44
 73
    40
 74
     0
 42
0.0000000001
 43
0.0000000001
 12
1.0
 22
0.0
 32
0.0
 13
1.0
 23
0.0
 33
0.0
 40
0.0
 40
0.0
 40
0.0
 40
0.0
 40
0.0909090909090909
 40
0.0909090909090909
 40
0.0909090909090909
 40
0.0909090909090909
 40
0.1818181818181818
 40
0.1818181818181818
 40
0.1818181818181818
 40
0.1818181818181818
 40
0.2727272727272727
 40
0.2727272727272727
 40
0.2727272727272727
 40
0.2727272727272727
 40
0.3636363636363636
 40
0.3636363636363636
 40
0.3636363636363636
 40
0.3636363636363636
 40
0.4545454545454545
 40
0.4545454545454545
 40
0.4545454545454545
 40
0.4545454545454545
 40
0.5454545454545454
 40
0.5454545454545454
 40
0.5454545454545454
 40
0.5454545454545454
 40
0.6363636363636364
 40
0.6363636363636364
 40
0.6363636363636364
 40
0.6363636363636364
 40
0.7272727272727273
 40
0.7272727272727273
 40
0.7272727272727273
 40
0.7272727272727273
 40
0.8181818181818182
 40
0.8181818181818182
 40
0.8181818181818182
 40
0.8181818181818182
 40
1.0
 40
1.0
 40
1.0
 40
1.0
 10
9.8035
 20
-71.107
 30
0.0
 10
7.8445
 20
-74.2504
 30
0.0
 10
8.1284
 20
-77.8832
 30
0.0
 10
10.5639
 20
-80.8486
 30
0.0
 10
10.5639
 20
-80.8486
 30
0.0
 10
12.9849
 20
-82.4285
 30
0.0
 10
16.6661
 20
-82.4481
 30
0.0
 10
19.119
 20
-80.8943
 30
0.0
 10
19.119
 20
-80.8943
 30
0.0
 10
22.0878
 20
-78.7832
 30
0.0
 10
24.2759
 20
-76.1717
 30
0.0
 10
25.488
 20
-73.297
 30
0.0
 10
25.488
 20
-73.297
 30
0.0
 10
25.7742
 20
-73.851
 30
0.0
 10
26.2157
 20
-74.356
 30
0.0
 10
26.787
 20
-74.78
 30
0.0
 10
26.787
 20
-74.78
 30
0.0
 10
28.5437
 20
-74.7302
 30
0.0
 10
30.2984
 20
-74.6392
 30
0.0
 10
32.047
 20
-74.5064
 30
0.0
 10
32.047
 20
-74.5064
 30
0.0
 10
29.8375
 20
-80.0076
 30
0.0
 10
28.7277
 20
-85.7077
 30
0.0
 10
28.7511
 20
-91.4346
 30
0.0
 10
28.7511
 20
-91.4346
 30
0.0
 10
28.7511
 20
-91.4346
 30
0.0
 10
0.2348
 20
-91.4346
 30
0.0
 10
0.2348
 20
-91.4346
 30
0.0
 10
0.2348
 20
-91.4346
 30
0.0
 10
0.2348
 20
-91.4346
 30
0.0
 10
0.2348
 20
-59.951
 30
0.0
 10
0.2348
 20
-59.951
 30
0.0
 10
0.2348
 20
-59.951
 30
0.0
 10
0.7527
 20
-60.0463
 30
0.0
 10
1.2843
 20
-60.0999
 30
0.0
 10
1.8188
 20
-60.1103
 30
0.0
 10
1.8188
 20
-60.1103
 30
0.0
 10
3.6245
 20
-64.0668
 30
0.0
 10
6.3216
 20
-67.7819
 30
0.0
 10
9.8035
 20
-71.107
 30
0.0
  0
SPLINE
  5
43
330
1F
100
AcDbEntity
  8
layer 1
 62
     7
370
     9
100
AcDbSpline
210
0.0
220
0.0
230
1.0
 70
    11
 71
     3
 72
    32
 73
    28
 74
     0
 42
0.0000000001
 43
0.0000000001
 12
1.0
 22
0.0
 32
0.0
 13
1.0
 23
0.0
 33
0.0
 40
0.0
 40
0.0
 40
0.0
 40
0.0
 40
0.125
 40
0.125
 40
0.125
 40
0.125
 40
0.25
 40
0.25
 40
0.25
 40
0.25
 40
0.375
 40
0.375
 40
0.375
 40
0.375
 40
0.5
 40
0.5
 40
0.5
 40
0.5
 40
0.625
 40
0.625
 40
0.625
 40
0.625
 40
0.75
 40
0.75
 40
0.75
 40
0.75
 40
1.0
 40
1.0
 40
1.0
 40
1.0
 10
18.6755
 20
-8.7106
 30
0.0
 10
20.0234
 20
-10.532
 30
0.0
 10
21.4389
 20
-12.3273
 30
0.0
 10
22.9219
 20
-14.0942
 30
0.0
 10
22.9219
 20
-14.0942
 30
0.0
 10
18.4967
 20
-18.6704
 30
0.0
 10
14.9575
 20
-23.6594
 30
0.0
 10
12.4015
 20
-28.9237
 30
0.0
 10
12.4015
 20
-28.9237
 30
0.0
 10
9.4703
 20
-34.9481
 30
0.0
 10
8.012
 20
-41.2935
 30
0.0
 10
8.0928
 20
-47.6769
 30
0.0
 10
8.0928
 20
-47.6769
 30
0.0
 10
8.1377
 20
-53.0616
 30
0.0
 10
10.6804
 20
-58.2808
 30
0.0
 10
15.3173
 20
-62.5059
 30
0.0
 10
15.3173
 20
-62.5059
 30
0.0
 10
15.171
 20
-65.5033
 30
0.0
 10
15.255
 20
-68.5043
 30
0.0
 10
15.5708
 20
-71.4948
 30
0.0
 10
15.5708
 20
-71.4948
 30
0.0
 10
7.2915
 20
-66.4612
 30
0.0
 10
2.3064
 20
-59.1671
 30
0.0
 10
1.8188
 20
-51.3728
 30
0.0
 10
1.8188
 20
-51.3728
 30
0.0
 10
0.5954
 20
-36.1902
 30
0.0
 10
6.5354
 20
-21.1553
 30
0.0
 10
18.6755
 20
-8.7106
 30
0.0
  0
SPLINE
  5
44
330
1F
100
AcDbEntity
  8
layer 1
 62
     7
370
     9
100
AcDbSpline
210
0.0
220
0.0
230
1.0
 70
    11
 71
     3
 72
    20
 73
    16
 74
     0
 42
0.0000000001
 43
0.0000000001
 12
1.0
 22
0.0
 32
0.0
 13
1.0
 23
0.0
 33
0.0
 40
0.0
 40
0.0
 40
0.0
 40
0.0
 40
0.2
 40
0.2
 40
0.2
 40
0.2
 40
0.4
 40
0.4
 40
0.4
 40
0.4
 40
0.6
 40
0.6
 40
0.6
 40
0.6
 40
1.0
 40
1.0
 40
1.0
 40
1.0
 10
14.6837
 20
-28.9694
 30
0.0
 10
17.3571
 20
-30.6397
 30
0.0
 10
19.7586
 20
-32.522
 30
0.0
 10
21.8448
 20
-34.5816
 30
0.0
 10
21.8448
 20
-34.5816
 30
0.0
 10
23.0007
 20
-32.6956
 30
0.0
 10
24.2484
 20
-30.8383
 30
0.0
 10
25.583
 20
-29.0148
 30
0.0
 10
25.583
 20
-29.0148
 30
0.0
 10
23.4378
 20
-26.8382
 30
0.0
 10
20.9728
 20
-24.8337
 30
0.0
 10
18.2319
 20
-23.0376
 30
0.0
 10
18.2319
 20
-23.0376
 30
0.0
 10
17.0126
 20
-25.0031
 30
0.0
 10
15.8292
 20
-26.9803
 30
0.0
 10
14.6837
 20
-28.9694
 30
0.0
  0
SPLINE
  5
45
330
1F
100
AcDbEntity
  8
layer 1
 62
     7
370
     9
100
AcDbSpline
210
0.0
220
0.0
230
1.0
 70
    11
 71
     3
 72
    28
 73
    24
 74
     0
 42
0.0000000001
 43
0.0000000001
 12
1.0
 22
0.0
 32
0.0
 13
1.0
 23
0.0
 33
0.0
 40
0.0
 40
0.0
 40
0.0
 40
0.0
 40
0.1428571428571428
 40
0.1428571428571428
 40
0.1428571428571428
 40
0.1428571428571428
 40
0.2857142857142857
 40
0.2857142857142857
 40
0.2857142857142857
 40
0.2857142857142857
 40
0.4285714285714285
 40
0.4285714285714285
 40
0.4285714285714285
 40
0.4285714285714285
 40
0.5714285714285714
 40
0.5714285714285714
 40
0.5714285714285714
 40
0.5714285714285714
 40
0.7142857142857143
 40
0.7142857142857143
 40
0.7142857142857143
 40
0.7142857142857143
 40
1.0
 40
1.0
 40
1.0
 40
1.0
 10
30.5899
 20
-25.5932
 30
0.0
 10
31.8602
 20
-27.162
 30
0.0
 10
33.4637
 20
-28.5785
 30
0.0
 10
35.3421
 20
-29.7906
 30
0.0
 10
35.3421
 20
-29.7906
 30
0.0
 10
33.5749
 20
-31.1481
 30
0.0
 10
32.0624
 20
-32.667
 30
0.0
 10
30.8433
 20
-34.3079
 30
0.0
 10
30.8433
 20
-34.3079
 30
0.0
 10
27.524
 20
-39.5487
 30
0.0
 10
25.3032
 20
-45.115
 30
0.0
 10
24.2524
 20
-50.8253
 30
0.0
 10
24.2524
 20
-50.8253
 30
0.0
 10
21.6536
 20
-51.8837
 30
0.0
 10
19.2479
 20
-53.1711
 30
0.0
 10
17.0914
 20
-54.6581
 30
0.0
 10
17.0914
 20
-54.6581
 30
0.0
 10
17.7925
 20
-48.9351
 30
0.0
 10
19.3867
 20
-43.2872
 30
0.0
 10
21.8448
 20
-37.8212
 30
0.0
 10
21.8448
 20
-37.8212
 30
0.0
 10
24.1093
 20
-33.5205
 30
0.0
 10
27.0434
 20
-29.4183
 30
0.0
 10
30.5899
 20
-25.5932
 30
0.0
  0
SPLINE
  5
46
330
1F
100
AcDbEntity
  8
layer 1
 62
     7
370
     9
100
AcDbSpline
210
0.0
220
0.0
230
1.0
 70
    11
 71
     3
 72
    24
 73
    20
 74
     0
 42
0.0000000001
 43
0.0000000001
 12
1.0
 22
0.0
 32
0.0
 13
1.0
 23
0.0
 33
0.0
 40
0.0
 40
0.0
 40
0.0
 40
0.0
 40
0.1666666666666667
 40
0.1666666666666667
 40
0.1666666666666667
 40
0.1666666666666667
 40
0.3333333333333333
 40
0.3333333333333333
 40
0.3333333333333333
 40
0.3333333333333333
 40
0.5
 40
0.5
 40
0.5
 40
0.5
 40
0.6666666666666666
 40
0.6666666666666666
 40
0.6666666666666666
 40
0.6666666666666666
 40
1.0
 40
1.0
 40
1.0
 40
1.0
 10
27.8009
 20
-44.3919
 30
0.0
 10
31.071
 20
-51.1997
 30
0.0
 10
31.4462
 20
-58.5551
 30
0.0
 10
28.8789
 20
-65.5175
 30
0.0
 10
28.8789
 20
-65.5175
 30
0.0
 10
31.2982
 20
-65.3438
 30
0.0
 10
33.6682
 20
-64.9132
 30
0.0
 10
35.9125
 20
-64.2401
 30
0.0
 10
35.9125
 20
-64.2401
 30
0.0
 10
36.6277
 20
-59.1999
 30
0.0
 10
36.542
 20
-54.1176
 30
0.0
 10
35.659
 20
-49.0913
 30
0.0
 10
35.659
 20
-49.0913
 30
0.0
 10
34.9272
 20
-45.031
 30
0.0
 10
33.523
 20
-41.0482
 30
0.0
 10
31.4769
 20
-37.228
 30
0.0
 10
31.4769
 20
-37.228
 30
0.0
 10
30.2935
 20
-39.6269
 30
0.0
 10
29.0681
 20
-42.0148
 30
0.0
 10
27.8009
 20
-44.3919
 30
0.0
  0
SPLINE
  5
47
330
1F
100
AcDbEntity
  8
layer 1
 62
     7
370
     9
100
AcDbSpline
210
0.0
220
0.0
230
1.0
 70
    11
 71
     3
 72
    24
 73
    20
 74
     0
 42
0.0000000001
 43
0.0000000001
 12
1.0
 22
0.0
 32
0.0
 13
1.0
 23
0.0
 33
0.0
 40
0.0
 40
0.0
 40
0.0
 40
0.0
 40
0.1666666666666667
 40
0.1666666666666667
 40
0.1666666666666667
 40
0.1666666666666667
 40
0.3333333333333333
 40
0.3333333333333333
 40
0.3333333333333333
 40
0.3333333333333333
 40
0.5
 40
0.5
 40
0.5
 40
0.5
 40
0.6666666666666666
 40
0.6666666666666666
 40
0.6666666666666666
 40
0.6666666666666666
 40
1.0
 40
1.0
 40
1.0
 40
1.0
 10
19.816
 20
-77.4266
 30
0.0
 10
17.6421
 20
-72.9835
 30
0.0
 10
16.5068
 20
-68.3118
 30
0.0
 10
16.4578
 20
-63.6012
 30
0.0
 10
16.4578
 20
-63.6012
 30
0.0
 10
17.1354
 20
-63.8686
 30
0.0
 10
17.7545
 20
-64.2068
 30
0.0
 10
18.2954
 20
-64.6047
 30
0.0
 10
18.2954
 20
-64.6047
 30
0.0
 10
19.4368
 20
-63.2644
 30
0.0
 10
21.1477
 20
-62.2239
 30
0.0
 10
23.1753
 20
-61.6391
 30
0.0
 10
23.1753
 20
-61.6391
 30
0.0
 10
23.0035
 20
-64.9247
 30
0.0
 10
23.4726
 20
-68.2116
 30
0.0
 10
24.5694
 20
-71.4036
 30
0.0
 10
24.5694
 20
-71.4036
 30
0.0
 10
23.0823
 20
-73.4505
 30
0.0
 10
21.4971
 20
-75.4594
 30
0.0
 10
19.816
 20
-77.4266
 30
0.0
  0
SPLINE
  5
48
330
1F
100
AcDbEntity
  8
layer 1
 62
     7
370
     9
100
AcDbSpline
210
0.0
220
0.0
230
1.0
 70
    11
 71
     3
 72
    20
 73
    16
 74
     0
 42
0.0000000001
 43
0.0000000001
 12
1.0
 22
0.0
 32
0.0
 13
1.0
 23
0.0
 33
0.0
 40
0.0
 40
0.0
 40
0.0
 40
0.0
 40
0.2
 40
0.2
 40
0.2
 40
0.2
 40
0.4
 40
0.4
 40
0.4
 40
0.4
 40
0.6
 40
0.6
 40
0.6
 40
0.6
 40
1.0
 40
1.0
 40
1.0
 40
1.0
 10
13.7964
 20
-58.6732
 30
0.0
 10
14.9708
 20
-59.8615
 30
0.0
 10
16.3321
 20
-60.9484
 30
0.0
 10
17.8519
 20
-61.9129
 30
0.0
 10
17.8519
 20
-61.9129
 30
0.0
 10
21.1283
 20
-60.0219
 30
0.0
 10
24.8993
 20
-58.6252
 30
0.0
 10
28.9415
 20
-57.8063
 30
0.0
 10
28.9415
 20
-57.8063
 30
0.0
 10
28.9128
 20
-56.1167
 30
0.0
 10
28.8279
 20
-54.4282
 30
0.0
 10
28.6889
 20
-52.7416
 30
0.0
 10
28.6889
 20
-52.7416
 30
0.0
 10
23.1997
 20
-53.9412
 30
0.0
 10
18.1247
 20
-55.9624
 30
0.0
 10
13.7964
 20
-58.6732
 30
0.0
  0
SPLINE
  5
49
330
1F
100
AcDbEntity
  8
layer 1
 62
     7
370
     9
100
AcDbSpline
210
0.0
220
0.0
230
1.0
 70
    11
 71
     3
 72
    24
 73
    20
 74
     0
 42
0.0000000001
 43
0.0000000001
 12
1.0
 22
0.0
 32
0.0
 13
1.0
 23
0.0
 33
0.0
 40
0.0
 40
0.0
 40
0.0
 40
0.0
 40
0.1666666666666667
 40
0.1666666666666667
 40
0.1666666666666667
 40
0.1666666666666667
 40
0.3333333333333333
 40
0.3333333333333333
 40
0.3333333333333333
 40
0.3333333333333333
 40
0.5
 40
0.5
 40
0.5
 40
0.5
 40
0.6666666666666666
 40
0.6666666666666666
 40
0.6666666666666666
 40
0.6666666666666666
 40
1.0
 40
1.0
 40
1.0
 40
1.0
 10
25.6465
 20
-67.8447
 30
0.0
 10
25.9254
 20
-69.3209
 30
0.0
 10
26.5917
 20
-70.7455
 30
0.0
 10
27.6106
 20
-72.0423
 30
0.0
 10
27.6106
 20
-72.0423
 30
0.0
 10
35.4362
 20
-71.9925
 30
0.0
 10
42.8783
 20
-69.5946
 30
0.0
 10
48.1435
 20
-65.4264
 30
0.0
 10
48.1435
 20
-65.4264
 30
0.0
 10
46.9447
 20
-64.6047
 30
0.0
 10
45.6029
 20
-63.8993
 30
0.0
 10
44.1506
 20
-63.3276
 30
0.0
 10
44.1506
 20
-63.3276
 30
0.0
 10
41.9217
 20
-64.5226
 30
0.0
 10
39.5937
 20
-65.6197
 30
0.0
 10
37.1805
 20
-66.6126
 30
0.0
 10
37.1805
 20
-66.6126
 30
0.0
 10
33.6076
 20
-67.8779
 30
0.0
 10
29.5759
 20
-68.3084
 30
0.0
 10
25.6465
 20
-67.8447
 30
0.0
  0
SPLINE
  5
4A
330
1F
100
AcDbEntity
  8
layer 1
 62
     7
370
     9
100
AcDbSpline
210
0.0
220
0.0
230
1.0
 70
    11
 71
     3
 72
    28
 73
    24
 74
     0
 42
0.0000000001
 43
0.0000000001
 12
1.0
 22
0.0
 32
0.0
 13
1.0
 23
0.0
 33
0.0
 40
0.0
 40
0.0
 40
0.0
 40
0.0
 40
0.1428571428571428
 40
0.1428571428571428
 40
0.1428571428571428
 40
0.1428571428571428
 40
0.2857142857142857
 40
0.2857142857142857
 40
0.2857142857142857
 40
0.2857142857142857
 40
0.4285714285714285
 40
0.4285714285714285
 40
0.4285714285714285
 40
0.4285714285714285
 40
0.5714285714285714
 40
0.5714285714285714
 40
0.5714285714285714
 40
0.5714285714285714
 40
0.7142857142857143
 40
0.7142857142857143
 40
0.7142857142857143
 40
0.7142857142857143
 40
1.0
 40
1.0
 40
1.0
 40
1.0
 10
37.5597
 20
-59.1298
 30
0.0
 10
37.6353
 20
-56.8182
 30
0.0
 10
37.6353
 20
-54.5056
 30
0.0
 10
37.5597
 20
-52.194
 30
0.0
 10
37.5597
 20
-52.194
 30
0.0
 10
42.1975
 20
-53.334
 30
0.0
 10
46.5113
 20
-55.065
 30
0.0
 10
50.298
 20
-57.3044
 30
0.0
 10
50.298
 20
-57.3044
 30
0.0
 10
55.8318
 20
-61.2978
 30
0.0
 10
60.2439
 20
-66.0231
 30
0.0
 10
63.2895
 20
-71.2211
 30
0.0
 10
63.2895
 20
-71.2211
 30
0.0
 10
61.606
 20
-72.8685
 30
0.0
 10
59.5744
 20
-74.3157
 30
0.0
 10
57.2687
 20
-75.5101
 30
0.0
 10
57.2687
 20
-75.5101
 30
0.0
 10
55.795
 20
-72.0803
 30
0.0
 10
53.6388
 20
-68.822
 30
0.0
 10
50.8681
 20
-65.8369
 30
0.0
 10
50.8681
 20
-65.8369
 30
0.0
 10
47.609
 20
-62.5848
 30
0.0
 10
42.92
 20
-60.2211
 30
0.0
 10
37.5597
 20
-59.1298
 30
0.0
  0
SPLINE
  5
4B
330
1F
100
AcDbEntity
  8
layer 1
 62
     7
370
     9
100
AcDbSpline
210
0.0
220
0.0
230
1.0
 70
    11
 71
     3
 72
    36
 73
    32
 74
     0
 42
0.0000000001
 43
0.0000000001
 12
1.0
 22
0.0
 32
0.0
 13
1.0
 23
0.0
 33
0.0
 40
0.0
 40
0.0
 40
0.0
 40
0.0
 40
0.1111111111111111
 40
0.1111111111111111
 40
0.1111111111111111
 40
0.1111111111111111
 40
0.2222222222222222
 40
0.2222222222222222
 40
0.2222222222222222
 40
0.2222222222222222
 40
0.3333333333333333
 40
0.3333333333333333
 40
0.3333333333333333
 40
0.3333333333333333
 40
0.4444444444444444
 40
0.4444444444444444
 40
0.4444444444444444
 40
0.4444444444444444
 40
0.5555555555555556
 40
0.5555555555555556
 40
0.5555555555555556
 40
0.5555555555555556
 40
0.6666666666666666
 40
0.6666666666666666
 40
0.6666666666666666
 40
0.6666666666666666
 40
0.7777777777777778
 40
0.7777777777777778
 40
0.7777777777777778
 40
0.7777777777777778
 40
1.0
 40
1.0
 40
1.0
 40
1.0
 10
52.8957
 20
-56.4832
 30
0.0
 10
57.0349
 20
-53.3352
 30
0.0
 10
60.1897
 20
-49.5859
 30
0.0
 10
62.1478
 20
-45.4867
 30
0.0
 10
62.1478
 20
-45.4867
 30
0.0
 10
63.9546
 20
-41.5924
 30
0.0
 10
64.7916
 20
-37.4989
 30
0.0
 10
64.6201
 20
-33.3954
 30
0.0
 10
64.6201
 20
-33.3954
 30
0.0
 10
63.3967
 20
-33.7464
 30
0.0
 10
62.1211
 20
-33.9915
 30
0.0
 10
60.8181
 20
-34.1254
 30
0.0
 10
60.8181
 20
-34.1254
 30
0.0
 10
60.5116
 20
-31.8053
 30
0.0
 10
60.4267
 20
-29.4727
 30
0.0
 10
60.5637
 20
-27.1445
 30
0.0
 10
60.5637
 20
-27.1445
 30
0.0
 10
65.97
 20
-26.1768
 30
0.0
 10
70.6875
 20
-23.8037
 30
0.0
 10
73.8087
 20
-20.4828
 30
0.0
 10
73.8087
 20
-20.4828
 30
0.0
 10
75.4061
 20
-27.7095
 30
0.0
 10
74.4915
 20
-35.1085
 30
0.0
 10
71.1475
 20
-42.019
 30
0.0
 10
71.1475
 20
-42.019
 30
0.0
 10
68.0182
 20
-48.6764
 30
0.0
 10
63.5786
 20
-54.9762
 30
0.0
 10
57.9657
 20
-60.7265
 30
0.0
 10
57.9657
 20
-60.7265
 30
0.0
 10
56.5227
 20
-59.1686
 30
0.0
 10
54.8202
 20
-57.7437
 30
0.0
 10
52.8957
 20
-56.4832
 30
0.0
  0
SPLINE
  5
4C
330
1F
100
AcDbEntity
  8
layer 1
 62
     7
370
     9
100
AcDbSpline
210
0.0
220
0.0
230
1.0
 70
    11
 71
     3
 72
    36
 73
    32
 74
     0
 42
0.0000000001
 43
0.0000000001
 12
1.0
 22
0.0
 32
0.0
 13
1.0
 23
0.0
 33
0.0
 40
0.0
 40
0.0
 40
0.0
 40
0.0
 40
0.1111111111111111
 40
0.1111111111111111
 40
0.1111111111111111
 40
0.1111111111111111
 40
0.2222222222222222
 40
0.2222222222222222
 40
0.2222222222222222
 40
0.2222222222222222
 40
0.3333333333333333
 40
0.3333333333333333
 40
0.3333333333333333
 40
0.3333333333333333
 40
0.4444444444444444
 40
0.4444444444444444
 40
0.4444444444444444
 40
0.4444444444444444
 40
0.5555555555555556
 40
0.5555555555555556
 40
0.5555555555555556
 40
0.5555555555555556
 40
0.6666666666666666
 40
0.6666666666666666
 40
0.6666666666666666
 40
0.6666666666666666
 40
0.7777777777777778
 40
0.7777777777777778
 40
0.7777777777777778
 40
0.7777777777777778
 40
1.0
 40
1.0
 40
1.0
 40
1.0
 10
30.4314
 20
-87.7387
 30
0.0
 10
34.3232
 20
-89.5993
 30
0.0
 10
39.0038
 20
-90.4076
 30
0.0
 10
43.6436
 20
-90.02
 30
0.0
 10
43.6436
 20
-90.02
 30
0.0
 10
49.4608
 20
-89.2397
 30
0.0
 10
54.9358
 20
-87.4721
 30
0.0
 10
59.6132
 20
-84.8639
 30
0.0
 10
59.6132
 20
-84.8639
 30
0.0
 10
66.3023
 20
-80.9383
 30
0.0
 10
71.8199
 20
-76.0806
 30
0.0
 10
75.8363
 20
-70.5822
 30
0.0
 10
75.8363
 20
-70.5822
 30
0.0
 10
74.4843
 20
-69.0637
 30
0.0
 10
72.9573
 20
-67.629
 30
0.0
 10
71.2741
 20
-66.2933
 30
0.0
 10
71.2741
 20
-66.2933
 30
0.0
 10
67.4744
 20
-70.8194
 30
0.0
 10
62.6802
 20
-74.8722
 30
0.0
 10
57.0786
 20
-78.2935
 30
0.0
 10
57.0786
 20
-78.2935
 30
0.0
 10
53.2891
 20
-80.698
 30
0.0
 10
48.6311
 20
-82.2804
 30
0.0
 10
43.6436
 20
-82.8563
 30
0.0
 10
43.6436
 20
-82.8563
 30
0.0
 10
39.3135
 20
-83.1798
 30
0.0
 10
34.9863
 20
-82.2157
 30
0.0
 10
31.667
 20
-80.187
 30
0.0
 10
31.667
 20
-80.187
 30
0.0
 10
30.9505
 20
-82.6734
 30
0.0
 10
30.5366
 20
-85.2002
 30
0.0
 10
30.4314
 20
-87.7387
 30
0.0
  0
SPLINE
  5
4D
330
1F
100
AcDbEntity
  8
layer 1
 62
     7
370
     9
100
AcDbSpline
210
0.0
220
0.0
230
1.0
 70
    11
 71
     3
 72
    32
 73
    28
 74
     0
 42
0.0000000001
 43
0.0000000001
 12
1.0
 22
0.0
 32
0.0
 13
1.0
 23
0.0
 33
0.0
 40
0.0
 40
0.0
 40
0.0
 40
0.0
 40
0.125
 40
0.125
 40
0.125
 40
0.125
 40
0.25
 40
0.25
 40
0.25
 40
0.25
 40
0.375
 40
0.375
 40
0.375
 40
0.375
 40
0.5
 40
0.5
 40
0.5
 40
0.5
 40
0.625
 40
0.625
 40
0.625
 40
0.625
 40
0.75
 40
0.75
 40
0.75
 40
0.75
 40
1.0
 40
1.0
 40
1.0
 40
1.0
 10
57.1421
 20
-48.909
 30
0.0
 10
52.3276
 20
-39.9321
 30
0.0
 10
51.0981
 20
-30.1644
 30
0.0
 10
53.5927
 20
-20.7102
 30
0.0
 10
53.5927
 20
-20.7102
 30
0.0
 10
50.7291
 20
-20.4246
 30
0.0
 10
47.8306
 20
-21.0214
 30
0.0
 10
45.6081
 20
-22.3532
 30
0.0
 10
45.6081
 20
-22.3532
 30
0.0
 10
43.143
 20
-21.0846
 30
0.0
 10
41.0346
 20
-19.4893
 30
0.0
 10
39.3984
 20
-17.6533
 30
0.0
 10
39.3984
 20
-17.6533
 30
0.0
 10
45.1359
 20
-11.7695
 30
0.0
 10
55.3086
 20
-9.0322
 30
0.0
 10
65.0001
 20
-10.7637
 30
0.0
 10
65.0001
 20
-10.7637
 30
0.0
 10
63.1249
 20
-13.4503
 30
0.0
 10
61.6185
 20
-16.2619
 30
0.0
 10
60.5003
 20
-19.1589
 30
0.0
 10
60.5003
 20
-19.1589
 30
0.0
 10
57.7667
 20
-27.0746
 30
0.0
 10
58.1172
 20
-35.3786
 30
0.0
 10
61.5151
 20
-43.1597
 30
0.0
 10
61.5151
 20
-43.1597
 30
0.0
 10
60.21
 20
-45.1342
 30
0.0
 10
58.7496
 20
-47.0534
 30
0.0
 10
57.1421
 20
-48.909
 30
0.0
  0
SPLINE
  5
4E
330
1F
100
AcDbEntity
  8
layer 1
 62
     7
370
     9
100
AcDbSpline
210
0.0
220
0.0
230
1.0
 70
    11
 71
     3
 72
    48
 73
    44
 74
     0
 42
0.0000000001
 43
0.0000000001
 12
1.0
 22
0.0
 32
0.0
 13
1.0
 23
0.0
 33
0.0
 40
0.0
 40
0.0
 40
0.0
 40
0.0
 40
0.0833333333333333
 40
0.0833333333333333
 40
0.0833333333333333
 40
0.0833333333333333
 40
0.1666666666666667
 40
0.1666666666666667
 40
0.1666666666666667
 40
0.1666666666666667
 40
0.25
 40
0.25
 40
0.25
 40
0.25
 40
0.3333333333333333
 40
0.3333333333333333
 40
0.3333333333333333
 40
0.3333333333333333
 40
0.4166666666666667
 40
0.4166666666666667
 40
0.4166666666666667
 40
0.4166666666666667
 40
0.5
 40
0.5
 40
0.5
 40
0.5
 40
0.5833333333333334
 40
0.5833333333333334
 40
0.5833333333333334
 40
0.5833333333333334
 40
0.6666666666666666
 40
0.6666666666666666
 40
0.6666666666666666
 40
0.6666666666666666
 40
0.75
 40
0.75
 40
0.75
 40
0.75
 40
0.8333333333333334
 40
0.8333333333333334
 40
0.8333333333333334
 40
0.8333333333333334
 40
1.0
 40
1.0
 40
1.0
 40
1.0
 10
59.5498
 20
-91.5256
 30
0.0
 10
59.6949
 20
-90.1139
 30
0.0
 10
59.7595
 20
-88.6982
 30
0.0
 10
59.7401
 20
-87.2823
 30
0.0
 10
59.7401
 20
-87.2823
 30
0.0
 10
62.7874
 20
-85.866
 30
0.0
 10
65.5225
 20
-84.128
 30
0.0
 10
67.8516
 20
-82.1265
 30
0.0
 10
67.8516
 20
-82.1265
 30
0.0
 10
69.9209
 20
-83.4326
 30
0.0
 10
72.8941
 20
-83.6863
 30
0.0
 10
75.3293
 20
-82.7651
 30
0.0
 10
75.3293
 20
-82.7651
 30
0.0
 10
77.8966
 20
-81.3595
 30
0.0
 10
79.4552
 20
-79.1996
 30
0.0
 10
79.5757
 20
-76.8788
 30
0.0
 10
79.5757
 20
-76.8788
 30
0.0
 10
79.87
 20
-73.6063
 30
0.0
 10
78.6191
 20
-70.3582
 30
0.0
 10
76.0263
 20
-67.662
 30
0.0
 10
76.0263
 20
-67.662
 30
0.0
 10
71.7127
 20
-64.5977
 30
0.0
 10
67.6297
 20
-61.3685
 30
0.0
 10
63.7962
 20
-57.9888
 30
0.0
 10
63.7962
 20
-57.9888
 30
0.0
 10
65.2383
 20
-56.2116
 30
0.0
 10
66.4677
 20
-54.3496
 30
0.0
 10
67.4713
 20
-52.4222
 30
0.0
 10
67.4713
 20
-52.4222
 30
0.0
 10
70.1489
 20
-55.243
 30
0.0
 10
73.7085
 20
-57.5714
 30
0.0
 10
77.865
 20
-59.2207
 30
0.0
 10
77.865
 20
-59.2207
 30
0.0
 10
81.3825
 20
-59.9489
 30
0.0
 10
85.0463
 20
-60.2455
 30
0.0
 10
88.7012
 20
-60.098
 30
0.0
 10
88.7012
 20
-60.098
 30
0.0
 10
88.7012
 20
-60.098
 30
0.0
 10
88.7012
 20
-91.5256
 30
0.0
 10
88.7012
 20
-91.5256
 30
0.0
 10
88.7012
 20
-91.5256
 30
0.0
 10
88.7012
 20
-91.5256
 30
0.0
 10
59.5498
 20
-91.5256
 30
0.0
 10
59.5498
 20
-91.5256
 30
0.0
  0
SPLINE
  5
4F
330
1F
100
AcDbEntity
  8
layer 1
 62
     7
370
     9
100
AcDbSpline
210
0.0
220
0.0
230
1.0
 70
    11
 71
     3
 72
    32
 73
    28
 74
     0
 42
0.0000000001
 43
0.0000000001
 12
1.0
 22
0.0
 32
0.0
 13
1.0
 23
0.0
 33
0.0
 40
0.0
 40
0.0
 40
0.0
 40
0.0
 40
0.125
 40
0.125
 40
0.125
 40
0.125
 40
0.25
 40
0.25
 40
0.25
 40
0.25
 40
0.375
 40
0.375
 40
0.375
 40
0.375
 40
0.5
 40
0.5
 40
0.5
 40
0.5
 40
0.625
 40
0.625
 40
0.625
 40
0.625
 40
0.75
 40
0.75
 40
0.75
 40
0.75
 40
1.0
 40
1.0
 40
1.0
 40
1.0
 10
84.2647
 20
-57.2587
 30
0.0
 10
85.2541
 20
-55.9997
 30
0.0
 10
86.8228
 20
-55.0294
 30
0.0
 10
88.7012
 20
-54.5156
 30
0.0
 10
88.7012
 20
-54.5156
 30
0.0
 10
88.7012
 20
-54.5156
 30
0.0
 10
88.7012
 20
7.5796
 30
0.0
 10
88.7012
 20
7.5796
 30
0.0
 10
88.7012
 20
7.5796
 30
0.0
 10
88.7012
 20
7.5796
 30
0.0
 10
81.0966
 20
7.5796
 30
0.0
 10
81.0966
 20
7.5796
 30
0.0
 10
81.0966
 20
7.5796
 30
0.0
 10
81.0966
 20
7.5796
 30
0.0
 10
81.0966
 20
-9.76
 30
0.0
 10
81.0966
 20
-9.76
 30
0.0
 10
81.0966
 20
-9.76
 30
0.0
 10
81.3591
 20
-21.3489
 30
0.0
 10
81.3376
 20
-32.9398
 30
0.0
 10
81.0332
 20
-44.5285
 30
0.0
 10
81.0332
 20
-44.5285
 30
0.0
 10
80.8431
 20
-48.4574
 30
0.0
 10
79.7066
 20
-52.3325
 30
0.0
 10
77.675
 20
-55.9814
 30
0.0
 10
77.675
 20
-55.9814
 30
0.0
 10
79.5656
 20
-56.9955
 30
0.0
 10
81.9222
 20
-57.4525
 30
0.0
 10
84.2647
 20
-57.2587
 30
0.0
  0
SPLINE
  5
50
330
1F
100
AcDbEntity
  8
layer 1
 62
     7
370
     9
100
AcDbSpline
210
0.0
220
0.0
230
1.0
 70
    11
 71
     3
 72
    32
 73
    28
 74
     0
 42
0.0000000001
 43
0.0000000001
 12
1.0
 22
0.0
 32
0.0
 13
1.0
 23
0.0
 33
0.0
 40
0.0
 40
0.0
 40
0.0
 40
0.0
 40
0.125
 40
0.125
 40
0.125
 40
0.125
 40
0.25
 40
0.25
 40
0.25
 40
0.25
 40
0.375
 40
0.375
 40
0.375
 40
0.375
 40
0.5
 40
0.5
 40
0.5
 40
0.5
 40
0.625
 40
0.625
 40
0.625
 40
0.625
 40
0.75
 40
0.75
 40
0.75
 40
0.75
 40
1.0
 40
1.0
 40
1.0
 40
1.0
 10
74.5057
 20
-3.0064
 30
0.0
 10
74.5057
 20
-3.0064
 30
0.0
 10
78.7521
 20
-3.0064
 30
0.0
 10
78.7521
 20
-3.0064
 30
0.0
 10
78.7521
 20
-3.0064
 30
0.0
 10
78.7521
 20
-3.0064
 30
0.0
 10
78.8155
 20
5.2065
 30
0.0
 10
78.8155
 20
5.2065
 30
0.0
 10
78.8155
 20
5.2065
 30
0.0
 10
78.8155
 20
5.2065
 30
0.0
 10
33.7875
 20
5.2065
 30
0.0
 10
33.7875
 20
5.2065
 30
0.0
 10
33.7875
 20
5.2065
 30
0.0
 10
33.3052
 20
3.411
 30
0.0
 10
32.4173
 20
1.6847
 30
0.0
 10
31.16
 20
0.0959
 30
0.0
 10
31.16
 20
0.0959
 30
0.0
 10
31.1559
 20
-2.186
 30
0.0
 10
31.7591
 20
-4.4465
 30
0.0
 10
32.9344
 20
-6.5657
 30
0.0
 10
32.9344
 20
-6.5657
 30
0.0
 10
36.7932
 20
-4.1586
 30
0.0
 10
41.7725
 20
-2.8871
 30
0.0
 10
46.8764
 20
-3.0064
 30
0.0
 10
46.8764
 20
-3.0064
 30
0.0
 10
46.8764
 20
-3.0064
 30
0.0
 10
74.5057
 20
-3.0064
 30
0.0
 10
74.5057
 20
-3.0064
 30
0.0
  0
SPLINE
  5
51
330
1F
100
AcDbEntity
  8
layer 1
 62
     7
370
     9
100
AcDbSpline
210
0.0
220
0.0
230
1.0
 70
    11
 71
     3
 72
    44
 73
    40
 74
     0
 42
0.0000000001
 43
0.0000000001
 12
1.0
 22
0.0
 32
0.0
 13
1.0
 23
0.0
 33
0.0
 40
0.0
 40
0.0
 40
0.0
 40
0.0
 40
0.0909090909090909
 40
0.0909090909090909
 40
0.0909090909090909
 40
0.0909090909090909
 40
0.1818181818181818
 40
0.1818181818181818
 40
0.1818181818181818
 40
0.1818181818181818
 40
0.2727272727272727
 40
0.2727272727272727
 40
0.2727272727272727
 40
0.2727272727272727
 40
0.3636363636363636
 40
0.3636363636363636
 40
0.3636363636363636
 40
0.3636363636363636
 40
0.4545454545454545
 40
0.4545454545454545
 40
0.4545454545454545
 40
0.4545454545454545
 40
0.5454545454545454
 40
0.5454545454545454
 40
0.5454545454545454
 40
0.5454545454545454
 40
0.6363636363636364
 40
0.6363636363636364
 40
0.6363636363636364
 40
0.6363636363636364
 40
0.7272727272727273
 40
0.7272727272727273
 40
0.7272727272727273
 40
0.7272727272727273
 40
0.8181818181818182
 40
0.8181818181818182
 40
0.8181818181818182
 40
0.8181818181818182
 40
1.0
 40
1.0
 40
1.0
 40
1.0
 10
9.8035
 20
87.2689
 30
0.0
 10
7.8445
 20
90.4125
 30
0.0
 10
8.1284
 20
94.0453
 30
0.0
 10
10.5639
 20
97.0107
 30
0.0
 10
10.5639
 20
97.0107
 30
0.0
 10
12.9849
 20
98.5906
 30
0.0
 10
16.6661
 20
98.6098
 30
0.0
 10
19.119
 20
97.0564
 30
0.0
 10
19.119
 20
97.0564
 30
0.0
 10
22.0878
 20
94.9453
 30
0.0
 10
24.2759
 20
92.3338
 30
0.0
 10
25.488
 20
89.4595
 30
0.0
 10
25.488
 20
89.4595
 30
0.0
 10
25.7742
 20
90.0129
 30
0.0
 10
26.2157
 20
90.5177
 30
0.0
 10
26.787
 20
90.9423
 30
0.0
 10
26.787
 20
90.9423
 30
0.0
 10
28.5437
 20
90.8923
 30
0.0
 10
30.2984
 20
90.8009
 30
0.0
 10
32.047
 20
90.6685
 30
0.0
 10
32.047
 20
90.6685
 30
0.0
 10
29.8375
 20
96.1697
 30
0.0
 10
28.7277
 20
101.8696
 30
0.0
 10
28.7511
 20
107.5967
 30
0.0
 10
28.7511
 20
107.5967
 30
0.0
 10
28.7511
 20
107.5967
 30
0.0
 10
0.2348
 20
107.5967
 30
0.0
 10
0.2348
 20
107.5967
 30
0.0
 10
0.2348
 20
107.5967
 30
0.0
 10
0.2348
 20
107.5967
 30
0.0
 10
0.2348
 20
76.1127
 30
0.0
 10
0.2348
 20
76.1127
 30
0.0
 10
0.2348
 20
76.1127
 30
0.0
 10
0.7527
 20
76.2084
 30
0.0
 10
1.2843
 20
76.2614
 30
0.0
 10
1.8188
 20
76.2724
 30
0.0
 10
1.8188
 20
76.2724
 30
0.0
 10
3.6245
 20
80.2283
 30
0.0
 10
6.3216
 20
83.9436
 30
0.0
 10
9.8035
 20
87.2689
 30
0.0
  0
SPLINE
  5
52
330
1F
100
AcDbEntity
  8
layer 1
 62
     7
370
     9
100
AcDbSpline
210
0.0
220
0.0
230
1.0
 70
    11
 71
     3
 72
    32
 73
    28
 74
     0
 42
0.0000000001
 43
0.0000000001
 12
1.0
 22
0.0
 32
0.0
 13
1.0
 23
0.0
 33
0.0
 40
0.0
 40
0.0
 40
0.0
 40
0.0
 40
0.125
 40
0.125
 40
0.125
 40
0.125
 40
0.25
 40
0.25
 40
0.25
 40
0.25
 40
0.375
 40
0.375
 40
0.375
 40
0.375
 40
0.5
 40
0.5
 40
0.5
 40
0.5
 40
0.625
 40
0.625
 40
0.625
 40
0.625
 40
0.75
 40
0.75
 40
0.75
 40
0.75
 40
1.0
 40
1.0
 40
1.0
 40
1.0
 10
18.6755
 20
24.8719
 30
0.0
 10
20.0234
 20
26.6939
 30
0.0
 10
21.4389
 20
28.4894
 30
0.0
 10
22.9219
 20
30.2561
 30
0.0
 10
22.9219
 20
30.2561
 30
0.0
 10
18.4967
 20
34.8331
 30
0.0
 10
14.9575
 20
39.8215
 30
0.0
 10
12.4015
 20
45.0856
 30
0.0
 10
12.4015
 20
45.0856
 30
0.0
 10
9.4703
 20
51.11
 30
0.0
 10
8.012
 20
57.4552
 30
0.0
 10
8.0928
 20
63.8388
 30
0.0
 10
8.0928
 20
63.8388
 30
0.0
 10
8.1377
 20
69.2237
 30
0.0
 10
10.6804
 20
74.4431
 30
0.0
 10
15.3173
 20
78.6683
 30
0.0
 10
15.3173
 20
78.6683
 30
0.0
 10
15.171
 20
81.6654
 30
0.0
 10
15.255
 20
84.6662
 30
0.0
 10
15.5708
 20
87.6567
 30
0.0
 10
15.5708
 20
87.6567
 30
0.0
 10
7.2915
 20
82.6235
 30
0.0
 10
2.3064
 20
75.329
 30
0.0
 10
1.8188
 20
67.5349
 30
0.0
 10
1.8188
 20
67.5349
 30
0.0
 10
0.5954
 20
52.3521
 30
0.0
 10
6.5354
 20
37.3174
 30
0.0
 10
18.6755
 20
24.8719
 30
0.0
  0
SPLINE
  5
53
330
1F
100
AcDbEntity
  8
layer 1
 62
     7
370
     9
100
AcDbSpline
210
0.0
220
0.0
230
1.0
 70
    11
 71
     3
 72
    20
 73
    16
 74
     0
 42
0.0000000001
 43
0.0000000001
 12
1.0
 22
0.0
 32
0.0
 13
1.0
 23
0.0
 33
0.0
 40
0.0
 40
0.0
 40
0.0
 40
0.0
 40
0.2
 40
0.2
 40
0.2
 40
0.2
 40
0.4
 40
0.4
 40
0.4
 40
0.4
 40
0.6
 40
0.6
 40
0.6
 40
0.6
 40
1.0
 40
1.0
 40
1.0
 40
1.0
 10
14.6837
 20
45.1313
 30
0.0
 10
17.3571
 20
46.8016
 30
0.0
 10
19.7586
 20
48.6839
 30
0.0
 10
21.8448
 20
50.7437
 30
0.0
 10
21.8448
 20
50.7437
 30
0.0
 10
23.0007
 20
48.8577
 30
0.0
 10
24.2484
 20
47.001
 30
0.0
 10
25.583
 20
45.1769
 30
0.0
 10
25.583
 20
45.1769
 30
0.0
 10
23.4378
 20
43.0003
 30
0.0
 10
20.9728
 20
40.9958
 30
0.0
 10
18.2319
 20
39.1997
 30
0.0
 10
18.2319
 20
39.1997
 30
0.0
 10
17.0126
 20
41.1658
 30
0.0
 10
15.8292
 20
43.143
 30
0.0
 10
14.6837
 20
45.1313
 30
0.0
  0
SPLINE
  5
54
330
1F
100
AcDbEntity
  8
layer 1
 62
     7
370
     9
100
AcDbSpline
210
0.0
220
0.0
230
1.0
 70
    11
 71
     3
 72
    28
 73
    24
 74
     0
 42
0.0000000001
 43
0.0000000001
 12
1.0
 22
0.0
 32
0.0
 13
1.0
 23
0.0
 33
0.0
 40
0.0
 40
0.0
 40
0.0
 40
0.0
 40
0.1428571428571428
 40
0.1428571428571428
 40
0.1428571428571428
 40
0.1428571428571428
 40
0.2857142857142857
 40
0.2857142857142857
 40
0.2857142857142857
 40
0.2857142857142857
 40
0.4285714285714285
 40
0.4285714285714285
 40
0.4285714285714285
 40
0.4285714285714285
 40
0.5714285714285714
 40
0.5714285714285714
 40
0.5714285714285714
 40
0.5714285714285714
 40
0.7142857142857143
 40
0.7142857142857143
 40
0.7142857142857143
 40
0.7142857142857143
 40
1.0
 40
1.0
 40
1.0
 40
1.0
 10
30.5899
 20
41.7545
 30
0.0
 10
31.8602
 20
43.3241
 30
0.0
 10
33.4637
 20
44.7406
 30
0.0
 10
35.3421
 20
45.9525
 30
0.0
 10
35.3421
 20
45.9525
 30
0.0
 10
33.5749
 20
47.3102
 30
0.0
 10
32.0624
 20
48.8289
 30
0.0
 10
30.8433
 20
50.4698
 30
0.0
 10
30.8433
 20
50.4698
 30
0.0
 10
27.524
 20
55.7106
 30
0.0
 10
25.3032
 20
61.2773
 30
0.0
 10
24.2524
 20
66.9874
 30
0.0
 10
24.2524
 20
66.9874
 30
0.0
 10
21.6536
 20
68.0456
 30
0.0
 10
19.2479
 20
69.3325
 30
0.0
 10
17.0914
 20
70.8198
 30
0.0
 10
17.0914
 20
70.8198
 30
0.0
 10
17.7925
 20
65.097
 30
0.0
 10
19.3867
 20
59.4495
 30
0.0
 10
21.8448
 20
53.9829
 30
0.0
 10
21.8448
 20
53.9829
 30
0.0
 10
24.1093
 20
49.6824
 30
0.0
 10
27.0434
 20
45.5801
 30
0.0
 10
30.5899
 20
41.7545
 30
0.0
  0
SPLINE
  5
55
330
1F
100
AcDbEntity
  8
layer 1
 62
     7
370
     9
100
AcDbSpline
210
0.0
220
0.0
230
1.0
 70
    11
 71
     3
 72
    24
 73
    20
 74
     0
 42
0.0000000001
 43
0.0000000001
 12
1.0
 22
0.0
 32
0.0
 13
1.0
 23
0.0
 33
0.0
 40
0.0
 40
0.0
 40
0.0
 40
0.0
 40
0.1666666666666667
 40
0.1666666666666667
 40
0.1666666666666667
 40
0.1666666666666667
 40
0.3333333333333333
 40
0.3333333333333333
 40
0.3333333333333333
 40
0.3333333333333333
 40
0.5
 40
0.5
 40
0.5
 40
0.5
 40
0.6666666666666666
 40
0.6666666666666666
 40
0.6666666666666666
 40
0.6666666666666666
 40
1.0
 40
1.0
 40
1.0
 40
1.0
 10
27.8009
 20
60.554
 30
0.0
 10
31.071
 20
67.362
 30
0.0
 10
31.4462
 20
74.7176
 30
0.0
 10
28.8789
 20
81.6794
 30
0.0
 10
28.8789
 20
81.6794
 30
0.0
 10
31.2982
 20
81.5057
 30
0.0
 10
33.6682
 20
81.0753
 30
0.0
 10
35.9125
 20
80.402
 30
0.0
 10
35.9125
 20
80.402
 30
0.0
 10
36.6277
 20
75.3622
 30
0.0
 10
36.542
 20
70.2797
 30
0.0
 10
35.659
 20
65.253
 30
0.0
 10
35.659
 20
65.253
 30
0.0
 10
34.9272
 20
61.1927
 30
0.0
 10
33.523
 20
57.2103
 30
0.0
 10
31.4769
 20
53.3896
 30
0.0
 10
31.4769
 20
53.3896
 30
0.0
 10
30.2935
 20
55.7894
 30
0.0
 10
29.0681
 20
58.1771
 30
0.0
 10
27.8009
 20
60.554
 30
0.0
  0
SPLINE
  5
56
330
1F
100
AcDbEntity
  8
layer 1
 62
     7
370
     9
100
AcDbSpline
210
0.0
220
0.0
230
1.0
 70
    11
 71
     3
 72
    24
 73
    20
 74
     0
 42
0.0000000001
 43
0.0000000001
 12
1.0
 22
0.0
 32
0.0
 13
1.0
 23
0.0
 33
0.0
 40
0.0
 40
0.0
 40
0.0
 40
0.0
 40
0.1666666666666667
 40
0.1666666666666667
 40
0.1666666666666667
 40
0.1666666666666667
 40
0.3333333333333333
 40
0.3333333333333333
 40
0.3333333333333333
 40
0.3333333333333333
 40
0.5
 40
0.5
 40
0.5
 40
0.5
 40
0.6666666666666666
 40
0.6666666666666666
 40
0.6666666666666666
 40
0.6666666666666666
 40
1.0
 40
1.0
 40
1.0
 40
1.0
 10
19.816
 20
93.5883
 30
0.0
 10
17.6421
 20
89.1454
 30
0.0
 10
16.5068
 20
84.4734
 30
0.0
 10
16.4578
 20
79.7633
 30
0.0
 10
16.4578
 20
79.7633
 30
0.0
 10
17.1354
 20
80.0303
 30
0.0
 10
17.7545
 20
80.3689
 30
0.0
 10
18.2954
 20
80.7668
 30
0.0
 10
18.2954
 20
80.7668
 30
0.0
 10
19.4368
 20
79.4263
 30
0.0
 10
21.1477
 20
78.3865
 30
0.0
 10
23.1753
 20
77.8014
 30
0.0
 10
23.1753
 20
77.8014
 30
0.0
 10
23.0035
 20
81.087
 30
0.0
 10
23.4726
 20
84.3741
 30
0.0
 10
24.5694
 20
87.5655
 30
0.0
 10
24.5694
 20
87.5655
 30
0.0
 10
23.0823
 20
89.6126
 30
0.0
 10
21.4971
 20
91.6215
 30
0.0
 10
19.816
 20
93.5883
 30
0.0
  0
SPLINE
  5
57
330
1F
100
AcDbEntity
  8
layer 1
 62
     7
370
     9
100
AcDbSpline
210
0.0
220
0.0
230
1.0
 70
    11
 71
     3
 72
    20
 73
    16
 74
     0
 42
0.0000000001
 43
0.0000000001
 12
1.0
 22
0.0
 32
0.0
 13
1.0
 23
0.0
 33
0.0
 40
0.0
 40
0.0
 40
0.0
 40
0.0
 40
0.2
 40
0.2
 40
0.2
 40
0.2
 40
0.4
 40
0.4
 40
0.4
 40
0.4
 40
0.6
 40
0.6
 40
0.6
 40
0.6
 40
1.0
 40
1.0
 40
1.0
 40
1.0
 10
13.7964
 20
74.8353
 30
0.0
 10
14.9708
 20
76.0236
 30
0.0
 10
16.3321
 20
77.1105
 30
0.0
 10
17.8519
 20
78.0752
 30
0.0
 10
17.8519
 20
78.0752
 30
0.0
 10
21.1283
 20
76.184
 30
0.0
 10
24.8993
 20
74.7875
 30
0.0
 10
28.9415
 20
73.9684
 30
0.0
 10
28.9415
 20
73.9684
 30
0.0
 10
28.9128
 20
72.2788
 30
0.0
 10
28.8279
 20
70.5901
 30
0.0
 10
28.6889
 20
68.9037
 30
0.0
 10
28.6889
 20
68.9037
 30
0.0
 10
23.1997
 20
70.1031
 30
0.0
 10
18.1247
 20
72.1245
 30
0.0
 10
13.7964
 20
74.8353
 30
0.0
  0
SPLINE
  5
58
330
1F
100
AcDbEntity
  8
layer 1
 62
     7
370
     9
100
AcDbSpline
210
0.0
220
0.0
230
1.0
 70
    11
 71
     3
 72
    24
 73
    20
 74
     0
 42
0.0000000001
 43
0.0000000001
 12
1.0
 22
0.0
 32
0.0
 13
1.0
 23
0.0
 33
0.0
 40
0.0
 40
0.0
 40
0.0
 40
0.0
 40
0.1666666666666667
 40
0.1666666666666667
 40
0.1666666666666667
 40
0.1666666666666667
 40
0.3333333333333333
 40
0.3333333333333333
 40
0.3333333333333333
 40
0.3333333333333333
 40
0.5
 40
0.5
 40
0.5
 40
0.5
 40
0.6666666666666666
 40
0.6666666666666666
 40
0.6666666666666666
 40
0.6666666666666666
 40
1.0
 40
1.0
 40
1.0
 40
1.0
 10
25.6465
 20
84.0062
 30
0.0
 10
25.9254
 20
85.483
 30
0.0
 10
26.5917
 20
86.9076
 30
0.0
 10
27.6106
 20
88.2042
 30
0.0
 10
27.6106
 20
88.2042
 30
0.0
 10
35.4362
 20
88.1548
 30
0.0
 10
42.8783
 20
85.7567
 30
0.0
 10
48.1435
 20
81.5881
 30
0.0
 10
48.1435
 20
81.5881
 30
0.0
 10
46.9447
 20
80.7668
 30
0.0
 10
45.6029
 20
80.0612
 30
0.0
 10
44.1506
 20
79.4895
 30
0.0
 10
44.1506
 20
79.4895
 30
0.0
 10
41.9217
 20
80.6845
 30
0.0
 10
39.5937
 20
81.7816
 30
0.0
 10
37.1805
 20
82.7743
 30
0.0
 10
37.1805
 20
82.7743
 30
0.0
 10
33.6076
 20
84.04
 30
0.0
 10
29.5759
 20
84.4705
 30
0.0
 10
25.6465
 20
84.0062
 30
0.0
  0
SPLINE
  5
59
330
1F
100
AcDbEntity
  8
layer 1
 62
     7
370
     9
100
AcDbSpline
210
0.0
220
0.0
230
1.0
 70
    11
 71
     3
 72
    28
 73
    24
 74
     0
 42
0.0000000001
 43
0.0000000001
 12
1.0
 22
0.0
 32
0.0
 13
1.0
 23
0.0
 33
0.0
 40
0.0
 40
0.0
 40
0.0
 40
0.0
 40
0.1428571428571428
 40
0.1428571428571428
 40
0.1428571428571428
 40
0.1428571428571428
 40
0.2857142857142857
 40
0.2857142857142857
 40
0.2857142857142857
 40
0.2857142857142857
 40
0.4285714285714285
 40
0.4285714285714285
 40
0.4285714285714285
 40
0.4285714285714285
 40
0.5714285714285714
 40
0.5714285714285714
 40
0.5714285714285714
 40
0.5714285714285714
 40
0.7142857142857143
 40
0.7142857142857143
 40
0.7142857142857143
 40
0.7142857142857143
 40
1.0
 40
1.0
 40
1.0
 40
1.0
 10
37.5597
 20
75.2914
 30
0.0
 10
37.6353
 20
72.9801
 30
0.0
 10
37.6353
 20
70.6675
 30
0.0
 10
37.5597
 20
68.3561
 30
0.0
 10
37.5597
 20
68.3561
 30
0.0
 10
42.1975
 20
69.4959
 30
0.0
 10
46.5113
 20
71.2267
 30
0.0
 10
50.298
 20
73.4665
 30
0.0
 10
50.298
 20
73.4665
 30
0.0
 10
55.8318
 20
77.4601
 30
0.0
 10
60.2439
 20
82.1848
 30
0.0
 10
63.2895
 20
87.383
 30
0.0
 10
63.2895
 20
87.383
 30
0.0
 10
61.606
 20
89.0304
 30
0.0
 10
59.5744
 20
90.4778
 30
0.0
 10
57.2687
 20
91.6722
 30
0.0
 10
57.2687
 20
91.6722
 30
0.0
 10
55.795
 20
88.2424
 30
0.0
 10
53.6388
 20
84.9841
 30
0.0
 10
50.8681
 20
81.9988
 30
0.0
 10
50.8681
 20
81.9988
 30
0.0
 10
47.609
 20
78.7471
 30
0.0
 10
42.92
 20
76.3834
 30
0.0
 10
37.5597
 20
75.2914
 30
0.0
  0
SPLINE
  5
5A
330
1F
100
AcDbEntity
  8
layer 1
 62
     7
370
     9
100
AcDbSpline
210
0.0
220
0.0
230
1.0
 70
    11
 71
     3
 72
    36
 73
    32
 74
     0
 42
0.0000000001
 43
0.0000000001
 12
1.0
 22
0.0
 32
0.0
 13
1.0
 23
0.0
 33
0.0
 40
0.0
 40
0.0
 40
0.0
 40
0.0
 40
0.1111111111111111
 40
0.1111111111111111
 40
0.1111111111111111
 40
0.1111111111111111
 40
0.2222222222222222
 40
0.2222222222222222
 40
0.2222222222222222
 40
0.2222222222222222
 40
0.3333333333333333
 40
0.3333333333333333
 40
0.3333333333333333
 40
0.3333333333333333
 40
0.4444444444444444
 40
0.4444444444444444
 40
0.4444444444444444
 40
0.4444444444444444
 40
0.5555555555555556
 40
0.5555555555555556
 40
0.5555555555555556
 40
0.5555555555555556
 40
0.6666666666666666
 40
0.6666666666666666
 40
0.6666666666666666
 40
0.6666666666666666
 40
0.7777777777777778
 40
0.7777777777777778
 40
0.7777777777777778
 40
0.7777777777777778
 40
1.0
 40
1.0
 40
1.0
 40
1.0
 10
52.8957
 20
72.6453
 30
0.0
 10
57.0349
 20
69.4973
 30
0.0
 10
60.1897
 20
65.7476
 30
0.0
 10
62.1478
 20
61.6488
 30
0.0
 10
62.1478
 20
61.6488
 30
0.0
 10
63.9546
 20
57.7547
 30
0.0
 10
64.7916
 20
53.6612
 30
0.0
 10
64.6201
 20
49.5575
 30
0.0
 10
64.6201
 20
49.5575
 30
0.0
 10
63.3967
 20
49.9085
 30
0.0
 10
62.1211
 20
50.1534
 30
0.0
 10
60.8181
 20
50.2873
 30
0.0
 10
60.8181
 20
50.2873
 30
0.0
 10
60.5116
 20
47.9672
 30
0.0
 10
60.4267
 20
45.6346
 30
0.0
 10
60.5637
 20
43.3063
 30
0.0
 10
60.5637
 20
43.3063
 30
0.0
 10
65.97
 20
42.3387
 30
0.0
 10
70.6875
 20
39.9656
 30
0.0
 10
73.8087
 20
36.6441
 30
0.0
 10
73.8087
 20
36.6441
 30
0.0
 10
75.4061
 20
43.8708
 30
0.0
 10
74.4915
 20
51.2704
 30
0.0
 10
71.1475
 20
58.1809
 30
0.0
 10
71.1475
 20
58.1809
 30
0.0
 10
68.0182
 20
64.8387
 30
0.0
 10
63.5786
 20
71.1383
 30
0.0
 10
57.9657
 20
76.8882
 30
0.0
 10
57.9657
 20
76.8882
 30
0.0
 10
56.5227
 20
75.3305
 30
0.0
 10
54.8202
 20
73.9052
 30
0.0
 10
52.8957
 20
72.6453
 30
0.0
  0
SPLINE
  5
5B
330
1F
100
AcDbEntity
  8
layer 1
 62
     7
370
     9
100
AcDbSpline
210
0.0
220
0.0
230
1.0
 70
    11
 71
     3
 72
    36
 73
    32
 74
     0
 42
0.0000000001
 43
0.0000000001
 12
1.0
 22
0.0
 32
0.0
 13
1.0
 23
0.0
 33
0.0
 40
0.0
 40
0.0
 40
0.0
 40
0.0
 40
0.1111111111111111
 40
0.1111111111111111
 40
0.1111111111111111
 40
0.1111111111111111
 40
0.2222222222222222
 40
0.2222222222222222
 40
0.2222222222222222
 40
0.2222222222222222
 40
0.3333333333333333
 40
0.3333333333333333
 40
0.3333333333333333
 40
0.3333333333333333
 40
0.4444444444444444
 40
0.4444444444444444
 40
0.4444444444444444
 40
0.4444444444444444
 40
0.5555555555555556
 40
0.5555555555555556
 40
0.5555555555555556
 40
0.5555555555555556
 40
0.6666666666666666
 40
0.6666666666666666
 40
0.6666666666666666
 40
0.6666666666666666
 40
0.7777777777777778
 40
0.7777777777777778
 40
0.7777777777777778
 40
0.7777777777777778
 40
1.0
 40
1.0
 40
1.0
 40
1.0
 10
30.4314
 20
103.9006
 30
0.0
 10
34.3232
 20
105.7614
 30
0.0
 10
39.0038
 20
106.5694
 30
0.0
 10
43.6436
 20
106.1817
 30
0.0
 10
43.6436
 20
106.1817
 30
0.0
 10
49.4608
 20
105.4016
 30
0.0
 10
54.9358
 20
103.6342
 30
0.0
 10
59.6132
 20
101.0256
 30
0.0
 10
59.6132
 20
101.0256
 30
0.0
 10
66.3023
 20
97.1004
 30
0.0
 10
71.8199
 20
92.2425
 30
0.0
 10
75.8363
 20
86.7443
 30
0.0
 10
75.8363
 20
86.7443
 30
0.0
 10
74.4843
 20
85.2254
 30
0.0
 10
72.9573
 20
83.7914
 30
0.0
 10
71.2741
 20
82.4549
 30
0.0
 10
71.2741
 20
82.4549
 30
0.0
 10
67.4744
 20
86.9811
 30
0.0
 10
62.6802
 20
91.0341
 30
0.0
 10
57.0786
 20
94.4551
 30
0.0
 10
57.0786
 20
94.4551
 30
0.0
 10
53.2891
 20
96.8599
 30
0.0
 10
48.6311
 20
98.4421
 30
0.0
 10
43.6436
 20
99.0182
 30
0.0
 10
43.6436
 20
99.0182
 30
0.0
 10
39.3135
 20
99.3419
 30
0.0
 10
34.9863
 20
98.378
 30
0.0
 10
31.667
 20
96.3493
 30
0.0
 10
31.667
 20
96.3493
 30
0.0
 10
30.9505
 20
98.8357
 30
0.0
 10
30.5366
 20
101.3619
 30
0.0
 10
30.4314
 20
103.9006
 30
0.0
  0
SPLINE
  5
5C
330
1F
100
AcDbEntity
  8
layer 1
 62
     7
370
     9
100
AcDbSpline
210
0.0
220
0.0
230
1.0
 70
    11
 71
     3
 72
    32
 73
    28
 74
     0
 42
0.0000000001
 43
0.0000000001
 12
1.0
 22
0.0
 32
0.0
 13
1.0
 23
0.0
 33
0.0
 40
0.0
 40
0.0
 40
0.0
 40
0.0
 40
0.125
 40
0.125
 40
0.125
 40
0.125
 40
0.25
 40
0.25
 40
0.25
 40
0.25
 40
0.375
 40
0.375
 40
0.375
 40
0.375
 40
0.5
 40
0.5
 40
0.5
 40
0.5
 40
0.625
 40
0.625
 40
0.625
 40
0.625
 40
0.75
 40
0.75
 40
0.75
 40
0.75
 40
1.0
 40
1.0
 40
1.0
 40
1.0
 10
57.1421
 20
65.0705
 30
0.0
 10
52.3276
 20
56.094
 30
0.0
 10
51.0981
 20
46.3263
 30
0.0
 10
53.5927
 20
36.8729
 30
0.0
 10
53.5927
 20
36.8729
 30
0.0
 10
50.7291
 20
36.5867
 30
0.0
 10
47.8306
 20
37.1827
 30
0.0
 10
45.6081
 20
38.5153
 30
0.0
 10
45.6081
 20
38.5153
 30
0.0
 10
43.143
 20
37.2467
 30
0.0
 10
41.0346
 20
35.652
 30
0.0
 10
39.3984
 20
33.8154
 30
0.0
 10
39.3984
 20
33.8154
 30
0.0
 10
45.1359
 20
27.9316
 30
0.0
 10
55.3086
 20
25.1943
 30
0.0
 10
65.0001
 20
26.9256
 30
0.0
 10
65.0001
 20
26.9256
 30
0.0
 10
63.1249
 20
29.6122
 30
0.0
 10
61.6185
 20
32.424
 30
0.0
 10
60.5003
 20
35.321
 30
0.0
 10
60.5003
 20
35.321
 30
0.0
 10
57.7667
 20
43.2365
 30
0.0
 10
58.1172
 20
51.5413
 30
0.0
 10
61.5151
 20
59.3214
 30
0.0
 10
61.5151
 20
59.3214
 30
0.0
 10
60.21
 20
61.2963
 30
0.0
 10
58.7496
 20
63.2155
 30
0.0
 10
57.1421
 20
65.0705
 30
0.0
  0
SPLINE
  5
5D
330
1F
100
AcDbEntity
  8
layer 1
 62
     7
370
     9
100
AcDbSpline
210
0.0
220
0.0
230
1.0
 70
    11
 71
     3
 72
    48
 73
    44
 74
     0
 42
0.0000000001
 43
0.0000000001
 12
1.0
 22
0.0
 32
0.0
 13
1.0
 23
0.0
 33
0.0
 40
0.0
 40
0.0
 40
0.0
 40
0.0
 40
0.0833333333333333
 40
0.0833333333333333
 40
0.0833333333333333
 40
0.0833333333333333
 40
0.1666666666666667
 40
0.1666666666666667
 40
0.1666666666666667
 40
0.1666666666666667
 40
0.25
 40
0.25
 40
0.25
 40
0.25
 40
0.3333333333333333
 40
0.3333333333333333
 40
0.3333333333333333
 40
0.3333333333333333
 40
0.4166666666666667
 40
0.4166666666666667
 40
0.4166666666666667
 40
0.4166666666666667
 40
0.5
 40
0.5
 40
0.5
 40
0.5
 40
0.5833333333333334
 40
0.5833333333333334
 40
0.5833333333333334
 40
0.5833333333333334
 40
0.6666666666666666
 40
0.6666666666666666
 40
0.6666666666666666
 40
0.6666666666666666
 40
0.75
 40
0.75
 40
0.75
 40
0.75
 40
0.8333333333333334
 40
0.8333333333333334
 40
0.8333333333333334
 40
0.8333333333333334
 40
1.0
 40
1.0
 40
1.0
 40
1.0
 10
59.5498
 20
107.6879
 30
0.0
 10
59.6949
 20
106.2758
 30
0.0
 10
59.7595
 20
104.8601
 30
0.0
 10
59.7401
 20
103.4442
 30
0.0
 10
59.7401
 20
103.4442
 30
0.0
 10
62.7874
 20
102.0277
 30
0.0
 10
65.5225
 20
100.2897
 30
0.0
 10
67.8516
 20
98.2881
 30
0.0
 10
67.8516
 20
98.2881
 30
0.0
 10
69.9209
 20
99.5943
 30
0.0
 10
72.8941
 20
99.8482
 30
0.0
 10
75.3293
 20
98.9268
 30
0.0
 10
75.3293
 20
98.9268
 30
0.0
 10
77.8966
 20
97.5214
 30
0.0
 10
79.4552
 20
95.3617
 30
0.0
 10
79.5757
 20
93.0409
 30
0.0
 10
79.5757
 20
93.0409
 30
0.0
 10
79.87
 20
89.7686
 30
0.0
 10
78.6191
 20
86.5205
 30
0.0
 10
76.0263
 20
83.8237
 30
0.0
 10
76.0263
 20
83.8237
 30
0.0
 10
71.7127
 20
80.7595
 30
0.0
 10
67.6297
 20
77.5306
 30
0.0
 10
63.7962
 20
74.1509
 30
0.0
 10
63.7962
 20
74.1509
 30
0.0
 10
65.2383
 20
72.3739
 30
0.0
 10
66.4677
 20
70.5115
 30
0.0
 10
67.4713
 20
68.5843
 30
0.0
 10
67.4713
 20
68.5843
 30
0.0
 10
70.1489
 20
71.4046
 30
0.0
 10
73.7085
 20
73.7337
 30
0.0
 10
77.865
 20
75.3828
 30
0.0
 10
77.865
 20
75.3828
 30
0.0
 10
81.3825
 20
76.1112
 30
0.0
 10
85.0463
 20
76.407
 30
0.0
 10
88.7012
 20
76.2599
 30
0.0
 10
88.7012
 20
76.2599
 30
0.0
 10
88.7012
 20
76.2599
 30
0.0
 10
88.7012
 20
107.6879
 30
0.0
 10
88.7012
 20
107.6879
 30
0.0
 10
88.7012
 20
107.6879
 30
0.0
 10
88.7012
 20
107.6879
 30
0.0
 10
59.5498
 20
107.6879
 30
0.0
 10
59.5498
 20
107.6879
 30
0.0
  0
SPLINE
  5
5E
330
1F
100
AcDbEntity
  8
layer 1
 62
     7
370
     9
100
AcDbSpline
210
0.0
220
0.0
230
1.0
 70
    11
 71
     3
 72
    32
 73
    28
 74
     0
 42
0.0000000001
 43
0.0000000001
 12
1.0
 22
0.0
 32
0.0
 13
1.0
 23
0.0
 33
0.0
 40
0.0
 40
0.0
 40
0.0
 40
0.0
 40
0.125
 40
0.125
 40
0.125
 40
0.125
 40
0.25
 40
0.25
 40
0.25
 40
0.25
 40
0.375
 40
0.375
 40
0.375
 40
0.375
 40
0.5
 40
0.5
 40
0.5
 40
0.5
 40
0.625
 40
0.625
 40
0.625
 40
0.625
 40
0.75
 40
0.75
 40
0.75
 40
0.75
 40
1.0
 40
1.0
 40
1.0
 40
1.0
 10
84.2647
 20
73.4211
 30
0.0
 10
85.2541
 20
72.162
 30
0.0
 10
86.8228
 20
71.1913
 30
0.0
 10
88.7012
 20
70.6777
 30
0.0
 10
88.7012
 20
70.6777
 30
0.0
 10
88.7012
 20
70.6777
 30
0.0
 10
88.7012
 20
22.6364
 30
0.0
 10
88.7012
 20
22.6364
 30
0.0
 10
88.7012
 20
22.6364
 30
0.0
 10
88.7012
 20
22.6364
 30
0.0
 10
81.0966
 20
22.6364
 30
0.0
 10
81.0966
 20
22.6364
 30
0.0
 10
81.0966
 20
22.6364
 30
0.0
 10
81.0966
 20
22.6364
 30
0.0
 10
81.0966
 20
25.9221
 30
0.0
 10
81.0966
 20
25.9221
 30
0.0
 10
81.0966
 20
25.9221
 30
0.0
 10
81.3591
 20
37.511
 30
0.0
 10
81.3376
 20
49.1019
 30
0.0
 10
81.0332
 20
60.6908
 30
0.0
 10
81.0332
 20
60.6908
 30
0.0
 10
80.8431
 20
64.6195
 30
0.0
 10
79.7066
 20
68.4944
 30
0.0
 10
77.675
 20
72.1435
 30
0.0
 10
77.675
 20
72.1435
 30
0.0
 10
79.5656
 20
73.1576
 30
0.0
 10
81.9222
 20
73.6144
 30
0.0
 10
84.2647
 20
73.4211
 30
0.0
  0
SPLINE
  5
5F
330
1F
100
AcDbEntity
  8
layer 1
 62
     7
370
     9
100
AcDbSpline
210
0.0
220
0.0
230
1.0
 70
    11
 71
     3
 72
    32
 73
    28
 74
     0
 42
0.0000000001
 43
0.0000000001
 12
1.0
 22
0.0
 32
0.0
 13
1.0
 23
0.0
 33
0.0
 40
0.0
 40
0.0
 40
0.0
 40
0.0
 40
0.125
 40
0.125
 40
0.125
 40
0.125
 40
0.25
 40
0.25
 40
0.25
 40
0.25
 40
0.375
 40
0.375
 40
0.375
 40
0.375
 40
0.5
 40
0.5
 40
0.5
 40
0.5
 40
0.625
 40
0.625
 40
0.625
 40
0.625
 40
0.75
 40
0.75
 40
0.75
 40
0.75
 40
1.0
 40
1.0
 40
1.0
 40
1.0
 10
74.5057
 20
19.1691
 30
0.0
 10
74.5057
 20
19.1691
 30
0.0
 10
93.8969
 20
19.4884
 30
0.0
 10
93.8969
 20
19.4884
 30
0.0
 10
93.8969
 20
19.4884
 30
0.0
 10
93.8969
 20
19.4884
 30
0.0
 10
93.8335
 20
10.9556
 30
0.0
 10
93.8335
 20
10.9556
 30
0.0
 10
93.8335
 20
10.9556
 30
0.0
 10
93.8335
 20
10.9556
 30
0.0
 10
33.7875
 20
10.9556
 30
0.0
 10
33.7875
 20
10.9556
 30
0.0
 10
33.7875
 20
10.9556
 30
0.0
 10
33.3052
 20
12.7511
 30
0.0
 10
32.4173
 20
14.4774
 30
0.0
 10
31.16
 20
16.066
 30
0.0
 10
31.16
 20
16.066
 30
0.0
 10
31.1559
 20
18.3479
 30
0.0
 10
31.7591
 20
20.6092
 30
0.0
 10
32.9344
 20
22.7276
 30
0.0
 10
32.9344
 20
22.7276
 30
0.0
 10
36.7932
 20
20.3201
 30
0.0
 10
41.7725
 20
19.0492
 30
0.0
 10
46.8764
 20
19.1691
 30
0.0
 10
46.8764
 20
19.1691
 30
0.0
 10
46.8764
 20
19.1691
 30
0.0
 10
74.5057
 20
19.1691
 30
0.0
 10
74.5057
 20
19.1691
 30
0.0
  0
SPLINE
  5
60
330
1F
100
AcDbEntity
  8
layer 1
 62
     7
370
     9
100
AcDbSpline
210
0.0
220
0.0
230
1.0
 70
    11
 71
     3
 72
    44
 73
    40
 74
     0
 42
0.0000000001
 43
0.0000000001
 12
1.0
 22
0.0
 32
0.0
 13
1.0
 23
0.0
 33
0.0
 40
0.0
 40
0.0
 40
0.0
 40
0.0
 40
0.0909090909090909
 40
0.0909090909090909
 40
0.0909090909090909
 40
0.0909090909090909
 40
0.1818181818181818
 40
0.1818181818181818
 40
0.1818181818181818
 40
0.1818181818181818
 40
0.2727272727272727
 40
0.2727272727272727
 40
0.2727272727272727
 40
0.2727272727272727
 40
0.3636363636363636
 40
0.3636363636363636
 40
0.3636363636363636
 40
0.3636363636363636
 40
0.4545454545454545
 40
0.4545454545454545
 40
0.4545454545454545
 40
0.4545454545454545
 40
0.5454545454545454
 40
0.5454545454545454
 40
0.5454545454545454
 40
0.5454545454545454
 40
0.6363636363636364
 40
0.6363636363636364
 40
0.6363636363636364
 40
0.6363636363636364
 40
0.7272727272727273
 40
0.7272727272727273
 40
0.7272727272727273
 40
0.7272727272727273
 40
0.8181818181818182
 40
0.8181818181818182
 40
0.8181818181818182
 40
0.8181818181818182
 40
1.0
 40
1.0
 40
1.0
 40
1.0
 10
176.9775
 20
-71.107
 30
0.0
 10
178.9362
 20
-74.2504
 30
0.0
 10
178.6526
 20
-77.8832
 30
0.0
 10
176.2171
 20
-80.8486
 30
0.0
 10
176.2171
 20
-80.8486
 30
0.0
 10
173.7967
 20
-82.4285
 30
0.0
 10
170.1146
 20
-82.4481
 30
0.0
 10
167.6617
 20
-80.8943
 30
0.0
 10
167.6617
 20
-80.8943
 30
0.0
 10
164.6938
 20
-78.7832
 30
0.0
 10
162.5042
 20
-76.1717
 30
0.0
 10
161.2927
 20
-73.297
 30
0.0
 10
161.2927
 20
-73.297
 30
0.0
 10
161.0074
 20
-73.851
 30
0.0
 10
160.5647
 20
-74.356
 30
0.0
 10
159.9937
 20
-74.78
 30
0.0
 10
159.9937
 20
-74.78
 30
0.0
 10
158.2367
 20
-74.7302
 30
0.0
 10
156.4826
 20
-74.6392
 30
0.0
 10
154.734
 20
-74.5064
 30
0.0
 10
154.734
 20
-74.5064
 30
0.0
 10
156.9432
 20
-80.0076
 30
0.0
 10
158.0528
 20
-85.7077
 30
0.0
 10
158.0293
 20
-91.4346
 30
0.0
 10
158.0293
 20
-91.4346
 30
0.0
 10
158.0293
 20
-91.4346
 30
0.0
 10
186.5463
 20
-91.4346
 30
0.0
 10
186.5463
 20
-91.4346
 30
0.0
 10
186.5463
 20
-91.4346
 30
0.0
 10
186.5463
 20
-91.4346
 30
0.0
 10
186.5463
 20
-59.951
 30
0.0
 10
186.5463
 20
-59.951
 30
0.0
 10
186.5463
 20
-59.951
 30
0.0
 10
186.028
 20
-60.0463
 30
0.0
 10
185.4967
 20
-60.0999
 30
0.0
 10
184.9622
 20
-60.1103
 30
0.0
 10
184.9622
 20
-60.1103
 30
0.0
 10
183.1568
 20
-64.0668
 30
0.0
 10
180.4591
 20
-67.7819
 30
0.0
 10
176.9775
 20
-71.107
 30
0.0
  0
SPLINE
  5
61
330
1F
100
AcDbEntity
  8
layer 1
 62
     7
370
     9
100
AcDbSpline
210
0.0
220
0.0
230
1.0
 70
    11
 71
     3
 72
    32
 73
    28
 74
     0
 42
0.0000000001
 43
0.0000000001
 12
1.0
 22
0.0
 32
0.0
 13
1.0
 23
0.0
 33
0.0
 40
0.0
 40
0.0
 40
0.0
 40
0.0
 40
0.125
 40
0.125
 40
0.125
 40
0.125
 40
0.25
 40
0.25
 40
0.25
 40
0.25
 40
0.375
 40
0.375
 40
0.375
 40
0.375
 40
0.5
 40
0.5
 40
0.5
 40
0.5
 40
0.625
 40
0.625
 40
0.625
 40
0.625
 40
0.75
 40
0.75
 40
0.75
 40
0.75
 40
1.0
 40
1.0
 40
1.0
 40
1.0
 10
168.1053
 20
-8.7106
 30
0.0
 10
166.7576
 20
-10.532
 30
0.0
 10
165.3415
 20
-12.3273
 30
0.0
 10
163.8592
 20
-14.0942
 30
0.0
 10
163.8592
 20
-14.0942
 30
0.0
 10
168.2846
 20
-18.6704
 30
0.0
 10
171.8235
 20
-23.6594
 30
0.0
 10
174.379
 20
-28.9237
 30
0.0
 10
174.379
 20
-28.9237
 30
0.0
 10
177.3107
 20
-34.9481
 30
0.0
 10
178.7687
 20
-41.2935
 30
0.0
 10
178.6882
 20
-47.6769
 30
0.0
 10
178.6882
 20
-47.6769
 30
0.0
 10
178.643
 20
-53.0616
 30
0.0
 10
176.1006
 20
-58.2808
 30
0.0
 10
171.464
 20
-62.5059
 30
0.0
 10
171.464
 20
-62.5059
 30
0.0
 10
171.61
 20
-65.5033
 30
0.0
 10
171.5254
 20
-68.5043
 30
0.0
 10
171.2105
 20
-71.4948
 30
0.0
 10
171.2105
 20
-71.4948
 30
0.0
 10
179.4901
 20
-66.4612
 30
0.0
 10
184.4746
 20
-59.1671
 30
0.0
 10
184.9622
 20
-51.3728
 30
0.0
 10
184.9622
 20
-51.3728
 30
0.0
 10
186.1859
 20
-36.1902
 30
0.0
 10
180.2453
 20
-21.1553
 30
0.0
 10
168.1053
 20
-8.7106
 30
0.0
  0
SPLINE
  5
62
330
1F
100
AcDbEntity
  8
layer 1
 62
     7
370
     9
100
AcDbSpline
210
0.0
220
0.0
230
1.0
 70
    11
 71
     3
 72
    20
 73
    16
 74
     0
 42
0.0000000001
 43
0.0000000001
 12
1.0
 22
0.0
 32
0.0
 13
1.0
 23
0.0
 33
0.0
 40
0.0
 40
0.0
 40
0.0
 40
0.0
 40
0.2
 40
0.2
 40
0.2
 40
0.2
 40
0.4
 40
0.4
 40
0.4
 40
0.4
 40
0.6
 40
0.6
 40
0.6
 40
0.6
 40
1.0
 40
1.0
 40
1.0
 40
1.0
 10
172.0979
 20
-28.9694
 30
0.0
 10
169.4243
 20
-30.6397
 30
0.0
 10
167.0221
 20
-32.522
 30
0.0
 10
164.9368
 20
-34.5816
 30
0.0
 10
164.9368
 20
-34.5816
 30
0.0
 10
163.7798
 20
-32.6956
 30
0.0
 10
162.5332
 20
-30.8383
 30
0.0
 10
161.1977
 20
-29.0148
 30
0.0
 10
161.1977
 20
-29.0148
 30
0.0
 10
163.3432
 20
-26.8382
 30
0.0
 10
165.8074
 20
-24.8337
 30
0.0
 10
168.5488
 20
-23.0376
 30
0.0
 10
168.5488
 20
-23.0376
 30
0.0
 10
169.7684
 20
-25.0031
 30
0.0
 10
170.9515
 20
-26.9803
 30
0.0
 10
172.0979
 20
-28.9694
 30
0.0
  0
SPLINE
  5
63
330
1F
100
AcDbEntity
  8
layer 1
 62
     7
370
     9
100
AcDbSpline
210
0.0
220
0.0
230
1.0
 70
    11
 71
     3
 72
    28
 73
    24
 74
     0
 42
0.0000000001
 43
0.0000000001
 12
1.0
 22
0.0
 32
0.0
 13
1.0
 23
0.0
 33
0.0
 40
0.0
 40
0.0
 40
0.0
 40
0.0
 40
0.1428571428571428
 40
0.1428571428571428
 40
0.1428571428571428
 40
0.1428571428571428
 40
0.2857142857142857
 40
0.2857142857142857
 40
0.2857142857142857
 40
0.2857142857142857
 40
0.4285714285714285
 40
0.4285714285714285
 40
0.4285714285714285
 40
0.4285714285714285
 40
0.5714285714285714
 40
0.5714285714285714
 40
0.5714285714285714
 40
0.5714285714285714
 40
0.7142857142857143
 40
0.7142857142857143
 40
0.7142857142857143
 40
0.7142857142857143
 40
1.0
 40
1.0
 40
1.0
 40
1.0
 10
156.1917
 20
-25.5932
 30
0.0
 10
154.9214
 20
-27.162
 30
0.0
 10
153.3176
 20
-28.5785
 30
0.0
 10
151.4387
 20
-29.7906
 30
0.0
 10
151.4387
 20
-29.7906
 30
0.0
 10
153.2058
 20
-31.1481
 30
0.0
 10
154.7186
 20
-32.667
 30
0.0
 10
155.938
 20
-34.3079
 30
0.0
 10
155.938
 20
-34.3079
 30
0.0
 10
159.2573
 20
-39.5487
 30
0.0
 10
161.4784
 20
-45.115
 30
0.0
 10
162.5289
 20
-50.8253
 30
0.0
 10
162.5289
 20
-50.8253
 30
0.0
 10
165.1275
 20
-51.8837
 30
0.0
 10
167.5331
 20
-53.1711
 30
0.0
 10
169.6893
 20
-54.6581
 30
0.0
 10
169.6893
 20
-54.6581
 30
0.0
 10
168.988
 20
-48.9351
 30
0.0
 10
167.3941
 20
-43.2872
 30
0.0
 10
164.9368
 20
-37.8212
 30
0.0
 10
164.9368
 20
-37.8212
 30
0.0
 10
162.6717
 20
-33.5205
 30
0.0
 10
159.7379
 20
-29.4183
 30
0.0
 10
156.1917
 20
-25.5932
 30
0.0
  0
SPLINE
  5
64
330
1F
100
AcDbEntity
  8
layer 1
 62
     7
370
     9
100
AcDbSpline
210
0.0
220
0.0
230
1.0
 70
    11
 71
     3
 72
    24
 73
    20
 74
     0
 42
0.0000000001
 43
0.0000000001
 12
1.0
 22
0.0
 32
0.0
 13
1.0
 23
0.0
 33
0.0
 40
0.0
 40
0.0
 40
0.0
 40
0.0
 40
0.1666666666666667
 40
0.1666666666666667
 40
0.1666666666666667
 40
0.1666666666666667
 40
0.3333333333333333
 40
0.3333333333333333
 40
0.3333333333333333
 40
0.3333333333333333
 40
0.5
 40
0.5
 40
0.5
 40
0.5
 40
0.6666666666666666
 40
0.6666666666666666
 40
0.6666666666666666
 40
0.6666666666666666
 40
1.0
 40
1.0
 40
1.0
 40
1.0
 10
158.9798
 20
-44.3919
 30
0.0
 10
155.7103
 20
-51.1997
 30
0.0
 10
155.3348
 20
-58.5551
 30
0.0
 10
157.9027
 20
-65.5175
 30
0.0
 10
157.9027
 20
-65.5175
 30
0.0
 10
155.4828
 20
-65.3438
 30
0.0
 10
153.1128
 20
-64.9132
 30
0.0
 10
150.8685
 20
-64.2401
 30
0.0
 10
150.8685
 20
-64.2401
 30
0.0
 10
150.1539
 20
-59.1999
 30
0.0
 10
150.239
 20
-54.1176
 30
0.0
 10
151.1217
 20
-49.0913
 30
0.0
 10
151.1217
 20
-49.0913
 30
0.0
 10
151.8541
 20
-45.031
 30
0.0
 10
153.2585
 20
-41.0482
 30
0.0
 10
155.3041
 20
-37.228
 30
0.0
 10
155.3041
 20
-37.228
 30
0.0
 10
156.4875
 20
-39.6269
 30
0.0
 10
157.7129
 20
-42.0148
 30
0.0
 10
158.9798
 20
-44.3919
 30
0.0
  0
SPLINE
  5
65
330
1F
100
AcDbEntity
  8
layer 1
 62
     7
370
     9
100
AcDbSpline
210
0.0
220
0.0
230
1.0
 70
    11
 71
     3
 72
    24
 73
    20
 74
     0
 42
0.0000000001
 43
0.0000000001
 12
1.0
 22
0.0
 32
0.0
 13
1.0
 23
0.0
 33
0.0
 40
0.0
 40
0.0
 40
0.0
 40
0.0
 40
0.1666666666666667
 40
0.1666666666666667
 40
0.1666666666666667
 40
0.1666666666666667
 40
0.3333333333333333
 40
0.3333333333333333
 40
0.3333333333333333
 40
0.3333333333333333
 40
0.5
 40
0.5
 40
0.5
 40
0.5
 40
0.6666666666666666
 40
0.6666666666666666
 40
0.6666666666666666
 40
0.6666666666666666
 40
1.0
 40
1.0
 40
1.0
 40
1.0
 10
166.9647
 20
-77.4266
 30
0.0
 10
169.1386
 20
-72.9835
 30
0.0
 10
170.2736
 20
-68.3118
 30
0.0
 10
170.3235
 20
-63.6012
 30
0.0
 10
170.3235
 20
-63.6012
 30
0.0
 10
169.6453
 20
-63.8686
 30
0.0
 10
169.0259
 20
-64.2068
 30
0.0
 10
168.4853
 20
-64.6047
 30
0.0
 10
168.4853
 20
-64.6047
 30
0.0
 10
167.3445
 20
-63.2644
 30
0.0
 10
165.633
 20
-62.2239
 30
0.0
 10
163.606
 20
-61.6391
 30
0.0
 10
163.606
 20
-61.6391
 30
0.0
 10
163.7775
 20
-64.9247
 30
0.0
 10
163.3082
 20
-68.2116
 30
0.0
 10
162.2117
 20
-71.4036
 30
0.0
 10
162.2117
 20
-71.4036
 30
0.0
 10
163.6984
 20
-73.4505
 30
0.0
 10
165.2839
 20
-75.4594
 30
0.0
 10
166.9647
 20
-77.4266
 30
0.0
  0
SPLINE
  5
66
330
1F
100
AcDbEntity
  8
layer 1
 62
     7
370
     9
100
AcDbSpline
210
0.0
220
0.0
230
1.0
 70
    11
 71
     3
 72
    20
 73
    16
 74
     0
 42
0.0000000001
 43
0.0000000001
 12
1.0
 22
0.0
 32
0.0
 13
1.0
 23
0.0
 33
0.0
 40
0.0
 40
0.0
 40
0.0
 40
0.0
 40
0.2
 40
0.2
 40
0.2
 40
0.2
 40
0.4
 40
0.4
 40
0.4
 40
0.4
 40
0.6
 40
0.6
 40
0.6
 40
0.6
 40
1.0
 40
1.0
 40
1.0
 40
1.0
 10
172.9849
 20
-58.6732
 30
0.0
 10
171.8096
 20
-59.8615
 30
0.0
 10
170.4489
 20
-60.9484
 30
0.0
 10
168.9294
 20
-61.9129
 30
0.0
 10
168.9294
 20
-61.9129
 30
0.0
 10
165.653
 20
-60.0219
 30
0.0
 10
161.8811
 20
-58.6252
 30
0.0
 10
157.8392
 20
-57.8063
 30
0.0
 10
157.8392
 20
-57.8063
 30
0.0
 10
157.8688
 20
-56.1167
 30
0.0
 10
157.9528
 20
-54.4282
 30
0.0
 10
158.0927
 20
-52.7416
 30
0.0
 10
158.0927
 20
-52.7416
 30
0.0
 10
163.5819
 20
-53.9412
 30
0.0
 10
168.6568
 20
-55.9624
 30
0.0
 10
172.9849
 20
-58.6732
 30
0.0
  0
SPLINE
  5
67
330
1F
100
AcDbEntity
  8
layer 1
 62
     7
370
     9
100
AcDbSpline
210
0.0
220
0.0
230
1.0
 70
    11
 71
     3
 72
    24
 73
    20
 74
     0
 42
0.0000000001
 43
0.0000000001
 12
1.0
 22
0.0
 32
0.0
 13
1.0
 23
0.0
 33
0.0
 40
0.0
 40
0.0
 40
0.0
 40
0.0
 40
0.1666666666666667
 40
0.1666666666666667
 40
0.1666666666666667
 40
0.1666666666666667
 40
0.3333333333333333
 40
0.3333333333333333
 40
0.3333333333333333
 40
0.3333333333333333
 40
0.5
 40
0.5
 40
0.5
 40
0.5
 40
0.6666666666666666
 40
0.6666666666666666
 40
0.6666666666666666
 40
0.6666666666666666
 40
1.0
 40
1.0
 40
1.0
 40
1.0
 10
161.1346
 20
-67.8447
 30
0.0
 10
160.8556
 20
-69.3209
 30
0.0
 10
160.189
 20
-70.7455
 30
0.0
 10
159.1701
 20
-72.0423
 30
0.0
 10
159.1701
 20
-72.0423
 30
0.0
 10
151.3448
 20
-71.9925
 30
0.0
 10
143.9031
 20
-69.5946
 30
0.0
 10
138.6378
 20
-65.4264
 30
0.0
 10
138.6378
 20
-65.4264
 30
0.0
 10
139.8363
 20
-64.6047
 30
0.0
 10
141.1784
 20
-63.8993
 30
0.0
 10
142.6298
 20
-63.3276
 30
0.0
 10
142.6298
 20
-63.3276
 30
0.0
 10
144.8596
 20
-64.5226
 30
0.0
 10
147.1874
 20
-65.6197
 30
0.0
 10
149.6011
 20
-66.6126
 30
0.0
 10
149.6011
 20
-66.6126
 30
0.0
 10
153.1737
 20
-67.8779
 30
0.0
 10
157.2057
 20
-68.3084
 30
0.0
 10
161.1346
 20
-67.8447
 30
0.0
  0
SPLINE
  5
68
330
1F
100
AcDbEntity
  8
layer 1
 62
     7
370
     9
100
AcDbSpline
210
0.0
220
0.0
230
1.0
 70
    11
 71
     3
 72
    28
 73
    24
 74
     0
 42
0.0000000001
 43
0.0000000001
 12
1.0
 22
0.0
 32
0.0
 13
1.0
 23
0.0
 33
0.0
 40
0.0
 40
0.0
 40
0.0
 40
0.0
 40
0.1428571428571428
 40
0.1428571428571428
 40
0.1428571428571428
 40
0.1428571428571428
 40
0.2857142857142857
 40
0.2857142857142857
 40
0.2857142857142857
 40
0.2857142857142857
 40
0.4285714285714285
 40
0.4285714285714285
 40
0.4285714285714285
 40
0.4285714285714285
 40
0.5714285714285714
 40
0.5714285714285714
 40
0.5714285714285714
 40
0.5714285714285714
 40
0.7142857142857143
 40
0.7142857142857143
 40
0.7142857142857143
 40
0.7142857142857143
 40
1.0
 40
1.0
 40
1.0
 40
1.0
 10
149.2205
 20
-59.1298
 30
0.0
 10
149.1463
 20
-56.8182
 30
0.0
 10
149.1463
 20
-54.5056
 30
0.0
 10
149.2205
 20
-52.194
 30
0.0
 10
149.2205
 20
-52.194
 30
0.0
 10
144.5836
 20
-53.334
 30
0.0
 10
140.2691
 20
-55.065
 30
0.0
 10
136.4833
 20
-57.3044
 30
0.0
 10
136.4833
 20
-57.3044
 30
0.0
 10
130.9486
 20
-61.2978
 30
0.0
 10
126.5371
 20
-66.0231
 30
0.0
 10
123.4921
 20
-71.2211
 30
0.0
 10
123.4921
 20
-71.2211
 30
0.0
 10
125.175
 20
-72.8685
 30
0.0
 10
127.2063
 20
-74.3157
 30
0.0
 10
129.512
 20
-75.5101
 30
0.0
 10
129.512
 20
-75.5101
 30
0.0
 10
130.986
 20
-72.0803
 30
0.0
 10
133.1417
 20
-68.822
 30
0.0
 10
135.9126
 20
-65.8369
 30
0.0
 10
135.9126
 20
-65.8369
 30
0.0
 10
139.1714
 20
-62.5848
 30
0.0
 10
143.8613
 20
-60.2211
 30
0.0
 10
149.2205
 20
-59.1298
 30
0.0
  0
SPLINE
  5
69
330
1F
100
AcDbEntity
  8
layer 1
 62
     7
370
     9
100
AcDbSpline
210
0.0
220
0.0
230
1.0
 70
    11
 71
     3
 72
    36
 73
    32
 74
     0
 42
0.0000000001
 43
0.0000000001
 12
1.0
 22
0.0
 32
0.0
 13
1.0
 23
0.0
 33
0.0
 40
0.0
 40
0.0
 40
0.0
 40
0.0
 40
0.1111111111111111
 40
0.1111111111111111
 40
0.1111111111111111
 40
0.1111111111111111
 40
0.2222222222222222
 40
0.2222222222222222
 40
0.2222222222222222
 40
0.2222222222222222
 40
0.3333333333333333
 40
0.3333333333333333
 40
0.3333333333333333
 40
0.3333333333333333
 40
0.4444444444444444
 40
0.4444444444444444
 40
0.4444444444444444
 40
0.4444444444444444
 40
0.5555555555555556
 40
0.5555555555555556
 40
0.5555555555555556
 40
0.5555555555555556
 40
0.6666666666666666
 40
0.6666666666666666
 40
0.6666666666666666
 40
0.6666666666666666
 40
0.7777777777777778
 40
0.7777777777777778
 40
0.7777777777777778
 40
0.7777777777777778
 40
1.0
 40
1.0
 40
1.0
 40
1.0
 10
133.8847
 20
-56.4832
 30
0.0
 10
129.7455
 20
-53.3352
 30
0.0
 10
126.591
 20
-49.5859
 30
0.0
 10
124.6327
 20
-45.4867
 30
0.0
 10
124.6327
 20
-45.4867
 30
0.0
 10
122.8261
 20
-41.5924
 30
0.0
 10
121.9895
 20
-37.4989
 30
0.0
 10
122.161
 20
-33.3954
 30
0.0
 10
122.161
 20
-33.3954
 30
0.0
 10
123.3838
 20
-33.7464
 30
0.0
 10
124.6602
 20
-33.9915
 30
0.0
 10
125.9635
 20
-34.1254
 30
0.0
 10
125.9635
 20
-34.1254
 30
0.0
 10
126.2689
 20
-31.8053
 30
0.0
 10
126.3535
 20
-29.4727
 30
0.0
 10
126.217
 20
-27.1445
 30
0.0
 10
126.217
 20
-27.1445
 30
0.0
 10
120.8115
 20
-26.1768
 30
0.0
 10
116.0941
 20
-23.8037
 30
0.0
 10
112.9723
 20
-20.4828
 30
0.0
 10
112.9723
 20
-20.4828
 30
0.0
 10
111.3749
 20
-27.7095
 30
0.0
 10
112.2892
 20
-35.1085
 30
0.0
 10
115.6338
 20
-42.019
 30
0.0
 10
115.6338
 20
-42.019
 30
0.0
 10
118.7631
 20
-48.6764
 30
0.0
 10
123.2021
 20
-54.9762
 30
0.0
 10
128.815
 20
-60.7265
 30
0.0
 10
128.815
 20
-60.7265
 30
0.0
 10
130.2586
 20
-59.1686
 30
0.0
 10
131.9608
 20
-57.7437
 30
0.0
 10
133.8847
 20
-56.4832
 30
0.0
  0
SPLINE
  5
6A
330
1F
100
AcDbEntity
  8
layer 1
 62
     7
370
     9
100
AcDbSpline
210
0.0
220
0.0
230
1.0
 70
    11
 71
     3
 72
    36
 73
    32
 74
     0
 42
0.0000000001
 43
0.0000000001
 12
1.0
 22
0.0
 32
0.0
 13
1.0
 23
0.0
 33
0.0
 40
0.0
 40
0.0
 40
0.0
 40
0.0
 40
0.1111111111111111
 40
0.1111111111111111
 40
0.1111111111111111
 40
0.1111111111111111
 40
0.2222222222222222
 40
0.2222222222222222
 40
0.2222222222222222
 40
0.2222222222222222
 40
0.3333333333333333
 40
0.3333333333333333
 40
0.3333333333333333
 40
0.3333333333333333
 40
0.4444444444444444
 40
0.4444444444444444
 40
0.4444444444444444
 40
0.4444444444444444
 40
0.5555555555555556
 40
0.5555555555555556
 40
0.5555555555555556
 40
0.5555555555555556
 40
0.6666666666666666
 40
0.6666666666666666
 40
0.6666666666666666
 40
0.6666666666666666
 40
0.7777777777777778
 40
0.7777777777777778
 40
0.7777777777777778
 40
0.7777777777777778
 40
1.0
 40
1.0
 40
1.0
 40
1.0
 10
156.3502
 20
-87.7387
 30
0.0
 10
152.4587
 20
-89.5993
 30
0.0
 10
147.7775
 20
-90.4076
 30
0.0
 10
143.1371
 20
-90.02
 30
0.0
 10
143.1371
 20
-90.02
 30
0.0
 10
137.3205
 20
-89.2397
 30
0.0
 10
131.8458
 20
-87.4721
 30
0.0
 10
127.1675
 20
-84.8639
 30
0.0
 10
127.1675
 20
-84.8639
 30
0.0
 10
120.4796
 20
-80.9383
 30
0.0
 10
114.9614
 20
-76.0806
 30
0.0
 10
110.9444
 20
-70.5822
 30
0.0
 10
110.9444
 20
-70.5822
 30
0.0
 10
112.2968
 20
-69.0637
 30
0.0
 10
113.8235
 20
-67.629
 30
0.0
 10
115.5072
 20
-66.2933
 30
0.0
 10
115.5072
 20
-66.2933
 30
0.0
 10
119.3071
 20
-70.8194
 30
0.0
 10
124.1008
 20
-74.8722
 30
0.0
 10
129.7021
 20
-78.2935
 30
0.0
 10
129.7021
 20
-78.2935
 30
0.0
 10
133.4916
 20
-80.698
 30
0.0
 10
138.1499
 20
-82.2804
 30
0.0
 10
143.1371
 20
-82.8563
 30
0.0
 10
143.1371
 20
-82.8563
 30
0.0
 10
147.4681
 20
-83.1798
 30
0.0
 10
151.7947
 20
-82.2157
 30
0.0
 10
155.1141
 20
-80.187
 30
0.0
 10
155.1141
 20
-80.187
 30
0.0
 10
155.8308
 20
-82.6734
 30
0.0
 10
156.2445
 20
-85.2002
 30
0.0
 10
156.3502
 20
-87.7387
 30
0.0
  0
SPLINE
  5
6B
330
1F
100
AcDbEntity
  8
layer 1
 62
     7
370
     9
100
AcDbSpline
210
0.0
220
0.0
230
1.0
 70
    11
 71
     3
 72
    32
 73
    28
 74
     0
 42
0.0000000001
 43
0.0000000001
 12
1.0
 22
0.0
 32
0.0
 13
1.0
 23
0.0
 33
0.0
 40
0.0
 40
0.0
 40
0.0
 40
0.0
 40
0.125
 40
0.125
 40
0.125
 40
0.125
 40
0.25
 40
0.25
 40
0.25
 40
0.25
 40
0.375
 40
0.375
 40
0.375
 40
0.375
 40
0.5
 40
0.5
 40
0.5
 40
0.5
 40
0.625
 40
0.625
 40
0.625
 40
0.625
 40
0.75
 40
0.75
 40
0.75
 40
0.75
 40
1.0
 40
1.0
 40
1.0
 40
1.0
 10
129.6389
 20
-48.909
 30
0.0
 10
134.454
 20
-39.9321
 30
0.0
 10
135.6832
 20
-30.1644
 30
0.0
 10
133.1877
 20
-20.7102
 30
0.0
 10
133.1877
 20
-20.7102
 30
0.0
 10
136.0517
 20
-20.4246
 30
0.0
 10
138.9504
 20
-21.0214
 30
0.0
 10
141.1724
 20
-22.3532
 30
0.0
 10
141.1724
 20
-22.3532
 30
0.0
 10
143.6383
 20
-21.0846
 30
0.0
 10
145.7461
 20
-19.4893
 30
0.0
 10
147.3829
 20
-17.6533
 30
0.0
 10
147.3829
 20
-17.6533
 30
0.0
 10
141.6446
 20
-11.7695
 30
0.0
 10
131.4724
 20
-9.0322
 30
0.0
 10
121.7809
 20
-10.7637
 30
0.0
 10
121.7809
 20
-10.7637
 30
0.0
 10
123.6561
 20
-13.4503
 30
0.0
 10
125.1628
 20
-16.2619
 30
0.0
 10
126.2802
 20
-19.1589
 30
0.0
 10
126.2802
 20
-19.1589
 30
0.0
 10
129.0146
 20
-27.0746
 30
0.0
 10
128.6638
 20
-35.3786
 30
0.0
 10
125.2665
 20
-43.1597
 30
0.0
 10
125.2665
 20
-43.1597
 30
0.0
 10
126.5716
 20
-45.1342
 30
0.0
 10
128.0314
 20
-47.0534
 30
0.0
 10
129.6389
 20
-48.909
 30
0.0
  0
SPLINE
  5
6C
330
1F
100
AcDbEntity
  8
layer 1
 62
     7
370
     9
100
AcDbSpline
210
0.0
220
0.0
230
1.0
 70
    11
 71
     3
 72
    48
 73
    44
 74
     0
 42
0.0000000001
 43
0.0000000001
 12
1.0
 22
0.0
 32
0.0
 13
1.0
 23
0.0
 33
0.0
 40
0.0
 40
0.0
 40
0.0
 40
0.0
 40
0.0833333333333333
 40
0.0833333333333333
 40
0.0833333333333333
 40
0.0833333333333333
 40
0.1666666666666667
 40
0.1666666666666667
 40
0.1666666666666667
 40
0.1666666666666667
 40
0.25
 40
0.25
 40
0.25
 40
0.25
 40
0.3333333333333333
 40
0.3333333333333333
 40
0.3333333333333333
 40
0.3333333333333333
 40
0.4166666666666667
 40
0.4166666666666667
 40
0.4166666666666667
 40
0.4166666666666667
 40
0.5
 40
0.5
 40
0.5
 40
0.5
 40
0.5833333333333334
 40
0.5833333333333334
 40
0.5833333333333334
 40
0.5833333333333334
 40
0.6666666666666666
 40
0.6666666666666666
 40
0.6666666666666666
 40
0.6666666666666666
 40
0.75
 40
0.75
 40
0.75
 40
0.75
 40
0.8333333333333334
 40
0.8333333333333334
 40
0.8333333333333334
 40
0.8333333333333334
 40
1.0
 40
1.0
 40
1.0
 40
1.0
 10
127.231
 20
-91.5256
 30
0.0
 10
127.0858
 20
-90.1139
 30
0.0
 10
127.0224
 20
-88.6982
 30
0.0
 10
127.0406
 20
-87.2823
 30
0.0
 10
127.0406
 20
-87.2823
 30
0.0
 10
123.9933
 20
-85.866
 30
0.0
 10
121.2588
 20
-84.128
 30
0.0
 10
118.9294
 20
-82.1265
 30
0.0
 10
118.9294
 20
-82.1265
 30
0.0
 10
116.8601
 20
-83.4326
 30
0.0
 10
113.8878
 20
-83.6863
 30
0.0
 10
111.4514
 20
-82.7651
 30
0.0
 10
111.4514
 20
-82.7651
 30
0.0
 10
108.8844
 20
-81.3595
 30
0.0
 10
107.3258
 20
-79.1996
 30
0.0
 10
107.2053
 20
-76.8788
 30
0.0
 10
107.2053
 20
-76.8788
 30
0.0
 10
106.911
 20
-73.6063
 30
0.0
 10
108.1619
 20
-70.3582
 30
0.0
 10
110.7541
 20
-67.662
 30
0.0
 10
110.7541
 20
-67.662
 30
0.0
 10
115.0686
 20
-64.5977
 30
0.0
 10
119.1513
 20
-61.3685
 30
0.0
 10
122.9849
 20
-57.9888
 30
0.0
 10
122.9849
 20
-57.9888
 30
0.0
 10
121.5427
 20
-56.2116
 30
0.0
 10
120.313
 20
-54.3496
 30
0.0
 10
119.3095
 20
-52.4222
 30
0.0
 10
119.3095
 20
-52.4222
 30
0.0
 10
116.6318
 20
-55.243
 30
0.0
 10
113.072
 20
-57.5714
 30
0.0
 10
108.9171
 20
-59.2207
 30
0.0
 10
108.9171
 20
-59.2207
 30
0.0
 10
105.3985
 20
-59.9489
 30
0.0
 10
101.7347
 20
-60.2455
 30
0.0
 10
98.0798
 20
-60.098
 30
0.0
 10
98.0798
 20
-60.098
 30
0.0
 10
98.0798
 20
-60.098
 30
0.0
 10
98.0798
 20
-91.5256
 30
0.0
 10
98.0798
 20
-91.5256
 30
0.0
 10
98.0798
 20
-91.5256
 30
0.0
 10
98.0798
 20
-91.5256
 30
0.0
 10
127.231
 20
-91.5256
 30
0.0
 10
127.231
 20
-91.5256
 30
0.0
  0
SPLINE
  5
6D
330
1F
100
AcDbEntity
  8
layer 1
 62
     7
370
     9
100
AcDbSpline
210
0.0
220
0.0
230
1.0
 70
    11
 71
     3
 72
    32
 73
    28
 74
     0
 42
0.0000000001
 43
0.0000000001
 12
1.0
 22
0.0
 32
0.0
 13
1.0
 23
0.0
 33
0.0
 40
0.0
 40
0.0
 40
0.0
 40
0.0
 40
0.125
 40
0.125
 40
0.125
 40
0.125
 40
0.25
 40
0.25
 40
0.25
 40
0.25
 40
0.375
 40
0.375
 40
0.375
 40
0.375
 40
0.5
 40
0.5
 40
0.5
 40
0.5
 40
0.625
 40
0.625
 40
0.625
 40
0.625
 40
0.75
 40
0.75
 40
0.75
 40
0.75
 40
1.0
 40
1.0
 40
1.0
 40
1.0
 10
102.5163
 20
-57.2587
 30
0.0
 10
101.527
 20
-55.9997
 30
0.0
 10
99.9582
 20
-55.0294
 30
0.0
 10
98.0798
 20
-54.5156
 30
0.0
 10
98.0798
 20
-54.5156
 30
0.0
 10
98.0798
 20
-54.5156
 30
0.0
 10
98.0798
 20
-6.7025
 30
0.0
 10
98.0798
 20
-6.7025
 30
0.0
 10
98.0798
 20
-6.7025
 30
0.0
 10
98.0798
 20
-6.7025
 30
0.0
 10
105.4312
 20
-6.7025
 30
0.0
 10
105.4312
 20
-6.7025
 30
0.0
 10
105.4312
 20
-6.7025
 30
0.0
 10
105.4312
 20
-6.7025
 30
0.0
 10
105.6844
 20
-9.76
 30
0.0
 10
105.6844
 20
-9.76
 30
0.0
 10
105.6844
 20
-9.76
 30
0.0
 10
105.4219
 20
-21.3489
 30
0.0
 10
105.4434
 20
-32.9398
 30
0.0
 10
105.7478
 20
-44.5285
 30
0.0
 10
105.7478
 20
-44.5285
 30
0.0
 10
105.9379
 20
-48.4574
 30
0.0
 10
107.0744
 20
-52.3325
 30
0.0
 10
109.1072
 20
-55.9814
 30
0.0
 10
109.1072
 20
-55.9814
 30
0.0
 10
107.2155
 20
-56.9955
 30
0.0
 10
104.8588
 20
-57.4525
 30
0.0
 10
102.5163
 20
-57.2587
 30
0.0
  0
SPLINE
  5
6E
330
1F
100
AcDbEntity
  8
layer 1
 62
     7
370
     9
100
AcDbSpline
210
0.0
220
0.0
230
1.0
 70
    11
 71
     3
 72
    36
 73
    32
 74
     0
 42
0.0000000001
 43
0.0000000001
 12
1.0
 22
0.0
 32
0.0
 13
1.0
 23
0.0
 33
0.0
 40
0.0
 40
0.0
 40
0.0
 40
0.0
 40
0.1111111111111111
 40
0.1111111111111111
 40
0.1111111111111111
 40
0.1111111111111111
 40
0.2222222222222222
 40
0.2222222222222222
 40
0.2222222222222222
 40
0.2222222222222222
 40
0.3333333333333333
 40
0.3333333333333333
 40
0.3333333333333333
 40
0.3333333333333333
 40
0.4444444444444444
 40
0.4444444444444444
 40
0.4444444444444444
 40
0.4444444444444444
 40
0.5555555555555556
 40
0.5555555555555556
 40
0.5555555555555556
 40
0.5555555555555556
 40
0.6666666666666666
 40
0.6666666666666666
 40
0.6666666666666666
 40
0.6666666666666666
 40
0.7777777777777778
 40
0.7777777777777778
 40
0.7777777777777778
 40
0.7777777777777778
 40
1.0
 40
1.0
 40
1.0
 40
1.0
 10
112.2753
 20
-3.0064
 30
0.0
 10
112.2753
 20
-3.0064
 30
0.0
 10
91.4258
 20
-3.0064
 30
0.0
 10
91.4258
 20
-3.0064
 30
0.0
 10
91.4258
 20
-3.0064
 30
0.0
 10
91.4258
 20
-3.0064
 30
0.0
 10
91.4892
 20
4.9326
 30
0.0
 10
91.4892
 20
4.9326
 30
0.0
 10
91.4892
 20
4.9326
 30
0.0
 10
91.4892
 20
4.9326
 30
0.0
 10
109.7399
 20
5.2065
 30
0.0
 10
109.7399
 20
5.2065
 30
0.0
 10
109.7399
 20
5.2065
 30
0.0
 10
109.7399
 20
5.2065
 30
0.0
 10
152.9932
 20
5.2065
 30
0.0
 10
152.9932
 20
5.2065
 30
0.0
 10
152.9932
 20
5.2065
 30
0.0
 10
153.4758
 20
3.411
 30
0.0
 10
154.3635
 20
1.6847
 30
0.0
 10
155.621
 20
0.0959
 30
0.0
 10
155.621
 20
0.0959
 30
0.0
 10
155.6248
 20
-2.186
 30
0.0
 10
155.0222
 20
-4.4465
 30
0.0
 10
153.8466
 20
-6.5657
 30
0.0
 10
153.8466
 20
-6.5657
 30
0.0
 10
149.9876
 20
-4.1586
 30
0.0
 10
145.0088
 20
-2.8871
 30
0.0
 10
139.9052
 20
-3.0064
 30
0.0
 10
139.9052
 20
-3.0064
 30
0.0
 10
139.9052
 20
-3.0064
 30
0.0
 10
112.2753
 20
-3.0064
 30
0.0
 10
112.2753
 20
-3.0064
 30
0.0
  0
SPLINE
  5
6F
330
1F
100
AcDbEntity
  8
layer 1
 62
     7
370
     9
100
AcDbSpline
210
0.0
220
0.0
230
1.0
 70
    11
 71
     3
 72
    44
 73
    40
 74
     0
 42
0.0000000001
 43
0.0000000001
 12
1.0
 22
0.0
 32
0.0
 13
1.0
 23
0.0
 33
0.0
 40
0.0
 40
0.0
 40
0.0
 40
0.0
 40
0.0909090909090909
 40
0.0909090909090909
 40
0.0909090909090909
 40
0.0909090909090909
 40
0.1818181818181818
 40
0.1818181818181818
 40
0.1818181818181818
 40
0.1818181818181818
 40
0.2727272727272727
 40
0.2727272727272727
 40
0.2727272727272727
 40
0.2727272727272727
 40
0.3636363636363636
 40
0.3636363636363636
 40
0.3636363636363636
 40
0.3636363636363636
 40
0.4545454545454545
 40
0.4545454545454545
 40
0.4545454545454545
 40
0.4545454545454545
 40
0.5454545454545454
 40
0.5454545454545454
 40
0.5454545454545454
 40
0.5454545454545454
 40
0.6363636363636364
 40
0.6363636363636364
 40
0.6363636363636364
 40
0.6363636363636364
 40
0.7272727272727273
 40
0.7272727272727273
 40
0.7272727272727273
 40
0.7272727272727273
 40
0.8181818181818182
 40
0.8181818181818182
 40
0.8181818181818182
 40
0.8181818181818182
 40
1.0
 40
1.0
 40
1.0
 40
1.0
 10
176.9775
 20
87.2689
 30
0.0
 10
178.9362
 20
90.4125
 30
0.0
 10
178.6526
 20
94.0453
 30
0.0
 10
176.2171
 20
97.0107
 30
0.0
 10
176.2171
 20
97.0107
 30
0.0
 10
173.7967
 20
98.5906
 30
0.0
 10
170.1146
 20
98.6098
 30
0.0
 10
167.6617
 20
97.0564
 30
0.0
 10
167.6617
 20
97.0564
 30
0.0
 10
164.6938
 20
94.9453
 30
0.0
 10
162.5042
 20
92.3338
 30
0.0
 10
161.2927
 20
89.4595
 30
0.0
 10
161.2927
 20
89.4595
 30
0.0
 10
161.0074
 20
90.0129
 30
0.0
 10
160.5647
 20
90.5177
 30
0.0
 10
159.9937
 20
90.9423
 30
0.0
 10
159.9937
 20
90.9423
 30
0.0
 10
158.2367
 20
90.8923
 30
0.0
 10
156.4826
 20
90.8009
 30
0.0
 10
154.734
 20
90.6685
 30
0.0
 10
154.734
 20
90.6685
 30
0.0
 10
156.9432
 20
96.1697
 30
0.0
 10
158.0528
 20
101.8696
 30
0.0
 10
158.0293
 20
107.5967
 30
0.0
 10
158.0293
 20
107.5967
 30
0.0
 10
158.0293
 20
107.5967
 30
0.0
 10
186.5463
 20
107.5967
 30
0.0
 10
186.5463
 20
107.5967
 30
0.0
 10
186.5463
 20
107.5967
 30
0.0
 10
186.5463
 20
107.5967
 30
0.0
 10
186.5463
 20
76.1127
 30
0.0
 10
186.5463
 20
76.1127
 30
0.0
 10
186.5463
 20
76.1127
 30
0.0
 10
186.028
 20
76.2084
 30
0.0
 10
185.4967
 20
76.2614
 30
0.0
 10
184.9622
 20
76.2724
 30
0.0
 10
184.9622
 20
76.2724
 30
0.0
 10
183.1568
 20
80.2283
 30
0.0
 10
180.4591
 20
83.9436
 30
0.0
 10
176.9775
 20
87.2689
 30
0.0
  0
SPLINE
  5
70
330
1F
100
AcDbEntity
  8
layer 1
 62
     7
370
     9
100
AcDbSpline
210
0.0
220
0.0
230
1.0
 70
    11
 71
     3
 72
    32
 73
    28
 74
     0
 42
0.0000000001
 43
0.0000000001
 12
1.0
 22
0.0
 32
0.0
 13
1.0
 23
0.0
 33
0.0
 40
0.0
 40
0.0
 40
0.0
 40
0.0
 40
0.125
 40
0.125
 40
0.125
 40
0.125
 40
0.25
 40
0.25
 40
0.25
 40
0.25
 40
0.375
 40
0.375
 40
0.375
 40
0.375
 40
0.5
 40
0.5
 40
0.5
 40
0.5
 40
0.625
 40
0.625
 40
0.625
 40
0.625
 40
0.75
 40
0.75
 40
0.75
 40
0.75
 40
1.0
 40
1.0
 40
1.0
 40
1.0
 10
168.1053
 20
24.8719
 30
0.0
 10
166.7576
 20
26.6939
 30
0.0
 10
165.3415
 20
28.4894
 30
0.0
 10
163.8592
 20
30.2561
 30
0.0
 10
163.8592
 20
30.2561
 30
0.0
 10
168.2846
 20
34.8331
 30
0.0
 10
171.8235
 20
39.8215
 30
0.0
 10
174.379
 20
45.0856
 30
0.0
 10
174.379
 20
45.0856
 30
0.0
 10
177.3107
 20
51.11
 30
0.0
 10
178.7687
 20
57.4552
 30
0.0
 10
178.6882
 20
63.8388
 30
0.0
 10
178.6882
 20
63.8388
 30
0.0
 10
178.643
 20
69.2237
 30
0.0
 10
176.1006
 20
74.4431
 30
0.0
 10
171.464
 20
78.6683
 30
0.0
 10
171.464
 20
78.6683
 30
0.0
 10
171.61
 20
81.6654
 30
0.0
 10
171.5254
 20
84.6662
 30
0.0
 10
171.2105
 20
87.6567
 30
0.0
 10
171.2105
 20
87.6567
 30
0.0
 10
179.4901
 20
82.6235
 30
0.0
 10
184.4746
 20
75.329
 30
0.0
 10
184.9622
 20
67.5349
 30
0.0
 10
184.9622
 20
67.5349
 30
0.0
 10
186.1859
 20
52.3521
 30
0.0
 10
180.2453
 20
37.3174
 30
0.0
 10
168.1053
 20
24.8719
 30
0.0
  0
SPLINE
  5
71
330
1F
100
AcDbEntity
  8
layer 1
 62
     7
370
     9
100
AcDbSpline
210
0.0
220
0.0
230
1.0
 70
    11
 71
     3
 72
    20
 73
    16
 74
     0
 42
0.0000000001
 43
0.0000000001
 12
1.0
 22
0.0
 32
0.0
 13
1.0
 23
0.0
 33
0.0
 40
0.0
 40
0.0
 40
0.0
 40
0.0
 40
0.2
 40
0.2
 40
0.2
 40
0.2
 40
0.4
 40
0.4
 40
0.4
 40
0.4
 40
0.6
 40
0.6
 40
0.6
 40
0.6
 40
1.0
 40
1.0
 40
1.0
 40
1.0
 10
172.0979
 20
45.1313
 30
0.0
 10
169.4243
 20
46.8016
 30
0.0
 10
167.0221
 20
48.6839
 30
0.0
 10
164.9368
 20
50.7437
 30
0.0
 10
164.9368
 20
50.7437
 30
0.0
 10
163.7798
 20
48.8577
 30
0.0
 10
162.5332
 20
47.001
 30
0.0
 10
161.1977
 20
45.1769
 30
0.0
 10
161.1977
 20
45.1769
 30
0.0
 10
163.3432
 20
43.0003
 30
0.0
 10
165.8074
 20
40.9958
 30
0.0
 10
168.5488
 20
39.1997
 30
0.0
 10
168.5488
 20
39.1997
 30
0.0
 10
169.7684
 20
41.1658
 30
0.0
 10
170.9515
 20
43.143
 30
0.0
 10
172.0979
 20
45.1313
 30
0.0
  0
SPLINE
  5
72
330
1F
100
AcDbEntity
  8
layer 1
 62
     7
370
     9
100
AcDbSpline
210
0.0
220
0.0
230
1.0
 70
    11
 71
     3
 72
    28
 73
    24
 74
     0
 42
0.0000000001
 43
0.0000000001
 12
1.0
 22
0.0
 32
0.0
 13
1.0
 23
0.0
 33
0.0
 40
0.0
 40
0.0
 40
0.0
 40
0.0
 40
0.1428571428571428
 40
0.1428571428571428
 40
0.1428571428571428
 40
0.1428571428571428
 40
0.2857142857142857
 40
0.2857142857142857
 40
0.2857142857142857
 40
0.2857142857142857
 40
0.4285714285714285
 40
0.4285714285714285
 40
0.4285714285714285
 40
0.4285714285714285
 40
0.5714285714285714
 40
0.5714285714285714
 40
0.5714285714285714
 40
0.5714285714285714
 40
0.7142857142857143
 40
0.7142857142857143
 40
0.7142857142857143
 40
0.7142857142857143
 40
1.0
 40
1.0
 40
1.0
 40
1.0
 10
156.1917
 20
41.7545
 30
0.0
 10
154.9214
 20
43.3241
 30
0.0
 10
153.3176
 20
44.7406
 30
0.0
 10
151.4387
 20
45.9525
 30
0.0
 10
151.4387
 20
45.9525
 30
0.0
 10
153.2058
 20
47.3102
 30
0.0
 10
154.7186
 20
48.8289
 30
0.0
 10
155.938
 20
50.4698
 30
0.0
 10
155.938
 20
50.4698
 30
0.0
 10
159.2573
 20
55.7106
 30
0.0
 10
161.4784
 20
61.2773
 30
0.0
 10
162.5289
 20
66.9874
 30
0.0
 10
162.5289
 20
66.9874
 30
0.0
 10
165.1275
 20
68.0456
 30
0.0
 10
167.5331
 20
69.3325
 30
0.0
 10
169.6893
 20
70.8198
 30
0.0
 10
169.6893
 20
70.8198
 30
0.0
 10
168.988
 20
65.097
 30
0.0
 10
167.3941
 20
59.4495
 30
0.0
 10
164.9368
 20
53.9829
 30
0.0
 10
164.9368
 20
53.9829
 30
0.0
 10
162.6717
 20
49.6824
 30
0.0
 10
159.7379
 20
45.5801
 30
0.0
 10
156.1917
 20
41.7545
 30
0.0
  0
SPLINE
  5
73
330
1F
100
AcDbEntity
  8
layer 1
 62
     7
370
     9
100
AcDbSpline
210
0.0
220
0.0
230
1.0
 70
    11
 71
     3
 72
    24
 73
    20
 74
     0
 42
0.0000000001
 43
0.0000000001
 12
1.0
 22
0.0
 32
0.0
 13
1.0
 23
0.0
 33
0.0
 40
0.0
 40
0.0
 40
0.0
 40
0.0
 40
0.1666666666666667
 40
0.1666666666666667
 40
0.1666666666666667
 40
0.1666666666666667
 40
0.3333333333333333
 40
0.3333333333333333
 40
0.3333333333333333
 40
0.3333333333333333
 40
0.5
 40
0.5
 40
0.5
 40
0.5
 40
0.6666666666666666
 40
0.6666666666666666
 40
0.6666666666666666
 40
0.6666666666666666
 40
1.0
 40
1.0
 40
1.0
 40
1.0
 10
158.9798
 20
60.554
 30
0.0
 10
155.7103
 20
67.362
 30
0.0
 10
155.3348
 20
74.7176
 30
0.0
 10
157.9027
 20
81.6794
 30
0.0
 10
157.9027
 20
81.6794
 30
0.0
 10
155.4828
 20
81.5057
 30
0.0
 10
153.1128
 20
81.0753
 30
0.0
 10
150.8685
 20
80.402
 30
0.0
 10
150.8685
 20
80.402
 30
0.0
 10
150.1539
 20
75.3622
 30
0.0
 10
150.239
 20
70.2797
 30
0.0
 10
151.1217
 20
65.253
 30
0.0
 10
151.1217
 20
65.253
 30
0.0
 10
151.8541
 20
61.1927
 30
0.0
 10
153.2585
 20
57.2103
 30
0.0
 10
155.3041
 20
53.3896
 30
0.0
 10
155.3041
 20
53.3896
 30
0.0
 10
156.4875
 20
55.7894
 30
0.0
 10
157.7129
 20
58.1771
 30
0.0
 10
158.9798
 20
60.554
 30
0.0
  0
SPLINE
  5
74
330
1F
100
AcDbEntity
  8
layer 1
 62
     7
370
     9
100
AcDbSpline
210
0.0
220
0.0
230
1.0
 70
    11
 71
     3
 72
    24
 73
    20
 74
     0
 42
0.0000000001
 43
0.0000000001
 12
1.0
 22
0.0
 32
0.0
 13
1.0
 23
0.0
 33
0.0
 40
0.0
 40
0.0
 40
0.0
 40
0.0
 40
0.1666666666666667
 40
0.1666666666666667
 40
0.1666666666666667
 40
0.1666666666666667
 40
0.3333333333333333
 40
0.3333333333333333
 40
0.3333333333333333
 40
0.3333333333333333
 40
0.5
 40
0.5
 40
0.5
 40
0.5
 40
0.6666666666666666
 40
0.6666666666666666
 40
0.6666666666666666
 40
0.6666666666666666
 40
1.0
 40
1.0
 40
1.0
 40
1.0
 10
166.9647
 20
93.5883
 30
0.0
 10
169.1386
 20
89.1454
 30
0.0
 10
170.2736
 20
84.4734
 30
0.0
 10
170.3235
 20
79.7633
 30
0.0
 10
170.3235
 20
79.7633
 30
0.0
 10
169.6453
 20
80.0303
 30
0.0
 10
169.0259
 20
80.3689
 30
0.0
 10
168.4853
 20
80.7668
 30
0.0
 10
168.4853
 20
80.7668
 30
0.0
 10
167.3445
 20
79.4263
 30
0.0
 10
165.633
 20
78.3865
 30
0.0
 10
163.606
 20
77.8014
 30
0.0
 10
163.606
 20
77.8014
 30
0.0
 10
163.7775
 20
81.087
 30
0.0
 10
163.3082
 20
84.3741
 30
0.0
 10
162.2117
 20
87.5655
 30
0.0
 10
162.2117
 20
87.5655
 30
0.0
 10
163.6984
 20
89.6126
 30
0.0
 10
165.2839
 20
91.6215
 30
0.0
 10
166.9647
 20
93.5883
 30
0.0
  0
SPLINE
  5
75
330
1F
100
AcDbEntity
  8
layer 1
 62
     7
370
     9
100
AcDbSpline
210
0.0
220
0.0
230
1.0
 70
    11
 71
     3
 72
    20
 73
    16
 74
     0
 42
0.0000000001
 43
0.0000000001
 12
1.0
 22
0.0
 32
0.0
 13
1.0
 23
0.0
 33
0.0
 40
0.0
 40
0.0
 40
0.0
 40
0.0
 40
0.2
 40
0.2
 40
0.2
 40
0.2
 40
0.4
 40
0.4
 40
0.4
 40
0.4
 40
0.6
 40
0.6
 40
0.6
 40
0.6
 40
1.0
 40
1.0
 40
1.0
 40
1.0
 10
172.9849
 20
74.8353
 30
0.0
 10
171.8096
 20
76.0236
 30
0.0
 10
170.4489
 20
77.1105
 30
0.0
 10
168.9294
 20
78.0752
 30
0.0
 10
168.9294
 20
78.0752
 30
0.0
 10
165.653
 20
76.184
 30
0.0
 10
161.8811
 20
74.7875
 30
0.0
 10
157.8392
 20
73.9684
 30
0.0
 10
157.8392
 20
73.9684
 30
0.0
 10
157.8688
 20
72.2788
 30
0.0
 10
157.9528
 20
70.5901
 30
0.0
 10
158.0927
 20
68.9037
 30
0.0
 10
158.0927
 20
68.9037
 30
0.0
 10
163.5819
 20
70.1031
 30
0.0
 10
168.6568
 20
72.1245
 30
0.0
 10
172.9849
 20
74.8353
 30
0.0
  0
SPLINE
  5
76
330
1F
100
AcDbEntity
  8
layer 1
 62
     7
370
     9
100
AcDbSpline
210
0.0
220
0.0
230
1.0
 70
    11
 71
     3
 72
    24
 73
    20
 74
     0
 42
0.0000000001
 43
0.0000000001
 12
1.0
 22
0.0
 32
0.0
 13
1.0
 23
0.0
 33
0.0
 40
0.0
 40
0.0
 40
0.0
 40
0.0
 40
0.1666666666666667
 40
0.1666666666666667
 40
0.1666666666666667
 40
0.1666666666666667
 40
0.3333333333333333
 40
0.3333333333333333
 40
0.3333333333333333
 40
0.3333333333333333
 40
0.5
 40
0.5
 40
0.5
 40
0.5
 40
0.6666666666666666
 40
0.6666666666666666
 40
0.6666666666666666
 40
0.6666666666666666
 40
1.0
 40
1.0
 40
1.0
 40
1.0
 10
161.1346
 20
84.0062
 30
0.0
 10
160.8556
 20
85.483
 30
0.0
 10
160.189
 20
86.9076
 30
0.0
 10
159.1701
 20
88.2042
 30
0.0
 10
159.1701
 20
88.2042
 30
0.0
 10
151.3448
 20
88.1548
 30
0.0
 10
143.9031
 20
85.7567
 30
0.0
 10
138.6378
 20
81.5881
 30
0.0
 10
138.6378
 20
81.5881
 30
0.0
 10
139.8363
 20
80.7668
 30
0.0
 10
141.1784
 20
80.0612
 30
0.0
 10
142.6298
 20
79.4895
 30
0.0
 10
142.6298
 20
79.4895
 30
0.0
 10
144.8596
 20
80.6845
 30
0.0
 10
147.1874
 20
81.7816
 30
0.0
 10
149.6011
 20
82.7743
 30
0.0
 10
149.6011
 20
82.7743
 30
0.0
 10
153.1737
 20
84.04
 30
0.0
 10
157.2057
 20
84.4705
 30
0.0
 10
161.1346
 20
84.0062
 30
0.0
  0
SPLINE
  5
77
330
1F
100
AcDbEntity
  8
layer 1
 62
     7
370
     9
100
AcDbSpline
210
0.0
220
0.0
230
1.0
 70
    11
 71
     3
 72
    28
 73
    24
 74
     0
 42
0.0000000001
 43
0.0000000001
 12
1.0
 22
0.0
 32
0.0
 13
1.0
 23
0.0
 33
0.0
 40
0.0
 40
0.0
 40
0.0
 40
0.0
 40
0.1428571428571428
 40
0.1428571428571428
 40
0.1428571428571428
 40
0.1428571428571428
 40
0.2857142857142857
 40
0.2857142857142857
 40
0.2857142857142857
 40
0.2857142857142857
 40
0.4285714285714285
 40
0.4285714285714285
 40
0.4285714285714285
 40
0.4285714285714285
 40
0.5714285714285714
 40
0.5714285714285714
 40
0.5714285714285714
 40
0.5714285714285714
 40
0.7142857142857143
 40
0.7142857142857143
 40
0.7142857142857143
 40
0.7142857142857143
 40
1.0
 40
1.0
 40
1.0
 40
1.0
 10
149.2205
 20
75.2914
 30
0.0
 10
149.1463
 20
72.9801
 30
0.0
 10
149.1463
 20
70.6675
 30
0.0
 10
149.2205
 20
68.3561
 30
0.0
 10
149.2205
 20
68.3561
 30
0.0
 10
144.5836
 20
69.4959
 30
0.0
 10
140.2691
 20
71.2267
 30
0.0
 10
136.4833
 20
73.4665
 30
0.0
 10
136.4833
 20
73.4665
 30
0.0
 10
130.9486
 20
77.4601
 30
0.0
 10
126.5371
 20
82.1848
 30
0.0
 10
123.4921
 20
87.383
 30
0.0
 10
123.4921
 20
87.383
 30
0.0
 10
125.175
 20
89.0304
 30
0.0
 10
127.2063
 20
90.4778
 30
0.0
 10
129.512
 20
91.6722
 30
0.0
 10
129.512
 20
91.6722
 30
0.0
 10
130.986
 20
88.2424
 30
0.0
 10
133.1417
 20
84.9841
 30
0.0
 10
135.9126
 20
81.9988
 30
0.0
 10
135.9126
 20
81.9988
 30
0.0
 10
139.1714
 20
78.7471
 30
0.0
 10
143.8613
 20
76.3834
 30
0.0
 10
149.2205
 20
75.2914
 30
0.0
  0
SPLINE
  5
78
330
1F
100
AcDbEntity
  8
layer 1
 62
     7
370
     9
100
AcDbSpline
210
0.0
220
0.0
230
1.0
 70
    11
 71
     3
 72
    36
 73
    32
 74
     0
 42
0.0000000001
 43
0.0000000001
 12
1.0
 22
0.0
 32
0.0
 13
1.0
 23
0.0
 33
0.0
 40
0.0
 40
0.0
 40
0.0
 40
0.0
 40
0.1111111111111111
 40
0.1111111111111111
 40
0.1111111111111111
 40
0.1111111111111111
 40
0.2222222222222222
 40
0.2222222222222222
 40
0.2222222222222222
 40
0.2222222222222222
 40
0.3333333333333333
 40
0.3333333333333333
 40
0.3333333333333333
 40
0.3333333333333333
 40
0.4444444444444444
 40
0.4444444444444444
 40
0.4444444444444444
 40
0.4444444444444444
 40
0.5555555555555556
 40
0.5555555555555556
 40
0.5555555555555556
 40
0.5555555555555556
 40
0.6666666666666666
 40
0.6666666666666666
 40
0.6666666666666666
 40
0.6666666666666666
 40
0.7777777777777778
 40
0.7777777777777778
 40
0.7777777777777778
 40
0.7777777777777778
 40
1.0
 40
1.0
 40
1.0
 40
1.0
 10
133.8847
 20
72.6453
 30
0.0
 10
129.7455
 20
69.4973
 30
0.0
 10
126.591
 20
65.7476
 30
0.0
 10
124.6327
 20
61.6488
 30
0.0
 10
124.6327
 20
61.6488
 30
0.0
 10
122.8261
 20
57.7547
 30
0.0
 10
121.9895
 20
53.6612
 30
0.0
 10
122.161
 20
49.5575
 30
0.0
 10
122.161
 20
49.5575
 30
0.0
 10
123.3838
 20
49.9085
 30
0.0
 10
124.6602
 20
50.1534
 30
0.0
 10
125.9635
 20
50.2873
 30
0.0
 10
125.9635
 20
50.2873
 30
0.0
 10
126.2689
 20
47.9672
 30
0.0
 10
126.3535
 20
45.6346
 30
0.0
 10
126.217
 20
43.3063
 30
0.0
 10
126.217
 20
43.3063
 30
0.0
 10
120.8115
 20
42.3387
 30
0.0
 10
116.0941
 20
39.9656
 30
0.0
 10
112.9723
 20
36.6441
 30
0.0
 10
112.9723
 20
36.6441
 30
0.0
 10
111.3749
 20
43.8708
 30
0.0
 10
112.2892
 20
51.2704
 30
0.0
 10
115.6338
 20
58.1809
 30
0.0
 10
115.6338
 20
58.1809
 30
0.0
 10
118.7631
 20
64.8387
 30
0.0
 10
123.2021
 20
71.1383
 30
0.0
 10
128.815
 20
76.8882
 30
0.0
 10
128.815
 20
76.8882
 30
0.0
 10
130.2586
 20
75.3305
 30
0.0
 10
131.9608
 20
73.9052
 30
0.0
 10
133.8847
 20
72.6453
 30
0.0
  0
SPLINE
  5
79
330
1F
100
AcDbEntity
  8
layer 1
 62
     7
370
     9
100
AcDbSpline
210
0.0
220
0.0
230
1.0
 70
    11
 71
     3
 72
    36
 73
    32
 74
     0
 42
0.0000000001
 43
0.0000000001
 12
1.0
 22
0.0
 32
0.0
 13
1.0
 23
0.0
 33
0.0
 40
0.0
 40
0.0
 40
0.0
 40
0.0
 40
0.1111111111111111
 40
0.1111111111111111
 40
0.1111111111111111
 40
0.1111111111111111
 40
0.2222222222222222
 40
0.2222222222222222
 40
0.2222222222222222
 40
0.2222222222222222
 40
0.3333333333333333
 40
0.3333333333333333
 40
0.3333333333333333
 40
0.3333333333333333
 40
0.4444444444444444
 40
0.4444444444444444
 40
0.4444444444444444
 40
0.4444444444444444
 40
0.5555555555555556
 40
0.5555555555555556
 40
0.5555555555555556
 40
0.5555555555555556
 40
0.6666666666666666
 40
0.6666666666666666
 40
0.6666666666666666
 40
0.6666666666666666
 40
0.7777777777777778
 40
0.7777777777777778
 40
0.7777777777777778
 40
0.7777777777777778
 40
1.0
 40
1.0
 40
1.0
 40
1.0
 10
156.3502
 20
103.9006
 30
0.0
 10
152.4587
 20
105.7614
 30
0.0
 10
147.7775
 20
106.5694
 30
0.0
 10
143.1371
 20
106.1817
 30
0.0
 10
143.1371
 20
106.1817
 30
0.0
 10
137.3205
 20
105.4016
 30
0.0
 10
131.8458
 20
103.6342
 30
0.0
 10
127.1675
 20
101.0256
 30
0.0
 10
127.1675
 20
101.0256
 30
0.0
 10
120.4796
 20
97.1004
 30
0.0
 10
114.9614
 20
92.2425
 30
0.0
 10
110.9444
 20
86.7443
 30
0.0
 10
110.9444
 20
86.7443
 30
0.0
 10
112.2968
 20
85.2254
 30
0.0
 10
113.8235
 20
83.7914
 30
0.0
 10
115.5072
 20
82.4549
 30
0.0
 10
115.5072
 20
82.4549
 30
0.0
 10
119.3071
 20
86.9811
 30
0.0
 10
124.1008
 20
91.0341
 30
0.0
 10
129.7021
 20
94.4551
 30
0.0
 10
129.7021
 20
94.4551
 30
0.0
 10
133.4916
 20
96.8599
 30
0.0
 10
138.1499
 20
98.4421
 30
0.0
 10
143.1371
 20
99.0182
 30
0.0
 10
143.1371
 20
99.0182
 30
0.0
 10
147.4681
 20
99.3419
 30
0.0
 10
151.7947
 20
98.378
 30
0.0
 10
155.1141
 20
96.3493
 30
0.0
 10
155.1141
 20
96.3493
 30
0.0
 10
155.8308
 20
98.8357
 30
0.0
 10
156.2445
 20
101.3619
 30
0.0
 10
156.3502
 20
103.9006
 30
0.0
  0
SPLINE
  5
7A
330
1F
100
AcDbEntity
  8
layer 1
 62
     7
370
     9
100
AcDbSpline
210
0.0
220
0.0
230
1.0
 70
    11
 71
     3
 72
    32
 73
    28
 74
     0
 42
0.0000000001
 43
0.0000000001
 12
1.0
 22
0.0
 32
0.0
 13
1.0
 23
0.0
 33
0.0
 40
0.0
 40
0.0
 40
0.0
 40
0.0
 40
0.125
 40
0.125
 40
0.125
 40
0.125
 40
0.25
 40
0.25
 40
0.25
 40
0.25
 40
0.375
 40
0.375
 40
0.375
 40
0.375
 40
0.5
 40
0.5
 40
0.5
 40
0.5
 40
0.625
 40
0.625
 40
0.625
 40
0.625
 40
0.75
 40
0.75
 40
0.75
 40
0.75
 40
1.0
 40
1.0
 40
1.0
 40
1.0
 10
129.6389
 20
65.0705
 30
0.0
 10
134.454
 20
56.094
 30
0.0
 10
135.6832
 20
46.3263
 30
0.0
 10
133.1877
 20
36.8729
 30
0.0
 10
133.1877
 20
36.8729
 30
0.0
 10
136.0517
 20
36.5867
 30
0.0
 10
138.9504
 20
37.1827
 30
0.0
 10
141.1724
 20
38.5153
 30
0.0
 10
141.1724
 20
38.5153
 30
0.0
 10
143.6383
 20
37.2467
 30
0.0
 10
145.7461
 20
35.652
 30
0.0
 10
147.3829
 20
33.8154
 30
0.0
 10
147.3829
 20
33.8154
 30
0.0
 10
141.6446
 20
27.9316
 30
0.0
 10
131.4724
 20
25.1943
 30
0.0
 10
121.7809
 20
26.9256
 30
0.0
 10
121.7809
 20
26.9256
 30
0.0
 10
123.6561
 20
29.6122
 30
0.0
 10
125.1628
 20
32.424
 30
0.0
 10
126.2802
 20
35.321
 30
0.0
 10
126.2802
 20
35.321
 30
0.0
 10
129.0146
 20
43.2365
 30
0.0
 10
128.6638
 20
51.5413
 30
0.0
 10
125.2665
 20
59.3214
 30
0.0
 10
125.2665
 20
59.3214
 30
0.0
 10
126.5716
 20
61.2963
 30
0.0
 10
128.0314
 20
63.2155
 30
0.0
 10
129.6389
 20
65.0705
 30
0.0
  0
SPLINE
  5
7B
330
1F
100
AcDbEntity
  8
layer 1
 62
     7
370
     9
100
AcDbSpline
210
0.0
220
0.0
230
1.0
 70
    11
 71
     3
 72
    48
 73
    44
 74
     0
 42
0.0000000001
 43
0.0000000001
 12
1.0
 22
0.0
 32
0.0
 13
1.0
 23
0.0
 33
0.0
 40
0.0
 40
0.0
 40
0.0
 40
0.0
 40
0.0833333333333333
 40
0.0833333333333333
 40
0.0833333333333333
 40
0.0833333333333333
 40
0.1666666666666667
 40
0.1666666666666667
 40
0.1666666666666667
 40
0.1666666666666667
 40
0.25
 40
0.25
 40
0.25
 40
0.25
 40
0.3333333333333333
 40
0.3333333333333333
 40
0.3333333333333333
 40
0.3333333333333333
 40
0.4166666666666667
 40
0.4166666666666667
 40
0.4166666666666667
 40
0.4166666666666667
 40
0.5
 40
0.5
 40
0.5
 40
0.5
 40
0.5833333333333334
 40
0.5833333333333334
 40
0.5833333333333334
 40
0.5833333333333334
 40
0.6666666666666666
 40
0.6666666666666666
 40
0.6666666666666666
 40
0.6666666666666666
 40
0.75
 40
0.75
 40
0.75
 40
0.75
 40
0.8333333333333334
 40
0.8333333333333334
 40
0.8333333333333334
 40
0.8333333333333334
 40
1.0
 40
1.0
 40
1.0
 40
1.0
 10
127.231
 20
107.6879
 30
0.0
 10
127.0858
 20
106.2758
 30
0.0
 10
127.0224
 20
104.8601
 30
0.0
 10
127.0406
 20
103.4442
 30
0.0
 10
127.0406
 20
103.4442
 30
0.0
 10
123.9933
 20
102.0277
 30
0.0
 10
121.2588
 20
100.2897
 30
0.0
 10
118.9294
 20
98.2881
 30
0.0
 10
118.9294
 20
98.2881
 30
0.0
 10
116.8601
 20
99.5943
 30
0.0
 10
113.8878
 20
99.8482
 30
0.0
 10
111.4514
 20
98.9268
 30
0.0
 10
111.4514
 20
98.9268
 30
0.0
 10
108.8844
 20
97.5214
 30
0.0
 10
107.3258
 20
95.3617
 30
0.0
 10
107.2053
 20
93.0409
 30
0.0
 10
107.2053
 20
93.0409
 30
0.0
 10
106.911
 20
89.7686
 30
0.0
 10
108.1619
 20
86.5205
 30
0.0
 10
110.7541
 20
83.8237
 30
0.0
 10
110.7541
 20
83.8237
 30
0.0
 10
115.0686
 20
80.7595
 30
0.0
 10
119.1513
 20
77.5306
 30
0.0
 10
122.9849
 20
74.1509
 30
0.0
 10
122.9849
 20
74.1509
 30
0.0
 10
121.5427
 20
72.3739
 30
0.0
 10
120.313
 20
70.5115
 30
0.0
 10
119.3095
 20
68.5843
 30
0.0
 10
119.3095
 20
68.5843
 30
0.0
 10
116.6318
 20
71.4046
 30
0.0
 10
113.072
 20
73.7337
 30
0.0
 10
108.9171
 20
75.3828
 30
0.0
 10
108.9171
 20
75.3828
 30
0.0
 10
105.3985
 20
76.1112
 30
0.0
 10
101.7347
 20
76.407
 30
0.0
 10
98.0798
 20
76.2599
 30
0.0
 10
98.0798
 20
76.2599
 30
0.0
 10
98.0798
 20
76.2599
 30
0.0
 10
98.0798
 20
107.6879
 30
0.0
 10
98.0798
 20
107.6879
 30
0.0
 10
98.0798
 20
107.6879
 30
0.0
 10
98.0798
 20
107.6879
 30
0.0
 10
127.231
 20
107.6879
 30
0.0
 10
127.231
 20
107.6879
 30
0.0
  0
SPLINE
  5
7C
330
1F
100
AcDbEntity
  8
layer 1
 62
     7
370
     9
100
AcDbSpline
210
0.0
220
0.0
230
1.0
 70
    11
 71
     3
 72
    28
 73
    24
 74
     0
 42
0.0000000001
 43
0.0000000001
 12
1.0
 22
0.0
 32
0.0
 13
1.0
 23
0.0
 33
0.0
 40
0.0
 40
0.0
 40
0.0
 40
0.0
 40
0.1428571428571428
 40
0.1428571428571428
 40
0.1428571428571428
 40
0.1428571428571428
 40
0.2857142857142857
 40
0.2857142857142857
 40
0.2857142857142857
 40
0.2857142857142857
 40
0.4285714285714285
 40
0.4285714285714285
 40
0.4285714285714285
 40
0.4285714285714285
 40
0.5714285714285714
 40
0.5714285714285714
 40
0.5714285714285714
 40
0.5714285714285714
 40
0.7142857142857143
 40
0.7142857142857143
 40
0.7142857142857143
 40
0.7142857142857143
 40
1.0
 40
1.0
 40
1.0
 40
1.0
 10
105.6415
 20
8.9481
 30
0.0
 10
105.6415
 20
8.9481
 30
0.0
 10
105.7478
 20
60.6908
 30
0.0
 10
105.7478
 20
60.6908
 30
0.0
 10
105.7478
 20
60.6908
 30
0.0
 10
105.9379
 20
64.6195
 30
0.0
 10
107.0744
 20
68.4944
 30
0.0
 10
109.1072
 20
72.1435
 30
0.0
 10
109.1072
 20
72.1435
 30
0.0
 10
107.2155
 20
73.1576
 30
0.0
 10
104.8588
 20
73.6144
 30
0.0
 10
102.5163
 20
73.4211
 30
0.0
 10
102.5163
 20
73.4211
 30
0.0
 10
101.527
 20
72.162
 30
0.0
 10
99.9582
 20
71.1913
 30
0.0
 10
98.0798
 20
70.6777
 30
0.0
 10
98.0798
 20
70.6777
 30
0.0
 10
98.0798
 20
70.6777
 30
0.0
 10
98.0798
 20
8.9481
 30
0.0
 10
98.0798
 20
8.9481
 30
0.0
 10
98.0798
 20
8.9481
 30
0.0
 10
98.0798
 20
8.9481
 30
0.0
 10
105.6415
 20
8.9481
 30
0.0
 10
105.6415
 20
8.9481
 30
0.0
  0
SPLINE
  5
7D
330
1F
100
AcDbEntity
  8
layer 1
 62
     7
370
     9
100
AcDbSpline
210
0.0
220
0.0
230
1.0
 70
    11
 71
     3
 72
    32
 73
    28
 74
     0
 42
0.0000000001
 43
0.0000000001
 12
1.0
 22
0.0
 32
0.0
 13
1.0
 23
0.0
 33
0.0
 40
0.0
 40
0.0
 40
0.0
 40
0.0
 40
0.125
 40
0.125
 40
0.125
 40
0.125
 40
0.25
 40
0.25
 40
0.25
 40
0.25
 40
0.375
 40
0.375
 40
0.375
 40
0.375
 40
0.5
 40
0.5
 40
0.5
 40
0.5
 40
0.625
 40
0.625
 40
0.625
 40
0.625
 40
0.75
 40
0.75
 40
0.75
 40
0.75
 40
1.0
 40
1.0
 40
1.0
 40
1.0
 10
112.2753
 20
19.1691
 30
0.0
 10
112.2753
 20
19.1691
 30
0.0
 10
139.9052
 20
19.1691
 30
0.0
 10
139.9052
 20
19.1691
 30
0.0
 10
139.9052
 20
19.1691
 30
0.0
 10
145.0088
 20
19.0492
 30
0.0
 10
149.9876
 20
20.3201
 30
0.0
 10
153.8466
 20
22.7276
 30
0.0
 10
153.8466
 20
22.7276
 30
0.0
 10
155.0222
 20
20.6092
 30
0.0
 10
155.6248
 20
18.3479
 30
0.0
 10
155.621
 20
16.066
 30
0.0
 10
155.621
 20
16.066
 30
0.0
 10
154.3635
 20
14.4774
 30
0.0
 10
153.4758
 20
12.7511
 30
0.0
 10
152.9932
 20
10.9556
 30
0.0
 10
152.9932
 20
10.9556
 30
0.0
 10
152.9932
 20
10.9556
 30
0.0
 10
106.6349
 20
10.9556
 30
0.0
 10
106.6349
 20
10.9556
 30
0.0
 10
106.6349
 20
10.9556
 30
0.0
 10
106.6349
 20
10.9556
 30
0.0
 10
106.8249
 20
19.2139
 30
0.0
 10
106.8249
 20
19.2139
 30
0.0
 10
106.8249
 20
19.2139
 30
0.0
 10
106.8249
 20
19.2139
 30
0.0
 10
112.2753
 20
19.1691
 30
0.0
 10
112.2753
 20
19.1691
 30
0.0
  0
SPLINE
  5
7E
330
1F
100
AcDbEntity
  8
layer 1
 62
     7
370
     9
100
AcDbSpline
210
0.0
220
0.0
230
1.0
 70
    11
 71
     3
 72
    56
 73
    52
 74
     0
 42
0.0000000001
 43
0.0000000001
 12
1.0
 22
0.0
 32
0.0
 13
1.0
 23
0.0
 33
0.0
 40
0.0
 40
0.0
 40
0.0
 40
0.0
 40
0.0714285714285714
 40
0.0714285714285714
 40
0.0714285714285714
 40
0.0714285714285714
 40
0.1428571428571428
 40
0.1428571428571428
 40
0.1428571428571428
 40
0.1428571428571428
 40
0.2142857142857143
 40
0.2142857142857143
 40
0.2142857142857143
 40
0.2142857142857143
 40
0.2857142857142857
 40
0.2857142857142857
 40
0.2857142857142857
 40
0.2857142857142857
 40
0.3571428571428572
 40
0.3571428571428572
 40
0.3571428571428572
 40
0.3571428571428572
 40
0.4285714285714285
 40
0.4285714285714285
 40
0.4285714285714285
 40
0.4285714285714285
 40
0.5
 40
0.5
 40
0.5
 40
0.5
 40
0.5714285714285714
 40
0.5714285714285714
 40
0.5714285714285714
 40
0.5714285714285714
 40
0.6428571428571429
 40
0.6428571428571429
 40
0.6428571428571429
 40
0.6428571428571429
 40
0.7142857142857143
 40
0.7142857142857143
 40
0.7142857142857143
 40
0.7142857142857143
 40
0.7857142857142857
 40
0.7857142857142857
 40
0.7857142857142857
 40
0.7857142857142857
 40
0.8571428571428571
 40
0.8571428571428571
 40
0.8571428571428571
 40
0.8571428571428571
 40
1.0
 40
1.0
 40
1.0
 40
1.0
 10
0.2348
 20
42.1658
 30
0.0
 10
0.2348
 20
42.1658
 30
0.0
 10
3.5295
 20
42.1658
 30
0.0
 10
3.5295
 20
42.1658
 30
0.0
 10
3.5295
 20
42.1658
 30
0.0
 10
5.2506
 20
38.251
 30
0.0
 10
7.4346
 20
34.4497
 30
0.0
 10
10.057
 20
30.8037
 30
0.0
 10
10.057
 20
30.8037
 30
0.0
 10
8.0937
 20
28.9339
 30
0.0
 10
7.6145
 20
26.465
 30
0.0
 10
8.7898
 20
24.2789
 30
0.0
 10
8.7898
 20
24.2789
 30
0.0
 10
9.8035
 20
22.4694
 30
0.0
 10
11.6341
 20
20.9588
 30
0.0
 10
13.9867
 20
19.9903
 30
0.0
 10
13.9867
 20
19.9903
 30
0.0
 10
15.7362
 20
19.7048
 30
0.0
 10
17.5584
 20
20.1661
 30
0.0
 10
18.6755
 20
21.1765
 30
0.0
 10
18.6755
 20
21.1765
 30
0.0
 10
21.5666
 20
24.6366
 30
0.0
 10
24.1287
 20
28.2347
 30
0.0
 10
26.3435
 20
31.9448
 30
0.0
 10
26.3435
 20
31.9448
 30
0.0
 10
28.4241
 20
35.1915
 30
0.0
 10
30.883
 20
38.3048
 30
0.0
 10
33.6945
 20
41.2526
 30
0.0
 10
33.6945
 20
41.2526
 30
0.0
 10
37.9543
 20
45.5132
 30
0.0
 10
44.0996
 20
48.6024
 30
0.0
 10
51.1216
 20
50.0137
 30
0.0
 10
51.1216
 20
50.0137
 30
0.0
 10
50.8629
 20
47.7672
 30
0.0
 10
50.8426
 20
45.5094
 30
0.0
 10
51.0582
 20
43.26
 30
0.0
 10
51.0582
 20
43.26
 30
0.0
 10
44.679
 20
41.8089
 30
0.0
 10
39.3799
 20
38.5689
 30
0.0
 10
36.356
 20
34.2716
 30
0.0
 10
36.356
 20
34.2716
 30
0.0
 10
30.5817
 20
27.2385
 30
0.0
 10
27.9287
 20
19.1036
 30
0.0
 10
28.7511
 20
10.9556
 30
0.0
 10
28.7511
 20
10.9556
 30
0.0
 10
28.7511
 20
10.9556
 30
0.0
 10
0.2348
 20
10.9556
 30
0.0
 10
0.2348
 20
10.9556
 30
0.0
 10
0.2348
 20
10.9556
 30
0.0
 10
0.2348
 20
10.9556
 30
0.0
 10
0.2348
 20
42.1658
 30
0.0
 10
0.2348
 20
42.1658
 30
0.0
  0
SPLINE
  5
7F
330
1F
100
AcDbEntity
  8
layer 1
 62
     7
370
     9
100
AcDbSpline
210
0.0
220
0.0
230
1.0
 70
    11
 71
     3
 72
    56
 73
    52
 74
     0
 42
0.0000000001
 43
0.0000000001
 12
1.0
 22
0.0
 32
0.0
 13
1.0
 23
0.0
 33
0.0
 40
0.0
 40
0.0
 40
0.0
 40
0.0
 40
0.0714285714285714
 40
0.0714285714285714
 40
0.0714285714285714
 40
0.0714285714285714
 40
0.1428571428571428
 40
0.1428571428571428
 40
0.1428571428571428
 40
0.1428571428571428
 40
0.2142857142857143
 40
0.2142857142857143
 40
0.2142857142857143
 40
0.2142857142857143
 40
0.2857142857142857
 40
0.2857142857142857
 40
0.2857142857142857
 40
0.2857142857142857
 40
0.3571428571428572
 40
0.3571428571428572
 40
0.3571428571428572
 40
0.3571428571428572
 40
0.4285714285714285
 40
0.4285714285714285
 40
0.4285714285714285
 40
0.4285714285714285
 40
0.5
 40
0.5
 40
0.5
 40
0.5
 40
0.5714285714285714
 40
0.5714285714285714
 40
0.5714285714285714
 40
0.5714285714285714
 40
0.6428571428571429
 40
0.6428571428571429
 40
0.6428571428571429
 40
0.6428571428571429
 40
0.7142857142857143
 40
0.7142857142857143
 40
0.7142857142857143
 40
0.7142857142857143
 40
0.7857142857142857
 40
0.7857142857142857
 40
0.7857142857142857
 40
0.7857142857142857
 40
0.8571428571428571
 40
0.8571428571428571
 40
0.8571428571428571
 40
0.8571428571428571
 40
1.0
 40
1.0
 40
1.0
 40
1.0
 10
0.2348
 20
-26.0031
 30
0.0
 10
0.2348
 20
-26.0031
 30
0.0
 10
3.5295
 20
-26.0031
 30
0.0
 10
3.5295
 20
-26.0031
 30
0.0
 10
3.5295
 20
-26.0031
 30
0.0
 10
5.2506
 20
-22.0891
 30
0.0
 10
7.4346
 20
-18.2876
 30
0.0
 10
10.057
 20
-14.6416
 30
0.0
 10
10.057
 20
-14.6416
 30
0.0
 10
8.0937
 20
-12.7718
 30
0.0
 10
7.6145
 20
-10.3029
 30
0.0
 10
8.7898
 20
-8.1168
 30
0.0
 10
8.7898
 20
-8.1168
 30
0.0
 10
9.8035
 20
-6.3075
 30
0.0
 10
11.6341
 20
-4.7967
 30
0.0
 10
13.9867
 20
-3.8276
 30
0.0
 10
13.9867
 20
-3.8276
 30
0.0
 10
15.7362
 20
-3.5429
 30
0.0
 10
17.5584
 20
-4.0043
 30
0.0
 10
18.6755
 20
-5.0144
 30
0.0
 10
18.6755
 20
-5.0144
 30
0.0
 10
21.5666
 20
-8.4751
 30
0.0
 10
24.1287
 20
-12.0728
 30
0.0
 10
26.3435
 20
-15.7821
 30
0.0
 10
26.3435
 20
-15.7821
 30
0.0
 10
28.4241
 20
-19.0294
 30
0.0
 10
30.883
 20
-22.1436
 30
0.0
 10
33.6945
 20
-25.0907
 30
0.0
 10
33.6945
 20
-25.0907
 30
0.0
 10
37.9543
 20
-29.3511
 30
0.0
 10
44.0996
 20
-32.4403
 30
0.0
 10
51.1216
 20
-33.8516
 30
0.0
 10
51.1216
 20
-33.8516
 30
0.0
 10
50.8629
 20
-31.6051
 30
0.0
 10
50.8426
 20
-29.3475
 30
0.0
 10
51.0582
 20
-27.0988
 30
0.0
 10
51.0582
 20
-27.0988
 30
0.0
 10
44.679
 20
-25.647
 30
0.0
 10
39.3799
 20
-22.407
 30
0.0
 10
36.356
 20
-18.1097
 30
0.0
 10
36.356
 20
-18.1097
 30
0.0
 10
30.5817
 20
-11.0772
 30
0.0
 10
27.9287
 20
-2.9417
 30
0.0
 10
28.7511
 20
5.2065
 30
0.0
 10
28.7511
 20
5.2065
 30
0.0
 10
28.7511
 20
5.2065
 30
0.0
 10
0.2348
 20
5.2065
 30
0.0
 10
0.2348
 20
5.2065
 30
0.0
 10
0.2348
 20
5.2065
 30
0.0
 10
0.2348
 20
5.2065
 30
0.0
 10
0.2348
 20
-26.0031
 30
0.0
 10
0.2348
 20
-26.0031
 30
0.0
  0
SPLINE
  5
80
330
1F
100
AcDbEntity
  8
layer 1
 62
     7
370
     9
100
AcDbSpline
210
0.0
220
0.0
230
1.0
 70
    11
 71
     3
 72
    56
 73
    52
 74
     0
 42
0.0000000001
 43
0.0000000001
 12
1.0
 22
0.0
 32
0.0
 13
1.0
 23
0.0
 33
0.0
 40
0.0
 40
0.0
 40
0.0
 40
0.0
 40
0.0714285714285714
 40
0.0714285714285714
 40
0.0714285714285714
 40
0.0714285714285714
 40
0.1428571428571428
 40
0.1428571428571428
 40
0.1428571428571428
 40
0.1428571428571428
 40
0.2142857142857143
 40
0.2142857142857143
 40
0.2142857142857143
 40
0.2142857142857143
 40
0.2857142857142857
 40
0.2857142857142857
 40
0.2857142857142857
 40
0.2857142857142857
 40
0.3571428571428572
 40
0.3571428571428572
 40
0.3571428571428572
 40
0.3571428571428572
 40
0.4285714285714285
 40
0.4285714285714285
 40
0.4285714285714285
 40
0.4285714285714285
 40
0.5
 40
0.5
 40
0.5
 40
0.5
 40
0.5714285714285714
 40
0.5714285714285714
 40
0.5714285714285714
 40
0.5714285714285714
 40
0.6428571428571429
 40
0.6428571428571429
 40
0.6428571428571429
 40
0.6428571428571429
 40
0.7142857142857143
 40
0.7142857142857143
 40
0.7142857142857143
 40
0.7142857142857143
 40
0.7857142857142857
 40
0.7857142857142857
 40
0.7857142857142857
 40
0.7857142857142857
 40
0.8571428571428571
 40
0.8571428571428571
 40
0.8571428571428571
 40
0.8571428571428571
 40
1.0
 40
1.0
 40
1.0
 40
1.0
 10
186.5463
 20
-26.0031
 30
0.0
 10
186.5463
 20
-26.0031
 30
0.0
 10
183.2512
 20
-26.0031
 30
0.0
 10
183.2512
 20
-26.0031
 30
0.0
 10
183.2512
 20
-26.0031
 30
0.0
 10
181.5301
 20
-22.0891
 30
0.0
 10
179.3464
 20
-18.2876
 30
0.0
 10
176.7241
 20
-14.6416
 30
0.0
 10
176.7241
 20
-14.6416
 30
0.0
 10
178.6876
 20
-12.7718
 30
0.0
 10
179.1671
 20
-10.3029
 30
0.0
 10
177.9912
 20
-8.1168
 30
0.0
 10
177.9912
 20
-8.1168
 30
0.0
 10
176.9778
 20
-6.3075
 30
0.0
 10
175.1469
 20
-4.7967
 30
0.0
 10
172.7949
 20
-3.8276
 30
0.0
 10
172.7949
 20
-3.8276
 30
0.0
 10
171.0451
 20
-3.5429
 30
0.0
 10
169.2232
 20
-4.0043
 30
0.0
 10
168.1053
 20
-5.0144
 30
0.0
 10
168.1053
 20
-5.0144
 30
0.0
 10
165.2144
 20
-8.4751
 30
0.0
 10
162.6526
 20
-12.0728
 30
0.0
 10
160.4373
 20
-15.7821
 30
0.0
 10
160.4373
 20
-15.7821
 30
0.0
 10
158.3566
 20
-19.0294
 30
0.0
 10
155.8974
 20
-22.1436
 30
0.0
 10
153.0862
 20
-25.0907
 30
0.0
 10
153.0862
 20
-25.0907
 30
0.0
 10
148.8273
 20
-29.3511
 30
0.0
 10
142.6814
 20
-32.4403
 30
0.0
 10
135.6591
 20
-33.8516
 30
0.0
 10
135.6591
 20
-33.8516
 30
0.0
 10
135.9175
 20
-31.6051
 30
0.0
 10
135.9387
 20
-29.3475
 30
0.0
 10
135.7229
 20
-27.0988
 30
0.0
 10
135.7229
 20
-27.0988
 30
0.0
 10
142.1023
 20
-25.647
 30
0.0
 10
147.4014
 20
-22.407
 30
0.0
 10
150.425
 20
-18.1097
 30
0.0
 10
150.425
 20
-18.1097
 30
0.0
 10
156.1993
 20
-11.0772
 30
0.0
 10
158.8523
 20
-2.9417
 30
0.0
 10
158.0293
 20
5.2065
 30
0.0
 10
158.0293
 20
5.2065
 30
0.0
 10
158.0293
 20
5.2065
 30
0.0
 10
186.5463
 20
5.2065
 30
0.0
 10
186.5463
 20
5.2065
 30
0.0
 10
186.5463
 20
5.2065
 30
0.0
 10
186.5463
 20
5.2065
 30
0.0
 10
186.5463
 20
-26.0031
 30
0.0
 10
186.5463
 20
-26.0031
 30
0.0
  0
SPLINE
  5
81
330
1F
100
AcDbEntity
  8
layer 1
 62
     7
370
     9
100
AcDbSpline
210
0.0
220
0.0
230
1.0
 70
    11
 71
     3
 72
    56
 73
    52
 74
     0
 42
0.0000000001
 43
0.0000000001
 12
1.0
 22
0.0
 32
0.0
 13
1.0
 23
0.0
 33
0.0
 40
0.0
 40
0.0
 40
0.0
 40
0.0
 40
0.0714285714285714
 40
0.0714285714285714
 40
0.0714285714285714
 40
0.0714285714285714
 40
0.1428571428571428
 40
0.1428571428571428
 40
0.1428571428571428
 40
0.1428571428571428
 40
0.2142857142857143
 40
0.2142857142857143
 40
0.2142857142857143
 40
0.2142857142857143
 40
0.2857142857142857
 40
0.2857142857142857
 40
0.2857142857142857
 40
0.2857142857142857
 40
0.3571428571428572
 40
0.3571428571428572
 40
0.3571428571428572
 40
0.3571428571428572
 40
0.4285714285714285
 40
0.4285714285714285
 40
0.4285714285714285
 40
0.4285714285714285
 40
0.5
 40
0.5
 40
0.5
 40
0.5
 40
0.5714285714285714
 40
0.5714285714285714
 40
0.5714285714285714
 40
0.5714285714285714
 40
0.6428571428571429
 40
0.6428571428571429
 40
0.6428571428571429
 40
0.6428571428571429
 40
0.7142857142857143
 40
0.7142857142857143
 40
0.7142857142857143
 40
0.7142857142857143
 40
0.7857142857142857
 40
0.7857142857142857
 40
0.7857142857142857
 40
0.7857142857142857
 40
0.8571428571428571
 40
0.8571428571428571
 40
0.8571428571428571
 40
0.8571428571428571
 40
1.0
 40
1.0
 40
1.0
 40
1.0
 10
186.5463
 20
42.1658
 30
0.0
 10
186.5463
 20
42.1658
 30
0.0
 10
183.2512
 20
42.1658
 30
0.0
 10
183.2512
 20
42.1658
 30
0.0
 10
183.2512
 20
42.1658
 30
0.0
 10
181.5301
 20
38.251
 30
0.0
 10
179.3464
 20
34.4497
 30
0.0
 10
176.7241
 20
30.8037
 30
0.0
 10
176.7241
 20
30.8037
 30
0.0
 10
178.6876
 20
28.9339
 30
0.0
 10
179.1671
 20
26.465
 30
0.0
 10
177.9912
 20
24.2789
 30
0.0
 10
177.9912
 20
24.2789
 30
0.0
 10
176.9778
 20
22.4694
 30
0.0
 10
175.1469
 20
20.9588
 30
0.0
 10
172.7949
 20
19.9903
 30
0.0
 10
172.7949
 20
19.9903
 30
0.0
 10
171.0451
 20
19.7048
 30
0.0
 10
169.2232
 20
20.1661
 30
0.0
 10
168.1053
 20
21.1765
 30
0.0
 10
168.1053
 20
21.1765
 30
0.0
 10
165.2144
 20
24.6366
 30
0.0
 10
162.6526
 20
28.2347
 30
0.0
 10
160.4373
 20
31.9448
 30
0.0
 10
160.4373
 20
31.9448
 30
0.0
 10
158.3566
 20
35.1915
 30
0.0
 10
155.8974
 20
38.3048
 30
0.0
 10
153.0862
 20
41.2526
 30
0.0
 10
153.0862
 20
41.2526
 30
0.0
 10
148.8273
 20
45.5132
 30
0.0
 10
142.6814
 20
48.6024
 30
0.0
 10
135.6591
 20
50.0137
 30
0.0
 10
135.6591
 20
50.0137
 30
0.0
 10
135.9175
 20
47.7672
 30
0.0
 10
135.9387
 20
45.5094
 30
0.0
 10
135.7229
 20
43.26
 30
0.0
 10
135.7229
 20
43.26
 30
0.0
 10
142.1023
 20
41.8089
 30
0.0
 10
147.4014
 20
38.5689
 30
0.0
 10
150.425
 20
34.2716
 30
0.0
 10
150.425
 20
34.2716
 30
0.0
 10
156.1993
 20
27.2385
 30
0.0
 10
158.8523
 20
19.1036
 30
0.0
 10
158.0293
 20
10.9556
 30
0.0
 10
158.0293
 20
10.9556
 30
0.0
 10
158.0293
 20
10.9556
 30
0.0
 10
186.5463
 20
10.9556
 30
0.0
 10
186.5463
 20
10.9556
 30
0.0
 10
186.5463
 20
10.9556
 30
0.0
 10
186.5463
 20
10.9556
 30
0.0
 10
186.5463
 20
42.1658
 30
0.0
 10
186.5463
 20
42.1658
 30
0.0
  0
ENDSEC
  0
SECTION
  2
OBJECTS
  0
DICTIONARY
  5
C
330
0
100
AcDbDictionary
281
     1
  3
ACAD_GROUP
350
D
  3
ACAD_LAYOUT
350
1A
  3
ACAD_MATERIAL
350
3B
  3
ACAD_MLEADERSTYLE
350
A3
  3
ACAD_MLINESTYLE
350
17
  3
ACAD_PLOTSETTINGS
350
19
  3
ACAD_PLOTSTYLENAME
350
E
  3
ACAD_TABLESTYLE
350
A2
  3
ACAD_VISUALSTYLE
350
2A
  0
DICTIONARY
  5
D
102
{ACAD_REACTORS
330
C
102
}
330
C
100
AcDbDictionary
281
     1
  0
DICTIONARY
  5
1A
102
{ACAD_REACTORS
330
C
102
}
330
C
100
AcDbDictionary
281
     1
  3
Layout1
350
1E
  3
Layout2
350
26
  3
Model
350
22
  0
DICTIONARY
  5
3B
102
{ACAD_REACTORS
330
C
102
}
330
C
100
AcDbDictionary
281
     1
  3
ByBlock
350
3D
  3
ByLayer
350
3C
  3
Global
350
3E
  0
DICTIONARY
  5
A3
102
{ACAD_REACTORS
330
C
102
}
330
C
100
AcDbDictionary
281
     1
  0
DICTIONARY
  5
17
102
{ACAD_REACTORS
330
C
102
}
330
C
100
AcDbDictionary
281
     1
  3
Standard
350
18
  0
DICTIONARY
  5
19
102
{ACAD_REACTORS
330
C
102
}
330
C
100
AcDbDictionary
281
     1
  0
ACDBDICTIONARYWDFLT
  5
E
102
{ACAD_REACTORS
330
C
102
}
330
C
100
AcDbDictionary
281
     1
  3
Normal
350
F
100
AcDbDictionaryWithDefault
340
F
  0
DICTIONARY
  5
A2
102
{ACAD_REACTORS
330
C
102
}
330
C
100
AcDbDictionary
281
     1
  0
DICTIONARY
  5
2A
102
{ACAD_REACTORS
330
C
102
}
330
C
100
AcDbDictionary
281
     1
  3
2dWireframe
350
2F
  3
3D Hidden
350
31
  3
3dWireframe
350
30
  3
Basic
350
32
  3
Brighten
350
36
  3
ColorChange
350
3A
  3
Conceptual
350
34
  3
Dim
350
35
  3
Facepattern
350
39
  3
Flat
350
2B
  3
FlatWithEdges
350
2C
  3
Gouraud
350
2D
  3
GouraudWithEdges
350
2E
  3
Linepattern
350
38
  3
Realistic
350
33
  3
Thicken
350
37
  0
LAYOUT
  5
1E
102
{ACAD_REACTORS
330
1A
102
}
330
1A
100
AcDbPlotSettings
  1

  2
none_device
  4

  6

 40
0.0
 41
0.0
 42
0.0
 43
0.0
 44
0.0
 45
0.0
 46
0.0
 47
0.0
 48
0.0
 49
0.0
140
0.0
141
0.0
142
1.0
143
1.0
 70
   688
 72
     0
 73
     0
 74
     5
  7

 75
    16
 76
     0
 77
     2
 78
   300
147
1.0
148
0.0
149
0.0
100
AcDbLayout
  1
Layout1
 70
     1
 71
     1
 10
0.0
 20
0.0
 11
12.0
 21
9.0
 12
0.0
 22
0.0
 32
0.0
 14
1.000000000000000E+20
 24
1.000000000000000E+20
 34
1.000000000000000E+20
 15
-1.000000000000000E+20
 25
-1.000000000000000E+20
 35
-1.000000000000000E+20
146
0.0
 13
0.0
 23
0.0
 33
0.0
 16
1.0
 26
0.0
 36
0.0
 17
0.0
 27
1.0
 37
0.0
 76
     0
330
1B
  0
LAYOUT
  5
26
102
{ACAD_REACTORS
330
1A
102
}
330
1A
100
AcDbPlotSettings
  1

  2
none_device
  4

  6

 40
0.0
 41
0.0
 42
0.0
 43
0.0
 44
0.0
 45
0.0
 46
0.0
 47
0.0
 48
0.0
 49
0.0
140
0.0
141
0.0
142
1.0
143
1.0
 70
   688
 72
     0
 73
     0
 74
     5
  7

 75
    16
 76
     0
 77
     2
 78
   300
147
1.0
148
0.0
149
0.0
100
AcDbLayout
  1
Layout2
 70
     1
 71
     2
 10
0.0
 20
0.0
 11
0.0
 21
0.0
 12
0.0
 22
0.0
 32
0.0
 14
0.0
 24
0.0
 34
0.0
 15
0.0
 25
0.0
 35
0.0
146
0.0
 13
0.0
 23
0.0
 33
0.0
 16
1.0
 26
0.0
 36
0.0
 17
0.0
 27
1.0
 37
0.0
 76
     0
330
23
  0
LAYOUT
  5
22
102
{ACAD_REACTORS
330
1A
102
}
330
1A
100
AcDbPlotSettings
  1

  2
none_device
  4

  6

 40
0.0
 41
0.0
 42
0.0
 43
0.0
 44
0.0
 45
0.0
 46
0.0
 47
0.0
 48
0.0
 49
0.0
140
0.0
141
0.0
142
1.0
143
1.0
 70
  1712
 72
     0
 73
     0
 74
     0
  7

 75
     0
 76
     0
 77
     2
 78
   300
147
1.0
148
0.0
149
0.0
100
AcDbLayout
  1
Model
 70
     1
 71
     0
 10
0.0
 20
0.0
 11
12.0
 21
9.0
 12
0.0
 22
0.0
 32
0.0
 14
-9.4031
 24
-101.9658
 34
0.0
 15
196.1841
 25
118.128
 35
0.0
146
0.0
 13
0.0
 23
0.0
 33
0.0
 16
1.0
 26
0.0
 36
0.0
 17
0.0
 27
1.0
 37
0.0
 76
     0
330
1F
331
29
  0
MATERIAL
  5
3D
102
{ACAD_REACTORS
330
3B
102
}
330
3B
100
AcDbMaterial
  1
ByBlock
 72
     1
 94
      127
  0
MATERIAL
  5
3C
102
{ACAD_REACTORS
330
3B
102
}
330
3B
100
AcDbMaterial
  1
ByLayer
 72
     1
 94
      127
  0
MATERIAL
  5
3E
102
{ACAD_REACTORS
330
3B
102
}
330
3B
100
AcDbMaterial
  1
Global
 72
     1
 94
      127
  0
MLINESTYLE
  5
18
102
{ACAD_REACTORS
330
17
102
}
330
17
100
AcDbMlineStyle
  2
Standard
 70
     0
  3

 62
   256
 51
90.0
 52
90.0
 71
     2
 49
0.5
 62
   256
  6
BYLAYER
 49
-0.5
 62
   256
  6
BYLAYER
  0
ACDBPLACEHOLDER
  5
F
102
{ACAD_REACTORS
330
E
102
}
330
E
  0
VISUALSTYLE
  5
2F
102
{ACAD_REACTORS
330
2A
102
}
102
{ACAD_XDICTIONARY
360
8A
102
}
330
2A
100
AcDbVisualStyle
  2
2dWireframe
 70
     4
 71
     0
 72
     2
 73
     0
 90
        0
 40
-0.6
 41
-30.0
 62
     5
 63
     7
421
 16777215
 74
     1
 91
        4
 64
     7
 65
   257
 75
     1
175
     1
 42
1.0
 92
        0
 66
   257
 43
1.0
 76
     1
 77
     6
 78
     2
 67
     7
 79
     5
170
     0
171
     0
290
     0
174
     0
 93
        1
 44
0.0
173
     0
291
     0
 45
0.0
  0
VISUALSTYLE
  5
31
102
{ACAD_REACTORS
330
2A
102
}
102
{ACAD_XDICTIONARY
360
8E
102
}
330
2A
100
AcDbVisualStyle
  2
3D Hidden
 70
     6
 71
     1
 72
     2
 73
     2
 90
        0
 40
-0.6
 41
-30.0
 62
     5
 63
     7
421
 16777215
 74
     2
 91
        2
 64
     7
 65
   257
 75
     2
175
     1
 42
40.0
 92
        0
 66
   257
 43
1.0
 76
     1
 77
     6
 78
     2
 67
     7
 79
     3
170
     0
171
     0
290
     0
174
     0
 93
        1
 44
0.0
173
     0
291
     0
 45
0.0
  0
VISUALSTYLE
  5
30
102
{ACAD_REACTORS
330
2A
102
}
102
{ACAD_XDICTIONARY
360
8C
102
}
330
2A
100
AcDbVisualStyle
  2
3dWireframe
 70
     5
 71
     0
 72
     2
 73
     0
 90
        0
 40
-0.6
 41
-30.0
 62
     5
 63
     7
421
 16777215
 74
     1
 91
        4
 64
     7
 65
   257
 75
     1
175
     1
 42
1.0
 92
        0
 66
   257
 43
1.0
 76
     1
 77
     6
 78
     2
 67
     7
 79
     5
170
     0
171
     0
290
     0
174
     0
 93
        1
 44
0.0
173
     0
291
     0
 45
0.0
  0
VISUALSTYLE
  5
32
102
{ACAD_REACTORS
330
2A
102
}
102
{ACAD_XDICTIONARY
360
90
102
}
330
2A
100
AcDbVisualStyle
  2
Basic
 70
     7
 71
     1
 72
     0
 73
     1
 90
        0
 40
-0.6
 41
-30.0
 62
     5
 63
     7
421
 16777215
 74
     0
 91
        4
 64
     7
 65
   257
 75
     1
175
     1
 42
1.0
 92
        8
 66
     7
 43
1.0
 76
     1
 77
     6
 78
     2
 67
     7
 79
     5
170
     0
171
     0
290
     0
174
     0
 93
        1
 44
0.0
173
     0
291
     1
 45
0.0
  0
VISUALSTYLE
  5
36
102
{ACAD_REACTORS
330
2A
102
}
102
{ACAD_XDICTIONARY
360
98
102
}
330
2A
100
AcDbVisualStyle
  2
Brighten
 70
    12
 71
     2
 72
     2
 73
     0
 90
        0
 40
-0.6
 41
-30.0
 62
     5
 63
     7
421
 16777215
 74
     1
 91
        4
 64
     7
 65
   257
 75
     1
175
     1
 42
1.0
 92
        8
 66
     7
 43
1.0
 76
     1
 77
     6
 78
     2
 67
     7
 79
     5
170
     0
171
     0
290
     0
174
     0
 93
        1
 44
50.0
173
     0
291
     1
 45
0.0
  0
VISUALSTYLE
  5
3A
102
{ACAD_REACTORS
330
2A
102
}
102
{ACAD_XDICTIONARY
360
A0
102
}
330
2A
100
AcDbVisualStyle
  2
ColorChange
 70
    16
 71
     2
 72
     2
 73
     3
 90
        0
 40
-0.6
 41
-30.0
 62
     5
 63
     8
421
  8421504
 74
     1
 91
        4
 64
     7
 65
   257
 75
     1
175
     1
 42
1.0
 92
        8
 66
     8
424
  8421504
 43
1.0
 76
     1
 77
     6
 78
     2
 67
     7
 79
     5
170
     0
171
     0
290
     0
174
     0
 93
        1
 44
0.0
173
     0
291
     1
 45
0.0
  0
VISUALSTYLE
  5
34
102
{ACAD_REACTORS
330
2A
102
}
102
{ACAD_XDICTIONARY
360
94
102
}
330
2A
100
AcDbVisualStyle
  2
Conceptual
 70
     9
 71
     3
 72
     2
 73
     0
 90
        0
 40
-0.6
 41
-30.0
 62
     5
 63
     7
421
 16777215
 74
     2
 91
        2
 64
     7
 65
   257
 75
     1
175
     1
 42
40.0
 92
        8
 66
     7
 43
1.0
 76
     1
 77
     6
 78
     2
 67
     7
 79
     3
170
     0
171
     0
290
     0
174
     0
 93
        1
 44
0.0
173
     0
291
     0
 45
0.0
  0
VISUALSTYLE
  5
35
102
{ACAD_REACTORS
330
2A
102
}
102
{ACAD_XDICTIONARY
360
96
102
}
330
2A
100
AcDbVisualStyle
  2
Dim
 70
    11
 71
     2
 72
     2
 73
     0
 90
        0
 40
-0.6
 41
-30.0
 62
     5
 63
     7
421
 16777215
 74
     1
 91
        4
 64
     7
 65
   257
 75
     1
175
     1
 42
1.0
 92
        8
 66
     7
 43
1.0
 76
     1
 77
     6
 78
     2
 67
     7
 79
     5
170
     0
171
     0
290
     0
174
     0
 93
        1
 44
-50.0
173
     0
291
     1
 45
0.0
  0
VISUALSTYLE
  5
39
102
{ACAD_REACTORS
330
2A
102
}
102
{ACAD_XDICTIONARY
360
9E
102
}
330
2A
100
AcDbVisualStyle
  2
Facepattern
 70
    15
 71
     2
 72
     2
 73
     0
 90
        0
 40
-0.6
 41
-30.0
 62
     5
 63
     7
421
 16777215
 74
     1
 91
        4
 64
     7
 65
   257
 75
     1
175
     1
 42
1.0
 92
        8
 66
     7
 43
1.0
 76
     1
 77
     6
 78
     2
 67
     7
 79
     5
170
     0
171
     0
290
     0
174
     0
 93
        1
 44
0.0
173
     0
291
     1
 45
0.0
  0
VISUALSTYLE
  5
2B
102
{ACAD_REACTORS
330
2A
102
}
102
{ACAD_XDICTIONARY
360
82
102
}
330
2A
100
AcDbVisualStyle
  2
Flat
 70
     0
 71
     2
 72
     1
 73
     1
 90
        2
 40
-0.6
 41
30.0
 62
     5
 63
     7
421
 16777215
 74
     0
 91
        4
 64
     7
 65
   257
 75
     1
175
     1
 42
1.0
 92
        8
 66
     7
 43
1.0
 76
     1
 77
     6
 78
     2
 67
     7
 79
     5
170
     0
171
     0
290
     0
174
     0
 93
       13
 44
0.0
173
     0
291
     1
 45
0.0
  0
VISUALSTYLE
  5
2C
102
{ACAD_REACTORS
330
2A
102
}
102
{ACAD_XDICTIONARY
360
84
102
}
330
2A
100
AcDbVisualStyle
  2
FlatWithEdges
 70
     1
 71
     2
 72
     1
 73
     1
 90
        2
 40
-0.6
 41
30.0
 62
     5
 63
     7
421
 16777215
 74
     1
 91
        4
 64
     7
 65
   257
 75
     1
175
     1
 42
1.0
 92
        0
 66
   257
 43
1.0
 76
     1
 77
     6
 78
     2
 67
     7
 79
     5
170
     0
171
     0
290
     0
174
     0
 93
       13
 44
0.0
173
     0
291
     1
 45
0.0
  0
VISUALSTYLE
  5
2D
102
{ACAD_REACTORS
330
2A
102
}
102
{ACAD_XDICTIONARY
360
86
102
}
330
2A
100
AcDbVisualStyle
  2
Gouraud
 70
     2
 71
     2
 72
     2
 73
     1
 90
        2
 40
-0.6
 41
30.0
 62
     5
 63
     7
421
 16777215
 74
     0
 91
        4
 64
     7
 65
   257
 75
     1
175
     1
 42
1.0
 92
        0
 66
     7
 43
1.0
 76
     1
 77
     6
 78
     2
 67
     7
 79
     5
170
     0
171
     0
290
     0
174
     0
 93
       13
 44
0.0
173
     0
291
     1
 45
0.0
  0
VISUALSTYLE
  5
2E
102
{ACAD_REACTORS
330
2A
102
}
102
{ACAD_XDICTIONARY
360
88
102
}
330
2A
100
AcDbVisualStyle
  2
GouraudWithEdges
 70
     3
 71
     2
 72
     2
 73
     1
 90
        2
 40
-0.6
 41
30.0
 62
     5
 63
     7
421
 16777215
 74
     1
 91
        4
 64
     7
 65
   257
 75
     1
175
     1
 42
1.0
 92
        0
 66
   257
 43
1.0
 76
     1
 77
     6
 78
     2
 67
     7
 79
     5
170
     0
171
     0
290
     0
174
     0
 93
       13
 44
0.0
173
     0
291
     1
 45
0.0
  0
VISUALSTYLE
  5
38
102
{ACAD_REACTORS
330
2A
102
}
102
{ACAD_XDICTIONARY
360
9C
102
}
330
2A
100
AcDbVisualStyle
  2
Linepattern
 70
    14
 71
     2
 72
     2
 73
     0
 90
        0
 40
-0.6
 41
-30.0
 62
     5
 63
     7
421
 16777215
 74
     1
 91
        4
 64
     7
 65
   257
 75
     7
175
     7
 42
1.0
 92
        8
 66
     7
 43
1.0
 76
     1
 77
     6
 78
     2
 67
     7
 79
     5
170
     0
171
     0
290
     0
174
     0
 93
        1
 44
0.0
173
     0
291
     1
 45
0.0
  0
VISUALSTYLE
  5
33
102
{ACAD_REACTORS
330
2A
102
}
102
{ACAD_XDICTIONARY
360
92
102
}
330
2A
100
AcDbVisualStyle
  2
Realistic
 70
     8
 71
     2
 72
     2
 73
     0
 90
        0
 40
-0.6
 41
-30.0
 62
     5
 63
     7
421
 16777215
 74
     1
 91
        0
 64
     7
 65
   257
 75
     1
175
     1
 42
1.0
 92
        8
 66
     8
424
  7895160
 43
1.0
 76
     1
 77
     6
 78
     2
 67
     7
 79
     5
170
     0
171
     0
290
     0
174
     0
 93
       13
 44
0.0
173
     0
291
     0
 45
0.0
  0
VISUALSTYLE
  5
37
102
{ACAD_REACTORS
330
2A
102
}
102
{ACAD_XDICTIONARY
360
9A
102
}
330
2A
100
AcDbVisualStyle
  2
Thicken
 70
    13
 71
     2
 72
     2
 73
     0
 90
        0
 40
-0.6
 41
-30.0
 62
     5
 63
     7
421
 16777215
 74
     1
 91
        4
 64
     7
 65
   257
 75
     1
175
     1
 42
1.0
 92
       12
 66
     7
 43
1.0
 76
     1
 77
     6
 78
     2
 67
     7
 79
     5
170
     0
171
     0
290
     0
174
     0
 93
        1
 44
0.0
173
     0
291
     1
 45
0.0
  0
DICTIONARY
  5
8A
330
2F
100
AcDbDictionary
280
     1
281
     1
  3
ACAD_XREC_ROUNDTRIP
360
8B
  0
DICTIONARY
  5
8E
330
31
100
AcDbDictionary
280
     1
281
     1
  3
ACAD_XREC_ROUNDTRIP
360
8F
  0
DICTIONARY
  5
8C
330
30
100
AcDbDictionary
280
     1
281
     1
  3
ACAD_XREC_ROUNDTRIP
360
8D
  0
DICTIONARY
  5
90
330
32
100
AcDbDictionary
280
     1
281
     1
  3
ACAD_XREC_ROUNDTRIP
360
91
  0
DICTIONARY
  5
98
330
36
100
AcDbDictionary
280
     1
281
     1
  3
ACAD_XREC_ROUNDTRIP
360
99
  0
DICTIONARY
  5
A0
330
3A
100
AcDbDictionary
280
     1
281
     1
  3
ACAD_XREC_ROUNDTRIP
360
A1
  0
DICTIONARY
  5
94
330
34
100
AcDbDictionary
280
     1
281
     1
  3
ACAD_XREC_ROUNDTRIP
360
95
  0
DICTIONARY
  5
96
330
35
100
AcDbDictionary
280
     1
281
     1
  3
ACAD_XREC_ROUNDTRIP
360
97
  0
DICTIONARY
  5
9E
330
39
100
AcDbDictionary
280
     1
281
     1
  3
ACAD_XREC_ROUNDTRIP
360
9F
  0
DICTIONARY
  5
82
330
2B
100
AcDbDictionary
280
     1
281
     1
  3
ACAD_XREC_ROUNDTRIP
360
83
  0
DICTIONARY
  5
84
330
2C
100
AcDbDictionary
280
     1
281
     1
  3
ACAD_XREC_ROUNDTRIP
360
85
  0
DICTIONARY
  5
86
330
2D
100
AcDbDictionary
280
     1
281
     1
  3
ACAD_XREC_ROUNDTRIP
360
87
  0
DICTIONARY
  5
88
330
2E
100
AcDbDictionary
280
     1
281
     1
  3
ACAD_XREC_ROUNDTRIP
360
89
  0
DICTIONARY
  5
9C
330
38
100
AcDbDictionary
280
     1
281
     1
  3
ACAD_XREC_ROUNDTRIP
360
9D
  0
DICTIONARY
  5
92
330
33
100
AcDbDictionary
280
     1
281
     1
  3
ACAD_XREC_ROUNDTRIP
360
93
  0
DICTIONARY
  5
9A
330
37
100
AcDbDictionary
280
     1
281
     1
  3
ACAD_XREC_ROUNDTRIP
360
9B
  0
XRECORD
  5
8B
102
{ACAD_REACTORS
330
8A
102
}
330
8A
100
AcDbXrecord
280
     1
102
RTVSPropertyOp0
 70
     1
102
RTVSPropertyOp1
 70
     1
102
RTVSPropertyOp2
 70
     1
102
RTVSPropertyOp3
 70
     1
102
RTVSPropertyOp4
 70
     1
102
RTVSPropertyOp5
 70
     1
102
RTVSPropertyOp6
 70
     1
102
RTVSPropertyOp7
 70
     1
102
RTVSPropertyOp8
 70
     1
102
RTVSPropertyOp9
 70
     1
102
RTVSPropertyOp10
 70
     1
102
RTVSPropertyOp11
 70
     1
102
RTVSPropertyOp12
 70
     1
102
RTVSPropertyOp13
 70
     1
102
RTVSPropertyOp14
 70
     1
102
RTVSPropertyOp15
 70
     1
102
RTVSPropertyOp16
 70
     1
102
RTVSPropertyOp17
 70
     1
102
RTVSPropertyOp18
 70
     1
102
RTVSPropertyOp19
 70
     1
102
RTVSPropertyOp20
 70
     1
102
RTVSPropertyOp21
 70
     1
102
RTVSPropertyOp22
 70
     1
102
RTVSPropertyOp23
 70
     1
102
RTVSPropertyOp24
 70
     1
102
RTVSPropertyOp25
 70
     1
102
RTVSPropertyOp26
 70
     1
102
RTVSPropertyOp27
 70
     1
102
RTVSPropertyOp28
 70
     1
102
RTVSPropertyOp29
 70
     1
102
RTVSPropertyOp30
 70
     1
102
RTVSPropertyOp31
 70
     1
102
RTVSPropertyOp32
 70
     1
  0
XRECORD
  5
8F
102
{ACAD_REACTORS
330
8E
102
}
330
8E
100
AcDbXrecord
280
     1
102
RTVSPropertyOp0
 70
     1
102
RTVSPropertyOp1
 70
     1
102
RTVSPropertyOp2
 70
     1
102
RTVSPropertyOp3
 70
     1
102
RTVSPropertyOp4
 70
     1
102
RTVSPropertyOp5
 70
     1
102
RTVSPropertyOp6
 70
     1
102
RTVSPropertyOp7
 70
     1
102
RTVSPropertyOp8
 70
     1
102
RTVSPropertyOp9
 70
     1
102
RTVSPropertyOp10
 70
     1
102
RTVSPropertyOp11
 70
     1
102
RTVSPropertyOp12
 70
     1
102
RTVSPropertyOp13
 70
     1
102
RTVSPropertyOp14
 70
     1
102
RTVSPropertyOp15
 70
     1
102
RTVSPropertyOp16
 70
     1
102
RTVSPropertyOp17
 70
     1
102
RTVSPropertyOp18
 70
     1
102
RTVSPropertyOp19
 70
     1
102
RTVSPropertyOp20
 70
     1
102
RTVSPropertyOp21
 70
     1
102
RTVSPropertyOp22
 70
     1
102
RTVSPropertyOp23
 70
     1
102
RTVSPropertyOp24
 70
     1
102
RTVSPropertyOp25
 70
     1
102
RTVSPropertyOp26
 70
     1
102
RTVSPropertyOp27
 70
     1
102
RTVSPropertyOp28
 70
     1
102
RTVSPropertyOp29
 70
     1
102
RTVSPropertyOp30
 70
     1
102
RTVSPropertyOp31
 70
     1
102
RTVSPropertyOp32
 70
     1
  0
XRECORD
  5
8D
102
{ACAD_REACTORS
330
8C
102
}
330
8C
100
AcDbXrecord
280
     1
102
RTVSPropertyOp0
 70
     1
102
RTVSPropertyOp1
 70
     1
102
RTVSPropertyOp2
 70
     1
102
RTVSPropertyOp3
 70
     1
102
RTVSPropertyOp4
 70
     1
102
RTVSPropertyOp5
 70
     1
102
RTVSPropertyOp6
 70
     1
102
RTVSPropertyOp7
 70
     1
102
RTVSPropertyOp8
 70
     1
102
RTVSPropertyOp9
 70
     1
102
RTVSPropertyOp10
 70
     1
102
RTVSPropertyOp11
 70
     1
102
RTVSPropertyOp12
 70
     1
102
RTVSPropertyOp13
 70
     1
102
RTVSPropertyOp14
 70
     1
102
RTVSPropertyOp15
 70
     1
102
RTVSPropertyOp16
 70
     1
102
RTVSPropertyOp17
 70
     1
102
RTVSPropertyOp18
 70
     1
102
RTVSPropertyOp19
 70
     1
102
RTVSPropertyOp20
 70
     1
102
RTVSPropertyOp21
 70
     1
102
RTVSPropertyOp22
 70
     1
102
RTVSPropertyOp23
 70
     1
102
RTVSPropertyOp24
 70
     1
102
RTVSPropertyOp25
 70
     1
102
RTVSPropertyOp26
 70
     1
102
RTVSPropertyOp27
 70
     1
102
RTVSPropertyOp28
 70
     1
102
RTVSPropertyOp29
 70
     1
102
RTVSPropertyOp30
 70
     1
102
RTVSPropertyOp31
 70
     1
102
RTVSPropertyOp32
 70
     1
  0
XRECORD
  5
91
102
{ACAD_REACTORS
330
90
102
}
330
90
100
AcDbXrecord
280
     1
102
RTVSPropertyOp0
 70
     1
102
RTVSPropertyOp1
 70
     1
102
RTVSPropertyOp2
 70
     1
102
RTVSPropertyOp3
 70
     1
102
RTVSPropertyOp4
 70
     1
102
RTVSPropertyOp5
 70
     1
102
RTVSPropertyOp6
 70
     1
102
RTVSPropertyOp7
 70
     1
102
RTVSPropertyOp8
 70
     1
102
RTVSPropertyOp9
 70
     1
102
RTVSPropertyOp10
 70
     1
102
RTVSPropertyOp11
 70
     1
102
RTVSPropertyOp12
 70
     1
102
RTVSPropertyOp13
 70
     1
102
RTVSPropertyOp14
 70
     1
102
RTVSPropertyOp15
 70
     1
102
RTVSPropertyOp16
 70
     1
102
RTVSPropertyOp17
 70
     1
102
RTVSPropertyOp18
 70
     1
102
RTVSPropertyOp19
 70
     1
102
RTVSPropertyOp20
 70
     1
102
RTVSPropertyOp21
 70
     1
102
RTVSPropertyOp22
 70
     1
102
RTVSPropertyOp23
 70
     1
102
RTVSPropertyOp24
 70
     1
102
RTVSPropertyOp25
 70
     1
102
RTVSPropertyOp26
 70
     1
102
RTVSPropertyOp27
 70
     1
102
RTVSPropertyOp28
 70
     1
102
RTVSPropertyOp29
 70
     1
102
RTVSPropertyOp30
 70
     1
102
RTVSPropertyOp31
 70
     1
102
RTVSPropertyOp32
 70
     1
  0
XRECORD
  5
99
102
{ACAD_REACTORS
330
98
102
}
330
98
100
AcDbXrecord
280
     1
102
RTVSPropertyOp0
 70
     1
102
RTVSPropertyOp1
 70
     1
102
RTVSPropertyOp2
 70
     1
102
RTVSPropertyOp3
 70
     1
102
RTVSPropertyOp4
 70
     1
102
RTVSPropertyOp5
 70
     1
102
RTVSPropertyOp6
 70
     1
102
RTVSPropertyOp7
 70
     1
102
RTVSPropertyOp8
 70
     1
102
RTVSPropertyOp9
 70
     1
102
RTVSPropertyOp10
 70
     1
102
RTVSPropertyOp11
 70
     1
102
RTVSPropertyOp12
 70
     1
102
RTVSPropertyOp13
 70
     1
102
RTVSPropertyOp14
 70
     1
102
RTVSPropertyOp15
 70
     1
102
RTVSPropertyOp16
 70
     1
102
RTVSPropertyOp17
 70
     1
102
RTVSPropertyOp18
 70
     1
102
RTVSPropertyOp19
 70
     1
102
RTVSPropertyOp20
 70
     1
102
RTVSPropertyOp21
 70
     1
102
RTVSPropertyOp22
 70
     1
102
RTVSPropertyOp23
 70
     1
102
RTVSPropertyOp24
 70
     1
102
RTVSPropertyOp25
 70
     1
102
RTVSPropertyOp26
 70
     1
102
RTVSPropertyOp27
 70
     1
102
RTVSPropertyOp28
 70
     1
102
RTVSPropertyOp29
 70
     1
102
RTVSPropertyOp30
 70
     1
102
RTVSPropertyOp31
 70
     1
102
RTVSPropertyOp32
 70
     1
  0
XRECORD
  5
A1
102
{ACAD_REACTORS
330
A0
102
}
330
A0
100
AcDbXrecord
280
     1
102
RTVSPropertyOp0
 70
     1
102
RTVSPropertyOp1
 70
     1
102
RTVSPropertyOp2
 70
     1
102
RTVSPropertyOp3
 70
     1
102
RTVSPropertyOp4
 70
     1
102
RTVSPropertyOp5
 70
     1
102
RTVSPropertyOp6
 70
     1
102
RTVSPropertyOp7
 70
     1
102
RTVSPropertyOp8
 70
     1
102
RTVSPropertyOp9
 70
     1
102
RTVSPropertyOp10
 70
     1
102
RTVSPropertyOp11
 70
     1
102
RTVSPropertyOp12
 70
     1
102
RTVSPropertyOp13
 70
     1
102
RTVSPropertyOp14
 70
     1
102
RTVSPropertyOp15
 70
     1
102
RTVSPropertyOp16
 70
     1
102
RTVSPropertyOp17
 70
     1
102
RTVSPropertyOp18
 70
     1
102
RTVSPropertyOp19
 70
     1
102
RTVSPropertyOp20
 70
     1
102
RTVSPropertyOp21
 70
     1
102
RTVSPropertyOp22
 70
     1
102
RTVSPropertyOp23
 70
     1
102
RTVSPropertyOp24
 70
     1
102
RTVSPropertyOp25
 70
     1
102
RTVSPropertyOp26
 70
     1
102
RTVSPropertyOp27
 70
     1
102
RTVSPropertyOp28
 70
     1
102
RTVSPropertyOp29
 70
     1
102
RTVSPropertyOp30
 70
     1
102
RTVSPropertyOp31
 70
     1
102
RTVSPropertyOp32
 70
     1
  0
XRECORD
  5
95
102
{ACAD_REACTORS
330
94
102
}
330
94
100
AcDbXrecord
280
     1
102
RTVSPropertyOp0
 70
     1
102
RTVSPropertyOp1
 70
     1
102
RTVSPropertyOp2
 70
     1
102
RTVSPropertyOp3
 70
     1
102
RTVSPropertyOp4
 70
     1
102
RTVSPropertyOp5
 70
     1
102
RTVSPropertyOp6
 70
     1
102
RTVSPropertyOp7
 70
     1
102
RTVSPropertyOp8
 70
     1
102
RTVSPropertyOp9
 70
     1
102
RTVSPropertyOp10
 70
     1
102
RTVSPropertyOp11
 70
     1
102
RTVSPropertyOp12
 70
     1
102
RTVSPropertyOp13
 70
     1
102
RTVSPropertyOp14
 70
     1
102
RTVSPropertyOp15
 70
     1
102
RTVSPropertyOp16
 70
     1
102
RTVSPropertyOp17
 70
     1
102
RTVSPropertyOp18
 70
     1
102
RTVSPropertyOp19
 70
     1
102
RTVSPropertyOp20
 70
     1
102
RTVSPropertyOp21
 70
     1
102
RTVSPropertyOp22
 70
     1
102
RTVSPropertyOp23
 70
     1
102
RTVSPropertyOp24
 70
     1
102
RTVSPropertyOp25
 70
     1
102
RTVSPropertyOp26
 70
     1
102
RTVSPropertyOp27
 70
     1
102
RTVSPropertyOp28
 70
     1
102
RTVSPropertyOp29
 70
     1
102
RTVSPropertyOp30
 70
     1
102
RTVSPropertyOp31
 70
     1
102
RTVSPropertyOp32
 70
     1
  0
XRECORD
  5
97
102
{ACAD_REACTORS
330
96
102
}
330
96
100
AcDbXrecord
280
     1
102
RTVSPropertyOp0
 70
     1
102
RTVSPropertyOp1
 70
     1
102
RTVSPropertyOp2
 70
     1
102
RTVSPropertyOp3
 70
     1
102
RTVSPropertyOp4
 70
     1
102
RTVSPropertyOp5
 70
     1
102
RTVSPropertyOp6
 70
     1
102
RTVSPropertyOp7
 70
     1
102
RTVSPropertyOp8
 70
     1
102
RTVSPropertyOp9
 70
     1
102
RTVSPropertyOp10
 70
     1
102
RTVSPropertyOp11
 70
     1
102
RTVSPropertyOp12
 70
     1
102
RTVSPropertyOp13
 70
     1
102
RTVSPropertyOp14
 70
     1
102
RTVSPropertyOp15
 70
     1
102
RTVSPropertyOp16
 70
     1
102
RTVSPropertyOp17
 70
     1
102
RTVSPropertyOp18
 70
     1
102
RTVSPropertyOp19
 70
     1
102
RTVSPropertyOp20
 70
     1
102
RTVSPropertyOp21
 70
     1
102
RTVSPropertyOp22
 70
     1
102
RTVSPropertyOp23
 70
     1
102
RTVSPropertyOp24
 70
     1
102
RTVSPropertyOp25
 70
     1
102
RTVSPropertyOp26
 70
     1
102
RTVSPropertyOp27
 70
     1
102
RTVSPropertyOp28
 70
     1
102
RTVSPropertyOp29
 70
     1
102
RTVSPropertyOp30
 70
     1
102
RTVSPropertyOp31
 70
     1
102
RTVSPropertyOp32
 70
     1
  0
XRECORD
  5
9F
102
{ACAD_REACTORS
330
9E
102
}
330
9E
100
AcDbXrecord
280
     1
102
RTVSPropertyOp0
 70
     1
102
RTVSPropertyOp1
 70
     1
102
RTVSPropertyOp2
 70
     1
102
RTVSPropertyOp3
 70
     1
102
RTVSPropertyOp4
 70
     1
102
RTVSPropertyOp5
 70
     1
102
RTVSPropertyOp6
 70
     1
102
RTVSPropertyOp7
 70
     1
102
RTVSPropertyOp8
 70
     1
102
RTVSPropertyOp9
 70
     1
102
RTVSPropertyOp10
 70
     1
102
RTVSPropertyOp11
 70
     1
102
RTVSPropertyOp12
 70
     1
102
RTVSPropertyOp13
 70
     1
102
RTVSPropertyOp14
 70
     1
102
RTVSPropertyOp15
 70
     1
102
RTVSPropertyOp16
 70
     1
102
RTVSPropertyOp17
 70
     1
102
RTVSPropertyOp18
 70
     1
102
RTVSPropertyOp19
 70
     1
102
RTVSPropertyOp20
 70
     1
102
RTVSPropertyOp21
 70
     1
102
RTVSPropertyOp22
 70
     1
102
RTVSPropertyOp23
 70
     1
102
RTVSPropertyOp24
 70
     1
102
RTVSPropertyOp25
 70
     1
102
RTVSPropertyOp26
 70
     1
102
RTVSPropertyOp27
 70
     1
102
RTVSPropertyOp28
 70
     1
102
RTVSPropertyOp29
 70
     1
102
RTVSPropertyOp30
 70
     1
102
RTVSPropertyOp31
 70
     1
102
RTVSPropertyOp32
 70
     1
  0
XRECORD
  5
83
102
{ACAD_REACTORS
330
82
102
}
330
82
100
AcDbXrecord
280
     1
102
RTVSPropertyOp0
 70
     1
102
RTVSPropertyOp1
 70
     1
102
RTVSPropertyOp2
 70
     1
102
RTVSPropertyOp3
 70
     1
102
RTVSPropertyOp4
 70
     1
102
RTVSPropertyOp5
 70
     1
102
RTVSPropertyOp6
 70
     1
102
RTVSPropertyOp7
 70
     1
102
RTVSPropertyOp8
 70
     1
102
RTVSPropertyOp9
 70
     1
102
RTVSPropertyOp10
 70
     1
102
RTVSPropertyOp11
 70
     1
102
RTVSPropertyOp12
 70
     1
102
RTVSPropertyOp13
 70
     1
102
RTVSPropertyOp14
 70
     1
102
RTVSPropertyOp15
 70
     1
102
RTVSPropertyOp16
 70
     1
102
RTVSPropertyOp17
 70
     1
102
RTVSPropertyOp18
 70
     1
102
RTVSPropertyOp19
 70
     1
102
RTVSPropertyOp20
 70
     1
102
RTVSPropertyOp21
 70
     1
102
RTVSPropertyOp22
 70
     1
102
RTVSPropertyOp23
 70
     1
102
RTVSPropertyOp24
 70
     1
102
RTVSPropertyOp25
 70
     1
102
RTVSPropertyOp26
 70
     1
102
RTVSPropertyOp27
 70
     1
102
RTVSPropertyOp28
 70
     1
102
RTVSPropertyOp29
 70
     1
102
RTVSPropertyOp30
 70
     1
102
RTVSPropertyOp31
 70
     1
102
RTVSPropertyOp32
 70
     1
  0
XRECORD
  5
85
102
{ACAD_REACTORS
330
84
102
}
330
84
100
AcDbXrecord
280
     1
102
RTVSPropertyOp0
 70
     1
102
RTVSPropertyOp1
 70
     1
102
RTVSPropertyOp2
 70
     1
102
RTVSPropertyOp3
 70
     1
102
RTVSPropertyOp4
 70
     1
102
RTVSPropertyOp5
 70
     1
102
RTVSPropertyOp6
 70
     1
102
RTVSPropertyOp7
 70
     1
102
RTVSPropertyOp8
 70
     1
102
RTVSPropertyOp9
 70
     1
102
RTVSPropertyOp10
 70
     1
102
RTVSPropertyOp11
 70
     1
102
RTVSPropertyOp12
 70
     1
102
RTVSPropertyOp13
 70
     1
102
RTVSPropertyOp14
 70
     1
102
RTVSPropertyOp15
 70
     1
102
RTVSPropertyOp16
 70
     1
102
RTVSPropertyOp17
 70
     1
102
RTVSPropertyOp18
 70
     1
102
RTVSPropertyOp19
 70
     1
102
RTVSPropertyOp20
 70
     1
102
RTVSPropertyOp21
 70
     1
102
RTVSPropertyOp22
 70
     1
102
RTVSPropertyOp23
 70
     1
102
RTVSPropertyOp24
 70
     1
102
RTVSPropertyOp25
 70
     1
102
RTVSPropertyOp26
 70
     1
102
RTVSPropertyOp27
 70
     1
102
RTVSPropertyOp28
 70
     1
102
RTVSPropertyOp29
 70
     1
102
RTVSPropertyOp30
 70
     1
102
RTVSPropertyOp31
 70
     1
102
RTVSPropertyOp32
 70
     1
  0
XRECORD
  5
87
102
{ACAD_REACTORS
330
86
102
}
330
86
100
AcDbXrecord
280
     1
102
RTVSPropertyOp0
 70
     1
102
RTVSPropertyOp1
 70
     1
102
RTVSPropertyOp2
 70
     1
102
RTVSPropertyOp3
 70
     1
102
RTVSPropertyOp4
 70
     1
102
RTVSPropertyOp5
 70
     1
102
RTVSPropertyOp6
 70
     1
102
RTVSPropertyOp7
 70
     1
102
RTVSPropertyOp8
 70
     1
102
RTVSPropertyOp9
 70
     1
102
RTVSPropertyOp10
 70
     1
102
RTVSPropertyOp11
 70
     1
102
RTVSPropertyOp12
 70
     1
102
RTVSPropertyOp13
 70
     1
102
RTVSPropertyOp14
 70
     1
102
RTVSPropertyOp15
 70
     1
102
RTVSPropertyOp16
 70
     1
102
RTVSPropertyOp17
 70
     1
102
RTVSPropertyOp18
 70
     1
102
RTVSPropertyOp19
 70
     1
102
RTVSPropertyOp20
 70
     1
102
RTVSPropertyOp21
 70
     1
102
RTVSPropertyOp22
 70
     1
102
RTVSPropertyOp23
 70
     1
102
RTVSPropertyOp24
 70
     1
102
RTVSPropertyOp25
 70
     1
102
RTVSPropertyOp26
 70
     1
102
RTVSPropertyOp27
 70
     1
102
RTVSPropertyOp28
 70
     1
102
RTVSPropertyOp29
 70
     1
102
RTVSPropertyOp30
 70
     1
102
RTVSPropertyOp31
 70
     1
102
RTVSPropertyOp32
 70
     1
  0
XRECORD
  5
89
102
{ACAD_REACTORS
330
88
102
}
330
88
100
AcDbXrecord
280
     1
102
RTVSPropertyOp0
 70
     1
102
RTVSPropertyOp1
 70
     1
102
RTVSPropertyOp2
 70
     1
102
RTVSPropertyOp3
 70
     1
102
RTVSPropertyOp4
 70
     1
102
RTVSPropertyOp5
 70
     1
102
RTVSPropertyOp6
 70
     1
102
RTVSPropertyOp7
 70
     1
102
RTVSPropertyOp8
 70
     1
102
RTVSPropertyOp9
 70
     1
102
RTVSPropertyOp10
 70
     1
102
RTVSPropertyOp11
 70
     1
102
RTVSPropertyOp12
 70
     1
102
RTVSPropertyOp13
 70
     1
102
RTVSPropertyOp14
 70
     1
102
RTVSPropertyOp15
 70
     1
102
RTVSPropertyOp16
 70
     1
102
RTVSPropertyOp17
 70
     1
102
RTVSPropertyOp18
 70
     1
102
RTVSPropertyOp19
 70
     1
102
RTVSPropertyOp20
 70
     1
102
RTVSPropertyOp21
 70
     1
102
RTVSPropertyOp22
 70
     1
102
RTVSPropertyOp23
 70
     1
102
RTVSPropertyOp24
 70
     1
102
RTVSPropertyOp25
 70
     1
102
RTVSPropertyOp26
 70
     1
102
RTVSPropertyOp27
 70
     1
102
RTVSPropertyOp28
 70
     1
102
RTVSPropertyOp29
 70
     1
102
RTVSPropertyOp30
 70
     1
102
RTVSPropertyOp31
 70
     1
102
RTVSPropertyOp32
 70
     1
  0
XRECORD
  5
9D
102
{ACAD_REACTORS
330
9C
102
}
330
9C
100
AcDbXrecord
280
     1
102
RTVSPropertyOp0
 70
     1
102
RTVSPropertyOp1
 70
     1
102
RTVSPropertyOp2
 70
     1
102
RTVSPropertyOp3
 70
     1
102
RTVSPropertyOp4
 70
     1
102
RTVSPropertyOp5
 70
     1
102
RTVSPropertyOp6
 70
     1
102
RTVSPropertyOp7
 70
     1
102
RTVSPropertyOp8
 70
     1
102
RTVSPropertyOp9
 70
     1
102
RTVSPropertyOp10
 70
     1
102
RTVSPropertyOp11
 70
     1
102
RTVSPropertyOp12
 70
     1
102
RTVSPropertyOp13
 70
     1
102
RTVSPropertyOp14
 70
     1
102
RTVSPropertyOp15
 70
     1
102
RTVSPropertyOp16
 70
     1
102
RTVSPropertyOp17
 70
     1
102
RTVSPropertyOp18
 70
     1
102
RTVSPropertyOp19
 70
     1
102
RTVSPropertyOp20
 70
     1
102
RTVSPropertyOp21
 70
     1
102
RTVSPropertyOp22
 70
     1
102
RTVSPropertyOp23
 70
     1
102
RTVSPropertyOp24
 70
     1
102
RTVSPropertyOp25
 70
     1
102
RTVSPropertyOp26
 70
     1
102
RTVSPropertyOp27
 70
     1
102
RTVSPropertyOp28
 70
     1
102
RTVSPropertyOp29
 70
     1
102
RTVSPropertyOp30
 70
     1
102
RTVSPropertyOp31
 70
     1
102
RTVSPropertyOp32
 70
     1
  0
XRECORD
  5
93
102
{ACAD_REACTORS
330
92
102
}
330
92
100
AcDbXrecord
280
     1
102
RTVSPropertyOp0
 70
     1
102
RTVSPropertyOp1
 70
     1
102
RTVSPropertyOp2
 70
     1
102
RTVSPropertyOp3
 70
     1
102
RTVSPropertyOp4
 70
     1
102
RTVSPropertyOp5
 70
     1
102
RTVSPropertyOp6
 70
     1
102
RTVSPropertyOp7
 70
     1
102
RTVSPropertyOp8
 70
     1
102
RTVSPropertyOp9
 70
     1
102
RTVSPropertyOp10
 70
     1
102
RTVSPropertyOp11
 70
     1
102
RTVSPropertyOp12
 70
     1
102
RTVSPropertyOp13
 70
     1
102
RTVSPropertyOp14
 70
     1
102
RTVSPropertyOp15
 70
     1
102
RTVSPropertyOp16
 70
     1
102
RTVSPropertyOp17
 70
     1
102
RTVSPropertyOp18
 70
     1
102
RTVSPropertyOp19
 70
     1
102
RTVSPropertyOp20
 70
     1
102
RTVSPropertyOp21
 70
     1
102
RTVSPropertyOp22
 70
     1
102
RTVSPropertyOp23
 70
     1
102
RTVSPropertyOp24
 70
     1
102
RTVSPropertyOp25
 70
     1
102
RTVSPropertyOp26
 70
     1
102
RTVSPropertyOp27
 70
     1
102
RTVSPropertyOp28
 70
     1
102
RTVSPropertyOp29
 70
     1
102
RTVSPropertyOp30
 70
     1
102
RTVSPropertyOp31
 70
     1
102
RTVSPropertyOp32
 70
     1
  0
XRECORD
  5
9B
102
{ACAD_REACTORS
330
9A
102
}
330
9A
100
AcDbXrecord
280
     1
102
RTVSPropertyOp0
 70
     1
102
RTVSPropertyOp1
 70
     1
102
RTVSPropertyOp2
 70
     1
102
RTVSPropertyOp3
 70
     1
102
RTVSPropertyOp4
 70
     1
102
RTVSPropertyOp5
 70
     1
102
RTVSPropertyOp6
 70
     1
102
RTVSPropertyOp7
 70
     1
102
RTVSPropertyOp8
 70
     1
102
RTVSPropertyOp9
 70
     1
102
RTVSPropertyOp10
 70
     1
102
RTVSPropertyOp11
 70
     1
102
RTVSPropertyOp12
 70
     1
102
RTVSPropertyOp13
 70
     1
102
RTVSPropertyOp14
 70
     1
102
RTVSPropertyOp15
 70
     1
102
RTVSPropertyOp16
 70
     1
102
RTVSPropertyOp17
 70
     1
102
RTVSPropertyOp18
 70
     1
102
RTVSPropertyOp19
 70
     1
102
RTVSPropertyOp20
 70
     1
102
RTVSPropertyOp21
 70
     1
102
RTVSPropertyOp22
 70
     1
102
RTVSPropertyOp23
 70
     1
102
RTVSPropertyOp24
 70
     1
102
RTVSPropertyOp25
 70
     1
102
RTVSPropertyOp26
 70
     1
102
RTVSPropertyOp27
 70
     1
102
RTVSPropertyOp28
 70
     1
102
RTVSPropertyOp29
 70
     1
102
RTVSPropertyOp30
 70
     1
102
RTVSPropertyOp31
 70
     1
102
RTVSPropertyOp32
 70
     1
  0
ENDSEC
  0
EOF
