  0
SECTION
  2
HEADER
  9
$ACADVER
  1
AC1021
  9
$ACADMAINTVER
 70
    25
  9
$DWGCODEPAGE
  3
ANSI_1252
  9
$INSBASE
 10
0.0
 20
0.0
 30
0.0
  9
$EXTMIN
 10
-151.354
 20
-114.7792
 30
0.0
  9
$EXTMAX
 10
-45.0774
 20
132.0909
 30
0.0
  9
$LIMMIN
 10
0.0
 20
0.0
  9
$LIMMAX
 10
12.0
 20
9.0
  9
$ORTHOMODE
 70
     0
  9
$REGENMODE
 70
     1
  9
$FILLMODE
 70
     1
  9
$QTEXTMODE
 70
     0
  9
$MIRRTEXT
 70
     1
  9
$LTSCALE
 40
1.0
  9
$ATTMODE
 70
     1
  9
$TEXTSIZE
 40
0.2
  9
$TRACEWID
 40
0.05
  9
$TEXTSTYLE
  7
Standard
  9
$CLAYER
  8
0
  9
$CELTYPE
  6
ByLayer
  9
$CECOLOR
 62
   256
  9
$CELTSCALE
 40
1.0
  9
$DISPSILH
 70
     0
  9
$DIMSCALE
 40
1.0
  9
$DIMASZ
 40
0.18
  9
$DIMEXO
 40
0.0625
  9
$DIMDLI
 40
0.38
  9
$DIMRND
 40
0.0
  9
$DIMDLE
 40
0.0
  9
$DIMEXE
 40
0.18
  9
$DIMTP
 40
0.0
  9
$DIMTM
 40
0.0
  9
$DIMTXT
 40
0.18
  9
$DIMCEN
 40
0.09
  9
$DIMTSZ
 40
0.0
  9
$DIMTOL
 70
     0
  9
$DIMLIM
 70
     0
  9
$DIMTIH
 70
     1
  9
$DIMTOH
 70
     1
  9
$DIMSE1
 70
     0
  9
$DIMSE2
 70
     0
  9
$DIMTAD
 70
     0
  9
$DIMZIN
 70
     0
  9
$DIMBLK
  1

  9
$DIMASO
 70
     1
  9
$DIMSHO
 70
     1
  9
$DIMPOST
  1

  9
$DIMAPOST
  1

  9
$DIMALT
 70
     0
  9
$DIMALTD
 70
     2
  9
$DIMALTF
 40
25.4
  9
$DIMLFAC
 40
1.0
  9
$DIMTOFL
 70
     0
  9
$DIMTVP
 40
0.0
  9
$DIMTIX
 70
     0
  9
$DIMSOXD
 70
     0
  9
$DIMSAH
 70
     0
  9
$DIMBLK1
  1

  9
$DIMBLK2
  1

  9
$DIMSTYLE
  2
Standard
  9
$DIMCLRD
 70
     0
  9
$DIMCLRE
 70
     0
  9
$DIMCLRT
 70
     0
  9
$DIMTFAC
 40
1.0
  9
$DIMGAP
 40
0.09
  9
$DIMJUST
 70
     0
  9
$DIMSD1
 70
     0
  9
$DIMSD2
 70
     0
  9
$DIMTOLJ
 70
     1
  9
$DIMTZIN
 70
     0
  9
$DIMALTZ
 70
     0
  9
$DIMALTTZ
 70
     0
  9
$DIMUPT
 70
     0
  9
$DIMDEC
 70
     4
  9
$DIMTDEC
 70
     4
  9
$DIMALTU
 70
     2
  9
$DIMALTTD
 70
     2
  9
$DIMTXSTY
  7
Standard
  9
$DIMAUNIT
 70
     0
  9
$DIMADEC
 70
     0
  9
$DIMALTRND
 40
0.0
  9
$DIMAZIN
 70
     0
  9
$DIMDSEP
 70
    46
  9
$DIMATFIT
 70
     3
  9
$DIMFRAC
 70
     0
  9
$DIMLDRBLK
  1

  9
$DIMLUNIT
 70
     2
  9
$DIMLWD
 70
    -2
  9
$DIMLWE
 70
    -2
  9
$DIMTMOVE
 70
     0
  9
$DIMFXL
 40
1.0
  9
$DIMFXLON
 70
     0
  9
$DIMJOGANG
 40
0.7853981633974483
  9
$DIMTFILL
 70
     0
  9
$DIMTFILLCLR
 70
     0
  9
$DIMARCSYM
 70
     0
  9
$DIMLTYPE
  6

  9
$DIMLTEX1
  6

  9
$DIMLTEX2
  6

  9
$LUNITS
 70
     2
  9
$LUPREC
 70
     4
  9
$SKETCHINC
 40
0.1
  9
$FILLETRAD
 40
0.5
  9
$AUNITS
 70
     0
  9
$AUPREC
 70
     0
  9
$MENU
  1
.
  9
$ELEVATION
 40
0.0
  9
$PELEVATION
 40
0.0
  9
$THICKNESS
 40
0.0
  9
$LIMCHECK
 70
     0
  9
$CHAMFERA
 40
0.5
  9
$CHAMFERB
 40
0.5
  9
$CHAMFERC
 40
1.0
  9
$CHAMFERD
 40
0.0
  9
$SKPOLY
 70
     0
  9
$TDCREATE
 40
2458492.717006285
  9
$TDUCREATE
 40
2458492.717006285
  9
$TDUPDATE
 40
2458492.717006551
  9
$TDUUPDATE
 40
2458492.717006551
  9
$TDINDWG
 40
0.0000000116
  9
$TDUSRTIMER
 40
0.0000000116
  9
$USRTIMER
 70
     1
  9
$ANGBASE
 50
0.0
  9
$ANGDIR
 70
     0
  9
$PDMODE
 70
     0
  9
$PDSIZE
 40
0.0
  9
$PLINEWID
 40
0.0
  9
$SPLFRAME
 70
     0
  9
$SPLINETYPE
 70
     6
  9
$SPLINESEGS
 70
     8
  9
$HANDSEED
  5
C1
  9
$SURFTAB1
 70
     6
  9
$SURFTAB2
 70
     6
  9
$SURFTYPE
 70
     6
  9
$SURFU
 70
     6
  9
$SURFV
 70
     6
  9
$UCSBASE
  2

  9
$UCSNAME
  2

  9
$UCSORG
 10
0.0
 20
0.0
 30
0.0
  9
$UCSXDIR
 10
1.0
 20
0.0
 30
0.0
  9
$UCSYDIR
 10
0.0
 20
1.0
 30
0.0
  9
$UCSORTHOREF
  2

  9
$UCSORTHOVIEW
 70
     0
  9
$UCSORGTOP
 10
0.0
 20
0.0
 30
0.0
  9
$UCSORGBOTTOM
 10
0.0
 20
0.0
 30
0.0
  9
$UCSORGLEFT
 10
0.0
 20
0.0
 30
0.0
  9
$UCSORGRIGHT
 10
0.0
 20
0.0
 30
0.0
  9
$UCSORGFRONT
 10
0.0
 20
0.0
 30
0.0
  9
$UCSORGBACK
 10
0.0
 20
0.0
 30
0.0
  9
$PUCSBASE
  2

  9
$PUCSNAME
  2

  9
$PUCSORG
 10
0.0
 20
0.0
 30
0.0
  9
$PUCSXDIR
 10
1.0
 20
0.0
 30
0.0
  9
$PUCSYDIR
 10
0.0
 20
1.0
 30
0.0
  9
$PUCSORTHOREF
  2

  9
$PUCSORTHOVIEW
 70
     0
  9
$PUCSORGTOP
 10
0.0
 20
0.0
 30
0.0
  9
$PUCSORGBOTTOM
 10
0.0
 20
0.0
 30
0.0
  9
$PUCSORGLEFT
 10
0.0
 20
0.0
 30
0.0
  9
$PUCSORGRIGHT
 10
0.0
 20
0.0
 30
0.0
  9
$PUCSORGFRONT
 10
0.0
 20
0.0
 30
0.0
  9
$PUCSORGBACK
 10
0.0
 20
0.0
 30
0.0
  9
$USERI1
 70
     0
  9
$USERI2
 70
     0
  9
$USERI3
 70
     0
  9
$USERI4
 70
     0
  9
$USERI5
 70
     0
  9
$USERR1
 40
0.0
  9
$USERR2
 40
0.0
  9
$USERR3
 40
0.0
  9
$USERR4
 40
0.0
  9
$USERR5
 40
0.0
  9
$WORLDVIEW
 70
     1
  9
$SHADEDGE
 70
     3
  9
$SHADEDIF
 70
    70
  9
$TILEMODE
 70
     1
  9
$MAXACTVP
 70
    64
  9
$PINSBASE
 10
0.0
 20
0.0
 30
0.0
  9
$PLIMCHECK
 70
     0
  9
$PEXTMIN
 10
1.000000000000000E+20
 20
1.000000000000000E+20
 30
1.000000000000000E+20
  9
$PEXTMAX
 10
-1.000000000000000E+20
 20
-1.000000000000000E+20
 30
-1.000000000000000E+20
  9
$PLIMMIN
 10
0.0
 20
0.0
  9
$PLIMMAX
 10
12.0
 20
9.0
  9
$UNITMODE
 70
     0
  9
$VISRETAIN
 70
     1
  9
$PLINEGEN
 70
     0
  9
$PSLTSCALE
 70
     1
  9
$TREEDEPTH
 70
  3020
  9
$CMLSTYLE
  2
Standard
  9
$CMLJUST
 70
     0
  9
$CMLSCALE
 40
1.0
  9
$PROXYGRAPHICS
 70
     1
  9
$MEASUREMENT
 70
     0
  9
$CELWEIGHT
370
    -1
  9
$ENDCAPS
280
     0
  9
$JOINSTYLE
280
     0
  9
$LWDISPLAY
290
     0
  9
$INSUNITS
 70
     4
  9
$HYPERLINKBASE
  1

  9
$STYLESHEET
  1

  9
$XEDIT
290
     1
  9
$CEPSNTYPE
380
     0
  9
$PSTYLEMODE
290
     1
  9
$FINGERPRINTGUID
  2
{4AFDCC43-2351-49A1-AFCA-E5856374C0E1}
  9
$VERSIONGUID
  2
{FAEB1C32-E019-11D5-929B-00C0DF256EC4}
  9
$EXTNAMES
290
     1
  9
$PSVPSCALE
 40
0.0
  9
$OLESTARTUP
290
     0
  9
$SORTENTS
280
   127
  9
$INDEXCTL
280
     0
  9
$HIDETEXT
280
     1
  9
$XCLIPFRAME
290
     0
  9
$HALOGAP
280
     0
  9
$OBSCOLOR
 70
   257
  9
$OBSLTYPE
280
     0
  9
$INTERSECTIONDISPLAY
280
     0
  9
$INTERSECTIONCOLOR
 70
   257
  9
$DIMASSOC
280
     2
  9
$PROJECTNAME
  1

  9
$CAMERADISPLAY
290
     0
  9
$LENSLENGTH
 40
50.0
  9
$CAMERAHEIGHT
 40
0.0
  9
$STEPSPERSEC
 40
2.0
  9
$STEPSIZE
 40
6.0
  9
$3DDWFPREC
 40
2.0
  9
$PSOLWIDTH
 40
0.25
  9
$PSOLHEIGHT
 40
4.0
  9
$LOFTANG1
 40
1.570796326794897
  9
$LOFTANG2
 40
1.570796326794897
  9
$LOFTMAG1
 40
0.0
  9
$LOFTMAG2
 40
0.0
  9
$LOFTPARAM
 70
     7
  9
$LOFTNORMALS
280
     1
  9
$LATITUDE
 40
37.795
  9
$LONGITUDE
 40
-122.394
  9
$NORTHDIRECTION
 40
0.0
  9
$TIMEZONE
 70
 -8000
  9
$LIGHTGLYPHDISPLAY
280
     1
  9
$TILEMODELIGHTSYNCH
280
     1
  9
$SOLIDHIST
280
     1
  9
$SHOWHIST
280
     1
  9
$DWFFRAME
280
     2
  9
$DGNFRAME
280
     2
  9
$REALWORLDSCALE
290
     1
  9
$INTERFERECOLOR
 62
   256
  9
$CSHADOW
280
     0
  9
$SHADOWPLANELOCATION
 40
0.0
  0
ENDSEC
  0
SECTION
  2
CLASSES
  0
CLASS
  1
ACDBDICTIONARYWDFLT
  2
AcDbDictionaryWithDefault
  3
ObjectDBX Classes
 90
        0
 91
        4
280
     0
281
     0
  0
CLASS
  1
VISUALSTYLE
  2
AcDbVisualStyle
  3
ObjectDBX Classes
 90
     4095
 91
        4
280
     0
281
     0
  0
CLASS
  1
MATERIAL
  2
AcDbMaterial
  3
ObjectDBX Classes
 90
     1153
 91
        4
280
     0
281
     0
  0
ENDSEC
  0
SECTION
  2
TABLES
  0
TABLE
  2
VPORT
  5
8
330
0
100
AcDbSymbolTable
 70
     1
  0
VPORT
  5
29
330
8
100
AcDbSymbolTableRecord
100
AcDbViewportTableRecord
  2
*Active
 70
     0
 10
0.0
 20
0.0
 11
1.0
 21
1.0
 12
10.42990654205607
 22
4.5
 13
0.0
 23
0.0
 14
0.5
 24
0.5
 15
0.5
 25
0.5
 16
0.0
 26
0.0
 36
1.0
 17
0.0
 27
0.0
 37
0.0
 40
9.0
 41
1.972972972850329
 42
50.0
 43
0.0
 44
0.0
 50
0.0
 51
0.0
 71
     0
 72
   100
 73
     1
 74
     3
 75
     0
 76
     0
 77
     0
 78
     0
281
     0
 65
     1
110
0.0
120
0.0
130
0.0
111
1.0
121
0.0
131
0.0
112
0.0
122
1.0
132
0.0
 79
     0
146
0.0
 60
     3
 61
     5
292
     1
282
     1
141
0.0
142
0.0
 63
   250
  0
ENDTAB
  0
TABLE
  2
LTYPE
  5
5
330
0
100
AcDbSymbolTable
 70
     1
  0
LTYPE
  5
14
330
5
100
AcDbSymbolTableRecord
100
AcDbLinetypeTableRecord
  2
ByBlock
 70
     0
  3

 72
    65
 73
     0
 40
0.0
  0
LTYPE
  5
15
330
5
100
AcDbSymbolTableRecord
100
AcDbLinetypeTableRecord
  2
ByLayer
 70
     0
  3

 72
    65
 73
     0
 40
0.0
  0
LTYPE
  5
16
330
5
100
AcDbSymbolTableRecord
100
AcDbLinetypeTableRecord
  2
Continuous
 70
     0
  3
Solid line
 72
    65
 73
     0
 40
0.0
  0
ENDTAB
  0
TABLE
  2
LAYER
  5
2
330
0
100
AcDbSymbolTable
 70
     2
  0
LAYER
  5
10
330
2
100
AcDbSymbolTableRecord
100
AcDbLayerTableRecord
  2
0
 70
     0
 62
     7
  6
Continuous
370
    -3
390
F
347
3E
  0
LAYER
  5
40
330
2
100
AcDbSymbolTableRecord
100
AcDbLayerTableRecord
  2
layer 1
 70
     0
 62
     7
  6
Continuous
370
    -3
390
F
347
3E
  0
ENDTAB
  0
TABLE
  2
STYLE
  5
3
330
0
100
AcDbSymbolTable
 70
     1
  0
STYLE
  5
11
330
3
100
AcDbSymbolTableRecord
100
AcDbTextStyleTableRecord
  2
Standard
 70
     0
 40
0.0
 41
1.0
 50
0.0
 71
     0
 42
0.2
  3
txt
  4

  0
ENDTAB
  0
TABLE
  2
VIEW
  5
6
330
0
100
AcDbSymbolTable
 70
     0
  0
ENDTAB
  0
TABLE
  2
UCS
  5
7
330
0
100
AcDbSymbolTable
 70
     0
  0
ENDTAB
  0
TABLE
  2
APPID
  5
9
330
0
100
AcDbSymbolTable
 70
     2
  0
APPID
  5
12
330
9
100
AcDbSymbolTableRecord
100
AcDbRegAppTableRecord
  2
ACAD
 70
     0
  0
APPID
  5
3F
330
9
100
AcDbSymbolTableRecord
100
AcDbRegAppTableRecord
  2
ODA
 70
     0
  0
ENDTAB
  0
TABLE
  2
DIMSTYLE
  5
A
330
0
100
AcDbSymbolTable
 70
     1
100
AcDbDimStyleTable
  0
DIMSTYLE
105
27
330
A
100
AcDbSymbolTableRecord
100
AcDbDimStyleTableRecord
  2
Standard
 70
     0
178
     0
340
11
  0
ENDTAB
  0
TABLE
  2
BLOCK_RECORD
  5
1
330
0
100
AcDbSymbolTable
 70
     1
  0
BLOCK_RECORD
  5
1F
330
1
100
AcDbSymbolTableRecord
100
AcDbBlockTableRecord
  2
*Model_Space
340
22
 70
     0
280
     1
281
     0
  0
BLOCK_RECORD
  5
1B
330
1
100
AcDbSymbolTableRecord
100
AcDbBlockTableRecord
  2
*Paper_Space
340
1E
 70
     0
280
     1
281
     0
  0
BLOCK_RECORD
  5
23
330
1
100
AcDbSymbolTableRecord
100
AcDbBlockTableRecord
  2
*Paper_Space0
340
26
 70
     0
280
     1
281
     0
  0
ENDTAB
  0
ENDSEC
  0
SECTION
  2
BLOCKS
  0
BLOCK
  5
20
330
1F
100
AcDbEntity
  8
0
100
AcDbBlockBegin
  2
*Model_Space
 70
     0
 10
0.0
 20
0.0
 30
0.0
  3
*Model_Space
  1

  0
ENDBLK
  5
21
330
1F
100
AcDbEntity
  8
0
100
AcDbBlockEnd
  0
BLOCK
  5
1C
330
1B
100
AcDbEntity
 67
     1
  8
0
100
AcDbBlockBegin
  2
*Paper_Space
 70
     0
 10
0.0
 20
0.0
 30
0.0
  3
*Paper_Space
  1

  0
ENDBLK
  5
1D
330
1B
100
AcDbEntity
 67
     1
  8
0
100
AcDbBlockEnd
  0
BLOCK
  5
24
330
23
100
AcDbEntity
  8
0
100
AcDbBlockBegin
  2
*Paper_Space0
 70
     0
 10
0.0
 20
0.0
 30
0.0
  3
*Paper_Space0
  1

  0
ENDBLK
  5
25
330
23
100
AcDbEntity
  8
0
100
AcDbBlockEnd
  0
ENDSEC
  0
SECTION
  2
ENTITIES
  0
SPLINE
  5
41
330
1F
100
AcDbEntity
  8
layer 1
 62
   250
370
     9
100
AcDbSpline
210
0.0
220
0.0
230
1.0
 70
    11
 71
     3
 72
    20
 73
    16
 74
     0
 42
0.0000000001
 43
0.0000000001
 12
1.0
 22
0.0
 32
0.0
 13
1.0
 23
0.0
 33
0.0
 40
0.0
 40
0.0
 40
0.0
 40
0.0
 40
0.2
 40
0.2
 40
0.2
 40
0.2
 40
0.4
 40
0.4
 40
0.4
 40
0.4
 40
0.6
 40
0.6
 40
0.6
 40
0.6
 40
1.0
 40
1.0
 40
1.0
 40
1.0
 10
-151.3159
 20
-114.7411
 30
0.0
 10
-151.3159
 20
-114.7411
 30
0.0
 10
-151.3159
 20
132.0528
 30
0.0
 10
-151.3159
 20
132.0528
 30
0.0
 10
-151.3159
 20
132.0528
 30
0.0
 10
-151.3159
 20
132.0528
 30
0.0
 10
-45.1155
 20
132.0528
 30
0.0
 10
-45.1155
 20
132.0528
 30
0.0
 10
-45.1155
 20
132.0528
 30
0.0
 10
-45.1155
 20
132.0528
 30
0.0
 10
-45.1155
 20
-114.7411
 30
0.0
 10
-45.1155
 20
-114.7411
 30
0.0
 10
-45.1155
 20
-114.7411
 30
0.0
 10
-45.1155
 20
-114.7411
 30
0.0
 10
-151.3159
 20
-114.7411
 30
0.0
 10
-151.3159
 20
-114.7411
 30
0.0
  0
SPLINE
  5
42
330
1F
100
AcDbEntity
  8
layer 1
 62
     7
370
     9
100
AcDbSpline
210
0.0
220
0.0
230
1.0
 70
    11
 71
     3
 72
    16
 73
    12
 74
     0
 42
0.0000000001
 43
0.0000000001
 12
1.0
 22
0.0
 32
0.0
 13
1.0
 23
0.0
 33
0.0
 40
0.0
 40
0.0
 40
0.0
 40
0.0
 40
0.25
 40
0.25
 40
0.25
 40
0.25
 40
0.5
 40
0.5
 40
0.5
 40
0.5
 40
1.0
 40
1.0
 40
1.0
 40
1.0
 10
-130.5896
 20
-13.1744
 30
0.0
 10
-131.3407
 20
-8.4749
 30
0.0
 10
-129.3104
 20
-4.2773
 30
0.0
 10
-129.2422
 20
1.7957
 30
0.0
 10
-129.2422
 20
1.7957
 30
0.0
 10
-128.5387
 20
-3.4374
 30
0.0
 10
-124.6083
 20
-9.9111
 30
0.0
 10
-122.3813
 20
-12.0666
 30
0.0
 10
-122.3813
 20
-12.0666
 30
0.0
 10
-125.578
 20
-10.6866
 30
0.0
 10
-128.4269
 20
-10.9591
 30
0.0
 10
-130.5896
 20
-13.1744
 30
0.0
  0
SPLINE
  5
43
330
1F
100
AcDbEntity
  8
layer 1
 62
     7
370
     9
100
AcDbSpline
210
0.0
220
0.0
230
1.0
 70
    11
 71
     3
 72
    16
 73
    12
 74
     0
 42
0.0000000001
 43
0.0000000001
 12
1.0
 22
0.0
 32
0.0
 13
1.0
 23
0.0
 33
0.0
 40
0.0
 40
0.0
 40
0.0
 40
0.0
 40
0.25
 40
0.25
 40
0.25
 40
0.25
 40
0.5
 40
0.5
 40
0.5
 40
0.5
 40
1.0
 40
1.0
 40
1.0
 40
1.0
 10
-146.2618
 20
-94.195
 30
0.0
 10
-144.1468
 20
-103.4001
 30
0.0
 10
-136.3132
 20
-108.2508
 30
0.0
 10
-131.4479
 20
-109.7512
 30
0.0
 10
-131.4479
 20
-109.7512
 30
0.0
 10
-131.4479
 20
-109.7512
 30
0.0
 10
-146.5294
 20
-109.6435
 30
0.0
 10
-146.5294
 20
-109.6435
 30
0.0
 10
-146.5294
 20
-109.6435
 30
0.0
 10
-146.5294
 20
-109.6435
 30
0.0
 10
-146.2618
 20
-94.195
 30
0.0
 10
-146.2618
 20
-94.195
 30
0.0
  0
SPLINE
  5
44
330
1F
100
AcDbEntity
  8
layer 1
 62
     7
370
     9
100
AcDbSpline
210
0.0
220
0.0
230
1.0
 70
    11
 71
     3
 72
    16
 73
    12
 74
     0
 42
0.0000000001
 43
0.0000000001
 12
1.0
 22
0.0
 32
0.0
 13
1.0
 23
0.0
 33
0.0
 40
0.0
 40
0.0
 40
0.0
 40
0.0
 40
0.25
 40
0.25
 40
0.25
 40
0.25
 40
0.5
 40
0.5
 40
0.5
 40
0.5
 40
1.0
 40
1.0
 40
1.0
 40
1.0
 10
-125.6787
 20
-107.3265
 30
0.0
 10
-125.6787
 20
-107.3265
 30
0.0
 10
-125.6732
 20
-109.7306
 30
0.0
 10
-125.6732
 20
-109.7306
 30
0.0
 10
-125.6732
 20
-109.7306
 30
0.0
 10
-125.6732
 20
-109.7306
 30
0.0
 10
-122.8024
 20
-109.7884
 30
0.0
 10
-122.8024
 20
-109.7884
 30
0.0
 10
-122.8024
 20
-109.7884
 30
0.0
 10
-124.3641
 20
-109.3129
 30
0.0
 10
-124.9842
 20
-108.5895
 30
0.0
 10
-125.6787
 20
-107.3265
 30
0.0
  0
SPLINE
  5
45
330
1F
100
AcDbEntity
  8
layer 1
 62
     7
370
     9
100
AcDbSpline
210
0.0
220
0.0
230
1.0
 70
    11
 71
     3
 72
    24
 73
    20
 74
     0
 42
0.0000000001
 43
0.0000000001
 12
1.0
 22
0.0
 32
0.0
 13
1.0
 23
0.0
 33
0.0
 40
0.0
 40
0.0
 40
0.0
 40
0.0
 40
0.1666666666666667
 40
0.1666666666666667
 40
0.1666666666666667
 40
0.1666666666666667
 40
0.3333333333333333
 40
0.3333333333333333
 40
0.3333333333333333
 40
0.3333333333333333
 40
0.5
 40
0.5
 40
0.5
 40
0.5
 40
0.6666666666666666
 40
0.6666666666666666
 40
0.6666666666666666
 40
0.6666666666666666
 40
1.0
 40
1.0
 40
1.0
 40
1.0
 10
-126.3399
 20
-105.7602
 30
0.0
 10
-131.415
 20
-106.024
 30
0.0
 10
-138.4904
 20
-101.0259
 30
0.0
 10
-139.4274
 20
-98.6087
 30
0.0
 10
-139.4274
 20
-98.6087
 30
0.0
 10
-140.7612
 20
-97.405
 30
0.0
 10
-136.5775
 20
-101.2807
 30
0.0
 10
-135.6348
 20
-100.2325
 30
0.0
 10
-135.6348
 20
-100.2325
 30
0.0
 10
-136.3694
 20
-98.9401
 30
0.0
 10
-136.3413
 20
-97.5746
 30
0.0
 10
-135.8504
 20
-96.8324
 30
0.0
 10
-135.8504
 20
-96.8324
 30
0.0
 10
-134.0153
 20
-99.9371
 30
0.0
 10
-129.294
 20
-103.0398
 30
0.0
 10
-124.4509
 20
-101.0244
 30
0.0
 10
-124.4509
 20
-101.0244
 30
0.0
 10
-126.5252
 20
-102.0408
 30
0.0
 10
-126.4009
 20
-104.8891
 30
0.0
 10
-126.3399
 20
-105.7602
 30
0.0
  0
SPLINE
  5
46
330
1F
100
AcDbEntity
  8
layer 1
 62
     7
370
     9
100
AcDbSpline
210
0.0
220
0.0
230
1.0
 70
    11
 71
     3
 72
    88
 73
    84
 74
     0
 42
0.0000000001
 43
0.0000000001
 12
1.0
 22
0.0
 32
0.0
 13
1.0
 23
0.0
 33
0.0
 40
0.0
 40
0.0
 40
0.0
 40
0.0
 40
0.0454545454545455
 40
0.0454545454545455
 40
0.0454545454545455
 40
0.0454545454545455
 40
0.0909090909090909
 40
0.0909090909090909
 40
0.0909090909090909
 40
0.0909090909090909
 40
0.1363636363636364
 40
0.1363636363636364
 40
0.1363636363636364
 40
0.1363636363636364
 40
0.1818181818181818
 40
0.1818181818181818
 40
0.1818181818181818
 40
0.1818181818181818
 40
0.2272727272727273
 40
0.2272727272727273
 40
0.2272727272727273
 40
0.2272727272727273
 40
0.2727272727272727
 40
0.2727272727272727
 40
0.2727272727272727
 40
0.2727272727272727
 40
0.3181818181818182
 40
0.3181818181818182
 40
0.3181818181818182
 40
0.3181818181818182
 40
0.3636363636363636
 40
0.3636363636363636
 40
0.3636363636363636
 40
0.3636363636363636
 40
0.4090909090909091
 40
0.4090909090909091
 40
0.4090909090909091
 40
0.4090909090909091
 40
0.4545454545454545
 40
0.4545454545454545
 40
0.4545454545454545
 40
0.4545454545454545
 40
0.5
 40
0.5
 40
0.5
 40
0.5
 40
0.5454545454545454
 40
0.5454545454545454
 40
0.5454545454545454
 40
0.5454545454545454
 40
0.5909090909090909
 40
0.5909090909090909
 40
0.5909090909090909
 40
0.5909090909090909
 40
0.6363636363636364
 40
0.6363636363636364
 40
0.6363636363636364
 40
0.6363636363636364
 40
0.6818181818181818
 40
0.6818181818181818
 40
0.6818181818181818
 40
0.6818181818181818
 40
0.7272727272727273
 40
0.7272727272727273
 40
0.7272727272727273
 40
0.7272727272727273
 40
0.7727272727272727
 40
0.7727272727272727
 40
0.7727272727272727
 40
0.7727272727272727
 40
0.8181818181818182
 40
0.8181818181818182
 40
0.8181818181818182
 40
0.8181818181818182
 40
0.8636363636363636
 40
0.8636363636363636
 40
0.8636363636363636
 40
0.8636363636363636
 40
0.9090909090909091
 40
0.9090909090909091
 40
0.9090909090909091
 40
0.9090909090909091
 40
1.0
 40
1.0
 40
1.0
 40
1.0
 10
-121.0259
 20
-109.739
 30
0.0
 10
-119.0917
 20
-109.4259
 30
0.0
 10
-118.9906
 20
-108.5861
 30
0.0
 10
-119.5129
 20
-107.8548
 30
0.0
 10
-119.5129
 20
-107.8548
 30
0.0
 10
-124.1545
 20
-109.9074
 30
0.0
 10
-125.7454
 20
-104.1993
 30
0.0
 10
-121.1571
 20
-103.4525
 30
0.0
 10
-121.1571
 20
-103.4525
 30
0.0
 10
-118.4169
 20
-103.0115
 30
0.0
 10
-116.6732
 20
-105.5566
 30
0.0
 10
-112.6612
 20
-105.3174
 30
0.0
 10
-112.6612
 20
-105.3174
 30
0.0
 10
-112.9112
 20
-106.0677
 30
0.0
 10
-113.1166
 20
-106.5457
 30
0.0
 10
-113.0389
 20
-107.2138
 30
0.0
 10
-113.0389
 20
-107.2138
 30
0.0
 10
-111.4998
 20
-106.3077
 30
0.0
 10
-109.3572
 20
-106.174
 30
0.0
 10
-108.5176
 20
-106.1263
 30
0.0
 10
-108.5176
 20
-106.1263
 30
0.0
 10
-108.4453
 20
-107.4567
 30
0.0
 10
-107.1393
 20
-108.0959
 30
0.0
 10
-106.0139
 20
-107.2154
 30
0.0
 10
-106.0139
 20
-107.2154
 30
0.0
 10
-105.5896
 20
-109.5256
 30
0.0
 10
-102.9812
 20
-109.0823
 30
0.0
 10
-102.523
 20
-107.8057
 30
0.0
 10
-102.523
 20
-107.8057
 30
0.0
 10
-101.5928
 20
-108.7121
 30
0.0
 10
-99.8048
 20
-108.6338
 30
0.0
 10
-99.3986
 20
-108.3171
 30
0.0
 10
-99.3986
 20
-108.3171
 30
0.0
 10
-99.1808
 20
-108.0462
 30
0.0
 10
-99.1672
 20
-107.8192
 30
0.0
 10
-99.35
 20
-107.7286
 30
0.0
 10
-99.35
 20
-107.7286
 30
0.0
 10
-102.455
 20
-107.3128
 30
0.0
 10
-100.9269
 20
-104.3605
 30
0.0
 10
-98.1593
 20
-104.5054
 30
0.0
 10
-98.1593
 20
-104.5054
 30
0.0
 10
-95.3917
 20
-104.3605
 30
0.0
 10
-93.9764
 20
-107.3128
 30
0.0
 10
-97.0814
 20
-107.7286
 30
0.0
 10
-97.0814
 20
-107.7286
 30
0.0
 10
-97.2643
 20
-107.8192
 30
0.0
 10
-97.2507
 20
-108.0462
 30
0.0
 10
-97.0329
 20
-108.3171
 30
0.0
 10
-97.0329
 20
-108.3171
 30
0.0
 10
-96.6266
 20
-108.6338
 30
0.0
 10
-94.8387
 20
-108.7121
 30
0.0
 10
-93.9084
 20
-107.8057
 30
0.0
 10
-93.9084
 20
-107.8057
 30
0.0
 10
-93.4503
 20
-109.0823
 30
0.0
 10
-90.8419
 20
-109.5256
 30
0.0
 10
-90.4176
 20
-107.2154
 30
0.0
 10
-90.4176
 20
-107.2154
 30
0.0
 10
-89.2921
 20
-108.0959
 30
0.0
 10
-87.9861
 20
-107.4567
 30
0.0
 10
-87.9138
 20
-106.1263
 30
0.0
 10
-87.9138
 20
-106.1263
 30
0.0
 10
-87.0743
 20
-106.174
 30
0.0
 10
-84.9316
 20
-106.3077
 30
0.0
 10
-83.3925
 20
-107.2138
 30
0.0
 10
-83.3925
 20
-107.2138
 30
0.0
 10
-83.3149
 20
-106.5457
 30
0.0
 10
-83.5203
 20
-106.0677
 30
0.0
 10
-83.7703
 20
-105.3174
 30
0.0
 10
-83.7703
 20
-105.3174
 30
0.0
 10
-79.7582
 20
-105.5566
 30
0.0
 10
-78.0146
 20
-103.0115
 30
0.0
 10
-75.2744
 20
-103.4525
 30
0.0
 10
-75.2744
 20
-103.4525
 30
0.0
 10
-70.6861
 20
-104.1993
 30
0.0
 10
-72.277
 20
-109.9074
 30
0.0
 10
-76.9186
 20
-107.8548
 30
0.0
 10
-76.9186
 20
-107.8548
 30
0.0
 10
-77.4408
 20
-108.5861
 30
0.0
 10
-77.3398
 20
-109.4259
 30
0.0
 10
-75.4055
 20
-109.739
 30
0.0
 10
-75.4055
 20
-109.739
 30
0.0
 10
-75.4055
 20
-109.739
 30
0.0
 10
-121.0259
 20
-109.739
 30
0.0
 10
-121.0259
 20
-109.739
 30
0.0
  0
SPLINE
  5
47
330
1F
100
AcDbEntity
  8
layer 1
 62
     7
370
     9
100
AcDbSpline
210
0.0
220
0.0
230
1.0
 70
    11
 71
     3
 72
    48
 73
    44
 74
     0
 42
0.0000000001
 43
0.0000000001
 12
1.0
 22
0.0
 32
0.0
 13
1.0
 23
0.0
 33
0.0
 40
0.0
 40
0.0
 40
0.0
 40
0.0
 40
0.0833333333333333
 40
0.0833333333333333
 40
0.0833333333333333
 40
0.0833333333333333
 40
0.1666666666666667
 40
0.1666666666666667
 40
0.1666666666666667
 40
0.1666666666666667
 40
0.25
 40
0.25
 40
0.25
 40
0.25
 40
0.3333333333333333
 40
0.3333333333333333
 40
0.3333333333333333
 40
0.3333333333333333
 40
0.4166666666666667
 40
0.4166666666666667
 40
0.4166666666666667
 40
0.4166666666666667
 40
0.5
 40
0.5
 40
0.5
 40
0.5
 40
0.5833333333333334
 40
0.5833333333333334
 40
0.5833333333333334
 40
0.5833333333333334
 40
0.6666666666666666
 40
0.6666666666666666
 40
0.6666666666666666
 40
0.6666666666666666
 40
0.75
 40
0.75
 40
0.75
 40
0.75
 40
0.8333333333333334
 40
0.8333333333333334
 40
0.8333333333333334
 40
0.8333333333333334
 40
1.0
 40
1.0
 40
1.0
 40
1.0
 10
-146.5186
 20
-89.165
 30
0.0
 10
-146.5186
 20
-89.165
 30
0.0
 10
-146.5336
 20
-67.8006
 30
0.0
 10
-146.5336
 20
-67.8006
 30
0.0
 10
-146.5336
 20
-67.8006
 30
0.0
 10
-145.367
 20
-71.8171
 30
0.0
 10
-141.3149
 20
-74.6838
 30
0.0
 10
-136.8628
 20
-73.2409
 30
0.0
 10
-136.8628
 20
-73.2409
 30
0.0
 10
-138.2555
 20
-74.0102
 30
0.0
 10
-138.0978
 20
-75.6098
 30
0.0
 10
-137.7364
 20
-76.026
 30
0.0
 10
-137.7364
 20
-76.026
 30
0.0
 10
-136.6302
 20
-74.1881
 30
0.0
 10
-134.7153
 20
-74.906
 30
0.0
 10
-132.704
 20
-74.0209
 30
0.0
 10
-132.704
 20
-74.0209
 30
0.0
 10
-130.8133
 20
-73.0864
 30
0.0
 10
-129.1447
 20
-72.0404
 30
0.0
 10
-127.0827
 20
-69.5144
 30
0.0
 10
-127.0827
 20
-69.5144
 30
0.0
 10
-130.5011
 20
-78.7832
 30
0.0
 10
-140.9457
 20
-79.7555
 30
0.0
 10
-141.7182
 20
-76.7352
 30
0.0
 10
-141.7182
 20
-76.7352
 30
0.0
 10
-142.4032
 20
-77.3749
 30
0.0
 10
-141.5877
 20
-79.9335
 30
0.0
 10
-140.1515
 20
-80.1387
 30
0.0
 10
-140.1515
 20
-80.1387
 30
0.0
 10
-141.29
 20
-83.4407
 30
0.0
 10
-138.14
 20
-82.641
 30
0.0
 10
-137.0775
 20
-82.024
 30
0.0
 10
-137.0775
 20
-82.024
 30
0.0
 10
-140.8076
 20
-85.5044
 30
0.0
 10
-142.2914
 20
-89.8737
 30
0.0
 10
-141.243
 20
-95.2231
 30
0.0
 10
-141.243
 20
-95.2231
 30
0.0
 10
-142.6983
 20
-92.6334
 30
0.0
 10
-142.5199
 20
-89.0757
 30
0.0
 10
-142.6498
 20
-89.0786
 30
0.0
 10
-142.6498
 20
-89.0786
 30
0.0
 10
-142.6498
 20
-89.0786
 30
0.0
 10
-146.5186
 20
-89.165
 30
0.0
 10
-146.5186
 20
-89.165
 30
0.0
  0
SPLINE
  5
48
330
1F
100
AcDbEntity
  8
layer 1
 62
     7
370
     9
100
AcDbSpline
210
0.0
220
0.0
230
1.0
 70
    11
 71
     3
 72
    80
 73
    76
 74
     0
 42
0.0000000001
 43
0.0000000001
 12
1.0
 22
0.0
 32
0.0
 13
1.0
 23
0.0
 33
0.0
 40
0.0
 40
0.0
 40
0.0
 40
0.0
 40
0.05
 40
0.05
 40
0.05
 40
0.05
 40
0.1
 40
0.1
 40
0.1
 40
0.1
 40
0.15
 40
0.15
 40
0.15
 40
0.15
 40
0.2
 40
0.2
 40
0.2
 40
0.2
 40
0.25
 40
0.25
 40
0.25
 40
0.25
 40
0.3
 40
0.3
 40
0.3
 40
0.3
 40
0.35
 40
0.35
 40
0.35
 40
0.35
 40
0.4
 40
0.4
 40
0.4
 40
0.4
 40
0.45
 40
0.45
 40
0.45
 40
0.45
 40
0.5
 40
0.5
 40
0.5
 40
0.5
 40
0.55
 40
0.55
 40
0.55
 40
0.55
 40
0.6
 40
0.6
 40
0.6
 40
0.6
 40
0.65
 40
0.65
 40
0.65
 40
0.65
 40
0.7
 40
0.7
 40
0.7
 40
0.7
 40
0.75
 40
0.75
 40
0.75
 40
0.75
 40
0.8
 40
0.8
 40
0.8
 40
0.8
 40
0.85
 40
0.85
 40
0.85
 40
0.85
 40
0.9
 40
0.9
 40
0.9
 40
0.9
 40
1.0
 40
1.0
 40
1.0
 40
1.0
 10
-120.7584
 20
-91.5675
 30
0.0
 10
-121.7255
 20
-90.0082
 30
0.0
 10
-124.2766
 20
-90.3358
 30
0.0
 10
-124.6572
 20
-91.0853
 30
0.0
 10
-124.6572
 20
-91.0853
 30
0.0
 10
-125.8466
 20
-90.1841
 30
0.0
 10
-128.1185
 20
-89.651
 30
0.0
 10
-127.7606
 20
-93.7674
 30
0.0
 10
-127.7606
 20
-93.7674
 30
0.0
 10
-124.7604
 20
-91.642
 30
0.0
 10
-123.5991
 20
-95.8347
 30
0.0
 10
-126.6789
 20
-97.3701
 30
0.0
 10
-126.6789
 20
-97.3701
 30
0.0
 10
-127.805
 20
-97.9315
 30
0.0
 10
-131.5821
 20
-98.7891
 30
0.0
 10
-133.3574
 20
-95.2227
 30
0.0
 10
-133.3574
 20
-95.2227
 30
0.0
 10
-130.3919
 20
-97.2403
 30
0.0
 10
-128.9204
 20
-95.9004
 30
0.0
 10
-128.7384
 20
-93.788
 30
0.0
 10
-128.7384
 20
-93.788
 30
0.0
 10
-130.4146
 20
-93.4966
 30
0.0
 10
-132.7382
 20
-92.6913
 30
0.0
 10
-133.2006
 20
-89.7174
 30
0.0
 10
-133.2006
 20
-89.7174
 30
0.0
 10
-133.6069
 20
-87.1049
 30
0.0
 10
-133.4193
 20
-84.9757
 30
0.0
 10
-129.9737
 20
-80.3856
 30
0.0
 10
-129.9737
 20
-80.3856
 30
0.0
 10
-130.3803
 20
-81.5595
 30
0.0
 10
-130.3626
 20
-81.9698
 30
0.0
 10
-130.4065
 20
-82.6071
 30
0.0
 10
-130.4065
 20
-82.6071
 30
0.0
 10
-130.4791
 20
-83.6578
 30
0.0
 10
-130.2287
 20
-84.9933
 30
0.0
 10
-129.979
 20
-86.0902
 30
0.0
 10
-129.979
 20
-86.0902
 30
0.0
 10
-129.713
 20
-86.2975
 30
0.0
 10
-128.4969
 20
-86.1242
 30
0.0
 10
-127.6575
 20
-84.6434
 30
0.0
 10
-127.6575
 20
-84.6434
 30
0.0
 10
-127.3015
 20
-85.9777
 30
0.0
 10
-125.8505
 20
-87.5499
 30
0.0
 10
-123.7774
 20
-86.2481
 30
0.0
 10
-123.7774
 20
-86.2481
 30
0.0
 10
-123.7353
 20
-85.7729
 30
0.0
 10
-124.1668
 20
-85.5943
 30
0.0
 10
-124.1245
 20
-85.0852
 30
0.0
 10
-124.1245
 20
-85.0852
 30
0.0
 10
-123.9415
 20
-82.8827
 30
0.0
 10
-124.0872
 20
-82.0337
 30
0.0
 10
-125.7182
 20
-81.2555
 30
0.0
 10
-125.7182
 20
-81.2555
 30
0.0
 10
-125.9727
 20
-78.7255
 30
0.0
 10
-125.2012
 20
-74.8232
 30
0.0
 10
-123.5997
 20
-69.6283
 30
0.0
 10
-123.5997
 20
-69.6283
 30
0.0
 10
-123.4065
 20
-69.9722
 30
0.0
 10
-123.4272
 20
-70.6829
 30
0.0
 10
-123.2277
 20
-71.0862
 30
0.0
 10
-123.2277
 20
-71.0862
 30
0.0
 10
-122.9871
 20
-71.5725
 30
0.0
 10
-122.3828
 20
-71.7338
 30
0.0
 10
-122.1356
 20
-72.2365
 30
0.0
 10
-122.1356
 20
-72.2365
 30
0.0
 10
-122.0272
 20
-72.4568
 30
0.0
 10
-122.3175
 20
-73.0487
 30
0.0
 10
-122.1678
 20
-73.2383
 30
0.0
 10
-122.1678
 20
-73.2383
 30
0.0
 10
-122.0088
 20
-73.4396
 30
0.0
 10
-121.7109
 20
-73.1809
 30
0.0
 10
-121.3888
 20
-73.2505
 30
0.0
 10
-121.3888
 20
-73.2505
 30
0.0
 10
-124.1809
 20
-82.8229
 30
0.0
 10
-122.1136
 20
-87.8879
 30
0.0
 10
-120.7584
 20
-91.5675
 30
0.0
  0
SPLINE
  5
49
330
1F
100
AcDbEntity
  8
layer 1
 62
     7
370
     9
100
AcDbSpline
210
0.0
220
0.0
230
1.0
 70
    11
 71
     3
 72
    24
 73
    20
 74
     0
 42
0.0000000001
 43
0.0000000001
 12
1.0
 22
0.0
 32
0.0
 13
1.0
 23
0.0
 33
0.0
 40
0.0
 40
0.0
 40
0.0
 40
0.0
 40
0.1666666666666667
 40
0.1666666666666667
 40
0.1666666666666667
 40
0.1666666666666667
 40
0.3333333333333333
 40
0.3333333333333333
 40
0.3333333333333333
 40
0.3333333333333333
 40
0.5
 40
0.5
 40
0.5
 40
0.5
 40
0.6666666666666666
 40
0.6666666666666666
 40
0.6666666666666666
 40
0.6666666666666666
 40
1.0
 40
1.0
 40
1.0
 40
1.0
 10
-121.6321
 20
-64.4769
 30
0.0
 10
-120.5291
 20
-62.114
 30
0.0
 10
-117.1293
 20
-56.8103
 30
0.0
 10
-115.1176
 20
-54.0544
 30
0.0
 10
-115.1176
 20
-54.0544
 30
0.0
 10
-114.0533
 20
-54.6788
 30
0.0
 10
-113.3915
 20
-54.8501
 30
0.0
 10
-112.4417
 20
-55.2029
 30
0.0
 10
-112.4417
 20
-55.2029
 30
0.0
 10
-115.5326
 20
-58.4501
 30
0.0
 10
-119.1316
 20
-65.5232
 30
0.0
 10
-120.0363
 20
-69.71
 30
0.0
 10
-120.0363
 20
-69.71
 30
0.0
 10
-120.0755
 20
-68.9834
 30
0.0
 10
-120.1753
 20
-68.3569
 30
0.0
 10
-120.3284
 20
-67.6856
 30
0.0
 10
-120.3284
 20
-67.6856
 30
0.0
 10
-120.6008
 20
-66.4907
 30
0.0
 10
-121.7625
 20
-66.0166
 30
0.0
 10
-121.6321
 20
-64.4769
 30
0.0
  0
SPLINE
  5
4A
330
1F
100
AcDbEntity
  8
layer 1
 62
     7
370
     9
100
AcDbSpline
210
0.0
220
0.0
230
1.0
 70
    11
 71
     3
 72
    20
 73
    16
 74
     0
 42
0.0000000001
 43
0.0000000001
 12
1.0
 22
0.0
 32
0.0
 13
1.0
 23
0.0
 33
0.0
 40
0.0
 40
0.0
 40
0.0
 40
0.0
 40
0.2
 40
0.2
 40
0.2
 40
0.2
 40
0.4
 40
0.4
 40
0.4
 40
0.4
 40
0.6
 40
0.6
 40
0.6
 40
0.6
 40
1.0
 40
1.0
 40
1.0
 40
1.0
 10
-116.8039
 20
-49.2123
 30
0.0
 10
-114.0556
 20
-49.917
 30
0.0
 10
-111.1962
 20
-48.0135
 30
0.0
 10
-111.7902
 20
-45.3759
 30
0.0
 10
-111.7902
 20
-45.3759
 30
0.0
 10
-110.6909
 20
-46.5838
 30
0.0
 10
-109.6773
 20
-47.0683
 30
0.0
 10
-108.3047
 20
-47.6236
 30
0.0
 10
-108.3047
 20
-47.6236
 30
0.0
 10
-109.4489
 20
-49.3856
 30
0.0
 10
-109.6183
 20
-49.7305
 30
0.0
 10
-110.6823
 20
-52.1528
 30
0.0
 10
-110.6823
 20
-52.1528
 30
0.0
 10
-112.7619
 20
-52.0253
 30
0.0
 10
-115.5604
 20
-50.4352
 30
0.0
 10
-116.8039
 20
-49.2123
 30
0.0
  0
SPLINE
  5
4B
330
1F
100
AcDbEntity
  8
layer 1
 62
     7
370
     9
100
AcDbSpline
210
0.0
220
0.0
230
1.0
 70
    11
 71
     3
 72
    20
 73
    16
 74
     0
 42
0.0000000001
 43
0.0000000001
 12
1.0
 22
0.0
 32
0.0
 13
1.0
 23
0.0
 33
0.0
 40
0.0
 40
0.0
 40
0.0
 40
0.0
 40
0.2
 40
0.2
 40
0.2
 40
0.2
 40
0.4
 40
0.4
 40
0.4
 40
0.4
 40
0.6
 40
0.6
 40
0.6
 40
0.6
 40
1.0
 40
1.0
 40
1.0
 40
1.0
 10
-119.8153
 20
-41.0353
 30
0.0
 10
-117.2159
 20
-41.0758
 30
0.0
 10
-116.8327
 20
-40.7991
 30
0.0
 10
-114.9985
 20
-40.5021
 30
0.0
 10
-114.9985
 20
-40.5021
 30
0.0
 10
-114.9444
 20
-41.2415
 30
0.0
 10
-114.3032
 20
-42.1169
 30
0.0
 10
-113.8493
 20
-42.9347
 30
0.0
 10
-113.8493
 20
-42.9347
 30
0.0
 10
-117.1811
 20
-42.0716
 30
0.0
 10
-118.7315
 20
-44.7017
 30
0.0
 10
-118.3079
 20
-47.1459
 30
0.0
 10
-118.3079
 20
-47.1459
 30
0.0
 10
-119.6219
 20
-44.7214
 30
0.0
 10
-119.6854
 20
-43.448
 30
0.0
 10
-119.8153
 20
-41.0353
 30
0.0
  0
SPLINE
  5
4C
330
1F
100
AcDbEntity
  8
layer 1
 62
     7
370
     9
100
AcDbSpline
210
0.0
220
0.0
230
1.0
 70
    11
 71
     3
 72
    28
 73
    24
 74
     0
 42
0.0000000001
 43
0.0000000001
 12
1.0
 22
0.0
 32
0.0
 13
1.0
 23
0.0
 33
0.0
 40
0.0
 40
0.0
 40
0.0
 40
0.0
 40
0.1428571428571428
 40
0.1428571428571428
 40
0.1428571428571428
 40
0.1428571428571428
 40
0.2857142857142857
 40
0.2857142857142857
 40
0.2857142857142857
 40
0.2857142857142857
 40
0.4285714285714285
 40
0.4285714285714285
 40
0.4285714285714285
 40
0.4285714285714285
 40
0.5714285714285714
 40
0.5714285714285714
 40
0.5714285714285714
 40
0.5714285714285714
 40
0.7142857142857143
 40
0.7142857142857143
 40
0.7142857142857143
 40
0.7142857142857143
 40
1.0
 40
1.0
 40
1.0
 40
1.0
 10
-113.2876
 20
-39.744
 30
0.0
 10
-109.8662
 20
-38.615
 30
0.0
 10
-104.3144
 20
-33.2997
 30
0.0
 10
-105.3958
 20
-27.4823
 30
0.0
 10
-105.3958
 20
-27.4823
 30
0.0
 10
-105.3958
 20
-27.4823
 30
0.0
 10
-103.0012
 20
-27.4322
 30
0.0
 10
-103.0012
 20
-27.4322
 30
0.0
 10
-103.0012
 20
-27.4322
 30
0.0
 10
-103.1242
 20
-32.6525
 30
0.0
 10
-106.2645
 20
-43.8597
 30
0.0
 10
-107.6766
 20
-46.0035
 30
0.0
 10
-107.6766
 20
-46.0035
 30
0.0
 10
-108.4302
 20
-45.7016
 30
0.0
 10
-109.4316
 20
-45.2478
 30
0.0
 10
-110.2635
 20
-44.4146
 30
0.0
 10
-110.2635
 20
-44.4146
 30
0.0
 10
-107.7277
 20
-43.3981
 30
0.0
 10
-109.8357
 20
-39.6287
 30
0.0
 10
-112.2238
 20
-41.8076
 30
0.0
 10
-112.2238
 20
-41.8076
 30
0.0
 10
-112.655
 20
-41.0833
 30
0.0
 10
-113.017
 20
-40.3631
 30
0.0
 10
-113.2876
 20
-39.744
 30
0.0
  0
SPLINE
  5
4D
330
1F
100
AcDbEntity
  8
layer 1
 62
     7
370
     9
100
AcDbSpline
210
0.0
220
0.0
230
1.0
 70
    11
 71
     3
 72
    16
 73
    12
 74
     0
 42
0.0000000001
 43
0.0000000001
 12
1.0
 22
0.0
 32
0.0
 13
1.0
 23
0.0
 33
0.0
 40
0.0
 40
0.0
 40
0.0
 40
0.0
 40
0.25
 40
0.25
 40
0.25
 40
0.25
 40
0.5
 40
0.5
 40
0.5
 40
0.5
 40
1.0
 40
1.0
 40
1.0
 40
1.0
 10
-134.7826
 20
-18.3931
 30
0.0
 10
-134.7777
 20
-21.5829
 30
0.0
 10
-134.5259
 20
-25.6667
 30
0.0
 10
-133.8966
 20
-27.8883
 30
0.0
 10
-133.8966
 20
-27.8883
 30
0.0
 10
-135.8246
 20
-25.797
 30
0.0
 10
-140.358
 20
-27.0233
 30
0.0
 10
-141.1627
 20
-29.2043
 30
0.0
 10
-141.1627
 20
-29.2043
 30
0.0
 10
-140.4726
 20
-23.8896
 30
0.0
 10
-136.3797
 20
-23.2277
 30
0.0
 10
-134.7826
 20
-18.3931
 30
0.0
  0
SPLINE
  5
4E
330
1F
100
AcDbEntity
  8
layer 1
 62
     7
370
     9
100
AcDbSpline
210
0.0
220
0.0
230
1.0
 70
    11
 71
     3
 72
    28
 73
    24
 74
     0
 42
0.0000000001
 43
0.0000000001
 12
1.0
 22
0.0
 32
0.0
 13
1.0
 23
0.0
 33
0.0
 40
0.0
 40
0.0
 40
0.0
 40
0.0
 40
0.1428571428571428
 40
0.1428571428571428
 40
0.1428571428571428
 40
0.1428571428571428
 40
0.2857142857142857
 40
0.2857142857142857
 40
0.2857142857142857
 40
0.2857142857142857
 40
0.4285714285714285
 40
0.4285714285714285
 40
0.4285714285714285
 40
0.4285714285714285
 40
0.5714285714285714
 40
0.5714285714285714
 40
0.5714285714285714
 40
0.5714285714285714
 40
0.7142857142857143
 40
0.7142857142857143
 40
0.7142857142857143
 40
0.7142857142857143
 40
1.0
 40
1.0
 40
1.0
 40
1.0
 10
-146.4991
 20
-11.5607
 30
0.0
 10
-144.9323
 20
-16.6652
 30
0.0
 10
-137.7561
 20
-13.1079
 30
0.0
 10
-141.9746
 20
-10.0599
 30
0.0
 10
-141.9746
 20
-10.0599
 30
0.0
 10
-138.1162
 20
-9.059
 30
0.0
 10
-135.6033
 20
-16.0171
 30
0.0
 10
-139.362
 20
-18.1912
 30
0.0
 10
-139.362
 20
-18.1912
 30
0.0
 10
-139.7066
 20
-15.7233
 30
0.0
 10
-142.1191
 20
-15.5482
 30
0.0
 10
-143.133
 20
-16.5657
 30
0.0
 10
-143.133
 20
-16.5657
 30
0.0
 10
-139.6243
 20
-19.2332
 30
0.0
 10
-141.7968
 20
-21.1725
 30
0.0
 10
-144.1629
 20
-24.6088
 30
0.0
 10
-144.1629
 20
-24.6088
 30
0.0
 10
-145.3293
 20
-26.3026
 30
0.0
 10
-145.9529
 20
-28.4566
 30
0.0
 10
-146.538
 20
-31.2417
 30
0.0
 10
-146.538
 20
-31.2417
 30
0.0
 10
-146.538
 20
-31.2417
 30
0.0
 10
-146.4991
 20
-11.5607
 30
0.0
 10
-146.4991
 20
-11.5607
 30
0.0
  0
SPLINE
  5
4F
330
1F
100
AcDbEntity
  8
layer 1
 62
     7
370
     9
100
AcDbSpline
210
0.0
220
0.0
230
1.0
 70
    11
 71
     3
 72
    36
 73
    32
 74
     0
 42
0.0000000001
 43
0.0000000001
 12
1.0
 22
0.0
 32
0.0
 13
1.0
 23
0.0
 33
0.0
 40
0.0
 40
0.0
 40
0.0
 40
0.0
 40
0.1111111111111111
 40
0.1111111111111111
 40
0.1111111111111111
 40
0.1111111111111111
 40
0.2222222222222222
 40
0.2222222222222222
 40
0.2222222222222222
 40
0.2222222222222222
 40
0.3333333333333333
 40
0.3333333333333333
 40
0.3333333333333333
 40
0.3333333333333333
 40
0.4444444444444444
 40
0.4444444444444444
 40
0.4444444444444444
 40
0.4444444444444444
 40
0.5555555555555556
 40
0.5555555555555556
 40
0.5555555555555556
 40
0.5555555555555556
 40
0.6666666666666666
 40
0.6666666666666666
 40
0.6666666666666666
 40
0.6666666666666666
 40
0.7777777777777778
 40
0.7777777777777778
 40
0.7777777777777778
 40
0.7777777777777778
 40
1.0
 40
1.0
 40
1.0
 40
1.0
 10
-120.3418
 20
-14.5396
 30
0.0
 10
-117.7423
 20
-16.9928
 30
0.0
 10
-111.437
 20
-20.8834
 30
0.0
 10
-109.2519
 20
-21.1567
 30
0.0
 10
-109.2519
 20
-21.1567
 30
0.0
 10
-107.9695
 20
-30.0993
 30
0.0
 10
-114.2154
 20
-34.0015
 30
0.0
 10
-118.4992
 20
-34.6
 30
0.0
 10
-118.4992
 20
-34.6
 30
0.0
 10
-124.0244
 20
-35.7987
 30
0.0
 10
-126.7153
 20
-24.8738
 30
0.0
 10
-120.8083
 20
-27.8883
 30
0.0
 10
-120.8083
 20
-27.8883
 30
0.0
 10
-120.7577
 20
-26.4938
 30
0.0
 10
-121.803
 20
-24.4892
 30
0.0
 10
-124.391
 20
-25.8246
 30
0.0
 10
-124.391
 20
-25.8246
 30
0.0
 10
-124.8734
 20
-25.248
 30
0.0
 10
-127.2657
 20
-23.3372
 30
0.0
 10
-127.3139
 20
-28.796
 30
0.0
 10
-127.3139
 20
-28.796
 30
0.0
 10
-130.9775
 20
-25.8639
 30
0.0
 10
-131.5119
 20
-13.456
 30
0.0
 10
-123.734
 20
-15.567
 30
0.0
 10
-123.734
 20
-15.567
 30
0.0
 10
-128.1115
 20
-16.7758
 30
0.0
 10
-125.2875
 20
-20.1173
 30
0.0
 10
-123.377
 20
-19.6497
 30
0.0
 10
-123.377
 20
-19.6497
 30
0.0
 10
-122.5327
 20
-19.4431
 30
0.0
 10
-118.9593
 20
-18.7763
 30
0.0
 10
-120.3418
 20
-14.5396
 30
0.0
  0
SPLINE
  5
50
330
1F
100
AcDbEntity
  8
layer 1
 62
     7
370
     9
100
AcDbSpline
210
0.0
220
0.0
230
1.0
 70
    11
 71
     3
 72
    16
 73
    12
 74
     0
 42
0.0000000001
 43
0.0000000001
 12
1.0
 22
0.0
 32
0.0
 13
1.0
 23
0.0
 33
0.0
 40
0.0
 40
0.0
 40
0.0
 40
0.0
 40
0.25
 40
0.25
 40
0.25
 40
0.25
 40
0.5
 40
0.5
 40
0.5
 40
0.5
 40
1.0
 40
1.0
 40
1.0
 40
1.0
 10
-146.4916
 20
-51.7126
 30
0.0
 10
-146.4916
 20
-51.7126
 30
0.0
 10
-146.5357
 20
-36.1412
 30
0.0
 10
-146.5357
 20
-36.1412
 30
0.0
 10
-146.5357
 20
-36.1412
 30
0.0
 10
-145.6661
 20
-41.0839
 30
0.0
 10
-142.2965
 20
-45.194
 30
0.0
 10
-138.7194
 20
-47.0798
 30
0.0
 10
-138.7194
 20
-47.0798
 30
0.0
 10
-142.2485
 20
-46.2804
 30
0.0
 10
-145.5127
 20
-46.9884
 30
0.0
 10
-146.4916
 20
-51.7126
 30
0.0
  0
SPLINE
  5
51
330
1F
100
AcDbEntity
  8
layer 1
 62
     7
370
     9
100
AcDbSpline
210
0.0
220
0.0
230
1.0
 70
    11
 71
     3
 72
    32
 73
    28
 74
     0
 42
0.0000000001
 43
0.0000000001
 12
1.0
 22
0.0
 32
0.0
 13
1.0
 23
0.0
 33
0.0
 40
0.0
 40
0.0
 40
0.0
 40
0.0
 40
0.125
 40
0.125
 40
0.125
 40
0.125
 40
0.25
 40
0.25
 40
0.25
 40
0.25
 40
0.375
 40
0.375
 40
0.375
 40
0.375
 40
0.5
 40
0.5
 40
0.5
 40
0.5
 40
0.625
 40
0.625
 40
0.625
 40
0.625
 40
0.75
 40
0.75
 40
0.75
 40
0.75
 40
1.0
 40
1.0
 40
1.0
 40
1.0
 10
-136.8895
 20
-48.1056
 30
0.0
 10
-133.448
 20
-51.209
 30
0.0
 10
-137.3945
 20
-55.5946
 30
0.0
 10
-140.7787
 20
-51.959
 30
0.0
 10
-140.7787
 20
-51.959
 30
0.0
 10
-141.1251
 20
-56.0646
 30
0.0
 10
-134.9276
 20
-57.9417
 30
0.0
 10
-132.0106
 20
-54.8365
 30
0.0
 10
-132.0106
 20
-54.8365
 30
0.0
 10
-133.6953
 20
-54.054
 30
0.0
 10
-133.5375
 20
-52.942
 30
0.0
 10
-132.8764
 20
-51.6643
 30
0.0
 10
-132.8764
 20
-51.6643
 30
0.0
 10
-131.5556
 20
-52.965
 30
0.0
 10
-129.3663
 20
-52.6725
 30
0.0
 10
-127.5673
 20
-52.5235
 30
0.0
 10
-127.5673
 20
-52.5235
 30
0.0
 10
-124.9379
 20
-52.3058
 30
0.0
 10
-122.3926
 20
-51.1768
 30
0.0
 10
-120.5742
 20
-49.2174
 30
0.0
 10
-120.5742
 20
-49.2174
 30
0.0
 10
-120.9158
 20
-48.5653
 30
0.0
 10
-121.2569
 20
-47.7728
 30
0.0
 10
-121.545
 20
-47.1713
 30
0.0
 10
-121.545
 20
-47.1713
 30
0.0
 10
-125.3072
 20
-49.1643
 30
0.0
 10
-130.6414
 20
-50.4262
 30
0.0
 10
-136.8895
 20
-48.1056
 30
0.0
  0
SPLINE
  5
52
330
1F
100
AcDbEntity
  8
layer 1
 62
     7
370
     9
100
AcDbSpline
210
0.0
220
0.0
230
1.0
 70
    11
 71
     3
 72
    40
 73
    36
 74
     0
 42
0.0000000001
 43
0.0000000001
 12
1.0
 22
0.0
 32
0.0
 13
1.0
 23
0.0
 33
0.0
 40
0.0
 40
0.0
 40
0.0
 40
0.0
 40
0.1
 40
0.1
 40
0.1
 40
0.1
 40
0.2
 40
0.2
 40
0.2
 40
0.2
 40
0.3
 40
0.3
 40
0.3
 40
0.3
 40
0.4
 40
0.4
 40
0.4
 40
0.4
 40
0.5
 40
0.5
 40
0.5
 40
0.5
 40
0.6
 40
0.6
 40
0.6
 40
0.6
 40
0.7
 40
0.7
 40
0.7
 40
0.7
 40
0.8
 40
0.8
 40
0.8
 40
0.8
 40
1.0
 40
1.0
 40
1.0
 40
1.0
 10
-133.2619
 20
-30.7422
 30
0.0
 10
-135.5135
 20
-35.8733
 30
0.0
 10
-140.0045
 20
-30.302
 30
0.0
 10
-135.825
 20
-29.7774
 30
0.0
 10
-135.825
 20
-29.7774
 30
0.0
 10
-141.2552
 20
-28.3178
 30
0.0
 10
-142.3636
 20
-40.0022
 30
0.0
 10
-136.6411
 20
-42.3649
 30
0.0
 10
-136.6411
 20
-42.3649
 30
0.0
 10
-136.5567
 20
-42.3598
 30
0.0
 10
-136.298
 20
-42.3321
 30
0.0
 10
-136.4128
 20
-42.0297
 30
0.0
 10
-136.4128
 20
-42.0297
 30
0.0
 10
-138.7149
 20
-40.1481
 30
0.0
 10
-137.8728
 20
-37.4966
 30
0.0
 10
-135.5872
 20
-38.6418
 30
0.0
 10
-135.5872
 20
-38.6418
 30
0.0
 10
-134.8157
 20
-35.4194
 30
0.0
 10
-131.8245
 20
-36.5139
 30
0.0
 10
-131.3601
 20
-36.8517
 30
0.0
 10
-131.3601
 20
-36.8517
 30
0.0
 10
-135.4631
 20
-39.3933
 30
0.0
 10
-132.2184
 20
-43.849
 30
0.0
 10
-130.058
 20
-44.4067
 30
0.0
 10
-130.058
 20
-44.4067
 30
0.0
 10
-127.5034
 20
-45.0661
 30
0.0
 10
-124.9288
 20
-44.709
 30
0.0
 10
-122.5602
 20
-44.2742
 30
0.0
 10
-122.5602
 20
-44.2742
 30
0.0
 10
-122.7403
 20
-43.089
 30
0.0
 10
-122.7046
 20
-42.0045
 30
0.0
 10
-122.8043
 20
-40.5062
 30
0.0
 10
-122.8043
 20
-40.5062
 30
0.0
 10
-127.6192
 20
-39.0936
 30
0.0
 10
-130.8573
 20
-36.9585
 30
0.0
 10
-133.2619
 20
-30.7422
 30
0.0
  0
SPLINE
  5
53
330
1F
100
AcDbEntity
  8
layer 1
 62
     7
370
     9
100
AcDbSpline
210
0.0
220
0.0
230
1.0
 70
    11
 71
     3
 72
    60
 73
    56
 74
     0
 42
0.0000000001
 43
0.0000000001
 12
1.0
 22
0.0
 32
0.0
 13
1.0
 23
0.0
 33
0.0
 40
0.0
 40
0.0
 40
0.0
 40
0.0
 40
0.0666666666666667
 40
0.0666666666666667
 40
0.0666666666666667
 40
0.0666666666666667
 40
0.1333333333333333
 40
0.1333333333333333
 40
0.1333333333333333
 40
0.1333333333333333
 40
0.2
 40
0.2
 40
0.2
 40
0.2
 40
0.2666666666666667
 40
0.2666666666666667
 40
0.2666666666666667
 40
0.2666666666666667
 40
0.3333333333333333
 40
0.3333333333333333
 40
0.3333333333333333
 40
0.3333333333333333
 40
0.4
 40
0.4
 40
0.4
 40
0.4
 40
0.4666666666666667
 40
0.4666666666666667
 40
0.4666666666666667
 40
0.4666666666666667
 40
0.5333333333333333
 40
0.5333333333333333
 40
0.5333333333333333
 40
0.5333333333333333
 40
0.6
 40
0.6
 40
0.6
 40
0.6
 40
0.6666666666666666
 40
0.6666666666666666
 40
0.6666666666666666
 40
0.6666666666666666
 40
0.7333333333333333
 40
0.7333333333333333
 40
0.7333333333333333
 40
0.7333333333333333
 40
0.8
 40
0.8
 40
0.8
 40
0.8
 40
0.8666666666666667
 40
0.8666666666666667
 40
0.8666666666666667
 40
0.8666666666666667
 40
1.0
 40
1.0
 40
1.0
 40
1.0
 10
-146.4478
 20
-65.2237
 30
0.0
 10
-146.4478
 20
-65.2237
 30
0.0
 10
-146.4804
 20
-53.6882
 30
0.0
 10
-146.4804
 20
-53.6882
 30
0.0
 10
-146.4804
 20
-53.6882
 30
0.0
 10
-145.538
 20
-58.4127
 30
0.0
 10
-138.9718
 20
-61.3697
 30
0.0
 10
-133.7444
 20
-59.511
 30
0.0
 10
-133.7444
 20
-59.511
 30
0.0
 10
-134.7109
 20
-60.5062
 30
0.0
 10
-134.9091
 20
-61.7382
 30
0.0
 10
-134.6118
 20
-62.2495
 30
0.0
 10
-134.6118
 20
-62.2495
 30
0.0
 10
-134.2581
 20
-62.1698
 30
0.0
 10
-133.8557
 20
-61.6465
 30
0.0
 10
-133.3046
 20
-61.632
 30
0.0
 10
-133.3046
 20
-61.632
 30
0.0
 10
-127.7089
 20
-61.4844
 30
0.0
 10
-120.6979
 20
-53.5416
 30
0.0
 10
-119.3064
 20
-50.9158
 30
0.0
 10
-119.3064
 20
-50.9158
 30
0.0
 10
-118.5005
 20
-51.7401
 30
0.0
 10
-118.1355
 20
-52.1447
 30
0.0
 10
-117.7949
 20
-52.3877
 30
0.0
 10
-117.7949
 20
-52.3877
 30
0.0
 10
-120.6387
 20
-57.6167
 30
0.0
 10
-129.6555
 20
-65.6621
 30
0.0
 10
-135.0963
 20
-63.7448
 30
0.0
 10
-135.0963
 20
-63.7448
 30
0.0
 10
-135.3562
 20
-64.3282
 30
0.0
 10
-135.125
 20
-65.3354
 30
0.0
 10
-133.5479
 20
-65.823
 30
0.0
 10
-133.5479
 20
-65.823
 30
0.0
 10
-134.683
 20
-67.5555
 30
0.0
 10
-132.9807
 20
-68.8416
 30
0.0
 10
-131.2153
 20
-66.6556
 30
0.0
 10
-131.2153
 20
-66.6556
 30
0.0
 10
-130.8129
 20
-66.1574
 30
0.0
 10
-130.3265
 20
-65.7684
 30
0.0
 10
-129.6652
 20
-65.4927
 30
0.0
 10
-129.6652
 20
-65.4927
 30
0.0
 10
-128.6218
 20
-65.1749
 30
0.0
 10
-128.9934
 20
-65.9433
 30
0.0
 10
-129.0503
 20
-66.1842
 30
0.0
 10
-129.0503
 20
-66.1842
 30
0.0
 10
-129.8906
 20
-68.4173
 30
0.0
 10
-138.957
 20
-71.4327
 30
0.0
 10
-141.0187
 20
-65.9325
 30
0.0
 10
-141.0187
 20
-65.9325
 30
0.0
 10
-135.4423
 20
-68.0875
 30
0.0
 10
-136.258
 20
-62.0167
 30
0.0
 10
-138.9145
 20
-61.4271
 30
0.0
 10
-138.9145
 20
-61.4271
 30
0.0
 10
-142.3614
 20
-60.0059
 30
0.0
 10
-145.8529
 20
-62.1025
 30
0.0
 10
-146.4478
 20
-65.2237
 30
0.0
  0
SPLINE
  5
54
330
1F
100
AcDbEntity
  8
layer 1
 62
     7
370
     9
100
AcDbSpline
210
0.0
220
0.0
230
1.0
 70
    11
 71
     3
 72
    16
 73
    12
 74
     0
 42
0.0000000001
 43
0.0000000001
 12
1.0
 22
0.0
 32
0.0
 13
1.0
 23
0.0
 33
0.0
 40
0.0
 40
0.0
 40
0.0
 40
0.0
 40
0.25
 40
0.25
 40
0.25
 40
0.25
 40
0.5
 40
0.5
 40
0.5
 40
0.5
 40
1.0
 40
1.0
 40
1.0
 40
1.0
 10
-111.5039
 20
-85.2523
 30
0.0
 10
-112.8045
 20
-81.2834
 30
0.0
 10
-100.8218
 20
-78.1489
 30
0.0
 10
-101.0178
 20
-90.2449
 30
0.0
 10
-101.0178
 20
-90.2449
 30
0.0
 10
-101.9386
 20
-90.2436
 30
0.0
 10
-101.9456
 20
-90.196
 30
0.0
 10
-102.9733
 20
-90.2541
 30
0.0
 10
-102.9733
 20
-90.2541
 30
0.0
 10
-102.9668
 20
-84.3401
 30
0.0
 10
-109.2422
 20
-84.1656
 30
0.0
 10
-111.5039
 20
-85.2523
 30
0.0
  0
SPLINE
  5
55
330
1F
100
AcDbEntity
  8
layer 1
 62
     7
370
     9
100
AcDbSpline
210
0.0
220
0.0
230
1.0
 70
    11
 71
     3
 72
    24
 73
    20
 74
     0
 42
0.0000000001
 43
0.0000000001
 12
1.0
 22
0.0
 32
0.0
 13
1.0
 23
0.0
 33
0.0
 40
0.0
 40
0.0
 40
0.0
 40
0.0
 40
0.1666666666666667
 40
0.1666666666666667
 40
0.1666666666666667
 40
0.1666666666666667
 40
0.3333333333333333
 40
0.3333333333333333
 40
0.3333333333333333
 40
0.3333333333333333
 40
0.5
 40
0.5
 40
0.5
 40
0.5
 40
0.6666666666666666
 40
0.6666666666666666
 40
0.6666666666666666
 40
0.6666666666666666
 40
1.0
 40
1.0
 40
1.0
 40
1.0
 10
-113.4522
 20
-98.5042
 30
0.0
 10
-110.2665
 20
-99.0995
 30
0.0
 10
-105.132
 20
-98.6836
 30
0.0
 10
-103.6478
 20
-94.1209
 30
0.0
 10
-103.6478
 20
-94.1209
 30
0.0
 10
-102.3992
 20
-94.348
 30
0.0
 10
-102.1244
 20
-94.3327
 30
0.0
 10
-101.4529
 20
-94.3998
 30
0.0
 10
-101.4529
 20
-94.3998
 30
0.0
 10
-101.7878
 20
-97.4962
 30
0.0
 10
-106.2448
 20
-103.135
 30
0.0
 10
-113.3683
 20
-101.6853
 30
0.0
 10
-113.3683
 20
-101.6853
 30
0.0
 10
-117.4289
 20
-100.9541
 30
0.0
 10
-114.9922
 20
-97.0758
 30
0.0
 10
-112.8374
 20
-100.6102
 30
0.0
 10
-112.8374
 20
-100.6102
 30
0.0
 10
-112.383
 20
-100.0441
 30
0.0
 10
-112.6507
 20
-99.054
 30
0.0
 10
-113.4522
 20
-98.5042
 30
0.0
  0
SPLINE
  5
56
330
1F
100
AcDbEntity
  8
layer 1
 62
     7
370
     9
100
AcDbSpline
210
0.0
220
0.0
230
1.0
 70
    11
 71
     3
 72
    12
 73
     8
 74
     0
 42
0.0000000001
 43
0.0000000001
 12
1.0
 22
0.0
 32
0.0
 13
1.0
 23
0.0
 33
0.0
 40
0.0
 40
0.0
 40
0.0
 40
0.0
 40
0.3333333333333333
 40
0.3333333333333333
 40
0.3333333333333333
 40
0.3333333333333333
 40
1.0
 40
1.0
 40
1.0
 40
1.0
 10
-107.6347
 20
-105.6618
 30
0.0
 10
-105.5095
 20
-107.5967
 30
0.0
 10
-99.158
 20
-104.3506
 30
0.0
 10
-100.6387
 20
-98.9992
 30
0.0
 10
-100.6387
 20
-98.9992
 30
0.0
 10
-102.1476
 20
-101.6588
 30
0.0
 10
-103.709
 20
-103.8938
 30
0.0
 10
-107.6347
 20
-105.6618
 30
0.0
  0
SPLINE
  5
57
330
1F
100
AcDbEntity
  8
layer 1
 62
     7
370
     9
100
AcDbSpline
210
0.0
220
0.0
230
1.0
 70
    11
 71
     3
 72
    76
 73
    72
 74
     0
 42
0.0000000001
 43
0.0000000001
 12
1.0
 22
0.0
 32
0.0
 13
1.0
 23
0.0
 33
0.0
 40
0.0
 40
0.0
 40
0.0
 40
0.0
 40
0.0526315789473684
 40
0.0526315789473684
 40
0.0526315789473684
 40
0.0526315789473684
 40
0.1052631578947368
 40
0.1052631578947368
 40
0.1052631578947368
 40
0.1052631578947368
 40
0.1578947368421053
 40
0.1578947368421053
 40
0.1578947368421053
 40
0.1578947368421053
 40
0.2105263157894737
 40
0.2105263157894737
 40
0.2105263157894737
 40
0.2105263157894737
 40
0.2631578947368421
 40
0.2631578947368421
 40
0.2631578947368421
 40
0.2631578947368421
 40
0.3157894736842105
 40
0.3157894736842105
 40
0.3157894736842105
 40
0.3157894736842105
 40
0.3684210526315789
 40
0.3684210526315789
 40
0.3684210526315789
 40
0.3684210526315789
 40
0.4210526315789473
 40
0.4210526315789473
 40
0.4210526315789473
 40
0.4210526315789473
 40
0.4736842105263158
 40
0.4736842105263158
 40
0.4736842105263158
 40
0.4736842105263158
 40
0.5263157894736842
 40
0.5263157894736842
 40
0.5263157894736842
 40
0.5263157894736842
 40
0.5789473684210527
 40
0.5789473684210527
 40
0.5789473684210527
 40
0.5789473684210527
 40
0.631578947368421
 40
0.631578947368421
 40
0.631578947368421
 40
0.631578947368421
 40
0.6842105263157895
 40
0.6842105263157895
 40
0.6842105263157895
 40
0.6842105263157895
 40
0.7368421052631579
 40
0.7368421052631579
 40
0.7368421052631579
 40
0.7368421052631579
 40
0.7894736842105263
 40
0.7894736842105263
 40
0.7894736842105263
 40
0.7894736842105263
 40
0.8421052631578947
 40
0.8421052631578947
 40
0.8421052631578947
 40
0.8421052631578947
 40
0.8947368421052632
 40
0.8947368421052632
 40
0.8947368421052632
 40
0.8947368421052632
 40
1.0
 40
1.0
 40
1.0
 40
1.0
 10
-106.7432
 20
-89.8542
 30
0.0
 10
-106.7701
 20
-89.5371
 30
0.0
 10
-107.4298
 20
-89.4828
 30
0.0
 10
-107.4433
 20
-89.7655
 30
0.0
 10
-107.4433
 20
-89.7655
 30
0.0
 10
-108.7587
 20
-95.3031
 30
0.0
 10
-116.2031
 20
-91.2887
 30
0.0
 10
-112.4787
 20
-85.9984
 30
0.0
 10
-112.4787
 20
-85.9984
 30
0.0
 10
-114.2707
 20
-85.4807
 30
0.0
 10
-116.958
 20
-78.9898
 30
0.0
 10
-110.0158
 20
-78.6411
 30
0.0
 10
-110.0158
 20
-78.6411
 30
0.0
 10
-111.7328
 20
-73.0819
 30
0.0
 10
-101.6373
 20
-74.9295
 30
0.0
 10
-101.081
 20
-79.5761
 30
0.0
 10
-101.081
 20
-79.5761
 30
0.0
 10
-100.9206
 20
-80.1712
 30
0.0
 10
-99.9072
 20
-80.0694
 30
0.0
 10
-99.8244
 20
-79.6048
 30
0.0
 10
-99.8244
 20
-79.6048
 30
0.0
 10
-99.4962
 20
-78.0473
 30
0.0
 10
-98.7843
 20
-75.5967
 30
0.0
 10
-102.6992
 20
-74.0176
 30
0.0
 10
-102.6992
 20
-74.0176
 30
0.0
 10
-102.9198
 20
-72.924
 30
0.0
 10
-102.8284
 20
-72.3675
 30
0.0
 10
-102.8032
 20
-70.7087
 30
0.0
 10
-102.8032
 20
-70.7087
 30
0.0
 10
-106.8517
 20
-76.0225
 30
0.0
 10
-112.6657
 20
-71.2668
 30
0.0
 10
-111.8508
 20
-67.473
 30
0.0
 10
-111.8508
 20
-67.473
 30
0.0
 10
-110.4318
 20
-61.7242
 30
0.0
 10
-105.1602
 20
-65.1489
 30
0.0
 10
-106.1388
 20
-67.0793
 30
0.0
 10
-106.1388
 20
-67.0793
 30
0.0
 10
-111.5755
 20
-64.5229
 30
0.0
 10
-108.6284
 20
-72.7499
 30
0.0
 10
-104.3641
 20
-68.3248
 30
0.0
 10
-104.3641
 20
-68.3248
 30
0.0
 10
-103.0331
 20
-65.5285
 30
0.0
 10
-104.9321
 20
-64.5027
 30
0.0
 10
-105.1744
 20
-62.4025
 30
0.0
 10
-105.1744
 20
-62.4025
 30
0.0
 10
-105.3883
 20
-60.5494
 30
0.0
 10
-104.1179
 20
-58.4557
 30
0.0
 10
-100.9665
 20
-58.5241
 30
0.0
 10
-100.9665
 20
-58.5241
 30
0.0
 10
-100.9244
 20
-58.0489
 30
0.0
 10
-101.0489
 20
-56.2472
 30
0.0
 10
-101.0066
 20
-55.7382
 30
0.0
 10
-101.0066
 20
-55.7382
 30
0.0
 10
-102.8853
 20
-56.036
 30
0.0
 10
-103.9522
 20
-52.9498
 30
0.0
 10
-100.6701
 20
-52.7419
 30
0.0
 10
-100.6701
 20
-52.7419
 30
0.0
 10
-100.8369
 20
-49.0275
 30
0.0
 10
-105.5926
 20
-52.758
 30
0.0
 10
-106.1406
 20
-49.1424
 30
0.0
 10
-106.1406
 20
-49.1424
 30
0.0
 10
-107.5906
 20
-54.4266
 30
0.0
 10
-113.6912
 20
-60.6002
 30
0.0
 10
-116.4212
 20
-70.9134
 30
0.0
 10
-116.4212
 20
-70.9134
 30
0.0
 10
-118.7627
 20
-77.6069
 30
0.0
 10
-118.7718
 20
-87.5693
 30
0.0
 10
-115.9054
 20
-91.7624
 30
0.0
 10
-115.9054
 20
-91.7624
 30
0.0
 10
-114.1792
 20
-94.7986
 30
0.0
 10
-106.6946
 20
-95.6499
 30
0.0
 10
-106.7432
 20
-89.8542
 30
0.0
  0
SPLINE
  5
58
330
1F
100
AcDbEntity
  8
layer 1
 62
     7
370
     9
100
AcDbSpline
210
0.0
220
0.0
230
1.0
 70
    11
 71
     3
 72
    48
 73
    44
 74
     0
 42
0.0000000001
 43
0.0000000001
 12
1.0
 22
0.0
 32
0.0
 13
1.0
 23
0.0
 33
0.0
 40
0.0
 40
0.0
 40
0.0
 40
0.0
 40
0.0833333333333333
 40
0.0833333333333333
 40
0.0833333333333333
 40
0.0833333333333333
 40
0.1666666666666667
 40
0.1666666666666667
 40
0.1666666666666667
 40
0.1666666666666667
 40
0.25
 40
0.25
 40
0.25
 40
0.25
 40
0.3333333333333333
 40
0.3333333333333333
 40
0.3333333333333333
 40
0.3333333333333333
 40
0.4166666666666667
 40
0.4166666666666667
 40
0.4166666666666667
 40
0.4166666666666667
 40
0.5
 40
0.5
 40
0.5
 40
0.5
 40
0.5833333333333334
 40
0.5833333333333334
 40
0.5833333333333334
 40
0.5833333333333334
 40
0.6666666666666666
 40
0.6666666666666666
 40
0.6666666666666666
 40
0.6666666666666666
 40
0.75
 40
0.75
 40
0.75
 40
0.75
 40
0.8333333333333334
 40
0.8333333333333334
 40
0.8333333333333334
 40
0.8333333333333334
 40
1.0
 40
1.0
 40
1.0
 40
1.0
 10
-101.0302
 20
-27.4779
 30
0.0
 10
-100.5574
 20
-29.4601
 30
0.0
 10
-102.4962
 20
-42.1595
 30
0.0
 10
-105.3028
 20
-47.5704
 30
0.0
 10
-105.3028
 20
-47.5704
 30
0.0
 10
-104.9264
 20
-46.9857
 30
0.0
 10
-102.3197
 20
-47.4203
 30
0.0
 10
-101.6135
 20
-47.3409
 30
0.0
 10
-101.6135
 20
-47.3409
 30
0.0
 10
-99.1219
 20
-46.8582
 30
0.0
 10
-100.0431
 20
-45.6563
 30
0.0
 10
-99.7347
 20
-41.6684
 30
0.0
 10
-99.7347
 20
-41.6684
 30
0.0
 10
-101.8545
 20
-41.6202
 30
0.0
 10
-101.5842
 20
-39.4367
 30
0.0
 10
-99.643
 20
-39.4789
 30
0.0
 10
-99.643
 20
-39.4789
 30
0.0
 10
-99.9704
 20
-38.2763
 30
0.0
 10
-99.2573
 20
-37.6996
 30
0.0
 10
-98.2419
 20
-37.8251
 30
0.0
 10
-98.2419
 20
-37.8251
 30
0.0
 10
-97.2266
 20
-37.6996
 30
0.0
 10
-96.4611
 20
-38.2763
 30
0.0
 10
-96.7885
 20
-39.4789
 30
0.0
 10
-96.7885
 20
-39.4789
 30
0.0
 10
-94.8472
 20
-39.4367
 30
0.0
 10
-94.577
 20
-41.6202
 30
0.0
 10
-96.6967
 20
-41.6684
 30
0.0
 10
-96.6967
 20
-41.6684
 30
0.0
 10
-96.3884
 20
-45.6563
 30
0.0
 10
-97.3096
 20
-46.8582
 30
0.0
 10
-94.818
 20
-47.3409
 30
0.0
 10
-94.818
 20
-47.3409
 30
0.0
 10
-94.1117
 20
-47.4203
 30
0.0
 10
-91.5051
 20
-46.9857
 30
0.0
 10
-91.1287
 20
-47.5704
 30
0.0
 10
-91.1287
 20
-47.5704
 30
0.0
 10
-93.9352
 20
-42.1595
 30
0.0
 10
-95.874
 20
-29.4601
 30
0.0
 10
-95.4013
 20
-27.4779
 30
0.0
 10
-95.4013
 20
-27.4779
 30
0.0
 10
-95.4013
 20
-27.4779
 30
0.0
 10
-101.0302
 20
-27.4779
 30
0.0
 10
-101.0302
 20
-27.4779
 30
0.0
  0
SPLINE
  5
59
330
1F
100
AcDbEntity
  8
layer 1
 62
     7
370
     9
100
AcDbSpline
210
0.0
220
0.0
230
1.0
 70
    11
 71
     3
 72
    16
 73
    12
 74
     0
 42
0.0000000001
 43
0.0000000001
 12
1.0
 22
0.0
 32
0.0
 13
1.0
 23
0.0
 33
0.0
 40
0.0
 40
0.0
 40
0.0
 40
0.0
 40
0.25
 40
0.25
 40
0.25
 40
0.25
 40
0.5
 40
0.5
 40
0.5
 40
0.5
 40
1.0
 40
1.0
 40
1.0
 40
1.0
 10
-130.5896
 20
30.4658
 30
0.0
 10
-131.3407
 20
25.7663
 30
0.0
 10
-129.3104
 20
21.5688
 30
0.0
 10
-129.2422
 20
15.4958
 30
0.0
 10
-129.2422
 20
15.4958
 30
0.0
 10
-128.5387
 20
20.7288
 30
0.0
 10
-124.6083
 20
27.2025
 30
0.0
 10
-122.3813
 20
29.358
 30
0.0
 10
-122.3813
 20
29.358
 30
0.0
 10
-125.578
 20
27.978
 30
0.0
 10
-128.4269
 20
28.2505
 30
0.0
 10
-130.5896
 20
30.4658
 30
0.0
  0
SPLINE
  5
5A
330
1F
100
AcDbEntity
  8
layer 1
 62
     7
370
     9
100
AcDbSpline
210
0.0
220
0.0
230
1.0
 70
    11
 71
     3
 72
    16
 73
    12
 74
     0
 42
0.0000000001
 43
0.0000000001
 12
1.0
 22
0.0
 32
0.0
 13
1.0
 23
0.0
 33
0.0
 40
0.0
 40
0.0
 40
0.0
 40
0.0
 40
0.25
 40
0.25
 40
0.25
 40
0.25
 40
0.5
 40
0.5
 40
0.5
 40
0.5
 40
1.0
 40
1.0
 40
1.0
 40
1.0
 10
-146.2618
 20
111.4865
 30
0.0
 10
-144.1468
 20
120.6915
 30
0.0
 10
-136.3132
 20
125.5423
 30
0.0
 10
-131.4479
 20
127.0426
 30
0.0
 10
-131.4479
 20
127.0426
 30
0.0
 10
-131.4479
 20
127.0426
 30
0.0
 10
-146.5294
 20
126.935
 30
0.0
 10
-146.5294
 20
126.935
 30
0.0
 10
-146.5294
 20
126.935
 30
0.0
 10
-146.5294
 20
126.935
 30
0.0
 10
-146.2618
 20
111.4865
 30
0.0
 10
-146.2618
 20
111.4865
 30
0.0
  0
SPLINE
  5
5B
330
1F
100
AcDbEntity
  8
layer 1
 62
     7
370
     9
100
AcDbSpline
210
0.0
220
0.0
230
1.0
 70
    11
 71
     3
 72
    16
 73
    12
 74
     0
 42
0.0000000001
 43
0.0000000001
 12
1.0
 22
0.0
 32
0.0
 13
1.0
 23
0.0
 33
0.0
 40
0.0
 40
0.0
 40
0.0
 40
0.0
 40
0.25
 40
0.25
 40
0.25
 40
0.25
 40
0.5
 40
0.5
 40
0.5
 40
0.5
 40
1.0
 40
1.0
 40
1.0
 40
1.0
 10
-125.6787
 20
124.6179
 30
0.0
 10
-125.6787
 20
124.6179
 30
0.0
 10
-125.6732
 20
127.022
 30
0.0
 10
-125.6732
 20
127.022
 30
0.0
 10
-125.6732
 20
127.022
 30
0.0
 10
-125.6732
 20
127.022
 30
0.0
 10
-122.8024
 20
127.0799
 30
0.0
 10
-122.8024
 20
127.0799
 30
0.0
 10
-122.8024
 20
127.0799
 30
0.0
 10
-124.3641
 20
126.6043
 30
0.0
 10
-124.9842
 20
125.881
 30
0.0
 10
-125.6787
 20
124.6179
 30
0.0
  0
SPLINE
  5
5C
330
1F
100
AcDbEntity
  8
layer 1
 62
     7
370
     9
100
AcDbSpline
210
0.0
220
0.0
230
1.0
 70
    11
 71
     3
 72
    24
 73
    20
 74
     0
 42
0.0000000001
 43
0.0000000001
 12
1.0
 22
0.0
 32
0.0
 13
1.0
 23
0.0
 33
0.0
 40
0.0
 40
0.0
 40
0.0
 40
0.0
 40
0.1666666666666667
 40
0.1666666666666667
 40
0.1666666666666667
 40
0.1666666666666667
 40
0.3333333333333333
 40
0.3333333333333333
 40
0.3333333333333333
 40
0.3333333333333333
 40
0.5
 40
0.5
 40
0.5
 40
0.5
 40
0.6666666666666666
 40
0.6666666666666666
 40
0.6666666666666666
 40
0.6666666666666666
 40
1.0
 40
1.0
 40
1.0
 40
1.0
 10
-126.3399
 20
123.0516
 30
0.0
 10
-131.415
 20
123.3154
 30
0.0
 10
-138.4904
 20
118.3173
 30
0.0
 10
-139.4274
 20
115.9001
 30
0.0
 10
-139.4274
 20
115.9001
 30
0.0
 10
-140.7612
 20
114.6965
 30
0.0
 10
-136.5775
 20
118.5721
 30
0.0
 10
-135.6348
 20
117.524
 30
0.0
 10
-135.6348
 20
117.524
 30
0.0
 10
-136.3694
 20
116.2315
 30
0.0
 10
-136.3413
 20
114.8661
 30
0.0
 10
-135.8504
 20
114.1239
 30
0.0
 10
-135.8504
 20
114.1239
 30
0.0
 10
-134.0153
 20
117.2285
 30
0.0
 10
-129.294
 20
120.3313
 30
0.0
 10
-124.4509
 20
118.3158
 30
0.0
 10
-124.4509
 20
118.3158
 30
0.0
 10
-126.5252
 20
119.3322
 30
0.0
 10
-126.4009
 20
122.1806
 30
0.0
 10
-126.3399
 20
123.0516
 30
0.0
  0
SPLINE
  5
5D
330
1F
100
AcDbEntity
  8
layer 1
 62
     7
370
     9
100
AcDbSpline
210
0.0
220
0.0
230
1.0
 70
    11
 71
     3
 72
    88
 73
    84
 74
     0
 42
0.0000000001
 43
0.0000000001
 12
1.0
 22
0.0
 32
0.0
 13
1.0
 23
0.0
 33
0.0
 40
0.0
 40
0.0
 40
0.0
 40
0.0
 40
0.0454545454545455
 40
0.0454545454545455
 40
0.0454545454545455
 40
0.0454545454545455
 40
0.0909090909090909
 40
0.0909090909090909
 40
0.0909090909090909
 40
0.0909090909090909
 40
0.1363636363636364
 40
0.1363636363636364
 40
0.1363636363636364
 40
0.1363636363636364
 40
0.1818181818181818
 40
0.1818181818181818
 40
0.1818181818181818
 40
0.1818181818181818
 40
0.2272727272727273
 40
0.2272727272727273
 40
0.2272727272727273
 40
0.2272727272727273
 40
0.2727272727272727
 40
0.2727272727272727
 40
0.2727272727272727
 40
0.2727272727272727
 40
0.3181818181818182
 40
0.3181818181818182
 40
0.3181818181818182
 40
0.3181818181818182
 40
0.3636363636363636
 40
0.3636363636363636
 40
0.3636363636363636
 40
0.3636363636363636
 40
0.4090909090909091
 40
0.4090909090909091
 40
0.4090909090909091
 40
0.4090909090909091
 40
0.4545454545454545
 40
0.4545454545454545
 40
0.4545454545454545
 40
0.4545454545454545
 40
0.5
 40
0.5
 40
0.5
 40
0.5
 40
0.5454545454545454
 40
0.5454545454545454
 40
0.5454545454545454
 40
0.5454545454545454
 40
0.5909090909090909
 40
0.5909090909090909
 40
0.5909090909090909
 40
0.5909090909090909
 40
0.6363636363636364
 40
0.6363636363636364
 40
0.6363636363636364
 40
0.6363636363636364
 40
0.6818181818181818
 40
0.6818181818181818
 40
0.6818181818181818
 40
0.6818181818181818
 40
0.7272727272727273
 40
0.7272727272727273
 40
0.7272727272727273
 40
0.7272727272727273
 40
0.7727272727272727
 40
0.7727272727272727
 40
0.7727272727272727
 40
0.7727272727272727
 40
0.8181818181818182
 40
0.8181818181818182
 40
0.8181818181818182
 40
0.8181818181818182
 40
0.8636363636363636
 40
0.8636363636363636
 40
0.8636363636363636
 40
0.8636363636363636
 40
0.9090909090909091
 40
0.9090909090909091
 40
0.9090909090909091
 40
0.9090909090909091
 40
1.0
 40
1.0
 40
1.0
 40
1.0
 10
-121.0259
 20
127.0305
 30
0.0
 10
-119.0917
 20
126.7173
 30
0.0
 10
-118.9906
 20
125.8775
 30
0.0
 10
-119.5129
 20
125.1462
 30
0.0
 10
-119.5129
 20
125.1462
 30
0.0
 10
-124.1545
 20
127.1989
 30
0.0
 10
-125.7454
 20
121.4908
 30
0.0
 10
-121.1571
 20
120.7439
 30
0.0
 10
-121.1571
 20
120.7439
 30
0.0
 10
-118.4169
 20
120.303
 30
0.0
 10
-116.6732
 20
122.848
 30
0.0
 10
-112.6612
 20
122.6088
 30
0.0
 10
-112.6612
 20
122.6088
 30
0.0
 10
-112.9112
 20
123.3591
 30
0.0
 10
-113.1166
 20
123.8371
 30
0.0
 10
-113.0389
 20
124.5052
 30
0.0
 10
-113.0389
 20
124.5052
 30
0.0
 10
-111.4998
 20
123.5992
 30
0.0
 10
-109.3572
 20
123.4654
 30
0.0
 10
-108.5176
 20
123.4177
 30
0.0
 10
-108.5176
 20
123.4177
 30
0.0
 10
-108.4453
 20
124.7482
 30
0.0
 10
-107.1393
 20
125.3874
 30
0.0
 10
-106.0139
 20
124.5068
 30
0.0
 10
-106.0139
 20
124.5068
 30
0.0
 10
-105.5896
 20
126.8171
 30
0.0
 10
-102.9812
 20
126.3738
 30
0.0
 10
-102.523
 20
125.0971
 30
0.0
 10
-102.523
 20
125.0971
 30
0.0
 10
-101.5928
 20
126.0036
 30
0.0
 10
-99.8048
 20
125.9253
 30
0.0
 10
-99.3986
 20
125.6085
 30
0.0
 10
-99.3986
 20
125.6085
 30
0.0
 10
-99.1808
 20
125.3376
 30
0.0
 10
-99.1672
 20
125.1106
 30
0.0
 10
-99.35
 20
125.02
 30
0.0
 10
-99.35
 20
125.02
 30
0.0
 10
-102.455
 20
124.6043
 30
0.0
 10
-100.9559
 20
121.6723
 30
0.0
 10
-98.1883
 20
121.8172
 30
0.0
 10
-98.1883
 20
121.8172
 30
0.0
 10
-95.4207
 20
121.6723
 30
0.0
 10
-94.0054
 20
124.6246
 30
0.0
 10
-97.1104
 20
125.0403
 30
0.0
 10
-97.1104
 20
125.0403
 30
0.0
 10
-97.2933
 20
125.1309
 30
0.0
 10
-97.2797
 20
125.3579
 30
0.0
 10
-97.0619
 20
125.6288
 30
0.0
 10
-97.0619
 20
125.6288
 30
0.0
 10
-96.6556
 20
125.9456
 30
0.0
 10
-94.8677
 20
126.0239
 30
0.0
 10
-93.9374
 20
125.1175
 30
0.0
 10
-93.9374
 20
125.1175
 30
0.0
 10
-93.4793
 20
126.3941
 30
0.0
 10
-90.8709
 20
126.8374
 30
0.0
 10
-90.4466
 20
124.5271
 30
0.0
 10
-90.4466
 20
124.5271
 30
0.0
 10
-89.3211
 20
125.4077
 30
0.0
 10
-88.0152
 20
124.7685
 30
0.0
 10
-87.9429
 20
123.438
 30
0.0
 10
-87.9429
 20
123.438
 30
0.0
 10
-87.1033
 20
123.4857
 30
0.0
 10
-84.9606
 20
123.6195
 30
0.0
 10
-83.4215
 20
124.5255
 30
0.0
 10
-83.4215
 20
124.5255
 30
0.0
 10
-83.3439
 20
123.8574
 30
0.0
 10
-83.5493
 20
123.3794
 30
0.0
 10
-83.7993
 20
122.6291
 30
0.0
 10
-83.7993
 20
122.6291
 30
0.0
 10
-79.7872
 20
122.8683
 30
0.0
 10
-78.0436
 20
120.3233
 30
0.0
 10
-75.3034
 20
120.7642
 30
0.0
 10
-75.3034
 20
120.7642
 30
0.0
 10
-70.7151
 20
121.5111
 30
0.0
 10
-72.306
 20
127.2192
 30
0.0
 10
-76.9476
 20
125.1665
 30
0.0
 10
-76.9476
 20
125.1665
 30
0.0
 10
-77.4698
 20
125.8978
 30
0.0
 10
-77.3688
 20
126.7376
 30
0.0
 10
-75.4345
 20
127.0508
 30
0.0
 10
-75.4345
 20
127.0508
 30
0.0
 10
-75.4345
 20
127.0508
 30
0.0
 10
-121.0259
 20
127.0305
 30
0.0
 10
-121.0259
 20
127.0305
 30
0.0
  0
SPLINE
  5
5E
330
1F
100
AcDbEntity
  8
layer 1
 62
     7
370
     9
100
AcDbSpline
210
0.0
220
0.0
230
1.0
 70
    11
 71
     3
 72
    48
 73
    44
 74
     0
 42
0.0000000001
 43
0.0000000001
 12
1.0
 22
0.0
 32
0.0
 13
1.0
 23
0.0
 33
0.0
 40
0.0
 40
0.0
 40
0.0
 40
0.0
 40
0.0833333333333333
 40
0.0833333333333333
 40
0.0833333333333333
 40
0.0833333333333333
 40
0.1666666666666667
 40
0.1666666666666667
 40
0.1666666666666667
 40
0.1666666666666667
 40
0.25
 40
0.25
 40
0.25
 40
0.25
 40
0.3333333333333333
 40
0.3333333333333333
 40
0.3333333333333333
 40
0.3333333333333333
 40
0.4166666666666667
 40
0.4166666666666667
 40
0.4166666666666667
 40
0.4166666666666667
 40
0.5
 40
0.5
 40
0.5
 40
0.5
 40
0.5833333333333334
 40
0.5833333333333334
 40
0.5833333333333334
 40
0.5833333333333334
 40
0.6666666666666666
 40
0.6666666666666666
 40
0.6666666666666666
 40
0.6666666666666666
 40
0.75
 40
0.75
 40
0.75
 40
0.75
 40
0.8333333333333334
 40
0.8333333333333334
 40
0.8333333333333334
 40
0.8333333333333334
 40
1.0
 40
1.0
 40
1.0
 40
1.0
 10
-146.5186
 20
106.4565
 30
0.0
 10
-146.5186
 20
106.4565
 30
0.0
 10
-146.5336
 20
85.092
 30
0.0
 10
-146.5336
 20
85.092
 30
0.0
 10
-146.5336
 20
85.092
 30
0.0
 10
-145.367
 20
89.1086
 30
0.0
 10
-141.3149
 20
91.9753
 30
0.0
 10
-136.8628
 20
90.5323
 30
0.0
 10
-136.8628
 20
90.5323
 30
0.0
 10
-138.2555
 20
91.3016
 30
0.0
 10
-138.0978
 20
92.9013
 30
0.0
 10
-137.7364
 20
93.3175
 30
0.0
 10
-137.7364
 20
93.3175
 30
0.0
 10
-136.6302
 20
91.4796
 30
0.0
 10
-134.7153
 20
92.1975
 30
0.0
 10
-132.704
 20
91.3124
 30
0.0
 10
-132.704
 20
91.3124
 30
0.0
 10
-130.8133
 20
90.3778
 30
0.0
 10
-129.1447
 20
89.3318
 30
0.0
 10
-127.0827
 20
86.8059
 30
0.0
 10
-127.0827
 20
86.8059
 30
0.0
 10
-130.5011
 20
96.0747
 30
0.0
 10
-140.9457
 20
97.0469
 30
0.0
 10
-141.7182
 20
94.0267
 30
0.0
 10
-141.7182
 20
94.0267
 30
0.0
 10
-142.4032
 20
94.6663
 30
0.0
 10
-141.5877
 20
97.225
 30
0.0
 10
-140.1515
 20
97.4301
 30
0.0
 10
-140.1515
 20
97.4301
 30
0.0
 10
-141.29
 20
100.7321
 30
0.0
 10
-138.14
 20
99.9324
 30
0.0
 10
-137.0775
 20
99.3155
 30
0.0
 10
-137.0775
 20
99.3155
 30
0.0
 10
-140.8076
 20
102.7959
 30
0.0
 10
-142.2914
 20
107.1651
 30
0.0
 10
-141.243
 20
112.5146
 30
0.0
 10
-141.243
 20
112.5146
 30
0.0
 10
-142.6983
 20
109.9248
 30
0.0
 10
-142.5199
 20
106.3671
 30
0.0
 10
-142.6498
 20
106.37
 30
0.0
 10
-142.6498
 20
106.37
 30
0.0
 10
-142.6498
 20
106.37
 30
0.0
 10
-146.5186
 20
106.4565
 30
0.0
 10
-146.5186
 20
106.4565
 30
0.0
  0
SPLINE
  5
5F
330
1F
100
AcDbEntity
  8
layer 1
 62
     7
370
     9
100
AcDbSpline
210
0.0
220
0.0
230
1.0
 70
    11
 71
     3
 72
    80
 73
    76
 74
     0
 42
0.0000000001
 43
0.0000000001
 12
1.0
 22
0.0
 32
0.0
 13
1.0
 23
0.0
 33
0.0
 40
0.0
 40
0.0
 40
0.0
 40
0.0
 40
0.05
 40
0.05
 40
0.05
 40
0.05
 40
0.1
 40
0.1
 40
0.1
 40
0.1
 40
0.15
 40
0.15
 40
0.15
 40
0.15
 40
0.2
 40
0.2
 40
0.2
 40
0.2
 40
0.25
 40
0.25
 40
0.25
 40
0.25
 40
0.3
 40
0.3
 40
0.3
 40
0.3
 40
0.35
 40
0.35
 40
0.35
 40
0.35
 40
0.4
 40
0.4
 40
0.4
 40
0.4
 40
0.45
 40
0.45
 40
0.45
 40
0.45
 40
0.5
 40
0.5
 40
0.5
 40
0.5
 40
0.55
 40
0.55
 40
0.55
 40
0.55
 40
0.6
 40
0.6
 40
0.6
 40
0.6
 40
0.65
 40
0.65
 40
0.65
 40
0.65
 40
0.7
 40
0.7
 40
0.7
 40
0.7
 40
0.75
 40
0.75
 40
0.75
 40
0.75
 40
0.8
 40
0.8
 40
0.8
 40
0.8
 40
0.85
 40
0.85
 40
0.85
 40
0.85
 40
0.9
 40
0.9
 40
0.9
 40
0.9
 40
1.0
 40
1.0
 40
1.0
 40
1.0
 10
-120.7584
 20
108.8589
 30
0.0
 10
-121.7255
 20
107.2996
 30
0.0
 10
-124.2766
 20
107.6273
 30
0.0
 10
-124.6572
 20
108.3767
 30
0.0
 10
-124.6572
 20
108.3767
 30
0.0
 10
-125.8466
 20
107.4756
 30
0.0
 10
-128.1185
 20
106.9425
 30
0.0
 10
-127.7606
 20
111.0588
 30
0.0
 10
-127.7606
 20
111.0588
 30
0.0
 10
-124.7604
 20
108.9334
 30
0.0
 10
-123.5991
 20
113.1262
 30
0.0
 10
-126.6789
 20
114.6615
 30
0.0
 10
-126.6789
 20
114.6615
 30
0.0
 10
-127.805
 20
115.2229
 30
0.0
 10
-131.5821
 20
116.0805
 30
0.0
 10
-133.3574
 20
112.5141
 30
0.0
 10
-133.3574
 20
112.5141
 30
0.0
 10
-130.3919
 20
114.5318
 30
0.0
 10
-128.9204
 20
113.1919
 30
0.0
 10
-128.7384
 20
111.0794
 30
0.0
 10
-128.7384
 20
111.0794
 30
0.0
 10
-130.4146
 20
110.7881
 30
0.0
 10
-132.7382
 20
109.9828
 30
0.0
 10
-133.2006
 20
107.0089
 30
0.0
 10
-133.2006
 20
107.0089
 30
0.0
 10
-133.6069
 20
104.3963
 30
0.0
 10
-133.4193
 20
102.2671
 30
0.0
 10
-129.9737
 20
97.6771
 30
0.0
 10
-129.9737
 20
97.6771
 30
0.0
 10
-130.3803
 20
98.8509
 30
0.0
 10
-130.3626
 20
99.2613
 30
0.0
 10
-130.4065
 20
99.8985
 30
0.0
 10
-130.4065
 20
99.8985
 30
0.0
 10
-130.4791
 20
100.9492
 30
0.0
 10
-130.2287
 20
102.2847
 30
0.0
 10
-129.979
 20
103.3817
 30
0.0
 10
-129.979
 20
103.3817
 30
0.0
 10
-129.713
 20
103.5889
 30
0.0
 10
-128.4969
 20
103.4157
 30
0.0
 10
-127.6575
 20
101.9348
 30
0.0
 10
-127.6575
 20
101.9348
 30
0.0
 10
-127.3015
 20
103.2692
 30
0.0
 10
-125.8505
 20
104.8414
 30
0.0
 10
-123.7774
 20
103.5395
 30
0.0
 10
-123.7774
 20
103.5395
 30
0.0
 10
-123.7353
 20
103.0643
 30
0.0
 10
-124.1668
 20
102.8857
 30
0.0
 10
-124.1245
 20
102.3767
 30
0.0
 10
-124.1245
 20
102.3767
 30
0.0
 10
-123.9415
 20
100.1741
 30
0.0
 10
-124.0872
 20
99.3251
 30
0.0
 10
-125.7182
 20
98.5469
 30
0.0
 10
-125.7182
 20
98.5469
 30
0.0
 10
-125.9727
 20
96.017
 30
0.0
 10
-125.2012
 20
92.1146
 30
0.0
 10
-123.5997
 20
86.9197
 30
0.0
 10
-123.5997
 20
86.9197
 30
0.0
 10
-123.4065
 20
87.2637
 30
0.0
 10
-123.4272
 20
87.9744
 30
0.0
 10
-123.2277
 20
88.3776
 30
0.0
 10
-123.2277
 20
88.3776
 30
0.0
 10
-122.9871
 20
88.8639
 30
0.0
 10
-122.3828
 20
89.0252
 30
0.0
 10
-122.1356
 20
89.5279
 30
0.0
 10
-122.1356
 20
89.5279
 30
0.0
 10
-122.0272
 20
89.7482
 30
0.0
 10
-122.3175
 20
90.3402
 30
0.0
 10
-122.1678
 20
90.5298
 30
0.0
 10
-122.1678
 20
90.5298
 30
0.0
 10
-122.0088
 20
90.731
 30
0.0
 10
-121.7109
 20
90.4724
 30
0.0
 10
-121.3888
 20
90.5419
 30
0.0
 10
-121.3888
 20
90.5419
 30
0.0
 10
-124.1809
 20
100.1144
 30
0.0
 10
-122.1136
 20
105.1793
 30
0.0
 10
-120.7584
 20
108.8589
 30
0.0
  0
SPLINE
  5
60
330
1F
100
AcDbEntity
  8
layer 1
 62
     7
370
     9
100
AcDbSpline
210
0.0
220
0.0
230
1.0
 70
    11
 71
     3
 72
    24
 73
    20
 74
     0
 42
0.0000000001
 43
0.0000000001
 12
1.0
 22
0.0
 32
0.0
 13
1.0
 23
0.0
 33
0.0
 40
0.0
 40
0.0
 40
0.0
 40
0.0
 40
0.1666666666666667
 40
0.1666666666666667
 40
0.1666666666666667
 40
0.1666666666666667
 40
0.3333333333333333
 40
0.3333333333333333
 40
0.3333333333333333
 40
0.3333333333333333
 40
0.5
 40
0.5
 40
0.5
 40
0.5
 40
0.6666666666666666
 40
0.6666666666666666
 40
0.6666666666666666
 40
0.6666666666666666
 40
1.0
 40
1.0
 40
1.0
 40
1.0
 10
-121.6321
 20
81.7684
 30
0.0
 10
-120.5291
 20
79.4055
 30
0.0
 10
-117.1293
 20
74.1017
 30
0.0
 10
-115.1176
 20
71.3459
 30
0.0
 10
-115.1176
 20
71.3459
 30
0.0
 10
-114.0533
 20
71.9703
 30
0.0
 10
-113.3915
 20
72.1415
 30
0.0
 10
-112.4417
 20
72.4944
 30
0.0
 10
-112.4417
 20
72.4944
 30
0.0
 10
-115.5326
 20
75.7415
 30
0.0
 10
-119.1316
 20
82.8147
 30
0.0
 10
-120.0363
 20
87.0015
 30
0.0
 10
-120.0363
 20
87.0015
 30
0.0
 10
-120.0755
 20
86.2749
 30
0.0
 10
-120.1753
 20
85.6484
 30
0.0
 10
-120.3284
 20
84.977
 30
0.0
 10
-120.3284
 20
84.977
 30
0.0
 10
-120.6008
 20
83.7821
 30
0.0
 10
-121.7625
 20
83.308
 30
0.0
 10
-121.6321
 20
81.7684
 30
0.0
  0
SPLINE
  5
61
330
1F
100
AcDbEntity
  8
layer 1
 62
     7
370
     9
100
AcDbSpline
210
0.0
220
0.0
230
1.0
 70
    11
 71
     3
 72
    20
 73
    16
 74
     0
 42
0.0000000001
 43
0.0000000001
 12
1.0
 22
0.0
 32
0.0
 13
1.0
 23
0.0
 33
0.0
 40
0.0
 40
0.0
 40
0.0
 40
0.0
 40
0.2
 40
0.2
 40
0.2
 40
0.2
 40
0.4
 40
0.4
 40
0.4
 40
0.4
 40
0.6
 40
0.6
 40
0.6
 40
0.6
 40
1.0
 40
1.0
 40
1.0
 40
1.0
 10
-116.8039
 20
66.5037
 30
0.0
 10
-114.0556
 20
67.2084
 30
0.0
 10
-111.1962
 20
65.305
 30
0.0
 10
-111.7902
 20
62.6673
 30
0.0
 10
-111.7902
 20
62.6673
 30
0.0
 10
-110.6909
 20
63.8752
 30
0.0
 10
-109.6773
 20
64.3597
 30
0.0
 10
-108.3047
 20
64.915
 30
0.0
 10
-108.3047
 20
64.915
 30
0.0
 10
-109.4489
 20
66.677
 30
0.0
 10
-109.6183
 20
67.0219
 30
0.0
 10
-110.6823
 20
69.4442
 30
0.0
 10
-110.6823
 20
69.4442
 30
0.0
 10
-112.7619
 20
69.3167
 30
0.0
 10
-115.5604
 20
67.7266
 30
0.0
 10
-116.8039
 20
66.5037
 30
0.0
  0
SPLINE
  5
62
330
1F
100
AcDbEntity
  8
layer 1
 62
     7
370
     9
100
AcDbSpline
210
0.0
220
0.0
230
1.0
 70
    11
 71
     3
 72
    20
 73
    16
 74
     0
 42
0.0000000001
 43
0.0000000001
 12
1.0
 22
0.0
 32
0.0
 13
1.0
 23
0.0
 33
0.0
 40
0.0
 40
0.0
 40
0.0
 40
0.0
 40
0.2
 40
0.2
 40
0.2
 40
0.2
 40
0.4
 40
0.4
 40
0.4
 40
0.4
 40
0.6
 40
0.6
 40
0.6
 40
0.6
 40
1.0
 40
1.0
 40
1.0
 40
1.0
 10
-119.8153
 20
58.3268
 30
0.0
 10
-117.2159
 20
58.3672
 30
0.0
 10
-116.8327
 20
58.0905
 30
0.0
 10
-114.9985
 20
57.7935
 30
0.0
 10
-114.9985
 20
57.7935
 30
0.0
 10
-114.9444
 20
58.5329
 30
0.0
 10
-114.3032
 20
59.4083
 30
0.0
 10
-113.8493
 20
60.2261
 30
0.0
 10
-113.8493
 20
60.2261
 30
0.0
 10
-117.1811
 20
59.3631
 30
0.0
 10
-118.7315
 20
61.9931
 30
0.0
 10
-118.3079
 20
64.4374
 30
0.0
 10
-118.3079
 20
64.4374
 30
0.0
 10
-119.6219
 20
62.0129
 30
0.0
 10
-119.6854
 20
60.7394
 30
0.0
 10
-119.8153
 20
58.3268
 30
0.0
  0
SPLINE
  5
63
330
1F
100
AcDbEntity
  8
layer 1
 62
     7
370
     9
100
AcDbSpline
210
0.0
220
0.0
230
1.0
 70
    11
 71
     3
 72
    28
 73
    24
 74
     0
 42
0.0000000001
 43
0.0000000001
 12
1.0
 22
0.0
 32
0.0
 13
1.0
 23
0.0
 33
0.0
 40
0.0
 40
0.0
 40
0.0
 40
0.0
 40
0.1428571428571428
 40
0.1428571428571428
 40
0.1428571428571428
 40
0.1428571428571428
 40
0.2857142857142857
 40
0.2857142857142857
 40
0.2857142857142857
 40
0.2857142857142857
 40
0.4285714285714285
 40
0.4285714285714285
 40
0.4285714285714285
 40
0.4285714285714285
 40
0.5714285714285714
 40
0.5714285714285714
 40
0.5714285714285714
 40
0.5714285714285714
 40
0.7142857142857143
 40
0.7142857142857143
 40
0.7142857142857143
 40
0.7142857142857143
 40
1.0
 40
1.0
 40
1.0
 40
1.0
 10
-113.2876
 20
57.0354
 30
0.0
 10
-109.8662
 20
55.9065
 30
0.0
 10
-104.3144
 20
50.5912
 30
0.0
 10
-105.3958
 20
44.7737
 30
0.0
 10
-105.3958
 20
44.7737
 30
0.0
 10
-105.3958
 20
44.7737
 30
0.0
 10
-103.0012
 20
44.7237
 30
0.0
 10
-103.0012
 20
44.7237
 30
0.0
 10
-103.0012
 20
44.7237
 30
0.0
 10
-103.1242
 20
49.944
 30
0.0
 10
-106.2645
 20
61.1511
 30
0.0
 10
-107.6766
 20
63.295
 30
0.0
 10
-107.6766
 20
63.295
 30
0.0
 10
-108.4302
 20
62.993
 30
0.0
 10
-109.4316
 20
62.5392
 30
0.0
 10
-110.2635
 20
61.706
 30
0.0
 10
-110.2635
 20
61.706
 30
0.0
 10
-107.7277
 20
60.6896
 30
0.0
 10
-109.8357
 20
56.9201
 30
0.0
 10
-112.2238
 20
59.099
 30
0.0
 10
-112.2238
 20
59.099
 30
0.0
 10
-112.655
 20
58.3748
 30
0.0
 10
-113.017
 20
57.6545
 30
0.0
 10
-113.2876
 20
57.0354
 30
0.0
  0
SPLINE
  5
64
330
1F
100
AcDbEntity
  8
layer 1
 62
     7
370
     9
100
AcDbSpline
210
0.0
220
0.0
230
1.0
 70
    11
 71
     3
 72
    16
 73
    12
 74
     0
 42
0.0000000001
 43
0.0000000001
 12
1.0
 22
0.0
 32
0.0
 13
1.0
 23
0.0
 33
0.0
 40
0.0
 40
0.0
 40
0.0
 40
0.0
 40
0.25
 40
0.25
 40
0.25
 40
0.25
 40
0.5
 40
0.5
 40
0.5
 40
0.5
 40
1.0
 40
1.0
 40
1.0
 40
1.0
 10
-134.7826
 20
35.6845
 30
0.0
 10
-134.7777
 20
38.8744
 30
0.0
 10
-134.5259
 20
42.9582
 30
0.0
 10
-133.8966
 20
45.1797
 30
0.0
 10
-133.8966
 20
45.1797
 30
0.0
 10
-135.8246
 20
43.0884
 30
0.0
 10
-140.358
 20
44.3147
 30
0.0
 10
-141.1627
 20
46.4957
 30
0.0
 10
-141.1627
 20
46.4957
 30
0.0
 10
-140.4726
 20
41.181
 30
0.0
 10
-136.3797
 20
40.5191
 30
0.0
 10
-134.7826
 20
35.6845
 30
0.0
  0
SPLINE
  5
65
330
1F
100
AcDbEntity
  8
layer 1
 62
     7
370
     9
100
AcDbSpline
210
0.0
220
0.0
230
1.0
 70
    11
 71
     3
 72
    28
 73
    24
 74
     0
 42
0.0000000001
 43
0.0000000001
 12
1.0
 22
0.0
 32
0.0
 13
1.0
 23
0.0
 33
0.0
 40
0.0
 40
0.0
 40
0.0
 40
0.0
 40
0.1428571428571428
 40
0.1428571428571428
 40
0.1428571428571428
 40
0.1428571428571428
 40
0.2857142857142857
 40
0.2857142857142857
 40
0.2857142857142857
 40
0.2857142857142857
 40
0.4285714285714285
 40
0.4285714285714285
 40
0.4285714285714285
 40
0.4285714285714285
 40
0.5714285714285714
 40
0.5714285714285714
 40
0.5714285714285714
 40
0.5714285714285714
 40
0.7142857142857143
 40
0.7142857142857143
 40
0.7142857142857143
 40
0.7142857142857143
 40
1.0
 40
1.0
 40
1.0
 40
1.0
 10
-146.4991
 20
28.8522
 30
0.0
 10
-144.9323
 20
33.9567
 30
0.0
 10
-137.7561
 20
30.3993
 30
0.0
 10
-141.9746
 20
27.3514
 30
0.0
 10
-141.9746
 20
27.3514
 30
0.0
 10
-138.1162
 20
26.3504
 30
0.0
 10
-135.6033
 20
33.3085
 30
0.0
 10
-139.362
 20
35.4826
 30
0.0
 10
-139.362
 20
35.4826
 30
0.0
 10
-139.7066
 20
33.0148
 30
0.0
 10
-142.1191
 20
32.8397
 30
0.0
 10
-143.133
 20
33.8572
 30
0.0
 10
-143.133
 20
33.8572
 30
0.0
 10
-139.6243
 20
36.5247
 30
0.0
 10
-141.7968
 20
38.4639
 30
0.0
 10
-144.1629
 20
41.9002
 30
0.0
 10
-144.1629
 20
41.9002
 30
0.0
 10
-145.3293
 20
43.5941
 30
0.0
 10
-145.9529
 20
45.7481
 30
0.0
 10
-146.538
 20
48.5331
 30
0.0
 10
-146.538
 20
48.5331
 30
0.0
 10
-146.538
 20
48.5331
 30
0.0
 10
-146.4991
 20
28.8522
 30
0.0
 10
-146.4991
 20
28.8522
 30
0.0
  0
SPLINE
  5
66
330
1F
100
AcDbEntity
  8
layer 1
 62
     7
370
     9
100
AcDbSpline
210
0.0
220
0.0
230
1.0
 70
    11
 71
     3
 72
    36
 73
    32
 74
     0
 42
0.0000000001
 43
0.0000000001
 12
1.0
 22
0.0
 32
0.0
 13
1.0
 23
0.0
 33
0.0
 40
0.0
 40
0.0
 40
0.0
 40
0.0
 40
0.1111111111111111
 40
0.1111111111111111
 40
0.1111111111111111
 40
0.1111111111111111
 40
0.2222222222222222
 40
0.2222222222222222
 40
0.2222222222222222
 40
0.2222222222222222
 40
0.3333333333333333
 40
0.3333333333333333
 40
0.3333333333333333
 40
0.3333333333333333
 40
0.4444444444444444
 40
0.4444444444444444
 40
0.4444444444444444
 40
0.4444444444444444
 40
0.5555555555555556
 40
0.5555555555555556
 40
0.5555555555555556
 40
0.5555555555555556
 40
0.6666666666666666
 40
0.6666666666666666
 40
0.6666666666666666
 40
0.6666666666666666
 40
0.7777777777777778
 40
0.7777777777777778
 40
0.7777777777777778
 40
0.7777777777777778
 40
1.0
 40
1.0
 40
1.0
 40
1.0
 10
-120.3418
 20
31.8311
 30
0.0
 10
-117.7423
 20
34.2842
 30
0.0
 10
-111.437
 20
38.1749
 30
0.0
 10
-109.2519
 20
38.4482
 30
0.0
 10
-109.2519
 20
38.4482
 30
0.0
 10
-107.9695
 20
47.3907
 30
0.0
 10
-114.2154
 20
51.2929
 30
0.0
 10
-118.4992
 20
51.8914
 30
0.0
 10
-118.4992
 20
51.8914
 30
0.0
 10
-124.0244
 20
53.0901
 30
0.0
 10
-126.7153
 20
42.1652
 30
0.0
 10
-120.8083
 20
45.1797
 30
0.0
 10
-120.8083
 20
45.1797
 30
0.0
 10
-120.7577
 20
43.7853
 30
0.0
 10
-121.803
 20
41.7806
 30
0.0
 10
-124.391
 20
43.116
 30
0.0
 10
-124.391
 20
43.116
 30
0.0
 10
-124.8734
 20
42.5395
 30
0.0
 10
-127.2657
 20
40.6286
 30
0.0
 10
-127.3139
 20
46.0875
 30
0.0
 10
-127.3139
 20
46.0875
 30
0.0
 10
-130.9775
 20
43.1554
 30
0.0
 10
-131.5119
 20
30.7474
 30
0.0
 10
-123.734
 20
32.8585
 30
0.0
 10
-123.734
 20
32.8585
 30
0.0
 10
-128.1115
 20
34.0672
 30
0.0
 10
-125.2875
 20
37.4087
 30
0.0
 10
-123.377
 20
36.9412
 30
0.0
 10
-123.377
 20
36.9412
 30
0.0
 10
-122.5327
 20
36.7346
 30
0.0
 10
-118.9593
 20
36.0677
 30
0.0
 10
-120.3418
 20
31.8311
 30
0.0
  0
SPLINE
  5
67
330
1F
100
AcDbEntity
  8
layer 1
 62
     7
370
     9
100
AcDbSpline
210
0.0
220
0.0
230
1.0
 70
    11
 71
     3
 72
    64
 73
    60
 74
     0
 42
0.0000000001
 43
0.0000000001
 12
1.0
 22
0.0
 32
0.0
 13
1.0
 23
0.0
 33
0.0
 40
0.0
 40
0.0
 40
0.0
 40
0.0
 40
0.0625
 40
0.0625
 40
0.0625
 40
0.0625
 40
0.125
 40
0.125
 40
0.125
 40
0.125
 40
0.1875
 40
0.1875
 40
0.1875
 40
0.1875
 40
0.25
 40
0.25
 40
0.25
 40
0.25
 40
0.3125
 40
0.3125
 40
0.3125
 40
0.3125
 40
0.375
 40
0.375
 40
0.375
 40
0.375
 40
0.4375
 40
0.4375
 40
0.4375
 40
0.4375
 40
0.5
 40
0.5
 40
0.5
 40
0.5
 40
0.5625
 40
0.5625
 40
0.5625
 40
0.5625
 40
0.625
 40
0.625
 40
0.625
 40
0.625
 40
0.6875
 40
0.6875
 40
0.6875
 40
0.6875
 40
0.75
 40
0.75
 40
0.75
 40
0.75
 40
0.8125
 40
0.8125
 40
0.8125
 40
0.8125
 40
0.875
 40
0.875
 40
0.875
 40
0.875
 40
1.0
 40
1.0
 40
1.0
 40
1.0
 10
-146.4514
 20
26.7377
 30
0.0
 10
-144.5078
 20
23.0247
 30
0.0
 10
-137.027
 20
21.8532
 30
0.0
 10
-134.6287
 20
28.4144
 30
0.0
 10
-134.6287
 20
28.4144
 30
0.0
 10
-134.6219
 20
26.5938
 30
0.0
 10
-134.4903
 20
24.8531
 30
0.0
 10
-134.3108
 20
23.0196
 30
0.0
 10
-134.3108
 20
23.0196
 30
0.0
 10
-134.2618
 20
20.6329
 30
0.0
 10
-136.7844
 20
18.9518
 30
0.0
 10
-137.917
 20
21.238
 30
0.0
 10
-137.917
 20
21.238
 30
0.0
 10
-138.6216
 20
19.2056
 30
0.0
 10
-136.6663
 20
16.6547
 30
0.0
 10
-133.6143
 20
18.798
 30
0.0
 10
-133.6143
 20
18.798
 30
0.0
 10
-131.7248
 20
15.0543
 30
0.0
 10
-133.0091
 20
11.7953
 30
0.0
 10
-136.1511
 20
11.4536
 30
0.0
 10
-136.1511
 20
11.4536
 30
0.0
 10
-133.3542
 20
14.1177
 30
0.0
 10
-135.8659
 20
17.0248
 30
0.0
 10
-139.031
 20
15.955
 30
0.0
 10
-139.031
 20
15.955
 30
0.0
 10
-141.7861
 20
15.2959
 30
0.0
 10
-142.5869
 20
9.7678
 30
0.0
 10
-139.2837
 20
8.5365
 30
0.0
 10
-139.2837
 20
8.5365
 30
0.0
 10
-142.5869
 20
7.3053
 30
0.0
 10
-141.8514
 20
1.7995
 30
0.0
 10
-139.031
 20
1.3365
 30
0.0
 10
-139.031
 20
1.3365
 30
0.0
 10
-135.8659
 20
0.2667
 30
0.0
 10
-133.3542
 20
3.1737
 30
0.0
 10
-136.1511
 20
5.8378
 30
0.0
 10
-136.1511
 20
5.8378
 30
0.0
 10
-133.0091
 20
5.4961
 30
0.0
 10
-131.7248
 20
2.2372
 30
0.0
 10
-133.6143
 20
-1.5066
 30
0.0
 10
-133.6143
 20
-1.5066
 30
0.0
 10
-136.6663
 20
0.6367
 30
0.0
 10
-138.6216
 20
-1.9142
 30
0.0
 10
-137.917
 20
-3.9465
 30
0.0
 10
-137.917
 20
-3.9465
 30
0.0
 10
-136.7844
 20
-1.6603
 30
0.0
 10
-134.2618
 20
-3.3415
 30
0.0
 10
-134.3108
 20
-5.7281
 30
0.0
 10
-134.3108
 20
-5.7281
 30
0.0
 10
-134.4903
 20
-7.5616
 30
0.0
 10
-134.6219
 20
-9.3024
 30
0.0
 10
-134.6287
 20
-11.123
 30
0.0
 10
-134.6287
 20
-11.123
 30
0.0
 10
-137.027
 20
-4.5618
 30
0.0
 10
-144.5078
 20
-5.7332
 30
0.0
 10
-146.4514
 20
-9.4462
 30
0.0
 10
-146.4514
 20
-9.4462
 30
0.0
 10
-146.4514
 20
-9.4462
 30
0.0
 10
-146.4514
 20
26.7377
 30
0.0
 10
-146.4514
 20
26.7377
 30
0.0
  0
SPLINE
  5
68
330
1F
100
AcDbEntity
  8
layer 1
 62
     7
370
     9
100
AcDbSpline
210
0.0
220
0.0
230
1.0
 70
    11
 71
     3
 72
    16
 73
    12
 74
     0
 42
0.0000000001
 43
0.0000000001
 12
1.0
 22
0.0
 32
0.0
 13
1.0
 23
0.0
 33
0.0
 40
0.0
 40
0.0
 40
0.0
 40
0.0
 40
0.25
 40
0.25
 40
0.25
 40
0.25
 40
0.5
 40
0.5
 40
0.5
 40
0.5
 40
1.0
 40
1.0
 40
1.0
 40
1.0
 10
-146.4916
 20
69.004
 30
0.0
 10
-146.4916
 20
69.004
 30
0.0
 10
-146.5357
 20
53.4326
 30
0.0
 10
-146.5357
 20
53.4326
 30
0.0
 10
-146.5357
 20
53.4326
 30
0.0
 10
-145.6661
 20
58.3753
 30
0.0
 10
-142.2965
 20
62.4854
 30
0.0
 10
-138.7194
 20
64.3712
 30
0.0
 10
-138.7194
 20
64.3712
 30
0.0
 10
-142.2485
 20
63.5719
 30
0.0
 10
-145.5127
 20
64.2798
 30
0.0
 10
-146.4916
 20
69.004
 30
0.0
  0
SPLINE
  5
69
330
1F
100
AcDbEntity
  8
layer 1
 62
     7
370
     9
100
AcDbSpline
210
0.0
220
0.0
230
1.0
 70
    11
 71
     3
 72
    32
 73
    28
 74
     0
 42
0.0000000001
 43
0.0000000001
 12
1.0
 22
0.0
 32
0.0
 13
1.0
 23
0.0
 33
0.0
 40
0.0
 40
0.0
 40
0.0
 40
0.0
 40
0.125
 40
0.125
 40
0.125
 40
0.125
 40
0.25
 40
0.25
 40
0.25
 40
0.25
 40
0.375
 40
0.375
 40
0.375
 40
0.375
 40
0.5
 40
0.5
 40
0.5
 40
0.5
 40
0.625
 40
0.625
 40
0.625
 40
0.625
 40
0.75
 40
0.75
 40
0.75
 40
0.75
 40
1.0
 40
1.0
 40
1.0
 40
1.0
 10
-136.8895
 20
65.3971
 30
0.0
 10
-133.448
 20
68.5004
 30
0.0
 10
-137.3945
 20
72.8861
 30
0.0
 10
-140.7787
 20
69.2504
 30
0.0
 10
-140.7787
 20
69.2504
 30
0.0
 10
-141.1251
 20
73.3561
 30
0.0
 10
-134.9276
 20
75.2331
 30
0.0
 10
-132.0106
 20
72.1279
 30
0.0
 10
-132.0106
 20
72.1279
 30
0.0
 10
-133.6953
 20
71.3455
 30
0.0
 10
-133.5375
 20
70.2334
 30
0.0
 10
-132.8764
 20
68.9558
 30
0.0
 10
-132.8764
 20
68.9558
 30
0.0
 10
-131.5556
 20
70.2564
 30
0.0
 10
-129.3663
 20
69.9639
 30
0.0
 10
-127.5673
 20
69.815
 30
0.0
 10
-127.5673
 20
69.815
 30
0.0
 10
-124.9379
 20
69.5973
 30
0.0
 10
-122.3926
 20
68.4682
 30
0.0
 10
-120.5742
 20
66.5088
 30
0.0
 10
-120.5742
 20
66.5088
 30
0.0
 10
-120.9158
 20
65.8567
 30
0.0
 10
-121.2569
 20
65.0642
 30
0.0
 10
-121.545
 20
64.4628
 30
0.0
 10
-121.545
 20
64.4628
 30
0.0
 10
-125.3072
 20
66.4558
 30
0.0
 10
-130.6414
 20
67.7177
 30
0.0
 10
-136.8895
 20
65.3971
 30
0.0
  0
SPLINE
  5
6A
330
1F
100
AcDbEntity
  8
layer 1
 62
     7
370
     9
100
AcDbSpline
210
0.0
220
0.0
230
1.0
 70
    11
 71
     3
 72
    40
 73
    36
 74
     0
 42
0.0000000001
 43
0.0000000001
 12
1.0
 22
0.0
 32
0.0
 13
1.0
 23
0.0
 33
0.0
 40
0.0
 40
0.0
 40
0.0
 40
0.0
 40
0.1
 40
0.1
 40
0.1
 40
0.1
 40
0.2
 40
0.2
 40
0.2
 40
0.2
 40
0.3
 40
0.3
 40
0.3
 40
0.3
 40
0.4
 40
0.4
 40
0.4
 40
0.4
 40
0.5
 40
0.5
 40
0.5
 40
0.5
 40
0.6
 40
0.6
 40
0.6
 40
0.6
 40
0.7
 40
0.7
 40
0.7
 40
0.7
 40
0.8
 40
0.8
 40
0.8
 40
0.8
 40
1.0
 40
1.0
 40
1.0
 40
1.0
 10
-133.2619
 20
48.0337
 30
0.0
 10
-135.5135
 20
53.1647
 30
0.0
 10
-140.0045
 20
47.5935
 30
0.0
 10
-135.825
 20
47.0688
 30
0.0
 10
-135.825
 20
47.0688
 30
0.0
 10
-141.2552
 20
45.6092
 30
0.0
 10
-142.3636
 20
57.2937
 30
0.0
 10
-136.6411
 20
59.6563
 30
0.0
 10
-136.6411
 20
59.6563
 30
0.0
 10
-136.5567
 20
59.6513
 30
0.0
 10
-136.298
 20
59.6235
 30
0.0
 10
-136.4128
 20
59.3211
 30
0.0
 10
-136.4128
 20
59.3211
 30
0.0
 10
-138.7149
 20
57.4395
 30
0.0
 10
-137.8728
 20
54.788
 30
0.0
 10
-135.5872
 20
55.9332
 30
0.0
 10
-135.5872
 20
55.9332
 30
0.0
 10
-134.8157
 20
52.7108
 30
0.0
 10
-131.8245
 20
53.8053
 30
0.0
 10
-131.3601
 20
54.1431
 30
0.0
 10
-131.3601
 20
54.1431
 30
0.0
 10
-135.4631
 20
56.6847
 30
0.0
 10
-132.2184
 20
61.1405
 30
0.0
 10
-130.058
 20
61.6981
 30
0.0
 10
-130.058
 20
61.6981
 30
0.0
 10
-127.5034
 20
62.3576
 30
0.0
 10
-124.9288
 20
62.0004
 30
0.0
 10
-122.5602
 20
61.5657
 30
0.0
 10
-122.5602
 20
61.5657
 30
0.0
 10
-122.7403
 20
60.3805
 30
0.0
 10
-122.7046
 20
59.2959
 30
0.0
 10
-122.8043
 20
57.7977
 30
0.0
 10
-122.8043
 20
57.7977
 30
0.0
 10
-127.6192
 20
56.385
 30
0.0
 10
-130.8573
 20
54.2499
 30
0.0
 10
-133.2619
 20
48.0337
 30
0.0
  0
SPLINE
  5
6B
330
1F
100
AcDbEntity
  8
layer 1
 62
     7
370
     9
100
AcDbSpline
210
0.0
220
0.0
230
1.0
 70
    11
 71
     3
 72
    60
 73
    56
 74
     0
 42
0.0000000001
 43
0.0000000001
 12
1.0
 22
0.0
 32
0.0
 13
1.0
 23
0.0
 33
0.0
 40
0.0
 40
0.0
 40
0.0
 40
0.0
 40
0.0666666666666667
 40
0.0666666666666667
 40
0.0666666666666667
 40
0.0666666666666667
 40
0.1333333333333333
 40
0.1333333333333333
 40
0.1333333333333333
 40
0.1333333333333333
 40
0.2
 40
0.2
 40
0.2
 40
0.2
 40
0.2666666666666667
 40
0.2666666666666667
 40
0.2666666666666667
 40
0.2666666666666667
 40
0.3333333333333333
 40
0.3333333333333333
 40
0.3333333333333333
 40
0.3333333333333333
 40
0.4
 40
0.4
 40
0.4
 40
0.4
 40
0.4666666666666667
 40
0.4666666666666667
 40
0.4666666666666667
 40
0.4666666666666667
 40
0.5333333333333333
 40
0.5333333333333333
 40
0.5333333333333333
 40
0.5333333333333333
 40
0.6
 40
0.6
 40
0.6
 40
0.6
 40
0.6666666666666666
 40
0.6666666666666666
 40
0.6666666666666666
 40
0.6666666666666666
 40
0.7333333333333333
 40
0.7333333333333333
 40
0.7333333333333333
 40
0.7333333333333333
 40
0.8
 40
0.8
 40
0.8
 40
0.8
 40
0.8666666666666667
 40
0.8666666666666667
 40
0.8666666666666667
 40
0.8666666666666667
 40
1.0
 40
1.0
 40
1.0
 40
1.0
 10
-146.4478
 20
82.5151
 30
0.0
 10
-146.4478
 20
82.5151
 30
0.0
 10
-146.4804
 20
70.9796
 30
0.0
 10
-146.4804
 20
70.9796
 30
0.0
 10
-146.4804
 20
70.9796
 30
0.0
 10
-145.538
 20
75.7042
 30
0.0
 10
-138.9718
 20
78.6611
 30
0.0
 10
-133.7444
 20
76.8025
 30
0.0
 10
-133.7444
 20
76.8025
 30
0.0
 10
-134.7109
 20
77.7976
 30
0.0
 10
-134.9091
 20
79.0296
 30
0.0
 10
-134.6118
 20
79.5409
 30
0.0
 10
-134.6118
 20
79.5409
 30
0.0
 10
-134.2581
 20
79.4612
 30
0.0
 10
-133.8557
 20
78.9379
 30
0.0
 10
-133.3046
 20
78.9234
 30
0.0
 10
-133.3046
 20
78.9234
 30
0.0
 10
-127.7089
 20
78.7758
 30
0.0
 10
-120.6979
 20
70.8331
 30
0.0
 10
-119.3064
 20
68.2072
 30
0.0
 10
-119.3064
 20
68.2072
 30
0.0
 10
-118.5005
 20
69.0315
 30
0.0
 10
-118.1355
 20
69.4362
 30
0.0
 10
-117.7949
 20
69.6792
 30
0.0
 10
-117.7949
 20
69.6792
 30
0.0
 10
-120.6387
 20
74.9082
 30
0.0
 10
-129.6555
 20
82.9536
 30
0.0
 10
-135.0963
 20
81.0362
 30
0.0
 10
-135.0963
 20
81.0362
 30
0.0
 10
-135.3562
 20
81.6197
 30
0.0
 10
-135.125
 20
82.6268
 30
0.0
 10
-133.5479
 20
83.1144
 30
0.0
 10
-133.5479
 20
83.1144
 30
0.0
 10
-134.683
 20
84.8469
 30
0.0
 10
-132.9807
 20
86.1331
 30
0.0
 10
-131.2153
 20
83.947
 30
0.0
 10
-131.2153
 20
83.947
 30
0.0
 10
-130.8129
 20
83.4488
 30
0.0
 10
-130.3265
 20
83.0598
 30
0.0
 10
-129.6652
 20
82.7841
 30
0.0
 10
-129.6652
 20
82.7841
 30
0.0
 10
-128.6218
 20
82.4664
 30
0.0
 10
-128.9934
 20
83.2347
 30
0.0
 10
-129.0503
 20
83.4757
 30
0.0
 10
-129.0503
 20
83.4757
 30
0.0
 10
-129.8906
 20
85.7088
 30
0.0
 10
-138.957
 20
88.7242
 30
0.0
 10
-141.0187
 20
83.224
 30
0.0
 10
-141.0187
 20
83.224
 30
0.0
 10
-135.4423
 20
85.3789
 30
0.0
 10
-136.258
 20
79.3081
 30
0.0
 10
-138.9145
 20
78.7186
 30
0.0
 10
-138.9145
 20
78.7186
 30
0.0
 10
-142.3614
 20
77.2973
 30
0.0
 10
-145.8529
 20
79.3939
 30
0.0
 10
-146.4478
 20
82.5151
 30
0.0
  0
SPLINE
  5
6C
330
1F
100
AcDbEntity
  8
layer 1
 62
     7
370
     9
100
AcDbSpline
210
0.0
220
0.0
230
1.0
 70
    11
 71
     3
 72
    16
 73
    12
 74
     0
 42
0.0000000001
 43
0.0000000001
 12
1.0
 22
0.0
 32
0.0
 13
1.0
 23
0.0
 33
0.0
 40
0.0
 40
0.0
 40
0.0
 40
0.0
 40
0.25
 40
0.25
 40
0.25
 40
0.25
 40
0.5
 40
0.5
 40
0.5
 40
0.5
 40
1.0
 40
1.0
 40
1.0
 40
1.0
 10
-111.5039
 20
102.5438
 30
0.0
 10
-112.8045
 20
98.5748
 30
0.0
 10
-100.8218
 20
95.4404
 30
0.0
 10
-101.0178
 20
107.5363
 30
0.0
 10
-101.0178
 20
107.5363
 30
0.0
 10
-101.9386
 20
107.535
 30
0.0
 10
-101.9456
 20
107.4874
 30
0.0
 10
-102.9733
 20
107.5456
 30
0.0
 10
-102.9733
 20
107.5456
 30
0.0
 10
-102.9668
 20
101.6315
 30
0.0
 10
-109.2422
 20
101.457
 30
0.0
 10
-111.5039
 20
102.5438
 30
0.0
  0
SPLINE
  5
6D
330
1F
100
AcDbEntity
  8
layer 1
 62
     7
370
     9
100
AcDbSpline
210
0.0
220
0.0
230
1.0
 70
    11
 71
     3
 72
    24
 73
    20
 74
     0
 42
0.0000000001
 43
0.0000000001
 12
1.0
 22
0.0
 32
0.0
 13
1.0
 23
0.0
 33
0.0
 40
0.0
 40
0.0
 40
0.0
 40
0.0
 40
0.1666666666666667
 40
0.1666666666666667
 40
0.1666666666666667
 40
0.1666666666666667
 40
0.3333333333333333
 40
0.3333333333333333
 40
0.3333333333333333
 40
0.3333333333333333
 40
0.5
 40
0.5
 40
0.5
 40
0.5
 40
0.6666666666666666
 40
0.6666666666666666
 40
0.6666666666666666
 40
0.6666666666666666
 40
1.0
 40
1.0
 40
1.0
 40
1.0
 10
-113.4522
 20
115.7956
 30
0.0
 10
-110.2665
 20
116.3909
 30
0.0
 10
-105.132
 20
115.975
 30
0.0
 10
-103.6478
 20
111.4123
 30
0.0
 10
-103.6478
 20
111.4123
 30
0.0
 10
-102.3992
 20
111.6395
 30
0.0
 10
-102.1244
 20
111.6242
 30
0.0
 10
-101.4529
 20
111.6913
 30
0.0
 10
-101.4529
 20
111.6913
 30
0.0
 10
-101.7878
 20
114.7877
 30
0.0
 10
-106.2448
 20
120.4264
 30
0.0
 10
-113.3683
 20
118.9768
 30
0.0
 10
-113.3683
 20
118.9768
 30
0.0
 10
-117.4289
 20
118.2456
 30
0.0
 10
-114.9922
 20
114.3672
 30
0.0
 10
-112.8374
 20
117.9016
 30
0.0
 10
-112.8374
 20
117.9016
 30
0.0
 10
-112.383
 20
117.3356
 30
0.0
 10
-112.6507
 20
116.3455
 30
0.0
 10
-113.4522
 20
115.7956
 30
0.0
  0
SPLINE
  5
6E
330
1F
100
AcDbEntity
  8
layer 1
 62
     7
370
     9
100
AcDbSpline
210
0.0
220
0.0
230
1.0
 70
    11
 71
     3
 72
    12
 73
     8
 74
     0
 42
0.0000000001
 43
0.0000000001
 12
1.0
 22
0.0
 32
0.0
 13
1.0
 23
0.0
 33
0.0
 40
0.0
 40
0.0
 40
0.0
 40
0.0
 40
0.3333333333333333
 40
0.3333333333333333
 40
0.3333333333333333
 40
0.3333333333333333
 40
1.0
 40
1.0
 40
1.0
 40
1.0
 10
-107.6347
 20
122.9533
 30
0.0
 10
-105.5095
 20
124.8882
 30
0.0
 10
-99.158
 20
121.642
 30
0.0
 10
-100.6387
 20
116.2907
 30
0.0
 10
-100.6387
 20
116.2907
 30
0.0
 10
-102.1476
 20
118.9502
 30
0.0
 10
-103.709
 20
121.1852
 30
0.0
 10
-107.6347
 20
122.9533
 30
0.0
  0
SPLINE
  5
6F
330
1F
100
AcDbEntity
  8
layer 1
 62
     7
370
     9
100
AcDbSpline
210
0.0
220
0.0
230
1.0
 70
    11
 71
     3
 72
    76
 73
    72
 74
     0
 42
0.0000000001
 43
0.0000000001
 12
1.0
 22
0.0
 32
0.0
 13
1.0
 23
0.0
 33
0.0
 40
0.0
 40
0.0
 40
0.0
 40
0.0
 40
0.0526315789473684
 40
0.0526315789473684
 40
0.0526315789473684
 40
0.0526315789473684
 40
0.1052631578947368
 40
0.1052631578947368
 40
0.1052631578947368
 40
0.1052631578947368
 40
0.1578947368421053
 40
0.1578947368421053
 40
0.1578947368421053
 40
0.1578947368421053
 40
0.2105263157894737
 40
0.2105263157894737
 40
0.2105263157894737
 40
0.2105263157894737
 40
0.2631578947368421
 40
0.2631578947368421
 40
0.2631578947368421
 40
0.2631578947368421
 40
0.3157894736842105
 40
0.3157894736842105
 40
0.3157894736842105
 40
0.3157894736842105
 40
0.3684210526315789
 40
0.3684210526315789
 40
0.3684210526315789
 40
0.3684210526315789
 40
0.4210526315789473
 40
0.4210526315789473
 40
0.4210526315789473
 40
0.4210526315789473
 40
0.4736842105263158
 40
0.4736842105263158
 40
0.4736842105263158
 40
0.4736842105263158
 40
0.5263157894736842
 40
0.5263157894736842
 40
0.5263157894736842
 40
0.5263157894736842
 40
0.5789473684210527
 40
0.5789473684210527
 40
0.5789473684210527
 40
0.5789473684210527
 40
0.631578947368421
 40
0.631578947368421
 40
0.631578947368421
 40
0.631578947368421
 40
0.6842105263157895
 40
0.6842105263157895
 40
0.6842105263157895
 40
0.6842105263157895
 40
0.7368421052631579
 40
0.7368421052631579
 40
0.7368421052631579
 40
0.7368421052631579
 40
0.7894736842105263
 40
0.7894736842105263
 40
0.7894736842105263
 40
0.7894736842105263
 40
0.8421052631578947
 40
0.8421052631578947
 40
0.8421052631578947
 40
0.8421052631578947
 40
0.8947368421052632
 40
0.8947368421052632
 40
0.8947368421052632
 40
0.8947368421052632
 40
1.0
 40
1.0
 40
1.0
 40
1.0
 10
-106.7432
 20
107.1456
 30
0.0
 10
-106.7701
 20
106.8285
 30
0.0
 10
-107.4298
 20
106.7742
 30
0.0
 10
-107.4433
 20
107.0569
 30
0.0
 10
-107.4433
 20
107.0569
 30
0.0
 10
-108.7587
 20
112.5945
 30
0.0
 10
-116.2031
 20
108.5802
 30
0.0
 10
-112.4787
 20
103.2899
 30
0.0
 10
-112.4787
 20
103.2899
 30
0.0
 10
-114.2707
 20
102.7721
 30
0.0
 10
-116.958
 20
96.2812
 30
0.0
 10
-110.0158
 20
95.9325
 30
0.0
 10
-110.0158
 20
95.9325
 30
0.0
 10
-111.7328
 20
90.3734
 30
0.0
 10
-101.6373
 20
92.2209
 30
0.0
 10
-101.081
 20
96.8675
 30
0.0
 10
-101.081
 20
96.8675
 30
0.0
 10
-100.9206
 20
97.4626
 30
0.0
 10
-99.9072
 20
97.3608
 30
0.0
 10
-99.8244
 20
96.8963
 30
0.0
 10
-99.8244
 20
96.8963
 30
0.0
 10
-99.4962
 20
95.3388
 30
0.0
 10
-98.7843
 20
92.8881
 30
0.0
 10
-102.6992
 20
91.309
 30
0.0
 10
-102.6992
 20
91.309
 30
0.0
 10
-102.9198
 20
90.2155
 30
0.0
 10
-102.8284
 20
89.6589
 30
0.0
 10
-102.8032
 20
88.0001
 30
0.0
 10
-102.8032
 20
88.0001
 30
0.0
 10
-106.8517
 20
93.314
 30
0.0
 10
-112.6657
 20
88.5583
 30
0.0
 10
-111.8508
 20
84.7644
 30
0.0
 10
-111.8508
 20
84.7644
 30
0.0
 10
-110.4318
 20
79.0157
 30
0.0
 10
-105.1602
 20
82.4403
 30
0.0
 10
-106.1388
 20
84.3707
 30
0.0
 10
-106.1388
 20
84.3707
 30
0.0
 10
-111.5755
 20
81.8144
 30
0.0
 10
-108.6284
 20
90.0413
 30
0.0
 10
-104.3641
 20
85.6163
 30
0.0
 10
-104.3641
 20
85.6163
 30
0.0
 10
-103.0331
 20
82.8199
 30
0.0
 10
-104.9321
 20
81.7941
 30
0.0
 10
-105.1744
 20
79.694
 30
0.0
 10
-105.1744
 20
79.694
 30
0.0
 10
-105.3883
 20
77.8409
 30
0.0
 10
-104.1179
 20
75.7472
 30
0.0
 10
-100.9665
 20
75.8155
 30
0.0
 10
-100.9665
 20
75.8155
 30
0.0
 10
-100.9244
 20
75.3403
 30
0.0
 10
-101.0489
 20
73.5387
 30
0.0
 10
-101.0066
 20
73.0296
 30
0.0
 10
-101.0066
 20
73.0296
 30
0.0
 10
-102.8853
 20
73.3275
 30
0.0
 10
-103.9522
 20
70.2412
 30
0.0
 10
-100.6701
 20
70.0333
 30
0.0
 10
-100.6701
 20
70.0333
 30
0.0
 10
-100.8369
 20
66.319
 30
0.0
 10
-105.5926
 20
70.0495
 30
0.0
 10
-106.1406
 20
66.4338
 30
0.0
 10
-106.1406
 20
66.4338
 30
0.0
 10
-107.5906
 20
71.718
 30
0.0
 10
-113.6912
 20
77.8916
 30
0.0
 10
-116.4212
 20
88.2048
 30
0.0
 10
-116.4212
 20
88.2048
 30
0.0
 10
-118.7627
 20
94.8984
 30
0.0
 10
-118.7718
 20
104.8608
 30
0.0
 10
-115.9054
 20
109.0538
 30
0.0
 10
-115.9054
 20
109.0538
 30
0.0
 10
-114.1792
 20
112.0901
 30
0.0
 10
-106.6946
 20
112.9414
 30
0.0
 10
-106.7432
 20
107.1456
 30
0.0
  0
SPLINE
  5
70
330
1F
100
AcDbEntity
  8
layer 1
 62
     7
370
     9
100
AcDbSpline
210
0.0
220
0.0
230
1.0
 70
    11
 71
     3
 72
    16
 73
    12
 74
     0
 42
0.0000000001
 43
0.0000000001
 12
1.0
 22
0.0
 32
0.0
 13
1.0
 23
0.0
 33
0.0
 40
0.0
 40
0.0
 40
0.0
 40
0.0
 40
0.25
 40
0.25
 40
0.25
 40
0.25
 40
0.5
 40
0.5
 40
0.5
 40
0.5
 40
1.0
 40
1.0
 40
1.0
 40
1.0
 10
-129.8536
 20
11.9795
 30
0.0
 10
-131.2997
 20
10.4495
 30
0.0
 10
-132.1229
 20
9.3964
 30
0.0
 10
-134.3607
 20
8.7357
 30
0.0
 10
-134.3607
 20
8.7357
 30
0.0
 10
-132.1229
 20
8.0751
 30
0.0
 10
-131.2997
 20
6.842
 30
0.0
 10
-129.8536
 20
5.312
 30
0.0
 10
-129.8536
 20
5.312
 30
0.0
 10
-130.2151
 20
7.6462
 30
0.0
 10
-130.1498
 20
9.5131
 30
0.0
 10
-129.8536
 20
11.9795
 30
0.0
  0
SPLINE
  5
71
330
1F
100
AcDbEntity
  8
layer 1
 62
     7
370
     9
100
AcDbSpline
210
0.0
220
0.0
230
1.0
 70
    11
 71
     3
 72
    16
 73
    12
 74
     0
 42
0.0000000001
 43
0.0000000001
 12
1.0
 22
0.0
 32
0.0
 13
1.0
 23
0.0
 33
0.0
 40
0.0
 40
0.0
 40
0.0
 40
0.0
 40
0.25
 40
0.25
 40
0.25
 40
0.25
 40
0.5
 40
0.5
 40
0.5
 40
0.5
 40
1.0
 40
1.0
 40
1.0
 40
1.0
 10
-65.8418
 20
-13.1744
 30
0.0
 10
-65.0908
 20
-8.4749
 30
0.0
 10
-67.1211
 20
-4.2773
 30
0.0
 10
-67.1893
 20
1.7957
 30
0.0
 10
-67.1893
 20
1.7957
 30
0.0
 10
-67.8928
 20
-3.4374
 30
0.0
 10
-71.8231
 20
-9.9111
 30
0.0
 10
-74.0502
 20
-12.0666
 30
0.0
 10
-74.0502
 20
-12.0666
 30
0.0
 10
-70.8534
 20
-10.6866
 30
0.0
 10
-68.0046
 20
-10.9591
 30
0.0
 10
-65.8418
 20
-13.1744
 30
0.0
  0
SPLINE
  5
72
330
1F
100
AcDbEntity
  8
layer 1
 62
     7
370
     9
100
AcDbSpline
210
0.0
220
0.0
230
1.0
 70
    11
 71
     3
 72
    16
 73
    12
 74
     0
 42
0.0000000001
 43
0.0000000001
 12
1.0
 22
0.0
 32
0.0
 13
1.0
 23
0.0
 33
0.0
 40
0.0
 40
0.0
 40
0.0
 40
0.0
 40
0.25
 40
0.25
 40
0.25
 40
0.25
 40
0.5
 40
0.5
 40
0.5
 40
0.5
 40
1.0
 40
1.0
 40
1.0
 40
1.0
 10
-50.1696
 20
-94.195
 30
0.0
 10
-52.2847
 20
-103.4001
 30
0.0
 10
-60.1182
 20
-108.2508
 30
0.0
 10
-64.9836
 20
-109.7512
 30
0.0
 10
-64.9836
 20
-109.7512
 30
0.0
 10
-64.9836
 20
-109.7512
 30
0.0
 10
-49.902
 20
-109.6435
 30
0.0
 10
-49.902
 20
-109.6435
 30
0.0
 10
-49.902
 20
-109.6435
 30
0.0
 10
-49.902
 20
-109.6435
 30
0.0
 10
-50.1696
 20
-94.195
 30
0.0
 10
-50.1696
 20
-94.195
 30
0.0
  0
SPLINE
  5
73
330
1F
100
AcDbEntity
  8
layer 1
 62
     7
370
     9
100
AcDbSpline
210
0.0
220
0.0
230
1.0
 70
    11
 71
     3
 72
    16
 73
    12
 74
     0
 42
0.0000000001
 43
0.0000000001
 12
1.0
 22
0.0
 32
0.0
 13
1.0
 23
0.0
 33
0.0
 40
0.0
 40
0.0
 40
0.0
 40
0.0
 40
0.25
 40
0.25
 40
0.25
 40
0.25
 40
0.5
 40
0.5
 40
0.5
 40
0.5
 40
1.0
 40
1.0
 40
1.0
 40
1.0
 10
-70.7527
 20
-107.3265
 30
0.0
 10
-70.7527
 20
-107.3265
 30
0.0
 10
-70.7582
 20
-109.7306
 30
0.0
 10
-70.7582
 20
-109.7306
 30
0.0
 10
-70.7582
 20
-109.7306
 30
0.0
 10
-70.7582
 20
-109.7306
 30
0.0
 10
-73.629
 20
-109.7884
 30
0.0
 10
-73.629
 20
-109.7884
 30
0.0
 10
-73.629
 20
-109.7884
 30
0.0
 10
-72.0674
 20
-109.3129
 30
0.0
 10
-71.4473
 20
-108.5895
 30
0.0
 10
-70.7527
 20
-107.3265
 30
0.0
  0
SPLINE
  5
74
330
1F
100
AcDbEntity
  8
layer 1
 62
     7
370
     9
100
AcDbSpline
210
0.0
220
0.0
230
1.0
 70
    11
 71
     3
 72
    24
 73
    20
 74
     0
 42
0.0000000001
 43
0.0000000001
 12
1.0
 22
0.0
 32
0.0
 13
1.0
 23
0.0
 33
0.0
 40
0.0
 40
0.0
 40
0.0
 40
0.0
 40
0.1666666666666667
 40
0.1666666666666667
 40
0.1666666666666667
 40
0.1666666666666667
 40
0.3333333333333333
 40
0.3333333333333333
 40
0.3333333333333333
 40
0.3333333333333333
 40
0.5
 40
0.5
 40
0.5
 40
0.5
 40
0.6666666666666666
 40
0.6666666666666666
 40
0.6666666666666666
 40
0.6666666666666666
 40
1.0
 40
1.0
 40
1.0
 40
1.0
 10
-70.0915
 20
-105.7602
 30
0.0
 10
-65.0165
 20
-106.024
 30
0.0
 10
-57.941
 20
-101.0259
 30
0.0
 10
-57.0041
 20
-98.6087
 30
0.0
 10
-57.0041
 20
-98.6087
 30
0.0
 10
-55.6703
 20
-97.405
 30
0.0
 10
-59.8539
 20
-101.2807
 30
0.0
 10
-60.7967
 20
-100.2325
 30
0.0
 10
-60.7967
 20
-100.2325
 30
0.0
 10
-60.0621
 20
-98.9401
 30
0.0
 10
-60.0902
 20
-97.5746
 30
0.0
 10
-60.5811
 20
-96.8324
 30
0.0
 10
-60.5811
 20
-96.8324
 30
0.0
 10
-62.4162
 20
-99.9371
 30
0.0
 10
-67.1375
 20
-103.0398
 30
0.0
 10
-71.9806
 20
-101.0244
 30
0.0
 10
-71.9806
 20
-101.0244
 30
0.0
 10
-69.9062
 20
-102.0408
 30
0.0
 10
-70.0306
 20
-104.8891
 30
0.0
 10
-70.0915
 20
-105.7602
 30
0.0
  0
SPLINE
  5
75
330
1F
100
AcDbEntity
  8
layer 1
 62
     7
370
     9
100
AcDbSpline
210
0.0
220
0.0
230
1.0
 70
    11
 71
     3
 72
    48
 73
    44
 74
     0
 42
0.0000000001
 43
0.0000000001
 12
1.0
 22
0.0
 32
0.0
 13
1.0
 23
0.0
 33
0.0
 40
0.0
 40
0.0
 40
0.0
 40
0.0
 40
0.0833333333333333
 40
0.0833333333333333
 40
0.0833333333333333
 40
0.0833333333333333
 40
0.1666666666666667
 40
0.1666666666666667
 40
0.1666666666666667
 40
0.1666666666666667
 40
0.25
 40
0.25
 40
0.25
 40
0.25
 40
0.3333333333333333
 40
0.3333333333333333
 40
0.3333333333333333
 40
0.3333333333333333
 40
0.4166666666666667
 40
0.4166666666666667
 40
0.4166666666666667
 40
0.4166666666666667
 40
0.5
 40
0.5
 40
0.5
 40
0.5
 40
0.5833333333333334
 40
0.5833333333333334
 40
0.5833333333333334
 40
0.5833333333333334
 40
0.6666666666666666
 40
0.6666666666666666
 40
0.6666666666666666
 40
0.6666666666666666
 40
0.75
 40
0.75
 40
0.75
 40
0.75
 40
0.8333333333333334
 40
0.8333333333333334
 40
0.8333333333333334
 40
0.8333333333333334
 40
1.0
 40
1.0
 40
1.0
 40
1.0
 10
-49.9129
 20
-89.165
 30
0.0
 10
-49.9129
 20
-89.165
 30
0.0
 10
-49.8978
 20
-67.8006
 30
0.0
 10
-49.8978
 20
-67.8006
 30
0.0
 10
-49.8978
 20
-67.8006
 30
0.0
 10
-51.0645
 20
-71.8171
 30
0.0
 10
-55.1165
 20
-74.6838
 30
0.0
 10
-59.5686
 20
-73.2409
 30
0.0
 10
-59.5686
 20
-73.2409
 30
0.0
 10
-58.176
 20
-74.0102
 30
0.0
 10
-58.3336
 20
-75.6098
 30
0.0
 10
-58.695
 20
-76.026
 30
0.0
 10
-58.695
 20
-76.026
 30
0.0
 10
-59.8013
 20
-74.1881
 30
0.0
 10
-61.7161
 20
-74.906
 30
0.0
 10
-63.7275
 20
-74.0209
 30
0.0
 10
-63.7275
 20
-74.0209
 30
0.0
 10
-65.6181
 20
-73.0864
 30
0.0
 10
-67.2868
 20
-72.0404
 30
0.0
 10
-69.3488
 20
-69.5144
 30
0.0
 10
-69.3488
 20
-69.5144
 30
0.0
 10
-65.9304
 20
-78.7832
 30
0.0
 10
-55.4857
 20
-79.7555
 30
0.0
 10
-54.7132
 20
-76.7352
 30
0.0
 10
-54.7132
 20
-76.7352
 30
0.0
 10
-54.0283
 20
-77.3749
 30
0.0
 10
-54.8437
 20
-79.9335
 30
0.0
 10
-56.2799
 20
-80.1387
 30
0.0
 10
-56.2799
 20
-80.1387
 30
0.0
 10
-55.1415
 20
-83.4407
 30
0.0
 10
-58.2914
 20
-82.641
 30
0.0
 10
-59.354
 20
-82.024
 30
0.0
 10
-59.354
 20
-82.024
 30
0.0
 10
-55.6239
 20
-85.5044
 30
0.0
 10
-54.1401
 20
-89.8737
 30
0.0
 10
-55.1884
 20
-95.2231
 30
0.0
 10
-55.1884
 20
-95.2231
 30
0.0
 10
-53.7331
 20
-92.6334
 30
0.0
 10
-53.9115
 20
-89.0757
 30
0.0
 10
-53.7817
 20
-89.0786
 30
0.0
 10
-53.7817
 20
-89.0786
 30
0.0
 10
-53.7817
 20
-89.0786
 30
0.0
 10
-49.9129
 20
-89.165
 30
0.0
 10
-49.9129
 20
-89.165
 30
0.0
  0
SPLINE
  5
76
330
1F
100
AcDbEntity
  8
layer 1
 62
     7
370
     9
100
AcDbSpline
210
0.0
220
0.0
230
1.0
 70
    11
 71
     3
 72
    80
 73
    76
 74
     0
 42
0.0000000001
 43
0.0000000001
 12
1.0
 22
0.0
 32
0.0
 13
1.0
 23
0.0
 33
0.0
 40
0.0
 40
0.0
 40
0.0
 40
0.0
 40
0.05
 40
0.05
 40
0.05
 40
0.05
 40
0.1
 40
0.1
 40
0.1
 40
0.1
 40
0.15
 40
0.15
 40
0.15
 40
0.15
 40
0.2
 40
0.2
 40
0.2
 40
0.2
 40
0.25
 40
0.25
 40
0.25
 40
0.25
 40
0.3
 40
0.3
 40
0.3
 40
0.3
 40
0.35
 40
0.35
 40
0.35
 40
0.35
 40
0.4
 40
0.4
 40
0.4
 40
0.4
 40
0.45
 40
0.45
 40
0.45
 40
0.45
 40
0.5
 40
0.5
 40
0.5
 40
0.5
 40
0.55
 40
0.55
 40
0.55
 40
0.55
 40
0.6
 40
0.6
 40
0.6
 40
0.6
 40
0.65
 40
0.65
 40
0.65
 40
0.65
 40
0.7
 40
0.7
 40
0.7
 40
0.7
 40
0.75
 40
0.75
 40
0.75
 40
0.75
 40
0.8
 40
0.8
 40
0.8
 40
0.8
 40
0.85
 40
0.85
 40
0.85
 40
0.85
 40
0.9
 40
0.9
 40
0.9
 40
0.9
 40
1.0
 40
1.0
 40
1.0
 40
1.0
 10
-75.673
 20
-91.5675
 30
0.0
 10
-74.7059
 20
-90.0082
 30
0.0
 10
-72.1548
 20
-90.3358
 30
0.0
 10
-71.7743
 20
-91.0853
 30
0.0
 10
-71.7743
 20
-91.0853
 30
0.0
 10
-70.5848
 20
-90.1841
 30
0.0
 10
-68.313
 20
-89.651
 30
0.0
 10
-68.6708
 20
-93.7674
 30
0.0
 10
-68.6708
 20
-93.7674
 30
0.0
 10
-71.671
 20
-91.642
 30
0.0
 10
-72.8323
 20
-95.8347
 30
0.0
 10
-69.7526
 20
-97.3701
 30
0.0
 10
-69.7526
 20
-97.3701
 30
0.0
 10
-68.6265
 20
-97.9315
 30
0.0
 10
-64.8494
 20
-98.7891
 30
0.0
 10
-63.0741
 20
-95.2227
 30
0.0
 10
-63.0741
 20
-95.2227
 30
0.0
 10
-66.0396
 20
-97.2403
 30
0.0
 10
-67.511
 20
-95.9004
 30
0.0
 10
-67.693
 20
-93.788
 30
0.0
 10
-67.693
 20
-93.788
 30
0.0
 10
-66.0169
 20
-93.4966
 30
0.0
 10
-63.6932
 20
-92.6913
 30
0.0
 10
-63.2308
 20
-89.7174
 30
0.0
 10
-63.2308
 20
-89.7174
 30
0.0
 10
-62.8246
 20
-87.1049
 30
0.0
 10
-63.0121
 20
-84.9757
 30
0.0
 10
-66.4577
 20
-80.3856
 30
0.0
 10
-66.4577
 20
-80.3856
 30
0.0
 10
-66.0512
 20
-81.5595
 30
0.0
 10
-66.0689
 20
-81.9698
 30
0.0
 10
-66.0249
 20
-82.6071
 30
0.0
 10
-66.0249
 20
-82.6071
 30
0.0
 10
-65.9524
 20
-83.6578
 30
0.0
 10
-66.2027
 20
-84.9933
 30
0.0
 10
-66.4524
 20
-86.0902
 30
0.0
 10
-66.4524
 20
-86.0902
 30
0.0
 10
-66.7184
 20
-86.2975
 30
0.0
 10
-67.9346
 20
-86.1242
 30
0.0
 10
-68.774
 20
-84.6434
 30
0.0
 10
-68.774
 20
-84.6434
 30
0.0
 10
-69.1299
 20
-85.9777
 30
0.0
 10
-70.5809
 20
-87.5499
 30
0.0
 10
-72.6541
 20
-86.2481
 30
0.0
 10
-72.6541
 20
-86.2481
 30
0.0
 10
-72.6962
 20
-85.7729
 30
0.0
 10
-72.2646
 20
-85.5943
 30
0.0
 10
-72.3069
 20
-85.0852
 30
0.0
 10
-72.3069
 20
-85.0852
 30
0.0
 10
-72.4899
 20
-82.8827
 30
0.0
 10
-72.3443
 20
-82.0337
 30
0.0
 10
-70.7133
 20
-81.2555
 30
0.0
 10
-70.7133
 20
-81.2555
 30
0.0
 10
-70.4588
 20
-78.7255
 30
0.0
 10
-71.2303
 20
-74.8232
 30
0.0
 10
-72.8317
 20
-69.6283
 30
0.0
 10
-72.8317
 20
-69.6283
 30
0.0
 10
-73.025
 20
-69.9722
 30
0.0
 10
-73.0043
 20
-70.6829
 30
0.0
 10
-73.2038
 20
-71.0862
 30
0.0
 10
-73.2038
 20
-71.0862
 30
0.0
 10
-73.4443
 20
-71.5725
 30
0.0
 10
-74.0487
 20
-71.7338
 30
0.0
 10
-74.2959
 20
-72.2365
 30
0.0
 10
-74.2959
 20
-72.2365
 30
0.0
 10
-74.4042
 20
-72.4568
 30
0.0
 10
-74.114
 20
-73.0487
 30
0.0
 10
-74.2637
 20
-73.2383
 30
0.0
 10
-74.2637
 20
-73.2383
 30
0.0
 10
-74.4226
 20
-73.4396
 30
0.0
 10
-74.7206
 20
-73.1809
 30
0.0
 10
-75.0427
 20
-73.2505
 30
0.0
 10
-75.0427
 20
-73.2505
 30
0.0
 10
-72.2506
 20
-82.8229
 30
0.0
 10
-74.3179
 20
-87.8879
 30
0.0
 10
-75.673
 20
-91.5675
 30
0.0
  0
SPLINE
  5
77
330
1F
100
AcDbEntity
  8
layer 1
 62
     7
370
     9
100
AcDbSpline
210
0.0
220
0.0
230
1.0
 70
    11
 71
     3
 72
    24
 73
    20
 74
     0
 42
0.0000000001
 43
0.0000000001
 12
1.0
 22
0.0
 32
0.0
 13
1.0
 23
0.0
 33
0.0
 40
0.0
 40
0.0
 40
0.0
 40
0.0
 40
0.1666666666666667
 40
0.1666666666666667
 40
0.1666666666666667
 40
0.1666666666666667
 40
0.3333333333333333
 40
0.3333333333333333
 40
0.3333333333333333
 40
0.3333333333333333
 40
0.5
 40
0.5
 40
0.5
 40
0.5
 40
0.6666666666666666
 40
0.6666666666666666
 40
0.6666666666666666
 40
0.6666666666666666
 40
1.0
 40
1.0
 40
1.0
 40
1.0
 10
-74.7993
 20
-64.4769
 30
0.0
 10
-75.9023
 20
-62.114
 30
0.0
 10
-79.3021
 20
-56.8103
 30
0.0
 10
-81.3139
 20
-54.0544
 30
0.0
 10
-81.3139
 20
-54.0544
 30
0.0
 10
-82.3781
 20
-54.6788
 30
0.0
 10
-83.0399
 20
-54.8501
 30
0.0
 10
-83.9897
 20
-55.2029
 30
0.0
 10
-83.9897
 20
-55.2029
 30
0.0
 10
-80.8989
 20
-58.4501
 30
0.0
 10
-77.2998
 20
-65.5232
 30
0.0
 10
-76.3951
 20
-69.71
 30
0.0
 10
-76.3951
 20
-69.71
 30
0.0
 10
-76.3559
 20
-68.9834
 30
0.0
 10
-76.2561
 20
-68.3569
 30
0.0
 10
-76.103
 20
-67.6856
 30
0.0
 10
-76.103
 20
-67.6856
 30
0.0
 10
-75.8306
 20
-66.4907
 30
0.0
 10
-74.669
 20
-66.0166
 30
0.0
 10
-74.7993
 20
-64.4769
 30
0.0
  0
SPLINE
  5
78
330
1F
100
AcDbEntity
  8
layer 1
 62
     7
370
     9
100
AcDbSpline
210
0.0
220
0.0
230
1.0
 70
    11
 71
     3
 72
    20
 73
    16
 74
     0
 42
0.0000000001
 43
0.0000000001
 12
1.0
 22
0.0
 32
0.0
 13
1.0
 23
0.0
 33
0.0
 40
0.0
 40
0.0
 40
0.0
 40
0.0
 40
0.2
 40
0.2
 40
0.2
 40
0.2
 40
0.4
 40
0.4
 40
0.4
 40
0.4
 40
0.6
 40
0.6
 40
0.6
 40
0.6
 40
1.0
 40
1.0
 40
1.0
 40
1.0
 10
-79.6276
 20
-49.2123
 30
0.0
 10
-82.3758
 20
-49.917
 30
0.0
 10
-85.2353
 20
-48.0135
 30
0.0
 10
-84.6413
 20
-45.3759
 30
0.0
 10
-84.6413
 20
-45.3759
 30
0.0
 10
-85.7405
 20
-46.5838
 30
0.0
 10
-86.7542
 20
-47.0683
 30
0.0
 10
-88.1268
 20
-47.6236
 30
0.0
 10
-88.1268
 20
-47.6236
 30
0.0
 10
-86.9825
 20
-49.3856
 30
0.0
 10
-86.8131
 20
-49.7305
 30
0.0
 10
-85.7491
 20
-52.1528
 30
0.0
 10
-85.7491
 20
-52.1528
 30
0.0
 10
-83.6696
 20
-52.0253
 30
0.0
 10
-80.871
 20
-50.4352
 30
0.0
 10
-79.6276
 20
-49.2123
 30
0.0
  0
SPLINE
  5
79
330
1F
100
AcDbEntity
  8
layer 1
 62
     7
370
     9
100
AcDbSpline
210
0.0
220
0.0
230
1.0
 70
    11
 71
     3
 72
    20
 73
    16
 74
     0
 42
0.0000000001
 43
0.0000000001
 12
1.0
 22
0.0
 32
0.0
 13
1.0
 23
0.0
 33
0.0
 40
0.0
 40
0.0
 40
0.0
 40
0.0
 40
0.2
 40
0.2
 40
0.2
 40
0.2
 40
0.4
 40
0.4
 40
0.4
 40
0.4
 40
0.6
 40
0.6
 40
0.6
 40
0.6
 40
1.0
 40
1.0
 40
1.0
 40
1.0
 10
-76.6161
 20
-41.0353
 30
0.0
 10
-79.2156
 20
-41.0758
 30
0.0
 10
-79.5988
 20
-40.7991
 30
0.0
 10
-81.4329
 20
-40.5021
 30
0.0
 10
-81.4329
 20
-40.5021
 30
0.0
 10
-81.487
 20
-41.2415
 30
0.0
 10
-82.1283
 20
-42.1169
 30
0.0
 10
-82.5821
 20
-42.9347
 30
0.0
 10
-82.5821
 20
-42.9347
 30
0.0
 10
-79.2503
 20
-42.0716
 30
0.0
 10
-77.7
 20
-44.7017
 30
0.0
 10
-78.1235
 20
-47.1459
 30
0.0
 10
-78.1235
 20
-47.1459
 30
0.0
 10
-76.8096
 20
-44.7214
 30
0.0
 10
-76.746
 20
-43.448
 30
0.0
 10
-76.6161
 20
-41.0353
 30
0.0
  0
SPLINE
  5
7A
330
1F
100
AcDbEntity
  8
layer 1
 62
     7
370
     9
100
AcDbSpline
210
0.0
220
0.0
230
1.0
 70
    11
 71
     3
 72
    28
 73
    24
 74
     0
 42
0.0000000001
 43
0.0000000001
 12
1.0
 22
0.0
 32
0.0
 13
1.0
 23
0.0
 33
0.0
 40
0.0
 40
0.0
 40
0.0
 40
0.0
 40
0.1428571428571428
 40
0.1428571428571428
 40
0.1428571428571428
 40
0.1428571428571428
 40
0.2857142857142857
 40
0.2857142857142857
 40
0.2857142857142857
 40
0.2857142857142857
 40
0.4285714285714285
 40
0.4285714285714285
 40
0.4285714285714285
 40
0.4285714285714285
 40
0.5714285714285714
 40
0.5714285714285714
 40
0.5714285714285714
 40
0.5714285714285714
 40
0.7142857142857143
 40
0.7142857142857143
 40
0.7142857142857143
 40
0.7142857142857143
 40
1.0
 40
1.0
 40
1.0
 40
1.0
 10
-83.1439
 20
-39.744
 30
0.0
 10
-86.5652
 20
-38.615
 30
0.0
 10
-92.1171
 20
-33.2997
 30
0.0
 10
-91.0357
 20
-27.4823
 30
0.0
 10
-91.0357
 20
-27.4823
 30
0.0
 10
-91.0357
 20
-27.4823
 30
0.0
 10
-93.4303
 20
-27.4322
 30
0.0
 10
-93.4303
 20
-27.4322
 30
0.0
 10
-93.4303
 20
-27.4322
 30
0.0
 10
-93.3073
 20
-32.6525
 30
0.0
 10
-90.167
 20
-43.8597
 30
0.0
 10
-88.7548
 20
-46.0035
 30
0.0
 10
-88.7548
 20
-46.0035
 30
0.0
 10
-88.0012
 20
-45.7016
 30
0.0
 10
-86.9999
 20
-45.2478
 30
0.0
 10
-86.168
 20
-44.4146
 30
0.0
 10
-86.168
 20
-44.4146
 30
0.0
 10
-88.7038
 20
-43.3981
 30
0.0
 10
-86.5957
 20
-39.6287
 30
0.0
 10
-84.2077
 20
-41.8076
 30
0.0
 10
-84.2077
 20
-41.8076
 30
0.0
 10
-83.7764
 20
-41.0833
 30
0.0
 10
-83.4145
 20
-40.3631
 30
0.0
 10
-83.1439
 20
-39.744
 30
0.0
  0
SPLINE
  5
7B
330
1F
100
AcDbEntity
  8
layer 1
 62
     7
370
     9
100
AcDbSpline
210
0.0
220
0.0
230
1.0
 70
    11
 71
     3
 72
    16
 73
    12
 74
     0
 42
0.0000000001
 43
0.0000000001
 12
1.0
 22
0.0
 32
0.0
 13
1.0
 23
0.0
 33
0.0
 40
0.0
 40
0.0
 40
0.0
 40
0.0
 40
0.25
 40
0.25
 40
0.25
 40
0.25
 40
0.5
 40
0.5
 40
0.5
 40
0.5
 40
1.0
 40
1.0
 40
1.0
 40
1.0
 10
-61.6489
 20
-18.3931
 30
0.0
 10
-61.6538
 20
-21.5829
 30
0.0
 10
-61.9056
 20
-25.6667
 30
0.0
 10
-62.5349
 20
-27.8883
 30
0.0
 10
-62.5349
 20
-27.8883
 30
0.0
 10
-60.6068
 20
-25.797
 30
0.0
 10
-56.0735
 20
-27.0233
 30
0.0
 10
-55.2688
 20
-29.2043
 30
0.0
 10
-55.2688
 20
-29.2043
 30
0.0
 10
-55.9588
 20
-23.8896
 30
0.0
 10
-60.0517
 20
-23.2277
 30
0.0
 10
-61.6489
 20
-18.3931
 30
0.0
  0
SPLINE
  5
7C
330
1F
100
AcDbEntity
  8
layer 1
 62
     7
370
     9
100
AcDbSpline
210
0.0
220
0.0
230
1.0
 70
    11
 71
     3
 72
    28
 73
    24
 74
     0
 42
0.0000000001
 43
0.0000000001
 12
1.0
 22
0.0
 32
0.0
 13
1.0
 23
0.0
 33
0.0
 40
0.0
 40
0.0
 40
0.0
 40
0.0
 40
0.1428571428571428
 40
0.1428571428571428
 40
0.1428571428571428
 40
0.1428571428571428
 40
0.2857142857142857
 40
0.2857142857142857
 40
0.2857142857142857
 40
0.2857142857142857
 40
0.4285714285714285
 40
0.4285714285714285
 40
0.4285714285714285
 40
0.4285714285714285
 40
0.5714285714285714
 40
0.5714285714285714
 40
0.5714285714285714
 40
0.5714285714285714
 40
0.7142857142857143
 40
0.7142857142857143
 40
0.7142857142857143
 40
0.7142857142857143
 40
1.0
 40
1.0
 40
1.0
 40
1.0
 10
-49.9323
 20
-11.5607
 30
0.0
 10
-51.4991
 20
-16.6652
 30
0.0
 10
-58.6753
 20
-13.1079
 30
0.0
 10
-54.4569
 20
-10.0599
 30
0.0
 10
-54.4569
 20
-10.0599
 30
0.0
 10
-58.3153
 20
-9.059
 30
0.0
 10
-60.8281
 20
-16.0171
 30
0.0
 10
-57.0695
 20
-18.1912
 30
0.0
 10
-57.0695
 20
-18.1912
 30
0.0
 10
-56.7248
 20
-15.7233
 30
0.0
 10
-54.3123
 20
-15.5482
 30
0.0
 10
-53.2984
 20
-16.5657
 30
0.0
 10
-53.2984
 20
-16.5657
 30
0.0
 10
-56.8071
 20
-19.2332
 30
0.0
 10
-54.6346
 20
-21.1725
 30
0.0
 10
-52.2685
 20
-24.6088
 30
0.0
 10
-52.2685
 20
-24.6088
 30
0.0
 10
-51.1022
 20
-26.3026
 30
0.0
 10
-50.4786
 20
-28.4566
 30
0.0
 10
-49.8934
 20
-31.2417
 30
0.0
 10
-49.8934
 20
-31.2417
 30
0.0
 10
-49.8934
 20
-31.2417
 30
0.0
 10
-49.9323
 20
-11.5607
 30
0.0
 10
-49.9323
 20
-11.5607
 30
0.0
  0
SPLINE
  5
7D
330
1F
100
AcDbEntity
  8
layer 1
 62
     7
370
     9
100
AcDbSpline
210
0.0
220
0.0
230
1.0
 70
    11
 71
     3
 72
    36
 73
    32
 74
     0
 42
0.0000000001
 43
0.0000000001
 12
1.0
 22
0.0
 32
0.0
 13
1.0
 23
0.0
 33
0.0
 40
0.0
 40
0.0
 40
0.0
 40
0.0
 40
0.1111111111111111
 40
0.1111111111111111
 40
0.1111111111111111
 40
0.1111111111111111
 40
0.2222222222222222
 40
0.2222222222222222
 40
0.2222222222222222
 40
0.2222222222222222
 40
0.3333333333333333
 40
0.3333333333333333
 40
0.3333333333333333
 40
0.3333333333333333
 40
0.4444444444444444
 40
0.4444444444444444
 40
0.4444444444444444
 40
0.4444444444444444
 40
0.5555555555555556
 40
0.5555555555555556
 40
0.5555555555555556
 40
0.5555555555555556
 40
0.6666666666666666
 40
0.6666666666666666
 40
0.6666666666666666
 40
0.6666666666666666
 40
0.7777777777777778
 40
0.7777777777777778
 40
0.7777777777777778
 40
0.7777777777777778
 40
1.0
 40
1.0
 40
1.0
 40
1.0
 10
-76.0897
 20
-14.5396
 30
0.0
 10
-78.6892
 20
-16.9928
 30
0.0
 10
-84.9944
 20
-20.8834
 30
0.0
 10
-87.1795
 20
-21.1567
 30
0.0
 10
-87.1795
 20
-21.1567
 30
0.0
 10
-88.4619
 20
-30.0993
 30
0.0
 10
-82.216
 20
-34.0015
 30
0.0
 10
-77.9322
 20
-34.6
 30
0.0
 10
-77.9322
 20
-34.6
 30
0.0
 10
-72.407
 20
-35.7987
 30
0.0
 10
-69.7161
 20
-24.8738
 30
0.0
 10
-75.6231
 20
-27.8883
 30
0.0
 10
-75.6231
 20
-27.8883
 30
0.0
 10
-75.6737
 20
-26.4938
 30
0.0
 10
-74.6285
 20
-24.4892
 30
0.0
 10
-72.0405
 20
-25.8246
 30
0.0
 10
-72.0405
 20
-25.8246
 30
0.0
 10
-71.558
 20
-25.248
 30
0.0
 10
-69.1658
 20
-23.3372
 30
0.0
 10
-69.1175
 20
-28.796
 30
0.0
 10
-69.1175
 20
-28.796
 30
0.0
 10
-65.454
 20
-25.8639
 30
0.0
 10
-64.9195
 20
-13.456
 30
0.0
 10
-72.6974
 20
-15.567
 30
0.0
 10
-72.6974
 20
-15.567
 30
0.0
 10
-68.3199
 20
-16.7758
 30
0.0
 10
-71.144
 20
-20.1173
 30
0.0
 10
-73.0545
 20
-19.6497
 30
0.0
 10
-73.0545
 20
-19.6497
 30
0.0
 10
-73.8987
 20
-19.4431
 30
0.0
 10
-77.4722
 20
-18.7763
 30
0.0
 10
-76.0897
 20
-14.5396
 30
0.0
  0
SPLINE
  5
7E
330
1F
100
AcDbEntity
  8
layer 1
 62
     7
370
     9
100
AcDbSpline
210
0.0
220
0.0
230
1.0
 70
    11
 71
     3
 72
    64
 73
    60
 74
     0
 42
0.0000000001
 43
0.0000000001
 12
1.0
 22
0.0
 32
0.0
 13
1.0
 23
0.0
 33
0.0
 40
0.0
 40
0.0
 40
0.0
 40
0.0
 40
0.0625
 40
0.0625
 40
0.0625
 40
0.0625
 40
0.125
 40
0.125
 40
0.125
 40
0.125
 40
0.1875
 40
0.1875
 40
0.1875
 40
0.1875
 40
0.25
 40
0.25
 40
0.25
 40
0.25
 40
0.3125
 40
0.3125
 40
0.3125
 40
0.3125
 40
0.375
 40
0.375
 40
0.375
 40
0.375
 40
0.4375
 40
0.4375
 40
0.4375
 40
0.4375
 40
0.5
 40
0.5
 40
0.5
 40
0.5
 40
0.5625
 40
0.5625
 40
0.5625
 40
0.5625
 40
0.625
 40
0.625
 40
0.625
 40
0.625
 40
0.6875
 40
0.6875
 40
0.6875
 40
0.6875
 40
0.75
 40
0.75
 40
0.75
 40
0.75
 40
0.8125
 40
0.8125
 40
0.8125
 40
0.8125
 40
0.875
 40
0.875
 40
0.875
 40
0.875
 40
1.0
 40
1.0
 40
1.0
 40
1.0
 10
-57.1768
 20
8.7752
 30
0.0
 10
-53.8736
 20
7.5439
 30
0.0
 10
-54.58
 20
1.7995
 30
0.0
 10
-57.4005
 20
1.3365
 30
0.0
 10
-57.4005
 20
1.3365
 30
0.0
 10
-60.5656
 20
0.2667
 30
0.0
 10
-63.0772
 20
3.1737
 30
0.0
 10
-60.2804
 20
5.8378
 30
0.0
 10
-60.2804
 20
5.8378
 30
0.0
 10
-63.4224
 20
5.4961
 30
0.0
 10
-64.7067
 20
2.2372
 30
0.0
 10
-62.8171
 20
-1.5066
 30
0.0
 10
-62.8171
 20
-1.5066
 30
0.0
 10
-59.7651
 20
0.6367
 30
0.0
 10
-57.8099
 20
-1.9142
 30
0.0
 10
-58.5144
 20
-3.9465
 30
0.0
 10
-58.5144
 20
-3.9465
 30
0.0
 10
-59.6471
 20
-1.6603
 30
0.0
 10
-62.1697
 20
-3.3415
 30
0.0
 10
-62.1206
 20
-5.7281
 30
0.0
 10
-62.1206
 20
-5.7281
 30
0.0
 10
-61.9412
 20
-7.5616
 30
0.0
 10
-61.8096
 20
-9.3024
 30
0.0
 10
-61.8027
 20
-11.123
 30
0.0
 10
-61.8027
 20
-11.123
 30
0.0
 10
-59.4044
 20
-4.5618
 30
0.0
 10
-51.9237
 20
-5.7332
 30
0.0
 10
-49.98
 20
-9.4462
 30
0.0
 10
-49.98
 20
-9.4462
 30
0.0
 10
-49.98
 20
-9.4462
 30
0.0
 10
-50.009
 20
26.758
 30
0.0
 10
-50.009
 20
26.758
 30
0.0
 10
-50.009
 20
26.758
 30
0.0
 10
-51.9527
 20
23.045
 30
0.0
 10
-59.4334
 20
21.8735
 30
0.0
 10
-61.8317
 20
28.4347
 30
0.0
 10
-61.8317
 20
28.4347
 30
0.0
 10
-61.8386
 20
26.6141
 30
0.0
 10
-61.9702
 20
24.8734
 30
0.0
 10
-62.1497
 20
23.0399
 30
0.0
 10
-62.1497
 20
23.0399
 30
0.0
 10
-62.1987
 20
20.6533
 30
0.0
 10
-59.6761
 20
18.9721
 30
0.0
 10
-58.5434
 20
21.2583
 30
0.0
 10
-58.5434
 20
21.2583
 30
0.0
 10
-57.8389
 20
19.226
 30
0.0
 10
-59.7941
 20
16.675
 30
0.0
 10
-62.8461
 20
18.8183
 30
0.0
 10
-62.8461
 20
18.8183
 30
0.0
 10
-64.7357
 20
15.0746
 30
0.0
 10
-63.4514
 20
11.8156
 30
0.0
 10
-60.3094
 20
11.474
 30
0.0
 10
-60.3094
 20
11.474
 30
0.0
 10
-63.1063
 20
14.138
 30
0.0
 10
-60.5946
 20
17.0451
 30
0.0
 10
-57.4295
 20
15.9753
 30
0.0
 10
-57.4295
 20
15.9753
 30
0.0
 10
-54.609
 20
15.5122
 30
0.0
 10
-53.8736
 20
10.0065
 30
0.0
 10
-57.1768
 20
8.7752
 30
0.0
  0
SPLINE
  5
7F
330
1F
100
AcDbEntity
  8
layer 1
 62
     7
370
     9
100
AcDbSpline
210
0.0
220
0.0
230
1.0
 70
    11
 71
     3
 72
    16
 73
    12
 74
     0
 42
0.0000000001
 43
0.0000000001
 12
1.0
 22
0.0
 32
0.0
 13
1.0
 23
0.0
 33
0.0
 40
0.0
 40
0.0
 40
0.0
 40
0.0
 40
0.25
 40
0.25
 40
0.25
 40
0.25
 40
0.5
 40
0.5
 40
0.5
 40
0.5
 40
1.0
 40
1.0
 40
1.0
 40
1.0
 10
-49.9398
 20
-51.7126
 30
0.0
 10
-49.9398
 20
-51.7126
 30
0.0
 10
-49.8957
 20
-36.1412
 30
0.0
 10
-49.8957
 20
-36.1412
 30
0.0
 10
-49.8957
 20
-36.1412
 30
0.0
 10
-50.7654
 20
-41.0839
 30
0.0
 10
-54.1349
 20
-45.194
 30
0.0
 10
-57.712
 20
-47.0798
 30
0.0
 10
-57.712
 20
-47.0798
 30
0.0
 10
-54.183
 20
-46.2804
 30
0.0
 10
-50.9188
 20
-46.9884
 30
0.0
 10
-49.9398
 20
-51.7126
 30
0.0
  0
SPLINE
  5
80
330
1F
100
AcDbEntity
  8
layer 1
 62
     7
370
     9
100
AcDbSpline
210
0.0
220
0.0
230
1.0
 70
    11
 71
     3
 72
    32
 73
    28
 74
     0
 42
0.0000000001
 43
0.0000000001
 12
1.0
 22
0.0
 32
0.0
 13
1.0
 23
0.0
 33
0.0
 40
0.0
 40
0.0
 40
0.0
 40
0.0
 40
0.125
 40
0.125
 40
0.125
 40
0.125
 40
0.25
 40
0.25
 40
0.25
 40
0.25
 40
0.375
 40
0.375
 40
0.375
 40
0.375
 40
0.5
 40
0.5
 40
0.5
 40
0.5
 40
0.625
 40
0.625
 40
0.625
 40
0.625
 40
0.75
 40
0.75
 40
0.75
 40
0.75
 40
1.0
 40
1.0
 40
1.0
 40
1.0
 10
-59.5419
 20
-48.1056
 30
0.0
 10
-62.9834
 20
-51.209
 30
0.0
 10
-59.037
 20
-55.5946
 30
0.0
 10
-55.6528
 20
-51.959
 30
0.0
 10
-55.6528
 20
-51.959
 30
0.0
 10
-55.3064
 20
-56.0646
 30
0.0
 10
-61.5038
 20
-57.9417
 30
0.0
 10
-64.4209
 20
-54.8365
 30
0.0
 10
-64.4209
 20
-54.8365
 30
0.0
 10
-62.7362
 20
-54.054
 30
0.0
 10
-62.8939
 20
-52.942
 30
0.0
 10
-63.555
 20
-51.6643
 30
0.0
 10
-63.555
 20
-51.6643
 30
0.0
 10
-64.8758
 20
-52.965
 30
0.0
 10
-67.0651
 20
-52.6725
 30
0.0
 10
-68.8642
 20
-52.5235
 30
0.0
 10
-68.8642
 20
-52.5235
 30
0.0
 10
-71.4935
 20
-52.3058
 30
0.0
 10
-74.0389
 20
-51.1768
 30
0.0
 10
-75.8572
 20
-49.2174
 30
0.0
 10
-75.8572
 20
-49.2174
 30
0.0
 10
-75.5157
 20
-48.5653
 30
0.0
 10
-75.1746
 20
-47.7728
 30
0.0
 10
-74.8865
 20
-47.1713
 30
0.0
 10
-74.8865
 20
-47.1713
 30
0.0
 10
-71.1242
 20
-49.1643
 30
0.0
 10
-65.79
 20
-50.4262
 30
0.0
 10
-59.5419
 20
-48.1056
 30
0.0
  0
SPLINE
  5
81
330
1F
100
AcDbEntity
  8
layer 1
 62
     7
370
     9
100
AcDbSpline
210
0.0
220
0.0
230
1.0
 70
    11
 71
     3
 72
    40
 73
    36
 74
     0
 42
0.0000000001
 43
0.0000000001
 12
1.0
 22
0.0
 32
0.0
 13
1.0
 23
0.0
 33
0.0
 40
0.0
 40
0.0
 40
0.0
 40
0.0
 40
0.1
 40
0.1
 40
0.1
 40
0.1
 40
0.2
 40
0.2
 40
0.2
 40
0.2
 40
0.3
 40
0.3
 40
0.3
 40
0.3
 40
0.4
 40
0.4
 40
0.4
 40
0.4
 40
0.5
 40
0.5
 40
0.5
 40
0.5
 40
0.6
 40
0.6
 40
0.6
 40
0.6
 40
0.7
 40
0.7
 40
0.7
 40
0.7
 40
0.8
 40
0.8
 40
0.8
 40
0.8
 40
1.0
 40
1.0
 40
1.0
 40
1.0
 10
-63.1695
 20
-30.7422
 30
0.0
 10
-60.918
 20
-35.8733
 30
0.0
 10
-56.4269
 20
-30.302
 30
0.0
 10
-60.6065
 20
-29.7774
 30
0.0
 10
-60.6065
 20
-29.7774
 30
0.0
 10
-55.1763
 20
-28.3178
 30
0.0
 10
-54.0679
 20
-40.0022
 30
0.0
 10
-59.7904
 20
-42.3649
 30
0.0
 10
-59.7904
 20
-42.3649
 30
0.0
 10
-59.8747
 20
-42.3598
 30
0.0
 10
-60.1334
 20
-42.3321
 30
0.0
 10
-60.0187
 20
-42.0297
 30
0.0
 10
-60.0187
 20
-42.0297
 30
0.0
 10
-57.7165
 20
-40.1481
 30
0.0
 10
-58.5586
 20
-37.4966
 30
0.0
 10
-60.8442
 20
-38.6418
 30
0.0
 10
-60.8442
 20
-38.6418
 30
0.0
 10
-61.6158
 20
-35.4194
 30
0.0
 10
-64.6069
 20
-36.5139
 30
0.0
 10
-65.0714
 20
-36.8517
 30
0.0
 10
-65.0714
 20
-36.8517
 30
0.0
 10
-60.9683
 20
-39.3933
 30
0.0
 10
-64.213
 20
-43.849
 30
0.0
 10
-66.3734
 20
-44.4067
 30
0.0
 10
-66.3734
 20
-44.4067
 30
0.0
 10
-68.928
 20
-45.0661
 30
0.0
 10
-71.5027
 20
-44.709
 30
0.0
 10
-73.8712
 20
-44.2742
 30
0.0
 10
-73.8712
 20
-44.2742
 30
0.0
 10
-73.6911
 20
-43.089
 30
0.0
 10
-73.7269
 20
-42.0045
 30
0.0
 10
-73.6271
 20
-40.5062
 30
0.0
 10
-73.6271
 20
-40.5062
 30
0.0
 10
-68.8123
 20
-39.0936
 30
0.0
 10
-65.5742
 20
-36.9585
 30
0.0
 10
-63.1695
 20
-30.7422
 30
0.0
  0
SPLINE
  5
82
330
1F
100
AcDbEntity
  8
layer 1
 62
     7
370
     9
100
AcDbSpline
210
0.0
220
0.0
230
1.0
 70
    11
 71
     3
 72
    60
 73
    56
 74
     0
 42
0.0000000001
 43
0.0000000001
 12
1.0
 22
0.0
 32
0.0
 13
1.0
 23
0.0
 33
0.0
 40
0.0
 40
0.0
 40
0.0
 40
0.0
 40
0.0666666666666667
 40
0.0666666666666667
 40
0.0666666666666667
 40
0.0666666666666667
 40
0.1333333333333333
 40
0.1333333333333333
 40
0.1333333333333333
 40
0.1333333333333333
 40
0.2
 40
0.2
 40
0.2
 40
0.2
 40
0.2666666666666667
 40
0.2666666666666667
 40
0.2666666666666667
 40
0.2666666666666667
 40
0.3333333333333333
 40
0.3333333333333333
 40
0.3333333333333333
 40
0.3333333333333333
 40
0.4
 40
0.4
 40
0.4
 40
0.4
 40
0.4666666666666667
 40
0.4666666666666667
 40
0.4666666666666667
 40
0.4666666666666667
 40
0.5333333333333333
 40
0.5333333333333333
 40
0.5333333333333333
 40
0.5333333333333333
 40
0.6
 40
0.6
 40
0.6
 40
0.6
 40
0.6666666666666666
 40
0.6666666666666666
 40
0.6666666666666666
 40
0.6666666666666666
 40
0.7333333333333333
 40
0.7333333333333333
 40
0.7333333333333333
 40
0.7333333333333333
 40
0.8
 40
0.8
 40
0.8
 40
0.8
 40
0.8666666666666667
 40
0.8666666666666667
 40
0.8666666666666667
 40
0.8666666666666667
 40
1.0
 40
1.0
 40
1.0
 40
1.0
 10
-49.9837
 20
-65.2237
 30
0.0
 10
-49.9837
 20
-65.2237
 30
0.0
 10
-49.951
 20
-53.6882
 30
0.0
 10
-49.951
 20
-53.6882
 30
0.0
 10
-49.951
 20
-53.6882
 30
0.0
 10
-50.8935
 20
-58.4127
 30
0.0
 10
-57.4597
 20
-61.3697
 30
0.0
 10
-62.687
 20
-59.511
 30
0.0
 10
-62.687
 20
-59.511
 30
0.0
 10
-61.7206
 20
-60.5062
 30
0.0
 10
-61.5224
 20
-61.7382
 30
0.0
 10
-61.8197
 20
-62.2495
 30
0.0
 10
-61.8197
 20
-62.2495
 30
0.0
 10
-62.1734
 20
-62.1698
 30
0.0
 10
-62.5758
 20
-61.6465
 30
0.0
 10
-63.1268
 20
-61.632
 30
0.0
 10
-63.1268
 20
-61.632
 30
0.0
 10
-68.7226
 20
-61.4844
 30
0.0
 10
-75.7335
 20
-53.5416
 30
0.0
 10
-77.125
 20
-50.9158
 30
0.0
 10
-77.125
 20
-50.9158
 30
0.0
 10
-77.931
 20
-51.7401
 30
0.0
 10
-78.296
 20
-52.1447
 30
0.0
 10
-78.6366
 20
-52.3877
 30
0.0
 10
-78.6366
 20
-52.3877
 30
0.0
 10
-75.7928
 20
-57.6167
 30
0.0
 10
-66.776
 20
-65.6621
 30
0.0
 10
-61.3351
 20
-63.7448
 30
0.0
 10
-61.3351
 20
-63.7448
 30
0.0
 10
-61.0752
 20
-64.3282
 30
0.0
 10
-61.3064
 20
-65.3354
 30
0.0
 10
-62.8835
 20
-65.823
 30
0.0
 10
-62.8835
 20
-65.823
 30
0.0
 10
-61.7485
 20
-67.5555
 30
0.0
 10
-63.4508
 20
-68.8416
 30
0.0
 10
-65.2162
 20
-66.6556
 30
0.0
 10
-65.2162
 20
-66.6556
 30
0.0
 10
-65.6185
 20
-66.1574
 30
0.0
 10
-66.1049
 20
-65.7684
 30
0.0
 10
-66.7662
 20
-65.4927
 30
0.0
 10
-66.7662
 20
-65.4927
 30
0.0
 10
-67.8097
 20
-65.1749
 30
0.0
 10
-67.4381
 20
-65.9433
 30
0.0
 10
-67.3812
 20
-66.1842
 30
0.0
 10
-67.3812
 20
-66.1842
 30
0.0
 10
-66.5408
 20
-68.4173
 30
0.0
 10
-57.4744
 20
-71.4327
 30
0.0
 10
-55.4128
 20
-65.9325
 30
0.0
 10
-55.4128
 20
-65.9325
 30
0.0
 10
-60.9892
 20
-68.0875
 30
0.0
 10
-60.1734
 20
-62.0167
 30
0.0
 10
-57.5169
 20
-61.4271
 30
0.0
 10
-57.5169
 20
-61.4271
 30
0.0
 10
-54.0701
 20
-60.0059
 30
0.0
 10
-50.5786
 20
-62.1025
 30
0.0
 10
-49.9837
 20
-65.2237
 30
0.0
  0
SPLINE
  5
83
330
1F
100
AcDbEntity
  8
layer 1
 62
     7
370
     9
100
AcDbSpline
210
0.0
220
0.0
230
1.0
 70
    11
 71
     3
 72
    16
 73
    12
 74
     0
 42
0.0000000001
 43
0.0000000001
 12
1.0
 22
0.0
 32
0.0
 13
1.0
 23
0.0
 33
0.0
 40
0.0
 40
0.0
 40
0.0
 40
0.0
 40
0.25
 40
0.25
 40
0.25
 40
0.25
 40
0.5
 40
0.5
 40
0.5
 40
0.5
 40
1.0
 40
1.0
 40
1.0
 40
1.0
 10
-84.9276
 20
-85.2523
 30
0.0
 10
-83.6269
 20
-81.2834
 30
0.0
 10
-95.6096
 20
-78.1489
 30
0.0
 10
-95.4136
 20
-90.2449
 30
0.0
 10
-95.4136
 20
-90.2449
 30
0.0
 10
-94.4928
 20
-90.2436
 30
0.0
 10
-94.4858
 20
-90.196
 30
0.0
 10
-93.4581
 20
-90.2541
 30
0.0
 10
-93.4581
 20
-90.2541
 30
0.0
 10
-93.4647
 20
-84.3401
 30
0.0
 10
-87.1893
 20
-84.1656
 30
0.0
 10
-84.9276
 20
-85.2523
 30
0.0
  0
SPLINE
  5
84
330
1F
100
AcDbEntity
  8
layer 1
 62
     7
370
     9
100
AcDbSpline
210
0.0
220
0.0
230
1.0
 70
    11
 71
     3
 72
    24
 73
    20
 74
     0
 42
0.0000000001
 43
0.0000000001
 12
1.0
 22
0.0
 32
0.0
 13
1.0
 23
0.0
 33
0.0
 40
0.0
 40
0.0
 40
0.0
 40
0.0
 40
0.1666666666666667
 40
0.1666666666666667
 40
0.1666666666666667
 40
0.1666666666666667
 40
0.3333333333333333
 40
0.3333333333333333
 40
0.3333333333333333
 40
0.3333333333333333
 40
0.5
 40
0.5
 40
0.5
 40
0.5
 40
0.6666666666666666
 40
0.6666666666666666
 40
0.6666666666666666
 40
0.6666666666666666
 40
1.0
 40
1.0
 40
1.0
 40
1.0
 10
-82.9792
 20
-98.5042
 30
0.0
 10
-86.165
 20
-99.0995
 30
0.0
 10
-91.2995
 20
-98.6836
 30
0.0
 10
-92.7837
 20
-94.1209
 30
0.0
 10
-92.7837
 20
-94.1209
 30
0.0
 10
-94.0322
 20
-94.348
 30
0.0
 10
-94.3071
 20
-94.3327
 30
0.0
 10
-94.9785
 20
-94.3998
 30
0.0
 10
-94.9785
 20
-94.3998
 30
0.0
 10
-94.6436
 20
-97.4962
 30
0.0
 10
-90.1866
 20
-103.135
 30
0.0
 10
-83.0632
 20
-101.6853
 30
0.0
 10
-83.0632
 20
-101.6853
 30
0.0
 10
-79.0025
 20
-100.9541
 30
0.0
 10
-81.4393
 20
-97.0758
 30
0.0
 10
-83.5941
 20
-100.6102
 30
0.0
 10
-83.5941
 20
-100.6102
 30
0.0
 10
-84.0485
 20
-100.0441
 30
0.0
 10
-83.7808
 20
-99.054
 30
0.0
 10
-82.9792
 20
-98.5042
 30
0.0
  0
SPLINE
  5
85
330
1F
100
AcDbEntity
  8
layer 1
 62
     7
370
     9
100
AcDbSpline
210
0.0
220
0.0
230
1.0
 70
    11
 71
     3
 72
    12
 73
     8
 74
     0
 42
0.0000000001
 43
0.0000000001
 12
1.0
 22
0.0
 32
0.0
 13
1.0
 23
0.0
 33
0.0
 40
0.0
 40
0.0
 40
0.0
 40
0.0
 40
0.3333333333333333
 40
0.3333333333333333
 40
0.3333333333333333
 40
0.3333333333333333
 40
1.0
 40
1.0
 40
1.0
 40
1.0
 10
-88.7968
 20
-105.6618
 30
0.0
 10
-90.9219
 20
-107.5967
 30
0.0
 10
-97.2734
 20
-104.3506
 30
0.0
 10
-95.7927
 20
-98.9992
 30
0.0
 10
-95.7927
 20
-98.9992
 30
0.0
 10
-94.2838
 20
-101.6588
 30
0.0
 10
-92.7225
 20
-103.8938
 30
0.0
 10
-88.7968
 20
-105.6618
 30
0.0
  0
SPLINE
  5
86
330
1F
100
AcDbEntity
  8
layer 1
 62
     7
370
     9
100
AcDbSpline
210
0.0
220
0.0
230
1.0
 70
    11
 71
     3
 72
    76
 73
    72
 74
     0
 42
0.0000000001
 43
0.0000000001
 12
1.0
 22
0.0
 32
0.0
 13
1.0
 23
0.0
 33
0.0
 40
0.0
 40
0.0
 40
0.0
 40
0.0
 40
0.0526315789473684
 40
0.0526315789473684
 40
0.0526315789473684
 40
0.0526315789473684
 40
0.1052631578947368
 40
0.1052631578947368
 40
0.1052631578947368
 40
0.1052631578947368
 40
0.1578947368421053
 40
0.1578947368421053
 40
0.1578947368421053
 40
0.1578947368421053
 40
0.2105263157894737
 40
0.2105263157894737
 40
0.2105263157894737
 40
0.2105263157894737
 40
0.2631578947368421
 40
0.2631578947368421
 40
0.2631578947368421
 40
0.2631578947368421
 40
0.3157894736842105
 40
0.3157894736842105
 40
0.3157894736842105
 40
0.3157894736842105
 40
0.3684210526315789
 40
0.3684210526315789
 40
0.3684210526315789
 40
0.3684210526315789
 40
0.4210526315789473
 40
0.4210526315789473
 40
0.4210526315789473
 40
0.4210526315789473
 40
0.4736842105263158
 40
0.4736842105263158
 40
0.4736842105263158
 40
0.4736842105263158
 40
0.5263157894736842
 40
0.5263157894736842
 40
0.5263157894736842
 40
0.5263157894736842
 40
0.5789473684210527
 40
0.5789473684210527
 40
0.5789473684210527
 40
0.5789473684210527
 40
0.631578947368421
 40
0.631578947368421
 40
0.631578947368421
 40
0.631578947368421
 40
0.6842105263157895
 40
0.6842105263157895
 40
0.6842105263157895
 40
0.6842105263157895
 40
0.7368421052631579
 40
0.7368421052631579
 40
0.7368421052631579
 40
0.7368421052631579
 40
0.7894736842105263
 40
0.7894736842105263
 40
0.7894736842105263
 40
0.7894736842105263
 40
0.8421052631578947
 40
0.8421052631578947
 40
0.8421052631578947
 40
0.8421052631578947
 40
0.8947368421052632
 40
0.8947368421052632
 40
0.8947368421052632
 40
0.8947368421052632
 40
1.0
 40
1.0
 40
1.0
 40
1.0
 10
-89.6882
 20
-89.8542
 30
0.0
 10
-89.6614
 20
-89.5371
 30
0.0
 10
-89.0017
 20
-89.4828
 30
0.0
 10
-88.9882
 20
-89.7655
 30
0.0
 10
-88.9882
 20
-89.7655
 30
0.0
 10
-87.6727
 20
-95.3031
 30
0.0
 10
-80.2283
 20
-91.2887
 30
0.0
 10
-83.9527
 20
-85.9984
 30
0.0
 10
-83.9527
 20
-85.9984
 30
0.0
 10
-82.1607
 20
-85.4807
 30
0.0
 10
-79.4734
 20
-78.9898
 30
0.0
 10
-86.4156
 20
-78.6411
 30
0.0
 10
-86.4156
 20
-78.6411
 30
0.0
 10
-84.6987
 20
-73.0819
 30
0.0
 10
-94.7942
 20
-74.9295
 30
0.0
 10
-95.3504
 20
-79.5761
 30
0.0
 10
-95.3504
 20
-79.5761
 30
0.0
 10
-95.5108
 20
-80.1712
 30
0.0
 10
-96.5242
 20
-80.0694
 30
0.0
 10
-96.607
 20
-79.6048
 30
0.0
 10
-96.607
 20
-79.6048
 30
0.0
 10
-96.9353
 20
-78.0473
 30
0.0
 10
-97.6472
 20
-75.5967
 30
0.0
 10
-93.7323
 20
-74.0176
 30
0.0
 10
-93.7323
 20
-74.0176
 30
0.0
 10
-93.5116
 20
-72.924
 30
0.0
 10
-93.603
 20
-72.3675
 30
0.0
 10
-93.6282
 20
-70.7087
 30
0.0
 10
-93.6282
 20
-70.7087
 30
0.0
 10
-89.5797
 20
-76.0225
 30
0.0
 10
-83.7657
 20
-71.2668
 30
0.0
 10
-84.5807
 20
-67.473
 30
0.0
 10
-84.5807
 20
-67.473
 30
0.0
 10
-85.9996
 20
-61.7242
 30
0.0
 10
-91.2713
 20
-65.1489
 30
0.0
 10
-90.2927
 20
-67.0793
 30
0.0
 10
-90.2927
 20
-67.0793
 30
0.0
 10
-84.8559
 20
-64.5229
 30
0.0
 10
-87.8031
 20
-72.7499
 30
0.0
 10
-92.0674
 20
-68.3248
 30
0.0
 10
-92.0674
 20
-68.3248
 30
0.0
 10
-93.3984
 20
-65.5285
 30
0.0
 10
-91.4993
 20
-64.5027
 30
0.0
 10
-91.257
 20
-62.4025
 30
0.0
 10
-91.257
 20
-62.4025
 30
0.0
 10
-91.0432
 20
-60.5494
 30
0.0
 10
-92.3135
 20
-58.4557
 30
0.0
 10
-95.4649
 20
-58.5241
 30
0.0
 10
-95.4649
 20
-58.5241
 30
0.0
 10
-95.5071
 20
-58.0489
 30
0.0
 10
-95.3826
 20
-56.2472
 30
0.0
 10
-95.4249
 20
-55.7382
 30
0.0
 10
-95.4249
 20
-55.7382
 30
0.0
 10
-93.5461
 20
-56.036
 30
0.0
 10
-92.4792
 20
-52.9498
 30
0.0
 10
-95.7614
 20
-52.7419
 30
0.0
 10
-95.7614
 20
-52.7419
 30
0.0
 10
-95.5946
 20
-49.0275
 30
0.0
 10
-90.8388
 20
-52.758
 30
0.0
 10
-90.2908
 20
-49.1424
 30
0.0
 10
-90.2908
 20
-49.1424
 30
0.0
 10
-88.8409
 20
-54.4266
 30
0.0
 10
-82.7403
 20
-60.6002
 30
0.0
 10
-80.0103
 20
-70.9134
 30
0.0
 10
-80.0103
 20
-70.9134
 30
0.0
 10
-77.6688
 20
-77.6069
 30
0.0
 10
-77.6597
 20
-87.5693
 30
0.0
 10
-80.5261
 20
-91.7624
 30
0.0
 10
-80.5261
 20
-91.7624
 30
0.0
 10
-82.2523
 20
-94.7986
 30
0.0
 10
-89.7368
 20
-95.6499
 30
0.0
 10
-89.6882
 20
-89.8542
 30
0.0
  0
SPLINE
  5
87
330
1F
100
AcDbEntity
  8
layer 1
 62
     7
370
     9
100
AcDbSpline
210
0.0
220
0.0
230
1.0
 70
    11
 71
     3
 72
    16
 73
    12
 74
     0
 42
0.0000000001
 43
0.0000000001
 12
1.0
 22
0.0
 32
0.0
 13
1.0
 23
0.0
 33
0.0
 40
0.0
 40
0.0
 40
0.0
 40
0.0
 40
0.25
 40
0.25
 40
0.25
 40
0.25
 40
0.5
 40
0.5
 40
0.5
 40
0.5
 40
1.0
 40
1.0
 40
1.0
 40
1.0
 10
-65.8708
 20
30.4862
 30
0.0
 10
-65.1198
 20
25.7866
 30
0.0
 10
-67.1501
 20
21.5891
 30
0.0
 10
-67.2183
 20
15.5161
 30
0.0
 10
-67.2183
 20
15.5161
 30
0.0
 10
-67.9218
 20
20.7491
 30
0.0
 10
-71.8522
 20
27.2228
 30
0.0
 10
-74.0792
 20
29.3783
 30
0.0
 10
-74.0792
 20
29.3783
 30
0.0
 10
-70.8825
 20
27.9984
 30
0.0
 10
-68.0336
 20
28.2708
 30
0.0
 10
-65.8708
 20
30.4862
 30
0.0
  0
SPLINE
  5
88
330
1F
100
AcDbEntity
  8
layer 1
 62
     7
370
     9
100
AcDbSpline
210
0.0
220
0.0
230
1.0
 70
    11
 71
     3
 72
    16
 73
    12
 74
     0
 42
0.0000000001
 43
0.0000000001
 12
1.0
 22
0.0
 32
0.0
 13
1.0
 23
0.0
 33
0.0
 40
0.0
 40
0.0
 40
0.0
 40
0.0
 40
0.25
 40
0.25
 40
0.25
 40
0.25
 40
0.5
 40
0.5
 40
0.5
 40
0.5
 40
1.0
 40
1.0
 40
1.0
 40
1.0
 10
-50.1986
 20
111.5068
 30
0.0
 10
-52.3137
 20
120.7118
 30
0.0
 10
-60.1473
 20
125.5626
 30
0.0
 10
-65.0126
 20
127.0629
 30
0.0
 10
-65.0126
 20
127.0629
 30
0.0
 10
-65.0126
 20
127.0629
 30
0.0
 10
-49.931
 20
126.9553
 30
0.0
 10
-49.931
 20
126.9553
 30
0.0
 10
-49.931
 20
126.9553
 30
0.0
 10
-49.931
 20
126.9553
 30
0.0
 10
-50.1986
 20
111.5068
 30
0.0
 10
-50.1986
 20
111.5068
 30
0.0
  0
SPLINE
  5
89
330
1F
100
AcDbEntity
  8
layer 1
 62
     7
370
     9
100
AcDbSpline
210
0.0
220
0.0
230
1.0
 70
    11
 71
     3
 72
    16
 73
    12
 74
     0
 42
0.0000000001
 43
0.0000000001
 12
1.0
 22
0.0
 32
0.0
 13
1.0
 23
0.0
 33
0.0
 40
0.0
 40
0.0
 40
0.0
 40
0.0
 40
0.25
 40
0.25
 40
0.25
 40
0.25
 40
0.5
 40
0.5
 40
0.5
 40
0.5
 40
1.0
 40
1.0
 40
1.0
 40
1.0
 10
-70.7818
 20
124.6382
 30
0.0
 10
-70.7818
 20
124.6382
 30
0.0
 10
-70.7872
 20
127.0423
 30
0.0
 10
-70.7872
 20
127.0423
 30
0.0
 10
-70.7872
 20
127.0423
 30
0.0
 10
-70.7872
 20
127.0423
 30
0.0
 10
-73.658
 20
127.1002
 30
0.0
 10
-73.658
 20
127.1002
 30
0.0
 10
-73.658
 20
127.1002
 30
0.0
 10
-72.0964
 20
126.6246
 30
0.0
 10
-71.4763
 20
125.9013
 30
0.0
 10
-70.7818
 20
124.6382
 30
0.0
  0
SPLINE
  5
8A
330
1F
100
AcDbEntity
  8
layer 1
 62
     7
370
     9
100
AcDbSpline
210
0.0
220
0.0
230
1.0
 70
    11
 71
     3
 72
    24
 73
    20
 74
     0
 42
0.0000000001
 43
0.0000000001
 12
1.0
 22
0.0
 32
0.0
 13
1.0
 23
0.0
 33
0.0
 40
0.0
 40
0.0
 40
0.0
 40
0.0
 40
0.1666666666666667
 40
0.1666666666666667
 40
0.1666666666666667
 40
0.1666666666666667
 40
0.3333333333333333
 40
0.3333333333333333
 40
0.3333333333333333
 40
0.3333333333333333
 40
0.5
 40
0.5
 40
0.5
 40
0.5
 40
0.6666666666666666
 40
0.6666666666666666
 40
0.6666666666666666
 40
0.6666666666666666
 40
1.0
 40
1.0
 40
1.0
 40
1.0
 10
-70.1205
 20
123.072
 30
0.0
 10
-65.0455
 20
123.3357
 30
0.0
 10
-57.97
 20
118.3376
 30
0.0
 10
-57.0331
 20
115.9204
 30
0.0
 10
-57.0331
 20
115.9204
 30
0.0
 10
-55.6993
 20
114.7168
 30
0.0
 10
-59.883
 20
118.5924
 30
0.0
 10
-60.8257
 20
117.5443
 30
0.0
 10
-60.8257
 20
117.5443
 30
0.0
 10
-60.0911
 20
116.2518
 30
0.0
 10
-60.1192
 20
114.8864
 30
0.0
 10
-60.6101
 20
114.1442
 30
0.0
 10
-60.6101
 20
114.1442
 30
0.0
 10
-62.4452
 20
117.2488
 30
0.0
 10
-67.1665
 20
120.3516
 30
0.0
 10
-72.0096
 20
118.3361
 30
0.0
 10
-72.0096
 20
118.3361
 30
0.0
 10
-69.9352
 20
119.3525
 30
0.0
 10
-70.0596
 20
122.2009
 30
0.0
 10
-70.1205
 20
123.072
 30
0.0
  0
SPLINE
  5
8B
330
1F
100
AcDbEntity
  8
layer 1
 62
     7
370
     9
100
AcDbSpline
210
0.0
220
0.0
230
1.0
 70
    11
 71
     3
 72
    48
 73
    44
 74
     0
 42
0.0000000001
 43
0.0000000001
 12
1.0
 22
0.0
 32
0.0
 13
1.0
 23
0.0
 33
0.0
 40
0.0
 40
0.0
 40
0.0
 40
0.0
 40
0.0833333333333333
 40
0.0833333333333333
 40
0.0833333333333333
 40
0.0833333333333333
 40
0.1666666666666667
 40
0.1666666666666667
 40
0.1666666666666667
 40
0.1666666666666667
 40
0.25
 40
0.25
 40
0.25
 40
0.25
 40
0.3333333333333333
 40
0.3333333333333333
 40
0.3333333333333333
 40
0.3333333333333333
 40
0.4166666666666667
 40
0.4166666666666667
 40
0.4166666666666667
 40
0.4166666666666667
 40
0.5
 40
0.5
 40
0.5
 40
0.5
 40
0.5833333333333334
 40
0.5833333333333334
 40
0.5833333333333334
 40
0.5833333333333334
 40
0.6666666666666666
 40
0.6666666666666666
 40
0.6666666666666666
 40
0.6666666666666666
 40
0.75
 40
0.75
 40
0.75
 40
0.75
 40
0.8333333333333334
 40
0.8333333333333334
 40
0.8333333333333334
 40
0.8333333333333334
 40
1.0
 40
1.0
 40
1.0
 40
1.0
 10
-49.9419
 20
106.4768
 30
0.0
 10
-49.9419
 20
106.4768
 30
0.0
 10
-49.9268
 20
85.1123
 30
0.0
 10
-49.9268
 20
85.1123
 30
0.0
 10
-49.9268
 20
85.1123
 30
0.0
 10
-51.0935
 20
89.1289
 30
0.0
 10
-55.1455
 20
91.9956
 30
0.0
 10
-59.5976
 20
90.5526
 30
0.0
 10
-59.5976
 20
90.5526
 30
0.0
 10
-58.205
 20
91.3219
 30
0.0
 10
-58.3626
 20
92.9216
 30
0.0
 10
-58.724
 20
93.3378
 30
0.0
 10
-58.724
 20
93.3378
 30
0.0
 10
-59.8303
 20
91.4999
 30
0.0
 10
-61.7452
 20
92.2178
 30
0.0
 10
-63.7565
 20
91.3327
 30
0.0
 10
-63.7565
 20
91.3327
 30
0.0
 10
-65.6471
 20
90.3981
 30
0.0
 10
-67.3158
 20
89.3521
 30
0.0
 10
-69.3778
 20
86.8262
 30
0.0
 10
-69.3778
 20
86.8262
 30
0.0
 10
-65.9594
 20
96.095
 30
0.0
 10
-55.5147
 20
97.0672
 30
0.0
 10
-54.7422
 20
94.047
 30
0.0
 10
-54.7422
 20
94.047
 30
0.0
 10
-54.0573
 20
94.6866
 30
0.0
 10
-54.8727
 20
97.2453
 30
0.0
 10
-56.309
 20
97.4505
 30
0.0
 10
-56.309
 20
97.4505
 30
0.0
 10
-55.1705
 20
100.7525
 30
0.0
 10
-58.3205
 20
99.9527
 30
0.0
 10
-59.383
 20
99.3358
 30
0.0
 10
-59.383
 20
99.3358
 30
0.0
 10
-55.6529
 20
102.8162
 30
0.0
 10
-54.1691
 20
107.1854
 30
0.0
 10
-55.2174
 20
112.5349
 30
0.0
 10
-55.2174
 20
112.5349
 30
0.0
 10
-53.7621
 20
109.9451
 30
0.0
 10
-53.9405
 20
106.3874
 30
0.0
 10
-53.8107
 20
106.3903
 30
0.0
 10
-53.8107
 20
106.3903
 30
0.0
 10
-53.8107
 20
106.3903
 30
0.0
 10
-49.9419
 20
106.4768
 30
0.0
 10
-49.9419
 20
106.4768
 30
0.0
  0
SPLINE
  5
8C
330
1F
100
AcDbEntity
  8
layer 1
 62
     7
370
     9
100
AcDbSpline
210
0.0
220
0.0
230
1.0
 70
    11
 71
     3
 72
    80
 73
    76
 74
     0
 42
0.0000000001
 43
0.0000000001
 12
1.0
 22
0.0
 32
0.0
 13
1.0
 23
0.0
 33
0.0
 40
0.0
 40
0.0
 40
0.0
 40
0.0
 40
0.05
 40
0.05
 40
0.05
 40
0.05
 40
0.1
 40
0.1
 40
0.1
 40
0.1
 40
0.15
 40
0.15
 40
0.15
 40
0.15
 40
0.2
 40
0.2
 40
0.2
 40
0.2
 40
0.25
 40
0.25
 40
0.25
 40
0.25
 40
0.3
 40
0.3
 40
0.3
 40
0.3
 40
0.35
 40
0.35
 40
0.35
 40
0.35
 40
0.4
 40
0.4
 40
0.4
 40
0.4
 40
0.45
 40
0.45
 40
0.45
 40
0.45
 40
0.5
 40
0.5
 40
0.5
 40
0.5
 40
0.55
 40
0.55
 40
0.55
 40
0.55
 40
0.6
 40
0.6
 40
0.6
 40
0.6
 40
0.65
 40
0.65
 40
0.65
 40
0.65
 40
0.7
 40
0.7
 40
0.7
 40
0.7
 40
0.75
 40
0.75
 40
0.75
 40
0.75
 40
0.8
 40
0.8
 40
0.8
 40
0.8
 40
0.85
 40
0.85
 40
0.85
 40
0.85
 40
0.9
 40
0.9
 40
0.9
 40
0.9
 40
1.0
 40
1.0
 40
1.0
 40
1.0
 10
-75.7021
 20
108.8792
 30
0.0
 10
-74.735
 20
107.32
 30
0.0
 10
-72.1839
 20
107.6476
 30
0.0
 10
-71.8033
 20
108.397
 30
0.0
 10
-71.8033
 20
108.397
 30
0.0
 10
-70.6138
 20
107.4959
 30
0.0
 10
-68.342
 20
106.9628
 30
0.0
 10
-68.6998
 20
111.0791
 30
0.0
 10
-68.6998
 20
111.0791
 30
0.0
 10
-71.7
 20
108.9537
 30
0.0
 10
-72.8614
 20
113.1465
 30
0.0
 10
-69.7816
 20
114.6818
 30
0.0
 10
-69.7816
 20
114.6818
 30
0.0
 10
-68.6555
 20
115.2432
 30
0.0
 10
-64.8784
 20
116.1008
 30
0.0
 10
-63.1031
 20
112.5344
 30
0.0
 10
-63.1031
 20
112.5344
 30
0.0
 10
-66.0686
 20
114.5521
 30
0.0
 10
-67.54
 20
113.2122
 30
0.0
 10
-67.7221
 20
111.0997
 30
0.0
 10
-67.7221
 20
111.0997
 30
0.0
 10
-66.0459
 20
110.8084
 30
0.0
 10
-63.7222
 20
110.0031
 30
0.0
 10
-63.2598
 20
107.0292
 30
0.0
 10
-63.2598
 20
107.0292
 30
0.0
 10
-62.8536
 20
104.4166
 30
0.0
 10
-63.0411
 20
102.2874
 30
0.0
 10
-66.4867
 20
97.6974
 30
0.0
 10
-66.4867
 20
97.6974
 30
0.0
 10
-66.0802
 20
98.8713
 30
0.0
 10
-66.0979
 20
99.2816
 30
0.0
 10
-66.0539
 20
99.9189
 30
0.0
 10
-66.0539
 20
99.9189
 30
0.0
 10
-65.9814
 20
100.9695
 30
0.0
 10
-66.2318
 20
102.305
 30
0.0
 10
-66.4814
 20
103.402
 30
0.0
 10
-66.4814
 20
103.402
 30
0.0
 10
-66.7474
 20
103.6092
 30
0.0
 10
-67.9636
 20
103.436
 30
0.0
 10
-68.803
 20
101.9551
 30
0.0
 10
-68.803
 20
101.9551
 30
0.0
 10
-69.1589
 20
103.2895
 30
0.0
 10
-70.61
 20
104.8617
 30
0.0
 10
-72.6831
 20
103.5598
 30
0.0
 10
-72.6831
 20
103.5598
 30
0.0
 10
-72.7252
 20
103.0846
 30
0.0
 10
-72.2936
 20
102.906
 30
0.0
 10
-72.3359
 20
102.397
 30
0.0
 10
-72.3359
 20
102.397
 30
0.0
 10
-72.5189
 20
100.1944
 30
0.0
 10
-72.3733
 20
99.3454
 30
0.0
 10
-70.7423
 20
98.5672
 30
0.0
 10
-70.7423
 20
98.5672
 30
0.0
 10
-70.4878
 20
96.0373
 30
0.0
 10
-71.2593
 20
92.1349
 30
0.0
 10
-72.8607
 20
86.94
 30
0.0
 10
-72.8607
 20
86.94
 30
0.0
 10
-73.054
 20
87.284
 30
0.0
 10
-73.0333
 20
87.9947
 30
0.0
 10
-73.2328
 20
88.3979
 30
0.0
 10
-73.2328
 20
88.3979
 30
0.0
 10
-73.4733
 20
88.8843
 30
0.0
 10
-74.0777
 20
89.0456
 30
0.0
 10
-74.3249
 20
89.5482
 30
0.0
 10
-74.3249
 20
89.5482
 30
0.0
 10
-74.4332
 20
89.7685
 30
0.0
 10
-74.143
 20
90.3605
 30
0.0
 10
-74.2927
 20
90.5501
 30
0.0
 10
-74.2927
 20
90.5501
 30
0.0
 10
-74.4516
 20
90.7513
 30
0.0
 10
-74.7496
 20
90.4927
 30
0.0
 10
-75.0717
 20
90.5622
 30
0.0
 10
-75.0717
 20
90.5622
 30
0.0
 10
-72.2796
 20
100.1347
 30
0.0
 10
-74.3469
 20
105.1996
 30
0.0
 10
-75.7021
 20
108.8792
 30
0.0
  0
SPLINE
  5
8D
330
1F
100
AcDbEntity
  8
layer 1
 62
     7
370
     9
100
AcDbSpline
210
0.0
220
0.0
230
1.0
 70
    11
 71
     3
 72
    24
 73
    20
 74
     0
 42
0.0000000001
 43
0.0000000001
 12
1.0
 22
0.0
 32
0.0
 13
1.0
 23
0.0
 33
0.0
 40
0.0
 40
0.0
 40
0.0
 40
0.0
 40
0.1666666666666667
 40
0.1666666666666667
 40
0.1666666666666667
 40
0.1666666666666667
 40
0.3333333333333333
 40
0.3333333333333333
 40
0.3333333333333333
 40
0.3333333333333333
 40
0.5
 40
0.5
 40
0.5
 40
0.5
 40
0.6666666666666666
 40
0.6666666666666666
 40
0.6666666666666666
 40
0.6666666666666666
 40
1.0
 40
1.0
 40
1.0
 40
1.0
 10
-74.8283
 20
81.7887
 30
0.0
 10
-75.9314
 20
79.4258
 30
0.0
 10
-79.3311
 20
74.122
 30
0.0
 10
-81.3429
 20
71.3662
 30
0.0
 10
-81.3429
 20
71.3662
 30
0.0
 10
-82.4072
 20
71.9906
 30
0.0
 10
-83.0689
 20
72.1618
 30
0.0
 10
-84.0187
 20
72.5147
 30
0.0
 10
-84.0187
 20
72.5147
 30
0.0
 10
-80.9279
 20
75.7618
 30
0.0
 10
-77.3288
 20
82.835
 30
0.0
 10
-76.4241
 20
87.0218
 30
0.0
 10
-76.4241
 20
87.0218
 30
0.0
 10
-76.3849
 20
86.2952
 30
0.0
 10
-76.2851
 20
85.6687
 30
0.0
 10
-76.1321
 20
84.9973
 30
0.0
 10
-76.1321
 20
84.9973
 30
0.0
 10
-75.8596
 20
83.8024
 30
0.0
 10
-74.698
 20
83.3283
 30
0.0
 10
-74.8283
 20
81.7887
 30
0.0
  0
SPLINE
  5
8E
330
1F
100
AcDbEntity
  8
layer 1
 62
     7
370
     9
100
AcDbSpline
210
0.0
220
0.0
230
1.0
 70
    11
 71
     3
 72
    20
 73
    16
 74
     0
 42
0.0000000001
 43
0.0000000001
 12
1.0
 22
0.0
 32
0.0
 13
1.0
 23
0.0
 33
0.0
 40
0.0
 40
0.0
 40
0.0
 40
0.0
 40
0.2
 40
0.2
 40
0.2
 40
0.2
 40
0.4
 40
0.4
 40
0.4
 40
0.4
 40
0.6
 40
0.6
 40
0.6
 40
0.6
 40
1.0
 40
1.0
 40
1.0
 40
1.0
 10
-79.6566
 20
66.5241
 30
0.0
 10
-82.4048
 20
67.2287
 30
0.0
 10
-85.2643
 20
65.3253
 30
0.0
 10
-84.6703
 20
62.6876
 30
0.0
 10
-84.6703
 20
62.6876
 30
0.0
 10
-85.7695
 20
63.8956
 30
0.0
 10
-86.7832
 20
64.3801
 30
0.0
 10
-88.1558
 20
64.9354
 30
0.0
 10
-88.1558
 20
64.9354
 30
0.0
 10
-87.0115
 20
66.6974
 30
0.0
 10
-86.8421
 20
67.0422
 30
0.0
 10
-85.7782
 20
69.4646
 30
0.0
 10
-85.7782
 20
69.4646
 30
0.0
 10
-83.6986
 20
69.337
 30
0.0
 10
-80.9
 20
67.7469
 30
0.0
 10
-79.6566
 20
66.5241
 30
0.0
  0
SPLINE
  5
8F
330
1F
100
AcDbEntity
  8
layer 1
 62
     7
370
     9
100
AcDbSpline
210
0.0
220
0.0
230
1.0
 70
    11
 71
     3
 72
    20
 73
    16
 74
     0
 42
0.0000000001
 43
0.0000000001
 12
1.0
 22
0.0
 32
0.0
 13
1.0
 23
0.0
 33
0.0
 40
0.0
 40
0.0
 40
0.0
 40
0.0
 40
0.2
 40
0.2
 40
0.2
 40
0.2
 40
0.4
 40
0.4
 40
0.4
 40
0.4
 40
0.6
 40
0.6
 40
0.6
 40
0.6
 40
1.0
 40
1.0
 40
1.0
 40
1.0
 10
-76.6451
 20
58.3471
 30
0.0
 10
-79.2446
 20
58.3875
 30
0.0
 10
-79.6278
 20
58.1108
 30
0.0
 10
-81.462
 20
57.8139
 30
0.0
 10
-81.462
 20
57.8139
 30
0.0
 10
-81.5161
 20
58.5532
 30
0.0
 10
-82.1573
 20
59.4286
 30
0.0
 10
-82.6112
 20
60.2465
 30
0.0
 10
-82.6112
 20
60.2465
 30
0.0
 10
-79.2793
 20
59.3834
 30
0.0
 10
-77.729
 20
62.0135
 30
0.0
 10
-78.1525
 20
64.4577
 30
0.0
 10
-78.1525
 20
64.4577
 30
0.0
 10
-76.8386
 20
62.0332
 30
0.0
 10
-76.775
 20
60.7598
 30
0.0
 10
-76.6451
 20
58.3471
 30
0.0
  0
SPLINE
  5
90
330
1F
100
AcDbEntity
  8
layer 1
 62
     7
370
     9
100
AcDbSpline
210
0.0
220
0.0
230
1.0
 70
    11
 71
     3
 72
    28
 73
    24
 74
     0
 42
0.0000000001
 43
0.0000000001
 12
1.0
 22
0.0
 32
0.0
 13
1.0
 23
0.0
 33
0.0
 40
0.0
 40
0.0
 40
0.0
 40
0.0
 40
0.1428571428571428
 40
0.1428571428571428
 40
0.1428571428571428
 40
0.1428571428571428
 40
0.2857142857142857
 40
0.2857142857142857
 40
0.2857142857142857
 40
0.2857142857142857
 40
0.4285714285714285
 40
0.4285714285714285
 40
0.4285714285714285
 40
0.4285714285714285
 40
0.5714285714285714
 40
0.5714285714285714
 40
0.5714285714285714
 40
0.5714285714285714
 40
0.7142857142857143
 40
0.7142857142857143
 40
0.7142857142857143
 40
0.7142857142857143
 40
1.0
 40
1.0
 40
1.0
 40
1.0
 10
-83.1729
 20
57.0557
 30
0.0
 10
-86.5942
 20
55.9268
 30
0.0
 10
-92.1461
 20
50.6115
 30
0.0
 10
-91.0647
 20
44.794
 30
0.0
 10
-91.0647
 20
44.794
 30
0.0
 10
-91.0647
 20
44.794
 30
0.0
 10
-93.4593
 20
44.744
 30
0.0
 10
-93.4593
 20
44.744
 30
0.0
 10
-93.4593
 20
44.744
 30
0.0
 10
-93.3363
 20
49.9643
 30
0.0
 10
-90.196
 20
61.1714
 30
0.0
 10
-88.7839
 20
63.3153
 30
0.0
 10
-88.7839
 20
63.3153
 30
0.0
 10
-88.0302
 20
63.0133
 30
0.0
 10
-87.0289
 20
62.5595
 30
0.0
 10
-86.197
 20
61.7264
 30
0.0
 10
-86.197
 20
61.7264
 30
0.0
 10
-88.7328
 20
60.7099
 30
0.0
 10
-86.6248
 20
56.9404
 30
0.0
 10
-84.2367
 20
59.1194
 30
0.0
 10
-84.2367
 20
59.1194
 30
0.0
 10
-83.8054
 20
58.3951
 30
0.0
 10
-83.4435
 20
57.6748
 30
0.0
 10
-83.1729
 20
57.0557
 30
0.0
  0
SPLINE
  5
91
330
1F
100
AcDbEntity
  8
layer 1
 62
     7
370
     9
100
AcDbSpline
210
0.0
220
0.0
230
1.0
 70
    11
 71
     3
 72
    16
 73
    12
 74
     0
 42
0.0000000001
 43
0.0000000001
 12
1.0
 22
0.0
 32
0.0
 13
1.0
 23
0.0
 33
0.0
 40
0.0
 40
0.0
 40
0.0
 40
0.0
 40
0.25
 40
0.25
 40
0.25
 40
0.25
 40
0.5
 40
0.5
 40
0.5
 40
0.5
 40
1.0
 40
1.0
 40
1.0
 40
1.0
 10
-61.6779
 20
35.7049
 30
0.0
 10
-61.6828
 20
38.8947
 30
0.0
 10
-61.9346
 20
42.9785
 30
0.0
 10
-62.5639
 20
45.2
 30
0.0
 10
-62.5639
 20
45.2
 30
0.0
 10
-60.6358
 20
43.1087
 30
0.0
 10
-56.1025
 20
44.335
 30
0.0
 10
-55.2978
 20
46.516
 30
0.0
 10
-55.2978
 20
46.516
 30
0.0
 10
-55.9878
 20
41.2013
 30
0.0
 10
-60.0807
 20
40.5394
 30
0.0
 10
-61.6779
 20
35.7049
 30
0.0
  0
SPLINE
  5
92
330
1F
100
AcDbEntity
  8
layer 1
 62
     7
370
     9
100
AcDbSpline
210
0.0
220
0.0
230
1.0
 70
    11
 71
     3
 72
    28
 73
    24
 74
     0
 42
0.0000000001
 43
0.0000000001
 12
1.0
 22
0.0
 32
0.0
 13
1.0
 23
0.0
 33
0.0
 40
0.0
 40
0.0
 40
0.0
 40
0.0
 40
0.1428571428571428
 40
0.1428571428571428
 40
0.1428571428571428
 40
0.1428571428571428
 40
0.2857142857142857
 40
0.2857142857142857
 40
0.2857142857142857
 40
0.2857142857142857
 40
0.4285714285714285
 40
0.4285714285714285
 40
0.4285714285714285
 40
0.4285714285714285
 40
0.5714285714285714
 40
0.5714285714285714
 40
0.5714285714285714
 40
0.5714285714285714
 40
0.7142857142857143
 40
0.7142857142857143
 40
0.7142857142857143
 40
0.7142857142857143
 40
1.0
 40
1.0
 40
1.0
 40
1.0
 10
-49.9613
 20
28.8725
 30
0.0
 10
-51.5281
 20
33.977
 30
0.0
 10
-58.7044
 20
30.4197
 30
0.0
 10
-54.4859
 20
27.3717
 30
0.0
 10
-54.4859
 20
27.3717
 30
0.0
 10
-58.3443
 20
26.3707
 30
0.0
 10
-60.8571
 20
33.3288
 30
0.0
 10
-57.0985
 20
35.5029
 30
0.0
 10
-57.0985
 20
35.5029
 30
0.0
 10
-56.7538
 20
33.0351
 30
0.0
 10
-54.3413
 20
32.86
 30
0.0
 10
-53.3274
 20
33.8775
 30
0.0
 10
-53.3274
 20
33.8775
 30
0.0
 10
-56.8361
 20
36.545
 30
0.0
 10
-54.6637
 20
38.4842
 30
0.0
 10
-52.2975
 20
41.9205
 30
0.0
 10
-52.2975
 20
41.9205
 30
0.0
 10
-51.1312
 20
43.6144
 30
0.0
 10
-50.5076
 20
45.7684
 30
0.0
 10
-49.9225
 20
48.5534
 30
0.0
 10
-49.9225
 20
48.5534
 30
0.0
 10
-49.9225
 20
48.5534
 30
0.0
 10
-49.9613
 20
28.8725
 30
0.0
 10
-49.9613
 20
28.8725
 30
0.0
  0
SPLINE
  5
93
330
1F
100
AcDbEntity
  8
layer 1
 62
     7
370
     9
100
AcDbSpline
210
0.0
220
0.0
230
1.0
 70
    11
 71
     3
 72
    36
 73
    32
 74
     0
 42
0.0000000001
 43
0.0000000001
 12
1.0
 22
0.0
 32
0.0
 13
1.0
 23
0.0
 33
0.0
 40
0.0
 40
0.0
 40
0.0
 40
0.0
 40
0.1111111111111111
 40
0.1111111111111111
 40
0.1111111111111111
 40
0.1111111111111111
 40
0.2222222222222222
 40
0.2222222222222222
 40
0.2222222222222222
 40
0.2222222222222222
 40
0.3333333333333333
 40
0.3333333333333333
 40
0.3333333333333333
 40
0.3333333333333333
 40
0.4444444444444444
 40
0.4444444444444444
 40
0.4444444444444444
 40
0.4444444444444444
 40
0.5555555555555556
 40
0.5555555555555556
 40
0.5555555555555556
 40
0.5555555555555556
 40
0.6666666666666666
 40
0.6666666666666666
 40
0.6666666666666666
 40
0.6666666666666666
 40
0.7777777777777778
 40
0.7777777777777778
 40
0.7777777777777778
 40
0.7777777777777778
 40
1.0
 40
1.0
 40
1.0
 40
1.0
 10
-76.1187
 20
31.8514
 30
0.0
 10
-78.7182
 20
34.3045
 30
0.0
 10
-85.0234
 20
38.1952
 30
0.0
 10
-87.2085
 20
38.4685
 30
0.0
 10
-87.2085
 20
38.4685
 30
0.0
 10
-88.4909
 20
47.411
 30
0.0
 10
-82.245
 20
51.3132
 30
0.0
 10
-77.9612
 20
51.9117
 30
0.0
 10
-77.9612
 20
51.9117
 30
0.0
 10
-72.4361
 20
53.1104
 30
0.0
 10
-69.7452
 20
42.1855
 30
0.0
 10
-75.6521
 20
45.2
 30
0.0
 10
-75.6521
 20
45.2
 30
0.0
 10
-75.7027
 20
43.8056
 30
0.0
 10
-74.6575
 20
41.8009
 30
0.0
 10
-72.0695
 20
43.1363
 30
0.0
 10
-72.0695
 20
43.1363
 30
0.0
 10
-71.587
 20
42.5598
 30
0.0
 10
-69.1948
 20
40.6489
 30
0.0
 10
-69.1465
 20
46.1078
 30
0.0
 10
-69.1465
 20
46.1078
 30
0.0
 10
-65.483
 20
43.1757
 30
0.0
 10
-64.9485
 20
30.7677
 30
0.0
 10
-72.7264
 20
32.8788
 30
0.0
 10
-72.7264
 20
32.8788
 30
0.0
 10
-68.3489
 20
34.0876
 30
0.0
 10
-71.173
 20
37.429
 30
0.0
 10
-73.0835
 20
36.9615
 30
0.0
 10
-73.0835
 20
36.9615
 30
0.0
 10
-73.9277
 20
36.7549
 30
0.0
 10
-77.5012
 20
36.088
 30
0.0
 10
-76.1187
 20
31.8514
 30
0.0
  0
SPLINE
  5
94
330
1F
100
AcDbEntity
  8
layer 1
 62
     7
370
     9
100
AcDbSpline
210
0.0
220
0.0
230
1.0
 70
    11
 71
     3
 72
    16
 73
    12
 74
     0
 42
0.0000000001
 43
0.0000000001
 12
1.0
 22
0.0
 32
0.0
 13
1.0
 23
0.0
 33
0.0
 40
0.0
 40
0.0
 40
0.0
 40
0.0
 40
0.25
 40
0.25
 40
0.25
 40
0.25
 40
0.5
 40
0.5
 40
0.5
 40
0.5
 40
1.0
 40
1.0
 40
1.0
 40
1.0
 10
-49.9688
 20
69.0244
 30
0.0
 10
-49.9688
 20
69.0244
 30
0.0
 10
-49.9247
 20
53.4529
 30
0.0
 10
-49.9247
 20
53.4529
 30
0.0
 10
-49.9247
 20
53.4529
 30
0.0
 10
-50.7944
 20
58.3956
 30
0.0
 10
-54.1639
 20
62.5057
 30
0.0
 10
-57.741
 20
64.3915
 30
0.0
 10
-57.741
 20
64.3915
 30
0.0
 10
-54.212
 20
63.5922
 30
0.0
 10
-50.9478
 20
64.3001
 30
0.0
 10
-49.9688
 20
69.0244
 30
0.0
  0
SPLINE
  5
95
330
1F
100
AcDbEntity
  8
layer 1
 62
     7
370
     9
100
AcDbSpline
210
0.0
220
0.0
230
1.0
 70
    11
 71
     3
 72
    32
 73
    28
 74
     0
 42
0.0000000001
 43
0.0000000001
 12
1.0
 22
0.0
 32
0.0
 13
1.0
 23
0.0
 33
0.0
 40
0.0
 40
0.0
 40
0.0
 40
0.0
 40
0.125
 40
0.125
 40
0.125
 40
0.125
 40
0.25
 40
0.25
 40
0.25
 40
0.25
 40
0.375
 40
0.375
 40
0.375
 40
0.375
 40
0.5
 40
0.5
 40
0.5
 40
0.5
 40
0.625
 40
0.625
 40
0.625
 40
0.625
 40
0.75
 40
0.75
 40
0.75
 40
0.75
 40
1.0
 40
1.0
 40
1.0
 40
1.0
 10
-59.5709
 20
65.4174
 30
0.0
 10
-63.0124
 20
68.5207
 30
0.0
 10
-59.066
 20
72.9064
 30
0.0
 10
-55.6818
 20
69.2707
 30
0.0
 10
-55.6818
 20
69.2707
 30
0.0
 10
-55.3354
 20
73.3764
 30
0.0
 10
-61.5328
 20
75.2534
 30
0.0
 10
-64.4499
 20
72.1482
 30
0.0
 10
-64.4499
 20
72.1482
 30
0.0
 10
-62.7652
 20
71.3658
 30
0.0
 10
-62.923
 20
70.2538
 30
0.0
 10
-63.584
 20
68.9761
 30
0.0
 10
-63.584
 20
68.9761
 30
0.0
 10
-64.9048
 20
70.2767
 30
0.0
 10
-67.0942
 20
69.9842
 30
0.0
 10
-68.8932
 20
69.8353
 30
0.0
 10
-68.8932
 20
69.8353
 30
0.0
 10
-71.5226
 20
69.6176
 30
0.0
 10
-74.0679
 20
68.4885
 30
0.0
 10
-75.8862
 20
66.5291
 30
0.0
 10
-75.8862
 20
66.5291
 30
0.0
 10
-75.5447
 20
65.877
 30
0.0
 10
-75.2036
 20
65.0845
 30
0.0
 10
-74.9155
 20
64.4831
 30
0.0
 10
-74.9155
 20
64.4831
 30
0.0
 10
-71.1532
 20
66.4761
 30
0.0
 10
-65.819
 20
67.738
 30
0.0
 10
-59.5709
 20
65.4174
 30
0.0
  0
SPLINE
  5
96
330
1F
100
AcDbEntity
  8
layer 1
 62
     7
370
     9
100
AcDbSpline
210
0.0
220
0.0
230
1.0
 70
    11
 71
     3
 72
    40
 73
    36
 74
     0
 42
0.0000000001
 43
0.0000000001
 12
1.0
 22
0.0
 32
0.0
 13
1.0
 23
0.0
 33
0.0
 40
0.0
 40
0.0
 40
0.0
 40
0.0
 40
0.1
 40
0.1
 40
0.1
 40
0.1
 40
0.2
 40
0.2
 40
0.2
 40
0.2
 40
0.3
 40
0.3
 40
0.3
 40
0.3
 40
0.4
 40
0.4
 40
0.4
 40
0.4
 40
0.5
 40
0.5
 40
0.5
 40
0.5
 40
0.6
 40
0.6
 40
0.6
 40
0.6
 40
0.7
 40
0.7
 40
0.7
 40
0.7
 40
0.8
 40
0.8
 40
0.8
 40
0.8
 40
1.0
 40
1.0
 40
1.0
 40
1.0
 10
-63.1985
 20
48.054
 30
0.0
 10
-60.947
 20
53.185
 30
0.0
 10
-56.4559
 20
47.6138
 30
0.0
 10
-60.6355
 20
47.0892
 30
0.0
 10
-60.6355
 20
47.0892
 30
0.0
 10
-55.2053
 20
45.6296
 30
0.0
 10
-54.0969
 20
57.314
 30
0.0
 10
-59.8194
 20
59.6766
 30
0.0
 10
-59.8194
 20
59.6766
 30
0.0
 10
-59.9038
 20
59.6716
 30
0.0
 10
-60.1625
 20
59.6438
 30
0.0
 10
-60.0477
 20
59.3414
 30
0.0
 10
-60.0477
 20
59.3414
 30
0.0
 10
-57.7455
 20
57.4598
 30
0.0
 10
-58.5876
 20
54.8083
 30
0.0
 10
-60.8733
 20
55.9535
 30
0.0
 10
-60.8733
 20
55.9535
 30
0.0
 10
-61.6448
 20
52.7311
 30
0.0
 10
-64.6359
 20
53.8256
 30
0.0
 10
-65.1004
 20
54.1634
 30
0.0
 10
-65.1004
 20
54.1634
 30
0.0
 10
-60.9973
 20
56.705
 30
0.0
 10
-64.2421
 20
61.1608
 30
0.0
 10
-66.4024
 20
61.7185
 30
0.0
 10
-66.4024
 20
61.7185
 30
0.0
 10
-68.957
 20
62.3779
 30
0.0
 10
-71.5317
 20
62.0207
 30
0.0
 10
-73.9002
 20
61.586
 30
0.0
 10
-73.9002
 20
61.586
 30
0.0
 10
-73.7201
 20
60.4008
 30
0.0
 10
-73.7559
 20
59.3162
 30
0.0
 10
-73.6562
 20
57.818
 30
0.0
 10
-73.6562
 20
57.818
 30
0.0
 10
-68.8413
 20
56.4053
 30
0.0
 10
-65.6032
 20
54.2702
 30
0.0
 10
-63.1985
 20
48.054
 30
0.0
  0
SPLINE
  5
97
330
1F
100
AcDbEntity
  8
layer 1
 62
     7
370
     9
100
AcDbSpline
210
0.0
220
0.0
230
1.0
 70
    11
 71
     3
 72
    60
 73
    56
 74
     0
 42
0.0000000001
 43
0.0000000001
 12
1.0
 22
0.0
 32
0.0
 13
1.0
 23
0.0
 33
0.0
 40
0.0
 40
0.0
 40
0.0
 40
0.0
 40
0.0666666666666667
 40
0.0666666666666667
 40
0.0666666666666667
 40
0.0666666666666667
 40
0.1333333333333333
 40
0.1333333333333333
 40
0.1333333333333333
 40
0.1333333333333333
 40
0.2
 40
0.2
 40
0.2
 40
0.2
 40
0.2666666666666667
 40
0.2666666666666667
 40
0.2666666666666667
 40
0.2666666666666667
 40
0.3333333333333333
 40
0.3333333333333333
 40
0.3333333333333333
 40
0.3333333333333333
 40
0.4
 40
0.4
 40
0.4
 40
0.4
 40
0.4666666666666667
 40
0.4666666666666667
 40
0.4666666666666667
 40
0.4666666666666667
 40
0.5333333333333333
 40
0.5333333333333333
 40
0.5333333333333333
 40
0.5333333333333333
 40
0.6
 40
0.6
 40
0.6
 40
0.6
 40
0.6666666666666666
 40
0.6666666666666666
 40
0.6666666666666666
 40
0.6666666666666666
 40
0.7333333333333333
 40
0.7333333333333333
 40
0.7333333333333333
 40
0.7333333333333333
 40
0.8
 40
0.8
 40
0.8
 40
0.8
 40
0.8666666666666667
 40
0.8666666666666667
 40
0.8666666666666667
 40
0.8666666666666667
 40
1.0
 40
1.0
 40
1.0
 40
1.0
 10
-50.0127
 20
82.5354
 30
0.0
 10
-50.0127
 20
82.5354
 30
0.0
 10
-49.98
 20
70.9999
 30
0.0
 10
-49.98
 20
70.9999
 30
0.0
 10
-49.98
 20
70.9999
 30
0.0
 10
-50.9225
 20
75.7245
 30
0.0
 10
-57.4887
 20
78.6814
 30
0.0
 10
-62.716
 20
76.8228
 30
0.0
 10
-62.716
 20
76.8228
 30
0.0
 10
-61.7496
 20
77.818
 30
0.0
 10
-61.5514
 20
79.0499
 30
0.0
 10
-61.8487
 20
79.5612
 30
0.0
 10
-61.8487
 20
79.5612
 30
0.0
 10
-62.2024
 20
79.4815
 30
0.0
 10
-62.6048
 20
78.9582
 30
0.0
 10
-63.1559
 20
78.9437
 30
0.0
 10
-63.1559
 20
78.9437
 30
0.0
 10
-68.7516
 20
78.7961
 30
0.0
 10
-75.7625
 20
70.8534
 30
0.0
 10
-77.1541
 20
68.2275
 30
0.0
 10
-77.1541
 20
68.2275
 30
0.0
 10
-77.96
 20
69.0518
 30
0.0
 10
-78.325
 20
69.4565
 30
0.0
 10
-78.6656
 20
69.6995
 30
0.0
 10
-78.6656
 20
69.6995
 30
0.0
 10
-75.8218
 20
74.9285
 30
0.0
 10
-66.805
 20
82.9739
 30
0.0
 10
-61.3641
 20
81.0565
 30
0.0
 10
-61.3641
 20
81.0565
 30
0.0
 10
-61.1043
 20
81.64
 30
0.0
 10
-61.3354
 20
82.6472
 30
0.0
 10
-62.9125
 20
83.1347
 30
0.0
 10
-62.9125
 20
83.1347
 30
0.0
 10
-61.7775
 20
84.8672
 30
0.0
 10
-63.4798
 20
86.1534
 30
0.0
 10
-65.2452
 20
83.9673
 30
0.0
 10
-65.2452
 20
83.9673
 30
0.0
 10
-65.6475
 20
83.4691
 30
0.0
 10
-66.1339
 20
83.0801
 30
0.0
 10
-66.7952
 20
82.8044
 30
0.0
 10
-66.7952
 20
82.8044
 30
0.0
 10
-67.8387
 20
82.4867
 30
0.0
 10
-67.4671
 20
83.255
 30
0.0
 10
-67.4102
 20
83.496
 30
0.0
 10
-67.4102
 20
83.496
 30
0.0
 10
-66.5698
 20
85.7291
 30
0.0
 10
-57.5034
 20
88.7445
 30
0.0
 10
-55.4418
 20
83.2443
 30
0.0
 10
-55.4418
 20
83.2443
 30
0.0
 10
-61.0182
 20
85.3992
 30
0.0
 10
-60.2025
 20
79.3284
 30
0.0
 10
-57.5459
 20
78.7389
 30
0.0
 10
-57.5459
 20
78.7389
 30
0.0
 10
-54.0991
 20
77.3177
 30
0.0
 10
-50.6076
 20
79.4143
 30
0.0
 10
-50.0127
 20
82.5354
 30
0.0
  0
SPLINE
  5
98
330
1F
100
AcDbEntity
  8
layer 1
 62
     7
370
     9
100
AcDbSpline
210
0.0
220
0.0
230
1.0
 70
    11
 71
     3
 72
    16
 73
    12
 74
     0
 42
0.0000000001
 43
0.0000000001
 12
1.0
 22
0.0
 32
0.0
 13
1.0
 23
0.0
 33
0.0
 40
0.0
 40
0.0
 40
0.0
 40
0.0
 40
0.25
 40
0.25
 40
0.25
 40
0.25
 40
0.5
 40
0.5
 40
0.5
 40
0.5
 40
1.0
 40
1.0
 40
1.0
 40
1.0
 10
-84.9566
 20
102.5641
 30
0.0
 10
-83.6559
 20
98.5951
 30
0.0
 10
-95.6386
 20
95.4607
 30
0.0
 10
-95.4426
 20
107.5566
 30
0.0
 10
-95.4426
 20
107.5566
 30
0.0
 10
-94.5218
 20
107.5554
 30
0.0
 10
-94.5149
 20
107.5077
 30
0.0
 10
-93.4872
 20
107.5659
 30
0.0
 10
-93.4872
 20
107.5659
 30
0.0
 10
-93.4937
 20
101.6518
 30
0.0
 10
-87.2183
 20
101.4773
 30
0.0
 10
-84.9566
 20
102.5641
 30
0.0
  0
SPLINE
  5
99
330
1F
100
AcDbEntity
  8
layer 1
 62
     7
370
     9
100
AcDbSpline
210
0.0
220
0.0
230
1.0
 70
    11
 71
     3
 72
    24
 73
    20
 74
     0
 42
0.0000000001
 43
0.0000000001
 12
1.0
 22
0.0
 32
0.0
 13
1.0
 23
0.0
 33
0.0
 40
0.0
 40
0.0
 40
0.0
 40
0.0
 40
0.1666666666666667
 40
0.1666666666666667
 40
0.1666666666666667
 40
0.1666666666666667
 40
0.3333333333333333
 40
0.3333333333333333
 40
0.3333333333333333
 40
0.3333333333333333
 40
0.5
 40
0.5
 40
0.5
 40
0.5
 40
0.6666666666666666
 40
0.6666666666666666
 40
0.6666666666666666
 40
0.6666666666666666
 40
1.0
 40
1.0
 40
1.0
 40
1.0
 10
-83.0082
 20
115.816
 30
0.0
 10
-86.194
 20
116.4112
 30
0.0
 10
-91.3285
 20
115.9953
 30
0.0
 10
-92.8127
 20
111.4326
 30
0.0
 10
-92.8127
 20
111.4326
 30
0.0
 10
-94.0612
 20
111.6598
 30
0.0
 10
-94.3361
 20
111.6445
 30
0.0
 10
-95.0075
 20
111.7116
 30
0.0
 10
-95.0075
 20
111.7116
 30
0.0
 10
-94.6727
 20
114.808
 30
0.0
 10
-90.2156
 20
120.4467
 30
0.0
 10
-83.0922
 20
118.9971
 30
0.0
 10
-83.0922
 20
118.9971
 30
0.0
 10
-79.0315
 20
118.2659
 30
0.0
 10
-81.4683
 20
114.3875
 30
0.0
 10
-83.6231
 20
117.9219
 30
0.0
 10
-83.6231
 20
117.9219
 30
0.0
 10
-84.0775
 20
117.3559
 30
0.0
 10
-83.8098
 20
116.3658
 30
0.0
 10
-83.0082
 20
115.816
 30
0.0
  0
SPLINE
  5
9A
330
1F
100
AcDbEntity
  8
layer 1
 62
     7
370
     9
100
AcDbSpline
210
0.0
220
0.0
230
1.0
 70
    11
 71
     3
 72
    12
 73
     8
 74
     0
 42
0.0000000001
 43
0.0000000001
 12
1.0
 22
0.0
 32
0.0
 13
1.0
 23
0.0
 33
0.0
 40
0.0
 40
0.0
 40
0.0
 40
0.0
 40
0.3333333333333333
 40
0.3333333333333333
 40
0.3333333333333333
 40
0.3333333333333333
 40
1.0
 40
1.0
 40
1.0
 40
1.0
 10
-88.8258
 20
122.9736
 30
0.0
 10
-90.9509
 20
124.9085
 30
0.0
 10
-97.3024
 20
121.6624
 30
0.0
 10
-95.8218
 20
116.311
 30
0.0
 10
-95.8218
 20
116.311
 30
0.0
 10
-94.3128
 20
118.9705
 30
0.0
 10
-92.7515
 20
121.2055
 30
0.0
 10
-88.8258
 20
122.9736
 30
0.0
  0
SPLINE
  5
9B
330
1F
100
AcDbEntity
  8
layer 1
 62
     7
370
     9
100
AcDbSpline
210
0.0
220
0.0
230
1.0
 70
    11
 71
     3
 72
    76
 73
    72
 74
     0
 42
0.0000000001
 43
0.0000000001
 12
1.0
 22
0.0
 32
0.0
 13
1.0
 23
0.0
 33
0.0
 40
0.0
 40
0.0
 40
0.0
 40
0.0
 40
0.0526315789473684
 40
0.0526315789473684
 40
0.0526315789473684
 40
0.0526315789473684
 40
0.1052631578947368
 40
0.1052631578947368
 40
0.1052631578947368
 40
0.1052631578947368
 40
0.1578947368421053
 40
0.1578947368421053
 40
0.1578947368421053
 40
0.1578947368421053
 40
0.2105263157894737
 40
0.2105263157894737
 40
0.2105263157894737
 40
0.2105263157894737
 40
0.2631578947368421
 40
0.2631578947368421
 40
0.2631578947368421
 40
0.2631578947368421
 40
0.3157894736842105
 40
0.3157894736842105
 40
0.3157894736842105
 40
0.3157894736842105
 40
0.3684210526315789
 40
0.3684210526315789
 40
0.3684210526315789
 40
0.3684210526315789
 40
0.4210526315789473
 40
0.4210526315789473
 40
0.4210526315789473
 40
0.4210526315789473
 40
0.4736842105263158
 40
0.4736842105263158
 40
0.4736842105263158
 40
0.4736842105263158
 40
0.5263157894736842
 40
0.5263157894736842
 40
0.5263157894736842
 40
0.5263157894736842
 40
0.5789473684210527
 40
0.5789473684210527
 40
0.5789473684210527
 40
0.5789473684210527
 40
0.631578947368421
 40
0.631578947368421
 40
0.631578947368421
 40
0.631578947368421
 40
0.6842105263157895
 40
0.6842105263157895
 40
0.6842105263157895
 40
0.6842105263157895
 40
0.7368421052631579
 40
0.7368421052631579
 40
0.7368421052631579
 40
0.7368421052631579
 40
0.7894736842105263
 40
0.7894736842105263
 40
0.7894736842105263
 40
0.7894736842105263
 40
0.8421052631578947
 40
0.8421052631578947
 40
0.8421052631578947
 40
0.8421052631578947
 40
0.8947368421052632
 40
0.8947368421052632
 40
0.8947368421052632
 40
0.8947368421052632
 40
1.0
 40
1.0
 40
1.0
 40
1.0
 10
-89.7172
 20
107.1659
 30
0.0
 10
-89.6904
 20
106.8488
 30
0.0
 10
-89.0307
 20
106.7945
 30
0.0
 10
-89.0172
 20
107.0772
 30
0.0
 10
-89.0172
 20
107.0772
 30
0.0
 10
-87.7017
 20
112.6148
 30
0.0
 10
-80.2573
 20
108.6005
 30
0.0
 10
-83.9817
 20
103.3102
 30
0.0
 10
-83.9817
 20
103.3102
 30
0.0
 10
-82.1897
 20
102.7925
 30
0.0
 10
-79.5024
 20
96.3016
 30
0.0
 10
-86.4446
 20
95.9529
 30
0.0
 10
-86.4446
 20
95.9529
 30
0.0
 10
-84.7277
 20
90.3937
 30
0.0
 10
-94.8232
 20
92.2413
 30
0.0
 10
-95.3794
 20
96.8878
 30
0.0
 10
-95.3794
 20
96.8878
 30
0.0
 10
-95.5398
 20
97.4829
 30
0.0
 10
-96.5533
 20
97.3812
 30
0.0
 10
-96.6361
 20
96.9166
 30
0.0
 10
-96.6361
 20
96.9166
 30
0.0
 10
-96.9643
 20
95.3591
 30
0.0
 10
-97.6762
 20
92.9084
 30
0.0
 10
-93.7613
 20
91.3293
 30
0.0
 10
-93.7613
 20
91.3293
 30
0.0
 10
-93.5406
 20
90.2358
 30
0.0
 10
-93.6321
 20
89.6793
 30
0.0
 10
-93.6572
 20
88.0204
 30
0.0
 10
-93.6572
 20
88.0204
 30
0.0
 10
-89.6088
 20
93.3343
 30
0.0
 10
-83.7947
 20
88.5786
 30
0.0
 10
-84.6097
 20
84.7847
 30
0.0
 10
-84.6097
 20
84.7847
 30
0.0
 10
-86.0287
 20
79.036
 30
0.0
 10
-91.3003
 20
82.4606
 30
0.0
 10
-90.3217
 20
84.391
 30
0.0
 10
-90.3217
 20
84.391
 30
0.0
 10
-84.885
 20
81.8347
 30
0.0
 10
-87.8321
 20
90.0616
 30
0.0
 10
-92.0964
 20
85.6366
 30
0.0
 10
-92.0964
 20
85.6366
 30
0.0
 10
-93.4274
 20
82.8402
 30
0.0
 10
-91.5283
 20
81.8144
 30
0.0
 10
-91.286
 20
79.7143
 30
0.0
 10
-91.286
 20
79.7143
 30
0.0
 10
-91.0722
 20
77.8612
 30
0.0
 10
-92.3425
 20
75.7675
 30
0.0
 10
-95.494
 20
75.8358
 30
0.0
 10
-95.494
 20
75.8358
 30
0.0
 10
-95.5361
 20
75.3606
 30
0.0
 10
-95.4116
 20
73.559
 30
0.0
 10
-95.4539
 20
73.0499
 30
0.0
 10
-95.4539
 20
73.0499
 30
0.0
 10
-93.5751
 20
73.3478
 30
0.0
 10
-92.5083
 20
70.2615
 30
0.0
 10
-95.7904
 20
70.0536
 30
0.0
 10
-95.7904
 20
70.0536
 30
0.0
 10
-95.6236
 20
66.3393
 30
0.0
 10
-90.8679
 20
70.0698
 30
0.0
 10
-90.3198
 20
66.4541
 30
0.0
 10
-90.3198
 20
66.4541
 30
0.0
 10
-88.8699
 20
71.7383
 30
0.0
 10
-82.7693
 20
77.9119
 30
0.0
 10
-80.0393
 20
88.2251
 30
0.0
 10
-80.0393
 20
88.2251
 30
0.0
 10
-77.6978
 20
94.9187
 30
0.0
 10
-77.6887
 20
104.8811
 30
0.0
 10
-80.5551
 20
109.0741
 30
0.0
 10
-80.5551
 20
109.0741
 30
0.0
 10
-82.2813
 20
112.1104
 30
0.0
 10
-89.7658
 20
112.9617
 30
0.0
 10
-89.7172
 20
107.1659
 30
0.0
  0
SPLINE
  5
9C
330
1F
100
AcDbEntity
  8
layer 1
 62
     7
370
     9
100
AcDbSpline
210
0.0
220
0.0
230
1.0
 70
    11
 71
     3
 72
    48
 73
    44
 74
     0
 42
0.0000000001
 43
0.0000000001
 12
1.0
 22
0.0
 32
0.0
 13
1.0
 23
0.0
 33
0.0
 40
0.0
 40
0.0
 40
0.0
 40
0.0
 40
0.0833333333333333
 40
0.0833333333333333
 40
0.0833333333333333
 40
0.0833333333333333
 40
0.1666666666666667
 40
0.1666666666666667
 40
0.1666666666666667
 40
0.1666666666666667
 40
0.25
 40
0.25
 40
0.25
 40
0.25
 40
0.3333333333333333
 40
0.3333333333333333
 40
0.3333333333333333
 40
0.3333333333333333
 40
0.4166666666666667
 40
0.4166666666666667
 40
0.4166666666666667
 40
0.4166666666666667
 40
0.5
 40
0.5
 40
0.5
 40
0.5
 40
0.5833333333333334
 40
0.5833333333333334
 40
0.5833333333333334
 40
0.5833333333333334
 40
0.6666666666666666
 40
0.6666666666666666
 40
0.6666666666666666
 40
0.6666666666666666
 40
0.75
 40
0.75
 40
0.75
 40
0.75
 40
0.8333333333333334
 40
0.8333333333333334
 40
0.8333333333333334
 40
0.8333333333333334
 40
1.0
 40
1.0
 40
1.0
 40
1.0
 10
-98.1895
 20
55.1165
 30
0.0
 10
-97.1742
 20
54.9911
 30
0.0
 10
-96.4901
 20
55.588
 30
0.0
 10
-96.8175
 20
56.7906
 30
0.0
 10
-96.8175
 20
56.7906
 30
0.0
 10
-94.8762
 20
56.7485
 30
0.0
 10
-94.606
 20
58.9319
 30
0.0
 10
-96.7257
 20
58.9801
 30
0.0
 10
-96.7257
 20
58.9801
 30
0.0
 10
-96.4174
 20
62.968
 30
0.0
 10
-97.3386
 20
64.17
 30
0.0
 10
-94.847
 20
64.6527
 30
0.0
 10
-94.847
 20
64.6527
 30
0.0
 10
-94.1408
 20
64.7321
 30
0.0
 10
-91.5341
 20
64.2974
 30
0.0
 10
-91.1577
 20
64.8821
 30
0.0
 10
-91.1577
 20
64.8821
 30
0.0
 10
-93.9642
 20
59.4713
 30
0.0
 10
-95.903
 20
46.7718
 30
0.0
 10
-95.4303
 20
44.7896
 30
0.0
 10
-95.4303
 20
44.7896
 30
0.0
 10
-95.4303
 20
44.7896
 30
0.0
 10
-101.0302
 20
44.7693
 30
0.0
 10
-101.0302
 20
44.7693
 30
0.0
 10
-101.0302
 20
44.7693
 30
0.0
 10
-100.5574
 20
46.7515
 30
0.0
 10
-102.4962
 20
59.451
 30
0.0
 10
-105.3028
 20
64.8618
 30
0.0
 10
-105.3028
 20
64.8618
 30
0.0
 10
-104.9264
 20
64.2771
 30
0.0
 10
-102.3197
 20
64.7117
 30
0.0
 10
-101.6135
 20
64.6324
 30
0.0
 10
-101.6135
 20
64.6324
 30
0.0
 10
-99.1219
 20
64.1497
 30
0.0
 10
-100.0431
 20
62.9477
 30
0.0
 10
-99.7347
 20
58.9598
 30
0.0
 10
-99.7347
 20
58.9598
 30
0.0
 10
-101.8545
 20
58.9116
 30
0.0
 10
-101.5842
 20
56.7282
 30
0.0
 10
-99.643
 20
56.7703
 30
0.0
 10
-99.643
 20
56.7703
 30
0.0
 10
-99.9704
 20
55.5677
 30
0.0
 10
-99.2049
 20
54.9911
 30
0.0
 10
-98.1895
 20
55.1165
 30
0.0
  0
SPLINE
  5
9D
330
1F
100
AcDbEntity
  8
layer 1
 62
     7
370
     9
100
AcDbSpline
210
0.0
220
0.0
230
1.0
 70
    11
 71
     3
 72
    16
 73
    12
 74
     0
 42
0.0000000001
 43
0.0000000001
 12
1.0
 22
0.0
 32
0.0
 13
1.0
 23
0.0
 33
0.0
 40
0.0
 40
0.0
 40
0.0
 40
0.0
 40
0.25
 40
0.25
 40
0.25
 40
0.25
 40
0.5
 40
0.5
 40
0.5
 40
0.5
 40
1.0
 40
1.0
 40
1.0
 40
1.0
 10
-66.6069
 20
11.9998
 30
0.0
 10
-65.1608
 20
10.4698
 30
0.0
 10
-64.3086
 20
9.2164
 30
0.0
 10
-62.0708
 20
8.5557
 30
0.0
 10
-62.0708
 20
8.5557
 30
0.0
 10
-64.3086
 20
7.895
 30
0.0
 10
-65.1317
 20
6.842
 30
0.0
 10
-66.5779
 20
5.312
 30
0.0
 10
-66.5779
 20
5.312
 30
0.0
 10
-66.1276
 20
7.7574
 30
0.0
 10
-66.1974
 20
9.6736
 30
0.0
 10
-66.6069
 20
11.9998
 30
0.0
  0
SPLINE
  5
9E
330
1F
100
AcDbEntity
  8
layer 1
 62
     7
370
     9
100
AcDbSpline
210
0.0
220
0.0
230
1.0
 70
    11
 71
     3
 72
    20
 73
    16
 74
     0
 42
0.0000000001
 43
0.0000000001
 12
1.0
 22
0.0
 32
0.0
 13
1.0
 23
0.0
 33
0.0
 40
0.0
 40
0.0
 40
0.0
 40
0.0
 40
0.2
 40
0.2
 40
0.2
 40
0.2
 40
0.4
 40
0.4
 40
0.4
 40
0.4
 40
0.6
 40
0.6
 40
0.6
 40
0.6
 40
1.0
 40
1.0
 40
1.0
 40
1.0
 10
-124.6784
 20
8.6559
 30
0.0
 10
-124.6784
 20
23.2708
 30
0.0
 10
-112.8307
 20
35.1185
 30
0.0
 10
-98.2157
 20
35.1185
 30
0.0
 10
-98.2157
 20
35.1185
 30
0.0
 10
-83.6008
 20
35.1185
 30
0.0
 10
-71.7531
 20
23.2708
 30
0.0
 10
-71.7531
 20
8.6559
 30
0.0
 10
-71.7531
 20
8.6559
 30
0.0
 10
-71.7531
 20
-5.9591
 30
0.0
 10
-83.6008
 20
-17.8068
 30
0.0
 10
-98.2157
 20
-17.8068
 30
0.0
 10
-98.2157
 20
-17.8068
 30
0.0
 10
-112.8307
 20
-17.8068
 30
0.0
 10
-124.6784
 20
-5.9591
 30
0.0
 10
-124.6784
 20
8.6559
 30
0.0
  0
ENDSEC
  0
SECTION
  2
OBJECTS
  0
DICTIONARY
  5
C
330
0
100
AcDbDictionary
281
     1
  3
ACAD_GROUP
350
D
  3
ACAD_LAYOUT
350
1A
  3
ACAD_MATERIAL
350
3B
  3
ACAD_MLEADERSTYLE
350
C0
  3
ACAD_MLINESTYLE
350
17
  3
ACAD_PLOTSETTINGS
350
19
  3
ACAD_PLOTSTYLENAME
350
E
  3
ACAD_TABLESTYLE
350
BF
  3
ACAD_VISUALSTYLE
350
2A
  0
DICTIONARY
  5
D
102
{ACAD_REACTORS
330
C
102
}
330
C
100
AcDbDictionary
281
     1
  0
DICTIONARY
  5
1A
102
{ACAD_REACTORS
330
C
102
}
330
C
100
AcDbDictionary
281
     1
  3
Layout1
350
1E
  3
Layout2
350
26
  3
Model
350
22
  0
DICTIONARY
  5
3B
102
{ACAD_REACTORS
330
C
102
}
330
C
100
AcDbDictionary
281
     1
  3
ByBlock
350
3D
  3
ByLayer
350
3C
  3
Global
350
3E
  0
DICTIONARY
  5
C0
102
{ACAD_REACTORS
330
C
102
}
330
C
100
AcDbDictionary
281
     1
  0
DICTIONARY
  5
17
102
{ACAD_REACTORS
330
C
102
}
330
C
100
AcDbDictionary
281
     1
  3
Standard
350
18
  0
DICTIONARY
  5
19
102
{ACAD_REACTORS
330
C
102
}
330
C
100
AcDbDictionary
281
     1
  0
ACDBDICTIONARYWDFLT
  5
E
102
{ACAD_REACTORS
330
C
102
}
330
C
100
AcDbDictionary
281
     1
  3
Normal
350
F
100
AcDbDictionaryWithDefault
340
F
  0
DICTIONARY
  5
BF
102
{ACAD_REACTORS
330
C
102
}
330
C
100
AcDbDictionary
281
     1
  0
DICTIONARY
  5
2A
102
{ACAD_REACTORS
330
C
102
}
330
C
100
AcDbDictionary
281
     1
  3
2dWireframe
350
2F
  3
3D Hidden
350
31
  3
3dWireframe
350
30
  3
Basic
350
32
  3
Brighten
350
36
  3
ColorChange
350
3A
  3
Conceptual
350
34
  3
Dim
350
35
  3
Facepattern
350
39
  3
Flat
350
2B
  3
FlatWithEdges
350
2C
  3
Gouraud
350
2D
  3
GouraudWithEdges
350
2E
  3
Linepattern
350
38
  3
Realistic
350
33
  3
Thicken
350
37
  0
LAYOUT
  5
1E
102
{ACAD_REACTORS
330
1A
102
}
330
1A
100
AcDbPlotSettings
  1

  2
none_device
  4

  6

 40
0.0
 41
0.0
 42
0.0
 43
0.0
 44
0.0
 45
0.0
 46
0.0
 47
0.0
 48
0.0
 49
0.0
140
0.0
141
0.0
142
1.0
143
1.0
 70
   688
 72
     0
 73
     0
 74
     5
  7

 75
    16
 76
     0
 77
     2
 78
   300
147
1.0
148
0.0
149
0.0
100
AcDbLayout
  1
Layout1
 70
     1
 71
     1
 10
0.0
 20
0.0
 11
12.0
 21
9.0
 12
0.0
 22
0.0
 32
0.0
 14
1.000000000000000E+20
 24
1.000000000000000E+20
 34
1.000000000000000E+20
 15
-1.000000000000000E+20
 25
-1.000000000000000E+20
 35
-1.000000000000000E+20
146
0.0
 13
0.0
 23
0.0
 33
0.0
 16
1.0
 26
0.0
 36
0.0
 17
0.0
 27
1.0
 37
0.0
 76
     0
330
1B
  0
LAYOUT
  5
26
102
{ACAD_REACTORS
330
1A
102
}
330
1A
100
AcDbPlotSettings
  1

  2
none_device
  4

  6

 40
0.0
 41
0.0
 42
0.0
 43
0.0
 44
0.0
 45
0.0
 46
0.0
 47
0.0
 48
0.0
 49
0.0
140
0.0
141
0.0
142
1.0
143
1.0
 70
   688
 72
     0
 73
     0
 74
     5
  7

 75
    16
 76
     0
 77
     2
 78
   300
147
1.0
148
0.0
149
0.0
100
AcDbLayout
  1
Layout2
 70
     1
 71
     2
 10
0.0
 20
0.0
 11
0.0
 21
0.0
 12
0.0
 22
0.0
 32
0.0
 14
0.0
 24
0.0
 34
0.0
 15
0.0
 25
0.0
 35
0.0
146
0.0
 13
0.0
 23
0.0
 33
0.0
 16
1.0
 26
0.0
 36
0.0
 17
0.0
 27
1.0
 37
0.0
 76
     0
330
23
  0
LAYOUT
  5
22
102
{ACAD_REACTORS
330
1A
102
}
330
1A
100
AcDbPlotSettings
  1

  2
none_device
  4

  6

 40
0.0
 41
0.0
 42
0.0
 43
0.0
 44
0.0
 45
0.0
 46
0.0
 47
0.0
 48
0.0
 49
0.0
140
0.0
141
0.0
142
1.0
143
1.0
 70
  1712
 72
     0
 73
     0
 74
     0
  7

 75
     0
 76
     0
 77
     2
 78
   300
147
1.0
148
0.0
149
0.0
100
AcDbLayout
  1
Model
 70
     1
 71
     0
 10
0.0
 20
0.0
 11
12.0
 21
9.0
 12
0.0
 22
0.0
 32
0.0
 14
-151.354
 24
-114.7792
 34
0.0
 15
-45.0774
 25
132.0909
 35
0.0
146
0.0
 13
0.0
 23
0.0
 33
0.0
 16
1.0
 26
0.0
 36
0.0
 17
0.0
 27
1.0
 37
0.0
 76
     0
330
1F
331
29
  0
MATERIAL
  5
3D
102
{ACAD_REACTORS
330
3B
102
}
330
3B
100
AcDbMaterial
  1
ByBlock
 72
     1
 94
      127
  0
MATERIAL
  5
3C
102
{ACAD_REACTORS
330
3B
102
}
330
3B
100
AcDbMaterial
  1
ByLayer
 72
     1
 94
      127
  0
MATERIAL
  5
3E
102
{ACAD_REACTORS
330
3B
102
}
330
3B
100
AcDbMaterial
  1
Global
 72
     1
 94
      127
  0
MLINESTYLE
  5
18
102
{ACAD_REACTORS
330
17
102
}
330
17
100
AcDbMlineStyle
  2
Standard
 70
     0
  3

 62
   256
 51
90.0
 52
90.0
 71
     2
 49
0.5
 62
   256
  6
BYLAYER
 49
-0.5
 62
   256
  6
BYLAYER
  0
ACDBPLACEHOLDER
  5
F
102
{ACAD_REACTORS
330
E
102
}
330
E
  0
VISUALSTYLE
  5
2F
102
{ACAD_REACTORS
330
2A
102
}
102
{ACAD_XDICTIONARY
360
A7
102
}
330
2A
100
AcDbVisualStyle
  2
2dWireframe
 70
     4
 71
     0
 72
     2
 73
     0
 90
        0
 40
-0.6
 41
-30.0
 62
     5
 63
     7
421
 16777215
 74
     1
 91
        4
 64
     7
 65
   257
 75
     1
175
     1
 42
1.0
 92
        0
 66
   257
 43
1.0
 76
     1
 77
     6
 78
     2
 67
     7
 79
     5
170
     0
171
     0
290
     0
174
     0
 93
        1
 44
0.0
173
     0
291
     0
 45
0.0
  0
VISUALSTYLE
  5
31
102
{ACAD_REACTORS
330
2A
102
}
102
{ACAD_XDICTIONARY
360
AB
102
}
330
2A
100
AcDbVisualStyle
  2
3D Hidden
 70
     6
 71
     1
 72
     2
 73
     2
 90
        0
 40
-0.6
 41
-30.0
 62
     5
 63
     7
421
 16777215
 74
     2
 91
        2
 64
     7
 65
   257
 75
     2
175
     1
 42
40.0
 92
        0
 66
   257
 43
1.0
 76
     1
 77
     6
 78
     2
 67
     7
 79
     3
170
     0
171
     0
290
     0
174
     0
 93
        1
 44
0.0
173
     0
291
     0
 45
0.0
  0
VISUALSTYLE
  5
30
102
{ACAD_REACTORS
330
2A
102
}
102
{ACAD_XDICTIONARY
360
A9
102
}
330
2A
100
AcDbVisualStyle
  2
3dWireframe
 70
     5
 71
     0
 72
     2
 73
     0
 90
        0
 40
-0.6
 41
-30.0
 62
     5
 63
     7
421
 16777215
 74
     1
 91
        4
 64
     7
 65
   257
 75
     1
175
     1
 42
1.0
 92
        0
 66
   257
 43
1.0
 76
     1
 77
     6
 78
     2
 67
     7
 79
     5
170
     0
171
     0
290
     0
174
     0
 93
        1
 44
0.0
173
     0
291
     0
 45
0.0
  0
VISUALSTYLE
  5
32
102
{ACAD_REACTORS
330
2A
102
}
102
{ACAD_XDICTIONARY
360
AD
102
}
330
2A
100
AcDbVisualStyle
  2
Basic
 70
     7
 71
     1
 72
     0
 73
     1
 90
        0
 40
-0.6
 41
-30.0
 62
     5
 63
     7
421
 16777215
 74
     0
 91
        4
 64
     7
 65
   257
 75
     1
175
     1
 42
1.0
 92
        8
 66
     7
 43
1.0
 76
     1
 77
     6
 78
     2
 67
     7
 79
     5
170
     0
171
     0
290
     0
174
     0
 93
        1
 44
0.0
173
     0
291
     1
 45
0.0
  0
VISUALSTYLE
  5
36
102
{ACAD_REACTORS
330
2A
102
}
102
{ACAD_XDICTIONARY
360
B5
102
}
330
2A
100
AcDbVisualStyle
  2
Brighten
 70
    12
 71
     2
 72
     2
 73
     0
 90
        0
 40
-0.6
 41
-30.0
 62
     5
 63
     7
421
 16777215
 74
     1
 91
        4
 64
     7
 65
   257
 75
     1
175
     1
 42
1.0
 92
        8
 66
     7
 43
1.0
 76
     1
 77
     6
 78
     2
 67
     7
 79
     5
170
     0
171
     0
290
     0
174
     0
 93
        1
 44
50.0
173
     0
291
     1
 45
0.0
  0
VISUALSTYLE
  5
3A
102
{ACAD_REACTORS
330
2A
102
}
102
{ACAD_XDICTIONARY
360
BD
102
}
330
2A
100
AcDbVisualStyle
  2
ColorChange
 70
    16
 71
     2
 72
     2
 73
     3
 90
        0
 40
-0.6
 41
-30.0
 62
     5
 63
     8
421
  8421504
 74
     1
 91
        4
 64
     7
 65
   257
 75
     1
175
     1
 42
1.0
 92
        8
 66
     8
424
  8421504
 43
1.0
 76
     1
 77
     6
 78
     2
 67
     7
 79
     5
170
     0
171
     0
290
     0
174
     0
 93
        1
 44
0.0
173
     0
291
     1
 45
0.0
  0
VISUALSTYLE
  5
34
102
{ACAD_REACTORS
330
2A
102
}
102
{ACAD_XDICTIONARY
360
B1
102
}
330
2A
100
AcDbVisualStyle
  2
Conceptual
 70
     9
 71
     3
 72
     2
 73
     0
 90
        0
 40
-0.6
 41
-30.0
 62
     5
 63
     7
421
 16777215
 74
     2
 91
        2
 64
     7
 65
   257
 75
     1
175
     1
 42
40.0
 92
        8
 66
     7
 43
1.0
 76
     1
 77
     6
 78
     2
 67
     7
 79
     3
170
     0
171
     0
290
     0
174
     0
 93
        1
 44
0.0
173
     0
291
     0
 45
0.0
  0
VISUALSTYLE
  5
35
102
{ACAD_REACTORS
330
2A
102
}
102
{ACAD_XDICTIONARY
360
B3
102
}
330
2A
100
AcDbVisualStyle
  2
Dim
 70
    11
 71
     2
 72
     2
 73
     0
 90
        0
 40
-0.6
 41
-30.0
 62
     5
 63
     7
421
 16777215
 74
     1
 91
        4
 64
     7
 65
   257
 75
     1
175
     1
 42
1.0
 92
        8
 66
     7
 43
1.0
 76
     1
 77
     6
 78
     2
 67
     7
 79
     5
170
     0
171
     0
290
     0
174
     0
 93
        1
 44
-50.0
173
     0
291
     1
 45
0.0
  0
VISUALSTYLE
  5
39
102
{ACAD_REACTORS
330
2A
102
}
102
{ACAD_XDICTIONARY
360
BB
102
}
330
2A
100
AcDbVisualStyle
  2
Facepattern
 70
    15
 71
     2
 72
     2
 73
     0
 90
        0
 40
-0.6
 41
-30.0
 62
     5
 63
     7
421
 16777215
 74
     1
 91
        4
 64
     7
 65
   257
 75
     1
175
     1
 42
1.0
 92
        8
 66
     7
 43
1.0
 76
     1
 77
     6
 78
     2
 67
     7
 79
     5
170
     0
171
     0
290
     0
174
     0
 93
        1
 44
0.0
173
     0
291
     1
 45
0.0
  0
VISUALSTYLE
  5
2B
102
{ACAD_REACTORS
330
2A
102
}
102
{ACAD_XDICTIONARY
360
9F
102
}
330
2A
100
AcDbVisualStyle
  2
Flat
 70
     0
 71
     2
 72
     1
 73
     1
 90
        2
 40
-0.6
 41
30.0
 62
     5
 63
     7
421
 16777215
 74
     0
 91
        4
 64
     7
 65
   257
 75
     1
175
     1
 42
1.0
 92
        8
 66
     7
 43
1.0
 76
     1
 77
     6
 78
     2
 67
     7
 79
     5
170
     0
171
     0
290
     0
174
     0
 93
       13
 44
0.0
173
     0
291
     1
 45
0.0
  0
VISUALSTYLE
  5
2C
102
{ACAD_REACTORS
330
2A
102
}
102
{ACAD_XDICTIONARY
360
A1
102
}
330
2A
100
AcDbVisualStyle
  2
FlatWithEdges
 70
     1
 71
     2
 72
     1
 73
     1
 90
        2
 40
-0.6
 41
30.0
 62
     5
 63
     7
421
 16777215
 74
     1
 91
        4
 64
     7
 65
   257
 75
     1
175
     1
 42
1.0
 92
        0
 66
   257
 43
1.0
 76
     1
 77
     6
 78
     2
 67
     7
 79
     5
170
     0
171
     0
290
     0
174
     0
 93
       13
 44
0.0
173
     0
291
     1
 45
0.0
  0
VISUALSTYLE
  5
2D
102
{ACAD_REACTORS
330
2A
102
}
102
{ACAD_XDICTIONARY
360
A3
102
}
330
2A
100
AcDbVisualStyle
  2
Gouraud
 70
     2
 71
     2
 72
     2
 73
     1
 90
        2
 40
-0.6
 41
30.0
 62
     5
 63
     7
421
 16777215
 74
     0
 91
        4
 64
     7
 65
   257
 75
     1
175
     1
 42
1.0
 92
        0
 66
     7
 43
1.0
 76
     1
 77
     6
 78
     2
 67
     7
 79
     5
170
     0
171
     0
290
     0
174
     0
 93
       13
 44
0.0
173
     0
291
     1
 45
0.0
  0
VISUALSTYLE
  5
2E
102
{ACAD_REACTORS
330
2A
102
}
102
{ACAD_XDICTIONARY
360
A5
102
}
330
2A
100
AcDbVisualStyle
  2
GouraudWithEdges
 70
     3
 71
     2
 72
     2
 73
     1
 90
        2
 40
-0.6
 41
30.0
 62
     5
 63
     7
421
 16777215
 74
     1
 91
        4
 64
     7
 65
   257
 75
     1
175
     1
 42
1.0
 92
        0
 66
   257
 43
1.0
 76
     1
 77
     6
 78
     2
 67
     7
 79
     5
170
     0
171
     0
290
     0
174
     0
 93
       13
 44
0.0
173
     0
291
     1
 45
0.0
  0
VISUALSTYLE
  5
38
102
{ACAD_REACTORS
330
2A
102
}
102
{ACAD_XDICTIONARY
360
B9
102
}
330
2A
100
AcDbVisualStyle
  2
Linepattern
 70
    14
 71
     2
 72
     2
 73
     0
 90
        0
 40
-0.6
 41
-30.0
 62
     5
 63
     7
421
 16777215
 74
     1
 91
        4
 64
     7
 65
   257
 75
     7
175
     7
 42
1.0
 92
        8
 66
     7
 43
1.0
 76
     1
 77
     6
 78
     2
 67
     7
 79
     5
170
     0
171
     0
290
     0
174
     0
 93
        1
 44
0.0
173
     0
291
     1
 45
0.0
  0
VISUALSTYLE
  5
33
102
{ACAD_REACTORS
330
2A
102
}
102
{ACAD_XDICTIONARY
360
AF
102
}
330
2A
100
AcDbVisualStyle
  2
Realistic
 70
     8
 71
     2
 72
     2
 73
     0
 90
        0
 40
-0.6
 41
-30.0
 62
     5
 63
     7
421
 16777215
 74
     1
 91
        0
 64
     7
 65
   257
 75
     1
175
     1
 42
1.0
 92
        8
 66
     8
424
  7895160
 43
1.0
 76
     1
 77
     6
 78
     2
 67
     7
 79
     5
170
     0
171
     0
290
     0
174
     0
 93
       13
 44
0.0
173
     0
291
     0
 45
0.0
  0
VISUALSTYLE
  5
37
102
{ACAD_REACTORS
330
2A
102
}
102
{ACAD_XDICTIONARY
360
B7
102
}
330
2A
100
AcDbVisualStyle
  2
Thicken
 70
    13
 71
     2
 72
     2
 73
     0
 90
        0
 40
-0.6
 41
-30.0
 62
     5
 63
     7
421
 16777215
 74
     1
 91
        4
 64
     7
 65
   257
 75
     1
175
     1
 42
1.0
 92
       12
 66
     7
 43
1.0
 76
     1
 77
     6
 78
     2
 67
     7
 79
     5
170
     0
171
     0
290
     0
174
     0
 93
        1
 44
0.0
173
     0
291
     1
 45
0.0
  0
DICTIONARY
  5
A7
330
2F
100
AcDbDictionary
280
     1
281
     1
  3
ACAD_XREC_ROUNDTRIP
360
A8
  0
DICTIONARY
  5
AB
330
31
100
AcDbDictionary
280
     1
281
     1
  3
ACAD_XREC_ROUNDTRIP
360
AC
  0
DICTIONARY
  5
A9
330
30
100
AcDbDictionary
280
     1
281
     1
  3
ACAD_XREC_ROUNDTRIP
360
AA
  0
DICTIONARY
  5
AD
330
32
100
AcDbDictionary
280
     1
281
     1
  3
ACAD_XREC_ROUNDTRIP
360
AE
  0
DICTIONARY
  5
B5
330
36
100
AcDbDictionary
280
     1
281
     1
  3
ACAD_XREC_ROUNDTRIP
360
B6
  0
DICTIONARY
  5
BD
330
3A
100
AcDbDictionary
280
     1
281
     1
  3
ACAD_XREC_ROUNDTRIP
360
BE
  0
DICTIONARY
  5
B1
330
34
100
AcDbDictionary
280
     1
281
     1
  3
ACAD_XREC_ROUNDTRIP
360
B2
  0
DICTIONARY
  5
B3
330
35
100
AcDbDictionary
280
     1
281
     1
  3
ACAD_XREC_ROUNDTRIP
360
B4
  0
DICTIONARY
  5
BB
330
39
100
AcDbDictionary
280
     1
281
     1
  3
ACAD_XREC_ROUNDTRIP
360
BC
  0
DICTIONARY
  5
9F
330
2B
100
AcDbDictionary
280
     1
281
     1
  3
ACAD_XREC_ROUNDTRIP
360
A0
  0
DICTIONARY
  5
A1
330
2C
100
AcDbDictionary
280
     1
281
     1
  3
ACAD_XREC_ROUNDTRIP
360
A2
  0
DICTIONARY
  5
A3
330
2D
100
AcDbDictionary
280
     1
281
     1
  3
ACAD_XREC_ROUNDTRIP
360
A4
  0
DICTIONARY
  5
A5
330
2E
100
AcDbDictionary
280
     1
281
     1
  3
ACAD_XREC_ROUNDTRIP
360
A6
  0
DICTIONARY
  5
B9
330
38
100
AcDbDictionary
280
     1
281
     1
  3
ACAD_XREC_ROUNDTRIP
360
BA
  0
DICTIONARY
  5
AF
330
33
100
AcDbDictionary
280
     1
281
     1
  3
ACAD_XREC_ROUNDTRIP
360
B0
  0
DICTIONARY
  5
B7
330
37
100
AcDbDictionary
280
     1
281
     1
  3
ACAD_XREC_ROUNDTRIP
360
B8
  0
XRECORD
  5
A8
102
{ACAD_REACTORS
330
A7
102
}
330
A7
100
AcDbXrecord
280
     1
102
RTVSPropertyOp0
 70
     1
102
RTVSPropertyOp1
 70
     1
102
RTVSPropertyOp2
 70
     1
102
RTVSPropertyOp3
 70
     1
102
RTVSPropertyOp4
 70
     1
102
RTVSPropertyOp5
 70
     1
102
RTVSPropertyOp6
 70
     1
102
RTVSPropertyOp7
 70
     1
102
RTVSPropertyOp8
 70
     1
102
RTVSPropertyOp9
 70
     1
102
RTVSPropertyOp10
 70
     1
102
RTVSPropertyOp11
 70
     1
102
RTVSPropertyOp12
 70
     1
102
RTVSPropertyOp13
 70
     1
102
RTVSPropertyOp14
 70
     1
102
RTVSPropertyOp15
 70
     1
102
RTVSPropertyOp16
 70
     1
102
RTVSPropertyOp17
 70
     1
102
RTVSPropertyOp18
 70
     1
102
RTVSPropertyOp19
 70
     1
102
RTVSPropertyOp20
 70
     1
102
RTVSPropertyOp21
 70
     1
102
RTVSPropertyOp22
 70
     1
102
RTVSPropertyOp23
 70
     1
102
RTVSPropertyOp24
 70
     1
102
RTVSPropertyOp25
 70
     1
102
RTVSPropertyOp26
 70
     1
102
RTVSPropertyOp27
 70
     1
102
RTVSPropertyOp28
 70
     1
102
RTVSPropertyOp29
 70
     1
102
RTVSPropertyOp30
 70
     1
102
RTVSPropertyOp31
 70
     1
102
RTVSPropertyOp32
 70
     1
  0
XRECORD
  5
AC
102
{ACAD_REACTORS
330
AB
102
}
330
AB
100
AcDbXrecord
280
     1
102
RTVSPropertyOp0
 70
     1
102
RTVSPropertyOp1
 70
     1
102
RTVSPropertyOp2
 70
     1
102
RTVSPropertyOp3
 70
     1
102
RTVSPropertyOp4
 70
     1
102
RTVSPropertyOp5
 70
     1
102
RTVSPropertyOp6
 70
     1
102
RTVSPropertyOp7
 70
     1
102
RTVSPropertyOp8
 70
     1
102
RTVSPropertyOp9
 70
     1
102
RTVSPropertyOp10
 70
     1
102
RTVSPropertyOp11
 70
     1
102
RTVSPropertyOp12
 70
     1
102
RTVSPropertyOp13
 70
     1
102
RTVSPropertyOp14
 70
     1
102
RTVSPropertyOp15
 70
     1
102
RTVSPropertyOp16
 70
     1
102
RTVSPropertyOp17
 70
     1
102
RTVSPropertyOp18
 70
     1
102
RTVSPropertyOp19
 70
     1
102
RTVSPropertyOp20
 70
     1
102
RTVSPropertyOp21
 70
     1
102
RTVSPropertyOp22
 70
     1
102
RTVSPropertyOp23
 70
     1
102
RTVSPropertyOp24
 70
     1
102
RTVSPropertyOp25
 70
     1
102
RTVSPropertyOp26
 70
     1
102
RTVSPropertyOp27
 70
     1
102
RTVSPropertyOp28
 70
     1
102
RTVSPropertyOp29
 70
     1
102
RTVSPropertyOp30
 70
     1
102
RTVSPropertyOp31
 70
     1
102
RTVSPropertyOp32
 70
     1
  0
XRECORD
  5
AA
102
{ACAD_REACTORS
330
A9
102
}
330
A9
100
AcDbXrecord
280
     1
102
RTVSPropertyOp0
 70
     1
102
RTVSPropertyOp1
 70
     1
102
RTVSPropertyOp2
 70
     1
102
RTVSPropertyOp3
 70
     1
102
RTVSPropertyOp4
 70
     1
102
RTVSPropertyOp5
 70
     1
102
RTVSPropertyOp6
 70
     1
102
RTVSPropertyOp7
 70
     1
102
RTVSPropertyOp8
 70
     1
102
RTVSPropertyOp9
 70
     1
102
RTVSPropertyOp10
 70
     1
102
RTVSPropertyOp11
 70
     1
102
RTVSPropertyOp12
 70
     1
102
RTVSPropertyOp13
 70
     1
102
RTVSPropertyOp14
 70
     1
102
RTVSPropertyOp15
 70
     1
102
RTVSPropertyOp16
 70
     1
102
RTVSPropertyOp17
 70
     1
102
RTVSPropertyOp18
 70
     1
102
RTVSPropertyOp19
 70
     1
102
RTVSPropertyOp20
 70
     1
102
RTVSPropertyOp21
 70
     1
102
RTVSPropertyOp22
 70
     1
102
RTVSPropertyOp23
 70
     1
102
RTVSPropertyOp24
 70
     1
102
RTVSPropertyOp25
 70
     1
102
RTVSPropertyOp26
 70
     1
102
RTVSPropertyOp27
 70
     1
102
RTVSPropertyOp28
 70
     1
102
RTVSPropertyOp29
 70
     1
102
RTVSPropertyOp30
 70
     1
102
RTVSPropertyOp31
 70
     1
102
RTVSPropertyOp32
 70
     1
  0
XRECORD
  5
AE
102
{ACAD_REACTORS
330
AD
102
}
330
AD
100
AcDbXrecord
280
     1
102
RTVSPropertyOp0
 70
     1
102
RTVSPropertyOp1
 70
     1
102
RTVSPropertyOp2
 70
     1
102
RTVSPropertyOp3
 70
     1
102
RTVSPropertyOp4
 70
     1
102
RTVSPropertyOp5
 70
     1
102
RTVSPropertyOp6
 70
     1
102
RTVSPropertyOp7
 70
     1
102
RTVSPropertyOp8
 70
     1
102
RTVSPropertyOp9
 70
     1
102
RTVSPropertyOp10
 70
     1
102
RTVSPropertyOp11
 70
     1
102
RTVSPropertyOp12
 70
     1
102
RTVSPropertyOp13
 70
     1
102
RTVSPropertyOp14
 70
     1
102
RTVSPropertyOp15
 70
     1
102
RTVSPropertyOp16
 70
     1
102
RTVSPropertyOp17
 70
     1
102
RTVSPropertyOp18
 70
     1
102
RTVSPropertyOp19
 70
     1
102
RTVSPropertyOp20
 70
     1
102
RTVSPropertyOp21
 70
     1
102
RTVSPropertyOp22
 70
     1
102
RTVSPropertyOp23
 70
     1
102
RTVSPropertyOp24
 70
     1
102
RTVSPropertyOp25
 70
     1
102
RTVSPropertyOp26
 70
     1
102
RTVSPropertyOp27
 70
     1
102
RTVSPropertyOp28
 70
     1
102
RTVSPropertyOp29
 70
     1
102
RTVSPropertyOp30
 70
     1
102
RTVSPropertyOp31
 70
     1
102
RTVSPropertyOp32
 70
     1
  0
XRECORD
  5
B6
102
{ACAD_REACTORS
330
B5
102
}
330
B5
100
AcDbXrecord
280
     1
102
RTVSPropertyOp0
 70
     1
102
RTVSPropertyOp1
 70
     1
102
RTVSPropertyOp2
 70
     1
102
RTVSPropertyOp3
 70
     1
102
RTVSPropertyOp4
 70
     1
102
RTVSPropertyOp5
 70
     1
102
RTVSPropertyOp6
 70
     1
102
RTVSPropertyOp7
 70
     1
102
RTVSPropertyOp8
 70
     1
102
RTVSPropertyOp9
 70
     1
102
RTVSPropertyOp10
 70
     1
102
RTVSPropertyOp11
 70
     1
102
RTVSPropertyOp12
 70
     1
102
RTVSPropertyOp13
 70
     1
102
RTVSPropertyOp14
 70
     1
102
RTVSPropertyOp15
 70
     1
102
RTVSPropertyOp16
 70
     1
102
RTVSPropertyOp17
 70
     1
102
RTVSPropertyOp18
 70
     1
102
RTVSPropertyOp19
 70
     1
102
RTVSPropertyOp20
 70
     1
102
RTVSPropertyOp21
 70
     1
102
RTVSPropertyOp22
 70
     1
102
RTVSPropertyOp23
 70
     1
102
RTVSPropertyOp24
 70
     1
102
RTVSPropertyOp25
 70
     1
102
RTVSPropertyOp26
 70
     1
102
RTVSPropertyOp27
 70
     1
102
RTVSPropertyOp28
 70
     1
102
RTVSPropertyOp29
 70
     1
102
RTVSPropertyOp30
 70
     1
102
RTVSPropertyOp31
 70
     1
102
RTVSPropertyOp32
 70
     1
  0
XRECORD
  5
BE
102
{ACAD_REACTORS
330
BD
102
}
330
BD
100
AcDbXrecord
280
     1
102
RTVSPropertyOp0
 70
     1
102
RTVSPropertyOp1
 70
     1
102
RTVSPropertyOp2
 70
     1
102
RTVSPropertyOp3
 70
     1
102
RTVSPropertyOp4
 70
     1
102
RTVSPropertyOp5
 70
     1
102
RTVSPropertyOp6
 70
     1
102
RTVSPropertyOp7
 70
     1
102
RTVSPropertyOp8
 70
     1
102
RTVSPropertyOp9
 70
     1
102
RTVSPropertyOp10
 70
     1
102
RTVSPropertyOp11
 70
     1
102
RTVSPropertyOp12
 70
     1
102
RTVSPropertyOp13
 70
     1
102
RTVSPropertyOp14
 70
     1
102
RTVSPropertyOp15
 70
     1
102
RTVSPropertyOp16
 70
     1
102
RTVSPropertyOp17
 70
     1
102
RTVSPropertyOp18
 70
     1
102
RTVSPropertyOp19
 70
     1
102
RTVSPropertyOp20
 70
     1
102
RTVSPropertyOp21
 70
     1
102
RTVSPropertyOp22
 70
     1
102
RTVSPropertyOp23
 70
     1
102
RTVSPropertyOp24
 70
     1
102
RTVSPropertyOp25
 70
     1
102
RTVSPropertyOp26
 70
     1
102
RTVSPropertyOp27
 70
     1
102
RTVSPropertyOp28
 70
     1
102
RTVSPropertyOp29
 70
     1
102
RTVSPropertyOp30
 70
     1
102
RTVSPropertyOp31
 70
     1
102
RTVSPropertyOp32
 70
     1
  0
XRECORD
  5
B2
102
{ACAD_REACTORS
330
B1
102
}
330
B1
100
AcDbXrecord
280
     1
102
RTVSPropertyOp0
 70
     1
102
RTVSPropertyOp1
 70
     1
102
RTVSPropertyOp2
 70
     1
102
RTVSPropertyOp3
 70
     1
102
RTVSPropertyOp4
 70
     1
102
RTVSPropertyOp5
 70
     1
102
RTVSPropertyOp6
 70
     1
102
RTVSPropertyOp7
 70
     1
102
RTVSPropertyOp8
 70
     1
102
RTVSPropertyOp9
 70
     1
102
RTVSPropertyOp10
 70
     1
102
RTVSPropertyOp11
 70
     1
102
RTVSPropertyOp12
 70
     1
102
RTVSPropertyOp13
 70
     1
102
RTVSPropertyOp14
 70
     1
102
RTVSPropertyOp15
 70
     1
102
RTVSPropertyOp16
 70
     1
102
RTVSPropertyOp17
 70
     1
102
RTVSPropertyOp18
 70
     1
102
RTVSPropertyOp19
 70
     1
102
RTVSPropertyOp20
 70
     1
102
RTVSPropertyOp21
 70
     1
102
RTVSPropertyOp22
 70
     1
102
RTVSPropertyOp23
 70
     1
102
RTVSPropertyOp24
 70
     1
102
RTVSPropertyOp25
 70
     1
102
RTVSPropertyOp26
 70
     1
102
RTVSPropertyOp27
 70
     1
102
RTVSPropertyOp28
 70
     1
102
RTVSPropertyOp29
 70
     1
102
RTVSPropertyOp30
 70
     1
102
RTVSPropertyOp31
 70
     1
102
RTVSPropertyOp32
 70
     1
  0
XRECORD
  5
B4
102
{ACAD_REACTORS
330
B3
102
}
330
B3
100
AcDbXrecord
280
     1
102
RTVSPropertyOp0
 70
     1
102
RTVSPropertyOp1
 70
     1
102
RTVSPropertyOp2
 70
     1
102
RTVSPropertyOp3
 70
     1
102
RTVSPropertyOp4
 70
     1
102
RTVSPropertyOp5
 70
     1
102
RTVSPropertyOp6
 70
     1
102
RTVSPropertyOp7
 70
     1
102
RTVSPropertyOp8
 70
     1
102
RTVSPropertyOp9
 70
     1
102
RTVSPropertyOp10
 70
     1
102
RTVSPropertyOp11
 70
     1
102
RTVSPropertyOp12
 70
     1
102
RTVSPropertyOp13
 70
     1
102
RTVSPropertyOp14
 70
     1
102
RTVSPropertyOp15
 70
     1
102
RTVSPropertyOp16
 70
     1
102
RTVSPropertyOp17
 70
     1
102
RTVSPropertyOp18
 70
     1
102
RTVSPropertyOp19
 70
     1
102
RTVSPropertyOp20
 70
     1
102
RTVSPropertyOp21
 70
     1
102
RTVSPropertyOp22
 70
     1
102
RTVSPropertyOp23
 70
     1
102
RTVSPropertyOp24
 70
     1
102
RTVSPropertyOp25
 70
     1
102
RTVSPropertyOp26
 70
     1
102
RTVSPropertyOp27
 70
     1
102
RTVSPropertyOp28
 70
     1
102
RTVSPropertyOp29
 70
     1
102
RTVSPropertyOp30
 70
     1
102
RTVSPropertyOp31
 70
     1
102
RTVSPropertyOp32
 70
     1
  0
XRECORD
  5
BC
102
{ACAD_REACTORS
330
BB
102
}
330
BB
100
AcDbXrecord
280
     1
102
RTVSPropertyOp0
 70
     1
102
RTVSPropertyOp1
 70
     1
102
RTVSPropertyOp2
 70
     1
102
RTVSPropertyOp3
 70
     1
102
RTVSPropertyOp4
 70
     1
102
RTVSPropertyOp5
 70
     1
102
RTVSPropertyOp6
 70
     1
102
RTVSPropertyOp7
 70
     1
102
RTVSPropertyOp8
 70
     1
102
RTVSPropertyOp9
 70
     1
102
RTVSPropertyOp10
 70
     1
102
RTVSPropertyOp11
 70
     1
102
RTVSPropertyOp12
 70
     1
102
RTVSPropertyOp13
 70
     1
102
RTVSPropertyOp14
 70
     1
102
RTVSPropertyOp15
 70
     1
102
RTVSPropertyOp16
 70
     1
102
RTVSPropertyOp17
 70
     1
102
RTVSPropertyOp18
 70
     1
102
RTVSPropertyOp19
 70
     1
102
RTVSPropertyOp20
 70
     1
102
RTVSPropertyOp21
 70
     1
102
RTVSPropertyOp22
 70
     1
102
RTVSPropertyOp23
 70
     1
102
RTVSPropertyOp24
 70
     1
102
RTVSPropertyOp25
 70
     1
102
RTVSPropertyOp26
 70
     1
102
RTVSPropertyOp27
 70
     1
102
RTVSPropertyOp28
 70
     1
102
RTVSPropertyOp29
 70
     1
102
RTVSPropertyOp30
 70
     1
102
RTVSPropertyOp31
 70
     1
102
RTVSPropertyOp32
 70
     1
  0
XRECORD
  5
A0
102
{ACAD_REACTORS
330
9F
102
}
330
9F
100
AcDbXrecord
280
     1
102
RTVSPropertyOp0
 70
     1
102
RTVSPropertyOp1
 70
     1
102
RTVSPropertyOp2
 70
     1
102
RTVSPropertyOp3
 70
     1
102
RTVSPropertyOp4
 70
     1
102
RTVSPropertyOp5
 70
     1
102
RTVSPropertyOp6
 70
     1
102
RTVSPropertyOp7
 70
     1
102
RTVSPropertyOp8
 70
     1
102
RTVSPropertyOp9
 70
     1
102
RTVSPropertyOp10
 70
     1
102
RTVSPropertyOp11
 70
     1
102
RTVSPropertyOp12
 70
     1
102
RTVSPropertyOp13
 70
     1
102
RTVSPropertyOp14
 70
     1
102
RTVSPropertyOp15
 70
     1
102
RTVSPropertyOp16
 70
     1
102
RTVSPropertyOp17
 70
     1
102
RTVSPropertyOp18
 70
     1
102
RTVSPropertyOp19
 70
     1
102
RTVSPropertyOp20
 70
     1
102
RTVSPropertyOp21
 70
     1
102
RTVSPropertyOp22
 70
     1
102
RTVSPropertyOp23
 70
     1
102
RTVSPropertyOp24
 70
     1
102
RTVSPropertyOp25
 70
     1
102
RTVSPropertyOp26
 70
     1
102
RTVSPropertyOp27
 70
     1
102
RTVSPropertyOp28
 70
     1
102
RTVSPropertyOp29
 70
     1
102
RTVSPropertyOp30
 70
     1
102
RTVSPropertyOp31
 70
     1
102
RTVSPropertyOp32
 70
     1
  0
XRECORD
  5
A2
102
{ACAD_REACTORS
330
A1
102
}
330
A1
100
AcDbXrecord
280
     1
102
RTVSPropertyOp0
 70
     1
102
RTVSPropertyOp1
 70
     1
102
RTVSPropertyOp2
 70
     1
102
RTVSPropertyOp3
 70
     1
102
RTVSPropertyOp4
 70
     1
102
RTVSPropertyOp5
 70
     1
102
RTVSPropertyOp6
 70
     1
102
RTVSPropertyOp7
 70
     1
102
RTVSPropertyOp8
 70
     1
102
RTVSPropertyOp9
 70
     1
102
RTVSPropertyOp10
 70
     1
102
RTVSPropertyOp11
 70
     1
102
RTVSPropertyOp12
 70
     1
102
RTVSPropertyOp13
 70
     1
102
RTVSPropertyOp14
 70
     1
102
RTVSPropertyOp15
 70
     1
102
RTVSPropertyOp16
 70
     1
102
RTVSPropertyOp17
 70
     1
102
RTVSPropertyOp18
 70
     1
102
RTVSPropertyOp19
 70
     1
102
RTVSPropertyOp20
 70
     1
102
RTVSPropertyOp21
 70
     1
102
RTVSPropertyOp22
 70
     1
102
RTVSPropertyOp23
 70
     1
102
RTVSPropertyOp24
 70
     1
102
RTVSPropertyOp25
 70
     1
102
RTVSPropertyOp26
 70
     1
102
RTVSPropertyOp27
 70
     1
102
RTVSPropertyOp28
 70
     1
102
RTVSPropertyOp29
 70
     1
102
RTVSPropertyOp30
 70
     1
102
RTVSPropertyOp31
 70
     1
102
RTVSPropertyOp32
 70
     1
  0
XRECORD
  5
A4
102
{ACAD_REACTORS
330
A3
102
}
330
A3
100
AcDbXrecord
280
     1
102
RTVSPropertyOp0
 70
     1
102
RTVSPropertyOp1
 70
     1
102
RTVSPropertyOp2
 70
     1
102
RTVSPropertyOp3
 70
     1
102
RTVSPropertyOp4
 70
     1
102
RTVSPropertyOp5
 70
     1
102
RTVSPropertyOp6
 70
     1
102
RTVSPropertyOp7
 70
     1
102
RTVSPropertyOp8
 70
     1
102
RTVSPropertyOp9
 70
     1
102
RTVSPropertyOp10
 70
     1
102
RTVSPropertyOp11
 70
     1
102
RTVSPropertyOp12
 70
     1
102
RTVSPropertyOp13
 70
     1
102
RTVSPropertyOp14
 70
     1
102
RTVSPropertyOp15
 70
     1
102
RTVSPropertyOp16
 70
     1
102
RTVSPropertyOp17
 70
     1
102
RTVSPropertyOp18
 70
     1
102
RTVSPropertyOp19
 70
     1
102
RTVSPropertyOp20
 70
     1
102
RTVSPropertyOp21
 70
     1
102
RTVSPropertyOp22
 70
     1
102
RTVSPropertyOp23
 70
     1
102
RTVSPropertyOp24
 70
     1
102
RTVSPropertyOp25
 70
     1
102
RTVSPropertyOp26
 70
     1
102
RTVSPropertyOp27
 70
     1
102
RTVSPropertyOp28
 70
     1
102
RTVSPropertyOp29
 70
     1
102
RTVSPropertyOp30
 70
     1
102
RTVSPropertyOp31
 70
     1
102
RTVSPropertyOp32
 70
     1
  0
XRECORD
  5
A6
102
{ACAD_REACTORS
330
A5
102
}
330
A5
100
AcDbXrecord
280
     1
102
RTVSPropertyOp0
 70
     1
102
RTVSPropertyOp1
 70
     1
102
RTVSPropertyOp2
 70
     1
102
RTVSPropertyOp3
 70
     1
102
RTVSPropertyOp4
 70
     1
102
RTVSPropertyOp5
 70
     1
102
RTVSPropertyOp6
 70
     1
102
RTVSPropertyOp7
 70
     1
102
RTVSPropertyOp8
 70
     1
102
RTVSPropertyOp9
 70
     1
102
RTVSPropertyOp10
 70
     1
102
RTVSPropertyOp11
 70
     1
102
RTVSPropertyOp12
 70
     1
102
RTVSPropertyOp13
 70
     1
102
RTVSPropertyOp14
 70
     1
102
RTVSPropertyOp15
 70
     1
102
RTVSPropertyOp16
 70
     1
102
RTVSPropertyOp17
 70
     1
102
RTVSPropertyOp18
 70
     1
102
RTVSPropertyOp19
 70
     1
102
RTVSPropertyOp20
 70
     1
102
RTVSPropertyOp21
 70
     1
102
RTVSPropertyOp22
 70
     1
102
RTVSPropertyOp23
 70
     1
102
RTVSPropertyOp24
 70
     1
102
RTVSPropertyOp25
 70
     1
102
RTVSPropertyOp26
 70
     1
102
RTVSPropertyOp27
 70
     1
102
RTVSPropertyOp28
 70
     1
102
RTVSPropertyOp29
 70
     1
102
RTVSPropertyOp30
 70
     1
102
RTVSPropertyOp31
 70
     1
102
RTVSPropertyOp32
 70
     1
  0
XRECORD
  5
BA
102
{ACAD_REACTORS
330
B9
102
}
330
B9
100
AcDbXrecord
280
     1
102
RTVSPropertyOp0
 70
     1
102
RTVSPropertyOp1
 70
     1
102
RTVSPropertyOp2
 70
     1
102
RTVSPropertyOp3
 70
     1
102
RTVSPropertyOp4
 70
     1
102
RTVSPropertyOp5
 70
     1
102
RTVSPropertyOp6
 70
     1
102
RTVSPropertyOp7
 70
     1
102
RTVSPropertyOp8
 70
     1
102
RTVSPropertyOp9
 70
     1
102
RTVSPropertyOp10
 70
     1
102
RTVSPropertyOp11
 70
     1
102
RTVSPropertyOp12
 70
     1
102
RTVSPropertyOp13
 70
     1
102
RTVSPropertyOp14
 70
     1
102
RTVSPropertyOp15
 70
     1
102
RTVSPropertyOp16
 70
     1
102
RTVSPropertyOp17
 70
     1
102
RTVSPropertyOp18
 70
     1
102
RTVSPropertyOp19
 70
     1
102
RTVSPropertyOp20
 70
     1
102
RTVSPropertyOp21
 70
     1
102
RTVSPropertyOp22
 70
     1
102
RTVSPropertyOp23
 70
     1
102
RTVSPropertyOp24
 70
     1
102
RTVSPropertyOp25
 70
     1
102
RTVSPropertyOp26
 70
     1
102
RTVSPropertyOp27
 70
     1
102
RTVSPropertyOp28
 70
     1
102
RTVSPropertyOp29
 70
     1
102
RTVSPropertyOp30
 70
     1
102
RTVSPropertyOp31
 70
     1
102
RTVSPropertyOp32
 70
     1
  0
XRECORD
  5
B0
102
{ACAD_REACTORS
330
AF
102
}
330
AF
100
AcDbXrecord
280
     1
102
RTVSPropertyOp0
 70
     1
102
RTVSPropertyOp1
 70
     1
102
RTVSPropertyOp2
 70
     1
102
RTVSPropertyOp3
 70
     1
102
RTVSPropertyOp4
 70
     1
102
RTVSPropertyOp5
 70
     1
102
RTVSPropertyOp6
 70
     1
102
RTVSPropertyOp7
 70
     1
102
RTVSPropertyOp8
 70
     1
102
RTVSPropertyOp9
 70
     1
102
RTVSPropertyOp10
 70
     1
102
RTVSPropertyOp11
 70
     1
102
RTVSPropertyOp12
 70
     1
102
RTVSPropertyOp13
 70
     1
102
RTVSPropertyOp14
 70
     1
102
RTVSPropertyOp15
 70
     1
102
RTVSPropertyOp16
 70
     1
102
RTVSPropertyOp17
 70
     1
102
RTVSPropertyOp18
 70
     1
102
RTVSPropertyOp19
 70
     1
102
RTVSPropertyOp20
 70
     1
102
RTVSPropertyOp21
 70
     1
102
RTVSPropertyOp22
 70
     1
102
RTVSPropertyOp23
 70
     1
102
RTVSPropertyOp24
 70
     1
102
RTVSPropertyOp25
 70
     1
102
RTVSPropertyOp26
 70
     1
102
RTVSPropertyOp27
 70
     1
102
RTVSPropertyOp28
 70
     1
102
RTVSPropertyOp29
 70
     1
102
RTVSPropertyOp30
 70
     1
102
RTVSPropertyOp31
 70
     1
102
RTVSPropertyOp32
 70
     1
  0
XRECORD
  5
B8
102
{ACAD_REACTORS
330
B7
102
}
330
B7
100
AcDbXrecord
280
     1
102
RTVSPropertyOp0
 70
     1
102
RTVSPropertyOp1
 70
     1
102
RTVSPropertyOp2
 70
     1
102
RTVSPropertyOp3
 70
     1
102
RTVSPropertyOp4
 70
     1
102
RTVSPropertyOp5
 70
     1
102
RTVSPropertyOp6
 70
     1
102
RTVSPropertyOp7
 70
     1
102
RTVSPropertyOp8
 70
     1
102
RTVSPropertyOp9
 70
     1
102
RTVSPropertyOp10
 70
     1
102
RTVSPropertyOp11
 70
     1
102
RTVSPropertyOp12
 70
     1
102
RTVSPropertyOp13
 70
     1
102
RTVSPropertyOp14
 70
     1
102
RTVSPropertyOp15
 70
     1
102
RTVSPropertyOp16
 70
     1
102
RTVSPropertyOp17
 70
     1
102
RTVSPropertyOp18
 70
     1
102
RTVSPropertyOp19
 70
     1
102
RTVSPropertyOp20
 70
     1
102
RTVSPropertyOp21
 70
     1
102
RTVSPropertyOp22
 70
     1
102
RTVSPropertyOp23
 70
     1
102
RTVSPropertyOp24
 70
     1
102
RTVSPropertyOp25
 70
     1
102
RTVSPropertyOp26
 70
     1
102
RTVSPropertyOp27
 70
     1
102
RTVSPropertyOp28
 70
     1
102
RTVSPropertyOp29
 70
     1
102
RTVSPropertyOp30
 70
     1
102
RTVSPropertyOp31
 70
     1
102
RTVSPropertyOp32
 70
     1
  0
ENDSEC
  0
EOF
