  0
SECTION
  2
HEADER
  9
$ACADVER
  1
AC1021
  9
$ACADMAINTVER
 70
    25
  9
$DWGCODEPAGE
  3
ANSI_1252
  9
$INSBASE
 10
0.0
 20
0.0
 30
0.0
  9
$EXTMIN
 10
-187.3148
 20
-114.7794
 30
0.0
  9
$EXTMAX
 10
-84.4104
 20
131.8297
 30
0.0
  9
$LIMMIN
 10
0.0
 20
0.0
  9
$LIMMAX
 10
12.0
 20
9.0
  9
$ORTHOMODE
 70
     0
  9
$REGENMODE
 70
     1
  9
$FILLMODE
 70
     1
  9
$QTEXTMODE
 70
     0
  9
$MIRRTEXT
 70
     1
  9
$LTSCALE
 40
1.0
  9
$ATTMODE
 70
     1
  9
$TEXTSIZE
 40
0.2
  9
$TRACEWID
 40
0.05
  9
$TEXTSTYLE
  7
Standard
  9
$CLAYER
  8
0
  9
$CELTYPE
  6
ByLayer
  9
$CECOLOR
 62
   256
  9
$CELTSCALE
 40
1.0
  9
$DISPSILH
 70
     0
  9
$DIMSCALE
 40
1.0
  9
$DIMASZ
 40
0.18
  9
$DIMEXO
 40
0.0625
  9
$DIMDLI
 40
0.38
  9
$DIMRND
 40
0.0
  9
$DIMDLE
 40
0.0
  9
$DIMEXE
 40
0.18
  9
$DIMTP
 40
0.0
  9
$DIMTM
 40
0.0
  9
$DIMTXT
 40
0.18
  9
$DIMCEN
 40
0.09
  9
$DIMTSZ
 40
0.0
  9
$DIMTOL
 70
     0
  9
$DIMLIM
 70
     0
  9
$DIMTIH
 70
     1
  9
$DIMTOH
 70
     1
  9
$DIMSE1
 70
     0
  9
$DIMSE2
 70
     0
  9
$DIMTAD
 70
     0
  9
$DIMZIN
 70
     0
  9
$DIMBLK
  1

  9
$DIMASO
 70
     1
  9
$DIMSHO
 70
     1
  9
$DIMPOST
  1

  9
$DIMAPOST
  1

  9
$DIMALT
 70
     0
  9
$DIMALTD
 70
     2
  9
$DIMALTF
 40
25.4
  9
$DIMLFAC
 40
1.0
  9
$DIMTOFL
 70
     0
  9
$DIMTVP
 40
0.0
  9
$DIMTIX
 70
     0
  9
$DIMSOXD
 70
     0
  9
$DIMSAH
 70
     0
  9
$DIMBLK1
  1

  9
$DIMBLK2
  1

  9
$DIMSTYLE
  2
Standard
  9
$DIMCLRD
 70
     0
  9
$DIMCLRE
 70
     0
  9
$DIMCLRT
 70
     0
  9
$DIMTFAC
 40
1.0
  9
$DIMGAP
 40
0.09
  9
$DIMJUST
 70
     0
  9
$DIMSD1
 70
     0
  9
$DIMSD2
 70
     0
  9
$DIMTOLJ
 70
     1
  9
$DIMTZIN
 70
     0
  9
$DIMALTZ
 70
     0
  9
$DIMALTTZ
 70
     0
  9
$DIMUPT
 70
     0
  9
$DIMDEC
 70
     4
  9
$DIMTDEC
 70
     4
  9
$DIMALTU
 70
     2
  9
$DIMALTTD
 70
     2
  9
$DIMTXSTY
  7
Standard
  9
$DIMAUNIT
 70
     0
  9
$DIMADEC
 70
     0
  9
$DIMALTRND
 40
0.0
  9
$DIMAZIN
 70
     0
  9
$DIMDSEP
 70
    46
  9
$DIMATFIT
 70
     3
  9
$DIMFRAC
 70
     0
  9
$DIMLDRBLK
  1

  9
$DIMLUNIT
 70
     2
  9
$DIMLWD
 70
    -2
  9
$DIMLWE
 70
    -2
  9
$DIMTMOVE
 70
     0
  9
$DIMFXL
 40
1.0
  9
$DIMFXLON
 70
     0
  9
$DIMJOGANG
 40
0.7853981633974483
  9
$DIMTFILL
 70
     0
  9
$DIMTFILLCLR
 70
     0
  9
$DIMARCSYM
 70
     0
  9
$DIMLTYPE
  6

  9
$DIMLTEX1
  6

  9
$DIMLTEX2
  6

  9
$LUNITS
 70
     2
  9
$LUPREC
 70
     4
  9
$SKETCHINC
 40
0.1
  9
$FILLETRAD
 40
0.5
  9
$AUNITS
 70
     0
  9
$AUPREC
 70
     0
  9
$MENU
  1
.
  9
$ELEVATION
 40
0.0
  9
$PELEVATION
 40
0.0
  9
$THICKNESS
 40
0.0
  9
$LIMCHECK
 70
     0
  9
$CHAMFERA
 40
0.5
  9
$CHAMFERB
 40
0.5
  9
$CHAMFERC
 40
1.0
  9
$CHAMFERD
 40
0.0
  9
$SKPOLY
 70
     0
  9
$TDCREATE
 40
2458492.697730613
  9
$TDUCREATE
 40
2458492.697730613
  9
$TDUPDATE
 40
2458492.697730949
  9
$TDUUPDATE
 40
2458492.697730949
  9
$TDINDWG
 40
0.0000000116
  9
$TDUSRTIMER
 40
0.0000000116
  9
$USRTIMER
 70
     1
  9
$ANGBASE
 50
0.0
  9
$ANGDIR
 70
     0
  9
$PDMODE
 70
     0
  9
$PDSIZE
 40
0.0
  9
$PLINEWID
 40
0.0
  9
$SPLFRAME
 70
     0
  9
$SPLINETYPE
 70
     6
  9
$SPLINESEGS
 70
     8
  9
$HANDSEED
  5
D9
  9
$SURFTAB1
 70
     6
  9
$SURFTAB2
 70
     6
  9
$SURFTYPE
 70
     6
  9
$SURFU
 70
     6
  9
$SURFV
 70
     6
  9
$UCSBASE
  2

  9
$UCSNAME
  2

  9
$UCSORG
 10
0.0
 20
0.0
 30
0.0
  9
$UCSXDIR
 10
1.0
 20
0.0
 30
0.0
  9
$UCSYDIR
 10
0.0
 20
1.0
 30
0.0
  9
$UCSORTHOREF
  2

  9
$UCSORTHOVIEW
 70
     0
  9
$UCSORGTOP
 10
0.0
 20
0.0
 30
0.0
  9
$UCSORGBOTTOM
 10
0.0
 20
0.0
 30
0.0
  9
$UCSORGLEFT
 10
0.0
 20
0.0
 30
0.0
  9
$UCSORGRIGHT
 10
0.0
 20
0.0
 30
0.0
  9
$UCSORGFRONT
 10
0.0
 20
0.0
 30
0.0
  9
$UCSORGBACK
 10
0.0
 20
0.0
 30
0.0
  9
$PUCSBASE
  2

  9
$PUCSNAME
  2

  9
$PUCSORG
 10
0.0
 20
0.0
 30
0.0
  9
$PUCSXDIR
 10
1.0
 20
0.0
 30
0.0
  9
$PUCSYDIR
 10
0.0
 20
1.0
 30
0.0
  9
$PUCSORTHOREF
  2

  9
$PUCSORTHOVIEW
 70
     0
  9
$PUCSORGTOP
 10
0.0
 20
0.0
 30
0.0
  9
$PUCSORGBOTTOM
 10
0.0
 20
0.0
 30
0.0
  9
$PUCSORGLEFT
 10
0.0
 20
0.0
 30
0.0
  9
$PUCSORGRIGHT
 10
0.0
 20
0.0
 30
0.0
  9
$PUCSORGFRONT
 10
0.0
 20
0.0
 30
0.0
  9
$PUCSORGBACK
 10
0.0
 20
0.0
 30
0.0
  9
$USERI1
 70
     0
  9
$USERI2
 70
     0
  9
$USERI3
 70
     0
  9
$USERI4
 70
     0
  9
$USERI5
 70
     0
  9
$USERR1
 40
0.0
  9
$USERR2
 40
0.0
  9
$USERR3
 40
0.0
  9
$USERR4
 40
0.0
  9
$USERR5
 40
0.0
  9
$WORLDVIEW
 70
     1
  9
$SHADEDGE
 70
     3
  9
$SHADEDIF
 70
    70
  9
$TILEMODE
 70
     1
  9
$MAXACTVP
 70
    64
  9
$PINSBASE
 10
0.0
 20
0.0
 30
0.0
  9
$PLIMCHECK
 70
     0
  9
$PEXTMIN
 10
1.000000000000000E+20
 20
1.000000000000000E+20
 30
1.000000000000000E+20
  9
$PEXTMAX
 10
-1.000000000000000E+20
 20
-1.000000000000000E+20
 30
-1.000000000000000E+20
  9
$PLIMMIN
 10
0.0
 20
0.0
  9
$PLIMMAX
 10
12.0
 20
9.0
  9
$UNITMODE
 70
     0
  9
$VISRETAIN
 70
     1
  9
$PLINEGEN
 70
     0
  9
$PSLTSCALE
 70
     1
  9
$TREEDEPTH
 70
  3020
  9
$CMLSTYLE
  2
Standard
  9
$CMLJUST
 70
     0
  9
$CMLSCALE
 40
1.0
  9
$PROXYGRAPHICS
 70
     1
  9
$MEASUREMENT
 70
     0
  9
$CELWEIGHT
370
    -1
  9
$ENDCAPS
280
     0
  9
$JOINSTYLE
280
     0
  9
$LWDISPLAY
290
     0
  9
$INSUNITS
 70
     4
  9
$HYPERLINKBASE
  1

  9
$STYLESHEET
  1

  9
$XEDIT
290
     1
  9
$CEPSNTYPE
380
     0
  9
$PSTYLEMODE
290
     1
  9
$FINGERPRINTGUID
  2
{A4470F8B-3F53-465A-BDA2-BF5D43681921}
  9
$VERSIONGUID
  2
{FAEB1C32-E019-11D5-929B-00C0DF256EC4}
  9
$EXTNAMES
290
     1
  9
$PSVPSCALE
 40
0.0
  9
$OLESTARTUP
290
     0
  9
$SORTENTS
280
   127
  9
$INDEXCTL
280
     0
  9
$HIDETEXT
280
     1
  9
$XCLIPFRAME
290
     0
  9
$HALOGAP
280
     0
  9
$OBSCOLOR
 70
   257
  9
$OBSLTYPE
280
     0
  9
$INTERSECTIONDISPLAY
280
     0
  9
$INTERSECTIONCOLOR
 70
   257
  9
$DIMASSOC
280
     2
  9
$PROJECTNAME
  1

  9
$CAMERADISPLAY
290
     0
  9
$LENSLENGTH
 40
50.0
  9
$CAMERAHEIGHT
 40
0.0
  9
$STEPSPERSEC
 40
2.0
  9
$STEPSIZE
 40
6.0
  9
$3DDWFPREC
 40
2.0
  9
$PSOLWIDTH
 40
0.25
  9
$PSOLHEIGHT
 40
4.0
  9
$LOFTANG1
 40
1.570796326794897
  9
$LOFTANG2
 40
1.570796326794897
  9
$LOFTMAG1
 40
0.0
  9
$LOFTMAG2
 40
0.0
  9
$LOFTPARAM
 70
     7
  9
$LOFTNORMALS
280
     1
  9
$LATITUDE
 40
37.795
  9
$LONGITUDE
 40
-122.394
  9
$NORTHDIRECTION
 40
0.0
  9
$TIMEZONE
 70
 -8000
  9
$LIGHTGLYPHDISPLAY
280
     1
  9
$TILEMODELIGHTSYNCH
280
     1
  9
$SOLIDHIST
280
     1
  9
$SHOWHIST
280
     1
  9
$DWFFRAME
280
     2
  9
$DGNFRAME
280
     2
  9
$REALWORLDSCALE
290
     1
  9
$INTERFERECOLOR
 62
   256
  9
$CSHADOW
280
     0
  9
$SHADOWPLANELOCATION
 40
0.0
  0
ENDSEC
  0
SECTION
  2
CLASSES
  0
CLASS
  1
ACDBDICTIONARYWDFLT
  2
AcDbDictionaryWithDefault
  3
ObjectDBX Classes
 90
        0
 91
        4
280
     0
281
     0
  0
CLASS
  1
VISUALSTYLE
  2
AcDbVisualStyle
  3
ObjectDBX Classes
 90
     4095
 91
        4
280
     0
281
     0
  0
CLASS
  1
MATERIAL
  2
AcDbMaterial
  3
ObjectDBX Classes
 90
     1153
 91
        4
280
     0
281
     0
  0
ENDSEC
  0
SECTION
  2
TABLES
  0
TABLE
  2
VPORT
  5
8
330
0
100
AcDbSymbolTable
 70
     1
  0
VPORT
  5
29
330
8
100
AcDbSymbolTableRecord
100
AcDbViewportTableRecord
  2
*Active
 70
     0
 10
0.0
 20
0.0
 11
1.0
 21
1.0
 12
10.42990654205607
 22
4.5
 13
0.0
 23
0.0
 14
0.5
 24
0.5
 15
0.5
 25
0.5
 16
0.0
 26
0.0
 36
1.0
 17
0.0
 27
0.0
 37
0.0
 40
9.0
 41
1.972972972850329
 42
50.0
 43
0.0
 44
0.0
 50
0.0
 51
0.0
 71
     0
 72
   100
 73
     1
 74
     3
 75
     0
 76
     0
 77
     0
 78
     0
281
     0
 65
     1
110
0.0
120
0.0
130
0.0
111
1.0
121
0.0
131
0.0
112
0.0
122
1.0
132
0.0
 79
     0
146
0.0
 60
     3
 61
     5
292
     1
282
     1
141
0.0
142
0.0
 63
   250
  0
ENDTAB
  0
TABLE
  2
LTYPE
  5
5
330
0
100
AcDbSymbolTable
 70
     1
  0
LTYPE
  5
14
330
5
100
AcDbSymbolTableRecord
100
AcDbLinetypeTableRecord
  2
ByBlock
 70
     0
  3

 72
    65
 73
     0
 40
0.0
  0
LTYPE
  5
15
330
5
100
AcDbSymbolTableRecord
100
AcDbLinetypeTableRecord
  2
ByLayer
 70
     0
  3

 72
    65
 73
     0
 40
0.0
  0
LTYPE
  5
16
330
5
100
AcDbSymbolTableRecord
100
AcDbLinetypeTableRecord
  2
Continuous
 70
     0
  3
Solid line
 72
    65
 73
     0
 40
0.0
  0
ENDTAB
  0
TABLE
  2
LAYER
  5
2
330
0
100
AcDbSymbolTable
 70
     2
  0
LAYER
  5
10
330
2
100
AcDbSymbolTableRecord
100
AcDbLayerTableRecord
  2
0
 70
     0
 62
     7
  6
Continuous
370
    -3
390
F
347
3E
  0
LAYER
  5
40
330
2
100
AcDbSymbolTableRecord
100
AcDbLayerTableRecord
  2
layer 1
 70
     0
 62
     7
  6
Continuous
370
    -3
390
F
347
3E
  0
ENDTAB
  0
TABLE
  2
STYLE
  5
3
330
0
100
AcDbSymbolTable
 70
     1
  0
STYLE
  5
11
330
3
100
AcDbSymbolTableRecord
100
AcDbTextStyleTableRecord
  2
Standard
 70
     0
 40
0.0
 41
1.0
 50
0.0
 71
     0
 42
0.2
  3
txt
  4

  0
ENDTAB
  0
TABLE
  2
VIEW
  5
6
330
0
100
AcDbSymbolTable
 70
     0
  0
ENDTAB
  0
TABLE
  2
UCS
  5
7
330
0
100
AcDbSymbolTable
 70
     0
  0
ENDTAB
  0
TABLE
  2
APPID
  5
9
330
0
100
AcDbSymbolTable
 70
     2
  0
APPID
  5
12
330
9
100
AcDbSymbolTableRecord
100
AcDbRegAppTableRecord
  2
ACAD
 70
     0
  0
APPID
  5
3F
330
9
100
AcDbSymbolTableRecord
100
AcDbRegAppTableRecord
  2
ODA
 70
     0
  0
ENDTAB
  0
TABLE
  2
DIMSTYLE
  5
A
330
0
100
AcDbSymbolTable
 70
     1
100
AcDbDimStyleTable
  0
DIMSTYLE
105
27
330
A
100
AcDbSymbolTableRecord
100
AcDbDimStyleTableRecord
  2
Standard
 70
     0
178
     0
340
11
  0
ENDTAB
  0
TABLE
  2
BLOCK_RECORD
  5
1
330
0
100
AcDbSymbolTable
 70
     1
  0
BLOCK_RECORD
  5
1F
330
1
100
AcDbSymbolTableRecord
100
AcDbBlockTableRecord
  2
*Model_Space
340
22
 70
     0
280
     1
281
     0
  0
BLOCK_RECORD
  5
1B
330
1
100
AcDbSymbolTableRecord
100
AcDbBlockTableRecord
  2
*Paper_Space
340
1E
 70
     0
280
     1
281
     0
  0
BLOCK_RECORD
  5
23
330
1
100
AcDbSymbolTableRecord
100
AcDbBlockTableRecord
  2
*Paper_Space0
340
26
 70
     0
280
     1
281
     0
  0
ENDTAB
  0
ENDSEC
  0
SECTION
  2
BLOCKS
  0
BLOCK
  5
20
330
1F
100
AcDbEntity
  8
0
100
AcDbBlockBegin
  2
*Model_Space
 70
     0
 10
0.0
 20
0.0
 30
0.0
  3
*Model_Space
  1

  0
ENDBLK
  5
21
330
1F
100
AcDbEntity
  8
0
100
AcDbBlockEnd
  0
BLOCK
  5
1C
330
1B
100
AcDbEntity
 67
     1
  8
0
100
AcDbBlockBegin
  2
*Paper_Space
 70
     0
 10
0.0
 20
0.0
 30
0.0
  3
*Paper_Space
  1

  0
ENDBLK
  5
1D
330
1B
100
AcDbEntity
 67
     1
  8
0
100
AcDbBlockEnd
  0
BLOCK
  5
24
330
23
100
AcDbEntity
  8
0
100
AcDbBlockBegin
  2
*Paper_Space0
 70
     0
 10
0.0
 20
0.0
 30
0.0
  3
*Paper_Space0
  1

  0
ENDBLK
  5
25
330
23
100
AcDbEntity
  8
0
100
AcDbBlockEnd
  0
ENDSEC
  0
SECTION
  2
ENTITIES
  0
SPLINE
  5
41
330
1F
100
AcDbEntity
  8
layer 1
 62
   250
370
     9
100
AcDbSpline
210
0.0
220
0.0
230
1.0
 70
    11
 71
     3
 72
    20
 73
    16
 74
     0
 42
0.0000000001
 43
0.0000000001
 12
1.0
 22
0.0
 32
0.0
 13
1.0
 23
0.0
 33
0.0
 40
0.0
 40
0.0
 40
0.0
 40
0.0
 40
0.2
 40
0.2
 40
0.2
 40
0.2
 40
0.4
 40
0.4
 40
0.4
 40
0.4
 40
0.6
 40
0.6
 40
0.6
 40
0.6
 40
1.0
 40
1.0
 40
1.0
 40
1.0
 10
-187.2767
 20
-114.7413
 30
0.0
 10
-187.2767
 20
-114.7413
 30
0.0
 10
-187.2767
 20
131.7916
 30
0.0
 10
-187.2767
 20
131.7916
 30
0.0
 10
-187.2767
 20
131.7916
 30
0.0
 10
-187.2767
 20
131.7916
 30
0.0
 10
-84.4485
 20
131.7916
 30
0.0
 10
-84.4485
 20
131.7916
 30
0.0
 10
-84.4485
 20
131.7916
 30
0.0
 10
-84.4485
 20
131.7916
 30
0.0
 10
-84.4485
 20
-114.7413
 30
0.0
 10
-84.4485
 20
-114.7413
 30
0.0
 10
-84.4485
 20
-114.7413
 30
0.0
 10
-84.4485
 20
-114.7413
 30
0.0
 10
-187.2767
 20
-114.7413
 30
0.0
 10
-187.2767
 20
-114.7413
 30
0.0
  0
SPLINE
  5
42
330
1F
100
AcDbEntity
  8
layer 1
 62
     7
370
     9
100
AcDbSpline
210
0.0
220
0.0
230
1.0
 70
    11
 71
     3
 72
    84
 73
    80
 74
     0
 42
0.0000000001
 43
0.0000000001
 12
1.0
 22
0.0
 32
0.0
 13
1.0
 23
0.0
 33
0.0
 40
0.0
 40
0.0
 40
0.0
 40
0.0
 40
0.0476190476190476
 40
0.0476190476190476
 40
0.0476190476190476
 40
0.0476190476190476
 40
0.0952380952380952
 40
0.0952380952380952
 40
0.0952380952380952
 40
0.0952380952380952
 40
0.1428571428571428
 40
0.1428571428571428
 40
0.1428571428571428
 40
0.1428571428571428
 40
0.1904761904761905
 40
0.1904761904761905
 40
0.1904761904761905
 40
0.1904761904761905
 40
0.2380952380952381
 40
0.2380952380952381
 40
0.2380952380952381
 40
0.2380952380952381
 40
0.2857142857142857
 40
0.2857142857142857
 40
0.2857142857142857
 40
0.2857142857142857
 40
0.3333333333333333
 40
0.3333333333333333
 40
0.3333333333333333
 40
0.3333333333333333
 40
0.3809523809523809
 40
0.3809523809523809
 40
0.3809523809523809
 40
0.3809523809523809
 40
0.4285714285714285
 40
0.4285714285714285
 40
0.4285714285714285
 40
0.4285714285714285
 40
0.4761904761904762
 40
0.4761904761904762
 40
0.4761904761904762
 40
0.4761904761904762
 40
0.5238095238095238
 40
0.5238095238095238
 40
0.5238095238095238
 40
0.5238095238095238
 40
0.5714285714285714
 40
0.5714285714285714
 40
0.5714285714285714
 40
0.5714285714285714
 40
0.6190476190476191
 40
0.6190476190476191
 40
0.6190476190476191
 40
0.6190476190476191
 40
0.6666666666666666
 40
0.6666666666666666
 40
0.6666666666666666
 40
0.6666666666666666
 40
0.7142857142857143
 40
0.7142857142857143
 40
0.7142857142857143
 40
0.7142857142857143
 40
0.7619047619047619
 40
0.7619047619047619
 40
0.7619047619047619
 40
0.7619047619047619
 40
0.8095238095238095
 40
0.8095238095238095
 40
0.8095238095238095
 40
0.8095238095238095
 40
0.8571428571428571
 40
0.8571428571428571
 40
0.8571428571428571
 40
0.8571428571428571
 40
0.9047619047619048
 40
0.9047619047619048
 40
0.9047619047619048
 40
0.9047619047619048
 40
1.0
 40
1.0
 40
1.0
 40
1.0
 10
-139.4145
 20
12.0457
 30
0.0
 10
-139.428
 20
13.5076
 30
0.0
 10
-138.9037
 20
14.9237
 30
0.0
 10
-137.9412
 20
16.0243
 30
0.0
 10
-137.9412
 20
16.0243
 30
0.0
 10
-136.9643
 20
17.4728
 30
0.0
 10
-136.26
 20
19.0874
 30
0.0
 10
-135.8627
 20
20.7887
 30
0.0
 10
-135.8627
 20
20.7887
 30
0.0
 10
-135.4656
 20
19.0874
 30
0.0
 10
-134.7611
 20
17.4728
 30
0.0
 10
-133.7842
 20
16.0243
 30
0.0
 10
-133.7842
 20
16.0243
 30
0.0
 10
-132.8217
 20
14.9237
 30
0.0
 10
-132.2975
 20
13.5076
 30
0.0
 10
-132.311
 20
12.0457
 30
0.0
 10
-132.311
 20
12.0457
 30
0.0
 10
-132.311
 20
12.0457
 30
0.0
 10
-132.311
 20
12.0346
 30
0.0
 10
-132.311
 20
12.0346
 30
0.0
 10
-132.311
 20
12.0346
 30
0.0
 10
-130.9023
 20
12.1312
 30
0.0
 10
-129.5053
 20
11.7247
 30
0.0
 10
-128.3685
 20
10.8875
 30
0.0
 10
-128.3685
 20
10.8875
 30
0.0
 10
-126.6364
 20
9.9831
 30
0.0
 10
-124.8464
 20
9.1943
 30
0.0
 10
-123.0102
 20
8.5258
 30
0.0
 10
-123.0102
 20
8.5258
 30
0.0
 10
-124.8464
 20
7.8571
 30
0.0
 10
-126.6364
 20
7.0682
 30
0.0
 10
-128.3685
 20
6.1639
 30
0.0
 10
-128.3685
 20
6.1639
 30
0.0
 10
-129.5053
 20
5.3267
 30
0.0
 10
-130.9023
 20
4.9201
 30
0.0
 10
-132.311
 20
5.0166
 30
0.0
 10
-132.311
 20
5.0166
 30
0.0
 10
-132.311
 20
5.0166
 30
0.0
 10
-132.311
 20
5.0055
 30
0.0
 10
-132.311
 20
5.0055
 30
0.0
 10
-132.311
 20
5.0055
 30
0.0
 10
-132.2975
 20
3.5437
 30
0.0
 10
-132.8217
 20
2.1277
 30
0.0
 10
-133.7842
 20
1.0271
 30
0.0
 10
-133.7842
 20
1.0271
 30
0.0
 10
-134.7611
 20
-0.4214
 30
0.0
 10
-135.4656
 20
-2.0361
 30
0.0
 10
-135.8627
 20
-3.7375
 30
0.0
 10
-135.8627
 20
-3.7375
 30
0.0
 10
-136.26
 20
-2.0361
 30
0.0
 10
-136.9643
 20
-0.4214
 30
0.0
 10
-137.9412
 20
1.0271
 30
0.0
 10
-137.9412
 20
1.0271
 30
0.0
 10
-138.9037
 20
2.1277
 30
0.0
 10
-139.428
 20
3.5437
 30
0.0
 10
-139.4145
 20
5.0055
 30
0.0
 10
-139.4145
 20
5.0055
 30
0.0
 10
-139.4145
 20
5.0055
 30
0.0
 10
-139.4145
 20
5.0166
 30
0.0
 10
-139.4145
 20
5.0166
 30
0.0
 10
-139.4145
 20
5.0166
 30
0.0
 10
-140.823
 20
4.9201
 30
0.0
 10
-142.2201
 20
5.3267
 30
0.0
 10
-143.3568
 20
6.1639
 30
0.0
 10
-143.3568
 20
6.1639
 30
0.0
 10
-145.089
 20
7.0682
 30
0.0
 10
-146.8791
 20
7.8571
 30
0.0
 10
-148.7151
 20
8.5258
 30
0.0
 10
-148.7151
 20
8.5258
 30
0.0
 10
-146.8791
 20
9.1943
 30
0.0
 10
-145.089
 20
9.9831
 30
0.0
 10
-143.3568
 20
10.8875
 30
0.0
 10
-143.3568
 20
10.8875
 30
0.0
 10
-142.2201
 20
11.7247
 30
0.0
 10
-140.823
 20
12.1312
 30
0.0
 10
-139.4145
 20
12.0346
 30
0.0
 10
-139.4145
 20
12.0346
 30
0.0
 10
-139.4145
 20
12.0346
 30
0.0
 10
-139.4145
 20
12.0457
 30
0.0
 10
-139.4145
 20
12.0457
 30
0.0
  0
SPLINE
  5
43
330
1F
100
AcDbEntity
  8
layer 1
 62
     7
370
     9
100
AcDbSpline
210
0.0
220
0.0
230
1.0
 70
    11
 71
     3
 72
    24
 73
    20
 74
     0
 42
0.0000000001
 43
0.0000000001
 12
1.0
 22
0.0
 32
0.0
 13
1.0
 23
0.0
 33
0.0
 40
0.0
 40
0.0
 40
0.0
 40
0.0
 40
0.1666666666666667
 40
0.1666666666666667
 40
0.1666666666666667
 40
0.1666666666666667
 40
0.3333333333333333
 40
0.3333333333333333
 40
0.3333333333333333
 40
0.3333333333333333
 40
0.5
 40
0.5
 40
0.5
 40
0.5
 40
0.6666666666666666
 40
0.6666666666666666
 40
0.6666666666666666
 40
0.6666666666666666
 40
1.0
 40
1.0
 40
1.0
 40
1.0
 10
-164.8064
 20
125.3425
 30
0.0
 10
-164.8064
 20
125.3425
 30
0.0
 10
-175.242
 20
125.3425
 30
0.0
 10
-175.242
 20
125.3425
 30
0.0
 10
-175.242
 20
125.3425
 30
0.0
 10
-175.2583
 20
125.3139
 30
0.0
 10
-175.2731
 20
125.2836
 30
0.0
 10
-175.2864
 20
125.2517
 30
0.0
 10
-175.2864
 20
125.2517
 30
0.0
 10
-175.7398
 20
123.9543
 30
0.0
 10
-175.5905
 20
122.5208
 30
0.0
 10
-174.879
 20
121.3444
 30
0.0
 10
-174.879
 20
121.3444
 30
0.0
 10
-174.1674
 20
120.1663
 30
0.0
 10
-172.968
 20
119.3681
 30
0.0
 10
-171.6074
 20
119.1664
 30
0.0
 10
-171.6074
 20
119.1664
 30
0.0
 10
-170.7729
 20
122.3965
 30
0.0
 10
-168.1013
 20
124.8232
 30
0.0
 10
-164.8064
 20
125.3425
 30
0.0
  0
SPLINE
  5
44
330
1F
100
AcDbEntity
  8
layer 1
 62
     7
370
     9
100
AcDbSpline
210
0.0
220
0.0
230
1.0
 70
    11
 71
     3
 72
    20
 73
    16
 74
     0
 42
0.0000000001
 43
0.0000000001
 12
1.0
 22
0.0
 32
0.0
 13
1.0
 23
0.0
 33
0.0
 40
0.0
 40
0.0
 40
0.0
 40
0.0
 40
0.2
 40
0.2
 40
0.2
 40
0.2
 40
0.4
 40
0.4
 40
0.4
 40
0.4
 40
0.6
 40
0.6
 40
0.6
 40
0.6
 40
1.0
 40
1.0
 40
1.0
 40
1.0
 10
-142.5784
 20
125.3425
 30
0.0
 10
-142.5784
 20
125.3425
 30
0.0
 10
-161.5699
 20
125.3425
 30
0.0
 10
-161.5699
 20
125.3425
 30
0.0
 10
-161.5699
 20
125.3425
 30
0.0
 10
-156.7728
 20
124.6887
 30
0.0
 10
-152.9055
 20
121.089
 30
0.0
 10
-151.9107
 20
116.3498
 30
0.0
 10
-151.9107
 20
116.3498
 30
0.0
 10
-150.4466
 20
116.6758
 30
0.0
 10
-148.9237
 20
116.1498
 30
0.0
 10
-147.9745
 20
114.9885
 30
0.0
 10
-147.9745
 20
114.9885
 30
0.0
 10
-149.1287
 20
119.316
 30
0.0
 10
-146.7872
 20
123.8098
 30
0.0
 10
-142.5784
 20
125.3425
 30
0.0
  0
SPLINE
  5
45
330
1F
100
AcDbEntity
  8
layer 1
 62
     7
370
     9
100
AcDbSpline
210
0.0
220
0.0
230
1.0
 70
    11
 71
     3
 72
    16
 73
    12
 74
     0
 42
0.0000000001
 43
0.0000000001
 12
1.0
 22
0.0
 32
0.0
 13
1.0
 23
0.0
 33
0.0
 40
0.0
 40
0.0
 40
0.0
 40
0.0
 40
0.25
 40
0.25
 40
0.25
 40
0.25
 40
0.5
 40
0.5
 40
0.5
 40
0.5
 40
1.0
 40
1.0
 40
1.0
 40
1.0
 10
-180.0099
 20
96.9779
 30
0.0
 10
-180.0099
 20
96.9779
 30
0.0
 10
-180.0099
 20
110.6274
 30
0.0
 10
-180.0099
 20
110.6274
 30
0.0
 10
-180.0099
 20
110.6274
 30
0.0
 10
-178.7534
 20
106.9958
 30
0.0
 10
-176.2105
 20
103.9506
 30
0.0
 10
-172.8615
 20
102.0666
 30
0.0
 10
-172.8615
 20
102.0666
 30
0.0
 10
-176.1809
 20
102.3944
 30
0.0
 10
-179.2327
 20
100.2214
 30
0.0
 10
-180.0099
 20
96.9779
 30
0.0
  0
SPLINE
  5
46
330
1F
100
AcDbEntity
  8
layer 1
 62
     7
370
     9
100
AcDbSpline
210
0.0
220
0.0
230
1.0
 70
    11
 71
     3
 72
    28
 73
    24
 74
     0
 42
0.0000000001
 43
0.0000000001
 12
1.0
 22
0.0
 32
0.0
 13
1.0
 23
0.0
 33
0.0
 40
0.0
 40
0.0
 40
0.0
 40
0.0
 40
0.1428571428571428
 40
0.1428571428571428
 40
0.1428571428571428
 40
0.1428571428571428
 40
0.2857142857142857
 40
0.2857142857142857
 40
0.2857142857142857
 40
0.2857142857142857
 40
0.4285714285714285
 40
0.4285714285714285
 40
0.4285714285714285
 40
0.4285714285714285
 40
0.5714285714285714
 40
0.5714285714285714
 40
0.5714285714285714
 40
0.5714285714285714
 40
0.7142857142857143
 40
0.7142857142857143
 40
0.7142857142857143
 40
0.7142857142857143
 40
1.0
 40
1.0
 40
1.0
 40
1.0
 10
-180.0099
 20
64.5632
 30
0.0
 10
-180.0099
 20
64.5632
 30
0.0
 10
-180.0099
 20
93.8655
 30
0.0
 10
-180.0099
 20
93.8655
 30
0.0
 10
-180.0099
 20
93.8655
 30
0.0
 10
-179.5266
 20
91.8488
 30
0.0
 10
-178.1336
 20
90.1716
 30
0.0
 10
-176.2401
 20
89.3263
 30
0.0
 10
-176.2401
 20
89.3263
 30
0.0
 10
-174.2974
 20
88.5196
 30
0.0
 10
-172.12
 20
88.4877
 30
0.0
 10
-170.1539
 20
89.2355
 30
0.0
 10
-170.1539
 20
89.2355
 30
0.0
 10
-175.5324
 20
83.3704
 30
0.0
 10
-176.8908
 20
74.8633
 30
0.0
 10
-173.6058
 20
67.6151
 30
0.0
 10
-173.6058
 20
67.6151
 30
0.0
 10
-174.8395
 20
68.2839
 30
0.0
 10
-176.3181
 20
68.3209
 30
0.0
 10
-177.5842
 20
67.7176
 30
0.0
 10
-177.5842
 20
67.7176
 30
0.0
 10
-178.8505
 20
67.1143
 30
0.0
 10
-179.752
 20
65.9412
 30
0.0
 10
-180.0099
 20
64.5632
 30
0.0
  0
SPLINE
  5
47
330
1F
100
AcDbEntity
  8
layer 1
 62
     7
370
     9
100
AcDbSpline
210
0.0
220
0.0
230
1.0
 70
    11
 71
     3
 72
    20
 73
    16
 74
     0
 42
0.0000000001
 43
0.0000000001
 12
1.0
 22
0.0
 32
0.0
 13
1.0
 23
0.0
 33
0.0
 40
0.0
 40
0.0
 40
0.0
 40
0.0
 40
0.2
 40
0.2
 40
0.2
 40
0.2
 40
0.4
 40
0.4
 40
0.4
 40
0.4
 40
0.6
 40
0.6
 40
0.6
 40
0.6
 40
1.0
 40
1.0
 40
1.0
 40
1.0
 10
-180.0099
 20
54.3974
 30
0.0
 10
-180.0099
 20
54.3974
 30
0.0
 10
-180.0099
 20
62.9481
 30
0.0
 10
-180.0099
 20
62.9481
 30
0.0
 10
-180.0099
 20
62.9481
 30
0.0
 10
-179.7664
 20
61.6457
 30
0.0
 10
-178.9487
 20
60.5248
 30
0.0
 10
-177.7843
 20
59.8946
 30
0.0
 10
-177.7843
 20
59.8946
 30
0.0
 10
-177.176
 20
59.498
 30
0.0
 10
-176.4979
 20
59.2207
 30
0.0
 10
-175.786
 20
59.0761
 30
0.0
 10
-175.786
 20
59.0761
 30
0.0
 10
-177.8971
 20
58.335
 30
0.0
 10
-179.4878
 20
56.5738
 30
0.0
 10
-180.0099
 20
54.3974
 30
0.0
  0
SPLINE
  5
48
330
1F
100
AcDbEntity
  8
layer 1
 62
     7
370
     9
100
AcDbSpline
210
0.0
220
0.0
230
1.0
 70
    11
 71
     3
 72
    84
 73
    80
 74
     0
 42
0.0000000001
 43
0.0000000001
 12
1.0
 22
0.0
 32
0.0
 13
1.0
 23
0.0
 33
0.0
 40
0.0
 40
0.0
 40
0.0
 40
0.0
 40
0.0476190476190476
 40
0.0476190476190476
 40
0.0476190476190476
 40
0.0476190476190476
 40
0.0952380952380952
 40
0.0952380952380952
 40
0.0952380952380952
 40
0.0952380952380952
 40
0.1428571428571428
 40
0.1428571428571428
 40
0.1428571428571428
 40
0.1428571428571428
 40
0.1904761904761905
 40
0.1904761904761905
 40
0.1904761904761905
 40
0.1904761904761905
 40
0.2380952380952381
 40
0.2380952380952381
 40
0.2380952380952381
 40
0.2380952380952381
 40
0.2857142857142857
 40
0.2857142857142857
 40
0.2857142857142857
 40
0.2857142857142857
 40
0.3333333333333333
 40
0.3333333333333333
 40
0.3333333333333333
 40
0.3333333333333333
 40
0.3809523809523809
 40
0.3809523809523809
 40
0.3809523809523809
 40
0.3809523809523809
 40
0.4285714285714285
 40
0.4285714285714285
 40
0.4285714285714285
 40
0.4285714285714285
 40
0.4761904761904762
 40
0.4761904761904762
 40
0.4761904761904762
 40
0.4761904761904762
 40
0.5238095238095238
 40
0.5238095238095238
 40
0.5238095238095238
 40
0.5238095238095238
 40
0.5714285714285714
 40
0.5714285714285714
 40
0.5714285714285714
 40
0.5714285714285714
 40
0.6190476190476191
 40
0.6190476190476191
 40
0.6190476190476191
 40
0.6190476190476191
 40
0.6666666666666666
 40
0.6666666666666666
 40
0.6666666666666666
 40
0.6666666666666666
 40
0.7142857142857143
 40
0.7142857142857143
 40
0.7142857142857143
 40
0.7142857142857143
 40
0.7619047619047619
 40
0.7619047619047619
 40
0.7619047619047619
 40
0.7619047619047619
 40
0.8095238095238095
 40
0.8095238095238095
 40
0.8095238095238095
 40
0.8095238095238095
 40
0.8571428571428571
 40
0.8571428571428571
 40
0.8571428571428571
 40
0.8571428571428571
 40
0.9047619047619048
 40
0.9047619047619048
 40
0.9047619047619048
 40
0.9047619047619048
 40
1.0
 40
1.0
 40
1.0
 40
1.0
 10
-180.0099
 20
30.1938
 30
0.0
 10
-180.0099
 20
30.1938
 30
0.0
 10
-180.0099
 20
51.3223
 30
0.0
 10
-180.0099
 20
51.3223
 30
0.0
 10
-180.0099
 20
51.3223
 30
0.0
 10
-179.5693
 20
49.4862
 30
0.0
 10
-178.362
 20
47.9271
 30
0.0
 10
-176.6943
 20
47.0409
 30
0.0
 10
-176.6943
 20
47.0409
 30
0.0
 10
-175.2751
 20
46.3509
 30
0.0
 10
-173.7818
 20
45.8252
 30
0.0
 10
-172.2434
 20
45.474
 30
0.0
 10
-172.2434
 20
45.474
 30
0.0
 10
-171.2204
 20
45.3533
 30
0.0
 10
-170.3017
 20
44.7908
 30
0.0
 10
-169.7294
 20
43.9344
 30
0.0
 10
-169.7294
 20
43.9344
 30
0.0
 10
-169.157
 20
43.0782
 30
0.0
 10
-168.9886
 20
42.0142
 30
0.0
 10
-169.2684
 20
41.023
 30
0.0
 10
-169.2684
 20
41.023
 30
0.0
 10
-169.6264
 20
40.313
 30
0.0
 10
-170.2899
 20
39.806
 30
0.0
 10
-171.0688
 20
39.6465
 30
0.0
 10
-171.0688
 20
39.6465
 30
0.0
 10
-171.8479
 20
39.4871
 30
0.0
 10
-172.6571
 20
39.693
 30
0.0
 10
-173.2651
 20
40.2054
 30
0.0
 10
-173.2651
 20
40.2054
 30
0.0
 10
-173.3028
 20
40.2553
 30
0.0
 10
-173.3616
 20
40.2849
 30
0.0
 10
-173.4241
 20
40.2849
 30
0.0
 10
-173.4241
 20
40.2849
 30
0.0
 10
-173.4866
 20
40.2849
 30
0.0
 10
-173.5456
 20
40.2553
 30
0.0
 10
-173.5831
 20
40.2054
 30
0.0
 10
-173.5831
 20
40.2054
 30
0.0
 10
-174.4084
 20
38.9479
 30
0.0
 10
-174.2081
 20
37.2786
 30
0.0
 10
-173.1087
 20
36.2521
 30
0.0
 10
-173.1087
 20
36.2521
 30
0.0
 10
-172.0093
 20
35.2254
 30
0.0
 10
-170.3302
 20
35.1398
 30
0.0
 10
-169.1321
 20
36.0496
 30
0.0
 10
-169.1321
 20
36.0496
 30
0.0
 10
-168.0887
 20
36.9401
 30
0.0
 10
-167.2652
 20
38.0598
 30
0.0
 10
-166.7264
 20
39.3214
 30
0.0
 10
-166.7264
 20
39.3214
 30
0.0
 10
-167.4909
 20
35.4768
 30
0.0
 10
-167.4363
 20
31.5144
 30
0.0
 10
-166.5659
 20
27.6924
 30
0.0
 10
-166.5659
 20
27.6924
 30
0.0
 10
-168.4961
 20
30.0929
 30
0.0
 10
-171.9965
 20
30.4976
 30
0.0
 10
-174.4234
 20
28.6008
 30
0.0
 10
-174.4234
 20
28.6008
 30
0.0
 10
-175.1447
 20
28.068
 30
0.0
 10
-176.1458
 20
28.1361
 30
0.0
 10
-176.7883
 20
28.7618
 30
0.0
 10
-176.7883
 20
28.7618
 30
0.0
 10
-177.4308
 20
29.3875
 30
0.0
 10
-177.5257
 20
30.3862
 30
0.0
 10
-177.0123
 20
31.1216
 30
0.0
 10
-177.0123
 20
31.1216
 30
0.0
 10
-176.9063
 20
31.2283
 30
0.0
 10
-176.9063
 20
31.4008
 30
0.0
 10
-177.0123
 20
31.5077
 30
0.0
 10
-177.0123
 20
31.5077
 30
0.0
 10
-177.5698
 20
31.7622
 30
0.0
 10
-178.2084
 20
31.772
 30
0.0
 10
-178.7734
 20
31.5347
 30
0.0
 10
-178.7734
 20
31.5347
 30
0.0
 10
-179.3384
 20
31.2976
 30
0.0
 10
-179.7785
 20
30.8349
 30
0.0
 10
-179.9873
 20
30.2586
 30
0.0
 10
-179.9873
 20
30.2586
 30
0.0
 10
-179.9953
 20
30.2371
 30
0.0
 10
-180.003
 20
30.2156
 30
0.0
 10
-180.0099
 20
30.1938
 30
0.0
  0
SPLINE
  5
49
330
1F
100
AcDbEntity
  8
layer 1
 62
     7
370
     9
100
AcDbSpline
210
0.0
220
0.0
230
1.0
 70
    11
 71
     3
 72
    36
 73
    32
 74
     0
 42
0.0000000001
 43
0.0000000001
 12
1.0
 22
0.0
 32
0.0
 13
1.0
 23
0.0
 33
0.0
 40
0.0
 40
0.0
 40
0.0
 40
0.0
 40
0.1111111111111111
 40
0.1111111111111111
 40
0.1111111111111111
 40
0.1111111111111111
 40
0.2222222222222222
 40
0.2222222222222222
 40
0.2222222222222222
 40
0.2222222222222222
 40
0.3333333333333333
 40
0.3333333333333333
 40
0.3333333333333333
 40
0.3333333333333333
 40
0.4444444444444444
 40
0.4444444444444444
 40
0.4444444444444444
 40
0.4444444444444444
 40
0.5555555555555556
 40
0.5555555555555556
 40
0.5555555555555556
 40
0.5555555555555556
 40
0.6666666666666666
 40
0.6666666666666666
 40
0.6666666666666666
 40
0.6666666666666666
 40
0.7777777777777778
 40
0.7777777777777778
 40
0.7777777777777778
 40
0.7777777777777778
 40
1.0
 40
1.0
 40
1.0
 40
1.0
 10
-180.0099
 20
12.6134
 30
0.0
 10
-180.0099
 20
12.6134
 30
0.0
 10
-180.0099
 20
26.9479
 30
0.0
 10
-180.0099
 20
26.9479
 30
0.0
 10
-180.0099
 20
26.9479
 30
0.0
 10
-179.9953
 20
26.9083
 30
0.0
 10
-179.9802
 20
26.8688
 30
0.0
 10
-179.9646
 20
26.8295
 30
0.0
 10
-179.9646
 20
26.8295
 30
0.0
 10
-179.6521
 20
26.0507
 30
0.0
 10
-179.0189
 20
25.4445
 30
0.0
 10
-178.2274
 20
25.166
 30
0.0
 10
-178.2274
 20
25.166
 30
0.0
 10
-177.4356
 20
24.8877
 30
0.0
 10
-176.5624
 20
24.9642
 30
0.0
 10
-175.8314
 20
25.3761
 30
0.0
 10
-175.8314
 20
25.3761
 30
0.0
 10
-176.9899
 20
24.0661
 30
0.0
 10
-177.5709
 20
22.344
 30
0.0
 10
-177.4427
 20
20.5998
 30
0.0
 10
-177.4427
 20
20.5998
 30
0.0
 10
-177.3145
 20
18.8557
 30
0.0
 10
-176.488
 20
17.237
 30
0.0
 10
-175.1501
 20
16.1107
 30
0.0
 10
-175.1501
 20
16.1107
 30
0.0
 10
-176.2613
 20
16.3133
 30
0.0
 10
-177.4069
 20
16.0552
 30
0.0
 10
-178.3237
 20
15.3956
 30
0.0
 10
-178.3237
 20
15.3956
 30
0.0
 10
-179.2404
 20
14.7358
 30
0.0
 10
-179.8493
 20
13.7313
 30
0.0
 10
-180.0099
 20
12.6134
 30
0.0
  0
SPLINE
  5
4A
330
1F
100
AcDbEntity
  8
layer 1
 62
     7
370
     9
100
AcDbSpline
210
0.0
220
0.0
230
1.0
 70
    11
 71
     3
 72
    44
 73
    40
 74
     0
 42
0.0000000001
 43
0.0000000001
 12
1.0
 22
0.0
 32
0.0
 13
1.0
 23
0.0
 33
0.0
 40
0.0
 40
0.0
 40
0.0
 40
0.0
 40
0.0909090909090909
 40
0.0909090909090909
 40
0.0909090909090909
 40
0.0909090909090909
 40
0.1818181818181818
 40
0.1818181818181818
 40
0.1818181818181818
 40
0.1818181818181818
 40
0.2727272727272727
 40
0.2727272727272727
 40
0.2727272727272727
 40
0.2727272727272727
 40
0.3636363636363636
 40
0.3636363636363636
 40
0.3636363636363636
 40
0.3636363636363636
 40
0.4545454545454545
 40
0.4545454545454545
 40
0.4545454545454545
 40
0.4545454545454545
 40
0.5454545454545454
 40
0.5454545454545454
 40
0.5454545454545454
 40
0.5454545454545454
 40
0.6363636363636364
 40
0.6363636363636364
 40
0.6363636363636364
 40
0.6363636363636364
 40
0.7272727272727273
 40
0.7272727272727273
 40
0.7272727272727273
 40
0.7272727272727273
 40
0.8181818181818182
 40
0.8181818181818182
 40
0.8181818181818182
 40
0.8181818181818182
 40
1.0
 40
1.0
 40
1.0
 40
1.0
 10
-168.3628
 20
22.7333
 30
0.0
 10
-168.3542
 20
22.6818
 30
0.0
 10
-168.3246
 20
22.6361
 30
0.0
 10
-168.2808
 20
22.6075
 30
0.0
 10
-168.2808
 20
22.6075
 30
0.0
 10
-168.2372
 20
22.579
 30
0.0
 10
-168.1835
 20
22.5701
 30
0.0
 10
-168.1329
 20
22.5828
 30
0.0
 10
-168.1329
 20
22.5828
 30
0.0
 10
-166.7336
 20
22.6679
 30
0.0
 10
-165.6354
 20
23.8156
 30
0.0
 10
-165.6122
 20
25.2171
 30
0.0
 10
-165.6122
 20
25.2171
 30
0.0
 10
-165.3196
 20
22.5968
 30
0.0
 10
-163.6853
 20
20.3171
 30
0.0
 10
-161.2973
 20
19.199
 30
0.0
 10
-161.2973
 20
19.199
 30
0.0
 10
-164.3326
 20
17.2744
 30
0.0
 10
-168.1211
 20
16.9688
 30
0.0
 10
-171.4258
 20
18.3816
 30
0.0
 10
-171.4258
 20
18.3816
 30
0.0
 10
-172.6039
 20
18.8738
 30
0.0
 10
-173.453
 20
19.9286
 30
0.0
 10
-173.6821
 20
21.1846
 30
0.0
 10
-173.6821
 20
21.1846
 30
0.0
 10
-173.9113
 20
22.4407
 30
0.0
 10
-173.4895
 20
23.7273
 30
0.0
 10
-172.5612
 20
24.6039
 30
0.0
 10
-172.5612
 20
24.6039
 30
0.0
 10
-171.84
 20
25.2121
 30
0.0
 10
-170.8418
 20
25.3722
 30
0.0
 10
-169.9667
 20
25.0202
 30
0.0
 10
-169.9667
 20
25.0202
 30
0.0
 10
-169.0913
 20
24.6681
 30
0.0
 10
-168.4821
 20
23.8616
 30
0.0
 10
-168.3826
 20
22.9235
 30
0.0
 10
-168.3826
 20
22.9235
 30
0.0
 10
-168.3735
 20
22.8603
 30
0.0
 10
-168.367
 20
22.797
 30
0.0
 10
-168.3628
 20
22.7333
 30
0.0
  0
SPLINE
  5
4B
330
1F
100
AcDbEntity
  8
layer 1
 62
     7
370
     9
100
AcDbSpline
210
0.0
220
0.0
230
1.0
 70
    11
 71
     3
 72
    28
 73
    24
 74
     0
 42
0.0000000001
 43
0.0000000001
 12
1.0
 22
0.0
 32
0.0
 13
1.0
 23
0.0
 33
0.0
 40
0.0
 40
0.0
 40
0.0
 40
0.0
 40
0.1428571428571428
 40
0.1428571428571428
 40
0.1428571428571428
 40
0.1428571428571428
 40
0.2857142857142857
 40
0.2857142857142857
 40
0.2857142857142857
 40
0.2857142857142857
 40
0.4285714285714285
 40
0.4285714285714285
 40
0.4285714285714285
 40
0.4285714285714285
 40
0.5714285714285714
 40
0.5714285714285714
 40
0.5714285714285714
 40
0.5714285714285714
 40
0.7142857142857143
 40
0.7142857142857143
 40
0.7142857142857143
 40
0.7142857142857143
 40
1.0
 40
1.0
 40
1.0
 40
1.0
 10
-161.161
 20
42.5444
 30
0.0
 10
-161.4499
 20
44.5257
 30
0.0
 10
-161.9838
 20
46.4632
 30
0.0
 10
-162.7507
 20
48.3126
 30
0.0
 10
-162.7507
 20
48.3126
 30
0.0
 10
-162.0965
 20
43.3997
 30
0.0
 10
-162.3738
 20
38.4072
 30
0.0
 10
-163.5683
 20
33.5969
 30
0.0
 10
-163.5683
 20
33.5969
 30
0.0
 10
-164.2973
 20
31.3188
 30
0.0
 10
-164.3916
 20
28.8848
 30
0.0
 10
-163.8407
 20
26.5571
 30
0.0
 10
-163.8407
 20
26.5571
 30
0.0
 10
-163.6859
 20
28.3536
 30
0.0
 10
-162.6996
 20
29.9743
 30
0.0
 10
-161.175
 20
30.9373
 30
0.0
 10
-161.175
 20
30.9373
 30
0.0
 10
-159.6502
 20
31.9002
 30
0.0
 10
-157.763
 20
32.0945
 30
0.0
 10
-156.0741
 20
31.4623
 30
0.0
 10
-156.0741
 20
31.4623
 30
0.0
 10
-158.8805
 20
34.5377
 30
0.0
 10
-160.6587
 20
38.4114
 30
0.0
 10
-161.161
 20
42.5444
 30
0.0
  0
SPLINE
  5
4C
330
1F
100
AcDbEntity
  8
layer 1
 62
     7
370
     9
100
AcDbSpline
210
0.0
220
0.0
230
1.0
 70
    11
 71
     3
 72
    48
 73
    44
 74
     0
 42
0.0000000001
 43
0.0000000001
 12
1.0
 22
0.0
 32
0.0
 13
1.0
 23
0.0
 33
0.0
 40
0.0
 40
0.0
 40
0.0
 40
0.0
 40
0.0833333333333333
 40
0.0833333333333333
 40
0.0833333333333333
 40
0.0833333333333333
 40
0.1666666666666667
 40
0.1666666666666667
 40
0.1666666666666667
 40
0.1666666666666667
 40
0.25
 40
0.25
 40
0.25
 40
0.25
 40
0.3333333333333333
 40
0.3333333333333333
 40
0.3333333333333333
 40
0.3333333333333333
 40
0.4166666666666667
 40
0.4166666666666667
 40
0.4166666666666667
 40
0.4166666666666667
 40
0.5
 40
0.5
 40
0.5
 40
0.5
 40
0.5833333333333334
 40
0.5833333333333334
 40
0.5833333333333334
 40
0.5833333333333334
 40
0.6666666666666666
 40
0.6666666666666666
 40
0.6666666666666666
 40
0.6666666666666666
 40
0.75
 40
0.75
 40
0.75
 40
0.75
 40
0.8333333333333334
 40
0.8333333333333334
 40
0.8333333333333334
 40
0.8333333333333334
 40
1.0
 40
1.0
 40
1.0
 40
1.0
 10
-167.7469
 20
83.1939
 30
0.0
 10
-166.1008
 20
86.7466
 30
0.0
 10
-162.4852
 20
88.9666
 30
0.0
 10
-158.5721
 20
88.8272
 30
0.0
 10
-158.5721
 20
88.8272
 30
0.0
 10
-158.4745
 20
88.8272
 30
0.0
 10
-158.3841
 20
88.7751
 30
0.0
 10
-158.3365
 20
88.6894
 30
0.0
 10
-158.3365
 20
88.6894
 30
0.0
 10
-158.2891
 20
88.6037
 30
0.0
 10
-158.2923
 20
88.4994
 30
0.0
 10
-158.3451
 20
88.4171
 30
0.0
 10
-158.3451
 20
88.4171
 30
0.0
 10
-160.9668
 20
84.6762
 30
0.0
 10
-162.4638
 20
80.2647
 30
0.0
 10
-162.66
 20
75.7003
 30
0.0
 10
-162.66
 20
75.7003
 30
0.0
 10
-162.7121
 20
69.5477
 30
0.0
 10
-160.8293
 20
63.533
 30
0.0
 10
-157.2778
 20
58.5098
 30
0.0
 10
-157.2778
 20
58.5098
 30
0.0
 10
-155.2088
 20
55.4999
 30
0.0
 10
-152.8135
 20
52.727
 30
0.0
 10
-150.1355
 20
50.2429
 30
0.0
 10
-150.1355
 20
50.2429
 30
0.0
 10
-150.0801
 20
50.1621
 30
0.0
 10
-150.086
 20
50.0539
 30
0.0
 10
-150.1498
 20
49.9794
 30
0.0
 10
-150.1498
 20
49.9794
 30
0.0
 10
-150.2137
 20
49.9048
 30
0.0
 10
-150.3197
 20
49.8826
 30
0.0
 10
-150.4081
 20
49.925
 30
0.0
 10
-150.4081
 20
49.925
 30
0.0
 10
-150.4081
 20
49.925
 30
0.0
 10
-151.1689
 20
50.3565
 30
0.0
 10
-151.1689
 20
50.3565
 30
0.0
 10
-151.1689
 20
50.3565
 30
0.0
 10
-158.0567
 20
54.8193
 30
0.0
 10
-163.5868
 20
61.0878
 30
0.0
 10
-167.1563
 20
68.4789
 30
0.0
 10
-167.1563
 20
68.4789
 30
0.0
 10
-169.2115
 20
73.1324
 30
0.0
 10
-169.4225
 20
78.3909
 30
0.0
 10
-167.7469
 20
83.1939
 30
0.0
  0
SPLINE
  5
4D
330
1F
100
AcDbEntity
  8
layer 1
 62
     7
370
     9
100
AcDbSpline
210
0.0
220
0.0
230
1.0
 70
    11
 71
     3
 72
    36
 73
    32
 74
     0
 42
0.0000000001
 43
0.0000000001
 12
1.0
 22
0.0
 32
0.0
 13
1.0
 23
0.0
 33
0.0
 40
0.0
 40
0.0
 40
0.0
 40
0.0
 40
0.1111111111111111
 40
0.1111111111111111
 40
0.1111111111111111
 40
0.1111111111111111
 40
0.2222222222222222
 40
0.2222222222222222
 40
0.2222222222222222
 40
0.2222222222222222
 40
0.3333333333333333
 40
0.3333333333333333
 40
0.3333333333333333
 40
0.3333333333333333
 40
0.4444444444444444
 40
0.4444444444444444
 40
0.4444444444444444
 40
0.4444444444444444
 40
0.5555555555555556
 40
0.5555555555555556
 40
0.5555555555555556
 40
0.5555555555555556
 40
0.6666666666666666
 40
0.6666666666666666
 40
0.6666666666666666
 40
0.6666666666666666
 40
0.7777777777777778
 40
0.7777777777777778
 40
0.7777777777777778
 40
0.7777777777777778
 40
1.0
 40
1.0
 40
1.0
 40
1.0
 10
-172.9927
 20
64.096
 30
0.0
 10
-173.0127
 20
64.017
 30
0.0
 10
-173.0788
 20
63.9598
 30
0.0
 10
-173.159
 20
63.9498
 30
0.0
 10
-173.159
 20
63.9498
 30
0.0
 10
-173.2391
 20
63.9397
 30
0.0
 10
-173.3173
 20
63.98
 30
0.0
 10
-173.3561
 20
64.0506
 30
0.0
 10
-173.3561
 20
64.0506
 30
0.0
 10
-173.8007
 20
64.738
 30
0.0
 10
-174.6052
 20
65.1026
 30
0.0
 10
-175.4156
 20
64.9867
 30
0.0
 10
-175.4156
 20
64.9867
 30
0.0
 10
-176.2261
 20
64.869
 30
0.0
 10
-176.894
 20
64.2909
 30
0.0
 10
-177.1259
 20
63.5061
 30
0.0
 10
-177.1259
 20
63.5061
 30
0.0
 10
-177.1755
 20
61.7869
 30
0.0
 10
-175.991
 20
60.2777
 30
0.0
 10
-174.3098
 20
59.9164
 30
0.0
 10
-174.3098
 20
59.9164
 30
0.0
 10
-172.3701
 20
59.824
 30
0.0
 10
-170.441
 20
59.5736
 30
0.0
 10
-168.5416
 20
59.1686
 30
0.0
 10
-168.5416
 20
59.1686
 30
0.0
 10
-170.3658
 20
61.118
 30
0.0
 10
-171.7997
 20
63.4002
 30
0.0
 10
-172.7655
 20
65.8891
 30
0.0
 10
-172.7655
 20
65.8891
 30
0.0
 10
-172.6166
 20
65.2841
 30
0.0
 10
-172.6975
 20
64.6455
 30
0.0
 10
-172.9927
 20
64.096
 30
0.0
  0
SPLINE
  5
4E
330
1F
100
AcDbEntity
  8
layer 1
 62
     7
370
     9
100
AcDbSpline
210
0.0
220
0.0
230
1.0
 70
    11
 71
     3
 72
    52
 73
    48
 74
     0
 42
0.0000000001
 43
0.0000000001
 12
1.0
 22
0.0
 32
0.0
 13
1.0
 23
0.0
 33
0.0
 40
0.0
 40
0.0
 40
0.0
 40
0.0
 40
0.0769230769230769
 40
0.0769230769230769
 40
0.0769230769230769
 40
0.0769230769230769
 40
0.1538461538461539
 40
0.1538461538461539
 40
0.1538461538461539
 40
0.1538461538461539
 40
0.2307692307692308
 40
0.2307692307692308
 40
0.2307692307692308
 40
0.2307692307692308
 40
0.3076923076923077
 40
0.3076923076923077
 40
0.3076923076923077
 40
0.3076923076923077
 40
0.3846153846153846
 40
0.3846153846153846
 40
0.3846153846153846
 40
0.3846153846153846
 40
0.4615384615384616
 40
0.4615384615384616
 40
0.4615384615384616
 40
0.4615384615384616
 40
0.5384615384615384
 40
0.5384615384615384
 40
0.5384615384615384
 40
0.5384615384615384
 40
0.6153846153846154
 40
0.6153846153846154
 40
0.6153846153846154
 40
0.6153846153846154
 40
0.6923076923076923
 40
0.6923076923076923
 40
0.6923076923076923
 40
0.6923076923076923
 40
0.7692307692307693
 40
0.7692307692307693
 40
0.7692307692307693
 40
0.7692307692307693
 40
0.8461538461538461
 40
0.8461538461538461
 40
0.8461538461538461
 40
0.8461538461538461
 40
1.0
 40
1.0
 40
1.0
 40
1.0
 10
-166.4296
 20
41.4544
 30
0.0
 10
-166.6755
 20
44.2618
 30
0.0
 10
-168.626
 20
46.6275
 30
0.0
 10
-171.3349
 20
47.4043
 30
0.0
 10
-171.3349
 20
47.4043
 30
0.0
 10
-169.5489
 20
47.7503
 30
0.0
 10
-168.3784
 20
49.4744
 30
0.0
 10
-168.716
 20
51.262
 30
0.0
 10
-168.716
 20
51.262
 30
0.0
 10
-169.0535
 20
53.0494
 30
0.0
 10
-170.7722
 20
54.2277
 30
0.0
 10
-172.5612
 20
53.9
 30
0.0
 10
-172.5612
 20
53.9
 30
0.0
 10
-172.6277
 20
53.9185
 30
0.0
 10
-172.6996
 20
53.9
 30
0.0
 10
-172.7475
 20
53.8496
 30
0.0
 10
-172.7475
 20
53.8496
 30
0.0
 10
-172.7953
 20
53.7992
 30
0.0
 10
-172.8111
 20
53.7269
 30
0.0
 10
-172.7882
 20
53.6613
 30
0.0
 10
-172.7882
 20
53.6613
 30
0.0
 10
-172.1578
 20
53.0138
 30
0.0
 10
-172.0274
 20
52.0294
 30
0.0
 10
-172.4677
 20
51.2405
 30
0.0
 10
-172.4677
 20
51.2405
 30
0.0
 10
-172.908
 20
50.4518
 30
0.0
 10
-173.8144
 20
50.046
 30
0.0
 10
-174.696
 20
50.2429
 30
0.0
 10
-174.696
 20
50.2429
 30
0.0
 10
-175.5895
 20
50.4249
 30
0.0
 10
-176.3661
 20
50.9731
 30
0.0
 10
-176.8365
 20
51.7544
 30
0.0
 10
-176.8365
 20
51.7544
 30
0.0
 10
-177.3069
 20
52.5357
 30
0.0
 10
-177.4284
 20
53.4782
 30
0.0
 10
-177.1713
 20
54.3538
 30
0.0
 10
-177.1713
 20
54.3538
 30
0.0
 10
-176.4797
 20
56.6629
 30
0.0
 10
-174.1967
 20
58.1149
 30
0.0
 10
-171.8118
 20
57.7603
 30
0.0
 10
-171.8118
 20
57.7603
 30
0.0
 10
-168.4481
 20
57.0864
 30
0.0
 10
-165.9591
 20
54.2344
 30
0.0
 10
-165.7483
 20
50.8108
 30
0.0
 10
-165.7483
 20
50.8108
 30
0.0
 10
-165.5211
 20
47.6754
 30
0.0
 10
-165.7507
 20
44.5238
 30
0.0
 10
-166.4296
 20
41.4544
 30
0.0
  0
SPLINE
  5
4F
330
1F
100
AcDbEntity
  8
layer 1
 62
     7
370
     9
100
AcDbSpline
210
0.0
220
0.0
230
1.0
 70
    11
 71
     3
 72
    96
 73
    92
 74
     0
 42
0.0000000001
 43
0.0000000001
 12
1.0
 22
0.0
 32
0.0
 13
1.0
 23
0.0
 33
0.0
 40
0.0
 40
0.0
 40
0.0
 40
0.0
 40
0.0416666666666667
 40
0.0416666666666667
 40
0.0416666666666667
 40
0.0416666666666667
 40
0.0833333333333333
 40
0.0833333333333333
 40
0.0833333333333333
 40
0.0833333333333333
 40
0.125
 40
0.125
 40
0.125
 40
0.125
 40
0.1666666666666667
 40
0.1666666666666667
 40
0.1666666666666667
 40
0.1666666666666667
 40
0.2083333333333333
 40
0.2083333333333333
 40
0.2083333333333333
 40
0.2083333333333333
 40
0.25
 40
0.25
 40
0.25
 40
0.25
 40
0.2916666666666667
 40
0.2916666666666667
 40
0.2916666666666667
 40
0.2916666666666667
 40
0.3333333333333333
 40
0.3333333333333333
 40
0.3333333333333333
 40
0.3333333333333333
 40
0.375
 40
0.375
 40
0.375
 40
0.375
 40
0.4166666666666667
 40
0.4166666666666667
 40
0.4166666666666667
 40
0.4166666666666667
 40
0.4583333333333333
 40
0.4583333333333333
 40
0.4583333333333333
 40
0.4583333333333333
 40
0.5
 40
0.5
 40
0.5
 40
0.5
 40
0.5416666666666666
 40
0.5416666666666666
 40
0.5416666666666666
 40
0.5416666666666666
 40
0.5833333333333334
 40
0.5833333333333334
 40
0.5833333333333334
 40
0.5833333333333334
 40
0.625
 40
0.625
 40
0.625
 40
0.625
 40
0.6666666666666666
 40
0.6666666666666666
 40
0.6666666666666666
 40
0.6666666666666666
 40
0.7083333333333334
 40
0.7083333333333334
 40
0.7083333333333334
 40
0.7083333333333334
 40
0.75
 40
0.75
 40
0.75
 40
0.75
 40
0.7916666666666666
 40
0.7916666666666666
 40
0.7916666666666666
 40
0.7916666666666666
 40
0.8333333333333334
 40
0.8333333333333334
 40
0.8333333333333334
 40
0.8333333333333334
 40
0.875
 40
0.875
 40
0.875
 40
0.875
 40
0.9166666666666666
 40
0.9166666666666666
 40
0.9166666666666666
 40
0.9166666666666666
 40
1.0
 40
1.0
 40
1.0
 40
1.0
 10
-148.6027
 20
108.5385
 30
0.0
 10
-150.0182
 20
109.7082
 30
0.0
 10
-151.0798
 20
111.2492
 30
0.0
 10
-151.6685
 20
112.9887
 30
0.0
 10
-151.6685
 20
112.9887
 30
0.0
 10
-151.4535
 20
109.1099
 30
0.0
 10
-153.1079
 20
105.3622
 30
0.0
 10
-156.1195
 20
102.9069
 30
0.0
 10
-156.1195
 20
102.9069
 30
0.0
 10
-160.3258
 20
99.9508
 30
0.0
 10
-165.7115
 20
99.24
 30
0.0
 10
-170.5411
 20
100.9995
 30
0.0
 10
-170.5411
 20
100.9995
 30
0.0
 10
-169.6639
 20
100.1189
 30
0.0
 10
-169.3641
 20
98.8148
 30
0.0
 10
-169.7679
 20
97.6384
 30
0.0
 10
-169.7679
 20
97.6384
 30
0.0
 10
-169.8067
 20
97.5325
 30
0.0
 10
-169.9028
 20
97.4585
 30
0.0
 10
-170.0148
 20
97.4484
 30
0.0
 10
-170.0148
 20
97.4484
 30
0.0
 10
-170.1265
 20
97.4401
 30
0.0
 10
-170.2339
 20
97.4955
 30
0.0
 10
-170.2902
 20
97.593
 30
0.0
 10
-170.2902
 20
97.593
 30
0.0
 10
-170.864
 20
98.1862
 30
0.0
 10
-171.6703
 20
98.4955
 30
0.0
 10
-172.4936
 20
98.4383
 30
0.0
 10
-172.4936
 20
98.4383
 30
0.0
 10
-173.3171
 20
98.3812
 30
0.0
 10
-174.0732
 20
97.9644
 30
0.0
 10
-174.5597
 20
97.2972
 30
0.0
 10
-174.5597
 20
97.2972
 30
0.0
 10
-174.9309
 20
96.2502
 30
0.0
 10
-174.7096
 20
95.0856
 30
0.0
 10
-173.9804
 20
94.247
 30
0.0
 10
-173.9804
 20
94.247
 30
0.0
 10
-173.2512
 20
93.4101
 30
0.0
 10
-172.1272
 20
93.0302
 30
0.0
 10
-171.0398
 20
93.2555
 30
0.0
 10
-171.0398
 20
93.2555
 30
0.0
 10
-169.4172
 20
93.6638
 30
0.0
 10
-167.8796
 20
94.3545
 30
0.0
 10
-166.4978
 20
95.299
 30
0.0
 10
-166.4978
 20
95.299
 30
0.0
 10
-163.1828
 20
97.4535
 30
0.0
 10
-158.8803
 20
97.3375
 30
0.0
 10
-155.6881
 20
95.0032
 30
0.0
 10
-155.6881
 20
95.0032
 30
0.0
 10
-155.6029
 20
94.9276
 30
0.0
 10
-155.5118
 20
94.8604
 30
0.0
 10
-155.4155
 20
94.7982
 30
0.0
 10
-155.4155
 20
94.7982
 30
0.0
 10
-155.7011
 20
96.0452
 30
0.0
 10
-155.3683
 20
97.3544
 30
0.0
 10
-154.522
 20
98.3123
 30
0.0
 10
-154.522
 20
98.3123
 30
0.0
 10
-153.6755
 20
99.2719
 30
0.0
 10
-152.4189
 20
99.7643
 30
0.0
 10
-151.1462
 20
99.6365
 30
0.0
 10
-151.1462
 20
99.6365
 30
0.0
 10
-151.7596
 20
100.3525
 30
0.0
 10
-152.062
 20
101.2852
 30
0.0
 10
-151.9865
 20
102.2246
 30
0.0
 10
-151.9865
 20
102.2246
 30
0.0
 10
-151.9285
 20
102.3456
 30
0.0
 10
-151.802
 20
102.4179
 30
0.0
 10
-151.6685
 20
102.4061
 30
0.0
 10
-151.6685
 20
102.4061
 30
0.0
 10
-149.7149
 20
102.6918
 30
0.0
 10
-147.7239
 20
102.265
 30
0.0
 10
-146.0592
 20
101.2028
 30
0.0
 10
-146.0592
 20
101.2028
 30
0.0
 10
-147.5878
 20
102.4011
 30
0.0
 10
-148.8814
 20
103.8716
 30
0.0
 10
-149.8744
 20
105.5404
 30
0.0
 10
-149.8744
 20
105.5404
 30
0.0
 10
-150.3569
 20
106.3185
 30
0.0
 10
-150.7096
 20
107.1705
 30
0.0
 10
-150.919
 20
108.0612
 30
0.0
 10
-150.919
 20
108.0612
 30
0.0
 10
-150.975
 20
108.1722
 30
0.0
 10
-150.9732
 20
108.3015
 30
0.0
 10
-150.9143
 20
108.4108
 30
0.0
 10
-150.9143
 20
108.4108
 30
0.0
 10
-150.8553
 20
108.52
 30
0.0
 10
-150.7468
 20
108.5923
 30
0.0
 10
-150.6239
 20
108.6057
 30
0.0
 10
-150.6239
 20
108.6057
 30
0.0
 10
-149.9545
 20
108.7469
 30
0.0
 10
-149.261
 20
108.7234
 30
0.0
 10
-148.6027
 20
108.5385
 30
0.0
  0
SPLINE
  5
50
330
1F
100
AcDbEntity
  8
layer 1
 62
     7
370
     9
100
AcDbSpline
210
0.0
220
0.0
230
1.0
 70
    11
 71
     3
 72
    28
 73
    24
 74
     0
 42
0.0000000001
 43
0.0000000001
 12
1.0
 22
0.0
 32
0.0
 13
1.0
 23
0.0
 33
0.0
 40
0.0
 40
0.0
 40
0.0
 40
0.0
 40
0.1428571428571428
 40
0.1428571428571428
 40
0.1428571428571428
 40
0.1428571428571428
 40
0.2857142857142857
 40
0.2857142857142857
 40
0.2857142857142857
 40
0.2857142857142857
 40
0.4285714285714285
 40
0.4285714285714285
 40
0.4285714285714285
 40
0.4285714285714285
 40
0.5714285714285714
 40
0.5714285714285714
 40
0.5714285714285714
 40
0.5714285714285714
 40
0.7142857142857143
 40
0.7142857142857143
 40
0.7142857142857143
 40
0.7142857142857143
 40
1.0
 40
1.0
 40
1.0
 40
1.0
 10
-168.0188
 20
107.9453
 30
0.0
 10
-174.7138
 20
109.088
 30
0.0
 10
-179.7066
 20
114.7432
 30
0.0
 10
-180.0099
 20
121.5276
 30
0.0
 10
-180.0099
 20
121.5276
 30
0.0
 10
-178.2158
 20
118.9328
 30
0.0
 10
-175.2141
 20
117.4405
 30
0.0
 10
-172.0615
 20
117.5766
 30
0.0
 10
-172.0615
 20
117.5766
 30
0.0
 10
-172.8529
 20
113.8743
 30
0.0
 10
-171.1964
 20
110.0779
 30
0.0
 10
-167.9435
 20
108.1402
 30
0.0
 10
-167.9435
 20
108.1402
 30
0.0
 10
-167.944
 20
108.1385
 30
0.0
 10
-167.9448
 20
108.1352
 30
0.0
 10
-167.9455
 20
108.1318
 30
0.0
 10
-167.9455
 20
108.1318
 30
0.0
 10
-167.9554
 20
108.0999
 30
0.0
 10
-167.9658
 20
108.068
 30
0.0
 10
-167.9781
 20
108.0377
 30
0.0
 10
-167.9781
 20
108.0377
 30
0.0
 10
-167.9902
 20
108.0058
 30
0.0
 10
-168.0043
 20
107.9755
 30
0.0
 10
-168.0188
 20
107.9453
 30
0.0
  0
SPLINE
  5
51
330
1F
100
AcDbEntity
  8
layer 1
 62
     7
370
     9
100
AcDbSpline
210
0.0
220
0.0
230
1.0
 70
    11
 71
     3
 72
    24
 73
    20
 74
     0
 42
0.0000000001
 43
0.0000000001
 12
1.0
 22
0.0
 32
0.0
 13
1.0
 23
0.0
 33
0.0
 40
0.0
 40
0.0
 40
0.0
 40
0.0
 40
0.1666666666666667
 40
0.1666666666666667
 40
0.1666666666666667
 40
0.1666666666666667
 40
0.3333333333333333
 40
0.3333333333333333
 40
0.3333333333333333
 40
0.3333333333333333
 40
0.5
 40
0.5
 40
0.5
 40
0.5
 40
0.6666666666666666
 40
0.6666666666666666
 40
0.6666666666666666
 40
0.6666666666666666
 40
1.0
 40
1.0
 40
1.0
 40
1.0
 10
-166.7476
 20
102.7237
 30
0.0
 10
-163.68
 20
102.3843
 30
0.0
 10
-160.6754
 20
103.7657
 30
0.0
 10
-158.935
 20
106.3134
 30
0.0
 10
-158.935
 20
106.3134
 30
0.0
 10
-157.1946
 20
108.8629
 30
0.0
 10
-157.0027
 20
112.1635
 30
0.0
 10
-158.436
 20
114.8961
 30
0.0
 10
-158.436
 20
114.8961
 30
0.0
 10
-158.3463
 20
112.9786
 30
0.0
 10
-159.0408
 20
111.1047
 30
0.0
 10
-160.3601
 20
109.7082
 30
0.0
 10
-160.3601
 20
109.7082
 30
0.0
 10
-161.6793
 20
108.3133
 30
0.0
 10
-163.5096
 20
107.5134
 30
0.0
 10
-165.4304
 20
107.4932
 30
0.0
 10
-165.4304
 20
107.4932
 30
0.0
 10
-165.021
 20
105.7824
 30
0.0
 10
-165.5183
 20
103.9825
 30
0.0
 10
-166.7476
 20
102.7237
 30
0.0
  0
SPLINE
  5
52
330
1F
100
AcDbEntity
  8
layer 1
 62
     7
370
     9
100
AcDbSpline
210
0.0
220
0.0
230
1.0
 70
    11
 71
     3
 72
    48
 73
    44
 74
     0
 42
0.0000000001
 43
0.0000000001
 12
1.0
 22
0.0
 32
0.0
 13
1.0
 23
0.0
 33
0.0
 40
0.0
 40
0.0
 40
0.0
 40
0.0
 40
0.0833333333333333
 40
0.0833333333333333
 40
0.0833333333333333
 40
0.0833333333333333
 40
0.1666666666666667
 40
0.1666666666666667
 40
0.1666666666666667
 40
0.1666666666666667
 40
0.25
 40
0.25
 40
0.25
 40
0.25
 40
0.3333333333333333
 40
0.3333333333333333
 40
0.3333333333333333
 40
0.3333333333333333
 40
0.4166666666666667
 40
0.4166666666666667
 40
0.4166666666666667
 40
0.4166666666666667
 40
0.5
 40
0.5
 40
0.5
 40
0.5
 40
0.5833333333333334
 40
0.5833333333333334
 40
0.5833333333333334
 40
0.5833333333333334
 40
0.6666666666666666
 40
0.6666666666666666
 40
0.6666666666666666
 40
0.6666666666666666
 40
0.75
 40
0.75
 40
0.75
 40
0.75
 40
0.8333333333333334
 40
0.8333333333333334
 40
0.8333333333333334
 40
0.8333333333333334
 40
1.0
 40
1.0
 40
1.0
 40
1.0
 10
-164.295
 20
115.7599
 30
0.0
 10
-164.3891
 20
115.8321
 30
0.0
 10
-164.4403
 20
115.9481
 30
0.0
 10
-164.4311
 20
116.0674
 30
0.0
 10
-164.4311
 20
116.0674
 30
0.0
 10
-164.422
 20
116.1867
 30
0.0
 10
-164.3538
 20
116.2926
 30
0.0
 10
-164.2496
 20
116.3498
 30
0.0
 10
-164.2496
 20
116.3498
 30
0.0
 10
-163.0776
 20
117.1749
 30
0.0
 10
-161.5543
 20
117.3144
 30
0.0
 10
-160.2527
 20
116.7128
 30
0.0
 10
-160.2527
 20
116.7128
 30
0.0
 10
-160.3344
 20
117.4892
 30
0.0
 10
-160.0936
 20
118.264
 30
0.0
 10
-159.5869
 20
118.8572
 30
0.0
 10
-159.5869
 20
118.8572
 30
0.0
 10
-159.08
 20
119.4487
 30
0.0
 10
-158.3518
 20
119.8084
 30
0.0
 10
-157.5729
 20
119.847
 30
0.0
 10
-157.5729
 20
119.847
 30
0.0
 10
-160.1467
 20
122.3578
 30
0.0
 10
-164.1284
 20
122.7174
 30
0.0
 10
-167.1109
 20
120.7108
 30
0.0
 10
-167.1109
 20
120.7108
 30
0.0
 10
-169.4671
 20
118.8908
 30
0.0
 10
-170.1085
 20
115.607
 30
0.0
 10
-168.6098
 20
113.034
 30
0.0
 10
-168.6098
 20
113.034
 30
0.0
 10
-168.1327
 20
112.2794
 30
0.0
 10
-167.3655
 20
111.7551
 30
0.0
 10
-166.4891
 20
111.582
 30
0.0
 10
-166.4891
 20
111.582
 30
0.0
 10
-165.6125
 20
111.4106
 30
0.0
 10
-164.704
 20
111.6072
 30
0.0
 10
-163.977
 20
112.1265
 30
0.0
 10
-163.977
 20
112.1265
 30
0.0
 10
-163.4228
 20
112.5937
 30
0.0
 10
-163.1307
 20
113.3029
 30
0.0
 10
-163.194
 20
114.0255
 30
0.0
 10
-163.194
 20
114.0255
 30
0.0
 10
-163.2572
 20
114.7482
 30
0.0
 10
-163.668
 20
115.3952
 30
0.0
 10
-164.295
 20
115.7599
 30
0.0
  0
SPLINE
  5
53
330
1F
100
AcDbEntity
  8
layer 1
 62
     7
370
     9
100
AcDbSpline
210
0.0
220
0.0
230
1.0
 70
    11
 71
     3
 72
    16
 73
    12
 74
     0
 42
0.0000000001
 43
0.0000000001
 12
1.0
 22
0.0
 32
0.0
 13
1.0
 23
0.0
 33
0.0
 40
0.0
 40
0.0
 40
0.0
 40
0.0
 40
0.25
 40
0.25
 40
0.25
 40
0.25
 40
0.5
 40
0.5
 40
0.5
 40
0.5
 40
1.0
 40
1.0
 40
1.0
 40
1.0
 10
-135.8627
 20
122.0217
 30
0.0
 10
-135.6918
 20
123.5644
 30
0.0
 10
-134.6349
 20
124.8618
 30
0.0
 10
-133.1603
 20
125.3425
 30
0.0
 10
-133.1603
 20
125.3425
 30
0.0
 10
-133.1603
 20
125.3425
 30
0.0
 10
-138.5652
 20
125.3425
 30
0.0
 10
-138.5652
 20
125.3425
 30
0.0
 10
-138.5652
 20
125.3425
 30
0.0
 10
-137.0907
 20
124.8618
 30
0.0
 10
-136.0338
 20
123.5644
 30
0.0
 10
-135.8627
 20
122.0217
 30
0.0
  0
SPLINE
  5
54
330
1F
100
AcDbEntity
  8
layer 1
 62
     7
370
     9
100
AcDbSpline
210
0.0
220
0.0
230
1.0
 70
    11
 71
     3
 72
   100
 73
    96
 74
     0
 42
0.0000000001
 43
0.0000000001
 12
1.0
 22
0.0
 32
0.0
 13
1.0
 23
0.0
 33
0.0
 40
0.0
 40
0.0
 40
0.0
 40
0.0
 40
0.04
 40
0.04
 40
0.04
 40
0.04
 40
0.08
 40
0.08
 40
0.08
 40
0.08
 40
0.12
 40
0.12
 40
0.12
 40
0.12
 40
0.16
 40
0.16
 40
0.16
 40
0.16
 40
0.2
 40
0.2
 40
0.2
 40
0.2
 40
0.24
 40
0.24
 40
0.24
 40
0.24
 40
0.28
 40
0.28
 40
0.28
 40
0.28
 40
0.32
 40
0.32
 40
0.32
 40
0.32
 40
0.36
 40
0.36
 40
0.36
 40
0.36
 40
0.4
 40
0.4
 40
0.4
 40
0.4
 40
0.44
 40
0.44
 40
0.44
 40
0.44
 40
0.48
 40
0.48
 40
0.48
 40
0.48
 40
0.52
 40
0.52
 40
0.52
 40
0.52
 40
0.56
 40
0.56
 40
0.56
 40
0.56
 40
0.6
 40
0.6
 40
0.6
 40
0.6
 40
0.64
 40
0.64
 40
0.64
 40
0.64
 40
0.68
 40
0.68
 40
0.68
 40
0.68
 40
0.72
 40
0.72
 40
0.72
 40
0.72
 40
0.76
 40
0.76
 40
0.76
 40
0.76
 40
0.8
 40
0.8
 40
0.8
 40
0.8
 40
0.84
 40
0.84
 40
0.84
 40
0.84
 40
0.88
 40
0.88
 40
0.88
 40
0.88
 40
0.92
 40
0.92
 40
0.92
 40
0.92
 40
1.0
 40
1.0
 40
1.0
 40
1.0
 10
-135.8627
 20
121.1511
 30
0.0
 10
-135.7302
 20
119.9563
 30
0.0
 10
-135.0617
 20
118.8874
 30
0.0
 10
-134.046
 20
118.2471
 30
0.0
 10
-134.046
 20
118.2471
 30
0.0
 10
-134.0082
 20
118.2034
 30
0.0
 10
-133.9468
 20
118.19
 30
0.0
 10
-133.8947
 20
118.2135
 30
0.0
 10
-133.8947
 20
118.2135
 30
0.0
 10
-133.8426
 20
118.237
 30
0.0
 10
-133.8119
 20
118.2925
 30
0.0
 10
-133.8189
 20
118.348
 30
0.0
 10
-133.8189
 20
118.348
 30
0.0
 10
-133.5855
 20
119.2454
 30
0.0
 10
-132.9222
 20
119.968
 30
0.0
 10
-132.0485
 20
120.2773
 30
0.0
 10
-132.0485
 20
120.2773
 30
0.0
 10
-131.1749
 20
120.5865
 30
0.0
 10
-130.2046
 20
120.4436
 30
0.0
 10
-129.4587
 20
119.8924
 30
0.0
 10
-129.4587
 20
119.8924
 30
0.0
 10
-127.8827
 20
118.2471
 30
0.0
 10
-127.032
 20
116.0389
 30
0.0
 10
-127.0969
 20
113.7617
 30
0.0
 10
-127.0969
 20
113.7617
 30
0.0
 10
-127.2165
 20
109.9771
 30
0.0
 10
-128.4662
 20
106.3151
 30
0.0
 10
-130.685
 20
103.2464
 30
0.0
 10
-130.685
 20
103.2464
 30
0.0
 10
-130.1968
 20
104.7404
 30
0.0
 10
-130.0723
 20
106.3286
 30
0.0
 10
-130.3217
 20
107.8797
 30
0.0
 10
-130.3217
 20
107.8797
 30
0.0
 10
-130.3585
 20
108.0881
 30
0.0
 10
-130.4939
 20
108.2662
 30
0.0
 10
-130.685
 20
108.357
 30
0.0
 10
-130.685
 20
108.357
 30
0.0
 10
-131.494
 20
108.473
 30
0.0
 10
-132.3153
 20
108.2511
 30
0.0
 10
-132.956
 20
107.7436
 30
0.0
 10
-132.956
 20
107.7436
 30
0.0
 10
-132.3073
 20
110.293
 30
0.0
 10
-133.3467
 20
112.9735
 30
0.0
 10
-135.5449
 20
114.4205
 30
0.0
 10
-135.5449
 20
114.4205
 30
0.0
 10
-135.6348
 20
114.4911
 30
0.0
 10
-135.7484
 20
114.5264
 30
0.0
 10
-135.8627
 20
114.5163
 30
0.0
 10
-135.8627
 20
114.5163
 30
0.0
 10
-135.9771
 20
114.5264
 30
0.0
 10
-136.0907
 20
114.4911
 30
0.0
 10
-136.1806
 20
114.4205
 30
0.0
 10
-136.1806
 20
114.4205
 30
0.0
 10
-138.3788
 20
112.9735
 30
0.0
 10
-139.4183
 20
110.293
 30
0.0
 10
-138.7695
 20
107.7436
 30
0.0
 10
-138.7695
 20
107.7436
 30
0.0
 10
-139.4102
 20
108.2511
 30
0.0
 10
-140.2315
 20
108.473
 30
0.0
 10
-141.0405
 20
108.357
 30
0.0
 10
-141.0405
 20
108.357
 30
0.0
 10
-141.2316
 20
108.2662
 30
0.0
 10
-141.3669
 20
108.0881
 30
0.0
 10
-141.4038
 20
107.8797
 30
0.0
 10
-141.4038
 20
107.8797
 30
0.0
 10
-141.6532
 20
106.3286
 30
0.0
 10
-141.5285
 20
104.7404
 30
0.0
 10
-141.0405
 20
103.2464
 30
0.0
 10
-141.0405
 20
103.2464
 30
0.0
 10
-143.2592
 20
106.3151
 30
0.0
 10
-144.5088
 20
109.9771
 30
0.0
 10
-144.6287
 20
113.7617
 30
0.0
 10
-144.6287
 20
113.7617
 30
0.0
 10
-144.6934
 20
116.0389
 30
0.0
 10
-143.8427
 20
118.2471
 30
0.0
 10
-142.2668
 20
119.8924
 30
0.0
 10
-142.2668
 20
119.8924
 30
0.0
 10
-141.5208
 20
120.4436
 30
0.0
 10
-140.5506
 20
120.5865
 30
0.0
 10
-139.6769
 20
120.2773
 30
0.0
 10
-139.6769
 20
120.2773
 30
0.0
 10
-138.8032
 20
119.968
 30
0.0
 10
-138.14
 20
119.2454
 30
0.0
 10
-137.9066
 20
118.348
 30
0.0
 10
-137.9066
 20
118.348
 30
0.0
 10
-137.9136
 20
118.2925
 30
0.0
 10
-137.8827
 20
118.237
 30
0.0
 10
-137.8308
 20
118.2135
 30
0.0
 10
-137.8308
 20
118.2135
 30
0.0
 10
-137.7785
 20
118.19
 30
0.0
 10
-137.7173
 20
118.2034
 30
0.0
 10
-137.6795
 20
118.2471
 30
0.0
 10
-137.6795
 20
118.2471
 30
0.0
 10
-136.6638
 20
118.8874
 30
0.0
 10
-135.9951
 20
119.9563
 30
0.0
 10
-135.8627
 20
121.1511
 30
0.0
  0
SPLINE
  5
55
330
1F
100
AcDbEntity
  8
layer 1
 62
     7
370
     9
100
AcDbSpline
210
0.0
220
0.0
230
1.0
 70
    11
 71
     3
 72
    28
 73
    24
 74
     0
 42
0.0000000001
 43
0.0000000001
 12
1.0
 22
0.0
 32
0.0
 13
1.0
 23
0.0
 33
0.0
 40
0.0
 40
0.0
 40
0.0
 40
0.0
 40
0.1428571428571428
 40
0.1428571428571428
 40
0.1428571428571428
 40
0.1428571428571428
 40
0.2857142857142857
 40
0.2857142857142857
 40
0.2857142857142857
 40
0.2857142857142857
 40
0.4285714285714285
 40
0.4285714285714285
 40
0.4285714285714285
 40
0.4285714285714285
 40
0.5714285714285714
 40
0.5714285714285714
 40
0.5714285714285714
 40
0.5714285714285714
 40
0.7142857142857143
 40
0.7142857142857143
 40
0.7142857142857143
 40
0.7142857142857143
 40
1.0
 40
1.0
 40
1.0
 40
1.0
 10
-149.7156
 20
96.956
 30
0.0
 10
-144.814
 20
96.5393
 30
0.0
 10
-140.5894
 20
93.3412
 30
0.0
 10
-138.8603
 20
88.7347
 30
0.0
 10
-138.8603
 20
88.7347
 30
0.0
 10
-143.343
 20
91.5531
 30
0.0
 10
-149.106
 20
91.2808
 30
0.0
 10
-153.3036
 20
88.0541
 30
0.0
 10
-153.3036
 20
88.0541
 30
0.0
 10
-152.163
 20
89.8019
 30
0.0
 10
-152.5147
 20
92.1278
 30
0.0
 10
-154.1212
 20
93.4588
 30
0.0
 10
-154.1212
 20
93.4588
 30
0.0
 10
-153.5511
 20
93.2689
 30
0.0
 10
-152.9465
 20
93.2084
 30
0.0
 10
-152.3499
 20
93.2773
 30
0.0
 10
-152.3499
 20
93.2773
 30
0.0
 10
-152.7008
 20
94.1277
 30
0.0
 10
-152.5885
 20
95.099
 30
0.0
 10
-152.0527
 20
95.8469
 30
0.0
 10
-152.0527
 20
95.8469
 30
0.0
 10
-151.5171
 20
96.5947
 30
0.0
 10
-150.6336
 20
97.0149
 30
0.0
 10
-149.7156
 20
96.956
 30
0.0
  0
SPLINE
  5
56
330
1F
100
AcDbEntity
  8
layer 1
 62
     7
370
     9
100
AcDbSpline
210
0.0
220
0.0
230
1.0
 70
    11
 71
     3
 72
    36
 73
    32
 74
     0
 42
0.0000000001
 43
0.0000000001
 12
1.0
 22
0.0
 32
0.0
 13
1.0
 23
0.0
 33
0.0
 40
0.0
 40
0.0
 40
0.0
 40
0.0
 40
0.1111111111111111
 40
0.1111111111111111
 40
0.1111111111111111
 40
0.1111111111111111
 40
0.2222222222222222
 40
0.2222222222222222
 40
0.2222222222222222
 40
0.2222222222222222
 40
0.3333333333333333
 40
0.3333333333333333
 40
0.3333333333333333
 40
0.3333333333333333
 40
0.4444444444444444
 40
0.4444444444444444
 40
0.4444444444444444
 40
0.4444444444444444
 40
0.5555555555555556
 40
0.5555555555555556
 40
0.5555555555555556
 40
0.5555555555555556
 40
0.6666666666666666
 40
0.6666666666666666
 40
0.6666666666666666
 40
0.6666666666666666
 40
0.7777777777777778
 40
0.7777777777777778
 40
0.7777777777777778
 40
0.7777777777777778
 40
1.0
 40
1.0
 40
1.0
 40
1.0
 10
-139.4962
 20
80.1521
 30
0.0
 10
-138.6208
 20
82.1251
 30
0.0
 10
-139.2235
 20
84.4409
 30
0.0
 10
-140.9498
 20
85.7383
 30
0.0
 10
-140.9498
 20
85.7383
 30
0.0
 10
-144.7071
 20
87.5348
 30
0.0
 10
-149.1469
 20
87.1331
 30
0.0
 10
-152.5197
 20
84.6879
 30
0.0
 10
-152.5197
 20
84.6879
 30
0.0
 10
-155.8923
 20
82.2444
 30
0.0
 10
-157.6572
 20
78.1505
 30
0.0
 10
-157.1188
 20
74.0197
 30
0.0
 10
-157.1188
 20
74.0197
 30
0.0
 10
-156.5309
 20
75.4717
 30
0.0
 10
-155.3192
 20
76.5826
 30
0.0
 10
-153.8209
 20
77.0397
 30
0.0
 10
-153.8209
 20
77.0397
 30
0.0
 10
-152.3225
 20
77.4985
 30
0.0
 10
-150.6973
 20
77.2565
 30
0.0
 10
-149.3976
 20
76.3809
 30
0.0
 10
-149.3976
 20
76.3809
 30
0.0
 10
-150.3734
 20
78.527
 30
0.0
 10
-149.8956
 20
81.0529
 30
0.0
 10
-148.2039
 20
82.6931
 30
0.0
 10
-148.2039
 20
82.6931
 30
0.0
 10
-146.5124
 20
84.335
 30
0.0
 10
-143.9723
 20
84.735
 30
0.0
 10
-141.8581
 20
83.6947
 30
0.0
 10
-141.8581
 20
83.6947
 30
0.0
 10
-140.7456
 20
82.7654
 30
0.0
 10
-139.9254
 20
81.5352
 30
0.0
 10
-139.4962
 20
80.1521
 30
0.0
  0
SPLINE
  5
57
330
1F
100
AcDbEntity
  8
layer 1
 62
     7
370
     9
100
AcDbSpline
210
0.0
220
0.0
230
1.0
 70
    11
 71
     3
 72
    20
 73
    16
 74
     0
 42
0.0000000001
 43
0.0000000001
 12
1.0
 22
0.0
 32
0.0
 13
1.0
 23
0.0
 33
0.0
 40
0.0
 40
0.0
 40
0.0
 40
0.0
 40
0.2
 40
0.2
 40
0.2
 40
0.2
 40
0.4
 40
0.4
 40
0.4
 40
0.4
 40
0.6
 40
0.6
 40
0.6
 40
0.6
 40
1.0
 40
1.0
 40
1.0
 40
1.0
 10
-143.4022
 20
76.88
 30
0.0
 10
-144.7819
 20
76.88
 30
0.0
 10
-145.9007
 20
77.9993
 30
0.0
 10
-145.9007
 20
79.379
 30
0.0
 10
-145.9007
 20
79.379
 30
0.0
 10
-145.9007
 20
80.7588
 30
0.0
 10
-144.7819
 20
81.878
 30
0.0
 10
-143.4022
 20
81.878
 30
0.0
 10
-143.4022
 20
81.878
 30
0.0
 10
-142.0224
 20
81.878
 30
0.0
 10
-140.9039
 20
80.7588
 30
0.0
 10
-140.9039
 20
79.379
 30
0.0
 10
-140.9039
 20
79.379
 30
0.0
 10
-140.9039
 20
77.9993
 30
0.0
 10
-142.0224
 20
76.88
 30
0.0
 10
-143.4022
 20
76.88
 30
0.0
  0
SPLINE
  5
58
330
1F
100
AcDbEntity
  8
layer 1
 62
     7
370
     9
100
AcDbSpline
210
0.0
220
0.0
230
1.0
 70
    11
 71
     3
 72
    36
 73
    32
 74
     0
 42
0.0000000001
 43
0.0000000001
 12
1.0
 22
0.0
 32
0.0
 13
1.0
 23
0.0
 33
0.0
 40
0.0
 40
0.0
 40
0.0
 40
0.0
 40
0.1111111111111111
 40
0.1111111111111111
 40
0.1111111111111111
 40
0.1111111111111111
 40
0.2222222222222222
 40
0.2222222222222222
 40
0.2222222222222222
 40
0.2222222222222222
 40
0.3333333333333333
 40
0.3333333333333333
 40
0.3333333333333333
 40
0.3333333333333333
 40
0.4444444444444444
 40
0.4444444444444444
 40
0.4444444444444444
 40
0.4444444444444444
 40
0.5555555555555556
 40
0.5555555555555556
 40
0.5555555555555556
 40
0.5555555555555556
 40
0.6666666666666666
 40
0.6666666666666666
 40
0.6666666666666666
 40
0.6666666666666666
 40
0.7777777777777778
 40
0.7777777777777778
 40
0.7777777777777778
 40
0.7777777777777778
 40
1.0
 40
1.0
 40
1.0
 40
1.0
 10
-138.7695
 20
73.2937
 30
0.0
 10
-138.7422
 20
73.3441
 30
0.0
 10
-138.7534
 20
73.4063
 30
0.0
 10
-138.7969
 20
73.445
 30
0.0
 10
-138.7969
 20
73.445
 30
0.0
 10
-138.8405
 20
73.4836
 30
0.0
 10
-138.9045
 20
73.4853
 30
0.0
 10
-138.9512
 20
73.4517
 30
0.0
 10
-138.9512
 20
73.4517
 30
0.0
 10
-141.0504
 20
71.7493
 30
0.0
 10
-143.8529
 20
71.1896
 30
0.0
 10
-146.4453
 20
71.9526
 30
0.0
 10
-146.4453
 20
71.9526
 30
0.0
 10
-146.6206
 20
71.9627
 30
0.0
 10
-146.7964
 20
71.9476
 30
0.0
 10
-146.9677
 20
71.9072
 30
0.0
 10
-146.9677
 20
71.9072
 30
0.0
 10
-147.677
 20
71.64
 30
0.0
 10
-148.1708
 20
70.9913
 30
0.0
 10
-148.2385
 20
70.2368
 30
0.0
 10
-148.2385
 20
70.2368
 30
0.0
 10
-148.3064
 20
69.4805
 30
0.0
 10
-147.936
 20
68.7545
 30
0.0
 10
-147.2856
 20
68.3646
 30
0.0
 10
-147.2856
 20
68.3646
 30
0.0
 10
-145.2596
 20
67.7949
 30
0.0
 10
-143.0863
 20
68.4402
 30
0.0
 10
-141.6991
 20
70.0233
 30
0.0
 10
-141.6991
 20
70.0233
 30
0.0
 10
-140.5851
 20
70.9813
 30
0.0
 10
-139.6003
 20
72.0803
 30
0.0
 10
-138.7695
 20
73.2937
 30
0.0
  0
SPLINE
  5
59
330
1F
100
AcDbEntity
  8
layer 1
 62
     7
370
     9
100
AcDbSpline
210
0.0
220
0.0
230
1.0
 70
    11
 71
     3
 72
    32
 73
    28
 74
     0
 42
0.0000000001
 43
0.0000000001
 12
1.0
 22
0.0
 32
0.0
 13
1.0
 23
0.0
 33
0.0
 40
0.0
 40
0.0
 40
0.0
 40
0.0
 40
0.125
 40
0.125
 40
0.125
 40
0.125
 40
0.25
 40
0.25
 40
0.25
 40
0.25
 40
0.375
 40
0.375
 40
0.375
 40
0.375
 40
0.5
 40
0.5
 40
0.5
 40
0.5
 40
0.625
 40
0.625
 40
0.625
 40
0.625
 40
0.75
 40
0.75
 40
0.75
 40
0.75
 40
1.0
 40
1.0
 40
1.0
 40
1.0
 10
-139.3657
 20
68.7932
 30
0.0
 10
-140.5733
 20
67.3025
 30
0.0
 10
-142.0799
 20
66.0824
 30
0.0
 10
-143.7884
 20
65.2085
 30
0.0
 10
-143.7884
 20
65.2085
 30
0.0
 10
-144.3826
 20
64.9497
 30
0.0
 10
-144.9401
 20
64.6136
 30
0.0
 10
-145.4461
 20
64.2086
 30
0.0
 10
-145.4461
 20
64.2086
 30
0.0
 10
-145.9244
 20
63.4927
 30
0.0
 10
-145.86
 20
62.5448
 30
0.0
 10
-145.2895
 20
61.8995
 30
0.0
 10
-145.2895
 20
61.8995
 30
0.0
 10
-144.7191
 20
61.2541
 30
0.0
 10
-143.7855
 20
61.0743
 30
0.0
 10
-143.0162
 20
61.4608
 30
0.0
 10
-143.0162
 20
61.4608
 30
0.0
 10
-140.4667
 20
62.9599
 30
0.0
 10
-138.9616
 20
65.7513
 30
0.0
 10
-139.1102
 20
68.7058
 30
0.0
 10
-139.1102
 20
68.7058
 30
0.0
 10
-139.1082
 20
68.768
 30
0.0
 10
-139.1467
 20
68.8234
 30
0.0
 10
-139.2055
 20
68.8436
 30
0.0
 10
-139.2055
 20
68.8436
 30
0.0
 10
-139.2641
 20
68.8637
 30
0.0
 10
-139.3292
 20
68.8436
 30
0.0
 10
-139.3657
 20
68.7932
 30
0.0
  0
SPLINE
  5
5A
330
1F
100
AcDbEntity
  8
layer 1
 62
     7
370
     9
100
AcDbSpline
210
0.0
220
0.0
230
1.0
 70
    11
 71
     3
 72
    32
 73
    28
 74
     0
 42
0.0000000001
 43
0.0000000001
 12
1.0
 22
0.0
 32
0.0
 13
1.0
 23
0.0
 33
0.0
 40
0.0
 40
0.0
 40
0.0
 40
0.0
 40
0.125
 40
0.125
 40
0.125
 40
0.125
 40
0.25
 40
0.25
 40
0.25
 40
0.25
 40
0.375
 40
0.375
 40
0.375
 40
0.375
 40
0.5
 40
0.5
 40
0.5
 40
0.5
 40
0.625
 40
0.625
 40
0.625
 40
0.625
 40
0.75
 40
0.75
 40
0.75
 40
0.75
 40
1.0
 40
1.0
 40
1.0
 40
1.0
 10
-140.6998
 20
58.3048
 30
0.0
 10
-139.6145
 20
59.4812
 30
0.0
 10
-138.8586
 20
60.9214
 30
0.0
 10
-138.5084
 20
62.4826
 30
0.0
 10
-138.5084
 20
62.4826
 30
0.0
 10
-138.482
 20
62.5902
 30
0.0
 10
-138.3823
 20
62.6624
 30
0.0
 10
-138.2724
 20
62.6541
 30
0.0
 10
-138.2724
 20
62.6541
 30
0.0
 10
-138.1629
 20
62.6457
 30
0.0
 10
-138.0753
 20
62.5583
 30
0.0
 10
-138.0656
 20
62.449
 30
0.0
 10
-138.0656
 20
62.449
 30
0.0
 10
-137.2979
 20
59.587
 30
0.0
 10
-137.7676
 20
56.5351
 30
0.0
 10
-139.3599
 20
54.0361
 30
0.0
 10
-139.3599
 20
54.0361
 30
0.0
 10
-139.9816
 20
53.4227
 30
0.0
 10
-140.9524
 20
53.342
 30
0.0
 10
-141.6665
 20
53.8445
 30
0.0
 10
-141.6665
 20
53.8445
 30
0.0
 10
-142.3804
 20
54.3453
 30
0.0
 10
-142.6332
 20
55.2865
 30
0.0
 10
-142.2668
 20
56.0797
 30
0.0
 10
-142.2668
 20
56.0797
 30
0.0
 10
-141.8623
 20
56.8981
 30
0.0
 10
-141.3338
 20
57.6477
 30
0.0
 10
-140.6998
 20
58.3048
 30
0.0
  0
SPLINE
  5
5B
330
1F
100
AcDbEntity
  8
layer 1
 62
     7
370
     9
100
AcDbSpline
210
0.0
220
0.0
230
1.0
 70
    11
 71
     3
 72
    68
 73
    64
 74
     0
 42
0.0000000001
 43
0.0000000001
 12
1.0
 22
0.0
 32
0.0
 13
1.0
 23
0.0
 33
0.0
 40
0.0
 40
0.0
 40
0.0
 40
0.0
 40
0.0588235294117647
 40
0.0588235294117647
 40
0.0588235294117647
 40
0.0588235294117647
 40
0.1176470588235294
 40
0.1176470588235294
 40
0.1176470588235294
 40
0.1176470588235294
 40
0.1764705882352941
 40
0.1764705882352941
 40
0.1764705882352941
 40
0.1764705882352941
 40
0.2352941176470588
 40
0.2352941176470588
 40
0.2352941176470588
 40
0.2352941176470588
 40
0.2941176470588235
 40
0.2941176470588235
 40
0.2941176470588235
 40
0.2941176470588235
 40
0.3529411764705883
 40
0.3529411764705883
 40
0.3529411764705883
 40
0.3529411764705883
 40
0.4117647058823529
 40
0.4117647058823529
 40
0.4117647058823529
 40
0.4117647058823529
 40
0.4705882352941176
 40
0.4705882352941176
 40
0.4705882352941176
 40
0.4705882352941176
 40
0.5294117647058824
 40
0.5294117647058824
 40
0.5294117647058824
 40
0.5294117647058824
 40
0.5882352941176471
 40
0.5882352941176471
 40
0.5882352941176471
 40
0.5882352941176471
 40
0.6470588235294118
 40
0.6470588235294118
 40
0.6470588235294118
 40
0.6470588235294118
 40
0.7058823529411765
 40
0.7058823529411765
 40
0.7058823529411765
 40
0.7058823529411765
 40
0.7647058823529411
 40
0.7647058823529411
 40
0.7647058823529411
 40
0.7647058823529411
 40
0.8235294117647058
 40
0.8235294117647058
 40
0.8235294117647058
 40
0.8235294117647058
 40
0.8823529411764706
 40
0.8823529411764706
 40
0.8823529411764706
 40
0.8823529411764706
 40
1.0
 40
1.0
 40
1.0
 40
1.0
 10
-145.3554
 20
50.3565
 30
0.0
 10
-143.7704
 20
48.6886
 30
0.0
 10
-142.4253
 20
46.8085
 30
0.0
 10
-141.3584
 20
44.77
 30
0.0
 10
-141.3584
 20
44.77
 30
0.0
 10
-140.7441
 20
47.2024
 30
0.0
 10
-141.5314
 20
49.7749
 30
0.0
 10
-143.4022
 20
51.4466
 30
0.0
 10
-143.4022
 20
51.4466
 30
0.0
 10
-144.2324
 20
52.0846
 30
0.0
 10
-144.5616
 20
53.1821
 30
0.0
 10
-144.2198
 20
54.1723
 30
0.0
 10
-144.2198
 20
54.1723
 30
0.0
 10
-144.0993
 20
55.7554
 30
0.0
 10
-144.7608
 20
57.2998
 30
0.0
 10
-145.9911
 20
58.3048
 30
0.0
 10
-145.9911
 20
58.3048
 30
0.0
 10
-147.6673
 20
59.3686
 30
0.0
 10
-148.5157
 20
61.355
 30
0.0
 10
-148.1257
 20
63.3011
 30
0.0
 10
-148.1257
 20
63.3011
 30
0.0
 10
-147.8295
 20
65.0455
 30
0.0
 10
-148.5519
 20
66.8084
 30
0.0
 10
-149.988
 20
67.842
 30
0.0
 10
-149.988
 20
67.842
 30
0.0
 10
-150.5836
 20
68.615
 30
0.0
 10
-150.8335
 20
69.5998
 30
0.0
 10
-150.6787
 20
70.5628
 30
0.0
 10
-150.6787
 20
70.5628
 30
0.0
 10
-150.5238
 20
71.5257
 30
0.0
 10
-149.9781
 20
72.3828
 30
0.0
 10
-149.1704
 20
72.929
 30
0.0
 10
-149.1704
 20
72.929
 30
0.0
 10
-150.472
 20
73.7189
 30
0.0
 10
-152.121
 20
73.6483
 30
0.0
 10
-153.3489
 20
72.7475
 30
0.0
 10
-153.3489
 20
72.7475
 30
0.0
 10
-153.7597
 20
72.4618
 30
0.0
 10
-154.0118
 20
71.9997
 30
0.0
 10
-154.0296
 20
71.4989
 30
0.0
 10
-154.0296
 20
71.4989
 30
0.0
 10
-154.0476
 20
70.9981
 30
0.0
 10
-153.8291
 20
70.5191
 30
0.0
 10
-153.4399
 20
70.2048
 30
0.0
 10
-153.4399
 20
70.2048
 30
0.0
 10
-153.3859
 20
70.0855
 30
0.0
 10
-153.3878
 20
69.9477
 30
0.0
 10
-153.4447
 20
69.8301
 30
0.0
 10
-153.4447
 20
69.8301
 30
0.0
 10
-153.5015
 20
69.7108
 30
0.0
 10
-153.6079
 20
69.6234
 30
0.0
 10
-153.7351
 20
69.5914
 30
0.0
 10
-153.7351
 20
69.5914
 30
0.0
 10
-155.111
 20
69.2402
 30
0.0
 10
-156.538
 20
69.9426
 30
0.0
 10
-157.0961
 20
71.2485
 30
0.0
 10
-157.0961
 20
71.2485
 30
0.0
 10
-156.7985
 20
66.3043
 30
0.0
 10
-154.9107
 20
61.5886
 30
0.0
 10
-151.7139
 20
57.8056
 30
0.0
 10
-151.7139
 20
57.8056
 30
0.0
 10
-149.4248
 20
55.473
 30
0.0
 10
-147.3001
 20
52.9834
 30
0.0
 10
-145.3554
 20
50.3565
 30
0.0
  0
SPLINE
  5
5C
330
1F
100
AcDbEntity
  8
layer 1
 62
     7
370
     9
100
AcDbSpline
210
0.0
220
0.0
230
1.0
 70
    11
 71
     3
 72
    20
 73
    16
 74
     0
 42
0.0000000001
 43
0.0000000001
 12
1.0
 22
0.0
 32
0.0
 13
1.0
 23
0.0
 33
0.0
 40
0.0
 40
0.0
 40
0.0
 40
0.0
 40
0.2
 40
0.2
 40
0.2
 40
0.2
 40
0.4
 40
0.4
 40
0.4
 40
0.4
 40
0.6
 40
0.6
 40
0.6
 40
0.6
 40
1.0
 40
1.0
 40
1.0
 40
1.0
 10
-135.8627
 20
50.58
 30
0.0
 10
-134.994
 20
47.0535
 30
0.0
 10
-133.9172
 20
43.5817
 30
0.0
 10
-132.638
 20
40.1827
 30
0.0
 10
-132.638
 20
40.1827
 30
0.0
 10
-134.0236
 20
36.5559
 30
0.0
 10
-135.1022
 20
32.8191
 30
0.0
 10
-135.8627
 20
29.0118
 30
0.0
 10
-135.8627
 20
29.0118
 30
0.0
 10
-136.6231
 20
32.8191
 30
0.0
 10
-137.7019
 20
36.5559
 30
0.0
 10
-139.0875
 20
40.1827
 30
0.0
 10
-139.0875
 20
40.1827
 30
0.0
 10
-137.8083
 20
43.5817
 30
0.0
 10
-136.7314
 20
47.0535
 30
0.0
 10
-135.8627
 20
50.58
 30
0.0
  0
SPLINE
  5
5D
330
1F
100
AcDbEntity
  8
layer 1
 62
     7
370
     9
100
AcDbSpline
210
0.0
220
0.0
230
1.0
 70
    11
 71
     3
 72
    44
 73
    40
 74
     0
 42
0.0000000001
 43
0.0000000001
 12
1.0
 22
0.0
 32
0.0
 13
1.0
 23
0.0
 33
0.0
 40
0.0
 40
0.0
 40
0.0
 40
0.0
 40
0.0909090909090909
 40
0.0909090909090909
 40
0.0909090909090909
 40
0.0909090909090909
 40
0.1818181818181818
 40
0.1818181818181818
 40
0.1818181818181818
 40
0.1818181818181818
 40
0.2727272727272727
 40
0.2727272727272727
 40
0.2727272727272727
 40
0.2727272727272727
 40
0.3636363636363636
 40
0.3636363636363636
 40
0.3636363636363636
 40
0.3636363636363636
 40
0.4545454545454545
 40
0.4545454545454545
 40
0.4545454545454545
 40
0.4545454545454545
 40
0.5454545454545454
 40
0.5454545454545454
 40
0.5454545454545454
 40
0.5454545454545454
 40
0.6363636363636364
 40
0.6363636363636364
 40
0.6363636363636364
 40
0.6363636363636364
 40
0.7272727272727273
 40
0.7272727272727273
 40
0.7272727272727273
 40
0.7272727272727273
 40
0.8181818181818182
 40
0.8181818181818182
 40
0.8181818181818182
 40
0.8181818181818182
 40
1.0
 40
1.0
 40
1.0
 40
1.0
 10
-163.0687
 20
54.3991
 30
0.0
 10
-159.1425
 20
51.3699
 30
0.0
 10
-155.0809
 20
48.5207
 30
0.0
 10
-150.8963
 20
45.86
 30
0.0
 10
-150.8963
 20
45.86
 30
0.0
 10
-147.8679
 20
43.5434
 30
0.0
 10
-145.1708
 20
40.8234
 30
0.0
 10
-142.8799
 20
37.7755
 30
0.0
 10
-142.8799
 20
37.7755
 30
0.0
 10
-142.7192
 20
37.5093
 30
0.0
 10
-142.678
 20
37.1878
 30
0.0
 10
-142.7665
 20
36.8898
 30
0.0
 10
-142.7665
 20
36.8898
 30
0.0
 10
-143.3098
 20
34.6182
 30
0.0
 10
-144.9169
 20
32.7489
 30
0.0
 10
-147.0811
 20
31.871
 30
0.0
 10
-147.0811
 20
31.871
 30
0.0
 10
-146.4198
 20
32.1728
 30
0.0
 10
-145.9235
 20
32.7487
 30
0.0
 10
-145.7227
 20
33.4473
 30
0.0
 10
-145.7227
 20
33.4473
 30
0.0
 10
-145.5219
 20
34.146
 30
0.0
 10
-145.6365
 20
34.8975
 30
0.0
 10
-146.0367
 20
35.5045
 30
0.0
 10
-146.0367
 20
35.5045
 30
0.0
 10
-147.295
 20
36.705
 30
0.0
 10
-149.224
 20
36.8559
 30
0.0
 10
-150.654
 20
35.8659
 30
0.0
 10
-150.654
 20
35.8659
 30
0.0
 10
-152.084
 20
34.8758
 30
0.0
 10
-152.6216
 20
33.0175
 30
0.0
 10
-151.941
 20
31.4167
 30
0.0
 10
-151.941
 20
31.4167
 30
0.0
 10
-153.5839
 20
33.7541
 30
0.0
 10
-154.827
 20
36.348
 30
0.0
 10
-155.6199
 20
39.0925
 30
0.0
 10
-155.6199
 20
39.0925
 30
0.0
 10
-157.4663
 20
44.4806
 30
0.0
 10
-159.968
 20
49.6211
 30
0.0
 10
-163.0687
 20
54.3991
 30
0.0
  0
SPLINE
  5
5E
330
1F
100
AcDbEntity
  8
layer 1
 62
     7
370
     9
100
AcDbSpline
210
0.0
220
0.0
230
1.0
 70
    11
 71
     3
 72
    28
 73
    24
 74
     0
 42
0.0000000001
 43
0.0000000001
 12
1.0
 22
0.0
 32
0.0
 13
1.0
 23
0.0
 33
0.0
 40
0.0
 40
0.0
 40
0.0
 40
0.0
 40
0.1428571428571428
 40
0.1428571428571428
 40
0.1428571428571428
 40
0.1428571428571428
 40
0.2857142857142857
 40
0.2857142857142857
 40
0.2857142857142857
 40
0.2857142857142857
 40
0.4285714285714285
 40
0.4285714285714285
 40
0.4285714285714285
 40
0.4285714285714285
 40
0.5714285714285714
 40
0.5714285714285714
 40
0.5714285714285714
 40
0.5714285714285714
 40
0.7142857142857143
 40
0.7142857142857143
 40
0.7142857142857143
 40
0.7142857142857143
 40
1.0
 40
1.0
 40
1.0
 40
1.0
 10
-140.3592
 20
17.9729
 30
0.0
 10
-140.2051
 20
17.8178
 30
0.0
 10
-139.9574
 20
17.8079
 30
0.0
 10
-139.7915
 20
17.95
 30
0.0
 10
-139.7915
 20
17.95
 30
0.0
 10
-138.8495
 20
20.8889
 30
0.0
 10
-138.6008
 20
24.0058
 30
0.0
 10
-139.0648
 20
27.0567
 30
0.0
 10
-139.0648
 20
27.0567
 30
0.0
 10
-139.3949
 20
29.5271
 30
0.0
 10
-140.0596
 20
31.9414
 30
0.0
 10
-141.0405
 20
34.2329
 30
0.0
 10
-141.0405
 20
34.2329
 30
0.0
 10
-141.2753
 20
32.1491
 30
0.0
 10
-142.5801
 20
30.3388
 30
0.0
 10
-144.4826
 20
29.4572
 30
0.0
 10
-144.4826
 20
29.4572
 30
0.0
 10
-146.385
 20
28.5756
 30
0.0
 10
-148.6098
 20
28.7502
 30
0.0
 10
-150.3513
 20
29.918
 30
0.0
 10
-150.3513
 20
29.918
 30
0.0
 10
-146.5153
 20
26.3877
 30
0.0
 10
-143.1563
 20
22.3721
 30
0.0
 10
-140.3592
 20
17.9729
 30
0.0
  0
SPLINE
  5
5F
330
1F
100
AcDbEntity
  8
layer 1
 62
     7
370
     9
100
AcDbSpline
210
0.0
220
0.0
230
1.0
 70
    11
 71
     3
 72
    72
 73
    68
 74
     0
 42
0.0000000001
 43
0.0000000001
 12
1.0
 22
0.0
 32
0.0
 13
1.0
 23
0.0
 33
0.0
 40
0.0
 40
0.0
 40
0.0
 40
0.0
 40
0.0555555555555556
 40
0.0555555555555556
 40
0.0555555555555556
 40
0.0555555555555556
 40
0.1111111111111111
 40
0.1111111111111111
 40
0.1111111111111111
 40
0.1111111111111111
 40
0.1666666666666667
 40
0.1666666666666667
 40
0.1666666666666667
 40
0.1666666666666667
 40
0.2222222222222222
 40
0.2222222222222222
 40
0.2222222222222222
 40
0.2222222222222222
 40
0.2777777777777778
 40
0.2777777777777778
 40
0.2777777777777778
 40
0.2777777777777778
 40
0.3333333333333333
 40
0.3333333333333333
 40
0.3333333333333333
 40
0.3333333333333333
 40
0.3888888888888889
 40
0.3888888888888889
 40
0.3888888888888889
 40
0.3888888888888889
 40
0.4444444444444444
 40
0.4444444444444444
 40
0.4444444444444444
 40
0.4444444444444444
 40
0.5
 40
0.5
 40
0.5
 40
0.5
 40
0.5555555555555556
 40
0.5555555555555556
 40
0.5555555555555556
 40
0.5555555555555556
 40
0.6111111111111112
 40
0.6111111111111112
 40
0.6111111111111112
 40
0.6111111111111112
 40
0.6666666666666666
 40
0.6666666666666666
 40
0.6666666666666666
 40
0.6666666666666666
 40
0.7222222222222222
 40
0.7222222222222222
 40
0.7222222222222222
 40
0.7222222222222222
 40
0.7777777777777778
 40
0.7777777777777778
 40
0.7777777777777778
 40
0.7777777777777778
 40
0.8333333333333334
 40
0.8333333333333334
 40
0.8333333333333334
 40
0.8333333333333334
 40
0.8888888888888888
 40
0.8888888888888888
 40
0.8888888888888888
 40
0.8888888888888888
 40
1.0
 40
1.0
 40
1.0
 40
1.0
 10
-156.2331
 20
29.0097
 30
0.0
 10
-157.8729
 20
29.3259
 30
0.0
 10
-159.5544
 20
28.7225
 30
0.0
 10
-160.6189
 20
27.4356
 30
0.0
 10
-160.6189
 20
27.4356
 30
0.0
 10
-161.6832
 20
26.1488
 30
0.0
 10
-161.9608
 20
24.3839
 30
0.0
 10
-161.3427
 20
22.8326
 30
0.0
 10
-161.3427
 20
22.8326
 30
0.0
 10
-161.4481
 20
23.9194
 30
0.0
 10
-161.0382
 20
24.993
 30
0.0
 10
-160.2356
 20
25.7332
 30
0.0
 10
-160.2356
 20
25.7332
 30
0.0
 10
-159.4329
 20
26.4735
 30
0.0
 10
-158.3298
 20
26.7952
 30
0.0
 10
-157.2551
 20
26.6024
 30
0.0
 10
-157.2551
 20
26.6024
 30
0.0
 10
-155.9295
 20
26.364
 30
0.0
 10
-154.8581
 20
25.3865
 30
0.0
 10
-154.4995
 20
24.0881
 30
0.0
 10
-154.4995
 20
24.0881
 30
0.0
 10
-154.141
 20
22.7899
 30
0.0
 10
-154.5589
 20
21.4011
 30
0.0
 10
-155.5745
 20
20.5163
 30
0.0
 10
-155.5745
 20
20.5163
 30
0.0
 10
-154.4244
 20
21.2278
 30
0.0
 10
-153.0083
 20
21.3631
 30
0.0
 10
-151.7444
 20
20.8823
 30
0.0
 10
-151.7444
 20
20.8823
 30
0.0
 10
-150.48
 20
20.4016
 30
0.0
 10
-149.5119
 20
19.3597
 30
0.0
 10
-149.125
 20
18.0636
 30
0.0
 10
-149.125
 20
18.0636
 30
0.0
 10
-149.1099
 20
17.9714
 30
0.0
 10
-149.1368
 20
17.8773
 30
0.0
 10
-149.1983
 20
17.807
 30
0.0
 10
-149.1983
 20
17.807
 30
0.0
 10
-149.2598
 20
17.7366
 30
0.0
 10
-149.3496
 20
17.6974
 30
0.0
 10
-149.443
 20
17.7003
 30
0.0
 10
-149.443
 20
17.7003
 30
0.0
 10
-150.2097
 20
18.1356
 30
0.0
 10
-151.1491
 20
18.1336
 30
0.0
 10
-151.9139
 20
17.6951
 30
0.0
 10
-151.9139
 20
17.6951
 30
0.0
 10
-152.6787
 20
17.2568
 30
0.0
 10
-153.1554
 20
16.4471
 30
0.0
 10
-153.1673
 20
15.5656
 30
0.0
 10
-153.1673
 20
15.5656
 30
0.0
 10
-153.2389
 20
14.0442
 30
0.0
 10
-152.3218
 20
12.6502
 30
0.0
 10
-150.8963
 20
12.1138
 30
0.0
 10
-150.8963
 20
12.1138
 30
0.0
 10
-148.0822
 20
10.9496
 30
0.0
 10
-144.8411
 20
11.6558
 30
0.0
 10
-142.7665
 20
13.8851
 30
0.0
 10
-142.7665
 20
13.8851
 30
0.0
 10
-142.3902
 20
14.161
 30
0.0
 10
-142.3088
 20
14.6897
 30
0.0
 10
-142.5848
 20
15.066
 30
0.0
 10
-142.5848
 20
15.066
 30
0.0
 10
-144.0628
 20
19.1525
 30
0.0
 10
-146.4732
 20
22.8381
 30
0.0
 10
-149.6247
 20
25.8304
 30
0.0
 10
-149.6247
 20
25.8304
 30
0.0
 10
-151.5072
 20
27.4563
 30
0.0
 10
-153.7877
 20
28.5534
 30
0.0
 10
-156.2331
 20
29.0097
 30
0.0
  0
SPLINE
  5
60
330
1F
100
AcDbEntity
  8
layer 1
 62
     7
370
     9
100
AcDbSpline
210
0.0
220
0.0
230
1.0
 70
    11
 71
     3
 72
    20
 73
    16
 74
     0
 42
0.0000000001
 43
0.0000000001
 12
1.0
 22
0.0
 32
0.0
 13
1.0
 23
0.0
 33
0.0
 40
0.0
 40
0.0
 40
0.0
 40
0.0
 40
0.2
 40
0.2
 40
0.2
 40
0.2
 40
0.4
 40
0.4
 40
0.4
 40
0.4
 40
0.6
 40
0.6
 40
0.6
 40
0.6
 40
1.0
 40
1.0
 40
1.0
 40
1.0
 10
-173.6967
 20
15.611
 30
0.0
 10
-168.8954
 20
14.516
 30
0.0
 10
-163.8548
 20
15.5241
 30
0.0
 10
-159.844
 20
18.3816
 30
0.0
 10
-159.844
 20
18.3816
 30
0.0
 10
-163.2337
 20
14.0805
 30
0.0
 10
-168.5004
 20
11.6928
 30
0.0
 10
-173.9691
 20
11.9775
 30
0.0
 10
-173.9691
 20
11.9775
 30
0.0
 10
-174.7267
 20
12.301
 30
0.0
 10
-175.1946
 20
13.0705
 30
0.0
 10
-175.1329
 20
13.8918
 30
0.0
 10
-175.1329
 20
13.8918
 30
0.0
 10
-175.0714
 20
14.7131
 30
0.0
 10
-174.494
 20
15.4043
 30
0.0
 10
-173.6967
 20
15.611
 30
0.0
  0
SPLINE
  5
61
330
1F
100
AcDbEntity
  8
layer 1
 62
     7
370
     9
100
AcDbSpline
210
0.0
220
0.0
230
1.0
 70
    11
 71
     3
 72
    36
 73
    32
 74
     0
 42
0.0000000001
 43
0.0000000001
 12
1.0
 22
0.0
 32
0.0
 13
1.0
 23
0.0
 33
0.0
 40
0.0
 40
0.0
 40
0.0
 40
0.0
 40
0.1111111111111111
 40
0.1111111111111111
 40
0.1111111111111111
 40
0.1111111111111111
 40
0.2222222222222222
 40
0.2222222222222222
 40
0.2222222222222222
 40
0.2222222222222222
 40
0.3333333333333333
 40
0.3333333333333333
 40
0.3333333333333333
 40
0.3333333333333333
 40
0.4444444444444444
 40
0.4444444444444444
 40
0.4444444444444444
 40
0.4444444444444444
 40
0.5555555555555556
 40
0.5555555555555556
 40
0.5555555555555556
 40
0.5555555555555556
 40
0.6666666666666666
 40
0.6666666666666666
 40
0.6666666666666666
 40
0.6666666666666666
 40
0.7777777777777778
 40
0.7777777777777778
 40
0.7777777777777778
 40
0.7777777777777778
 40
1.0
 40
1.0
 40
1.0
 40
1.0
 10
-163.1394
 20
8.5258
 30
0.0
 10
-163.131
 20
8.5105
 30
0.0
 10
-163.1226
 20
8.4953
 30
0.0
 10
-163.114
 20
8.4802
 30
0.0
 10
-163.114
 20
8.4802
 30
0.0
 10
-161.9188
 20
5.8182
 30
0.0
 10
-159.3087
 20
4.0723
 30
0.0
 10
-156.3921
 20
3.9837
 30
0.0
 10
-156.3921
 20
3.9837
 30
0.0
 10
-157.5882
 20
2.2448
 30
0.0
 10
-157.7109
 20
-0.017
 30
0.0
 10
-156.7101
 20
-1.8753
 30
0.0
 10
-156.7101
 20
-1.8753
 30
0.0
 10
-160.2769
 20
2.5606
 30
0.0
 10
-164.8141
 20
6.1188
 30
0.0
 10
-169.9724
 20
8.5258
 30
0.0
 10
-169.9724
 20
8.5258
 30
0.0
 10
-164.8141
 20
10.9323
 30
0.0
 10
-160.2769
 20
14.4908
 30
0.0
 10
-156.7101
 20
18.9266
 30
0.0
 10
-156.7101
 20
18.9266
 30
0.0
 10
-157.7109
 20
17.0684
 30
0.0
 10
-157.5882
 20
14.8065
 30
0.0
 10
-156.3921
 20
13.0675
 30
0.0
 10
-156.3921
 20
13.0675
 30
0.0
 10
-159.3087
 20
12.9791
 30
0.0
 10
-161.9188
 20
11.2331
 30
0.0
 10
-163.114
 20
8.5711
 30
0.0
 10
-163.114
 20
8.5711
 30
0.0
 10
-163.1226
 20
8.556
 30
0.0
 10
-163.131
 20
8.5409
 30
0.0
 10
-163.1394
 20
8.5258
 30
0.0
  0
SPLINE
  5
62
330
1F
100
AcDbEntity
  8
layer 1
 62
     7
370
     9
100
AcDbSpline
210
0.0
220
0.0
230
1.0
 70
    11
 71
     3
 72
    24
 73
    20
 74
     0
 42
0.0000000001
 43
0.0000000001
 12
1.0
 22
0.0
 32
0.0
 13
1.0
 23
0.0
 33
0.0
 40
0.0
 40
0.0
 40
0.0
 40
0.0
 40
0.1666666666666667
 40
0.1666666666666667
 40
0.1666666666666667
 40
0.1666666666666667
 40
0.3333333333333333
 40
0.3333333333333333
 40
0.3333333333333333
 40
0.3333333333333333
 40
0.5
 40
0.5
 40
0.5
 40
0.5
 40
0.6666666666666666
 40
0.6666666666666666
 40
0.6666666666666666
 40
0.6666666666666666
 40
1.0
 40
1.0
 40
1.0
 40
1.0
 10
-164.8064
 20
-108.2918
 30
0.0
 10
-164.8064
 20
-108.2918
 30
0.0
 10
-175.242
 20
-108.2918
 30
0.0
 10
-175.242
 20
-108.2918
 30
0.0
 10
-175.242
 20
-108.2918
 30
0.0
 10
-175.2583
 20
-108.2623
 30
0.0
 10
-175.2731
 20
-108.232
 30
0.0
 10
-175.2864
 20
-108.2009
 30
0.0
 10
-175.2864
 20
-108.2009
 30
0.0
 10
-175.7398
 20
-106.9024
 30
0.0
 10
-175.5905
 20
-105.4693
 30
0.0
 10
-174.879
 20
-104.2922
 30
0.0
 10
-174.879
 20
-104.2922
 30
0.0
 10
-174.1674
 20
-103.1151
 30
0.0
 10
-172.968
 20
-102.3168
 30
0.0
 10
-171.6074
 20
-102.1149
 30
0.0
 10
-171.6074
 20
-102.1149
 30
0.0
 10
-170.7729
 20
-105.3446
 30
0.0
 10
-168.1013
 20
-107.771
 30
0.0
 10
-164.8064
 20
-108.2918
 30
0.0
  0
SPLINE
  5
63
330
1F
100
AcDbEntity
  8
layer 1
 62
     7
370
     9
100
AcDbSpline
210
0.0
220
0.0
230
1.0
 70
    11
 71
     3
 72
    20
 73
    16
 74
     0
 42
0.0000000001
 43
0.0000000001
 12
1.0
 22
0.0
 32
0.0
 13
1.0
 23
0.0
 33
0.0
 40
0.0
 40
0.0
 40
0.0
 40
0.0
 40
0.2
 40
0.2
 40
0.2
 40
0.2
 40
0.4
 40
0.4
 40
0.4
 40
0.4
 40
0.6
 40
0.6
 40
0.6
 40
0.6
 40
1.0
 40
1.0
 40
1.0
 40
1.0
 10
-142.5784
 20
-108.2918
 30
0.0
 10
-142.5784
 20
-108.2918
 30
0.0
 10
-161.5699
 20
-108.2918
 30
0.0
 10
-161.5699
 20
-108.2918
 30
0.0
 10
-161.5699
 20
-108.2918
 30
0.0
 10
-156.7728
 20
-107.6377
 30
0.0
 10
-152.9055
 20
-104.0371
 30
0.0
 10
-151.9107
 20
-99.2988
 30
0.0
 10
-151.9107
 20
-99.2988
 30
0.0
 10
-150.4466
 20
-99.625
 30
0.0
 10
-148.9237
 20
-99.0979
 30
0.0
 10
-147.9745
 20
-97.9363
 30
0.0
 10
-147.9745
 20
-97.9363
 30
0.0
 10
-149.1287
 20
-102.2647
 30
0.0
 10
-146.7872
 20
-106.7581
 30
0.0
 10
-142.5784
 20
-108.2918
 30
0.0
  0
SPLINE
  5
64
330
1F
100
AcDbEntity
  8
layer 1
 62
     7
370
     9
100
AcDbSpline
210
0.0
220
0.0
230
1.0
 70
    11
 71
     3
 72
    16
 73
    12
 74
     0
 42
0.0000000001
 43
0.0000000001
 12
1.0
 22
0.0
 32
0.0
 13
1.0
 23
0.0
 33
0.0
 40
0.0
 40
0.0
 40
0.0
 40
0.0
 40
0.25
 40
0.25
 40
0.25
 40
0.25
 40
0.5
 40
0.5
 40
0.5
 40
0.5
 40
1.0
 40
1.0
 40
1.0
 40
1.0
 10
-180.0099
 20
-79.9272
 30
0.0
 10
-180.0099
 20
-79.9272
 30
0.0
 10
-180.0099
 20
-93.5761
 30
0.0
 10
-180.0099
 20
-93.5761
 30
0.0
 10
-180.0099
 20
-93.5761
 30
0.0
 10
-178.7534
 20
-89.9449
 30
0.0
 10
-176.2105
 20
-86.8999
 30
0.0
 10
-172.8615
 20
-85.0161
 30
0.0
 10
-172.8615
 20
-85.0161
 30
0.0
 10
-176.1809
 20
-85.3433
 30
0.0
 10
-179.2327
 20
-83.1709
 30
0.0
 10
-180.0099
 20
-79.9272
 30
0.0
  0
SPLINE
  5
65
330
1F
100
AcDbEntity
  8
layer 1
 62
     7
370
     9
100
AcDbSpline
210
0.0
220
0.0
230
1.0
 70
    11
 71
     3
 72
    28
 73
    24
 74
     0
 42
0.0000000001
 43
0.0000000001
 12
1.0
 22
0.0
 32
0.0
 13
1.0
 23
0.0
 33
0.0
 40
0.0
 40
0.0
 40
0.0
 40
0.0
 40
0.1428571428571428
 40
0.1428571428571428
 40
0.1428571428571428
 40
0.1428571428571428
 40
0.2857142857142857
 40
0.2857142857142857
 40
0.2857142857142857
 40
0.2857142857142857
 40
0.4285714285714285
 40
0.4285714285714285
 40
0.4285714285714285
 40
0.4285714285714285
 40
0.5714285714285714
 40
0.5714285714285714
 40
0.5714285714285714
 40
0.5714285714285714
 40
0.7142857142857143
 40
0.7142857142857143
 40
0.7142857142857143
 40
0.7142857142857143
 40
1.0
 40
1.0
 40
1.0
 40
1.0
 10
-180.0099
 20
-47.5111
 30
0.0
 10
-180.0099
 20
-47.5111
 30
0.0
 10
-180.0099
 20
-76.8148
 30
0.0
 10
-180.0099
 20
-76.8148
 30
0.0
 10
-180.0099
 20
-76.8148
 30
0.0
 10
-179.5266
 20
-74.7981
 30
0.0
 10
-178.1336
 20
-73.1204
 30
0.0
 10
-176.2401
 20
-72.2746
 30
0.0
 10
-176.2401
 20
-72.2746
 30
0.0
 10
-174.2974
 20
-71.4686
 30
0.0
 10
-172.12
 20
-71.4362
 30
0.0
 10
-170.1539
 20
-72.1837
 30
0.0
 10
-170.1539
 20
-72.1837
 30
0.0
 10
-175.5324
 20
-66.3198
 30
0.0
 10
-176.8908
 20
-57.8115
 30
0.0
 10
-173.6058
 20
-50.5644
 30
0.0
 10
-173.6058
 20
-50.5644
 30
0.0
 10
-174.8395
 20
-51.2319
 30
0.0
 10
-176.3181
 20
-51.2699
 30
0.0
 10
-177.5842
 20
-50.6662
 30
0.0
 10
-177.5842
 20
-50.6662
 30
0.0
 10
-178.8505
 20
-50.0624
 30
0.0
 10
-179.752
 20
-48.8899
 30
0.0
 10
-180.0099
 20
-47.5111
 30
0.0
  0
SPLINE
  5
66
330
1F
100
AcDbEntity
  8
layer 1
 62
     7
370
     9
100
AcDbSpline
210
0.0
220
0.0
230
1.0
 70
    11
 71
     3
 72
    20
 73
    16
 74
     0
 42
0.0000000001
 43
0.0000000001
 12
1.0
 22
0.0
 32
0.0
 13
1.0
 23
0.0
 33
0.0
 40
0.0
 40
0.0
 40
0.0
 40
0.0
 40
0.2
 40
0.2
 40
0.2
 40
0.2
 40
0.4
 40
0.4
 40
0.4
 40
0.4
 40
0.6
 40
0.6
 40
0.6
 40
0.6
 40
1.0
 40
1.0
 40
1.0
 40
1.0
 10
-180.0099
 20
-37.3459
 30
0.0
 10
-180.0099
 20
-37.3459
 30
0.0
 10
-180.0099
 20
-45.8963
 30
0.0
 10
-180.0099
 20
-45.8963
 30
0.0
 10
-180.0099
 20
-45.8963
 30
0.0
 10
-179.7664
 20
-44.5952
 30
0.0
 10
-178.9487
 20
-43.4733
 30
0.0
 10
-177.7843
 20
-42.8432
 30
0.0
 10
-177.7843
 20
-42.8432
 30
0.0
 10
-177.176
 20
-42.4468
 30
0.0
 10
-176.4979
 20
-42.1693
 30
0.0
 10
-175.786
 20
-42.0256
 30
0.0
 10
-175.786
 20
-42.0256
 30
0.0
 10
-177.8971
 20
-41.2841
 30
0.0
 10
-179.4878
 20
-39.5219
 30
0.0
 10
-180.0099
 20
-37.3459
 30
0.0
  0
SPLINE
  5
67
330
1F
100
AcDbEntity
  8
layer 1
 62
     7
370
     9
100
AcDbSpline
210
0.0
220
0.0
230
1.0
 70
    11
 71
     3
 72
    84
 73
    80
 74
     0
 42
0.0000000001
 43
0.0000000001
 12
1.0
 22
0.0
 32
0.0
 13
1.0
 23
0.0
 33
0.0
 40
0.0
 40
0.0
 40
0.0
 40
0.0
 40
0.0476190476190476
 40
0.0476190476190476
 40
0.0476190476190476
 40
0.0476190476190476
 40
0.0952380952380952
 40
0.0952380952380952
 40
0.0952380952380952
 40
0.0952380952380952
 40
0.1428571428571428
 40
0.1428571428571428
 40
0.1428571428571428
 40
0.1428571428571428
 40
0.1904761904761905
 40
0.1904761904761905
 40
0.1904761904761905
 40
0.1904761904761905
 40
0.2380952380952381
 40
0.2380952380952381
 40
0.2380952380952381
 40
0.2380952380952381
 40
0.2857142857142857
 40
0.2857142857142857
 40
0.2857142857142857
 40
0.2857142857142857
 40
0.3333333333333333
 40
0.3333333333333333
 40
0.3333333333333333
 40
0.3333333333333333
 40
0.3809523809523809
 40
0.3809523809523809
 40
0.3809523809523809
 40
0.3809523809523809
 40
0.4285714285714285
 40
0.4285714285714285
 40
0.4285714285714285
 40
0.4285714285714285
 40
0.4761904761904762
 40
0.4761904761904762
 40
0.4761904761904762
 40
0.4761904761904762
 40
0.5238095238095238
 40
0.5238095238095238
 40
0.5238095238095238
 40
0.5238095238095238
 40
0.5714285714285714
 40
0.5714285714285714
 40
0.5714285714285714
 40
0.5714285714285714
 40
0.6190476190476191
 40
0.6190476190476191
 40
0.6190476190476191
 40
0.6190476190476191
 40
0.6666666666666666
 40
0.6666666666666666
 40
0.6666666666666666
 40
0.6666666666666666
 40
0.7142857142857143
 40
0.7142857142857143
 40
0.7142857142857143
 40
0.7142857142857143
 40
0.7619047619047619
 40
0.7619047619047619
 40
0.7619047619047619
 40
0.7619047619047619
 40
0.8095238095238095
 40
0.8095238095238095
 40
0.8095238095238095
 40
0.8095238095238095
 40
0.8571428571428571
 40
0.8571428571428571
 40
0.8571428571428571
 40
0.8571428571428571
 40
0.9047619047619048
 40
0.9047619047619048
 40
0.9047619047619048
 40
0.9047619047619048
 40
1.0
 40
1.0
 40
1.0
 40
1.0
 10
-180.0099
 20
-13.1424
 30
0.0
 10
-180.0099
 20
-13.1424
 30
0.0
 10
-180.0099
 20
-34.271
 30
0.0
 10
-180.0099
 20
-34.271
 30
0.0
 10
-180.0099
 20
-34.271
 30
0.0
 10
-179.5693
 20
-32.4348
 30
0.0
 10
-178.362
 20
-30.8757
 30
0.0
 10
-176.6943
 20
-29.9896
 30
0.0
 10
-176.6943
 20
-29.9896
 30
0.0
 10
-175.2751
 20
-29.2995
 30
0.0
 10
-173.7818
 20
-28.7738
 30
0.0
 10
-172.2434
 20
-28.4226
 30
0.0
 10
-172.2434
 20
-28.4226
 30
0.0
 10
-171.2204
 20
-28.3021
 30
0.0
 10
-170.3017
 20
-27.7393
 30
0.0
 10
-169.7294
 20
-26.8831
 30
0.0
 10
-169.7294
 20
-26.8831
 30
0.0
 10
-169.157
 20
-26.0268
 30
0.0
 10
-168.9886
 20
-24.9628
 30
0.0
 10
-169.2684
 20
-23.9716
 30
0.0
 10
-169.2684
 20
-23.9716
 30
0.0
 10
-169.6264
 20
-23.2616
 30
0.0
 10
-170.2899
 20
-22.7546
 30
0.0
 10
-171.0688
 20
-22.5952
 30
0.0
 10
-171.0688
 20
-22.5952
 30
0.0
 10
-171.8479
 20
-22.4358
 30
0.0
 10
-172.6571
 20
-22.6416
 30
0.0
 10
-173.2651
 20
-23.154
 30
0.0
 10
-173.2651
 20
-23.154
 30
0.0
 10
-173.3028
 20
-23.2041
 30
0.0
 10
-173.3616
 20
-23.2335
 30
0.0
 10
-173.4241
 20
-23.2335
 30
0.0
 10
-173.4241
 20
-23.2335
 30
0.0
 10
-173.4866
 20
-23.2335
 30
0.0
 10
-173.5456
 20
-23.2041
 30
0.0
 10
-173.5831
 20
-23.154
 30
0.0
 10
-173.5831
 20
-23.154
 30
0.0
 10
-174.4084
 20
-21.8965
 30
0.0
 10
-174.2081
 20
-20.2272
 30
0.0
 10
-173.1087
 20
-19.2007
 30
0.0
 10
-173.1087
 20
-19.2007
 30
0.0
 10
-172.0093
 20
-18.174
 30
0.0
 10
-170.3302
 20
-18.0887
 30
0.0
 10
-169.1321
 20
-18.9982
 30
0.0
 10
-169.1321
 20
-18.9982
 30
0.0
 10
-168.0887
 20
-19.8887
 30
0.0
 10
-167.2652
 20
-21.0085
 30
0.0
 10
-166.7264
 20
-22.2701
 30
0.0
 10
-166.7264
 20
-22.2701
 30
0.0
 10
-167.4909
 20
-18.4256
 30
0.0
 10
-167.4363
 20
-14.463
 30
0.0
 10
-166.5659
 20
-10.6411
 30
0.0
 10
-166.5659
 20
-10.6411
 30
0.0
 10
-168.4961
 20
-13.0416
 30
0.0
 10
-171.9965
 20
-13.4463
 30
0.0
 10
-174.4234
 20
-11.5496
 30
0.0
 10
-174.4234
 20
-11.5496
 30
0.0
 10
-175.1447
 20
-11.0167
 30
0.0
 10
-176.1458
 20
-11.0849
 30
0.0
 10
-176.7883
 20
-11.7104
 30
0.0
 10
-176.7883
 20
-11.7104
 30
0.0
 10
-177.4308
 20
-12.3361
 30
0.0
 10
-177.5257
 20
-13.335
 30
0.0
 10
-177.0123
 20
-14.0703
 30
0.0
 10
-177.0123
 20
-14.0703
 30
0.0
 10
-176.9063
 20
-14.1771
 30
0.0
 10
-176.9063
 20
-14.3494
 30
0.0
 10
-177.0123
 20
-14.4563
 30
0.0
 10
-177.0123
 20
-14.4563
 30
0.0
 10
-177.5698
 20
-14.7109
 30
0.0
 10
-178.2084
 20
-14.7206
 30
0.0
 10
-178.7734
 20
-14.4835
 30
0.0
 10
-178.7734
 20
-14.4835
 30
0.0
 10
-179.3384
 20
-14.2462
 30
0.0
 10
-179.7785
 20
-13.7834
 30
0.0
 10
-179.9873
 20
-13.2073
 30
0.0
 10
-179.9873
 20
-13.2073
 30
0.0
 10
-179.9953
 20
-13.186
 30
0.0
 10
-180.003
 20
-13.1643
 30
0.0
 10
-180.0099
 20
-13.1424
 30
0.0
  0
SPLINE
  5
68
330
1F
100
AcDbEntity
  8
layer 1
 62
     7
370
     9
100
AcDbSpline
210
0.0
220
0.0
230
1.0
 70
    11
 71
     3
 72
    36
 73
    32
 74
     0
 42
0.0000000001
 43
0.0000000001
 12
1.0
 22
0.0
 32
0.0
 13
1.0
 23
0.0
 33
0.0
 40
0.0
 40
0.0
 40
0.0
 40
0.0
 40
0.1111111111111111
 40
0.1111111111111111
 40
0.1111111111111111
 40
0.1111111111111111
 40
0.2222222222222222
 40
0.2222222222222222
 40
0.2222222222222222
 40
0.2222222222222222
 40
0.3333333333333333
 40
0.3333333333333333
 40
0.3333333333333333
 40
0.3333333333333333
 40
0.4444444444444444
 40
0.4444444444444444
 40
0.4444444444444444
 40
0.4444444444444444
 40
0.5555555555555556
 40
0.5555555555555556
 40
0.5555555555555556
 40
0.5555555555555556
 40
0.6666666666666666
 40
0.6666666666666666
 40
0.6666666666666666
 40
0.6666666666666666
 40
0.7777777777777778
 40
0.7777777777777778
 40
0.7777777777777778
 40
0.7777777777777778
 40
1.0
 40
1.0
 40
1.0
 40
1.0
 10
-180.0099
 20
4.438
 30
0.0
 10
-180.0099
 20
4.438
 30
0.0
 10
-180.0099
 20
-9.8966
 30
0.0
 10
-180.0099
 20
-9.8966
 30
0.0
 10
-180.0099
 20
-9.8966
 30
0.0
 10
-179.9953
 20
-9.8569
 30
0.0
 10
-179.9802
 20
-9.8174
 30
0.0
 10
-179.9646
 20
-9.7781
 30
0.0
 10
-179.9646
 20
-9.7781
 30
0.0
 10
-179.6521
 20
-8.9993
 30
0.0
 10
-179.0189
 20
-8.393
 30
0.0
 10
-178.2274
 20
-8.1147
 30
0.0
 10
-178.2274
 20
-8.1147
 30
0.0
 10
-177.4356
 20
-7.8364
 30
0.0
 10
-176.5624
 20
-7.9128
 30
0.0
 10
-175.8314
 20
-8.3247
 30
0.0
 10
-175.8314
 20
-8.3247
 30
0.0
 10
-176.9899
 20
-7.0148
 30
0.0
 10
-177.5709
 20
-5.2927
 30
0.0
 10
-177.4427
 20
-3.5486
 30
0.0
 10
-177.4427
 20
-3.5486
 30
0.0
 10
-177.3145
 20
-1.8043
 30
0.0
 10
-176.488
 20
-0.1858
 30
0.0
 10
-175.1501
 20
0.9407
 30
0.0
 10
-175.1501
 20
0.9407
 30
0.0
 10
-176.2613
 20
0.7379
 30
0.0
 10
-177.4069
 20
0.9962
 30
0.0
 10
-178.3237
 20
1.6558
 30
0.0
 10
-178.3237
 20
1.6558
 30
0.0
 10
-179.2404
 20
2.3156
 30
0.0
 10
-179.8493
 20
3.3201
 30
0.0
 10
-180.0099
 20
4.438
 30
0.0
  0
SPLINE
  5
69
330
1F
100
AcDbEntity
  8
layer 1
 62
     7
370
     9
100
AcDbSpline
210
0.0
220
0.0
230
1.0
 70
    11
 71
     3
 72
    44
 73
    40
 74
     0
 42
0.0000000001
 43
0.0000000001
 12
1.0
 22
0.0
 32
0.0
 13
1.0
 23
0.0
 33
0.0
 40
0.0
 40
0.0
 40
0.0
 40
0.0
 40
0.0909090909090909
 40
0.0909090909090909
 40
0.0909090909090909
 40
0.0909090909090909
 40
0.1818181818181818
 40
0.1818181818181818
 40
0.1818181818181818
 40
0.1818181818181818
 40
0.2727272727272727
 40
0.2727272727272727
 40
0.2727272727272727
 40
0.2727272727272727
 40
0.3636363636363636
 40
0.3636363636363636
 40
0.3636363636363636
 40
0.3636363636363636
 40
0.4545454545454545
 40
0.4545454545454545
 40
0.4545454545454545
 40
0.4545454545454545
 40
0.5454545454545454
 40
0.5454545454545454
 40
0.5454545454545454
 40
0.5454545454545454
 40
0.6363636363636364
 40
0.6363636363636364
 40
0.6363636363636364
 40
0.6363636363636364
 40
0.7272727272727273
 40
0.7272727272727273
 40
0.7272727272727273
 40
0.7272727272727273
 40
0.8181818181818182
 40
0.8181818181818182
 40
0.8181818181818182
 40
0.8181818181818182
 40
1.0
 40
1.0
 40
1.0
 40
1.0
 10
-168.3628
 20
-5.6819
 30
0.0
 10
-168.3542
 20
-5.6305
 30
0.0
 10
-168.3246
 20
-5.5848
 30
0.0
 10
-168.2808
 20
-5.5562
 30
0.0
 10
-168.2808
 20
-5.5562
 30
0.0
 10
-168.2372
 20
-5.5276
 30
0.0
 10
-168.1835
 20
-5.5187
 30
0.0
 10
-168.1329
 20
-5.5315
 30
0.0
 10
-168.1329
 20
-5.5315
 30
0.0
 10
-166.7336
 20
-5.6165
 30
0.0
 10
-165.6354
 20
-6.7642
 30
0.0
 10
-165.6122
 20
-8.1657
 30
0.0
 10
-165.6122
 20
-8.1657
 30
0.0
 10
-165.3196
 20
-5.5454
 30
0.0
 10
-163.6853
 20
-3.2657
 30
0.0
 10
-161.2973
 20
-2.1478
 30
0.0
 10
-161.2973
 20
-2.1478
 30
0.0
 10
-164.3326
 20
-0.2231
 30
0.0
 10
-168.1211
 20
0.0826
 30
0.0
 10
-171.4258
 20
-1.3302
 30
0.0
 10
-171.4258
 20
-1.3302
 30
0.0
 10
-172.6039
 20
-1.8225
 30
0.0
 10
-173.453
 20
-2.8772
 30
0.0
 10
-173.6821
 20
-4.1333
 30
0.0
 10
-173.6821
 20
-4.1333
 30
0.0
 10
-173.9113
 20
-5.3893
 30
0.0
 10
-173.4895
 20
-6.6761
 30
0.0
 10
-172.5612
 20
-7.5527
 30
0.0
 10
-172.5612
 20
-7.5527
 30
0.0
 10
-171.84
 20
-8.1607
 30
0.0
 10
-170.8418
 20
-8.3207
 30
0.0
 10
-169.9667
 20
-7.9688
 30
0.0
 10
-169.9667
 20
-7.9688
 30
0.0
 10
-169.0913
 20
-7.6167
 30
0.0
 10
-168.4821
 20
-6.8102
 30
0.0
 10
-168.3826
 20
-5.8721
 30
0.0
 10
-168.3826
 20
-5.8721
 30
0.0
 10
-168.3735
 20
-5.8089
 30
0.0
 10
-168.367
 20
-5.7456
 30
0.0
 10
-168.3628
 20
-5.6819
 30
0.0
  0
SPLINE
  5
6A
330
1F
100
AcDbEntity
  8
layer 1
 62
     7
370
     9
100
AcDbSpline
210
0.0
220
0.0
230
1.0
 70
    11
 71
     3
 72
    28
 73
    24
 74
     0
 42
0.0000000001
 43
0.0000000001
 12
1.0
 22
0.0
 32
0.0
 13
1.0
 23
0.0
 33
0.0
 40
0.0
 40
0.0
 40
0.0
 40
0.0
 40
0.1428571428571428
 40
0.1428571428571428
 40
0.1428571428571428
 40
0.1428571428571428
 40
0.2857142857142857
 40
0.2857142857142857
 40
0.2857142857142857
 40
0.2857142857142857
 40
0.4285714285714285
 40
0.4285714285714285
 40
0.4285714285714285
 40
0.4285714285714285
 40
0.5714285714285714
 40
0.5714285714285714
 40
0.5714285714285714
 40
0.5714285714285714
 40
0.7142857142857143
 40
0.7142857142857143
 40
0.7142857142857143
 40
0.7142857142857143
 40
1.0
 40
1.0
 40
1.0
 40
1.0
 10
-161.161
 20
-25.493
 30
0.0
 10
-161.4499
 20
-27.4743
 30
0.0
 10
-161.9838
 20
-29.4118
 30
0.0
 10
-162.7507
 20
-31.2613
 30
0.0
 10
-162.7507
 20
-31.2613
 30
0.0
 10
-162.0965
 20
-26.3483
 30
0.0
 10
-162.3738
 20
-21.3558
 30
0.0
 10
-163.5683
 20
-16.5456
 30
0.0
 10
-163.5683
 20
-16.5456
 30
0.0
 10
-164.2973
 20
-14.2674
 30
0.0
 10
-164.3916
 20
-11.8334
 30
0.0
 10
-163.8407
 20
-9.5057
 30
0.0
 10
-163.8407
 20
-9.5057
 30
0.0
 10
-163.6859
 20
-11.3022
 30
0.0
 10
-162.6996
 20
-12.923
 30
0.0
 10
-161.175
 20
-13.8859
 30
0.0
 10
-161.175
 20
-13.8859
 30
0.0
 10
-159.6502
 20
-14.8489
 30
0.0
 10
-157.763
 20
-15.0432
 30
0.0
 10
-156.0741
 20
-14.4109
 30
0.0
 10
-156.0741
 20
-14.4109
 30
0.0
 10
-158.8805
 20
-17.4863
 30
0.0
 10
-160.6587
 20
-21.36
 30
0.0
 10
-161.161
 20
-25.493
 30
0.0
  0
SPLINE
  5
6B
330
1F
100
AcDbEntity
  8
layer 1
 62
     7
370
     9
100
AcDbSpline
210
0.0
220
0.0
230
1.0
 70
    11
 71
     3
 72
    48
 73
    44
 74
     0
 42
0.0000000001
 43
0.0000000001
 12
1.0
 22
0.0
 32
0.0
 13
1.0
 23
0.0
 33
0.0
 40
0.0
 40
0.0
 40
0.0
 40
0.0
 40
0.0833333333333333
 40
0.0833333333333333
 40
0.0833333333333333
 40
0.0833333333333333
 40
0.1666666666666667
 40
0.1666666666666667
 40
0.1666666666666667
 40
0.1666666666666667
 40
0.25
 40
0.25
 40
0.25
 40
0.25
 40
0.3333333333333333
 40
0.3333333333333333
 40
0.3333333333333333
 40
0.3333333333333333
 40
0.4166666666666667
 40
0.4166666666666667
 40
0.4166666666666667
 40
0.4166666666666667
 40
0.5
 40
0.5
 40
0.5
 40
0.5
 40
0.5833333333333334
 40
0.5833333333333334
 40
0.5833333333333334
 40
0.5833333333333334
 40
0.6666666666666666
 40
0.6666666666666666
 40
0.6666666666666666
 40
0.6666666666666666
 40
0.75
 40
0.75
 40
0.75
 40
0.75
 40
0.8333333333333334
 40
0.8333333333333334
 40
0.8333333333333334
 40
0.8333333333333334
 40
1.0
 40
1.0
 40
1.0
 40
1.0
 10
-167.7469
 20
-66.143
 30
0.0
 10
-166.1008
 20
-69.6956
 30
0.0
 10
-162.4852
 20
-71.9151
 30
0.0
 10
-158.5721
 20
-71.775
 30
0.0
 10
-158.5721
 20
-71.775
 30
0.0
 10
-158.4745
 20
-71.7763
 30
0.0
 10
-158.3841
 20
-71.7239
 30
0.0
 10
-158.3365
 20
-71.6383
 30
0.0
 10
-158.3365
 20
-71.6383
 30
0.0
 10
-158.2891
 20
-71.553
 30
0.0
 10
-158.2923
 20
-71.4484
 30
0.0
 10
-158.3451
 20
-71.3662
 30
0.0
 10
-158.3451
 20
-71.3662
 30
0.0
 10
-160.9668
 20
-67.6253
 30
0.0
 10
-162.4638
 20
-63.2128
 30
0.0
 10
-162.66
 20
-58.6489
 30
0.0
 10
-162.66
 20
-58.6489
 30
0.0
 10
-162.7121
 20
-52.496
 30
0.0
 10
-160.8293
 20
-46.4825
 30
0.0
 10
-157.2778
 20
-41.4579
 30
0.0
 10
-157.2778
 20
-41.4579
 30
0.0
 10
-155.2088
 20
-38.4477
 30
0.0
 10
-152.8135
 20
-35.6756
 30
0.0
 10
-150.1355
 20
-33.1915
 30
0.0
 10
-150.1355
 20
-33.1915
 30
0.0
 10
-150.0801
 20
-33.1107
 30
0.0
 10
-150.086
 20
-33.0025
 30
0.0
 10
-150.1498
 20
-32.928
 30
0.0
 10
-150.1498
 20
-32.928
 30
0.0
 10
-150.2137
 20
-32.8536
 30
0.0
 10
-150.3197
 20
-32.8312
 30
0.0
 10
-150.4081
 20
-32.8738
 30
0.0
 10
-150.4081
 20
-32.8738
 30
0.0
 10
-150.4081
 20
-32.8738
 30
0.0
 10
-151.1689
 20
-33.3051
 30
0.0
 10
-151.1689
 20
-33.3051
 30
0.0
 10
-151.1689
 20
-33.3051
 30
0.0
 10
-158.0567
 20
-37.7682
 30
0.0
 10
-163.5868
 20
-44.0369
 30
0.0
 10
-167.1563
 20
-51.4273
 30
0.0
 10
-167.1563
 20
-51.4273
 30
0.0
 10
-169.2115
 20
-56.0803
 30
0.0
 10
-169.4225
 20
-61.3403
 30
0.0
 10
-167.7469
 20
-66.143
 30
0.0
  0
SPLINE
  5
6C
330
1F
100
AcDbEntity
  8
layer 1
 62
     7
370
     9
100
AcDbSpline
210
0.0
220
0.0
230
1.0
 70
    11
 71
     3
 72
    36
 73
    32
 74
     0
 42
0.0000000001
 43
0.0000000001
 12
1.0
 22
0.0
 32
0.0
 13
1.0
 23
0.0
 33
0.0
 40
0.0
 40
0.0
 40
0.0
 40
0.0
 40
0.1111111111111111
 40
0.1111111111111111
 40
0.1111111111111111
 40
0.1111111111111111
 40
0.2222222222222222
 40
0.2222222222222222
 40
0.2222222222222222
 40
0.2222222222222222
 40
0.3333333333333333
 40
0.3333333333333333
 40
0.3333333333333333
 40
0.3333333333333333
 40
0.4444444444444444
 40
0.4444444444444444
 40
0.4444444444444444
 40
0.4444444444444444
 40
0.5555555555555556
 40
0.5555555555555556
 40
0.5555555555555556
 40
0.5555555555555556
 40
0.6666666666666666
 40
0.6666666666666666
 40
0.6666666666666666
 40
0.6666666666666666
 40
0.7777777777777778
 40
0.7777777777777778
 40
0.7777777777777778
 40
0.7777777777777778
 40
1.0
 40
1.0
 40
1.0
 40
1.0
 10
-172.9927
 20
-47.0444
 30
0.0
 10
-173.0127
 20
-46.9661
 30
0.0
 10
-173.0788
 20
-46.9082
 30
0.0
 10
-173.159
 20
-46.8981
 30
0.0
 10
-173.159
 20
-46.8981
 30
0.0
 10
-173.2391
 20
-46.888
 30
0.0
 10
-173.3173
 20
-46.9281
 30
0.0
 10
-173.3561
 20
-46.9989
 30
0.0
 10
-173.3561
 20
-46.9989
 30
0.0
 10
-173.8007
 20
-47.6864
 30
0.0
 10
-174.6052
 20
-48.0521
 30
0.0
 10
-175.4156
 20
-47.935
 30
0.0
 10
-175.4156
 20
-47.935
 30
0.0
 10
-176.2261
 20
-47.8179
 30
0.0
 10
-176.894
 20
-47.2392
 30
0.0
 10
-177.1259
 20
-46.4539
 30
0.0
 10
-177.1259
 20
-46.4539
 30
0.0
 10
-177.1755
 20
-44.7352
 30
0.0
 10
-175.991
 20
-43.226
 30
0.0
 10
-174.3098
 20
-42.8659
 30
0.0
 10
-174.3098
 20
-42.8659
 30
0.0
 10
-172.3701
 20
-42.7723
 30
0.0
 10
-170.441
 20
-42.5217
 30
0.0
 10
-168.5416
 20
-42.1164
 30
0.0
 10
-168.5416
 20
-42.1164
 30
0.0
 10
-170.3658
 20
-44.067
 30
0.0
 10
-171.7997
 20
-46.3487
 30
0.0
 10
-172.7655
 20
-48.8384
 30
0.0
 10
-172.7655
 20
-48.8384
 30
0.0
 10
-172.6166
 20
-48.2329
 30
0.0
 10
-172.6975
 20
-47.5937
 30
0.0
 10
-172.9927
 20
-47.0444
 30
0.0
  0
SPLINE
  5
6D
330
1F
100
AcDbEntity
  8
layer 1
 62
     7
370
     9
100
AcDbSpline
210
0.0
220
0.0
230
1.0
 70
    11
 71
     3
 72
    52
 73
    48
 74
     0
 42
0.0000000001
 43
0.0000000001
 12
1.0
 22
0.0
 32
0.0
 13
1.0
 23
0.0
 33
0.0
 40
0.0
 40
0.0
 40
0.0
 40
0.0
 40
0.0769230769230769
 40
0.0769230769230769
 40
0.0769230769230769
 40
0.0769230769230769
 40
0.1538461538461539
 40
0.1538461538461539
 40
0.1538461538461539
 40
0.1538461538461539
 40
0.2307692307692308
 40
0.2307692307692308
 40
0.2307692307692308
 40
0.2307692307692308
 40
0.3076923076923077
 40
0.3076923076923077
 40
0.3076923076923077
 40
0.3076923076923077
 40
0.3846153846153846
 40
0.3846153846153846
 40
0.3846153846153846
 40
0.3846153846153846
 40
0.4615384615384616
 40
0.4615384615384616
 40
0.4615384615384616
 40
0.4615384615384616
 40
0.5384615384615384
 40
0.5384615384615384
 40
0.5384615384615384
 40
0.5384615384615384
 40
0.6153846153846154
 40
0.6153846153846154
 40
0.6153846153846154
 40
0.6153846153846154
 40
0.6923076923076923
 40
0.6923076923076923
 40
0.6923076923076923
 40
0.6923076923076923
 40
0.7692307692307693
 40
0.7692307692307693
 40
0.7692307692307693
 40
0.7692307692307693
 40
0.8461538461538461
 40
0.8461538461538461
 40
0.8461538461538461
 40
0.8461538461538461
 40
1.0
 40
1.0
 40
1.0
 40
1.0
 10
-166.4296
 20
-24.4031
 30
0.0
 10
-166.6755
 20
-27.2104
 30
0.0
 10
-168.626
 20
-29.5762
 30
0.0
 10
-171.3349
 20
-30.3529
 30
0.0
 10
-171.3349
 20
-30.3529
 30
0.0
 10
-169.5489
 20
-30.6989
 30
0.0
 10
-168.3784
 20
-32.423
 30
0.0
 10
-168.716
 20
-34.2107
 30
0.0
 10
-168.716
 20
-34.2107
 30
0.0
 10
-169.0535
 20
-35.9981
 30
0.0
 10
-170.7722
 20
-37.1769
 30
0.0
 10
-172.5612
 20
-36.8478
 30
0.0
 10
-172.5612
 20
-36.8478
 30
0.0
 10
-172.6277
 20
-36.8675
 30
0.0
 10
-172.6996
 20
-36.8481
 30
0.0
 10
-172.7475
 20
-36.7979
 30
0.0
 10
-172.7475
 20
-36.7979
 30
0.0
 10
-172.7953
 20
-36.7476
 30
0.0
 10
-172.8111
 20
-36.6749
 30
0.0
 10
-172.7882
 20
-36.6095
 30
0.0
 10
-172.7882
 20
-36.6095
 30
0.0
 10
-172.1578
 20
-35.9625
 30
0.0
 10
-172.0274
 20
-34.978
 30
0.0
 10
-172.4677
 20
-34.1891
 30
0.0
 10
-172.4677
 20
-34.1891
 30
0.0
 10
-172.908
 20
-33.4005
 30
0.0
 10
-173.8144
 20
-32.9946
 30
0.0
 10
-174.696
 20
-33.1915
 30
0.0
 10
-174.696
 20
-33.1915
 30
0.0
 10
-175.5895
 20
-33.3735
 30
0.0
 10
-176.3661
 20
-33.9218
 30
0.0
 10
-176.8365
 20
-34.7031
 30
0.0
 10
-176.8365
 20
-34.7031
 30
0.0
 10
-177.3069
 20
-35.4844
 30
0.0
 10
-177.4284
 20
-36.427
 30
0.0
 10
-177.1713
 20
-37.3021
 30
0.0
 10
-177.1713
 20
-37.3021
 30
0.0
 10
-176.4797
 20
-39.6118
 30
0.0
 10
-174.1967
 20
-41.063
 30
0.0
 10
-171.8118
 20
-40.7084
 30
0.0
 10
-171.8118
 20
-40.7084
 30
0.0
 10
-168.4481
 20
-40.0358
 30
0.0
 10
-165.9591
 20
-37.1831
 30
0.0
 10
-165.7483
 20
-33.7594
 30
0.0
 10
-165.7483
 20
-33.7594
 30
0.0
 10
-165.5211
 20
-30.624
 30
0.0
 10
-165.7507
 20
-27.4723
 30
0.0
 10
-166.4296
 20
-24.4031
 30
0.0
  0
SPLINE
  5
6E
330
1F
100
AcDbEntity
  8
layer 1
 62
     7
370
     9
100
AcDbSpline
210
0.0
220
0.0
230
1.0
 70
    11
 71
     3
 72
    96
 73
    92
 74
     0
 42
0.0000000001
 43
0.0000000001
 12
1.0
 22
0.0
 32
0.0
 13
1.0
 23
0.0
 33
0.0
 40
0.0
 40
0.0
 40
0.0
 40
0.0
 40
0.0416666666666667
 40
0.0416666666666667
 40
0.0416666666666667
 40
0.0416666666666667
 40
0.0833333333333333
 40
0.0833333333333333
 40
0.0833333333333333
 40
0.0833333333333333
 40
0.125
 40
0.125
 40
0.125
 40
0.125
 40
0.1666666666666667
 40
0.1666666666666667
 40
0.1666666666666667
 40
0.1666666666666667
 40
0.2083333333333333
 40
0.2083333333333333
 40
0.2083333333333333
 40
0.2083333333333333
 40
0.25
 40
0.25
 40
0.25
 40
0.25
 40
0.2916666666666667
 40
0.2916666666666667
 40
0.2916666666666667
 40
0.2916666666666667
 40
0.3333333333333333
 40
0.3333333333333333
 40
0.3333333333333333
 40
0.3333333333333333
 40
0.375
 40
0.375
 40
0.375
 40
0.375
 40
0.4166666666666667
 40
0.4166666666666667
 40
0.4166666666666667
 40
0.4166666666666667
 40
0.4583333333333333
 40
0.4583333333333333
 40
0.4583333333333333
 40
0.4583333333333333
 40
0.5
 40
0.5
 40
0.5
 40
0.5
 40
0.5416666666666666
 40
0.5416666666666666
 40
0.5416666666666666
 40
0.5416666666666666
 40
0.5833333333333334
 40
0.5833333333333334
 40
0.5833333333333334
 40
0.5833333333333334
 40
0.625
 40
0.625
 40
0.625
 40
0.625
 40
0.6666666666666666
 40
0.6666666666666666
 40
0.6666666666666666
 40
0.6666666666666666
 40
0.7083333333333334
 40
0.7083333333333334
 40
0.7083333333333334
 40
0.7083333333333334
 40
0.75
 40
0.75
 40
0.75
 40
0.75
 40
0.7916666666666666
 40
0.7916666666666666
 40
0.7916666666666666
 40
0.7916666666666666
 40
0.8333333333333334
 40
0.8333333333333334
 40
0.8333333333333334
 40
0.8333333333333334
 40
0.875
 40
0.875
 40
0.875
 40
0.875
 40
0.9166666666666666
 40
0.9166666666666666
 40
0.9166666666666666
 40
0.9166666666666666
 40
1.0
 40
1.0
 40
1.0
 40
1.0
 10
-148.6027
 20
-91.4868
 30
0.0
 10
-150.0182
 20
-92.6568
 30
0.0
 10
-151.0798
 20
-94.1982
 30
0.0
 10
-151.6685
 20
-95.9378
 30
0.0
 10
-151.6685
 20
-95.9378
 30
0.0
 10
-151.4535
 20
-92.0582
 30
0.0
 10
-153.1079
 20
-88.31
 30
0.0
 10
-156.1195
 20
-85.8549
 30
0.0
 10
-156.1195
 20
-85.8549
 30
0.0
 10
-160.3258
 20
-82.8995
 30
0.0
 10
-165.7115
 20
-82.1877
 30
0.0
 10
-170.5411
 20
-83.949
 30
0.0
 10
-170.5411
 20
-83.949
 30
0.0
 10
-169.6639
 20
-83.0669
 30
0.0
 10
-169.3641
 20
-81.7629
 30
0.0
 10
-169.7679
 20
-80.5862
 30
0.0
 10
-169.7679
 20
-80.5862
 30
0.0
 10
-169.8067
 20
-80.4808
 30
0.0
 10
-169.9028
 20
-80.4073
 30
0.0
 10
-170.0148
 20
-80.3978
 30
0.0
 10
-170.0148
 20
-80.3978
 30
0.0
 10
-170.1265
 20
-80.388
 30
0.0
 10
-170.2339
 20
-80.4438
 30
0.0
 10
-170.2902
 20
-80.5408
 30
0.0
 10
-170.2902
 20
-80.5408
 30
0.0
 10
-170.864
 20
-81.1342
 30
0.0
 10
-171.6703
 20
-81.4439
 30
0.0
 10
-172.4936
 20
-81.387
 30
0.0
 10
-172.4936
 20
-81.387
 30
0.0
 10
-173.3171
 20
-81.33
 30
0.0
 10
-174.0732
 20
-80.9122
 30
0.0
 10
-174.5597
 20
-80.2455
 30
0.0
 10
-174.5597
 20
-80.2455
 30
0.0
 10
-174.9309
 20
-79.1992
 30
0.0
 10
-174.7096
 20
-78.0337
 30
0.0
 10
-173.9804
 20
-77.1963
 30
0.0
 10
-173.9804
 20
-77.1963
 30
0.0
 10
-173.2512
 20
-76.359
 30
0.0
 10
-172.1272
 20
-75.9794
 30
0.0
 10
-171.0398
 20
-76.2033
 30
0.0
 10
-171.0398
 20
-76.2033
 30
0.0
 10
-169.4172
 20
-76.6119
 30
0.0
 10
-167.8796
 20
-77.3038
 30
0.0
 10
-166.4978
 20
-78.2471
 30
0.0
 10
-166.4978
 20
-78.2471
 30
0.0
 10
-163.1828
 20
-80.403
 30
0.0
 10
-158.8803
 20
-80.2855
 30
0.0
 10
-155.6881
 20
-77.9519
 30
0.0
 10
-155.6881
 20
-77.9519
 30
0.0
 10
-155.6029
 20
-77.8766
 30
0.0
 10
-155.5118
 20
-77.8084
 30
0.0
 10
-155.4155
 20
-77.7475
 30
0.0
 10
-155.4155
 20
-77.7475
 30
0.0
 10
-155.7011
 20
-78.9945
 30
0.0
 10
-155.3683
 20
-80.3025
 30
0.0
 10
-154.522
 20
-81.2616
 30
0.0
 10
-154.522
 20
-81.2616
 30
0.0
 10
-153.6755
 20
-82.2205
 30
0.0
 10
-152.4189
 20
-82.7131
 30
0.0
 10
-151.1462
 20
-82.5847
 30
0.0
 10
-151.1462
 20
-82.5847
 30
0.0
 10
-151.7596
 20
-83.3015
 30
0.0
 10
-152.062
 20
-84.2332
 30
0.0
 10
-151.9865
 20
-85.1736
 30
0.0
 10
-151.9865
 20
-85.1736
 30
0.0
 10
-151.9285
 20
-85.2943
 30
0.0
 10
-151.802
 20
-85.3667
 30
0.0
 10
-151.6685
 20
-85.3553
 30
0.0
 10
-151.6685
 20
-85.3553
 30
0.0
 10
-149.7149
 20
-85.6401
 30
0.0
 10
-147.7239
 20
-85.2129
 30
0.0
 10
-146.0592
 20
-84.1517
 30
0.0
 10
-146.0592
 20
-84.1517
 30
0.0
 10
-147.5878
 20
-85.3495
 30
0.0
 10
-148.8814
 20
-86.8202
 30
0.0
 10
-149.8744
 20
-88.4892
 30
0.0
 10
-149.8744
 20
-88.4892
 30
0.0
 10
-150.3569
 20
-89.2673
 30
0.0
 10
-150.7096
 20
-90.1187
 30
0.0
 10
-150.919
 20
-91.0099
 30
0.0
 10
-150.919
 20
-91.0099
 30
0.0
 10
-150.975
 20
-91.1203
 30
0.0
 10
-150.9732
 20
-91.251
 30
0.0
 10
-150.9143
 20
-91.3598
 30
0.0
 10
-150.9143
 20
-91.3598
 30
0.0
 10
-150.8553
 20
-91.4685
 30
0.0
 10
-150.7468
 20
-91.5414
 30
0.0
 10
-150.6239
 20
-91.5549
 30
0.0
 10
-150.6239
 20
-91.5549
 30
0.0
 10
-149.9545
 20
-91.6959
 30
0.0
 10
-149.261
 20
-91.6725
 30
0.0
 10
-148.6027
 20
-91.4868
 30
0.0
  0
SPLINE
  5
6F
330
1F
100
AcDbEntity
  8
layer 1
 62
     7
370
     9
100
AcDbSpline
210
0.0
220
0.0
230
1.0
 70
    11
 71
     3
 72
    28
 73
    24
 74
     0
 42
0.0000000001
 43
0.0000000001
 12
1.0
 22
0.0
 32
0.0
 13
1.0
 23
0.0
 33
0.0
 40
0.0
 40
0.0
 40
0.0
 40
0.0
 40
0.1428571428571428
 40
0.1428571428571428
 40
0.1428571428571428
 40
0.1428571428571428
 40
0.2857142857142857
 40
0.2857142857142857
 40
0.2857142857142857
 40
0.2857142857142857
 40
0.4285714285714285
 40
0.4285714285714285
 40
0.4285714285714285
 40
0.4285714285714285
 40
0.5714285714285714
 40
0.5714285714285714
 40
0.5714285714285714
 40
0.5714285714285714
 40
0.7142857142857143
 40
0.7142857142857143
 40
0.7142857142857143
 40
0.7142857142857143
 40
1.0
 40
1.0
 40
1.0
 40
1.0
 10
-168.0188
 20
-90.8937
 30
0.0
 10
-174.7138
 20
-92.036
 30
0.0
 10
-179.7066
 20
-97.6916
 30
0.0
 10
-180.0099
 20
-104.4767
 30
0.0
 10
-180.0099
 20
-104.4767
 30
0.0
 10
-178.2158
 20
-101.8809
 30
0.0
 10
-175.2141
 20
-100.3887
 30
0.0
 10
-172.0615
 20
-100.5251
 30
0.0
 10
-172.0615
 20
-100.5251
 30
0.0
 10
-172.8529
 20
-96.8223
 30
0.0
 10
-171.1964
 20
-93.0271
 30
0.0
 10
-167.9435
 20
-91.0892
 30
0.0
 10
-167.9435
 20
-91.0892
 30
0.0
 10
-167.944
 20
-91.0865
 30
0.0
 10
-167.9448
 20
-91.0838
 30
0.0
 10
-167.9455
 20
-91.0809
 30
0.0
 10
-167.9455
 20
-91.0809
 30
0.0
 10
-167.9554
 20
-91.0488
 30
0.0
 10
-167.9658
 20
-91.0169
 30
0.0
 10
-167.9781
 20
-90.9856
 30
0.0
 10
-167.9781
 20
-90.9856
 30
0.0
 10
-167.9902
 20
-90.9544
 30
0.0
 10
-168.0043
 20
-90.9238
 30
0.0
 10
-168.0188
 20
-90.8937
 30
0.0
  0
SPLINE
  5
70
330
1F
100
AcDbEntity
  8
layer 1
 62
     7
370
     9
100
AcDbSpline
210
0.0
220
0.0
230
1.0
 70
    11
 71
     3
 72
    24
 73
    20
 74
     0
 42
0.0000000001
 43
0.0000000001
 12
1.0
 22
0.0
 32
0.0
 13
1.0
 23
0.0
 33
0.0
 40
0.0
 40
0.0
 40
0.0
 40
0.0
 40
0.1666666666666667
 40
0.1666666666666667
 40
0.1666666666666667
 40
0.1666666666666667
 40
0.3333333333333333
 40
0.3333333333333333
 40
0.3333333333333333
 40
0.3333333333333333
 40
0.5
 40
0.5
 40
0.5
 40
0.5
 40
0.6666666666666666
 40
0.6666666666666666
 40
0.6666666666666666
 40
0.6666666666666666
 40
1.0
 40
1.0
 40
1.0
 40
1.0
 10
-166.7476
 20
-85.6732
 30
0.0
 10
-163.68
 20
-85.3332
 30
0.0
 10
-160.6754
 20
-86.7137
 30
0.0
 10
-158.935
 20
-89.2624
 30
0.0
 10
-158.935
 20
-89.2624
 30
0.0
 10
-157.1946
 20
-91.8112
 30
0.0
 10
-157.0027
 20
-95.1121
 30
0.0
 10
-158.436
 20
-97.8454
 30
0.0
 10
-158.436
 20
-97.8454
 30
0.0
 10
-158.3463
 20
-95.9267
 30
0.0
 10
-159.0408
 20
-94.0539
 30
0.0
 10
-160.3601
 20
-92.6575
 30
0.0
 10
-160.3601
 20
-92.6575
 30
0.0
 10
-161.6793
 20
-91.2613
 30
0.0
 10
-163.5096
 20
-90.4615
 30
0.0
 10
-165.4304
 20
-90.4422
 30
0.0
 10
-165.4304
 20
-90.4422
 30
0.0
 10
-165.021
 20
-88.7319
 30
0.0
 10
-165.5183
 20
-86.931
 30
0.0
 10
-166.7476
 20
-85.6732
 30
0.0
  0
SPLINE
  5
71
330
1F
100
AcDbEntity
  8
layer 1
 62
     7
370
     9
100
AcDbSpline
210
0.0
220
0.0
230
1.0
 70
    11
 71
     3
 72
    48
 73
    44
 74
     0
 42
0.0000000001
 43
0.0000000001
 12
1.0
 22
0.0
 32
0.0
 13
1.0
 23
0.0
 33
0.0
 40
0.0
 40
0.0
 40
0.0
 40
0.0
 40
0.0833333333333333
 40
0.0833333333333333
 40
0.0833333333333333
 40
0.0833333333333333
 40
0.1666666666666667
 40
0.1666666666666667
 40
0.1666666666666667
 40
0.1666666666666667
 40
0.25
 40
0.25
 40
0.25
 40
0.25
 40
0.3333333333333333
 40
0.3333333333333333
 40
0.3333333333333333
 40
0.3333333333333333
 40
0.4166666666666667
 40
0.4166666666666667
 40
0.4166666666666667
 40
0.4166666666666667
 40
0.5
 40
0.5
 40
0.5
 40
0.5
 40
0.5833333333333334
 40
0.5833333333333334
 40
0.5833333333333334
 40
0.5833333333333334
 40
0.6666666666666666
 40
0.6666666666666666
 40
0.6666666666666666
 40
0.6666666666666666
 40
0.75
 40
0.75
 40
0.75
 40
0.75
 40
0.8333333333333334
 40
0.8333333333333334
 40
0.8333333333333334
 40
0.8333333333333334
 40
1.0
 40
1.0
 40
1.0
 40
1.0
 10
-164.295
 20
-98.7084
 30
0.0
 10
-164.3891
 20
-98.7815
 30
0.0
 10
-164.4403
 20
-98.897
 30
0.0
 10
-164.4311
 20
-99.0159
 30
0.0
 10
-164.4311
 20
-99.0159
 30
0.0
 10
-164.422
 20
-99.1347
 30
0.0
 10
-164.3538
 20
-99.241
 30
0.0
 10
-164.2496
 20
-99.2988
 30
0.0
 10
-164.2496
 20
-99.2988
 30
0.0
 10
-163.0776
 20
-100.1244
 30
0.0
 10
-161.5543
 20
-100.2628
 30
0.0
 10
-160.2527
 20
-99.6622
 30
0.0
 10
-160.2527
 20
-99.6622
 30
0.0
 10
-160.3344
 20
-100.4378
 30
0.0
 10
-160.0936
 20
-101.2128
 30
0.0
 10
-159.5869
 20
-101.8055
 30
0.0
 10
-159.5869
 20
-101.8055
 30
0.0
 10
-159.08
 20
-102.3982
 30
0.0
 10
-158.3518
 20
-102.7564
 30
0.0
 10
-157.5729
 20
-102.7962
 30
0.0
 10
-157.5729
 20
-102.7962
 30
0.0
 10
-160.1467
 20
-105.3063
 30
0.0
 10
-164.1284
 20
-105.6666
 30
0.0
 10
-167.1109
 20
-103.6591
 30
0.0
 10
-167.1109
 20
-103.6591
 30
0.0
 10
-169.4671
 20
-101.8399
 30
0.0
 10
-170.1085
 20
-98.5552
 30
0.0
 10
-168.6098
 20
-95.9833
 30
0.0
 10
-168.6098
 20
-95.9833
 30
0.0
 10
-168.1327
 20
-95.2281
 30
0.0
 10
-167.3655
 20
-94.7029
 30
0.0
 10
-166.4891
 20
-94.531
 30
0.0
 10
-166.4891
 20
-94.531
 30
0.0
 10
-165.6125
 20
-94.3592
 30
0.0
 10
-164.704
 20
-94.5558
 30
0.0
 10
-163.977
 20
-95.0748
 30
0.0
 10
-163.977
 20
-95.0748
 30
0.0
 10
-163.4228
 20
-95.543
 30
0.0
 10
-163.1307
 20
-96.2514
 30
0.0
 10
-163.194
 20
-96.9742
 30
0.0
 10
-163.194
 20
-96.9742
 30
0.0
 10
-163.2572
 20
-97.6968
 30
0.0
 10
-163.668
 20
-98.3436
 30
0.0
 10
-164.295
 20
-98.7084
 30
0.0
  0
SPLINE
  5
72
330
1F
100
AcDbEntity
  8
layer 1
 62
     7
370
     9
100
AcDbSpline
210
0.0
220
0.0
230
1.0
 70
    11
 71
     3
 72
    16
 73
    12
 74
     0
 42
0.0000000001
 43
0.0000000001
 12
1.0
 22
0.0
 32
0.0
 13
1.0
 23
0.0
 33
0.0
 40
0.0
 40
0.0
 40
0.0
 40
0.0
 40
0.25
 40
0.25
 40
0.25
 40
0.25
 40
0.5
 40
0.5
 40
0.5
 40
0.5
 40
1.0
 40
1.0
 40
1.0
 40
1.0
 10
-135.8627
 20
-104.9709
 30
0.0
 10
-135.6918
 20
-106.5124
 30
0.0
 10
-134.6349
 20
-107.8112
 30
0.0
 10
-133.1603
 20
-108.2918
 30
0.0
 10
-133.1603
 20
-108.2918
 30
0.0
 10
-133.1603
 20
-108.2918
 30
0.0
 10
-138.5652
 20
-108.2918
 30
0.0
 10
-138.5652
 20
-108.2918
 30
0.0
 10
-138.5652
 20
-108.2918
 30
0.0
 10
-137.0907
 20
-107.8112
 30
0.0
 10
-136.0338
 20
-106.5124
 30
0.0
 10
-135.8627
 20
-104.9709
 30
0.0
  0
SPLINE
  5
73
330
1F
100
AcDbEntity
  8
layer 1
 62
     7
370
     9
100
AcDbSpline
210
0.0
220
0.0
230
1.0
 70
    11
 71
     3
 72
   100
 73
    96
 74
     0
 42
0.0000000001
 43
0.0000000001
 12
1.0
 22
0.0
 32
0.0
 13
1.0
 23
0.0
 33
0.0
 40
0.0
 40
0.0
 40
0.0
 40
0.0
 40
0.04
 40
0.04
 40
0.04
 40
0.04
 40
0.08
 40
0.08
 40
0.08
 40
0.08
 40
0.12
 40
0.12
 40
0.12
 40
0.12
 40
0.16
 40
0.16
 40
0.16
 40
0.16
 40
0.2
 40
0.2
 40
0.2
 40
0.2
 40
0.24
 40
0.24
 40
0.24
 40
0.24
 40
0.28
 40
0.28
 40
0.28
 40
0.28
 40
0.32
 40
0.32
 40
0.32
 40
0.32
 40
0.36
 40
0.36
 40
0.36
 40
0.36
 40
0.4
 40
0.4
 40
0.4
 40
0.4
 40
0.44
 40
0.44
 40
0.44
 40
0.44
 40
0.48
 40
0.48
 40
0.48
 40
0.48
 40
0.52
 40
0.52
 40
0.52
 40
0.52
 40
0.56
 40
0.56
 40
0.56
 40
0.56
 40
0.6
 40
0.6
 40
0.6
 40
0.6
 40
0.64
 40
0.64
 40
0.64
 40
0.64
 40
0.68
 40
0.68
 40
0.68
 40
0.68
 40
0.72
 40
0.72
 40
0.72
 40
0.72
 40
0.76
 40
0.76
 40
0.76
 40
0.76
 40
0.8
 40
0.8
 40
0.8
 40
0.8
 40
0.84
 40
0.84
 40
0.84
 40
0.84
 40
0.88
 40
0.88
 40
0.88
 40
0.88
 40
0.92
 40
0.92
 40
0.92
 40
0.92
 40
1.0
 40
1.0
 40
1.0
 40
1.0
 10
-135.8627
 20
-104.0998
 30
0.0
 10
-135.7302
 20
-102.9057
 30
0.0
 10
-135.0617
 20
-101.8368
 30
0.0
 10
-134.046
 20
-101.1951
 30
0.0
 10
-134.046
 20
-101.1951
 30
0.0
 10
-134.0082
 20
-101.1523
 30
0.0
 10
-133.9468
 20
-101.1391
 30
0.0
 10
-133.8947
 20
-101.1625
 30
0.0
 10
-133.8947
 20
-101.1625
 30
0.0
 10
-133.8426
 20
-101.1859
 30
0.0
 10
-133.8119
 20
-101.2406
 30
0.0
 10
-133.8189
 20
-101.2973
 30
0.0
 10
-133.8189
 20
-101.2973
 30
0.0
 10
-133.5855
 20
-102.1943
 30
0.0
 10
-132.9222
 20
-102.917
 30
0.0
 10
-132.0485
 20
-103.2264
 30
0.0
 10
-132.0485
 20
-103.2264
 30
0.0
 10
-131.1749
 20
-103.5359
 30
0.0
 10
-130.2046
 20
-103.3916
 30
0.0
 10
-129.4587
 20
-102.8415
 30
0.0
 10
-129.4587
 20
-102.8415
 30
0.0
 10
-127.8827
 20
-101.196
 30
0.0
 10
-127.032
 20
-98.9875
 30
0.0
 10
-127.0969
 20
-96.71
 30
0.0
 10
-127.0969
 20
-96.71
 30
0.0
 10
-127.2165
 20
-92.9255
 30
0.0
 10
-128.4662
 20
-89.2636
 30
0.0
 10
-130.685
 20
-86.1955
 30
0.0
 10
-130.685
 20
-86.1955
 30
0.0
 10
-130.1968
 20
-87.6887
 30
0.0
 10
-130.0723
 20
-89.277
 30
0.0
 10
-130.3217
 20
-90.8282
 30
0.0
 10
-130.3217
 20
-90.8282
 30
0.0
 10
-130.3585
 20
-91.0366
 30
0.0
 10
-130.4939
 20
-91.2142
 30
0.0
 10
-130.685
 20
-91.3051
 30
0.0
 10
-130.685
 20
-91.3051
 30
0.0
 10
-131.494
 20
-91.4214
 30
0.0
 10
-132.3153
 20
-91.1998
 30
0.0
 10
-132.956
 20
-90.6919
 30
0.0
 10
-132.956
 20
-90.6919
 30
0.0
 10
-132.3073
 20
-93.2418
 30
0.0
 10
-133.3467
 20
-95.9225
 30
0.0
 10
-135.5449
 20
-97.3686
 30
0.0
 10
-135.5449
 20
-97.3686
 30
0.0
 10
-135.6348
 20
-97.4399
 30
0.0
 10
-135.7484
 20
-97.4743
 30
0.0
 10
-135.8627
 20
-97.4654
 30
0.0
 10
-135.8627
 20
-97.4654
 30
0.0
 10
-135.9771
 20
-97.4743
 30
0.0
 10
-136.0907
 20
-97.4399
 30
0.0
 10
-136.1806
 20
-97.3686
 30
0.0
 10
-136.1806
 20
-97.3686
 30
0.0
 10
-138.3788
 20
-95.9225
 30
0.0
 10
-139.4183
 20
-93.2418
 30
0.0
 10
-138.7695
 20
-90.6919
 30
0.0
 10
-138.7695
 20
-90.6919
 30
0.0
 10
-139.4102
 20
-91.1998
 30
0.0
 10
-140.2315
 20
-91.4214
 30
0.0
 10
-141.0405
 20
-91.3051
 30
0.0
 10
-141.0405
 20
-91.3051
 30
0.0
 10
-141.2316
 20
-91.2142
 30
0.0
 10
-141.3669
 20
-91.0366
 30
0.0
 10
-141.4038
 20
-90.8282
 30
0.0
 10
-141.4038
 20
-90.8282
 30
0.0
 10
-141.6532
 20
-89.277
 30
0.0
 10
-141.5285
 20
-87.6887
 30
0.0
 10
-141.0405
 20
-86.1955
 30
0.0
 10
-141.0405
 20
-86.1955
 30
0.0
 10
-143.2592
 20
-89.2636
 30
0.0
 10
-144.5088
 20
-92.9255
 30
0.0
 10
-144.6287
 20
-96.71
 30
0.0
 10
-144.6287
 20
-96.71
 30
0.0
 10
-144.6934
 20
-98.9875
 30
0.0
 10
-143.8427
 20
-101.196
 30
0.0
 10
-142.2668
 20
-102.8415
 30
0.0
 10
-142.2668
 20
-102.8415
 30
0.0
 10
-141.5208
 20
-103.3916
 30
0.0
 10
-140.5506
 20
-103.5359
 30
0.0
 10
-139.6769
 20
-103.2264
 30
0.0
 10
-139.6769
 20
-103.2264
 30
0.0
 10
-138.8032
 20
-102.917
 30
0.0
 10
-138.14
 20
-102.1943
 30
0.0
 10
-137.9066
 20
-101.2973
 30
0.0
 10
-137.9066
 20
-101.2973
 30
0.0
 10
-137.9136
 20
-101.2406
 30
0.0
 10
-137.8827
 20
-101.1859
 30
0.0
 10
-137.8308
 20
-101.1625
 30
0.0
 10
-137.8308
 20
-101.1625
 30
0.0
 10
-137.7785
 20
-101.1391
 30
0.0
 10
-137.7173
 20
-101.1523
 30
0.0
 10
-137.6795
 20
-101.1951
 30
0.0
 10
-137.6795
 20
-101.1951
 30
0.0
 10
-136.6638
 20
-101.8368
 30
0.0
 10
-135.9951
 20
-102.9057
 30
0.0
 10
-135.8627
 20
-104.0998
 30
0.0
  0
SPLINE
  5
74
330
1F
100
AcDbEntity
  8
layer 1
 62
     7
370
     9
100
AcDbSpline
210
0.0
220
0.0
230
1.0
 70
    11
 71
     3
 72
    28
 73
    24
 74
     0
 42
0.0000000001
 43
0.0000000001
 12
1.0
 22
0.0
 32
0.0
 13
1.0
 23
0.0
 33
0.0
 40
0.0
 40
0.0
 40
0.0
 40
0.0
 40
0.1428571428571428
 40
0.1428571428571428
 40
0.1428571428571428
 40
0.1428571428571428
 40
0.2857142857142857
 40
0.2857142857142857
 40
0.2857142857142857
 40
0.2857142857142857
 40
0.4285714285714285
 40
0.4285714285714285
 40
0.4285714285714285
 40
0.4285714285714285
 40
0.5714285714285714
 40
0.5714285714285714
 40
0.5714285714285714
 40
0.5714285714285714
 40
0.7142857142857143
 40
0.7142857142857143
 40
0.7142857142857143
 40
0.7142857142857143
 40
1.0
 40
1.0
 40
1.0
 40
1.0
 10
-149.7156
 20
-79.905
 30
0.0
 10
-144.814
 20
-79.4888
 30
0.0
 10
-140.5894
 20
-76.2893
 30
0.0
 10
-138.8603
 20
-71.6842
 30
0.0
 10
-138.8603
 20
-71.6842
 30
0.0
 10
-143.343
 20
-74.5013
 30
0.0
 10
-149.106
 20
-74.2296
 30
0.0
 10
-153.3036
 20
-71.0029
 30
0.0
 10
-153.3036
 20
-71.0029
 30
0.0
 10
-152.163
 20
-72.7504
 30
0.0
 10
-152.5147
 20
-75.0758
 30
0.0
 10
-154.1212
 20
-76.4078
 30
0.0
 10
-154.1212
 20
-76.4078
 30
0.0
 10
-153.5511
 20
-76.2182
 30
0.0
 10
-152.9465
 20
-76.1562
 30
0.0
 10
-152.3499
 20
-76.2261
 30
0.0
 10
-152.3499
 20
-76.2261
 30
0.0
 10
-152.7008
 20
-77.0765
 30
0.0
 10
-152.5885
 20
-78.048
 30
0.0
 10
-152.0527
 20
-78.796
 30
0.0
 10
-152.0527
 20
-78.796
 30
0.0
 10
-151.5171
 20
-79.544
 30
0.0
 10
-150.6336
 20
-79.9632
 30
0.0
 10
-149.7156
 20
-79.905
 30
0.0
  0
SPLINE
  5
75
330
1F
100
AcDbEntity
  8
layer 1
 62
     7
370
     9
100
AcDbSpline
210
0.0
220
0.0
230
1.0
 70
    11
 71
     3
 72
    36
 73
    32
 74
     0
 42
0.0000000001
 43
0.0000000001
 12
1.0
 22
0.0
 32
0.0
 13
1.0
 23
0.0
 33
0.0
 40
0.0
 40
0.0
 40
0.0
 40
0.0
 40
0.1111111111111111
 40
0.1111111111111111
 40
0.1111111111111111
 40
0.1111111111111111
 40
0.2222222222222222
 40
0.2222222222222222
 40
0.2222222222222222
 40
0.2222222222222222
 40
0.3333333333333333
 40
0.3333333333333333
 40
0.3333333333333333
 40
0.3333333333333333
 40
0.4444444444444444
 40
0.4444444444444444
 40
0.4444444444444444
 40
0.4444444444444444
 40
0.5555555555555556
 40
0.5555555555555556
 40
0.5555555555555556
 40
0.5555555555555556
 40
0.6666666666666666
 40
0.6666666666666666
 40
0.6666666666666666
 40
0.6666666666666666
 40
0.7777777777777778
 40
0.7777777777777778
 40
0.7777777777777778
 40
0.7777777777777778
 40
1.0
 40
1.0
 40
1.0
 40
1.0
 10
-139.4962
 20
-63.0999
 30
0.0
 10
-138.6208
 20
-65.0734
 30
0.0
 10
-139.2235
 20
-67.3899
 30
0.0
 10
-140.9498
 20
-68.6866
 30
0.0
 10
-140.9498
 20
-68.6866
 30
0.0
 10
-144.7071
 20
-70.484
 30
0.0
 10
-149.1469
 20
-70.0811
 30
0.0
 10
-152.5197
 20
-67.6369
 30
0.0
 10
-152.5197
 20
-67.6369
 30
0.0
 10
-155.8923
 20
-65.1925
 30
0.0
 10
-157.6572
 20
-61.0989
 30
0.0
 10
-157.1188
 20
-56.9684
 30
0.0
 10
-157.1188
 20
-56.9684
 30
0.0
 10
-156.5309
 20
-58.4209
 30
0.0
 10
-155.3192
 20
-59.5307
 30
0.0
 10
-153.8209
 20
-59.989
 30
0.0
 10
-153.8209
 20
-59.989
 30
0.0
 10
-152.3225
 20
-60.4473
 30
0.0
 10
-150.6973
 20
-60.2053
 30
0.0
 10
-149.3976
 20
-59.3302
 30
0.0
 10
-149.3976
 20
-59.3302
 30
0.0
 10
-150.3734
 20
-61.4751
 30
0.0
 10
-149.8956
 20
-64.002
 30
0.0
 10
-148.2039
 20
-65.6426
 30
0.0
 10
-148.2039
 20
-65.6426
 30
0.0
 10
-146.5124
 20
-67.2832
 30
0.0
 10
-143.9723
 20
-67.6835
 30
0.0
 10
-141.8581
 20
-66.6427
 30
0.0
 10
-141.8581
 20
-66.6427
 30
0.0
 10
-140.7456
 20
-65.7142
 30
0.0
 10
-139.9254
 20
-64.4838
 30
0.0
 10
-139.4962
 20
-63.0999
 30
0.0
  0
SPLINE
  5
76
330
1F
100
AcDbEntity
  8
layer 1
 62
     7
370
     9
100
AcDbSpline
210
0.0
220
0.0
230
1.0
 70
    11
 71
     3
 72
    20
 73
    16
 74
     0
 42
0.0000000001
 43
0.0000000001
 12
1.0
 22
0.0
 32
0.0
 13
1.0
 23
0.0
 33
0.0
 40
0.0
 40
0.0
 40
0.0
 40
0.0
 40
0.2
 40
0.2
 40
0.2
 40
0.2
 40
0.4
 40
0.4
 40
0.4
 40
0.4
 40
0.6
 40
0.6
 40
0.6
 40
0.6
 40
1.0
 40
1.0
 40
1.0
 40
1.0
 10
-143.4022
 20
-59.8293
 30
0.0
 10
-144.7819
 20
-59.8293
 30
0.0
 10
-145.9007
 20
-60.9479
 30
0.0
 10
-145.9007
 20
-62.3278
 30
0.0
 10
-145.9007
 20
-62.3278
 30
0.0
 10
-145.9007
 20
-63.7076
 30
0.0
 10
-144.7819
 20
-64.8262
 30
0.0
 10
-143.4022
 20
-64.8262
 30
0.0
 10
-143.4022
 20
-64.8262
 30
0.0
 10
-142.0224
 20
-64.8262
 30
0.0
 10
-140.9039
 20
-63.7076
 30
0.0
 10
-140.9039
 20
-62.3278
 30
0.0
 10
-140.9039
 20
-62.3278
 30
0.0
 10
-140.9039
 20
-60.9479
 30
0.0
 10
-142.0224
 20
-59.8293
 30
0.0
 10
-143.4022
 20
-59.8293
 30
0.0
  0
SPLINE
  5
77
330
1F
100
AcDbEntity
  8
layer 1
 62
     7
370
     9
100
AcDbSpline
210
0.0
220
0.0
230
1.0
 70
    11
 71
     3
 72
    36
 73
    32
 74
     0
 42
0.0000000001
 43
0.0000000001
 12
1.0
 22
0.0
 32
0.0
 13
1.0
 23
0.0
 33
0.0
 40
0.0
 40
0.0
 40
0.0
 40
0.0
 40
0.1111111111111111
 40
0.1111111111111111
 40
0.1111111111111111
 40
0.1111111111111111
 40
0.2222222222222222
 40
0.2222222222222222
 40
0.2222222222222222
 40
0.2222222222222222
 40
0.3333333333333333
 40
0.3333333333333333
 40
0.3333333333333333
 40
0.3333333333333333
 40
0.4444444444444444
 40
0.4444444444444444
 40
0.4444444444444444
 40
0.4444444444444444
 40
0.5555555555555556
 40
0.5555555555555556
 40
0.5555555555555556
 40
0.5555555555555556
 40
0.6666666666666666
 40
0.6666666666666666
 40
0.6666666666666666
 40
0.6666666666666666
 40
0.7777777777777778
 40
0.7777777777777778
 40
0.7777777777777778
 40
0.7777777777777778
 40
1.0
 40
1.0
 40
1.0
 40
1.0
 10
-138.7695
 20
-56.2417
 30
0.0
 10
-138.7422
 20
-56.2926
 30
0.0
 10
-138.7534
 20
-56.3556
 30
0.0
 10
-138.7969
 20
-56.3936
 30
0.0
 10
-138.7969
 20
-56.3936
 30
0.0
 10
-138.8405
 20
-56.4317
 30
0.0
 10
-138.9045
 20
-56.4346
 30
0.0
 10
-138.9512
 20
-56.4007
 30
0.0
 10
-138.9512
 20
-56.4007
 30
0.0
 10
-141.0504
 20
-54.6984
 30
0.0
 10
-143.8529
 20
-54.138
 30
0.0
 10
-146.4453
 20
-54.9017
 30
0.0
 10
-146.4453
 20
-54.9017
 30
0.0
 10
-146.6206
 20
-54.9107
 30
0.0
 10
-146.7964
 20
-54.8954
 30
0.0
 10
-146.9677
 20
-54.8564
 30
0.0
 10
-146.9677
 20
-54.8564
 30
0.0
 10
-147.677
 20
-54.5894
 30
0.0
 10
-148.1708
 20
-53.9398
 30
0.0
 10
-148.2385
 20
-53.1849
 30
0.0
 10
-148.2385
 20
-53.1849
 30
0.0
 10
-148.3064
 20
-52.43
 30
0.0
 10
-147.936
 20
-51.703
 30
0.0
 10
-147.2856
 20
-51.3138
 30
0.0
 10
-147.2856
 20
-51.3138
 30
0.0
 10
-145.2596
 20
-50.7437
 30
0.0
 10
-143.0863
 20
-51.3885
 30
0.0
 10
-141.6991
 20
-52.9715
 30
0.0
 10
-141.6991
 20
-52.9715
 30
0.0
 10
-140.5851
 20
-53.93
 30
0.0
 10
-139.6003
 20
-55.0293
 30
0.0
 10
-138.7695
 20
-56.2417
 30
0.0
  0
SPLINE
  5
78
330
1F
100
AcDbEntity
  8
layer 1
 62
     7
370
     9
100
AcDbSpline
210
0.0
220
0.0
230
1.0
 70
    11
 71
     3
 72
    32
 73
    28
 74
     0
 42
0.0000000001
 43
0.0000000001
 12
1.0
 22
0.0
 32
0.0
 13
1.0
 23
0.0
 33
0.0
 40
0.0
 40
0.0
 40
0.0
 40
0.0
 40
0.125
 40
0.125
 40
0.125
 40
0.125
 40
0.25
 40
0.25
 40
0.25
 40
0.25
 40
0.375
 40
0.375
 40
0.375
 40
0.375
 40
0.5
 40
0.5
 40
0.5
 40
0.5
 40
0.625
 40
0.625
 40
0.625
 40
0.625
 40
0.75
 40
0.75
 40
0.75
 40
0.75
 40
1.0
 40
1.0
 40
1.0
 40
1.0
 10
-139.3657
 20
-51.7423
 30
0.0
 10
-140.5733
 20
-50.2516
 30
0.0
 10
-142.0799
 20
-49.0304
 30
0.0
 10
-143.7884
 20
-48.1571
 30
0.0
 10
-143.7884
 20
-48.1571
 30
0.0
 10
-144.3826
 20
-47.8989
 30
0.0
 10
-144.9401
 20
-47.5629
 30
0.0
 10
-145.4461
 20
-47.1579
 30
0.0
 10
-145.4461
 20
-47.1579
 30
0.0
 10
-145.9244
 20
-46.4416
 30
0.0
 10
-145.86
 20
-45.4933
 30
0.0
 10
-145.2895
 20
-44.8481
 30
0.0
 10
-145.2895
 20
-44.8481
 30
0.0
 10
-144.7191
 20
-44.2029
 30
0.0
 10
-143.7855
 20
-44.0231
 30
0.0
 10
-143.0162
 20
-44.41
 30
0.0
 10
-143.0162
 20
-44.41
 30
0.0
 10
-140.4667
 20
-45.9091
 30
0.0
 10
-138.9616
 20
-48.7006
 30
0.0
 10
-139.1102
 20
-51.6544
 30
0.0
 10
-139.1102
 20
-51.6544
 30
0.0
 10
-139.1082
 20
-51.7164
 30
0.0
 10
-139.1467
 20
-51.7726
 30
0.0
 10
-139.2055
 20
-51.7927
 30
0.0
 10
-139.2055
 20
-51.7927
 30
0.0
 10
-139.2641
 20
-51.8129
 30
0.0
 10
-139.3292
 20
-51.7925
 30
0.0
 10
-139.3657
 20
-51.7423
 30
0.0
  0
SPLINE
  5
79
330
1F
100
AcDbEntity
  8
layer 1
 62
     7
370
     9
100
AcDbSpline
210
0.0
220
0.0
230
1.0
 70
    11
 71
     3
 72
    32
 73
    28
 74
     0
 42
0.0000000001
 43
0.0000000001
 12
1.0
 22
0.0
 32
0.0
 13
1.0
 23
0.0
 33
0.0
 40
0.0
 40
0.0
 40
0.0
 40
0.0
 40
0.125
 40
0.125
 40
0.125
 40
0.125
 40
0.25
 40
0.25
 40
0.25
 40
0.25
 40
0.375
 40
0.375
 40
0.375
 40
0.375
 40
0.5
 40
0.5
 40
0.5
 40
0.5
 40
0.625
 40
0.625
 40
0.625
 40
0.625
 40
0.75
 40
0.75
 40
0.75
 40
0.75
 40
1.0
 40
1.0
 40
1.0
 40
1.0
 10
-140.6998
 20
-41.2536
 30
0.0
 10
-139.6145
 20
-42.4293
 30
0.0
 10
-138.8586
 20
-43.8707
 30
0.0
 10
-138.5084
 20
-45.4319
 30
0.0
 10
-138.5084
 20
-45.4319
 30
0.0
 10
-138.482
 20
-45.5388
 30
0.0
 10
-138.3823
 20
-45.6109
 30
0.0
 10
-138.2724
 20
-45.6025
 30
0.0
 10
-138.2724
 20
-45.6025
 30
0.0
 10
-138.1629
 20
-45.5941
 30
0.0
 10
-138.0753
 20
-45.5076
 30
0.0
 10
-138.0656
 20
-45.398
 30
0.0
 10
-138.0656
 20
-45.398
 30
0.0
 10
-137.2979
 20
-42.5358
 30
0.0
 10
-137.7676
 20
-39.4831
 30
0.0
 10
-139.3599
 20
-36.9841
 30
0.0
 10
-139.3599
 20
-36.9841
 30
0.0
 10
-139.9816
 20
-36.3712
 30
0.0
 10
-140.9524
 20
-36.2907
 30
0.0
 10
-141.6665
 20
-36.7928
 30
0.0
 10
-141.6665
 20
-36.7928
 30
0.0
 10
-142.3804
 20
-37.2948
 30
0.0
 10
-142.6332
 20
-38.2356
 30
0.0
 10
-142.2668
 20
-39.028
 30
0.0
 10
-142.2668
 20
-39.028
 30
0.0
 10
-141.8623
 20
-39.8461
 30
0.0
 10
-141.3338
 20
-40.5968
 30
0.0
 10
-140.6998
 20
-41.2536
 30
0.0
  0
SPLINE
  5
7A
330
1F
100
AcDbEntity
  8
layer 1
 62
     7
370
     9
100
AcDbSpline
210
0.0
220
0.0
230
1.0
 70
    11
 71
     3
 72
    68
 73
    64
 74
     0
 42
0.0000000001
 43
0.0000000001
 12
1.0
 22
0.0
 32
0.0
 13
1.0
 23
0.0
 33
0.0
 40
0.0
 40
0.0
 40
0.0
 40
0.0
 40
0.0588235294117647
 40
0.0588235294117647
 40
0.0588235294117647
 40
0.0588235294117647
 40
0.1176470588235294
 40
0.1176470588235294
 40
0.1176470588235294
 40
0.1176470588235294
 40
0.1764705882352941
 40
0.1764705882352941
 40
0.1764705882352941
 40
0.1764705882352941
 40
0.2352941176470588
 40
0.2352941176470588
 40
0.2352941176470588
 40
0.2352941176470588
 40
0.2941176470588235
 40
0.2941176470588235
 40
0.2941176470588235
 40
0.2941176470588235
 40
0.3529411764705883
 40
0.3529411764705883
 40
0.3529411764705883
 40
0.3529411764705883
 40
0.4117647058823529
 40
0.4117647058823529
 40
0.4117647058823529
 40
0.4117647058823529
 40
0.4705882352941176
 40
0.4705882352941176
 40
0.4705882352941176
 40
0.4705882352941176
 40
0.5294117647058824
 40
0.5294117647058824
 40
0.5294117647058824
 40
0.5294117647058824
 40
0.5882352941176471
 40
0.5882352941176471
 40
0.5882352941176471
 40
0.5882352941176471
 40
0.6470588235294118
 40
0.6470588235294118
 40
0.6470588235294118
 40
0.6470588235294118
 40
0.7058823529411765
 40
0.7058823529411765
 40
0.7058823529411765
 40
0.7058823529411765
 40
0.7647058823529411
 40
0.7647058823529411
 40
0.7647058823529411
 40
0.7647058823529411
 40
0.8235294117647058
 40
0.8235294117647058
 40
0.8235294117647058
 40
0.8235294117647058
 40
0.8823529411764706
 40
0.8823529411764706
 40
0.8823529411764706
 40
0.8823529411764706
 40
1.0
 40
1.0
 40
1.0
 40
1.0
 10
-145.3554
 20
-33.3051
 30
0.0
 10
-143.7704
 20
-31.6374
 30
0.0
 10
-142.4253
 20
-29.7571
 30
0.0
 10
-141.3584
 20
-27.7186
 30
0.0
 10
-141.3584
 20
-27.7186
 30
0.0
 10
-140.7441
 20
-30.1511
 30
0.0
 10
-141.5314
 20
-32.7235
 30
0.0
 10
-143.4022
 20
-34.3952
 30
0.0
 10
-143.4022
 20
-34.3952
 30
0.0
 10
-144.2324
 20
-35.0333
 30
0.0
 10
-144.5616
 20
-36.1307
 30
0.0
 10
-144.2198
 20
-37.1204
 30
0.0
 10
-144.2198
 20
-37.1204
 30
0.0
 10
-144.0993
 20
-38.7048
 30
0.0
 10
-144.7608
 20
-40.2481
 30
0.0
 10
-145.9911
 20
-41.2536
 30
0.0
 10
-145.9911
 20
-41.2536
 30
0.0
 10
-147.6673
 20
-42.3173
 30
0.0
 10
-148.5157
 20
-44.303
 30
0.0
 10
-148.1257
 20
-46.2495
 30
0.0
 10
-148.1257
 20
-46.2495
 30
0.0
 10
-147.8295
 20
-47.9948
 30
0.0
 10
-148.5519
 20
-49.7565
 30
0.0
 10
-149.988
 20
-50.7914
 30
0.0
 10
-149.988
 20
-50.7914
 30
0.0
 10
-150.5836
 20
-51.5641
 30
0.0
 10
-150.8335
 20
-52.5485
 30
0.0
 10
-150.6787
 20
-53.5116
 30
0.0
 10
-150.6787
 20
-53.5116
 30
0.0
 10
-150.5238
 20
-54.4747
 30
0.0
 10
-149.9781
 20
-55.3311
 30
0.0
 10
-149.1704
 20
-55.8783
 30
0.0
 10
-149.1704
 20
-55.8783
 30
0.0
 10
-150.472
 20
-56.6678
 30
0.0
 10
-152.121
 20
-56.5963
 30
0.0
 10
-153.3489
 20
-55.6967
 30
0.0
 10
-153.3489
 20
-55.6967
 30
0.0
 10
-153.7597
 20
-55.4104
 30
0.0
 10
-154.0118
 20
-54.9478
 30
0.0
 10
-154.0296
 20
-54.4477
 30
0.0
 10
-154.0296
 20
-54.4477
 30
0.0
 10
-154.0476
 20
-53.9475
 30
0.0
 10
-153.8291
 20
-53.4679
 30
0.0
 10
-153.4399
 20
-53.1533
 30
0.0
 10
-153.4399
 20
-53.1533
 30
0.0
 10
-153.3859
 20
-53.0335
 30
0.0
 10
-153.3878
 20
-52.8962
 30
0.0
 10
-153.4447
 20
-52.7779
 30
0.0
 10
-153.4447
 20
-52.7779
 30
0.0
 10
-153.5015
 20
-52.6597
 30
0.0
 10
-153.6079
 20
-52.5727
 30
0.0
 10
-153.7351
 20
-52.5401
 30
0.0
 10
-153.7351
 20
-52.5401
 30
0.0
 10
-155.111
 20
-52.188
 30
0.0
 10
-156.538
 20
-52.8918
 30
0.0
 10
-157.0961
 20
-54.1978
 30
0.0
 10
-157.0961
 20
-54.1978
 30
0.0
 10
-156.7985
 20
-49.2534
 30
0.0
 10
-154.9107
 20
-44.5377
 30
0.0
 10
-151.7139
 20
-40.7538
 30
0.0
 10
-151.7139
 20
-40.7538
 30
0.0
 10
-149.4248
 20
-38.4208
 30
0.0
 10
-147.3001
 20
-35.9321
 30
0.0
 10
-145.3554
 20
-33.3051
 30
0.0
  0
SPLINE
  5
7B
330
1F
100
AcDbEntity
  8
layer 1
 62
     7
370
     9
100
AcDbSpline
210
0.0
220
0.0
230
1.0
 70
    11
 71
     3
 72
    20
 73
    16
 74
     0
 42
0.0000000001
 43
0.0000000001
 12
1.0
 22
0.0
 32
0.0
 13
1.0
 23
0.0
 33
0.0
 40
0.0
 40
0.0
 40
0.0
 40
0.0
 40
0.2
 40
0.2
 40
0.2
 40
0.2
 40
0.4
 40
0.4
 40
0.4
 40
0.4
 40
0.6
 40
0.6
 40
0.6
 40
0.6
 40
1.0
 40
1.0
 40
1.0
 40
1.0
 10
-135.8627
 20
-33.5287
 30
0.0
 10
-134.994
 20
-30.0023
 30
0.0
 10
-133.9172
 20
-26.5305
 30
0.0
 10
-132.638
 20
-23.1314
 30
0.0
 10
-132.638
 20
-23.1314
 30
0.0
 10
-134.0236
 20
-19.5045
 30
0.0
 10
-135.1022
 20
-15.7678
 30
0.0
 10
-135.8627
 20
-11.9606
 30
0.0
 10
-135.8627
 20
-11.9606
 30
0.0
 10
-136.6231
 20
-15.7678
 30
0.0
 10
-137.7019
 20
-19.5045
 30
0.0
 10
-139.0875
 20
-23.1314
 30
0.0
 10
-139.0875
 20
-23.1314
 30
0.0
 10
-137.8083
 20
-26.5305
 30
0.0
 10
-136.7314
 20
-30.0023
 30
0.0
 10
-135.8627
 20
-33.5287
 30
0.0
  0
SPLINE
  5
7C
330
1F
100
AcDbEntity
  8
layer 1
 62
     7
370
     9
100
AcDbSpline
210
0.0
220
0.0
230
1.0
 70
    11
 71
     3
 72
    44
 73
    40
 74
     0
 42
0.0000000001
 43
0.0000000001
 12
1.0
 22
0.0
 32
0.0
 13
1.0
 23
0.0
 33
0.0
 40
0.0
 40
0.0
 40
0.0
 40
0.0
 40
0.0909090909090909
 40
0.0909090909090909
 40
0.0909090909090909
 40
0.0909090909090909
 40
0.1818181818181818
 40
0.1818181818181818
 40
0.1818181818181818
 40
0.1818181818181818
 40
0.2727272727272727
 40
0.2727272727272727
 40
0.2727272727272727
 40
0.2727272727272727
 40
0.3636363636363636
 40
0.3636363636363636
 40
0.3636363636363636
 40
0.3636363636363636
 40
0.4545454545454545
 40
0.4545454545454545
 40
0.4545454545454545
 40
0.4545454545454545
 40
0.5454545454545454
 40
0.5454545454545454
 40
0.5454545454545454
 40
0.5454545454545454
 40
0.6363636363636364
 40
0.6363636363636364
 40
0.6363636363636364
 40
0.6363636363636364
 40
0.7272727272727273
 40
0.7272727272727273
 40
0.7272727272727273
 40
0.7272727272727273
 40
0.8181818181818182
 40
0.8181818181818182
 40
0.8181818181818182
 40
0.8181818181818182
 40
1.0
 40
1.0
 40
1.0
 40
1.0
 10
-163.0687
 20
-37.3474
 30
0.0
 10
-159.1425
 20
-34.3186
 30
0.0
 10
-155.0809
 20
-31.4693
 30
0.0
 10
-150.8963
 20
-28.8086
 30
0.0
 10
-150.8963
 20
-28.8086
 30
0.0
 10
-147.8679
 20
-26.492
 30
0.0
 10
-145.1708
 20
-23.772
 30
0.0
 10
-142.8799
 20
-20.7241
 30
0.0
 10
-142.8799
 20
-20.7241
 30
0.0
 10
-142.7192
 20
-20.4581
 30
0.0
 10
-142.678
 20
-20.1366
 30
0.0
 10
-142.7665
 20
-19.8385
 30
0.0
 10
-142.7665
 20
-19.8385
 30
0.0
 10
-143.3098
 20
-17.5668
 30
0.0
 10
-144.9169
 20
-15.6975
 30
0.0
 10
-147.0811
 20
-14.8196
 30
0.0
 10
-147.0811
 20
-14.8196
 30
0.0
 10
-146.4198
 20
-15.1214
 30
0.0
 10
-145.9235
 20
-15.6974
 30
0.0
 10
-145.7227
 20
-16.396
 30
0.0
 10
-145.7227
 20
-16.396
 30
0.0
 10
-145.5219
 20
-17.0946
 30
0.0
 10
-145.6365
 20
-17.8461
 30
0.0
 10
-146.0367
 20
-18.4532
 30
0.0
 10
-146.0367
 20
-18.4532
 30
0.0
 10
-147.295
 20
-19.6536
 30
0.0
 10
-149.224
 20
-19.8045
 30
0.0
 10
-150.654
 20
-18.8145
 30
0.0
 10
-150.654
 20
-18.8145
 30
0.0
 10
-152.084
 20
-17.8245
 30
0.0
 10
-152.6216
 20
-15.9661
 30
0.0
 10
-151.941
 20
-14.3654
 30
0.0
 10
-151.941
 20
-14.3654
 30
0.0
 10
-153.5839
 20
-16.7027
 30
0.0
 10
-154.827
 20
-19.2966
 30
0.0
 10
-155.6199
 20
-22.0413
 30
0.0
 10
-155.6199
 20
-22.0413
 30
0.0
 10
-157.4663
 20
-27.4292
 30
0.0
 10
-159.968
 20
-32.5698
 30
0.0
 10
-163.0687
 20
-37.3474
 30
0.0
  0
SPLINE
  5
7D
330
1F
100
AcDbEntity
  8
layer 1
 62
     7
370
     9
100
AcDbSpline
210
0.0
220
0.0
230
1.0
 70
    11
 71
     3
 72
    28
 73
    24
 74
     0
 42
0.0000000001
 43
0.0000000001
 12
1.0
 22
0.0
 32
0.0
 13
1.0
 23
0.0
 33
0.0
 40
0.0
 40
0.0
 40
0.0
 40
0.0
 40
0.1428571428571428
 40
0.1428571428571428
 40
0.1428571428571428
 40
0.1428571428571428
 40
0.2857142857142857
 40
0.2857142857142857
 40
0.2857142857142857
 40
0.2857142857142857
 40
0.4285714285714285
 40
0.4285714285714285
 40
0.4285714285714285
 40
0.4285714285714285
 40
0.5714285714285714
 40
0.5714285714285714
 40
0.5714285714285714
 40
0.5714285714285714
 40
0.7142857142857143
 40
0.7142857142857143
 40
0.7142857142857143
 40
0.7142857142857143
 40
1.0
 40
1.0
 40
1.0
 40
1.0
 10
-140.3592
 20
-0.9215
 30
0.0
 10
-140.2051
 20
-0.7662
 30
0.0
 10
-139.9574
 20
-0.7563
 30
0.0
 10
-139.7915
 20
-0.8987
 30
0.0
 10
-139.7915
 20
-0.8987
 30
0.0
 10
-138.8495
 20
-3.8375
 30
0.0
 10
-138.6008
 20
-6.9544
 30
0.0
 10
-139.0648
 20
-10.0051
 30
0.0
 10
-139.0648
 20
-10.0051
 30
0.0
 10
-139.3949
 20
-12.4759
 30
0.0
 10
-140.0596
 20
-14.89
 30
0.0
 10
-141.0405
 20
-17.1815
 30
0.0
 10
-141.0405
 20
-17.1815
 30
0.0
 10
-141.2753
 20
-15.0977
 30
0.0
 10
-142.5801
 20
-13.2875
 30
0.0
 10
-144.4826
 20
-12.4058
 30
0.0
 10
-144.4826
 20
-12.4058
 30
0.0
 10
-146.385
 20
-11.5242
 30
0.0
 10
-148.6098
 20
-11.6988
 30
0.0
 10
-150.3513
 20
-12.8666
 30
0.0
 10
-150.3513
 20
-12.8666
 30
0.0
 10
-146.5153
 20
-9.3363
 30
0.0
 10
-143.1563
 20
-5.3207
 30
0.0
 10
-140.3592
 20
-0.9215
 30
0.0
  0
SPLINE
  5
7E
330
1F
100
AcDbEntity
  8
layer 1
 62
     7
370
     9
100
AcDbSpline
210
0.0
220
0.0
230
1.0
 70
    11
 71
     3
 72
    72
 73
    68
 74
     0
 42
0.0000000001
 43
0.0000000001
 12
1.0
 22
0.0
 32
0.0
 13
1.0
 23
0.0
 33
0.0
 40
0.0
 40
0.0
 40
0.0
 40
0.0
 40
0.0555555555555556
 40
0.0555555555555556
 40
0.0555555555555556
 40
0.0555555555555556
 40
0.1111111111111111
 40
0.1111111111111111
 40
0.1111111111111111
 40
0.1111111111111111
 40
0.1666666666666667
 40
0.1666666666666667
 40
0.1666666666666667
 40
0.1666666666666667
 40
0.2222222222222222
 40
0.2222222222222222
 40
0.2222222222222222
 40
0.2222222222222222
 40
0.2777777777777778
 40
0.2777777777777778
 40
0.2777777777777778
 40
0.2777777777777778
 40
0.3333333333333333
 40
0.3333333333333333
 40
0.3333333333333333
 40
0.3333333333333333
 40
0.3888888888888889
 40
0.3888888888888889
 40
0.3888888888888889
 40
0.3888888888888889
 40
0.4444444444444444
 40
0.4444444444444444
 40
0.4444444444444444
 40
0.4444444444444444
 40
0.5
 40
0.5
 40
0.5
 40
0.5
 40
0.5555555555555556
 40
0.5555555555555556
 40
0.5555555555555556
 40
0.5555555555555556
 40
0.6111111111111112
 40
0.6111111111111112
 40
0.6111111111111112
 40
0.6111111111111112
 40
0.6666666666666666
 40
0.6666666666666666
 40
0.6666666666666666
 40
0.6666666666666666
 40
0.7222222222222222
 40
0.7222222222222222
 40
0.7222222222222222
 40
0.7222222222222222
 40
0.7777777777777778
 40
0.7777777777777778
 40
0.7777777777777778
 40
0.7777777777777778
 40
0.8333333333333334
 40
0.8333333333333334
 40
0.8333333333333334
 40
0.8333333333333334
 40
0.8888888888888888
 40
0.8888888888888888
 40
0.8888888888888888
 40
0.8888888888888888
 40
1.0
 40
1.0
 40
1.0
 40
1.0
 10
-156.2331
 20
-11.9583
 30
0.0
 10
-157.8729
 20
-12.2746
 30
0.0
 10
-159.5544
 20
-11.6711
 30
0.0
 10
-160.6189
 20
-10.3843
 30
0.0
 10
-160.6189
 20
-10.3843
 30
0.0
 10
-161.6832
 20
-9.0976
 30
0.0
 10
-161.9608
 20
-7.3325
 30
0.0
 10
-161.3427
 20
-5.7812
 30
0.0
 10
-161.3427
 20
-5.7812
 30
0.0
 10
-161.4481
 20
-6.8682
 30
0.0
 10
-161.0382
 20
-7.9416
 30
0.0
 10
-160.2356
 20
-8.6819
 30
0.0
 10
-160.2356
 20
-8.6819
 30
0.0
 10
-159.4329
 20
-9.4221
 30
0.0
 10
-158.3298
 20
-9.7438
 30
0.0
 10
-157.2551
 20
-9.5511
 30
0.0
 10
-157.2551
 20
-9.5511
 30
0.0
 10
-155.9295
 20
-9.3127
 30
0.0
 10
-154.8581
 20
-8.3352
 30
0.0
 10
-154.4995
 20
-7.0368
 30
0.0
 10
-154.4995
 20
-7.0368
 30
0.0
 10
-154.141
 20
-5.7385
 30
0.0
 10
-154.5589
 20
-4.3497
 30
0.0
 10
-155.5745
 20
-3.4649
 30
0.0
 10
-155.5745
 20
-3.4649
 30
0.0
 10
-154.4244
 20
-4.1763
 30
0.0
 10
-153.0083
 20
-4.3117
 30
0.0
 10
-151.7444
 20
-3.8309
 30
0.0
 10
-151.7444
 20
-3.8309
 30
0.0
 10
-150.48
 20
-3.3503
 30
0.0
 10
-149.5119
 20
-2.3083
 30
0.0
 10
-149.125
 20
-1.0123
 30
0.0
 10
-149.125
 20
-1.0123
 30
0.0
 10
-149.1099
 20
-0.92
 30
0.0
 10
-149.1368
 20
-0.8259
 30
0.0
 10
-149.1983
 20
-0.7557
 30
0.0
 10
-149.1983
 20
-0.7557
 30
0.0
 10
-149.2598
 20
-0.6852
 30
0.0
 10
-149.3496
 20
-0.6461
 30
0.0
 10
-149.443
 20
-0.6489
 30
0.0
 10
-149.443
 20
-0.6489
 30
0.0
 10
-150.2097
 20
-1.084
 30
0.0
 10
-151.1491
 20
-1.0822
 30
0.0
 10
-151.9139
 20
-0.6439
 30
0.0
 10
-151.9139
 20
-0.6439
 30
0.0
 10
-152.6787
 20
-0.2054
 30
0.0
 10
-153.1554
 20
0.6042
 30
0.0
 10
-153.1673
 20
1.4857
 30
0.0
 10
-153.1673
 20
1.4857
 30
0.0
 10
-153.2389
 20
3.0071
 30
0.0
 10
-152.3218
 20
4.4012
 30
0.0
 10
-150.8963
 20
4.9376
 30
0.0
 10
-150.8963
 20
4.9376
 30
0.0
 10
-148.0822
 20
6.1017
 30
0.0
 10
-144.8411
 20
5.3956
 30
0.0
 10
-142.7665
 20
3.1663
 30
0.0
 10
-142.7665
 20
3.1663
 30
0.0
 10
-142.3902
 20
2.8903
 30
0.0
 10
-142.3088
 20
2.3616
 30
0.0
 10
-142.5848
 20
1.9853
 30
0.0
 10
-142.5848
 20
1.9853
 30
0.0
 10
-144.0628
 20
-2.1011
 30
0.0
 10
-146.4732
 20
-5.7868
 30
0.0
 10
-149.6247
 20
-8.779
 30
0.0
 10
-149.6247
 20
-8.779
 30
0.0
 10
-151.5072
 20
-10.4049
 30
0.0
 10
-153.7877
 20
-11.502
 30
0.0
 10
-156.2331
 20
-11.9583
 30
0.0
  0
SPLINE
  5
7F
330
1F
100
AcDbEntity
  8
layer 1
 62
     7
370
     9
100
AcDbSpline
210
0.0
220
0.0
230
1.0
 70
    11
 71
     3
 72
    20
 73
    16
 74
     0
 42
0.0000000001
 43
0.0000000001
 12
1.0
 22
0.0
 32
0.0
 13
1.0
 23
0.0
 33
0.0
 40
0.0
 40
0.0
 40
0.0
 40
0.0
 40
0.2
 40
0.2
 40
0.2
 40
0.2
 40
0.4
 40
0.4
 40
0.4
 40
0.4
 40
0.6
 40
0.6
 40
0.6
 40
0.6
 40
1.0
 40
1.0
 40
1.0
 40
1.0
 10
-173.6967
 20
1.4403
 30
0.0
 10
-168.8954
 20
2.5354
 30
0.0
 10
-163.8548
 20
1.5272
 30
0.0
 10
-159.844
 20
-1.3302
 30
0.0
 10
-159.844
 20
-1.3302
 30
0.0
 10
-163.2337
 20
2.9708
 30
0.0
 10
-168.5004
 20
5.3586
 30
0.0
 10
-173.9691
 20
5.0739
 30
0.0
 10
-173.9691
 20
5.0739
 30
0.0
 10
-174.7267
 20
4.7504
 30
0.0
 10
-175.1946
 20
3.981
 30
0.0
 10
-175.1329
 20
3.1595
 30
0.0
 10
-175.1329
 20
3.1595
 30
0.0
 10
-175.0714
 20
2.3383
 30
0.0
 10
-174.494
 20
1.6471
 30
0.0
 10
-173.6967
 20
1.4403
 30
0.0
  0
SPLINE
  5
80
330
1F
100
AcDbEntity
  8
layer 1
 62
     7
370
     9
100
AcDbSpline
210
0.0
220
0.0
230
1.0
 70
    11
 71
     3
 72
    24
 73
    20
 74
     0
 42
0.0000000001
 43
0.0000000001
 12
1.0
 22
0.0
 32
0.0
 13
1.0
 23
0.0
 33
0.0
 40
0.0
 40
0.0
 40
0.0
 40
0.0
 40
0.1666666666666667
 40
0.1666666666666667
 40
0.1666666666666667
 40
0.1666666666666667
 40
0.3333333333333333
 40
0.3333333333333333
 40
0.3333333333333333
 40
0.3333333333333333
 40
0.5
 40
0.5
 40
0.5
 40
0.5
 40
0.6666666666666666
 40
0.6666666666666666
 40
0.6666666666666666
 40
0.6666666666666666
 40
1.0
 40
1.0
 40
1.0
 40
1.0
 10
-106.9192
 20
125.3425
 30
0.0
 10
-106.9192
 20
125.3425
 30
0.0
 10
-96.4834
 20
125.3425
 30
0.0
 10
-96.4834
 20
125.3425
 30
0.0
 10
-96.4834
 20
125.3425
 30
0.0
 10
-96.4672
 20
125.3139
 30
0.0
 10
-96.4523
 20
125.2836
 30
0.0
 10
-96.439
 20
125.2517
 30
0.0
 10
-96.439
 20
125.2517
 30
0.0
 10
-95.9856
 20
123.9543
 30
0.0
 10
-96.1349
 20
122.5208
 30
0.0
 10
-96.8465
 20
121.3444
 30
0.0
 10
-96.8465
 20
121.3444
 30
0.0
 10
-97.558
 20
120.1663
 30
0.0
 10
-98.7575
 20
119.3681
 30
0.0
 10
-100.118
 20
119.1664
 30
0.0
 10
-100.118
 20
119.1664
 30
0.0
 10
-100.9526
 20
122.3965
 30
0.0
 10
-103.6242
 20
124.8232
 30
0.0
 10
-106.9192
 20
125.3425
 30
0.0
  0
SPLINE
  5
81
330
1F
100
AcDbEntity
  8
layer 1
 62
     7
370
     9
100
AcDbSpline
210
0.0
220
0.0
230
1.0
 70
    11
 71
     3
 72
    20
 73
    16
 74
     0
 42
0.0000000001
 43
0.0000000001
 12
1.0
 22
0.0
 32
0.0
 13
1.0
 23
0.0
 33
0.0
 40
0.0
 40
0.0
 40
0.0
 40
0.0
 40
0.2
 40
0.2
 40
0.2
 40
0.2
 40
0.4
 40
0.4
 40
0.4
 40
0.4
 40
0.6
 40
0.6
 40
0.6
 40
0.6
 40
1.0
 40
1.0
 40
1.0
 40
1.0
 10
-129.1471
 20
125.3425
 30
0.0
 10
-129.1471
 20
125.3425
 30
0.0
 10
-110.1556
 20
125.3425
 30
0.0
 10
-110.1556
 20
125.3425
 30
0.0
 10
-110.1556
 20
125.3425
 30
0.0
 10
-114.9528
 20
124.6887
 30
0.0
 10
-118.8201
 20
121.089
 30
0.0
 10
-119.8148
 20
116.3498
 30
0.0
 10
-119.8148
 20
116.3498
 30
0.0
 10
-121.2789
 20
116.6758
 30
0.0
 10
-122.8018
 20
116.1498
 30
0.0
 10
-123.751
 20
114.9885
 30
0.0
 10
-123.751
 20
114.9885
 30
0.0
 10
-122.5968
 20
119.316
 30
0.0
 10
-124.9382
 20
123.8098
 30
0.0
 10
-129.1471
 20
125.3425
 30
0.0
  0
SPLINE
  5
82
330
1F
100
AcDbEntity
  8
layer 1
 62
     7
370
     9
100
AcDbSpline
210
0.0
220
0.0
230
1.0
 70
    11
 71
     3
 72
    16
 73
    12
 74
     0
 42
0.0000000001
 43
0.0000000001
 12
1.0
 22
0.0
 32
0.0
 13
1.0
 23
0.0
 33
0.0
 40
0.0
 40
0.0
 40
0.0
 40
0.0
 40
0.25
 40
0.25
 40
0.25
 40
0.25
 40
0.5
 40
0.5
 40
0.5
 40
0.5
 40
1.0
 40
1.0
 40
1.0
 40
1.0
 10
-91.7155
 20
96.9779
 30
0.0
 10
-91.7155
 20
96.9779
 30
0.0
 10
-91.7155
 20
110.6274
 30
0.0
 10
-91.7155
 20
110.6274
 30
0.0
 10
-91.7155
 20
110.6274
 30
0.0
 10
-92.972
 20
106.9958
 30
0.0
 10
-95.5149
 20
103.9506
 30
0.0
 10
-98.8639
 20
102.0666
 30
0.0
 10
-98.8639
 20
102.0666
 30
0.0
 10
-95.5445
 20
102.3944
 30
0.0
 10
-92.4928
 20
100.2214
 30
0.0
 10
-91.7155
 20
96.9779
 30
0.0
  0
SPLINE
  5
83
330
1F
100
AcDbEntity
  8
layer 1
 62
     7
370
     9
100
AcDbSpline
210
0.0
220
0.0
230
1.0
 70
    11
 71
     3
 72
    28
 73
    24
 74
     0
 42
0.0000000001
 43
0.0000000001
 12
1.0
 22
0.0
 32
0.0
 13
1.0
 23
0.0
 33
0.0
 40
0.0
 40
0.0
 40
0.0
 40
0.0
 40
0.1428571428571428
 40
0.1428571428571428
 40
0.1428571428571428
 40
0.1428571428571428
 40
0.2857142857142857
 40
0.2857142857142857
 40
0.2857142857142857
 40
0.2857142857142857
 40
0.4285714285714285
 40
0.4285714285714285
 40
0.4285714285714285
 40
0.4285714285714285
 40
0.5714285714285714
 40
0.5714285714285714
 40
0.5714285714285714
 40
0.5714285714285714
 40
0.7142857142857143
 40
0.7142857142857143
 40
0.7142857142857143
 40
0.7142857142857143
 40
1.0
 40
1.0
 40
1.0
 40
1.0
 10
-91.7155
 20
64.5632
 30
0.0
 10
-91.7155
 20
64.5632
 30
0.0
 10
-91.7155
 20
93.8655
 30
0.0
 10
-91.7155
 20
93.8655
 30
0.0
 10
-91.7155
 20
93.8655
 30
0.0
 10
-92.1989
 20
91.8488
 30
0.0
 10
-93.5918
 20
90.1716
 30
0.0
 10
-95.4852
 20
89.3263
 30
0.0
 10
-95.4852
 20
89.3263
 30
0.0
 10
-97.428
 20
88.5196
 30
0.0
 10
-99.6055
 20
88.4877
 30
0.0
 10
-101.5714
 20
89.2355
 30
0.0
 10
-101.5714
 20
89.2355
 30
0.0
 10
-96.1931
 20
83.3704
 30
0.0
 10
-94.8346
 20
74.8633
 30
0.0
 10
-98.1195
 20
67.6151
 30
0.0
 10
-98.1195
 20
67.6151
 30
0.0
 10
-96.8859
 20
68.2839
 30
0.0
 10
-95.4074
 20
68.3209
 30
0.0
 10
-94.1412
 20
67.7176
 30
0.0
 10
-94.1412
 20
67.7176
 30
0.0
 10
-92.8749
 20
67.1143
 30
0.0
 10
-91.9736
 20
65.9412
 30
0.0
 10
-91.7155
 20
64.5632
 30
0.0
  0
SPLINE
  5
84
330
1F
100
AcDbEntity
  8
layer 1
 62
     7
370
     9
100
AcDbSpline
210
0.0
220
0.0
230
1.0
 70
    11
 71
     3
 72
    20
 73
    16
 74
     0
 42
0.0000000001
 43
0.0000000001
 12
1.0
 22
0.0
 32
0.0
 13
1.0
 23
0.0
 33
0.0
 40
0.0
 40
0.0
 40
0.0
 40
0.0
 40
0.2
 40
0.2
 40
0.2
 40
0.2
 40
0.4
 40
0.4
 40
0.4
 40
0.4
 40
0.6
 40
0.6
 40
0.6
 40
0.6
 40
1.0
 40
1.0
 40
1.0
 40
1.0
 10
-91.7155
 20
54.3974
 30
0.0
 10
-91.7155
 20
54.3974
 30
0.0
 10
-91.7155
 20
62.9481
 30
0.0
 10
-91.7155
 20
62.9481
 30
0.0
 10
-91.7155
 20
62.9481
 30
0.0
 10
-91.959
 20
61.6457
 30
0.0
 10
-92.7767
 20
60.5248
 30
0.0
 10
-93.941
 20
59.8946
 30
0.0
 10
-93.941
 20
59.8946
 30
0.0
 10
-94.5495
 20
59.498
 30
0.0
 10
-95.2276
 20
59.2207
 30
0.0
 10
-95.9395
 20
59.0761
 30
0.0
 10
-95.9395
 20
59.0761
 30
0.0
 10
-93.8283
 20
58.335
 30
0.0
 10
-92.2376
 20
56.5738
 30
0.0
 10
-91.7155
 20
54.3974
 30
0.0
  0
SPLINE
  5
85
330
1F
100
AcDbEntity
  8
layer 1
 62
     7
370
     9
100
AcDbSpline
210
0.0
220
0.0
230
1.0
 70
    11
 71
     3
 72
    84
 73
    80
 74
     0
 42
0.0000000001
 43
0.0000000001
 12
1.0
 22
0.0
 32
0.0
 13
1.0
 23
0.0
 33
0.0
 40
0.0
 40
0.0
 40
0.0
 40
0.0
 40
0.0476190476190476
 40
0.0476190476190476
 40
0.0476190476190476
 40
0.0476190476190476
 40
0.0952380952380952
 40
0.0952380952380952
 40
0.0952380952380952
 40
0.0952380952380952
 40
0.1428571428571428
 40
0.1428571428571428
 40
0.1428571428571428
 40
0.1428571428571428
 40
0.1904761904761905
 40
0.1904761904761905
 40
0.1904761904761905
 40
0.1904761904761905
 40
0.2380952380952381
 40
0.2380952380952381
 40
0.2380952380952381
 40
0.2380952380952381
 40
0.2857142857142857
 40
0.2857142857142857
 40
0.2857142857142857
 40
0.2857142857142857
 40
0.3333333333333333
 40
0.3333333333333333
 40
0.3333333333333333
 40
0.3333333333333333
 40
0.3809523809523809
 40
0.3809523809523809
 40
0.3809523809523809
 40
0.3809523809523809
 40
0.4285714285714285
 40
0.4285714285714285
 40
0.4285714285714285
 40
0.4285714285714285
 40
0.4761904761904762
 40
0.4761904761904762
 40
0.4761904761904762
 40
0.4761904761904762
 40
0.5238095238095238
 40
0.5238095238095238
 40
0.5238095238095238
 40
0.5238095238095238
 40
0.5714285714285714
 40
0.5714285714285714
 40
0.5714285714285714
 40
0.5714285714285714
 40
0.6190476190476191
 40
0.6190476190476191
 40
0.6190476190476191
 40
0.6190476190476191
 40
0.6666666666666666
 40
0.6666666666666666
 40
0.6666666666666666
 40
0.6666666666666666
 40
0.7142857142857143
 40
0.7142857142857143
 40
0.7142857142857143
 40
0.7142857142857143
 40
0.7619047619047619
 40
0.7619047619047619
 40
0.7619047619047619
 40
0.7619047619047619
 40
0.8095238095238095
 40
0.8095238095238095
 40
0.8095238095238095
 40
0.8095238095238095
 40
0.8571428571428571
 40
0.8571428571428571
 40
0.8571428571428571
 40
0.8571428571428571
 40
0.9047619047619048
 40
0.9047619047619048
 40
0.9047619047619048
 40
0.9047619047619048
 40
1.0
 40
1.0
 40
1.0
 40
1.0
 10
-91.7155
 20
30.1938
 30
0.0
 10
-91.7155
 20
30.1938
 30
0.0
 10
-91.7155
 20
51.3223
 30
0.0
 10
-91.7155
 20
51.3223
 30
0.0
 10
-91.7155
 20
51.3223
 30
0.0
 10
-92.1561
 20
49.4862
 30
0.0
 10
-93.3634
 20
47.9271
 30
0.0
 10
-95.0311
 20
47.0409
 30
0.0
 10
-95.0311
 20
47.0409
 30
0.0
 10
-96.4503
 20
46.3509
 30
0.0
 10
-97.9437
 20
45.8252
 30
0.0
 10
-99.4821
 20
45.474
 30
0.0
 10
-99.4821
 20
45.474
 30
0.0
 10
-100.505
 20
45.3533
 30
0.0
 10
-101.4237
 20
44.7908
 30
0.0
 10
-101.9959
 20
43.9344
 30
0.0
 10
-101.9959
 20
43.9344
 30
0.0
 10
-102.5684
 20
43.0782
 30
0.0
 10
-102.7369
 20
42.0142
 30
0.0
 10
-102.4571
 20
41.023
 30
0.0
 10
-102.4571
 20
41.023
 30
0.0
 10
-102.099
 20
40.313
 30
0.0
 10
-101.4356
 20
39.806
 30
0.0
 10
-100.6565
 20
39.6465
 30
0.0
 10
-100.6565
 20
39.6465
 30
0.0
 10
-99.8775
 20
39.4871
 30
0.0
 10
-99.0684
 20
39.693
 30
0.0
 10
-98.4602
 20
40.2054
 30
0.0
 10
-98.4602
 20
40.2054
 30
0.0
 10
-98.4227
 20
40.2553
 30
0.0
 10
-98.3638
 20
40.2849
 30
0.0
 10
-98.3013
 20
40.2849
 30
0.0
 10
-98.3013
 20
40.2849
 30
0.0
 10
-98.2387
 20
40.2849
 30
0.0
 10
-98.1798
 20
40.2553
 30
0.0
 10
-98.1423
 20
40.2054
 30
0.0
 10
-98.1423
 20
40.2054
 30
0.0
 10
-97.317
 20
38.9479
 30
0.0
 10
-97.5172
 20
37.2786
 30
0.0
 10
-98.6168
 20
36.2521
 30
0.0
 10
-98.6168
 20
36.2521
 30
0.0
 10
-99.7162
 20
35.2254
 30
0.0
 10
-101.3953
 20
35.1398
 30
0.0
 10
-102.5934
 20
36.0496
 30
0.0
 10
-102.5934
 20
36.0496
 30
0.0
 10
-103.6369
 20
36.9401
 30
0.0
 10
-104.4602
 20
38.0598
 30
0.0
 10
-104.9991
 20
39.3214
 30
0.0
 10
-104.9991
 20
39.3214
 30
0.0
 10
-104.2344
 20
35.4768
 30
0.0
 10
-104.2891
 20
31.5144
 30
0.0
 10
-105.1596
 20
27.6924
 30
0.0
 10
-105.1596
 20
27.6924
 30
0.0
 10
-103.2295
 20
30.0929
 30
0.0
 10
-99.729
 20
30.4976
 30
0.0
 10
-97.3021
 20
28.6008
 30
0.0
 10
-97.3021
 20
28.6008
 30
0.0
 10
-96.5807
 20
28.068
 30
0.0
 10
-95.5796
 20
28.1361
 30
0.0
 10
-94.9371
 20
28.7618
 30
0.0
 10
-94.9371
 20
28.7618
 30
0.0
 10
-94.2946
 20
29.3875
 30
0.0
 10
-94.1998
 20
30.3862
 30
0.0
 10
-94.7132
 20
31.1216
 30
0.0
 10
-94.7132
 20
31.1216
 30
0.0
 10
-94.8192
 20
31.2283
 30
0.0
 10
-94.8192
 20
31.4008
 30
0.0
 10
-94.7132
 20
31.5077
 30
0.0
 10
-94.7132
 20
31.5077
 30
0.0
 10
-94.1557
 20
31.7622
 30
0.0
 10
-93.5172
 20
31.772
 30
0.0
 10
-92.9521
 20
31.5347
 30
0.0
 10
-92.9521
 20
31.5347
 30
0.0
 10
-92.3871
 20
31.2976
 30
0.0
 10
-91.9469
 20
30.8349
 30
0.0
 10
-91.7382
 20
30.2586
 30
0.0
 10
-91.7382
 20
30.2586
 30
0.0
 10
-91.7301
 20
30.2371
 30
0.0
 10
-91.7225
 20
30.2156
 30
0.0
 10
-91.7155
 20
30.1938
 30
0.0
  0
SPLINE
  5
86
330
1F
100
AcDbEntity
  8
layer 1
 62
     7
370
     9
100
AcDbSpline
210
0.0
220
0.0
230
1.0
 70
    11
 71
     3
 72
    36
 73
    32
 74
     0
 42
0.0000000001
 43
0.0000000001
 12
1.0
 22
0.0
 32
0.0
 13
1.0
 23
0.0
 33
0.0
 40
0.0
 40
0.0
 40
0.0
 40
0.0
 40
0.1111111111111111
 40
0.1111111111111111
 40
0.1111111111111111
 40
0.1111111111111111
 40
0.2222222222222222
 40
0.2222222222222222
 40
0.2222222222222222
 40
0.2222222222222222
 40
0.3333333333333333
 40
0.3333333333333333
 40
0.3333333333333333
 40
0.3333333333333333
 40
0.4444444444444444
 40
0.4444444444444444
 40
0.4444444444444444
 40
0.4444444444444444
 40
0.5555555555555556
 40
0.5555555555555556
 40
0.5555555555555556
 40
0.5555555555555556
 40
0.6666666666666666
 40
0.6666666666666666
 40
0.6666666666666666
 40
0.6666666666666666
 40
0.7777777777777778
 40
0.7777777777777778
 40
0.7777777777777778
 40
0.7777777777777778
 40
1.0
 40
1.0
 40
1.0
 40
1.0
 10
-91.7155
 20
12.6134
 30
0.0
 10
-91.7155
 20
12.6134
 30
0.0
 10
-91.7155
 20
26.9479
 30
0.0
 10
-91.7155
 20
26.9479
 30
0.0
 10
-91.7155
 20
26.9479
 30
0.0
 10
-91.7301
 20
26.9083
 30
0.0
 10
-91.7452
 20
26.8688
 30
0.0
 10
-91.7609
 20
26.8295
 30
0.0
 10
-91.7609
 20
26.8295
 30
0.0
 10
-92.0733
 20
26.0507
 30
0.0
 10
-92.7064
 20
25.4445
 30
0.0
 10
-93.4981
 20
25.166
 30
0.0
 10
-93.4981
 20
25.166
 30
0.0
 10
-94.2897
 20
24.8877
 30
0.0
 10
-95.1629
 20
24.9642
 30
0.0
 10
-95.894
 20
25.3761
 30
0.0
 10
-95.894
 20
25.3761
 30
0.0
 10
-94.7354
 20
24.0661
 30
0.0
 10
-94.1544
 20
22.344
 30
0.0
 10
-94.2827
 20
20.5998
 30
0.0
 10
-94.2827
 20
20.5998
 30
0.0
 10
-94.411
 20
18.8557
 30
0.0
 10
-95.2376
 20
17.237
 30
0.0
 10
-96.5753
 20
16.1107
 30
0.0
 10
-96.5753
 20
16.1107
 30
0.0
 10
-95.4643
 20
16.3133
 30
0.0
 10
-94.3185
 20
16.0552
 30
0.0
 10
-93.4017
 20
15.3956
 30
0.0
 10
-93.4017
 20
15.3956
 30
0.0
 10
-92.4849
 20
14.7358
 30
0.0
 10
-91.8762
 20
13.7313
 30
0.0
 10
-91.7155
 20
12.6134
 30
0.0
  0
SPLINE
  5
87
330
1F
100
AcDbEntity
  8
layer 1
 62
     7
370
     9
100
AcDbSpline
210
0.0
220
0.0
230
1.0
 70
    11
 71
     3
 72
    44
 73
    40
 74
     0
 42
0.0000000001
 43
0.0000000001
 12
1.0
 22
0.0
 32
0.0
 13
1.0
 23
0.0
 33
0.0
 40
0.0
 40
0.0
 40
0.0
 40
0.0
 40
0.0909090909090909
 40
0.0909090909090909
 40
0.0909090909090909
 40
0.0909090909090909
 40
0.1818181818181818
 40
0.1818181818181818
 40
0.1818181818181818
 40
0.1818181818181818
 40
0.2727272727272727
 40
0.2727272727272727
 40
0.2727272727272727
 40
0.2727272727272727
 40
0.3636363636363636
 40
0.3636363636363636
 40
0.3636363636363636
 40
0.3636363636363636
 40
0.4545454545454545
 40
0.4545454545454545
 40
0.4545454545454545
 40
0.4545454545454545
 40
0.5454545454545454
 40
0.5454545454545454
 40
0.5454545454545454
 40
0.5454545454545454
 40
0.6363636363636364
 40
0.6363636363636364
 40
0.6363636363636364
 40
0.6363636363636364
 40
0.7272727272727273
 40
0.7272727272727273
 40
0.7272727272727273
 40
0.7272727272727273
 40
0.8181818181818182
 40
0.8181818181818182
 40
0.8181818181818182
 40
0.8181818181818182
 40
1.0
 40
1.0
 40
1.0
 40
1.0
 10
-103.3626
 20
22.7333
 30
0.0
 10
-103.3711
 20
22.6818
 30
0.0
 10
-103.4009
 20
22.6361
 30
0.0
 10
-103.4446
 20
22.6075
 30
0.0
 10
-103.4446
 20
22.6075
 30
0.0
 10
-103.4883
 20
22.579
 30
0.0
 10
-103.5419
 20
22.5701
 30
0.0
 10
-103.5925
 20
22.5828
 30
0.0
 10
-103.5925
 20
22.5828
 30
0.0
 10
-104.9919
 20
22.6679
 30
0.0
 10
-106.09
 20
23.8156
 30
0.0
 10
-106.1133
 20
25.2171
 30
0.0
 10
-106.1133
 20
25.2171
 30
0.0
 10
-106.4057
 20
22.5968
 30
0.0
 10
-108.0402
 20
20.3171
 30
0.0
 10
-110.4282
 20
19.199
 30
0.0
 10
-110.4282
 20
19.199
 30
0.0
 10
-107.3929
 20
17.2744
 30
0.0
 10
-103.6042
 20
16.9688
 30
0.0
 10
-100.2997
 20
18.3816
 30
0.0
 10
-100.2997
 20
18.3816
 30
0.0
 10
-99.1216
 20
18.8738
 30
0.0
 10
-98.2725
 20
19.9286
 30
0.0
 10
-98.0433
 20
21.1846
 30
0.0
 10
-98.0433
 20
21.1846
 30
0.0
 10
-97.8141
 20
22.4407
 30
0.0
 10
-98.2359
 20
23.7273
 30
0.0
 10
-99.1642
 20
24.6039
 30
0.0
 10
-99.1642
 20
24.6039
 30
0.0
 10
-99.8855
 20
25.2121
 30
0.0
 10
-100.8836
 20
25.3722
 30
0.0
 10
-101.7588
 20
25.0202
 30
0.0
 10
-101.7588
 20
25.0202
 30
0.0
 10
-102.634
 20
24.6681
 30
0.0
 10
-103.2434
 20
23.8616
 30
0.0
 10
-103.3427
 20
22.9235
 30
0.0
 10
-103.3427
 20
22.9235
 30
0.0
 10
-103.3518
 20
22.8603
 30
0.0
 10
-103.3584
 20
22.797
 30
0.0
 10
-103.3626
 20
22.7333
 30
0.0
  0
SPLINE
  5
88
330
1F
100
AcDbEntity
  8
layer 1
 62
     7
370
     9
100
AcDbSpline
210
0.0
220
0.0
230
1.0
 70
    11
 71
     3
 72
    28
 73
    24
 74
     0
 42
0.0000000001
 43
0.0000000001
 12
1.0
 22
0.0
 32
0.0
 13
1.0
 23
0.0
 33
0.0
 40
0.0
 40
0.0
 40
0.0
 40
0.0
 40
0.1428571428571428
 40
0.1428571428571428
 40
0.1428571428571428
 40
0.1428571428571428
 40
0.2857142857142857
 40
0.2857142857142857
 40
0.2857142857142857
 40
0.2857142857142857
 40
0.4285714285714285
 40
0.4285714285714285
 40
0.4285714285714285
 40
0.4285714285714285
 40
0.5714285714285714
 40
0.5714285714285714
 40
0.5714285714285714
 40
0.5714285714285714
 40
0.7142857142857143
 40
0.7142857142857143
 40
0.7142857142857143
 40
0.7142857142857143
 40
1.0
 40
1.0
 40
1.0
 40
1.0
 10
-110.5645
 20
42.5444
 30
0.0
 10
-110.2756
 20
44.5257
 30
0.0
 10
-109.7417
 20
46.4632
 30
0.0
 10
-108.9747
 20
48.3126
 30
0.0
 10
-108.9747
 20
48.3126
 30
0.0
 10
-109.6291
 20
43.3997
 30
0.0
 10
-109.3516
 20
38.4072
 30
0.0
 10
-108.1572
 20
33.5969
 30
0.0
 10
-108.1572
 20
33.5969
 30
0.0
 10
-107.4282
 20
31.3188
 30
0.0
 10
-107.3339
 20
28.8848
 30
0.0
 10
-107.8846
 20
26.5571
 30
0.0
 10
-107.8846
 20
26.5571
 30
0.0
 10
-108.0394
 20
28.3536
 30
0.0
 10
-109.0259
 20
29.9743
 30
0.0
 10
-110.5505
 20
30.9373
 30
0.0
 10
-110.5505
 20
30.9373
 30
0.0
 10
-112.0751
 20
31.9002
 30
0.0
 10
-113.9626
 20
32.0945
 30
0.0
 10
-115.6514
 20
31.4623
 30
0.0
 10
-115.6514
 20
31.4623
 30
0.0
 10
-112.8448
 20
34.5377
 30
0.0
 10
-111.0668
 20
38.4114
 30
0.0
 10
-110.5645
 20
42.5444
 30
0.0
  0
SPLINE
  5
89
330
1F
100
AcDbEntity
  8
layer 1
 62
     7
370
     9
100
AcDbSpline
210
0.0
220
0.0
230
1.0
 70
    11
 71
     3
 72
    48
 73
    44
 74
     0
 42
0.0000000001
 43
0.0000000001
 12
1.0
 22
0.0
 32
0.0
 13
1.0
 23
0.0
 33
0.0
 40
0.0
 40
0.0
 40
0.0
 40
0.0
 40
0.0833333333333333
 40
0.0833333333333333
 40
0.0833333333333333
 40
0.0833333333333333
 40
0.1666666666666667
 40
0.1666666666666667
 40
0.1666666666666667
 40
0.1666666666666667
 40
0.25
 40
0.25
 40
0.25
 40
0.25
 40
0.3333333333333333
 40
0.3333333333333333
 40
0.3333333333333333
 40
0.3333333333333333
 40
0.4166666666666667
 40
0.4166666666666667
 40
0.4166666666666667
 40
0.4166666666666667
 40
0.5
 40
0.5
 40
0.5
 40
0.5
 40
0.5833333333333334
 40
0.5833333333333334
 40
0.5833333333333334
 40
0.5833333333333334
 40
0.6666666666666666
 40
0.6666666666666666
 40
0.6666666666666666
 40
0.6666666666666666
 40
0.75
 40
0.75
 40
0.75
 40
0.75
 40
0.8333333333333334
 40
0.8333333333333334
 40
0.8333333333333334
 40
0.8333333333333334
 40
1.0
 40
1.0
 40
1.0
 40
1.0
 10
-103.9787
 20
83.1939
 30
0.0
 10
-105.6248
 20
86.7466
 30
0.0
 10
-109.2403
 20
88.9666
 30
0.0
 10
-113.1532
 20
88.8272
 30
0.0
 10
-113.1532
 20
88.8272
 30
0.0
 10
-113.251
 20
88.8272
 30
0.0
 10
-113.3414
 20
88.7751
 30
0.0
 10
-113.3888
 20
88.6894
 30
0.0
 10
-113.3888
 20
88.6894
 30
0.0
 10
-113.4364
 20
88.6037
 30
0.0
 10
-113.433
 20
88.4994
 30
0.0
 10
-113.3803
 20
88.4171
 30
0.0
 10
-113.3803
 20
88.4171
 30
0.0
 10
-110.7587
 20
84.6762
 30
0.0
 10
-109.2615
 20
80.2647
 30
0.0
 10
-109.0656
 20
75.7003
 30
0.0
 10
-109.0656
 20
75.7003
 30
0.0
 10
-109.0133
 20
69.5477
 30
0.0
 10
-110.896
 20
63.533
 30
0.0
 10
-114.4477
 20
58.5098
 30
0.0
 10
-114.4477
 20
58.5098
 30
0.0
 10
-116.5167
 20
55.4999
 30
0.0
 10
-118.9118
 20
52.727
 30
0.0
 10
-121.5898
 20
50.2429
 30
0.0
 10
-121.5898
 20
50.2429
 30
0.0
 10
-121.6453
 20
50.1621
 30
0.0
 10
-121.6394
 20
50.0539
 30
0.0
 10
-121.5755
 20
49.9794
 30
0.0
 10
-121.5755
 20
49.9794
 30
0.0
 10
-121.5118
 20
49.9048
 30
0.0
 10
-121.4058
 20
49.8826
 30
0.0
 10
-121.3174
 20
49.925
 30
0.0
 10
-121.3174
 20
49.925
 30
0.0
 10
-121.3174
 20
49.925
 30
0.0
 10
-120.5566
 20
50.3565
 30
0.0
 10
-120.5566
 20
50.3565
 30
0.0
 10
-120.5566
 20
50.3565
 30
0.0
 10
-113.6688
 20
54.8193
 30
0.0
 10
-108.1386
 20
61.0878
 30
0.0
 10
-104.5691
 20
68.4789
 30
0.0
 10
-104.5691
 20
68.4789
 30
0.0
 10
-102.514
 20
73.1324
 30
0.0
 10
-102.303
 20
78.3909
 30
0.0
 10
-103.9787
 20
83.1939
 30
0.0
  0
SPLINE
  5
8A
330
1F
100
AcDbEntity
  8
layer 1
 62
     7
370
     9
100
AcDbSpline
210
0.0
220
0.0
230
1.0
 70
    11
 71
     3
 72
    36
 73
    32
 74
     0
 42
0.0000000001
 43
0.0000000001
 12
1.0
 22
0.0
 32
0.0
 13
1.0
 23
0.0
 33
0.0
 40
0.0
 40
0.0
 40
0.0
 40
0.0
 40
0.1111111111111111
 40
0.1111111111111111
 40
0.1111111111111111
 40
0.1111111111111111
 40
0.2222222222222222
 40
0.2222222222222222
 40
0.2222222222222222
 40
0.2222222222222222
 40
0.3333333333333333
 40
0.3333333333333333
 40
0.3333333333333333
 40
0.3333333333333333
 40
0.4444444444444444
 40
0.4444444444444444
 40
0.4444444444444444
 40
0.4444444444444444
 40
0.5555555555555556
 40
0.5555555555555556
 40
0.5555555555555556
 40
0.5555555555555556
 40
0.6666666666666666
 40
0.6666666666666666
 40
0.6666666666666666
 40
0.6666666666666666
 40
0.7777777777777778
 40
0.7777777777777778
 40
0.7777777777777778
 40
0.7777777777777778
 40
1.0
 40
1.0
 40
1.0
 40
1.0
 10
-98.7328
 20
64.096
 30
0.0
 10
-98.7126
 20
64.017
 30
0.0
 10
-98.6467
 20
63.9598
 30
0.0
 10
-98.5665
 20
63.9498
 30
0.0
 10
-98.5665
 20
63.9498
 30
0.0
 10
-98.4863
 20
63.9397
 30
0.0
 10
-98.4081
 20
63.98
 30
0.0
 10
-98.3694
 20
64.0506
 30
0.0
 10
-98.3694
 20
64.0506
 30
0.0
 10
-97.9247
 20
64.738
 30
0.0
 10
-97.1202
 20
65.1026
 30
0.0
 10
-96.3098
 20
64.9867
 30
0.0
 10
-96.3098
 20
64.9867
 30
0.0
 10
-95.4993
 20
64.869
 30
0.0
 10
-94.8314
 20
64.2909
 30
0.0
 10
-94.5996
 20
63.5061
 30
0.0
 10
-94.5996
 20
63.5061
 30
0.0
 10
-94.55
 20
61.7869
 30
0.0
 10
-95.7344
 20
60.2777
 30
0.0
 10
-97.4156
 20
59.9164
 30
0.0
 10
-97.4156
 20
59.9164
 30
0.0
 10
-99.3554
 20
59.824
 30
0.0
 10
-101.2844
 20
59.5736
 30
0.0
 10
-103.1838
 20
59.1686
 30
0.0
 10
-103.1838
 20
59.1686
 30
0.0
 10
-101.3597
 20
61.118
 30
0.0
 10
-99.9258
 20
63.4002
 30
0.0
 10
-98.9598
 20
65.8891
 30
0.0
 10
-98.9598
 20
65.8891
 30
0.0
 10
-99.1088
 20
65.2841
 30
0.0
 10
-99.0279
 20
64.6455
 30
0.0
 10
-98.7328
 20
64.096
 30
0.0
  0
SPLINE
  5
8B
330
1F
100
AcDbEntity
  8
layer 1
 62
     7
370
     9
100
AcDbSpline
210
0.0
220
0.0
230
1.0
 70
    11
 71
     3
 72
    52
 73
    48
 74
     0
 42
0.0000000001
 43
0.0000000001
 12
1.0
 22
0.0
 32
0.0
 13
1.0
 23
0.0
 33
0.0
 40
0.0
 40
0.0
 40
0.0
 40
0.0
 40
0.0769230769230769
 40
0.0769230769230769
 40
0.0769230769230769
 40
0.0769230769230769
 40
0.1538461538461539
 40
0.1538461538461539
 40
0.1538461538461539
 40
0.1538461538461539
 40
0.2307692307692308
 40
0.2307692307692308
 40
0.2307692307692308
 40
0.2307692307692308
 40
0.3076923076923077
 40
0.3076923076923077
 40
0.3076923076923077
 40
0.3076923076923077
 40
0.3846153846153846
 40
0.3846153846153846
 40
0.3846153846153846
 40
0.3846153846153846
 40
0.4615384615384616
 40
0.4615384615384616
 40
0.4615384615384616
 40
0.4615384615384616
 40
0.5384615384615384
 40
0.5384615384615384
 40
0.5384615384615384
 40
0.5384615384615384
 40
0.6153846153846154
 40
0.6153846153846154
 40
0.6153846153846154
 40
0.6153846153846154
 40
0.6923076923076923
 40
0.6923076923076923
 40
0.6923076923076923
 40
0.6923076923076923
 40
0.7692307692307693
 40
0.7692307692307693
 40
0.7692307692307693
 40
0.7692307692307693
 40
0.8461538461538461
 40
0.8461538461538461
 40
0.8461538461538461
 40
0.8461538461538461
 40
1.0
 40
1.0
 40
1.0
 40
1.0
 10
-105.2957
 20
41.4544
 30
0.0
 10
-105.0499
 20
44.2618
 30
0.0
 10
-103.0996
 20
46.6275
 30
0.0
 10
-100.3906
 20
47.4043
 30
0.0
 10
-100.3906
 20
47.4043
 30
0.0
 10
-102.1764
 20
47.7503
 30
0.0
 10
-103.3469
 20
49.4744
 30
0.0
 10
-103.0095
 20
51.262
 30
0.0
 10
-103.0095
 20
51.262
 30
0.0
 10
-102.6719
 20
53.0494
 30
0.0
 10
-100.9534
 20
54.2277
 30
0.0
 10
-99.1642
 20
53.9
 30
0.0
 10
-99.1642
 20
53.9
 30
0.0
 10
-99.0977
 20
53.9185
 30
0.0
 10
-99.0257
 20
53.9
 30
0.0
 10
-98.978
 20
53.8496
 30
0.0
 10
-98.978
 20
53.8496
 30
0.0
 10
-98.9301
 20
53.7992
 30
0.0
 10
-98.9143
 20
53.7269
 30
0.0
 10
-98.9371
 20
53.6613
 30
0.0
 10
-98.9371
 20
53.6613
 30
0.0
 10
-99.5676
 20
53.0138
 30
0.0
 10
-99.698
 20
52.0294
 30
0.0
 10
-99.2577
 20
51.2405
 30
0.0
 10
-99.2577
 20
51.2405
 30
0.0
 10
-98.8175
 20
50.4518
 30
0.0
 10
-97.9111
 20
50.046
 30
0.0
 10
-97.0296
 20
50.2429
 30
0.0
 10
-97.0296
 20
50.2429
 30
0.0
 10
-96.1359
 20
50.4249
 30
0.0
 10
-95.3594
 20
50.9731
 30
0.0
 10
-94.8889
 20
51.7544
 30
0.0
 10
-94.8889
 20
51.7544
 30
0.0
 10
-94.4185
 20
52.5357
 30
0.0
 10
-94.2971
 20
53.4782
 30
0.0
 10
-94.5542
 20
54.3538
 30
0.0
 10
-94.5542
 20
54.3538
 30
0.0
 10
-95.2456
 20
56.6629
 30
0.0
 10
-97.5288
 20
58.1149
 30
0.0
 10
-99.9136
 20
57.7603
 30
0.0
 10
-99.9136
 20
57.7603
 30
0.0
 10
-103.2772
 20
57.0864
 30
0.0
 10
-105.7664
 20
54.2344
 30
0.0
 10
-105.977
 20
50.8108
 30
0.0
 10
-105.977
 20
50.8108
 30
0.0
 10
-106.2044
 20
47.6754
 30
0.0
 10
-105.9749
 20
44.5238
 30
0.0
 10
-105.2957
 20
41.4544
 30
0.0
  0
SPLINE
  5
8C
330
1F
100
AcDbEntity
  8
layer 1
 62
     7
370
     9
100
AcDbSpline
210
0.0
220
0.0
230
1.0
 70
    11
 71
     3
 72
    96
 73
    92
 74
     0
 42
0.0000000001
 43
0.0000000001
 12
1.0
 22
0.0
 32
0.0
 13
1.0
 23
0.0
 33
0.0
 40
0.0
 40
0.0
 40
0.0
 40
0.0
 40
0.0416666666666667
 40
0.0416666666666667
 40
0.0416666666666667
 40
0.0416666666666667
 40
0.0833333333333333
 40
0.0833333333333333
 40
0.0833333333333333
 40
0.0833333333333333
 40
0.125
 40
0.125
 40
0.125
 40
0.125
 40
0.1666666666666667
 40
0.1666666666666667
 40
0.1666666666666667
 40
0.1666666666666667
 40
0.2083333333333333
 40
0.2083333333333333
 40
0.2083333333333333
 40
0.2083333333333333
 40
0.25
 40
0.25
 40
0.25
 40
0.25
 40
0.2916666666666667
 40
0.2916666666666667
 40
0.2916666666666667
 40
0.2916666666666667
 40
0.3333333333333333
 40
0.3333333333333333
 40
0.3333333333333333
 40
0.3333333333333333
 40
0.375
 40
0.375
 40
0.375
 40
0.375
 40
0.4166666666666667
 40
0.4166666666666667
 40
0.4166666666666667
 40
0.4166666666666667
 40
0.4583333333333333
 40
0.4583333333333333
 40
0.4583333333333333
 40
0.4583333333333333
 40
0.5
 40
0.5
 40
0.5
 40
0.5
 40
0.5416666666666666
 40
0.5416666666666666
 40
0.5416666666666666
 40
0.5416666666666666
 40
0.5833333333333334
 40
0.5833333333333334
 40
0.5833333333333334
 40
0.5833333333333334
 40
0.625
 40
0.625
 40
0.625
 40
0.625
 40
0.6666666666666666
 40
0.6666666666666666
 40
0.6666666666666666
 40
0.6666666666666666
 40
0.7083333333333334
 40
0.7083333333333334
 40
0.7083333333333334
 40
0.7083333333333334
 40
0.75
 40
0.75
 40
0.75
 40
0.75
 40
0.7916666666666666
 40
0.7916666666666666
 40
0.7916666666666666
 40
0.7916666666666666
 40
0.8333333333333334
 40
0.8333333333333334
 40
0.8333333333333334
 40
0.8333333333333334
 40
0.875
 40
0.875
 40
0.875
 40
0.875
 40
0.9166666666666666
 40
0.9166666666666666
 40
0.9166666666666666
 40
0.9166666666666666
 40
1.0
 40
1.0
 40
1.0
 40
1.0
 10
-123.1226
 20
108.5385
 30
0.0
 10
-121.7073
 20
109.7082
 30
0.0
 10
-120.6455
 20
111.2492
 30
0.0
 10
-120.057
 20
112.9887
 30
0.0
 10
-120.057
 20
112.9887
 30
0.0
 10
-120.2721
 20
109.1099
 30
0.0
 10
-118.6174
 20
105.3622
 30
0.0
 10
-115.6058
 20
102.9069
 30
0.0
 10
-115.6058
 20
102.9069
 30
0.0
 10
-111.3995
 20
99.9508
 30
0.0
 10
-106.014
 20
99.24
 30
0.0
 10
-101.1844
 20
100.9995
 30
0.0
 10
-101.1844
 20
100.9995
 30
0.0
 10
-102.0615
 20
100.1189
 30
0.0
 10
-102.3613
 20
98.8148
 30
0.0
 10
-101.9575
 20
97.6384
 30
0.0
 10
-101.9575
 20
97.6384
 30
0.0
 10
-101.9188
 20
97.5325
 30
0.0
 10
-101.8225
 20
97.4585
 30
0.0
 10
-101.7108
 20
97.4484
 30
0.0
 10
-101.7108
 20
97.4484
 30
0.0
 10
-101.599
 20
97.4401
 30
0.0
 10
-101.4916
 20
97.4955
 30
0.0
 10
-101.4351
 20
97.593
 30
0.0
 10
-101.4351
 20
97.593
 30
0.0
 10
-100.8615
 20
98.1862
 30
0.0
 10
-100.0551
 20
98.4955
 30
0.0
 10
-99.2318
 20
98.4383
 30
0.0
 10
-99.2318
 20
98.4383
 30
0.0
 10
-98.4085
 20
98.3812
 30
0.0
 10
-97.6523
 20
97.9644
 30
0.0
 10
-97.1658
 20
97.2972
 30
0.0
 10
-97.1658
 20
97.2972
 30
0.0
 10
-96.7945
 20
96.2502
 30
0.0
 10
-97.0159
 20
95.0856
 30
0.0
 10
-97.7451
 20
94.247
 30
0.0
 10
-97.7451
 20
94.247
 30
0.0
 10
-98.4743
 20
93.4101
 30
0.0
 10
-99.5981
 20
93.0302
 30
0.0
 10
-100.6858
 20
93.2555
 30
0.0
 10
-100.6858
 20
93.2555
 30
0.0
 10
-102.3082
 20
93.6638
 30
0.0
 10
-103.8457
 20
94.3545
 30
0.0
 10
-105.2277
 20
95.299
 30
0.0
 10
-105.2277
 20
95.299
 30
0.0
 10
-108.5426
 20
97.4535
 30
0.0
 10
-112.845
 20
97.3375
 30
0.0
 10
-116.0374
 20
95.0032
 30
0.0
 10
-116.0374
 20
95.0032
 30
0.0
 10
-116.1226
 20
94.9276
 30
0.0
 10
-116.2137
 20
94.8604
 30
0.0
 10
-116.31
 20
94.7982
 30
0.0
 10
-116.31
 20
94.7982
 30
0.0
 10
-116.0244
 20
96.0452
 30
0.0
 10
-116.357
 20
97.3544
 30
0.0
 10
-117.2035
 20
98.3123
 30
0.0
 10
-117.2035
 20
98.3123
 30
0.0
 10
-118.0499
 20
99.2719
 30
0.0
 10
-119.3066
 20
99.7643
 30
0.0
 10
-120.5793
 20
99.6365
 30
0.0
 10
-120.5793
 20
99.6365
 30
0.0
 10
-119.9659
 20
100.3525
 30
0.0
 10
-119.6635
 20
101.2852
 30
0.0
 10
-119.739
 20
102.2246
 30
0.0
 10
-119.739
 20
102.2246
 30
0.0
 10
-119.7968
 20
102.3456
 30
0.0
 10
-119.9235
 20
102.4179
 30
0.0
 10
-120.057
 20
102.4061
 30
0.0
 10
-120.057
 20
102.4061
 30
0.0
 10
-122.0106
 20
102.6918
 30
0.0
 10
-124.0014
 20
102.265
 30
0.0
 10
-125.6662
 20
101.2028
 30
0.0
 10
-125.6662
 20
101.2028
 30
0.0
 10
-124.1375
 20
102.4011
 30
0.0
 10
-122.844
 20
103.8716
 30
0.0
 10
-121.851
 20
105.5404
 30
0.0
 10
-121.851
 20
105.5404
 30
0.0
 10
-121.3686
 20
106.3185
 30
0.0
 10
-121.0157
 20
107.1705
 30
0.0
 10
-120.8063
 20
108.0612
 30
0.0
 10
-120.8063
 20
108.0612
 30
0.0
 10
-120.7505
 20
108.1722
 30
0.0
 10
-120.7522
 20
108.3015
 30
0.0
 10
-120.8112
 20
108.4108
 30
0.0
 10
-120.8112
 20
108.4108
 30
0.0
 10
-120.87
 20
108.52
 30
0.0
 10
-120.9786
 20
108.5923
 30
0.0
 10
-121.1016
 20
108.6057
 30
0.0
 10
-121.1016
 20
108.6057
 30
0.0
 10
-121.7708
 20
108.7469
 30
0.0
 10
-122.4644
 20
108.7234
 30
0.0
 10
-123.1226
 20
108.5385
 30
0.0
  0
SPLINE
  5
8D
330
1F
100
AcDbEntity
  8
layer 1
 62
     7
370
     9
100
AcDbSpline
210
0.0
220
0.0
230
1.0
 70
    11
 71
     3
 72
    28
 73
    24
 74
     0
 42
0.0000000001
 43
0.0000000001
 12
1.0
 22
0.0
 32
0.0
 13
1.0
 23
0.0
 33
0.0
 40
0.0
 40
0.0
 40
0.0
 40
0.0
 40
0.1428571428571428
 40
0.1428571428571428
 40
0.1428571428571428
 40
0.1428571428571428
 40
0.2857142857142857
 40
0.2857142857142857
 40
0.2857142857142857
 40
0.2857142857142857
 40
0.4285714285714285
 40
0.4285714285714285
 40
0.4285714285714285
 40
0.4285714285714285
 40
0.5714285714285714
 40
0.5714285714285714
 40
0.5714285714285714
 40
0.5714285714285714
 40
0.7142857142857143
 40
0.7142857142857143
 40
0.7142857142857143
 40
0.7142857142857143
 40
1.0
 40
1.0
 40
1.0
 40
1.0
 10
-103.7066
 20
107.9453
 30
0.0
 10
-97.0116
 20
109.088
 30
0.0
 10
-92.0188
 20
114.7432
 30
0.0
 10
-91.7155
 20
121.5276
 30
0.0
 10
-91.7155
 20
121.5276
 30
0.0
 10
-93.5098
 20
118.9328
 30
0.0
 10
-96.5113
 20
117.4405
 30
0.0
 10
-99.6639
 20
117.5766
 30
0.0
 10
-99.6639
 20
117.5766
 30
0.0
 10
-98.8726
 20
113.8743
 30
0.0
 10
-100.529
 20
110.0779
 30
0.0
 10
-103.782
 20
108.1402
 30
0.0
 10
-103.782
 20
108.1402
 30
0.0
 10
-103.7814
 20
108.1385
 30
0.0
 10
-103.7807
 20
108.1352
 30
0.0
 10
-103.7799
 20
108.1318
 30
0.0
 10
-103.7799
 20
108.1318
 30
0.0
 10
-103.7701
 20
108.0999
 30
0.0
 10
-103.7597
 20
108.068
 30
0.0
 10
-103.7474
 20
108.0377
 30
0.0
 10
-103.7474
 20
108.0377
 30
0.0
 10
-103.7352
 20
108.0058
 30
0.0
 10
-103.7212
 20
107.9755
 30
0.0
 10
-103.7066
 20
107.9453
 30
0.0
  0
SPLINE
  5
8E
330
1F
100
AcDbEntity
  8
layer 1
 62
     7
370
     9
100
AcDbSpline
210
0.0
220
0.0
230
1.0
 70
    11
 71
     3
 72
    24
 73
    20
 74
     0
 42
0.0000000001
 43
0.0000000001
 12
1.0
 22
0.0
 32
0.0
 13
1.0
 23
0.0
 33
0.0
 40
0.0
 40
0.0
 40
0.0
 40
0.0
 40
0.1666666666666667
 40
0.1666666666666667
 40
0.1666666666666667
 40
0.1666666666666667
 40
0.3333333333333333
 40
0.3333333333333333
 40
0.3333333333333333
 40
0.3333333333333333
 40
0.5
 40
0.5
 40
0.5
 40
0.5
 40
0.6666666666666666
 40
0.6666666666666666
 40
0.6666666666666666
 40
0.6666666666666666
 40
1.0
 40
1.0
 40
1.0
 40
1.0
 10
-104.9777
 20
102.7237
 30
0.0
 10
-108.0453
 20
102.3843
 30
0.0
 10
-111.05
 20
103.7657
 30
0.0
 10
-112.7904
 20
106.3134
 30
0.0
 10
-112.7904
 20
106.3134
 30
0.0
 10
-114.5308
 20
108.8629
 30
0.0
 10
-114.7227
 20
112.1635
 30
0.0
 10
-113.2895
 20
114.8961
 30
0.0
 10
-113.2895
 20
114.8961
 30
0.0
 10
-113.3791
 20
112.9786
 30
0.0
 10
-112.6845
 20
111.1047
 30
0.0
 10
-111.3654
 20
109.7082
 30
0.0
 10
-111.3654
 20
109.7082
 30
0.0
 10
-110.0462
 20
108.3133
 30
0.0
 10
-108.2159
 20
107.5134
 30
0.0
 10
-106.295
 20
107.4932
 30
0.0
 10
-106.295
 20
107.4932
 30
0.0
 10
-106.7045
 20
105.7824
 30
0.0
 10
-106.2071
 20
103.9825
 30
0.0
 10
-104.9777
 20
102.7237
 30
0.0
  0
SPLINE
  5
8F
330
1F
100
AcDbEntity
  8
layer 1
 62
     7
370
     9
100
AcDbSpline
210
0.0
220
0.0
230
1.0
 70
    11
 71
     3
 72
    48
 73
    44
 74
     0
 42
0.0000000001
 43
0.0000000001
 12
1.0
 22
0.0
 32
0.0
 13
1.0
 23
0.0
 33
0.0
 40
0.0
 40
0.0
 40
0.0
 40
0.0
 40
0.0833333333333333
 40
0.0833333333333333
 40
0.0833333333333333
 40
0.0833333333333333
 40
0.1666666666666667
 40
0.1666666666666667
 40
0.1666666666666667
 40
0.1666666666666667
 40
0.25
 40
0.25
 40
0.25
 40
0.25
 40
0.3333333333333333
 40
0.3333333333333333
 40
0.3333333333333333
 40
0.3333333333333333
 40
0.4166666666666667
 40
0.4166666666666667
 40
0.4166666666666667
 40
0.4166666666666667
 40
0.5
 40
0.5
 40
0.5
 40
0.5
 40
0.5833333333333334
 40
0.5833333333333334
 40
0.5833333333333334
 40
0.5833333333333334
 40
0.6666666666666666
 40
0.6666666666666666
 40
0.6666666666666666
 40
0.6666666666666666
 40
0.75
 40
0.75
 40
0.75
 40
0.75
 40
0.8333333333333334
 40
0.8333333333333334
 40
0.8333333333333334
 40
0.8333333333333334
 40
1.0
 40
1.0
 40
1.0
 40
1.0
 10
-107.4306
 20
115.7599
 30
0.0
 10
-107.3363
 20
115.8321
 30
0.0
 10
-107.2852
 20
115.9481
 30
0.0
 10
-107.2943
 20
116.0674
 30
0.0
 10
-107.2943
 20
116.0674
 30
0.0
 10
-107.3035
 20
116.1867
 30
0.0
 10
-107.3717
 20
116.2926
 30
0.0
 10
-107.4759
 20
116.3498
 30
0.0
 10
-107.4759
 20
116.3498
 30
0.0
 10
-108.648
 20
117.1749
 30
0.0
 10
-110.171
 20
117.3144
 30
0.0
 10
-111.4728
 20
116.7128
 30
0.0
 10
-111.4728
 20
116.7128
 30
0.0
 10
-111.391
 20
117.4892
 30
0.0
 10
-111.6318
 20
118.264
 30
0.0
 10
-112.1386
 20
118.8572
 30
0.0
 10
-112.1386
 20
118.8572
 30
0.0
 10
-112.6453
 20
119.4487
 30
0.0
 10
-113.3737
 20
119.8084
 30
0.0
 10
-114.1525
 20
119.847
 30
0.0
 10
-114.1525
 20
119.847
 30
0.0
 10
-111.5787
 20
122.3578
 30
0.0
 10
-107.5969
 20
122.7174
 30
0.0
 10
-104.6144
 20
120.7108
 30
0.0
 10
-104.6144
 20
120.7108
 30
0.0
 10
-102.2583
 20
118.8908
 30
0.0
 10
-101.617
 20
115.607
 30
0.0
 10
-103.1157
 20
113.034
 30
0.0
 10
-103.1157
 20
113.034
 30
0.0
 10
-103.5928
 20
112.2794
 30
0.0
 10
-104.3598
 20
111.7551
 30
0.0
 10
-105.2364
 20
111.582
 30
0.0
 10
-105.2364
 20
111.582
 30
0.0
 10
-106.1128
 20
111.4106
 30
0.0
 10
-107.0215
 20
111.6072
 30
0.0
 10
-107.7483
 20
112.1265
 30
0.0
 10
-107.7483
 20
112.1265
 30
0.0
 10
-108.3026
 20
112.5937
 30
0.0
 10
-108.5947
 20
113.3029
 30
0.0
 10
-108.5315
 20
114.0255
 30
0.0
 10
-108.5315
 20
114.0255
 30
0.0
 10
-108.4683
 20
114.7482
 30
0.0
 10
-108.0576
 20
115.3952
 30
0.0
 10
-107.4306
 20
115.7599
 30
0.0
  0
SPLINE
  5
90
330
1F
100
AcDbEntity
  8
layer 1
 62
     7
370
     9
100
AcDbSpline
210
0.0
220
0.0
230
1.0
 70
    11
 71
     3
 72
    28
 73
    24
 74
     0
 42
0.0000000001
 43
0.0000000001
 12
1.0
 22
0.0
 32
0.0
 13
1.0
 23
0.0
 33
0.0
 40
0.0
 40
0.0
 40
0.0
 40
0.0
 40
0.1428571428571428
 40
0.1428571428571428
 40
0.1428571428571428
 40
0.1428571428571428
 40
0.2857142857142857
 40
0.2857142857142857
 40
0.2857142857142857
 40
0.2857142857142857
 40
0.4285714285714285
 40
0.4285714285714285
 40
0.4285714285714285
 40
0.4285714285714285
 40
0.5714285714285714
 40
0.5714285714285714
 40
0.5714285714285714
 40
0.5714285714285714
 40
0.7142857142857143
 40
0.7142857142857143
 40
0.7142857142857143
 40
0.7142857142857143
 40
1.0
 40
1.0
 40
1.0
 40
1.0
 10
-122.01
 20
96.956
 30
0.0
 10
-126.9115
 20
96.5393
 30
0.0
 10
-131.1359
 20
93.3412
 30
0.0
 10
-132.865
 20
88.7347
 30
0.0
 10
-132.865
 20
88.7347
 30
0.0
 10
-128.3823
 20
91.5531
 30
0.0
 10
-122.6195
 20
91.2808
 30
0.0
 10
-118.4218
 20
88.0541
 30
0.0
 10
-118.4218
 20
88.0541
 30
0.0
 10
-119.5625
 20
89.8019
 30
0.0
 10
-119.2108
 20
92.1278
 30
0.0
 10
-117.6044
 20
93.4588
 30
0.0
 10
-117.6044
 20
93.4588
 30
0.0
 10
-118.1744
 20
93.2689
 30
0.0
 10
-118.779
 20
93.2084
 30
0.0
 10
-119.3757
 20
93.2773
 30
0.0
 10
-119.3757
 20
93.2773
 30
0.0
 10
-119.0247
 20
94.1277
 30
0.0
 10
-119.137
 20
95.099
 30
0.0
 10
-119.6726
 20
95.8469
 30
0.0
 10
-119.6726
 20
95.8469
 30
0.0
 10
-120.2084
 20
96.5947
 30
0.0
 10
-121.0917
 20
97.0149
 30
0.0
 10
-122.01
 20
96.956
 30
0.0
  0
SPLINE
  5
91
330
1F
100
AcDbEntity
  8
layer 1
 62
     7
370
     9
100
AcDbSpline
210
0.0
220
0.0
230
1.0
 70
    11
 71
     3
 72
    36
 73
    32
 74
     0
 42
0.0000000001
 43
0.0000000001
 12
1.0
 22
0.0
 32
0.0
 13
1.0
 23
0.0
 33
0.0
 40
0.0
 40
0.0
 40
0.0
 40
0.0
 40
0.1111111111111111
 40
0.1111111111111111
 40
0.1111111111111111
 40
0.1111111111111111
 40
0.2222222222222222
 40
0.2222222222222222
 40
0.2222222222222222
 40
0.2222222222222222
 40
0.3333333333333333
 40
0.3333333333333333
 40
0.3333333333333333
 40
0.3333333333333333
 40
0.4444444444444444
 40
0.4444444444444444
 40
0.4444444444444444
 40
0.4444444444444444
 40
0.5555555555555556
 40
0.5555555555555556
 40
0.5555555555555556
 40
0.5555555555555556
 40
0.6666666666666666
 40
0.6666666666666666
 40
0.6666666666666666
 40
0.6666666666666666
 40
0.7777777777777778
 40
0.7777777777777778
 40
0.7777777777777778
 40
0.7777777777777778
 40
1.0
 40
1.0
 40
1.0
 40
1.0
 10
-132.2291
 20
80.1521
 30
0.0
 10
-133.1047
 20
82.1251
 30
0.0
 10
-132.5019
 20
84.4409
 30
0.0
 10
-130.7758
 20
85.7383
 30
0.0
 10
-130.7758
 20
85.7383
 30
0.0
 10
-127.0184
 20
87.5348
 30
0.0
 10
-122.5785
 20
87.1331
 30
0.0
 10
-119.2058
 20
84.6879
 30
0.0
 10
-119.2058
 20
84.6879
 30
0.0
 10
-115.833
 20
82.2444
 30
0.0
 10
-114.0683
 20
78.1505
 30
0.0
 10
-114.6067
 20
74.0197
 30
0.0
 10
-114.6067
 20
74.0197
 30
0.0
 10
-115.1944
 20
75.4717
 30
0.0
 10
-116.4061
 20
76.5826
 30
0.0
 10
-117.9045
 20
77.0397
 30
0.0
 10
-117.9045
 20
77.0397
 30
0.0
 10
-119.4029
 20
77.4985
 30
0.0
 10
-121.0282
 20
77.2565
 30
0.0
 10
-122.3279
 20
76.3809
 30
0.0
 10
-122.3279
 20
76.3809
 30
0.0
 10
-121.3522
 20
78.527
 30
0.0
 10
-121.83
 20
81.0529
 30
0.0
 10
-123.5214
 20
82.6931
 30
0.0
 10
-123.5214
 20
82.6931
 30
0.0
 10
-125.2131
 20
84.335
 30
0.0
 10
-127.7533
 20
84.735
 30
0.0
 10
-129.8674
 20
83.6947
 30
0.0
 10
-129.8674
 20
83.6947
 30
0.0
 10
-130.9798
 20
82.7654
 30
0.0
 10
-131.8001
 20
81.5352
 30
0.0
 10
-132.2291
 20
80.1521
 30
0.0
  0
SPLINE
  5
92
330
1F
100
AcDbEntity
  8
layer 1
 62
     7
370
     9
100
AcDbSpline
210
0.0
220
0.0
230
1.0
 70
    11
 71
     3
 72
    20
 73
    16
 74
     0
 42
0.0000000001
 43
0.0000000001
 12
1.0
 22
0.0
 32
0.0
 13
1.0
 23
0.0
 33
0.0
 40
0.0
 40
0.0
 40
0.0
 40
0.0
 40
0.2
 40
0.2
 40
0.2
 40
0.2
 40
0.4
 40
0.4
 40
0.4
 40
0.4
 40
0.6
 40
0.6
 40
0.6
 40
0.6
 40
1.0
 40
1.0
 40
1.0
 40
1.0
 10
-128.3231
 20
76.88
 30
0.0
 10
-126.9434
 20
76.88
 30
0.0
 10
-125.8248
 20
77.9993
 30
0.0
 10
-125.8248
 20
79.379
 30
0.0
 10
-125.8248
 20
79.379
 30
0.0
 10
-125.8248
 20
80.7588
 30
0.0
 10
-126.9434
 20
81.878
 30
0.0
 10
-128.3231
 20
81.878
 30
0.0
 10
-128.3231
 20
81.878
 30
0.0
 10
-129.7031
 20
81.878
 30
0.0
 10
-130.8217
 20
80.7588
 30
0.0
 10
-130.8217
 20
79.379
 30
0.0
 10
-130.8217
 20
79.379
 30
0.0
 10
-130.8217
 20
77.9993
 30
0.0
 10
-129.7031
 20
76.88
 30
0.0
 10
-128.3231
 20
76.88
 30
0.0
  0
SPLINE
  5
93
330
1F
100
AcDbEntity
  8
layer 1
 62
     7
370
     9
100
AcDbSpline
210
0.0
220
0.0
230
1.0
 70
    11
 71
     3
 72
    36
 73
    32
 74
     0
 42
0.0000000001
 43
0.0000000001
 12
1.0
 22
0.0
 32
0.0
 13
1.0
 23
0.0
 33
0.0
 40
0.0
 40
0.0
 40
0.0
 40
0.0
 40
0.1111111111111111
 40
0.1111111111111111
 40
0.1111111111111111
 40
0.1111111111111111
 40
0.2222222222222222
 40
0.2222222222222222
 40
0.2222222222222222
 40
0.2222222222222222
 40
0.3333333333333333
 40
0.3333333333333333
 40
0.3333333333333333
 40
0.3333333333333333
 40
0.4444444444444444
 40
0.4444444444444444
 40
0.4444444444444444
 40
0.4444444444444444
 40
0.5555555555555556
 40
0.5555555555555556
 40
0.5555555555555556
 40
0.5555555555555556
 40
0.6666666666666666
 40
0.6666666666666666
 40
0.6666666666666666
 40
0.6666666666666666
 40
0.7777777777777778
 40
0.7777777777777778
 40
0.7777777777777778
 40
0.7777777777777778
 40
1.0
 40
1.0
 40
1.0
 40
1.0
 10
-132.956
 20
73.2937
 30
0.0
 10
-132.9834
 20
73.3441
 30
0.0
 10
-132.9719
 20
73.4063
 30
0.0
 10
-132.9286
 20
73.445
 30
0.0
 10
-132.9286
 20
73.445
 30
0.0
 10
-132.8851
 20
73.4836
 30
0.0
 10
-132.821
 20
73.4853
 30
0.0
 10
-132.7743
 20
73.4517
 30
0.0
 10
-132.7743
 20
73.4517
 30
0.0
 10
-130.675
 20
71.7493
 30
0.0
 10
-127.8726
 20
71.1896
 30
0.0
 10
-125.2802
 20
71.9526
 30
0.0
 10
-125.2802
 20
71.9526
 30
0.0
 10
-125.1047
 20
71.9627
 30
0.0
 10
-124.9291
 20
71.9476
 30
0.0
 10
-124.7578
 20
71.9072
 30
0.0
 10
-124.7578
 20
71.9072
 30
0.0
 10
-124.0485
 20
71.64
 30
0.0
 10
-123.5546
 20
70.9913
 30
0.0
 10
-123.4868
 20
70.2368
 30
0.0
 10
-123.4868
 20
70.2368
 30
0.0
 10
-123.4191
 20
69.4805
 30
0.0
 10
-123.7893
 20
68.7545
 30
0.0
 10
-124.4399
 20
68.3646
 30
0.0
 10
-124.4399
 20
68.3646
 30
0.0
 10
-126.466
 20
67.7949
 30
0.0
 10
-128.6393
 20
68.4402
 30
0.0
 10
-130.0264
 20
70.0233
 30
0.0
 10
-130.0264
 20
70.0233
 30
0.0
 10
-131.1403
 20
70.9813
 30
0.0
 10
-132.1251
 20
72.0803
 30
0.0
 10
-132.956
 20
73.2937
 30
0.0
  0
SPLINE
  5
94
330
1F
100
AcDbEntity
  8
layer 1
 62
     7
370
     9
100
AcDbSpline
210
0.0
220
0.0
230
1.0
 70
    11
 71
     3
 72
    32
 73
    28
 74
     0
 42
0.0000000001
 43
0.0000000001
 12
1.0
 22
0.0
 32
0.0
 13
1.0
 23
0.0
 33
0.0
 40
0.0
 40
0.0
 40
0.0
 40
0.0
 40
0.125
 40
0.125
 40
0.125
 40
0.125
 40
0.25
 40
0.25
 40
0.25
 40
0.25
 40
0.375
 40
0.375
 40
0.375
 40
0.375
 40
0.5
 40
0.5
 40
0.5
 40
0.5
 40
0.625
 40
0.625
 40
0.625
 40
0.625
 40
0.75
 40
0.75
 40
0.75
 40
0.75
 40
1.0
 40
1.0
 40
1.0
 40
1.0
 10
-132.3599
 20
68.7932
 30
0.0
 10
-131.152
 20
67.3025
 30
0.0
 10
-129.6454
 20
66.0824
 30
0.0
 10
-127.9371
 20
65.2085
 30
0.0
 10
-127.9371
 20
65.2085
 30
0.0
 10
-127.3427
 20
64.9497
 30
0.0
 10
-126.7853
 20
64.6136
 30
0.0
 10
-126.2793
 20
64.2086
 30
0.0
 10
-126.2793
 20
64.2086
 30
0.0
 10
-125.8011
 20
63.4927
 30
0.0
 10
-125.8653
 20
62.5448
 30
0.0
 10
-126.4359
 20
61.8995
 30
0.0
 10
-126.4359
 20
61.8995
 30
0.0
 10
-127.0064
 20
61.2541
 30
0.0
 10
-127.9398
 20
61.0743
 30
0.0
 10
-128.7092
 20
61.4608
 30
0.0
 10
-128.7092
 20
61.4608
 30
0.0
 10
-131.2586
 20
62.9599
 30
0.0
 10
-132.7639
 20
65.7513
 30
0.0
 10
-132.6153
 20
68.7058
 30
0.0
 10
-132.6153
 20
68.7058
 30
0.0
 10
-132.6174
 20
68.768
 30
0.0
 10
-132.5787
 20
68.8234
 30
0.0
 10
-132.52
 20
68.8436
 30
0.0
 10
-132.52
 20
68.8436
 30
0.0
 10
-132.4614
 20
68.8637
 30
0.0
 10
-132.3963
 20
68.8436
 30
0.0
 10
-132.3599
 20
68.7932
 30
0.0
  0
SPLINE
  5
95
330
1F
100
AcDbEntity
  8
layer 1
 62
     7
370
     9
100
AcDbSpline
210
0.0
220
0.0
230
1.0
 70
    11
 71
     3
 72
    32
 73
    28
 74
     0
 42
0.0000000001
 43
0.0000000001
 12
1.0
 22
0.0
 32
0.0
 13
1.0
 23
0.0
 33
0.0
 40
0.0
 40
0.0
 40
0.0
 40
0.0
 40
0.125
 40
0.125
 40
0.125
 40
0.125
 40
0.25
 40
0.25
 40
0.25
 40
0.25
 40
0.375
 40
0.375
 40
0.375
 40
0.375
 40
0.5
 40
0.5
 40
0.5
 40
0.5
 40
0.625
 40
0.625
 40
0.625
 40
0.625
 40
0.75
 40
0.75
 40
0.75
 40
0.75
 40
1.0
 40
1.0
 40
1.0
 40
1.0
 10
-131.0257
 20
58.3048
 30
0.0
 10
-132.111
 20
59.4812
 30
0.0
 10
-132.8669
 20
60.9214
 30
0.0
 10
-133.217
 20
62.4826
 30
0.0
 10
-133.217
 20
62.4826
 30
0.0
 10
-133.2433
 20
62.5902
 30
0.0
 10
-133.3432
 20
62.6624
 30
0.0
 10
-133.4529
 20
62.6541
 30
0.0
 10
-133.4529
 20
62.6541
 30
0.0
 10
-133.5626
 20
62.6457
 30
0.0
 10
-133.6502
 20
62.5583
 30
0.0
 10
-133.66
 20
62.449
 30
0.0
 10
-133.66
 20
62.449
 30
0.0
 10
-134.4275
 20
59.587
 30
0.0
 10
-133.9579
 20
56.5351
 30
0.0
 10
-132.3654
 20
54.0361
 30
0.0
 10
-132.3654
 20
54.0361
 30
0.0
 10
-131.744
 20
53.4227
 30
0.0
 10
-130.7729
 20
53.342
 30
0.0
 10
-130.059
 20
53.8445
 30
0.0
 10
-130.059
 20
53.8445
 30
0.0
 10
-129.3449
 20
54.3453
 30
0.0
 10
-129.0924
 20
55.2865
 30
0.0
 10
-129.4587
 20
56.0797
 30
0.0
 10
-129.4587
 20
56.0797
 30
0.0
 10
-129.8631
 20
56.8981
 30
0.0
 10
-130.3916
 20
57.6477
 30
0.0
 10
-131.0257
 20
58.3048
 30
0.0
  0
SPLINE
  5
96
330
1F
100
AcDbEntity
  8
layer 1
 62
     7
370
     9
100
AcDbSpline
210
0.0
220
0.0
230
1.0
 70
    11
 71
     3
 72
    68
 73
    64
 74
     0
 42
0.0000000001
 43
0.0000000001
 12
1.0
 22
0.0
 32
0.0
 13
1.0
 23
0.0
 33
0.0
 40
0.0
 40
0.0
 40
0.0
 40
0.0
 40
0.0588235294117647
 40
0.0588235294117647
 40
0.0588235294117647
 40
0.0588235294117647
 40
0.1176470588235294
 40
0.1176470588235294
 40
0.1176470588235294
 40
0.1176470588235294
 40
0.1764705882352941
 40
0.1764705882352941
 40
0.1764705882352941
 40
0.1764705882352941
 40
0.2352941176470588
 40
0.2352941176470588
 40
0.2352941176470588
 40
0.2352941176470588
 40
0.2941176470588235
 40
0.2941176470588235
 40
0.2941176470588235
 40
0.2941176470588235
 40
0.3529411764705883
 40
0.3529411764705883
 40
0.3529411764705883
 40
0.3529411764705883
 40
0.4117647058823529
 40
0.4117647058823529
 40
0.4117647058823529
 40
0.4117647058823529
 40
0.4705882352941176
 40
0.4705882352941176
 40
0.4705882352941176
 40
0.4705882352941176
 40
0.5294117647058824
 40
0.5294117647058824
 40
0.5294117647058824
 40
0.5294117647058824
 40
0.5882352941176471
 40
0.5882352941176471
 40
0.5882352941176471
 40
0.5882352941176471
 40
0.6470588235294118
 40
0.6470588235294118
 40
0.6470588235294118
 40
0.6470588235294118
 40
0.7058823529411765
 40
0.7058823529411765
 40
0.7058823529411765
 40
0.7058823529411765
 40
0.7647058823529411
 40
0.7647058823529411
 40
0.7647058823529411
 40
0.7647058823529411
 40
0.8235294117647058
 40
0.8235294117647058
 40
0.8235294117647058
 40
0.8235294117647058
 40
0.8823529411764706
 40
0.8823529411764706
 40
0.8823529411764706
 40
0.8823529411764706
 40
1.0
 40
1.0
 40
1.0
 40
1.0
 10
-126.3702
 20
50.3565
 30
0.0
 10
-127.955
 20
48.6886
 30
0.0
 10
-129.3002
 20
46.8085
 30
0.0
 10
-130.3671
 20
44.77
 30
0.0
 10
-130.3671
 20
44.77
 30
0.0
 10
-130.9815
 20
47.2024
 30
0.0
 10
-130.194
 20
49.7749
 30
0.0
 10
-128.3231
 20
51.4466
 30
0.0
 10
-128.3231
 20
51.4466
 30
0.0
 10
-127.493
 20
52.0846
 30
0.0
 10
-127.1637
 20
53.1821
 30
0.0
 10
-127.5056
 20
54.1723
 30
0.0
 10
-127.5056
 20
54.1723
 30
0.0
 10
-127.626
 20
55.7554
 30
0.0
 10
-126.9648
 20
57.2998
 30
0.0
 10
-125.7342
 20
58.3048
 30
0.0
 10
-125.7342
 20
58.3048
 30
0.0
 10
-124.0582
 20
59.3686
 30
0.0
 10
-123.2097
 20
61.355
 30
0.0
 10
-123.5996
 20
63.3011
 30
0.0
 10
-123.5996
 20
63.3011
 30
0.0
 10
-123.8959
 20
65.0455
 30
0.0
 10
-123.1736
 20
66.8084
 30
0.0
 10
-121.7374
 20
67.842
 30
0.0
 10
-121.7374
 20
67.842
 30
0.0
 10
-121.142
 20
68.615
 30
0.0
 10
-120.892
 20
69.5998
 30
0.0
 10
-121.0468
 20
70.5628
 30
0.0
 10
-121.0468
 20
70.5628
 30
0.0
 10
-121.2016
 20
71.5257
 30
0.0
 10
-121.7475
 20
72.3828
 30
0.0
 10
-122.555
 20
72.929
 30
0.0
 10
-122.555
 20
72.929
 30
0.0
 10
-121.2535
 20
73.7189
 30
0.0
 10
-119.6046
 20
73.6483
 30
0.0
 10
-118.3764
 20
72.7475
 30
0.0
 10
-118.3764
 20
72.7475
 30
0.0
 10
-117.9658
 20
72.4618
 30
0.0
 10
-117.7136
 20
71.9997
 30
0.0
 10
-117.6958
 20
71.4989
 30
0.0
 10
-117.6958
 20
71.4989
 30
0.0
 10
-117.678
 20
70.9981
 30
0.0
 10
-117.8964
 20
70.5191
 30
0.0
 10
-118.2857
 20
70.2048
 30
0.0
 10
-118.2857
 20
70.2048
 30
0.0
 10
-118.3394
 20
70.0855
 30
0.0
 10
-118.3377
 20
69.9477
 30
0.0
 10
-118.2808
 20
69.8301
 30
0.0
 10
-118.2808
 20
69.8301
 30
0.0
 10
-118.2238
 20
69.7108
 30
0.0
 10
-118.1176
 20
69.6234
 30
0.0
 10
-117.9904
 20
69.5914
 30
0.0
 10
-117.9904
 20
69.5914
 30
0.0
 10
-116.6145
 20
69.2402
 30
0.0
 10
-115.1874
 20
69.9426
 30
0.0
 10
-114.6294
 20
71.2485
 30
0.0
 10
-114.6294
 20
71.2485
 30
0.0
 10
-114.9269
 20
66.3043
 30
0.0
 10
-116.8148
 20
61.5886
 30
0.0
 10
-120.0116
 20
57.8056
 30
0.0
 10
-120.0116
 20
57.8056
 30
0.0
 10
-122.3007
 20
55.473
 30
0.0
 10
-124.4252
 20
52.9834
 30
0.0
 10
-126.3702
 20
50.3565
 30
0.0
  0
SPLINE
  5
97
330
1F
100
AcDbEntity
  8
layer 1
 62
     7
370
     9
100
AcDbSpline
210
0.0
220
0.0
230
1.0
 70
    11
 71
     3
 72
    44
 73
    40
 74
     0
 42
0.0000000001
 43
0.0000000001
 12
1.0
 22
0.0
 32
0.0
 13
1.0
 23
0.0
 33
0.0
 40
0.0
 40
0.0
 40
0.0
 40
0.0
 40
0.0909090909090909
 40
0.0909090909090909
 40
0.0909090909090909
 40
0.0909090909090909
 40
0.1818181818181818
 40
0.1818181818181818
 40
0.1818181818181818
 40
0.1818181818181818
 40
0.2727272727272727
 40
0.2727272727272727
 40
0.2727272727272727
 40
0.2727272727272727
 40
0.3636363636363636
 40
0.3636363636363636
 40
0.3636363636363636
 40
0.3636363636363636
 40
0.4545454545454545
 40
0.4545454545454545
 40
0.4545454545454545
 40
0.4545454545454545
 40
0.5454545454545454
 40
0.5454545454545454
 40
0.5454545454545454
 40
0.5454545454545454
 40
0.6363636363636364
 40
0.6363636363636364
 40
0.6363636363636364
 40
0.6363636363636364
 40
0.7272727272727273
 40
0.7272727272727273
 40
0.7272727272727273
 40
0.7272727272727273
 40
0.8181818181818182
 40
0.8181818181818182
 40
0.8181818181818182
 40
0.8181818181818182
 40
1.0
 40
1.0
 40
1.0
 40
1.0
 10
-108.6567
 20
54.3991
 30
0.0
 10
-112.583
 20
51.3699
 30
0.0
 10
-116.6446
 20
48.5207
 30
0.0
 10
-120.829
 20
45.86
 30
0.0
 10
-120.829
 20
45.86
 30
0.0
 10
-123.8574
 20
43.5434
 30
0.0
 10
-126.5545
 20
40.8234
 30
0.0
 10
-128.8455
 20
37.7755
 30
0.0
 10
-128.8455
 20
37.7755
 30
0.0
 10
-129.0062
 20
37.5093
 30
0.0
 10
-129.0473
 20
37.1878
 30
0.0
 10
-128.9591
 20
36.8898
 30
0.0
 10
-128.9591
 20
36.8898
 30
0.0
 10
-128.4156
 20
34.6182
 30
0.0
 10
-126.8086
 20
32.7489
 30
0.0
 10
-124.6442
 20
31.871
 30
0.0
 10
-124.6442
 20
31.871
 30
0.0
 10
-125.3055
 20
32.1728
 30
0.0
 10
-125.8018
 20
32.7487
 30
0.0
 10
-126.0028
 20
33.4473
 30
0.0
 10
-126.0028
 20
33.4473
 30
0.0
 10
-126.2036
 20
34.146
 30
0.0
 10
-126.089
 20
34.8975
 30
0.0
 10
-125.6889
 20
35.5045
 30
0.0
 10
-125.6889
 20
35.5045
 30
0.0
 10
-124.4303
 20
36.705
 30
0.0
 10
-122.5015
 20
36.8559
 30
0.0
 10
-121.0715
 20
35.8659
 30
0.0
 10
-121.0715
 20
35.8659
 30
0.0
 10
-119.6415
 20
34.8758
 30
0.0
 10
-119.1039
 20
33.0175
 30
0.0
 10
-119.7844
 20
31.4167
 30
0.0
 10
-119.7844
 20
31.4167
 30
0.0
 10
-118.1416
 20
33.7541
 30
0.0
 10
-116.8983
 20
36.348
 30
0.0
 10
-116.1055
 20
39.0925
 30
0.0
 10
-116.1055
 20
39.0925
 30
0.0
 10
-114.259
 20
44.4806
 30
0.0
 10
-111.7573
 20
49.6211
 30
0.0
 10
-108.6567
 20
54.3991
 30
0.0
  0
SPLINE
  5
98
330
1F
100
AcDbEntity
  8
layer 1
 62
     7
370
     9
100
AcDbSpline
210
0.0
220
0.0
230
1.0
 70
    11
 71
     3
 72
    28
 73
    24
 74
     0
 42
0.0000000001
 43
0.0000000001
 12
1.0
 22
0.0
 32
0.0
 13
1.0
 23
0.0
 33
0.0
 40
0.0
 40
0.0
 40
0.0
 40
0.0
 40
0.1428571428571428
 40
0.1428571428571428
 40
0.1428571428571428
 40
0.1428571428571428
 40
0.2857142857142857
 40
0.2857142857142857
 40
0.2857142857142857
 40
0.2857142857142857
 40
0.4285714285714285
 40
0.4285714285714285
 40
0.4285714285714285
 40
0.4285714285714285
 40
0.5714285714285714
 40
0.5714285714285714
 40
0.5714285714285714
 40
0.5714285714285714
 40
0.7142857142857143
 40
0.7142857142857143
 40
0.7142857142857143
 40
0.7142857142857143
 40
1.0
 40
1.0
 40
1.0
 40
1.0
 10
-131.3663
 20
17.9729
 30
0.0
 10
-131.5203
 20
17.8178
 30
0.0
 10
-131.768
 20
17.8079
 30
0.0
 10
-131.934
 20
17.95
 30
0.0
 10
-131.934
 20
17.95
 30
0.0
 10
-132.876
 20
20.8889
 30
0.0
 10
-133.1247
 20
24.0058
 30
0.0
 10
-132.6607
 20
27.0567
 30
0.0
 10
-132.6607
 20
27.0567
 30
0.0
 10
-132.3305
 20
29.5271
 30
0.0
 10
-131.6658
 20
31.9414
 30
0.0
 10
-130.685
 20
34.2329
 30
0.0
 10
-130.685
 20
34.2329
 30
0.0
 10
-130.4501
 20
32.1491
 30
0.0
 10
-129.1453
 20
30.3388
 30
0.0
 10
-127.2429
 20
29.4572
 30
0.0
 10
-127.2429
 20
29.4572
 30
0.0
 10
-125.3403
 20
28.5756
 30
0.0
 10
-123.1156
 20
28.7502
 30
0.0
 10
-121.374
 20
29.918
 30
0.0
 10
-121.374
 20
29.918
 30
0.0
 10
-125.2101
 20
26.3877
 30
0.0
 10
-128.5692
 20
22.3721
 30
0.0
 10
-131.3663
 20
17.9729
 30
0.0
  0
SPLINE
  5
99
330
1F
100
AcDbEntity
  8
layer 1
 62
     7
370
     9
100
AcDbSpline
210
0.0
220
0.0
230
1.0
 70
    11
 71
     3
 72
    72
 73
    68
 74
     0
 42
0.0000000001
 43
0.0000000001
 12
1.0
 22
0.0
 32
0.0
 13
1.0
 23
0.0
 33
0.0
 40
0.0
 40
0.0
 40
0.0
 40
0.0
 40
0.0555555555555556
 40
0.0555555555555556
 40
0.0555555555555556
 40
0.0555555555555556
 40
0.1111111111111111
 40
0.1111111111111111
 40
0.1111111111111111
 40
0.1111111111111111
 40
0.1666666666666667
 40
0.1666666666666667
 40
0.1666666666666667
 40
0.1666666666666667
 40
0.2222222222222222
 40
0.2222222222222222
 40
0.2222222222222222
 40
0.2222222222222222
 40
0.2777777777777778
 40
0.2777777777777778
 40
0.2777777777777778
 40
0.2777777777777778
 40
0.3333333333333333
 40
0.3333333333333333
 40
0.3333333333333333
 40
0.3333333333333333
 40
0.3888888888888889
 40
0.3888888888888889
 40
0.3888888888888889
 40
0.3888888888888889
 40
0.4444444444444444
 40
0.4444444444444444
 40
0.4444444444444444
 40
0.4444444444444444
 40
0.5
 40
0.5
 40
0.5
 40
0.5
 40
0.5555555555555556
 40
0.5555555555555556
 40
0.5555555555555556
 40
0.5555555555555556
 40
0.6111111111111112
 40
0.6111111111111112
 40
0.6111111111111112
 40
0.6111111111111112
 40
0.6666666666666666
 40
0.6666666666666666
 40
0.6666666666666666
 40
0.6666666666666666
 40
0.7222222222222222
 40
0.7222222222222222
 40
0.7222222222222222
 40
0.7222222222222222
 40
0.7777777777777778
 40
0.7777777777777778
 40
0.7777777777777778
 40
0.7777777777777778
 40
0.8333333333333334
 40
0.8333333333333334
 40
0.8333333333333334
 40
0.8333333333333334
 40
0.8888888888888888
 40
0.8888888888888888
 40
0.8888888888888888
 40
0.8888888888888888
 40
1.0
 40
1.0
 40
1.0
 40
1.0
 10
-115.4924
 20
29.0097
 30
0.0
 10
-113.8526
 20
29.3259
 30
0.0
 10
-112.1709
 20
28.7225
 30
0.0
 10
-111.1066
 20
27.4356
 30
0.0
 10
-111.1066
 20
27.4356
 30
0.0
 10
-110.0423
 20
26.1488
 30
0.0
 10
-109.7647
 20
24.3839
 30
0.0
 10
-110.3826
 20
22.8326
 30
0.0
 10
-110.3826
 20
22.8326
 30
0.0
 10
-110.2774
 20
23.9194
 30
0.0
 10
-110.6871
 20
24.993
 30
0.0
 10
-111.49
 20
25.7332
 30
0.0
 10
-111.49
 20
25.7332
 30
0.0
 10
-112.2926
 20
26.4735
 30
0.0
 10
-113.3955
 20
26.7952
 30
0.0
 10
-114.4704
 20
26.6024
 30
0.0
 10
-114.4704
 20
26.6024
 30
0.0
 10
-115.796
 20
26.364
 30
0.0
 10
-116.8674
 20
25.3865
 30
0.0
 10
-117.2259
 20
24.0881
 30
0.0
 10
-117.2259
 20
24.0881
 30
0.0
 10
-117.5843
 20
22.7899
 30
0.0
 10
-117.1664
 20
21.4011
 30
0.0
 10
-116.1508
 20
20.5163
 30
0.0
 10
-116.1508
 20
20.5163
 30
0.0
 10
-117.3012
 20
21.2278
 30
0.0
 10
-118.717
 20
21.3631
 30
0.0
 10
-119.9812
 20
20.8823
 30
0.0
 10
-119.9812
 20
20.8823
 30
0.0
 10
-121.2453
 20
20.4016
 30
0.0
 10
-122.2135
 20
19.3597
 30
0.0
 10
-122.6003
 20
18.0636
 30
0.0
 10
-122.6003
 20
18.0636
 30
0.0
 10
-122.6156
 20
17.9714
 30
0.0
 10
-122.5887
 20
17.8773
 30
0.0
 10
-122.5271
 20
17.807
 30
0.0
 10
-122.5271
 20
17.807
 30
0.0
 10
-122.4655
 20
17.7366
 30
0.0
 10
-122.3758
 20
17.6974
 30
0.0
 10
-122.2825
 20
17.7003
 30
0.0
 10
-122.2825
 20
17.7003
 30
0.0
 10
-121.5157
 20
18.1356
 30
0.0
 10
-120.5763
 20
18.1336
 30
0.0
 10
-119.8114
 20
17.6951
 30
0.0
 10
-119.8114
 20
17.6951
 30
0.0
 10
-119.0466
 20
17.2568
 30
0.0
 10
-118.57
 20
16.4471
 30
0.0
 10
-118.5581
 20
15.5656
 30
0.0
 10
-118.5581
 20
15.5656
 30
0.0
 10
-118.4865
 20
14.0442
 30
0.0
 10
-119.4036
 20
12.6502
 30
0.0
 10
-120.829
 20
12.1138
 30
0.0
 10
-120.829
 20
12.1138
 30
0.0
 10
-123.6431
 20
10.9496
 30
0.0
 10
-126.8843
 20
11.6558
 30
0.0
 10
-128.9591
 20
13.8851
 30
0.0
 10
-128.9591
 20
13.8851
 30
0.0
 10
-129.3354
 20
14.161
 30
0.0
 10
-129.4167
 20
14.6897
 30
0.0
 10
-129.1407
 20
15.066
 30
0.0
 10
-129.1407
 20
15.066
 30
0.0
 10
-127.6627
 20
19.1525
 30
0.0
 10
-125.2523
 20
22.8381
 30
0.0
 10
-122.1007
 20
25.8304
 30
0.0
 10
-122.1007
 20
25.8304
 30
0.0
 10
-120.2181
 20
27.4563
 30
0.0
 10
-117.9378
 20
28.5534
 30
0.0
 10
-115.4924
 20
29.0097
 30
0.0
  0
SPLINE
  5
9A
330
1F
100
AcDbEntity
  8
layer 1
 62
     7
370
     9
100
AcDbSpline
210
0.0
220
0.0
230
1.0
 70
    11
 71
     3
 72
    20
 73
    16
 74
     0
 42
0.0000000001
 43
0.0000000001
 12
1.0
 22
0.0
 32
0.0
 13
1.0
 23
0.0
 33
0.0
 40
0.0
 40
0.0
 40
0.0
 40
0.0
 40
0.2
 40
0.2
 40
0.2
 40
0.2
 40
0.4
 40
0.4
 40
0.4
 40
0.4
 40
0.6
 40
0.6
 40
0.6
 40
0.6
 40
1.0
 40
1.0
 40
1.0
 40
1.0
 10
-98.0288
 20
15.611
 30
0.0
 10
-102.8302
 20
14.516
 30
0.0
 10
-107.8707
 20
15.5241
 30
0.0
 10
-111.8815
 20
18.3816
 30
0.0
 10
-111.8815
 20
18.3816
 30
0.0
 10
-108.4918
 20
14.0805
 30
0.0
 10
-103.2251
 20
11.6928
 30
0.0
 10
-97.7562
 20
11.9775
 30
0.0
 10
-97.7562
 20
11.9775
 30
0.0
 10
-96.9987
 20
12.301
 30
0.0
 10
-96.5309
 20
13.0705
 30
0.0
 10
-96.5925
 20
13.8918
 30
0.0
 10
-96.5925
 20
13.8918
 30
0.0
 10
-96.6541
 20
14.7131
 30
0.0
 10
-97.2315
 20
15.4043
 30
0.0
 10
-98.0288
 20
15.611
 30
0.0
  0
SPLINE
  5
9B
330
1F
100
AcDbEntity
  8
layer 1
 62
     7
370
     9
100
AcDbSpline
210
0.0
220
0.0
230
1.0
 70
    11
 71
     3
 72
    36
 73
    32
 74
     0
 42
0.0000000001
 43
0.0000000001
 12
1.0
 22
0.0
 32
0.0
 13
1.0
 23
0.0
 33
0.0
 40
0.0
 40
0.0
 40
0.0
 40
0.0
 40
0.1111111111111111
 40
0.1111111111111111
 40
0.1111111111111111
 40
0.1111111111111111
 40
0.2222222222222222
 40
0.2222222222222222
 40
0.2222222222222222
 40
0.2222222222222222
 40
0.3333333333333333
 40
0.3333333333333333
 40
0.3333333333333333
 40
0.3333333333333333
 40
0.4444444444444444
 40
0.4444444444444444
 40
0.4444444444444444
 40
0.4444444444444444
 40
0.5555555555555556
 40
0.5555555555555556
 40
0.5555555555555556
 40
0.5555555555555556
 40
0.6666666666666666
 40
0.6666666666666666
 40
0.6666666666666666
 40
0.6666666666666666
 40
0.7777777777777778
 40
0.7777777777777778
 40
0.7777777777777778
 40
0.7777777777777778
 40
1.0
 40
1.0
 40
1.0
 40
1.0
 10
-108.5861
 20
8.5258
 30
0.0
 10
-108.5943
 20
8.5105
 30
0.0
 10
-108.6029
 20
8.4953
 30
0.0
 10
-108.6113
 20
8.4802
 30
0.0
 10
-108.6113
 20
8.4802
 30
0.0
 10
-109.8065
 20
5.8182
 30
0.0
 10
-112.4166
 20
4.0723
 30
0.0
 10
-115.3334
 20
3.9837
 30
0.0
 10
-115.3334
 20
3.9837
 30
0.0
 10
-114.1373
 20
2.2448
 30
0.0
 10
-114.0145
 20
-0.017
 30
0.0
 10
-115.0155
 20
-1.8753
 30
0.0
 10
-115.0155
 20
-1.8753
 30
0.0
 10
-111.4486
 20
2.5606
 30
0.0
 10
-106.9114
 20
6.1188
 30
0.0
 10
-101.7531
 20
8.5258
 30
0.0
 10
-101.7531
 20
8.5258
 30
0.0
 10
-106.9114
 20
10.9323
 30
0.0
 10
-111.4486
 20
14.4908
 30
0.0
 10
-115.0155
 20
18.9266
 30
0.0
 10
-115.0155
 20
18.9266
 30
0.0
 10
-114.0145
 20
17.0684
 30
0.0
 10
-114.1373
 20
14.8065
 30
0.0
 10
-115.3334
 20
13.0675
 30
0.0
 10
-115.3334
 20
13.0675
 30
0.0
 10
-112.4166
 20
12.9791
 30
0.0
 10
-109.8065
 20
11.2331
 30
0.0
 10
-108.6113
 20
8.5711
 30
0.0
 10
-108.6113
 20
8.5711
 30
0.0
 10
-108.6029
 20
8.556
 30
0.0
 10
-108.5943
 20
8.5409
 30
0.0
 10
-108.5861
 20
8.5258
 30
0.0
  0
SPLINE
  5
9C
330
1F
100
AcDbEntity
  8
layer 1
 62
     7
370
     9
100
AcDbSpline
210
0.0
220
0.0
230
1.0
 70
    11
 71
     3
 72
    24
 73
    20
 74
     0
 42
0.0000000001
 43
0.0000000001
 12
1.0
 22
0.0
 32
0.0
 13
1.0
 23
0.0
 33
0.0
 40
0.0
 40
0.0
 40
0.0
 40
0.0
 40
0.1666666666666667
 40
0.1666666666666667
 40
0.1666666666666667
 40
0.1666666666666667
 40
0.3333333333333333
 40
0.3333333333333333
 40
0.3333333333333333
 40
0.3333333333333333
 40
0.5
 40
0.5
 40
0.5
 40
0.5
 40
0.6666666666666666
 40
0.6666666666666666
 40
0.6666666666666666
 40
0.6666666666666666
 40
1.0
 40
1.0
 40
1.0
 40
1.0
 10
-106.9192
 20
-108.2918
 30
0.0
 10
-106.9192
 20
-108.2918
 30
0.0
 10
-96.4834
 20
-108.2918
 30
0.0
 10
-96.4834
 20
-108.2918
 30
0.0
 10
-96.4834
 20
-108.2918
 30
0.0
 10
-96.4672
 20
-108.2623
 30
0.0
 10
-96.4523
 20
-108.232
 30
0.0
 10
-96.439
 20
-108.2009
 30
0.0
 10
-96.439
 20
-108.2009
 30
0.0
 10
-95.9856
 20
-106.9024
 30
0.0
 10
-96.1349
 20
-105.4693
 30
0.0
 10
-96.8465
 20
-104.2922
 30
0.0
 10
-96.8465
 20
-104.2922
 30
0.0
 10
-97.558
 20
-103.1151
 30
0.0
 10
-98.7575
 20
-102.3168
 30
0.0
 10
-100.118
 20
-102.1149
 30
0.0
 10
-100.118
 20
-102.1149
 30
0.0
 10
-100.9526
 20
-105.3446
 30
0.0
 10
-103.6242
 20
-107.771
 30
0.0
 10
-106.9192
 20
-108.2918
 30
0.0
  0
SPLINE
  5
9D
330
1F
100
AcDbEntity
  8
layer 1
 62
     7
370
     9
100
AcDbSpline
210
0.0
220
0.0
230
1.0
 70
    11
 71
     3
 72
    20
 73
    16
 74
     0
 42
0.0000000001
 43
0.0000000001
 12
1.0
 22
0.0
 32
0.0
 13
1.0
 23
0.0
 33
0.0
 40
0.0
 40
0.0
 40
0.0
 40
0.0
 40
0.2
 40
0.2
 40
0.2
 40
0.2
 40
0.4
 40
0.4
 40
0.4
 40
0.4
 40
0.6
 40
0.6
 40
0.6
 40
0.6
 40
1.0
 40
1.0
 40
1.0
 40
1.0
 10
-129.1471
 20
-108.2918
 30
0.0
 10
-129.1471
 20
-108.2918
 30
0.0
 10
-110.1556
 20
-108.2918
 30
0.0
 10
-110.1556
 20
-108.2918
 30
0.0
 10
-110.1556
 20
-108.2918
 30
0.0
 10
-114.9528
 20
-107.6377
 30
0.0
 10
-118.8201
 20
-104.0371
 30
0.0
 10
-119.8148
 20
-99.2988
 30
0.0
 10
-119.8148
 20
-99.2988
 30
0.0
 10
-121.2789
 20
-99.625
 30
0.0
 10
-122.8018
 20
-99.0979
 30
0.0
 10
-123.751
 20
-97.9363
 30
0.0
 10
-123.751
 20
-97.9363
 30
0.0
 10
-122.5968
 20
-102.2647
 30
0.0
 10
-124.9382
 20
-106.7581
 30
0.0
 10
-129.1471
 20
-108.2918
 30
0.0
  0
SPLINE
  5
9E
330
1F
100
AcDbEntity
  8
layer 1
 62
     7
370
     9
100
AcDbSpline
210
0.0
220
0.0
230
1.0
 70
    11
 71
     3
 72
    16
 73
    12
 74
     0
 42
0.0000000001
 43
0.0000000001
 12
1.0
 22
0.0
 32
0.0
 13
1.0
 23
0.0
 33
0.0
 40
0.0
 40
0.0
 40
0.0
 40
0.0
 40
0.25
 40
0.25
 40
0.25
 40
0.25
 40
0.5
 40
0.5
 40
0.5
 40
0.5
 40
1.0
 40
1.0
 40
1.0
 40
1.0
 10
-91.7155
 20
-79.9272
 30
0.0
 10
-91.7155
 20
-79.9272
 30
0.0
 10
-91.7155
 20
-93.5761
 30
0.0
 10
-91.7155
 20
-93.5761
 30
0.0
 10
-91.7155
 20
-93.5761
 30
0.0
 10
-92.972
 20
-89.9449
 30
0.0
 10
-95.5149
 20
-86.8999
 30
0.0
 10
-98.8639
 20
-85.0161
 30
0.0
 10
-98.8639
 20
-85.0161
 30
0.0
 10
-95.5445
 20
-85.3433
 30
0.0
 10
-92.4928
 20
-83.1709
 30
0.0
 10
-91.7155
 20
-79.9272
 30
0.0
  0
SPLINE
  5
9F
330
1F
100
AcDbEntity
  8
layer 1
 62
     7
370
     9
100
AcDbSpline
210
0.0
220
0.0
230
1.0
 70
    11
 71
     3
 72
    28
 73
    24
 74
     0
 42
0.0000000001
 43
0.0000000001
 12
1.0
 22
0.0
 32
0.0
 13
1.0
 23
0.0
 33
0.0
 40
0.0
 40
0.0
 40
0.0
 40
0.0
 40
0.1428571428571428
 40
0.1428571428571428
 40
0.1428571428571428
 40
0.1428571428571428
 40
0.2857142857142857
 40
0.2857142857142857
 40
0.2857142857142857
 40
0.2857142857142857
 40
0.4285714285714285
 40
0.4285714285714285
 40
0.4285714285714285
 40
0.4285714285714285
 40
0.5714285714285714
 40
0.5714285714285714
 40
0.5714285714285714
 40
0.5714285714285714
 40
0.7142857142857143
 40
0.7142857142857143
 40
0.7142857142857143
 40
0.7142857142857143
 40
1.0
 40
1.0
 40
1.0
 40
1.0
 10
-91.7155
 20
-47.5111
 30
0.0
 10
-91.7155
 20
-47.5111
 30
0.0
 10
-91.7155
 20
-76.8148
 30
0.0
 10
-91.7155
 20
-76.8148
 30
0.0
 10
-91.7155
 20
-76.8148
 30
0.0
 10
-92.1989
 20
-74.7981
 30
0.0
 10
-93.5918
 20
-73.1204
 30
0.0
 10
-95.4852
 20
-72.2746
 30
0.0
 10
-95.4852
 20
-72.2746
 30
0.0
 10
-97.428
 20
-71.4686
 30
0.0
 10
-99.6055
 20
-71.4362
 30
0.0
 10
-101.5714
 20
-72.1837
 30
0.0
 10
-101.5714
 20
-72.1837
 30
0.0
 10
-96.1931
 20
-66.3198
 30
0.0
 10
-94.8346
 20
-57.8115
 30
0.0
 10
-98.1195
 20
-50.5644
 30
0.0
 10
-98.1195
 20
-50.5644
 30
0.0
 10
-96.8859
 20
-51.2319
 30
0.0
 10
-95.4074
 20
-51.2699
 30
0.0
 10
-94.1412
 20
-50.6662
 30
0.0
 10
-94.1412
 20
-50.6662
 30
0.0
 10
-92.8749
 20
-50.0624
 30
0.0
 10
-91.9736
 20
-48.8899
 30
0.0
 10
-91.7155
 20
-47.5111
 30
0.0
  0
SPLINE
  5
A0
330
1F
100
AcDbEntity
  8
layer 1
 62
     7
370
     9
100
AcDbSpline
210
0.0
220
0.0
230
1.0
 70
    11
 71
     3
 72
    20
 73
    16
 74
     0
 42
0.0000000001
 43
0.0000000001
 12
1.0
 22
0.0
 32
0.0
 13
1.0
 23
0.0
 33
0.0
 40
0.0
 40
0.0
 40
0.0
 40
0.0
 40
0.2
 40
0.2
 40
0.2
 40
0.2
 40
0.4
 40
0.4
 40
0.4
 40
0.4
 40
0.6
 40
0.6
 40
0.6
 40
0.6
 40
1.0
 40
1.0
 40
1.0
 40
1.0
 10
-91.7155
 20
-37.3459
 30
0.0
 10
-91.7155
 20
-37.3459
 30
0.0
 10
-91.7155
 20
-45.8963
 30
0.0
 10
-91.7155
 20
-45.8963
 30
0.0
 10
-91.7155
 20
-45.8963
 30
0.0
 10
-91.959
 20
-44.5952
 30
0.0
 10
-92.7767
 20
-43.4733
 30
0.0
 10
-93.941
 20
-42.8432
 30
0.0
 10
-93.941
 20
-42.8432
 30
0.0
 10
-94.5495
 20
-42.4468
 30
0.0
 10
-95.2276
 20
-42.1693
 30
0.0
 10
-95.9395
 20
-42.0256
 30
0.0
 10
-95.9395
 20
-42.0256
 30
0.0
 10
-93.8283
 20
-41.2841
 30
0.0
 10
-92.2376
 20
-39.5219
 30
0.0
 10
-91.7155
 20
-37.3459
 30
0.0
  0
SPLINE
  5
A1
330
1F
100
AcDbEntity
  8
layer 1
 62
     7
370
     9
100
AcDbSpline
210
0.0
220
0.0
230
1.0
 70
    11
 71
     3
 72
    84
 73
    80
 74
     0
 42
0.0000000001
 43
0.0000000001
 12
1.0
 22
0.0
 32
0.0
 13
1.0
 23
0.0
 33
0.0
 40
0.0
 40
0.0
 40
0.0
 40
0.0
 40
0.0476190476190476
 40
0.0476190476190476
 40
0.0476190476190476
 40
0.0476190476190476
 40
0.0952380952380952
 40
0.0952380952380952
 40
0.0952380952380952
 40
0.0952380952380952
 40
0.1428571428571428
 40
0.1428571428571428
 40
0.1428571428571428
 40
0.1428571428571428
 40
0.1904761904761905
 40
0.1904761904761905
 40
0.1904761904761905
 40
0.1904761904761905
 40
0.2380952380952381
 40
0.2380952380952381
 40
0.2380952380952381
 40
0.2380952380952381
 40
0.2857142857142857
 40
0.2857142857142857
 40
0.2857142857142857
 40
0.2857142857142857
 40
0.3333333333333333
 40
0.3333333333333333
 40
0.3333333333333333
 40
0.3333333333333333
 40
0.3809523809523809
 40
0.3809523809523809
 40
0.3809523809523809
 40
0.3809523809523809
 40
0.4285714285714285
 40
0.4285714285714285
 40
0.4285714285714285
 40
0.4285714285714285
 40
0.4761904761904762
 40
0.4761904761904762
 40
0.4761904761904762
 40
0.4761904761904762
 40
0.5238095238095238
 40
0.5238095238095238
 40
0.5238095238095238
 40
0.5238095238095238
 40
0.5714285714285714
 40
0.5714285714285714
 40
0.5714285714285714
 40
0.5714285714285714
 40
0.6190476190476191
 40
0.6190476190476191
 40
0.6190476190476191
 40
0.6190476190476191
 40
0.6666666666666666
 40
0.6666666666666666
 40
0.6666666666666666
 40
0.6666666666666666
 40
0.7142857142857143
 40
0.7142857142857143
 40
0.7142857142857143
 40
0.7142857142857143
 40
0.7619047619047619
 40
0.7619047619047619
 40
0.7619047619047619
 40
0.7619047619047619
 40
0.8095238095238095
 40
0.8095238095238095
 40
0.8095238095238095
 40
0.8095238095238095
 40
0.8571428571428571
 40
0.8571428571428571
 40
0.8571428571428571
 40
0.8571428571428571
 40
0.9047619047619048
 40
0.9047619047619048
 40
0.9047619047619048
 40
0.9047619047619048
 40
1.0
 40
1.0
 40
1.0
 40
1.0
 10
-91.7155
 20
-13.1424
 30
0.0
 10
-91.7155
 20
-13.1424
 30
0.0
 10
-91.7155
 20
-34.271
 30
0.0
 10
-91.7155
 20
-34.271
 30
0.0
 10
-91.7155
 20
-34.271
 30
0.0
 10
-92.1561
 20
-32.4348
 30
0.0
 10
-93.3634
 20
-30.8757
 30
0.0
 10
-95.0311
 20
-29.9896
 30
0.0
 10
-95.0311
 20
-29.9896
 30
0.0
 10
-96.4503
 20
-29.2995
 30
0.0
 10
-97.9437
 20
-28.7738
 30
0.0
 10
-99.4821
 20
-28.4226
 30
0.0
 10
-99.4821
 20
-28.4226
 30
0.0
 10
-100.505
 20
-28.3021
 30
0.0
 10
-101.4237
 20
-27.7393
 30
0.0
 10
-101.9959
 20
-26.8831
 30
0.0
 10
-101.9959
 20
-26.8831
 30
0.0
 10
-102.5684
 20
-26.0268
 30
0.0
 10
-102.7369
 20
-24.9628
 30
0.0
 10
-102.4571
 20
-23.9716
 30
0.0
 10
-102.4571
 20
-23.9716
 30
0.0
 10
-102.099
 20
-23.2616
 30
0.0
 10
-101.4356
 20
-22.7546
 30
0.0
 10
-100.6565
 20
-22.5952
 30
0.0
 10
-100.6565
 20
-22.5952
 30
0.0
 10
-99.8775
 20
-22.4358
 30
0.0
 10
-99.0684
 20
-22.6416
 30
0.0
 10
-98.4602
 20
-23.154
 30
0.0
 10
-98.4602
 20
-23.154
 30
0.0
 10
-98.4227
 20
-23.2041
 30
0.0
 10
-98.3638
 20
-23.2335
 30
0.0
 10
-98.3013
 20
-23.2335
 30
0.0
 10
-98.3013
 20
-23.2335
 30
0.0
 10
-98.2387
 20
-23.2335
 30
0.0
 10
-98.1798
 20
-23.2041
 30
0.0
 10
-98.1423
 20
-23.154
 30
0.0
 10
-98.1423
 20
-23.154
 30
0.0
 10
-97.317
 20
-21.8965
 30
0.0
 10
-97.5172
 20
-20.2272
 30
0.0
 10
-98.6168
 20
-19.2007
 30
0.0
 10
-98.6168
 20
-19.2007
 30
0.0
 10
-99.7162
 20
-18.174
 30
0.0
 10
-101.3953
 20
-18.0887
 30
0.0
 10
-102.5934
 20
-18.9982
 30
0.0
 10
-102.5934
 20
-18.9982
 30
0.0
 10
-103.6369
 20
-19.8887
 30
0.0
 10
-104.4602
 20
-21.0085
 30
0.0
 10
-104.9991
 20
-22.2701
 30
0.0
 10
-104.9991
 20
-22.2701
 30
0.0
 10
-104.2344
 20
-18.4256
 30
0.0
 10
-104.2891
 20
-14.463
 30
0.0
 10
-105.1596
 20
-10.6411
 30
0.0
 10
-105.1596
 20
-10.6411
 30
0.0
 10
-103.2295
 20
-13.0416
 30
0.0
 10
-99.729
 20
-13.4463
 30
0.0
 10
-97.3021
 20
-11.5496
 30
0.0
 10
-97.3021
 20
-11.5496
 30
0.0
 10
-96.5807
 20
-11.0167
 30
0.0
 10
-95.5796
 20
-11.0849
 30
0.0
 10
-94.9371
 20
-11.7104
 30
0.0
 10
-94.9371
 20
-11.7104
 30
0.0
 10
-94.2946
 20
-12.3361
 30
0.0
 10
-94.1998
 20
-13.335
 30
0.0
 10
-94.7132
 20
-14.0703
 30
0.0
 10
-94.7132
 20
-14.0703
 30
0.0
 10
-94.8192
 20
-14.1771
 30
0.0
 10
-94.8192
 20
-14.3494
 30
0.0
 10
-94.7132
 20
-14.4563
 30
0.0
 10
-94.7132
 20
-14.4563
 30
0.0
 10
-94.1557
 20
-14.7109
 30
0.0
 10
-93.5172
 20
-14.7206
 30
0.0
 10
-92.9521
 20
-14.4835
 30
0.0
 10
-92.9521
 20
-14.4835
 30
0.0
 10
-92.3871
 20
-14.2462
 30
0.0
 10
-91.9469
 20
-13.7834
 30
0.0
 10
-91.7382
 20
-13.2073
 30
0.0
 10
-91.7382
 20
-13.2073
 30
0.0
 10
-91.7301
 20
-13.186
 30
0.0
 10
-91.7225
 20
-13.1643
 30
0.0
 10
-91.7155
 20
-13.1424
 30
0.0
  0
SPLINE
  5
A2
330
1F
100
AcDbEntity
  8
layer 1
 62
     7
370
     9
100
AcDbSpline
210
0.0
220
0.0
230
1.0
 70
    11
 71
     3
 72
    36
 73
    32
 74
     0
 42
0.0000000001
 43
0.0000000001
 12
1.0
 22
0.0
 32
0.0
 13
1.0
 23
0.0
 33
0.0
 40
0.0
 40
0.0
 40
0.0
 40
0.0
 40
0.1111111111111111
 40
0.1111111111111111
 40
0.1111111111111111
 40
0.1111111111111111
 40
0.2222222222222222
 40
0.2222222222222222
 40
0.2222222222222222
 40
0.2222222222222222
 40
0.3333333333333333
 40
0.3333333333333333
 40
0.3333333333333333
 40
0.3333333333333333
 40
0.4444444444444444
 40
0.4444444444444444
 40
0.4444444444444444
 40
0.4444444444444444
 40
0.5555555555555556
 40
0.5555555555555556
 40
0.5555555555555556
 40
0.5555555555555556
 40
0.6666666666666666
 40
0.6666666666666666
 40
0.6666666666666666
 40
0.6666666666666666
 40
0.7777777777777778
 40
0.7777777777777778
 40
0.7777777777777778
 40
0.7777777777777778
 40
1.0
 40
1.0
 40
1.0
 40
1.0
 10
-91.7155
 20
4.438
 30
0.0
 10
-91.7155
 20
4.438
 30
0.0
 10
-91.7155
 20
-9.8966
 30
0.0
 10
-91.7155
 20
-9.8966
 30
0.0
 10
-91.7155
 20
-9.8966
 30
0.0
 10
-91.7301
 20
-9.8569
 30
0.0
 10
-91.7452
 20
-9.8174
 30
0.0
 10
-91.7609
 20
-9.7781
 30
0.0
 10
-91.7609
 20
-9.7781
 30
0.0
 10
-92.0733
 20
-8.9993
 30
0.0
 10
-92.7064
 20
-8.393
 30
0.0
 10
-93.4981
 20
-8.1147
 30
0.0
 10
-93.4981
 20
-8.1147
 30
0.0
 10
-94.2897
 20
-7.8364
 30
0.0
 10
-95.1629
 20
-7.9128
 30
0.0
 10
-95.894
 20
-8.3247
 30
0.0
 10
-95.894
 20
-8.3247
 30
0.0
 10
-94.7354
 20
-7.0148
 30
0.0
 10
-94.1544
 20
-5.2927
 30
0.0
 10
-94.2827
 20
-3.5486
 30
0.0
 10
-94.2827
 20
-3.5486
 30
0.0
 10
-94.411
 20
-1.8043
 30
0.0
 10
-95.2376
 20
-0.1858
 30
0.0
 10
-96.5753
 20
0.9407
 30
0.0
 10
-96.5753
 20
0.9407
 30
0.0
 10
-95.4643
 20
0.7379
 30
0.0
 10
-94.3185
 20
0.9962
 30
0.0
 10
-93.4017
 20
1.6558
 30
0.0
 10
-93.4017
 20
1.6558
 30
0.0
 10
-92.4849
 20
2.3156
 30
0.0
 10
-91.8762
 20
3.3201
 30
0.0
 10
-91.7155
 20
4.438
 30
0.0
  0
SPLINE
  5
A3
330
1F
100
AcDbEntity
  8
layer 1
 62
     7
370
     9
100
AcDbSpline
210
0.0
220
0.0
230
1.0
 70
    11
 71
     3
 72
    44
 73
    40
 74
     0
 42
0.0000000001
 43
0.0000000001
 12
1.0
 22
0.0
 32
0.0
 13
1.0
 23
0.0
 33
0.0
 40
0.0
 40
0.0
 40
0.0
 40
0.0
 40
0.0909090909090909
 40
0.0909090909090909
 40
0.0909090909090909
 40
0.0909090909090909
 40
0.1818181818181818
 40
0.1818181818181818
 40
0.1818181818181818
 40
0.1818181818181818
 40
0.2727272727272727
 40
0.2727272727272727
 40
0.2727272727272727
 40
0.2727272727272727
 40
0.3636363636363636
 40
0.3636363636363636
 40
0.3636363636363636
 40
0.3636363636363636
 40
0.4545454545454545
 40
0.4545454545454545
 40
0.4545454545454545
 40
0.4545454545454545
 40
0.5454545454545454
 40
0.5454545454545454
 40
0.5454545454545454
 40
0.5454545454545454
 40
0.6363636363636364
 40
0.6363636363636364
 40
0.6363636363636364
 40
0.6363636363636364
 40
0.7272727272727273
 40
0.7272727272727273
 40
0.7272727272727273
 40
0.7272727272727273
 40
0.8181818181818182
 40
0.8181818181818182
 40
0.8181818181818182
 40
0.8181818181818182
 40
1.0
 40
1.0
 40
1.0
 40
1.0
 10
-103.3626
 20
-5.6819
 30
0.0
 10
-103.3711
 20
-5.6305
 30
0.0
 10
-103.4009
 20
-5.5848
 30
0.0
 10
-103.4446
 20
-5.5562
 30
0.0
 10
-103.4446
 20
-5.5562
 30
0.0
 10
-103.4883
 20
-5.5276
 30
0.0
 10
-103.5419
 20
-5.5187
 30
0.0
 10
-103.5925
 20
-5.5315
 30
0.0
 10
-103.5925
 20
-5.5315
 30
0.0
 10
-104.9919
 20
-5.6165
 30
0.0
 10
-106.09
 20
-6.7642
 30
0.0
 10
-106.1133
 20
-8.1657
 30
0.0
 10
-106.1133
 20
-8.1657
 30
0.0
 10
-106.4057
 20
-5.5454
 30
0.0
 10
-108.0402
 20
-3.2657
 30
0.0
 10
-110.4282
 20
-2.1478
 30
0.0
 10
-110.4282
 20
-2.1478
 30
0.0
 10
-107.3929
 20
-0.2231
 30
0.0
 10
-103.6042
 20
0.0826
 30
0.0
 10
-100.2997
 20
-1.3302
 30
0.0
 10
-100.2997
 20
-1.3302
 30
0.0
 10
-99.1216
 20
-1.8225
 30
0.0
 10
-98.2725
 20
-2.8772
 30
0.0
 10
-98.0433
 20
-4.1333
 30
0.0
 10
-98.0433
 20
-4.1333
 30
0.0
 10
-97.8141
 20
-5.3893
 30
0.0
 10
-98.2359
 20
-6.6761
 30
0.0
 10
-99.1642
 20
-7.5527
 30
0.0
 10
-99.1642
 20
-7.5527
 30
0.0
 10
-99.8855
 20
-8.1607
 30
0.0
 10
-100.8836
 20
-8.3207
 30
0.0
 10
-101.7588
 20
-7.9688
 30
0.0
 10
-101.7588
 20
-7.9688
 30
0.0
 10
-102.634
 20
-7.6167
 30
0.0
 10
-103.2434
 20
-6.8102
 30
0.0
 10
-103.3427
 20
-5.8721
 30
0.0
 10
-103.3427
 20
-5.8721
 30
0.0
 10
-103.3518
 20
-5.8089
 30
0.0
 10
-103.3584
 20
-5.7456
 30
0.0
 10
-103.3626
 20
-5.6819
 30
0.0
  0
SPLINE
  5
A4
330
1F
100
AcDbEntity
  8
layer 1
 62
     7
370
     9
100
AcDbSpline
210
0.0
220
0.0
230
1.0
 70
    11
 71
     3
 72
    28
 73
    24
 74
     0
 42
0.0000000001
 43
0.0000000001
 12
1.0
 22
0.0
 32
0.0
 13
1.0
 23
0.0
 33
0.0
 40
0.0
 40
0.0
 40
0.0
 40
0.0
 40
0.1428571428571428
 40
0.1428571428571428
 40
0.1428571428571428
 40
0.1428571428571428
 40
0.2857142857142857
 40
0.2857142857142857
 40
0.2857142857142857
 40
0.2857142857142857
 40
0.4285714285714285
 40
0.4285714285714285
 40
0.4285714285714285
 40
0.4285714285714285
 40
0.5714285714285714
 40
0.5714285714285714
 40
0.5714285714285714
 40
0.5714285714285714
 40
0.7142857142857143
 40
0.7142857142857143
 40
0.7142857142857143
 40
0.7142857142857143
 40
1.0
 40
1.0
 40
1.0
 40
1.0
 10
-110.5645
 20
-25.493
 30
0.0
 10
-110.2756
 20
-27.4743
 30
0.0
 10
-109.7417
 20
-29.4118
 30
0.0
 10
-108.9747
 20
-31.2613
 30
0.0
 10
-108.9747
 20
-31.2613
 30
0.0
 10
-109.6291
 20
-26.3483
 30
0.0
 10
-109.3516
 20
-21.3558
 30
0.0
 10
-108.1572
 20
-16.5456
 30
0.0
 10
-108.1572
 20
-16.5456
 30
0.0
 10
-107.4282
 20
-14.2674
 30
0.0
 10
-107.3339
 20
-11.8334
 30
0.0
 10
-107.8846
 20
-9.5057
 30
0.0
 10
-107.8846
 20
-9.5057
 30
0.0
 10
-108.0394
 20
-11.3022
 30
0.0
 10
-109.0259
 20
-12.923
 30
0.0
 10
-110.5505
 20
-13.8859
 30
0.0
 10
-110.5505
 20
-13.8859
 30
0.0
 10
-112.0751
 20
-14.8489
 30
0.0
 10
-113.9626
 20
-15.0432
 30
0.0
 10
-115.6514
 20
-14.4109
 30
0.0
 10
-115.6514
 20
-14.4109
 30
0.0
 10
-112.8448
 20
-17.4863
 30
0.0
 10
-111.0668
 20
-21.36
 30
0.0
 10
-110.5645
 20
-25.493
 30
0.0
  0
SPLINE
  5
A5
330
1F
100
AcDbEntity
  8
layer 1
 62
     7
370
     9
100
AcDbSpline
210
0.0
220
0.0
230
1.0
 70
    11
 71
     3
 72
    48
 73
    44
 74
     0
 42
0.0000000001
 43
0.0000000001
 12
1.0
 22
0.0
 32
0.0
 13
1.0
 23
0.0
 33
0.0
 40
0.0
 40
0.0
 40
0.0
 40
0.0
 40
0.0833333333333333
 40
0.0833333333333333
 40
0.0833333333333333
 40
0.0833333333333333
 40
0.1666666666666667
 40
0.1666666666666667
 40
0.1666666666666667
 40
0.1666666666666667
 40
0.25
 40
0.25
 40
0.25
 40
0.25
 40
0.3333333333333333
 40
0.3333333333333333
 40
0.3333333333333333
 40
0.3333333333333333
 40
0.4166666666666667
 40
0.4166666666666667
 40
0.4166666666666667
 40
0.4166666666666667
 40
0.5
 40
0.5
 40
0.5
 40
0.5
 40
0.5833333333333334
 40
0.5833333333333334
 40
0.5833333333333334
 40
0.5833333333333334
 40
0.6666666666666666
 40
0.6666666666666666
 40
0.6666666666666666
 40
0.6666666666666666
 40
0.75
 40
0.75
 40
0.75
 40
0.75
 40
0.8333333333333334
 40
0.8333333333333334
 40
0.8333333333333334
 40
0.8333333333333334
 40
1.0
 40
1.0
 40
1.0
 40
1.0
 10
-103.9787
 20
-66.143
 30
0.0
 10
-105.6248
 20
-69.6956
 30
0.0
 10
-109.2403
 20
-71.9151
 30
0.0
 10
-113.1532
 20
-71.775
 30
0.0
 10
-113.1532
 20
-71.775
 30
0.0
 10
-113.251
 20
-71.7763
 30
0.0
 10
-113.3414
 20
-71.7239
 30
0.0
 10
-113.3888
 20
-71.6383
 30
0.0
 10
-113.3888
 20
-71.6383
 30
0.0
 10
-113.4364
 20
-71.553
 30
0.0
 10
-113.433
 20
-71.4484
 30
0.0
 10
-113.3803
 20
-71.3662
 30
0.0
 10
-113.3803
 20
-71.3662
 30
0.0
 10
-110.7587
 20
-67.6253
 30
0.0
 10
-109.2615
 20
-63.2128
 30
0.0
 10
-109.0656
 20
-58.6489
 30
0.0
 10
-109.0656
 20
-58.6489
 30
0.0
 10
-109.0133
 20
-52.496
 30
0.0
 10
-110.896
 20
-46.4825
 30
0.0
 10
-114.4477
 20
-41.4579
 30
0.0
 10
-114.4477
 20
-41.4579
 30
0.0
 10
-116.5167
 20
-38.4477
 30
0.0
 10
-118.9118
 20
-35.6756
 30
0.0
 10
-121.5898
 20
-33.1915
 30
0.0
 10
-121.5898
 20
-33.1915
 30
0.0
 10
-121.6453
 20
-33.1107
 30
0.0
 10
-121.6394
 20
-33.0025
 30
0.0
 10
-121.5755
 20
-32.928
 30
0.0
 10
-121.5755
 20
-32.928
 30
0.0
 10
-121.5118
 20
-32.8536
 30
0.0
 10
-121.4058
 20
-32.8312
 30
0.0
 10
-121.3174
 20
-32.8738
 30
0.0
 10
-121.3174
 20
-32.8738
 30
0.0
 10
-121.3174
 20
-32.8738
 30
0.0
 10
-120.5566
 20
-33.3051
 30
0.0
 10
-120.5566
 20
-33.3051
 30
0.0
 10
-120.5566
 20
-33.3051
 30
0.0
 10
-113.6688
 20
-37.7682
 30
0.0
 10
-108.1386
 20
-44.0369
 30
0.0
 10
-104.5691
 20
-51.4273
 30
0.0
 10
-104.5691
 20
-51.4273
 30
0.0
 10
-102.514
 20
-56.0803
 30
0.0
 10
-102.303
 20
-61.3403
 30
0.0
 10
-103.9787
 20
-66.143
 30
0.0
  0
SPLINE
  5
A6
330
1F
100
AcDbEntity
  8
layer 1
 62
     7
370
     9
100
AcDbSpline
210
0.0
220
0.0
230
1.0
 70
    11
 71
     3
 72
    36
 73
    32
 74
     0
 42
0.0000000001
 43
0.0000000001
 12
1.0
 22
0.0
 32
0.0
 13
1.0
 23
0.0
 33
0.0
 40
0.0
 40
0.0
 40
0.0
 40
0.0
 40
0.1111111111111111
 40
0.1111111111111111
 40
0.1111111111111111
 40
0.1111111111111111
 40
0.2222222222222222
 40
0.2222222222222222
 40
0.2222222222222222
 40
0.2222222222222222
 40
0.3333333333333333
 40
0.3333333333333333
 40
0.3333333333333333
 40
0.3333333333333333
 40
0.4444444444444444
 40
0.4444444444444444
 40
0.4444444444444444
 40
0.4444444444444444
 40
0.5555555555555556
 40
0.5555555555555556
 40
0.5555555555555556
 40
0.5555555555555556
 40
0.6666666666666666
 40
0.6666666666666666
 40
0.6666666666666666
 40
0.6666666666666666
 40
0.7777777777777778
 40
0.7777777777777778
 40
0.7777777777777778
 40
0.7777777777777778
 40
1.0
 40
1.0
 40
1.0
 40
1.0
 10
-98.7328
 20
-47.0444
 30
0.0
 10
-98.7126
 20
-46.9661
 30
0.0
 10
-98.6467
 20
-46.9082
 30
0.0
 10
-98.5665
 20
-46.8981
 30
0.0
 10
-98.5665
 20
-46.8981
 30
0.0
 10
-98.4863
 20
-46.888
 30
0.0
 10
-98.4081
 20
-46.9281
 30
0.0
 10
-98.3694
 20
-46.9989
 30
0.0
 10
-98.3694
 20
-46.9989
 30
0.0
 10
-97.9247
 20
-47.6864
 30
0.0
 10
-97.1202
 20
-48.0521
 30
0.0
 10
-96.3098
 20
-47.935
 30
0.0
 10
-96.3098
 20
-47.935
 30
0.0
 10
-95.4993
 20
-47.8179
 30
0.0
 10
-94.8314
 20
-47.2392
 30
0.0
 10
-94.5996
 20
-46.4539
 30
0.0
 10
-94.5996
 20
-46.4539
 30
0.0
 10
-94.55
 20
-44.7352
 30
0.0
 10
-95.7344
 20
-43.226
 30
0.0
 10
-97.4156
 20
-42.8659
 30
0.0
 10
-97.4156
 20
-42.8659
 30
0.0
 10
-99.3554
 20
-42.7723
 30
0.0
 10
-101.2844
 20
-42.5217
 30
0.0
 10
-103.1838
 20
-42.1164
 30
0.0
 10
-103.1838
 20
-42.1164
 30
0.0
 10
-101.3597
 20
-44.067
 30
0.0
 10
-99.9258
 20
-46.3487
 30
0.0
 10
-98.9598
 20
-48.8384
 30
0.0
 10
-98.9598
 20
-48.8384
 30
0.0
 10
-99.1088
 20
-48.2329
 30
0.0
 10
-99.0279
 20
-47.5937
 30
0.0
 10
-98.7328
 20
-47.0444
 30
0.0
  0
SPLINE
  5
A7
330
1F
100
AcDbEntity
  8
layer 1
 62
     7
370
     9
100
AcDbSpline
210
0.0
220
0.0
230
1.0
 70
    11
 71
     3
 72
    52
 73
    48
 74
     0
 42
0.0000000001
 43
0.0000000001
 12
1.0
 22
0.0
 32
0.0
 13
1.0
 23
0.0
 33
0.0
 40
0.0
 40
0.0
 40
0.0
 40
0.0
 40
0.0769230769230769
 40
0.0769230769230769
 40
0.0769230769230769
 40
0.0769230769230769
 40
0.1538461538461539
 40
0.1538461538461539
 40
0.1538461538461539
 40
0.1538461538461539
 40
0.2307692307692308
 40
0.2307692307692308
 40
0.2307692307692308
 40
0.2307692307692308
 40
0.3076923076923077
 40
0.3076923076923077
 40
0.3076923076923077
 40
0.3076923076923077
 40
0.3846153846153846
 40
0.3846153846153846
 40
0.3846153846153846
 40
0.3846153846153846
 40
0.4615384615384616
 40
0.4615384615384616
 40
0.4615384615384616
 40
0.4615384615384616
 40
0.5384615384615384
 40
0.5384615384615384
 40
0.5384615384615384
 40
0.5384615384615384
 40
0.6153846153846154
 40
0.6153846153846154
 40
0.6153846153846154
 40
0.6153846153846154
 40
0.6923076923076923
 40
0.6923076923076923
 40
0.6923076923076923
 40
0.6923076923076923
 40
0.7692307692307693
 40
0.7692307692307693
 40
0.7692307692307693
 40
0.7692307692307693
 40
0.8461538461538461
 40
0.8461538461538461
 40
0.8461538461538461
 40
0.8461538461538461
 40
1.0
 40
1.0
 40
1.0
 40
1.0
 10
-105.2957
 20
-24.4031
 30
0.0
 10
-105.0499
 20
-27.2104
 30
0.0
 10
-103.0996
 20
-29.5762
 30
0.0
 10
-100.3906
 20
-30.3529
 30
0.0
 10
-100.3906
 20
-30.3529
 30
0.0
 10
-102.1764
 20
-30.6989
 30
0.0
 10
-103.3469
 20
-32.423
 30
0.0
 10
-103.0095
 20
-34.2107
 30
0.0
 10
-103.0095
 20
-34.2107
 30
0.0
 10
-102.6719
 20
-35.9981
 30
0.0
 10
-100.9534
 20
-37.1769
 30
0.0
 10
-99.1642
 20
-36.8478
 30
0.0
 10
-99.1642
 20
-36.8478
 30
0.0
 10
-99.0977
 20
-36.8675
 30
0.0
 10
-99.0257
 20
-36.8481
 30
0.0
 10
-98.978
 20
-36.7979
 30
0.0
 10
-98.978
 20
-36.7979
 30
0.0
 10
-98.9301
 20
-36.7476
 30
0.0
 10
-98.9143
 20
-36.6749
 30
0.0
 10
-98.9371
 20
-36.6095
 30
0.0
 10
-98.9371
 20
-36.6095
 30
0.0
 10
-99.5676
 20
-35.9625
 30
0.0
 10
-99.698
 20
-34.978
 30
0.0
 10
-99.2577
 20
-34.1891
 30
0.0
 10
-99.2577
 20
-34.1891
 30
0.0
 10
-98.8175
 20
-33.4005
 30
0.0
 10
-97.9111
 20
-32.9946
 30
0.0
 10
-97.0296
 20
-33.1915
 30
0.0
 10
-97.0296
 20
-33.1915
 30
0.0
 10
-96.1359
 20
-33.3735
 30
0.0
 10
-95.3594
 20
-33.9218
 30
0.0
 10
-94.8889
 20
-34.7031
 30
0.0
 10
-94.8889
 20
-34.7031
 30
0.0
 10
-94.4185
 20
-35.4844
 30
0.0
 10
-94.2971
 20
-36.427
 30
0.0
 10
-94.5542
 20
-37.3021
 30
0.0
 10
-94.5542
 20
-37.3021
 30
0.0
 10
-95.2456
 20
-39.6118
 30
0.0
 10
-97.5288
 20
-41.063
 30
0.0
 10
-99.9136
 20
-40.7084
 30
0.0
 10
-99.9136
 20
-40.7084
 30
0.0
 10
-103.2772
 20
-40.0358
 30
0.0
 10
-105.7664
 20
-37.1831
 30
0.0
 10
-105.977
 20
-33.7594
 30
0.0
 10
-105.977
 20
-33.7594
 30
0.0
 10
-106.2044
 20
-30.624
 30
0.0
 10
-105.9749
 20
-27.4723
 30
0.0
 10
-105.2957
 20
-24.4031
 30
0.0
  0
SPLINE
  5
A8
330
1F
100
AcDbEntity
  8
layer 1
 62
     7
370
     9
100
AcDbSpline
210
0.0
220
0.0
230
1.0
 70
    11
 71
     3
 72
    96
 73
    92
 74
     0
 42
0.0000000001
 43
0.0000000001
 12
1.0
 22
0.0
 32
0.0
 13
1.0
 23
0.0
 33
0.0
 40
0.0
 40
0.0
 40
0.0
 40
0.0
 40
0.0416666666666667
 40
0.0416666666666667
 40
0.0416666666666667
 40
0.0416666666666667
 40
0.0833333333333333
 40
0.0833333333333333
 40
0.0833333333333333
 40
0.0833333333333333
 40
0.125
 40
0.125
 40
0.125
 40
0.125
 40
0.1666666666666667
 40
0.1666666666666667
 40
0.1666666666666667
 40
0.1666666666666667
 40
0.2083333333333333
 40
0.2083333333333333
 40
0.2083333333333333
 40
0.2083333333333333
 40
0.25
 40
0.25
 40
0.25
 40
0.25
 40
0.2916666666666667
 40
0.2916666666666667
 40
0.2916666666666667
 40
0.2916666666666667
 40
0.3333333333333333
 40
0.3333333333333333
 40
0.3333333333333333
 40
0.3333333333333333
 40
0.375
 40
0.375
 40
0.375
 40
0.375
 40
0.4166666666666667
 40
0.4166666666666667
 40
0.4166666666666667
 40
0.4166666666666667
 40
0.4583333333333333
 40
0.4583333333333333
 40
0.4583333333333333
 40
0.4583333333333333
 40
0.5
 40
0.5
 40
0.5
 40
0.5
 40
0.5416666666666666
 40
0.5416666666666666
 40
0.5416666666666666
 40
0.5416666666666666
 40
0.5833333333333334
 40
0.5833333333333334
 40
0.5833333333333334
 40
0.5833333333333334
 40
0.625
 40
0.625
 40
0.625
 40
0.625
 40
0.6666666666666666
 40
0.6666666666666666
 40
0.6666666666666666
 40
0.6666666666666666
 40
0.7083333333333334
 40
0.7083333333333334
 40
0.7083333333333334
 40
0.7083333333333334
 40
0.75
 40
0.75
 40
0.75
 40
0.75
 40
0.7916666666666666
 40
0.7916666666666666
 40
0.7916666666666666
 40
0.7916666666666666
 40
0.8333333333333334
 40
0.8333333333333334
 40
0.8333333333333334
 40
0.8333333333333334
 40
0.875
 40
0.875
 40
0.875
 40
0.875
 40
0.9166666666666666
 40
0.9166666666666666
 40
0.9166666666666666
 40
0.9166666666666666
 40
1.0
 40
1.0
 40
1.0
 40
1.0
 10
-123.1226
 20
-91.4868
 30
0.0
 10
-121.7073
 20
-92.6568
 30
0.0
 10
-120.6455
 20
-94.1982
 30
0.0
 10
-120.057
 20
-95.9378
 30
0.0
 10
-120.057
 20
-95.9378
 30
0.0
 10
-120.2721
 20
-92.0582
 30
0.0
 10
-118.6174
 20
-88.31
 30
0.0
 10
-115.6058
 20
-85.8549
 30
0.0
 10
-115.6058
 20
-85.8549
 30
0.0
 10
-111.3995
 20
-82.8995
 30
0.0
 10
-106.014
 20
-82.1877
 30
0.0
 10
-101.1844
 20
-83.949
 30
0.0
 10
-101.1844
 20
-83.949
 30
0.0
 10
-102.0615
 20
-83.0669
 30
0.0
 10
-102.3613
 20
-81.7629
 30
0.0
 10
-101.9575
 20
-80.5862
 30
0.0
 10
-101.9575
 20
-80.5862
 30
0.0
 10
-101.9188
 20
-80.4808
 30
0.0
 10
-101.8225
 20
-80.4073
 30
0.0
 10
-101.7108
 20
-80.3978
 30
0.0
 10
-101.7108
 20
-80.3978
 30
0.0
 10
-101.599
 20
-80.388
 30
0.0
 10
-101.4916
 20
-80.4438
 30
0.0
 10
-101.4351
 20
-80.5408
 30
0.0
 10
-101.4351
 20
-80.5408
 30
0.0
 10
-100.8615
 20
-81.1342
 30
0.0
 10
-100.0551
 20
-81.4439
 30
0.0
 10
-99.2318
 20
-81.387
 30
0.0
 10
-99.2318
 20
-81.387
 30
0.0
 10
-98.4085
 20
-81.33
 30
0.0
 10
-97.6523
 20
-80.9122
 30
0.0
 10
-97.1658
 20
-80.2455
 30
0.0
 10
-97.1658
 20
-80.2455
 30
0.0
 10
-96.7945
 20
-79.1992
 30
0.0
 10
-97.0159
 20
-78.0337
 30
0.0
 10
-97.7451
 20
-77.1963
 30
0.0
 10
-97.7451
 20
-77.1963
 30
0.0
 10
-98.4743
 20
-76.359
 30
0.0
 10
-99.5981
 20
-75.9794
 30
0.0
 10
-100.6858
 20
-76.2033
 30
0.0
 10
-100.6858
 20
-76.2033
 30
0.0
 10
-102.3082
 20
-76.6119
 30
0.0
 10
-103.8457
 20
-77.3038
 30
0.0
 10
-105.2277
 20
-78.2471
 30
0.0
 10
-105.2277
 20
-78.2471
 30
0.0
 10
-108.5426
 20
-80.403
 30
0.0
 10
-112.845
 20
-80.2855
 30
0.0
 10
-116.0374
 20
-77.9519
 30
0.0
 10
-116.0374
 20
-77.9519
 30
0.0
 10
-116.1226
 20
-77.8766
 30
0.0
 10
-116.2137
 20
-77.8084
 30
0.0
 10
-116.31
 20
-77.7475
 30
0.0
 10
-116.31
 20
-77.7475
 30
0.0
 10
-116.0244
 20
-78.9945
 30
0.0
 10
-116.357
 20
-80.3025
 30
0.0
 10
-117.2035
 20
-81.2616
 30
0.0
 10
-117.2035
 20
-81.2616
 30
0.0
 10
-118.0499
 20
-82.2205
 30
0.0
 10
-119.3066
 20
-82.7131
 30
0.0
 10
-120.5793
 20
-82.5847
 30
0.0
 10
-120.5793
 20
-82.5847
 30
0.0
 10
-119.9659
 20
-83.3015
 30
0.0
 10
-119.6635
 20
-84.2332
 30
0.0
 10
-119.739
 20
-85.1736
 30
0.0
 10
-119.739
 20
-85.1736
 30
0.0
 10
-119.7968
 20
-85.2943
 30
0.0
 10
-119.9235
 20
-85.3667
 30
0.0
 10
-120.057
 20
-85.3553
 30
0.0
 10
-120.057
 20
-85.3553
 30
0.0
 10
-122.0106
 20
-85.6401
 30
0.0
 10
-124.0014
 20
-85.2129
 30
0.0
 10
-125.6662
 20
-84.1517
 30
0.0
 10
-125.6662
 20
-84.1517
 30
0.0
 10
-124.1375
 20
-85.3495
 30
0.0
 10
-122.844
 20
-86.8202
 30
0.0
 10
-121.851
 20
-88.4892
 30
0.0
 10
-121.851
 20
-88.4892
 30
0.0
 10
-121.3686
 20
-89.2673
 30
0.0
 10
-121.0157
 20
-90.1187
 30
0.0
 10
-120.8063
 20
-91.0099
 30
0.0
 10
-120.8063
 20
-91.0099
 30
0.0
 10
-120.7505
 20
-91.1203
 30
0.0
 10
-120.7522
 20
-91.251
 30
0.0
 10
-120.8112
 20
-91.3598
 30
0.0
 10
-120.8112
 20
-91.3598
 30
0.0
 10
-120.87
 20
-91.4685
 30
0.0
 10
-120.9786
 20
-91.5414
 30
0.0
 10
-121.1016
 20
-91.5549
 30
0.0
 10
-121.1016
 20
-91.5549
 30
0.0
 10
-121.7708
 20
-91.6959
 30
0.0
 10
-122.4644
 20
-91.6725
 30
0.0
 10
-123.1226
 20
-91.4868
 30
0.0
  0
SPLINE
  5
A9
330
1F
100
AcDbEntity
  8
layer 1
 62
     7
370
     9
100
AcDbSpline
210
0.0
220
0.0
230
1.0
 70
    11
 71
     3
 72
    28
 73
    24
 74
     0
 42
0.0000000001
 43
0.0000000001
 12
1.0
 22
0.0
 32
0.0
 13
1.0
 23
0.0
 33
0.0
 40
0.0
 40
0.0
 40
0.0
 40
0.0
 40
0.1428571428571428
 40
0.1428571428571428
 40
0.1428571428571428
 40
0.1428571428571428
 40
0.2857142857142857
 40
0.2857142857142857
 40
0.2857142857142857
 40
0.2857142857142857
 40
0.4285714285714285
 40
0.4285714285714285
 40
0.4285714285714285
 40
0.4285714285714285
 40
0.5714285714285714
 40
0.5714285714285714
 40
0.5714285714285714
 40
0.5714285714285714
 40
0.7142857142857143
 40
0.7142857142857143
 40
0.7142857142857143
 40
0.7142857142857143
 40
1.0
 40
1.0
 40
1.0
 40
1.0
 10
-103.7066
 20
-90.8937
 30
0.0
 10
-97.0116
 20
-92.036
 30
0.0
 10
-92.0188
 20
-97.6916
 30
0.0
 10
-91.7155
 20
-104.4767
 30
0.0
 10
-91.7155
 20
-104.4767
 30
0.0
 10
-93.5098
 20
-101.8809
 30
0.0
 10
-96.5113
 20
-100.3887
 30
0.0
 10
-99.6639
 20
-100.5251
 30
0.0
 10
-99.6639
 20
-100.5251
 30
0.0
 10
-98.8726
 20
-96.8223
 30
0.0
 10
-100.529
 20
-93.0271
 30
0.0
 10
-103.782
 20
-91.0892
 30
0.0
 10
-103.782
 20
-91.0892
 30
0.0
 10
-103.7814
 20
-91.0865
 30
0.0
 10
-103.7807
 20
-91.0838
 30
0.0
 10
-103.7799
 20
-91.0809
 30
0.0
 10
-103.7799
 20
-91.0809
 30
0.0
 10
-103.7701
 20
-91.0488
 30
0.0
 10
-103.7597
 20
-91.0169
 30
0.0
 10
-103.7474
 20
-90.9856
 30
0.0
 10
-103.7474
 20
-90.9856
 30
0.0
 10
-103.7352
 20
-90.9544
 30
0.0
 10
-103.7212
 20
-90.9238
 30
0.0
 10
-103.7066
 20
-90.8937
 30
0.0
  0
SPLINE
  5
AA
330
1F
100
AcDbEntity
  8
layer 1
 62
     7
370
     9
100
AcDbSpline
210
0.0
220
0.0
230
1.0
 70
    11
 71
     3
 72
    24
 73
    20
 74
     0
 42
0.0000000001
 43
0.0000000001
 12
1.0
 22
0.0
 32
0.0
 13
1.0
 23
0.0
 33
0.0
 40
0.0
 40
0.0
 40
0.0
 40
0.0
 40
0.1666666666666667
 40
0.1666666666666667
 40
0.1666666666666667
 40
0.1666666666666667
 40
0.3333333333333333
 40
0.3333333333333333
 40
0.3333333333333333
 40
0.3333333333333333
 40
0.5
 40
0.5
 40
0.5
 40
0.5
 40
0.6666666666666666
 40
0.6666666666666666
 40
0.6666666666666666
 40
0.6666666666666666
 40
1.0
 40
1.0
 40
1.0
 40
1.0
 10
-104.9777
 20
-85.6732
 30
0.0
 10
-108.0453
 20
-85.3332
 30
0.0
 10
-111.05
 20
-86.7137
 30
0.0
 10
-112.7904
 20
-89.2624
 30
0.0
 10
-112.7904
 20
-89.2624
 30
0.0
 10
-114.5308
 20
-91.8112
 30
0.0
 10
-114.7227
 20
-95.1121
 30
0.0
 10
-113.2895
 20
-97.8454
 30
0.0
 10
-113.2895
 20
-97.8454
 30
0.0
 10
-113.3791
 20
-95.9267
 30
0.0
 10
-112.6845
 20
-94.0539
 30
0.0
 10
-111.3654
 20
-92.6575
 30
0.0
 10
-111.3654
 20
-92.6575
 30
0.0
 10
-110.0462
 20
-91.2613
 30
0.0
 10
-108.2159
 20
-90.4615
 30
0.0
 10
-106.295
 20
-90.4422
 30
0.0
 10
-106.295
 20
-90.4422
 30
0.0
 10
-106.7045
 20
-88.7319
 30
0.0
 10
-106.2071
 20
-86.931
 30
0.0
 10
-104.9777
 20
-85.6732
 30
0.0
  0
SPLINE
  5
AB
330
1F
100
AcDbEntity
  8
layer 1
 62
     7
370
     9
100
AcDbSpline
210
0.0
220
0.0
230
1.0
 70
    11
 71
     3
 72
    48
 73
    44
 74
     0
 42
0.0000000001
 43
0.0000000001
 12
1.0
 22
0.0
 32
0.0
 13
1.0
 23
0.0
 33
0.0
 40
0.0
 40
0.0
 40
0.0
 40
0.0
 40
0.0833333333333333
 40
0.0833333333333333
 40
0.0833333333333333
 40
0.0833333333333333
 40
0.1666666666666667
 40
0.1666666666666667
 40
0.1666666666666667
 40
0.1666666666666667
 40
0.25
 40
0.25
 40
0.25
 40
0.25
 40
0.3333333333333333
 40
0.3333333333333333
 40
0.3333333333333333
 40
0.3333333333333333
 40
0.4166666666666667
 40
0.4166666666666667
 40
0.4166666666666667
 40
0.4166666666666667
 40
0.5
 40
0.5
 40
0.5
 40
0.5
 40
0.5833333333333334
 40
0.5833333333333334
 40
0.5833333333333334
 40
0.5833333333333334
 40
0.6666666666666666
 40
0.6666666666666666
 40
0.6666666666666666
 40
0.6666666666666666
 40
0.75
 40
0.75
 40
0.75
 40
0.75
 40
0.8333333333333334
 40
0.8333333333333334
 40
0.8333333333333334
 40
0.8333333333333334
 40
1.0
 40
1.0
 40
1.0
 40
1.0
 10
-107.4306
 20
-98.7084
 30
0.0
 10
-107.3363
 20
-98.7815
 30
0.0
 10
-107.2852
 20
-98.897
 30
0.0
 10
-107.2943
 20
-99.0159
 30
0.0
 10
-107.2943
 20
-99.0159
 30
0.0
 10
-107.3035
 20
-99.1347
 30
0.0
 10
-107.3717
 20
-99.241
 30
0.0
 10
-107.4759
 20
-99.2988
 30
0.0
 10
-107.4759
 20
-99.2988
 30
0.0
 10
-108.648
 20
-100.1244
 30
0.0
 10
-110.171
 20
-100.2628
 30
0.0
 10
-111.4728
 20
-99.6622
 30
0.0
 10
-111.4728
 20
-99.6622
 30
0.0
 10
-111.391
 20
-100.4378
 30
0.0
 10
-111.6318
 20
-101.2128
 30
0.0
 10
-112.1386
 20
-101.8055
 30
0.0
 10
-112.1386
 20
-101.8055
 30
0.0
 10
-112.6453
 20
-102.3982
 30
0.0
 10
-113.3737
 20
-102.7564
 30
0.0
 10
-114.1525
 20
-102.7962
 30
0.0
 10
-114.1525
 20
-102.7962
 30
0.0
 10
-111.5787
 20
-105.3063
 30
0.0
 10
-107.5969
 20
-105.6666
 30
0.0
 10
-104.6144
 20
-103.6591
 30
0.0
 10
-104.6144
 20
-103.6591
 30
0.0
 10
-102.2583
 20
-101.8399
 30
0.0
 10
-101.617
 20
-98.5552
 30
0.0
 10
-103.1157
 20
-95.9833
 30
0.0
 10
-103.1157
 20
-95.9833
 30
0.0
 10
-103.5928
 20
-95.2281
 30
0.0
 10
-104.3598
 20
-94.7029
 30
0.0
 10
-105.2364
 20
-94.531
 30
0.0
 10
-105.2364
 20
-94.531
 30
0.0
 10
-106.1128
 20
-94.3592
 30
0.0
 10
-107.0215
 20
-94.5558
 30
0.0
 10
-107.7483
 20
-95.0748
 30
0.0
 10
-107.7483
 20
-95.0748
 30
0.0
 10
-108.3026
 20
-95.543
 30
0.0
 10
-108.5947
 20
-96.2514
 30
0.0
 10
-108.5315
 20
-96.9742
 30
0.0
 10
-108.5315
 20
-96.9742
 30
0.0
 10
-108.4683
 20
-97.6968
 30
0.0
 10
-108.0576
 20
-98.3436
 30
0.0
 10
-107.4306
 20
-98.7084
 30
0.0
  0
SPLINE
  5
AC
330
1F
100
AcDbEntity
  8
layer 1
 62
     7
370
     9
100
AcDbSpline
210
0.0
220
0.0
230
1.0
 70
    11
 71
     3
 72
    28
 73
    24
 74
     0
 42
0.0000000001
 43
0.0000000001
 12
1.0
 22
0.0
 32
0.0
 13
1.0
 23
0.0
 33
0.0
 40
0.0
 40
0.0
 40
0.0
 40
0.0
 40
0.1428571428571428
 40
0.1428571428571428
 40
0.1428571428571428
 40
0.1428571428571428
 40
0.2857142857142857
 40
0.2857142857142857
 40
0.2857142857142857
 40
0.2857142857142857
 40
0.4285714285714285
 40
0.4285714285714285
 40
0.4285714285714285
 40
0.4285714285714285
 40
0.5714285714285714
 40
0.5714285714285714
 40
0.5714285714285714
 40
0.5714285714285714
 40
0.7142857142857143
 40
0.7142857142857143
 40
0.7142857142857143
 40
0.7142857142857143
 40
1.0
 40
1.0
 40
1.0
 40
1.0
 10
-122.01
 20
-79.905
 30
0.0
 10
-126.9115
 20
-79.4888
 30
0.0
 10
-131.1359
 20
-76.2893
 30
0.0
 10
-132.865
 20
-71.6842
 30
0.0
 10
-132.865
 20
-71.6842
 30
0.0
 10
-128.3823
 20
-74.5013
 30
0.0
 10
-122.6195
 20
-74.2296
 30
0.0
 10
-118.4218
 20
-71.0029
 30
0.0
 10
-118.4218
 20
-71.0029
 30
0.0
 10
-119.5625
 20
-72.7504
 30
0.0
 10
-119.2108
 20
-75.0758
 30
0.0
 10
-117.6044
 20
-76.4078
 30
0.0
 10
-117.6044
 20
-76.4078
 30
0.0
 10
-118.1744
 20
-76.2182
 30
0.0
 10
-118.779
 20
-76.1562
 30
0.0
 10
-119.3757
 20
-76.2261
 30
0.0
 10
-119.3757
 20
-76.2261
 30
0.0
 10
-119.0247
 20
-77.0765
 30
0.0
 10
-119.137
 20
-78.048
 30
0.0
 10
-119.6726
 20
-78.796
 30
0.0
 10
-119.6726
 20
-78.796
 30
0.0
 10
-120.2084
 20
-79.544
 30
0.0
 10
-121.0917
 20
-79.9632
 30
0.0
 10
-122.01
 20
-79.905
 30
0.0
  0
SPLINE
  5
AD
330
1F
100
AcDbEntity
  8
layer 1
 62
     7
370
     9
100
AcDbSpline
210
0.0
220
0.0
230
1.0
 70
    11
 71
     3
 72
    36
 73
    32
 74
     0
 42
0.0000000001
 43
0.0000000001
 12
1.0
 22
0.0
 32
0.0
 13
1.0
 23
0.0
 33
0.0
 40
0.0
 40
0.0
 40
0.0
 40
0.0
 40
0.1111111111111111
 40
0.1111111111111111
 40
0.1111111111111111
 40
0.1111111111111111
 40
0.2222222222222222
 40
0.2222222222222222
 40
0.2222222222222222
 40
0.2222222222222222
 40
0.3333333333333333
 40
0.3333333333333333
 40
0.3333333333333333
 40
0.3333333333333333
 40
0.4444444444444444
 40
0.4444444444444444
 40
0.4444444444444444
 40
0.4444444444444444
 40
0.5555555555555556
 40
0.5555555555555556
 40
0.5555555555555556
 40
0.5555555555555556
 40
0.6666666666666666
 40
0.6666666666666666
 40
0.6666666666666666
 40
0.6666666666666666
 40
0.7777777777777778
 40
0.7777777777777778
 40
0.7777777777777778
 40
0.7777777777777778
 40
1.0
 40
1.0
 40
1.0
 40
1.0
 10
-132.2291
 20
-63.0999
 30
0.0
 10
-133.1047
 20
-65.0734
 30
0.0
 10
-132.5019
 20
-67.3899
 30
0.0
 10
-130.7758
 20
-68.6866
 30
0.0
 10
-130.7758
 20
-68.6866
 30
0.0
 10
-127.0184
 20
-70.484
 30
0.0
 10
-122.5785
 20
-70.0811
 30
0.0
 10
-119.2058
 20
-67.6369
 30
0.0
 10
-119.2058
 20
-67.6369
 30
0.0
 10
-115.833
 20
-65.1925
 30
0.0
 10
-114.0683
 20
-61.0989
 30
0.0
 10
-114.6067
 20
-56.9684
 30
0.0
 10
-114.6067
 20
-56.9684
 30
0.0
 10
-115.1944
 20
-58.4209
 30
0.0
 10
-116.4061
 20
-59.5307
 30
0.0
 10
-117.9045
 20
-59.989
 30
0.0
 10
-117.9045
 20
-59.989
 30
0.0
 10
-119.4029
 20
-60.4473
 30
0.0
 10
-121.0282
 20
-60.2053
 30
0.0
 10
-122.3279
 20
-59.3302
 30
0.0
 10
-122.3279
 20
-59.3302
 30
0.0
 10
-121.3522
 20
-61.4751
 30
0.0
 10
-121.83
 20
-64.002
 30
0.0
 10
-123.5214
 20
-65.6426
 30
0.0
 10
-123.5214
 20
-65.6426
 30
0.0
 10
-125.2131
 20
-67.2832
 30
0.0
 10
-127.7533
 20
-67.6835
 30
0.0
 10
-129.8674
 20
-66.6427
 30
0.0
 10
-129.8674
 20
-66.6427
 30
0.0
 10
-130.9798
 20
-65.7142
 30
0.0
 10
-131.8001
 20
-64.4838
 30
0.0
 10
-132.2291
 20
-63.0999
 30
0.0
  0
SPLINE
  5
AE
330
1F
100
AcDbEntity
  8
layer 1
 62
     7
370
     9
100
AcDbSpline
210
0.0
220
0.0
230
1.0
 70
    11
 71
     3
 72
    20
 73
    16
 74
     0
 42
0.0000000001
 43
0.0000000001
 12
1.0
 22
0.0
 32
0.0
 13
1.0
 23
0.0
 33
0.0
 40
0.0
 40
0.0
 40
0.0
 40
0.0
 40
0.2
 40
0.2
 40
0.2
 40
0.2
 40
0.4
 40
0.4
 40
0.4
 40
0.4
 40
0.6
 40
0.6
 40
0.6
 40
0.6
 40
1.0
 40
1.0
 40
1.0
 40
1.0
 10
-128.3231
 20
-59.8293
 30
0.0
 10
-126.9434
 20
-59.8293
 30
0.0
 10
-125.8248
 20
-60.9479
 30
0.0
 10
-125.8248
 20
-62.3278
 30
0.0
 10
-125.8248
 20
-62.3278
 30
0.0
 10
-125.8248
 20
-63.7076
 30
0.0
 10
-126.9434
 20
-64.8262
 30
0.0
 10
-128.3231
 20
-64.8262
 30
0.0
 10
-128.3231
 20
-64.8262
 30
0.0
 10
-129.7031
 20
-64.8262
 30
0.0
 10
-130.8217
 20
-63.7076
 30
0.0
 10
-130.8217
 20
-62.3278
 30
0.0
 10
-130.8217
 20
-62.3278
 30
0.0
 10
-130.8217
 20
-60.9479
 30
0.0
 10
-129.7031
 20
-59.8293
 30
0.0
 10
-128.3231
 20
-59.8293
 30
0.0
  0
SPLINE
  5
AF
330
1F
100
AcDbEntity
  8
layer 1
 62
     7
370
     9
100
AcDbSpline
210
0.0
220
0.0
230
1.0
 70
    11
 71
     3
 72
    36
 73
    32
 74
     0
 42
0.0000000001
 43
0.0000000001
 12
1.0
 22
0.0
 32
0.0
 13
1.0
 23
0.0
 33
0.0
 40
0.0
 40
0.0
 40
0.0
 40
0.0
 40
0.1111111111111111
 40
0.1111111111111111
 40
0.1111111111111111
 40
0.1111111111111111
 40
0.2222222222222222
 40
0.2222222222222222
 40
0.2222222222222222
 40
0.2222222222222222
 40
0.3333333333333333
 40
0.3333333333333333
 40
0.3333333333333333
 40
0.3333333333333333
 40
0.4444444444444444
 40
0.4444444444444444
 40
0.4444444444444444
 40
0.4444444444444444
 40
0.5555555555555556
 40
0.5555555555555556
 40
0.5555555555555556
 40
0.5555555555555556
 40
0.6666666666666666
 40
0.6666666666666666
 40
0.6666666666666666
 40
0.6666666666666666
 40
0.7777777777777778
 40
0.7777777777777778
 40
0.7777777777777778
 40
0.7777777777777778
 40
1.0
 40
1.0
 40
1.0
 40
1.0
 10
-132.956
 20
-56.2417
 30
0.0
 10
-132.9834
 20
-56.2926
 30
0.0
 10
-132.9719
 20
-56.3556
 30
0.0
 10
-132.9286
 20
-56.3936
 30
0.0
 10
-132.9286
 20
-56.3936
 30
0.0
 10
-132.8851
 20
-56.4317
 30
0.0
 10
-132.821
 20
-56.4346
 30
0.0
 10
-132.7743
 20
-56.4007
 30
0.0
 10
-132.7743
 20
-56.4007
 30
0.0
 10
-130.675
 20
-54.6984
 30
0.0
 10
-127.8726
 20
-54.138
 30
0.0
 10
-125.2802
 20
-54.9017
 30
0.0
 10
-125.2802
 20
-54.9017
 30
0.0
 10
-125.1047
 20
-54.9107
 30
0.0
 10
-124.9291
 20
-54.8954
 30
0.0
 10
-124.7578
 20
-54.8564
 30
0.0
 10
-124.7578
 20
-54.8564
 30
0.0
 10
-124.0485
 20
-54.5894
 30
0.0
 10
-123.5546
 20
-53.9398
 30
0.0
 10
-123.4868
 20
-53.1849
 30
0.0
 10
-123.4868
 20
-53.1849
 30
0.0
 10
-123.4191
 20
-52.43
 30
0.0
 10
-123.7893
 20
-51.703
 30
0.0
 10
-124.4399
 20
-51.3138
 30
0.0
 10
-124.4399
 20
-51.3138
 30
0.0
 10
-126.466
 20
-50.7437
 30
0.0
 10
-128.6393
 20
-51.3885
 30
0.0
 10
-130.0264
 20
-52.9715
 30
0.0
 10
-130.0264
 20
-52.9715
 30
0.0
 10
-131.1403
 20
-53.93
 30
0.0
 10
-132.1251
 20
-55.0293
 30
0.0
 10
-132.956
 20
-56.2417
 30
0.0
  0
SPLINE
  5
B0
330
1F
100
AcDbEntity
  8
layer 1
 62
     7
370
     9
100
AcDbSpline
210
0.0
220
0.0
230
1.0
 70
    11
 71
     3
 72
    32
 73
    28
 74
     0
 42
0.0000000001
 43
0.0000000001
 12
1.0
 22
0.0
 32
0.0
 13
1.0
 23
0.0
 33
0.0
 40
0.0
 40
0.0
 40
0.0
 40
0.0
 40
0.125
 40
0.125
 40
0.125
 40
0.125
 40
0.25
 40
0.25
 40
0.25
 40
0.25
 40
0.375
 40
0.375
 40
0.375
 40
0.375
 40
0.5
 40
0.5
 40
0.5
 40
0.5
 40
0.625
 40
0.625
 40
0.625
 40
0.625
 40
0.75
 40
0.75
 40
0.75
 40
0.75
 40
1.0
 40
1.0
 40
1.0
 40
1.0
 10
-132.3599
 20
-51.7423
 30
0.0
 10
-131.152
 20
-50.2516
 30
0.0
 10
-129.6454
 20
-49.0304
 30
0.0
 10
-127.9371
 20
-48.1571
 30
0.0
 10
-127.9371
 20
-48.1571
 30
0.0
 10
-127.3427
 20
-47.8989
 30
0.0
 10
-126.7853
 20
-47.5629
 30
0.0
 10
-126.2793
 20
-47.1579
 30
0.0
 10
-126.2793
 20
-47.1579
 30
0.0
 10
-125.8011
 20
-46.4416
 30
0.0
 10
-125.8653
 20
-45.4933
 30
0.0
 10
-126.4359
 20
-44.8481
 30
0.0
 10
-126.4359
 20
-44.8481
 30
0.0
 10
-127.0064
 20
-44.2029
 30
0.0
 10
-127.9398
 20
-44.0231
 30
0.0
 10
-128.7092
 20
-44.41
 30
0.0
 10
-128.7092
 20
-44.41
 30
0.0
 10
-131.2586
 20
-45.9091
 30
0.0
 10
-132.7639
 20
-48.7006
 30
0.0
 10
-132.6153
 20
-51.6544
 30
0.0
 10
-132.6153
 20
-51.6544
 30
0.0
 10
-132.6174
 20
-51.7164
 30
0.0
 10
-132.5787
 20
-51.7726
 30
0.0
 10
-132.52
 20
-51.7927
 30
0.0
 10
-132.52
 20
-51.7927
 30
0.0
 10
-132.4614
 20
-51.8129
 30
0.0
 10
-132.3963
 20
-51.7925
 30
0.0
 10
-132.3599
 20
-51.7423
 30
0.0
  0
SPLINE
  5
B1
330
1F
100
AcDbEntity
  8
layer 1
 62
     7
370
     9
100
AcDbSpline
210
0.0
220
0.0
230
1.0
 70
    11
 71
     3
 72
    32
 73
    28
 74
     0
 42
0.0000000001
 43
0.0000000001
 12
1.0
 22
0.0
 32
0.0
 13
1.0
 23
0.0
 33
0.0
 40
0.0
 40
0.0
 40
0.0
 40
0.0
 40
0.125
 40
0.125
 40
0.125
 40
0.125
 40
0.25
 40
0.25
 40
0.25
 40
0.25
 40
0.375
 40
0.375
 40
0.375
 40
0.375
 40
0.5
 40
0.5
 40
0.5
 40
0.5
 40
0.625
 40
0.625
 40
0.625
 40
0.625
 40
0.75
 40
0.75
 40
0.75
 40
0.75
 40
1.0
 40
1.0
 40
1.0
 40
1.0
 10
-131.0257
 20
-41.2536
 30
0.0
 10
-132.111
 20
-42.4293
 30
0.0
 10
-132.8669
 20
-43.8707
 30
0.0
 10
-133.217
 20
-45.4319
 30
0.0
 10
-133.217
 20
-45.4319
 30
0.0
 10
-133.2433
 20
-45.5388
 30
0.0
 10
-133.3432
 20
-45.6109
 30
0.0
 10
-133.4529
 20
-45.6025
 30
0.0
 10
-133.4529
 20
-45.6025
 30
0.0
 10
-133.5626
 20
-45.5941
 30
0.0
 10
-133.6502
 20
-45.5076
 30
0.0
 10
-133.66
 20
-45.398
 30
0.0
 10
-133.66
 20
-45.398
 30
0.0
 10
-134.4275
 20
-42.5358
 30
0.0
 10
-133.9579
 20
-39.4831
 30
0.0
 10
-132.3654
 20
-36.9841
 30
0.0
 10
-132.3654
 20
-36.9841
 30
0.0
 10
-131.744
 20
-36.3712
 30
0.0
 10
-130.7729
 20
-36.2907
 30
0.0
 10
-130.059
 20
-36.7928
 30
0.0
 10
-130.059
 20
-36.7928
 30
0.0
 10
-129.3449
 20
-37.2948
 30
0.0
 10
-129.0924
 20
-38.2356
 30
0.0
 10
-129.4587
 20
-39.028
 30
0.0
 10
-129.4587
 20
-39.028
 30
0.0
 10
-129.8631
 20
-39.8461
 30
0.0
 10
-130.3916
 20
-40.5968
 30
0.0
 10
-131.0257
 20
-41.2536
 30
0.0
  0
SPLINE
  5
B2
330
1F
100
AcDbEntity
  8
layer 1
 62
     7
370
     9
100
AcDbSpline
210
0.0
220
0.0
230
1.0
 70
    11
 71
     3
 72
    68
 73
    64
 74
     0
 42
0.0000000001
 43
0.0000000001
 12
1.0
 22
0.0
 32
0.0
 13
1.0
 23
0.0
 33
0.0
 40
0.0
 40
0.0
 40
0.0
 40
0.0
 40
0.0588235294117647
 40
0.0588235294117647
 40
0.0588235294117647
 40
0.0588235294117647
 40
0.1176470588235294
 40
0.1176470588235294
 40
0.1176470588235294
 40
0.1176470588235294
 40
0.1764705882352941
 40
0.1764705882352941
 40
0.1764705882352941
 40
0.1764705882352941
 40
0.2352941176470588
 40
0.2352941176470588
 40
0.2352941176470588
 40
0.2352941176470588
 40
0.2941176470588235
 40
0.2941176470588235
 40
0.2941176470588235
 40
0.2941176470588235
 40
0.3529411764705883
 40
0.3529411764705883
 40
0.3529411764705883
 40
0.3529411764705883
 40
0.4117647058823529
 40
0.4117647058823529
 40
0.4117647058823529
 40
0.4117647058823529
 40
0.4705882352941176
 40
0.4705882352941176
 40
0.4705882352941176
 40
0.4705882352941176
 40
0.5294117647058824
 40
0.5294117647058824
 40
0.5294117647058824
 40
0.5294117647058824
 40
0.5882352941176471
 40
0.5882352941176471
 40
0.5882352941176471
 40
0.5882352941176471
 40
0.6470588235294118
 40
0.6470588235294118
 40
0.6470588235294118
 40
0.6470588235294118
 40
0.7058823529411765
 40
0.7058823529411765
 40
0.7058823529411765
 40
0.7058823529411765
 40
0.7647058823529411
 40
0.7647058823529411
 40
0.7647058823529411
 40
0.7647058823529411
 40
0.8235294117647058
 40
0.8235294117647058
 40
0.8235294117647058
 40
0.8235294117647058
 40
0.8823529411764706
 40
0.8823529411764706
 40
0.8823529411764706
 40
0.8823529411764706
 40
1.0
 40
1.0
 40
1.0
 40
1.0
 10
-126.3702
 20
-33.3051
 30
0.0
 10
-127.955
 20
-31.6374
 30
0.0
 10
-129.3002
 20
-29.7571
 30
0.0
 10
-130.3671
 20
-27.7186
 30
0.0
 10
-130.3671
 20
-27.7186
 30
0.0
 10
-130.9815
 20
-30.1511
 30
0.0
 10
-130.194
 20
-32.7235
 30
0.0
 10
-128.3231
 20
-34.3952
 30
0.0
 10
-128.3231
 20
-34.3952
 30
0.0
 10
-127.493
 20
-35.0333
 30
0.0
 10
-127.1637
 20
-36.1307
 30
0.0
 10
-127.5056
 20
-37.1204
 30
0.0
 10
-127.5056
 20
-37.1204
 30
0.0
 10
-127.626
 20
-38.7048
 30
0.0
 10
-126.9648
 20
-40.2481
 30
0.0
 10
-125.7342
 20
-41.2536
 30
0.0
 10
-125.7342
 20
-41.2536
 30
0.0
 10
-124.0582
 20
-42.3173
 30
0.0
 10
-123.2097
 20
-44.303
 30
0.0
 10
-123.5996
 20
-46.2495
 30
0.0
 10
-123.5996
 20
-46.2495
 30
0.0
 10
-123.8959
 20
-47.9948
 30
0.0
 10
-123.1736
 20
-49.7565
 30
0.0
 10
-121.7374
 20
-50.7914
 30
0.0
 10
-121.7374
 20
-50.7914
 30
0.0
 10
-121.142
 20
-51.5641
 30
0.0
 10
-120.892
 20
-52.5485
 30
0.0
 10
-121.0468
 20
-53.5116
 30
0.0
 10
-121.0468
 20
-53.5116
 30
0.0
 10
-121.2016
 20
-54.4747
 30
0.0
 10
-121.7475
 20
-55.3311
 30
0.0
 10
-122.555
 20
-55.8783
 30
0.0
 10
-122.555
 20
-55.8783
 30
0.0
 10
-121.2535
 20
-56.6678
 30
0.0
 10
-119.6046
 20
-56.5963
 30
0.0
 10
-118.3764
 20
-55.6967
 30
0.0
 10
-118.3764
 20
-55.6967
 30
0.0
 10
-117.9658
 20
-55.4104
 30
0.0
 10
-117.7136
 20
-54.9478
 30
0.0
 10
-117.6958
 20
-54.4477
 30
0.0
 10
-117.6958
 20
-54.4477
 30
0.0
 10
-117.678
 20
-53.9475
 30
0.0
 10
-117.8964
 20
-53.4679
 30
0.0
 10
-118.2857
 20
-53.1533
 30
0.0
 10
-118.2857
 20
-53.1533
 30
0.0
 10
-118.3394
 20
-53.0335
 30
0.0
 10
-118.3377
 20
-52.8962
 30
0.0
 10
-118.2808
 20
-52.7779
 30
0.0
 10
-118.2808
 20
-52.7779
 30
0.0
 10
-118.2238
 20
-52.6597
 30
0.0
 10
-118.1176
 20
-52.5727
 30
0.0
 10
-117.9904
 20
-52.5401
 30
0.0
 10
-117.9904
 20
-52.5401
 30
0.0
 10
-116.6145
 20
-52.188
 30
0.0
 10
-115.1874
 20
-52.8918
 30
0.0
 10
-114.6294
 20
-54.1978
 30
0.0
 10
-114.6294
 20
-54.1978
 30
0.0
 10
-114.9269
 20
-49.2534
 30
0.0
 10
-116.8148
 20
-44.5377
 30
0.0
 10
-120.0116
 20
-40.7538
 30
0.0
 10
-120.0116
 20
-40.7538
 30
0.0
 10
-122.3007
 20
-38.4208
 30
0.0
 10
-124.4252
 20
-35.9321
 30
0.0
 10
-126.3702
 20
-33.3051
 30
0.0
  0
SPLINE
  5
B3
330
1F
100
AcDbEntity
  8
layer 1
 62
     7
370
     9
100
AcDbSpline
210
0.0
220
0.0
230
1.0
 70
    11
 71
     3
 72
    44
 73
    40
 74
     0
 42
0.0000000001
 43
0.0000000001
 12
1.0
 22
0.0
 32
0.0
 13
1.0
 23
0.0
 33
0.0
 40
0.0
 40
0.0
 40
0.0
 40
0.0
 40
0.0909090909090909
 40
0.0909090909090909
 40
0.0909090909090909
 40
0.0909090909090909
 40
0.1818181818181818
 40
0.1818181818181818
 40
0.1818181818181818
 40
0.1818181818181818
 40
0.2727272727272727
 40
0.2727272727272727
 40
0.2727272727272727
 40
0.2727272727272727
 40
0.3636363636363636
 40
0.3636363636363636
 40
0.3636363636363636
 40
0.3636363636363636
 40
0.4545454545454545
 40
0.4545454545454545
 40
0.4545454545454545
 40
0.4545454545454545
 40
0.5454545454545454
 40
0.5454545454545454
 40
0.5454545454545454
 40
0.5454545454545454
 40
0.6363636363636364
 40
0.6363636363636364
 40
0.6363636363636364
 40
0.6363636363636364
 40
0.7272727272727273
 40
0.7272727272727273
 40
0.7272727272727273
 40
0.7272727272727273
 40
0.8181818181818182
 40
0.8181818181818182
 40
0.8181818181818182
 40
0.8181818181818182
 40
1.0
 40
1.0
 40
1.0
 40
1.0
 10
-108.6567
 20
-37.3474
 30
0.0
 10
-112.583
 20
-34.3186
 30
0.0
 10
-116.6446
 20
-31.4693
 30
0.0
 10
-120.829
 20
-28.8086
 30
0.0
 10
-120.829
 20
-28.8086
 30
0.0
 10
-123.8574
 20
-26.492
 30
0.0
 10
-126.5545
 20
-23.772
 30
0.0
 10
-128.8455
 20
-20.7241
 30
0.0
 10
-128.8455
 20
-20.7241
 30
0.0
 10
-129.0062
 20
-20.4581
 30
0.0
 10
-129.0473
 20
-20.1366
 30
0.0
 10
-128.9591
 20
-19.8385
 30
0.0
 10
-128.9591
 20
-19.8385
 30
0.0
 10
-128.4156
 20
-17.5668
 30
0.0
 10
-126.8086
 20
-15.6975
 30
0.0
 10
-124.6442
 20
-14.8196
 30
0.0
 10
-124.6442
 20
-14.8196
 30
0.0
 10
-125.3055
 20
-15.1214
 30
0.0
 10
-125.8018
 20
-15.6974
 30
0.0
 10
-126.0028
 20
-16.396
 30
0.0
 10
-126.0028
 20
-16.396
 30
0.0
 10
-126.2036
 20
-17.0946
 30
0.0
 10
-126.089
 20
-17.8461
 30
0.0
 10
-125.6889
 20
-18.4532
 30
0.0
 10
-125.6889
 20
-18.4532
 30
0.0
 10
-124.4303
 20
-19.6536
 30
0.0
 10
-122.5015
 20
-19.8045
 30
0.0
 10
-121.0715
 20
-18.8145
 30
0.0
 10
-121.0715
 20
-18.8145
 30
0.0
 10
-119.6415
 20
-17.8245
 30
0.0
 10
-119.1039
 20
-15.9661
 30
0.0
 10
-119.7844
 20
-14.3654
 30
0.0
 10
-119.7844
 20
-14.3654
 30
0.0
 10
-118.1416
 20
-16.7027
 30
0.0
 10
-116.8983
 20
-19.2966
 30
0.0
 10
-116.1055
 20
-22.0413
 30
0.0
 10
-116.1055
 20
-22.0413
 30
0.0
 10
-114.259
 20
-27.4292
 30
0.0
 10
-111.7573
 20
-32.5698
 30
0.0
 10
-108.6567
 20
-37.3474
 30
0.0
  0
SPLINE
  5
B4
330
1F
100
AcDbEntity
  8
layer 1
 62
     7
370
     9
100
AcDbSpline
210
0.0
220
0.0
230
1.0
 70
    11
 71
     3
 72
    28
 73
    24
 74
     0
 42
0.0000000001
 43
0.0000000001
 12
1.0
 22
0.0
 32
0.0
 13
1.0
 23
0.0
 33
0.0
 40
0.0
 40
0.0
 40
0.0
 40
0.0
 40
0.1428571428571428
 40
0.1428571428571428
 40
0.1428571428571428
 40
0.1428571428571428
 40
0.2857142857142857
 40
0.2857142857142857
 40
0.2857142857142857
 40
0.2857142857142857
 40
0.4285714285714285
 40
0.4285714285714285
 40
0.4285714285714285
 40
0.4285714285714285
 40
0.5714285714285714
 40
0.5714285714285714
 40
0.5714285714285714
 40
0.5714285714285714
 40
0.7142857142857143
 40
0.7142857142857143
 40
0.7142857142857143
 40
0.7142857142857143
 40
1.0
 40
1.0
 40
1.0
 40
1.0
 10
-131.3663
 20
-0.9215
 30
0.0
 10
-131.5203
 20
-0.7662
 30
0.0
 10
-131.768
 20
-0.7563
 30
0.0
 10
-131.934
 20
-0.8987
 30
0.0
 10
-131.934
 20
-0.8987
 30
0.0
 10
-132.876
 20
-3.8375
 30
0.0
 10
-133.1247
 20
-6.9544
 30
0.0
 10
-132.6607
 20
-10.0051
 30
0.0
 10
-132.6607
 20
-10.0051
 30
0.0
 10
-132.3305
 20
-12.4759
 30
0.0
 10
-131.6658
 20
-14.89
 30
0.0
 10
-130.685
 20
-17.1815
 30
0.0
 10
-130.685
 20
-17.1815
 30
0.0
 10
-130.4501
 20
-15.0977
 30
0.0
 10
-129.1453
 20
-13.2875
 30
0.0
 10
-127.2429
 20
-12.4058
 30
0.0
 10
-127.2429
 20
-12.4058
 30
0.0
 10
-125.3403
 20
-11.5242
 30
0.0
 10
-123.1156
 20
-11.6988
 30
0.0
 10
-121.374
 20
-12.8666
 30
0.0
 10
-121.374
 20
-12.8666
 30
0.0
 10
-125.2101
 20
-9.3363
 30
0.0
 10
-128.5692
 20
-5.3207
 30
0.0
 10
-131.3663
 20
-0.9215
 30
0.0
  0
SPLINE
  5
B5
330
1F
100
AcDbEntity
  8
layer 1
 62
     7
370
     9
100
AcDbSpline
210
0.0
220
0.0
230
1.0
 70
    11
 71
     3
 72
    72
 73
    68
 74
     0
 42
0.0000000001
 43
0.0000000001
 12
1.0
 22
0.0
 32
0.0
 13
1.0
 23
0.0
 33
0.0
 40
0.0
 40
0.0
 40
0.0
 40
0.0
 40
0.0555555555555556
 40
0.0555555555555556
 40
0.0555555555555556
 40
0.0555555555555556
 40
0.1111111111111111
 40
0.1111111111111111
 40
0.1111111111111111
 40
0.1111111111111111
 40
0.1666666666666667
 40
0.1666666666666667
 40
0.1666666666666667
 40
0.1666666666666667
 40
0.2222222222222222
 40
0.2222222222222222
 40
0.2222222222222222
 40
0.2222222222222222
 40
0.2777777777777778
 40
0.2777777777777778
 40
0.2777777777777778
 40
0.2777777777777778
 40
0.3333333333333333
 40
0.3333333333333333
 40
0.3333333333333333
 40
0.3333333333333333
 40
0.3888888888888889
 40
0.3888888888888889
 40
0.3888888888888889
 40
0.3888888888888889
 40
0.4444444444444444
 40
0.4444444444444444
 40
0.4444444444444444
 40
0.4444444444444444
 40
0.5
 40
0.5
 40
0.5
 40
0.5
 40
0.5555555555555556
 40
0.5555555555555556
 40
0.5555555555555556
 40
0.5555555555555556
 40
0.6111111111111112
 40
0.6111111111111112
 40
0.6111111111111112
 40
0.6111111111111112
 40
0.6666666666666666
 40
0.6666666666666666
 40
0.6666666666666666
 40
0.6666666666666666
 40
0.7222222222222222
 40
0.7222222222222222
 40
0.7222222222222222
 40
0.7222222222222222
 40
0.7777777777777778
 40
0.7777777777777778
 40
0.7777777777777778
 40
0.7777777777777778
 40
0.8333333333333334
 40
0.8333333333333334
 40
0.8333333333333334
 40
0.8333333333333334
 40
0.8888888888888888
 40
0.8888888888888888
 40
0.8888888888888888
 40
0.8888888888888888
 40
1.0
 40
1.0
 40
1.0
 40
1.0
 10
-115.4924
 20
-11.9583
 30
0.0
 10
-113.8526
 20
-12.2746
 30
0.0
 10
-112.1709
 20
-11.6711
 30
0.0
 10
-111.1066
 20
-10.3843
 30
0.0
 10
-111.1066
 20
-10.3843
 30
0.0
 10
-110.0423
 20
-9.0976
 30
0.0
 10
-109.7647
 20
-7.3325
 30
0.0
 10
-110.3826
 20
-5.7812
 30
0.0
 10
-110.3826
 20
-5.7812
 30
0.0
 10
-110.2774
 20
-6.8682
 30
0.0
 10
-110.6871
 20
-7.9416
 30
0.0
 10
-111.49
 20
-8.6819
 30
0.0
 10
-111.49
 20
-8.6819
 30
0.0
 10
-112.2926
 20
-9.4221
 30
0.0
 10
-113.3955
 20
-9.7438
 30
0.0
 10
-114.4704
 20
-9.5511
 30
0.0
 10
-114.4704
 20
-9.5511
 30
0.0
 10
-115.796
 20
-9.3127
 30
0.0
 10
-116.8674
 20
-8.3352
 30
0.0
 10
-117.2259
 20
-7.0368
 30
0.0
 10
-117.2259
 20
-7.0368
 30
0.0
 10
-117.5843
 20
-5.7385
 30
0.0
 10
-117.1664
 20
-4.3497
 30
0.0
 10
-116.1508
 20
-3.4649
 30
0.0
 10
-116.1508
 20
-3.4649
 30
0.0
 10
-117.3012
 20
-4.1763
 30
0.0
 10
-118.717
 20
-4.3117
 30
0.0
 10
-119.9812
 20
-3.8309
 30
0.0
 10
-119.9812
 20
-3.8309
 30
0.0
 10
-121.2453
 20
-3.3503
 30
0.0
 10
-122.2135
 20
-2.3083
 30
0.0
 10
-122.6003
 20
-1.0123
 30
0.0
 10
-122.6003
 20
-1.0123
 30
0.0
 10
-122.6156
 20
-0.92
 30
0.0
 10
-122.5887
 20
-0.8259
 30
0.0
 10
-122.5271
 20
-0.7557
 30
0.0
 10
-122.5271
 20
-0.7557
 30
0.0
 10
-122.4655
 20
-0.6852
 30
0.0
 10
-122.3758
 20
-0.6461
 30
0.0
 10
-122.2825
 20
-0.6489
 30
0.0
 10
-122.2825
 20
-0.6489
 30
0.0
 10
-121.5157
 20
-1.084
 30
0.0
 10
-120.5763
 20
-1.0822
 30
0.0
 10
-119.8114
 20
-0.6439
 30
0.0
 10
-119.8114
 20
-0.6439
 30
0.0
 10
-119.0466
 20
-0.2054
 30
0.0
 10
-118.57
 20
0.6042
 30
0.0
 10
-118.5581
 20
1.4857
 30
0.0
 10
-118.5581
 20
1.4857
 30
0.0
 10
-118.4865
 20
3.0071
 30
0.0
 10
-119.4036
 20
4.4012
 30
0.0
 10
-120.829
 20
4.9376
 30
0.0
 10
-120.829
 20
4.9376
 30
0.0
 10
-123.6431
 20
6.1017
 30
0.0
 10
-126.8843
 20
5.3956
 30
0.0
 10
-128.9591
 20
3.1663
 30
0.0
 10
-128.9591
 20
3.1663
 30
0.0
 10
-129.3354
 20
2.8903
 30
0.0
 10
-129.4167
 20
2.3616
 30
0.0
 10
-129.1407
 20
1.9853
 30
0.0
 10
-129.1407
 20
1.9853
 30
0.0
 10
-127.6627
 20
-2.1011
 30
0.0
 10
-125.2523
 20
-5.7868
 30
0.0
 10
-122.1007
 20
-8.779
 30
0.0
 10
-122.1007
 20
-8.779
 30
0.0
 10
-120.2181
 20
-10.4049
 30
0.0
 10
-117.9378
 20
-11.502
 30
0.0
 10
-115.4924
 20
-11.9583
 30
0.0
  0
SPLINE
  5
B6
330
1F
100
AcDbEntity
  8
layer 1
 62
     7
370
     9
100
AcDbSpline
210
0.0
220
0.0
230
1.0
 70
    11
 71
     3
 72
    20
 73
    16
 74
     0
 42
0.0000000001
 43
0.0000000001
 12
1.0
 22
0.0
 32
0.0
 13
1.0
 23
0.0
 33
0.0
 40
0.0
 40
0.0
 40
0.0
 40
0.0
 40
0.2
 40
0.2
 40
0.2
 40
0.2
 40
0.4
 40
0.4
 40
0.4
 40
0.4
 40
0.6
 40
0.6
 40
0.6
 40
0.6
 40
1.0
 40
1.0
 40
1.0
 40
1.0
 10
-98.0288
 20
1.4403
 30
0.0
 10
-97.2315
 20
1.6471
 30
0.0
 10
-96.6541
 20
2.3383
 30
0.0
 10
-96.5925
 20
3.1595
 30
0.0
 10
-96.5925
 20
3.1595
 30
0.0
 10
-96.5309
 20
3.981
 30
0.0
 10
-96.9987
 20
4.7504
 30
0.0
 10
-97.7562
 20
5.0739
 30
0.0
 10
-97.7562
 20
5.0739
 30
0.0
 10
-103.2251
 20
5.3586
 30
0.0
 10
-108.4918
 20
2.9708
 30
0.0
 10
-111.8815
 20
-1.3302
 30
0.0
 10
-111.8815
 20
-1.3302
 30
0.0
 10
-107.8707
 20
1.5272
 30
0.0
 10
-102.8302
 20
2.5354
 30
0.0
 10
-98.0288
 20
1.4403
 30
0.0
  0
ENDSEC
  0
SECTION
  2
OBJECTS
  0
DICTIONARY
  5
C
330
0
100
AcDbDictionary
281
     1
  3
ACAD_GROUP
350
D
  3
ACAD_LAYOUT
350
1A
  3
ACAD_MATERIAL
350
3B
  3
ACAD_MLEADERSTYLE
350
D8
  3
ACAD_MLINESTYLE
350
17
  3
ACAD_PLOTSETTINGS
350
19
  3
ACAD_PLOTSTYLENAME
350
E
  3
ACAD_TABLESTYLE
350
D7
  3
ACAD_VISUALSTYLE
350
2A
  0
DICTIONARY
  5
D
102
{ACAD_REACTORS
330
C
102
}
330
C
100
AcDbDictionary
281
     1
  0
DICTIONARY
  5
1A
102
{ACAD_REACTORS
330
C
102
}
330
C
100
AcDbDictionary
281
     1
  3
Layout1
350
1E
  3
Layout2
350
26
  3
Model
350
22
  0
DICTIONARY
  5
3B
102
{ACAD_REACTORS
330
C
102
}
330
C
100
AcDbDictionary
281
     1
  3
ByBlock
350
3D
  3
ByLayer
350
3C
  3
Global
350
3E
  0
DICTIONARY
  5
D8
102
{ACAD_REACTORS
330
C
102
}
330
C
100
AcDbDictionary
281
     1
  0
DICTIONARY
  5
17
102
{ACAD_REACTORS
330
C
102
}
330
C
100
AcDbDictionary
281
     1
  3
Standard
350
18
  0
DICTIONARY
  5
19
102
{ACAD_REACTORS
330
C
102
}
330
C
100
AcDbDictionary
281
     1
  0
ACDBDICTIONARYWDFLT
  5
E
102
{ACAD_REACTORS
330
C
102
}
330
C
100
AcDbDictionary
281
     1
  3
Normal
350
F
100
AcDbDictionaryWithDefault
340
F
  0
DICTIONARY
  5
D7
102
{ACAD_REACTORS
330
C
102
}
330
C
100
AcDbDictionary
281
     1
  0
DICTIONARY
  5
2A
102
{ACAD_REACTORS
330
C
102
}
330
C
100
AcDbDictionary
281
     1
  3
2dWireframe
350
2F
  3
3D Hidden
350
31
  3
3dWireframe
350
30
  3
Basic
350
32
  3
Brighten
350
36
  3
ColorChange
350
3A
  3
Conceptual
350
34
  3
Dim
350
35
  3
Facepattern
350
39
  3
Flat
350
2B
  3
FlatWithEdges
350
2C
  3
Gouraud
350
2D
  3
GouraudWithEdges
350
2E
  3
Linepattern
350
38
  3
Realistic
350
33
  3
Thicken
350
37
  0
LAYOUT
  5
1E
102
{ACAD_REACTORS
330
1A
102
}
330
1A
100
AcDbPlotSettings
  1

  2
none_device
  4

  6

 40
0.0
 41
0.0
 42
0.0
 43
0.0
 44
0.0
 45
0.0
 46
0.0
 47
0.0
 48
0.0
 49
0.0
140
0.0
141
0.0
142
1.0
143
1.0
 70
   688
 72
     0
 73
     0
 74
     5
  7

 75
    16
 76
     0
 77
     2
 78
   300
147
1.0
148
0.0
149
0.0
100
AcDbLayout
  1
Layout1
 70
     1
 71
     1
 10
0.0
 20
0.0
 11
12.0
 21
9.0
 12
0.0
 22
0.0
 32
0.0
 14
1.000000000000000E+20
 24
1.000000000000000E+20
 34
1.000000000000000E+20
 15
-1.000000000000000E+20
 25
-1.000000000000000E+20
 35
-1.000000000000000E+20
146
0.0
 13
0.0
 23
0.0
 33
0.0
 16
1.0
 26
0.0
 36
0.0
 17
0.0
 27
1.0
 37
0.0
 76
     0
330
1B
  0
LAYOUT
  5
26
102
{ACAD_REACTORS
330
1A
102
}
330
1A
100
AcDbPlotSettings
  1

  2
none_device
  4

  6

 40
0.0
 41
0.0
 42
0.0
 43
0.0
 44
0.0
 45
0.0
 46
0.0
 47
0.0
 48
0.0
 49
0.0
140
0.0
141
0.0
142
1.0
143
1.0
 70
   688
 72
     0
 73
     0
 74
     5
  7

 75
    16
 76
     0
 77
     2
 78
   300
147
1.0
148
0.0
149
0.0
100
AcDbLayout
  1
Layout2
 70
     1
 71
     2
 10
0.0
 20
0.0
 11
0.0
 21
0.0
 12
0.0
 22
0.0
 32
0.0
 14
0.0
 24
0.0
 34
0.0
 15
0.0
 25
0.0
 35
0.0
146
0.0
 13
0.0
 23
0.0
 33
0.0
 16
1.0
 26
0.0
 36
0.0
 17
0.0
 27
1.0
 37
0.0
 76
     0
330
23
  0
LAYOUT
  5
22
102
{ACAD_REACTORS
330
1A
102
}
330
1A
100
AcDbPlotSettings
  1

  2
none_device
  4

  6

 40
0.0
 41
0.0
 42
0.0
 43
0.0
 44
0.0
 45
0.0
 46
0.0
 47
0.0
 48
0.0
 49
0.0
140
0.0
141
0.0
142
1.0
143
1.0
 70
  1712
 72
     0
 73
     0
 74
     0
  7

 75
     0
 76
     0
 77
     2
 78
   300
147
1.0
148
0.0
149
0.0
100
AcDbLayout
  1
Model
 70
     1
 71
     0
 10
0.0
 20
0.0
 11
12.0
 21
9.0
 12
0.0
 22
0.0
 32
0.0
 14
-187.3148
 24
-114.7794
 34
0.0
 15
-84.4104
 25
131.8297
 35
0.0
146
0.0
 13
0.0
 23
0.0
 33
0.0
 16
1.0
 26
0.0
 36
0.0
 17
0.0
 27
1.0
 37
0.0
 76
     0
330
1F
331
29
  0
MATERIAL
  5
3D
102
{ACAD_REACTORS
330
3B
102
}
330
3B
100
AcDbMaterial
  1
ByBlock
 72
     1
 94
      127
  0
MATERIAL
  5
3C
102
{ACAD_REACTORS
330
3B
102
}
330
3B
100
AcDbMaterial
  1
ByLayer
 72
     1
 94
      127
  0
MATERIAL
  5
3E
102
{ACAD_REACTORS
330
3B
102
}
330
3B
100
AcDbMaterial
  1
Global
 72
     1
 94
      127
  0
MLINESTYLE
  5
18
102
{ACAD_REACTORS
330
17
102
}
330
17
100
AcDbMlineStyle
  2
Standard
 70
     0
  3

 62
   256
 51
90.0
 52
90.0
 71
     2
 49
0.5
 62
   256
  6
BYLAYER
 49
-0.5
 62
   256
  6
BYLAYER
  0
ACDBPLACEHOLDER
  5
F
102
{ACAD_REACTORS
330
E
102
}
330
E
  0
VISUALSTYLE
  5
2F
102
{ACAD_REACTORS
330
2A
102
}
102
{ACAD_XDICTIONARY
360
BF
102
}
330
2A
100
AcDbVisualStyle
  2
2dWireframe
 70
     4
 71
     0
 72
     2
 73
     0
 90
        0
 40
-0.6
 41
-30.0
 62
     5
 63
     7
421
 16777215
 74
     1
 91
        4
 64
     7
 65
   257
 75
     1
175
     1
 42
1.0
 92
        0
 66
   257
 43
1.0
 76
     1
 77
     6
 78
     2
 67
     7
 79
     5
170
     0
171
     0
290
     0
174
     0
 93
        1
 44
0.0
173
     0
291
     0
 45
0.0
  0
VISUALSTYLE
  5
31
102
{ACAD_REACTORS
330
2A
102
}
102
{ACAD_XDICTIONARY
360
C3
102
}
330
2A
100
AcDbVisualStyle
  2
3D Hidden
 70
     6
 71
     1
 72
     2
 73
     2
 90
        0
 40
-0.6
 41
-30.0
 62
     5
 63
     7
421
 16777215
 74
     2
 91
        2
 64
     7
 65
   257
 75
     2
175
     1
 42
40.0
 92
        0
 66
   257
 43
1.0
 76
     1
 77
     6
 78
     2
 67
     7
 79
     3
170
     0
171
     0
290
     0
174
     0
 93
        1
 44
0.0
173
     0
291
     0
 45
0.0
  0
VISUALSTYLE
  5
30
102
{ACAD_REACTORS
330
2A
102
}
102
{ACAD_XDICTIONARY
360
C1
102
}
330
2A
100
AcDbVisualStyle
  2
3dWireframe
 70
     5
 71
     0
 72
     2
 73
     0
 90
        0
 40
-0.6
 41
-30.0
 62
     5
 63
     7
421
 16777215
 74
     1
 91
        4
 64
     7
 65
   257
 75
     1
175
     1
 42
1.0
 92
        0
 66
   257
 43
1.0
 76
     1
 77
     6
 78
     2
 67
     7
 79
     5
170
     0
171
     0
290
     0
174
     0
 93
        1
 44
0.0
173
     0
291
     0
 45
0.0
  0
VISUALSTYLE
  5
32
102
{ACAD_REACTORS
330
2A
102
}
102
{ACAD_XDICTIONARY
360
C5
102
}
330
2A
100
AcDbVisualStyle
  2
Basic
 70
     7
 71
     1
 72
     0
 73
     1
 90
        0
 40
-0.6
 41
-30.0
 62
     5
 63
     7
421
 16777215
 74
     0
 91
        4
 64
     7
 65
   257
 75
     1
175
     1
 42
1.0
 92
        8
 66
     7
 43
1.0
 76
     1
 77
     6
 78
     2
 67
     7
 79
     5
170
     0
171
     0
290
     0
174
     0
 93
        1
 44
0.0
173
     0
291
     1
 45
0.0
  0
VISUALSTYLE
  5
36
102
{ACAD_REACTORS
330
2A
102
}
102
{ACAD_XDICTIONARY
360
CD
102
}
330
2A
100
AcDbVisualStyle
  2
Brighten
 70
    12
 71
     2
 72
     2
 73
     0
 90
        0
 40
-0.6
 41
-30.0
 62
     5
 63
     7
421
 16777215
 74
     1
 91
        4
 64
     7
 65
   257
 75
     1
175
     1
 42
1.0
 92
        8
 66
     7
 43
1.0
 76
     1
 77
     6
 78
     2
 67
     7
 79
     5
170
     0
171
     0
290
     0
174
     0
 93
        1
 44
50.0
173
     0
291
     1
 45
0.0
  0
VISUALSTYLE
  5
3A
102
{ACAD_REACTORS
330
2A
102
}
102
{ACAD_XDICTIONARY
360
D5
102
}
330
2A
100
AcDbVisualStyle
  2
ColorChange
 70
    16
 71
     2
 72
     2
 73
     3
 90
        0
 40
-0.6
 41
-30.0
 62
     5
 63
     8
421
  8421504
 74
     1
 91
        4
 64
     7
 65
   257
 75
     1
175
     1
 42
1.0
 92
        8
 66
     8
424
  8421504
 43
1.0
 76
     1
 77
     6
 78
     2
 67
     7
 79
     5
170
     0
171
     0
290
     0
174
     0
 93
        1
 44
0.0
173
     0
291
     1
 45
0.0
  0
VISUALSTYLE
  5
34
102
{ACAD_REACTORS
330
2A
102
}
102
{ACAD_XDICTIONARY
360
C9
102
}
330
2A
100
AcDbVisualStyle
  2
Conceptual
 70
     9
 71
     3
 72
     2
 73
     0
 90
        0
 40
-0.6
 41
-30.0
 62
     5
 63
     7
421
 16777215
 74
     2
 91
        2
 64
     7
 65
   257
 75
     1
175
     1
 42
40.0
 92
        8
 66
     7
 43
1.0
 76
     1
 77
     6
 78
     2
 67
     7
 79
     3
170
     0
171
     0
290
     0
174
     0
 93
        1
 44
0.0
173
     0
291
     0
 45
0.0
  0
VISUALSTYLE
  5
35
102
{ACAD_REACTORS
330
2A
102
}
102
{ACAD_XDICTIONARY
360
CB
102
}
330
2A
100
AcDbVisualStyle
  2
Dim
 70
    11
 71
     2
 72
     2
 73
     0
 90
        0
 40
-0.6
 41
-30.0
 62
     5
 63
     7
421
 16777215
 74
     1
 91
        4
 64
     7
 65
   257
 75
     1
175
     1
 42
1.0
 92
        8
 66
     7
 43
1.0
 76
     1
 77
     6
 78
     2
 67
     7
 79
     5
170
     0
171
     0
290
     0
174
     0
 93
        1
 44
-50.0
173
     0
291
     1
 45
0.0
  0
VISUALSTYLE
  5
39
102
{ACAD_REACTORS
330
2A
102
}
102
{ACAD_XDICTIONARY
360
D3
102
}
330
2A
100
AcDbVisualStyle
  2
Facepattern
 70
    15
 71
     2
 72
     2
 73
     0
 90
        0
 40
-0.6
 41
-30.0
 62
     5
 63
     7
421
 16777215
 74
     1
 91
        4
 64
     7
 65
   257
 75
     1
175
     1
 42
1.0
 92
        8
 66
     7
 43
1.0
 76
     1
 77
     6
 78
     2
 67
     7
 79
     5
170
     0
171
     0
290
     0
174
     0
 93
        1
 44
0.0
173
     0
291
     1
 45
0.0
  0
VISUALSTYLE
  5
2B
102
{ACAD_REACTORS
330
2A
102
}
102
{ACAD_XDICTIONARY
360
B7
102
}
330
2A
100
AcDbVisualStyle
  2
Flat
 70
     0
 71
     2
 72
     1
 73
     1
 90
        2
 40
-0.6
 41
30.0
 62
     5
 63
     7
421
 16777215
 74
     0
 91
        4
 64
     7
 65
   257
 75
     1
175
     1
 42
1.0
 92
        8
 66
     7
 43
1.0
 76
     1
 77
     6
 78
     2
 67
     7
 79
     5
170
     0
171
     0
290
     0
174
     0
 93
       13
 44
0.0
173
     0
291
     1
 45
0.0
  0
VISUALSTYLE
  5
2C
102
{ACAD_REACTORS
330
2A
102
}
102
{ACAD_XDICTIONARY
360
B9
102
}
330
2A
100
AcDbVisualStyle
  2
FlatWithEdges
 70
     1
 71
     2
 72
     1
 73
     1
 90
        2
 40
-0.6
 41
30.0
 62
     5
 63
     7
421
 16777215
 74
     1
 91
        4
 64
     7
 65
   257
 75
     1
175
     1
 42
1.0
 92
        0
 66
   257
 43
1.0
 76
     1
 77
     6
 78
     2
 67
     7
 79
     5
170
     0
171
     0
290
     0
174
     0
 93
       13
 44
0.0
173
     0
291
     1
 45
0.0
  0
VISUALSTYLE
  5
2D
102
{ACAD_REACTORS
330
2A
102
}
102
{ACAD_XDICTIONARY
360
BB
102
}
330
2A
100
AcDbVisualStyle
  2
Gouraud
 70
     2
 71
     2
 72
     2
 73
     1
 90
        2
 40
-0.6
 41
30.0
 62
     5
 63
     7
421
 16777215
 74
     0
 91
        4
 64
     7
 65
   257
 75
     1
175
     1
 42
1.0
 92
        0
 66
     7
 43
1.0
 76
     1
 77
     6
 78
     2
 67
     7
 79
     5
170
     0
171
     0
290
     0
174
     0
 93
       13
 44
0.0
173
     0
291
     1
 45
0.0
  0
VISUALSTYLE
  5
2E
102
{ACAD_REACTORS
330
2A
102
}
102
{ACAD_XDICTIONARY
360
BD
102
}
330
2A
100
AcDbVisualStyle
  2
GouraudWithEdges
 70
     3
 71
     2
 72
     2
 73
     1
 90
        2
 40
-0.6
 41
30.0
 62
     5
 63
     7
421
 16777215
 74
     1
 91
        4
 64
     7
 65
   257
 75
     1
175
     1
 42
1.0
 92
        0
 66
   257
 43
1.0
 76
     1
 77
     6
 78
     2
 67
     7
 79
     5
170
     0
171
     0
290
     0
174
     0
 93
       13
 44
0.0
173
     0
291
     1
 45
0.0
  0
VISUALSTYLE
  5
38
102
{ACAD_REACTORS
330
2A
102
}
102
{ACAD_XDICTIONARY
360
D1
102
}
330
2A
100
AcDbVisualStyle
  2
Linepattern
 70
    14
 71
     2
 72
     2
 73
     0
 90
        0
 40
-0.6
 41
-30.0
 62
     5
 63
     7
421
 16777215
 74
     1
 91
        4
 64
     7
 65
   257
 75
     7
175
     7
 42
1.0
 92
        8
 66
     7
 43
1.0
 76
     1
 77
     6
 78
     2
 67
     7
 79
     5
170
     0
171
     0
290
     0
174
     0
 93
        1
 44
0.0
173
     0
291
     1
 45
0.0
  0
VISUALSTYLE
  5
33
102
{ACAD_REACTORS
330
2A
102
}
102
{ACAD_XDICTIONARY
360
C7
102
}
330
2A
100
AcDbVisualStyle
  2
Realistic
 70
     8
 71
     2
 72
     2
 73
     0
 90
        0
 40
-0.6
 41
-30.0
 62
     5
 63
     7
421
 16777215
 74
     1
 91
        0
 64
     7
 65
   257
 75
     1
175
     1
 42
1.0
 92
        8
 66
     8
424
  7895160
 43
1.0
 76
     1
 77
     6
 78
     2
 67
     7
 79
     5
170
     0
171
     0
290
     0
174
     0
 93
       13
 44
0.0
173
     0
291
     0
 45
0.0
  0
VISUALSTYLE
  5
37
102
{ACAD_REACTORS
330
2A
102
}
102
{ACAD_XDICTIONARY
360
CF
102
}
330
2A
100
AcDbVisualStyle
  2
Thicken
 70
    13
 71
     2
 72
     2
 73
     0
 90
        0
 40
-0.6
 41
-30.0
 62
     5
 63
     7
421
 16777215
 74
     1
 91
        4
 64
     7
 65
   257
 75
     1
175
     1
 42
1.0
 92
       12
 66
     7
 43
1.0
 76
     1
 77
     6
 78
     2
 67
     7
 79
     5
170
     0
171
     0
290
     0
174
     0
 93
        1
 44
0.0
173
     0
291
     1
 45
0.0
  0
DICTIONARY
  5
BF
330
2F
100
AcDbDictionary
280
     1
281
     1
  3
ACAD_XREC_ROUNDTRIP
360
C0
  0
DICTIONARY
  5
C3
330
31
100
AcDbDictionary
280
     1
281
     1
  3
ACAD_XREC_ROUNDTRIP
360
C4
  0
DICTIONARY
  5
C1
330
30
100
AcDbDictionary
280
     1
281
     1
  3
ACAD_XREC_ROUNDTRIP
360
C2
  0
DICTIONARY
  5
C5
330
32
100
AcDbDictionary
280
     1
281
     1
  3
ACAD_XREC_ROUNDTRIP
360
C6
  0
DICTIONARY
  5
CD
330
36
100
AcDbDictionary
280
     1
281
     1
  3
ACAD_XREC_ROUNDTRIP
360
CE
  0
DICTIONARY
  5
D5
330
3A
100
AcDbDictionary
280
     1
281
     1
  3
ACAD_XREC_ROUNDTRIP
360
D6
  0
DICTIONARY
  5
C9
330
34
100
AcDbDictionary
280
     1
281
     1
  3
ACAD_XREC_ROUNDTRIP
360
CA
  0
DICTIONARY
  5
CB
330
35
100
AcDbDictionary
280
     1
281
     1
  3
ACAD_XREC_ROUNDTRIP
360
CC
  0
DICTIONARY
  5
D3
330
39
100
AcDbDictionary
280
     1
281
     1
  3
ACAD_XREC_ROUNDTRIP
360
D4
  0
DICTIONARY
  5
B7
330
2B
100
AcDbDictionary
280
     1
281
     1
  3
ACAD_XREC_ROUNDTRIP
360
B8
  0
DICTIONARY
  5
B9
330
2C
100
AcDbDictionary
280
     1
281
     1
  3
ACAD_XREC_ROUNDTRIP
360
BA
  0
DICTIONARY
  5
BB
330
2D
100
AcDbDictionary
280
     1
281
     1
  3
ACAD_XREC_ROUNDTRIP
360
BC
  0
DICTIONARY
  5
BD
330
2E
100
AcDbDictionary
280
     1
281
     1
  3
ACAD_XREC_ROUNDTRIP
360
BE
  0
DICTIONARY
  5
D1
330
38
100
AcDbDictionary
280
     1
281
     1
  3
ACAD_XREC_ROUNDTRIP
360
D2
  0
DICTIONARY
  5
C7
330
33
100
AcDbDictionary
280
     1
281
     1
  3
ACAD_XREC_ROUNDTRIP
360
C8
  0
DICTIONARY
  5
CF
330
37
100
AcDbDictionary
280
     1
281
     1
  3
ACAD_XREC_ROUNDTRIP
360
D0
  0
XRECORD
  5
C0
102
{ACAD_REACTORS
330
BF
102
}
330
BF
100
AcDbXrecord
280
     1
102
RTVSPropertyOp0
 70
     1
102
RTVSPropertyOp1
 70
     1
102
RTVSPropertyOp2
 70
     1
102
RTVSPropertyOp3
 70
     1
102
RTVSPropertyOp4
 70
     1
102
RTVSPropertyOp5
 70
     1
102
RTVSPropertyOp6
 70
     1
102
RTVSPropertyOp7
 70
     1
102
RTVSPropertyOp8
 70
     1
102
RTVSPropertyOp9
 70
     1
102
RTVSPropertyOp10
 70
     1
102
RTVSPropertyOp11
 70
     1
102
RTVSPropertyOp12
 70
     1
102
RTVSPropertyOp13
 70
     1
102
RTVSPropertyOp14
 70
     1
102
RTVSPropertyOp15
 70
     1
102
RTVSPropertyOp16
 70
     1
102
RTVSPropertyOp17
 70
     1
102
RTVSPropertyOp18
 70
     1
102
RTVSPropertyOp19
 70
     1
102
RTVSPropertyOp20
 70
     1
102
RTVSPropertyOp21
 70
     1
102
RTVSPropertyOp22
 70
     1
102
RTVSPropertyOp23
 70
     1
102
RTVSPropertyOp24
 70
     1
102
RTVSPropertyOp25
 70
     1
102
RTVSPropertyOp26
 70
     1
102
RTVSPropertyOp27
 70
     1
102
RTVSPropertyOp28
 70
     1
102
RTVSPropertyOp29
 70
     1
102
RTVSPropertyOp30
 70
     1
102
RTVSPropertyOp31
 70
     1
102
RTVSPropertyOp32
 70
     1
  0
XRECORD
  5
C4
102
{ACAD_REACTORS
330
C3
102
}
330
C3
100
AcDbXrecord
280
     1
102
RTVSPropertyOp0
 70
     1
102
RTVSPropertyOp1
 70
     1
102
RTVSPropertyOp2
 70
     1
102
RTVSPropertyOp3
 70
     1
102
RTVSPropertyOp4
 70
     1
102
RTVSPropertyOp5
 70
     1
102
RTVSPropertyOp6
 70
     1
102
RTVSPropertyOp7
 70
     1
102
RTVSPropertyOp8
 70
     1
102
RTVSPropertyOp9
 70
     1
102
RTVSPropertyOp10
 70
     1
102
RTVSPropertyOp11
 70
     1
102
RTVSPropertyOp12
 70
     1
102
RTVSPropertyOp13
 70
     1
102
RTVSPropertyOp14
 70
     1
102
RTVSPropertyOp15
 70
     1
102
RTVSPropertyOp16
 70
     1
102
RTVSPropertyOp17
 70
     1
102
RTVSPropertyOp18
 70
     1
102
RTVSPropertyOp19
 70
     1
102
RTVSPropertyOp20
 70
     1
102
RTVSPropertyOp21
 70
     1
102
RTVSPropertyOp22
 70
     1
102
RTVSPropertyOp23
 70
     1
102
RTVSPropertyOp24
 70
     1
102
RTVSPropertyOp25
 70
     1
102
RTVSPropertyOp26
 70
     1
102
RTVSPropertyOp27
 70
     1
102
RTVSPropertyOp28
 70
     1
102
RTVSPropertyOp29
 70
     1
102
RTVSPropertyOp30
 70
     1
102
RTVSPropertyOp31
 70
     1
102
RTVSPropertyOp32
 70
     1
  0
XRECORD
  5
C2
102
{ACAD_REACTORS
330
C1
102
}
330
C1
100
AcDbXrecord
280
     1
102
RTVSPropertyOp0
 70
     1
102
RTVSPropertyOp1
 70
     1
102
RTVSPropertyOp2
 70
     1
102
RTVSPropertyOp3
 70
     1
102
RTVSPropertyOp4
 70
     1
102
RTVSPropertyOp5
 70
     1
102
RTVSPropertyOp6
 70
     1
102
RTVSPropertyOp7
 70
     1
102
RTVSPropertyOp8
 70
     1
102
RTVSPropertyOp9
 70
     1
102
RTVSPropertyOp10
 70
     1
102
RTVSPropertyOp11
 70
     1
102
RTVSPropertyOp12
 70
     1
102
RTVSPropertyOp13
 70
     1
102
RTVSPropertyOp14
 70
     1
102
RTVSPropertyOp15
 70
     1
102
RTVSPropertyOp16
 70
     1
102
RTVSPropertyOp17
 70
     1
102
RTVSPropertyOp18
 70
     1
102
RTVSPropertyOp19
 70
     1
102
RTVSPropertyOp20
 70
     1
102
RTVSPropertyOp21
 70
     1
102
RTVSPropertyOp22
 70
     1
102
RTVSPropertyOp23
 70
     1
102
RTVSPropertyOp24
 70
     1
102
RTVSPropertyOp25
 70
     1
102
RTVSPropertyOp26
 70
     1
102
RTVSPropertyOp27
 70
     1
102
RTVSPropertyOp28
 70
     1
102
RTVSPropertyOp29
 70
     1
102
RTVSPropertyOp30
 70
     1
102
RTVSPropertyOp31
 70
     1
102
RTVSPropertyOp32
 70
     1
  0
XRECORD
  5
C6
102
{ACAD_REACTORS
330
C5
102
}
330
C5
100
AcDbXrecord
280
     1
102
RTVSPropertyOp0
 70
     1
102
RTVSPropertyOp1
 70
     1
102
RTVSPropertyOp2
 70
     1
102
RTVSPropertyOp3
 70
     1
102
RTVSPropertyOp4
 70
     1
102
RTVSPropertyOp5
 70
     1
102
RTVSPropertyOp6
 70
     1
102
RTVSPropertyOp7
 70
     1
102
RTVSPropertyOp8
 70
     1
102
RTVSPropertyOp9
 70
     1
102
RTVSPropertyOp10
 70
     1
102
RTVSPropertyOp11
 70
     1
102
RTVSPropertyOp12
 70
     1
102
RTVSPropertyOp13
 70
     1
102
RTVSPropertyOp14
 70
     1
102
RTVSPropertyOp15
 70
     1
102
RTVSPropertyOp16
 70
     1
102
RTVSPropertyOp17
 70
     1
102
RTVSPropertyOp18
 70
     1
102
RTVSPropertyOp19
 70
     1
102
RTVSPropertyOp20
 70
     1
102
RTVSPropertyOp21
 70
     1
102
RTVSPropertyOp22
 70
     1
102
RTVSPropertyOp23
 70
     1
102
RTVSPropertyOp24
 70
     1
102
RTVSPropertyOp25
 70
     1
102
RTVSPropertyOp26
 70
     1
102
RTVSPropertyOp27
 70
     1
102
RTVSPropertyOp28
 70
     1
102
RTVSPropertyOp29
 70
     1
102
RTVSPropertyOp30
 70
     1
102
RTVSPropertyOp31
 70
     1
102
RTVSPropertyOp32
 70
     1
  0
XRECORD
  5
CE
102
{ACAD_REACTORS
330
CD
102
}
330
CD
100
AcDbXrecord
280
     1
102
RTVSPropertyOp0
 70
     1
102
RTVSPropertyOp1
 70
     1
102
RTVSPropertyOp2
 70
     1
102
RTVSPropertyOp3
 70
     1
102
RTVSPropertyOp4
 70
     1
102
RTVSPropertyOp5
 70
     1
102
RTVSPropertyOp6
 70
     1
102
RTVSPropertyOp7
 70
     1
102
RTVSPropertyOp8
 70
     1
102
RTVSPropertyOp9
 70
     1
102
RTVSPropertyOp10
 70
     1
102
RTVSPropertyOp11
 70
     1
102
RTVSPropertyOp12
 70
     1
102
RTVSPropertyOp13
 70
     1
102
RTVSPropertyOp14
 70
     1
102
RTVSPropertyOp15
 70
     1
102
RTVSPropertyOp16
 70
     1
102
RTVSPropertyOp17
 70
     1
102
RTVSPropertyOp18
 70
     1
102
RTVSPropertyOp19
 70
     1
102
RTVSPropertyOp20
 70
     1
102
RTVSPropertyOp21
 70
     1
102
RTVSPropertyOp22
 70
     1
102
RTVSPropertyOp23
 70
     1
102
RTVSPropertyOp24
 70
     1
102
RTVSPropertyOp25
 70
     1
102
RTVSPropertyOp26
 70
     1
102
RTVSPropertyOp27
 70
     1
102
RTVSPropertyOp28
 70
     1
102
RTVSPropertyOp29
 70
     1
102
RTVSPropertyOp30
 70
     1
102
RTVSPropertyOp31
 70
     1
102
RTVSPropertyOp32
 70
     1
  0
XRECORD
  5
D6
102
{ACAD_REACTORS
330
D5
102
}
330
D5
100
AcDbXrecord
280
     1
102
RTVSPropertyOp0
 70
     1
102
RTVSPropertyOp1
 70
     1
102
RTVSPropertyOp2
 70
     1
102
RTVSPropertyOp3
 70
     1
102
RTVSPropertyOp4
 70
     1
102
RTVSPropertyOp5
 70
     1
102
RTVSPropertyOp6
 70
     1
102
RTVSPropertyOp7
 70
     1
102
RTVSPropertyOp8
 70
     1
102
RTVSPropertyOp9
 70
     1
102
RTVSPropertyOp10
 70
     1
102
RTVSPropertyOp11
 70
     1
102
RTVSPropertyOp12
 70
     1
102
RTVSPropertyOp13
 70
     1
102
RTVSPropertyOp14
 70
     1
102
RTVSPropertyOp15
 70
     1
102
RTVSPropertyOp16
 70
     1
102
RTVSPropertyOp17
 70
     1
102
RTVSPropertyOp18
 70
     1
102
RTVSPropertyOp19
 70
     1
102
RTVSPropertyOp20
 70
     1
102
RTVSPropertyOp21
 70
     1
102
RTVSPropertyOp22
 70
     1
102
RTVSPropertyOp23
 70
     1
102
RTVSPropertyOp24
 70
     1
102
RTVSPropertyOp25
 70
     1
102
RTVSPropertyOp26
 70
     1
102
RTVSPropertyOp27
 70
     1
102
RTVSPropertyOp28
 70
     1
102
RTVSPropertyOp29
 70
     1
102
RTVSPropertyOp30
 70
     1
102
RTVSPropertyOp31
 70
     1
102
RTVSPropertyOp32
 70
     1
  0
XRECORD
  5
CA
102
{ACAD_REACTORS
330
C9
102
}
330
C9
100
AcDbXrecord
280
     1
102
RTVSPropertyOp0
 70
     1
102
RTVSPropertyOp1
 70
     1
102
RTVSPropertyOp2
 70
     1
102
RTVSPropertyOp3
 70
     1
102
RTVSPropertyOp4
 70
     1
102
RTVSPropertyOp5
 70
     1
102
RTVSPropertyOp6
 70
     1
102
RTVSPropertyOp7
 70
     1
102
RTVSPropertyOp8
 70
     1
102
RTVSPropertyOp9
 70
     1
102
RTVSPropertyOp10
 70
     1
102
RTVSPropertyOp11
 70
     1
102
RTVSPropertyOp12
 70
     1
102
RTVSPropertyOp13
 70
     1
102
RTVSPropertyOp14
 70
     1
102
RTVSPropertyOp15
 70
     1
102
RTVSPropertyOp16
 70
     1
102
RTVSPropertyOp17
 70
     1
102
RTVSPropertyOp18
 70
     1
102
RTVSPropertyOp19
 70
     1
102
RTVSPropertyOp20
 70
     1
102
RTVSPropertyOp21
 70
     1
102
RTVSPropertyOp22
 70
     1
102
RTVSPropertyOp23
 70
     1
102
RTVSPropertyOp24
 70
     1
102
RTVSPropertyOp25
 70
     1
102
RTVSPropertyOp26
 70
     1
102
RTVSPropertyOp27
 70
     1
102
RTVSPropertyOp28
 70
     1
102
RTVSPropertyOp29
 70
     1
102
RTVSPropertyOp30
 70
     1
102
RTVSPropertyOp31
 70
     1
102
RTVSPropertyOp32
 70
     1
  0
XRECORD
  5
CC
102
{ACAD_REACTORS
330
CB
102
}
330
CB
100
AcDbXrecord
280
     1
102
RTVSPropertyOp0
 70
     1
102
RTVSPropertyOp1
 70
     1
102
RTVSPropertyOp2
 70
     1
102
RTVSPropertyOp3
 70
     1
102
RTVSPropertyOp4
 70
     1
102
RTVSPropertyOp5
 70
     1
102
RTVSPropertyOp6
 70
     1
102
RTVSPropertyOp7
 70
     1
102
RTVSPropertyOp8
 70
     1
102
RTVSPropertyOp9
 70
     1
102
RTVSPropertyOp10
 70
     1
102
RTVSPropertyOp11
 70
     1
102
RTVSPropertyOp12
 70
     1
102
RTVSPropertyOp13
 70
     1
102
RTVSPropertyOp14
 70
     1
102
RTVSPropertyOp15
 70
     1
102
RTVSPropertyOp16
 70
     1
102
RTVSPropertyOp17
 70
     1
102
RTVSPropertyOp18
 70
     1
102
RTVSPropertyOp19
 70
     1
102
RTVSPropertyOp20
 70
     1
102
RTVSPropertyOp21
 70
     1
102
RTVSPropertyOp22
 70
     1
102
RTVSPropertyOp23
 70
     1
102
RTVSPropertyOp24
 70
     1
102
RTVSPropertyOp25
 70
     1
102
RTVSPropertyOp26
 70
     1
102
RTVSPropertyOp27
 70
     1
102
RTVSPropertyOp28
 70
     1
102
RTVSPropertyOp29
 70
     1
102
RTVSPropertyOp30
 70
     1
102
RTVSPropertyOp31
 70
     1
102
RTVSPropertyOp32
 70
     1
  0
XRECORD
  5
D4
102
{ACAD_REACTORS
330
D3
102
}
330
D3
100
AcDbXrecord
280
     1
102
RTVSPropertyOp0
 70
     1
102
RTVSPropertyOp1
 70
     1
102
RTVSPropertyOp2
 70
     1
102
RTVSPropertyOp3
 70
     1
102
RTVSPropertyOp4
 70
     1
102
RTVSPropertyOp5
 70
     1
102
RTVSPropertyOp6
 70
     1
102
RTVSPropertyOp7
 70
     1
102
RTVSPropertyOp8
 70
     1
102
RTVSPropertyOp9
 70
     1
102
RTVSPropertyOp10
 70
     1
102
RTVSPropertyOp11
 70
     1
102
RTVSPropertyOp12
 70
     1
102
RTVSPropertyOp13
 70
     1
102
RTVSPropertyOp14
 70
     1
102
RTVSPropertyOp15
 70
     1
102
RTVSPropertyOp16
 70
     1
102
RTVSPropertyOp17
 70
     1
102
RTVSPropertyOp18
 70
     1
102
RTVSPropertyOp19
 70
     1
102
RTVSPropertyOp20
 70
     1
102
RTVSPropertyOp21
 70
     1
102
RTVSPropertyOp22
 70
     1
102
RTVSPropertyOp23
 70
     1
102
RTVSPropertyOp24
 70
     1
102
RTVSPropertyOp25
 70
     1
102
RTVSPropertyOp26
 70
     1
102
RTVSPropertyOp27
 70
     1
102
RTVSPropertyOp28
 70
     1
102
RTVSPropertyOp29
 70
     1
102
RTVSPropertyOp30
 70
     1
102
RTVSPropertyOp31
 70
     1
102
RTVSPropertyOp32
 70
     1
  0
XRECORD
  5
B8
102
{ACAD_REACTORS
330
B7
102
}
330
B7
100
AcDbXrecord
280
     1
102
RTVSPropertyOp0
 70
     1
102
RTVSPropertyOp1
 70
     1
102
RTVSPropertyOp2
 70
     1
102
RTVSPropertyOp3
 70
     1
102
RTVSPropertyOp4
 70
     1
102
RTVSPropertyOp5
 70
     1
102
RTVSPropertyOp6
 70
     1
102
RTVSPropertyOp7
 70
     1
102
RTVSPropertyOp8
 70
     1
102
RTVSPropertyOp9
 70
     1
102
RTVSPropertyOp10
 70
     1
102
RTVSPropertyOp11
 70
     1
102
RTVSPropertyOp12
 70
     1
102
RTVSPropertyOp13
 70
     1
102
RTVSPropertyOp14
 70
     1
102
RTVSPropertyOp15
 70
     1
102
RTVSPropertyOp16
 70
     1
102
RTVSPropertyOp17
 70
     1
102
RTVSPropertyOp18
 70
     1
102
RTVSPropertyOp19
 70
     1
102
RTVSPropertyOp20
 70
     1
102
RTVSPropertyOp21
 70
     1
102
RTVSPropertyOp22
 70
     1
102
RTVSPropertyOp23
 70
     1
102
RTVSPropertyOp24
 70
     1
102
RTVSPropertyOp25
 70
     1
102
RTVSPropertyOp26
 70
     1
102
RTVSPropertyOp27
 70
     1
102
RTVSPropertyOp28
 70
     1
102
RTVSPropertyOp29
 70
     1
102
RTVSPropertyOp30
 70
     1
102
RTVSPropertyOp31
 70
     1
102
RTVSPropertyOp32
 70
     1
  0
XRECORD
  5
BA
102
{ACAD_REACTORS
330
B9
102
}
330
B9
100
AcDbXrecord
280
     1
102
RTVSPropertyOp0
 70
     1
102
RTVSPropertyOp1
 70
     1
102
RTVSPropertyOp2
 70
     1
102
RTVSPropertyOp3
 70
     1
102
RTVSPropertyOp4
 70
     1
102
RTVSPropertyOp5
 70
     1
102
RTVSPropertyOp6
 70
     1
102
RTVSPropertyOp7
 70
     1
102
RTVSPropertyOp8
 70
     1
102
RTVSPropertyOp9
 70
     1
102
RTVSPropertyOp10
 70
     1
102
RTVSPropertyOp11
 70
     1
102
RTVSPropertyOp12
 70
     1
102
RTVSPropertyOp13
 70
     1
102
RTVSPropertyOp14
 70
     1
102
RTVSPropertyOp15
 70
     1
102
RTVSPropertyOp16
 70
     1
102
RTVSPropertyOp17
 70
     1
102
RTVSPropertyOp18
 70
     1
102
RTVSPropertyOp19
 70
     1
102
RTVSPropertyOp20
 70
     1
102
RTVSPropertyOp21
 70
     1
102
RTVSPropertyOp22
 70
     1
102
RTVSPropertyOp23
 70
     1
102
RTVSPropertyOp24
 70
     1
102
RTVSPropertyOp25
 70
     1
102
RTVSPropertyOp26
 70
     1
102
RTVSPropertyOp27
 70
     1
102
RTVSPropertyOp28
 70
     1
102
RTVSPropertyOp29
 70
     1
102
RTVSPropertyOp30
 70
     1
102
RTVSPropertyOp31
 70
     1
102
RTVSPropertyOp32
 70
     1
  0
XRECORD
  5
BC
102
{ACAD_REACTORS
330
BB
102
}
330
BB
100
AcDbXrecord
280
     1
102
RTVSPropertyOp0
 70
     1
102
RTVSPropertyOp1
 70
     1
102
RTVSPropertyOp2
 70
     1
102
RTVSPropertyOp3
 70
     1
102
RTVSPropertyOp4
 70
     1
102
RTVSPropertyOp5
 70
     1
102
RTVSPropertyOp6
 70
     1
102
RTVSPropertyOp7
 70
     1
102
RTVSPropertyOp8
 70
     1
102
RTVSPropertyOp9
 70
     1
102
RTVSPropertyOp10
 70
     1
102
RTVSPropertyOp11
 70
     1
102
RTVSPropertyOp12
 70
     1
102
RTVSPropertyOp13
 70
     1
102
RTVSPropertyOp14
 70
     1
102
RTVSPropertyOp15
 70
     1
102
RTVSPropertyOp16
 70
     1
102
RTVSPropertyOp17
 70
     1
102
RTVSPropertyOp18
 70
     1
102
RTVSPropertyOp19
 70
     1
102
RTVSPropertyOp20
 70
     1
102
RTVSPropertyOp21
 70
     1
102
RTVSPropertyOp22
 70
     1
102
RTVSPropertyOp23
 70
     1
102
RTVSPropertyOp24
 70
     1
102
RTVSPropertyOp25
 70
     1
102
RTVSPropertyOp26
 70
     1
102
RTVSPropertyOp27
 70
     1
102
RTVSPropertyOp28
 70
     1
102
RTVSPropertyOp29
 70
     1
102
RTVSPropertyOp30
 70
     1
102
RTVSPropertyOp31
 70
     1
102
RTVSPropertyOp32
 70
     1
  0
XRECORD
  5
BE
102
{ACAD_REACTORS
330
BD
102
}
330
BD
100
AcDbXrecord
280
     1
102
RTVSPropertyOp0
 70
     1
102
RTVSPropertyOp1
 70
     1
102
RTVSPropertyOp2
 70
     1
102
RTVSPropertyOp3
 70
     1
102
RTVSPropertyOp4
 70
     1
102
RTVSPropertyOp5
 70
     1
102
RTVSPropertyOp6
 70
     1
102
RTVSPropertyOp7
 70
     1
102
RTVSPropertyOp8
 70
     1
102
RTVSPropertyOp9
 70
     1
102
RTVSPropertyOp10
 70
     1
102
RTVSPropertyOp11
 70
     1
102
RTVSPropertyOp12
 70
     1
102
RTVSPropertyOp13
 70
     1
102
RTVSPropertyOp14
 70
     1
102
RTVSPropertyOp15
 70
     1
102
RTVSPropertyOp16
 70
     1
102
RTVSPropertyOp17
 70
     1
102
RTVSPropertyOp18
 70
     1
102
RTVSPropertyOp19
 70
     1
102
RTVSPropertyOp20
 70
     1
102
RTVSPropertyOp21
 70
     1
102
RTVSPropertyOp22
 70
     1
102
RTVSPropertyOp23
 70
     1
102
RTVSPropertyOp24
 70
     1
102
RTVSPropertyOp25
 70
     1
102
RTVSPropertyOp26
 70
     1
102
RTVSPropertyOp27
 70
     1
102
RTVSPropertyOp28
 70
     1
102
RTVSPropertyOp29
 70
     1
102
RTVSPropertyOp30
 70
     1
102
RTVSPropertyOp31
 70
     1
102
RTVSPropertyOp32
 70
     1
  0
XRECORD
  5
D2
102
{ACAD_REACTORS
330
D1
102
}
330
D1
100
AcDbXrecord
280
     1
102
RTVSPropertyOp0
 70
     1
102
RTVSPropertyOp1
 70
     1
102
RTVSPropertyOp2
 70
     1
102
RTVSPropertyOp3
 70
     1
102
RTVSPropertyOp4
 70
     1
102
RTVSPropertyOp5
 70
     1
102
RTVSPropertyOp6
 70
     1
102
RTVSPropertyOp7
 70
     1
102
RTVSPropertyOp8
 70
     1
102
RTVSPropertyOp9
 70
     1
102
RTVSPropertyOp10
 70
     1
102
RTVSPropertyOp11
 70
     1
102
RTVSPropertyOp12
 70
     1
102
RTVSPropertyOp13
 70
     1
102
RTVSPropertyOp14
 70
     1
102
RTVSPropertyOp15
 70
     1
102
RTVSPropertyOp16
 70
     1
102
RTVSPropertyOp17
 70
     1
102
RTVSPropertyOp18
 70
     1
102
RTVSPropertyOp19
 70
     1
102
RTVSPropertyOp20
 70
     1
102
RTVSPropertyOp21
 70
     1
102
RTVSPropertyOp22
 70
     1
102
RTVSPropertyOp23
 70
     1
102
RTVSPropertyOp24
 70
     1
102
RTVSPropertyOp25
 70
     1
102
RTVSPropertyOp26
 70
     1
102
RTVSPropertyOp27
 70
     1
102
RTVSPropertyOp28
 70
     1
102
RTVSPropertyOp29
 70
     1
102
RTVSPropertyOp30
 70
     1
102
RTVSPropertyOp31
 70
     1
102
RTVSPropertyOp32
 70
     1
  0
XRECORD
  5
C8
102
{ACAD_REACTORS
330
C7
102
}
330
C7
100
AcDbXrecord
280
     1
102
RTVSPropertyOp0
 70
     1
102
RTVSPropertyOp1
 70
     1
102
RTVSPropertyOp2
 70
     1
102
RTVSPropertyOp3
 70
     1
102
RTVSPropertyOp4
 70
     1
102
RTVSPropertyOp5
 70
     1
102
RTVSPropertyOp6
 70
     1
102
RTVSPropertyOp7
 70
     1
102
RTVSPropertyOp8
 70
     1
102
RTVSPropertyOp9
 70
     1
102
RTVSPropertyOp10
 70
     1
102
RTVSPropertyOp11
 70
     1
102
RTVSPropertyOp12
 70
     1
102
RTVSPropertyOp13
 70
     1
102
RTVSPropertyOp14
 70
     1
102
RTVSPropertyOp15
 70
     1
102
RTVSPropertyOp16
 70
     1
102
RTVSPropertyOp17
 70
     1
102
RTVSPropertyOp18
 70
     1
102
RTVSPropertyOp19
 70
     1
102
RTVSPropertyOp20
 70
     1
102
RTVSPropertyOp21
 70
     1
102
RTVSPropertyOp22
 70
     1
102
RTVSPropertyOp23
 70
     1
102
RTVSPropertyOp24
 70
     1
102
RTVSPropertyOp25
 70
     1
102
RTVSPropertyOp26
 70
     1
102
RTVSPropertyOp27
 70
     1
102
RTVSPropertyOp28
 70
     1
102
RTVSPropertyOp29
 70
     1
102
RTVSPropertyOp30
 70
     1
102
RTVSPropertyOp31
 70
     1
102
RTVSPropertyOp32
 70
     1
  0
XRECORD
  5
D0
102
{ACAD_REACTORS
330
CF
102
}
330
CF
100
AcDbXrecord
280
     1
102
RTVSPropertyOp0
 70
     1
102
RTVSPropertyOp1
 70
     1
102
RTVSPropertyOp2
 70
     1
102
RTVSPropertyOp3
 70
     1
102
RTVSPropertyOp4
 70
     1
102
RTVSPropertyOp5
 70
     1
102
RTVSPropertyOp6
 70
     1
102
RTVSPropertyOp7
 70
     1
102
RTVSPropertyOp8
 70
     1
102
RTVSPropertyOp9
 70
     1
102
RTVSPropertyOp10
 70
     1
102
RTVSPropertyOp11
 70
     1
102
RTVSPropertyOp12
 70
     1
102
RTVSPropertyOp13
 70
     1
102
RTVSPropertyOp14
 70
     1
102
RTVSPropertyOp15
 70
     1
102
RTVSPropertyOp16
 70
     1
102
RTVSPropertyOp17
 70
     1
102
RTVSPropertyOp18
 70
     1
102
RTVSPropertyOp19
 70
     1
102
RTVSPropertyOp20
 70
     1
102
RTVSPropertyOp21
 70
     1
102
RTVSPropertyOp22
 70
     1
102
RTVSPropertyOp23
 70
     1
102
RTVSPropertyOp24
 70
     1
102
RTVSPropertyOp25
 70
     1
102
RTVSPropertyOp26
 70
     1
102
RTVSPropertyOp27
 70
     1
102
RTVSPropertyOp28
 70
     1
102
RTVSPropertyOp29
 70
     1
102
RTVSPropertyOp30
 70
     1
102
RTVSPropertyOp31
 70
     1
102
RTVSPropertyOp32
 70
     1
  0
ENDSEC
  0
EOF
