  0
SECTION
  2
HEADER
  9
$ACADVER
  1
AC1021
  9
$ACADMAINTVER
 70
    25
  9
$DWGCODEPAGE
  3
ANSI_1252
  9
$INSBASE
 10
0.0
 20
0.0
 30
0.0
  9
$EXTMIN
 10
-36.4242
 20
-115.182
 30
0.0
  9
$EXTMAX
 10
63.9997
 20
132.1768
 30
0.0
  9
$LIMMIN
 10
0.0
 20
0.0
  9
$LIMMAX
 10
12.0
 20
9.0
  9
$ORTHOMODE
 70
     0
  9
$REGENMODE
 70
     1
  9
$FILLMODE
 70
     1
  9
$QTEXTMODE
 70
     0
  9
$MIRRTEXT
 70
     1
  9
$LTSCALE
 40
1.0
  9
$ATTMODE
 70
     1
  9
$TEXTSIZE
 40
0.2
  9
$TRACEWID
 40
0.05
  9
$TEXTSTYLE
  7
Standard
  9
$CLAYER
  8
0
  9
$CELTYPE
  6
ByLayer
  9
$CECOLOR
 62
   256
  9
$CELTSCALE
 40
1.0
  9
$DISPSILH
 70
     0
  9
$DIMSCALE
 40
1.0
  9
$DIMASZ
 40
0.18
  9
$DIMEXO
 40
0.0625
  9
$DIMDLI
 40
0.38
  9
$DIMRND
 40
0.0
  9
$DIMDLE
 40
0.0
  9
$DIMEXE
 40
0.18
  9
$DIMTP
 40
0.0
  9
$DIMTM
 40
0.0
  9
$DIMTXT
 40
0.18
  9
$DIMCEN
 40
0.09
  9
$DIMTSZ
 40
0.0
  9
$DIMTOL
 70
     0
  9
$DIMLIM
 70
     0
  9
$DIMTIH
 70
     1
  9
$DIMTOH
 70
     1
  9
$DIMSE1
 70
     0
  9
$DIMSE2
 70
     0
  9
$DIMTAD
 70
     0
  9
$DIMZIN
 70
     0
  9
$DIMBLK
  1

  9
$DIMASO
 70
     1
  9
$DIMSHO
 70
     1
  9
$DIMPOST
  1

  9
$DIMAPOST
  1

  9
$DIMALT
 70
     0
  9
$DIMALTD
 70
     2
  9
$DIMALTF
 40
25.4
  9
$DIMLFAC
 40
1.0
  9
$DIMTOFL
 70
     0
  9
$DIMTVP
 40
0.0
  9
$DIMTIX
 70
     0
  9
$DIMSOXD
 70
     0
  9
$DIMSAH
 70
     0
  9
$DIMBLK1
  1

  9
$DIMBLK2
  1

  9
$DIMSTYLE
  2
Standard
  9
$DIMCLRD
 70
     0
  9
$DIMCLRE
 70
     0
  9
$DIMCLRT
 70
     0
  9
$DIMTFAC
 40
1.0
  9
$DIMGAP
 40
0.09
  9
$DIMJUST
 70
     0
  9
$DIMSD1
 70
     0
  9
$DIMSD2
 70
     0
  9
$DIMTOLJ
 70
     1
  9
$DIMTZIN
 70
     0
  9
$DIMALTZ
 70
     0
  9
$DIMALTTZ
 70
     0
  9
$DIMUPT
 70
     0
  9
$DIMDEC
 70
     4
  9
$DIMTDEC
 70
     4
  9
$DIMALTU
 70
     2
  9
$DIMALTTD
 70
     2
  9
$DIMTXSTY
  7
Standard
  9
$DIMAUNIT
 70
     0
  9
$DIMADEC
 70
     0
  9
$DIMALTRND
 40
0.0
  9
$DIMAZIN
 70
     0
  9
$DIMDSEP
 70
    46
  9
$DIMATFIT
 70
     3
  9
$DIMFRAC
 70
     0
  9
$DIMLDRBLK
  1

  9
$DIMLUNIT
 70
     2
  9
$DIMLWD
 70
    -2
  9
$DIMLWE
 70
    -2
  9
$DIMTMOVE
 70
     0
  9
$DIMFXL
 40
1.0
  9
$DIMFXLON
 70
     0
  9
$DIMJOGANG
 40
0.7853981633974483
  9
$DIMTFILL
 70
     0
  9
$DIMTFILLCLR
 70
     0
  9
$DIMARCSYM
 70
     0
  9
$DIMLTYPE
  6

  9
$DIMLTEX1
  6

  9
$DIMLTEX2
  6

  9
$LUNITS
 70
     2
  9
$LUPREC
 70
     4
  9
$SKETCHINC
 40
0.1
  9
$FILLETRAD
 40
0.5
  9
$AUNITS
 70
     0
  9
$AUPREC
 70
     0
  9
$MENU
  1
.
  9
$ELEVATION
 40
0.0
  9
$PELEVATION
 40
0.0
  9
$THICKNESS
 40
0.0
  9
$LIMCHECK
 70
     0
  9
$CHAMFERA
 40
0.5
  9
$CHAMFERB
 40
0.5
  9
$CHAMFERC
 40
1.0
  9
$CHAMFERD
 40
0.0
  9
$SKPOLY
 70
     0
  9
$TDCREATE
 40
2458492.691091169
  9
$TDUCREATE
 40
2458492.691091169
  9
$TDUPDATE
 40
2458492.691091458
  9
$TDUUPDATE
 40
2458492.691091458
  9
$TDINDWG
 40
0.0000000116
  9
$TDUSRTIMER
 40
0.0000000116
  9
$USRTIMER
 70
     1
  9
$ANGBASE
 50
0.0
  9
$ANGDIR
 70
     0
  9
$PDMODE
 70
     0
  9
$PDSIZE
 40
0.0
  9
$PLINEWID
 40
0.0
  9
$SPLFRAME
 70
     0
  9
$SPLINETYPE
 70
     6
  9
$SPLINESEGS
 70
     8
  9
$HANDSEED
  5
C7
  9
$SURFTAB1
 70
     6
  9
$SURFTAB2
 70
     6
  9
$SURFTYPE
 70
     6
  9
$SURFU
 70
     6
  9
$SURFV
 70
     6
  9
$UCSBASE
  2

  9
$UCSNAME
  2

  9
$UCSORG
 10
0.0
 20
0.0
 30
0.0
  9
$UCSXDIR
 10
1.0
 20
0.0
 30
0.0
  9
$UCSYDIR
 10
0.0
 20
1.0
 30
0.0
  9
$UCSORTHOREF
  2

  9
$UCSORTHOVIEW
 70
     0
  9
$UCSORGTOP
 10
0.0
 20
0.0
 30
0.0
  9
$UCSORGBOTTOM
 10
0.0
 20
0.0
 30
0.0
  9
$UCSORGLEFT
 10
0.0
 20
0.0
 30
0.0
  9
$UCSORGRIGHT
 10
0.0
 20
0.0
 30
0.0
  9
$UCSORGFRONT
 10
0.0
 20
0.0
 30
0.0
  9
$UCSORGBACK
 10
0.0
 20
0.0
 30
0.0
  9
$PUCSBASE
  2

  9
$PUCSNAME
  2

  9
$PUCSORG
 10
0.0
 20
0.0
 30
0.0
  9
$PUCSXDIR
 10
1.0
 20
0.0
 30
0.0
  9
$PUCSYDIR
 10
0.0
 20
1.0
 30
0.0
  9
$PUCSORTHOREF
  2

  9
$PUCSORTHOVIEW
 70
     0
  9
$PUCSORGTOP
 10
0.0
 20
0.0
 30
0.0
  9
$PUCSORGBOTTOM
 10
0.0
 20
0.0
 30
0.0
  9
$PUCSORGLEFT
 10
0.0
 20
0.0
 30
0.0
  9
$PUCSORGRIGHT
 10
0.0
 20
0.0
 30
0.0
  9
$PUCSORGFRONT
 10
0.0
 20
0.0
 30
0.0
  9
$PUCSORGBACK
 10
0.0
 20
0.0
 30
0.0
  9
$USERI1
 70
     0
  9
$USERI2
 70
     0
  9
$USERI3
 70
     0
  9
$USERI4
 70
     0
  9
$USERI5
 70
     0
  9
$USERR1
 40
0.0
  9
$USERR2
 40
0.0
  9
$USERR3
 40
0.0
  9
$USERR4
 40
0.0
  9
$USERR5
 40
0.0
  9
$WORLDVIEW
 70
     1
  9
$SHADEDGE
 70
     3
  9
$SHADEDIF
 70
    70
  9
$TILEMODE
 70
     1
  9
$MAXACTVP
 70
    64
  9
$PINSBASE
 10
0.0
 20
0.0
 30
0.0
  9
$PLIMCHECK
 70
     0
  9
$PEXTMIN
 10
1.000000000000000E+20
 20
1.000000000000000E+20
 30
1.000000000000000E+20
  9
$PEXTMAX
 10
-1.000000000000000E+20
 20
-1.000000000000000E+20
 30
-1.000000000000000E+20
  9
$PLIMMIN
 10
0.0
 20
0.0
  9
$PLIMMAX
 10
12.0
 20
9.0
  9
$UNITMODE
 70
     0
  9
$VISRETAIN
 70
     1
  9
$PLINEGEN
 70
     0
  9
$PSLTSCALE
 70
     1
  9
$TREEDEPTH
 70
  3020
  9
$CMLSTYLE
  2
Standard
  9
$CMLJUST
 70
     0
  9
$CMLSCALE
 40
1.0
  9
$PROXYGRAPHICS
 70
     1
  9
$MEASUREMENT
 70
     0
  9
$CELWEIGHT
370
    -1
  9
$ENDCAPS
280
     0
  9
$JOINSTYLE
280
     0
  9
$LWDISPLAY
290
     0
  9
$INSUNITS
 70
     4
  9
$HYPERLINKBASE
  1

  9
$STYLESHEET
  1

  9
$XEDIT
290
     1
  9
$CEPSNTYPE
380
     0
  9
$PSTYLEMODE
290
     1
  9
$FINGERPRINTGUID
  2
{E90CB63E-54A6-4199-B1B5-A2B4C672AB93}
  9
$VERSIONGUID
  2
{FAEB1C32-E019-11D5-929B-00C0DF256EC4}
  9
$EXTNAMES
290
     1
  9
$PSVPSCALE
 40
0.0
  9
$OLESTARTUP
290
     0
  9
$SORTENTS
280
   127
  9
$INDEXCTL
280
     0
  9
$HIDETEXT
280
     1
  9
$XCLIPFRAME
290
     0
  9
$HALOGAP
280
     0
  9
$OBSCOLOR
 70
   257
  9
$OBSLTYPE
280
     0
  9
$INTERSECTIONDISPLAY
280
     0
  9
$INTERSECTIONCOLOR
 70
   257
  9
$DIMASSOC
280
     2
  9
$PROJECTNAME
  1

  9
$CAMERADISPLAY
290
     0
  9
$LENSLENGTH
 40
50.0
  9
$CAMERAHEIGHT
 40
0.0
  9
$STEPSPERSEC
 40
2.0
  9
$STEPSIZE
 40
6.0
  9
$3DDWFPREC
 40
2.0
  9
$PSOLWIDTH
 40
0.25
  9
$PSOLHEIGHT
 40
4.0
  9
$LOFTANG1
 40
1.570796326794897
  9
$LOFTANG2
 40
1.570796326794897
  9
$LOFTMAG1
 40
0.0
  9
$LOFTMAG2
 40
0.0
  9
$LOFTPARAM
 70
     7
  9
$LOFTNORMALS
280
     1
  9
$LATITUDE
 40
37.795
  9
$LONGITUDE
 40
-122.394
  9
$NORTHDIRECTION
 40
0.0
  9
$TIMEZONE
 70
 -8000
  9
$LIGHTGLYPHDISPLAY
280
     1
  9
$TILEMODELIGHTSYNCH
280
     1
  9
$SOLIDHIST
280
     1
  9
$SHOWHIST
280
     1
  9
$DWFFRAME
280
     2
  9
$DGNFRAME
280
     2
  9
$REALWORLDSCALE
290
     1
  9
$INTERFERECOLOR
 62
   256
  9
$CSHADOW
280
     0
  9
$SHADOWPLANELOCATION
 40
0.0
  0
ENDSEC
  0
SECTION
  2
CLASSES
  0
CLASS
  1
ACDBDICTIONARYWDFLT
  2
AcDbDictionaryWithDefault
  3
ObjectDBX Classes
 90
        0
 91
        4
280
     0
281
     0
  0
CLASS
  1
VISUALSTYLE
  2
AcDbVisualStyle
  3
ObjectDBX Classes
 90
     4095
 91
        4
280
     0
281
     0
  0
CLASS
  1
MATERIAL
  2
AcDbMaterial
  3
ObjectDBX Classes
 90
     1153
 91
        4
280
     0
281
     0
  0
ENDSEC
  0
SECTION
  2
TABLES
  0
TABLE
  2
VPORT
  5
8
330
0
100
AcDbSymbolTable
 70
     1
  0
VPORT
  5
29
330
8
100
AcDbSymbolTableRecord
100
AcDbViewportTableRecord
  2
*Active
 70
     0
 10
0.0
 20
0.0
 11
1.0
 21
1.0
 12
10.42990654205607
 22
4.5
 13
0.0
 23
0.0
 14
0.5
 24
0.5
 15
0.5
 25
0.5
 16
0.0
 26
0.0
 36
1.0
 17
0.0
 27
0.0
 37
0.0
 40
9.0
 41
1.972972972850329
 42
50.0
 43
0.0
 44
0.0
 50
0.0
 51
0.0
 71
     0
 72
   100
 73
     1
 74
     3
 75
     0
 76
     0
 77
     0
 78
     0
281
     0
 65
     1
110
0.0
120
0.0
130
0.0
111
1.0
121
0.0
131
0.0
112
0.0
122
1.0
132
0.0
 79
     0
146
0.0
 60
     3
 61
     5
292
     1
282
     1
141
0.0
142
0.0
 63
   250
  0
ENDTAB
  0
TABLE
  2
LTYPE
  5
5
330
0
100
AcDbSymbolTable
 70
     1
  0
LTYPE
  5
14
330
5
100
AcDbSymbolTableRecord
100
AcDbLinetypeTableRecord
  2
ByBlock
 70
     0
  3

 72
    65
 73
     0
 40
0.0
  0
LTYPE
  5
15
330
5
100
AcDbSymbolTableRecord
100
AcDbLinetypeTableRecord
  2
ByLayer
 70
     0
  3

 72
    65
 73
     0
 40
0.0
  0
LTYPE
  5
16
330
5
100
AcDbSymbolTableRecord
100
AcDbLinetypeTableRecord
  2
Continuous
 70
     0
  3
Solid line
 72
    65
 73
     0
 40
0.0
  0
ENDTAB
  0
TABLE
  2
LAYER
  5
2
330
0
100
AcDbSymbolTable
 70
     2
  0
LAYER
  5
10
330
2
100
AcDbSymbolTableRecord
100
AcDbLayerTableRecord
  2
0
 70
     0
 62
     7
  6
Continuous
370
    -3
390
F
347
3E
  0
LAYER
  5
40
330
2
100
AcDbSymbolTableRecord
100
AcDbLayerTableRecord
  2
layer 1
 70
     0
 62
     7
  6
Continuous
370
    -3
390
F
347
3E
  0
ENDTAB
  0
TABLE
  2
STYLE
  5
3
330
0
100
AcDbSymbolTable
 70
     1
  0
STYLE
  5
11
330
3
100
AcDbSymbolTableRecord
100
AcDbTextStyleTableRecord
  2
Standard
 70
     0
 40
0.0
 41
1.0
 50
0.0
 71
     0
 42
0.2
  3
txt
  4

  0
ENDTAB
  0
TABLE
  2
VIEW
  5
6
330
0
100
AcDbSymbolTable
 70
     0
  0
ENDTAB
  0
TABLE
  2
UCS
  5
7
330
0
100
AcDbSymbolTable
 70
     0
  0
ENDTAB
  0
TABLE
  2
APPID
  5
9
330
0
100
AcDbSymbolTable
 70
     2
  0
APPID
  5
12
330
9
100
AcDbSymbolTableRecord
100
AcDbRegAppTableRecord
  2
ACAD
 70
     0
  0
APPID
  5
3F
330
9
100
AcDbSymbolTableRecord
100
AcDbRegAppTableRecord
  2
ODA
 70
     0
  0
ENDTAB
  0
TABLE
  2
DIMSTYLE
  5
A
330
0
100
AcDbSymbolTable
 70
     1
100
AcDbDimStyleTable
  0
DIMSTYLE
105
27
330
A
100
AcDbSymbolTableRecord
100
AcDbDimStyleTableRecord
  2
Standard
 70
     0
178
     0
340
11
  0
ENDTAB
  0
TABLE
  2
BLOCK_RECORD
  5
1
330
0
100
AcDbSymbolTable
 70
     1
  0
BLOCK_RECORD
  5
1F
330
1
100
AcDbSymbolTableRecord
100
AcDbBlockTableRecord
  2
*Model_Space
340
22
 70
     0
280
     1
281
     0
  0
BLOCK_RECORD
  5
1B
330
1
100
AcDbSymbolTableRecord
100
AcDbBlockTableRecord
  2
*Paper_Space
340
1E
 70
     0
280
     1
281
     0
  0
BLOCK_RECORD
  5
23
330
1
100
AcDbSymbolTableRecord
100
AcDbBlockTableRecord
  2
*Paper_Space0
340
26
 70
     0
280
     1
281
     0
  0
ENDTAB
  0
ENDSEC
  0
SECTION
  2
BLOCKS
  0
BLOCK
  5
20
330
1F
100
AcDbEntity
  8
0
100
AcDbBlockBegin
  2
*Model_Space
 70
     0
 10
0.0
 20
0.0
 30
0.0
  3
*Model_Space
  1

  0
ENDBLK
  5
21
330
1F
100
AcDbEntity
  8
0
100
AcDbBlockEnd
  0
BLOCK
  5
1C
330
1B
100
AcDbEntity
 67
     1
  8
0
100
AcDbBlockBegin
  2
*Paper_Space
 70
     0
 10
0.0
 20
0.0
 30
0.0
  3
*Paper_Space
  1

  0
ENDBLK
  5
1D
330
1B
100
AcDbEntity
 67
     1
  8
0
100
AcDbBlockEnd
  0
BLOCK
  5
24
330
23
100
AcDbEntity
  8
0
100
AcDbBlockBegin
  2
*Paper_Space0
 70
     0
 10
0.0
 20
0.0
 30
0.0
  3
*Paper_Space0
  1

  0
ENDBLK
  5
25
330
23
100
AcDbEntity
  8
0
100
AcDbBlockEnd
  0
ENDSEC
  0
SECTION
  2
ENTITIES
  0
LWPOLYLINE
  5
41
330
1F
100
AcDbEntity
  8
layer 1
 62
   250
370
     9
100
AcDbPolyline
 90
        5
 70
     1
 43
0.0
 10
-36.3861
 20
-115.1439
 10
63.9615
 20
-115.1439
 10
63.9615
 20
132.1387
 10
-36.3861
 20
132.1387
 10
-36.3861
 20
-115.1439
  0
SPLINE
  5
42
330
1F
100
AcDbEntity
  8
layer 1
 62
     7
370
    13
100
AcDbSpline
210
0.0
220
0.0
230
1.0
 70
    11
 71
     3
 72
    20
 73
    16
 74
     0
 42
0.0000000001
 43
0.0000000001
 12
1.0
 22
0.0
 32
0.0
 13
1.0
 23
0.0
 33
0.0
 40
0.0
 40
0.0
 40
0.0
 40
0.0
 40
0.2
 40
0.2
 40
0.2
 40
0.2
 40
0.4
 40
0.4
 40
0.4
 40
0.4
 40
0.6
 40
0.6
 40
0.6
 40
0.6
 40
1.0
 40
1.0
 40
1.0
 40
1.0
 10
-13.018
 20
98.058
 30
0.0
 10
-11.5084
 20
97.1921
 30
0.0
 10
-10.123
 20
95.7128
 30
0.0
 10
-9.3839
 20
93.9271
 30
0.0
 10
-9.3839
 20
93.9271
 30
0.0
 10
-8.6589
 20
95.6291
 30
0.0
 10
-7.515
 20
96.9914
 30
0.0
 10
-5.6913
 20
98.0692
 30
0.0
 10
-5.6913
 20
98.0692
 30
0.0
 10
-7.3496
 20
98.9041
 30
0.0
 10
-8.6959
 20
100.6701
 30
0.0
 10
-9.4032
 20
102.1783
 30
0.0
 10
-9.4032
 20
102.1783
 30
0.0
 10
-10.1766
 20
100.5238
 30
0.0
 10
-11.2937
 20
99.0391
 30
0.0
 10
-13.018
 20
98.058
 30
0.0
  0
SPLINE
  5
43
330
1F
100
AcDbEntity
  8
layer 1
 62
     7
370
    13
100
AcDbSpline
210
0.0
220
0.0
230
1.0
 70
    11
 71
     3
 72
    28
 73
    24
 74
     0
 42
0.0000000001
 43
0.0000000001
 12
1.0
 22
0.0
 32
0.0
 13
1.0
 23
0.0
 33
0.0
 40
0.0
 40
0.0
 40
0.0
 40
0.0
 40
0.1428571428571428
 40
0.1428571428571428
 40
0.1428571428571428
 40
0.1428571428571428
 40
0.2857142857142857
 40
0.2857142857142857
 40
0.2857142857142857
 40
0.2857142857142857
 40
0.4285714285714285
 40
0.4285714285714285
 40
0.4285714285714285
 40
0.4285714285714285
 40
0.5714285714285714
 40
0.5714285714285714
 40
0.5714285714285714
 40
0.5714285714285714
 40
0.7142857142857143
 40
0.7142857142857143
 40
0.7142857142857143
 40
0.7142857142857143
 40
1.0
 40
1.0
 40
1.0
 40
1.0
 10
-32.2354
 20
122.8818
 30
0.0
 10
-32.2354
 20
122.8818
 30
0.0
 10
-32.2354
 20
121.0749
 30
0.0
 10
-32.2354
 20
121.0749
 30
0.0
 10
-32.2354
 20
121.0749
 30
0.0
 10
-26.5523
 20
121.224
 30
0.0
 10
-24.3317
 20
118.431
 30
0.0
 10
-23.336
 20
114.8857
 30
0.0
 10
-23.336
 20
114.8857
 30
0.0
 10
-21.4018
 20
115.893
 30
0.0
 10
-20.2854
 20
116.9443
 30
0.0
 10
-19.286
 20
119.2681
 30
0.0
 10
-19.286
 20
119.2681
 30
0.0
 10
-20.6074
 20
120.162
 30
0.0
 10
-25.4495
 20
122.271
 30
0.0
 10
-25.309
 20
128.0014
 30
0.0
 10
-25.309
 20
128.0014
 30
0.0
 10
-25.309
 20
128.0014
 30
0.0
 10
-26.8147
 20
128.0014
 30
0.0
 10
-26.8147
 20
128.0014
 30
0.0
 10
-26.8147
 20
128.0014
 30
0.0
 10
-27.5299
 20
124.9316
 30
0.0
 10
-28.9192
 20
122.8818
 30
0.0
 10
-32.2354
 20
122.8818
 30
0.0
  0
SPLINE
  5
44
330
1F
100
AcDbEntity
  8
layer 1
 62
     7
370
    13
100
AcDbSpline
210
0.0
220
0.0
230
1.0
 70
    11
 71
     3
 72
   116
 73
   112
 74
     0
 42
0.0000000001
 43
0.0000000001
 12
1.0
 22
0.0
 32
0.0
 13
1.0
 23
0.0
 33
0.0
 40
0.0
 40
0.0
 40
0.0
 40
0.0
 40
0.0344827586206897
 40
0.0344827586206897
 40
0.0344827586206897
 40
0.0344827586206897
 40
0.0689655172413793
 40
0.0689655172413793
 40
0.0689655172413793
 40
0.0689655172413793
 40
0.103448275862069
 40
0.103448275862069
 40
0.103448275862069
 40
0.103448275862069
 40
0.1379310344827586
 40
0.1379310344827586
 40
0.1379310344827586
 40
0.1379310344827586
 40
0.1724137931034483
 40
0.1724137931034483
 40
0.1724137931034483
 40
0.1724137931034483
 40
0.2068965517241379
 40
0.2068965517241379
 40
0.2068965517241379
 40
0.2068965517241379
 40
0.2413793103448276
 40
0.2413793103448276
 40
0.2413793103448276
 40
0.2413793103448276
 40
0.2758620689655172
 40
0.2758620689655172
 40
0.2758620689655172
 40
0.2758620689655172
 40
0.3103448275862069
 40
0.3103448275862069
 40
0.3103448275862069
 40
0.3103448275862069
 40
0.3448275862068966
 40
0.3448275862068966
 40
0.3448275862068966
 40
0.3448275862068966
 40
0.3793103448275862
 40
0.3793103448275862
 40
0.3793103448275862
 40
0.3793103448275862
 40
0.4137931034482759
 40
0.4137931034482759
 40
0.4137931034482759
 40
0.4137931034482759
 40
0.4482758620689655
 40
0.4482758620689655
 40
0.4482758620689655
 40
0.4482758620689655
 40
0.4827586206896552
 40
0.4827586206896552
 40
0.4827586206896552
 40
0.4827586206896552
 40
0.5172413793103449
 40
0.5172413793103449
 40
0.5172413793103449
 40
0.5172413793103449
 40
0.5517241379310345
 40
0.5517241379310345
 40
0.5517241379310345
 40
0.5517241379310345
 40
0.5862068965517241
 40
0.5862068965517241
 40
0.5862068965517241
 40
0.5862068965517241
 40
0.6206896551724138
 40
0.6206896551724138
 40
0.6206896551724138
 40
0.6206896551724138
 40
0.6551724137931034
 40
0.6551724137931034
 40
0.6551724137931034
 40
0.6551724137931034
 40
0.6896551724137931
 40
0.6896551724137931
 40
0.6896551724137931
 40
0.6896551724137931
 40
0.7241379310344828
 40
0.7241379310344828
 40
0.7241379310344828
 40
0.7241379310344828
 40
0.7586206896551724
 40
0.7586206896551724
 40
0.7586206896551724
 40
0.7586206896551724
 40
0.7931034482758621
 40
0.7931034482758621
 40
0.7931034482758621
 40
0.7931034482758621
 40
0.8275862068965517
 40
0.8275862068965517
 40
0.8275862068965517
 40
0.8275862068965517
 40
0.8620689655172413
 40
0.8620689655172413
 40
0.8620689655172413
 40
0.8620689655172413
 40
0.896551724137931
 40
0.896551724137931
 40
0.896551724137931
 40
0.896551724137931
 40
0.9310344827586207
 40
0.9310344827586207
 40
0.9310344827586207
 40
0.9310344827586207
 40
1.0
 40
1.0
 40
1.0
 40
1.0
 10
-13.2629
 20
123.7853
 30
0.0
 10
-14.9767
 20
116.4294
 30
0.0
 10
-20.6634
 20
110.7426
 30
0.0
 10
-28.0194
 20
109.0288
 30
0.0
 10
-28.0194
 20
109.0288
 30
0.0
 10
-26.9359
 20
111.2033
 30
0.0
 10
-26.5065
 20
114.1785
 30
0.0
 10
-28.9228
 20
115.9553
 30
0.0
 10
-28.9228
 20
115.9553
 30
0.0
 10
-28.9228
 20
110.1801
 30
0.0
 10
-29.7651
 20
103.3069
 30
0.0
 10
-24.1043
 20
103.3069
 30
0.0
 10
-24.1043
 20
103.3069
 30
0.0
 10
-18.3965
 20
103.1714
 30
0.0
 10
-19.4549
 20
107.2445
 30
0.0
 10
-17.479
 20
107.222
 30
0.0
 10
-17.479
 20
107.222
 30
0.0
 10
-17.479
 20
107.222
 30
0.0
 10
-16.2744
 20
107.222
 30
0.0
 10
-16.2744
 20
107.222
 30
0.0
 10
-16.2744
 20
107.222
 30
0.0
 10
-16.2744
 20
107.222
 30
0.0
 10
-16.2744
 20
100.8977
 30
0.0
 10
-16.2744
 20
100.8977
 30
0.0
 10
-16.2744
 20
100.8977
 30
0.0
 10
-12.0535
 20
102.0248
 30
0.0
 10
-11.7572
 20
107.2021
 30
0.0
 10
-11.7572
 20
112.6427
 30
0.0
 10
-11.7572
 20
112.6427
 30
0.0
 10
-11.7572
 20
112.6427
 30
0.0
 10
-9.3882
 20
113.8335
 30
0.0
 10
-9.3882
 20
113.8335
 30
0.0
 10
-9.3882
 20
113.8335
 30
0.0
 10
-9.3882
 20
113.8335
 30
0.0
 10
-6.9387
 20
112.6427
 30
0.0
 10
-6.9387
 20
112.6427
 30
0.0
 10
-6.9387
 20
112.6427
 30
0.0
 10
-6.9387
 20
107.229
 30
0.0
 10
-6.6065
 20
102.0153
 30
0.0
 10
-2.4214
 20
100.8977
 30
0.0
 10
-2.4214
 20
100.8977
 30
0.0
 10
-2.4214
 20
100.8977
 30
0.0
 10
-2.4214
 20
107.222
 30
0.0
 10
-2.4214
 20
107.222
 30
0.0
 10
-2.4214
 20
107.222
 30
0.0
 10
-2.4214
 20
107.222
 30
0.0
 10
-1.2168
 20
107.222
 30
0.0
 10
-1.2168
 20
107.222
 30
0.0
 10
-1.2168
 20
107.222
 30
0.0
 10
0.1028
 20
107.222
 30
0.0
 10
0.4059
 20
103.3069
 30
0.0
 10
4.505
 20
103.3069
 30
0.0
 10
4.505
 20
103.3069
 30
0.0
 10
4.505
 20
103.3069
 30
0.0
 10
5.4085
 20
103.3069
 30
0.0
 10
5.4085
 20
103.3069
 30
0.0
 10
5.4085
 20
103.3069
 30
0.0
 10
11.0927
 20
103.3069
 30
0.0
 10
10.2269
 20
110.1582
 30
0.0
 10
10.2269
 20
115.9553
 30
0.0
 10
10.2269
 20
115.9553
 30
0.0
 10
9.4492
 20
115.4346
 30
0.0
 10
8.42
 20
113.9075
 30
0.0
 10
8.42
 20
112.6427
 30
0.0
 10
8.42
 20
112.6427
 30
0.0
 10
8.42
 20
112.6427
 30
0.0
 10
8.42
 20
111.7392
 30
0.0
 10
8.42
 20
111.7392
 30
0.0
 10
8.42
 20
111.7392
 30
0.0
 10
8.42
 20
110.4672
 30
0.0
 10
9.3143
 20
109.7582
 30
0.0
 10
9.6246
 20
108.4266
 30
0.0
 10
9.6246
 20
108.4266
 30
0.0
 10
9.6246
 20
108.4266
 30
0.0
 10
-5.7341
 20
108.4266
 30
0.0
 10
-5.7341
 20
108.4266
 30
0.0
 10
-5.7341
 20
108.4266
 30
0.0
 10
-5.7341
 20
108.4266
 30
0.0
 10
-5.7341
 20
124.0864
 30
0.0
 10
-5.7341
 20
124.0864
 30
0.0
 10
-5.7341
 20
124.0864
 30
0.0
 10
-5.0188
 20
123.7079
 30
0.0
 10
-3.6829
 20
122.8818
 30
0.0
 10
-2.7226
 20
122.8818
 30
0.0
 10
-2.7226
 20
122.8818
 30
0.0
 10
-2.7226
 20
122.8818
 30
0.0
 10
-2.1203
 20
122.8818
 30
0.0
 10
-2.1203
 20
122.8818
 30
0.0
 10
-2.1203
 20
122.8818
 30
0.0
 10
0.0584
 20
122.8818
 30
0.0
 10
1.9843
 20
124.4233
 30
0.0
 10
2.397
 20
126.1946
 30
0.0
 10
2.397
 20
126.1946
 30
0.0
 10
2.397
 20
126.1946
 30
0.0
 10
-6.0353
 20
126.1946
 30
0.0
 10
-6.0353
 20
126.1946
 30
0.0
 10
-6.0353
 20
126.1946
 30
0.0
 10
-8.9306
 20
126.2268
 30
0.0
 10
-9.3036
 20
123.9315
 30
0.0
 10
-9.3963
 20
122.8818
 30
0.0
 10
-9.3963
 20
122.8818
 30
0.0
 10
-9.5178
 20
123.9231
 30
0.0
 10
-10.0843
 20
126.063
 30
0.0
 10
-12.6606
 20
126.1946
 30
0.0
 10
-12.6606
 20
126.1946
 30
0.0
 10
-12.6606
 20
126.1946
 30
0.0
 10
-21.0929
 20
126.1946
 30
0.0
 10
-21.0929
 20
126.1946
 30
0.0
 10
-21.0929
 20
126.1946
 30
0.0
 10
-20.0837
 20
121.8625
 30
0.0
 10
-15.119
 20
122.204
 30
0.0
 10
-13.2629
 20
123.7853
 30
0.0
  0
SPLINE
  5
45
330
1F
100
AcDbEntity
  8
layer 1
 62
     7
370
    13
100
AcDbSpline
210
0.0
220
0.0
230
1.0
 70
    11
 71
     3
 72
   116
 73
   112
 74
     0
 42
0.0000000001
 43
0.0000000001
 12
1.0
 22
0.0
 32
0.0
 13
1.0
 23
0.0
 33
0.0
 40
0.0
 40
0.0
 40
0.0
 40
0.0
 40
0.0344827586206897
 40
0.0344827586206897
 40
0.0344827586206897
 40
0.0344827586206897
 40
0.0689655172413793
 40
0.0689655172413793
 40
0.0689655172413793
 40
0.0689655172413793
 40
0.103448275862069
 40
0.103448275862069
 40
0.103448275862069
 40
0.103448275862069
 40
0.1379310344827586
 40
0.1379310344827586
 40
0.1379310344827586
 40
0.1379310344827586
 40
0.1724137931034483
 40
0.1724137931034483
 40
0.1724137931034483
 40
0.1724137931034483
 40
0.2068965517241379
 40
0.2068965517241379
 40
0.2068965517241379
 40
0.2068965517241379
 40
0.2413793103448276
 40
0.2413793103448276
 40
0.2413793103448276
 40
0.2413793103448276
 40
0.2758620689655172
 40
0.2758620689655172
 40
0.2758620689655172
 40
0.2758620689655172
 40
0.3103448275862069
 40
0.3103448275862069
 40
0.3103448275862069
 40
0.3103448275862069
 40
0.3448275862068966
 40
0.3448275862068966
 40
0.3448275862068966
 40
0.3448275862068966
 40
0.3793103448275862
 40
0.3793103448275862
 40
0.3793103448275862
 40
0.3793103448275862
 40
0.4137931034482759
 40
0.4137931034482759
 40
0.4137931034482759
 40
0.4137931034482759
 40
0.4482758620689655
 40
0.4482758620689655
 40
0.4482758620689655
 40
0.4482758620689655
 40
0.4827586206896552
 40
0.4827586206896552
 40
0.4827586206896552
 40
0.4827586206896552
 40
0.5172413793103449
 40
0.5172413793103449
 40
0.5172413793103449
 40
0.5172413793103449
 40
0.5517241379310345
 40
0.5517241379310345
 40
0.5517241379310345
 40
0.5517241379310345
 40
0.5862068965517241
 40
0.5862068965517241
 40
0.5862068965517241
 40
0.5862068965517241
 40
0.6206896551724138
 40
0.6206896551724138
 40
0.6206896551724138
 40
0.6206896551724138
 40
0.6551724137931034
 40
0.6551724137931034
 40
0.6551724137931034
 40
0.6551724137931034
 40
0.6896551724137931
 40
0.6896551724137931
 40
0.6896551724137931
 40
0.6896551724137931
 40
0.7241379310344828
 40
0.7241379310344828
 40
0.7241379310344828
 40
0.7241379310344828
 40
0.7586206896551724
 40
0.7586206896551724
 40
0.7586206896551724
 40
0.7586206896551724
 40
0.7931034482758621
 40
0.7931034482758621
 40
0.7931034482758621
 40
0.7931034482758621
 40
0.8275862068965517
 40
0.8275862068965517
 40
0.8275862068965517
 40
0.8275862068965517
 40
0.8620689655172413
 40
0.8620689655172413
 40
0.8620689655172413
 40
0.8620689655172413
 40
0.896551724137931
 40
0.896551724137931
 40
0.896551724137931
 40
0.896551724137931
 40
0.9310344827586207
 40
0.9310344827586207
 40
0.9310344827586207
 40
0.9310344827586207
 40
1.0
 40
1.0
 40
1.0
 40
1.0
 10
-16.2744
 20
89.1529
 30
0.0
 10
-16.2744
 20
89.1529
 30
0.0
 10
-18.3825
 20
89.1529
 30
0.0
 10
-18.3825
 20
89.1529
 30
0.0
 10
-18.3825
 20
89.1529
 30
0.0
 10
-18.8308
 20
91.0772
 30
0.0
 10
-20.5048
 20
92.7666
 30
0.0
 10
-22.8997
 20
92.7666
 30
0.0
 10
-22.8997
 20
92.7666
 30
0.0
 10
-22.8997
 20
92.7666
 30
0.0
 10
-24.4055
 20
92.7666
 30
0.0
 10
-24.4055
 20
92.7666
 30
0.0
 10
-24.4055
 20
92.7666
 30
0.0
 10
-29.9114
 20
92.7666
 30
0.0
 10
-28.9228
 20
85.6284
 30
0.0
 10
-28.9228
 20
80.1183
 30
0.0
 10
-28.9228
 20
80.1183
 30
0.0
 10
-28.0356
 20
81.139
 30
0.0
 10
-27.1159
 20
82.1113
 30
0.0
 10
-27.1159
 20
84.0333
 30
0.0
 10
-27.1159
 20
84.0333
 30
0.0
 10
-27.1159
 20
85.7868
 30
0.0
 10
-28.0105
 20
86.4861
 30
0.0
 10
-28.3205
 20
87.6471
 30
0.0
 10
-28.3205
 20
87.6471
 30
0.0
 10
-28.3205
 20
87.6471
 30
0.0
 10
-12.9618
 20
87.6471
 30
0.0
 10
-12.9618
 20
87.6471
 30
0.0
 10
-12.9618
 20
87.6471
 30
0.0
 10
-12.9618
 20
87.6471
 30
0.0
 10
-12.9618
 20
71.9872
 30
0.0
 10
-12.9618
 20
71.9872
 30
0.0
 10
-12.9618
 20
71.9872
 30
0.0
 10
-15.0982
 20
74.1386
 30
0.0
 10
-20.0811
 20
74.0753
 30
0.0
 10
-21.0929
 20
69.8791
 30
0.0
 10
-21.0929
 20
69.8791
 30
0.0
 10
-21.0929
 20
69.8791
 30
0.0
 10
-12.9618
 20
69.8791
 30
0.0
 10
-12.9618
 20
69.8791
 30
0.0
 10
-12.9618
 20
69.8791
 30
0.0
 10
-10.6821
 20
69.8791
 30
0.0
 10
-9.5424
 20
71.5145
 30
0.0
 10
-9.3948
 20
72.5895
 30
0.0
 10
-9.3948
 20
72.5895
 30
0.0
 10
-9.2589
 20
71.5478
 30
0.0
 10
-8.1516
 20
69.8791
 30
0.0
 10
-5.7341
 20
69.8791
 30
0.0
 10
-5.7341
 20
69.8791
 30
0.0
 10
-5.7341
 20
69.8791
 30
0.0
 10
2.397
 20
69.8791
 30
0.0
 10
2.397
 20
69.8791
 30
0.0
 10
2.397
 20
69.8791
 30
0.0
 10
1.6026
 20
73.9343
 30
0.0
 10
-3.4788
 20
73.7533
 30
0.0
 10
-5.433
 20
72.2883
 30
0.0
 10
-5.433
 20
72.2883
 30
0.0
 10
-3.9814
 20
78.5191
 30
0.0
 10
2.4679
 20
86.8921
 30
0.0
 10
9.3235
 20
87.0447
 30
0.0
 10
9.3235
 20
87.0447
 30
0.0
 10
8.9778
 20
86.3916
 30
0.0
 10
8.42
 20
85.3094
 30
0.0
 10
8.42
 20
84.3344
 30
0.0
 10
8.42
 20
84.3344
 30
0.0
 10
8.42
 20
82.539
 30
0.0
 10
9.1964
 20
80.8733
 30
0.0
 10
10.2269
 20
80.1183
 30
0.0
 10
10.2269
 20
80.1183
 30
0.0
 10
10.2269
 20
85.6085
 30
0.0
 10
11.18
 20
92.7666
 30
0.0
 10
5.7097
 20
92.7666
 30
0.0
 10
5.7097
 20
92.7666
 30
0.0
 10
5.7097
 20
92.7666
 30
0.0
 10
4.2039
 20
92.7666
 30
0.0
 10
4.2039
 20
92.7666
 30
0.0
 10
4.2039
 20
92.7666
 30
0.0
 10
1.7718
 20
92.7666
 30
0.0
 10
0.1518
 20
91.1496
 30
0.0
 10
-0.3134
 20
89.1529
 30
0.0
 10
-0.3134
 20
89.1529
 30
0.0
 10
-0.3134
 20
89.1529
 30
0.0
 10
-2.4214
 20
89.1529
 30
0.0
 10
-2.4214
 20
89.1529
 30
0.0
 10
-2.4214
 20
89.1529
 30
0.0
 10
-2.4214
 20
89.1529
 30
0.0
 10
-2.4214
 20
95.477
 30
0.0
 10
-2.4214
 20
95.477
 30
0.0
 10
-2.4214
 20
95.477
 30
0.0
 10
-6.9026
 20
92.4763
 30
0.0
 10
-6.9387
 20
90.538
 30
0.0
 10
-6.9437
 20
83.4407
 30
0.0
 10
-6.9437
 20
83.4407
 30
0.0
 10
-6.9437
 20
83.4407
 30
0.0
 10
-9.3644
 20
82.1971
 30
0.0
 10
-9.3644
 20
82.1971
 30
0.0
 10
-9.3644
 20
82.1971
 30
0.0
 10
-9.3644
 20
82.1971
 30
0.0
 10
-11.7572
 20
83.431
 30
0.0
 10
-11.7572
 20
83.431
 30
0.0
 10
-11.7572
 20
83.431
 30
0.0
 10
-11.7572
 20
83.431
 30
0.0
 10
-11.7572
 20
88.5505
 30
0.0
 10
-11.7572
 20
88.5505
 30
0.0
 10
-11.7572
 20
88.5505
 30
0.0
 10
-11.7572
 20
91.9045
 30
0.0
 10
-14.2338
 20
94.1106
 30
0.0
 10
-16.2744
 20
95.477
 30
0.0
 10
-16.2744
 20
95.477
 30
0.0
 10
-16.2744
 20
95.477
 30
0.0
 10
-16.2744
 20
89.1529
 30
0.0
 10
-16.2744
 20
89.1529
 30
0.0
  0
SPLINE
  5
46
330
1F
100
AcDbEntity
  8
layer 1
 62
     7
370
    13
100
AcDbSpline
210
0.0
220
0.0
230
1.0
 70
    11
 71
     3
 72
    52
 73
    48
 74
     0
 42
0.0000000001
 43
0.0000000001
 12
1.0
 22
0.0
 32
0.0
 13
1.0
 23
0.0
 33
0.0
 40
0.0
 40
0.0
 40
0.0
 40
0.0
 40
0.0769230769230769
 40
0.0769230769230769
 40
0.0769230769230769
 40
0.0769230769230769
 40
0.1538461538461539
 40
0.1538461538461539
 40
0.1538461538461539
 40
0.1538461538461539
 40
0.2307692307692308
 40
0.2307692307692308
 40
0.2307692307692308
 40
0.2307692307692308
 40
0.3076923076923077
 40
0.3076923076923077
 40
0.3076923076923077
 40
0.3076923076923077
 40
0.3846153846153846
 40
0.3846153846153846
 40
0.3846153846153846
 40
0.3846153846153846
 40
0.4615384615384616
 40
0.4615384615384616
 40
0.4615384615384616
 40
0.4615384615384616
 40
0.5384615384615384
 40
0.5384615384615384
 40
0.5384615384615384
 40
0.5384615384615384
 40
0.6153846153846154
 40
0.6153846153846154
 40
0.6153846153846154
 40
0.6153846153846154
 40
0.6923076923076923
 40
0.6923076923076923
 40
0.6923076923076923
 40
0.6923076923076923
 40
0.7692307692307693
 40
0.7692307692307693
 40
0.7692307692307693
 40
0.7692307692307693
 40
0.8461538461538461
 40
0.8461538461538461
 40
0.8461538461538461
 40
0.8461538461538461
 40
1.0
 40
1.0
 40
1.0
 40
1.0
 10
8.1437
 20
128.0032
 30
0.0
 10
8.1437
 20
128.0032
 30
0.0
 10
6.6131
 20
128.0014
 30
0.0
 10
6.6131
 20
128.0014
 30
0.0
 10
6.6131
 20
128.0014
 30
0.0
 10
6.6131
 20
123.1737
 30
0.0
 10
2.7432
 20
119.2681
 30
0.0
 10
-2.1203
 20
119.2681
 30
0.0
 10
-2.1203
 20
119.2681
 30
0.0
 10
-2.1203
 20
119.2681
 30
0.0
 10
-2.1203
 20
112.3416
 30
0.0
 10
-2.1203
 20
112.3416
 30
0.0
 10
-2.1203
 20
112.3416
 30
0.0
 10
-2.1203
 20
112.3416
 30
0.0
 10
4.8062
 20
112.3416
 30
0.0
 10
4.8062
 20
112.3416
 30
0.0
 10
4.8062
 20
112.3416
 30
0.0
 10
4.3685
 20
117.3802
 30
0.0
 10
9.2626
 20
121.2018
 30
0.0
 10
13.4886
 20
121.0749
 30
0.0
 10
13.4886
 20
121.0749
 30
0.0
 10
17.7145
 20
121.2018
 30
0.0
 10
22.6694
 20
117.3802
 30
0.0
 10
22.2317
 20
112.3416
 30
0.0
 10
22.2317
 20
112.3416
 30
0.0
 10
22.2317
 20
112.3416
 30
0.0
 10
29.1582
 20
112.3416
 30
0.0
 10
29.1582
 20
112.3416
 30
0.0
 10
29.1582
 20
112.3416
 30
0.0
 10
29.1582
 20
112.3416
 30
0.0
 10
29.1582
 20
119.2681
 30
0.0
 10
29.1582
 20
119.2681
 30
0.0
 10
29.1582
 20
119.2681
 30
0.0
 10
24.2947
 20
119.2681
 30
0.0
 10
20.4248
 20
123.1737
 30
0.0
 10
20.4248
 20
128.0014
 30
0.0
 10
20.4248
 20
128.0014
 30
0.0
 10
20.4248
 20
128.0014
 30
0.0
 10
18.7634
 20
128.0032
 30
0.0
 10
18.7634
 20
128.0032
 30
0.0
 10
18.7634
 20
128.0032
 30
0.0
 10
18.7634
 20
125.0711
 30
0.0
 10
16.3856
 20
122.6934
 30
0.0
 10
13.4536
 20
122.6934
 30
0.0
 10
13.4536
 20
122.6934
 30
0.0
 10
10.5215
 20
122.6934
 30
0.0
 10
8.1437
 20
125.0711
 30
0.0
 10
8.1437
 20
128.0032
 30
0.0
  0
SPLINE
  5
47
330
1F
100
AcDbEntity
  8
layer 1
 62
     7
370
    13
100
AcDbSpline
210
0.0
220
0.0
230
1.0
 70
    11
 71
     3
 72
   116
 73
   112
 74
     0
 42
0.0000000001
 43
0.0000000001
 12
1.0
 22
0.0
 32
0.0
 13
1.0
 23
0.0
 33
0.0
 40
0.0
 40
0.0
 40
0.0
 40
0.0
 40
0.0344827586206897
 40
0.0344827586206897
 40
0.0344827586206897
 40
0.0344827586206897
 40
0.0689655172413793
 40
0.0689655172413793
 40
0.0689655172413793
 40
0.0689655172413793
 40
0.103448275862069
 40
0.103448275862069
 40
0.103448275862069
 40
0.103448275862069
 40
0.1379310344827586
 40
0.1379310344827586
 40
0.1379310344827586
 40
0.1379310344827586
 40
0.1724137931034483
 40
0.1724137931034483
 40
0.1724137931034483
 40
0.1724137931034483
 40
0.2068965517241379
 40
0.2068965517241379
 40
0.2068965517241379
 40
0.2068965517241379
 40
0.2413793103448276
 40
0.2413793103448276
 40
0.2413793103448276
 40
0.2413793103448276
 40
0.2758620689655172
 40
0.2758620689655172
 40
0.2758620689655172
 40
0.2758620689655172
 40
0.3103448275862069
 40
0.3103448275862069
 40
0.3103448275862069
 40
0.3103448275862069
 40
0.3448275862068966
 40
0.3448275862068966
 40
0.3448275862068966
 40
0.3448275862068966
 40
0.3793103448275862
 40
0.3793103448275862
 40
0.3793103448275862
 40
0.3793103448275862
 40
0.4137931034482759
 40
0.4137931034482759
 40
0.4137931034482759
 40
0.4137931034482759
 40
0.4482758620689655
 40
0.4482758620689655
 40
0.4482758620689655
 40
0.4482758620689655
 40
0.4827586206896552
 40
0.4827586206896552
 40
0.4827586206896552
 40
0.4827586206896552
 40
0.5172413793103449
 40
0.5172413793103449
 40
0.5172413793103449
 40
0.5172413793103449
 40
0.5517241379310345
 40
0.5517241379310345
 40
0.5517241379310345
 40
0.5517241379310345
 40
0.5862068965517241
 40
0.5862068965517241
 40
0.5862068965517241
 40
0.5862068965517241
 40
0.6206896551724138
 40
0.6206896551724138
 40
0.6206896551724138
 40
0.6206896551724138
 40
0.6551724137931034
 40
0.6551724137931034
 40
0.6551724137931034
 40
0.6551724137931034
 40
0.6896551724137931
 40
0.6896551724137931
 40
0.6896551724137931
 40
0.6896551724137931
 40
0.7241379310344828
 40
0.7241379310344828
 40
0.7241379310344828
 40
0.7241379310344828
 40
0.7586206896551724
 40
0.7586206896551724
 40
0.7586206896551724
 40
0.7586206896551724
 40
0.7931034482758621
 40
0.7931034482758621
 40
0.7931034482758621
 40
0.7931034482758621
 40
0.8275862068965517
 40
0.8275862068965517
 40
0.8275862068965517
 40
0.8275862068965517
 40
0.8620689655172413
 40
0.8620689655172413
 40
0.8620689655172413
 40
0.8620689655172413
 40
0.896551724137931
 40
0.896551724137931
 40
0.896551724137931
 40
0.896551724137931
 40
0.9310344827586207
 40
0.9310344827586207
 40
0.9310344827586207
 40
0.9310344827586207
 40
1.0
 40
1.0
 40
1.0
 40
1.0
 10
40.3008
 20
123.7853
 30
0.0
 10
42.0146
 20
116.4294
 30
0.0
 10
47.7013
 20
110.7426
 30
0.0
 10
55.0573
 20
109.0288
 30
0.0
 10
55.0573
 20
109.0288
 30
0.0
 10
53.9738
 20
111.2033
 30
0.0
 10
53.5444
 20
114.1785
 30
0.0
 10
55.9607
 20
115.9553
 30
0.0
 10
55.9607
 20
115.9553
 30
0.0
 10
55.9607
 20
110.1801
 30
0.0
 10
56.803
 20
103.3069
 30
0.0
 10
51.1422
 20
103.3069
 30
0.0
 10
51.1422
 20
103.3069
 30
0.0
 10
45.4344
 20
103.1714
 30
0.0
 10
46.4928
 20
107.2445
 30
0.0
 10
44.5169
 20
107.222
 30
0.0
 10
44.5169
 20
107.222
 30
0.0
 10
44.5169
 20
107.222
 30
0.0
 10
43.3123
 20
107.222
 30
0.0
 10
43.3123
 20
107.222
 30
0.0
 10
43.3123
 20
107.222
 30
0.0
 10
43.3123
 20
107.222
 30
0.0
 10
43.3123
 20
100.8977
 30
0.0
 10
43.3123
 20
100.8977
 30
0.0
 10
43.3123
 20
100.8977
 30
0.0
 10
39.0914
 20
102.0248
 30
0.0
 10
38.7951
 20
107.2021
 30
0.0
 10
38.7951
 20
112.6427
 30
0.0
 10
38.7951
 20
112.6427
 30
0.0
 10
38.7951
 20
112.6427
 30
0.0
 10
36.42
 20
113.8473
 30
0.0
 10
36.42
 20
113.8473
 30
0.0
 10
36.42
 20
113.8473
 30
0.0
 10
36.42
 20
113.8473
 30
0.0
 10
33.9766
 20
112.6427
 30
0.0
 10
33.9766
 20
112.6427
 30
0.0
 10
33.9766
 20
112.6427
 30
0.0
 10
33.9766
 20
107.229
 30
0.0
 10
33.6444
 20
102.0153
 30
0.0
 10
29.4593
 20
100.8977
 30
0.0
 10
29.4593
 20
100.8977
 30
0.0
 10
29.4593
 20
100.8977
 30
0.0
 10
29.4593
 20
107.222
 30
0.0
 10
29.4593
 20
107.222
 30
0.0
 10
29.4593
 20
107.222
 30
0.0
 10
29.4593
 20
107.222
 30
0.0
 10
28.2547
 20
107.222
 30
0.0
 10
28.2547
 20
107.222
 30
0.0
 10
28.2547
 20
107.222
 30
0.0
 10
26.9351
 20
107.222
 30
0.0
 10
26.632
 20
103.3069
 30
0.0
 10
22.5329
 20
103.3069
 30
0.0
 10
22.5329
 20
103.3069
 30
0.0
 10
22.5329
 20
103.3069
 30
0.0
 10
21.6294
 20
103.3069
 30
0.0
 10
21.6294
 20
103.3069
 30
0.0
 10
21.6294
 20
103.3069
 30
0.0
 10
15.9452
 20
103.3069
 30
0.0
 10
16.811
 20
110.1582
 30
0.0
 10
16.811
 20
115.9553
 30
0.0
 10
16.811
 20
115.9553
 30
0.0
 10
17.5887
 20
115.4346
 30
0.0
 10
18.6179
 20
113.9075
 30
0.0
 10
18.6179
 20
112.6427
 30
0.0
 10
18.6179
 20
112.6427
 30
0.0
 10
18.6179
 20
112.6427
 30
0.0
 10
18.6179
 20
111.7392
 30
0.0
 10
18.6179
 20
111.7392
 30
0.0
 10
18.6179
 20
111.7392
 30
0.0
 10
18.6179
 20
110.4672
 30
0.0
 10
17.7236
 20
109.7582
 30
0.0
 10
17.4133
 20
108.4266
 30
0.0
 10
17.4133
 20
108.4266
 30
0.0
 10
17.4133
 20
108.4266
 30
0.0
 10
32.772
 20
108.4266
 30
0.0
 10
32.772
 20
108.4266
 30
0.0
 10
32.772
 20
108.4266
 30
0.0
 10
32.772
 20
108.4266
 30
0.0
 10
32.772
 20
124.0864
 30
0.0
 10
32.772
 20
124.0864
 30
0.0
 10
32.772
 20
124.0864
 30
0.0
 10
32.0567
 20
123.7079
 30
0.0
 10
30.7208
 20
122.8818
 30
0.0
 10
29.7605
 20
122.8818
 30
0.0
 10
29.7605
 20
122.8818
 30
0.0
 10
29.7605
 20
122.8818
 30
0.0
 10
29.1582
 20
122.8818
 30
0.0
 10
29.1582
 20
122.8818
 30
0.0
 10
29.1582
 20
122.8818
 30
0.0
 10
26.9795
 20
122.8818
 30
0.0
 10
25.0536
 20
124.4233
 30
0.0
 10
24.6409
 20
126.1946
 30
0.0
 10
24.6409
 20
126.1946
 30
0.0
 10
24.6409
 20
126.1946
 30
0.0
 10
33.0732
 20
126.1946
 30
0.0
 10
33.0732
 20
126.1946
 30
0.0
 10
33.0732
 20
126.1946
 30
0.0
 10
35.9172
 20
126.2262
 30
0.0
 10
36.2904
 20
123.8696
 30
0.0
 10
36.4052
 20
122.8818
 30
0.0
 10
36.4052
 20
122.8818
 30
0.0
 10
36.5169
 20
123.8377
 30
0.0
 10
36.9877
 20
126.0562
 30
0.0
 10
39.6985
 20
126.1946
 30
0.0
 10
39.6985
 20
126.1946
 30
0.0
 10
39.6985
 20
126.1946
 30
0.0
 10
48.1308
 20
126.1946
 30
0.0
 10
48.1308
 20
126.1946
 30
0.0
 10
48.1308
 20
126.1946
 30
0.0
 10
47.1216
 20
121.8625
 30
0.0
 10
42.1569
 20
122.204
 30
0.0
 10
40.3008
 20
123.7853
 30
0.0
  0
SPLINE
  5
48
330
1F
100
AcDbEntity
  8
layer 1
 62
     7
370
    13
100
AcDbSpline
210
0.0
220
0.0
230
1.0
 70
    11
 71
     3
 72
   116
 73
   112
 74
     0
 42
0.0000000001
 43
0.0000000001
 12
1.0
 22
0.0
 32
0.0
 13
1.0
 23
0.0
 33
0.0
 40
0.0
 40
0.0
 40
0.0
 40
0.0
 40
0.0344827586206897
 40
0.0344827586206897
 40
0.0344827586206897
 40
0.0344827586206897
 40
0.0689655172413793
 40
0.0689655172413793
 40
0.0689655172413793
 40
0.0689655172413793
 40
0.103448275862069
 40
0.103448275862069
 40
0.103448275862069
 40
0.103448275862069
 40
0.1379310344827586
 40
0.1379310344827586
 40
0.1379310344827586
 40
0.1379310344827586
 40
0.1724137931034483
 40
0.1724137931034483
 40
0.1724137931034483
 40
0.1724137931034483
 40
0.2068965517241379
 40
0.2068965517241379
 40
0.2068965517241379
 40
0.2068965517241379
 40
0.2413793103448276
 40
0.2413793103448276
 40
0.2413793103448276
 40
0.2413793103448276
 40
0.2758620689655172
 40
0.2758620689655172
 40
0.2758620689655172
 40
0.2758620689655172
 40
0.3103448275862069
 40
0.3103448275862069
 40
0.3103448275862069
 40
0.3103448275862069
 40
0.3448275862068966
 40
0.3448275862068966
 40
0.3448275862068966
 40
0.3448275862068966
 40
0.3793103448275862
 40
0.3793103448275862
 40
0.3793103448275862
 40
0.3793103448275862
 40
0.4137931034482759
 40
0.4137931034482759
 40
0.4137931034482759
 40
0.4137931034482759
 40
0.4482758620689655
 40
0.4482758620689655
 40
0.4482758620689655
 40
0.4482758620689655
 40
0.4827586206896552
 40
0.4827586206896552
 40
0.4827586206896552
 40
0.4827586206896552
 40
0.5172413793103449
 40
0.5172413793103449
 40
0.5172413793103449
 40
0.5172413793103449
 40
0.5517241379310345
 40
0.5517241379310345
 40
0.5517241379310345
 40
0.5517241379310345
 40
0.5862068965517241
 40
0.5862068965517241
 40
0.5862068965517241
 40
0.5862068965517241
 40
0.6206896551724138
 40
0.6206896551724138
 40
0.6206896551724138
 40
0.6206896551724138
 40
0.6551724137931034
 40
0.6551724137931034
 40
0.6551724137931034
 40
0.6551724137931034
 40
0.6896551724137931
 40
0.6896551724137931
 40
0.6896551724137931
 40
0.6896551724137931
 40
0.7241379310344828
 40
0.7241379310344828
 40
0.7241379310344828
 40
0.7241379310344828
 40
0.7586206896551724
 40
0.7586206896551724
 40
0.7586206896551724
 40
0.7586206896551724
 40
0.7931034482758621
 40
0.7931034482758621
 40
0.7931034482758621
 40
0.7931034482758621
 40
0.8275862068965517
 40
0.8275862068965517
 40
0.8275862068965517
 40
0.8275862068965517
 40
0.8620689655172413
 40
0.8620689655172413
 40
0.8620689655172413
 40
0.8620689655172413
 40
0.896551724137931
 40
0.896551724137931
 40
0.896551724137931
 40
0.896551724137931
 40
0.9310344827586207
 40
0.9310344827586207
 40
0.9310344827586207
 40
0.9310344827586207
 40
1.0
 40
1.0
 40
1.0
 40
1.0
 10
43.3123
 20
89.1529
 30
0.0
 10
43.3123
 20
89.1529
 30
0.0
 10
45.4204
 20
89.1529
 30
0.0
 10
45.4204
 20
89.1529
 30
0.0
 10
45.4204
 20
89.1529
 30
0.0
 10
45.8687
 20
91.0772
 30
0.0
 10
47.5427
 20
92.7666
 30
0.0
 10
49.9376
 20
92.7666
 30
0.0
 10
49.9376
 20
92.7666
 30
0.0
 10
49.9376
 20
92.7666
 30
0.0
 10
51.4434
 20
92.7666
 30
0.0
 10
51.4434
 20
92.7666
 30
0.0
 10
51.4434
 20
92.7666
 30
0.0
 10
56.9493
 20
92.7666
 30
0.0
 10
55.9607
 20
85.6284
 30
0.0
 10
55.9607
 20
80.1183
 30
0.0
 10
55.9607
 20
80.1183
 30
0.0
 10
55.0735
 20
81.139
 30
0.0
 10
54.1538
 20
82.1113
 30
0.0
 10
54.1538
 20
84.0333
 30
0.0
 10
54.1538
 20
84.0333
 30
0.0
 10
54.1538
 20
85.7868
 30
0.0
 10
55.0484
 20
86.4861
 30
0.0
 10
55.3584
 20
87.6471
 30
0.0
 10
55.3584
 20
87.6471
 30
0.0
 10
55.3584
 20
87.6471
 30
0.0
 10
39.9997
 20
87.6471
 30
0.0
 10
39.9997
 20
87.6471
 30
0.0
 10
39.9997
 20
87.6471
 30
0.0
 10
39.9997
 20
87.6471
 30
0.0
 10
39.9997
 20
71.9872
 30
0.0
 10
39.9997
 20
71.9872
 30
0.0
 10
39.9997
 20
71.9872
 30
0.0
 10
42.1361
 20
74.1386
 30
0.0
 10
47.119
 20
74.0753
 30
0.0
 10
48.1308
 20
69.8791
 30
0.0
 10
48.1308
 20
69.8791
 30
0.0
 10
48.1308
 20
69.8791
 30
0.0
 10
39.9997
 20
69.8791
 30
0.0
 10
39.9997
 20
69.8791
 30
0.0
 10
39.9997
 20
69.8791
 30
0.0
 10
37.7096
 20
69.8791
 30
0.0
 10
36.5589
 20
71.6542
 30
0.0
 10
36.4262
 20
72.5895
 30
0.0
 10
36.4262
 20
72.5895
 30
0.0
 10
36.2665
 20
71.643
 30
0.0
 10
35.1808
 20
69.8791
 30
0.0
 10
32.772
 20
69.8791
 30
0.0
 10
32.772
 20
69.8791
 30
0.0
 10
32.772
 20
69.8791
 30
0.0
 10
24.6409
 20
69.8791
 30
0.0
 10
24.6409
 20
69.8791
 30
0.0
 10
24.6409
 20
69.8791
 30
0.0
 10
25.4353
 20
73.9343
 30
0.0
 10
30.5167
 20
73.7533
 30
0.0
 10
32.4709
 20
72.2883
 30
0.0
 10
32.4709
 20
72.2883
 30
0.0
 10
31.0193
 20
78.5191
 30
0.0
 10
24.57
 20
86.8921
 30
0.0
 10
17.7144
 20
87.0447
 30
0.0
 10
17.7144
 20
87.0447
 30
0.0
 10
18.0601
 20
86.3916
 30
0.0
 10
18.6179
 20
85.3094
 30
0.0
 10
18.6179
 20
84.3344
 30
0.0
 10
18.6179
 20
84.3344
 30
0.0
 10
18.6179
 20
82.539
 30
0.0
 10
17.8414
 20
80.8733
 30
0.0
 10
16.811
 20
80.1183
 30
0.0
 10
16.811
 20
80.1183
 30
0.0
 10
16.811
 20
85.6085
 30
0.0
 10
15.8579
 20
92.7666
 30
0.0
 10
21.3282
 20
92.7666
 30
0.0
 10
21.3282
 20
92.7666
 30
0.0
 10
21.3282
 20
92.7666
 30
0.0
 10
22.834
 20
92.7666
 30
0.0
 10
22.834
 20
92.7666
 30
0.0
 10
22.834
 20
92.7666
 30
0.0
 10
25.2661
 20
92.7666
 30
0.0
 10
26.8861
 20
91.1496
 30
0.0
 10
27.3513
 20
89.1529
 30
0.0
 10
27.3513
 20
89.1529
 30
0.0
 10
27.3513
 20
89.1529
 30
0.0
 10
29.4593
 20
89.1529
 30
0.0
 10
29.4593
 20
89.1529
 30
0.0
 10
29.4593
 20
89.1529
 30
0.0
 10
29.4593
 20
89.1529
 30
0.0
 10
29.4593
 20
95.477
 30
0.0
 10
29.4593
 20
95.477
 30
0.0
 10
29.4593
 20
95.477
 30
0.0
 10
33.9405
 20
92.4763
 30
0.0
 10
33.9766
 20
90.538
 30
0.0
 10
33.9816
 20
83.4407
 30
0.0
 10
33.9816
 20
83.4407
 30
0.0
 10
33.9816
 20
83.4407
 30
0.0
 10
36.4023
 20
82.1971
 30
0.0
 10
36.4023
 20
82.1971
 30
0.0
 10
36.4023
 20
82.1971
 30
0.0
 10
36.4023
 20
82.1971
 30
0.0
 10
38.7951
 20
83.431
 30
0.0
 10
38.7951
 20
83.431
 30
0.0
 10
38.7951
 20
83.431
 30
0.0
 10
38.7951
 20
83.431
 30
0.0
 10
38.7951
 20
88.5505
 30
0.0
 10
38.7951
 20
88.5505
 30
0.0
 10
38.7951
 20
88.5505
 30
0.0
 10
38.7951
 20
91.9045
 30
0.0
 10
41.2717
 20
94.1106
 30
0.0
 10
43.3123
 20
95.477
 30
0.0
 10
43.3123
 20
95.477
 30
0.0
 10
43.3123
 20
95.477
 30
0.0
 10
43.3123
 20
89.1529
 30
0.0
 10
43.3123
 20
89.1529
 30
0.0
  0
SPLINE
  5
49
330
1F
100
AcDbEntity
  8
layer 1
 62
     7
370
    13
100
AcDbSpline
210
0.0
220
0.0
230
1.0
 70
    11
 71
     3
 72
   116
 73
   112
 74
     0
 42
0.0000000001
 43
0.0000000001
 12
1.0
 22
0.0
 32
0.0
 13
1.0
 23
0.0
 33
0.0
 40
0.0
 40
0.0
 40
0.0
 40
0.0
 40
0.0344827586206897
 40
0.0344827586206897
 40
0.0344827586206897
 40
0.0344827586206897
 40
0.0689655172413793
 40
0.0689655172413793
 40
0.0689655172413793
 40
0.0689655172413793
 40
0.103448275862069
 40
0.103448275862069
 40
0.103448275862069
 40
0.103448275862069
 40
0.1379310344827586
 40
0.1379310344827586
 40
0.1379310344827586
 40
0.1379310344827586
 40
0.1724137931034483
 40
0.1724137931034483
 40
0.1724137931034483
 40
0.1724137931034483
 40
0.2068965517241379
 40
0.2068965517241379
 40
0.2068965517241379
 40
0.2068965517241379
 40
0.2413793103448276
 40
0.2413793103448276
 40
0.2413793103448276
 40
0.2413793103448276
 40
0.2758620689655172
 40
0.2758620689655172
 40
0.2758620689655172
 40
0.2758620689655172
 40
0.3103448275862069
 40
0.3103448275862069
 40
0.3103448275862069
 40
0.3103448275862069
 40
0.3448275862068966
 40
0.3448275862068966
 40
0.3448275862068966
 40
0.3448275862068966
 40
0.3793103448275862
 40
0.3793103448275862
 40
0.3793103448275862
 40
0.3793103448275862
 40
0.4137931034482759
 40
0.4137931034482759
 40
0.4137931034482759
 40
0.4137931034482759
 40
0.4482758620689655
 40
0.4482758620689655
 40
0.4482758620689655
 40
0.4482758620689655
 40
0.4827586206896552
 40
0.4827586206896552
 40
0.4827586206896552
 40
0.4827586206896552
 40
0.5172413793103449
 40
0.5172413793103449
 40
0.5172413793103449
 40
0.5172413793103449
 40
0.5517241379310345
 40
0.5517241379310345
 40
0.5517241379310345
 40
0.5517241379310345
 40
0.5862068965517241
 40
0.5862068965517241
 40
0.5862068965517241
 40
0.5862068965517241
 40
0.6206896551724138
 40
0.6206896551724138
 40
0.6206896551724138
 40
0.6206896551724138
 40
0.6551724137931034
 40
0.6551724137931034
 40
0.6551724137931034
 40
0.6551724137931034
 40
0.6896551724137931
 40
0.6896551724137931
 40
0.6896551724137931
 40
0.6896551724137931
 40
0.7241379310344828
 40
0.7241379310344828
 40
0.7241379310344828
 40
0.7241379310344828
 40
0.7586206896551724
 40
0.7586206896551724
 40
0.7586206896551724
 40
0.7586206896551724
 40
0.7931034482758621
 40
0.7931034482758621
 40
0.7931034482758621
 40
0.7931034482758621
 40
0.8275862068965517
 40
0.8275862068965517
 40
0.8275862068965517
 40
0.8275862068965517
 40
0.8620689655172413
 40
0.8620689655172413
 40
0.8620689655172413
 40
0.8620689655172413
 40
0.896551724137931
 40
0.896551724137931
 40
0.896551724137931
 40
0.896551724137931
 40
0.9310344827586207
 40
0.9310344827586207
 40
0.9310344827586207
 40
0.9310344827586207
 40
1.0
 40
1.0
 40
1.0
 40
1.0
 10
-13.2629
 20
12.7391
 30
0.0
 10
-14.9767
 20
20.0949
 30
0.0
 10
-20.6634
 20
25.7817
 30
0.0
 10
-28.0194
 20
27.4955
 30
0.0
 10
-28.0194
 20
27.4955
 30
0.0
 10
-26.9359
 20
25.321
 30
0.0
 10
-26.5065
 20
22.3459
 30
0.0
 10
-28.9228
 20
20.569
 30
0.0
 10
-28.9228
 20
20.569
 30
0.0
 10
-28.9228
 20
26.3442
 30
0.0
 10
-29.7651
 20
33.2174
 30
0.0
 10
-24.1043
 20
33.2174
 30
0.0
 10
-24.1043
 20
33.2174
 30
0.0
 10
-18.3965
 20
33.3529
 30
0.0
 10
-19.4549
 20
29.2798
 30
0.0
 10
-17.479
 20
29.3023
 30
0.0
 10
-17.479
 20
29.3023
 30
0.0
 10
-17.479
 20
29.3023
 30
0.0
 10
-16.2744
 20
29.3023
 30
0.0
 10
-16.2744
 20
29.3023
 30
0.0
 10
-16.2744
 20
29.3023
 30
0.0
 10
-16.2744
 20
29.3023
 30
0.0
 10
-16.2744
 20
35.6266
 30
0.0
 10
-16.2744
 20
35.6266
 30
0.0
 10
-16.2744
 20
35.6266
 30
0.0
 10
-12.0535
 20
34.4995
 30
0.0
 10
-11.7572
 20
29.3222
 30
0.0
 10
-11.7572
 20
23.8816
 30
0.0
 10
-11.7572
 20
23.8816
 30
0.0
 10
-11.7572
 20
23.8816
 30
0.0
 10
-9.3906
 20
22.677
 30
0.0
 10
-9.3906
 20
22.677
 30
0.0
 10
-9.3906
 20
22.677
 30
0.0
 10
-9.3906
 20
22.677
 30
0.0
 10
-6.9387
 20
23.8816
 30
0.0
 10
-6.9387
 20
23.8816
 30
0.0
 10
-6.9387
 20
23.8816
 30
0.0
 10
-6.9387
 20
29.2953
 30
0.0
 10
-6.6065
 20
34.5091
 30
0.0
 10
-2.4214
 20
35.6266
 30
0.0
 10
-2.4214
 20
35.6266
 30
0.0
 10
-2.4214
 20
35.6266
 30
0.0
 10
-2.4214
 20
29.3023
 30
0.0
 10
-2.4214
 20
29.3023
 30
0.0
 10
-2.4214
 20
29.3023
 30
0.0
 10
-2.4214
 20
29.3023
 30
0.0
 10
-1.2168
 20
29.3023
 30
0.0
 10
-1.2168
 20
29.3023
 30
0.0
 10
-1.2168
 20
29.3023
 30
0.0
 10
0.1028
 20
29.3023
 30
0.0
 10
0.4059
 20
33.2174
 30
0.0
 10
4.505
 20
33.2174
 30
0.0
 10
4.505
 20
33.2174
 30
0.0
 10
4.505
 20
33.2174
 30
0.0
 10
5.4085
 20
33.2174
 30
0.0
 10
5.4085
 20
33.2174
 30
0.0
 10
5.4085
 20
33.2174
 30
0.0
 10
11.0927
 20
33.2174
 30
0.0
 10
10.2269
 20
26.3661
 30
0.0
 10
10.2269
 20
20.569
 30
0.0
 10
10.2269
 20
20.569
 30
0.0
 10
9.4492
 20
21.0897
 30
0.0
 10
8.42
 20
22.6168
 30
0.0
 10
8.42
 20
23.8816
 30
0.0
 10
8.42
 20
23.8816
 30
0.0
 10
8.42
 20
23.8816
 30
0.0
 10
8.42
 20
24.7851
 30
0.0
 10
8.42
 20
24.7851
 30
0.0
 10
8.42
 20
24.7851
 30
0.0
 10
8.42
 20
26.0572
 30
0.0
 10
9.3143
 20
26.7661
 30
0.0
 10
9.6246
 20
28.0977
 30
0.0
 10
9.6246
 20
28.0977
 30
0.0
 10
9.6246
 20
28.0977
 30
0.0
 10
-5.7341
 20
28.0977
 30
0.0
 10
-5.7341
 20
28.0977
 30
0.0
 10
-5.7341
 20
28.0977
 30
0.0
 10
-5.7341
 20
28.0977
 30
0.0
 10
-5.7341
 20
12.4379
 30
0.0
 10
-5.7341
 20
12.4379
 30
0.0
 10
-5.7341
 20
12.4379
 30
0.0
 10
-5.0188
 20
12.8164
 30
0.0
 10
-3.6829
 20
13.6425
 30
0.0
 10
-2.7226
 20
13.6425
 30
0.0
 10
-2.7226
 20
13.6425
 30
0.0
 10
-2.7226
 20
13.6425
 30
0.0
 10
-2.1203
 20
13.6425
 30
0.0
 10
-2.1203
 20
13.6425
 30
0.0
 10
-2.1203
 20
13.6425
 30
0.0
 10
0.0584
 20
13.6425
 30
0.0
 10
1.9843
 20
12.101
 30
0.0
 10
2.397
 20
10.3298
 30
0.0
 10
2.397
 20
10.3298
 30
0.0
 10
2.397
 20
10.3298
 30
0.0
 10
-6.0353
 20
10.3298
 30
0.0
 10
-6.0353
 20
10.3298
 30
0.0
 10
-6.0353
 20
10.3298
 30
0.0
 10
-8.9081
 20
10.2978
 30
0.0
 10
-8.9837
 20
12.7181
 30
0.0
 10
-9.3833
 20
13.6425
 30
0.0
 10
-9.3833
 20
13.6425
 30
0.0
 10
-9.806
 20
12.7181
 30
0.0
 10
-10.0113
 20
10.465
 30
0.0
 10
-12.6606
 20
10.3298
 30
0.0
 10
-12.6606
 20
10.3298
 30
0.0
 10
-12.6606
 20
10.3298
 30
0.0
 10
-21.0929
 20
10.3298
 30
0.0
 10
-21.0929
 20
10.3298
 30
0.0
 10
-21.0929
 20
10.3298
 30
0.0
 10
-20.0837
 20
14.6618
 30
0.0
 10
-15.119
 20
14.3204
 30
0.0
 10
-13.2629
 20
12.7391
 30
0.0
  0
SPLINE
  5
4A
330
1F
100
AcDbEntity
  8
layer 1
 62
     7
370
    13
100
AcDbSpline
210
0.0
220
0.0
230
1.0
 70
    11
 71
     3
 72
   116
 73
   112
 74
     0
 42
0.0000000001
 43
0.0000000001
 12
1.0
 22
0.0
 32
0.0
 13
1.0
 23
0.0
 33
0.0
 40
0.0
 40
0.0
 40
0.0
 40
0.0
 40
0.0344827586206897
 40
0.0344827586206897
 40
0.0344827586206897
 40
0.0344827586206897
 40
0.0689655172413793
 40
0.0689655172413793
 40
0.0689655172413793
 40
0.0689655172413793
 40
0.103448275862069
 40
0.103448275862069
 40
0.103448275862069
 40
0.103448275862069
 40
0.1379310344827586
 40
0.1379310344827586
 40
0.1379310344827586
 40
0.1379310344827586
 40
0.1724137931034483
 40
0.1724137931034483
 40
0.1724137931034483
 40
0.1724137931034483
 40
0.2068965517241379
 40
0.2068965517241379
 40
0.2068965517241379
 40
0.2068965517241379
 40
0.2413793103448276
 40
0.2413793103448276
 40
0.2413793103448276
 40
0.2413793103448276
 40
0.2758620689655172
 40
0.2758620689655172
 40
0.2758620689655172
 40
0.2758620689655172
 40
0.3103448275862069
 40
0.3103448275862069
 40
0.3103448275862069
 40
0.3103448275862069
 40
0.3448275862068966
 40
0.3448275862068966
 40
0.3448275862068966
 40
0.3448275862068966
 40
0.3793103448275862
 40
0.3793103448275862
 40
0.3793103448275862
 40
0.3793103448275862
 40
0.4137931034482759
 40
0.4137931034482759
 40
0.4137931034482759
 40
0.4137931034482759
 40
0.4482758620689655
 40
0.4482758620689655
 40
0.4482758620689655
 40
0.4482758620689655
 40
0.4827586206896552
 40
0.4827586206896552
 40
0.4827586206896552
 40
0.4827586206896552
 40
0.5172413793103449
 40
0.5172413793103449
 40
0.5172413793103449
 40
0.5172413793103449
 40
0.5517241379310345
 40
0.5517241379310345
 40
0.5517241379310345
 40
0.5517241379310345
 40
0.5862068965517241
 40
0.5862068965517241
 40
0.5862068965517241
 40
0.5862068965517241
 40
0.6206896551724138
 40
0.6206896551724138
 40
0.6206896551724138
 40
0.6206896551724138
 40
0.6551724137931034
 40
0.6551724137931034
 40
0.6551724137931034
 40
0.6551724137931034
 40
0.6896551724137931
 40
0.6896551724137931
 40
0.6896551724137931
 40
0.6896551724137931
 40
0.7241379310344828
 40
0.7241379310344828
 40
0.7241379310344828
 40
0.7241379310344828
 40
0.7586206896551724
 40
0.7586206896551724
 40
0.7586206896551724
 40
0.7586206896551724
 40
0.7931034482758621
 40
0.7931034482758621
 40
0.7931034482758621
 40
0.7931034482758621
 40
0.8275862068965517
 40
0.8275862068965517
 40
0.8275862068965517
 40
0.8275862068965517
 40
0.8620689655172413
 40
0.8620689655172413
 40
0.8620689655172413
 40
0.8620689655172413
 40
0.896551724137931
 40
0.896551724137931
 40
0.896551724137931
 40
0.896551724137931
 40
0.9310344827586207
 40
0.9310344827586207
 40
0.9310344827586207
 40
0.9310344827586207
 40
1.0
 40
1.0
 40
1.0
 40
1.0
 10
-16.2744
 20
47.3715
 30
0.0
 10
-16.2744
 20
47.3715
 30
0.0
 10
-18.3825
 20
47.3715
 30
0.0
 10
-18.3825
 20
47.3715
 30
0.0
 10
-18.3825
 20
47.3715
 30
0.0
 10
-18.8308
 20
45.4472
 30
0.0
 10
-20.5048
 20
43.7577
 30
0.0
 10
-22.8997
 20
43.7577
 30
0.0
 10
-22.8997
 20
43.7577
 30
0.0
 10
-22.8997
 20
43.7577
 30
0.0
 10
-24.4055
 20
43.7577
 30
0.0
 10
-24.4055
 20
43.7577
 30
0.0
 10
-24.4055
 20
43.7577
 30
0.0
 10
-29.9114
 20
43.7577
 30
0.0
 10
-28.9228
 20
50.896
 30
0.0
 10
-28.9228
 20
56.406
 30
0.0
 10
-28.9228
 20
56.406
 30
0.0
 10
-28.0356
 20
55.3854
 30
0.0
 10
-27.1159
 20
54.413
 30
0.0
 10
-27.1159
 20
52.491
 30
0.0
 10
-27.1159
 20
52.491
 30
0.0
 10
-27.1159
 20
50.7375
 30
0.0
 10
-28.0105
 20
50.0382
 30
0.0
 10
-28.3205
 20
48.8772
 30
0.0
 10
-28.3205
 20
48.8772
 30
0.0
 10
-28.3205
 20
48.8772
 30
0.0
 10
-12.9618
 20
48.8772
 30
0.0
 10
-12.9618
 20
48.8772
 30
0.0
 10
-12.9618
 20
48.8772
 30
0.0
 10
-12.9618
 20
48.8772
 30
0.0
 10
-12.9618
 20
64.5371
 30
0.0
 10
-12.9618
 20
64.5371
 30
0.0
 10
-12.9618
 20
64.5371
 30
0.0
 10
-15.0982
 20
62.3857
 30
0.0
 10
-20.0811
 20
62.449
 30
0.0
 10
-21.0929
 20
66.6452
 30
0.0
 10
-21.0929
 20
66.6452
 30
0.0
 10
-21.0929
 20
66.6452
 30
0.0
 10
-12.9618
 20
66.6452
 30
0.0
 10
-12.9618
 20
66.6452
 30
0.0
 10
-12.9618
 20
66.6452
 30
0.0
 10
-10.6646
 20
66.6452
 30
0.0
 10
-9.5519
 20
64.8104
 30
0.0
 10
-9.3838
 20
63.9348
 30
0.0
 10
-9.3838
 20
63.9348
 30
0.0
 10
-9.2649
 20
64.7993
 30
0.0
 10
-8.1368
 20
66.6452
 30
0.0
 10
-5.7341
 20
66.6452
 30
0.0
 10
-5.7341
 20
66.6452
 30
0.0
 10
-5.7341
 20
66.6452
 30
0.0
 10
2.397
 20
66.6452
 30
0.0
 10
2.397
 20
66.6452
 30
0.0
 10
2.397
 20
66.6452
 30
0.0
 10
1.6026
 20
62.59
 30
0.0
 10
-3.4788
 20
62.771
 30
0.0
 10
-5.433
 20
64.236
 30
0.0
 10
-5.433
 20
64.236
 30
0.0
 10
-3.9814
 20
58.0052
 30
0.0
 10
2.4679
 20
49.6322
 30
0.0
 10
9.3235
 20
49.4796
 30
0.0
 10
9.3235
 20
49.4796
 30
0.0
 10
8.9778
 20
50.1327
 30
0.0
 10
8.42
 20
51.2149
 30
0.0
 10
8.42
 20
52.1899
 30
0.0
 10
8.42
 20
52.1899
 30
0.0
 10
8.42
 20
53.9854
 30
0.0
 10
9.1964
 20
55.651
 30
0.0
 10
10.2269
 20
56.406
 30
0.0
 10
10.2269
 20
56.406
 30
0.0
 10
10.2269
 20
50.9159
 30
0.0
 10
11.18
 20
43.7577
 30
0.0
 10
5.7097
 20
43.7577
 30
0.0
 10
5.7097
 20
43.7577
 30
0.0
 10
5.7097
 20
43.7577
 30
0.0
 10
4.2039
 20
43.7577
 30
0.0
 10
4.2039
 20
43.7577
 30
0.0
 10
4.2039
 20
43.7577
 30
0.0
 10
1.7718
 20
43.7577
 30
0.0
 10
0.1518
 20
45.3747
 30
0.0
 10
-0.3134
 20
47.3715
 30
0.0
 10
-0.3134
 20
47.3715
 30
0.0
 10
-0.3134
 20
47.3715
 30
0.0
 10
-2.4214
 20
47.3715
 30
0.0
 10
-2.4214
 20
47.3715
 30
0.0
 10
-2.4214
 20
47.3715
 30
0.0
 10
-2.4214
 20
47.3715
 30
0.0
 10
-2.4214
 20
41.0473
 30
0.0
 10
-2.4214
 20
41.0473
 30
0.0
 10
-2.4214
 20
41.0473
 30
0.0
 10
-6.9026
 20
44.048
 30
0.0
 10
-6.9387
 20
45.9863
 30
0.0
 10
-6.9437
 20
53.0836
 30
0.0
 10
-6.9437
 20
53.0836
 30
0.0
 10
-6.9437
 20
53.0836
 30
0.0
 10
-9.3644
 20
54.3273
 30
0.0
 10
-9.3644
 20
54.3273
 30
0.0
 10
-9.3644
 20
54.3273
 30
0.0
 10
-9.3644
 20
54.3273
 30
0.0
 10
-11.7572
 20
53.0934
 30
0.0
 10
-11.7572
 20
53.0934
 30
0.0
 10
-11.7572
 20
53.0934
 30
0.0
 10
-11.7572
 20
53.0934
 30
0.0
 10
-11.7572
 20
47.9738
 30
0.0
 10
-11.7572
 20
47.9738
 30
0.0
 10
-11.7572
 20
47.9738
 30
0.0
 10
-11.7572
 20
44.6199
 30
0.0
 10
-14.2338
 20
42.4138
 30
0.0
 10
-16.2744
 20
41.0473
 30
0.0
 10
-16.2744
 20
41.0473
 30
0.0
 10
-16.2744
 20
41.0473
 30
0.0
 10
-16.2744
 20
47.3715
 30
0.0
 10
-16.2744
 20
47.3715
 30
0.0
  0
SPLINE
  5
4B
330
1F
100
AcDbEntity
  8
layer 1
 62
     7
370
    13
100
AcDbSpline
210
0.0
220
0.0
230
1.0
 70
    11
 71
     3
 72
    52
 73
    48
 74
     0
 42
0.0000000001
 43
0.0000000001
 12
1.0
 22
0.0
 32
0.0
 13
1.0
 23
0.0
 33
0.0
 40
0.0
 40
0.0
 40
0.0
 40
0.0
 40
0.0769230769230769
 40
0.0769230769230769
 40
0.0769230769230769
 40
0.0769230769230769
 40
0.1538461538461539
 40
0.1538461538461539
 40
0.1538461538461539
 40
0.1538461538461539
 40
0.2307692307692308
 40
0.2307692307692308
 40
0.2307692307692308
 40
0.2307692307692308
 40
0.3076923076923077
 40
0.3076923076923077
 40
0.3076923076923077
 40
0.3076923076923077
 40
0.3846153846153846
 40
0.3846153846153846
 40
0.3846153846153846
 40
0.3846153846153846
 40
0.4615384615384616
 40
0.4615384615384616
 40
0.4615384615384616
 40
0.4615384615384616
 40
0.5384615384615384
 40
0.5384615384615384
 40
0.5384615384615384
 40
0.5384615384615384
 40
0.6153846153846154
 40
0.6153846153846154
 40
0.6153846153846154
 40
0.6153846153846154
 40
0.6923076923076923
 40
0.6923076923076923
 40
0.6923076923076923
 40
0.6923076923076923
 40
0.7692307692307693
 40
0.7692307692307693
 40
0.7692307692307693
 40
0.7692307692307693
 40
0.8461538461538461
 40
0.8461538461538461
 40
0.8461538461538461
 40
0.8461538461538461
 40
1.0
 40
1.0
 40
1.0
 40
1.0
 10
-32.2354
 20
73.5786
 30
0.0
 10
-32.2354
 20
73.5786
 30
0.0
 10
-32.2354
 20
74.9987
 30
0.0
 10
-32.2354
 20
74.9987
 30
0.0
 10
-32.2354
 20
74.9987
 30
0.0
 10
-27.5028
 20
74.9987
 30
0.0
 10
-23.5021
 20
79.0276
 30
0.0
 10
-23.5021
 20
84.0333
 30
0.0
 10
-23.5021
 20
84.0333
 30
0.0
 10
-23.5021
 20
84.0333
 30
0.0
 10
-16.5756
 20
84.0333
 30
0.0
 10
-16.5756
 20
84.0333
 30
0.0
 10
-16.5756
 20
84.0333
 30
0.0
 10
-16.5756
 20
84.0333
 30
0.0
 10
-16.5756
 20
77.1068
 30
0.0
 10
-16.5756
 20
77.1068
 30
0.0
 10
-16.5756
 20
77.1068
 30
0.0
 10
-20.2821
 20
76.7822
 30
0.0
 10
-25.4647
 20
74.2792
 30
0.0
 10
-25.309
 20
68.2631
 30
0.0
 10
-25.309
 20
68.2631
 30
0.0
 10
-25.4647
 20
62.2471
 30
0.0
 10
-20.2821
 20
59.7421
 30
0.0
 10
-16.5756
 20
59.4175
 30
0.0
 10
-16.5756
 20
59.4175
 30
0.0
 10
-16.5756
 20
59.4175
 30
0.0
 10
-16.5756
 20
52.491
 30
0.0
 10
-16.5756
 20
52.491
 30
0.0
 10
-16.5756
 20
52.491
 30
0.0
 10
-16.5756
 20
52.491
 30
0.0
 10
-23.5021
 20
52.491
 30
0.0
 10
-23.5021
 20
52.491
 30
0.0
 10
-23.5021
 20
52.491
 30
0.0
 10
-23.5021
 20
57.4967
 30
0.0
 10
-27.5028
 20
61.5256
 30
0.0
 10
-32.2354
 20
61.5256
 30
0.0
 10
-32.2354
 20
61.5256
 30
0.0
 10
-32.2354
 20
61.5256
 30
0.0
 10
-32.2505
 20
62.959
 30
0.0
 10
-32.2505
 20
62.959
 30
0.0
 10
-32.2505
 20
62.959
 30
0.0
 10
-29.3184
 20
62.959
 30
0.0
 10
-26.9406
 20
65.3368
 30
0.0
 10
-26.9406
 20
68.2689
 30
0.0
 10
-26.9406
 20
68.2689
 30
0.0
 10
-26.9406
 20
71.2009
 30
0.0
 10
-29.3034
 20
73.5786
 30
0.0
 10
-32.2354
 20
73.5786
 30
0.0
  0
SPLINE
  5
4C
330
1F
100
AcDbEntity
  8
layer 1
 62
     7
370
    13
100
AcDbSpline
210
0.0
220
0.0
230
1.0
 70
    11
 71
     3
 72
   116
 73
   112
 74
     0
 42
0.0000000001
 43
0.0000000001
 12
1.0
 22
0.0
 32
0.0
 13
1.0
 23
0.0
 33
0.0
 40
0.0
 40
0.0
 40
0.0
 40
0.0
 40
0.0344827586206897
 40
0.0344827586206897
 40
0.0344827586206897
 40
0.0344827586206897
 40
0.0689655172413793
 40
0.0689655172413793
 40
0.0689655172413793
 40
0.0689655172413793
 40
0.103448275862069
 40
0.103448275862069
 40
0.103448275862069
 40
0.103448275862069
 40
0.1379310344827586
 40
0.1379310344827586
 40
0.1379310344827586
 40
0.1379310344827586
 40
0.1724137931034483
 40
0.1724137931034483
 40
0.1724137931034483
 40
0.1724137931034483
 40
0.2068965517241379
 40
0.2068965517241379
 40
0.2068965517241379
 40
0.2068965517241379
 40
0.2413793103448276
 40
0.2413793103448276
 40
0.2413793103448276
 40
0.2413793103448276
 40
0.2758620689655172
 40
0.2758620689655172
 40
0.2758620689655172
 40
0.2758620689655172
 40
0.3103448275862069
 40
0.3103448275862069
 40
0.3103448275862069
 40
0.3103448275862069
 40
0.3448275862068966
 40
0.3448275862068966
 40
0.3448275862068966
 40
0.3448275862068966
 40
0.3793103448275862
 40
0.3793103448275862
 40
0.3793103448275862
 40
0.3793103448275862
 40
0.4137931034482759
 40
0.4137931034482759
 40
0.4137931034482759
 40
0.4137931034482759
 40
0.4482758620689655
 40
0.4482758620689655
 40
0.4482758620689655
 40
0.4482758620689655
 40
0.4827586206896552
 40
0.4827586206896552
 40
0.4827586206896552
 40
0.4827586206896552
 40
0.5172413793103449
 40
0.5172413793103449
 40
0.5172413793103449
 40
0.5172413793103449
 40
0.5517241379310345
 40
0.5517241379310345
 40
0.5517241379310345
 40
0.5517241379310345
 40
0.5862068965517241
 40
0.5862068965517241
 40
0.5862068965517241
 40
0.5862068965517241
 40
0.6206896551724138
 40
0.6206896551724138
 40
0.6206896551724138
 40
0.6206896551724138
 40
0.6551724137931034
 40
0.6551724137931034
 40
0.6551724137931034
 40
0.6551724137931034
 40
0.6896551724137931
 40
0.6896551724137931
 40
0.6896551724137931
 40
0.6896551724137931
 40
0.7241379310344828
 40
0.7241379310344828
 40
0.7241379310344828
 40
0.7241379310344828
 40
0.7586206896551724
 40
0.7586206896551724
 40
0.7586206896551724
 40
0.7586206896551724
 40
0.7931034482758621
 40
0.7931034482758621
 40
0.7931034482758621
 40
0.7931034482758621
 40
0.8275862068965517
 40
0.8275862068965517
 40
0.8275862068965517
 40
0.8275862068965517
 40
0.8620689655172413
 40
0.8620689655172413
 40
0.8620689655172413
 40
0.8620689655172413
 40
0.896551724137931
 40
0.896551724137931
 40
0.896551724137931
 40
0.896551724137931
 40
0.9310344827586207
 40
0.9310344827586207
 40
0.9310344827586207
 40
0.9310344827586207
 40
1.0
 40
1.0
 40
1.0
 40
1.0
 10
40.3008
 20
12.7391
 30
0.0
 10
42.0146
 20
20.0949
 30
0.0
 10
47.7013
 20
25.7817
 30
0.0
 10
55.0573
 20
27.4955
 30
0.0
 10
55.0573
 20
27.4955
 30
0.0
 10
53.9738
 20
25.321
 30
0.0
 10
53.5444
 20
22.3459
 30
0.0
 10
55.9607
 20
20.569
 30
0.0
 10
55.9607
 20
20.569
 30
0.0
 10
55.9607
 20
26.3442
 30
0.0
 10
56.803
 20
33.2174
 30
0.0
 10
51.1422
 20
33.2174
 30
0.0
 10
51.1422
 20
33.2174
 30
0.0
 10
45.4344
 20
33.3529
 30
0.0
 10
46.4928
 20
29.2798
 30
0.0
 10
44.5169
 20
29.3023
 30
0.0
 10
44.5169
 20
29.3023
 30
0.0
 10
44.5169
 20
29.3023
 30
0.0
 10
43.3123
 20
29.3023
 30
0.0
 10
43.3123
 20
29.3023
 30
0.0
 10
43.3123
 20
29.3023
 30
0.0
 10
43.3123
 20
29.3023
 30
0.0
 10
43.3123
 20
35.6266
 30
0.0
 10
43.3123
 20
35.6266
 30
0.0
 10
43.3123
 20
35.6266
 30
0.0
 10
39.0914
 20
34.4995
 30
0.0
 10
38.7951
 20
29.3222
 30
0.0
 10
38.7951
 20
23.8816
 30
0.0
 10
38.7951
 20
23.8816
 30
0.0
 10
38.7951
 20
23.8816
 30
0.0
 10
36.4285
 20
22.677
 30
0.0
 10
36.4285
 20
22.677
 30
0.0
 10
36.4285
 20
22.677
 30
0.0
 10
36.4285
 20
22.677
 30
0.0
 10
33.9766
 20
23.8816
 30
0.0
 10
33.9766
 20
23.8816
 30
0.0
 10
33.9766
 20
23.8816
 30
0.0
 10
33.9766
 20
29.2953
 30
0.0
 10
33.6444
 20
34.5091
 30
0.0
 10
29.4593
 20
35.6266
 30
0.0
 10
29.4593
 20
35.6266
 30
0.0
 10
29.4593
 20
35.6266
 30
0.0
 10
29.4593
 20
29.3023
 30
0.0
 10
29.4593
 20
29.3023
 30
0.0
 10
29.4593
 20
29.3023
 30
0.0
 10
29.4593
 20
29.3023
 30
0.0
 10
28.2547
 20
29.3023
 30
0.0
 10
28.2547
 20
29.3023
 30
0.0
 10
28.2547
 20
29.3023
 30
0.0
 10
26.9351
 20
29.3023
 30
0.0
 10
26.632
 20
33.2174
 30
0.0
 10
22.5329
 20
33.2174
 30
0.0
 10
22.5329
 20
33.2174
 30
0.0
 10
22.5329
 20
33.2174
 30
0.0
 10
21.6294
 20
33.2174
 30
0.0
 10
21.6294
 20
33.2174
 30
0.0
 10
21.6294
 20
33.2174
 30
0.0
 10
15.9452
 20
33.2174
 30
0.0
 10
16.811
 20
26.3661
 30
0.0
 10
16.811
 20
20.569
 30
0.0
 10
16.811
 20
20.569
 30
0.0
 10
17.5887
 20
21.0897
 30
0.0
 10
18.6179
 20
22.6168
 30
0.0
 10
18.6179
 20
23.8816
 30
0.0
 10
18.6179
 20
23.8816
 30
0.0
 10
18.6179
 20
23.8816
 30
0.0
 10
18.6179
 20
24.7851
 30
0.0
 10
18.6179
 20
24.7851
 30
0.0
 10
18.6179
 20
24.7851
 30
0.0
 10
18.6179
 20
26.0572
 30
0.0
 10
17.7236
 20
26.7661
 30
0.0
 10
17.4133
 20
28.0977
 30
0.0
 10
17.4133
 20
28.0977
 30
0.0
 10
17.4133
 20
28.0977
 30
0.0
 10
32.772
 20
28.0977
 30
0.0
 10
32.772
 20
28.0977
 30
0.0
 10
32.772
 20
28.0977
 30
0.0
 10
32.772
 20
28.0977
 30
0.0
 10
32.772
 20
12.4379
 30
0.0
 10
32.772
 20
12.4379
 30
0.0
 10
32.772
 20
12.4379
 30
0.0
 10
32.0567
 20
12.8164
 30
0.0
 10
30.7208
 20
13.6425
 30
0.0
 10
29.7605
 20
13.6425
 30
0.0
 10
29.7605
 20
13.6425
 30
0.0
 10
29.7605
 20
13.6425
 30
0.0
 10
29.1582
 20
13.6425
 30
0.0
 10
29.1582
 20
13.6425
 30
0.0
 10
29.1582
 20
13.6425
 30
0.0
 10
26.9795
 20
13.6425
 30
0.0
 10
25.0536
 20
12.101
 30
0.0
 10
24.6409
 20
10.3298
 30
0.0
 10
24.6409
 20
10.3298
 30
0.0
 10
24.6409
 20
10.3298
 30
0.0
 10
33.0732
 20
10.3298
 30
0.0
 10
33.0732
 20
10.3298
 30
0.0
 10
33.0732
 20
10.3298
 30
0.0
 10
35.9368
 20
10.2978
 30
0.0
 10
36.2748
 20
12.6394
 30
0.0
 10
36.416
 20
13.6425
 30
0.0
 10
36.416
 20
13.6425
 30
0.0
 10
36.5829
 20
12.6394
 30
0.0
 10
37.0272
 20
10.4662
 30
0.0
 10
39.6985
 20
10.3298
 30
0.0
 10
39.6985
 20
10.3298
 30
0.0
 10
39.6985
 20
10.3298
 30
0.0
 10
48.1308
 20
10.3298
 30
0.0
 10
48.1308
 20
10.3298
 30
0.0
 10
48.1308
 20
10.3298
 30
0.0
 10
47.1216
 20
14.6618
 30
0.0
 10
42.1569
 20
14.3204
 30
0.0
 10
40.3008
 20
12.7391
 30
0.0
  0
SPLINE
  5
4D
330
1F
100
AcDbEntity
  8
layer 1
 62
     7
370
    13
100
AcDbSpline
210
0.0
220
0.0
230
1.0
 70
    11
 71
     3
 72
   116
 73
   112
 74
     0
 42
0.0000000001
 43
0.0000000001
 12
1.0
 22
0.0
 32
0.0
 13
1.0
 23
0.0
 33
0.0
 40
0.0
 40
0.0
 40
0.0
 40
0.0
 40
0.0344827586206897
 40
0.0344827586206897
 40
0.0344827586206897
 40
0.0344827586206897
 40
0.0689655172413793
 40
0.0689655172413793
 40
0.0689655172413793
 40
0.0689655172413793
 40
0.103448275862069
 40
0.103448275862069
 40
0.103448275862069
 40
0.103448275862069
 40
0.1379310344827586
 40
0.1379310344827586
 40
0.1379310344827586
 40
0.1379310344827586
 40
0.1724137931034483
 40
0.1724137931034483
 40
0.1724137931034483
 40
0.1724137931034483
 40
0.2068965517241379
 40
0.2068965517241379
 40
0.2068965517241379
 40
0.2068965517241379
 40
0.2413793103448276
 40
0.2413793103448276
 40
0.2413793103448276
 40
0.2413793103448276
 40
0.2758620689655172
 40
0.2758620689655172
 40
0.2758620689655172
 40
0.2758620689655172
 40
0.3103448275862069
 40
0.3103448275862069
 40
0.3103448275862069
 40
0.3103448275862069
 40
0.3448275862068966
 40
0.3448275862068966
 40
0.3448275862068966
 40
0.3448275862068966
 40
0.3793103448275862
 40
0.3793103448275862
 40
0.3793103448275862
 40
0.3793103448275862
 40
0.4137931034482759
 40
0.4137931034482759
 40
0.4137931034482759
 40
0.4137931034482759
 40
0.4482758620689655
 40
0.4482758620689655
 40
0.4482758620689655
 40
0.4482758620689655
 40
0.4827586206896552
 40
0.4827586206896552
 40
0.4827586206896552
 40
0.4827586206896552
 40
0.5172413793103449
 40
0.5172413793103449
 40
0.5172413793103449
 40
0.5172413793103449
 40
0.5517241379310345
 40
0.5517241379310345
 40
0.5517241379310345
 40
0.5517241379310345
 40
0.5862068965517241
 40
0.5862068965517241
 40
0.5862068965517241
 40
0.5862068965517241
 40
0.6206896551724138
 40
0.6206896551724138
 40
0.6206896551724138
 40
0.6206896551724138
 40
0.6551724137931034
 40
0.6551724137931034
 40
0.6551724137931034
 40
0.6551724137931034
 40
0.6896551724137931
 40
0.6896551724137931
 40
0.6896551724137931
 40
0.6896551724137931
 40
0.7241379310344828
 40
0.7241379310344828
 40
0.7241379310344828
 40
0.7241379310344828
 40
0.7586206896551724
 40
0.7586206896551724
 40
0.7586206896551724
 40
0.7586206896551724
 40
0.7931034482758621
 40
0.7931034482758621
 40
0.7931034482758621
 40
0.7931034482758621
 40
0.8275862068965517
 40
0.8275862068965517
 40
0.8275862068965517
 40
0.8275862068965517
 40
0.8620689655172413
 40
0.8620689655172413
 40
0.8620689655172413
 40
0.8620689655172413
 40
0.896551724137931
 40
0.896551724137931
 40
0.896551724137931
 40
0.896551724137931
 40
0.9310344827586207
 40
0.9310344827586207
 40
0.9310344827586207
 40
0.9310344827586207
 40
1.0
 40
1.0
 40
1.0
 40
1.0
 10
43.3123
 20
47.3715
 30
0.0
 10
43.3123
 20
47.3715
 30
0.0
 10
45.4204
 20
47.3715
 30
0.0
 10
45.4204
 20
47.3715
 30
0.0
 10
45.4204
 20
47.3715
 30
0.0
 10
45.8687
 20
45.4472
 30
0.0
 10
47.5427
 20
43.7577
 30
0.0
 10
49.9376
 20
43.7577
 30
0.0
 10
49.9376
 20
43.7577
 30
0.0
 10
49.9376
 20
43.7577
 30
0.0
 10
51.4434
 20
43.7577
 30
0.0
 10
51.4434
 20
43.7577
 30
0.0
 10
51.4434
 20
43.7577
 30
0.0
 10
56.9493
 20
43.7577
 30
0.0
 10
55.9607
 20
50.896
 30
0.0
 10
55.9607
 20
56.406
 30
0.0
 10
55.9607
 20
56.406
 30
0.0
 10
55.0735
 20
55.3854
 30
0.0
 10
54.1538
 20
54.413
 30
0.0
 10
54.1538
 20
52.491
 30
0.0
 10
54.1538
 20
52.491
 30
0.0
 10
54.1538
 20
50.7375
 30
0.0
 10
55.0484
 20
50.0382
 30
0.0
 10
55.3584
 20
48.8772
 30
0.0
 10
55.3584
 20
48.8772
 30
0.0
 10
55.3584
 20
48.8772
 30
0.0
 10
39.9997
 20
48.8772
 30
0.0
 10
39.9997
 20
48.8772
 30
0.0
 10
39.9997
 20
48.8772
 30
0.0
 10
39.9997
 20
48.8772
 30
0.0
 10
39.9997
 20
64.5371
 30
0.0
 10
39.9997
 20
64.5371
 30
0.0
 10
39.9997
 20
64.5371
 30
0.0
 10
42.1361
 20
62.3857
 30
0.0
 10
47.119
 20
62.449
 30
0.0
 10
48.1308
 20
66.6452
 30
0.0
 10
48.1308
 20
66.6452
 30
0.0
 10
48.1308
 20
66.6452
 30
0.0
 10
39.9997
 20
66.6452
 30
0.0
 10
39.9997
 20
66.6452
 30
0.0
 10
39.9997
 20
66.6452
 30
0.0
 10
37.7096
 20
66.6452
 30
0.0
 10
36.5477
 20
64.7574
 30
0.0
 10
36.4262
 20
63.9348
 30
0.0
 10
36.4262
 20
63.9348
 30
0.0
 10
36.2777
 20
64.7687
 30
0.0
 10
35.1808
 20
66.6452
 30
0.0
 10
32.772
 20
66.6452
 30
0.0
 10
32.772
 20
66.6452
 30
0.0
 10
32.772
 20
66.6452
 30
0.0
 10
24.6409
 20
66.6452
 30
0.0
 10
24.6409
 20
66.6452
 30
0.0
 10
24.6409
 20
66.6452
 30
0.0
 10
25.4353
 20
62.59
 30
0.0
 10
30.5167
 20
62.771
 30
0.0
 10
32.4709
 20
64.236
 30
0.0
 10
32.4709
 20
64.236
 30
0.0
 10
31.0193
 20
58.0052
 30
0.0
 10
24.57
 20
49.6322
 30
0.0
 10
17.7144
 20
49.4796
 30
0.0
 10
17.7144
 20
49.4796
 30
0.0
 10
18.0601
 20
50.1327
 30
0.0
 10
18.6179
 20
51.2149
 30
0.0
 10
18.6179
 20
52.1899
 30
0.0
 10
18.6179
 20
52.1899
 30
0.0
 10
18.6179
 20
53.9854
 30
0.0
 10
17.8414
 20
55.651
 30
0.0
 10
16.811
 20
56.406
 30
0.0
 10
16.811
 20
56.406
 30
0.0
 10
16.811
 20
50.9159
 30
0.0
 10
15.8579
 20
43.7577
 30
0.0
 10
21.3282
 20
43.7577
 30
0.0
 10
21.3282
 20
43.7577
 30
0.0
 10
21.3282
 20
43.7577
 30
0.0
 10
22.834
 20
43.7577
 30
0.0
 10
22.834
 20
43.7577
 30
0.0
 10
22.834
 20
43.7577
 30
0.0
 10
25.2661
 20
43.7577
 30
0.0
 10
26.8861
 20
45.3747
 30
0.0
 10
27.3513
 20
47.3715
 30
0.0
 10
27.3513
 20
47.3715
 30
0.0
 10
27.3513
 20
47.3715
 30
0.0
 10
29.4593
 20
47.3715
 30
0.0
 10
29.4593
 20
47.3715
 30
0.0
 10
29.4593
 20
47.3715
 30
0.0
 10
29.4593
 20
47.3715
 30
0.0
 10
29.4593
 20
41.0473
 30
0.0
 10
29.4593
 20
41.0473
 30
0.0
 10
29.4593
 20
41.0473
 30
0.0
 10
33.9405
 20
44.048
 30
0.0
 10
33.9766
 20
45.9863
 30
0.0
 10
33.9816
 20
53.0836
 30
0.0
 10
33.9816
 20
53.0836
 30
0.0
 10
33.9816
 20
53.0836
 30
0.0
 10
36.4023
 20
54.3273
 30
0.0
 10
36.4023
 20
54.3273
 30
0.0
 10
36.4023
 20
54.3273
 30
0.0
 10
36.4023
 20
54.3273
 30
0.0
 10
38.7951
 20
53.0934
 30
0.0
 10
38.7951
 20
53.0934
 30
0.0
 10
38.7951
 20
53.0934
 30
0.0
 10
38.7951
 20
53.0934
 30
0.0
 10
38.7951
 20
47.9738
 30
0.0
 10
38.7951
 20
47.9738
 30
0.0
 10
38.7951
 20
47.9738
 30
0.0
 10
38.7951
 20
44.6199
 30
0.0
 10
41.2717
 20
42.4138
 30
0.0
 10
43.3123
 20
41.0473
 30
0.0
 10
43.3123
 20
41.0473
 30
0.0
 10
43.3123
 20
41.0473
 30
0.0
 10
43.3123
 20
47.3715
 30
0.0
 10
43.3123
 20
47.3715
 30
0.0
  0
SPLINE
  5
4E
330
1F
100
AcDbEntity
  8
layer 1
 62
     7
100
AcDbSpline
210
0.0
220
0.0
230
1.0
 70
    11
 71
     3
 72
    48
 73
    44
 74
     0
 42
0.0000000001
 43
0.0000000001
 12
1.0
 22
0.0
 32
0.0
 13
1.0
 23
0.0
 33
0.0
 40
0.0
 40
0.0
 40
0.0
 40
0.0
 40
0.0833333333333333
 40
0.0833333333333333
 40
0.0833333333333333
 40
0.0833333333333333
 40
0.1666666666666667
 40
0.1666666666666667
 40
0.1666666666666667
 40
0.1666666666666667
 40
0.25
 40
0.25
 40
0.25
 40
0.25
 40
0.3333333333333333
 40
0.3333333333333333
 40
0.3333333333333333
 40
0.3333333333333333
 40
0.4166666666666667
 40
0.4166666666666667
 40
0.4166666666666667
 40
0.4166666666666667
 40
0.5
 40
0.5
 40
0.5
 40
0.5
 40
0.5833333333333334
 40
0.5833333333333334
 40
0.5833333333333334
 40
0.5833333333333334
 40
0.6666666666666666
 40
0.6666666666666666
 40
0.6666666666666666
 40
0.6666666666666666
 40
0.75
 40
0.75
 40
0.75
 40
0.75
 40
0.8333333333333334
 40
0.8333333333333334
 40
0.8333333333333334
 40
0.8333333333333334
 40
1.0
 40
1.0
 40
1.0
 40
1.0
 10
6.4514
 20
69.9132
 30
0.0
 10
6.4514
 20
69.9132
 30
0.0
 10
8.4882
 20
69.965
 30
0.0
 10
8.4882
 20
69.965
 30
0.0
 10
8.4882
 20
69.965
 30
0.0
 10
9.198
 20
72.062
 30
0.0
 10
11.1827
 20
73.572
 30
0.0
 10
13.5189
 20
73.572
 30
0.0
 10
13.5189
 20
73.572
 30
0.0
 10
15.8552
 20
73.572
 30
0.0
 10
17.8401
 20
72.062
 30
0.0
 10
18.5497
 20
69.965
 30
0.0
 10
18.5497
 20
69.965
 30
0.0
 10
18.5497
 20
69.965
 30
0.0
 10
20.5865
 20
69.9132
 30
0.0
 10
20.5865
 20
69.9132
 30
0.0
 10
20.5865
 20
69.9132
 30
0.0
 10
21.2293
 20
73.1818
 30
0.0
 10
23.7075
 20
75.8661
 30
0.0
 10
26.4479
 20
76.5045
 30
0.0
 10
26.4479
 20
76.5045
 30
0.0
 10
25.4123
 20
79.0064
 30
0.0
 10
23.3867
 20
80.7104
 30
0.0
 10
21.9306
 20
81.3229
 30
0.0
 10
21.9306
 20
81.3229
 30
0.0
 10
20.5819
 20
78.5121
 30
0.0
 10
18.3781
 20
74.9726
 30
0.0
 10
13.5396
 20
74.9987
 30
0.0
 10
13.5396
 20
74.9987
 30
0.0
 10
8.7011
 20
74.9726
 30
0.0
 10
6.456
 20
78.5121
 30
0.0
 10
5.1073
 20
81.3229
 30
0.0
 10
5.1073
 20
81.3229
 30
0.0
 10
3.6512
 20
80.7104
 30
0.0
 10
1.6256
 20
79.0064
 30
0.0
 10
0.59
 20
76.5045
 30
0.0
 10
0.59
 20
76.5045
 30
0.0
 10
3.3304
 20
75.8661
 30
0.0
 10
5.8087
 20
73.1818
 30
0.0
 10
6.4514
 20
69.9132
 30
0.0
 10
6.4514
 20
69.9132
 30
0.0
 10
6.4514
 20
69.9132
 30
0.0
 10
6.4514
 20
69.9132
 30
0.0
 10
6.4514
 20
69.9132
 30
0.0
  0
SPLINE
  5
4F
330
1F
100
AcDbEntity
  8
layer 1
 62
     7
100
AcDbSpline
210
0.0
220
0.0
230
1.0
 70
    11
 71
     3
 72
    44
 73
    40
 74
     0
 42
0.0000000001
 43
0.0000000001
 12
1.0
 22
0.0
 32
0.0
 13
1.0
 23
0.0
 33
0.0
 40
0.0
 40
0.0
 40
0.0
 40
0.0
 40
0.0909090909090909
 40
0.0909090909090909
 40
0.0909090909090909
 40
0.0909090909090909
 40
0.1818181818181818
 40
0.1818181818181818
 40
0.1818181818181818
 40
0.1818181818181818
 40
0.2727272727272727
 40
0.2727272727272727
 40
0.2727272727272727
 40
0.2727272727272727
 40
0.3636363636363636
 40
0.3636363636363636
 40
0.3636363636363636
 40
0.3636363636363636
 40
0.4545454545454545
 40
0.4545454545454545
 40
0.4545454545454545
 40
0.4545454545454545
 40
0.5454545454545454
 40
0.5454545454545454
 40
0.5454545454545454
 40
0.5454545454545454
 40
0.6363636363636364
 40
0.6363636363636364
 40
0.6363636363636364
 40
0.6363636363636364
 40
0.7272727272727273
 40
0.7272727272727273
 40
0.7272727272727273
 40
0.7272727272727273
 40
0.8181818181818182
 40
0.8181818181818182
 40
0.8181818181818182
 40
0.8181818181818182
 40
1.0
 40
1.0
 40
1.0
 40
1.0
 10
20.5694
 20
66.7116
 30
0.0
 10
20.5694
 20
66.7116
 30
0.0
 10
18.59
 20
66.6834
 30
0.0
 10
18.59
 20
66.6834
 30
0.0
 10
18.59
 20
66.6834
 30
0.0
 10
17.9178
 20
64.522
 30
0.0
 10
15.9011
 20
62.9523
 30
0.0
 10
13.5189
 20
62.9523
 30
0.0
 10
13.5189
 20
62.9523
 30
0.0
 10
11.1368
 20
62.9523
 30
0.0
 10
9.1202
 20
64.522
 30
0.0
 10
8.4479
 20
66.6834
 30
0.0
 10
8.4479
 20
66.6834
 30
0.0
 10
8.4479
 20
66.6834
 30
0.0
 10
6.4685
 20
66.7116
 30
0.0
 10
6.4685
 20
66.7116
 30
0.0
 10
6.4685
 20
66.7116
 30
0.0
 10
5.8537
 20
63.4003
 30
0.0
 10
3.3553
 20
60.664
 30
0.0
 10
0.59
 20
60.0199
 30
0.0
 10
0.59
 20
60.0199
 30
0.0
 10
1.6256
 20
57.5179
 30
0.0
 10
3.6512
 20
55.8139
 30
0.0
 10
5.1073
 20
55.2014
 30
0.0
 10
5.1073
 20
55.2014
 30
0.0
 10
6.456
 20
58.0122
 30
0.0
 10
8.7011
 20
61.5518
 30
0.0
 10
13.5396
 20
61.5256
 30
0.0
 10
13.5396
 20
61.5256
 30
0.0
 10
18.3781
 20
61.5518
 30
0.0
 10
20.5819
 20
58.0122
 30
0.0
 10
21.9306
 20
55.2014
 30
0.0
 10
21.9306
 20
55.2014
 30
0.0
 10
23.3867
 20
55.8139
 30
0.0
 10
25.4123
 20
57.5179
 30
0.0
 10
26.4479
 20
60.0199
 30
0.0
 10
26.4479
 20
60.0199
 30
0.0
 10
23.6826
 20
60.664
 30
0.0
 10
21.1842
 20
63.4003
 30
0.0
 10
20.5694
 20
66.7116
 30
0.0
  0
SPLINE
  5
50
330
1F
100
AcDbEntity
  8
layer 1
 62
   250
370
    13
100
AcDbSpline
210
0.0
220
0.0
230
1.0
 70
    11
 71
     3
 72
    44
 73
    40
 74
     0
 42
0.0000000001
 43
0.0000000001
 12
1.0
 22
0.0
 32
0.0
 13
1.0
 23
0.0
 33
0.0
 40
0.0
 40
0.0
 40
0.0
 40
0.0
 40
0.0909090909090909
 40
0.0909090909090909
 40
0.0909090909090909
 40
0.0909090909090909
 40
0.1818181818181818
 40
0.1818181818181818
 40
0.1818181818181818
 40
0.1818181818181818
 40
0.2727272727272727
 40
0.2727272727272727
 40
0.2727272727272727
 40
0.2727272727272727
 40
0.3636363636363636
 40
0.3636363636363636
 40
0.3636363636363636
 40
0.3636363636363636
 40
0.4545454545454545
 40
0.4545454545454545
 40
0.4545454545454545
 40
0.4545454545454545
 40
0.5454545454545454
 40
0.5454545454545454
 40
0.5454545454545454
 40
0.5454545454545454
 40
0.6363636363636364
 40
0.6363636363636364
 40
0.6363636363636364
 40
0.6363636363636364
 40
0.7272727272727273
 40
0.7272727272727273
 40
0.7272727272727273
 40
0.7272727272727273
 40
0.8181818181818182
 40
0.8181818181818182
 40
0.8181818181818182
 40
0.8181818181818182
 40
1.0
 40
1.0
 40
1.0
 40
1.0
 10
6.4514
 20
69.9132
 30
0.0
 10
6.4514
 20
69.9132
 30
0.0
 10
8.4882
 20
69.965
 30
0.0
 10
8.4882
 20
69.965
 30
0.0
 10
8.4882
 20
69.965
 30
0.0
 10
9.198
 20
72.062
 30
0.0
 10
11.1827
 20
73.572
 30
0.0
 10
13.5189
 20
73.572
 30
0.0
 10
13.5189
 20
73.572
 30
0.0
 10
15.8552
 20
73.572
 30
0.0
 10
17.8401
 20
72.062
 30
0.0
 10
18.5497
 20
69.965
 30
0.0
 10
18.5497
 20
69.965
 30
0.0
 10
18.5497
 20
69.965
 30
0.0
 10
20.5865
 20
69.9132
 30
0.0
 10
20.5865
 20
69.9132
 30
0.0
 10
20.5865
 20
69.9132
 30
0.0
 10
21.2293
 20
73.1818
 30
0.0
 10
23.7075
 20
75.8661
 30
0.0
 10
26.4479
 20
76.5045
 30
0.0
 10
26.4479
 20
76.5045
 30
0.0
 10
25.4123
 20
79.0064
 30
0.0
 10
23.3867
 20
80.7104
 30
0.0
 10
21.9306
 20
81.3229
 30
0.0
 10
21.9306
 20
81.3229
 30
0.0
 10
20.5819
 20
78.5121
 30
0.0
 10
18.3781
 20
74.9726
 30
0.0
 10
13.5396
 20
74.9987
 30
0.0
 10
13.5396
 20
74.9987
 30
0.0
 10
8.7011
 20
74.9726
 30
0.0
 10
6.456
 20
78.5121
 30
0.0
 10
5.1073
 20
81.3229
 30
0.0
 10
5.1073
 20
81.3229
 30
0.0
 10
3.6512
 20
80.7104
 30
0.0
 10
1.6256
 20
79.0064
 30
0.0
 10
0.59
 20
76.5045
 30
0.0
 10
0.59
 20
76.5045
 30
0.0
 10
3.3304
 20
75.8661
 30
0.0
 10
5.8087
 20
73.1818
 30
0.0
 10
6.4514
 20
69.9132
 30
0.0
  0
SPLINE
  5
51
330
1F
100
AcDbEntity
  8
layer 1
 62
   250
370
    13
100
AcDbSpline
210
0.0
220
0.0
230
1.0
 70
    11
 71
     3
 72
    44
 73
    40
 74
     0
 42
0.0000000001
 43
0.0000000001
 12
1.0
 22
0.0
 32
0.0
 13
1.0
 23
0.0
 33
0.0
 40
0.0
 40
0.0
 40
0.0
 40
0.0
 40
0.0909090909090909
 40
0.0909090909090909
 40
0.0909090909090909
 40
0.0909090909090909
 40
0.1818181818181818
 40
0.1818181818181818
 40
0.1818181818181818
 40
0.1818181818181818
 40
0.2727272727272727
 40
0.2727272727272727
 40
0.2727272727272727
 40
0.2727272727272727
 40
0.3636363636363636
 40
0.3636363636363636
 40
0.3636363636363636
 40
0.3636363636363636
 40
0.4545454545454545
 40
0.4545454545454545
 40
0.4545454545454545
 40
0.4545454545454545
 40
0.5454545454545454
 40
0.5454545454545454
 40
0.5454545454545454
 40
0.5454545454545454
 40
0.6363636363636364
 40
0.6363636363636364
 40
0.6363636363636364
 40
0.6363636363636364
 40
0.7272727272727273
 40
0.7272727272727273
 40
0.7272727272727273
 40
0.7272727272727273
 40
0.8181818181818182
 40
0.8181818181818182
 40
0.8181818181818182
 40
0.8181818181818182
 40
1.0
 40
1.0
 40
1.0
 40
1.0
 10
20.5694
 20
66.7116
 30
0.0
 10
20.5694
 20
66.7116
 30
0.0
 10
18.59
 20
66.6834
 30
0.0
 10
18.59
 20
66.6834
 30
0.0
 10
18.59
 20
66.6834
 30
0.0
 10
17.9178
 20
64.522
 30
0.0
 10
15.9011
 20
62.9523
 30
0.0
 10
13.5189
 20
62.9523
 30
0.0
 10
13.5189
 20
62.9523
 30
0.0
 10
11.1368
 20
62.9523
 30
0.0
 10
9.1202
 20
64.522
 30
0.0
 10
8.4479
 20
66.6834
 30
0.0
 10
8.4479
 20
66.6834
 30
0.0
 10
8.4479
 20
66.6834
 30
0.0
 10
6.4685
 20
66.7116
 30
0.0
 10
6.4685
 20
66.7116
 30
0.0
 10
6.4685
 20
66.7116
 30
0.0
 10
5.8537
 20
63.4003
 30
0.0
 10
3.3553
 20
60.664
 30
0.0
 10
0.59
 20
60.0199
 30
0.0
 10
0.59
 20
60.0199
 30
0.0
 10
1.6256
 20
57.5179
 30
0.0
 10
3.6512
 20
55.8139
 30
0.0
 10
5.1073
 20
55.2014
 30
0.0
 10
5.1073
 20
55.2014
 30
0.0
 10
6.456
 20
58.0122
 30
0.0
 10
8.7011
 20
61.5518
 30
0.0
 10
13.5396
 20
61.5256
 30
0.0
 10
13.5396
 20
61.5256
 30
0.0
 10
18.3781
 20
61.5518
 30
0.0
 10
20.5819
 20
58.0122
 30
0.0
 10
21.9306
 20
55.2014
 30
0.0
 10
21.9306
 20
55.2014
 30
0.0
 10
23.3867
 20
55.8139
 30
0.0
 10
25.4123
 20
57.5179
 30
0.0
 10
26.4479
 20
60.0199
 30
0.0
 10
26.4479
 20
60.0199
 30
0.0
 10
23.6826
 20
60.664
 30
0.0
 10
21.1842
 20
63.4003
 30
0.0
 10
20.5694
 20
66.7116
 30
0.0
  0
ELLIPSE
  5
52
330
1F
100
AcDbEntity
  8
layer 1
 62
     7
370
     9
100
AcDbEllipse
 10
13.519
 20
68.2621
 30
0.0
 11
0.0
 21
1.9207
 31
0.0
210
0.0
220
0.0
230
1.0
 40
1.0
 41
0.0
 42
6.283185307179586
  0
ELLIPSE
  5
53
330
1F
100
AcDbEntity
  8
layer 1
 62
     7
370
     9
100
AcDbEllipse
 10
13.519
 20
8.5072
 30
0.0
 11
0.0
 21
1.9207
 31
0.0
210
0.0
220
0.0
230
1.0
 40
1.0
 41
0.0
 42
6.283185307179586
  0
SPLINE
  5
54
330
1F
100
AcDbEntity
  8
layer 1
 62
     7
370
    13
100
AcDbSpline
210
0.0
220
0.0
230
1.0
 70
    11
 71
     3
 72
    52
 73
    48
 74
     0
 42
0.0000000001
 43
0.0000000001
 12
1.0
 22
0.0
 32
0.0
 13
1.0
 23
0.0
 33
0.0
 40
0.0
 40
0.0
 40
0.0
 40
0.0
 40
0.0769230769230769
 40
0.0769230769230769
 40
0.0769230769230769
 40
0.0769230769230769
 40
0.1538461538461539
 40
0.1538461538461539
 40
0.1538461538461539
 40
0.1538461538461539
 40
0.2307692307692308
 40
0.2307692307692308
 40
0.2307692307692308
 40
0.2307692307692308
 40
0.3076923076923077
 40
0.3076923076923077
 40
0.3076923076923077
 40
0.3076923076923077
 40
0.3846153846153846
 40
0.3846153846153846
 40
0.3846153846153846
 40
0.3846153846153846
 40
0.4615384615384616
 40
0.4615384615384616
 40
0.4615384615384616
 40
0.4615384615384616
 40
0.5384615384615384
 40
0.5384615384615384
 40
0.5384615384615384
 40
0.5384615384615384
 40
0.6153846153846154
 40
0.6153846153846154
 40
0.6153846153846154
 40
0.6153846153846154
 40
0.6923076923076923
 40
0.6923076923076923
 40
0.6923076923076923
 40
0.6923076923076923
 40
0.7692307692307693
 40
0.7692307692307693
 40
0.7692307692307693
 40
0.7692307692307693
 40
0.8461538461538461
 40
0.8461538461538461
 40
0.8461538461538461
 40
0.8461538461538461
 40
1.0
 40
1.0
 40
1.0
 40
1.0
 10
59.2801
 20
73.5807
 30
0.0
 10
56.348
 20
73.5807
 30
0.0
 10
53.9702
 20
71.2029
 30
0.0
 10
53.9702
 20
68.2708
 30
0.0
 10
53.9702
 20
68.2708
 30
0.0
 10
53.9702
 20
65.3388
 30
0.0
 10
56.348
 20
62.961
 30
0.0
 10
59.2801
 20
62.961
 30
0.0
 10
59.2801
 20
62.961
 30
0.0
 10
59.2801
 20
62.961
 30
0.0
 10
59.2733
 20
61.5256
 30
0.0
 10
59.2733
 20
61.5256
 30
0.0
 10
59.2733
 20
61.5256
 30
0.0
 10
54.5407
 20
61.5256
 30
0.0
 10
50.54
 20
57.4967
 30
0.0
 10
50.54
 20
52.491
 30
0.0
 10
50.54
 20
52.491
 30
0.0
 10
50.54
 20
52.491
 30
0.0
 10
43.6135
 20
52.491
 30
0.0
 10
43.6135
 20
52.491
 30
0.0
 10
43.6135
 20
52.491
 30
0.0
 10
43.6135
 20
52.491
 30
0.0
 10
43.6135
 20
59.4175
 30
0.0
 10
43.6135
 20
59.4175
 30
0.0
 10
43.6135
 20
59.4175
 30
0.0
 10
47.32
 20
59.7421
 30
0.0
 10
52.5026
 20
62.2471
 30
0.0
 10
52.3469
 20
68.2631
 30
0.0
 10
52.3469
 20
68.2631
 30
0.0
 10
52.5026
 20
74.2792
 30
0.0
 10
47.32
 20
76.7822
 30
0.0
 10
43.6135
 20
77.1068
 30
0.0
 10
43.6135
 20
77.1068
 30
0.0
 10
43.6135
 20
77.1068
 30
0.0
 10
43.6135
 20
84.0333
 30
0.0
 10
43.6135
 20
84.0333
 30
0.0
 10
43.6135
 20
84.0333
 30
0.0
 10
43.6135
 20
84.0333
 30
0.0
 10
50.54
 20
84.0333
 30
0.0
 10
50.54
 20
84.0333
 30
0.0
 10
50.54
 20
84.0333
 30
0.0
 10
50.54
 20
79.0276
 30
0.0
 10
54.5407
 20
74.9987
 30
0.0
 10
59.2733
 20
74.9987
 30
0.0
 10
59.2733
 20
74.9987
 30
0.0
 10
59.2733
 20
74.9987
 30
0.0
 10
59.2801
 20
73.5807
 30
0.0
 10
59.2801
 20
73.5807
 30
0.0
  0
SPLINE
  5
55
330
1F
100
AcDbEntity
  8
layer 1
 62
     7
370
    13
100
AcDbSpline
210
0.0
220
0.0
230
1.0
 70
    11
 71
     3
 72
    16
 73
    12
 74
     0
 42
0.0000000001
 43
0.0000000001
 12
1.0
 22
0.0
 32
0.0
 13
1.0
 23
0.0
 33
0.0
 40
0.0
 40
0.0
 40
0.0
 40
0.0
 40
0.25
 40
0.25
 40
0.25
 40
0.25
 40
0.5
 40
0.5
 40
0.5
 40
0.5
 40
1.0
 40
1.0
 40
1.0
 40
1.0
 10
-30.2722
 20
8.4615
 30
0.0
 10
-30.2722
 20
9.5222
 30
0.0
 10
-31.1323
 20
10.3823
 30
0.0
 10
-32.1929
 20
10.3823
 30
0.0
 10
-32.1929
 20
10.3823
 30
0.0
 10
-32.1929
 20
10.3823
 30
0.0
 10
-32.1929
 20
6.5408
 30
0.0
 10
-32.1929
 20
6.5408
 30
0.0
 10
-32.1929
 20
6.5408
 30
0.0
 10
-31.1323
 20
6.5408
 30
0.0
 10
-30.2722
 20
7.401
 30
0.0
 10
-30.2722
 20
8.4615
 30
0.0
  0
SPLINE
  5
56
330
1F
100
AcDbEntity
  8
layer 1
 62
     7
370
    13
100
AcDbSpline
210
0.0
220
0.0
230
1.0
 70
    11
 71
     3
 72
    16
 73
    12
 74
     0
 42
0.0000000001
 43
0.0000000001
 12
1.0
 22
0.0
 32
0.0
 13
1.0
 23
0.0
 33
0.0
 40
0.0
 40
0.0
 40
0.0
 40
0.0
 40
0.25
 40
0.25
 40
0.25
 40
0.25
 40
0.5
 40
0.5
 40
0.5
 40
0.5
 40
1.0
 40
1.0
 40
1.0
 40
1.0
 10
-30.2531
 20
68.2695
 30
0.0
 10
-30.2531
 20
69.3302
 30
0.0
 10
-31.1132
 20
70.1903
 30
0.0
 10
-32.1738
 20
70.1903
 30
0.0
 10
-32.1738
 20
70.1903
 30
0.0
 10
-32.1738
 20
70.1903
 30
0.0
 10
-32.1738
 20
66.3488
 30
0.0
 10
-32.1738
 20
66.3488
 30
0.0
 10
-32.1738
 20
66.3488
 30
0.0
 10
-31.1132
 20
66.3488
 30
0.0
 10
-30.2531
 20
67.209
 30
0.0
 10
-30.2531
 20
68.2695
 30
0.0
  0
SPLINE
  5
57
330
1F
100
AcDbEntity
  8
layer 1
 62
     7
370
    13
100
AcDbSpline
210
0.0
220
0.0
230
1.0
 70
    11
 71
     3
 72
    16
 73
    12
 74
     0
 42
0.0000000001
 43
0.0000000001
 12
1.0
 22
0.0
 32
0.0
 13
1.0
 23
0.0
 33
0.0
 40
0.0
 40
0.0
 40
0.0
 40
0.0
 40
0.25
 40
0.25
 40
0.25
 40
0.25
 40
0.5
 40
0.5
 40
0.5
 40
0.5
 40
1.0
 40
1.0
 40
1.0
 40
1.0
 10
57.3859
 20
8.4615
 30
0.0
 10
57.3859
 20
9.5222
 30
0.0
 10
58.246
 20
10.3823
 30
0.0
 10
59.3066
 20
10.3823
 30
0.0
 10
59.3066
 20
10.3823
 30
0.0
 10
59.3066
 20
10.3823
 30
0.0
 10
59.3066
 20
6.5408
 30
0.0
 10
59.3066
 20
6.5408
 30
0.0
 10
59.3066
 20
6.5408
 30
0.0
 10
58.246
 20
6.5408
 30
0.0
 10
57.3859
 20
7.401
 30
0.0
 10
57.3859
 20
8.4615
 30
0.0
  0
SPLINE
  5
58
330
1F
100
AcDbEntity
  8
layer 1
 62
     7
370
    13
100
AcDbSpline
210
0.0
220
0.0
230
1.0
 70
    11
 71
     3
 72
    16
 73
    12
 74
     0
 42
0.0000000001
 43
0.0000000001
 12
1.0
 22
0.0
 32
0.0
 13
1.0
 23
0.0
 33
0.0
 40
0.0
 40
0.0
 40
0.0
 40
0.0
 40
0.25
 40
0.25
 40
0.25
 40
0.25
 40
0.5
 40
0.5
 40
0.5
 40
0.5
 40
1.0
 40
1.0
 40
1.0
 40
1.0
 10
57.346
 20
68.2695
 30
0.0
 10
57.346
 20
69.3302
 30
0.0
 10
58.2062
 20
70.1903
 30
0.0
 10
59.2668
 20
70.1903
 30
0.0
 10
59.2668
 20
70.1903
 30
0.0
 10
59.2668
 20
70.1903
 30
0.0
 10
59.2668
 20
66.3488
 30
0.0
 10
59.2668
 20
66.3488
 30
0.0
 10
59.2668
 20
66.3488
 30
0.0
 10
58.2062
 20
66.3488
 30
0.0
 10
57.346
 20
67.209
 30
0.0
 10
57.346
 20
68.2695
 30
0.0
  0
SPLINE
  5
59
330
1F
100
AcDbEntity
  8
layer 1
 62
     7
370
    13
100
AcDbSpline
210
0.0
220
0.0
230
1.0
 70
    11
 71
     3
 72
    20
 73
    16
 74
     0
 42
0.0000000001
 43
0.0000000001
 12
1.0
 22
0.0
 32
0.0
 13
1.0
 23
0.0
 33
0.0
 40
0.0
 40
0.0
 40
0.0
 40
0.0
 40
0.2
 40
0.2
 40
0.2
 40
0.2
 40
0.4
 40
0.4
 40
0.4
 40
0.4
 40
0.6
 40
0.6
 40
0.6
 40
0.6
 40
1.0
 40
1.0
 40
1.0
 40
1.0
 10
32.8293
 20
98.0569
 30
0.0
 10
34.3389
 20
97.1911
 30
0.0
 10
35.6827
 20
95.7128
 30
0.0
 10
36.4218
 20
93.9271
 30
0.0
 10
36.4218
 20
93.9271
 30
0.0
 10
37.1468
 20
95.6291
 30
0.0
 10
38.3195
 20
96.9936
 30
0.0
 10
40.1433
 20
98.0715
 30
0.0
 10
40.1433
 20
98.0715
 30
0.0
 10
38.485
 20
98.9063
 30
0.0
 10
37.1354
 20
100.6701
 30
0.0
 10
36.4281
 20
102.1783
 30
0.0
 10
36.4281
 20
102.1783
 30
0.0
 10
35.6547
 20
100.5238
 30
0.0
 10
34.5536
 20
99.038
 30
0.0
 10
32.8293
 20
98.0569
 30
0.0
  0
SPLINE
  5
5A
330
1F
100
AcDbEntity
  8
layer 1
 62
     7
370
    13
100
AcDbSpline
210
0.0
220
0.0
230
1.0
 70
    11
 71
     3
 72
    20
 73
    16
 74
     0
 42
0.0000000001
 43
0.0000000001
 12
1.0
 22
0.0
 32
0.0
 13
1.0
 23
0.0
 33
0.0
 40
0.0
 40
0.0
 40
0.0
 40
0.0
 40
0.2
 40
0.2
 40
0.2
 40
0.2
 40
0.4
 40
0.4
 40
0.4
 40
0.4
 40
0.6
 40
0.6
 40
0.6
 40
0.6
 40
1.0
 40
1.0
 40
1.0
 40
1.0
 10
-13.0105
 20
38.6471
 30
0.0
 10
-11.5009
 20
37.7812
 30
0.0
 10
-10.1141
 20
36.3566
 30
0.0
 10
-9.375
 20
34.5709
 30
0.0
 10
-9.375
 20
34.5709
 30
0.0
 10
-8.65
 20
36.273
 30
0.0
 10
-7.5395
 20
37.5646
 30
0.0
 10
-5.7158
 20
38.6424
 30
0.0
 10
-5.7158
 20
38.6424
 30
0.0
 10
-7.3741
 20
39.4773
 30
0.0
 10
-8.7044
 20
41.2384
 30
0.0
 10
-9.4118
 20
42.7466
 30
0.0
 10
-9.4118
 20
42.7466
 30
0.0
 10
-10.1851
 20
41.092
 30
0.0
 10
-11.2862
 20
39.6282
 30
0.0
 10
-13.0105
 20
38.6471
 30
0.0
  0
SPLINE
  5
5B
330
1F
100
AcDbEntity
  8
layer 1
 62
     7
370
    13
100
AcDbSpline
210
0.0
220
0.0
230
1.0
 70
    11
 71
     3
 72
    16
 73
    12
 74
     0
 42
0.0000000001
 43
0.0000000001
 12
1.0
 22
0.0
 32
0.0
 13
1.0
 23
0.0
 33
0.0
 40
0.0
 40
0.0
 40
0.0
 40
0.0
 40
0.25
 40
0.25
 40
0.25
 40
0.25
 40
0.5
 40
0.5
 40
0.5
 40
0.5
 40
1.0
 40
1.0
 40
1.0
 40
1.0
 10
59.13
 20
126.0716
 30
0.0
 10
58.0693
 20
126.0716
 30
0.0
 10
57.2093
 20
126.9318
 30
0.0
 10
57.2093
 20
127.9924
 30
0.0
 10
57.2093
 20
127.9924
 30
0.0
 10
57.2093
 20
127.9924
 30
0.0
 10
59.1285
 20
127.9924
 30
0.0
 10
59.1285
 20
127.9924
 30
0.0
 10
59.1285
 20
127.9924
 30
0.0
 10
59.1285
 20
127.9924
 30
0.0
 10
59.13
 20
126.0716
 30
0.0
 10
59.13
 20
126.0716
 30
0.0
  0
SPLINE
  5
5C
330
1F
100
AcDbEntity
  8
layer 1
 62
     7
370
    13
100
AcDbSpline
210
0.0
220
0.0
230
1.0
 70
    11
 71
     3
 72
    16
 73
    12
 74
     0
 42
0.0000000001
 43
0.0000000001
 12
1.0
 22
0.0
 32
0.0
 13
1.0
 23
0.0
 33
0.0
 40
0.0
 40
0.0
 40
0.0
 40
0.0
 40
0.25
 40
0.25
 40
0.25
 40
0.25
 40
0.5
 40
0.5
 40
0.5
 40
0.5
 40
1.0
 40
1.0
 40
1.0
 40
1.0
 10
-32.165
 20
126.0716
 30
0.0
 10
-31.1043
 20
126.0716
 30
0.0
 10
-30.2443
 20
126.9318
 30
0.0
 10
-30.2443
 20
127.9924
 30
0.0
 10
-30.2443
 20
127.9924
 30
0.0
 10
-30.2443
 20
127.9924
 30
0.0
 10
-32.1635
 20
127.9924
 30
0.0
 10
-32.1635
 20
127.9924
 30
0.0
 10
-32.1635
 20
127.9924
 30
0.0
 10
-32.1635
 20
127.9924
 30
0.0
 10
-32.165
 20
126.0716
 30
0.0
 10
-32.165
 20
126.0716
 30
0.0
  0
SPLINE
  5
5D
330
1F
100
AcDbEntity
  8
layer 1
 62
     7
370
    13
100
AcDbSpline
210
0.0
220
0.0
230
1.0
 70
    11
 71
     3
 72
    20
 73
    16
 74
     0
 42
0.0000000001
 43
0.0000000001
 12
1.0
 22
0.0
 32
0.0
 13
1.0
 23
0.0
 33
0.0
 40
0.0
 40
0.0
 40
0.0
 40
0.0
 40
0.2
 40
0.2
 40
0.2
 40
0.2
 40
0.4
 40
0.4
 40
0.4
 40
0.4
 40
0.6
 40
0.6
 40
0.6
 40
0.6
 40
1.0
 40
1.0
 40
1.0
 40
1.0
 10
32.7981
 20
38.6471
 30
0.0
 10
34.3077
 20
37.7812
 30
0.0
 10
35.6945
 20
36.3566
 30
0.0
 10
36.4336
 20
34.5709
 30
0.0
 10
36.4336
 20
34.5709
 30
0.0
 10
37.1586
 20
36.273
 30
0.0
 10
38.2691
 20
37.5646
 30
0.0
 10
40.0928
 20
38.6424
 30
0.0
 10
40.0928
 20
38.6424
 30
0.0
 10
38.4345
 20
39.4773
 30
0.0
 10
37.1042
 20
41.2384
 30
0.0
 10
36.3968
 20
42.7466
 30
0.0
 10
36.3968
 20
42.7466
 30
0.0
 10
35.6235
 20
41.092
 30
0.0
 10
34.5224
 20
39.6282
 30
0.0
 10
32.7981
 20
38.6471
 30
0.0
  0
SPLINE
  5
5E
330
1F
100
AcDbEntity
  8
layer 1
 62
     7
370
    13
100
AcDbSpline
210
0.0
220
0.0
230
1.0
 70
    11
 71
     3
 72
    16
 73
    12
 74
     0
 42
0.0000000001
 43
0.0000000001
 12
1.0
 22
0.0
 32
0.0
 13
1.0
 23
0.0
 33
0.0
 40
0.0
 40
0.0
 40
0.0
 40
0.0
 40
0.25
 40
0.25
 40
0.25
 40
0.25
 40
0.5
 40
0.5
 40
0.5
 40
0.5
 40
1.0
 40
1.0
 40
1.0
 40
1.0
 10
-28.5277
 20
38.6553
 30
0.0
 10
-30.0374
 20
37.7894
 30
0.0
 10
-31.4727
 20
36.3003
 30
0.0
 10
-32.2118
 20
34.5146
 30
0.0
 10
-32.2118
 20
34.5146
 30
0.0
 10
-32.2118
 20
34.5146
 30
0.0
 10
-32.1925
 20
42.7658
 30
0.0
 10
-32.1925
 20
42.7658
 30
0.0
 10
-32.1925
 20
42.7658
 30
0.0
 10
-31.4192
 20
41.1113
 30
0.0
 10
-30.2521
 20
39.6364
 30
0.0
 10
-28.5277
 20
38.6553
 30
0.0
  0
SPLINE
  5
5F
330
1F
100
AcDbEntity
  8
layer 1
 62
     7
370
    13
100
AcDbSpline
210
0.0
220
0.0
230
1.0
 70
    11
 71
     3
 72
    16
 73
    12
 74
     0
 42
0.0000000001
 43
0.0000000001
 12
1.0
 22
0.0
 32
0.0
 13
1.0
 23
0.0
 33
0.0
 40
0.0
 40
0.0
 40
0.0
 40
0.0
 40
0.25
 40
0.25
 40
0.25
 40
0.25
 40
0.5
 40
0.5
 40
0.5
 40
0.5
 40
1.0
 40
1.0
 40
1.0
 40
1.0
 10
55.6054
 20
38.6553
 30
0.0
 10
57.115
 20
37.7894
 30
0.0
 10
58.5504
 20
36.3003
 30
0.0
 10
59.2895
 20
34.5146
 30
0.0
 10
59.2895
 20
34.5146
 30
0.0
 10
59.2895
 20
34.5146
 30
0.0
 10
59.2702
 20
42.7658
 30
0.0
 10
59.2702
 20
42.7658
 30
0.0
 10
59.2702
 20
42.7658
 30
0.0
 10
58.4969
 20
41.1113
 30
0.0
 10
57.3297
 20
39.6364
 30
0.0
 10
55.6054
 20
38.6553
 30
0.0
  0
SPLINE
  5
60
330
1F
100
AcDbEntity
  8
layer 1
 62
     7
370
    13
100
AcDbSpline
210
0.0
220
0.0
230
1.0
 70
    11
 71
     3
 72
    16
 73
    12
 74
     0
 42
0.0000000001
 43
0.0000000001
 12
1.0
 22
0.0
 32
0.0
 13
1.0
 23
0.0
 33
0.0
 40
0.0
 40
0.0
 40
0.0
 40
0.0
 40
0.25
 40
0.25
 40
0.25
 40
0.25
 40
0.5
 40
0.5
 40
0.5
 40
0.5
 40
1.0
 40
1.0
 40
1.0
 40
1.0
 10
-28.5277
 20
98.09
 30
0.0
 10
-30.0374
 20
97.2241
 30
0.0
 10
-31.4727
 20
95.735
 30
0.0
 10
-32.2118
 20
93.9493
 30
0.0
 10
-32.2118
 20
93.9493
 30
0.0
 10
-32.2118
 20
93.9493
 30
0.0
 10
-32.1925
 20
102.2005
 30
0.0
 10
-32.1925
 20
102.2005
 30
0.0
 10
-32.1925
 20
102.2005
 30
0.0
 10
-31.4192
 20
100.546
 30
0.0
 10
-30.2521
 20
99.0711
 30
0.0
 10
-28.5277
 20
98.09
 30
0.0
  0
SPLINE
  5
61
330
1F
100
AcDbEntity
  8
layer 1
 62
     7
370
    13
100
AcDbSpline
210
0.0
220
0.0
230
1.0
 70
    11
 71
     3
 72
    16
 73
    12
 74
     0
 42
0.0000000001
 43
0.0000000001
 12
1.0
 22
0.0
 32
0.0
 13
1.0
 23
0.0
 33
0.0
 40
0.0
 40
0.0
 40
0.0
 40
0.0
 40
0.25
 40
0.25
 40
0.25
 40
0.25
 40
0.5
 40
0.5
 40
0.5
 40
0.5
 40
1.0
 40
1.0
 40
1.0
 40
1.0
 10
55.6054
 20
98.09
 30
0.0
 10
57.115
 20
97.2241
 30
0.0
 10
58.5504
 20
95.735
 30
0.0
 10
59.2895
 20
93.9493
 30
0.0
 10
59.2895
 20
93.9493
 30
0.0
 10
59.2895
 20
93.9493
 30
0.0
 10
59.2702
 20
102.2005
 30
0.0
 10
59.2702
 20
102.2005
 30
0.0
 10
59.2702
 20
102.2005
 30
0.0
 10
58.4969
 20
100.546
 30
0.0
 10
57.3297
 20
99.0711
 30
0.0
 10
55.6054
 20
98.09
 30
0.0
  0
ELLIPSE
  5
62
330
1F
100
AcDbEntity
  8
layer 1
 62
     7
370
     9
100
AcDbEllipse
 10
-9.3915
 20
68.2623
 30
0.0
 11
0.0
 21
1.2805
 31
0.0
210
0.0
220
0.0
230
1.0
 40
1.0
 41
0.0
 42
6.283185307179586
  0
ELLIPSE
  5
63
330
1F
100
AcDbEntity
  8
layer 1
 62
     7
370
     9
100
AcDbEllipse
 10
36.4207
 20
68.2623
 30
0.0
 11
0.0
 21
1.2805
 31
0.0
210
0.0
220
0.0
230
1.0
 40
0.9999219055056618
 41
0.0
 42
6.283185307179586
  0
ELLIPSE
  5
64
330
1F
100
AcDbEntity
  8
layer 1
 62
     7
370
     9
100
AcDbEllipse
 10
-9.3915
 20
8.4571
 30
0.0
 11
0.0
 21
1.2805
 31
0.0
210
0.0
220
0.0
230
1.0
 40
1.0
 41
0.0
 42
6.283185307179586
  0
ELLIPSE
  5
65
330
1F
100
AcDbEntity
  8
layer 1
 62
     7
370
     9
100
AcDbEllipse
 10
36.4207
 20
8.4656
 30
0.0
 11
0.0
 21
1.2805
 31
0.0
210
0.0
220
0.0
230
1.0
 40
0.9999219055056618
 41
0.0
 42
6.283185307179586
  0
SPLINE
  5
66
330
1F
100
AcDbEntity
  8
layer 1
 62
     7
370
    13
100
AcDbSpline
210
0.0
220
0.0
230
1.0
 70
    11
 71
     3
 72
    20
 73
    16
 74
     0
 42
0.0000000001
 43
0.0000000001
 12
1.0
 22
0.0
 32
0.0
 13
1.0
 23
0.0
 33
0.0
 40
0.0
 40
0.0
 40
0.0
 40
0.0
 40
0.2
 40
0.2
 40
0.2
 40
0.2
 40
0.4
 40
0.4
 40
0.4
 40
0.4
 40
0.6
 40
0.6
 40
0.6
 40
0.6
 40
1.0
 40
1.0
 40
1.0
 40
1.0
 10
10.6612
 20
98.0463
 30
0.0
 10
11.8383
 20
97.3712
 30
0.0
 10
12.886
 20
96.2186
 30
0.0
 10
13.4623
 20
94.8263
 30
0.0
 10
13.4623
 20
94.8263
 30
0.0
 10
14.0276
 20
96.1533
 30
0.0
 10
14.942
 20
97.2172
 30
0.0
 10
16.3639
 20
98.0576
 30
0.0
 10
16.3639
 20
98.0576
 30
0.0
 10
15.071
 20
98.7086
 30
0.0
 10
14.0187
 20
100.0837
 30
0.0
 10
13.4672
 20
101.2597
 30
0.0
 10
13.4672
 20
101.2597
 30
0.0
 10
12.8642
 20
99.9697
 30
0.0
 10
12.0057
 20
98.8113
 30
0.0
 10
10.6612
 20
98.0463
 30
0.0
  0
SPLINE
  5
67
330
1F
100
AcDbEntity
  8
layer 1
 62
     7
370
    13
100
AcDbSpline
210
0.0
220
0.0
230
1.0
 70
    11
 71
     3
 72
    20
 73
    16
 74
     0
 42
0.0000000001
 43
0.0000000001
 12
1.0
 22
0.0
 32
0.0
 13
1.0
 23
0.0
 33
0.0
 40
0.0
 40
0.0
 40
0.0
 40
0.0
 40
0.2
 40
0.2
 40
0.2
 40
0.2
 40
0.4
 40
0.4
 40
0.4
 40
0.4
 40
0.6
 40
0.6
 40
0.6
 40
0.6
 40
1.0
 40
1.0
 40
1.0
 40
1.0
 10
10.6612
 20
38.6566
 30
0.0
 10
11.8383
 20
37.9815
 30
0.0
 10
12.886
 20
36.8289
 30
0.0
 10
13.4623
 20
35.4366
 30
0.0
 10
13.4623
 20
35.4366
 30
0.0
 10
14.0276
 20
36.7636
 30
0.0
 10
14.942
 20
37.8275
 30
0.0
 10
16.3639
 20
38.6679
 30
0.0
 10
16.3639
 20
38.6679
 30
0.0
 10
15.071
 20
39.3188
 30
0.0
 10
14.0187
 20
40.694
 30
0.0
 10
13.4672
 20
41.87
 30
0.0
 10
13.4672
 20
41.87
 30
0.0
 10
12.8642
 20
40.58
 30
0.0
 10
12.0057
 20
39.4215
 30
0.0
 10
10.6612
 20
38.6566
 30
0.0
  0
SPLINE
  5
68
330
1F
100
AcDbEntity
  8
layer 1
 62
     7
370
    13
100
AcDbSpline
210
0.0
220
0.0
230
1.0
 70
    11
 71
     3
 72
    24
 73
    20
 74
     0
 42
0.0000000001
 43
0.0000000001
 12
1.0
 22
0.0
 32
0.0
 13
1.0
 23
0.0
 33
0.0
 40
0.0
 40
0.0
 40
0.0
 40
0.0
 40
0.1666666666666667
 40
0.1666666666666667
 40
0.1666666666666667
 40
0.1666666666666667
 40
0.3333333333333333
 40
0.3333333333333333
 40
0.3333333333333333
 40
0.3333333333333333
 40
0.5
 40
0.5
 40
0.5
 40
0.5
 40
0.6666666666666666
 40
0.6666666666666666
 40
0.6666666666666666
 40
0.6666666666666666
 40
1.0
 40
1.0
 40
1.0
 40
1.0
 10
-22.6039
 20
38.5369
 30
0.0
 10
-22.6194
 20
39.4956
 30
0.0
 10
-22.0667
 20
40.4051
 30
0.0
 10
-21.4621
 20
40.8791
 30
0.0
 10
-21.4621
 20
40.8791
 30
0.0
 10
-20.6216
 20
41.5381
 30
0.0
 10
-18.8658
 20
41.588
 30
0.0
 10
-18.4213
 20
40.4929
 30
0.0
 10
-18.4213
 20
40.4929
 30
0.0
 10
-21.8517
 20
40.3745
 30
0.0
 10
-21.6702
 20
36.6757
 30
0.0
 10
-18.4213
 20
36.6515
 30
0.0
 10
-18.4213
 20
36.6515
 30
0.0
 10
-18.8024
 20
35.6796
 30
0.0
 10
-20.5058
 20
35.8303
 30
0.0
 10
-21.3629
 20
36.3956
 30
0.0
 10
-21.3629
 20
36.3956
 30
0.0
 10
-21.9423
 20
36.7778
 30
0.0
 10
-22.568
 20
37.3189
 30
0.0
 10
-22.6039
 20
38.5369
 30
0.0
  0
SPLINE
  5
69
330
1F
100
AcDbEntity
  8
layer 1
 62
     7
370
    13
100
AcDbSpline
210
0.0
220
0.0
230
1.0
 70
    11
 71
     3
 72
    24
 73
    20
 74
     0
 42
0.0000000001
 43
0.0000000001
 12
1.0
 22
0.0
 32
0.0
 13
1.0
 23
0.0
 33
0.0
 40
0.0
 40
0.0
 40
0.0
 40
0.0
 40
0.1666666666666667
 40
0.1666666666666667
 40
0.1666666666666667
 40
0.1666666666666667
 40
0.3333333333333333
 40
0.3333333333333333
 40
0.3333333333333333
 40
0.3333333333333333
 40
0.5
 40
0.5
 40
0.5
 40
0.5
 40
0.6666666666666666
 40
0.6666666666666666
 40
0.6666666666666666
 40
0.6666666666666666
 40
1.0
 40
1.0
 40
1.0
 40
1.0
 10
3.831
 20
38.5369
 30
0.0
 10
3.8466
 20
39.4956
 30
0.0
 10
3.2939
 20
40.4051
 30
0.0
 10
2.6893
 20
40.8791
 30
0.0
 10
2.6893
 20
40.8791
 30
0.0
 10
1.8488
 20
41.5381
 30
0.0
 10
0.0929
 20
41.588
 30
0.0
 10
-0.3516
 20
40.4929
 30
0.0
 10
-0.3516
 20
40.4929
 30
0.0
 10
3.0789
 20
40.3745
 30
0.0
 10
2.8974
 20
36.6757
 30
0.0
 10
-0.3516
 20
36.6515
 30
0.0
 10
-0.3516
 20
36.6515
 30
0.0
 10
0.0296
 20
35.6796
 30
0.0
 10
1.733
 20
35.8303
 30
0.0
 10
2.5901
 20
36.3956
 30
0.0
 10
2.5901
 20
36.3956
 30
0.0
 10
3.1694
 20
36.7778
 30
0.0
 10
3.7952
 20
37.3189
 30
0.0
 10
3.831
 20
38.5369
 30
0.0
  0
SPLINE
  5
6A
330
1F
100
AcDbEntity
  8
layer 1
 62
     7
370
    13
100
AcDbSpline
210
0.0
220
0.0
230
1.0
 70
    11
 71
     3
 72
    24
 73
    20
 74
     0
 42
0.0000000001
 43
0.0000000001
 12
1.0
 22
0.0
 32
0.0
 13
1.0
 23
0.0
 33
0.0
 40
0.0
 40
0.0
 40
0.0
 40
0.0
 40
0.1666666666666667
 40
0.1666666666666667
 40
0.1666666666666667
 40
0.1666666666666667
 40
0.3333333333333333
 40
0.3333333333333333
 40
0.3333333333333333
 40
0.3333333333333333
 40
0.5
 40
0.5
 40
0.5
 40
0.5
 40
0.6666666666666666
 40
0.6666666666666666
 40
0.6666666666666666
 40
0.6666666666666666
 40
1.0
 40
1.0
 40
1.0
 40
1.0
 10
23.2158
 20
38.5369
 30
0.0
 10
23.2003
 20
39.4956
 30
0.0
 10
23.7529
 20
40.4051
 30
0.0
 10
24.3576
 20
40.8791
 30
0.0
 10
24.3576
 20
40.8791
 30
0.0
 10
25.1981
 20
41.5381
 30
0.0
 10
26.9539
 20
41.588
 30
0.0
 10
27.3984
 20
40.4929
 30
0.0
 10
27.3984
 20
40.4929
 30
0.0
 10
23.968
 20
40.3745
 30
0.0
 10
24.1495
 20
36.6757
 30
0.0
 10
27.3984
 20
36.6515
 30
0.0
 10
27.3984
 20
36.6515
 30
0.0
 10
27.0173
 20
35.6796
 30
0.0
 10
25.3139
 20
35.8303
 30
0.0
 10
24.4568
 20
36.3956
 30
0.0
 10
24.4568
 20
36.3956
 30
0.0
 10
23.8774
 20
36.7778
 30
0.0
 10
23.2517
 20
37.3189
 30
0.0
 10
23.2158
 20
38.5369
 30
0.0
  0
SPLINE
  5
6B
330
1F
100
AcDbEntity
  8
layer 1
 62
     7
370
    13
100
AcDbSpline
210
0.0
220
0.0
230
1.0
 70
    11
 71
     3
 72
    24
 73
    20
 74
     0
 42
0.0000000001
 43
0.0000000001
 12
1.0
 22
0.0
 32
0.0
 13
1.0
 23
0.0
 33
0.0
 40
0.0
 40
0.0
 40
0.0
 40
0.0
 40
0.1666666666666667
 40
0.1666666666666667
 40
0.1666666666666667
 40
0.1666666666666667
 40
0.3333333333333333
 40
0.3333333333333333
 40
0.3333333333333333
 40
0.3333333333333333
 40
0.5
 40
0.5
 40
0.5
 40
0.5
 40
0.6666666666666666
 40
0.6666666666666666
 40
0.6666666666666666
 40
0.6666666666666666
 40
1.0
 40
1.0
 40
1.0
 40
1.0
 10
49.6507
 20
38.5369
 30
0.0
 10
49.6663
 20
39.4956
 30
0.0
 10
49.1136
 20
40.4051
 30
0.0
 10
48.509
 20
40.8791
 30
0.0
 10
48.509
 20
40.8791
 30
0.0
 10
47.6685
 20
41.5381
 30
0.0
 10
45.9126
 20
41.588
 30
0.0
 10
45.4681
 20
40.4929
 30
0.0
 10
45.4681
 20
40.4929
 30
0.0
 10
48.8986
 20
40.3745
 30
0.0
 10
48.7171
 20
36.6757
 30
0.0
 10
45.4681
 20
36.6515
 30
0.0
 10
45.4681
 20
36.6515
 30
0.0
 10
45.8493
 20
35.6796
 30
0.0
 10
47.5527
 20
35.8303
 30
0.0
 10
48.4098
 20
36.3956
 30
0.0
 10
48.4098
 20
36.3956
 30
0.0
 10
48.9891
 20
36.7778
 30
0.0
 10
49.6149
 20
37.3189
 30
0.0
 10
49.6507
 20
38.5369
 30
0.0
  0
SPLINE
  5
6C
330
1F
100
AcDbEntity
  8
layer 1
 62
     7
370
    13
100
AcDbSpline
210
0.0
220
0.0
230
1.0
 70
    11
 71
     3
 72
    24
 73
    20
 74
     0
 42
0.0000000001
 43
0.0000000001
 12
1.0
 22
0.0
 32
0.0
 13
1.0
 23
0.0
 33
0.0
 40
0.0
 40
0.0
 40
0.0
 40
0.0
 40
0.1666666666666667
 40
0.1666666666666667
 40
0.1666666666666667
 40
0.1666666666666667
 40
0.3333333333333333
 40
0.3333333333333333
 40
0.3333333333333333
 40
0.3333333333333333
 40
0.5
 40
0.5
 40
0.5
 40
0.5
 40
0.6666666666666666
 40
0.6666666666666666
 40
0.6666666666666666
 40
0.6666666666666666
 40
1.0
 40
1.0
 40
1.0
 40
1.0
 10
-22.6124
 20
97.9462
 30
0.0
 10
-22.6279
 20
98.905
 30
0.0
 10
-22.0753
 20
99.8145
 30
0.0
 10
-21.4706
 20
100.2885
 30
0.0
 10
-21.4706
 20
100.2885
 30
0.0
 10
-20.6301
 20
100.9474
 30
0.0
 10
-18.8743
 20
100.9974
 30
0.0
 10
-18.4298
 20
99.9023
 30
0.0
 10
-18.4298
 20
99.9023
 30
0.0
 10
-21.8602
 20
99.7838
 30
0.0
 10
-21.6788
 20
96.0851
 30
0.0
 10
-18.4298
 20
96.0608
 30
0.0
 10
-18.4298
 20
96.0608
 30
0.0
 10
-18.811
 20
95.0889
 30
0.0
 10
-20.5144
 20
95.2396
 30
0.0
 10
-21.3714
 20
95.805
 30
0.0
 10
-21.3714
 20
95.805
 30
0.0
 10
-21.9508
 20
96.1872
 30
0.0
 10
-22.5766
 20
96.7282
 30
0.0
 10
-22.6124
 20
97.9462
 30
0.0
  0
SPLINE
  5
6D
330
1F
100
AcDbEntity
  8
layer 1
 62
     7
370
    13
100
AcDbSpline
210
0.0
220
0.0
230
1.0
 70
    11
 71
     3
 72
    24
 73
    20
 74
     0
 42
0.0000000001
 43
0.0000000001
 12
1.0
 22
0.0
 32
0.0
 13
1.0
 23
0.0
 33
0.0
 40
0.0
 40
0.0
 40
0.0
 40
0.0
 40
0.1666666666666667
 40
0.1666666666666667
 40
0.1666666666666667
 40
0.1666666666666667
 40
0.3333333333333333
 40
0.3333333333333333
 40
0.3333333333333333
 40
0.3333333333333333
 40
0.5
 40
0.5
 40
0.5
 40
0.5
 40
0.6666666666666666
 40
0.6666666666666666
 40
0.6666666666666666
 40
0.6666666666666666
 40
1.0
 40
1.0
 40
1.0
 40
1.0
 10
3.8225
 20
97.9462
 30
0.0
 10
3.838
 20
98.905
 30
0.0
 10
3.2854
 20
99.8145
 30
0.0
 10
2.6807
 20
100.2885
 30
0.0
 10
2.6807
 20
100.2885
 30
0.0
 10
1.8402
 20
100.9474
 30
0.0
 10
0.0844
 20
100.9974
 30
0.0
 10
-0.3601
 20
99.9023
 30
0.0
 10
-0.3601
 20
99.9023
 30
0.0
 10
3.0703
 20
99.7838
 30
0.0
 10
2.8889
 20
96.0851
 30
0.0
 10
-0.3601
 20
96.0608
 30
0.0
 10
-0.3601
 20
96.0608
 30
0.0
 10
0.0211
 20
95.0889
 30
0.0
 10
1.7245
 20
95.2396
 30
0.0
 10
2.5815
 20
95.805
 30
0.0
 10
2.5815
 20
95.805
 30
0.0
 10
3.1609
 20
96.1872
 30
0.0
 10
3.7866
 20
96.7282
 30
0.0
 10
3.8225
 20
97.9462
 30
0.0
  0
SPLINE
  5
6E
330
1F
100
AcDbEntity
  8
layer 1
 62
     7
370
    13
100
AcDbSpline
210
0.0
220
0.0
230
1.0
 70
    11
 71
     3
 72
    24
 73
    20
 74
     0
 42
0.0000000001
 43
0.0000000001
 12
1.0
 22
0.0
 32
0.0
 13
1.0
 23
0.0
 33
0.0
 40
0.0
 40
0.0
 40
0.0
 40
0.0
 40
0.1666666666666667
 40
0.1666666666666667
 40
0.1666666666666667
 40
0.1666666666666667
 40
0.3333333333333333
 40
0.3333333333333333
 40
0.3333333333333333
 40
0.3333333333333333
 40
0.5
 40
0.5
 40
0.5
 40
0.5
 40
0.6666666666666666
 40
0.6666666666666666
 40
0.6666666666666666
 40
0.6666666666666666
 40
1.0
 40
1.0
 40
1.0
 40
1.0
 10
23.2262
 20
97.9462
 30
0.0
 10
23.2106
 20
98.905
 30
0.0
 10
23.7633
 20
99.8145
 30
0.0
 10
24.3679
 20
100.2885
 30
0.0
 10
24.3679
 20
100.2885
 30
0.0
 10
25.2084
 20
100.9474
 30
0.0
 10
26.9642
 20
100.9974
 30
0.0
 10
27.4087
 20
99.9023
 30
0.0
 10
27.4087
 20
99.9023
 30
0.0
 10
23.9783
 20
99.7838
 30
0.0
 10
24.1598
 20
96.0851
 30
0.0
 10
27.4087
 20
96.0608
 30
0.0
 10
27.4087
 20
96.0608
 30
0.0
 10
27.0276
 20
95.0889
 30
0.0
 10
25.3242
 20
95.2396
 30
0.0
 10
24.4671
 20
95.805
 30
0.0
 10
24.4671
 20
95.805
 30
0.0
 10
23.8877
 20
96.1872
 30
0.0
 10
23.262
 20
96.7282
 30
0.0
 10
23.2262
 20
97.9462
 30
0.0
  0
SPLINE
  5
6F
330
1F
100
AcDbEntity
  8
layer 1
 62
     7
370
    13
100
AcDbSpline
210
0.0
220
0.0
230
1.0
 70
    11
 71
     3
 72
    24
 73
    20
 74
     0
 42
0.0000000001
 43
0.0000000001
 12
1.0
 22
0.0
 32
0.0
 13
1.0
 23
0.0
 33
0.0
 40
0.0
 40
0.0
 40
0.0
 40
0.0
 40
0.1666666666666667
 40
0.1666666666666667
 40
0.1666666666666667
 40
0.1666666666666667
 40
0.3333333333333333
 40
0.3333333333333333
 40
0.3333333333333333
 40
0.3333333333333333
 40
0.5
 40
0.5
 40
0.5
 40
0.5
 40
0.6666666666666666
 40
0.6666666666666666
 40
0.6666666666666666
 40
0.6666666666666666
 40
1.0
 40
1.0
 40
1.0
 40
1.0
 10
49.6611
 20
97.9462
 30
0.0
 10
49.6766
 20
98.905
 30
0.0
 10
49.1239
 20
99.8145
 30
0.0
 10
48.5193
 20
100.2885
 30
0.0
 10
48.5193
 20
100.2885
 30
0.0
 10
47.6788
 20
100.9474
 30
0.0
 10
45.923
 20
100.9974
 30
0.0
 10
45.4785
 20
99.9023
 30
0.0
 10
45.4785
 20
99.9023
 30
0.0
 10
48.9089
 20
99.7838
 30
0.0
 10
48.7274
 20
96.0851
 30
0.0
 10
45.4785
 20
96.0608
 30
0.0
 10
45.4785
 20
96.0608
 30
0.0
 10
45.8596
 20
95.0889
 30
0.0
 10
47.563
 20
95.2396
 30
0.0
 10
48.4201
 20
95.805
 30
0.0
 10
48.4201
 20
95.805
 30
0.0
 10
48.9995
 20
96.1872
 30
0.0
 10
49.6252
 20
96.7282
 30
0.0
 10
49.6611
 20
97.9462
 30
0.0
  0
SPLINE
  5
70
330
1F
100
AcDbEntity
  8
layer 1
 62
     7
370
    13
100
AcDbSpline
210
0.0
220
0.0
230
1.0
 70
    11
 71
     3
 72
    16
 73
    12
 74
     0
 42
0.0000000001
 43
0.0000000001
 12
1.0
 22
0.0
 32
0.0
 13
1.0
 23
0.0
 33
0.0
 40
0.0
 40
0.0
 40
0.0
 40
0.0
 40
0.25
 40
0.25
 40
0.25
 40
0.25
 40
0.5
 40
0.5
 40
0.5
 40
0.5
 40
1.0
 40
1.0
 40
1.0
 40
1.0
 10
13.5124
 20
126.091
 30
0.0
 10
14.573
 20
126.091
 30
0.0
 10
15.4331
 20
126.9511
 30
0.0
 10
15.4331
 20
128.0117
 30
0.0
 10
15.4331
 20
128.0117
 30
0.0
 10
15.4331
 20
128.0117
 30
0.0
 10
11.5916
 20
128.0117
 30
0.0
 10
11.5916
 20
128.0117
 30
0.0
 10
11.5916
 20
128.0117
 30
0.0
 10
11.5916
 20
126.9511
 30
0.0
 10
12.4518
 20
126.091
 30
0.0
 10
13.5124
 20
126.091
 30
0.0
  0
SPLINE
  5
71
330
1F
100
AcDbEntity
  8
layer 1
 62
     7
370
    13
100
AcDbSpline
210
0.0
220
0.0
230
1.0
 70
    11
 71
     3
 72
    16
 73
    12
 74
     0
 42
0.0000000001
 43
0.0000000001
 12
1.0
 22
0.0
 32
0.0
 13
1.0
 23
0.0
 33
0.0
 40
0.0
 40
0.0
 40
0.0
 40
0.0
 40
0.25
 40
0.25
 40
0.25
 40
0.25
 40
0.5
 40
0.5
 40
0.5
 40
0.5
 40
1.0
 40
1.0
 40
1.0
 40
1.0
 10
-9.394
 20
126.8465
 30
0.0
 10
-8.7594
 20
126.8465
 30
0.0
 10
-8.2448
 20
127.3611
 30
0.0
 10
-8.2448
 20
127.9957
 30
0.0
 10
-8.2448
 20
127.9957
 30
0.0
 10
-8.2448
 20
127.9957
 30
0.0
 10
-10.5432
 20
127.9957
 30
0.0
 10
-10.5432
 20
127.9957
 30
0.0
 10
-10.5432
 20
127.9957
 30
0.0
 10
-10.5432
 20
127.3611
 30
0.0
 10
-10.0286
 20
126.8465
 30
0.0
 10
-9.394
 20
126.8465
 30
0.0
  0
SPLINE
  5
72
330
1F
100
AcDbEntity
  8
layer 1
 62
     7
370
    13
100
AcDbSpline
210
0.0
220
0.0
230
1.0
 70
    11
 71
     3
 72
    16
 73
    12
 74
     0
 42
0.0000000001
 43
0.0000000001
 12
1.0
 22
0.0
 32
0.0
 13
1.0
 23
0.0
 33
0.0
 40
0.0
 40
0.0
 40
0.0
 40
0.0
 40
0.25
 40
0.25
 40
0.25
 40
0.25
 40
0.5
 40
0.5
 40
0.5
 40
0.5
 40
1.0
 40
1.0
 40
1.0
 40
1.0
 10
36.4372
 20
126.8465
 30
0.0
 10
37.0718
 20
126.8465
 30
0.0
 10
37.5864
 20
127.3611
 30
0.0
 10
37.5864
 20
127.9957
 30
0.0
 10
37.5864
 20
127.9957
 30
0.0
 10
37.5864
 20
127.9957
 30
0.0
 10
35.288
 20
127.9957
 30
0.0
 10
35.288
 20
127.9957
 30
0.0
 10
35.288
 20
127.9957
 30
0.0
 10
35.288
 20
127.3611
 30
0.0
 10
35.8026
 20
126.8465
 30
0.0
 10
36.4372
 20
126.8465
 30
0.0
  0
SPLINE
  5
73
330
1F
100
AcDbEntity
  8
layer 1
 62
     7
370
    13
100
AcDbSpline
210
0.0
220
0.0
230
1.0
 70
    11
 71
     3
 72
    28
 73
    24
 74
     0
 42
0.0000000001
 43
0.0000000001
 12
1.0
 22
0.0
 32
0.0
 13
1.0
 23
0.0
 33
0.0
 40
0.0
 40
0.0
 40
0.0
 40
0.0
 40
0.1428571428571428
 40
0.1428571428571428
 40
0.1428571428571428
 40
0.1428571428571428
 40
0.2857142857142857
 40
0.2857142857142857
 40
0.2857142857142857
 40
0.2857142857142857
 40
0.4285714285714285
 40
0.4285714285714285
 40
0.4285714285714285
 40
0.4285714285714285
 40
0.5714285714285714
 40
0.5714285714285714
 40
0.5714285714285714
 40
0.5714285714285714
 40
0.7142857142857143
 40
0.7142857142857143
 40
0.7142857142857143
 40
0.7142857142857143
 40
1.0
 40
1.0
 40
1.0
 40
1.0
 10
54.1372
 20
128.0232
 30
0.0
 10
54.1372
 20
128.0232
 30
0.0
 10
52.3303
 20
128.0232
 30
0.0
 10
52.3303
 20
128.0232
 30
0.0
 10
52.3303
 20
128.0232
 30
0.0
 10
52.4793
 20
122.34
 30
0.0
 10
49.6864
 20
120.1194
 30
0.0
 10
46.1411
 20
119.1237
 30
0.0
 10
46.1411
 20
119.1237
 30
0.0
 10
47.1484
 20
117.1896
 30
0.0
 10
48.1997
 20
116.0731
 30
0.0
 10
50.5234
 20
115.0737
 30
0.0
 10
50.5234
 20
115.0737
 30
0.0
 10
51.4174
 20
116.3951
 30
0.0
 10
53.5263
 20
121.2373
 30
0.0
 10
59.2568
 20
121.0968
 30
0.0
 10
59.2568
 20
121.0968
 30
0.0
 10
59.2568
 20
121.0968
 30
0.0
 10
59.2568
 20
122.6024
 30
0.0
 10
59.2568
 20
122.6024
 30
0.0
 10
59.2568
 20
122.6024
 30
0.0
 10
56.1869
 20
123.3176
 30
0.0
 10
54.1372
 20
124.707
 30
0.0
 10
54.1372
 20
128.0232
 30
0.0
  0
SPLINE
  5
74
330
1F
100
AcDbEntity
  8
layer 1
 62
     7
370
    13
100
AcDbSpline
210
0.0
220
0.0
230
1.0
 70
    11
 71
     3
 72
    20
 73
    16
 74
     0
 42
0.0000000001
 43
0.0000000001
 12
1.0
 22
0.0
 32
0.0
 13
1.0
 23
0.0
 33
0.0
 40
0.0
 40
0.0
 40
0.0
 40
0.0
 40
0.2
 40
0.2
 40
0.2
 40
0.2
 40
0.4
 40
0.4
 40
0.4
 40
0.4
 40
0.6
 40
0.6
 40
0.6
 40
0.6
 40
1.0
 40
1.0
 40
1.0
 40
1.0
 10
-12.9988
 20
-81.0411
 30
0.0
 10
-11.4892
 20
-80.1753
 30
0.0
 10
-10.1039
 20
-78.696
 30
0.0
 10
-9.3648
 20
-76.9103
 30
0.0
 10
-9.3648
 20
-76.9103
 30
0.0
 10
-8.6398
 20
-78.6123
 30
0.0
 10
-7.4959
 20
-79.9746
 30
0.0
 10
-5.6721
 20
-81.0524
 30
0.0
 10
-5.6721
 20
-81.0524
 30
0.0
 10
-7.3305
 20
-81.8873
 30
0.0
 10
-8.6768
 20
-83.6533
 30
0.0
 10
-9.3841
 20
-85.1615
 30
0.0
 10
-9.3841
 20
-85.1615
 30
0.0
 10
-10.1574
 20
-83.5069
 30
0.0
 10
-11.2745
 20
-82.0223
 30
0.0
 10
-12.9988
 20
-81.0411
 30
0.0
  0
SPLINE
  5
75
330
1F
100
AcDbEntity
  8
layer 1
 62
     7
370
    13
100
AcDbSpline
210
0.0
220
0.0
230
1.0
 70
    11
 71
     3
 72
    28
 73
    24
 74
     0
 42
0.0000000001
 43
0.0000000001
 12
1.0
 22
0.0
 32
0.0
 13
1.0
 23
0.0
 33
0.0
 40
0.0
 40
0.0
 40
0.0
 40
0.0
 40
0.1428571428571428
 40
0.1428571428571428
 40
0.1428571428571428
 40
0.1428571428571428
 40
0.2857142857142857
 40
0.2857142857142857
 40
0.2857142857142857
 40
0.2857142857142857
 40
0.4285714285714285
 40
0.4285714285714285
 40
0.4285714285714285
 40
0.4285714285714285
 40
0.5714285714285714
 40
0.5714285714285714
 40
0.5714285714285714
 40
0.5714285714285714
 40
0.7142857142857143
 40
0.7142857142857143
 40
0.7142857142857143
 40
0.7142857142857143
 40
1.0
 40
1.0
 40
1.0
 40
1.0
 10
-32.2163
 20
-105.865
 30
0.0
 10
-32.2163
 20
-105.865
 30
0.0
 10
-32.2163
 20
-104.0581
 30
0.0
 10
-32.2163
 20
-104.0581
 30
0.0
 10
-32.2163
 20
-104.0581
 30
0.0
 10
-26.5332
 20
-104.2071
 30
0.0
 10
-24.3126
 20
-101.4142
 30
0.0
 10
-23.3168
 20
-97.8689
 30
0.0
 10
-23.3168
 20
-97.8689
 30
0.0
 10
-21.3827
 20
-98.8762
 30
0.0
 10
-20.2663
 20
-99.9275
 30
0.0
 10
-19.2668
 20
-102.2512
 30
0.0
 10
-19.2668
 20
-102.2512
 30
0.0
 10
-20.5883
 20
-103.1452
 30
0.0
 10
-25.4304
 20
-105.2541
 30
0.0
 10
-25.2899
 20
-110.9846
 30
0.0
 10
-25.2899
 20
-110.9846
 30
0.0
 10
-25.2899
 20
-110.9846
 30
0.0
 10
-26.7956
 20
-110.9846
 30
0.0
 10
-26.7956
 20
-110.9846
 30
0.0
 10
-26.7956
 20
-110.9846
 30
0.0
 10
-27.5108
 20
-107.9147
 30
0.0
 10
-28.9001
 20
-105.865
 30
0.0
 10
-32.2163
 20
-105.865
 30
0.0
  0
SPLINE
  5
76
330
1F
100
AcDbEntity
  8
layer 1
 62
     7
370
    13
100
AcDbSpline
210
0.0
220
0.0
230
1.0
 70
    11
 71
     3
 72
   116
 73
   112
 74
     0
 42
0.0000000001
 43
0.0000000001
 12
1.0
 22
0.0
 32
0.0
 13
1.0
 23
0.0
 33
0.0
 40
0.0
 40
0.0
 40
0.0
 40
0.0
 40
0.0344827586206897
 40
0.0344827586206897
 40
0.0344827586206897
 40
0.0344827586206897
 40
0.0689655172413793
 40
0.0689655172413793
 40
0.0689655172413793
 40
0.0689655172413793
 40
0.103448275862069
 40
0.103448275862069
 40
0.103448275862069
 40
0.103448275862069
 40
0.1379310344827586
 40
0.1379310344827586
 40
0.1379310344827586
 40
0.1379310344827586
 40
0.1724137931034483
 40
0.1724137931034483
 40
0.1724137931034483
 40
0.1724137931034483
 40
0.2068965517241379
 40
0.2068965517241379
 40
0.2068965517241379
 40
0.2068965517241379
 40
0.2413793103448276
 40
0.2413793103448276
 40
0.2413793103448276
 40
0.2413793103448276
 40
0.2758620689655172
 40
0.2758620689655172
 40
0.2758620689655172
 40
0.2758620689655172
 40
0.3103448275862069
 40
0.3103448275862069
 40
0.3103448275862069
 40
0.3103448275862069
 40
0.3448275862068966
 40
0.3448275862068966
 40
0.3448275862068966
 40
0.3448275862068966
 40
0.3793103448275862
 40
0.3793103448275862
 40
0.3793103448275862
 40
0.3793103448275862
 40
0.4137931034482759
 40
0.4137931034482759
 40
0.4137931034482759
 40
0.4137931034482759
 40
0.4482758620689655
 40
0.4482758620689655
 40
0.4482758620689655
 40
0.4482758620689655
 40
0.4827586206896552
 40
0.4827586206896552
 40
0.4827586206896552
 40
0.4827586206896552
 40
0.5172413793103449
 40
0.5172413793103449
 40
0.5172413793103449
 40
0.5172413793103449
 40
0.5517241379310345
 40
0.5517241379310345
 40
0.5517241379310345
 40
0.5517241379310345
 40
0.5862068965517241
 40
0.5862068965517241
 40
0.5862068965517241
 40
0.5862068965517241
 40
0.6206896551724138
 40
0.6206896551724138
 40
0.6206896551724138
 40
0.6206896551724138
 40
0.6551724137931034
 40
0.6551724137931034
 40
0.6551724137931034
 40
0.6551724137931034
 40
0.6896551724137931
 40
0.6896551724137931
 40
0.6896551724137931
 40
0.6896551724137931
 40
0.7241379310344828
 40
0.7241379310344828
 40
0.7241379310344828
 40
0.7241379310344828
 40
0.7586206896551724
 40
0.7586206896551724
 40
0.7586206896551724
 40
0.7586206896551724
 40
0.7931034482758621
 40
0.7931034482758621
 40
0.7931034482758621
 40
0.7931034482758621
 40
0.8275862068965517
 40
0.8275862068965517
 40
0.8275862068965517
 40
0.8275862068965517
 40
0.8620689655172413
 40
0.8620689655172413
 40
0.8620689655172413
 40
0.8620689655172413
 40
0.896551724137931
 40
0.896551724137931
 40
0.896551724137931
 40
0.896551724137931
 40
0.9310344827586207
 40
0.9310344827586207
 40
0.9310344827586207
 40
0.9310344827586207
 40
1.0
 40
1.0
 40
1.0
 40
1.0
 10
-13.2438
 20
-106.7685
 30
0.0
 10
-14.9576
 20
-99.4126
 30
0.0
 10
-20.6443
 20
-93.7258
 30
0.0
 10
-28.0003
 20
-92.012
 30
0.0
 10
-28.0003
 20
-92.012
 30
0.0
 10
-26.9168
 20
-94.1865
 30
0.0
 10
-26.4874
 20
-97.1616
 30
0.0
 10
-28.9037
 20
-98.9385
 30
0.0
 10
-28.9037
 20
-98.9385
 30
0.0
 10
-28.9037
 20
-93.1633
 30
0.0
 10
-29.746
 20
-86.2901
 30
0.0
 10
-24.0852
 20
-86.2901
 30
0.0
 10
-24.0852
 20
-86.2901
 30
0.0
 10
-18.3774
 20
-86.1546
 30
0.0
 10
-19.4358
 20
-90.2277
 30
0.0
 10
-17.4599
 20
-90.2052
 30
0.0
 10
-17.4599
 20
-90.2052
 30
0.0
 10
-17.4599
 20
-90.2052
 30
0.0
 10
-16.2553
 20
-90.2052
 30
0.0
 10
-16.2553
 20
-90.2052
 30
0.0
 10
-16.2553
 20
-90.2052
 30
0.0
 10
-16.2553
 20
-90.2052
 30
0.0
 10
-16.2553
 20
-83.8809
 30
0.0
 10
-16.2553
 20
-83.8809
 30
0.0
 10
-16.2553
 20
-83.8809
 30
0.0
 10
-12.0344
 20
-85.008
 30
0.0
 10
-11.7381
 20
-90.1853
 30
0.0
 10
-11.7381
 20
-95.6259
 30
0.0
 10
-11.7381
 20
-95.6259
 30
0.0
 10
-11.7381
 20
-95.6259
 30
0.0
 10
-9.3691
 20
-96.8167
 30
0.0
 10
-9.3691
 20
-96.8167
 30
0.0
 10
-9.3691
 20
-96.8167
 30
0.0
 10
-9.3691
 20
-96.8167
 30
0.0
 10
-6.9196
 20
-95.6259
 30
0.0
 10
-6.9196
 20
-95.6259
 30
0.0
 10
-6.9196
 20
-95.6259
 30
0.0
 10
-6.9196
 20
-90.2122
 30
0.0
 10
-6.5874
 20
-84.9985
 30
0.0
 10
-2.4023
 20
-83.8809
 30
0.0
 10
-2.4023
 20
-83.8809
 30
0.0
 10
-2.4023
 20
-83.8809
 30
0.0
 10
-2.4023
 20
-90.2052
 30
0.0
 10
-2.4023
 20
-90.2052
 30
0.0
 10
-2.4023
 20
-90.2052
 30
0.0
 10
-2.4023
 20
-90.2052
 30
0.0
 10
-1.1977
 20
-90.2052
 30
0.0
 10
-1.1977
 20
-90.2052
 30
0.0
 10
-1.1977
 20
-90.2052
 30
0.0
 10
0.1219
 20
-90.2052
 30
0.0
 10
0.425
 20
-86.2901
 30
0.0
 10
4.5241
 20
-86.2901
 30
0.0
 10
4.5241
 20
-86.2901
 30
0.0
 10
4.5241
 20
-86.2901
 30
0.0
 10
5.4276
 20
-86.2901
 30
0.0
 10
5.4276
 20
-86.2901
 30
0.0
 10
5.4276
 20
-86.2901
 30
0.0
 10
11.1118
 20
-86.2901
 30
0.0
 10
10.246
 20
-93.1414
 30
0.0
 10
10.246
 20
-98.9385
 30
0.0
 10
10.246
 20
-98.9385
 30
0.0
 10
9.4683
 20
-98.4178
 30
0.0
 10
8.4392
 20
-96.8907
 30
0.0
 10
8.4392
 20
-95.6259
 30
0.0
 10
8.4392
 20
-95.6259
 30
0.0
 10
8.4392
 20
-95.6259
 30
0.0
 10
8.4392
 20
-94.7224
 30
0.0
 10
8.4392
 20
-94.7224
 30
0.0
 10
8.4392
 20
-94.7224
 30
0.0
 10
8.4392
 20
-93.4504
 30
0.0
 10
9.3335
 20
-92.7414
 30
0.0
 10
9.6438
 20
-91.4098
 30
0.0
 10
9.6438
 20
-91.4098
 30
0.0
 10
9.6438
 20
-91.4098
 30
0.0
 10
-5.715
 20
-91.4098
 30
0.0
 10
-5.715
 20
-91.4098
 30
0.0
 10
-5.715
 20
-91.4098
 30
0.0
 10
-5.715
 20
-91.4098
 30
0.0
 10
-5.715
 20
-107.0696
 30
0.0
 10
-5.715
 20
-107.0696
 30
0.0
 10
-5.715
 20
-107.0696
 30
0.0
 10
-4.9996
 20
-106.6911
 30
0.0
 10
-3.6637
 20
-105.865
 30
0.0
 10
-2.7035
 20
-105.865
 30
0.0
 10
-2.7035
 20
-105.865
 30
0.0
 10
-2.7035
 20
-105.865
 30
0.0
 10
-2.1012
 20
-105.865
 30
0.0
 10
-2.1012
 20
-105.865
 30
0.0
 10
-2.1012
 20
-105.865
 30
0.0
 10
0.0775
 20
-105.865
 30
0.0
 10
2.0034
 20
-107.4065
 30
0.0
 10
2.4161
 20
-109.1777
 30
0.0
 10
2.4161
 20
-109.1777
 30
0.0
 10
2.4161
 20
-109.1777
 30
0.0
 10
-6.0162
 20
-109.1777
 30
0.0
 10
-6.0162
 20
-109.1777
 30
0.0
 10
-6.0162
 20
-109.1777
 30
0.0
 10
-8.9115
 20
-109.21
 30
0.0
 10
-9.2845
 20
-106.9147
 30
0.0
 10
-9.3772
 20
-105.865
 30
0.0
 10
-9.3772
 20
-105.865
 30
0.0
 10
-9.4987
 20
-106.9063
 30
0.0
 10
-10.0652
 20
-109.0462
 30
0.0
 10
-12.6415
 20
-109.1777
 30
0.0
 10
-12.6415
 20
-109.1777
 30
0.0
 10
-12.6415
 20
-109.1777
 30
0.0
 10
-21.0738
 20
-109.1777
 30
0.0
 10
-21.0738
 20
-109.1777
 30
0.0
 10
-21.0738
 20
-109.1777
 30
0.0
 10
-20.0646
 20
-104.8457
 30
0.0
 10
-15.0999
 20
-105.1871
 30
0.0
 10
-13.2438
 20
-106.7685
 30
0.0
  0
SPLINE
  5
77
330
1F
100
AcDbEntity
  8
layer 1
 62
     7
370
    13
100
AcDbSpline
210
0.0
220
0.0
230
1.0
 70
    11
 71
     3
 72
   116
 73
   112
 74
     0
 42
0.0000000001
 43
0.0000000001
 12
1.0
 22
0.0
 32
0.0
 13
1.0
 23
0.0
 33
0.0
 40
0.0
 40
0.0
 40
0.0
 40
0.0
 40
0.0344827586206897
 40
0.0344827586206897
 40
0.0344827586206897
 40
0.0344827586206897
 40
0.0689655172413793
 40
0.0689655172413793
 40
0.0689655172413793
 40
0.0689655172413793
 40
0.103448275862069
 40
0.103448275862069
 40
0.103448275862069
 40
0.103448275862069
 40
0.1379310344827586
 40
0.1379310344827586
 40
0.1379310344827586
 40
0.1379310344827586
 40
0.1724137931034483
 40
0.1724137931034483
 40
0.1724137931034483
 40
0.1724137931034483
 40
0.2068965517241379
 40
0.2068965517241379
 40
0.2068965517241379
 40
0.2068965517241379
 40
0.2413793103448276
 40
0.2413793103448276
 40
0.2413793103448276
 40
0.2413793103448276
 40
0.2758620689655172
 40
0.2758620689655172
 40
0.2758620689655172
 40
0.2758620689655172
 40
0.3103448275862069
 40
0.3103448275862069
 40
0.3103448275862069
 40
0.3103448275862069
 40
0.3448275862068966
 40
0.3448275862068966
 40
0.3448275862068966
 40
0.3448275862068966
 40
0.3793103448275862
 40
0.3793103448275862
 40
0.3793103448275862
 40
0.3793103448275862
 40
0.4137931034482759
 40
0.4137931034482759
 40
0.4137931034482759
 40
0.4137931034482759
 40
0.4482758620689655
 40
0.4482758620689655
 40
0.4482758620689655
 40
0.4482758620689655
 40
0.4827586206896552
 40
0.4827586206896552
 40
0.4827586206896552
 40
0.4827586206896552
 40
0.5172413793103449
 40
0.5172413793103449
 40
0.5172413793103449
 40
0.5172413793103449
 40
0.5517241379310345
 40
0.5517241379310345
 40
0.5517241379310345
 40
0.5517241379310345
 40
0.5862068965517241
 40
0.5862068965517241
 40
0.5862068965517241
 40
0.5862068965517241
 40
0.6206896551724138
 40
0.6206896551724138
 40
0.6206896551724138
 40
0.6206896551724138
 40
0.6551724137931034
 40
0.6551724137931034
 40
0.6551724137931034
 40
0.6551724137931034
 40
0.6896551724137931
 40
0.6896551724137931
 40
0.6896551724137931
 40
0.6896551724137931
 40
0.7241379310344828
 40
0.7241379310344828
 40
0.7241379310344828
 40
0.7241379310344828
 40
0.7586206896551724
 40
0.7586206896551724
 40
0.7586206896551724
 40
0.7586206896551724
 40
0.7931034482758621
 40
0.7931034482758621
 40
0.7931034482758621
 40
0.7931034482758621
 40
0.8275862068965517
 40
0.8275862068965517
 40
0.8275862068965517
 40
0.8275862068965517
 40
0.8620689655172413
 40
0.8620689655172413
 40
0.8620689655172413
 40
0.8620689655172413
 40
0.896551724137931
 40
0.896551724137931
 40
0.896551724137931
 40
0.896551724137931
 40
0.9310344827586207
 40
0.9310344827586207
 40
0.9310344827586207
 40
0.9310344827586207
 40
1.0
 40
1.0
 40
1.0
 40
1.0
 10
-16.2553
 20
-72.136
 30
0.0
 10
-16.2553
 20
-72.136
 30
0.0
 10
-18.3634
 20
-72.136
 30
0.0
 10
-18.3634
 20
-72.136
 30
0.0
 10
-18.3634
 20
-72.136
 30
0.0
 10
-18.8117
 20
-74.0604
 30
0.0
 10
-20.4857
 20
-75.7498
 30
0.0
 10
-22.8806
 20
-75.7498
 30
0.0
 10
-22.8806
 20
-75.7498
 30
0.0
 10
-22.8806
 20
-75.7498
 30
0.0
 10
-24.3864
 20
-75.7498
 30
0.0
 10
-24.3864
 20
-75.7498
 30
0.0
 10
-24.3864
 20
-75.7498
 30
0.0
 10
-29.8923
 20
-75.7498
 30
0.0
 10
-28.9037
 20
-68.6115
 30
0.0
 10
-28.9037
 20
-63.1015
 30
0.0
 10
-28.9037
 20
-63.1015
 30
0.0
 10
-28.0165
 20
-64.1221
 30
0.0
 10
-27.0968
 20
-65.0945
 30
0.0
 10
-27.0968
 20
-67.0165
 30
0.0
 10
-27.0968
 20
-67.0165
 30
0.0
 10
-27.0968
 20
-68.77
 30
0.0
 10
-27.9914
 20
-69.4693
 30
0.0
 10
-28.3014
 20
-70.6303
 30
0.0
 10
-28.3014
 20
-70.6303
 30
0.0
 10
-28.3014
 20
-70.6303
 30
0.0
 10
-12.9427
 20
-70.6303
 30
0.0
 10
-12.9427
 20
-70.6303
 30
0.0
 10
-12.9427
 20
-70.6303
 30
0.0
 10
-12.9427
 20
-70.6303
 30
0.0
 10
-12.9427
 20
-54.9704
 30
0.0
 10
-12.9427
 20
-54.9704
 30
0.0
 10
-12.9427
 20
-54.9704
 30
0.0
 10
-15.0791
 20
-57.1218
 30
0.0
 10
-20.062
 20
-57.0585
 30
0.0
 10
-21.0738
 20
-52.8623
 30
0.0
 10
-21.0738
 20
-52.8623
 30
0.0
 10
-21.0738
 20
-52.8623
 30
0.0
 10
-12.9427
 20
-52.8623
 30
0.0
 10
-12.9427
 20
-52.8623
 30
0.0
 10
-12.9427
 20
-52.8623
 30
0.0
 10
-10.663
 20
-52.8623
 30
0.0
 10
-9.5233
 20
-54.4977
 30
0.0
 10
-9.3757
 20
-55.5727
 30
0.0
 10
-9.3757
 20
-55.5727
 30
0.0
 10
-9.2398
 20
-54.5309
 30
0.0
 10
-8.1325
 20
-52.8623
 30
0.0
 10
-5.715
 20
-52.8623
 30
0.0
 10
-5.715
 20
-52.8623
 30
0.0
 10
-5.715
 20
-52.8623
 30
0.0
 10
2.4161
 20
-52.8623
 30
0.0
 10
2.4161
 20
-52.8623
 30
0.0
 10
2.4161
 20
-52.8623
 30
0.0
 10
1.6218
 20
-56.9175
 30
0.0
 10
-3.4597
 20
-56.7365
 30
0.0
 10
-5.4138
 20
-55.2715
 30
0.0
 10
-5.4138
 20
-55.2715
 30
0.0
 10
-3.9623
 20
-61.5023
 30
0.0
 10
2.487
 20
-69.8753
 30
0.0
 10
9.3426
 20
-70.0279
 30
0.0
 10
9.3426
 20
-70.0279
 30
0.0
 10
8.9969
 20
-69.3748
 30
0.0
 10
8.4392
 20
-68.2926
 30
0.0
 10
8.4392
 20
-67.3176
 30
0.0
 10
8.4392
 20
-67.3176
 30
0.0
 10
8.4392
 20
-65.5221
 30
0.0
 10
9.2156
 20
-63.8565
 30
0.0
 10
10.246
 20
-63.1015
 30
0.0
 10
10.246
 20
-63.1015
 30
0.0
 10
10.246
 20
-68.5916
 30
0.0
 10
11.1991
 20
-75.7498
 30
0.0
 10
5.7288
 20
-75.7498
 30
0.0
 10
5.7288
 20
-75.7498
 30
0.0
 10
5.7288
 20
-75.7498
 30
0.0
 10
4.223
 20
-75.7498
 30
0.0
 10
4.223
 20
-75.7498
 30
0.0
 10
4.223
 20
-75.7498
 30
0.0
 10
1.7909
 20
-75.7498
 30
0.0
 10
0.1709
 20
-74.1328
 30
0.0
 10
-0.2943
 20
-72.136
 30
0.0
 10
-0.2943
 20
-72.136
 30
0.0
 10
-0.2943
 20
-72.136
 30
0.0
 10
-2.4023
 20
-72.136
 30
0.0
 10
-2.4023
 20
-72.136
 30
0.0
 10
-2.4023
 20
-72.136
 30
0.0
 10
-2.4023
 20
-72.136
 30
0.0
 10
-2.4023
 20
-78.4602
 30
0.0
 10
-2.4023
 20
-78.4602
 30
0.0
 10
-2.4023
 20
-78.4602
 30
0.0
 10
-6.8835
 20
-75.4595
 30
0.0
 10
-6.9196
 20
-73.5212
 30
0.0
 10
-6.9246
 20
-66.4239
 30
0.0
 10
-6.9246
 20
-66.4239
 30
0.0
 10
-6.9246
 20
-66.4239
 30
0.0
 10
-9.3453
 20
-65.1803
 30
0.0
 10
-9.3453
 20
-65.1803
 30
0.0
 10
-9.3453
 20
-65.1803
 30
0.0
 10
-9.3453
 20
-65.1803
 30
0.0
 10
-11.7381
 20
-66.4141
 30
0.0
 10
-11.7381
 20
-66.4141
 30
0.0
 10
-11.7381
 20
-66.4141
 30
0.0
 10
-11.7381
 20
-66.4141
 30
0.0
 10
-11.7381
 20
-71.5337
 30
0.0
 10
-11.7381
 20
-71.5337
 30
0.0
 10
-11.7381
 20
-71.5337
 30
0.0
 10
-11.7381
 20
-74.8876
 30
0.0
 10
-14.2147
 20
-77.0937
 30
0.0
 10
-16.2553
 20
-78.4602
 30
0.0
 10
-16.2553
 20
-78.4602
 30
0.0
 10
-16.2553
 20
-78.4602
 30
0.0
 10
-16.2553
 20
-72.136
 30
0.0
 10
-16.2553
 20
-72.136
 30
0.0
  0
SPLINE
  5
78
330
1F
100
AcDbEntity
  8
layer 1
 62
     7
370
    13
100
AcDbSpline
210
0.0
220
0.0
230
1.0
 70
    11
 71
     3
 72
    52
 73
    48
 74
     0
 42
0.0000000001
 43
0.0000000001
 12
1.0
 22
0.0
 32
0.0
 13
1.0
 23
0.0
 33
0.0
 40
0.0
 40
0.0
 40
0.0
 40
0.0
 40
0.0769230769230769
 40
0.0769230769230769
 40
0.0769230769230769
 40
0.0769230769230769
 40
0.1538461538461539
 40
0.1538461538461539
 40
0.1538461538461539
 40
0.1538461538461539
 40
0.2307692307692308
 40
0.2307692307692308
 40
0.2307692307692308
 40
0.2307692307692308
 40
0.3076923076923077
 40
0.3076923076923077
 40
0.3076923076923077
 40
0.3076923076923077
 40
0.3846153846153846
 40
0.3846153846153846
 40
0.3846153846153846
 40
0.3846153846153846
 40
0.4615384615384616
 40
0.4615384615384616
 40
0.4615384615384616
 40
0.4615384615384616
 40
0.5384615384615384
 40
0.5384615384615384
 40
0.5384615384615384
 40
0.5384615384615384
 40
0.6153846153846154
 40
0.6153846153846154
 40
0.6153846153846154
 40
0.6153846153846154
 40
0.6923076923076923
 40
0.6923076923076923
 40
0.6923076923076923
 40
0.6923076923076923
 40
0.7692307692307693
 40
0.7692307692307693
 40
0.7692307692307693
 40
0.7692307692307693
 40
0.8461538461538461
 40
0.8461538461538461
 40
0.8461538461538461
 40
0.8461538461538461
 40
1.0
 40
1.0
 40
1.0
 40
1.0
 10
8.1628
 20
-110.9864
 30
0.0
 10
8.1628
 20
-110.9864
 30
0.0
 10
6.6322
 20
-110.9846
 30
0.0
 10
6.6322
 20
-110.9846
 30
0.0
 10
6.6322
 20
-110.9846
 30
0.0
 10
6.6322
 20
-106.1569
 30
0.0
 10
2.7623
 20
-102.2512
 30
0.0
 10
-2.1012
 20
-102.2512
 30
0.0
 10
-2.1012
 20
-102.2512
 30
0.0
 10
-2.1012
 20
-102.2512
 30
0.0
 10
-2.1012
 20
-95.3247
 30
0.0
 10
-2.1012
 20
-95.3247
 30
0.0
 10
-2.1012
 20
-95.3247
 30
0.0
 10
-2.1012
 20
-95.3247
 30
0.0
 10
4.8253
 20
-95.3247
 30
0.0
 10
4.8253
 20
-95.3247
 30
0.0
 10
4.8253
 20
-95.3247
 30
0.0
 10
4.3876
 20
-100.3634
 30
0.0
 10
9.2817
 20
-104.185
 30
0.0
 10
13.5077
 20
-104.0581
 30
0.0
 10
13.5077
 20
-104.0581
 30
0.0
 10
17.7336
 20
-104.185
 30
0.0
 10
22.6885
 20
-100.3634
 30
0.0
 10
22.2509
 20
-95.3247
 30
0.0
 10
22.2509
 20
-95.3247
 30
0.0
 10
22.2509
 20
-95.3247
 30
0.0
 10
29.1774
 20
-95.3247
 30
0.0
 10
29.1774
 20
-95.3247
 30
0.0
 10
29.1774
 20
-95.3247
 30
0.0
 10
29.1774
 20
-95.3247
 30
0.0
 10
29.1774
 20
-102.2512
 30
0.0
 10
29.1774
 20
-102.2512
 30
0.0
 10
29.1774
 20
-102.2512
 30
0.0
 10
24.3138
 20
-102.2512
 30
0.0
 10
20.4439
 20
-106.1569
 30
0.0
 10
20.4439
 20
-110.9846
 30
0.0
 10
20.4439
 20
-110.9846
 30
0.0
 10
20.4439
 20
-110.9846
 30
0.0
 10
18.7825
 20
-110.9864
 30
0.0
 10
18.7825
 20
-110.9864
 30
0.0
 10
18.7825
 20
-110.9864
 30
0.0
 10
18.7825
 20
-108.0543
 30
0.0
 10
16.4047
 20
-105.6765
 30
0.0
 10
13.4727
 20
-105.6765
 30
0.0
 10
13.4727
 20
-105.6765
 30
0.0
 10
10.5406
 20
-105.6765
 30
0.0
 10
8.1628
 20
-108.0543
 30
0.0
 10
8.1628
 20
-110.9864
 30
0.0
  0
SPLINE
  5
79
330
1F
100
AcDbEntity
  8
layer 1
 62
     7
370
    13
100
AcDbSpline
210
0.0
220
0.0
230
1.0
 70
    11
 71
     3
 72
   116
 73
   112
 74
     0
 42
0.0000000001
 43
0.0000000001
 12
1.0
 22
0.0
 32
0.0
 13
1.0
 23
0.0
 33
0.0
 40
0.0
 40
0.0
 40
0.0
 40
0.0
 40
0.0344827586206897
 40
0.0344827586206897
 40
0.0344827586206897
 40
0.0344827586206897
 40
0.0689655172413793
 40
0.0689655172413793
 40
0.0689655172413793
 40
0.0689655172413793
 40
0.103448275862069
 40
0.103448275862069
 40
0.103448275862069
 40
0.103448275862069
 40
0.1379310344827586
 40
0.1379310344827586
 40
0.1379310344827586
 40
0.1379310344827586
 40
0.1724137931034483
 40
0.1724137931034483
 40
0.1724137931034483
 40
0.1724137931034483
 40
0.2068965517241379
 40
0.2068965517241379
 40
0.2068965517241379
 40
0.2068965517241379
 40
0.2413793103448276
 40
0.2413793103448276
 40
0.2413793103448276
 40
0.2413793103448276
 40
0.2758620689655172
 40
0.2758620689655172
 40
0.2758620689655172
 40
0.2758620689655172
 40
0.3103448275862069
 40
0.3103448275862069
 40
0.3103448275862069
 40
0.3103448275862069
 40
0.3448275862068966
 40
0.3448275862068966
 40
0.3448275862068966
 40
0.3448275862068966
 40
0.3793103448275862
 40
0.3793103448275862
 40
0.3793103448275862
 40
0.3793103448275862
 40
0.4137931034482759
 40
0.4137931034482759
 40
0.4137931034482759
 40
0.4137931034482759
 40
0.4482758620689655
 40
0.4482758620689655
 40
0.4482758620689655
 40
0.4482758620689655
 40
0.4827586206896552
 40
0.4827586206896552
 40
0.4827586206896552
 40
0.4827586206896552
 40
0.5172413793103449
 40
0.5172413793103449
 40
0.5172413793103449
 40
0.5172413793103449
 40
0.5517241379310345
 40
0.5517241379310345
 40
0.5517241379310345
 40
0.5517241379310345
 40
0.5862068965517241
 40
0.5862068965517241
 40
0.5862068965517241
 40
0.5862068965517241
 40
0.6206896551724138
 40
0.6206896551724138
 40
0.6206896551724138
 40
0.6206896551724138
 40
0.6551724137931034
 40
0.6551724137931034
 40
0.6551724137931034
 40
0.6551724137931034
 40
0.6896551724137931
 40
0.6896551724137931
 40
0.6896551724137931
 40
0.6896551724137931
 40
0.7241379310344828
 40
0.7241379310344828
 40
0.7241379310344828
 40
0.7241379310344828
 40
0.7586206896551724
 40
0.7586206896551724
 40
0.7586206896551724
 40
0.7586206896551724
 40
0.7931034482758621
 40
0.7931034482758621
 40
0.7931034482758621
 40
0.7931034482758621
 40
0.8275862068965517
 40
0.8275862068965517
 40
0.8275862068965517
 40
0.8275862068965517
 40
0.8620689655172413
 40
0.8620689655172413
 40
0.8620689655172413
 40
0.8620689655172413
 40
0.896551724137931
 40
0.896551724137931
 40
0.896551724137931
 40
0.896551724137931
 40
0.9310344827586207
 40
0.9310344827586207
 40
0.9310344827586207
 40
0.9310344827586207
 40
1.0
 40
1.0
 40
1.0
 40
1.0
 10
40.3199
 20
-106.7685
 30
0.0
 10
42.0337
 20
-99.4126
 30
0.0
 10
47.7204
 20
-93.7258
 30
0.0
 10
55.0764
 20
-92.012
 30
0.0
 10
55.0764
 20
-92.012
 30
0.0
 10
53.993
 20
-94.1865
 30
0.0
 10
53.5636
 20
-97.1616
 30
0.0
 10
55.9798
 20
-98.9385
 30
0.0
 10
55.9798
 20
-98.9385
 30
0.0
 10
55.9798
 20
-93.1633
 30
0.0
 10
56.8221
 20
-86.2901
 30
0.0
 10
51.1614
 20
-86.2901
 30
0.0
 10
51.1614
 20
-86.2901
 30
0.0
 10
45.4535
 20
-86.1546
 30
0.0
 10
46.5119
 20
-90.2277
 30
0.0
 10
44.536
 20
-90.2052
 30
0.0
 10
44.536
 20
-90.2052
 30
0.0
 10
44.536
 20
-90.2052
 30
0.0
 10
43.3314
 20
-90.2052
 30
0.0
 10
43.3314
 20
-90.2052
 30
0.0
 10
43.3314
 20
-90.2052
 30
0.0
 10
43.3314
 20
-90.2052
 30
0.0
 10
43.3314
 20
-83.8809
 30
0.0
 10
43.3314
 20
-83.8809
 30
0.0
 10
43.3314
 20
-83.8809
 30
0.0
 10
39.1105
 20
-85.008
 30
0.0
 10
38.8142
 20
-90.1853
 30
0.0
 10
38.8142
 20
-95.6259
 30
0.0
 10
38.8142
 20
-95.6259
 30
0.0
 10
38.8142
 20
-95.6259
 30
0.0
 10
36.4391
 20
-96.8305
 30
0.0
 10
36.4391
 20
-96.8305
 30
0.0
 10
36.4391
 20
-96.8305
 30
0.0
 10
36.4391
 20
-96.8305
 30
0.0
 10
33.9957
 20
-95.6259
 30
0.0
 10
33.9957
 20
-95.6259
 30
0.0
 10
33.9957
 20
-95.6259
 30
0.0
 10
33.9957
 20
-90.2122
 30
0.0
 10
33.6635
 20
-84.9985
 30
0.0
 10
29.4784
 20
-83.8809
 30
0.0
 10
29.4784
 20
-83.8809
 30
0.0
 10
29.4784
 20
-83.8809
 30
0.0
 10
29.4784
 20
-90.2052
 30
0.0
 10
29.4784
 20
-90.2052
 30
0.0
 10
29.4784
 20
-90.2052
 30
0.0
 10
29.4784
 20
-90.2052
 30
0.0
 10
28.2738
 20
-90.2052
 30
0.0
 10
28.2738
 20
-90.2052
 30
0.0
 10
28.2738
 20
-90.2052
 30
0.0
 10
26.9543
 20
-90.2052
 30
0.0
 10
26.6511
 20
-86.2901
 30
0.0
 10
22.552
 20
-86.2901
 30
0.0
 10
22.552
 20
-86.2901
 30
0.0
 10
22.552
 20
-86.2901
 30
0.0
 10
21.6485
 20
-86.2901
 30
0.0
 10
21.6485
 20
-86.2901
 30
0.0
 10
21.6485
 20
-86.2901
 30
0.0
 10
15.9643
 20
-86.2901
 30
0.0
 10
16.8301
 20
-93.1414
 30
0.0
 10
16.8301
 20
-98.9385
 30
0.0
 10
16.8301
 20
-98.9385
 30
0.0
 10
17.6078
 20
-98.4178
 30
0.0
 10
18.637
 20
-96.8907
 30
0.0
 10
18.637
 20
-95.6259
 30
0.0
 10
18.637
 20
-95.6259
 30
0.0
 10
18.637
 20
-95.6259
 30
0.0
 10
18.637
 20
-94.7224
 30
0.0
 10
18.637
 20
-94.7224
 30
0.0
 10
18.637
 20
-94.7224
 30
0.0
 10
18.637
 20
-93.4504
 30
0.0
 10
17.7427
 20
-92.7414
 30
0.0
 10
17.4324
 20
-91.4098
 30
0.0
 10
17.4324
 20
-91.4098
 30
0.0
 10
17.4324
 20
-91.4098
 30
0.0
 10
32.7911
 20
-91.4098
 30
0.0
 10
32.7911
 20
-91.4098
 30
0.0
 10
32.7911
 20
-91.4098
 30
0.0
 10
32.7911
 20
-91.4098
 30
0.0
 10
32.7911
 20
-107.0696
 30
0.0
 10
32.7911
 20
-107.0696
 30
0.0
 10
32.7911
 20
-107.0696
 30
0.0
 10
32.0758
 20
-106.6911
 30
0.0
 10
30.7399
 20
-105.865
 30
0.0
 10
29.7796
 20
-105.865
 30
0.0
 10
29.7796
 20
-105.865
 30
0.0
 10
29.7796
 20
-105.865
 30
0.0
 10
29.1774
 20
-105.865
 30
0.0
 10
29.1774
 20
-105.865
 30
0.0
 10
29.1774
 20
-105.865
 30
0.0
 10
26.9986
 20
-105.865
 30
0.0
 10
25.0727
 20
-107.4065
 30
0.0
 10
24.66
 20
-109.1777
 30
0.0
 10
24.66
 20
-109.1777
 30
0.0
 10
24.66
 20
-109.1777
 30
0.0
 10
33.0923
 20
-109.1777
 30
0.0
 10
33.0923
 20
-109.1777
 30
0.0
 10
33.0923
 20
-109.1777
 30
0.0
 10
35.9364
 20
-109.2094
 30
0.0
 10
36.3095
 20
-106.8528
 30
0.0
 10
36.4243
 20
-105.865
 30
0.0
 10
36.4243
 20
-105.865
 30
0.0
 10
36.536
 20
-106.8209
 30
0.0
 10
37.0069
 20
-109.0394
 30
0.0
 10
39.7176
 20
-109.1777
 30
0.0
 10
39.7176
 20
-109.1777
 30
0.0
 10
39.7176
 20
-109.1777
 30
0.0
 10
48.1499
 20
-109.1777
 30
0.0
 10
48.1499
 20
-109.1777
 30
0.0
 10
48.1499
 20
-109.1777
 30
0.0
 10
47.1407
 20
-104.8457
 30
0.0
 10
42.176
 20
-105.1871
 30
0.0
 10
40.3199
 20
-106.7685
 30
0.0
  0
SPLINE
  5
7A
330
1F
100
AcDbEntity
  8
layer 1
 62
     7
370
    13
100
AcDbSpline
210
0.0
220
0.0
230
1.0
 70
    11
 71
     3
 72
   116
 73
   112
 74
     0
 42
0.0000000001
 43
0.0000000001
 12
1.0
 22
0.0
 32
0.0
 13
1.0
 23
0.0
 33
0.0
 40
0.0
 40
0.0
 40
0.0
 40
0.0
 40
0.0344827586206897
 40
0.0344827586206897
 40
0.0344827586206897
 40
0.0344827586206897
 40
0.0689655172413793
 40
0.0689655172413793
 40
0.0689655172413793
 40
0.0689655172413793
 40
0.103448275862069
 40
0.103448275862069
 40
0.103448275862069
 40
0.103448275862069
 40
0.1379310344827586
 40
0.1379310344827586
 40
0.1379310344827586
 40
0.1379310344827586
 40
0.1724137931034483
 40
0.1724137931034483
 40
0.1724137931034483
 40
0.1724137931034483
 40
0.2068965517241379
 40
0.2068965517241379
 40
0.2068965517241379
 40
0.2068965517241379
 40
0.2413793103448276
 40
0.2413793103448276
 40
0.2413793103448276
 40
0.2413793103448276
 40
0.2758620689655172
 40
0.2758620689655172
 40
0.2758620689655172
 40
0.2758620689655172
 40
0.3103448275862069
 40
0.3103448275862069
 40
0.3103448275862069
 40
0.3103448275862069
 40
0.3448275862068966
 40
0.3448275862068966
 40
0.3448275862068966
 40
0.3448275862068966
 40
0.3793103448275862
 40
0.3793103448275862
 40
0.3793103448275862
 40
0.3793103448275862
 40
0.4137931034482759
 40
0.4137931034482759
 40
0.4137931034482759
 40
0.4137931034482759
 40
0.4482758620689655
 40
0.4482758620689655
 40
0.4482758620689655
 40
0.4482758620689655
 40
0.4827586206896552
 40
0.4827586206896552
 40
0.4827586206896552
 40
0.4827586206896552
 40
0.5172413793103449
 40
0.5172413793103449
 40
0.5172413793103449
 40
0.5172413793103449
 40
0.5517241379310345
 40
0.5517241379310345
 40
0.5517241379310345
 40
0.5517241379310345
 40
0.5862068965517241
 40
0.5862068965517241
 40
0.5862068965517241
 40
0.5862068965517241
 40
0.6206896551724138
 40
0.6206896551724138
 40
0.6206896551724138
 40
0.6206896551724138
 40
0.6551724137931034
 40
0.6551724137931034
 40
0.6551724137931034
 40
0.6551724137931034
 40
0.6896551724137931
 40
0.6896551724137931
 40
0.6896551724137931
 40
0.6896551724137931
 40
0.7241379310344828
 40
0.7241379310344828
 40
0.7241379310344828
 40
0.7241379310344828
 40
0.7586206896551724
 40
0.7586206896551724
 40
0.7586206896551724
 40
0.7586206896551724
 40
0.7931034482758621
 40
0.7931034482758621
 40
0.7931034482758621
 40
0.7931034482758621
 40
0.8275862068965517
 40
0.8275862068965517
 40
0.8275862068965517
 40
0.8275862068965517
 40
0.8620689655172413
 40
0.8620689655172413
 40
0.8620689655172413
 40
0.8620689655172413
 40
0.896551724137931
 40
0.896551724137931
 40
0.896551724137931
 40
0.896551724137931
 40
0.9310344827586207
 40
0.9310344827586207
 40
0.9310344827586207
 40
0.9310344827586207
 40
1.0
 40
1.0
 40
1.0
 40
1.0
 10
43.3314
 20
-72.136
 30
0.0
 10
43.3314
 20
-72.136
 30
0.0
 10
45.4395
 20
-72.136
 30
0.0
 10
45.4395
 20
-72.136
 30
0.0
 10
45.4395
 20
-72.136
 30
0.0
 10
45.8878
 20
-74.0604
 30
0.0
 10
47.5618
 20
-75.7498
 30
0.0
 10
49.9568
 20
-75.7498
 30
0.0
 10
49.9568
 20
-75.7498
 30
0.0
 10
49.9568
 20
-75.7498
 30
0.0
 10
51.4625
 20
-75.7498
 30
0.0
 10
51.4625
 20
-75.7498
 30
0.0
 10
51.4625
 20
-75.7498
 30
0.0
 10
56.9685
 20
-75.7498
 30
0.0
 10
55.9798
 20
-68.6115
 30
0.0
 10
55.9798
 20
-63.1015
 30
0.0
 10
55.9798
 20
-63.1015
 30
0.0
 10
55.0926
 20
-64.1221
 30
0.0
 10
54.1729
 20
-65.0945
 30
0.0
 10
54.1729
 20
-67.0165
 30
0.0
 10
54.1729
 20
-67.0165
 30
0.0
 10
54.1729
 20
-68.77
 30
0.0
 10
55.0675
 20
-69.4693
 30
0.0
 10
55.3775
 20
-70.6303
 30
0.0
 10
55.3775
 20
-70.6303
 30
0.0
 10
55.3775
 20
-70.6303
 30
0.0
 10
40.0188
 20
-70.6303
 30
0.0
 10
40.0188
 20
-70.6303
 30
0.0
 10
40.0188
 20
-70.6303
 30
0.0
 10
40.0188
 20
-70.6303
 30
0.0
 10
40.0188
 20
-54.9704
 30
0.0
 10
40.0188
 20
-54.9704
 30
0.0
 10
40.0188
 20
-54.9704
 30
0.0
 10
42.1553
 20
-57.1218
 30
0.0
 10
47.1382
 20
-57.0585
 30
0.0
 10
48.1499
 20
-52.8623
 30
0.0
 10
48.1499
 20
-52.8623
 30
0.0
 10
48.1499
 20
-52.8623
 30
0.0
 10
40.0188
 20
-52.8623
 30
0.0
 10
40.0188
 20
-52.8623
 30
0.0
 10
40.0188
 20
-52.8623
 30
0.0
 10
37.7287
 20
-52.8623
 30
0.0
 10
36.5781
 20
-54.6374
 30
0.0
 10
36.4453
 20
-55.5727
 30
0.0
 10
36.4453
 20
-55.5727
 30
0.0
 10
36.2856
 20
-54.6261
 30
0.0
 10
35.1999
 20
-52.8623
 30
0.0
 10
32.7911
 20
-52.8623
 30
0.0
 10
32.7911
 20
-52.8623
 30
0.0
 10
32.7911
 20
-52.8623
 30
0.0
 10
24.66
 20
-52.8623
 30
0.0
 10
24.66
 20
-52.8623
 30
0.0
 10
24.66
 20
-52.8623
 30
0.0
 10
25.4544
 20
-56.9175
 30
0.0
 10
30.5359
 20
-56.7365
 30
0.0
 10
32.49
 20
-55.2715
 30
0.0
 10
32.49
 20
-55.2715
 30
0.0
 10
31.0384
 20
-61.5023
 30
0.0
 10
24.5891
 20
-69.8753
 30
0.0
 10
17.7335
 20
-70.0279
 30
0.0
 10
17.7335
 20
-70.0279
 30
0.0
 10
18.0792
 20
-69.3748
 30
0.0
 10
18.637
 20
-68.2926
 30
0.0
 10
18.637
 20
-67.3176
 30
0.0
 10
18.637
 20
-67.3176
 30
0.0
 10
18.637
 20
-65.5221
 30
0.0
 10
17.8606
 20
-63.8565
 30
0.0
 10
16.8301
 20
-63.1015
 30
0.0
 10
16.8301
 20
-63.1015
 30
0.0
 10
16.8301
 20
-68.5916
 30
0.0
 10
15.877
 20
-75.7498
 30
0.0
 10
21.3473
 20
-75.7498
 30
0.0
 10
21.3473
 20
-75.7498
 30
0.0
 10
21.3473
 20
-75.7498
 30
0.0
 10
22.8531
 20
-75.7498
 30
0.0
 10
22.8531
 20
-75.7498
 30
0.0
 10
22.8531
 20
-75.7498
 30
0.0
 10
25.2853
 20
-75.7498
 30
0.0
 10
26.9053
 20
-74.1328
 30
0.0
 10
27.3704
 20
-72.136
 30
0.0
 10
27.3704
 20
-72.136
 30
0.0
 10
27.3704
 20
-72.136
 30
0.0
 10
29.4784
 20
-72.136
 30
0.0
 10
29.4784
 20
-72.136
 30
0.0
 10
29.4784
 20
-72.136
 30
0.0
 10
29.4784
 20
-72.136
 30
0.0
 10
29.4784
 20
-78.4602
 30
0.0
 10
29.4784
 20
-78.4602
 30
0.0
 10
29.4784
 20
-78.4602
 30
0.0
 10
33.9596
 20
-75.4595
 30
0.0
 10
33.9957
 20
-73.5212
 30
0.0
 10
34.0007
 20
-66.4239
 30
0.0
 10
34.0007
 20
-66.4239
 30
0.0
 10
34.0007
 20
-66.4239
 30
0.0
 10
36.4214
 20
-65.1803
 30
0.0
 10
36.4214
 20
-65.1803
 30
0.0
 10
36.4214
 20
-65.1803
 30
0.0
 10
36.4214
 20
-65.1803
 30
0.0
 10
38.8142
 20
-66.4141
 30
0.0
 10
38.8142
 20
-66.4141
 30
0.0
 10
38.8142
 20
-66.4141
 30
0.0
 10
38.8142
 20
-66.4141
 30
0.0
 10
38.8142
 20
-71.5337
 30
0.0
 10
38.8142
 20
-71.5337
 30
0.0
 10
38.8142
 20
-71.5337
 30
0.0
 10
38.8142
 20
-74.8876
 30
0.0
 10
41.2909
 20
-77.0937
 30
0.0
 10
43.3314
 20
-78.4602
 30
0.0
 10
43.3314
 20
-78.4602
 30
0.0
 10
43.3314
 20
-78.4602
 30
0.0
 10
43.3314
 20
-72.136
 30
0.0
 10
43.3314
 20
-72.136
 30
0.0
  0
SPLINE
  5
7B
330
1F
100
AcDbEntity
  8
layer 1
 62
     7
370
    13
100
AcDbSpline
210
0.0
220
0.0
230
1.0
 70
    11
 71
     3
 72
   116
 73
   112
 74
     0
 42
0.0000000001
 43
0.0000000001
 12
1.0
 22
0.0
 32
0.0
 13
1.0
 23
0.0
 33
0.0
 40
0.0
 40
0.0
 40
0.0
 40
0.0
 40
0.0344827586206897
 40
0.0344827586206897
 40
0.0344827586206897
 40
0.0344827586206897
 40
0.0689655172413793
 40
0.0689655172413793
 40
0.0689655172413793
 40
0.0689655172413793
 40
0.103448275862069
 40
0.103448275862069
 40
0.103448275862069
 40
0.103448275862069
 40
0.1379310344827586
 40
0.1379310344827586
 40
0.1379310344827586
 40
0.1379310344827586
 40
0.1724137931034483
 40
0.1724137931034483
 40
0.1724137931034483
 40
0.1724137931034483
 40
0.2068965517241379
 40
0.2068965517241379
 40
0.2068965517241379
 40
0.2068965517241379
 40
0.2413793103448276
 40
0.2413793103448276
 40
0.2413793103448276
 40
0.2413793103448276
 40
0.2758620689655172
 40
0.2758620689655172
 40
0.2758620689655172
 40
0.2758620689655172
 40
0.3103448275862069
 40
0.3103448275862069
 40
0.3103448275862069
 40
0.3103448275862069
 40
0.3448275862068966
 40
0.3448275862068966
 40
0.3448275862068966
 40
0.3448275862068966
 40
0.3793103448275862
 40
0.3793103448275862
 40
0.3793103448275862
 40
0.3793103448275862
 40
0.4137931034482759
 40
0.4137931034482759
 40
0.4137931034482759
 40
0.4137931034482759
 40
0.4482758620689655
 40
0.4482758620689655
 40
0.4482758620689655
 40
0.4482758620689655
 40
0.4827586206896552
 40
0.4827586206896552
 40
0.4827586206896552
 40
0.4827586206896552
 40
0.5172413793103449
 40
0.5172413793103449
 40
0.5172413793103449
 40
0.5172413793103449
 40
0.5517241379310345
 40
0.5517241379310345
 40
0.5517241379310345
 40
0.5517241379310345
 40
0.5862068965517241
 40
0.5862068965517241
 40
0.5862068965517241
 40
0.5862068965517241
 40
0.6206896551724138
 40
0.6206896551724138
 40
0.6206896551724138
 40
0.6206896551724138
 40
0.6551724137931034
 40
0.6551724137931034
 40
0.6551724137931034
 40
0.6551724137931034
 40
0.6896551724137931
 40
0.6896551724137931
 40
0.6896551724137931
 40
0.6896551724137931
 40
0.7241379310344828
 40
0.7241379310344828
 40
0.7241379310344828
 40
0.7241379310344828
 40
0.7586206896551724
 40
0.7586206896551724
 40
0.7586206896551724
 40
0.7586206896551724
 40
0.7931034482758621
 40
0.7931034482758621
 40
0.7931034482758621
 40
0.7931034482758621
 40
0.8275862068965517
 40
0.8275862068965517
 40
0.8275862068965517
 40
0.8275862068965517
 40
0.8620689655172413
 40
0.8620689655172413
 40
0.8620689655172413
 40
0.8620689655172413
 40
0.896551724137931
 40
0.896551724137931
 40
0.896551724137931
 40
0.896551724137931
 40
0.9310344827586207
 40
0.9310344827586207
 40
0.9310344827586207
 40
0.9310344827586207
 40
1.0
 40
1.0
 40
1.0
 40
1.0
 10
-13.2438
 20
4.2778
 30
0.0
 10
-14.9576
 20
-3.0781
 30
0.0
 10
-20.6443
 20
-8.7649
 30
0.0
 10
-28.0003
 20
-10.4787
 30
0.0
 10
-28.0003
 20
-10.4787
 30
0.0
 10
-26.9168
 20
-8.3042
 30
0.0
 10
-26.4874
 20
-5.3291
 30
0.0
 10
-28.9037
 20
-3.5522
 30
0.0
 10
-28.9037
 20
-3.5522
 30
0.0
 10
-28.9037
 20
-9.3274
 30
0.0
 10
-29.746
 20
-16.2006
 30
0.0
 10
-24.0852
 20
-16.2006
 30
0.0
 10
-24.0852
 20
-16.2006
 30
0.0
 10
-18.3774
 20
-16.3361
 30
0.0
 10
-19.4358
 20
-12.263
 30
0.0
 10
-17.4599
 20
-12.2855
 30
0.0
 10
-17.4599
 20
-12.2855
 30
0.0
 10
-17.4599
 20
-12.2855
 30
0.0
 10
-16.2553
 20
-12.2855
 30
0.0
 10
-16.2553
 20
-12.2855
 30
0.0
 10
-16.2553
 20
-12.2855
 30
0.0
 10
-16.2553
 20
-12.2855
 30
0.0
 10
-16.2553
 20
-18.6098
 30
0.0
 10
-16.2553
 20
-18.6098
 30
0.0
 10
-16.2553
 20
-18.6098
 30
0.0
 10
-12.0344
 20
-17.4827
 30
0.0
 10
-11.7381
 20
-12.3054
 30
0.0
 10
-11.7381
 20
-6.8648
 30
0.0
 10
-11.7381
 20
-6.8648
 30
0.0
 10
-11.7381
 20
-6.8648
 30
0.0
 10
-9.3715
 20
-5.6602
 30
0.0
 10
-9.3715
 20
-5.6602
 30
0.0
 10
-9.3715
 20
-5.6602
 30
0.0
 10
-9.3715
 20
-5.6602
 30
0.0
 10
-6.9196
 20
-6.8648
 30
0.0
 10
-6.9196
 20
-6.8648
 30
0.0
 10
-6.9196
 20
-6.8648
 30
0.0
 10
-6.9196
 20
-12.2785
 30
0.0
 10
-6.5874
 20
-17.4922
 30
0.0
 10
-2.4023
 20
-18.6098
 30
0.0
 10
-2.4023
 20
-18.6098
 30
0.0
 10
-2.4023
 20
-18.6098
 30
0.0
 10
-2.4023
 20
-12.2855
 30
0.0
 10
-2.4023
 20
-12.2855
 30
0.0
 10
-2.4023
 20
-12.2855
 30
0.0
 10
-2.4023
 20
-12.2855
 30
0.0
 10
-1.1977
 20
-12.2855
 30
0.0
 10
-1.1977
 20
-12.2855
 30
0.0
 10
-1.1977
 20
-12.2855
 30
0.0
 10
0.1219
 20
-12.2855
 30
0.0
 10
0.425
 20
-16.2006
 30
0.0
 10
4.5241
 20
-16.2006
 30
0.0
 10
4.5241
 20
-16.2006
 30
0.0
 10
4.5241
 20
-16.2006
 30
0.0
 10
5.4276
 20
-16.2006
 30
0.0
 10
5.4276
 20
-16.2006
 30
0.0
 10
5.4276
 20
-16.2006
 30
0.0
 10
11.1118
 20
-16.2006
 30
0.0
 10
10.246
 20
-9.3493
 30
0.0
 10
10.246
 20
-3.5522
 30
0.0
 10
10.246
 20
-3.5522
 30
0.0
 10
9.4683
 20
-4.0729
 30
0.0
 10
8.4392
 20
-5.6
 30
0.0
 10
8.4392
 20
-6.8648
 30
0.0
 10
8.4392
 20
-6.8648
 30
0.0
 10
8.4392
 20
-6.8648
 30
0.0
 10
8.4392
 20
-7.7683
 30
0.0
 10
8.4392
 20
-7.7683
 30
0.0
 10
8.4392
 20
-7.7683
 30
0.0
 10
8.4392
 20
-9.0403
 30
0.0
 10
9.3335
 20
-9.7493
 30
0.0
 10
9.6438
 20
-11.0809
 30
0.0
 10
9.6438
 20
-11.0809
 30
0.0
 10
9.6438
 20
-11.0809
 30
0.0
 10
-5.715
 20
-11.0809
 30
0.0
 10
-5.715
 20
-11.0809
 30
0.0
 10
-5.715
 20
-11.0809
 30
0.0
 10
-5.715
 20
-11.0809
 30
0.0
 10
-5.715
 20
4.5789
 30
0.0
 10
-5.715
 20
4.5789
 30
0.0
 10
-5.715
 20
4.5789
 30
0.0
 10
-4.9996
 20
4.2004
 30
0.0
 10
-3.6637
 20
3.3743
 30
0.0
 10
-2.7035
 20
3.3743
 30
0.0
 10
-2.7035
 20
3.3743
 30
0.0
 10
-2.7035
 20
3.3743
 30
0.0
 10
-2.1012
 20
3.3743
 30
0.0
 10
-2.1012
 20
3.3743
 30
0.0
 10
-2.1012
 20
3.3743
 30
0.0
 10
0.0775
 20
3.3743
 30
0.0
 10
2.0034
 20
4.9158
 30
0.0
 10
2.4161
 20
6.687
 30
0.0
 10
2.4161
 20
6.687
 30
0.0
 10
2.4161
 20
6.687
 30
0.0
 10
-6.0162
 20
6.687
 30
0.0
 10
-6.0162
 20
6.687
 30
0.0
 10
-6.0162
 20
6.687
 30
0.0
 10
-8.889
 20
6.7191
 30
0.0
 10
-8.9646
 20
4.2988
 30
0.0
 10
-9.3642
 20
3.3743
 30
0.0
 10
-9.3642
 20
3.3743
 30
0.0
 10
-9.7869
 20
4.2988
 30
0.0
 10
-9.9922
 20
6.5518
 30
0.0
 10
-12.6415
 20
6.687
 30
0.0
 10
-12.6415
 20
6.687
 30
0.0
 10
-12.6415
 20
6.687
 30
0.0
 10
-21.0738
 20
6.687
 30
0.0
 10
-21.0738
 20
6.687
 30
0.0
 10
-21.0738
 20
6.687
 30
0.0
 10
-20.0646
 20
2.355
 30
0.0
 10
-15.0999
 20
2.6964
 30
0.0
 10
-13.2438
 20
4.2778
 30
0.0
  0
SPLINE
  5
7C
330
1F
100
AcDbEntity
  8
layer 1
 62
     7
370
    13
100
AcDbSpline
210
0.0
220
0.0
230
1.0
 70
    11
 71
     3
 72
   116
 73
   112
 74
     0
 42
0.0000000001
 43
0.0000000001
 12
1.0
 22
0.0
 32
0.0
 13
1.0
 23
0.0
 33
0.0
 40
0.0
 40
0.0
 40
0.0
 40
0.0
 40
0.0344827586206897
 40
0.0344827586206897
 40
0.0344827586206897
 40
0.0344827586206897
 40
0.0689655172413793
 40
0.0689655172413793
 40
0.0689655172413793
 40
0.0689655172413793
 40
0.103448275862069
 40
0.103448275862069
 40
0.103448275862069
 40
0.103448275862069
 40
0.1379310344827586
 40
0.1379310344827586
 40
0.1379310344827586
 40
0.1379310344827586
 40
0.1724137931034483
 40
0.1724137931034483
 40
0.1724137931034483
 40
0.1724137931034483
 40
0.2068965517241379
 40
0.2068965517241379
 40
0.2068965517241379
 40
0.2068965517241379
 40
0.2413793103448276
 40
0.2413793103448276
 40
0.2413793103448276
 40
0.2413793103448276
 40
0.2758620689655172
 40
0.2758620689655172
 40
0.2758620689655172
 40
0.2758620689655172
 40
0.3103448275862069
 40
0.3103448275862069
 40
0.3103448275862069
 40
0.3103448275862069
 40
0.3448275862068966
 40
0.3448275862068966
 40
0.3448275862068966
 40
0.3448275862068966
 40
0.3793103448275862
 40
0.3793103448275862
 40
0.3793103448275862
 40
0.3793103448275862
 40
0.4137931034482759
 40
0.4137931034482759
 40
0.4137931034482759
 40
0.4137931034482759
 40
0.4482758620689655
 40
0.4482758620689655
 40
0.4482758620689655
 40
0.4482758620689655
 40
0.4827586206896552
 40
0.4827586206896552
 40
0.4827586206896552
 40
0.4827586206896552
 40
0.5172413793103449
 40
0.5172413793103449
 40
0.5172413793103449
 40
0.5172413793103449
 40
0.5517241379310345
 40
0.5517241379310345
 40
0.5517241379310345
 40
0.5517241379310345
 40
0.5862068965517241
 40
0.5862068965517241
 40
0.5862068965517241
 40
0.5862068965517241
 40
0.6206896551724138
 40
0.6206896551724138
 40
0.6206896551724138
 40
0.6206896551724138
 40
0.6551724137931034
 40
0.6551724137931034
 40
0.6551724137931034
 40
0.6551724137931034
 40
0.6896551724137931
 40
0.6896551724137931
 40
0.6896551724137931
 40
0.6896551724137931
 40
0.7241379310344828
 40
0.7241379310344828
 40
0.7241379310344828
 40
0.7241379310344828
 40
0.7586206896551724
 40
0.7586206896551724
 40
0.7586206896551724
 40
0.7586206896551724
 40
0.7931034482758621
 40
0.7931034482758621
 40
0.7931034482758621
 40
0.7931034482758621
 40
0.8275862068965517
 40
0.8275862068965517
 40
0.8275862068965517
 40
0.8275862068965517
 40
0.8620689655172413
 40
0.8620689655172413
 40
0.8620689655172413
 40
0.8620689655172413
 40
0.896551724137931
 40
0.896551724137931
 40
0.896551724137931
 40
0.896551724137931
 40
0.9310344827586207
 40
0.9310344827586207
 40
0.9310344827586207
 40
0.9310344827586207
 40
1.0
 40
1.0
 40
1.0
 40
1.0
 10
-16.2553
 20
-30.3547
 30
0.0
 10
-16.2553
 20
-30.3547
 30
0.0
 10
-18.3634
 20
-30.3547
 30
0.0
 10
-18.3634
 20
-30.3547
 30
0.0
 10
-18.3634
 20
-30.3547
 30
0.0
 10
-18.8117
 20
-28.4303
 30
0.0
 10
-20.4857
 20
-26.7409
 30
0.0
 10
-22.8806
 20
-26.7409
 30
0.0
 10
-22.8806
 20
-26.7409
 30
0.0
 10
-22.8806
 20
-26.7409
 30
0.0
 10
-24.3864
 20
-26.7409
 30
0.0
 10
-24.3864
 20
-26.7409
 30
0.0
 10
-24.3864
 20
-26.7409
 30
0.0
 10
-29.8923
 20
-26.7409
 30
0.0
 10
-28.9037
 20
-33.8792
 30
0.0
 10
-28.9037
 20
-39.3892
 30
0.0
 10
-28.9037
 20
-39.3892
 30
0.0
 10
-28.0165
 20
-38.3685
 30
0.0
 10
-27.0968
 20
-37.3962
 30
0.0
 10
-27.0968
 20
-35.4742
 30
0.0
 10
-27.0968
 20
-35.4742
 30
0.0
 10
-27.0968
 20
-33.7207
 30
0.0
 10
-27.9914
 20
-33.0214
 30
0.0
 10
-28.3014
 20
-31.8604
 30
0.0
 10
-28.3014
 20
-31.8604
 30
0.0
 10
-28.3014
 20
-31.8604
 30
0.0
 10
-12.9427
 20
-31.8604
 30
0.0
 10
-12.9427
 20
-31.8604
 30
0.0
 10
-12.9427
 20
-31.8604
 30
0.0
 10
-12.9427
 20
-31.8604
 30
0.0
 10
-12.9427
 20
-47.5203
 30
0.0
 10
-12.9427
 20
-47.5203
 30
0.0
 10
-12.9427
 20
-47.5203
 30
0.0
 10
-15.0791
 20
-45.3689
 30
0.0
 10
-20.062
 20
-45.4322
 30
0.0
 10
-21.0738
 20
-49.6284
 30
0.0
 10
-21.0738
 20
-49.6284
 30
0.0
 10
-21.0738
 20
-49.6284
 30
0.0
 10
-12.9427
 20
-49.6284
 30
0.0
 10
-12.9427
 20
-49.6284
 30
0.0
 10
-12.9427
 20
-49.6284
 30
0.0
 10
-10.6455
 20
-49.6284
 30
0.0
 10
-9.5327
 20
-47.7935
 30
0.0
 10
-9.3646
 20
-46.918
 30
0.0
 10
-9.3646
 20
-46.918
 30
0.0
 10
-9.2458
 20
-47.7824
 30
0.0
 10
-8.1177
 20
-49.6284
 30
0.0
 10
-5.715
 20
-49.6284
 30
0.0
 10
-5.715
 20
-49.6284
 30
0.0
 10
-5.715
 20
-49.6284
 30
0.0
 10
2.4161
 20
-49.6284
 30
0.0
 10
2.4161
 20
-49.6284
 30
0.0
 10
2.4161
 20
-49.6284
 30
0.0
 10
1.6218
 20
-45.5732
 30
0.0
 10
-3.4597
 20
-45.7542
 30
0.0
 10
-5.4138
 20
-47.2192
 30
0.0
 10
-5.4138
 20
-47.2192
 30
0.0
 10
-3.9623
 20
-40.9884
 30
0.0
 10
2.487
 20
-32.6154
 30
0.0
 10
9.3426
 20
-32.4628
 30
0.0
 10
9.3426
 20
-32.4628
 30
0.0
 10
8.9969
 20
-33.1159
 30
0.0
 10
8.4392
 20
-34.1981
 30
0.0
 10
8.4392
 20
-35.1731
 30
0.0
 10
8.4392
 20
-35.1731
 30
0.0
 10
8.4392
 20
-36.9685
 30
0.0
 10
9.2156
 20
-38.6342
 30
0.0
 10
10.246
 20
-39.3892
 30
0.0
 10
10.246
 20
-39.3892
 30
0.0
 10
10.246
 20
-33.899
 30
0.0
 10
11.1991
 20
-26.7409
 30
0.0
 10
5.7288
 20
-26.7409
 30
0.0
 10
5.7288
 20
-26.7409
 30
0.0
 10
5.7288
 20
-26.7409
 30
0.0
 10
4.223
 20
-26.7409
 30
0.0
 10
4.223
 20
-26.7409
 30
0.0
 10
4.223
 20
-26.7409
 30
0.0
 10
1.7909
 20
-26.7409
 30
0.0
 10
0.1709
 20
-28.3579
 30
0.0
 10
-0.2943
 20
-30.3547
 30
0.0
 10
-0.2943
 20
-30.3547
 30
0.0
 10
-0.2943
 20
-30.3547
 30
0.0
 10
-2.4023
 20
-30.3547
 30
0.0
 10
-2.4023
 20
-30.3547
 30
0.0
 10
-2.4023
 20
-30.3547
 30
0.0
 10
-2.4023
 20
-30.3547
 30
0.0
 10
-2.4023
 20
-24.0305
 30
0.0
 10
-2.4023
 20
-24.0305
 30
0.0
 10
-2.4023
 20
-24.0305
 30
0.0
 10
-6.8835
 20
-27.0312
 30
0.0
 10
-6.9196
 20
-28.9695
 30
0.0
 10
-6.9246
 20
-36.0668
 30
0.0
 10
-6.9246
 20
-36.0668
 30
0.0
 10
-6.9246
 20
-36.0668
 30
0.0
 10
-9.3453
 20
-37.3104
 30
0.0
 10
-9.3453
 20
-37.3104
 30
0.0
 10
-9.3453
 20
-37.3104
 30
0.0
 10
-9.3453
 20
-37.3104
 30
0.0
 10
-11.7381
 20
-36.0766
 30
0.0
 10
-11.7381
 20
-36.0766
 30
0.0
 10
-11.7381
 20
-36.0766
 30
0.0
 10
-11.7381
 20
-36.0766
 30
0.0
 10
-11.7381
 20
-30.957
 30
0.0
 10
-11.7381
 20
-30.957
 30
0.0
 10
-11.7381
 20
-30.957
 30
0.0
 10
-11.7381
 20
-27.6031
 30
0.0
 10
-14.2147
 20
-25.3969
 30
0.0
 10
-16.2553
 20
-24.0305
 30
0.0
 10
-16.2553
 20
-24.0305
 30
0.0
 10
-16.2553
 20
-24.0305
 30
0.0
 10
-16.2553
 20
-30.3547
 30
0.0
 10
-16.2553
 20
-30.3547
 30
0.0
  0
SPLINE
  5
7D
330
1F
100
AcDbEntity
  8
layer 1
 62
     7
370
    13
100
AcDbSpline
210
0.0
220
0.0
230
1.0
 70
    11
 71
     3
 72
    52
 73
    48
 74
     0
 42
0.0000000001
 43
0.0000000001
 12
1.0
 22
0.0
 32
0.0
 13
1.0
 23
0.0
 33
0.0
 40
0.0
 40
0.0
 40
0.0
 40
0.0
 40
0.0769230769230769
 40
0.0769230769230769
 40
0.0769230769230769
 40
0.0769230769230769
 40
0.1538461538461539
 40
0.1538461538461539
 40
0.1538461538461539
 40
0.1538461538461539
 40
0.2307692307692308
 40
0.2307692307692308
 40
0.2307692307692308
 40
0.2307692307692308
 40
0.3076923076923077
 40
0.3076923076923077
 40
0.3076923076923077
 40
0.3076923076923077
 40
0.3846153846153846
 40
0.3846153846153846
 40
0.3846153846153846
 40
0.3846153846153846
 40
0.4615384615384616
 40
0.4615384615384616
 40
0.4615384615384616
 40
0.4615384615384616
 40
0.5384615384615384
 40
0.5384615384615384
 40
0.5384615384615384
 40
0.5384615384615384
 40
0.6153846153846154
 40
0.6153846153846154
 40
0.6153846153846154
 40
0.6153846153846154
 40
0.6923076923076923
 40
0.6923076923076923
 40
0.6923076923076923
 40
0.6923076923076923
 40
0.7692307692307693
 40
0.7692307692307693
 40
0.7692307692307693
 40
0.7692307692307693
 40
0.8461538461538461
 40
0.8461538461538461
 40
0.8461538461538461
 40
0.8461538461538461
 40
1.0
 40
1.0
 40
1.0
 40
1.0
 10
-32.2163
 20
-56.5618
 30
0.0
 10
-32.2163
 20
-56.5618
 30
0.0
 10
-32.2163
 20
-57.9819
 30
0.0
 10
-32.2163
 20
-57.9819
 30
0.0
 10
-32.2163
 20
-57.9819
 30
0.0
 10
-27.4837
 20
-57.9819
 30
0.0
 10
-23.483
 20
-62.0108
 30
0.0
 10
-23.483
 20
-67.0165
 30
0.0
 10
-23.483
 20
-67.0165
 30
0.0
 10
-23.483
 20
-67.0165
 30
0.0
 10
-16.5565
 20
-67.0165
 30
0.0
 10
-16.5565
 20
-67.0165
 30
0.0
 10
-16.5565
 20
-67.0165
 30
0.0
 10
-16.5565
 20
-67.0165
 30
0.0
 10
-16.5565
 20
-60.09
 30
0.0
 10
-16.5565
 20
-60.09
 30
0.0
 10
-16.5565
 20
-60.09
 30
0.0
 10
-20.263
 20
-59.7654
 30
0.0
 10
-25.4456
 20
-57.2624
 30
0.0
 10
-25.2899
 20
-51.2463
 30
0.0
 10
-25.2899
 20
-51.2463
 30
0.0
 10
-25.4456
 20
-45.2303
 30
0.0
 10
-20.263
 20
-42.7253
 30
0.0
 10
-16.5565
 20
-42.4007
 30
0.0
 10
-16.5565
 20
-42.4007
 30
0.0
 10
-16.5565
 20
-42.4007
 30
0.0
 10
-16.5565
 20
-35.4742
 30
0.0
 10
-16.5565
 20
-35.4742
 30
0.0
 10
-16.5565
 20
-35.4742
 30
0.0
 10
-16.5565
 20
-35.4742
 30
0.0
 10
-23.483
 20
-35.4742
 30
0.0
 10
-23.483
 20
-35.4742
 30
0.0
 10
-23.483
 20
-35.4742
 30
0.0
 10
-23.483
 20
-40.4799
 30
0.0
 10
-27.4837
 20
-44.5088
 30
0.0
 10
-32.2163
 20
-44.5088
 30
0.0
 10
-32.2163
 20
-44.5088
 30
0.0
 10
-32.2163
 20
-44.5088
 30
0.0
 10
-32.2313
 20
-45.9422
 30
0.0
 10
-32.2313
 20
-45.9422
 30
0.0
 10
-32.2313
 20
-45.9422
 30
0.0
 10
-29.2993
 20
-45.9422
 30
0.0
 10
-26.9215
 20
-48.32
 30
0.0
 10
-26.9215
 20
-51.252
 30
0.0
 10
-26.9215
 20
-51.252
 30
0.0
 10
-26.9215
 20
-54.1841
 30
0.0
 10
-29.2843
 20
-56.5618
 30
0.0
 10
-32.2163
 20
-56.5618
 30
0.0
  0
SPLINE
  5
7E
330
1F
100
AcDbEntity
  8
layer 1
 62
     7
370
    13
100
AcDbSpline
210
0.0
220
0.0
230
1.0
 70
    11
 71
     3
 72
   116
 73
   112
 74
     0
 42
0.0000000001
 43
0.0000000001
 12
1.0
 22
0.0
 32
0.0
 13
1.0
 23
0.0
 33
0.0
 40
0.0
 40
0.0
 40
0.0
 40
0.0
 40
0.0344827586206897
 40
0.0344827586206897
 40
0.0344827586206897
 40
0.0344827586206897
 40
0.0689655172413793
 40
0.0689655172413793
 40
0.0689655172413793
 40
0.0689655172413793
 40
0.103448275862069
 40
0.103448275862069
 40
0.103448275862069
 40
0.103448275862069
 40
0.1379310344827586
 40
0.1379310344827586
 40
0.1379310344827586
 40
0.1379310344827586
 40
0.1724137931034483
 40
0.1724137931034483
 40
0.1724137931034483
 40
0.1724137931034483
 40
0.2068965517241379
 40
0.2068965517241379
 40
0.2068965517241379
 40
0.2068965517241379
 40
0.2413793103448276
 40
0.2413793103448276
 40
0.2413793103448276
 40
0.2413793103448276
 40
0.2758620689655172
 40
0.2758620689655172
 40
0.2758620689655172
 40
0.2758620689655172
 40
0.3103448275862069
 40
0.3103448275862069
 40
0.3103448275862069
 40
0.3103448275862069
 40
0.3448275862068966
 40
0.3448275862068966
 40
0.3448275862068966
 40
0.3448275862068966
 40
0.3793103448275862
 40
0.3793103448275862
 40
0.3793103448275862
 40
0.3793103448275862
 40
0.4137931034482759
 40
0.4137931034482759
 40
0.4137931034482759
 40
0.4137931034482759
 40
0.4482758620689655
 40
0.4482758620689655
 40
0.4482758620689655
 40
0.4482758620689655
 40
0.4827586206896552
 40
0.4827586206896552
 40
0.4827586206896552
 40
0.4827586206896552
 40
0.5172413793103449
 40
0.5172413793103449
 40
0.5172413793103449
 40
0.5172413793103449
 40
0.5517241379310345
 40
0.5517241379310345
 40
0.5517241379310345
 40
0.5517241379310345
 40
0.5862068965517241
 40
0.5862068965517241
 40
0.5862068965517241
 40
0.5862068965517241
 40
0.6206896551724138
 40
0.6206896551724138
 40
0.6206896551724138
 40
0.6206896551724138
 40
0.6551724137931034
 40
0.6551724137931034
 40
0.6551724137931034
 40
0.6551724137931034
 40
0.6896551724137931
 40
0.6896551724137931
 40
0.6896551724137931
 40
0.6896551724137931
 40
0.7241379310344828
 40
0.7241379310344828
 40
0.7241379310344828
 40
0.7241379310344828
 40
0.7586206896551724
 40
0.7586206896551724
 40
0.7586206896551724
 40
0.7586206896551724
 40
0.7931034482758621
 40
0.7931034482758621
 40
0.7931034482758621
 40
0.7931034482758621
 40
0.8275862068965517
 40
0.8275862068965517
 40
0.8275862068965517
 40
0.8275862068965517
 40
0.8620689655172413
 40
0.8620689655172413
 40
0.8620689655172413
 40
0.8620689655172413
 40
0.896551724137931
 40
0.896551724137931
 40
0.896551724137931
 40
0.896551724137931
 40
0.9310344827586207
 40
0.9310344827586207
 40
0.9310344827586207
 40
0.9310344827586207
 40
1.0
 40
1.0
 40
1.0
 40
1.0
 10
40.3199
 20
4.2778
 30
0.0
 10
42.0337
 20
-3.0781
 30
0.0
 10
47.7204
 20
-8.7649
 30
0.0
 10
55.0764
 20
-10.4787
 30
0.0
 10
55.0764
 20
-10.4787
 30
0.0
 10
53.993
 20
-8.3042
 30
0.0
 10
53.5636
 20
-5.3291
 30
0.0
 10
55.9798
 20
-3.5522
 30
0.0
 10
55.9798
 20
-3.5522
 30
0.0
 10
55.9798
 20
-9.3274
 30
0.0
 10
56.8221
 20
-16.2006
 30
0.0
 10
51.1614
 20
-16.2006
 30
0.0
 10
51.1614
 20
-16.2006
 30
0.0
 10
45.4535
 20
-16.3361
 30
0.0
 10
46.5119
 20
-12.263
 30
0.0
 10
44.536
 20
-12.2855
 30
0.0
 10
44.536
 20
-12.2855
 30
0.0
 10
44.536
 20
-12.2855
 30
0.0
 10
43.3314
 20
-12.2855
 30
0.0
 10
43.3314
 20
-12.2855
 30
0.0
 10
43.3314
 20
-12.2855
 30
0.0
 10
43.3314
 20
-12.2855
 30
0.0
 10
43.3314
 20
-18.6098
 30
0.0
 10
43.3314
 20
-18.6098
 30
0.0
 10
43.3314
 20
-18.6098
 30
0.0
 10
39.1105
 20
-17.4827
 30
0.0
 10
38.8142
 20
-12.3054
 30
0.0
 10
38.8142
 20
-6.8648
 30
0.0
 10
38.8142
 20
-6.8648
 30
0.0
 10
38.8142
 20
-6.8648
 30
0.0
 10
36.4476
 20
-5.6602
 30
0.0
 10
36.4476
 20
-5.6602
 30
0.0
 10
36.4476
 20
-5.6602
 30
0.0
 10
36.4476
 20
-5.6602
 30
0.0
 10
33.9957
 20
-6.8648
 30
0.0
 10
33.9957
 20
-6.8648
 30
0.0
 10
33.9957
 20
-6.8648
 30
0.0
 10
33.9957
 20
-12.2785
 30
0.0
 10
33.6635
 20
-17.4922
 30
0.0
 10
29.4784
 20
-18.6098
 30
0.0
 10
29.4784
 20
-18.6098
 30
0.0
 10
29.4784
 20
-18.6098
 30
0.0
 10
29.4784
 20
-12.2855
 30
0.0
 10
29.4784
 20
-12.2855
 30
0.0
 10
29.4784
 20
-12.2855
 30
0.0
 10
29.4784
 20
-12.2855
 30
0.0
 10
28.2738
 20
-12.2855
 30
0.0
 10
28.2738
 20
-12.2855
 30
0.0
 10
28.2738
 20
-12.2855
 30
0.0
 10
26.9543
 20
-12.2855
 30
0.0
 10
26.6511
 20
-16.2006
 30
0.0
 10
22.552
 20
-16.2006
 30
0.0
 10
22.552
 20
-16.2006
 30
0.0
 10
22.552
 20
-16.2006
 30
0.0
 10
21.6485
 20
-16.2006
 30
0.0
 10
21.6485
 20
-16.2006
 30
0.0
 10
21.6485
 20
-16.2006
 30
0.0
 10
15.9643
 20
-16.2006
 30
0.0
 10
16.8301
 20
-9.3493
 30
0.0
 10
16.8301
 20
-3.5522
 30
0.0
 10
16.8301
 20
-3.5522
 30
0.0
 10
17.6078
 20
-4.0729
 30
0.0
 10
18.637
 20
-5.6
 30
0.0
 10
18.637
 20
-6.8648
 30
0.0
 10
18.637
 20
-6.8648
 30
0.0
 10
18.637
 20
-6.8648
 30
0.0
 10
18.637
 20
-7.7683
 30
0.0
 10
18.637
 20
-7.7683
 30
0.0
 10
18.637
 20
-7.7683
 30
0.0
 10
18.637
 20
-9.0403
 30
0.0
 10
17.7427
 20
-9.7493
 30
0.0
 10
17.4324
 20
-11.0809
 30
0.0
 10
17.4324
 20
-11.0809
 30
0.0
 10
17.4324
 20
-11.0809
 30
0.0
 10
32.7911
 20
-11.0809
 30
0.0
 10
32.7911
 20
-11.0809
 30
0.0
 10
32.7911
 20
-11.0809
 30
0.0
 10
32.7911
 20
-11.0809
 30
0.0
 10
32.7911
 20
4.5789
 30
0.0
 10
32.7911
 20
4.5789
 30
0.0
 10
32.7911
 20
4.5789
 30
0.0
 10
32.0758
 20
4.2004
 30
0.0
 10
30.7399
 20
3.3743
 30
0.0
 10
29.7796
 20
3.3743
 30
0.0
 10
29.7796
 20
3.3743
 30
0.0
 10
29.7796
 20
3.3743
 30
0.0
 10
29.1774
 20
3.3743
 30
0.0
 10
29.1774
 20
3.3743
 30
0.0
 10
29.1774
 20
3.3743
 30
0.0
 10
26.9986
 20
3.3743
 30
0.0
 10
25.0727
 20
4.9158
 30
0.0
 10
24.66
 20
6.687
 30
0.0
 10
24.66
 20
6.687
 30
0.0
 10
24.66
 20
6.687
 30
0.0
 10
33.0923
 20
6.687
 30
0.0
 10
33.0923
 20
6.687
 30
0.0
 10
33.0923
 20
6.687
 30
0.0
 10
35.9559
 20
6.719
 30
0.0
 10
36.294
 20
4.3774
 30
0.0
 10
36.4352
 20
3.3743
 30
0.0
 10
36.4352
 20
3.3743
 30
0.0
 10
36.602
 20
4.3774
 30
0.0
 10
37.0463
 20
6.5506
 30
0.0
 10
39.7176
 20
6.687
 30
0.0
 10
39.7176
 20
6.687
 30
0.0
 10
39.7176
 20
6.687
 30
0.0
 10
48.1499
 20
6.687
 30
0.0
 10
48.1499
 20
6.687
 30
0.0
 10
48.1499
 20
6.687
 30
0.0
 10
47.1407
 20
2.355
 30
0.0
 10
42.176
 20
2.6964
 30
0.0
 10
40.3199
 20
4.2778
 30
0.0
  0
SPLINE
  5
7F
330
1F
100
AcDbEntity
  8
layer 1
 62
     7
370
    13
100
AcDbSpline
210
0.0
220
0.0
230
1.0
 70
    11
 71
     3
 72
   116
 73
   112
 74
     0
 42
0.0000000001
 43
0.0000000001
 12
1.0
 22
0.0
 32
0.0
 13
1.0
 23
0.0
 33
0.0
 40
0.0
 40
0.0
 40
0.0
 40
0.0
 40
0.0344827586206897
 40
0.0344827586206897
 40
0.0344827586206897
 40
0.0344827586206897
 40
0.0689655172413793
 40
0.0689655172413793
 40
0.0689655172413793
 40
0.0689655172413793
 40
0.103448275862069
 40
0.103448275862069
 40
0.103448275862069
 40
0.103448275862069
 40
0.1379310344827586
 40
0.1379310344827586
 40
0.1379310344827586
 40
0.1379310344827586
 40
0.1724137931034483
 40
0.1724137931034483
 40
0.1724137931034483
 40
0.1724137931034483
 40
0.2068965517241379
 40
0.2068965517241379
 40
0.2068965517241379
 40
0.2068965517241379
 40
0.2413793103448276
 40
0.2413793103448276
 40
0.2413793103448276
 40
0.2413793103448276
 40
0.2758620689655172
 40
0.2758620689655172
 40
0.2758620689655172
 40
0.2758620689655172
 40
0.3103448275862069
 40
0.3103448275862069
 40
0.3103448275862069
 40
0.3103448275862069
 40
0.3448275862068966
 40
0.3448275862068966
 40
0.3448275862068966
 40
0.3448275862068966
 40
0.3793103448275862
 40
0.3793103448275862
 40
0.3793103448275862
 40
0.3793103448275862
 40
0.4137931034482759
 40
0.4137931034482759
 40
0.4137931034482759
 40
0.4137931034482759
 40
0.4482758620689655
 40
0.4482758620689655
 40
0.4482758620689655
 40
0.4482758620689655
 40
0.4827586206896552
 40
0.4827586206896552
 40
0.4827586206896552
 40
0.4827586206896552
 40
0.5172413793103449
 40
0.5172413793103449
 40
0.5172413793103449
 40
0.5172413793103449
 40
0.5517241379310345
 40
0.5517241379310345
 40
0.5517241379310345
 40
0.5517241379310345
 40
0.5862068965517241
 40
0.5862068965517241
 40
0.5862068965517241
 40
0.5862068965517241
 40
0.6206896551724138
 40
0.6206896551724138
 40
0.6206896551724138
 40
0.6206896551724138
 40
0.6551724137931034
 40
0.6551724137931034
 40
0.6551724137931034
 40
0.6551724137931034
 40
0.6896551724137931
 40
0.6896551724137931
 40
0.6896551724137931
 40
0.6896551724137931
 40
0.7241379310344828
 40
0.7241379310344828
 40
0.7241379310344828
 40
0.7241379310344828
 40
0.7586206896551724
 40
0.7586206896551724
 40
0.7586206896551724
 40
0.7586206896551724
 40
0.7931034482758621
 40
0.7931034482758621
 40
0.7931034482758621
 40
0.7931034482758621
 40
0.8275862068965517
 40
0.8275862068965517
 40
0.8275862068965517
 40
0.8275862068965517
 40
0.8620689655172413
 40
0.8620689655172413
 40
0.8620689655172413
 40
0.8620689655172413
 40
0.896551724137931
 40
0.896551724137931
 40
0.896551724137931
 40
0.896551724137931
 40
0.9310344827586207
 40
0.9310344827586207
 40
0.9310344827586207
 40
0.9310344827586207
 40
1.0
 40
1.0
 40
1.0
 40
1.0
 10
43.3314
 20
-30.3547
 30
0.0
 10
43.3314
 20
-30.3547
 30
0.0
 10
45.4395
 20
-30.3547
 30
0.0
 10
45.4395
 20
-30.3547
 30
0.0
 10
45.4395
 20
-30.3547
 30
0.0
 10
45.8878
 20
-28.4303
 30
0.0
 10
47.5618
 20
-26.7409
 30
0.0
 10
49.9568
 20
-26.7409
 30
0.0
 10
49.9568
 20
-26.7409
 30
0.0
 10
49.9568
 20
-26.7409
 30
0.0
 10
51.4625
 20
-26.7409
 30
0.0
 10
51.4625
 20
-26.7409
 30
0.0
 10
51.4625
 20
-26.7409
 30
0.0
 10
56.9685
 20
-26.7409
 30
0.0
 10
55.9798
 20
-33.8792
 30
0.0
 10
55.9798
 20
-39.3892
 30
0.0
 10
55.9798
 20
-39.3892
 30
0.0
 10
55.0926
 20
-38.3685
 30
0.0
 10
54.1729
 20
-37.3962
 30
0.0
 10
54.1729
 20
-35.4742
 30
0.0
 10
54.1729
 20
-35.4742
 30
0.0
 10
54.1729
 20
-33.7207
 30
0.0
 10
55.0675
 20
-33.0214
 30
0.0
 10
55.3775
 20
-31.8604
 30
0.0
 10
55.3775
 20
-31.8604
 30
0.0
 10
55.3775
 20
-31.8604
 30
0.0
 10
40.0188
 20
-31.8604
 30
0.0
 10
40.0188
 20
-31.8604
 30
0.0
 10
40.0188
 20
-31.8604
 30
0.0
 10
40.0188
 20
-31.8604
 30
0.0
 10
40.0188
 20
-47.5203
 30
0.0
 10
40.0188
 20
-47.5203
 30
0.0
 10
40.0188
 20
-47.5203
 30
0.0
 10
42.1553
 20
-45.3689
 30
0.0
 10
47.1382
 20
-45.4322
 30
0.0
 10
48.1499
 20
-49.6284
 30
0.0
 10
48.1499
 20
-49.6284
 30
0.0
 10
48.1499
 20
-49.6284
 30
0.0
 10
40.0188
 20
-49.6284
 30
0.0
 10
40.0188
 20
-49.6284
 30
0.0
 10
40.0188
 20
-49.6284
 30
0.0
 10
37.7287
 20
-49.6284
 30
0.0
 10
36.5668
 20
-47.7406
 30
0.0
 10
36.4453
 20
-46.918
 30
0.0
 10
36.4453
 20
-46.918
 30
0.0
 10
36.2969
 20
-47.7519
 30
0.0
 10
35.1999
 20
-49.6284
 30
0.0
 10
32.7911
 20
-49.6284
 30
0.0
 10
32.7911
 20
-49.6284
 30
0.0
 10
32.7911
 20
-49.6284
 30
0.0
 10
24.66
 20
-49.6284
 30
0.0
 10
24.66
 20
-49.6284
 30
0.0
 10
24.66
 20
-49.6284
 30
0.0
 10
25.4544
 20
-45.5732
 30
0.0
 10
30.5359
 20
-45.7542
 30
0.0
 10
32.49
 20
-47.2192
 30
0.0
 10
32.49
 20
-47.2192
 30
0.0
 10
31.0384
 20
-40.9884
 30
0.0
 10
24.5891
 20
-32.6154
 30
0.0
 10
17.7335
 20
-32.4628
 30
0.0
 10
17.7335
 20
-32.4628
 30
0.0
 10
18.0792
 20
-33.1159
 30
0.0
 10
18.637
 20
-34.1981
 30
0.0
 10
18.637
 20
-35.1731
 30
0.0
 10
18.637
 20
-35.1731
 30
0.0
 10
18.637
 20
-36.9685
 30
0.0
 10
17.8606
 20
-38.6342
 30
0.0
 10
16.8301
 20
-39.3892
 30
0.0
 10
16.8301
 20
-39.3892
 30
0.0
 10
16.8301
 20
-33.899
 30
0.0
 10
15.877
 20
-26.7409
 30
0.0
 10
21.3473
 20
-26.7409
 30
0.0
 10
21.3473
 20
-26.7409
 30
0.0
 10
21.3473
 20
-26.7409
 30
0.0
 10
22.8531
 20
-26.7409
 30
0.0
 10
22.8531
 20
-26.7409
 30
0.0
 10
22.8531
 20
-26.7409
 30
0.0
 10
25.2853
 20
-26.7409
 30
0.0
 10
26.9053
 20
-28.3579
 30
0.0
 10
27.3704
 20
-30.3547
 30
0.0
 10
27.3704
 20
-30.3547
 30
0.0
 10
27.3704
 20
-30.3547
 30
0.0
 10
29.4784
 20
-30.3547
 30
0.0
 10
29.4784
 20
-30.3547
 30
0.0
 10
29.4784
 20
-30.3547
 30
0.0
 10
29.4784
 20
-30.3547
 30
0.0
 10
29.4784
 20
-24.0305
 30
0.0
 10
29.4784
 20
-24.0305
 30
0.0
 10
29.4784
 20
-24.0305
 30
0.0
 10
33.9596
 20
-27.0312
 30
0.0
 10
33.9957
 20
-28.9695
 30
0.0
 10
34.0007
 20
-36.0668
 30
0.0
 10
34.0007
 20
-36.0668
 30
0.0
 10
34.0007
 20
-36.0668
 30
0.0
 10
36.4214
 20
-37.3104
 30
0.0
 10
36.4214
 20
-37.3104
 30
0.0
 10
36.4214
 20
-37.3104
 30
0.0
 10
36.4214
 20
-37.3104
 30
0.0
 10
38.8142
 20
-36.0766
 30
0.0
 10
38.8142
 20
-36.0766
 30
0.0
 10
38.8142
 20
-36.0766
 30
0.0
 10
38.8142
 20
-36.0766
 30
0.0
 10
38.8142
 20
-30.957
 30
0.0
 10
38.8142
 20
-30.957
 30
0.0
 10
38.8142
 20
-30.957
 30
0.0
 10
38.8142
 20
-27.6031
 30
0.0
 10
41.2909
 20
-25.3969
 30
0.0
 10
43.3314
 20
-24.0305
 30
0.0
 10
43.3314
 20
-24.0305
 30
0.0
 10
43.3314
 20
-24.0305
 30
0.0
 10
43.3314
 20
-30.3547
 30
0.0
 10
43.3314
 20
-30.3547
 30
0.0
  0
SPLINE
  5
80
330
1F
100
AcDbEntity
  8
layer 1
 62
     7
370
    13
100
AcDbSpline
210
0.0
220
0.0
230
1.0
 70
    11
 71
     3
 72
    44
 73
    40
 74
     0
 42
0.0000000001
 43
0.0000000001
 12
1.0
 22
0.0
 32
0.0
 13
1.0
 23
0.0
 33
0.0
 40
0.0
 40
0.0
 40
0.0
 40
0.0
 40
0.0909090909090909
 40
0.0909090909090909
 40
0.0909090909090909
 40
0.0909090909090909
 40
0.1818181818181818
 40
0.1818181818181818
 40
0.1818181818181818
 40
0.1818181818181818
 40
0.2727272727272727
 40
0.2727272727272727
 40
0.2727272727272727
 40
0.2727272727272727
 40
0.3636363636363636
 40
0.3636363636363636
 40
0.3636363636363636
 40
0.3636363636363636
 40
0.4545454545454545
 40
0.4545454545454545
 40
0.4545454545454545
 40
0.4545454545454545
 40
0.5454545454545454
 40
0.5454545454545454
 40
0.5454545454545454
 40
0.5454545454545454
 40
0.6363636363636364
 40
0.6363636363636364
 40
0.6363636363636364
 40
0.6363636363636364
 40
0.7272727272727273
 40
0.7272727272727273
 40
0.7272727272727273
 40
0.7272727272727273
 40
0.8181818181818182
 40
0.8181818181818182
 40
0.8181818181818182
 40
0.8181818181818182
 40
1.0
 40
1.0
 40
1.0
 40
1.0
 10
-32.2056
 20
3.206
 30
0.0
 10
-32.2056
 20
3.206
 30
0.0
 10
-32.2163
 20
1.5674
 30
0.0
 10
-32.2163
 20
1.5674
 30
0.0
 10
-32.2163
 20
1.5674
 30
0.0
 10
-26.2597
 20
1.346
 30
0.0
 10
-25.0697
 20
-1.5876
 30
0.0
 10
-23.3168
 20
-4.6218
 30
0.0
 10
-23.3168
 20
-4.6218
 30
0.0
 10
-21.5938
 20
-3.5103
 30
0.0
 10
-19.9341
 20
-2.2753
 30
0.0
 10
-19.2668
 20
-0.2395
 30
0.0
 10
-19.2668
 20
-0.2395
 30
0.0
 10
-21.3422
 20
1.1483
 30
0.0
 10
-25.3298
 20
3.1403
 30
0.0
 10
-25.2899
 20
8.4939
 30
0.0
 10
-25.2899
 20
8.4939
 30
0.0
 10
-24.9461
 20
14.3992
 30
0.0
 10
-22.0043
 20
15.4294
 30
0.0
 10
-19.2668
 20
17.2586
 30
0.0
 10
-19.2668
 20
17.2586
 30
0.0
 10
-20.0908
 20
19.2216
 30
0.0
 10
-21.3166
 20
20.7463
 30
0.0
 10
-23.3168
 20
21.6409
 30
0.0
 10
-23.3168
 20
21.6409
 30
0.0
 10
-24.2071
 20
18.6067
 30
0.0
 10
-27.1222
 20
15.4934
 30
0.0
 10
-32.2163
 20
15.4517
 30
0.0
 10
-32.2163
 20
15.4517
 30
0.0
 10
-32.2163
 20
15.4517
 30
0.0
 10
-32.2056
 20
13.8257
 30
0.0
 10
-32.2056
 20
13.8257
 30
0.0
 10
-32.2056
 20
13.8257
 30
0.0
 10
-29.2735
 20
13.8257
 30
0.0
 10
-26.8957
 20
11.4479
 30
0.0
 10
-26.8957
 20
8.5158
 30
0.0
 10
-26.8957
 20
8.5158
 30
0.0
 10
-26.8957
 20
5.5838
 30
0.0
 10
-29.2735
 20
3.206
 30
0.0
 10
-32.2056
 20
3.206
 30
0.0
  0
SPLINE
  5
81
330
1F
100
AcDbEntity
  8
layer 1
 62
     7
370
    13
100
AcDbSpline
210
0.0
220
0.0
230
1.0
 70
    11
 71
     3
 72
    52
 73
    48
 74
     0
 42
0.0000000001
 43
0.0000000001
 12
1.0
 22
0.0
 32
0.0
 13
1.0
 23
0.0
 33
0.0
 40
0.0
 40
0.0
 40
0.0
 40
0.0
 40
0.0769230769230769
 40
0.0769230769230769
 40
0.0769230769230769
 40
0.0769230769230769
 40
0.1538461538461539
 40
0.1538461538461539
 40
0.1538461538461539
 40
0.1538461538461539
 40
0.2307692307692308
 40
0.2307692307692308
 40
0.2307692307692308
 40
0.2307692307692308
 40
0.3076923076923077
 40
0.3076923076923077
 40
0.3076923076923077
 40
0.3076923076923077
 40
0.3846153846153846
 40
0.3846153846153846
 40
0.3846153846153846
 40
0.3846153846153846
 40
0.4615384615384616
 40
0.4615384615384616
 40
0.4615384615384616
 40
0.4615384615384616
 40
0.5384615384615384
 40
0.5384615384615384
 40
0.5384615384615384
 40
0.5384615384615384
 40
0.6153846153846154
 40
0.6153846153846154
 40
0.6153846153846154
 40
0.6153846153846154
 40
0.6923076923076923
 40
0.6923076923076923
 40
0.6923076923076923
 40
0.6923076923076923
 40
0.7692307692307693
 40
0.7692307692307693
 40
0.7692307692307693
 40
0.7692307692307693
 40
0.8461538461538461
 40
0.8461538461538461
 40
0.8461538461538461
 40
0.8461538461538461
 40
1.0
 40
1.0
 40
1.0
 40
1.0
 10
8.5967
 20
10.4564
 30
0.0
 10
9.3732
 20
12.4256
 30
0.0
 10
11.2933
 20
13.8194
 30
0.0
 10
13.5381
 20
13.8194
 30
0.0
 10
13.5381
 20
13.8194
 30
0.0
 10
15.8072
 20
13.8194
 30
0.0
 10
17.7444
 20
12.3953
 30
0.0
 10
18.5044
 20
10.3923
 30
0.0
 10
18.5044
 20
10.3923
 30
0.0
 10
18.5044
 20
10.3923
 30
0.0
 10
20.6419
 20
10.3632
 30
0.0
 10
20.6419
 20
10.3632
 30
0.0
 10
20.6419
 20
10.3632
 30
0.0
 10
21.4892
 20
14.2978
 30
0.0
 10
24.9598
 20
17.2586
 30
0.0
 10
29.1774
 20
17.2586
 30
0.0
 10
29.1774
 20
17.2586
 30
0.0
 10
29.1774
 20
17.2586
 30
0.0
 10
29.1774
 20
24.1851
 30
0.0
 10
29.1774
 20
24.1851
 30
0.0
 10
29.1774
 20
24.1851
 30
0.0
 10
29.1774
 20
24.1851
 30
0.0
 10
22.2509
 20
24.1851
 30
0.0
 10
22.2509
 20
24.1851
 30
0.0
 10
22.2509
 20
24.1851
 30
0.0
 10
22.6885
 20
19.1464
 30
0.0
 10
17.7336
 20
15.3248
 30
0.0
 10
13.5077
 20
15.4517
 30
0.0
 10
13.5077
 20
15.4517
 30
0.0
 10
9.2817
 20
15.3248
 30
0.0
 10
4.3876
 20
19.1464
 30
0.0
 10
4.8253
 20
24.1851
 30
0.0
 10
4.8253
 20
24.1851
 30
0.0
 10
4.8253
 20
24.1851
 30
0.0
 10
-2.1012
 20
24.1851
 30
0.0
 10
-2.1012
 20
24.1851
 30
0.0
 10
-2.1012
 20
24.1851
 30
0.0
 10
-2.1012
 20
24.1851
 30
0.0
 10
-2.1012
 20
17.2586
 30
0.0
 10
-2.1012
 20
17.2586
 30
0.0
 10
-2.1012
 20
17.2586
 30
0.0
 10
2.1924
 20
17.2586
 30
0.0
 10
5.7089
 20
14.4106
 30
0.0
 10
6.4741
 20
10.4215
 30
0.0
 10
6.4741
 20
10.4215
 30
0.0
 10
6.4741
 20
10.4215
 30
0.0
 10
8.5967
 20
10.4564
 30
0.0
 10
8.5967
 20
10.4564
 30
0.0
  0
SPLINE
  5
82
330
1F
100
AcDbEntity
  8
layer 1
 62
     7
370
    13
100
AcDbSpline
210
0.0
220
0.0
230
1.0
 70
    11
 71
     3
 72
    52
 73
    48
 74
     0
 42
0.0000000001
 43
0.0000000001
 12
1.0
 22
0.0
 32
0.0
 13
1.0
 23
0.0
 33
0.0
 40
0.0
 40
0.0
 40
0.0
 40
0.0
 40
0.0769230769230769
 40
0.0769230769230769
 40
0.0769230769230769
 40
0.0769230769230769
 40
0.1538461538461539
 40
0.1538461538461539
 40
0.1538461538461539
 40
0.1538461538461539
 40
0.2307692307692308
 40
0.2307692307692308
 40
0.2307692307692308
 40
0.2307692307692308
 40
0.3076923076923077
 40
0.3076923076923077
 40
0.3076923076923077
 40
0.3076923076923077
 40
0.3846153846153846
 40
0.3846153846153846
 40
0.3846153846153846
 40
0.3846153846153846
 40
0.4615384615384616
 40
0.4615384615384616
 40
0.4615384615384616
 40
0.4615384615384616
 40
0.5384615384615384
 40
0.5384615384615384
 40
0.5384615384615384
 40
0.5384615384615384
 40
0.6153846153846154
 40
0.6153846153846154
 40
0.6153846153846154
 40
0.6153846153846154
 40
0.6923076923076923
 40
0.6923076923076923
 40
0.6923076923076923
 40
0.6923076923076923
 40
0.7692307692307693
 40
0.7692307692307693
 40
0.7692307692307693
 40
0.7692307692307693
 40
0.8461538461538461
 40
0.8461538461538461
 40
0.8461538461538461
 40
0.8461538461538461
 40
1.0
 40
1.0
 40
1.0
 40
1.0
 10
8.5285
 20
6.7453
 30
0.0
 10
8.5285
 20
6.7453
 30
0.0
 10
6.3826
 20
6.6808
 30
0.0
 10
6.3826
 20
6.6808
 30
0.0
 10
6.3826
 20
6.6808
 30
0.0
 10
5.459
 20
2.7979
 30
0.0
 10
2.0404
 20
-0.2395
 30
0.0
 10
-2.1012
 20
-0.2395
 30
0.0
 10
-2.1012
 20
-0.2395
 30
0.0
 10
-2.1012
 20
-0.2395
 30
0.0
 10
-2.1012
 20
-7.166
 30
0.0
 10
-2.1012
 20
-7.166
 30
0.0
 10
-2.1012
 20
-7.166
 30
0.0
 10
-2.1012
 20
-7.166
 30
0.0
 10
4.8253
 20
-7.166
 30
0.0
 10
4.8253
 20
-7.166
 30
0.0
 10
4.8253
 20
-7.166
 30
0.0
 10
4.3876
 20
-2.1273
 30
0.0
 10
9.2817
 20
1.6943
 30
0.0
 10
13.5077
 20
1.5674
 30
0.0
 10
13.5077
 20
1.5674
 30
0.0
 10
17.7336
 20
1.6943
 30
0.0
 10
22.6885
 20
-2.1273
 30
0.0
 10
22.2509
 20
-7.166
 30
0.0
 10
22.2509
 20
-7.166
 30
0.0
 10
22.2509
 20
-7.166
 30
0.0
 10
29.1774
 20
-7.166
 30
0.0
 10
29.1774
 20
-7.166
 30
0.0
 10
29.1774
 20
-7.166
 30
0.0
 10
29.1774
 20
-7.166
 30
0.0
 10
29.1774
 20
-0.2395
 30
0.0
 10
29.1774
 20
-0.2395
 30
0.0
 10
29.1774
 20
-0.2395
 30
0.0
 10
24.9218
 20
-0.2395
 30
0.0
 10
21.4269
 20
2.7508
 30
0.0
 10
20.6197
 20
6.7326
 30
0.0
 10
20.6197
 20
6.7326
 30
0.0
 10
20.6197
 20
6.7326
 30
0.0
 10
18.5257
 20
6.6841
 30
0.0
 10
18.5257
 20
6.6841
 30
0.0
 10
18.5257
 20
6.6841
 30
0.0
 10
17.7812
 20
4.651
 30
0.0
 10
15.8286
 20
3.1998
 30
0.0
 10
13.5381
 20
3.1998
 30
0.0
 10
13.5381
 20
3.1998
 30
0.0
 10
11.2247
 20
3.1998
 30
0.0
 10
9.256
 20
4.6803
 30
0.0
 10
8.5285
 20
6.7453
 30
0.0
  0
SPLINE
  5
83
330
1F
100
AcDbEntity
  8
layer 1
 62
     7
100
AcDbSpline
210
0.0
220
0.0
230
1.0
 70
    11
 71
     3
 72
    48
 73
    44
 74
     0
 42
0.0000000001
 43
0.0000000001
 12
1.0
 22
0.0
 32
0.0
 13
1.0
 23
0.0
 33
0.0
 40
0.0
 40
0.0
 40
0.0
 40
0.0
 40
0.0833333333333333
 40
0.0833333333333333
 40
0.0833333333333333
 40
0.0833333333333333
 40
0.1666666666666667
 40
0.1666666666666667
 40
0.1666666666666667
 40
0.1666666666666667
 40
0.25
 40
0.25
 40
0.25
 40
0.25
 40
0.3333333333333333
 40
0.3333333333333333
 40
0.3333333333333333
 40
0.3333333333333333
 40
0.4166666666666667
 40
0.4166666666666667
 40
0.4166666666666667
 40
0.4166666666666667
 40
0.5
 40
0.5
 40
0.5
 40
0.5
 40
0.5833333333333334
 40
0.5833333333333334
 40
0.5833333333333334
 40
0.5833333333333334
 40
0.6666666666666666
 40
0.6666666666666666
 40
0.6666666666666666
 40
0.6666666666666666
 40
0.75
 40
0.75
 40
0.75
 40
0.75
 40
0.8333333333333334
 40
0.8333333333333334
 40
0.8333333333333334
 40
0.8333333333333334
 40
1.0
 40
1.0
 40
1.0
 40
1.0
 10
6.4705
 20
-52.8964
 30
0.0
 10
6.4705
 20
-52.8964
 30
0.0
 10
8.5073
 20
-52.9482
 30
0.0
 10
8.5073
 20
-52.9482
 30
0.0
 10
8.5073
 20
-52.9482
 30
0.0
 10
9.2171
 20
-55.0452
 30
0.0
 10
11.2018
 20
-56.5551
 30
0.0
 10
13.5381
 20
-56.5551
 30
0.0
 10
13.5381
 20
-56.5551
 30
0.0
 10
15.8744
 20
-56.5551
 30
0.0
 10
17.8592
 20
-55.0452
 30
0.0
 10
18.5689
 20
-52.9482
 30
0.0
 10
18.5689
 20
-52.9482
 30
0.0
 10
18.5689
 20
-52.9482
 30
0.0
 10
20.6056
 20
-52.8964
 30
0.0
 10
20.6056
 20
-52.8964
 30
0.0
 10
20.6056
 20
-52.8964
 30
0.0
 10
21.2484
 20
-56.165
 30
0.0
 10
23.7267
 20
-58.8493
 30
0.0
 10
26.467
 20
-59.4876
 30
0.0
 10
26.467
 20
-59.4876
 30
0.0
 10
25.4314
 20
-61.9896
 30
0.0
 10
23.4059
 20
-63.6936
 30
0.0
 10
21.9497
 20
-64.3061
 30
0.0
 10
21.9497
 20
-64.3061
 30
0.0
 10
20.601
 20
-61.4953
 30
0.0
 10
18.3973
 20
-57.9557
 30
0.0
 10
13.5587
 20
-57.9819
 30
0.0
 10
13.5587
 20
-57.9819
 30
0.0
 10
8.7202
 20
-57.9557
 30
0.0
 10
6.4752
 20
-61.4953
 30
0.0
 10
5.1265
 20
-64.3061
 30
0.0
 10
5.1265
 20
-64.3061
 30
0.0
 10
3.6703
 20
-63.6936
 30
0.0
 10
1.6447
 20
-61.9896
 30
0.0
 10
0.6092
 20
-59.4876
 30
0.0
 10
0.6092
 20
-59.4876
 30
0.0
 10
3.3495
 20
-58.8493
 30
0.0
 10
5.8278
 20
-56.165
 30
0.0
 10
6.4705
 20
-52.8964
 30
0.0
 10
6.4705
 20
-52.8964
 30
0.0
 10
6.4705
 20
-52.8964
 30
0.0
 10
6.4705
 20
-52.8964
 30
0.0
 10
6.4705
 20
-52.8964
 30
0.0
  0
SPLINE
  5
84
330
1F
100
AcDbEntity
  8
layer 1
 62
     7
100
AcDbSpline
210
0.0
220
0.0
230
1.0
 70
    11
 71
     3
 72
    44
 73
    40
 74
     0
 42
0.0000000001
 43
0.0000000001
 12
1.0
 22
0.0
 32
0.0
 13
1.0
 23
0.0
 33
0.0
 40
0.0
 40
0.0
 40
0.0
 40
0.0
 40
0.0909090909090909
 40
0.0909090909090909
 40
0.0909090909090909
 40
0.0909090909090909
 40
0.1818181818181818
 40
0.1818181818181818
 40
0.1818181818181818
 40
0.1818181818181818
 40
0.2727272727272727
 40
0.2727272727272727
 40
0.2727272727272727
 40
0.2727272727272727
 40
0.3636363636363636
 40
0.3636363636363636
 40
0.3636363636363636
 40
0.3636363636363636
 40
0.4545454545454545
 40
0.4545454545454545
 40
0.4545454545454545
 40
0.4545454545454545
 40
0.5454545454545454
 40
0.5454545454545454
 40
0.5454545454545454
 40
0.5454545454545454
 40
0.6363636363636364
 40
0.6363636363636364
 40
0.6363636363636364
 40
0.6363636363636364
 40
0.7272727272727273
 40
0.7272727272727273
 40
0.7272727272727273
 40
0.7272727272727273
 40
0.8181818181818182
 40
0.8181818181818182
 40
0.8181818181818182
 40
0.8181818181818182
 40
1.0
 40
1.0
 40
1.0
 40
1.0
 10
20.5885
 20
-49.6948
 30
0.0
 10
20.5885
 20
-49.6948
 30
0.0
 10
18.6091
 20
-49.6665
 30
0.0
 10
18.6091
 20
-49.6665
 30
0.0
 10
18.6091
 20
-49.6665
 30
0.0
 10
17.9369
 20
-47.5052
 30
0.0
 10
15.9202
 20
-45.9355
 30
0.0
 10
13.5381
 20
-45.9355
 30
0.0
 10
13.5381
 20
-45.9355
 30
0.0
 10
11.1559
 20
-45.9355
 30
0.0
 10
9.1393
 20
-47.5052
 30
0.0
 10
8.467
 20
-49.6665
 30
0.0
 10
8.467
 20
-49.6665
 30
0.0
 10
8.467
 20
-49.6665
 30
0.0
 10
6.4876
 20
-49.6948
 30
0.0
 10
6.4876
 20
-49.6948
 30
0.0
 10
6.4876
 20
-49.6948
 30
0.0
 10
5.8728
 20
-46.3835
 30
0.0
 10
3.3744
 20
-43.6472
 30
0.0
 10
0.6092
 20
-43.0031
 30
0.0
 10
0.6092
 20
-43.0031
 30
0.0
 10
1.6447
 20
-40.5011
 30
0.0
 10
3.6703
 20
-38.7971
 30
0.0
 10
5.1265
 20
-38.1846
 30
0.0
 10
5.1265
 20
-38.1846
 30
0.0
 10
6.4752
 20
-40.9954
 30
0.0
 10
8.7202
 20
-44.5349
 30
0.0
 10
13.5587
 20
-44.5088
 30
0.0
 10
13.5587
 20
-44.5088
 30
0.0
 10
18.3973
 20
-44.5349
 30
0.0
 10
20.601
 20
-40.9954
 30
0.0
 10
21.9497
 20
-38.1846
 30
0.0
 10
21.9497
 20
-38.1846
 30
0.0
 10
23.4059
 20
-38.7971
 30
0.0
 10
25.4314
 20
-40.5011
 30
0.0
 10
26.467
 20
-43.0031
 30
0.0
 10
26.467
 20
-43.0031
 30
0.0
 10
23.7017
 20
-43.6472
 30
0.0
 10
21.2033
 20
-46.3835
 30
0.0
 10
20.5885
 20
-49.6948
 30
0.0
  0
SPLINE
  5
85
330
1F
100
AcDbEntity
  8
layer 1
 62
   250
370
    13
100
AcDbSpline
210
0.0
220
0.0
230
1.0
 70
    11
 71
     3
 72
    44
 73
    40
 74
     0
 42
0.0000000001
 43
0.0000000001
 12
1.0
 22
0.0
 32
0.0
 13
1.0
 23
0.0
 33
0.0
 40
0.0
 40
0.0
 40
0.0
 40
0.0
 40
0.0909090909090909
 40
0.0909090909090909
 40
0.0909090909090909
 40
0.0909090909090909
 40
0.1818181818181818
 40
0.1818181818181818
 40
0.1818181818181818
 40
0.1818181818181818
 40
0.2727272727272727
 40
0.2727272727272727
 40
0.2727272727272727
 40
0.2727272727272727
 40
0.3636363636363636
 40
0.3636363636363636
 40
0.3636363636363636
 40
0.3636363636363636
 40
0.4545454545454545
 40
0.4545454545454545
 40
0.4545454545454545
 40
0.4545454545454545
 40
0.5454545454545454
 40
0.5454545454545454
 40
0.5454545454545454
 40
0.5454545454545454
 40
0.6363636363636364
 40
0.6363636363636364
 40
0.6363636363636364
 40
0.6363636363636364
 40
0.7272727272727273
 40
0.7272727272727273
 40
0.7272727272727273
 40
0.7272727272727273
 40
0.8181818181818182
 40
0.8181818181818182
 40
0.8181818181818182
 40
0.8181818181818182
 40
1.0
 40
1.0
 40
1.0
 40
1.0
 10
6.4705
 20
-52.8964
 30
0.0
 10
6.4705
 20
-52.8964
 30
0.0
 10
8.5073
 20
-52.9482
 30
0.0
 10
8.5073
 20
-52.9482
 30
0.0
 10
8.5073
 20
-52.9482
 30
0.0
 10
9.2171
 20
-55.0452
 30
0.0
 10
11.2018
 20
-56.5551
 30
0.0
 10
13.5381
 20
-56.5551
 30
0.0
 10
13.5381
 20
-56.5551
 30
0.0
 10
15.8744
 20
-56.5551
 30
0.0
 10
17.8592
 20
-55.0452
 30
0.0
 10
18.5689
 20
-52.9482
 30
0.0
 10
18.5689
 20
-52.9482
 30
0.0
 10
18.5689
 20
-52.9482
 30
0.0
 10
20.6056
 20
-52.8964
 30
0.0
 10
20.6056
 20
-52.8964
 30
0.0
 10
20.6056
 20
-52.8964
 30
0.0
 10
21.2484
 20
-56.165
 30
0.0
 10
23.7267
 20
-58.8493
 30
0.0
 10
26.467
 20
-59.4876
 30
0.0
 10
26.467
 20
-59.4876
 30
0.0
 10
25.4314
 20
-61.9896
 30
0.0
 10
23.4059
 20
-63.6936
 30
0.0
 10
21.9497
 20
-64.3061
 30
0.0
 10
21.9497
 20
-64.3061
 30
0.0
 10
20.601
 20
-61.4953
 30
0.0
 10
18.3973
 20
-57.9557
 30
0.0
 10
13.5587
 20
-57.9819
 30
0.0
 10
13.5587
 20
-57.9819
 30
0.0
 10
8.7202
 20
-57.9557
 30
0.0
 10
6.4752
 20
-61.4953
 30
0.0
 10
5.1265
 20
-64.3061
 30
0.0
 10
5.1265
 20
-64.3061
 30
0.0
 10
3.6703
 20
-63.6936
 30
0.0
 10
1.6447
 20
-61.9896
 30
0.0
 10
0.6092
 20
-59.4876
 30
0.0
 10
0.6092
 20
-59.4876
 30
0.0
 10
3.3495
 20
-58.8493
 30
0.0
 10
5.8278
 20
-56.165
 30
0.0
 10
6.4705
 20
-52.8964
 30
0.0
  0
SPLINE
  5
86
330
1F
100
AcDbEntity
  8
layer 1
 62
   250
370
    13
100
AcDbSpline
210
0.0
220
0.0
230
1.0
 70
    11
 71
     3
 72
    44
 73
    40
 74
     0
 42
0.0000000001
 43
0.0000000001
 12
1.0
 22
0.0
 32
0.0
 13
1.0
 23
0.0
 33
0.0
 40
0.0
 40
0.0
 40
0.0
 40
0.0
 40
0.0909090909090909
 40
0.0909090909090909
 40
0.0909090909090909
 40
0.0909090909090909
 40
0.1818181818181818
 40
0.1818181818181818
 40
0.1818181818181818
 40
0.1818181818181818
 40
0.2727272727272727
 40
0.2727272727272727
 40
0.2727272727272727
 40
0.2727272727272727
 40
0.3636363636363636
 40
0.3636363636363636
 40
0.3636363636363636
 40
0.3636363636363636
 40
0.4545454545454545
 40
0.4545454545454545
 40
0.4545454545454545
 40
0.4545454545454545
 40
0.5454545454545454
 40
0.5454545454545454
 40
0.5454545454545454
 40
0.5454545454545454
 40
0.6363636363636364
 40
0.6363636363636364
 40
0.6363636363636364
 40
0.6363636363636364
 40
0.7272727272727273
 40
0.7272727272727273
 40
0.7272727272727273
 40
0.7272727272727273
 40
0.8181818181818182
 40
0.8181818181818182
 40
0.8181818181818182
 40
0.8181818181818182
 40
1.0
 40
1.0
 40
1.0
 40
1.0
 10
20.5885
 20
-49.6948
 30
0.0
 10
20.5885
 20
-49.6948
 30
0.0
 10
18.6091
 20
-49.6665
 30
0.0
 10
18.6091
 20
-49.6665
 30
0.0
 10
18.6091
 20
-49.6665
 30
0.0
 10
17.9369
 20
-47.5052
 30
0.0
 10
15.9202
 20
-45.9355
 30
0.0
 10
13.5381
 20
-45.9355
 30
0.0
 10
13.5381
 20
-45.9355
 30
0.0
 10
11.1559
 20
-45.9355
 30
0.0
 10
9.1393
 20
-47.5052
 30
0.0
 10
8.467
 20
-49.6665
 30
0.0
 10
8.467
 20
-49.6665
 30
0.0
 10
8.467
 20
-49.6665
 30
0.0
 10
6.4876
 20
-49.6948
 30
0.0
 10
6.4876
 20
-49.6948
 30
0.0
 10
6.4876
 20
-49.6948
 30
0.0
 10
5.8728
 20
-46.3835
 30
0.0
 10
3.3744
 20
-43.6472
 30
0.0
 10
0.6092
 20
-43.0031
 30
0.0
 10
0.6092
 20
-43.0031
 30
0.0
 10
1.6447
 20
-40.5011
 30
0.0
 10
3.6703
 20
-38.7971
 30
0.0
 10
5.1265
 20
-38.1846
 30
0.0
 10
5.1265
 20
-38.1846
 30
0.0
 10
6.4752
 20
-40.9954
 30
0.0
 10
8.7202
 20
-44.5349
 30
0.0
 10
13.5587
 20
-44.5088
 30
0.0
 10
13.5587
 20
-44.5088
 30
0.0
 10
18.3973
 20
-44.5349
 30
0.0
 10
20.601
 20
-40.9954
 30
0.0
 10
21.9497
 20
-38.1846
 30
0.0
 10
21.9497
 20
-38.1846
 30
0.0
 10
23.4059
 20
-38.7971
 30
0.0
 10
25.4314
 20
-40.5011
 30
0.0
 10
26.467
 20
-43.0031
 30
0.0
 10
26.467
 20
-43.0031
 30
0.0
 10
23.7017
 20
-43.6472
 30
0.0
 10
21.2033
 20
-46.3835
 30
0.0
 10
20.5885
 20
-49.6948
 30
0.0
  0
ELLIPSE
  5
87
330
1F
100
AcDbEntity
  8
layer 1
 62
     7
370
     9
100
AcDbEllipse
 10
13.5381
 20
-51.2453
 30
0.0
 11
0.0
 21
1.9207
 31
0.0
210
0.0
220
0.0
230
1.0
 40
1.0
 41
0.0
 42
6.283185307179586
  0
SPLINE
  5
88
330
1F
100
AcDbEntity
  8
layer 1
 62
     7
370
    13
100
AcDbSpline
210
0.0
220
0.0
230
1.0
 70
    11
 71
     3
 72
    52
 73
    48
 74
     0
 42
0.0000000001
 43
0.0000000001
 12
1.0
 22
0.0
 32
0.0
 13
1.0
 23
0.0
 33
0.0
 40
0.0
 40
0.0
 40
0.0
 40
0.0
 40
0.0769230769230769
 40
0.0769230769230769
 40
0.0769230769230769
 40
0.0769230769230769
 40
0.1538461538461539
 40
0.1538461538461539
 40
0.1538461538461539
 40
0.1538461538461539
 40
0.2307692307692308
 40
0.2307692307692308
 40
0.2307692307692308
 40
0.2307692307692308
 40
0.3076923076923077
 40
0.3076923076923077
 40
0.3076923076923077
 40
0.3076923076923077
 40
0.3846153846153846
 40
0.3846153846153846
 40
0.3846153846153846
 40
0.3846153846153846
 40
0.4615384615384616
 40
0.4615384615384616
 40
0.4615384615384616
 40
0.4615384615384616
 40
0.5384615384615384
 40
0.5384615384615384
 40
0.5384615384615384
 40
0.5384615384615384
 40
0.6153846153846154
 40
0.6153846153846154
 40
0.6153846153846154
 40
0.6153846153846154
 40
0.6923076923076923
 40
0.6923076923076923
 40
0.6923076923076923
 40
0.6923076923076923
 40
0.7692307692307693
 40
0.7692307692307693
 40
0.7692307692307693
 40
0.7692307692307693
 40
0.8461538461538461
 40
0.8461538461538461
 40
0.8461538461538461
 40
0.8461538461538461
 40
1.0
 40
1.0
 40
1.0
 40
1.0
 10
59.2992
 20
-56.5639
 30
0.0
 10
56.3671
 20
-56.5639
 30
0.0
 10
53.9894
 20
-54.1861
 30
0.0
 10
53.9894
 20
-51.254
 30
0.0
 10
53.9894
 20
-51.254
 30
0.0
 10
53.9894
 20
-48.3219
 30
0.0
 10
56.3671
 20
-45.9442
 30
0.0
 10
59.2992
 20
-45.9442
 30
0.0
 10
59.2992
 20
-45.9442
 30
0.0
 10
59.2992
 20
-45.9442
 30
0.0
 10
59.2925
 20
-44.5088
 30
0.0
 10
59.2925
 20
-44.5088
 30
0.0
 10
59.2925
 20
-44.5088
 30
0.0
 10
54.5599
 20
-44.5088
 30
0.0
 10
50.5591
 20
-40.4799
 30
0.0
 10
50.5591
 20
-35.4742
 30
0.0
 10
50.5591
 20
-35.4742
 30
0.0
 10
50.5591
 20
-35.4742
 30
0.0
 10
43.6326
 20
-35.4742
 30
0.0
 10
43.6326
 20
-35.4742
 30
0.0
 10
43.6326
 20
-35.4742
 30
0.0
 10
43.6326
 20
-35.4742
 30
0.0
 10
43.6326
 20
-42.4007
 30
0.0
 10
43.6326
 20
-42.4007
 30
0.0
 10
43.6326
 20
-42.4007
 30
0.0
 10
47.3391
 20
-42.7253
 30
0.0
 10
52.5218
 20
-45.2303
 30
0.0
 10
52.366
 20
-51.2463
 30
0.0
 10
52.366
 20
-51.2463
 30
0.0
 10
52.5218
 20
-57.2624
 30
0.0
 10
47.3391
 20
-59.7654
 30
0.0
 10
43.6326
 20
-60.09
 30
0.0
 10
43.6326
 20
-60.09
 30
0.0
 10
43.6326
 20
-60.09
 30
0.0
 10
43.6326
 20
-67.0165
 30
0.0
 10
43.6326
 20
-67.0165
 30
0.0
 10
43.6326
 20
-67.0165
 30
0.0
 10
43.6326
 20
-67.0165
 30
0.0
 10
50.5591
 20
-67.0165
 30
0.0
 10
50.5591
 20
-67.0165
 30
0.0
 10
50.5591
 20
-67.0165
 30
0.0
 10
50.5591
 20
-62.0108
 30
0.0
 10
54.5599
 20
-57.9819
 30
0.0
 10
59.2925
 20
-57.9819
 30
0.0
 10
59.2925
 20
-57.9819
 30
0.0
 10
59.2925
 20
-57.9819
 30
0.0
 10
59.2992
 20
-56.5639
 30
0.0
 10
59.2992
 20
-56.5639
 30
0.0
  0
SPLINE
  5
89
330
1F
100
AcDbEntity
  8
layer 1
 62
     7
370
    13
100
AcDbSpline
210
0.0
220
0.0
230
1.0
 70
    11
 71
     3
 72
    16
 73
    12
 74
     0
 42
0.0000000001
 43
0.0000000001
 12
1.0
 22
0.0
 32
0.0
 13
1.0
 23
0.0
 33
0.0
 40
0.0
 40
0.0
 40
0.0
 40
0.0
 40
0.25
 40
0.25
 40
0.25
 40
0.25
 40
0.5
 40
0.5
 40
0.5
 40
0.5
 40
1.0
 40
1.0
 40
1.0
 40
1.0
 10
-30.234
 20
-51.2527
 30
0.0
 10
-30.234
 20
-52.3134
 30
0.0
 10
-31.0941
 20
-53.1735
 30
0.0
 10
-32.1547
 20
-53.1735
 30
0.0
 10
-32.1547
 20
-53.1735
 30
0.0
 10
-32.1547
 20
-53.1735
 30
0.0
 10
-32.1547
 20
-49.332
 30
0.0
 10
-32.1547
 20
-49.332
 30
0.0
 10
-32.1547
 20
-49.332
 30
0.0
 10
-31.0941
 20
-49.332
 30
0.0
 10
-30.234
 20
-50.1921
 30
0.0
 10
-30.234
 20
-51.2527
 30
0.0
  0
SPLINE
  5
8A
330
1F
100
AcDbEntity
  8
layer 1
 62
     7
370
    13
100
AcDbSpline
210
0.0
220
0.0
230
1.0
 70
    11
 71
     3
 72
    16
 73
    12
 74
     0
 42
0.0000000001
 43
0.0000000001
 12
1.0
 22
0.0
 32
0.0
 13
1.0
 23
0.0
 33
0.0
 40
0.0
 40
0.0
 40
0.0
 40
0.0
 40
0.25
 40
0.25
 40
0.25
 40
0.25
 40
0.5
 40
0.5
 40
0.5
 40
0.5
 40
1.0
 40
1.0
 40
1.0
 40
1.0
 10
57.3652
 20
-51.2527
 30
0.0
 10
57.3652
 20
-52.3134
 30
0.0
 10
58.2253
 20
-53.1735
 30
0.0
 10
59.2859
 20
-53.1735
 30
0.0
 10
59.2859
 20
-53.1735
 30
0.0
 10
59.2859
 20
-53.1735
 30
0.0
 10
59.2859
 20
-49.332
 30
0.0
 10
59.2859
 20
-49.332
 30
0.0
 10
59.2859
 20
-49.332
 30
0.0
 10
58.2253
 20
-49.332
 30
0.0
 10
57.3652
 20
-50.1921
 30
0.0
 10
57.3652
 20
-51.2527
 30
0.0
  0
SPLINE
  5
8B
330
1F
100
AcDbEntity
  8
layer 1
 62
     7
370
    13
100
AcDbSpline
210
0.0
220
0.0
230
1.0
 70
    11
 71
     3
 72
    20
 73
    16
 74
     0
 42
0.0000000001
 43
0.0000000001
 12
1.0
 22
0.0
 32
0.0
 13
1.0
 23
0.0
 33
0.0
 40
0.0
 40
0.0
 40
0.0
 40
0.0
 40
0.2
 40
0.2
 40
0.2
 40
0.2
 40
0.4
 40
0.4
 40
0.4
 40
0.4
 40
0.6
 40
0.6
 40
0.6
 40
0.6
 40
1.0
 40
1.0
 40
1.0
 40
1.0
 10
32.8484
 20
-81.0401
 30
0.0
 10
34.358
 20
-80.1743
 30
0.0
 10
35.7018
 20
-78.696
 30
0.0
 10
36.4409
 20
-76.9103
 30
0.0
 10
36.4409
 20
-76.9103
 30
0.0
 10
37.1659
 20
-78.6123
 30
0.0
 10
38.3386
 20
-79.9768
 30
0.0
 10
40.1624
 20
-81.0546
 30
0.0
 10
40.1624
 20
-81.0546
 30
0.0
 10
38.5041
 20
-81.8895
 30
0.0
 10
37.1545
 20
-83.6533
 30
0.0
 10
36.4472
 20
-85.1615
 30
0.0
 10
36.4472
 20
-85.1615
 30
0.0
 10
35.6739
 20
-83.5069
 30
0.0
 10
34.5727
 20
-82.0212
 30
0.0
 10
32.8484
 20
-81.0401
 30
0.0
  0
SPLINE
  5
8C
330
1F
100
AcDbEntity
  8
layer 1
 62
     7
370
    13
100
AcDbSpline
210
0.0
220
0.0
230
1.0
 70
    11
 71
     3
 72
    20
 73
    16
 74
     0
 42
0.0000000001
 43
0.0000000001
 12
1.0
 22
0.0
 32
0.0
 13
1.0
 23
0.0
 33
0.0
 40
0.0
 40
0.0
 40
0.0
 40
0.0
 40
0.2
 40
0.2
 40
0.2
 40
0.2
 40
0.4
 40
0.4
 40
0.4
 40
0.4
 40
0.6
 40
0.6
 40
0.6
 40
0.6
 40
1.0
 40
1.0
 40
1.0
 40
1.0
 10
-12.9914
 20
-21.6303
 30
0.0
 10
-11.4818
 20
-20.7644
 30
0.0
 10
-10.095
 20
-19.3398
 30
0.0
 10
-9.3559
 20
-17.5541
 30
0.0
 10
-9.3559
 20
-17.5541
 30
0.0
 10
-8.6308
 20
-19.2562
 30
0.0
 10
-7.5204
 20
-20.5477
 30
0.0
 10
-5.6966
 20
-21.6256
 30
0.0
 10
-5.6966
 20
-21.6256
 30
0.0
 10
-7.355
 20
-22.4604
 30
0.0
 10
-8.6853
 20
-24.2215
 30
0.0
 10
-9.3926
 20
-25.7298
 30
0.0
 10
-9.3926
 20
-25.7298
 30
0.0
 10
-10.166
 20
-24.0752
 30
0.0
 10
-11.2671
 20
-22.6114
 30
0.0
 10
-12.9914
 20
-21.6303
 30
0.0
  0
SPLINE
  5
8D
330
1F
100
AcDbEntity
  8
layer 1
 62
     7
370
    13
100
AcDbSpline
210
0.0
220
0.0
230
1.0
 70
    11
 71
     3
 72
    16
 73
    12
 74
     0
 42
0.0000000001
 43
0.0000000001
 12
1.0
 22
0.0
 32
0.0
 13
1.0
 23
0.0
 33
0.0
 40
0.0
 40
0.0
 40
0.0
 40
0.0
 40
0.25
 40
0.25
 40
0.25
 40
0.25
 40
0.5
 40
0.5
 40
0.5
 40
0.5
 40
1.0
 40
1.0
 40
1.0
 40
1.0
 10
59.1491
 20
-109.0548
 30
0.0
 10
58.0885
 20
-109.0548
 30
0.0
 10
57.2284
 20
-109.915
 30
0.0
 10
57.2284
 20
-110.9755
 30
0.0
 10
57.2284
 20
-110.9755
 30
0.0
 10
57.2284
 20
-110.9755
 30
0.0
 10
59.1476
 20
-110.9755
 30
0.0
 10
59.1476
 20
-110.9755
 30
0.0
 10
59.1476
 20
-110.9755
 30
0.0
 10
59.1476
 20
-110.9755
 30
0.0
 10
59.1491
 20
-109.0548
 30
0.0
 10
59.1491
 20
-109.0548
 30
0.0
  0
SPLINE
  5
8E
330
1F
100
AcDbEntity
  8
layer 1
 62
     7
370
    13
100
AcDbSpline
210
0.0
220
0.0
230
1.0
 70
    11
 71
     3
 72
    16
 73
    12
 74
     0
 42
0.0000000001
 43
0.0000000001
 12
1.0
 22
0.0
 32
0.0
 13
1.0
 23
0.0
 33
0.0
 40
0.0
 40
0.0
 40
0.0
 40
0.0
 40
0.25
 40
0.25
 40
0.25
 40
0.25
 40
0.5
 40
0.5
 40
0.5
 40
0.5
 40
1.0
 40
1.0
 40
1.0
 40
1.0
 10
-32.1459
 20
-109.0548
 30
0.0
 10
-31.0852
 20
-109.0548
 30
0.0
 10
-30.2252
 20
-109.915
 30
0.0
 10
-30.2252
 20
-110.9755
 30
0.0
 10
-30.2252
 20
-110.9755
 30
0.0
 10
-30.2252
 20
-110.9755
 30
0.0
 10
-32.1444
 20
-110.9755
 30
0.0
 10
-32.1444
 20
-110.9755
 30
0.0
 10
-32.1444
 20
-110.9755
 30
0.0
 10
-32.1444
 20
-110.9755
 30
0.0
 10
-32.1459
 20
-109.0548
 30
0.0
 10
-32.1459
 20
-109.0548
 30
0.0
  0
SPLINE
  5
8F
330
1F
100
AcDbEntity
  8
layer 1
 62
     7
370
    13
100
AcDbSpline
210
0.0
220
0.0
230
1.0
 70
    11
 71
     3
 72
    20
 73
    16
 74
     0
 42
0.0000000001
 43
0.0000000001
 12
1.0
 22
0.0
 32
0.0
 13
1.0
 23
0.0
 33
0.0
 40
0.0
 40
0.0
 40
0.0
 40
0.0
 40
0.2
 40
0.2
 40
0.2
 40
0.2
 40
0.4
 40
0.4
 40
0.4
 40
0.4
 40
0.6
 40
0.6
 40
0.6
 40
0.6
 40
1.0
 40
1.0
 40
1.0
 40
1.0
 10
32.8172
 20
-21.6303
 30
0.0
 10
34.3268
 20
-20.7644
 30
0.0
 10
35.7136
 20
-19.3398
 30
0.0
 10
36.4527
 20
-17.5541
 30
0.0
 10
36.4527
 20
-17.5541
 30
0.0
 10
37.1778
 20
-19.2562
 30
0.0
 10
38.2882
 20
-20.5477
 30
0.0
 10
40.112
 20
-21.6256
 30
0.0
 10
40.112
 20
-21.6256
 30
0.0
 10
38.4536
 20
-22.4604
 30
0.0
 10
37.1233
 20
-24.2215
 30
0.0
 10
36.416
 20
-25.7298
 30
0.0
 10
36.416
 20
-25.7298
 30
0.0
 10
35.6426
 20
-24.0752
 30
0.0
 10
34.5415
 20
-22.6114
 30
0.0
 10
32.8172
 20
-21.6303
 30
0.0
  0
SPLINE
  5
90
330
1F
100
AcDbEntity
  8
layer 1
 62
     7
370
    13
100
AcDbSpline
210
0.0
220
0.0
230
1.0
 70
    11
 71
     3
 72
    16
 73
    12
 74
     0
 42
0.0000000001
 43
0.0000000001
 12
1.0
 22
0.0
 32
0.0
 13
1.0
 23
0.0
 33
0.0
 40
0.0
 40
0.0
 40
0.0
 40
0.0
 40
0.25
 40
0.25
 40
0.25
 40
0.25
 40
0.5
 40
0.5
 40
0.5
 40
0.5
 40
1.0
 40
1.0
 40
1.0
 40
1.0
 10
-28.5086
 20
-21.6385
 30
0.0
 10
-30.0182
 20
-20.7726
 30
0.0
 10
-31.4536
 20
-19.2835
 30
0.0
 10
-32.1927
 20
-17.4978
 30
0.0
 10
-32.1927
 20
-17.4978
 30
0.0
 10
-32.1927
 20
-17.4978
 30
0.0
 10
-32.1734
 20
-25.749
 30
0.0
 10
-32.1734
 20
-25.749
 30
0.0
 10
-32.1734
 20
-25.749
 30
0.0
 10
-31.4001
 20
-24.0944
 30
0.0
 10
-30.2329
 20
-22.6196
 30
0.0
 10
-28.5086
 20
-21.6385
 30
0.0
  0
SPLINE
  5
91
330
1F
100
AcDbEntity
  8
layer 1
 62
     7
370
    13
100
AcDbSpline
210
0.0
220
0.0
230
1.0
 70
    11
 71
     3
 72
    16
 73
    12
 74
     0
 42
0.0000000001
 43
0.0000000001
 12
1.0
 22
0.0
 32
0.0
 13
1.0
 23
0.0
 33
0.0
 40
0.0
 40
0.0
 40
0.0
 40
0.0
 40
0.25
 40
0.25
 40
0.25
 40
0.25
 40
0.5
 40
0.5
 40
0.5
 40
0.5
 40
1.0
 40
1.0
 40
1.0
 40
1.0
 10
55.6245
 20
-21.6385
 30
0.0
 10
57.1342
 20
-20.7726
 30
0.0
 10
58.5695
 20
-19.2835
 30
0.0
 10
59.3086
 20
-17.4978
 30
0.0
 10
59.3086
 20
-17.4978
 30
0.0
 10
59.3086
 20
-17.4978
 30
0.0
 10
59.2893
 20
-25.749
 30
0.0
 10
59.2893
 20
-25.749
 30
0.0
 10
59.2893
 20
-25.749
 30
0.0
 10
58.516
 20
-24.0944
 30
0.0
 10
57.3489
 20
-22.6196
 30
0.0
 10
55.6245
 20
-21.6385
 30
0.0
  0
SPLINE
  5
92
330
1F
100
AcDbEntity
  8
layer 1
 62
     7
370
    13
100
AcDbSpline
210
0.0
220
0.0
230
1.0
 70
    11
 71
     3
 72
    16
 73
    12
 74
     0
 42
0.0000000001
 43
0.0000000001
 12
1.0
 22
0.0
 32
0.0
 13
1.0
 23
0.0
 33
0.0
 40
0.0
 40
0.0
 40
0.0
 40
0.0
 40
0.25
 40
0.25
 40
0.25
 40
0.25
 40
0.5
 40
0.5
 40
0.5
 40
0.5
 40
1.0
 40
1.0
 40
1.0
 40
1.0
 10
-28.5086
 20
-81.0732
 30
0.0
 10
-30.0182
 20
-80.2073
 30
0.0
 10
-31.4536
 20
-78.7182
 30
0.0
 10
-32.1927
 20
-76.9325
 30
0.0
 10
-32.1927
 20
-76.9325
 30
0.0
 10
-32.1927
 20
-76.9325
 30
0.0
 10
-32.1734
 20
-85.1837
 30
0.0
 10
-32.1734
 20
-85.1837
 30
0.0
 10
-32.1734
 20
-85.1837
 30
0.0
 10
-31.4001
 20
-83.5291
 30
0.0
 10
-30.2329
 20
-82.0543
 30
0.0
 10
-28.5086
 20
-81.0732
 30
0.0
  0
SPLINE
  5
93
330
1F
100
AcDbEntity
  8
layer 1
 62
     7
370
    13
100
AcDbSpline
210
0.0
220
0.0
230
1.0
 70
    11
 71
     3
 72
    16
 73
    12
 74
     0
 42
0.0000000001
 43
0.0000000001
 12
1.0
 22
0.0
 32
0.0
 13
1.0
 23
0.0
 33
0.0
 40
0.0
 40
0.0
 40
0.0
 40
0.0
 40
0.25
 40
0.25
 40
0.25
 40
0.25
 40
0.5
 40
0.5
 40
0.5
 40
0.5
 40
1.0
 40
1.0
 40
1.0
 40
1.0
 10
55.6245
 20
-81.0732
 30
0.0
 10
57.1342
 20
-80.2073
 30
0.0
 10
58.5695
 20
-78.7182
 30
0.0
 10
59.3086
 20
-76.9325
 30
0.0
 10
59.3086
 20
-76.9325
 30
0.0
 10
59.3086
 20
-76.9325
 30
0.0
 10
59.2893
 20
-85.1837
 30
0.0
 10
59.2893
 20
-85.1837
 30
0.0
 10
59.2893
 20
-85.1837
 30
0.0
 10
58.516
 20
-83.5291
 30
0.0
 10
57.3489
 20
-82.0543
 30
0.0
 10
55.6245
 20
-81.0732
 30
0.0
  0
ELLIPSE
  5
94
330
1F
100
AcDbEntity
  8
layer 1
 62
     7
370
     9
100
AcDbEllipse
 10
-9.3724
 20
-51.2455
 30
0.0
 11
1.2805
 21
0.0
 31
0.0
210
0.0
220
0.0
230
1.0
 40
0.9999219055056618
 41
0.0
 42
6.283185307179586
  0
ELLIPSE
  5
95
330
1F
100
AcDbEntity
  8
layer 1
 62
     7
370
     9
100
AcDbEllipse
 10
36.4399
 20
-51.2455
 30
0.0
 11
1.2805
 21
0.0
 31
0.0
210
0.0
220
0.0
230
1.0
 40
0.9999219055056618
 41
0.0
 42
6.283185307179586
  0
SPLINE
  5
96
330
1F
100
AcDbEntity
  8
layer 1
 62
     7
370
    13
100
AcDbSpline
210
0.0
220
0.0
230
1.0
 70
    11
 71
     3
 72
    20
 73
    16
 74
     0
 42
0.0000000001
 43
0.0000000001
 12
1.0
 22
0.0
 32
0.0
 13
1.0
 23
0.0
 33
0.0
 40
0.0
 40
0.0
 40
0.0
 40
0.0
 40
0.2
 40
0.2
 40
0.2
 40
0.2
 40
0.4
 40
0.4
 40
0.4
 40
0.4
 40
0.6
 40
0.6
 40
0.6
 40
0.6
 40
1.0
 40
1.0
 40
1.0
 40
1.0
 10
10.6804
 20
-81.0295
 30
0.0
 10
11.8574
 20
-80.3544
 30
0.0
 10
12.9051
 20
-79.2017
 30
0.0
 10
13.4814
 20
-77.8094
 30
0.0
 10
13.4814
 20
-77.8094
 30
0.0
 10
14.0467
 20
-79.1365
 30
0.0
 10
14.9611
 20
-80.2004
 30
0.0
 10
16.3831
 20
-81.0408
 30
0.0
 10
16.3831
 20
-81.0408
 30
0.0
 10
15.0901
 20
-81.6917
 30
0.0
 10
14.0378
 20
-83.0669
 30
0.0
 10
13.4863
 20
-84.2429
 30
0.0
 10
13.4863
 20
-84.2429
 30
0.0
 10
12.8834
 20
-82.9528
 30
0.0
 10
12.0248
 20
-81.7944
 30
0.0
 10
10.6804
 20
-81.0295
 30
0.0
  0
SPLINE
  5
97
330
1F
100
AcDbEntity
  8
layer 1
 62
     7
370
    13
100
AcDbSpline
210
0.0
220
0.0
230
1.0
 70
    11
 71
     3
 72
    20
 73
    16
 74
     0
 42
0.0000000001
 43
0.0000000001
 12
1.0
 22
0.0
 32
0.0
 13
1.0
 23
0.0
 33
0.0
 40
0.0
 40
0.0
 40
0.0
 40
0.0
 40
0.2
 40
0.2
 40
0.2
 40
0.2
 40
0.4
 40
0.4
 40
0.4
 40
0.4
 40
0.6
 40
0.6
 40
0.6
 40
0.6
 40
1.0
 40
1.0
 40
1.0
 40
1.0
 10
10.6804
 20
-21.6398
 30
0.0
 10
11.8574
 20
-20.9646
 30
0.0
 10
12.9051
 20
-19.812
 30
0.0
 10
13.4814
 20
-18.4197
 30
0.0
 10
13.4814
 20
-18.4197
 30
0.0
 10
14.0467
 20
-19.7468
 30
0.0
 10
14.9611
 20
-20.8107
 30
0.0
 10
16.3831
 20
-21.6511
 30
0.0
 10
16.3831
 20
-21.6511
 30
0.0
 10
15.0901
 20
-22.302
 30
0.0
 10
14.0378
 20
-23.6772
 30
0.0
 10
13.4863
 20
-24.8532
 30
0.0
 10
13.4863
 20
-24.8532
 30
0.0
 10
12.8834
 20
-23.5631
 30
0.0
 10
12.0248
 20
-22.4047
 30
0.0
 10
10.6804
 20
-21.6398
 30
0.0
  0
SPLINE
  5
98
330
1F
100
AcDbEntity
  8
layer 1
 62
     7
370
    13
100
AcDbSpline
210
0.0
220
0.0
230
1.0
 70
    11
 71
     3
 72
    24
 73
    20
 74
     0
 42
0.0000000001
 43
0.0000000001
 12
1.0
 22
0.0
 32
0.0
 13
1.0
 23
0.0
 33
0.0
 40
0.0
 40
0.0
 40
0.0
 40
0.0
 40
0.1666666666666667
 40
0.1666666666666667
 40
0.1666666666666667
 40
0.1666666666666667
 40
0.3333333333333333
 40
0.3333333333333333
 40
0.3333333333333333
 40
0.3333333333333333
 40
0.5
 40
0.5
 40
0.5
 40
0.5
 40
0.6666666666666666
 40
0.6666666666666666
 40
0.6666666666666666
 40
0.6666666666666666
 40
1.0
 40
1.0
 40
1.0
 40
1.0
 10
-22.5847
 20
-21.5201
 30
0.0
 10
-22.6003
 20
-22.4788
 30
0.0
 10
-22.0476
 20
-23.3883
 30
0.0
 10
-21.443
 20
-23.8623
 30
0.0
 10
-21.443
 20
-23.8623
 30
0.0
 10
-20.6025
 20
-24.5213
 30
0.0
 10
-18.8467
 20
-24.5712
 30
0.0
 10
-18.4022
 20
-23.4761
 30
0.0
 10
-18.4022
 20
-23.4761
 30
0.0
 10
-21.8326
 20
-23.3576
 30
0.0
 10
-21.6511
 20
-19.6589
 30
0.0
 10
-18.4022
 20
-19.6347
 30
0.0
 10
-18.4022
 20
-19.6347
 30
0.0
 10
-18.7833
 20
-18.6628
 30
0.0
 10
-20.4867
 20
-18.8134
 30
0.0
 10
-21.3438
 20
-19.3788
 30
0.0
 10
-21.3438
 20
-19.3788
 30
0.0
 10
-21.9232
 20
-19.761
 30
0.0
 10
-22.5489
 20
-20.3021
 30
0.0
 10
-22.5847
 20
-21.5201
 30
0.0
  0
SPLINE
  5
99
330
1F
100
AcDbEntity
  8
layer 1
 62
     7
370
    13
100
AcDbSpline
210
0.0
220
0.0
230
1.0
 70
    11
 71
     3
 72
    24
 73
    20
 74
     0
 42
0.0000000001
 43
0.0000000001
 12
1.0
 22
0.0
 32
0.0
 13
1.0
 23
0.0
 33
0.0
 40
0.0
 40
0.0
 40
0.0
 40
0.0
 40
0.1666666666666667
 40
0.1666666666666667
 40
0.1666666666666667
 40
0.1666666666666667
 40
0.3333333333333333
 40
0.3333333333333333
 40
0.3333333333333333
 40
0.3333333333333333
 40
0.5
 40
0.5
 40
0.5
 40
0.5
 40
0.6666666666666666
 40
0.6666666666666666
 40
0.6666666666666666
 40
0.6666666666666666
 40
1.0
 40
1.0
 40
1.0
 40
1.0
 10
3.8502
 20
-21.5201
 30
0.0
 10
3.8657
 20
-22.4788
 30
0.0
 10
3.313
 20
-23.3883
 30
0.0
 10
2.7084
 20
-23.8623
 30
0.0
 10
2.7084
 20
-23.8623
 30
0.0
 10
1.8679
 20
-24.5213
 30
0.0
 10
0.1121
 20
-24.5712
 30
0.0
 10
-0.3324
 20
-23.4761
 30
0.0
 10
-0.3324
 20
-23.4761
 30
0.0
 10
3.098
 20
-23.3576
 30
0.0
 10
2.9165
 20
-19.6589
 30
0.0
 10
-0.3324
 20
-19.6347
 30
0.0
 10
-0.3324
 20
-19.6347
 30
0.0
 10
0.0487
 20
-18.6628
 30
0.0
 10
1.7521
 20
-18.8134
 30
0.0
 10
2.6092
 20
-19.3788
 30
0.0
 10
2.6092
 20
-19.3788
 30
0.0
 10
3.1886
 20
-19.761
 30
0.0
 10
3.8143
 20
-20.3021
 30
0.0
 10
3.8502
 20
-21.5201
 30
0.0
  0
SPLINE
  5
9A
330
1F
100
AcDbEntity
  8
layer 1
 62
     7
370
    13
100
AcDbSpline
210
0.0
220
0.0
230
1.0
 70
    11
 71
     3
 72
    24
 73
    20
 74
     0
 42
0.0000000001
 43
0.0000000001
 12
1.0
 22
0.0
 32
0.0
 13
1.0
 23
0.0
 33
0.0
 40
0.0
 40
0.0
 40
0.0
 40
0.0
 40
0.1666666666666667
 40
0.1666666666666667
 40
0.1666666666666667
 40
0.1666666666666667
 40
0.3333333333333333
 40
0.3333333333333333
 40
0.3333333333333333
 40
0.3333333333333333
 40
0.5
 40
0.5
 40
0.5
 40
0.5
 40
0.6666666666666666
 40
0.6666666666666666
 40
0.6666666666666666
 40
0.6666666666666666
 40
1.0
 40
1.0
 40
1.0
 40
1.0
 10
23.2349
 20
-21.5201
 30
0.0
 10
23.2194
 20
-22.4788
 30
0.0
 10
23.7721
 20
-23.3883
 30
0.0
 10
24.3767
 20
-23.8623
 30
0.0
 10
24.3767
 20
-23.8623
 30
0.0
 10
25.2172
 20
-24.5213
 30
0.0
 10
26.973
 20
-24.5712
 30
0.0
 10
27.4175
 20
-23.4761
 30
0.0
 10
27.4175
 20
-23.4761
 30
0.0
 10
23.9871
 20
-23.3576
 30
0.0
 10
24.1686
 20
-19.6589
 30
0.0
 10
27.4175
 20
-19.6347
 30
0.0
 10
27.4175
 20
-19.6347
 30
0.0
 10
27.0364
 20
-18.6628
 30
0.0
 10
25.333
 20
-18.8134
 30
0.0
 10
24.4759
 20
-19.3788
 30
0.0
 10
24.4759
 20
-19.3788
 30
0.0
 10
23.8965
 20
-19.761
 30
0.0
 10
23.2708
 20
-20.3021
 30
0.0
 10
23.2349
 20
-21.5201
 30
0.0
  0
SPLINE
  5
9B
330
1F
100
AcDbEntity
  8
layer 1
 62
     7
370
    13
100
AcDbSpline
210
0.0
220
0.0
230
1.0
 70
    11
 71
     3
 72
    24
 73
    20
 74
     0
 42
0.0000000001
 43
0.0000000001
 12
1.0
 22
0.0
 32
0.0
 13
1.0
 23
0.0
 33
0.0
 40
0.0
 40
0.0
 40
0.0
 40
0.0
 40
0.1666666666666667
 40
0.1666666666666667
 40
0.1666666666666667
 40
0.1666666666666667
 40
0.3333333333333333
 40
0.3333333333333333
 40
0.3333333333333333
 40
0.3333333333333333
 40
0.5
 40
0.5
 40
0.5
 40
0.5
 40
0.6666666666666666
 40
0.6666666666666666
 40
0.6666666666666666
 40
0.6666666666666666
 40
1.0
 40
1.0
 40
1.0
 40
1.0
 10
49.6699
 20
-21.5201
 30
0.0
 10
49.6854
 20
-22.4788
 30
0.0
 10
49.1327
 20
-23.3883
 30
0.0
 10
48.5281
 20
-23.8623
 30
0.0
 10
48.5281
 20
-23.8623
 30
0.0
 10
47.6876
 20
-24.5213
 30
0.0
 10
45.9318
 20
-24.5712
 30
0.0
 10
45.4873
 20
-23.4761
 30
0.0
 10
45.4873
 20
-23.4761
 30
0.0
 10
48.9177
 20
-23.3576
 30
0.0
 10
48.7362
 20
-19.6589
 30
0.0
 10
45.4873
 20
-19.6347
 30
0.0
 10
45.4873
 20
-19.6347
 30
0.0
 10
45.8684
 20
-18.6628
 30
0.0
 10
47.5718
 20
-18.8134
 30
0.0
 10
48.4289
 20
-19.3788
 30
0.0
 10
48.4289
 20
-19.3788
 30
0.0
 10
49.0083
 20
-19.761
 30
0.0
 10
49.634
 20
-20.3021
 30
0.0
 10
49.6699
 20
-21.5201
 30
0.0
  0
SPLINE
  5
9C
330
1F
100
AcDbEntity
  8
layer 1
 62
     7
370
    13
100
AcDbSpline
210
0.0
220
0.0
230
1.0
 70
    11
 71
     3
 72
    24
 73
    20
 74
     0
 42
0.0000000001
 43
0.0000000001
 12
1.0
 22
0.0
 32
0.0
 13
1.0
 23
0.0
 33
0.0
 40
0.0
 40
0.0
 40
0.0
 40
0.0
 40
0.1666666666666667
 40
0.1666666666666667
 40
0.1666666666666667
 40
0.1666666666666667
 40
0.3333333333333333
 40
0.3333333333333333
 40
0.3333333333333333
 40
0.3333333333333333
 40
0.5
 40
0.5
 40
0.5
 40
0.5
 40
0.6666666666666666
 40
0.6666666666666666
 40
0.6666666666666666
 40
0.6666666666666666
 40
1.0
 40
1.0
 40
1.0
 40
1.0
 10
-22.5933
 20
-80.9294
 30
0.0
 10
-22.6088
 20
-81.8881
 30
0.0
 10
-22.0562
 20
-82.7976
 30
0.0
 10
-21.4515
 20
-83.2717
 30
0.0
 10
-21.4515
 20
-83.2717
 30
0.0
 10
-20.611
 20
-83.9306
 30
0.0
 10
-18.8552
 20
-83.9805
 30
0.0
 10
-18.4107
 20
-82.8855
 30
0.0
 10
-18.4107
 20
-82.8855
 30
0.0
 10
-21.8411
 20
-82.767
 30
0.0
 10
-21.6596
 20
-79.0683
 30
0.0
 10
-18.4107
 20
-79.044
 30
0.0
 10
-18.4107
 20
-79.044
 30
0.0
 10
-18.7919
 20
-78.0721
 30
0.0
 10
-20.4952
 20
-78.2228
 30
0.0
 10
-21.3523
 20
-78.7882
 30
0.0
 10
-21.3523
 20
-78.7882
 30
0.0
 10
-21.9317
 20
-79.1704
 30
0.0
 10
-22.5574
 20
-79.7114
 30
0.0
 10
-22.5933
 20
-80.9294
 30
0.0
  0
SPLINE
  5
9D
330
1F
100
AcDbEntity
  8
layer 1
 62
     7
370
    13
100
AcDbSpline
210
0.0
220
0.0
230
1.0
 70
    11
 71
     3
 72
    24
 73
    20
 74
     0
 42
0.0000000001
 43
0.0000000001
 12
1.0
 22
0.0
 32
0.0
 13
1.0
 23
0.0
 33
0.0
 40
0.0
 40
0.0
 40
0.0
 40
0.0
 40
0.1666666666666667
 40
0.1666666666666667
 40
0.1666666666666667
 40
0.1666666666666667
 40
0.3333333333333333
 40
0.3333333333333333
 40
0.3333333333333333
 40
0.3333333333333333
 40
0.5
 40
0.5
 40
0.5
 40
0.5
 40
0.6666666666666666
 40
0.6666666666666666
 40
0.6666666666666666
 40
0.6666666666666666
 40
1.0
 40
1.0
 40
1.0
 40
1.0
 10
3.8416
 20
-80.9294
 30
0.0
 10
3.8572
 20
-81.8881
 30
0.0
 10
3.3045
 20
-82.7976
 30
0.0
 10
2.6999
 20
-83.2717
 30
0.0
 10
2.6999
 20
-83.2717
 30
0.0
 10
1.8593
 20
-83.9306
 30
0.0
 10
0.1035
 20
-83.9805
 30
0.0
 10
-0.341
 20
-82.8855
 30
0.0
 10
-0.341
 20
-82.8855
 30
0.0
 10
3.0895
 20
-82.767
 30
0.0
 10
2.908
 20
-79.0683
 30
0.0
 10
-0.341
 20
-79.044
 30
0.0
 10
-0.341
 20
-79.044
 30
0.0
 10
0.0402
 20
-78.0721
 30
0.0
 10
1.7436
 20
-78.2228
 30
0.0
 10
2.6007
 20
-78.7882
 30
0.0
 10
2.6007
 20
-78.7882
 30
0.0
 10
3.18
 20
-79.1704
 30
0.0
 10
3.8058
 20
-79.7114
 30
0.0
 10
3.8416
 20
-80.9294
 30
0.0
  0
SPLINE
  5
9E
330
1F
100
AcDbEntity
  8
layer 1
 62
     7
370
    13
100
AcDbSpline
210
0.0
220
0.0
230
1.0
 70
    11
 71
     3
 72
    24
 73
    20
 74
     0
 42
0.0000000001
 43
0.0000000001
 12
1.0
 22
0.0
 32
0.0
 13
1.0
 23
0.0
 33
0.0
 40
0.0
 40
0.0
 40
0.0
 40
0.0
 40
0.1666666666666667
 40
0.1666666666666667
 40
0.1666666666666667
 40
0.1666666666666667
 40
0.3333333333333333
 40
0.3333333333333333
 40
0.3333333333333333
 40
0.3333333333333333
 40
0.5
 40
0.5
 40
0.5
 40
0.5
 40
0.6666666666666666
 40
0.6666666666666666
 40
0.6666666666666666
 40
0.6666666666666666
 40
1.0
 40
1.0
 40
1.0
 40
1.0
 10
23.2453
 20
-80.9294
 30
0.0
 10
23.2297
 20
-81.8881
 30
0.0
 10
23.7824
 20
-82.7976
 30
0.0
 10
24.387
 20
-83.2717
 30
0.0
 10
24.387
 20
-83.2717
 30
0.0
 10
25.2276
 20
-83.9306
 30
0.0
 10
26.9834
 20
-83.9805
 30
0.0
 10
27.4279
 20
-82.8855
 30
0.0
 10
27.4279
 20
-82.8855
 30
0.0
 10
23.9974
 20
-82.767
 30
0.0
 10
24.1789
 20
-79.0683
 30
0.0
 10
27.4279
 20
-79.044
 30
0.0
 10
27.4279
 20
-79.044
 30
0.0
 10
27.0467
 20
-78.0721
 30
0.0
 10
25.3433
 20
-78.2228
 30
0.0
 10
24.4862
 20
-78.7882
 30
0.0
 10
24.4862
 20
-78.7882
 30
0.0
 10
23.9069
 20
-79.1704
 30
0.0
 10
23.2811
 20
-79.7114
 30
0.0
 10
23.2453
 20
-80.9294
 30
0.0
  0
SPLINE
  5
9F
330
1F
100
AcDbEntity
  8
layer 1
 62
     7
370
    13
100
AcDbSpline
210
0.0
220
0.0
230
1.0
 70
    11
 71
     3
 72
    24
 73
    20
 74
     0
 42
0.0000000001
 43
0.0000000001
 12
1.0
 22
0.0
 32
0.0
 13
1.0
 23
0.0
 33
0.0
 40
0.0
 40
0.0
 40
0.0
 40
0.0
 40
0.1666666666666667
 40
0.1666666666666667
 40
0.1666666666666667
 40
0.1666666666666667
 40
0.3333333333333333
 40
0.3333333333333333
 40
0.3333333333333333
 40
0.3333333333333333
 40
0.5
 40
0.5
 40
0.5
 40
0.5
 40
0.6666666666666666
 40
0.6666666666666666
 40
0.6666666666666666
 40
0.6666666666666666
 40
1.0
 40
1.0
 40
1.0
 40
1.0
 10
49.6802
 20
-80.9294
 30
0.0
 10
49.6957
 20
-81.8881
 30
0.0
 10
49.1431
 20
-82.7976
 30
0.0
 10
48.5384
 20
-83.2717
 30
0.0
 10
48.5384
 20
-83.2717
 30
0.0
 10
47.6979
 20
-83.9306
 30
0.0
 10
45.9421
 20
-83.9805
 30
0.0
 10
45.4976
 20
-82.8855
 30
0.0
 10
45.4976
 20
-82.8855
 30
0.0
 10
48.928
 20
-82.767
 30
0.0
 10
48.7465
 20
-79.0683
 30
0.0
 10
45.4976
 20
-79.044
 30
0.0
 10
45.4976
 20
-79.044
 30
0.0
 10
45.8788
 20
-78.0721
 30
0.0
 10
47.5821
 20
-78.2228
 30
0.0
 10
48.4392
 20
-78.7882
 30
0.0
 10
48.4392
 20
-78.7882
 30
0.0
 10
49.0186
 20
-79.1704
 30
0.0
 10
49.6443
 20
-79.7114
 30
0.0
 10
49.6802
 20
-80.9294
 30
0.0
  0
SPLINE
  5
A0
330
1F
100
AcDbEntity
  8
layer 1
 62
     7
370
    13
100
AcDbSpline
210
0.0
220
0.0
230
1.0
 70
    11
 71
     3
 72
    16
 73
    12
 74
     0
 42
0.0000000001
 43
0.0000000001
 12
1.0
 22
0.0
 32
0.0
 13
1.0
 23
0.0
 33
0.0
 40
0.0
 40
0.0
 40
0.0
 40
0.0
 40
0.25
 40
0.25
 40
0.25
 40
0.25
 40
0.5
 40
0.5
 40
0.5
 40
0.5
 40
1.0
 40
1.0
 40
1.0
 40
1.0
 10
13.5315
 20
-109.0742
 30
0.0
 10
14.5922
 20
-109.0742
 30
0.0
 10
15.4522
 20
-109.9343
 30
0.0
 10
15.4522
 20
-110.9949
 30
0.0
 10
15.4522
 20
-110.9949
 30
0.0
 10
15.4522
 20
-110.9949
 30
0.0
 10
11.6108
 20
-110.9949
 30
0.0
 10
11.6108
 20
-110.9949
 30
0.0
 10
11.6108
 20
-110.9949
 30
0.0
 10
11.6108
 20
-109.9343
 30
0.0
 10
12.4709
 20
-109.0742
 30
0.0
 10
13.5315
 20
-109.0742
 30
0.0
  0
SPLINE
  5
A1
330
1F
100
AcDbEntity
  8
layer 1
 62
     7
370
    13
100
AcDbSpline
210
0.0
220
0.0
230
1.0
 70
    11
 71
     3
 72
    16
 73
    12
 74
     0
 42
0.0000000001
 43
0.0000000001
 12
1.0
 22
0.0
 32
0.0
 13
1.0
 23
0.0
 33
0.0
 40
0.0
 40
0.0
 40
0.0
 40
0.0
 40
0.25
 40
0.25
 40
0.25
 40
0.25
 40
0.5
 40
0.5
 40
0.5
 40
0.5
 40
1.0
 40
1.0
 40
1.0
 40
1.0
 10
-9.3749
 20
-109.8297
 30
0.0
 10
-8.7403
 20
-109.8297
 30
0.0
 10
-8.2257
 20
-110.3443
 30
0.0
 10
-8.2257
 20
-110.9789
 30
0.0
 10
-8.2257
 20
-110.9789
 30
0.0
 10
-8.2257
 20
-110.9789
 30
0.0
 10
-10.5241
 20
-110.9789
 30
0.0
 10
-10.5241
 20
-110.9789
 30
0.0
 10
-10.5241
 20
-110.9789
 30
0.0
 10
-10.5241
 20
-110.3443
 30
0.0
 10
-10.0095
 20
-109.8297
 30
0.0
 10
-9.3749
 20
-109.8297
 30
0.0
  0
SPLINE
  5
A2
330
1F
100
AcDbEntity
  8
layer 1
 62
     7
370
    13
100
AcDbSpline
210
0.0
220
0.0
230
1.0
 70
    11
 71
     3
 72
    16
 73
    12
 74
     0
 42
0.0000000001
 43
0.0000000001
 12
1.0
 22
0.0
 32
0.0
 13
1.0
 23
0.0
 33
0.0
 40
0.0
 40
0.0
 40
0.0
 40
0.0
 40
0.25
 40
0.25
 40
0.25
 40
0.25
 40
0.5
 40
0.5
 40
0.5
 40
0.5
 40
1.0
 40
1.0
 40
1.0
 40
1.0
 10
36.4563
 20
-109.8297
 30
0.0
 10
37.0909
 20
-109.8297
 30
0.0
 10
37.6055
 20
-110.3443
 30
0.0
 10
37.6055
 20
-110.9789
 30
0.0
 10
37.6055
 20
-110.9789
 30
0.0
 10
37.6055
 20
-110.9789
 30
0.0
 10
35.3071
 20
-110.9789
 30
0.0
 10
35.3071
 20
-110.9789
 30
0.0
 10
35.3071
 20
-110.9789
 30
0.0
 10
35.3071
 20
-110.3443
 30
0.0
 10
35.8218
 20
-109.8297
 30
0.0
 10
36.4563
 20
-109.8297
 30
0.0
  0
SPLINE
  5
A3
330
1F
100
AcDbEntity
  8
layer 1
 62
     7
370
    13
100
AcDbSpline
210
0.0
220
0.0
230
1.0
 70
    11
 71
     3
 72
    28
 73
    24
 74
     0
 42
0.0000000001
 43
0.0000000001
 12
1.0
 22
0.0
 32
0.0
 13
1.0
 23
0.0
 33
0.0
 40
0.0
 40
0.0
 40
0.0
 40
0.0
 40
0.1428571428571428
 40
0.1428571428571428
 40
0.1428571428571428
 40
0.1428571428571428
 40
0.2857142857142857
 40
0.2857142857142857
 40
0.2857142857142857
 40
0.2857142857142857
 40
0.4285714285714285
 40
0.4285714285714285
 40
0.4285714285714285
 40
0.4285714285714285
 40
0.5714285714285714
 40
0.5714285714285714
 40
0.5714285714285714
 40
0.5714285714285714
 40
0.7142857142857143
 40
0.7142857142857143
 40
0.7142857142857143
 40
0.7142857142857143
 40
1.0
 40
1.0
 40
1.0
 40
1.0
 10
54.1563
 20
-111.0064
 30
0.0
 10
54.1563
 20
-111.0064
 30
0.0
 10
52.3494
 20
-111.0064
 30
0.0
 10
52.3494
 20
-111.0064
 30
0.0
 10
52.3494
 20
-111.0064
 30
0.0
 10
52.4985
 20
-105.3232
 30
0.0
 10
49.7055
 20
-103.1026
 30
0.0
 10
46.1602
 20
-102.1069
 30
0.0
 10
46.1602
 20
-102.1069
 30
0.0
 10
47.1675
 20
-100.1727
 30
0.0
 10
48.2188
 20
-99.0563
 30
0.0
 10
50.5425
 20
-98.0569
 30
0.0
 10
50.5425
 20
-98.0569
 30
0.0
 10
51.4365
 20
-99.3783
 30
0.0
 10
53.5455
 20
-104.2205
 30
0.0
 10
59.2759
 20
-104.0799
 30
0.0
 10
59.2759
 20
-104.0799
 30
0.0
 10
59.2759
 20
-104.0799
 30
0.0
 10
59.2759
 20
-105.5856
 30
0.0
 10
59.2759
 20
-105.5856
 30
0.0
 10
59.2759
 20
-105.5856
 30
0.0
 10
56.2061
 20
-106.3008
 30
0.0
 10
54.1563
 20
-107.6901
 30
0.0
 10
54.1563
 20
-111.0064
 30
0.0
  0
SPLINE
  5
A4
330
1F
100
AcDbEntity
  8
layer 1
 62
     7
370
    13
100
AcDbSpline
210
0.0
220
0.0
230
1.0
 70
    11
 71
     3
 72
    44
 73
    40
 74
     0
 42
0.0000000001
 43
0.0000000001
 12
1.0
 22
0.0
 32
0.0
 13
1.0
 23
0.0
 33
0.0
 40
0.0
 40
0.0
 40
0.0
 40
0.0
 40
0.0909090909090909
 40
0.0909090909090909
 40
0.0909090909090909
 40
0.0909090909090909
 40
0.1818181818181818
 40
0.1818181818181818
 40
0.1818181818181818
 40
0.1818181818181818
 40
0.2727272727272727
 40
0.2727272727272727
 40
0.2727272727272727
 40
0.2727272727272727
 40
0.3636363636363636
 40
0.3636363636363636
 40
0.3636363636363636
 40
0.3636363636363636
 40
0.4545454545454545
 40
0.4545454545454545
 40
0.4545454545454545
 40
0.4545454545454545
 40
0.5454545454545454
 40
0.5454545454545454
 40
0.5454545454545454
 40
0.5454545454545454
 40
0.6363636363636364
 40
0.6363636363636364
 40
0.6363636363636364
 40
0.6363636363636364
 40
0.7272727272727273
 40
0.7272727272727273
 40
0.7272727272727273
 40
0.7272727272727273
 40
0.8181818181818182
 40
0.8181818181818182
 40
0.8181818181818182
 40
0.8181818181818182
 40
1.0
 40
1.0
 40
1.0
 40
1.0
 10
59.3129
 20
3.206
 30
0.0
 10
59.3129
 20
3.206
 30
0.0
 10
59.3236
 20
1.5674
 30
0.0
 10
59.3236
 20
1.5674
 30
0.0
 10
59.3236
 20
1.5674
 30
0.0
 10
53.367
 20
1.346
 30
0.0
 10
52.177
 20
-1.5876
 30
0.0
 10
50.4241
 20
-4.6218
 30
0.0
 10
50.4241
 20
-4.6218
 30
0.0
 10
48.7011
 20
-3.5103
 30
0.0
 10
47.0414
 20
-2.2753
 30
0.0
 10
46.3741
 20
-0.2395
 30
0.0
 10
46.3741
 20
-0.2395
 30
0.0
 10
48.4495
 20
1.1483
 30
0.0
 10
52.4371
 20
3.1403
 30
0.0
 10
52.3972
 20
8.4939
 30
0.0
 10
52.3972
 20
8.4939
 30
0.0
 10
52.0534
 20
14.3992
 30
0.0
 10
49.1116
 20
15.4294
 30
0.0
 10
46.3741
 20
17.2586
 30
0.0
 10
46.3741
 20
17.2586
 30
0.0
 10
47.1981
 20
19.2216
 30
0.0
 10
48.4239
 20
20.7463
 30
0.0
 10
50.4241
 20
21.6409
 30
0.0
 10
50.4241
 20
21.6409
 30
0.0
 10
51.3144
 20
18.6067
 30
0.0
 10
54.2295
 20
15.4934
 30
0.0
 10
59.3236
 20
15.4517
 30
0.0
 10
59.3236
 20
15.4517
 30
0.0
 10
59.3236
 20
15.4517
 30
0.0
 10
59.3129
 20
13.8257
 30
0.0
 10
59.3129
 20
13.8257
 30
0.0
 10
59.3129
 20
13.8257
 30
0.0
 10
56.3808
 20
13.8257
 30
0.0
 10
54.003
 20
11.4479
 30
0.0
 10
54.003
 20
8.5158
 30
0.0
 10
54.003
 20
8.5158
 30
0.0
 10
54.003
 20
5.5838
 30
0.0
 10
56.3808
 20
3.206
 30
0.0
 10
59.3129
 20
3.206
 30
0.0
  0
ENDSEC
  0
SECTION
  2
OBJECTS
  0
DICTIONARY
  5
C
330
0
100
AcDbDictionary
281
     1
  3
ACAD_GROUP
350
D
  3
ACAD_LAYOUT
350
1A
  3
ACAD_MATERIAL
350
3B
  3
ACAD_MLEADERSTYLE
350
C6
  3
ACAD_MLINESTYLE
350
17
  3
ACAD_PLOTSETTINGS
350
19
  3
ACAD_PLOTSTYLENAME
350
E
  3
ACAD_TABLESTYLE
350
C5
  3
ACAD_VISUALSTYLE
350
2A
  0
DICTIONARY
  5
D
102
{ACAD_REACTORS
330
C
102
}
330
C
100
AcDbDictionary
281
     1
  0
DICTIONARY
  5
1A
102
{ACAD_REACTORS
330
C
102
}
330
C
100
AcDbDictionary
281
     1
  3
Layout1
350
1E
  3
Layout2
350
26
  3
Model
350
22
  0
DICTIONARY
  5
3B
102
{ACAD_REACTORS
330
C
102
}
330
C
100
AcDbDictionary
281
     1
  3
ByBlock
350
3D
  3
ByLayer
350
3C
  3
Global
350
3E
  0
DICTIONARY
  5
C6
102
{ACAD_REACTORS
330
C
102
}
330
C
100
AcDbDictionary
281
     1
  0
DICTIONARY
  5
17
102
{ACAD_REACTORS
330
C
102
}
330
C
100
AcDbDictionary
281
     1
  3
Standard
350
18
  0
DICTIONARY
  5
19
102
{ACAD_REACTORS
330
C
102
}
330
C
100
AcDbDictionary
281
     1
  0
ACDBDICTIONARYWDFLT
  5
E
102
{ACAD_REACTORS
330
C
102
}
330
C
100
AcDbDictionary
281
     1
  3
Normal
350
F
100
AcDbDictionaryWithDefault
340
F
  0
DICTIONARY
  5
C5
102
{ACAD_REACTORS
330
C
102
}
330
C
100
AcDbDictionary
281
     1
  0
DICTIONARY
  5
2A
102
{ACAD_REACTORS
330
C
102
}
330
C
100
AcDbDictionary
281
     1
  3
2dWireframe
350
2F
  3
3D Hidden
350
31
  3
3dWireframe
350
30
  3
Basic
350
32
  3
Brighten
350
36
  3
ColorChange
350
3A
  3
Conceptual
350
34
  3
Dim
350
35
  3
Facepattern
350
39
  3
Flat
350
2B
  3
FlatWithEdges
350
2C
  3
Gouraud
350
2D
  3
GouraudWithEdges
350
2E
  3
Linepattern
350
38
  3
Realistic
350
33
  3
Thicken
350
37
  0
LAYOUT
  5
1E
102
{ACAD_REACTORS
330
1A
102
}
330
1A
100
AcDbPlotSettings
  1

  2
none_device
  4

  6

 40
0.0
 41
0.0
 42
0.0
 43
0.0
 44
0.0
 45
0.0
 46
0.0
 47
0.0
 48
0.0
 49
0.0
140
0.0
141
0.0
142
1.0
143
1.0
 70
   688
 72
     0
 73
     0
 74
     5
  7

 75
    16
 76
     0
 77
     2
 78
   300
147
1.0
148
0.0
149
0.0
100
AcDbLayout
  1
Layout1
 70
     1
 71
     1
 10
0.0
 20
0.0
 11
12.0
 21
9.0
 12
0.0
 22
0.0
 32
0.0
 14
1.000000000000000E+20
 24
1.000000000000000E+20
 34
1.000000000000000E+20
 15
-1.000000000000000E+20
 25
-1.000000000000000E+20
 35
-1.000000000000000E+20
146
0.0
 13
0.0
 23
0.0
 33
0.0
 16
1.0
 26
0.0
 36
0.0
 17
0.0
 27
1.0
 37
0.0
 76
     0
330
1B
  0
LAYOUT
  5
26
102
{ACAD_REACTORS
330
1A
102
}
330
1A
100
AcDbPlotSettings
  1

  2
none_device
  4

  6

 40
0.0
 41
0.0
 42
0.0
 43
0.0
 44
0.0
 45
0.0
 46
0.0
 47
0.0
 48
0.0
 49
0.0
140
0.0
141
0.0
142
1.0
143
1.0
 70
   688
 72
     0
 73
     0
 74
     5
  7

 75
    16
 76
     0
 77
     2
 78
   300
147
1.0
148
0.0
149
0.0
100
AcDbLayout
  1
Layout2
 70
     1
 71
     2
 10
0.0
 20
0.0
 11
0.0
 21
0.0
 12
0.0
 22
0.0
 32
0.0
 14
0.0
 24
0.0
 34
0.0
 15
0.0
 25
0.0
 35
0.0
146
0.0
 13
0.0
 23
0.0
 33
0.0
 16
1.0
 26
0.0
 36
0.0
 17
0.0
 27
1.0
 37
0.0
 76
     0
330
23
  0
LAYOUT
  5
22
102
{ACAD_REACTORS
330
1A
102
}
330
1A
100
AcDbPlotSettings
  1

  2
none_device
  4

  6

 40
0.0
 41
0.0
 42
0.0
 43
0.0
 44
0.0
 45
0.0
 46
0.0
 47
0.0
 48
0.0
 49
0.0
140
0.0
141
0.0
142
1.0
143
1.0
 70
  1712
 72
     0
 73
     0
 74
     0
  7

 75
     0
 76
     0
 77
     2
 78
   300
147
1.0
148
0.0
149
0.0
100
AcDbLayout
  1
Model
 70
     1
 71
     0
 10
0.0
 20
0.0
 11
12.0
 21
9.0
 12
0.0
 22
0.0
 32
0.0
 14
-36.4242
 24
-115.182
 34
0.0
 15
63.9997
 25
132.1768
 35
0.0
146
0.0
 13
0.0
 23
0.0
 33
0.0
 16
1.0
 26
0.0
 36
0.0
 17
0.0
 27
1.0
 37
0.0
 76
     0
330
1F
331
29
  0
MATERIAL
  5
3D
102
{ACAD_REACTORS
330
3B
102
}
330
3B
100
AcDbMaterial
  1
ByBlock
 72
     1
 94
      127
  0
MATERIAL
  5
3C
102
{ACAD_REACTORS
330
3B
102
}
330
3B
100
AcDbMaterial
  1
ByLayer
 72
     1
 94
      127
  0
MATERIAL
  5
3E
102
{ACAD_REACTORS
330
3B
102
}
330
3B
100
AcDbMaterial
  1
Global
 72
     1
 94
      127
  0
MLINESTYLE
  5
18
102
{ACAD_REACTORS
330
17
102
}
330
17
100
AcDbMlineStyle
  2
Standard
 70
     0
  3

 62
   256
 51
90.0
 52
90.0
 71
     2
 49
0.5
 62
   256
  6
BYLAYER
 49
-0.5
 62
   256
  6
BYLAYER
  0
ACDBPLACEHOLDER
  5
F
102
{ACAD_REACTORS
330
E
102
}
330
E
  0
VISUALSTYLE
  5
2F
102
{ACAD_REACTORS
330
2A
102
}
102
{ACAD_XDICTIONARY
360
AD
102
}
330
2A
100
AcDbVisualStyle
  2
2dWireframe
 70
     4
 71
     0
 72
     2
 73
     0
 90
        0
 40
-0.6
 41
-30.0
 62
     5
 63
     7
421
 16777215
 74
     1
 91
        4
 64
     7
 65
   257
 75
     1
175
     1
 42
1.0
 92
        0
 66
   257
 43
1.0
 76
     1
 77
     6
 78
     2
 67
     7
 79
     5
170
     0
171
     0
290
     0
174
     0
 93
        1
 44
0.0
173
     0
291
     0
 45
0.0
  0
VISUALSTYLE
  5
31
102
{ACAD_REACTORS
330
2A
102
}
102
{ACAD_XDICTIONARY
360
B1
102
}
330
2A
100
AcDbVisualStyle
  2
3D Hidden
 70
     6
 71
     1
 72
     2
 73
     2
 90
        0
 40
-0.6
 41
-30.0
 62
     5
 63
     7
421
 16777215
 74
     2
 91
        2
 64
     7
 65
   257
 75
     2
175
     1
 42
40.0
 92
        0
 66
   257
 43
1.0
 76
     1
 77
     6
 78
     2
 67
     7
 79
     3
170
     0
171
     0
290
     0
174
     0
 93
        1
 44
0.0
173
     0
291
     0
 45
0.0
  0
VISUALSTYLE
  5
30
102
{ACAD_REACTORS
330
2A
102
}
102
{ACAD_XDICTIONARY
360
AF
102
}
330
2A
100
AcDbVisualStyle
  2
3dWireframe
 70
     5
 71
     0
 72
     2
 73
     0
 90
        0
 40
-0.6
 41
-30.0
 62
     5
 63
     7
421
 16777215
 74
     1
 91
        4
 64
     7
 65
   257
 75
     1
175
     1
 42
1.0
 92
        0
 66
   257
 43
1.0
 76
     1
 77
     6
 78
     2
 67
     7
 79
     5
170
     0
171
     0
290
     0
174
     0
 93
        1
 44
0.0
173
     0
291
     0
 45
0.0
  0
VISUALSTYLE
  5
32
102
{ACAD_REACTORS
330
2A
102
}
102
{ACAD_XDICTIONARY
360
B3
102
}
330
2A
100
AcDbVisualStyle
  2
Basic
 70
     7
 71
     1
 72
     0
 73
     1
 90
        0
 40
-0.6
 41
-30.0
 62
     5
 63
     7
421
 16777215
 74
     0
 91
        4
 64
     7
 65
   257
 75
     1
175
     1
 42
1.0
 92
        8
 66
     7
 43
1.0
 76
     1
 77
     6
 78
     2
 67
     7
 79
     5
170
     0
171
     0
290
     0
174
     0
 93
        1
 44
0.0
173
     0
291
     1
 45
0.0
  0
VISUALSTYLE
  5
36
102
{ACAD_REACTORS
330
2A
102
}
102
{ACAD_XDICTIONARY
360
BB
102
}
330
2A
100
AcDbVisualStyle
  2
Brighten
 70
    12
 71
     2
 72
     2
 73
     0
 90
        0
 40
-0.6
 41
-30.0
 62
     5
 63
     7
421
 16777215
 74
     1
 91
        4
 64
     7
 65
   257
 75
     1
175
     1
 42
1.0
 92
        8
 66
     7
 43
1.0
 76
     1
 77
     6
 78
     2
 67
     7
 79
     5
170
     0
171
     0
290
     0
174
     0
 93
        1
 44
50.0
173
     0
291
     1
 45
0.0
  0
VISUALSTYLE
  5
3A
102
{ACAD_REACTORS
330
2A
102
}
102
{ACAD_XDICTIONARY
360
C3
102
}
330
2A
100
AcDbVisualStyle
  2
ColorChange
 70
    16
 71
     2
 72
     2
 73
     3
 90
        0
 40
-0.6
 41
-30.0
 62
     5
 63
     8
421
  8421504
 74
     1
 91
        4
 64
     7
 65
   257
 75
     1
175
     1
 42
1.0
 92
        8
 66
     8
424
  8421504
 43
1.0
 76
     1
 77
     6
 78
     2
 67
     7
 79
     5
170
     0
171
     0
290
     0
174
     0
 93
        1
 44
0.0
173
     0
291
     1
 45
0.0
  0
VISUALSTYLE
  5
34
102
{ACAD_REACTORS
330
2A
102
}
102
{ACAD_XDICTIONARY
360
B7
102
}
330
2A
100
AcDbVisualStyle
  2
Conceptual
 70
     9
 71
     3
 72
     2
 73
     0
 90
        0
 40
-0.6
 41
-30.0
 62
     5
 63
     7
421
 16777215
 74
     2
 91
        2
 64
     7
 65
   257
 75
     1
175
     1
 42
40.0
 92
        8
 66
     7
 43
1.0
 76
     1
 77
     6
 78
     2
 67
     7
 79
     3
170
     0
171
     0
290
     0
174
     0
 93
        1
 44
0.0
173
     0
291
     0
 45
0.0
  0
VISUALSTYLE
  5
35
102
{ACAD_REACTORS
330
2A
102
}
102
{ACAD_XDICTIONARY
360
B9
102
}
330
2A
100
AcDbVisualStyle
  2
Dim
 70
    11
 71
     2
 72
     2
 73
     0
 90
        0
 40
-0.6
 41
-30.0
 62
     5
 63
     7
421
 16777215
 74
     1
 91
        4
 64
     7
 65
   257
 75
     1
175
     1
 42
1.0
 92
        8
 66
     7
 43
1.0
 76
     1
 77
     6
 78
     2
 67
     7
 79
     5
170
     0
171
     0
290
     0
174
     0
 93
        1
 44
-50.0
173
     0
291
     1
 45
0.0
  0
VISUALSTYLE
  5
39
102
{ACAD_REACTORS
330
2A
102
}
102
{ACAD_XDICTIONARY
360
C1
102
}
330
2A
100
AcDbVisualStyle
  2
Facepattern
 70
    15
 71
     2
 72
     2
 73
     0
 90
        0
 40
-0.6
 41
-30.0
 62
     5
 63
     7
421
 16777215
 74
     1
 91
        4
 64
     7
 65
   257
 75
     1
175
     1
 42
1.0
 92
        8
 66
     7
 43
1.0
 76
     1
 77
     6
 78
     2
 67
     7
 79
     5
170
     0
171
     0
290
     0
174
     0
 93
        1
 44
0.0
173
     0
291
     1
 45
0.0
  0
VISUALSTYLE
  5
2B
102
{ACAD_REACTORS
330
2A
102
}
102
{ACAD_XDICTIONARY
360
A5
102
}
330
2A
100
AcDbVisualStyle
  2
Flat
 70
     0
 71
     2
 72
     1
 73
     1
 90
        2
 40
-0.6
 41
30.0
 62
     5
 63
     7
421
 16777215
 74
     0
 91
        4
 64
     7
 65
   257
 75
     1
175
     1
 42
1.0
 92
        8
 66
     7
 43
1.0
 76
     1
 77
     6
 78
     2
 67
     7
 79
     5
170
     0
171
     0
290
     0
174
     0
 93
       13
 44
0.0
173
     0
291
     1
 45
0.0
  0
VISUALSTYLE
  5
2C
102
{ACAD_REACTORS
330
2A
102
}
102
{ACAD_XDICTIONARY
360
A7
102
}
330
2A
100
AcDbVisualStyle
  2
FlatWithEdges
 70
     1
 71
     2
 72
     1
 73
     1
 90
        2
 40
-0.6
 41
30.0
 62
     5
 63
     7
421
 16777215
 74
     1
 91
        4
 64
     7
 65
   257
 75
     1
175
     1
 42
1.0
 92
        0
 66
   257
 43
1.0
 76
     1
 77
     6
 78
     2
 67
     7
 79
     5
170
     0
171
     0
290
     0
174
     0
 93
       13
 44
0.0
173
     0
291
     1
 45
0.0
  0
VISUALSTYLE
  5
2D
102
{ACAD_REACTORS
330
2A
102
}
102
{ACAD_XDICTIONARY
360
A9
102
}
330
2A
100
AcDbVisualStyle
  2
Gouraud
 70
     2
 71
     2
 72
     2
 73
     1
 90
        2
 40
-0.6
 41
30.0
 62
     5
 63
     7
421
 16777215
 74
     0
 91
        4
 64
     7
 65
   257
 75
     1
175
     1
 42
1.0
 92
        0
 66
     7
 43
1.0
 76
     1
 77
     6
 78
     2
 67
     7
 79
     5
170
     0
171
     0
290
     0
174
     0
 93
       13
 44
0.0
173
     0
291
     1
 45
0.0
  0
VISUALSTYLE
  5
2E
102
{ACAD_REACTORS
330
2A
102
}
102
{ACAD_XDICTIONARY
360
AB
102
}
330
2A
100
AcDbVisualStyle
  2
GouraudWithEdges
 70
     3
 71
     2
 72
     2
 73
     1
 90
        2
 40
-0.6
 41
30.0
 62
     5
 63
     7
421
 16777215
 74
     1
 91
        4
 64
     7
 65
   257
 75
     1
175
     1
 42
1.0
 92
        0
 66
   257
 43
1.0
 76
     1
 77
     6
 78
     2
 67
     7
 79
     5
170
     0
171
     0
290
     0
174
     0
 93
       13
 44
0.0
173
     0
291
     1
 45
0.0
  0
VISUALSTYLE
  5
38
102
{ACAD_REACTORS
330
2A
102
}
102
{ACAD_XDICTIONARY
360
BF
102
}
330
2A
100
AcDbVisualStyle
  2
Linepattern
 70
    14
 71
     2
 72
     2
 73
     0
 90
        0
 40
-0.6
 41
-30.0
 62
     5
 63
     7
421
 16777215
 74
     1
 91
        4
 64
     7
 65
   257
 75
     7
175
     7
 42
1.0
 92
        8
 66
     7
 43
1.0
 76
     1
 77
     6
 78
     2
 67
     7
 79
     5
170
     0
171
     0
290
     0
174
     0
 93
        1
 44
0.0
173
     0
291
     1
 45
0.0
  0
VISUALSTYLE
  5
33
102
{ACAD_REACTORS
330
2A
102
}
102
{ACAD_XDICTIONARY
360
B5
102
}
330
2A
100
AcDbVisualStyle
  2
Realistic
 70
     8
 71
     2
 72
     2
 73
     0
 90
        0
 40
-0.6
 41
-30.0
 62
     5
 63
     7
421
 16777215
 74
     1
 91
        0
 64
     7
 65
   257
 75
     1
175
     1
 42
1.0
 92
        8
 66
     8
424
  7895160
 43
1.0
 76
     1
 77
     6
 78
     2
 67
     7
 79
     5
170
     0
171
     0
290
     0
174
     0
 93
       13
 44
0.0
173
     0
291
     0
 45
0.0
  0
VISUALSTYLE
  5
37
102
{ACAD_REACTORS
330
2A
102
}
102
{ACAD_XDICTIONARY
360
BD
102
}
330
2A
100
AcDbVisualStyle
  2
Thicken
 70
    13
 71
     2
 72
     2
 73
     0
 90
        0
 40
-0.6
 41
-30.0
 62
     5
 63
     7
421
 16777215
 74
     1
 91
        4
 64
     7
 65
   257
 75
     1
175
     1
 42
1.0
 92
       12
 66
     7
 43
1.0
 76
     1
 77
     6
 78
     2
 67
     7
 79
     5
170
     0
171
     0
290
     0
174
     0
 93
        1
 44
0.0
173
     0
291
     1
 45
0.0
  0
DICTIONARY
  5
AD
330
2F
100
AcDbDictionary
280
     1
281
     1
  3
ACAD_XREC_ROUNDTRIP
360
AE
  0
DICTIONARY
  5
B1
330
31
100
AcDbDictionary
280
     1
281
     1
  3
ACAD_XREC_ROUNDTRIP
360
B2
  0
DICTIONARY
  5
AF
330
30
100
AcDbDictionary
280
     1
281
     1
  3
ACAD_XREC_ROUNDTRIP
360
B0
  0
DICTIONARY
  5
B3
330
32
100
AcDbDictionary
280
     1
281
     1
  3
ACAD_XREC_ROUNDTRIP
360
B4
  0
DICTIONARY
  5
BB
330
36
100
AcDbDictionary
280
     1
281
     1
  3
ACAD_XREC_ROUNDTRIP
360
BC
  0
DICTIONARY
  5
C3
330
3A
100
AcDbDictionary
280
     1
281
     1
  3
ACAD_XREC_ROUNDTRIP
360
C4
  0
DICTIONARY
  5
B7
330
34
100
AcDbDictionary
280
     1
281
     1
  3
ACAD_XREC_ROUNDTRIP
360
B8
  0
DICTIONARY
  5
B9
330
35
100
AcDbDictionary
280
     1
281
     1
  3
ACAD_XREC_ROUNDTRIP
360
BA
  0
DICTIONARY
  5
C1
330
39
100
AcDbDictionary
280
     1
281
     1
  3
ACAD_XREC_ROUNDTRIP
360
C2
  0
DICTIONARY
  5
A5
330
2B
100
AcDbDictionary
280
     1
281
     1
  3
ACAD_XREC_ROUNDTRIP
360
A6
  0
DICTIONARY
  5
A7
330
2C
100
AcDbDictionary
280
     1
281
     1
  3
ACAD_XREC_ROUNDTRIP
360
A8
  0
DICTIONARY
  5
A9
330
2D
100
AcDbDictionary
280
     1
281
     1
  3
ACAD_XREC_ROUNDTRIP
360
AA
  0
DICTIONARY
  5
AB
330
2E
100
AcDbDictionary
280
     1
281
     1
  3
ACAD_XREC_ROUNDTRIP
360
AC
  0
DICTIONARY
  5
BF
330
38
100
AcDbDictionary
280
     1
281
     1
  3
ACAD_XREC_ROUNDTRIP
360
C0
  0
DICTIONARY
  5
B5
330
33
100
AcDbDictionary
280
     1
281
     1
  3
ACAD_XREC_ROUNDTRIP
360
B6
  0
DICTIONARY
  5
BD
330
37
100
AcDbDictionary
280
     1
281
     1
  3
ACAD_XREC_ROUNDTRIP
360
BE
  0
XRECORD
  5
AE
102
{ACAD_REACTORS
330
AD
102
}
330
AD
100
AcDbXrecord
280
     1
102
RTVSPropertyOp0
 70
     1
102
RTVSPropertyOp1
 70
     1
102
RTVSPropertyOp2
 70
     1
102
RTVSPropertyOp3
 70
     1
102
RTVSPropertyOp4
 70
     1
102
RTVSPropertyOp5
 70
     1
102
RTVSPropertyOp6
 70
     1
102
RTVSPropertyOp7
 70
     1
102
RTVSPropertyOp8
 70
     1
102
RTVSPropertyOp9
 70
     1
102
RTVSPropertyOp10
 70
     1
102
RTVSPropertyOp11
 70
     1
102
RTVSPropertyOp12
 70
     1
102
RTVSPropertyOp13
 70
     1
102
RTVSPropertyOp14
 70
     1
102
RTVSPropertyOp15
 70
     1
102
RTVSPropertyOp16
 70
     1
102
RTVSPropertyOp17
 70
     1
102
RTVSPropertyOp18
 70
     1
102
RTVSPropertyOp19
 70
     1
102
RTVSPropertyOp20
 70
     1
102
RTVSPropertyOp21
 70
     1
102
RTVSPropertyOp22
 70
     1
102
RTVSPropertyOp23
 70
     1
102
RTVSPropertyOp24
 70
     1
102
RTVSPropertyOp25
 70
     1
102
RTVSPropertyOp26
 70
     1
102
RTVSPropertyOp27
 70
     1
102
RTVSPropertyOp28
 70
     1
102
RTVSPropertyOp29
 70
     1
102
RTVSPropertyOp30
 70
     1
102
RTVSPropertyOp31
 70
     1
102
RTVSPropertyOp32
 70
     1
  0
XRECORD
  5
B2
102
{ACAD_REACTORS
330
B1
102
}
330
B1
100
AcDbXrecord
280
     1
102
RTVSPropertyOp0
 70
     1
102
RTVSPropertyOp1
 70
     1
102
RTVSPropertyOp2
 70
     1
102
RTVSPropertyOp3
 70
     1
102
RTVSPropertyOp4
 70
     1
102
RTVSPropertyOp5
 70
     1
102
RTVSPropertyOp6
 70
     1
102
RTVSPropertyOp7
 70
     1
102
RTVSPropertyOp8
 70
     1
102
RTVSPropertyOp9
 70
     1
102
RTVSPropertyOp10
 70
     1
102
RTVSPropertyOp11
 70
     1
102
RTVSPropertyOp12
 70
     1
102
RTVSPropertyOp13
 70
     1
102
RTVSPropertyOp14
 70
     1
102
RTVSPropertyOp15
 70
     1
102
RTVSPropertyOp16
 70
     1
102
RTVSPropertyOp17
 70
     1
102
RTVSPropertyOp18
 70
     1
102
RTVSPropertyOp19
 70
     1
102
RTVSPropertyOp20
 70
     1
102
RTVSPropertyOp21
 70
     1
102
RTVSPropertyOp22
 70
     1
102
RTVSPropertyOp23
 70
     1
102
RTVSPropertyOp24
 70
     1
102
RTVSPropertyOp25
 70
     1
102
RTVSPropertyOp26
 70
     1
102
RTVSPropertyOp27
 70
     1
102
RTVSPropertyOp28
 70
     1
102
RTVSPropertyOp29
 70
     1
102
RTVSPropertyOp30
 70
     1
102
RTVSPropertyOp31
 70
     1
102
RTVSPropertyOp32
 70
     1
  0
XRECORD
  5
B0
102
{ACAD_REACTORS
330
AF
102
}
330
AF
100
AcDbXrecord
280
     1
102
RTVSPropertyOp0
 70
     1
102
RTVSPropertyOp1
 70
     1
102
RTVSPropertyOp2
 70
     1
102
RTVSPropertyOp3
 70
     1
102
RTVSPropertyOp4
 70
     1
102
RTVSPropertyOp5
 70
     1
102
RTVSPropertyOp6
 70
     1
102
RTVSPropertyOp7
 70
     1
102
RTVSPropertyOp8
 70
     1
102
RTVSPropertyOp9
 70
     1
102
RTVSPropertyOp10
 70
     1
102
RTVSPropertyOp11
 70
     1
102
RTVSPropertyOp12
 70
     1
102
RTVSPropertyOp13
 70
     1
102
RTVSPropertyOp14
 70
     1
102
RTVSPropertyOp15
 70
     1
102
RTVSPropertyOp16
 70
     1
102
RTVSPropertyOp17
 70
     1
102
RTVSPropertyOp18
 70
     1
102
RTVSPropertyOp19
 70
     1
102
RTVSPropertyOp20
 70
     1
102
RTVSPropertyOp21
 70
     1
102
RTVSPropertyOp22
 70
     1
102
RTVSPropertyOp23
 70
     1
102
RTVSPropertyOp24
 70
     1
102
RTVSPropertyOp25
 70
     1
102
RTVSPropertyOp26
 70
     1
102
RTVSPropertyOp27
 70
     1
102
RTVSPropertyOp28
 70
     1
102
RTVSPropertyOp29
 70
     1
102
RTVSPropertyOp30
 70
     1
102
RTVSPropertyOp31
 70
     1
102
RTVSPropertyOp32
 70
     1
  0
XRECORD
  5
B4
102
{ACAD_REACTORS
330
B3
102
}
330
B3
100
AcDbXrecord
280
     1
102
RTVSPropertyOp0
 70
     1
102
RTVSPropertyOp1
 70
     1
102
RTVSPropertyOp2
 70
     1
102
RTVSPropertyOp3
 70
     1
102
RTVSPropertyOp4
 70
     1
102
RTVSPropertyOp5
 70
     1
102
RTVSPropertyOp6
 70
     1
102
RTVSPropertyOp7
 70
     1
102
RTVSPropertyOp8
 70
     1
102
RTVSPropertyOp9
 70
     1
102
RTVSPropertyOp10
 70
     1
102
RTVSPropertyOp11
 70
     1
102
RTVSPropertyOp12
 70
     1
102
RTVSPropertyOp13
 70
     1
102
RTVSPropertyOp14
 70
     1
102
RTVSPropertyOp15
 70
     1
102
RTVSPropertyOp16
 70
     1
102
RTVSPropertyOp17
 70
     1
102
RTVSPropertyOp18
 70
     1
102
RTVSPropertyOp19
 70
     1
102
RTVSPropertyOp20
 70
     1
102
RTVSPropertyOp21
 70
     1
102
RTVSPropertyOp22
 70
     1
102
RTVSPropertyOp23
 70
     1
102
RTVSPropertyOp24
 70
     1
102
RTVSPropertyOp25
 70
     1
102
RTVSPropertyOp26
 70
     1
102
RTVSPropertyOp27
 70
     1
102
RTVSPropertyOp28
 70
     1
102
RTVSPropertyOp29
 70
     1
102
RTVSPropertyOp30
 70
     1
102
RTVSPropertyOp31
 70
     1
102
RTVSPropertyOp32
 70
     1
  0
XRECORD
  5
BC
102
{ACAD_REACTORS
330
BB
102
}
330
BB
100
AcDbXrecord
280
     1
102
RTVSPropertyOp0
 70
     1
102
RTVSPropertyOp1
 70
     1
102
RTVSPropertyOp2
 70
     1
102
RTVSPropertyOp3
 70
     1
102
RTVSPropertyOp4
 70
     1
102
RTVSPropertyOp5
 70
     1
102
RTVSPropertyOp6
 70
     1
102
RTVSPropertyOp7
 70
     1
102
RTVSPropertyOp8
 70
     1
102
RTVSPropertyOp9
 70
     1
102
RTVSPropertyOp10
 70
     1
102
RTVSPropertyOp11
 70
     1
102
RTVSPropertyOp12
 70
     1
102
RTVSPropertyOp13
 70
     1
102
RTVSPropertyOp14
 70
     1
102
RTVSPropertyOp15
 70
     1
102
RTVSPropertyOp16
 70
     1
102
RTVSPropertyOp17
 70
     1
102
RTVSPropertyOp18
 70
     1
102
RTVSPropertyOp19
 70
     1
102
RTVSPropertyOp20
 70
     1
102
RTVSPropertyOp21
 70
     1
102
RTVSPropertyOp22
 70
     1
102
RTVSPropertyOp23
 70
     1
102
RTVSPropertyOp24
 70
     1
102
RTVSPropertyOp25
 70
     1
102
RTVSPropertyOp26
 70
     1
102
RTVSPropertyOp27
 70
     1
102
RTVSPropertyOp28
 70
     1
102
RTVSPropertyOp29
 70
     1
102
RTVSPropertyOp30
 70
     1
102
RTVSPropertyOp31
 70
     1
102
RTVSPropertyOp32
 70
     1
  0
XRECORD
  5
C4
102
{ACAD_REACTORS
330
C3
102
}
330
C3
100
AcDbXrecord
280
     1
102
RTVSPropertyOp0
 70
     1
102
RTVSPropertyOp1
 70
     1
102
RTVSPropertyOp2
 70
     1
102
RTVSPropertyOp3
 70
     1
102
RTVSPropertyOp4
 70
     1
102
RTVSPropertyOp5
 70
     1
102
RTVSPropertyOp6
 70
     1
102
RTVSPropertyOp7
 70
     1
102
RTVSPropertyOp8
 70
     1
102
RTVSPropertyOp9
 70
     1
102
RTVSPropertyOp10
 70
     1
102
RTVSPropertyOp11
 70
     1
102
RTVSPropertyOp12
 70
     1
102
RTVSPropertyOp13
 70
     1
102
RTVSPropertyOp14
 70
     1
102
RTVSPropertyOp15
 70
     1
102
RTVSPropertyOp16
 70
     1
102
RTVSPropertyOp17
 70
     1
102
RTVSPropertyOp18
 70
     1
102
RTVSPropertyOp19
 70
     1
102
RTVSPropertyOp20
 70
     1
102
RTVSPropertyOp21
 70
     1
102
RTVSPropertyOp22
 70
     1
102
RTVSPropertyOp23
 70
     1
102
RTVSPropertyOp24
 70
     1
102
RTVSPropertyOp25
 70
     1
102
RTVSPropertyOp26
 70
     1
102
RTVSPropertyOp27
 70
     1
102
RTVSPropertyOp28
 70
     1
102
RTVSPropertyOp29
 70
     1
102
RTVSPropertyOp30
 70
     1
102
RTVSPropertyOp31
 70
     1
102
RTVSPropertyOp32
 70
     1
  0
XRECORD
  5
B8
102
{ACAD_REACTORS
330
B7
102
}
330
B7
100
AcDbXrecord
280
     1
102
RTVSPropertyOp0
 70
     1
102
RTVSPropertyOp1
 70
     1
102
RTVSPropertyOp2
 70
     1
102
RTVSPropertyOp3
 70
     1
102
RTVSPropertyOp4
 70
     1
102
RTVSPropertyOp5
 70
     1
102
RTVSPropertyOp6
 70
     1
102
RTVSPropertyOp7
 70
     1
102
RTVSPropertyOp8
 70
     1
102
RTVSPropertyOp9
 70
     1
102
RTVSPropertyOp10
 70
     1
102
RTVSPropertyOp11
 70
     1
102
RTVSPropertyOp12
 70
     1
102
RTVSPropertyOp13
 70
     1
102
RTVSPropertyOp14
 70
     1
102
RTVSPropertyOp15
 70
     1
102
RTVSPropertyOp16
 70
     1
102
RTVSPropertyOp17
 70
     1
102
RTVSPropertyOp18
 70
     1
102
RTVSPropertyOp19
 70
     1
102
RTVSPropertyOp20
 70
     1
102
RTVSPropertyOp21
 70
     1
102
RTVSPropertyOp22
 70
     1
102
RTVSPropertyOp23
 70
     1
102
RTVSPropertyOp24
 70
     1
102
RTVSPropertyOp25
 70
     1
102
RTVSPropertyOp26
 70
     1
102
RTVSPropertyOp27
 70
     1
102
RTVSPropertyOp28
 70
     1
102
RTVSPropertyOp29
 70
     1
102
RTVSPropertyOp30
 70
     1
102
RTVSPropertyOp31
 70
     1
102
RTVSPropertyOp32
 70
     1
  0
XRECORD
  5
BA
102
{ACAD_REACTORS
330
B9
102
}
330
B9
100
AcDbXrecord
280
     1
102
RTVSPropertyOp0
 70
     1
102
RTVSPropertyOp1
 70
     1
102
RTVSPropertyOp2
 70
     1
102
RTVSPropertyOp3
 70
     1
102
RTVSPropertyOp4
 70
     1
102
RTVSPropertyOp5
 70
     1
102
RTVSPropertyOp6
 70
     1
102
RTVSPropertyOp7
 70
     1
102
RTVSPropertyOp8
 70
     1
102
RTVSPropertyOp9
 70
     1
102
RTVSPropertyOp10
 70
     1
102
RTVSPropertyOp11
 70
     1
102
RTVSPropertyOp12
 70
     1
102
RTVSPropertyOp13
 70
     1
102
RTVSPropertyOp14
 70
     1
102
RTVSPropertyOp15
 70
     1
102
RTVSPropertyOp16
 70
     1
102
RTVSPropertyOp17
 70
     1
102
RTVSPropertyOp18
 70
     1
102
RTVSPropertyOp19
 70
     1
102
RTVSPropertyOp20
 70
     1
102
RTVSPropertyOp21
 70
     1
102
RTVSPropertyOp22
 70
     1
102
RTVSPropertyOp23
 70
     1
102
RTVSPropertyOp24
 70
     1
102
RTVSPropertyOp25
 70
     1
102
RTVSPropertyOp26
 70
     1
102
RTVSPropertyOp27
 70
     1
102
RTVSPropertyOp28
 70
     1
102
RTVSPropertyOp29
 70
     1
102
RTVSPropertyOp30
 70
     1
102
RTVSPropertyOp31
 70
     1
102
RTVSPropertyOp32
 70
     1
  0
XRECORD
  5
C2
102
{ACAD_REACTORS
330
C1
102
}
330
C1
100
AcDbXrecord
280
     1
102
RTVSPropertyOp0
 70
     1
102
RTVSPropertyOp1
 70
     1
102
RTVSPropertyOp2
 70
     1
102
RTVSPropertyOp3
 70
     1
102
RTVSPropertyOp4
 70
     1
102
RTVSPropertyOp5
 70
     1
102
RTVSPropertyOp6
 70
     1
102
RTVSPropertyOp7
 70
     1
102
RTVSPropertyOp8
 70
     1
102
RTVSPropertyOp9
 70
     1
102
RTVSPropertyOp10
 70
     1
102
RTVSPropertyOp11
 70
     1
102
RTVSPropertyOp12
 70
     1
102
RTVSPropertyOp13
 70
     1
102
RTVSPropertyOp14
 70
     1
102
RTVSPropertyOp15
 70
     1
102
RTVSPropertyOp16
 70
     1
102
RTVSPropertyOp17
 70
     1
102
RTVSPropertyOp18
 70
     1
102
RTVSPropertyOp19
 70
     1
102
RTVSPropertyOp20
 70
     1
102
RTVSPropertyOp21
 70
     1
102
RTVSPropertyOp22
 70
     1
102
RTVSPropertyOp23
 70
     1
102
RTVSPropertyOp24
 70
     1
102
RTVSPropertyOp25
 70
     1
102
RTVSPropertyOp26
 70
     1
102
RTVSPropertyOp27
 70
     1
102
RTVSPropertyOp28
 70
     1
102
RTVSPropertyOp29
 70
     1
102
RTVSPropertyOp30
 70
     1
102
RTVSPropertyOp31
 70
     1
102
RTVSPropertyOp32
 70
     1
  0
XRECORD
  5
A6
102
{ACAD_REACTORS
330
A5
102
}
330
A5
100
AcDbXrecord
280
     1
102
RTVSPropertyOp0
 70
     1
102
RTVSPropertyOp1
 70
     1
102
RTVSPropertyOp2
 70
     1
102
RTVSPropertyOp3
 70
     1
102
RTVSPropertyOp4
 70
     1
102
RTVSPropertyOp5
 70
     1
102
RTVSPropertyOp6
 70
     1
102
RTVSPropertyOp7
 70
     1
102
RTVSPropertyOp8
 70
     1
102
RTVSPropertyOp9
 70
     1
102
RTVSPropertyOp10
 70
     1
102
RTVSPropertyOp11
 70
     1
102
RTVSPropertyOp12
 70
     1
102
RTVSPropertyOp13
 70
     1
102
RTVSPropertyOp14
 70
     1
102
RTVSPropertyOp15
 70
     1
102
RTVSPropertyOp16
 70
     1
102
RTVSPropertyOp17
 70
     1
102
RTVSPropertyOp18
 70
     1
102
RTVSPropertyOp19
 70
     1
102
RTVSPropertyOp20
 70
     1
102
RTVSPropertyOp21
 70
     1
102
RTVSPropertyOp22
 70
     1
102
RTVSPropertyOp23
 70
     1
102
RTVSPropertyOp24
 70
     1
102
RTVSPropertyOp25
 70
     1
102
RTVSPropertyOp26
 70
     1
102
RTVSPropertyOp27
 70
     1
102
RTVSPropertyOp28
 70
     1
102
RTVSPropertyOp29
 70
     1
102
RTVSPropertyOp30
 70
     1
102
RTVSPropertyOp31
 70
     1
102
RTVSPropertyOp32
 70
     1
  0
XRECORD
  5
A8
102
{ACAD_REACTORS
330
A7
102
}
330
A7
100
AcDbXrecord
280
     1
102
RTVSPropertyOp0
 70
     1
102
RTVSPropertyOp1
 70
     1
102
RTVSPropertyOp2
 70
     1
102
RTVSPropertyOp3
 70
     1
102
RTVSPropertyOp4
 70
     1
102
RTVSPropertyOp5
 70
     1
102
RTVSPropertyOp6
 70
     1
102
RTVSPropertyOp7
 70
     1
102
RTVSPropertyOp8
 70
     1
102
RTVSPropertyOp9
 70
     1
102
RTVSPropertyOp10
 70
     1
102
RTVSPropertyOp11
 70
     1
102
RTVSPropertyOp12
 70
     1
102
RTVSPropertyOp13
 70
     1
102
RTVSPropertyOp14
 70
     1
102
RTVSPropertyOp15
 70
     1
102
RTVSPropertyOp16
 70
     1
102
RTVSPropertyOp17
 70
     1
102
RTVSPropertyOp18
 70
     1
102
RTVSPropertyOp19
 70
     1
102
RTVSPropertyOp20
 70
     1
102
RTVSPropertyOp21
 70
     1
102
RTVSPropertyOp22
 70
     1
102
RTVSPropertyOp23
 70
     1
102
RTVSPropertyOp24
 70
     1
102
RTVSPropertyOp25
 70
     1
102
RTVSPropertyOp26
 70
     1
102
RTVSPropertyOp27
 70
     1
102
RTVSPropertyOp28
 70
     1
102
RTVSPropertyOp29
 70
     1
102
RTVSPropertyOp30
 70
     1
102
RTVSPropertyOp31
 70
     1
102
RTVSPropertyOp32
 70
     1
  0
XRECORD
  5
AA
102
{ACAD_REACTORS
330
A9
102
}
330
A9
100
AcDbXrecord
280
     1
102
RTVSPropertyOp0
 70
     1
102
RTVSPropertyOp1
 70
     1
102
RTVSPropertyOp2
 70
     1
102
RTVSPropertyOp3
 70
     1
102
RTVSPropertyOp4
 70
     1
102
RTVSPropertyOp5
 70
     1
102
RTVSPropertyOp6
 70
     1
102
RTVSPropertyOp7
 70
     1
102
RTVSPropertyOp8
 70
     1
102
RTVSPropertyOp9
 70
     1
102
RTVSPropertyOp10
 70
     1
102
RTVSPropertyOp11
 70
     1
102
RTVSPropertyOp12
 70
     1
102
RTVSPropertyOp13
 70
     1
102
RTVSPropertyOp14
 70
     1
102
RTVSPropertyOp15
 70
     1
102
RTVSPropertyOp16
 70
     1
102
RTVSPropertyOp17
 70
     1
102
RTVSPropertyOp18
 70
     1
102
RTVSPropertyOp19
 70
     1
102
RTVSPropertyOp20
 70
     1
102
RTVSPropertyOp21
 70
     1
102
RTVSPropertyOp22
 70
     1
102
RTVSPropertyOp23
 70
     1
102
RTVSPropertyOp24
 70
     1
102
RTVSPropertyOp25
 70
     1
102
RTVSPropertyOp26
 70
     1
102
RTVSPropertyOp27
 70
     1
102
RTVSPropertyOp28
 70
     1
102
RTVSPropertyOp29
 70
     1
102
RTVSPropertyOp30
 70
     1
102
RTVSPropertyOp31
 70
     1
102
RTVSPropertyOp32
 70
     1
  0
XRECORD
  5
AC
102
{ACAD_REACTORS
330
AB
102
}
330
AB
100
AcDbXrecord
280
     1
102
RTVSPropertyOp0
 70
     1
102
RTVSPropertyOp1
 70
     1
102
RTVSPropertyOp2
 70
     1
102
RTVSPropertyOp3
 70
     1
102
RTVSPropertyOp4
 70
     1
102
RTVSPropertyOp5
 70
     1
102
RTVSPropertyOp6
 70
     1
102
RTVSPropertyOp7
 70
     1
102
RTVSPropertyOp8
 70
     1
102
RTVSPropertyOp9
 70
     1
102
RTVSPropertyOp10
 70
     1
102
RTVSPropertyOp11
 70
     1
102
RTVSPropertyOp12
 70
     1
102
RTVSPropertyOp13
 70
     1
102
RTVSPropertyOp14
 70
     1
102
RTVSPropertyOp15
 70
     1
102
RTVSPropertyOp16
 70
     1
102
RTVSPropertyOp17
 70
     1
102
RTVSPropertyOp18
 70
     1
102
RTVSPropertyOp19
 70
     1
102
RTVSPropertyOp20
 70
     1
102
RTVSPropertyOp21
 70
     1
102
RTVSPropertyOp22
 70
     1
102
RTVSPropertyOp23
 70
     1
102
RTVSPropertyOp24
 70
     1
102
RTVSPropertyOp25
 70
     1
102
RTVSPropertyOp26
 70
     1
102
RTVSPropertyOp27
 70
     1
102
RTVSPropertyOp28
 70
     1
102
RTVSPropertyOp29
 70
     1
102
RTVSPropertyOp30
 70
     1
102
RTVSPropertyOp31
 70
     1
102
RTVSPropertyOp32
 70
     1
  0
XRECORD
  5
C0
102
{ACAD_REACTORS
330
BF
102
}
330
BF
100
AcDbXrecord
280
     1
102
RTVSPropertyOp0
 70
     1
102
RTVSPropertyOp1
 70
     1
102
RTVSPropertyOp2
 70
     1
102
RTVSPropertyOp3
 70
     1
102
RTVSPropertyOp4
 70
     1
102
RTVSPropertyOp5
 70
     1
102
RTVSPropertyOp6
 70
     1
102
RTVSPropertyOp7
 70
     1
102
RTVSPropertyOp8
 70
     1
102
RTVSPropertyOp9
 70
     1
102
RTVSPropertyOp10
 70
     1
102
RTVSPropertyOp11
 70
     1
102
RTVSPropertyOp12
 70
     1
102
RTVSPropertyOp13
 70
     1
102
RTVSPropertyOp14
 70
     1
102
RTVSPropertyOp15
 70
     1
102
RTVSPropertyOp16
 70
     1
102
RTVSPropertyOp17
 70
     1
102
RTVSPropertyOp18
 70
     1
102
RTVSPropertyOp19
 70
     1
102
RTVSPropertyOp20
 70
     1
102
RTVSPropertyOp21
 70
     1
102
RTVSPropertyOp22
 70
     1
102
RTVSPropertyOp23
 70
     1
102
RTVSPropertyOp24
 70
     1
102
RTVSPropertyOp25
 70
     1
102
RTVSPropertyOp26
 70
     1
102
RTVSPropertyOp27
 70
     1
102
RTVSPropertyOp28
 70
     1
102
RTVSPropertyOp29
 70
     1
102
RTVSPropertyOp30
 70
     1
102
RTVSPropertyOp31
 70
     1
102
RTVSPropertyOp32
 70
     1
  0
XRECORD
  5
B6
102
{ACAD_REACTORS
330
B5
102
}
330
B5
100
AcDbXrecord
280
     1
102
RTVSPropertyOp0
 70
     1
102
RTVSPropertyOp1
 70
     1
102
RTVSPropertyOp2
 70
     1
102
RTVSPropertyOp3
 70
     1
102
RTVSPropertyOp4
 70
     1
102
RTVSPropertyOp5
 70
     1
102
RTVSPropertyOp6
 70
     1
102
RTVSPropertyOp7
 70
     1
102
RTVSPropertyOp8
 70
     1
102
RTVSPropertyOp9
 70
     1
102
RTVSPropertyOp10
 70
     1
102
RTVSPropertyOp11
 70
     1
102
RTVSPropertyOp12
 70
     1
102
RTVSPropertyOp13
 70
     1
102
RTVSPropertyOp14
 70
     1
102
RTVSPropertyOp15
 70
     1
102
RTVSPropertyOp16
 70
     1
102
RTVSPropertyOp17
 70
     1
102
RTVSPropertyOp18
 70
     1
102
RTVSPropertyOp19
 70
     1
102
RTVSPropertyOp20
 70
     1
102
RTVSPropertyOp21
 70
     1
102
RTVSPropertyOp22
 70
     1
102
RTVSPropertyOp23
 70
     1
102
RTVSPropertyOp24
 70
     1
102
RTVSPropertyOp25
 70
     1
102
RTVSPropertyOp26
 70
     1
102
RTVSPropertyOp27
 70
     1
102
RTVSPropertyOp28
 70
     1
102
RTVSPropertyOp29
 70
     1
102
RTVSPropertyOp30
 70
     1
102
RTVSPropertyOp31
 70
     1
102
RTVSPropertyOp32
 70
     1
  0
XRECORD
  5
BE
102
{ACAD_REACTORS
330
BD
102
}
330
BD
100
AcDbXrecord
280
     1
102
RTVSPropertyOp0
 70
     1
102
RTVSPropertyOp1
 70
     1
102
RTVSPropertyOp2
 70
     1
102
RTVSPropertyOp3
 70
     1
102
RTVSPropertyOp4
 70
     1
102
RTVSPropertyOp5
 70
     1
102
RTVSPropertyOp6
 70
     1
102
RTVSPropertyOp7
 70
     1
102
RTVSPropertyOp8
 70
     1
102
RTVSPropertyOp9
 70
     1
102
RTVSPropertyOp10
 70
     1
102
RTVSPropertyOp11
 70
     1
102
RTVSPropertyOp12
 70
     1
102
RTVSPropertyOp13
 70
     1
102
RTVSPropertyOp14
 70
     1
102
RTVSPropertyOp15
 70
     1
102
RTVSPropertyOp16
 70
     1
102
RTVSPropertyOp17
 70
     1
102
RTVSPropertyOp18
 70
     1
102
RTVSPropertyOp19
 70
     1
102
RTVSPropertyOp20
 70
     1
102
RTVSPropertyOp21
 70
     1
102
RTVSPropertyOp22
 70
     1
102
RTVSPropertyOp23
 70
     1
102
RTVSPropertyOp24
 70
     1
102
RTVSPropertyOp25
 70
     1
102
RTVSPropertyOp26
 70
     1
102
RTVSPropertyOp27
 70
     1
102
RTVSPropertyOp28
 70
     1
102
RTVSPropertyOp29
 70
     1
102
RTVSPropertyOp30
 70
     1
102
RTVSPropertyOp31
 70
     1
102
RTVSPropertyOp32
 70
     1
  0
ENDSEC
  0
EOF
