  0
SECTION
  2
HEADER
  9
$ACADVER
  1
AC1021
  9
$ACADMAINTVER
 70
    25
  9
$DWGCODEPAGE
  3
ANSI_1252
  9
$INSBASE
 10
0.0
 20
0.0
 30
0.0
  9
$EXTMIN
 10
39.4167
 20
-99.9052
 30
0.0
  9
$EXTMAX
 10
196.2775
 20
118.4257
 30
0.0
  9
$LIMMIN
 10
0.0
 20
0.0
  9
$LIMMAX
 10
12.0
 20
9.0
  9
$ORTHOMODE
 70
     0
  9
$REGENMODE
 70
     1
  9
$FILLMODE
 70
     1
  9
$QTEXTMODE
 70
     0
  9
$MIRRTEXT
 70
     1
  9
$LTSCALE
 40
1.0
  9
$ATTMODE
 70
     1
  9
$TEXTSIZE
 40
0.2
  9
$TRACEWID
 40
0.05
  9
$TEXTSTYLE
  7
Standard
  9
$CLAYER
  8
0
  9
$CELTYPE
  6
ByLayer
  9
$CECOLOR
 62
   256
  9
$CELTSCALE
 40
1.0
  9
$DISPSILH
 70
     0
  9
$DIMSCALE
 40
1.0
  9
$DIMASZ
 40
0.18
  9
$DIMEXO
 40
0.0625
  9
$DIMDLI
 40
0.38
  9
$DIMRND
 40
0.0
  9
$DIMDLE
 40
0.0
  9
$DIMEXE
 40
0.18
  9
$DIMTP
 40
0.0
  9
$DIMTM
 40
0.0
  9
$DIMTXT
 40
0.18
  9
$DIMCEN
 40
0.09
  9
$DIMTSZ
 40
0.0
  9
$DIMTOL
 70
     0
  9
$DIMLIM
 70
     0
  9
$DIMTIH
 70
     1
  9
$DIMTOH
 70
     1
  9
$DIMSE1
 70
     0
  9
$DIMSE2
 70
     0
  9
$DIMTAD
 70
     0
  9
$DIMZIN
 70
     0
  9
$DIMBLK
  1

  9
$DIMASO
 70
     1
  9
$DIMSHO
 70
     1
  9
$DIMPOST
  1

  9
$DIMAPOST
  1

  9
$DIMALT
 70
     0
  9
$DIMALTD
 70
     2
  9
$DIMALTF
 40
25.4
  9
$DIMLFAC
 40
1.0
  9
$DIMTOFL
 70
     0
  9
$DIMTVP
 40
0.0
  9
$DIMTIX
 70
     0
  9
$DIMSOXD
 70
     0
  9
$DIMSAH
 70
     0
  9
$DIMBLK1
  1

  9
$DIMBLK2
  1

  9
$DIMSTYLE
  2
Standard
  9
$DIMCLRD
 70
     0
  9
$DIMCLRE
 70
     0
  9
$DIMCLRT
 70
     0
  9
$DIMTFAC
 40
1.0
  9
$DIMGAP
 40
0.09
  9
$DIMJUST
 70
     0
  9
$DIMSD1
 70
     0
  9
$DIMSD2
 70
     0
  9
$DIMTOLJ
 70
     1
  9
$DIMTZIN
 70
     0
  9
$DIMALTZ
 70
     0
  9
$DIMALTTZ
 70
     0
  9
$DIMUPT
 70
     0
  9
$DIMDEC
 70
     4
  9
$DIMTDEC
 70
     4
  9
$DIMALTU
 70
     2
  9
$DIMALTTD
 70
     2
  9
$DIMTXSTY
  7
Standard
  9
$DIMAUNIT
 70
     0
  9
$DIMADEC
 70
     0
  9
$DIMALTRND
 40
0.0
  9
$DIMAZIN
 70
     0
  9
$DIMDSEP
 70
    46
  9
$DIMATFIT
 70
     3
  9
$DIMFRAC
 70
     0
  9
$DIMLDRBLK
  1

  9
$DIMLUNIT
 70
     2
  9
$DIMLWD
 70
    -2
  9
$DIMLWE
 70
    -2
  9
$DIMTMOVE
 70
     0
  9
$DIMFXL
 40
1.0
  9
$DIMFXLON
 70
     0
  9
$DIMJOGANG
 40
0.7853981633974483
  9
$DIMTFILL
 70
     0
  9
$DIMTFILLCLR
 70
     0
  9
$DIMARCSYM
 70
     0
  9
$DIMLTYPE
  6

  9
$DIMLTEX1
  6

  9
$DIMLTEX2
  6

  9
$LUNITS
 70
     2
  9
$LUPREC
 70
     4
  9
$SKETCHINC
 40
0.1
  9
$FILLETRAD
 40
0.5
  9
$AUNITS
 70
     0
  9
$AUPREC
 70
     0
  9
$MENU
  1
.
  9
$ELEVATION
 40
0.0
  9
$PELEVATION
 40
0.0
  9
$THICKNESS
 40
0.0
  9
$LIMCHECK
 70
     0
  9
$CHAMFERA
 40
0.5
  9
$CHAMFERB
 40
0.5
  9
$CHAMFERC
 40
1.0
  9
$CHAMFERD
 40
0.0
  9
$SKPOLY
 70
     0
  9
$TDCREATE
 40
2458492.68715412
  9
$TDUCREATE
 40
2458492.68715412
  9
$TDUPDATE
 40
2458492.687154271
  9
$TDUUPDATE
 40
2458492.687154271
  9
$TDINDWG
 40
0.0000000116
  9
$TDUSRTIMER
 40
0.0000000116
  9
$USRTIMER
 70
     1
  9
$ANGBASE
 50
0.0
  9
$ANGDIR
 70
     0
  9
$PDMODE
 70
     0
  9
$PDSIZE
 40
0.0
  9
$PLINEWID
 40
0.0
  9
$SPLFRAME
 70
     0
  9
$SPLINETYPE
 70
     6
  9
$SPLINESEGS
 70
     8
  9
$HANDSEED
  5
9D
  9
$SURFTAB1
 70
     6
  9
$SURFTAB2
 70
     6
  9
$SURFTYPE
 70
     6
  9
$SURFU
 70
     6
  9
$SURFV
 70
     6
  9
$UCSBASE
  2

  9
$UCSNAME
  2

  9
$UCSORG
 10
0.0
 20
0.0
 30
0.0
  9
$UCSXDIR
 10
1.0
 20
0.0
 30
0.0
  9
$UCSYDIR
 10
0.0
 20
1.0
 30
0.0
  9
$UCSORTHOREF
  2

  9
$UCSORTHOVIEW
 70
     0
  9
$UCSORGTOP
 10
0.0
 20
0.0
 30
0.0
  9
$UCSORGBOTTOM
 10
0.0
 20
0.0
 30
0.0
  9
$UCSORGLEFT
 10
0.0
 20
0.0
 30
0.0
  9
$UCSORGRIGHT
 10
0.0
 20
0.0
 30
0.0
  9
$UCSORGFRONT
 10
0.0
 20
0.0
 30
0.0
  9
$UCSORGBACK
 10
0.0
 20
0.0
 30
0.0
  9
$PUCSBASE
  2

  9
$PUCSNAME
  2

  9
$PUCSORG
 10
0.0
 20
0.0
 30
0.0
  9
$PUCSXDIR
 10
1.0
 20
0.0
 30
0.0
  9
$PUCSYDIR
 10
0.0
 20
1.0
 30
0.0
  9
$PUCSORTHOREF
  2

  9
$PUCSORTHOVIEW
 70
     0
  9
$PUCSORGTOP
 10
0.0
 20
0.0
 30
0.0
  9
$PUCSORGBOTTOM
 10
0.0
 20
0.0
 30
0.0
  9
$PUCSORGLEFT
 10
0.0
 20
0.0
 30
0.0
  9
$PUCSORGRIGHT
 10
0.0
 20
0.0
 30
0.0
  9
$PUCSORGFRONT
 10
0.0
 20
0.0
 30
0.0
  9
$PUCSORGBACK
 10
0.0
 20
0.0
 30
0.0
  9
$USERI1
 70
     0
  9
$USERI2
 70
     0
  9
$USERI3
 70
     0
  9
$USERI4
 70
     0
  9
$USERI5
 70
     0
  9
$USERR1
 40
0.0
  9
$USERR2
 40
0.0
  9
$USERR3
 40
0.0
  9
$USERR4
 40
0.0
  9
$USERR5
 40
0.0
  9
$WORLDVIEW
 70
     1
  9
$SHADEDGE
 70
     3
  9
$SHADEDIF
 70
    70
  9
$TILEMODE
 70
     1
  9
$MAXACTVP
 70
    64
  9
$PINSBASE
 10
0.0
 20
0.0
 30
0.0
  9
$PLIMCHECK
 70
     0
  9
$PEXTMIN
 10
1.000000000000000E+20
 20
1.000000000000000E+20
 30
1.000000000000000E+20
  9
$PEXTMAX
 10
-1.000000000000000E+20
 20
-1.000000000000000E+20
 30
-1.000000000000000E+20
  9
$PLIMMIN
 10
0.0
 20
0.0
  9
$PLIMMAX
 10
12.0
 20
9.0
  9
$UNITMODE
 70
     0
  9
$VISRETAIN
 70
     1
  9
$PLINEGEN
 70
     0
  9
$PSLTSCALE
 70
     1
  9
$TREEDEPTH
 70
  3020
  9
$CMLSTYLE
  2
Standard
  9
$CMLJUST
 70
     0
  9
$CMLSCALE
 40
1.0
  9
$PROXYGRAPHICS
 70
     1
  9
$MEASUREMENT
 70
     0
  9
$CELWEIGHT
370
    -1
  9
$ENDCAPS
280
     0
  9
$JOINSTYLE
280
     0
  9
$LWDISPLAY
290
     0
  9
$INSUNITS
 70
     4
  9
$HYPERLINKBASE
  1

  9
$STYLESHEET
  1

  9
$XEDIT
290
     1
  9
$CEPSNTYPE
380
     0
  9
$PSTYLEMODE
290
     1
  9
$FINGERPRINTGUID
  2
{BF217474-5B8A-4A85-83EE-71906B579E34}
  9
$VERSIONGUID
  2
{FAEB1C32-E019-11D5-929B-00C0DF256EC4}
  9
$EXTNAMES
290
     1
  9
$PSVPSCALE
 40
0.0
  9
$OLESTARTUP
290
     0
  9
$SORTENTS
280
   127
  9
$INDEXCTL
280
     0
  9
$HIDETEXT
280
     1
  9
$XCLIPFRAME
290
     0
  9
$HALOGAP
280
     0
  9
$OBSCOLOR
 70
   257
  9
$OBSLTYPE
280
     0
  9
$INTERSECTIONDISPLAY
280
     0
  9
$INTERSECTIONCOLOR
 70
   257
  9
$DIMASSOC
280
     2
  9
$PROJECTNAME
  1

  9
$CAMERADISPLAY
290
     0
  9
$LENSLENGTH
 40
50.0
  9
$CAMERAHEIGHT
 40
0.0
  9
$STEPSPERSEC
 40
2.0
  9
$STEPSIZE
 40
6.0
  9
$3DDWFPREC
 40
2.0
  9
$PSOLWIDTH
 40
0.25
  9
$PSOLHEIGHT
 40
4.0
  9
$LOFTANG1
 40
1.570796326794897
  9
$LOFTANG2
 40
1.570796326794897
  9
$LOFTMAG1
 40
0.0
  9
$LOFTMAG2
 40
0.0
  9
$LOFTPARAM
 70
     7
  9
$LOFTNORMALS
280
     1
  9
$LATITUDE
 40
37.795
  9
$LONGITUDE
 40
-122.394
  9
$NORTHDIRECTION
 40
0.0
  9
$TIMEZONE
 70
 -8000
  9
$LIGHTGLYPHDISPLAY
280
     1
  9
$TILEMODELIGHTSYNCH
280
     1
  9
$SOLIDHIST
280
     1
  9
$SHOWHIST
280
     1
  9
$DWFFRAME
280
     2
  9
$DGNFRAME
280
     2
  9
$REALWORLDSCALE
290
     1
  9
$INTERFERECOLOR
 62
   256
  9
$CSHADOW
280
     0
  9
$SHADOWPLANELOCATION
 40
0.0
  0
ENDSEC
  0
SECTION
  2
CLASSES
  0
CLASS
  1
ACDBDICTIONARYWDFLT
  2
AcDbDictionaryWithDefault
  3
ObjectDBX Classes
 90
        0
 91
        4
280
     0
281
     0
  0
CLASS
  1
VISUALSTYLE
  2
AcDbVisualStyle
  3
ObjectDBX Classes
 90
     4095
 91
        4
280
     0
281
     0
  0
CLASS
  1
MATERIAL
  2
AcDbMaterial
  3
ObjectDBX Classes
 90
     1153
 91
        4
280
     0
281
     0
  0
ENDSEC
  0
SECTION
  2
TABLES
  0
TABLE
  2
VPORT
  5
8
330
0
100
AcDbSymbolTable
 70
     1
  0
VPORT
  5
29
330
8
100
AcDbSymbolTableRecord
100
AcDbViewportTableRecord
  2
*Active
 70
     0
 10
0.0
 20
0.0
 11
1.0
 21
1.0
 12
10.42990654205607
 22
4.5
 13
0.0
 23
0.0
 14
0.5
 24
0.5
 15
0.5
 25
0.5
 16
0.0
 26
0.0
 36
1.0
 17
0.0
 27
0.0
 37
0.0
 40
9.0
 41
1.972972972850329
 42
50.0
 43
0.0
 44
0.0
 50
0.0
 51
0.0
 71
     0
 72
   100
 73
     1
 74
     3
 75
     0
 76
     0
 77
     0
 78
     0
281
     0
 65
     1
110
0.0
120
0.0
130
0.0
111
1.0
121
0.0
131
0.0
112
0.0
122
1.0
132
0.0
 79
     0
146
0.0
 60
     3
 61
     5
292
     1
282
     1
141
0.0
142
0.0
 63
   250
  0
ENDTAB
  0
TABLE
  2
LTYPE
  5
5
330
0
100
AcDbSymbolTable
 70
     1
  0
LTYPE
  5
14
330
5
100
AcDbSymbolTableRecord
100
AcDbLinetypeTableRecord
  2
ByBlock
 70
     0
  3

 72
    65
 73
     0
 40
0.0
  0
LTYPE
  5
15
330
5
100
AcDbSymbolTableRecord
100
AcDbLinetypeTableRecord
  2
ByLayer
 70
     0
  3

 72
    65
 73
     0
 40
0.0
  0
LTYPE
  5
16
330
5
100
AcDbSymbolTableRecord
100
AcDbLinetypeTableRecord
  2
Continuous
 70
     0
  3
Solid line
 72
    65
 73
     0
 40
0.0
  0
ENDTAB
  0
TABLE
  2
LAYER
  5
2
330
0
100
AcDbSymbolTable
 70
     2
  0
LAYER
  5
10
330
2
100
AcDbSymbolTableRecord
100
AcDbLayerTableRecord
  2
0
 70
     0
 62
     7
  6
Continuous
370
    -3
390
F
347
3E
  0
LAYER
  5
40
330
2
100
AcDbSymbolTableRecord
100
AcDbLayerTableRecord
  2
layer 1
 70
     0
 62
     7
  6
Continuous
370
    -3
390
F
347
3E
  0
ENDTAB
  0
TABLE
  2
STYLE
  5
3
330
0
100
AcDbSymbolTable
 70
     1
  0
STYLE
  5
11
330
3
100
AcDbSymbolTableRecord
100
AcDbTextStyleTableRecord
  2
Standard
 70
     0
 40
0.0
 41
1.0
 50
0.0
 71
     0
 42
0.2
  3
txt
  4

  0
ENDTAB
  0
TABLE
  2
VIEW
  5
6
330
0
100
AcDbSymbolTable
 70
     0
  0
ENDTAB
  0
TABLE
  2
UCS
  5
7
330
0
100
AcDbSymbolTable
 70
     0
  0
ENDTAB
  0
TABLE
  2
APPID
  5
9
330
0
100
AcDbSymbolTable
 70
     2
  0
APPID
  5
12
330
9
100
AcDbSymbolTableRecord
100
AcDbRegAppTableRecord
  2
ACAD
 70
     0
  0
APPID
  5
3F
330
9
100
AcDbSymbolTableRecord
100
AcDbRegAppTableRecord
  2
ODA
 70
     0
  0
ENDTAB
  0
TABLE
  2
DIMSTYLE
  5
A
330
0
100
AcDbSymbolTable
 70
     1
100
AcDbDimStyleTable
  0
DIMSTYLE
105
27
330
A
100
AcDbSymbolTableRecord
100
AcDbDimStyleTableRecord
  2
Standard
 70
     0
178
     0
340
11
  0
ENDTAB
  0
TABLE
  2
BLOCK_RECORD
  5
1
330
0
100
AcDbSymbolTable
 70
     1
  0
BLOCK_RECORD
  5
1F
330
1
100
AcDbSymbolTableRecord
100
AcDbBlockTableRecord
  2
*Model_Space
340
22
 70
     0
280
     1
281
     0
  0
BLOCK_RECORD
  5
1B
330
1
100
AcDbSymbolTableRecord
100
AcDbBlockTableRecord
  2
*Paper_Space
340
1E
 70
     0
280
     1
281
     0
  0
BLOCK_RECORD
  5
23
330
1
100
AcDbSymbolTableRecord
100
AcDbBlockTableRecord
  2
*Paper_Space0
340
26
 70
     0
280
     1
281
     0
  0
ENDTAB
  0
ENDSEC
  0
SECTION
  2
BLOCKS
  0
BLOCK
  5
20
330
1F
100
AcDbEntity
  8
0
100
AcDbBlockBegin
  2
*Model_Space
 70
     0
 10
0.0
 20
0.0
 30
0.0
  3
*Model_Space
  1

  0
ENDBLK
  5
21
330
1F
100
AcDbEntity
  8
0
100
AcDbBlockEnd
  0
BLOCK
  5
1C
330
1B
100
AcDbEntity
 67
     1
  8
0
100
AcDbBlockBegin
  2
*Paper_Space
 70
     0
 10
0.0
 20
0.0
 30
0.0
  3
*Paper_Space
  1

  0
ENDBLK
  5
1D
330
1B
100
AcDbEntity
 67
     1
  8
0
100
AcDbBlockEnd
  0
BLOCK
  5
24
330
23
100
AcDbEntity
  8
0
100
AcDbBlockBegin
  2
*Paper_Space0
 70
     0
 10
0.0
 20
0.0
 30
0.0
  3
*Paper_Space0
  1

  0
ENDBLK
  5
25
330
23
100
AcDbEntity
  8
0
100
AcDbBlockEnd
  0
ENDSEC
  0
SECTION
  2
ENTITIES
  0
SPLINE
  5
41
330
1F
100
AcDbEntity
  8
layer 1
 62
   250
370
     9
100
AcDbSpline
210
0.0
220
0.0
230
1.0
 70
    11
 71
     3
 72
    24
 73
    20
 74
     0
 42
0.0000000001
 43
0.0000000001
 12
1.0
 22
0.0
 32
0.0
 13
1.0
 23
0.0
 33
0.0
 40
0.0
 40
0.0
 40
0.0
 40
0.0
 40
0.1666666666666667
 40
0.1666666666666667
 40
0.1666666666666667
 40
0.1666666666666667
 40
0.3333333333333333
 40
0.3333333333333333
 40
0.3333333333333333
 40
0.3333333333333333
 40
0.5
 40
0.5
 40
0.5
 40
0.5
 40
0.6666666666666666
 40
0.6666666666666666
 40
0.6666666666666666
 40
0.6666666666666666
 40
1.0
 40
1.0
 40
1.0
 40
1.0
 10
39.4548
 20
9.2602
 30
0.0
 10
39.4548
 20
9.2602
 30
0.0
 10
39.4548
 20
118.3876
 30
0.0
 10
39.4548
 20
118.3876
 30
0.0
 10
39.4548
 20
118.3876
 30
0.0
 10
39.4548
 20
118.3876
 30
0.0
 10
196.2394
 20
118.3876
 30
0.0
 10
196.2394
 20
118.3876
 30
0.0
 10
196.2394
 20
118.3876
 30
0.0
 10
196.2394
 20
118.3876
 30
0.0
 10
196.2394
 20
-99.8671
 30
0.0
 10
196.2394
 20
-99.8671
 30
0.0
 10
196.2394
 20
-99.8671
 30
0.0
 10
196.2394
 20
-99.8671
 30
0.0
 10
39.4548
 20
-99.8671
 30
0.0
 10
39.4548
 20
-99.8671
 30
0.0
 10
39.4548
 20
-99.8671
 30
0.0
 10
39.4548
 20
-99.8671
 30
0.0
 10
39.4548
 20
9.2602
 30
0.0
 10
39.4548
 20
9.2602
 30
0.0
  0
SPLINE
  5
42
330
1F
100
AcDbEntity
  8
layer 1
 62
     7
370
     9
100
AcDbSpline
210
0.0
220
0.0
230
1.0
 70
    11
 71
     3
 72
    12
 73
     8
 74
     0
 42
0.0000000001
 43
0.0000000001
 12
1.0
 22
0.0
 32
0.0
 13
1.0
 23
0.0
 33
0.0
 40
0.0
 40
0.0
 40
0.0
 40
0.0
 40
0.3333333333333333
 40
0.3333333333333333
 40
0.3333333333333333
 40
0.3333333333333333
 40
1.0
 40
1.0
 40
1.0
 40
1.0
 10
56.169
 20
-84.5627
 30
0.0
 10
56.169
 20
-84.5627
 30
0.0
 10
75.2298
 20
-84.5627
 30
0.0
 10
75.2298
 20
-84.5627
 30
0.0
 10
75.2298
 20
-84.5627
 30
0.0
 10
69.1622
 20
-81.8661
 30
0.0
 10
62.2366
 20
-81.8661
 30
0.0
 10
56.169
 20
-84.5627
 30
0.0
  0
SPLINE
  5
43
330
1F
100
AcDbEntity
  8
layer 1
 62
     7
370
     9
100
AcDbSpline
210
0.0
220
0.0
230
1.0
 70
    11
 71
     3
 72
    16
 73
    12
 74
     0
 42
0.0000000001
 43
0.0000000001
 12
1.0
 22
0.0
 32
0.0
 13
1.0
 23
0.0
 33
0.0
 40
0.0
 40
0.0
 40
0.0
 40
0.0
 40
0.25
 40
0.25
 40
0.25
 40
0.25
 40
0.5
 40
0.5
 40
0.5
 40
0.5
 40
1.0
 40
1.0
 40
1.0
 40
1.0
 10
103.9983
 20
-80.3739
 30
0.0
 10
101.5547
 20
-82.1268
 30
0.0
 10
98.8822
 20
-83.5364
 30
0.0
 10
96.0551
 20
-84.5627
 30
0.0
 10
96.0551
 20
-84.5627
 30
0.0
 10
96.0551
 20
-84.5627
 30
0.0
 10
108.9133
 20
-84.5627
 30
0.0
 10
108.9133
 20
-84.5627
 30
0.0
 10
108.9133
 20
-84.5627
 30
0.0
 10
107.0493
 20
-83.4555
 30
0.0
 10
105.3867
 20
-82.0389
 30
0.0
 10
103.9983
 20
-80.3739
 30
0.0
  0
SPLINE
  5
44
330
1F
100
AcDbEntity
  8
layer 1
 62
     7
370
     9
100
AcDbSpline
210
0.0
220
0.0
230
1.0
 70
    11
 71
     3
 72
    20
 73
    16
 74
     0
 42
0.0000000001
 43
0.0000000001
 12
1.0
 22
0.0
 32
0.0
 13
1.0
 23
0.0
 33
0.0
 40
0.0
 40
0.0
 40
0.0
 40
0.0
 40
0.2
 40
0.2
 40
0.2
 40
0.2
 40
0.4
 40
0.4
 40
0.4
 40
0.4
 40
0.6
 40
0.6
 40
0.6
 40
0.6
 40
1.0
 40
1.0
 40
1.0
 40
1.0
 10
117.847
 20
-83.9642
 30
0.0
 10
121.2061
 20
-81.4689
 30
0.0
 10
123.8939
 20
-78.1789
 30
0.0
 10
125.6695
 20
-74.3895
 30
0.0
 10
125.6695
 20
-74.3895
 30
0.0
 10
122.2195
 20
-69.7653
 30
0.0
 10
119.5759
 20
-64.5925
 30
0.0
 10
117.847
 20
-59.0886
 30
0.0
 10
117.847
 20
-59.0886
 30
0.0
 10
116.1189
 20
-64.5925
 30
0.0
 10
113.4745
 20
-69.7653
 30
0.0
 10
110.0251
 20
-74.3895
 30
0.0
 10
110.0251
 20
-74.3895
 30
0.0
 10
111.8001
 20
-78.1789
 30
0.0
 10
114.4879
 20
-81.4689
 30
0.0
 10
117.847
 20
-83.9642
 30
0.0
  0
SPLINE
  5
45
330
1F
100
AcDbEntity
  8
layer 1
 62
     7
370
     9
100
AcDbSpline
210
0.0
220
0.0
230
1.0
 70
    11
 71
     3
 72
    20
 73
    16
 74
     0
 42
0.0000000001
 43
0.0000000001
 12
1.0
 22
0.0
 32
0.0
 13
1.0
 23
0.0
 33
0.0
 40
0.0
 40
0.0
 40
0.0
 40
0.0
 40
0.2
 40
0.2
 40
0.2
 40
0.2
 40
0.4
 40
0.4
 40
0.4
 40
0.4
 40
0.6
 40
0.6
 40
0.6
 40
0.6
 40
1.0
 40
1.0
 40
1.0
 40
1.0
 10
117.847
 20
-19.5849
 30
0.0
 10
118.1718
 20
-18.5075
 30
0.0
 10
118.6011
 20
-17.4646
 30
0.0
 10
119.1292
 20
-16.4712
 30
0.0
 10
119.1292
 20
-16.4712
 30
0.0
 10
118.5694
 20
-15.5339
 30
0.0
 10
118.138
 20
-14.5252
 30
0.0
 10
117.847
 20
-13.4726
 30
0.0
 10
117.847
 20
-13.4726
 30
0.0
 10
117.5561
 20
-14.5252
 30
0.0
 10
117.1246
 20
-15.5339
 30
0.0
 10
116.5648
 20
-16.4712
 30
0.0
 10
116.5648
 20
-16.4712
 30
0.0
 10
117.093
 20
-17.4646
 30
0.0
 10
117.5222
 20
-18.5075
 30
0.0
 10
117.847
 20
-19.5849
 30
0.0
  0
SPLINE
  5
46
330
1F
100
AcDbEntity
  8
layer 1
 62
     7
370
     9
100
AcDbSpline
210
0.0
220
0.0
230
1.0
 70
    11
 71
     3
 72
    20
 73
    16
 74
     0
 42
0.0000000001
 43
0.0000000001
 12
1.0
 22
0.0
 32
0.0
 13
1.0
 23
0.0
 33
0.0
 40
0.0
 40
0.0
 40
0.0
 40
0.0
 40
0.2
 40
0.2
 40
0.2
 40
0.2
 40
0.4
 40
0.4
 40
0.4
 40
0.4
 40
0.6
 40
0.6
 40
0.6
 40
0.6
 40
1.0
 40
1.0
 40
1.0
 40
1.0
 10
117.847
 20
-6.2279
 30
0.0
 10
118.577
 20
-0.4954
 30
0.0
 10
120.9855
 20
4.8932
 30
0.0
 10
124.7701
 20
9.2602
 30
0.0
 10
124.7701
 20
9.2602
 30
0.0
 10
120.9855
 20
13.6278
 30
0.0
 10
118.577
 20
19.0162
 30
0.0
 10
117.847
 20
24.7487
 30
0.0
 10
117.847
 20
24.7487
 30
0.0
 10
117.117
 20
19.0162
 30
0.0
 10
114.7085
 20
13.6278
 30
0.0
 10
110.9247
 20
9.2602
 30
0.0
 10
110.9247
 20
9.2602
 30
0.0
 10
114.7085
 20
4.8932
 30
0.0
 10
117.117
 20
-0.4954
 30
0.0
 10
117.847
 20
-6.2279
 30
0.0
  0
SPLINE
  5
47
330
1F
100
AcDbEntity
  8
layer 1
 62
     7
370
     9
100
AcDbSpline
210
0.0
220
0.0
230
1.0
 70
    11
 71
     3
 72
    20
 73
    16
 74
     0
 42
0.0000000001
 43
0.0000000001
 12
1.0
 22
0.0
 32
0.0
 13
1.0
 23
0.0
 33
0.0
 40
0.0
 40
0.0
 40
0.0
 40
0.0
 40
0.2
 40
0.2
 40
0.2
 40
0.2
 40
0.4
 40
0.4
 40
0.4
 40
0.4
 40
0.6
 40
0.6
 40
0.6
 40
0.6
 40
1.0
 40
1.0
 40
1.0
 40
1.0
 10
106.7336
 20
0.5834
 30
0.0
 10
102.9023
 20
4.4492
 30
0.0
 10
98.2576
 20
7.4134
 30
0.0
 10
93.1372
 20
9.2602
 30
0.0
 10
93.1372
 20
9.2602
 30
0.0
 10
98.2576
 20
11.1075
 30
0.0
 10
102.9023
 20
14.0715
 30
0.0
 10
106.7336
 20
17.9374
 30
0.0
 10
106.7336
 20
17.9374
 30
0.0
 10
108.3081
 20
15.3153
 30
0.0
 10
109.1497
 20
12.3186
 30
0.0
 10
109.1696
 20
9.2602
 30
0.0
 10
109.1696
 20
9.2602
 30
0.0
 10
109.1497
 20
6.2021
 30
0.0
 10
108.3081
 20
3.2057
 30
0.0
 10
106.7336
 20
0.5834
 30
0.0
  0
SPLINE
  5
48
330
1F
100
AcDbEntity
  8
layer 1
 62
     7
370
     9
100
AcDbSpline
210
0.0
220
0.0
230
1.0
 70
    11
 71
     3
 72
    16
 73
    12
 74
     0
 42
0.0000000001
 43
0.0000000001
 12
1.0
 22
0.0
 32
0.0
 13
1.0
 23
0.0
 33
0.0
 40
0.0
 40
0.0
 40
0.0
 40
0.0
 40
0.25
 40
0.25
 40
0.25
 40
0.25
 40
0.5
 40
0.5
 40
0.5
 40
0.5
 40
1.0
 40
1.0
 40
1.0
 40
1.0
 10
60.7393
 20
9.2602
 30
0.0
 10
58.7989
 20
10.447
 30
0.0
 10
56.9686
 20
11.8051
 30
0.0
 10
55.2694
 20
13.3175
 30
0.0
 10
55.2694
 20
13.3175
 30
0.0
 10
55.2694
 20
13.3175
 30
0.0
 10
55.2694
 20
5.2035
 30
0.0
 10
55.2694
 20
5.2035
 30
0.0
 10
55.2694
 20
5.2035
 30
0.0
 10
56.9686
 20
6.7159
 30
0.0
 10
58.7989
 20
8.0737
 30
0.0
 10
60.7393
 20
9.2602
 30
0.0
  0
SPLINE
  5
49
330
1F
100
AcDbEntity
  8
layer 1
 62
     7
370
     9
100
AcDbSpline
210
0.0
220
0.0
230
1.0
 70
    11
 71
     3
 72
    16
 73
    12
 74
     0
 42
0.0000000001
 43
0.0000000001
 12
1.0
 22
0.0
 32
0.0
 13
1.0
 23
0.0
 33
0.0
 40
0.0
 40
0.0
 40
0.0
 40
0.0
 40
0.25
 40
0.25
 40
0.25
 40
0.25
 40
0.5
 40
0.5
 40
0.5
 40
0.5
 40
1.0
 40
1.0
 40
1.0
 40
1.0
 10
60.7842
 20
3.6606
 30
0.0
 10
58.965
 20
3.9847
 30
0.0
 10
57.1161
 20
4.1094
 30
0.0
 10
55.2694
 20
4.0342
 30
0.0
 10
55.2694
 20
4.0342
 30
0.0
 10
55.2694
 20
4.0342
 30
0.0
 10
55.2694
 20
-3.2934
 30
0.0
 10
55.2694
 20
-3.2934
 30
0.0
 10
55.2694
 20
-3.2934
 30
0.0
 10
56.9094
 20
-0.8241
 30
0.0
 10
58.7534
 20
1.5016
 30
0.0
 10
60.7842
 20
3.6606
 30
0.0
  0
SPLINE
  5
4A
330
1F
100
AcDbEntity
  8
layer 1
 62
     7
370
     9
100
AcDbSpline
210
0.0
220
0.0
230
1.0
 70
    11
 71
     3
 72
    16
 73
    12
 74
     0
 42
0.0000000001
 43
0.0000000001
 12
1.0
 22
0.0
 32
0.0
 13
1.0
 23
0.0
 33
0.0
 40
0.0
 40
0.0
 40
0.0
 40
0.0
 40
0.25
 40
0.25
 40
0.25
 40
0.25
 40
0.5
 40
0.5
 40
0.5
 40
0.5
 40
1.0
 40
1.0
 40
1.0
 40
1.0
 10
55.2694
 20
-40.7641
 30
0.0
 10
55.2694
 20
-40.7641
 30
0.0
 10
55.2694
 20
-22.9427
 30
0.0
 10
55.2694
 20
-22.9427
 30
0.0
 10
55.2694
 20
-22.9427
 30
0.0
 10
57.0141
 20
-26.6417
 30
0.0
 10
58.0302
 20
-30.6411
 30
0.0
 10
58.2618
 20
-34.7231
 30
0.0
 10
58.2618
 20
-34.7231
 30
0.0
 10
57.1707
 20
-36.689
 30
0.0
 10
56.1718
 20
-38.7048
 30
0.0
 10
55.2694
 20
-40.7641
 30
0.0
  0
SPLINE
  5
4B
330
1F
100
AcDbEntity
  8
layer 1
 62
     7
370
     9
100
AcDbSpline
210
0.0
220
0.0
230
1.0
 70
    11
 71
     3
 72
    16
 73
    12
 74
     0
 42
0.0000000001
 43
0.0000000001
 12
1.0
 22
0.0
 32
0.0
 13
1.0
 23
0.0
 33
0.0
 40
0.0
 40
0.0
 40
0.0
 40
0.0
 40
0.25
 40
0.25
 40
0.25
 40
0.25
 40
0.5
 40
0.5
 40
0.5
 40
0.5
 40
1.0
 40
1.0
 40
1.0
 40
1.0
 10
55.2694
 20
-77.6547
 30
0.0
 10
55.2694
 20
-77.6547
 30
0.0
 10
55.2694
 20
-66.1082
 30
0.0
 10
55.2694
 20
-66.1082
 30
0.0
 10
55.2694
 20
-66.1082
 30
0.0
 10
56.8254
 20
-69.2163
 30
0.0
 10
58.641
 20
-72.1869
 30
0.0
 10
60.6986
 20
-74.9882
 30
0.0
 10
60.6986
 20
-74.9882
 30
0.0
 10
58.7499
 20
-75.5605
 30
0.0
 10
56.9143
 20
-76.4627
 30
0.0
 10
55.2694
 20
-77.6547
 30
0.0
  0
SPLINE
  5
4C
330
1F
100
AcDbEntity
  8
layer 1
 62
     7
370
     9
100
AcDbSpline
210
0.0
220
0.0
230
1.0
 70
    11
 71
     3
 72
    36
 73
    32
 74
     0
 42
0.0000000001
 43
0.0000000001
 12
1.0
 22
0.0
 32
0.0
 13
1.0
 23
0.0
 33
0.0
 40
0.0
 40
0.0
 40
0.0
 40
0.0
 40
0.1111111111111111
 40
0.1111111111111111
 40
0.1111111111111111
 40
0.1111111111111111
 40
0.2222222222222222
 40
0.2222222222222222
 40
0.2222222222222222
 40
0.2222222222222222
 40
0.3333333333333333
 40
0.3333333333333333
 40
0.3333333333333333
 40
0.3333333333333333
 40
0.4444444444444444
 40
0.4444444444444444
 40
0.4444444444444444
 40
0.4444444444444444
 40
0.5555555555555556
 40
0.5555555555555556
 40
0.5555555555555556
 40
0.5555555555555556
 40
0.6666666666666666
 40
0.6666666666666666
 40
0.6666666666666666
 40
0.6666666666666666
 40
0.7777777777777778
 40
0.7777777777777778
 40
0.7777777777777778
 40
0.7777777777777778
 40
1.0
 40
1.0
 40
1.0
 40
1.0
 10
108.5293
 20
-68.0636
 30
0.0
 10
107.454
 20
-62.9742
 30
0.0
 10
106.8811
 20
-57.7914
 30
0.0
 10
106.8192
 20
-52.5902
 30
0.0
 10
106.8192
 20
-52.5902
 30
0.0
 10
106.7371
 20
-47.1523
 30
0.0
 10
105.814
 20
-41.7597
 30
0.0
 10
104.0837
 20
-36.604
 30
0.0
 10
104.0837
 20
-36.604
 30
0.0
 10
108.55
 20
-33.1026
 30
0.0
 10
112.1966
 20
-28.6684
 30
0.0
 10
114.7698
 20
-23.61
 30
0.0
 10
114.7698
 20
-23.61
 30
0.0
 10
115.7603
 20
-28.0982
 30
0.0
 10
116.0202
 20
-32.7167
 30
0.0
 10
115.5391
 20
-37.2879
 30
0.0
 10
115.5391
 20
-37.2879
 30
0.0
 10
113.2113
 20
-36.8404
 30
0.0
 10
110.9454
 20
-38.3128
 30
0.0
 10
110.4098
 20
-40.622
 30
0.0
 10
110.4098
 20
-40.622
 30
0.0
 10
109.808
 20
-42.1655
 30
0.0
 10
110.0278
 20
-43.9091
 30
0.0
 10
110.9943
 20
-45.2548
 30
0.0
 10
110.9943
 20
-45.2548
 30
0.0
 10
111.9602
 20
-46.6009
 30
0.0
 10
113.5421
 20
-47.3667
 30
0.0
 10
115.1972
 20
-47.2899
 30
0.0
 10
115.1972
 20
-47.2899
 30
0.0
 10
114.5734
 20
-54.6294
 30
0.0
 10
112.2937
 20
-61.7322
 30
0.0
 10
108.5293
 20
-68.0636
 30
0.0
  0
SPLINE
  5
4D
330
1F
100
AcDbEntity
  8
layer 1
 62
     7
370
     9
100
AcDbSpline
210
0.0
220
0.0
230
1.0
 70
    11
 71
     3
 72
    20
 73
    16
 74
     0
 42
0.0000000001
 43
0.0000000001
 12
1.0
 22
0.0
 32
0.0
 13
1.0
 23
0.0
 33
0.0
 40
0.0
 40
0.0
 40
0.0
 40
0.0
 40
0.2
 40
0.2
 40
0.2
 40
0.2
 40
0.4
 40
0.4
 40
0.4
 40
0.4
 40
0.6
 40
0.6
 40
0.6
 40
0.6
 40
1.0
 40
1.0
 40
1.0
 40
1.0
 10
93.7398
 20
-23.0965
 30
0.0
 10
95.8753
 20
-24.6495
 30
0.0
 10
97.8385
 20
-26.4265
 30
0.0
 10
99.5956
 20
-28.3973
 30
0.0
 10
99.5956
 20
-28.3973
 30
0.0
 10
105.3523
 20
-25.3575
 30
0.0
 10
109.7715
 20
-20.2833
 30
0.0
 10
111.9912
 20
-14.1633
 30
0.0
 10
111.9912
 20
-14.1633
 30
0.0
 10
110.8014
 20
-11.8942
 30
0.0
 10
109.4145
 20
-9.7344
 30
0.0
 10
107.8448
 20
-7.7092
 30
0.0
 10
107.8448
 20
-7.7092
 30
0.0
 10
104.5953
 20
-14.0014
 30
0.0
 10
99.7265
 20
-19.3133
 30
0.0
 10
93.7398
 20
-23.0965
 30
0.0
  0
SPLINE
  5
4E
330
1F
100
AcDbEntity
  8
layer 1
 62
     7
370
     9
100
AcDbSpline
210
0.0
220
0.0
230
1.0
 70
    11
 71
     3
 72
    20
 73
    16
 74
     0
 42
0.0000000001
 43
0.0000000001
 12
1.0
 22
0.0
 32
0.0
 13
1.0
 23
0.0
 33
0.0
 40
0.0
 40
0.0
 40
0.0
 40
0.0
 40
0.2
 40
0.2
 40
0.2
 40
0.2
 40
0.4
 40
0.4
 40
0.4
 40
0.4
 40
0.6
 40
0.6
 40
0.6
 40
0.6
 40
1.0
 40
1.0
 40
1.0
 40
1.0
 10
62.622
 20
-37.0311
 30
0.0
 10
65.2634
 20
-31.9337
 30
0.0
 10
69.6247
 20
-27.9362
 30
0.0
 10
74.932
 20
-25.7469
 30
0.0
 10
74.932
 20
-25.7469
 30
0.0
 10
81.3918
 20
-23.3095
 30
0.0
 10
88.6703
 20
-24.6599
 30
0.0
 10
93.8252
 20
-29.2522
 30
0.0
 10
93.8252
 20
-29.2522
 30
0.0
 10
89.2749
 20
-30.8336
 30
0.0
 10
84.5282
 20
-31.7827
 30
0.0
 10
79.7194
 20
-32.0728
 30
0.0
 10
79.7194
 20
-32.0728
 30
0.0
 10
73.6492
 20
-31.9517
 30
0.0
 10
67.685
 20
-33.681
 30
0.0
 10
62.622
 20
-37.0311
 30
0.0
  0
SPLINE
  5
4F
330
1F
100
AcDbEntity
  8
layer 1
 62
     7
370
     9
100
AcDbSpline
210
0.0
220
0.0
230
1.0
 70
    11
 71
     3
 72
    32
 73
    28
 74
     0
 42
0.0000000001
 43
0.0000000001
 12
1.0
 22
0.0
 32
0.0
 13
1.0
 23
0.0
 33
0.0
 40
0.0
 40
0.0
 40
0.0
 40
0.0
 40
0.125
 40
0.125
 40
0.125
 40
0.125
 40
0.25
 40
0.25
 40
0.25
 40
0.25
 40
0.375
 40
0.375
 40
0.375
 40
0.375
 40
0.5
 40
0.5
 40
0.5
 40
0.5
 40
0.625
 40
0.625
 40
0.625
 40
0.625
 40
0.75
 40
0.75
 40
0.75
 40
0.75
 40
1.0
 40
1.0
 40
1.0
 40
1.0
 10
87.2421
 20
-39.254
 30
0.0
 10
88.1169
 20
-40.1091
 30
0.0
 10
88.8393
 20
-41.1064
 30
0.0
 10
89.3796
 20
-42.2034
 30
0.0
 10
89.3796
 20
-42.2034
 30
0.0
 10
91.0286
 20
-45.945
 30
0.0
 10
91.0444
 20
-50.2045
 30
0.0
 10
89.4224
 20
-53.9578
 30
0.0
 10
89.4224
 20
-53.9578
 30
0.0
 10
88.3381
 20
-55.5849
 30
0.0
 10
87.7177
 20
-57.4764
 30
0.0
 10
87.6274
 20
-59.4292
 30
0.0
 10
87.6274
 20
-59.4292
 30
0.0
 10
87.9184
 20
-61.7039
 30
0.0
 10
89.064
 20
-63.7825
 30
0.0
 10
90.8328
 20
-65.2424
 30
0.0
 10
90.8328
 20
-65.2424
 30
0.0
 10
93.3998
 20
-64.3996
 30
0.0
 10
95.6995
 20
-62.896
 30
0.0
 10
97.5014
 20
-60.8824
 30
0.0
 10
97.5014
 20
-60.8824
 30
0.0
 10
100.9716
 20
-53.7733
 30
0.0
 10
101.583
 20
-45.604
 30
0.0
 10
99.211
 20
-38.0572
 30
0.0
 10
99.211
 20
-38.0572
 30
0.0
 10
95.4417
 20
-39.6851
 30
0.0
 10
91.2596
 20
-40.1034
 30
0.0
 10
87.2421
 20
-39.254
 30
0.0
  0
SPLINE
  5
50
330
1F
100
AcDbEntity
  8
layer 1
 62
     7
370
     9
100
AcDbSpline
210
0.0
220
0.0
230
1.0
 70
    11
 71
     3
 72
    84
 73
    80
 74
     0
 42
0.0000000001
 43
0.0000000001
 12
1.0
 22
0.0
 32
0.0
 13
1.0
 23
0.0
 33
0.0
 40
0.0
 40
0.0
 40
0.0
 40
0.0
 40
0.0476190476190476
 40
0.0476190476190476
 40
0.0476190476190476
 40
0.0476190476190476
 40
0.0952380952380952
 40
0.0952380952380952
 40
0.0952380952380952
 40
0.0952380952380952
 40
0.1428571428571428
 40
0.1428571428571428
 40
0.1428571428571428
 40
0.1428571428571428
 40
0.1904761904761905
 40
0.1904761904761905
 40
0.1904761904761905
 40
0.1904761904761905
 40
0.2380952380952381
 40
0.2380952380952381
 40
0.2380952380952381
 40
0.2380952380952381
 40
0.2857142857142857
 40
0.2857142857142857
 40
0.2857142857142857
 40
0.2857142857142857
 40
0.3333333333333333
 40
0.3333333333333333
 40
0.3333333333333333
 40
0.3333333333333333
 40
0.3809523809523809
 40
0.3809523809523809
 40
0.3809523809523809
 40
0.3809523809523809
 40
0.4285714285714285
 40
0.4285714285714285
 40
0.4285714285714285
 40
0.4285714285714285
 40
0.4761904761904762
 40
0.4761904761904762
 40
0.4761904761904762
 40
0.4761904761904762
 40
0.5238095238095238
 40
0.5238095238095238
 40
0.5238095238095238
 40
0.5238095238095238
 40
0.5714285714285714
 40
0.5714285714285714
 40
0.5714285714285714
 40
0.5714285714285714
 40
0.6190476190476191
 40
0.6190476190476191
 40
0.6190476190476191
 40
0.6190476190476191
 40
0.6666666666666666
 40
0.6666666666666666
 40
0.6666666666666666
 40
0.6666666666666666
 40
0.7142857142857143
 40
0.7142857142857143
 40
0.7142857142857143
 40
0.7142857142857143
 40
0.7619047619047619
 40
0.7619047619047619
 40
0.7619047619047619
 40
0.7619047619047619
 40
0.8095238095238095
 40
0.8095238095238095
 40
0.8095238095238095
 40
0.8095238095238095
 40
0.8571428571428571
 40
0.8571428571428571
 40
0.8571428571428571
 40
0.8571428571428571
 40
0.9047619047619048
 40
0.9047619047619048
 40
0.9047619047619048
 40
0.9047619047619048
 40
1.0
 40
1.0
 40
1.0
 40
1.0
 10
78.5227
 20
-45.7939
 30
0.0
 10
75.9604
 20
-45.2571
 30
0.0
 10
73.292
 20
-45.9004
 30
0.0
 10
71.2558
 20
-47.5463
 30
0.0
 10
71.2558
 20
-47.5463
 30
0.0
 10
68.8472
 20
-50.8101
 30
0.0
 10
67.9738
 20
-54.9584
 30
0.0
 10
68.8625
 20
-58.9163
 30
0.0
 10
68.8625
 20
-58.9163
 30
0.0
 10
68.992
 20
-61.035
 30
0.0
 10
70.1818
 20
-62.9456
 30
0.0
 10
72.0264
 20
-63.9967
 30
0.0
 10
72.0264
 20
-63.9967
 30
0.0
 10
73.8704
 20
-65.0484
 30
0.0
 10
76.1205
 20
-65.0986
 30
0.0
 10
78.0098
 20
-64.1311
 30
0.0
 10
78.0098
 20
-64.1311
 30
0.0
 10
78.6067
 20
-66.2766
 30
0.0
 10
80.0709
 20
-68.0767
 30
0.0
 10
82.0501
 20
-69.0986
 30
0.0
 10
82.0501
 20
-69.0986
 30
0.0
 10
84.0291
 20
-70.1206
 30
0.0
 10
86.3438
 20
-70.2722
 30
0.0
 10
88.4395
 20
-69.5168
 30
0.0
 10
88.4395
 20
-69.5168
 30
0.0
 10
89.8159
 20
-71.5308
 30
0.0
 10
92.0392
 20
-72.803
 30
0.0
 10
94.4725
 20
-72.9697
 30
0.0
 10
94.4725
 20
-72.9697
 30
0.0
 10
96.9065
 20
-73.1364
 30
0.0
 10
99.2819
 20
-72.1791
 30
0.0
 10
100.9204
 20
-70.3717
 30
0.0
 10
100.9204
 20
-70.3717
 30
0.0
 10
101.4147
 20
-72.0302
 30
0.0
 10
101.9277
 20
-73.6831
 30
0.0
 10
102.459
 20
-75.3302
 30
0.0
 10
102.459
 20
-75.3302
 30
0.0
 10
95.6002
 20
-81.5658
 30
0.0
 10
85.6517
 20
-83.0356
 30
0.0
 10
77.2833
 20
-79.0487
 30
0.0
 10
77.2833
 20
-79.0487
 30
0.0
 10
78.3973
 20
-76.5036
 30
0.0
 10
78.2222
 20
-73.5782
 30
0.0
 10
76.8124
 20
-71.184
 30
0.0
 10
76.8124
 20
-71.184
 30
0.0
 10
75.598
 20
-69.838
 30
0.0
 10
73.6959
 20
-69.3499
 30
0.0
 10
71.983
 20
-69.9441
 30
0.0
 10
71.983
 20
-69.9441
 30
0.0
 10
70.1039
 20
-71.2574
 30
0.0
 10
68.8756
 20
-73.3103
 30
0.0
 10
68.6059
 20
-75.5865
 30
0.0
 10
68.6059
 20
-75.5865
 30
0.0
 10
66.3987
 20
-73.6949
 30
0.0
 10
64.4955
 20
-71.4747
 30
0.0
 10
62.9637
 20
-69.0039
 30
0.0
 10
62.9637
 20
-69.0039
 30
0.0
 10
58.437
 20
-63.0119
 30
0.0
 10
57.1873
 20
-55.1607
 30
0.0
 10
59.6296
 20
-48.0592
 30
0.0
 10
59.6296
 20
-48.0592
 30
0.0
 10
62.025
 20
-41.9836
 30
0.0
 10
67.8464
 20
-37.9509
 30
0.0
 10
74.3763
 20
-37.8436
 30
0.0
 10
74.3763
 20
-37.8436
 30
0.0
 10
77.9686
 20
-37.5296
 30
0.0
 10
81.4985
 20
-38.9228
 30
0.0
 10
83.9084
 20
-41.6051
 30
0.0
 10
83.9084
 20
-41.6051
 30
0.0
 10
85.8944
 20
-44.6059
 30
0.0
 10
86.2928
 20
-48.3861
 30
0.0
 10
84.9768
 20
-51.7353
 30
0.0
 10
84.9768
 20
-51.7353
 30
0.0
 10
83.8802
 20
-53.3387
 30
0.0
 10
81.7957
 20
-53.932
 30
0.0
 10
80.0185
 20
-53.1457
 30
0.0
 10
80.0185
 20
-53.1457
 30
0.0
 10
77.5811
 20
-51.525
 30
0.0
 10
76.9124
 20
-48.2386
 30
0.0
 10
78.5227
 20
-45.7939
 30
0.0
  0
SPLINE
  5
51
330
1F
100
AcDbEntity
  8
layer 1
 62
     7
370
     9
100
AcDbSpline
210
0.0
220
0.0
230
1.0
 70
    11
 71
     3
 72
    36
 73
    32
 74
     0
 42
0.0000000001
 43
0.0000000001
 12
1.0
 22
0.0
 32
0.0
 13
1.0
 23
0.0
 33
0.0
 40
0.0
 40
0.0
 40
0.0
 40
0.0
 40
0.1111111111111111
 40
0.1111111111111111
 40
0.1111111111111111
 40
0.1111111111111111
 40
0.2222222222222222
 40
0.2222222222222222
 40
0.2222222222222222
 40
0.2222222222222222
 40
0.3333333333333333
 40
0.3333333333333333
 40
0.3333333333333333
 40
0.3333333333333333
 40
0.4444444444444444
 40
0.4444444444444444
 40
0.4444444444444444
 40
0.4444444444444444
 40
0.5555555555555556
 40
0.5555555555555556
 40
0.5555555555555556
 40
0.5555555555555556
 40
0.6666666666666666
 40
0.6666666666666666
 40
0.6666666666666666
 40
0.6666666666666666
 40
0.7777777777777778
 40
0.7777777777777778
 40
0.7777777777777778
 40
0.7777777777777778
 40
1.0
 40
1.0
 40
1.0
 40
1.0
 10
79.5484
 20
-20.0193
 30
0.0
 10
84.5061
 20
-11.8947
 30
0.0
 10
83.9277
 20
-1.5522
 30
0.0
 10
78.0954
 20
5.9692
 30
0.0
 10
78.0954
 20
5.9692
 30
0.0
 10
80.7976
 20
5.9458
 30
0.0
 10
83.4693
 20
5.3936
 30
0.0
 10
85.9599
 20
4.3453
 30
0.0
 10
85.9599
 20
4.3453
 30
0.0
 10
87.6978
 20
3.6152
 30
0.0
 10
88.8614
 20
1.9526
 30
0.0
 10
88.9523
 20
0.0707
 30
0.0
 10
88.9523
 20
0.0707
 30
0.0
 10
88.8317
 20
-1.8988
 30
0.0
 10
87.9411
 20
-3.7406
 30
0.0
 10
86.4728
 20
-5.0586
 30
0.0
 10
86.4728
 20
-5.0586
 30
0.0
 10
88.9138
 20
-7.8023
 30
0.0
 10
93.1082
 20
-8.069
 30
0.0
 10
95.8767
 20
-5.6571
 30
0.0
 10
95.8767
 20
-5.6571
 30
0.0
 10
97.3152
 20
-3.6201
 30
0.0
 10
97.9542
 20
-1.1254
 30
0.0
 10
97.6724
 20
1.3527
 30
0.0
 10
97.6724
 20
1.3527
 30
0.0
 10
100.0649
 20
0.1623
 30
0.0
 10
102.2577
 20
-1.3956
 30
0.0
 10
104.1693
 20
-3.2637
 30
0.0
 10
104.1693
 20
-3.2637
 30
0.0
 10
98.3976
 20
-11.7824
 30
0.0
 10
89.5912
 20
-17.7761
 30
0.0
 10
79.5484
 20
-20.0193
 30
0.0
  0
SPLINE
  5
52
330
1F
100
AcDbEntity
  8
layer 1
 62
     7
370
     9
100
AcDbSpline
210
0.0
220
0.0
230
1.0
 70
    11
 71
     3
 72
    36
 73
    32
 74
     0
 42
0.0000000001
 43
0.0000000001
 12
1.0
 22
0.0
 32
0.0
 13
1.0
 23
0.0
 33
0.0
 40
0.0
 40
0.0
 40
0.0
 40
0.0
 40
0.1111111111111111
 40
0.1111111111111111
 40
0.1111111111111111
 40
0.1111111111111111
 40
0.2222222222222222
 40
0.2222222222222222
 40
0.2222222222222222
 40
0.2222222222222222
 40
0.3333333333333333
 40
0.3333333333333333
 40
0.3333333333333333
 40
0.3333333333333333
 40
0.4444444444444444
 40
0.4444444444444444
 40
0.4444444444444444
 40
0.4444444444444444
 40
0.5555555555555556
 40
0.5555555555555556
 40
0.5555555555555556
 40
0.5555555555555556
 40
0.6666666666666666
 40
0.6666666666666666
 40
0.6666666666666666
 40
0.6666666666666666
 40
0.7777777777777778
 40
0.7777777777777778
 40
0.7777777777777778
 40
0.7777777777777778
 40
1.0
 40
1.0
 40
1.0
 40
1.0
 10
66.3836
 20
2.2076
 30
0.0
 10
60.3823
 20
-1.388
 30
0.0
 10
56.8371
 20
-7.9863
 30
0.0
 10
57.1507
 20
-14.9754
 30
0.0
 10
57.1507
 20
-14.9754
 30
0.0
 10
57.589
 20
-13.3686
 30
0.0
 10
58.9257
 20
-12.165
 30
0.0
 10
60.5704
 20
-11.8975
 30
0.0
 10
60.5704
 20
-11.8975
 30
0.0
 10
62.5287
 20
-11.9541
 30
0.0
 10
64.175
 20
-13.3858
 30
0.0
 10
64.5023
 20
-15.3174
 30
0.0
 10
64.5023
 20
-15.3174
 30
0.0
 10
65.244
 20
-18.2318
 30
0.0
 10
63.5993
 20
-21.2222
 30
0.0
 10
60.7414
 20
-22.1562
 30
0.0
 10
60.7414
 20
-22.1562
 30
0.0
 10
61.1068
 20
-24.6468
 30
0.0
 10
61.2776
 20
-27.1622
 30
0.0
 10
61.2543
 20
-29.6796
 30
0.0
 10
61.2543
 20
-29.6796
 30
0.0
 10
63.7703
 20
-26.763
 30
0.0
 10
66.8922
 20
-24.4289
 30
0.0
 10
70.4011
 20
-22.8407
 30
0.0
 10
70.4011
 20
-22.8407
 30
0.0
 10
73.7815
 20
-19.2135
 30
0.0
 10
75.2986
 20
-14.2296
 30
0.0
 10
74.5135
 20
-9.3346
 30
0.0
 10
74.5135
 20
-9.3346
 30
0.0
 10
73.7284
 20
-4.439
 30
0.0
 10
70.7284
 20
-0.1802
 30
0.0
 10
66.3836
 20
2.2076
 30
0.0
  0
SPLINE
  5
53
330
1F
100
AcDbEntity
  8
layer 1
 62
     7
370
     9
100
AcDbSpline
210
0.0
220
0.0
230
1.0
 70
    11
 71
     3
 72
    12
 73
     8
 74
     0
 42
0.0000000001
 43
0.0000000001
 12
1.0
 22
0.0
 32
0.0
 13
1.0
 23
0.0
 33
0.0
 40
0.0
 40
0.0
 40
0.0
 40
0.0
 40
0.3333333333333333
 40
0.3333333333333333
 40
0.3333333333333333
 40
0.3333333333333333
 40
1.0
 40
1.0
 40
1.0
 40
1.0
 10
56.169
 20
103.0836
 30
0.0
 10
56.169
 20
103.0836
 30
0.0
 10
75.2298
 20
103.0836
 30
0.0
 10
75.2298
 20
103.0836
 30
0.0
 10
75.2298
 20
103.0836
 30
0.0
 10
69.1622
 20
100.3871
 30
0.0
 10
62.2366
 20
100.3871
 30
0.0
 10
56.169
 20
103.0836
 30
0.0
  0
SPLINE
  5
54
330
1F
100
AcDbEntity
  8
layer 1
 62
     7
370
     9
100
AcDbSpline
210
0.0
220
0.0
230
1.0
 70
    11
 71
     3
 72
    16
 73
    12
 74
     0
 42
0.0000000001
 43
0.0000000001
 12
1.0
 22
0.0
 32
0.0
 13
1.0
 23
0.0
 33
0.0
 40
0.0
 40
0.0
 40
0.0
 40
0.0
 40
0.25
 40
0.25
 40
0.25
 40
0.25
 40
0.5
 40
0.5
 40
0.5
 40
0.5
 40
1.0
 40
1.0
 40
1.0
 40
1.0
 10
103.9983
 20
98.8946
 30
0.0
 10
101.5547
 20
100.6476
 30
0.0
 10
98.8822
 20
102.0574
 30
0.0
 10
96.0551
 20
103.0836
 30
0.0
 10
96.0551
 20
103.0836
 30
0.0
 10
96.0551
 20
103.0836
 30
0.0
 10
108.9133
 20
103.0836
 30
0.0
 10
108.9133
 20
103.0836
 30
0.0
 10
108.9133
 20
103.0836
 30
0.0
 10
107.0493
 20
101.9767
 30
0.0
 10
105.3867
 20
100.56
 30
0.0
 10
103.9983
 20
98.8946
 30
0.0
  0
SPLINE
  5
55
330
1F
100
AcDbEntity
  8
layer 1
 62
     7
370
     9
100
AcDbSpline
210
0.0
220
0.0
230
1.0
 70
    11
 71
     3
 72
    20
 73
    16
 74
     0
 42
0.0000000001
 43
0.0000000001
 12
1.0
 22
0.0
 32
0.0
 13
1.0
 23
0.0
 33
0.0
 40
0.0
 40
0.0
 40
0.0
 40
0.0
 40
0.2
 40
0.2
 40
0.2
 40
0.2
 40
0.4
 40
0.4
 40
0.4
 40
0.4
 40
0.6
 40
0.6
 40
0.6
 40
0.6
 40
1.0
 40
1.0
 40
1.0
 40
1.0
 10
117.847
 20
102.4853
 30
0.0
 10
121.2061
 20
99.99
 30
0.0
 10
123.8939
 20
96.6999
 30
0.0
 10
125.6695
 20
92.9105
 30
0.0
 10
125.6695
 20
92.9105
 30
0.0
 10
122.2195
 20
88.2865
 30
0.0
 10
119.5759
 20
83.113
 30
0.0
 10
117.847
 20
77.6094
 30
0.0
 10
117.847
 20
77.6094
 30
0.0
 10
116.1189
 20
83.113
 30
0.0
 10
113.4745
 20
88.2865
 30
0.0
 10
110.0251
 20
92.9105
 30
0.0
 10
110.0251
 20
92.9105
 30
0.0
 10
111.8001
 20
96.6999
 30
0.0
 10
114.4879
 20
99.99
 30
0.0
 10
117.847
 20
102.4853
 30
0.0
  0
SPLINE
  5
56
330
1F
100
AcDbEntity
  8
layer 1
 62
     7
370
     9
100
AcDbSpline
210
0.0
220
0.0
230
1.0
 70
    11
 71
     3
 72
    20
 73
    16
 74
     0
 42
0.0000000001
 43
0.0000000001
 12
1.0
 22
0.0
 32
0.0
 13
1.0
 23
0.0
 33
0.0
 40
0.0
 40
0.0
 40
0.0
 40
0.0
 40
0.2
 40
0.2
 40
0.2
 40
0.2
 40
0.4
 40
0.4
 40
0.4
 40
0.4
 40
0.6
 40
0.6
 40
0.6
 40
0.6
 40
1.0
 40
1.0
 40
1.0
 40
1.0
 10
117.847
 20
38.1051
 30
0.0
 10
118.1718
 20
37.0284
 30
0.0
 10
118.6011
 20
35.9856
 30
0.0
 10
119.1292
 20
34.9922
 30
0.0
 10
119.1292
 20
34.9922
 30
0.0
 10
118.5694
 20
34.0546
 30
0.0
 10
118.138
 20
33.0462
 30
0.0
 10
117.847
 20
31.9935
 30
0.0
 10
117.847
 20
31.9935
 30
0.0
 10
117.5561
 20
33.0462
 30
0.0
 10
117.1246
 20
34.0546
 30
0.0
 10
116.5648
 20
34.9922
 30
0.0
 10
116.5648
 20
34.9922
 30
0.0
 10
117.093
 20
35.9856
 30
0.0
 10
117.5222
 20
37.0284
 30
0.0
 10
117.847
 20
38.1051
 30
0.0
  0
SPLINE
  5
57
330
1F
100
AcDbEntity
  8
layer 1
 62
     7
370
     9
100
AcDbSpline
210
0.0
220
0.0
230
1.0
 70
    11
 71
     3
 72
    16
 73
    12
 74
     0
 42
0.0000000001
 43
0.0000000001
 12
1.0
 22
0.0
 32
0.0
 13
1.0
 23
0.0
 33
0.0
 40
0.0
 40
0.0
 40
0.0
 40
0.0
 40
0.25
 40
0.25
 40
0.25
 40
0.25
 40
0.5
 40
0.5
 40
0.5
 40
0.5
 40
1.0
 40
1.0
 40
1.0
 40
1.0
 10
60.7842
 20
14.8596
 30
0.0
 10
58.965
 20
14.5362
 30
0.0
 10
57.1161
 20
14.4108
 30
0.0
 10
55.2694
 20
14.4866
 30
0.0
 10
55.2694
 20
14.4866
 30
0.0
 10
55.2694
 20
14.4866
 30
0.0
 10
55.2694
 20
21.8141
 30
0.0
 10
55.2694
 20
21.8141
 30
0.0
 10
55.2694
 20
21.8141
 30
0.0
 10
56.9094
 20
19.345
 30
0.0
 10
58.7534
 20
17.0186
 30
0.0
 10
60.7842
 20
14.8596
 30
0.0
  0
SPLINE
  5
58
330
1F
100
AcDbEntity
  8
layer 1
 62
     7
370
     9
100
AcDbSpline
210
0.0
220
0.0
230
1.0
 70
    11
 71
     3
 72
    16
 73
    12
 74
     0
 42
0.0000000001
 43
0.0000000001
 12
1.0
 22
0.0
 32
0.0
 13
1.0
 23
0.0
 33
0.0
 40
0.0
 40
0.0
 40
0.0
 40
0.0
 40
0.25
 40
0.25
 40
0.25
 40
0.25
 40
0.5
 40
0.5
 40
0.5
 40
0.5
 40
1.0
 40
1.0
 40
1.0
 40
1.0
 10
55.2694
 20
59.2848
 30
0.0
 10
55.2694
 20
59.2848
 30
0.0
 10
55.2694
 20
41.4642
 30
0.0
 10
55.2694
 20
41.4642
 30
0.0
 10
55.2694
 20
41.4642
 30
0.0
 10
57.0141
 20
45.1618
 30
0.0
 10
58.0302
 20
49.1613
 30
0.0
 10
58.2618
 20
53.2444
 30
0.0
 10
58.2618
 20
53.2444
 30
0.0
 10
57.1707
 20
55.2095
 30
0.0
 10
56.1718
 20
57.2259
 30
0.0
 10
55.2694
 20
59.2848
 30
0.0
  0
SPLINE
  5
59
330
1F
100
AcDbEntity
  8
layer 1
 62
     7
370
     9
100
AcDbSpline
210
0.0
220
0.0
230
1.0
 70
    11
 71
     3
 72
    16
 73
    12
 74
     0
 42
0.0000000001
 43
0.0000000001
 12
1.0
 22
0.0
 32
0.0
 13
1.0
 23
0.0
 33
0.0
 40
0.0
 40
0.0
 40
0.0
 40
0.0
 40
0.25
 40
0.25
 40
0.25
 40
0.25
 40
0.5
 40
0.5
 40
0.5
 40
0.5
 40
1.0
 40
1.0
 40
1.0
 40
1.0
 10
55.2694
 20
96.176
 30
0.0
 10
55.2694
 20
96.176
 30
0.0
 10
55.2694
 20
84.629
 30
0.0
 10
55.2694
 20
84.629
 30
0.0
 10
55.2694
 20
84.629
 30
0.0
 10
56.8254
 20
87.737
 30
0.0
 10
58.641
 20
90.7075
 30
0.0
 10
60.6986
 20
93.509
 30
0.0
 10
60.6986
 20
93.509
 30
0.0
 10
58.7499
 20
94.0817
 30
0.0
 10
56.9143
 20
94.9833
 30
0.0
 10
55.2694
 20
96.176
 30
0.0
  0
SPLINE
  5
5A
330
1F
100
AcDbEntity
  8
layer 1
 62
     7
370
     9
100
AcDbSpline
210
0.0
220
0.0
230
1.0
 70
    11
 71
     3
 72
    36
 73
    32
 74
     0
 42
0.0000000001
 43
0.0000000001
 12
1.0
 22
0.0
 32
0.0
 13
1.0
 23
0.0
 33
0.0
 40
0.0
 40
0.0
 40
0.0
 40
0.0
 40
0.1111111111111111
 40
0.1111111111111111
 40
0.1111111111111111
 40
0.1111111111111111
 40
0.2222222222222222
 40
0.2222222222222222
 40
0.2222222222222222
 40
0.2222222222222222
 40
0.3333333333333333
 40
0.3333333333333333
 40
0.3333333333333333
 40
0.3333333333333333
 40
0.4444444444444444
 40
0.4444444444444444
 40
0.4444444444444444
 40
0.4444444444444444
 40
0.5555555555555556
 40
0.5555555555555556
 40
0.5555555555555556
 40
0.5555555555555556
 40
0.6666666666666666
 40
0.6666666666666666
 40
0.6666666666666666
 40
0.6666666666666666
 40
0.7777777777777778
 40
0.7777777777777778
 40
0.7777777777777778
 40
0.7777777777777778
 40
1.0
 40
1.0
 40
1.0
 40
1.0
 10
108.5293
 20
86.5845
 30
0.0
 10
107.454
 20
81.4951
 30
0.0
 10
106.8811
 20
76.3121
 30
0.0
 10
106.8192
 20
71.1111
 30
0.0
 10
106.8192
 20
71.1111
 30
0.0
 10
106.7371
 20
65.6729
 30
0.0
 10
105.814
 20
60.2804
 30
0.0
 10
104.0837
 20
55.1247
 30
0.0
 10
104.0837
 20
55.1247
 30
0.0
 10
108.55
 20
51.6237
 30
0.0
 10
112.1966
 20
47.1885
 30
0.0
 10
114.7698
 20
42.1302
 30
0.0
 10
114.7698
 20
42.1302
 30
0.0
 10
115.7603
 20
46.6191
 30
0.0
 10
116.0202
 20
51.2376
 30
0.0
 10
115.5391
 20
55.8086
 30
0.0
 10
115.5391
 20
55.8086
 30
0.0
 10
113.2113
 20
55.3612
 30
0.0
 10
110.9454
 20
56.8337
 30
0.0
 10
110.4098
 20
59.143
 30
0.0
 10
110.4098
 20
59.143
 30
0.0
 10
109.808
 20
60.6863
 30
0.0
 10
110.0278
 20
62.4296
 30
0.0
 10
110.9943
 20
63.7759
 30
0.0
 10
110.9943
 20
63.7759
 30
0.0
 10
111.9602
 20
65.1215
 30
0.0
 10
113.5421
 20
65.8872
 30
0.0
 10
115.1972
 20
65.8108
 30
0.0
 10
115.1972
 20
65.8108
 30
0.0
 10
114.5734
 20
73.1501
 30
0.0
 10
112.2937
 20
80.2529
 30
0.0
 10
108.5293
 20
86.5845
 30
0.0
  0
SPLINE
  5
5B
330
1F
100
AcDbEntity
  8
layer 1
 62
     7
370
     9
100
AcDbSpline
210
0.0
220
0.0
230
1.0
 70
    11
 71
     3
 72
    20
 73
    16
 74
     0
 42
0.0000000001
 43
0.0000000001
 12
1.0
 22
0.0
 32
0.0
 13
1.0
 23
0.0
 33
0.0
 40
0.0
 40
0.0
 40
0.0
 40
0.0
 40
0.2
 40
0.2
 40
0.2
 40
0.2
 40
0.4
 40
0.4
 40
0.4
 40
0.4
 40
0.6
 40
0.6
 40
0.6
 40
0.6
 40
1.0
 40
1.0
 40
1.0
 40
1.0
 10
93.7398
 20
41.6172
 30
0.0
 10
95.8753
 20
43.1705
 30
0.0
 10
97.8385
 20
44.9469
 30
0.0
 10
99.5956
 20
46.9177
 30
0.0
 10
99.5956
 20
46.9177
 30
0.0
 10
105.3523
 20
43.8784
 30
0.0
 10
109.7715
 20
38.8043
 30
0.0
 10
111.9912
 20
32.6843
 30
0.0
 10
111.9912
 20
32.6843
 30
0.0
 10
110.8014
 20
30.4151
 30
0.0
 10
109.4145
 20
28.2553
 30
0.0
 10
107.8448
 20
26.23
 30
0.0
 10
107.8448
 20
26.23
 30
0.0
 10
104.5953
 20
32.5223
 30
0.0
 10
99.7265
 20
37.8343
 30
0.0
 10
93.7398
 20
41.6172
 30
0.0
  0
SPLINE
  5
5C
330
1F
100
AcDbEntity
  8
layer 1
 62
     7
370
     9
100
AcDbSpline
210
0.0
220
0.0
230
1.0
 70
    11
 71
     3
 72
    20
 73
    16
 74
     0
 42
0.0000000001
 43
0.0000000001
 12
1.0
 22
0.0
 32
0.0
 13
1.0
 23
0.0
 33
0.0
 40
0.0
 40
0.0
 40
0.0
 40
0.0
 40
0.2
 40
0.2
 40
0.2
 40
0.2
 40
0.4
 40
0.4
 40
0.4
 40
0.4
 40
0.6
 40
0.6
 40
0.6
 40
0.6
 40
1.0
 40
1.0
 40
1.0
 40
1.0
 10
62.622
 20
55.5523
 30
0.0
 10
65.2634
 20
50.4552
 30
0.0
 10
69.6247
 20
46.4571
 30
0.0
 10
74.932
 20
44.2679
 30
0.0
 10
74.932
 20
44.2679
 30
0.0
 10
81.3918
 20
41.8296
 30
0.0
 10
88.6703
 20
43.1801
 30
0.0
 10
93.8252
 20
47.7732
 30
0.0
 10
93.8252
 20
47.7732
 30
0.0
 10
89.2749
 20
49.3544
 30
0.0
 10
84.5282
 20
50.3036
 30
0.0
 10
79.7194
 20
50.5938
 30
0.0
 10
79.7194
 20
50.5938
 30
0.0
 10
73.6492
 20
50.4724
 30
0.0
 10
67.685
 20
52.2021
 30
0.0
 10
62.622
 20
55.5523
 30
0.0
  0
SPLINE
  5
5D
330
1F
100
AcDbEntity
  8
layer 1
 62
     7
370
     9
100
AcDbSpline
210
0.0
220
0.0
230
1.0
 70
    11
 71
     3
 72
    32
 73
    28
 74
     0
 42
0.0000000001
 43
0.0000000001
 12
1.0
 22
0.0
 32
0.0
 13
1.0
 23
0.0
 33
0.0
 40
0.0
 40
0.0
 40
0.0
 40
0.0
 40
0.125
 40
0.125
 40
0.125
 40
0.125
 40
0.25
 40
0.25
 40
0.25
 40
0.25
 40
0.375
 40
0.375
 40
0.375
 40
0.375
 40
0.5
 40
0.5
 40
0.5
 40
0.5
 40
0.625
 40
0.625
 40
0.625
 40
0.625
 40
0.75
 40
0.75
 40
0.75
 40
0.75
 40
1.0
 40
1.0
 40
1.0
 40
1.0
 10
87.2421
 20
57.7746
 30
0.0
 10
88.1169
 20
58.63
 30
0.0
 10
88.8393
 20
59.6268
 30
0.0
 10
89.3796
 20
60.7242
 30
0.0
 10
89.3796
 20
60.7242
 30
0.0
 10
91.0286
 20
64.4659
 30
0.0
 10
91.0444
 20
68.7253
 30
0.0
 10
89.4224
 20
72.4787
 30
0.0
 10
89.4224
 20
72.4787
 30
0.0
 10
88.3381
 20
74.1056
 30
0.0
 10
87.7177
 20
75.9971
 30
0.0
 10
87.6274
 20
77.9499
 30
0.0
 10
87.6274
 20
77.9499
 30
0.0
 10
87.9184
 20
80.2248
 30
0.0
 10
89.064
 20
82.3031
 30
0.0
 10
90.8328
 20
83.7631
 30
0.0
 10
90.8328
 20
83.7631
 30
0.0
 10
93.3998
 20
82.9208
 30
0.0
 10
95.6995
 20
81.4166
 30
0.0
 10
97.5014
 20
79.4031
 30
0.0
 10
97.5014
 20
79.4031
 30
0.0
 10
100.9716
 20
72.2941
 30
0.0
 10
101.583
 20
64.1247
 30
0.0
 10
99.211
 20
56.5779
 30
0.0
 10
99.211
 20
56.5779
 30
0.0
 10
95.4417
 20
58.206
 30
0.0
 10
91.2596
 20
58.6246
 30
0.0
 10
87.2421
 20
57.7746
 30
0.0
  0
SPLINE
  5
5E
330
1F
100
AcDbEntity
  8
layer 1
 62
     7
370
     9
100
AcDbSpline
210
0.0
220
0.0
230
1.0
 70
    11
 71
     3
 72
    84
 73
    80
 74
     0
 42
0.0000000001
 43
0.0000000001
 12
1.0
 22
0.0
 32
0.0
 13
1.0
 23
0.0
 33
0.0
 40
0.0
 40
0.0
 40
0.0
 40
0.0
 40
0.0476190476190476
 40
0.0476190476190476
 40
0.0476190476190476
 40
0.0476190476190476
 40
0.0952380952380952
 40
0.0952380952380952
 40
0.0952380952380952
 40
0.0952380952380952
 40
0.1428571428571428
 40
0.1428571428571428
 40
0.1428571428571428
 40
0.1428571428571428
 40
0.1904761904761905
 40
0.1904761904761905
 40
0.1904761904761905
 40
0.1904761904761905
 40
0.2380952380952381
 40
0.2380952380952381
 40
0.2380952380952381
 40
0.2380952380952381
 40
0.2857142857142857
 40
0.2857142857142857
 40
0.2857142857142857
 40
0.2857142857142857
 40
0.3333333333333333
 40
0.3333333333333333
 40
0.3333333333333333
 40
0.3333333333333333
 40
0.3809523809523809
 40
0.3809523809523809
 40
0.3809523809523809
 40
0.3809523809523809
 40
0.4285714285714285
 40
0.4285714285714285
 40
0.4285714285714285
 40
0.4285714285714285
 40
0.4761904761904762
 40
0.4761904761904762
 40
0.4761904761904762
 40
0.4761904761904762
 40
0.5238095238095238
 40
0.5238095238095238
 40
0.5238095238095238
 40
0.5238095238095238
 40
0.5714285714285714
 40
0.5714285714285714
 40
0.5714285714285714
 40
0.5714285714285714
 40
0.6190476190476191
 40
0.6190476190476191
 40
0.6190476190476191
 40
0.6190476190476191
 40
0.6666666666666666
 40
0.6666666666666666
 40
0.6666666666666666
 40
0.6666666666666666
 40
0.7142857142857143
 40
0.7142857142857143
 40
0.7142857142857143
 40
0.7142857142857143
 40
0.7619047619047619
 40
0.7619047619047619
 40
0.7619047619047619
 40
0.7619047619047619
 40
0.8095238095238095
 40
0.8095238095238095
 40
0.8095238095238095
 40
0.8095238095238095
 40
0.8571428571428571
 40
0.8571428571428571
 40
0.8571428571428571
 40
0.8571428571428571
 40
0.9047619047619048
 40
0.9047619047619048
 40
0.9047619047619048
 40
0.9047619047619048
 40
1.0
 40
1.0
 40
1.0
 40
1.0
 10
78.5227
 20
64.315
 30
0.0
 10
75.9604
 20
63.7779
 30
0.0
 10
73.292
 20
64.4212
 30
0.0
 10
71.2558
 20
66.0672
 30
0.0
 10
71.2558
 20
66.0672
 30
0.0
 10
68.8472
 20
69.3306
 30
0.0
 10
67.9738
 20
73.4796
 30
0.0
 10
68.8625
 20
77.437
 30
0.0
 10
68.8625
 20
77.437
 30
0.0
 10
68.992
 20
79.5561
 30
0.0
 10
70.1818
 20
81.4662
 30
0.0
 10
72.0264
 20
82.5175
 30
0.0
 10
72.0264
 20
82.5175
 30
0.0
 10
73.8704
 20
83.5687
 30
0.0
 10
76.1205
 20
83.6197
 30
0.0
 10
78.0098
 20
82.6519
 30
0.0
 10
78.0098
 20
82.6519
 30
0.0
 10
78.6067
 20
84.797
 30
0.0
 10
80.0709
 20
86.5976
 30
0.0
 10
82.0501
 20
87.6192
 30
0.0
 10
82.0501
 20
87.6192
 30
0.0
 10
84.0291
 20
88.6415
 30
0.0
 10
86.3438
 20
88.7932
 30
0.0
 10
88.4395
 20
88.0377
 30
0.0
 10
88.4395
 20
88.0377
 30
0.0
 10
89.8159
 20
90.0511
 30
0.0
 10
92.0392
 20
91.3236
 30
0.0
 10
94.4725
 20
91.4905
 30
0.0
 10
94.4725
 20
91.4905
 30
0.0
 10
96.9065
 20
91.6573
 30
0.0
 10
99.2819
 20
90.6999
 30
0.0
 10
100.9204
 20
88.8924
 30
0.0
 10
100.9204
 20
88.8924
 30
0.0
 10
101.4147
 20
90.551
 30
0.0
 10
101.9277
 20
92.2039
 30
0.0
 10
102.459
 20
93.8507
 30
0.0
 10
102.459
 20
93.8507
 30
0.0
 10
95.6002
 20
100.0871
 30
0.0
 10
85.6517
 20
101.5562
 30
0.0
 10
77.2833
 20
97.5698
 30
0.0
 10
77.2833
 20
97.5698
 30
0.0
 10
78.3973
 20
95.0241
 30
0.0
 10
78.2222
 20
92.0991
 30
0.0
 10
76.8124
 20
89.7045
 30
0.0
 10
76.8124
 20
89.7045
 30
0.0
 10
75.598
 20
88.359
 30
0.0
 10
73.6959
 20
87.8709
 30
0.0
 10
71.983
 20
88.4651
 30
0.0
 10
71.983
 20
88.4651
 30
0.0
 10
70.1039
 20
89.7782
 30
0.0
 10
68.8756
 20
91.8311
 30
0.0
 10
68.6059
 20
94.1073
 30
0.0
 10
68.6059
 20
94.1073
 30
0.0
 10
66.3987
 20
92.2156
 30
0.0
 10
64.4955
 20
89.9953
 30
0.0
 10
62.9637
 20
87.5248
 30
0.0
 10
62.9637
 20
87.5248
 30
0.0
 10
58.437
 20
81.533
 30
0.0
 10
57.1873
 20
73.6816
 30
0.0
 10
59.6296
 20
66.5801
 30
0.0
 10
59.6296
 20
66.5801
 30
0.0
 10
62.025
 20
60.5043
 30
0.0
 10
67.8464
 20
56.4718
 30
0.0
 10
74.3763
 20
56.3642
 30
0.0
 10
74.3763
 20
56.3642
 30
0.0
 10
77.9686
 20
56.0506
 30
0.0
 10
81.4985
 20
57.4438
 30
0.0
 10
83.9084
 20
60.1258
 30
0.0
 10
83.9084
 20
60.1258
 30
0.0
 10
85.8944
 20
63.1266
 30
0.0
 10
86.2928
 20
66.9069
 30
0.0
 10
84.9768
 20
70.2564
 30
0.0
 10
84.9768
 20
70.2564
 30
0.0
 10
83.8802
 20
71.8597
 30
0.0
 10
81.7957
 20
72.4525
 30
0.0
 10
80.0185
 20
71.6666
 30
0.0
 10
80.0185
 20
71.6666
 30
0.0
 10
77.5811
 20
70.0462
 30
0.0
 10
76.9124
 20
66.7593
 30
0.0
 10
78.5227
 20
64.315
 30
0.0
  0
SPLINE
  5
5F
330
1F
100
AcDbEntity
  8
layer 1
 62
     7
370
     9
100
AcDbSpline
210
0.0
220
0.0
230
1.0
 70
    11
 71
     3
 72
    36
 73
    32
 74
     0
 42
0.0000000001
 43
0.0000000001
 12
1.0
 22
0.0
 32
0.0
 13
1.0
 23
0.0
 33
0.0
 40
0.0
 40
0.0
 40
0.0
 40
0.0
 40
0.1111111111111111
 40
0.1111111111111111
 40
0.1111111111111111
 40
0.1111111111111111
 40
0.2222222222222222
 40
0.2222222222222222
 40
0.2222222222222222
 40
0.2222222222222222
 40
0.3333333333333333
 40
0.3333333333333333
 40
0.3333333333333333
 40
0.3333333333333333
 40
0.4444444444444444
 40
0.4444444444444444
 40
0.4444444444444444
 40
0.4444444444444444
 40
0.5555555555555556
 40
0.5555555555555556
 40
0.5555555555555556
 40
0.5555555555555556
 40
0.6666666666666666
 40
0.6666666666666666
 40
0.6666666666666666
 40
0.6666666666666666
 40
0.7777777777777778
 40
0.7777777777777778
 40
0.7777777777777778
 40
0.7777777777777778
 40
1.0
 40
1.0
 40
1.0
 40
1.0
 10
79.5484
 20
38.5401
 30
0.0
 10
84.5061
 20
30.4157
 30
0.0
 10
83.9277
 20
20.0729
 30
0.0
 10
78.0954
 20
12.5517
 30
0.0
 10
78.0954
 20
12.5517
 30
0.0
 10
80.7976
 20
12.5752
 30
0.0
 10
83.4693
 20
13.1266
 30
0.0
 10
85.9599
 20
14.1757
 30
0.0
 10
85.9599
 20
14.1757
 30
0.0
 10
87.6978
 20
14.9051
 30
0.0
 10
88.8614
 20
16.5684
 30
0.0
 10
88.9523
 20
18.4503
 30
0.0
 10
88.9523
 20
18.4503
 30
0.0
 10
88.8317
 20
20.419
 30
0.0
 10
87.9411
 20
22.2616
 30
0.0
 10
86.4728
 20
23.5796
 30
0.0
 10
86.4728
 20
23.5796
 30
0.0
 10
88.9138
 20
26.3232
 30
0.0
 10
93.1082
 20
26.5899
 30
0.0
 10
95.8767
 20
24.1779
 30
0.0
 10
95.8767
 20
24.1779
 30
0.0
 10
97.3152
 20
22.141
 30
0.0
 10
97.9542
 20
19.6456
 30
0.0
 10
97.6724
 20
17.1681
 30
0.0
 10
97.6724
 20
17.1681
 30
0.0
 10
100.0649
 20
18.3586
 30
0.0
 10
102.2577
 20
19.9166
 30
0.0
 10
104.1693
 20
21.7846
 30
0.0
 10
104.1693
 20
21.7846
 30
0.0
 10
98.3976
 20
30.3033
 30
0.0
 10
89.5912
 20
36.2971
 30
0.0
 10
79.5484
 20
38.5401
 30
0.0
  0
SPLINE
  5
60
330
1F
100
AcDbEntity
  8
layer 1
 62
     7
370
     9
100
AcDbSpline
210
0.0
220
0.0
230
1.0
 70
    11
 71
     3
 72
    36
 73
    32
 74
     0
 42
0.0000000001
 43
0.0000000001
 12
1.0
 22
0.0
 32
0.0
 13
1.0
 23
0.0
 33
0.0
 40
0.0
 40
0.0
 40
0.0
 40
0.0
 40
0.1111111111111111
 40
0.1111111111111111
 40
0.1111111111111111
 40
0.1111111111111111
 40
0.2222222222222222
 40
0.2222222222222222
 40
0.2222222222222222
 40
0.2222222222222222
 40
0.3333333333333333
 40
0.3333333333333333
 40
0.3333333333333333
 40
0.3333333333333333
 40
0.4444444444444444
 40
0.4444444444444444
 40
0.4444444444444444
 40
0.4444444444444444
 40
0.5555555555555556
 40
0.5555555555555556
 40
0.5555555555555556
 40
0.5555555555555556
 40
0.6666666666666666
 40
0.6666666666666666
 40
0.6666666666666666
 40
0.6666666666666666
 40
0.7777777777777778
 40
0.7777777777777778
 40
0.7777777777777778
 40
0.7777777777777778
 40
1.0
 40
1.0
 40
1.0
 40
1.0
 10
66.3836
 20
16.3134
 30
0.0
 10
60.3823
 20
19.909
 30
0.0
 10
56.8371
 20
26.5073
 30
0.0
 10
57.1507
 20
33.4964
 30
0.0
 10
57.1507
 20
33.4964
 30
0.0
 10
57.589
 20
31.8888
 30
0.0
 10
58.9257
 20
30.6859
 30
0.0
 10
60.5704
 20
30.4192
 30
0.0
 10
60.5704
 20
30.4192
 30
0.0
 10
62.5287
 20
30.4749
 30
0.0
 10
64.175
 20
31.9068
 30
0.0
 10
64.5023
 20
33.8383
 30
0.0
 10
64.5023
 20
33.8383
 30
0.0
 10
65.244
 20
36.7527
 30
0.0
 10
63.5993
 20
39.743
 30
0.0
 10
60.7414
 20
40.6772
 30
0.0
 10
60.7414
 20
40.6772
 30
0.0
 10
61.1068
 20
43.1676
 30
0.0
 10
61.2776
 20
45.683
 30
0.0
 10
61.2543
 20
48.2005
 30
0.0
 10
61.2543
 20
48.2005
 30
0.0
 10
63.7703
 20
45.284
 30
0.0
 10
66.8922
 20
42.9499
 30
0.0
 10
70.4011
 20
41.3609
 30
0.0
 10
70.4011
 20
41.3609
 30
0.0
 10
73.7815
 20
37.7344
 30
0.0
 10
75.2986
 20
32.7505
 30
0.0
 10
74.5135
 20
27.8555
 30
0.0
 10
74.5135
 20
27.8555
 30
0.0
 10
73.7284
 20
22.96
 30
0.0
 10
70.7284
 20
18.7012
 30
0.0
 10
66.3836
 20
16.3134
 30
0.0
  0
SPLINE
  5
61
330
1F
100
AcDbEntity
  8
layer 1
 62
     7
370
     9
100
AcDbSpline
210
0.0
220
0.0
230
1.0
 70
    11
 71
     3
 72
    12
 73
     8
 74
     0
 42
0.0000000001
 43
0.0000000001
 12
1.0
 22
0.0
 32
0.0
 13
1.0
 23
0.0
 33
0.0
 40
0.0
 40
0.0
 40
0.0
 40
0.0
 40
0.3333333333333333
 40
0.3333333333333333
 40
0.3333333333333333
 40
0.3333333333333333
 40
1.0
 40
1.0
 40
1.0
 40
1.0
 10
179.525
 20
-84.5627
 30
0.0
 10
179.525
 20
-84.5627
 30
0.0
 10
160.4646
 20
-84.5627
 30
0.0
 10
160.4646
 20
-84.5627
 30
0.0
 10
160.4646
 20
-84.5627
 30
0.0
 10
166.532
 20
-81.8661
 30
0.0
 10
173.4576
 20
-81.8661
 30
0.0
 10
179.525
 20
-84.5627
 30
0.0
  0
SPLINE
  5
62
330
1F
100
AcDbEntity
  8
layer 1
 62
     7
370
     9
100
AcDbSpline
210
0.0
220
0.0
230
1.0
 70
    11
 71
     3
 72
    16
 73
    12
 74
     0
 42
0.0000000001
 43
0.0000000001
 12
1.0
 22
0.0
 32
0.0
 13
1.0
 23
0.0
 33
0.0
 40
0.0
 40
0.0
 40
0.0
 40
0.0
 40
0.25
 40
0.25
 40
0.25
 40
0.25
 40
0.5
 40
0.5
 40
0.5
 40
0.5
 40
1.0
 40
1.0
 40
1.0
 40
1.0
 10
131.6963
 20
-80.3739
 30
0.0
 10
134.1396
 20
-82.1268
 30
0.0
 10
136.8121
 20
-83.5364
 30
0.0
 10
139.6389
 20
-84.5627
 30
0.0
 10
139.6389
 20
-84.5627
 30
0.0
 10
139.6389
 20
-84.5627
 30
0.0
 10
126.7807
 20
-84.5627
 30
0.0
 10
126.7807
 20
-84.5627
 30
0.0
 10
126.7807
 20
-84.5627
 30
0.0
 10
128.6455
 20
-83.4555
 30
0.0
 10
130.3073
 20
-82.0389
 30
0.0
 10
131.6963
 20
-80.3739
 30
0.0
  0
SPLINE
  5
63
330
1F
100
AcDbEntity
  8
layer 1
 62
     7
370
     9
100
AcDbSpline
210
0.0
220
0.0
230
1.0
 70
    11
 71
     3
 72
    20
 73
    16
 74
     0
 42
0.0000000001
 43
0.0000000001
 12
1.0
 22
0.0
 32
0.0
 13
1.0
 23
0.0
 33
0.0
 40
0.0
 40
0.0
 40
0.0
 40
0.0
 40
0.2
 40
0.2
 40
0.2
 40
0.2
 40
0.4
 40
0.4
 40
0.4
 40
0.4
 40
0.6
 40
0.6
 40
0.6
 40
0.6
 40
1.0
 40
1.0
 40
1.0
 40
1.0
 10
128.9604
 20
0.5834
 30
0.0
 10
132.7921
 20
4.4492
 30
0.0
 10
137.4366
 20
7.4134
 30
0.0
 10
142.5567
 20
9.2602
 30
0.0
 10
142.5567
 20
9.2602
 30
0.0
 10
137.4366
 20
11.1075
 30
0.0
 10
132.7921
 20
14.0715
 30
0.0
 10
128.9604
 20
17.9374
 30
0.0
 10
128.9604
 20
17.9374
 30
0.0
 10
127.3859
 20
15.3153
 30
0.0
 10
126.5451
 20
12.3186
 30
0.0
 10
126.5244
 20
9.2602
 30
0.0
 10
126.5244
 20
9.2602
 30
0.0
 10
126.5451
 20
6.2021
 30
0.0
 10
127.3859
 20
3.2057
 30
0.0
 10
128.9604
 20
0.5834
 30
0.0
  0
SPLINE
  5
64
330
1F
100
AcDbEntity
  8
layer 1
 62
     7
370
     9
100
AcDbSpline
210
0.0
220
0.0
230
1.0
 70
    11
 71
     3
 72
    16
 73
    12
 74
     0
 42
0.0000000001
 43
0.0000000001
 12
1.0
 22
0.0
 32
0.0
 13
1.0
 23
0.0
 33
0.0
 40
0.0
 40
0.0
 40
0.0
 40
0.0
 40
0.25
 40
0.25
 40
0.25
 40
0.25
 40
0.5
 40
0.5
 40
0.5
 40
0.5
 40
1.0
 40
1.0
 40
1.0
 40
1.0
 10
174.9551
 20
9.2602
 30
0.0
 10
176.8951
 20
10.447
 30
0.0
 10
178.7256
 20
11.8051
 30
0.0
 10
180.4244
 20
13.3175
 30
0.0
 10
180.4244
 20
13.3175
 30
0.0
 10
180.4244
 20
13.3175
 30
0.0
 10
180.4244
 20
5.2035
 30
0.0
 10
180.4244
 20
5.2035
 30
0.0
 10
180.4244
 20
5.2035
 30
0.0
 10
178.7256
 20
6.7159
 30
0.0
 10
176.8951
 20
8.0737
 30
0.0
 10
174.9551
 20
9.2602
 30
0.0
  0
SPLINE
  5
65
330
1F
100
AcDbEntity
  8
layer 1
 62
     7
370
     9
100
AcDbSpline
210
0.0
220
0.0
230
1.0
 70
    11
 71
     3
 72
    16
 73
    12
 74
     0
 42
0.0000000001
 43
0.0000000001
 12
1.0
 22
0.0
 32
0.0
 13
1.0
 23
0.0
 33
0.0
 40
0.0
 40
0.0
 40
0.0
 40
0.0
 40
0.25
 40
0.25
 40
0.25
 40
0.25
 40
0.5
 40
0.5
 40
0.5
 40
0.5
 40
1.0
 40
1.0
 40
1.0
 40
1.0
 10
174.9104
 20
3.6606
 30
0.0
 10
176.7296
 20
3.9847
 30
0.0
 10
178.5783
 20
4.1094
 30
0.0
 10
180.4244
 20
4.0342
 30
0.0
 10
180.4244
 20
4.0342
 30
0.0
 10
180.4244
 20
4.0342
 30
0.0
 10
180.4244
 20
-3.2934
 30
0.0
 10
180.4244
 20
-3.2934
 30
0.0
 10
180.4244
 20
-3.2934
 30
0.0
 10
178.7852
 20
-0.8241
 30
0.0
 10
176.9406
 20
1.5016
 30
0.0
 10
174.9104
 20
3.6606
 30
0.0
  0
SPLINE
  5
66
330
1F
100
AcDbEntity
  8
layer 1
 62
     7
370
     9
100
AcDbSpline
210
0.0
220
0.0
230
1.0
 70
    11
 71
     3
 72
    16
 73
    12
 74
     0
 42
0.0000000001
 43
0.0000000001
 12
1.0
 22
0.0
 32
0.0
 13
1.0
 23
0.0
 33
0.0
 40
0.0
 40
0.0
 40
0.0
 40
0.0
 40
0.25
 40
0.25
 40
0.25
 40
0.25
 40
0.5
 40
0.5
 40
0.5
 40
0.5
 40
1.0
 40
1.0
 40
1.0
 40
1.0
 10
180.4244
 20
-40.7641
 30
0.0
 10
180.4244
 20
-40.7641
 30
0.0
 10
180.4244
 20
-22.9427
 30
0.0
 10
180.4244
 20
-22.9427
 30
0.0
 10
180.4244
 20
-22.9427
 30
0.0
 10
178.6801
 20
-26.6417
 30
0.0
 10
177.6642
 20
-30.6411
 30
0.0
 10
177.4322
 20
-34.7231
 30
0.0
 10
177.4322
 20
-34.7231
 30
0.0
 10
178.5238
 20
-36.689
 30
0.0
 10
179.5221
 20
-38.7048
 30
0.0
 10
180.4244
 20
-40.7641
 30
0.0
  0
SPLINE
  5
67
330
1F
100
AcDbEntity
  8
layer 1
 62
     7
370
     9
100
AcDbSpline
210
0.0
220
0.0
230
1.0
 70
    11
 71
     3
 72
    16
 73
    12
 74
     0
 42
0.0000000001
 43
0.0000000001
 12
1.0
 22
0.0
 32
0.0
 13
1.0
 23
0.0
 33
0.0
 40
0.0
 40
0.0
 40
0.0
 40
0.0
 40
0.25
 40
0.25
 40
0.25
 40
0.25
 40
0.5
 40
0.5
 40
0.5
 40
0.5
 40
1.0
 40
1.0
 40
1.0
 40
1.0
 10
180.4244
 20
-77.6547
 30
0.0
 10
180.4244
 20
-77.6547
 30
0.0
 10
180.4244
 20
-66.1082
 30
0.0
 10
180.4244
 20
-66.1082
 30
0.0
 10
180.4244
 20
-66.1082
 30
0.0
 10
178.8688
 20
-69.2163
 30
0.0
 10
177.053
 20
-72.1869
 30
0.0
 10
174.996
 20
-74.9882
 30
0.0
 10
174.996
 20
-74.9882
 30
0.0
 10
176.9443
 20
-75.5605
 30
0.0
 10
178.7803
 20
-76.4627
 30
0.0
 10
180.4244
 20
-77.6547
 30
0.0
  0
SPLINE
  5
68
330
1F
100
AcDbEntity
  8
layer 1
 62
     7
370
     9
100
AcDbSpline
210
0.0
220
0.0
230
1.0
 70
    11
 71
     3
 72
    36
 73
    32
 74
     0
 42
0.0000000001
 43
0.0000000001
 12
1.0
 22
0.0
 32
0.0
 13
1.0
 23
0.0
 33
0.0
 40
0.0
 40
0.0
 40
0.0
 40
0.0
 40
0.1111111111111111
 40
0.1111111111111111
 40
0.1111111111111111
 40
0.1111111111111111
 40
0.2222222222222222
 40
0.2222222222222222
 40
0.2222222222222222
 40
0.2222222222222222
 40
0.3333333333333333
 40
0.3333333333333333
 40
0.3333333333333333
 40
0.3333333333333333
 40
0.4444444444444444
 40
0.4444444444444444
 40
0.4444444444444444
 40
0.4444444444444444
 40
0.5555555555555556
 40
0.5555555555555556
 40
0.5555555555555556
 40
0.5555555555555556
 40
0.6666666666666666
 40
0.6666666666666666
 40
0.6666666666666666
 40
0.6666666666666666
 40
0.7777777777777778
 40
0.7777777777777778
 40
0.7777777777777778
 40
0.7777777777777778
 40
1.0
 40
1.0
 40
1.0
 40
1.0
 10
127.1655
 20
-68.0636
 30
0.0
 10
128.24
 20
-62.9742
 30
0.0
 10
128.8129
 20
-57.7914
 30
0.0
 10
128.8749
 20
-52.5902
 30
0.0
 10
128.8749
 20
-52.5902
 30
0.0
 10
128.9577
 20
-47.1523
 30
0.0
 10
129.88
 20
-41.7597
 30
0.0
 10
131.6105
 20
-36.604
 30
0.0
 10
131.6105
 20
-36.604
 30
0.0
 10
127.1448
 20
-33.1026
 30
0.0
 10
123.4974
 20
-28.6684
 30
0.0
 10
120.925
 20
-23.61
 30
0.0
 10
120.925
 20
-23.61
 30
0.0
 10
119.9337
 20
-28.0982
 30
0.0
 10
119.6744
 20
-32.7167
 30
0.0
 10
120.1557
 20
-37.2879
 30
0.0
 10
120.1557
 20
-37.2879
 30
0.0
 10
122.4835
 20
-36.8404
 30
0.0
 10
124.7486
 20
-38.3128
 30
0.0
 10
125.2849
 20
-40.622
 30
0.0
 10
125.2849
 20
-40.622
 30
0.0
 10
125.8868
 20
-42.1655
 30
0.0
 10
125.6662
 20
-43.9091
 30
0.0
 10
124.7003
 20
-45.2548
 30
0.0
 10
124.7003
 20
-45.2548
 30
0.0
 10
123.7339
 20
-46.6009
 30
0.0
 10
122.1527
 20
-47.3667
 30
0.0
 10
120.4974
 20
-47.2899
 30
0.0
 10
120.4974
 20
-47.2899
 30
0.0
 10
121.1206
 20
-54.6294
 30
0.0
 10
123.4003
 20
-61.7322
 30
0.0
 10
127.1655
 20
-68.0636
 30
0.0
  0
SPLINE
  5
69
330
1F
100
AcDbEntity
  8
layer 1
 62
     7
370
     9
100
AcDbSpline
210
0.0
220
0.0
230
1.0
 70
    11
 71
     3
 72
    20
 73
    16
 74
     0
 42
0.0000000001
 43
0.0000000001
 12
1.0
 22
0.0
 32
0.0
 13
1.0
 23
0.0
 33
0.0
 40
0.0
 40
0.0
 40
0.0
 40
0.0
 40
0.2
 40
0.2
 40
0.2
 40
0.2
 40
0.4
 40
0.4
 40
0.4
 40
0.4
 40
0.6
 40
0.6
 40
0.6
 40
0.6
 40
1.0
 40
1.0
 40
1.0
 40
1.0
 10
141.9546
 20
-23.0965
 30
0.0
 10
139.8191
 20
-24.6495
 30
0.0
 10
137.8557
 20
-26.4265
 30
0.0
 10
136.0988
 20
-28.3973
 30
0.0
 10
136.0988
 20
-28.3973
 30
0.0
 10
130.3417
 20
-25.3575
 30
0.0
 10
125.9225
 20
-20.2833
 30
0.0
 10
123.703
 20
-14.1633
 30
0.0
 10
123.703
 20
-14.1633
 30
0.0
 10
124.8926
 20
-11.8942
 30
0.0
 10
126.2803
 20
-9.7344
 30
0.0
 10
127.8492
 20
-7.7092
 30
0.0
 10
127.8492
 20
-7.7092
 30
0.0
 10
131.0987
 20
-14.0014
 30
0.0
 10
135.9679
 20
-19.3133
 30
0.0
 10
141.9546
 20
-23.0965
 30
0.0
  0
SPLINE
  5
6A
330
1F
100
AcDbEntity
  8
layer 1
 62
     7
370
     9
100
AcDbSpline
210
0.0
220
0.0
230
1.0
 70
    11
 71
     3
 72
    20
 73
    16
 74
     0
 42
0.0000000001
 43
0.0000000001
 12
1.0
 22
0.0
 32
0.0
 13
1.0
 23
0.0
 33
0.0
 40
0.0
 40
0.0
 40
0.0
 40
0.0
 40
0.2
 40
0.2
 40
0.2
 40
0.2
 40
0.4
 40
0.4
 40
0.4
 40
0.4
 40
0.6
 40
0.6
 40
0.6
 40
0.6
 40
1.0
 40
1.0
 40
1.0
 40
1.0
 10
173.0723
 20
-37.0311
 30
0.0
 10
170.4304
 20
-31.9337
 30
0.0
 10
166.0693
 20
-27.9362
 30
0.0
 10
160.762
 20
-25.7469
 30
0.0
 10
160.762
 20
-25.7469
 30
0.0
 10
154.3028
 20
-23.3095
 30
0.0
 10
147.0245
 20
-24.6599
 30
0.0
 10
141.8692
 20
-29.2522
 30
0.0
 10
141.8692
 20
-29.2522
 30
0.0
 10
146.4195
 20
-30.8336
 30
0.0
 10
151.166
 20
-31.7827
 30
0.0
 10
155.9747
 20
-32.0728
 30
0.0
 10
155.9747
 20
-32.0728
 30
0.0
 10
162.0452
 20
-31.9517
 30
0.0
 10
168.009
 20
-33.681
 30
0.0
 10
173.0723
 20
-37.0311
 30
0.0
  0
SPLINE
  5
6B
330
1F
100
AcDbEntity
  8
layer 1
 62
     7
370
     9
100
AcDbSpline
210
0.0
220
0.0
230
1.0
 70
    11
 71
     3
 72
    32
 73
    28
 74
     0
 42
0.0000000001
 43
0.0000000001
 12
1.0
 22
0.0
 32
0.0
 13
1.0
 23
0.0
 33
0.0
 40
0.0
 40
0.0
 40
0.0
 40
0.0
 40
0.125
 40
0.125
 40
0.125
 40
0.125
 40
0.25
 40
0.25
 40
0.25
 40
0.25
 40
0.375
 40
0.375
 40
0.375
 40
0.375
 40
0.5
 40
0.5
 40
0.5
 40
0.5
 40
0.625
 40
0.625
 40
0.625
 40
0.625
 40
0.75
 40
0.75
 40
0.75
 40
0.75
 40
1.0
 40
1.0
 40
1.0
 40
1.0
 10
148.4519
 20
-39.254
 30
0.0
 10
147.5775
 20
-40.1091
 30
0.0
 10
146.8547
 20
-41.1064
 30
0.0
 10
146.3146
 20
-42.2034
 30
0.0
 10
146.3146
 20
-42.2034
 30
0.0
 10
144.6654
 20
-45.945
 30
0.0
 10
144.6498
 20
-50.2045
 30
0.0
 10
146.2718
 20
-53.9578
 30
0.0
 10
146.2718
 20
-53.9578
 30
0.0
 10
147.3561
 20
-55.5849
 30
0.0
 10
147.9765
 20
-57.4764
 30
0.0
 10
148.067
 20
-59.4292
 30
0.0
 10
148.067
 20
-59.4292
 30
0.0
 10
147.7762
 20
-61.7039
 30
0.0
 10
146.63
 20
-63.7825
 30
0.0
 10
144.8614
 20
-65.2424
 30
0.0
 10
144.8614
 20
-65.2424
 30
0.0
 10
142.2944
 20
-64.3996
 30
0.0
 10
139.9946
 20
-62.896
 30
0.0
 10
138.1931
 20
-60.8824
 30
0.0
 10
138.1931
 20
-60.8824
 30
0.0
 10
134.723
 20
-53.7733
 30
0.0
 10
134.111
 20
-45.604
 30
0.0
 10
136.4836
 20
-38.0572
 30
0.0
 10
136.4836
 20
-38.0572
 30
0.0
 10
140.2529
 20
-39.6851
 30
0.0
 10
144.4347
 20
-40.1034
 30
0.0
 10
148.4519
 20
-39.254
 30
0.0
  0
SPLINE
  5
6C
330
1F
100
AcDbEntity
  8
layer 1
 62
     7
370
     9
100
AcDbSpline
210
0.0
220
0.0
230
1.0
 70
    11
 71
     3
 72
    84
 73
    80
 74
     0
 42
0.0000000001
 43
0.0000000001
 12
1.0
 22
0.0
 32
0.0
 13
1.0
 23
0.0
 33
0.0
 40
0.0
 40
0.0
 40
0.0
 40
0.0
 40
0.0476190476190476
 40
0.0476190476190476
 40
0.0476190476190476
 40
0.0476190476190476
 40
0.0952380952380952
 40
0.0952380952380952
 40
0.0952380952380952
 40
0.0952380952380952
 40
0.1428571428571428
 40
0.1428571428571428
 40
0.1428571428571428
 40
0.1428571428571428
 40
0.1904761904761905
 40
0.1904761904761905
 40
0.1904761904761905
 40
0.1904761904761905
 40
0.2380952380952381
 40
0.2380952380952381
 40
0.2380952380952381
 40
0.2380952380952381
 40
0.2857142857142857
 40
0.2857142857142857
 40
0.2857142857142857
 40
0.2857142857142857
 40
0.3333333333333333
 40
0.3333333333333333
 40
0.3333333333333333
 40
0.3333333333333333
 40
0.3809523809523809
 40
0.3809523809523809
 40
0.3809523809523809
 40
0.3809523809523809
 40
0.4285714285714285
 40
0.4285714285714285
 40
0.4285714285714285
 40
0.4285714285714285
 40
0.4761904761904762
 40
0.4761904761904762
 40
0.4761904761904762
 40
0.4761904761904762
 40
0.5238095238095238
 40
0.5238095238095238
 40
0.5238095238095238
 40
0.5238095238095238
 40
0.5714285714285714
 40
0.5714285714285714
 40
0.5714285714285714
 40
0.5714285714285714
 40
0.6190476190476191
 40
0.6190476190476191
 40
0.6190476190476191
 40
0.6190476190476191
 40
0.6666666666666666
 40
0.6666666666666666
 40
0.6666666666666666
 40
0.6666666666666666
 40
0.7142857142857143
 40
0.7142857142857143
 40
0.7142857142857143
 40
0.7142857142857143
 40
0.7619047619047619
 40
0.7619047619047619
 40
0.7619047619047619
 40
0.7619047619047619
 40
0.8095238095238095
 40
0.8095238095238095
 40
0.8095238095238095
 40
0.8095238095238095
 40
0.8571428571428571
 40
0.8571428571428571
 40
0.8571428571428571
 40
0.8571428571428571
 40
0.9047619047619048
 40
0.9047619047619048
 40
0.9047619047619048
 40
0.9047619047619048
 40
1.0
 40
1.0
 40
1.0
 40
1.0
 10
157.1717
 20
-45.7939
 30
0.0
 10
159.734
 20
-45.2571
 30
0.0
 10
162.4022
 20
-45.9004
 30
0.0
 10
164.4381
 20
-47.5463
 30
0.0
 10
164.4381
 20
-47.5463
 30
0.0
 10
166.847
 20
-50.8101
 30
0.0
 10
167.7202
 20
-54.9584
 30
0.0
 10
166.8317
 20
-58.9163
 30
0.0
 10
166.8317
 20
-58.9163
 30
0.0
 10
166.702
 20
-61.035
 30
0.0
 10
165.5122
 20
-62.9456
 30
0.0
 10
163.668
 20
-63.9967
 30
0.0
 10
163.668
 20
-63.9967
 30
0.0
 10
161.824
 20
-65.0484
 30
0.0
 10
159.5741
 20
-65.0986
 30
0.0
 10
157.6846
 20
-64.1311
 30
0.0
 10
157.6846
 20
-64.1311
 30
0.0
 10
157.0873
 20
-66.2766
 30
0.0
 10
155.6233
 20
-68.0767
 30
0.0
 10
153.6445
 20
-69.0986
 30
0.0
 10
153.6445
 20
-69.0986
 30
0.0
 10
151.6655
 20
-70.1206
 30
0.0
 10
149.3504
 20
-70.2722
 30
0.0
 10
147.2549
 20
-69.5168
 30
0.0
 10
147.2549
 20
-69.5168
 30
0.0
 10
145.8785
 20
-71.5308
 30
0.0
 10
143.6554
 20
-72.803
 30
0.0
 10
141.2217
 20
-72.9697
 30
0.0
 10
141.2217
 20
-72.9697
 30
0.0
 10
138.788
 20
-73.1364
 30
0.0
 10
136.4119
 20
-72.1791
 30
0.0
 10
134.7736
 20
-70.3717
 30
0.0
 10
134.7736
 20
-70.3717
 30
0.0
 10
134.2797
 20
-72.0302
 30
0.0
 10
133.7667
 20
-73.6831
 30
0.0
 10
133.235
 20
-75.3302
 30
0.0
 10
133.235
 20
-75.3302
 30
0.0
 10
140.0936
 20
-81.5658
 30
0.0
 10
150.0425
 20
-83.0356
 30
0.0
 10
158.4111
 20
-79.0487
 30
0.0
 10
158.4111
 20
-79.0487
 30
0.0
 10
157.2971
 20
-76.5036
 30
0.0
 10
157.4718
 20
-73.5782
 30
0.0
 10
158.8814
 20
-71.184
 30
0.0
 10
158.8814
 20
-71.184
 30
0.0
 10
160.0962
 20
-69.838
 30
0.0
 10
161.9985
 20
-69.3499
 30
0.0
 10
163.7114
 20
-69.9441
 30
0.0
 10
163.7114
 20
-69.9441
 30
0.0
 10
165.5901
 20
-71.2574
 30
0.0
 10
166.8188
 20
-73.3103
 30
0.0
 10
167.0883
 20
-75.5865
 30
0.0
 10
167.0883
 20
-75.5865
 30
0.0
 10
169.2957
 20
-73.6949
 30
0.0
 10
171.1987
 20
-71.4747
 30
0.0
 10
172.7303
 20
-69.0039
 30
0.0
 10
172.7303
 20
-69.0039
 30
0.0
 10
177.2574
 20
-63.0119
 30
0.0
 10
178.5069
 20
-55.1607
 30
0.0
 10
176.0644
 20
-48.0592
 30
0.0
 10
176.0644
 20
-48.0592
 30
0.0
 10
173.6692
 20
-41.9836
 30
0.0
 10
167.8476
 20
-37.9509
 30
0.0
 10
161.3177
 20
-37.8436
 30
0.0
 10
161.3177
 20
-37.8436
 30
0.0
 10
157.726
 20
-37.5296
 30
0.0
 10
154.1955
 20
-38.9228
 30
0.0
 10
151.7858
 20
-41.6051
 30
0.0
 10
151.7858
 20
-41.6051
 30
0.0
 10
149.8002
 20
-44.6059
 30
0.0
 10
149.4012
 20
-48.3861
 30
0.0
 10
150.7172
 20
-51.7353
 30
0.0
 10
150.7172
 20
-51.7353
 30
0.0
 10
151.8142
 20
-53.3387
 30
0.0
 10
153.8989
 20
-53.932
 30
0.0
 10
155.6755
 20
-53.1457
 30
0.0
 10
155.6755
 20
-53.1457
 30
0.0
 10
158.1133
 20
-51.525
 30
0.0
 10
158.7822
 20
-48.2386
 30
0.0
 10
157.1717
 20
-45.7939
 30
0.0
  0
SPLINE
  5
6D
330
1F
100
AcDbEntity
  8
layer 1
 62
     7
370
     9
100
AcDbSpline
210
0.0
220
0.0
230
1.0
 70
    11
 71
     3
 72
    36
 73
    32
 74
     0
 42
0.0000000001
 43
0.0000000001
 12
1.0
 22
0.0
 32
0.0
 13
1.0
 23
0.0
 33
0.0
 40
0.0
 40
0.0
 40
0.0
 40
0.0
 40
0.1111111111111111
 40
0.1111111111111111
 40
0.1111111111111111
 40
0.1111111111111111
 40
0.2222222222222222
 40
0.2222222222222222
 40
0.2222222222222222
 40
0.2222222222222222
 40
0.3333333333333333
 40
0.3333333333333333
 40
0.3333333333333333
 40
0.3333333333333333
 40
0.4444444444444444
 40
0.4444444444444444
 40
0.4444444444444444
 40
0.4444444444444444
 40
0.5555555555555556
 40
0.5555555555555556
 40
0.5555555555555556
 40
0.5555555555555556
 40
0.6666666666666666
 40
0.6666666666666666
 40
0.6666666666666666
 40
0.6666666666666666
 40
0.7777777777777778
 40
0.7777777777777778
 40
0.7777777777777778
 40
0.7777777777777778
 40
1.0
 40
1.0
 40
1.0
 40
1.0
 10
156.1456
 20
-20.0193
 30
0.0
 10
151.1879
 20
-11.8947
 30
0.0
 10
151.7663
 20
-1.5522
 30
0.0
 10
157.5988
 20
5.9692
 30
0.0
 10
157.5988
 20
5.9692
 30
0.0
 10
154.8966
 20
5.9458
 30
0.0
 10
152.2249
 20
5.3936
 30
0.0
 10
149.7341
 20
4.3453
 30
0.0
 10
149.7341
 20
4.3453
 30
0.0
 10
147.9968
 20
3.6152
 30
0.0
 10
146.8328
 20
1.9526
 30
0.0
 10
146.7419
 20
0.0707
 30
0.0
 10
146.7419
 20
0.0707
 30
0.0
 10
146.8631
 20
-1.8988
 30
0.0
 10
147.7535
 20
-3.7406
 30
0.0
 10
149.2212
 20
-5.0586
 30
0.0
 10
149.2212
 20
-5.0586
 30
0.0
 10
146.7808
 20
-7.8023
 30
0.0
 10
142.586
 20
-8.069
 30
0.0
 10
139.8173
 20
-5.6571
 30
0.0
 10
139.8173
 20
-5.6571
 30
0.0
 10
138.3792
 20
-3.6201
 30
0.0
 10
137.7402
 20
-1.1254
 30
0.0
 10
138.0222
 20
1.3527
 30
0.0
 10
138.0222
 20
1.3527
 30
0.0
 10
135.6291
 20
0.1623
 30
0.0
 10
133.4369
 20
-1.3956
 30
0.0
 10
131.5253
 20
-3.2637
 30
0.0
 10
131.5253
 20
-3.2637
 30
0.0
 10
137.2965
 20
-11.7824
 30
0.0
 10
146.1032
 20
-17.7761
 30
0.0
 10
156.1456
 20
-20.0193
 30
0.0
  0
SPLINE
  5
6E
330
1F
100
AcDbEntity
  8
layer 1
 62
     7
370
     9
100
AcDbSpline
210
0.0
220
0.0
230
1.0
 70
    11
 71
     3
 72
    36
 73
    32
 74
     0
 42
0.0000000001
 43
0.0000000001
 12
1.0
 22
0.0
 32
0.0
 13
1.0
 23
0.0
 33
0.0
 40
0.0
 40
0.0
 40
0.0
 40
0.0
 40
0.1111111111111111
 40
0.1111111111111111
 40
0.1111111111111111
 40
0.1111111111111111
 40
0.2222222222222222
 40
0.2222222222222222
 40
0.2222222222222222
 40
0.2222222222222222
 40
0.3333333333333333
 40
0.3333333333333333
 40
0.3333333333333333
 40
0.3333333333333333
 40
0.4444444444444444
 40
0.4444444444444444
 40
0.4444444444444444
 40
0.4444444444444444
 40
0.5555555555555556
 40
0.5555555555555556
 40
0.5555555555555556
 40
0.5555555555555556
 40
0.6666666666666666
 40
0.6666666666666666
 40
0.6666666666666666
 40
0.6666666666666666
 40
0.7777777777777778
 40
0.7777777777777778
 40
0.7777777777777778
 40
0.7777777777777778
 40
1.0
 40
1.0
 40
1.0
 40
1.0
 10
169.3108
 20
2.2076
 30
0.0
 10
175.3121
 20
-1.388
 30
0.0
 10
178.8573
 20
-7.9863
 30
0.0
 10
178.5435
 20
-14.9754
 30
0.0
 10
178.5435
 20
-14.9754
 30
0.0
 10
178.1052
 20
-13.3686
 30
0.0
 10
176.7685
 20
-12.165
 30
0.0
 10
175.1242
 20
-11.8975
 30
0.0
 10
175.1242
 20
-11.8975
 30
0.0
 10
173.1657
 20
-11.9541
 30
0.0
 10
171.5194
 20
-13.3858
 30
0.0
 10
171.1917
 20
-15.3174
 30
0.0
 10
171.1917
 20
-15.3174
 30
0.0
 10
170.4498
 20
-18.2318
 30
0.0
 10
172.0945
 20
-21.2222
 30
0.0
 10
174.9532
 20
-22.1562
 30
0.0
 10
174.9532
 20
-22.1562
 30
0.0
 10
174.588
 20
-24.6468
 30
0.0
 10
174.4164
 20
-27.1622
 30
0.0
 10
174.4403
 20
-29.6796
 30
0.0
 10
174.4403
 20
-29.6796
 30
0.0
 10
171.9239
 20
-26.763
 30
0.0
 10
168.8025
 20
-24.4289
 30
0.0
 10
165.2929
 20
-22.8407
 30
0.0
 10
165.2929
 20
-22.8407
 30
0.0
 10
161.9129
 20
-19.2135
 30
0.0
 10
160.3954
 20
-14.2296
 30
0.0
 10
161.1805
 20
-9.3346
 30
0.0
 10
161.1805
 20
-9.3346
 30
0.0
 10
161.9657
 20
-4.439
 30
0.0
 10
164.9658
 20
-0.1802
 30
0.0
 10
169.3108
 20
2.2076
 30
0.0
  0
SPLINE
  5
6F
330
1F
100
AcDbEntity
  8
layer 1
 62
     7
370
     9
100
AcDbSpline
210
0.0
220
0.0
230
1.0
 70
    11
 71
     3
 72
    12
 73
     8
 74
     0
 42
0.0000000001
 43
0.0000000001
 12
1.0
 22
0.0
 32
0.0
 13
1.0
 23
0.0
 33
0.0
 40
0.0
 40
0.0
 40
0.0
 40
0.0
 40
0.3333333333333333
 40
0.3333333333333333
 40
0.3333333333333333
 40
0.3333333333333333
 40
1.0
 40
1.0
 40
1.0
 40
1.0
 10
179.525
 20
103.0836
 30
0.0
 10
179.525
 20
103.0836
 30
0.0
 10
160.4646
 20
103.0836
 30
0.0
 10
160.4646
 20
103.0836
 30
0.0
 10
160.4646
 20
103.0836
 30
0.0
 10
166.532
 20
100.3871
 30
0.0
 10
173.4576
 20
100.3871
 30
0.0
 10
179.525
 20
103.0836
 30
0.0
  0
SPLINE
  5
70
330
1F
100
AcDbEntity
  8
layer 1
 62
     7
370
     9
100
AcDbSpline
210
0.0
220
0.0
230
1.0
 70
    11
 71
     3
 72
    16
 73
    12
 74
     0
 42
0.0000000001
 43
0.0000000001
 12
1.0
 22
0.0
 32
0.0
 13
1.0
 23
0.0
 33
0.0
 40
0.0
 40
0.0
 40
0.0
 40
0.0
 40
0.25
 40
0.25
 40
0.25
 40
0.25
 40
0.5
 40
0.5
 40
0.5
 40
0.5
 40
1.0
 40
1.0
 40
1.0
 40
1.0
 10
131.6963
 20
98.8946
 30
0.0
 10
134.1396
 20
100.6476
 30
0.0
 10
136.8121
 20
102.0574
 30
0.0
 10
139.6389
 20
103.0836
 30
0.0
 10
139.6389
 20
103.0836
 30
0.0
 10
139.6389
 20
103.0836
 30
0.0
 10
126.7807
 20
103.0836
 30
0.0
 10
126.7807
 20
103.0836
 30
0.0
 10
126.7807
 20
103.0836
 30
0.0
 10
128.6455
 20
101.9767
 30
0.0
 10
130.3073
 20
100.56
 30
0.0
 10
131.6963
 20
98.8946
 30
0.0
  0
SPLINE
  5
71
330
1F
100
AcDbEntity
  8
layer 1
 62
     7
370
     9
100
AcDbSpline
210
0.0
220
0.0
230
1.0
 70
    11
 71
     3
 72
    16
 73
    12
 74
     0
 42
0.0000000001
 43
0.0000000001
 12
1.0
 22
0.0
 32
0.0
 13
1.0
 23
0.0
 33
0.0
 40
0.0
 40
0.0
 40
0.0
 40
0.0
 40
0.25
 40
0.25
 40
0.25
 40
0.25
 40
0.5
 40
0.5
 40
0.5
 40
0.5
 40
1.0
 40
1.0
 40
1.0
 40
1.0
 10
174.9104
 20
14.8596
 30
0.0
 10
176.7296
 20
14.5362
 30
0.0
 10
178.5783
 20
14.4108
 30
0.0
 10
180.4244
 20
14.4866
 30
0.0
 10
180.4244
 20
14.4866
 30
0.0
 10
180.4244
 20
14.4866
 30
0.0
 10
180.4244
 20
21.8141
 30
0.0
 10
180.4244
 20
21.8141
 30
0.0
 10
180.4244
 20
21.8141
 30
0.0
 10
178.7852
 20
19.345
 30
0.0
 10
176.9406
 20
17.0186
 30
0.0
 10
174.9104
 20
14.8596
 30
0.0
  0
SPLINE
  5
72
330
1F
100
AcDbEntity
  8
layer 1
 62
     7
370
     9
100
AcDbSpline
210
0.0
220
0.0
230
1.0
 70
    11
 71
     3
 72
    16
 73
    12
 74
     0
 42
0.0000000001
 43
0.0000000001
 12
1.0
 22
0.0
 32
0.0
 13
1.0
 23
0.0
 33
0.0
 40
0.0
 40
0.0
 40
0.0
 40
0.0
 40
0.25
 40
0.25
 40
0.25
 40
0.25
 40
0.5
 40
0.5
 40
0.5
 40
0.5
 40
1.0
 40
1.0
 40
1.0
 40
1.0
 10
180.4244
 20
59.2848
 30
0.0
 10
180.4244
 20
59.2848
 30
0.0
 10
180.4244
 20
41.4642
 30
0.0
 10
180.4244
 20
41.4642
 30
0.0
 10
180.4244
 20
41.4642
 30
0.0
 10
178.6801
 20
45.1618
 30
0.0
 10
177.6642
 20
49.1613
 30
0.0
 10
177.4322
 20
53.2444
 30
0.0
 10
177.4322
 20
53.2444
 30
0.0
 10
178.5238
 20
55.2095
 30
0.0
 10
179.5221
 20
57.2259
 30
0.0
 10
180.4244
 20
59.2848
 30
0.0
  0
SPLINE
  5
73
330
1F
100
AcDbEntity
  8
layer 1
 62
     7
370
     9
100
AcDbSpline
210
0.0
220
0.0
230
1.0
 70
    11
 71
     3
 72
    16
 73
    12
 74
     0
 42
0.0000000001
 43
0.0000000001
 12
1.0
 22
0.0
 32
0.0
 13
1.0
 23
0.0
 33
0.0
 40
0.0
 40
0.0
 40
0.0
 40
0.0
 40
0.25
 40
0.25
 40
0.25
 40
0.25
 40
0.5
 40
0.5
 40
0.5
 40
0.5
 40
1.0
 40
1.0
 40
1.0
 40
1.0
 10
180.4244
 20
96.176
 30
0.0
 10
180.4244
 20
96.176
 30
0.0
 10
180.4244
 20
84.629
 30
0.0
 10
180.4244
 20
84.629
 30
0.0
 10
180.4244
 20
84.629
 30
0.0
 10
178.8688
 20
87.737
 30
0.0
 10
177.053
 20
90.7075
 30
0.0
 10
174.996
 20
93.509
 30
0.0
 10
174.996
 20
93.509
 30
0.0
 10
176.9443
 20
94.0817
 30
0.0
 10
178.7803
 20
94.9833
 30
0.0
 10
180.4244
 20
96.176
 30
0.0
  0
SPLINE
  5
74
330
1F
100
AcDbEntity
  8
layer 1
 62
     7
370
     9
100
AcDbSpline
210
0.0
220
0.0
230
1.0
 70
    11
 71
     3
 72
    36
 73
    32
 74
     0
 42
0.0000000001
 43
0.0000000001
 12
1.0
 22
0.0
 32
0.0
 13
1.0
 23
0.0
 33
0.0
 40
0.0
 40
0.0
 40
0.0
 40
0.0
 40
0.1111111111111111
 40
0.1111111111111111
 40
0.1111111111111111
 40
0.1111111111111111
 40
0.2222222222222222
 40
0.2222222222222222
 40
0.2222222222222222
 40
0.2222222222222222
 40
0.3333333333333333
 40
0.3333333333333333
 40
0.3333333333333333
 40
0.3333333333333333
 40
0.4444444444444444
 40
0.4444444444444444
 40
0.4444444444444444
 40
0.4444444444444444
 40
0.5555555555555556
 40
0.5555555555555556
 40
0.5555555555555556
 40
0.5555555555555556
 40
0.6666666666666666
 40
0.6666666666666666
 40
0.6666666666666666
 40
0.6666666666666666
 40
0.7777777777777778
 40
0.7777777777777778
 40
0.7777777777777778
 40
0.7777777777777778
 40
1.0
 40
1.0
 40
1.0
 40
1.0
 10
127.1655
 20
86.5845
 30
0.0
 10
128.24
 20
81.4951
 30
0.0
 10
128.8129
 20
76.3121
 30
0.0
 10
128.8749
 20
71.1111
 30
0.0
 10
128.8749
 20
71.1111
 30
0.0
 10
128.9577
 20
65.6729
 30
0.0
 10
129.88
 20
60.2804
 30
0.0
 10
131.6105
 20
55.1247
 30
0.0
 10
131.6105
 20
55.1247
 30
0.0
 10
127.1448
 20
51.6237
 30
0.0
 10
123.4974
 20
47.1885
 30
0.0
 10
120.925
 20
42.1302
 30
0.0
 10
120.925
 20
42.1302
 30
0.0
 10
119.9337
 20
46.6191
 30
0.0
 10
119.6744
 20
51.2376
 30
0.0
 10
120.1557
 20
55.8086
 30
0.0
 10
120.1557
 20
55.8086
 30
0.0
 10
122.4835
 20
55.3612
 30
0.0
 10
124.7486
 20
56.8337
 30
0.0
 10
125.2849
 20
59.143
 30
0.0
 10
125.2849
 20
59.143
 30
0.0
 10
125.8868
 20
60.6863
 30
0.0
 10
125.6662
 20
62.4296
 30
0.0
 10
124.7003
 20
63.7759
 30
0.0
 10
124.7003
 20
63.7759
 30
0.0
 10
123.7339
 20
65.1215
 30
0.0
 10
122.1527
 20
65.8872
 30
0.0
 10
120.4974
 20
65.8108
 30
0.0
 10
120.4974
 20
65.8108
 30
0.0
 10
121.1206
 20
73.1501
 30
0.0
 10
123.4003
 20
80.2529
 30
0.0
 10
127.1655
 20
86.5845
 30
0.0
  0
SPLINE
  5
75
330
1F
100
AcDbEntity
  8
layer 1
 62
     7
370
     9
100
AcDbSpline
210
0.0
220
0.0
230
1.0
 70
    11
 71
     3
 72
    20
 73
    16
 74
     0
 42
0.0000000001
 43
0.0000000001
 12
1.0
 22
0.0
 32
0.0
 13
1.0
 23
0.0
 33
0.0
 40
0.0
 40
0.0
 40
0.0
 40
0.0
 40
0.2
 40
0.2
 40
0.2
 40
0.2
 40
0.4
 40
0.4
 40
0.4
 40
0.4
 40
0.6
 40
0.6
 40
0.6
 40
0.6
 40
1.0
 40
1.0
 40
1.0
 40
1.0
 10
141.9546
 20
41.6172
 30
0.0
 10
139.8191
 20
43.1705
 30
0.0
 10
137.8557
 20
44.9469
 30
0.0
 10
136.0988
 20
46.9177
 30
0.0
 10
136.0988
 20
46.9177
 30
0.0
 10
130.3417
 20
43.8784
 30
0.0
 10
125.9225
 20
38.8043
 30
0.0
 10
123.703
 20
32.6843
 30
0.0
 10
123.703
 20
32.6843
 30
0.0
 10
124.8926
 20
30.4151
 30
0.0
 10
126.2803
 20
28.2553
 30
0.0
 10
127.8492
 20
26.23
 30
0.0
 10
127.8492
 20
26.23
 30
0.0
 10
131.0987
 20
32.5223
 30
0.0
 10
135.9679
 20
37.8343
 30
0.0
 10
141.9546
 20
41.6172
 30
0.0
  0
SPLINE
  5
76
330
1F
100
AcDbEntity
  8
layer 1
 62
     7
370
     9
100
AcDbSpline
210
0.0
220
0.0
230
1.0
 70
    11
 71
     3
 72
    20
 73
    16
 74
     0
 42
0.0000000001
 43
0.0000000001
 12
1.0
 22
0.0
 32
0.0
 13
1.0
 23
0.0
 33
0.0
 40
0.0
 40
0.0
 40
0.0
 40
0.0
 40
0.2
 40
0.2
 40
0.2
 40
0.2
 40
0.4
 40
0.4
 40
0.4
 40
0.4
 40
0.6
 40
0.6
 40
0.6
 40
0.6
 40
1.0
 40
1.0
 40
1.0
 40
1.0
 10
173.0723
 20
55.5523
 30
0.0
 10
170.4304
 20
50.4552
 30
0.0
 10
166.0693
 20
46.4571
 30
0.0
 10
160.762
 20
44.2679
 30
0.0
 10
160.762
 20
44.2679
 30
0.0
 10
154.3028
 20
41.8296
 30
0.0
 10
147.0245
 20
43.1801
 30
0.0
 10
141.8692
 20
47.7732
 30
0.0
 10
141.8692
 20
47.7732
 30
0.0
 10
146.4195
 20
49.3544
 30
0.0
 10
151.166
 20
50.3036
 30
0.0
 10
155.9747
 20
50.5938
 30
0.0
 10
155.9747
 20
50.5938
 30
0.0
 10
162.0452
 20
50.4724
 30
0.0
 10
168.009
 20
52.2021
 30
0.0
 10
173.0723
 20
55.5523
 30
0.0
  0
SPLINE
  5
77
330
1F
100
AcDbEntity
  8
layer 1
 62
     7
370
     9
100
AcDbSpline
210
0.0
220
0.0
230
1.0
 70
    11
 71
     3
 72
    32
 73
    28
 74
     0
 42
0.0000000001
 43
0.0000000001
 12
1.0
 22
0.0
 32
0.0
 13
1.0
 23
0.0
 33
0.0
 40
0.0
 40
0.0
 40
0.0
 40
0.0
 40
0.125
 40
0.125
 40
0.125
 40
0.125
 40
0.25
 40
0.25
 40
0.25
 40
0.25
 40
0.375
 40
0.375
 40
0.375
 40
0.375
 40
0.5
 40
0.5
 40
0.5
 40
0.5
 40
0.625
 40
0.625
 40
0.625
 40
0.625
 40
0.75
 40
0.75
 40
0.75
 40
0.75
 40
1.0
 40
1.0
 40
1.0
 40
1.0
 10
148.4519
 20
57.7746
 30
0.0
 10
147.5775
 20
58.63
 30
0.0
 10
146.8547
 20
59.6268
 30
0.0
 10
146.3146
 20
60.7242
 30
0.0
 10
146.3146
 20
60.7242
 30
0.0
 10
144.6654
 20
64.4659
 30
0.0
 10
144.6498
 20
68.7253
 30
0.0
 10
146.2718
 20
72.4787
 30
0.0
 10
146.2718
 20
72.4787
 30
0.0
 10
147.3561
 20
74.1056
 30
0.0
 10
147.9765
 20
75.9971
 30
0.0
 10
148.067
 20
77.9499
 30
0.0
 10
148.067
 20
77.9499
 30
0.0
 10
147.7762
 20
80.2248
 30
0.0
 10
146.63
 20
82.3031
 30
0.0
 10
144.8614
 20
83.7631
 30
0.0
 10
144.8614
 20
83.7631
 30
0.0
 10
142.2944
 20
82.9208
 30
0.0
 10
139.9946
 20
81.4166
 30
0.0
 10
138.1931
 20
79.4031
 30
0.0
 10
138.1931
 20
79.4031
 30
0.0
 10
134.723
 20
72.2941
 30
0.0
 10
134.111
 20
64.1247
 30
0.0
 10
136.4836
 20
56.5779
 30
0.0
 10
136.4836
 20
56.5779
 30
0.0
 10
140.2529
 20
58.206
 30
0.0
 10
144.4347
 20
58.6246
 30
0.0
 10
148.4519
 20
57.7746
 30
0.0
  0
SPLINE
  5
78
330
1F
100
AcDbEntity
  8
layer 1
 62
     7
370
     9
100
AcDbSpline
210
0.0
220
0.0
230
1.0
 70
    11
 71
     3
 72
    84
 73
    80
 74
     0
 42
0.0000000001
 43
0.0000000001
 12
1.0
 22
0.0
 32
0.0
 13
1.0
 23
0.0
 33
0.0
 40
0.0
 40
0.0
 40
0.0
 40
0.0
 40
0.0476190476190476
 40
0.0476190476190476
 40
0.0476190476190476
 40
0.0476190476190476
 40
0.0952380952380952
 40
0.0952380952380952
 40
0.0952380952380952
 40
0.0952380952380952
 40
0.1428571428571428
 40
0.1428571428571428
 40
0.1428571428571428
 40
0.1428571428571428
 40
0.1904761904761905
 40
0.1904761904761905
 40
0.1904761904761905
 40
0.1904761904761905
 40
0.2380952380952381
 40
0.2380952380952381
 40
0.2380952380952381
 40
0.2380952380952381
 40
0.2857142857142857
 40
0.2857142857142857
 40
0.2857142857142857
 40
0.2857142857142857
 40
0.3333333333333333
 40
0.3333333333333333
 40
0.3333333333333333
 40
0.3333333333333333
 40
0.3809523809523809
 40
0.3809523809523809
 40
0.3809523809523809
 40
0.3809523809523809
 40
0.4285714285714285
 40
0.4285714285714285
 40
0.4285714285714285
 40
0.4285714285714285
 40
0.4761904761904762
 40
0.4761904761904762
 40
0.4761904761904762
 40
0.4761904761904762
 40
0.5238095238095238
 40
0.5238095238095238
 40
0.5238095238095238
 40
0.5238095238095238
 40
0.5714285714285714
 40
0.5714285714285714
 40
0.5714285714285714
 40
0.5714285714285714
 40
0.6190476190476191
 40
0.6190476190476191
 40
0.6190476190476191
 40
0.6190476190476191
 40
0.6666666666666666
 40
0.6666666666666666
 40
0.6666666666666666
 40
0.6666666666666666
 40
0.7142857142857143
 40
0.7142857142857143
 40
0.7142857142857143
 40
0.7142857142857143
 40
0.7619047619047619
 40
0.7619047619047619
 40
0.7619047619047619
 40
0.7619047619047619
 40
0.8095238095238095
 40
0.8095238095238095
 40
0.8095238095238095
 40
0.8095238095238095
 40
0.8571428571428571
 40
0.8571428571428571
 40
0.8571428571428571
 40
0.8571428571428571
 40
0.9047619047619048
 40
0.9047619047619048
 40
0.9047619047619048
 40
0.9047619047619048
 40
1.0
 40
1.0
 40
1.0
 40
1.0
 10
157.1717
 20
64.315
 30
0.0
 10
159.734
 20
63.7779
 30
0.0
 10
162.4022
 20
64.4212
 30
0.0
 10
164.4381
 20
66.0672
 30
0.0
 10
164.4381
 20
66.0672
 30
0.0
 10
166.847
 20
69.3306
 30
0.0
 10
167.7202
 20
73.4796
 30
0.0
 10
166.8317
 20
77.437
 30
0.0
 10
166.8317
 20
77.437
 30
0.0
 10
166.702
 20
79.5561
 30
0.0
 10
165.5122
 20
81.4662
 30
0.0
 10
163.668
 20
82.5175
 30
0.0
 10
163.668
 20
82.5175
 30
0.0
 10
161.824
 20
83.5687
 30
0.0
 10
159.5741
 20
83.6197
 30
0.0
 10
157.6846
 20
82.6519
 30
0.0
 10
157.6846
 20
82.6519
 30
0.0
 10
157.0873
 20
84.797
 30
0.0
 10
155.6233
 20
86.5976
 30
0.0
 10
153.6445
 20
87.6192
 30
0.0
 10
153.6445
 20
87.6192
 30
0.0
 10
151.6655
 20
88.6415
 30
0.0
 10
149.3504
 20
88.7932
 30
0.0
 10
147.2549
 20
88.0377
 30
0.0
 10
147.2549
 20
88.0377
 30
0.0
 10
145.8785
 20
90.0511
 30
0.0
 10
143.6554
 20
91.3236
 30
0.0
 10
141.2217
 20
91.4905
 30
0.0
 10
141.2217
 20
91.4905
 30
0.0
 10
138.788
 20
91.6573
 30
0.0
 10
136.4119
 20
90.6999
 30
0.0
 10
134.7736
 20
88.8924
 30
0.0
 10
134.7736
 20
88.8924
 30
0.0
 10
134.2797
 20
90.551
 30
0.0
 10
133.7667
 20
92.2039
 30
0.0
 10
133.235
 20
93.8507
 30
0.0
 10
133.235
 20
93.8507
 30
0.0
 10
140.0936
 20
100.0871
 30
0.0
 10
150.0425
 20
101.5562
 30
0.0
 10
158.4111
 20
97.5698
 30
0.0
 10
158.4111
 20
97.5698
 30
0.0
 10
157.2971
 20
95.0241
 30
0.0
 10
157.4718
 20
92.0991
 30
0.0
 10
158.8814
 20
89.7045
 30
0.0
 10
158.8814
 20
89.7045
 30
0.0
 10
160.0962
 20
88.359
 30
0.0
 10
161.9985
 20
87.8709
 30
0.0
 10
163.7114
 20
88.4651
 30
0.0
 10
163.7114
 20
88.4651
 30
0.0
 10
165.5901
 20
89.7782
 30
0.0
 10
166.8188
 20
91.8311
 30
0.0
 10
167.0883
 20
94.1073
 30
0.0
 10
167.0883
 20
94.1073
 30
0.0
 10
169.2957
 20
92.2156
 30
0.0
 10
171.1987
 20
89.9953
 30
0.0
 10
172.7303
 20
87.5248
 30
0.0
 10
172.7303
 20
87.5248
 30
0.0
 10
177.2574
 20
81.533
 30
0.0
 10
178.5069
 20
73.6816
 30
0.0
 10
176.0644
 20
66.5801
 30
0.0
 10
176.0644
 20
66.5801
 30
0.0
 10
173.6692
 20
60.5043
 30
0.0
 10
167.8476
 20
56.4718
 30
0.0
 10
161.3177
 20
56.3642
 30
0.0
 10
161.3177
 20
56.3642
 30
0.0
 10
157.726
 20
56.0506
 30
0.0
 10
154.1955
 20
57.4438
 30
0.0
 10
151.7858
 20
60.1258
 30
0.0
 10
151.7858
 20
60.1258
 30
0.0
 10
149.8002
 20
63.1266
 30
0.0
 10
149.4012
 20
66.9069
 30
0.0
 10
150.7172
 20
70.2564
 30
0.0
 10
150.7172
 20
70.2564
 30
0.0
 10
151.8142
 20
71.8597
 30
0.0
 10
153.8989
 20
72.4525
 30
0.0
 10
155.6755
 20
71.6666
 30
0.0
 10
155.6755
 20
71.6666
 30
0.0
 10
158.1133
 20
70.0462
 30
0.0
 10
158.7822
 20
66.7593
 30
0.0
 10
157.1717
 20
64.315
 30
0.0
  0
SPLINE
  5
79
330
1F
100
AcDbEntity
  8
layer 1
 62
     7
370
     9
100
AcDbSpline
210
0.0
220
0.0
230
1.0
 70
    11
 71
     3
 72
    36
 73
    32
 74
     0
 42
0.0000000001
 43
0.0000000001
 12
1.0
 22
0.0
 32
0.0
 13
1.0
 23
0.0
 33
0.0
 40
0.0
 40
0.0
 40
0.0
 40
0.0
 40
0.1111111111111111
 40
0.1111111111111111
 40
0.1111111111111111
 40
0.1111111111111111
 40
0.2222222222222222
 40
0.2222222222222222
 40
0.2222222222222222
 40
0.2222222222222222
 40
0.3333333333333333
 40
0.3333333333333333
 40
0.3333333333333333
 40
0.3333333333333333
 40
0.4444444444444444
 40
0.4444444444444444
 40
0.4444444444444444
 40
0.4444444444444444
 40
0.5555555555555556
 40
0.5555555555555556
 40
0.5555555555555556
 40
0.5555555555555556
 40
0.6666666666666666
 40
0.6666666666666666
 40
0.6666666666666666
 40
0.6666666666666666
 40
0.7777777777777778
 40
0.7777777777777778
 40
0.7777777777777778
 40
0.7777777777777778
 40
1.0
 40
1.0
 40
1.0
 40
1.0
 10
156.1456
 20
38.5401
 30
0.0
 10
151.1879
 20
30.4157
 30
0.0
 10
151.7663
 20
20.0729
 30
0.0
 10
157.5988
 20
12.5517
 30
0.0
 10
157.5988
 20
12.5517
 30
0.0
 10
154.8966
 20
12.5752
 30
0.0
 10
152.2249
 20
13.1266
 30
0.0
 10
149.7341
 20
14.1757
 30
0.0
 10
149.7341
 20
14.1757
 30
0.0
 10
147.9968
 20
14.9051
 30
0.0
 10
146.8328
 20
16.5684
 30
0.0
 10
146.7419
 20
18.4503
 30
0.0
 10
146.7419
 20
18.4503
 30
0.0
 10
146.8631
 20
20.419
 30
0.0
 10
147.7535
 20
22.2616
 30
0.0
 10
149.2212
 20
23.5796
 30
0.0
 10
149.2212
 20
23.5796
 30
0.0
 10
146.7808
 20
26.3232
 30
0.0
 10
142.586
 20
26.5899
 30
0.0
 10
139.8173
 20
24.1779
 30
0.0
 10
139.8173
 20
24.1779
 30
0.0
 10
138.3792
 20
22.141
 30
0.0
 10
137.7402
 20
19.6456
 30
0.0
 10
138.0222
 20
17.1681
 30
0.0
 10
138.0222
 20
17.1681
 30
0.0
 10
135.6291
 20
18.3586
 30
0.0
 10
133.4369
 20
19.9166
 30
0.0
 10
131.5253
 20
21.7846
 30
0.0
 10
131.5253
 20
21.7846
 30
0.0
 10
137.2965
 20
30.3033
 30
0.0
 10
146.1032
 20
36.2971
 30
0.0
 10
156.1456
 20
38.5401
 30
0.0
  0
SPLINE
  5
7A
330
1F
100
AcDbEntity
  8
layer 1
 62
     7
370
     9
100
AcDbSpline
210
0.0
220
0.0
230
1.0
 70
    11
 71
     3
 72
    36
 73
    32
 74
     0
 42
0.0000000001
 43
0.0000000001
 12
1.0
 22
0.0
 32
0.0
 13
1.0
 23
0.0
 33
0.0
 40
0.0
 40
0.0
 40
0.0
 40
0.0
 40
0.1111111111111111
 40
0.1111111111111111
 40
0.1111111111111111
 40
0.1111111111111111
 40
0.2222222222222222
 40
0.2222222222222222
 40
0.2222222222222222
 40
0.2222222222222222
 40
0.3333333333333333
 40
0.3333333333333333
 40
0.3333333333333333
 40
0.3333333333333333
 40
0.4444444444444444
 40
0.4444444444444444
 40
0.4444444444444444
 40
0.4444444444444444
 40
0.5555555555555556
 40
0.5555555555555556
 40
0.5555555555555556
 40
0.5555555555555556
 40
0.6666666666666666
 40
0.6666666666666666
 40
0.6666666666666666
 40
0.6666666666666666
 40
0.7777777777777778
 40
0.7777777777777778
 40
0.7777777777777778
 40
0.7777777777777778
 40
1.0
 40
1.0
 40
1.0
 40
1.0
 10
169.3108
 20
16.3134
 30
0.0
 10
164.9658
 20
18.7012
 30
0.0
 10
161.9657
 20
22.96
 30
0.0
 10
161.1805
 20
27.8555
 30
0.0
 10
161.1805
 20
27.8555
 30
0.0
 10
160.3954
 20
32.7505
 30
0.0
 10
161.9129
 20
37.7344
 30
0.0
 10
165.2929
 20
41.3609
 30
0.0
 10
165.2929
 20
41.3609
 30
0.0
 10
168.8025
 20
42.9499
 30
0.0
 10
171.9239
 20
45.284
 30
0.0
 10
174.4403
 20
48.2005
 30
0.0
 10
174.4403
 20
48.2005
 30
0.0
 10
174.4164
 20
45.683
 30
0.0
 10
174.588
 20
43.1676
 30
0.0
 10
174.9532
 20
40.6772
 30
0.0
 10
174.9532
 20
40.6772
 30
0.0
 10
172.0945
 20
39.743
 30
0.0
 10
170.4498
 20
36.7527
 30
0.0
 10
171.1917
 20
33.8383
 30
0.0
 10
171.1917
 20
33.8383
 30
0.0
 10
171.5194
 20
31.9068
 30
0.0
 10
173.1657
 20
30.4749
 30
0.0
 10
175.1242
 20
30.4192
 30
0.0
 10
175.1242
 20
30.4192
 30
0.0
 10
176.7685
 20
30.6859
 30
0.0
 10
178.1052
 20
31.8888
 30
0.0
 10
178.5435
 20
33.4964
 30
0.0
 10
178.5435
 20
33.4964
 30
0.0
 10
178.8573
 20
26.5073
 30
0.0
 10
175.3121
 20
19.909
 30
0.0
 10
169.3108
 20
16.3134
 30
0.0
  0
ENDSEC
  0
SECTION
  2
OBJECTS
  0
DICTIONARY
  5
C
330
0
100
AcDbDictionary
281
     1
  3
ACAD_GROUP
350
D
  3
ACAD_LAYOUT
350
1A
  3
ACAD_MATERIAL
350
3B
  3
ACAD_MLEADERSTYLE
350
9C
  3
ACAD_MLINESTYLE
350
17
  3
ACAD_PLOTSETTINGS
350
19
  3
ACAD_PLOTSTYLENAME
350
E
  3
ACAD_TABLESTYLE
350
9B
  3
ACAD_VISUALSTYLE
350
2A
  0
DICTIONARY
  5
D
102
{ACAD_REACTORS
330
C
102
}
330
C
100
AcDbDictionary
281
     1
  0
DICTIONARY
  5
1A
102
{ACAD_REACTORS
330
C
102
}
330
C
100
AcDbDictionary
281
     1
  3
Layout1
350
1E
  3
Layout2
350
26
  3
Model
350
22
  0
DICTIONARY
  5
3B
102
{ACAD_REACTORS
330
C
102
}
330
C
100
AcDbDictionary
281
     1
  3
ByBlock
350
3D
  3
ByLayer
350
3C
  3
Global
350
3E
  0
DICTIONARY
  5
9C
102
{ACAD_REACTORS
330
C
102
}
330
C
100
AcDbDictionary
281
     1
  0
DICTIONARY
  5
17
102
{ACAD_REACTORS
330
C
102
}
330
C
100
AcDbDictionary
281
     1
  3
Standard
350
18
  0
DICTIONARY
  5
19
102
{ACAD_REACTORS
330
C
102
}
330
C
100
AcDbDictionary
281
     1
  0
ACDBDICTIONARYWDFLT
  5
E
102
{ACAD_REACTORS
330
C
102
}
330
C
100
AcDbDictionary
281
     1
  3
Normal
350
F
100
AcDbDictionaryWithDefault
340
F
  0
DICTIONARY
  5
9B
102
{ACAD_REACTORS
330
C
102
}
330
C
100
AcDbDictionary
281
     1
  0
DICTIONARY
  5
2A
102
{ACAD_REACTORS
330
C
102
}
330
C
100
AcDbDictionary
281
     1
  3
2dWireframe
350
2F
  3
3D Hidden
350
31
  3
3dWireframe
350
30
  3
Basic
350
32
  3
Brighten
350
36
  3
ColorChange
350
3A
  3
Conceptual
350
34
  3
Dim
350
35
  3
Facepattern
350
39
  3
Flat
350
2B
  3
FlatWithEdges
350
2C
  3
Gouraud
350
2D
  3
GouraudWithEdges
350
2E
  3
Linepattern
350
38
  3
Realistic
350
33
  3
Thicken
350
37
  0
LAYOUT
  5
1E
102
{ACAD_REACTORS
330
1A
102
}
330
1A
100
AcDbPlotSettings
  1

  2
none_device
  4

  6

 40
0.0
 41
0.0
 42
0.0
 43
0.0
 44
0.0
 45
0.0
 46
0.0
 47
0.0
 48
0.0
 49
0.0
140
0.0
141
0.0
142
1.0
143
1.0
 70
   688
 72
     0
 73
     0
 74
     5
  7

 75
    16
 76
     0
 77
     2
 78
   300
147
1.0
148
0.0
149
0.0
100
AcDbLayout
  1
Layout1
 70
     1
 71
     1
 10
0.0
 20
0.0
 11
12.0
 21
9.0
 12
0.0
 22
0.0
 32
0.0
 14
1.000000000000000E+20
 24
1.000000000000000E+20
 34
1.000000000000000E+20
 15
-1.000000000000000E+20
 25
-1.000000000000000E+20
 35
-1.000000000000000E+20
146
0.0
 13
0.0
 23
0.0
 33
0.0
 16
1.0
 26
0.0
 36
0.0
 17
0.0
 27
1.0
 37
0.0
 76
     0
330
1B
  0
LAYOUT
  5
26
102
{ACAD_REACTORS
330
1A
102
}
330
1A
100
AcDbPlotSettings
  1

  2
none_device
  4

  6

 40
0.0
 41
0.0
 42
0.0
 43
0.0
 44
0.0
 45
0.0
 46
0.0
 47
0.0
 48
0.0
 49
0.0
140
0.0
141
0.0
142
1.0
143
1.0
 70
   688
 72
     0
 73
     0
 74
     5
  7

 75
    16
 76
     0
 77
     2
 78
   300
147
1.0
148
0.0
149
0.0
100
AcDbLayout
  1
Layout2
 70
     1
 71
     2
 10
0.0
 20
0.0
 11
0.0
 21
0.0
 12
0.0
 22
0.0
 32
0.0
 14
0.0
 24
0.0
 34
0.0
 15
0.0
 25
0.0
 35
0.0
146
0.0
 13
0.0
 23
0.0
 33
0.0
 16
1.0
 26
0.0
 36
0.0
 17
0.0
 27
1.0
 37
0.0
 76
     0
330
23
  0
LAYOUT
  5
22
102
{ACAD_REACTORS
330
1A
102
}
330
1A
100
AcDbPlotSettings
  1

  2
none_device
  4

  6

 40
0.0
 41
0.0
 42
0.0
 43
0.0
 44
0.0
 45
0.0
 46
0.0
 47
0.0
 48
0.0
 49
0.0
140
0.0
141
0.0
142
1.0
143
1.0
 70
  1712
 72
     0
 73
     0
 74
     0
  7

 75
     0
 76
     0
 77
     2
 78
   300
147
1.0
148
0.0
149
0.0
100
AcDbLayout
  1
Model
 70
     1
 71
     0
 10
0.0
 20
0.0
 11
12.0
 21
9.0
 12
0.0
 22
0.0
 32
0.0
 14
39.4167
 24
-99.9052
 34
0.0
 15
196.2775
 25
118.4257
 35
0.0
146
0.0
 13
0.0
 23
0.0
 33
0.0
 16
1.0
 26
0.0
 36
0.0
 17
0.0
 27
1.0
 37
0.0
 76
     0
330
1F
331
29
  0
MATERIAL
  5
3D
102
{ACAD_REACTORS
330
3B
102
}
330
3B
100
AcDbMaterial
  1
ByBlock
 72
     1
 94
      127
  0
MATERIAL
  5
3C
102
{ACAD_REACTORS
330
3B
102
}
330
3B
100
AcDbMaterial
  1
ByLayer
 72
     1
 94
      127
  0
MATERIAL
  5
3E
102
{ACAD_REACTORS
330
3B
102
}
330
3B
100
AcDbMaterial
  1
Global
 72
     1
 94
      127
  0
MLINESTYLE
  5
18
102
{ACAD_REACTORS
330
17
102
}
330
17
100
AcDbMlineStyle
  2
Standard
 70
     0
  3

 62
   256
 51
90.0
 52
90.0
 71
     2
 49
0.5
 62
   256
  6
BYLAYER
 49
-0.5
 62
   256
  6
BYLAYER
  0
ACDBPLACEHOLDER
  5
F
102
{ACAD_REACTORS
330
E
102
}
330
E
  0
VISUALSTYLE
  5
2F
102
{ACAD_REACTORS
330
2A
102
}
102
{ACAD_XDICTIONARY
360
83
102
}
330
2A
100
AcDbVisualStyle
  2
2dWireframe
 70
     4
 71
     0
 72
     2
 73
     0
 90
        0
 40
-0.6
 41
-30.0
 62
     5
 63
     7
421
 16777215
 74
     1
 91
        4
 64
     7
 65
   257
 75
     1
175
     1
 42
1.0
 92
        0
 66
   257
 43
1.0
 76
     1
 77
     6
 78
     2
 67
     7
 79
     5
170
     0
171
     0
290
     0
174
     0
 93
        1
 44
0.0
173
     0
291
     0
 45
0.0
  0
VISUALSTYLE
  5
31
102
{ACAD_REACTORS
330
2A
102
}
102
{ACAD_XDICTIONARY
360
87
102
}
330
2A
100
AcDbVisualStyle
  2
3D Hidden
 70
     6
 71
     1
 72
     2
 73
     2
 90
        0
 40
-0.6
 41
-30.0
 62
     5
 63
     7
421
 16777215
 74
     2
 91
        2
 64
     7
 65
   257
 75
     2
175
     1
 42
40.0
 92
        0
 66
   257
 43
1.0
 76
     1
 77
     6
 78
     2
 67
     7
 79
     3
170
     0
171
     0
290
     0
174
     0
 93
        1
 44
0.0
173
     0
291
     0
 45
0.0
  0
VISUALSTYLE
  5
30
102
{ACAD_REACTORS
330
2A
102
}
102
{ACAD_XDICTIONARY
360
85
102
}
330
2A
100
AcDbVisualStyle
  2
3dWireframe
 70
     5
 71
     0
 72
     2
 73
     0
 90
        0
 40
-0.6
 41
-30.0
 62
     5
 63
     7
421
 16777215
 74
     1
 91
        4
 64
     7
 65
   257
 75
     1
175
     1
 42
1.0
 92
        0
 66
   257
 43
1.0
 76
     1
 77
     6
 78
     2
 67
     7
 79
     5
170
     0
171
     0
290
     0
174
     0
 93
        1
 44
0.0
173
     0
291
     0
 45
0.0
  0
VISUALSTYLE
  5
32
102
{ACAD_REACTORS
330
2A
102
}
102
{ACAD_XDICTIONARY
360
89
102
}
330
2A
100
AcDbVisualStyle
  2
Basic
 70
     7
 71
     1
 72
     0
 73
     1
 90
        0
 40
-0.6
 41
-30.0
 62
     5
 63
     7
421
 16777215
 74
     0
 91
        4
 64
     7
 65
   257
 75
     1
175
     1
 42
1.0
 92
        8
 66
     7
 43
1.0
 76
     1
 77
     6
 78
     2
 67
     7
 79
     5
170
     0
171
     0
290
     0
174
     0
 93
        1
 44
0.0
173
     0
291
     1
 45
0.0
  0
VISUALSTYLE
  5
36
102
{ACAD_REACTORS
330
2A
102
}
102
{ACAD_XDICTIONARY
360
91
102
}
330
2A
100
AcDbVisualStyle
  2
Brighten
 70
    12
 71
     2
 72
     2
 73
     0
 90
        0
 40
-0.6
 41
-30.0
 62
     5
 63
     7
421
 16777215
 74
     1
 91
        4
 64
     7
 65
   257
 75
     1
175
     1
 42
1.0
 92
        8
 66
     7
 43
1.0
 76
     1
 77
     6
 78
     2
 67
     7
 79
     5
170
     0
171
     0
290
     0
174
     0
 93
        1
 44
50.0
173
     0
291
     1
 45
0.0
  0
VISUALSTYLE
  5
3A
102
{ACAD_REACTORS
330
2A
102
}
102
{ACAD_XDICTIONARY
360
99
102
}
330
2A
100
AcDbVisualStyle
  2
ColorChange
 70
    16
 71
     2
 72
     2
 73
     3
 90
        0
 40
-0.6
 41
-30.0
 62
     5
 63
     8
421
  8421504
 74
     1
 91
        4
 64
     7
 65
   257
 75
     1
175
     1
 42
1.0
 92
        8
 66
     8
424
  8421504
 43
1.0
 76
     1
 77
     6
 78
     2
 67
     7
 79
     5
170
     0
171
     0
290
     0
174
     0
 93
        1
 44
0.0
173
     0
291
     1
 45
0.0
  0
VISUALSTYLE
  5
34
102
{ACAD_REACTORS
330
2A
102
}
102
{ACAD_XDICTIONARY
360
8D
102
}
330
2A
100
AcDbVisualStyle
  2
Conceptual
 70
     9
 71
     3
 72
     2
 73
     0
 90
        0
 40
-0.6
 41
-30.0
 62
     5
 63
     7
421
 16777215
 74
     2
 91
        2
 64
     7
 65
   257
 75
     1
175
     1
 42
40.0
 92
        8
 66
     7
 43
1.0
 76
     1
 77
     6
 78
     2
 67
     7
 79
     3
170
     0
171
     0
290
     0
174
     0
 93
        1
 44
0.0
173
     0
291
     0
 45
0.0
  0
VISUALSTYLE
  5
35
102
{ACAD_REACTORS
330
2A
102
}
102
{ACAD_XDICTIONARY
360
8F
102
}
330
2A
100
AcDbVisualStyle
  2
Dim
 70
    11
 71
     2
 72
     2
 73
     0
 90
        0
 40
-0.6
 41
-30.0
 62
     5
 63
     7
421
 16777215
 74
     1
 91
        4
 64
     7
 65
   257
 75
     1
175
     1
 42
1.0
 92
        8
 66
     7
 43
1.0
 76
     1
 77
     6
 78
     2
 67
     7
 79
     5
170
     0
171
     0
290
     0
174
     0
 93
        1
 44
-50.0
173
     0
291
     1
 45
0.0
  0
VISUALSTYLE
  5
39
102
{ACAD_REACTORS
330
2A
102
}
102
{ACAD_XDICTIONARY
360
97
102
}
330
2A
100
AcDbVisualStyle
  2
Facepattern
 70
    15
 71
     2
 72
     2
 73
     0
 90
        0
 40
-0.6
 41
-30.0
 62
     5
 63
     7
421
 16777215
 74
     1
 91
        4
 64
     7
 65
   257
 75
     1
175
     1
 42
1.0
 92
        8
 66
     7
 43
1.0
 76
     1
 77
     6
 78
     2
 67
     7
 79
     5
170
     0
171
     0
290
     0
174
     0
 93
        1
 44
0.0
173
     0
291
     1
 45
0.0
  0
VISUALSTYLE
  5
2B
102
{ACAD_REACTORS
330
2A
102
}
102
{ACAD_XDICTIONARY
360
7B
102
}
330
2A
100
AcDbVisualStyle
  2
Flat
 70
     0
 71
     2
 72
     1
 73
     1
 90
        2
 40
-0.6
 41
30.0
 62
     5
 63
     7
421
 16777215
 74
     0
 91
        4
 64
     7
 65
   257
 75
     1
175
     1
 42
1.0
 92
        8
 66
     7
 43
1.0
 76
     1
 77
     6
 78
     2
 67
     7
 79
     5
170
     0
171
     0
290
     0
174
     0
 93
       13
 44
0.0
173
     0
291
     1
 45
0.0
  0
VISUALSTYLE
  5
2C
102
{ACAD_REACTORS
330
2A
102
}
102
{ACAD_XDICTIONARY
360
7D
102
}
330
2A
100
AcDbVisualStyle
  2
FlatWithEdges
 70
     1
 71
     2
 72
     1
 73
     1
 90
        2
 40
-0.6
 41
30.0
 62
     5
 63
     7
421
 16777215
 74
     1
 91
        4
 64
     7
 65
   257
 75
     1
175
     1
 42
1.0
 92
        0
 66
   257
 43
1.0
 76
     1
 77
     6
 78
     2
 67
     7
 79
     5
170
     0
171
     0
290
     0
174
     0
 93
       13
 44
0.0
173
     0
291
     1
 45
0.0
  0
VISUALSTYLE
  5
2D
102
{ACAD_REACTORS
330
2A
102
}
102
{ACAD_XDICTIONARY
360
7F
102
}
330
2A
100
AcDbVisualStyle
  2
Gouraud
 70
     2
 71
     2
 72
     2
 73
     1
 90
        2
 40
-0.6
 41
30.0
 62
     5
 63
     7
421
 16777215
 74
     0
 91
        4
 64
     7
 65
   257
 75
     1
175
     1
 42
1.0
 92
        0
 66
     7
 43
1.0
 76
     1
 77
     6
 78
     2
 67
     7
 79
     5
170
     0
171
     0
290
     0
174
     0
 93
       13
 44
0.0
173
     0
291
     1
 45
0.0
  0
VISUALSTYLE
  5
2E
102
{ACAD_REACTORS
330
2A
102
}
102
{ACAD_XDICTIONARY
360
81
102
}
330
2A
100
AcDbVisualStyle
  2
GouraudWithEdges
 70
     3
 71
     2
 72
     2
 73
     1
 90
        2
 40
-0.6
 41
30.0
 62
     5
 63
     7
421
 16777215
 74
     1
 91
        4
 64
     7
 65
   257
 75
     1
175
     1
 42
1.0
 92
        0
 66
   257
 43
1.0
 76
     1
 77
     6
 78
     2
 67
     7
 79
     5
170
     0
171
     0
290
     0
174
     0
 93
       13
 44
0.0
173
     0
291
     1
 45
0.0
  0
VISUALSTYLE
  5
38
102
{ACAD_REACTORS
330
2A
102
}
102
{ACAD_XDICTIONARY
360
95
102
}
330
2A
100
AcDbVisualStyle
  2
Linepattern
 70
    14
 71
     2
 72
     2
 73
     0
 90
        0
 40
-0.6
 41
-30.0
 62
     5
 63
     7
421
 16777215
 74
     1
 91
        4
 64
     7
 65
   257
 75
     7
175
     7
 42
1.0
 92
        8
 66
     7
 43
1.0
 76
     1
 77
     6
 78
     2
 67
     7
 79
     5
170
     0
171
     0
290
     0
174
     0
 93
        1
 44
0.0
173
     0
291
     1
 45
0.0
  0
VISUALSTYLE
  5
33
102
{ACAD_REACTORS
330
2A
102
}
102
{ACAD_XDICTIONARY
360
8B
102
}
330
2A
100
AcDbVisualStyle
  2
Realistic
 70
     8
 71
     2
 72
     2
 73
     0
 90
        0
 40
-0.6
 41
-30.0
 62
     5
 63
     7
421
 16777215
 74
     1
 91
        0
 64
     7
 65
   257
 75
     1
175
     1
 42
1.0
 92
        8
 66
     8
424
  7895160
 43
1.0
 76
     1
 77
     6
 78
     2
 67
     7
 79
     5
170
     0
171
     0
290
     0
174
     0
 93
       13
 44
0.0
173
     0
291
     0
 45
0.0
  0
VISUALSTYLE
  5
37
102
{ACAD_REACTORS
330
2A
102
}
102
{ACAD_XDICTIONARY
360
93
102
}
330
2A
100
AcDbVisualStyle
  2
Thicken
 70
    13
 71
     2
 72
     2
 73
     0
 90
        0
 40
-0.6
 41
-30.0
 62
     5
 63
     7
421
 16777215
 74
     1
 91
        4
 64
     7
 65
   257
 75
     1
175
     1
 42
1.0
 92
       12
 66
     7
 43
1.0
 76
     1
 77
     6
 78
     2
 67
     7
 79
     5
170
     0
171
     0
290
     0
174
     0
 93
        1
 44
0.0
173
     0
291
     1
 45
0.0
  0
DICTIONARY
  5
83
330
2F
100
AcDbDictionary
280
     1
281
     1
  3
ACAD_XREC_ROUNDTRIP
360
84
  0
DICTIONARY
  5
87
330
31
100
AcDbDictionary
280
     1
281
     1
  3
ACAD_XREC_ROUNDTRIP
360
88
  0
DICTIONARY
  5
85
330
30
100
AcDbDictionary
280
     1
281
     1
  3
ACAD_XREC_ROUNDTRIP
360
86
  0
DICTIONARY
  5
89
330
32
100
AcDbDictionary
280
     1
281
     1
  3
ACAD_XREC_ROUNDTRIP
360
8A
  0
DICTIONARY
  5
91
330
36
100
AcDbDictionary
280
     1
281
     1
  3
ACAD_XREC_ROUNDTRIP
360
92
  0
DICTIONARY
  5
99
330
3A
100
AcDbDictionary
280
     1
281
     1
  3
ACAD_XREC_ROUNDTRIP
360
9A
  0
DICTIONARY
  5
8D
330
34
100
AcDbDictionary
280
     1
281
     1
  3
ACAD_XREC_ROUNDTRIP
360
8E
  0
DICTIONARY
  5
8F
330
35
100
AcDbDictionary
280
     1
281
     1
  3
ACAD_XREC_ROUNDTRIP
360
90
  0
DICTIONARY
  5
97
330
39
100
AcDbDictionary
280
     1
281
     1
  3
ACAD_XREC_ROUNDTRIP
360
98
  0
DICTIONARY
  5
7B
330
2B
100
AcDbDictionary
280
     1
281
     1
  3
ACAD_XREC_ROUNDTRIP
360
7C
  0
DICTIONARY
  5
7D
330
2C
100
AcDbDictionary
280
     1
281
     1
  3
ACAD_XREC_ROUNDTRIP
360
7E
  0
DICTIONARY
  5
7F
330
2D
100
AcDbDictionary
280
     1
281
     1
  3
ACAD_XREC_ROUNDTRIP
360
80
  0
DICTIONARY
  5
81
330
2E
100
AcDbDictionary
280
     1
281
     1
  3
ACAD_XREC_ROUNDTRIP
360
82
  0
DICTIONARY
  5
95
330
38
100
AcDbDictionary
280
     1
281
     1
  3
ACAD_XREC_ROUNDTRIP
360
96
  0
DICTIONARY
  5
8B
330
33
100
AcDbDictionary
280
     1
281
     1
  3
ACAD_XREC_ROUNDTRIP
360
8C
  0
DICTIONARY
  5
93
330
37
100
AcDbDictionary
280
     1
281
     1
  3
ACAD_XREC_ROUNDTRIP
360
94
  0
XRECORD
  5
84
102
{ACAD_REACTORS
330
83
102
}
330
83
100
AcDbXrecord
280
     1
102
RTVSPropertyOp0
 70
     1
102
RTVSPropertyOp1
 70
     1
102
RTVSPropertyOp2
 70
     1
102
RTVSPropertyOp3
 70
     1
102
RTVSPropertyOp4
 70
     1
102
RTVSPropertyOp5
 70
     1
102
RTVSPropertyOp6
 70
     1
102
RTVSPropertyOp7
 70
     1
102
RTVSPropertyOp8
 70
     1
102
RTVSPropertyOp9
 70
     1
102
RTVSPropertyOp10
 70
     1
102
RTVSPropertyOp11
 70
     1
102
RTVSPropertyOp12
 70
     1
102
RTVSPropertyOp13
 70
     1
102
RTVSPropertyOp14
 70
     1
102
RTVSPropertyOp15
 70
     1
102
RTVSPropertyOp16
 70
     1
102
RTVSPropertyOp17
 70
     1
102
RTVSPropertyOp18
 70
     1
102
RTVSPropertyOp19
 70
     1
102
RTVSPropertyOp20
 70
     1
102
RTVSPropertyOp21
 70
     1
102
RTVSPropertyOp22
 70
     1
102
RTVSPropertyOp23
 70
     1
102
RTVSPropertyOp24
 70
     1
102
RTVSPropertyOp25
 70
     1
102
RTVSPropertyOp26
 70
     1
102
RTVSPropertyOp27
 70
     1
102
RTVSPropertyOp28
 70
     1
102
RTVSPropertyOp29
 70
     1
102
RTVSPropertyOp30
 70
     1
102
RTVSPropertyOp31
 70
     1
102
RTVSPropertyOp32
 70
     1
  0
XRECORD
  5
88
102
{ACAD_REACTORS
330
87
102
}
330
87
100
AcDbXrecord
280
     1
102
RTVSPropertyOp0
 70
     1
102
RTVSPropertyOp1
 70
     1
102
RTVSPropertyOp2
 70
     1
102
RTVSPropertyOp3
 70
     1
102
RTVSPropertyOp4
 70
     1
102
RTVSPropertyOp5
 70
     1
102
RTVSPropertyOp6
 70
     1
102
RTVSPropertyOp7
 70
     1
102
RTVSPropertyOp8
 70
     1
102
RTVSPropertyOp9
 70
     1
102
RTVSPropertyOp10
 70
     1
102
RTVSPropertyOp11
 70
     1
102
RTVSPropertyOp12
 70
     1
102
RTVSPropertyOp13
 70
     1
102
RTVSPropertyOp14
 70
     1
102
RTVSPropertyOp15
 70
     1
102
RTVSPropertyOp16
 70
     1
102
RTVSPropertyOp17
 70
     1
102
RTVSPropertyOp18
 70
     1
102
RTVSPropertyOp19
 70
     1
102
RTVSPropertyOp20
 70
     1
102
RTVSPropertyOp21
 70
     1
102
RTVSPropertyOp22
 70
     1
102
RTVSPropertyOp23
 70
     1
102
RTVSPropertyOp24
 70
     1
102
RTVSPropertyOp25
 70
     1
102
RTVSPropertyOp26
 70
     1
102
RTVSPropertyOp27
 70
     1
102
RTVSPropertyOp28
 70
     1
102
RTVSPropertyOp29
 70
     1
102
RTVSPropertyOp30
 70
     1
102
RTVSPropertyOp31
 70
     1
102
RTVSPropertyOp32
 70
     1
  0
XRECORD
  5
86
102
{ACAD_REACTORS
330
85
102
}
330
85
100
AcDbXrecord
280
     1
102
RTVSPropertyOp0
 70
     1
102
RTVSPropertyOp1
 70
     1
102
RTVSPropertyOp2
 70
     1
102
RTVSPropertyOp3
 70
     1
102
RTVSPropertyOp4
 70
     1
102
RTVSPropertyOp5
 70
     1
102
RTVSPropertyOp6
 70
     1
102
RTVSPropertyOp7
 70
     1
102
RTVSPropertyOp8
 70
     1
102
RTVSPropertyOp9
 70
     1
102
RTVSPropertyOp10
 70
     1
102
RTVSPropertyOp11
 70
     1
102
RTVSPropertyOp12
 70
     1
102
RTVSPropertyOp13
 70
     1
102
RTVSPropertyOp14
 70
     1
102
RTVSPropertyOp15
 70
     1
102
RTVSPropertyOp16
 70
     1
102
RTVSPropertyOp17
 70
     1
102
RTVSPropertyOp18
 70
     1
102
RTVSPropertyOp19
 70
     1
102
RTVSPropertyOp20
 70
     1
102
RTVSPropertyOp21
 70
     1
102
RTVSPropertyOp22
 70
     1
102
RTVSPropertyOp23
 70
     1
102
RTVSPropertyOp24
 70
     1
102
RTVSPropertyOp25
 70
     1
102
RTVSPropertyOp26
 70
     1
102
RTVSPropertyOp27
 70
     1
102
RTVSPropertyOp28
 70
     1
102
RTVSPropertyOp29
 70
     1
102
RTVSPropertyOp30
 70
     1
102
RTVSPropertyOp31
 70
     1
102
RTVSPropertyOp32
 70
     1
  0
XRECORD
  5
8A
102
{ACAD_REACTORS
330
89
102
}
330
89
100
AcDbXrecord
280
     1
102
RTVSPropertyOp0
 70
     1
102
RTVSPropertyOp1
 70
     1
102
RTVSPropertyOp2
 70
     1
102
RTVSPropertyOp3
 70
     1
102
RTVSPropertyOp4
 70
     1
102
RTVSPropertyOp5
 70
     1
102
RTVSPropertyOp6
 70
     1
102
RTVSPropertyOp7
 70
     1
102
RTVSPropertyOp8
 70
     1
102
RTVSPropertyOp9
 70
     1
102
RTVSPropertyOp10
 70
     1
102
RTVSPropertyOp11
 70
     1
102
RTVSPropertyOp12
 70
     1
102
RTVSPropertyOp13
 70
     1
102
RTVSPropertyOp14
 70
     1
102
RTVSPropertyOp15
 70
     1
102
RTVSPropertyOp16
 70
     1
102
RTVSPropertyOp17
 70
     1
102
RTVSPropertyOp18
 70
     1
102
RTVSPropertyOp19
 70
     1
102
RTVSPropertyOp20
 70
     1
102
RTVSPropertyOp21
 70
     1
102
RTVSPropertyOp22
 70
     1
102
RTVSPropertyOp23
 70
     1
102
RTVSPropertyOp24
 70
     1
102
RTVSPropertyOp25
 70
     1
102
RTVSPropertyOp26
 70
     1
102
RTVSPropertyOp27
 70
     1
102
RTVSPropertyOp28
 70
     1
102
RTVSPropertyOp29
 70
     1
102
RTVSPropertyOp30
 70
     1
102
RTVSPropertyOp31
 70
     1
102
RTVSPropertyOp32
 70
     1
  0
XRECORD
  5
92
102
{ACAD_REACTORS
330
91
102
}
330
91
100
AcDbXrecord
280
     1
102
RTVSPropertyOp0
 70
     1
102
RTVSPropertyOp1
 70
     1
102
RTVSPropertyOp2
 70
     1
102
RTVSPropertyOp3
 70
     1
102
RTVSPropertyOp4
 70
     1
102
RTVSPropertyOp5
 70
     1
102
RTVSPropertyOp6
 70
     1
102
RTVSPropertyOp7
 70
     1
102
RTVSPropertyOp8
 70
     1
102
RTVSPropertyOp9
 70
     1
102
RTVSPropertyOp10
 70
     1
102
RTVSPropertyOp11
 70
     1
102
RTVSPropertyOp12
 70
     1
102
RTVSPropertyOp13
 70
     1
102
RTVSPropertyOp14
 70
     1
102
RTVSPropertyOp15
 70
     1
102
RTVSPropertyOp16
 70
     1
102
RTVSPropertyOp17
 70
     1
102
RTVSPropertyOp18
 70
     1
102
RTVSPropertyOp19
 70
     1
102
RTVSPropertyOp20
 70
     1
102
RTVSPropertyOp21
 70
     1
102
RTVSPropertyOp22
 70
     1
102
RTVSPropertyOp23
 70
     1
102
RTVSPropertyOp24
 70
     1
102
RTVSPropertyOp25
 70
     1
102
RTVSPropertyOp26
 70
     1
102
RTVSPropertyOp27
 70
     1
102
RTVSPropertyOp28
 70
     1
102
RTVSPropertyOp29
 70
     1
102
RTVSPropertyOp30
 70
     1
102
RTVSPropertyOp31
 70
     1
102
RTVSPropertyOp32
 70
     1
  0
XRECORD
  5
9A
102
{ACAD_REACTORS
330
99
102
}
330
99
100
AcDbXrecord
280
     1
102
RTVSPropertyOp0
 70
     1
102
RTVSPropertyOp1
 70
     1
102
RTVSPropertyOp2
 70
     1
102
RTVSPropertyOp3
 70
     1
102
RTVSPropertyOp4
 70
     1
102
RTVSPropertyOp5
 70
     1
102
RTVSPropertyOp6
 70
     1
102
RTVSPropertyOp7
 70
     1
102
RTVSPropertyOp8
 70
     1
102
RTVSPropertyOp9
 70
     1
102
RTVSPropertyOp10
 70
     1
102
RTVSPropertyOp11
 70
     1
102
RTVSPropertyOp12
 70
     1
102
RTVSPropertyOp13
 70
     1
102
RTVSPropertyOp14
 70
     1
102
RTVSPropertyOp15
 70
     1
102
RTVSPropertyOp16
 70
     1
102
RTVSPropertyOp17
 70
     1
102
RTVSPropertyOp18
 70
     1
102
RTVSPropertyOp19
 70
     1
102
RTVSPropertyOp20
 70
     1
102
RTVSPropertyOp21
 70
     1
102
RTVSPropertyOp22
 70
     1
102
RTVSPropertyOp23
 70
     1
102
RTVSPropertyOp24
 70
     1
102
RTVSPropertyOp25
 70
     1
102
RTVSPropertyOp26
 70
     1
102
RTVSPropertyOp27
 70
     1
102
RTVSPropertyOp28
 70
     1
102
RTVSPropertyOp29
 70
     1
102
RTVSPropertyOp30
 70
     1
102
RTVSPropertyOp31
 70
     1
102
RTVSPropertyOp32
 70
     1
  0
XRECORD
  5
8E
102
{ACAD_REACTORS
330
8D
102
}
330
8D
100
AcDbXrecord
280
     1
102
RTVSPropertyOp0
 70
     1
102
RTVSPropertyOp1
 70
     1
102
RTVSPropertyOp2
 70
     1
102
RTVSPropertyOp3
 70
     1
102
RTVSPropertyOp4
 70
     1
102
RTVSPropertyOp5
 70
     1
102
RTVSPropertyOp6
 70
     1
102
RTVSPropertyOp7
 70
     1
102
RTVSPropertyOp8
 70
     1
102
RTVSPropertyOp9
 70
     1
102
RTVSPropertyOp10
 70
     1
102
RTVSPropertyOp11
 70
     1
102
RTVSPropertyOp12
 70
     1
102
RTVSPropertyOp13
 70
     1
102
RTVSPropertyOp14
 70
     1
102
RTVSPropertyOp15
 70
     1
102
RTVSPropertyOp16
 70
     1
102
RTVSPropertyOp17
 70
     1
102
RTVSPropertyOp18
 70
     1
102
RTVSPropertyOp19
 70
     1
102
RTVSPropertyOp20
 70
     1
102
RTVSPropertyOp21
 70
     1
102
RTVSPropertyOp22
 70
     1
102
RTVSPropertyOp23
 70
     1
102
RTVSPropertyOp24
 70
     1
102
RTVSPropertyOp25
 70
     1
102
RTVSPropertyOp26
 70
     1
102
RTVSPropertyOp27
 70
     1
102
RTVSPropertyOp28
 70
     1
102
RTVSPropertyOp29
 70
     1
102
RTVSPropertyOp30
 70
     1
102
RTVSPropertyOp31
 70
     1
102
RTVSPropertyOp32
 70
     1
  0
XRECORD
  5
90
102
{ACAD_REACTORS
330
8F
102
}
330
8F
100
AcDbXrecord
280
     1
102
RTVSPropertyOp0
 70
     1
102
RTVSPropertyOp1
 70
     1
102
RTVSPropertyOp2
 70
     1
102
RTVSPropertyOp3
 70
     1
102
RTVSPropertyOp4
 70
     1
102
RTVSPropertyOp5
 70
     1
102
RTVSPropertyOp6
 70
     1
102
RTVSPropertyOp7
 70
     1
102
RTVSPropertyOp8
 70
     1
102
RTVSPropertyOp9
 70
     1
102
RTVSPropertyOp10
 70
     1
102
RTVSPropertyOp11
 70
     1
102
RTVSPropertyOp12
 70
     1
102
RTVSPropertyOp13
 70
     1
102
RTVSPropertyOp14
 70
     1
102
RTVSPropertyOp15
 70
     1
102
RTVSPropertyOp16
 70
     1
102
RTVSPropertyOp17
 70
     1
102
RTVSPropertyOp18
 70
     1
102
RTVSPropertyOp19
 70
     1
102
RTVSPropertyOp20
 70
     1
102
RTVSPropertyOp21
 70
     1
102
RTVSPropertyOp22
 70
     1
102
RTVSPropertyOp23
 70
     1
102
RTVSPropertyOp24
 70
     1
102
RTVSPropertyOp25
 70
     1
102
RTVSPropertyOp26
 70
     1
102
RTVSPropertyOp27
 70
     1
102
RTVSPropertyOp28
 70
     1
102
RTVSPropertyOp29
 70
     1
102
RTVSPropertyOp30
 70
     1
102
RTVSPropertyOp31
 70
     1
102
RTVSPropertyOp32
 70
     1
  0
XRECORD
  5
98
102
{ACAD_REACTORS
330
97
102
}
330
97
100
AcDbXrecord
280
     1
102
RTVSPropertyOp0
 70
     1
102
RTVSPropertyOp1
 70
     1
102
RTVSPropertyOp2
 70
     1
102
RTVSPropertyOp3
 70
     1
102
RTVSPropertyOp4
 70
     1
102
RTVSPropertyOp5
 70
     1
102
RTVSPropertyOp6
 70
     1
102
RTVSPropertyOp7
 70
     1
102
RTVSPropertyOp8
 70
     1
102
RTVSPropertyOp9
 70
     1
102
RTVSPropertyOp10
 70
     1
102
RTVSPropertyOp11
 70
     1
102
RTVSPropertyOp12
 70
     1
102
RTVSPropertyOp13
 70
     1
102
RTVSPropertyOp14
 70
     1
102
RTVSPropertyOp15
 70
     1
102
RTVSPropertyOp16
 70
     1
102
RTVSPropertyOp17
 70
     1
102
RTVSPropertyOp18
 70
     1
102
RTVSPropertyOp19
 70
     1
102
RTVSPropertyOp20
 70
     1
102
RTVSPropertyOp21
 70
     1
102
RTVSPropertyOp22
 70
     1
102
RTVSPropertyOp23
 70
     1
102
RTVSPropertyOp24
 70
     1
102
RTVSPropertyOp25
 70
     1
102
RTVSPropertyOp26
 70
     1
102
RTVSPropertyOp27
 70
     1
102
RTVSPropertyOp28
 70
     1
102
RTVSPropertyOp29
 70
     1
102
RTVSPropertyOp30
 70
     1
102
RTVSPropertyOp31
 70
     1
102
RTVSPropertyOp32
 70
     1
  0
XRECORD
  5
7C
102
{ACAD_REACTORS
330
7B
102
}
330
7B
100
AcDbXrecord
280
     1
102
RTVSPropertyOp0
 70
     1
102
RTVSPropertyOp1
 70
     1
102
RTVSPropertyOp2
 70
     1
102
RTVSPropertyOp3
 70
     1
102
RTVSPropertyOp4
 70
     1
102
RTVSPropertyOp5
 70
     1
102
RTVSPropertyOp6
 70
     1
102
RTVSPropertyOp7
 70
     1
102
RTVSPropertyOp8
 70
     1
102
RTVSPropertyOp9
 70
     1
102
RTVSPropertyOp10
 70
     1
102
RTVSPropertyOp11
 70
     1
102
RTVSPropertyOp12
 70
     1
102
RTVSPropertyOp13
 70
     1
102
RTVSPropertyOp14
 70
     1
102
RTVSPropertyOp15
 70
     1
102
RTVSPropertyOp16
 70
     1
102
RTVSPropertyOp17
 70
     1
102
RTVSPropertyOp18
 70
     1
102
RTVSPropertyOp19
 70
     1
102
RTVSPropertyOp20
 70
     1
102
RTVSPropertyOp21
 70
     1
102
RTVSPropertyOp22
 70
     1
102
RTVSPropertyOp23
 70
     1
102
RTVSPropertyOp24
 70
     1
102
RTVSPropertyOp25
 70
     1
102
RTVSPropertyOp26
 70
     1
102
RTVSPropertyOp27
 70
     1
102
RTVSPropertyOp28
 70
     1
102
RTVSPropertyOp29
 70
     1
102
RTVSPropertyOp30
 70
     1
102
RTVSPropertyOp31
 70
     1
102
RTVSPropertyOp32
 70
     1
  0
XRECORD
  5
7E
102
{ACAD_REACTORS
330
7D
102
}
330
7D
100
AcDbXrecord
280
     1
102
RTVSPropertyOp0
 70
     1
102
RTVSPropertyOp1
 70
     1
102
RTVSPropertyOp2
 70
     1
102
RTVSPropertyOp3
 70
     1
102
RTVSPropertyOp4
 70
     1
102
RTVSPropertyOp5
 70
     1
102
RTVSPropertyOp6
 70
     1
102
RTVSPropertyOp7
 70
     1
102
RTVSPropertyOp8
 70
     1
102
RTVSPropertyOp9
 70
     1
102
RTVSPropertyOp10
 70
     1
102
RTVSPropertyOp11
 70
     1
102
RTVSPropertyOp12
 70
     1
102
RTVSPropertyOp13
 70
     1
102
RTVSPropertyOp14
 70
     1
102
RTVSPropertyOp15
 70
     1
102
RTVSPropertyOp16
 70
     1
102
RTVSPropertyOp17
 70
     1
102
RTVSPropertyOp18
 70
     1
102
RTVSPropertyOp19
 70
     1
102
RTVSPropertyOp20
 70
     1
102
RTVSPropertyOp21
 70
     1
102
RTVSPropertyOp22
 70
     1
102
RTVSPropertyOp23
 70
     1
102
RTVSPropertyOp24
 70
     1
102
RTVSPropertyOp25
 70
     1
102
RTVSPropertyOp26
 70
     1
102
RTVSPropertyOp27
 70
     1
102
RTVSPropertyOp28
 70
     1
102
RTVSPropertyOp29
 70
     1
102
RTVSPropertyOp30
 70
     1
102
RTVSPropertyOp31
 70
     1
102
RTVSPropertyOp32
 70
     1
  0
XRECORD
  5
80
102
{ACAD_REACTORS
330
7F
102
}
330
7F
100
AcDbXrecord
280
     1
102
RTVSPropertyOp0
 70
     1
102
RTVSPropertyOp1
 70
     1
102
RTVSPropertyOp2
 70
     1
102
RTVSPropertyOp3
 70
     1
102
RTVSPropertyOp4
 70
     1
102
RTVSPropertyOp5
 70
     1
102
RTVSPropertyOp6
 70
     1
102
RTVSPropertyOp7
 70
     1
102
RTVSPropertyOp8
 70
     1
102
RTVSPropertyOp9
 70
     1
102
RTVSPropertyOp10
 70
     1
102
RTVSPropertyOp11
 70
     1
102
RTVSPropertyOp12
 70
     1
102
RTVSPropertyOp13
 70
     1
102
RTVSPropertyOp14
 70
     1
102
RTVSPropertyOp15
 70
     1
102
RTVSPropertyOp16
 70
     1
102
RTVSPropertyOp17
 70
     1
102
RTVSPropertyOp18
 70
     1
102
RTVSPropertyOp19
 70
     1
102
RTVSPropertyOp20
 70
     1
102
RTVSPropertyOp21
 70
     1
102
RTVSPropertyOp22
 70
     1
102
RTVSPropertyOp23
 70
     1
102
RTVSPropertyOp24
 70
     1
102
RTVSPropertyOp25
 70
     1
102
RTVSPropertyOp26
 70
     1
102
RTVSPropertyOp27
 70
     1
102
RTVSPropertyOp28
 70
     1
102
RTVSPropertyOp29
 70
     1
102
RTVSPropertyOp30
 70
     1
102
RTVSPropertyOp31
 70
     1
102
RTVSPropertyOp32
 70
     1
  0
XRECORD
  5
82
102
{ACAD_REACTORS
330
81
102
}
330
81
100
AcDbXrecord
280
     1
102
RTVSPropertyOp0
 70
     1
102
RTVSPropertyOp1
 70
     1
102
RTVSPropertyOp2
 70
     1
102
RTVSPropertyOp3
 70
     1
102
RTVSPropertyOp4
 70
     1
102
RTVSPropertyOp5
 70
     1
102
RTVSPropertyOp6
 70
     1
102
RTVSPropertyOp7
 70
     1
102
RTVSPropertyOp8
 70
     1
102
RTVSPropertyOp9
 70
     1
102
RTVSPropertyOp10
 70
     1
102
RTVSPropertyOp11
 70
     1
102
RTVSPropertyOp12
 70
     1
102
RTVSPropertyOp13
 70
     1
102
RTVSPropertyOp14
 70
     1
102
RTVSPropertyOp15
 70
     1
102
RTVSPropertyOp16
 70
     1
102
RTVSPropertyOp17
 70
     1
102
RTVSPropertyOp18
 70
     1
102
RTVSPropertyOp19
 70
     1
102
RTVSPropertyOp20
 70
     1
102
RTVSPropertyOp21
 70
     1
102
RTVSPropertyOp22
 70
     1
102
RTVSPropertyOp23
 70
     1
102
RTVSPropertyOp24
 70
     1
102
RTVSPropertyOp25
 70
     1
102
RTVSPropertyOp26
 70
     1
102
RTVSPropertyOp27
 70
     1
102
RTVSPropertyOp28
 70
     1
102
RTVSPropertyOp29
 70
     1
102
RTVSPropertyOp30
 70
     1
102
RTVSPropertyOp31
 70
     1
102
RTVSPropertyOp32
 70
     1
  0
XRECORD
  5
96
102
{ACAD_REACTORS
330
95
102
}
330
95
100
AcDbXrecord
280
     1
102
RTVSPropertyOp0
 70
     1
102
RTVSPropertyOp1
 70
     1
102
RTVSPropertyOp2
 70
     1
102
RTVSPropertyOp3
 70
     1
102
RTVSPropertyOp4
 70
     1
102
RTVSPropertyOp5
 70
     1
102
RTVSPropertyOp6
 70
     1
102
RTVSPropertyOp7
 70
     1
102
RTVSPropertyOp8
 70
     1
102
RTVSPropertyOp9
 70
     1
102
RTVSPropertyOp10
 70
     1
102
RTVSPropertyOp11
 70
     1
102
RTVSPropertyOp12
 70
     1
102
RTVSPropertyOp13
 70
     1
102
RTVSPropertyOp14
 70
     1
102
RTVSPropertyOp15
 70
     1
102
RTVSPropertyOp16
 70
     1
102
RTVSPropertyOp17
 70
     1
102
RTVSPropertyOp18
 70
     1
102
RTVSPropertyOp19
 70
     1
102
RTVSPropertyOp20
 70
     1
102
RTVSPropertyOp21
 70
     1
102
RTVSPropertyOp22
 70
     1
102
RTVSPropertyOp23
 70
     1
102
RTVSPropertyOp24
 70
     1
102
RTVSPropertyOp25
 70
     1
102
RTVSPropertyOp26
 70
     1
102
RTVSPropertyOp27
 70
     1
102
RTVSPropertyOp28
 70
     1
102
RTVSPropertyOp29
 70
     1
102
RTVSPropertyOp30
 70
     1
102
RTVSPropertyOp31
 70
     1
102
RTVSPropertyOp32
 70
     1
  0
XRECORD
  5
8C
102
{ACAD_REACTORS
330
8B
102
}
330
8B
100
AcDbXrecord
280
     1
102
RTVSPropertyOp0
 70
     1
102
RTVSPropertyOp1
 70
     1
102
RTVSPropertyOp2
 70
     1
102
RTVSPropertyOp3
 70
     1
102
RTVSPropertyOp4
 70
     1
102
RTVSPropertyOp5
 70
     1
102
RTVSPropertyOp6
 70
     1
102
RTVSPropertyOp7
 70
     1
102
RTVSPropertyOp8
 70
     1
102
RTVSPropertyOp9
 70
     1
102
RTVSPropertyOp10
 70
     1
102
RTVSPropertyOp11
 70
     1
102
RTVSPropertyOp12
 70
     1
102
RTVSPropertyOp13
 70
     1
102
RTVSPropertyOp14
 70
     1
102
RTVSPropertyOp15
 70
     1
102
RTVSPropertyOp16
 70
     1
102
RTVSPropertyOp17
 70
     1
102
RTVSPropertyOp18
 70
     1
102
RTVSPropertyOp19
 70
     1
102
RTVSPropertyOp20
 70
     1
102
RTVSPropertyOp21
 70
     1
102
RTVSPropertyOp22
 70
     1
102
RTVSPropertyOp23
 70
     1
102
RTVSPropertyOp24
 70
     1
102
RTVSPropertyOp25
 70
     1
102
RTVSPropertyOp26
 70
     1
102
RTVSPropertyOp27
 70
     1
102
RTVSPropertyOp28
 70
     1
102
RTVSPropertyOp29
 70
     1
102
RTVSPropertyOp30
 70
     1
102
RTVSPropertyOp31
 70
     1
102
RTVSPropertyOp32
 70
     1
  0
XRECORD
  5
94
102
{ACAD_REACTORS
330
93
102
}
330
93
100
AcDbXrecord
280
     1
102
RTVSPropertyOp0
 70
     1
102
RTVSPropertyOp1
 70
     1
102
RTVSPropertyOp2
 70
     1
102
RTVSPropertyOp3
 70
     1
102
RTVSPropertyOp4
 70
     1
102
RTVSPropertyOp5
 70
     1
102
RTVSPropertyOp6
 70
     1
102
RTVSPropertyOp7
 70
     1
102
RTVSPropertyOp8
 70
     1
102
RTVSPropertyOp9
 70
     1
102
RTVSPropertyOp10
 70
     1
102
RTVSPropertyOp11
 70
     1
102
RTVSPropertyOp12
 70
     1
102
RTVSPropertyOp13
 70
     1
102
RTVSPropertyOp14
 70
     1
102
RTVSPropertyOp15
 70
     1
102
RTVSPropertyOp16
 70
     1
102
RTVSPropertyOp17
 70
     1
102
RTVSPropertyOp18
 70
     1
102
RTVSPropertyOp19
 70
     1
102
RTVSPropertyOp20
 70
     1
102
RTVSPropertyOp21
 70
     1
102
RTVSPropertyOp22
 70
     1
102
RTVSPropertyOp23
 70
     1
102
RTVSPropertyOp24
 70
     1
102
RTVSPropertyOp25
 70
     1
102
RTVSPropertyOp26
 70
     1
102
RTVSPropertyOp27
 70
     1
102
RTVSPropertyOp28
 70
     1
102
RTVSPropertyOp29
 70
     1
102
RTVSPropertyOp30
 70
     1
102
RTVSPropertyOp31
 70
     1
102
RTVSPropertyOp32
 70
     1
  0
ENDSEC
  0
EOF
