  0
SECTION
  2
HEADER
  9
$ACADVER
  1
AC1021
  9
$ACADMAINTVER
 70
    25
  9
$DWGCODEPAGE
  3
ANSI_1252
  9
$INSBASE
 10
0.0
 20
0.0
 30
0.0
  9
$EXTMIN
 10
76.1796
 20
-114.7791
 30
0.0
  9
$EXTMAX
 10
196.4132
 20
132.0909
 30
0.0
  9
$LIMMIN
 10
0.0
 20
0.0
  9
$LIMMAX
 10
12.0
 20
9.0
  9
$ORTHOMODE
 70
     0
  9
$REGENMODE
 70
     1
  9
$FILLMODE
 70
     1
  9
$QTEXTMODE
 70
     0
  9
$MIRRTEXT
 70
     1
  9
$LTSCALE
 40
1.0
  9
$ATTMODE
 70
     1
  9
$TEXTSIZE
 40
0.2
  9
$TRACEWID
 40
0.05
  9
$TEXTSTYLE
  7
Standard
  9
$CLAYER
  8
0
  9
$CELTYPE
  6
ByLayer
  9
$CECOLOR
 62
   256
  9
$CELTSCALE
 40
1.0
  9
$DISPSILH
 70
     0
  9
$DIMSCALE
 40
1.0
  9
$DIMASZ
 40
0.18
  9
$DIMEXO
 40
0.0625
  9
$DIMDLI
 40
0.38
  9
$DIMRND
 40
0.0
  9
$DIMDLE
 40
0.0
  9
$DIMEXE
 40
0.18
  9
$DIMTP
 40
0.0
  9
$DIMTM
 40
0.0
  9
$DIMTXT
 40
0.18
  9
$DIMCEN
 40
0.09
  9
$DIMTSZ
 40
0.0
  9
$DIMTOL
 70
     0
  9
$DIMLIM
 70
     0
  9
$DIMTIH
 70
     1
  9
$DIMTOH
 70
     1
  9
$DIMSE1
 70
     0
  9
$DIMSE2
 70
     0
  9
$DIMTAD
 70
     0
  9
$DIMZIN
 70
     0
  9
$DIMBLK
  1

  9
$DIMASO
 70
     1
  9
$DIMSHO
 70
     1
  9
$DIMPOST
  1

  9
$DIMAPOST
  1

  9
$DIMALT
 70
     0
  9
$DIMALTD
 70
     2
  9
$DIMALTF
 40
25.4
  9
$DIMLFAC
 40
1.0
  9
$DIMTOFL
 70
     0
  9
$DIMTVP
 40
0.0
  9
$DIMTIX
 70
     0
  9
$DIMSOXD
 70
     0
  9
$DIMSAH
 70
     0
  9
$DIMBLK1
  1

  9
$DIMBLK2
  1

  9
$DIMSTYLE
  2
Standard
  9
$DIMCLRD
 70
     0
  9
$DIMCLRE
 70
     0
  9
$DIMCLRT
 70
     0
  9
$DIMTFAC
 40
1.0
  9
$DIMGAP
 40
0.09
  9
$DIMJUST
 70
     0
  9
$DIMSD1
 70
     0
  9
$DIMSD2
 70
     0
  9
$DIMTOLJ
 70
     1
  9
$DIMTZIN
 70
     0
  9
$DIMALTZ
 70
     0
  9
$DIMALTTZ
 70
     0
  9
$DIMUPT
 70
     0
  9
$DIMDEC
 70
     4
  9
$DIMTDEC
 70
     4
  9
$DIMALTU
 70
     2
  9
$DIMALTTD
 70
     2
  9
$DIMTXSTY
  7
Standard
  9
$DIMAUNIT
 70
     0
  9
$DIMADEC
 70
     0
  9
$DIMALTRND
 40
0.0
  9
$DIMAZIN
 70
     0
  9
$DIMDSEP
 70
    46
  9
$DIMATFIT
 70
     3
  9
$DIMFRAC
 70
     0
  9
$DIMLDRBLK
  1

  9
$DIMLUNIT
 70
     2
  9
$DIMLWD
 70
    -2
  9
$DIMLWE
 70
    -2
  9
$DIMTMOVE
 70
     0
  9
$DIMFXL
 40
1.0
  9
$DIMFXLON
 70
     0
  9
$DIMJOGANG
 40
0.7853981633974483
  9
$DIMTFILL
 70
     0
  9
$DIMTFILLCLR
 70
     0
  9
$DIMARCSYM
 70
     0
  9
$DIMLTYPE
  6

  9
$DIMLTEX1
  6

  9
$DIMLTEX2
  6

  9
$LUNITS
 70
     2
  9
$LUPREC
 70
     4
  9
$SKETCHINC
 40
0.1
  9
$FILLETRAD
 40
0.5
  9
$AUNITS
 70
     0
  9
$AUPREC
 70
     0
  9
$MENU
  1
.
  9
$ELEVATION
 40
0.0
  9
$PELEVATION
 40
0.0
  9
$THICKNESS
 40
0.0
  9
$LIMCHECK
 70
     0
  9
$CHAMFERA
 40
0.5
  9
$CHAMFERB
 40
0.5
  9
$CHAMFERC
 40
1.0
  9
$CHAMFERD
 40
0.0
  9
$SKPOLY
 70
     0
  9
$TDCREATE
 40
2458492.683105312
  9
$TDUCREATE
 40
2458492.683105312
  9
$TDUPDATE
 40
2458492.683105648
  9
$TDUUPDATE
 40
2458492.683105648
  9
$TDINDWG
 40
0.0000000116
  9
$TDUSRTIMER
 40
0.0000000116
  9
$USRTIMER
 70
     1
  9
$ANGBASE
 50
0.0
  9
$ANGDIR
 70
     0
  9
$PDMODE
 70
     0
  9
$PDSIZE
 40
0.0
  9
$PLINEWID
 40
0.0
  9
$SPLFRAME
 70
     0
  9
$SPLINETYPE
 70
     6
  9
$SPLINESEGS
 70
     8
  9
$HANDSEED
  5
DD
  9
$SURFTAB1
 70
     6
  9
$SURFTAB2
 70
     6
  9
$SURFTYPE
 70
     6
  9
$SURFU
 70
     6
  9
$SURFV
 70
     6
  9
$UCSBASE
  2

  9
$UCSNAME
  2

  9
$UCSORG
 10
0.0
 20
0.0
 30
0.0
  9
$UCSXDIR
 10
1.0
 20
0.0
 30
0.0
  9
$UCSYDIR
 10
0.0
 20
1.0
 30
0.0
  9
$UCSORTHOREF
  2

  9
$UCSORTHOVIEW
 70
     0
  9
$UCSORGTOP
 10
0.0
 20
0.0
 30
0.0
  9
$UCSORGBOTTOM
 10
0.0
 20
0.0
 30
0.0
  9
$UCSORGLEFT
 10
0.0
 20
0.0
 30
0.0
  9
$UCSORGRIGHT
 10
0.0
 20
0.0
 30
0.0
  9
$UCSORGFRONT
 10
0.0
 20
0.0
 30
0.0
  9
$UCSORGBACK
 10
0.0
 20
0.0
 30
0.0
  9
$PUCSBASE
  2

  9
$PUCSNAME
  2

  9
$PUCSORG
 10
0.0
 20
0.0
 30
0.0
  9
$PUCSXDIR
 10
1.0
 20
0.0
 30
0.0
  9
$PUCSYDIR
 10
0.0
 20
1.0
 30
0.0
  9
$PUCSORTHOREF
  2

  9
$PUCSORTHOVIEW
 70
     0
  9
$PUCSORGTOP
 10
0.0
 20
0.0
 30
0.0
  9
$PUCSORGBOTTOM
 10
0.0
 20
0.0
 30
0.0
  9
$PUCSORGLEFT
 10
0.0
 20
0.0
 30
0.0
  9
$PUCSORGRIGHT
 10
0.0
 20
0.0
 30
0.0
  9
$PUCSORGFRONT
 10
0.0
 20
0.0
 30
0.0
  9
$PUCSORGBACK
 10
0.0
 20
0.0
 30
0.0
  9
$USERI1
 70
     0
  9
$USERI2
 70
     0
  9
$USERI3
 70
     0
  9
$USERI4
 70
     0
  9
$USERI5
 70
     0
  9
$USERR1
 40
0.0
  9
$USERR2
 40
0.0
  9
$USERR3
 40
0.0
  9
$USERR4
 40
0.0
  9
$USERR5
 40
0.0
  9
$WORLDVIEW
 70
     1
  9
$SHADEDGE
 70
     3
  9
$SHADEDIF
 70
    70
  9
$TILEMODE
 70
     1
  9
$MAXACTVP
 70
    64
  9
$PINSBASE
 10
0.0
 20
0.0
 30
0.0
  9
$PLIMCHECK
 70
     0
  9
$PEXTMIN
 10
1.000000000000000E+20
 20
1.000000000000000E+20
 30
1.000000000000000E+20
  9
$PEXTMAX
 10
-1.000000000000000E+20
 20
-1.000000000000000E+20
 30
-1.000000000000000E+20
  9
$PLIMMIN
 10
0.0
 20
0.0
  9
$PLIMMAX
 10
12.0
 20
9.0
  9
$UNITMODE
 70
     0
  9
$VISRETAIN
 70
     1
  9
$PLINEGEN
 70
     0
  9
$PSLTSCALE
 70
     1
  9
$TREEDEPTH
 70
  3020
  9
$CMLSTYLE
  2
Standard
  9
$CMLJUST
 70
     0
  9
$CMLSCALE
 40
1.0
  9
$PROXYGRAPHICS
 70
     1
  9
$MEASUREMENT
 70
     0
  9
$CELWEIGHT
370
    -1
  9
$ENDCAPS
280
     0
  9
$JOINSTYLE
280
     0
  9
$LWDISPLAY
290
     0
  9
$INSUNITS
 70
     4
  9
$HYPERLINKBASE
  1

  9
$STYLESHEET
  1

  9
$XEDIT
290
     1
  9
$CEPSNTYPE
380
     0
  9
$PSTYLEMODE
290
     1
  9
$FINGERPRINTGUID
  2
{5DE0BC14-2562-4FC2-893B-F65ACA1D8A10}
  9
$VERSIONGUID
  2
{FAEB1C32-E019-11D5-929B-00C0DF256EC4}
  9
$EXTNAMES
290
     1
  9
$PSVPSCALE
 40
0.0
  9
$OLESTARTUP
290
     0
  9
$SORTENTS
280
   127
  9
$INDEXCTL
280
     0
  9
$HIDETEXT
280
     1
  9
$XCLIPFRAME
290
     0
  9
$HALOGAP
280
     0
  9
$OBSCOLOR
 70
   257
  9
$OBSLTYPE
280
     0
  9
$INTERSECTIONDISPLAY
280
     0
  9
$INTERSECTIONCOLOR
 70
   257
  9
$DIMASSOC
280
     2
  9
$PROJECTNAME
  1

  9
$CAMERADISPLAY
290
     0
  9
$LENSLENGTH
 40
50.0
  9
$CAMERAHEIGHT
 40
0.0
  9
$STEPSPERSEC
 40
2.0
  9
$STEPSIZE
 40
6.0
  9
$3DDWFPREC
 40
2.0
  9
$PSOLWIDTH
 40
0.25
  9
$PSOLHEIGHT
 40
4.0
  9
$LOFTANG1
 40
1.570796326794897
  9
$LOFTANG2
 40
1.570796326794897
  9
$LOFTMAG1
 40
0.0
  9
$LOFTMAG2
 40
0.0
  9
$LOFTPARAM
 70
     7
  9
$LOFTNORMALS
280
     1
  9
$LATITUDE
 40
37.795
  9
$LONGITUDE
 40
-122.394
  9
$NORTHDIRECTION
 40
0.0
  9
$TIMEZONE
 70
 -8000
  9
$LIGHTGLYPHDISPLAY
280
     1
  9
$TILEMODELIGHTSYNCH
280
     1
  9
$SOLIDHIST
280
     1
  9
$SHOWHIST
280
     1
  9
$DWFFRAME
280
     2
  9
$DGNFRAME
280
     2
  9
$REALWORLDSCALE
290
     1
  9
$INTERFERECOLOR
 62
   256
  9
$CSHADOW
280
     0
  9
$SHADOWPLANELOCATION
 40
0.0
  0
ENDSEC
  0
SECTION
  2
CLASSES
  0
CLASS
  1
ACDBDICTIONARYWDFLT
  2
AcDbDictionaryWithDefault
  3
ObjectDBX Classes
 90
        0
 91
        4
280
     0
281
     0
  0
CLASS
  1
VISUALSTYLE
  2
AcDbVisualStyle
  3
ObjectDBX Classes
 90
     4095
 91
        4
280
     0
281
     0
  0
CLASS
  1
MATERIAL
  2
AcDbMaterial
  3
ObjectDBX Classes
 90
     1153
 91
        4
280
     0
281
     0
  0
ENDSEC
  0
SECTION
  2
TABLES
  0
TABLE
  2
VPORT
  5
8
330
0
100
AcDbSymbolTable
 70
     1
  0
VPORT
  5
29
330
8
100
AcDbSymbolTableRecord
100
AcDbViewportTableRecord
  2
*Active
 70
     0
 10
0.0
 20
0.0
 11
1.0
 21
1.0
 12
10.42990654205607
 22
4.5
 13
0.0
 23
0.0
 14
0.5
 24
0.5
 15
0.5
 25
0.5
 16
0.0
 26
0.0
 36
1.0
 17
0.0
 27
0.0
 37
0.0
 40
9.0
 41
1.972972972850329
 42
50.0
 43
0.0
 44
0.0
 50
0.0
 51
0.0
 71
     0
 72
   100
 73
     1
 74
     3
 75
     0
 76
     0
 77
     0
 78
     0
281
     0
 65
     1
110
0.0
120
0.0
130
0.0
111
1.0
121
0.0
131
0.0
112
0.0
122
1.0
132
0.0
 79
     0
146
0.0
 60
     3
 61
     5
292
     1
282
     1
141
0.0
142
0.0
 63
   250
  0
ENDTAB
  0
TABLE
  2
LTYPE
  5
5
330
0
100
AcDbSymbolTable
 70
     1
  0
LTYPE
  5
14
330
5
100
AcDbSymbolTableRecord
100
AcDbLinetypeTableRecord
  2
ByBlock
 70
     0
  3

 72
    65
 73
     0
 40
0.0
  0
LTYPE
  5
15
330
5
100
AcDbSymbolTableRecord
100
AcDbLinetypeTableRecord
  2
ByLayer
 70
     0
  3

 72
    65
 73
     0
 40
0.0
  0
LTYPE
  5
16
330
5
100
AcDbSymbolTableRecord
100
AcDbLinetypeTableRecord
  2
Continuous
 70
     0
  3
Solid line
 72
    65
 73
     0
 40
0.0
  0
ENDTAB
  0
TABLE
  2
LAYER
  5
2
330
0
100
AcDbSymbolTable
 70
     2
  0
LAYER
  5
10
330
2
100
AcDbSymbolTableRecord
100
AcDbLayerTableRecord
  2
0
 70
     0
 62
     7
  6
Continuous
370
    -3
390
F
347
3E
  0
LAYER
  5
40
330
2
100
AcDbSymbolTableRecord
100
AcDbLayerTableRecord
  2
layer 1
 70
     0
 62
     7
  6
Continuous
370
    -3
390
F
347
3E
  0
ENDTAB
  0
TABLE
  2
STYLE
  5
3
330
0
100
AcDbSymbolTable
 70
     1
  0
STYLE
  5
11
330
3
100
AcDbSymbolTableRecord
100
AcDbTextStyleTableRecord
  2
Standard
 70
     0
 40
0.0
 41
1.0
 50
0.0
 71
     0
 42
0.2
  3
txt
  4

  0
ENDTAB
  0
TABLE
  2
VIEW
  5
6
330
0
100
AcDbSymbolTable
 70
     0
  0
ENDTAB
  0
TABLE
  2
UCS
  5
7
330
0
100
AcDbSymbolTable
 70
     0
  0
ENDTAB
  0
TABLE
  2
APPID
  5
9
330
0
100
AcDbSymbolTable
 70
     2
  0
APPID
  5
12
330
9
100
AcDbSymbolTableRecord
100
AcDbRegAppTableRecord
  2
ACAD
 70
     0
  0
APPID
  5
3F
330
9
100
AcDbSymbolTableRecord
100
AcDbRegAppTableRecord
  2
ODA
 70
     0
  0
ENDTAB
  0
TABLE
  2
DIMSTYLE
  5
A
330
0
100
AcDbSymbolTable
 70
     1
100
AcDbDimStyleTable
  0
DIMSTYLE
105
27
330
A
100
AcDbSymbolTableRecord
100
AcDbDimStyleTableRecord
  2
Standard
 70
     0
178
     0
340
11
  0
ENDTAB
  0
TABLE
  2
BLOCK_RECORD
  5
1
330
0
100
AcDbSymbolTable
 70
     1
  0
BLOCK_RECORD
  5
1F
330
1
100
AcDbSymbolTableRecord
100
AcDbBlockTableRecord
  2
*Model_Space
340
22
 70
     0
280
     1
281
     0
  0
BLOCK_RECORD
  5
1B
330
1
100
AcDbSymbolTableRecord
100
AcDbBlockTableRecord
  2
*Paper_Space
340
1E
 70
     0
280
     1
281
     0
  0
BLOCK_RECORD
  5
23
330
1
100
AcDbSymbolTableRecord
100
AcDbBlockTableRecord
  2
*Paper_Space0
340
26
 70
     0
280
     1
281
     0
  0
ENDTAB
  0
ENDSEC
  0
SECTION
  2
BLOCKS
  0
BLOCK
  5
20
330
1F
100
AcDbEntity
  8
0
100
AcDbBlockBegin
  2
*Model_Space
 70
     0
 10
0.0
 20
0.0
 30
0.0
  3
*Model_Space
  1

  0
ENDBLK
  5
21
330
1F
100
AcDbEntity
  8
0
100
AcDbBlockEnd
  0
BLOCK
  5
1C
330
1B
100
AcDbEntity
 67
     1
  8
0
100
AcDbBlockBegin
  2
*Paper_Space
 70
     0
 10
0.0
 20
0.0
 30
0.0
  3
*Paper_Space
  1

  0
ENDBLK
  5
1D
330
1B
100
AcDbEntity
 67
     1
  8
0
100
AcDbBlockEnd
  0
BLOCK
  5
24
330
23
100
AcDbEntity
  8
0
100
AcDbBlockBegin
  2
*Paper_Space0
 70
     0
 10
0.0
 20
0.0
 30
0.0
  3
*Paper_Space0
  1

  0
ENDBLK
  5
25
330
23
100
AcDbEntity
  8
0
100
AcDbBlockEnd
  0
ENDSEC
  0
SECTION
  2
ENTITIES
  0
SPLINE
  5
41
330
1F
100
AcDbEntity
  8
layer 1
 62
   250
370
     9
100
AcDbSpline
210
0.0
220
0.0
230
1.0
 70
    11
 71
     3
 72
    20
 73
    16
 74
     0
 42
0.0000000001
 43
0.0000000001
 12
1.0
 22
0.0
 32
0.0
 13
1.0
 23
0.0
 33
0.0
 40
0.0
 40
0.0
 40
0.0
 40
0.0
 40
0.2
 40
0.2
 40
0.2
 40
0.2
 40
0.4
 40
0.4
 40
0.4
 40
0.4
 40
0.6
 40
0.6
 40
0.6
 40
0.6
 40
1.0
 40
1.0
 40
1.0
 40
1.0
 10
76.2177
 20
-114.741
 30
0.0
 10
76.2177
 20
-114.741
 30
0.0
 10
76.2177
 20
132.0528
 30
0.0
 10
76.2177
 20
132.0528
 30
0.0
 10
76.2177
 20
132.0528
 30
0.0
 10
76.2177
 20
132.0528
 30
0.0
 10
196.3751
 20
132.0528
 30
0.0
 10
196.3751
 20
132.0528
 30
0.0
 10
196.3751
 20
132.0528
 30
0.0
 10
196.3751
 20
132.0528
 30
0.0
 10
196.3751
 20
-114.741
 30
0.0
 10
196.3751
 20
-114.741
 30
0.0
 10
196.3751
 20
-114.741
 30
0.0
 10
196.3751
 20
-114.741
 30
0.0
 10
76.2177
 20
-114.741
 30
0.0
 10
76.2177
 20
-114.741
 30
0.0
  0
SPLINE
  5
42
330
1F
100
AcDbEntity
  8
layer 1
 62
     7
370
     9
100
AcDbSpline
210
0.0
220
0.0
230
1.0
 70
    11
 71
     3
 72
    24
 73
    20
 74
     0
 42
0.0000000001
 43
0.0000000001
 12
1.0
 22
0.0
 32
0.0
 13
1.0
 23
0.0
 33
0.0
 40
0.0
 40
0.0
 40
0.0
 40
0.0
 40
0.1666666666666667
 40
0.1666666666666667
 40
0.1666666666666667
 40
0.1666666666666667
 40
0.3333333333333333
 40
0.3333333333333333
 40
0.3333333333333333
 40
0.3333333333333333
 40
0.5
 40
0.5
 40
0.5
 40
0.5
 40
0.6666666666666666
 40
0.6666666666666666
 40
0.6666666666666666
 40
0.6666666666666666
 40
1.0
 40
1.0
 40
1.0
 40
1.0
 10
173.5745
 20
-107.5606
 30
0.0
 10
171.975
 20
-107.4536
 30
0.0
 10
170.5026
 20
-108.433
 30
0.0
 10
169.983
 20
-109.95
 30
0.0
 10
169.983
 20
-109.95
 30
0.0
 10
169.983
 20
-109.95
 30
0.0
 10
191.6758
 20
-109.95
 30
0.0
 10
191.6758
 20
-109.95
 30
0.0
 10
191.6758
 20
-109.95
 30
0.0
 10
191.6758
 20
-109.95
 30
0.0
 10
191.6758
 20
-97.6869
 30
0.0
 10
191.6758
 20
-97.6869
 30
0.0
 10
191.6758
 20
-97.6869
 30
0.0
 10
189.8873
 20
-100.608
 30
0.0
 10
187.492
 20
-103.1108
 30
0.0
 10
184.6525
 20
-105.0261
 30
0.0
 10
184.6525
 20
-105.0261
 30
0.0
 10
181.5644
 20
-107.5675
 30
0.0
 10
177.4602
 20
-108.5062
 30
0.0
 10
173.5745
 20
-107.5606
 30
0.0
  0
SPLINE
  5
43
330
1F
100
AcDbEntity
  8
layer 1
 62
     7
370
     9
100
AcDbSpline
210
0.0
220
0.0
230
1.0
 70
    11
 71
     3
 72
    56
 73
    52
 74
     0
 42
0.0000000001
 43
0.0000000001
 12
1.0
 22
0.0
 32
0.0
 13
1.0
 23
0.0
 33
0.0
 40
0.0
 40
0.0
 40
0.0
 40
0.0
 40
0.0714285714285714
 40
0.0714285714285714
 40
0.0714285714285714
 40
0.0714285714285714
 40
0.1428571428571428
 40
0.1428571428571428
 40
0.1428571428571428
 40
0.1428571428571428
 40
0.2142857142857143
 40
0.2142857142857143
 40
0.2142857142857143
 40
0.2142857142857143
 40
0.2857142857142857
 40
0.2857142857142857
 40
0.2857142857142857
 40
0.2857142857142857
 40
0.3571428571428572
 40
0.3571428571428572
 40
0.3571428571428572
 40
0.3571428571428572
 40
0.4285714285714285
 40
0.4285714285714285
 40
0.4285714285714285
 40
0.4285714285714285
 40
0.5
 40
0.5
 40
0.5
 40
0.5
 40
0.5714285714285714
 40
0.5714285714285714
 40
0.5714285714285714
 40
0.5714285714285714
 40
0.6428571428571429
 40
0.6428571428571429
 40
0.6428571428571429
 40
0.6428571428571429
 40
0.7142857142857143
 40
0.7142857142857143
 40
0.7142857142857143
 40
0.7142857142857143
 40
0.7857142857142857
 40
0.7857142857142857
 40
0.7857142857142857
 40
0.7857142857142857
 40
0.8571428571428571
 40
0.8571428571428571
 40
0.8571428571428571
 40
0.8571428571428571
 40
1.0
 40
1.0
 40
1.0
 40
1.0
 10
171.1128
 20
-105.2073
 30
0.0
 10
169.2174
 20
-106.0079
 30
0.0
 10
168.0111
 20
-107.8936
 30
0.0
 10
168.0782
 20
-109.95
 30
0.0
 10
168.0782
 20
-109.95
 30
0.0
 10
168.0782
 20
-109.95
 30
0.0
 10
161.7928
 20
-109.95
 30
0.0
 10
161.7928
 20
-109.95
 30
0.0
 10
161.7928
 20
-109.95
 30
0.0
 10
162.8352
 20
-108.9045
 30
0.0
 10
163.4589
 20
-107.5139
 30
0.0
 10
163.5465
 20
-106.04
 30
0.0
 10
163.5465
 20
-106.04
 30
0.0
 10
163.5133
 20
-104.7663
 30
0.0
 10
162.8804
 20
-103.5834
 30
0.0
 10
161.8395
 20
-102.849
 30
0.0
 10
161.8395
 20
-102.849
 30
0.0
 10
160.7985
 20
-102.1145
 30
0.0
 10
159.4717
 20
-101.9154
 30
0.0
 10
158.2608
 20
-102.3112
 30
0.0
 10
158.2608
 20
-102.3112
 30
0.0
 10
157.3912
 20
-102.6708
 30
0.0
 10
156.9778
 20
-103.6676
 30
0.0
 10
157.3378
 20
-104.5375
 30
0.0
 10
157.3378
 20
-104.5375
 30
0.0
 10
157.6977
 20
-105.4075
 30
0.0
 10
158.6945
 20
-105.8207
 30
0.0
 10
159.5642
 20
-105.4605
 30
0.0
 10
159.5642
 20
-105.4605
 30
0.0
 10
159.9618
 20
-105.9442
 30
0.0
 10
160.0169
 20
-106.6239
 30
0.0
 10
159.702
 20
-107.1647
 30
0.0
 10
159.702
 20
-107.1647
 30
0.0
 10
159.387
 20
-107.7055
 30
0.0
 10
158.769
 20
-107.9934
 30
0.0
 10
158.1523
 20
-107.8866
 30
0.0
 10
158.1523
 20
-107.8866
 30
0.0
 10
156.2835
 20
-107.9704
 30
0.0
 10
154.6221
 20
-106.7057
 30
0.0
 10
154.2062
 20
-104.8816
 30
0.0
 10
154.2062
 20
-104.8816
 30
0.0
 10
153.8979
 20
-102.9117
 30
0.0
 10
154.8329
 20
-100.9551
 30
0.0
 10
156.5593
 20
-99.9578
 30
0.0
 10
156.5593
 20
-99.9578
 30
0.0
 10
158.3702
 20
-99.216
 30
0.0
 10
160.4115
 20
-99.2817
 30
0.0
 10
162.1707
 20
-100.139
 30
0.0
 10
162.1707
 20
-100.139
 30
0.0
 10
165.1433
 20
-101.8432
 30
0.0
 10
168.1238
 20
-103.5327
 30
0.0
 10
171.1128
 20
-105.2073
 30
0.0
  0
SPLINE
  5
44
330
1F
100
AcDbEntity
  8
layer 1
 62
     7
370
     9
100
AcDbSpline
210
0.0
220
0.0
230
1.0
 70
    11
 71
     3
 72
    84
 73
    80
 74
     0
 42
0.0000000001
 43
0.0000000001
 12
1.0
 22
0.0
 32
0.0
 13
1.0
 23
0.0
 33
0.0
 40
0.0
 40
0.0
 40
0.0
 40
0.0
 40
0.0476190476190476
 40
0.0476190476190476
 40
0.0476190476190476
 40
0.0476190476190476
 40
0.0952380952380952
 40
0.0952380952380952
 40
0.0952380952380952
 40
0.0952380952380952
 40
0.1428571428571428
 40
0.1428571428571428
 40
0.1428571428571428
 40
0.1428571428571428
 40
0.1904761904761905
 40
0.1904761904761905
 40
0.1904761904761905
 40
0.1904761904761905
 40
0.2380952380952381
 40
0.2380952380952381
 40
0.2380952380952381
 40
0.2380952380952381
 40
0.2857142857142857
 40
0.2857142857142857
 40
0.2857142857142857
 40
0.2857142857142857
 40
0.3333333333333333
 40
0.3333333333333333
 40
0.3333333333333333
 40
0.3333333333333333
 40
0.3809523809523809
 40
0.3809523809523809
 40
0.3809523809523809
 40
0.3809523809523809
 40
0.4285714285714285
 40
0.4285714285714285
 40
0.4285714285714285
 40
0.4285714285714285
 40
0.4761904761904762
 40
0.4761904761904762
 40
0.4761904761904762
 40
0.4761904761904762
 40
0.5238095238095238
 40
0.5238095238095238
 40
0.5238095238095238
 40
0.5238095238095238
 40
0.5714285714285714
 40
0.5714285714285714
 40
0.5714285714285714
 40
0.5714285714285714
 40
0.6190476190476191
 40
0.6190476190476191
 40
0.6190476190476191
 40
0.6190476190476191
 40
0.6666666666666666
 40
0.6666666666666666
 40
0.6666666666666666
 40
0.6666666666666666
 40
0.7142857142857143
 40
0.7142857142857143
 40
0.7142857142857143
 40
0.7142857142857143
 40
0.7619047619047619
 40
0.7619047619047619
 40
0.7619047619047619
 40
0.7619047619047619
 40
0.8095238095238095
 40
0.8095238095238095
 40
0.8095238095238095
 40
0.8095238095238095
 40
0.8571428571428571
 40
0.8571428571428571
 40
0.8571428571428571
 40
0.8571428571428571
 40
0.9047619047619048
 40
0.9047619047619048
 40
0.9047619047619048
 40
0.9047619047619048
 40
1.0
 40
1.0
 40
1.0
 40
1.0
 10
153.2298
 20
-109.95
 30
0.0
 10
153.2298
 20
-109.95
 30
0.0
 10
136.7205
 20
-109.95
 30
0.0
 10
136.7205
 20
-109.95
 30
0.0
 10
136.7205
 20
-109.95
 30
0.0
 10
137.7921
 20
-108.4235
 30
0.0
 10
138.245
 20
-106.5477
 30
0.0
 10
137.9876
 20
-104.7006
 30
0.0
 10
137.9876
 20
-104.7006
 30
0.0
 10
139.0081
 20
-105.6772
 30
0.0
 10
140.4342
 20
-106.1083
 30
0.0
 10
141.8248
 20
-105.859
 30
0.0
 10
141.8248
 20
-105.859
 30
0.0
 10
142.0808
 20
-104.6449
 30
0.0
 10
141.8038
 20
-103.3797
 30
0.0
 10
141.0649
 20
-102.3834
 30
0.0
 10
141.0649
 20
-102.3834
 30
0.0
 10
141.9268
 20
-102.589
 30
0.0
 10
142.8348
 20
-102.3653
 30
0.0
 10
143.5024
 20
-101.7834
 30
0.0
 10
143.5024
 20
-101.7834
 30
0.0
 10
144.1706
 20
-101.202
 30
0.0
 10
144.5169
 20
-100.3331
 30
0.0
 10
144.4316
 20
-99.4512
 30
0.0
 10
144.4316
 20
-99.4512
 30
0.0
 10
143.4754
 20
-100.0793
 30
0.0
 10
142.2378
 20
-100.0793
 30
0.0
 10
141.2821
 20
-99.4512
 30
0.0
 10
141.2821
 20
-99.4512
 30
0.0
 10
140.1198
 20
-98.798
 30
0.0
 10
138.8406
 20
-98.3797
 30
0.0
 10
137.5171
 20
-98.2201
 30
0.0
 10
137.5171
 20
-98.2201
 30
0.0
 10
137.5171
 20
-98.2201
 30
0.0
 10
137.5171
 20
-94.8174
 30
0.0
 10
137.5171
 20
-94.8174
 30
0.0
 10
137.5171
 20
-94.8174
 30
0.0
 10
138.5977
 20
-95.1089
 30
0.0
 10
139.6287
 20
-95.5604
 30
0.0
 10
140.5757
 20
-96.1568
 30
0.0
 10
140.5757
 20
-96.1568
 30
0.0
 10
141.6458
 20
-96.8627
 30
0.0
 10
143.0138
 20
-96.9343
 30
0.0
 10
144.1521
 20
-96.3449
 30
0.0
 10
144.1521
 20
-96.3449
 30
0.0
 10
145.2899
 20
-95.755
 30
0.0
 10
146.0203
 20
-94.5961
 30
0.0
 10
146.0609
 20
-93.3148
 30
0.0
 10
146.0609
 20
-93.3148
 30
0.0
 10
144.8696
 20
-93.8056
 30
0.0
 10
143.5627
 20
-93.9435
 30
0.0
 10
142.296
 20
-93.7131
 30
0.0
 10
142.296
 20
-93.7131
 30
0.0
 10
141.9173
 20
-93.6059
 30
0.0
 10
141.6167
 20
-93.318
 30
0.0
 10
141.4934
 20
-92.9441
 30
0.0
 10
141.4934
 20
-92.9441
 30
0.0
 10
141.3699
 20
-92.5704
 30
0.0
 10
141.4402
 20
-92.16
 30
0.0
 10
141.6804
 20
-91.8486
 30
0.0
 10
141.6804
 20
-91.8486
 30
0.0
 10
142.6887
 20
-90.6124
 30
0.0
 10
144.0974
 20
-89.7672
 30
0.0
 10
145.6626
 20
-89.4591
 30
0.0
 10
145.6626
 20
-89.4591
 30
0.0
 10
151.5306
 20
-88.9063
 30
0.0
 10
157.2675
 20
-91.4257
 30
0.0
 10
160.8313
 20
-96.1206
 30
0.0
 10
160.8313
 20
-96.1206
 30
0.0
 10
157.2741
 20
-94.9779
 30
0.0
 10
153.3995
 20
-96.4467
 30
0.0
 10
151.4938
 20
-99.6604
 30
0.0
 10
151.4938
 20
-99.6604
 30
0.0
 10
149.5883
 20
-102.874
 30
0.0
 10
150.1579
 20
-106.9787
 30
0.0
 10
152.8666
 20
-109.5516
 30
0.0
 10
152.8666
 20
-109.5516
 30
0.0
 10
152.9819
 20
-109.6896
 30
0.0
 10
153.103
 20
-109.8225
 30
0.0
 10
153.2298
 20
-109.95
 30
0.0
  0
SPLINE
  5
45
330
1F
100
AcDbEntity
  8
layer 1
 62
     7
370
     9
100
AcDbSpline
210
0.0
220
0.0
230
1.0
 70
    11
 71
     3
 72
    32
 73
    28
 74
     0
 42
0.0000000001
 43
0.0000000001
 12
1.0
 22
0.0
 32
0.0
 13
1.0
 23
0.0
 33
0.0
 40
0.0
 40
0.0
 40
0.0
 40
0.0
 40
0.125
 40
0.125
 40
0.125
 40
0.125
 40
0.25
 40
0.25
 40
0.25
 40
0.25
 40
0.375
 40
0.375
 40
0.375
 40
0.375
 40
0.5
 40
0.5
 40
0.5
 40
0.5
 40
0.625
 40
0.625
 40
0.625
 40
0.625
 40
0.75
 40
0.75
 40
0.75
 40
0.75
 40
1.0
 40
1.0
 40
1.0
 40
1.0
 10
189.3587
 20
-19.625
 30
0.0
 10
189.5035
 20
-20.2075
 30
0.0
 10
189.5035
 20
-20.8165
 30
0.0
 10
189.3587
 20
-21.3989
 30
0.0
 10
189.3587
 20
-21.3989
 30
0.0
 10
190.311
 20
-21.096
 30
0.0
 10
191.1296
 20
-20.4728
 30
0.0
 10
191.6758
 20
-19.6355
 30
0.0
 10
191.6758
 20
-19.6355
 30
0.0
 10
191.6758
 20
-19.6355
 30
0.0
 10
191.6758
 20
-35.8296
 30
0.0
 10
191.6758
 20
-35.8296
 30
0.0
 10
191.6758
 20
-35.8296
 30
0.0
 10
189.9682
 20
-30.9691
 30
0.0
 10
185.6417
 20
-27.5051
 30
0.0
 10
180.5254
 20
-26.9017
 30
0.0
 10
180.5254
 20
-26.9017
 30
0.0
 10
182.705
 20
-24.5996
 30
0.0
 10
184.4142
 20
-21.894
 30
0.0
 10
185.5575
 20
-18.9373
 30
0.0
 10
185.5575
 20
-18.9373
 30
0.0
 10
185.965
 20
-18.1491
 30
0.0
 10
186.839
 20
-17.7192
 30
0.0
 10
187.7121
 20
-17.8768
 30
0.0
 10
187.7121
 20
-17.8768
 30
0.0
 10
188.5853
 20
-18.0348
 30
0.0
 10
189.2531
 20
-18.7441
 30
0.0
 10
189.3587
 20
-19.625
 30
0.0
  0
SPLINE
  5
46
330
1F
100
AcDbEntity
  8
layer 1
 62
     7
370
     9
100
AcDbSpline
210
0.0
220
0.0
230
1.0
 70
    11
 71
     3
 72
    64
 73
    60
 74
     0
 42
0.0000000001
 43
0.0000000001
 12
1.0
 22
0.0
 32
0.0
 13
1.0
 23
0.0
 33
0.0
 40
0.0
 40
0.0
 40
0.0
 40
0.0
 40
0.0625
 40
0.0625
 40
0.0625
 40
0.0625
 40
0.125
 40
0.125
 40
0.125
 40
0.125
 40
0.1875
 40
0.1875
 40
0.1875
 40
0.1875
 40
0.25
 40
0.25
 40
0.25
 40
0.25
 40
0.3125
 40
0.3125
 40
0.3125
 40
0.3125
 40
0.375
 40
0.375
 40
0.375
 40
0.375
 40
0.4375
 40
0.4375
 40
0.4375
 40
0.4375
 40
0.5
 40
0.5
 40
0.5
 40
0.5
 40
0.5625
 40
0.5625
 40
0.5625
 40
0.5625
 40
0.625
 40
0.625
 40
0.625
 40
0.625
 40
0.6875
 40
0.6875
 40
0.6875
 40
0.6875
 40
0.75
 40
0.75
 40
0.75
 40
0.75
 40
0.8125
 40
0.8125
 40
0.8125
 40
0.8125
 40
0.875
 40
0.875
 40
0.875
 40
0.875
 40
1.0
 40
1.0
 40
1.0
 40
1.0
 10
189.395
 20
-13.1446
 30
0.0
 10
190.3322
 20
-13.4521
 30
0.0
 10
191.1367
 20
-14.0702
 30
0.0
 10
191.6758
 20
-14.8964
 30
0.0
 10
191.6758
 20
-14.8964
 30
0.0
 10
191.6758
 20
-14.8964
 30
0.0
 10
191.6758
 20
-5.415
 30
0.0
 10
191.6758
 20
-5.415
 30
0.0
 10
191.6758
 20
-5.415
 30
0.0
 10
190.8709
 20
-6.9346
 30
0.0
 10
189.4058
 20
-7.9935
 30
0.0
 10
187.7109
 20
-8.2805
 30
0.0
 10
187.7109
 20
-8.2805
 30
0.0
 10
186.0158
 20
-8.5679
 30
0.0
 10
184.2838
 20
-8.0507
 30
0.0
 10
183.0233
 20
-6.8818
 30
0.0
 10
183.0233
 20
-6.8818
 30
0.0
 10
181.6108
 20
-5.2214
 30
0.0
 10
181.4775
 20
-2.8235
 30
0.0
 10
182.6974
 20
-1.0169
 30
0.0
 10
182.6974
 20
-1.0169
 30
0.0
 10
183.2639
 20
-0.5569
 30
0.0
 10
184.0412
 20
-0.4551
 30
0.0
 10
184.7068
 20
-0.7536
 30
0.0
 10
184.7068
 20
-0.7536
 30
0.0
 10
185.3726
 20
-1.052
 30
0.0
 10
185.8137
 20
-1.6998
 30
0.0
 10
185.8472
 20
-2.4286
 30
0.0
 10
185.8472
 20
-2.4286
 30
0.0
 10
185.3779
 20
-2.9493
 30
0.0
 10
185.3726
 20
-3.7384
 30
0.0
 10
185.8348
 20
-4.2653
 30
0.0
 10
185.8348
 20
-4.2653
 30
0.0
 10
186.2968
 20
-4.792
 30
0.0
 10
187.0801
 20
-4.8898
 30
0.0
 10
187.6571
 20
-4.4925
 30
0.0
 10
187.6571
 20
-4.4925
 30
0.0
 10
189.5267
 20
-3.2073
 30
0.0
 10
190.0939
 20
-0.7009
 30
0.0
 10
188.9605
 20
1.2642
 30
0.0
 10
188.9605
 20
1.2642
 30
0.0
 10
188.1068
 20
2.5327
 30
0.0
 10
186.7275
 20
3.3506
 30
0.0
 10
185.2045
 20
3.4909
 30
0.0
 10
185.2045
 20
3.4909
 30
0.0
 10
183.6813
 20
3.6314
 30
0.0
 10
182.1759
 20
3.0797
 30
0.0
 10
181.1047
 20
1.988
 30
0.0
 10
181.1047
 20
1.988
 30
0.0
 10
179.3388
 20
-0.3888
 30
0.0
 10
178.9152
 20
-3.5046
 30
0.0
 10
179.9823
 20
-6.2663
 30
0.0
 10
179.9823
 20
-6.2663
 30
0.0
 10
181.6101
 20
-9.0545
 30
0.0
 10
182.5297
 20
-12.1995
 30
0.0
 10
182.6614
 20
-15.4256
 30
0.0
 10
182.6614
 20
-15.4256
 30
0.0
 10
184.0804
 20
-13.1642
 30
0.0
 10
186.8935
 20
-12.211
 30
0.0
 10
189.395
 20
-13.1446
 30
0.0
  0
SPLINE
  5
47
330
1F
100
AcDbEntity
  8
layer 1
 62
     7
370
     9
100
AcDbSpline
210
0.0
220
0.0
230
1.0
 70
    11
 71
     3
 72
    16
 73
    12
 74
     0
 42
0.0000000001
 43
0.0000000001
 12
1.0
 22
0.0
 32
0.0
 13
1.0
 23
0.0
 33
0.0
 40
0.0
 40
0.0
 40
0.0
 40
0.0
 40
0.25
 40
0.25
 40
0.25
 40
0.25
 40
0.5
 40
0.5
 40
0.5
 40
0.5
 40
1.0
 40
1.0
 40
1.0
 40
1.0
 10
184.7973
 20
-52.4602
 30
0.0
 10
188.0027
 20
-53.5915
 30
0.0
 10
190.529
 20
-56.1048
 30
0.0
 10
191.6758
 20
-59.3049
 30
0.0
 10
191.6758
 20
-59.3049
 30
0.0
 10
191.6758
 20
-59.3049
 30
0.0
 10
191.6758
 20
-44.7747
 30
0.0
 10
191.6758
 20
-44.7747
 30
0.0
 10
191.6758
 20
-44.7747
 30
0.0
 10
190.4912
 20
-48.1464
 30
0.0
 10
188.0173
 20
-50.9105
 30
0.0
 10
184.7973
 20
-52.4602
 30
0.0
  0
SPLINE
  5
48
330
1F
100
AcDbEntity
  8
layer 1
 62
     7
370
     9
100
AcDbSpline
210
0.0
220
0.0
230
1.0
 70
    11
 71
     3
 72
    16
 73
    12
 74
     0
 42
0.0000000001
 43
0.0000000001
 12
1.0
 22
0.0
 32
0.0
 13
1.0
 23
0.0
 33
0.0
 40
0.0
 40
0.0
 40
0.0
 40
0.0
 40
0.25
 40
0.25
 40
0.25
 40
0.25
 40
0.5
 40
0.5
 40
0.5
 40
0.5
 40
1.0
 40
1.0
 40
1.0
 40
1.0
 10
184.8697
 20
-73.7476
 30
0.0
 10
187.7185
 20
-75.7502
 30
0.0
 10
190.0512
 20
-78.401
 30
0.0
 10
191.6758
 20
-81.4817
 30
0.0
 10
191.6758
 20
-81.4817
 30
0.0
 10
191.6758
 20
-81.4817
 30
0.0
 10
191.6758
 20
-66.9291
 30
0.0
 10
191.6758
 20
-66.9291
 30
0.0
 10
191.6758
 20
-66.9291
 30
0.0
 10
190.538
 20
-70.1036
 30
0.0
 10
188.0421
 20
-72.6038
 30
0.0
 10
184.8697
 20
-73.7476
 30
0.0
  0
SPLINE
  5
49
330
1F
100
AcDbEntity
  8
layer 1
 62
     7
370
     9
100
AcDbSpline
210
0.0
220
0.0
230
1.0
 70
    11
 71
     3
 72
   148
 73
   144
 74
     0
 42
0.0000000001
 43
0.0000000001
 12
1.0
 22
0.0
 32
0.0
 13
1.0
 23
0.0
 33
0.0
 40
0.0
 40
0.0
 40
0.0
 40
0.0
 40
0.027027027027027
 40
0.027027027027027
 40
0.027027027027027
 40
0.027027027027027
 40
0.0540540540540541
 40
0.0540540540540541
 40
0.0540540540540541
 40
0.0540540540540541
 40
0.0810810810810811
 40
0.0810810810810811
 40
0.0810810810810811
 40
0.0810810810810811
 40
0.1081081081081081
 40
0.1081081081081081
 40
0.1081081081081081
 40
0.1081081081081081
 40
0.1351351351351351
 40
0.1351351351351351
 40
0.1351351351351351
 40
0.1351351351351351
 40
0.1621621621621622
 40
0.1621621621621622
 40
0.1621621621621622
 40
0.1621621621621622
 40
0.1891891891891892
 40
0.1891891891891892
 40
0.1891891891891892
 40
0.1891891891891892
 40
0.2162162162162162
 40
0.2162162162162162
 40
0.2162162162162162
 40
0.2162162162162162
 40
0.2432432432432433
 40
0.2432432432432433
 40
0.2432432432432433
 40
0.2432432432432433
 40
0.2702702702702703
 40
0.2702702702702703
 40
0.2702702702702703
 40
0.2702702702702703
 40
0.2972972972972973
 40
0.2972972972972973
 40
0.2972972972972973
 40
0.2972972972972973
 40
0.3243243243243243
 40
0.3243243243243243
 40
0.3243243243243243
 40
0.3243243243243243
 40
0.3513513513513514
 40
0.3513513513513514
 40
0.3513513513513514
 40
0.3513513513513514
 40
0.3783783783783784
 40
0.3783783783783784
 40
0.3783783783783784
 40
0.3783783783783784
 40
0.4054054054054054
 40
0.4054054054054054
 40
0.4054054054054054
 40
0.4054054054054054
 40
0.4324324324324325
 40
0.4324324324324325
 40
0.4324324324324325
 40
0.4324324324324325
 40
0.4594594594594595
 40
0.4594594594594595
 40
0.4594594594594595
 40
0.4594594594594595
 40
0.4864864864864865
 40
0.4864864864864865
 40
0.4864864864864865
 40
0.4864864864864865
 40
0.5135135135135135
 40
0.5135135135135135
 40
0.5135135135135135
 40
0.5135135135135135
 40
0.5405405405405406
 40
0.5405405405405406
 40
0.5405405405405406
 40
0.5405405405405406
 40
0.5675675675675675
 40
0.5675675675675675
 40
0.5675675675675675
 40
0.5675675675675675
 40
0.5945945945945946
 40
0.5945945945945946
 40
0.5945945945945946
 40
0.5945945945945946
 40
0.6216216216216216
 40
0.6216216216216216
 40
0.6216216216216216
 40
0.6216216216216216
 40
0.6486486486486487
 40
0.6486486486486487
 40
0.6486486486486487
 40
0.6486486486486487
 40
0.6756756756756757
 40
0.6756756756756757
 40
0.6756756756756757
 40
0.6756756756756757
 40
0.7027027027027027
 40
0.7027027027027027
 40
0.7027027027027027
 40
0.7027027027027027
 40
0.7297297297297297
 40
0.7297297297297297
 40
0.7297297297297297
 40
0.7297297297297297
 40
0.7567567567567568
 40
0.7567567567567568
 40
0.7567567567567568
 40
0.7567567567567568
 40
0.7837837837837838
 40
0.7837837837837838
 40
0.7837837837837838
 40
0.7837837837837838
 40
0.8108108108108109
 40
0.8108108108108109
 40
0.8108108108108109
 40
0.8108108108108109
 40
0.8378378378378378
 40
0.8378378378378378
 40
0.8378378378378378
 40
0.8378378378378378
 40
0.8648648648648649
 40
0.8648648648648649
 40
0.8648648648648649
 40
0.8648648648648649
 40
0.8918918918918919
 40
0.8918918918918919
 40
0.8918918918918919
 40
0.8918918918918919
 40
0.918918918918919
 40
0.918918918918919
 40
0.918918918918919
 40
0.918918918918919
 40
0.9459459459459459
 40
0.9459459459459459
 40
0.9459459459459459
 40
0.9459459459459459
 40
1.0
 40
1.0
 40
1.0
 40
1.0
 10
183.0596
 20
8.0696
 30
0.0
 10
183.0596
 20
8.0696
 30
0.0
 10
183.2229
 20
8.1142
 30
0.0
 10
183.2229
 20
8.1142
 30
0.0
 10
183.2229
 20
8.1142
 30
0.0
 10
183.2229
 20
8.1142
 30
0.0
 10
183.0596
 20
8.1664
 30
0.0
 10
183.0596
 20
8.1664
 30
0.0
 10
183.0596
 20
8.1664
 30
0.0
 10
178.3929
 20
9.4732
 30
0.0
 10
175.2425
 20
13.8237
 30
0.0
 10
175.457
 20
18.6652
 30
0.0
 10
175.457
 20
18.6652
 30
0.0
 10
172.2746
 20
18.5523
 30
0.0
 10
169.178
 20
17.6031
 30
0.0
 10
166.4788
 20
15.9136
 30
0.0
 10
166.4788
 20
15.9136
 30
0.0
 10
165.6049
 20
15.296
 30
0.0
 10
165.0454
 20
14.3268
 30
0.0
 10
164.9479
 20
13.2612
 30
0.0
 10
164.9479
 20
13.2612
 30
0.0
 10
164.8505
 20
12.1957
 30
0.0
 10
165.2248
 20
11.1407
 30
0.0
 10
165.9719
 20
10.3748
 30
0.0
 10
165.9719
 20
10.3748
 30
0.0
 10
164.9179
 20
9.6368
 30
0.0
 10
163.5496
 20
9.5179
 30
0.0
 10
162.3843
 20
10.0637
 30
0.0
 10
162.3843
 20
10.0637
 30
0.0
 10
161.2188
 20
10.609
 30
0.0
 10
160.4332
 20
11.7353
 30
0.0
 10
160.3243
 20
13.0175
 30
0.0
 10
160.3243
 20
13.0175
 30
0.0
 10
160.2538
 20
15.5177
 30
0.0
 10
161.6371
 20
17.8324
 30
0.0
 10
163.8723
 20
18.9546
 30
0.0
 10
163.8723
 20
18.9546
 30
0.0
 10
157.874
 20
22.1607
 30
0.0
 10
155.2283
 20
29.3511
 30
0.0
 10
157.7179
 20
35.6805
 30
0.0
 10
157.7179
 20
35.6805
 30
0.0
 10
158.0085
 20
36.4194
 30
0.0
 10
158.1678
 20
37.2035
 30
0.0
 10
158.1886
 20
37.9971
 30
0.0
 10
158.1886
 20
37.9971
 30
0.0
 10
158.2541
 20
38.6263
 30
0.0
 10
157.8739
 20
39.2163
 30
0.0
 10
157.2738
 20
39.4163
 30
0.0
 10
157.2738
 20
39.4163
 30
0.0
 10
156.6738
 20
39.6166
 30
0.0
 10
156.0154
 20
39.3722
 30
0.0
 10
155.6905
 20
38.8299
 30
0.0
 10
155.6905
 20
38.8299
 30
0.0
 10
155.1987
 20
37.8382
 30
0.0
 10
154.8223
 20
36.7937
 30
0.0
 10
154.5682
 20
35.7166
 30
0.0
 10
154.5682
 20
35.7166
 30
0.0
 10
153.7769
 20
31.1735
 30
0.0
 10
151.5576
 20
27.0013
 30
0.0
 10
148.2328
 20
23.8057
 30
0.0
 10
148.2328
 20
23.8057
 30
0.0
 10
150.2049
 20
24.0701
 30
0.0
 10
152.2048
 20
24.0455
 30
0.0
 10
154.1699
 20
23.7335
 30
0.0
 10
154.1699
 20
23.7335
 30
0.0
 10
154.3993
 20
19.6976
 30
0.0
 10
152.7728
 20
15.7777
 30
0.0
 10
149.7534
 20
13.0897
 30
0.0
 10
149.7534
 20
13.0897
 30
0.0
 10
153.6502
 20
13.2664
 30
0.0
 10
157.3574
 20
11.4007
 30
0.0
 10
159.5378
 20
8.1664
 30
0.0
 10
159.5378
 20
8.1664
 30
0.0
 10
159.5378
 20
8.1664
 30
0.0
 10
159.5709
 20
8.1168
 30
0.0
 10
159.5709
 20
8.1168
 30
0.0
 10
159.5709
 20
8.1168
 30
0.0
 10
159.5709
 20
8.1168
 30
0.0
 10
159.5378
 20
8.0696
 30
0.0
 10
159.5378
 20
8.0696
 30
0.0
 10
159.5378
 20
8.0696
 30
0.0
 10
157.3574
 20
4.8359
 30
0.0
 10
153.6502
 20
2.9703
 30
0.0
 10
149.7534
 20
3.1464
 30
0.0
 10
149.7534
 20
3.1464
 30
0.0
 10
152.7728
 20
0.4584
 30
0.0
 10
154.3993
 20
-3.4611
 30
0.0
 10
154.1699
 20
-7.497
 30
0.0
 10
154.1699
 20
-7.497
 30
0.0
 10
152.2048
 20
-7.809
 30
0.0
 10
150.2049
 20
-7.8336
 30
0.0
 10
148.2328
 20
-7.5696
 30
0.0
 10
148.2328
 20
-7.5696
 30
0.0
 10
151.5576
 20
-10.7646
 30
0.0
 10
153.7769
 20
-14.937
 30
0.0
 10
154.5682
 20
-19.4801
 30
0.0
 10
154.5682
 20
-19.4801
 30
0.0
 10
154.8223
 20
-20.5572
 30
0.0
 10
155.1987
 20
-21.6021
 30
0.0
 10
155.6905
 20
-22.5934
 30
0.0
 10
155.6905
 20
-22.5934
 30
0.0
 10
156.0154
 20
-23.1362
 30
0.0
 10
156.6738
 20
-23.38
 30
0.0
 10
157.2738
 20
-23.1802
 30
0.0
 10
157.2738
 20
-23.1802
 30
0.0
 10
157.8739
 20
-22.9802
 30
0.0
 10
158.2541
 20
-22.3902
 30
0.0
 10
158.1886
 20
-21.7611
 30
0.0
 10
158.1886
 20
-21.7611
 30
0.0
 10
158.1678
 20
-20.967
 30
0.0
 10
158.0085
 20
-20.1829
 30
0.0
 10
157.7179
 20
-19.444
 30
0.0
 10
157.7179
 20
-19.444
 30
0.0
 10
155.2283
 20
-13.115
 30
0.0
 10
157.874
 20
-5.9242
 30
0.0
 10
163.8723
 20
-2.7185
 30
0.0
 10
163.8723
 20
-2.7185
 30
0.0
 10
161.6371
 20
-1.5964
 30
0.0
 10
160.2538
 20
0.7188
 30
0.0
 10
160.3243
 20
3.2186
 30
0.0
 10
160.3243
 20
3.2186
 30
0.0
 10
160.4332
 20
4.5008
 30
0.0
 10
161.2188
 20
5.6275
 30
0.0
 10
162.3843
 20
6.1729
 30
0.0
 10
162.3843
 20
6.1729
 30
0.0
 10
163.5496
 20
6.7182
 30
0.0
 10
164.9179
 20
6.5997
 30
0.0
 10
165.9719
 20
5.8613
 30
0.0
 10
165.9719
 20
5.8613
 30
0.0
 10
165.2248
 20
5.0958
 30
0.0
 10
164.8505
 20
4.0408
 30
0.0
 10
164.9479
 20
2.9753
 30
0.0
 10
164.9479
 20
2.9753
 30
0.0
 10
165.0454
 20
1.9098
 30
0.0
 10
165.6049
 20
0.9401
 30
0.0
 10
166.4788
 20
0.3225
 30
0.0
 10
166.4788
 20
0.3225
 30
0.0
 10
169.178
 20
-1.3672
 30
0.0
 10
172.2746
 20
-2.3158
 30
0.0
 10
175.457
 20
-2.4286
 30
0.0
 10
175.457
 20
-2.4286
 30
0.0
 10
175.2425
 20
2.4124
 30
0.0
 10
178.3929
 20
6.7633
 30
0.0
 10
183.0596
 20
8.0696
 30
0.0
  0
SPLINE
  5
4A
330
1F
100
AcDbEntity
  8
layer 1
 62
     7
370
     9
100
AcDbSpline
210
0.0
220
0.0
230
1.0
 70
    11
 71
     3
 72
    20
 73
    16
 74
     0
 42
0.0000000001
 43
0.0000000001
 12
1.0
 22
0.0
 32
0.0
 13
1.0
 23
0.0
 33
0.0
 40
0.0
 40
0.0
 40
0.0
 40
0.0
 40
0.2
 40
0.2
 40
0.2
 40
0.2
 40
0.4
 40
0.4
 40
0.4
 40
0.4
 40
0.6
 40
0.6
 40
0.6
 40
0.6
 40
1.0
 40
1.0
 40
1.0
 40
1.0
 10
143.5266
 20
8.1183
 30
0.0
 10
144.5328
 20
7.3422
 30
0.0
 10
145.4123
 20
6.4136
 30
0.0
 10
146.1332
 20
5.3667
 30
0.0
 10
146.1332
 20
5.3667
 30
0.0
 10
149.4136
 20
5.0873
 30
0.0
 10
152.6769
 20
6.072
 30
0.0
 10
155.2561
 20
8.1183
 30
0.0
 10
155.2561
 20
8.1183
 30
0.0
 10
152.6769
 20
10.1645
 30
0.0
 10
149.4136
 20
11.1488
 30
0.0
 10
146.1332
 20
10.8694
 30
0.0
 10
146.1332
 20
10.8694
 30
0.0
 10
145.4123
 20
9.8229
 30
0.0
 10
144.5328
 20
8.8943
 30
0.0
 10
143.5266
 20
8.1183
 30
0.0
  0
SPLINE
  5
4B
330
1F
100
AcDbEntity
  8
layer 1
 62
     7
370
     9
100
AcDbSpline
210
0.0
220
0.0
230
1.0
 70
    11
 71
     3
 72
    20
 73
    16
 74
     0
 42
0.0000000001
 43
0.0000000001
 12
1.0
 22
0.0
 32
0.0
 13
1.0
 23
0.0
 33
0.0
 40
0.0
 40
0.0
 40
0.0
 40
0.0
 40
0.2
 40
0.2
 40
0.2
 40
0.2
 40
0.4
 40
0.4
 40
0.4
 40
0.4
 40
0.6
 40
0.6
 40
0.6
 40
0.6
 40
1.0
 40
1.0
 40
1.0
 40
1.0
 10
149.5121
 20
-4.4804
 30
0.0
 10
146.3574
 20
-4.2341
 30
0.0
 10
143.4182
 20
-2.7818
 30
0.0
 10
141.3062
 20
-0.4255
 30
0.0
 10
141.3062
 20
-0.4255
 30
0.0
 10
141.5299
 20
0.8337
 30
0.0
 10
141.5545
 20
2.1204
 30
0.0
 10
141.3785
 20
3.3877
 30
0.0
 10
141.3785
 20
3.3877
 30
0.0
 10
142.7219
 20
3.3289
 30
0.0
 10
144.0674
 20
3.345
 30
0.0
 10
145.4088
 20
3.4357
 30
0.0
 10
145.4088
 20
3.4357
 30
0.0
 10
147.7342
 20
1.4156
 30
0.0
 10
149.2016
 20
-1.4152
 30
0.0
 10
149.5121
 20
-4.4804
 30
0.0
  0
SPLINE
  5
4C
330
1F
100
AcDbEntity
  8
layer 1
 62
     7
370
     9
100
AcDbSpline
210
0.0
220
0.0
230
1.0
 70
    11
 71
     3
 72
    28
 73
    24
 74
     0
 42
0.0000000001
 43
0.0000000001
 12
1.0
 22
0.0
 32
0.0
 13
1.0
 23
0.0
 33
0.0
 40
0.0
 40
0.0
 40
0.0
 40
0.0
 40
0.1428571428571428
 40
0.1428571428571428
 40
0.1428571428571428
 40
0.1428571428571428
 40
0.2857142857142857
 40
0.2857142857142857
 40
0.2857142857142857
 40
0.2857142857142857
 40
0.4285714285714285
 40
0.4285714285714285
 40
0.4285714285714285
 40
0.4285714285714285
 40
0.5714285714285714
 40
0.5714285714285714
 40
0.5714285714285714
 40
0.5714285714285714
 40
0.7142857142857143
 40
0.7142857142857143
 40
0.7142857142857143
 40
0.7142857142857143
 40
1.0
 40
1.0
 40
1.0
 40
1.0
 10
136.2138
 20
1.4984
 30
0.0
 10
136.2213
 20
1.4843
 30
0.0
 10
136.2299
 20
1.4708
 30
0.0
 10
136.238
 20
1.4567
 30
0.0
 10
136.238
 20
1.4567
 30
0.0
 10
136.8921
 20
0.3888
 30
0.0
 10
137.8272
 20
-0.4791
 30
0.0
 10
138.9408
 20
-1.053
 30
0.0
 10
138.9408
 20
-1.053
 30
0.0
 10
139.0397
 20
-4.2387
 30
0.0
 10
138.0811
 20
-7.367
 30
0.0
 10
136.2138
 20
-9.95
 30
0.0
 10
136.2138
 20
-9.95
 30
0.0
 10
134.3467
 20
-7.367
 30
0.0
 10
133.3875
 20
-4.2387
 30
0.0
 10
133.4864
 20
-1.053
 30
0.0
 10
133.4864
 20
-1.053
 30
0.0
 10
134.5999
 20
-0.4791
 30
0.0
 10
135.5351
 20
0.3888
 30
0.0
 10
136.1898
 20
1.4567
 30
0.0
 10
136.1898
 20
1.4567
 30
0.0
 10
136.1977
 20
1.4708
 30
0.0
 10
136.2058
 20
1.4843
 30
0.0
 10
136.2138
 20
1.4984
 30
0.0
  0
SPLINE
  5
4D
330
1F
100
AcDbEntity
  8
layer 1
 62
     7
370
     9
100
AcDbSpline
210
0.0
220
0.0
230
1.0
 70
    11
 71
     3
 72
    16
 73
    12
 74
     0
 42
0.0000000001
 43
0.0000000001
 12
1.0
 22
0.0
 32
0.0
 13
1.0
 23
0.0
 33
0.0
 40
0.0
 40
0.0
 40
0.0
 40
0.0
 40
0.25
 40
0.25
 40
0.25
 40
0.25
 40
0.5
 40
0.5
 40
0.5
 40
0.5
 40
1.0
 40
1.0
 40
1.0
 40
1.0
 10
138.6856
 20
1.8224
 30
0.0
 10
138.9188
 20
3.0114
 30
0.0
 10
138.7483
 20
4.244
 30
0.0
 10
138.2014
 20
5.325
 30
0.0
 10
138.2014
 20
5.325
 30
0.0
 10
137.7268
 20
4.9799
 30
0.0
 10
137.1595
 20
4.7561
 30
0.0
 10
136.544
 20
4.6969
 30
0.0
 10
136.544
 20
4.6969
 30
0.0
 10
136.7596
 20
3.4524
 30
0.0
 10
137.5553
 20
2.3849
 30
0.0
 10
138.6856
 20
1.8224
 30
0.0
  0
SPLINE
  5
4E
330
1F
100
AcDbEntity
  8
layer 1
 62
     7
370
     9
100
AcDbSpline
210
0.0
220
0.0
230
1.0
 70
    11
 71
     3
 72
    16
 73
    12
 74
     0
 42
0.0000000001
 43
0.0000000001
 12
1.0
 22
0.0
 32
0.0
 13
1.0
 23
0.0
 33
0.0
 40
0.0
 40
0.0
 40
0.0
 40
0.0
 40
0.25
 40
0.25
 40
0.25
 40
0.25
 40
0.5
 40
0.5
 40
0.5
 40
0.5
 40
1.0
 40
1.0
 40
1.0
 40
1.0
 10
142.4093
 20
5.5046
 30
0.0
 10
141.8089
 20
6.5811
 30
0.0
 10
140.776
 20
7.3482
 30
0.0
 10
139.5725
 20
7.6127
 30
0.0
 10
139.5725
 20
7.6127
 30
0.0
 10
139.4872
 20
6.978
 30
0.0
 10
139.2254
 20
6.3985
 30
0.0
 10
138.8386
 20
5.9266
 30
0.0
 10
138.8386
 20
5.9266
 30
0.0
 10
139.9532
 20
5.4072
 30
0.0
 10
141.2048
 20
5.2598
 30
0.0
 10
142.4093
 20
5.5046
 30
0.0
  0
SPLINE
  5
4F
330
1F
100
AcDbEntity
  8
layer 1
 62
     7
370
     9
100
AcDbSpline
210
0.0
220
0.0
230
1.0
 70
    27
 71
     3
 72
     8
 73
     4
 74
     0
 42
0.0000000001
 43
0.0000000001
 12
1.0
 22
0.0
 32
0.0
 13
1.0
 23
0.0
 33
0.0
 40
0.0
 40
0.0
 40
0.0
 40
0.0
 40
1.0
 40
1.0
 40
1.0
 40
1.0
 10
139.6031
 20
8.0696
 30
0.0
 10
139.6031
 20
8.0731
 30
0.0
 10
139.6031
 20
8.0717
 30
0.0
 10
139.6031
 20
8.0696
 30
0.0
  0
SPLINE
  5
50
330
1F
100
AcDbEntity
  8
layer 1
 62
     7
370
     9
100
AcDbSpline
210
0.0
220
0.0
230
1.0
 70
    11
 71
     3
 72
    20
 73
    16
 74
     0
 42
0.0000000001
 43
0.0000000001
 12
1.0
 22
0.0
 32
0.0
 13
1.0
 23
0.0
 33
0.0
 40
0.0
 40
0.0
 40
0.0
 40
0.0
 40
0.2
 40
0.2
 40
0.2
 40
0.2
 40
0.4
 40
0.4
 40
0.4
 40
0.4
 40
0.6
 40
0.6
 40
0.6
 40
0.6
 40
1.0
 40
1.0
 40
1.0
 40
1.0
 10
147.8709
 20
-23.981
 30
0.0
 10
144.5163
 20
-19.8011
 30
0.0
 10
141.9614
 20
-15.0384
 30
0.0
 10
140.334
 20
-9.9319
 30
0.0
 10
140.334
 20
-9.9319
 30
0.0
 10
141.2124
 20
-8.2459
 30
0.0
 10
141.9417
 20
-6.4866
 30
0.0
 10
142.5127
 20
-4.6735
 30
0.0
 10
142.5127
 20
-4.6735
 30
0.0
 10
142.5127
 20
-4.6735
 30
0.0
 10
142.6095
 20
-4.3354
 30
0.0
 10
142.6095
 20
-4.3354
 30
0.0
 10
142.6095
 20
-4.3354
 30
0.0
 10
146.1552
 20
-10.2675
 30
0.0
 10
147.9774
 20
-17.0706
 30
0.0
 10
147.8709
 20
-23.981
 30
0.0
  0
SPLINE
  5
51
330
1F
100
AcDbEntity
  8
layer 1
 62
     7
370
     9
100
AcDbSpline
210
0.0
220
0.0
230
1.0
 70
    11
 71
     3
 72
    20
 73
    16
 74
     0
 42
0.0000000001
 43
0.0000000001
 12
1.0
 22
0.0
 32
0.0
 13
1.0
 23
0.0
 33
0.0
 40
0.0
 40
0.0
 40
0.0
 40
0.0
 40
0.2
 40
0.2
 40
0.2
 40
0.2
 40
0.4
 40
0.4
 40
0.4
 40
0.4
 40
0.6
 40
0.6
 40
0.6
 40
0.6
 40
1.0
 40
1.0
 40
1.0
 40
1.0
 10
136.2138
 20
-13.0719
 30
0.0
 10
136.9352
 20
-13.0594
 30
0.0
 10
137.6536
 20
-12.9665
 30
0.0
 10
138.355
 20
-12.7959
 30
0.0
 10
138.355
 20
-12.7959
 30
0.0
 10
137.7675
 20
-13.9543
 30
0.0
 10
137.0491
 20
-15.0418
 30
0.0
 10
136.2138
 20
-16.0361
 30
0.0
 10
136.2138
 20
-16.0361
 30
0.0
 10
135.3781
 20
-15.0418
 30
0.0
 10
134.6597
 20
-13.9543
 30
0.0
 10
134.0722
 20
-12.7959
 30
0.0
 10
134.0722
 20
-12.7959
 30
0.0
 10
134.7736
 20
-12.9665
 30
0.0
 10
135.492
 20
-13.0594
 30
0.0
 10
136.2138
 20
-13.0719
 30
0.0
  0
SPLINE
  5
52
330
1F
100
AcDbEntity
  8
layer 1
 62
     7
370
     9
100
AcDbSpline
210
0.0
220
0.0
230
1.0
 70
    11
 71
     3
 72
    24
 73
    20
 74
     0
 42
0.0000000001
 43
0.0000000001
 12
1.0
 22
0.0
 32
0.0
 13
1.0
 23
0.0
 33
0.0
 40
0.0
 40
0.0
 40
0.0
 40
0.0
 40
0.1666666666666667
 40
0.1666666666666667
 40
0.1666666666666667
 40
0.1666666666666667
 40
0.3333333333333333
 40
0.3333333333333333
 40
0.3333333333333333
 40
0.3333333333333333
 40
0.5
 40
0.5
 40
0.5
 40
0.5
 40
0.6666666666666666
 40
0.6666666666666666
 40
0.6666666666666666
 40
0.6666666666666666
 40
1.0
 40
1.0
 40
1.0
 40
1.0
 10
136.8655
 20
-38.4137
 30
0.0
 10
139.4792
 20
-36.5867
 30
0.0
 10
141.7367
 20
-34.2961
 30
0.0
 10
143.5266
 20
-31.6564
 30
0.0
 10
143.5266
 20
-31.6564
 30
0.0
 10
141.4612
 20
-27.6797
 30
0.0
 10
139.5925
 20
-23.6041
 30
0.0
 10
137.9271
 20
-19.444
 30
0.0
 10
137.9271
 20
-19.444
 30
0.0
 10
136.8921
 20
-23.9544
 30
0.0
 10
138.3248
 20
-28.675
 30
0.0
 10
141.6925
 20
-31.8489
 30
0.0
 10
141.6925
 20
-31.8489
 30
0.0
 10
141.6925
 20
-31.8489
 30
0.0
 10
137.8307
 20
-31.8489
 30
0.0
 10
137.8307
 20
-31.8489
 30
0.0
 10
137.8307
 20
-31.8489
 30
0.0
 10
138.2019
 20
-34.0844
 30
0.0
 10
137.8644
 20
-36.3799
 30
0.0
 10
136.8655
 20
-38.4137
 30
0.0
  0
SPLINE
  5
53
330
1F
100
AcDbEntity
  8
layer 1
 62
     7
370
     9
100
AcDbSpline
210
0.0
220
0.0
230
1.0
 70
    11
 71
     3
 72
    16
 73
    12
 74
     0
 42
0.0000000001
 43
0.0000000001
 12
1.0
 22
0.0
 32
0.0
 13
1.0
 23
0.0
 33
0.0
 40
0.0
 40
0.0
 40
0.0
 40
0.0
 40
0.25
 40
0.25
 40
0.25
 40
0.25
 40
0.5
 40
0.5
 40
0.5
 40
0.5
 40
1.0
 40
1.0
 40
1.0
 40
1.0
 10
145.6505
 20
-28.8085
 30
0.0
 10
146.2104
 20
-28.4452
 30
0.0
 10
146.6875
 20
-27.9686
 30
0.0
 10
147.0502
 20
-27.4084
 30
0.0
 10
147.0502
 20
-27.4084
 30
0.0
 10
145.1349
 20
-24.9878
 30
0.0
 10
143.1719
 20
-22.6064
 30
0.0
 10
141.1612
 20
-20.2647
 30
0.0
 10
141.1612
 20
-20.2647
 30
0.0
 10
142.5462
 20
-23.1697
 30
0.0
 10
144.0438
 20
-26.0197
 30
0.0
 10
145.6505
 20
-28.8085
 30
0.0
  0
SPLINE
  5
54
330
1F
100
AcDbEntity
  8
layer 1
 62
     7
370
     9
100
AcDbSpline
210
0.0
220
0.0
230
1.0
 70
    11
 71
     3
 72
    76
 73
    72
 74
     0
 42
0.0000000001
 43
0.0000000001
 12
1.0
 22
0.0
 32
0.0
 13
1.0
 23
0.0
 33
0.0
 40
0.0
 40
0.0
 40
0.0
 40
0.0
 40
0.0526315789473684
 40
0.0526315789473684
 40
0.0526315789473684
 40
0.0526315789473684
 40
0.1052631578947368
 40
0.1052631578947368
 40
0.1052631578947368
 40
0.1052631578947368
 40
0.1578947368421053
 40
0.1578947368421053
 40
0.1578947368421053
 40
0.1578947368421053
 40
0.2105263157894737
 40
0.2105263157894737
 40
0.2105263157894737
 40
0.2105263157894737
 40
0.2631578947368421
 40
0.2631578947368421
 40
0.2631578947368421
 40
0.2631578947368421
 40
0.3157894736842105
 40
0.3157894736842105
 40
0.3157894736842105
 40
0.3157894736842105
 40
0.3684210526315789
 40
0.3684210526315789
 40
0.3684210526315789
 40
0.3684210526315789
 40
0.4210526315789473
 40
0.4210526315789473
 40
0.4210526315789473
 40
0.4210526315789473
 40
0.4736842105263158
 40
0.4736842105263158
 40
0.4736842105263158
 40
0.4736842105263158
 40
0.5263157894736842
 40
0.5263157894736842
 40
0.5263157894736842
 40
0.5263157894736842
 40
0.5789473684210527
 40
0.5789473684210527
 40
0.5789473684210527
 40
0.5789473684210527
 40
0.631578947368421
 40
0.631578947368421
 40
0.631578947368421
 40
0.631578947368421
 40
0.6842105263157895
 40
0.6842105263157895
 40
0.6842105263157895
 40
0.6842105263157895
 40
0.7368421052631579
 40
0.7368421052631579
 40
0.7368421052631579
 40
0.7368421052631579
 40
0.7894736842105263
 40
0.7894736842105263
 40
0.7894736842105263
 40
0.7894736842105263
 40
0.8421052631578947
 40
0.8421052631578947
 40
0.8421052631578947
 40
0.8421052631578947
 40
0.8947368421052632
 40
0.8947368421052632
 40
0.8947368421052632
 40
0.8947368421052632
 40
1.0
 40
1.0
 40
1.0
 40
1.0
 10
136.2138
 20
-67.6058
 30
0.0
 10
140.6456
 20
-63.9477
 30
0.0
 10
142.7816
 20
-58.1977
 30
0.0
 10
141.8129
 20
-52.5329
 30
0.0
 10
141.8129
 20
-52.5329
 30
0.0
 10
140.7073
 20
-52.847
 30
0.0
 10
139.8172
 20
-53.6687
 30
0.0
 10
139.4169
 20
-54.7463
 30
0.0
 10
139.4169
 20
-54.7463
 30
0.0
 10
139.0166
 20
-55.8238
 30
0.0
 10
139.1536
 20
-57.0274
 30
0.0
 10
139.7857
 20
-57.9875
 30
0.0
 10
139.7857
 20
-57.9875
 30
0.0
 10
140.1514
 20
-58.8518
 30
0.0
 10
139.9728
 20
-59.8507
 30
0.0
 10
139.3306
 20
-60.5344
 30
0.0
 10
139.3306
 20
-60.5344
 30
0.0
 10
138.688
 20
-61.2187
 30
0.0
 10
137.7028
 20
-61.4595
 30
0.0
 10
136.8169
 20
-61.149
 30
0.0
 10
136.8169
 20
-61.149
 30
0.0
 10
137.5488
 20
-60.2339
 30
0.0
 10
137.7153
 20
-58.9903
 30
0.0
 10
137.2513
 20
-57.9147
 30
0.0
 10
137.2513
 20
-57.9147
 30
0.0
 10
136.6357
 20
-56.1208
 30
0.0
 10
136.6016
 20
-54.1783
 30
0.0
 10
137.1549
 20
-52.3638
 30
0.0
 10
137.1549
 20
-52.3638
 30
0.0
 10
137.8086
 20
-51.1002
 30
0.0
 10
138.9654
 20
-50.1711
 30
0.0
 10
140.3405
 20
-49.8059
 30
0.0
 10
140.3405
 20
-49.8059
 30
0.0
 10
139.7952
 20
-47.2604
 30
0.0
 10
138.3244
 20
-45.0085
 30
0.0
 10
136.2138
 20
-43.486
 30
0.0
 10
136.2138
 20
-43.486
 30
0.0
 10
134.1028
 20
-45.0085
 30
0.0
 10
132.632
 20
-47.2604
 30
0.0
 10
132.0867
 20
-49.8059
 30
0.0
 10
132.0867
 20
-49.8059
 30
0.0
 10
133.4618
 20
-50.1711
 30
0.0
 10
134.6186
 20
-51.1002
 30
0.0
 10
135.2727
 20
-52.3638
 30
0.0
 10
135.2727
 20
-52.3638
 30
0.0
 10
135.8256
 20
-54.1783
 30
0.0
 10
135.7919
 20
-56.1208
 30
0.0
 10
135.1759
 20
-57.9147
 30
0.0
 10
135.1759
 20
-57.9147
 30
0.0
 10
134.7119
 20
-58.9903
 30
0.0
 10
134.8789
 20
-60.2339
 30
0.0
 10
135.6103
 20
-61.149
 30
0.0
 10
135.6103
 20
-61.149
 30
0.0
 10
134.7244
 20
-61.4595
 30
0.0
 10
133.7392
 20
-61.2187
 30
0.0
 10
133.0966
 20
-60.5344
 30
0.0
 10
133.0966
 20
-60.5344
 30
0.0
 10
132.4544
 20
-59.8507
 30
0.0
 10
132.2758
 20
-58.8518
 30
0.0
 10
132.6415
 20
-57.9875
 30
0.0
 10
132.6415
 20
-57.9875
 30
0.0
 10
133.274
 20
-57.0274
 30
0.0
 10
133.4106
 20
-55.8238
 30
0.0
 10
133.0103
 20
-54.7463
 30
0.0
 10
133.0103
 20
-54.7463
 30
0.0
 10
132.61
 20
-53.6687
 30
0.0
 10
131.7199
 20
-52.847
 30
0.0
 10
130.6143
 20
-52.5329
 30
0.0
 10
130.6143
 20
-52.5329
 30
0.0
 10
129.6456
 20
-58.1977
 30
0.0
 10
131.7816
 20
-63.9477
 30
0.0
 10
136.2138
 20
-67.6058
 30
0.0
  0
SPLINE
  5
55
330
1F
100
AcDbEntity
  8
layer 1
 62
     7
370
     9
100
AcDbSpline
210
0.0
220
0.0
230
1.0
 70
    11
 71
     3
 72
    16
 73
    12
 74
     0
 42
0.0000000001
 43
0.0000000001
 12
1.0
 22
0.0
 32
0.0
 13
1.0
 23
0.0
 33
0.0
 40
0.0
 40
0.0
 40
0.0
 40
0.0
 40
0.25
 40
0.25
 40
0.25
 40
0.25
 40
0.5
 40
0.5
 40
0.5
 40
0.5
 40
1.0
 40
1.0
 40
1.0
 40
1.0
 10
137.3962
 20
-80.3124
 30
0.0
 10
138.7005
 20
-77.3756
 30
0.0
 10
140.7669
 20
-74.8423
 30
0.0
 10
143.3815
 20
-72.9751
 30
0.0
 10
143.3815
 20
-72.9751
 30
0.0
 10
141.5178
 20
-72.6576
 30
0.0
 10
139.6662
 20
-72.2708
 30
0.0
 10
137.8307
 20
-71.8167
 30
0.0
 10
137.8307
 20
-71.8167
 30
0.0
 10
137.5236
 20
-74.6381
 30
0.0
 10
137.3787
 20
-77.4744
 30
0.0
 10
137.3962
 20
-80.3124
 30
0.0
  0
SPLINE
  5
56
330
1F
100
AcDbEntity
  8
layer 1
 62
     7
370
     9
100
AcDbSpline
210
0.0
220
0.0
230
1.0
 70
    11
 71
     3
 72
    56
 73
    52
 74
     0
 42
0.0000000001
 43
0.0000000001
 12
1.0
 22
0.0
 32
0.0
 13
1.0
 23
0.0
 33
0.0
 40
0.0
 40
0.0
 40
0.0
 40
0.0
 40
0.0714285714285714
 40
0.0714285714285714
 40
0.0714285714285714
 40
0.0714285714285714
 40
0.1428571428571428
 40
0.1428571428571428
 40
0.1428571428571428
 40
0.1428571428571428
 40
0.2142857142857143
 40
0.2142857142857143
 40
0.2142857142857143
 40
0.2142857142857143
 40
0.2857142857142857
 40
0.2857142857142857
 40
0.2857142857142857
 40
0.2857142857142857
 40
0.3571428571428572
 40
0.3571428571428572
 40
0.3571428571428572
 40
0.3571428571428572
 40
0.4285714285714285
 40
0.4285714285714285
 40
0.4285714285714285
 40
0.4285714285714285
 40
0.5
 40
0.5
 40
0.5
 40
0.5
 40
0.5714285714285714
 40
0.5714285714285714
 40
0.5714285714285714
 40
0.5714285714285714
 40
0.6428571428571429
 40
0.6428571428571429
 40
0.6428571428571429
 40
0.6428571428571429
 40
0.7142857142857143
 40
0.7142857142857143
 40
0.7142857142857143
 40
0.7142857142857143
 40
0.7857142857142857
 40
0.7857142857142857
 40
0.7857142857142857
 40
0.7857142857142857
 40
0.8571428571428571
 40
0.8571428571428571
 40
0.8571428571428571
 40
0.8571428571428571
 40
1.0
 40
1.0
 40
1.0
 40
1.0
 10
152.3116
 20
-84.9462
 30
0.0
 10
151.7125
 20
-82.9134
 30
0.0
 10
152.1781
 20
-80.7157
 30
0.0
 10
153.5498
 20
-79.1008
 30
0.0
 10
153.5498
 20
-79.1008
 30
0.0
 10
154.9217
 20
-77.486
 30
0.0
 10
157.015
 20
-76.6708
 30
0.0
 10
159.1176
 20
-76.9332
 30
0.0
 10
159.1176
 20
-76.9332
 30
0.0
 10
160.3982
 20
-77.1313
 30
0.0
 10
161.5005
 20
-77.9446
 30
0.0
 10
162.0684
 20
-79.1089
 30
0.0
 10
162.0684
 20
-79.1089
 30
0.0
 10
162.6365
 20
-80.2737
 30
0.0
 10
162.5981
 20
-81.6428
 30
0.0
 10
161.9655
 20
-82.774
 30
0.0
 10
161.9655
 20
-82.774
 30
0.0
 10
161.3032
 20
-81.9213
 30
0.0
 10
160.265
 20
-81.4472
 30
0.0
 10
159.1868
 20
-81.5047
 30
0.0
 10
159.1868
 20
-81.5047
 30
0.0
 10
158.1084
 20
-81.5625
 30
0.0
 10
157.127
 20
-82.1449
 30
0.0
 10
156.5593
 20
-83.0634
 30
0.0
 10
156.5593
 20
-83.0634
 30
0.0
 10
156.3206
 20
-84.303
 30
0.0
 10
156.7087
 20
-85.5808
 30
0.0
 10
157.5966
 20
-86.4783
 30
0.0
 10
157.5966
 20
-86.4783
 30
0.0
 10
158.4845
 20
-87.3763
 30
0.0
 10
159.7581
 20
-87.778
 30
0.0
 10
161.0002
 20
-87.5528
 30
0.0
 10
161.0002
 20
-87.5528
 30
0.0
 10
163.1052
 20
-87.1806
 30
0.0
 10
164.8667
 20
-85.7434
 30
0.0
 10
165.6539
 20
-83.7558
 30
0.0
 10
165.6539
 20
-83.7558
 30
0.0
 10
166.441
 20
-81.7682
 30
0.0
 10
166.1413
 20
-79.5148
 30
0.0
 10
164.8619
 20
-77.8021
 30
0.0
 10
164.8619
 20
-77.8021
 30
0.0
 10
163.0719
 20
-75.7639
 30
0.0
 10
160.6942
 20
-74.33
 30
0.0
 10
158.0557
 20
-73.6989
 30
0.0
 10
158.0557
 20
-73.6989
 30
0.0
 10
150.026
 20
-72.066
 30
0.0
 10
142.0808
 20
-76.8453
 30
0.0
 10
139.7616
 20
-84.7049
 30
0.0
 10
139.7616
 20
-84.7049
 30
0.0
 10
143.679
 20
-82.5026
 30
0.0
 10
148.4818
 20
-82.5949
 30
0.0
 10
152.3116
 20
-84.9462
 30
0.0
  0
SPLINE
  5
57
330
1F
100
AcDbEntity
  8
layer 1
 62
     7
370
     9
100
AcDbSpline
210
0.0
220
0.0
230
1.0
 70
    11
 71
     3
 72
    40
 73
    36
 74
     0
 42
0.0000000001
 43
0.0000000001
 12
1.0
 22
0.0
 32
0.0
 13
1.0
 23
0.0
 33
0.0
 40
0.0
 40
0.0
 40
0.0
 40
0.0
 40
0.1
 40
0.1
 40
0.1
 40
0.1
 40
0.2
 40
0.2
 40
0.2
 40
0.2
 40
0.3
 40
0.3
 40
0.3
 40
0.3
 40
0.4
 40
0.4
 40
0.4
 40
0.4
 40
0.5
 40
0.5
 40
0.5
 40
0.5
 40
0.6
 40
0.6
 40
0.6
 40
0.6
 40
0.7
 40
0.7
 40
0.7
 40
0.7
 40
0.8
 40
0.8
 40
0.8
 40
0.8
 40
1.0
 40
1.0
 40
1.0
 40
1.0
 10
168.3371
 20
-75.8712
 30
0.0
 10
168.5782
 20
-75.2035
 30
0.0
 10
169.0937
 20
-74.6702
 30
0.0
 10
169.7533
 20
-74.4073
 30
0.0
 10
169.7533
 20
-74.4073
 30
0.0
 10
170.4132
 20
-74.1445
 30
0.0
 10
171.1542
 20
-74.1766
 30
0.0
 10
171.7884
 20
-74.4956
 30
0.0
 10
171.7884
 20
-74.4956
 30
0.0
 10
171.4982
 20
-75.2672
 30
0.0
 10
171.3511
 20
-76.0848
 30
0.0
 10
171.354
 20
-76.9092
 30
0.0
 10
171.354
 20
-76.9092
 30
0.0
 10
171.3487
 20
-77.1178
 30
0.0
 10
171.4598
 20
-77.3119
 30
0.0
 10
171.6422
 20
-77.4137
 30
0.0
 10
171.6422
 20
-77.4137
 30
0.0
 10
171.825
 20
-77.5151
 30
0.0
 10
172.0485
 20
-77.5066
 30
0.0
 10
172.2228
 20
-77.3917
 30
0.0
 10
172.2228
 20
-77.3917
 30
0.0
 10
173.1479
 20
-76.859
 30
0.0
 10
173.7118
 20
-75.8671
 30
0.0
 10
173.6968
 20
-74.8002
 30
0.0
 10
173.6968
 20
-74.8002
 30
0.0
 10
173.6817
 20
-73.7331
 30
0.0
 10
173.09
 20
-72.7578
 30
0.0
 10
172.1506
 20
-72.2512
 30
0.0
 10
172.1506
 20
-72.2512
 30
0.0
 10
168.19
 20
-70.6484
 30
0.0
 10
163.8656
 20
-70.1644
 30
0.0
 10
159.6487
 20
-70.8516
 30
0.0
 10
159.6487
 20
-70.8516
 30
0.0
 10
162.8865
 20
-71.8479
 30
0.0
 10
165.8567
 20
-73.564
 30
0.0
 10
168.3371
 20
-75.8712
 30
0.0
  0
SPLINE
  5
58
330
1F
100
AcDbEntity
  8
layer 1
 62
     7
370
     9
100
AcDbSpline
210
0.0
220
0.0
230
1.0
 70
    11
 71
     3
 72
    32
 73
    28
 74
     0
 42
0.0000000001
 43
0.0000000001
 12
1.0
 22
0.0
 32
0.0
 13
1.0
 23
0.0
 33
0.0
 40
0.0
 40
0.0
 40
0.0
 40
0.0
 40
0.125
 40
0.125
 40
0.125
 40
0.125
 40
0.25
 40
0.25
 40
0.25
 40
0.25
 40
0.375
 40
0.375
 40
0.375
 40
0.375
 40
0.5
 40
0.5
 40
0.5
 40
0.5
 40
0.625
 40
0.625
 40
0.625
 40
0.625
 40
0.75
 40
0.75
 40
0.75
 40
0.75
 40
1.0
 40
1.0
 40
1.0
 40
1.0
 10
169.9301
 20
-66.7485
 30
0.0
 10
168.5004
 20
-64.1925
 30
0.0
 10
168.2314
 20
-61.148
 30
0.0
 10
169.1904
 20
-58.3813
 30
0.0
 10
169.1904
 20
-58.3813
 30
0.0
 10
170.1497
 20
-55.6146
 30
0.0
 10
172.2456
 20
-53.3898
 30
0.0
 10
174.9503
 20
-52.2676
 30
0.0
 10
174.9503
 20
-52.2676
 30
0.0
 10
173.5307
 20
-51.481
 30
0.0
 10
172.1304
 20
-50.6598
 30
0.0
 10
170.7506
 20
-49.8059
 30
0.0
 10
170.7506
 20
-49.8059
 30
0.0
 10
170.9238
 20
-52.5911
 30
0.0
 10
169.6131
 20
-55.2615
 30
0.0
 10
167.3031
 20
-56.8277
 30
0.0
 10
167.3031
 20
-56.8277
 30
0.0
 10
164.9931
 20
-58.3938
 30
0.0
 10
162.0276
 20
-58.6242
 30
0.0
 10
159.5039
 20
-57.4322
 30
0.0
 10
159.5039
 20
-57.4322
 30
0.0
 10
159.6803
 20
-60.7461
 30
0.0
 10
158.7085
 20
-64.0195
 30
0.0
 10
156.7526
 20
-66.7003
 30
0.0
 10
156.7526
 20
-66.7003
 30
0.0
 10
161.0874
 20
-65.677
 30
0.0
 10
165.6027
 20
-65.6941
 30
0.0
 10
169.9301
 20
-66.7485
 30
0.0
  0
SPLINE
  5
59
330
1F
100
AcDbEntity
  8
layer 1
 62
     7
370
     9
100
AcDbSpline
210
0.0
220
0.0
230
1.0
 70
    11
 71
     3
 72
    60
 73
    56
 74
     0
 42
0.0000000001
 43
0.0000000001
 12
1.0
 22
0.0
 32
0.0
 13
1.0
 23
0.0
 33
0.0
 40
0.0
 40
0.0
 40
0.0
 40
0.0
 40
0.0666666666666667
 40
0.0666666666666667
 40
0.0666666666666667
 40
0.0666666666666667
 40
0.1333333333333333
 40
0.1333333333333333
 40
0.1333333333333333
 40
0.1333333333333333
 40
0.2
 40
0.2
 40
0.2
 40
0.2
 40
0.2666666666666667
 40
0.2666666666666667
 40
0.2666666666666667
 40
0.2666666666666667
 40
0.3333333333333333
 40
0.3333333333333333
 40
0.3333333333333333
 40
0.3333333333333333
 40
0.4
 40
0.4
 40
0.4
 40
0.4
 40
0.4666666666666667
 40
0.4666666666666667
 40
0.4666666666666667
 40
0.4666666666666667
 40
0.5333333333333333
 40
0.5333333333333333
 40
0.5333333333333333
 40
0.5333333333333333
 40
0.6
 40
0.6
 40
0.6
 40
0.6
 40
0.6666666666666666
 40
0.6666666666666666
 40
0.6666666666666666
 40
0.6666666666666666
 40
0.7333333333333333
 40
0.7333333333333333
 40
0.7333333333333333
 40
0.7333333333333333
 40
0.8
 40
0.8
 40
0.8
 40
0.8
 40
0.8666666666666667
 40
0.8666666666666667
 40
0.8666666666666667
 40
0.8666666666666667
 40
1.0
 40
1.0
 40
1.0
 40
1.0
 10
179.3909
 20
-64.9866
 30
0.0
 10
178.9671
 20
-66.1254
 30
0.0
 10
177.8535
 20
-66.8583
 30
0.0
 10
176.6397
 20
-66.7967
 30
0.0
 10
176.6397
 20
-66.7967
 30
0.0
 10
175.2236
 20
-66.6336
 30
0.0
 10
173.9479
 20
-65.8646
 30
0.0
 10
173.1426
 20
-64.6887
 30
0.0
 10
173.1426
 20
-64.6887
 30
0.0
 10
172.3369
 20
-63.5128
 30
0.0
 10
172.0808
 20
-62.0454
 30
0.0
 10
172.4403
 20
-60.6663
 30
0.0
 10
172.4403
 20
-60.6663
 30
0.0
 10
173.6658
 20
-56.7313
 30
0.0
 10
177.7696
 20
-54.4563
 30
0.0
 10
181.7563
 20
-55.5012
 30
0.0
 10
181.7563
 20
-55.5012
 30
0.0
 10
185.9756
 20
-56.9125
 30
0.0
 10
188.2921
 20
-61.4384
 30
0.0
 10
186.9694
 20
-65.6865
 30
0.0
 10
186.9694
 20
-65.6865
 30
0.0
 10
185.4471
 20
-69.179
 30
0.0
 10
181.5013
 20
-70.9213
 30
0.0
 10
177.8946
 20
-69.6927
 30
0.0
 10
177.8946
 20
-69.6927
 30
0.0
 10
179.0305
 20
-69.5342
 30
0.0
 10
180.109
 20
-69.0943
 30
0.0
 10
181.0322
 20
-68.4135
 30
0.0
 10
181.0322
 20
-68.4135
 30
0.0
 10
183.4216
 20
-66.5629
 30
0.0
 10
184.1958
 20
-63.2961
 30
0.0
 10
182.8906
 20
-60.5701
 30
0.0
 10
182.8906
 20
-60.5701
 30
0.0
 10
182.1884
 20
-59.4047
 30
0.0
 10
180.9257
 20
-58.6938
 30
0.0
 10
179.5652
 20
-58.6988
 30
0.0
 10
179.5652
 20
-58.6988
 30
0.0
 10
178.2046
 20
-58.7038
 30
0.0
 10
176.947
 20
-59.4232
 30
0.0
 10
176.2534
 20
-60.5941
 30
0.0
 10
176.2534
 20
-60.5941
 30
0.0
 10
175.9352
 20
-61.2127
 30
0.0
 10
176.0077
 20
-61.9601
 30
0.0
 10
176.4392
 20
-62.5059
 30
0.0
 10
176.4392
 20
-62.5059
 30
0.0
 10
176.8705
 20
-63.0518
 30
0.0
 10
177.5812
 20
-63.2951
 30
0.0
 10
178.2568
 20
-63.128
 30
0.0
 10
178.2568
 20
-63.128
 30
0.0
 10
178.7265
 20
-63.0583
 30
0.0
 10
179.1925
 20
-63.276
 30
0.0
 10
179.4398
 20
-63.6813
 30
0.0
 10
179.4398
 20
-63.6813
 30
0.0
 10
179.6872
 20
-64.0867
 30
0.0
 10
179.668
 20
-64.6008
 30
0.0
 10
179.3909
 20
-64.9866
 30
0.0
  0
SPLINE
  5
5A
330
1F
100
AcDbEntity
  8
layer 1
 62
     7
370
     9
100
AcDbSpline
210
0.0
220
0.0
230
1.0
 70
    11
 71
     3
 72
    92
 73
    88
 74
     0
 42
0.0000000001
 43
0.0000000001
 12
1.0
 22
0.0
 32
0.0
 13
1.0
 23
0.0
 33
0.0
 40
0.0
 40
0.0
 40
0.0
 40
0.0
 40
0.0434782608695652
 40
0.0434782608695652
 40
0.0434782608695652
 40
0.0434782608695652
 40
0.0869565217391304
 40
0.0869565217391304
 40
0.0869565217391304
 40
0.0869565217391304
 40
0.1304347826086956
 40
0.1304347826086956
 40
0.1304347826086956
 40
0.1304347826086956
 40
0.1739130434782609
 40
0.1739130434782609
 40
0.1739130434782609
 40
0.1739130434782609
 40
0.2173913043478261
 40
0.2173913043478261
 40
0.2173913043478261
 40
0.2173913043478261
 40
0.2608695652173913
 40
0.2608695652173913
 40
0.2608695652173913
 40
0.2608695652173913
 40
0.3043478260869565
 40
0.3043478260869565
 40
0.3043478260869565
 40
0.3043478260869565
 40
0.3478260869565217
 40
0.3478260869565217
 40
0.3478260869565217
 40
0.3478260869565217
 40
0.391304347826087
 40
0.391304347826087
 40
0.391304347826087
 40
0.391304347826087
 40
0.4347826086956522
 40
0.4347826086956522
 40
0.4347826086956522
 40
0.4347826086956522
 40
0.4782608695652174
 40
0.4782608695652174
 40
0.4782608695652174
 40
0.4782608695652174
 40
0.5217391304347826
 40
0.5217391304347826
 40
0.5217391304347826
 40
0.5217391304347826
 40
0.5652173913043478
 40
0.5652173913043478
 40
0.5652173913043478
 40
0.5652173913043478
 40
0.6086956521739131
 40
0.6086956521739131
 40
0.6086956521739131
 40
0.6086956521739131
 40
0.6521739130434783
 40
0.6521739130434783
 40
0.6521739130434783
 40
0.6521739130434783
 40
0.6956521739130435
 40
0.6956521739130435
 40
0.6956521739130435
 40
0.6956521739130435
 40
0.7391304347826086
 40
0.7391304347826086
 40
0.7391304347826086
 40
0.7391304347826086
 40
0.782608695652174
 40
0.782608695652174
 40
0.782608695652174
 40
0.782608695652174
 40
0.8260869565217391
 40
0.8260869565217391
 40
0.8260869565217391
 40
0.8260869565217391
 40
0.8695652173913043
 40
0.8695652173913043
 40
0.8695652173913043
 40
0.8695652173913043
 40
0.9130434782608695
 40
0.9130434782608695
 40
0.9130434782608695
 40
0.9130434782608695
 40
1.0
 40
1.0
 40
1.0
 40
1.0
 10
167.3114
 20
-15.3895
 30
0.0
 10
167.5611
 20
-14.7624
 30
0.0
 10
168.1779
 20
-14.3601
 30
0.0
 10
168.8522
 20
-14.3847
 30
0.0
 10
168.8522
 20
-14.3847
 30
0.0
 10
169.5265
 20
-14.4093
 30
0.0
 10
170.1126
 20
-14.8547
 30
0.0
 10
170.3162
 20
-15.4979
 30
0.0
 10
170.3162
 20
-15.4979
 30
0.0
 10
170.8277
 20
-17.2642
 30
0.0
 10
170.1758
 20
-19.1614
 30
0.0
 10
168.6871
 20
-20.24
 30
0.0
 10
168.6871
 20
-20.24
 30
0.0
 10
167.375
 20
-21.0087
 30
0.0
 10
165.7971
 20
-21.1787
 30
0.0
 10
164.3513
 20
-20.7082
 30
0.0
 10
164.3513
 20
-20.7082
 30
0.0
 10
162.9056
 20
-20.2381
 30
0.0
 10
161.7298
 20
-19.1715
 30
0.0
 10
161.1209
 20
-17.7784
 30
0.0
 10
161.1209
 20
-17.7784
 30
0.0
 10
160.2304
 20
-14.6816
 30
0.0
 10
160.9965
 20
-11.3441
 30
0.0
 10
163.1482
 20
-8.9452
 30
0.0
 10
163.1482
 20
-8.9452
 30
0.0
 10
166.6502
 20
-6.0526
 30
0.0
 10
171.7037
 20
-6.0225
 30
0.0
 10
175.2397
 20
-8.8729
 30
0.0
 10
175.2397
 20
-8.8729
 30
0.0
 10
178.8848
 20
-12.1723
 30
0.0
 10
179.9169
 20
-17.4805
 30
0.0
 10
177.7739
 20
-21.9055
 30
0.0
 10
177.7739
 20
-21.9055
 30
0.0
 10
175.2572
 20
-25.8497
 30
0.0
 10
171.0922
 20
-28.4442
 30
0.0
 10
166.4426
 20
-28.9649
 30
0.0
 10
166.4426
 20
-28.9649
 30
0.0
 10
161.4321
 20
-29.4164
 30
0.0
 10
156.3887
 20
-28.5948
 30
0.0
 10
151.7806
 20
-26.5755
 30
0.0
 10
151.7806
 20
-26.5755
 30
0.0
 10
151.8577
 20
-25.1529
 30
0.0
 10
151.8577
 20
-23.7266
 30
0.0
 10
151.7806
 20
-22.3038
 30
0.0
 10
151.7806
 20
-22.3038
 30
0.0
 10
153.1126
 20
-23.6283
 30
0.0
 10
154.4766
 20
-24.9201
 30
0.0
 10
155.8715
 20
-26.1777
 30
0.0
 10
155.8715
 20
-26.1777
 30
0.0
 10
156.9124
 20
-27.148
 30
0.0
 10
158.3551
 20
-27.5608
 30
0.0
 10
159.7518
 20
-27.2883
 30
0.0
 10
159.7518
 20
-27.2883
 30
0.0
 10
161.1485
 20
-27.0164
 30
0.0
 10
162.3304
 20
-26.092
 30
0.0
 10
162.931
 20
-24.8016
 30
0.0
 10
162.931
 20
-24.8016
 30
0.0
 10
165.8878
 20
-25.8025
 30
0.0
 10
169.1552
 20
-25.1037
 30
0.0
 10
171.4441
 20
-22.9812
 30
0.0
 10
171.4441
 20
-22.9812
 30
0.0
 10
173.7329
 20
-20.8581
 30
0.0
 10
174.6757
 20
-17.653
 30
0.0
 10
173.9003
 20
-14.629
 30
0.0
 10
173.9003
 20
-14.629
 30
0.0
 10
173.4966
 20
-13.0648
 30
0.0
 10
172.4573
 20
-11.741
 30
0.0
 10
171.0339
 20
-10.978
 30
0.0
 10
171.0339
 20
-10.978
 30
0.0
 10
169.6103
 20
-10.2145
 30
0.0
 10
167.9324
 20
-10.0815
 30
0.0
 10
166.4063
 20
-10.6106
 30
0.0
 10
166.4063
 20
-10.6106
 30
0.0
 10
165.4142
 20
-11.0897
 30
0.0
 10
164.6823
 20
-11.9798
 30
0.0
 10
164.4035
 20
-13.0457
 30
0.0
 10
164.4035
 20
-13.0457
 30
0.0
 10
164.1248
 20
-14.1118
 30
0.0
 10
164.3276
 20
-15.246
 30
0.0
 10
164.9584
 20
-16.1496
 30
0.0
 10
164.9584
 20
-16.1496
 30
0.0
 10
165.3281
 20
-16.5152
 30
0.0
 10
165.8709
 20
-16.6442
 30
0.0
 10
166.3658
 20
-16.4842
 30
0.0
 10
166.3658
 20
-16.4842
 30
0.0
 10
166.8608
 20
-16.3246
 30
0.0
 10
167.2254
 20
-15.9022
 30
0.0
 10
167.3114
 20
-15.3895
 30
0.0
  0
SPLINE
  5
5B
330
1F
100
AcDbEntity
  8
layer 1
 62
     7
370
     9
100
AcDbSpline
210
0.0
220
0.0
230
1.0
 70
    11
 71
     3
 72
    24
 73
    20
 74
     0
 42
0.0000000001
 43
0.0000000001
 12
1.0
 22
0.0
 32
0.0
 13
1.0
 23
0.0
 33
0.0
 40
0.0
 40
0.0
 40
0.0
 40
0.0
 40
0.1666666666666667
 40
0.1666666666666667
 40
0.1666666666666667
 40
0.1666666666666667
 40
0.3333333333333333
 40
0.3333333333333333
 40
0.3333333333333333
 40
0.3333333333333333
 40
0.5
 40
0.5
 40
0.5
 40
0.5
 40
0.6666666666666666
 40
0.6666666666666666
 40
0.6666666666666666
 40
0.6666666666666666
 40
1.0
 40
1.0
 40
1.0
 40
1.0
 10
147.726
 20
-48.0802
 30
0.0
 10
149.7039
 20
-43.6129
 30
0.0
 10
149.0192
 20
-38.4153
 30
0.0
 10
145.952
 20
-34.6126
 30
0.0
 10
145.952
 20
-34.6126
 30
0.0
 10
143.9765
 20
-37.0993
 30
0.0
 10
141.6468
 20
-39.2826
 30
0.0
 10
139.0377
 20
-41.0931
 30
0.0
 10
139.0377
 20
-41.0931
 30
0.0
 10
141.2064
 20
-42.7826
 30
0.0
 10
142.7179
 20
-45.177
 30
0.0
 10
143.3093
 20
-47.863
 30
0.0
 10
143.3093
 20
-47.863
 30
0.0
 10
143.7503
 20
-48.6441
 30
0.0
 10
144.5614
 20
-49.1452
 30
0.0
 10
145.458
 20
-49.1894
 30
0.0
 10
145.458
 20
-49.1894
 30
0.0
 10
146.3539
 20
-49.2335
 30
0.0
 10
147.2105
 20
-48.8146
 30
0.0
 10
147.726
 20
-48.0802
 30
0.0
  0
SPLINE
  5
5C
330
1F
100
AcDbEntity
  8
layer 1
 62
     7
370
     9
100
AcDbSpline
210
0.0
220
0.0
230
1.0
 70
    11
 71
     3
 72
    88
 73
    84
 74
     0
 42
0.0000000001
 43
0.0000000001
 12
1.0
 22
0.0
 32
0.0
 13
1.0
 23
0.0
 33
0.0
 40
0.0
 40
0.0
 40
0.0
 40
0.0
 40
0.0454545454545455
 40
0.0454545454545455
 40
0.0454545454545455
 40
0.0454545454545455
 40
0.0909090909090909
 40
0.0909090909090909
 40
0.0909090909090909
 40
0.0909090909090909
 40
0.1363636363636364
 40
0.1363636363636364
 40
0.1363636363636364
 40
0.1363636363636364
 40
0.1818181818181818
 40
0.1818181818181818
 40
0.1818181818181818
 40
0.1818181818181818
 40
0.2272727272727273
 40
0.2272727272727273
 40
0.2272727272727273
 40
0.2272727272727273
 40
0.2727272727272727
 40
0.2727272727272727
 40
0.2727272727272727
 40
0.2727272727272727
 40
0.3181818181818182
 40
0.3181818181818182
 40
0.3181818181818182
 40
0.3181818181818182
 40
0.3636363636363636
 40
0.3636363636363636
 40
0.3636363636363636
 40
0.3636363636363636
 40
0.4090909090909091
 40
0.4090909090909091
 40
0.4090909090909091
 40
0.4090909090909091
 40
0.4545454545454545
 40
0.4545454545454545
 40
0.4545454545454545
 40
0.4545454545454545
 40
0.5
 40
0.5
 40
0.5
 40
0.5
 40
0.5454545454545454
 40
0.5454545454545454
 40
0.5454545454545454
 40
0.5454545454545454
 40
0.5909090909090909
 40
0.5909090909090909
 40
0.5909090909090909
 40
0.5909090909090909
 40
0.6363636363636364
 40
0.6363636363636364
 40
0.6363636363636364
 40
0.6363636363636364
 40
0.6818181818181818
 40
0.6818181818181818
 40
0.6818181818181818
 40
0.6818181818181818
 40
0.7272727272727273
 40
0.7272727272727273
 40
0.7272727272727273
 40
0.7272727272727273
 40
0.7727272727272727
 40
0.7727272727272727
 40
0.7727272727272727
 40
0.7727272727272727
 40
0.8181818181818182
 40
0.8181818181818182
 40
0.8181818181818182
 40
0.8181818181818182
 40
0.8636363636363636
 40
0.8636363636363636
 40
0.8636363636363636
 40
0.8636363636363636
 40
0.9090909090909091
 40
0.9090909090909091
 40
0.9090909090909091
 40
0.9090909090909091
 40
1.0
 40
1.0
 40
1.0
 40
1.0
 10
147.6897
 20
-32.9476
 30
0.0
 10
152.5555
 20
-37.0608
 30
0.0
 10
153.9893
 20
-43.9616
 30
0.0
 10
151.1653
 20
-49.6729
 30
0.0
 10
151.1653
 20
-49.6729
 30
0.0
 10
152.3991
 20
-50.147
 30
0.0
 10
153.7188
 20
-50.3562
 30
0.0
 10
155.0389
 20
-50.2885
 30
0.0
 10
155.0389
 20
-50.2885
 30
0.0
 10
155.0015
 20
-48.2146
 30
0.0
 10
156.0302
 20
-46.2662
 30
0.0
 10
157.7639
 20
-45.1274
 30
0.0
 10
157.7639
 20
-45.1274
 30
0.0
 10
159.4977
 20
-43.9886
 30
0.0
 10
161.6943
 20
-43.8186
 30
0.0
 10
163.5826
 20
-44.6769
 30
0.0
 10
163.5826
 20
-44.6769
 30
0.0
 10
164.746
 20
-45.2058
 30
0.0
 10
165.5888
 20
-46.2562
 30
0.0
 10
165.8532
 20
-47.5063
 30
0.0
 10
165.8532
 20
-47.5063
 30
0.0
 10
166.1175
 20
-48.7564
 30
0.0
 10
165.7718
 20
-50.0577
 30
0.0
 10
164.9221
 20
-51.0125
 30
0.0
 10
164.9221
 20
-51.0125
 30
0.0
 10
164.3488
 20
-51.6626
 30
0.0
 10
163.3713
 20
-51.7619
 30
0.0
 10
162.679
 20
-51.2401
 30
0.0
 10
162.679
 20
-51.2401
 30
0.0
 10
161.9865
 20
-50.7184
 30
0.0
 10
161.8125
 20
-49.7517
 30
0.0
 10
162.2795
 20
-49.0213
 30
0.0
 10
162.2795
 20
-49.0213
 30
0.0
 10
162.3806
 20
-48.4173
 30
0.0
 10
162.1552
 20
-47.8052
 30
0.0
 10
161.6866
 20
-47.411
 30
0.0
 10
161.6866
 20
-47.411
 30
0.0
 10
161.218
 20
-47.0167
 30
0.0
 10
160.5761
 20
-46.8992
 30
0.0
 10
159.9987
 20
-47.1025
 30
0.0
 10
159.9987
 20
-47.1025
 30
0.0
 10
158.8846
 20
-47.7341
 30
0.0
 10
158.1564
 20
-48.8773
 30
0.0
 10
158.0549
 20
-50.1541
 30
0.0
 10
158.0549
 20
-50.1541
 30
0.0
 10
157.9534
 20
-51.4303
 30
0.0
 10
158.4917
 20
-52.6744
 30
0.0
 10
159.4917
 20
-53.474
 30
0.0
 10
159.4917
 20
-53.474
 30
0.0
 10
160.9617
 20
-54.2813
 30
0.0
 10
162.7156
 20
-54.3871
 30
0.0
 10
164.272
 20
-53.763
 30
0.0
 10
164.272
 20
-53.763
 30
0.0
 10
165.8283
 20
-53.1394
 30
0.0
 10
167.0232
 20
-51.8512
 30
0.0
 10
167.5286
 20
-50.2518
 30
0.0
 10
167.5286
 20
-50.2518
 30
0.0
 10
168.9813
 20
-45.433
 30
0.0
 10
167.3797
 20
-40.2132
 30
0.0
 10
163.474
 20
-37.0382
 30
0.0
 10
163.474
 20
-37.0382
 30
0.0
 10
164.1113
 20
-38.7699
 30
0.0
 10
163.3495
 20
-40.7043
 30
0.0
 10
161.703
 20
-41.5371
 30
0.0
 10
161.703
 20
-41.5371
 30
0.0
 10
160.0563
 20
-42.3698
 30
0.0
 10
158.0469
 20
-41.836
 30
0.0
 10
157.03
 20
-40.2965
 30
0.0
 10
157.03
 20
-40.2965
 30
0.0
 10
157.8848
 20
-40.184
 30
0.0
 10
158.598
 20
-39.5886
 30
0.0
 10
158.8613
 20
-38.7679
 30
0.0
 10
158.8613
 20
-38.7679
 30
0.0
 10
159.1247
 20
-37.9467
 30
0.0
 10
158.8908
 20
-37.0477
 30
0.0
 10
158.2608
 20
-36.4593
 30
0.0
 10
158.2608
 20
-36.4593
 30
0.0
 10
155.3833
 20
-34.4281
 30
0.0
 10
152.3442
 20
-32.6362
 30
0.0
 10
149.1742
 20
-31.1011
 30
0.0
 10
149.1742
 20
-31.1011
 30
0.0
 10
148.8721
 20
-31.8495
 30
0.0
 10
148.3558
 20
-32.4917
 30
0.0
 10
147.6897
 20
-32.9476
 30
0.0
  0
SPLINE
  5
5D
330
1F
100
AcDbEntity
  8
layer 1
 62
     7
370
     9
100
AcDbSpline
210
0.0
220
0.0
230
1.0
 70
    11
 71
     3
 72
    16
 73
    12
 74
     0
 42
0.0000000001
 43
0.0000000001
 12
1.0
 22
0.0
 32
0.0
 13
1.0
 23
0.0
 33
0.0
 40
0.0
 40
0.0
 40
0.0
 40
0.0
 40
0.25
 40
0.25
 40
0.25
 40
0.25
 40
0.5
 40
0.5
 40
0.5
 40
0.5
 40
1.0
 40
1.0
 40
1.0
 40
1.0
 10
146.0242
 20
-52.6413
 30
0.0
 10
145.8944
 20
-53.5051
 30
0.0
 10
145.2718
 20
-54.213
 30
0.0
 10
144.4316
 20
-54.4518
 30
0.0
 10
144.4316
 20
-54.4518
 30
0.0
 10
144.4316
 20
-54.4518
 30
0.0
 10
144.2865
 20
-52.6413
 30
0.0
 10
144.2865
 20
-52.6413
 30
0.0
 10
144.2865
 20
-52.6413
 30
0.0
 10
144.2865
 20
-52.6413
 30
0.0
 10
146.0242
 20
-52.6413
 30
0.0
 10
146.0242
 20
-52.6413
 30
0.0
  0
SPLINE
  5
5E
330
1F
100
AcDbEntity
  8
layer 1
 62
     7
370
     9
100
AcDbSpline
210
0.0
220
0.0
230
1.0
 70
    11
 71
     3
 72
    52
 73
    48
 74
     0
 42
0.0000000001
 43
0.0000000001
 12
1.0
 22
0.0
 32
0.0
 13
1.0
 23
0.0
 33
0.0
 40
0.0
 40
0.0
 40
0.0
 40
0.0
 40
0.0769230769230769
 40
0.0769230769230769
 40
0.0769230769230769
 40
0.0769230769230769
 40
0.1538461538461539
 40
0.1538461538461539
 40
0.1538461538461539
 40
0.1538461538461539
 40
0.2307692307692308
 40
0.2307692307692308
 40
0.2307692307692308
 40
0.2307692307692308
 40
0.3076923076923077
 40
0.3076923076923077
 40
0.3076923076923077
 40
0.3076923076923077
 40
0.3846153846153846
 40
0.3846153846153846
 40
0.3846153846153846
 40
0.3846153846153846
 40
0.4615384615384616
 40
0.4615384615384616
 40
0.4615384615384616
 40
0.4615384615384616
 40
0.5384615384615384
 40
0.5384615384615384
 40
0.5384615384615384
 40
0.5384615384615384
 40
0.6153846153846154
 40
0.6153846153846154
 40
0.6153846153846154
 40
0.6153846153846154
 40
0.6923076923076923
 40
0.6923076923076923
 40
0.6923076923076923
 40
0.6923076923076923
 40
0.7692307692307693
 40
0.7692307692307693
 40
0.7692307692307693
 40
0.7692307692307693
 40
0.8461538461538461
 40
0.8461538461538461
 40
0.8461538461538461
 40
0.8461538461538461
 40
1.0
 40
1.0
 40
1.0
 40
1.0
 10
150.1877
 20
-58.0356
 30
0.0
 10
150.3691
 20
-57.3249
 30
0.0
 10
150.9445
 20
-56.7825
 30
0.0
 10
151.6646
 20
-56.643
 30
0.0
 10
151.6646
 20
-56.643
 30
0.0
 10
152.385
 20
-56.5036
 30
0.0
 10
153.121
 20
-56.792
 30
0.0
 10
153.5547
 20
-57.384
 30
0.0
 10
153.5547
 20
-57.384
 30
0.0
 10
154.4438
 20
-59.5953
 30
0.0
 10
153.4818
 20
-62.1182
 30
0.0
 10
151.3462
 20
-63.1762
 30
0.0
 10
151.3462
 20
-63.1762
 30
0.0
 10
148.9378
 20
-64.2396
 30
0.0
 10
146.1292
 20
-63.7857
 30
0.0
 10
144.1782
 20
-62.0178
 30
0.0
 10
144.1782
 20
-62.0178
 30
0.0
 10
143.3982
 20
-64.5763
 30
0.0
 10
142.0352
 20
-66.918
 30
0.0
 10
140.1961
 20
-68.8599
 30
0.0
 10
140.1961
 20
-68.8599
 30
0.0
 10
143.8255
 20
-69.4529
 30
0.0
 10
147.5495
 20
-68.9748
 30
0.0
 10
150.9118
 20
-67.4844
 30
0.0
 10
150.9118
 20
-67.4844
 30
0.0
 10
153.6942
 20
-65.9553
 30
0.0
 10
155.4476
 20
-63.0562
 30
0.0
 10
155.5096
 20
-59.8822
 30
0.0
 10
155.5096
 20
-59.8822
 30
0.0
 10
155.6313
 20
-57.3965
 30
0.0
 10
154.051
 20
-55.145
 30
0.0
 10
151.6721
 20
-54.4157
 30
0.0
 10
151.6721
 20
-54.4157
 30
0.0
 10
150.5476
 20
-54.1307
 30
0.0
 10
149.3552
 20
-54.4117
 30
0.0
 10
148.476
 20
-55.1682
 30
0.0
 10
148.476
 20
-55.1682
 30
0.0
 10
147.5969
 20
-55.9252
 30
0.0
 10
147.1415
 20
-57.0625
 30
0.0
 10
147.2553
 20
-58.2167
 30
0.0
 10
147.2553
 20
-58.2167
 30
0.0
 10
147.4342
 20
-58.911
 30
0.0
 10
148.0808
 20
-59.3805
 30
0.0
 10
148.7963
 20
-59.3365
 30
0.0
 10
148.7963
 20
-59.3365
 30
0.0
 10
149.5121
 20
-59.2924
 30
0.0
 10
150.0957
 20
-58.7465
 30
0.0
 10
150.1877
 20
-58.0356
 30
0.0
  0
SPLINE
  5
5F
330
1F
100
AcDbEntity
  8
layer 1
 62
     7
370
     9
100
AcDbSpline
210
0.0
220
0.0
230
1.0
 70
    11
 71
     3
 72
    84
 73
    80
 74
     0
 42
0.0000000001
 43
0.0000000001
 12
1.0
 22
0.0
 32
0.0
 13
1.0
 23
0.0
 33
0.0
 40
0.0
 40
0.0
 40
0.0
 40
0.0
 40
0.0476190476190476
 40
0.0476190476190476
 40
0.0476190476190476
 40
0.0476190476190476
 40
0.0952380952380952
 40
0.0952380952380952
 40
0.0952380952380952
 40
0.0952380952380952
 40
0.1428571428571428
 40
0.1428571428571428
 40
0.1428571428571428
 40
0.1428571428571428
 40
0.1904761904761905
 40
0.1904761904761905
 40
0.1904761904761905
 40
0.1904761904761905
 40
0.2380952380952381
 40
0.2380952380952381
 40
0.2380952380952381
 40
0.2380952380952381
 40
0.2857142857142857
 40
0.2857142857142857
 40
0.2857142857142857
 40
0.2857142857142857
 40
0.3333333333333333
 40
0.3333333333333333
 40
0.3333333333333333
 40
0.3333333333333333
 40
0.3809523809523809
 40
0.3809523809523809
 40
0.3809523809523809
 40
0.3809523809523809
 40
0.4285714285714285
 40
0.4285714285714285
 40
0.4285714285714285
 40
0.4285714285714285
 40
0.4761904761904762
 40
0.4761904761904762
 40
0.4761904761904762
 40
0.4761904761904762
 40
0.5238095238095238
 40
0.5238095238095238
 40
0.5238095238095238
 40
0.5238095238095238
 40
0.5714285714285714
 40
0.5714285714285714
 40
0.5714285714285714
 40
0.5714285714285714
 40
0.6190476190476191
 40
0.6190476190476191
 40
0.6190476190476191
 40
0.6190476190476191
 40
0.6666666666666666
 40
0.6666666666666666
 40
0.6666666666666666
 40
0.6666666666666666
 40
0.7142857142857143
 40
0.7142857142857143
 40
0.7142857142857143
 40
0.7142857142857143
 40
0.7619047619047619
 40
0.7619047619047619
 40
0.7619047619047619
 40
0.7619047619047619
 40
0.8095238095238095
 40
0.8095238095238095
 40
0.8095238095238095
 40
0.8095238095238095
 40
0.8571428571428571
 40
0.8571428571428571
 40
0.8571428571428571
 40
0.8571428571428571
 40
0.9047619047619048
 40
0.9047619047619048
 40
0.9047619047619048
 40
0.9047619047619048
 40
1.0
 40
1.0
 40
1.0
 40
1.0
 10
178.2083
 20
-92.4279
 30
0.0
 10
178.4203
 20
-92.8258
 30
0.0
 10
178.8595
 20
-93.0481
 30
0.0
 10
179.3057
 20
-92.9834
 30
0.0
 10
179.3057
 20
-92.9834
 30
0.0
 10
179.7521
 20
-92.9181
 30
0.0
 10
180.1097
 20
-92.5805
 30
0.0
 10
180.1996
 20
-92.138
 30
0.0
 10
180.1996
 20
-92.138
 30
0.0
 10
180.5858
 20
-90.8327
 30
0.0
 10
180.3547
 20
-89.422
 30
0.0
 10
179.5719
 20
-88.3079
 30
0.0
 10
179.5719
 20
-88.3079
 30
0.0
 10
178.7892
 20
-87.1936
 30
0.0
 10
177.5405
 20
-86.4978
 30
0.0
 10
176.1811
 20
-86.4181
 30
0.0
 10
176.1811
 20
-86.4181
 30
0.0
 10
174.329
 20
-86.3574
 30
0.0
 10
172.5458
 20
-87.1235
 30
0.0
 10
171.3146
 20
-88.5085
 30
0.0
 10
171.3146
 20
-88.5085
 30
0.0
 10
170.0835
 20
-89.8936
 30
0.0
 10
169.5319
 20
-91.7543
 30
0.0
 10
169.8094
 20
-93.5863
 30
0.0
 10
169.8094
 20
-93.5863
 30
0.0
 10
170.236
 20
-96.0204
 30
0.0
 10
171.6985
 20
-98.1489
 30
0.0
 10
173.8175
 20
-99.4206
 30
0.0
 10
173.8175
 20
-99.4206
 30
0.0
 10
175.9363
 20
-100.6918
 30
0.0
 10
178.5028
 20
-100.9803
 30
0.0
 10
180.8513
 20
-100.2112
 30
0.0
 10
180.8513
 20
-100.2112
 30
0.0
 10
185.0285
 20
-98.63
 30
0.0
 10
187.9192
 20
-94.7808
 30
0.0
 10
188.2727
 20
-90.328
 30
0.0
 10
188.2727
 20
-90.328
 30
0.0
 10
188.3376
 20
-83.227
 30
0.0
 10
184.0187
 20
-76.8213
 30
0.0
 10
177.412
 20
-74.2183
 30
0.0
 10
177.412
 20
-74.2183
 30
0.0
 10
177.7521
 20
-76.2489
 30
0.0
 10
177.0165
 20
-78.3113
 30
0.0
 10
175.4678
 20
-79.6682
 30
0.0
 10
175.4678
 20
-79.6682
 30
0.0
 10
173.9189
 20
-81.0252
 30
0.0
 10
171.778
 20
-81.4837
 30
0.0
 10
169.8094
 20
-80.8792
 30
0.0
 10
169.8094
 20
-80.8792
 30
0.0
 10
170.0779
 20
-82.17
 30
0.0
 10
170.0656
 20
-83.5034
 30
0.0
 10
169.7733
 20
-84.7892
 30
0.0
 10
169.7733
 20
-84.7892
 30
0.0
 10
172.9868
 20
-83.3956
 30
0.0
 10
176.5525
 20
-83.0289
 30
0.0
 10
179.9823
 20
-83.7392
 30
0.0
 10
179.9823
 20
-83.7392
 30
0.0
 10
183.6562
 20
-85.1705
 30
0.0
 10
185.5656
 20
-89.2279
 30
0.0
 10
184.3266
 20
-92.9707
 30
0.0
 10
184.3266
 20
-92.9707
 30
0.0
 10
183.546
 20
-95.7078
 30
0.0
 10
181.1216
 20
-97.6527
 30
0.0
 10
178.2808
 20
-97.8218
 30
0.0
 10
178.2808
 20
-97.8218
 30
0.0
 10
176.7904
 20
-97.899
 30
0.0
 10
175.365
 20
-97.2058
 30
0.0
 10
174.5051
 20
-95.9857
 30
0.0
 10
174.5051
 20
-95.9857
 30
0.0
 10
173.6453
 20
-94.7657
 30
0.0
 10
173.4718
 20
-93.1906
 30
0.0
 10
174.0452
 20
-91.8125
 30
0.0
 10
174.0452
 20
-91.8125
 30
0.0
 10
174.5247
 20
-91.0313
 30
0.0
 10
175.4235
 20
-90.612
 30
0.0
 10
176.3298
 20
-90.7459
 30
0.0
 10
176.3298
 20
-90.7459
 30
0.0
 10
177.2363
 20
-90.8803
 30
0.0
 10
177.9754
 20
-91.5416
 30
0.0
 10
178.2083
 20
-92.4279
 30
0.0
  0
SPLINE
  5
60
330
1F
100
AcDbEntity
  8
layer 1
 62
     7
370
     9
100
AcDbSpline
210
0.0
220
0.0
230
1.0
 70
    11
 71
     3
 72
    16
 73
    12
 74
     0
 42
0.0000000001
 43
0.0000000001
 12
1.0
 22
0.0
 32
0.0
 13
1.0
 23
0.0
 33
0.0
 40
0.0
 40
0.0
 40
0.0
 40
0.0
 40
0.25
 40
0.25
 40
0.25
 40
0.25
 40
0.5
 40
0.5
 40
0.5
 40
0.5
 40
1.0
 40
1.0
 40
1.0
 40
1.0
 10
166.1892
 20
-96.1929
 30
0.0
 10
166.1892
 20
-96.1929
 30
0.0
 10
161.5191
 20
-91.5229
 30
0.0
 10
161.5191
 20
-91.5229
 30
0.0
 10
161.5191
 20
-91.5229
 30
0.0
 10
161.5191
 20
-91.5229
 30
0.0
 10
165.8634
 20
-91.4142
 30
0.0
 10
165.8634
 20
-91.4142
 30
0.0
 10
165.8634
 20
-91.4142
 30
0.0
 10
165.8634
 20
-91.4142
 30
0.0
 10
166.1892
 20
-96.1929
 30
0.0
 10
166.1892
 20
-96.1929
 30
0.0
  0
SPLINE
  5
61
330
1F
100
AcDbEntity
  8
layer 1
 62
     7
370
     9
100
AcDbSpline
210
0.0
220
0.0
230
1.0
 70
    11
 71
     3
 72
    24
 73
    20
 74
     0
 42
0.0000000001
 43
0.0000000001
 12
1.0
 22
0.0
 32
0.0
 13
1.0
 23
0.0
 33
0.0
 40
0.0
 40
0.0
 40
0.0
 40
0.0
 40
0.1666666666666667
 40
0.1666666666666667
 40
0.1666666666666667
 40
0.1666666666666667
 40
0.3333333333333333
 40
0.3333333333333333
 40
0.3333333333333333
 40
0.3333333333333333
 40
0.5
 40
0.5
 40
0.5
 40
0.5
 40
0.6666666666666666
 40
0.6666666666666666
 40
0.6666666666666666
 40
0.6666666666666666
 40
1.0
 40
1.0
 40
1.0
 40
1.0
 10
98.8527
 20
-107.5606
 30
0.0
 10
100.4525
 20
-107.4536
 30
0.0
 10
101.9249
 20
-108.433
 30
0.0
 10
102.444
 20
-109.95
 30
0.0
 10
102.444
 20
-109.95
 30
0.0
 10
102.444
 20
-109.95
 30
0.0
 10
80.7518
 20
-109.95
 30
0.0
 10
80.7518
 20
-109.95
 30
0.0
 10
80.7518
 20
-109.95
 30
0.0
 10
80.7518
 20
-109.95
 30
0.0
 10
80.7518
 20
-97.6869
 30
0.0
 10
80.7518
 20
-97.6869
 30
0.0
 10
80.7518
 20
-97.6869
 30
0.0
 10
82.5402
 20
-100.608
 30
0.0
 10
84.9352
 20
-103.1108
 30
0.0
 10
87.7751
 20
-105.0261
 30
0.0
 10
87.7751
 20
-105.0261
 30
0.0
 10
90.8633
 20
-107.5675
 30
0.0
 10
94.9669
 20
-108.5062
 30
0.0
 10
98.8527
 20
-107.5606
 30
0.0
  0
SPLINE
  5
62
330
1F
100
AcDbEntity
  8
layer 1
 62
     7
370
     9
100
AcDbSpline
210
0.0
220
0.0
230
1.0
 70
    11
 71
     3
 72
    56
 73
    52
 74
     0
 42
0.0000000001
 43
0.0000000001
 12
1.0
 22
0.0
 32
0.0
 13
1.0
 23
0.0
 33
0.0
 40
0.0
 40
0.0
 40
0.0
 40
0.0
 40
0.0714285714285714
 40
0.0714285714285714
 40
0.0714285714285714
 40
0.0714285714285714
 40
0.1428571428571428
 40
0.1428571428571428
 40
0.1428571428571428
 40
0.1428571428571428
 40
0.2142857142857143
 40
0.2142857142857143
 40
0.2142857142857143
 40
0.2142857142857143
 40
0.2857142857142857
 40
0.2857142857142857
 40
0.2857142857142857
 40
0.2857142857142857
 40
0.3571428571428572
 40
0.3571428571428572
 40
0.3571428571428572
 40
0.3571428571428572
 40
0.4285714285714285
 40
0.4285714285714285
 40
0.4285714285714285
 40
0.4285714285714285
 40
0.5
 40
0.5
 40
0.5
 40
0.5
 40
0.5714285714285714
 40
0.5714285714285714
 40
0.5714285714285714
 40
0.5714285714285714
 40
0.6428571428571429
 40
0.6428571428571429
 40
0.6428571428571429
 40
0.6428571428571429
 40
0.7142857142857143
 40
0.7142857142857143
 40
0.7142857142857143
 40
0.7142857142857143
 40
0.7857142857142857
 40
0.7857142857142857
 40
0.7857142857142857
 40
0.7857142857142857
 40
0.8571428571428571
 40
0.8571428571428571
 40
0.8571428571428571
 40
0.8571428571428571
 40
1.0
 40
1.0
 40
1.0
 40
1.0
 10
101.3144
 20
-105.2073
 30
0.0
 10
103.2097
 20
-106.0079
 30
0.0
 10
104.4161
 20
-107.8936
 30
0.0
 10
104.3488
 20
-109.95
 30
0.0
 10
104.3488
 20
-109.95
 30
0.0
 10
104.3488
 20
-109.95
 30
0.0
 10
110.6342
 20
-109.95
 30
0.0
 10
110.6342
 20
-109.95
 30
0.0
 10
110.6342
 20
-109.95
 30
0.0
 10
109.5923
 20
-108.9045
 30
0.0
 10
108.9687
 20
-107.5139
 30
0.0
 10
108.8809
 20
-106.04
 30
0.0
 10
108.8809
 20
-106.04
 30
0.0
 10
108.914
 20
-104.7663
 30
0.0
 10
109.5466
 20
-103.5834
 30
0.0
 10
110.588
 20
-102.849
 30
0.0
 10
110.588
 20
-102.849
 30
0.0
 10
111.6289
 20
-102.1145
 30
0.0
 10
112.9554
 20
-101.9154
 30
0.0
 10
114.1664
 20
-102.3112
 30
0.0
 10
114.1664
 20
-102.3112
 30
0.0
 10
115.0362
 20
-102.6708
 30
0.0
 10
115.4496
 20
-103.6676
 30
0.0
 10
115.0894
 20
-104.5375
 30
0.0
 10
115.0894
 20
-104.5375
 30
0.0
 10
114.7298
 20
-105.4075
 30
0.0
 10
113.733
 20
-105.8207
 30
0.0
 10
112.8631
 20
-105.4605
 30
0.0
 10
112.8631
 20
-105.4605
 30
0.0
 10
112.4658
 20
-105.9442
 30
0.0
 10
112.4106
 20
-106.6239
 30
0.0
 10
112.7256
 20
-107.1647
 30
0.0
 10
112.7256
 20
-107.1647
 30
0.0
 10
113.0401
 20
-107.7055
 30
0.0
 10
113.6582
 20
-107.9934
 30
0.0
 10
114.2752
 20
-107.8866
 30
0.0
 10
114.2752
 20
-107.8866
 30
0.0
 10
116.1439
 20
-107.9704
 30
0.0
 10
117.8054
 20
-106.7057
 30
0.0
 10
118.2213
 20
-104.8816
 30
0.0
 10
118.2213
 20
-104.8816
 30
0.0
 10
118.5299
 20
-102.9117
 30
0.0
 10
117.5942
 20
-100.9551
 30
0.0
 10
115.868
 20
-99.9578
 30
0.0
 10
115.868
 20
-99.9578
 30
0.0
 10
114.057
 20
-99.216
 30
0.0
 10
112.0157
 20
-99.2817
 30
0.0
 10
110.2564
 20
-100.139
 30
0.0
 10
110.2564
 20
-100.139
 30
0.0
 10
107.2841
 20
-101.8432
 30
0.0
 10
104.3032
 20
-103.5327
 30
0.0
 10
101.3144
 20
-105.2073
 30
0.0
  0
SPLINE
  5
63
330
1F
100
AcDbEntity
  8
layer 1
 62
     7
370
     9
100
AcDbSpline
210
0.0
220
0.0
230
1.0
 70
    11
 71
     3
 72
    84
 73
    80
 74
     0
 42
0.0000000001
 43
0.0000000001
 12
1.0
 22
0.0
 32
0.0
 13
1.0
 23
0.0
 33
0.0
 40
0.0
 40
0.0
 40
0.0
 40
0.0
 40
0.0476190476190476
 40
0.0476190476190476
 40
0.0476190476190476
 40
0.0476190476190476
 40
0.0952380952380952
 40
0.0952380952380952
 40
0.0952380952380952
 40
0.0952380952380952
 40
0.1428571428571428
 40
0.1428571428571428
 40
0.1428571428571428
 40
0.1428571428571428
 40
0.1904761904761905
 40
0.1904761904761905
 40
0.1904761904761905
 40
0.1904761904761905
 40
0.2380952380952381
 40
0.2380952380952381
 40
0.2380952380952381
 40
0.2380952380952381
 40
0.2857142857142857
 40
0.2857142857142857
 40
0.2857142857142857
 40
0.2857142857142857
 40
0.3333333333333333
 40
0.3333333333333333
 40
0.3333333333333333
 40
0.3333333333333333
 40
0.3809523809523809
 40
0.3809523809523809
 40
0.3809523809523809
 40
0.3809523809523809
 40
0.4285714285714285
 40
0.4285714285714285
 40
0.4285714285714285
 40
0.4285714285714285
 40
0.4761904761904762
 40
0.4761904761904762
 40
0.4761904761904762
 40
0.4761904761904762
 40
0.5238095238095238
 40
0.5238095238095238
 40
0.5238095238095238
 40
0.5238095238095238
 40
0.5714285714285714
 40
0.5714285714285714
 40
0.5714285714285714
 40
0.5714285714285714
 40
0.6190476190476191
 40
0.6190476190476191
 40
0.6190476190476191
 40
0.6190476190476191
 40
0.6666666666666666
 40
0.6666666666666666
 40
0.6666666666666666
 40
0.6666666666666666
 40
0.7142857142857143
 40
0.7142857142857143
 40
0.7142857142857143
 40
0.7142857142857143
 40
0.7619047619047619
 40
0.7619047619047619
 40
0.7619047619047619
 40
0.7619047619047619
 40
0.8095238095238095
 40
0.8095238095238095
 40
0.8095238095238095
 40
0.8095238095238095
 40
0.8571428571428571
 40
0.8571428571428571
 40
0.8571428571428571
 40
0.8571428571428571
 40
0.9047619047619048
 40
0.9047619047619048
 40
0.9047619047619048
 40
0.9047619047619048
 40
1.0
 40
1.0
 40
1.0
 40
1.0
 10
119.1975
 20
-109.95
 30
0.0
 10
119.1975
 20
-109.95
 30
0.0
 10
135.7067
 20
-109.95
 30
0.0
 10
135.7067
 20
-109.95
 30
0.0
 10
135.7067
 20
-109.95
 30
0.0
 10
134.6351
 20
-108.4235
 30
0.0
 10
134.1822
 20
-106.5477
 30
0.0
 10
134.4395
 20
-104.7006
 30
0.0
 10
134.4395
 20
-104.7006
 30
0.0
 10
133.4191
 20
-105.6772
 30
0.0
 10
131.9929
 20
-106.1083
 30
0.0
 10
130.6023
 20
-105.859
 30
0.0
 10
130.6023
 20
-105.859
 30
0.0
 10
130.3464
 20
-104.6449
 30
0.0
 10
130.6234
 20
-103.3797
 30
0.0
 10
131.3623
 20
-102.3834
 30
0.0
 10
131.3623
 20
-102.3834
 30
0.0
 10
130.5004
 20
-102.589
 30
0.0
 10
129.593
 20
-102.3653
 30
0.0
 10
128.9248
 20
-101.7834
 30
0.0
 10
128.9248
 20
-101.7834
 30
0.0
 10
128.2566
 20
-101.202
 30
0.0
 10
127.9109
 20
-100.3331
 30
0.0
 10
127.9956
 20
-99.4512
 30
0.0
 10
127.9956
 20
-99.4512
 30
0.0
 10
128.9518
 20
-100.0793
 30
0.0
 10
130.1894
 20
-100.0793
 30
0.0
 10
131.1456
 20
-99.4512
 30
0.0
 10
131.1456
 20
-99.4512
 30
0.0
 10
132.3074
 20
-98.798
 30
0.0
 10
133.5866
 20
-98.3797
 30
0.0
 10
134.9105
 20
-98.2201
 30
0.0
 10
134.9105
 20
-98.2201
 30
0.0
 10
134.9105
 20
-98.2201
 30
0.0
 10
134.9105
 20
-94.8174
 30
0.0
 10
134.9105
 20
-94.8174
 30
0.0
 10
134.9105
 20
-94.8174
 30
0.0
 10
133.8295
 20
-95.1089
 30
0.0
 10
132.7985
 20
-95.5604
 30
0.0
 10
131.8515
 20
-96.1568
 30
0.0
 10
131.8515
 20
-96.1568
 30
0.0
 10
130.7814
 20
-96.8627
 30
0.0
 10
129.4134
 20
-96.9343
 30
0.0
 10
128.275
 20
-96.3449
 30
0.0
 10
128.275
 20
-96.3449
 30
0.0
 10
127.1373
 20
-95.755
 30
0.0
 10
126.4074
 20
-94.5961
 30
0.0
 10
126.3668
 20
-93.3148
 30
0.0
 10
126.3668
 20
-93.3148
 30
0.0
 10
127.5576
 20
-93.8056
 30
0.0
 10
128.8645
 20
-93.9435
 30
0.0
 10
130.1316
 20
-93.7131
 30
0.0
 10
130.1316
 20
-93.7131
 30
0.0
 10
130.5099
 20
-93.6059
 30
0.0
 10
130.8105
 20
-93.318
 30
0.0
 10
130.9338
 20
-92.9441
 30
0.0
 10
130.9338
 20
-92.9441
 30
0.0
 10
131.0572
 20
-92.5704
 30
0.0
 10
130.987
 20
-92.16
 30
0.0
 10
130.7472
 20
-91.8486
 30
0.0
 10
130.7472
 20
-91.8486
 30
0.0
 10
129.7389
 20
-90.6124
 30
0.0
 10
128.3302
 20
-89.7672
 30
0.0
 10
126.7651
 20
-89.4591
 30
0.0
 10
126.7651
 20
-89.4591
 30
0.0
 10
120.8967
 20
-88.9063
 30
0.0
 10
115.1597
 20
-91.4257
 30
0.0
 10
111.5959
 20
-96.1206
 30
0.0
 10
111.5959
 20
-96.1206
 30
0.0
 10
115.1531
 20
-94.9779
 30
0.0
 10
119.028
 20
-96.4467
 30
0.0
 10
120.9333
 20
-99.6604
 30
0.0
 10
120.9333
 20
-99.6604
 30
0.0
 10
122.8391
 20
-102.874
 30
0.0
 10
122.2697
 20
-106.9787
 30
0.0
 10
119.5607
 20
-109.5516
 30
0.0
 10
119.5607
 20
-109.5516
 30
0.0
 10
119.4454
 20
-109.6896
 30
0.0
 10
119.3245
 20
-109.8225
 30
0.0
 10
119.1975
 20
-109.95
 30
0.0
  0
SPLINE
  5
64
330
1F
100
AcDbEntity
  8
layer 1
 62
     7
370
     9
100
AcDbSpline
210
0.0
220
0.0
230
1.0
 70
    11
 71
     3
 72
    32
 73
    28
 74
     0
 42
0.0000000001
 43
0.0000000001
 12
1.0
 22
0.0
 32
0.0
 13
1.0
 23
0.0
 33
0.0
 40
0.0
 40
0.0
 40
0.0
 40
0.0
 40
0.125
 40
0.125
 40
0.125
 40
0.125
 40
0.25
 40
0.25
 40
0.25
 40
0.25
 40
0.375
 40
0.375
 40
0.375
 40
0.375
 40
0.5
 40
0.5
 40
0.5
 40
0.5
 40
0.625
 40
0.625
 40
0.625
 40
0.625
 40
0.75
 40
0.75
 40
0.75
 40
0.75
 40
1.0
 40
1.0
 40
1.0
 40
1.0
 10
83.0685
 20
-19.625
 30
0.0
 10
82.9234
 20
-20.2075
 30
0.0
 10
82.9234
 20
-20.8165
 30
0.0
 10
83.0685
 20
-21.3989
 30
0.0
 10
83.0685
 20
-21.3989
 30
0.0
 10
82.1163
 20
-21.096
 30
0.0
 10
81.2976
 20
-20.4728
 30
0.0
 10
80.7518
 20
-19.6355
 30
0.0
 10
80.7518
 20
-19.6355
 30
0.0
 10
80.7518
 20
-19.6355
 30
0.0
 10
80.7518
 20
-35.8296
 30
0.0
 10
80.7518
 20
-35.8296
 30
0.0
 10
80.7518
 20
-35.8296
 30
0.0
 10
82.4594
 20
-30.9691
 30
0.0
 10
86.7852
 20
-27.5051
 30
0.0
 10
91.9023
 20
-26.9017
 30
0.0
 10
91.9023
 20
-26.9017
 30
0.0
 10
89.7224
 20
-24.5996
 30
0.0
 10
88.0129
 20
-21.894
 30
0.0
 10
86.8696
 20
-18.9373
 30
0.0
 10
86.8696
 20
-18.9373
 30
0.0
 10
86.4621
 20
-18.1491
 30
0.0
 10
85.5883
 20
-17.7192
 30
0.0
 10
84.7149
 20
-17.8768
 30
0.0
 10
84.7149
 20
-17.8768
 30
0.0
 10
83.8421
 20
-18.0348
 30
0.0
 10
83.1743
 20
-18.7441
 30
0.0
 10
83.0685
 20
-19.625
 30
0.0
  0
SPLINE
  5
65
330
1F
100
AcDbEntity
  8
layer 1
 62
     7
370
     9
100
AcDbSpline
210
0.0
220
0.0
230
1.0
 70
    11
 71
     3
 72
    64
 73
    60
 74
     0
 42
0.0000000001
 43
0.0000000001
 12
1.0
 22
0.0
 32
0.0
 13
1.0
 23
0.0
 33
0.0
 40
0.0
 40
0.0
 40
0.0
 40
0.0
 40
0.0625
 40
0.0625
 40
0.0625
 40
0.0625
 40
0.125
 40
0.125
 40
0.125
 40
0.125
 40
0.1875
 40
0.1875
 40
0.1875
 40
0.1875
 40
0.25
 40
0.25
 40
0.25
 40
0.25
 40
0.3125
 40
0.3125
 40
0.3125
 40
0.3125
 40
0.375
 40
0.375
 40
0.375
 40
0.375
 40
0.4375
 40
0.4375
 40
0.4375
 40
0.4375
 40
0.5
 40
0.5
 40
0.5
 40
0.5
 40
0.5625
 40
0.5625
 40
0.5625
 40
0.5625
 40
0.625
 40
0.625
 40
0.625
 40
0.625
 40
0.6875
 40
0.6875
 40
0.6875
 40
0.6875
 40
0.75
 40
0.75
 40
0.75
 40
0.75
 40
0.8125
 40
0.8125
 40
0.8125
 40
0.8125
 40
0.875
 40
0.875
 40
0.875
 40
0.875
 40
1.0
 40
1.0
 40
1.0
 40
1.0
 10
83.0324
 20
-13.1446
 30
0.0
 10
82.0952
 20
-13.4521
 30
0.0
 10
81.2907
 20
-14.0702
 30
0.0
 10
80.7518
 20
-14.8964
 30
0.0
 10
80.7518
 20
-14.8964
 30
0.0
 10
80.7518
 20
-14.8964
 30
0.0
 10
80.7518
 20
-5.415
 30
0.0
 10
80.7518
 20
-5.415
 30
0.0
 10
80.7518
 20
-5.415
 30
0.0
 10
81.5564
 20
-6.9346
 30
0.0
 10
83.0213
 20
-7.9935
 30
0.0
 10
84.7165
 20
-8.2805
 30
0.0
 10
84.7165
 20
-8.2805
 30
0.0
 10
86.4115
 20
-8.5679
 30
0.0
 10
88.1438
 20
-8.0507
 30
0.0
 10
89.4039
 20
-6.8818
 30
0.0
 10
89.4039
 20
-6.8818
 30
0.0
 10
90.8167
 20
-5.2214
 30
0.0
 10
90.9495
 20
-2.8235
 30
0.0
 10
89.73
 20
-1.0169
 30
0.0
 10
89.73
 20
-1.0169
 30
0.0
 10
89.1637
 20
-0.5569
 30
0.0
 10
88.386
 20
-0.4551
 30
0.0
 10
87.7204
 20
-0.7536
 30
0.0
 10
87.7204
 20
-0.7536
 30
0.0
 10
87.0547
 20
-1.052
 30
0.0
 10
86.6137
 20
-1.6998
 30
0.0
 10
86.58
 20
-2.4286
 30
0.0
 10
86.58
 20
-2.4286
 30
0.0
 10
87.0492
 20
-2.9493
 30
0.0
 10
87.0547
 20
-3.7384
 30
0.0
 10
86.5927
 20
-4.2653
 30
0.0
 10
86.5927
 20
-4.2653
 30
0.0
 10
86.1307
 20
-4.792
 30
0.0
 10
85.3476
 20
-4.8898
 30
0.0
 10
84.7701
 20
-4.4925
 30
0.0
 10
84.7701
 20
-4.4925
 30
0.0
 10
82.901
 20
-3.2073
 30
0.0
 10
82.333
 20
-0.7009
 30
0.0
 10
83.4668
 20
1.2642
 30
0.0
 10
83.4668
 20
1.2642
 30
0.0
 10
84.3206
 20
2.5327
 30
0.0
 10
85.6997
 20
3.3506
 30
0.0
 10
87.2228
 20
3.4909
 30
0.0
 10
87.2228
 20
3.4909
 30
0.0
 10
88.7458
 20
3.6314
 30
0.0
 10
90.2513
 20
3.0797
 30
0.0
 10
91.3228
 20
1.988
 30
0.0
 10
91.3228
 20
1.988
 30
0.0
 10
93.0887
 20
-0.3888
 30
0.0
 10
93.512
 20
-3.5046
 30
0.0
 10
92.445
 20
-6.2663
 30
0.0
 10
92.445
 20
-6.2663
 30
0.0
 10
90.8171
 20
-9.0545
 30
0.0
 10
89.8976
 20
-12.1995
 30
0.0
 10
89.7661
 20
-15.4256
 30
0.0
 10
89.7661
 20
-15.4256
 30
0.0
 10
88.3469
 20
-13.1642
 30
0.0
 10
85.5337
 20
-12.211
 30
0.0
 10
83.0324
 20
-13.1446
 30
0.0
  0
SPLINE
  5
66
330
1F
100
AcDbEntity
  8
layer 1
 62
     7
370
     9
100
AcDbSpline
210
0.0
220
0.0
230
1.0
 70
    11
 71
     3
 72
    16
 73
    12
 74
     0
 42
0.0000000001
 43
0.0000000001
 12
1.0
 22
0.0
 32
0.0
 13
1.0
 23
0.0
 33
0.0
 40
0.0
 40
0.0
 40
0.0
 40
0.0
 40
0.25
 40
0.25
 40
0.25
 40
0.25
 40
0.5
 40
0.5
 40
0.5
 40
0.5
 40
1.0
 40
1.0
 40
1.0
 40
1.0
 10
87.6301
 20
-52.4602
 30
0.0
 10
84.4245
 20
-53.5915
 30
0.0
 10
81.8986
 20
-56.1048
 30
0.0
 10
80.7518
 20
-59.3049
 30
0.0
 10
80.7518
 20
-59.3049
 30
0.0
 10
80.7518
 20
-59.3049
 30
0.0
 10
80.7518
 20
-44.7747
 30
0.0
 10
80.7518
 20
-44.7747
 30
0.0
 10
80.7518
 20
-44.7747
 30
0.0
 10
81.9363
 20
-48.1464
 30
0.0
 10
84.4099
 20
-50.9105
 30
0.0
 10
87.6301
 20
-52.4602
 30
0.0
  0
SPLINE
  5
67
330
1F
100
AcDbEntity
  8
layer 1
 62
     7
370
     9
100
AcDbSpline
210
0.0
220
0.0
230
1.0
 70
    11
 71
     3
 72
    16
 73
    12
 74
     0
 42
0.0000000001
 43
0.0000000001
 12
1.0
 22
0.0
 32
0.0
 13
1.0
 23
0.0
 33
0.0
 40
0.0
 40
0.0
 40
0.0
 40
0.0
 40
0.25
 40
0.25
 40
0.25
 40
0.25
 40
0.5
 40
0.5
 40
0.5
 40
0.5
 40
1.0
 40
1.0
 40
1.0
 40
1.0
 10
87.5578
 20
-73.7476
 30
0.0
 10
84.7089
 20
-75.7502
 30
0.0
 10
82.3762
 20
-78.401
 30
0.0
 10
80.7518
 20
-81.4817
 30
0.0
 10
80.7518
 20
-81.4817
 30
0.0
 10
80.7518
 20
-81.4817
 30
0.0
 10
80.7518
 20
-66.9291
 30
0.0
 10
80.7518
 20
-66.9291
 30
0.0
 10
80.7518
 20
-66.9291
 30
0.0
 10
81.889
 20
-70.1036
 30
0.0
 10
84.3853
 20
-72.6038
 30
0.0
 10
87.5578
 20
-73.7476
 30
0.0
  0
SPLINE
  5
68
330
1F
100
AcDbEntity
  8
layer 1
 62
     7
370
     9
100
AcDbSpline
210
0.0
220
0.0
230
1.0
 70
    11
 71
     3
 72
   140
 73
   136
 74
     0
 42
0.0000000001
 43
0.0000000001
 12
1.0
 22
0.0
 32
0.0
 13
1.0
 23
0.0
 33
0.0
 40
0.0
 40
0.0
 40
0.0
 40
0.0
 40
0.0285714285714286
 40
0.0285714285714286
 40
0.0285714285714286
 40
0.0285714285714286
 40
0.0571428571428571
 40
0.0571428571428571
 40
0.0571428571428571
 40
0.0571428571428571
 40
0.0857142857142857
 40
0.0857142857142857
 40
0.0857142857142857
 40
0.0857142857142857
 40
0.1142857142857143
 40
0.1142857142857143
 40
0.1142857142857143
 40
0.1142857142857143
 40
0.1428571428571428
 40
0.1428571428571428
 40
0.1428571428571428
 40
0.1428571428571428
 40
0.1714285714285714
 40
0.1714285714285714
 40
0.1714285714285714
 40
0.1714285714285714
 40
0.2
 40
0.2
 40
0.2
 40
0.2
 40
0.2285714285714286
 40
0.2285714285714286
 40
0.2285714285714286
 40
0.2285714285714286
 40
0.2571428571428571
 40
0.2571428571428571
 40
0.2571428571428571
 40
0.2571428571428571
 40
0.2857142857142857
 40
0.2857142857142857
 40
0.2857142857142857
 40
0.2857142857142857
 40
0.3142857142857143
 40
0.3142857142857143
 40
0.3142857142857143
 40
0.3142857142857143
 40
0.3428571428571429
 40
0.3428571428571429
 40
0.3428571428571429
 40
0.3428571428571429
 40
0.3714285714285714
 40
0.3714285714285714
 40
0.3714285714285714
 40
0.3714285714285714
 40
0.4
 40
0.4
 40
0.4
 40
0.4
 40
0.4285714285714285
 40
0.4285714285714285
 40
0.4285714285714285
 40
0.4285714285714285
 40
0.4571428571428571
 40
0.4571428571428571
 40
0.4571428571428571
 40
0.4571428571428571
 40
0.4857142857142857
 40
0.4857142857142857
 40
0.4857142857142857
 40
0.4857142857142857
 40
0.5142857142857142
 40
0.5142857142857142
 40
0.5142857142857142
 40
0.5142857142857142
 40
0.5428571428571428
 40
0.5428571428571428
 40
0.5428571428571428
 40
0.5428571428571428
 40
0.5714285714285714
 40
0.5714285714285714
 40
0.5714285714285714
 40
0.5714285714285714
 40
0.6
 40
0.6
 40
0.6
 40
0.6
 40
0.6285714285714286
 40
0.6285714285714286
 40
0.6285714285714286
 40
0.6285714285714286
 40
0.6571428571428571
 40
0.6571428571428571
 40
0.6571428571428571
 40
0.6571428571428571
 40
0.6857142857142857
 40
0.6857142857142857
 40
0.6857142857142857
 40
0.6857142857142857
 40
0.7142857142857143
 40
0.7142857142857143
 40
0.7142857142857143
 40
0.7142857142857143
 40
0.7428571428571429
 40
0.7428571428571429
 40
0.7428571428571429
 40
0.7428571428571429
 40
0.7714285714285715
 40
0.7714285714285715
 40
0.7714285714285715
 40
0.7714285714285715
 40
0.8
 40
0.8
 40
0.8
 40
0.8
 40
0.8285714285714286
 40
0.8285714285714286
 40
0.8285714285714286
 40
0.8285714285714286
 40
0.8571428571428571
 40
0.8571428571428571
 40
0.8571428571428571
 40
0.8571428571428571
 40
0.8857142857142857
 40
0.8857142857142857
 40
0.8857142857142857
 40
0.8857142857142857
 40
0.9142857142857143
 40
0.9142857142857143
 40
0.9142857142857143
 40
0.9142857142857143
 40
0.9428571428571428
 40
0.9428571428571428
 40
0.9428571428571428
 40
0.9428571428571428
 40
1.0
 40
1.0
 40
1.0
 40
1.0
 10
112.8897
 20
8.1183
 30
0.0
 10
115.0618
 20
4.869
 30
0.0
 10
118.7686
 20
2.9852
 30
0.0
 10
122.6741
 20
3.1464
 30
0.0
 10
122.6741
 20
3.1464
 30
0.0
 10
119.6546
 20
0.4584
 30
0.0
 10
118.0282
 20
-3.4611
 30
0.0
 10
118.2574
 20
-7.497
 30
0.0
 10
118.2574
 20
-7.497
 30
0.0
 10
120.2224
 20
-7.809
 30
0.0
 10
122.2226
 20
-7.8336
 30
0.0
 10
124.1945
 20
-7.5696
 30
0.0
 10
124.1945
 20
-7.5696
 30
0.0
 10
120.8695
 20
-10.7646
 30
0.0
 10
118.6502
 20
-14.937
 30
0.0
 10
117.8591
 20
-19.4801
 30
0.0
 10
117.8591
 20
-19.4801
 30
0.0
 10
117.6053
 20
-20.5572
 30
0.0
 10
117.2286
 20
-21.6021
 30
0.0
 10
116.7369
 20
-22.5934
 30
0.0
 10
116.7369
 20
-22.5934
 30
0.0
 10
116.4118
 20
-23.1362
 30
0.0
 10
115.7537
 20
-23.38
 30
0.0
 10
115.1537
 20
-23.1802
 30
0.0
 10
115.1537
 20
-23.1802
 30
0.0
 10
114.5536
 20
-22.9802
 30
0.0
 10
114.1734
 20
-22.3902
 30
0.0
 10
114.2386
 20
-21.7611
 30
0.0
 10
114.2386
 20
-21.7611
 30
0.0
 10
114.2597
 20
-20.967
 30
0.0
 10
114.4187
 20
-20.1829
 30
0.0
 10
114.7097
 20
-19.444
 30
0.0
 10
114.7097
 20
-19.444
 30
0.0
 10
117.1989
 20
-13.115
 30
0.0
 10
114.5532
 20
-5.9242
 30
0.0
 10
108.5548
 20
-2.7185
 30
0.0
 10
108.5548
 20
-2.7185
 30
0.0
 10
110.7902
 20
-1.5964
 30
0.0
 10
112.1733
 20
0.7188
 30
0.0
 10
112.103
 20
3.2186
 30
0.0
 10
112.103
 20
3.2186
 30
0.0
 10
111.9937
 20
4.5008
 30
0.0
 10
111.2086
 20
5.6275
 30
0.0
 10
110.0432
 20
6.1729
 30
0.0
 10
110.0432
 20
6.1729
 30
0.0
 10
108.8774
 20
6.7182
 30
0.0
 10
107.5093
 20
6.5997
 30
0.0
 10
106.4553
 20
5.8613
 30
0.0
 10
106.4553
 20
5.8613
 30
0.0
 10
107.2029
 20
5.0958
 30
0.0
 10
107.5771
 20
4.0408
 30
0.0
 10
107.4793
 20
2.9753
 30
0.0
 10
107.4793
 20
2.9753
 30
0.0
 10
107.3819
 20
1.9098
 30
0.0
 10
106.8226
 20
0.9401
 30
0.0
 10
105.9486
 20
0.3225
 30
0.0
 10
105.9486
 20
0.3225
 30
0.0
 10
103.2492
 20
-1.3672
 30
0.0
 10
100.1524
 20
-2.3158
 30
0.0
 10
96.9705
 20
-2.4286
 30
0.0
 10
96.9705
 20
-2.4286
 30
0.0
 10
97.1847
 20
2.4124
 30
0.0
 10
94.0343
 20
6.7633
 30
0.0
 10
89.3678
 20
8.0696
 30
0.0
 10
89.3678
 20
8.0696
 30
0.0
 10
89.3678
 20
8.0696
 30
0.0
 10
89.1957
 20
8.1152
 30
0.0
 10
89.1957
 20
8.1152
 30
0.0
 10
89.1957
 20
8.1152
 30
0.0
 10
89.1957
 20
8.1152
 30
0.0
 10
89.3678
 20
8.1664
 30
0.0
 10
89.3678
 20
8.1664
 30
0.0
 10
89.3678
 20
8.1664
 30
0.0
 10
94.0343
 20
9.4732
 30
0.0
 10
97.1847
 20
13.8237
 30
0.0
 10
96.9705
 20
18.6652
 30
0.0
 10
96.9705
 20
18.6652
 30
0.0
 10
100.1524
 20
18.5523
 30
0.0
 10
103.2492
 20
17.6031
 30
0.0
 10
105.9486
 20
15.9136
 30
0.0
 10
105.9486
 20
15.9136
 30
0.0
 10
106.8226
 20
15.296
 30
0.0
 10
107.3819
 20
14.3268
 30
0.0
 10
107.4793
 20
13.2612
 30
0.0
 10
107.4793
 20
13.2612
 30
0.0
 10
107.5771
 20
12.1957
 30
0.0
 10
107.2029
 20
11.1407
 30
0.0
 10
106.4553
 20
10.3748
 30
0.0
 10
106.4553
 20
10.3748
 30
0.0
 10
107.5093
 20
9.6368
 30
0.0
 10
108.8774
 20
9.5179
 30
0.0
 10
110.0432
 20
10.0637
 30
0.0
 10
110.0432
 20
10.0637
 30
0.0
 10
111.2086
 20
10.609
 30
0.0
 10
111.9937
 20
11.7353
 30
0.0
 10
112.103
 20
13.0175
 30
0.0
 10
112.103
 20
13.0175
 30
0.0
 10
112.1733
 20
15.5177
 30
0.0
 10
110.7902
 20
17.8324
 30
0.0
 10
108.5548
 20
18.9546
 30
0.0
 10
108.5548
 20
18.9546
 30
0.0
 10
114.5532
 20
22.1607
 30
0.0
 10
117.1989
 20
29.3511
 30
0.0
 10
114.7097
 20
35.6805
 30
0.0
 10
114.7097
 20
35.6805
 30
0.0
 10
114.4187
 20
36.4194
 30
0.0
 10
114.2597
 20
37.2035
 30
0.0
 10
114.2386
 20
37.9971
 30
0.0
 10
114.2386
 20
37.9971
 30
0.0
 10
114.1734
 20
38.6263
 30
0.0
 10
114.5536
 20
39.2163
 30
0.0
 10
115.1537
 20
39.4163
 30
0.0
 10
115.1537
 20
39.4163
 30
0.0
 10
115.7537
 20
39.6166
 30
0.0
 10
116.4118
 20
39.3722
 30
0.0
 10
116.7369
 20
38.8299
 30
0.0
 10
116.7369
 20
38.8299
 30
0.0
 10
117.2286
 20
37.8382
 30
0.0
 10
117.6053
 20
36.7937
 30
0.0
 10
117.8591
 20
35.7166
 30
0.0
 10
117.8591
 20
35.7166
 30
0.0
 10
118.6502
 20
31.1735
 30
0.0
 10
120.8695
 20
27.0013
 30
0.0
 10
124.1945
 20
23.8057
 30
0.0
 10
124.1945
 20
23.8057
 30
0.0
 10
122.2226
 20
24.0701
 30
0.0
 10
120.2224
 20
24.0455
 30
0.0
 10
118.2574
 20
23.7335
 30
0.0
 10
118.2574
 20
23.7335
 30
0.0
 10
118.0282
 20
19.6976
 30
0.0
 10
119.6546
 20
15.7777
 30
0.0
 10
122.6741
 20
13.0897
 30
0.0
 10
122.6741
 20
13.0897
 30
0.0
 10
118.7686
 20
13.2513
 30
0.0
 10
115.0618
 20
11.3675
 30
0.0
 10
112.8897
 20
8.1183
 30
0.0
  0
SPLINE
  5
69
330
1F
100
AcDbEntity
  8
layer 1
 62
     7
370
     9
100
AcDbSpline
210
0.0
220
0.0
230
1.0
 70
    11
 71
     3
 72
    20
 73
    16
 74
     0
 42
0.0000000001
 43
0.0000000001
 12
1.0
 22
0.0
 32
0.0
 13
1.0
 23
0.0
 33
0.0
 40
0.0
 40
0.0
 40
0.0
 40
0.0
 40
0.2
 40
0.2
 40
0.2
 40
0.2
 40
0.4
 40
0.4
 40
0.4
 40
0.4
 40
0.6
 40
0.6
 40
0.6
 40
0.6
 40
1.0
 40
1.0
 40
1.0
 40
1.0
 10
128.9006
 20
8.1183
 30
0.0
 10
127.8944
 20
7.3422
 30
0.0
 10
127.0148
 20
6.4136
 30
0.0
 10
126.294
 20
5.3667
 30
0.0
 10
126.294
 20
5.3667
 30
0.0
 10
123.0137
 20
5.0873
 30
0.0
 10
119.7504
 20
6.072
 30
0.0
 10
117.1713
 20
8.1183
 30
0.0
 10
117.1713
 20
8.1183
 30
0.0
 10
119.7504
 20
10.1645
 30
0.0
 10
123.0137
 20
11.1488
 30
0.0
 10
126.294
 20
10.8694
 30
0.0
 10
126.294
 20
10.8694
 30
0.0
 10
127.0148
 20
9.8229
 30
0.0
 10
127.8944
 20
8.8943
 30
0.0
 10
128.9006
 20
8.1183
 30
0.0
  0
SPLINE
  5
6A
330
1F
100
AcDbEntity
  8
layer 1
 62
     7
370
     9
100
AcDbSpline
210
0.0
220
0.0
230
1.0
 70
    11
 71
     3
 72
    20
 73
    16
 74
     0
 42
0.0000000001
 43
0.0000000001
 12
1.0
 22
0.0
 32
0.0
 13
1.0
 23
0.0
 33
0.0
 40
0.0
 40
0.0
 40
0.0
 40
0.0
 40
0.2
 40
0.2
 40
0.2
 40
0.2
 40
0.4
 40
0.4
 40
0.4
 40
0.4
 40
0.6
 40
0.6
 40
0.6
 40
0.6
 40
1.0
 40
1.0
 40
1.0
 40
1.0
 10
122.9153
 20
-4.4804
 30
0.0
 10
126.0703
 20
-4.2341
 30
0.0
 10
129.009
 20
-2.7818
 30
0.0
 10
131.1215
 20
-0.4255
 30
0.0
 10
131.1215
 20
-0.4255
 30
0.0
 10
130.8973
 20
0.8337
 30
0.0
 10
130.8727
 20
2.1204
 30
0.0
 10
131.0487
 20
3.3877
 30
0.0
 10
131.0487
 20
3.3877
 30
0.0
 10
129.7053
 20
3.3289
 30
0.0
 10
128.3598
 20
3.345
 30
0.0
 10
127.0184
 20
3.4357
 30
0.0
 10
127.0184
 20
3.4357
 30
0.0
 10
124.6932
 20
1.4156
 30
0.0
 10
123.2259
 20
-1.4152
 30
0.0
 10
122.9153
 20
-4.4804
 30
0.0
  0
SPLINE
  5
6B
330
1F
100
AcDbEntity
  8
layer 1
 62
     7
370
     9
100
AcDbSpline
210
0.0
220
0.0
230
1.0
 70
    11
 71
     3
 72
    16
 73
    12
 74
     0
 42
0.0000000001
 43
0.0000000001
 12
1.0
 22
0.0
 32
0.0
 13
1.0
 23
0.0
 33
0.0
 40
0.0
 40
0.0
 40
0.0
 40
0.0
 40
0.25
 40
0.25
 40
0.25
 40
0.25
 40
0.5
 40
0.5
 40
0.5
 40
0.5
 40
1.0
 40
1.0
 40
1.0
 40
1.0
 10
133.7416
 20
1.8224
 30
0.0
 10
133.5084
 20
3.0114
 30
0.0
 10
133.6789
 20
4.244
 30
0.0
 10
134.2258
 20
5.325
 30
0.0
 10
134.2258
 20
5.325
 30
0.0
 10
134.7003
 20
4.9799
 30
0.0
 10
135.2677
 20
4.7561
 30
0.0
 10
135.8832
 20
4.6969
 30
0.0
 10
135.8832
 20
4.6969
 30
0.0
 10
135.6676
 20
3.4524
 30
0.0
 10
134.8724
 20
2.3849
 30
0.0
 10
133.7416
 20
1.8224
 30
0.0
  0
SPLINE
  5
6C
330
1F
100
AcDbEntity
  8
layer 1
 62
     7
370
     9
100
AcDbSpline
210
0.0
220
0.0
230
1.0
 70
    11
 71
     3
 72
    16
 73
    12
 74
     0
 42
0.0000000001
 43
0.0000000001
 12
1.0
 22
0.0
 32
0.0
 13
1.0
 23
0.0
 33
0.0
 40
0.0
 40
0.0
 40
0.0
 40
0.0
 40
0.25
 40
0.25
 40
0.25
 40
0.25
 40
0.5
 40
0.5
 40
0.5
 40
0.5
 40
1.0
 40
1.0
 40
1.0
 40
1.0
 10
130.0179
 20
5.5046
 30
0.0
 10
130.6183
 20
6.5811
 30
0.0
 10
131.6512
 20
7.3482
 30
0.0
 10
132.8553
 20
7.6127
 30
0.0
 10
132.8553
 20
7.6127
 30
0.0
 10
132.94
 20
6.978
 30
0.0
 10
133.2018
 20
6.3985
 30
0.0
 10
133.5886
 20
5.9266
 30
0.0
 10
133.5886
 20
5.9266
 30
0.0
 10
132.474
 20
5.4072
 30
0.0
 10
131.2223
 20
5.2598
 30
0.0
 10
130.0179
 20
5.5046
 30
0.0
  0
SPLINE
  5
6D
330
1F
100
AcDbEntity
  8
layer 1
 62
     7
370
     9
100
AcDbSpline
210
0.0
220
0.0
230
1.0
 70
    27
 71
     3
 72
     8
 73
     4
 74
     0
 42
0.0000000001
 43
0.0000000001
 12
1.0
 22
0.0
 32
0.0
 13
1.0
 23
0.0
 33
0.0
 40
0.0
 40
0.0
 40
0.0
 40
0.0
 40
1.0
 40
1.0
 40
1.0
 40
1.0
 10
132.8241
 20
8.0696
 30
0.0
 10
132.8241
 20
8.0731
 30
0.0
 10
132.8241
 20
8.0717
 30
0.0
 10
132.8241
 20
8.0696
 30
0.0
  0
SPLINE
  5
6E
330
1F
100
AcDbEntity
  8
layer 1
 62
     7
370
     9
100
AcDbSpline
210
0.0
220
0.0
230
1.0
 70
    11
 71
     3
 72
    20
 73
    16
 74
     0
 42
0.0000000001
 43
0.0000000001
 12
1.0
 22
0.0
 32
0.0
 13
1.0
 23
0.0
 33
0.0
 40
0.0
 40
0.0
 40
0.0
 40
0.0
 40
0.2
 40
0.2
 40
0.2
 40
0.2
 40
0.4
 40
0.4
 40
0.4
 40
0.4
 40
0.6
 40
0.6
 40
0.6
 40
0.6
 40
1.0
 40
1.0
 40
1.0
 40
1.0
 10
124.5567
 20
-23.981
 30
0.0
 10
127.9114
 20
-19.8011
 30
0.0
 10
130.4664
 20
-15.0384
 30
0.0
 10
132.0932
 20
-9.9319
 30
0.0
 10
132.0932
 20
-9.9319
 30
0.0
 10
131.2148
 20
-8.2459
 30
0.0
 10
130.4859
 20
-6.4866
 30
0.0
 10
129.9145
 20
-4.6735
 30
0.0
 10
129.9145
 20
-4.6735
 30
0.0
 10
129.9145
 20
-4.6735
 30
0.0
 10
129.8177
 20
-4.3354
 30
0.0
 10
129.8177
 20
-4.3354
 30
0.0
 10
129.8177
 20
-4.3354
 30
0.0
 10
126.272
 20
-10.2675
 30
0.0
 10
124.4499
 20
-17.0706
 30
0.0
 10
124.5567
 20
-23.981
 30
0.0
  0
SPLINE
  5
6F
330
1F
100
AcDbEntity
  8
layer 1
 62
     7
370
     9
100
AcDbSpline
210
0.0
220
0.0
230
1.0
 70
    11
 71
     3
 72
    24
 73
    20
 74
     0
 42
0.0000000001
 43
0.0000000001
 12
1.0
 22
0.0
 32
0.0
 13
1.0
 23
0.0
 33
0.0
 40
0.0
 40
0.0
 40
0.0
 40
0.0
 40
0.1666666666666667
 40
0.1666666666666667
 40
0.1666666666666667
 40
0.1666666666666667
 40
0.3333333333333333
 40
0.3333333333333333
 40
0.3333333333333333
 40
0.3333333333333333
 40
0.5
 40
0.5
 40
0.5
 40
0.5
 40
0.6666666666666666
 40
0.6666666666666666
 40
0.6666666666666666
 40
0.6666666666666666
 40
1.0
 40
1.0
 40
1.0
 40
1.0
 10
135.5617
 20
-38.4137
 30
0.0
 10
132.948
 20
-36.5867
 30
0.0
 10
130.6905
 20
-34.2961
 30
0.0
 10
128.9006
 20
-31.6564
 30
0.0
 10
128.9006
 20
-31.6564
 30
0.0
 10
130.9665
 20
-27.6797
 30
0.0
 10
132.8352
 20
-23.6041
 30
0.0
 10
134.5001
 20
-19.444
 30
0.0
 10
134.5001
 20
-19.444
 30
0.0
 10
135.5356
 20
-23.9544
 30
0.0
 10
134.1024
 20
-28.675
 30
0.0
 10
130.7352
 20
-31.8489
 30
0.0
 10
130.7352
 20
-31.8489
 30
0.0
 10
130.7352
 20
-31.8489
 30
0.0
 10
134.5965
 20
-31.8489
 30
0.0
 10
134.5965
 20
-31.8489
 30
0.0
 10
134.5965
 20
-31.8489
 30
0.0
 10
134.2252
 20
-34.0844
 30
0.0
 10
134.5628
 20
-36.3799
 30
0.0
 10
135.5617
 20
-38.4137
 30
0.0
  0
SPLINE
  5
70
330
1F
100
AcDbEntity
  8
layer 1
 62
     7
370
     9
100
AcDbSpline
210
0.0
220
0.0
230
1.0
 70
    11
 71
     3
 72
    16
 73
    12
 74
     0
 42
0.0000000001
 43
0.0000000001
 12
1.0
 22
0.0
 32
0.0
 13
1.0
 23
0.0
 33
0.0
 40
0.0
 40
0.0
 40
0.0
 40
0.0
 40
0.25
 40
0.25
 40
0.25
 40
0.25
 40
0.5
 40
0.5
 40
0.5
 40
0.5
 40
1.0
 40
1.0
 40
1.0
 40
1.0
 10
126.7771
 20
-28.8085
 30
0.0
 10
126.2168
 20
-28.4452
 30
0.0
 10
125.7401
 20
-27.9686
 30
0.0
 10
125.377
 20
-27.4084
 30
0.0
 10
125.377
 20
-27.4084
 30
0.0
 10
127.2923
 20
-24.9878
 30
0.0
 10
129.2553
 20
-22.6064
 30
0.0
 10
131.266
 20
-20.2647
 30
0.0
 10
131.266
 20
-20.2647
 30
0.0
 10
129.8814
 20
-23.1697
 30
0.0
 10
128.3834
 20
-26.0197
 30
0.0
 10
126.7771
 20
-28.8085
 30
0.0
  0
SPLINE
  5
71
330
1F
100
AcDbEntity
  8
layer 1
 62
     7
370
     9
100
AcDbSpline
210
0.0
220
0.0
230
1.0
 70
    11
 71
     3
 72
    16
 73
    12
 74
     0
 42
0.0000000001
 43
0.0000000001
 12
1.0
 22
0.0
 32
0.0
 13
1.0
 23
0.0
 33
0.0
 40
0.0
 40
0.0
 40
0.0
 40
0.0
 40
0.25
 40
0.25
 40
0.25
 40
0.25
 40
0.5
 40
0.5
 40
0.5
 40
0.5
 40
1.0
 40
1.0
 40
1.0
 40
1.0
 10
135.031
 20
-80.3124
 30
0.0
 10
133.7271
 20
-77.3756
 30
0.0
 10
131.6603
 20
-74.8423
 30
0.0
 10
129.0456
 20
-72.9751
 30
0.0
 10
129.0456
 20
-72.9751
 30
0.0
 10
130.9098
 20
-72.6576
 30
0.0
 10
132.761
 20
-72.2708
 30
0.0
 10
134.5965
 20
-71.8167
 30
0.0
 10
134.5965
 20
-71.8167
 30
0.0
 10
134.9036
 20
-74.6381
 30
0.0
 10
135.0485
 20
-77.4744
 30
0.0
 10
135.031
 20
-80.3124
 30
0.0
  0
SPLINE
  5
72
330
1F
100
AcDbEntity
  8
layer 1
 62
     7
370
     9
100
AcDbSpline
210
0.0
220
0.0
230
1.0
 70
    11
 71
     3
 72
    56
 73
    52
 74
     0
 42
0.0000000001
 43
0.0000000001
 12
1.0
 22
0.0
 32
0.0
 13
1.0
 23
0.0
 33
0.0
 40
0.0
 40
0.0
 40
0.0
 40
0.0
 40
0.0714285714285714
 40
0.0714285714285714
 40
0.0714285714285714
 40
0.0714285714285714
 40
0.1428571428571428
 40
0.1428571428571428
 40
0.1428571428571428
 40
0.1428571428571428
 40
0.2142857142857143
 40
0.2142857142857143
 40
0.2142857142857143
 40
0.2142857142857143
 40
0.2857142857142857
 40
0.2857142857142857
 40
0.2857142857142857
 40
0.2857142857142857
 40
0.3571428571428572
 40
0.3571428571428572
 40
0.3571428571428572
 40
0.3571428571428572
 40
0.4285714285714285
 40
0.4285714285714285
 40
0.4285714285714285
 40
0.4285714285714285
 40
0.5
 40
0.5
 40
0.5
 40
0.5
 40
0.5714285714285714
 40
0.5714285714285714
 40
0.5714285714285714
 40
0.5714285714285714
 40
0.6428571428571429
 40
0.6428571428571429
 40
0.6428571428571429
 40
0.6428571428571429
 40
0.7142857142857143
 40
0.7142857142857143
 40
0.7142857142857143
 40
0.7142857142857143
 40
0.7857142857142857
 40
0.7857142857142857
 40
0.7857142857142857
 40
0.7857142857142857
 40
0.8571428571428571
 40
0.8571428571428571
 40
0.8571428571428571
 40
0.8571428571428571
 40
1.0
 40
1.0
 40
1.0
 40
1.0
 10
120.1156
 20
-84.9462
 30
0.0
 10
120.7145
 20
-82.9134
 30
0.0
 10
120.2495
 20
-80.7157
 30
0.0
 10
118.8774
 20
-79.1008
 30
0.0
 10
118.8774
 20
-79.1008
 30
0.0
 10
117.5055
 20
-77.486
 30
0.0
 10
115.4119
 20
-76.6708
 30
0.0
 10
113.3096
 20
-76.9332
 30
0.0
 10
113.3096
 20
-76.9332
 30
0.0
 10
112.0288
 20
-77.1313
 30
0.0
 10
110.9267
 20
-77.9446
 30
0.0
 10
110.3588
 20
-79.1089
 30
0.0
 10
110.3588
 20
-79.1089
 30
0.0
 10
109.791
 20
-80.2737
 30
0.0
 10
109.8295
 20
-81.6428
 30
0.0
 10
110.4616
 20
-82.774
 30
0.0
 10
110.4616
 20
-82.774
 30
0.0
 10
111.1244
 20
-81.9213
 30
0.0
 10
112.1622
 20
-81.4472
 30
0.0
 10
113.2408
 20
-81.5047
 30
0.0
 10
113.2408
 20
-81.5047
 30
0.0
 10
114.3188
 20
-81.5625
 30
0.0
 10
115.3002
 20
-82.1449
 30
0.0
 10
115.868
 20
-83.0634
 30
0.0
 10
115.868
 20
-83.0634
 30
0.0
 10
116.1067
 20
-84.303
 30
0.0
 10
115.7185
 20
-85.5808
 30
0.0
 10
114.8306
 20
-86.4783
 30
0.0
 10
114.8306
 20
-86.4783
 30
0.0
 10
113.9427
 20
-87.3763
 30
0.0
 10
112.6694
 20
-87.778
 30
0.0
 10
111.4273
 20
-87.5528
 30
0.0
 10
111.4273
 20
-87.5528
 30
0.0
 10
109.3218
 20
-87.1806
 30
0.0
 10
107.5605
 20
-85.7434
 30
0.0
 10
106.7734
 20
-83.7558
 30
0.0
 10
106.7734
 20
-83.7558
 30
0.0
 10
105.9863
 20
-81.7682
 30
0.0
 10
106.2864
 20
-79.5148
 30
0.0
 10
107.5655
 20
-77.8021
 30
0.0
 10
107.5655
 20
-77.8021
 30
0.0
 10
109.3555
 20
-75.7639
 30
0.0
 10
111.7333
 20
-74.33
 30
0.0
 10
114.3716
 20
-73.6989
 30
0.0
 10
114.3716
 20
-73.6989
 30
0.0
 10
122.4011
 20
-72.066
 30
0.0
 10
130.3464
 20
-76.8453
 30
0.0
 10
132.6656
 20
-84.7049
 30
0.0
 10
132.6656
 20
-84.7049
 30
0.0
 10
128.7482
 20
-82.5026
 30
0.0
 10
123.9457
 20
-82.5949
 30
0.0
 10
120.1156
 20
-84.9462
 30
0.0
  0
SPLINE
  5
73
330
1F
100
AcDbEntity
  8
layer 1
 62
     7
370
     9
100
AcDbSpline
210
0.0
220
0.0
230
1.0
 70
    11
 71
     3
 72
    40
 73
    36
 74
     0
 42
0.0000000001
 43
0.0000000001
 12
1.0
 22
0.0
 32
0.0
 13
1.0
 23
0.0
 33
0.0
 40
0.0
 40
0.0
 40
0.0
 40
0.0
 40
0.1
 40
0.1
 40
0.1
 40
0.1
 40
0.2
 40
0.2
 40
0.2
 40
0.2
 40
0.3
 40
0.3
 40
0.3
 40
0.3
 40
0.4
 40
0.4
 40
0.4
 40
0.4
 40
0.5
 40
0.5
 40
0.5
 40
0.5
 40
0.6
 40
0.6
 40
0.6
 40
0.6
 40
0.7
 40
0.7
 40
0.7
 40
0.7
 40
0.8
 40
0.8
 40
0.8
 40
0.8
 40
1.0
 40
1.0
 40
1.0
 40
1.0
 10
104.09
 20
-75.8712
 30
0.0
 10
103.8493
 20
-75.2035
 30
0.0
 10
103.3335
 20
-74.6702
 30
0.0
 10
102.6738
 20
-74.4073
 30
0.0
 10
102.6738
 20
-74.4073
 30
0.0
 10
102.0142
 20
-74.1445
 30
0.0
 10
101.2733
 20
-74.1766
 30
0.0
 10
100.6386
 20
-74.4956
 30
0.0
 10
100.6386
 20
-74.4956
 30
0.0
 10
100.929
 20
-75.2672
 30
0.0
 10
101.076
 20
-76.0848
 30
0.0
 10
101.0731
 20
-76.9092
 30
0.0
 10
101.0731
 20
-76.9092
 30
0.0
 10
101.0786
 20
-77.1178
 30
0.0
 10
100.9677
 20
-77.3119
 30
0.0
 10
100.7851
 20
-77.4137
 30
0.0
 10
100.7851
 20
-77.4137
 30
0.0
 10
100.6025
 20
-77.5151
 30
0.0
 10
100.3788
 20
-77.5066
 30
0.0
 10
100.2042
 20
-77.3917
 30
0.0
 10
100.2042
 20
-77.3917
 30
0.0
 10
99.2796
 20
-76.859
 30
0.0
 10
98.7158
 20
-75.8671
 30
0.0
 10
98.7308
 20
-74.8002
 30
0.0
 10
98.7308
 20
-74.8002
 30
0.0
 10
98.7453
 20
-73.7331
 30
0.0
 10
99.3373
 20
-72.7578
 30
0.0
 10
100.2769
 20
-72.2512
 30
0.0
 10
100.2769
 20
-72.2512
 30
0.0
 10
104.2375
 20
-70.6484
 30
0.0
 10
108.5619
 20
-70.1644
 30
0.0
 10
112.7788
 20
-70.8516
 30
0.0
 10
112.7788
 20
-70.8516
 30
0.0
 10
109.5411
 20
-71.8479
 30
0.0
 10
106.5702
 20
-73.564
 30
0.0
 10
104.09
 20
-75.8712
 30
0.0
  0
SPLINE
  5
74
330
1F
100
AcDbEntity
  8
layer 1
 62
     7
370
     9
100
AcDbSpline
210
0.0
220
0.0
230
1.0
 70
    11
 71
     3
 72
    32
 73
    28
 74
     0
 42
0.0000000001
 43
0.0000000001
 12
1.0
 22
0.0
 32
0.0
 13
1.0
 23
0.0
 33
0.0
 40
0.0
 40
0.0
 40
0.0
 40
0.0
 40
0.125
 40
0.125
 40
0.125
 40
0.125
 40
0.25
 40
0.25
 40
0.25
 40
0.25
 40
0.375
 40
0.375
 40
0.375
 40
0.375
 40
0.5
 40
0.5
 40
0.5
 40
0.5
 40
0.625
 40
0.625
 40
0.625
 40
0.625
 40
0.75
 40
0.75
 40
0.75
 40
0.75
 40
1.0
 40
1.0
 40
1.0
 40
1.0
 10
102.4972
 20
-66.7485
 30
0.0
 10
103.9269
 20
-64.1925
 30
0.0
 10
104.1958
 20
-61.148
 30
0.0
 10
103.2367
 20
-58.3813
 30
0.0
 10
103.2367
 20
-58.3813
 30
0.0
 10
102.2775
 20
-55.6146
 30
0.0
 10
100.1816
 20
-53.3898
 30
0.0
 10
97.4772
 20
-52.2676
 30
0.0
 10
97.4772
 20
-52.2676
 30
0.0
 10
98.8968
 20
-51.481
 30
0.0
 10
100.2969
 20
-50.6598
 30
0.0
 10
101.6766
 20
-49.8059
 30
0.0
 10
101.6766
 20
-49.8059
 30
0.0
 10
101.5035
 20
-52.5911
 30
0.0
 10
102.8143
 20
-55.2615
 30
0.0
 10
105.1244
 20
-56.8277
 30
0.0
 10
105.1244
 20
-56.8277
 30
0.0
 10
107.4341
 20
-58.3938
 30
0.0
 10
110.3999
 20
-58.6242
 30
0.0
 10
112.9238
 20
-57.4322
 30
0.0
 10
112.9238
 20
-57.4322
 30
0.0
 10
112.7472
 20
-60.7461
 30
0.0
 10
113.7189
 20
-64.0195
 30
0.0
 10
115.6749
 20
-66.7003
 30
0.0
 10
115.6749
 20
-66.7003
 30
0.0
 10
111.34
 20
-65.677
 30
0.0
 10
106.8246
 20
-65.6941
 30
0.0
 10
102.4972
 20
-66.7485
 30
0.0
  0
SPLINE
  5
75
330
1F
100
AcDbEntity
  8
layer 1
 62
     7
370
     9
100
AcDbSpline
210
0.0
220
0.0
230
1.0
 70
    11
 71
     3
 72
    60
 73
    56
 74
     0
 42
0.0000000001
 43
0.0000000001
 12
1.0
 22
0.0
 32
0.0
 13
1.0
 23
0.0
 33
0.0
 40
0.0
 40
0.0
 40
0.0
 40
0.0
 40
0.0666666666666667
 40
0.0666666666666667
 40
0.0666666666666667
 40
0.0666666666666667
 40
0.1333333333333333
 40
0.1333333333333333
 40
0.1333333333333333
 40
0.1333333333333333
 40
0.2
 40
0.2
 40
0.2
 40
0.2
 40
0.2666666666666667
 40
0.2666666666666667
 40
0.2666666666666667
 40
0.2666666666666667
 40
0.3333333333333333
 40
0.3333333333333333
 40
0.3333333333333333
 40
0.3333333333333333
 40
0.4
 40
0.4
 40
0.4
 40
0.4
 40
0.4666666666666667
 40
0.4666666666666667
 40
0.4666666666666667
 40
0.4666666666666667
 40
0.5333333333333333
 40
0.5333333333333333
 40
0.5333333333333333
 40
0.5333333333333333
 40
0.6
 40
0.6
 40
0.6
 40
0.6
 40
0.6666666666666666
 40
0.6666666666666666
 40
0.6666666666666666
 40
0.6666666666666666
 40
0.7333333333333333
 40
0.7333333333333333
 40
0.7333333333333333
 40
0.7333333333333333
 40
0.8
 40
0.8
 40
0.8
 40
0.8
 40
0.8666666666666667
 40
0.8666666666666667
 40
0.8666666666666667
 40
0.8666666666666667
 40
1.0
 40
1.0
 40
1.0
 40
1.0
 10
93.0365
 20
-64.9866
 30
0.0
 10
93.4598
 20
-66.1254
 30
0.0
 10
94.5735
 20
-66.8583
 30
0.0
 10
95.7875
 20
-66.7967
 30
0.0
 10
95.7875
 20
-66.7967
 30
0.0
 10
97.2037
 20
-66.6336
 30
0.0
 10
98.4794
 20
-65.8646
 30
0.0
 10
99.2846
 20
-64.6887
 30
0.0
 10
99.2846
 20
-64.6887
 30
0.0
 10
100.0903
 20
-63.5128
 30
0.0
 10
100.3467
 20
-62.0454
 30
0.0
 10
99.9869
 20
-60.6663
 30
0.0
 10
99.9869
 20
-60.6663
 30
0.0
 10
98.7614
 20
-56.7313
 30
0.0
 10
94.6579
 20
-54.4563
 30
0.0
 10
90.6711
 20
-55.5012
 30
0.0
 10
90.6711
 20
-55.5012
 30
0.0
 10
86.4516
 20
-56.9125
 30
0.0
 10
84.135
 20
-61.4384
 30
0.0
 10
85.4579
 20
-65.6865
 30
0.0
 10
85.4579
 20
-65.6865
 30
0.0
 10
86.9805
 20
-69.179
 30
0.0
 10
90.926
 20
-70.9213
 30
0.0
 10
94.5324
 20
-69.6927
 30
0.0
 10
94.5324
 20
-69.6927
 30
0.0
 10
93.3967
 20
-69.5342
 30
0.0
 10
92.3181
 20
-69.0943
 30
0.0
 10
91.395
 20
-68.4135
 30
0.0
 10
91.395
 20
-68.4135
 30
0.0
 10
89.0056
 20
-66.5629
 30
0.0
 10
88.2316
 20
-63.2961
 30
0.0
 10
89.5369
 20
-60.5701
 30
0.0
 10
89.5369
 20
-60.5701
 30
0.0
 10
90.2388
 20
-59.4047
 30
0.0
 10
91.5018
 20
-58.6938
 30
0.0
 10
92.8624
 20
-58.6988
 30
0.0
 10
92.8624
 20
-58.6988
 30
0.0
 10
94.2224
 20
-58.7038
 30
0.0
 10
95.4801
 20
-59.4232
 30
0.0
 10
96.1739
 20
-60.5941
 30
0.0
 10
96.1739
 20
-60.5941
 30
0.0
 10
96.4924
 20
-61.2127
 30
0.0
 10
96.4196
 20
-61.9601
 30
0.0
 10
95.9882
 20
-62.5059
 30
0.0
 10
95.9882
 20
-62.5059
 30
0.0
 10
95.5569
 20
-63.0518
 30
0.0
 10
94.846
 20
-63.2951
 30
0.0
 10
94.1707
 20
-63.128
 30
0.0
 10
94.1707
 20
-63.128
 30
0.0
 10
93.7011
 20
-63.0583
 30
0.0
 10
93.2351
 20
-63.276
 30
0.0
 10
92.9878
 20
-63.6813
 30
0.0
 10
92.9878
 20
-63.6813
 30
0.0
 10
92.74
 20
-64.0867
 30
0.0
 10
92.7596
 20
-64.6008
 30
0.0
 10
93.0365
 20
-64.9866
 30
0.0
  0
SPLINE
  5
76
330
1F
100
AcDbEntity
  8
layer 1
 62
     7
370
     9
100
AcDbSpline
210
0.0
220
0.0
230
1.0
 70
    11
 71
     3
 72
    92
 73
    88
 74
     0
 42
0.0000000001
 43
0.0000000001
 12
1.0
 22
0.0
 32
0.0
 13
1.0
 23
0.0
 33
0.0
 40
0.0
 40
0.0
 40
0.0
 40
0.0
 40
0.0434782608695652
 40
0.0434782608695652
 40
0.0434782608695652
 40
0.0434782608695652
 40
0.0869565217391304
 40
0.0869565217391304
 40
0.0869565217391304
 40
0.0869565217391304
 40
0.1304347826086956
 40
0.1304347826086956
 40
0.1304347826086956
 40
0.1304347826086956
 40
0.1739130434782609
 40
0.1739130434782609
 40
0.1739130434782609
 40
0.1739130434782609
 40
0.2173913043478261
 40
0.2173913043478261
 40
0.2173913043478261
 40
0.2173913043478261
 40
0.2608695652173913
 40
0.2608695652173913
 40
0.2608695652173913
 40
0.2608695652173913
 40
0.3043478260869565
 40
0.3043478260869565
 40
0.3043478260869565
 40
0.3043478260869565
 40
0.3478260869565217
 40
0.3478260869565217
 40
0.3478260869565217
 40
0.3478260869565217
 40
0.391304347826087
 40
0.391304347826087
 40
0.391304347826087
 40
0.391304347826087
 40
0.4347826086956522
 40
0.4347826086956522
 40
0.4347826086956522
 40
0.4347826086956522
 40
0.4782608695652174
 40
0.4782608695652174
 40
0.4782608695652174
 40
0.4782608695652174
 40
0.5217391304347826
 40
0.5217391304347826
 40
0.5217391304347826
 40
0.5217391304347826
 40
0.5652173913043478
 40
0.5652173913043478
 40
0.5652173913043478
 40
0.5652173913043478
 40
0.6086956521739131
 40
0.6086956521739131
 40
0.6086956521739131
 40
0.6086956521739131
 40
0.6521739130434783
 40
0.6521739130434783
 40
0.6521739130434783
 40
0.6521739130434783
 40
0.6956521739130435
 40
0.6956521739130435
 40
0.6956521739130435
 40
0.6956521739130435
 40
0.7391304347826086
 40
0.7391304347826086
 40
0.7391304347826086
 40
0.7391304347826086
 40
0.782608695652174
 40
0.782608695652174
 40
0.782608695652174
 40
0.782608695652174
 40
0.8260869565217391
 40
0.8260869565217391
 40
0.8260869565217391
 40
0.8260869565217391
 40
0.8695652173913043
 40
0.8695652173913043
 40
0.8695652173913043
 40
0.8695652173913043
 40
0.9130434782608695
 40
0.9130434782608695
 40
0.9130434782608695
 40
0.9130434782608695
 40
1.0
 40
1.0
 40
1.0
 40
1.0
 10
105.1159
 20
-15.3895
 30
0.0
 10
104.866
 20
-14.7624
 30
0.0
 10
104.249
 20
-14.3601
 30
0.0
 10
103.5754
 20
-14.3847
 30
0.0
 10
103.5754
 20
-14.3847
 30
0.0
 10
102.9011
 20
-14.4093
 30
0.0
 10
102.3146
 20
-14.8547
 30
0.0
 10
102.111
 20
-15.4979
 30
0.0
 10
102.111
 20
-15.4979
 30
0.0
 10
101.5998
 20
-17.2642
 30
0.0
 10
102.2515
 20
-19.1614
 30
0.0
 10
103.7404
 20
-20.24
 30
0.0
 10
103.7404
 20
-20.24
 30
0.0
 10
105.0522
 20
-21.0087
 30
0.0
 10
106.6305
 20
-21.1787
 30
0.0
 10
108.0763
 20
-20.7082
 30
0.0
 10
108.0763
 20
-20.7082
 30
0.0
 10
109.522
 20
-20.2381
 30
0.0
 10
110.6974
 20
-19.1715
 30
0.0
 10
111.3064
 20
-17.7784
 30
0.0
 10
111.3064
 20
-17.7784
 30
0.0
 10
112.1969
 20
-14.6816
 30
0.0
 10
111.4308
 20
-11.3441
 30
0.0
 10
109.2792
 20
-8.9452
 30
0.0
 10
109.2792
 20
-8.9452
 30
0.0
 10
105.7771
 20
-6.0526
 30
0.0
 10
100.724
 20
-6.0225
 30
0.0
 10
97.1877
 20
-8.8729
 30
0.0
 10
97.1877
 20
-8.8729
 30
0.0
 10
93.5426
 20
-12.1723
 30
0.0
 10
92.5102
 20
-17.4805
 30
0.0
 10
94.6533
 20
-21.9055
 30
0.0
 10
94.6533
 20
-21.9055
 30
0.0
 10
97.1702
 20
-25.8497
 30
0.0
 10
101.3354
 20
-28.4442
 30
0.0
 10
105.9847
 20
-28.9649
 30
0.0
 10
105.9847
 20
-28.9649
 30
0.0
 10
110.9954
 20
-29.4164
 30
0.0
 10
116.0386
 20
-28.5948
 30
0.0
 10
120.6463
 20
-26.5755
 30
0.0
 10
120.6463
 20
-26.5755
 30
0.0
 10
120.5696
 20
-25.1529
 30
0.0
 10
120.5696
 20
-23.7266
 30
0.0
 10
120.6463
 20
-22.3038
 30
0.0
 10
120.6463
 20
-22.3038
 30
0.0
 10
119.315
 20
-23.6283
 30
0.0
 10
117.951
 20
-24.9201
 30
0.0
 10
116.5558
 20
-26.1777
 30
0.0
 10
116.5558
 20
-26.1777
 30
0.0
 10
115.5149
 20
-27.148
 30
0.0
 10
114.0721
 20
-27.5608
 30
0.0
 10
112.6754
 20
-27.2883
 30
0.0
 10
112.6754
 20
-27.2883
 30
0.0
 10
111.2788
 20
-27.0164
 30
0.0
 10
110.097
 20
-26.092
 30
0.0
 10
109.4964
 20
-24.8016
 30
0.0
 10
109.4964
 20
-24.8016
 30
0.0
 10
106.5396
 20
-25.8025
 30
0.0
 10
103.2718
 20
-25.1037
 30
0.0
 10
100.9832
 20
-22.9812
 30
0.0
 10
100.9832
 20
-22.9812
 30
0.0
 10
98.6942
 20
-20.8581
 30
0.0
 10
97.7516
 20
-17.653
 30
0.0
 10
98.5271
 20
-14.629
 30
0.0
 10
98.5271
 20
-14.629
 30
0.0
 10
98.9309
 20
-13.0648
 30
0.0
 10
99.9699
 20
-11.741
 30
0.0
 10
101.3936
 20
-10.978
 30
0.0
 10
101.3936
 20
-10.978
 30
0.0
 10
102.8169
 20
-10.2145
 30
0.0
 10
104.4949
 20
-10.0815
 30
0.0
 10
106.0209
 20
-10.6106
 30
0.0
 10
106.0209
 20
-10.6106
 30
0.0
 10
107.0127
 20
-11.0897
 30
0.0
 10
107.7451
 20
-11.9798
 30
0.0
 10
108.0235
 20
-13.0457
 30
0.0
 10
108.0235
 20
-13.0457
 30
0.0
 10
108.3025
 20
-14.1118
 30
0.0
 10
108.0993
 20
-15.246
 30
0.0
 10
107.4688
 20
-16.1496
 30
0.0
 10
107.4688
 20
-16.1496
 30
0.0
 10
107.0991
 20
-16.5152
 30
0.0
 10
106.5563
 20
-16.6442
 30
0.0
 10
106.0615
 20
-16.4842
 30
0.0
 10
106.0615
 20
-16.4842
 30
0.0
 10
105.5664
 20
-16.3246
 30
0.0
 10
105.2018
 20
-15.9022
 30
0.0
 10
105.1159
 20
-15.3895
 30
0.0
  0
SPLINE
  5
77
330
1F
100
AcDbEntity
  8
layer 1
 62
     7
370
     9
100
AcDbSpline
210
0.0
220
0.0
230
1.0
 70
    11
 71
     3
 72
    68
 73
    64
 74
     0
 42
0.0000000001
 43
0.0000000001
 12
1.0
 22
0.0
 32
0.0
 13
1.0
 23
0.0
 33
0.0
 40
0.0
 40
0.0
 40
0.0
 40
0.0
 40
0.0588235294117647
 40
0.0588235294117647
 40
0.0588235294117647
 40
0.0588235294117647
 40
0.1176470588235294
 40
0.1176470588235294
 40
0.1176470588235294
 40
0.1176470588235294
 40
0.1764705882352941
 40
0.1764705882352941
 40
0.1764705882352941
 40
0.1764705882352941
 40
0.2352941176470588
 40
0.2352941176470588
 40
0.2352941176470588
 40
0.2352941176470588
 40
0.2941176470588235
 40
0.2941176470588235
 40
0.2941176470588235
 40
0.2941176470588235
 40
0.3529411764705883
 40
0.3529411764705883
 40
0.3529411764705883
 40
0.3529411764705883
 40
0.4117647058823529
 40
0.4117647058823529
 40
0.4117647058823529
 40
0.4117647058823529
 40
0.4705882352941176
 40
0.4705882352941176
 40
0.4705882352941176
 40
0.4705882352941176
 40
0.5294117647058824
 40
0.5294117647058824
 40
0.5294117647058824
 40
0.5294117647058824
 40
0.5882352941176471
 40
0.5882352941176471
 40
0.5882352941176471
 40
0.5882352941176471
 40
0.6470588235294118
 40
0.6470588235294118
 40
0.6470588235294118
 40
0.6470588235294118
 40
0.7058823529411765
 40
0.7058823529411765
 40
0.7058823529411765
 40
0.7058823529411765
 40
0.7647058823529411
 40
0.7647058823529411
 40
0.7647058823529411
 40
0.7647058823529411
 40
0.8235294117647058
 40
0.8235294117647058
 40
0.8235294117647058
 40
0.8235294117647058
 40
0.8823529411764706
 40
0.8823529411764706
 40
0.8823529411764706
 40
0.8823529411764706
 40
1.0
 40
1.0
 40
1.0
 40
1.0
 10
97.1513
 20
-39.6085
 30
0.0
 10
94.1296
 20
-37.2774
 30
0.0
 10
91.7903
 20
-40.8191
 30
0.0
 10
93.3961
 20
-42.1094
 30
0.0
 10
93.3961
 20
-42.1094
 30
0.0
 10
93.7162
 20
-42.4647
 30
0.0
 10
94.1758
 20
-42.6617
 30
0.0
 10
94.6533
 20
-42.6498
 30
0.0
 10
94.6533
 20
-42.6498
 30
0.0
 10
95.3285
 20
-42.9708
 30
0.0
 10
95.7363
 20
-43.6741
 30
0.0
 10
95.6807
 20
-44.4201
 30
0.0
 10
95.6807
 20
-44.4201
 30
0.0
 10
95.6246
 20
-45.1655
 30
0.0
 10
95.1153
 20
-45.7996
 30
0.0
 10
94.3999
 20
-46.0163
 30
0.0
 10
94.3999
 20
-46.0163
 30
0.0
 10
93.021
 20
-46.3479
 30
0.0
 10
91.5667
 20
-46.0179
 30
0.0
 10
90.466
 20
-45.1234
 30
0.0
 10
90.466
 20
-45.1234
 30
0.0
 10
89.3658
 20
-44.229
 30
0.0
 10
88.7452
 20
-42.8725
 30
0.0
 10
88.7884
 20
-41.4547
 30
0.0
 10
88.7884
 20
-41.4547
 30
0.0
 10
88.67
 20
-38.5576
 30
0.0
 10
90.5823
 20
-35.9677
 30
0.0
 10
93.3861
 20
-35.2282
 30
0.0
 10
93.3861
 20
-35.2282
 30
0.0
 10
96.67
 20
-34.4039
 30
0.0
 10
100.1123
 20
-35.775
 30
0.0
 10
101.9298
 20
-38.6314
 30
0.0
 10
101.9298
 20
-38.6314
 30
0.0
 10
103.4228
 20
-36.11
 30
0.0
 10
105.5269
 20
-34.0056
 30
0.0
 10
108.0481
 20
-32.5127
 30
0.0
 10
108.0481
 20
-32.5127
 30
0.0
 10
104.8887
 20
-31.9408
 30
0.0
 10
101.7137
 20
-31.4577
 30
0.0
 10
98.5271
 20
-31.065
 30
0.0
 10
98.5271
 20
-31.065
 30
0.0
 10
94.5906
 20
-30.2156
 30
0.0
 10
90.478
 20
-31.0277
 30
0.0
 10
87.1595
 20
-33.3093
 30
0.0
 10
87.1595
 20
-33.3093
 30
0.0
 10
84.3773
 20
-35.909
 30
0.0
 10
83.4848
 20
-39.9538
 30
0.0
 10
84.9146
 20
-43.4825
 30
0.0
 10
84.9146
 20
-43.4825
 30
0.0
 10
85.6631
 20
-45.8353
 30
0.0
 10
87.4183
 20
-47.7341
 30
0.0
 10
89.7055
 20
-48.6641
 30
0.0
 10
89.7055
 20
-48.6641
 30
0.0
 10
91.9926
 20
-49.5943
 30
0.0
 10
94.5751
 20
-49.4598
 30
0.0
 10
96.7532
 20
-48.2974
 30
0.0
 10
96.7532
 20
-48.2974
 30
0.0
 10
98.1809
 20
-47.3442
 30
0.0
 10
99.0704
 20
-45.7686
 30
0.0
 10
99.1492
 20
-44.0539
 30
0.0
 10
99.1492
 20
-44.0539
 30
0.0
 10
99.2274
 20
-42.3387
 30
0.0
 10
98.486
 20
-40.6883
 30
0.0
 10
97.1513
 20
-39.6085
 30
0.0
  0
SPLINE
  5
78
330
1F
100
AcDbEntity
  8
layer 1
 62
     7
370
     9
100
AcDbSpline
210
0.0
220
0.0
230
1.0
 70
    11
 71
     3
 72
    24
 73
    20
 74
     0
 42
0.0000000001
 43
0.0000000001
 12
1.0
 22
0.0
 32
0.0
 13
1.0
 23
0.0
 33
0.0
 40
0.0
 40
0.0
 40
0.0
 40
0.0
 40
0.1666666666666667
 40
0.1666666666666667
 40
0.1666666666666667
 40
0.1666666666666667
 40
0.3333333333333333
 40
0.3333333333333333
 40
0.3333333333333333
 40
0.3333333333333333
 40
0.5
 40
0.5
 40
0.5
 40
0.5
 40
0.6666666666666666
 40
0.6666666666666666
 40
0.6666666666666666
 40
0.6666666666666666
 40
1.0
 40
1.0
 40
1.0
 40
1.0
 10
124.7012
 20
-48.0802
 30
0.0
 10
122.7237
 20
-43.6129
 30
0.0
 10
123.4084
 20
-38.4153
 30
0.0
 10
126.4752
 20
-34.6126
 30
0.0
 10
126.4752
 20
-34.6126
 30
0.0
 10
128.4507
 20
-37.0993
 30
0.0
 10
130.7804
 20
-39.2826
 30
0.0
 10
133.3899
 20
-41.0931
 30
0.0
 10
133.3899
 20
-41.0931
 30
0.0
 10
131.2208
 20
-42.7826
 30
0.0
 10
129.7099
 20
-45.177
 30
0.0
 10
129.1179
 20
-47.863
 30
0.0
 10
129.1179
 20
-47.863
 30
0.0
 10
128.6769
 20
-48.6441
 30
0.0
 10
127.8658
 20
-49.1452
 30
0.0
 10
126.9698
 20
-49.1894
 30
0.0
 10
126.9698
 20
-49.1894
 30
0.0
 10
126.0733
 20
-49.2335
 30
0.0
 10
125.217
 20
-48.8146
 30
0.0
 10
124.7012
 20
-48.0802
 30
0.0
  0
SPLINE
  5
79
330
1F
100
AcDbEntity
  8
layer 1
 62
     7
370
     9
100
AcDbSpline
210
0.0
220
0.0
230
1.0
 70
    11
 71
     3
 72
    88
 73
    84
 74
     0
 42
0.0000000001
 43
0.0000000001
 12
1.0
 22
0.0
 32
0.0
 13
1.0
 23
0.0
 33
0.0
 40
0.0
 40
0.0
 40
0.0
 40
0.0
 40
0.0454545454545455
 40
0.0454545454545455
 40
0.0454545454545455
 40
0.0454545454545455
 40
0.0909090909090909
 40
0.0909090909090909
 40
0.0909090909090909
 40
0.0909090909090909
 40
0.1363636363636364
 40
0.1363636363636364
 40
0.1363636363636364
 40
0.1363636363636364
 40
0.1818181818181818
 40
0.1818181818181818
 40
0.1818181818181818
 40
0.1818181818181818
 40
0.2272727272727273
 40
0.2272727272727273
 40
0.2272727272727273
 40
0.2272727272727273
 40
0.2727272727272727
 40
0.2727272727272727
 40
0.2727272727272727
 40
0.2727272727272727
 40
0.3181818181818182
 40
0.3181818181818182
 40
0.3181818181818182
 40
0.3181818181818182
 40
0.3636363636363636
 40
0.3636363636363636
 40
0.3636363636363636
 40
0.3636363636363636
 40
0.4090909090909091
 40
0.4090909090909091
 40
0.4090909090909091
 40
0.4090909090909091
 40
0.4545454545454545
 40
0.4545454545454545
 40
0.4545454545454545
 40
0.4545454545454545
 40
0.5
 40
0.5
 40
0.5
 40
0.5
 40
0.5454545454545454
 40
0.5454545454545454
 40
0.5454545454545454
 40
0.5454545454545454
 40
0.5909090909090909
 40
0.5909090909090909
 40
0.5909090909090909
 40
0.5909090909090909
 40
0.6363636363636364
 40
0.6363636363636364
 40
0.6363636363636364
 40
0.6363636363636364
 40
0.6818181818181818
 40
0.6818181818181818
 40
0.6818181818181818
 40
0.6818181818181818
 40
0.7272727272727273
 40
0.7272727272727273
 40
0.7272727272727273
 40
0.7272727272727273
 40
0.7727272727272727
 40
0.7727272727272727
 40
0.7727272727272727
 40
0.7727272727272727
 40
0.8181818181818182
 40
0.8181818181818182
 40
0.8181818181818182
 40
0.8181818181818182
 40
0.8636363636363636
 40
0.8636363636363636
 40
0.8636363636363636
 40
0.8636363636363636
 40
0.9090909090909091
 40
0.9090909090909091
 40
0.9090909090909091
 40
0.9090909090909091
 40
1.0
 40
1.0
 40
1.0
 40
1.0
 10
124.7373
 20
-32.9476
 30
0.0
 10
119.8717
 20
-37.0608
 30
0.0
 10
118.438
 20
-43.9616
 30
0.0
 10
121.2619
 20
-49.6729
 30
0.0
 10
121.2619
 20
-49.6729
 30
0.0
 10
120.0283
 20
-50.147
 30
0.0
 10
118.7084
 20
-50.3562
 30
0.0
 10
117.3886
 20
-50.2885
 30
0.0
 10
117.3886
 20
-50.2885
 30
0.0
 10
117.4257
 20
-48.2146
 30
0.0
 10
116.3973
 20
-46.2662
 30
0.0
 10
114.663
 20
-45.1274
 30
0.0
 10
114.663
 20
-45.1274
 30
0.0
 10
112.9298
 20
-43.9886
 30
0.0
 10
110.733
 20
-43.8186
 30
0.0
 10
108.8447
 20
-44.6769
 30
0.0
 10
108.8447
 20
-44.6769
 30
0.0
 10
107.6814
 20
-45.2058
 30
0.0
 10
106.8387
 20
-46.2562
 30
0.0
 10
106.5743
 20
-47.5063
 30
0.0
 10
106.5743
 20
-47.5063
 30
0.0
 10
106.3098
 20
-48.7564
 30
0.0
 10
106.6555
 20
-50.0577
 30
0.0
 10
107.5053
 20
-51.0125
 30
0.0
 10
107.5053
 20
-51.0125
 30
0.0
 10
108.0787
 20
-51.6626
 30
0.0
 10
109.0559
 20
-51.7619
 30
0.0
 10
109.7483
 20
-51.2401
 30
0.0
 10
109.7483
 20
-51.2401
 30
0.0
 10
110.4405
 20
-50.7184
 30
0.0
 10
110.6152
 20
-49.7517
 30
0.0
 10
110.148
 20
-49.0213
 30
0.0
 10
110.148
 20
-49.0213
 30
0.0
 10
110.0468
 20
-48.4173
 30
0.0
 10
110.272
 20
-47.8052
 30
0.0
 10
110.7406
 20
-47.411
 30
0.0
 10
110.7406
 20
-47.411
 30
0.0
 10
111.2091
 20
-47.0167
 30
0.0
 10
111.8512
 20
-46.8992
 30
0.0
 10
112.4287
 20
-47.1025
 30
0.0
 10
112.4287
 20
-47.1025
 30
0.0
 10
113.5428
 20
-47.7341
 30
0.0
 10
114.2708
 20
-48.8773
 30
0.0
 10
114.372
 20
-50.1541
 30
0.0
 10
114.372
 20
-50.1541
 30
0.0
 10
114.4738
 20
-51.4303
 30
0.0
 10
113.9356
 20
-52.6744
 30
0.0
 10
112.9353
 20
-53.474
 30
0.0
 10
112.9353
 20
-53.474
 30
0.0
 10
111.466
 20
-54.2813
 30
0.0
 10
109.7116
 20
-54.3871
 30
0.0
 10
108.1555
 20
-53.763
 30
0.0
 10
108.1555
 20
-53.763
 30
0.0
 10
106.5988
 20
-53.1394
 30
0.0
 10
105.4039
 20
-51.8512
 30
0.0
 10
104.8987
 20
-50.2518
 30
0.0
 10
104.8987
 20
-50.2518
 30
0.0
 10
103.4459
 20
-45.433
 30
0.0
 10
105.0478
 20
-40.2132
 30
0.0
 10
108.9531
 20
-37.0382
 30
0.0
 10
108.9531
 20
-37.0382
 30
0.0
 10
108.316
 20
-38.7699
 30
0.0
 10
109.0775
 20
-40.7043
 30
0.0
 10
110.7245
 20
-41.5371
 30
0.0
 10
110.7245
 20
-41.5371
 30
0.0
 10
112.3709
 20
-42.3698
 30
0.0
 10
114.3801
 20
-41.836
 30
0.0
 10
115.3974
 20
-40.2965
 30
0.0
 10
115.3974
 20
-40.2965
 30
0.0
 10
114.5427
 20
-40.184
 30
0.0
 10
113.8292
 20
-39.5886
 30
0.0
 10
113.5659
 20
-38.7679
 30
0.0
 10
113.5659
 20
-38.7679
 30
0.0
 10
113.3025
 20
-37.9467
 30
0.0
 10
113.5363
 20
-37.0477
 30
0.0
 10
114.1664
 20
-36.4593
 30
0.0
 10
114.1664
 20
-36.4593
 30
0.0
 10
117.0439
 20
-34.4281
 30
0.0
 10
120.083
 20
-32.6362
 30
0.0
 10
123.2534
 20
-31.1011
 30
0.0
 10
123.2534
 20
-31.1011
 30
0.0
 10
123.5549
 20
-31.8495
 30
0.0
 10
124.0711
 20
-32.4917
 30
0.0
 10
124.7373
 20
-32.9476
 30
0.0
  0
SPLINE
  5
7A
330
1F
100
AcDbEntity
  8
layer 1
 62
     7
370
     9
100
AcDbSpline
210
0.0
220
0.0
230
1.0
 70
    11
 71
     3
 72
    16
 73
    12
 74
     0
 42
0.0000000001
 43
0.0000000001
 12
1.0
 22
0.0
 32
0.0
 13
1.0
 23
0.0
 33
0.0
 40
0.0
 40
0.0
 40
0.0
 40
0.0
 40
0.25
 40
0.25
 40
0.25
 40
0.25
 40
0.5
 40
0.5
 40
0.5
 40
0.5
 40
1.0
 40
1.0
 40
1.0
 40
1.0
 10
126.4029
 20
-52.6413
 30
0.0
 10
126.5328
 20
-53.5051
 30
0.0
 10
127.1559
 20
-54.213
 30
0.0
 10
127.9956
 20
-54.4518
 30
0.0
 10
127.9956
 20
-54.4518
 30
0.0
 10
127.9956
 20
-54.4518
 30
0.0
 10
128.1407
 20
-52.6413
 30
0.0
 10
128.1407
 20
-52.6413
 30
0.0
 10
128.1407
 20
-52.6413
 30
0.0
 10
128.1407
 20
-52.6413
 30
0.0
 10
126.4029
 20
-52.6413
 30
0.0
 10
126.4029
 20
-52.6413
 30
0.0
  0
SPLINE
  5
7B
330
1F
100
AcDbEntity
  8
layer 1
 62
     7
370
     9
100
AcDbSpline
210
0.0
220
0.0
230
1.0
 70
    11
 71
     3
 72
    52
 73
    48
 74
     0
 42
0.0000000001
 43
0.0000000001
 12
1.0
 22
0.0
 32
0.0
 13
1.0
 23
0.0
 33
0.0
 40
0.0
 40
0.0
 40
0.0
 40
0.0
 40
0.0769230769230769
 40
0.0769230769230769
 40
0.0769230769230769
 40
0.0769230769230769
 40
0.1538461538461539
 40
0.1538461538461539
 40
0.1538461538461539
 40
0.1538461538461539
 40
0.2307692307692308
 40
0.2307692307692308
 40
0.2307692307692308
 40
0.2307692307692308
 40
0.3076923076923077
 40
0.3076923076923077
 40
0.3076923076923077
 40
0.3076923076923077
 40
0.3846153846153846
 40
0.3846153846153846
 40
0.3846153846153846
 40
0.3846153846153846
 40
0.4615384615384616
 40
0.4615384615384616
 40
0.4615384615384616
 40
0.4615384615384616
 40
0.5384615384615384
 40
0.5384615384615384
 40
0.5384615384615384
 40
0.5384615384615384
 40
0.6153846153846154
 40
0.6153846153846154
 40
0.6153846153846154
 40
0.6153846153846154
 40
0.6923076923076923
 40
0.6923076923076923
 40
0.6923076923076923
 40
0.6923076923076923
 40
0.7692307692307693
 40
0.7692307692307693
 40
0.7692307692307693
 40
0.7692307692307693
 40
0.8461538461538461
 40
0.8461538461538461
 40
0.8461538461538461
 40
0.8461538461538461
 40
1.0
 40
1.0
 40
1.0
 40
1.0
 10
122.2395
 20
-58.0356
 30
0.0
 10
122.0579
 20
-57.3249
 30
0.0
 10
121.4832
 20
-56.7825
 30
0.0
 10
120.7628
 20
-56.643
 30
0.0
 10
120.7628
 20
-56.643
 30
0.0
 10
120.0424
 20
-56.5036
 30
0.0
 10
119.3065
 20
-56.792
 30
0.0
 10
118.8725
 20
-57.384
 30
0.0
 10
118.8725
 20
-57.384
 30
0.0
 10
117.9835
 20
-59.5953
 30
0.0
 10
118.9453
 20
-62.1182
 30
0.0
 10
121.0807
 20
-63.1762
 30
0.0
 10
121.0807
 20
-63.1762
 30
0.0
 10
123.4898
 20
-64.2396
 30
0.0
 10
126.298
 20
-63.7857
 30
0.0
 10
128.249
 20
-62.0178
 30
0.0
 10
128.249
 20
-62.0178
 30
0.0
 10
129.029
 20
-64.5763
 30
0.0
 10
130.3926
 20
-66.918
 30
0.0
 10
132.2311
 20
-68.8599
 30
0.0
 10
132.2311
 20
-68.8599
 30
0.0
 10
128.6017
 20
-69.4529
 30
0.0
 10
124.8778
 20
-68.9748
 30
0.0
 10
121.5152
 20
-67.4844
 30
0.0
 10
121.5152
 20
-67.4844
 30
0.0
 10
118.733
 20
-65.9553
 30
0.0
 10
116.9797
 20
-63.0562
 30
0.0
 10
116.918
 20
-59.8822
 30
0.0
 10
116.918
 20
-59.8822
 30
0.0
 10
116.7961
 20
-57.3965
 30
0.0
 10
118.3763
 20
-55.145
 30
0.0
 10
120.7552
 20
-54.4157
 30
0.0
 10
120.7552
 20
-54.4157
 30
0.0
 10
121.8799
 20
-54.1307
 30
0.0
 10
123.0724
 20
-54.4117
 30
0.0
 10
123.9512
 20
-55.1682
 30
0.0
 10
123.9512
 20
-55.1682
 30
0.0
 10
124.8302
 20
-55.9252
 30
0.0
 10
125.2857
 20
-57.0625
 30
0.0
 10
125.1718
 20
-58.2167
 30
0.0
 10
125.1718
 20
-58.2167
 30
0.0
 10
124.9927
 20
-58.911
 30
0.0
 10
124.3466
 20
-59.3805
 30
0.0
 10
123.6313
 20
-59.3365
 30
0.0
 10
123.6313
 20
-59.3365
 30
0.0
 10
122.9153
 20
-59.2924
 30
0.0
 10
122.332
 20
-58.7465
 30
0.0
 10
122.2395
 20
-58.0356
 30
0.0
  0
SPLINE
  5
7C
330
1F
100
AcDbEntity
  8
layer 1
 62
     7
370
     9
100
AcDbSpline
210
0.0
220
0.0
230
1.0
 70
    11
 71
     3
 72
    84
 73
    80
 74
     0
 42
0.0000000001
 43
0.0000000001
 12
1.0
 22
0.0
 32
0.0
 13
1.0
 23
0.0
 33
0.0
 40
0.0
 40
0.0
 40
0.0
 40
0.0
 40
0.0476190476190476
 40
0.0476190476190476
 40
0.0476190476190476
 40
0.0476190476190476
 40
0.0952380952380952
 40
0.0952380952380952
 40
0.0952380952380952
 40
0.0952380952380952
 40
0.1428571428571428
 40
0.1428571428571428
 40
0.1428571428571428
 40
0.1428571428571428
 40
0.1904761904761905
 40
0.1904761904761905
 40
0.1904761904761905
 40
0.1904761904761905
 40
0.2380952380952381
 40
0.2380952380952381
 40
0.2380952380952381
 40
0.2380952380952381
 40
0.2857142857142857
 40
0.2857142857142857
 40
0.2857142857142857
 40
0.2857142857142857
 40
0.3333333333333333
 40
0.3333333333333333
 40
0.3333333333333333
 40
0.3333333333333333
 40
0.3809523809523809
 40
0.3809523809523809
 40
0.3809523809523809
 40
0.3809523809523809
 40
0.4285714285714285
 40
0.4285714285714285
 40
0.4285714285714285
 40
0.4285714285714285
 40
0.4761904761904762
 40
0.4761904761904762
 40
0.4761904761904762
 40
0.4761904761904762
 40
0.5238095238095238
 40
0.5238095238095238
 40
0.5238095238095238
 40
0.5238095238095238
 40
0.5714285714285714
 40
0.5714285714285714
 40
0.5714285714285714
 40
0.5714285714285714
 40
0.6190476190476191
 40
0.6190476190476191
 40
0.6190476190476191
 40
0.6190476190476191
 40
0.6666666666666666
 40
0.6666666666666666
 40
0.6666666666666666
 40
0.6666666666666666
 40
0.7142857142857143
 40
0.7142857142857143
 40
0.7142857142857143
 40
0.7142857142857143
 40
0.7619047619047619
 40
0.7619047619047619
 40
0.7619047619047619
 40
0.7619047619047619
 40
0.8095238095238095
 40
0.8095238095238095
 40
0.8095238095238095
 40
0.8095238095238095
 40
0.8571428571428571
 40
0.8571428571428571
 40
0.8571428571428571
 40
0.8571428571428571
 40
0.9047619047619048
 40
0.9047619047619048
 40
0.9047619047619048
 40
0.9047619047619048
 40
1.0
 40
1.0
 40
1.0
 40
1.0
 10
94.2189
 20
-92.4279
 30
0.0
 10
94.0067
 20
-92.8258
 30
0.0
 10
93.5677
 20
-93.0481
 30
0.0
 10
93.1212
 20
-92.9834
 30
0.0
 10
93.1212
 20
-92.9834
 30
0.0
 10
92.6753
 20
-92.9181
 30
0.0
 10
92.3176
 20
-92.5805
 30
0.0
 10
92.2278
 20
-92.138
 30
0.0
 10
92.2278
 20
-92.138
 30
0.0
 10
91.8415
 20
-90.8327
 30
0.0
 10
92.0728
 20
-89.422
 30
0.0
 10
92.8553
 20
-88.3079
 30
0.0
 10
92.8553
 20
-88.3079
 30
0.0
 10
93.6384
 20
-87.1936
 30
0.0
 10
94.8871
 20
-86.4978
 30
0.0
 10
96.2461
 20
-86.4181
 30
0.0
 10
96.2461
 20
-86.4181
 30
0.0
 10
98.0982
 20
-86.3574
 30
0.0
 10
99.8815
 20
-87.1235
 30
0.0
 10
101.1127
 20
-88.5085
 30
0.0
 10
101.1127
 20
-88.5085
 30
0.0
 10
102.3438
 20
-89.8936
 30
0.0
 10
102.8951
 20
-91.7543
 30
0.0
 10
102.6182
 20
-93.5863
 30
0.0
 10
102.6182
 20
-93.5863
 30
0.0
 10
102.1912
 20
-96.0204
 30
0.0
 10
100.7289
 20
-98.1489
 30
0.0
 10
98.61
 20
-99.4206
 30
0.0
 10
98.61
 20
-99.4206
 30
0.0
 10
96.4909
 20
-100.6918
 30
0.0
 10
93.9244
 20
-100.9803
 30
0.0
 10
91.5762
 20
-100.2112
 30
0.0
 10
91.5762
 20
-100.2112
 30
0.0
 10
87.3988
 20
-98.63
 30
0.0
 10
84.5083
 20
-94.7808
 30
0.0
 10
84.1546
 20
-90.328
 30
0.0
 10
84.1546
 20
-90.328
 30
0.0
 10
84.0899
 20
-83.227
 30
0.0
 10
88.4086
 20
-76.8213
 30
0.0
 10
95.0155
 20
-74.2183
 30
0.0
 10
95.0155
 20
-74.2183
 30
0.0
 10
94.6749
 20
-76.2489
 30
0.0
 10
95.4108
 20
-78.3113
 30
0.0
 10
96.9594
 20
-79.6682
 30
0.0
 10
96.9594
 20
-79.6682
 30
0.0
 10
98.508
 20
-81.0252
 30
0.0
 10
100.6492
 20
-81.4837
 30
0.0
 10
102.6182
 20
-80.8792
 30
0.0
 10
102.6182
 20
-80.8792
 30
0.0
 10
102.3493
 20
-82.17
 30
0.0
 10
102.3618
 20
-83.5034
 30
0.0
 10
102.6538
 20
-84.7892
 30
0.0
 10
102.6538
 20
-84.7892
 30
0.0
 10
99.4407
 20
-83.3956
 30
0.0
 10
95.8748
 20
-83.0289
 30
0.0
 10
92.445
 20
-83.7392
 30
0.0
 10
92.445
 20
-83.7392
 30
0.0
 10
88.7714
 20
-85.1705
 30
0.0
 10
86.8616
 20
-89.2279
 30
0.0
 10
88.1006
 20
-92.9707
 30
0.0
 10
88.1006
 20
-92.9707
 30
0.0
 10
88.8812
 20
-95.7078
 30
0.0
 10
91.3057
 20
-97.6527
 30
0.0
 10
94.1466
 20
-97.8218
 30
0.0
 10
94.1466
 20
-97.8218
 30
0.0
 10
95.6371
 20
-97.899
 30
0.0
 10
97.0622
 20
-97.2058
 30
0.0
 10
97.9221
 20
-95.9857
 30
0.0
 10
97.9221
 20
-95.9857
 30
0.0
 10
98.782
 20
-94.7657
 30
0.0
 10
98.9555
 20
-93.1906
 30
0.0
 10
98.3822
 20
-91.8125
 30
0.0
 10
98.3822
 20
-91.8125
 30
0.0
 10
97.9025
 20
-91.0313
 30
0.0
 10
97.0041
 20
-90.612
 30
0.0
 10
96.0971
 20
-90.7459
 30
0.0
 10
96.0971
 20
-90.7459
 30
0.0
 10
95.1911
 20
-90.8803
 30
0.0
 10
94.4517
 20
-91.5416
 30
0.0
 10
94.2189
 20
-92.4279
 30
0.0
  0
SPLINE
  5
7D
330
1F
100
AcDbEntity
  8
layer 1
 62
     7
370
     9
100
AcDbSpline
210
0.0
220
0.0
230
1.0
 70
    11
 71
     3
 72
    16
 73
    12
 74
     0
 42
0.0000000001
 43
0.0000000001
 12
1.0
 22
0.0
 32
0.0
 13
1.0
 23
0.0
 33
0.0
 40
0.0
 40
0.0
 40
0.0
 40
0.0
 40
0.25
 40
0.25
 40
0.25
 40
0.25
 40
0.5
 40
0.5
 40
0.5
 40
0.5
 40
1.0
 40
1.0
 40
1.0
 40
1.0
 10
106.2382
 20
-96.1929
 30
0.0
 10
106.2382
 20
-96.1929
 30
0.0
 10
110.9081
 20
-91.5229
 30
0.0
 10
110.9081
 20
-91.5229
 30
0.0
 10
110.9081
 20
-91.5229
 30
0.0
 10
110.9081
 20
-91.5229
 30
0.0
 10
106.5642
 20
-91.4142
 30
0.0
 10
106.5642
 20
-91.4142
 30
0.0
 10
106.5642
 20
-91.4142
 30
0.0
 10
106.5642
 20
-91.4142
 30
0.0
 10
106.2382
 20
-96.1929
 30
0.0
 10
106.2382
 20
-96.1929
 30
0.0
  0
SPLINE
  5
7E
330
1F
100
AcDbEntity
  8
layer 1
 62
     7
370
     9
100
AcDbSpline
210
0.0
220
0.0
230
1.0
 70
    11
 71
     3
 72
    24
 73
    20
 74
     0
 42
0.0000000001
 43
0.0000000001
 12
1.0
 22
0.0
 32
0.0
 13
1.0
 23
0.0
 33
0.0
 40
0.0
 40
0.0
 40
0.0
 40
0.0
 40
0.1666666666666667
 40
0.1666666666666667
 40
0.1666666666666667
 40
0.1666666666666667
 40
0.3333333333333333
 40
0.3333333333333333
 40
0.3333333333333333
 40
0.3333333333333333
 40
0.5
 40
0.5
 40
0.5
 40
0.5
 40
0.6666666666666666
 40
0.6666666666666666
 40
0.6666666666666666
 40
0.6666666666666666
 40
1.0
 40
1.0
 40
1.0
 40
1.0
 10
173.5745
 20
123.7967
 30
0.0
 10
171.975
 20
123.6899
 30
0.0
 10
170.5026
 20
124.6695
 30
0.0
 10
169.983
 20
126.1861
 30
0.0
 10
169.983
 20
126.1861
 30
0.0
 10
169.983
 20
126.1861
 30
0.0
 10
191.6758
 20
126.1861
 30
0.0
 10
191.6758
 20
126.1861
 30
0.0
 10
191.6758
 20
126.1861
 30
0.0
 10
191.6758
 20
126.1861
 30
0.0
 10
191.6758
 20
113.923
 30
0.0
 10
191.6758
 20
113.923
 30
0.0
 10
191.6758
 20
113.923
 30
0.0
 10
189.8873
 20
116.8442
 30
0.0
 10
187.492
 20
119.3471
 30
0.0
 10
184.6525
 20
121.2626
 30
0.0
 10
184.6525
 20
121.2626
 30
0.0
 10
181.5644
 20
123.8036
 30
0.0
 10
177.4602
 20
124.7425
 30
0.0
 10
173.5745
 20
123.7967
 30
0.0
  0
SPLINE
  5
7F
330
1F
100
AcDbEntity
  8
layer 1
 62
     7
370
     9
100
AcDbSpline
210
0.0
220
0.0
230
1.0
 70
    11
 71
     3
 72
    56
 73
    52
 74
     0
 42
0.0000000001
 43
0.0000000001
 12
1.0
 22
0.0
 32
0.0
 13
1.0
 23
0.0
 33
0.0
 40
0.0
 40
0.0
 40
0.0
 40
0.0
 40
0.0714285714285714
 40
0.0714285714285714
 40
0.0714285714285714
 40
0.0714285714285714
 40
0.1428571428571428
 40
0.1428571428571428
 40
0.1428571428571428
 40
0.1428571428571428
 40
0.2142857142857143
 40
0.2142857142857143
 40
0.2142857142857143
 40
0.2142857142857143
 40
0.2857142857142857
 40
0.2857142857142857
 40
0.2857142857142857
 40
0.2857142857142857
 40
0.3571428571428572
 40
0.3571428571428572
 40
0.3571428571428572
 40
0.3571428571428572
 40
0.4285714285714285
 40
0.4285714285714285
 40
0.4285714285714285
 40
0.4285714285714285
 40
0.5
 40
0.5
 40
0.5
 40
0.5
 40
0.5714285714285714
 40
0.5714285714285714
 40
0.5714285714285714
 40
0.5714285714285714
 40
0.6428571428571429
 40
0.6428571428571429
 40
0.6428571428571429
 40
0.6428571428571429
 40
0.7142857142857143
 40
0.7142857142857143
 40
0.7142857142857143
 40
0.7142857142857143
 40
0.7857142857142857
 40
0.7857142857142857
 40
0.7857142857142857
 40
0.7857142857142857
 40
0.8571428571428571
 40
0.8571428571428571
 40
0.8571428571428571
 40
0.8571428571428571
 40
1.0
 40
1.0
 40
1.0
 40
1.0
 10
171.1128
 20
121.4436
 30
0.0
 10
169.2174
 20
122.2442
 30
0.0
 10
168.0111
 20
124.1297
 30
0.0
 10
168.0782
 20
126.1861
 30
0.0
 10
168.0782
 20
126.1861
 30
0.0
 10
168.0782
 20
126.1861
 30
0.0
 10
161.7928
 20
126.1861
 30
0.0
 10
161.7928
 20
126.1861
 30
0.0
 10
161.7928
 20
126.1861
 30
0.0
 10
162.8352
 20
125.1406
 30
0.0
 10
163.4589
 20
123.7499
 30
0.0
 10
163.5465
 20
122.2762
 30
0.0
 10
163.5465
 20
122.2762
 30
0.0
 10
163.5133
 20
121.0027
 30
0.0
 10
162.8804
 20
119.8197
 30
0.0
 10
161.8395
 20
119.0852
 30
0.0
 10
161.8395
 20
119.0852
 30
0.0
 10
160.7985
 20
118.351
 30
0.0
 10
159.4717
 20
118.1515
 30
0.0
 10
158.2608
 20
118.5475
 30
0.0
 10
158.2608
 20
118.5475
 30
0.0
 10
157.3912
 20
118.9073
 30
0.0
 10
156.9778
 20
119.9042
 30
0.0
 10
157.3378
 20
120.7739
 30
0.0
 10
157.3378
 20
120.7739
 30
0.0
 10
157.6977
 20
121.6437
 30
0.0
 10
158.6945
 20
122.057
 30
0.0
 10
159.5642
 20
121.697
 30
0.0
 10
159.5642
 20
121.697
 30
0.0
 10
159.9618
 20
122.1803
 30
0.0
 10
160.0169
 20
122.86
 30
0.0
 10
159.702
 20
123.4009
 30
0.0
 10
159.702
 20
123.4009
 30
0.0
 10
159.387
 20
123.9417
 30
0.0
 10
158.769
 20
124.2298
 30
0.0
 10
158.1523
 20
124.1226
 30
0.0
 10
158.1523
 20
124.1226
 30
0.0
 10
156.2835
 20
124.2069
 30
0.0
 10
154.6221
 20
122.9417
 30
0.0
 10
154.2062
 20
121.1177
 30
0.0
 10
154.2062
 20
121.1177
 30
0.0
 10
153.8979
 20
119.1482
 30
0.0
 10
154.8329
 20
117.1915
 30
0.0
 10
156.5593
 20
116.1942
 30
0.0
 10
156.5593
 20
116.1942
 30
0.0
 10
158.3702
 20
115.4521
 30
0.0
 10
160.4115
 20
115.5179
 30
0.0
 10
162.1707
 20
116.3752
 30
0.0
 10
162.1707
 20
116.3752
 30
0.0
 10
165.1433
 20
118.0794
 30
0.0
 10
168.1238
 20
119.7688
 30
0.0
 10
171.1128
 20
121.4436
 30
0.0
  0
SPLINE
  5
80
330
1F
100
AcDbEntity
  8
layer 1
 62
     7
370
     9
100
AcDbSpline
210
0.0
220
0.0
230
1.0
 70
    11
 71
     3
 72
    84
 73
    80
 74
     0
 42
0.0000000001
 43
0.0000000001
 12
1.0
 22
0.0
 32
0.0
 13
1.0
 23
0.0
 33
0.0
 40
0.0
 40
0.0
 40
0.0
 40
0.0
 40
0.0476190476190476
 40
0.0476190476190476
 40
0.0476190476190476
 40
0.0476190476190476
 40
0.0952380952380952
 40
0.0952380952380952
 40
0.0952380952380952
 40
0.0952380952380952
 40
0.1428571428571428
 40
0.1428571428571428
 40
0.1428571428571428
 40
0.1428571428571428
 40
0.1904761904761905
 40
0.1904761904761905
 40
0.1904761904761905
 40
0.1904761904761905
 40
0.2380952380952381
 40
0.2380952380952381
 40
0.2380952380952381
 40
0.2380952380952381
 40
0.2857142857142857
 40
0.2857142857142857
 40
0.2857142857142857
 40
0.2857142857142857
 40
0.3333333333333333
 40
0.3333333333333333
 40
0.3333333333333333
 40
0.3333333333333333
 40
0.3809523809523809
 40
0.3809523809523809
 40
0.3809523809523809
 40
0.3809523809523809
 40
0.4285714285714285
 40
0.4285714285714285
 40
0.4285714285714285
 40
0.4285714285714285
 40
0.4761904761904762
 40
0.4761904761904762
 40
0.4761904761904762
 40
0.4761904761904762
 40
0.5238095238095238
 40
0.5238095238095238
 40
0.5238095238095238
 40
0.5238095238095238
 40
0.5714285714285714
 40
0.5714285714285714
 40
0.5714285714285714
 40
0.5714285714285714
 40
0.6190476190476191
 40
0.6190476190476191
 40
0.6190476190476191
 40
0.6190476190476191
 40
0.6666666666666666
 40
0.6666666666666666
 40
0.6666666666666666
 40
0.6666666666666666
 40
0.7142857142857143
 40
0.7142857142857143
 40
0.7142857142857143
 40
0.7142857142857143
 40
0.7619047619047619
 40
0.7619047619047619
 40
0.7619047619047619
 40
0.7619047619047619
 40
0.8095238095238095
 40
0.8095238095238095
 40
0.8095238095238095
 40
0.8095238095238095
 40
0.8571428571428571
 40
0.8571428571428571
 40
0.8571428571428571
 40
0.8571428571428571
 40
0.9047619047619048
 40
0.9047619047619048
 40
0.9047619047619048
 40
0.9047619047619048
 40
1.0
 40
1.0
 40
1.0
 40
1.0
 10
153.2298
 20
126.1861
 30
0.0
 10
153.2298
 20
126.1861
 30
0.0
 10
136.7205
 20
126.1861
 30
0.0
 10
136.7205
 20
126.1861
 30
0.0
 10
136.7205
 20
126.1861
 30
0.0
 10
137.7921
 20
124.6597
 30
0.0
 10
138.245
 20
122.7838
 30
0.0
 10
137.9876
 20
120.9368
 30
0.0
 10
137.9876
 20
120.9368
 30
0.0
 10
139.0081
 20
121.9139
 30
0.0
 10
140.4342
 20
122.3444
 30
0.0
 10
141.8248
 20
122.0952
 30
0.0
 10
141.8248
 20
122.0952
 30
0.0
 10
142.0808
 20
120.8815
 30
0.0
 10
141.8038
 20
119.6161
 30
0.0
 10
141.0649
 20
118.6198
 30
0.0
 10
141.0649
 20
118.6198
 30
0.0
 10
141.9268
 20
118.8251
 30
0.0
 10
142.8348
 20
118.6019
 30
0.0
 10
143.5024
 20
118.02
 30
0.0
 10
143.5024
 20
118.02
 30
0.0
 10
144.1706
 20
117.4379
 30
0.0
 10
144.5169
 20
116.5692
 30
0.0
 10
144.4316
 20
115.6874
 30
0.0
 10
144.4316
 20
115.6874
 30
0.0
 10
143.4754
 20
116.3157
 30
0.0
 10
142.2378
 20
116.3157
 30
0.0
 10
141.2821
 20
115.6874
 30
0.0
 10
141.2821
 20
115.6874
 30
0.0
 10
140.1198
 20
115.0343
 30
0.0
 10
138.8406
 20
114.6162
 30
0.0
 10
137.5171
 20
114.4566
 30
0.0
 10
137.5171
 20
114.4566
 30
0.0
 10
137.5171
 20
114.4566
 30
0.0
 10
137.5171
 20
111.0536
 30
0.0
 10
137.5171
 20
111.0536
 30
0.0
 10
137.5171
 20
111.0536
 30
0.0
 10
138.5977
 20
111.3452
 30
0.0
 10
139.6287
 20
111.7967
 30
0.0
 10
140.5757
 20
112.393
 30
0.0
 10
140.5757
 20
112.393
 30
0.0
 10
141.6458
 20
113.0986
 30
0.0
 10
143.0138
 20
113.1706
 30
0.0
 10
144.1521
 20
112.581
 30
0.0
 10
144.1521
 20
112.581
 30
0.0
 10
145.2899
 20
111.9913
 30
0.0
 10
146.0203
 20
110.8322
 30
0.0
 10
146.0609
 20
109.5512
 30
0.0
 10
146.0609
 20
109.5512
 30
0.0
 10
144.8696
 20
110.0417
 30
0.0
 10
143.5627
 20
110.18
 30
0.0
 10
142.296
 20
109.9494
 30
0.0
 10
142.296
 20
109.9494
 30
0.0
 10
141.9173
 20
109.842
 30
0.0
 10
141.6167
 20
109.5539
 30
0.0
 10
141.4934
 20
109.1804
 30
0.0
 10
141.4934
 20
109.1804
 30
0.0
 10
141.3699
 20
108.8069
 30
0.0
 10
141.4402
 20
108.3965
 30
0.0
 10
141.6804
 20
108.085
 30
0.0
 10
141.6804
 20
108.085
 30
0.0
 10
142.6887
 20
106.8486
 30
0.0
 10
144.0974
 20
106.0037
 30
0.0
 10
145.6626
 20
105.6957
 30
0.0
 10
145.6626
 20
105.6957
 30
0.0
 10
151.5306
 20
105.1428
 30
0.0
 10
157.2675
 20
107.6621
 30
0.0
 10
160.8313
 20
112.3569
 30
0.0
 10
160.8313
 20
112.3569
 30
0.0
 10
157.2741
 20
111.2143
 30
0.0
 10
153.3995
 20
112.6832
 30
0.0
 10
151.4938
 20
115.8967
 30
0.0
 10
151.4938
 20
115.8967
 30
0.0
 10
149.5883
 20
119.1105
 30
0.0
 10
150.1579
 20
123.2148
 30
0.0
 10
152.8666
 20
125.7879
 30
0.0
 10
152.8666
 20
125.7879
 30
0.0
 10
152.9819
 20
125.926
 30
0.0
 10
153.103
 20
126.059
 30
0.0
 10
153.2298
 20
126.1861
 30
0.0
  0
SPLINE
  5
81
330
1F
100
AcDbEntity
  8
layer 1
 62
     7
370
     9
100
AcDbSpline
210
0.0
220
0.0
230
1.0
 70
    11
 71
     3
 72
    32
 73
    28
 74
     0
 42
0.0000000001
 43
0.0000000001
 12
1.0
 22
0.0
 32
0.0
 13
1.0
 23
0.0
 33
0.0
 40
0.0
 40
0.0
 40
0.0
 40
0.0
 40
0.125
 40
0.125
 40
0.125
 40
0.125
 40
0.25
 40
0.25
 40
0.25
 40
0.25
 40
0.375
 40
0.375
 40
0.375
 40
0.375
 40
0.5
 40
0.5
 40
0.5
 40
0.5
 40
0.625
 40
0.625
 40
0.625
 40
0.625
 40
0.75
 40
0.75
 40
0.75
 40
0.75
 40
1.0
 40
1.0
 40
1.0
 40
1.0
 10
189.3587
 20
35.8611
 30
0.0
 10
189.5035
 20
36.4436
 30
0.0
 10
189.5035
 20
37.0525
 30
0.0
 10
189.3587
 20
37.6355
 30
0.0
 10
189.3587
 20
37.6355
 30
0.0
 10
190.311
 20
37.3319
 30
0.0
 10
191.1296
 20
36.7089
 30
0.0
 10
191.6758
 20
35.8721
 30
0.0
 10
191.6758
 20
35.8721
 30
0.0
 10
191.6758
 20
35.8721
 30
0.0
 10
191.6758
 20
52.0663
 30
0.0
 10
191.6758
 20
52.0663
 30
0.0
 10
191.6758
 20
52.0663
 30
0.0
 10
189.9682
 20
47.2056
 30
0.0
 10
185.6417
 20
43.7411
 30
0.0
 10
180.5254
 20
43.1382
 30
0.0
 10
180.5254
 20
43.1382
 30
0.0
 10
182.705
 20
40.8361
 30
0.0
 10
184.4142
 20
38.1305
 30
0.0
 10
185.5575
 20
35.1733
 30
0.0
 10
185.5575
 20
35.1733
 30
0.0
 10
185.965
 20
34.3852
 30
0.0
 10
186.839
 20
33.9553
 30
0.0
 10
187.7121
 20
34.1133
 30
0.0
 10
187.7121
 20
34.1133
 30
0.0
 10
188.5853
 20
34.2713
 30
0.0
 10
189.2531
 20
34.9802
 30
0.0
 10
189.3587
 20
35.8611
 30
0.0
  0
SPLINE
  5
82
330
1F
100
AcDbEntity
  8
layer 1
 62
     7
370
     9
100
AcDbSpline
210
0.0
220
0.0
230
1.0
 70
    11
 71
     3
 72
    64
 73
    60
 74
     0
 42
0.0000000001
 43
0.0000000001
 12
1.0
 22
0.0
 32
0.0
 13
1.0
 23
0.0
 33
0.0
 40
0.0
 40
0.0
 40
0.0
 40
0.0
 40
0.0625
 40
0.0625
 40
0.0625
 40
0.0625
 40
0.125
 40
0.125
 40
0.125
 40
0.125
 40
0.1875
 40
0.1875
 40
0.1875
 40
0.1875
 40
0.25
 40
0.25
 40
0.25
 40
0.25
 40
0.3125
 40
0.3125
 40
0.3125
 40
0.3125
 40
0.375
 40
0.375
 40
0.375
 40
0.375
 40
0.4375
 40
0.4375
 40
0.4375
 40
0.4375
 40
0.5
 40
0.5
 40
0.5
 40
0.5
 40
0.5625
 40
0.5625
 40
0.5625
 40
0.5625
 40
0.625
 40
0.625
 40
0.625
 40
0.625
 40
0.6875
 40
0.6875
 40
0.6875
 40
0.6875
 40
0.75
 40
0.75
 40
0.75
 40
0.75
 40
0.8125
 40
0.8125
 40
0.8125
 40
0.8125
 40
0.875
 40
0.875
 40
0.875
 40
0.875
 40
1.0
 40
1.0
 40
1.0
 40
1.0
 10
189.395
 20
29.3811
 30
0.0
 10
190.3322
 20
29.6887
 30
0.0
 10
191.1367
 20
30.3062
 30
0.0
 10
191.6758
 20
31.1324
 30
0.0
 10
191.6758
 20
31.1324
 30
0.0
 10
191.6758
 20
31.1324
 30
0.0
 10
191.6758
 20
21.6515
 30
0.0
 10
191.6758
 20
21.6515
 30
0.0
 10
191.6758
 20
21.6515
 30
0.0
 10
190.8709
 20
23.1706
 30
0.0
 10
189.4058
 20
24.2296
 30
0.0
 10
187.7109
 20
24.517
 30
0.0
 10
187.7109
 20
24.517
 30
0.0
 10
186.0158
 20
24.804
 30
0.0
 10
184.2838
 20
24.2872
 30
0.0
 10
183.0233
 20
23.1179
 30
0.0
 10
183.0233
 20
23.1179
 30
0.0
 10
181.6108
 20
21.4574
 30
0.0
 10
181.4775
 20
19.0594
 30
0.0
 10
182.6974
 20
17.253
 30
0.0
 10
182.6974
 20
17.253
 30
0.0
 10
183.2639
 20
16.793
 30
0.0
 10
184.0412
 20
16.6912
 30
0.0
 10
184.7068
 20
16.9897
 30
0.0
 10
184.7068
 20
16.9897
 30
0.0
 10
185.3726
 20
17.2881
 30
0.0
 10
185.8137
 20
17.9363
 30
0.0
 10
185.8472
 20
18.6652
 30
0.0
 10
185.8472
 20
18.6652
 30
0.0
 10
185.3779
 20
19.1858
 30
0.0
 10
185.3726
 20
19.9751
 30
0.0
 10
185.8348
 20
20.5018
 30
0.0
 10
185.8348
 20
20.5018
 30
0.0
 10
186.2968
 20
21.0285
 30
0.0
 10
187.0801
 20
21.1258
 30
0.0
 10
187.6571
 20
20.7285
 30
0.0
 10
187.6571
 20
20.7285
 30
0.0
 10
189.5267
 20
19.4438
 30
0.0
 10
190.0939
 20
16.9375
 30
0.0
 10
188.9605
 20
14.9725
 30
0.0
 10
188.9605
 20
14.9725
 30
0.0
 10
188.1068
 20
13.7032
 30
0.0
 10
186.7275
 20
12.8855
 30
0.0
 10
185.2045
 20
12.745
 30
0.0
 10
185.2045
 20
12.745
 30
0.0
 10
183.6813
 20
12.6051
 30
0.0
 10
182.1759
 20
13.157
 30
0.0
 10
181.1047
 20
14.2486
 30
0.0
 10
181.1047
 20
14.2486
 30
0.0
 10
179.3388
 20
16.6249
 30
0.0
 10
178.9152
 20
19.7407
 30
0.0
 10
179.9823
 20
22.5024
 30
0.0
 10
179.9823
 20
22.5024
 30
0.0
 10
181.6101
 20
25.291
 30
0.0
 10
182.5297
 20
28.4356
 30
0.0
 10
182.6614
 20
31.6617
 30
0.0
 10
182.6614
 20
31.6617
 30
0.0
 10
184.0804
 20
29.4003
 30
0.0
 10
186.8935
 20
28.4475
 30
0.0
 10
189.395
 20
29.3811
 30
0.0
  0
SPLINE
  5
83
330
1F
100
AcDbEntity
  8
layer 1
 62
     7
370
     9
100
AcDbSpline
210
0.0
220
0.0
230
1.0
 70
    11
 71
     3
 72
    16
 73
    12
 74
     0
 42
0.0000000001
 43
0.0000000001
 12
1.0
 22
0.0
 32
0.0
 13
1.0
 23
0.0
 33
0.0
 40
0.0
 40
0.0
 40
0.0
 40
0.0
 40
0.25
 40
0.25
 40
0.25
 40
0.25
 40
0.5
 40
0.5
 40
0.5
 40
0.5
 40
1.0
 40
1.0
 40
1.0
 40
1.0
 10
184.7973
 20
68.6968
 30
0.0
 10
188.0027
 20
69.8276
 30
0.0
 10
190.529
 20
72.3413
 30
0.0
 10
191.6758
 20
75.5408
 30
0.0
 10
191.6758
 20
75.5408
 30
0.0
 10
191.6758
 20
75.5408
 30
0.0
 10
191.6758
 20
61.0108
 30
0.0
 10
191.6758
 20
61.0108
 30
0.0
 10
191.6758
 20
61.0108
 30
0.0
 10
190.4912
 20
64.3825
 30
0.0
 10
188.0173
 20
67.1466
 30
0.0
 10
184.7973
 20
68.6968
 30
0.0
  0
SPLINE
  5
84
330
1F
100
AcDbEntity
  8
layer 1
 62
     7
370
     9
100
AcDbSpline
210
0.0
220
0.0
230
1.0
 70
    11
 71
     3
 72
    16
 73
    12
 74
     0
 42
0.0000000001
 43
0.0000000001
 12
1.0
 22
0.0
 32
0.0
 13
1.0
 23
0.0
 33
0.0
 40
0.0
 40
0.0
 40
0.0
 40
0.0
 40
0.25
 40
0.25
 40
0.25
 40
0.25
 40
0.5
 40
0.5
 40
0.5
 40
0.5
 40
1.0
 40
1.0
 40
1.0
 40
1.0
 10
184.8697
 20
89.9838
 30
0.0
 10
187.7185
 20
91.9867
 30
0.0
 10
190.0512
 20
94.6375
 30
0.0
 10
191.6758
 20
97.7178
 30
0.0
 10
191.6758
 20
97.7178
 30
0.0
 10
191.6758
 20
97.7178
 30
0.0
 10
191.6758
 20
83.1653
 30
0.0
 10
191.6758
 20
83.1653
 30
0.0
 10
191.6758
 20
83.1653
 30
0.0
 10
190.538
 20
86.3397
 30
0.0
 10
188.0421
 20
88.8404
 30
0.0
 10
184.8697
 20
89.9838
 30
0.0
  0
SPLINE
  5
85
330
1F
100
AcDbEntity
  8
layer 1
 62
     7
370
     9
100
AcDbSpline
210
0.0
220
0.0
230
1.0
 70
    11
 71
     3
 72
    20
 73
    16
 74
     0
 42
0.0000000001
 43
0.0000000001
 12
1.0
 22
0.0
 32
0.0
 13
1.0
 23
0.0
 33
0.0
 40
0.0
 40
0.0
 40
0.0
 40
0.0
 40
0.2
 40
0.2
 40
0.2
 40
0.2
 40
0.4
 40
0.4
 40
0.4
 40
0.4
 40
0.6
 40
0.6
 40
0.6
 40
0.6
 40
1.0
 40
1.0
 40
1.0
 40
1.0
 10
149.5121
 20
20.7165
 30
0.0
 10
146.3574
 20
20.4702
 30
0.0
 10
143.4182
 20
19.0183
 30
0.0
 10
141.3062
 20
16.662
 30
0.0
 10
141.3062
 20
16.662
 30
0.0
 10
141.5299
 20
15.4024
 30
0.0
 10
141.5545
 20
14.1156
 30
0.0
 10
141.3785
 20
12.8484
 30
0.0
 10
141.3785
 20
12.8484
 30
0.0
 10
142.7219
 20
12.9076
 30
0.0
 10
144.0674
 20
12.8915
 30
0.0
 10
145.4088
 20
12.8002
 30
0.0
 10
145.4088
 20
12.8002
 30
0.0
 10
147.7342
 20
14.8209
 30
0.0
 10
149.2016
 20
17.6519
 30
0.0
 10
149.5121
 20
20.7165
 30
0.0
  0
SPLINE
  5
86
330
1F
100
AcDbEntity
  8
layer 1
 62
     7
370
     9
100
AcDbSpline
210
0.0
220
0.0
230
1.0
 70
    11
 71
     3
 72
    28
 73
    24
 74
     0
 42
0.0000000001
 43
0.0000000001
 12
1.0
 22
0.0
 32
0.0
 13
1.0
 23
0.0
 33
0.0
 40
0.0
 40
0.0
 40
0.0
 40
0.0
 40
0.1428571428571428
 40
0.1428571428571428
 40
0.1428571428571428
 40
0.1428571428571428
 40
0.2857142857142857
 40
0.2857142857142857
 40
0.2857142857142857
 40
0.2857142857142857
 40
0.4285714285714285
 40
0.4285714285714285
 40
0.4285714285714285
 40
0.4285714285714285
 40
0.5714285714285714
 40
0.5714285714285714
 40
0.5714285714285714
 40
0.5714285714285714
 40
0.7142857142857143
 40
0.7142857142857143
 40
0.7142857142857143
 40
0.7142857142857143
 40
1.0
 40
1.0
 40
1.0
 40
1.0
 10
136.2138
 20
14.7382
 30
0.0
 10
136.2213
 20
14.7517
 30
0.0
 10
136.2299
 20
14.7657
 30
0.0
 10
136.238
 20
14.7793
 30
0.0
 10
136.238
 20
14.7793
 30
0.0
 10
136.8921
 20
15.8473
 30
0.0
 10
137.8272
 20
16.7158
 30
0.0
 10
138.9408
 20
17.2896
 30
0.0
 10
138.9408
 20
17.2896
 30
0.0
 10
139.0397
 20
20.4752
 30
0.0
 10
138.0811
 20
23.6031
 30
0.0
 10
136.2138
 20
26.1861
 30
0.0
 10
136.2138
 20
26.1861
 30
0.0
 10
134.3467
 20
23.6031
 30
0.0
 10
133.3875
 20
20.4752
 30
0.0
 10
133.4864
 20
17.2896
 30
0.0
 10
133.4864
 20
17.2896
 30
0.0
 10
134.5999
 20
16.7158
 30
0.0
 10
135.5351
 20
15.8473
 30
0.0
 10
136.1898
 20
14.7793
 30
0.0
 10
136.1898
 20
14.7793
 30
0.0
 10
136.1977
 20
14.7657
 30
0.0
 10
136.2058
 20
14.7517
 30
0.0
 10
136.2138
 20
14.7382
 30
0.0
  0
SPLINE
  5
87
330
1F
100
AcDbEntity
  8
layer 1
 62
     7
370
     9
100
AcDbSpline
210
0.0
220
0.0
230
1.0
 70
    11
 71
     3
 72
    16
 73
    12
 74
     0
 42
0.0000000001
 43
0.0000000001
 12
1.0
 22
0.0
 32
0.0
 13
1.0
 23
0.0
 33
0.0
 40
0.0
 40
0.0
 40
0.0
 40
0.0
 40
0.25
 40
0.25
 40
0.25
 40
0.25
 40
0.5
 40
0.5
 40
0.5
 40
0.5
 40
1.0
 40
1.0
 40
1.0
 40
1.0
 10
138.6856
 20
14.4137
 30
0.0
 10
138.9188
 20
13.2251
 30
0.0
 10
138.7483
 20
11.9921
 30
0.0
 10
138.2014
 20
10.9111
 30
0.0
 10
138.2014
 20
10.9111
 30
0.0
 10
137.7268
 20
11.2562
 30
0.0
 10
137.1595
 20
11.4804
 30
0.0
 10
136.544
 20
11.5392
 30
0.0
 10
136.544
 20
11.5392
 30
0.0
 10
136.7596
 20
12.7837
 30
0.0
 10
137.5553
 20
13.8512
 30
0.0
 10
138.6856
 20
14.4137
 30
0.0
  0
SPLINE
  5
88
330
1F
100
AcDbEntity
  8
layer 1
 62
     7
370
     9
100
AcDbSpline
210
0.0
220
0.0
230
1.0
 70
    11
 71
     3
 72
    16
 73
    12
 74
     0
 42
0.0000000001
 43
0.0000000001
 12
1.0
 22
0.0
 32
0.0
 13
1.0
 23
0.0
 33
0.0
 40
0.0
 40
0.0
 40
0.0
 40
0.0
 40
0.25
 40
0.25
 40
0.25
 40
0.25
 40
0.5
 40
0.5
 40
0.5
 40
0.5
 40
1.0
 40
1.0
 40
1.0
 40
1.0
 10
142.4093
 20
10.7315
 30
0.0
 10
141.8089
 20
9.6554
 30
0.0
 10
140.776
 20
8.8878
 30
0.0
 10
139.5725
 20
8.624
 30
0.0
 10
139.5725
 20
8.624
 30
0.0
 10
139.4872
 20
9.2581
 30
0.0
 10
139.2254
 20
9.838
 30
0.0
 10
138.8386
 20
10.31
 30
0.0
 10
138.8386
 20
10.31
 30
0.0
 10
139.9532
 20
10.8287
 30
0.0
 10
141.2048
 20
10.9768
 30
0.0
 10
142.4093
 20
10.7315
 30
0.0
  0
SPLINE
  5
89
330
1F
100
AcDbEntity
  8
layer 1
 62
     7
370
     9
100
AcDbSpline
210
0.0
220
0.0
230
1.0
 70
    27
 71
     3
 72
     8
 73
     4
 74
     0
 42
0.0000000001
 43
0.0000000001
 12
1.0
 22
0.0
 32
0.0
 13
1.0
 23
0.0
 33
0.0
 40
0.0
 40
0.0
 40
0.0
 40
0.0
 40
1.0
 40
1.0
 40
1.0
 40
1.0
 10
139.6031
 20
8.1664
 30
0.0
 10
139.6031
 20
8.163
 30
0.0
 10
139.6031
 20
8.165
 30
0.0
 10
139.6031
 20
8.1664
 30
0.0
  0
SPLINE
  5
8A
330
1F
100
AcDbEntity
  8
layer 1
 62
     7
370
     9
100
AcDbSpline
210
0.0
220
0.0
230
1.0
 70
    11
 71
     3
 72
    20
 73
    16
 74
     0
 42
0.0000000001
 43
0.0000000001
 12
1.0
 22
0.0
 32
0.0
 13
1.0
 23
0.0
 33
0.0
 40
0.0
 40
0.0
 40
0.0
 40
0.0
 40
0.2
 40
0.2
 40
0.2
 40
0.2
 40
0.4
 40
0.4
 40
0.4
 40
0.4
 40
0.6
 40
0.6
 40
0.6
 40
0.6
 40
1.0
 40
1.0
 40
1.0
 40
1.0
 10
147.8709
 20
40.2175
 30
0.0
 10
144.5163
 20
36.0377
 30
0.0
 10
141.9614
 20
31.2749
 30
0.0
 10
140.334
 20
26.168
 30
0.0
 10
140.334
 20
26.168
 30
0.0
 10
141.2124
 20
24.4825
 30
0.0
 10
141.9417
 20
22.7226
 30
0.0
 10
142.5127
 20
20.9096
 30
0.0
 10
142.5127
 20
20.9096
 30
0.0
 10
142.5127
 20
20.9096
 30
0.0
 10
142.6095
 20
20.5715
 30
0.0
 10
142.6095
 20
20.5715
 30
0.0
 10
142.6095
 20
20.5715
 30
0.0
 10
146.1552
 20
26.5036
 30
0.0
 10
147.9774
 20
33.3072
 30
0.0
 10
147.8709
 20
40.2175
 30
0.0
  0
SPLINE
  5
8B
330
1F
100
AcDbEntity
  8
layer 1
 62
     7
370
     9
100
AcDbSpline
210
0.0
220
0.0
230
1.0
 70
    11
 71
     3
 72
    20
 73
    16
 74
     0
 42
0.0000000001
 43
0.0000000001
 12
1.0
 22
0.0
 32
0.0
 13
1.0
 23
0.0
 33
0.0
 40
0.0
 40
0.0
 40
0.0
 40
0.0
 40
0.2
 40
0.2
 40
0.2
 40
0.2
 40
0.4
 40
0.4
 40
0.4
 40
0.4
 40
0.6
 40
0.6
 40
0.6
 40
0.6
 40
1.0
 40
1.0
 40
1.0
 40
1.0
 10
136.2138
 20
29.3084
 30
0.0
 10
136.9352
 20
29.2953
 30
0.0
 10
137.6536
 20
29.203
 30
0.0
 10
138.355
 20
29.032
 30
0.0
 10
138.355
 20
29.032
 30
0.0
 10
137.7675
 20
30.1908
 30
0.0
 10
137.0491
 20
31.2779
 30
0.0
 10
136.2138
 20
32.2728
 30
0.0
 10
136.2138
 20
32.2728
 30
0.0
 10
135.3781
 20
31.2779
 30
0.0
 10
134.6597
 20
30.1908
 30
0.0
 10
134.0722
 20
29.032
 30
0.0
 10
134.0722
 20
29.032
 30
0.0
 10
134.7736
 20
29.203
 30
0.0
 10
135.492
 20
29.2953
 30
0.0
 10
136.2138
 20
29.3084
 30
0.0
  0
SPLINE
  5
8C
330
1F
100
AcDbEntity
  8
layer 1
 62
     7
370
     9
100
AcDbSpline
210
0.0
220
0.0
230
1.0
 70
    11
 71
     3
 72
    24
 73
    20
 74
     0
 42
0.0000000001
 43
0.0000000001
 12
1.0
 22
0.0
 32
0.0
 13
1.0
 23
0.0
 33
0.0
 40
0.0
 40
0.0
 40
0.0
 40
0.0
 40
0.1666666666666667
 40
0.1666666666666667
 40
0.1666666666666667
 40
0.1666666666666667
 40
0.3333333333333333
 40
0.3333333333333333
 40
0.3333333333333333
 40
0.3333333333333333
 40
0.5
 40
0.5
 40
0.5
 40
0.5
 40
0.6666666666666666
 40
0.6666666666666666
 40
0.6666666666666666
 40
0.6666666666666666
 40
1.0
 40
1.0
 40
1.0
 40
1.0
 10
136.8655
 20
54.6502
 30
0.0
 10
139.4792
 20
52.8226
 30
0.0
 10
141.7367
 20
50.5326
 30
0.0
 10
143.5266
 20
47.8923
 30
0.0
 10
143.5266
 20
47.8923
 30
0.0
 10
141.4612
 20
43.9158
 30
0.0
 10
139.5925
 20
39.8402
 30
0.0
 10
137.9271
 20
35.6805
 30
0.0
 10
137.9271
 20
35.6805
 30
0.0
 10
136.8921
 20
40.1903
 30
0.0
 10
138.3248
 20
44.9115
 30
0.0
 10
141.6925
 20
48.0856
 30
0.0
 10
141.6925
 20
48.0856
 30
0.0
 10
141.6925
 20
48.0856
 30
0.0
 10
137.8307
 20
48.0856
 30
0.0
 10
137.8307
 20
48.0856
 30
0.0
 10
137.8307
 20
48.0856
 30
0.0
 10
138.2019
 20
50.3209
 30
0.0
 10
137.8644
 20
52.6166
 30
0.0
 10
136.8655
 20
54.6502
 30
0.0
  0
SPLINE
  5
8D
330
1F
100
AcDbEntity
  8
layer 1
 62
     7
370
     9
100
AcDbSpline
210
0.0
220
0.0
230
1.0
 70
    11
 71
     3
 72
    16
 73
    12
 74
     0
 42
0.0000000001
 43
0.0000000001
 12
1.0
 22
0.0
 32
0.0
 13
1.0
 23
0.0
 33
0.0
 40
0.0
 40
0.0
 40
0.0
 40
0.0
 40
0.25
 40
0.25
 40
0.25
 40
0.25
 40
0.5
 40
0.5
 40
0.5
 40
0.5
 40
1.0
 40
1.0
 40
1.0
 40
1.0
 10
145.6505
 20
45.0444
 30
0.0
 10
146.2104
 20
44.6818
 30
0.0
 10
146.6875
 20
44.2047
 30
0.0
 10
147.0502
 20
43.6449
 30
0.0
 10
147.0502
 20
43.6449
 30
0.0
 10
145.1349
 20
41.2243
 30
0.0
 10
143.1719
 20
38.8424
 30
0.0
 10
141.1612
 20
36.5007
 30
0.0
 10
141.1612
 20
36.5007
 30
0.0
 10
142.5462
 20
39.4058
 30
0.0
 10
144.0438
 20
42.2557
 30
0.0
 10
145.6505
 20
45.0444
 30
0.0
  0
SPLINE
  5
8E
330
1F
100
AcDbEntity
  8
layer 1
 62
     7
370
     9
100
AcDbSpline
210
0.0
220
0.0
230
1.0
 70
    11
 71
     3
 72
    76
 73
    72
 74
     0
 42
0.0000000001
 43
0.0000000001
 12
1.0
 22
0.0
 32
0.0
 13
1.0
 23
0.0
 33
0.0
 40
0.0
 40
0.0
 40
0.0
 40
0.0
 40
0.0526315789473684
 40
0.0526315789473684
 40
0.0526315789473684
 40
0.0526315789473684
 40
0.1052631578947368
 40
0.1052631578947368
 40
0.1052631578947368
 40
0.1052631578947368
 40
0.1578947368421053
 40
0.1578947368421053
 40
0.1578947368421053
 40
0.1578947368421053
 40
0.2105263157894737
 40
0.2105263157894737
 40
0.2105263157894737
 40
0.2105263157894737
 40
0.2631578947368421
 40
0.2631578947368421
 40
0.2631578947368421
 40
0.2631578947368421
 40
0.3157894736842105
 40
0.3157894736842105
 40
0.3157894736842105
 40
0.3157894736842105
 40
0.3684210526315789
 40
0.3684210526315789
 40
0.3684210526315789
 40
0.3684210526315789
 40
0.4210526315789473
 40
0.4210526315789473
 40
0.4210526315789473
 40
0.4210526315789473
 40
0.4736842105263158
 40
0.4736842105263158
 40
0.4736842105263158
 40
0.4736842105263158
 40
0.5263157894736842
 40
0.5263157894736842
 40
0.5263157894736842
 40
0.5263157894736842
 40
0.5789473684210527
 40
0.5789473684210527
 40
0.5789473684210527
 40
0.5789473684210527
 40
0.631578947368421
 40
0.631578947368421
 40
0.631578947368421
 40
0.631578947368421
 40
0.6842105263157895
 40
0.6842105263157895
 40
0.6842105263157895
 40
0.6842105263157895
 40
0.7368421052631579
 40
0.7368421052631579
 40
0.7368421052631579
 40
0.7368421052631579
 40
0.7894736842105263
 40
0.7894736842105263
 40
0.7894736842105263
 40
0.7894736842105263
 40
0.8421052631578947
 40
0.8421052631578947
 40
0.8421052631578947
 40
0.8421052631578947
 40
0.8947368421052632
 40
0.8947368421052632
 40
0.8947368421052632
 40
0.8947368421052632
 40
1.0
 40
1.0
 40
1.0
 40
1.0
 10
136.2138
 20
83.8424
 30
0.0
 10
140.6456
 20
80.1843
 30
0.0
 10
142.7816
 20
74.4338
 30
0.0
 10
141.8129
 20
68.769
 30
0.0
 10
141.8129
 20
68.769
 30
0.0
 10
140.7073
 20
69.083
 30
0.0
 10
139.8172
 20
69.9052
 30
0.0
 10
139.4169
 20
70.9828
 30
0.0
 10
139.4169
 20
70.9828
 30
0.0
 10
139.0166
 20
72.0599
 30
0.0
 10
139.1536
 20
73.2639
 30
0.0
 10
139.7857
 20
74.2235
 30
0.0
 10
139.7857
 20
74.2235
 30
0.0
 10
140.1514
 20
75.0879
 30
0.0
 10
139.9728
 20
76.0868
 30
0.0
 10
139.3306
 20
76.771
 30
0.0
 10
139.3306
 20
76.771
 30
0.0
 10
138.688
 20
77.4552
 30
0.0
 10
137.7028
 20
77.6961
 30
0.0
 10
136.8169
 20
77.3855
 30
0.0
 10
136.8169
 20
77.3855
 30
0.0
 10
137.5488
 20
76.4704
 30
0.0
 10
137.7153
 20
75.2269
 30
0.0
 10
137.2513
 20
74.1512
 30
0.0
 10
137.2513
 20
74.1512
 30
0.0
 10
136.6357
 20
72.3573
 30
0.0
 10
136.6016
 20
70.4144
 30
0.0
 10
137.1549
 20
68.6005
 30
0.0
 10
137.1549
 20
68.6005
 30
0.0
 10
137.8086
 20
67.3363
 30
0.0
 10
138.9654
 20
66.4071
 30
0.0
 10
140.3405
 20
66.042
 30
0.0
 10
140.3405
 20
66.042
 30
0.0
 10
139.7952
 20
63.4965
 30
0.0
 10
138.3244
 20
61.2446
 30
0.0
 10
136.2138
 20
59.722
 30
0.0
 10
136.2138
 20
59.722
 30
0.0
 10
134.1028
 20
61.2446
 30
0.0
 10
132.632
 20
63.4965
 30
0.0
 10
132.0867
 20
66.042
 30
0.0
 10
132.0867
 20
66.042
 30
0.0
 10
133.4618
 20
66.4071
 30
0.0
 10
134.6186
 20
67.3363
 30
0.0
 10
135.2727
 20
68.6005
 30
0.0
 10
135.2727
 20
68.6005
 30
0.0
 10
135.8256
 20
70.4144
 30
0.0
 10
135.7919
 20
72.3573
 30
0.0
 10
135.1759
 20
74.1512
 30
0.0
 10
135.1759
 20
74.1512
 30
0.0
 10
134.7119
 20
75.2269
 30
0.0
 10
134.8789
 20
76.4704
 30
0.0
 10
135.6103
 20
77.3855
 30
0.0
 10
135.6103
 20
77.3855
 30
0.0
 10
134.7244
 20
77.6961
 30
0.0
 10
133.7392
 20
77.4552
 30
0.0
 10
133.0966
 20
76.771
 30
0.0
 10
133.0966
 20
76.771
 30
0.0
 10
132.4544
 20
76.0868
 30
0.0
 10
132.2758
 20
75.0879
 30
0.0
 10
132.6415
 20
74.2235
 30
0.0
 10
132.6415
 20
74.2235
 30
0.0
 10
133.274
 20
73.2639
 30
0.0
 10
133.4106
 20
72.0599
 30
0.0
 10
133.0103
 20
70.9828
 30
0.0
 10
133.0103
 20
70.9828
 30
0.0
 10
132.61
 20
69.9052
 30
0.0
 10
131.7199
 20
69.083
 30
0.0
 10
130.6143
 20
68.769
 30
0.0
 10
130.6143
 20
68.769
 30
0.0
 10
129.6456
 20
74.4338
 30
0.0
 10
131.7816
 20
80.1843
 30
0.0
 10
136.2138
 20
83.8424
 30
0.0
  0
SPLINE
  5
8F
330
1F
100
AcDbEntity
  8
layer 1
 62
     7
370
     9
100
AcDbSpline
210
0.0
220
0.0
230
1.0
 70
    11
 71
     3
 72
    16
 73
    12
 74
     0
 42
0.0000000001
 43
0.0000000001
 12
1.0
 22
0.0
 32
0.0
 13
1.0
 23
0.0
 33
0.0
 40
0.0
 40
0.0
 40
0.0
 40
0.0
 40
0.25
 40
0.25
 40
0.25
 40
0.25
 40
0.5
 40
0.5
 40
0.5
 40
0.5
 40
1.0
 40
1.0
 40
1.0
 40
1.0
 10
137.3962
 20
96.5486
 30
0.0
 10
138.7005
 20
93.612
 30
0.0
 10
140.7669
 20
91.0786
 30
0.0
 10
143.3815
 20
89.2114
 30
0.0
 10
143.3815
 20
89.2114
 30
0.0
 10
141.5178
 20
88.8935
 30
0.0
 10
139.6662
 20
88.507
 30
0.0
 10
137.8307
 20
88.053
 30
0.0
 10
137.8307
 20
88.053
 30
0.0
 10
137.5236
 20
90.8743
 30
0.0
 10
137.3787
 20
93.7107
 30
0.0
 10
137.3962
 20
96.5486
 30
0.0
  0
SPLINE
  5
90
330
1F
100
AcDbEntity
  8
layer 1
 62
     7
370
     9
100
AcDbSpline
210
0.0
220
0.0
230
1.0
 70
    11
 71
     3
 72
    56
 73
    52
 74
     0
 42
0.0000000001
 43
0.0000000001
 12
1.0
 22
0.0
 32
0.0
 13
1.0
 23
0.0
 33
0.0
 40
0.0
 40
0.0
 40
0.0
 40
0.0
 40
0.0714285714285714
 40
0.0714285714285714
 40
0.0714285714285714
 40
0.0714285714285714
 40
0.1428571428571428
 40
0.1428571428571428
 40
0.1428571428571428
 40
0.1428571428571428
 40
0.2142857142857143
 40
0.2142857142857143
 40
0.2142857142857143
 40
0.2142857142857143
 40
0.2857142857142857
 40
0.2857142857142857
 40
0.2857142857142857
 40
0.2857142857142857
 40
0.3571428571428572
 40
0.3571428571428572
 40
0.3571428571428572
 40
0.3571428571428572
 40
0.4285714285714285
 40
0.4285714285714285
 40
0.4285714285714285
 40
0.4285714285714285
 40
0.5
 40
0.5
 40
0.5
 40
0.5
 40
0.5714285714285714
 40
0.5714285714285714
 40
0.5714285714285714
 40
0.5714285714285714
 40
0.6428571428571429
 40
0.6428571428571429
 40
0.6428571428571429
 40
0.6428571428571429
 40
0.7142857142857143
 40
0.7142857142857143
 40
0.7142857142857143
 40
0.7142857142857143
 40
0.7857142857142857
 40
0.7857142857142857
 40
0.7857142857142857
 40
0.7857142857142857
 40
0.8571428571428571
 40
0.8571428571428571
 40
0.8571428571428571
 40
0.8571428571428571
 40
1.0
 40
1.0
 40
1.0
 40
1.0
 10
152.3116
 20
101.1824
 30
0.0
 10
151.7125
 20
99.1498
 30
0.0
 10
152.1781
 20
96.9523
 30
0.0
 10
153.5498
 20
95.337
 30
0.0
 10
153.5498
 20
95.337
 30
0.0
 10
154.9217
 20
93.7222
 30
0.0
 10
157.015
 20
92.9072
 30
0.0
 10
159.1176
 20
93.1696
 30
0.0
 10
159.1176
 20
93.1696
 30
0.0
 10
160.3982
 20
93.368
 30
0.0
 10
161.5005
 20
94.1808
 30
0.0
 10
162.0684
 20
95.3453
 30
0.0
 10
162.0684
 20
95.3453
 30
0.0
 10
162.6365
 20
96.5101
 30
0.0
 10
162.5981
 20
97.8791
 30
0.0
 10
161.9655
 20
99.0103
 30
0.0
 10
161.9655
 20
99.0103
 30
0.0
 10
161.3032
 20
98.1576
 30
0.0
 10
160.265
 20
97.6834
 30
0.0
 10
159.1868
 20
97.7411
 30
0.0
 10
159.1868
 20
97.7411
 30
0.0
 10
158.1084
 20
97.799
 30
0.0
 10
157.127
 20
98.3812
 30
0.0
 10
156.5593
 20
99.2998
 30
0.0
 10
156.5593
 20
99.2998
 30
0.0
 10
156.3206
 20
100.5397
 30
0.0
 10
156.7087
 20
101.8174
 30
0.0
 10
157.5966
 20
102.7148
 30
0.0
 10
157.5966
 20
102.7148
 30
0.0
 10
158.4845
 20
103.6124
 30
0.0
 10
159.7581
 20
104.0143
 30
0.0
 10
161.0002
 20
103.7889
 30
0.0
 10
161.0002
 20
103.7889
 30
0.0
 10
163.1052
 20
103.4169
 30
0.0
 10
164.8667
 20
101.9796
 30
0.0
 10
165.6539
 20
99.9919
 30
0.0
 10
165.6539
 20
99.9919
 30
0.0
 10
166.441
 20
98.0045
 30
0.0
 10
166.1413
 20
95.751
 30
0.0
 10
164.8619
 20
94.0384
 30
0.0
 10
164.8619
 20
94.0384
 30
0.0
 10
163.0719
 20
92.0
 30
0.0
 10
160.6942
 20
90.5664
 30
0.0
 10
158.0557
 20
89.9355
 30
0.0
 10
158.0557
 20
89.9355
 30
0.0
 10
150.026
 20
88.3023
 30
0.0
 10
142.0808
 20
93.082
 30
0.0
 10
139.7616
 20
100.941
 30
0.0
 10
139.7616
 20
100.941
 30
0.0
 10
143.679
 20
98.7388
 30
0.0
 10
148.4818
 20
98.8311
 30
0.0
 10
152.3116
 20
101.1824
 30
0.0
  0
SPLINE
  5
91
330
1F
100
AcDbEntity
  8
layer 1
 62
     7
370
     9
100
AcDbSpline
210
0.0
220
0.0
230
1.0
 70
    11
 71
     3
 72
    40
 73
    36
 74
     0
 42
0.0000000001
 43
0.0000000001
 12
1.0
 22
0.0
 32
0.0
 13
1.0
 23
0.0
 33
0.0
 40
0.0
 40
0.0
 40
0.0
 40
0.0
 40
0.1
 40
0.1
 40
0.1
 40
0.1
 40
0.2
 40
0.2
 40
0.2
 40
0.2
 40
0.3
 40
0.3
 40
0.3
 40
0.3
 40
0.4
 40
0.4
 40
0.4
 40
0.4
 40
0.5
 40
0.5
 40
0.5
 40
0.5
 40
0.6
 40
0.6
 40
0.6
 40
0.6
 40
0.7
 40
0.7
 40
0.7
 40
0.7
 40
0.8
 40
0.8
 40
0.8
 40
0.8
 40
1.0
 40
1.0
 40
1.0
 40
1.0
 10
168.3371
 20
92.1076
 30
0.0
 10
168.5782
 20
91.4394
 30
0.0
 10
169.0937
 20
90.9064
 30
0.0
 10
169.7533
 20
90.6435
 30
0.0
 10
169.7533
 20
90.6435
 30
0.0
 10
170.4132
 20
90.3806
 30
0.0
 10
171.1542
 20
90.4128
 30
0.0
 10
171.7884
 20
90.7321
 30
0.0
 10
171.7884
 20
90.7321
 30
0.0
 10
171.4982
 20
91.5033
 30
0.0
 10
171.3511
 20
92.3213
 30
0.0
 10
171.354
 20
93.1456
 30
0.0
 10
171.354
 20
93.1456
 30
0.0
 10
171.3487
 20
93.3542
 30
0.0
 10
171.4598
 20
93.5486
 30
0.0
 10
171.6422
 20
93.6498
 30
0.0
 10
171.6422
 20
93.6498
 30
0.0
 10
171.825
 20
93.7512
 30
0.0
 10
172.0485
 20
93.7429
 30
0.0
 10
172.2228
 20
93.6282
 30
0.0
 10
172.2228
 20
93.6282
 30
0.0
 10
173.1479
 20
93.0955
 30
0.0
 10
173.7118
 20
92.1038
 30
0.0
 10
173.6968
 20
91.0365
 30
0.0
 10
173.6968
 20
91.0365
 30
0.0
 10
173.6817
 20
89.9693
 30
0.0
 10
173.09
 20
88.9938
 30
0.0
 10
172.1506
 20
88.4876
 30
0.0
 10
172.1506
 20
88.4876
 30
0.0
 10
168.19
 20
86.8849
 30
0.0
 10
163.8656
 20
86.4007
 30
0.0
 10
159.6487
 20
87.0876
 30
0.0
 10
159.6487
 20
87.0876
 30
0.0
 10
162.8865
 20
88.084
 30
0.0
 10
165.8567
 20
89.8002
 30
0.0
 10
168.3371
 20
92.1076
 30
0.0
  0
SPLINE
  5
92
330
1F
100
AcDbEntity
  8
layer 1
 62
     7
370
     9
100
AcDbSpline
210
0.0
220
0.0
230
1.0
 70
    11
 71
     3
 72
    32
 73
    28
 74
     0
 42
0.0000000001
 43
0.0000000001
 12
1.0
 22
0.0
 32
0.0
 13
1.0
 23
0.0
 33
0.0
 40
0.0
 40
0.0
 40
0.0
 40
0.0
 40
0.125
 40
0.125
 40
0.125
 40
0.125
 40
0.25
 40
0.25
 40
0.25
 40
0.25
 40
0.375
 40
0.375
 40
0.375
 40
0.375
 40
0.5
 40
0.5
 40
0.5
 40
0.5
 40
0.625
 40
0.625
 40
0.625
 40
0.625
 40
0.75
 40
0.75
 40
0.75
 40
0.75
 40
1.0
 40
1.0
 40
1.0
 40
1.0
 10
169.9301
 20
82.9847
 30
0.0
 10
168.5004
 20
80.4291
 30
0.0
 10
168.2314
 20
77.3845
 30
0.0
 10
169.1904
 20
74.6174
 30
0.0
 10
169.1904
 20
74.6174
 30
0.0
 10
170.1497
 20
71.8512
 30
0.0
 10
172.2456
 20
69.6258
 30
0.0
 10
174.9503
 20
68.5036
 30
0.0
 10
174.9503
 20
68.5036
 30
0.0
 10
173.5307
 20
67.717
 30
0.0
 10
172.1304
 20
66.8963
 30
0.0
 10
170.7506
 20
66.042
 30
0.0
 10
170.7506
 20
66.042
 30
0.0
 10
170.9238
 20
68.8277
 30
0.0
 10
169.6131
 20
71.4976
 30
0.0
 10
167.3031
 20
73.0637
 30
0.0
 10
167.3031
 20
73.0637
 30
0.0
 10
164.9931
 20
74.6303
 30
0.0
 10
162.0276
 20
74.8601
 30
0.0
 10
159.5039
 20
73.6687
 30
0.0
 10
159.5039
 20
73.6687
 30
0.0
 10
159.6803
 20
76.9826
 30
0.0
 10
158.7085
 20
80.2554
 30
0.0
 10
156.7526
 20
82.9364
 30
0.0
 10
156.7526
 20
82.9364
 30
0.0
 10
161.0874
 20
81.9135
 30
0.0
 10
165.6027
 20
81.93
 30
0.0
 10
169.9301
 20
82.9847
 30
0.0
  0
SPLINE
  5
93
330
1F
100
AcDbEntity
  8
layer 1
 62
     7
370
     9
100
AcDbSpline
210
0.0
220
0.0
230
1.0
 70
    11
 71
     3
 72
    60
 73
    56
 74
     0
 42
0.0000000001
 43
0.0000000001
 12
1.0
 22
0.0
 32
0.0
 13
1.0
 23
0.0
 33
0.0
 40
0.0
 40
0.0
 40
0.0
 40
0.0
 40
0.0666666666666667
 40
0.0666666666666667
 40
0.0666666666666667
 40
0.0666666666666667
 40
0.1333333333333333
 40
0.1333333333333333
 40
0.1333333333333333
 40
0.1333333333333333
 40
0.2
 40
0.2
 40
0.2
 40
0.2
 40
0.2666666666666667
 40
0.2666666666666667
 40
0.2666666666666667
 40
0.2666666666666667
 40
0.3333333333333333
 40
0.3333333333333333
 40
0.3333333333333333
 40
0.3333333333333333
 40
0.4
 40
0.4
 40
0.4
 40
0.4
 40
0.4666666666666667
 40
0.4666666666666667
 40
0.4666666666666667
 40
0.4666666666666667
 40
0.5333333333333333
 40
0.5333333333333333
 40
0.5333333333333333
 40
0.5333333333333333
 40
0.6
 40
0.6
 40
0.6
 40
0.6
 40
0.6666666666666666
 40
0.6666666666666666
 40
0.6666666666666666
 40
0.6666666666666666
 40
0.7333333333333333
 40
0.7333333333333333
 40
0.7333333333333333
 40
0.7333333333333333
 40
0.8
 40
0.8
 40
0.8
 40
0.8
 40
0.8666666666666667
 40
0.8666666666666667
 40
0.8666666666666667
 40
0.8666666666666667
 40
1.0
 40
1.0
 40
1.0
 40
1.0
 10
179.3909
 20
81.2227
 30
0.0
 10
178.9671
 20
82.362
 30
0.0
 10
177.8535
 20
83.0947
 30
0.0
 10
176.6397
 20
83.0329
 30
0.0
 10
176.6397
 20
83.0329
 30
0.0
 10
175.2236
 20
82.8698
 30
0.0
 10
173.9479
 20
82.1011
 30
0.0
 10
173.1426
 20
80.9252
 30
0.0
 10
173.1426
 20
80.9252
 30
0.0
 10
172.3369
 20
79.7493
 30
0.0
 10
172.0808
 20
78.2819
 30
0.0
 10
172.4403
 20
76.9029
 30
0.0
 10
172.4403
 20
76.9029
 30
0.0
 10
173.6658
 20
72.9674
 30
0.0
 10
177.7696
 20
70.6923
 30
0.0
 10
181.7563
 20
71.7378
 30
0.0
 10
181.7563
 20
71.7378
 30
0.0
 10
185.9756
 20
73.149
 30
0.0
 10
188.2921
 20
77.675
 30
0.0
 10
186.9694
 20
81.923
 30
0.0
 10
186.9694
 20
81.923
 30
0.0
 10
185.4471
 20
85.4153
 30
0.0
 10
181.5013
 20
87.1574
 30
0.0
 10
177.8946
 20
85.929
 30
0.0
 10
177.8946
 20
85.929
 30
0.0
 10
179.0305
 20
85.7703
 30
0.0
 10
180.109
 20
85.3305
 30
0.0
 10
181.0322
 20
84.6499
 30
0.0
 10
181.0322
 20
84.6499
 30
0.0
 10
183.4216
 20
82.7993
 30
0.0
 10
184.1958
 20
79.532
 30
0.0
 10
182.8906
 20
76.806
 30
0.0
 10
182.8906
 20
76.806
 30
0.0
 10
182.1884
 20
75.6407
 30
0.0
 10
180.9257
 20
74.9304
 30
0.0
 10
179.5652
 20
74.9349
 30
0.0
 10
179.5652
 20
74.9349
 30
0.0
 10
178.2046
 20
74.9399
 30
0.0
 10
176.947
 20
75.6597
 30
0.0
 10
176.2534
 20
76.8302
 30
0.0
 10
176.2534
 20
76.8302
 30
0.0
 10
175.9352
 20
77.4488
 30
0.0
 10
176.0077
 20
78.1962
 30
0.0
 10
176.4392
 20
78.7425
 30
0.0
 10
176.4392
 20
78.7425
 30
0.0
 10
176.8705
 20
79.2883
 30
0.0
 10
177.5812
 20
79.5311
 30
0.0
 10
178.2568
 20
79.3645
 30
0.0
 10
178.2568
 20
79.3645
 30
0.0
 10
178.7265
 20
79.2943
 30
0.0
 10
179.1925
 20
79.512
 30
0.0
 10
179.4398
 20
79.9178
 30
0.0
 10
179.4398
 20
79.9178
 30
0.0
 10
179.6872
 20
80.3233
 30
0.0
 10
179.668
 20
80.8369
 30
0.0
 10
179.3909
 20
81.2227
 30
0.0
  0
SPLINE
  5
94
330
1F
100
AcDbEntity
  8
layer 1
 62
     7
370
     9
100
AcDbSpline
210
0.0
220
0.0
230
1.0
 70
    11
 71
     3
 72
    92
 73
    88
 74
     0
 42
0.0000000001
 43
0.0000000001
 12
1.0
 22
0.0
 32
0.0
 13
1.0
 23
0.0
 33
0.0
 40
0.0
 40
0.0
 40
0.0
 40
0.0
 40
0.0434782608695652
 40
0.0434782608695652
 40
0.0434782608695652
 40
0.0434782608695652
 40
0.0869565217391304
 40
0.0869565217391304
 40
0.0869565217391304
 40
0.0869565217391304
 40
0.1304347826086956
 40
0.1304347826086956
 40
0.1304347826086956
 40
0.1304347826086956
 40
0.1739130434782609
 40
0.1739130434782609
 40
0.1739130434782609
 40
0.1739130434782609
 40
0.2173913043478261
 40
0.2173913043478261
 40
0.2173913043478261
 40
0.2173913043478261
 40
0.2608695652173913
 40
0.2608695652173913
 40
0.2608695652173913
 40
0.2608695652173913
 40
0.3043478260869565
 40
0.3043478260869565
 40
0.3043478260869565
 40
0.3043478260869565
 40
0.3478260869565217
 40
0.3478260869565217
 40
0.3478260869565217
 40
0.3478260869565217
 40
0.391304347826087
 40
0.391304347826087
 40
0.391304347826087
 40
0.391304347826087
 40
0.4347826086956522
 40
0.4347826086956522
 40
0.4347826086956522
 40
0.4347826086956522
 40
0.4782608695652174
 40
0.4782608695652174
 40
0.4782608695652174
 40
0.4782608695652174
 40
0.5217391304347826
 40
0.5217391304347826
 40
0.5217391304347826
 40
0.5217391304347826
 40
0.5652173913043478
 40
0.5652173913043478
 40
0.5652173913043478
 40
0.5652173913043478
 40
0.6086956521739131
 40
0.6086956521739131
 40
0.6086956521739131
 40
0.6086956521739131
 40
0.6521739130434783
 40
0.6521739130434783
 40
0.6521739130434783
 40
0.6521739130434783
 40
0.6956521739130435
 40
0.6956521739130435
 40
0.6956521739130435
 40
0.6956521739130435
 40
0.7391304347826086
 40
0.7391304347826086
 40
0.7391304347826086
 40
0.7391304347826086
 40
0.782608695652174
 40
0.782608695652174
 40
0.782608695652174
 40
0.782608695652174
 40
0.8260869565217391
 40
0.8260869565217391
 40
0.8260869565217391
 40
0.8260869565217391
 40
0.8695652173913043
 40
0.8695652173913043
 40
0.8695652173913043
 40
0.8695652173913043
 40
0.9130434782608695
 40
0.9130434782608695
 40
0.9130434782608695
 40
0.9130434782608695
 40
1.0
 40
1.0
 40
1.0
 40
1.0
 10
167.3114
 20
31.6256
 30
0.0
 10
167.5611
 20
30.9991
 30
0.0
 10
168.1779
 20
30.5966
 30
0.0
 10
168.8522
 20
30.6212
 30
0.0
 10
168.8522
 20
30.6212
 30
0.0
 10
169.5265
 20
30.6453
 30
0.0
 10
170.1126
 20
31.0908
 30
0.0
 10
170.3162
 20
31.7344
 30
0.0
 10
170.3162
 20
31.7344
 30
0.0
 10
170.8277
 20
33.5003
 30
0.0
 10
170.1758
 20
35.3975
 30
0.0
 10
168.6871
 20
36.4766
 30
0.0
 10
168.6871
 20
36.4766
 30
0.0
 10
167.375
 20
37.2446
 30
0.0
 10
165.7971
 20
37.4147
 30
0.0
 10
164.3513
 20
36.9447
 30
0.0
 10
164.3513
 20
36.9447
 30
0.0
 10
162.9056
 20
36.4742
 30
0.0
 10
161.7298
 20
35.4081
 30
0.0
 10
161.1209
 20
34.015
 30
0.0
 10
161.1209
 20
34.015
 30
0.0
 10
160.2304
 20
30.9177
 30
0.0
 10
160.9965
 20
27.5806
 30
0.0
 10
163.1482
 20
25.1817
 30
0.0
 10
163.1482
 20
25.1817
 30
0.0
 10
166.6502
 20
22.2891
 30
0.0
 10
171.7037
 20
22.2586
 30
0.0
 10
175.2397
 20
25.109
 30
0.0
 10
175.2397
 20
25.109
 30
0.0
 10
178.8848
 20
28.409
 30
0.0
 10
179.9169
 20
33.717
 30
0.0
 10
177.7739
 20
38.1422
 30
0.0
 10
177.7739
 20
38.1422
 30
0.0
 10
175.2572
 20
42.0862
 30
0.0
 10
171.0922
 20
44.6808
 30
0.0
 10
166.4426
 20
45.2014
 30
0.0
 10
166.4426
 20
45.2014
 30
0.0
 10
161.4321
 20
45.6529
 30
0.0
 10
156.3887
 20
44.8307
 30
0.0
 10
151.7806
 20
42.8121
 30
0.0
 10
151.7806
 20
42.8121
 30
0.0
 10
151.8577
 20
41.3894
 30
0.0
 10
151.8577
 20
39.9631
 30
0.0
 10
151.7806
 20
38.5399
 30
0.0
 10
151.7806
 20
38.5399
 30
0.0
 10
153.1126
 20
39.8643
 30
0.0
 10
154.4766
 20
41.156
 30
0.0
 10
155.8715
 20
42.4138
 30
0.0
 10
155.8715
 20
42.4138
 30
0.0
 10
156.9124
 20
43.3839
 30
0.0
 10
158.3551
 20
43.7969
 30
0.0
 10
159.7518
 20
43.525
 30
0.0
 10
159.7518
 20
43.525
 30
0.0
 10
161.1485
 20
43.2531
 30
0.0
 10
162.3304
 20
42.3285
 30
0.0
 10
162.931
 20
41.0382
 30
0.0
 10
162.931
 20
41.0382
 30
0.0
 10
165.8878
 20
42.039
 30
0.0
 10
169.1552
 20
41.3402
 30
0.0
 10
171.4441
 20
39.2172
 30
0.0
 10
171.4441
 20
39.2172
 30
0.0
 10
173.7329
 20
37.0947
 30
0.0
 10
174.6757
 20
33.889
 30
0.0
 10
173.9003
 20
30.8655
 30
0.0
 10
173.9003
 20
30.8655
 30
0.0
 10
173.4966
 20
29.3014
 30
0.0
 10
172.4573
 20
27.9775
 30
0.0
 10
171.0339
 20
27.2139
 30
0.0
 10
171.0339
 20
27.2139
 30
0.0
 10
169.6103
 20
26.451
 30
0.0
 10
167.9324
 20
26.3175
 30
0.0
 10
166.4063
 20
26.8467
 30
0.0
 10
166.4063
 20
26.8467
 30
0.0
 10
165.4142
 20
27.3258
 30
0.0
 10
164.6823
 20
28.2163
 30
0.0
 10
164.4035
 20
29.2818
 30
0.0
 10
164.4035
 20
29.2818
 30
0.0
 10
164.1248
 20
30.3478
 30
0.0
 10
164.3276
 20
31.4825
 30
0.0
 10
164.9584
 20
32.3855
 30
0.0
 10
164.9584
 20
32.3855
 30
0.0
 10
165.3281
 20
32.7513
 30
0.0
 10
165.8709
 20
32.8807
 30
0.0
 10
166.3658
 20
32.7207
 30
0.0
 10
166.3658
 20
32.7207
 30
0.0
 10
166.8608
 20
32.5607
 30
0.0
 10
167.2254
 20
32.1388
 30
0.0
 10
167.3114
 20
31.6256
 30
0.0
  0
SPLINE
  5
95
330
1F
100
AcDbEntity
  8
layer 1
 62
     7
370
     9
100
AcDbSpline
210
0.0
220
0.0
230
1.0
 70
    11
 71
     3
 72
    24
 73
    20
 74
     0
 42
0.0000000001
 43
0.0000000001
 12
1.0
 22
0.0
 32
0.0
 13
1.0
 23
0.0
 33
0.0
 40
0.0
 40
0.0
 40
0.0
 40
0.0
 40
0.1666666666666667
 40
0.1666666666666667
 40
0.1666666666666667
 40
0.1666666666666667
 40
0.3333333333333333
 40
0.3333333333333333
 40
0.3333333333333333
 40
0.3333333333333333
 40
0.5
 40
0.5
 40
0.5
 40
0.5
 40
0.6666666666666666
 40
0.6666666666666666
 40
0.6666666666666666
 40
0.6666666666666666
 40
1.0
 40
1.0
 40
1.0
 40
1.0
 10
147.726
 20
64.3162
 30
0.0
 10
149.7039
 20
59.8495
 30
0.0
 10
149.0192
 20
54.6512
 30
0.0
 10
145.952
 20
50.8492
 30
0.0
 10
145.952
 20
50.8492
 30
0.0
 10
143.9765
 20
53.3359
 30
0.0
 10
141.6468
 20
55.5191
 30
0.0
 10
139.0377
 20
57.3292
 30
0.0
 10
139.0377
 20
57.3292
 30
0.0
 10
141.2064
 20
59.0193
 30
0.0
 10
142.7179
 20
61.4137
 30
0.0
 10
143.3093
 20
64.0991
 30
0.0
 10
143.3093
 20
64.0991
 30
0.0
 10
143.7503
 20
64.8806
 30
0.0
 10
144.5614
 20
65.3813
 30
0.0
 10
145.458
 20
65.4254
 30
0.0
 10
145.458
 20
65.4254
 30
0.0
 10
146.3539
 20
65.4696
 30
0.0
 10
147.2105
 20
65.0507
 30
0.0
 10
147.726
 20
64.3162
 30
0.0
  0
SPLINE
  5
96
330
1F
100
AcDbEntity
  8
layer 1
 62
     7
370
     9
100
AcDbSpline
210
0.0
220
0.0
230
1.0
 70
    11
 71
     3
 72
    88
 73
    84
 74
     0
 42
0.0000000001
 43
0.0000000001
 12
1.0
 22
0.0
 32
0.0
 13
1.0
 23
0.0
 33
0.0
 40
0.0
 40
0.0
 40
0.0
 40
0.0
 40
0.0454545454545455
 40
0.0454545454545455
 40
0.0454545454545455
 40
0.0454545454545455
 40
0.0909090909090909
 40
0.0909090909090909
 40
0.0909090909090909
 40
0.0909090909090909
 40
0.1363636363636364
 40
0.1363636363636364
 40
0.1363636363636364
 40
0.1363636363636364
 40
0.1818181818181818
 40
0.1818181818181818
 40
0.1818181818181818
 40
0.1818181818181818
 40
0.2272727272727273
 40
0.2272727272727273
 40
0.2272727272727273
 40
0.2272727272727273
 40
0.2727272727272727
 40
0.2727272727272727
 40
0.2727272727272727
 40
0.2727272727272727
 40
0.3181818181818182
 40
0.3181818181818182
 40
0.3181818181818182
 40
0.3181818181818182
 40
0.3636363636363636
 40
0.3636363636363636
 40
0.3636363636363636
 40
0.3636363636363636
 40
0.4090909090909091
 40
0.4090909090909091
 40
0.4090909090909091
 40
0.4090909090909091
 40
0.4545454545454545
 40
0.4545454545454545
 40
0.4545454545454545
 40
0.4545454545454545
 40
0.5
 40
0.5
 40
0.5
 40
0.5
 40
0.5454545454545454
 40
0.5454545454545454
 40
0.5454545454545454
 40
0.5454545454545454
 40
0.5909090909090909
 40
0.5909090909090909
 40
0.5909090909090909
 40
0.5909090909090909
 40
0.6363636363636364
 40
0.6363636363636364
 40
0.6363636363636364
 40
0.6363636363636364
 40
0.6818181818181818
 40
0.6818181818181818
 40
0.6818181818181818
 40
0.6818181818181818
 40
0.7272727272727273
 40
0.7272727272727273
 40
0.7272727272727273
 40
0.7272727272727273
 40
0.7727272727272727
 40
0.7727272727272727
 40
0.7727272727272727
 40
0.7727272727272727
 40
0.8181818181818182
 40
0.8181818181818182
 40
0.8181818181818182
 40
0.8181818181818182
 40
0.8636363636363636
 40
0.8636363636363636
 40
0.8636363636363636
 40
0.8636363636363636
 40
0.9090909090909091
 40
0.9090909090909091
 40
0.9090909090909091
 40
0.9090909090909091
 40
1.0
 40
1.0
 40
1.0
 40
1.0
 10
147.6897
 20
49.1837
 30
0.0
 10
152.5555
 20
53.2968
 30
0.0
 10
153.9893
 20
60.1981
 30
0.0
 10
151.1653
 20
65.909
 30
0.0
 10
151.1653
 20
65.909
 30
0.0
 10
152.3991
 20
66.3831
 30
0.0
 10
153.7188
 20
66.5927
 30
0.0
 10
155.0389
 20
66.5246
 30
0.0
 10
155.0389
 20
66.5246
 30
0.0
 10
155.0015
 20
64.4507
 30
0.0
 10
156.0302
 20
62.5023
 30
0.0
 10
157.7639
 20
61.3639
 30
0.0
 10
157.7639
 20
61.3639
 30
0.0
 10
159.4977
 20
60.2252
 30
0.0
 10
161.6943
 20
60.0551
 30
0.0
 10
163.5826
 20
60.913
 30
0.0
 10
163.5826
 20
60.913
 30
0.0
 10
164.746
 20
61.4423
 30
0.0
 10
165.5888
 20
62.4922
 30
0.0
 10
165.8532
 20
63.7424
 30
0.0
 10
165.8532
 20
63.7424
 30
0.0
 10
166.1175
 20
64.9929
 30
0.0
 10
165.7718
 20
66.2942
 30
0.0
 10
164.9221
 20
67.2484
 30
0.0
 10
164.9221
 20
67.2484
 30
0.0
 10
164.3488
 20
67.8991
 30
0.0
 10
163.3713
 20
67.9984
 30
0.0
 10
162.679
 20
67.4767
 30
0.0
 10
162.679
 20
67.4767
 30
0.0
 10
161.9865
 20
66.9549
 30
0.0
 10
161.8125
 20
65.9882
 30
0.0
 10
162.2795
 20
65.2573
 30
0.0
 10
162.2795
 20
65.2573
 30
0.0
 10
162.3806
 20
64.6539
 30
0.0
 10
162.1552
 20
64.0413
 30
0.0
 10
161.6866
 20
63.647
 30
0.0
 10
161.6866
 20
63.647
 30
0.0
 10
161.218
 20
63.2532
 30
0.0
 10
160.5761
 20
63.1359
 30
0.0
 10
159.9987
 20
63.339
 30
0.0
 10
159.9987
 20
63.339
 30
0.0
 10
158.8846
 20
63.9706
 30
0.0
 10
158.1564
 20
65.114
 30
0.0
 10
158.0549
 20
66.3901
 30
0.0
 10
158.0549
 20
66.3901
 30
0.0
 10
157.9534
 20
67.6668
 30
0.0
 10
158.4917
 20
68.9105
 30
0.0
 10
159.4917
 20
69.7107
 30
0.0
 10
159.4917
 20
69.7107
 30
0.0
 10
160.9617
 20
70.5172
 30
0.0
 10
162.7156
 20
70.6236
 30
0.0
 10
164.272
 20
69.9996
 30
0.0
 10
164.272
 20
69.9996
 30
0.0
 10
165.8283
 20
69.3755
 30
0.0
 10
167.0232
 20
68.0873
 30
0.0
 10
167.5286
 20
66.4885
 30
0.0
 10
167.5286
 20
66.4885
 30
0.0
 10
168.9813
 20
61.6689
 30
0.0
 10
167.3797
 20
56.4497
 30
0.0
 10
163.474
 20
53.2747
 30
0.0
 10
163.474
 20
53.2747
 30
0.0
 10
164.1113
 20
55.0065
 30
0.0
 10
163.3495
 20
56.9408
 30
0.0
 10
161.703
 20
57.7736
 30
0.0
 10
161.703
 20
57.7736
 30
0.0
 10
160.0563
 20
58.6059
 30
0.0
 10
158.0469
 20
58.0726
 30
0.0
 10
157.03
 20
56.5324
 30
0.0
 10
157.03
 20
56.5324
 30
0.0
 10
157.8848
 20
56.4207
 30
0.0
 10
158.598
 20
55.8251
 30
0.0
 10
158.8613
 20
55.0039
 30
0.0
 10
158.8613
 20
55.0039
 30
0.0
 10
159.1247
 20
54.1832
 30
0.0
 10
158.8908
 20
53.2837
 30
0.0
 10
158.2608
 20
52.6952
 30
0.0
 10
158.2608
 20
52.6952
 30
0.0
 10
155.3833
 20
50.664
 30
0.0
 10
152.3442
 20
48.8721
 30
0.0
 10
149.1742
 20
47.3376
 30
0.0
 10
149.1742
 20
47.3376
 30
0.0
 10
148.8721
 20
48.086
 30
0.0
 10
148.3558
 20
48.7282
 30
0.0
 10
147.6897
 20
49.1837
 30
0.0
  0
SPLINE
  5
97
330
1F
100
AcDbEntity
  8
layer 1
 62
     7
370
     9
100
AcDbSpline
210
0.0
220
0.0
230
1.0
 70
    11
 71
     3
 72
    16
 73
    12
 74
     0
 42
0.0000000001
 43
0.0000000001
 12
1.0
 22
0.0
 32
0.0
 13
1.0
 23
0.0
 33
0.0
 40
0.0
 40
0.0
 40
0.0
 40
0.0
 40
0.25
 40
0.25
 40
0.25
 40
0.25
 40
0.5
 40
0.5
 40
0.5
 40
0.5
 40
1.0
 40
1.0
 40
1.0
 40
1.0
 10
146.0242
 20
68.8778
 30
0.0
 10
145.8944
 20
69.7412
 30
0.0
 10
145.2718
 20
70.449
 30
0.0
 10
144.4316
 20
70.6879
 30
0.0
 10
144.4316
 20
70.6879
 30
0.0
 10
144.4316
 20
70.6879
 30
0.0
 10
144.2865
 20
68.8778
 30
0.0
 10
144.2865
 20
68.8778
 30
0.0
 10
144.2865
 20
68.8778
 30
0.0
 10
144.2865
 20
68.8778
 30
0.0
 10
146.0242
 20
68.8778
 30
0.0
 10
146.0242
 20
68.8778
 30
0.0
  0
SPLINE
  5
98
330
1F
100
AcDbEntity
  8
layer 1
 62
     7
370
     9
100
AcDbSpline
210
0.0
220
0.0
230
1.0
 70
    11
 71
     3
 72
    52
 73
    48
 74
     0
 42
0.0000000001
 43
0.0000000001
 12
1.0
 22
0.0
 32
0.0
 13
1.0
 23
0.0
 33
0.0
 40
0.0
 40
0.0
 40
0.0
 40
0.0
 40
0.0769230769230769
 40
0.0769230769230769
 40
0.0769230769230769
 40
0.0769230769230769
 40
0.1538461538461539
 40
0.1538461538461539
 40
0.1538461538461539
 40
0.1538461538461539
 40
0.2307692307692308
 40
0.2307692307692308
 40
0.2307692307692308
 40
0.2307692307692308
 40
0.3076923076923077
 40
0.3076923076923077
 40
0.3076923076923077
 40
0.3076923076923077
 40
0.3846153846153846
 40
0.3846153846153846
 40
0.3846153846153846
 40
0.3846153846153846
 40
0.4615384615384616
 40
0.4615384615384616
 40
0.4615384615384616
 40
0.4615384615384616
 40
0.5384615384615384
 40
0.5384615384615384
 40
0.5384615384615384
 40
0.5384615384615384
 40
0.6153846153846154
 40
0.6153846153846154
 40
0.6153846153846154
 40
0.6153846153846154
 40
0.6923076923076923
 40
0.6923076923076923
 40
0.6923076923076923
 40
0.6923076923076923
 40
0.7692307692307693
 40
0.7692307692307693
 40
0.7692307692307693
 40
0.7692307692307693
 40
0.8461538461538461
 40
0.8461538461538461
 40
0.8461538461538461
 40
0.8461538461538461
 40
1.0
 40
1.0
 40
1.0
 40
1.0
 10
150.1877
 20
74.2717
 30
0.0
 10
150.3691
 20
73.5614
 30
0.0
 10
150.9445
 20
73.0186
 30
0.0
 10
151.6646
 20
72.8791
 30
0.0
 10
151.6646
 20
72.8791
 30
0.0
 10
152.385
 20
72.7396
 30
0.0
 10
153.121
 20
73.0285
 30
0.0
 10
153.5547
 20
73.6205
 30
0.0
 10
153.5547
 20
73.6205
 30
0.0
 10
154.4438
 20
75.8314
 30
0.0
 10
153.4818
 20
78.3547
 30
0.0
 10
151.3462
 20
79.4127
 30
0.0
 10
151.3462
 20
79.4127
 30
0.0
 10
148.9378
 20
80.4763
 30
0.0
 10
146.1292
 20
80.0222
 30
0.0
 10
144.1782
 20
78.2544
 30
0.0
 10
144.1782
 20
78.2544
 30
0.0
 10
143.3982
 20
80.8123
 30
0.0
 10
142.0352
 20
83.1547
 30
0.0
 10
140.1961
 20
85.0963
 30
0.0
 10
140.1961
 20
85.0963
 30
0.0
 10
143.8255
 20
85.689
 30
0.0
 10
147.5495
 20
85.2111
 30
0.0
 10
150.9118
 20
83.7208
 30
0.0
 10
150.9118
 20
83.7208
 30
0.0
 10
153.6942
 20
82.1918
 30
0.0
 10
155.4476
 20
79.2929
 30
0.0
 10
155.5096
 20
76.1183
 30
0.0
 10
155.5096
 20
76.1183
 30
0.0
 10
155.6313
 20
73.633
 30
0.0
 10
154.051
 20
71.3817
 30
0.0
 10
151.6721
 20
70.6518
 30
0.0
 10
151.6721
 20
70.6518
 30
0.0
 10
150.5476
 20
70.3672
 30
0.0
 10
149.3552
 20
70.6482
 30
0.0
 10
148.476
 20
71.4047
 30
0.0
 10
148.476
 20
71.4047
 30
0.0
 10
147.5969
 20
72.1612
 30
0.0
 10
147.1415
 20
73.299
 30
0.0
 10
147.2553
 20
74.4528
 30
0.0
 10
147.2553
 20
74.4528
 30
0.0
 10
147.4342
 20
75.1471
 30
0.0
 10
148.0808
 20
75.6172
 30
0.0
 10
148.7963
 20
75.573
 30
0.0
 10
148.7963
 20
75.573
 30
0.0
 10
149.5121
 20
75.5283
 30
0.0
 10
150.0957
 20
74.9831
 30
0.0
 10
150.1877
 20
74.2717
 30
0.0
  0
SPLINE
  5
99
330
1F
100
AcDbEntity
  8
layer 1
 62
     7
370
     9
100
AcDbSpline
210
0.0
220
0.0
230
1.0
 70
    11
 71
     3
 72
    84
 73
    80
 74
     0
 42
0.0000000001
 43
0.0000000001
 12
1.0
 22
0.0
 32
0.0
 13
1.0
 23
0.0
 33
0.0
 40
0.0
 40
0.0
 40
0.0
 40
0.0
 40
0.0476190476190476
 40
0.0476190476190476
 40
0.0476190476190476
 40
0.0476190476190476
 40
0.0952380952380952
 40
0.0952380952380952
 40
0.0952380952380952
 40
0.0952380952380952
 40
0.1428571428571428
 40
0.1428571428571428
 40
0.1428571428571428
 40
0.1428571428571428
 40
0.1904761904761905
 40
0.1904761904761905
 40
0.1904761904761905
 40
0.1904761904761905
 40
0.2380952380952381
 40
0.2380952380952381
 40
0.2380952380952381
 40
0.2380952380952381
 40
0.2857142857142857
 40
0.2857142857142857
 40
0.2857142857142857
 40
0.2857142857142857
 40
0.3333333333333333
 40
0.3333333333333333
 40
0.3333333333333333
 40
0.3333333333333333
 40
0.3809523809523809
 40
0.3809523809523809
 40
0.3809523809523809
 40
0.3809523809523809
 40
0.4285714285714285
 40
0.4285714285714285
 40
0.4285714285714285
 40
0.4285714285714285
 40
0.4761904761904762
 40
0.4761904761904762
 40
0.4761904761904762
 40
0.4761904761904762
 40
0.5238095238095238
 40
0.5238095238095238
 40
0.5238095238095238
 40
0.5238095238095238
 40
0.5714285714285714
 40
0.5714285714285714
 40
0.5714285714285714
 40
0.5714285714285714
 40
0.6190476190476191
 40
0.6190476190476191
 40
0.6190476190476191
 40
0.6190476190476191
 40
0.6666666666666666
 40
0.6666666666666666
 40
0.6666666666666666
 40
0.6666666666666666
 40
0.7142857142857143
 40
0.7142857142857143
 40
0.7142857142857143
 40
0.7142857142857143
 40
0.7619047619047619
 40
0.7619047619047619
 40
0.7619047619047619
 40
0.7619047619047619
 40
0.8095238095238095
 40
0.8095238095238095
 40
0.8095238095238095
 40
0.8095238095238095
 40
0.8571428571428571
 40
0.8571428571428571
 40
0.8571428571428571
 40
0.8571428571428571
 40
0.9047619047619048
 40
0.9047619047619048
 40
0.9047619047619048
 40
0.9047619047619048
 40
1.0
 40
1.0
 40
1.0
 40
1.0
 10
178.2083
 20
108.6642
 30
0.0
 10
178.4203
 20
109.0622
 30
0.0
 10
178.8595
 20
109.2844
 30
0.0
 10
179.3057
 20
109.2196
 30
0.0
 10
179.3057
 20
109.2196
 30
0.0
 10
179.7521
 20
109.1545
 30
0.0
 10
180.1097
 20
108.8165
 30
0.0
 10
180.1996
 20
108.3746
 30
0.0
 10
180.1996
 20
108.3746
 30
0.0
 10
180.5858
 20
107.0689
 30
0.0
 10
180.3547
 20
105.6581
 30
0.0
 10
179.5719
 20
104.544
 30
0.0
 10
179.5719
 20
104.544
 30
0.0
 10
178.7892
 20
103.43
 30
0.0
 10
177.5405
 20
102.734
 30
0.0
 10
176.1811
 20
102.6547
 30
0.0
 10
176.1811
 20
102.6547
 30
0.0
 10
174.329
 20
102.5939
 30
0.0
 10
172.5458
 20
103.3597
 30
0.0
 10
171.3146
 20
104.7448
 30
0.0
 10
171.3146
 20
104.7448
 30
0.0
 10
170.0835
 20
106.1298
 30
0.0
 10
169.5319
 20
107.9905
 30
0.0
 10
169.8094
 20
109.8227
 30
0.0
 10
169.8094
 20
109.8227
 30
0.0
 10
170.236
 20
112.2566
 30
0.0
 10
171.6985
 20
114.3855
 30
0.0
 10
173.8175
 20
115.6567
 30
0.0
 10
173.8175
 20
115.6567
 30
0.0
 10
175.9363
 20
116.9281
 30
0.0
 10
178.5028
 20
117.2168
 30
0.0
 10
180.8513
 20
116.4476
 30
0.0
 10
180.8513
 20
116.4476
 30
0.0
 10
185.0285
 20
114.8663
 30
0.0
 10
187.9192
 20
111.0172
 30
0.0
 10
188.2727
 20
106.5645
 30
0.0
 10
188.2727
 20
106.5645
 30
0.0
 10
188.3376
 20
99.4636
 30
0.0
 10
184.0187
 20
93.0572
 30
0.0
 10
177.412
 20
90.4544
 30
0.0
 10
177.412
 20
90.4544
 30
0.0
 10
177.7521
 20
92.4853
 30
0.0
 10
177.0165
 20
94.5475
 30
0.0
 10
175.4678
 20
95.9044
 30
0.0
 10
175.4678
 20
95.9044
 30
0.0
 10
173.9189
 20
97.2615
 30
0.0
 10
171.778
 20
97.7198
 30
0.0
 10
169.8094
 20
97.1156
 30
0.0
 10
169.8094
 20
97.1156
 30
0.0
 10
170.0779
 20
98.4065
 30
0.0
 10
170.0656
 20
99.7399
 30
0.0
 10
169.7733
 20
101.0254
 30
0.0
 10
169.7733
 20
101.0254
 30
0.0
 10
172.9868
 20
99.632
 30
0.0
 10
176.5525
 20
99.2654
 30
0.0
 10
179.9823
 20
99.9757
 30
0.0
 10
179.9823
 20
99.9757
 30
0.0
 10
183.6562
 20
101.4065
 30
0.0
 10
185.5656
 20
105.4642
 30
0.0
 10
184.3266
 20
109.2072
 30
0.0
 10
184.3266
 20
109.2072
 30
0.0
 10
183.546
 20
111.9441
 30
0.0
 10
181.1216
 20
113.8894
 30
0.0
 10
178.2808
 20
114.0582
 30
0.0
 10
178.2808
 20
114.0582
 30
0.0
 10
176.7904
 20
114.1353
 30
0.0
 10
175.365
 20
113.442
 30
0.0
 10
174.5051
 20
112.2221
 30
0.0
 10
174.5051
 20
112.2221
 30
0.0
 10
173.6453
 20
111.0023
 30
0.0
 10
173.4718
 20
109.4265
 30
0.0
 10
174.0452
 20
108.0487
 30
0.0
 10
174.0452
 20
108.0487
 30
0.0
 10
174.5247
 20
107.268
 30
0.0
 10
175.4235
 20
106.8485
 30
0.0
 10
176.3298
 20
106.9823
 30
0.0
 10
176.3298
 20
106.9823
 30
0.0
 10
177.2363
 20
107.1163
 30
0.0
 10
177.9754
 20
107.7781
 30
0.0
 10
178.2083
 20
108.6642
 30
0.0
  0
SPLINE
  5
9A
330
1F
100
AcDbEntity
  8
layer 1
 62
     7
370
     9
100
AcDbSpline
210
0.0
220
0.0
230
1.0
 70
    11
 71
     3
 72
    16
 73
    12
 74
     0
 42
0.0000000001
 43
0.0000000001
 12
1.0
 22
0.0
 32
0.0
 13
1.0
 23
0.0
 33
0.0
 40
0.0
 40
0.0
 40
0.0
 40
0.0
 40
0.25
 40
0.25
 40
0.25
 40
0.25
 40
0.5
 40
0.5
 40
0.5
 40
0.5
 40
1.0
 40
1.0
 40
1.0
 40
1.0
 10
166.1892
 20
112.4293
 30
0.0
 10
166.1892
 20
112.4293
 30
0.0
 10
161.5191
 20
107.759
 30
0.0
 10
161.5191
 20
107.759
 30
0.0
 10
161.5191
 20
107.759
 30
0.0
 10
161.5191
 20
107.759
 30
0.0
 10
165.8634
 20
107.6505
 30
0.0
 10
165.8634
 20
107.6505
 30
0.0
 10
165.8634
 20
107.6505
 30
0.0
 10
165.8634
 20
107.6505
 30
0.0
 10
166.1892
 20
112.4293
 30
0.0
 10
166.1892
 20
112.4293
 30
0.0
  0
SPLINE
  5
9B
330
1F
100
AcDbEntity
  8
layer 1
 62
     7
370
     9
100
AcDbSpline
210
0.0
220
0.0
230
1.0
 70
    11
 71
     3
 72
    24
 73
    20
 74
     0
 42
0.0000000001
 43
0.0000000001
 12
1.0
 22
0.0
 32
0.0
 13
1.0
 23
0.0
 33
0.0
 40
0.0
 40
0.0
 40
0.0
 40
0.0
 40
0.1666666666666667
 40
0.1666666666666667
 40
0.1666666666666667
 40
0.1666666666666667
 40
0.3333333333333333
 40
0.3333333333333333
 40
0.3333333333333333
 40
0.3333333333333333
 40
0.5
 40
0.5
 40
0.5
 40
0.5
 40
0.6666666666666666
 40
0.6666666666666666
 40
0.6666666666666666
 40
0.6666666666666666
 40
1.0
 40
1.0
 40
1.0
 40
1.0
 10
98.8527
 20
123.7967
 30
0.0
 10
100.4525
 20
123.6899
 30
0.0
 10
101.9249
 20
124.6695
 30
0.0
 10
102.444
 20
126.1861
 30
0.0
 10
102.444
 20
126.1861
 30
0.0
 10
102.444
 20
126.1861
 30
0.0
 10
80.7518
 20
126.1861
 30
0.0
 10
80.7518
 20
126.1861
 30
0.0
 10
80.7518
 20
126.1861
 30
0.0
 10
80.7518
 20
126.1861
 30
0.0
 10
80.7518
 20
113.923
 30
0.0
 10
80.7518
 20
113.923
 30
0.0
 10
80.7518
 20
113.923
 30
0.0
 10
82.5402
 20
116.8442
 30
0.0
 10
84.9352
 20
119.3471
 30
0.0
 10
87.7751
 20
121.2626
 30
0.0
 10
87.7751
 20
121.2626
 30
0.0
 10
90.8633
 20
123.8036
 30
0.0
 10
94.9669
 20
124.7425
 30
0.0
 10
98.8527
 20
123.7967
 30
0.0
  0
SPLINE
  5
9C
330
1F
100
AcDbEntity
  8
layer 1
 62
     7
370
     9
100
AcDbSpline
210
0.0
220
0.0
230
1.0
 70
    11
 71
     3
 72
    56
 73
    52
 74
     0
 42
0.0000000001
 43
0.0000000001
 12
1.0
 22
0.0
 32
0.0
 13
1.0
 23
0.0
 33
0.0
 40
0.0
 40
0.0
 40
0.0
 40
0.0
 40
0.0714285714285714
 40
0.0714285714285714
 40
0.0714285714285714
 40
0.0714285714285714
 40
0.1428571428571428
 40
0.1428571428571428
 40
0.1428571428571428
 40
0.1428571428571428
 40
0.2142857142857143
 40
0.2142857142857143
 40
0.2142857142857143
 40
0.2142857142857143
 40
0.2857142857142857
 40
0.2857142857142857
 40
0.2857142857142857
 40
0.2857142857142857
 40
0.3571428571428572
 40
0.3571428571428572
 40
0.3571428571428572
 40
0.3571428571428572
 40
0.4285714285714285
 40
0.4285714285714285
 40
0.4285714285714285
 40
0.4285714285714285
 40
0.5
 40
0.5
 40
0.5
 40
0.5
 40
0.5714285714285714
 40
0.5714285714285714
 40
0.5714285714285714
 40
0.5714285714285714
 40
0.6428571428571429
 40
0.6428571428571429
 40
0.6428571428571429
 40
0.6428571428571429
 40
0.7142857142857143
 40
0.7142857142857143
 40
0.7142857142857143
 40
0.7142857142857143
 40
0.7857142857142857
 40
0.7857142857142857
 40
0.7857142857142857
 40
0.7857142857142857
 40
0.8571428571428571
 40
0.8571428571428571
 40
0.8571428571428571
 40
0.8571428571428571
 40
1.0
 40
1.0
 40
1.0
 40
1.0
 10
101.3144
 20
121.4436
 30
0.0
 10
103.2097
 20
122.2442
 30
0.0
 10
104.4161
 20
124.1297
 30
0.0
 10
104.3488
 20
126.1861
 30
0.0
 10
104.3488
 20
126.1861
 30
0.0
 10
104.3488
 20
126.1861
 30
0.0
 10
110.6342
 20
126.1861
 30
0.0
 10
110.6342
 20
126.1861
 30
0.0
 10
110.6342
 20
126.1861
 30
0.0
 10
109.5923
 20
125.1406
 30
0.0
 10
108.9687
 20
123.7499
 30
0.0
 10
108.8809
 20
122.2762
 30
0.0
 10
108.8809
 20
122.2762
 30
0.0
 10
108.914
 20
121.0027
 30
0.0
 10
109.5466
 20
119.8197
 30
0.0
 10
110.588
 20
119.0852
 30
0.0
 10
110.588
 20
119.0852
 30
0.0
 10
111.6289
 20
118.351
 30
0.0
 10
112.9554
 20
118.1515
 30
0.0
 10
114.1664
 20
118.5475
 30
0.0
 10
114.1664
 20
118.5475
 30
0.0
 10
115.0362
 20
118.9073
 30
0.0
 10
115.4496
 20
119.9042
 30
0.0
 10
115.0894
 20
120.7739
 30
0.0
 10
115.0894
 20
120.7739
 30
0.0
 10
114.7298
 20
121.6437
 30
0.0
 10
113.733
 20
122.057
 30
0.0
 10
112.8631
 20
121.697
 30
0.0
 10
112.8631
 20
121.697
 30
0.0
 10
112.4658
 20
122.1803
 30
0.0
 10
112.4106
 20
122.86
 30
0.0
 10
112.7256
 20
123.4009
 30
0.0
 10
112.7256
 20
123.4009
 30
0.0
 10
113.0401
 20
123.9417
 30
0.0
 10
113.6582
 20
124.2298
 30
0.0
 10
114.2752
 20
124.1226
 30
0.0
 10
114.2752
 20
124.1226
 30
0.0
 10
116.1439
 20
124.2069
 30
0.0
 10
117.8054
 20
122.9417
 30
0.0
 10
118.2213
 20
121.1177
 30
0.0
 10
118.2213
 20
121.1177
 30
0.0
 10
118.5299
 20
119.1482
 30
0.0
 10
117.5942
 20
117.1915
 30
0.0
 10
115.868
 20
116.1942
 30
0.0
 10
115.868
 20
116.1942
 30
0.0
 10
114.057
 20
115.4521
 30
0.0
 10
112.0157
 20
115.5179
 30
0.0
 10
110.2564
 20
116.3752
 30
0.0
 10
110.2564
 20
116.3752
 30
0.0
 10
107.2841
 20
118.0794
 30
0.0
 10
104.3032
 20
119.7688
 30
0.0
 10
101.3144
 20
121.4436
 30
0.0
  0
SPLINE
  5
9D
330
1F
100
AcDbEntity
  8
layer 1
 62
     7
370
     9
100
AcDbSpline
210
0.0
220
0.0
230
1.0
 70
    11
 71
     3
 72
    84
 73
    80
 74
     0
 42
0.0000000001
 43
0.0000000001
 12
1.0
 22
0.0
 32
0.0
 13
1.0
 23
0.0
 33
0.0
 40
0.0
 40
0.0
 40
0.0
 40
0.0
 40
0.0476190476190476
 40
0.0476190476190476
 40
0.0476190476190476
 40
0.0476190476190476
 40
0.0952380952380952
 40
0.0952380952380952
 40
0.0952380952380952
 40
0.0952380952380952
 40
0.1428571428571428
 40
0.1428571428571428
 40
0.1428571428571428
 40
0.1428571428571428
 40
0.1904761904761905
 40
0.1904761904761905
 40
0.1904761904761905
 40
0.1904761904761905
 40
0.2380952380952381
 40
0.2380952380952381
 40
0.2380952380952381
 40
0.2380952380952381
 40
0.2857142857142857
 40
0.2857142857142857
 40
0.2857142857142857
 40
0.2857142857142857
 40
0.3333333333333333
 40
0.3333333333333333
 40
0.3333333333333333
 40
0.3333333333333333
 40
0.3809523809523809
 40
0.3809523809523809
 40
0.3809523809523809
 40
0.3809523809523809
 40
0.4285714285714285
 40
0.4285714285714285
 40
0.4285714285714285
 40
0.4285714285714285
 40
0.4761904761904762
 40
0.4761904761904762
 40
0.4761904761904762
 40
0.4761904761904762
 40
0.5238095238095238
 40
0.5238095238095238
 40
0.5238095238095238
 40
0.5238095238095238
 40
0.5714285714285714
 40
0.5714285714285714
 40
0.5714285714285714
 40
0.5714285714285714
 40
0.6190476190476191
 40
0.6190476190476191
 40
0.6190476190476191
 40
0.6190476190476191
 40
0.6666666666666666
 40
0.6666666666666666
 40
0.6666666666666666
 40
0.6666666666666666
 40
0.7142857142857143
 40
0.7142857142857143
 40
0.7142857142857143
 40
0.7142857142857143
 40
0.7619047619047619
 40
0.7619047619047619
 40
0.7619047619047619
 40
0.7619047619047619
 40
0.8095238095238095
 40
0.8095238095238095
 40
0.8095238095238095
 40
0.8095238095238095
 40
0.8571428571428571
 40
0.8571428571428571
 40
0.8571428571428571
 40
0.8571428571428571
 40
0.9047619047619048
 40
0.9047619047619048
 40
0.9047619047619048
 40
0.9047619047619048
 40
1.0
 40
1.0
 40
1.0
 40
1.0
 10
119.1975
 20
126.1861
 30
0.0
 10
119.1975
 20
126.1861
 30
0.0
 10
135.7067
 20
126.1861
 30
0.0
 10
135.7067
 20
126.1861
 30
0.0
 10
135.7067
 20
126.1861
 30
0.0
 10
134.6351
 20
124.6597
 30
0.0
 10
134.1822
 20
122.7838
 30
0.0
 10
134.4395
 20
120.9368
 30
0.0
 10
134.4395
 20
120.9368
 30
0.0
 10
133.4191
 20
121.9139
 30
0.0
 10
131.9929
 20
122.3444
 30
0.0
 10
130.6023
 20
122.0952
 30
0.0
 10
130.6023
 20
122.0952
 30
0.0
 10
130.3464
 20
120.8815
 30
0.0
 10
130.6234
 20
119.6161
 30
0.0
 10
131.3623
 20
118.6198
 30
0.0
 10
131.3623
 20
118.6198
 30
0.0
 10
130.5004
 20
118.8251
 30
0.0
 10
129.593
 20
118.6019
 30
0.0
 10
128.9248
 20
118.02
 30
0.0
 10
128.9248
 20
118.02
 30
0.0
 10
128.2566
 20
117.4379
 30
0.0
 10
127.9109
 20
116.5692
 30
0.0
 10
127.9956
 20
115.6874
 30
0.0
 10
127.9956
 20
115.6874
 30
0.0
 10
128.9518
 20
116.3157
 30
0.0
 10
130.1894
 20
116.3157
 30
0.0
 10
131.1456
 20
115.6874
 30
0.0
 10
131.1456
 20
115.6874
 30
0.0
 10
132.3074
 20
115.0343
 30
0.0
 10
133.5866
 20
114.6162
 30
0.0
 10
134.9105
 20
114.4566
 30
0.0
 10
134.9105
 20
114.4566
 30
0.0
 10
134.9105
 20
114.4566
 30
0.0
 10
134.9105
 20
111.0536
 30
0.0
 10
134.9105
 20
111.0536
 30
0.0
 10
134.9105
 20
111.0536
 30
0.0
 10
133.8295
 20
111.3452
 30
0.0
 10
132.7985
 20
111.7967
 30
0.0
 10
131.8515
 20
112.393
 30
0.0
 10
131.8515
 20
112.393
 30
0.0
 10
130.7814
 20
113.0986
 30
0.0
 10
129.4134
 20
113.1706
 30
0.0
 10
128.275
 20
112.581
 30
0.0
 10
128.275
 20
112.581
 30
0.0
 10
127.1373
 20
111.9913
 30
0.0
 10
126.4074
 20
110.8322
 30
0.0
 10
126.3668
 20
109.5512
 30
0.0
 10
126.3668
 20
109.5512
 30
0.0
 10
127.5576
 20
110.0417
 30
0.0
 10
128.8645
 20
110.18
 30
0.0
 10
130.1316
 20
109.9494
 30
0.0
 10
130.1316
 20
109.9494
 30
0.0
 10
130.5099
 20
109.842
 30
0.0
 10
130.8105
 20
109.5539
 30
0.0
 10
130.9338
 20
109.1804
 30
0.0
 10
130.9338
 20
109.1804
 30
0.0
 10
131.0572
 20
108.8069
 30
0.0
 10
130.987
 20
108.3965
 30
0.0
 10
130.7472
 20
108.085
 30
0.0
 10
130.7472
 20
108.085
 30
0.0
 10
129.7389
 20
106.8486
 30
0.0
 10
128.3302
 20
106.0037
 30
0.0
 10
126.7651
 20
105.6957
 30
0.0
 10
126.7651
 20
105.6957
 30
0.0
 10
120.8967
 20
105.1428
 30
0.0
 10
115.1597
 20
107.6621
 30
0.0
 10
111.5959
 20
112.3569
 30
0.0
 10
111.5959
 20
112.3569
 30
0.0
 10
115.1531
 20
111.2143
 30
0.0
 10
119.028
 20
112.6832
 30
0.0
 10
120.9333
 20
115.8967
 30
0.0
 10
120.9333
 20
115.8967
 30
0.0
 10
122.8391
 20
119.1105
 30
0.0
 10
122.2697
 20
123.2148
 30
0.0
 10
119.5607
 20
125.7879
 30
0.0
 10
119.5607
 20
125.7879
 30
0.0
 10
119.4454
 20
125.926
 30
0.0
 10
119.3245
 20
126.059
 30
0.0
 10
119.1975
 20
126.1861
 30
0.0
  0
SPLINE
  5
9E
330
1F
100
AcDbEntity
  8
layer 1
 62
     7
370
     9
100
AcDbSpline
210
0.0
220
0.0
230
1.0
 70
    11
 71
     3
 72
    32
 73
    28
 74
     0
 42
0.0000000001
 43
0.0000000001
 12
1.0
 22
0.0
 32
0.0
 13
1.0
 23
0.0
 33
0.0
 40
0.0
 40
0.0
 40
0.0
 40
0.0
 40
0.125
 40
0.125
 40
0.125
 40
0.125
 40
0.25
 40
0.25
 40
0.25
 40
0.25
 40
0.375
 40
0.375
 40
0.375
 40
0.375
 40
0.5
 40
0.5
 40
0.5
 40
0.5
 40
0.625
 40
0.625
 40
0.625
 40
0.625
 40
0.75
 40
0.75
 40
0.75
 40
0.75
 40
1.0
 40
1.0
 40
1.0
 40
1.0
 10
83.0685
 20
35.8611
 30
0.0
 10
82.9234
 20
36.4436
 30
0.0
 10
82.9234
 20
37.0525
 30
0.0
 10
83.0685
 20
37.6355
 30
0.0
 10
83.0685
 20
37.6355
 30
0.0
 10
82.1163
 20
37.3319
 30
0.0
 10
81.2976
 20
36.7089
 30
0.0
 10
80.7518
 20
35.8721
 30
0.0
 10
80.7518
 20
35.8721
 30
0.0
 10
80.7518
 20
35.8721
 30
0.0
 10
80.7518
 20
52.0663
 30
0.0
 10
80.7518
 20
52.0663
 30
0.0
 10
80.7518
 20
52.0663
 30
0.0
 10
82.4594
 20
47.2056
 30
0.0
 10
86.7852
 20
43.7411
 30
0.0
 10
91.9023
 20
43.1382
 30
0.0
 10
91.9023
 20
43.1382
 30
0.0
 10
89.7224
 20
40.8361
 30
0.0
 10
88.0129
 20
38.1305
 30
0.0
 10
86.8696
 20
35.1733
 30
0.0
 10
86.8696
 20
35.1733
 30
0.0
 10
86.4621
 20
34.3852
 30
0.0
 10
85.5883
 20
33.9553
 30
0.0
 10
84.7149
 20
34.1133
 30
0.0
 10
84.7149
 20
34.1133
 30
0.0
 10
83.8421
 20
34.2713
 30
0.0
 10
83.1743
 20
34.9802
 30
0.0
 10
83.0685
 20
35.8611
 30
0.0
  0
SPLINE
  5
9F
330
1F
100
AcDbEntity
  8
layer 1
 62
     7
370
     9
100
AcDbSpline
210
0.0
220
0.0
230
1.0
 70
    11
 71
     3
 72
    64
 73
    60
 74
     0
 42
0.0000000001
 43
0.0000000001
 12
1.0
 22
0.0
 32
0.0
 13
1.0
 23
0.0
 33
0.0
 40
0.0
 40
0.0
 40
0.0
 40
0.0
 40
0.0625
 40
0.0625
 40
0.0625
 40
0.0625
 40
0.125
 40
0.125
 40
0.125
 40
0.125
 40
0.1875
 40
0.1875
 40
0.1875
 40
0.1875
 40
0.25
 40
0.25
 40
0.25
 40
0.25
 40
0.3125
 40
0.3125
 40
0.3125
 40
0.3125
 40
0.375
 40
0.375
 40
0.375
 40
0.375
 40
0.4375
 40
0.4375
 40
0.4375
 40
0.4375
 40
0.5
 40
0.5
 40
0.5
 40
0.5
 40
0.5625
 40
0.5625
 40
0.5625
 40
0.5625
 40
0.625
 40
0.625
 40
0.625
 40
0.625
 40
0.6875
 40
0.6875
 40
0.6875
 40
0.6875
 40
0.75
 40
0.75
 40
0.75
 40
0.75
 40
0.8125
 40
0.8125
 40
0.8125
 40
0.8125
 40
0.875
 40
0.875
 40
0.875
 40
0.875
 40
1.0
 40
1.0
 40
1.0
 40
1.0
 10
83.0324
 20
29.3811
 30
0.0
 10
82.0952
 20
29.6887
 30
0.0
 10
81.2907
 20
30.3062
 30
0.0
 10
80.7518
 20
31.1324
 30
0.0
 10
80.7518
 20
31.1324
 30
0.0
 10
80.7518
 20
31.1324
 30
0.0
 10
80.7518
 20
21.6515
 30
0.0
 10
80.7518
 20
21.6515
 30
0.0
 10
80.7518
 20
21.6515
 30
0.0
 10
81.5564
 20
23.1706
 30
0.0
 10
83.0213
 20
24.2296
 30
0.0
 10
84.7165
 20
24.517
 30
0.0
 10
84.7165
 20
24.517
 30
0.0
 10
86.4115
 20
24.804
 30
0.0
 10
88.1438
 20
24.2872
 30
0.0
 10
89.4039
 20
23.1179
 30
0.0
 10
89.4039
 20
23.1179
 30
0.0
 10
90.8167
 20
21.4574
 30
0.0
 10
90.9495
 20
19.0594
 30
0.0
 10
89.73
 20
17.253
 30
0.0
 10
89.73
 20
17.253
 30
0.0
 10
89.1637
 20
16.793
 30
0.0
 10
88.386
 20
16.6912
 30
0.0
 10
87.7204
 20
16.9897
 30
0.0
 10
87.7204
 20
16.9897
 30
0.0
 10
87.0547
 20
17.2881
 30
0.0
 10
86.6137
 20
17.9363
 30
0.0
 10
86.58
 20
18.6652
 30
0.0
 10
86.58
 20
18.6652
 30
0.0
 10
87.0492
 20
19.1858
 30
0.0
 10
87.0547
 20
19.9751
 30
0.0
 10
86.5927
 20
20.5018
 30
0.0
 10
86.5927
 20
20.5018
 30
0.0
 10
86.1307
 20
21.0285
 30
0.0
 10
85.3476
 20
21.1258
 30
0.0
 10
84.7701
 20
20.7285
 30
0.0
 10
84.7701
 20
20.7285
 30
0.0
 10
82.901
 20
19.4438
 30
0.0
 10
82.333
 20
16.9375
 30
0.0
 10
83.4668
 20
14.9725
 30
0.0
 10
83.4668
 20
14.9725
 30
0.0
 10
84.3206
 20
13.7032
 30
0.0
 10
85.6997
 20
12.8855
 30
0.0
 10
87.2228
 20
12.745
 30
0.0
 10
87.2228
 20
12.745
 30
0.0
 10
88.7458
 20
12.6051
 30
0.0
 10
90.2513
 20
13.157
 30
0.0
 10
91.3228
 20
14.2486
 30
0.0
 10
91.3228
 20
14.2486
 30
0.0
 10
93.0887
 20
16.6249
 30
0.0
 10
93.512
 20
19.7407
 30
0.0
 10
92.445
 20
22.5024
 30
0.0
 10
92.445
 20
22.5024
 30
0.0
 10
90.8171
 20
25.291
 30
0.0
 10
89.8976
 20
28.4356
 30
0.0
 10
89.7661
 20
31.6617
 30
0.0
 10
89.7661
 20
31.6617
 30
0.0
 10
88.3469
 20
29.4003
 30
0.0
 10
85.5337
 20
28.4475
 30
0.0
 10
83.0324
 20
29.3811
 30
0.0
  0
SPLINE
  5
A0
330
1F
100
AcDbEntity
  8
layer 1
 62
     7
370
     9
100
AcDbSpline
210
0.0
220
0.0
230
1.0
 70
    11
 71
     3
 72
    16
 73
    12
 74
     0
 42
0.0000000001
 43
0.0000000001
 12
1.0
 22
0.0
 32
0.0
 13
1.0
 23
0.0
 33
0.0
 40
0.0
 40
0.0
 40
0.0
 40
0.0
 40
0.25
 40
0.25
 40
0.25
 40
0.25
 40
0.5
 40
0.5
 40
0.5
 40
0.5
 40
1.0
 40
1.0
 40
1.0
 40
1.0
 10
87.6301
 20
68.6968
 30
0.0
 10
84.4245
 20
69.8276
 30
0.0
 10
81.8986
 20
72.3413
 30
0.0
 10
80.7518
 20
75.5408
 30
0.0
 10
80.7518
 20
75.5408
 30
0.0
 10
80.7518
 20
75.5408
 30
0.0
 10
80.7518
 20
61.0108
 30
0.0
 10
80.7518
 20
61.0108
 30
0.0
 10
80.7518
 20
61.0108
 30
0.0
 10
81.9363
 20
64.3825
 30
0.0
 10
84.4099
 20
67.1466
 30
0.0
 10
87.6301
 20
68.6968
 30
0.0
  0
SPLINE
  5
A1
330
1F
100
AcDbEntity
  8
layer 1
 62
     7
370
     9
100
AcDbSpline
210
0.0
220
0.0
230
1.0
 70
    11
 71
     3
 72
    16
 73
    12
 74
     0
 42
0.0000000001
 43
0.0000000001
 12
1.0
 22
0.0
 32
0.0
 13
1.0
 23
0.0
 33
0.0
 40
0.0
 40
0.0
 40
0.0
 40
0.0
 40
0.25
 40
0.25
 40
0.25
 40
0.25
 40
0.5
 40
0.5
 40
0.5
 40
0.5
 40
1.0
 40
1.0
 40
1.0
 40
1.0
 10
87.5578
 20
89.9838
 30
0.0
 10
84.7089
 20
91.9867
 30
0.0
 10
82.3762
 20
94.6375
 30
0.0
 10
80.7518
 20
97.7178
 30
0.0
 10
80.7518
 20
97.7178
 30
0.0
 10
80.7518
 20
97.7178
 30
0.0
 10
80.7518
 20
83.1653
 30
0.0
 10
80.7518
 20
83.1653
 30
0.0
 10
80.7518
 20
83.1653
 30
0.0
 10
81.889
 20
86.3397
 30
0.0
 10
84.3853
 20
88.8404
 30
0.0
 10
87.5578
 20
89.9838
 30
0.0
  0
SPLINE
  5
A2
330
1F
100
AcDbEntity
  8
layer 1
 62
     7
370
     9
100
AcDbSpline
210
0.0
220
0.0
230
1.0
 70
    11
 71
     3
 72
    20
 73
    16
 74
     0
 42
0.0000000001
 43
0.0000000001
 12
1.0
 22
0.0
 32
0.0
 13
1.0
 23
0.0
 33
0.0
 40
0.0
 40
0.0
 40
0.0
 40
0.0
 40
0.2
 40
0.2
 40
0.2
 40
0.2
 40
0.4
 40
0.4
 40
0.4
 40
0.4
 40
0.6
 40
0.6
 40
0.6
 40
0.6
 40
1.0
 40
1.0
 40
1.0
 40
1.0
 10
122.9153
 20
20.7165
 30
0.0
 10
126.0703
 20
20.4702
 30
0.0
 10
129.009
 20
19.0183
 30
0.0
 10
131.1215
 20
16.662
 30
0.0
 10
131.1215
 20
16.662
 30
0.0
 10
130.8973
 20
15.4024
 30
0.0
 10
130.8727
 20
14.1156
 30
0.0
 10
131.0487
 20
12.8484
 30
0.0
 10
131.0487
 20
12.8484
 30
0.0
 10
129.7053
 20
12.9076
 30
0.0
 10
128.3598
 20
12.8915
 30
0.0
 10
127.0184
 20
12.8002
 30
0.0
 10
127.0184
 20
12.8002
 30
0.0
 10
124.6932
 20
14.8209
 30
0.0
 10
123.2259
 20
17.6519
 30
0.0
 10
122.9153
 20
20.7165
 30
0.0
  0
SPLINE
  5
A3
330
1F
100
AcDbEntity
  8
layer 1
 62
     7
370
     9
100
AcDbSpline
210
0.0
220
0.0
230
1.0
 70
    11
 71
     3
 72
    16
 73
    12
 74
     0
 42
0.0000000001
 43
0.0000000001
 12
1.0
 22
0.0
 32
0.0
 13
1.0
 23
0.0
 33
0.0
 40
0.0
 40
0.0
 40
0.0
 40
0.0
 40
0.25
 40
0.25
 40
0.25
 40
0.25
 40
0.5
 40
0.5
 40
0.5
 40
0.5
 40
1.0
 40
1.0
 40
1.0
 40
1.0
 10
133.7416
 20
14.4137
 30
0.0
 10
133.5084
 20
13.2251
 30
0.0
 10
133.6789
 20
11.9921
 30
0.0
 10
134.2258
 20
10.9111
 30
0.0
 10
134.2258
 20
10.9111
 30
0.0
 10
134.7003
 20
11.2562
 30
0.0
 10
135.2677
 20
11.4804
 30
0.0
 10
135.8832
 20
11.5392
 30
0.0
 10
135.8832
 20
11.5392
 30
0.0
 10
135.6676
 20
12.7837
 30
0.0
 10
134.8724
 20
13.8512
 30
0.0
 10
133.7416
 20
14.4137
 30
0.0
  0
SPLINE
  5
A4
330
1F
100
AcDbEntity
  8
layer 1
 62
     7
370
     9
100
AcDbSpline
210
0.0
220
0.0
230
1.0
 70
    11
 71
     3
 72
    16
 73
    12
 74
     0
 42
0.0000000001
 43
0.0000000001
 12
1.0
 22
0.0
 32
0.0
 13
1.0
 23
0.0
 33
0.0
 40
0.0
 40
0.0
 40
0.0
 40
0.0
 40
0.25
 40
0.25
 40
0.25
 40
0.25
 40
0.5
 40
0.5
 40
0.5
 40
0.5
 40
1.0
 40
1.0
 40
1.0
 40
1.0
 10
130.0179
 20
10.7315
 30
0.0
 10
130.6183
 20
9.6554
 30
0.0
 10
131.6512
 20
8.8878
 30
0.0
 10
132.8553
 20
8.624
 30
0.0
 10
132.8553
 20
8.624
 30
0.0
 10
132.94
 20
9.2581
 30
0.0
 10
133.2018
 20
9.838
 30
0.0
 10
133.5886
 20
10.31
 30
0.0
 10
133.5886
 20
10.31
 30
0.0
 10
132.474
 20
10.8287
 30
0.0
 10
131.2223
 20
10.9768
 30
0.0
 10
130.0179
 20
10.7315
 30
0.0
  0
SPLINE
  5
A5
330
1F
100
AcDbEntity
  8
layer 1
 62
     7
370
     9
100
AcDbSpline
210
0.0
220
0.0
230
1.0
 70
    27
 71
     3
 72
     8
 73
     4
 74
     0
 42
0.0000000001
 43
0.0000000001
 12
1.0
 22
0.0
 32
0.0
 13
1.0
 23
0.0
 33
0.0
 40
0.0
 40
0.0
 40
0.0
 40
0.0
 40
1.0
 40
1.0
 40
1.0
 40
1.0
 10
132.8241
 20
8.1664
 30
0.0
 10
132.8241
 20
8.163
 30
0.0
 10
132.8241
 20
8.165
 30
0.0
 10
132.8241
 20
8.1664
 30
0.0
  0
SPLINE
  5
A6
330
1F
100
AcDbEntity
  8
layer 1
 62
     7
370
     9
100
AcDbSpline
210
0.0
220
0.0
230
1.0
 70
    11
 71
     3
 72
    20
 73
    16
 74
     0
 42
0.0000000001
 43
0.0000000001
 12
1.0
 22
0.0
 32
0.0
 13
1.0
 23
0.0
 33
0.0
 40
0.0
 40
0.0
 40
0.0
 40
0.0
 40
0.2
 40
0.2
 40
0.2
 40
0.2
 40
0.4
 40
0.4
 40
0.4
 40
0.4
 40
0.6
 40
0.6
 40
0.6
 40
0.6
 40
1.0
 40
1.0
 40
1.0
 40
1.0
 10
124.5567
 20
40.2175
 30
0.0
 10
127.9114
 20
36.0377
 30
0.0
 10
130.4664
 20
31.2749
 30
0.0
 10
132.0932
 20
26.168
 30
0.0
 10
132.0932
 20
26.168
 30
0.0
 10
131.2148
 20
24.4825
 30
0.0
 10
130.4859
 20
22.7226
 30
0.0
 10
129.9145
 20
20.9096
 30
0.0
 10
129.9145
 20
20.9096
 30
0.0
 10
129.9145
 20
20.9096
 30
0.0
 10
129.8177
 20
20.5715
 30
0.0
 10
129.8177
 20
20.5715
 30
0.0
 10
129.8177
 20
20.5715
 30
0.0
 10
126.272
 20
26.5036
 30
0.0
 10
124.4499
 20
33.3072
 30
0.0
 10
124.5567
 20
40.2175
 30
0.0
  0
SPLINE
  5
A7
330
1F
100
AcDbEntity
  8
layer 1
 62
     7
370
     9
100
AcDbSpline
210
0.0
220
0.0
230
1.0
 70
    11
 71
     3
 72
    24
 73
    20
 74
     0
 42
0.0000000001
 43
0.0000000001
 12
1.0
 22
0.0
 32
0.0
 13
1.0
 23
0.0
 33
0.0
 40
0.0
 40
0.0
 40
0.0
 40
0.0
 40
0.1666666666666667
 40
0.1666666666666667
 40
0.1666666666666667
 40
0.1666666666666667
 40
0.3333333333333333
 40
0.3333333333333333
 40
0.3333333333333333
 40
0.3333333333333333
 40
0.5
 40
0.5
 40
0.5
 40
0.5
 40
0.6666666666666666
 40
0.6666666666666666
 40
0.6666666666666666
 40
0.6666666666666666
 40
1.0
 40
1.0
 40
1.0
 40
1.0
 10
135.5617
 20
54.6502
 30
0.0
 10
132.948
 20
52.8226
 30
0.0
 10
130.6905
 20
50.5326
 30
0.0
 10
128.9006
 20
47.8923
 30
0.0
 10
128.9006
 20
47.8923
 30
0.0
 10
130.9665
 20
43.9158
 30
0.0
 10
132.8352
 20
39.8402
 30
0.0
 10
134.5001
 20
35.6805
 30
0.0
 10
134.5001
 20
35.6805
 30
0.0
 10
135.5356
 20
40.1903
 30
0.0
 10
134.1024
 20
44.9115
 30
0.0
 10
130.7352
 20
48.0856
 30
0.0
 10
130.7352
 20
48.0856
 30
0.0
 10
130.7352
 20
48.0856
 30
0.0
 10
134.5965
 20
48.0856
 30
0.0
 10
134.5965
 20
48.0856
 30
0.0
 10
134.5965
 20
48.0856
 30
0.0
 10
134.2252
 20
50.3209
 30
0.0
 10
134.5628
 20
52.6166
 30
0.0
 10
135.5617
 20
54.6502
 30
0.0
  0
SPLINE
  5
A8
330
1F
100
AcDbEntity
  8
layer 1
 62
     7
370
     9
100
AcDbSpline
210
0.0
220
0.0
230
1.0
 70
    11
 71
     3
 72
    16
 73
    12
 74
     0
 42
0.0000000001
 43
0.0000000001
 12
1.0
 22
0.0
 32
0.0
 13
1.0
 23
0.0
 33
0.0
 40
0.0
 40
0.0
 40
0.0
 40
0.0
 40
0.25
 40
0.25
 40
0.25
 40
0.25
 40
0.5
 40
0.5
 40
0.5
 40
0.5
 40
1.0
 40
1.0
 40
1.0
 40
1.0
 10
126.7771
 20
45.0444
 30
0.0
 10
126.2168
 20
44.6818
 30
0.0
 10
125.7401
 20
44.2047
 30
0.0
 10
125.377
 20
43.6449
 30
0.0
 10
125.377
 20
43.6449
 30
0.0
 10
127.2923
 20
41.2243
 30
0.0
 10
129.2553
 20
38.8424
 30
0.0
 10
131.266
 20
36.5007
 30
0.0
 10
131.266
 20
36.5007
 30
0.0
 10
129.8814
 20
39.4058
 30
0.0
 10
128.3834
 20
42.2557
 30
0.0
 10
126.7771
 20
45.0444
 30
0.0
  0
SPLINE
  5
A9
330
1F
100
AcDbEntity
  8
layer 1
 62
     7
370
     9
100
AcDbSpline
210
0.0
220
0.0
230
1.0
 70
    11
 71
     3
 72
    16
 73
    12
 74
     0
 42
0.0000000001
 43
0.0000000001
 12
1.0
 22
0.0
 32
0.0
 13
1.0
 23
0.0
 33
0.0
 40
0.0
 40
0.0
 40
0.0
 40
0.0
 40
0.25
 40
0.25
 40
0.25
 40
0.25
 40
0.5
 40
0.5
 40
0.5
 40
0.5
 40
1.0
 40
1.0
 40
1.0
 40
1.0
 10
135.031
 20
96.5486
 30
0.0
 10
133.7271
 20
93.612
 30
0.0
 10
131.6603
 20
91.0786
 30
0.0
 10
129.0456
 20
89.2114
 30
0.0
 10
129.0456
 20
89.2114
 30
0.0
 10
130.9098
 20
88.8935
 30
0.0
 10
132.761
 20
88.507
 30
0.0
 10
134.5965
 20
88.053
 30
0.0
 10
134.5965
 20
88.053
 30
0.0
 10
134.9036
 20
90.8743
 30
0.0
 10
135.0485
 20
93.7107
 30
0.0
 10
135.031
 20
96.5486
 30
0.0
  0
SPLINE
  5
AA
330
1F
100
AcDbEntity
  8
layer 1
 62
     7
370
     9
100
AcDbSpline
210
0.0
220
0.0
230
1.0
 70
    11
 71
     3
 72
    56
 73
    52
 74
     0
 42
0.0000000001
 43
0.0000000001
 12
1.0
 22
0.0
 32
0.0
 13
1.0
 23
0.0
 33
0.0
 40
0.0
 40
0.0
 40
0.0
 40
0.0
 40
0.0714285714285714
 40
0.0714285714285714
 40
0.0714285714285714
 40
0.0714285714285714
 40
0.1428571428571428
 40
0.1428571428571428
 40
0.1428571428571428
 40
0.1428571428571428
 40
0.2142857142857143
 40
0.2142857142857143
 40
0.2142857142857143
 40
0.2142857142857143
 40
0.2857142857142857
 40
0.2857142857142857
 40
0.2857142857142857
 40
0.2857142857142857
 40
0.3571428571428572
 40
0.3571428571428572
 40
0.3571428571428572
 40
0.3571428571428572
 40
0.4285714285714285
 40
0.4285714285714285
 40
0.4285714285714285
 40
0.4285714285714285
 40
0.5
 40
0.5
 40
0.5
 40
0.5
 40
0.5714285714285714
 40
0.5714285714285714
 40
0.5714285714285714
 40
0.5714285714285714
 40
0.6428571428571429
 40
0.6428571428571429
 40
0.6428571428571429
 40
0.6428571428571429
 40
0.7142857142857143
 40
0.7142857142857143
 40
0.7142857142857143
 40
0.7142857142857143
 40
0.7857142857142857
 40
0.7857142857142857
 40
0.7857142857142857
 40
0.7857142857142857
 40
0.8571428571428571
 40
0.8571428571428571
 40
0.8571428571428571
 40
0.8571428571428571
 40
1.0
 40
1.0
 40
1.0
 40
1.0
 10
120.1156
 20
101.1824
 30
0.0
 10
120.7145
 20
99.1498
 30
0.0
 10
120.2495
 20
96.9523
 30
0.0
 10
118.8774
 20
95.337
 30
0.0
 10
118.8774
 20
95.337
 30
0.0
 10
117.5055
 20
93.7222
 30
0.0
 10
115.4119
 20
92.9072
 30
0.0
 10
113.3096
 20
93.1696
 30
0.0
 10
113.3096
 20
93.1696
 30
0.0
 10
112.0288
 20
93.368
 30
0.0
 10
110.9267
 20
94.1808
 30
0.0
 10
110.3588
 20
95.3453
 30
0.0
 10
110.3588
 20
95.3453
 30
0.0
 10
109.791
 20
96.5101
 30
0.0
 10
109.8295
 20
97.8791
 30
0.0
 10
110.4616
 20
99.0103
 30
0.0
 10
110.4616
 20
99.0103
 30
0.0
 10
111.1244
 20
98.1576
 30
0.0
 10
112.1622
 20
97.6834
 30
0.0
 10
113.2408
 20
97.7411
 30
0.0
 10
113.2408
 20
97.7411
 30
0.0
 10
114.3188
 20
97.799
 30
0.0
 10
115.3002
 20
98.3812
 30
0.0
 10
115.868
 20
99.2998
 30
0.0
 10
115.868
 20
99.2998
 30
0.0
 10
116.1067
 20
100.5397
 30
0.0
 10
115.7185
 20
101.8174
 30
0.0
 10
114.8306
 20
102.7148
 30
0.0
 10
114.8306
 20
102.7148
 30
0.0
 10
113.9427
 20
103.6124
 30
0.0
 10
112.6694
 20
104.0143
 30
0.0
 10
111.4273
 20
103.7889
 30
0.0
 10
111.4273
 20
103.7889
 30
0.0
 10
109.3218
 20
103.4169
 30
0.0
 10
107.5605
 20
101.9796
 30
0.0
 10
106.7734
 20
99.9919
 30
0.0
 10
106.7734
 20
99.9919
 30
0.0
 10
105.9863
 20
98.0045
 30
0.0
 10
106.2864
 20
95.751
 30
0.0
 10
107.5655
 20
94.0384
 30
0.0
 10
107.5655
 20
94.0384
 30
0.0
 10
109.3555
 20
92.0
 30
0.0
 10
111.7333
 20
90.5664
 30
0.0
 10
114.3716
 20
89.9355
 30
0.0
 10
114.3716
 20
89.9355
 30
0.0
 10
122.4011
 20
88.3023
 30
0.0
 10
130.3464
 20
93.082
 30
0.0
 10
132.6656
 20
100.941
 30
0.0
 10
132.6656
 20
100.941
 30
0.0
 10
128.7482
 20
98.7388
 30
0.0
 10
123.9457
 20
98.8311
 30
0.0
 10
120.1156
 20
101.1824
 30
0.0
  0
SPLINE
  5
AB
330
1F
100
AcDbEntity
  8
layer 1
 62
     7
370
     9
100
AcDbSpline
210
0.0
220
0.0
230
1.0
 70
    11
 71
     3
 72
    40
 73
    36
 74
     0
 42
0.0000000001
 43
0.0000000001
 12
1.0
 22
0.0
 32
0.0
 13
1.0
 23
0.0
 33
0.0
 40
0.0
 40
0.0
 40
0.0
 40
0.0
 40
0.1
 40
0.1
 40
0.1
 40
0.1
 40
0.2
 40
0.2
 40
0.2
 40
0.2
 40
0.3
 40
0.3
 40
0.3
 40
0.3
 40
0.4
 40
0.4
 40
0.4
 40
0.4
 40
0.5
 40
0.5
 40
0.5
 40
0.5
 40
0.6
 40
0.6
 40
0.6
 40
0.6
 40
0.7
 40
0.7
 40
0.7
 40
0.7
 40
0.8
 40
0.8
 40
0.8
 40
0.8
 40
1.0
 40
1.0
 40
1.0
 40
1.0
 10
104.09
 20
92.1076
 30
0.0
 10
103.8493
 20
91.4394
 30
0.0
 10
103.3335
 20
90.9064
 30
0.0
 10
102.6738
 20
90.6435
 30
0.0
 10
102.6738
 20
90.6435
 30
0.0
 10
102.0142
 20
90.3806
 30
0.0
 10
101.2733
 20
90.4128
 30
0.0
 10
100.6386
 20
90.7321
 30
0.0
 10
100.6386
 20
90.7321
 30
0.0
 10
100.929
 20
91.5033
 30
0.0
 10
101.076
 20
92.3213
 30
0.0
 10
101.0731
 20
93.1456
 30
0.0
 10
101.0731
 20
93.1456
 30
0.0
 10
101.0786
 20
93.3542
 30
0.0
 10
100.9677
 20
93.5486
 30
0.0
 10
100.7851
 20
93.6498
 30
0.0
 10
100.7851
 20
93.6498
 30
0.0
 10
100.6025
 20
93.7512
 30
0.0
 10
100.3788
 20
93.7429
 30
0.0
 10
100.2042
 20
93.6282
 30
0.0
 10
100.2042
 20
93.6282
 30
0.0
 10
99.2796
 20
93.0955
 30
0.0
 10
98.7158
 20
92.1038
 30
0.0
 10
98.7308
 20
91.0365
 30
0.0
 10
98.7308
 20
91.0365
 30
0.0
 10
98.7453
 20
89.9693
 30
0.0
 10
99.3373
 20
88.9938
 30
0.0
 10
100.2769
 20
88.4876
 30
0.0
 10
100.2769
 20
88.4876
 30
0.0
 10
104.2375
 20
86.8849
 30
0.0
 10
108.5619
 20
86.4007
 30
0.0
 10
112.7788
 20
87.0876
 30
0.0
 10
112.7788
 20
87.0876
 30
0.0
 10
109.5411
 20
88.084
 30
0.0
 10
106.5702
 20
89.8002
 30
0.0
 10
104.09
 20
92.1076
 30
0.0
  0
SPLINE
  5
AC
330
1F
100
AcDbEntity
  8
layer 1
 62
     7
370
     9
100
AcDbSpline
210
0.0
220
0.0
230
1.0
 70
    11
 71
     3
 72
    32
 73
    28
 74
     0
 42
0.0000000001
 43
0.0000000001
 12
1.0
 22
0.0
 32
0.0
 13
1.0
 23
0.0
 33
0.0
 40
0.0
 40
0.0
 40
0.0
 40
0.0
 40
0.125
 40
0.125
 40
0.125
 40
0.125
 40
0.25
 40
0.25
 40
0.25
 40
0.25
 40
0.375
 40
0.375
 40
0.375
 40
0.375
 40
0.5
 40
0.5
 40
0.5
 40
0.5
 40
0.625
 40
0.625
 40
0.625
 40
0.625
 40
0.75
 40
0.75
 40
0.75
 40
0.75
 40
1.0
 40
1.0
 40
1.0
 40
1.0
 10
102.4972
 20
82.9847
 30
0.0
 10
103.9269
 20
80.4291
 30
0.0
 10
104.1958
 20
77.3845
 30
0.0
 10
103.2367
 20
74.6174
 30
0.0
 10
103.2367
 20
74.6174
 30
0.0
 10
102.2775
 20
71.8512
 30
0.0
 10
100.1816
 20
69.6258
 30
0.0
 10
97.4772
 20
68.5036
 30
0.0
 10
97.4772
 20
68.5036
 30
0.0
 10
98.8968
 20
67.717
 30
0.0
 10
100.2969
 20
66.8963
 30
0.0
 10
101.6766
 20
66.042
 30
0.0
 10
101.6766
 20
66.042
 30
0.0
 10
101.5035
 20
68.8277
 30
0.0
 10
102.8143
 20
71.4976
 30
0.0
 10
105.1244
 20
73.0637
 30
0.0
 10
105.1244
 20
73.0637
 30
0.0
 10
107.4341
 20
74.6303
 30
0.0
 10
110.3999
 20
74.8601
 30
0.0
 10
112.9238
 20
73.6687
 30
0.0
 10
112.9238
 20
73.6687
 30
0.0
 10
112.7472
 20
76.9826
 30
0.0
 10
113.7189
 20
80.2554
 30
0.0
 10
115.6749
 20
82.9364
 30
0.0
 10
115.6749
 20
82.9364
 30
0.0
 10
111.34
 20
81.9135
 30
0.0
 10
106.8246
 20
81.93
 30
0.0
 10
102.4972
 20
82.9847
 30
0.0
  0
SPLINE
  5
AD
330
1F
100
AcDbEntity
  8
layer 1
 62
     7
370
     9
100
AcDbSpline
210
0.0
220
0.0
230
1.0
 70
    11
 71
     3
 72
    60
 73
    56
 74
     0
 42
0.0000000001
 43
0.0000000001
 12
1.0
 22
0.0
 32
0.0
 13
1.0
 23
0.0
 33
0.0
 40
0.0
 40
0.0
 40
0.0
 40
0.0
 40
0.0666666666666667
 40
0.0666666666666667
 40
0.0666666666666667
 40
0.0666666666666667
 40
0.1333333333333333
 40
0.1333333333333333
 40
0.1333333333333333
 40
0.1333333333333333
 40
0.2
 40
0.2
 40
0.2
 40
0.2
 40
0.2666666666666667
 40
0.2666666666666667
 40
0.2666666666666667
 40
0.2666666666666667
 40
0.3333333333333333
 40
0.3333333333333333
 40
0.3333333333333333
 40
0.3333333333333333
 40
0.4
 40
0.4
 40
0.4
 40
0.4
 40
0.4666666666666667
 40
0.4666666666666667
 40
0.4666666666666667
 40
0.4666666666666667
 40
0.5333333333333333
 40
0.5333333333333333
 40
0.5333333333333333
 40
0.5333333333333333
 40
0.6
 40
0.6
 40
0.6
 40
0.6
 40
0.6666666666666666
 40
0.6666666666666666
 40
0.6666666666666666
 40
0.6666666666666666
 40
0.7333333333333333
 40
0.7333333333333333
 40
0.7333333333333333
 40
0.7333333333333333
 40
0.8
 40
0.8
 40
0.8
 40
0.8
 40
0.8666666666666667
 40
0.8666666666666667
 40
0.8666666666666667
 40
0.8666666666666667
 40
1.0
 40
1.0
 40
1.0
 40
1.0
 10
93.0365
 20
81.2227
 30
0.0
 10
93.4598
 20
82.362
 30
0.0
 10
94.5735
 20
83.0947
 30
0.0
 10
95.7875
 20
83.0329
 30
0.0
 10
95.7875
 20
83.0329
 30
0.0
 10
97.2037
 20
82.8698
 30
0.0
 10
98.4794
 20
82.1011
 30
0.0
 10
99.2846
 20
80.9252
 30
0.0
 10
99.2846
 20
80.9252
 30
0.0
 10
100.0903
 20
79.7493
 30
0.0
 10
100.3467
 20
78.2819
 30
0.0
 10
99.9869
 20
76.9029
 30
0.0
 10
99.9869
 20
76.9029
 30
0.0
 10
98.7614
 20
72.9674
 30
0.0
 10
94.6579
 20
70.6923
 30
0.0
 10
90.6711
 20
71.7378
 30
0.0
 10
90.6711
 20
71.7378
 30
0.0
 10
86.4516
 20
73.149
 30
0.0
 10
84.135
 20
77.675
 30
0.0
 10
85.4579
 20
81.923
 30
0.0
 10
85.4579
 20
81.923
 30
0.0
 10
86.9805
 20
85.4153
 30
0.0
 10
90.926
 20
87.1574
 30
0.0
 10
94.5324
 20
85.929
 30
0.0
 10
94.5324
 20
85.929
 30
0.0
 10
93.3967
 20
85.7703
 30
0.0
 10
92.3181
 20
85.3305
 30
0.0
 10
91.395
 20
84.6499
 30
0.0
 10
91.395
 20
84.6499
 30
0.0
 10
89.0056
 20
82.7993
 30
0.0
 10
88.2316
 20
79.532
 30
0.0
 10
89.5369
 20
76.806
 30
0.0
 10
89.5369
 20
76.806
 30
0.0
 10
90.2388
 20
75.6407
 30
0.0
 10
91.5018
 20
74.9304
 30
0.0
 10
92.8624
 20
74.9349
 30
0.0
 10
92.8624
 20
74.9349
 30
0.0
 10
94.2224
 20
74.9399
 30
0.0
 10
95.4801
 20
75.6597
 30
0.0
 10
96.1739
 20
76.8302
 30
0.0
 10
96.1739
 20
76.8302
 30
0.0
 10
96.4924
 20
77.4488
 30
0.0
 10
96.4196
 20
78.1962
 30
0.0
 10
95.9882
 20
78.7425
 30
0.0
 10
95.9882
 20
78.7425
 30
0.0
 10
95.5569
 20
79.2883
 30
0.0
 10
94.846
 20
79.5311
 30
0.0
 10
94.1707
 20
79.3645
 30
0.0
 10
94.1707
 20
79.3645
 30
0.0
 10
93.7011
 20
79.2943
 30
0.0
 10
93.2351
 20
79.512
 30
0.0
 10
92.9878
 20
79.9178
 30
0.0
 10
92.9878
 20
79.9178
 30
0.0
 10
92.74
 20
80.3233
 30
0.0
 10
92.7596
 20
80.8369
 30
0.0
 10
93.0365
 20
81.2227
 30
0.0
  0
SPLINE
  5
AE
330
1F
100
AcDbEntity
  8
layer 1
 62
     7
370
     9
100
AcDbSpline
210
0.0
220
0.0
230
1.0
 70
    11
 71
     3
 72
    92
 73
    88
 74
     0
 42
0.0000000001
 43
0.0000000001
 12
1.0
 22
0.0
 32
0.0
 13
1.0
 23
0.0
 33
0.0
 40
0.0
 40
0.0
 40
0.0
 40
0.0
 40
0.0434782608695652
 40
0.0434782608695652
 40
0.0434782608695652
 40
0.0434782608695652
 40
0.0869565217391304
 40
0.0869565217391304
 40
0.0869565217391304
 40
0.0869565217391304
 40
0.1304347826086956
 40
0.1304347826086956
 40
0.1304347826086956
 40
0.1304347826086956
 40
0.1739130434782609
 40
0.1739130434782609
 40
0.1739130434782609
 40
0.1739130434782609
 40
0.2173913043478261
 40
0.2173913043478261
 40
0.2173913043478261
 40
0.2173913043478261
 40
0.2608695652173913
 40
0.2608695652173913
 40
0.2608695652173913
 40
0.2608695652173913
 40
0.3043478260869565
 40
0.3043478260869565
 40
0.3043478260869565
 40
0.3043478260869565
 40
0.3478260869565217
 40
0.3478260869565217
 40
0.3478260869565217
 40
0.3478260869565217
 40
0.391304347826087
 40
0.391304347826087
 40
0.391304347826087
 40
0.391304347826087
 40
0.4347826086956522
 40
0.4347826086956522
 40
0.4347826086956522
 40
0.4347826086956522
 40
0.4782608695652174
 40
0.4782608695652174
 40
0.4782608695652174
 40
0.4782608695652174
 40
0.5217391304347826
 40
0.5217391304347826
 40
0.5217391304347826
 40
0.5217391304347826
 40
0.5652173913043478
 40
0.5652173913043478
 40
0.5652173913043478
 40
0.5652173913043478
 40
0.6086956521739131
 40
0.6086956521739131
 40
0.6086956521739131
 40
0.6086956521739131
 40
0.6521739130434783
 40
0.6521739130434783
 40
0.6521739130434783
 40
0.6521739130434783
 40
0.6956521739130435
 40
0.6956521739130435
 40
0.6956521739130435
 40
0.6956521739130435
 40
0.7391304347826086
 40
0.7391304347826086
 40
0.7391304347826086
 40
0.7391304347826086
 40
0.782608695652174
 40
0.782608695652174
 40
0.782608695652174
 40
0.782608695652174
 40
0.8260869565217391
 40
0.8260869565217391
 40
0.8260869565217391
 40
0.8260869565217391
 40
0.8695652173913043
 40
0.8695652173913043
 40
0.8695652173913043
 40
0.8695652173913043
 40
0.9130434782608695
 40
0.9130434782608695
 40
0.9130434782608695
 40
0.9130434782608695
 40
1.0
 40
1.0
 40
1.0
 40
1.0
 10
105.1159
 20
31.6256
 30
0.0
 10
104.866
 20
30.9991
 30
0.0
 10
104.249
 20
30.5966
 30
0.0
 10
103.5754
 20
30.6212
 30
0.0
 10
103.5754
 20
30.6212
 30
0.0
 10
102.9011
 20
30.6453
 30
0.0
 10
102.3146
 20
31.0908
 30
0.0
 10
102.111
 20
31.7344
 30
0.0
 10
102.111
 20
31.7344
 30
0.0
 10
101.5998
 20
33.5003
 30
0.0
 10
102.2515
 20
35.3975
 30
0.0
 10
103.7404
 20
36.4766
 30
0.0
 10
103.7404
 20
36.4766
 30
0.0
 10
105.0522
 20
37.2446
 30
0.0
 10
106.6305
 20
37.4147
 30
0.0
 10
108.0763
 20
36.9447
 30
0.0
 10
108.0763
 20
36.9447
 30
0.0
 10
109.522
 20
36.4742
 30
0.0
 10
110.6974
 20
35.4081
 30
0.0
 10
111.3064
 20
34.015
 30
0.0
 10
111.3064
 20
34.015
 30
0.0
 10
112.1969
 20
30.9177
 30
0.0
 10
111.4308
 20
27.5806
 30
0.0
 10
109.2792
 20
25.1817
 30
0.0
 10
109.2792
 20
25.1817
 30
0.0
 10
105.7771
 20
22.2891
 30
0.0
 10
100.724
 20
22.2586
 30
0.0
 10
97.1877
 20
25.109
 30
0.0
 10
97.1877
 20
25.109
 30
0.0
 10
93.5426
 20
28.409
 30
0.0
 10
92.5102
 20
33.717
 30
0.0
 10
94.6533
 20
38.1422
 30
0.0
 10
94.6533
 20
38.1422
 30
0.0
 10
97.1702
 20
42.0862
 30
0.0
 10
101.3354
 20
44.6808
 30
0.0
 10
105.9847
 20
45.2014
 30
0.0
 10
105.9847
 20
45.2014
 30
0.0
 10
110.9954
 20
45.6529
 30
0.0
 10
116.0386
 20
44.8307
 30
0.0
 10
120.6463
 20
42.8121
 30
0.0
 10
120.6463
 20
42.8121
 30
0.0
 10
120.5696
 20
41.3894
 30
0.0
 10
120.5696
 20
39.9631
 30
0.0
 10
120.6463
 20
38.5399
 30
0.0
 10
120.6463
 20
38.5399
 30
0.0
 10
119.315
 20
39.8643
 30
0.0
 10
117.951
 20
41.156
 30
0.0
 10
116.5558
 20
42.4138
 30
0.0
 10
116.5558
 20
42.4138
 30
0.0
 10
115.5149
 20
43.3839
 30
0.0
 10
114.0721
 20
43.7969
 30
0.0
 10
112.6754
 20
43.525
 30
0.0
 10
112.6754
 20
43.525
 30
0.0
 10
111.2788
 20
43.2531
 30
0.0
 10
110.097
 20
42.3285
 30
0.0
 10
109.4964
 20
41.0382
 30
0.0
 10
109.4964
 20
41.0382
 30
0.0
 10
106.5396
 20
42.039
 30
0.0
 10
103.2718
 20
41.3402
 30
0.0
 10
100.9832
 20
39.2172
 30
0.0
 10
100.9832
 20
39.2172
 30
0.0
 10
98.6942
 20
37.0947
 30
0.0
 10
97.7516
 20
33.889
 30
0.0
 10
98.5271
 20
30.8655
 30
0.0
 10
98.5271
 20
30.8655
 30
0.0
 10
98.9309
 20
29.3014
 30
0.0
 10
99.9699
 20
27.9775
 30
0.0
 10
101.3936
 20
27.2139
 30
0.0
 10
101.3936
 20
27.2139
 30
0.0
 10
102.8169
 20
26.451
 30
0.0
 10
104.4949
 20
26.3175
 30
0.0
 10
106.0209
 20
26.8467
 30
0.0
 10
106.0209
 20
26.8467
 30
0.0
 10
107.0127
 20
27.3258
 30
0.0
 10
107.7451
 20
28.2163
 30
0.0
 10
108.0235
 20
29.2818
 30
0.0
 10
108.0235
 20
29.2818
 30
0.0
 10
108.3025
 20
30.3478
 30
0.0
 10
108.0993
 20
31.4825
 30
0.0
 10
107.4688
 20
32.3855
 30
0.0
 10
107.4688
 20
32.3855
 30
0.0
 10
107.0991
 20
32.7513
 30
0.0
 10
106.5563
 20
32.8807
 30
0.0
 10
106.0615
 20
32.7207
 30
0.0
 10
106.0615
 20
32.7207
 30
0.0
 10
105.5664
 20
32.5607
 30
0.0
 10
105.2018
 20
32.1388
 30
0.0
 10
105.1159
 20
31.6256
 30
0.0
  0
SPLINE
  5
AF
330
1F
100
AcDbEntity
  8
layer 1
 62
     7
370
     9
100
AcDbSpline
210
0.0
220
0.0
230
1.0
 70
    11
 71
     3
 72
    24
 73
    20
 74
     0
 42
0.0000000001
 43
0.0000000001
 12
1.0
 22
0.0
 32
0.0
 13
1.0
 23
0.0
 33
0.0
 40
0.0
 40
0.0
 40
0.0
 40
0.0
 40
0.1666666666666667
 40
0.1666666666666667
 40
0.1666666666666667
 40
0.1666666666666667
 40
0.3333333333333333
 40
0.3333333333333333
 40
0.3333333333333333
 40
0.3333333333333333
 40
0.5
 40
0.5
 40
0.5
 40
0.5
 40
0.6666666666666666
 40
0.6666666666666666
 40
0.6666666666666666
 40
0.6666666666666666
 40
1.0
 40
1.0
 40
1.0
 40
1.0
 10
124.7012
 20
64.3162
 30
0.0
 10
122.7237
 20
59.8495
 30
0.0
 10
123.4084
 20
54.6512
 30
0.0
 10
126.4752
 20
50.8492
 30
0.0
 10
126.4752
 20
50.8492
 30
0.0
 10
128.4507
 20
53.3359
 30
0.0
 10
130.7804
 20
55.5191
 30
0.0
 10
133.3899
 20
57.3292
 30
0.0
 10
133.3899
 20
57.3292
 30
0.0
 10
131.2208
 20
59.0193
 30
0.0
 10
129.7099
 20
61.4137
 30
0.0
 10
129.1179
 20
64.0991
 30
0.0
 10
129.1179
 20
64.0991
 30
0.0
 10
128.6769
 20
64.8806
 30
0.0
 10
127.8658
 20
65.3813
 30
0.0
 10
126.9698
 20
65.4254
 30
0.0
 10
126.9698
 20
65.4254
 30
0.0
 10
126.0733
 20
65.4696
 30
0.0
 10
125.217
 20
65.0507
 30
0.0
 10
124.7012
 20
64.3162
 30
0.0
  0
SPLINE
  5
B0
330
1F
100
AcDbEntity
  8
layer 1
 62
     7
370
     9
100
AcDbSpline
210
0.0
220
0.0
230
1.0
 70
    11
 71
     3
 72
    88
 73
    84
 74
     0
 42
0.0000000001
 43
0.0000000001
 12
1.0
 22
0.0
 32
0.0
 13
1.0
 23
0.0
 33
0.0
 40
0.0
 40
0.0
 40
0.0
 40
0.0
 40
0.0454545454545455
 40
0.0454545454545455
 40
0.0454545454545455
 40
0.0454545454545455
 40
0.0909090909090909
 40
0.0909090909090909
 40
0.0909090909090909
 40
0.0909090909090909
 40
0.1363636363636364
 40
0.1363636363636364
 40
0.1363636363636364
 40
0.1363636363636364
 40
0.1818181818181818
 40
0.1818181818181818
 40
0.1818181818181818
 40
0.1818181818181818
 40
0.2272727272727273
 40
0.2272727272727273
 40
0.2272727272727273
 40
0.2272727272727273
 40
0.2727272727272727
 40
0.2727272727272727
 40
0.2727272727272727
 40
0.2727272727272727
 40
0.3181818181818182
 40
0.3181818181818182
 40
0.3181818181818182
 40
0.3181818181818182
 40
0.3636363636363636
 40
0.3636363636363636
 40
0.3636363636363636
 40
0.3636363636363636
 40
0.4090909090909091
 40
0.4090909090909091
 40
0.4090909090909091
 40
0.4090909090909091
 40
0.4545454545454545
 40
0.4545454545454545
 40
0.4545454545454545
 40
0.4545454545454545
 40
0.5
 40
0.5
 40
0.5
 40
0.5
 40
0.5454545454545454
 40
0.5454545454545454
 40
0.5454545454545454
 40
0.5454545454545454
 40
0.5909090909090909
 40
0.5909090909090909
 40
0.5909090909090909
 40
0.5909090909090909
 40
0.6363636363636364
 40
0.6363636363636364
 40
0.6363636363636364
 40
0.6363636363636364
 40
0.6818181818181818
 40
0.6818181818181818
 40
0.6818181818181818
 40
0.6818181818181818
 40
0.7272727272727273
 40
0.7272727272727273
 40
0.7272727272727273
 40
0.7272727272727273
 40
0.7727272727272727
 40
0.7727272727272727
 40
0.7727272727272727
 40
0.7727272727272727
 40
0.8181818181818182
 40
0.8181818181818182
 40
0.8181818181818182
 40
0.8181818181818182
 40
0.8636363636363636
 40
0.8636363636363636
 40
0.8636363636363636
 40
0.8636363636363636
 40
0.9090909090909091
 40
0.9090909090909091
 40
0.9090909090909091
 40
0.9090909090909091
 40
1.0
 40
1.0
 40
1.0
 40
1.0
 10
124.7373
 20
49.1837
 30
0.0
 10
119.8717
 20
53.2968
 30
0.0
 10
118.438
 20
60.1981
 30
0.0
 10
121.2619
 20
65.909
 30
0.0
 10
121.2619
 20
65.909
 30
0.0
 10
120.0283
 20
66.3831
 30
0.0
 10
118.7084
 20
66.5927
 30
0.0
 10
117.3886
 20
66.5246
 30
0.0
 10
117.3886
 20
66.5246
 30
0.0
 10
117.4257
 20
64.4507
 30
0.0
 10
116.3973
 20
62.5023
 30
0.0
 10
114.663
 20
61.3639
 30
0.0
 10
114.663
 20
61.3639
 30
0.0
 10
112.9298
 20
60.2252
 30
0.0
 10
110.733
 20
60.0551
 30
0.0
 10
108.8447
 20
60.913
 30
0.0
 10
108.8447
 20
60.913
 30
0.0
 10
107.6814
 20
61.4423
 30
0.0
 10
106.8387
 20
62.4922
 30
0.0
 10
106.5743
 20
63.7424
 30
0.0
 10
106.5743
 20
63.7424
 30
0.0
 10
106.3098
 20
64.9929
 30
0.0
 10
106.6555
 20
66.2942
 30
0.0
 10
107.5053
 20
67.2484
 30
0.0
 10
107.5053
 20
67.2484
 30
0.0
 10
108.0787
 20
67.8991
 30
0.0
 10
109.0559
 20
67.9984
 30
0.0
 10
109.7483
 20
67.4767
 30
0.0
 10
109.7483
 20
67.4767
 30
0.0
 10
110.4405
 20
66.9549
 30
0.0
 10
110.6152
 20
65.9882
 30
0.0
 10
110.148
 20
65.2573
 30
0.0
 10
110.148
 20
65.2573
 30
0.0
 10
110.0468
 20
64.6539
 30
0.0
 10
110.272
 20
64.0413
 30
0.0
 10
110.7406
 20
63.647
 30
0.0
 10
110.7406
 20
63.647
 30
0.0
 10
111.2091
 20
63.2532
 30
0.0
 10
111.8512
 20
63.1359
 30
0.0
 10
112.4287
 20
63.339
 30
0.0
 10
112.4287
 20
63.339
 30
0.0
 10
113.5428
 20
63.9706
 30
0.0
 10
114.2708
 20
65.114
 30
0.0
 10
114.372
 20
66.3901
 30
0.0
 10
114.372
 20
66.3901
 30
0.0
 10
114.4738
 20
67.6668
 30
0.0
 10
113.9356
 20
68.9105
 30
0.0
 10
112.9353
 20
69.7107
 30
0.0
 10
112.9353
 20
69.7107
 30
0.0
 10
111.466
 20
70.5172
 30
0.0
 10
109.7116
 20
70.6236
 30
0.0
 10
108.1555
 20
69.9996
 30
0.0
 10
108.1555
 20
69.9996
 30
0.0
 10
106.5988
 20
69.3755
 30
0.0
 10
105.4039
 20
68.0873
 30
0.0
 10
104.8987
 20
66.4885
 30
0.0
 10
104.8987
 20
66.4885
 30
0.0
 10
103.4459
 20
61.6689
 30
0.0
 10
105.0478
 20
56.4497
 30
0.0
 10
108.9531
 20
53.2747
 30
0.0
 10
108.9531
 20
53.2747
 30
0.0
 10
108.316
 20
55.0065
 30
0.0
 10
109.0775
 20
56.9408
 30
0.0
 10
110.7245
 20
57.7736
 30
0.0
 10
110.7245
 20
57.7736
 30
0.0
 10
112.3709
 20
58.6059
 30
0.0
 10
114.3801
 20
58.0726
 30
0.0
 10
115.3974
 20
56.5324
 30
0.0
 10
115.3974
 20
56.5324
 30
0.0
 10
114.5427
 20
56.4207
 30
0.0
 10
113.8292
 20
55.8251
 30
0.0
 10
113.5659
 20
55.0039
 30
0.0
 10
113.5659
 20
55.0039
 30
0.0
 10
113.3025
 20
54.1832
 30
0.0
 10
113.5363
 20
53.2837
 30
0.0
 10
114.1664
 20
52.6952
 30
0.0
 10
114.1664
 20
52.6952
 30
0.0
 10
117.0439
 20
50.664
 30
0.0
 10
120.083
 20
48.8721
 30
0.0
 10
123.2534
 20
47.3376
 30
0.0
 10
123.2534
 20
47.3376
 30
0.0
 10
123.5549
 20
48.086
 30
0.0
 10
124.0711
 20
48.7282
 30
0.0
 10
124.7373
 20
49.1837
 30
0.0
  0
SPLINE
  5
B1
330
1F
100
AcDbEntity
  8
layer 1
 62
     7
370
     9
100
AcDbSpline
210
0.0
220
0.0
230
1.0
 70
    11
 71
     3
 72
    16
 73
    12
 74
     0
 42
0.0000000001
 43
0.0000000001
 12
1.0
 22
0.0
 32
0.0
 13
1.0
 23
0.0
 33
0.0
 40
0.0
 40
0.0
 40
0.0
 40
0.0
 40
0.25
 40
0.25
 40
0.25
 40
0.25
 40
0.5
 40
0.5
 40
0.5
 40
0.5
 40
1.0
 40
1.0
 40
1.0
 40
1.0
 10
126.4029
 20
68.8778
 30
0.0
 10
126.5328
 20
69.7412
 30
0.0
 10
127.1559
 20
70.449
 30
0.0
 10
127.9956
 20
70.6879
 30
0.0
 10
127.9956
 20
70.6879
 30
0.0
 10
127.9956
 20
70.6879
 30
0.0
 10
128.1407
 20
68.8778
 30
0.0
 10
128.1407
 20
68.8778
 30
0.0
 10
128.1407
 20
68.8778
 30
0.0
 10
128.1407
 20
68.8778
 30
0.0
 10
126.4029
 20
68.8778
 30
0.0
 10
126.4029
 20
68.8778
 30
0.0
  0
SPLINE
  5
B2
330
1F
100
AcDbEntity
  8
layer 1
 62
     7
370
     9
100
AcDbSpline
210
0.0
220
0.0
230
1.0
 70
    11
 71
     3
 72
    52
 73
    48
 74
     0
 42
0.0000000001
 43
0.0000000001
 12
1.0
 22
0.0
 32
0.0
 13
1.0
 23
0.0
 33
0.0
 40
0.0
 40
0.0
 40
0.0
 40
0.0
 40
0.0769230769230769
 40
0.0769230769230769
 40
0.0769230769230769
 40
0.0769230769230769
 40
0.1538461538461539
 40
0.1538461538461539
 40
0.1538461538461539
 40
0.1538461538461539
 40
0.2307692307692308
 40
0.2307692307692308
 40
0.2307692307692308
 40
0.2307692307692308
 40
0.3076923076923077
 40
0.3076923076923077
 40
0.3076923076923077
 40
0.3076923076923077
 40
0.3846153846153846
 40
0.3846153846153846
 40
0.3846153846153846
 40
0.3846153846153846
 40
0.4615384615384616
 40
0.4615384615384616
 40
0.4615384615384616
 40
0.4615384615384616
 40
0.5384615384615384
 40
0.5384615384615384
 40
0.5384615384615384
 40
0.5384615384615384
 40
0.6153846153846154
 40
0.6153846153846154
 40
0.6153846153846154
 40
0.6153846153846154
 40
0.6923076923076923
 40
0.6923076923076923
 40
0.6923076923076923
 40
0.6923076923076923
 40
0.7692307692307693
 40
0.7692307692307693
 40
0.7692307692307693
 40
0.7692307692307693
 40
0.8461538461538461
 40
0.8461538461538461
 40
0.8461538461538461
 40
0.8461538461538461
 40
1.0
 40
1.0
 40
1.0
 40
1.0
 10
122.2395
 20
74.2717
 30
0.0
 10
122.0579
 20
73.5614
 30
0.0
 10
121.4832
 20
73.0186
 30
0.0
 10
120.7628
 20
72.8791
 30
0.0
 10
120.7628
 20
72.8791
 30
0.0
 10
120.0424
 20
72.7396
 30
0.0
 10
119.3065
 20
73.0285
 30
0.0
 10
118.8725
 20
73.6205
 30
0.0
 10
118.8725
 20
73.6205
 30
0.0
 10
117.9835
 20
75.8314
 30
0.0
 10
118.9453
 20
78.3547
 30
0.0
 10
121.0807
 20
79.4127
 30
0.0
 10
121.0807
 20
79.4127
 30
0.0
 10
123.4898
 20
80.4763
 30
0.0
 10
126.298
 20
80.0222
 30
0.0
 10
128.249
 20
78.2544
 30
0.0
 10
128.249
 20
78.2544
 30
0.0
 10
129.029
 20
80.8123
 30
0.0
 10
130.3926
 20
83.1547
 30
0.0
 10
132.2311
 20
85.0963
 30
0.0
 10
132.2311
 20
85.0963
 30
0.0
 10
128.6017
 20
85.689
 30
0.0
 10
124.8778
 20
85.2111
 30
0.0
 10
121.5152
 20
83.7208
 30
0.0
 10
121.5152
 20
83.7208
 30
0.0
 10
118.733
 20
82.1918
 30
0.0
 10
116.9797
 20
79.2929
 30
0.0
 10
116.918
 20
76.1183
 30
0.0
 10
116.918
 20
76.1183
 30
0.0
 10
116.7961
 20
73.633
 30
0.0
 10
118.3763
 20
71.3817
 30
0.0
 10
120.7552
 20
70.6518
 30
0.0
 10
120.7552
 20
70.6518
 30
0.0
 10
121.8799
 20
70.3672
 30
0.0
 10
123.0724
 20
70.6482
 30
0.0
 10
123.9512
 20
71.4047
 30
0.0
 10
123.9512
 20
71.4047
 30
0.0
 10
124.8302
 20
72.1612
 30
0.0
 10
125.2857
 20
73.299
 30
0.0
 10
125.1718
 20
74.4528
 30
0.0
 10
125.1718
 20
74.4528
 30
0.0
 10
124.9927
 20
75.1471
 30
0.0
 10
124.3466
 20
75.6172
 30
0.0
 10
123.6313
 20
75.573
 30
0.0
 10
123.6313
 20
75.573
 30
0.0
 10
122.9153
 20
75.5283
 30
0.0
 10
122.332
 20
74.9831
 30
0.0
 10
122.2395
 20
74.2717
 30
0.0
  0
SPLINE
  5
B3
330
1F
100
AcDbEntity
  8
layer 1
 62
     7
370
     9
100
AcDbSpline
210
0.0
220
0.0
230
1.0
 70
    11
 71
     3
 72
    84
 73
    80
 74
     0
 42
0.0000000001
 43
0.0000000001
 12
1.0
 22
0.0
 32
0.0
 13
1.0
 23
0.0
 33
0.0
 40
0.0
 40
0.0
 40
0.0
 40
0.0
 40
0.0476190476190476
 40
0.0476190476190476
 40
0.0476190476190476
 40
0.0476190476190476
 40
0.0952380952380952
 40
0.0952380952380952
 40
0.0952380952380952
 40
0.0952380952380952
 40
0.1428571428571428
 40
0.1428571428571428
 40
0.1428571428571428
 40
0.1428571428571428
 40
0.1904761904761905
 40
0.1904761904761905
 40
0.1904761904761905
 40
0.1904761904761905
 40
0.2380952380952381
 40
0.2380952380952381
 40
0.2380952380952381
 40
0.2380952380952381
 40
0.2857142857142857
 40
0.2857142857142857
 40
0.2857142857142857
 40
0.2857142857142857
 40
0.3333333333333333
 40
0.3333333333333333
 40
0.3333333333333333
 40
0.3333333333333333
 40
0.3809523809523809
 40
0.3809523809523809
 40
0.3809523809523809
 40
0.3809523809523809
 40
0.4285714285714285
 40
0.4285714285714285
 40
0.4285714285714285
 40
0.4285714285714285
 40
0.4761904761904762
 40
0.4761904761904762
 40
0.4761904761904762
 40
0.4761904761904762
 40
0.5238095238095238
 40
0.5238095238095238
 40
0.5238095238095238
 40
0.5238095238095238
 40
0.5714285714285714
 40
0.5714285714285714
 40
0.5714285714285714
 40
0.5714285714285714
 40
0.6190476190476191
 40
0.6190476190476191
 40
0.6190476190476191
 40
0.6190476190476191
 40
0.6666666666666666
 40
0.6666666666666666
 40
0.6666666666666666
 40
0.6666666666666666
 40
0.7142857142857143
 40
0.7142857142857143
 40
0.7142857142857143
 40
0.7142857142857143
 40
0.7619047619047619
 40
0.7619047619047619
 40
0.7619047619047619
 40
0.7619047619047619
 40
0.8095238095238095
 40
0.8095238095238095
 40
0.8095238095238095
 40
0.8095238095238095
 40
0.8571428571428571
 40
0.8571428571428571
 40
0.8571428571428571
 40
0.8571428571428571
 40
0.9047619047619048
 40
0.9047619047619048
 40
0.9047619047619048
 40
0.9047619047619048
 40
1.0
 40
1.0
 40
1.0
 40
1.0
 10
94.2189
 20
108.6642
 30
0.0
 10
94.0067
 20
109.0622
 30
0.0
 10
93.5677
 20
109.2844
 30
0.0
 10
93.1212
 20
109.2196
 30
0.0
 10
93.1212
 20
109.2196
 30
0.0
 10
92.6753
 20
109.1545
 30
0.0
 10
92.3176
 20
108.8165
 30
0.0
 10
92.2278
 20
108.3746
 30
0.0
 10
92.2278
 20
108.3746
 30
0.0
 10
91.8415
 20
107.0689
 30
0.0
 10
92.0728
 20
105.6581
 30
0.0
 10
92.8553
 20
104.544
 30
0.0
 10
92.8553
 20
104.544
 30
0.0
 10
93.6384
 20
103.43
 30
0.0
 10
94.8871
 20
102.734
 30
0.0
 10
96.2461
 20
102.6547
 30
0.0
 10
96.2461
 20
102.6547
 30
0.0
 10
98.0982
 20
102.5939
 30
0.0
 10
99.8815
 20
103.3597
 30
0.0
 10
101.1127
 20
104.7448
 30
0.0
 10
101.1127
 20
104.7448
 30
0.0
 10
102.3438
 20
106.1298
 30
0.0
 10
102.8951
 20
107.9905
 30
0.0
 10
102.6182
 20
109.8227
 30
0.0
 10
102.6182
 20
109.8227
 30
0.0
 10
102.1912
 20
112.2566
 30
0.0
 10
100.7289
 20
114.3855
 30
0.0
 10
98.61
 20
115.6567
 30
0.0
 10
98.61
 20
115.6567
 30
0.0
 10
96.4909
 20
116.9281
 30
0.0
 10
93.9244
 20
117.2168
 30
0.0
 10
91.5762
 20
116.4476
 30
0.0
 10
91.5762
 20
116.4476
 30
0.0
 10
87.3988
 20
114.8663
 30
0.0
 10
84.5083
 20
111.0172
 30
0.0
 10
84.1546
 20
106.5645
 30
0.0
 10
84.1546
 20
106.5645
 30
0.0
 10
84.0899
 20
99.4636
 30
0.0
 10
88.4086
 20
93.0572
 30
0.0
 10
95.0155
 20
90.4544
 30
0.0
 10
95.0155
 20
90.4544
 30
0.0
 10
94.6749
 20
92.4853
 30
0.0
 10
95.4108
 20
94.5475
 30
0.0
 10
96.9594
 20
95.9044
 30
0.0
 10
96.9594
 20
95.9044
 30
0.0
 10
98.508
 20
97.2615
 30
0.0
 10
100.6492
 20
97.7198
 30
0.0
 10
102.6182
 20
97.1156
 30
0.0
 10
102.6182
 20
97.1156
 30
0.0
 10
102.3493
 20
98.4065
 30
0.0
 10
102.3618
 20
99.7399
 30
0.0
 10
102.6538
 20
101.0254
 30
0.0
 10
102.6538
 20
101.0254
 30
0.0
 10
99.4407
 20
99.632
 30
0.0
 10
95.8748
 20
99.2654
 30
0.0
 10
92.445
 20
99.9757
 30
0.0
 10
92.445
 20
99.9757
 30
0.0
 10
88.7714
 20
101.4065
 30
0.0
 10
86.8616
 20
105.4642
 30
0.0
 10
88.1006
 20
109.2072
 30
0.0
 10
88.1006
 20
109.2072
 30
0.0
 10
88.8812
 20
111.9441
 30
0.0
 10
91.3057
 20
113.8894
 30
0.0
 10
94.1466
 20
114.0582
 30
0.0
 10
94.1466
 20
114.0582
 30
0.0
 10
95.6371
 20
114.1353
 30
0.0
 10
97.0622
 20
113.442
 30
0.0
 10
97.9221
 20
112.2221
 30
0.0
 10
97.9221
 20
112.2221
 30
0.0
 10
98.782
 20
111.0023
 30
0.0
 10
98.9555
 20
109.4265
 30
0.0
 10
98.3822
 20
108.0487
 30
0.0
 10
98.3822
 20
108.0487
 30
0.0
 10
97.9025
 20
107.268
 30
0.0
 10
97.0041
 20
106.8485
 30
0.0
 10
96.0971
 20
106.9823
 30
0.0
 10
96.0971
 20
106.9823
 30
0.0
 10
95.1911
 20
107.1163
 30
0.0
 10
94.4517
 20
107.7781
 30
0.0
 10
94.2189
 20
108.6642
 30
0.0
  0
SPLINE
  5
B4
330
1F
100
AcDbEntity
  8
layer 1
 62
     7
370
     9
100
AcDbSpline
210
0.0
220
0.0
230
1.0
 70
    11
 71
     3
 72
    16
 73
    12
 74
     0
 42
0.0000000001
 43
0.0000000001
 12
1.0
 22
0.0
 32
0.0
 13
1.0
 23
0.0
 33
0.0
 40
0.0
 40
0.0
 40
0.0
 40
0.0
 40
0.25
 40
0.25
 40
0.25
 40
0.25
 40
0.5
 40
0.5
 40
0.5
 40
0.5
 40
1.0
 40
1.0
 40
1.0
 40
1.0
 10
106.2382
 20
112.4293
 30
0.0
 10
106.2382
 20
112.4293
 30
0.0
 10
110.9081
 20
107.759
 30
0.0
 10
110.9081
 20
107.759
 30
0.0
 10
110.9081
 20
107.759
 30
0.0
 10
110.9081
 20
107.759
 30
0.0
 10
106.5642
 20
107.6505
 30
0.0
 10
106.5642
 20
107.6505
 30
0.0
 10
106.5642
 20
107.6505
 30
0.0
 10
106.5642
 20
107.6505
 30
0.0
 10
106.2382
 20
112.4293
 30
0.0
 10
106.2382
 20
112.4293
 30
0.0
  0
SPLINE
  5
B5
330
1F
100
AcDbEntity
  8
layer 1
 62
     7
370
     9
100
AcDbSpline
210
0.0
220
0.0
230
1.0
 70
    11
 71
     3
 72
    20
 73
    16
 74
     0
 42
0.0000000001
 43
0.0000000001
 12
1.0
 22
0.0
 32
0.0
 13
1.0
 23
0.0
 33
0.0
 40
0.0
 40
0.0
 40
0.0
 40
0.0
 40
0.2
 40
0.2
 40
0.2
 40
0.2
 40
0.4
 40
0.4
 40
0.4
 40
0.4
 40
0.6
 40
0.6
 40
0.6
 40
0.6
 40
1.0
 40
1.0
 40
1.0
 40
1.0
 10
137.8483
 20
8.1067
 30
0.0
 10
137.8483
 20
7.1642
 30
0.0
 10
137.0842
 20
6.4001
 30
0.0
 10
136.1416
 20
6.4001
 30
0.0
 10
136.1416
 20
6.4001
 30
0.0
 10
135.199
 20
6.4001
 30
0.0
 10
134.4354
 20
7.1642
 30
0.0
 10
134.4354
 20
8.1067
 30
0.0
 10
134.4354
 20
8.1067
 30
0.0
 10
134.4354
 20
9.0489
 30
0.0
 10
135.199
 20
9.8128
 30
0.0
 10
136.1416
 20
9.8128
 30
0.0
 10
136.1416
 20
9.8128
 30
0.0
 10
137.0842
 20
9.8128
 30
0.0
 10
137.8483
 20
9.0489
 30
0.0
 10
137.8483
 20
8.1067
 30
0.0
  0
SPLINE
  5
B6
330
1F
100
AcDbEntity
  8
layer 1
 62
     7
370
     9
100
AcDbSpline
210
0.0
220
0.0
230
1.0
 70
    11
 71
     3
 72
    16
 73
    12
 74
     0
 42
0.0000000001
 43
0.0000000001
 12
1.0
 22
0.0
 32
0.0
 13
1.0
 23
0.0
 33
0.0
 40
0.0
 40
0.0
 40
0.0
 40
0.0
 40
0.25
 40
0.25
 40
0.25
 40
0.25
 40
0.5
 40
0.5
 40
0.5
 40
0.5
 40
1.0
 40
1.0
 40
1.0
 40
1.0
 10
84.602
 20
8.1183
 30
0.0
 10
83.0855
 20
9.0348
 30
0.0
 10
81.7741
 20
10.2554
 30
0.0
 10
80.7518
 20
11.7031
 30
0.0
 10
80.7518
 20
11.7031
 30
0.0
 10
80.7518
 20
11.7031
 30
0.0
 10
80.7518
 20
4.5334
 30
0.0
 10
80.7518
 20
4.5334
 30
0.0
 10
80.7518
 20
4.5334
 30
0.0
 10
81.7741
 20
5.9807
 30
0.0
 10
83.0855
 20
7.2017
 30
0.0
 10
84.602
 20
8.1183
 30
0.0
  0
SPLINE
  5
B7
330
1F
100
AcDbEntity
  8
layer 1
 62
     7
370
     9
100
AcDbSpline
210
0.0
220
0.0
230
1.0
 70
    11
 71
     3
 72
    16
 73
    12
 74
     0
 42
0.0000000001
 43
0.0000000001
 12
1.0
 22
0.0
 32
0.0
 13
1.0
 23
0.0
 33
0.0
 40
0.0
 40
0.0
 40
0.0
 40
0.0
 40
0.25
 40
0.25
 40
0.25
 40
0.25
 40
0.5
 40
0.5
 40
0.5
 40
0.5
 40
1.0
 40
1.0
 40
1.0
 40
1.0
 10
187.8251
 20
8.1183
 30
0.0
 10
189.3421
 20
7.2017
 30
0.0
 10
190.653
 20
5.9807
 30
0.0
 10
191.6758
 20
4.5334
 30
0.0
 10
191.6758
 20
4.5334
 30
0.0
 10
191.6758
 20
4.5334
 30
0.0
 10
191.6758
 20
11.7031
 30
0.0
 10
191.6758
 20
11.7031
 30
0.0
 10
191.6758
 20
11.7031
 30
0.0
 10
190.653
 20
10.2554
 30
0.0
 10
189.3421
 20
9.0348
 30
0.0
 10
187.8251
 20
8.1183
 30
0.0
  0
SPLINE
  5
B8
330
1F
100
AcDbEntity
  8
layer 1
 62
     7
370
     9
100
AcDbSpline
210
0.0
220
0.0
230
1.0
 70
    11
 71
     3
 72
    68
 73
    64
 74
     0
 42
0.0000000001
 43
0.0000000001
 12
1.0
 22
0.0
 32
0.0
 13
1.0
 23
0.0
 33
0.0
 40
0.0
 40
0.0
 40
0.0
 40
0.0
 40
0.0588235294117647
 40
0.0588235294117647
 40
0.0588235294117647
 40
0.0588235294117647
 40
0.1176470588235294
 40
0.1176470588235294
 40
0.1176470588235294
 40
0.1176470588235294
 40
0.1764705882352941
 40
0.1764705882352941
 40
0.1764705882352941
 40
0.1764705882352941
 40
0.2352941176470588
 40
0.2352941176470588
 40
0.2352941176470588
 40
0.2352941176470588
 40
0.2941176470588235
 40
0.2941176470588235
 40
0.2941176470588235
 40
0.2941176470588235
 40
0.3529411764705883
 40
0.3529411764705883
 40
0.3529411764705883
 40
0.3529411764705883
 40
0.4117647058823529
 40
0.4117647058823529
 40
0.4117647058823529
 40
0.4117647058823529
 40
0.4705882352941176
 40
0.4705882352941176
 40
0.4705882352941176
 40
0.4705882352941176
 40
0.5294117647058824
 40
0.5294117647058824
 40
0.5294117647058824
 40
0.5294117647058824
 40
0.5882352941176471
 40
0.5882352941176471
 40
0.5882352941176471
 40
0.5882352941176471
 40
0.6470588235294118
 40
0.6470588235294118
 40
0.6470588235294118
 40
0.6470588235294118
 40
0.7058823529411765
 40
0.7058823529411765
 40
0.7058823529411765
 40
0.7058823529411765
 40
0.7647058823529411
 40
0.7647058823529411
 40
0.7647058823529411
 40
0.7647058823529411
 40
0.8235294117647058
 40
0.8235294117647058
 40
0.8235294117647058
 40
0.8235294117647058
 40
0.8823529411764706
 40
0.8823529411764706
 40
0.8823529411764706
 40
0.8823529411764706
 40
1.0
 40
1.0
 40
1.0
 40
1.0
 10
97.14
 20
55.8508
 30
0.0
 10
94.1183
 20
53.5197
 30
0.0
 10
91.7791
 20
57.0614
 30
0.0
 10
93.3848
 20
58.3517
 30
0.0
 10
93.3848
 20
58.3517
 30
0.0
 10
93.7049
 20
58.707
 30
0.0
 10
94.1645
 20
58.904
 30
0.0
 10
94.642
 20
58.8921
 30
0.0
 10
94.642
 20
58.8921
 30
0.0
 10
95.3172
 20
59.2131
 30
0.0
 10
95.725
 20
59.9164
 30
0.0
 10
95.6694
 20
60.6624
 30
0.0
 10
95.6694
 20
60.6624
 30
0.0
 10
95.6133
 20
61.4078
 30
0.0
 10
95.104
 20
62.0419
 30
0.0
 10
94.3886
 20
62.2586
 30
0.0
 10
94.3886
 20
62.2586
 30
0.0
 10
93.0097
 20
62.5902
 30
0.0
 10
91.5554
 20
62.2602
 30
0.0
 10
90.4547
 20
61.3657
 30
0.0
 10
90.4547
 20
61.3657
 30
0.0
 10
89.3545
 20
60.4713
 30
0.0
 10
88.7339
 20
59.1148
 30
0.0
 10
88.7772
 20
57.697
 30
0.0
 10
88.7772
 20
57.697
 30
0.0
 10
88.6587
 20
54.7999
 30
0.0
 10
90.571
 20
52.21
 30
0.0
 10
93.3749
 20
51.4705
 30
0.0
 10
93.3749
 20
51.4705
 30
0.0
 10
96.6587
 20
50.6462
 30
0.0
 10
100.101
 20
52.0173
 30
0.0
 10
101.9185
 20
54.8737
 30
0.0
 10
101.9185
 20
54.8737
 30
0.0
 10
103.4115
 20
52.3523
 30
0.0
 10
105.5156
 20
50.2479
 30
0.0
 10
108.0368
 20
48.755
 30
0.0
 10
108.0368
 20
48.755
 30
0.0
 10
104.8774
 20
48.1831
 30
0.0
 10
101.7024
 20
47.7
 30
0.0
 10
98.5158
 20
47.3073
 30
0.0
 10
98.5158
 20
47.3073
 30
0.0
 10
94.5793
 20
46.4579
 30
0.0
 10
90.4667
 20
47.27
 30
0.0
 10
87.1482
 20
49.5516
 30
0.0
 10
87.1482
 20
49.5516
 30
0.0
 10
84.366
 20
52.1513
 30
0.0
 10
83.4736
 20
56.1961
 30
0.0
 10
84.9033
 20
59.7248
 30
0.0
 10
84.9033
 20
59.7248
 30
0.0
 10
85.6518
 20
62.0776
 30
0.0
 10
87.407
 20
63.9764
 30
0.0
 10
89.6942
 20
64.9064
 30
0.0
 10
89.6942
 20
64.9064
 30
0.0
 10
91.9813
 20
65.8366
 30
0.0
 10
94.5638
 20
65.7021
 30
0.0
 10
96.7419
 20
64.5397
 30
0.0
 10
96.7419
 20
64.5397
 30
0.0
 10
98.1696
 20
63.5865
 30
0.0
 10
99.0591
 20
62.0109
 30
0.0
 10
99.1379
 20
60.2962
 30
0.0
 10
99.1379
 20
60.2962
 30
0.0
 10
99.2161
 20
58.581
 30
0.0
 10
98.4747
 20
56.9306
 30
0.0
 10
97.14
 20
55.8508
 30
0.0
  0
SPLINE
  5
B9
330
1F
100
AcDbEntity
  8
layer 1
 62
     7
370
     9
100
AcDbSpline
210
0.0
220
0.0
230
1.0
 70
    11
 71
     3
 72
    68
 73
    64
 74
     0
 42
0.0000000001
 43
0.0000000001
 12
1.0
 22
0.0
 32
0.0
 13
1.0
 23
0.0
 33
0.0
 40
0.0
 40
0.0
 40
0.0
 40
0.0
 40
0.0588235294117647
 40
0.0588235294117647
 40
0.0588235294117647
 40
0.0588235294117647
 40
0.1176470588235294
 40
0.1176470588235294
 40
0.1176470588235294
 40
0.1176470588235294
 40
0.1764705882352941
 40
0.1764705882352941
 40
0.1764705882352941
 40
0.1764705882352941
 40
0.2352941176470588
 40
0.2352941176470588
 40
0.2352941176470588
 40
0.2352941176470588
 40
0.2941176470588235
 40
0.2941176470588235
 40
0.2941176470588235
 40
0.2941176470588235
 40
0.3529411764705883
 40
0.3529411764705883
 40
0.3529411764705883
 40
0.3529411764705883
 40
0.4117647058823529
 40
0.4117647058823529
 40
0.4117647058823529
 40
0.4117647058823529
 40
0.4705882352941176
 40
0.4705882352941176
 40
0.4705882352941176
 40
0.4705882352941176
 40
0.5294117647058824
 40
0.5294117647058824
 40
0.5294117647058824
 40
0.5294117647058824
 40
0.5882352941176471
 40
0.5882352941176471
 40
0.5882352941176471
 40
0.5882352941176471
 40
0.6470588235294118
 40
0.6470588235294118
 40
0.6470588235294118
 40
0.6470588235294118
 40
0.7058823529411765
 40
0.7058823529411765
 40
0.7058823529411765
 40
0.7058823529411765
 40
0.7647058823529411
 40
0.7647058823529411
 40
0.7647058823529411
 40
0.7647058823529411
 40
0.8235294117647058
 40
0.8235294117647058
 40
0.8235294117647058
 40
0.8235294117647058
 40
0.8823529411764706
 40
0.8823529411764706
 40
0.8823529411764706
 40
0.8823529411764706
 40
1.0
 40
1.0
 40
1.0
 40
1.0
 10
175.2648
 20
-39.6145
 30
0.0
 10
178.2865
 20
-37.2834
 30
0.0
 10
180.6257
 20
-40.8251
 30
0.0
 10
179.02
 20
-42.1154
 30
0.0
 10
179.02
 20
-42.1154
 30
0.0
 10
178.6999
 20
-42.4707
 30
0.0
 10
178.2403
 20
-42.6677
 30
0.0
 10
177.7627
 20
-42.6558
 30
0.0
 10
177.7627
 20
-42.6558
 30
0.0
 10
177.0876
 20
-42.9768
 30
0.0
 10
176.6797
 20
-43.6801
 30
0.0
 10
176.7353
 20
-44.4261
 30
0.0
 10
176.7353
 20
-44.4261
 30
0.0
 10
176.7915
 20
-45.1715
 30
0.0
 10
177.3007
 20
-45.8056
 30
0.0
 10
178.0161
 20
-46.0223
 30
0.0
 10
178.0161
 20
-46.0223
 30
0.0
 10
179.3951
 20
-46.3539
 30
0.0
 10
180.8494
 20
-46.0239
 30
0.0
 10
181.95
 20
-45.1294
 30
0.0
 10
181.95
 20
-45.1294
 30
0.0
 10
183.0503
 20
-44.235
 30
0.0
 10
183.6708
 20
-42.8785
 30
0.0
 10
183.6276
 20
-41.4607
 30
0.0
 10
183.6276
 20
-41.4607
 30
0.0
 10
183.7461
 20
-38.5636
 30
0.0
 10
181.8337
 20
-35.9737
 30
0.0
 10
179.0299
 20
-35.2342
 30
0.0
 10
179.0299
 20
-35.2342
 30
0.0
 10
175.746
 20
-34.4099
 30
0.0
 10
172.3037
 20
-35.781
 30
0.0
 10
170.4862
 20
-38.6374
 30
0.0
 10
170.4862
 20
-38.6374
 30
0.0
 10
168.9932
 20
-36.116
 30
0.0
 10
166.8892
 20
-34.0116
 30
0.0
 10
164.3679
 20
-32.5187
 30
0.0
 10
164.3679
 20
-32.5187
 30
0.0
 10
167.5274
 20
-31.9468
 30
0.0
 10
170.7024
 20
-31.4637
 30
0.0
 10
173.889
 20
-31.071
 30
0.0
 10
173.889
 20
-31.071
 30
0.0
 10
177.8254
 20
-30.2216
 30
0.0
 10
181.9381
 20
-31.0337
 30
0.0
 10
185.2565
 20
-33.3153
 30
0.0
 10
185.2565
 20
-33.3153
 30
0.0
 10
188.0387
 20
-35.915
 30
0.0
 10
188.9312
 20
-39.9598
 30
0.0
 10
187.5015
 20
-43.4885
 30
0.0
 10
187.5015
 20
-43.4885
 30
0.0
 10
186.7529
 20
-45.8413
 30
0.0
 10
184.9977
 20
-47.7401
 30
0.0
 10
182.7105
 20
-48.6701
 30
0.0
 10
182.7105
 20
-48.6701
 30
0.0
 10
180.4235
 20
-49.6003
 30
0.0
 10
177.8409
 20
-49.4658
 30
0.0
 10
175.6628
 20
-48.3034
 30
0.0
 10
175.6628
 20
-48.3034
 30
0.0
 10
174.2351
 20
-47.3502
 30
0.0
 10
173.3456
 20
-45.7746
 30
0.0
 10
173.2669
 20
-44.0599
 30
0.0
 10
173.2669
 20
-44.0599
 30
0.0
 10
173.1886
 20
-42.3447
 30
0.0
 10
173.9301
 20
-40.6943
 30
0.0
 10
175.2648
 20
-39.6145
 30
0.0
  0
SPLINE
  5
BA
330
1F
100
AcDbEntity
  8
layer 1
 62
     7
370
     9
100
AcDbSpline
210
0.0
220
0.0
230
1.0
 70
    11
 71
     3
 72
    68
 73
    64
 74
     0
 42
0.0000000001
 43
0.0000000001
 12
1.0
 22
0.0
 32
0.0
 13
1.0
 23
0.0
 33
0.0
 40
0.0
 40
0.0
 40
0.0
 40
0.0
 40
0.0588235294117647
 40
0.0588235294117647
 40
0.0588235294117647
 40
0.0588235294117647
 40
0.1176470588235294
 40
0.1176470588235294
 40
0.1176470588235294
 40
0.1176470588235294
 40
0.1764705882352941
 40
0.1764705882352941
 40
0.1764705882352941
 40
0.1764705882352941
 40
0.2352941176470588
 40
0.2352941176470588
 40
0.2352941176470588
 40
0.2352941176470588
 40
0.2941176470588235
 40
0.2941176470588235
 40
0.2941176470588235
 40
0.2941176470588235
 40
0.3529411764705883
 40
0.3529411764705883
 40
0.3529411764705883
 40
0.3529411764705883
 40
0.4117647058823529
 40
0.4117647058823529
 40
0.4117647058823529
 40
0.4117647058823529
 40
0.4705882352941176
 40
0.4705882352941176
 40
0.4705882352941176
 40
0.4705882352941176
 40
0.5294117647058824
 40
0.5294117647058824
 40
0.5294117647058824
 40
0.5294117647058824
 40
0.5882352941176471
 40
0.5882352941176471
 40
0.5882352941176471
 40
0.5882352941176471
 40
0.6470588235294118
 40
0.6470588235294118
 40
0.6470588235294118
 40
0.6470588235294118
 40
0.7058823529411765
 40
0.7058823529411765
 40
0.7058823529411765
 40
0.7058823529411765
 40
0.7647058823529411
 40
0.7647058823529411
 40
0.7647058823529411
 40
0.7647058823529411
 40
0.8235294117647058
 40
0.8235294117647058
 40
0.8235294117647058
 40
0.8235294117647058
 40
0.8823529411764706
 40
0.8823529411764706
 40
0.8823529411764706
 40
0.8823529411764706
 40
1.0
 40
1.0
 40
1.0
 40
1.0
 10
175.2761
 20
55.8448
 30
0.0
 10
178.2978
 20
53.5137
 30
0.0
 10
180.637
 20
57.0554
 30
0.0
 10
179.0312
 20
58.3457
 30
0.0
 10
179.0312
 20
58.3457
 30
0.0
 10
178.7111
 20
58.701
 30
0.0
 10
178.2515
 20
58.898
 30
0.0
 10
177.774
 20
58.8861
 30
0.0
 10
177.774
 20
58.8861
 30
0.0
 10
177.0988
 20
59.2071
 30
0.0
 10
176.691
 20
59.9104
 30
0.0
 10
176.7466
 20
60.6564
 30
0.0
 10
176.7466
 20
60.6564
 30
0.0
 10
176.8028
 20
61.4018
 30
0.0
 10
177.312
 20
62.0359
 30
0.0
 10
178.0274
 20
62.2526
 30
0.0
 10
178.0274
 20
62.2526
 30
0.0
 10
179.4064
 20
62.5842
 30
0.0
 10
180.8607
 20
62.2542
 30
0.0
 10
181.9613
 20
61.3597
 30
0.0
 10
181.9613
 20
61.3597
 30
0.0
 10
183.0616
 20
60.4653
 30
0.0
 10
183.6821
 20
59.1088
 30
0.0
 10
183.6389
 20
57.691
 30
0.0
 10
183.6389
 20
57.691
 30
0.0
 10
183.7574
 20
54.7939
 30
0.0
 10
181.845
 20
52.204
 30
0.0
 10
179.0412
 20
51.4645
 30
0.0
 10
179.0412
 20
51.4645
 30
0.0
 10
175.7573
 20
50.6402
 30
0.0
 10
172.315
 20
52.0113
 30
0.0
 10
170.4975
 20
54.8677
 30
0.0
 10
170.4975
 20
54.8677
 30
0.0
 10
169.0045
 20
52.3463
 30
0.0
 10
166.9005
 20
50.2419
 30
0.0
 10
164.3792
 20
48.749
 30
0.0
 10
164.3792
 20
48.749
 30
0.0
 10
167.5387
 20
48.1771
 30
0.0
 10
170.7137
 20
47.694
 30
0.0
 10
173.9003
 20
47.3013
 30
0.0
 10
173.9003
 20
47.3013
 30
0.0
 10
177.8367
 20
46.4519
 30
0.0
 10
181.9494
 20
47.264
 30
0.0
 10
185.2678
 20
49.5456
 30
0.0
 10
185.2678
 20
49.5456
 30
0.0
 10
188.05
 20
52.1453
 30
0.0
 10
188.9425
 20
56.1901
 30
0.0
 10
187.5128
 20
59.7188
 30
0.0
 10
187.5128
 20
59.7188
 30
0.0
 10
186.7642
 20
62.0716
 30
0.0
 10
185.009
 20
63.9704
 30
0.0
 10
182.7218
 20
64.9004
 30
0.0
 10
182.7218
 20
64.9004
 30
0.0
 10
180.4348
 20
65.8306
 30
0.0
 10
177.8522
 20
65.6961
 30
0.0
 10
175.6741
 20
64.5337
 30
0.0
 10
175.6741
 20
64.5337
 30
0.0
 10
174.2464
 20
63.5805
 30
0.0
 10
173.3569
 20
62.0049
 30
0.0
 10
173.2781
 20
60.2902
 30
0.0
 10
173.2781
 20
60.2902
 30
0.0
 10
173.1999
 20
58.575
 30
0.0
 10
173.9414
 20
56.9246
 30
0.0
 10
175.2761
 20
55.8448
 30
0.0
  0
ENDSEC
  0
SECTION
  2
OBJECTS
  0
DICTIONARY
  5
C
330
0
100
AcDbDictionary
281
     1
  3
ACAD_GROUP
350
D
  3
ACAD_LAYOUT
350
1A
  3
ACAD_MATERIAL
350
3B
  3
ACAD_MLEADERSTYLE
350
DC
  3
ACAD_MLINESTYLE
350
17
  3
ACAD_PLOTSETTINGS
350
19
  3
ACAD_PLOTSTYLENAME
350
E
  3
ACAD_TABLESTYLE
350
DB
  3
ACAD_VISUALSTYLE
350
2A
  0
DICTIONARY
  5
D
102
{ACAD_REACTORS
330
C
102
}
330
C
100
AcDbDictionary
281
     1
  0
DICTIONARY
  5
1A
102
{ACAD_REACTORS
330
C
102
}
330
C
100
AcDbDictionary
281
     1
  3
Layout1
350
1E
  3
Layout2
350
26
  3
Model
350
22
  0
DICTIONARY
  5
3B
102
{ACAD_REACTORS
330
C
102
}
330
C
100
AcDbDictionary
281
     1
  3
ByBlock
350
3D
  3
ByLayer
350
3C
  3
Global
350
3E
  0
DICTIONARY
  5
DC
102
{ACAD_REACTORS
330
C
102
}
330
C
100
AcDbDictionary
281
     1
  0
DICTIONARY
  5
17
102
{ACAD_REACTORS
330
C
102
}
330
C
100
AcDbDictionary
281
     1
  3
Standard
350
18
  0
DICTIONARY
  5
19
102
{ACAD_REACTORS
330
C
102
}
330
C
100
AcDbDictionary
281
     1
  0
ACDBDICTIONARYWDFLT
  5
E
102
{ACAD_REACTORS
330
C
102
}
330
C
100
AcDbDictionary
281
     1
  3
Normal
350
F
100
AcDbDictionaryWithDefault
340
F
  0
DICTIONARY
  5
DB
102
{ACAD_REACTORS
330
C
102
}
330
C
100
AcDbDictionary
281
     1
  0
DICTIONARY
  5
2A
102
{ACAD_REACTORS
330
C
102
}
330
C
100
AcDbDictionary
281
     1
  3
2dWireframe
350
2F
  3
3D Hidden
350
31
  3
3dWireframe
350
30
  3
Basic
350
32
  3
Brighten
350
36
  3
ColorChange
350
3A
  3
Conceptual
350
34
  3
Dim
350
35
  3
Facepattern
350
39
  3
Flat
350
2B
  3
FlatWithEdges
350
2C
  3
Gouraud
350
2D
  3
GouraudWithEdges
350
2E
  3
Linepattern
350
38
  3
Realistic
350
33
  3
Thicken
350
37
  0
LAYOUT
  5
1E
102
{ACAD_REACTORS
330
1A
102
}
330
1A
100
AcDbPlotSettings
  1

  2
none_device
  4

  6

 40
0.0
 41
0.0
 42
0.0
 43
0.0
 44
0.0
 45
0.0
 46
0.0
 47
0.0
 48
0.0
 49
0.0
140
0.0
141
0.0
142
1.0
143
1.0
 70
   688
 72
     0
 73
     0
 74
     5
  7

 75
    16
 76
     0
 77
     2
 78
   300
147
1.0
148
0.0
149
0.0
100
AcDbLayout
  1
Layout1
 70
     1
 71
     1
 10
0.0
 20
0.0
 11
12.0
 21
9.0
 12
0.0
 22
0.0
 32
0.0
 14
1.000000000000000E+20
 24
1.000000000000000E+20
 34
1.000000000000000E+20
 15
-1.000000000000000E+20
 25
-1.000000000000000E+20
 35
-1.000000000000000E+20
146
0.0
 13
0.0
 23
0.0
 33
0.0
 16
1.0
 26
0.0
 36
0.0
 17
0.0
 27
1.0
 37
0.0
 76
     0
330
1B
  0
LAYOUT
  5
26
102
{ACAD_REACTORS
330
1A
102
}
330
1A
100
AcDbPlotSettings
  1

  2
none_device
  4

  6

 40
0.0
 41
0.0
 42
0.0
 43
0.0
 44
0.0
 45
0.0
 46
0.0
 47
0.0
 48
0.0
 49
0.0
140
0.0
141
0.0
142
1.0
143
1.0
 70
   688
 72
     0
 73
     0
 74
     5
  7

 75
    16
 76
     0
 77
     2
 78
   300
147
1.0
148
0.0
149
0.0
100
AcDbLayout
  1
Layout2
 70
     1
 71
     2
 10
0.0
 20
0.0
 11
0.0
 21
0.0
 12
0.0
 22
0.0
 32
0.0
 14
0.0
 24
0.0
 34
0.0
 15
0.0
 25
0.0
 35
0.0
146
0.0
 13
0.0
 23
0.0
 33
0.0
 16
1.0
 26
0.0
 36
0.0
 17
0.0
 27
1.0
 37
0.0
 76
     0
330
23
  0
LAYOUT
  5
22
102
{ACAD_REACTORS
330
1A
102
}
330
1A
100
AcDbPlotSettings
  1

  2
none_device
  4

  6

 40
0.0
 41
0.0
 42
0.0
 43
0.0
 44
0.0
 45
0.0
 46
0.0
 47
0.0
 48
0.0
 49
0.0
140
0.0
141
0.0
142
1.0
143
1.0
 70
  1712
 72
     0
 73
     0
 74
     0
  7

 75
     0
 76
     0
 77
     2
 78
   300
147
1.0
148
0.0
149
0.0
100
AcDbLayout
  1
Model
 70
     1
 71
     0
 10
0.0
 20
0.0
 11
12.0
 21
9.0
 12
0.0
 22
0.0
 32
0.0
 14
76.1796
 24
-114.7791
 34
0.0
 15
196.4132
 25
132.0909
 35
0.0
146
0.0
 13
0.0
 23
0.0
 33
0.0
 16
1.0
 26
0.0
 36
0.0
 17
0.0
 27
1.0
 37
0.0
 76
     0
330
1F
331
29
  0
MATERIAL
  5
3D
102
{ACAD_REACTORS
330
3B
102
}
330
3B
100
AcDbMaterial
  1
ByBlock
 72
     1
 94
      127
  0
MATERIAL
  5
3C
102
{ACAD_REACTORS
330
3B
102
}
330
3B
100
AcDbMaterial
  1
ByLayer
 72
     1
 94
      127
  0
MATERIAL
  5
3E
102
{ACAD_REACTORS
330
3B
102
}
330
3B
100
AcDbMaterial
  1
Global
 72
     1
 94
      127
  0
MLINESTYLE
  5
18
102
{ACAD_REACTORS
330
17
102
}
330
17
100
AcDbMlineStyle
  2
Standard
 70
     0
  3

 62
   256
 51
90.0
 52
90.0
 71
     2
 49
0.5
 62
   256
  6
BYLAYER
 49
-0.5
 62
   256
  6
BYLAYER
  0
ACDBPLACEHOLDER
  5
F
102
{ACAD_REACTORS
330
E
102
}
330
E
  0
VISUALSTYLE
  5
2F
102
{ACAD_REACTORS
330
2A
102
}
102
{ACAD_XDICTIONARY
360
C3
102
}
330
2A
100
AcDbVisualStyle
  2
2dWireframe
 70
     4
 71
     0
 72
     2
 73
     0
 90
        0
 40
-0.6
 41
-30.0
 62
     5
 63
     7
421
 16777215
 74
     1
 91
        4
 64
     7
 65
   257
 75
     1
175
     1
 42
1.0
 92
        0
 66
   257
 43
1.0
 76
     1
 77
     6
 78
     2
 67
     7
 79
     5
170
     0
171
     0
290
     0
174
     0
 93
        1
 44
0.0
173
     0
291
     0
 45
0.0
  0
VISUALSTYLE
  5
31
102
{ACAD_REACTORS
330
2A
102
}
102
{ACAD_XDICTIONARY
360
C7
102
}
330
2A
100
AcDbVisualStyle
  2
3D Hidden
 70
     6
 71
     1
 72
     2
 73
     2
 90
        0
 40
-0.6
 41
-30.0
 62
     5
 63
     7
421
 16777215
 74
     2
 91
        2
 64
     7
 65
   257
 75
     2
175
     1
 42
40.0
 92
        0
 66
   257
 43
1.0
 76
     1
 77
     6
 78
     2
 67
     7
 79
     3
170
     0
171
     0
290
     0
174
     0
 93
        1
 44
0.0
173
     0
291
     0
 45
0.0
  0
VISUALSTYLE
  5
30
102
{ACAD_REACTORS
330
2A
102
}
102
{ACAD_XDICTIONARY
360
C5
102
}
330
2A
100
AcDbVisualStyle
  2
3dWireframe
 70
     5
 71
     0
 72
     2
 73
     0
 90
        0
 40
-0.6
 41
-30.0
 62
     5
 63
     7
421
 16777215
 74
     1
 91
        4
 64
     7
 65
   257
 75
     1
175
     1
 42
1.0
 92
        0
 66
   257
 43
1.0
 76
     1
 77
     6
 78
     2
 67
     7
 79
     5
170
     0
171
     0
290
     0
174
     0
 93
        1
 44
0.0
173
     0
291
     0
 45
0.0
  0
VISUALSTYLE
  5
32
102
{ACAD_REACTORS
330
2A
102
}
102
{ACAD_XDICTIONARY
360
C9
102
}
330
2A
100
AcDbVisualStyle
  2
Basic
 70
     7
 71
     1
 72
     0
 73
     1
 90
        0
 40
-0.6
 41
-30.0
 62
     5
 63
     7
421
 16777215
 74
     0
 91
        4
 64
     7
 65
   257
 75
     1
175
     1
 42
1.0
 92
        8
 66
     7
 43
1.0
 76
     1
 77
     6
 78
     2
 67
     7
 79
     5
170
     0
171
     0
290
     0
174
     0
 93
        1
 44
0.0
173
     0
291
     1
 45
0.0
  0
VISUALSTYLE
  5
36
102
{ACAD_REACTORS
330
2A
102
}
102
{ACAD_XDICTIONARY
360
D1
102
}
330
2A
100
AcDbVisualStyle
  2
Brighten
 70
    12
 71
     2
 72
     2
 73
     0
 90
        0
 40
-0.6
 41
-30.0
 62
     5
 63
     7
421
 16777215
 74
     1
 91
        4
 64
     7
 65
   257
 75
     1
175
     1
 42
1.0
 92
        8
 66
     7
 43
1.0
 76
     1
 77
     6
 78
     2
 67
     7
 79
     5
170
     0
171
     0
290
     0
174
     0
 93
        1
 44
50.0
173
     0
291
     1
 45
0.0
  0
VISUALSTYLE
  5
3A
102
{ACAD_REACTORS
330
2A
102
}
102
{ACAD_XDICTIONARY
360
D9
102
}
330
2A
100
AcDbVisualStyle
  2
ColorChange
 70
    16
 71
     2
 72
     2
 73
     3
 90
        0
 40
-0.6
 41
-30.0
 62
     5
 63
     8
421
  8421504
 74
     1
 91
        4
 64
     7
 65
   257
 75
     1
175
     1
 42
1.0
 92
        8
 66
     8
424
  8421504
 43
1.0
 76
     1
 77
     6
 78
     2
 67
     7
 79
     5
170
     0
171
     0
290
     0
174
     0
 93
        1
 44
0.0
173
     0
291
     1
 45
0.0
  0
VISUALSTYLE
  5
34
102
{ACAD_REACTORS
330
2A
102
}
102
{ACAD_XDICTIONARY
360
CD
102
}
330
2A
100
AcDbVisualStyle
  2
Conceptual
 70
     9
 71
     3
 72
     2
 73
     0
 90
        0
 40
-0.6
 41
-30.0
 62
     5
 63
     7
421
 16777215
 74
     2
 91
        2
 64
     7
 65
   257
 75
     1
175
     1
 42
40.0
 92
        8
 66
     7
 43
1.0
 76
     1
 77
     6
 78
     2
 67
     7
 79
     3
170
     0
171
     0
290
     0
174
     0
 93
        1
 44
0.0
173
     0
291
     0
 45
0.0
  0
VISUALSTYLE
  5
35
102
{ACAD_REACTORS
330
2A
102
}
102
{ACAD_XDICTIONARY
360
CF
102
}
330
2A
100
AcDbVisualStyle
  2
Dim
 70
    11
 71
     2
 72
     2
 73
     0
 90
        0
 40
-0.6
 41
-30.0
 62
     5
 63
     7
421
 16777215
 74
     1
 91
        4
 64
     7
 65
   257
 75
     1
175
     1
 42
1.0
 92
        8
 66
     7
 43
1.0
 76
     1
 77
     6
 78
     2
 67
     7
 79
     5
170
     0
171
     0
290
     0
174
     0
 93
        1
 44
-50.0
173
     0
291
     1
 45
0.0
  0
VISUALSTYLE
  5
39
102
{ACAD_REACTORS
330
2A
102
}
102
{ACAD_XDICTIONARY
360
D7
102
}
330
2A
100
AcDbVisualStyle
  2
Facepattern
 70
    15
 71
     2
 72
     2
 73
     0
 90
        0
 40
-0.6
 41
-30.0
 62
     5
 63
     7
421
 16777215
 74
     1
 91
        4
 64
     7
 65
   257
 75
     1
175
     1
 42
1.0
 92
        8
 66
     7
 43
1.0
 76
     1
 77
     6
 78
     2
 67
     7
 79
     5
170
     0
171
     0
290
     0
174
     0
 93
        1
 44
0.0
173
     0
291
     1
 45
0.0
  0
VISUALSTYLE
  5
2B
102
{ACAD_REACTORS
330
2A
102
}
102
{ACAD_XDICTIONARY
360
BB
102
}
330
2A
100
AcDbVisualStyle
  2
Flat
 70
     0
 71
     2
 72
     1
 73
     1
 90
        2
 40
-0.6
 41
30.0
 62
     5
 63
     7
421
 16777215
 74
     0
 91
        4
 64
     7
 65
   257
 75
     1
175
     1
 42
1.0
 92
        8
 66
     7
 43
1.0
 76
     1
 77
     6
 78
     2
 67
     7
 79
     5
170
     0
171
     0
290
     0
174
     0
 93
       13
 44
0.0
173
     0
291
     1
 45
0.0
  0
VISUALSTYLE
  5
2C
102
{ACAD_REACTORS
330
2A
102
}
102
{ACAD_XDICTIONARY
360
BD
102
}
330
2A
100
AcDbVisualStyle
  2
FlatWithEdges
 70
     1
 71
     2
 72
     1
 73
     1
 90
        2
 40
-0.6
 41
30.0
 62
     5
 63
     7
421
 16777215
 74
     1
 91
        4
 64
     7
 65
   257
 75
     1
175
     1
 42
1.0
 92
        0
 66
   257
 43
1.0
 76
     1
 77
     6
 78
     2
 67
     7
 79
     5
170
     0
171
     0
290
     0
174
     0
 93
       13
 44
0.0
173
     0
291
     1
 45
0.0
  0
VISUALSTYLE
  5
2D
102
{ACAD_REACTORS
330
2A
102
}
102
{ACAD_XDICTIONARY
360
BF
102
}
330
2A
100
AcDbVisualStyle
  2
Gouraud
 70
     2
 71
     2
 72
     2
 73
     1
 90
        2
 40
-0.6
 41
30.0
 62
     5
 63
     7
421
 16777215
 74
     0
 91
        4
 64
     7
 65
   257
 75
     1
175
     1
 42
1.0
 92
        0
 66
     7
 43
1.0
 76
     1
 77
     6
 78
     2
 67
     7
 79
     5
170
     0
171
     0
290
     0
174
     0
 93
       13
 44
0.0
173
     0
291
     1
 45
0.0
  0
VISUALSTYLE
  5
2E
102
{ACAD_REACTORS
330
2A
102
}
102
{ACAD_XDICTIONARY
360
C1
102
}
330
2A
100
AcDbVisualStyle
  2
GouraudWithEdges
 70
     3
 71
     2
 72
     2
 73
     1
 90
        2
 40
-0.6
 41
30.0
 62
     5
 63
     7
421
 16777215
 74
     1
 91
        4
 64
     7
 65
   257
 75
     1
175
     1
 42
1.0
 92
        0
 66
   257
 43
1.0
 76
     1
 77
     6
 78
     2
 67
     7
 79
     5
170
     0
171
     0
290
     0
174
     0
 93
       13
 44
0.0
173
     0
291
     1
 45
0.0
  0
VISUALSTYLE
  5
38
102
{ACAD_REACTORS
330
2A
102
}
102
{ACAD_XDICTIONARY
360
D5
102
}
330
2A
100
AcDbVisualStyle
  2
Linepattern
 70
    14
 71
     2
 72
     2
 73
     0
 90
        0
 40
-0.6
 41
-30.0
 62
     5
 63
     7
421
 16777215
 74
     1
 91
        4
 64
     7
 65
   257
 75
     7
175
     7
 42
1.0
 92
        8
 66
     7
 43
1.0
 76
     1
 77
     6
 78
     2
 67
     7
 79
     5
170
     0
171
     0
290
     0
174
     0
 93
        1
 44
0.0
173
     0
291
     1
 45
0.0
  0
VISUALSTYLE
  5
33
102
{ACAD_REACTORS
330
2A
102
}
102
{ACAD_XDICTIONARY
360
CB
102
}
330
2A
100
AcDbVisualStyle
  2
Realistic
 70
     8
 71
     2
 72
     2
 73
     0
 90
        0
 40
-0.6
 41
-30.0
 62
     5
 63
     7
421
 16777215
 74
     1
 91
        0
 64
     7
 65
   257
 75
     1
175
     1
 42
1.0
 92
        8
 66
     8
424
  7895160
 43
1.0
 76
     1
 77
     6
 78
     2
 67
     7
 79
     5
170
     0
171
     0
290
     0
174
     0
 93
       13
 44
0.0
173
     0
291
     0
 45
0.0
  0
VISUALSTYLE
  5
37
102
{ACAD_REACTORS
330
2A
102
}
102
{ACAD_XDICTIONARY
360
D3
102
}
330
2A
100
AcDbVisualStyle
  2
Thicken
 70
    13
 71
     2
 72
     2
 73
     0
 90
        0
 40
-0.6
 41
-30.0
 62
     5
 63
     7
421
 16777215
 74
     1
 91
        4
 64
     7
 65
   257
 75
     1
175
     1
 42
1.0
 92
       12
 66
     7
 43
1.0
 76
     1
 77
     6
 78
     2
 67
     7
 79
     5
170
     0
171
     0
290
     0
174
     0
 93
        1
 44
0.0
173
     0
291
     1
 45
0.0
  0
DICTIONARY
  5
C3
330
2F
100
AcDbDictionary
280
     1
281
     1
  3
ACAD_XREC_ROUNDTRIP
360
C4
  0
DICTIONARY
  5
C7
330
31
100
AcDbDictionary
280
     1
281
     1
  3
ACAD_XREC_ROUNDTRIP
360
C8
  0
DICTIONARY
  5
C5
330
30
100
AcDbDictionary
280
     1
281
     1
  3
ACAD_XREC_ROUNDTRIP
360
C6
  0
DICTIONARY
  5
C9
330
32
100
AcDbDictionary
280
     1
281
     1
  3
ACAD_XREC_ROUNDTRIP
360
CA
  0
DICTIONARY
  5
D1
330
36
100
AcDbDictionary
280
     1
281
     1
  3
ACAD_XREC_ROUNDTRIP
360
D2
  0
DICTIONARY
  5
D9
330
3A
100
AcDbDictionary
280
     1
281
     1
  3
ACAD_XREC_ROUNDTRIP
360
DA
  0
DICTIONARY
  5
CD
330
34
100
AcDbDictionary
280
     1
281
     1
  3
ACAD_XREC_ROUNDTRIP
360
CE
  0
DICTIONARY
  5
CF
330
35
100
AcDbDictionary
280
     1
281
     1
  3
ACAD_XREC_ROUNDTRIP
360
D0
  0
DICTIONARY
  5
D7
330
39
100
AcDbDictionary
280
     1
281
     1
  3
ACAD_XREC_ROUNDTRIP
360
D8
  0
DICTIONARY
  5
BB
330
2B
100
AcDbDictionary
280
     1
281
     1
  3
ACAD_XREC_ROUNDTRIP
360
BC
  0
DICTIONARY
  5
BD
330
2C
100
AcDbDictionary
280
     1
281
     1
  3
ACAD_XREC_ROUNDTRIP
360
BE
  0
DICTIONARY
  5
BF
330
2D
100
AcDbDictionary
280
     1
281
     1
  3
ACAD_XREC_ROUNDTRIP
360
C0
  0
DICTIONARY
  5
C1
330
2E
100
AcDbDictionary
280
     1
281
     1
  3
ACAD_XREC_ROUNDTRIP
360
C2
  0
DICTIONARY
  5
D5
330
38
100
AcDbDictionary
280
     1
281
     1
  3
ACAD_XREC_ROUNDTRIP
360
D6
  0
DICTIONARY
  5
CB
330
33
100
AcDbDictionary
280
     1
281
     1
  3
ACAD_XREC_ROUNDTRIP
360
CC
  0
DICTIONARY
  5
D3
330
37
100
AcDbDictionary
280
     1
281
     1
  3
ACAD_XREC_ROUNDTRIP
360
D4
  0
XRECORD
  5
C4
102
{ACAD_REACTORS
330
C3
102
}
330
C3
100
AcDbXrecord
280
     1
102
RTVSPropertyOp0
 70
     1
102
RTVSPropertyOp1
 70
     1
102
RTVSPropertyOp2
 70
     1
102
RTVSPropertyOp3
 70
     1
102
RTVSPropertyOp4
 70
     1
102
RTVSPropertyOp5
 70
     1
102
RTVSPropertyOp6
 70
     1
102
RTVSPropertyOp7
 70
     1
102
RTVSPropertyOp8
 70
     1
102
RTVSPropertyOp9
 70
     1
102
RTVSPropertyOp10
 70
     1
102
RTVSPropertyOp11
 70
     1
102
RTVSPropertyOp12
 70
     1
102
RTVSPropertyOp13
 70
     1
102
RTVSPropertyOp14
 70
     1
102
RTVSPropertyOp15
 70
     1
102
RTVSPropertyOp16
 70
     1
102
RTVSPropertyOp17
 70
     1
102
RTVSPropertyOp18
 70
     1
102
RTVSPropertyOp19
 70
     1
102
RTVSPropertyOp20
 70
     1
102
RTVSPropertyOp21
 70
     1
102
RTVSPropertyOp22
 70
     1
102
RTVSPropertyOp23
 70
     1
102
RTVSPropertyOp24
 70
     1
102
RTVSPropertyOp25
 70
     1
102
RTVSPropertyOp26
 70
     1
102
RTVSPropertyOp27
 70
     1
102
RTVSPropertyOp28
 70
     1
102
RTVSPropertyOp29
 70
     1
102
RTVSPropertyOp30
 70
     1
102
RTVSPropertyOp31
 70
     1
102
RTVSPropertyOp32
 70
     1
  0
XRECORD
  5
C8
102
{ACAD_REACTORS
330
C7
102
}
330
C7
100
AcDbXrecord
280
     1
102
RTVSPropertyOp0
 70
     1
102
RTVSPropertyOp1
 70
     1
102
RTVSPropertyOp2
 70
     1
102
RTVSPropertyOp3
 70
     1
102
RTVSPropertyOp4
 70
     1
102
RTVSPropertyOp5
 70
     1
102
RTVSPropertyOp6
 70
     1
102
RTVSPropertyOp7
 70
     1
102
RTVSPropertyOp8
 70
     1
102
RTVSPropertyOp9
 70
     1
102
RTVSPropertyOp10
 70
     1
102
RTVSPropertyOp11
 70
     1
102
RTVSPropertyOp12
 70
     1
102
RTVSPropertyOp13
 70
     1
102
RTVSPropertyOp14
 70
     1
102
RTVSPropertyOp15
 70
     1
102
RTVSPropertyOp16
 70
     1
102
RTVSPropertyOp17
 70
     1
102
RTVSPropertyOp18
 70
     1
102
RTVSPropertyOp19
 70
     1
102
RTVSPropertyOp20
 70
     1
102
RTVSPropertyOp21
 70
     1
102
RTVSPropertyOp22
 70
     1
102
RTVSPropertyOp23
 70
     1
102
RTVSPropertyOp24
 70
     1
102
RTVSPropertyOp25
 70
     1
102
RTVSPropertyOp26
 70
     1
102
RTVSPropertyOp27
 70
     1
102
RTVSPropertyOp28
 70
     1
102
RTVSPropertyOp29
 70
     1
102
RTVSPropertyOp30
 70
     1
102
RTVSPropertyOp31
 70
     1
102
RTVSPropertyOp32
 70
     1
  0
XRECORD
  5
C6
102
{ACAD_REACTORS
330
C5
102
}
330
C5
100
AcDbXrecord
280
     1
102
RTVSPropertyOp0
 70
     1
102
RTVSPropertyOp1
 70
     1
102
RTVSPropertyOp2
 70
     1
102
RTVSPropertyOp3
 70
     1
102
RTVSPropertyOp4
 70
     1
102
RTVSPropertyOp5
 70
     1
102
RTVSPropertyOp6
 70
     1
102
RTVSPropertyOp7
 70
     1
102
RTVSPropertyOp8
 70
     1
102
RTVSPropertyOp9
 70
     1
102
RTVSPropertyOp10
 70
     1
102
RTVSPropertyOp11
 70
     1
102
RTVSPropertyOp12
 70
     1
102
RTVSPropertyOp13
 70
     1
102
RTVSPropertyOp14
 70
     1
102
RTVSPropertyOp15
 70
     1
102
RTVSPropertyOp16
 70
     1
102
RTVSPropertyOp17
 70
     1
102
RTVSPropertyOp18
 70
     1
102
RTVSPropertyOp19
 70
     1
102
RTVSPropertyOp20
 70
     1
102
RTVSPropertyOp21
 70
     1
102
RTVSPropertyOp22
 70
     1
102
RTVSPropertyOp23
 70
     1
102
RTVSPropertyOp24
 70
     1
102
RTVSPropertyOp25
 70
     1
102
RTVSPropertyOp26
 70
     1
102
RTVSPropertyOp27
 70
     1
102
RTVSPropertyOp28
 70
     1
102
RTVSPropertyOp29
 70
     1
102
RTVSPropertyOp30
 70
     1
102
RTVSPropertyOp31
 70
     1
102
RTVSPropertyOp32
 70
     1
  0
XRECORD
  5
CA
102
{ACAD_REACTORS
330
C9
102
}
330
C9
100
AcDbXrecord
280
     1
102
RTVSPropertyOp0
 70
     1
102
RTVSPropertyOp1
 70
     1
102
RTVSPropertyOp2
 70
     1
102
RTVSPropertyOp3
 70
     1
102
RTVSPropertyOp4
 70
     1
102
RTVSPropertyOp5
 70
     1
102
RTVSPropertyOp6
 70
     1
102
RTVSPropertyOp7
 70
     1
102
RTVSPropertyOp8
 70
     1
102
RTVSPropertyOp9
 70
     1
102
RTVSPropertyOp10
 70
     1
102
RTVSPropertyOp11
 70
     1
102
RTVSPropertyOp12
 70
     1
102
RTVSPropertyOp13
 70
     1
102
RTVSPropertyOp14
 70
     1
102
RTVSPropertyOp15
 70
     1
102
RTVSPropertyOp16
 70
     1
102
RTVSPropertyOp17
 70
     1
102
RTVSPropertyOp18
 70
     1
102
RTVSPropertyOp19
 70
     1
102
RTVSPropertyOp20
 70
     1
102
RTVSPropertyOp21
 70
     1
102
RTVSPropertyOp22
 70
     1
102
RTVSPropertyOp23
 70
     1
102
RTVSPropertyOp24
 70
     1
102
RTVSPropertyOp25
 70
     1
102
RTVSPropertyOp26
 70
     1
102
RTVSPropertyOp27
 70
     1
102
RTVSPropertyOp28
 70
     1
102
RTVSPropertyOp29
 70
     1
102
RTVSPropertyOp30
 70
     1
102
RTVSPropertyOp31
 70
     1
102
RTVSPropertyOp32
 70
     1
  0
XRECORD
  5
D2
102
{ACAD_REACTORS
330
D1
102
}
330
D1
100
AcDbXrecord
280
     1
102
RTVSPropertyOp0
 70
     1
102
RTVSPropertyOp1
 70
     1
102
RTVSPropertyOp2
 70
     1
102
RTVSPropertyOp3
 70
     1
102
RTVSPropertyOp4
 70
     1
102
RTVSPropertyOp5
 70
     1
102
RTVSPropertyOp6
 70
     1
102
RTVSPropertyOp7
 70
     1
102
RTVSPropertyOp8
 70
     1
102
RTVSPropertyOp9
 70
     1
102
RTVSPropertyOp10
 70
     1
102
RTVSPropertyOp11
 70
     1
102
RTVSPropertyOp12
 70
     1
102
RTVSPropertyOp13
 70
     1
102
RTVSPropertyOp14
 70
     1
102
RTVSPropertyOp15
 70
     1
102
RTVSPropertyOp16
 70
     1
102
RTVSPropertyOp17
 70
     1
102
RTVSPropertyOp18
 70
     1
102
RTVSPropertyOp19
 70
     1
102
RTVSPropertyOp20
 70
     1
102
RTVSPropertyOp21
 70
     1
102
RTVSPropertyOp22
 70
     1
102
RTVSPropertyOp23
 70
     1
102
RTVSPropertyOp24
 70
     1
102
RTVSPropertyOp25
 70
     1
102
RTVSPropertyOp26
 70
     1
102
RTVSPropertyOp27
 70
     1
102
RTVSPropertyOp28
 70
     1
102
RTVSPropertyOp29
 70
     1
102
RTVSPropertyOp30
 70
     1
102
RTVSPropertyOp31
 70
     1
102
RTVSPropertyOp32
 70
     1
  0
XRECORD
  5
DA
102
{ACAD_REACTORS
330
D9
102
}
330
D9
100
AcDbXrecord
280
     1
102
RTVSPropertyOp0
 70
     1
102
RTVSPropertyOp1
 70
     1
102
RTVSPropertyOp2
 70
     1
102
RTVSPropertyOp3
 70
     1
102
RTVSPropertyOp4
 70
     1
102
RTVSPropertyOp5
 70
     1
102
RTVSPropertyOp6
 70
     1
102
RTVSPropertyOp7
 70
     1
102
RTVSPropertyOp8
 70
     1
102
RTVSPropertyOp9
 70
     1
102
RTVSPropertyOp10
 70
     1
102
RTVSPropertyOp11
 70
     1
102
RTVSPropertyOp12
 70
     1
102
RTVSPropertyOp13
 70
     1
102
RTVSPropertyOp14
 70
     1
102
RTVSPropertyOp15
 70
     1
102
RTVSPropertyOp16
 70
     1
102
RTVSPropertyOp17
 70
     1
102
RTVSPropertyOp18
 70
     1
102
RTVSPropertyOp19
 70
     1
102
RTVSPropertyOp20
 70
     1
102
RTVSPropertyOp21
 70
     1
102
RTVSPropertyOp22
 70
     1
102
RTVSPropertyOp23
 70
     1
102
RTVSPropertyOp24
 70
     1
102
RTVSPropertyOp25
 70
     1
102
RTVSPropertyOp26
 70
     1
102
RTVSPropertyOp27
 70
     1
102
RTVSPropertyOp28
 70
     1
102
RTVSPropertyOp29
 70
     1
102
RTVSPropertyOp30
 70
     1
102
RTVSPropertyOp31
 70
     1
102
RTVSPropertyOp32
 70
     1
  0
XRECORD
  5
CE
102
{ACAD_REACTORS
330
CD
102
}
330
CD
100
AcDbXrecord
280
     1
102
RTVSPropertyOp0
 70
     1
102
RTVSPropertyOp1
 70
     1
102
RTVSPropertyOp2
 70
     1
102
RTVSPropertyOp3
 70
     1
102
RTVSPropertyOp4
 70
     1
102
RTVSPropertyOp5
 70
     1
102
RTVSPropertyOp6
 70
     1
102
RTVSPropertyOp7
 70
     1
102
RTVSPropertyOp8
 70
     1
102
RTVSPropertyOp9
 70
     1
102
RTVSPropertyOp10
 70
     1
102
RTVSPropertyOp11
 70
     1
102
RTVSPropertyOp12
 70
     1
102
RTVSPropertyOp13
 70
     1
102
RTVSPropertyOp14
 70
     1
102
RTVSPropertyOp15
 70
     1
102
RTVSPropertyOp16
 70
     1
102
RTVSPropertyOp17
 70
     1
102
RTVSPropertyOp18
 70
     1
102
RTVSPropertyOp19
 70
     1
102
RTVSPropertyOp20
 70
     1
102
RTVSPropertyOp21
 70
     1
102
RTVSPropertyOp22
 70
     1
102
RTVSPropertyOp23
 70
     1
102
RTVSPropertyOp24
 70
     1
102
RTVSPropertyOp25
 70
     1
102
RTVSPropertyOp26
 70
     1
102
RTVSPropertyOp27
 70
     1
102
RTVSPropertyOp28
 70
     1
102
RTVSPropertyOp29
 70
     1
102
RTVSPropertyOp30
 70
     1
102
RTVSPropertyOp31
 70
     1
102
RTVSPropertyOp32
 70
     1
  0
XRECORD
  5
D0
102
{ACAD_REACTORS
330
CF
102
}
330
CF
100
AcDbXrecord
280
     1
102
RTVSPropertyOp0
 70
     1
102
RTVSPropertyOp1
 70
     1
102
RTVSPropertyOp2
 70
     1
102
RTVSPropertyOp3
 70
     1
102
RTVSPropertyOp4
 70
     1
102
RTVSPropertyOp5
 70
     1
102
RTVSPropertyOp6
 70
     1
102
RTVSPropertyOp7
 70
     1
102
RTVSPropertyOp8
 70
     1
102
RTVSPropertyOp9
 70
     1
102
RTVSPropertyOp10
 70
     1
102
RTVSPropertyOp11
 70
     1
102
RTVSPropertyOp12
 70
     1
102
RTVSPropertyOp13
 70
     1
102
RTVSPropertyOp14
 70
     1
102
RTVSPropertyOp15
 70
     1
102
RTVSPropertyOp16
 70
     1
102
RTVSPropertyOp17
 70
     1
102
RTVSPropertyOp18
 70
     1
102
RTVSPropertyOp19
 70
     1
102
RTVSPropertyOp20
 70
     1
102
RTVSPropertyOp21
 70
     1
102
RTVSPropertyOp22
 70
     1
102
RTVSPropertyOp23
 70
     1
102
RTVSPropertyOp24
 70
     1
102
RTVSPropertyOp25
 70
     1
102
RTVSPropertyOp26
 70
     1
102
RTVSPropertyOp27
 70
     1
102
RTVSPropertyOp28
 70
     1
102
RTVSPropertyOp29
 70
     1
102
RTVSPropertyOp30
 70
     1
102
RTVSPropertyOp31
 70
     1
102
RTVSPropertyOp32
 70
     1
  0
XRECORD
  5
D8
102
{ACAD_REACTORS
330
D7
102
}
330
D7
100
AcDbXrecord
280
     1
102
RTVSPropertyOp0
 70
     1
102
RTVSPropertyOp1
 70
     1
102
RTVSPropertyOp2
 70
     1
102
RTVSPropertyOp3
 70
     1
102
RTVSPropertyOp4
 70
     1
102
RTVSPropertyOp5
 70
     1
102
RTVSPropertyOp6
 70
     1
102
RTVSPropertyOp7
 70
     1
102
RTVSPropertyOp8
 70
     1
102
RTVSPropertyOp9
 70
     1
102
RTVSPropertyOp10
 70
     1
102
RTVSPropertyOp11
 70
     1
102
RTVSPropertyOp12
 70
     1
102
RTVSPropertyOp13
 70
     1
102
RTVSPropertyOp14
 70
     1
102
RTVSPropertyOp15
 70
     1
102
RTVSPropertyOp16
 70
     1
102
RTVSPropertyOp17
 70
     1
102
RTVSPropertyOp18
 70
     1
102
RTVSPropertyOp19
 70
     1
102
RTVSPropertyOp20
 70
     1
102
RTVSPropertyOp21
 70
     1
102
RTVSPropertyOp22
 70
     1
102
RTVSPropertyOp23
 70
     1
102
RTVSPropertyOp24
 70
     1
102
RTVSPropertyOp25
 70
     1
102
RTVSPropertyOp26
 70
     1
102
RTVSPropertyOp27
 70
     1
102
RTVSPropertyOp28
 70
     1
102
RTVSPropertyOp29
 70
     1
102
RTVSPropertyOp30
 70
     1
102
RTVSPropertyOp31
 70
     1
102
RTVSPropertyOp32
 70
     1
  0
XRECORD
  5
BC
102
{ACAD_REACTORS
330
BB
102
}
330
BB
100
AcDbXrecord
280
     1
102
RTVSPropertyOp0
 70
     1
102
RTVSPropertyOp1
 70
     1
102
RTVSPropertyOp2
 70
     1
102
RTVSPropertyOp3
 70
     1
102
RTVSPropertyOp4
 70
     1
102
RTVSPropertyOp5
 70
     1
102
RTVSPropertyOp6
 70
     1
102
RTVSPropertyOp7
 70
     1
102
RTVSPropertyOp8
 70
     1
102
RTVSPropertyOp9
 70
     1
102
RTVSPropertyOp10
 70
     1
102
RTVSPropertyOp11
 70
     1
102
RTVSPropertyOp12
 70
     1
102
RTVSPropertyOp13
 70
     1
102
RTVSPropertyOp14
 70
     1
102
RTVSPropertyOp15
 70
     1
102
RTVSPropertyOp16
 70
     1
102
RTVSPropertyOp17
 70
     1
102
RTVSPropertyOp18
 70
     1
102
RTVSPropertyOp19
 70
     1
102
RTVSPropertyOp20
 70
     1
102
RTVSPropertyOp21
 70
     1
102
RTVSPropertyOp22
 70
     1
102
RTVSPropertyOp23
 70
     1
102
RTVSPropertyOp24
 70
     1
102
RTVSPropertyOp25
 70
     1
102
RTVSPropertyOp26
 70
     1
102
RTVSPropertyOp27
 70
     1
102
RTVSPropertyOp28
 70
     1
102
RTVSPropertyOp29
 70
     1
102
RTVSPropertyOp30
 70
     1
102
RTVSPropertyOp31
 70
     1
102
RTVSPropertyOp32
 70
     1
  0
XRECORD
  5
BE
102
{ACAD_REACTORS
330
BD
102
}
330
BD
100
AcDbXrecord
280
     1
102
RTVSPropertyOp0
 70
     1
102
RTVSPropertyOp1
 70
     1
102
RTVSPropertyOp2
 70
     1
102
RTVSPropertyOp3
 70
     1
102
RTVSPropertyOp4
 70
     1
102
RTVSPropertyOp5
 70
     1
102
RTVSPropertyOp6
 70
     1
102
RTVSPropertyOp7
 70
     1
102
RTVSPropertyOp8
 70
     1
102
RTVSPropertyOp9
 70
     1
102
RTVSPropertyOp10
 70
     1
102
RTVSPropertyOp11
 70
     1
102
RTVSPropertyOp12
 70
     1
102
RTVSPropertyOp13
 70
     1
102
RTVSPropertyOp14
 70
     1
102
RTVSPropertyOp15
 70
     1
102
RTVSPropertyOp16
 70
     1
102
RTVSPropertyOp17
 70
     1
102
RTVSPropertyOp18
 70
     1
102
RTVSPropertyOp19
 70
     1
102
RTVSPropertyOp20
 70
     1
102
RTVSPropertyOp21
 70
     1
102
RTVSPropertyOp22
 70
     1
102
RTVSPropertyOp23
 70
     1
102
RTVSPropertyOp24
 70
     1
102
RTVSPropertyOp25
 70
     1
102
RTVSPropertyOp26
 70
     1
102
RTVSPropertyOp27
 70
     1
102
RTVSPropertyOp28
 70
     1
102
RTVSPropertyOp29
 70
     1
102
RTVSPropertyOp30
 70
     1
102
RTVSPropertyOp31
 70
     1
102
RTVSPropertyOp32
 70
     1
  0
XRECORD
  5
C0
102
{ACAD_REACTORS
330
BF
102
}
330
BF
100
AcDbXrecord
280
     1
102
RTVSPropertyOp0
 70
     1
102
RTVSPropertyOp1
 70
     1
102
RTVSPropertyOp2
 70
     1
102
RTVSPropertyOp3
 70
     1
102
RTVSPropertyOp4
 70
     1
102
RTVSPropertyOp5
 70
     1
102
RTVSPropertyOp6
 70
     1
102
RTVSPropertyOp7
 70
     1
102
RTVSPropertyOp8
 70
     1
102
RTVSPropertyOp9
 70
     1
102
RTVSPropertyOp10
 70
     1
102
RTVSPropertyOp11
 70
     1
102
RTVSPropertyOp12
 70
     1
102
RTVSPropertyOp13
 70
     1
102
RTVSPropertyOp14
 70
     1
102
RTVSPropertyOp15
 70
     1
102
RTVSPropertyOp16
 70
     1
102
RTVSPropertyOp17
 70
     1
102
RTVSPropertyOp18
 70
     1
102
RTVSPropertyOp19
 70
     1
102
RTVSPropertyOp20
 70
     1
102
RTVSPropertyOp21
 70
     1
102
RTVSPropertyOp22
 70
     1
102
RTVSPropertyOp23
 70
     1
102
RTVSPropertyOp24
 70
     1
102
RTVSPropertyOp25
 70
     1
102
RTVSPropertyOp26
 70
     1
102
RTVSPropertyOp27
 70
     1
102
RTVSPropertyOp28
 70
     1
102
RTVSPropertyOp29
 70
     1
102
RTVSPropertyOp30
 70
     1
102
RTVSPropertyOp31
 70
     1
102
RTVSPropertyOp32
 70
     1
  0
XRECORD
  5
C2
102
{ACAD_REACTORS
330
C1
102
}
330
C1
100
AcDbXrecord
280
     1
102
RTVSPropertyOp0
 70
     1
102
RTVSPropertyOp1
 70
     1
102
RTVSPropertyOp2
 70
     1
102
RTVSPropertyOp3
 70
     1
102
RTVSPropertyOp4
 70
     1
102
RTVSPropertyOp5
 70
     1
102
RTVSPropertyOp6
 70
     1
102
RTVSPropertyOp7
 70
     1
102
RTVSPropertyOp8
 70
     1
102
RTVSPropertyOp9
 70
     1
102
RTVSPropertyOp10
 70
     1
102
RTVSPropertyOp11
 70
     1
102
RTVSPropertyOp12
 70
     1
102
RTVSPropertyOp13
 70
     1
102
RTVSPropertyOp14
 70
     1
102
RTVSPropertyOp15
 70
     1
102
RTVSPropertyOp16
 70
     1
102
RTVSPropertyOp17
 70
     1
102
RTVSPropertyOp18
 70
     1
102
RTVSPropertyOp19
 70
     1
102
RTVSPropertyOp20
 70
     1
102
RTVSPropertyOp21
 70
     1
102
RTVSPropertyOp22
 70
     1
102
RTVSPropertyOp23
 70
     1
102
RTVSPropertyOp24
 70
     1
102
RTVSPropertyOp25
 70
     1
102
RTVSPropertyOp26
 70
     1
102
RTVSPropertyOp27
 70
     1
102
RTVSPropertyOp28
 70
     1
102
RTVSPropertyOp29
 70
     1
102
RTVSPropertyOp30
 70
     1
102
RTVSPropertyOp31
 70
     1
102
RTVSPropertyOp32
 70
     1
  0
XRECORD
  5
D6
102
{ACAD_REACTORS
330
D5
102
}
330
D5
100
AcDbXrecord
280
     1
102
RTVSPropertyOp0
 70
     1
102
RTVSPropertyOp1
 70
     1
102
RTVSPropertyOp2
 70
     1
102
RTVSPropertyOp3
 70
     1
102
RTVSPropertyOp4
 70
     1
102
RTVSPropertyOp5
 70
     1
102
RTVSPropertyOp6
 70
     1
102
RTVSPropertyOp7
 70
     1
102
RTVSPropertyOp8
 70
     1
102
RTVSPropertyOp9
 70
     1
102
RTVSPropertyOp10
 70
     1
102
RTVSPropertyOp11
 70
     1
102
RTVSPropertyOp12
 70
     1
102
RTVSPropertyOp13
 70
     1
102
RTVSPropertyOp14
 70
     1
102
RTVSPropertyOp15
 70
     1
102
RTVSPropertyOp16
 70
     1
102
RTVSPropertyOp17
 70
     1
102
RTVSPropertyOp18
 70
     1
102
RTVSPropertyOp19
 70
     1
102
RTVSPropertyOp20
 70
     1
102
RTVSPropertyOp21
 70
     1
102
RTVSPropertyOp22
 70
     1
102
RTVSPropertyOp23
 70
     1
102
RTVSPropertyOp24
 70
     1
102
RTVSPropertyOp25
 70
     1
102
RTVSPropertyOp26
 70
     1
102
RTVSPropertyOp27
 70
     1
102
RTVSPropertyOp28
 70
     1
102
RTVSPropertyOp29
 70
     1
102
RTVSPropertyOp30
 70
     1
102
RTVSPropertyOp31
 70
     1
102
RTVSPropertyOp32
 70
     1
  0
XRECORD
  5
CC
102
{ACAD_REACTORS
330
CB
102
}
330
CB
100
AcDbXrecord
280
     1
102
RTVSPropertyOp0
 70
     1
102
RTVSPropertyOp1
 70
     1
102
RTVSPropertyOp2
 70
     1
102
RTVSPropertyOp3
 70
     1
102
RTVSPropertyOp4
 70
     1
102
RTVSPropertyOp5
 70
     1
102
RTVSPropertyOp6
 70
     1
102
RTVSPropertyOp7
 70
     1
102
RTVSPropertyOp8
 70
     1
102
RTVSPropertyOp9
 70
     1
102
RTVSPropertyOp10
 70
     1
102
RTVSPropertyOp11
 70
     1
102
RTVSPropertyOp12
 70
     1
102
RTVSPropertyOp13
 70
     1
102
RTVSPropertyOp14
 70
     1
102
RTVSPropertyOp15
 70
     1
102
RTVSPropertyOp16
 70
     1
102
RTVSPropertyOp17
 70
     1
102
RTVSPropertyOp18
 70
     1
102
RTVSPropertyOp19
 70
     1
102
RTVSPropertyOp20
 70
     1
102
RTVSPropertyOp21
 70
     1
102
RTVSPropertyOp22
 70
     1
102
RTVSPropertyOp23
 70
     1
102
RTVSPropertyOp24
 70
     1
102
RTVSPropertyOp25
 70
     1
102
RTVSPropertyOp26
 70
     1
102
RTVSPropertyOp27
 70
     1
102
RTVSPropertyOp28
 70
     1
102
RTVSPropertyOp29
 70
     1
102
RTVSPropertyOp30
 70
     1
102
RTVSPropertyOp31
 70
     1
102
RTVSPropertyOp32
 70
     1
  0
XRECORD
  5
D4
102
{ACAD_REACTORS
330
D3
102
}
330
D3
100
AcDbXrecord
280
     1
102
RTVSPropertyOp0
 70
     1
102
RTVSPropertyOp1
 70
     1
102
RTVSPropertyOp2
 70
     1
102
RTVSPropertyOp3
 70
     1
102
RTVSPropertyOp4
 70
     1
102
RTVSPropertyOp5
 70
     1
102
RTVSPropertyOp6
 70
     1
102
RTVSPropertyOp7
 70
     1
102
RTVSPropertyOp8
 70
     1
102
RTVSPropertyOp9
 70
     1
102
RTVSPropertyOp10
 70
     1
102
RTVSPropertyOp11
 70
     1
102
RTVSPropertyOp12
 70
     1
102
RTVSPropertyOp13
 70
     1
102
RTVSPropertyOp14
 70
     1
102
RTVSPropertyOp15
 70
     1
102
RTVSPropertyOp16
 70
     1
102
RTVSPropertyOp17
 70
     1
102
RTVSPropertyOp18
 70
     1
102
RTVSPropertyOp19
 70
     1
102
RTVSPropertyOp20
 70
     1
102
RTVSPropertyOp21
 70
     1
102
RTVSPropertyOp22
 70
     1
102
RTVSPropertyOp23
 70
     1
102
RTVSPropertyOp24
 70
     1
102
RTVSPropertyOp25
 70
     1
102
RTVSPropertyOp26
 70
     1
102
RTVSPropertyOp27
 70
     1
102
RTVSPropertyOp28
 70
     1
102
RTVSPropertyOp29
 70
     1
102
RTVSPropertyOp30
 70
     1
102
RTVSPropertyOp31
 70
     1
102
RTVSPropertyOp32
 70
     1
  0
ENDSEC
  0
EOF
