  0
SECTION
  2
HEADER
  9
$ACADVER
  1
AC1021
  9
$ACADMAINTVER
 70
    25
  9
$DWGCODEPAGE
  3
ANSI_1252
  9
$INSBASE
 10
0.0
 20
0.0
 30
0.0
  9
$EXTMIN
 10
-187.3831
 20
-115.3056
 30
0.0
  9
$EXTMAX
 10
-61.058
 20
132.0978
 30
0.0
  9
$LIMMIN
 10
0.0
 20
0.0
  9
$LIMMAX
 10
12.0
 20
9.0
  9
$ORTHOMODE
 70
     0
  9
$REGENMODE
 70
     1
  9
$FILLMODE
 70
     1
  9
$QTEXTMODE
 70
     0
  9
$MIRRTEXT
 70
     1
  9
$LTSCALE
 40
1.0
  9
$ATTMODE
 70
     1
  9
$TEXTSIZE
 40
0.2
  9
$TRACEWID
 40
0.05
  9
$TEXTSTYLE
  7
Standard
  9
$CLAYER
  8
0
  9
$CELTYPE
  6
ByLayer
  9
$CECOLOR
 62
   256
  9
$CELTSCALE
 40
1.0
  9
$DISPSILH
 70
     0
  9
$DIMSCALE
 40
1.0
  9
$DIMASZ
 40
0.18
  9
$DIMEXO
 40
0.0625
  9
$DIMDLI
 40
0.38
  9
$DIMRND
 40
0.0
  9
$DIMDLE
 40
0.0
  9
$DIMEXE
 40
0.18
  9
$DIMTP
 40
0.0
  9
$DIMTM
 40
0.0
  9
$DIMTXT
 40
0.18
  9
$DIMCEN
 40
0.09
  9
$DIMTSZ
 40
0.0
  9
$DIMTOL
 70
     0
  9
$DIMLIM
 70
     0
  9
$DIMTIH
 70
     1
  9
$DIMTOH
 70
     1
  9
$DIMSE1
 70
     0
  9
$DIMSE2
 70
     0
  9
$DIMTAD
 70
     0
  9
$DIMZIN
 70
     0
  9
$DIMBLK
  1

  9
$DIMASO
 70
     1
  9
$DIMSHO
 70
     1
  9
$DIMPOST
  1

  9
$DIMAPOST
  1

  9
$DIMALT
 70
     0
  9
$DIMALTD
 70
     2
  9
$DIMALTF
 40
25.4
  9
$DIMLFAC
 40
1.0
  9
$DIMTOFL
 70
     0
  9
$DIMTVP
 40
0.0
  9
$DIMTIX
 70
     0
  9
$DIMSOXD
 70
     0
  9
$DIMSAH
 70
     0
  9
$DIMBLK1
  1

  9
$DIMBLK2
  1

  9
$DIMSTYLE
  2
Standard
  9
$DIMCLRD
 70
     0
  9
$DIMCLRE
 70
     0
  9
$DIMCLRT
 70
     0
  9
$DIMTFAC
 40
1.0
  9
$DIMGAP
 40
0.09
  9
$DIMJUST
 70
     0
  9
$DIMSD1
 70
     0
  9
$DIMSD2
 70
     0
  9
$DIMTOLJ
 70
     1
  9
$DIMTZIN
 70
     0
  9
$DIMALTZ
 70
     0
  9
$DIMALTTZ
 70
     0
  9
$DIMUPT
 70
     0
  9
$DIMDEC
 70
     4
  9
$DIMTDEC
 70
     4
  9
$DIMALTU
 70
     2
  9
$DIMALTTD
 70
     2
  9
$DIMTXSTY
  7
Standard
  9
$DIMAUNIT
 70
     0
  9
$DIMADEC
 70
     0
  9
$DIMALTRND
 40
0.0
  9
$DIMAZIN
 70
     0
  9
$DIMDSEP
 70
    46
  9
$DIMATFIT
 70
     3
  9
$DIMFRAC
 70
     0
  9
$DIMLDRBLK
  1

  9
$DIMLUNIT
 70
     2
  9
$DIMLWD
 70
    -2
  9
$DIMLWE
 70
    -2
  9
$DIMTMOVE
 70
     0
  9
$DIMFXL
 40
1.0
  9
$DIMFXLON
 70
     0
  9
$DIMJOGANG
 40
0.7853981633974483
  9
$DIMTFILL
 70
     0
  9
$DIMTFILLCLR
 70
     0
  9
$DIMARCSYM
 70
     0
  9
$DIMLTYPE
  6

  9
$DIMLTEX1
  6

  9
$DIMLTEX2
  6

  9
$LUNITS
 70
     2
  9
$LUPREC
 70
     4
  9
$SKETCHINC
 40
0.1
  9
$FILLETRAD
 40
0.5
  9
$AUNITS
 70
     0
  9
$AUPREC
 70
     0
  9
$MENU
  1
.
  9
$ELEVATION
 40
0.0
  9
$PELEVATION
 40
0.0
  9
$THICKNESS
 40
0.0
  9
$LIMCHECK
 70
     0
  9
$CHAMFERA
 40
0.5
  9
$CHAMFERB
 40
0.5
  9
$CHAMFERC
 40
1.0
  9
$CHAMFERD
 40
0.0
  9
$SKPOLY
 70
     0
  9
$TDCREATE
 40
2458492.823482002
  9
$TDUCREATE
 40
2458492.823482002
  9
$TDUPDATE
 40
2458492.823482164
  9
$TDUUPDATE
 40
2458492.823482164
  9
$TDINDWG
 40
0.0000000116
  9
$TDUSRTIMER
 40
0.0000000116
  9
$USRTIMER
 70
     1
  9
$ANGBASE
 50
0.0
  9
$ANGDIR
 70
     0
  9
$PDMODE
 70
     0
  9
$PDSIZE
 40
0.0
  9
$PLINEWID
 40
0.0
  9
$SPLFRAME
 70
     0
  9
$SPLINETYPE
 70
     6
  9
$SPLINESEGS
 70
     8
  9
$HANDSEED
  5
B9
  9
$SURFTAB1
 70
     6
  9
$SURFTAB2
 70
     6
  9
$SURFTYPE
 70
     6
  9
$SURFU
 70
     6
  9
$SURFV
 70
     6
  9
$UCSBASE
  2

  9
$UCSNAME
  2

  9
$UCSORG
 10
0.0
 20
0.0
 30
0.0
  9
$UCSXDIR
 10
1.0
 20
0.0
 30
0.0
  9
$UCSYDIR
 10
0.0
 20
1.0
 30
0.0
  9
$UCSORTHOREF
  2

  9
$UCSORTHOVIEW
 70
     0
  9
$UCSORGTOP
 10
0.0
 20
0.0
 30
0.0
  9
$UCSORGBOTTOM
 10
0.0
 20
0.0
 30
0.0
  9
$UCSORGLEFT
 10
0.0
 20
0.0
 30
0.0
  9
$UCSORGRIGHT
 10
0.0
 20
0.0
 30
0.0
  9
$UCSORGFRONT
 10
0.0
 20
0.0
 30
0.0
  9
$UCSORGBACK
 10
0.0
 20
0.0
 30
0.0
  9
$PUCSBASE
  2

  9
$PUCSNAME
  2

  9
$PUCSORG
 10
0.0
 20
0.0
 30
0.0
  9
$PUCSXDIR
 10
1.0
 20
0.0
 30
0.0
  9
$PUCSYDIR
 10
0.0
 20
1.0
 30
0.0
  9
$PUCSORTHOREF
  2

  9
$PUCSORTHOVIEW
 70
     0
  9
$PUCSORGTOP
 10
0.0
 20
0.0
 30
0.0
  9
$PUCSORGBOTTOM
 10
0.0
 20
0.0
 30
0.0
  9
$PUCSORGLEFT
 10
0.0
 20
0.0
 30
0.0
  9
$PUCSORGRIGHT
 10
0.0
 20
0.0
 30
0.0
  9
$PUCSORGFRONT
 10
0.0
 20
0.0
 30
0.0
  9
$PUCSORGBACK
 10
0.0
 20
0.0
 30
0.0
  9
$USERI1
 70
     0
  9
$USERI2
 70
     0
  9
$USERI3
 70
     0
  9
$USERI4
 70
     0
  9
$USERI5
 70
     0
  9
$USERR1
 40
0.0
  9
$USERR2
 40
0.0
  9
$USERR3
 40
0.0
  9
$USERR4
 40
0.0
  9
$USERR5
 40
0.0
  9
$WORLDVIEW
 70
     1
  9
$SHADEDGE
 70
     3
  9
$SHADEDIF
 70
    70
  9
$TILEMODE
 70
     1
  9
$MAXACTVP
 70
    64
  9
$PINSBASE
 10
0.0
 20
0.0
 30
0.0
  9
$PLIMCHECK
 70
     0
  9
$PEXTMIN
 10
1.000000000000000E+20
 20
1.000000000000000E+20
 30
1.000000000000000E+20
  9
$PEXTMAX
 10
-1.000000000000000E+20
 20
-1.000000000000000E+20
 30
-1.000000000000000E+20
  9
$PLIMMIN
 10
0.0
 20
0.0
  9
$PLIMMAX
 10
12.0
 20
9.0
  9
$UNITMODE
 70
     0
  9
$VISRETAIN
 70
     1
  9
$PLINEGEN
 70
     0
  9
$PSLTSCALE
 70
     1
  9
$TREEDEPTH
 70
  3020
  9
$CMLSTYLE
  2
Standard
  9
$CMLJUST
 70
     0
  9
$CMLSCALE
 40
1.0
  9
$PROXYGRAPHICS
 70
     1
  9
$MEASUREMENT
 70
     0
  9
$CELWEIGHT
370
    -1
  9
$ENDCAPS
280
     0
  9
$JOINSTYLE
280
     0
  9
$LWDISPLAY
290
     0
  9
$INSUNITS
 70
     4
  9
$HYPERLINKBASE
  1

  9
$STYLESHEET
  1

  9
$XEDIT
290
     1
  9
$CEPSNTYPE
380
     0
  9
$PSTYLEMODE
290
     1
  9
$FINGERPRINTGUID
  2
{2ADDE69F-7500-4150-990E-1A3F466C7126}
  9
$VERSIONGUID
  2
{FAEB1C32-E019-11D5-929B-00C0DF256EC4}
  9
$EXTNAMES
290
     1
  9
$PSVPSCALE
 40
0.0
  9
$OLESTARTUP
290
     0
  9
$SORTENTS
280
   127
  9
$INDEXCTL
280
     0
  9
$HIDETEXT
280
     1
  9
$XCLIPFRAME
290
     0
  9
$HALOGAP
280
     0
  9
$OBSCOLOR
 70
   257
  9
$OBSLTYPE
280
     0
  9
$INTERSECTIONDISPLAY
280
     0
  9
$INTERSECTIONCOLOR
 70
   257
  9
$DIMASSOC
280
     2
  9
$PROJECTNAME
  1

  9
$CAMERADISPLAY
290
     0
  9
$LENSLENGTH
 40
50.0
  9
$CAMERAHEIGHT
 40
0.0
  9
$STEPSPERSEC
 40
2.0
  9
$STEPSIZE
 40
6.0
  9
$3DDWFPREC
 40
2.0
  9
$PSOLWIDTH
 40
0.25
  9
$PSOLHEIGHT
 40
4.0
  9
$LOFTANG1
 40
1.570796326794897
  9
$LOFTANG2
 40
1.570796326794897
  9
$LOFTMAG1
 40
0.0
  9
$LOFTMAG2
 40
0.0
  9
$LOFTPARAM
 70
     7
  9
$LOFTNORMALS
280
     1
  9
$LATITUDE
 40
37.795
  9
$LONGITUDE
 40
-122.394
  9
$NORTHDIRECTION
 40
0.0
  9
$TIMEZONE
 70
 -8000
  9
$LIGHTGLYPHDISPLAY
280
     1
  9
$TILEMODELIGHTSYNCH
280
     1
  9
$SOLIDHIST
280
     1
  9
$SHOWHIST
280
     1
  9
$DWFFRAME
280
     2
  9
$DGNFRAME
280
     2
  9
$REALWORLDSCALE
290
     1
  9
$INTERFERECOLOR
 62
   256
  9
$CSHADOW
280
     0
  9
$SHADOWPLANELOCATION
 40
0.0
  0
ENDSEC
  0
SECTION
  2
CLASSES
  0
CLASS
  1
ACDBDICTIONARYWDFLT
  2
AcDbDictionaryWithDefault
  3
ObjectDBX Classes
 90
        0
 91
        4
280
     0
281
     0
  0
CLASS
  1
VISUALSTYLE
  2
AcDbVisualStyle
  3
ObjectDBX Classes
 90
     4095
 91
        4
280
     0
281
     0
  0
CLASS
  1
MATERIAL
  2
AcDbMaterial
  3
ObjectDBX Classes
 90
     1153
 91
        4
280
     0
281
     0
  0
ENDSEC
  0
SECTION
  2
TABLES
  0
TABLE
  2
VPORT
  5
8
330
0
100
AcDbSymbolTable
 70
     1
  0
VPORT
  5
29
330
8
100
AcDbSymbolTableRecord
100
AcDbViewportTableRecord
  2
*Active
 70
     0
 10
0.0
 20
0.0
 11
1.0
 21
1.0
 12
10.42990654205607
 22
4.5
 13
0.0
 23
0.0
 14
0.5
 24
0.5
 15
0.5
 25
0.5
 16
0.0
 26
0.0
 36
1.0
 17
0.0
 27
0.0
 37
0.0
 40
9.0
 41
1.972972972850329
 42
50.0
 43
0.0
 44
0.0
 50
0.0
 51
0.0
 71
     0
 72
   100
 73
     1
 74
     3
 75
     0
 76
     0
 77
     0
 78
     0
281
     0
 65
     1
110
0.0
120
0.0
130
0.0
111
1.0
121
0.0
131
0.0
112
0.0
122
1.0
132
0.0
 79
     0
146
0.0
 60
     3
 61
     5
292
     1
282
     1
141
0.0
142
0.0
 63
   250
  0
ENDTAB
  0
TABLE
  2
LTYPE
  5
5
330
0
100
AcDbSymbolTable
 70
     1
  0
LTYPE
  5
14
330
5
100
AcDbSymbolTableRecord
100
AcDbLinetypeTableRecord
  2
ByBlock
 70
     0
  3

 72
    65
 73
     0
 40
0.0
  0
LTYPE
  5
15
330
5
100
AcDbSymbolTableRecord
100
AcDbLinetypeTableRecord
  2
ByLayer
 70
     0
  3

 72
    65
 73
     0
 40
0.0
  0
LTYPE
  5
16
330
5
100
AcDbSymbolTableRecord
100
AcDbLinetypeTableRecord
  2
Continuous
 70
     0
  3
Solid line
 72
    65
 73
     0
 40
0.0
  0
ENDTAB
  0
TABLE
  2
LAYER
  5
2
330
0
100
AcDbSymbolTable
 70
     2
  0
LAYER
  5
10
330
2
100
AcDbSymbolTableRecord
100
AcDbLayerTableRecord
  2
0
 70
     0
 62
     7
  6
Continuous
370
    -3
390
F
347
3E
  0
LAYER
  5
40
330
2
100
AcDbSymbolTableRecord
100
AcDbLayerTableRecord
  2
layer 1
 70
     0
 62
     7
  6
Continuous
370
    -3
390
F
347
3E
  0
ENDTAB
  0
TABLE
  2
STYLE
  5
3
330
0
100
AcDbSymbolTable
 70
     1
  0
STYLE
  5
11
330
3
100
AcDbSymbolTableRecord
100
AcDbTextStyleTableRecord
  2
Standard
 70
     0
 40
0.0
 41
1.0
 50
0.0
 71
     0
 42
0.2
  3
txt
  4

  0
ENDTAB
  0
TABLE
  2
VIEW
  5
6
330
0
100
AcDbSymbolTable
 70
     0
  0
ENDTAB
  0
TABLE
  2
UCS
  5
7
330
0
100
AcDbSymbolTable
 70
     0
  0
ENDTAB
  0
TABLE
  2
APPID
  5
9
330
0
100
AcDbSymbolTable
 70
     2
  0
APPID
  5
12
330
9
100
AcDbSymbolTableRecord
100
AcDbRegAppTableRecord
  2
ACAD
 70
     0
  0
APPID
  5
3F
330
9
100
AcDbSymbolTableRecord
100
AcDbRegAppTableRecord
  2
ODA
 70
     0
  0
ENDTAB
  0
TABLE
  2
DIMSTYLE
  5
A
330
0
100
AcDbSymbolTable
 70
     1
100
AcDbDimStyleTable
  0
DIMSTYLE
105
27
330
A
100
AcDbSymbolTableRecord
100
AcDbDimStyleTableRecord
  2
Standard
 70
     0
178
     0
340
11
  0
ENDTAB
  0
TABLE
  2
BLOCK_RECORD
  5
1
330
0
100
AcDbSymbolTable
 70
     1
  0
BLOCK_RECORD
  5
1F
330
1
100
AcDbSymbolTableRecord
100
AcDbBlockTableRecord
  2
*Model_Space
340
22
 70
     0
280
     1
281
     0
  0
BLOCK_RECORD
  5
1B
330
1
100
AcDbSymbolTableRecord
100
AcDbBlockTableRecord
  2
*Paper_Space
340
1E
 70
     0
280
     1
281
     0
  0
BLOCK_RECORD
  5
23
330
1
100
AcDbSymbolTableRecord
100
AcDbBlockTableRecord
  2
*Paper_Space0
340
26
 70
     0
280
     1
281
     0
  0
ENDTAB
  0
ENDSEC
  0
SECTION
  2
BLOCKS
  0
BLOCK
  5
20
330
1F
100
AcDbEntity
  8
0
100
AcDbBlockBegin
  2
*Model_Space
 70
     0
 10
0.0
 20
0.0
 30
0.0
  3
*Model_Space
  1

  0
ENDBLK
  5
21
330
1F
100
AcDbEntity
  8
0
100
AcDbBlockEnd
  0
BLOCK
  5
1C
330
1B
100
AcDbEntity
 67
     1
  8
0
100
AcDbBlockBegin
  2
*Paper_Space
 70
     0
 10
0.0
 20
0.0
 30
0.0
  3
*Paper_Space
  1

  0
ENDBLK
  5
1D
330
1B
100
AcDbEntity
 67
     1
  8
0
100
AcDbBlockEnd
  0
BLOCK
  5
24
330
23
100
AcDbEntity
  8
0
100
AcDbBlockBegin
  2
*Paper_Space0
 70
     0
 10
0.0
 20
0.0
 30
0.0
  3
*Paper_Space0
  1

  0
ENDBLK
  5
25
330
23
100
AcDbEntity
  8
0
100
AcDbBlockEnd
  0
ENDSEC
  0
SECTION
  2
ENTITIES
  0
LWPOLYLINE
  5
41
330
1F
100
AcDbEntity
  8
layer 1
 62
   250
370
     9
100
AcDbPolyline
 90
        5
 70
     1
 43
0.0
 10
-187.345
 20
-115.2675
 10
-61.0962
 20
-115.2675
 10
-61.0962
 20
132.0597
 10
-187.345
 20
132.0597
 10
-187.345
 20
-115.2675
  0
LWPOLYLINE
  5
42
330
1F
100
AcDbEntity
  8
layer 1
 62
     7
370
    18
100
AcDbPolyline
 90
        5
 70
     1
 43
0.0
 10
-179.568
 20
121.0963
 10
-168.942
 20
121.0963
 10
-168.942
 20
124.7707
 10
-179.568
 20
124.7707
 10
-179.568
 20
121.0963
  0
SPLINE
  5
43
330
1F
100
AcDbEntity
  8
layer 1
 62
     7
370
    18
100
AcDbSpline
210
0.0
220
0.0
230
1.0
 70
    11
 71
     3
 72
    24
 73
    20
 74
     0
 42
0.0000000001
 43
0.0000000001
 12
1.0
 22
0.0
 32
0.0
 13
1.0
 23
0.0
 33
0.0
 40
0.0
 40
0.0
 40
0.0
 40
0.0
 40
0.1666666666666667
 40
0.1666666666666667
 40
0.1666666666666667
 40
0.1666666666666667
 40
0.3333333333333333
 40
0.3333333333333333
 40
0.3333333333333333
 40
0.3333333333333333
 40
0.5
 40
0.5
 40
0.5
 40
0.5
 40
0.6666666666666666
 40
0.6666666666666666
 40
0.6666666666666666
 40
0.6666666666666666
 40
1.0
 40
1.0
 40
1.0
 40
1.0
 10
-156.6775
 20
124.7707
 30
0.0
 10
-156.6775
 20
124.7707
 30
0.0
 10
-140.8916
 20
124.7707
 30
0.0
 10
-140.8916
 20
124.7707
 30
0.0
 10
-140.8916
 20
124.7707
 30
0.0
 10
-140.8916
 20
124.7707
 30
0.0
 10
-139.1262
 20
123.0406
 30
0.0
 10
-139.1262
 20
123.0406
 30
0.0
 10
-139.1262
 20
123.0406
 30
0.0
 10
-139.1262
 20
123.0406
 30
0.0
 10
-140.8916
 20
121.0963
 30
0.0
 10
-140.8916
 20
121.0963
 30
0.0
 10
-140.8916
 20
121.0963
 30
0.0
 10
-140.8916
 20
121.0963
 30
0.0
 10
-156.6775
 20
121.0963
 30
0.0
 10
-156.6775
 20
121.0963
 30
0.0
 10
-156.6775
 20
121.0963
 30
0.0
 10
-156.6775
 20
121.0963
 30
0.0
 10
-156.6775
 20
124.7707
 30
0.0
 10
-156.6775
 20
124.7707
 30
0.0
  0
LWPOLYLINE
  5
44
330
1F
100
AcDbEntity
  8
layer 1
 62
     7
370
    18
100
AcDbPolyline
 90
        5
 70
     1
 43
0.0
 10
-164.6223
 20
121.0871
 10
-160.9477
 20
121.0871
 10
-160.9477
 20
124.7615
 10
-164.6223
 20
124.7615
 10
-164.6223
 20
121.0871
  0
SPLINE
  5
45
330
1F
100
AcDbEntity
  8
layer 1
 62
     7
370
    18
100
AcDbSpline
210
0.0
220
0.0
230
1.0
 70
    11
 71
     3
 72
    24
 73
    20
 74
     0
 42
0.0000000001
 43
0.0000000001
 12
1.0
 22
0.0
 32
0.0
 13
1.0
 23
0.0
 33
0.0
 40
0.0
 40
0.0
 40
0.0
 40
0.0
 40
0.1666666666666667
 40
0.1666666666666667
 40
0.1666666666666667
 40
0.1666666666666667
 40
0.3333333333333333
 40
0.3333333333333333
 40
0.3333333333333333
 40
0.3333333333333333
 40
0.5
 40
0.5
 40
0.5
 40
0.5
 40
0.6666666666666666
 40
0.6666666666666666
 40
0.6666666666666666
 40
0.6666666666666666
 40
1.0
 40
1.0
 40
1.0
 40
1.0
 10
-164.5959
 20
116.8503
 30
0.0
 10
-164.5959
 20
116.8503
 30
0.0
 10
-164.5959
 20
101.0643
 30
0.0
 10
-164.5959
 20
101.0643
 30
0.0
 10
-164.5959
 20
101.0643
 30
0.0
 10
-164.5959
 20
101.0643
 30
0.0
 10
-162.8658
 20
99.2989
 30
0.0
 10
-162.8658
 20
99.2989
 30
0.0
 10
-162.8658
 20
99.2989
 30
0.0
 10
-162.8658
 20
99.2989
 30
0.0
 10
-160.9215
 20
101.0643
 30
0.0
 10
-160.9215
 20
101.0643
 30
0.0
 10
-160.9215
 20
101.0643
 30
0.0
 10
-160.9215
 20
101.0643
 30
0.0
 10
-160.9215
 20
116.8503
 30
0.0
 10
-160.9215
 20
116.8503
 30
0.0
 10
-160.9215
 20
116.8503
 30
0.0
 10
-160.9215
 20
116.8503
 30
0.0
 10
-164.5959
 20
116.8503
 30
0.0
 10
-164.5959
 20
116.8503
 30
0.0
  0
SPLINE
  5
46
330
1F
100
AcDbEntity
  8
layer 1
 62
     7
370
    18
100
AcDbSpline
210
0.0
220
0.0
230
1.0
 70
    11
 71
     3
 72
    28
 73
    24
 74
     0
 42
0.0000000001
 43
0.0000000001
 12
1.0
 22
0.0
 32
0.0
 13
1.0
 23
0.0
 33
0.0
 40
0.0
 40
0.0
 40
0.0
 40
0.0
 40
0.1428571428571428
 40
0.1428571428571428
 40
0.1428571428571428
 40
0.1428571428571428
 40
0.2857142857142857
 40
0.2857142857142857
 40
0.2857142857142857
 40
0.2857142857142857
 40
0.4285714285714285
 40
0.4285714285714285
 40
0.4285714285714285
 40
0.4285714285714285
 40
0.5714285714285714
 40
0.5714285714285714
 40
0.5714285714285714
 40
0.5714285714285714
 40
0.7142857142857143
 40
0.7142857142857143
 40
0.7142857142857143
 40
0.7142857142857143
 40
1.0
 40
1.0
 40
1.0
 40
1.0
 10
-179.568
 20
116.8933
 30
0.0
 10
-179.568
 20
116.8933
 30
0.0
 10
-168.9421
 20
116.8933
 30
0.0
 10
-168.9421
 20
116.8933
 30
0.0
 10
-168.9421
 20
116.8933
 30
0.0
 10
-168.9421
 20
116.8933
 30
0.0
 10
-168.9421
 20
99.5283
 30
0.0
 10
-168.9421
 20
99.5283
 30
0.0
 10
-168.9421
 20
99.5283
 30
0.0
 10
-168.9421
 20
99.5283
 30
0.0
 10
-165.7723
 20
96.479
 30
0.0
 10
-165.7723
 20
96.479
 30
0.0
 10
-165.7723
 20
96.479
 30
0.0
 10
-165.7723
 20
96.479
 30
0.0
 10
-170.5828
 20
91.5839
 30
0.0
 10
-170.5828
 20
91.5839
 30
0.0
 10
-170.5828
 20
91.5839
 30
0.0
 10
-170.5828
 20
91.5839
 30
0.0
 10
-179.568
 20
91.5839
 30
0.0
 10
-179.568
 20
91.5839
 30
0.0
 10
-179.568
 20
91.5839
 30
0.0
 10
-179.568
 20
91.5839
 30
0.0
 10
-179.568
 20
116.8933
 30
0.0
 10
-179.568
 20
116.8933
 30
0.0
  0
SPLINE
  5
47
330
1F
100
AcDbEntity
  8
layer 1
 62
     7
370
    18
100
AcDbSpline
210
0.0
220
0.0
230
1.0
 70
    11
 71
     3
 72
    44
 73
    40
 74
     0
 42
0.0000000001
 43
0.0000000001
 12
1.0
 22
0.0
 32
0.0
 13
1.0
 23
0.0
 33
0.0
 40
0.0
 40
0.0
 40
0.0
 40
0.0
 40
0.0909090909090909
 40
0.0909090909090909
 40
0.0909090909090909
 40
0.0909090909090909
 40
0.1818181818181818
 40
0.1818181818181818
 40
0.1818181818181818
 40
0.1818181818181818
 40
0.2727272727272727
 40
0.2727272727272727
 40
0.2727272727272727
 40
0.2727272727272727
 40
0.3636363636363636
 40
0.3636363636363636
 40
0.3636363636363636
 40
0.3636363636363636
 40
0.4545454545454545
 40
0.4545454545454545
 40
0.4545454545454545
 40
0.4545454545454545
 40
0.5454545454545454
 40
0.5454545454545454
 40
0.5454545454545454
 40
0.5454545454545454
 40
0.6363636363636364
 40
0.6363636363636364
 40
0.6363636363636364
 40
0.6363636363636364
 40
0.7272727272727273
 40
0.7272727272727273
 40
0.7272727272727273
 40
0.7272727272727273
 40
0.8181818181818182
 40
0.8181818181818182
 40
0.8181818181818182
 40
0.8181818181818182
 40
1.0
 40
1.0
 40
1.0
 40
1.0
 10
-156.737
 20
116.8933
 30
0.0
 10
-156.737
 20
116.8933
 30
0.0
 10
-139.6076
 20
116.8933
 30
0.0
 10
-139.6076
 20
116.8933
 30
0.0
 10
-139.6076
 20
116.8933
 30
0.0
 10
-139.6076
 20
116.8933
 30
0.0
 10
-136.0768
 20
119.9427
 30
0.0
 10
-136.0768
 20
119.9427
 30
0.0
 10
-136.0768
 20
119.9427
 30
0.0
 10
-136.0768
 20
119.9427
 30
0.0
 10
-131.2454
 20
115.1079
 30
0.0
 10
-131.2454
 20
115.1079
 30
0.0
 10
-131.2454
 20
115.1079
 30
0.0
 10
-131.2454
 20
115.1079
 30
0.0
 10
-131.2959
 20
102.2837
 30
0.0
 10
-131.2959
 20
102.2837
 30
0.0
 10
-131.2959
 20
102.2837
 30
0.0
 10
-131.2959
 20
102.2837
 30
0.0
 10
-141.8981
 20
102.2567
 30
0.0
 10
-141.8981
 20
102.2567
 30
0.0
 10
-141.8981
 20
102.2567
 30
0.0
 10
-141.8981
 20
102.2567
 30
0.0
 10
-141.8536
 20
91.5839
 30
0.0
 10
-141.8536
 20
91.5839
 30
0.0
 10
-141.8536
 20
91.5839
 30
0.0
 10
-141.8536
 20
91.5839
 30
0.0
 10
-154.5336
 20
91.5839
 30
0.0
 10
-154.5336
 20
91.5839
 30
0.0
 10
-154.5336
 20
91.5839
 30
0.0
 10
-154.5336
 20
91.5839
 30
0.0
 10
-159.7863
 20
96.4388
 30
0.0
 10
-159.7863
 20
96.4388
 30
0.0
 10
-159.7863
 20
96.4388
 30
0.0
 10
-159.7863
 20
96.4388
 30
0.0
 10
-156.737
 20
99.4882
 30
0.0
 10
-156.737
 20
99.4882
 30
0.0
 10
-156.737
 20
99.4882
 30
0.0
 10
-156.737
 20
99.4882
 30
0.0
 10
-156.737
 20
116.8933
 30
0.0
 10
-156.737
 20
116.8933
 30
0.0
  0
LWPOLYLINE
  5
48
330
1F
100
AcDbEntity
  8
layer 1
 62
     7
370
    18
100
AcDbPolyline
 90
        5
 70
     1
 43
0.0
 10
-137.6332
 20
91.5954
 10
-131.1126
 20
91.5954
 10
-131.1126
 20
98.1156
 10
-137.6332
 20
98.1156
 10
-137.6332
 20
91.5954
  0
LWPOLYLINE
  5
49
330
1F
100
AcDbEntity
  8
layer 1
 62
     7
370
    18
100
AcDbPolyline
 90
        5
 70
     1
 43
0.0
 10
-117.2009
 20
91.5954
 10
-110.6803
 20
91.5954
 10
-110.6803
 20
98.1156
 10
-117.2009
 20
98.1156
 10
-117.2009
 20
91.5954
  0
LWPOLYLINE
  5
4A
330
1F
100
AcDbEntity
  8
layer 1
 62
     7
370
    18
100
AcDbPolyline
 90
        5
 70
     1
 43
0.0
 10
-117.2009
 20
71.4237
 10
-110.6803
 20
71.4237
 10
-110.6803
 20
77.9439
 10
-117.2009
 20
77.9439
 10
-117.2009
 20
71.4237
  0
LWPOLYLINE
  5
4B
330
1F
100
AcDbEntity
  8
layer 1
 62
     7
370
    18
100
AcDbPolyline
 90
        5
 70
     1
 43
0.0
 10
-137.6332
 20
71.2832
 10
-131.1126
 20
71.2832
 10
-131.1126
 20
77.8034
 10
-137.6332
 20
77.8034
 10
-137.6332
 20
71.2832
  0
SPLINE
  5
4C
330
1F
100
AcDbEntity
  8
layer 1
 62
     7
370
    18
100
AcDbSpline
210
0.0
220
0.0
230
1.0
 70
    11
 71
     3
 72
    44
 73
    40
 74
     0
 42
0.0000000001
 43
0.0000000001
 12
1.0
 22
0.0
 32
0.0
 13
1.0
 23
0.0
 33
0.0
 40
0.0
 40
0.0
 40
0.0
 40
0.0
 40
0.0909090909090909
 40
0.0909090909090909
 40
0.0909090909090909
 40
0.0909090909090909
 40
0.1818181818181818
 40
0.1818181818181818
 40
0.1818181818181818
 40
0.1818181818181818
 40
0.2727272727272727
 40
0.2727272727272727
 40
0.2727272727272727
 40
0.2727272727272727
 40
0.3636363636363636
 40
0.3636363636363636
 40
0.3636363636363636
 40
0.3636363636363636
 40
0.4545454545454545
 40
0.4545454545454545
 40
0.4545454545454545
 40
0.4545454545454545
 40
0.5454545454545454
 40
0.5454545454545454
 40
0.5454545454545454
 40
0.5454545454545454
 40
0.6363636363636364
 40
0.6363636363636364
 40
0.6363636363636364
 40
0.6363636363636364
 40
0.7272727272727273
 40
0.7272727272727273
 40
0.7272727272727273
 40
0.7272727272727273
 40
0.8181818181818182
 40
0.8181818181818182
 40
0.8181818181818182
 40
0.8181818181818182
 40
1.0
 40
1.0
 40
1.0
 40
1.0
 10
-156.737
 20
52.4165
 30
0.0
 10
-156.737
 20
52.4165
 30
0.0
 10
-139.6076
 20
52.4165
 30
0.0
 10
-139.6076
 20
52.4165
 30
0.0
 10
-139.6076
 20
52.4165
 30
0.0
 10
-139.6076
 20
52.4165
 30
0.0
 10
-136.0768
 20
49.3671
 30
0.0
 10
-136.0768
 20
49.3671
 30
0.0
 10
-136.0768
 20
49.3671
 30
0.0
 10
-136.0768
 20
49.3671
 30
0.0
 10
-131.2454
 20
54.2019
 30
0.0
 10
-131.2454
 20
54.2019
 30
0.0
 10
-131.2454
 20
54.2019
 30
0.0
 10
-131.2454
 20
54.2019
 30
0.0
 10
-131.2959
 20
67.0262
 30
0.0
 10
-131.2959
 20
67.0262
 30
0.0
 10
-131.2959
 20
67.0262
 30
0.0
 10
-131.2959
 20
67.0262
 30
0.0
 10
-141.8981
 20
67.0531
 30
0.0
 10
-141.8981
 20
67.0531
 30
0.0
 10
-141.8981
 20
67.0531
 30
0.0
 10
-141.8981
 20
67.0531
 30
0.0
 10
-141.8536
 20
77.7259
 30
0.0
 10
-141.8536
 20
77.7259
 30
0.0
 10
-141.8536
 20
77.7259
 30
0.0
 10
-141.8536
 20
77.7259
 30
0.0
 10
-154.5336
 20
77.7259
 30
0.0
 10
-154.5336
 20
77.7259
 30
0.0
 10
-154.5336
 20
77.7259
 30
0.0
 10
-154.5336
 20
77.7259
 30
0.0
 10
-159.7863
 20
72.871
 30
0.0
 10
-159.7863
 20
72.871
 30
0.0
 10
-159.7863
 20
72.871
 30
0.0
 10
-159.7863
 20
72.871
 30
0.0
 10
-156.737
 20
69.8216
 30
0.0
 10
-156.737
 20
69.8216
 30
0.0
 10
-156.737
 20
69.8216
 30
0.0
 10
-156.737
 20
69.8216
 30
0.0
 10
-156.737
 20
52.4165
 30
0.0
 10
-156.737
 20
52.4165
 30
0.0
  0
SPLINE
  5
4D
330
1F
100
AcDbEntity
  8
layer 1
 62
     7
370
    18
100
AcDbSpline
210
0.0
220
0.0
230
1.0
 70
    11
 71
     3
 72
    24
 73
    20
 74
     0
 42
0.0000000001
 43
0.0000000001
 12
1.0
 22
0.0
 32
0.0
 13
1.0
 23
0.0
 33
0.0
 40
0.0
 40
0.0
 40
0.0
 40
0.0
 40
0.1666666666666667
 40
0.1666666666666667
 40
0.1666666666666667
 40
0.1666666666666667
 40
0.3333333333333333
 40
0.3333333333333333
 40
0.3333333333333333
 40
0.3333333333333333
 40
0.5
 40
0.5
 40
0.5
 40
0.5
 40
0.6666666666666666
 40
0.6666666666666666
 40
0.6666666666666666
 40
0.6666666666666666
 40
1.0
 40
1.0
 40
1.0
 40
1.0
 10
-164.5959
 20
52.4359
 30
0.0
 10
-164.5959
 20
52.4359
 30
0.0
 10
-164.5959
 20
68.2219
 30
0.0
 10
-164.5959
 20
68.2219
 30
0.0
 10
-164.5959
 20
68.2219
 30
0.0
 10
-164.5959
 20
68.2219
 30
0.0
 10
-162.8658
 20
69.9873
 30
0.0
 10
-162.8658
 20
69.9873
 30
0.0
 10
-162.8658
 20
69.9873
 30
0.0
 10
-162.8658
 20
69.9873
 30
0.0
 10
-160.9215
 20
68.2219
 30
0.0
 10
-160.9215
 20
68.2219
 30
0.0
 10
-160.9215
 20
68.2219
 30
0.0
 10
-160.9215
 20
68.2219
 30
0.0
 10
-160.9215
 20
52.4359
 30
0.0
 10
-160.9215
 20
52.4359
 30
0.0
 10
-160.9215
 20
52.4359
 30
0.0
 10
-160.9215
 20
52.4359
 30
0.0
 10
-164.5959
 20
52.4359
 30
0.0
 10
-164.5959
 20
52.4359
 30
0.0
  0
SPLINE
  5
4E
330
1F
100
AcDbEntity
  8
layer 1
 62
     7
370
    18
100
AcDbSpline
210
0.0
220
0.0
230
1.0
 70
    11
 71
     3
 72
    28
 73
    24
 74
     0
 42
0.0000000001
 43
0.0000000001
 12
1.0
 22
0.0
 32
0.0
 13
1.0
 23
0.0
 33
0.0
 40
0.0
 40
0.0
 40
0.0
 40
0.0
 40
0.1428571428571428
 40
0.1428571428571428
 40
0.1428571428571428
 40
0.1428571428571428
 40
0.2857142857142857
 40
0.2857142857142857
 40
0.2857142857142857
 40
0.2857142857142857
 40
0.4285714285714285
 40
0.4285714285714285
 40
0.4285714285714285
 40
0.4285714285714285
 40
0.5714285714285714
 40
0.5714285714285714
 40
0.5714285714285714
 40
0.5714285714285714
 40
0.7142857142857143
 40
0.7142857142857143
 40
0.7142857142857143
 40
0.7142857142857143
 40
1.0
 40
1.0
 40
1.0
 40
1.0
 10
-179.568
 20
52.4256
 30
0.0
 10
-179.568
 20
52.4256
 30
0.0
 10
-168.9421
 20
52.4256
 30
0.0
 10
-168.9421
 20
52.4256
 30
0.0
 10
-168.9421
 20
52.4256
 30
0.0
 10
-168.9421
 20
52.4256
 30
0.0
 10
-168.9421
 20
69.7907
 30
0.0
 10
-168.9421
 20
69.7907
 30
0.0
 10
-168.9421
 20
69.7907
 30
0.0
 10
-168.9421
 20
69.7907
 30
0.0
 10
-165.7723
 20
72.84
 30
0.0
 10
-165.7723
 20
72.84
 30
0.0
 10
-165.7723
 20
72.84
 30
0.0
 10
-165.7723
 20
72.84
 30
0.0
 10
-170.5828
 20
77.7351
 30
0.0
 10
-170.5828
 20
77.7351
 30
0.0
 10
-170.5828
 20
77.7351
 30
0.0
 10
-170.5828
 20
77.7351
 30
0.0
 10
-179.568
 20
77.7351
 30
0.0
 10
-179.568
 20
77.7351
 30
0.0
 10
-179.568
 20
77.7351
 30
0.0
 10
-179.568
 20
77.7351
 30
0.0
 10
-179.568
 20
52.4256
 30
0.0
 10
-179.568
 20
52.4256
 30
0.0
  0
SPLINE
  5
4F
330
1F
100
AcDbEntity
  8
layer 1
 62
     7
370
    18
100
AcDbSpline
210
0.0
220
0.0
230
1.0
 70
    11
 71
     3
 72
    44
 73
    40
 74
     0
 42
0.0000000001
 43
0.0000000001
 12
1.0
 22
0.0
 32
0.0
 13
1.0
 23
0.0
 33
0.0
 40
0.0
 40
0.0
 40
0.0
 40
0.0
 40
0.0909090909090909
 40
0.0909090909090909
 40
0.0909090909090909
 40
0.0909090909090909
 40
0.1818181818181818
 40
0.1818181818181818
 40
0.1818181818181818
 40
0.1818181818181818
 40
0.2727272727272727
 40
0.2727272727272727
 40
0.2727272727272727
 40
0.2727272727272727
 40
0.3636363636363636
 40
0.3636363636363636
 40
0.3636363636363636
 40
0.3636363636363636
 40
0.4545454545454545
 40
0.4545454545454545
 40
0.4545454545454545
 40
0.4545454545454545
 40
0.5454545454545454
 40
0.5454545454545454
 40
0.5454545454545454
 40
0.5454545454545454
 40
0.6363636363636364
 40
0.6363636363636364
 40
0.6363636363636364
 40
0.6363636363636364
 40
0.7272727272727273
 40
0.7272727272727273
 40
0.7272727272727273
 40
0.7272727272727273
 40
0.8181818181818182
 40
0.8181818181818182
 40
0.8181818181818182
 40
0.8181818181818182
 40
1.0
 40
1.0
 40
1.0
 40
1.0
 10
-179.568
 20
87.4308
 30
0.0
 10
-179.568
 20
87.4308
 30
0.0
 10
-169.0008
 20
87.4308
 30
0.0
 10
-169.0008
 20
87.4308
 30
0.0
 10
-169.0008
 20
87.4308
 30
0.0
 10
-169.0008
 20
87.4308
 30
0.0
 10
-162.7876
 20
93.5716
 30
0.0
 10
-162.7876
 20
93.5716
 30
0.0
 10
-162.7876
 20
93.5716
 30
0.0
 10
-162.7876
 20
93.5716
 30
0.0
 10
-156.719
 20
87.4308
 30
0.0
 10
-156.719
 20
87.4308
 30
0.0
 10
-156.719
 20
87.4308
 30
0.0
 10
-156.719
 20
87.4308
 30
0.0
 10
-141.8725
 20
87.4308
 30
0.0
 10
-141.8725
 20
87.4308
 30
0.0
 10
-141.8725
 20
87.4308
 30
0.0
 10
-141.8725
 20
87.4308
 30
0.0
 10
-141.8725
 20
82.0047
 30
0.0
 10
-141.8725
 20
82.0047
 30
0.0
 10
-141.8725
 20
82.0047
 30
0.0
 10
-141.8725
 20
82.0047
 30
0.0
 10
-156.6828
 20
82.0047
 30
0.0
 10
-156.6828
 20
82.0047
 30
0.0
 10
-156.6828
 20
82.0047
 30
0.0
 10
-156.6828
 20
82.0047
 30
0.0
 10
-162.6792
 20
76.0083
 30
0.0
 10
-162.6792
 20
76.0083
 30
0.0
 10
-162.6792
 20
76.0083
 30
0.0
 10
-162.6792
 20
76.0083
 30
0.0
 10
-168.9647
 20
82.0047
 30
0.0
 10
-168.9647
 20
82.0047
 30
0.0
 10
-168.9647
 20
82.0047
 30
0.0
 10
-168.9647
 20
82.0047
 30
0.0
 10
-179.568
 20
82.0047
 30
0.0
 10
-179.568
 20
82.0047
 30
0.0
 10
-179.568
 20
82.0047
 30
0.0
 10
-179.568
 20
82.0047
 30
0.0
 10
-179.568
 20
87.4308
 30
0.0
 10
-179.568
 20
87.4308
 30
0.0
  0
LWPOLYLINE
  5
50
330
1F
100
AcDbEntity
  8
layer 1
 62
     7
370
    18
100
AcDbPolyline
 90
        5
 70
     1
 43
0.0
 10
-179.568
 20
44.635
 10
-168.942
 20
44.635
 10
-168.942
 20
48.3094
 10
-179.568
 20
48.3094
 10
-179.568
 20
44.635
  0
SPLINE
  5
51
330
1F
100
AcDbEntity
  8
layer 1
 62
     7
370
    18
100
AcDbSpline
210
0.0
220
0.0
230
1.0
 70
    11
 71
     3
 72
    24
 73
    20
 74
     0
 42
0.0000000001
 43
0.0000000001
 12
1.0
 22
0.0
 32
0.0
 13
1.0
 23
0.0
 33
0.0
 40
0.0
 40
0.0
 40
0.0
 40
0.0
 40
0.1666666666666667
 40
0.1666666666666667
 40
0.1666666666666667
 40
0.1666666666666667
 40
0.3333333333333333
 40
0.3333333333333333
 40
0.3333333333333333
 40
0.3333333333333333
 40
0.5
 40
0.5
 40
0.5
 40
0.5
 40
0.6666666666666666
 40
0.6666666666666666
 40
0.6666666666666666
 40
0.6666666666666666
 40
1.0
 40
1.0
 40
1.0
 40
1.0
 10
-156.6775
 20
48.3094
 30
0.0
 10
-156.6775
 20
48.3094
 30
0.0
 10
-140.8916
 20
48.3094
 30
0.0
 10
-140.8916
 20
48.3094
 30
0.0
 10
-140.8916
 20
48.3094
 30
0.0
 10
-140.8916
 20
48.3094
 30
0.0
 10
-139.1262
 20
46.5793
 30
0.0
 10
-139.1262
 20
46.5793
 30
0.0
 10
-139.1262
 20
46.5793
 30
0.0
 10
-139.1262
 20
46.5793
 30
0.0
 10
-140.8916
 20
44.635
 30
0.0
 10
-140.8916
 20
44.635
 30
0.0
 10
-140.8916
 20
44.635
 30
0.0
 10
-140.8916
 20
44.635
 30
0.0
 10
-156.6775
 20
44.635
 30
0.0
 10
-156.6775
 20
44.635
 30
0.0
 10
-156.6775
 20
44.635
 30
0.0
 10
-156.6775
 20
44.635
 30
0.0
 10
-156.6775
 20
48.3094
 30
0.0
 10
-156.6775
 20
48.3094
 30
0.0
  0
LWPOLYLINE
  5
52
330
1F
100
AcDbEntity
  8
layer 1
 62
     7
370
    18
100
AcDbPolyline
 90
        5
 70
     1
 43
0.0
 10
-164.6223
 20
44.6258
 10
-160.9477
 20
44.6258
 10
-160.9477
 20
48.3002
 10
-164.6223
 20
48.3002
 10
-164.6223
 20
44.6258
  0
SPLINE
  5
53
330
1F
100
AcDbEntity
  8
layer 1
 62
     7
370
    18
100
AcDbSpline
210
0.0
220
0.0
230
1.0
 70
    11
 71
     3
 72
    24
 73
    20
 74
     0
 42
0.0000000001
 43
0.0000000001
 12
1.0
 22
0.0
 32
0.0
 13
1.0
 23
0.0
 33
0.0
 40
0.0
 40
0.0
 40
0.0
 40
0.0
 40
0.1666666666666667
 40
0.1666666666666667
 40
0.1666666666666667
 40
0.1666666666666667
 40
0.3333333333333333
 40
0.3333333333333333
 40
0.3333333333333333
 40
0.3333333333333333
 40
0.5
 40
0.5
 40
0.5
 40
0.5
 40
0.6666666666666666
 40
0.6666666666666666
 40
0.6666666666666666
 40
0.6666666666666666
 40
1.0
 40
1.0
 40
1.0
 40
1.0
 10
-164.5959
 20
40.389
 30
0.0
 10
-164.5959
 20
40.389
 30
0.0
 10
-164.5959
 20
24.6031
 30
0.0
 10
-164.5959
 20
24.6031
 30
0.0
 10
-164.5959
 20
24.6031
 30
0.0
 10
-164.5959
 20
24.6031
 30
0.0
 10
-162.8658
 20
22.8376
 30
0.0
 10
-162.8658
 20
22.8376
 30
0.0
 10
-162.8658
 20
22.8376
 30
0.0
 10
-162.8658
 20
22.8376
 30
0.0
 10
-160.9215
 20
24.6031
 30
0.0
 10
-160.9215
 20
24.6031
 30
0.0
 10
-160.9215
 20
24.6031
 30
0.0
 10
-160.9215
 20
24.6031
 30
0.0
 10
-160.9215
 20
40.389
 30
0.0
 10
-160.9215
 20
40.389
 30
0.0
 10
-160.9215
 20
40.389
 30
0.0
 10
-160.9215
 20
40.389
 30
0.0
 10
-164.5959
 20
40.389
 30
0.0
 10
-164.5959
 20
40.389
 30
0.0
  0
SPLINE
  5
54
330
1F
100
AcDbEntity
  8
layer 1
 62
     7
370
    18
100
AcDbSpline
210
0.0
220
0.0
230
1.0
 70
    11
 71
     3
 72
    28
 73
    24
 74
     0
 42
0.0000000001
 43
0.0000000001
 12
1.0
 22
0.0
 32
0.0
 13
1.0
 23
0.0
 33
0.0
 40
0.0
 40
0.0
 40
0.0
 40
0.0
 40
0.1428571428571428
 40
0.1428571428571428
 40
0.1428571428571428
 40
0.1428571428571428
 40
0.2857142857142857
 40
0.2857142857142857
 40
0.2857142857142857
 40
0.2857142857142857
 40
0.4285714285714285
 40
0.4285714285714285
 40
0.4285714285714285
 40
0.4285714285714285
 40
0.5714285714285714
 40
0.5714285714285714
 40
0.5714285714285714
 40
0.5714285714285714
 40
0.7142857142857143
 40
0.7142857142857143
 40
0.7142857142857143
 40
0.7142857142857143
 40
1.0
 40
1.0
 40
1.0
 40
1.0
 10
-179.568
 20
40.4321
 30
0.0
 10
-179.568
 20
40.4321
 30
0.0
 10
-168.9421
 20
40.4321
 30
0.0
 10
-168.9421
 20
40.4321
 30
0.0
 10
-168.9421
 20
40.4321
 30
0.0
 10
-168.9421
 20
40.4321
 30
0.0
 10
-168.9421
 20
23.0671
 30
0.0
 10
-168.9421
 20
23.0671
 30
0.0
 10
-168.9421
 20
23.0671
 30
0.0
 10
-168.9421
 20
23.0671
 30
0.0
 10
-165.7723
 20
20.0177
 30
0.0
 10
-165.7723
 20
20.0177
 30
0.0
 10
-165.7723
 20
20.0177
 30
0.0
 10
-165.7723
 20
20.0177
 30
0.0
 10
-170.5828
 20
15.1227
 30
0.0
 10
-170.5828
 20
15.1227
 30
0.0
 10
-170.5828
 20
15.1227
 30
0.0
 10
-170.5828
 20
15.1227
 30
0.0
 10
-179.568
 20
15.1227
 30
0.0
 10
-179.568
 20
15.1227
 30
0.0
 10
-179.568
 20
15.1227
 30
0.0
 10
-179.568
 20
15.1227
 30
0.0
 10
-179.568
 20
40.4321
 30
0.0
 10
-179.568
 20
40.4321
 30
0.0
  0
SPLINE
  5
55
330
1F
100
AcDbEntity
  8
layer 1
 62
     7
370
    18
100
AcDbSpline
210
0.0
220
0.0
230
1.0
 70
    11
 71
     3
 72
    44
 73
    40
 74
     0
 42
0.0000000001
 43
0.0000000001
 12
1.0
 22
0.0
 32
0.0
 13
1.0
 23
0.0
 33
0.0
 40
0.0
 40
0.0
 40
0.0
 40
0.0
 40
0.0909090909090909
 40
0.0909090909090909
 40
0.0909090909090909
 40
0.0909090909090909
 40
0.1818181818181818
 40
0.1818181818181818
 40
0.1818181818181818
 40
0.1818181818181818
 40
0.2727272727272727
 40
0.2727272727272727
 40
0.2727272727272727
 40
0.2727272727272727
 40
0.3636363636363636
 40
0.3636363636363636
 40
0.3636363636363636
 40
0.3636363636363636
 40
0.4545454545454545
 40
0.4545454545454545
 40
0.4545454545454545
 40
0.4545454545454545
 40
0.5454545454545454
 40
0.5454545454545454
 40
0.5454545454545454
 40
0.5454545454545454
 40
0.6363636363636364
 40
0.6363636363636364
 40
0.6363636363636364
 40
0.6363636363636364
 40
0.7272727272727273
 40
0.7272727272727273
 40
0.7272727272727273
 40
0.7272727272727273
 40
0.8181818181818182
 40
0.8181818181818182
 40
0.8181818181818182
 40
0.8181818181818182
 40
1.0
 40
1.0
 40
1.0
 40
1.0
 10
-156.737
 20
40.4321
 30
0.0
 10
-156.737
 20
40.4321
 30
0.0
 10
-139.6076
 20
40.4321
 30
0.0
 10
-139.6076
 20
40.4321
 30
0.0
 10
-139.6076
 20
40.4321
 30
0.0
 10
-139.6076
 20
40.4321
 30
0.0
 10
-136.0768
 20
43.4815
 30
0.0
 10
-136.0768
 20
43.4815
 30
0.0
 10
-136.0768
 20
43.4815
 30
0.0
 10
-136.0768
 20
43.4815
 30
0.0
 10
-131.2454
 20
38.6467
 30
0.0
 10
-131.2454
 20
38.6467
 30
0.0
 10
-131.2454
 20
38.6467
 30
0.0
 10
-131.2454
 20
38.6467
 30
0.0
 10
-131.2959
 20
25.8224
 30
0.0
 10
-131.2959
 20
25.8224
 30
0.0
 10
-131.2959
 20
25.8224
 30
0.0
 10
-131.2959
 20
25.8224
 30
0.0
 10
-141.8981
 20
25.7955
 30
0.0
 10
-141.8981
 20
25.7955
 30
0.0
 10
-141.8981
 20
25.7955
 30
0.0
 10
-141.8981
 20
25.7955
 30
0.0
 10
-141.8536
 20
15.1227
 30
0.0
 10
-141.8536
 20
15.1227
 30
0.0
 10
-141.8536
 20
15.1227
 30
0.0
 10
-141.8536
 20
15.1227
 30
0.0
 10
-154.5336
 20
15.1227
 30
0.0
 10
-154.5336
 20
15.1227
 30
0.0
 10
-154.5336
 20
15.1227
 30
0.0
 10
-154.5336
 20
15.1227
 30
0.0
 10
-159.7863
 20
19.9776
 30
0.0
 10
-159.7863
 20
19.9776
 30
0.0
 10
-159.7863
 20
19.9776
 30
0.0
 10
-159.7863
 20
19.9776
 30
0.0
 10
-156.737
 20
23.027
 30
0.0
 10
-156.737
 20
23.027
 30
0.0
 10
-156.737
 20
23.027
 30
0.0
 10
-156.737
 20
23.027
 30
0.0
 10
-156.737
 20
40.4321
 30
0.0
 10
-156.737
 20
40.4321
 30
0.0
  0
SPLINE
  5
56
330
1F
100
AcDbEntity
  8
layer 1
 62
     7
370
    18
100
AcDbSpline
210
0.0
220
0.0
230
1.0
 70
    11
 71
     3
 72
    44
 73
    40
 74
     0
 42
0.0000000001
 43
0.0000000001
 12
1.0
 22
0.0
 32
0.0
 13
1.0
 23
0.0
 33
0.0
 40
0.0
 40
0.0
 40
0.0
 40
0.0
 40
0.0909090909090909
 40
0.0909090909090909
 40
0.0909090909090909
 40
0.0909090909090909
 40
0.1818181818181818
 40
0.1818181818181818
 40
0.1818181818181818
 40
0.1818181818181818
 40
0.2727272727272727
 40
0.2727272727272727
 40
0.2727272727272727
 40
0.2727272727272727
 40
0.3636363636363636
 40
0.3636363636363636
 40
0.3636363636363636
 40
0.3636363636363636
 40
0.4545454545454545
 40
0.4545454545454545
 40
0.4545454545454545
 40
0.4545454545454545
 40
0.5454545454545454
 40
0.5454545454545454
 40
0.5454545454545454
 40
0.5454545454545454
 40
0.6363636363636364
 40
0.6363636363636364
 40
0.6363636363636364
 40
0.6363636363636364
 40
0.7272727272727273
 40
0.7272727272727273
 40
0.7272727272727273
 40
0.7272727272727273
 40
0.8181818181818182
 40
0.8181818181818182
 40
0.8181818181818182
 40
0.8181818181818182
 40
1.0
 40
1.0
 40
1.0
 40
1.0
 10
-179.568
 20
11.1085
 30
0.0
 10
-179.568
 20
11.1085
 30
0.0
 10
-169.0008
 20
11.1085
 30
0.0
 10
-169.0008
 20
11.1085
 30
0.0
 10
-169.0008
 20
11.1085
 30
0.0
 10
-169.0008
 20
11.1085
 30
0.0
 10
-162.7876
 20
17.2493
 30
0.0
 10
-162.7876
 20
17.2493
 30
0.0
 10
-162.7876
 20
17.2493
 30
0.0
 10
-162.7876
 20
17.2493
 30
0.0
 10
-156.719
 20
11.1085
 30
0.0
 10
-156.719
 20
11.1085
 30
0.0
 10
-156.719
 20
11.1085
 30
0.0
 10
-156.719
 20
11.1085
 30
0.0
 10
-141.8725
 20
11.1085
 30
0.0
 10
-141.8725
 20
11.1085
 30
0.0
 10
-141.8725
 20
11.1085
 30
0.0
 10
-141.8725
 20
11.1085
 30
0.0
 10
-141.8725
 20
5.6824
 30
0.0
 10
-141.8725
 20
5.6824
 30
0.0
 10
-141.8725
 20
5.6824
 30
0.0
 10
-141.8725
 20
5.6824
 30
0.0
 10
-156.6828
 20
5.6824
 30
0.0
 10
-156.6828
 20
5.6824
 30
0.0
 10
-156.6828
 20
5.6824
 30
0.0
 10
-156.6828
 20
5.6824
 30
0.0
 10
-162.6792
 20
-0.3139
 30
0.0
 10
-162.6792
 20
-0.3139
 30
0.0
 10
-162.6792
 20
-0.3139
 30
0.0
 10
-162.6792
 20
-0.3139
 30
0.0
 10
-168.9647
 20
5.6824
 30
0.0
 10
-168.9647
 20
5.6824
 30
0.0
 10
-168.9647
 20
5.6824
 30
0.0
 10
-168.9647
 20
5.6824
 30
0.0
 10
-179.568
 20
5.6824
 30
0.0
 10
-179.568
 20
5.6824
 30
0.0
 10
-179.568
 20
5.6824
 30
0.0
 10
-179.568
 20
5.6824
 30
0.0
 10
-179.568
 20
11.1085
 30
0.0
 10
-179.568
 20
11.1085
 30
0.0
  0
SPLINE
  5
57
330
1F
100
AcDbEntity
  8
layer 1
 62
     7
370
    18
100
AcDbSpline
210
0.0
220
0.0
230
1.0
 70
    11
 71
     3
 72
    44
 73
    40
 74
     0
 42
0.0000000001
 43
0.0000000001
 12
1.0
 22
0.0
 32
0.0
 13
1.0
 23
0.0
 33
0.0
 40
0.0
 40
0.0
 40
0.0
 40
0.0
 40
0.0909090909090909
 40
0.0909090909090909
 40
0.0909090909090909
 40
0.0909090909090909
 40
0.1818181818181818
 40
0.1818181818181818
 40
0.1818181818181818
 40
0.1818181818181818
 40
0.2727272727272727
 40
0.2727272727272727
 40
0.2727272727272727
 40
0.2727272727272727
 40
0.3636363636363636
 40
0.3636363636363636
 40
0.3636363636363636
 40
0.3636363636363636
 40
0.4545454545454545
 40
0.4545454545454545
 40
0.4545454545454545
 40
0.4545454545454545
 40
0.5454545454545454
 40
0.5454545454545454
 40
0.5454545454545454
 40
0.5454545454545454
 40
0.6363636363636364
 40
0.6363636363636364
 40
0.6363636363636364
 40
0.6363636363636364
 40
0.7272727272727273
 40
0.7272727272727273
 40
0.7272727272727273
 40
0.7272727272727273
 40
0.8181818181818182
 40
0.8181818181818182
 40
0.8181818181818182
 40
0.8181818181818182
 40
1.0
 40
1.0
 40
1.0
 40
1.0
 10
-179.568
 20
-65.3331
 30
0.0
 10
-179.568
 20
-65.3331
 30
0.0
 10
-169.0008
 20
-65.3331
 30
0.0
 10
-169.0008
 20
-65.3331
 30
0.0
 10
-169.0008
 20
-65.3331
 30
0.0
 10
-169.0008
 20
-65.3331
 30
0.0
 10
-162.7876
 20
-59.1923
 30
0.0
 10
-162.7876
 20
-59.1923
 30
0.0
 10
-162.7876
 20
-59.1923
 30
0.0
 10
-162.7876
 20
-59.1923
 30
0.0
 10
-156.719
 20
-65.3331
 30
0.0
 10
-156.719
 20
-65.3331
 30
0.0
 10
-156.719
 20
-65.3331
 30
0.0
 10
-156.719
 20
-65.3331
 30
0.0
 10
-141.8725
 20
-65.3331
 30
0.0
 10
-141.8725
 20
-65.3331
 30
0.0
 10
-141.8725
 20
-65.3331
 30
0.0
 10
-141.8725
 20
-65.3331
 30
0.0
 10
-141.8725
 20
-70.7592
 30
0.0
 10
-141.8725
 20
-70.7592
 30
0.0
 10
-141.8725
 20
-70.7592
 30
0.0
 10
-141.8725
 20
-70.7592
 30
0.0
 10
-156.6828
 20
-70.7592
 30
0.0
 10
-156.6828
 20
-70.7592
 30
0.0
 10
-156.6828
 20
-70.7592
 30
0.0
 10
-156.6828
 20
-70.7592
 30
0.0
 10
-162.6792
 20
-76.7556
 30
0.0
 10
-162.6792
 20
-76.7556
 30
0.0
 10
-162.6792
 20
-76.7556
 30
0.0
 10
-162.6792
 20
-76.7556
 30
0.0
 10
-168.9647
 20
-70.7592
 30
0.0
 10
-168.9647
 20
-70.7592
 30
0.0
 10
-168.9647
 20
-70.7592
 30
0.0
 10
-168.9647
 20
-70.7592
 30
0.0
 10
-179.568
 20
-70.7592
 30
0.0
 10
-179.568
 20
-70.7592
 30
0.0
 10
-179.568
 20
-70.7592
 30
0.0
 10
-179.568
 20
-70.7592
 30
0.0
 10
-179.568
 20
-65.3331
 30
0.0
 10
-179.568
 20
-65.3331
 30
0.0
  0
SPLINE
  5
58
330
1F
100
AcDbEntity
  8
layer 1
 62
     7
370
    18
100
AcDbSpline
210
0.0
220
0.0
230
1.0
 70
    11
 71
     3
 72
    24
 73
    20
 74
     0
 42
0.0000000001
 43
0.0000000001
 12
1.0
 22
0.0
 32
0.0
 13
1.0
 23
0.0
 33
0.0
 40
0.0
 40
0.0
 40
0.0
 40
0.0
 40
0.1666666666666667
 40
0.1666666666666667
 40
0.1666666666666667
 40
0.1666666666666667
 40
0.3333333333333333
 40
0.3333333333333333
 40
0.3333333333333333
 40
0.3333333333333333
 40
0.5
 40
0.5
 40
0.5
 40
0.5
 40
0.6666666666666666
 40
0.6666666666666666
 40
0.6666666666666666
 40
0.6666666666666666
 40
1.0
 40
1.0
 40
1.0
 40
1.0
 10
-164.5959
 20
-23.8091
 30
0.0
 10
-164.5959
 20
-23.8091
 30
0.0
 10
-164.5959
 20
-8.0231
 30
0.0
 10
-164.5959
 20
-8.0231
 30
0.0
 10
-164.5959
 20
-8.0231
 30
0.0
 10
-164.5959
 20
-8.0231
 30
0.0
 10
-162.8658
 20
-6.2577
 30
0.0
 10
-162.8658
 20
-6.2577
 30
0.0
 10
-162.8658
 20
-6.2577
 30
0.0
 10
-162.8658
 20
-6.2577
 30
0.0
 10
-160.9215
 20
-8.0231
 30
0.0
 10
-160.9215
 20
-8.0231
 30
0.0
 10
-160.9215
 20
-8.0231
 30
0.0
 10
-160.9215
 20
-8.0231
 30
0.0
 10
-160.9215
 20
-23.8091
 30
0.0
 10
-160.9215
 20
-23.8091
 30
0.0
 10
-160.9215
 20
-23.8091
 30
0.0
 10
-160.9215
 20
-23.8091
 30
0.0
 10
-164.5959
 20
-23.8091
 30
0.0
 10
-164.5959
 20
-23.8091
 30
0.0
  0
LWPOLYLINE
  5
59
330
1F
100
AcDbEntity
  8
layer 1
 62
     7
370
    18
100
AcDbPolyline
 90
        5
 70
     1
 43
0.0
 10
-179.568
 20
-31.61
 10
-168.942
 20
-31.61
 10
-168.942
 20
-27.9356
 10
-179.568
 20
-27.9356
 10
-179.568
 20
-31.61
  0
SPLINE
  5
5A
330
1F
100
AcDbEntity
  8
layer 1
 62
     7
370
    18
100
AcDbSpline
210
0.0
220
0.0
230
1.0
 70
    11
 71
     3
 72
    24
 73
    20
 74
     0
 42
0.0000000001
 43
0.0000000001
 12
1.0
 22
0.0
 32
0.0
 13
1.0
 23
0.0
 33
0.0
 40
0.0
 40
0.0
 40
0.0
 40
0.0
 40
0.1666666666666667
 40
0.1666666666666667
 40
0.1666666666666667
 40
0.1666666666666667
 40
0.3333333333333333
 40
0.3333333333333333
 40
0.3333333333333333
 40
0.3333333333333333
 40
0.5
 40
0.5
 40
0.5
 40
0.5
 40
0.6666666666666666
 40
0.6666666666666666
 40
0.6666666666666666
 40
0.6666666666666666
 40
1.0
 40
1.0
 40
1.0
 40
1.0
 10
-156.6775
 20
-27.9356
 30
0.0
 10
-156.6775
 20
-27.9356
 30
0.0
 10
-140.8916
 20
-27.9356
 30
0.0
 10
-140.8916
 20
-27.9356
 30
0.0
 10
-140.8916
 20
-27.9356
 30
0.0
 10
-140.8916
 20
-27.9356
 30
0.0
 10
-139.1262
 20
-29.6657
 30
0.0
 10
-139.1262
 20
-29.6657
 30
0.0
 10
-139.1262
 20
-29.6657
 30
0.0
 10
-139.1262
 20
-29.6657
 30
0.0
 10
-140.8916
 20
-31.61
 30
0.0
 10
-140.8916
 20
-31.61
 30
0.0
 10
-140.8916
 20
-31.61
 30
0.0
 10
-140.8916
 20
-31.61
 30
0.0
 10
-156.6775
 20
-31.61
 30
0.0
 10
-156.6775
 20
-31.61
 30
0.0
 10
-156.6775
 20
-31.61
 30
0.0
 10
-156.6775
 20
-31.61
 30
0.0
 10
-156.6775
 20
-27.9356
 30
0.0
 10
-156.6775
 20
-27.9356
 30
0.0
  0
LWPOLYLINE
  5
5B
330
1F
100
AcDbEntity
  8
layer 1
 62
     7
370
    18
100
AcDbPolyline
 90
        5
 70
     1
 43
0.0
 10
-164.6223
 20
-31.6191
 10
-160.9477
 20
-31.6191
 10
-160.9477
 20
-27.9447
 10
-164.6223
 20
-27.9447
 10
-164.6223
 20
-31.6191
  0
SPLINE
  5
5C
330
1F
100
AcDbEntity
  8
layer 1
 62
     7
370
    18
100
AcDbSpline
210
0.0
220
0.0
230
1.0
 70
    11
 71
     3
 72
    24
 73
    20
 74
     0
 42
0.0000000001
 43
0.0000000001
 12
1.0
 22
0.0
 32
0.0
 13
1.0
 23
0.0
 33
0.0
 40
0.0
 40
0.0
 40
0.0
 40
0.0
 40
0.1666666666666667
 40
0.1666666666666667
 40
0.1666666666666667
 40
0.1666666666666667
 40
0.3333333333333333
 40
0.3333333333333333
 40
0.3333333333333333
 40
0.3333333333333333
 40
0.5
 40
0.5
 40
0.5
 40
0.5
 40
0.6666666666666666
 40
0.6666666666666666
 40
0.6666666666666666
 40
0.6666666666666666
 40
1.0
 40
1.0
 40
1.0
 40
1.0
 10
-164.5959
 20
-35.856
 30
0.0
 10
-164.5959
 20
-35.856
 30
0.0
 10
-164.5959
 20
-51.6419
 30
0.0
 10
-164.5959
 20
-51.6419
 30
0.0
 10
-164.5959
 20
-51.6419
 30
0.0
 10
-164.5959
 20
-51.6419
 30
0.0
 10
-162.8658
 20
-53.4074
 30
0.0
 10
-162.8658
 20
-53.4074
 30
0.0
 10
-162.8658
 20
-53.4074
 30
0.0
 10
-162.8658
 20
-53.4074
 30
0.0
 10
-160.9215
 20
-51.6419
 30
0.0
 10
-160.9215
 20
-51.6419
 30
0.0
 10
-160.9215
 20
-51.6419
 30
0.0
 10
-160.9215
 20
-51.6419
 30
0.0
 10
-160.9215
 20
-35.856
 30
0.0
 10
-160.9215
 20
-35.856
 30
0.0
 10
-160.9215
 20
-35.856
 30
0.0
 10
-160.9215
 20
-35.856
 30
0.0
 10
-164.5959
 20
-35.856
 30
0.0
 10
-164.5959
 20
-35.856
 30
0.0
  0
SPLINE
  5
5D
330
1F
100
AcDbEntity
  8
layer 1
 62
     7
370
    18
100
AcDbSpline
210
0.0
220
0.0
230
1.0
 70
    11
 71
     3
 72
    28
 73
    24
 74
     0
 42
0.0000000001
 43
0.0000000001
 12
1.0
 22
0.0
 32
0.0
 13
1.0
 23
0.0
 33
0.0
 40
0.0
 40
0.0
 40
0.0
 40
0.0
 40
0.1428571428571428
 40
0.1428571428571428
 40
0.1428571428571428
 40
0.1428571428571428
 40
0.2857142857142857
 40
0.2857142857142857
 40
0.2857142857142857
 40
0.2857142857142857
 40
0.4285714285714285
 40
0.4285714285714285
 40
0.4285714285714285
 40
0.4285714285714285
 40
0.5714285714285714
 40
0.5714285714285714
 40
0.5714285714285714
 40
0.5714285714285714
 40
0.7142857142857143
 40
0.7142857142857143
 40
0.7142857142857143
 40
0.7142857142857143
 40
1.0
 40
1.0
 40
1.0
 40
1.0
 10
-179.568
 20
-23.7718
 30
0.0
 10
-179.568
 20
-23.7718
 30
0.0
 10
-168.9421
 20
-23.7718
 30
0.0
 10
-168.9421
 20
-23.7718
 30
0.0
 10
-168.9421
 20
-23.7718
 30
0.0
 10
-168.9421
 20
-23.7718
 30
0.0
 10
-168.9421
 20
-6.4068
 30
0.0
 10
-168.9421
 20
-6.4068
 30
0.0
 10
-168.9421
 20
-6.4068
 30
0.0
 10
-168.9421
 20
-6.4068
 30
0.0
 10
-165.7723
 20
-3.3574
 30
0.0
 10
-165.7723
 20
-3.3574
 30
0.0
 10
-165.7723
 20
-3.3574
 30
0.0
 10
-165.7723
 20
-3.3574
 30
0.0
 10
-170.5828
 20
1.5376
 30
0.0
 10
-170.5828
 20
1.5376
 30
0.0
 10
-170.5828
 20
1.5376
 30
0.0
 10
-170.5828
 20
1.5376
 30
0.0
 10
-179.568
 20
1.5376
 30
0.0
 10
-179.568
 20
1.5376
 30
0.0
 10
-179.568
 20
1.5376
 30
0.0
 10
-179.568
 20
1.5376
 30
0.0
 10
-179.568
 20
-23.7718
 30
0.0
 10
-179.568
 20
-23.7718
 30
0.0
  0
SPLINE
  5
5E
330
1F
100
AcDbEntity
  8
layer 1
 62
     7
370
    18
100
AcDbSpline
210
0.0
220
0.0
230
1.0
 70
    11
 71
     3
 72
    44
 73
    40
 74
     0
 42
0.0000000001
 43
0.0000000001
 12
1.0
 22
0.0
 32
0.0
 13
1.0
 23
0.0
 33
0.0
 40
0.0
 40
0.0
 40
0.0
 40
0.0
 40
0.0909090909090909
 40
0.0909090909090909
 40
0.0909090909090909
 40
0.0909090909090909
 40
0.1818181818181818
 40
0.1818181818181818
 40
0.1818181818181818
 40
0.1818181818181818
 40
0.2727272727272727
 40
0.2727272727272727
 40
0.2727272727272727
 40
0.2727272727272727
 40
0.3636363636363636
 40
0.3636363636363636
 40
0.3636363636363636
 40
0.3636363636363636
 40
0.4545454545454545
 40
0.4545454545454545
 40
0.4545454545454545
 40
0.4545454545454545
 40
0.5454545454545454
 40
0.5454545454545454
 40
0.5454545454545454
 40
0.5454545454545454
 40
0.6363636363636364
 40
0.6363636363636364
 40
0.6363636363636364
 40
0.6363636363636364
 40
0.7272727272727273
 40
0.7272727272727273
 40
0.7272727272727273
 40
0.7272727272727273
 40
0.8181818181818182
 40
0.8181818181818182
 40
0.8181818181818182
 40
0.8181818181818182
 40
1.0
 40
1.0
 40
1.0
 40
1.0
 10
-156.737
 20
-23.8621
 30
0.0
 10
-156.737
 20
-23.8621
 30
0.0
 10
-139.6076
 20
-23.8621
 30
0.0
 10
-139.6076
 20
-23.8621
 30
0.0
 10
-139.6076
 20
-23.8621
 30
0.0
 10
-139.6076
 20
-23.8621
 30
0.0
 10
-136.0768
 20
-26.9114
 30
0.0
 10
-136.0768
 20
-26.9114
 30
0.0
 10
-136.0768
 20
-26.9114
 30
0.0
 10
-136.0768
 20
-26.9114
 30
0.0
 10
-131.2454
 20
-22.0766
 30
0.0
 10
-131.2454
 20
-22.0766
 30
0.0
 10
-131.2454
 20
-22.0766
 30
0.0
 10
-131.2454
 20
-22.0766
 30
0.0
 10
-131.2959
 20
-9.2524
 30
0.0
 10
-131.2959
 20
-9.2524
 30
0.0
 10
-131.2959
 20
-9.2524
 30
0.0
 10
-131.2959
 20
-9.2524
 30
0.0
 10
-141.8981
 20
-9.2254
 30
0.0
 10
-141.8981
 20
-9.2254
 30
0.0
 10
-141.8981
 20
-9.2254
 30
0.0
 10
-141.8981
 20
-9.2254
 30
0.0
 10
-141.8536
 20
1.4474
 30
0.0
 10
-141.8536
 20
1.4474
 30
0.0
 10
-141.8536
 20
1.4474
 30
0.0
 10
-141.8536
 20
1.4474
 30
0.0
 10
-154.5336
 20
1.4474
 30
0.0
 10
-154.5336
 20
1.4474
 30
0.0
 10
-154.5336
 20
1.4474
 30
0.0
 10
-154.5336
 20
1.4474
 30
0.0
 10
-159.7863
 20
-3.4076
 30
0.0
 10
-159.7863
 20
-3.4076
 30
0.0
 10
-159.7863
 20
-3.4076
 30
0.0
 10
-159.7863
 20
-3.4076
 30
0.0
 10
-156.737
 20
-6.4569
 30
0.0
 10
-156.737
 20
-6.4569
 30
0.0
 10
-156.737
 20
-6.4569
 30
0.0
 10
-156.737
 20
-6.4569
 30
0.0
 10
-156.737
 20
-23.8621
 30
0.0
 10
-156.737
 20
-23.8621
 30
0.0
  0
SPLINE
  5
5F
330
1F
100
AcDbEntity
  8
layer 1
 62
     7
370
    18
100
AcDbSpline
210
0.0
220
0.0
230
1.0
 70
    11
 71
     3
 72
    28
 73
    24
 74
     0
 42
0.0000000001
 43
0.0000000001
 12
1.0
 22
0.0
 32
0.0
 13
1.0
 23
0.0
 33
0.0
 40
0.0
 40
0.0
 40
0.0
 40
0.0
 40
0.1428571428571428
 40
0.1428571428571428
 40
0.1428571428571428
 40
0.1428571428571428
 40
0.2857142857142857
 40
0.2857142857142857
 40
0.2857142857142857
 40
0.2857142857142857
 40
0.4285714285714285
 40
0.4285714285714285
 40
0.4285714285714285
 40
0.4285714285714285
 40
0.5714285714285714
 40
0.5714285714285714
 40
0.5714285714285714
 40
0.5714285714285714
 40
0.7142857142857143
 40
0.7142857142857143
 40
0.7142857142857143
 40
0.7142857142857143
 40
1.0
 40
1.0
 40
1.0
 40
1.0
 10
-179.568
 20
-35.8515
 30
0.0
 10
-179.568
 20
-35.8515
 30
0.0
 10
-168.9421
 20
-35.8515
 30
0.0
 10
-168.9421
 20
-35.8515
 30
0.0
 10
-168.9421
 20
-35.8515
 30
0.0
 10
-168.9421
 20
-35.8515
 30
0.0
 10
-168.9421
 20
-53.2165
 30
0.0
 10
-168.9421
 20
-53.2165
 30
0.0
 10
-168.9421
 20
-53.2165
 30
0.0
 10
-168.9421
 20
-53.2165
 30
0.0
 10
-165.7723
 20
-56.2659
 30
0.0
 10
-165.7723
 20
-56.2659
 30
0.0
 10
-165.7723
 20
-56.2659
 30
0.0
 10
-165.7723
 20
-56.2659
 30
0.0
 10
-170.5828
 20
-61.1609
 30
0.0
 10
-170.5828
 20
-61.1609
 30
0.0
 10
-170.5828
 20
-61.1609
 30
0.0
 10
-170.5828
 20
-61.1609
 30
0.0
 10
-179.568
 20
-61.1609
 30
0.0
 10
-179.568
 20
-61.1609
 30
0.0
 10
-179.568
 20
-61.1609
 30
0.0
 10
-179.568
 20
-61.1609
 30
0.0
 10
-179.568
 20
-35.8515
 30
0.0
 10
-179.568
 20
-35.8515
 30
0.0
  0
SPLINE
  5
60
330
1F
100
AcDbEntity
  8
layer 1
 62
     7
370
    18
100
AcDbSpline
210
0.0
220
0.0
230
1.0
 70
    11
 71
     3
 72
    44
 73
    40
 74
     0
 42
0.0000000001
 43
0.0000000001
 12
1.0
 22
0.0
 32
0.0
 13
1.0
 23
0.0
 33
0.0
 40
0.0
 40
0.0
 40
0.0
 40
0.0
 40
0.0909090909090909
 40
0.0909090909090909
 40
0.0909090909090909
 40
0.0909090909090909
 40
0.1818181818181818
 40
0.1818181818181818
 40
0.1818181818181818
 40
0.1818181818181818
 40
0.2727272727272727
 40
0.2727272727272727
 40
0.2727272727272727
 40
0.2727272727272727
 40
0.3636363636363636
 40
0.3636363636363636
 40
0.3636363636363636
 40
0.3636363636363636
 40
0.4545454545454545
 40
0.4545454545454545
 40
0.4545454545454545
 40
0.4545454545454545
 40
0.5454545454545454
 40
0.5454545454545454
 40
0.5454545454545454
 40
0.5454545454545454
 40
0.6363636363636364
 40
0.6363636363636364
 40
0.6363636363636364
 40
0.6363636363636364
 40
0.7272727272727273
 40
0.7272727272727273
 40
0.7272727272727273
 40
0.7272727272727273
 40
0.8181818181818182
 40
0.8181818181818182
 40
0.8181818181818182
 40
0.8181818181818182
 40
1.0
 40
1.0
 40
1.0
 40
1.0
 10
-156.737
 20
-35.8515
 30
0.0
 10
-156.737
 20
-35.8515
 30
0.0
 10
-139.6076
 20
-35.8515
 30
0.0
 10
-139.6076
 20
-35.8515
 30
0.0
 10
-139.6076
 20
-35.8515
 30
0.0
 10
-139.6076
 20
-35.8515
 30
0.0
 10
-136.0768
 20
-32.8021
 30
0.0
 10
-136.0768
 20
-32.8021
 30
0.0
 10
-136.0768
 20
-32.8021
 30
0.0
 10
-136.0768
 20
-32.8021
 30
0.0
 10
-131.2454
 20
-37.6369
 30
0.0
 10
-131.2454
 20
-37.6369
 30
0.0
 10
-131.2454
 20
-37.6369
 30
0.0
 10
-131.2454
 20
-37.6369
 30
0.0
 10
-131.2959
 20
-50.4612
 30
0.0
 10
-131.2959
 20
-50.4612
 30
0.0
 10
-131.2959
 20
-50.4612
 30
0.0
 10
-131.2959
 20
-50.4612
 30
0.0
 10
-141.8981
 20
-50.4881
 30
0.0
 10
-141.8981
 20
-50.4881
 30
0.0
 10
-141.8981
 20
-50.4881
 30
0.0
 10
-141.8981
 20
-50.4881
 30
0.0
 10
-141.8536
 20
-61.1609
 30
0.0
 10
-141.8536
 20
-61.1609
 30
0.0
 10
-141.8536
 20
-61.1609
 30
0.0
 10
-141.8536
 20
-61.1609
 30
0.0
 10
-154.5336
 20
-61.1609
 30
0.0
 10
-154.5336
 20
-61.1609
 30
0.0
 10
-154.5336
 20
-61.1609
 30
0.0
 10
-154.5336
 20
-61.1609
 30
0.0
 10
-159.7863
 20
-56.306
 30
0.0
 10
-159.7863
 20
-56.306
 30
0.0
 10
-159.7863
 20
-56.306
 30
0.0
 10
-159.7863
 20
-56.306
 30
0.0
 10
-156.737
 20
-53.2566
 30
0.0
 10
-156.737
 20
-53.2566
 30
0.0
 10
-156.737
 20
-53.2566
 30
0.0
 10
-156.737
 20
-53.2566
 30
0.0
 10
-156.737
 20
-35.8515
 30
0.0
 10
-156.737
 20
-35.8515
 30
0.0
  0
LWPOLYLINE
  5
61
330
1F
100
AcDbEntity
  8
layer 1
 62
     7
370
    18
100
AcDbPolyline
 90
        5
 70
     1
 43
0.0
 10
-179.568
 20
-108.0139
 10
-168.942
 20
-108.0139
 10
-168.942
 20
-104.3395
 10
-179.568
 20
-104.3395
 10
-179.568
 20
-108.0139
  0
SPLINE
  5
62
330
1F
100
AcDbEntity
  8
layer 1
 62
     7
370
    18
100
AcDbSpline
210
0.0
220
0.0
230
1.0
 70
    11
 71
     3
 72
    24
 73
    20
 74
     0
 42
0.0000000001
 43
0.0000000001
 12
1.0
 22
0.0
 32
0.0
 13
1.0
 23
0.0
 33
0.0
 40
0.0
 40
0.0
 40
0.0
 40
0.0
 40
0.1666666666666667
 40
0.1666666666666667
 40
0.1666666666666667
 40
0.1666666666666667
 40
0.3333333333333333
 40
0.3333333333333333
 40
0.3333333333333333
 40
0.3333333333333333
 40
0.5
 40
0.5
 40
0.5
 40
0.5
 40
0.6666666666666666
 40
0.6666666666666666
 40
0.6666666666666666
 40
0.6666666666666666
 40
1.0
 40
1.0
 40
1.0
 40
1.0
 10
-156.6775
 20
-104.3395
 30
0.0
 10
-156.6775
 20
-104.3395
 30
0.0
 10
-140.8916
 20
-104.3395
 30
0.0
 10
-140.8916
 20
-104.3395
 30
0.0
 10
-140.8916
 20
-104.3395
 30
0.0
 10
-140.8916
 20
-104.3395
 30
0.0
 10
-139.1262
 20
-106.0696
 30
0.0
 10
-139.1262
 20
-106.0696
 30
0.0
 10
-139.1262
 20
-106.0696
 30
0.0
 10
-139.1262
 20
-106.0696
 30
0.0
 10
-140.8916
 20
-108.0139
 30
0.0
 10
-140.8916
 20
-108.0139
 30
0.0
 10
-140.8916
 20
-108.0139
 30
0.0
 10
-140.8916
 20
-108.0139
 30
0.0
 10
-156.6775
 20
-108.0139
 30
0.0
 10
-156.6775
 20
-108.0139
 30
0.0
 10
-156.6775
 20
-108.0139
 30
0.0
 10
-156.6775
 20
-108.0139
 30
0.0
 10
-156.6775
 20
-104.3395
 30
0.0
 10
-156.6775
 20
-104.3395
 30
0.0
  0
LWPOLYLINE
  5
63
330
1F
100
AcDbEntity
  8
layer 1
 62
     7
370
    18
100
AcDbPolyline
 90
        5
 70
     1
 43
0.0
 10
-164.6223
 20
-108.0231
 10
-160.9477
 20
-108.0231
 10
-160.9477
 20
-104.3487
 10
-164.6223
 20
-104.3487
 10
-164.6223
 20
-108.0231
  0
SPLINE
  5
64
330
1F
100
AcDbEntity
  8
layer 1
 62
     7
370
    18
100
AcDbSpline
210
0.0
220
0.0
230
1.0
 70
    11
 71
     3
 72
    24
 73
    20
 74
     0
 42
0.0000000001
 43
0.0000000001
 12
1.0
 22
0.0
 32
0.0
 13
1.0
 23
0.0
 33
0.0
 40
0.0
 40
0.0
 40
0.0
 40
0.0
 40
0.1666666666666667
 40
0.1666666666666667
 40
0.1666666666666667
 40
0.1666666666666667
 40
0.3333333333333333
 40
0.3333333333333333
 40
0.3333333333333333
 40
0.3333333333333333
 40
0.5
 40
0.5
 40
0.5
 40
0.5
 40
0.6666666666666666
 40
0.6666666666666666
 40
0.6666666666666666
 40
0.6666666666666666
 40
1.0
 40
1.0
 40
1.0
 40
1.0
 10
-164.5959
 20
-99.9364
 30
0.0
 10
-164.5959
 20
-99.9364
 30
0.0
 10
-164.5959
 20
-84.1505
 30
0.0
 10
-164.5959
 20
-84.1505
 30
0.0
 10
-164.5959
 20
-84.1505
 30
0.0
 10
-164.5959
 20
-84.1505
 30
0.0
 10
-162.8658
 20
-82.385
 30
0.0
 10
-162.8658
 20
-82.385
 30
0.0
 10
-162.8658
 20
-82.385
 30
0.0
 10
-162.8658
 20
-82.385
 30
0.0
 10
-160.9215
 20
-84.1505
 30
0.0
 10
-160.9215
 20
-84.1505
 30
0.0
 10
-160.9215
 20
-84.1505
 30
0.0
 10
-160.9215
 20
-84.1505
 30
0.0
 10
-160.9215
 20
-99.9364
 30
0.0
 10
-160.9215
 20
-99.9364
 30
0.0
 10
-160.9215
 20
-99.9364
 30
0.0
 10
-160.9215
 20
-99.9364
 30
0.0
 10
-164.5959
 20
-99.9364
 30
0.0
 10
-164.5959
 20
-99.9364
 30
0.0
  0
SPLINE
  5
65
330
1F
100
AcDbEntity
  8
layer 1
 62
     7
370
    18
100
AcDbSpline
210
0.0
220
0.0
230
1.0
 70
    11
 71
     3
 72
    28
 73
    24
 74
     0
 42
0.0000000001
 43
0.0000000001
 12
1.0
 22
0.0
 32
0.0
 13
1.0
 23
0.0
 33
0.0
 40
0.0
 40
0.0
 40
0.0
 40
0.0
 40
0.1428571428571428
 40
0.1428571428571428
 40
0.1428571428571428
 40
0.1428571428571428
 40
0.2857142857142857
 40
0.2857142857142857
 40
0.2857142857142857
 40
0.2857142857142857
 40
0.4285714285714285
 40
0.4285714285714285
 40
0.4285714285714285
 40
0.4285714285714285
 40
0.5714285714285714
 40
0.5714285714285714
 40
0.5714285714285714
 40
0.5714285714285714
 40
0.7142857142857143
 40
0.7142857142857143
 40
0.7142857142857143
 40
0.7142857142857143
 40
1.0
 40
1.0
 40
1.0
 40
1.0
 10
-179.568
 20
-99.9409
 30
0.0
 10
-179.568
 20
-99.9409
 30
0.0
 10
-168.9421
 20
-99.9409
 30
0.0
 10
-168.9421
 20
-99.9409
 30
0.0
 10
-168.9421
 20
-99.9409
 30
0.0
 10
-168.9421
 20
-99.9409
 30
0.0
 10
-168.9421
 20
-82.5759
 30
0.0
 10
-168.9421
 20
-82.5759
 30
0.0
 10
-168.9421
 20
-82.5759
 30
0.0
 10
-168.9421
 20
-82.5759
 30
0.0
 10
-165.7723
 20
-79.5265
 30
0.0
 10
-165.7723
 20
-79.5265
 30
0.0
 10
-165.7723
 20
-79.5265
 30
0.0
 10
-165.7723
 20
-79.5265
 30
0.0
 10
-170.5828
 20
-74.6315
 30
0.0
 10
-170.5828
 20
-74.6315
 30
0.0
 10
-170.5828
 20
-74.6315
 30
0.0
 10
-170.5828
 20
-74.6315
 30
0.0
 10
-179.568
 20
-74.6315
 30
0.0
 10
-179.568
 20
-74.6315
 30
0.0
 10
-179.568
 20
-74.6315
 30
0.0
 10
-179.568
 20
-74.6315
 30
0.0
 10
-179.568
 20
-99.9409
 30
0.0
 10
-179.568
 20
-99.9409
 30
0.0
  0
SPLINE
  5
66
330
1F
100
AcDbEntity
  8
layer 1
 62
     7
370
    18
100
AcDbSpline
210
0.0
220
0.0
230
1.0
 70
    11
 71
     3
 72
    44
 73
    40
 74
     0
 42
0.0000000001
 43
0.0000000001
 12
1.0
 22
0.0
 32
0.0
 13
1.0
 23
0.0
 33
0.0
 40
0.0
 40
0.0
 40
0.0
 40
0.0
 40
0.0909090909090909
 40
0.0909090909090909
 40
0.0909090909090909
 40
0.0909090909090909
 40
0.1818181818181818
 40
0.1818181818181818
 40
0.1818181818181818
 40
0.1818181818181818
 40
0.2727272727272727
 40
0.2727272727272727
 40
0.2727272727272727
 40
0.2727272727272727
 40
0.3636363636363636
 40
0.3636363636363636
 40
0.3636363636363636
 40
0.3636363636363636
 40
0.4545454545454545
 40
0.4545454545454545
 40
0.4545454545454545
 40
0.4545454545454545
 40
0.5454545454545454
 40
0.5454545454545454
 40
0.5454545454545454
 40
0.5454545454545454
 40
0.6363636363636364
 40
0.6363636363636364
 40
0.6363636363636364
 40
0.6363636363636364
 40
0.7272727272727273
 40
0.7272727272727273
 40
0.7272727272727273
 40
0.7272727272727273
 40
0.8181818181818182
 40
0.8181818181818182
 40
0.8181818181818182
 40
0.8181818181818182
 40
1.0
 40
1.0
 40
1.0
 40
1.0
 10
-156.737
 20
-99.9409
 30
0.0
 10
-156.737
 20
-99.9409
 30
0.0
 10
-139.6076
 20
-99.9409
 30
0.0
 10
-139.6076
 20
-99.9409
 30
0.0
 10
-139.6076
 20
-99.9409
 30
0.0
 10
-139.6076
 20
-99.9409
 30
0.0
 10
-136.0768
 20
-102.9903
 30
0.0
 10
-136.0768
 20
-102.9903
 30
0.0
 10
-136.0768
 20
-102.9903
 30
0.0
 10
-136.0768
 20
-102.9903
 30
0.0
 10
-131.2454
 20
-98.1555
 30
0.0
 10
-131.2454
 20
-98.1555
 30
0.0
 10
-131.2454
 20
-98.1555
 30
0.0
 10
-131.2454
 20
-98.1555
 30
0.0
 10
-131.2959
 20
-85.3312
 30
0.0
 10
-131.2959
 20
-85.3312
 30
0.0
 10
-131.2959
 20
-85.3312
 30
0.0
 10
-131.2959
 20
-85.3312
 30
0.0
 10
-141.8981
 20
-85.3043
 30
0.0
 10
-141.8981
 20
-85.3043
 30
0.0
 10
-141.8981
 20
-85.3043
 30
0.0
 10
-141.8981
 20
-85.3043
 30
0.0
 10
-141.8536
 20
-74.6315
 30
0.0
 10
-141.8536
 20
-74.6315
 30
0.0
 10
-141.8536
 20
-74.6315
 30
0.0
 10
-141.8536
 20
-74.6315
 30
0.0
 10
-154.5336
 20
-74.6315
 30
0.0
 10
-154.5336
 20
-74.6315
 30
0.0
 10
-154.5336
 20
-74.6315
 30
0.0
 10
-154.5336
 20
-74.6315
 30
0.0
 10
-159.7863
 20
-79.4864
 30
0.0
 10
-159.7863
 20
-79.4864
 30
0.0
 10
-159.7863
 20
-79.4864
 30
0.0
 10
-159.7863
 20
-79.4864
 30
0.0
 10
-156.737
 20
-82.5358
 30
0.0
 10
-156.737
 20
-82.5358
 30
0.0
 10
-156.737
 20
-82.5358
 30
0.0
 10
-156.737
 20
-82.5358
 30
0.0
 10
-156.737
 20
-99.9409
 30
0.0
 10
-156.737
 20
-99.9409
 30
0.0
  0
SPLINE
  5
67
330
1F
100
AcDbEntity
  8
layer 1
 62
     7
370
    18
100
AcDbSpline
210
0.0
220
0.0
230
1.0
 70
    11
 71
     3
 72
    52
 73
    48
 74
     0
 42
0.0000000001
 43
0.0000000001
 12
1.0
 22
0.0
 32
0.0
 13
1.0
 23
0.0
 33
0.0
 40
0.0
 40
0.0
 40
0.0
 40
0.0
 40
0.0769230769230769
 40
0.0769230769230769
 40
0.0769230769230769
 40
0.0769230769230769
 40
0.1538461538461539
 40
0.1538461538461539
 40
0.1538461538461539
 40
0.1538461538461539
 40
0.2307692307692308
 40
0.2307692307692308
 40
0.2307692307692308
 40
0.2307692307692308
 40
0.3076923076923077
 40
0.3076923076923077
 40
0.3076923076923077
 40
0.3076923076923077
 40
0.3846153846153846
 40
0.3846153846153846
 40
0.3846153846153846
 40
0.3846153846153846
 40
0.4615384615384616
 40
0.4615384615384616
 40
0.4615384615384616
 40
0.4615384615384616
 40
0.5384615384615384
 40
0.5384615384615384
 40
0.5384615384615384
 40
0.5384615384615384
 40
0.6153846153846154
 40
0.6153846153846154
 40
0.6153846153846154
 40
0.6153846153846154
 40
0.6923076923076923
 40
0.6923076923076923
 40
0.6923076923076923
 40
0.6923076923076923
 40
0.7692307692307693
 40
0.7692307692307693
 40
0.7692307692307693
 40
0.7692307692307693
 40
0.8461538461538461
 40
0.8461538461538461
 40
0.8461538461538461
 40
0.8461538461538461
 40
1.0
 40
1.0
 40
1.0
 40
1.0
 10
-137.7362
 20
87.4308
 30
0.0
 10
-137.7362
 20
87.4308
 30
0.0
 10
-126.8955
 20
87.4308
 30
0.0
 10
-126.8955
 20
87.4308
 30
0.0
 10
-126.8955
 20
87.4308
 30
0.0
 10
-126.8955
 20
87.4308
 30
0.0
 10
-126.9517
 20
98.0758
 30
0.0
 10
-126.9517
 20
98.0758
 30
0.0
 10
-126.9517
 20
98.0758
 30
0.0
 10
-126.9517
 20
98.0758
 30
0.0
 10
-121.4715
 20
98.1454
 30
0.0
 10
-121.4715
 20
98.1454
 30
0.0
 10
-121.4715
 20
98.1454
 30
0.0
 10
-121.4715
 20
98.1454
 30
0.0
 10
-121.4376
 20
87.4308
 30
0.0
 10
-121.4376
 20
87.4308
 30
0.0
 10
-121.4376
 20
87.4308
 30
0.0
 10
-121.4376
 20
87.4308
 30
0.0
 10
-110.6915
 20
87.4308
 30
0.0
 10
-110.6915
 20
87.4308
 30
0.0
 10
-110.6915
 20
87.4308
 30
0.0
 10
-110.6915
 20
87.4308
 30
0.0
 10
-110.7503
 20
82.0047
 30
0.0
 10
-110.7503
 20
82.0047
 30
0.0
 10
-110.7503
 20
82.0047
 30
0.0
 10
-110.7503
 20
82.0047
 30
0.0
 10
-121.4706
 20
82.0047
 30
0.0
 10
-121.4706
 20
82.0047
 30
0.0
 10
-121.4706
 20
82.0047
 30
0.0
 10
-121.4706
 20
82.0047
 30
0.0
 10
-121.5278
 20
71.3581
 30
0.0
 10
-121.5278
 20
71.3581
 30
0.0
 10
-121.5278
 20
71.3581
 30
0.0
 10
-121.5278
 20
71.3581
 30
0.0
 10
-126.8818
 20
71.3636
 30
0.0
 10
-126.8818
 20
71.3636
 30
0.0
 10
-126.8818
 20
71.3636
 30
0.0
 10
-126.8818
 20
71.3636
 30
0.0
 10
-126.9208
 20
82.0047
 30
0.0
 10
-126.9208
 20
82.0047
 30
0.0
 10
-126.9208
 20
82.0047
 30
0.0
 10
-126.9208
 20
82.0047
 30
0.0
 10
-137.7362
 20
82.0047
 30
0.0
 10
-137.7362
 20
82.0047
 30
0.0
 10
-137.7362
 20
82.0047
 30
0.0
 10
-137.7362
 20
82.0047
 30
0.0
 10
-137.7362
 20
87.4308
 30
0.0
 10
-137.7362
 20
87.4308
 30
0.0
  0
LWPOLYLINE
  5
68
330
1F
100
AcDbEntity
  8
layer 1
 62
     7
370
    18
100
AcDbPolyline
 90
        5
 70
     1
 43
0.0
 10
-137.6332
 20
15.2546
 10
-131.1126
 20
15.2546
 10
-131.1126
 20
21.7748
 10
-137.6332
 20
21.7748
 10
-137.6332
 20
15.2546
  0
LWPOLYLINE
  5
69
330
1F
100
AcDbEntity
  8
layer 1
 62
     7
370
    18
100
AcDbPolyline
 90
        5
 70
     1
 43
0.0
 10
-117.2009
 20
15.2546
 10
-110.6803
 20
15.2546
 10
-110.6803
 20
21.7748
 10
-117.2009
 20
21.7748
 10
-117.2009
 20
15.2546
  0
LWPOLYLINE
  5
6A
330
1F
100
AcDbEntity
  8
layer 1
 62
     7
370
    18
100
AcDbPolyline
 90
        5
 70
     1
 43
0.0
 10
-117.2009
 20
-5.0347
 10
-110.6803
 20
-5.0347
 10
-110.6803
 20
1.4855
 10
-117.2009
 20
1.4855
 10
-117.2009
 20
-5.0347
  0
LWPOLYLINE
  5
6B
330
1F
100
AcDbEntity
  8
layer 1
 62
     7
370
    18
100
AcDbPolyline
 90
        5
 70
     1
 43
0.0
 10
-137.6332
 20
-5.0575
 10
-131.1126
 20
-5.0575
 10
-131.1126
 20
1.4627
 10
-137.6332
 20
1.4627
 10
-137.6332
 20
-5.0575
  0
SPLINE
  5
6C
330
1F
100
AcDbEntity
  8
layer 1
 62
     7
370
    18
100
AcDbSpline
210
0.0
220
0.0
230
1.0
 70
    11
 71
     3
 72
    52
 73
    48
 74
     0
 42
0.0000000001
 43
0.0000000001
 12
1.0
 22
0.0
 32
0.0
 13
1.0
 23
0.0
 33
0.0
 40
0.0
 40
0.0
 40
0.0
 40
0.0
 40
0.0769230769230769
 40
0.0769230769230769
 40
0.0769230769230769
 40
0.0769230769230769
 40
0.1538461538461539
 40
0.1538461538461539
 40
0.1538461538461539
 40
0.1538461538461539
 40
0.2307692307692308
 40
0.2307692307692308
 40
0.2307692307692308
 40
0.2307692307692308
 40
0.3076923076923077
 40
0.3076923076923077
 40
0.3076923076923077
 40
0.3076923076923077
 40
0.3846153846153846
 40
0.3846153846153846
 40
0.3846153846153846
 40
0.3846153846153846
 40
0.4615384615384616
 40
0.4615384615384616
 40
0.4615384615384616
 40
0.4615384615384616
 40
0.5384615384615384
 40
0.5384615384615384
 40
0.5384615384615384
 40
0.5384615384615384
 40
0.6153846153846154
 40
0.6153846153846154
 40
0.6153846153846154
 40
0.6153846153846154
 40
0.6923076923076923
 40
0.6923076923076923
 40
0.6923076923076923
 40
0.6923076923076923
 40
0.7692307692307693
 40
0.7692307692307693
 40
0.7692307692307693
 40
0.7692307692307693
 40
0.8461538461538461
 40
0.8461538461538461
 40
0.8461538461538461
 40
0.8461538461538461
 40
1.0
 40
1.0
 40
1.0
 40
1.0
 10
-137.7362
 20
11.09
 30
0.0
 10
-137.7362
 20
11.09
 30
0.0
 10
-126.8955
 20
11.09
 30
0.0
 10
-126.8955
 20
11.09
 30
0.0
 10
-126.8955
 20
11.09
 30
0.0
 10
-126.8955
 20
11.09
 30
0.0
 10
-126.9517
 20
21.735
 30
0.0
 10
-126.9517
 20
21.735
 30
0.0
 10
-126.9517
 20
21.735
 30
0.0
 10
-126.9517
 20
21.735
 30
0.0
 10
-121.4715
 20
21.8047
 30
0.0
 10
-121.4715
 20
21.8047
 30
0.0
 10
-121.4715
 20
21.8047
 30
0.0
 10
-121.4715
 20
21.8047
 30
0.0
 10
-121.4376
 20
11.09
 30
0.0
 10
-121.4376
 20
11.09
 30
0.0
 10
-121.4376
 20
11.09
 30
0.0
 10
-121.4376
 20
11.09
 30
0.0
 10
-110.6915
 20
11.09
 30
0.0
 10
-110.6915
 20
11.09
 30
0.0
 10
-110.6915
 20
11.09
 30
0.0
 10
-110.6915
 20
11.09
 30
0.0
 10
-110.7503
 20
5.6639
 30
0.0
 10
-110.7503
 20
5.6639
 30
0.0
 10
-110.7503
 20
5.6639
 30
0.0
 10
-110.7503
 20
5.6639
 30
0.0
 10
-121.4706
 20
5.6639
 30
0.0
 10
-121.4706
 20
5.6639
 30
0.0
 10
-121.4706
 20
5.6639
 30
0.0
 10
-121.4706
 20
5.6639
 30
0.0
 10
-121.5278
 20
-4.9827
 30
0.0
 10
-121.5278
 20
-4.9827
 30
0.0
 10
-121.5278
 20
-4.9827
 30
0.0
 10
-121.5278
 20
-4.9827
 30
0.0
 10
-126.8818
 20
-4.9772
 30
0.0
 10
-126.8818
 20
-4.9772
 30
0.0
 10
-126.8818
 20
-4.9772
 30
0.0
 10
-126.8818
 20
-4.9772
 30
0.0
 10
-126.9208
 20
5.6639
 30
0.0
 10
-126.9208
 20
5.6639
 30
0.0
 10
-126.9208
 20
5.6639
 30
0.0
 10
-126.9208
 20
5.6639
 30
0.0
 10
-137.7362
 20
5.6639
 30
0.0
 10
-137.7362
 20
5.6639
 30
0.0
 10
-137.7362
 20
5.6639
 30
0.0
 10
-137.7362
 20
5.6639
 30
0.0
 10
-137.7362
 20
11.09
 30
0.0
 10
-137.7362
 20
11.09
 30
0.0
  0
LWPOLYLINE
  5
6D
330
1F
100
AcDbEntity
  8
layer 1
 62
     7
370
    18
100
AcDbPolyline
 90
        5
 70
     1
 43
0.0
 10
-137.6332
 20
-61.1321
 10
-131.1126
 20
-61.1321
 10
-131.1126
 20
-54.6119
 10
-137.6332
 20
-54.6119
 10
-137.6332
 20
-61.1321
  0
LWPOLYLINE
  5
6E
330
1F
100
AcDbEntity
  8
layer 1
 62
     7
370
    18
100
AcDbPolyline
 90
        5
 70
     1
 43
0.0
 10
-117.2009
 20
-61.1321
 10
-110.6803
 20
-61.1321
 10
-110.6803
 20
-54.6119
 10
-117.2009
 20
-54.6119
 10
-117.2009
 20
-61.1321
  0
LWPOLYLINE
  5
6F
330
1F
100
AcDbEntity
  8
layer 1
 62
     7
370
    18
100
AcDbPolyline
 90
        5
 70
     1
 43
0.0
 10
-117.2009
 20
-81.4214
 10
-110.6803
 20
-81.4214
 10
-110.6803
 20
-74.9012
 10
-117.2009
 20
-74.9012
 10
-117.2009
 20
-81.4214
  0
LWPOLYLINE
  5
70
330
1F
100
AcDbEntity
  8
layer 1
 62
     7
370
    18
100
AcDbPolyline
 90
        5
 70
     1
 43
0.0
 10
-137.6332
 20
-81.4442
 10
-131.1126
 20
-81.4442
 10
-131.1126
 20
-74.924
 10
-137.6332
 20
-74.924
 10
-137.6332
 20
-81.4442
  0
SPLINE
  5
71
330
1F
100
AcDbEntity
  8
layer 1
 62
     7
370
    18
100
AcDbSpline
210
0.0
220
0.0
230
1.0
 70
    11
 71
     3
 72
    52
 73
    48
 74
     0
 42
0.0000000001
 43
0.0000000001
 12
1.0
 22
0.0
 32
0.0
 13
1.0
 23
0.0
 33
0.0
 40
0.0
 40
0.0
 40
0.0
 40
0.0
 40
0.0769230769230769
 40
0.0769230769230769
 40
0.0769230769230769
 40
0.0769230769230769
 40
0.1538461538461539
 40
0.1538461538461539
 40
0.1538461538461539
 40
0.1538461538461539
 40
0.2307692307692308
 40
0.2307692307692308
 40
0.2307692307692308
 40
0.2307692307692308
 40
0.3076923076923077
 40
0.3076923076923077
 40
0.3076923076923077
 40
0.3076923076923077
 40
0.3846153846153846
 40
0.3846153846153846
 40
0.3846153846153846
 40
0.3846153846153846
 40
0.4615384615384616
 40
0.4615384615384616
 40
0.4615384615384616
 40
0.4615384615384616
 40
0.5384615384615384
 40
0.5384615384615384
 40
0.5384615384615384
 40
0.5384615384615384
 40
0.6153846153846154
 40
0.6153846153846154
 40
0.6153846153846154
 40
0.6153846153846154
 40
0.6923076923076923
 40
0.6923076923076923
 40
0.6923076923076923
 40
0.6923076923076923
 40
0.7692307692307693
 40
0.7692307692307693
 40
0.7692307692307693
 40
0.7692307692307693
 40
0.8461538461538461
 40
0.8461538461538461
 40
0.8461538461538461
 40
0.8461538461538461
 40
1.0
 40
1.0
 40
1.0
 40
1.0
 10
-137.7362
 20
-65.2967
 30
0.0
 10
-137.7362
 20
-65.2967
 30
0.0
 10
-126.8955
 20
-65.2967
 30
0.0
 10
-126.8955
 20
-65.2967
 30
0.0
 10
-126.8955
 20
-65.2967
 30
0.0
 10
-126.8955
 20
-65.2967
 30
0.0
 10
-126.9517
 20
-54.6516
 30
0.0
 10
-126.9517
 20
-54.6516
 30
0.0
 10
-126.9517
 20
-54.6516
 30
0.0
 10
-126.9517
 20
-54.6516
 30
0.0
 10
-121.4715
 20
-54.582
 30
0.0
 10
-121.4715
 20
-54.582
 30
0.0
 10
-121.4715
 20
-54.582
 30
0.0
 10
-121.4715
 20
-54.582
 30
0.0
 10
-121.4376
 20
-65.2967
 30
0.0
 10
-121.4376
 20
-65.2967
 30
0.0
 10
-121.4376
 20
-65.2967
 30
0.0
 10
-121.4376
 20
-65.2967
 30
0.0
 10
-110.6915
 20
-65.2967
 30
0.0
 10
-110.6915
 20
-65.2967
 30
0.0
 10
-110.6915
 20
-65.2967
 30
0.0
 10
-110.6915
 20
-65.2967
 30
0.0
 10
-110.7503
 20
-70.7227
 30
0.0
 10
-110.7503
 20
-70.7227
 30
0.0
 10
-110.7503
 20
-70.7227
 30
0.0
 10
-110.7503
 20
-70.7227
 30
0.0
 10
-121.4706
 20
-70.7227
 30
0.0
 10
-121.4706
 20
-70.7227
 30
0.0
 10
-121.4706
 20
-70.7227
 30
0.0
 10
-121.4706
 20
-70.7227
 30
0.0
 10
-121.5278
 20
-81.3694
 30
0.0
 10
-121.5278
 20
-81.3694
 30
0.0
 10
-121.5278
 20
-81.3694
 30
0.0
 10
-121.5278
 20
-81.3694
 30
0.0
 10
-126.8818
 20
-81.3638
 30
0.0
 10
-126.8818
 20
-81.3638
 30
0.0
 10
-126.8818
 20
-81.3638
 30
0.0
 10
-126.8818
 20
-81.3638
 30
0.0
 10
-126.9208
 20
-70.7227
 30
0.0
 10
-126.9208
 20
-70.7227
 30
0.0
 10
-126.9208
 20
-70.7227
 30
0.0
 10
-126.9208
 20
-70.7227
 30
0.0
 10
-137.7362
 20
-70.7227
 30
0.0
 10
-137.7362
 20
-70.7227
 30
0.0
 10
-137.7362
 20
-70.7227
 30
0.0
 10
-137.7362
 20
-70.7227
 30
0.0
 10
-137.7362
 20
-65.2967
 30
0.0
 10
-137.7362
 20
-65.2967
 30
0.0
  0
SPLINE
  5
72
330
1F
100
AcDbEntity
  8
layer 1
 62
     7
370
    18
100
AcDbSpline
210
0.0
220
0.0
230
1.0
 70
    11
 71
     3
 72
    44
 73
    40
 74
     0
 42
0.0000000001
 43
0.0000000001
 12
1.0
 22
0.0
 32
0.0
 13
1.0
 23
0.0
 33
0.0
 40
0.0
 40
0.0
 40
0.0
 40
0.0
 40
0.0909090909090909
 40
0.0909090909090909
 40
0.0909090909090909
 40
0.0909090909090909
 40
0.1818181818181818
 40
0.1818181818181818
 40
0.1818181818181818
 40
0.1818181818181818
 40
0.2727272727272727
 40
0.2727272727272727
 40
0.2727272727272727
 40
0.2727272727272727
 40
0.3636363636363636
 40
0.3636363636363636
 40
0.3636363636363636
 40
0.3636363636363636
 40
0.4545454545454545
 40
0.4545454545454545
 40
0.4545454545454545
 40
0.4545454545454545
 40
0.5454545454545454
 40
0.5454545454545454
 40
0.5454545454545454
 40
0.5454545454545454
 40
0.6363636363636364
 40
0.6363636363636364
 40
0.6363636363636364
 40
0.6363636363636364
 40
0.7272727272727273
 40
0.7272727272727273
 40
0.7272727272727273
 40
0.7272727272727273
 40
0.8181818181818182
 40
0.8181818181818182
 40
0.8181818181818182
 40
0.8181818181818182
 40
1.0
 40
1.0
 40
1.0
 40
1.0
 10
-126.9169
 20
-50.3479
 30
0.0
 10
-126.9169
 20
-50.3479
 30
0.0
 10
-126.9169
 20
-35.83
 30
0.0
 10
-126.9169
 20
-35.83
 30
0.0
 10
-126.9169
 20
-35.83
 30
0.0
 10
-126.9169
 20
-35.83
 30
0.0
 10
-133.0578
 20
-29.5847
 30
0.0
 10
-133.0578
 20
-29.5847
 30
0.0
 10
-133.0578
 20
-29.5847
 30
0.0
 10
-133.0578
 20
-29.5847
 30
0.0
 10
-126.9169
 20
-23.7142
 30
0.0
 10
-126.9169
 20
-23.7142
 30
0.0
 10
-126.9169
 20
-23.7142
 30
0.0
 10
-126.9169
 20
-23.7142
 30
0.0
 10
-126.9169
 20
-8.9629
 30
0.0
 10
-126.9169
 20
-8.9629
 30
0.0
 10
-126.9169
 20
-8.9629
 30
0.0
 10
-126.9169
 20
-8.9629
 30
0.0
 10
-121.4909
 20
-8.9629
 30
0.0
 10
-121.4909
 20
-8.9629
 30
0.0
 10
-121.4909
 20
-8.9629
 30
0.0
 10
-121.4909
 20
-8.9629
 30
0.0
 10
-121.4909
 20
-23.7826
 30
0.0
 10
-121.4909
 20
-23.7826
 30
0.0
 10
-121.4909
 20
-23.7826
 30
0.0
 10
-121.4909
 20
-23.7826
 30
0.0
 10
-115.4945
 20
-29.6818
 30
0.0
 10
-115.4945
 20
-29.6818
 30
0.0
 10
-115.4945
 20
-29.6818
 30
0.0
 10
-115.4945
 20
-29.6818
 30
0.0
 10
-121.4909
 20
-35.8983
 30
0.0
 10
-121.4909
 20
-35.8983
 30
0.0
 10
-121.4909
 20
-35.8983
 30
0.0
 10
-121.4909
 20
-35.8983
 30
0.0
 10
-121.4909
 20
-50.3479
 30
0.0
 10
-121.4909
 20
-50.3479
 30
0.0
 10
-121.4909
 20
-50.3479
 30
0.0
 10
-121.4909
 20
-50.3479
 30
0.0
 10
-126.9169
 20
-50.3479
 30
0.0
 10
-126.9169
 20
-50.3479
 30
0.0
  0
SPLINE
  5
73
330
1F
100
AcDbEntity
  8
layer 1
 62
     7
370
    18
100
AcDbSpline
210
0.0
220
0.0
230
1.0
 70
    11
 71
     3
 72
    44
 73
    40
 74
     0
 42
0.0000000001
 43
0.0000000001
 12
1.0
 22
0.0
 32
0.0
 13
1.0
 23
0.0
 33
0.0
 40
0.0
 40
0.0
 40
0.0
 40
0.0
 40
0.0909090909090909
 40
0.0909090909090909
 40
0.0909090909090909
 40
0.0909090909090909
 40
0.1818181818181818
 40
0.1818181818181818
 40
0.1818181818181818
 40
0.1818181818181818
 40
0.2727272727272727
 40
0.2727272727272727
 40
0.2727272727272727
 40
0.2727272727272727
 40
0.3636363636363636
 40
0.3636363636363636
 40
0.3636363636363636
 40
0.3636363636363636
 40
0.4545454545454545
 40
0.4545454545454545
 40
0.4545454545454545
 40
0.4545454545454545
 40
0.5454545454545454
 40
0.5454545454545454
 40
0.5454545454545454
 40
0.5454545454545454
 40
0.6363636363636364
 40
0.6363636363636364
 40
0.6363636363636364
 40
0.6363636363636364
 40
0.7272727272727273
 40
0.7272727272727273
 40
0.7272727272727273
 40
0.7272727272727273
 40
0.8181818181818182
 40
0.8181818181818182
 40
0.8181818181818182
 40
0.8181818181818182
 40
1.0
 40
1.0
 40
1.0
 40
1.0
 10
-126.8977
 20
25.6501
 30
0.0
 10
-126.8977
 20
25.6501
 30
0.0
 10
-126.8977
 20
40.168
 30
0.0
 10
-126.8977
 20
40.168
 30
0.0
 10
-126.8977
 20
40.168
 30
0.0
 10
-126.8977
 20
40.168
 30
0.0
 10
-133.0386
 20
46.4133
 30
0.0
 10
-133.0386
 20
46.4133
 30
0.0
 10
-133.0386
 20
46.4133
 30
0.0
 10
-133.0386
 20
46.4133
 30
0.0
 10
-126.8977
 20
52.2838
 30
0.0
 10
-126.8977
 20
52.2838
 30
0.0
 10
-126.8977
 20
52.2838
 30
0.0
 10
-126.8977
 20
52.2838
 30
0.0
 10
-126.8977
 20
67.0351
 30
0.0
 10
-126.8977
 20
67.0351
 30
0.0
 10
-126.8977
 20
67.0351
 30
0.0
 10
-126.8977
 20
67.0351
 30
0.0
 10
-121.4717
 20
67.0351
 30
0.0
 10
-121.4717
 20
67.0351
 30
0.0
 10
-121.4717
 20
67.0351
 30
0.0
 10
-121.4717
 20
67.0351
 30
0.0
 10
-121.4717
 20
52.2155
 30
0.0
 10
-121.4717
 20
52.2155
 30
0.0
 10
-121.4717
 20
52.2155
 30
0.0
 10
-121.4717
 20
52.2155
 30
0.0
 10
-115.4753
 20
46.3162
 30
0.0
 10
-115.4753
 20
46.3162
 30
0.0
 10
-115.4753
 20
46.3162
 30
0.0
 10
-115.4753
 20
46.3162
 30
0.0
 10
-121.4717
 20
40.0997
 30
0.0
 10
-121.4717
 20
40.0997
 30
0.0
 10
-121.4717
 20
40.0997
 30
0.0
 10
-121.4717
 20
40.0997
 30
0.0
 10
-121.4717
 20
25.6501
 30
0.0
 10
-121.4717
 20
25.6501
 30
0.0
 10
-121.4717
 20
25.6501
 30
0.0
 10
-121.4717
 20
25.6501
 30
0.0
 10
-126.8977
 20
25.6501
 30
0.0
 10
-126.8977
 20
25.6501
 30
0.0
  0
SPLINE
  5
74
330
1F
100
AcDbEntity
  8
layer 1
 62
     7
370
    18
100
AcDbSpline
210
0.0
220
0.0
230
1.0
 70
    11
 71
     3
 72
    44
 73
    40
 74
     0
 42
0.0000000001
 43
0.0000000001
 12
1.0
 22
0.0
 32
0.0
 13
1.0
 23
0.0
 33
0.0
 40
0.0
 40
0.0
 40
0.0
 40
0.0
 40
0.0909090909090909
 40
0.0909090909090909
 40
0.0909090909090909
 40
0.0909090909090909
 40
0.1818181818181818
 40
0.1818181818181818
 40
0.1818181818181818
 40
0.1818181818181818
 40
0.2727272727272727
 40
0.2727272727272727
 40
0.2727272727272727
 40
0.2727272727272727
 40
0.3636363636363636
 40
0.3636363636363636
 40
0.3636363636363636
 40
0.3636363636363636
 40
0.4545454545454545
 40
0.4545454545454545
 40
0.4545454545454545
 40
0.4545454545454545
 40
0.5454545454545454
 40
0.5454545454545454
 40
0.5454545454545454
 40
0.5454545454545454
 40
0.6363636363636364
 40
0.6363636363636364
 40
0.6363636363636364
 40
0.6363636363636364
 40
0.7272727272727273
 40
0.7272727272727273
 40
0.7272727272727273
 40
0.7272727272727273
 40
0.8181818181818182
 40
0.8181818181818182
 40
0.8181818181818182
 40
0.8181818181818182
 40
1.0
 40
1.0
 40
1.0
 40
1.0
 10
-91.7042
 20
52.4165
 30
0.0
 10
-91.7042
 20
52.4165
 30
0.0
 10
-108.8336
 20
52.4165
 30
0.0
 10
-108.8336
 20
52.4165
 30
0.0
 10
-108.8336
 20
52.4165
 30
0.0
 10
-108.8336
 20
52.4165
 30
0.0
 10
-112.3644
 20
49.3671
 30
0.0
 10
-112.3644
 20
49.3671
 30
0.0
 10
-112.3644
 20
49.3671
 30
0.0
 10
-112.3644
 20
49.3671
 30
0.0
 10
-117.1958
 20
54.2019
 30
0.0
 10
-117.1958
 20
54.2019
 30
0.0
 10
-117.1958
 20
54.2019
 30
0.0
 10
-117.1958
 20
54.2019
 30
0.0
 10
-117.1453
 20
67.0262
 30
0.0
 10
-117.1453
 20
67.0262
 30
0.0
 10
-117.1453
 20
67.0262
 30
0.0
 10
-117.1453
 20
67.0262
 30
0.0
 10
-106.5431
 20
67.0531
 30
0.0
 10
-106.5431
 20
67.0531
 30
0.0
 10
-106.5431
 20
67.0531
 30
0.0
 10
-106.5431
 20
67.0531
 30
0.0
 10
-106.5876
 20
77.7259
 30
0.0
 10
-106.5876
 20
77.7259
 30
0.0
 10
-106.5876
 20
77.7259
 30
0.0
 10
-106.5876
 20
77.7259
 30
0.0
 10
-93.9076
 20
77.7259
 30
0.0
 10
-93.9076
 20
77.7259
 30
0.0
 10
-93.9076
 20
77.7259
 30
0.0
 10
-93.9076
 20
77.7259
 30
0.0
 10
-88.6549
 20
72.871
 30
0.0
 10
-88.6549
 20
72.871
 30
0.0
 10
-88.6549
 20
72.871
 30
0.0
 10
-88.6549
 20
72.871
 30
0.0
 10
-91.7042
 20
69.8216
 30
0.0
 10
-91.7042
 20
69.8216
 30
0.0
 10
-91.7042
 20
69.8216
 30
0.0
 10
-91.7042
 20
69.8216
 30
0.0
 10
-91.7042
 20
52.4165
 30
0.0
 10
-91.7042
 20
52.4165
 30
0.0
  0
SPLINE
  5
75
330
1F
100
AcDbEntity
  8
layer 1
 62
     7
370
    18
100
AcDbSpline
210
0.0
220
0.0
230
1.0
 70
    11
 71
     3
 72
    24
 73
    20
 74
     0
 42
0.0000000001
 43
0.0000000001
 12
1.0
 22
0.0
 32
0.0
 13
1.0
 23
0.0
 33
0.0
 40
0.0
 40
0.0
 40
0.0
 40
0.0
 40
0.1666666666666667
 40
0.1666666666666667
 40
0.1666666666666667
 40
0.1666666666666667
 40
0.3333333333333333
 40
0.3333333333333333
 40
0.3333333333333333
 40
0.3333333333333333
 40
0.5
 40
0.5
 40
0.5
 40
0.5
 40
0.6666666666666666
 40
0.6666666666666666
 40
0.6666666666666666
 40
0.6666666666666666
 40
1.0
 40
1.0
 40
1.0
 40
1.0
 10
-83.8453
 20
52.4359
 30
0.0
 10
-83.8453
 20
52.4359
 30
0.0
 10
-83.8453
 20
68.2219
 30
0.0
 10
-83.8453
 20
68.2219
 30
0.0
 10
-83.8453
 20
68.2219
 30
0.0
 10
-83.8453
 20
68.2219
 30
0.0
 10
-85.5754
 20
69.9873
 30
0.0
 10
-85.5754
 20
69.9873
 30
0.0
 10
-85.5754
 20
69.9873
 30
0.0
 10
-85.5754
 20
69.9873
 30
0.0
 10
-87.5197
 20
68.2219
 30
0.0
 10
-87.5197
 20
68.2219
 30
0.0
 10
-87.5197
 20
68.2219
 30
0.0
 10
-87.5197
 20
68.2219
 30
0.0
 10
-87.5197
 20
52.4359
 30
0.0
 10
-87.5197
 20
52.4359
 30
0.0
 10
-87.5197
 20
52.4359
 30
0.0
 10
-87.5197
 20
52.4359
 30
0.0
 10
-83.8453
 20
52.4359
 30
0.0
 10
-83.8453
 20
52.4359
 30
0.0
  0
SPLINE
  5
76
330
1F
100
AcDbEntity
  8
layer 1
 62
     7
370
    18
100
AcDbSpline
210
0.0
220
0.0
230
1.0
 70
    11
 71
     3
 72
    28
 73
    24
 74
     0
 42
0.0000000001
 43
0.0000000001
 12
1.0
 22
0.0
 32
0.0
 13
1.0
 23
0.0
 33
0.0
 40
0.0
 40
0.0
 40
0.0
 40
0.0
 40
0.1428571428571428
 40
0.1428571428571428
 40
0.1428571428571428
 40
0.1428571428571428
 40
0.2857142857142857
 40
0.2857142857142857
 40
0.2857142857142857
 40
0.2857142857142857
 40
0.4285714285714285
 40
0.4285714285714285
 40
0.4285714285714285
 40
0.4285714285714285
 40
0.5714285714285714
 40
0.5714285714285714
 40
0.5714285714285714
 40
0.5714285714285714
 40
0.7142857142857143
 40
0.7142857142857143
 40
0.7142857142857143
 40
0.7142857142857143
 40
1.0
 40
1.0
 40
1.0
 40
1.0
 10
-68.8732
 20
52.4256
 30
0.0
 10
-68.8732
 20
52.4256
 30
0.0
 10
-79.4991
 20
52.4256
 30
0.0
 10
-79.4991
 20
52.4256
 30
0.0
 10
-79.4991
 20
52.4256
 30
0.0
 10
-79.4991
 20
52.4256
 30
0.0
 10
-79.4991
 20
69.7907
 30
0.0
 10
-79.4991
 20
69.7907
 30
0.0
 10
-79.4991
 20
69.7907
 30
0.0
 10
-79.4991
 20
69.7907
 30
0.0
 10
-82.6689
 20
72.84
 30
0.0
 10
-82.6689
 20
72.84
 30
0.0
 10
-82.6689
 20
72.84
 30
0.0
 10
-82.6689
 20
72.84
 30
0.0
 10
-77.8584
 20
77.7351
 30
0.0
 10
-77.8584
 20
77.7351
 30
0.0
 10
-77.8584
 20
77.7351
 30
0.0
 10
-77.8584
 20
77.7351
 30
0.0
 10
-68.8732
 20
77.7351
 30
0.0
 10
-68.8732
 20
77.7351
 30
0.0
 10
-68.8732
 20
77.7351
 30
0.0
 10
-68.8732
 20
77.7351
 30
0.0
 10
-68.8732
 20
52.4256
 30
0.0
 10
-68.8732
 20
52.4256
 30
0.0
  0
SPLINE
  5
77
330
1F
100
AcDbEntity
  8
layer 1
 62
     7
370
    18
100
AcDbSpline
210
0.0
220
0.0
230
1.0
 70
    11
 71
     3
 72
    44
 73
    40
 74
     0
 42
0.0000000001
 43
0.0000000001
 12
1.0
 22
0.0
 32
0.0
 13
1.0
 23
0.0
 33
0.0
 40
0.0
 40
0.0
 40
0.0
 40
0.0
 40
0.0909090909090909
 40
0.0909090909090909
 40
0.0909090909090909
 40
0.0909090909090909
 40
0.1818181818181818
 40
0.1818181818181818
 40
0.1818181818181818
 40
0.1818181818181818
 40
0.2727272727272727
 40
0.2727272727272727
 40
0.2727272727272727
 40
0.2727272727272727
 40
0.3636363636363636
 40
0.3636363636363636
 40
0.3636363636363636
 40
0.3636363636363636
 40
0.4545454545454545
 40
0.4545454545454545
 40
0.4545454545454545
 40
0.4545454545454545
 40
0.5454545454545454
 40
0.5454545454545454
 40
0.5454545454545454
 40
0.5454545454545454
 40
0.6363636363636364
 40
0.6363636363636364
 40
0.6363636363636364
 40
0.6363636363636364
 40
0.7272727272727273
 40
0.7272727272727273
 40
0.7272727272727273
 40
0.7272727272727273
 40
0.8181818181818182
 40
0.8181818181818182
 40
0.8181818181818182
 40
0.8181818181818182
 40
1.0
 40
1.0
 40
1.0
 40
1.0
 10
-69.0387
 20
87.4308
 30
0.0
 10
-69.0387
 20
87.4308
 30
0.0
 10
-79.606
 20
87.4308
 30
0.0
 10
-79.606
 20
87.4308
 30
0.0
 10
-79.606
 20
87.4308
 30
0.0
 10
-79.606
 20
87.4308
 30
0.0
 10
-85.8192
 20
93.5716
 30
0.0
 10
-85.8192
 20
93.5716
 30
0.0
 10
-85.8192
 20
93.5716
 30
0.0
 10
-85.8192
 20
93.5716
 30
0.0
 10
-91.8878
 20
87.4308
 30
0.0
 10
-91.8878
 20
87.4308
 30
0.0
 10
-91.8878
 20
87.4308
 30
0.0
 10
-91.8878
 20
87.4308
 30
0.0
 10
-106.7342
 20
87.4308
 30
0.0
 10
-106.7342
 20
87.4308
 30
0.0
 10
-106.7342
 20
87.4308
 30
0.0
 10
-106.7342
 20
87.4308
 30
0.0
 10
-106.7342
 20
82.0047
 30
0.0
 10
-106.7342
 20
82.0047
 30
0.0
 10
-106.7342
 20
82.0047
 30
0.0
 10
-106.7342
 20
82.0047
 30
0.0
 10
-91.9239
 20
82.0047
 30
0.0
 10
-91.9239
 20
82.0047
 30
0.0
 10
-91.9239
 20
82.0047
 30
0.0
 10
-91.9239
 20
82.0047
 30
0.0
 10
-85.9276
 20
76.0083
 30
0.0
 10
-85.9276
 20
76.0083
 30
0.0
 10
-85.9276
 20
76.0083
 30
0.0
 10
-85.9276
 20
76.0083
 30
0.0
 10
-79.6421
 20
82.0047
 30
0.0
 10
-79.6421
 20
82.0047
 30
0.0
 10
-79.6421
 20
82.0047
 30
0.0
 10
-79.6421
 20
82.0047
 30
0.0
 10
-69.0387
 20
82.0047
 30
0.0
 10
-69.0387
 20
82.0047
 30
0.0
 10
-69.0387
 20
82.0047
 30
0.0
 10
-69.0387
 20
82.0047
 30
0.0
 10
-69.0387
 20
87.4308
 30
0.0
 10
-69.0387
 20
87.4308
 30
0.0
  0
LWPOLYLINE
  5
78
330
1F
100
AcDbEntity
  8
layer 1
 62
     7
370
    18
100
AcDbPolyline
 90
        5
 70
     1
 43
0.0
 10
-79.6412
 20
121.0963
 10
-69.0152
 20
121.0963
 10
-69.0152
 20
124.7707
 10
-79.6412
 20
124.7707
 10
-79.6412
 20
121.0963
  0
SPLINE
  5
79
330
1F
100
AcDbEntity
  8
layer 1
 62
     7
370
    18
100
AcDbSpline
210
0.0
220
0.0
230
1.0
 70
    11
 71
     3
 72
    24
 73
    20
 74
     0
 42
0.0000000001
 43
0.0000000001
 12
1.0
 22
0.0
 32
0.0
 13
1.0
 23
0.0
 33
0.0
 40
0.0
 40
0.0
 40
0.0
 40
0.0
 40
0.1666666666666667
 40
0.1666666666666667
 40
0.1666666666666667
 40
0.1666666666666667
 40
0.3333333333333333
 40
0.3333333333333333
 40
0.3333333333333333
 40
0.3333333333333333
 40
0.5
 40
0.5
 40
0.5
 40
0.5
 40
0.6666666666666666
 40
0.6666666666666666
 40
0.6666666666666666
 40
0.6666666666666666
 40
1.0
 40
1.0
 40
1.0
 40
1.0
 10
-91.9057
 20
124.7707
 30
0.0
 10
-91.9057
 20
124.7707
 30
0.0
 10
-107.6916
 20
124.7707
 30
0.0
 10
-107.6916
 20
124.7707
 30
0.0
 10
-107.6916
 20
124.7707
 30
0.0
 10
-107.6916
 20
124.7707
 30
0.0
 10
-109.4571
 20
123.0406
 30
0.0
 10
-109.4571
 20
123.0406
 30
0.0
 10
-109.4571
 20
123.0406
 30
0.0
 10
-109.4571
 20
123.0406
 30
0.0
 10
-107.6916
 20
121.0963
 30
0.0
 10
-107.6916
 20
121.0963
 30
0.0
 10
-107.6916
 20
121.0963
 30
0.0
 10
-107.6916
 20
121.0963
 30
0.0
 10
-91.9057
 20
121.0963
 30
0.0
 10
-91.9057
 20
121.0963
 30
0.0
 10
-91.9057
 20
121.0963
 30
0.0
 10
-91.9057
 20
121.0963
 30
0.0
 10
-91.9057
 20
124.7707
 30
0.0
 10
-91.9057
 20
124.7707
 30
0.0
  0
LWPOLYLINE
  5
7A
330
1F
100
AcDbEntity
  8
layer 1
 62
     7
370
    18
100
AcDbPolyline
 90
        5
 70
     1
 43
0.0
 10
-87.6355
 20
121.0871
 10
-83.9609
 20
121.0871
 10
-83.9609
 20
124.7615
 10
-87.6355
 20
124.7615
 10
-87.6355
 20
121.0871
  0
SPLINE
  5
7B
330
1F
100
AcDbEntity
  8
layer 1
 62
     7
370
    18
100
AcDbSpline
210
0.0
220
0.0
230
1.0
 70
    11
 71
     3
 72
    24
 73
    20
 74
     0
 42
0.0000000001
 43
0.0000000001
 12
1.0
 22
0.0
 32
0.0
 13
1.0
 23
0.0
 33
0.0
 40
0.0
 40
0.0
 40
0.0
 40
0.0
 40
0.1666666666666667
 40
0.1666666666666667
 40
0.1666666666666667
 40
0.1666666666666667
 40
0.3333333333333333
 40
0.3333333333333333
 40
0.3333333333333333
 40
0.3333333333333333
 40
0.5
 40
0.5
 40
0.5
 40
0.5
 40
0.6666666666666666
 40
0.6666666666666666
 40
0.6666666666666666
 40
0.6666666666666666
 40
1.0
 40
1.0
 40
1.0
 40
1.0
 10
-83.9873
 20
116.8503
 30
0.0
 10
-83.9873
 20
116.8503
 30
0.0
 10
-83.9873
 20
101.0643
 30
0.0
 10
-83.9873
 20
101.0643
 30
0.0
 10
-83.9873
 20
101.0643
 30
0.0
 10
-83.9873
 20
101.0643
 30
0.0
 10
-85.7174
 20
99.2989
 30
0.0
 10
-85.7174
 20
99.2989
 30
0.0
 10
-85.7174
 20
99.2989
 30
0.0
 10
-85.7174
 20
99.2989
 30
0.0
 10
-87.6617
 20
101.0643
 30
0.0
 10
-87.6617
 20
101.0643
 30
0.0
 10
-87.6617
 20
101.0643
 30
0.0
 10
-87.6617
 20
101.0643
 30
0.0
 10
-87.6617
 20
116.8503
 30
0.0
 10
-87.6617
 20
116.8503
 30
0.0
 10
-87.6617
 20
116.8503
 30
0.0
 10
-87.6617
 20
116.8503
 30
0.0
 10
-83.9873
 20
116.8503
 30
0.0
 10
-83.9873
 20
116.8503
 30
0.0
  0
SPLINE
  5
7C
330
1F
100
AcDbEntity
  8
layer 1
 62
     7
370
    18
100
AcDbSpline
210
0.0
220
0.0
230
1.0
 70
    11
 71
     3
 72
    28
 73
    24
 74
     0
 42
0.0000000001
 43
0.0000000001
 12
1.0
 22
0.0
 32
0.0
 13
1.0
 23
0.0
 33
0.0
 40
0.0
 40
0.0
 40
0.0
 40
0.0
 40
0.1428571428571428
 40
0.1428571428571428
 40
0.1428571428571428
 40
0.1428571428571428
 40
0.2857142857142857
 40
0.2857142857142857
 40
0.2857142857142857
 40
0.2857142857142857
 40
0.4285714285714285
 40
0.4285714285714285
 40
0.4285714285714285
 40
0.4285714285714285
 40
0.5714285714285714
 40
0.5714285714285714
 40
0.5714285714285714
 40
0.5714285714285714
 40
0.7142857142857143
 40
0.7142857142857143
 40
0.7142857142857143
 40
0.7142857142857143
 40
1.0
 40
1.0
 40
1.0
 40
1.0
 10
-68.971
 20
116.8933
 30
0.0
 10
-68.971
 20
116.8933
 30
0.0
 10
-79.5969
 20
116.8933
 30
0.0
 10
-79.5969
 20
116.8933
 30
0.0
 10
-79.5969
 20
116.8933
 30
0.0
 10
-79.5969
 20
116.8933
 30
0.0
 10
-79.5969
 20
99.5283
 30
0.0
 10
-79.5969
 20
99.5283
 30
0.0
 10
-79.5969
 20
99.5283
 30
0.0
 10
-79.5969
 20
99.5283
 30
0.0
 10
-82.7666
 20
96.479
 30
0.0
 10
-82.7666
 20
96.479
 30
0.0
 10
-82.7666
 20
96.479
 30
0.0
 10
-82.7666
 20
96.479
 30
0.0
 10
-77.9562
 20
91.5839
 30
0.0
 10
-77.9562
 20
91.5839
 30
0.0
 10
-77.9562
 20
91.5839
 30
0.0
 10
-77.9562
 20
91.5839
 30
0.0
 10
-68.971
 20
91.5839
 30
0.0
 10
-68.971
 20
91.5839
 30
0.0
 10
-68.971
 20
91.5839
 30
0.0
 10
-68.971
 20
91.5839
 30
0.0
 10
-68.971
 20
116.8933
 30
0.0
 10
-68.971
 20
116.8933
 30
0.0
  0
SPLINE
  5
7D
330
1F
100
AcDbEntity
  8
layer 1
 62
     7
370
    18
100
AcDbSpline
210
0.0
220
0.0
230
1.0
 70
    11
 71
     3
 72
    44
 73
    40
 74
     0
 42
0.0000000001
 43
0.0000000001
 12
1.0
 22
0.0
 32
0.0
 13
1.0
 23
0.0
 33
0.0
 40
0.0
 40
0.0
 40
0.0
 40
0.0
 40
0.0909090909090909
 40
0.0909090909090909
 40
0.0909090909090909
 40
0.0909090909090909
 40
0.1818181818181818
 40
0.1818181818181818
 40
0.1818181818181818
 40
0.1818181818181818
 40
0.2727272727272727
 40
0.2727272727272727
 40
0.2727272727272727
 40
0.2727272727272727
 40
0.3636363636363636
 40
0.3636363636363636
 40
0.3636363636363636
 40
0.3636363636363636
 40
0.4545454545454545
 40
0.4545454545454545
 40
0.4545454545454545
 40
0.4545454545454545
 40
0.5454545454545454
 40
0.5454545454545454
 40
0.5454545454545454
 40
0.5454545454545454
 40
0.6363636363636364
 40
0.6363636363636364
 40
0.6363636363636364
 40
0.6363636363636364
 40
0.7272727272727273
 40
0.7272727272727273
 40
0.7272727272727273
 40
0.7272727272727273
 40
0.8181818181818182
 40
0.8181818181818182
 40
0.8181818181818182
 40
0.8181818181818182
 40
1.0
 40
1.0
 40
1.0
 40
1.0
 10
-91.802
 20
116.8933
 30
0.0
 10
-91.802
 20
116.8933
 30
0.0
 10
-108.9314
 20
116.8933
 30
0.0
 10
-108.9314
 20
116.8933
 30
0.0
 10
-108.9314
 20
116.8933
 30
0.0
 10
-108.9314
 20
116.8933
 30
0.0
 10
-112.4622
 20
119.9427
 30
0.0
 10
-112.4622
 20
119.9427
 30
0.0
 10
-112.4622
 20
119.9427
 30
0.0
 10
-112.4622
 20
119.9427
 30
0.0
 10
-117.2936
 20
115.1079
 30
0.0
 10
-117.2936
 20
115.1079
 30
0.0
 10
-117.2936
 20
115.1079
 30
0.0
 10
-117.2936
 20
115.1079
 30
0.0
 10
-117.2431
 20
102.2837
 30
0.0
 10
-117.2431
 20
102.2837
 30
0.0
 10
-117.2431
 20
102.2837
 30
0.0
 10
-117.2431
 20
102.2837
 30
0.0
 10
-106.6409
 20
102.2567
 30
0.0
 10
-106.6409
 20
102.2567
 30
0.0
 10
-106.6409
 20
102.2567
 30
0.0
 10
-106.6409
 20
102.2567
 30
0.0
 10
-106.6854
 20
91.5839
 30
0.0
 10
-106.6854
 20
91.5839
 30
0.0
 10
-106.6854
 20
91.5839
 30
0.0
 10
-106.6854
 20
91.5839
 30
0.0
 10
-94.0054
 20
91.5839
 30
0.0
 10
-94.0054
 20
91.5839
 30
0.0
 10
-94.0054
 20
91.5839
 30
0.0
 10
-94.0054
 20
91.5839
 30
0.0
 10
-88.7527
 20
96.4388
 30
0.0
 10
-88.7527
 20
96.4388
 30
0.0
 10
-88.7527
 20
96.4388
 30
0.0
 10
-88.7527
 20
96.4388
 30
0.0
 10
-91.802
 20
99.4882
 30
0.0
 10
-91.802
 20
99.4882
 30
0.0
 10
-91.802
 20
99.4882
 30
0.0
 10
-91.802
 20
99.4882
 30
0.0
 10
-91.802
 20
116.8933
 30
0.0
 10
-91.802
 20
116.8933
 30
0.0
  0
LWPOLYLINE
  5
7E
330
1F
100
AcDbEntity
  8
layer 1
 62
     7
370
    18
100
AcDbPolyline
 90
        5
 70
     1
 43
0.0
 10
-79.5711
 20
44.635
 10
-68.9451
 20
44.635
 10
-68.9451
 20
48.3094
 10
-79.5711
 20
48.3094
 10
-79.5711
 20
44.635
  0
SPLINE
  5
7F
330
1F
100
AcDbEntity
  8
layer 1
 62
     7
370
    18
100
AcDbSpline
210
0.0
220
0.0
230
1.0
 70
    11
 71
     3
 72
    24
 73
    20
 74
     0
 42
0.0000000001
 43
0.0000000001
 12
1.0
 22
0.0
 32
0.0
 13
1.0
 23
0.0
 33
0.0
 40
0.0
 40
0.0
 40
0.0
 40
0.0
 40
0.1666666666666667
 40
0.1666666666666667
 40
0.1666666666666667
 40
0.1666666666666667
 40
0.3333333333333333
 40
0.3333333333333333
 40
0.3333333333333333
 40
0.3333333333333333
 40
0.5
 40
0.5
 40
0.5
 40
0.5
 40
0.6666666666666666
 40
0.6666666666666666
 40
0.6666666666666666
 40
0.6666666666666666
 40
1.0
 40
1.0
 40
1.0
 40
1.0
 10
-91.8356
 20
48.3094
 30
0.0
 10
-91.8356
 20
48.3094
 30
0.0
 10
-107.6215
 20
48.3094
 30
0.0
 10
-107.6215
 20
48.3094
 30
0.0
 10
-107.6215
 20
48.3094
 30
0.0
 10
-107.6215
 20
48.3094
 30
0.0
 10
-109.3869
 20
46.5793
 30
0.0
 10
-109.3869
 20
46.5793
 30
0.0
 10
-109.3869
 20
46.5793
 30
0.0
 10
-109.3869
 20
46.5793
 30
0.0
 10
-107.6215
 20
44.635
 30
0.0
 10
-107.6215
 20
44.635
 30
0.0
 10
-107.6215
 20
44.635
 30
0.0
 10
-107.6215
 20
44.635
 30
0.0
 10
-91.8356
 20
44.635
 30
0.0
 10
-91.8356
 20
44.635
 30
0.0
 10
-91.8356
 20
44.635
 30
0.0
 10
-91.8356
 20
44.635
 30
0.0
 10
-91.8356
 20
48.3094
 30
0.0
 10
-91.8356
 20
48.3094
 30
0.0
  0
LWPOLYLINE
  5
80
330
1F
100
AcDbEntity
  8
layer 1
 62
     7
370
    18
100
AcDbPolyline
 90
        5
 70
     1
 43
0.0
 10
-87.5654
 20
44.6258
 10
-83.8908
 20
44.6258
 10
-83.8908
 20
48.3002
 10
-87.5654
 20
48.3002
 10
-87.5654
 20
44.6258
  0
SPLINE
  5
81
330
1F
100
AcDbEntity
  8
layer 1
 62
     7
370
    18
100
AcDbSpline
210
0.0
220
0.0
230
1.0
 70
    11
 71
     3
 72
    24
 73
    20
 74
     0
 42
0.0000000001
 43
0.0000000001
 12
1.0
 22
0.0
 32
0.0
 13
1.0
 23
0.0
 33
0.0
 40
0.0
 40
0.0
 40
0.0
 40
0.0
 40
0.1666666666666667
 40
0.1666666666666667
 40
0.1666666666666667
 40
0.1666666666666667
 40
0.3333333333333333
 40
0.3333333333333333
 40
0.3333333333333333
 40
0.3333333333333333
 40
0.5
 40
0.5
 40
0.5
 40
0.5
 40
0.6666666666666666
 40
0.6666666666666666
 40
0.6666666666666666
 40
0.6666666666666666
 40
1.0
 40
1.0
 40
1.0
 40
1.0
 10
-83.9172
 20
40.389
 30
0.0
 10
-83.9172
 20
40.389
 30
0.0
 10
-83.9172
 20
24.6031
 30
0.0
 10
-83.9172
 20
24.6031
 30
0.0
 10
-83.9172
 20
24.6031
 30
0.0
 10
-83.9172
 20
24.6031
 30
0.0
 10
-85.6473
 20
22.8376
 30
0.0
 10
-85.6473
 20
22.8376
 30
0.0
 10
-85.6473
 20
22.8376
 30
0.0
 10
-85.6473
 20
22.8376
 30
0.0
 10
-87.5915
 20
24.6031
 30
0.0
 10
-87.5915
 20
24.6031
 30
0.0
 10
-87.5915
 20
24.6031
 30
0.0
 10
-87.5915
 20
24.6031
 30
0.0
 10
-87.5915
 20
40.389
 30
0.0
 10
-87.5915
 20
40.389
 30
0.0
 10
-87.5915
 20
40.389
 30
0.0
 10
-87.5915
 20
40.389
 30
0.0
 10
-83.9172
 20
40.389
 30
0.0
 10
-83.9172
 20
40.389
 30
0.0
  0
SPLINE
  5
82
330
1F
100
AcDbEntity
  8
layer 1
 62
     7
370
    18
100
AcDbSpline
210
0.0
220
0.0
230
1.0
 70
    11
 71
     3
 72
    28
 73
    24
 74
     0
 42
0.0000000001
 43
0.0000000001
 12
1.0
 22
0.0
 32
0.0
 13
1.0
 23
0.0
 33
0.0
 40
0.0
 40
0.0
 40
0.0
 40
0.0
 40
0.1428571428571428
 40
0.1428571428571428
 40
0.1428571428571428
 40
0.1428571428571428
 40
0.2857142857142857
 40
0.2857142857142857
 40
0.2857142857142857
 40
0.2857142857142857
 40
0.4285714285714285
 40
0.4285714285714285
 40
0.4285714285714285
 40
0.4285714285714285
 40
0.5714285714285714
 40
0.5714285714285714
 40
0.5714285714285714
 40
0.5714285714285714
 40
0.7142857142857143
 40
0.7142857142857143
 40
0.7142857142857143
 40
0.7142857142857143
 40
1.0
 40
1.0
 40
1.0
 40
1.0
 10
-68.9451
 20
40.4321
 30
0.0
 10
-68.9451
 20
40.4321
 30
0.0
 10
-79.571
 20
40.4321
 30
0.0
 10
-79.571
 20
40.4321
 30
0.0
 10
-79.571
 20
40.4321
 30
0.0
 10
-79.571
 20
40.4321
 30
0.0
 10
-79.571
 20
23.0671
 30
0.0
 10
-79.571
 20
23.0671
 30
0.0
 10
-79.571
 20
23.0671
 30
0.0
 10
-79.571
 20
23.0671
 30
0.0
 10
-82.7408
 20
20.0177
 30
0.0
 10
-82.7408
 20
20.0177
 30
0.0
 10
-82.7408
 20
20.0177
 30
0.0
 10
-82.7408
 20
20.0177
 30
0.0
 10
-77.9303
 20
15.1227
 30
0.0
 10
-77.9303
 20
15.1227
 30
0.0
 10
-77.9303
 20
15.1227
 30
0.0
 10
-77.9303
 20
15.1227
 30
0.0
 10
-68.9451
 20
15.1227
 30
0.0
 10
-68.9451
 20
15.1227
 30
0.0
 10
-68.9451
 20
15.1227
 30
0.0
 10
-68.9451
 20
15.1227
 30
0.0
 10
-68.9451
 20
40.4321
 30
0.0
 10
-68.9451
 20
40.4321
 30
0.0
  0
SPLINE
  5
83
330
1F
100
AcDbEntity
  8
layer 1
 62
     7
370
    18
100
AcDbSpline
210
0.0
220
0.0
230
1.0
 70
    11
 71
     3
 72
    44
 73
    40
 74
     0
 42
0.0000000001
 43
0.0000000001
 12
1.0
 22
0.0
 32
0.0
 13
1.0
 23
0.0
 33
0.0
 40
0.0
 40
0.0
 40
0.0
 40
0.0
 40
0.0909090909090909
 40
0.0909090909090909
 40
0.0909090909090909
 40
0.0909090909090909
 40
0.1818181818181818
 40
0.1818181818181818
 40
0.1818181818181818
 40
0.1818181818181818
 40
0.2727272727272727
 40
0.2727272727272727
 40
0.2727272727272727
 40
0.2727272727272727
 40
0.3636363636363636
 40
0.3636363636363636
 40
0.3636363636363636
 40
0.3636363636363636
 40
0.4545454545454545
 40
0.4545454545454545
 40
0.4545454545454545
 40
0.4545454545454545
 40
0.5454545454545454
 40
0.5454545454545454
 40
0.5454545454545454
 40
0.5454545454545454
 40
0.6363636363636364
 40
0.6363636363636364
 40
0.6363636363636364
 40
0.6363636363636364
 40
0.7272727272727273
 40
0.7272727272727273
 40
0.7272727272727273
 40
0.7272727272727273
 40
0.8181818181818182
 40
0.8181818181818182
 40
0.8181818181818182
 40
0.8181818181818182
 40
1.0
 40
1.0
 40
1.0
 40
1.0
 10
-91.7761
 20
40.4321
 30
0.0
 10
-91.7761
 20
40.4321
 30
0.0
 10
-108.9055
 20
40.4321
 30
0.0
 10
-108.9055
 20
40.4321
 30
0.0
 10
-108.9055
 20
40.4321
 30
0.0
 10
-108.9055
 20
40.4321
 30
0.0
 10
-112.4363
 20
43.4815
 30
0.0
 10
-112.4363
 20
43.4815
 30
0.0
 10
-112.4363
 20
43.4815
 30
0.0
 10
-112.4363
 20
43.4815
 30
0.0
 10
-117.2677
 20
38.6467
 30
0.0
 10
-117.2677
 20
38.6467
 30
0.0
 10
-117.2677
 20
38.6467
 30
0.0
 10
-117.2677
 20
38.6467
 30
0.0
 10
-117.2172
 20
25.8224
 30
0.0
 10
-117.2172
 20
25.8224
 30
0.0
 10
-117.2172
 20
25.8224
 30
0.0
 10
-117.2172
 20
25.8224
 30
0.0
 10
-106.615
 20
25.7955
 30
0.0
 10
-106.615
 20
25.7955
 30
0.0
 10
-106.615
 20
25.7955
 30
0.0
 10
-106.615
 20
25.7955
 30
0.0
 10
-106.6595
 20
15.1227
 30
0.0
 10
-106.6595
 20
15.1227
 30
0.0
 10
-106.6595
 20
15.1227
 30
0.0
 10
-106.6595
 20
15.1227
 30
0.0
 10
-93.9795
 20
15.1227
 30
0.0
 10
-93.9795
 20
15.1227
 30
0.0
 10
-93.9795
 20
15.1227
 30
0.0
 10
-93.9795
 20
15.1227
 30
0.0
 10
-88.7268
 20
19.9776
 30
0.0
 10
-88.7268
 20
19.9776
 30
0.0
 10
-88.7268
 20
19.9776
 30
0.0
 10
-88.7268
 20
19.9776
 30
0.0
 10
-91.7761
 20
23.027
 30
0.0
 10
-91.7761
 20
23.027
 30
0.0
 10
-91.7761
 20
23.027
 30
0.0
 10
-91.7761
 20
23.027
 30
0.0
 10
-91.7761
 20
40.4321
 30
0.0
 10
-91.7761
 20
40.4321
 30
0.0
  0
SPLINE
  5
84
330
1F
100
AcDbEntity
  8
layer 1
 62
     7
370
    18
100
AcDbSpline
210
0.0
220
0.0
230
1.0
 70
    11
 71
     3
 72
    44
 73
    40
 74
     0
 42
0.0000000001
 43
0.0000000001
 12
1.0
 22
0.0
 32
0.0
 13
1.0
 23
0.0
 33
0.0
 40
0.0
 40
0.0
 40
0.0
 40
0.0
 40
0.0909090909090909
 40
0.0909090909090909
 40
0.0909090909090909
 40
0.0909090909090909
 40
0.1818181818181818
 40
0.1818181818181818
 40
0.1818181818181818
 40
0.1818181818181818
 40
0.2727272727272727
 40
0.2727272727272727
 40
0.2727272727272727
 40
0.2727272727272727
 40
0.3636363636363636
 40
0.3636363636363636
 40
0.3636363636363636
 40
0.3636363636363636
 40
0.4545454545454545
 40
0.4545454545454545
 40
0.4545454545454545
 40
0.4545454545454545
 40
0.5454545454545454
 40
0.5454545454545454
 40
0.5454545454545454
 40
0.5454545454545454
 40
0.6363636363636364
 40
0.6363636363636364
 40
0.6363636363636364
 40
0.6363636363636364
 40
0.7272727272727273
 40
0.7272727272727273
 40
0.7272727272727273
 40
0.7272727272727273
 40
0.8181818181818182
 40
0.8181818181818182
 40
0.8181818181818182
 40
0.8181818181818182
 40
1.0
 40
1.0
 40
1.0
 40
1.0
 10
-69.0368
 20
11.1085
 30
0.0
 10
-69.0368
 20
11.1085
 30
0.0
 10
-79.6041
 20
11.1085
 30
0.0
 10
-79.6041
 20
11.1085
 30
0.0
 10
-79.6041
 20
11.1085
 30
0.0
 10
-79.6041
 20
11.1085
 30
0.0
 10
-85.8173
 20
17.2493
 30
0.0
 10
-85.8173
 20
17.2493
 30
0.0
 10
-85.8173
 20
17.2493
 30
0.0
 10
-85.8173
 20
17.2493
 30
0.0
 10
-91.8859
 20
11.1085
 30
0.0
 10
-91.8859
 20
11.1085
 30
0.0
 10
-91.8859
 20
11.1085
 30
0.0
 10
-91.8859
 20
11.1085
 30
0.0
 10
-106.7323
 20
11.1085
 30
0.0
 10
-106.7323
 20
11.1085
 30
0.0
 10
-106.7323
 20
11.1085
 30
0.0
 10
-106.7323
 20
11.1085
 30
0.0
 10
-106.7323
 20
5.6824
 30
0.0
 10
-106.7323
 20
5.6824
 30
0.0
 10
-106.7323
 20
5.6824
 30
0.0
 10
-106.7323
 20
5.6824
 30
0.0
 10
-91.922
 20
5.6824
 30
0.0
 10
-91.922
 20
5.6824
 30
0.0
 10
-91.922
 20
5.6824
 30
0.0
 10
-91.922
 20
5.6824
 30
0.0
 10
-85.9257
 20
-0.3139
 30
0.0
 10
-85.9257
 20
-0.3139
 30
0.0
 10
-85.9257
 20
-0.3139
 30
0.0
 10
-85.9257
 20
-0.3139
 30
0.0
 10
-79.6402
 20
5.6824
 30
0.0
 10
-79.6402
 20
5.6824
 30
0.0
 10
-79.6402
 20
5.6824
 30
0.0
 10
-79.6402
 20
5.6824
 30
0.0
 10
-69.0368
 20
5.6824
 30
0.0
 10
-69.0368
 20
5.6824
 30
0.0
 10
-69.0368
 20
5.6824
 30
0.0
 10
-69.0368
 20
5.6824
 30
0.0
 10
-69.0368
 20
11.1085
 30
0.0
 10
-69.0368
 20
11.1085
 30
0.0
  0
SPLINE
  5
85
330
1F
100
AcDbEntity
  8
layer 1
 62
     7
370
    18
100
AcDbSpline
210
0.0
220
0.0
230
1.0
 70
    11
 71
     3
 72
    24
 73
    20
 74
     0
 42
0.0000000001
 43
0.0000000001
 12
1.0
 22
0.0
 32
0.0
 13
1.0
 23
0.0
 33
0.0
 40
0.0
 40
0.0
 40
0.0
 40
0.0
 40
0.1666666666666667
 40
0.1666666666666667
 40
0.1666666666666667
 40
0.1666666666666667
 40
0.3333333333333333
 40
0.3333333333333333
 40
0.3333333333333333
 40
0.3333333333333333
 40
0.5
 40
0.5
 40
0.5
 40
0.5
 40
0.6666666666666666
 40
0.6666666666666666
 40
0.6666666666666666
 40
0.6666666666666666
 40
1.0
 40
1.0
 40
1.0
 40
1.0
 10
-84.0089
 20
-23.8091
 30
0.0
 10
-84.0089
 20
-23.8091
 30
0.0
 10
-84.0089
 20
-8.0231
 30
0.0
 10
-84.0089
 20
-8.0231
 30
0.0
 10
-84.0089
 20
-8.0231
 30
0.0
 10
-84.0089
 20
-8.0231
 30
0.0
 10
-85.7391
 20
-6.2577
 30
0.0
 10
-85.7391
 20
-6.2577
 30
0.0
 10
-85.7391
 20
-6.2577
 30
0.0
 10
-85.7391
 20
-6.2577
 30
0.0
 10
-87.6833
 20
-8.0231
 30
0.0
 10
-87.6833
 20
-8.0231
 30
0.0
 10
-87.6833
 20
-8.0231
 30
0.0
 10
-87.6833
 20
-8.0231
 30
0.0
 10
-87.6833
 20
-23.8091
 30
0.0
 10
-87.6833
 20
-23.8091
 30
0.0
 10
-87.6833
 20
-23.8091
 30
0.0
 10
-87.6833
 20
-23.8091
 30
0.0
 10
-84.0089
 20
-23.8091
 30
0.0
 10
-84.0089
 20
-23.8091
 30
0.0
  0
SPLINE
  5
86
330
1F
100
AcDbEntity
  8
layer 1
 62
     7
370
    18
100
AcDbSpline
210
0.0
220
0.0
230
1.0
 70
    11
 71
     3
 72
    28
 73
    24
 74
     0
 42
0.0000000001
 43
0.0000000001
 12
1.0
 22
0.0
 32
0.0
 13
1.0
 23
0.0
 33
0.0
 40
0.0
 40
0.0
 40
0.0
 40
0.0
 40
0.1428571428571428
 40
0.1428571428571428
 40
0.1428571428571428
 40
0.1428571428571428
 40
0.2857142857142857
 40
0.2857142857142857
 40
0.2857142857142857
 40
0.2857142857142857
 40
0.4285714285714285
 40
0.4285714285714285
 40
0.4285714285714285
 40
0.4285714285714285
 40
0.5714285714285714
 40
0.5714285714285714
 40
0.5714285714285714
 40
0.5714285714285714
 40
0.7142857142857143
 40
0.7142857142857143
 40
0.7142857142857143
 40
0.7142857142857143
 40
1.0
 40
1.0
 40
1.0
 40
1.0
 10
-69.0368
 20
-23.7718
 30
0.0
 10
-69.0368
 20
-23.7718
 30
0.0
 10
-79.6628
 20
-23.7718
 30
0.0
 10
-79.6628
 20
-23.7718
 30
0.0
 10
-79.6628
 20
-23.7718
 30
0.0
 10
-79.6628
 20
-23.7718
 30
0.0
 10
-79.6628
 20
-6.4068
 30
0.0
 10
-79.6628
 20
-6.4068
 30
0.0
 10
-79.6628
 20
-6.4068
 30
0.0
 10
-79.6628
 20
-6.4068
 30
0.0
 10
-82.8325
 20
-3.3574
 30
0.0
 10
-82.8325
 20
-3.3574
 30
0.0
 10
-82.8325
 20
-3.3574
 30
0.0
 10
-82.8325
 20
-3.3574
 30
0.0
 10
-78.0221
 20
1.5376
 30
0.0
 10
-78.0221
 20
1.5376
 30
0.0
 10
-78.0221
 20
1.5376
 30
0.0
 10
-78.0221
 20
1.5376
 30
0.0
 10
-69.0368
 20
1.5376
 30
0.0
 10
-69.0368
 20
1.5376
 30
0.0
 10
-69.0368
 20
1.5376
 30
0.0
 10
-69.0368
 20
1.5376
 30
0.0
 10
-69.0368
 20
-23.7718
 30
0.0
 10
-69.0368
 20
-23.7718
 30
0.0
  0
SPLINE
  5
87
330
1F
100
AcDbEntity
  8
layer 1
 62
     7
370
    18
100
AcDbSpline
210
0.0
220
0.0
230
1.0
 70
    11
 71
     3
 72
    44
 73
    40
 74
     0
 42
0.0000000001
 43
0.0000000001
 12
1.0
 22
0.0
 32
0.0
 13
1.0
 23
0.0
 33
0.0
 40
0.0
 40
0.0
 40
0.0
 40
0.0
 40
0.0909090909090909
 40
0.0909090909090909
 40
0.0909090909090909
 40
0.0909090909090909
 40
0.1818181818181818
 40
0.1818181818181818
 40
0.1818181818181818
 40
0.1818181818181818
 40
0.2727272727272727
 40
0.2727272727272727
 40
0.2727272727272727
 40
0.2727272727272727
 40
0.3636363636363636
 40
0.3636363636363636
 40
0.3636363636363636
 40
0.3636363636363636
 40
0.4545454545454545
 40
0.4545454545454545
 40
0.4545454545454545
 40
0.4545454545454545
 40
0.5454545454545454
 40
0.5454545454545454
 40
0.5454545454545454
 40
0.5454545454545454
 40
0.6363636363636364
 40
0.6363636363636364
 40
0.6363636363636364
 40
0.6363636363636364
 40
0.7272727272727273
 40
0.7272727272727273
 40
0.7272727272727273
 40
0.7272727272727273
 40
0.8181818181818182
 40
0.8181818181818182
 40
0.8181818181818182
 40
0.8181818181818182
 40
1.0
 40
1.0
 40
1.0
 40
1.0
 10
-91.8679
 20
-23.8621
 30
0.0
 10
-91.8679
 20
-23.8621
 30
0.0
 10
-108.9972
 20
-23.8621
 30
0.0
 10
-108.9972
 20
-23.8621
 30
0.0
 10
-108.9972
 20
-23.8621
 30
0.0
 10
-108.9972
 20
-23.8621
 30
0.0
 10
-112.5281
 20
-26.9114
 30
0.0
 10
-112.5281
 20
-26.9114
 30
0.0
 10
-112.5281
 20
-26.9114
 30
0.0
 10
-112.5281
 20
-26.9114
 30
0.0
 10
-117.3595
 20
-22.0766
 30
0.0
 10
-117.3595
 20
-22.0766
 30
0.0
 10
-117.3595
 20
-22.0766
 30
0.0
 10
-117.3595
 20
-22.0766
 30
0.0
 10
-117.309
 20
-9.2524
 30
0.0
 10
-117.309
 20
-9.2524
 30
0.0
 10
-117.309
 20
-9.2524
 30
0.0
 10
-117.309
 20
-9.2524
 30
0.0
 10
-106.7068
 20
-9.2254
 30
0.0
 10
-106.7068
 20
-9.2254
 30
0.0
 10
-106.7068
 20
-9.2254
 30
0.0
 10
-106.7068
 20
-9.2254
 30
0.0
 10
-106.7513
 20
1.4474
 30
0.0
 10
-106.7513
 20
1.4474
 30
0.0
 10
-106.7513
 20
1.4474
 30
0.0
 10
-106.7513
 20
1.4474
 30
0.0
 10
-94.0713
 20
1.4474
 30
0.0
 10
-94.0713
 20
1.4474
 30
0.0
 10
-94.0713
 20
1.4474
 30
0.0
 10
-94.0713
 20
1.4474
 30
0.0
 10
-88.8185
 20
-3.4076
 30
0.0
 10
-88.8185
 20
-3.4076
 30
0.0
 10
-88.8185
 20
-3.4076
 30
0.0
 10
-88.8185
 20
-3.4076
 30
0.0
 10
-91.8679
 20
-6.4569
 30
0.0
 10
-91.8679
 20
-6.4569
 30
0.0
 10
-91.8679
 20
-6.4569
 30
0.0
 10
-91.8679
 20
-6.4569
 30
0.0
 10
-91.8679
 20
-23.8621
 30
0.0
 10
-91.8679
 20
-23.8621
 30
0.0
  0
LWPOLYLINE
  5
88
330
1F
100
AcDbEntity
  8
layer 1
 62
     7
370
    18
100
AcDbPolyline
 90
        5
 70
     1
 43
0.0
 10
-79.5953
 20
-31.61
 10
-68.9693
 20
-31.61
 10
-68.9693
 20
-27.9356
 10
-79.5953
 20
-27.9356
 10
-79.5953
 20
-31.61
  0
SPLINE
  5
89
330
1F
100
AcDbEntity
  8
layer 1
 62
     7
370
    18
100
AcDbSpline
210
0.0
220
0.0
230
1.0
 70
    11
 71
     3
 72
    24
 73
    20
 74
     0
 42
0.0000000001
 43
0.0000000001
 12
1.0
 22
0.0
 32
0.0
 13
1.0
 23
0.0
 33
0.0
 40
0.0
 40
0.0
 40
0.0
 40
0.0
 40
0.1666666666666667
 40
0.1666666666666667
 40
0.1666666666666667
 40
0.1666666666666667
 40
0.3333333333333333
 40
0.3333333333333333
 40
0.3333333333333333
 40
0.3333333333333333
 40
0.5
 40
0.5
 40
0.5
 40
0.5
 40
0.6666666666666666
 40
0.6666666666666666
 40
0.6666666666666666
 40
0.6666666666666666
 40
1.0
 40
1.0
 40
1.0
 40
1.0
 10
-91.8598
 20
-27.9356
 30
0.0
 10
-91.8598
 20
-27.9356
 30
0.0
 10
-107.6458
 20
-27.9356
 30
0.0
 10
-107.6458
 20
-27.9356
 30
0.0
 10
-107.6458
 20
-27.9356
 30
0.0
 10
-107.6458
 20
-27.9356
 30
0.0
 10
-109.4112
 20
-29.6657
 30
0.0
 10
-109.4112
 20
-29.6657
 30
0.0
 10
-109.4112
 20
-29.6657
 30
0.0
 10
-109.4112
 20
-29.6657
 30
0.0
 10
-107.6458
 20
-31.61
 30
0.0
 10
-107.6458
 20
-31.61
 30
0.0
 10
-107.6458
 20
-31.61
 30
0.0
 10
-107.6458
 20
-31.61
 30
0.0
 10
-91.8598
 20
-31.61
 30
0.0
 10
-91.8598
 20
-31.61
 30
0.0
 10
-91.8598
 20
-31.61
 30
0.0
 10
-91.8598
 20
-31.61
 30
0.0
 10
-91.8598
 20
-27.9356
 30
0.0
 10
-91.8598
 20
-27.9356
 30
0.0
  0
LWPOLYLINE
  5
8A
330
1F
100
AcDbEntity
  8
layer 1
 62
     7
370
    18
100
AcDbPolyline
 90
        5
 70
     1
 43
0.0
 10
-87.5896
 20
-31.6191
 10
-83.915
 20
-31.6191
 10
-83.915
 20
-27.9447
 10
-87.5896
 20
-27.9447
 10
-87.5896
 20
-31.6191
  0
SPLINE
  5
8B
330
1F
100
AcDbEntity
  8
layer 1
 62
     7
370
    18
100
AcDbSpline
210
0.0
220
0.0
230
1.0
 70
    11
 71
     3
 72
    24
 73
    20
 74
     0
 42
0.0000000001
 43
0.0000000001
 12
1.0
 22
0.0
 32
0.0
 13
1.0
 23
0.0
 33
0.0
 40
0.0
 40
0.0
 40
0.0
 40
0.0
 40
0.1666666666666667
 40
0.1666666666666667
 40
0.1666666666666667
 40
0.1666666666666667
 40
0.3333333333333333
 40
0.3333333333333333
 40
0.3333333333333333
 40
0.3333333333333333
 40
0.5
 40
0.5
 40
0.5
 40
0.5
 40
0.6666666666666666
 40
0.6666666666666666
 40
0.6666666666666666
 40
0.6666666666666666
 40
1.0
 40
1.0
 40
1.0
 40
1.0
 10
-83.9414
 20
-35.856
 30
0.0
 10
-83.9414
 20
-35.856
 30
0.0
 10
-83.9414
 20
-51.6419
 30
0.0
 10
-83.9414
 20
-51.6419
 30
0.0
 10
-83.9414
 20
-51.6419
 30
0.0
 10
-83.9414
 20
-51.6419
 30
0.0
 10
-85.6715
 20
-53.4074
 30
0.0
 10
-85.6715
 20
-53.4074
 30
0.0
 10
-85.6715
 20
-53.4074
 30
0.0
 10
-85.6715
 20
-53.4074
 30
0.0
 10
-87.6158
 20
-51.6419
 30
0.0
 10
-87.6158
 20
-51.6419
 30
0.0
 10
-87.6158
 20
-51.6419
 30
0.0
 10
-87.6158
 20
-51.6419
 30
0.0
 10
-87.6158
 20
-35.856
 30
0.0
 10
-87.6158
 20
-35.856
 30
0.0
 10
-87.6158
 20
-35.856
 30
0.0
 10
-87.6158
 20
-35.856
 30
0.0
 10
-83.9414
 20
-35.856
 30
0.0
 10
-83.9414
 20
-35.856
 30
0.0
  0
SPLINE
  5
8C
330
1F
100
AcDbEntity
  8
layer 1
 62
     7
370
    18
100
AcDbSpline
210
0.0
220
0.0
230
1.0
 70
    11
 71
     3
 72
    28
 73
    24
 74
     0
 42
0.0000000001
 43
0.0000000001
 12
1.0
 22
0.0
 32
0.0
 13
1.0
 23
0.0
 33
0.0
 40
0.0
 40
0.0
 40
0.0
 40
0.0
 40
0.1428571428571428
 40
0.1428571428571428
 40
0.1428571428571428
 40
0.1428571428571428
 40
0.2857142857142857
 40
0.2857142857142857
 40
0.2857142857142857
 40
0.2857142857142857
 40
0.4285714285714285
 40
0.4285714285714285
 40
0.4285714285714285
 40
0.4285714285714285
 40
0.5714285714285714
 40
0.5714285714285714
 40
0.5714285714285714
 40
0.5714285714285714
 40
0.7142857142857143
 40
0.7142857142857143
 40
0.7142857142857143
 40
0.7142857142857143
 40
1.0
 40
1.0
 40
1.0
 40
1.0
 10
-69.0168
 20
-35.8515
 30
0.0
 10
-69.0168
 20
-35.8515
 30
0.0
 10
-79.6428
 20
-35.8515
 30
0.0
 10
-79.6428
 20
-35.8515
 30
0.0
 10
-79.6428
 20
-35.8515
 30
0.0
 10
-79.6428
 20
-35.8515
 30
0.0
 10
-79.6428
 20
-53.2165
 30
0.0
 10
-79.6428
 20
-53.2165
 30
0.0
 10
-79.6428
 20
-53.2165
 30
0.0
 10
-79.6428
 20
-53.2165
 30
0.0
 10
-82.8125
 20
-56.2659
 30
0.0
 10
-82.8125
 20
-56.2659
 30
0.0
 10
-82.8125
 20
-56.2659
 30
0.0
 10
-82.8125
 20
-56.2659
 30
0.0
 10
-78.0021
 20
-61.1609
 30
0.0
 10
-78.0021
 20
-61.1609
 30
0.0
 10
-78.0021
 20
-61.1609
 30
0.0
 10
-78.0021
 20
-61.1609
 30
0.0
 10
-69.0168
 20
-61.1609
 30
0.0
 10
-69.0168
 20
-61.1609
 30
0.0
 10
-69.0168
 20
-61.1609
 30
0.0
 10
-69.0168
 20
-61.1609
 30
0.0
 10
-69.0168
 20
-35.8515
 30
0.0
 10
-69.0168
 20
-35.8515
 30
0.0
  0
SPLINE
  5
8D
330
1F
100
AcDbEntity
  8
layer 1
 62
     7
370
    18
100
AcDbSpline
210
0.0
220
0.0
230
1.0
 70
    11
 71
     3
 72
    44
 73
    40
 74
     0
 42
0.0000000001
 43
0.0000000001
 12
1.0
 22
0.0
 32
0.0
 13
1.0
 23
0.0
 33
0.0
 40
0.0
 40
0.0
 40
0.0
 40
0.0
 40
0.0909090909090909
 40
0.0909090909090909
 40
0.0909090909090909
 40
0.0909090909090909
 40
0.1818181818181818
 40
0.1818181818181818
 40
0.1818181818181818
 40
0.1818181818181818
 40
0.2727272727272727
 40
0.2727272727272727
 40
0.2727272727272727
 40
0.2727272727272727
 40
0.3636363636363636
 40
0.3636363636363636
 40
0.3636363636363636
 40
0.3636363636363636
 40
0.4545454545454545
 40
0.4545454545454545
 40
0.4545454545454545
 40
0.4545454545454545
 40
0.5454545454545454
 40
0.5454545454545454
 40
0.5454545454545454
 40
0.5454545454545454
 40
0.6363636363636364
 40
0.6363636363636364
 40
0.6363636363636364
 40
0.6363636363636364
 40
0.7272727272727273
 40
0.7272727272727273
 40
0.7272727272727273
 40
0.7272727272727273
 40
0.8181818181818182
 40
0.8181818181818182
 40
0.8181818181818182
 40
0.8181818181818182
 40
1.0
 40
1.0
 40
1.0
 40
1.0
 10
-91.8479
 20
-35.8515
 30
0.0
 10
-91.8479
 20
-35.8515
 30
0.0
 10
-108.9772
 20
-35.8515
 30
0.0
 10
-108.9772
 20
-35.8515
 30
0.0
 10
-108.9772
 20
-35.8515
 30
0.0
 10
-108.9772
 20
-35.8515
 30
0.0
 10
-112.5081
 20
-32.8021
 30
0.0
 10
-112.5081
 20
-32.8021
 30
0.0
 10
-112.5081
 20
-32.8021
 30
0.0
 10
-112.5081
 20
-32.8021
 30
0.0
 10
-117.3395
 20
-37.6369
 30
0.0
 10
-117.3395
 20
-37.6369
 30
0.0
 10
-117.3395
 20
-37.6369
 30
0.0
 10
-117.3395
 20
-37.6369
 30
0.0
 10
-117.289
 20
-50.4612
 30
0.0
 10
-117.289
 20
-50.4612
 30
0.0
 10
-117.289
 20
-50.4612
 30
0.0
 10
-117.289
 20
-50.4612
 30
0.0
 10
-106.6868
 20
-50.4881
 30
0.0
 10
-106.6868
 20
-50.4881
 30
0.0
 10
-106.6868
 20
-50.4881
 30
0.0
 10
-106.6868
 20
-50.4881
 30
0.0
 10
-106.7313
 20
-61.1609
 30
0.0
 10
-106.7313
 20
-61.1609
 30
0.0
 10
-106.7313
 20
-61.1609
 30
0.0
 10
-106.7313
 20
-61.1609
 30
0.0
 10
-94.0513
 20
-61.1609
 30
0.0
 10
-94.0513
 20
-61.1609
 30
0.0
 10
-94.0513
 20
-61.1609
 30
0.0
 10
-94.0513
 20
-61.1609
 30
0.0
 10
-88.7985
 20
-56.306
 30
0.0
 10
-88.7985
 20
-56.306
 30
0.0
 10
-88.7985
 20
-56.306
 30
0.0
 10
-88.7985
 20
-56.306
 30
0.0
 10
-91.8479
 20
-53.2566
 30
0.0
 10
-91.8479
 20
-53.2566
 30
0.0
 10
-91.8479
 20
-53.2566
 30
0.0
 10
-91.8479
 20
-53.2566
 30
0.0
 10
-91.8479
 20
-35.8515
 30
0.0
 10
-91.8479
 20
-35.8515
 30
0.0
  0
SPLINE
  5
8E
330
1F
100
AcDbEntity
  8
layer 1
 62
     7
370
    18
100
AcDbSpline
210
0.0
220
0.0
230
1.0
 70
    11
 71
     3
 72
    44
 73
    40
 74
     0
 42
0.0000000001
 43
0.0000000001
 12
1.0
 22
0.0
 32
0.0
 13
1.0
 23
0.0
 33
0.0
 40
0.0
 40
0.0
 40
0.0
 40
0.0
 40
0.0909090909090909
 40
0.0909090909090909
 40
0.0909090909090909
 40
0.0909090909090909
 40
0.1818181818181818
 40
0.1818181818181818
 40
0.1818181818181818
 40
0.1818181818181818
 40
0.2727272727272727
 40
0.2727272727272727
 40
0.2727272727272727
 40
0.2727272727272727
 40
0.3636363636363636
 40
0.3636363636363636
 40
0.3636363636363636
 40
0.3636363636363636
 40
0.4545454545454545
 40
0.4545454545454545
 40
0.4545454545454545
 40
0.4545454545454545
 40
0.5454545454545454
 40
0.5454545454545454
 40
0.5454545454545454
 40
0.5454545454545454
 40
0.6363636363636364
 40
0.6363636363636364
 40
0.6363636363636364
 40
0.6363636363636364
 40
0.7272727272727273
 40
0.7272727272727273
 40
0.7272727272727273
 40
0.7272727272727273
 40
0.8181818181818182
 40
0.8181818181818182
 40
0.8181818181818182
 40
0.8181818181818182
 40
1.0
 40
1.0
 40
1.0
 40
1.0
 10
-68.991
 20
-65.3331
 30
0.0
 10
-68.991
 20
-65.3331
 30
0.0
 10
-79.5582
 20
-65.3331
 30
0.0
 10
-79.5582
 20
-65.3331
 30
0.0
 10
-79.5582
 20
-65.3331
 30
0.0
 10
-79.5582
 20
-65.3331
 30
0.0
 10
-85.7714
 20
-59.1923
 30
0.0
 10
-85.7714
 20
-59.1923
 30
0.0
 10
-85.7714
 20
-59.1923
 30
0.0
 10
-85.7714
 20
-59.1923
 30
0.0
 10
-91.84
 20
-65.3331
 30
0.0
 10
-91.84
 20
-65.3331
 30
0.0
 10
-91.84
 20
-65.3331
 30
0.0
 10
-91.84
 20
-65.3331
 30
0.0
 10
-106.6864
 20
-65.3331
 30
0.0
 10
-106.6864
 20
-65.3331
 30
0.0
 10
-106.6864
 20
-65.3331
 30
0.0
 10
-106.6864
 20
-65.3331
 30
0.0
 10
-106.6864
 20
-70.7592
 30
0.0
 10
-106.6864
 20
-70.7592
 30
0.0
 10
-106.6864
 20
-70.7592
 30
0.0
 10
-106.6864
 20
-70.7592
 30
0.0
 10
-91.8761
 20
-70.7592
 30
0.0
 10
-91.8761
 20
-70.7592
 30
0.0
 10
-91.8761
 20
-70.7592
 30
0.0
 10
-91.8761
 20
-70.7592
 30
0.0
 10
-85.8798
 20
-76.7556
 30
0.0
 10
-85.8798
 20
-76.7556
 30
0.0
 10
-85.8798
 20
-76.7556
 30
0.0
 10
-85.8798
 20
-76.7556
 30
0.0
 10
-79.5943
 20
-70.7592
 30
0.0
 10
-79.5943
 20
-70.7592
 30
0.0
 10
-79.5943
 20
-70.7592
 30
0.0
 10
-79.5943
 20
-70.7592
 30
0.0
 10
-68.991
 20
-70.7592
 30
0.0
 10
-68.991
 20
-70.7592
 30
0.0
 10
-68.991
 20
-70.7592
 30
0.0
 10
-68.991
 20
-70.7592
 30
0.0
 10
-68.991
 20
-65.3331
 30
0.0
 10
-68.991
 20
-65.3331
 30
0.0
  0
LWPOLYLINE
  5
8F
330
1F
100
AcDbEntity
  8
layer 1
 62
     7
370
    18
100
AcDbPolyline
 90
        5
 70
     1
 43
0.0
 10
-79.617
 20
-108.0139
 10
-68.991
 20
-108.0139
 10
-68.991
 20
-104.3395
 10
-79.617
 20
-104.3395
 10
-79.617
 20
-108.0139
  0
SPLINE
  5
90
330
1F
100
AcDbEntity
  8
layer 1
 62
     7
370
    18
100
AcDbSpline
210
0.0
220
0.0
230
1.0
 70
    11
 71
     3
 72
    24
 73
    20
 74
     0
 42
0.0000000001
 43
0.0000000001
 12
1.0
 22
0.0
 32
0.0
 13
1.0
 23
0.0
 33
0.0
 40
0.0
 40
0.0
 40
0.0
 40
0.0
 40
0.1666666666666667
 40
0.1666666666666667
 40
0.1666666666666667
 40
0.1666666666666667
 40
0.3333333333333333
 40
0.3333333333333333
 40
0.3333333333333333
 40
0.3333333333333333
 40
0.5
 40
0.5
 40
0.5
 40
0.5
 40
0.6666666666666666
 40
0.6666666666666666
 40
0.6666666666666666
 40
0.6666666666666666
 40
1.0
 40
1.0
 40
1.0
 40
1.0
 10
-91.8814
 20
-104.3395
 30
0.0
 10
-91.8814
 20
-104.3395
 30
0.0
 10
-107.6674
 20
-104.3395
 30
0.0
 10
-107.6674
 20
-104.3395
 30
0.0
 10
-107.6674
 20
-104.3395
 30
0.0
 10
-107.6674
 20
-104.3395
 30
0.0
 10
-109.4328
 20
-106.0696
 30
0.0
 10
-109.4328
 20
-106.0696
 30
0.0
 10
-109.4328
 20
-106.0696
 30
0.0
 10
-109.4328
 20
-106.0696
 30
0.0
 10
-107.6674
 20
-108.0139
 30
0.0
 10
-107.6674
 20
-108.0139
 30
0.0
 10
-107.6674
 20
-108.0139
 30
0.0
 10
-107.6674
 20
-108.0139
 30
0.0
 10
-91.8814
 20
-108.0139
 30
0.0
 10
-91.8814
 20
-108.0139
 30
0.0
 10
-91.8814
 20
-108.0139
 30
0.0
 10
-91.8814
 20
-108.0139
 30
0.0
 10
-91.8814
 20
-104.3395
 30
0.0
 10
-91.8814
 20
-104.3395
 30
0.0
  0
LWPOLYLINE
  5
91
330
1F
100
AcDbEntity
  8
layer 1
 62
     7
370
    18
100
AcDbPolyline
 90
        5
 70
     1
 43
0.0
 10
-87.6113
 20
-108.0231
 10
-83.9367
 20
-108.0231
 10
-83.9367
 20
-104.3487
 10
-87.6113
 20
-104.3487
 10
-87.6113
 20
-108.0231
  0
SPLINE
  5
92
330
1F
100
AcDbEntity
  8
layer 1
 62
     7
370
    18
100
AcDbSpline
210
0.0
220
0.0
230
1.0
 70
    11
 71
     3
 72
    24
 73
    20
 74
     0
 42
0.0000000001
 43
0.0000000001
 12
1.0
 22
0.0
 32
0.0
 13
1.0
 23
0.0
 33
0.0
 40
0.0
 40
0.0
 40
0.0
 40
0.0
 40
0.1666666666666667
 40
0.1666666666666667
 40
0.1666666666666667
 40
0.1666666666666667
 40
0.3333333333333333
 40
0.3333333333333333
 40
0.3333333333333333
 40
0.3333333333333333
 40
0.5
 40
0.5
 40
0.5
 40
0.5
 40
0.6666666666666666
 40
0.6666666666666666
 40
0.6666666666666666
 40
0.6666666666666666
 40
1.0
 40
1.0
 40
1.0
 40
1.0
 10
-83.963
 20
-99.9364
 30
0.0
 10
-83.963
 20
-99.9364
 30
0.0
 10
-83.963
 20
-84.1505
 30
0.0
 10
-83.963
 20
-84.1505
 30
0.0
 10
-83.963
 20
-84.1505
 30
0.0
 10
-83.963
 20
-84.1505
 30
0.0
 10
-85.6932
 20
-82.385
 30
0.0
 10
-85.6932
 20
-82.385
 30
0.0
 10
-85.6932
 20
-82.385
 30
0.0
 10
-85.6932
 20
-82.385
 30
0.0
 10
-87.6374
 20
-84.1505
 30
0.0
 10
-87.6374
 20
-84.1505
 30
0.0
 10
-87.6374
 20
-84.1505
 30
0.0
 10
-87.6374
 20
-84.1505
 30
0.0
 10
-87.6374
 20
-99.9364
 30
0.0
 10
-87.6374
 20
-99.9364
 30
0.0
 10
-87.6374
 20
-99.9364
 30
0.0
 10
-87.6374
 20
-99.9364
 30
0.0
 10
-83.963
 20
-99.9364
 30
0.0
 10
-83.963
 20
-99.9364
 30
0.0
  0
SPLINE
  5
93
330
1F
100
AcDbEntity
  8
layer 1
 62
     7
370
    18
100
AcDbSpline
210
0.0
220
0.0
230
1.0
 70
    11
 71
     3
 72
    28
 73
    24
 74
     0
 42
0.0000000001
 43
0.0000000001
 12
1.0
 22
0.0
 32
0.0
 13
1.0
 23
0.0
 33
0.0
 40
0.0
 40
0.0
 40
0.0
 40
0.0
 40
0.1428571428571428
 40
0.1428571428571428
 40
0.1428571428571428
 40
0.1428571428571428
 40
0.2857142857142857
 40
0.2857142857142857
 40
0.2857142857142857
 40
0.2857142857142857
 40
0.4285714285714285
 40
0.4285714285714285
 40
0.4285714285714285
 40
0.4285714285714285
 40
0.5714285714285714
 40
0.5714285714285714
 40
0.5714285714285714
 40
0.5714285714285714
 40
0.7142857142857143
 40
0.7142857142857143
 40
0.7142857142857143
 40
0.7142857142857143
 40
1.0
 40
1.0
 40
1.0
 40
1.0
 10
-68.991
 20
-99.9409
 30
0.0
 10
-68.991
 20
-99.9409
 30
0.0
 10
-79.6169
 20
-99.9409
 30
0.0
 10
-79.6169
 20
-99.9409
 30
0.0
 10
-79.6169
 20
-99.9409
 30
0.0
 10
-79.6169
 20
-99.9409
 30
0.0
 10
-79.6169
 20
-82.5759
 30
0.0
 10
-79.6169
 20
-82.5759
 30
0.0
 10
-79.6169
 20
-82.5759
 30
0.0
 10
-79.6169
 20
-82.5759
 30
0.0
 10
-82.7866
 20
-79.5265
 30
0.0
 10
-82.7866
 20
-79.5265
 30
0.0
 10
-82.7866
 20
-79.5265
 30
0.0
 10
-82.7866
 20
-79.5265
 30
0.0
 10
-77.9762
 20
-74.6315
 30
0.0
 10
-77.9762
 20
-74.6315
 30
0.0
 10
-77.9762
 20
-74.6315
 30
0.0
 10
-77.9762
 20
-74.6315
 30
0.0
 10
-68.991
 20
-74.6315
 30
0.0
 10
-68.991
 20
-74.6315
 30
0.0
 10
-68.991
 20
-74.6315
 30
0.0
 10
-68.991
 20
-74.6315
 30
0.0
 10
-68.991
 20
-99.9409
 30
0.0
 10
-68.991
 20
-99.9409
 30
0.0
  0
SPLINE
  5
94
330
1F
100
AcDbEntity
  8
layer 1
 62
     7
370
    18
100
AcDbSpline
210
0.0
220
0.0
230
1.0
 70
    11
 71
     3
 72
    44
 73
    40
 74
     0
 42
0.0000000001
 43
0.0000000001
 12
1.0
 22
0.0
 32
0.0
 13
1.0
 23
0.0
 33
0.0
 40
0.0
 40
0.0
 40
0.0
 40
0.0
 40
0.0909090909090909
 40
0.0909090909090909
 40
0.0909090909090909
 40
0.0909090909090909
 40
0.1818181818181818
 40
0.1818181818181818
 40
0.1818181818181818
 40
0.1818181818181818
 40
0.2727272727272727
 40
0.2727272727272727
 40
0.2727272727272727
 40
0.2727272727272727
 40
0.3636363636363636
 40
0.3636363636363636
 40
0.3636363636363636
 40
0.3636363636363636
 40
0.4545454545454545
 40
0.4545454545454545
 40
0.4545454545454545
 40
0.4545454545454545
 40
0.5454545454545454
 40
0.5454545454545454
 40
0.5454545454545454
 40
0.5454545454545454
 40
0.6363636363636364
 40
0.6363636363636364
 40
0.6363636363636364
 40
0.6363636363636364
 40
0.7272727272727273
 40
0.7272727272727273
 40
0.7272727272727273
 40
0.7272727272727273
 40
0.8181818181818182
 40
0.8181818181818182
 40
0.8181818181818182
 40
0.8181818181818182
 40
1.0
 40
1.0
 40
1.0
 40
1.0
 10
-91.822
 20
-99.9409
 30
0.0
 10
-91.822
 20
-99.9409
 30
0.0
 10
-108.9514
 20
-99.9409
 30
0.0
 10
-108.9514
 20
-99.9409
 30
0.0
 10
-108.9514
 20
-99.9409
 30
0.0
 10
-108.9514
 20
-99.9409
 30
0.0
 10
-112.4822
 20
-102.9903
 30
0.0
 10
-112.4822
 20
-102.9903
 30
0.0
 10
-112.4822
 20
-102.9903
 30
0.0
 10
-112.4822
 20
-102.9903
 30
0.0
 10
-117.3136
 20
-98.1555
 30
0.0
 10
-117.3136
 20
-98.1555
 30
0.0
 10
-117.3136
 20
-98.1555
 30
0.0
 10
-117.3136
 20
-98.1555
 30
0.0
 10
-117.2631
 20
-85.3312
 30
0.0
 10
-117.2631
 20
-85.3312
 30
0.0
 10
-117.2631
 20
-85.3312
 30
0.0
 10
-117.2631
 20
-85.3312
 30
0.0
 10
-106.6609
 20
-85.3043
 30
0.0
 10
-106.6609
 20
-85.3043
 30
0.0
 10
-106.6609
 20
-85.3043
 30
0.0
 10
-106.6609
 20
-85.3043
 30
0.0
 10
-106.7054
 20
-74.6315
 30
0.0
 10
-106.7054
 20
-74.6315
 30
0.0
 10
-106.7054
 20
-74.6315
 30
0.0
 10
-106.7054
 20
-74.6315
 30
0.0
 10
-94.0254
 20
-74.6315
 30
0.0
 10
-94.0254
 20
-74.6315
 30
0.0
 10
-94.0254
 20
-74.6315
 30
0.0
 10
-94.0254
 20
-74.6315
 30
0.0
 10
-88.7727
 20
-79.4864
 30
0.0
 10
-88.7727
 20
-79.4864
 30
0.0
 10
-88.7727
 20
-79.4864
 30
0.0
 10
-88.7727
 20
-79.4864
 30
0.0
 10
-91.822
 20
-82.5358
 30
0.0
 10
-91.822
 20
-82.5358
 30
0.0
 10
-91.822
 20
-82.5358
 30
0.0
 10
-91.822
 20
-82.5358
 30
0.0
 10
-91.822
 20
-99.9409
 30
0.0
 10
-91.822
 20
-99.9409
 30
0.0
  0
SPLINE
  5
95
330
1F
100
AcDbEntity
  8
layer 1
 62
     7
370
    18
100
AcDbSpline
210
0.0
220
0.0
230
1.0
 70
    11
 71
     3
 72
    36
 73
    32
 74
     0
 42
0.0000000001
 43
0.0000000001
 12
1.0
 22
0.0
 32
0.0
 13
1.0
 23
0.0
 33
0.0
 40
0.0
 40
0.0
 40
0.0
 40
0.0
 40
0.1111111111111111
 40
0.1111111111111111
 40
0.1111111111111111
 40
0.1111111111111111
 40
0.2222222222222222
 40
0.2222222222222222
 40
0.2222222222222222
 40
0.2222222222222222
 40
0.3333333333333333
 40
0.3333333333333333
 40
0.3333333333333333
 40
0.3333333333333333
 40
0.4444444444444444
 40
0.4444444444444444
 40
0.4444444444444444
 40
0.4444444444444444
 40
0.5555555555555556
 40
0.5555555555555556
 40
0.5555555555555556
 40
0.5555555555555556
 40
0.6666666666666666
 40
0.6666666666666666
 40
0.6666666666666666
 40
0.6666666666666666
 40
0.7777777777777778
 40
0.7777777777777778
 40
0.7777777777777778
 40
0.7777777777777778
 40
1.0
 40
1.0
 40
1.0
 40
1.0
 10
-126.8955
 20
-100.0332
 30
0.0
 10
-126.8955
 20
-100.0332
 30
0.0
 10
-126.9517
 20
-85.2893
 30
0.0
 10
-126.9517
 20
-85.2893
 30
0.0
 10
-126.9517
 20
-85.2893
 30
0.0
 10
-126.9517
 20
-85.2893
 30
0.0
 10
-121.4715
 20
-85.2304
 30
0.0
 10
-121.4715
 20
-85.2304
 30
0.0
 10
-121.4715
 20
-85.2304
 30
0.0
 10
-121.4715
 20
-85.2304
 30
0.0
 10
-121.4376
 20
-100.2485
 30
0.0
 10
-121.4376
 20
-100.2485
 30
0.0
 10
-121.4376
 20
-100.2485
 30
0.0
 10
-121.4376
 20
-100.2485
 30
0.0
 10
-115.3698
 20
-106.0572
 30
0.0
 10
-115.3698
 20
-106.0572
 30
0.0
 10
-115.3698
 20
-106.0572
 30
0.0
 10
-115.3698
 20
-106.0572
 30
0.0
 10
-117.0777
 20
-107.883
 30
0.0
 10
-117.0777
 20
-107.883
 30
0.0
 10
-117.0777
 20
-107.883
 30
0.0
 10
-117.0777
 20
-107.883
 30
0.0
 10
-131.1882
 20
-107.8783
 30
0.0
 10
-131.1882
 20
-107.8783
 30
0.0
 10
-131.1882
 20
-107.8783
 30
0.0
 10
-131.1882
 20
-107.8783
 30
0.0
 10
-133.0217
 20
-105.8419
 30
0.0
 10
-133.0217
 20
-105.8419
 30
0.0
 10
-133.0217
 20
-105.8419
 30
0.0
 10
-133.0217
 20
-105.8419
 30
0.0
 10
-126.8955
 20
-100.0332
 30
0.0
 10
-126.8955
 20
-100.0332
 30
0.0
  0
SPLINE
  5
96
330
1F
100
AcDbEntity
  8
layer 1
 62
     7
370
    18
100
AcDbSpline
210
0.0
220
0.0
230
1.0
 70
    11
 71
     3
 72
    36
 73
    32
 74
     0
 42
0.0000000001
 43
0.0000000001
 12
1.0
 22
0.0
 32
0.0
 13
1.0
 23
0.0
 33
0.0
 40
0.0
 40
0.0
 40
0.0
 40
0.0
 40
0.1111111111111111
 40
0.1111111111111111
 40
0.1111111111111111
 40
0.1111111111111111
 40
0.2222222222222222
 40
0.2222222222222222
 40
0.2222222222222222
 40
0.2222222222222222
 40
0.3333333333333333
 40
0.3333333333333333
 40
0.3333333333333333
 40
0.3333333333333333
 40
0.4444444444444444
 40
0.4444444444444444
 40
0.4444444444444444
 40
0.4444444444444444
 40
0.5555555555555556
 40
0.5555555555555556
 40
0.5555555555555556
 40
0.5555555555555556
 40
0.6666666666666666
 40
0.6666666666666666
 40
0.6666666666666666
 40
0.6666666666666666
 40
0.7777777777777778
 40
0.7777777777777778
 40
0.7777777777777778
 40
0.7777777777777778
 40
1.0
 40
1.0
 40
1.0
 40
1.0
 10
-126.8955
 20
116.9656
 30
0.0
 10
-126.8955
 20
116.9656
 30
0.0
 10
-126.9517
 20
102.2217
 30
0.0
 10
-126.9517
 20
102.2217
 30
0.0
 10
-126.9517
 20
102.2217
 30
0.0
 10
-126.9517
 20
102.2217
 30
0.0
 10
-121.4715
 20
102.1628
 30
0.0
 10
-121.4715
 20
102.1628
 30
0.0
 10
-121.4715
 20
102.1628
 30
0.0
 10
-121.4715
 20
102.1628
 30
0.0
 10
-121.4376
 20
117.181
 30
0.0
 10
-121.4376
 20
117.181
 30
0.0
 10
-121.4376
 20
117.181
 30
0.0
 10
-121.4376
 20
117.181
 30
0.0
 10
-115.3698
 20
122.9896
 30
0.0
 10
-115.3698
 20
122.9896
 30
0.0
 10
-115.3698
 20
122.9896
 30
0.0
 10
-115.3698
 20
122.9896
 30
0.0
 10
-117.0777
 20
124.8154
 30
0.0
 10
-117.0777
 20
124.8154
 30
0.0
 10
-117.0777
 20
124.8154
 30
0.0
 10
-117.0777
 20
124.8154
 30
0.0
 10
-131.1882
 20
124.8107
 30
0.0
 10
-131.1882
 20
124.8107
 30
0.0
 10
-131.1882
 20
124.8107
 30
0.0
 10
-131.1882
 20
124.8107
 30
0.0
 10
-133.0217
 20
122.7743
 30
0.0
 10
-133.0217
 20
122.7743
 30
0.0
 10
-133.0217
 20
122.7743
 30
0.0
 10
-133.0217
 20
122.7743
 30
0.0
 10
-126.8955
 20
116.9656
 30
0.0
 10
-126.8955
 20
116.9656
 30
0.0
  0
ENDSEC
  0
SECTION
  2
OBJECTS
  0
DICTIONARY
  5
C
330
0
100
AcDbDictionary
281
     1
  3
ACAD_GROUP
350
D
  3
ACAD_LAYOUT
350
1A
  3
ACAD_MATERIAL
350
3B
  3
ACAD_MLEADERSTYLE
350
B8
  3
ACAD_MLINESTYLE
350
17
  3
ACAD_PLOTSETTINGS
350
19
  3
ACAD_PLOTSTYLENAME
350
E
  3
ACAD_TABLESTYLE
350
B7
  3
ACAD_VISUALSTYLE
350
2A
  0
DICTIONARY
  5
D
102
{ACAD_REACTORS
330
C
102
}
330
C
100
AcDbDictionary
281
     1
  0
DICTIONARY
  5
1A
102
{ACAD_REACTORS
330
C
102
}
330
C
100
AcDbDictionary
281
     1
  3
Layout1
350
1E
  3
Layout2
350
26
  3
Model
350
22
  0
DICTIONARY
  5
3B
102
{ACAD_REACTORS
330
C
102
}
330
C
100
AcDbDictionary
281
     1
  3
ByBlock
350
3D
  3
ByLayer
350
3C
  3
Global
350
3E
  0
DICTIONARY
  5
B8
102
{ACAD_REACTORS
330
C
102
}
330
C
100
AcDbDictionary
281
     1
  0
DICTIONARY
  5
17
102
{ACAD_REACTORS
330
C
102
}
330
C
100
AcDbDictionary
281
     1
  3
Standard
350
18
  0
DICTIONARY
  5
19
102
{ACAD_REACTORS
330
C
102
}
330
C
100
AcDbDictionary
281
     1
  0
ACDBDICTIONARYWDFLT
  5
E
102
{ACAD_REACTORS
330
C
102
}
330
C
100
AcDbDictionary
281
     1
  3
Normal
350
F
100
AcDbDictionaryWithDefault
340
F
  0
DICTIONARY
  5
B7
102
{ACAD_REACTORS
330
C
102
}
330
C
100
AcDbDictionary
281
     1
  0
DICTIONARY
  5
2A
102
{ACAD_REACTORS
330
C
102
}
330
C
100
AcDbDictionary
281
     1
  3
2dWireframe
350
2F
  3
3D Hidden
350
31
  3
3dWireframe
350
30
  3
Basic
350
32
  3
Brighten
350
36
  3
ColorChange
350
3A
  3
Conceptual
350
34
  3
Dim
350
35
  3
Facepattern
350
39
  3
Flat
350
2B
  3
FlatWithEdges
350
2C
  3
Gouraud
350
2D
  3
GouraudWithEdges
350
2E
  3
Linepattern
350
38
  3
Realistic
350
33
  3
Thicken
350
37
  0
LAYOUT
  5
1E
102
{ACAD_REACTORS
330
1A
102
}
330
1A
100
AcDbPlotSettings
  1

  2
none_device
  4

  6

 40
0.0
 41
0.0
 42
0.0
 43
0.0
 44
0.0
 45
0.0
 46
0.0
 47
0.0
 48
0.0
 49
0.0
140
0.0
141
0.0
142
1.0
143
1.0
 70
   688
 72
     0
 73
     0
 74
     5
  7

 75
    16
 76
     0
 77
     2
 78
   300
147
1.0
148
0.0
149
0.0
100
AcDbLayout
  1
Layout1
 70
     1
 71
     1
 10
0.0
 20
0.0
 11
12.0
 21
9.0
 12
0.0
 22
0.0
 32
0.0
 14
1.000000000000000E+20
 24
1.000000000000000E+20
 34
1.000000000000000E+20
 15
-1.000000000000000E+20
 25
-1.000000000000000E+20
 35
-1.000000000000000E+20
146
0.0
 13
0.0
 23
0.0
 33
0.0
 16
1.0
 26
0.0
 36
0.0
 17
0.0
 27
1.0
 37
0.0
 76
     0
330
1B
  0
LAYOUT
  5
26
102
{ACAD_REACTORS
330
1A
102
}
330
1A
100
AcDbPlotSettings
  1

  2
none_device
  4

  6

 40
0.0
 41
0.0
 42
0.0
 43
0.0
 44
0.0
 45
0.0
 46
0.0
 47
0.0
 48
0.0
 49
0.0
140
0.0
141
0.0
142
1.0
143
1.0
 70
   688
 72
     0
 73
     0
 74
     5
  7

 75
    16
 76
     0
 77
     2
 78
   300
147
1.0
148
0.0
149
0.0
100
AcDbLayout
  1
Layout2
 70
     1
 71
     2
 10
0.0
 20
0.0
 11
0.0
 21
0.0
 12
0.0
 22
0.0
 32
0.0
 14
0.0
 24
0.0
 34
0.0
 15
0.0
 25
0.0
 35
0.0
146
0.0
 13
0.0
 23
0.0
 33
0.0
 16
1.0
 26
0.0
 36
0.0
 17
0.0
 27
1.0
 37
0.0
 76
     0
330
23
  0
LAYOUT
  5
22
102
{ACAD_REACTORS
330
1A
102
}
330
1A
100
AcDbPlotSettings
  1

  2
none_device
  4

  6

 40
0.0
 41
0.0
 42
0.0
 43
0.0
 44
0.0
 45
0.0
 46
0.0
 47
0.0
 48
0.0
 49
0.0
140
0.0
141
0.0
142
1.0
143
1.0
 70
  1712
 72
     0
 73
     0
 74
     0
  7

 75
     0
 76
     0
 77
     2
 78
   300
147
1.0
148
0.0
149
0.0
100
AcDbLayout
  1
Model
 70
     1
 71
     0
 10
0.0
 20
0.0
 11
12.0
 21
9.0
 12
0.0
 22
0.0
 32
0.0
 14
-187.3831
 24
-115.3056
 34
0.0
 15
-61.058
 25
132.0978
 35
0.0
146
0.0
 13
0.0
 23
0.0
 33
0.0
 16
1.0
 26
0.0
 36
0.0
 17
0.0
 27
1.0
 37
0.0
 76
     0
330
1F
331
29
  0
MATERIAL
  5
3D
102
{ACAD_REACTORS
330
3B
102
}
330
3B
100
AcDbMaterial
  1
ByBlock
 72
     1
 94
      127
  0
MATERIAL
  5
3C
102
{ACAD_REACTORS
330
3B
102
}
330
3B
100
AcDbMaterial
  1
ByLayer
 72
     1
 94
      127
  0
MATERIAL
  5
3E
102
{ACAD_REACTORS
330
3B
102
}
330
3B
100
AcDbMaterial
  1
Global
 72
     1
 94
      127
  0
MLINESTYLE
  5
18
102
{ACAD_REACTORS
330
17
102
}
330
17
100
AcDbMlineStyle
  2
Standard
 70
     0
  3

 62
   256
 51
90.0
 52
90.0
 71
     2
 49
0.5
 62
   256
  6
BYLAYER
 49
-0.5
 62
   256
  6
BYLAYER
  0
ACDBPLACEHOLDER
  5
F
102
{ACAD_REACTORS
330
E
102
}
330
E
  0
VISUALSTYLE
  5
2F
102
{ACAD_REACTORS
330
2A
102
}
102
{ACAD_XDICTIONARY
360
9F
102
}
330
2A
100
AcDbVisualStyle
  2
2dWireframe
 70
     4
 71
     0
 72
     2
 73
     0
 90
        0
 40
-0.6
 41
-30.0
 62
     5
 63
     7
421
 16777215
 74
     1
 91
        4
 64
     7
 65
   257
 75
     1
175
     1
 42
1.0
 92
        0
 66
   257
 43
1.0
 76
     1
 77
     6
 78
     2
 67
     7
 79
     5
170
     0
171
     0
290
     0
174
     0
 93
        1
 44
0.0
173
     0
291
     0
 45
0.0
  0
VISUALSTYLE
  5
31
102
{ACAD_REACTORS
330
2A
102
}
102
{ACAD_XDICTIONARY
360
A3
102
}
330
2A
100
AcDbVisualStyle
  2
3D Hidden
 70
     6
 71
     1
 72
     2
 73
     2
 90
        0
 40
-0.6
 41
-30.0
 62
     5
 63
     7
421
 16777215
 74
     2
 91
        2
 64
     7
 65
   257
 75
     2
175
     1
 42
40.0
 92
        0
 66
   257
 43
1.0
 76
     1
 77
     6
 78
     2
 67
     7
 79
     3
170
     0
171
     0
290
     0
174
     0
 93
        1
 44
0.0
173
     0
291
     0
 45
0.0
  0
VISUALSTYLE
  5
30
102
{ACAD_REACTORS
330
2A
102
}
102
{ACAD_XDICTIONARY
360
A1
102
}
330
2A
100
AcDbVisualStyle
  2
3dWireframe
 70
     5
 71
     0
 72
     2
 73
     0
 90
        0
 40
-0.6
 41
-30.0
 62
     5
 63
     7
421
 16777215
 74
     1
 91
        4
 64
     7
 65
   257
 75
     1
175
     1
 42
1.0
 92
        0
 66
   257
 43
1.0
 76
     1
 77
     6
 78
     2
 67
     7
 79
     5
170
     0
171
     0
290
     0
174
     0
 93
        1
 44
0.0
173
     0
291
     0
 45
0.0
  0
VISUALSTYLE
  5
32
102
{ACAD_REACTORS
330
2A
102
}
102
{ACAD_XDICTIONARY
360
A5
102
}
330
2A
100
AcDbVisualStyle
  2
Basic
 70
     7
 71
     1
 72
     0
 73
     1
 90
        0
 40
-0.6
 41
-30.0
 62
     5
 63
     7
421
 16777215
 74
     0
 91
        4
 64
     7
 65
   257
 75
     1
175
     1
 42
1.0
 92
        8
 66
     7
 43
1.0
 76
     1
 77
     6
 78
     2
 67
     7
 79
     5
170
     0
171
     0
290
     0
174
     0
 93
        1
 44
0.0
173
     0
291
     1
 45
0.0
  0
VISUALSTYLE
  5
36
102
{ACAD_REACTORS
330
2A
102
}
102
{ACAD_XDICTIONARY
360
AD
102
}
330
2A
100
AcDbVisualStyle
  2
Brighten
 70
    12
 71
     2
 72
     2
 73
     0
 90
        0
 40
-0.6
 41
-30.0
 62
     5
 63
     7
421
 16777215
 74
     1
 91
        4
 64
     7
 65
   257
 75
     1
175
     1
 42
1.0
 92
        8
 66
     7
 43
1.0
 76
     1
 77
     6
 78
     2
 67
     7
 79
     5
170
     0
171
     0
290
     0
174
     0
 93
        1
 44
50.0
173
     0
291
     1
 45
0.0
  0
VISUALSTYLE
  5
3A
102
{ACAD_REACTORS
330
2A
102
}
102
{ACAD_XDICTIONARY
360
B5
102
}
330
2A
100
AcDbVisualStyle
  2
ColorChange
 70
    16
 71
     2
 72
     2
 73
     3
 90
        0
 40
-0.6
 41
-30.0
 62
     5
 63
     8
421
  8421504
 74
     1
 91
        4
 64
     7
 65
   257
 75
     1
175
     1
 42
1.0
 92
        8
 66
     8
424
  8421504
 43
1.0
 76
     1
 77
     6
 78
     2
 67
     7
 79
     5
170
     0
171
     0
290
     0
174
     0
 93
        1
 44
0.0
173
     0
291
     1
 45
0.0
  0
VISUALSTYLE
  5
34
102
{ACAD_REACTORS
330
2A
102
}
102
{ACAD_XDICTIONARY
360
A9
102
}
330
2A
100
AcDbVisualStyle
  2
Conceptual
 70
     9
 71
     3
 72
     2
 73
     0
 90
        0
 40
-0.6
 41
-30.0
 62
     5
 63
     7
421
 16777215
 74
     2
 91
        2
 64
     7
 65
   257
 75
     1
175
     1
 42
40.0
 92
        8
 66
     7
 43
1.0
 76
     1
 77
     6
 78
     2
 67
     7
 79
     3
170
     0
171
     0
290
     0
174
     0
 93
        1
 44
0.0
173
     0
291
     0
 45
0.0
  0
VISUALSTYLE
  5
35
102
{ACAD_REACTORS
330
2A
102
}
102
{ACAD_XDICTIONARY
360
AB
102
}
330
2A
100
AcDbVisualStyle
  2
Dim
 70
    11
 71
     2
 72
     2
 73
     0
 90
        0
 40
-0.6
 41
-30.0
 62
     5
 63
     7
421
 16777215
 74
     1
 91
        4
 64
     7
 65
   257
 75
     1
175
     1
 42
1.0
 92
        8
 66
     7
 43
1.0
 76
     1
 77
     6
 78
     2
 67
     7
 79
     5
170
     0
171
     0
290
     0
174
     0
 93
        1
 44
-50.0
173
     0
291
     1
 45
0.0
  0
VISUALSTYLE
  5
39
102
{ACAD_REACTORS
330
2A
102
}
102
{ACAD_XDICTIONARY
360
B3
102
}
330
2A
100
AcDbVisualStyle
  2
Facepattern
 70
    15
 71
     2
 72
     2
 73
     0
 90
        0
 40
-0.6
 41
-30.0
 62
     5
 63
     7
421
 16777215
 74
     1
 91
        4
 64
     7
 65
   257
 75
     1
175
     1
 42
1.0
 92
        8
 66
     7
 43
1.0
 76
     1
 77
     6
 78
     2
 67
     7
 79
     5
170
     0
171
     0
290
     0
174
     0
 93
        1
 44
0.0
173
     0
291
     1
 45
0.0
  0
VISUALSTYLE
  5
2B
102
{ACAD_REACTORS
330
2A
102
}
102
{ACAD_XDICTIONARY
360
97
102
}
330
2A
100
AcDbVisualStyle
  2
Flat
 70
     0
 71
     2
 72
     1
 73
     1
 90
        2
 40
-0.6
 41
30.0
 62
     5
 63
     7
421
 16777215
 74
     0
 91
        4
 64
     7
 65
   257
 75
     1
175
     1
 42
1.0
 92
        8
 66
     7
 43
1.0
 76
     1
 77
     6
 78
     2
 67
     7
 79
     5
170
     0
171
     0
290
     0
174
     0
 93
       13
 44
0.0
173
     0
291
     1
 45
0.0
  0
VISUALSTYLE
  5
2C
102
{ACAD_REACTORS
330
2A
102
}
102
{ACAD_XDICTIONARY
360
99
102
}
330
2A
100
AcDbVisualStyle
  2
FlatWithEdges
 70
     1
 71
     2
 72
     1
 73
     1
 90
        2
 40
-0.6
 41
30.0
 62
     5
 63
     7
421
 16777215
 74
     1
 91
        4
 64
     7
 65
   257
 75
     1
175
     1
 42
1.0
 92
        0
 66
   257
 43
1.0
 76
     1
 77
     6
 78
     2
 67
     7
 79
     5
170
     0
171
     0
290
     0
174
     0
 93
       13
 44
0.0
173
     0
291
     1
 45
0.0
  0
VISUALSTYLE
  5
2D
102
{ACAD_REACTORS
330
2A
102
}
102
{ACAD_XDICTIONARY
360
9B
102
}
330
2A
100
AcDbVisualStyle
  2
Gouraud
 70
     2
 71
     2
 72
     2
 73
     1
 90
        2
 40
-0.6
 41
30.0
 62
     5
 63
     7
421
 16777215
 74
     0
 91
        4
 64
     7
 65
   257
 75
     1
175
     1
 42
1.0
 92
        0
 66
     7
 43
1.0
 76
     1
 77
     6
 78
     2
 67
     7
 79
     5
170
     0
171
     0
290
     0
174
     0
 93
       13
 44
0.0
173
     0
291
     1
 45
0.0
  0
VISUALSTYLE
  5
2E
102
{ACAD_REACTORS
330
2A
102
}
102
{ACAD_XDICTIONARY
360
9D
102
}
330
2A
100
AcDbVisualStyle
  2
GouraudWithEdges
 70
     3
 71
     2
 72
     2
 73
     1
 90
        2
 40
-0.6
 41
30.0
 62
     5
 63
     7
421
 16777215
 74
     1
 91
        4
 64
     7
 65
   257
 75
     1
175
     1
 42
1.0
 92
        0
 66
   257
 43
1.0
 76
     1
 77
     6
 78
     2
 67
     7
 79
     5
170
     0
171
     0
290
     0
174
     0
 93
       13
 44
0.0
173
     0
291
     1
 45
0.0
  0
VISUALSTYLE
  5
38
102
{ACAD_REACTORS
330
2A
102
}
102
{ACAD_XDICTIONARY
360
B1
102
}
330
2A
100
AcDbVisualStyle
  2
Linepattern
 70
    14
 71
     2
 72
     2
 73
     0
 90
        0
 40
-0.6
 41
-30.0
 62
     5
 63
     7
421
 16777215
 74
     1
 91
        4
 64
     7
 65
   257
 75
     7
175
     7
 42
1.0
 92
        8
 66
     7
 43
1.0
 76
     1
 77
     6
 78
     2
 67
     7
 79
     5
170
     0
171
     0
290
     0
174
     0
 93
        1
 44
0.0
173
     0
291
     1
 45
0.0
  0
VISUALSTYLE
  5
33
102
{ACAD_REACTORS
330
2A
102
}
102
{ACAD_XDICTIONARY
360
A7
102
}
330
2A
100
AcDbVisualStyle
  2
Realistic
 70
     8
 71
     2
 72
     2
 73
     0
 90
        0
 40
-0.6
 41
-30.0
 62
     5
 63
     7
421
 16777215
 74
     1
 91
        0
 64
     7
 65
   257
 75
     1
175
     1
 42
1.0
 92
        8
 66
     8
424
  7895160
 43
1.0
 76
     1
 77
     6
 78
     2
 67
     7
 79
     5
170
     0
171
     0
290
     0
174
     0
 93
       13
 44
0.0
173
     0
291
     0
 45
0.0
  0
VISUALSTYLE
  5
37
102
{ACAD_REACTORS
330
2A
102
}
102
{ACAD_XDICTIONARY
360
AF
102
}
330
2A
100
AcDbVisualStyle
  2
Thicken
 70
    13
 71
     2
 72
     2
 73
     0
 90
        0
 40
-0.6
 41
-30.0
 62
     5
 63
     7
421
 16777215
 74
     1
 91
        4
 64
     7
 65
   257
 75
     1
175
     1
 42
1.0
 92
       12
 66
     7
 43
1.0
 76
     1
 77
     6
 78
     2
 67
     7
 79
     5
170
     0
171
     0
290
     0
174
     0
 93
        1
 44
0.0
173
     0
291
     1
 45
0.0
  0
DICTIONARY
  5
9F
330
2F
100
AcDbDictionary
280
     1
281
     1
  3
ACAD_XREC_ROUNDTRIP
360
A0
  0
DICTIONARY
  5
A3
330
31
100
AcDbDictionary
280
     1
281
     1
  3
ACAD_XREC_ROUNDTRIP
360
A4
  0
DICTIONARY
  5
A1
330
30
100
AcDbDictionary
280
     1
281
     1
  3
ACAD_XREC_ROUNDTRIP
360
A2
  0
DICTIONARY
  5
A5
330
32
100
AcDbDictionary
280
     1
281
     1
  3
ACAD_XREC_ROUNDTRIP
360
A6
  0
DICTIONARY
  5
AD
330
36
100
AcDbDictionary
280
     1
281
     1
  3
ACAD_XREC_ROUNDTRIP
360
AE
  0
DICTIONARY
  5
B5
330
3A
100
AcDbDictionary
280
     1
281
     1
  3
ACAD_XREC_ROUNDTRIP
360
B6
  0
DICTIONARY
  5
A9
330
34
100
AcDbDictionary
280
     1
281
     1
  3
ACAD_XREC_ROUNDTRIP
360
AA
  0
DICTIONARY
  5
AB
330
35
100
AcDbDictionary
280
     1
281
     1
  3
ACAD_XREC_ROUNDTRIP
360
AC
  0
DICTIONARY
  5
B3
330
39
100
AcDbDictionary
280
     1
281
     1
  3
ACAD_XREC_ROUNDTRIP
360
B4
  0
DICTIONARY
  5
97
330
2B
100
AcDbDictionary
280
     1
281
     1
  3
ACAD_XREC_ROUNDTRIP
360
98
  0
DICTIONARY
  5
99
330
2C
100
AcDbDictionary
280
     1
281
     1
  3
ACAD_XREC_ROUNDTRIP
360
9A
  0
DICTIONARY
  5
9B
330
2D
100
AcDbDictionary
280
     1
281
     1
  3
ACAD_XREC_ROUNDTRIP
360
9C
  0
DICTIONARY
  5
9D
330
2E
100
AcDbDictionary
280
     1
281
     1
  3
ACAD_XREC_ROUNDTRIP
360
9E
  0
DICTIONARY
  5
B1
330
38
100
AcDbDictionary
280
     1
281
     1
  3
ACAD_XREC_ROUNDTRIP
360
B2
  0
DICTIONARY
  5
A7
330
33
100
AcDbDictionary
280
     1
281
     1
  3
ACAD_XREC_ROUNDTRIP
360
A8
  0
DICTIONARY
  5
AF
330
37
100
AcDbDictionary
280
     1
281
     1
  3
ACAD_XREC_ROUNDTRIP
360
B0
  0
XRECORD
  5
A0
102
{ACAD_REACTORS
330
9F
102
}
330
9F
100
AcDbXrecord
280
     1
102
RTVSPropertyOp0
 70
     1
102
RTVSPropertyOp1
 70
     1
102
RTVSPropertyOp2
 70
     1
102
RTVSPropertyOp3
 70
     1
102
RTVSPropertyOp4
 70
     1
102
RTVSPropertyOp5
 70
     1
102
RTVSPropertyOp6
 70
     1
102
RTVSPropertyOp7
 70
     1
102
RTVSPropertyOp8
 70
     1
102
RTVSPropertyOp9
 70
     1
102
RTVSPropertyOp10
 70
     1
102
RTVSPropertyOp11
 70
     1
102
RTVSPropertyOp12
 70
     1
102
RTVSPropertyOp13
 70
     1
102
RTVSPropertyOp14
 70
     1
102
RTVSPropertyOp15
 70
     1
102
RTVSPropertyOp16
 70
     1
102
RTVSPropertyOp17
 70
     1
102
RTVSPropertyOp18
 70
     1
102
RTVSPropertyOp19
 70
     1
102
RTVSPropertyOp20
 70
     1
102
RTVSPropertyOp21
 70
     1
102
RTVSPropertyOp22
 70
     1
102
RTVSPropertyOp23
 70
     1
102
RTVSPropertyOp24
 70
     1
102
RTVSPropertyOp25
 70
     1
102
RTVSPropertyOp26
 70
     1
102
RTVSPropertyOp27
 70
     1
102
RTVSPropertyOp28
 70
     1
102
RTVSPropertyOp29
 70
     1
102
RTVSPropertyOp30
 70
     1
102
RTVSPropertyOp31
 70
     1
102
RTVSPropertyOp32
 70
     1
  0
XRECORD
  5
A4
102
{ACAD_REACTORS
330
A3
102
}
330
A3
100
AcDbXrecord
280
     1
102
RTVSPropertyOp0
 70
     1
102
RTVSPropertyOp1
 70
     1
102
RTVSPropertyOp2
 70
     1
102
RTVSPropertyOp3
 70
     1
102
RTVSPropertyOp4
 70
     1
102
RTVSPropertyOp5
 70
     1
102
RTVSPropertyOp6
 70
     1
102
RTVSPropertyOp7
 70
     1
102
RTVSPropertyOp8
 70
     1
102
RTVSPropertyOp9
 70
     1
102
RTVSPropertyOp10
 70
     1
102
RTVSPropertyOp11
 70
     1
102
RTVSPropertyOp12
 70
     1
102
RTVSPropertyOp13
 70
     1
102
RTVSPropertyOp14
 70
     1
102
RTVSPropertyOp15
 70
     1
102
RTVSPropertyOp16
 70
     1
102
RTVSPropertyOp17
 70
     1
102
RTVSPropertyOp18
 70
     1
102
RTVSPropertyOp19
 70
     1
102
RTVSPropertyOp20
 70
     1
102
RTVSPropertyOp21
 70
     1
102
RTVSPropertyOp22
 70
     1
102
RTVSPropertyOp23
 70
     1
102
RTVSPropertyOp24
 70
     1
102
RTVSPropertyOp25
 70
     1
102
RTVSPropertyOp26
 70
     1
102
RTVSPropertyOp27
 70
     1
102
RTVSPropertyOp28
 70
     1
102
RTVSPropertyOp29
 70
     1
102
RTVSPropertyOp30
 70
     1
102
RTVSPropertyOp31
 70
     1
102
RTVSPropertyOp32
 70
     1
  0
XRECORD
  5
A2
102
{ACAD_REACTORS
330
A1
102
}
330
A1
100
AcDbXrecord
280
     1
102
RTVSPropertyOp0
 70
     1
102
RTVSPropertyOp1
 70
     1
102
RTVSPropertyOp2
 70
     1
102
RTVSPropertyOp3
 70
     1
102
RTVSPropertyOp4
 70
     1
102
RTVSPropertyOp5
 70
     1
102
RTVSPropertyOp6
 70
     1
102
RTVSPropertyOp7
 70
     1
102
RTVSPropertyOp8
 70
     1
102
RTVSPropertyOp9
 70
     1
102
RTVSPropertyOp10
 70
     1
102
RTVSPropertyOp11
 70
     1
102
RTVSPropertyOp12
 70
     1
102
RTVSPropertyOp13
 70
     1
102
RTVSPropertyOp14
 70
     1
102
RTVSPropertyOp15
 70
     1
102
RTVSPropertyOp16
 70
     1
102
RTVSPropertyOp17
 70
     1
102
RTVSPropertyOp18
 70
     1
102
RTVSPropertyOp19
 70
     1
102
RTVSPropertyOp20
 70
     1
102
RTVSPropertyOp21
 70
     1
102
RTVSPropertyOp22
 70
     1
102
RTVSPropertyOp23
 70
     1
102
RTVSPropertyOp24
 70
     1
102
RTVSPropertyOp25
 70
     1
102
RTVSPropertyOp26
 70
     1
102
RTVSPropertyOp27
 70
     1
102
RTVSPropertyOp28
 70
     1
102
RTVSPropertyOp29
 70
     1
102
RTVSPropertyOp30
 70
     1
102
RTVSPropertyOp31
 70
     1
102
RTVSPropertyOp32
 70
     1
  0
XRECORD
  5
A6
102
{ACAD_REACTORS
330
A5
102
}
330
A5
100
AcDbXrecord
280
     1
102
RTVSPropertyOp0
 70
     1
102
RTVSPropertyOp1
 70
     1
102
RTVSPropertyOp2
 70
     1
102
RTVSPropertyOp3
 70
     1
102
RTVSPropertyOp4
 70
     1
102
RTVSPropertyOp5
 70
     1
102
RTVSPropertyOp6
 70
     1
102
RTVSPropertyOp7
 70
     1
102
RTVSPropertyOp8
 70
     1
102
RTVSPropertyOp9
 70
     1
102
RTVSPropertyOp10
 70
     1
102
RTVSPropertyOp11
 70
     1
102
RTVSPropertyOp12
 70
     1
102
RTVSPropertyOp13
 70
     1
102
RTVSPropertyOp14
 70
     1
102
RTVSPropertyOp15
 70
     1
102
RTVSPropertyOp16
 70
     1
102
RTVSPropertyOp17
 70
     1
102
RTVSPropertyOp18
 70
     1
102
RTVSPropertyOp19
 70
     1
102
RTVSPropertyOp20
 70
     1
102
RTVSPropertyOp21
 70
     1
102
RTVSPropertyOp22
 70
     1
102
RTVSPropertyOp23
 70
     1
102
RTVSPropertyOp24
 70
     1
102
RTVSPropertyOp25
 70
     1
102
RTVSPropertyOp26
 70
     1
102
RTVSPropertyOp27
 70
     1
102
RTVSPropertyOp28
 70
     1
102
RTVSPropertyOp29
 70
     1
102
RTVSPropertyOp30
 70
     1
102
RTVSPropertyOp31
 70
     1
102
RTVSPropertyOp32
 70
     1
  0
XRECORD
  5
AE
102
{ACAD_REACTORS
330
AD
102
}
330
AD
100
AcDbXrecord
280
     1
102
RTVSPropertyOp0
 70
     1
102
RTVSPropertyOp1
 70
     1
102
RTVSPropertyOp2
 70
     1
102
RTVSPropertyOp3
 70
     1
102
RTVSPropertyOp4
 70
     1
102
RTVSPropertyOp5
 70
     1
102
RTVSPropertyOp6
 70
     1
102
RTVSPropertyOp7
 70
     1
102
RTVSPropertyOp8
 70
     1
102
RTVSPropertyOp9
 70
     1
102
RTVSPropertyOp10
 70
     1
102
RTVSPropertyOp11
 70
     1
102
RTVSPropertyOp12
 70
     1
102
RTVSPropertyOp13
 70
     1
102
RTVSPropertyOp14
 70
     1
102
RTVSPropertyOp15
 70
     1
102
RTVSPropertyOp16
 70
     1
102
RTVSPropertyOp17
 70
     1
102
RTVSPropertyOp18
 70
     1
102
RTVSPropertyOp19
 70
     1
102
RTVSPropertyOp20
 70
     1
102
RTVSPropertyOp21
 70
     1
102
RTVSPropertyOp22
 70
     1
102
RTVSPropertyOp23
 70
     1
102
RTVSPropertyOp24
 70
     1
102
RTVSPropertyOp25
 70
     1
102
RTVSPropertyOp26
 70
     1
102
RTVSPropertyOp27
 70
     1
102
RTVSPropertyOp28
 70
     1
102
RTVSPropertyOp29
 70
     1
102
RTVSPropertyOp30
 70
     1
102
RTVSPropertyOp31
 70
     1
102
RTVSPropertyOp32
 70
     1
  0
XRECORD
  5
B6
102
{ACAD_REACTORS
330
B5
102
}
330
B5
100
AcDbXrecord
280
     1
102
RTVSPropertyOp0
 70
     1
102
RTVSPropertyOp1
 70
     1
102
RTVSPropertyOp2
 70
     1
102
RTVSPropertyOp3
 70
     1
102
RTVSPropertyOp4
 70
     1
102
RTVSPropertyOp5
 70
     1
102
RTVSPropertyOp6
 70
     1
102
RTVSPropertyOp7
 70
     1
102
RTVSPropertyOp8
 70
     1
102
RTVSPropertyOp9
 70
     1
102
RTVSPropertyOp10
 70
     1
102
RTVSPropertyOp11
 70
     1
102
RTVSPropertyOp12
 70
     1
102
RTVSPropertyOp13
 70
     1
102
RTVSPropertyOp14
 70
     1
102
RTVSPropertyOp15
 70
     1
102
RTVSPropertyOp16
 70
     1
102
RTVSPropertyOp17
 70
     1
102
RTVSPropertyOp18
 70
     1
102
RTVSPropertyOp19
 70
     1
102
RTVSPropertyOp20
 70
     1
102
RTVSPropertyOp21
 70
     1
102
RTVSPropertyOp22
 70
     1
102
RTVSPropertyOp23
 70
     1
102
RTVSPropertyOp24
 70
     1
102
RTVSPropertyOp25
 70
     1
102
RTVSPropertyOp26
 70
     1
102
RTVSPropertyOp27
 70
     1
102
RTVSPropertyOp28
 70
     1
102
RTVSPropertyOp29
 70
     1
102
RTVSPropertyOp30
 70
     1
102
RTVSPropertyOp31
 70
     1
102
RTVSPropertyOp32
 70
     1
  0
XRECORD
  5
AA
102
{ACAD_REACTORS
330
A9
102
}
330
A9
100
AcDbXrecord
280
     1
102
RTVSPropertyOp0
 70
     1
102
RTVSPropertyOp1
 70
     1
102
RTVSPropertyOp2
 70
     1
102
RTVSPropertyOp3
 70
     1
102
RTVSPropertyOp4
 70
     1
102
RTVSPropertyOp5
 70
     1
102
RTVSPropertyOp6
 70
     1
102
RTVSPropertyOp7
 70
     1
102
RTVSPropertyOp8
 70
     1
102
RTVSPropertyOp9
 70
     1
102
RTVSPropertyOp10
 70
     1
102
RTVSPropertyOp11
 70
     1
102
RTVSPropertyOp12
 70
     1
102
RTVSPropertyOp13
 70
     1
102
RTVSPropertyOp14
 70
     1
102
RTVSPropertyOp15
 70
     1
102
RTVSPropertyOp16
 70
     1
102
RTVSPropertyOp17
 70
     1
102
RTVSPropertyOp18
 70
     1
102
RTVSPropertyOp19
 70
     1
102
RTVSPropertyOp20
 70
     1
102
RTVSPropertyOp21
 70
     1
102
RTVSPropertyOp22
 70
     1
102
RTVSPropertyOp23
 70
     1
102
RTVSPropertyOp24
 70
     1
102
RTVSPropertyOp25
 70
     1
102
RTVSPropertyOp26
 70
     1
102
RTVSPropertyOp27
 70
     1
102
RTVSPropertyOp28
 70
     1
102
RTVSPropertyOp29
 70
     1
102
RTVSPropertyOp30
 70
     1
102
RTVSPropertyOp31
 70
     1
102
RTVSPropertyOp32
 70
     1
  0
XRECORD
  5
AC
102
{ACAD_REACTORS
330
AB
102
}
330
AB
100
AcDbXrecord
280
     1
102
RTVSPropertyOp0
 70
     1
102
RTVSPropertyOp1
 70
     1
102
RTVSPropertyOp2
 70
     1
102
RTVSPropertyOp3
 70
     1
102
RTVSPropertyOp4
 70
     1
102
RTVSPropertyOp5
 70
     1
102
RTVSPropertyOp6
 70
     1
102
RTVSPropertyOp7
 70
     1
102
RTVSPropertyOp8
 70
     1
102
RTVSPropertyOp9
 70
     1
102
RTVSPropertyOp10
 70
     1
102
RTVSPropertyOp11
 70
     1
102
RTVSPropertyOp12
 70
     1
102
RTVSPropertyOp13
 70
     1
102
RTVSPropertyOp14
 70
     1
102
RTVSPropertyOp15
 70
     1
102
RTVSPropertyOp16
 70
     1
102
RTVSPropertyOp17
 70
     1
102
RTVSPropertyOp18
 70
     1
102
RTVSPropertyOp19
 70
     1
102
RTVSPropertyOp20
 70
     1
102
RTVSPropertyOp21
 70
     1
102
RTVSPropertyOp22
 70
     1
102
RTVSPropertyOp23
 70
     1
102
RTVSPropertyOp24
 70
     1
102
RTVSPropertyOp25
 70
     1
102
RTVSPropertyOp26
 70
     1
102
RTVSPropertyOp27
 70
     1
102
RTVSPropertyOp28
 70
     1
102
RTVSPropertyOp29
 70
     1
102
RTVSPropertyOp30
 70
     1
102
RTVSPropertyOp31
 70
     1
102
RTVSPropertyOp32
 70
     1
  0
XRECORD
  5
B4
102
{ACAD_REACTORS
330
B3
102
}
330
B3
100
AcDbXrecord
280
     1
102
RTVSPropertyOp0
 70
     1
102
RTVSPropertyOp1
 70
     1
102
RTVSPropertyOp2
 70
     1
102
RTVSPropertyOp3
 70
     1
102
RTVSPropertyOp4
 70
     1
102
RTVSPropertyOp5
 70
     1
102
RTVSPropertyOp6
 70
     1
102
RTVSPropertyOp7
 70
     1
102
RTVSPropertyOp8
 70
     1
102
RTVSPropertyOp9
 70
     1
102
RTVSPropertyOp10
 70
     1
102
RTVSPropertyOp11
 70
     1
102
RTVSPropertyOp12
 70
     1
102
RTVSPropertyOp13
 70
     1
102
RTVSPropertyOp14
 70
     1
102
RTVSPropertyOp15
 70
     1
102
RTVSPropertyOp16
 70
     1
102
RTVSPropertyOp17
 70
     1
102
RTVSPropertyOp18
 70
     1
102
RTVSPropertyOp19
 70
     1
102
RTVSPropertyOp20
 70
     1
102
RTVSPropertyOp21
 70
     1
102
RTVSPropertyOp22
 70
     1
102
RTVSPropertyOp23
 70
     1
102
RTVSPropertyOp24
 70
     1
102
RTVSPropertyOp25
 70
     1
102
RTVSPropertyOp26
 70
     1
102
RTVSPropertyOp27
 70
     1
102
RTVSPropertyOp28
 70
     1
102
RTVSPropertyOp29
 70
     1
102
RTVSPropertyOp30
 70
     1
102
RTVSPropertyOp31
 70
     1
102
RTVSPropertyOp32
 70
     1
  0
XRECORD
  5
98
102
{ACAD_REACTORS
330
97
102
}
330
97
100
AcDbXrecord
280
     1
102
RTVSPropertyOp0
 70
     1
102
RTVSPropertyOp1
 70
     1
102
RTVSPropertyOp2
 70
     1
102
RTVSPropertyOp3
 70
     1
102
RTVSPropertyOp4
 70
     1
102
RTVSPropertyOp5
 70
     1
102
RTVSPropertyOp6
 70
     1
102
RTVSPropertyOp7
 70
     1
102
RTVSPropertyOp8
 70
     1
102
RTVSPropertyOp9
 70
     1
102
RTVSPropertyOp10
 70
     1
102
RTVSPropertyOp11
 70
     1
102
RTVSPropertyOp12
 70
     1
102
RTVSPropertyOp13
 70
     1
102
RTVSPropertyOp14
 70
     1
102
RTVSPropertyOp15
 70
     1
102
RTVSPropertyOp16
 70
     1
102
RTVSPropertyOp17
 70
     1
102
RTVSPropertyOp18
 70
     1
102
RTVSPropertyOp19
 70
     1
102
RTVSPropertyOp20
 70
     1
102
RTVSPropertyOp21
 70
     1
102
RTVSPropertyOp22
 70
     1
102
RTVSPropertyOp23
 70
     1
102
RTVSPropertyOp24
 70
     1
102
RTVSPropertyOp25
 70
     1
102
RTVSPropertyOp26
 70
     1
102
RTVSPropertyOp27
 70
     1
102
RTVSPropertyOp28
 70
     1
102
RTVSPropertyOp29
 70
     1
102
RTVSPropertyOp30
 70
     1
102
RTVSPropertyOp31
 70
     1
102
RTVSPropertyOp32
 70
     1
  0
XRECORD
  5
9A
102
{ACAD_REACTORS
330
99
102
}
330
99
100
AcDbXrecord
280
     1
102
RTVSPropertyOp0
 70
     1
102
RTVSPropertyOp1
 70
     1
102
RTVSPropertyOp2
 70
     1
102
RTVSPropertyOp3
 70
     1
102
RTVSPropertyOp4
 70
     1
102
RTVSPropertyOp5
 70
     1
102
RTVSPropertyOp6
 70
     1
102
RTVSPropertyOp7
 70
     1
102
RTVSPropertyOp8
 70
     1
102
RTVSPropertyOp9
 70
     1
102
RTVSPropertyOp10
 70
     1
102
RTVSPropertyOp11
 70
     1
102
RTVSPropertyOp12
 70
     1
102
RTVSPropertyOp13
 70
     1
102
RTVSPropertyOp14
 70
     1
102
RTVSPropertyOp15
 70
     1
102
RTVSPropertyOp16
 70
     1
102
RTVSPropertyOp17
 70
     1
102
RTVSPropertyOp18
 70
     1
102
RTVSPropertyOp19
 70
     1
102
RTVSPropertyOp20
 70
     1
102
RTVSPropertyOp21
 70
     1
102
RTVSPropertyOp22
 70
     1
102
RTVSPropertyOp23
 70
     1
102
RTVSPropertyOp24
 70
     1
102
RTVSPropertyOp25
 70
     1
102
RTVSPropertyOp26
 70
     1
102
RTVSPropertyOp27
 70
     1
102
RTVSPropertyOp28
 70
     1
102
RTVSPropertyOp29
 70
     1
102
RTVSPropertyOp30
 70
     1
102
RTVSPropertyOp31
 70
     1
102
RTVSPropertyOp32
 70
     1
  0
XRECORD
  5
9C
102
{ACAD_REACTORS
330
9B
102
}
330
9B
100
AcDbXrecord
280
     1
102
RTVSPropertyOp0
 70
     1
102
RTVSPropertyOp1
 70
     1
102
RTVSPropertyOp2
 70
     1
102
RTVSPropertyOp3
 70
     1
102
RTVSPropertyOp4
 70
     1
102
RTVSPropertyOp5
 70
     1
102
RTVSPropertyOp6
 70
     1
102
RTVSPropertyOp7
 70
     1
102
RTVSPropertyOp8
 70
     1
102
RTVSPropertyOp9
 70
     1
102
RTVSPropertyOp10
 70
     1
102
RTVSPropertyOp11
 70
     1
102
RTVSPropertyOp12
 70
     1
102
RTVSPropertyOp13
 70
     1
102
RTVSPropertyOp14
 70
     1
102
RTVSPropertyOp15
 70
     1
102
RTVSPropertyOp16
 70
     1
102
RTVSPropertyOp17
 70
     1
102
RTVSPropertyOp18
 70
     1
102
RTVSPropertyOp19
 70
     1
102
RTVSPropertyOp20
 70
     1
102
RTVSPropertyOp21
 70
     1
102
RTVSPropertyOp22
 70
     1
102
RTVSPropertyOp23
 70
     1
102
RTVSPropertyOp24
 70
     1
102
RTVSPropertyOp25
 70
     1
102
RTVSPropertyOp26
 70
     1
102
RTVSPropertyOp27
 70
     1
102
RTVSPropertyOp28
 70
     1
102
RTVSPropertyOp29
 70
     1
102
RTVSPropertyOp30
 70
     1
102
RTVSPropertyOp31
 70
     1
102
RTVSPropertyOp32
 70
     1
  0
XRECORD
  5
9E
102
{ACAD_REACTORS
330
9D
102
}
330
9D
100
AcDbXrecord
280
     1
102
RTVSPropertyOp0
 70
     1
102
RTVSPropertyOp1
 70
     1
102
RTVSPropertyOp2
 70
     1
102
RTVSPropertyOp3
 70
     1
102
RTVSPropertyOp4
 70
     1
102
RTVSPropertyOp5
 70
     1
102
RTVSPropertyOp6
 70
     1
102
RTVSPropertyOp7
 70
     1
102
RTVSPropertyOp8
 70
     1
102
RTVSPropertyOp9
 70
     1
102
RTVSPropertyOp10
 70
     1
102
RTVSPropertyOp11
 70
     1
102
RTVSPropertyOp12
 70
     1
102
RTVSPropertyOp13
 70
     1
102
RTVSPropertyOp14
 70
     1
102
RTVSPropertyOp15
 70
     1
102
RTVSPropertyOp16
 70
     1
102
RTVSPropertyOp17
 70
     1
102
RTVSPropertyOp18
 70
     1
102
RTVSPropertyOp19
 70
     1
102
RTVSPropertyOp20
 70
     1
102
RTVSPropertyOp21
 70
     1
102
RTVSPropertyOp22
 70
     1
102
RTVSPropertyOp23
 70
     1
102
RTVSPropertyOp24
 70
     1
102
RTVSPropertyOp25
 70
     1
102
RTVSPropertyOp26
 70
     1
102
RTVSPropertyOp27
 70
     1
102
RTVSPropertyOp28
 70
     1
102
RTVSPropertyOp29
 70
     1
102
RTVSPropertyOp30
 70
     1
102
RTVSPropertyOp31
 70
     1
102
RTVSPropertyOp32
 70
     1
  0
XRECORD
  5
B2
102
{ACAD_REACTORS
330
B1
102
}
330
B1
100
AcDbXrecord
280
     1
102
RTVSPropertyOp0
 70
     1
102
RTVSPropertyOp1
 70
     1
102
RTVSPropertyOp2
 70
     1
102
RTVSPropertyOp3
 70
     1
102
RTVSPropertyOp4
 70
     1
102
RTVSPropertyOp5
 70
     1
102
RTVSPropertyOp6
 70
     1
102
RTVSPropertyOp7
 70
     1
102
RTVSPropertyOp8
 70
     1
102
RTVSPropertyOp9
 70
     1
102
RTVSPropertyOp10
 70
     1
102
RTVSPropertyOp11
 70
     1
102
RTVSPropertyOp12
 70
     1
102
RTVSPropertyOp13
 70
     1
102
RTVSPropertyOp14
 70
     1
102
RTVSPropertyOp15
 70
     1
102
RTVSPropertyOp16
 70
     1
102
RTVSPropertyOp17
 70
     1
102
RTVSPropertyOp18
 70
     1
102
RTVSPropertyOp19
 70
     1
102
RTVSPropertyOp20
 70
     1
102
RTVSPropertyOp21
 70
     1
102
RTVSPropertyOp22
 70
     1
102
RTVSPropertyOp23
 70
     1
102
RTVSPropertyOp24
 70
     1
102
RTVSPropertyOp25
 70
     1
102
RTVSPropertyOp26
 70
     1
102
RTVSPropertyOp27
 70
     1
102
RTVSPropertyOp28
 70
     1
102
RTVSPropertyOp29
 70
     1
102
RTVSPropertyOp30
 70
     1
102
RTVSPropertyOp31
 70
     1
102
RTVSPropertyOp32
 70
     1
  0
XRECORD
  5
A8
102
{ACAD_REACTORS
330
A7
102
}
330
A7
100
AcDbXrecord
280
     1
102
RTVSPropertyOp0
 70
     1
102
RTVSPropertyOp1
 70
     1
102
RTVSPropertyOp2
 70
     1
102
RTVSPropertyOp3
 70
     1
102
RTVSPropertyOp4
 70
     1
102
RTVSPropertyOp5
 70
     1
102
RTVSPropertyOp6
 70
     1
102
RTVSPropertyOp7
 70
     1
102
RTVSPropertyOp8
 70
     1
102
RTVSPropertyOp9
 70
     1
102
RTVSPropertyOp10
 70
     1
102
RTVSPropertyOp11
 70
     1
102
RTVSPropertyOp12
 70
     1
102
RTVSPropertyOp13
 70
     1
102
RTVSPropertyOp14
 70
     1
102
RTVSPropertyOp15
 70
     1
102
RTVSPropertyOp16
 70
     1
102
RTVSPropertyOp17
 70
     1
102
RTVSPropertyOp18
 70
     1
102
RTVSPropertyOp19
 70
     1
102
RTVSPropertyOp20
 70
     1
102
RTVSPropertyOp21
 70
     1
102
RTVSPropertyOp22
 70
     1
102
RTVSPropertyOp23
 70
     1
102
RTVSPropertyOp24
 70
     1
102
RTVSPropertyOp25
 70
     1
102
RTVSPropertyOp26
 70
     1
102
RTVSPropertyOp27
 70
     1
102
RTVSPropertyOp28
 70
     1
102
RTVSPropertyOp29
 70
     1
102
RTVSPropertyOp30
 70
     1
102
RTVSPropertyOp31
 70
     1
102
RTVSPropertyOp32
 70
     1
  0
XRECORD
  5
B0
102
{ACAD_REACTORS
330
AF
102
}
330
AF
100
AcDbXrecord
280
     1
102
RTVSPropertyOp0
 70
     1
102
RTVSPropertyOp1
 70
     1
102
RTVSPropertyOp2
 70
     1
102
RTVSPropertyOp3
 70
     1
102
RTVSPropertyOp4
 70
     1
102
RTVSPropertyOp5
 70
     1
102
RTVSPropertyOp6
 70
     1
102
RTVSPropertyOp7
 70
     1
102
RTVSPropertyOp8
 70
     1
102
RTVSPropertyOp9
 70
     1
102
RTVSPropertyOp10
 70
     1
102
RTVSPropertyOp11
 70
     1
102
RTVSPropertyOp12
 70
     1
102
RTVSPropertyOp13
 70
     1
102
RTVSPropertyOp14
 70
     1
102
RTVSPropertyOp15
 70
     1
102
RTVSPropertyOp16
 70
     1
102
RTVSPropertyOp17
 70
     1
102
RTVSPropertyOp18
 70
     1
102
RTVSPropertyOp19
 70
     1
102
RTVSPropertyOp20
 70
     1
102
RTVSPropertyOp21
 70
     1
102
RTVSPropertyOp22
 70
     1
102
RTVSPropertyOp23
 70
     1
102
RTVSPropertyOp24
 70
     1
102
RTVSPropertyOp25
 70
     1
102
RTVSPropertyOp26
 70
     1
102
RTVSPropertyOp27
 70
     1
102
RTVSPropertyOp28
 70
     1
102
RTVSPropertyOp29
 70
     1
102
RTVSPropertyOp30
 70
     1
102
RTVSPropertyOp31
 70
     1
102
RTVSPropertyOp32
 70
     1
  0
ENDSEC
  0
EOF
