  0
SECTION
  2
HEADER
  9
$ACADVER
  1
AC1021
  9
$ACADMAINTVER
 70
    25
  9
$DWGCODEPAGE
  3
ANSI_1252
  9
$INSBASE
 10
0.0
 20
0.0
 30
0.0
  9
$EXTMIN
 10
-187.337
 20
-91.6665
 30
0.0
  9
$EXTMAX
 10
75.5981
 20
107.9699
 30
0.0
  9
$LIMMIN
 10
0.0
 20
0.0
  9
$LIMMAX
 10
12.0
 20
9.0
  9
$ORTHOMODE
 70
     0
  9
$REGENMODE
 70
     1
  9
$FILLMODE
 70
     1
  9
$QTEXTMODE
 70
     0
  9
$MIRRTEXT
 70
     1
  9
$LTSCALE
 40
1.0
  9
$ATTMODE
 70
     1
  9
$TEXTSIZE
 40
0.2
  9
$TRACEWID
 40
0.05
  9
$TEXTSTYLE
  7
Standard
  9
$CLAYER
  8
0
  9
$CELTYPE
  6
ByLayer
  9
$CECOLOR
 62
   256
  9
$CELTSCALE
 40
1.0
  9
$DISPSILH
 70
     0
  9
$DIMSCALE
 40
1.0
  9
$DIMASZ
 40
0.18
  9
$DIMEXO
 40
0.0625
  9
$DIMDLI
 40
0.38
  9
$DIMRND
 40
0.0
  9
$DIMDLE
 40
0.0
  9
$DIMEXE
 40
0.18
  9
$DIMTP
 40
0.0
  9
$DIMTM
 40
0.0
  9
$DIMTXT
 40
0.18
  9
$DIMCEN
 40
0.09
  9
$DIMTSZ
 40
0.0
  9
$DIMTOL
 70
     0
  9
$DIMLIM
 70
     0
  9
$DIMTIH
 70
     1
  9
$DIMTOH
 70
     1
  9
$DIMSE1
 70
     0
  9
$DIMSE2
 70
     0
  9
$DIMTAD
 70
     0
  9
$DIMZIN
 70
     0
  9
$DIMBLK
  1

  9
$DIMASO
 70
     1
  9
$DIMSHO
 70
     1
  9
$DIMPOST
  1

  9
$DIMAPOST
  1

  9
$DIMALT
 70
     0
  9
$DIMALTD
 70
     2
  9
$DIMALTF
 40
25.4
  9
$DIMLFAC
 40
1.0
  9
$DIMTOFL
 70
     0
  9
$DIMTVP
 40
0.0
  9
$DIMTIX
 70
     0
  9
$DIMSOXD
 70
     0
  9
$DIMSAH
 70
     0
  9
$DIMBLK1
  1

  9
$DIMBLK2
  1

  9
$DIMSTYLE
  2
Standard
  9
$DIMCLRD
 70
     0
  9
$DIMCLRE
 70
     0
  9
$DIMCLRT
 70
     0
  9
$DIMTFAC
 40
1.0
  9
$DIMGAP
 40
0.09
  9
$DIMJUST
 70
     0
  9
$DIMSD1
 70
     0
  9
$DIMSD2
 70
     0
  9
$DIMTOLJ
 70
     1
  9
$DIMTZIN
 70
     0
  9
$DIMALTZ
 70
     0
  9
$DIMALTTZ
 70
     0
  9
$DIMUPT
 70
     0
  9
$DIMDEC
 70
     4
  9
$DIMTDEC
 70
     4
  9
$DIMALTU
 70
     2
  9
$DIMALTTD
 70
     2
  9
$DIMTXSTY
  7
Standard
  9
$DIMAUNIT
 70
     0
  9
$DIMADEC
 70
     0
  9
$DIMALTRND
 40
0.0
  9
$DIMAZIN
 70
     0
  9
$DIMDSEP
 70
    46
  9
$DIMATFIT
 70
     3
  9
$DIMFRAC
 70
     0
  9
$DIMLDRBLK
  1

  9
$DIMLUNIT
 70
     2
  9
$DIMLWD
 70
    -2
  9
$DIMLWE
 70
    -2
  9
$DIMTMOVE
 70
     0
  9
$DIMFXL
 40
1.0
  9
$DIMFXLON
 70
     0
  9
$DIMJOGANG
 40
0.7853981633974483
  9
$DIMTFILL
 70
     0
  9
$DIMTFILLCLR
 70
     0
  9
$DIMARCSYM
 70
     0
  9
$DIMLTYPE
  6

  9
$DIMLTEX1
  6

  9
$DIMLTEX2
  6

  9
$LUNITS
 70
     2
  9
$LUPREC
 70
     4
  9
$SKETCHINC
 40
0.1
  9
$FILLETRAD
 40
0.5
  9
$AUNITS
 70
     0
  9
$AUPREC
 70
     0
  9
$MENU
  1
.
  9
$ELEVATION
 40
0.0
  9
$PELEVATION
 40
0.0
  9
$THICKNESS
 40
0.0
  9
$LIMCHECK
 70
     0
  9
$CHAMFERA
 40
0.5
  9
$CHAMFERB
 40
0.5
  9
$CHAMFERC
 40
1.0
  9
$CHAMFERD
 40
0.0
  9
$SKPOLY
 70
     0
  9
$TDCREATE
 40
2458492.807768704
  9
$TDUCREATE
 40
2458492.807768704
  9
$TDUPDATE
 40
2458492.807769421
  9
$TDUUPDATE
 40
2458492.807769421
  9
$TDINDWG
 40
0.0000000116
  9
$TDUSRTIMER
 40
0.0000000116
  9
$USRTIMER
 70
     1
  9
$ANGBASE
 50
0.0
  9
$ANGDIR
 70
     0
  9
$PDMODE
 70
     0
  9
$PDSIZE
 40
0.0
  9
$PLINEWID
 40
0.0
  9
$SPLFRAME
 70
     0
  9
$SPLINETYPE
 70
     6
  9
$SPLINESEGS
 70
     8
  9
$HANDSEED
  5
135
  9
$SURFTAB1
 70
     6
  9
$SURFTAB2
 70
     6
  9
$SURFTYPE
 70
     6
  9
$SURFU
 70
     6
  9
$SURFV
 70
     6
  9
$UCSBASE
  2

  9
$UCSNAME
  2

  9
$UCSORG
 10
0.0
 20
0.0
 30
0.0
  9
$UCSXDIR
 10
1.0
 20
0.0
 30
0.0
  9
$UCSYDIR
 10
0.0
 20
1.0
 30
0.0
  9
$UCSORTHOREF
  2

  9
$UCSORTHOVIEW
 70
     0
  9
$UCSORGTOP
 10
0.0
 20
0.0
 30
0.0
  9
$UCSORGBOTTOM
 10
0.0
 20
0.0
 30
0.0
  9
$UCSORGLEFT
 10
0.0
 20
0.0
 30
0.0
  9
$UCSORGRIGHT
 10
0.0
 20
0.0
 30
0.0
  9
$UCSORGFRONT
 10
0.0
 20
0.0
 30
0.0
  9
$UCSORGBACK
 10
0.0
 20
0.0
 30
0.0
  9
$PUCSBASE
  2

  9
$PUCSNAME
  2

  9
$PUCSORG
 10
0.0
 20
0.0
 30
0.0
  9
$PUCSXDIR
 10
1.0
 20
0.0
 30
0.0
  9
$PUCSYDIR
 10
0.0
 20
1.0
 30
0.0
  9
$PUCSORTHOREF
  2

  9
$PUCSORTHOVIEW
 70
     0
  9
$PUCSORGTOP
 10
0.0
 20
0.0
 30
0.0
  9
$PUCSORGBOTTOM
 10
0.0
 20
0.0
 30
0.0
  9
$PUCSORGLEFT
 10
0.0
 20
0.0
 30
0.0
  9
$PUCSORGRIGHT
 10
0.0
 20
0.0
 30
0.0
  9
$PUCSORGFRONT
 10
0.0
 20
0.0
 30
0.0
  9
$PUCSORGBACK
 10
0.0
 20
0.0
 30
0.0
  9
$USERI1
 70
     0
  9
$USERI2
 70
     0
  9
$USERI3
 70
     0
  9
$USERI4
 70
     0
  9
$USERI5
 70
     0
  9
$USERR1
 40
0.0
  9
$USERR2
 40
0.0
  9
$USERR3
 40
0.0
  9
$USERR4
 40
0.0
  9
$USERR5
 40
0.0
  9
$WORLDVIEW
 70
     1
  9
$SHADEDGE
 70
     3
  9
$SHADEDIF
 70
    70
  9
$TILEMODE
 70
     1
  9
$MAXACTVP
 70
    64
  9
$PINSBASE
 10
0.0
 20
0.0
 30
0.0
  9
$PLIMCHECK
 70
     0
  9
$PEXTMIN
 10
1.000000000000000E+20
 20
1.000000000000000E+20
 30
1.000000000000000E+20
  9
$PEXTMAX
 10
-1.000000000000000E+20
 20
-1.000000000000000E+20
 30
-1.000000000000000E+20
  9
$PLIMMIN
 10
0.0
 20
0.0
  9
$PLIMMAX
 10
12.0
 20
9.0
  9
$UNITMODE
 70
     0
  9
$VISRETAIN
 70
     1
  9
$PLINEGEN
 70
     0
  9
$PSLTSCALE
 70
     1
  9
$TREEDEPTH
 70
  3020
  9
$CMLSTYLE
  2
Standard
  9
$CMLJUST
 70
     0
  9
$CMLSCALE
 40
1.0
  9
$PROXYGRAPHICS
 70
     1
  9
$MEASUREMENT
 70
     0
  9
$CELWEIGHT
370
    -1
  9
$ENDCAPS
280
     0
  9
$JOINSTYLE
280
     0
  9
$LWDISPLAY
290
     0
  9
$INSUNITS
 70
     4
  9
$HYPERLINKBASE
  1

  9
$STYLESHEET
  1

  9
$XEDIT
290
     1
  9
$CEPSNTYPE
380
     0
  9
$PSTYLEMODE
290
     1
  9
$FINGERPRINTGUID
  2
{9F0A87B5-C3C5-40F0-B6D4-0EC864321432}
  9
$VERSIONGUID
  2
{FAEB1C32-E019-11D5-929B-00C0DF256EC4}
  9
$EXTNAMES
290
     1
  9
$PSVPSCALE
 40
0.0
  9
$OLESTARTUP
290
     0
  9
$SORTENTS
280
   127
  9
$INDEXCTL
280
     0
  9
$HIDETEXT
280
     1
  9
$XCLIPFRAME
290
     0
  9
$HALOGAP
280
     0
  9
$OBSCOLOR
 70
   257
  9
$OBSLTYPE
280
     0
  9
$INTERSECTIONDISPLAY
280
     0
  9
$INTERSECTIONCOLOR
 70
   257
  9
$DIMASSOC
280
     2
  9
$PROJECTNAME
  1

  9
$CAMERADISPLAY
290
     0
  9
$LENSLENGTH
 40
50.0
  9
$CAMERAHEIGHT
 40
0.0
  9
$STEPSPERSEC
 40
2.0
  9
$STEPSIZE
 40
6.0
  9
$3DDWFPREC
 40
2.0
  9
$PSOLWIDTH
 40
0.25
  9
$PSOLHEIGHT
 40
4.0
  9
$LOFTANG1
 40
1.570796326794897
  9
$LOFTANG2
 40
1.570796326794897
  9
$LOFTMAG1
 40
0.0
  9
$LOFTMAG2
 40
0.0
  9
$LOFTPARAM
 70
     7
  9
$LOFTNORMALS
280
     1
  9
$LATITUDE
 40
37.795
  9
$LONGITUDE
 40
-122.394
  9
$NORTHDIRECTION
 40
0.0
  9
$TIMEZONE
 70
 -8000
  9
$LIGHTGLYPHDISPLAY
280
     1
  9
$TILEMODELIGHTSYNCH
280
     1
  9
$SOLIDHIST
280
     1
  9
$SHOWHIST
280
     1
  9
$DWFFRAME
280
     2
  9
$DGNFRAME
280
     2
  9
$REALWORLDSCALE
290
     1
  9
$INTERFERECOLOR
 62
   256
  9
$CSHADOW
280
     0
  9
$SHADOWPLANELOCATION
 40
0.0
  0
ENDSEC
  0
SECTION
  2
CLASSES
  0
CLASS
  1
ACDBDICTIONARYWDFLT
  2
AcDbDictionaryWithDefault
  3
ObjectDBX Classes
 90
        0
 91
        4
280
     0
281
     0
  0
CLASS
  1
VISUALSTYLE
  2
AcDbVisualStyle
  3
ObjectDBX Classes
 90
     4095
 91
        4
280
     0
281
     0
  0
CLASS
  1
MATERIAL
  2
AcDbMaterial
  3
ObjectDBX Classes
 90
     1153
 91
        4
280
     0
281
     0
  0
ENDSEC
  0
SECTION
  2
TABLES
  0
TABLE
  2
VPORT
  5
8
330
0
100
AcDbSymbolTable
 70
     1
  0
VPORT
  5
29
330
8
100
AcDbSymbolTableRecord
100
AcDbViewportTableRecord
  2
*Active
 70
     0
 10
0.0
 20
0.0
 11
1.0
 21
1.0
 12
10.42990654205607
 22
4.5
 13
0.0
 23
0.0
 14
0.5
 24
0.5
 15
0.5
 25
0.5
 16
0.0
 26
0.0
 36
1.0
 17
0.0
 27
0.0
 37
0.0
 40
9.0
 41
1.972972972850329
 42
50.0
 43
0.0
 44
0.0
 50
0.0
 51
0.0
 71
     0
 72
   100
 73
     1
 74
     3
 75
     0
 76
     0
 77
     0
 78
     0
281
     0
 65
     1
110
0.0
120
0.0
130
0.0
111
1.0
121
0.0
131
0.0
112
0.0
122
1.0
132
0.0
 79
     0
146
0.0
 60
     3
 61
     5
292
     1
282
     1
141
0.0
142
0.0
 63
   250
  0
ENDTAB
  0
TABLE
  2
LTYPE
  5
5
330
0
100
AcDbSymbolTable
 70
     1
  0
LTYPE
  5
14
330
5
100
AcDbSymbolTableRecord
100
AcDbLinetypeTableRecord
  2
ByBlock
 70
     0
  3

 72
    65
 73
     0
 40
0.0
  0
LTYPE
  5
15
330
5
100
AcDbSymbolTableRecord
100
AcDbLinetypeTableRecord
  2
ByLayer
 70
     0
  3

 72
    65
 73
     0
 40
0.0
  0
LTYPE
  5
16
330
5
100
AcDbSymbolTableRecord
100
AcDbLinetypeTableRecord
  2
Continuous
 70
     0
  3
Solid line
 72
    65
 73
     0
 40
0.0
  0
ENDTAB
  0
TABLE
  2
LAYER
  5
2
330
0
100
AcDbSymbolTable
 70
     2
  0
LAYER
  5
10
330
2
100
AcDbSymbolTableRecord
100
AcDbLayerTableRecord
  2
0
 70
     0
 62
     7
  6
Continuous
370
    -3
390
F
347
3E
  0
LAYER
  5
40
330
2
100
AcDbSymbolTableRecord
100
AcDbLayerTableRecord
  2
layer 1
 70
     0
 62
     7
  6
Continuous
370
    -3
390
F
347
3E
  0
ENDTAB
  0
TABLE
  2
STYLE
  5
3
330
0
100
AcDbSymbolTable
 70
     1
  0
STYLE
  5
11
330
3
100
AcDbSymbolTableRecord
100
AcDbTextStyleTableRecord
  2
Standard
 70
     0
 40
0.0
 41
1.0
 50
0.0
 71
     0
 42
0.2
  3
txt
  4

  0
ENDTAB
  0
TABLE
  2
VIEW
  5
6
330
0
100
AcDbSymbolTable
 70
     0
  0
ENDTAB
  0
TABLE
  2
UCS
  5
7
330
0
100
AcDbSymbolTable
 70
     0
  0
ENDTAB
  0
TABLE
  2
APPID
  5
9
330
0
100
AcDbSymbolTable
 70
     2
  0
APPID
  5
12
330
9
100
AcDbSymbolTableRecord
100
AcDbRegAppTableRecord
  2
ACAD
 70
     0
  0
APPID
  5
3F
330
9
100
AcDbSymbolTableRecord
100
AcDbRegAppTableRecord
  2
ODA
 70
     0
  0
ENDTAB
  0
TABLE
  2
DIMSTYLE
  5
A
330
0
100
AcDbSymbolTable
 70
     1
100
AcDbDimStyleTable
  0
DIMSTYLE
105
27
330
A
100
AcDbSymbolTableRecord
100
AcDbDimStyleTableRecord
  2
Standard
 70
     0
178
     0
340
11
  0
ENDTAB
  0
TABLE
  2
BLOCK_RECORD
  5
1
330
0
100
AcDbSymbolTable
 70
     1
  0
BLOCK_RECORD
  5
1F
330
1
100
AcDbSymbolTableRecord
100
AcDbBlockTableRecord
  2
*Model_Space
340
22
 70
     0
280
     1
281
     0
  0
BLOCK_RECORD
  5
1B
330
1
100
AcDbSymbolTableRecord
100
AcDbBlockTableRecord
  2
*Paper_Space
340
1E
 70
     0
280
     1
281
     0
  0
BLOCK_RECORD
  5
23
330
1
100
AcDbSymbolTableRecord
100
AcDbBlockTableRecord
  2
*Paper_Space0
340
26
 70
     0
280
     1
281
     0
  0
ENDTAB
  0
ENDSEC
  0
SECTION
  2
BLOCKS
  0
BLOCK
  5
20
330
1F
100
AcDbEntity
  8
0
100
AcDbBlockBegin
  2
*Model_Space
 70
     0
 10
0.0
 20
0.0
 30
0.0
  3
*Model_Space
  1

  0
ENDBLK
  5
21
330
1F
100
AcDbEntity
  8
0
100
AcDbBlockEnd
  0
BLOCK
  5
1C
330
1B
100
AcDbEntity
 67
     1
  8
0
100
AcDbBlockBegin
  2
*Paper_Space
 70
     0
 10
0.0
 20
0.0
 30
0.0
  3
*Paper_Space
  1

  0
ENDBLK
  5
1D
330
1B
100
AcDbEntity
 67
     1
  8
0
100
AcDbBlockEnd
  0
BLOCK
  5
24
330
23
100
AcDbEntity
  8
0
100
AcDbBlockBegin
  2
*Paper_Space0
 70
     0
 10
0.0
 20
0.0
 30
0.0
  3
*Paper_Space0
  1

  0
ENDBLK
  5
25
330
23
100
AcDbEntity
  8
0
100
AcDbBlockEnd
  0
ENDSEC
  0
SECTION
  2
ENTITIES
  0
SPLINE
  5
41
330
1F
100
AcDbEntity
  8
layer 1
 62
   250
370
     9
100
AcDbSpline
210
0.0
220
0.0
230
1.0
 70
    11
 71
     3
 72
    20
 73
    16
 74
     0
 42
0.0000000001
 43
0.0000000001
 12
1.0
 22
0.0
 32
0.0
 13
1.0
 23
0.0
 33
0.0
 40
0.0
 40
0.0
 40
0.0
 40
0.0
 40
0.2
 40
0.2
 40
0.2
 40
0.2
 40
0.4
 40
0.4
 40
0.4
 40
0.4
 40
0.6
 40
0.6
 40
0.6
 40
0.6
 40
1.0
 40
1.0
 40
1.0
 40
1.0
 10
-187.2989
 20
-91.6284
 30
0.0
 10
-187.2989
 20
-91.6284
 30
0.0
 10
-187.2989
 20
106.7759
 30
0.0
 10
-187.2989
 20
106.7759
 30
0.0
 10
-187.2989
 20
106.7759
 30
0.0
 10
-187.2989
 20
106.7759
 30
0.0
 10
-69.4691
 20
106.7759
 30
0.0
 10
-69.4691
 20
106.7759
 30
0.0
 10
-69.4691
 20
106.7759
 30
0.0
 10
-69.4691
 20
106.7759
 30
0.0
 10
-69.4691
 20
-91.6284
 30
0.0
 10
-69.4691
 20
-91.6284
 30
0.0
 10
-69.4691
 20
-91.6284
 30
0.0
 10
-69.4691
 20
-91.6284
 30
0.0
 10
-187.2989
 20
-91.6284
 30
0.0
 10
-187.2989
 20
-91.6284
 30
0.0
  0
SPLINE
  5
42
330
1F
100
AcDbEntity
  8
layer 1
 62
     7
100
AcDbSpline
210
0.0
220
0.0
230
1.0
 70
    11
 71
     3
 72
    24
 73
    20
 74
     0
 42
0.0000000001
 43
0.0000000001
 12
1.0
 22
0.0
 32
0.0
 13
1.0
 23
0.0
 33
0.0
 40
0.0
 40
0.0
 40
0.0
 40
0.0
 40
0.1666666666666667
 40
0.1666666666666667
 40
0.1666666666666667
 40
0.1666666666666667
 40
0.3333333333333333
 40
0.3333333333333333
 40
0.3333333333333333
 40
0.3333333333333333
 40
0.5
 40
0.5
 40
0.5
 40
0.5
 40
0.6666666666666666
 40
0.6666666666666666
 40
0.6666666666666666
 40
0.6666666666666666
 40
1.0
 40
1.0
 40
1.0
 40
1.0
 10
-139.4612
 20
-84.9866
 30
0.0
 10
-133.8304
 20
-81.264
 30
0.0
 10
-129.9046
 20
-74.7946
 30
0.0
 10
-128.7491
 20
-67.3348
 30
0.0
 10
-128.7491
 20
-67.3348
 30
0.0
 10
-127.5936
 20
-74.7946
 30
0.0
 10
-123.6677
 20
-81.264
 30
0.0
 10
-118.0369
 20
-84.9866
 30
0.0
 10
-118.0369
 20
-84.9866
 30
0.0
 10
-118.5098
 20
-85.5351
 30
0.0
 10
-118.9763
 20
-86.0907
 30
0.0
 10
-119.4365
 20
-86.6534
 30
0.0
 10
-119.4365
 20
-86.6534
 30
0.0
 10
-119.4365
 20
-86.6534
 30
0.0
 10
-138.0616
 20
-86.6534
 30
0.0
 10
-138.0616
 20
-86.6534
 30
0.0
 10
-138.0616
 20
-86.6534
 30
0.0
 10
-138.5218
 20
-86.0907
 30
0.0
 10
-138.9883
 20
-85.5351
 30
0.0
 10
-139.4612
 20
-84.9866
 30
0.0
  0
SPLINE
  5
43
330
1F
100
AcDbEntity
  8
layer 1
 62
     7
100
AcDbSpline
210
0.0
220
0.0
230
1.0
 70
    11
 71
     3
 72
    28
 73
    24
 74
     0
 42
0.0000000001
 43
0.0000000001
 12
1.0
 22
0.0
 32
0.0
 13
1.0
 23
0.0
 33
0.0
 40
0.0
 40
0.0
 40
0.0
 40
0.0
 40
0.1428571428571428
 40
0.1428571428571428
 40
0.1428571428571428
 40
0.1428571428571428
 40
0.2857142857142857
 40
0.2857142857142857
 40
0.2857142857142857
 40
0.2857142857142857
 40
0.4285714285714285
 40
0.4285714285714285
 40
0.4285714285714285
 40
0.4285714285714285
 40
0.5714285714285714
 40
0.5714285714285714
 40
0.5714285714285714
 40
0.5714285714285714
 40
0.7142857142857143
 40
0.7142857142857143
 40
0.7142857142857143
 40
0.7142857142857143
 40
1.0
 40
1.0
 40
1.0
 40
1.0
 10
-128.7491
 20
-62.4624
 30
0.0
 10
-131.0715
 20
-57.6754
 30
0.0
 10
-133.4155
 20
-52.9027
 30
0.0
 10
-135.7812
 20
-48.1446
 30
0.0
 10
-135.7812
 20
-48.1446
 30
0.0
 10
-134.5322
 20
-45.9113
 30
0.0
 10
-133.2689
 20
-43.6887
 30
0.0
 10
-131.9917
 20
-41.4773
 30
0.0
 10
-131.9917
 20
-41.4773
 30
0.0
 10
-130.8131
 20
-43.353
 30
0.0
 10
-129.7303
 20
-45.3089
 30
0.0
 10
-128.7491
 20
-47.3349
 30
0.0
 10
-128.7491
 20
-47.3349
 30
0.0
 10
-127.7679
 20
-45.3089
 30
0.0
 10
-126.685
 20
-43.353
 30
0.0
 10
-125.5064
 20
-41.4773
 30
0.0
 10
-125.5064
 20
-41.4773
 30
0.0
 10
-124.2292
 20
-43.6887
 30
0.0
 10
-122.9662
 20
-45.9113
 30
0.0
 10
-121.7169
 20
-48.1446
 30
0.0
 10
-121.7169
 20
-48.1446
 30
0.0
 10
-124.0825
 20
-52.9027
 30
0.0
 10
-126.4265
 20
-57.6754
 30
0.0
 10
-128.7491
 20
-62.4624
 30
0.0
  0
SPLINE
  5
44
330
1F
100
AcDbEntity
  8
layer 1
 62
     7
100
AcDbSpline
210
0.0
220
0.0
230
1.0
 70
    11
 71
     3
 72
    28
 73
    24
 74
     0
 42
0.0000000001
 43
0.0000000001
 12
1.0
 22
0.0
 32
0.0
 13
1.0
 23
0.0
 33
0.0
 40
0.0
 40
0.0
 40
0.0
 40
0.0
 40
0.1428571428571428
 40
0.1428571428571428
 40
0.1428571428571428
 40
0.1428571428571428
 40
0.2857142857142857
 40
0.2857142857142857
 40
0.2857142857142857
 40
0.2857142857142857
 40
0.4285714285714285
 40
0.4285714285714285
 40
0.4285714285714285
 40
0.4285714285714285
 40
0.5714285714285714
 40
0.5714285714285714
 40
0.5714285714285714
 40
0.5714285714285714
 40
0.7142857142857143
 40
0.7142857142857143
 40
0.7142857142857143
 40
0.7142857142857143
 40
1.0
 40
1.0
 40
1.0
 40
1.0
 10
-130.917
 20
-28.7406
 30
0.0
 10
-131.9179
 20
-27.3562
 30
0.0
 10
-132.0218
 20
-25.364
 30
0.0
 10
-131.172
 20
-23.847
 30
0.0
 10
-131.172
 20
-23.847
 30
0.0
 10
-129.9544
 20
-21.9964
 30
0.0
 10
-129.1247
 20
-19.836
 30
0.0
 10
-128.7491
 20
-17.5405
 30
0.0
 10
-128.7491
 20
-17.5405
 30
0.0
 10
-128.3733
 20
-19.836
 30
0.0
 10
-127.5437
 20
-21.9964
 30
0.0
 10
-126.326
 20
-23.847
 30
0.0
 10
-126.326
 20
-23.847
 30
0.0
 10
-125.4764
 20
-25.364
 30
0.0
 10
-125.5803
 20
-27.3562
 30
0.0
 10
-126.5811
 20
-28.7406
 30
0.0
 10
-126.5811
 20
-28.7406
 30
0.0
 10
-127.181
 20
-29.3466
 30
0.0
 10
-127.9585
 20
-29.6552
 30
0.0
 10
-128.7491
 20
-29.6011
 30
0.0
 10
-128.7491
 20
-29.6011
 30
0.0
 10
-129.5396
 20
-29.6552
 30
0.0
 10
-130.317
 20
-29.3466
 30
0.0
 10
-130.917
 20
-28.7406
 30
0.0
  0
SPLINE
  5
45
330
1F
100
AcDbEntity
  8
layer 1
 62
     7
100
AcDbSpline
210
0.0
220
0.0
230
1.0
 70
    11
 71
     3
 72
    20
 73
    16
 74
     0
 42
0.0000000001
 43
0.0000000001
 12
1.0
 22
0.0
 32
0.0
 13
1.0
 23
0.0
 33
0.0
 40
0.0
 40
0.0
 40
0.0
 40
0.0
 40
0.2
 40
0.2
 40
0.2
 40
0.2
 40
0.4
 40
0.4
 40
0.4
 40
0.4
 40
0.6
 40
0.6
 40
0.6
 40
0.6
 40
1.0
 40
1.0
 40
1.0
 40
1.0
 10
-133.4129
 20
-0.9169
 30
0.0
 10
-131.5895
 20
-3.5251
 30
0.0
 10
-130.0248
 20
-6.3677
 30
0.0
 10
-128.7491
 20
-9.3908
 30
0.0
 10
-128.7491
 20
-9.3908
 30
0.0
 10
-127.4733
 20
-6.3677
 30
0.0
 10
-125.9086
 20
-3.5251
 30
0.0
 10
-124.0852
 20
-0.9169
 30
0.0
 10
-124.0852
 20
-0.9169
 30
0.0
 10
-125.6892
 20
1.0066
 30
0.0
 10
-127.2444
 20
2.9844
 30
0.0
 10
-128.7491
 20
5.0148
 30
0.0
 10
-128.7491
 20
5.0148
 30
0.0
 10
-130.2537
 20
2.9844
 30
0.0
 10
-131.8089
 20
1.0066
 30
0.0
 10
-133.4129
 20
-0.9169
 30
0.0
  0
SPLINE
  5
46
330
1F
100
AcDbEntity
  8
layer 1
 62
     7
100
AcDbSpline
210
0.0
220
0.0
230
1.0
 70
    11
 71
     3
 72
    20
 73
    16
 74
     0
 42
0.0000000001
 43
0.0000000001
 12
1.0
 22
0.0
 32
0.0
 13
1.0
 23
0.0
 33
0.0
 40
0.0
 40
0.0
 40
0.0
 40
0.0
 40
0.2
 40
0.2
 40
0.2
 40
0.2
 40
0.4
 40
0.4
 40
0.4
 40
0.4
 40
0.6
 40
0.6
 40
0.6
 40
0.6
 40
1.0
 40
1.0
 40
1.0
 40
1.0
 10
-142.2667
 20
7.2037
 30
0.0
 10
-140.0134
 20
5.9022
 30
0.0
 10
-137.8981
 20
4.2954
 30
0.0
 10
-135.9634
 20
2.4167
 30
0.0
 10
-135.9634
 20
2.4167
 30
0.0
 10
-134.4483
 20
4.1062
 30
0.0
 10
-132.8606
 20
5.7039
 30
0.0
 10
-131.2069
 20
7.2037
 30
0.0
 10
-131.2069
 20
7.2037
 30
0.0
 10
-132.8606
 20
8.7035
 30
0.0
 10
-134.4483
 20
10.3011
 30
0.0
 10
-135.9634
 20
11.9907
 30
0.0
 10
-135.9634
 20
11.9907
 30
0.0
 10
-137.8981
 20
10.112
 30
0.0
 10
-140.0134
 20
8.5053
 30
0.0
 10
-142.2667
 20
7.2037
 30
0.0
  0
SPLINE
  5
47
330
1F
100
AcDbEntity
  8
layer 1
 62
     7
100
AcDbSpline
210
0.0
220
0.0
230
1.0
 70
    11
 71
     3
 72
    24
 73
    20
 74
     0
 42
0.0000000001
 43
0.0000000001
 12
1.0
 22
0.0
 32
0.0
 13
1.0
 23
0.0
 33
0.0
 40
0.0
 40
0.0
 40
0.0
 40
0.0
 40
0.1666666666666667
 40
0.1666666666666667
 40
0.1666666666666667
 40
0.1666666666666667
 40
0.3333333333333333
 40
0.3333333333333333
 40
0.3333333333333333
 40
0.3333333333333333
 40
0.5
 40
0.5
 40
0.5
 40
0.5
 40
0.6666666666666666
 40
0.6666666666666666
 40
0.6666666666666666
 40
0.6666666666666666
 40
1.0
 40
1.0
 40
1.0
 40
1.0
 10
-175.2045
 20
2.0321
 30
0.0
 10
-172.9351
 20
3.9953
 30
0.0
 10
-170.526
 20
5.7254
 30
0.0
 10
-168.0037
 20
7.2037
 30
0.0
 10
-168.0037
 20
7.2037
 30
0.0
 10
-170.526
 20
8.6823
 30
0.0
 10
-172.9351
 20
10.4125
 30
0.0
 10
-175.2045
 20
12.3754
 30
0.0
 10
-175.2045
 20
12.3754
 30
0.0
 10
-177.7668
 20
11.7031
 30
0.0
 10
-180.4334
 20
12.7877
 30
0.0
 10
-182.0909
 20
15.1764
 30
0.0
 10
-182.0909
 20
15.1764
 30
0.0
 10
-182.0909
 20
15.1764
 30
0.0
 10
-182.0909
 20
-0.769
 30
0.0
 10
-182.0909
 20
-0.769
 30
0.0
 10
-182.0909
 20
-0.769
 30
0.0
 10
-180.4334
 20
1.6197
 30
0.0
 10
-177.7668
 20
2.7042
 30
0.0
 10
-175.2045
 20
2.0321
 30
0.0
  0
SPLINE
  5
48
330
1F
100
AcDbEntity
  8
layer 1
 62
     7
100
AcDbSpline
210
0.0
220
0.0
230
1.0
 70
    11
 71
     3
 72
    16
 73
    12
 74
     0
 42
0.0000000001
 43
0.0000000001
 12
1.0
 22
0.0
 32
0.0
 13
1.0
 23
0.0
 33
0.0
 40
0.0
 40
0.0
 40
0.0
 40
0.0
 40
0.25
 40
0.25
 40
0.25
 40
0.25
 40
0.5
 40
0.5
 40
0.5
 40
0.5
 40
1.0
 40
1.0
 40
1.0
 40
1.0
 10
-182.0909
 20
-11.3223
 30
0.0
 10
-181.7259
 20
-10.194
 30
0.0
 10
-181.2617
 20
-9.1131
 30
0.0
 10
-180.7063
 20
-8.0973
 30
0.0
 10
-180.7063
 20
-8.0973
 30
0.0
 10
-181.2042
 20
-7.7731
 30
0.0
 10
-181.6687
 20
-7.3829
 30
0.0
 10
-182.0909
 20
-6.9345
 30
0.0
 10
-182.0909
 20
-6.9345
 30
0.0
 10
-182.0909
 20
-6.9345
 30
0.0
 10
-182.0909
 20
-11.3223
 30
0.0
 10
-182.0909
 20
-11.3223
 30
0.0
  0
SPLINE
  5
49
330
1F
100
AcDbEntity
  8
layer 1
 62
     7
100
AcDbSpline
210
0.0
220
0.0
230
1.0
 70
    11
 71
     3
 72
    16
 73
    12
 74
     0
 42
0.0000000001
 43
0.0000000001
 12
1.0
 22
0.0
 32
0.0
 13
1.0
 23
0.0
 33
0.0
 40
0.0
 40
0.0
 40
0.0
 40
0.0
 40
0.25
 40
0.25
 40
0.25
 40
0.25
 40
0.5
 40
0.5
 40
0.5
 40
0.5
 40
1.0
 40
1.0
 40
1.0
 40
1.0
 10
-180.5241
 20
-28.7406
 30
0.0
 10
-181.1215
 20
-27.631
 30
0.0
 10
-181.6452
 20
-26.4692
 30
0.0
 10
-182.0909
 20
-25.2655
 30
0.0
 10
-182.0909
 20
-25.2655
 30
0.0
 10
-182.0909
 20
-25.2655
 30
0.0
 10
-182.0909
 20
-31.8459
 30
0.0
 10
-182.0909
 20
-31.8459
 30
0.0
 10
-182.0909
 20
-31.8459
 30
0.0
 10
-181.6656
 20
-30.748
 30
0.0
 10
-181.1402
 20
-29.7068
 30
0.0
 10
-180.5241
 20
-28.7406
 30
0.0
  0
SPLINE
  5
4A
330
1F
100
AcDbEntity
  8
layer 1
 62
     7
100
AcDbSpline
210
0.0
220
0.0
230
1.0
 70
    11
 71
     3
 72
    76
 73
    72
 74
     0
 42
0.0000000001
 43
0.0000000001
 12
1.0
 22
0.0
 32
0.0
 13
1.0
 23
0.0
 33
0.0
 40
0.0
 40
0.0
 40
0.0
 40
0.0
 40
0.0526315789473684
 40
0.0526315789473684
 40
0.0526315789473684
 40
0.0526315789473684
 40
0.1052631578947368
 40
0.1052631578947368
 40
0.1052631578947368
 40
0.1052631578947368
 40
0.1578947368421053
 40
0.1578947368421053
 40
0.1578947368421053
 40
0.1578947368421053
 40
0.2105263157894737
 40
0.2105263157894737
 40
0.2105263157894737
 40
0.2105263157894737
 40
0.2631578947368421
 40
0.2631578947368421
 40
0.2631578947368421
 40
0.2631578947368421
 40
0.3157894736842105
 40
0.3157894736842105
 40
0.3157894736842105
 40
0.3157894736842105
 40
0.3684210526315789
 40
0.3684210526315789
 40
0.3684210526315789
 40
0.3684210526315789
 40
0.4210526315789473
 40
0.4210526315789473
 40
0.4210526315789473
 40
0.4210526315789473
 40
0.4736842105263158
 40
0.4736842105263158
 40
0.4736842105263158
 40
0.4736842105263158
 40
0.5263157894736842
 40
0.5263157894736842
 40
0.5263157894736842
 40
0.5263157894736842
 40
0.5789473684210527
 40
0.5789473684210527
 40
0.5789473684210527
 40
0.5789473684210527
 40
0.631578947368421
 40
0.631578947368421
 40
0.631578947368421
 40
0.631578947368421
 40
0.6842105263157895
 40
0.6842105263157895
 40
0.6842105263157895
 40
0.6842105263157895
 40
0.7368421052631579
 40
0.7368421052631579
 40
0.7368421052631579
 40
0.7368421052631579
 40
0.7894736842105263
 40
0.7894736842105263
 40
0.7894736842105263
 40
0.7894736842105263
 40
0.8421052631578947
 40
0.8421052631578947
 40
0.8421052631578947
 40
0.8421052631578947
 40
0.8947368421052632
 40
0.8947368421052632
 40
0.8947368421052632
 40
0.8947368421052632
 40
1.0
 40
1.0
 40
1.0
 40
1.0
 10
-174.6581
 20
-50.5809
 30
0.0
 10
-168.0056
 20
-56.1195
 30
0.0
 10
-159.6489
 20
-58.0489
 30
0.0
 10
-151.7036
 20
-55.8804
 30
0.0
 10
-151.7036
 20
-55.8804
 30
0.0
 10
-153.8079
 20
-62.1623
 30
0.0
 10
-154.2647
 20
-69.0382
 30
0.0
 10
-153.0151
 20
-75.6264
 30
0.0
 10
-153.0151
 20
-75.6264
 30
0.0
 10
-152.1511
 20
-78.5712
 30
0.0
 10
-150.6733
 20
-81.2158
 30
0.0
 10
-148.7158
 20
-83.3197
 30
0.0
 10
-148.7158
 20
-83.3197
 30
0.0
 10
-154.825
 20
-83.1797
 30
0.0
 10
-160.2797
 20
-78.7964
 30
0.0
 10
-162.5979
 20
-72.1645
 30
0.0
 10
-162.5979
 20
-72.1645
 30
0.0
 10
-161.2837
 20
-72.7102
 30
0.0
 10
-159.8213
 20
-72.3968
 30
0.0
 10
-158.7564
 20
-71.3412
 30
0.0
 10
-158.7564
 20
-71.3412
 30
0.0
 10
-157.6917
 20
-70.2856
 30
0.0
 10
-157.1844
 20
-68.6467
 30
0.0
 10
-157.4238
 20
-67.0356
 30
0.0
 10
-157.4238
 20
-67.0356
 30
0.0
 10
-157.5691
 20
-64.6638
 30
0.0
 10
-156.2519
 20
-62.5077
 30
0.0
 10
-154.2905
 20
-61.9068
 30
0.0
 10
-154.2905
 20
-61.9068
 30
0.0
 10
-155.5633
 20
-60.0874
 30
0.0
 10
-157.485
 20
-59.0651
 30
0.0
 10
-159.4904
 20
-59.1405
 30
0.0
 10
-159.4904
 20
-59.1405
 30
0.0
 10
-161.4961
 20
-59.2158
 30
0.0
 10
-163.3579
 20
-60.3801
 30
0.0
 10
-164.5289
 20
-62.2917
 30
0.0
 10
-164.5289
 20
-62.2917
 30
0.0
 10
-164.9376
 20
-59.082
 30
0.0
 10
-166.8114
 20
-56.3919
 30
0.0
 10
-169.4112
 20
-55.2823
 30
0.0
 10
-169.4112
 20
-55.2823
 30
0.0
 10
-171.3931
 20
-54.334
 30
0.0
 10
-173.6387
 20
-54.5253
 30
0.0
 10
-175.483
 20
-55.7997
 30
0.0
 10
-175.483
 20
-55.7997
 30
0.0
 10
-177.3273
 20
-57.0741
 30
0.0
 10
-178.5583
 20
-59.2855
 30
0.0
 10
-178.8117
 20
-61.7786
 30
0.0
 10
-178.8117
 20
-61.7786
 30
0.0
 10
-176.2855
 20
-59.8987
 30
0.0
 10
-172.9755
 20
-60.402
 30
0.0
 10
-170.9416
 20
-62.9754
 30
0.0
 10
-170.9416
 20
-62.9754
 30
0.0
 10
-168.8941
 20
-66.4672
 30
0.0
 10
-167.1487
 20
-70.1896
 30
0.0
 10
-165.7312
 20
-74.0878
 30
0.0
 10
-165.7312
 20
-74.0878
 30
0.0
 10
-163.0454
 20
-79.8009
 30
0.0
 10
-158.7514
 20
-84.2425
 30
0.0
 10
-153.5832
 20
-86.6534
 30
0.0
 10
-153.5832
 20
-86.6534
 30
0.0
 10
-153.5832
 20
-86.6534
 30
0.0
 10
-182.0909
 20
-86.6534
 30
0.0
 10
-182.0909
 20
-86.6534
 30
0.0
 10
-182.0909
 20
-86.6534
 30
0.0
 10
-182.0909
 20
-86.6534
 30
0.0
 10
-182.0909
 20
-40.8301
 30
0.0
 10
-182.0909
 20
-40.8301
 30
0.0
 10
-182.0909
 20
-40.8301
 30
0.0
 10
-180.5304
 20
-44.9022
 30
0.0
 10
-177.9341
 20
-48.3082
 30
0.0
 10
-174.6581
 20
-50.5809
 30
0.0
  0
SPLINE
  5
4B
330
1F
100
AcDbEntity
  8
layer 1
 62
     7
100
AcDbSpline
210
0.0
220
0.0
230
1.0
 70
    11
 71
     3
 72
    44
 73
    40
 74
     0
 42
0.0000000001
 43
0.0000000001
 12
1.0
 22
0.0
 32
0.0
 13
1.0
 23
0.0
 33
0.0
 40
0.0
 40
0.0
 40
0.0
 40
0.0
 40
0.0909090909090909
 40
0.0909090909090909
 40
0.0909090909090909
 40
0.0909090909090909
 40
0.1818181818181818
 40
0.1818181818181818
 40
0.1818181818181818
 40
0.1818181818181818
 40
0.2727272727272727
 40
0.2727272727272727
 40
0.2727272727272727
 40
0.2727272727272727
 40
0.3636363636363636
 40
0.3636363636363636
 40
0.3636363636363636
 40
0.3636363636363636
 40
0.4545454545454545
 40
0.4545454545454545
 40
0.4545454545454545
 40
0.4545454545454545
 40
0.5454545454545454
 40
0.5454545454545454
 40
0.5454545454545454
 40
0.5454545454545454
 40
0.6363636363636364
 40
0.6363636363636364
 40
0.6363636363636364
 40
0.6363636363636364
 40
0.7272727272727273
 40
0.7272727272727273
 40
0.7272727272727273
 40
0.7272727272727273
 40
0.8181818181818182
 40
0.8181818181818182
 40
0.8181818181818182
 40
0.8181818181818182
 40
1.0
 40
1.0
 40
1.0
 40
1.0
 10
-145.1814
 20
-72.1218
 30
0.0
 10
-144.9188
 20
-75.7848
 30
0.0
 10
-143.6969
 20
-79.2631
 30
0.0
 10
-141.6836
 20
-82.0802
 30
0.0
 10
-141.6836
 20
-82.0802
 30
0.0
 10
-137.7678
 20
-80.3727
 30
0.0
 10
-134.6638
 20
-76.7783
 30
0.0
 10
-133.1576
 20
-72.2072
 30
0.0
 10
-133.1576
 20
-72.2072
 30
0.0
 10
-134.3006
 20
-71.3193
 30
0.0
 10
-134.9336
 20
-69.7651
 30
0.0
 10
-134.8041
 20
-68.164
 30
0.0
 10
-134.8041
 20
-68.164
 30
0.0
 10
-134.6743
 20
-66.5632
 30
0.0
 10
-133.8035
 20
-65.1766
 30
0.0
 10
-132.5384
 20
-64.5569
 30
0.0
 10
-132.5384
 20
-64.5569
 30
0.0
 10
-133.2343
 20
-59.7698
 30
0.0
 10
-135.2735
 20
-55.3926
 30
0.0
 10
-138.3316
 20
-52.1195
 30
0.0
 10
-138.3316
 20
-52.1195
 30
0.0
 10
-140.4923
 20
-54.7489
 30
0.0
 10
-141.9816
 20
-58.0358
 30
0.0
 10
-142.6312
 20
-61.6076
 30
0.0
 10
-142.6312
 20
-61.6076
 30
0.0
 10
-143.0371
 20
-63.2615
 30
0.0
 10
-142.5304
 20
-65.0378
 30
0.0
 10
-141.3577
 20
-66.072
 30
0.0
 10
-141.3577
 20
-66.072
 30
0.0
 10
-140.1849
 20
-67.106
 30
0.0
 10
-138.5896
 20
-67.1835
 30
0.0
 10
-137.348
 20
-66.2665
 30
0.0
 10
-137.348
 20
-66.2665
 30
0.0
 10
-137.0979
 20
-68.5788
 30
0.0
 10
-138.0073
 20
-70.8528
 30
0.0
 10
-139.6832
 20
-72.1055
 30
0.0
 10
-139.6832
 20
-72.1055
 30
0.0
 10
-141.359
 20
-73.3581
 30
0.0
 10
-143.5004
 20
-73.3644
 30
0.0
 10
-145.1814
 20
-72.1218
 30
0.0
  0
SPLINE
  5
4C
330
1F
100
AcDbEntity
  8
layer 1
 62
     7
100
AcDbSpline
210
0.0
220
0.0
230
1.0
 70
    11
 71
     3
 72
    24
 73
    20
 74
     0
 42
0.0000000001
 43
0.0000000001
 12
1.0
 22
0.0
 32
0.0
 13
1.0
 23
0.0
 33
0.0
 40
0.0
 40
0.0
 40
0.0
 40
0.0
 40
0.1666666666666667
 40
0.1666666666666667
 40
0.1666666666666667
 40
0.1666666666666667
 40
0.3333333333333333
 40
0.3333333333333333
 40
0.3333333333333333
 40
0.3333333333333333
 40
0.5
 40
0.5
 40
0.5
 40
0.5
 40
0.6666666666666666
 40
0.6666666666666666
 40
0.6666666666666666
 40
0.6666666666666666
 40
1.0
 40
1.0
 40
1.0
 40
1.0
 10
-139.3154
 20
-43.0584
 30
0.0
 10
-141.5309
 20
-40.9621
 30
0.0
 10
-143.2396
 20
-38.2213
 30
0.0
 10
-144.2708
 20
-35.1088
 30
0.0
 10
-144.2708
 20
-35.1088
 30
0.0
 10
-141.8305
 20
-32.566
 30
0.0
 10
-139.8375
 20
-29.4879
 30
0.0
 10
-138.4045
 20
-26.0481
 30
0.0
 10
-138.4045
 20
-26.0481
 30
0.0
 10
-137.7138
 20
-25.9799
 30
0.0
 10
-137.0207
 20
-25.9515
 30
0.0
 10
-136.3276
 20
-25.9624
 30
0.0
 10
-136.3276
 20
-25.9624
 30
0.0
 10
-137.4055
 20
-29.7837
 30
0.0
 10
-136.8928
 20
-33.9767
 30
0.0
 10
-134.9431
 20
-37.2887
 30
0.0
 10
-134.9431
 20
-37.2887
 30
0.0
 10
-136.2308
 20
-39.38
 30
0.0
 10
-137.6958
 20
-41.3131
 30
0.0
 10
-139.3154
 20
-43.0584
 30
0.0
  0
SPLINE
  5
4D
330
1F
100
AcDbEntity
  8
layer 1
 62
     7
100
AcDbSpline
210
0.0
220
0.0
230
1.0
 70
    11
 71
     3
 72
    24
 73
    20
 74
     0
 42
0.0000000001
 43
0.0000000001
 12
1.0
 22
0.0
 32
0.0
 13
1.0
 23
0.0
 33
0.0
 40
0.0
 40
0.0
 40
0.0
 40
0.0
 40
0.1666666666666667
 40
0.1666666666666667
 40
0.1666666666666667
 40
0.1666666666666667
 40
0.3333333333333333
 40
0.3333333333333333
 40
0.3333333333333333
 40
0.3333333333333333
 40
0.5
 40
0.5
 40
0.5
 40
0.5
 40
0.6666666666666666
 40
0.6666666666666666
 40
0.6666666666666666
 40
0.6666666666666666
 40
1.0
 40
1.0
 40
1.0
 40
1.0
 10
-141.3922
 20
-11.2173
 30
0.0
 10
-139.6667
 20
-8.5807
 30
0.0
 10
-137.7264
 20
-6.1473
 30
0.0
 10
-135.5989
 20
-3.9515
 30
0.0
 10
-135.5989
 20
-3.9515
 30
0.0
 10
-133.694
 20
-6.6056
 30
0.0
 10
-132.2464
 20
-9.6684
 30
0.0
 10
-131.336
 20
-12.9697
 30
0.0
 10
-131.336
 20
-12.9697
 30
0.0
 10
-132.7299
 20
-12.0537
 30
0.0
 10
-134.3824
 20
-11.8458
 30
0.0
 10
-135.9099
 20
-12.3948
 30
0.0
 10
-135.9099
 20
-12.3948
 30
0.0
 10
-137.4376
 20
-12.9435
 30
0.0
 10
-138.7074
 20
-14.2013
 30
0.0
 10
-139.4248
 20
-15.8759
 30
0.0
 10
-139.4248
 20
-15.8759
 30
0.0
 10
-139.875
 20
-14.2147
 30
0.0
 10
-140.5382
 20
-12.6437
 30
0.0
 10
-141.3922
 20
-11.2173
 30
0.0
  0
SPLINE
  5
4E
330
1F
100
AcDbEntity
  8
layer 1
 62
     7
100
AcDbSpline
210
0.0
220
0.0
230
1.0
 70
    11
 71
     3
 72
    16
 73
    12
 74
     0
 42
0.0000000001
 43
0.0000000001
 12
1.0
 22
0.0
 32
0.0
 13
1.0
 23
0.0
 33
0.0
 40
0.0
 40
0.0
 40
0.0
 40
0.0
 40
0.25
 40
0.25
 40
0.25
 40
0.25
 40
0.5
 40
0.5
 40
0.5
 40
0.5
 40
1.0
 40
1.0
 40
1.0
 40
1.0
 10
-146.566
 20
-19.124
 30
0.0
 10
-145.2822
 20
-20.1479
 30
0.0
 10
-143.6616
 20
-20.4012
 30
0.0
 10
-142.1937
 20
-19.8078
 30
0.0
 10
-142.1937
 20
-19.8078
 30
0.0
 10
-142.599
 20
-18.0022
 30
0.0
 10
-143.199
 20
-16.2641
 30
0.0
 10
-143.9791
 20
-14.6365
 30
0.0
 10
-143.9791
 20
-14.6365
 30
0.0
 10
-145.2188
 20
-15.7795
 30
0.0
 10
-146.1234
 20
-17.3485
 30
0.0
 10
-146.566
 20
-19.124
 30
0.0
  0
SPLINE
  5
4F
330
1F
100
AcDbEntity
  8
layer 1
 62
     7
100
AcDbSpline
210
0.0
220
0.0
230
1.0
 70
    11
 71
     3
 72
    16
 73
    12
 74
     0
 42
0.0000000001
 43
0.0000000001
 12
1.0
 22
0.0
 32
0.0
 13
1.0
 23
0.0
 33
0.0
 40
0.0
 40
0.0
 40
0.0
 40
0.0
 40
0.25
 40
0.25
 40
0.25
 40
0.25
 40
0.5
 40
0.5
 40
0.5
 40
0.5
 40
1.0
 40
1.0
 40
1.0
 40
1.0
 10
-146.639
 20
-20.4062
 30
0.0
 10
-147.556
 20
-24.3026
 30
0.0
 10
-147.2588
 20
-28.4546
 30
0.0
 10
-145.8009
 20
-32.1171
 30
0.0
 10
-145.8009
 20
-32.1171
 30
0.0
 10
-144.3209
 20
-30.1595
 30
0.0
 10
-143.16
 20
-27.8993
 30
0.0
 10
-142.3759
 20
-25.4497
 30
0.0
 10
-142.3759
 20
-25.4497
 30
0.0
 10
-144.324
 20
-24.5214
 30
0.0
 10
-145.8644
 20
-22.6996
 30
0.0
 10
-146.639
 20
-20.4062
 30
0.0
  0
SPLINE
  5
50
330
1F
100
AcDbEntity
  8
layer 1
 62
     7
100
AcDbSpline
210
0.0
220
0.0
230
1.0
 70
    11
 71
     3
 72
    32
 73
    28
 74
     0
 42
0.0000000001
 43
0.0000000001
 12
1.0
 22
0.0
 32
0.0
 13
1.0
 23
0.0
 33
0.0
 40
0.0
 40
0.0
 40
0.0
 40
0.0
 40
0.125
 40
0.125
 40
0.125
 40
0.125
 40
0.25
 40
0.25
 40
0.25
 40
0.25
 40
0.375
 40
0.375
 40
0.375
 40
0.375
 40
0.5
 40
0.5
 40
0.5
 40
0.5
 40
0.625
 40
0.625
 40
0.625
 40
0.625
 40
0.75
 40
0.75
 40
0.75
 40
0.75
 40
1.0
 40
1.0
 40
1.0
 40
1.0
 10
-150.8291
 20
-3.3531
 30
0.0
 10
-148.7947
 20
-4.217
 30
0.0
 10
-146.8798
 20
-5.4266
 30
0.0
 10
-145.145
 20
-6.9433
 30
0.0
 10
-145.145
 20
-6.9433
 30
0.0
 10
-142.7675
 20
-4.9285
 30
0.0
 10
-140.5483
 20
-2.6684
 30
0.0
 10
-138.5139
 20
-0.1903
 30
0.0
 10
-138.5139
 20
-0.1903
 30
0.0
 10
-140.711
 20
2.1759
 30
0.0
 10
-143.2871
 20
4.0065
 30
0.0
 10
-146.0923
 20
5.1949
 30
0.0
 10
-146.0923
 20
5.1949
 30
0.0
 10
-147.9896
 20
4.5455
 30
0.0
 10
-149.9475
 20
4.1722
 30
0.0
 10
-151.9222
 20
4.0837
 30
0.0
 10
-151.9222
 20
4.0837
 30
0.0
 10
-151.4249
 20
3.711
 30
0.0
 10
-150.8853
 20
3.4234
 30
0.0
 10
-150.3191
 20
3.2289
 30
0.0
 10
-150.3191
 20
3.2289
 30
0.0
 10
-149.3852
 20
2.4316
 30
0.0
 10
-148.8772
 20
1.1172
 30
0.0
 10
-148.982
 20
-0.2319
 30
0.0
 10
-148.982
 20
-0.2319
 30
0.0
 10
-149.0864
 20
-1.5809
 30
0.0
 10
-149.7879
 20
-2.7666
 30
0.0
 10
-150.8291
 20
-3.3531
 30
0.0
  0
SPLINE
  5
51
330
1F
100
AcDbEntity
  8
layer 1
 62
     7
100
AcDbSpline
210
0.0
220
0.0
230
1.0
 70
    11
 71
     3
 72
    12
 73
     8
 74
     0
 42
0.0000000001
 43
0.0000000001
 12
1.0
 22
0.0
 32
0.0
 13
1.0
 23
0.0
 33
0.0
 40
0.0
 40
0.0
 40
0.0
 40
0.0
 40
0.3333333333333333
 40
0.3333333333333333
 40
0.3333333333333333
 40
0.3333333333333333
 40
1.0
 40
1.0
 40
1.0
 40
1.0
 10
-158.9178
 20
-7.8834
 30
0.0
 10
-155.7225
 20
-10.561
 30
0.0
 10
-151.5744
 20
-11.1107
 30
0.0
 10
-147.9505
 20
-9.3367
 30
0.0
 10
-147.9505
 20
-9.3367
 30
0.0
 10
-151.1875
 20
-6.7892
 30
0.0
 10
-155.2781
 20
-6.247
 30
0.0
 10
-158.9178
 20
-7.8834
 30
0.0
  0
SPLINE
  5
52
330
1F
100
AcDbEntity
  8
layer 1
 62
     7
100
AcDbSpline
210
0.0
220
0.0
230
1.0
 70
    11
 71
     3
 72
    28
 73
    24
 74
     0
 42
0.0000000001
 43
0.0000000001
 12
1.0
 22
0.0
 32
0.0
 13
1.0
 23
0.0
 33
0.0
 40
0.0
 40
0.0
 40
0.0
 40
0.0
 40
0.1428571428571428
 40
0.1428571428571428
 40
0.1428571428571428
 40
0.1428571428571428
 40
0.2857142857142857
 40
0.2857142857142857
 40
0.2857142857142857
 40
0.2857142857142857
 40
0.4285714285714285
 40
0.4285714285714285
 40
0.4285714285714285
 40
0.4285714285714285
 40
0.5714285714285714
 40
0.5714285714285714
 40
0.5714285714285714
 40
0.5714285714285714
 40
0.7142857142857143
 40
0.7142857142857143
 40
0.7142857142857143
 40
0.7142857142857143
 40
1.0
 40
1.0
 40
1.0
 40
1.0
 10
-171.3058
 20
1.1773
 30
0.0
 10
-168.801
 20
2.9666
 30
0.0
 10
-166.1057
 20
4.3608
 30
0.0
 10
-163.2901
 20
5.3231
 30
0.0
 10
-163.2901
 20
5.3231
 30
0.0
 10
-160.8805
 20
4.5199
 30
0.0
 10
-158.397
 20
4.0606
 30
0.0
 10
-155.8937
 20
3.9556
 30
0.0
 10
-155.8937
 20
3.9556
 30
0.0
 10
-157.0224
 20
3.5109
 30
0.0
 10
-157.86
 20
2.3882
 30
0.0
 10
-158.0863
 20
1.0169
 30
0.0
 10
-158.0863
 20
1.0169
 30
0.0
 10
-158.3126
 20
-0.3544
 30
0.0
 10
-157.8925
 20
-1.7626
 30
0.0
 10
-156.9869
 20
-2.6694
 30
0.0
 10
-156.9869
 20
-2.6694
 30
0.0
 10
-158.9458
 20
-3.0107
 30
0.0
 10
-160.8576
 20
-3.6576
 30
0.0
 10
-162.6706
 20
-4.5925
 30
0.0
 10
-162.6706
 20
-4.5925
 30
0.0
 10
-165.2027
 20
-2.0305
 30
0.0
 10
-168.1358
 20
-0.0708
 30
0.0
 10
-171.3058
 20
1.1773
 30
0.0
  0
SPLINE
  5
53
330
1F
100
AcDbEntity
  8
layer 1
 62
     7
100
AcDbSpline
210
0.0
220
0.0
230
1.0
 70
    11
 71
     3
 72
    36
 73
    32
 74
     0
 42
0.0000000001
 43
0.0000000001
 12
1.0
 22
0.0
 32
0.0
 13
1.0
 23
0.0
 33
0.0
 40
0.0
 40
0.0
 40
0.0
 40
0.0
 40
0.1111111111111111
 40
0.1111111111111111
 40
0.1111111111111111
 40
0.1111111111111111
 40
0.2222222222222222
 40
0.2222222222222222
 40
0.2222222222222222
 40
0.2222222222222222
 40
0.3333333333333333
 40
0.3333333333333333
 40
0.3333333333333333
 40
0.3333333333333333
 40
0.4444444444444444
 40
0.4444444444444444
 40
0.4444444444444444
 40
0.4444444444444444
 40
0.5555555555555556
 40
0.5555555555555556
 40
0.5555555555555556
 40
0.5555555555555556
 40
0.6666666666666666
 40
0.6666666666666666
 40
0.6666666666666666
 40
0.6666666666666666
 40
0.7777777777777778
 40
0.7777777777777778
 40
0.7777777777777778
 40
0.7777777777777778
 40
1.0
 40
1.0
 40
1.0
 40
1.0
 10
-164.7475
 20
-11.6019
 30
0.0
 10
-162.99
 20
-15.8549
 30
0.0
 10
-159.3392
 20
-18.5832
 30
0.0
 10
-155.3106
 20
-18.6538
 30
0.0
 10
-155.3106
 20
-18.6538
 30
0.0
 10
-156.807
 20
-23.0213
 30
0.0
 10
-156.5113
 20
-27.9528
 30
0.0
 10
-154.5091
 20
-32.0317
 30
0.0
 10
-154.5091
 20
-32.0317
 30
0.0
 10
-153.5916
 20
-33.7263
 30
0.0
 10
-152.6565
 20
-35.4074
 30
0.0
 10
-151.7036
 20
-37.0748
 30
0.0
 10
-151.7036
 20
-37.0748
 30
0.0
 10
-157.7991
 20
-39.567
 30
0.0
 10
-164.4922
 20
-39.0898
 30
0.0
 10
-170.2858
 20
-35.7501
 30
0.0
 10
-170.2858
 20
-35.7501
 30
0.0
 10
-166.0155
 20
-35.5162
 30
0.0
 10
-162.1479
 20
-32.7233
 30
0.0
 10
-160.0474
 20
-28.3561
 30
0.0
 10
-160.0474
 20
-28.3561
 30
0.0
 10
-159.0644
 20
-25.7035
 30
0.0
 10
-158.8472
 20
-22.7471
 30
0.0
 10
-159.4279
 20
-19.9363
 30
0.0
 10
-159.4279
 20
-19.9363
 30
0.0
 10
-160.9464
 20
-17.3757
 30
0.0
 10
-163.8564
 20
-16.55
 30
0.0
 10
-166.2048
 20
-18.0128
 30
0.0
 10
-166.2048
 20
-18.0128
 30
0.0
 10
-166.87
 20
-15.7267
 30
0.0
 10
-166.2946
 20
-13.1958
 30
0.0
 10
-164.7475
 20
-11.6019
 30
0.0
  0
SPLINE
  5
54
330
1F
100
AcDbEntity
  8
layer 1
 62
     7
100
AcDbSpline
210
0.0
220
0.0
230
1.0
 70
    11
 71
     3
 72
    48
 73
    44
 74
     0
 42
0.0000000001
 43
0.0000000001
 12
1.0
 22
0.0
 32
0.0
 13
1.0
 23
0.0
 33
0.0
 40
0.0
 40
0.0
 40
0.0
 40
0.0
 40
0.0833333333333333
 40
0.0833333333333333
 40
0.0833333333333333
 40
0.0833333333333333
 40
0.1666666666666667
 40
0.1666666666666667
 40
0.1666666666666667
 40
0.1666666666666667
 40
0.25
 40
0.25
 40
0.25
 40
0.25
 40
0.3333333333333333
 40
0.3333333333333333
 40
0.3333333333333333
 40
0.3333333333333333
 40
0.4166666666666667
 40
0.4166666666666667
 40
0.4166666666666667
 40
0.4166666666666667
 40
0.5
 40
0.5
 40
0.5
 40
0.5
 40
0.5833333333333334
 40
0.5833333333333334
 40
0.5833333333333334
 40
0.5833333333333334
 40
0.6666666666666666
 40
0.6666666666666666
 40
0.6666666666666666
 40
0.6666666666666666
 40
0.75
 40
0.75
 40
0.75
 40
0.75
 40
0.8333333333333334
 40
0.8333333333333334
 40
0.8333333333333334
 40
0.8333333333333334
 40
1.0
 40
1.0
 40
1.0
 40
1.0
 10
-171.1239
 20
-35.1945
 30
0.0
 10
-170.0964
 20
-34.9844
 30
0.0
 10
-169.1947
 20
-34.2687
 30
0.0
 10
-168.6462
 20
-33.2283
 30
0.0
 10
-168.6462
 20
-33.2283
 30
0.0
 10
-167.1698
 20
-30.0682
 30
0.0
 10
-167.0749
 20
-26.2695
 30
0.0
 10
-168.3911
 20
-23.0134
 30
0.0
 10
-168.3911
 20
-23.0134
 30
0.0
 10
-169.6467
 20
-19.5602
 30
0.0
 10
-169.9276
 20
-15.7261
 30
0.0
 10
-169.1926
 20
-12.0721
 30
0.0
 10
-169.1926
 20
-12.0721
 30
0.0
 10
-168.6219
 20
-10.5129
 30
0.0
 10
-167.9006
 20
-9.0359
 30
0.0
 10
-167.0429
 20
-7.6696
 30
0.0
 10
-167.0429
 20
-7.6696
 30
0.0
 10
-168.7266
 20
-4.2054
 30
0.0
 10
-171.7766
 20
-1.9593
 30
0.0
 10
-175.1681
 20
-1.6863
 30
0.0
 10
-175.1681
 20
-1.6863
 30
0.0
 10
-174.0462
 20
-3.4931
 30
0.0
 10
-174.2002
 20
-5.9859
 30
0.0
 10
-175.5323
 20
-7.5842
 30
0.0
 10
-175.5323
 20
-7.5842
 30
0.0
 10
-176.1447
 20
-8.309
 30
0.0
 10
-176.9127
 20
-8.8258
 30
0.0
 10
-177.755
 20
-9.0803
 30
0.0
 10
-177.755
 20
-9.0803
 30
0.0
 10
-179.8661
 20
-14.417
 30
0.0
 10
-179.6628
 20
-20.6182
 30
0.0
 10
-177.2085
 20
-25.7489
 30
0.0
 10
-177.2085
 20
-25.7489
 30
0.0
 10
-174.7459
 20
-24.3106
 30
0.0
 10
-171.9807
 20
-23.7391
 30
0.0
 10
-169.2472
 20
-24.1034
 30
0.0
 10
-169.2472
 20
-24.1034
 30
0.0
 10
-171.3543
 20
-24.528
 30
0.0
 10
-173.0203
 20
-26.432
 30
0.0
 10
-173.4365
 20
-28.892
 30
0.0
 10
-173.4365
 20
-28.892
 30
0.0
 10
-173.8526
 20
-31.3519
 30
0.0
 10
-172.933
 20
-33.8582
 30
0.0
 10
-171.1239
 20
-35.1945
 30
0.0
  0
SPLINE
  5
55
330
1F
100
AcDbEntity
  8
layer 1
 62
     7
100
AcDbSpline
210
0.0
220
0.0
230
1.0
 70
    11
 71
     3
 72
    48
 73
    44
 74
     0
 42
0.0000000001
 43
0.0000000001
 12
1.0
 22
0.0
 32
0.0
 13
1.0
 23
0.0
 33
0.0
 40
0.0
 40
0.0
 40
0.0
 40
0.0
 40
0.0833333333333333
 40
0.0833333333333333
 40
0.0833333333333333
 40
0.0833333333333333
 40
0.1666666666666667
 40
0.1666666666666667
 40
0.1666666666666667
 40
0.1666666666666667
 40
0.25
 40
0.25
 40
0.25
 40
0.25
 40
0.3333333333333333
 40
0.3333333333333333
 40
0.3333333333333333
 40
0.3333333333333333
 40
0.4166666666666667
 40
0.4166666666666667
 40
0.4166666666666667
 40
0.4166666666666667
 40
0.5
 40
0.5
 40
0.5
 40
0.5
 40
0.5833333333333334
 40
0.5833333333333334
 40
0.5833333333333334
 40
0.5833333333333334
 40
0.6666666666666666
 40
0.6666666666666666
 40
0.6666666666666666
 40
0.6666666666666666
 40
0.75
 40
0.75
 40
0.75
 40
0.75
 40
0.8333333333333334
 40
0.8333333333333334
 40
0.8333333333333334
 40
0.8333333333333334
 40
1.0
 40
1.0
 40
1.0
 40
1.0
 10
-173.8563
 20
-45.4521
 30
0.0
 10
-172.7373
 20
-45.3417
 30
0.0
 10
-171.7025
 20
-44.7098
 30
0.0
 10
-170.9835
 20
-43.6978
 30
0.0
 10
-170.9835
 20
-43.6978
 30
0.0
 10
-170.2647
 20
-42.6857
 30
0.0
 10
-169.9215
 20
-41.3779
 30
0.0
 10
-170.0308
 20
-40.067
 30
0.0
 10
-170.0308
 20
-40.067
 30
0.0
 10
-166.6914
 20
-41.5564
 30
0.0
 10
-163.1462
 20
-42.3099
 30
0.0
 10
-159.5738
 20
-42.2893
 30
0.0
 10
-159.5738
 20
-42.2893
 30
0.0
 10
-160.2423
 20
-43.2735
 30
0.0
 10
-160.4835
 20
-44.566
 30
0.0
 10
-160.2267
 20
-45.7879
 30
0.0
 10
-160.2267
 20
-45.7879
 30
0.0
 10
-159.9696
 20
-47.0097
 30
0.0
 10
-159.2441
 20
-48.0224
 30
0.0
 10
-158.2619
 20
-48.5292
 30
0.0
 10
-158.2619
 20
-48.5292
 30
0.0
 10
-155.8547
 20
-49.8559
 30
0.0
 10
-152.9843
 20
-48.7018
 30
0.0
 10
-151.7764
 20
-45.922
 30
0.0
 10
-151.7764
 20
-45.922
 30
0.0
 10
-151.129
 20
-44.2737
 30
0.0
 10
-151.6479
 20
-42.3177
 30
0.0
 10
-152.9787
 20
-41.3917
 30
0.0
 10
-152.9787
 20
-41.3917
 30
0.0
 10
-151.8078
 20
-41.0083
 30
0.0
 10
-150.6629
 20
-40.5228
 30
0.0
 10
-149.5537
 20
-39.9384
 30
0.0
 10
-149.5537
 20
-39.9384
 30
0.0
 10
-147.5038
 20
-42.3662
 30
0.0
 10
-145.3895
 20
-44.7183
 30
0.0
 10
-143.214
 20
-46.9906
 30
0.0
 10
-143.214
 20
-46.9906
 30
0.0
 10
-150.8075
 20
-53.629
 30
0.0
 10
-161.0081
 20
-54.4478
 30
0.0
 10
-169.3018
 20
-49.0848
 30
0.0
 10
-169.3018
 20
-49.0848
 30
0.0
 10
-170.9139
 20
-48.044
 30
0.0
 10
-172.4385
 20
-46.8277
 30
0.0
 10
-173.8563
 20
-45.4521
 30
0.0
  0
SPLINE
  5
56
330
1F
100
AcDbEntity
  8
layer 1
 62
     7
100
AcDbSpline
210
0.0
220
0.0
230
1.0
 70
    11
 71
     3
 72
    24
 73
    20
 74
     0
 42
0.0000000001
 43
0.0000000001
 12
1.0
 22
0.0
 32
0.0
 13
1.0
 23
0.0
 33
0.0
 40
0.0
 40
0.0
 40
0.0
 40
0.0
 40
0.1666666666666667
 40
0.1666666666666667
 40
0.1666666666666667
 40
0.1666666666666667
 40
0.3333333333333333
 40
0.3333333333333333
 40
0.3333333333333333
 40
0.3333333333333333
 40
0.5
 40
0.5
 40
0.5
 40
0.5
 40
0.6666666666666666
 40
0.6666666666666666
 40
0.6666666666666666
 40
0.6666666666666666
 40
1.0
 40
1.0
 40
1.0
 40
1.0
 10
-139.4612
 20
99.3941
 30
0.0
 10
-133.8304
 20
95.6713
 30
0.0
 10
-129.9046
 20
89.2019
 30
0.0
 10
-128.7491
 20
81.7425
 30
0.0
 10
-128.7491
 20
81.7425
 30
0.0
 10
-127.5936
 20
89.2019
 30
0.0
 10
-123.6677
 20
95.6713
 30
0.0
 10
-118.0369
 20
99.3941
 30
0.0
 10
-118.0369
 20
99.3941
 30
0.0
 10
-118.5098
 20
99.9425
 30
0.0
 10
-118.9763
 20
100.498
 30
0.0
 10
-119.4365
 20
101.0608
 30
0.0
 10
-119.4365
 20
101.0608
 30
0.0
 10
-119.4365
 20
101.0608
 30
0.0
 10
-138.0616
 20
101.0608
 30
0.0
 10
-138.0616
 20
101.0608
 30
0.0
 10
-138.0616
 20
101.0608
 30
0.0
 10
-138.5218
 20
100.498
 30
0.0
 10
-138.9883
 20
99.9425
 30
0.0
 10
-139.4612
 20
99.3941
 30
0.0
  0
SPLINE
  5
57
330
1F
100
AcDbEntity
  8
layer 1
 62
     7
100
AcDbSpline
210
0.0
220
0.0
230
1.0
 70
    11
 71
     3
 72
    28
 73
    24
 74
     0
 42
0.0000000001
 43
0.0000000001
 12
1.0
 22
0.0
 32
0.0
 13
1.0
 23
0.0
 33
0.0
 40
0.0
 40
0.0
 40
0.0
 40
0.0
 40
0.1428571428571428
 40
0.1428571428571428
 40
0.1428571428571428
 40
0.1428571428571428
 40
0.2857142857142857
 40
0.2857142857142857
 40
0.2857142857142857
 40
0.2857142857142857
 40
0.4285714285714285
 40
0.4285714285714285
 40
0.4285714285714285
 40
0.4285714285714285
 40
0.5714285714285714
 40
0.5714285714285714
 40
0.5714285714285714
 40
0.5714285714285714
 40
0.7142857142857143
 40
0.7142857142857143
 40
0.7142857142857143
 40
0.7142857142857143
 40
1.0
 40
1.0
 40
1.0
 40
1.0
 10
-128.7491
 20
76.8701
 30
0.0
 10
-131.0715
 20
72.0828
 30
0.0
 10
-133.4155
 20
67.31
 30
0.0
 10
-135.7812
 20
62.5521
 30
0.0
 10
-135.7812
 20
62.5521
 30
0.0
 10
-134.5322
 20
60.3188
 30
0.0
 10
-133.2689
 20
58.0961
 30
0.0
 10
-131.9917
 20
55.8847
 30
0.0
 10
-131.9917
 20
55.8847
 30
0.0
 10
-130.8131
 20
57.7603
 30
0.0
 10
-129.7303
 20
59.7163
 30
0.0
 10
-128.7491
 20
61.7426
 30
0.0
 10
-128.7491
 20
61.7426
 30
0.0
 10
-127.7679
 20
59.7163
 30
0.0
 10
-126.685
 20
57.7603
 30
0.0
 10
-125.5064
 20
55.8847
 30
0.0
 10
-125.5064
 20
55.8847
 30
0.0
 10
-124.2292
 20
58.0961
 30
0.0
 10
-122.9662
 20
60.3188
 30
0.0
 10
-121.7169
 20
62.5521
 30
0.0
 10
-121.7169
 20
62.5521
 30
0.0
 10
-124.0825
 20
67.31
 30
0.0
 10
-126.4265
 20
72.0828
 30
0.0
 10
-128.7491
 20
76.8701
 30
0.0
  0
SPLINE
  5
58
330
1F
100
AcDbEntity
  8
layer 1
 62
     7
100
AcDbSpline
210
0.0
220
0.0
230
1.0
 70
    11
 71
     3
 72
    28
 73
    24
 74
     0
 42
0.0000000001
 43
0.0000000001
 12
1.0
 22
0.0
 32
0.0
 13
1.0
 23
0.0
 33
0.0
 40
0.0
 40
0.0
 40
0.0
 40
0.0
 40
0.1428571428571428
 40
0.1428571428571428
 40
0.1428571428571428
 40
0.1428571428571428
 40
0.2857142857142857
 40
0.2857142857142857
 40
0.2857142857142857
 40
0.2857142857142857
 40
0.4285714285714285
 40
0.4285714285714285
 40
0.4285714285714285
 40
0.4285714285714285
 40
0.5714285714285714
 40
0.5714285714285714
 40
0.5714285714285714
 40
0.5714285714285714
 40
0.7142857142857143
 40
0.7142857142857143
 40
0.7142857142857143
 40
0.7142857142857143
 40
1.0
 40
1.0
 40
1.0
 40
1.0
 10
-130.917
 20
43.1481
 30
0.0
 10
-131.9179
 20
41.7639
 30
0.0
 10
-132.0218
 20
39.7714
 30
0.0
 10
-131.172
 20
38.2544
 30
0.0
 10
-131.172
 20
38.2544
 30
0.0
 10
-129.9544
 20
36.4038
 30
0.0
 10
-129.1247
 20
34.2437
 30
0.0
 10
-128.7491
 20
31.9478
 30
0.0
 10
-128.7491
 20
31.9478
 30
0.0
 10
-128.3733
 20
34.2437
 30
0.0
 10
-127.5437
 20
36.4038
 30
0.0
 10
-126.326
 20
38.2544
 30
0.0
 10
-126.326
 20
38.2544
 30
0.0
 10
-125.4764
 20
39.7714
 30
0.0
 10
-125.5803
 20
41.7639
 30
0.0
 10
-126.5811
 20
43.1481
 30
0.0
 10
-126.5811
 20
43.1481
 30
0.0
 10
-127.181
 20
43.754
 30
0.0
 10
-127.9585
 20
44.0626
 30
0.0
 10
-128.7491
 20
44.0085
 30
0.0
 10
-128.7491
 20
44.0085
 30
0.0
 10
-129.5396
 20
44.0626
 30
0.0
 10
-130.317
 20
43.754
 30
0.0
 10
-130.917
 20
43.1481
 30
0.0
  0
SPLINE
  5
59
330
1F
100
AcDbEntity
  8
layer 1
 62
     7
100
AcDbSpline
210
0.0
220
0.0
230
1.0
 70
    11
 71
     3
 72
    20
 73
    16
 74
     0
 42
0.0000000001
 43
0.0000000001
 12
1.0
 22
0.0
 32
0.0
 13
1.0
 23
0.0
 33
0.0
 40
0.0
 40
0.0
 40
0.0
 40
0.0
 40
0.2
 40
0.2
 40
0.2
 40
0.2
 40
0.4
 40
0.4
 40
0.4
 40
0.4
 40
0.6
 40
0.6
 40
0.6
 40
0.6
 40
1.0
 40
1.0
 40
1.0
 40
1.0
 10
-133.4129
 20
15.3243
 30
0.0
 10
-131.5895
 20
17.9324
 30
0.0
 10
-130.0248
 20
20.7751
 30
0.0
 10
-128.7491
 20
23.7982
 30
0.0
 10
-128.7491
 20
23.7982
 30
0.0
 10
-127.4733
 20
20.7751
 30
0.0
 10
-125.9086
 20
17.9324
 30
0.0
 10
-124.0852
 20
15.3243
 30
0.0
 10
-124.0852
 20
15.3243
 30
0.0
 10
-125.6892
 20
13.4011
 30
0.0
 10
-127.2444
 20
11.423
 30
0.0
 10
-128.7491
 20
9.3926
 30
0.0
 10
-128.7491
 20
9.3926
 30
0.0
 10
-130.2537
 20
11.423
 30
0.0
 10
-131.8089
 20
13.4011
 30
0.0
 10
-133.4129
 20
15.3243
 30
0.0
  0
SPLINE
  5
5A
330
1F
100
AcDbEntity
  8
layer 1
 62
     7
100
AcDbSpline
210
0.0
220
0.0
230
1.0
 70
    11
 71
     3
 72
    16
 73
    12
 74
     0
 42
0.0000000001
 43
0.0000000001
 12
1.0
 22
0.0
 32
0.0
 13
1.0
 23
0.0
 33
0.0
 40
0.0
 40
0.0
 40
0.0
 40
0.0
 40
0.25
 40
0.25
 40
0.25
 40
0.25
 40
0.5
 40
0.5
 40
0.5
 40
0.5
 40
1.0
 40
1.0
 40
1.0
 40
1.0
 10
-182.0909
 20
25.7298
 30
0.0
 10
-181.7259
 20
24.6014
 30
0.0
 10
-181.2617
 20
23.5205
 30
0.0
 10
-180.7063
 20
22.5048
 30
0.0
 10
-180.7063
 20
22.5048
 30
0.0
 10
-181.2042
 20
22.1805
 30
0.0
 10
-181.6687
 20
21.7903
 30
0.0
 10
-182.0909
 20
21.342
 30
0.0
 10
-182.0909
 20
21.342
 30
0.0
 10
-182.0909
 20
21.342
 30
0.0
 10
-182.0909
 20
25.7298
 30
0.0
 10
-182.0909
 20
25.7298
 30
0.0
  0
SPLINE
  5
5B
330
1F
100
AcDbEntity
  8
layer 1
 62
     7
100
AcDbSpline
210
0.0
220
0.0
230
1.0
 70
    11
 71
     3
 72
    16
 73
    12
 74
     0
 42
0.0000000001
 43
0.0000000001
 12
1.0
 22
0.0
 32
0.0
 13
1.0
 23
0.0
 33
0.0
 40
0.0
 40
0.0
 40
0.0
 40
0.0
 40
0.25
 40
0.25
 40
0.25
 40
0.25
 40
0.5
 40
0.5
 40
0.5
 40
0.5
 40
1.0
 40
1.0
 40
1.0
 40
1.0
 10
-180.5241
 20
43.1481
 30
0.0
 10
-181.1215
 20
42.0385
 30
0.0
 10
-181.6452
 20
40.8766
 30
0.0
 10
-182.0909
 20
39.6729
 30
0.0
 10
-182.0909
 20
39.6729
 30
0.0
 10
-182.0909
 20
39.6729
 30
0.0
 10
-182.0909
 20
46.2534
 30
0.0
 10
-182.0909
 20
46.2534
 30
0.0
 10
-182.0909
 20
46.2534
 30
0.0
 10
-181.6656
 20
45.1553
 30
0.0
 10
-181.1402
 20
44.1141
 30
0.0
 10
-180.5241
 20
43.1481
 30
0.0
  0
SPLINE
  5
5C
330
1F
100
AcDbEntity
  8
layer 1
 62
     7
100
AcDbSpline
210
0.0
220
0.0
230
1.0
 70
    11
 71
     3
 72
    76
 73
    72
 74
     0
 42
0.0000000001
 43
0.0000000001
 12
1.0
 22
0.0
 32
0.0
 13
1.0
 23
0.0
 33
0.0
 40
0.0
 40
0.0
 40
0.0
 40
0.0
 40
0.0526315789473684
 40
0.0526315789473684
 40
0.0526315789473684
 40
0.0526315789473684
 40
0.1052631578947368
 40
0.1052631578947368
 40
0.1052631578947368
 40
0.1052631578947368
 40
0.1578947368421053
 40
0.1578947368421053
 40
0.1578947368421053
 40
0.1578947368421053
 40
0.2105263157894737
 40
0.2105263157894737
 40
0.2105263157894737
 40
0.2105263157894737
 40
0.2631578947368421
 40
0.2631578947368421
 40
0.2631578947368421
 40
0.2631578947368421
 40
0.3157894736842105
 40
0.3157894736842105
 40
0.3157894736842105
 40
0.3157894736842105
 40
0.3684210526315789
 40
0.3684210526315789
 40
0.3684210526315789
 40
0.3684210526315789
 40
0.4210526315789473
 40
0.4210526315789473
 40
0.4210526315789473
 40
0.4210526315789473
 40
0.4736842105263158
 40
0.4736842105263158
 40
0.4736842105263158
 40
0.4736842105263158
 40
0.5263157894736842
 40
0.5263157894736842
 40
0.5263157894736842
 40
0.5263157894736842
 40
0.5789473684210527
 40
0.5789473684210527
 40
0.5789473684210527
 40
0.5789473684210527
 40
0.631578947368421
 40
0.631578947368421
 40
0.631578947368421
 40
0.631578947368421
 40
0.6842105263157895
 40
0.6842105263157895
 40
0.6842105263157895
 40
0.6842105263157895
 40
0.7368421052631579
 40
0.7368421052631579
 40
0.7368421052631579
 40
0.7368421052631579
 40
0.7894736842105263
 40
0.7894736842105263
 40
0.7894736842105263
 40
0.7894736842105263
 40
0.8421052631578947
 40
0.8421052631578947
 40
0.8421052631578947
 40
0.8421052631578947
 40
0.8947368421052632
 40
0.8947368421052632
 40
0.8947368421052632
 40
0.8947368421052632
 40
1.0
 40
1.0
 40
1.0
 40
1.0
 10
-174.6581
 20
64.9883
 30
0.0
 10
-168.0056
 20
70.527
 30
0.0
 10
-159.6489
 20
72.4564
 30
0.0
 10
-151.7036
 20
70.2881
 30
0.0
 10
-151.7036
 20
70.2881
 30
0.0
 10
-153.8079
 20
76.5697
 30
0.0
 10
-154.2647
 20
83.4456
 30
0.0
 10
-153.0151
 20
90.0338
 30
0.0
 10
-153.0151
 20
90.0338
 30
0.0
 10
-152.1511
 20
92.9787
 30
0.0
 10
-150.6733
 20
95.6231
 30
0.0
 10
-148.7158
 20
97.727
 30
0.0
 10
-148.7158
 20
97.727
 30
0.0
 10
-154.825
 20
97.5873
 30
0.0
 10
-160.2797
 20
93.2038
 30
0.0
 10
-162.5979
 20
86.5718
 30
0.0
 10
-162.5979
 20
86.5718
 30
0.0
 10
-161.2837
 20
87.1177
 30
0.0
 10
-159.8213
 20
86.8041
 30
0.0
 10
-158.7564
 20
85.7485
 30
0.0
 10
-158.7564
 20
85.7485
 30
0.0
 10
-157.6917
 20
84.6931
 30
0.0
 10
-157.1844
 20
83.0541
 30
0.0
 10
-157.4238
 20
81.443
 30
0.0
 10
-157.4238
 20
81.443
 30
0.0
 10
-157.5691
 20
79.0712
 30
0.0
 10
-156.2519
 20
76.9151
 30
0.0
 10
-154.2905
 20
76.3145
 30
0.0
 10
-154.2905
 20
76.3145
 30
0.0
 10
-155.5633
 20
74.4949
 30
0.0
 10
-157.485
 20
73.4725
 30
0.0
 10
-159.4904
 20
73.5478
 30
0.0
 10
-159.4904
 20
73.5478
 30
0.0
 10
-161.4961
 20
73.6232
 30
0.0
 10
-163.3579
 20
74.7875
 30
0.0
 10
-164.5289
 20
76.699
 30
0.0
 10
-164.5289
 20
76.699
 30
0.0
 10
-164.9376
 20
73.4893
 30
0.0
 10
-166.8114
 20
70.7996
 30
0.0
 10
-169.4112
 20
69.6897
 30
0.0
 10
-169.4112
 20
69.6897
 30
0.0
 10
-171.3931
 20
68.7414
 30
0.0
 10
-173.6387
 20
68.9327
 30
0.0
 10
-175.483
 20
70.2071
 30
0.0
 10
-175.483
 20
70.2071
 30
0.0
 10
-177.3273
 20
71.4818
 30
0.0
 10
-178.5583
 20
73.6929
 30
0.0
 10
-178.8117
 20
76.186
 30
0.0
 10
-178.8117
 20
76.186
 30
0.0
 10
-176.2855
 20
74.3063
 30
0.0
 10
-172.9755
 20
74.8094
 30
0.0
 10
-170.9416
 20
77.3829
 30
0.0
 10
-170.9416
 20
77.3829
 30
0.0
 10
-168.8941
 20
80.8746
 30
0.0
 10
-167.1487
 20
84.5971
 30
0.0
 10
-165.7312
 20
88.4952
 30
0.0
 10
-165.7312
 20
88.4952
 30
0.0
 10
-163.0454
 20
94.2084
 30
0.0
 10
-158.7514
 20
98.65
 30
0.0
 10
-153.5832
 20
101.0608
 30
0.0
 10
-153.5832
 20
101.0608
 30
0.0
 10
-153.5832
 20
101.0608
 30
0.0
 10
-182.0909
 20
101.0608
 30
0.0
 10
-182.0909
 20
101.0608
 30
0.0
 10
-182.0909
 20
101.0608
 30
0.0
 10
-182.0909
 20
101.0608
 30
0.0
 10
-182.0909
 20
55.2375
 30
0.0
 10
-182.0909
 20
55.2375
 30
0.0
 10
-182.0909
 20
55.2375
 30
0.0
 10
-180.5304
 20
59.3095
 30
0.0
 10
-177.9341
 20
62.7156
 30
0.0
 10
-174.6581
 20
64.9883
 30
0.0
  0
SPLINE
  5
5D
330
1F
100
AcDbEntity
  8
layer 1
 62
     7
100
AcDbSpline
210
0.0
220
0.0
230
1.0
 70
    11
 71
     3
 72
    44
 73
    40
 74
     0
 42
0.0000000001
 43
0.0000000001
 12
1.0
 22
0.0
 32
0.0
 13
1.0
 23
0.0
 33
0.0
 40
0.0
 40
0.0
 40
0.0
 40
0.0
 40
0.0909090909090909
 40
0.0909090909090909
 40
0.0909090909090909
 40
0.0909090909090909
 40
0.1818181818181818
 40
0.1818181818181818
 40
0.1818181818181818
 40
0.1818181818181818
 40
0.2727272727272727
 40
0.2727272727272727
 40
0.2727272727272727
 40
0.2727272727272727
 40
0.3636363636363636
 40
0.3636363636363636
 40
0.3636363636363636
 40
0.3636363636363636
 40
0.4545454545454545
 40
0.4545454545454545
 40
0.4545454545454545
 40
0.4545454545454545
 40
0.5454545454545454
 40
0.5454545454545454
 40
0.5454545454545454
 40
0.5454545454545454
 40
0.6363636363636364
 40
0.6363636363636364
 40
0.6363636363636364
 40
0.6363636363636364
 40
0.7272727272727273
 40
0.7272727272727273
 40
0.7272727272727273
 40
0.7272727272727273
 40
0.8181818181818182
 40
0.8181818181818182
 40
0.8181818181818182
 40
0.8181818181818182
 40
1.0
 40
1.0
 40
1.0
 40
1.0
 10
-145.1814
 20
86.5292
 30
0.0
 10
-144.9188
 20
90.1924
 30
0.0
 10
-143.6969
 20
93.6706
 30
0.0
 10
-141.6836
 20
96.4877
 30
0.0
 10
-141.6836
 20
96.4877
 30
0.0
 10
-137.7678
 20
94.7802
 30
0.0
 10
-134.6638
 20
91.1857
 30
0.0
 10
-133.1576
 20
86.6146
 30
0.0
 10
-133.1576
 20
86.6146
 30
0.0
 10
-134.3006
 20
85.7267
 30
0.0
 10
-134.9336
 20
84.1725
 30
0.0
 10
-134.8041
 20
82.5714
 30
0.0
 10
-134.8041
 20
82.5714
 30
0.0
 10
-134.6743
 20
80.9708
 30
0.0
 10
-133.8035
 20
79.5839
 30
0.0
 10
-132.5384
 20
78.9643
 30
0.0
 10
-132.5384
 20
78.9643
 30
0.0
 10
-133.2343
 20
74.1772
 30
0.0
 10
-135.2735
 20
69.8001
 30
0.0
 10
-138.3316
 20
66.5268
 30
0.0
 10
-138.3316
 20
66.5268
 30
0.0
 10
-140.4923
 20
69.1563
 30
0.0
 10
-141.9816
 20
72.4432
 30
0.0
 10
-142.6312
 20
76.0153
 30
0.0
 10
-142.6312
 20
76.0153
 30
0.0
 10
-143.0371
 20
77.669
 30
0.0
 10
-142.5304
 20
79.4451
 30
0.0
 10
-141.3577
 20
80.4794
 30
0.0
 10
-141.3577
 20
80.4794
 30
0.0
 10
-140.1849
 20
81.5133
 30
0.0
 10
-138.5896
 20
81.5909
 30
0.0
 10
-137.348
 20
80.6739
 30
0.0
 10
-137.348
 20
80.6739
 30
0.0
 10
-137.0979
 20
82.9863
 30
0.0
 10
-138.0073
 20
85.2602
 30
0.0
 10
-139.6832
 20
86.513
 30
0.0
 10
-139.6832
 20
86.513
 30
0.0
 10
-141.359
 20
87.7655
 30
0.0
 10
-143.5004
 20
87.7718
 30
0.0
 10
-145.1814
 20
86.5292
 30
0.0
  0
SPLINE
  5
5E
330
1F
100
AcDbEntity
  8
layer 1
 62
     7
100
AcDbSpline
210
0.0
220
0.0
230
1.0
 70
    11
 71
     3
 72
    24
 73
    20
 74
     0
 42
0.0000000001
 43
0.0000000001
 12
1.0
 22
0.0
 32
0.0
 13
1.0
 23
0.0
 33
0.0
 40
0.0
 40
0.0
 40
0.0
 40
0.0
 40
0.1666666666666667
 40
0.1666666666666667
 40
0.1666666666666667
 40
0.1666666666666667
 40
0.3333333333333333
 40
0.3333333333333333
 40
0.3333333333333333
 40
0.3333333333333333
 40
0.5
 40
0.5
 40
0.5
 40
0.5
 40
0.6666666666666666
 40
0.6666666666666666
 40
0.6666666666666666
 40
0.6666666666666666
 40
1.0
 40
1.0
 40
1.0
 40
1.0
 10
-139.3154
 20
57.4661
 30
0.0
 10
-141.5309
 20
55.3695
 30
0.0
 10
-143.2396
 20
52.6287
 30
0.0
 10
-144.2708
 20
49.5162
 30
0.0
 10
-144.2708
 20
49.5162
 30
0.0
 10
-141.8305
 20
46.9734
 30
0.0
 10
-139.8375
 20
43.8957
 30
0.0
 10
-138.4045
 20
40.4555
 30
0.0
 10
-138.4045
 20
40.4555
 30
0.0
 10
-137.7138
 20
40.3873
 30
0.0
 10
-137.0207
 20
40.3589
 30
0.0
 10
-136.3276
 20
40.3698
 30
0.0
 10
-136.3276
 20
40.3698
 30
0.0
 10
-137.4055
 20
44.1911
 30
0.0
 10
-136.8928
 20
48.3841
 30
0.0
 10
-134.9431
 20
51.6961
 30
0.0
 10
-134.9431
 20
51.6961
 30
0.0
 10
-136.2308
 20
53.7877
 30
0.0
 10
-137.6958
 20
55.7206
 30
0.0
 10
-139.3154
 20
57.4661
 30
0.0
  0
SPLINE
  5
5F
330
1F
100
AcDbEntity
  8
layer 1
 62
     7
100
AcDbSpline
210
0.0
220
0.0
230
1.0
 70
    11
 71
     3
 72
    24
 73
    20
 74
     0
 42
0.0000000001
 43
0.0000000001
 12
1.0
 22
0.0
 32
0.0
 13
1.0
 23
0.0
 33
0.0
 40
0.0
 40
0.0
 40
0.0
 40
0.0
 40
0.1666666666666667
 40
0.1666666666666667
 40
0.1666666666666667
 40
0.1666666666666667
 40
0.3333333333333333
 40
0.3333333333333333
 40
0.3333333333333333
 40
0.3333333333333333
 40
0.5
 40
0.5
 40
0.5
 40
0.5
 40
0.6666666666666666
 40
0.6666666666666666
 40
0.6666666666666666
 40
0.6666666666666666
 40
1.0
 40
1.0
 40
1.0
 40
1.0
 10
-141.3922
 20
25.6247
 30
0.0
 10
-139.6667
 20
22.9881
 30
0.0
 10
-137.7264
 20
20.5547
 30
0.0
 10
-135.5989
 20
18.3589
 30
0.0
 10
-135.5989
 20
18.3589
 30
0.0
 10
-133.694
 20
21.0134
 30
0.0
 10
-132.2464
 20
24.0758
 30
0.0
 10
-131.336
 20
27.3771
 30
0.0
 10
-131.336
 20
27.3771
 30
0.0
 10
-132.7299
 20
26.4611
 30
0.0
 10
-134.3824
 20
26.2531
 30
0.0
 10
-135.9099
 20
26.8022
 30
0.0
 10
-135.9099
 20
26.8022
 30
0.0
 10
-137.4376
 20
27.3509
 30
0.0
 10
-138.7074
 20
28.6087
 30
0.0
 10
-139.4248
 20
30.2833
 30
0.0
 10
-139.4248
 20
30.2833
 30
0.0
 10
-139.875
 20
28.6221
 30
0.0
 10
-140.5382
 20
27.0514
 30
0.0
 10
-141.3922
 20
25.6247
 30
0.0
  0
SPLINE
  5
60
330
1F
100
AcDbEntity
  8
layer 1
 62
     7
100
AcDbSpline
210
0.0
220
0.0
230
1.0
 70
    11
 71
     3
 72
    16
 73
    12
 74
     0
 42
0.0000000001
 43
0.0000000001
 12
1.0
 22
0.0
 32
0.0
 13
1.0
 23
0.0
 33
0.0
 40
0.0
 40
0.0
 40
0.0
 40
0.0
 40
0.25
 40
0.25
 40
0.25
 40
0.25
 40
0.5
 40
0.5
 40
0.5
 40
0.5
 40
1.0
 40
1.0
 40
1.0
 40
1.0
 10
-146.566
 20
33.5314
 30
0.0
 10
-145.2822
 20
34.5554
 30
0.0
 10
-143.6616
 20
34.8086
 30
0.0
 10
-142.1937
 20
34.2155
 30
0.0
 10
-142.1937
 20
34.2155
 30
0.0
 10
-142.599
 20
32.4093
 30
0.0
 10
-143.199
 20
30.6716
 30
0.0
 10
-143.9791
 20
29.0439
 30
0.0
 10
-143.9791
 20
29.0439
 30
0.0
 10
-145.2188
 20
30.187
 30
0.0
 10
-146.1234
 20
31.7562
 30
0.0
 10
-146.566
 20
33.5314
 30
0.0
  0
SPLINE
  5
61
330
1F
100
AcDbEntity
  8
layer 1
 62
     7
100
AcDbSpline
210
0.0
220
0.0
230
1.0
 70
    11
 71
     3
 72
    16
 73
    12
 74
     0
 42
0.0000000001
 43
0.0000000001
 12
1.0
 22
0.0
 32
0.0
 13
1.0
 23
0.0
 33
0.0
 40
0.0
 40
0.0
 40
0.0
 40
0.0
 40
0.25
 40
0.25
 40
0.25
 40
0.25
 40
0.5
 40
0.5
 40
0.5
 40
0.5
 40
1.0
 40
1.0
 40
1.0
 40
1.0
 10
-146.639
 20
34.8137
 30
0.0
 10
-147.556
 20
38.71
 30
0.0
 10
-147.2588
 20
42.862
 30
0.0
 10
-145.8009
 20
46.5244
 30
0.0
 10
-145.8009
 20
46.5244
 30
0.0
 10
-144.3209
 20
44.5669
 30
0.0
 10
-143.16
 20
42.3067
 30
0.0
 10
-142.3759
 20
39.8571
 30
0.0
 10
-142.3759
 20
39.8571
 30
0.0
 10
-144.324
 20
38.9291
 30
0.0
 10
-145.8644
 20
37.107
 30
0.0
 10
-146.639
 20
34.8137
 30
0.0
  0
SPLINE
  5
62
330
1F
100
AcDbEntity
  8
layer 1
 62
     7
100
AcDbSpline
210
0.0
220
0.0
230
1.0
 70
    11
 71
     3
 72
    32
 73
    28
 74
     0
 42
0.0000000001
 43
0.0000000001
 12
1.0
 22
0.0
 32
0.0
 13
1.0
 23
0.0
 33
0.0
 40
0.0
 40
0.0
 40
0.0
 40
0.0
 40
0.125
 40
0.125
 40
0.125
 40
0.125
 40
0.25
 40
0.25
 40
0.25
 40
0.25
 40
0.375
 40
0.375
 40
0.375
 40
0.375
 40
0.5
 40
0.5
 40
0.5
 40
0.5
 40
0.625
 40
0.625
 40
0.625
 40
0.625
 40
0.75
 40
0.75
 40
0.75
 40
0.75
 40
1.0
 40
1.0
 40
1.0
 40
1.0
 10
-150.8291
 20
17.7605
 30
0.0
 10
-148.7947
 20
18.6243
 30
0.0
 10
-146.8798
 20
19.834
 30
0.0
 10
-145.145
 20
21.3508
 30
0.0
 10
-145.145
 20
21.3508
 30
0.0
 10
-142.7675
 20
19.336
 30
0.0
 10
-140.5483
 20
17.0758
 30
0.0
 10
-138.5139
 20
14.5977
 30
0.0
 10
-138.5139
 20
14.5977
 30
0.0
 10
-140.711
 20
12.2315
 30
0.0
 10
-143.2871
 20
10.4009
 30
0.0
 10
-146.0923
 20
9.2125
 30
0.0
 10
-146.0923
 20
9.2125
 30
0.0
 10
-147.9896
 20
9.8619
 30
0.0
 10
-149.9475
 20
10.2352
 30
0.0
 10
-151.9222
 20
10.3237
 30
0.0
 10
-151.9222
 20
10.3237
 30
0.0
 10
-151.4249
 20
10.6963
 30
0.0
 10
-150.8853
 20
10.984
 30
0.0
 10
-150.3191
 20
11.1785
 30
0.0
 10
-150.3191
 20
11.1785
 30
0.0
 10
-149.3852
 20
11.9757
 30
0.0
 10
-148.8772
 20
13.2902
 30
0.0
 10
-148.982
 20
14.6392
 30
0.0
 10
-148.982
 20
14.6392
 30
0.0
 10
-149.0864
 20
15.9884
 30
0.0
 10
-149.7879
 20
17.174
 30
0.0
 10
-150.8291
 20
17.7605
 30
0.0
  0
SPLINE
  5
63
330
1F
100
AcDbEntity
  8
layer 1
 62
     7
100
AcDbSpline
210
0.0
220
0.0
230
1.0
 70
    11
 71
     3
 72
    12
 73
     8
 74
     0
 42
0.0000000001
 43
0.0000000001
 12
1.0
 22
0.0
 32
0.0
 13
1.0
 23
0.0
 33
0.0
 40
0.0
 40
0.0
 40
0.0
 40
0.0
 40
0.3333333333333333
 40
0.3333333333333333
 40
0.3333333333333333
 40
0.3333333333333333
 40
1.0
 40
1.0
 40
1.0
 40
1.0
 10
-158.9178
 20
22.2909
 30
0.0
 10
-155.7225
 20
24.9684
 30
0.0
 10
-151.5744
 20
25.5181
 30
0.0
 10
-147.9505
 20
23.7441
 30
0.0
 10
-147.9505
 20
23.7441
 30
0.0
 10
-151.1875
 20
21.1965
 30
0.0
 10
-155.2781
 20
20.6544
 30
0.0
 10
-158.9178
 20
22.2909
 30
0.0
  0
SPLINE
  5
64
330
1F
100
AcDbEntity
  8
layer 1
 62
     7
100
AcDbSpline
210
0.0
220
0.0
230
1.0
 70
    11
 71
     3
 72
    28
 73
    24
 74
     0
 42
0.0000000001
 43
0.0000000001
 12
1.0
 22
0.0
 32
0.0
 13
1.0
 23
0.0
 33
0.0
 40
0.0
 40
0.0
 40
0.0
 40
0.0
 40
0.1428571428571428
 40
0.1428571428571428
 40
0.1428571428571428
 40
0.1428571428571428
 40
0.2857142857142857
 40
0.2857142857142857
 40
0.2857142857142857
 40
0.2857142857142857
 40
0.4285714285714285
 40
0.4285714285714285
 40
0.4285714285714285
 40
0.4285714285714285
 40
0.5714285714285714
 40
0.5714285714285714
 40
0.5714285714285714
 40
0.5714285714285714
 40
0.7142857142857143
 40
0.7142857142857143
 40
0.7142857142857143
 40
0.7142857142857143
 40
1.0
 40
1.0
 40
1.0
 40
1.0
 10
-171.3058
 20
13.2302
 30
0.0
 10
-168.801
 20
11.4408
 30
0.0
 10
-166.1057
 20
10.0467
 30
0.0
 10
-163.2901
 20
9.0843
 30
0.0
 10
-163.2901
 20
9.0843
 30
0.0
 10
-160.8805
 20
9.8875
 30
0.0
 10
-158.397
 20
10.3468
 30
0.0
 10
-155.8937
 20
10.4519
 30
0.0
 10
-155.8937
 20
10.4519
 30
0.0
 10
-157.0224
 20
10.8964
 30
0.0
 10
-157.86
 20
12.0192
 30
0.0
 10
-158.0863
 20
13.3905
 30
0.0
 10
-158.0863
 20
13.3905
 30
0.0
 10
-158.3126
 20
14.7618
 30
0.0
 10
-157.8925
 20
16.17
 30
0.0
 10
-156.9869
 20
17.0767
 30
0.0
 10
-156.9869
 20
17.0767
 30
0.0
 10
-158.9458
 20
17.4181
 30
0.0
 10
-160.8576
 20
18.065
 30
0.0
 10
-162.6706
 20
18.9998
 30
0.0
 10
-162.6706
 20
18.9998
 30
0.0
 10
-165.2027
 20
16.438
 30
0.0
 10
-168.1358
 20
14.4782
 30
0.0
 10
-171.3058
 20
13.2302
 30
0.0
  0
SPLINE
  5
65
330
1F
100
AcDbEntity
  8
layer 1
 62
     7
100
AcDbSpline
210
0.0
220
0.0
230
1.0
 70
    11
 71
     3
 72
    36
 73
    32
 74
     0
 42
0.0000000001
 43
0.0000000001
 12
1.0
 22
0.0
 32
0.0
 13
1.0
 23
0.0
 33
0.0
 40
0.0
 40
0.0
 40
0.0
 40
0.0
 40
0.1111111111111111
 40
0.1111111111111111
 40
0.1111111111111111
 40
0.1111111111111111
 40
0.2222222222222222
 40
0.2222222222222222
 40
0.2222222222222222
 40
0.2222222222222222
 40
0.3333333333333333
 40
0.3333333333333333
 40
0.3333333333333333
 40
0.3333333333333333
 40
0.4444444444444444
 40
0.4444444444444444
 40
0.4444444444444444
 40
0.4444444444444444
 40
0.5555555555555556
 40
0.5555555555555556
 40
0.5555555555555556
 40
0.5555555555555556
 40
0.6666666666666666
 40
0.6666666666666666
 40
0.6666666666666666
 40
0.6666666666666666
 40
0.7777777777777778
 40
0.7777777777777778
 40
0.7777777777777778
 40
0.7777777777777778
 40
1.0
 40
1.0
 40
1.0
 40
1.0
 10
-164.7475
 20
26.0092
 30
0.0
 10
-162.99
 20
30.2623
 30
0.0
 10
-159.3392
 20
32.9905
 30
0.0
 10
-155.3106
 20
33.0615
 30
0.0
 10
-155.3106
 20
33.0615
 30
0.0
 10
-156.807
 20
37.4287
 30
0.0
 10
-156.5113
 20
42.3602
 30
0.0
 10
-154.5091
 20
46.4391
 30
0.0
 10
-154.5091
 20
46.4391
 30
0.0
 10
-153.5916
 20
48.1337
 30
0.0
 10
-152.6565
 20
49.8148
 30
0.0
 10
-151.7036
 20
51.4826
 30
0.0
 10
-151.7036
 20
51.4826
 30
0.0
 10
-157.7991
 20
53.9747
 30
0.0
 10
-164.4922
 20
53.4973
 30
0.0
 10
-170.2858
 20
50.1575
 30
0.0
 10
-170.2858
 20
50.1575
 30
0.0
 10
-166.0155
 20
49.9236
 30
0.0
 10
-162.1479
 20
47.1306
 30
0.0
 10
-160.0474
 20
42.7635
 30
0.0
 10
-160.0474
 20
42.7635
 30
0.0
 10
-159.0644
 20
40.111
 30
0.0
 10
-158.8472
 20
37.1545
 30
0.0
 10
-159.4279
 20
34.3437
 30
0.0
 10
-159.4279
 20
34.3437
 30
0.0
 10
-160.9464
 20
31.7831
 30
0.0
 10
-163.8564
 20
30.9573
 30
0.0
 10
-166.2048
 20
32.4203
 30
0.0
 10
-166.2048
 20
32.4203
 30
0.0
 10
-166.87
 20
30.1341
 30
0.0
 10
-166.2946
 20
27.6035
 30
0.0
 10
-164.7475
 20
26.0092
 30
0.0
  0
SPLINE
  5
66
330
1F
100
AcDbEntity
  8
layer 1
 62
     7
100
AcDbSpline
210
0.0
220
0.0
230
1.0
 70
    11
 71
     3
 72
    48
 73
    44
 74
     0
 42
0.0000000001
 43
0.0000000001
 12
1.0
 22
0.0
 32
0.0
 13
1.0
 23
0.0
 33
0.0
 40
0.0
 40
0.0
 40
0.0
 40
0.0
 40
0.0833333333333333
 40
0.0833333333333333
 40
0.0833333333333333
 40
0.0833333333333333
 40
0.1666666666666667
 40
0.1666666666666667
 40
0.1666666666666667
 40
0.1666666666666667
 40
0.25
 40
0.25
 40
0.25
 40
0.25
 40
0.3333333333333333
 40
0.3333333333333333
 40
0.3333333333333333
 40
0.3333333333333333
 40
0.4166666666666667
 40
0.4166666666666667
 40
0.4166666666666667
 40
0.4166666666666667
 40
0.5
 40
0.5
 40
0.5
 40
0.5
 40
0.5833333333333334
 40
0.5833333333333334
 40
0.5833333333333334
 40
0.5833333333333334
 40
0.6666666666666666
 40
0.6666666666666666
 40
0.6666666666666666
 40
0.6666666666666666
 40
0.75
 40
0.75
 40
0.75
 40
0.75
 40
0.8333333333333334
 40
0.8333333333333334
 40
0.8333333333333334
 40
0.8333333333333334
 40
1.0
 40
1.0
 40
1.0
 40
1.0
 10
-171.1239
 20
49.6019
 30
0.0
 10
-170.0964
 20
49.3918
 30
0.0
 10
-169.1947
 20
48.6761
 30
0.0
 10
-168.6462
 20
47.6356
 30
0.0
 10
-168.6462
 20
47.6356
 30
0.0
 10
-167.1698
 20
44.4757
 30
0.0
 10
-167.0749
 20
40.6769
 30
0.0
 10
-168.3911
 20
37.4209
 30
0.0
 10
-168.3911
 20
37.4209
 30
0.0
 10
-169.6467
 20
33.9676
 30
0.0
 10
-169.9276
 20
30.1335
 30
0.0
 10
-169.1926
 20
26.4795
 30
0.0
 10
-169.1926
 20
26.4795
 30
0.0
 10
-168.6219
 20
24.9206
 30
0.0
 10
-167.9006
 20
23.4433
 30
0.0
 10
-167.0429
 20
22.0773
 30
0.0
 10
-167.0429
 20
22.0773
 30
0.0
 10
-168.7266
 20
18.6128
 30
0.0
 10
-171.7766
 20
16.367
 30
0.0
 10
-175.1681
 20
16.0937
 30
0.0
 10
-175.1681
 20
16.0937
 30
0.0
 10
-174.0462
 20
17.9006
 30
0.0
 10
-174.2002
 20
20.3933
 30
0.0
 10
-175.5323
 20
21.9916
 30
0.0
 10
-175.5323
 20
21.9916
 30
0.0
 10
-176.1447
 20
22.7164
 30
0.0
 10
-176.9127
 20
23.2332
 30
0.0
 10
-177.755
 20
23.4877
 30
0.0
 10
-177.755
 20
23.4877
 30
0.0
 10
-179.8661
 20
28.8245
 30
0.0
 10
-179.6628
 20
35.0256
 30
0.0
 10
-177.2085
 20
40.1563
 30
0.0
 10
-177.2085
 20
40.1563
 30
0.0
 10
-174.7459
 20
38.7181
 30
0.0
 10
-171.9807
 20
38.1466
 30
0.0
 10
-169.2472
 20
38.5108
 30
0.0
 10
-169.2472
 20
38.5108
 30
0.0
 10
-171.3543
 20
38.9353
 30
0.0
 10
-173.0203
 20
40.8395
 30
0.0
 10
-173.4365
 20
43.2994
 30
0.0
 10
-173.4365
 20
43.2994
 30
0.0
 10
-173.8526
 20
45.7594
 30
0.0
 10
-172.933
 20
48.2656
 30
0.0
 10
-171.1239
 20
49.6019
 30
0.0
  0
SPLINE
  5
67
330
1F
100
AcDbEntity
  8
layer 1
 62
     7
100
AcDbSpline
210
0.0
220
0.0
230
1.0
 70
    11
 71
     3
 72
    48
 73
    44
 74
     0
 42
0.0000000001
 43
0.0000000001
 12
1.0
 22
0.0
 32
0.0
 13
1.0
 23
0.0
 33
0.0
 40
0.0
 40
0.0
 40
0.0
 40
0.0
 40
0.0833333333333333
 40
0.0833333333333333
 40
0.0833333333333333
 40
0.0833333333333333
 40
0.1666666666666667
 40
0.1666666666666667
 40
0.1666666666666667
 40
0.1666666666666667
 40
0.25
 40
0.25
 40
0.25
 40
0.25
 40
0.3333333333333333
 40
0.3333333333333333
 40
0.3333333333333333
 40
0.3333333333333333
 40
0.4166666666666667
 40
0.4166666666666667
 40
0.4166666666666667
 40
0.4166666666666667
 40
0.5
 40
0.5
 40
0.5
 40
0.5
 40
0.5833333333333334
 40
0.5833333333333334
 40
0.5833333333333334
 40
0.5833333333333334
 40
0.6666666666666666
 40
0.6666666666666666
 40
0.6666666666666666
 40
0.6666666666666666
 40
0.75
 40
0.75
 40
0.75
 40
0.75
 40
0.8333333333333334
 40
0.8333333333333334
 40
0.8333333333333334
 40
0.8333333333333334
 40
1.0
 40
1.0
 40
1.0
 40
1.0
 10
-173.8563
 20
59.8595
 30
0.0
 10
-172.7373
 20
59.7491
 30
0.0
 10
-171.7025
 20
59.1172
 30
0.0
 10
-170.9835
 20
58.1052
 30
0.0
 10
-170.9835
 20
58.1052
 30
0.0
 10
-170.2647
 20
57.0932
 30
0.0
 10
-169.9215
 20
55.7853
 30
0.0
 10
-170.0308
 20
54.4743
 30
0.0
 10
-170.0308
 20
54.4743
 30
0.0
 10
-166.6914
 20
55.9638
 30
0.0
 10
-163.1462
 20
56.7173
 30
0.0
 10
-159.5738
 20
56.6966
 30
0.0
 10
-159.5738
 20
56.6966
 30
0.0
 10
-160.2423
 20
57.6809
 30
0.0
 10
-160.4835
 20
58.9735
 30
0.0
 10
-160.2267
 20
60.1953
 30
0.0
 10
-160.2267
 20
60.1953
 30
0.0
 10
-159.9696
 20
61.4172
 30
0.0
 10
-159.2441
 20
62.4298
 30
0.0
 10
-158.2619
 20
62.9367
 30
0.0
 10
-158.2619
 20
62.9367
 30
0.0
 10
-155.8547
 20
64.2632
 30
0.0
 10
-152.9843
 20
63.1092
 30
0.0
 10
-151.7764
 20
60.3294
 30
0.0
 10
-151.7764
 20
60.3294
 30
0.0
 10
-151.129
 20
58.6811
 30
0.0
 10
-151.6479
 20
56.7251
 30
0.0
 10
-152.9787
 20
55.799
 30
0.0
 10
-152.9787
 20
55.799
 30
0.0
 10
-151.8078
 20
55.4157
 30
0.0
 10
-150.6629
 20
54.9301
 30
0.0
 10
-149.5537
 20
54.3462
 30
0.0
 10
-149.5537
 20
54.3462
 30
0.0
 10
-147.5038
 20
56.7736
 30
0.0
 10
-145.3895
 20
59.1257
 30
0.0
 10
-143.214
 20
61.3981
 30
0.0
 10
-143.214
 20
61.3981
 30
0.0
 10
-150.8075
 20
68.0363
 30
0.0
 10
-161.0081
 20
68.8552
 30
0.0
 10
-169.3018
 20
63.4923
 30
0.0
 10
-169.3018
 20
63.4923
 30
0.0
 10
-170.9139
 20
62.4514
 30
0.0
 10
-172.4385
 20
61.2352
 30
0.0
 10
-173.8563
 20
59.8595
 30
0.0
  0
SPLINE
  5
68
330
1F
100
AcDbEntity
  8
layer 1
 62
     7
100
AcDbSpline
210
0.0
220
0.0
230
1.0
 70
    11
 71
     3
 72
    20
 73
    16
 74
     0
 42
0.0000000001
 43
0.0000000001
 12
1.0
 22
0.0
 32
0.0
 13
1.0
 23
0.0
 33
0.0
 40
0.0
 40
0.0
 40
0.0
 40
0.0
 40
0.2
 40
0.2
 40
0.2
 40
0.2
 40
0.4
 40
0.4
 40
0.4
 40
0.4
 40
0.6
 40
0.6
 40
0.6
 40
0.6
 40
1.0
 40
1.0
 40
1.0
 40
1.0
 10
-115.2314
 20
7.2037
 30
0.0
 10
-117.4846
 20
5.9022
 30
0.0
 10
-119.6
 20
4.2954
 30
0.0
 10
-121.5347
 20
2.4167
 30
0.0
 10
-121.5347
 20
2.4167
 30
0.0
 10
-123.0498
 20
4.1062
 30
0.0
 10
-124.6374
 20
5.7039
 30
0.0
 10
-126.2913
 20
7.2037
 30
0.0
 10
-126.2913
 20
7.2037
 30
0.0
 10
-124.6374
 20
8.7035
 30
0.0
 10
-123.0498
 20
10.3011
 30
0.0
 10
-121.5347
 20
11.9907
 30
0.0
 10
-121.5347
 20
11.9907
 30
0.0
 10
-119.6
 20
10.112
 30
0.0
 10
-117.4846
 20
8.5053
 30
0.0
 10
-115.2314
 20
7.2037
 30
0.0
  0
SPLINE
  5
69
330
1F
100
AcDbEntity
  8
layer 1
 62
     7
100
AcDbSpline
210
0.0
220
0.0
230
1.0
 70
    11
 71
     3
 72
    24
 73
    20
 74
     0
 42
0.0000000001
 43
0.0000000001
 12
1.0
 22
0.0
 32
0.0
 13
1.0
 23
0.0
 33
0.0
 40
0.0
 40
0.0
 40
0.0
 40
0.0
 40
0.1666666666666667
 40
0.1666666666666667
 40
0.1666666666666667
 40
0.1666666666666667
 40
0.3333333333333333
 40
0.3333333333333333
 40
0.3333333333333333
 40
0.3333333333333333
 40
0.5
 40
0.5
 40
0.5
 40
0.5
 40
0.6666666666666666
 40
0.6666666666666666
 40
0.6666666666666666
 40
0.6666666666666666
 40
1.0
 40
1.0
 40
1.0
 40
1.0
 10
-82.2935
 20
2.0321
 30
0.0
 10
-84.5629
 20
3.9953
 30
0.0
 10
-86.9721
 20
5.7254
 30
0.0
 10
-89.4943
 20
7.2037
 30
0.0
 10
-89.4943
 20
7.2037
 30
0.0
 10
-86.9721
 20
8.6823
 30
0.0
 10
-84.5629
 20
10.4125
 30
0.0
 10
-82.2935
 20
12.3754
 30
0.0
 10
-82.2935
 20
12.3754
 30
0.0
 10
-79.7311
 20
11.7031
 30
0.0
 10
-77.0648
 20
12.7877
 30
0.0
 10
-75.4072
 20
15.1764
 30
0.0
 10
-75.4072
 20
15.1764
 30
0.0
 10
-75.4072
 20
15.1764
 30
0.0
 10
-75.4072
 20
-0.769
 30
0.0
 10
-75.4072
 20
-0.769
 30
0.0
 10
-75.4072
 20
-0.769
 30
0.0
 10
-77.0648
 20
1.6197
 30
0.0
 10
-79.7311
 20
2.7042
 30
0.0
 10
-82.2935
 20
2.0321
 30
0.0
  0
SPLINE
  5
6A
330
1F
100
AcDbEntity
  8
layer 1
 62
     7
100
AcDbSpline
210
0.0
220
0.0
230
1.0
 70
    11
 71
     3
 72
    16
 73
    12
 74
     0
 42
0.0000000001
 43
0.0000000001
 12
1.0
 22
0.0
 32
0.0
 13
1.0
 23
0.0
 33
0.0
 40
0.0
 40
0.0
 40
0.0
 40
0.0
 40
0.25
 40
0.25
 40
0.25
 40
0.25
 40
0.5
 40
0.5
 40
0.5
 40
0.5
 40
1.0
 40
1.0
 40
1.0
 40
1.0
 10
-75.4072
 20
-11.3223
 30
0.0
 10
-75.7723
 20
-10.194
 30
0.0
 10
-76.2362
 20
-9.1131
 30
0.0
 10
-76.7918
 20
-8.0973
 30
0.0
 10
-76.7918
 20
-8.0973
 30
0.0
 10
-76.294
 20
-7.7731
 30
0.0
 10
-75.8294
 20
-7.3829
 30
0.0
 10
-75.4072
 20
-6.9345
 30
0.0
 10
-75.4072
 20
-6.9345
 30
0.0
 10
-75.4072
 20
-6.9345
 30
0.0
 10
-75.4072
 20
-11.3223
 30
0.0
 10
-75.4072
 20
-11.3223
 30
0.0
  0
SPLINE
  5
6B
330
1F
100
AcDbEntity
  8
layer 1
 62
     7
100
AcDbSpline
210
0.0
220
0.0
230
1.0
 70
    11
 71
     3
 72
    16
 73
    12
 74
     0
 42
0.0000000001
 43
0.0000000001
 12
1.0
 22
0.0
 32
0.0
 13
1.0
 23
0.0
 33
0.0
 40
0.0
 40
0.0
 40
0.0
 40
0.0
 40
0.25
 40
0.25
 40
0.25
 40
0.25
 40
0.5
 40
0.5
 40
0.5
 40
0.5
 40
1.0
 40
1.0
 40
1.0
 40
1.0
 10
-76.9739
 20
-28.7406
 30
0.0
 10
-76.3767
 20
-27.631
 30
0.0
 10
-75.8528
 20
-26.4692
 30
0.0
 10
-75.4072
 20
-25.2655
 30
0.0
 10
-75.4072
 20
-25.2655
 30
0.0
 10
-75.4072
 20
-25.2655
 30
0.0
 10
-75.4072
 20
-31.8459
 30
0.0
 10
-75.4072
 20
-31.8459
 30
0.0
 10
-75.4072
 20
-31.8459
 30
0.0
 10
-75.8328
 20
-30.748
 30
0.0
 10
-76.3581
 20
-29.7068
 30
0.0
 10
-76.9739
 20
-28.7406
 30
0.0
  0
SPLINE
  5
6C
330
1F
100
AcDbEntity
  8
layer 1
 62
     7
100
AcDbSpline
210
0.0
220
0.0
230
1.0
 70
    11
 71
     3
 72
    76
 73
    72
 74
     0
 42
0.0000000001
 43
0.0000000001
 12
1.0
 22
0.0
 32
0.0
 13
1.0
 23
0.0
 33
0.0
 40
0.0
 40
0.0
 40
0.0
 40
0.0
 40
0.0526315789473684
 40
0.0526315789473684
 40
0.0526315789473684
 40
0.0526315789473684
 40
0.1052631578947368
 40
0.1052631578947368
 40
0.1052631578947368
 40
0.1052631578947368
 40
0.1578947368421053
 40
0.1578947368421053
 40
0.1578947368421053
 40
0.1578947368421053
 40
0.2105263157894737
 40
0.2105263157894737
 40
0.2105263157894737
 40
0.2105263157894737
 40
0.2631578947368421
 40
0.2631578947368421
 40
0.2631578947368421
 40
0.2631578947368421
 40
0.3157894736842105
 40
0.3157894736842105
 40
0.3157894736842105
 40
0.3157894736842105
 40
0.3684210526315789
 40
0.3684210526315789
 40
0.3684210526315789
 40
0.3684210526315789
 40
0.4210526315789473
 40
0.4210526315789473
 40
0.4210526315789473
 40
0.4210526315789473
 40
0.4736842105263158
 40
0.4736842105263158
 40
0.4736842105263158
 40
0.4736842105263158
 40
0.5263157894736842
 40
0.5263157894736842
 40
0.5263157894736842
 40
0.5263157894736842
 40
0.5789473684210527
 40
0.5789473684210527
 40
0.5789473684210527
 40
0.5789473684210527
 40
0.631578947368421
 40
0.631578947368421
 40
0.631578947368421
 40
0.631578947368421
 40
0.6842105263157895
 40
0.6842105263157895
 40
0.6842105263157895
 40
0.6842105263157895
 40
0.7368421052631579
 40
0.7368421052631579
 40
0.7368421052631579
 40
0.7368421052631579
 40
0.7894736842105263
 40
0.7894736842105263
 40
0.7894736842105263
 40
0.7894736842105263
 40
0.8421052631578947
 40
0.8421052631578947
 40
0.8421052631578947
 40
0.8421052631578947
 40
0.8947368421052632
 40
0.8947368421052632
 40
0.8947368421052632
 40
0.8947368421052632
 40
1.0
 40
1.0
 40
1.0
 40
1.0
 10
-82.8401
 20
-50.5809
 30
0.0
 10
-89.4926
 20
-56.1195
 30
0.0
 10
-97.849
 20
-58.0489
 30
0.0
 10
-105.7947
 20
-55.8804
 30
0.0
 10
-105.7947
 20
-55.8804
 30
0.0
 10
-103.6902
 20
-62.1623
 30
0.0
 10
-103.2334
 20
-69.0382
 30
0.0
 10
-104.483
 20
-75.6264
 30
0.0
 10
-104.483
 20
-75.6264
 30
0.0
 10
-105.3469
 20
-78.5712
 30
0.0
 10
-106.8249
 20
-81.2158
 30
0.0
 10
-108.7825
 20
-83.3197
 30
0.0
 10
-108.7825
 20
-83.3197
 30
0.0
 10
-102.673
 20
-83.1797
 30
0.0
 10
-97.2184
 20
-78.7964
 30
0.0
 10
-94.9002
 20
-72.1645
 30
0.0
 10
-94.9002
 20
-72.1645
 30
0.0
 10
-96.2144
 20
-72.7102
 30
0.0
 10
-97.6767
 20
-72.3968
 30
0.0
 10
-98.7416
 20
-71.3412
 30
0.0
 10
-98.7416
 20
-71.3412
 30
0.0
 10
-99.8063
 20
-70.2856
 30
0.0
 10
-100.3137
 20
-68.6467
 30
0.0
 10
-100.0742
 20
-67.0356
 30
0.0
 10
-100.0742
 20
-67.0356
 30
0.0
 10
-99.9289
 20
-64.6638
 30
0.0
 10
-101.2463
 20
-62.5077
 30
0.0
 10
-103.2076
 20
-61.9068
 30
0.0
 10
-103.2076
 20
-61.9068
 30
0.0
 10
-101.9349
 20
-60.0874
 30
0.0
 10
-100.0133
 20
-59.0651
 30
0.0
 10
-98.0077
 20
-59.1405
 30
0.0
 10
-98.0077
 20
-59.1405
 30
0.0
 10
-96.0021
 20
-59.2158
 30
0.0
 10
-94.1402
 20
-60.3801
 30
0.0
 10
-92.9692
 20
-62.2917
 30
0.0
 10
-92.9692
 20
-62.2917
 30
0.0
 10
-92.5604
 20
-59.082
 30
0.0
 10
-90.6866
 20
-56.3919
 30
0.0
 10
-88.0869
 20
-55.2823
 30
0.0
 10
-88.0869
 20
-55.2823
 30
0.0
 10
-86.105
 20
-54.334
 30
0.0
 10
-83.8593
 20
-54.5253
 30
0.0
 10
-82.0152
 20
-55.7997
 30
0.0
 10
-82.0152
 20
-55.7997
 30
0.0
 10
-80.171
 20
-57.0741
 30
0.0
 10
-78.9399
 20
-59.2855
 30
0.0
 10
-78.6865
 20
-61.7786
 30
0.0
 10
-78.6865
 20
-61.7786
 30
0.0
 10
-81.2125
 20
-59.8987
 30
0.0
 10
-84.5226
 20
-60.402
 30
0.0
 10
-86.5565
 20
-62.9754
 30
0.0
 10
-86.5565
 20
-62.9754
 30
0.0
 10
-88.604
 20
-66.4672
 30
0.0
 10
-90.3493
 20
-70.1896
 30
0.0
 10
-91.7669
 20
-74.0878
 30
0.0
 10
-91.7669
 20
-74.0878
 30
0.0
 10
-94.4527
 20
-79.8009
 30
0.0
 10
-98.7466
 20
-84.2425
 30
0.0
 10
-103.9149
 20
-86.6534
 30
0.0
 10
-103.9149
 20
-86.6534
 30
0.0
 10
-103.9149
 20
-86.6534
 30
0.0
 10
-75.4072
 20
-86.6534
 30
0.0
 10
-75.4072
 20
-86.6534
 30
0.0
 10
-75.4072
 20
-86.6534
 30
0.0
 10
-75.4072
 20
-86.6534
 30
0.0
 10
-75.4072
 20
-40.8301
 30
0.0
 10
-75.4072
 20
-40.8301
 30
0.0
 10
-75.4072
 20
-40.8301
 30
0.0
 10
-76.9678
 20
-44.9022
 30
0.0
 10
-79.5641
 20
-48.3082
 30
0.0
 10
-82.8401
 20
-50.5809
 30
0.0
  0
SPLINE
  5
6D
330
1F
100
AcDbEntity
  8
layer 1
 62
     7
100
AcDbSpline
210
0.0
220
0.0
230
1.0
 70
    11
 71
     3
 72
    44
 73
    40
 74
     0
 42
0.0000000001
 43
0.0000000001
 12
1.0
 22
0.0
 32
0.0
 13
1.0
 23
0.0
 33
0.0
 40
0.0
 40
0.0
 40
0.0
 40
0.0
 40
0.0909090909090909
 40
0.0909090909090909
 40
0.0909090909090909
 40
0.0909090909090909
 40
0.1818181818181818
 40
0.1818181818181818
 40
0.1818181818181818
 40
0.1818181818181818
 40
0.2727272727272727
 40
0.2727272727272727
 40
0.2727272727272727
 40
0.2727272727272727
 40
0.3636363636363636
 40
0.3636363636363636
 40
0.3636363636363636
 40
0.3636363636363636
 40
0.4545454545454545
 40
0.4545454545454545
 40
0.4545454545454545
 40
0.4545454545454545
 40
0.5454545454545454
 40
0.5454545454545454
 40
0.5454545454545454
 40
0.5454545454545454
 40
0.6363636363636364
 40
0.6363636363636364
 40
0.6363636363636364
 40
0.6363636363636364
 40
0.7272727272727273
 40
0.7272727272727273
 40
0.7272727272727273
 40
0.7272727272727273
 40
0.8181818181818182
 40
0.8181818181818182
 40
0.8181818181818182
 40
0.8181818181818182
 40
1.0
 40
1.0
 40
1.0
 40
1.0
 10
-112.3167
 20
-72.1218
 30
0.0
 10
-112.5794
 20
-75.7848
 30
0.0
 10
-113.8012
 20
-79.2631
 30
0.0
 10
-115.8145
 20
-82.0802
 30
0.0
 10
-115.8145
 20
-82.0802
 30
0.0
 10
-119.7302
 20
-80.3727
 30
0.0
 10
-122.8343
 20
-76.7783
 30
0.0
 10
-124.3402
 20
-72.2072
 30
0.0
 10
-124.3402
 20
-72.2072
 30
0.0
 10
-123.1975
 20
-71.3193
 30
0.0
 10
-122.5646
 20
-69.7651
 30
0.0
 10
-122.6941
 20
-68.164
 30
0.0
 10
-122.6941
 20
-68.164
 30
0.0
 10
-122.8238
 20
-66.5632
 30
0.0
 10
-123.6946
 20
-65.1766
 30
0.0
 10
-124.9597
 20
-64.5569
 30
0.0
 10
-124.9597
 20
-64.5569
 30
0.0
 10
-124.2634
 20
-59.7698
 30
0.0
 10
-122.2246
 20
-55.3926
 30
0.0
 10
-119.1664
 20
-52.1195
 30
0.0
 10
-119.1664
 20
-52.1195
 30
0.0
 10
-117.0057
 20
-54.7489
 30
0.0
 10
-115.5165
 20
-58.0358
 30
0.0
 10
-114.8669
 20
-61.6076
 30
0.0
 10
-114.8669
 20
-61.6076
 30
0.0
 10
-114.461
 20
-63.2615
 30
0.0
 10
-114.9676
 20
-65.0378
 30
0.0
 10
-116.1404
 20
-66.072
 30
0.0
 10
-116.1404
 20
-66.072
 30
0.0
 10
-117.3132
 20
-67.106
 30
0.0
 10
-118.9085
 20
-67.1835
 30
0.0
 10
-120.1504
 20
-66.2665
 30
0.0
 10
-120.1504
 20
-66.2665
 30
0.0
 10
-120.4001
 20
-68.5788
 30
0.0
 10
-119.4908
 20
-70.8528
 30
0.0
 10
-117.8151
 20
-72.1055
 30
0.0
 10
-117.8151
 20
-72.1055
 30
0.0
 10
-116.1391
 20
-73.3581
 30
0.0
 10
-113.9977
 20
-73.3644
 30
0.0
 10
-112.3167
 20
-72.1218
 30
0.0
  0
SPLINE
  5
6E
330
1F
100
AcDbEntity
  8
layer 1
 62
     7
100
AcDbSpline
210
0.0
220
0.0
230
1.0
 70
    11
 71
     3
 72
    24
 73
    20
 74
     0
 42
0.0000000001
 43
0.0000000001
 12
1.0
 22
0.0
 32
0.0
 13
1.0
 23
0.0
 33
0.0
 40
0.0
 40
0.0
 40
0.0
 40
0.0
 40
0.1666666666666667
 40
0.1666666666666667
 40
0.1666666666666667
 40
0.1666666666666667
 40
0.3333333333333333
 40
0.3333333333333333
 40
0.3333333333333333
 40
0.3333333333333333
 40
0.5
 40
0.5
 40
0.5
 40
0.5
 40
0.6666666666666666
 40
0.6666666666666666
 40
0.6666666666666666
 40
0.6666666666666666
 40
1.0
 40
1.0
 40
1.0
 40
1.0
 10
-118.1827
 20
-43.0584
 30
0.0
 10
-115.9669
 20
-40.9621
 30
0.0
 10
-114.2585
 20
-38.2213
 30
0.0
 10
-113.2276
 20
-35.1088
 30
0.0
 10
-113.2276
 20
-35.1088
 30
0.0
 10
-115.6676
 20
-32.566
 30
0.0
 10
-117.6605
 20
-29.4879
 30
0.0
 10
-119.0936
 20
-26.0481
 30
0.0
 10
-119.0936
 20
-26.0481
 30
0.0
 10
-119.7844
 20
-25.9799
 30
0.0
 10
-120.4774
 20
-25.9515
 30
0.0
 10
-121.1705
 20
-25.9624
 30
0.0
 10
-121.1705
 20
-25.9624
 30
0.0
 10
-120.0927
 20
-29.7837
 30
0.0
 10
-120.6053
 20
-33.9767
 30
0.0
 10
-122.5551
 20
-37.2887
 30
0.0
 10
-122.5551
 20
-37.2887
 30
0.0
 10
-121.2672
 20
-39.38
 30
0.0
 10
-119.8023
 20
-41.3131
 30
0.0
 10
-118.1827
 20
-43.0584
 30
0.0
  0
SPLINE
  5
6F
330
1F
100
AcDbEntity
  8
layer 1
 62
     7
100
AcDbSpline
210
0.0
220
0.0
230
1.0
 70
    11
 71
     3
 72
    24
 73
    20
 74
     0
 42
0.0000000001
 43
0.0000000001
 12
1.0
 22
0.0
 32
0.0
 13
1.0
 23
0.0
 33
0.0
 40
0.0
 40
0.0
 40
0.0
 40
0.0
 40
0.1666666666666667
 40
0.1666666666666667
 40
0.1666666666666667
 40
0.1666666666666667
 40
0.3333333333333333
 40
0.3333333333333333
 40
0.3333333333333333
 40
0.3333333333333333
 40
0.5
 40
0.5
 40
0.5
 40
0.5
 40
0.6666666666666666
 40
0.6666666666666666
 40
0.6666666666666666
 40
0.6666666666666666
 40
1.0
 40
1.0
 40
1.0
 40
1.0
 10
-116.1059
 20
-11.2173
 30
0.0
 10
-117.8314
 20
-8.5807
 30
0.0
 10
-119.7717
 20
-6.1473
 30
0.0
 10
-121.8992
 20
-3.9515
 30
0.0
 10
-121.8992
 20
-3.9515
 30
0.0
 10
-123.804
 20
-6.6056
 30
0.0
 10
-125.2516
 20
-9.6684
 30
0.0
 10
-126.162
 20
-12.9697
 30
0.0
 10
-126.162
 20
-12.9697
 30
0.0
 10
-124.7683
 20
-12.0537
 30
0.0
 10
-123.1158
 20
-11.8458
 30
0.0
 10
-121.5883
 20
-12.3948
 30
0.0
 10
-121.5883
 20
-12.3948
 30
0.0
 10
-120.0604
 20
-12.9435
 30
0.0
 10
-118.7906
 20
-14.2013
 30
0.0
 10
-118.0733
 20
-15.8759
 30
0.0
 10
-118.0733
 20
-15.8759
 30
0.0
 10
-117.6231
 20
-14.2147
 30
0.0
 10
-116.9598
 20
-12.6437
 30
0.0
 10
-116.1059
 20
-11.2173
 30
0.0
  0
SPLINE
  5
70
330
1F
100
AcDbEntity
  8
layer 1
 62
     7
100
AcDbSpline
210
0.0
220
0.0
230
1.0
 70
    11
 71
     3
 72
    16
 73
    12
 74
     0
 42
0.0000000001
 43
0.0000000001
 12
1.0
 22
0.0
 32
0.0
 13
1.0
 23
0.0
 33
0.0
 40
0.0
 40
0.0
 40
0.0
 40
0.0
 40
0.25
 40
0.25
 40
0.25
 40
0.25
 40
0.5
 40
0.5
 40
0.5
 40
0.5
 40
1.0
 40
1.0
 40
1.0
 40
1.0
 10
-110.9321
 20
-19.124
 30
0.0
 10
-112.216
 20
-20.1479
 30
0.0
 10
-113.8366
 20
-20.4012
 30
0.0
 10
-115.3044
 20
-19.8078
 30
0.0
 10
-115.3044
 20
-19.8078
 30
0.0
 10
-114.8991
 20
-18.0022
 30
0.0
 10
-114.2991
 20
-16.2641
 30
0.0
 10
-113.519
 20
-14.6365
 30
0.0
 10
-113.519
 20
-14.6365
 30
0.0
 10
-112.2792
 20
-15.7795
 30
0.0
 10
-111.3747
 20
-17.3485
 30
0.0
 10
-110.9321
 20
-19.124
 30
0.0
  0
SPLINE
  5
71
330
1F
100
AcDbEntity
  8
layer 1
 62
     7
100
AcDbSpline
210
0.0
220
0.0
230
1.0
 70
    11
 71
     3
 72
    16
 73
    12
 74
     0
 42
0.0000000001
 43
0.0000000001
 12
1.0
 22
0.0
 32
0.0
 13
1.0
 23
0.0
 33
0.0
 40
0.0
 40
0.0
 40
0.0
 40
0.0
 40
0.25
 40
0.25
 40
0.25
 40
0.25
 40
0.5
 40
0.5
 40
0.5
 40
0.5
 40
1.0
 40
1.0
 40
1.0
 40
1.0
 10
-110.8591
 20
-20.4062
 30
0.0
 10
-109.9421
 20
-24.3026
 30
0.0
 10
-110.2393
 20
-28.4546
 30
0.0
 10
-111.6972
 20
-32.1171
 30
0.0
 10
-111.6972
 20
-32.1171
 30
0.0
 10
-113.1772
 20
-30.1595
 30
0.0
 10
-114.3382
 20
-27.8993
 30
0.0
 10
-115.1222
 20
-25.4497
 30
0.0
 10
-115.1222
 20
-25.4497
 30
0.0
 10
-113.1738
 20
-24.5214
 30
0.0
 10
-111.6339
 20
-22.6996
 30
0.0
 10
-110.8591
 20
-20.4062
 30
0.0
  0
SPLINE
  5
72
330
1F
100
AcDbEntity
  8
layer 1
 62
     7
100
AcDbSpline
210
0.0
220
0.0
230
1.0
 70
    11
 71
     3
 72
    32
 73
    28
 74
     0
 42
0.0000000001
 43
0.0000000001
 12
1.0
 22
0.0
 32
0.0
 13
1.0
 23
0.0
 33
0.0
 40
0.0
 40
0.0
 40
0.0
 40
0.0
 40
0.125
 40
0.125
 40
0.125
 40
0.125
 40
0.25
 40
0.25
 40
0.25
 40
0.25
 40
0.375
 40
0.375
 40
0.375
 40
0.375
 40
0.5
 40
0.5
 40
0.5
 40
0.5
 40
0.625
 40
0.625
 40
0.625
 40
0.625
 40
0.75
 40
0.75
 40
0.75
 40
0.75
 40
1.0
 40
1.0
 40
1.0
 40
1.0
 10
-106.669
 20
-3.3531
 30
0.0
 10
-108.7034
 20
-4.217
 30
0.0
 10
-110.6186
 20
-5.4266
 30
0.0
 10
-112.3531
 20
-6.9433
 30
0.0
 10
-112.3531
 20
-6.9433
 30
0.0
 10
-114.7306
 20
-4.9285
 30
0.0
 10
-116.9498
 20
-2.6684
 30
0.0
 10
-118.9845
 20
-0.1903
 30
0.0
 10
-118.9845
 20
-0.1903
 30
0.0
 10
-116.7871
 20
2.1759
 30
0.0
 10
-114.211
 20
4.0065
 30
0.0
 10
-111.4058
 20
5.1949
 30
0.0
 10
-111.4058
 20
5.1949
 30
0.0
 10
-109.5085
 20
4.5455
 30
0.0
 10
-107.5506
 20
4.1722
 30
0.0
 10
-105.5758
 20
4.0837
 30
0.0
 10
-105.5758
 20
4.0837
 30
0.0
 10
-106.073
 20
3.711
 30
0.0
 10
-106.6128
 20
3.4234
 30
0.0
 10
-107.179
 20
3.2289
 30
0.0
 10
-107.179
 20
3.2289
 30
0.0
 10
-108.1129
 20
2.4316
 30
0.0
 10
-108.6208
 20
1.1172
 30
0.0
 10
-108.5161
 20
-0.2319
 30
0.0
 10
-108.5161
 20
-0.2319
 30
0.0
 10
-108.4117
 20
-1.5809
 30
0.0
 10
-107.7101
 20
-2.7666
 30
0.0
 10
-106.669
 20
-3.3531
 30
0.0
  0
SPLINE
  5
73
330
1F
100
AcDbEntity
  8
layer 1
 62
     7
100
AcDbSpline
210
0.0
220
0.0
230
1.0
 70
    11
 71
     3
 72
    12
 73
     8
 74
     0
 42
0.0000000001
 43
0.0000000001
 12
1.0
 22
0.0
 32
0.0
 13
1.0
 23
0.0
 33
0.0
 40
0.0
 40
0.0
 40
0.0
 40
0.0
 40
0.3333333333333333
 40
0.3333333333333333
 40
0.3333333333333333
 40
0.3333333333333333
 40
1.0
 40
1.0
 40
1.0
 40
1.0
 10
-98.5802
 20
-7.8834
 30
0.0
 10
-101.7756
 20
-10.561
 30
0.0
 10
-105.9237
 20
-11.1107
 30
0.0
 10
-109.5475
 20
-9.3367
 30
0.0
 10
-109.5475
 20
-9.3367
 30
0.0
 10
-106.3108
 20
-6.7892
 30
0.0
 10
-102.2199
 20
-6.247
 30
0.0
 10
-98.5802
 20
-7.8834
 30
0.0
  0
SPLINE
  5
74
330
1F
100
AcDbEntity
  8
layer 1
 62
     7
100
AcDbSpline
210
0.0
220
0.0
230
1.0
 70
    11
 71
     3
 72
    28
 73
    24
 74
     0
 42
0.0000000001
 43
0.0000000001
 12
1.0
 22
0.0
 32
0.0
 13
1.0
 23
0.0
 33
0.0
 40
0.0
 40
0.0
 40
0.0
 40
0.0
 40
0.1428571428571428
 40
0.1428571428571428
 40
0.1428571428571428
 40
0.1428571428571428
 40
0.2857142857142857
 40
0.2857142857142857
 40
0.2857142857142857
 40
0.2857142857142857
 40
0.4285714285714285
 40
0.4285714285714285
 40
0.4285714285714285
 40
0.4285714285714285
 40
0.5714285714285714
 40
0.5714285714285714
 40
0.5714285714285714
 40
0.5714285714285714
 40
0.7142857142857143
 40
0.7142857142857143
 40
0.7142857142857143
 40
0.7142857142857143
 40
1.0
 40
1.0
 40
1.0
 40
1.0
 10
-86.1922
 20
1.1773
 30
0.0
 10
-88.6971
 20
2.9666
 30
0.0
 10
-91.3924
 20
4.3608
 30
0.0
 10
-94.2079
 20
5.3231
 30
0.0
 10
-94.2079
 20
5.3231
 30
0.0
 10
-96.6176
 20
4.5199
 30
0.0
 10
-99.1011
 20
4.0606
 30
0.0
 10
-101.6044
 20
3.9556
 30
0.0
 10
-101.6044
 20
3.9556
 30
0.0
 10
-100.4756
 20
3.5109
 30
0.0
 10
-99.638
 20
2.3882
 30
0.0
 10
-99.4118
 20
1.0169
 30
0.0
 10
-99.4118
 20
1.0169
 30
0.0
 10
-99.1855
 20
-0.3544
 30
0.0
 10
-99.6056
 20
-1.7626
 30
0.0
 10
-100.5113
 20
-2.6694
 30
0.0
 10
-100.5113
 20
-2.6694
 30
0.0
 10
-98.5523
 20
-3.0107
 30
0.0
 10
-96.6405
 20
-3.6576
 30
0.0
 10
-94.8274
 20
-4.5925
 30
0.0
 10
-94.8274
 20
-4.5925
 30
0.0
 10
-92.2954
 20
-2.0305
 30
0.0
 10
-89.3623
 20
-0.0708
 30
0.0
 10
-86.1922
 20
1.1773
 30
0.0
  0
SPLINE
  5
75
330
1F
100
AcDbEntity
  8
layer 1
 62
     7
100
AcDbSpline
210
0.0
220
0.0
230
1.0
 70
    11
 71
     3
 72
    36
 73
    32
 74
     0
 42
0.0000000001
 43
0.0000000001
 12
1.0
 22
0.0
 32
0.0
 13
1.0
 23
0.0
 33
0.0
 40
0.0
 40
0.0
 40
0.0
 40
0.0
 40
0.1111111111111111
 40
0.1111111111111111
 40
0.1111111111111111
 40
0.1111111111111111
 40
0.2222222222222222
 40
0.2222222222222222
 40
0.2222222222222222
 40
0.2222222222222222
 40
0.3333333333333333
 40
0.3333333333333333
 40
0.3333333333333333
 40
0.3333333333333333
 40
0.4444444444444444
 40
0.4444444444444444
 40
0.4444444444444444
 40
0.4444444444444444
 40
0.5555555555555556
 40
0.5555555555555556
 40
0.5555555555555556
 40
0.5555555555555556
 40
0.6666666666666666
 40
0.6666666666666666
 40
0.6666666666666666
 40
0.6666666666666666
 40
0.7777777777777778
 40
0.7777777777777778
 40
0.7777777777777778
 40
0.7777777777777778
 40
1.0
 40
1.0
 40
1.0
 40
1.0
 10
-92.7506
 20
-11.6019
 30
0.0
 10
-94.5081
 20
-15.8549
 30
0.0
 10
-98.1588
 20
-18.5832
 30
0.0
 10
-102.1875
 20
-18.6538
 30
0.0
 10
-102.1875
 20
-18.6538
 30
0.0
 10
-100.6911
 20
-23.0213
 30
0.0
 10
-100.9867
 20
-27.9528
 30
0.0
 10
-102.9889
 20
-32.0317
 30
0.0
 10
-102.9889
 20
-32.0317
 30
0.0
 10
-103.9064
 20
-33.7263
 30
0.0
 10
-104.8416
 20
-35.4074
 30
0.0
 10
-105.7947
 20
-37.0748
 30
0.0
 10
-105.7947
 20
-37.0748
 30
0.0
 10
-99.699
 20
-39.567
 30
0.0
 10
-93.0059
 20
-39.0898
 30
0.0
 10
-87.2124
 20
-35.7501
 30
0.0
 10
-87.2124
 20
-35.7501
 30
0.0
 10
-91.4826
 20
-35.5162
 30
0.0
 10
-95.3501
 20
-32.7233
 30
0.0
 10
-97.4507
 20
-28.3561
 30
0.0
 10
-97.4507
 20
-28.3561
 30
0.0
 10
-98.4336
 20
-25.7035
 30
0.0
 10
-98.651
 20
-22.7471
 30
0.0
 10
-98.0702
 20
-19.9363
 30
0.0
 10
-98.0702
 20
-19.9363
 30
0.0
 10
-96.5517
 20
-17.3757
 30
0.0
 10
-93.6417
 20
-16.55
 30
0.0
 10
-91.2932
 20
-18.0128
 30
0.0
 10
-91.2932
 20
-18.0128
 30
0.0
 10
-90.6281
 20
-15.7267
 30
0.0
 10
-91.2036
 20
-13.1958
 30
0.0
 10
-92.7506
 20
-11.6019
 30
0.0
  0
SPLINE
  5
76
330
1F
100
AcDbEntity
  8
layer 1
 62
     7
100
AcDbSpline
210
0.0
220
0.0
230
1.0
 70
    11
 71
     3
 72
    48
 73
    44
 74
     0
 42
0.0000000001
 43
0.0000000001
 12
1.0
 22
0.0
 32
0.0
 13
1.0
 23
0.0
 33
0.0
 40
0.0
 40
0.0
 40
0.0
 40
0.0
 40
0.0833333333333333
 40
0.0833333333333333
 40
0.0833333333333333
 40
0.0833333333333333
 40
0.1666666666666667
 40
0.1666666666666667
 40
0.1666666666666667
 40
0.1666666666666667
 40
0.25
 40
0.25
 40
0.25
 40
0.25
 40
0.3333333333333333
 40
0.3333333333333333
 40
0.3333333333333333
 40
0.3333333333333333
 40
0.4166666666666667
 40
0.4166666666666667
 40
0.4166666666666667
 40
0.4166666666666667
 40
0.5
 40
0.5
 40
0.5
 40
0.5
 40
0.5833333333333334
 40
0.5833333333333334
 40
0.5833333333333334
 40
0.5833333333333334
 40
0.6666666666666666
 40
0.6666666666666666
 40
0.6666666666666666
 40
0.6666666666666666
 40
0.75
 40
0.75
 40
0.75
 40
0.75
 40
0.8333333333333334
 40
0.8333333333333334
 40
0.8333333333333334
 40
0.8333333333333334
 40
1.0
 40
1.0
 40
1.0
 40
1.0
 10
-86.3743
 20
-35.1945
 30
0.0
 10
-87.4017
 20
-34.9844
 30
0.0
 10
-88.3034
 20
-34.2687
 30
0.0
 10
-88.852
 20
-33.2283
 30
0.0
 10
-88.852
 20
-33.2283
 30
0.0
 10
-90.3283
 20
-30.0682
 30
0.0
 10
-90.4232
 20
-26.2695
 30
0.0
 10
-89.107
 20
-23.0134
 30
0.0
 10
-89.107
 20
-23.0134
 30
0.0
 10
-87.8514
 20
-19.5602
 30
0.0
 10
-87.5705
 20
-15.7261
 30
0.0
 10
-88.3055
 20
-12.0721
 30
0.0
 10
-88.3055
 20
-12.0721
 30
0.0
 10
-88.8762
 20
-10.5129
 30
0.0
 10
-89.5975
 20
-9.0359
 30
0.0
 10
-90.4551
 20
-7.6696
 30
0.0
 10
-90.4551
 20
-7.6696
 30
0.0
 10
-88.7715
 20
-4.2054
 30
0.0
 10
-85.7216
 20
-1.9593
 30
0.0
 10
-82.33
 20
-1.6863
 30
0.0
 10
-82.33
 20
-1.6863
 30
0.0
 10
-83.4518
 20
-3.4931
 30
0.0
 10
-83.2979
 20
-5.9859
 30
0.0
 10
-81.9656
 20
-7.5842
 30
0.0
 10
-81.9656
 20
-7.5842
 30
0.0
 10
-81.3533
 20
-8.309
 30
0.0
 10
-80.5854
 20
-8.8258
 30
0.0
 10
-79.7431
 20
-9.0803
 30
0.0
 10
-79.7431
 20
-9.0803
 30
0.0
 10
-77.6321
 20
-14.417
 30
0.0
 10
-77.8353
 20
-20.6182
 30
0.0
 10
-80.2897
 20
-25.7489
 30
0.0
 10
-80.2897
 20
-25.7489
 30
0.0
 10
-82.7523
 20
-24.3106
 30
0.0
 10
-85.5173
 20
-23.7391
 30
0.0
 10
-88.2509
 20
-24.1034
 30
0.0
 10
-88.2509
 20
-24.1034
 30
0.0
 10
-86.1437
 20
-24.528
 30
0.0
 10
-84.4778
 20
-26.432
 30
0.0
 10
-84.0615
 20
-28.892
 30
0.0
 10
-84.0615
 20
-28.892
 30
0.0
 10
-83.6454
 20
-31.3519
 30
0.0
 10
-84.5651
 20
-33.8582
 30
0.0
 10
-86.3743
 20
-35.1945
 30
0.0
  0
SPLINE
  5
77
330
1F
100
AcDbEntity
  8
layer 1
 62
     7
100
AcDbSpline
210
0.0
220
0.0
230
1.0
 70
    11
 71
     3
 72
    48
 73
    44
 74
     0
 42
0.0000000001
 43
0.0000000001
 12
1.0
 22
0.0
 32
0.0
 13
1.0
 23
0.0
 33
0.0
 40
0.0
 40
0.0
 40
0.0
 40
0.0
 40
0.0833333333333333
 40
0.0833333333333333
 40
0.0833333333333333
 40
0.0833333333333333
 40
0.1666666666666667
 40
0.1666666666666667
 40
0.1666666666666667
 40
0.1666666666666667
 40
0.25
 40
0.25
 40
0.25
 40
0.25
 40
0.3333333333333333
 40
0.3333333333333333
 40
0.3333333333333333
 40
0.3333333333333333
 40
0.4166666666666667
 40
0.4166666666666667
 40
0.4166666666666667
 40
0.4166666666666667
 40
0.5
 40
0.5
 40
0.5
 40
0.5
 40
0.5833333333333334
 40
0.5833333333333334
 40
0.5833333333333334
 40
0.5833333333333334
 40
0.6666666666666666
 40
0.6666666666666666
 40
0.6666666666666666
 40
0.6666666666666666
 40
0.75
 40
0.75
 40
0.75
 40
0.75
 40
0.8333333333333334
 40
0.8333333333333334
 40
0.8333333333333334
 40
0.8333333333333334
 40
1.0
 40
1.0
 40
1.0
 40
1.0
 10
-83.6416
 20
-45.4521
 30
0.0
 10
-84.7609
 20
-45.3417
 30
0.0
 10
-85.7955
 20
-44.7098
 30
0.0
 10
-86.5145
 20
-43.6978
 30
0.0
 10
-86.5145
 20
-43.6978
 30
0.0
 10
-87.2335
 20
-42.6857
 30
0.0
 10
-87.5766
 20
-41.3779
 30
0.0
 10
-87.4675
 20
-40.067
 30
0.0
 10
-87.4675
 20
-40.067
 30
0.0
 10
-90.8067
 20
-41.5564
 30
0.0
 10
-94.3519
 20
-42.3099
 30
0.0
 10
-97.9244
 20
-42.2893
 30
0.0
 10
-97.9244
 20
-42.2893
 30
0.0
 10
-97.2558
 20
-43.2735
 30
0.0
 10
-97.0145
 20
-44.566
 30
0.0
 10
-97.2716
 20
-45.7879
 30
0.0
 10
-97.2716
 20
-45.7879
 30
0.0
 10
-97.5283
 20
-47.0097
 30
0.0
 10
-98.254
 20
-48.0224
 30
0.0
 10
-99.2361
 20
-48.5292
 30
0.0
 10
-99.2361
 20
-48.5292
 30
0.0
 10
-101.6434
 20
-49.8559
 30
0.0
 10
-104.5138
 20
-48.7018
 30
0.0
 10
-105.7217
 20
-45.922
 30
0.0
 10
-105.7217
 20
-45.922
 30
0.0
 10
-106.3692
 20
-44.2737
 30
0.0
 10
-105.8501
 20
-42.3177
 30
0.0
 10
-104.5194
 20
-41.3917
 30
0.0
 10
-104.5194
 20
-41.3917
 30
0.0
 10
-105.6903
 20
-41.0083
 30
0.0
 10
-106.8351
 20
-40.5228
 30
0.0
 10
-107.9444
 20
-39.9384
 30
0.0
 10
-107.9444
 20
-39.9384
 30
0.0
 10
-109.9943
 20
-42.3662
 30
0.0
 10
-112.1086
 20
-44.7183
 30
0.0
 10
-114.284
 20
-46.9906
 30
0.0
 10
-114.284
 20
-46.9906
 30
0.0
 10
-106.6904
 20
-53.629
 30
0.0
 10
-96.49
 20
-54.4478
 30
0.0
 10
-88.1963
 20
-49.0848
 30
0.0
 10
-88.1963
 20
-49.0848
 30
0.0
 10
-86.5844
 20
-48.044
 30
0.0
 10
-85.0595
 20
-46.8277
 30
0.0
 10
-83.6416
 20
-45.4521
 30
0.0
  0
SPLINE
  5
78
330
1F
100
AcDbEntity
  8
layer 1
 62
     7
100
AcDbSpline
210
0.0
220
0.0
230
1.0
 70
    11
 71
     3
 72
    16
 73
    12
 74
     0
 42
0.0000000001
 43
0.0000000001
 12
1.0
 22
0.0
 32
0.0
 13
1.0
 23
0.0
 33
0.0
 40
0.0
 40
0.0
 40
0.0
 40
0.0
 40
0.25
 40
0.25
 40
0.25
 40
0.25
 40
0.5
 40
0.5
 40
0.5
 40
0.5
 40
1.0
 40
1.0
 40
1.0
 40
1.0
 10
-75.4072
 20
25.7298
 30
0.0
 10
-75.7723
 20
24.6014
 30
0.0
 10
-76.2362
 20
23.5205
 30
0.0
 10
-76.7918
 20
22.5048
 30
0.0
 10
-76.7918
 20
22.5048
 30
0.0
 10
-76.294
 20
22.1805
 30
0.0
 10
-75.8294
 20
21.7903
 30
0.0
 10
-75.4072
 20
21.342
 30
0.0
 10
-75.4072
 20
21.342
 30
0.0
 10
-75.4072
 20
21.342
 30
0.0
 10
-75.4072
 20
25.7298
 30
0.0
 10
-75.4072
 20
25.7298
 30
0.0
  0
SPLINE
  5
79
330
1F
100
AcDbEntity
  8
layer 1
 62
     7
100
AcDbSpline
210
0.0
220
0.0
230
1.0
 70
    11
 71
     3
 72
    16
 73
    12
 74
     0
 42
0.0000000001
 43
0.0000000001
 12
1.0
 22
0.0
 32
0.0
 13
1.0
 23
0.0
 33
0.0
 40
0.0
 40
0.0
 40
0.0
 40
0.0
 40
0.25
 40
0.25
 40
0.25
 40
0.25
 40
0.5
 40
0.5
 40
0.5
 40
0.5
 40
1.0
 40
1.0
 40
1.0
 40
1.0
 10
-76.9739
 20
43.1481
 30
0.0
 10
-76.3767
 20
42.0385
 30
0.0
 10
-75.8528
 20
40.8766
 30
0.0
 10
-75.4072
 20
39.6729
 30
0.0
 10
-75.4072
 20
39.6729
 30
0.0
 10
-75.4072
 20
39.6729
 30
0.0
 10
-75.4072
 20
46.2534
 30
0.0
 10
-75.4072
 20
46.2534
 30
0.0
 10
-75.4072
 20
46.2534
 30
0.0
 10
-75.8328
 20
45.1553
 30
0.0
 10
-76.3581
 20
44.1141
 30
0.0
 10
-76.9739
 20
43.1481
 30
0.0
  0
SPLINE
  5
7A
330
1F
100
AcDbEntity
  8
layer 1
 62
     7
100
AcDbSpline
210
0.0
220
0.0
230
1.0
 70
    11
 71
     3
 72
    76
 73
    72
 74
     0
 42
0.0000000001
 43
0.0000000001
 12
1.0
 22
0.0
 32
0.0
 13
1.0
 23
0.0
 33
0.0
 40
0.0
 40
0.0
 40
0.0
 40
0.0
 40
0.0526315789473684
 40
0.0526315789473684
 40
0.0526315789473684
 40
0.0526315789473684
 40
0.1052631578947368
 40
0.1052631578947368
 40
0.1052631578947368
 40
0.1052631578947368
 40
0.1578947368421053
 40
0.1578947368421053
 40
0.1578947368421053
 40
0.1578947368421053
 40
0.2105263157894737
 40
0.2105263157894737
 40
0.2105263157894737
 40
0.2105263157894737
 40
0.2631578947368421
 40
0.2631578947368421
 40
0.2631578947368421
 40
0.2631578947368421
 40
0.3157894736842105
 40
0.3157894736842105
 40
0.3157894736842105
 40
0.3157894736842105
 40
0.3684210526315789
 40
0.3684210526315789
 40
0.3684210526315789
 40
0.3684210526315789
 40
0.4210526315789473
 40
0.4210526315789473
 40
0.4210526315789473
 40
0.4210526315789473
 40
0.4736842105263158
 40
0.4736842105263158
 40
0.4736842105263158
 40
0.4736842105263158
 40
0.5263157894736842
 40
0.5263157894736842
 40
0.5263157894736842
 40
0.5263157894736842
 40
0.5789473684210527
 40
0.5789473684210527
 40
0.5789473684210527
 40
0.5789473684210527
 40
0.631578947368421
 40
0.631578947368421
 40
0.631578947368421
 40
0.631578947368421
 40
0.6842105263157895
 40
0.6842105263157895
 40
0.6842105263157895
 40
0.6842105263157895
 40
0.7368421052631579
 40
0.7368421052631579
 40
0.7368421052631579
 40
0.7368421052631579
 40
0.7894736842105263
 40
0.7894736842105263
 40
0.7894736842105263
 40
0.7894736842105263
 40
0.8421052631578947
 40
0.8421052631578947
 40
0.8421052631578947
 40
0.8421052631578947
 40
0.8947368421052632
 40
0.8947368421052632
 40
0.8947368421052632
 40
0.8947368421052632
 40
1.0
 40
1.0
 40
1.0
 40
1.0
 10
-82.8401
 20
64.9883
 30
0.0
 10
-89.4926
 20
70.527
 30
0.0
 10
-97.849
 20
72.4564
 30
0.0
 10
-105.7947
 20
70.2881
 30
0.0
 10
-105.7947
 20
70.2881
 30
0.0
 10
-103.6902
 20
76.5697
 30
0.0
 10
-103.2334
 20
83.4456
 30
0.0
 10
-104.483
 20
90.0338
 30
0.0
 10
-104.483
 20
90.0338
 30
0.0
 10
-105.3469
 20
92.9787
 30
0.0
 10
-106.8249
 20
95.6231
 30
0.0
 10
-108.7825
 20
97.727
 30
0.0
 10
-108.7825
 20
97.727
 30
0.0
 10
-102.673
 20
97.5873
 30
0.0
 10
-97.2184
 20
93.2038
 30
0.0
 10
-94.9002
 20
86.5718
 30
0.0
 10
-94.9002
 20
86.5718
 30
0.0
 10
-96.2144
 20
87.1177
 30
0.0
 10
-97.6767
 20
86.8041
 30
0.0
 10
-98.7416
 20
85.7485
 30
0.0
 10
-98.7416
 20
85.7485
 30
0.0
 10
-99.8063
 20
84.6931
 30
0.0
 10
-100.3137
 20
83.0541
 30
0.0
 10
-100.0742
 20
81.443
 30
0.0
 10
-100.0742
 20
81.443
 30
0.0
 10
-99.9289
 20
79.0712
 30
0.0
 10
-101.2463
 20
76.9151
 30
0.0
 10
-103.2076
 20
76.3145
 30
0.0
 10
-103.2076
 20
76.3145
 30
0.0
 10
-101.9349
 20
74.4949
 30
0.0
 10
-100.0133
 20
73.4725
 30
0.0
 10
-98.0077
 20
73.5478
 30
0.0
 10
-98.0077
 20
73.5478
 30
0.0
 10
-96.0021
 20
73.6232
 30
0.0
 10
-94.1402
 20
74.7875
 30
0.0
 10
-92.9692
 20
76.699
 30
0.0
 10
-92.9692
 20
76.699
 30
0.0
 10
-92.5604
 20
73.4893
 30
0.0
 10
-90.6866
 20
70.7996
 30
0.0
 10
-88.0869
 20
69.6897
 30
0.0
 10
-88.0869
 20
69.6897
 30
0.0
 10
-86.105
 20
68.7414
 30
0.0
 10
-83.8593
 20
68.9327
 30
0.0
 10
-82.0152
 20
70.2071
 30
0.0
 10
-82.0152
 20
70.2071
 30
0.0
 10
-80.171
 20
71.4818
 30
0.0
 10
-78.9399
 20
73.6929
 30
0.0
 10
-78.6865
 20
76.186
 30
0.0
 10
-78.6865
 20
76.186
 30
0.0
 10
-81.2125
 20
74.3063
 30
0.0
 10
-84.5226
 20
74.8094
 30
0.0
 10
-86.5565
 20
77.3829
 30
0.0
 10
-86.5565
 20
77.3829
 30
0.0
 10
-88.604
 20
80.8746
 30
0.0
 10
-90.3493
 20
84.5971
 30
0.0
 10
-91.7669
 20
88.4952
 30
0.0
 10
-91.7669
 20
88.4952
 30
0.0
 10
-94.4527
 20
94.2084
 30
0.0
 10
-98.7466
 20
98.65
 30
0.0
 10
-103.9149
 20
101.0608
 30
0.0
 10
-103.9149
 20
101.0608
 30
0.0
 10
-103.9149
 20
101.0608
 30
0.0
 10
-75.4072
 20
101.0608
 30
0.0
 10
-75.4072
 20
101.0608
 30
0.0
 10
-75.4072
 20
101.0608
 30
0.0
 10
-75.4072
 20
101.0608
 30
0.0
 10
-75.4072
 20
55.2375
 30
0.0
 10
-75.4072
 20
55.2375
 30
0.0
 10
-75.4072
 20
55.2375
 30
0.0
 10
-76.9678
 20
59.3095
 30
0.0
 10
-79.5641
 20
62.7156
 30
0.0
 10
-82.8401
 20
64.9883
 30
0.0
  0
SPLINE
  5
7B
330
1F
100
AcDbEntity
  8
layer 1
 62
     7
100
AcDbSpline
210
0.0
220
0.0
230
1.0
 70
    11
 71
     3
 72
    44
 73
    40
 74
     0
 42
0.0000000001
 43
0.0000000001
 12
1.0
 22
0.0
 32
0.0
 13
1.0
 23
0.0
 33
0.0
 40
0.0
 40
0.0
 40
0.0
 40
0.0
 40
0.0909090909090909
 40
0.0909090909090909
 40
0.0909090909090909
 40
0.0909090909090909
 40
0.1818181818181818
 40
0.1818181818181818
 40
0.1818181818181818
 40
0.1818181818181818
 40
0.2727272727272727
 40
0.2727272727272727
 40
0.2727272727272727
 40
0.2727272727272727
 40
0.3636363636363636
 40
0.3636363636363636
 40
0.3636363636363636
 40
0.3636363636363636
 40
0.4545454545454545
 40
0.4545454545454545
 40
0.4545454545454545
 40
0.4545454545454545
 40
0.5454545454545454
 40
0.5454545454545454
 40
0.5454545454545454
 40
0.5454545454545454
 40
0.6363636363636364
 40
0.6363636363636364
 40
0.6363636363636364
 40
0.6363636363636364
 40
0.7272727272727273
 40
0.7272727272727273
 40
0.7272727272727273
 40
0.7272727272727273
 40
0.8181818181818182
 40
0.8181818181818182
 40
0.8181818181818182
 40
0.8181818181818182
 40
1.0
 40
1.0
 40
1.0
 40
1.0
 10
-112.3167
 20
86.5292
 30
0.0
 10
-112.5794
 20
90.1924
 30
0.0
 10
-113.8012
 20
93.6706
 30
0.0
 10
-115.8145
 20
96.4877
 30
0.0
 10
-115.8145
 20
96.4877
 30
0.0
 10
-119.7302
 20
94.7802
 30
0.0
 10
-122.8343
 20
91.1857
 30
0.0
 10
-124.3402
 20
86.6146
 30
0.0
 10
-124.3402
 20
86.6146
 30
0.0
 10
-123.1975
 20
85.7267
 30
0.0
 10
-122.5646
 20
84.1725
 30
0.0
 10
-122.6941
 20
82.5714
 30
0.0
 10
-122.6941
 20
82.5714
 30
0.0
 10
-122.8238
 20
80.9708
 30
0.0
 10
-123.6946
 20
79.5839
 30
0.0
 10
-124.9597
 20
78.9643
 30
0.0
 10
-124.9597
 20
78.9643
 30
0.0
 10
-124.2634
 20
74.1772
 30
0.0
 10
-122.2246
 20
69.8001
 30
0.0
 10
-119.1664
 20
66.5268
 30
0.0
 10
-119.1664
 20
66.5268
 30
0.0
 10
-117.0057
 20
69.1563
 30
0.0
 10
-115.5165
 20
72.4432
 30
0.0
 10
-114.8669
 20
76.0153
 30
0.0
 10
-114.8669
 20
76.0153
 30
0.0
 10
-114.461
 20
77.669
 30
0.0
 10
-114.9676
 20
79.4451
 30
0.0
 10
-116.1404
 20
80.4794
 30
0.0
 10
-116.1404
 20
80.4794
 30
0.0
 10
-117.3132
 20
81.5133
 30
0.0
 10
-118.9085
 20
81.5909
 30
0.0
 10
-120.1504
 20
80.6739
 30
0.0
 10
-120.1504
 20
80.6739
 30
0.0
 10
-120.4001
 20
82.9863
 30
0.0
 10
-119.4908
 20
85.2602
 30
0.0
 10
-117.8151
 20
86.513
 30
0.0
 10
-117.8151
 20
86.513
 30
0.0
 10
-116.1391
 20
87.7655
 30
0.0
 10
-113.9977
 20
87.7718
 30
0.0
 10
-112.3167
 20
86.5292
 30
0.0
  0
SPLINE
  5
7C
330
1F
100
AcDbEntity
  8
layer 1
 62
     7
100
AcDbSpline
210
0.0
220
0.0
230
1.0
 70
    11
 71
     3
 72
    24
 73
    20
 74
     0
 42
0.0000000001
 43
0.0000000001
 12
1.0
 22
0.0
 32
0.0
 13
1.0
 23
0.0
 33
0.0
 40
0.0
 40
0.0
 40
0.0
 40
0.0
 40
0.1666666666666667
 40
0.1666666666666667
 40
0.1666666666666667
 40
0.1666666666666667
 40
0.3333333333333333
 40
0.3333333333333333
 40
0.3333333333333333
 40
0.3333333333333333
 40
0.5
 40
0.5
 40
0.5
 40
0.5
 40
0.6666666666666666
 40
0.6666666666666666
 40
0.6666666666666666
 40
0.6666666666666666
 40
1.0
 40
1.0
 40
1.0
 40
1.0
 10
-118.1827
 20
57.4661
 30
0.0
 10
-115.9669
 20
55.3695
 30
0.0
 10
-114.2585
 20
52.6287
 30
0.0
 10
-113.2276
 20
49.5162
 30
0.0
 10
-113.2276
 20
49.5162
 30
0.0
 10
-115.6676
 20
46.9734
 30
0.0
 10
-117.6605
 20
43.8957
 30
0.0
 10
-119.0936
 20
40.4555
 30
0.0
 10
-119.0936
 20
40.4555
 30
0.0
 10
-119.7844
 20
40.3873
 30
0.0
 10
-120.4774
 20
40.3589
 30
0.0
 10
-121.1705
 20
40.3698
 30
0.0
 10
-121.1705
 20
40.3698
 30
0.0
 10
-120.0927
 20
44.1911
 30
0.0
 10
-120.6053
 20
48.3841
 30
0.0
 10
-122.5551
 20
51.6961
 30
0.0
 10
-122.5551
 20
51.6961
 30
0.0
 10
-121.2672
 20
53.7877
 30
0.0
 10
-119.8023
 20
55.7206
 30
0.0
 10
-118.1827
 20
57.4661
 30
0.0
  0
SPLINE
  5
7D
330
1F
100
AcDbEntity
  8
layer 1
 62
     7
100
AcDbSpline
210
0.0
220
0.0
230
1.0
 70
    11
 71
     3
 72
    24
 73
    20
 74
     0
 42
0.0000000001
 43
0.0000000001
 12
1.0
 22
0.0
 32
0.0
 13
1.0
 23
0.0
 33
0.0
 40
0.0
 40
0.0
 40
0.0
 40
0.0
 40
0.1666666666666667
 40
0.1666666666666667
 40
0.1666666666666667
 40
0.1666666666666667
 40
0.3333333333333333
 40
0.3333333333333333
 40
0.3333333333333333
 40
0.3333333333333333
 40
0.5
 40
0.5
 40
0.5
 40
0.5
 40
0.6666666666666666
 40
0.6666666666666666
 40
0.6666666666666666
 40
0.6666666666666666
 40
1.0
 40
1.0
 40
1.0
 40
1.0
 10
-116.1059
 20
25.6247
 30
0.0
 10
-117.8314
 20
22.9881
 30
0.0
 10
-119.7717
 20
20.5547
 30
0.0
 10
-121.8992
 20
18.3589
 30
0.0
 10
-121.8992
 20
18.3589
 30
0.0
 10
-123.804
 20
21.0134
 30
0.0
 10
-125.2516
 20
24.0758
 30
0.0
 10
-126.162
 20
27.3771
 30
0.0
 10
-126.162
 20
27.3771
 30
0.0
 10
-124.7683
 20
26.4611
 30
0.0
 10
-123.1158
 20
26.2531
 30
0.0
 10
-121.5883
 20
26.8022
 30
0.0
 10
-121.5883
 20
26.8022
 30
0.0
 10
-120.0604
 20
27.3509
 30
0.0
 10
-118.7906
 20
28.6087
 30
0.0
 10
-118.0733
 20
30.2833
 30
0.0
 10
-118.0733
 20
30.2833
 30
0.0
 10
-117.6231
 20
28.6221
 30
0.0
 10
-116.9598
 20
27.0514
 30
0.0
 10
-116.1059
 20
25.6247
 30
0.0
  0
SPLINE
  5
7E
330
1F
100
AcDbEntity
  8
layer 1
 62
     7
100
AcDbSpline
210
0.0
220
0.0
230
1.0
 70
    11
 71
     3
 72
    16
 73
    12
 74
     0
 42
0.0000000001
 43
0.0000000001
 12
1.0
 22
0.0
 32
0.0
 13
1.0
 23
0.0
 33
0.0
 40
0.0
 40
0.0
 40
0.0
 40
0.0
 40
0.25
 40
0.25
 40
0.25
 40
0.25
 40
0.5
 40
0.5
 40
0.5
 40
0.5
 40
1.0
 40
1.0
 40
1.0
 40
1.0
 10
-110.9321
 20
33.5314
 30
0.0
 10
-112.216
 20
34.5554
 30
0.0
 10
-113.8366
 20
34.8086
 30
0.0
 10
-115.3044
 20
34.2155
 30
0.0
 10
-115.3044
 20
34.2155
 30
0.0
 10
-114.8991
 20
32.4093
 30
0.0
 10
-114.2991
 20
30.6716
 30
0.0
 10
-113.519
 20
29.0439
 30
0.0
 10
-113.519
 20
29.0439
 30
0.0
 10
-112.2792
 20
30.187
 30
0.0
 10
-111.3747
 20
31.7562
 30
0.0
 10
-110.9321
 20
33.5314
 30
0.0
  0
SPLINE
  5
7F
330
1F
100
AcDbEntity
  8
layer 1
 62
     7
100
AcDbSpline
210
0.0
220
0.0
230
1.0
 70
    11
 71
     3
 72
    16
 73
    12
 74
     0
 42
0.0000000001
 43
0.0000000001
 12
1.0
 22
0.0
 32
0.0
 13
1.0
 23
0.0
 33
0.0
 40
0.0
 40
0.0
 40
0.0
 40
0.0
 40
0.25
 40
0.25
 40
0.25
 40
0.25
 40
0.5
 40
0.5
 40
0.5
 40
0.5
 40
1.0
 40
1.0
 40
1.0
 40
1.0
 10
-110.8591
 20
34.8137
 30
0.0
 10
-109.9421
 20
38.71
 30
0.0
 10
-110.2393
 20
42.862
 30
0.0
 10
-111.6972
 20
46.5244
 30
0.0
 10
-111.6972
 20
46.5244
 30
0.0
 10
-113.1772
 20
44.5669
 30
0.0
 10
-114.3382
 20
42.3067
 30
0.0
 10
-115.1222
 20
39.8571
 30
0.0
 10
-115.1222
 20
39.8571
 30
0.0
 10
-113.1738
 20
38.9291
 30
0.0
 10
-111.6339
 20
37.107
 30
0.0
 10
-110.8591
 20
34.8137
 30
0.0
  0
SPLINE
  5
80
330
1F
100
AcDbEntity
  8
layer 1
 62
     7
100
AcDbSpline
210
0.0
220
0.0
230
1.0
 70
    11
 71
     3
 72
    32
 73
    28
 74
     0
 42
0.0000000001
 43
0.0000000001
 12
1.0
 22
0.0
 32
0.0
 13
1.0
 23
0.0
 33
0.0
 40
0.0
 40
0.0
 40
0.0
 40
0.0
 40
0.125
 40
0.125
 40
0.125
 40
0.125
 40
0.25
 40
0.25
 40
0.25
 40
0.25
 40
0.375
 40
0.375
 40
0.375
 40
0.375
 40
0.5
 40
0.5
 40
0.5
 40
0.5
 40
0.625
 40
0.625
 40
0.625
 40
0.625
 40
0.75
 40
0.75
 40
0.75
 40
0.75
 40
1.0
 40
1.0
 40
1.0
 40
1.0
 10
-106.669
 20
17.7605
 30
0.0
 10
-108.7034
 20
18.6243
 30
0.0
 10
-110.6186
 20
19.834
 30
0.0
 10
-112.3531
 20
21.3508
 30
0.0
 10
-112.3531
 20
21.3508
 30
0.0
 10
-114.7306
 20
19.336
 30
0.0
 10
-116.9498
 20
17.0758
 30
0.0
 10
-118.9845
 20
14.5977
 30
0.0
 10
-118.9845
 20
14.5977
 30
0.0
 10
-116.7871
 20
12.2315
 30
0.0
 10
-114.211
 20
10.4009
 30
0.0
 10
-111.4058
 20
9.2125
 30
0.0
 10
-111.4058
 20
9.2125
 30
0.0
 10
-109.5085
 20
9.8619
 30
0.0
 10
-107.5506
 20
10.2352
 30
0.0
 10
-105.5758
 20
10.3237
 30
0.0
 10
-105.5758
 20
10.3237
 30
0.0
 10
-106.073
 20
10.6963
 30
0.0
 10
-106.6128
 20
10.984
 30
0.0
 10
-107.179
 20
11.1785
 30
0.0
 10
-107.179
 20
11.1785
 30
0.0
 10
-108.1129
 20
11.9757
 30
0.0
 10
-108.6208
 20
13.2902
 30
0.0
 10
-108.5161
 20
14.6392
 30
0.0
 10
-108.5161
 20
14.6392
 30
0.0
 10
-108.4117
 20
15.9884
 30
0.0
 10
-107.7101
 20
17.174
 30
0.0
 10
-106.669
 20
17.7605
 30
0.0
  0
SPLINE
  5
81
330
1F
100
AcDbEntity
  8
layer 1
 62
     7
100
AcDbSpline
210
0.0
220
0.0
230
1.0
 70
    11
 71
     3
 72
    12
 73
     8
 74
     0
 42
0.0000000001
 43
0.0000000001
 12
1.0
 22
0.0
 32
0.0
 13
1.0
 23
0.0
 33
0.0
 40
0.0
 40
0.0
 40
0.0
 40
0.0
 40
0.3333333333333333
 40
0.3333333333333333
 40
0.3333333333333333
 40
0.3333333333333333
 40
1.0
 40
1.0
 40
1.0
 40
1.0
 10
-98.5802
 20
22.2909
 30
0.0
 10
-101.7756
 20
24.9684
 30
0.0
 10
-105.9237
 20
25.5181
 30
0.0
 10
-109.5475
 20
23.7441
 30
0.0
 10
-109.5475
 20
23.7441
 30
0.0
 10
-106.3108
 20
21.1965
 30
0.0
 10
-102.2199
 20
20.6544
 30
0.0
 10
-98.5802
 20
22.2909
 30
0.0
  0
SPLINE
  5
82
330
1F
100
AcDbEntity
  8
layer 1
 62
     7
100
AcDbSpline
210
0.0
220
0.0
230
1.0
 70
    11
 71
     3
 72
    28
 73
    24
 74
     0
 42
0.0000000001
 43
0.0000000001
 12
1.0
 22
0.0
 32
0.0
 13
1.0
 23
0.0
 33
0.0
 40
0.0
 40
0.0
 40
0.0
 40
0.0
 40
0.1428571428571428
 40
0.1428571428571428
 40
0.1428571428571428
 40
0.1428571428571428
 40
0.2857142857142857
 40
0.2857142857142857
 40
0.2857142857142857
 40
0.2857142857142857
 40
0.4285714285714285
 40
0.4285714285714285
 40
0.4285714285714285
 40
0.4285714285714285
 40
0.5714285714285714
 40
0.5714285714285714
 40
0.5714285714285714
 40
0.5714285714285714
 40
0.7142857142857143
 40
0.7142857142857143
 40
0.7142857142857143
 40
0.7142857142857143
 40
1.0
 40
1.0
 40
1.0
 40
1.0
 10
-86.1922
 20
13.2302
 30
0.0
 10
-88.6971
 20
11.4408
 30
0.0
 10
-91.3924
 20
10.0467
 30
0.0
 10
-94.2079
 20
9.0843
 30
0.0
 10
-94.2079
 20
9.0843
 30
0.0
 10
-96.6176
 20
9.8875
 30
0.0
 10
-99.1011
 20
10.3468
 30
0.0
 10
-101.6044
 20
10.4519
 30
0.0
 10
-101.6044
 20
10.4519
 30
0.0
 10
-100.4756
 20
10.8964
 30
0.0
 10
-99.638
 20
12.0192
 30
0.0
 10
-99.4118
 20
13.3905
 30
0.0
 10
-99.4118
 20
13.3905
 30
0.0
 10
-99.1855
 20
14.7618
 30
0.0
 10
-99.6056
 20
16.17
 30
0.0
 10
-100.5113
 20
17.0767
 30
0.0
 10
-100.5113
 20
17.0767
 30
0.0
 10
-98.5523
 20
17.4181
 30
0.0
 10
-96.6405
 20
18.065
 30
0.0
 10
-94.8274
 20
18.9998
 30
0.0
 10
-94.8274
 20
18.9998
 30
0.0
 10
-92.2954
 20
16.438
 30
0.0
 10
-89.3623
 20
14.4782
 30
0.0
 10
-86.1922
 20
13.2302
 30
0.0
  0
SPLINE
  5
83
330
1F
100
AcDbEntity
  8
layer 1
 62
     7
100
AcDbSpline
210
0.0
220
0.0
230
1.0
 70
    11
 71
     3
 72
    36
 73
    32
 74
     0
 42
0.0000000001
 43
0.0000000001
 12
1.0
 22
0.0
 32
0.0
 13
1.0
 23
0.0
 33
0.0
 40
0.0
 40
0.0
 40
0.0
 40
0.0
 40
0.1111111111111111
 40
0.1111111111111111
 40
0.1111111111111111
 40
0.1111111111111111
 40
0.2222222222222222
 40
0.2222222222222222
 40
0.2222222222222222
 40
0.2222222222222222
 40
0.3333333333333333
 40
0.3333333333333333
 40
0.3333333333333333
 40
0.3333333333333333
 40
0.4444444444444444
 40
0.4444444444444444
 40
0.4444444444444444
 40
0.4444444444444444
 40
0.5555555555555556
 40
0.5555555555555556
 40
0.5555555555555556
 40
0.5555555555555556
 40
0.6666666666666666
 40
0.6666666666666666
 40
0.6666666666666666
 40
0.6666666666666666
 40
0.7777777777777778
 40
0.7777777777777778
 40
0.7777777777777778
 40
0.7777777777777778
 40
1.0
 40
1.0
 40
1.0
 40
1.0
 10
-92.7506
 20
26.0092
 30
0.0
 10
-94.5081
 20
30.2623
 30
0.0
 10
-98.1588
 20
32.9905
 30
0.0
 10
-102.1875
 20
33.0615
 30
0.0
 10
-102.1875
 20
33.0615
 30
0.0
 10
-100.6911
 20
37.4287
 30
0.0
 10
-100.9867
 20
42.3602
 30
0.0
 10
-102.9889
 20
46.4391
 30
0.0
 10
-102.9889
 20
46.4391
 30
0.0
 10
-103.9064
 20
48.1337
 30
0.0
 10
-104.8416
 20
49.8148
 30
0.0
 10
-105.7947
 20
51.4826
 30
0.0
 10
-105.7947
 20
51.4826
 30
0.0
 10
-99.699
 20
53.9747
 30
0.0
 10
-93.0059
 20
53.4973
 30
0.0
 10
-87.2124
 20
50.1575
 30
0.0
 10
-87.2124
 20
50.1575
 30
0.0
 10
-91.4826
 20
49.9236
 30
0.0
 10
-95.3501
 20
47.1306
 30
0.0
 10
-97.4507
 20
42.7635
 30
0.0
 10
-97.4507
 20
42.7635
 30
0.0
 10
-98.4336
 20
40.111
 30
0.0
 10
-98.651
 20
37.1545
 30
0.0
 10
-98.0702
 20
34.3437
 30
0.0
 10
-98.0702
 20
34.3437
 30
0.0
 10
-96.5517
 20
31.7831
 30
0.0
 10
-93.6417
 20
30.9573
 30
0.0
 10
-91.2932
 20
32.4203
 30
0.0
 10
-91.2932
 20
32.4203
 30
0.0
 10
-90.6281
 20
30.1341
 30
0.0
 10
-91.2036
 20
27.6035
 30
0.0
 10
-92.7506
 20
26.0092
 30
0.0
  0
SPLINE
  5
84
330
1F
100
AcDbEntity
  8
layer 1
 62
     7
100
AcDbSpline
210
0.0
220
0.0
230
1.0
 70
    11
 71
     3
 72
    48
 73
    44
 74
     0
 42
0.0000000001
 43
0.0000000001
 12
1.0
 22
0.0
 32
0.0
 13
1.0
 23
0.0
 33
0.0
 40
0.0
 40
0.0
 40
0.0
 40
0.0
 40
0.0833333333333333
 40
0.0833333333333333
 40
0.0833333333333333
 40
0.0833333333333333
 40
0.1666666666666667
 40
0.1666666666666667
 40
0.1666666666666667
 40
0.1666666666666667
 40
0.25
 40
0.25
 40
0.25
 40
0.25
 40
0.3333333333333333
 40
0.3333333333333333
 40
0.3333333333333333
 40
0.3333333333333333
 40
0.4166666666666667
 40
0.4166666666666667
 40
0.4166666666666667
 40
0.4166666666666667
 40
0.5
 40
0.5
 40
0.5
 40
0.5
 40
0.5833333333333334
 40
0.5833333333333334
 40
0.5833333333333334
 40
0.5833333333333334
 40
0.6666666666666666
 40
0.6666666666666666
 40
0.6666666666666666
 40
0.6666666666666666
 40
0.75
 40
0.75
 40
0.75
 40
0.75
 40
0.8333333333333334
 40
0.8333333333333334
 40
0.8333333333333334
 40
0.8333333333333334
 40
1.0
 40
1.0
 40
1.0
 40
1.0
 10
-86.3743
 20
49.6019
 30
0.0
 10
-87.4017
 20
49.3918
 30
0.0
 10
-88.3034
 20
48.6761
 30
0.0
 10
-88.852
 20
47.6356
 30
0.0
 10
-88.852
 20
47.6356
 30
0.0
 10
-90.3283
 20
44.4757
 30
0.0
 10
-90.4232
 20
40.6769
 30
0.0
 10
-89.107
 20
37.4209
 30
0.0
 10
-89.107
 20
37.4209
 30
0.0
 10
-87.8514
 20
33.9676
 30
0.0
 10
-87.5705
 20
30.1335
 30
0.0
 10
-88.3055
 20
26.4795
 30
0.0
 10
-88.3055
 20
26.4795
 30
0.0
 10
-88.8762
 20
24.9206
 30
0.0
 10
-89.5975
 20
23.4433
 30
0.0
 10
-90.4551
 20
22.0773
 30
0.0
 10
-90.4551
 20
22.0773
 30
0.0
 10
-88.7715
 20
18.6128
 30
0.0
 10
-85.7216
 20
16.367
 30
0.0
 10
-82.33
 20
16.0937
 30
0.0
 10
-82.33
 20
16.0937
 30
0.0
 10
-83.4518
 20
17.9006
 30
0.0
 10
-83.2979
 20
20.3933
 30
0.0
 10
-81.9656
 20
21.9916
 30
0.0
 10
-81.9656
 20
21.9916
 30
0.0
 10
-81.3533
 20
22.7164
 30
0.0
 10
-80.5854
 20
23.2332
 30
0.0
 10
-79.7431
 20
23.4877
 30
0.0
 10
-79.7431
 20
23.4877
 30
0.0
 10
-77.6321
 20
28.8245
 30
0.0
 10
-77.8353
 20
35.0256
 30
0.0
 10
-80.2897
 20
40.1563
 30
0.0
 10
-80.2897
 20
40.1563
 30
0.0
 10
-82.7523
 20
38.7181
 30
0.0
 10
-85.5173
 20
38.1466
 30
0.0
 10
-88.2509
 20
38.5108
 30
0.0
 10
-88.2509
 20
38.5108
 30
0.0
 10
-86.1437
 20
38.9353
 30
0.0
 10
-84.4778
 20
40.8395
 30
0.0
 10
-84.0615
 20
43.2994
 30
0.0
 10
-84.0615
 20
43.2994
 30
0.0
 10
-83.6454
 20
45.7594
 30
0.0
 10
-84.5651
 20
48.2656
 30
0.0
 10
-86.3743
 20
49.6019
 30
0.0
  0
SPLINE
  5
85
330
1F
100
AcDbEntity
  8
layer 1
 62
     7
100
AcDbSpline
210
0.0
220
0.0
230
1.0
 70
    11
 71
     3
 72
    48
 73
    44
 74
     0
 42
0.0000000001
 43
0.0000000001
 12
1.0
 22
0.0
 32
0.0
 13
1.0
 23
0.0
 33
0.0
 40
0.0
 40
0.0
 40
0.0
 40
0.0
 40
0.0833333333333333
 40
0.0833333333333333
 40
0.0833333333333333
 40
0.0833333333333333
 40
0.1666666666666667
 40
0.1666666666666667
 40
0.1666666666666667
 40
0.1666666666666667
 40
0.25
 40
0.25
 40
0.25
 40
0.25
 40
0.3333333333333333
 40
0.3333333333333333
 40
0.3333333333333333
 40
0.3333333333333333
 40
0.4166666666666667
 40
0.4166666666666667
 40
0.4166666666666667
 40
0.4166666666666667
 40
0.5
 40
0.5
 40
0.5
 40
0.5
 40
0.5833333333333334
 40
0.5833333333333334
 40
0.5833333333333334
 40
0.5833333333333334
 40
0.6666666666666666
 40
0.6666666666666666
 40
0.6666666666666666
 40
0.6666666666666666
 40
0.75
 40
0.75
 40
0.75
 40
0.75
 40
0.8333333333333334
 40
0.8333333333333334
 40
0.8333333333333334
 40
0.8333333333333334
 40
1.0
 40
1.0
 40
1.0
 40
1.0
 10
-83.6416
 20
59.8595
 30
0.0
 10
-84.7609
 20
59.7491
 30
0.0
 10
-85.7955
 20
59.1172
 30
0.0
 10
-86.5145
 20
58.1052
 30
0.0
 10
-86.5145
 20
58.1052
 30
0.0
 10
-87.2335
 20
57.0932
 30
0.0
 10
-87.5766
 20
55.7853
 30
0.0
 10
-87.4675
 20
54.4743
 30
0.0
 10
-87.4675
 20
54.4743
 30
0.0
 10
-90.8067
 20
55.9638
 30
0.0
 10
-94.3519
 20
56.7173
 30
0.0
 10
-97.9244
 20
56.6966
 30
0.0
 10
-97.9244
 20
56.6966
 30
0.0
 10
-97.2558
 20
57.6809
 30
0.0
 10
-97.0145
 20
58.9735
 30
0.0
 10
-97.2716
 20
60.1953
 30
0.0
 10
-97.2716
 20
60.1953
 30
0.0
 10
-97.5283
 20
61.4172
 30
0.0
 10
-98.254
 20
62.4298
 30
0.0
 10
-99.2361
 20
62.9367
 30
0.0
 10
-99.2361
 20
62.9367
 30
0.0
 10
-101.6434
 20
64.2632
 30
0.0
 10
-104.5138
 20
63.1092
 30
0.0
 10
-105.7217
 20
60.3294
 30
0.0
 10
-105.7217
 20
60.3294
 30
0.0
 10
-106.3692
 20
58.6811
 30
0.0
 10
-105.8501
 20
56.7251
 30
0.0
 10
-104.5194
 20
55.799
 30
0.0
 10
-104.5194
 20
55.799
 30
0.0
 10
-105.6903
 20
55.4157
 30
0.0
 10
-106.8351
 20
54.9301
 30
0.0
 10
-107.9444
 20
54.3462
 30
0.0
 10
-107.9444
 20
54.3462
 30
0.0
 10
-109.9943
 20
56.7736
 30
0.0
 10
-112.1086
 20
59.1257
 30
0.0
 10
-114.284
 20
61.3981
 30
0.0
 10
-114.284
 20
61.3981
 30
0.0
 10
-106.6904
 20
68.0363
 30
0.0
 10
-96.49
 20
68.8552
 30
0.0
 10
-88.1963
 20
63.4923
 30
0.0
 10
-88.1963
 20
63.4923
 30
0.0
 10
-86.5844
 20
62.4514
 30
0.0
 10
-85.0595
 20
61.2352
 30
0.0
 10
-83.6416
 20
59.8595
 30
0.0
  0
SPLINE
  5
86
330
1F
100
AcDbEntity
  8
layer 1
 62
   250
100
AcDbSpline
210
0.0
220
0.0
230
1.0
 70
    11
 71
     3
 72
    20
 73
    16
 74
     0
 42
0.0000000001
 43
0.0000000001
 12
1.0
 22
0.0
 32
0.0
 13
1.0
 23
0.0
 33
0.0
 40
0.0
 40
0.0
 40
0.0
 40
0.0
 40
0.2
 40
0.2
 40
0.2
 40
0.2
 40
0.4
 40
0.4
 40
0.4
 40
0.4
 40
0.6
 40
0.6
 40
0.6
 40
0.6
 40
1.0
 40
1.0
 40
1.0
 40
1.0
 10
-55.649
 20
107.9699
 30
0.0
 10
-55.649
 20
107.9699
 30
0.0
 10
75.5981
 20
107.9699
 30
0.0
 10
75.5981
 20
107.9699
 30
0.0
 10
75.5981
 20
107.9699
 30
0.0
 10
75.5981
 20
107.9699
 30
0.0
 10
75.5981
 20
-90.7606
 30
0.0
 10
75.5981
 20
-90.7606
 30
0.0
 10
75.5981
 20
-90.7606
 30
0.0
 10
75.5981
 20
-90.7606
 30
0.0
 10
-55.649
 20
-90.7606
 30
0.0
 10
-55.649
 20
-90.7606
 30
0.0
 10
-55.649
 20
-90.7606
 30
0.0
 10
-55.649
 20
-90.7606
 30
0.0
 10
-55.649
 20
107.9699
 30
0.0
 10
-55.649
 20
107.9699
 30
0.0
  0
SPLINE
  5
87
330
1F
100
AcDbEntity
  8
layer 1
 62
     7
100
AcDbSpline
210
0.0
220
0.0
230
1.0
 70
    11
 71
     3
 72
    24
 73
    20
 74
     0
 42
0.0000000001
 43
0.0000000001
 12
1.0
 22
0.0
 32
0.0
 13
1.0
 23
0.0
 33
0.0
 40
0.0
 40
0.0
 40
0.0
 40
0.0
 40
0.1666666666666667
 40
0.1666666666666667
 40
0.1666666666666667
 40
0.1666666666666667
 40
0.3333333333333333
 40
0.3333333333333333
 40
0.3333333333333333
 40
0.3333333333333333
 40
0.5
 40
0.5
 40
0.5
 40
0.5
 40
0.6666666666666666
 40
0.6666666666666666
 40
0.6666666666666666
 40
0.6666666666666666
 40
1.0
 40
1.0
 40
1.0
 40
1.0
 10
2.8058
 20
74.4352
 30
0.0
 10
4.1401
 20
75.9507
 30
0.0
 10
5.5706
 20
77.8398
 30
0.0
 10
6.2864
 20
79.8929
 30
0.0
 10
6.2864
 20
79.8929
 30
0.0
 10
4.9739
 20
78.0974
 30
0.0
 10
3.0845
 20
78.5133
 30
0.0
 10
2.871
 20
79.9268
 30
0.0
 10
2.871
 20
79.9268
 30
0.0
 10
3.7451
 20
79.9995
 30
0.0
 10
4.3928
 20
80.2007
 30
0.0
 10
4.3928
 20
81.0765
 30
0.0
 10
4.3928
 20
81.0765
 30
0.0
 10
4.3928
 20
81.6285
 30
0.0
 10
3.423
 20
82.2938
 30
0.0
 10
2.871
 20
82.2938
 30
0.0
 10
2.871
 20
82.2938
 30
0.0
 10
-0.9925
 20
82.26
 30
0.0
 10
0.6196
 20
75.8992
 30
0.0
 10
2.8058
 20
74.4352
 30
0.0
  0
SPLINE
  5
88
330
1F
100
AcDbEntity
  8
layer 1
 62
     7
100
AcDbSpline
210
0.0
220
0.0
230
1.0
 70
    11
 71
     3
 72
    44
 73
    40
 74
     0
 42
0.0000000001
 43
0.0000000001
 12
1.0
 22
0.0
 32
0.0
 13
1.0
 23
0.0
 33
0.0
 40
0.0
 40
0.0
 40
0.0
 40
0.0
 40
0.0909090909090909
 40
0.0909090909090909
 40
0.0909090909090909
 40
0.0909090909090909
 40
0.1818181818181818
 40
0.1818181818181818
 40
0.1818181818181818
 40
0.1818181818181818
 40
0.2727272727272727
 40
0.2727272727272727
 40
0.2727272727272727
 40
0.2727272727272727
 40
0.3636363636363636
 40
0.3636363636363636
 40
0.3636363636363636
 40
0.3636363636363636
 40
0.4545454545454545
 40
0.4545454545454545
 40
0.4545454545454545
 40
0.4545454545454545
 40
0.5454545454545454
 40
0.5454545454545454
 40
0.5454545454545454
 40
0.5454545454545454
 40
0.6363636363636364
 40
0.6363636363636364
 40
0.6363636363636364
 40
0.6363636363636364
 40
0.7272727272727273
 40
0.7272727272727273
 40
0.7272727272727273
 40
0.7272727272727273
 40
0.8181818181818182
 40
0.8181818181818182
 40
0.8181818181818182
 40
0.8181818181818182
 40
1.0
 40
1.0
 40
1.0
 40
1.0
 10
-32.3612
 20
70.0958
 30
0.0
 10
-27.6446
 20
70.2595
 30
0.0
 10
-27.4871
 20
75.5773
 30
0.0
 10
-30.4531
 20
72.9364
 30
0.0
 10
-30.4531
 20
72.9364
 30
0.0
 10
-30.8675
 20
76.8002
 30
0.0
 10
-23.6483
 20
74.8029
 30
0.0
 10
-27.7903
 20
69.2821
 30
0.0
 10
-27.7903
 20
69.2821
 30
0.0
 10
-23.0507
 20
71.5273
 30
0.0
 10
-20.7289
 20
71.3608
 30
0.0
 10
-16.5391
 20
69.2748
 30
0.0
 10
-16.5391
 20
69.2748
 30
0.0
 10
-18.4276
 20
72.1049
 30
0.0
 10
-18.8809
 20
77.6492
 30
0.0
 10
-12.5151
 20
78.2698
 30
0.0
 10
-12.5151
 20
78.2698
 30
0.0
 10
-14.37
 20
79.8361
 30
0.0
 10
-21.3104
 20
79.0143
 30
0.0
 10
-22.9587
 20
77.5254
 30
0.0
 10
-22.9587
 20
77.5254
 30
0.0
 10
-23.2649
 20
78.1681
 30
0.0
 10
-23.0012
 20
79.3805
 30
0.0
 10
-23.8771
 20
79.4533
 30
0.0
 10
-23.8771
 20
79.4533
 30
0.0
 10
-24.9212
 20
79.468
 30
0.0
 10
-24.8814
 20
78.0331
 30
0.0
 10
-26.4809
 20
78.0331
 30
0.0
 10
-26.4809
 20
78.0331
 30
0.0
 10
-27.5477
 20
78.0331
 30
0.0
 10
-27.2401
 20
78.3151
 30
0.0
 10
-27.3355
 20
79.4299
 30
0.0
 10
-27.3355
 20
79.4299
 30
0.0
 10
-32.5333
 20
78.3158
 30
0.0
 10
-30.9712
 20
80.7687
 30
0.0
 10
-32.3986
 20
80.6368
 30
0.0
 10
-32.3986
 20
80.6368
 30
0.0
 10
-37.4285
 20
78.9792
 30
0.0
 10
-37.6036
 20
70.1994
 30
0.0
 10
-32.3612
 20
70.0958
 30
0.0
  0
SPLINE
  5
89
330
1F
100
AcDbEntity
  8
layer 1
 62
     7
100
AcDbSpline
210
0.0
220
0.0
230
1.0
 70
    11
 71
     3
 72
    28
 73
    24
 74
     0
 42
0.0000000001
 43
0.0000000001
 12
1.0
 22
0.0
 32
0.0
 13
1.0
 23
0.0
 33
0.0
 40
0.0
 40
0.0
 40
0.0
 40
0.0
 40
0.1428571428571428
 40
0.1428571428571428
 40
0.1428571428571428
 40
0.1428571428571428
 40
0.2857142857142857
 40
0.2857142857142857
 40
0.2857142857142857
 40
0.2857142857142857
 40
0.4285714285714285
 40
0.4285714285714285
 40
0.4285714285714285
 40
0.4285714285714285
 40
0.5714285714285714
 40
0.5714285714285714
 40
0.5714285714285714
 40
0.5714285714285714
 40
0.7142857142857143
 40
0.7142857142857143
 40
0.7142857142857143
 40
0.7142857142857143
 40
1.0
 40
1.0
 40
1.0
 40
1.0
 10
-11.0948
 20
72.8255
 30
0.0
 10
-9.5794
 20
72.8676
 30
0.0
 10
-9.2976
 20
74.5551
 30
0.0
 10
-10.5615
 20
75.3317
 30
0.0
 10
-10.5615
 20
75.3317
 30
0.0
 10
-11.5428
 20
75.9345
 30
0.0
 10
-12.9876
 20
76.0509
 30
0.0
 10
-13.951
 20
74.63
 30
0.0
 10
-13.951
 20
74.63
 30
0.0
 10
-16.3616
 20
70.5896
 30
0.0
 10
-12.5947
 20
66.7713
 30
0.0
 10
-11.2869
 20
64.3175
 30
0.0
 10
-11.2869
 20
64.3175
 30
0.0
 10
-11.2869
 20
64.3175
 30
0.0
 10
-0.0285
 20
71.3017
 30
0.0
 10
-0.0285
 20
71.3017
 30
0.0
 10
-0.0285
 20
71.3017
 30
0.0
 10
-1.2269
 20
73.5665
 30
0.0
 10
-7.0267
 20
78.0101
 30
0.0
 10
-10.1872
 20
78.2322
 30
0.0
 10
-10.1872
 20
78.2322
 30
0.0
 10
-5.3525
 20
75.6016
 30
0.0
 10
-7.1936
 20
69.5656
 30
0.0
 10
-11.0948
 20
72.8255
 30
0.0
  0
SPLINE
  5
8A
330
1F
100
AcDbEntity
  8
layer 1
 62
     7
100
AcDbSpline
210
0.0
220
0.0
230
1.0
 70
    11
 71
     3
 72
    16
 73
    12
 74
     0
 42
0.0000000001
 43
0.0000000001
 12
1.0
 22
0.0
 32
0.0
 13
1.0
 23
0.0
 33
0.0
 40
0.0
 40
0.0
 40
0.0
 40
0.0
 40
0.25
 40
0.25
 40
0.25
 40
0.25
 40
0.5
 40
0.5
 40
0.5
 40
0.5
 40
1.0
 40
1.0
 40
1.0
 40
1.0
 10
-31.4648
 20
56.2689
 30
0.0
 10
-32.8368
 20
60.3684
 30
0.0
 10
-33.0393
 20
62.7754
 30
0.0
 10
-30.9783
 20
66.6711
 30
0.0
 10
-30.9783
 20
66.6711
 30
0.0
 10
-37.0963
 20
65.6563
 30
0.0
 10
-38.4853
 20
69.2145
 30
0.0
 10
-38.553
 20
74.4825
 30
0.0
 10
-38.553
 20
74.4825
 30
0.0
 10
-42.5159
 20
68.6726
 30
0.0
 10
-39.1409
 20
58.7003
 30
0.0
 10
-31.4648
 20
56.2689
 30
0.0
  0
SPLINE
  5
8B
330
1F
100
AcDbEntity
  8
layer 1
 62
     7
100
AcDbSpline
210
0.0
220
0.0
230
1.0
 70
    11
 71
     3
 72
    32
 73
    28
 74
     0
 42
0.0000000001
 43
0.0000000001
 12
1.0
 22
0.0
 32
0.0
 13
1.0
 23
0.0
 33
0.0
 40
0.0
 40
0.0
 40
0.0
 40
0.0
 40
0.125
 40
0.125
 40
0.125
 40
0.125
 40
0.25
 40
0.25
 40
0.25
 40
0.25
 40
0.375
 40
0.375
 40
0.375
 40
0.375
 40
0.5
 40
0.5
 40
0.5
 40
0.5
 40
0.625
 40
0.625
 40
0.625
 40
0.625
 40
0.75
 40
0.75
 40
0.75
 40
0.75
 40
1.0
 40
1.0
 40
1.0
 40
1.0
 10
-26.945
 20
58.2194
 30
0.0
 10
-25.314
 20
55.8787
 30
0.0
 10
-22.5775
 20
56.0838
 30
0.0
 10
-21.2238
 20
57.2092
 30
0.0
 10
-21.2238
 20
57.2092
 30
0.0
 10
-19.7771
 20
58.4119
 30
0.0
 10
-18.9075
 20
60.8088
 30
0.0
 10
-21.9834
 20
60.0432
 30
0.0
 10
-21.9834
 20
60.0432
 30
0.0
 10
-21.3095
 20
63.8676
 30
0.0
 10
-17.399
 20
62.546
 30
0.0
 10
-17.4481
 20
58.4603
 30
0.0
 10
-17.4481
 20
58.4603
 30
0.0
 10
-16.7078
 20
60.0079
 30
0.0
 10
-15.4933
 20
61.293
 30
0.0
 10
-14.7944
 20
61.7872
 30
0.0
 10
-14.7944
 20
61.7872
 30
0.0
 10
-15.9675
 20
63.7224
 30
0.0
 10
-18.2967
 20
65.1239
 30
0.0
 10
-20.755
 20
64.2663
 30
0.0
 10
-20.755
 20
64.2663
 30
0.0
 10
-20.862
 20
65.4718
 30
0.0
 10
-20.526
 20
65.9772
 30
0.0
 10
-19.6903
 20
66.6831
 30
0.0
 10
-19.6903
 20
66.6831
 30
0.0
 10
-26.5062
 20
68.1838
 30
0.0
 10
-29.3564
 20
61.4393
 30
0.0
 10
-26.945
 20
58.2194
 30
0.0
  0
SPLINE
  5
8C
330
1F
100
AcDbEntity
  8
layer 1
 62
     7
100
AcDbSpline
210
0.0
220
0.0
230
1.0
 70
    11
 71
     3
 72
    24
 73
    20
 74
     0
 42
0.0000000001
 43
0.0000000001
 12
1.0
 22
0.0
 32
0.0
 13
1.0
 23
0.0
 33
0.0
 40
0.0
 40
0.0
 40
0.0
 40
0.0
 40
0.1666666666666667
 40
0.1666666666666667
 40
0.1666666666666667
 40
0.1666666666666667
 40
0.3333333333333333
 40
0.3333333333333333
 40
0.3333333333333333
 40
0.3333333333333333
 40
0.5
 40
0.5
 40
0.5
 40
0.5
 40
0.6666666666666666
 40
0.6666666666666666
 40
0.6666666666666666
 40
0.6666666666666666
 40
1.0
 40
1.0
 40
1.0
 40
1.0
 10
8.7887
 20
61.9369
 30
0.0
 10
8.7323
 20
64.8821
 30
0.0
 10
5.9948
 20
69.7108
 30
0.0
 10
4.6422
 20
71.6645
 30
0.0
 10
4.6422
 20
71.6645
 30
0.0
 10
8.1437
 20
75.3788
 30
0.0
 10
8.855
 20
76.3485
 30
0.0
 10
9.9821
 20
80.1635
 30
0.0
 10
9.9821
 20
80.1635
 30
0.0
 10
11.1093
 20
76.3485
 30
0.0
 10
11.8107
 20
75.3788
 30
0.0
 10
15.3123
 20
71.6645
 30
0.0
 10
15.3123
 20
71.6645
 30
0.0
 10
13.9597
 20
69.7108
 30
0.0
 10
11.2221
 20
64.8821
 30
0.0
 10
11.1658
 20
61.9369
 30
0.0
 10
11.1658
 20
61.9369
 30
0.0
 10
11.1658
 20
61.9369
 30
0.0
 10
8.7887
 20
61.9369
 30
0.0
 10
8.7887
 20
61.9369
 30
0.0
  0
SPLINE
  5
8D
330
1F
100
AcDbEntity
  8
layer 1
 62
     7
100
AcDbSpline
210
0.0
220
0.0
230
1.0
 70
    11
 71
     3
 72
    36
 73
    32
 74
     0
 42
0.0000000001
 43
0.0000000001
 12
1.0
 22
0.0
 32
0.0
 13
1.0
 23
0.0
 33
0.0
 40
0.0
 40
0.0
 40
0.0
 40
0.0
 40
0.1111111111111111
 40
0.1111111111111111
 40
0.1111111111111111
 40
0.1111111111111111
 40
0.2222222222222222
 40
0.2222222222222222
 40
0.2222222222222222
 40
0.2222222222222222
 40
0.3333333333333333
 40
0.3333333333333333
 40
0.3333333333333333
 40
0.3333333333333333
 40
0.4444444444444444
 40
0.4444444444444444
 40
0.4444444444444444
 40
0.4444444444444444
 40
0.5555555555555556
 40
0.5555555555555556
 40
0.5555555555555556
 40
0.5555555555555556
 40
0.6666666666666666
 40
0.6666666666666666
 40
0.6666666666666666
 40
0.6666666666666666
 40
0.7777777777777778
 40
0.7777777777777778
 40
0.7777777777777778
 40
0.7777777777777778
 40
1.0
 40
1.0
 40
1.0
 40
1.0
 10
-9.6746
 20
61.4635
 30
0.0
 10
-9.8565
 20
55.5766
 30
0.0
 10
-9.4619
 20
51.9825
 30
0.0
 10
-14.172
 20
46.5508
 30
0.0
 10
-14.172
 20
46.5508
 30
0.0
 10
-13.351
 20
42.522
 30
0.0
 10
-7.3144
 20
34.4478
 30
0.0
 10
-4.0286
 20
30.7615
 30
0.0
 10
-4.0286
 20
30.7615
 30
0.0
 10
-4.0286
 20
30.7615
 30
0.0
 10
0.6479
 20
36.2572
 30
0.0
 10
0.6479
 20
36.2572
 30
0.0
 10
0.6479
 20
36.2572
 30
0.0
 10
-3.692
 20
42.3723
 30
0.0
 10
-10.4513
 20
57.7283
 30
0.0
 10
5.1592
 20
61.6873
 30
0.0
 10
5.1592
 20
61.6873
 30
0.0
 10
4.8913
 20
64.301
 30
0.0
 10
2.2535
 20
65.5292
 30
0.0
 10
2.5498
 20
63.0321
 30
0.0
 10
2.5498
 20
63.0321
 30
0.0
 10
0.1885
 20
63.7867
 30
0.0
 10
0.0905
 20
66.8505
 30
0.0
 10
4.2006
 20
66.0656
 30
0.0
 10
4.2006
 20
66.0656
 30
0.0
 10
4.2006
 20
66.0656
 30
0.0
 10
1.8893
 20
69.4016
 30
0.0
 10
1.8893
 20
69.4016
 30
0.0
 10
1.8893
 20
69.4016
 30
0.0
 10
-1.3961
 20
66.2396
 30
0.0
 10
-5.5921
 20
63.4939
 30
0.0
 10
-9.6746
 20
61.4635
 30
0.0
  0
SPLINE
  5
8E
330
1F
100
AcDbEntity
  8
layer 1
 62
     7
100
AcDbSpline
210
0.0
220
0.0
230
1.0
 70
    11
 71
     3
 72
    48
 73
    44
 74
     0
 42
0.0000000001
 43
0.0000000001
 12
1.0
 22
0.0
 32
0.0
 13
1.0
 23
0.0
 33
0.0
 40
0.0
 40
0.0
 40
0.0
 40
0.0
 40
0.0833333333333333
 40
0.0833333333333333
 40
0.0833333333333333
 40
0.0833333333333333
 40
0.1666666666666667
 40
0.1666666666666667
 40
0.1666666666666667
 40
0.1666666666666667
 40
0.25
 40
0.25
 40
0.25
 40
0.25
 40
0.3333333333333333
 40
0.3333333333333333
 40
0.3333333333333333
 40
0.3333333333333333
 40
0.4166666666666667
 40
0.4166666666666667
 40
0.4166666666666667
 40
0.4166666666666667
 40
0.5
 40
0.5
 40
0.5
 40
0.5
 40
0.5833333333333334
 40
0.5833333333333334
 40
0.5833333333333334
 40
0.5833333333333334
 40
0.6666666666666666
 40
0.6666666666666666
 40
0.6666666666666666
 40
0.6666666666666666
 40
0.75
 40
0.75
 40
0.75
 40
0.75
 40
0.8333333333333334
 40
0.8333333333333334
 40
0.8333333333333334
 40
0.8333333333333334
 40
1.0
 40
1.0
 40
1.0
 40
1.0
 10
-35.0024
 20
47.4977
 30
0.0
 10
-34.895
 20
46.7263
 30
0.0
 10
-33.6182
 20
47.8546
 30
0.0
 10
-32.5918
 20
47.8546
 30
0.0
 10
-32.5918
 20
47.8546
 30
0.0
 10
-31.7367
 20
47.8546
 30
0.0
 10
-31.8653
 20
46.9525
 30
0.0
 10
-31.845
 20
46.0393
 30
0.0
 10
-31.845
 20
46.0393
 30
0.0
 10
-30.5148
 20
46.069
 30
0.0
 10
-30.6079
 20
46.7875
 30
0.0
 10
-29.3214
 20
46.7875
 30
0.0
 10
-29.3214
 20
46.7875
 30
0.0
 10
-28.7672
 20
46.7875
 30
0.0
 10
-28.3745
 20
46.3948
 30
0.0
 10
-28.3745
 20
45.8407
 30
0.0
 10
-28.3745
 20
45.8407
 30
0.0
 10
-28.3745
 20
45.8407
 30
0.0
 10
-28.3745
 20
44.5375
 30
0.0
 10
-28.3745
 20
44.5375
 30
0.0
 10
-28.3745
 20
44.5375
 30
0.0
 10
-27.5517
 20
44.9232
 30
0.0
 10
-26.7018
 20
44.9523
 30
0.0
 10
-25.9174
 20
44.9523
 30
0.0
 10
-25.9174
 20
44.9523
 30
0.0
 10
-26.055
 20
46.6057
 30
0.0
 10
-28.7583
 20
49.7142
 30
0.0
 10
-30.5049
 20
50.3382
 30
0.0
 10
-30.5049
 20
50.3382
 30
0.0
 10
-30.5049
 20
50.3382
 30
0.0
 10
-30.4457
 20
47.7453
 30
0.0
 10
-30.4457
 20
47.7453
 30
0.0
 10
-30.4457
 20
47.7453
 30
0.0
 10
-33.488
 20
53.9608
 30
0.0
 10
-48.6234
 20
57.9712
 30
0.0
 10
-41.8426
 20
75.0568
 30
0.0
 10
-41.8426
 20
75.0568
 30
0.0
 10
-53.0452
 20
62.8972
 30
0.0
 10
-44.1816
 20
51.2227
 30
0.0
 10
-36.2739
 20
49.024
 30
0.0
 10
-36.2739
 20
49.024
 30
0.0
 10
-35.2481
 20
48.7388
 30
0.0
 10
-35.057
 20
47.9486
 30
0.0
 10
-35.0024
 20
47.4977
 30
0.0
  0
SPLINE
  5
8F
330
1F
100
AcDbEntity
  8
layer 1
 62
     7
100
AcDbSpline
210
0.0
220
0.0
230
1.0
 70
    11
 71
     3
 72
    12
 73
     8
 74
     0
 42
0.0000000001
 43
0.0000000001
 12
1.0
 22
0.0
 32
0.0
 13
1.0
 23
0.0
 33
0.0
 40
0.0
 40
0.0
 40
0.0
 40
0.0
 40
0.3333333333333333
 40
0.3333333333333333
 40
0.3333333333333333
 40
0.3333333333333333
 40
1.0
 40
1.0
 40
1.0
 40
1.0
 10
2.7166
 20
39.6271
 30
0.0
 10
7.3315
 20
44.5801
 30
0.0
 10
9.9036
 20
53.5569
 30
0.0
 10
6.0572
 20
59.2503
 30
0.0
 10
6.0572
 20
59.2503
 30
0.0
 10
-3.666
 20
55.528
 30
0.0
 10
-2.5854
 20
47.5575
 30
0.0
 10
2.7166
 20
39.6271
 30
0.0
  0
SPLINE
  5
90
330
1F
100
AcDbEntity
  8
layer 1
 62
     7
100
AcDbSpline
210
0.0
220
0.0
230
1.0
 70
    11
 71
     3
 72
    12
 73
     8
 74
     0
 42
0.0000000001
 43
0.0000000001
 12
1.0
 22
0.0
 32
0.0
 13
1.0
 23
0.0
 33
0.0
 40
0.0
 40
0.0
 40
0.0
 40
0.0
 40
0.3333333333333333
 40
0.3333333333333333
 40
0.3333333333333333
 40
0.3333333333333333
 40
1.0
 40
1.0
 40
1.0
 40
1.0
 10
-15.5793
 20
50.3253
 30
0.0
 10
-13.5628
 20
51.8406
 30
0.0
 10
-12.4763
 20
56.4113
 30
0.0
 10
-12.9506
 20
58.7478
 30
0.0
 10
-12.9506
 20
58.7478
 30
0.0
 10
-15.405
 20
56.6458
 30
0.0
 10
-15.7412
 20
53.1205
 30
0.0
 10
-15.5793
 20
50.3253
 30
0.0
  0
SPLINE
  5
91
330
1F
100
AcDbEntity
  8
layer 1
 62
     7
100
AcDbSpline
210
0.0
220
0.0
230
1.0
 70
    11
 71
     3
 72
    20
 73
    16
 74
     0
 42
0.0000000001
 43
0.0000000001
 12
1.0
 22
0.0
 32
0.0
 13
1.0
 23
0.0
 33
0.0
 40
0.0
 40
0.0
 40
0.0
 40
0.0
 40
0.2
 40
0.2
 40
0.2
 40
0.2
 40
0.4
 40
0.4
 40
0.4
 40
0.4
 40
0.6
 40
0.6
 40
0.6
 40
0.6
 40
1.0
 40
1.0
 40
1.0
 40
1.0
 10
-26.2441
 20
52.2318
 30
0.0
 10
-24.8179
 20
51.1562
 30
0.0
 10
-22.3948
 20
47.8752
 30
0.0
 10
-21.7326
 20
46.0689
 30
0.0
 10
-21.7326
 20
46.0689
 30
0.0
 10
-20.7605
 20
46.6486
 30
0.0
 10
-18.85
 20
47.4502
 30
0.0
 10
-18.2592
 20
47.6961
 30
0.0
 10
-18.2592
 20
47.6961
 30
0.0
 10
-18.2592
 20
47.6961
 30
0.0
 10
-18.5247
 20
53.7104
 30
0.0
 10
-18.5247
 20
53.7104
 30
0.0
 10
-18.5247
 20
53.7104
 30
0.0
 10
-20.5062
 20
51.5536
 30
0.0
 10
-22.6105
 20
51.3778
 30
0.0
 10
-26.2441
 20
52.2318
 30
0.0
  0
SPLINE
  5
92
330
1F
100
AcDbEntity
  8
layer 1
 62
     7
100
AcDbSpline
210
0.0
220
0.0
230
1.0
 70
    11
 71
     3
 72
    16
 73
    12
 74
     0
 42
0.0000000001
 43
0.0000000001
 12
1.0
 22
0.0
 32
0.0
 13
1.0
 23
0.0
 33
0.0
 40
0.0
 40
0.0
 40
0.0
 40
0.0
 40
0.25
 40
0.25
 40
0.25
 40
0.25
 40
0.5
 40
0.5
 40
0.5
 40
0.5
 40
1.0
 40
1.0
 40
1.0
 40
1.0
 10
-51.5719
 20
35.3305
 30
0.0
 10
-48.8633
 20
41.2971
 30
0.0
 10
-45.2866
 20
43.3136
 30
0.0
 10
-38.6238
 20
43.1475
 30
0.0
 10
-38.6238
 20
43.1475
 30
0.0
 10
-45.5682
 20
46.7759
 30
0.0
 10
-49.2909
 20
51.8065
 30
0.0
 10
-51.5719
 20
59.9724
 30
0.0
 10
-51.5719
 20
59.9724
 30
0.0
 10
-51.5719
 20
59.9724
 30
0.0
 10
-51.5719
 20
35.3305
 30
0.0
 10
-51.5719
 20
35.3305
 30
0.0
  0
SPLINE
  5
93
330
1F
100
AcDbEntity
  8
layer 1
 62
     7
100
AcDbSpline
210
0.0
220
0.0
230
1.0
 70
    11
 71
     3
 72
    16
 73
    12
 74
     0
 42
0.0000000001
 43
0.0000000001
 12
1.0
 22
0.0
 32
0.0
 13
1.0
 23
0.0
 33
0.0
 40
0.0
 40
0.0
 40
0.0
 40
0.0
 40
0.25
 40
0.25
 40
0.25
 40
0.25
 40
0.5
 40
0.5
 40
0.5
 40
0.5
 40
1.0
 40
1.0
 40
1.0
 40
1.0
 10
-33.172
 20
41.3433
 30
0.0
 10
-27.4483
 20
37.7934
 30
0.0
 10
-26.4207
 20
33.3414
 30
0.0
 10
-29.0839
 20
28.2103
 30
0.0
 10
-29.0839
 20
28.2103
 30
0.0
 10
-24.2444
 20
30.5329
 30
0.0
 10
-22.5523
 20
37.6463
 30
0.0
 10
-24.0124
 20
41.4656
 30
0.0
 10
-24.0124
 20
41.4656
 30
0.0
 10
-26.1091
 20
40.5867
 30
0.0
 10
-28.5281
 20
40.5361
 30
0.0
 10
-33.172
 20
41.3433
 30
0.0
  0
SPLINE
  5
94
330
1F
100
AcDbEntity
  8
layer 1
 62
     7
100
AcDbSpline
210
0.0
220
0.0
230
1.0
 70
    11
 71
     3
 72
    28
 73
    24
 74
     0
 42
0.0000000001
 43
0.0000000001
 12
1.0
 22
0.0
 32
0.0
 13
1.0
 23
0.0
 33
0.0
 40
0.0
 40
0.0
 40
0.0
 40
0.0
 40
0.1428571428571428
 40
0.1428571428571428
 40
0.1428571428571428
 40
0.1428571428571428
 40
0.2857142857142857
 40
0.2857142857142857
 40
0.2857142857142857
 40
0.2857142857142857
 40
0.4285714285714285
 40
0.4285714285714285
 40
0.4285714285714285
 40
0.4285714285714285
 40
0.5714285714285714
 40
0.5714285714285714
 40
0.5714285714285714
 40
0.5714285714285714
 40
0.7142857142857143
 40
0.7142857142857143
 40
0.7142857142857143
 40
0.7142857142857143
 40
1.0
 40
1.0
 40
1.0
 40
1.0
 10
-20.5579
 20
42.6727
 30
0.0
 10
-20.5168
 20
39.3314
 30
0.0
 10
-19.8127
 20
33.1096
 30
0.0
 10
-16.47
 20
29.9959
 30
0.0
 10
-16.47
 20
29.9959
 30
0.0
 10
-13.8654
 20
28.2284
 30
0.0
 10
-12.7304
 20
30.8757
 30
0.0
 10
-12.902
 20
32.4159
 30
0.0
 10
-12.902
 20
32.4159
 30
0.0
 10
-13.2571
 20
35.6027
 30
0.0
 10
-16.3392
 20
35.1902
 30
0.0
 10
-15.4448
 20
32.2961
 30
0.0
 10
-15.4448
 20
32.2961
 30
0.0
 10
-18.9662
 20
34.3793
 30
0.0
 10
-16.1258
 20
38.2484
 30
0.0
 10
-12.6043
 20
36.1559
 30
0.0
 10
-12.6043
 20
36.1559
 30
0.0
 10
-14.7648
 20
38.4977
 30
0.0
 10
-16.4082
 20
41.8964
 30
0.0
 10
-17.1162
 20
44.3581
 30
0.0
 10
-17.1162
 20
44.3581
 30
0.0
 10
-17.1162
 20
44.3581
 30
0.0
 10
-20.5579
 20
42.6727
 30
0.0
 10
-20.5579
 20
42.6727
 30
0.0
  0
SPLINE
  5
95
330
1F
100
AcDbEntity
  8
layer 1
 62
     7
100
AcDbSpline
210
0.0
220
0.0
230
1.0
 70
    11
 71
     3
 72
    20
 73
    16
 74
     0
 42
0.0000000001
 43
0.0000000001
 12
1.0
 22
0.0
 32
0.0
 13
1.0
 23
0.0
 33
0.0
 40
0.0
 40
0.0
 40
0.0
 40
0.0
 40
0.2
 40
0.2
 40
0.2
 40
0.2
 40
0.4
 40
0.4
 40
0.4
 40
0.4
 40
0.6
 40
0.6
 40
0.6
 40
0.6
 40
1.0
 40
1.0
 40
1.0
 40
1.0
 10
9.9745
 20
29.8637
 30
0.0
 10
9.9745
 20
29.8637
 30
0.0
 10
4.7647
 20
37.0825
 30
0.0
 10
4.7647
 20
37.0825
 30
0.0
 10
4.7647
 20
37.0825
 30
0.0
 10
6.7777
 20
39.4853
 30
0.0
 10
9.0086
 20
42.3335
 30
0.0
 10
9.9227
 20
47.4986
 30
0.0
 10
9.9227
 20
47.4986
 30
0.0
 10
10.8369
 20
42.3335
 30
0.0
 10
13.1767
 20
39.4853
 30
0.0
 10
15.1898
 20
37.0825
 30
0.0
 10
15.1898
 20
37.0825
 30
0.0
 10
15.1898
 20
37.0825
 30
0.0
 10
9.9745
 20
29.8637
 30
0.0
 10
9.9745
 20
29.8637
 30
0.0
  0
SPLINE
  5
96
330
1F
100
AcDbEntity
  8
layer 1
 62
     7
100
AcDbSpline
210
0.0
220
0.0
230
1.0
 70
    11
 71
     3
 72
    20
 73
    16
 74
     0
 42
0.0000000001
 43
0.0000000001
 12
1.0
 22
0.0
 32
0.0
 13
1.0
 23
0.0
 33
0.0
 40
0.0
 40
0.0
 40
0.0
 40
0.0
 40
0.2
 40
0.2
 40
0.2
 40
0.2
 40
0.4
 40
0.4
 40
0.4
 40
0.4
 40
0.6
 40
0.6
 40
0.6
 40
0.6
 40
1.0
 40
1.0
 40
1.0
 40
1.0
 10
-2.11
 20
27.991
 30
0.0
 10
-2.11
 20
27.991
 30
0.0
 10
3.6099
 20
21.3796
 30
0.0
 10
3.6099
 20
21.3796
 30
0.0
 10
3.6099
 20
21.3796
 30
0.0
 10
3.6099
 20
21.3796
 30
0.0
 10
7.8419
 20
26.904
 30
0.0
 10
7.8419
 20
26.904
 30
0.0
 10
7.8419
 20
26.904
 30
0.0
 10
7.8419
 20
26.904
 30
0.0
 10
2.6857
 20
33.7109
 30
0.0
 10
2.6857
 20
33.7109
 30
0.0
 10
2.6857
 20
33.7109
 30
0.0
 10
2.6857
 20
33.7109
 30
0.0
 10
-2.11
 20
27.991
 30
0.0
 10
-2.11
 20
27.991
 30
0.0
  0
SPLINE
  5
97
330
1F
100
AcDbEntity
  8
layer 1
 62
     7
100
AcDbSpline
210
0.0
220
0.0
230
1.0
 70
    11
 71
     3
 72
    16
 73
    12
 74
     0
 42
0.0000000001
 43
0.0000000001
 12
1.0
 22
0.0
 32
0.0
 13
1.0
 23
0.0
 33
0.0
 40
0.0
 40
0.0
 40
0.0
 40
0.0
 40
0.25
 40
0.25
 40
0.25
 40
0.25
 40
0.5
 40
0.5
 40
0.5
 40
0.5
 40
1.0
 40
1.0
 40
1.0
 40
1.0
 10
-25.1878
 20
24.4847
 30
0.0
 10
-22.5271
 20
25.9846
 30
0.0
 10
-19.9875
 20
26.1297
 30
0.0
 10
-17.2054
 20
25.83
 30
0.0
 10
-17.2054
 20
25.83
 30
0.0
 10
-19.3764
 20
27.1452
 30
0.0
 10
-20.6524
 20
28.0017
 30
0.0
 10
-21.0972
 20
32.2615
 30
0.0
 10
-21.0972
 20
32.2615
 30
0.0
 10
-21.4108
 20
27.7705
 30
0.0
 10
-23.3808
 20
25.8254
 30
0.0
 10
-25.1878
 20
24.4847
 30
0.0
  0
SPLINE
  5
98
330
1F
100
AcDbEntity
  8
layer 1
 62
     7
100
AcDbSpline
210
0.0
220
0.0
230
1.0
 70
    11
 71
     3
 72
    60
 73
    56
 74
     0
 42
0.0000000001
 43
0.0000000001
 12
1.0
 22
0.0
 32
0.0
 13
1.0
 23
0.0
 33
0.0
 40
0.0
 40
0.0
 40
0.0
 40
0.0
 40
0.0666666666666667
 40
0.0666666666666667
 40
0.0666666666666667
 40
0.0666666666666667
 40
0.1333333333333333
 40
0.1333333333333333
 40
0.1333333333333333
 40
0.1333333333333333
 40
0.2
 40
0.2
 40
0.2
 40
0.2
 40
0.2666666666666667
 40
0.2666666666666667
 40
0.2666666666666667
 40
0.2666666666666667
 40
0.3333333333333333
 40
0.3333333333333333
 40
0.3333333333333333
 40
0.3333333333333333
 40
0.4
 40
0.4
 40
0.4
 40
0.4
 40
0.4666666666666667
 40
0.4666666666666667
 40
0.4666666666666667
 40
0.4666666666666667
 40
0.5333333333333333
 40
0.5333333333333333
 40
0.5333333333333333
 40
0.5333333333333333
 40
0.6
 40
0.6
 40
0.6
 40
0.6
 40
0.6666666666666666
 40
0.6666666666666666
 40
0.6666666666666666
 40
0.6666666666666666
 40
0.7333333333333333
 40
0.7333333333333333
 40
0.7333333333333333
 40
0.7333333333333333
 40
0.8
 40
0.8
 40
0.8
 40
0.8
 40
0.8666666666666667
 40
0.8666666666666667
 40
0.8666666666666667
 40
0.8666666666666667
 40
1.0
 40
1.0
 40
1.0
 40
1.0
 10
-46.6933
 20
35.0747
 30
0.0
 10
-45.6555
 20
35.9437
 30
0.0
 10
-41.7223
 20
37.715
 30
0.0
 10
-41.3537
 20
34.4418
 30
0.0
 10
-41.3537
 20
34.4418
 30
0.0
 10
-41.3537
 20
33.3867
 30
0.0
 10
-42.4752
 20
32.5451
 30
0.0
 10
-43.5239
 20
32.3081
 30
0.0
 10
-43.5239
 20
32.3081
 30
0.0
 10
-43.5239
 20
32.9809
 30
0.0
 10
-42.8634
 20
34.0238
 30
0.0
 10
-44.234
 20
34.0053
 30
0.0
 10
-44.234
 20
34.0053
 30
0.0
 10
-46.0534
 20
34.0053
 30
0.0
 10
-45.8909
 20
31.9213
 30
0.0
 10
-45.8909
 20
30.6914
 30
0.0
 10
-45.8909
 20
30.6914
 30
0.0
 10
-45.5039
 20
25.9436
 30
0.0
 10
-41.3383
 20
22.7508
 30
0.0
 10
-36.3247
 20
22.8062
 30
0.0
 10
-36.3247
 20
22.8062
 30
0.0
 10
-35.5882
 20
22.8062
 30
0.0
 10
-36.3193
 20
24.2611
 30
0.0
 10
-35.089
 20
24.2971
 30
0.0
 10
-35.089
 20
24.2971
 30
0.0
 10
-34.3574
 20
24.2971
 30
0.0
 10
-33.1822
 20
24.2343
 30
0.0
 10
-33.0165
 20
24.5152
 30
0.0
 10
-33.0165
 20
24.5152
 30
0.0
 10
-33.0165
 20
24.6347
 30
0.0
 10
-33.0087
 20
25.3257
 30
0.0
 10
-33.142
 20
25.3154
 30
0.0
 10
-33.142
 20
25.3154
 30
0.0
 10
-36.6728
 20
25.0431
 30
0.0
 10
-39.008
 20
26.2064
 30
0.0
 10
-39.0264
 20
28.0875
 30
0.0
 10
-39.0264
 20
28.0875
 30
0.0
 10
-39.137
 20
29.6655
 30
0.0
 10
-38.3392
 20
30.7068
 30
0.0
 10
-36.5274
 20
30.8576
 30
0.0
 10
-36.5274
 20
30.8576
 30
0.0
 10
-36.8863
 20
30.3216
 30
0.0
 10
-37.3694
 20
30.2504
 30
0.0
 10
-37.3694
 20
29.5078
 30
0.0
 10
-37.3694
 20
29.5078
 30
0.0
 10
-37.2036
 20
28.3531
 30
0.0
 10
-35.9818
 20
28.1209
 30
0.0
 10
-35.1168
 20
28.1209
 30
0.0
 10
-35.1168
 20
28.1209
 30
0.0
 10
-33.3224
 20
28.1209
 30
0.0
 10
-32.3986
 20
30.5651
 30
0.0
 10
-32.3986
 20
32.1117
 30
0.0
 10
-32.3986
 20
32.1117
 30
0.0
 10
-32.2143
 20
39.262
 30
0.0
 10
-43.8822
 20
41.3253
 30
0.0
 10
-46.6933
 20
35.0747
 30
0.0
  0
SPLINE
  5
99
330
1F
100
AcDbEntity
  8
layer 1
 62
     7
100
AcDbSpline
210
0.0
220
0.0
230
1.0
 70
    11
 71
     3
 72
    20
 73
    16
 74
     0
 42
0.0000000001
 43
0.0000000001
 12
1.0
 22
0.0
 32
0.0
 13
1.0
 23
0.0
 33
0.0
 40
0.0
 40
0.0
 40
0.0
 40
0.0
 40
0.2
 40
0.2
 40
0.2
 40
0.2
 40
0.4
 40
0.4
 40
0.4
 40
0.4
 40
0.6
 40
0.6
 40
0.6
 40
0.6
 40
1.0
 40
1.0
 40
1.0
 40
1.0
 10
-14.1517
 20
24.9998
 30
0.0
 10
-14.1517
 20
24.9998
 30
0.0
 10
-10.9159
 20
21.991
 30
0.0
 10
-10.9159
 20
21.991
 30
0.0
 10
-10.9159
 20
21.991
 30
0.0
 10
-10.9159
 20
21.991
 30
0.0
 10
-6.1313
 20
27.4853
 30
0.0
 10
-6.1313
 20
27.4853
 30
0.0
 10
-6.1313
 20
27.4853
 30
0.0
 10
-6.1313
 20
27.4853
 30
0.0
 10
-9.9803
 20
32.5589
 30
0.0
 10
-9.9803
 20
32.5589
 30
0.0
 10
-9.9803
 20
32.5589
 30
0.0
 10
-9.4427
 20
29.1635
 30
0.0
 10
-10.5983
 20
25.768
 30
0.0
 10
-14.1517
 20
24.9998
 30
0.0
  0
SPLINE
  5
9A
330
1F
100
AcDbEntity
  8
layer 1
 62
     7
100
AcDbSpline
210
0.0
220
0.0
230
1.0
 70
    11
 71
     3
 72
    20
 73
    16
 74
     0
 42
0.0000000001
 43
0.0000000001
 12
1.0
 22
0.0
 32
0.0
 13
1.0
 23
0.0
 33
0.0
 40
0.0
 40
0.0
 40
0.0
 40
0.0
 40
0.2
 40
0.2
 40
0.2
 40
0.2
 40
0.4
 40
0.4
 40
0.4
 40
0.4
 40
0.6
 40
0.6
 40
0.6
 40
0.6
 40
1.0
 40
1.0
 40
1.0
 40
1.0
 10
-8.93
 20
19.7351
 30
0.0
 10
-8.93
 20
19.7351
 30
0.0
 10
-3.2533
 20
12.5185
 30
0.0
 10
-3.2533
 20
12.5185
 30
0.0
 10
-3.2533
 20
12.5185
 30
0.0
 10
-3.2533
 20
12.5185
 30
0.0
 10
1.2924
 20
18.1796
 30
0.0
 10
1.2924
 20
18.1796
 30
0.0
 10
1.2924
 20
18.1796
 30
0.0
 10
1.2924
 20
18.1796
 30
0.0
 10
-4.2558
 20
25.1342
 30
0.0
 10
-4.2558
 20
25.1342
 30
0.0
 10
-4.2558
 20
25.1342
 30
0.0
 10
-4.2558
 20
25.1342
 30
0.0
 10
-8.93
 20
19.7351
 30
0.0
 10
-8.93
 20
19.7351
 30
0.0
  0
SPLINE
  5
9B
330
1F
100
AcDbEntity
  8
layer 1
 62
     7
100
AcDbSpline
210
0.0
220
0.0
230
1.0
 70
    11
 71
     3
 72
    16
 73
    12
 74
     0
 42
0.0000000001
 43
0.0000000001
 12
1.0
 22
0.0
 32
0.0
 13
1.0
 23
0.0
 33
0.0
 40
0.0
 40
0.0
 40
0.0
 40
0.0
 40
0.25
 40
0.25
 40
0.25
 40
0.25
 40
0.5
 40
0.5
 40
0.5
 40
0.5
 40
1.0
 40
1.0
 40
1.0
 40
1.0
 10
-51.5719
 20
16.8225
 30
0.0
 10
-50.6022
 20
19.4587
 30
0.0
 10
-48.1374
 20
21.2914
 30
0.0
 10
-44.5546
 20
21.6965
 30
0.0
 10
-44.5546
 20
21.6965
 30
0.0
 10
-48.0632
 20
23.7662
 30
0.0
 10
-50.5189
 20
26.4736
 30
0.0
 10
-51.5719
 20
30.71
 30
0.0
 10
-51.5719
 20
30.71
 30
0.0
 10
-51.5719
 20
30.71
 30
0.0
 10
-51.5719
 20
16.8225
 30
0.0
 10
-51.5719
 20
16.8225
 30
0.0
  0
SPLINE
  5
9C
330
1F
100
AcDbEntity
  8
layer 1
 62
     7
100
AcDbSpline
210
0.0
220
0.0
230
1.0
 70
    11
 71
     3
 72
    32
 73
    28
 74
     0
 42
0.0000000001
 43
0.0000000001
 12
1.0
 22
0.0
 32
0.0
 13
1.0
 23
0.0
 33
0.0
 40
0.0
 40
0.0
 40
0.0
 40
0.0
 40
0.125
 40
0.125
 40
0.125
 40
0.125
 40
0.25
 40
0.25
 40
0.25
 40
0.25
 40
0.375
 40
0.375
 40
0.375
 40
0.375
 40
0.5
 40
0.5
 40
0.5
 40
0.5
 40
0.625
 40
0.625
 40
0.625
 40
0.625
 40
0.75
 40
0.75
 40
0.75
 40
0.75
 40
1.0
 40
1.0
 40
1.0
 40
1.0
 10
-48.258
 20
16.4889
 30
0.0
 10
-48.4719
 20
13.9983
 30
0.0
 10
-46.5022
 20
13.8631
 30
0.0
 10
-45.1689
 20
14.4774
 30
0.0
 10
-45.1689
 20
14.4774
 30
0.0
 10
-43.6577
 20
15.1735
 30
0.0
 10
-42.8646
 20
16.8251
 30
0.0
 10
-45.1809
 20
16.9623
 30
0.0
 10
-45.1809
 20
16.9623
 30
0.0
 10
-43.2968
 20
18.8417
 30
0.0
 10
-40.7541
 20
17.5683
 30
0.0
 10
-40.7541
 20
15.3053
 30
0.0
 10
-40.7541
 20
15.3053
 30
0.0
 10
-40.7541
 20
13.2525
 30
0.0
 10
-42.6067
 20
12.3637
 30
0.0
 10
-43.8997
 20
11.6686
 30
0.0
 10
-43.8997
 20
11.6686
 30
0.0
 10
-37.579
 20
11.9106
 30
0.0
 10
-34.4126
 20
17.5003
 30
0.0
 10
-29.4725
 20
21.406
 30
0.0
 10
-29.4725
 20
21.406
 30
0.0
 10
-30.9046
 20
20.6278
 30
0.0
 10
-32.6507
 20
20.0937
 30
0.0
 10
-34.2018
 20
19.8094
 30
0.0
 10
-34.2018
 20
19.8094
 30
0.0
 10
-37.2995
 20
18.9717
 30
0.0
 10
-46.9961
 20
21.4401
 30
0.0
 10
-48.258
 20
16.4889
 30
0.0
  0
SPLINE
  5
9D
330
1F
100
AcDbEntity
  8
layer 1
 62
     7
100
AcDbSpline
210
0.0
220
0.0
230
1.0
 70
    11
 71
     3
 72
    20
 73
    16
 74
     0
 42
0.0000000001
 43
0.0000000001
 12
1.0
 22
0.0
 32
0.0
 13
1.0
 23
0.0
 33
0.0
 40
0.0
 40
0.0
 40
0.0
 40
0.0
 40
0.2
 40
0.2
 40
0.2
 40
0.2
 40
0.4
 40
0.4
 40
0.4
 40
0.4
 40
0.6
 40
0.6
 40
0.6
 40
0.6
 40
1.0
 40
1.0
 40
1.0
 40
1.0
 10
-37.5745
 20
10.6879
 30
0.0
 10
-32.6964
 20
10.7297
 30
0.0
 10
-29.5928
 20
10.236
 30
0.0
 10
-25.4518
 20
11.7393
 30
0.0
 10
-25.4518
 20
11.7393
 30
0.0
 10
-21.4394
 20
13.196
 30
0.0
 10
-16.19
 20
16.6608
 30
0.0
 10
-13.6222
 20
19.6238
 30
0.0
 10
-13.6222
 20
19.6238
 30
0.0
 10
-17.6752
 20
25.6765
 30
0.0
 10
-25.3466
 20
21.6496
 30
0.0
 10
-29.2669
 20
17.8547
 30
0.0
 10
-29.2669
 20
17.8547
 30
0.0
 10
-31.4292
 20
15.7613
 30
0.0
 10
-33.7378
 20
13.5247
 30
0.0
 10
-37.5745
 20
10.6879
 30
0.0
  0
SPLINE
  5
9E
330
1F
100
AcDbEntity
  8
layer 1
 62
     7
100
AcDbSpline
210
0.0
220
0.0
230
1.0
 70
    11
 71
     3
 72
    16
 73
    12
 74
     0
 42
0.0000000001
 43
0.0000000001
 12
1.0
 22
0.0
 32
0.0
 13
1.0
 23
0.0
 33
0.0
 40
0.0
 40
0.0
 40
0.0
 40
0.0
 40
0.25
 40
0.25
 40
0.25
 40
0.25
 40
0.5
 40
0.5
 40
0.5
 40
0.5
 40
1.0
 40
1.0
 40
1.0
 40
1.0
 10
-51.5719
 20
10.2133
 30
0.0
 10
-51.1468
 20
10.7385
 30
0.0
 10
-50.5337
 20
11.0216
 30
0.0
 10
-49.4911
 20
11.0628
 30
0.0
 10
-49.4911
 20
11.0628
 30
0.0
 10
-50.4263
 20
11.4635
 30
0.0
 10
-51.0662
 20
11.9986
 30
0.0
 10
-51.5719
 20
13.475
 30
0.0
 10
-51.5719
 20
13.475
 30
0.0
 10
-51.5719
 20
13.475
 30
0.0
 10
-51.5719
 20
10.2133
 30
0.0
 10
-51.5719
 20
10.2133
 30
0.0
  0
SPLINE
  5
9F
330
1F
100
AcDbEntity
  8
layer 1
 62
     7
100
AcDbSpline
210
0.0
220
0.0
230
1.0
 70
    11
 71
     3
 72
    20
 73
    16
 74
     0
 42
0.0000000001
 43
0.0000000001
 12
1.0
 22
0.0
 32
0.0
 13
1.0
 23
0.0
 33
0.0
 40
0.0
 40
0.0
 40
0.0
 40
0.0
 40
0.2
 40
0.2
 40
0.2
 40
0.2
 40
0.4
 40
0.4
 40
0.4
 40
0.4
 40
0.6
 40
0.6
 40
0.6
 40
0.6
 40
1.0
 40
1.0
 40
1.0
 40
1.0
 10
-5.2617
 20
9.3316
 30
0.0
 10
-5.2617
 20
9.3316
 30
0.0
 10
-11.3533
 20
17.0299
 30
0.0
 10
-11.3533
 20
17.0299
 30
0.0
 10
-11.3533
 20
17.0299
 30
0.0
 10
-13.7463
 20
13.7337
 30
0.0
 10
-18.0216
 20
10.7948
 30
0.0
 10
-23.5782
 20
9.3596
 30
0.0
 10
-23.5782
 20
9.3596
 30
0.0
 10
-18.0216
 20
7.9243
 30
0.0
 10
-13.7463
 20
4.9972
 30
0.0
 10
-11.3533
 20
1.7009
 30
0.0
 10
-11.3533
 20
1.7009
 30
0.0
 10
-11.3533
 20
1.7009
 30
0.0
 10
-5.2617
 20
9.3316
 30
0.0
 10
-5.2617
 20
9.3316
 30
0.0
  0
SPLINE
  5
A0
330
1F
100
AcDbEntity
  8
layer 1
 62
     7
100
AcDbSpline
210
0.0
220
0.0
230
1.0
 70
    11
 71
     3
 72
    44
 73
    40
 74
     0
 42
0.0000000001
 43
0.0000000001
 12
1.0
 22
0.0
 32
0.0
 13
1.0
 23
0.0
 33
0.0
 40
0.0
 40
0.0
 40
0.0
 40
0.0
 40
0.0909090909090909
 40
0.0909090909090909
 40
0.0909090909090909
 40
0.0909090909090909
 40
0.1818181818181818
 40
0.1818181818181818
 40
0.1818181818181818
 40
0.1818181818181818
 40
0.2727272727272727
 40
0.2727272727272727
 40
0.2727272727272727
 40
0.2727272727272727
 40
0.3636363636363636
 40
0.3636363636363636
 40
0.3636363636363636
 40
0.3636363636363636
 40
0.4545454545454545
 40
0.4545454545454545
 40
0.4545454545454545
 40
0.4545454545454545
 40
0.5454545454545454
 40
0.5454545454545454
 40
0.5454545454545454
 40
0.5454545454545454
 40
0.6363636363636364
 40
0.6363636363636364
 40
0.6363636363636364
 40
0.6363636363636364
 40
0.7272727272727273
 40
0.7272727272727273
 40
0.7272727272727273
 40
0.7272727272727273
 40
0.8181818181818182
 40
0.8181818181818182
 40
0.8181818181818182
 40
0.8181818181818182
 40
1.0
 40
1.0
 40
1.0
 40
1.0
 10
52.3156
 20
70.0958
 30
0.0
 10
47.5991
 20
70.2595
 30
0.0
 10
47.4415
 20
75.5773
 30
0.0
 10
50.4075
 20
72.9364
 30
0.0
 10
50.4075
 20
72.9364
 30
0.0
 10
50.8219
 20
76.8002
 30
0.0
 10
43.6028
 20
74.8029
 30
0.0
 10
47.7447
 20
69.2821
 30
0.0
 10
47.7447
 20
69.2821
 30
0.0
 10
43.0052
 20
71.5273
 30
0.0
 10
40.6834
 20
71.3608
 30
0.0
 10
36.4936
 20
69.2748
 30
0.0
 10
36.4936
 20
69.2748
 30
0.0
 10
38.3821
 20
72.1049
 30
0.0
 10
38.8354
 20
77.6492
 30
0.0
 10
32.4695
 20
78.2698
 30
0.0
 10
32.4695
 20
78.2698
 30
0.0
 10
34.3244
 20
79.8361
 30
0.0
 10
41.2648
 20
79.0143
 30
0.0
 10
42.9132
 20
77.5254
 30
0.0
 10
42.9132
 20
77.5254
 30
0.0
 10
43.2193
 20
78.1681
 30
0.0
 10
42.9557
 20
79.3805
 30
0.0
 10
43.8315
 20
79.4533
 30
0.0
 10
43.8315
 20
79.4533
 30
0.0
 10
44.8757
 20
79.468
 30
0.0
 10
44.8359
 20
78.0331
 30
0.0
 10
46.4353
 20
78.0331
 30
0.0
 10
46.4353
 20
78.0331
 30
0.0
 10
47.5022
 20
78.0331
 30
0.0
 10
47.1945
 20
78.3151
 30
0.0
 10
47.29
 20
79.4299
 30
0.0
 10
47.29
 20
79.4299
 30
0.0
 10
52.4878
 20
78.3158
 30
0.0
 10
50.9256
 20
80.7687
 30
0.0
 10
52.353
 20
80.6368
 30
0.0
 10
52.353
 20
80.6368
 30
0.0
 10
57.3829
 20
78.9792
 30
0.0
 10
57.558
 20
70.1994
 30
0.0
 10
52.3156
 20
70.0958
 30
0.0
  0
SPLINE
  5
A1
330
1F
100
AcDbEntity
  8
layer 1
 62
     7
100
AcDbSpline
210
0.0
220
0.0
230
1.0
 70
    11
 71
     3
 72
    28
 73
    24
 74
     0
 42
0.0000000001
 43
0.0000000001
 12
1.0
 22
0.0
 32
0.0
 13
1.0
 23
0.0
 33
0.0
 40
0.0
 40
0.0
 40
0.0
 40
0.0
 40
0.1428571428571428
 40
0.1428571428571428
 40
0.1428571428571428
 40
0.1428571428571428
 40
0.2857142857142857
 40
0.2857142857142857
 40
0.2857142857142857
 40
0.2857142857142857
 40
0.4285714285714285
 40
0.4285714285714285
 40
0.4285714285714285
 40
0.4285714285714285
 40
0.5714285714285714
 40
0.5714285714285714
 40
0.5714285714285714
 40
0.5714285714285714
 40
0.7142857142857143
 40
0.7142857142857143
 40
0.7142857142857143
 40
0.7142857142857143
 40
1.0
 40
1.0
 40
1.0
 40
1.0
 10
31.0493
 20
72.8255
 30
0.0
 10
29.5338
 20
72.8676
 30
0.0
 10
29.252
 20
74.5551
 30
0.0
 10
30.516
 20
75.3317
 30
0.0
 10
30.516
 20
75.3317
 30
0.0
 10
31.4972
 20
75.9345
 30
0.0
 10
32.9421
 20
76.0509
 30
0.0
 10
33.9054
 20
74.63
 30
0.0
 10
33.9054
 20
74.63
 30
0.0
 10
36.3161
 20
70.5896
 30
0.0
 10
32.5492
 20
66.7713
 30
0.0
 10
31.2414
 20
64.3175
 30
0.0
 10
31.2414
 20
64.3175
 30
0.0
 10
31.2414
 20
64.3175
 30
0.0
 10
19.9829
 20
71.3017
 30
0.0
 10
19.9829
 20
71.3017
 30
0.0
 10
19.9829
 20
71.3017
 30
0.0
 10
21.1813
 20
73.5665
 30
0.0
 10
26.9811
 20
78.0101
 30
0.0
 10
30.1417
 20
78.2322
 30
0.0
 10
30.1417
 20
78.2322
 30
0.0
 10
25.3069
 20
75.6016
 30
0.0
 10
27.1481
 20
69.5656
 30
0.0
 10
31.0493
 20
72.8255
 30
0.0
  0
SPLINE
  5
A2
330
1F
100
AcDbEntity
  8
layer 1
 62
     7
100
AcDbSpline
210
0.0
220
0.0
230
1.0
 70
    11
 71
     3
 72
    16
 73
    12
 74
     0
 42
0.0000000001
 43
0.0000000001
 12
1.0
 22
0.0
 32
0.0
 13
1.0
 23
0.0
 33
0.0
 40
0.0
 40
0.0
 40
0.0
 40
0.0
 40
0.25
 40
0.25
 40
0.25
 40
0.25
 40
0.5
 40
0.5
 40
0.5
 40
0.5
 40
1.0
 40
1.0
 40
1.0
 40
1.0
 10
51.4192
 20
56.2689
 30
0.0
 10
52.7912
 20
60.3684
 30
0.0
 10
52.9937
 20
62.7754
 30
0.0
 10
50.9328
 20
66.6711
 30
0.0
 10
50.9328
 20
66.6711
 30
0.0
 10
57.0507
 20
65.6563
 30
0.0
 10
58.4398
 20
69.2145
 30
0.0
 10
58.5074
 20
74.4825
 30
0.0
 10
58.5074
 20
74.4825
 30
0.0
 10
62.4703
 20
68.6726
 30
0.0
 10
59.0954
 20
58.7003
 30
0.0
 10
51.4192
 20
56.2689
 30
0.0
  0
SPLINE
  5
A3
330
1F
100
AcDbEntity
  8
layer 1
 62
     7
100
AcDbSpline
210
0.0
220
0.0
230
1.0
 70
    11
 71
     3
 72
    32
 73
    28
 74
     0
 42
0.0000000001
 43
0.0000000001
 12
1.0
 22
0.0
 32
0.0
 13
1.0
 23
0.0
 33
0.0
 40
0.0
 40
0.0
 40
0.0
 40
0.0
 40
0.125
 40
0.125
 40
0.125
 40
0.125
 40
0.25
 40
0.25
 40
0.25
 40
0.25
 40
0.375
 40
0.375
 40
0.375
 40
0.375
 40
0.5
 40
0.5
 40
0.5
 40
0.5
 40
0.625
 40
0.625
 40
0.625
 40
0.625
 40
0.75
 40
0.75
 40
0.75
 40
0.75
 40
1.0
 40
1.0
 40
1.0
 40
1.0
 10
46.8995
 20
58.2194
 30
0.0
 10
45.2684
 20
55.8787
 30
0.0
 10
42.532
 20
56.0838
 30
0.0
 10
41.1783
 20
57.2092
 30
0.0
 10
41.1783
 20
57.2092
 30
0.0
 10
39.7316
 20
58.4119
 30
0.0
 10
38.862
 20
60.8088
 30
0.0
 10
41.9378
 20
60.0432
 30
0.0
 10
41.9378
 20
60.0432
 30
0.0
 10
41.2639
 20
63.8676
 30
0.0
 10
37.3535
 20
62.546
 30
0.0
 10
37.4025
 20
58.4603
 30
0.0
 10
37.4025
 20
58.4603
 30
0.0
 10
36.6622
 20
60.0079
 30
0.0
 10
35.4477
 20
61.293
 30
0.0
 10
34.7488
 20
61.7872
 30
0.0
 10
34.7488
 20
61.7872
 30
0.0
 10
35.922
 20
63.7224
 30
0.0
 10
38.2512
 20
65.1239
 30
0.0
 10
40.7094
 20
64.2663
 30
0.0
 10
40.7094
 20
64.2663
 30
0.0
 10
40.8164
 20
65.4718
 30
0.0
 10
40.4805
 20
65.9772
 30
0.0
 10
39.6448
 20
66.6831
 30
0.0
 10
39.6448
 20
66.6831
 30
0.0
 10
46.4606
 20
68.1838
 30
0.0
 10
49.3108
 20
61.4393
 30
0.0
 10
46.8995
 20
58.2194
 30
0.0
  0
SPLINE
  5
A4
330
1F
100
AcDbEntity
  8
layer 1
 62
     7
100
AcDbSpline
210
0.0
220
0.0
230
1.0
 70
    11
 71
     3
 72
    36
 73
    32
 74
     0
 42
0.0000000001
 43
0.0000000001
 12
1.0
 22
0.0
 32
0.0
 13
1.0
 23
0.0
 33
0.0
 40
0.0
 40
0.0
 40
0.0
 40
0.0
 40
0.1111111111111111
 40
0.1111111111111111
 40
0.1111111111111111
 40
0.1111111111111111
 40
0.2222222222222222
 40
0.2222222222222222
 40
0.2222222222222222
 40
0.2222222222222222
 40
0.3333333333333333
 40
0.3333333333333333
 40
0.3333333333333333
 40
0.3333333333333333
 40
0.4444444444444444
 40
0.4444444444444444
 40
0.4444444444444444
 40
0.4444444444444444
 40
0.5555555555555556
 40
0.5555555555555556
 40
0.5555555555555556
 40
0.5555555555555556
 40
0.6666666666666666
 40
0.6666666666666666
 40
0.6666666666666666
 40
0.6666666666666666
 40
0.7777777777777778
 40
0.7777777777777778
 40
0.7777777777777778
 40
0.7777777777777778
 40
1.0
 40
1.0
 40
1.0
 40
1.0
 10
29.629
 20
61.4635
 30
0.0
 10
29.8109
 20
55.5766
 30
0.0
 10
29.4164
 20
51.9825
 30
0.0
 10
34.1264
 20
46.5508
 30
0.0
 10
34.1264
 20
46.5508
 30
0.0
 10
33.3054
 20
42.522
 30
0.0
 10
27.2689
 20
34.4478
 30
0.0
 10
23.983
 20
30.7615
 30
0.0
 10
23.983
 20
30.7615
 30
0.0
 10
23.983
 20
30.7615
 30
0.0
 10
19.3065
 20
36.2572
 30
0.0
 10
19.3065
 20
36.2572
 30
0.0
 10
19.3065
 20
36.2572
 30
0.0
 10
23.6464
 20
42.3723
 30
0.0
 10
30.4058
 20
57.7283
 30
0.0
 10
14.7953
 20
61.6873
 30
0.0
 10
14.7953
 20
61.6873
 30
0.0
 10
15.0631
 20
64.301
 30
0.0
 10
17.701
 20
65.5292
 30
0.0
 10
17.4047
 20
63.0321
 30
0.0
 10
17.4047
 20
63.0321
 30
0.0
 10
19.7659
 20
63.7867
 30
0.0
 10
19.864
 20
66.8505
 30
0.0
 10
15.7539
 20
66.0656
 30
0.0
 10
15.7539
 20
66.0656
 30
0.0
 10
15.7539
 20
66.0656
 30
0.0
 10
18.0652
 20
69.4016
 30
0.0
 10
18.0652
 20
69.4016
 30
0.0
 10
18.0652
 20
69.4016
 30
0.0
 10
21.3505
 20
66.2396
 30
0.0
 10
25.5466
 20
63.4939
 30
0.0
 10
29.629
 20
61.4635
 30
0.0
  0
SPLINE
  5
A5
330
1F
100
AcDbEntity
  8
layer 1
 62
     7
100
AcDbSpline
210
0.0
220
0.0
230
1.0
 70
    11
 71
     3
 72
    48
 73
    44
 74
     0
 42
0.0000000001
 43
0.0000000001
 12
1.0
 22
0.0
 32
0.0
 13
1.0
 23
0.0
 33
0.0
 40
0.0
 40
0.0
 40
0.0
 40
0.0
 40
0.0833333333333333
 40
0.0833333333333333
 40
0.0833333333333333
 40
0.0833333333333333
 40
0.1666666666666667
 40
0.1666666666666667
 40
0.1666666666666667
 40
0.1666666666666667
 40
0.25
 40
0.25
 40
0.25
 40
0.25
 40
0.3333333333333333
 40
0.3333333333333333
 40
0.3333333333333333
 40
0.3333333333333333
 40
0.4166666666666667
 40
0.4166666666666667
 40
0.4166666666666667
 40
0.4166666666666667
 40
0.5
 40
0.5
 40
0.5
 40
0.5
 40
0.5833333333333334
 40
0.5833333333333334
 40
0.5833333333333334
 40
0.5833333333333334
 40
0.6666666666666666
 40
0.6666666666666666
 40
0.6666666666666666
 40
0.6666666666666666
 40
0.75
 40
0.75
 40
0.75
 40
0.75
 40
0.8333333333333334
 40
0.8333333333333334
 40
0.8333333333333334
 40
0.8333333333333334
 40
1.0
 40
1.0
 40
1.0
 40
1.0
 10
54.9568
 20
47.4977
 30
0.0
 10
54.8495
 20
46.7263
 30
0.0
 10
53.5726
 20
47.8546
 30
0.0
 10
52.5462
 20
47.8546
 30
0.0
 10
52.5462
 20
47.8546
 30
0.0
 10
51.6912
 20
47.8546
 30
0.0
 10
51.8197
 20
46.9525
 30
0.0
 10
51.7994
 20
46.0393
 30
0.0
 10
51.7994
 20
46.0393
 30
0.0
 10
50.4693
 20
46.069
 30
0.0
 10
50.5623
 20
46.7875
 30
0.0
 10
49.2758
 20
46.7875
 30
0.0
 10
49.2758
 20
46.7875
 30
0.0
 10
48.7217
 20
46.7875
 30
0.0
 10
48.3289
 20
46.3948
 30
0.0
 10
48.3289
 20
45.8407
 30
0.0
 10
48.3289
 20
45.8407
 30
0.0
 10
48.3289
 20
45.8407
 30
0.0
 10
48.3289
 20
44.5375
 30
0.0
 10
48.3289
 20
44.5375
 30
0.0
 10
48.3289
 20
44.5375
 30
0.0
 10
47.5061
 20
44.9232
 30
0.0
 10
46.6563
 20
44.9523
 30
0.0
 10
45.8719
 20
44.9523
 30
0.0
 10
45.8719
 20
44.9523
 30
0.0
 10
46.0095
 20
46.6057
 30
0.0
 10
48.7127
 20
49.7142
 30
0.0
 10
50.4593
 20
50.3382
 30
0.0
 10
50.4593
 20
50.3382
 30
0.0
 10
50.4593
 20
50.3382
 30
0.0
 10
50.4001
 20
47.7453
 30
0.0
 10
50.4001
 20
47.7453
 30
0.0
 10
50.4001
 20
47.7453
 30
0.0
 10
53.4425
 20
53.9608
 30
0.0
 10
68.5778
 20
57.9712
 30
0.0
 10
61.797
 20
75.0568
 30
0.0
 10
61.797
 20
75.0568
 30
0.0
 10
72.9997
 20
62.8972
 30
0.0
 10
64.1361
 20
51.2227
 30
0.0
 10
56.2284
 20
49.024
 30
0.0
 10
56.2284
 20
49.024
 30
0.0
 10
55.2026
 20
48.7388
 30
0.0
 10
55.0115
 20
47.9486
 30
0.0
 10
54.9568
 20
47.4977
 30
0.0
  0
SPLINE
  5
A6
330
1F
100
AcDbEntity
  8
layer 1
 62
     7
100
AcDbSpline
210
0.0
220
0.0
230
1.0
 70
    11
 71
     3
 72
    12
 73
     8
 74
     0
 42
0.0000000001
 43
0.0000000001
 12
1.0
 22
0.0
 32
0.0
 13
1.0
 23
0.0
 33
0.0
 40
0.0
 40
0.0
 40
0.0
 40
0.0
 40
0.3333333333333333
 40
0.3333333333333333
 40
0.3333333333333333
 40
0.3333333333333333
 40
1.0
 40
1.0
 40
1.0
 40
1.0
 10
17.2378
 20
39.6271
 30
0.0
 10
12.623
 20
44.5801
 30
0.0
 10
10.0509
 20
53.5569
 30
0.0
 10
13.8973
 20
59.2503
 30
0.0
 10
13.8973
 20
59.2503
 30
0.0
 10
23.6205
 20
55.528
 30
0.0
 10
22.5398
 20
47.5575
 30
0.0
 10
17.2378
 20
39.6271
 30
0.0
  0
SPLINE
  5
A7
330
1F
100
AcDbEntity
  8
layer 1
 62
     7
100
AcDbSpline
210
0.0
220
0.0
230
1.0
 70
    11
 71
     3
 72
    12
 73
     8
 74
     0
 42
0.0000000001
 43
0.0000000001
 12
1.0
 22
0.0
 32
0.0
 13
1.0
 23
0.0
 33
0.0
 40
0.0
 40
0.0
 40
0.0
 40
0.0
 40
0.3333333333333333
 40
0.3333333333333333
 40
0.3333333333333333
 40
0.3333333333333333
 40
1.0
 40
1.0
 40
1.0
 40
1.0
 10
35.5338
 20
50.3253
 30
0.0
 10
33.5172
 20
51.8406
 30
0.0
 10
32.4308
 20
56.4113
 30
0.0
 10
32.905
 20
58.7478
 30
0.0
 10
32.905
 20
58.7478
 30
0.0
 10
35.3594
 20
56.6458
 30
0.0
 10
35.6956
 20
53.1205
 30
0.0
 10
35.5338
 20
50.3253
 30
0.0
  0
SPLINE
  5
A8
330
1F
100
AcDbEntity
  8
layer 1
 62
     7
100
AcDbSpline
210
0.0
220
0.0
230
1.0
 70
    11
 71
     3
 72
    20
 73
    16
 74
     0
 42
0.0000000001
 43
0.0000000001
 12
1.0
 22
0.0
 32
0.0
 13
1.0
 23
0.0
 33
0.0
 40
0.0
 40
0.0
 40
0.0
 40
0.0
 40
0.2
 40
0.2
 40
0.2
 40
0.2
 40
0.4
 40
0.4
 40
0.4
 40
0.4
 40
0.6
 40
0.6
 40
0.6
 40
0.6
 40
1.0
 40
1.0
 40
1.0
 40
1.0
 10
46.1986
 20
52.2318
 30
0.0
 10
44.7723
 20
51.1562
 30
0.0
 10
42.3493
 20
47.8752
 30
0.0
 10
41.6871
 20
46.0689
 30
0.0
 10
41.6871
 20
46.0689
 30
0.0
 10
40.7149
 20
46.6486
 30
0.0
 10
38.8044
 20
47.4502
 30
0.0
 10
38.2136
 20
47.6961
 30
0.0
 10
38.2136
 20
47.6961
 30
0.0
 10
38.2136
 20
47.6961
 30
0.0
 10
38.4791
 20
53.7104
 30
0.0
 10
38.4791
 20
53.7104
 30
0.0
 10
38.4791
 20
53.7104
 30
0.0
 10
40.4606
 20
51.5536
 30
0.0
 10
42.565
 20
51.3778
 30
0.0
 10
46.1986
 20
52.2318
 30
0.0
  0
SPLINE
  5
A9
330
1F
100
AcDbEntity
  8
layer 1
 62
     7
100
AcDbSpline
210
0.0
220
0.0
230
1.0
 70
    11
 71
     3
 72
    16
 73
    12
 74
     0
 42
0.0000000001
 43
0.0000000001
 12
1.0
 22
0.0
 32
0.0
 13
1.0
 23
0.0
 33
0.0
 40
0.0
 40
0.0
 40
0.0
 40
0.0
 40
0.25
 40
0.25
 40
0.25
 40
0.25
 40
0.5
 40
0.5
 40
0.5
 40
0.5
 40
1.0
 40
1.0
 40
1.0
 40
1.0
 10
71.5264
 20
35.3305
 30
0.0
 10
68.8178
 20
41.2971
 30
0.0
 10
65.2411
 20
43.3136
 30
0.0
 10
58.5783
 20
43.1475
 30
0.0
 10
58.5783
 20
43.1475
 30
0.0
 10
65.5226
 20
46.7759
 30
0.0
 10
69.2453
 20
51.8065
 30
0.0
 10
71.5264
 20
59.9724
 30
0.0
 10
71.5264
 20
59.9724
 30
0.0
 10
71.5264
 20
59.9724
 30
0.0
 10
71.5264
 20
35.3305
 30
0.0
 10
71.5264
 20
35.3305
 30
0.0
  0
SPLINE
  5
AA
330
1F
100
AcDbEntity
  8
layer 1
 62
     7
100
AcDbSpline
210
0.0
220
0.0
230
1.0
 70
    11
 71
     3
 72
    16
 73
    12
 74
     0
 42
0.0000000001
 43
0.0000000001
 12
1.0
 22
0.0
 32
0.0
 13
1.0
 23
0.0
 33
0.0
 40
0.0
 40
0.0
 40
0.0
 40
0.0
 40
0.25
 40
0.25
 40
0.25
 40
0.25
 40
0.5
 40
0.5
 40
0.5
 40
0.5
 40
1.0
 40
1.0
 40
1.0
 40
1.0
 10
53.1265
 20
41.3433
 30
0.0
 10
47.4027
 20
37.7934
 30
0.0
 10
46.3751
 20
33.3414
 30
0.0
 10
49.0384
 20
28.2103
 30
0.0
 10
49.0384
 20
28.2103
 30
0.0
 10
44.1989
 20
30.5329
 30
0.0
 10
42.5067
 20
37.6463
 30
0.0
 10
43.9668
 20
41.4656
 30
0.0
 10
43.9668
 20
41.4656
 30
0.0
 10
46.0635
 20
40.5867
 30
0.0
 10
48.4825
 20
40.5361
 30
0.0
 10
53.1265
 20
41.3433
 30
0.0
  0
SPLINE
  5
AB
330
1F
100
AcDbEntity
  8
layer 1
 62
     7
100
AcDbSpline
210
0.0
220
0.0
230
1.0
 70
    11
 71
     3
 72
    28
 73
    24
 74
     0
 42
0.0000000001
 43
0.0000000001
 12
1.0
 22
0.0
 32
0.0
 13
1.0
 23
0.0
 33
0.0
 40
0.0
 40
0.0
 40
0.0
 40
0.0
 40
0.1428571428571428
 40
0.1428571428571428
 40
0.1428571428571428
 40
0.1428571428571428
 40
0.2857142857142857
 40
0.2857142857142857
 40
0.2857142857142857
 40
0.2857142857142857
 40
0.4285714285714285
 40
0.4285714285714285
 40
0.4285714285714285
 40
0.4285714285714285
 40
0.5714285714285714
 40
0.5714285714285714
 40
0.5714285714285714
 40
0.5714285714285714
 40
0.7142857142857143
 40
0.7142857142857143
 40
0.7142857142857143
 40
0.7142857142857143
 40
1.0
 40
1.0
 40
1.0
 40
1.0
 10
40.5123
 20
42.6727
 30
0.0
 10
40.4712
 20
39.3314
 30
0.0
 10
39.7672
 20
33.1096
 30
0.0
 10
36.4244
 20
29.9959
 30
0.0
 10
36.4244
 20
29.9959
 30
0.0
 10
33.8198
 20
28.2284
 30
0.0
 10
32.6849
 20
30.8757
 30
0.0
 10
32.8565
 20
32.4159
 30
0.0
 10
32.8565
 20
32.4159
 30
0.0
 10
33.2115
 20
35.6027
 30
0.0
 10
36.2936
 20
35.1902
 30
0.0
 10
35.3992
 20
32.2961
 30
0.0
 10
35.3992
 20
32.2961
 30
0.0
 10
38.9206
 20
34.3793
 30
0.0
 10
36.0802
 20
38.2484
 30
0.0
 10
32.5587
 20
36.1559
 30
0.0
 10
32.5587
 20
36.1559
 30
0.0
 10
34.7193
 20
38.4977
 30
0.0
 10
36.3627
 20
41.8964
 30
0.0
 10
37.0707
 20
44.3581
 30
0.0
 10
37.0707
 20
44.3581
 30
0.0
 10
37.0707
 20
44.3581
 30
0.0
 10
40.5123
 20
42.6727
 30
0.0
 10
40.5123
 20
42.6727
 30
0.0
  0
SPLINE
  5
AC
330
1F
100
AcDbEntity
  8
layer 1
 62
     7
100
AcDbSpline
210
0.0
220
0.0
230
1.0
 70
    11
 71
     3
 72
    20
 73
    16
 74
     0
 42
0.0000000001
 43
0.0000000001
 12
1.0
 22
0.0
 32
0.0
 13
1.0
 23
0.0
 33
0.0
 40
0.0
 40
0.0
 40
0.0
 40
0.0
 40
0.2
 40
0.2
 40
0.2
 40
0.2
 40
0.4
 40
0.4
 40
0.4
 40
0.4
 40
0.6
 40
0.6
 40
0.6
 40
0.6
 40
1.0
 40
1.0
 40
1.0
 40
1.0
 10
22.0644
 20
27.991
 30
0.0
 10
22.0644
 20
27.991
 30
0.0
 10
16.3445
 20
21.3796
 30
0.0
 10
16.3445
 20
21.3796
 30
0.0
 10
16.3445
 20
21.3796
 30
0.0
 10
16.3445
 20
21.3796
 30
0.0
 10
12.1126
 20
26.904
 30
0.0
 10
12.1126
 20
26.904
 30
0.0
 10
12.1126
 20
26.904
 30
0.0
 10
12.1126
 20
26.904
 30
0.0
 10
17.2688
 20
33.7109
 30
0.0
 10
17.2688
 20
33.7109
 30
0.0
 10
17.2688
 20
33.7109
 30
0.0
 10
17.2688
 20
33.7109
 30
0.0
 10
22.0644
 20
27.991
 30
0.0
 10
22.0644
 20
27.991
 30
0.0
  0
SPLINE
  5
AD
330
1F
100
AcDbEntity
  8
layer 1
 62
     7
100
AcDbSpline
210
0.0
220
0.0
230
1.0
 70
    11
 71
     3
 72
    16
 73
    12
 74
     0
 42
0.0000000001
 43
0.0000000001
 12
1.0
 22
0.0
 32
0.0
 13
1.0
 23
0.0
 33
0.0
 40
0.0
 40
0.0
 40
0.0
 40
0.0
 40
0.25
 40
0.25
 40
0.25
 40
0.25
 40
0.5
 40
0.5
 40
0.5
 40
0.5
 40
1.0
 40
1.0
 40
1.0
 40
1.0
 10
45.1423
 20
24.4847
 30
0.0
 10
42.4815
 20
25.9846
 30
0.0
 10
39.942
 20
26.1297
 30
0.0
 10
37.1598
 20
25.83
 30
0.0
 10
37.1598
 20
25.83
 30
0.0
 10
39.3308
 20
27.1452
 30
0.0
 10
40.6069
 20
28.0017
 30
0.0
 10
41.0517
 20
32.2615
 30
0.0
 10
41.0517
 20
32.2615
 30
0.0
 10
41.3653
 20
27.7705
 30
0.0
 10
43.3353
 20
25.8254
 30
0.0
 10
45.1423
 20
24.4847
 30
0.0
  0
SPLINE
  5
AE
330
1F
100
AcDbEntity
  8
layer 1
 62
     7
100
AcDbSpline
210
0.0
220
0.0
230
1.0
 70
    11
 71
     3
 72
    60
 73
    56
 74
     0
 42
0.0000000001
 43
0.0000000001
 12
1.0
 22
0.0
 32
0.0
 13
1.0
 23
0.0
 33
0.0
 40
0.0
 40
0.0
 40
0.0
 40
0.0
 40
0.0666666666666667
 40
0.0666666666666667
 40
0.0666666666666667
 40
0.0666666666666667
 40
0.1333333333333333
 40
0.1333333333333333
 40
0.1333333333333333
 40
0.1333333333333333
 40
0.2
 40
0.2
 40
0.2
 40
0.2
 40
0.2666666666666667
 40
0.2666666666666667
 40
0.2666666666666667
 40
0.2666666666666667
 40
0.3333333333333333
 40
0.3333333333333333
 40
0.3333333333333333
 40
0.3333333333333333
 40
0.4
 40
0.4
 40
0.4
 40
0.4
 40
0.4666666666666667
 40
0.4666666666666667
 40
0.4666666666666667
 40
0.4666666666666667
 40
0.5333333333333333
 40
0.5333333333333333
 40
0.5333333333333333
 40
0.5333333333333333
 40
0.6
 40
0.6
 40
0.6
 40
0.6
 40
0.6666666666666666
 40
0.6666666666666666
 40
0.6666666666666666
 40
0.6666666666666666
 40
0.7333333333333333
 40
0.7333333333333333
 40
0.7333333333333333
 40
0.7333333333333333
 40
0.8
 40
0.8
 40
0.8
 40
0.8
 40
0.8666666666666667
 40
0.8666666666666667
 40
0.8666666666666667
 40
0.8666666666666667
 40
1.0
 40
1.0
 40
1.0
 40
1.0
 10
66.6477
 20
35.0747
 30
0.0
 10
65.6099
 20
35.9437
 30
0.0
 10
61.6768
 20
37.715
 30
0.0
 10
61.3082
 20
34.4418
 30
0.0
 10
61.3082
 20
34.4418
 30
0.0
 10
61.3082
 20
33.3867
 30
0.0
 10
62.4296
 20
32.5451
 30
0.0
 10
63.4783
 20
32.3081
 30
0.0
 10
63.4783
 20
32.3081
 30
0.0
 10
63.4783
 20
32.9809
 30
0.0
 10
62.8178
 20
34.0238
 30
0.0
 10
64.1884
 20
34.0053
 30
0.0
 10
64.1884
 20
34.0053
 30
0.0
 10
66.0079
 20
34.0053
 30
0.0
 10
65.8454
 20
31.9213
 30
0.0
 10
65.8454
 20
30.6914
 30
0.0
 10
65.8454
 20
30.6914
 30
0.0
 10
65.4584
 20
25.9436
 30
0.0
 10
61.2927
 20
22.7508
 30
0.0
 10
56.2791
 20
22.8062
 30
0.0
 10
56.2791
 20
22.8062
 30
0.0
 10
55.5426
 20
22.8062
 30
0.0
 10
56.2737
 20
24.2611
 30
0.0
 10
55.0434
 20
24.2971
 30
0.0
 10
55.0434
 20
24.2971
 30
0.0
 10
54.3119
 20
24.2971
 30
0.0
 10
53.1367
 20
24.2343
 30
0.0
 10
52.971
 20
24.5152
 30
0.0
 10
52.971
 20
24.5152
 30
0.0
 10
52.971
 20
24.6347
 30
0.0
 10
52.9631
 20
25.3257
 30
0.0
 10
53.0964
 20
25.3154
 30
0.0
 10
53.0964
 20
25.3154
 30
0.0
 10
56.6272
 20
25.0431
 30
0.0
 10
58.9624
 20
26.2064
 30
0.0
 10
58.9809
 20
28.0875
 30
0.0
 10
58.9809
 20
28.0875
 30
0.0
 10
59.0914
 20
29.6655
 30
0.0
 10
58.2937
 20
30.7068
 30
0.0
 10
56.4818
 20
30.8576
 30
0.0
 10
56.4818
 20
30.8576
 30
0.0
 10
56.8408
 20
30.3216
 30
0.0
 10
57.3239
 20
30.2504
 30
0.0
 10
57.3239
 20
29.5078
 30
0.0
 10
57.3239
 20
29.5078
 30
0.0
 10
57.158
 20
28.3531
 30
0.0
 10
55.9363
 20
28.1209
 30
0.0
 10
55.0712
 20
28.1209
 30
0.0
 10
55.0712
 20
28.1209
 30
0.0
 10
53.2769
 20
28.1209
 30
0.0
 10
52.353
 20
30.5651
 30
0.0
 10
52.353
 20
32.1117
 30
0.0
 10
52.353
 20
32.1117
 30
0.0
 10
52.1687
 20
39.262
 30
0.0
 10
63.8366
 20
41.3253
 30
0.0
 10
66.6477
 20
35.0747
 30
0.0
  0
SPLINE
  5
AF
330
1F
100
AcDbEntity
  8
layer 1
 62
     7
100
AcDbSpline
210
0.0
220
0.0
230
1.0
 70
    11
 71
     3
 72
    20
 73
    16
 74
     0
 42
0.0000000001
 43
0.0000000001
 12
1.0
 22
0.0
 32
0.0
 13
1.0
 23
0.0
 33
0.0
 40
0.0
 40
0.0
 40
0.0
 40
0.0
 40
0.2
 40
0.2
 40
0.2
 40
0.2
 40
0.4
 40
0.4
 40
0.4
 40
0.4
 40
0.6
 40
0.6
 40
0.6
 40
0.6
 40
1.0
 40
1.0
 40
1.0
 40
1.0
 10
34.1061
 20
24.9998
 30
0.0
 10
34.1061
 20
24.9998
 30
0.0
 10
30.8703
 20
21.991
 30
0.0
 10
30.8703
 20
21.991
 30
0.0
 10
30.8703
 20
21.991
 30
0.0
 10
30.8703
 20
21.991
 30
0.0
 10
26.0858
 20
27.4853
 30
0.0
 10
26.0858
 20
27.4853
 30
0.0
 10
26.0858
 20
27.4853
 30
0.0
 10
26.0858
 20
27.4853
 30
0.0
 10
29.9347
 20
32.5589
 30
0.0
 10
29.9347
 20
32.5589
 30
0.0
 10
29.9347
 20
32.5589
 30
0.0
 10
28.9405
 20
28.8136
 30
0.0
 10
30.7677
 20
26.3064
 30
0.0
 10
34.1061
 20
24.9998
 30
0.0
  0
SPLINE
  5
B0
330
1F
100
AcDbEntity
  8
layer 1
 62
     7
100
AcDbSpline
210
0.0
220
0.0
230
1.0
 70
    11
 71
     3
 72
    20
 73
    16
 74
     0
 42
0.0000000001
 43
0.0000000001
 12
1.0
 22
0.0
 32
0.0
 13
1.0
 23
0.0
 33
0.0
 40
0.0
 40
0.0
 40
0.0
 40
0.0
 40
0.2
 40
0.2
 40
0.2
 40
0.2
 40
0.4
 40
0.4
 40
0.4
 40
0.4
 40
0.6
 40
0.6
 40
0.6
 40
0.6
 40
1.0
 40
1.0
 40
1.0
 40
1.0
 10
28.8844
 20
19.7351
 30
0.0
 10
28.8844
 20
19.7351
 30
0.0
 10
23.2077
 20
12.5185
 30
0.0
 10
23.2077
 20
12.5185
 30
0.0
 10
23.2077
 20
12.5185
 30
0.0
 10
23.2077
 20
12.5185
 30
0.0
 10
18.6621
 20
18.1796
 30
0.0
 10
18.6621
 20
18.1796
 30
0.0
 10
18.6621
 20
18.1796
 30
0.0
 10
18.6621
 20
18.1796
 30
0.0
 10
24.2102
 20
25.1342
 30
0.0
 10
24.2102
 20
25.1342
 30
0.0
 10
24.2102
 20
25.1342
 30
0.0
 10
24.2102
 20
25.1342
 30
0.0
 10
28.8844
 20
19.7351
 30
0.0
 10
28.8844
 20
19.7351
 30
0.0
  0
SPLINE
  5
B1
330
1F
100
AcDbEntity
  8
layer 1
 62
     7
100
AcDbSpline
210
0.0
220
0.0
230
1.0
 70
    11
 71
     3
 72
    16
 73
    12
 74
     0
 42
0.0000000001
 43
0.0000000001
 12
1.0
 22
0.0
 32
0.0
 13
1.0
 23
0.0
 33
0.0
 40
0.0
 40
0.0
 40
0.0
 40
0.0
 40
0.25
 40
0.25
 40
0.25
 40
0.25
 40
0.5
 40
0.5
 40
0.5
 40
0.5
 40
1.0
 40
1.0
 40
1.0
 40
1.0
 10
71.5264
 20
16.8225
 30
0.0
 10
70.5567
 20
19.4587
 30
0.0
 10
68.0918
 20
21.2914
 30
0.0
 10
64.5091
 20
21.6965
 30
0.0
 10
64.5091
 20
21.6965
 30
0.0
 10
68.0177
 20
23.7662
 30
0.0
 10
70.4734
 20
26.4736
 30
0.0
 10
71.5264
 20
30.71
 30
0.0
 10
71.5264
 20
30.71
 30
0.0
 10
71.5264
 20
30.71
 30
0.0
 10
71.5264
 20
16.8225
 30
0.0
 10
71.5264
 20
16.8225
 30
0.0
  0
SPLINE
  5
B2
330
1F
100
AcDbEntity
  8
layer 1
 62
     7
100
AcDbSpline
210
0.0
220
0.0
230
1.0
 70
    11
 71
     3
 72
    32
 73
    28
 74
     0
 42
0.0000000001
 43
0.0000000001
 12
1.0
 22
0.0
 32
0.0
 13
1.0
 23
0.0
 33
0.0
 40
0.0
 40
0.0
 40
0.0
 40
0.0
 40
0.125
 40
0.125
 40
0.125
 40
0.125
 40
0.25
 40
0.25
 40
0.25
 40
0.25
 40
0.375
 40
0.375
 40
0.375
 40
0.375
 40
0.5
 40
0.5
 40
0.5
 40
0.5
 40
0.625
 40
0.625
 40
0.625
 40
0.625
 40
0.75
 40
0.75
 40
0.75
 40
0.75
 40
1.0
 40
1.0
 40
1.0
 40
1.0
 10
68.2124
 20
16.4889
 30
0.0
 10
68.4264
 20
13.9983
 30
0.0
 10
66.4566
 20
13.8631
 30
0.0
 10
65.1233
 20
14.4774
 30
0.0
 10
65.1233
 20
14.4774
 30
0.0
 10
63.6122
 20
15.1735
 30
0.0
 10
62.8191
 20
16.8251
 30
0.0
 10
65.1353
 20
16.9623
 30
0.0
 10
65.1353
 20
16.9623
 30
0.0
 10
63.2513
 20
18.8417
 30
0.0
 10
60.7085
 20
17.5683
 30
0.0
 10
60.7085
 20
15.3053
 30
0.0
 10
60.7085
 20
15.3053
 30
0.0
 10
60.7085
 20
13.2525
 30
0.0
 10
62.5611
 20
12.3637
 30
0.0
 10
63.8542
 20
11.6686
 30
0.0
 10
63.8542
 20
11.6686
 30
0.0
 10
57.5335
 20
11.9106
 30
0.0
 10
54.3671
 20
17.5003
 30
0.0
 10
49.4269
 20
21.406
 30
0.0
 10
49.4269
 20
21.406
 30
0.0
 10
50.8591
 20
20.6278
 30
0.0
 10
52.6052
 20
20.0937
 30
0.0
 10
54.1563
 20
19.8094
 30
0.0
 10
54.1563
 20
19.8094
 30
0.0
 10
57.2539
 20
18.9717
 30
0.0
 10
66.9505
 20
21.4401
 30
0.0
 10
68.2124
 20
16.4889
 30
0.0
  0
SPLINE
  5
B3
330
1F
100
AcDbEntity
  8
layer 1
 62
     7
100
AcDbSpline
210
0.0
220
0.0
230
1.0
 70
    11
 71
     3
 72
    20
 73
    16
 74
     0
 42
0.0000000001
 43
0.0000000001
 12
1.0
 22
0.0
 32
0.0
 13
1.0
 23
0.0
 33
0.0
 40
0.0
 40
0.0
 40
0.0
 40
0.0
 40
0.2
 40
0.2
 40
0.2
 40
0.2
 40
0.4
 40
0.4
 40
0.4
 40
0.4
 40
0.6
 40
0.6
 40
0.6
 40
0.6
 40
1.0
 40
1.0
 40
1.0
 40
1.0
 10
9.9435
 20
24.2408
 30
0.0
 10
9.9435
 20
24.2408
 30
0.0
 10
14.332
 20
18.5589
 30
0.0
 10
14.332
 20
18.5589
 30
0.0
 10
14.332
 20
18.5589
 30
0.0
 10
14.332
 20
18.5589
 30
0.0
 10
9.9943
 20
12.9473
 30
0.0
 10
9.9943
 20
12.9473
 30
0.0
 10
9.9943
 20
12.9473
 30
0.0
 10
9.9943
 20
12.9473
 30
0.0
 10
5.6224
 20
18.5589
 30
0.0
 10
5.6224
 20
18.5589
 30
0.0
 10
5.6224
 20
18.5589
 30
0.0
 10
5.6224
 20
18.5589
 30
0.0
 10
9.9435
 20
24.2408
 30
0.0
 10
9.9435
 20
24.2408
 30
0.0
  0
SPLINE
  5
B4
330
1F
100
AcDbEntity
  8
layer 1
 62
     7
100
AcDbSpline
210
0.0
220
0.0
230
1.0
 70
    11
 71
     3
 72
    20
 73
    16
 74
     0
 42
0.0000000001
 43
0.0000000001
 12
1.0
 22
0.0
 32
0.0
 13
1.0
 23
0.0
 33
0.0
 40
0.0
 40
0.0
 40
0.0
 40
0.0
 40
0.2
 40
0.2
 40
0.2
 40
0.2
 40
0.4
 40
0.4
 40
0.4
 40
0.4
 40
0.6
 40
0.6
 40
0.6
 40
0.6
 40
1.0
 40
1.0
 40
1.0
 40
1.0
 10
57.5289
 20
10.6879
 30
0.0
 10
52.6509
 20
10.7297
 30
0.0
 10
49.5473
 20
10.236
 30
0.0
 10
45.4062
 20
11.7393
 30
0.0
 10
45.4062
 20
11.7393
 30
0.0
 10
41.3938
 20
13.196
 30
0.0
 10
36.1445
 20
16.6608
 30
0.0
 10
33.5767
 20
19.6238
 30
0.0
 10
33.5767
 20
19.6238
 30
0.0
 10
37.6297
 20
25.6765
 30
0.0
 10
45.3011
 20
21.6496
 30
0.0
 10
49.2213
 20
17.8547
 30
0.0
 10
49.2213
 20
17.8547
 30
0.0
 10
51.3837
 20
15.7613
 30
0.0
 10
53.6922
 20
13.5247
 30
0.0
 10
57.5289
 20
10.6879
 30
0.0
  0
SPLINE
  5
B5
330
1F
100
AcDbEntity
  8
layer 1
 62
     7
100
AcDbSpline
210
0.0
220
0.0
230
1.0
 70
    11
 71
     3
 72
    16
 73
    12
 74
     0
 42
0.0000000001
 43
0.0000000001
 12
1.0
 22
0.0
 32
0.0
 13
1.0
 23
0.0
 33
0.0
 40
0.0
 40
0.0
 40
0.0
 40
0.0
 40
0.25
 40
0.25
 40
0.25
 40
0.25
 40
0.5
 40
0.5
 40
0.5
 40
0.5
 40
1.0
 40
1.0
 40
1.0
 40
1.0
 10
71.5264
 20
10.2133
 30
0.0
 10
71.1013
 20
10.7385
 30
0.0
 10
70.4882
 20
11.0216
 30
0.0
 10
69.4455
 20
11.0628
 30
0.0
 10
69.4455
 20
11.0628
 30
0.0
 10
70.3808
 20
11.4635
 30
0.0
 10
71.0206
 20
11.9986
 30
0.0
 10
71.5264
 20
13.475
 30
0.0
 10
71.5264
 20
13.475
 30
0.0
 10
71.5264
 20
13.475
 30
0.0
 10
71.5264
 20
10.2133
 30
0.0
 10
71.5264
 20
10.2133
 30
0.0
  0
SPLINE
  5
B6
330
1F
100
AcDbEntity
  8
layer 1
 62
     7
100
AcDbSpline
210
0.0
220
0.0
230
1.0
 70
    11
 71
     3
 72
    44
 73
    40
 74
     0
 42
0.0000000001
 43
0.0000000001
 12
1.0
 22
0.0
 32
0.0
 13
1.0
 23
0.0
 33
0.0
 40
0.0
 40
0.0
 40
0.0
 40
0.0
 40
0.0909090909090909
 40
0.0909090909090909
 40
0.0909090909090909
 40
0.0909090909090909
 40
0.1818181818181818
 40
0.1818181818181818
 40
0.1818181818181818
 40
0.1818181818181818
 40
0.2727272727272727
 40
0.2727272727272727
 40
0.2727272727272727
 40
0.2727272727272727
 40
0.3636363636363636
 40
0.3636363636363636
 40
0.3636363636363636
 40
0.3636363636363636
 40
0.4545454545454545
 40
0.4545454545454545
 40
0.4545454545454545
 40
0.4545454545454545
 40
0.5454545454545454
 40
0.5454545454545454
 40
0.5454545454545454
 40
0.5454545454545454
 40
0.6363636363636364
 40
0.6363636363636364
 40
0.6363636363636364
 40
0.6363636363636364
 40
0.7272727272727273
 40
0.7272727272727273
 40
0.7272727272727273
 40
0.7272727272727273
 40
0.8181818181818182
 40
0.8181818181818182
 40
0.8181818181818182
 40
0.8181818181818182
 40
1.0
 40
1.0
 40
1.0
 40
1.0
 10
-32.3612
 20
-51.365
 30
0.0
 10
-27.6446
 20
-51.5286
 30
0.0
 10
-27.4871
 20
-56.8464
 30
0.0
 10
-30.4531
 20
-54.2055
 30
0.0
 10
-30.4531
 20
-54.2055
 30
0.0
 10
-30.8675
 20
-58.0694
 30
0.0
 10
-23.6483
 20
-56.0721
 30
0.0
 10
-27.7903
 20
-50.5512
 30
0.0
 10
-27.7903
 20
-50.5512
 30
0.0
 10
-23.0507
 20
-52.7964
 30
0.0
 10
-20.7289
 20
-52.63
 30
0.0
 10
-16.5391
 20
-50.544
 30
0.0
 10
-16.5391
 20
-50.544
 30
0.0
 10
-18.4276
 20
-53.374
 30
0.0
 10
-18.8809
 20
-58.9183
 30
0.0
 10
-12.5151
 20
-59.539
 30
0.0
 10
-12.5151
 20
-59.539
 30
0.0
 10
-14.37
 20
-61.1053
 30
0.0
 10
-21.3104
 20
-60.2835
 30
0.0
 10
-22.9587
 20
-58.7945
 30
0.0
 10
-22.9587
 20
-58.7945
 30
0.0
 10
-23.2649
 20
-59.4372
 30
0.0
 10
-23.0012
 20
-60.6497
 30
0.0
 10
-23.8771
 20
-60.7225
 30
0.0
 10
-23.8771
 20
-60.7225
 30
0.0
 10
-24.9212
 20
-60.7372
 30
0.0
 10
-24.8814
 20
-59.3022
 30
0.0
 10
-26.4809
 20
-59.3022
 30
0.0
 10
-26.4809
 20
-59.3022
 30
0.0
 10
-27.5477
 20
-59.3022
 30
0.0
 10
-27.2401
 20
-59.5842
 30
0.0
 10
-27.3355
 20
-60.699
 30
0.0
 10
-27.3355
 20
-60.699
 30
0.0
 10
-32.5333
 20
-59.5849
 30
0.0
 10
-30.9712
 20
-62.0379
 30
0.0
 10
-32.3986
 20
-61.906
 30
0.0
 10
-32.3986
 20
-61.906
 30
0.0
 10
-37.4285
 20
-60.2484
 30
0.0
 10
-37.6036
 20
-51.4686
 30
0.0
 10
-32.3612
 20
-51.365
 30
0.0
  0
SPLINE
  5
B7
330
1F
100
AcDbEntity
  8
layer 1
 62
     7
100
AcDbSpline
210
0.0
220
0.0
230
1.0
 70
    11
 71
     3
 72
    28
 73
    24
 74
     0
 42
0.0000000001
 43
0.0000000001
 12
1.0
 22
0.0
 32
0.0
 13
1.0
 23
0.0
 33
0.0
 40
0.0
 40
0.0
 40
0.0
 40
0.0
 40
0.1428571428571428
 40
0.1428571428571428
 40
0.1428571428571428
 40
0.1428571428571428
 40
0.2857142857142857
 40
0.2857142857142857
 40
0.2857142857142857
 40
0.2857142857142857
 40
0.4285714285714285
 40
0.4285714285714285
 40
0.4285714285714285
 40
0.4285714285714285
 40
0.5714285714285714
 40
0.5714285714285714
 40
0.5714285714285714
 40
0.5714285714285714
 40
0.7142857142857143
 40
0.7142857142857143
 40
0.7142857142857143
 40
0.7142857142857143
 40
1.0
 40
1.0
 40
1.0
 40
1.0
 10
-11.0948
 20
-54.0947
 30
0.0
 10
-9.5794
 20
-54.1368
 30
0.0
 10
-9.2976
 20
-55.8243
 30
0.0
 10
-10.5615
 20
-56.6008
 30
0.0
 10
-10.5615
 20
-56.6008
 30
0.0
 10
-11.5428
 20
-57.2037
 30
0.0
 10
-12.9876
 20
-57.32
 30
0.0
 10
-13.951
 20
-55.8992
 30
0.0
 10
-13.951
 20
-55.8992
 30
0.0
 10
-16.3616
 20
-51.8588
 30
0.0
 10
-12.5947
 20
-48.0404
 30
0.0
 10
-11.2869
 20
-45.5867
 30
0.0
 10
-11.2869
 20
-45.5867
 30
0.0
 10
-11.2869
 20
-45.5867
 30
0.0
 10
-0.0285
 20
-52.5708
 30
0.0
 10
-0.0285
 20
-52.5708
 30
0.0
 10
-0.0285
 20
-52.5708
 30
0.0
 10
-1.2269
 20
-54.8356
 30
0.0
 10
-7.0267
 20
-59.2792
 30
0.0
 10
-10.1872
 20
-59.5014
 30
0.0
 10
-10.1872
 20
-59.5014
 30
0.0
 10
-5.3525
 20
-56.8708
 30
0.0
 10
-7.1936
 20
-50.8348
 30
0.0
 10
-11.0948
 20
-54.0947
 30
0.0
  0
SPLINE
  5
B8
330
1F
100
AcDbEntity
  8
layer 1
 62
     7
100
AcDbSpline
210
0.0
220
0.0
230
1.0
 70
    11
 71
     3
 72
    16
 73
    12
 74
     0
 42
0.0000000001
 43
0.0000000001
 12
1.0
 22
0.0
 32
0.0
 13
1.0
 23
0.0
 33
0.0
 40
0.0
 40
0.0
 40
0.0
 40
0.0
 40
0.25
 40
0.25
 40
0.25
 40
0.25
 40
0.5
 40
0.5
 40
0.5
 40
0.5
 40
1.0
 40
1.0
 40
1.0
 40
1.0
 10
-31.4648
 20
-37.5381
 30
0.0
 10
-32.8368
 20
-41.6376
 30
0.0
 10
-33.0393
 20
-44.0446
 30
0.0
 10
-30.9783
 20
-47.9402
 30
0.0
 10
-30.9783
 20
-47.9402
 30
0.0
 10
-37.0963
 20
-46.9254
 30
0.0
 10
-38.4853
 20
-50.4837
 30
0.0
 10
-38.553
 20
-55.7516
 30
0.0
 10
-38.553
 20
-55.7516
 30
0.0
 10
-42.5159
 20
-49.9418
 30
0.0
 10
-39.1409
 20
-39.9695
 30
0.0
 10
-31.4648
 20
-37.5381
 30
0.0
  0
SPLINE
  5
B9
330
1F
100
AcDbEntity
  8
layer 1
 62
     7
100
AcDbSpline
210
0.0
220
0.0
230
1.0
 70
    11
 71
     3
 72
    32
 73
    28
 74
     0
 42
0.0000000001
 43
0.0000000001
 12
1.0
 22
0.0
 32
0.0
 13
1.0
 23
0.0
 33
0.0
 40
0.0
 40
0.0
 40
0.0
 40
0.0
 40
0.125
 40
0.125
 40
0.125
 40
0.125
 40
0.25
 40
0.25
 40
0.25
 40
0.25
 40
0.375
 40
0.375
 40
0.375
 40
0.375
 40
0.5
 40
0.5
 40
0.5
 40
0.5
 40
0.625
 40
0.625
 40
0.625
 40
0.625
 40
0.75
 40
0.75
 40
0.75
 40
0.75
 40
1.0
 40
1.0
 40
1.0
 40
1.0
 10
-26.945
 20
-39.4886
 30
0.0
 10
-25.314
 20
-37.1478
 30
0.0
 10
-22.5775
 20
-37.353
 30
0.0
 10
-21.2238
 20
-38.4783
 30
0.0
 10
-21.2238
 20
-38.4783
 30
0.0
 10
-19.7771
 20
-39.6811
 30
0.0
 10
-18.9075
 20
-42.078
 30
0.0
 10
-21.9834
 20
-41.3124
 30
0.0
 10
-21.9834
 20
-41.3124
 30
0.0
 10
-21.3095
 20
-45.1368
 30
0.0
 10
-17.399
 20
-43.8152
 30
0.0
 10
-17.4481
 20
-39.7295
 30
0.0
 10
-17.4481
 20
-39.7295
 30
0.0
 10
-16.7078
 20
-41.2771
 30
0.0
 10
-15.4933
 20
-42.5621
 30
0.0
 10
-14.7944
 20
-43.0563
 30
0.0
 10
-14.7944
 20
-43.0563
 30
0.0
 10
-15.9675
 20
-44.9916
 30
0.0
 10
-18.2967
 20
-46.3931
 30
0.0
 10
-20.755
 20
-45.5355
 30
0.0
 10
-20.755
 20
-45.5355
 30
0.0
 10
-20.862
 20
-46.7409
 30
0.0
 10
-20.526
 20
-47.2463
 30
0.0
 10
-19.6903
 20
-47.9523
 30
0.0
 10
-19.6903
 20
-47.9523
 30
0.0
 10
-26.5062
 20
-49.453
 30
0.0
 10
-29.3564
 20
-42.7085
 30
0.0
 10
-26.945
 20
-39.4886
 30
0.0
  0
SPLINE
  5
BA
330
1F
100
AcDbEntity
  8
layer 1
 62
     7
100
AcDbSpline
210
0.0
220
0.0
230
1.0
 70
    11
 71
     3
 72
    24
 73
    20
 74
     0
 42
0.0000000001
 43
0.0000000001
 12
1.0
 22
0.0
 32
0.0
 13
1.0
 23
0.0
 33
0.0
 40
0.0
 40
0.0
 40
0.0
 40
0.0
 40
0.1666666666666667
 40
0.1666666666666667
 40
0.1666666666666667
 40
0.1666666666666667
 40
0.3333333333333333
 40
0.3333333333333333
 40
0.3333333333333333
 40
0.3333333333333333
 40
0.5
 40
0.5
 40
0.5
 40
0.5
 40
0.6666666666666666
 40
0.6666666666666666
 40
0.6666666666666666
 40
0.6666666666666666
 40
1.0
 40
1.0
 40
1.0
 40
1.0
 10
9.9821
 20
-61.4326
 30
0.0
 10
8.855
 20
-57.6177
 30
0.0
 10
8.1437
 20
-56.648
 30
0.0
 10
4.6422
 20
-52.9337
 30
0.0
 10
4.6422
 20
-52.9337
 30
0.0
 10
5.9948
 20
-50.98
 30
0.0
 10
8.7323
 20
-46.1513
 30
0.0
 10
8.7887
 20
-43.2061
 30
0.0
 10
8.7887
 20
-43.2061
 30
0.0
 10
8.7887
 20
-43.2061
 30
0.0
 10
11.1658
 20
-43.2061
 30
0.0
 10
11.1658
 20
-43.2061
 30
0.0
 10
11.1658
 20
-43.2061
 30
0.0
 10
11.2221
 20
-46.1513
 30
0.0
 10
13.9597
 20
-50.98
 30
0.0
 10
15.3123
 20
-52.9337
 30
0.0
 10
15.3123
 20
-52.9337
 30
0.0
 10
11.8107
 20
-56.648
 30
0.0
 10
11.1093
 20
-57.6177
 30
0.0
 10
9.9821
 20
-61.4326
 30
0.0
  0
SPLINE
  5
BB
330
1F
100
AcDbEntity
  8
layer 1
 62
     7
100
AcDbSpline
210
0.0
220
0.0
230
1.0
 70
    11
 71
     3
 72
    36
 73
    32
 74
     0
 42
0.0000000001
 43
0.0000000001
 12
1.0
 22
0.0
 32
0.0
 13
1.0
 23
0.0
 33
0.0
 40
0.0
 40
0.0
 40
0.0
 40
0.0
 40
0.1111111111111111
 40
0.1111111111111111
 40
0.1111111111111111
 40
0.1111111111111111
 40
0.2222222222222222
 40
0.2222222222222222
 40
0.2222222222222222
 40
0.2222222222222222
 40
0.3333333333333333
 40
0.3333333333333333
 40
0.3333333333333333
 40
0.3333333333333333
 40
0.4444444444444444
 40
0.4444444444444444
 40
0.4444444444444444
 40
0.4444444444444444
 40
0.5555555555555556
 40
0.5555555555555556
 40
0.5555555555555556
 40
0.5555555555555556
 40
0.6666666666666666
 40
0.6666666666666666
 40
0.6666666666666666
 40
0.6666666666666666
 40
0.7777777777777778
 40
0.7777777777777778
 40
0.7777777777777778
 40
0.7777777777777778
 40
1.0
 40
1.0
 40
1.0
 40
1.0
 10
-9.6746
 20
-42.7327
 30
0.0
 10
-9.8565
 20
-36.8458
 30
0.0
 10
-9.4619
 20
-33.2516
 30
0.0
 10
-14.172
 20
-27.82
 30
0.0
 10
-14.172
 20
-27.82
 30
0.0
 10
-13.351
 20
-23.7911
 30
0.0
 10
-7.3144
 20
-15.7169
 30
0.0
 10
-4.0286
 20
-12.0306
 30
0.0
 10
-4.0286
 20
-12.0306
 30
0.0
 10
-4.0286
 20
-12.0306
 30
0.0
 10
0.6479
 20
-17.5264
 30
0.0
 10
0.6479
 20
-17.5264
 30
0.0
 10
0.6479
 20
-17.5264
 30
0.0
 10
-3.692
 20
-23.6414
 30
0.0
 10
-10.4513
 20
-38.9974
 30
0.0
 10
5.1592
 20
-42.9565
 30
0.0
 10
5.1592
 20
-42.9565
 30
0.0
 10
4.8913
 20
-45.5702
 30
0.0
 10
2.2535
 20
-46.7984
 30
0.0
 10
2.5498
 20
-44.3012
 30
0.0
 10
2.5498
 20
-44.3012
 30
0.0
 10
0.1885
 20
-45.0559
 30
0.0
 10
0.0905
 20
-48.1197
 30
0.0
 10
4.2006
 20
-47.3348
 30
0.0
 10
4.2006
 20
-47.3348
 30
0.0
 10
4.2006
 20
-47.3348
 30
0.0
 10
1.8893
 20
-50.6708
 30
0.0
 10
1.8893
 20
-50.6708
 30
0.0
 10
1.8893
 20
-50.6708
 30
0.0
 10
-1.3961
 20
-47.5087
 30
0.0
 10
-5.5921
 20
-44.7631
 30
0.0
 10
-9.6746
 20
-42.7327
 30
0.0
  0
SPLINE
  5
BC
330
1F
100
AcDbEntity
  8
layer 1
 62
     7
100
AcDbSpline
210
0.0
220
0.0
230
1.0
 70
    11
 71
     3
 72
    48
 73
    44
 74
     0
 42
0.0000000001
 43
0.0000000001
 12
1.0
 22
0.0
 32
0.0
 13
1.0
 23
0.0
 33
0.0
 40
0.0
 40
0.0
 40
0.0
 40
0.0
 40
0.0833333333333333
 40
0.0833333333333333
 40
0.0833333333333333
 40
0.0833333333333333
 40
0.1666666666666667
 40
0.1666666666666667
 40
0.1666666666666667
 40
0.1666666666666667
 40
0.25
 40
0.25
 40
0.25
 40
0.25
 40
0.3333333333333333
 40
0.3333333333333333
 40
0.3333333333333333
 40
0.3333333333333333
 40
0.4166666666666667
 40
0.4166666666666667
 40
0.4166666666666667
 40
0.4166666666666667
 40
0.5
 40
0.5
 40
0.5
 40
0.5
 40
0.5833333333333334
 40
0.5833333333333334
 40
0.5833333333333334
 40
0.5833333333333334
 40
0.6666666666666666
 40
0.6666666666666666
 40
0.6666666666666666
 40
0.6666666666666666
 40
0.75
 40
0.75
 40
0.75
 40
0.75
 40
0.8333333333333334
 40
0.8333333333333334
 40
0.8333333333333334
 40
0.8333333333333334
 40
1.0
 40
1.0
 40
1.0
 40
1.0
 10
-35.0024
 20
-28.7669
 30
0.0
 10
-34.895
 20
-27.9955
 30
0.0
 10
-33.6182
 20
-29.1237
 30
0.0
 10
-32.5918
 20
-29.1237
 30
0.0
 10
-32.5918
 20
-29.1237
 30
0.0
 10
-31.7367
 20
-29.1237
 30
0.0
 10
-31.8653
 20
-28.2217
 30
0.0
 10
-31.845
 20
-27.3085
 30
0.0
 10
-31.845
 20
-27.3085
 30
0.0
 10
-30.5148
 20
-27.3381
 30
0.0
 10
-30.6079
 20
-28.0567
 30
0.0
 10
-29.3214
 20
-28.0567
 30
0.0
 10
-29.3214
 20
-28.0567
 30
0.0
 10
-28.7672
 20
-28.0567
 30
0.0
 10
-28.3745
 20
-27.664
 30
0.0
 10
-28.3745
 20
-27.1099
 30
0.0
 10
-28.3745
 20
-27.1099
 30
0.0
 10
-28.3745
 20
-27.1099
 30
0.0
 10
-28.3745
 20
-25.8067
 30
0.0
 10
-28.3745
 20
-25.8067
 30
0.0
 10
-28.3745
 20
-25.8067
 30
0.0
 10
-27.5517
 20
-26.1923
 30
0.0
 10
-26.7018
 20
-26.2215
 30
0.0
 10
-25.9174
 20
-26.2215
 30
0.0
 10
-25.9174
 20
-26.2215
 30
0.0
 10
-26.055
 20
-27.8749
 30
0.0
 10
-28.7583
 20
-30.9834
 30
0.0
 10
-30.5049
 20
-31.6074
 30
0.0
 10
-30.5049
 20
-31.6074
 30
0.0
 10
-30.5049
 20
-31.6074
 30
0.0
 10
-30.4457
 20
-29.0144
 30
0.0
 10
-30.4457
 20
-29.0144
 30
0.0
 10
-30.4457
 20
-29.0144
 30
0.0
 10
-33.488
 20
-35.23
 30
0.0
 10
-48.6234
 20
-39.2403
 30
0.0
 10
-41.8426
 20
-56.326
 30
0.0
 10
-41.8426
 20
-56.326
 30
0.0
 10
-53.0452
 20
-44.1663
 30
0.0
 10
-44.1816
 20
-32.4918
 30
0.0
 10
-36.2739
 20
-30.2931
 30
0.0
 10
-36.2739
 20
-30.2931
 30
0.0
 10
-35.2481
 20
-30.0079
 30
0.0
 10
-35.057
 20
-29.2178
 30
0.0
 10
-35.0024
 20
-28.7669
 30
0.0
  0
SPLINE
  5
BD
330
1F
100
AcDbEntity
  8
layer 1
 62
     7
100
AcDbSpline
210
0.0
220
0.0
230
1.0
 70
    11
 71
     3
 72
    12
 73
     8
 74
     0
 42
0.0000000001
 43
0.0000000001
 12
1.0
 22
0.0
 32
0.0
 13
1.0
 23
0.0
 33
0.0
 40
0.0
 40
0.0
 40
0.0
 40
0.0
 40
0.3333333333333333
 40
0.3333333333333333
 40
0.3333333333333333
 40
0.3333333333333333
 40
1.0
 40
1.0
 40
1.0
 40
1.0
 10
2.7166
 20
-20.8963
 30
0.0
 10
7.3315
 20
-25.8493
 30
0.0
 10
9.9036
 20
-34.826
 30
0.0
 10
6.0572
 20
-40.5195
 30
0.0
 10
6.0572
 20
-40.5195
 30
0.0
 10
-3.666
 20
-36.7971
 30
0.0
 10
-2.5854
 20
-28.8266
 30
0.0
 10
2.7166
 20
-20.8963
 30
0.0
  0
SPLINE
  5
BE
330
1F
100
AcDbEntity
  8
layer 1
 62
     7
100
AcDbSpline
210
0.0
220
0.0
230
1.0
 70
    11
 71
     3
 72
    12
 73
     8
 74
     0
 42
0.0000000001
 43
0.0000000001
 12
1.0
 22
0.0
 32
0.0
 13
1.0
 23
0.0
 33
0.0
 40
0.0
 40
0.0
 40
0.0
 40
0.0
 40
0.3333333333333333
 40
0.3333333333333333
 40
0.3333333333333333
 40
0.3333333333333333
 40
1.0
 40
1.0
 40
1.0
 40
1.0
 10
-15.5793
 20
-31.5945
 30
0.0
 10
-13.5628
 20
-33.1098
 30
0.0
 10
-12.4763
 20
-37.6805
 30
0.0
 10
-12.9506
 20
-40.017
 30
0.0
 10
-12.9506
 20
-40.017
 30
0.0
 10
-15.405
 20
-37.915
 30
0.0
 10
-15.7412
 20
-34.3896
 30
0.0
 10
-15.5793
 20
-31.5945
 30
0.0
  0
SPLINE
  5
BF
330
1F
100
AcDbEntity
  8
layer 1
 62
     7
100
AcDbSpline
210
0.0
220
0.0
230
1.0
 70
    11
 71
     3
 72
    20
 73
    16
 74
     0
 42
0.0000000001
 43
0.0000000001
 12
1.0
 22
0.0
 32
0.0
 13
1.0
 23
0.0
 33
0.0
 40
0.0
 40
0.0
 40
0.0
 40
0.0
 40
0.2
 40
0.2
 40
0.2
 40
0.2
 40
0.4
 40
0.4
 40
0.4
 40
0.4
 40
0.6
 40
0.6
 40
0.6
 40
0.6
 40
1.0
 40
1.0
 40
1.0
 40
1.0
 10
-26.2441
 20
-33.501
 30
0.0
 10
-24.8179
 20
-32.4254
 30
0.0
 10
-22.3948
 20
-29.1443
 30
0.0
 10
-21.7326
 20
-27.338
 30
0.0
 10
-21.7326
 20
-27.338
 30
0.0
 10
-20.7605
 20
-27.9178
 30
0.0
 10
-18.85
 20
-28.7194
 30
0.0
 10
-18.2592
 20
-28.9652
 30
0.0
 10
-18.2592
 20
-28.9652
 30
0.0
 10
-18.2592
 20
-28.9652
 30
0.0
 10
-18.5247
 20
-34.9796
 30
0.0
 10
-18.5247
 20
-34.9796
 30
0.0
 10
-18.5247
 20
-34.9796
 30
0.0
 10
-20.5062
 20
-32.8228
 30
0.0
 10
-22.6105
 20
-32.647
 30
0.0
 10
-26.2441
 20
-33.501
 30
0.0
  0
SPLINE
  5
C0
330
1F
100
AcDbEntity
  8
layer 1
 62
     7
100
AcDbSpline
210
0.0
220
0.0
230
1.0
 70
    11
 71
     3
 72
    16
 73
    12
 74
     0
 42
0.0000000001
 43
0.0000000001
 12
1.0
 22
0.0
 32
0.0
 13
1.0
 23
0.0
 33
0.0
 40
0.0
 40
0.0
 40
0.0
 40
0.0
 40
0.25
 40
0.25
 40
0.25
 40
0.25
 40
0.5
 40
0.5
 40
0.5
 40
0.5
 40
1.0
 40
1.0
 40
1.0
 40
1.0
 10
-51.5719
 20
-16.5997
 30
0.0
 10
-48.8633
 20
-22.5663
 30
0.0
 10
-45.2866
 20
-24.5828
 30
0.0
 10
-38.6238
 20
-24.4167
 30
0.0
 10
-38.6238
 20
-24.4167
 30
0.0
 10
-45.5682
 20
-28.0451
 30
0.0
 10
-49.2909
 20
-33.0757
 30
0.0
 10
-51.5719
 20
-41.2416
 30
0.0
 10
-51.5719
 20
-41.2416
 30
0.0
 10
-51.5719
 20
-41.2416
 30
0.0
 10
-51.5719
 20
-16.5997
 30
0.0
 10
-51.5719
 20
-16.5997
 30
0.0
  0
SPLINE
  5
C1
330
1F
100
AcDbEntity
  8
layer 1
 62
     7
100
AcDbSpline
210
0.0
220
0.0
230
1.0
 70
    11
 71
     3
 72
    16
 73
    12
 74
     0
 42
0.0000000001
 43
0.0000000001
 12
1.0
 22
0.0
 32
0.0
 13
1.0
 23
0.0
 33
0.0
 40
0.0
 40
0.0
 40
0.0
 40
0.0
 40
0.25
 40
0.25
 40
0.25
 40
0.25
 40
0.5
 40
0.5
 40
0.5
 40
0.5
 40
1.0
 40
1.0
 40
1.0
 40
1.0
 10
-33.172
 20
-22.6124
 30
0.0
 10
-27.4483
 20
-19.0626
 30
0.0
 10
-26.4207
 20
-14.6105
 30
0.0
 10
-29.0839
 20
-9.4795
 30
0.0
 10
-29.0839
 20
-9.4795
 30
0.0
 10
-24.2444
 20
-11.8021
 30
0.0
 10
-22.5523
 20
-18.9155
 30
0.0
 10
-24.0124
 20
-22.7347
 30
0.0
 10
-24.0124
 20
-22.7347
 30
0.0
 10
-26.1091
 20
-21.8558
 30
0.0
 10
-28.5281
 20
-21.8053
 30
0.0
 10
-33.172
 20
-22.6124
 30
0.0
  0
SPLINE
  5
C2
330
1F
100
AcDbEntity
  8
layer 1
 62
     7
100
AcDbSpline
210
0.0
220
0.0
230
1.0
 70
    11
 71
     3
 72
    28
 73
    24
 74
     0
 42
0.0000000001
 43
0.0000000001
 12
1.0
 22
0.0
 32
0.0
 13
1.0
 23
0.0
 33
0.0
 40
0.0
 40
0.0
 40
0.0
 40
0.0
 40
0.1428571428571428
 40
0.1428571428571428
 40
0.1428571428571428
 40
0.1428571428571428
 40
0.2857142857142857
 40
0.2857142857142857
 40
0.2857142857142857
 40
0.2857142857142857
 40
0.4285714285714285
 40
0.4285714285714285
 40
0.4285714285714285
 40
0.4285714285714285
 40
0.5714285714285714
 40
0.5714285714285714
 40
0.5714285714285714
 40
0.5714285714285714
 40
0.7142857142857143
 40
0.7142857142857143
 40
0.7142857142857143
 40
0.7142857142857143
 40
1.0
 40
1.0
 40
1.0
 40
1.0
 10
-20.5579
 20
-23.9419
 30
0.0
 10
-20.5168
 20
-20.6005
 30
0.0
 10
-19.8127
 20
-14.3788
 30
0.0
 10
-16.47
 20
-11.2651
 30
0.0
 10
-16.47
 20
-11.2651
 30
0.0
 10
-13.8654
 20
-9.4975
 30
0.0
 10
-12.7304
 20
-12.1449
 30
0.0
 10
-12.902
 20
-13.6851
 30
0.0
 10
-12.902
 20
-13.6851
 30
0.0
 10
-13.2571
 20
-16.8718
 30
0.0
 10
-16.3392
 20
-16.4594
 30
0.0
 10
-15.4448
 20
-13.5652
 30
0.0
 10
-15.4448
 20
-13.5652
 30
0.0
 10
-18.9662
 20
-15.6485
 30
0.0
 10
-16.1258
 20
-19.5176
 30
0.0
 10
-12.6043
 20
-17.4251
 30
0.0
 10
-12.6043
 20
-17.4251
 30
0.0
 10
-14.7648
 20
-19.7669
 30
0.0
 10
-16.4082
 20
-23.1656
 30
0.0
 10
-17.1162
 20
-25.6273
 30
0.0
 10
-17.1162
 20
-25.6273
 30
0.0
 10
-17.1162
 20
-25.6273
 30
0.0
 10
-20.5579
 20
-23.9419
 30
0.0
 10
-20.5579
 20
-23.9419
 30
0.0
  0
SPLINE
  5
C3
330
1F
100
AcDbEntity
  8
layer 1
 62
     7
100
AcDbSpline
210
0.0
220
0.0
230
1.0
 70
    11
 71
     3
 72
    20
 73
    16
 74
     0
 42
0.0000000001
 43
0.0000000001
 12
1.0
 22
0.0
 32
0.0
 13
1.0
 23
0.0
 33
0.0
 40
0.0
 40
0.0
 40
0.0
 40
0.0
 40
0.2
 40
0.2
 40
0.2
 40
0.2
 40
0.4
 40
0.4
 40
0.4
 40
0.4
 40
0.6
 40
0.6
 40
0.6
 40
0.6
 40
1.0
 40
1.0
 40
1.0
 40
1.0
 10
-2.11
 20
-9.2602
 30
0.0
 10
-2.11
 20
-9.2602
 30
0.0
 10
3.6099
 20
-2.6487
 30
0.0
 10
3.6099
 20
-2.6487
 30
0.0
 10
3.6099
 20
-2.6487
 30
0.0
 10
3.6099
 20
-2.6487
 30
0.0
 10
7.8419
 20
-8.1732
 30
0.0
 10
7.8419
 20
-8.1732
 30
0.0
 10
7.8419
 20
-8.1732
 30
0.0
 10
7.8419
 20
-8.1732
 30
0.0
 10
2.6857
 20
-14.9801
 30
0.0
 10
2.6857
 20
-14.9801
 30
0.0
 10
2.6857
 20
-14.9801
 30
0.0
 10
2.6857
 20
-14.9801
 30
0.0
 10
-2.11
 20
-9.2602
 30
0.0
 10
-2.11
 20
-9.2602
 30
0.0
  0
SPLINE
  5
C4
330
1F
100
AcDbEntity
  8
layer 1
 62
     7
100
AcDbSpline
210
0.0
220
0.0
230
1.0
 70
    11
 71
     3
 72
    16
 73
    12
 74
     0
 42
0.0000000001
 43
0.0000000001
 12
1.0
 22
0.0
 32
0.0
 13
1.0
 23
0.0
 33
0.0
 40
0.0
 40
0.0
 40
0.0
 40
0.0
 40
0.25
 40
0.25
 40
0.25
 40
0.25
 40
0.5
 40
0.5
 40
0.5
 40
0.5
 40
1.0
 40
1.0
 40
1.0
 40
1.0
 10
-25.1878
 20
-5.7539
 30
0.0
 10
-22.5271
 20
-7.2538
 30
0.0
 10
-19.9875
 20
-7.3989
 30
0.0
 10
-17.2054
 20
-7.0992
 30
0.0
 10
-17.2054
 20
-7.0992
 30
0.0
 10
-19.3764
 20
-8.4144
 30
0.0
 10
-20.6524
 20
-9.2708
 30
0.0
 10
-21.0972
 20
-13.5307
 30
0.0
 10
-21.0972
 20
-13.5307
 30
0.0
 10
-21.4108
 20
-9.0397
 30
0.0
 10
-23.3808
 20
-7.0946
 30
0.0
 10
-25.1878
 20
-5.7539
 30
0.0
  0
SPLINE
  5
C5
330
1F
100
AcDbEntity
  8
layer 1
 62
     7
100
AcDbSpline
210
0.0
220
0.0
230
1.0
 70
    11
 71
     3
 72
    60
 73
    56
 74
     0
 42
0.0000000001
 43
0.0000000001
 12
1.0
 22
0.0
 32
0.0
 13
1.0
 23
0.0
 33
0.0
 40
0.0
 40
0.0
 40
0.0
 40
0.0
 40
0.0666666666666667
 40
0.0666666666666667
 40
0.0666666666666667
 40
0.0666666666666667
 40
0.1333333333333333
 40
0.1333333333333333
 40
0.1333333333333333
 40
0.1333333333333333
 40
0.2
 40
0.2
 40
0.2
 40
0.2
 40
0.2666666666666667
 40
0.2666666666666667
 40
0.2666666666666667
 40
0.2666666666666667
 40
0.3333333333333333
 40
0.3333333333333333
 40
0.3333333333333333
 40
0.3333333333333333
 40
0.4
 40
0.4
 40
0.4
 40
0.4
 40
0.4666666666666667
 40
0.4666666666666667
 40
0.4666666666666667
 40
0.4666666666666667
 40
0.5333333333333333
 40
0.5333333333333333
 40
0.5333333333333333
 40
0.5333333333333333
 40
0.6
 40
0.6
 40
0.6
 40
0.6
 40
0.6666666666666666
 40
0.6666666666666666
 40
0.6666666666666666
 40
0.6666666666666666
 40
0.7333333333333333
 40
0.7333333333333333
 40
0.7333333333333333
 40
0.7333333333333333
 40
0.8
 40
0.8
 40
0.8
 40
0.8
 40
0.8666666666666667
 40
0.8666666666666667
 40
0.8666666666666667
 40
0.8666666666666667
 40
1.0
 40
1.0
 40
1.0
 40
1.0
 10
-46.6933
 20
-16.3439
 30
0.0
 10
-45.6555
 20
-17.2129
 30
0.0
 10
-41.7223
 20
-18.9842
 30
0.0
 10
-41.3537
 20
-15.7109
 30
0.0
 10
-41.3537
 20
-15.7109
 30
0.0
 10
-41.3537
 20
-14.6559
 30
0.0
 10
-42.4752
 20
-13.8143
 30
0.0
 10
-43.5239
 20
-13.5773
 30
0.0
 10
-43.5239
 20
-13.5773
 30
0.0
 10
-43.5239
 20
-14.2501
 30
0.0
 10
-42.8634
 20
-15.293
 30
0.0
 10
-44.234
 20
-15.2744
 30
0.0
 10
-44.234
 20
-15.2744
 30
0.0
 10
-46.0534
 20
-15.2744
 30
0.0
 10
-45.8909
 20
-13.1905
 30
0.0
 10
-45.8909
 20
-11.9606
 30
0.0
 10
-45.8909
 20
-11.9606
 30
0.0
 10
-45.5039
 20
-7.2128
 30
0.0
 10
-41.3383
 20
-4.02
 30
0.0
 10
-36.3247
 20
-4.0753
 30
0.0
 10
-36.3247
 20
-4.0753
 30
0.0
 10
-35.5882
 20
-4.0753
 30
0.0
 10
-36.3193
 20
-5.5302
 30
0.0
 10
-35.089
 20
-5.5663
 30
0.0
 10
-35.089
 20
-5.5663
 30
0.0
 10
-34.3574
 20
-5.5663
 30
0.0
 10
-33.1822
 20
-5.5035
 30
0.0
 10
-33.0165
 20
-5.7844
 30
0.0
 10
-33.0165
 20
-5.7844
 30
0.0
 10
-33.0165
 20
-5.9038
 30
0.0
 10
-33.0087
 20
-6.5949
 30
0.0
 10
-33.142
 20
-6.5846
 30
0.0
 10
-33.142
 20
-6.5846
 30
0.0
 10
-36.6728
 20
-6.3122
 30
0.0
 10
-39.008
 20
-7.4755
 30
0.0
 10
-39.0264
 20
-9.3567
 30
0.0
 10
-39.0264
 20
-9.3567
 30
0.0
 10
-39.137
 20
-10.9347
 30
0.0
 10
-38.3392
 20
-11.976
 30
0.0
 10
-36.5274
 20
-12.1268
 30
0.0
 10
-36.5274
 20
-12.1268
 30
0.0
 10
-36.8863
 20
-11.5907
 30
0.0
 10
-37.3694
 20
-11.5196
 30
0.0
 10
-37.3694
 20
-10.777
 30
0.0
 10
-37.3694
 20
-10.777
 30
0.0
 10
-37.2036
 20
-9.6222
 30
0.0
 10
-35.9818
 20
-9.3901
 30
0.0
 10
-35.1168
 20
-9.3901
 30
0.0
 10
-35.1168
 20
-9.3901
 30
0.0
 10
-33.3224
 20
-9.3901
 30
0.0
 10
-32.3986
 20
-11.8343
 30
0.0
 10
-32.3986
 20
-13.3808
 30
0.0
 10
-32.3986
 20
-13.3808
 30
0.0
 10
-32.2143
 20
-20.5311
 30
0.0
 10
-43.8822
 20
-22.5944
 30
0.0
 10
-46.6933
 20
-16.3439
 30
0.0
  0
SPLINE
  5
C6
330
1F
100
AcDbEntity
  8
layer 1
 62
     7
100
AcDbSpline
210
0.0
220
0.0
230
1.0
 70
    11
 71
     3
 72
    20
 73
    16
 74
     0
 42
0.0000000001
 43
0.0000000001
 12
1.0
 22
0.0
 32
0.0
 13
1.0
 23
0.0
 33
0.0
 40
0.0
 40
0.0
 40
0.0
 40
0.0
 40
0.2
 40
0.2
 40
0.2
 40
0.2
 40
0.4
 40
0.4
 40
0.4
 40
0.4
 40
0.6
 40
0.6
 40
0.6
 40
0.6
 40
1.0
 40
1.0
 40
1.0
 40
1.0
 10
-14.1517
 20
-6.2689
 30
0.0
 10
-14.1517
 20
-6.2689
 30
0.0
 10
-10.9159
 20
-3.2601
 30
0.0
 10
-10.9159
 20
-3.2601
 30
0.0
 10
-10.9159
 20
-3.2601
 30
0.0
 10
-10.9159
 20
-3.2601
 30
0.0
 10
-6.1313
 20
-8.7544
 30
0.0
 10
-6.1313
 20
-8.7544
 30
0.0
 10
-6.1313
 20
-8.7544
 30
0.0
 10
-6.1313
 20
-8.7544
 30
0.0
 10
-9.9803
 20
-13.8281
 30
0.0
 10
-9.9803
 20
-13.8281
 30
0.0
 10
-9.9803
 20
-13.8281
 30
0.0
 10
-8.8185
 20
-9.6396
 30
0.0
 10
-10.6459
 20
-7.4159
 30
0.0
 10
-14.1517
 20
-6.2689
 30
0.0
  0
SPLINE
  5
C7
330
1F
100
AcDbEntity
  8
layer 1
 62
     7
100
AcDbSpline
210
0.0
220
0.0
230
1.0
 70
    11
 71
     3
 72
    20
 73
    16
 74
     0
 42
0.0000000001
 43
0.0000000001
 12
1.0
 22
0.0
 32
0.0
 13
1.0
 23
0.0
 33
0.0
 40
0.0
 40
0.0
 40
0.0
 40
0.0
 40
0.2
 40
0.2
 40
0.2
 40
0.2
 40
0.4
 40
0.4
 40
0.4
 40
0.4
 40
0.6
 40
0.6
 40
0.6
 40
0.6
 40
1.0
 40
1.0
 40
1.0
 40
1.0
 10
-8.93
 20
-1.0043
 30
0.0
 10
-8.93
 20
-1.0043
 30
0.0
 10
-3.2533
 20
6.2124
 30
0.0
 10
-3.2533
 20
6.2124
 30
0.0
 10
-3.2533
 20
6.2124
 30
0.0
 10
-3.2533
 20
6.2124
 30
0.0
 10
1.2924
 20
0.5512
 30
0.0
 10
1.2924
 20
0.5512
 30
0.0
 10
1.2924
 20
0.5512
 30
0.0
 10
1.2924
 20
0.5512
 30
0.0
 10
-4.2558
 20
-6.4034
 30
0.0
 10
-4.2558
 20
-6.4034
 30
0.0
 10
-4.2558
 20
-6.4034
 30
0.0
 10
-4.2558
 20
-6.4034
 30
0.0
 10
-8.93
 20
-1.0043
 30
0.0
 10
-8.93
 20
-1.0043
 30
0.0
  0
SPLINE
  5
C8
330
1F
100
AcDbEntity
  8
layer 1
 62
     7
100
AcDbSpline
210
0.0
220
0.0
230
1.0
 70
    11
 71
     3
 72
    16
 73
    12
 74
     0
 42
0.0000000001
 43
0.0000000001
 12
1.0
 22
0.0
 32
0.0
 13
1.0
 23
0.0
 33
0.0
 40
0.0
 40
0.0
 40
0.0
 40
0.0
 40
0.25
 40
0.25
 40
0.25
 40
0.25
 40
0.5
 40
0.5
 40
0.5
 40
0.5
 40
1.0
 40
1.0
 40
1.0
 40
1.0
 10
-51.5719
 20
1.9083
 30
0.0
 10
-50.6022
 20
-0.7278
 30
0.0
 10
-48.1374
 20
-2.5605
 30
0.0
 10
-44.5546
 20
-2.9656
 30
0.0
 10
-44.5546
 20
-2.9656
 30
0.0
 10
-48.0632
 20
-5.0354
 30
0.0
 10
-50.5189
 20
-7.7428
 30
0.0
 10
-51.5719
 20
-11.9792
 30
0.0
 10
-51.5719
 20
-11.9792
 30
0.0
 10
-51.5719
 20
-11.9792
 30
0.0
 10
-51.5719
 20
1.9083
 30
0.0
 10
-51.5719
 20
1.9083
 30
0.0
  0
SPLINE
  5
C9
330
1F
100
AcDbEntity
  8
layer 1
 62
     7
100
AcDbSpline
210
0.0
220
0.0
230
1.0
 70
    11
 71
     3
 72
    32
 73
    28
 74
     0
 42
0.0000000001
 43
0.0000000001
 12
1.0
 22
0.0
 32
0.0
 13
1.0
 23
0.0
 33
0.0
 40
0.0
 40
0.0
 40
0.0
 40
0.0
 40
0.125
 40
0.125
 40
0.125
 40
0.125
 40
0.25
 40
0.25
 40
0.25
 40
0.25
 40
0.375
 40
0.375
 40
0.375
 40
0.375
 40
0.5
 40
0.5
 40
0.5
 40
0.5
 40
0.625
 40
0.625
 40
0.625
 40
0.625
 40
0.75
 40
0.75
 40
0.75
 40
0.75
 40
1.0
 40
1.0
 40
1.0
 40
1.0
 10
-48.258
 20
2.2419
 30
0.0
 10
-48.4719
 20
4.7325
 30
0.0
 10
-46.5022
 20
4.8677
 30
0.0
 10
-45.1689
 20
4.2535
 30
0.0
 10
-45.1689
 20
4.2535
 30
0.0
 10
-43.6577
 20
3.5573
 30
0.0
 10
-42.8646
 20
1.9057
 30
0.0
 10
-45.1809
 20
1.7686
 30
0.0
 10
-45.1809
 20
1.7686
 30
0.0
 10
-43.2968
 20
-0.1109
 30
0.0
 10
-40.7541
 20
1.1625
 30
0.0
 10
-40.7541
 20
3.4255
 30
0.0
 10
-40.7541
 20
3.4255
 30
0.0
 10
-40.7541
 20
5.4783
 30
0.0
 10
-42.6067
 20
6.3671
 30
0.0
 10
-43.8997
 20
7.0622
 30
0.0
 10
-43.8997
 20
7.0622
 30
0.0
 10
-37.579
 20
6.8202
 30
0.0
 10
-34.4126
 20
1.2305
 30
0.0
 10
-29.4725
 20
-2.6751
 30
0.0
 10
-29.4725
 20
-2.6751
 30
0.0
 10
-30.9046
 20
-1.897
 30
0.0
 10
-32.6507
 20
-1.3629
 30
0.0
 10
-34.2018
 20
-1.0786
 30
0.0
 10
-34.2018
 20
-1.0786
 30
0.0
 10
-37.2995
 20
-0.2409
 30
0.0
 10
-46.9961
 20
-2.7093
 30
0.0
 10
-48.258
 20
2.2419
 30
0.0
  0
SPLINE
  5
CA
330
1F
100
AcDbEntity
  8
layer 1
 62
     7
100
AcDbSpline
210
0.0
220
0.0
230
1.0
 70
    11
 71
     3
 72
    20
 73
    16
 74
     0
 42
0.0000000001
 43
0.0000000001
 12
1.0
 22
0.0
 32
0.0
 13
1.0
 23
0.0
 33
0.0
 40
0.0
 40
0.0
 40
0.0
 40
0.0
 40
0.2
 40
0.2
 40
0.2
 40
0.2
 40
0.4
 40
0.4
 40
0.4
 40
0.4
 40
0.6
 40
0.6
 40
0.6
 40
0.6
 40
1.0
 40
1.0
 40
1.0
 40
1.0
 10
-37.5745
 20
8.0429
 30
0.0
 10
-32.6964
 20
8.0011
 30
0.0
 10
-29.5928
 20
8.4949
 30
0.0
 10
-25.4518
 20
6.9915
 30
0.0
 10
-25.4518
 20
6.9915
 30
0.0
 10
-21.4394
 20
5.5349
 30
0.0
 10
-16.19
 20
2.0701
 30
0.0
 10
-13.6222
 20
-0.893
 30
0.0
 10
-13.6222
 20
-0.893
 30
0.0
 10
-17.6752
 20
-6.9456
 30
0.0
 10
-25.3466
 20
-2.9187
 30
0.0
 10
-29.2669
 20
0.8762
 30
0.0
 10
-29.2669
 20
0.8762
 30
0.0
 10
-31.4292
 20
2.9695
 30
0.0
 10
-33.7378
 20
5.2062
 30
0.0
 10
-37.5745
 20
8.0429
 30
0.0
  0
SPLINE
  5
CB
330
1F
100
AcDbEntity
  8
layer 1
 62
     7
100
AcDbSpline
210
0.0
220
0.0
230
1.0
 70
    11
 71
     3
 72
    16
 73
    12
 74
     0
 42
0.0000000001
 43
0.0000000001
 12
1.0
 22
0.0
 32
0.0
 13
1.0
 23
0.0
 33
0.0
 40
0.0
 40
0.0
 40
0.0
 40
0.0
 40
0.25
 40
0.25
 40
0.25
 40
0.25
 40
0.5
 40
0.5
 40
0.5
 40
0.5
 40
1.0
 40
1.0
 40
1.0
 40
1.0
 10
-51.5719
 20
8.5175
 30
0.0
 10
-51.1468
 20
7.9924
 30
0.0
 10
-50.5337
 20
7.7092
 30
0.0
 10
-49.4911
 20
7.668
 30
0.0
 10
-49.4911
 20
7.668
 30
0.0
 10
-50.4263
 20
7.2673
 30
0.0
 10
-51.0662
 20
6.7322
 30
0.0
 10
-51.5719
 20
5.2558
 30
0.0
 10
-51.5719
 20
5.2558
 30
0.0
 10
-51.5719
 20
5.2558
 30
0.0
 10
-51.5719
 20
8.5175
 30
0.0
 10
-51.5719
 20
8.5175
 30
0.0
  0
SPLINE
  5
CC
330
1F
100
AcDbEntity
  8
layer 1
 62
     7
100
AcDbSpline
210
0.0
220
0.0
230
1.0
 70
    11
 71
     3
 72
    20
 73
    16
 74
     0
 42
0.0000000001
 43
0.0000000001
 12
1.0
 22
0.0
 32
0.0
 13
1.0
 23
0.0
 33
0.0
 40
0.0
 40
0.0
 40
0.0
 40
0.0
 40
0.2
 40
0.2
 40
0.2
 40
0.2
 40
0.4
 40
0.4
 40
0.4
 40
0.4
 40
0.6
 40
0.6
 40
0.6
 40
0.6
 40
1.0
 40
1.0
 40
1.0
 40
1.0
 10
-1.1251
 20
9.3443
 30
0.0
 10
-1.1251
 20
9.3443
 30
0.0
 10
3.3977
 20
3.1903
 30
0.0
 10
3.3977
 20
3.1903
 30
0.0
 10
3.3977
 20
3.1903
 30
0.0
 10
3.3977
 20
3.1903
 30
0.0
 10
8.329
 20
9.3592
 30
0.0
 10
8.329
 20
9.3592
 30
0.0
 10
8.329
 20
9.3592
 30
0.0
 10
8.329
 20
9.3592
 30
0.0
 10
3.3977
 20
15.5406
 30
0.0
 10
3.3977
 20
15.5406
 30
0.0
 10
3.3977
 20
15.5406
 30
0.0
 10
3.3977
 20
15.5406
 30
0.0
 10
-1.1251
 20
9.3443
 30
0.0
 10
-1.1251
 20
9.3443
 30
0.0
  0
SPLINE
  5
CD
330
1F
100
AcDbEntity
  8
layer 1
 62
     7
100
AcDbSpline
210
0.0
220
0.0
230
1.0
 70
    11
 71
     3
 72
    44
 73
    40
 74
     0
 42
0.0000000001
 43
0.0000000001
 12
1.0
 22
0.0
 32
0.0
 13
1.0
 23
0.0
 33
0.0
 40
0.0
 40
0.0
 40
0.0
 40
0.0
 40
0.0909090909090909
 40
0.0909090909090909
 40
0.0909090909090909
 40
0.0909090909090909
 40
0.1818181818181818
 40
0.1818181818181818
 40
0.1818181818181818
 40
0.1818181818181818
 40
0.2727272727272727
 40
0.2727272727272727
 40
0.2727272727272727
 40
0.2727272727272727
 40
0.3636363636363636
 40
0.3636363636363636
 40
0.3636363636363636
 40
0.3636363636363636
 40
0.4545454545454545
 40
0.4545454545454545
 40
0.4545454545454545
 40
0.4545454545454545
 40
0.5454545454545454
 40
0.5454545454545454
 40
0.5454545454545454
 40
0.5454545454545454
 40
0.6363636363636364
 40
0.6363636363636364
 40
0.6363636363636364
 40
0.6363636363636364
 40
0.7272727272727273
 40
0.7272727272727273
 40
0.7272727272727273
 40
0.7272727272727273
 40
0.8181818181818182
 40
0.8181818181818182
 40
0.8181818181818182
 40
0.8181818181818182
 40
1.0
 40
1.0
 40
1.0
 40
1.0
 10
52.3156
 20
-51.365
 30
0.0
 10
47.5991
 20
-51.5286
 30
0.0
 10
47.4415
 20
-56.8464
 30
0.0
 10
50.4075
 20
-54.2055
 30
0.0
 10
50.4075
 20
-54.2055
 30
0.0
 10
50.8219
 20
-58.0694
 30
0.0
 10
43.6028
 20
-56.0721
 30
0.0
 10
47.7447
 20
-50.5512
 30
0.0
 10
47.7447
 20
-50.5512
 30
0.0
 10
43.0052
 20
-52.7964
 30
0.0
 10
40.6834
 20
-52.63
 30
0.0
 10
36.4936
 20
-50.544
 30
0.0
 10
36.4936
 20
-50.544
 30
0.0
 10
38.3821
 20
-53.374
 30
0.0
 10
38.8354
 20
-58.9183
 30
0.0
 10
32.4695
 20
-59.539
 30
0.0
 10
32.4695
 20
-59.539
 30
0.0
 10
34.3244
 20
-61.1053
 30
0.0
 10
41.2648
 20
-60.2835
 30
0.0
 10
42.9132
 20
-58.7945
 30
0.0
 10
42.9132
 20
-58.7945
 30
0.0
 10
43.2193
 20
-59.4372
 30
0.0
 10
42.9557
 20
-60.6497
 30
0.0
 10
43.8315
 20
-60.7225
 30
0.0
 10
43.8315
 20
-60.7225
 30
0.0
 10
44.8757
 20
-60.7372
 30
0.0
 10
44.8359
 20
-59.3022
 30
0.0
 10
46.4353
 20
-59.3022
 30
0.0
 10
46.4353
 20
-59.3022
 30
0.0
 10
47.5022
 20
-59.3022
 30
0.0
 10
47.1945
 20
-59.5842
 30
0.0
 10
47.29
 20
-60.699
 30
0.0
 10
47.29
 20
-60.699
 30
0.0
 10
52.4878
 20
-59.5849
 30
0.0
 10
50.9256
 20
-62.0379
 30
0.0
 10
52.353
 20
-61.906
 30
0.0
 10
52.353
 20
-61.906
 30
0.0
 10
57.3829
 20
-60.2484
 30
0.0
 10
57.558
 20
-51.4686
 30
0.0
 10
52.3156
 20
-51.365
 30
0.0
  0
SPLINE
  5
CE
330
1F
100
AcDbEntity
  8
layer 1
 62
     7
100
AcDbSpline
210
0.0
220
0.0
230
1.0
 70
    11
 71
     3
 72
    28
 73
    24
 74
     0
 42
0.0000000001
 43
0.0000000001
 12
1.0
 22
0.0
 32
0.0
 13
1.0
 23
0.0
 33
0.0
 40
0.0
 40
0.0
 40
0.0
 40
0.0
 40
0.1428571428571428
 40
0.1428571428571428
 40
0.1428571428571428
 40
0.1428571428571428
 40
0.2857142857142857
 40
0.2857142857142857
 40
0.2857142857142857
 40
0.2857142857142857
 40
0.4285714285714285
 40
0.4285714285714285
 40
0.4285714285714285
 40
0.4285714285714285
 40
0.5714285714285714
 40
0.5714285714285714
 40
0.5714285714285714
 40
0.5714285714285714
 40
0.7142857142857143
 40
0.7142857142857143
 40
0.7142857142857143
 40
0.7142857142857143
 40
1.0
 40
1.0
 40
1.0
 40
1.0
 10
31.0493
 20
-54.0947
 30
0.0
 10
29.5338
 20
-54.1368
 30
0.0
 10
29.252
 20
-55.8243
 30
0.0
 10
30.516
 20
-56.6008
 30
0.0
 10
30.516
 20
-56.6008
 30
0.0
 10
31.4972
 20
-57.2037
 30
0.0
 10
32.9421
 20
-57.32
 30
0.0
 10
33.9054
 20
-55.8992
 30
0.0
 10
33.9054
 20
-55.8992
 30
0.0
 10
36.3161
 20
-51.8588
 30
0.0
 10
32.5492
 20
-48.0404
 30
0.0
 10
31.2414
 20
-45.5867
 30
0.0
 10
31.2414
 20
-45.5867
 30
0.0
 10
31.2414
 20
-45.5867
 30
0.0
 10
19.9829
 20
-52.5708
 30
0.0
 10
19.9829
 20
-52.5708
 30
0.0
 10
19.9829
 20
-52.5708
 30
0.0
 10
21.1813
 20
-54.8356
 30
0.0
 10
26.9811
 20
-59.2792
 30
0.0
 10
30.1417
 20
-59.5014
 30
0.0
 10
30.1417
 20
-59.5014
 30
0.0
 10
25.3069
 20
-56.8708
 30
0.0
 10
27.1481
 20
-50.8348
 30
0.0
 10
31.0493
 20
-54.0947
 30
0.0
  0
SPLINE
  5
CF
330
1F
100
AcDbEntity
  8
layer 1
 62
     7
100
AcDbSpline
210
0.0
220
0.0
230
1.0
 70
    11
 71
     3
 72
    16
 73
    12
 74
     0
 42
0.0000000001
 43
0.0000000001
 12
1.0
 22
0.0
 32
0.0
 13
1.0
 23
0.0
 33
0.0
 40
0.0
 40
0.0
 40
0.0
 40
0.0
 40
0.25
 40
0.25
 40
0.25
 40
0.25
 40
0.5
 40
0.5
 40
0.5
 40
0.5
 40
1.0
 40
1.0
 40
1.0
 40
1.0
 10
51.4192
 20
-37.5381
 30
0.0
 10
52.7912
 20
-41.6376
 30
0.0
 10
52.9937
 20
-44.0446
 30
0.0
 10
50.9328
 20
-47.9402
 30
0.0
 10
50.9328
 20
-47.9402
 30
0.0
 10
57.0507
 20
-46.9254
 30
0.0
 10
58.4398
 20
-50.4837
 30
0.0
 10
58.5074
 20
-55.7516
 30
0.0
 10
58.5074
 20
-55.7516
 30
0.0
 10
62.4703
 20
-49.9418
 30
0.0
 10
59.0954
 20
-39.9695
 30
0.0
 10
51.4192
 20
-37.5381
 30
0.0
  0
SPLINE
  5
D0
330
1F
100
AcDbEntity
  8
layer 1
 62
     7
100
AcDbSpline
210
0.0
220
0.0
230
1.0
 70
    11
 71
     3
 72
    32
 73
    28
 74
     0
 42
0.0000000001
 43
0.0000000001
 12
1.0
 22
0.0
 32
0.0
 13
1.0
 23
0.0
 33
0.0
 40
0.0
 40
0.0
 40
0.0
 40
0.0
 40
0.125
 40
0.125
 40
0.125
 40
0.125
 40
0.25
 40
0.25
 40
0.25
 40
0.25
 40
0.375
 40
0.375
 40
0.375
 40
0.375
 40
0.5
 40
0.5
 40
0.5
 40
0.5
 40
0.625
 40
0.625
 40
0.625
 40
0.625
 40
0.75
 40
0.75
 40
0.75
 40
0.75
 40
1.0
 40
1.0
 40
1.0
 40
1.0
 10
46.8995
 20
-39.4886
 30
0.0
 10
45.2684
 20
-37.1478
 30
0.0
 10
42.532
 20
-37.353
 30
0.0
 10
41.1783
 20
-38.4783
 30
0.0
 10
41.1783
 20
-38.4783
 30
0.0
 10
39.7316
 20
-39.6811
 30
0.0
 10
38.862
 20
-42.078
 30
0.0
 10
41.9378
 20
-41.3124
 30
0.0
 10
41.9378
 20
-41.3124
 30
0.0
 10
41.2639
 20
-45.1368
 30
0.0
 10
37.3535
 20
-43.8152
 30
0.0
 10
37.4025
 20
-39.7295
 30
0.0
 10
37.4025
 20
-39.7295
 30
0.0
 10
36.6622
 20
-41.2771
 30
0.0
 10
35.4477
 20
-42.5621
 30
0.0
 10
34.7488
 20
-43.0563
 30
0.0
 10
34.7488
 20
-43.0563
 30
0.0
 10
35.922
 20
-44.9916
 30
0.0
 10
38.2512
 20
-46.3931
 30
0.0
 10
40.7094
 20
-45.5355
 30
0.0
 10
40.7094
 20
-45.5355
 30
0.0
 10
40.8164
 20
-46.7409
 30
0.0
 10
40.4805
 20
-47.2463
 30
0.0
 10
39.6448
 20
-47.9523
 30
0.0
 10
39.6448
 20
-47.9523
 30
0.0
 10
46.4606
 20
-49.453
 30
0.0
 10
49.3108
 20
-42.7085
 30
0.0
 10
46.8995
 20
-39.4886
 30
0.0
  0
SPLINE
  5
D1
330
1F
100
AcDbEntity
  8
layer 1
 62
     7
100
AcDbSpline
210
0.0
220
0.0
230
1.0
 70
    11
 71
     3
 72
    36
 73
    32
 74
     0
 42
0.0000000001
 43
0.0000000001
 12
1.0
 22
0.0
 32
0.0
 13
1.0
 23
0.0
 33
0.0
 40
0.0
 40
0.0
 40
0.0
 40
0.0
 40
0.1111111111111111
 40
0.1111111111111111
 40
0.1111111111111111
 40
0.1111111111111111
 40
0.2222222222222222
 40
0.2222222222222222
 40
0.2222222222222222
 40
0.2222222222222222
 40
0.3333333333333333
 40
0.3333333333333333
 40
0.3333333333333333
 40
0.3333333333333333
 40
0.4444444444444444
 40
0.4444444444444444
 40
0.4444444444444444
 40
0.4444444444444444
 40
0.5555555555555556
 40
0.5555555555555556
 40
0.5555555555555556
 40
0.5555555555555556
 40
0.6666666666666666
 40
0.6666666666666666
 40
0.6666666666666666
 40
0.6666666666666666
 40
0.7777777777777778
 40
0.7777777777777778
 40
0.7777777777777778
 40
0.7777777777777778
 40
1.0
 40
1.0
 40
1.0
 40
1.0
 10
29.629
 20
-42.7327
 30
0.0
 10
29.8109
 20
-36.8458
 30
0.0
 10
29.4164
 20
-33.2516
 30
0.0
 10
34.1264
 20
-27.82
 30
0.0
 10
34.1264
 20
-27.82
 30
0.0
 10
33.3054
 20
-23.7911
 30
0.0
 10
27.2689
 20
-15.7169
 30
0.0
 10
23.983
 20
-12.0306
 30
0.0
 10
23.983
 20
-12.0306
 30
0.0
 10
23.983
 20
-12.0306
 30
0.0
 10
19.3065
 20
-17.5264
 30
0.0
 10
19.3065
 20
-17.5264
 30
0.0
 10
19.3065
 20
-17.5264
 30
0.0
 10
23.6464
 20
-23.6414
 30
0.0
 10
30.4058
 20
-38.9974
 30
0.0
 10
14.7953
 20
-42.9565
 30
0.0
 10
14.7953
 20
-42.9565
 30
0.0
 10
15.0631
 20
-45.5702
 30
0.0
 10
17.701
 20
-46.7984
 30
0.0
 10
17.4047
 20
-44.3012
 30
0.0
 10
17.4047
 20
-44.3012
 30
0.0
 10
19.7659
 20
-45.0559
 30
0.0
 10
19.864
 20
-48.1197
 30
0.0
 10
15.7539
 20
-47.3348
 30
0.0
 10
15.7539
 20
-47.3348
 30
0.0
 10
15.7539
 20
-47.3348
 30
0.0
 10
18.0652
 20
-50.6708
 30
0.0
 10
18.0652
 20
-50.6708
 30
0.0
 10
18.0652
 20
-50.6708
 30
0.0
 10
21.3505
 20
-47.5087
 30
0.0
 10
25.5466
 20
-44.7631
 30
0.0
 10
29.629
 20
-42.7327
 30
0.0
  0
SPLINE
  5
D2
330
1F
100
AcDbEntity
  8
layer 1
 62
     7
100
AcDbSpline
210
0.0
220
0.0
230
1.0
 70
    11
 71
     3
 72
    48
 73
    44
 74
     0
 42
0.0000000001
 43
0.0000000001
 12
1.0
 22
0.0
 32
0.0
 13
1.0
 23
0.0
 33
0.0
 40
0.0
 40
0.0
 40
0.0
 40
0.0
 40
0.0833333333333333
 40
0.0833333333333333
 40
0.0833333333333333
 40
0.0833333333333333
 40
0.1666666666666667
 40
0.1666666666666667
 40
0.1666666666666667
 40
0.1666666666666667
 40
0.25
 40
0.25
 40
0.25
 40
0.25
 40
0.3333333333333333
 40
0.3333333333333333
 40
0.3333333333333333
 40
0.3333333333333333
 40
0.4166666666666667
 40
0.4166666666666667
 40
0.4166666666666667
 40
0.4166666666666667
 40
0.5
 40
0.5
 40
0.5
 40
0.5
 40
0.5833333333333334
 40
0.5833333333333334
 40
0.5833333333333334
 40
0.5833333333333334
 40
0.6666666666666666
 40
0.6666666666666666
 40
0.6666666666666666
 40
0.6666666666666666
 40
0.75
 40
0.75
 40
0.75
 40
0.75
 40
0.8333333333333334
 40
0.8333333333333334
 40
0.8333333333333334
 40
0.8333333333333334
 40
1.0
 40
1.0
 40
1.0
 40
1.0
 10
54.9568
 20
-28.7669
 30
0.0
 10
54.8495
 20
-27.9955
 30
0.0
 10
53.5726
 20
-29.1237
 30
0.0
 10
52.5462
 20
-29.1237
 30
0.0
 10
52.5462
 20
-29.1237
 30
0.0
 10
51.6912
 20
-29.1237
 30
0.0
 10
51.8197
 20
-28.2217
 30
0.0
 10
51.7994
 20
-27.3085
 30
0.0
 10
51.7994
 20
-27.3085
 30
0.0
 10
50.4693
 20
-27.3381
 30
0.0
 10
50.5623
 20
-28.0567
 30
0.0
 10
49.2758
 20
-28.0567
 30
0.0
 10
49.2758
 20
-28.0567
 30
0.0
 10
48.7217
 20
-28.0567
 30
0.0
 10
48.3289
 20
-27.664
 30
0.0
 10
48.3289
 20
-27.1099
 30
0.0
 10
48.3289
 20
-27.1099
 30
0.0
 10
48.3289
 20
-27.1099
 30
0.0
 10
48.3289
 20
-25.8067
 30
0.0
 10
48.3289
 20
-25.8067
 30
0.0
 10
48.3289
 20
-25.8067
 30
0.0
 10
47.5061
 20
-26.1923
 30
0.0
 10
46.6563
 20
-26.2215
 30
0.0
 10
45.8719
 20
-26.2215
 30
0.0
 10
45.8719
 20
-26.2215
 30
0.0
 10
46.0095
 20
-27.8749
 30
0.0
 10
48.7127
 20
-30.9834
 30
0.0
 10
50.4593
 20
-31.6074
 30
0.0
 10
50.4593
 20
-31.6074
 30
0.0
 10
50.4593
 20
-31.6074
 30
0.0
 10
50.4001
 20
-29.0144
 30
0.0
 10
50.4001
 20
-29.0144
 30
0.0
 10
50.4001
 20
-29.0144
 30
0.0
 10
53.4425
 20
-35.23
 30
0.0
 10
68.5778
 20
-39.2403
 30
0.0
 10
61.797
 20
-56.326
 30
0.0
 10
61.797
 20
-56.326
 30
0.0
 10
72.9997
 20
-44.1663
 30
0.0
 10
64.1361
 20
-32.4918
 30
0.0
 10
56.2284
 20
-30.2931
 30
0.0
 10
56.2284
 20
-30.2931
 30
0.0
 10
55.2026
 20
-30.0079
 30
0.0
 10
55.0115
 20
-29.2178
 30
0.0
 10
54.9568
 20
-28.7669
 30
0.0
  0
SPLINE
  5
D3
330
1F
100
AcDbEntity
  8
layer 1
 62
     7
100
AcDbSpline
210
0.0
220
0.0
230
1.0
 70
    11
 71
     3
 72
    12
 73
     8
 74
     0
 42
0.0000000001
 43
0.0000000001
 12
1.0
 22
0.0
 32
0.0
 13
1.0
 23
0.0
 33
0.0
 40
0.0
 40
0.0
 40
0.0
 40
0.0
 40
0.3333333333333333
 40
0.3333333333333333
 40
0.3333333333333333
 40
0.3333333333333333
 40
1.0
 40
1.0
 40
1.0
 40
1.0
 10
17.2378
 20
-20.8963
 30
0.0
 10
12.623
 20
-25.8493
 30
0.0
 10
10.0509
 20
-34.826
 30
0.0
 10
13.8973
 20
-40.5195
 30
0.0
 10
13.8973
 20
-40.5195
 30
0.0
 10
23.6205
 20
-36.7971
 30
0.0
 10
22.5398
 20
-28.8266
 30
0.0
 10
17.2378
 20
-20.8963
 30
0.0
  0
SPLINE
  5
D4
330
1F
100
AcDbEntity
  8
layer 1
 62
     7
100
AcDbSpline
210
0.0
220
0.0
230
1.0
 70
    11
 71
     3
 72
    12
 73
     8
 74
     0
 42
0.0000000001
 43
0.0000000001
 12
1.0
 22
0.0
 32
0.0
 13
1.0
 23
0.0
 33
0.0
 40
0.0
 40
0.0
 40
0.0
 40
0.0
 40
0.3333333333333333
 40
0.3333333333333333
 40
0.3333333333333333
 40
0.3333333333333333
 40
1.0
 40
1.0
 40
1.0
 40
1.0
 10
35.5338
 20
-31.5945
 30
0.0
 10
33.5172
 20
-33.1098
 30
0.0
 10
32.4308
 20
-37.6805
 30
0.0
 10
32.905
 20
-40.017
 30
0.0
 10
32.905
 20
-40.017
 30
0.0
 10
35.3594
 20
-37.915
 30
0.0
 10
35.6956
 20
-34.3896
 30
0.0
 10
35.5338
 20
-31.5945
 30
0.0
  0
SPLINE
  5
D5
330
1F
100
AcDbEntity
  8
layer 1
 62
     7
100
AcDbSpline
210
0.0
220
0.0
230
1.0
 70
    11
 71
     3
 72
    20
 73
    16
 74
     0
 42
0.0000000001
 43
0.0000000001
 12
1.0
 22
0.0
 32
0.0
 13
1.0
 23
0.0
 33
0.0
 40
0.0
 40
0.0
 40
0.0
 40
0.0
 40
0.2
 40
0.2
 40
0.2
 40
0.2
 40
0.4
 40
0.4
 40
0.4
 40
0.4
 40
0.6
 40
0.6
 40
0.6
 40
0.6
 40
1.0
 40
1.0
 40
1.0
 40
1.0
 10
46.1986
 20
-33.501
 30
0.0
 10
44.7723
 20
-32.4254
 30
0.0
 10
42.3493
 20
-29.1443
 30
0.0
 10
41.6871
 20
-27.338
 30
0.0
 10
41.6871
 20
-27.338
 30
0.0
 10
40.7149
 20
-27.9178
 30
0.0
 10
38.8044
 20
-28.7194
 30
0.0
 10
38.2136
 20
-28.9652
 30
0.0
 10
38.2136
 20
-28.9652
 30
0.0
 10
38.2136
 20
-28.9652
 30
0.0
 10
38.4791
 20
-34.9796
 30
0.0
 10
38.4791
 20
-34.9796
 30
0.0
 10
38.4791
 20
-34.9796
 30
0.0
 10
40.4606
 20
-32.8228
 30
0.0
 10
42.565
 20
-32.647
 30
0.0
 10
46.1986
 20
-33.501
 30
0.0
  0
SPLINE
  5
D6
330
1F
100
AcDbEntity
  8
layer 1
 62
     7
100
AcDbSpline
210
0.0
220
0.0
230
1.0
 70
    11
 71
     3
 72
    16
 73
    12
 74
     0
 42
0.0000000001
 43
0.0000000001
 12
1.0
 22
0.0
 32
0.0
 13
1.0
 23
0.0
 33
0.0
 40
0.0
 40
0.0
 40
0.0
 40
0.0
 40
0.25
 40
0.25
 40
0.25
 40
0.25
 40
0.5
 40
0.5
 40
0.5
 40
0.5
 40
1.0
 40
1.0
 40
1.0
 40
1.0
 10
71.5264
 20
-16.5997
 30
0.0
 10
68.8178
 20
-22.5663
 30
0.0
 10
65.2411
 20
-24.5828
 30
0.0
 10
58.5783
 20
-24.4167
 30
0.0
 10
58.5783
 20
-24.4167
 30
0.0
 10
65.5226
 20
-28.0451
 30
0.0
 10
69.2453
 20
-33.0757
 30
0.0
 10
71.5264
 20
-41.2416
 30
0.0
 10
71.5264
 20
-41.2416
 30
0.0
 10
71.5264
 20
-41.2416
 30
0.0
 10
71.5264
 20
-16.5997
 30
0.0
 10
71.5264
 20
-16.5997
 30
0.0
  0
SPLINE
  5
D7
330
1F
100
AcDbEntity
  8
layer 1
 62
     7
100
AcDbSpline
210
0.0
220
0.0
230
1.0
 70
    11
 71
     3
 72
    16
 73
    12
 74
     0
 42
0.0000000001
 43
0.0000000001
 12
1.0
 22
0.0
 32
0.0
 13
1.0
 23
0.0
 33
0.0
 40
0.0
 40
0.0
 40
0.0
 40
0.0
 40
0.25
 40
0.25
 40
0.25
 40
0.25
 40
0.5
 40
0.5
 40
0.5
 40
0.5
 40
1.0
 40
1.0
 40
1.0
 40
1.0
 10
53.1265
 20
-22.6124
 30
0.0
 10
47.4027
 20
-19.0626
 30
0.0
 10
46.3751
 20
-14.6105
 30
0.0
 10
49.0384
 20
-9.4795
 30
0.0
 10
49.0384
 20
-9.4795
 30
0.0
 10
44.1989
 20
-11.8021
 30
0.0
 10
42.5067
 20
-18.9155
 30
0.0
 10
43.9668
 20
-22.7347
 30
0.0
 10
43.9668
 20
-22.7347
 30
0.0
 10
46.0635
 20
-21.8558
 30
0.0
 10
48.4825
 20
-21.8053
 30
0.0
 10
53.1265
 20
-22.6124
 30
0.0
  0
SPLINE
  5
D8
330
1F
100
AcDbEntity
  8
layer 1
 62
     7
100
AcDbSpline
210
0.0
220
0.0
230
1.0
 70
    11
 71
     3
 72
    28
 73
    24
 74
     0
 42
0.0000000001
 43
0.0000000001
 12
1.0
 22
0.0
 32
0.0
 13
1.0
 23
0.0
 33
0.0
 40
0.0
 40
0.0
 40
0.0
 40
0.0
 40
0.1428571428571428
 40
0.1428571428571428
 40
0.1428571428571428
 40
0.1428571428571428
 40
0.2857142857142857
 40
0.2857142857142857
 40
0.2857142857142857
 40
0.2857142857142857
 40
0.4285714285714285
 40
0.4285714285714285
 40
0.4285714285714285
 40
0.4285714285714285
 40
0.5714285714285714
 40
0.5714285714285714
 40
0.5714285714285714
 40
0.5714285714285714
 40
0.7142857142857143
 40
0.7142857142857143
 40
0.7142857142857143
 40
0.7142857142857143
 40
1.0
 40
1.0
 40
1.0
 40
1.0
 10
40.5123
 20
-23.9419
 30
0.0
 10
40.4712
 20
-20.6005
 30
0.0
 10
39.7672
 20
-14.3788
 30
0.0
 10
36.4244
 20
-11.2651
 30
0.0
 10
36.4244
 20
-11.2651
 30
0.0
 10
33.8198
 20
-9.4975
 30
0.0
 10
32.6849
 20
-12.1449
 30
0.0
 10
32.8565
 20
-13.6851
 30
0.0
 10
32.8565
 20
-13.6851
 30
0.0
 10
33.2115
 20
-16.8718
 30
0.0
 10
36.2936
 20
-16.4594
 30
0.0
 10
35.3992
 20
-13.5652
 30
0.0
 10
35.3992
 20
-13.5652
 30
0.0
 10
38.9206
 20
-15.6485
 30
0.0
 10
36.0802
 20
-19.5176
 30
0.0
 10
32.5587
 20
-17.4251
 30
0.0
 10
32.5587
 20
-17.4251
 30
0.0
 10
34.7193
 20
-19.7669
 30
0.0
 10
36.3627
 20
-23.1656
 30
0.0
 10
37.0707
 20
-25.6273
 30
0.0
 10
37.0707
 20
-25.6273
 30
0.0
 10
37.0707
 20
-25.6273
 30
0.0
 10
40.5123
 20
-23.9419
 30
0.0
 10
40.5123
 20
-23.9419
 30
0.0
  0
SPLINE
  5
D9
330
1F
100
AcDbEntity
  8
layer 1
 62
     7
100
AcDbSpline
210
0.0
220
0.0
230
1.0
 70
    11
 71
     3
 72
    20
 73
    16
 74
     0
 42
0.0000000001
 43
0.0000000001
 12
1.0
 22
0.0
 32
0.0
 13
1.0
 23
0.0
 33
0.0
 40
0.0
 40
0.0
 40
0.0
 40
0.0
 40
0.2
 40
0.2
 40
0.2
 40
0.2
 40
0.4
 40
0.4
 40
0.4
 40
0.4
 40
0.6
 40
0.6
 40
0.6
 40
0.6
 40
1.0
 40
1.0
 40
1.0
 40
1.0
 10
9.9799
 20
-11.1329
 30
0.0
 10
9.9799
 20
-11.1329
 30
0.0
 10
15.1898
 20
-18.3517
 30
0.0
 10
15.1898
 20
-18.3517
 30
0.0
 10
15.1898
 20
-18.3517
 30
0.0
 10
13.1767
 20
-20.7544
 30
0.0
 10
10.9459
 20
-23.6027
 30
0.0
 10
10.0317
 20
-28.7678
 30
0.0
 10
10.0317
 20
-28.7678
 30
0.0
 10
9.1176
 20
-23.6027
 30
0.0
 10
6.7777
 20
-20.7544
 30
0.0
 10
4.7647
 20
-18.3517
 30
0.0
 10
4.7647
 20
-18.3517
 30
0.0
 10
4.7647
 20
-18.3517
 30
0.0
 10
9.9799
 20
-11.1329
 30
0.0
 10
9.9799
 20
-11.1329
 30
0.0
  0
SPLINE
  5
DA
330
1F
100
AcDbEntity
  8
layer 1
 62
     7
100
AcDbSpline
210
0.0
220
0.0
230
1.0
 70
    11
 71
     3
 72
    20
 73
    16
 74
     0
 42
0.0000000001
 43
0.0000000001
 12
1.0
 22
0.0
 32
0.0
 13
1.0
 23
0.0
 33
0.0
 40
0.0
 40
0.0
 40
0.0
 40
0.0
 40
0.2
 40
0.2
 40
0.2
 40
0.2
 40
0.4
 40
0.4
 40
0.4
 40
0.4
 40
0.6
 40
0.6
 40
0.6
 40
0.6
 40
1.0
 40
1.0
 40
1.0
 40
1.0
 10
22.0644
 20
-9.2602
 30
0.0
 10
22.0644
 20
-9.2602
 30
0.0
 10
16.3445
 20
-2.6487
 30
0.0
 10
16.3445
 20
-2.6487
 30
0.0
 10
16.3445
 20
-2.6487
 30
0.0
 10
16.3445
 20
-2.6487
 30
0.0
 10
12.1126
 20
-8.1732
 30
0.0
 10
12.1126
 20
-8.1732
 30
0.0
 10
12.1126
 20
-8.1732
 30
0.0
 10
12.1126
 20
-8.1732
 30
0.0
 10
17.2688
 20
-14.9801
 30
0.0
 10
17.2688
 20
-14.9801
 30
0.0
 10
17.2688
 20
-14.9801
 30
0.0
 10
17.2688
 20
-14.9801
 30
0.0
 10
22.0644
 20
-9.2602
 30
0.0
 10
22.0644
 20
-9.2602
 30
0.0
  0
SPLINE
  5
DB
330
1F
100
AcDbEntity
  8
layer 1
 62
     7
100
AcDbSpline
210
0.0
220
0.0
230
1.0
 70
    11
 71
     3
 72
    16
 73
    12
 74
     0
 42
0.0000000001
 43
0.0000000001
 12
1.0
 22
0.0
 32
0.0
 13
1.0
 23
0.0
 33
0.0
 40
0.0
 40
0.0
 40
0.0
 40
0.0
 40
0.25
 40
0.25
 40
0.25
 40
0.25
 40
0.5
 40
0.5
 40
0.5
 40
0.5
 40
1.0
 40
1.0
 40
1.0
 40
1.0
 10
45.1423
 20
-5.7539
 30
0.0
 10
42.4815
 20
-7.2538
 30
0.0
 10
39.942
 20
-7.3989
 30
0.0
 10
37.1598
 20
-7.0992
 30
0.0
 10
37.1598
 20
-7.0992
 30
0.0
 10
39.3308
 20
-8.4144
 30
0.0
 10
40.6069
 20
-9.2708
 30
0.0
 10
41.0517
 20
-13.5307
 30
0.0
 10
41.0517
 20
-13.5307
 30
0.0
 10
41.3653
 20
-9.0397
 30
0.0
 10
43.3353
 20
-7.0946
 30
0.0
 10
45.1423
 20
-5.7539
 30
0.0
  0
SPLINE
  5
DC
330
1F
100
AcDbEntity
  8
layer 1
 62
     7
100
AcDbSpline
210
0.0
220
0.0
230
1.0
 70
    11
 71
     3
 72
    60
 73
    56
 74
     0
 42
0.0000000001
 43
0.0000000001
 12
1.0
 22
0.0
 32
0.0
 13
1.0
 23
0.0
 33
0.0
 40
0.0
 40
0.0
 40
0.0
 40
0.0
 40
0.0666666666666667
 40
0.0666666666666667
 40
0.0666666666666667
 40
0.0666666666666667
 40
0.1333333333333333
 40
0.1333333333333333
 40
0.1333333333333333
 40
0.1333333333333333
 40
0.2
 40
0.2
 40
0.2
 40
0.2
 40
0.2666666666666667
 40
0.2666666666666667
 40
0.2666666666666667
 40
0.2666666666666667
 40
0.3333333333333333
 40
0.3333333333333333
 40
0.3333333333333333
 40
0.3333333333333333
 40
0.4
 40
0.4
 40
0.4
 40
0.4
 40
0.4666666666666667
 40
0.4666666666666667
 40
0.4666666666666667
 40
0.4666666666666667
 40
0.5333333333333333
 40
0.5333333333333333
 40
0.5333333333333333
 40
0.5333333333333333
 40
0.6
 40
0.6
 40
0.6
 40
0.6
 40
0.6666666666666666
 40
0.6666666666666666
 40
0.6666666666666666
 40
0.6666666666666666
 40
0.7333333333333333
 40
0.7333333333333333
 40
0.7333333333333333
 40
0.7333333333333333
 40
0.8
 40
0.8
 40
0.8
 40
0.8
 40
0.8666666666666667
 40
0.8666666666666667
 40
0.8666666666666667
 40
0.8666666666666667
 40
1.0
 40
1.0
 40
1.0
 40
1.0
 10
66.6477
 20
-16.3439
 30
0.0
 10
65.6099
 20
-17.2129
 30
0.0
 10
61.6768
 20
-18.9842
 30
0.0
 10
61.3082
 20
-15.7109
 30
0.0
 10
61.3082
 20
-15.7109
 30
0.0
 10
61.3082
 20
-14.6559
 30
0.0
 10
62.4296
 20
-13.8143
 30
0.0
 10
63.4783
 20
-13.5773
 30
0.0
 10
63.4783
 20
-13.5773
 30
0.0
 10
63.4783
 20
-14.2501
 30
0.0
 10
62.8178
 20
-15.293
 30
0.0
 10
64.1884
 20
-15.2744
 30
0.0
 10
64.1884
 20
-15.2744
 30
0.0
 10
66.0079
 20
-15.2744
 30
0.0
 10
65.8454
 20
-13.1905
 30
0.0
 10
65.8454
 20
-11.9606
 30
0.0
 10
65.8454
 20
-11.9606
 30
0.0
 10
65.4584
 20
-7.2128
 30
0.0
 10
61.2927
 20
-4.02
 30
0.0
 10
56.2791
 20
-4.0753
 30
0.0
 10
56.2791
 20
-4.0753
 30
0.0
 10
55.5426
 20
-4.0753
 30
0.0
 10
56.2737
 20
-5.5302
 30
0.0
 10
55.0434
 20
-5.5663
 30
0.0
 10
55.0434
 20
-5.5663
 30
0.0
 10
54.3119
 20
-5.5663
 30
0.0
 10
53.1367
 20
-5.5035
 30
0.0
 10
52.971
 20
-5.7844
 30
0.0
 10
52.971
 20
-5.7844
 30
0.0
 10
52.971
 20
-5.9038
 30
0.0
 10
52.9631
 20
-6.5949
 30
0.0
 10
53.0964
 20
-6.5846
 30
0.0
 10
53.0964
 20
-6.5846
 30
0.0
 10
56.6272
 20
-6.3122
 30
0.0
 10
58.9624
 20
-7.4755
 30
0.0
 10
58.9809
 20
-9.3567
 30
0.0
 10
58.9809
 20
-9.3567
 30
0.0
 10
59.0914
 20
-10.9347
 30
0.0
 10
58.2937
 20
-11.976
 30
0.0
 10
56.4818
 20
-12.1268
 30
0.0
 10
56.4818
 20
-12.1268
 30
0.0
 10
56.8408
 20
-11.5907
 30
0.0
 10
57.3239
 20
-11.5196
 30
0.0
 10
57.3239
 20
-10.777
 30
0.0
 10
57.3239
 20
-10.777
 30
0.0
 10
57.158
 20
-9.6222
 30
0.0
 10
55.9363
 20
-9.3901
 30
0.0
 10
55.0712
 20
-9.3901
 30
0.0
 10
55.0712
 20
-9.3901
 30
0.0
 10
53.2769
 20
-9.3901
 30
0.0
 10
52.353
 20
-11.8343
 30
0.0
 10
52.353
 20
-13.3808
 30
0.0
 10
52.353
 20
-13.3808
 30
0.0
 10
52.1687
 20
-20.5311
 30
0.0
 10
63.8366
 20
-22.5944
 30
0.0
 10
66.6477
 20
-16.3439
 30
0.0
  0
SPLINE
  5
DD
330
1F
100
AcDbEntity
  8
layer 1
 62
     7
100
AcDbSpline
210
0.0
220
0.0
230
1.0
 70
    11
 71
     3
 72
    20
 73
    16
 74
     0
 42
0.0000000001
 43
0.0000000001
 12
1.0
 22
0.0
 32
0.0
 13
1.0
 23
0.0
 33
0.0
 40
0.0
 40
0.0
 40
0.0
 40
0.0
 40
0.2
 40
0.2
 40
0.2
 40
0.2
 40
0.4
 40
0.4
 40
0.4
 40
0.4
 40
0.6
 40
0.6
 40
0.6
 40
0.6
 40
1.0
 40
1.0
 40
1.0
 40
1.0
 10
34.1061
 20
-6.2689
 30
0.0
 10
34.1061
 20
-6.2689
 30
0.0
 10
30.8703
 20
-3.2601
 30
0.0
 10
30.8703
 20
-3.2601
 30
0.0
 10
30.8703
 20
-3.2601
 30
0.0
 10
30.8703
 20
-3.2601
 30
0.0
 10
26.0858
 20
-8.7544
 30
0.0
 10
26.0858
 20
-8.7544
 30
0.0
 10
26.0858
 20
-8.7544
 30
0.0
 10
26.0858
 20
-8.7544
 30
0.0
 10
29.9347
 20
-13.8281
 30
0.0
 10
29.9347
 20
-13.8281
 30
0.0
 10
29.9347
 20
-13.8281
 30
0.0
 10
28.9759
 20
-10.2929
 30
0.0
 10
29.9968
 20
-7.6681
 30
0.0
 10
34.1061
 20
-6.2689
 30
0.0
  0
SPLINE
  5
DE
330
1F
100
AcDbEntity
  8
layer 1
 62
     7
100
AcDbSpline
210
0.0
220
0.0
230
1.0
 70
    11
 71
     3
 72
    20
 73
    16
 74
     0
 42
0.0000000001
 43
0.0000000001
 12
1.0
 22
0.0
 32
0.0
 13
1.0
 23
0.0
 33
0.0
 40
0.0
 40
0.0
 40
0.0
 40
0.0
 40
0.2
 40
0.2
 40
0.2
 40
0.2
 40
0.4
 40
0.4
 40
0.4
 40
0.4
 40
0.6
 40
0.6
 40
0.6
 40
0.6
 40
1.0
 40
1.0
 40
1.0
 40
1.0
 10
28.8844
 20
-1.0043
 30
0.0
 10
28.8844
 20
-1.0043
 30
0.0
 10
23.2077
 20
6.2124
 30
0.0
 10
23.2077
 20
6.2124
 30
0.0
 10
23.2077
 20
6.2124
 30
0.0
 10
23.2077
 20
6.2124
 30
0.0
 10
18.6621
 20
0.5512
 30
0.0
 10
18.6621
 20
0.5512
 30
0.0
 10
18.6621
 20
0.5512
 30
0.0
 10
18.6621
 20
0.5512
 30
0.0
 10
24.2102
 20
-6.4034
 30
0.0
 10
24.2102
 20
-6.4034
 30
0.0
 10
24.2102
 20
-6.4034
 30
0.0
 10
24.2102
 20
-6.4034
 30
0.0
 10
28.8844
 20
-1.0043
 30
0.0
 10
28.8844
 20
-1.0043
 30
0.0
  0
SPLINE
  5
DF
330
1F
100
AcDbEntity
  8
layer 1
 62
     7
100
AcDbSpline
210
0.0
220
0.0
230
1.0
 70
    11
 71
     3
 72
    16
 73
    12
 74
     0
 42
0.0000000001
 43
0.0000000001
 12
1.0
 22
0.0
 32
0.0
 13
1.0
 23
0.0
 33
0.0
 40
0.0
 40
0.0
 40
0.0
 40
0.0
 40
0.25
 40
0.25
 40
0.25
 40
0.25
 40
0.5
 40
0.5
 40
0.5
 40
0.5
 40
1.0
 40
1.0
 40
1.0
 40
1.0
 10
71.5264
 20
1.9083
 30
0.0
 10
70.5567
 20
-0.7278
 30
0.0
 10
68.0918
 20
-2.5605
 30
0.0
 10
64.5091
 20
-2.9656
 30
0.0
 10
64.5091
 20
-2.9656
 30
0.0
 10
68.0177
 20
-5.0354
 30
0.0
 10
70.4734
 20
-7.7428
 30
0.0
 10
71.5264
 20
-11.9792
 30
0.0
 10
71.5264
 20
-11.9792
 30
0.0
 10
71.5264
 20
-11.9792
 30
0.0
 10
71.5264
 20
1.9083
 30
0.0
 10
71.5264
 20
1.9083
 30
0.0
  0
SPLINE
  5
E0
330
1F
100
AcDbEntity
  8
layer 1
 62
     7
100
AcDbSpline
210
0.0
220
0.0
230
1.0
 70
    11
 71
     3
 72
    32
 73
    28
 74
     0
 42
0.0000000001
 43
0.0000000001
 12
1.0
 22
0.0
 32
0.0
 13
1.0
 23
0.0
 33
0.0
 40
0.0
 40
0.0
 40
0.0
 40
0.0
 40
0.125
 40
0.125
 40
0.125
 40
0.125
 40
0.25
 40
0.25
 40
0.25
 40
0.25
 40
0.375
 40
0.375
 40
0.375
 40
0.375
 40
0.5
 40
0.5
 40
0.5
 40
0.5
 40
0.625
 40
0.625
 40
0.625
 40
0.625
 40
0.75
 40
0.75
 40
0.75
 40
0.75
 40
1.0
 40
1.0
 40
1.0
 40
1.0
 10
68.2124
 20
2.2419
 30
0.0
 10
68.4264
 20
4.7325
 30
0.0
 10
66.4566
 20
4.8677
 30
0.0
 10
65.1233
 20
4.2535
 30
0.0
 10
65.1233
 20
4.2535
 30
0.0
 10
63.6122
 20
3.5573
 30
0.0
 10
62.8191
 20
1.9057
 30
0.0
 10
65.1353
 20
1.7686
 30
0.0
 10
65.1353
 20
1.7686
 30
0.0
 10
63.2513
 20
-0.1109
 30
0.0
 10
60.7085
 20
1.1625
 30
0.0
 10
60.7085
 20
3.4255
 30
0.0
 10
60.7085
 20
3.4255
 30
0.0
 10
60.7085
 20
5.4783
 30
0.0
 10
62.5611
 20
6.3671
 30
0.0
 10
63.8542
 20
7.0622
 30
0.0
 10
63.8542
 20
7.0622
 30
0.0
 10
57.5335
 20
6.8202
 30
0.0
 10
54.3671
 20
1.2305
 30
0.0
 10
49.4269
 20
-2.6751
 30
0.0
 10
49.4269
 20
-2.6751
 30
0.0
 10
50.8591
 20
-1.897
 30
0.0
 10
52.6052
 20
-1.3629
 30
0.0
 10
54.1563
 20
-1.0786
 30
0.0
 10
54.1563
 20
-1.0786
 30
0.0
 10
57.2539
 20
-0.2409
 30
0.0
 10
66.9505
 20
-2.7093
 30
0.0
 10
68.2124
 20
2.2419
 30
0.0
  0
SPLINE
  5
E1
330
1F
100
AcDbEntity
  8
layer 1
 62
     7
100
AcDbSpline
210
0.0
220
0.0
230
1.0
 70
    11
 71
     3
 72
    20
 73
    16
 74
     0
 42
0.0000000001
 43
0.0000000001
 12
1.0
 22
0.0
 32
0.0
 13
1.0
 23
0.0
 33
0.0
 40
0.0
 40
0.0
 40
0.0
 40
0.0
 40
0.2
 40
0.2
 40
0.2
 40
0.2
 40
0.4
 40
0.4
 40
0.4
 40
0.4
 40
0.6
 40
0.6
 40
0.6
 40
0.6
 40
1.0
 40
1.0
 40
1.0
 40
1.0
 10
9.9435
 20
-5.51
 30
0.0
 10
9.9435
 20
-5.51
 30
0.0
 10
14.332
 20
0.1719
 30
0.0
 10
14.332
 20
0.1719
 30
0.0
 10
14.332
 20
0.1719
 30
0.0
 10
14.332
 20
0.1719
 30
0.0
 10
9.9943
 20
5.7836
 30
0.0
 10
9.9943
 20
5.7836
 30
0.0
 10
9.9943
 20
5.7836
 30
0.0
 10
9.9943
 20
5.7836
 30
0.0
 10
5.6224
 20
0.1719
 30
0.0
 10
5.6224
 20
0.1719
 30
0.0
 10
5.6224
 20
0.1719
 30
0.0
 10
5.6224
 20
0.1719
 30
0.0
 10
9.9435
 20
-5.51
 30
0.0
 10
9.9435
 20
-5.51
 30
0.0
  0
SPLINE
  5
E2
330
1F
100
AcDbEntity
  8
layer 1
 62
     7
100
AcDbSpline
210
0.0
220
0.0
230
1.0
 70
    11
 71
     3
 72
    20
 73
    16
 74
     0
 42
0.0000000001
 43
0.0000000001
 12
1.0
 22
0.0
 32
0.0
 13
1.0
 23
0.0
 33
0.0
 40
0.0
 40
0.0
 40
0.0
 40
0.0
 40
0.2
 40
0.2
 40
0.2
 40
0.2
 40
0.4
 40
0.4
 40
0.4
 40
0.4
 40
0.6
 40
0.6
 40
0.6
 40
0.6
 40
1.0
 40
1.0
 40
1.0
 40
1.0
 10
57.5289
 20
8.0429
 30
0.0
 10
52.6509
 20
8.0011
 30
0.0
 10
49.5473
 20
8.4949
 30
0.0
 10
45.4062
 20
6.9915
 30
0.0
 10
45.4062
 20
6.9915
 30
0.0
 10
41.3938
 20
5.5349
 30
0.0
 10
36.1445
 20
2.0701
 30
0.0
 10
33.5767
 20
-0.893
 30
0.0
 10
33.5767
 20
-0.893
 30
0.0
 10
37.6297
 20
-6.9456
 30
0.0
 10
45.3011
 20
-2.9187
 30
0.0
 10
49.2213
 20
0.8762
 30
0.0
 10
49.2213
 20
0.8762
 30
0.0
 10
51.3837
 20
2.9695
 30
0.0
 10
53.6922
 20
5.2062
 30
0.0
 10
57.5289
 20
8.0429
 30
0.0
  0
SPLINE
  5
E3
330
1F
100
AcDbEntity
  8
layer 1
 62
     7
100
AcDbSpline
210
0.0
220
0.0
230
1.0
 70
    11
 71
     3
 72
    16
 73
    12
 74
     0
 42
0.0000000001
 43
0.0000000001
 12
1.0
 22
0.0
 32
0.0
 13
1.0
 23
0.0
 33
0.0
 40
0.0
 40
0.0
 40
0.0
 40
0.0
 40
0.25
 40
0.25
 40
0.25
 40
0.25
 40
0.5
 40
0.5
 40
0.5
 40
0.5
 40
1.0
 40
1.0
 40
1.0
 40
1.0
 10
71.5264
 20
8.5175
 30
0.0
 10
71.1013
 20
7.9924
 30
0.0
 10
70.4882
 20
7.7092
 30
0.0
 10
69.4455
 20
7.668
 30
0.0
 10
69.4455
 20
7.668
 30
0.0
 10
70.3808
 20
7.2673
 30
0.0
 10
71.0206
 20
6.7322
 30
0.0
 10
71.5264
 20
5.2558
 30
0.0
 10
71.5264
 20
5.2558
 30
0.0
 10
71.5264
 20
5.2558
 30
0.0
 10
71.5264
 20
8.5175
 30
0.0
 10
71.5264
 20
8.5175
 30
0.0
  0
SPLINE
  5
E4
330
1F
100
AcDbEntity
  8
layer 1
 62
     7
100
AcDbSpline
210
0.0
220
0.0
230
1.0
 70
    11
 71
     3
 72
    20
 73
    16
 74
     0
 42
0.0000000001
 43
0.0000000001
 12
1.0
 22
0.0
 32
0.0
 13
1.0
 23
0.0
 33
0.0
 40
0.0
 40
0.0
 40
0.0
 40
0.0
 40
0.2
 40
0.2
 40
0.2
 40
0.2
 40
0.4
 40
0.4
 40
0.4
 40
0.4
 40
0.6
 40
0.6
 40
0.6
 40
0.6
 40
1.0
 40
1.0
 40
1.0
 40
1.0
 10
43.5326
 20
9.3713
 30
0.0
 10
37.9761
 20
7.936
 30
0.0
 10
33.7007
 20
4.9972
 30
0.0
 10
31.3077
 20
1.7009
 30
0.0
 10
31.3077
 20
1.7009
 30
0.0
 10
31.3077
 20
1.7009
 30
0.0
 10
25.2162
 20
9.3993
 30
0.0
 10
25.2162
 20
9.3993
 30
0.0
 10
25.2162
 20
9.3993
 30
0.0
 10
25.2162
 20
9.3993
 30
0.0
 10
31.3077
 20
17.0299
 30
0.0
 10
31.3077
 20
17.0299
 30
0.0
 10
31.3077
 20
17.0299
 30
0.0
 10
33.7007
 20
13.7337
 30
0.0
 10
37.9761
 20
10.8066
 30
0.0
 10
43.5326
 20
9.3713
 30
0.0
  0
SPLINE
  5
E5
330
1F
100
AcDbEntity
  8
layer 1
 62
     7
100
AcDbSpline
210
0.0
220
0.0
230
1.0
 70
    11
 71
     3
 72
    20
 73
    16
 74
     0
 42
0.0000000001
 43
0.0000000001
 12
1.0
 22
0.0
 32
0.0
 13
1.0
 23
0.0
 33
0.0
 40
0.0
 40
0.0
 40
0.0
 40
0.0
 40
0.2
 40
0.2
 40
0.2
 40
0.2
 40
0.4
 40
0.4
 40
0.4
 40
0.4
 40
0.6
 40
0.6
 40
0.6
 40
0.6
 40
1.0
 40
1.0
 40
1.0
 40
1.0
 10
11.6254
 20
9.3592
 30
0.0
 10
11.6254
 20
9.3592
 30
0.0
 10
16.5567
 20
3.1903
 30
0.0
 10
16.5567
 20
3.1903
 30
0.0
 10
16.5567
 20
3.1903
 30
0.0
 10
16.5567
 20
3.1903
 30
0.0
 10
21.0795
 20
9.3443
 30
0.0
 10
21.0795
 20
9.3443
 30
0.0
 10
21.0795
 20
9.3443
 30
0.0
 10
21.0795
 20
9.3443
 30
0.0
 10
16.5567
 20
15.5406
 30
0.0
 10
16.5567
 20
15.5406
 30
0.0
 10
16.5567
 20
15.5406
 30
0.0
 10
16.5567
 20
15.5406
 30
0.0
 10
11.6254
 20
9.3592
 30
0.0
 10
11.6254
 20
9.3592
 30
0.0
  0
SPLINE
  5
E6
330
1F
100
AcDbEntity
  8
layer 1
 62
     7
100
AcDbSpline
210
0.0
220
0.0
230
1.0
 70
    11
 71
     3
 72
    24
 73
    20
 74
     0
 42
0.0000000001
 43
0.0000000001
 12
1.0
 22
0.0
 32
0.0
 13
1.0
 23
0.0
 33
0.0
 40
0.0
 40
0.0
 40
0.0
 40
0.0
 40
0.1666666666666667
 40
0.1666666666666667
 40
0.1666666666666667
 40
0.1666666666666667
 40
0.3333333333333333
 40
0.3333333333333333
 40
0.3333333333333333
 40
0.3333333333333333
 40
0.5
 40
0.5
 40
0.5
 40
0.5
 40
0.6666666666666666
 40
0.6666666666666666
 40
0.6666666666666666
 40
0.6666666666666666
 40
1.0
 40
1.0
 40
1.0
 40
1.0
 10
7.4389
 20
103.7829
 30
0.0
 10
6.5359
 20
101.773
 30
0.0
 10
5.3819
 20
99.8448
 30
0.0
 10
4.6422
 20
98.7764
 30
0.0
 10
4.6422
 20
98.7764
 30
0.0
 10
8.1437
 20
95.0621
 30
0.0
 10
8.855
 20
94.0924
 30
0.0
 10
9.9821
 20
90.2775
 30
0.0
 10
9.9821
 20
90.2775
 30
0.0
 10
11.1093
 20
94.0924
 30
0.0
 10
11.8107
 20
95.0621
 30
0.0
 10
15.3123
 20
98.7764
 30
0.0
 10
15.3123
 20
98.7764
 30
0.0
 10
14.5938
 20
99.8143
 30
0.0
 10
13.4841
 20
101.8426
 30
0.0
 10
12.5935
 20
103.7898
 30
0.0
 10
12.5935
 20
103.7898
 30
0.0
 10
12.5935
 20
103.7898
 30
0.0
 10
7.4389
 20
103.7829
 30
0.0
 10
7.4389
 20
103.7829
 30
0.0
  0
SPLINE
  5
E7
330
1F
100
AcDbEntity
  8
layer 1
 62
     7
100
AcDbSpline
210
0.0
220
0.0
230
1.0
 70
    11
 71
     3
 72
    20
 73
    16
 74
     0
 42
0.0000000001
 43
0.0000000001
 12
1.0
 22
0.0
 32
0.0
 13
1.0
 23
0.0
 33
0.0
 40
0.0
 40
0.0
 40
0.0
 40
0.0
 40
0.2
 40
0.2
 40
0.2
 40
0.2
 40
0.4
 40
0.4
 40
0.4
 40
0.4
 40
0.6
 40
0.6
 40
0.6
 40
0.6
 40
1.0
 40
1.0
 40
1.0
 40
1.0
 10
19.4843
 20
85.2368
 30
0.0
 10
22.8875
 20
86.2185
 30
0.0
 10
23.6751
 20
89.0846
 30
0.0
 10
21.8852
 20
92.2596
 30
0.0
 10
21.8852
 20
92.2596
 30
0.0
 10
26.3924
 20
88.926
 30
0.0
 10
31.9251
 20
87.0139
 30
0.0
 10
39.1476
 20
85.2368
 30
0.0
 10
39.1476
 20
85.2368
 30
0.0
 10
31.9251
 20
83.4598
 30
0.0
 10
26.3924
 20
81.5149
 30
0.0
 10
21.8852
 20
78.1814
 30
0.0
 10
21.8852
 20
78.1814
 30
0.0
 10
23.6751
 20
81.3563
 30
0.0
 10
22.8875
 20
84.2551
 30
0.0
 10
19.4843
 20
85.2368
 30
0.0
  0
SPLINE
  5
E8
330
1F
100
AcDbEntity
  8
layer 1
 62
     7
100
AcDbSpline
210
0.0
220
0.0
230
1.0
 70
    11
 71
     3
 72
    32
 73
    28
 74
     0
 42
0.0000000001
 43
0.0000000001
 12
1.0
 22
0.0
 32
0.0
 13
1.0
 23
0.0
 33
0.0
 40
0.0
 40
0.0
 40
0.0
 40
0.0
 40
0.125
 40
0.125
 40
0.125
 40
0.125
 40
0.25
 40
0.25
 40
0.25
 40
0.25
 40
0.375
 40
0.375
 40
0.375
 40
0.375
 40
0.5
 40
0.5
 40
0.5
 40
0.5
 40
0.625
 40
0.625
 40
0.625
 40
0.625
 40
0.75
 40
0.75
 40
0.75
 40
0.75
 40
1.0
 40
1.0
 40
1.0
 40
1.0
 10
31.0493
 20
97.6154
 30
0.0
 10
29.5338
 20
97.5733
 30
0.0
 10
29.252
 20
95.8858
 30
0.0
 10
30.516
 20
95.1093
 30
0.0
 10
30.516
 20
95.1093
 30
0.0
 10
31.4972
 20
94.5065
 30
0.0
 10
32.9421
 20
94.3901
 30
0.0
 10
33.9054
 20
95.8109
 30
0.0
 10
33.9054
 20
95.8109
 30
0.0
 10
35.6003
 20
98.6518
 30
0.0
 10
34.2413
 20
101.4724
 30
0.0
 10
32.8303
 20
103.6966
 30
0.0
 10
32.8303
 20
103.6966
 30
0.0
 10
32.8303
 20
103.6966
 30
0.0
 10
27.6158
 20
103.7848
 30
0.0
 10
27.6158
 20
103.7848
 30
0.0
 10
27.6158
 20
103.7848
 30
0.0
 10
24.8145
 20
102.4323
 30
0.0
 10
22.5645
 20
100.6396
 30
0.0
 10
20.4246
 20
98.4067
 30
0.0
 10
20.4246
 20
98.4067
 30
0.0
 10
21.9627
 20
96.5526
 30
0.0
 10
26.9811
 20
92.4309
 30
0.0
 10
30.1417
 20
92.2087
 30
0.0
 10
30.1417
 20
92.2087
 30
0.0
 10
25.3069
 20
94.8394
 30
0.0
 10
27.1481
 20
100.8754
 30
0.0
 10
31.0493
 20
97.6154
 30
0.0
  0
SPLINE
  5
E9
330
1F
100
AcDbEntity
  8
layer 1
 62
     7
100
AcDbSpline
210
0.0
220
0.0
230
1.0
 70
    11
 71
     3
 72
    16
 73
    12
 74
     0
 42
0.0000000001
 43
0.0000000001
 12
1.0
 22
0.0
 32
0.0
 13
1.0
 23
0.0
 33
0.0
 40
0.0
 40
0.0
 40
0.0
 40
0.0
 40
0.25
 40
0.25
 40
0.25
 40
0.25
 40
0.5
 40
0.5
 40
0.5
 40
0.5
 40
1.0
 40
1.0
 40
1.0
 40
1.0
 10
55.0484
 20
103.7388
 30
0.0
 10
57.7275
 20
102.7821
 30
0.0
 10
58.4588
 20
99.7448
 30
0.0
 10
58.5074
 20
95.9585
 30
0.0
 10
58.5074
 20
95.9585
 30
0.0
 10
59.9935
 20
98.1371
 30
0.0
 10
60.4476
 20
100.9907
 30
0.0
 10
60.0302
 20
103.7228
 30
0.0
 10
60.0302
 20
103.7228
 30
0.0
 10
60.0302
 20
103.7228
 30
0.0
 10
55.0484
 20
103.7388
 30
0.0
 10
55.0484
 20
103.7388
 30
0.0
  0
SPLINE
  5
EA
330
1F
100
AcDbEntity
  8
layer 1
 62
     7
100
AcDbSpline
210
0.0
220
0.0
230
1.0
 70
    11
 71
     3
 72
    16
 73
    12
 74
     0
 42
0.0000000001
 43
0.0000000001
 12
1.0
 22
0.0
 32
0.0
 13
1.0
 23
0.0
 33
0.0
 40
0.0
 40
0.0
 40
0.0
 40
0.0
 40
0.25
 40
0.25
 40
0.25
 40
0.25
 40
0.5
 40
0.5
 40
0.5
 40
0.5
 40
1.0
 40
1.0
 40
1.0
 40
1.0
 10
66.6874
 20
103.7677
 30
0.0
 10
66.6874
 20
103.7677
 30
0.0
 10
63.4775
 20
103.7363
 30
0.0
 10
63.4775
 20
103.7363
 30
0.0
 10
63.4775
 20
103.7363
 30
0.0
 10
63.7409
 20
101.0847
 30
0.0
 10
63.2853
 20
99.134
 30
0.0
 10
61.797
 20
95.3841
 30
0.0
 10
61.797
 20
95.3841
 30
0.0
 10
65.0353
 20
98.899
 30
0.0
 10
66.2948
 20
100.551
 30
0.0
 10
66.6874
 20
103.7677
 30
0.0
  0
SPLINE
  5
EB
330
1F
100
AcDbEntity
  8
layer 1
 62
     7
100
AcDbSpline
210
0.0
220
0.0
230
1.0
 70
    11
 71
     3
 72
    48
 73
    44
 74
     0
 42
0.0000000001
 43
0.0000000001
 12
1.0
 22
0.0
 32
0.0
 13
1.0
 23
0.0
 33
0.0
 40
0.0
 40
0.0
 40
0.0
 40
0.0
 40
0.0833333333333333
 40
0.0833333333333333
 40
0.0833333333333333
 40
0.0833333333333333
 40
0.1666666666666667
 40
0.1666666666666667
 40
0.1666666666666667
 40
0.1666666666666667
 40
0.25
 40
0.25
 40
0.25
 40
0.25
 40
0.3333333333333333
 40
0.3333333333333333
 40
0.3333333333333333
 40
0.3333333333333333
 40
0.4166666666666667
 40
0.4166666666666667
 40
0.4166666666666667
 40
0.4166666666666667
 40
0.5
 40
0.5
 40
0.5
 40
0.5
 40
0.5833333333333334
 40
0.5833333333333334
 40
0.5833333333333334
 40
0.5833333333333334
 40
0.6666666666666666
 40
0.6666666666666666
 40
0.6666666666666666
 40
0.6666666666666666
 40
0.75
 40
0.75
 40
0.75
 40
0.75
 40
0.8333333333333334
 40
0.8333333333333334
 40
0.8333333333333334
 40
0.8333333333333334
 40
1.0
 40
1.0
 40
1.0
 40
1.0
 10
52.3156
 20
100.5901
 30
0.0
 10
47.5991
 20
100.4265
 30
0.0
 10
47.4415
 20
95.1087
 30
0.0
 10
50.4075
 20
97.7496
 30
0.0
 10
50.4075
 20
97.7496
 30
0.0
 10
50.7054
 20
93.5983
 30
0.0
 10
44.691
 20
95.1881
 30
0.0
 10
45.6067
 20
98.4007
 30
0.0
 10
45.6067
 20
98.4007
 30
0.0
 10
45.9649
 20
99.6577
 30
0.0
 10
46.504
 20
101.8514
 30
0.0
 10
50.6992
 20
103.764
 30
0.0
 10
50.6992
 20
103.764
 30
0.0
 10
50.6992
 20
103.764
 30
0.0
 10
36.15
 20
103.768
 30
0.0
 10
36.15
 20
103.768
 30
0.0
 10
36.15
 20
103.768
 30
0.0
 10
39.1379
 20
99.6325
 30
0.0
 10
38.4231
 20
91.8001
 30
0.0
 10
32.4008
 20
91.6604
 30
0.0
 10
32.4008
 20
91.6604
 30
0.0
 10
35.5612
 20
90.575
 30
0.0
 10
41.2648
 20
91.6717
 30
0.0
 10
42.9132
 20
93.1606
 30
0.0
 10
42.9132
 20
93.1606
 30
0.0
 10
43.2193
 20
92.5179
 30
0.0
 10
42.9557
 20
91.3055
 30
0.0
 10
43.8315
 20
91.2327
 30
0.0
 10
43.8315
 20
91.2327
 30
0.0
 10
44.8757
 20
91.218
 30
0.0
 10
44.8359
 20
92.6529
 30
0.0
 10
46.4353
 20
92.6529
 30
0.0
 10
46.4353
 20
92.6529
 30
0.0
 10
47.5022
 20
92.6529
 30
0.0
 10
47.1945
 20
92.3709
 30
0.0
 10
47.29
 20
91.2561
 30
0.0
 10
47.29
 20
91.2561
 30
0.0
 10
52.4878
 20
92.3702
 30
0.0
 10
50.9256
 20
89.9173
 30
0.0
 10
52.353
 20
90.0491
 30
0.0
 10
52.353
 20
90.0491
 30
0.0
 10
57.3829
 20
91.7067
 30
0.0
 10
57.558
 20
100.4865
 30
0.0
 10
52.3156
 20
100.5901
 30
0.0
  0
SPLINE
  5
EC
330
1F
100
AcDbEntity
  8
layer 1
 62
     7
100
AcDbSpline
210
0.0
220
0.0
230
1.0
 70
    11
 71
     3
 72
    24
 73
    20
 74
     0
 42
0.0000000001
 43
0.0000000001
 12
1.0
 22
0.0
 32
0.0
 13
1.0
 23
0.0
 33
0.0
 40
0.0
 40
0.0
 40
0.0
 40
0.0
 40
0.1666666666666667
 40
0.1666666666666667
 40
0.1666666666666667
 40
0.1666666666666667
 40
0.3333333333333333
 40
0.3333333333333333
 40
0.3333333333333333
 40
0.3333333333333333
 40
0.5
 40
0.5
 40
0.5
 40
0.5
 40
0.6666666666666666
 40
0.6666666666666666
 40
0.6666666666666666
 40
0.6666666666666666
 40
1.0
 40
1.0
 40
1.0
 40
1.0
 10
2.7635
 20
95.8087
 30
0.0
 10
3.9136
 20
95.0386
 30
0.0
 10
5.6365
 20
92.246
 30
0.0
 10
6.2667
 20
90.3691
 30
0.0
 10
6.2667
 20
90.3691
 30
0.0
 10
4.9542
 20
92.1646
 30
0.0
 10
3.0648
 20
91.7487
 30
0.0
 10
2.8514
 20
90.3353
 30
0.0
 10
2.8514
 20
90.3353
 30
0.0
 10
3.7254
 20
90.2625
 30
0.0
 10
4.3731
 20
90.0613
 30
0.0
 10
4.3731
 20
89.1855
 30
0.0
 10
4.3731
 20
89.1855
 30
0.0
 10
4.3731
 20
88.6335
 30
0.0
 10
3.4033
 20
87.9682
 30
0.0
 10
2.8514
 20
87.9682
 30
0.0
 10
2.8514
 20
87.9682
 30
0.0
 10
-1.0122
 20
88.002
 30
0.0
 10
0.5773
 20
94.3448
 30
0.0
 10
2.7635
 20
95.8087
 30
0.0
  0
SPLINE
  5
ED
330
1F
100
AcDbEntity
  8
layer 1
 62
     7
100
AcDbSpline
210
0.0
220
0.0
230
1.0
 70
    11
 71
     3
 72
    32
 73
    28
 74
     0
 42
0.0000000001
 43
0.0000000001
 12
1.0
 22
0.0
 32
0.0
 13
1.0
 23
0.0
 33
0.0
 40
0.0
 40
0.0
 40
0.0
 40
0.0
 40
0.125
 40
0.125
 40
0.125
 40
0.125
 40
0.25
 40
0.25
 40
0.25
 40
0.25
 40
0.375
 40
0.375
 40
0.375
 40
0.375
 40
0.5
 40
0.5
 40
0.5
 40
0.5
 40
0.625
 40
0.625
 40
0.625
 40
0.625
 40
0.75
 40
0.75
 40
0.75
 40
0.75
 40
1.0
 40
1.0
 40
1.0
 40
1.0
 10
-11.1145
 20
97.4365
 30
0.0
 10
-9.5991
 20
97.3944
 30
0.0
 10
-9.3173
 20
95.7069
 30
0.0
 10
-10.5812
 20
94.9303
 30
0.0
 10
-10.5812
 20
94.9303
 30
0.0
 10
-11.5625
 20
94.3275
 30
0.0
 10
-13.0073
 20
94.2111
 30
0.0
 10
-13.9707
 20
95.632
 30
0.0
 10
-13.9707
 20
95.632
 30
0.0
 10
-15.6656
 20
98.4729
 30
0.0
 10
-14.1337
 20
101.5374
 30
0.0
 10
-12.7227
 20
103.7616
 30
0.0
 10
-12.7227
 20
103.7616
 30
0.0
 10
-12.7227
 20
103.7616
 30
0.0
 10
-7.681
 20
103.6954
 30
0.0
 10
-7.681
 20
103.6954
 30
0.0
 10
-7.681
 20
103.6954
 30
0.0
 10
-4.7815
 20
102.6306
 30
0.0
 10
-2.176
 20
100.7955
 30
0.0
 10
-0.085
 20
98.5201
 30
0.0
 10
-0.085
 20
98.5201
 30
0.0
 10
-1.2833
 20
96.2553
 30
0.0
 10
-7.0464
 20
92.2519
 30
0.0
 10
-10.2069
 20
92.0298
 30
0.0
 10
-10.2069
 20
92.0298
 30
0.0
 10
-5.3721
 20
94.6604
 30
0.0
 10
-7.2133
 20
100.6964
 30
0.0
 10
-11.1145
 20
97.4365
 30
0.0
  0
SPLINE
  5
EE
330
1F
100
AcDbEntity
  8
layer 1
 62
     7
100
AcDbSpline
210
0.0
220
0.0
230
1.0
 70
    11
 71
     3
 72
    16
 73
    12
 74
     0
 42
0.0000000001
 43
0.0000000001
 12
1.0
 22
0.0
 32
0.0
 13
1.0
 23
0.0
 33
0.0
 40
0.0
 40
0.0
 40
0.0
 40
0.0
 40
0.25
 40
0.25
 40
0.25
 40
0.25
 40
0.5
 40
0.5
 40
0.5
 40
0.5
 40
1.0
 40
1.0
 40
1.0
 40
1.0
 10
-35.1137
 20
103.7388
 30
0.0
 10
-37.7928
 20
102.7821
 30
0.0
 10
-38.737
 20
99.502
 30
0.0
 10
-38.7856
 20
95.7157
 30
0.0
 10
-38.7856
 20
95.7157
 30
0.0
 10
-40.2717
 20
97.8943
 30
0.0
 10
-40.5129
 20
100.9907
 30
0.0
 10
-40.0954
 20
103.7228
 30
0.0
 10
-40.0954
 20
103.7228
 30
0.0
 10
-40.0954
 20
103.7228
 30
0.0
 10
-35.1137
 20
103.7388
 30
0.0
 10
-35.1137
 20
103.7388
 30
0.0
  0
SPLINE
  5
EF
330
1F
100
AcDbEntity
  8
layer 1
 62
     7
100
AcDbSpline
210
0.0
220
0.0
230
1.0
 70
    11
 71
     3
 72
    16
 73
    12
 74
     0
 42
0.0000000001
 43
0.0000000001
 12
1.0
 22
0.0
 32
0.0
 13
1.0
 23
0.0
 33
0.0
 40
0.0
 40
0.0
 40
0.0
 40
0.0
 40
0.25
 40
0.25
 40
0.25
 40
0.25
 40
0.5
 40
0.5
 40
0.5
 40
0.5
 40
1.0
 40
1.0
 40
1.0
 40
1.0
 10
-46.774
 20
103.7549
 30
0.0
 10
-46.774
 20
103.7549
 30
0.0
 10
-43.4789
 20
103.7639
 30
0.0
 10
-43.4789
 20
103.7639
 30
0.0
 10
-43.4789
 20
103.7639
 30
0.0
 10
-43.7423
 20
101.1123
 30
0.0
 10
-43.3505
 20
98.9551
 30
0.0
 10
-41.8623
 20
95.2052
 30
0.0
 10
-41.8623
 20
95.2052
 30
0.0
 10
-45.1005
 20
98.7201
 30
0.0
 10
-46.3813
 20
100.5382
 30
0.0
 10
-46.774
 20
103.7549
 30
0.0
  0
SPLINE
  5
F0
330
1F
100
AcDbEntity
  8
layer 1
 62
     7
100
AcDbSpline
210
0.0
220
0.0
230
1.0
 70
    11
 71
     3
 72
    48
 73
    44
 74
     0
 42
0.0000000001
 43
0.0000000001
 12
1.0
 22
0.0
 32
0.0
 13
1.0
 23
0.0
 33
0.0
 40
0.0
 40
0.0
 40
0.0
 40
0.0
 40
0.0833333333333333
 40
0.0833333333333333
 40
0.0833333333333333
 40
0.0833333333333333
 40
0.1666666666666667
 40
0.1666666666666667
 40
0.1666666666666667
 40
0.1666666666666667
 40
0.25
 40
0.25
 40
0.25
 40
0.25
 40
0.3333333333333333
 40
0.3333333333333333
 40
0.3333333333333333
 40
0.3333333333333333
 40
0.4166666666666667
 40
0.4166666666666667
 40
0.4166666666666667
 40
0.4166666666666667
 40
0.5
 40
0.5
 40
0.5
 40
0.5
 40
0.5833333333333334
 40
0.5833333333333334
 40
0.5833333333333334
 40
0.5833333333333334
 40
0.6666666666666666
 40
0.6666666666666666
 40
0.6666666666666666
 40
0.6666666666666666
 40
0.75
 40
0.75
 40
0.75
 40
0.75
 40
0.8333333333333334
 40
0.8333333333333334
 40
0.8333333333333334
 40
0.8333333333333334
 40
1.0
 40
1.0
 40
1.0
 40
1.0
 10
-32.3809
 20
100.4112
 30
0.0
 10
-27.6643
 20
100.2476
 30
0.0
 10
-27.5068
 20
94.9298
 30
0.0
 10
-30.4728
 20
97.5707
 30
0.0
 10
-30.4728
 20
97.5707
 30
0.0
 10
-30.7706
 20
93.4194
 30
0.0
 10
-24.7564
 20
95.0092
 30
0.0
 10
-25.6719
 20
98.2217
 30
0.0
 10
-25.6719
 20
98.2217
 30
0.0
 10
-26.0301
 20
99.4786
 30
0.0
 10
-26.5693
 20
101.8514
 30
0.0
 10
-30.7644
 20
103.764
 30
0.0
 10
-30.7644
 20
103.764
 30
0.0
 10
-30.7644
 20
103.764
 30
0.0
 10
-16.0671
 20
103.7465
 30
0.0
 10
-16.0671
 20
103.7465
 30
0.0
 10
-16.0671
 20
103.7465
 30
0.0
 10
-19.0549
 20
99.611
 30
0.0
 10
-18.4884
 20
91.6211
 30
0.0
 10
-12.4661
 20
91.4815
 30
0.0
 10
-12.4661
 20
91.4815
 30
0.0
 10
-15.6264
 20
90.3961
 30
0.0
 10
-21.33
 20
91.4927
 30
0.0
 10
-22.9784
 20
92.9817
 30
0.0
 10
-22.9784
 20
92.9817
 30
0.0
 10
-23.2846
 20
92.339
 30
0.0
 10
-23.0209
 20
91.1266
 30
0.0
 10
-23.8968
 20
91.0537
 30
0.0
 10
-23.8968
 20
91.0537
 30
0.0
 10
-24.9409
 20
91.0391
 30
0.0
 10
-24.9011
 20
92.474
 30
0.0
 10
-26.5006
 20
92.474
 30
0.0
 10
-26.5006
 20
92.474
 30
0.0
 10
-27.5674
 20
92.474
 30
0.0
 10
-27.2597
 20
92.192
 30
0.0
 10
-27.3552
 20
91.0772
 30
0.0
 10
-27.3552
 20
91.0772
 30
0.0
 10
-32.553
 20
92.1913
 30
0.0
 10
-30.9909
 20
89.7383
 30
0.0
 10
-32.4183
 20
89.8702
 30
0.0
 10
-32.4183
 20
89.8702
 30
0.0
 10
-37.4482
 20
91.5278
 30
0.0
 10
-37.6232
 20
100.3076
 30
0.0
 10
-32.3809
 20
100.4112
 30
0.0
  0
SPLINE
  5
F1
330
1F
100
AcDbEntity
  8
layer 1
 62
     7
100
AcDbSpline
210
0.0
220
0.0
230
1.0
 70
    11
 71
     3
 72
    16
 73
    12
 74
     0
 42
0.0000000001
 43
0.0000000001
 12
1.0
 22
0.0
 32
0.0
 13
1.0
 23
0.0
 33
0.0
 40
0.0
 40
0.0
 40
0.0
 40
0.0
 40
0.25
 40
0.25
 40
0.25
 40
0.25
 40
0.5
 40
0.5
 40
0.5
 40
0.5
 40
1.0
 40
1.0
 40
1.0
 40
1.0
 10
-51.5916
 20
103.6778
 30
0.0
 10
-49.0687
 20
97.3907
 30
0.0
 10
-48.2026
 20
96.0299
 30
0.0
 10
-45.3345
 20
92.8097
 30
0.0
 10
-45.3345
 20
92.8097
 30
0.0
 10
-47.6552
 20
91.4667
 30
0.0
 10
-49.766
 20
89.9004
 30
0.0
 10
-51.5916
 20
88.0128
 30
0.0
 10
-51.5916
 20
88.0128
 30
0.0
 10
-51.5916
 20
88.0128
 30
0.0
 10
-51.5916
 20
103.6778
 30
0.0
 10
-51.5916
 20
103.6778
 30
0.0
  0
SPLINE
  5
F2
330
1F
100
AcDbEntity
  8
layer 1
 62
     7
100
AcDbSpline
210
0.0
220
0.0
230
1.0
 70
    11
 71
     3
 72
    16
 73
    12
 74
     0
 42
0.0000000001
 43
0.0000000001
 12
1.0
 22
0.0
 32
0.0
 13
1.0
 23
0.0
 33
0.0
 40
0.0
 40
0.0
 40
0.0
 40
0.0
 40
0.25
 40
0.25
 40
0.25
 40
0.25
 40
0.5
 40
0.5
 40
0.5
 40
0.5
 40
1.0
 40
1.0
 40
1.0
 40
1.0
 10
-51.5068
 20
66.5799
 30
0.0
 10
-48.9839
 20
72.867
 30
0.0
 10
-48.1178
 20
74.2278
 30
0.0
 10
-45.2497
 20
77.4481
 30
0.0
 10
-45.2497
 20
77.4481
 30
0.0
 10
-47.707
 20
79.0639
 30
0.0
 10
-48.9752
 20
79.9254
 30
0.0
 10
-51.5068
 20
82.2449
 30
0.0
 10
-51.5068
 20
82.2449
 30
0.0
 10
-51.5068
 20
82.2449
 30
0.0
 10
-51.5068
 20
66.5799
 30
0.0
 10
-51.5068
 20
66.5799
 30
0.0
  0
SPLINE
  5
F3
330
1F
100
AcDbEntity
  8
layer 1
 62
     7
100
AcDbSpline
210
0.0
220
0.0
230
1.0
 70
    11
 71
     3
 72
    20
 73
    16
 74
     0
 42
0.0000000001
 43
0.0000000001
 12
1.0
 22
0.0
 32
0.0
 13
1.0
 23
0.0
 33
0.0
 40
0.0
 40
0.0
 40
0.0
 40
0.0
 40
0.2
 40
0.2
 40
0.2
 40
0.2
 40
0.4
 40
0.4
 40
0.4
 40
0.4
 40
0.6
 40
0.6
 40
0.6
 40
0.6
 40
1.0
 40
1.0
 40
1.0
 40
1.0
 10
-47.3069
 20
85.1115
 30
0.0
 10
-45.4264
 20
83.4696
 30
0.0
 10
-44.4056
 20
82.2051
 30
0.0
 10
-42.6587
 20
79.6313
 30
0.0
 10
-42.6587
 20
79.6313
 30
0.0
 10
-39.6112
 20
81.4583
 30
0.0
 10
-36.4341
 20
82.9233
 30
0.0
 10
-27.8202
 20
85.1456
 30
0.0
 10
-27.8202
 20
85.1456
 30
0.0
 10
-36.4341
 20
87.3679
 30
0.0
 10
-39.696
 20
88.7994
 30
0.0
 10
-42.7435
 20
90.6265
 30
0.0
 10
-42.7435
 20
90.6265
 30
0.0
 10
-44.6336
 20
87.9352
 30
0.0
 10
-45.661
 20
87.0947
 30
0.0
 10
-47.3069
 20
85.1115
 30
0.0
  0
SPLINE
  5
F4
330
1F
100
AcDbEntity
  8
layer 1
 62
     7
100
AcDbSpline
210
0.0
220
0.0
230
1.0
 70
    11
 71
     3
 72
    16
 73
    12
 74
     0
 42
0.0000000001
 43
0.0000000001
 12
1.0
 22
0.0
 32
0.0
 13
1.0
 23
0.0
 33
0.0
 40
0.0
 40
0.0
 40
0.0
 40
0.0
 40
0.25
 40
0.25
 40
0.25
 40
0.25
 40
0.5
 40
0.5
 40
0.5
 40
0.5
 40
1.0
 40
1.0
 40
1.0
 40
1.0
 10
71.5768
 20
103.6778
 30
0.0
 10
69.0539
 20
97.3907
 30
0.0
 10
68.1877
 20
96.0299
 30
0.0
 10
65.3196
 20
92.8097
 30
0.0
 10
65.3196
 20
92.8097
 30
0.0
 10
67.6403
 20
91.4667
 30
0.0
 10
69.7511
 20
89.9004
 30
0.0
 10
71.5768
 20
88.0128
 30
0.0
 10
71.5768
 20
88.0128
 30
0.0
 10
71.5768
 20
88.0128
 30
0.0
 10
71.5768
 20
103.6778
 30
0.0
 10
71.5768
 20
103.6778
 30
0.0
  0
SPLINE
  5
F5
330
1F
100
AcDbEntity
  8
layer 1
 62
     7
100
AcDbSpline
210
0.0
220
0.0
230
1.0
 70
    11
 71
     3
 72
    16
 73
    12
 74
     0
 42
0.0000000001
 43
0.0000000001
 12
1.0
 22
0.0
 32
0.0
 13
1.0
 23
0.0
 33
0.0
 40
0.0
 40
0.0
 40
0.0
 40
0.0
 40
0.25
 40
0.25
 40
0.25
 40
0.25
 40
0.5
 40
0.5
 40
0.5
 40
0.5
 40
1.0
 40
1.0
 40
1.0
 40
1.0
 10
71.4919
 20
66.5799
 30
0.0
 10
68.969
 20
72.867
 30
0.0
 10
68.1029
 20
74.2278
 30
0.0
 10
65.2348
 20
77.4481
 30
0.0
 10
65.2348
 20
77.4481
 30
0.0
 10
67.6921
 20
79.0639
 30
0.0
 10
68.9604
 20
79.9254
 30
0.0
 10
71.4919
 20
82.2449
 30
0.0
 10
71.4919
 20
82.2449
 30
0.0
 10
71.4919
 20
82.2449
 30
0.0
 10
71.4919
 20
66.5799
 30
0.0
 10
71.4919
 20
66.5799
 30
0.0
  0
SPLINE
  5
F6
330
1F
100
AcDbEntity
  8
layer 1
 62
     7
100
AcDbSpline
210
0.0
220
0.0
230
1.0
 70
    11
 71
     3
 72
    20
 73
    16
 74
     0
 42
0.0000000001
 43
0.0000000001
 12
1.0
 22
0.0
 32
0.0
 13
1.0
 23
0.0
 33
0.0
 40
0.0
 40
0.0
 40
0.0
 40
0.0
 40
0.2
 40
0.2
 40
0.2
 40
0.2
 40
0.4
 40
0.4
 40
0.4
 40
0.4
 40
0.6
 40
0.6
 40
0.6
 40
0.6
 40
1.0
 40
1.0
 40
1.0
 40
1.0
 10
67.292
 20
85.1115
 30
0.0
 10
65.4116
 20
83.4696
 30
0.0
 10
64.3908
 20
82.2051
 30
0.0
 10
62.6438
 20
79.6313
 30
0.0
 10
62.6438
 20
79.6313
 30
0.0
 10
59.5964
 20
81.4583
 30
0.0
 10
56.4192
 20
82.9233
 30
0.0
 10
47.8053
 20
85.1456
 30
0.0
 10
47.8053
 20
85.1456
 30
0.0
 10
56.4192
 20
87.3679
 30
0.0
 10
59.6812
 20
88.7994
 30
0.0
 10
62.7286
 20
90.6265
 30
0.0
 10
62.7286
 20
90.6265
 30
0.0
 10
64.6187
 20
87.9352
 30
0.0
 10
65.6461
 20
87.0947
 30
0.0
 10
67.292
 20
85.1115
 30
0.0
  0
SPLINE
  5
F7
330
1F
100
AcDbEntity
  8
layer 1
 62
     7
100
AcDbSpline
210
0.0
220
0.0
230
1.0
 70
    11
 71
     3
 72
    20
 73
    16
 74
     0
 42
0.0000000001
 43
0.0000000001
 12
1.0
 22
0.0
 32
0.0
 13
1.0
 23
0.0
 33
0.0
 40
0.0
 40
0.0
 40
0.0
 40
0.0
 40
0.2
 40
0.2
 40
0.2
 40
0.2
 40
0.4
 40
0.4
 40
0.4
 40
0.4
 40
0.6
 40
0.6
 40
0.6
 40
0.6
 40
1.0
 40
1.0
 40
1.0
 40
1.0
 10
9.0035
 20
85.2041
 30
0.0
 10
8.6012
 20
84.1575
 30
0.0
 10
8.1474
 20
83.1894
 30
0.0
 10
7.2559
 20
81.81
 30
0.0
 10
7.2559
 20
81.81
 30
0.0
 10
6.7629
 20
84.0272
 30
0.0
 10
5.3139
 20
85.2041
 30
0.0
 10
4.5397
 20
85.2041
 30
0.0
 10
4.5397
 20
85.2041
 30
0.0
 10
5.3139
 20
85.2041
 30
0.0
 10
6.7629
 20
86.3403
 30
0.0
 10
7.2559
 20
88.5575
 30
0.0
 10
7.2559
 20
88.5575
 30
0.0
 10
8.1044
 20
87.1455
 30
0.0
 10
8.5483
 20
86.364
 30
0.0
 10
9.0035
 20
85.2041
 30
0.0
  0
SPLINE
  5
F8
330
1F
100
AcDbEntity
  8
layer 1
 62
     7
100
AcDbSpline
210
0.0
220
0.0
230
1.0
 70
    11
 71
     3
 72
    24
 73
    20
 74
     0
 42
0.0000000001
 43
0.0000000001
 12
1.0
 22
0.0
 32
0.0
 13
1.0
 23
0.0
 33
0.0
 40
0.0
 40
0.0
 40
0.0
 40
0.0
 40
0.1666666666666667
 40
0.1666666666666667
 40
0.1666666666666667
 40
0.1666666666666667
 40
0.3333333333333333
 40
0.3333333333333333
 40
0.3333333333333333
 40
0.3333333333333333
 40
0.5
 40
0.5
 40
0.5
 40
0.5
 40
0.6666666666666666
 40
0.6666666666666666
 40
0.6666666666666666
 40
0.6666666666666666
 40
1.0
 40
1.0
 40
1.0
 40
1.0
 10
17.2246
 20
74.381
 30
0.0
 10
15.8903
 20
75.8965
 30
0.0
 10
14.4598
 20
77.7856
 30
0.0
 10
13.744
 20
79.8387
 30
0.0
 10
13.744
 20
79.8387
 30
0.0
 10
15.0565
 20
78.0432
 30
0.0
 10
16.9459
 20
78.4591
 30
0.0
 10
17.1594
 20
79.8725
 30
0.0
 10
17.1594
 20
79.8725
 30
0.0
 10
16.2853
 20
79.9453
 30
0.0
 10
15.6377
 20
80.1465
 30
0.0
 10
15.6377
 20
81.0223
 30
0.0
 10
15.6377
 20
81.0223
 30
0.0
 10
15.6377
 20
81.5743
 30
0.0
 10
16.6074
 20
82.2396
 30
0.0
 10
17.1594
 20
82.2396
 30
0.0
 10
17.1594
 20
82.2396
 30
0.0
 10
21.0229
 20
82.2058
 30
0.0
 10
19.4108
 20
75.8449
 30
0.0
 10
17.2246
 20
74.381
 30
0.0
  0
SPLINE
  5
F9
330
1F
100
AcDbEntity
  8
layer 1
 62
     7
100
AcDbSpline
210
0.0
220
0.0
230
1.0
 70
    11
 71
     3
 72
    24
 73
    20
 74
     0
 42
0.0000000001
 43
0.0000000001
 12
1.0
 22
0.0
 32
0.0
 13
1.0
 23
0.0
 33
0.0
 40
0.0
 40
0.0
 40
0.0
 40
0.0
 40
0.1666666666666667
 40
0.1666666666666667
 40
0.1666666666666667
 40
0.1666666666666667
 40
0.3333333333333333
 40
0.3333333333333333
 40
0.3333333333333333
 40
0.3333333333333333
 40
0.5
 40
0.5
 40
0.5
 40
0.5
 40
0.6666666666666666
 40
0.6666666666666666
 40
0.6666666666666666
 40
0.6666666666666666
 40
1.0
 40
1.0
 40
1.0
 40
1.0
 10
17.2669
 20
95.7545
 30
0.0
 10
16.1168
 20
94.9844
 30
0.0
 10
14.3939
 20
92.1917
 30
0.0
 10
13.7637
 20
90.3149
 30
0.0
 10
13.7637
 20
90.3149
 30
0.0
 10
15.0762
 20
92.1104
 30
0.0
 10
16.9656
 20
91.6945
 30
0.0
 10
17.179
 20
90.281
 30
0.0
 10
17.179
 20
90.281
 30
0.0
 10
16.305
 20
90.2083
 30
0.0
 10
15.6573
 20
90.0071
 30
0.0
 10
15.6573
 20
89.1313
 30
0.0
 10
15.6573
 20
89.1313
 30
0.0
 10
15.6573
 20
88.5793
 30
0.0
 10
16.6271
 20
87.914
 30
0.0
 10
17.179
 20
87.914
 30
0.0
 10
17.179
 20
87.914
 30
0.0
 10
21.0426
 20
87.9478
 30
0.0
 10
19.4531
 20
94.2906
 30
0.0
 10
17.2669
 20
95.7545
 30
0.0
  0
SPLINE
  5
FA
330
1F
100
AcDbEntity
  8
layer 1
 62
     7
100
AcDbSpline
210
0.0
220
0.0
230
1.0
 70
    11
 71
     3
 72
    20
 73
    16
 74
     0
 42
0.0000000001
 43
0.0000000001
 12
1.0
 22
0.0
 32
0.0
 13
1.0
 23
0.0
 33
0.0
 40
0.0
 40
0.0
 40
0.0
 40
0.0
 40
0.2
 40
0.2
 40
0.2
 40
0.2
 40
0.4
 40
0.4
 40
0.4
 40
0.4
 40
0.6
 40
0.6
 40
0.6
 40
0.6
 40
1.0
 40
1.0
 40
1.0
 40
1.0
 10
11.0269
 20
85.1499
 30
0.0
 10
11.4292
 20
84.1032
 30
0.0
 10
11.883
 20
83.1351
 30
0.0
 10
12.7745
 20
81.7558
 30
0.0
 10
12.7745
 20
81.7558
 30
0.0
 10
13.2675
 20
83.973
 30
0.0
 10
14.7165
 20
85.1499
 30
0.0
 10
15.4907
 20
85.1499
 30
0.0
 10
15.4907
 20
85.1499
 30
0.0
 10
14.7165
 20
85.1499
 30
0.0
 10
13.2675
 20
86.2861
 30
0.0
 10
12.7745
 20
88.5033
 30
0.0
 10
12.7745
 20
88.5033
 30
0.0
 10
11.926
 20
87.0913
 30
0.0
 10
11.4821
 20
86.3098
 30
0.0
 10
11.0269
 20
85.1499
 30
0.0
  0
SPLINE
  5
FB
330
1F
100
AcDbEntity
  8
layer 1
 62
     7
100
AcDbSpline
210
0.0
220
0.0
230
1.0
 70
    11
 71
     3
 72
    20
 73
    16
 74
     0
 42
0.0000000001
 43
0.0000000001
 12
1.0
 22
0.0
 32
0.0
 13
1.0
 23
0.0
 33
0.0
 40
0.0
 40
0.0
 40
0.0
 40
0.0
 40
0.2
 40
0.2
 40
0.2
 40
0.2
 40
0.4
 40
0.4
 40
0.4
 40
0.4
 40
0.6
 40
0.6
 40
0.6
 40
0.6
 40
1.0
 40
1.0
 40
1.0
 40
1.0
 10
0.4995
 20
85.2368
 30
0.0
 10
-2.9037
 20
86.2185
 30
0.0
 10
-3.6913
 20
89.0846
 30
0.0
 10
-1.9014
 20
92.2596
 30
0.0
 10
-1.9014
 20
92.2596
 30
0.0
 10
-6.4086
 20
88.926
 30
0.0
 10
-11.9413
 20
87.0139
 30
0.0
 10
-19.1638
 20
85.2368
 30
0.0
 10
-19.1638
 20
85.2368
 30
0.0
 10
-11.8921
 20
83.5254
 30
0.0
 10
-6.4086
 20
81.5149
 30
0.0
 10
-1.9014
 20
78.1814
 30
0.0
 10
-1.9014
 20
78.1814
 30
0.0
 10
-3.6913
 20
81.3563
 30
0.0
 10
-2.9037
 20
84.2551
 30
0.0
 10
0.4995
 20
85.2368
 30
0.0
  0
SPLINE
  5
FC
330
1F
100
AcDbEntity
  8
layer 1
 62
     7
100
AcDbSpline
210
0.0
220
0.0
230
1.0
 70
    11
 71
     3
 72
    24
 73
    20
 74
     0
 42
0.0000000001
 43
0.0000000001
 12
1.0
 22
0.0
 32
0.0
 13
1.0
 23
0.0
 33
0.0
 40
0.0
 40
0.0
 40
0.0
 40
0.0
 40
0.1666666666666667
 40
0.1666666666666667
 40
0.1666666666666667
 40
0.1666666666666667
 40
0.3333333333333333
 40
0.3333333333333333
 40
0.3333333333333333
 40
0.3333333333333333
 40
0.5
 40
0.5
 40
0.5
 40
0.5
 40
0.6666666666666666
 40
0.6666666666666666
 40
0.6666666666666666
 40
0.6666666666666666
 40
1.0
 40
1.0
 40
1.0
 40
1.0
 10
2.8058
 20
-56.5256
 30
0.0
 10
4.1401
 20
-58.041
 30
0.0
 10
5.5706
 20
-59.9302
 30
0.0
 10
6.2864
 20
-61.9833
 30
0.0
 10
6.2864
 20
-61.9833
 30
0.0
 10
4.9739
 20
-60.1877
 30
0.0
 10
3.0845
 20
-60.6037
 30
0.0
 10
2.871
 20
-62.0171
 30
0.0
 10
2.871
 20
-62.0171
 30
0.0
 10
3.7451
 20
-62.0899
 30
0.0
 10
4.3928
 20
-62.2911
 30
0.0
 10
4.3928
 20
-63.1668
 30
0.0
 10
4.3928
 20
-63.1668
 30
0.0
 10
4.3928
 20
-63.7188
 30
0.0
 10
3.423
 20
-64.3842
 30
0.0
 10
2.871
 20
-64.3842
 30
0.0
 10
2.871
 20
-64.3842
 30
0.0
 10
-0.9925
 20
-64.3504
 30
0.0
 10
0.6196
 20
-57.9895
 30
0.0
 10
2.8058
 20
-56.5256
 30
0.0
  0
SPLINE
  5
FD
330
1F
100
AcDbEntity
  8
layer 1
 62
     7
100
AcDbSpline
210
0.0
220
0.0
230
1.0
 70
    11
 71
     3
 72
    24
 73
    20
 74
     0
 42
0.0000000001
 43
0.0000000001
 12
1.0
 22
0.0
 32
0.0
 13
1.0
 23
0.0
 33
0.0
 40
0.0
 40
0.0
 40
0.0
 40
0.0
 40
0.1666666666666667
 40
0.1666666666666667
 40
0.1666666666666667
 40
0.1666666666666667
 40
0.3333333333333333
 40
0.3333333333333333
 40
0.3333333333333333
 40
0.3333333333333333
 40
0.5
 40
0.5
 40
0.5
 40
0.5
 40
0.6666666666666666
 40
0.6666666666666666
 40
0.6666666666666666
 40
0.6666666666666666
 40
1.0
 40
1.0
 40
1.0
 40
1.0
 10
7.4389
 20
-85.8732
 30
0.0
 10
6.5359
 20
-83.8634
 30
0.0
 10
5.3819
 20
-81.9352
 30
0.0
 10
4.6422
 20
-80.8668
 30
0.0
 10
4.6422
 20
-80.8668
 30
0.0
 10
8.1437
 20
-77.1525
 30
0.0
 10
8.855
 20
-76.1828
 30
0.0
 10
9.9821
 20
-72.3678
 30
0.0
 10
9.9821
 20
-72.3678
 30
0.0
 10
11.1093
 20
-76.1828
 30
0.0
 10
11.8107
 20
-77.1525
 30
0.0
 10
15.3123
 20
-80.8668
 30
0.0
 10
15.3123
 20
-80.8668
 30
0.0
 10
14.5938
 20
-81.9047
 30
0.0
 10
13.4841
 20
-83.9329
 30
0.0
 10
12.5935
 20
-85.8801
 30
0.0
 10
12.5935
 20
-85.8801
 30
0.0
 10
12.5935
 20
-85.8801
 30
0.0
 10
7.4389
 20
-85.8732
 30
0.0
 10
7.4389
 20
-85.8732
 30
0.0
  0
SPLINE
  5
FE
330
1F
100
AcDbEntity
  8
layer 1
 62
     7
100
AcDbSpline
210
0.0
220
0.0
230
1.0
 70
    11
 71
     3
 72
    20
 73
    16
 74
     0
 42
0.0000000001
 43
0.0000000001
 12
1.0
 22
0.0
 32
0.0
 13
1.0
 23
0.0
 33
0.0
 40
0.0
 40
0.0
 40
0.0
 40
0.0
 40
0.2
 40
0.2
 40
0.2
 40
0.2
 40
0.4
 40
0.4
 40
0.4
 40
0.4
 40
0.6
 40
0.6
 40
0.6
 40
0.6
 40
1.0
 40
1.0
 40
1.0
 40
1.0
 10
19.4843
 20
-67.3272
 30
0.0
 10
22.8875
 20
-68.3089
 30
0.0
 10
23.6751
 20
-71.175
 30
0.0
 10
21.8852
 20
-74.3499
 30
0.0
 10
21.8852
 20
-74.3499
 30
0.0
 10
26.3924
 20
-71.0164
 30
0.0
 10
31.9251
 20
-69.1042
 30
0.0
 10
39.1476
 20
-67.3272
 30
0.0
 10
39.1476
 20
-67.3272
 30
0.0
 10
31.9251
 20
-65.5502
 30
0.0
 10
26.3924
 20
-63.6053
 30
0.0
 10
21.8852
 20
-60.2718
 30
0.0
 10
21.8852
 20
-60.2718
 30
0.0
 10
23.6751
 20
-63.4467
 30
0.0
 10
22.8875
 20
-66.3455
 30
0.0
 10
19.4843
 20
-67.3272
 30
0.0
  0
SPLINE
  5
FF
330
1F
100
AcDbEntity
  8
layer 1
 62
     7
100
AcDbSpline
210
0.0
220
0.0
230
1.0
 70
    11
 71
     3
 72
    32
 73
    28
 74
     0
 42
0.0000000001
 43
0.0000000001
 12
1.0
 22
0.0
 32
0.0
 13
1.0
 23
0.0
 33
0.0
 40
0.0
 40
0.0
 40
0.0
 40
0.0
 40
0.125
 40
0.125
 40
0.125
 40
0.125
 40
0.25
 40
0.25
 40
0.25
 40
0.25
 40
0.375
 40
0.375
 40
0.375
 40
0.375
 40
0.5
 40
0.5
 40
0.5
 40
0.5
 40
0.625
 40
0.625
 40
0.625
 40
0.625
 40
0.75
 40
0.75
 40
0.75
 40
0.75
 40
1.0
 40
1.0
 40
1.0
 40
1.0
 10
31.0493
 20
-79.7058
 30
0.0
 10
29.5338
 20
-79.6637
 30
0.0
 10
29.252
 20
-77.9762
 30
0.0
 10
30.516
 20
-77.1996
 30
0.0
 10
30.516
 20
-77.1996
 30
0.0
 10
31.4972
 20
-76.5968
 30
0.0
 10
32.9421
 20
-76.4804
 30
0.0
 10
33.9054
 20
-77.9013
 30
0.0
 10
33.9054
 20
-77.9013
 30
0.0
 10
35.6003
 20
-80.7422
 30
0.0
 10
34.2413
 20
-83.5628
 30
0.0
 10
32.8303
 20
-85.787
 30
0.0
 10
32.8303
 20
-85.787
 30
0.0
 10
32.8303
 20
-85.787
 30
0.0
 10
27.6158
 20
-85.8752
 30
0.0
 10
27.6158
 20
-85.8752
 30
0.0
 10
27.6158
 20
-85.8752
 30
0.0
 10
24.8145
 20
-84.5227
 30
0.0
 10
22.5645
 20
-82.73
 30
0.0
 10
20.4246
 20
-80.497
 30
0.0
 10
20.4246
 20
-80.497
 30
0.0
 10
21.9627
 20
-78.643
 30
0.0
 10
26.9811
 20
-74.5212
 30
0.0
 10
30.1417
 20
-74.2991
 30
0.0
 10
30.1417
 20
-74.2991
 30
0.0
 10
25.3069
 20
-76.9297
 30
0.0
 10
27.1481
 20
-82.9657
 30
0.0
 10
31.0493
 20
-79.7058
 30
0.0
  0
SPLINE
  5
100
330
1F
100
AcDbEntity
  8
layer 1
 62
     7
100
AcDbSpline
210
0.0
220
0.0
230
1.0
 70
    11
 71
     3
 72
    16
 73
    12
 74
     0
 42
0.0000000001
 43
0.0000000001
 12
1.0
 22
0.0
 32
0.0
 13
1.0
 23
0.0
 33
0.0
 40
0.0
 40
0.0
 40
0.0
 40
0.0
 40
0.25
 40
0.25
 40
0.25
 40
0.25
 40
0.5
 40
0.5
 40
0.5
 40
0.5
 40
1.0
 40
1.0
 40
1.0
 40
1.0
 10
55.0484
 20
-85.8291
 30
0.0
 10
57.7275
 20
-84.8725
 30
0.0
 10
58.4588
 20
-81.8352
 30
0.0
 10
58.5074
 20
-78.0488
 30
0.0
 10
58.5074
 20
-78.0488
 30
0.0
 10
59.9935
 20
-80.2275
 30
0.0
 10
60.4476
 20
-83.081
 30
0.0
 10
60.0302
 20
-85.8132
 30
0.0
 10
60.0302
 20
-85.8132
 30
0.0
 10
60.0302
 20
-85.8132
 30
0.0
 10
55.0484
 20
-85.8291
 30
0.0
 10
55.0484
 20
-85.8291
 30
0.0
  0
SPLINE
  5
101
330
1F
100
AcDbEntity
  8
layer 1
 62
     7
100
AcDbSpline
210
0.0
220
0.0
230
1.0
 70
    11
 71
     3
 72
    16
 73
    12
 74
     0
 42
0.0000000001
 43
0.0000000001
 12
1.0
 22
0.0
 32
0.0
 13
1.0
 23
0.0
 33
0.0
 40
0.0
 40
0.0
 40
0.0
 40
0.0
 40
0.25
 40
0.25
 40
0.25
 40
0.25
 40
0.5
 40
0.5
 40
0.5
 40
0.5
 40
1.0
 40
1.0
 40
1.0
 40
1.0
 10
66.6874
 20
-85.8581
 30
0.0
 10
66.6874
 20
-85.8581
 30
0.0
 10
63.4775
 20
-85.8267
 30
0.0
 10
63.4775
 20
-85.8267
 30
0.0
 10
63.4775
 20
-85.8267
 30
0.0
 10
63.7409
 20
-83.1751
 30
0.0
 10
63.2853
 20
-81.2244
 30
0.0
 10
61.797
 20
-77.4745
 30
0.0
 10
61.797
 20
-77.4745
 30
0.0
 10
65.0353
 20
-80.9894
 30
0.0
 10
66.2948
 20
-82.6414
 30
0.0
 10
66.6874
 20
-85.8581
 30
0.0
  0
SPLINE
  5
102
330
1F
100
AcDbEntity
  8
layer 1
 62
     7
100
AcDbSpline
210
0.0
220
0.0
230
1.0
 70
    11
 71
     3
 72
    48
 73
    44
 74
     0
 42
0.0000000001
 43
0.0000000001
 12
1.0
 22
0.0
 32
0.0
 13
1.0
 23
0.0
 33
0.0
 40
0.0
 40
0.0
 40
0.0
 40
0.0
 40
0.0833333333333333
 40
0.0833333333333333
 40
0.0833333333333333
 40
0.0833333333333333
 40
0.1666666666666667
 40
0.1666666666666667
 40
0.1666666666666667
 40
0.1666666666666667
 40
0.25
 40
0.25
 40
0.25
 40
0.25
 40
0.3333333333333333
 40
0.3333333333333333
 40
0.3333333333333333
 40
0.3333333333333333
 40
0.4166666666666667
 40
0.4166666666666667
 40
0.4166666666666667
 40
0.4166666666666667
 40
0.5
 40
0.5
 40
0.5
 40
0.5
 40
0.5833333333333334
 40
0.5833333333333334
 40
0.5833333333333334
 40
0.5833333333333334
 40
0.6666666666666666
 40
0.6666666666666666
 40
0.6666666666666666
 40
0.6666666666666666
 40
0.75
 40
0.75
 40
0.75
 40
0.75
 40
0.8333333333333334
 40
0.8333333333333334
 40
0.8333333333333334
 40
0.8333333333333334
 40
1.0
 40
1.0
 40
1.0
 40
1.0
 10
52.3156
 20
-82.6805
 30
0.0
 10
47.5991
 20
-82.5169
 30
0.0
 10
47.4415
 20
-77.1991
 30
0.0
 10
50.4075
 20
-79.84
 30
0.0
 10
50.4075
 20
-79.84
 30
0.0
 10
50.7054
 20
-75.6887
 30
0.0
 10
44.691
 20
-77.2784
 30
0.0
 10
45.6067
 20
-80.491
 30
0.0
 10
45.6067
 20
-80.491
 30
0.0
 10
45.9649
 20
-81.7481
 30
0.0
 10
46.504
 20
-83.9418
 30
0.0
 10
50.6992
 20
-85.8543
 30
0.0
 10
50.6992
 20
-85.8543
 30
0.0
 10
50.6992
 20
-85.8543
 30
0.0
 10
36.15
 20
-85.8584
 30
0.0
 10
36.15
 20
-85.8584
 30
0.0
 10
36.15
 20
-85.8584
 30
0.0
 10
39.1379
 20
-81.7229
 30
0.0
 10
38.4231
 20
-73.8904
 30
0.0
 10
32.4008
 20
-73.7508
 30
0.0
 10
32.4008
 20
-73.7508
 30
0.0
 10
35.5612
 20
-72.6654
 30
0.0
 10
41.2648
 20
-73.762
 30
0.0
 10
42.9132
 20
-75.251
 30
0.0
 10
42.9132
 20
-75.251
 30
0.0
 10
43.2193
 20
-74.6083
 30
0.0
 10
42.9557
 20
-73.3959
 30
0.0
 10
43.8315
 20
-73.323
 30
0.0
 10
43.8315
 20
-73.323
 30
0.0
 10
44.8757
 20
-73.3084
 30
0.0
 10
44.8359
 20
-74.7433
 30
0.0
 10
46.4353
 20
-74.7433
 30
0.0
 10
46.4353
 20
-74.7433
 30
0.0
 10
47.5022
 20
-74.7433
 30
0.0
 10
47.1945
 20
-74.4613
 30
0.0
 10
47.29
 20
-73.3465
 30
0.0
 10
47.29
 20
-73.3465
 30
0.0
 10
52.4878
 20
-74.4606
 30
0.0
 10
50.9256
 20
-72.0076
 30
0.0
 10
52.353
 20
-72.1395
 30
0.0
 10
52.353
 20
-72.1395
 30
0.0
 10
57.3829
 20
-73.7971
 30
0.0
 10
57.558
 20
-82.5769
 30
0.0
 10
52.3156
 20
-82.6805
 30
0.0
  0
SPLINE
  5
103
330
1F
100
AcDbEntity
  8
layer 1
 62
     7
100
AcDbSpline
210
0.0
220
0.0
230
1.0
 70
    11
 71
     3
 72
    24
 73
    20
 74
     0
 42
0.0000000001
 43
0.0000000001
 12
1.0
 22
0.0
 32
0.0
 13
1.0
 23
0.0
 33
0.0
 40
0.0
 40
0.0
 40
0.0
 40
0.0
 40
0.1666666666666667
 40
0.1666666666666667
 40
0.1666666666666667
 40
0.1666666666666667
 40
0.3333333333333333
 40
0.3333333333333333
 40
0.3333333333333333
 40
0.3333333333333333
 40
0.5
 40
0.5
 40
0.5
 40
0.5
 40
0.6666666666666666
 40
0.6666666666666666
 40
0.6666666666666666
 40
0.6666666666666666
 40
1.0
 40
1.0
 40
1.0
 40
1.0
 10
2.7635
 20
-77.8991
 30
0.0
 10
3.9136
 20
-77.129
 30
0.0
 10
5.6365
 20
-74.3363
 30
0.0
 10
6.2667
 20
-72.4594
 30
0.0
 10
6.2667
 20
-72.4594
 30
0.0
 10
4.9542
 20
-74.255
 30
0.0
 10
3.0648
 20
-73.8391
 30
0.0
 10
2.8514
 20
-72.4256
 30
0.0
 10
2.8514
 20
-72.4256
 30
0.0
 10
3.7254
 20
-72.3529
 30
0.0
 10
4.3731
 20
-72.1517
 30
0.0
 10
4.3731
 20
-71.2759
 30
0.0
 10
4.3731
 20
-71.2759
 30
0.0
 10
4.3731
 20
-70.7239
 30
0.0
 10
3.4033
 20
-70.0586
 30
0.0
 10
2.8514
 20
-70.0586
 30
0.0
 10
2.8514
 20
-70.0586
 30
0.0
 10
-1.0122
 20
-70.0924
 30
0.0
 10
0.5773
 20
-76.4352
 30
0.0
 10
2.7635
 20
-77.8991
 30
0.0
  0
SPLINE
  5
104
330
1F
100
AcDbEntity
  8
layer 1
 62
     7
100
AcDbSpline
210
0.0
220
0.0
230
1.0
 70
    11
 71
     3
 72
    32
 73
    28
 74
     0
 42
0.0000000001
 43
0.0000000001
 12
1.0
 22
0.0
 32
0.0
 13
1.0
 23
0.0
 33
0.0
 40
0.0
 40
0.0
 40
0.0
 40
0.0
 40
0.125
 40
0.125
 40
0.125
 40
0.125
 40
0.25
 40
0.25
 40
0.25
 40
0.25
 40
0.375
 40
0.375
 40
0.375
 40
0.375
 40
0.5
 40
0.5
 40
0.5
 40
0.5
 40
0.625
 40
0.625
 40
0.625
 40
0.625
 40
0.75
 40
0.75
 40
0.75
 40
0.75
 40
1.0
 40
1.0
 40
1.0
 40
1.0
 10
-11.1145
 20
-79.5269
 30
0.0
 10
-9.5991
 20
-79.4847
 30
0.0
 10
-9.3173
 20
-77.7973
 30
0.0
 10
-10.5812
 20
-77.0207
 30
0.0
 10
-10.5812
 20
-77.0207
 30
0.0
 10
-11.5625
 20
-76.4179
 30
0.0
 10
-13.0073
 20
-76.3015
 30
0.0
 10
-13.9707
 20
-77.7224
 30
0.0
 10
-13.9707
 20
-77.7224
 30
0.0
 10
-15.6656
 20
-80.5632
 30
0.0
 10
-14.1337
 20
-83.6278
 30
0.0
 10
-12.7227
 20
-85.8519
 30
0.0
 10
-12.7227
 20
-85.8519
 30
0.0
 10
-12.7227
 20
-85.8519
 30
0.0
 10
-7.681
 20
-85.7857
 30
0.0
 10
-7.681
 20
-85.7857
 30
0.0
 10
-7.681
 20
-85.7857
 30
0.0
 10
-4.7815
 20
-84.7209
 30
0.0
 10
-2.176
 20
-82.8858
 30
0.0
 10
-0.085
 20
-80.6105
 30
0.0
 10
-0.085
 20
-80.6105
 30
0.0
 10
-1.2833
 20
-78.3457
 30
0.0
 10
-7.0464
 20
-74.3423
 30
0.0
 10
-10.2069
 20
-74.1202
 30
0.0
 10
-10.2069
 20
-74.1202
 30
0.0
 10
-5.3721
 20
-76.7508
 30
0.0
 10
-7.2133
 20
-82.7868
 30
0.0
 10
-11.1145
 20
-79.5269
 30
0.0
  0
SPLINE
  5
105
330
1F
100
AcDbEntity
  8
layer 1
 62
     7
100
AcDbSpline
210
0.0
220
0.0
230
1.0
 70
    11
 71
     3
 72
    16
 73
    12
 74
     0
 42
0.0000000001
 43
0.0000000001
 12
1.0
 22
0.0
 32
0.0
 13
1.0
 23
0.0
 33
0.0
 40
0.0
 40
0.0
 40
0.0
 40
0.0
 40
0.25
 40
0.25
 40
0.25
 40
0.25
 40
0.5
 40
0.5
 40
0.5
 40
0.5
 40
1.0
 40
1.0
 40
1.0
 40
1.0
 10
-35.1137
 20
-85.8291
 30
0.0
 10
-37.7928
 20
-84.8725
 30
0.0
 10
-38.737
 20
-81.5923
 30
0.0
 10
-38.7856
 20
-77.806
 30
0.0
 10
-38.7856
 20
-77.806
 30
0.0
 10
-40.2717
 20
-79.9847
 30
0.0
 10
-40.5129
 20
-83.081
 30
0.0
 10
-40.0954
 20
-85.8132
 30
0.0
 10
-40.0954
 20
-85.8132
 30
0.0
 10
-40.0954
 20
-85.8132
 30
0.0
 10
-35.1137
 20
-85.8291
 30
0.0
 10
-35.1137
 20
-85.8291
 30
0.0
  0
SPLINE
  5
106
330
1F
100
AcDbEntity
  8
layer 1
 62
     7
100
AcDbSpline
210
0.0
220
0.0
230
1.0
 70
    11
 71
     3
 72
    16
 73
    12
 74
     0
 42
0.0000000001
 43
0.0000000001
 12
1.0
 22
0.0
 32
0.0
 13
1.0
 23
0.0
 33
0.0
 40
0.0
 40
0.0
 40
0.0
 40
0.0
 40
0.25
 40
0.25
 40
0.25
 40
0.25
 40
0.5
 40
0.5
 40
0.5
 40
0.5
 40
1.0
 40
1.0
 40
1.0
 40
1.0
 10
-46.774
 20
-85.8452
 30
0.0
 10
-46.774
 20
-85.8452
 30
0.0
 10
-43.4789
 20
-85.8543
 30
0.0
 10
-43.4789
 20
-85.8543
 30
0.0
 10
-43.4789
 20
-85.8543
 30
0.0
 10
-43.7423
 20
-83.2026
 30
0.0
 10
-43.3505
 20
-81.0454
 30
0.0
 10
-41.8623
 20
-77.2955
 30
0.0
 10
-41.8623
 20
-77.2955
 30
0.0
 10
-45.1005
 20
-80.8104
 30
0.0
 10
-46.3813
 20
-82.6285
 30
0.0
 10
-46.774
 20
-85.8452
 30
0.0
  0
SPLINE
  5
107
330
1F
100
AcDbEntity
  8
layer 1
 62
     7
100
AcDbSpline
210
0.0
220
0.0
230
1.0
 70
    11
 71
     3
 72
    48
 73
    44
 74
     0
 42
0.0000000001
 43
0.0000000001
 12
1.0
 22
0.0
 32
0.0
 13
1.0
 23
0.0
 33
0.0
 40
0.0
 40
0.0
 40
0.0
 40
0.0
 40
0.0833333333333333
 40
0.0833333333333333
 40
0.0833333333333333
 40
0.0833333333333333
 40
0.1666666666666667
 40
0.1666666666666667
 40
0.1666666666666667
 40
0.1666666666666667
 40
0.25
 40
0.25
 40
0.25
 40
0.25
 40
0.3333333333333333
 40
0.3333333333333333
 40
0.3333333333333333
 40
0.3333333333333333
 40
0.4166666666666667
 40
0.4166666666666667
 40
0.4166666666666667
 40
0.4166666666666667
 40
0.5
 40
0.5
 40
0.5
 40
0.5
 40
0.5833333333333334
 40
0.5833333333333334
 40
0.5833333333333334
 40
0.5833333333333334
 40
0.6666666666666666
 40
0.6666666666666666
 40
0.6666666666666666
 40
0.6666666666666666
 40
0.75
 40
0.75
 40
0.75
 40
0.75
 40
0.8333333333333334
 40
0.8333333333333334
 40
0.8333333333333334
 40
0.8333333333333334
 40
1.0
 40
1.0
 40
1.0
 40
1.0
 10
-32.3809
 20
-82.5016
 30
0.0
 10
-27.6643
 20
-82.3379
 30
0.0
 10
-27.5068
 20
-77.0202
 30
0.0
 10
-30.4728
 20
-79.6611
 30
0.0
 10
-30.4728
 20
-79.6611
 30
0.0
 10
-30.7706
 20
-75.5097
 30
0.0
 10
-24.7564
 20
-77.0995
 30
0.0
 10
-25.6719
 20
-80.3121
 30
0.0
 10
-25.6719
 20
-80.3121
 30
0.0
 10
-26.0301
 20
-81.569
 30
0.0
 10
-26.5693
 20
-83.9418
 30
0.0
 10
-30.7644
 20
-85.8543
 30
0.0
 10
-30.7644
 20
-85.8543
 30
0.0
 10
-30.7644
 20
-85.8543
 30
0.0
 10
-16.0671
 20
-85.8369
 30
0.0
 10
-16.0671
 20
-85.8369
 30
0.0
 10
-16.0671
 20
-85.8369
 30
0.0
 10
-19.0549
 20
-81.7014
 30
0.0
 10
-18.4884
 20
-73.7115
 30
0.0
 10
-12.4661
 20
-73.5718
 30
0.0
 10
-12.4661
 20
-73.5718
 30
0.0
 10
-15.6264
 20
-72.4865
 30
0.0
 10
-21.33
 20
-73.5831
 30
0.0
 10
-22.9784
 20
-75.0721
 30
0.0
 10
-22.9784
 20
-75.0721
 30
0.0
 10
-23.2846
 20
-74.4294
 30
0.0
 10
-23.0209
 20
-73.2169
 30
0.0
 10
-23.8968
 20
-73.1441
 30
0.0
 10
-23.8968
 20
-73.1441
 30
0.0
 10
-24.9409
 20
-73.1294
 30
0.0
 10
-24.9011
 20
-74.5644
 30
0.0
 10
-26.5006
 20
-74.5644
 30
0.0
 10
-26.5006
 20
-74.5644
 30
0.0
 10
-27.5674
 20
-74.5644
 30
0.0
 10
-27.2597
 20
-74.2824
 30
0.0
 10
-27.3552
 20
-73.1675
 30
0.0
 10
-27.3552
 20
-73.1675
 30
0.0
 10
-32.553
 20
-74.2817
 30
0.0
 10
-30.9909
 20
-71.8287
 30
0.0
 10
-32.4183
 20
-71.9606
 30
0.0
 10
-32.4183
 20
-71.9606
 30
0.0
 10
-37.4482
 20
-73.6182
 30
0.0
 10
-37.6232
 20
-82.398
 30
0.0
 10
-32.3809
 20
-82.5016
 30
0.0
  0
SPLINE
  5
108
330
1F
100
AcDbEntity
  8
layer 1
 62
     7
100
AcDbSpline
210
0.0
220
0.0
230
1.0
 70
    11
 71
     3
 72
    16
 73
    12
 74
     0
 42
0.0000000001
 43
0.0000000001
 12
1.0
 22
0.0
 32
0.0
 13
1.0
 23
0.0
 33
0.0
 40
0.0
 40
0.0
 40
0.0
 40
0.0
 40
0.25
 40
0.25
 40
0.25
 40
0.25
 40
0.5
 40
0.5
 40
0.5
 40
0.5
 40
1.0
 40
1.0
 40
1.0
 40
1.0
 10
-51.5916
 20
-85.7682
 30
0.0
 10
-49.0687
 20
-79.4811
 30
0.0
 10
-48.2026
 20
-78.1203
 30
0.0
 10
-45.3345
 20
-74.9
 30
0.0
 10
-45.3345
 20
-74.9
 30
0.0
 10
-47.6552
 20
-73.5571
 30
0.0
 10
-49.766
 20
-71.9907
 30
0.0
 10
-51.5916
 20
-70.1032
 30
0.0
 10
-51.5916
 20
-70.1032
 30
0.0
 10
-51.5916
 20
-70.1032
 30
0.0
 10
-51.5916
 20
-85.7682
 30
0.0
 10
-51.5916
 20
-85.7682
 30
0.0
  0
SPLINE
  5
109
330
1F
100
AcDbEntity
  8
layer 1
 62
     7
100
AcDbSpline
210
0.0
220
0.0
230
1.0
 70
    11
 71
     3
 72
    16
 73
    12
 74
     0
 42
0.0000000001
 43
0.0000000001
 12
1.0
 22
0.0
 32
0.0
 13
1.0
 23
0.0
 33
0.0
 40
0.0
 40
0.0
 40
0.0
 40
0.0
 40
0.25
 40
0.25
 40
0.25
 40
0.25
 40
0.5
 40
0.5
 40
0.5
 40
0.5
 40
1.0
 40
1.0
 40
1.0
 40
1.0
 10
-51.5068
 20
-48.6703
 30
0.0
 10
-48.9839
 20
-54.9574
 30
0.0
 10
-48.1178
 20
-56.3181
 30
0.0
 10
-45.2497
 20
-59.5384
 30
0.0
 10
-45.2497
 20
-59.5384
 30
0.0
 10
-47.707
 20
-61.1542
 30
0.0
 10
-48.9752
 20
-62.0158
 30
0.0
 10
-51.5068
 20
-64.3352
 30
0.0
 10
-51.5068
 20
-64.3352
 30
0.0
 10
-51.5068
 20
-64.3352
 30
0.0
 10
-51.5068
 20
-48.6703
 30
0.0
 10
-51.5068
 20
-48.6703
 30
0.0
  0
SPLINE
  5
10A
330
1F
100
AcDbEntity
  8
layer 1
 62
     7
100
AcDbSpline
210
0.0
220
0.0
230
1.0
 70
    11
 71
     3
 72
    20
 73
    16
 74
     0
 42
0.0000000001
 43
0.0000000001
 12
1.0
 22
0.0
 32
0.0
 13
1.0
 23
0.0
 33
0.0
 40
0.0
 40
0.0
 40
0.0
 40
0.0
 40
0.2
 40
0.2
 40
0.2
 40
0.2
 40
0.4
 40
0.4
 40
0.4
 40
0.4
 40
0.6
 40
0.6
 40
0.6
 40
0.6
 40
1.0
 40
1.0
 40
1.0
 40
1.0
 10
-47.3069
 20
-67.2019
 30
0.0
 10
-45.4264
 20
-65.56
 30
0.0
 10
-44.4056
 20
-64.2954
 30
0.0
 10
-42.6587
 20
-61.7216
 30
0.0
 10
-42.6587
 20
-61.7216
 30
0.0
 10
-39.6112
 20
-63.5487
 30
0.0
 10
-36.4341
 20
-65.0137
 30
0.0
 10
-27.8202
 20
-67.236
 30
0.0
 10
-27.8202
 20
-67.236
 30
0.0
 10
-36.4341
 20
-69.4583
 30
0.0
 10
-39.696
 20
-70.8898
 30
0.0
 10
-42.7435
 20
-72.7168
 30
0.0
 10
-42.7435
 20
-72.7168
 30
0.0
 10
-44.6336
 20
-70.0255
 30
0.0
 10
-45.661
 20
-69.185
 30
0.0
 10
-47.3069
 20
-67.2019
 30
0.0
  0
SPLINE
  5
10B
330
1F
100
AcDbEntity
  8
layer 1
 62
     7
100
AcDbSpline
210
0.0
220
0.0
230
1.0
 70
    11
 71
     3
 72
    16
 73
    12
 74
     0
 42
0.0000000001
 43
0.0000000001
 12
1.0
 22
0.0
 32
0.0
 13
1.0
 23
0.0
 33
0.0
 40
0.0
 40
0.0
 40
0.0
 40
0.0
 40
0.25
 40
0.25
 40
0.25
 40
0.25
 40
0.5
 40
0.5
 40
0.5
 40
0.5
 40
1.0
 40
1.0
 40
1.0
 40
1.0
 10
71.5768
 20
-85.7682
 30
0.0
 10
69.0539
 20
-79.4811
 30
0.0
 10
68.1877
 20
-78.1203
 30
0.0
 10
65.3196
 20
-74.9
 30
0.0
 10
65.3196
 20
-74.9
 30
0.0
 10
67.6403
 20
-73.5571
 30
0.0
 10
69.7511
 20
-71.9907
 30
0.0
 10
71.5768
 20
-70.1032
 30
0.0
 10
71.5768
 20
-70.1032
 30
0.0
 10
71.5768
 20
-70.1032
 30
0.0
 10
71.5768
 20
-85.7682
 30
0.0
 10
71.5768
 20
-85.7682
 30
0.0
  0
SPLINE
  5
10C
330
1F
100
AcDbEntity
  8
layer 1
 62
     7
100
AcDbSpline
210
0.0
220
0.0
230
1.0
 70
    11
 71
     3
 72
    16
 73
    12
 74
     0
 42
0.0000000001
 43
0.0000000001
 12
1.0
 22
0.0
 32
0.0
 13
1.0
 23
0.0
 33
0.0
 40
0.0
 40
0.0
 40
0.0
 40
0.0
 40
0.25
 40
0.25
 40
0.25
 40
0.25
 40
0.5
 40
0.5
 40
0.5
 40
0.5
 40
1.0
 40
1.0
 40
1.0
 40
1.0
 10
71.4919
 20
-48.6703
 30
0.0
 10
68.969
 20
-54.9574
 30
0.0
 10
68.1029
 20
-56.3181
 30
0.0
 10
65.2348
 20
-59.5384
 30
0.0
 10
65.2348
 20
-59.5384
 30
0.0
 10
67.6921
 20
-61.1542
 30
0.0
 10
68.9604
 20
-62.0158
 30
0.0
 10
71.4919
 20
-64.3352
 30
0.0
 10
71.4919
 20
-64.3352
 30
0.0
 10
71.4919
 20
-64.3352
 30
0.0
 10
71.4919
 20
-48.6703
 30
0.0
 10
71.4919
 20
-48.6703
 30
0.0
  0
SPLINE
  5
10D
330
1F
100
AcDbEntity
  8
layer 1
 62
     7
100
AcDbSpline
210
0.0
220
0.0
230
1.0
 70
    11
 71
     3
 72
    20
 73
    16
 74
     0
 42
0.0000000001
 43
0.0000000001
 12
1.0
 22
0.0
 32
0.0
 13
1.0
 23
0.0
 33
0.0
 40
0.0
 40
0.0
 40
0.0
 40
0.0
 40
0.2
 40
0.2
 40
0.2
 40
0.2
 40
0.4
 40
0.4
 40
0.4
 40
0.4
 40
0.6
 40
0.6
 40
0.6
 40
0.6
 40
1.0
 40
1.0
 40
1.0
 40
1.0
 10
67.292
 20
-67.2019
 30
0.0
 10
65.4116
 20
-65.56
 30
0.0
 10
64.3908
 20
-64.2954
 30
0.0
 10
62.6438
 20
-61.7216
 30
0.0
 10
62.6438
 20
-61.7216
 30
0.0
 10
59.5964
 20
-63.5487
 30
0.0
 10
56.4192
 20
-65.0137
 30
0.0
 10
47.8053
 20
-67.236
 30
0.0
 10
47.8053
 20
-67.236
 30
0.0
 10
56.4192
 20
-69.4583
 30
0.0
 10
59.6812
 20
-70.8898
 30
0.0
 10
62.7286
 20
-72.7168
 30
0.0
 10
62.7286
 20
-72.7168
 30
0.0
 10
64.6187
 20
-70.0255
 30
0.0
 10
65.6461
 20
-69.185
 30
0.0
 10
67.292
 20
-67.2019
 30
0.0
  0
SPLINE
  5
10E
330
1F
100
AcDbEntity
  8
layer 1
 62
     7
100
AcDbSpline
210
0.0
220
0.0
230
1.0
 70
    11
 71
     3
 72
    20
 73
    16
 74
     0
 42
0.0000000001
 43
0.0000000001
 12
1.0
 22
0.0
 32
0.0
 13
1.0
 23
0.0
 33
0.0
 40
0.0
 40
0.0
 40
0.0
 40
0.0
 40
0.2
 40
0.2
 40
0.2
 40
0.2
 40
0.4
 40
0.4
 40
0.4
 40
0.4
 40
0.6
 40
0.6
 40
0.6
 40
0.6
 40
1.0
 40
1.0
 40
1.0
 40
1.0
 10
9.0035
 20
-67.2945
 30
0.0
 10
8.6012
 20
-66.2478
 30
0.0
 10
8.1474
 20
-65.2797
 30
0.0
 10
7.2559
 20
-63.9004
 30
0.0
 10
7.2559
 20
-63.9004
 30
0.0
 10
6.7629
 20
-66.1176
 30
0.0
 10
5.3139
 20
-67.2945
 30
0.0
 10
4.5397
 20
-67.2945
 30
0.0
 10
4.5397
 20
-67.2945
 30
0.0
 10
5.3139
 20
-67.2945
 30
0.0
 10
6.7629
 20
-68.4307
 30
0.0
 10
7.2559
 20
-70.6479
 30
0.0
 10
7.2559
 20
-70.6479
 30
0.0
 10
8.1044
 20
-69.2358
 30
0.0
 10
8.5483
 20
-68.4544
 30
0.0
 10
9.0035
 20
-67.2945
 30
0.0
  0
SPLINE
  5
10F
330
1F
100
AcDbEntity
  8
layer 1
 62
     7
100
AcDbSpline
210
0.0
220
0.0
230
1.0
 70
    11
 71
     3
 72
    24
 73
    20
 74
     0
 42
0.0000000001
 43
0.0000000001
 12
1.0
 22
0.0
 32
0.0
 13
1.0
 23
0.0
 33
0.0
 40
0.0
 40
0.0
 40
0.0
 40
0.0
 40
0.1666666666666667
 40
0.1666666666666667
 40
0.1666666666666667
 40
0.1666666666666667
 40
0.3333333333333333
 40
0.3333333333333333
 40
0.3333333333333333
 40
0.3333333333333333
 40
0.5
 40
0.5
 40
0.5
 40
0.5
 40
0.6666666666666666
 40
0.6666666666666666
 40
0.6666666666666666
 40
0.6666666666666666
 40
1.0
 40
1.0
 40
1.0
 40
1.0
 10
17.2246
 20
-56.4714
 30
0.0
 10
15.8903
 20
-57.9868
 30
0.0
 10
14.4598
 20
-59.876
 30
0.0
 10
13.744
 20
-61.9291
 30
0.0
 10
13.744
 20
-61.9291
 30
0.0
 10
15.0565
 20
-60.1335
 30
0.0
 10
16.9459
 20
-60.5495
 30
0.0
 10
17.1594
 20
-61.9629
 30
0.0
 10
17.1594
 20
-61.9629
 30
0.0
 10
16.2853
 20
-62.0356
 30
0.0
 10
15.6377
 20
-62.2368
 30
0.0
 10
15.6377
 20
-63.1126
 30
0.0
 10
15.6377
 20
-63.1126
 30
0.0
 10
15.6377
 20
-63.6646
 30
0.0
 10
16.6074
 20
-64.33
 30
0.0
 10
17.1594
 20
-64.33
 30
0.0
 10
17.1594
 20
-64.33
 30
0.0
 10
21.0229
 20
-64.2961
 30
0.0
 10
19.4108
 20
-57.9353
 30
0.0
 10
17.2246
 20
-56.4714
 30
0.0
  0
SPLINE
  5
110
330
1F
100
AcDbEntity
  8
layer 1
 62
     7
100
AcDbSpline
210
0.0
220
0.0
230
1.0
 70
    11
 71
     3
 72
    24
 73
    20
 74
     0
 42
0.0000000001
 43
0.0000000001
 12
1.0
 22
0.0
 32
0.0
 13
1.0
 23
0.0
 33
0.0
 40
0.0
 40
0.0
 40
0.0
 40
0.0
 40
0.1666666666666667
 40
0.1666666666666667
 40
0.1666666666666667
 40
0.1666666666666667
 40
0.3333333333333333
 40
0.3333333333333333
 40
0.3333333333333333
 40
0.3333333333333333
 40
0.5
 40
0.5
 40
0.5
 40
0.5
 40
0.6666666666666666
 40
0.6666666666666666
 40
0.6666666666666666
 40
0.6666666666666666
 40
1.0
 40
1.0
 40
1.0
 40
1.0
 10
17.2669
 20
-77.8448
 30
0.0
 10
16.1168
 20
-77.0747
 30
0.0
 10
14.3939
 20
-74.2821
 30
0.0
 10
13.7637
 20
-72.4052
 30
0.0
 10
13.7637
 20
-72.4052
 30
0.0
 10
15.0762
 20
-74.2008
 30
0.0
 10
16.9656
 20
-73.7849
 30
0.0
 10
17.179
 20
-72.3714
 30
0.0
 10
17.179
 20
-72.3714
 30
0.0
 10
16.305
 20
-72.2987
 30
0.0
 10
15.6573
 20
-72.0975
 30
0.0
 10
15.6573
 20
-71.2217
 30
0.0
 10
15.6573
 20
-71.2217
 30
0.0
 10
15.6573
 20
-70.6697
 30
0.0
 10
16.6271
 20
-70.0043
 30
0.0
 10
17.179
 20
-70.0043
 30
0.0
 10
17.179
 20
-70.0043
 30
0.0
 10
21.0426
 20
-70.0382
 30
0.0
 10
19.4531
 20
-76.3809
 30
0.0
 10
17.2669
 20
-77.8448
 30
0.0
  0
SPLINE
  5
111
330
1F
100
AcDbEntity
  8
layer 1
 62
     7
100
AcDbSpline
210
0.0
220
0.0
230
1.0
 70
    11
 71
     3
 72
    20
 73
    16
 74
     0
 42
0.0000000001
 43
0.0000000001
 12
1.0
 22
0.0
 32
0.0
 13
1.0
 23
0.0
 33
0.0
 40
0.0
 40
0.0
 40
0.0
 40
0.0
 40
0.2
 40
0.2
 40
0.2
 40
0.2
 40
0.4
 40
0.4
 40
0.4
 40
0.4
 40
0.6
 40
0.6
 40
0.6
 40
0.6
 40
1.0
 40
1.0
 40
1.0
 40
1.0
 10
11.0269
 20
-67.2402
 30
0.0
 10
11.4292
 20
-66.1936
 30
0.0
 10
11.883
 20
-65.2255
 30
0.0
 10
12.7745
 20
-63.8461
 30
0.0
 10
12.7745
 20
-63.8461
 30
0.0
 10
13.2675
 20
-66.0633
 30
0.0
 10
14.7165
 20
-67.2402
 30
0.0
 10
15.4907
 20
-67.2402
 30
0.0
 10
15.4907
 20
-67.2402
 30
0.0
 10
14.7165
 20
-67.2402
 30
0.0
 10
13.2675
 20
-68.3764
 30
0.0
 10
12.7745
 20
-70.5936
 30
0.0
 10
12.7745
 20
-70.5936
 30
0.0
 10
11.926
 20
-69.1816
 30
0.0
 10
11.4821
 20
-68.4002
 30
0.0
 10
11.0269
 20
-67.2402
 30
0.0
  0
SPLINE
  5
112
330
1F
100
AcDbEntity
  8
layer 1
 62
     7
100
AcDbSpline
210
0.0
220
0.0
230
1.0
 70
    11
 71
     3
 72
    20
 73
    16
 74
     0
 42
0.0000000001
 43
0.0000000001
 12
1.0
 22
0.0
 32
0.0
 13
1.0
 23
0.0
 33
0.0
 40
0.0
 40
0.0
 40
0.0
 40
0.0
 40
0.2
 40
0.2
 40
0.2
 40
0.2
 40
0.4
 40
0.4
 40
0.4
 40
0.4
 40
0.6
 40
0.6
 40
0.6
 40
0.6
 40
1.0
 40
1.0
 40
1.0
 40
1.0
 10
0.4995
 20
-67.3272
 30
0.0
 10
-2.9037
 20
-68.3089
 30
0.0
 10
-3.6913
 20
-71.175
 30
0.0
 10
-1.9014
 20
-74.3499
 30
0.0
 10
-1.9014
 20
-74.3499
 30
0.0
 10
-6.4086
 20
-71.0164
 30
0.0
 10
-11.9413
 20
-69.1042
 30
0.0
 10
-19.1638
 20
-67.3272
 30
0.0
 10
-19.1638
 20
-67.3272
 30
0.0
 10
-11.8921
 20
-65.6157
 30
0.0
 10
-6.4086
 20
-63.6053
 30
0.0
 10
-1.9014
 20
-60.2718
 30
0.0
 10
-1.9014
 20
-60.2718
 30
0.0
 10
-3.6913
 20
-63.4467
 30
0.0
 10
-2.9037
 20
-66.3455
 30
0.0
 10
0.4995
 20
-67.3272
 30
0.0
  0
ENDSEC
  0
SECTION
  2
OBJECTS
  0
DICTIONARY
  5
C
330
0
100
AcDbDictionary
281
     1
  3
ACAD_GROUP
350
D
  3
ACAD_LAYOUT
350
1A
  3
ACAD_MATERIAL
350
3B
  3
ACAD_MLEADERSTYLE
350
134
  3
ACAD_MLINESTYLE
350
17
  3
ACAD_PLOTSETTINGS
350
19
  3
ACAD_PLOTSTYLENAME
350
E
  3
ACAD_TABLESTYLE
350
133
  3
ACAD_VISUALSTYLE
350
2A
  0
DICTIONARY
  5
D
102
{ACAD_REACTORS
330
C
102
}
330
C
100
AcDbDictionary
281
     1
  0
DICTIONARY
  5
1A
102
{ACAD_REACTORS
330
C
102
}
330
C
100
AcDbDictionary
281
     1
  3
Layout1
350
1E
  3
Layout2
350
26
  3
Model
350
22
  0
DICTIONARY
  5
3B
102
{ACAD_REACTORS
330
C
102
}
330
C
100
AcDbDictionary
281
     1
  3
ByBlock
350
3D
  3
ByLayer
350
3C
  3
Global
350
3E
  0
DICTIONARY
  5
134
102
{ACAD_REACTORS
330
C
102
}
330
C
100
AcDbDictionary
281
     1
  0
DICTIONARY
  5
17
102
{ACAD_REACTORS
330
C
102
}
330
C
100
AcDbDictionary
281
     1
  3
Standard
350
18
  0
DICTIONARY
  5
19
102
{ACAD_REACTORS
330
C
102
}
330
C
100
AcDbDictionary
281
     1
  0
ACDBDICTIONARYWDFLT
  5
E
102
{ACAD_REACTORS
330
C
102
}
330
C
100
AcDbDictionary
281
     1
  3
Normal
350
F
100
AcDbDictionaryWithDefault
340
F
  0
DICTIONARY
  5
133
102
{ACAD_REACTORS
330
C
102
}
330
C
100
AcDbDictionary
281
     1
  0
DICTIONARY
  5
2A
102
{ACAD_REACTORS
330
C
102
}
330
C
100
AcDbDictionary
281
     1
  3
2dWireframe
350
2F
  3
3D Hidden
350
31
  3
3dWireframe
350
30
  3
Basic
350
32
  3
Brighten
350
36
  3
ColorChange
350
3A
  3
Conceptual
350
34
  3
Dim
350
35
  3
Facepattern
350
39
  3
Flat
350
2B
  3
FlatWithEdges
350
2C
  3
Gouraud
350
2D
  3
GouraudWithEdges
350
2E
  3
Linepattern
350
38
  3
Realistic
350
33
  3
Thicken
350
37
  0
LAYOUT
  5
1E
102
{ACAD_REACTORS
330
1A
102
}
330
1A
100
AcDbPlotSettings
  1

  2
none_device
  4

  6

 40
0.0
 41
0.0
 42
0.0
 43
0.0
 44
0.0
 45
0.0
 46
0.0
 47
0.0
 48
0.0
 49
0.0
140
0.0
141
0.0
142
1.0
143
1.0
 70
   688
 72
     0
 73
     0
 74
     5
  7

 75
    16
 76
     0
 77
     2
 78
   300
147
1.0
148
0.0
149
0.0
100
AcDbLayout
  1
Layout1
 70
     1
 71
     1
 10
0.0
 20
0.0
 11
12.0
 21
9.0
 12
0.0
 22
0.0
 32
0.0
 14
1.000000000000000E+20
 24
1.000000000000000E+20
 34
1.000000000000000E+20
 15
-1.000000000000000E+20
 25
-1.000000000000000E+20
 35
-1.000000000000000E+20
146
0.0
 13
0.0
 23
0.0
 33
0.0
 16
1.0
 26
0.0
 36
0.0
 17
0.0
 27
1.0
 37
0.0
 76
     0
330
1B
  0
LAYOUT
  5
26
102
{ACAD_REACTORS
330
1A
102
}
330
1A
100
AcDbPlotSettings
  1

  2
none_device
  4

  6

 40
0.0
 41
0.0
 42
0.0
 43
0.0
 44
0.0
 45
0.0
 46
0.0
 47
0.0
 48
0.0
 49
0.0
140
0.0
141
0.0
142
1.0
143
1.0
 70
   688
 72
     0
 73
     0
 74
     5
  7

 75
    16
 76
     0
 77
     2
 78
   300
147
1.0
148
0.0
149
0.0
100
AcDbLayout
  1
Layout2
 70
     1
 71
     2
 10
0.0
 20
0.0
 11
0.0
 21
0.0
 12
0.0
 22
0.0
 32
0.0
 14
0.0
 24
0.0
 34
0.0
 15
0.0
 25
0.0
 35
0.0
146
0.0
 13
0.0
 23
0.0
 33
0.0
 16
1.0
 26
0.0
 36
0.0
 17
0.0
 27
1.0
 37
0.0
 76
     0
330
23
  0
LAYOUT
  5
22
102
{ACAD_REACTORS
330
1A
102
}
330
1A
100
AcDbPlotSettings
  1

  2
none_device
  4

  6

 40
0.0
 41
0.0
 42
0.0
 43
0.0
 44
0.0
 45
0.0
 46
0.0
 47
0.0
 48
0.0
 49
0.0
140
0.0
141
0.0
142
1.0
143
1.0
 70
  1712
 72
     0
 73
     0
 74
     0
  7

 75
     0
 76
     0
 77
     2
 78
   300
147
1.0
148
0.0
149
0.0
100
AcDbLayout
  1
Model
 70
     1
 71
     0
 10
0.0
 20
0.0
 11
12.0
 21
9.0
 12
0.0
 22
0.0
 32
0.0
 14
-187.337
 24
-91.6665
 34
0.0
 15
75.5981
 25
107.9699
 35
0.0
146
0.0
 13
0.0
 23
0.0
 33
0.0
 16
1.0
 26
0.0
 36
0.0
 17
0.0
 27
1.0
 37
0.0
 76
     0
330
1F
331
29
  0
MATERIAL
  5
3D
102
{ACAD_REACTORS
330
3B
102
}
330
3B
100
AcDbMaterial
  1
ByBlock
 72
     1
 94
      127
  0
MATERIAL
  5
3C
102
{ACAD_REACTORS
330
3B
102
}
330
3B
100
AcDbMaterial
  1
ByLayer
 72
     1
 94
      127
  0
MATERIAL
  5
3E
102
{ACAD_REACTORS
330
3B
102
}
330
3B
100
AcDbMaterial
  1
Global
 72
     1
 94
      127
  0
MLINESTYLE
  5
18
102
{ACAD_REACTORS
330
17
102
}
330
17
100
AcDbMlineStyle
  2
Standard
 70
     0
  3

 62
   256
 51
90.0
 52
90.0
 71
     2
 49
0.5
 62
   256
  6
BYLAYER
 49
-0.5
 62
   256
  6
BYLAYER
  0
ACDBPLACEHOLDER
  5
F
102
{ACAD_REACTORS
330
E
102
}
330
E
  0
VISUALSTYLE
  5
2F
102
{ACAD_REACTORS
330
2A
102
}
102
{ACAD_XDICTIONARY
360
11B
102
}
330
2A
100
AcDbVisualStyle
  2
2dWireframe
 70
     4
 71
     0
 72
     2
 73
     0
 90
        0
 40
-0.6
 41
-30.0
 62
     5
 63
     7
421
 16777215
 74
     1
 91
        4
 64
     7
 65
   257
 75
     1
175
     1
 42
1.0
 92
        0
 66
   257
 43
1.0
 76
     1
 77
     6
 78
     2
 67
     7
 79
     5
170
     0
171
     0
290
     0
174
     0
 93
        1
 44
0.0
173
     0
291
     0
 45
0.0
  0
VISUALSTYLE
  5
31
102
{ACAD_REACTORS
330
2A
102
}
102
{ACAD_XDICTIONARY
360
11F
102
}
330
2A
100
AcDbVisualStyle
  2
3D Hidden
 70
     6
 71
     1
 72
     2
 73
     2
 90
        0
 40
-0.6
 41
-30.0
 62
     5
 63
     7
421
 16777215
 74
     2
 91
        2
 64
     7
 65
   257
 75
     2
175
     1
 42
40.0
 92
        0
 66
   257
 43
1.0
 76
     1
 77
     6
 78
     2
 67
     7
 79
     3
170
     0
171
     0
290
     0
174
     0
 93
        1
 44
0.0
173
     0
291
     0
 45
0.0
  0
VISUALSTYLE
  5
30
102
{ACAD_REACTORS
330
2A
102
}
102
{ACAD_XDICTIONARY
360
11D
102
}
330
2A
100
AcDbVisualStyle
  2
3dWireframe
 70
     5
 71
     0
 72
     2
 73
     0
 90
        0
 40
-0.6
 41
-30.0
 62
     5
 63
     7
421
 16777215
 74
     1
 91
        4
 64
     7
 65
   257
 75
     1
175
     1
 42
1.0
 92
        0
 66
   257
 43
1.0
 76
     1
 77
     6
 78
     2
 67
     7
 79
     5
170
     0
171
     0
290
     0
174
     0
 93
        1
 44
0.0
173
     0
291
     0
 45
0.0
  0
VISUALSTYLE
  5
32
102
{ACAD_REACTORS
330
2A
102
}
102
{ACAD_XDICTIONARY
360
121
102
}
330
2A
100
AcDbVisualStyle
  2
Basic
 70
     7
 71
     1
 72
     0
 73
     1
 90
        0
 40
-0.6
 41
-30.0
 62
     5
 63
     7
421
 16777215
 74
     0
 91
        4
 64
     7
 65
   257
 75
     1
175
     1
 42
1.0
 92
        8
 66
     7
 43
1.0
 76
     1
 77
     6
 78
     2
 67
     7
 79
     5
170
     0
171
     0
290
     0
174
     0
 93
        1
 44
0.0
173
     0
291
     1
 45
0.0
  0
VISUALSTYLE
  5
36
102
{ACAD_REACTORS
330
2A
102
}
102
{ACAD_XDICTIONARY
360
129
102
}
330
2A
100
AcDbVisualStyle
  2
Brighten
 70
    12
 71
     2
 72
     2
 73
     0
 90
        0
 40
-0.6
 41
-30.0
 62
     5
 63
     7
421
 16777215
 74
     1
 91
        4
 64
     7
 65
   257
 75
     1
175
     1
 42
1.0
 92
        8
 66
     7
 43
1.0
 76
     1
 77
     6
 78
     2
 67
     7
 79
     5
170
     0
171
     0
290
     0
174
     0
 93
        1
 44
50.0
173
     0
291
     1
 45
0.0
  0
VISUALSTYLE
  5
3A
102
{ACAD_REACTORS
330
2A
102
}
102
{ACAD_XDICTIONARY
360
131
102
}
330
2A
100
AcDbVisualStyle
  2
ColorChange
 70
    16
 71
     2
 72
     2
 73
     3
 90
        0
 40
-0.6
 41
-30.0
 62
     5
 63
     8
421
  8421504
 74
     1
 91
        4
 64
     7
 65
   257
 75
     1
175
     1
 42
1.0
 92
        8
 66
     8
424
  8421504
 43
1.0
 76
     1
 77
     6
 78
     2
 67
     7
 79
     5
170
     0
171
     0
290
     0
174
     0
 93
        1
 44
0.0
173
     0
291
     1
 45
0.0
  0
VISUALSTYLE
  5
34
102
{ACAD_REACTORS
330
2A
102
}
102
{ACAD_XDICTIONARY
360
125
102
}
330
2A
100
AcDbVisualStyle
  2
Conceptual
 70
     9
 71
     3
 72
     2
 73
     0
 90
        0
 40
-0.6
 41
-30.0
 62
     5
 63
     7
421
 16777215
 74
     2
 91
        2
 64
     7
 65
   257
 75
     1
175
     1
 42
40.0
 92
        8
 66
     7
 43
1.0
 76
     1
 77
     6
 78
     2
 67
     7
 79
     3
170
     0
171
     0
290
     0
174
     0
 93
        1
 44
0.0
173
     0
291
     0
 45
0.0
  0
VISUALSTYLE
  5
35
102
{ACAD_REACTORS
330
2A
102
}
102
{ACAD_XDICTIONARY
360
127
102
}
330
2A
100
AcDbVisualStyle
  2
Dim
 70
    11
 71
     2
 72
     2
 73
     0
 90
        0
 40
-0.6
 41
-30.0
 62
     5
 63
     7
421
 16777215
 74
     1
 91
        4
 64
     7
 65
   257
 75
     1
175
     1
 42
1.0
 92
        8
 66
     7
 43
1.0
 76
     1
 77
     6
 78
     2
 67
     7
 79
     5
170
     0
171
     0
290
     0
174
     0
 93
        1
 44
-50.0
173
     0
291
     1
 45
0.0
  0
VISUALSTYLE
  5
39
102
{ACAD_REACTORS
330
2A
102
}
102
{ACAD_XDICTIONARY
360
12F
102
}
330
2A
100
AcDbVisualStyle
  2
Facepattern
 70
    15
 71
     2
 72
     2
 73
     0
 90
        0
 40
-0.6
 41
-30.0
 62
     5
 63
     7
421
 16777215
 74
     1
 91
        4
 64
     7
 65
   257
 75
     1
175
     1
 42
1.0
 92
        8
 66
     7
 43
1.0
 76
     1
 77
     6
 78
     2
 67
     7
 79
     5
170
     0
171
     0
290
     0
174
     0
 93
        1
 44
0.0
173
     0
291
     1
 45
0.0
  0
VISUALSTYLE
  5
2B
102
{ACAD_REACTORS
330
2A
102
}
102
{ACAD_XDICTIONARY
360
113
102
}
330
2A
100
AcDbVisualStyle
  2
Flat
 70
     0
 71
     2
 72
     1
 73
     1
 90
        2
 40
-0.6
 41
30.0
 62
     5
 63
     7
421
 16777215
 74
     0
 91
        4
 64
     7
 65
   257
 75
     1
175
     1
 42
1.0
 92
        8
 66
     7
 43
1.0
 76
     1
 77
     6
 78
     2
 67
     7
 79
     5
170
     0
171
     0
290
     0
174
     0
 93
       13
 44
0.0
173
     0
291
     1
 45
0.0
  0
VISUALSTYLE
  5
2C
102
{ACAD_REACTORS
330
2A
102
}
102
{ACAD_XDICTIONARY
360
115
102
}
330
2A
100
AcDbVisualStyle
  2
FlatWithEdges
 70
     1
 71
     2
 72
     1
 73
     1
 90
        2
 40
-0.6
 41
30.0
 62
     5
 63
     7
421
 16777215
 74
     1
 91
        4
 64
     7
 65
   257
 75
     1
175
     1
 42
1.0
 92
        0
 66
   257
 43
1.0
 76
     1
 77
     6
 78
     2
 67
     7
 79
     5
170
     0
171
     0
290
     0
174
     0
 93
       13
 44
0.0
173
     0
291
     1
 45
0.0
  0
VISUALSTYLE
  5
2D
102
{ACAD_REACTORS
330
2A
102
}
102
{ACAD_XDICTIONARY
360
117
102
}
330
2A
100
AcDbVisualStyle
  2
Gouraud
 70
     2
 71
     2
 72
     2
 73
     1
 90
        2
 40
-0.6
 41
30.0
 62
     5
 63
     7
421
 16777215
 74
     0
 91
        4
 64
     7
 65
   257
 75
     1
175
     1
 42
1.0
 92
        0
 66
     7
 43
1.0
 76
     1
 77
     6
 78
     2
 67
     7
 79
     5
170
     0
171
     0
290
     0
174
     0
 93
       13
 44
0.0
173
     0
291
     1
 45
0.0
  0
VISUALSTYLE
  5
2E
102
{ACAD_REACTORS
330
2A
102
}
102
{ACAD_XDICTIONARY
360
119
102
}
330
2A
100
AcDbVisualStyle
  2
GouraudWithEdges
 70
     3
 71
     2
 72
     2
 73
     1
 90
        2
 40
-0.6
 41
30.0
 62
     5
 63
     7
421
 16777215
 74
     1
 91
        4
 64
     7
 65
   257
 75
     1
175
     1
 42
1.0
 92
        0
 66
   257
 43
1.0
 76
     1
 77
     6
 78
     2
 67
     7
 79
     5
170
     0
171
     0
290
     0
174
     0
 93
       13
 44
0.0
173
     0
291
     1
 45
0.0
  0
VISUALSTYLE
  5
38
102
{ACAD_REACTORS
330
2A
102
}
102
{ACAD_XDICTIONARY
360
12D
102
}
330
2A
100
AcDbVisualStyle
  2
Linepattern
 70
    14
 71
     2
 72
     2
 73
     0
 90
        0
 40
-0.6
 41
-30.0
 62
     5
 63
     7
421
 16777215
 74
     1
 91
        4
 64
     7
 65
   257
 75
     7
175
     7
 42
1.0
 92
        8
 66
     7
 43
1.0
 76
     1
 77
     6
 78
     2
 67
     7
 79
     5
170
     0
171
     0
290
     0
174
     0
 93
        1
 44
0.0
173
     0
291
     1
 45
0.0
  0
VISUALSTYLE
  5
33
102
{ACAD_REACTORS
330
2A
102
}
102
{ACAD_XDICTIONARY
360
123
102
}
330
2A
100
AcDbVisualStyle
  2
Realistic
 70
     8
 71
     2
 72
     2
 73
     0
 90
        0
 40
-0.6
 41
-30.0
 62
     5
 63
     7
421
 16777215
 74
     1
 91
        0
 64
     7
 65
   257
 75
     1
175
     1
 42
1.0
 92
        8
 66
     8
424
  7895160
 43
1.0
 76
     1
 77
     6
 78
     2
 67
     7
 79
     5
170
     0
171
     0
290
     0
174
     0
 93
       13
 44
0.0
173
     0
291
     0
 45
0.0
  0
VISUALSTYLE
  5
37
102
{ACAD_REACTORS
330
2A
102
}
102
{ACAD_XDICTIONARY
360
12B
102
}
330
2A
100
AcDbVisualStyle
  2
Thicken
 70
    13
 71
     2
 72
     2
 73
     0
 90
        0
 40
-0.6
 41
-30.0
 62
     5
 63
     7
421
 16777215
 74
     1
 91
        4
 64
     7
 65
   257
 75
     1
175
     1
 42
1.0
 92
       12
 66
     7
 43
1.0
 76
     1
 77
     6
 78
     2
 67
     7
 79
     5
170
     0
171
     0
290
     0
174
     0
 93
        1
 44
0.0
173
     0
291
     1
 45
0.0
  0
DICTIONARY
  5
11B
330
2F
100
AcDbDictionary
280
     1
281
     1
  3
ACAD_XREC_ROUNDTRIP
360
11C
  0
DICTIONARY
  5
11F
330
31
100
AcDbDictionary
280
     1
281
     1
  3
ACAD_XREC_ROUNDTRIP
360
120
  0
DICTIONARY
  5
11D
330
30
100
AcDbDictionary
280
     1
281
     1
  3
ACAD_XREC_ROUNDTRIP
360
11E
  0
DICTIONARY
  5
121
330
32
100
AcDbDictionary
280
     1
281
     1
  3
ACAD_XREC_ROUNDTRIP
360
122
  0
DICTIONARY
  5
129
330
36
100
AcDbDictionary
280
     1
281
     1
  3
ACAD_XREC_ROUNDTRIP
360
12A
  0
DICTIONARY
  5
131
330
3A
100
AcDbDictionary
280
     1
281
     1
  3
ACAD_XREC_ROUNDTRIP
360
132
  0
DICTIONARY
  5
125
330
34
100
AcDbDictionary
280
     1
281
     1
  3
ACAD_XREC_ROUNDTRIP
360
126
  0
DICTIONARY
  5
127
330
35
100
AcDbDictionary
280
     1
281
     1
  3
ACAD_XREC_ROUNDTRIP
360
128
  0
DICTIONARY
  5
12F
330
39
100
AcDbDictionary
280
     1
281
     1
  3
ACAD_XREC_ROUNDTRIP
360
130
  0
DICTIONARY
  5
113
330
2B
100
AcDbDictionary
280
     1
281
     1
  3
ACAD_XREC_ROUNDTRIP
360
114
  0
DICTIONARY
  5
115
330
2C
100
AcDbDictionary
280
     1
281
     1
  3
ACAD_XREC_ROUNDTRIP
360
116
  0
DICTIONARY
  5
117
330
2D
100
AcDbDictionary
280
     1
281
     1
  3
ACAD_XREC_ROUNDTRIP
360
118
  0
DICTIONARY
  5
119
330
2E
100
AcDbDictionary
280
     1
281
     1
  3
ACAD_XREC_ROUNDTRIP
360
11A
  0
DICTIONARY
  5
12D
330
38
100
AcDbDictionary
280
     1
281
     1
  3
ACAD_XREC_ROUNDTRIP
360
12E
  0
DICTIONARY
  5
123
330
33
100
AcDbDictionary
280
     1
281
     1
  3
ACAD_XREC_ROUNDTRIP
360
124
  0
DICTIONARY
  5
12B
330
37
100
AcDbDictionary
280
     1
281
     1
  3
ACAD_XREC_ROUNDTRIP
360
12C
  0
XRECORD
  5
11C
102
{ACAD_REACTORS
330
11B
102
}
330
11B
100
AcDbXrecord
280
     1
102
RTVSPropertyOp0
 70
     1
102
RTVSPropertyOp1
 70
     1
102
RTVSPropertyOp2
 70
     1
102
RTVSPropertyOp3
 70
     1
102
RTVSPropertyOp4
 70
     1
102
RTVSPropertyOp5
 70
     1
102
RTVSPropertyOp6
 70
     1
102
RTVSPropertyOp7
 70
     1
102
RTVSPropertyOp8
 70
     1
102
RTVSPropertyOp9
 70
     1
102
RTVSPropertyOp10
 70
     1
102
RTVSPropertyOp11
 70
     1
102
RTVSPropertyOp12
 70
     1
102
RTVSPropertyOp13
 70
     1
102
RTVSPropertyOp14
 70
     1
102
RTVSPropertyOp15
 70
     1
102
RTVSPropertyOp16
 70
     1
102
RTVSPropertyOp17
 70
     1
102
RTVSPropertyOp18
 70
     1
102
RTVSPropertyOp19
 70
     1
102
RTVSPropertyOp20
 70
     1
102
RTVSPropertyOp21
 70
     1
102
RTVSPropertyOp22
 70
     1
102
RTVSPropertyOp23
 70
     1
102
RTVSPropertyOp24
 70
     1
102
RTVSPropertyOp25
 70
     1
102
RTVSPropertyOp26
 70
     1
102
RTVSPropertyOp27
 70
     1
102
RTVSPropertyOp28
 70
     1
102
RTVSPropertyOp29
 70
     1
102
RTVSPropertyOp30
 70
     1
102
RTVSPropertyOp31
 70
     1
102
RTVSPropertyOp32
 70
     1
  0
XRECORD
  5
120
102
{ACAD_REACTORS
330
11F
102
}
330
11F
100
AcDbXrecord
280
     1
102
RTVSPropertyOp0
 70
     1
102
RTVSPropertyOp1
 70
     1
102
RTVSPropertyOp2
 70
     1
102
RTVSPropertyOp3
 70
     1
102
RTVSPropertyOp4
 70
     1
102
RTVSPropertyOp5
 70
     1
102
RTVSPropertyOp6
 70
     1
102
RTVSPropertyOp7
 70
     1
102
RTVSPropertyOp8
 70
     1
102
RTVSPropertyOp9
 70
     1
102
RTVSPropertyOp10
 70
     1
102
RTVSPropertyOp11
 70
     1
102
RTVSPropertyOp12
 70
     1
102
RTVSPropertyOp13
 70
     1
102
RTVSPropertyOp14
 70
     1
102
RTVSPropertyOp15
 70
     1
102
RTVSPropertyOp16
 70
     1
102
RTVSPropertyOp17
 70
     1
102
RTVSPropertyOp18
 70
     1
102
RTVSPropertyOp19
 70
     1
102
RTVSPropertyOp20
 70
     1
102
RTVSPropertyOp21
 70
     1
102
RTVSPropertyOp22
 70
     1
102
RTVSPropertyOp23
 70
     1
102
RTVSPropertyOp24
 70
     1
102
RTVSPropertyOp25
 70
     1
102
RTVSPropertyOp26
 70
     1
102
RTVSPropertyOp27
 70
     1
102
RTVSPropertyOp28
 70
     1
102
RTVSPropertyOp29
 70
     1
102
RTVSPropertyOp30
 70
     1
102
RTVSPropertyOp31
 70
     1
102
RTVSPropertyOp32
 70
     1
  0
XRECORD
  5
11E
102
{ACAD_REACTORS
330
11D
102
}
330
11D
100
AcDbXrecord
280
     1
102
RTVSPropertyOp0
 70
     1
102
RTVSPropertyOp1
 70
     1
102
RTVSPropertyOp2
 70
     1
102
RTVSPropertyOp3
 70
     1
102
RTVSPropertyOp4
 70
     1
102
RTVSPropertyOp5
 70
     1
102
RTVSPropertyOp6
 70
     1
102
RTVSPropertyOp7
 70
     1
102
RTVSPropertyOp8
 70
     1
102
RTVSPropertyOp9
 70
     1
102
RTVSPropertyOp10
 70
     1
102
RTVSPropertyOp11
 70
     1
102
RTVSPropertyOp12
 70
     1
102
RTVSPropertyOp13
 70
     1
102
RTVSPropertyOp14
 70
     1
102
RTVSPropertyOp15
 70
     1
102
RTVSPropertyOp16
 70
     1
102
RTVSPropertyOp17
 70
     1
102
RTVSPropertyOp18
 70
     1
102
RTVSPropertyOp19
 70
     1
102
RTVSPropertyOp20
 70
     1
102
RTVSPropertyOp21
 70
     1
102
RTVSPropertyOp22
 70
     1
102
RTVSPropertyOp23
 70
     1
102
RTVSPropertyOp24
 70
     1
102
RTVSPropertyOp25
 70
     1
102
RTVSPropertyOp26
 70
     1
102
RTVSPropertyOp27
 70
     1
102
RTVSPropertyOp28
 70
     1
102
RTVSPropertyOp29
 70
     1
102
RTVSPropertyOp30
 70
     1
102
RTVSPropertyOp31
 70
     1
102
RTVSPropertyOp32
 70
     1
  0
XRECORD
  5
122
102
{ACAD_REACTORS
330
121
102
}
330
121
100
AcDbXrecord
280
     1
102
RTVSPropertyOp0
 70
     1
102
RTVSPropertyOp1
 70
     1
102
RTVSPropertyOp2
 70
     1
102
RTVSPropertyOp3
 70
     1
102
RTVSPropertyOp4
 70
     1
102
RTVSPropertyOp5
 70
     1
102
RTVSPropertyOp6
 70
     1
102
RTVSPropertyOp7
 70
     1
102
RTVSPropertyOp8
 70
     1
102
RTVSPropertyOp9
 70
     1
102
RTVSPropertyOp10
 70
     1
102
RTVSPropertyOp11
 70
     1
102
RTVSPropertyOp12
 70
     1
102
RTVSPropertyOp13
 70
     1
102
RTVSPropertyOp14
 70
     1
102
RTVSPropertyOp15
 70
     1
102
RTVSPropertyOp16
 70
     1
102
RTVSPropertyOp17
 70
     1
102
RTVSPropertyOp18
 70
     1
102
RTVSPropertyOp19
 70
     1
102
RTVSPropertyOp20
 70
     1
102
RTVSPropertyOp21
 70
     1
102
RTVSPropertyOp22
 70
     1
102
RTVSPropertyOp23
 70
     1
102
RTVSPropertyOp24
 70
     1
102
RTVSPropertyOp25
 70
     1
102
RTVSPropertyOp26
 70
     1
102
RTVSPropertyOp27
 70
     1
102
RTVSPropertyOp28
 70
     1
102
RTVSPropertyOp29
 70
     1
102
RTVSPropertyOp30
 70
     1
102
RTVSPropertyOp31
 70
     1
102
RTVSPropertyOp32
 70
     1
  0
XRECORD
  5
12A
102
{ACAD_REACTORS
330
129
102
}
330
129
100
AcDbXrecord
280
     1
102
RTVSPropertyOp0
 70
     1
102
RTVSPropertyOp1
 70
     1
102
RTVSPropertyOp2
 70
     1
102
RTVSPropertyOp3
 70
     1
102
RTVSPropertyOp4
 70
     1
102
RTVSPropertyOp5
 70
     1
102
RTVSPropertyOp6
 70
     1
102
RTVSPropertyOp7
 70
     1
102
RTVSPropertyOp8
 70
     1
102
RTVSPropertyOp9
 70
     1
102
RTVSPropertyOp10
 70
     1
102
RTVSPropertyOp11
 70
     1
102
RTVSPropertyOp12
 70
     1
102
RTVSPropertyOp13
 70
     1
102
RTVSPropertyOp14
 70
     1
102
RTVSPropertyOp15
 70
     1
102
RTVSPropertyOp16
 70
     1
102
RTVSPropertyOp17
 70
     1
102
RTVSPropertyOp18
 70
     1
102
RTVSPropertyOp19
 70
     1
102
RTVSPropertyOp20
 70
     1
102
RTVSPropertyOp21
 70
     1
102
RTVSPropertyOp22
 70
     1
102
RTVSPropertyOp23
 70
     1
102
RTVSPropertyOp24
 70
     1
102
RTVSPropertyOp25
 70
     1
102
RTVSPropertyOp26
 70
     1
102
RTVSPropertyOp27
 70
     1
102
RTVSPropertyOp28
 70
     1
102
RTVSPropertyOp29
 70
     1
102
RTVSPropertyOp30
 70
     1
102
RTVSPropertyOp31
 70
     1
102
RTVSPropertyOp32
 70
     1
  0
XRECORD
  5
132
102
{ACAD_REACTORS
330
131
102
}
330
131
100
AcDbXrecord
280
     1
102
RTVSPropertyOp0
 70
     1
102
RTVSPropertyOp1
 70
     1
102
RTVSPropertyOp2
 70
     1
102
RTVSPropertyOp3
 70
     1
102
RTVSPropertyOp4
 70
     1
102
RTVSPropertyOp5
 70
     1
102
RTVSPropertyOp6
 70
     1
102
RTVSPropertyOp7
 70
     1
102
RTVSPropertyOp8
 70
     1
102
RTVSPropertyOp9
 70
     1
102
RTVSPropertyOp10
 70
     1
102
RTVSPropertyOp11
 70
     1
102
RTVSPropertyOp12
 70
     1
102
RTVSPropertyOp13
 70
     1
102
RTVSPropertyOp14
 70
     1
102
RTVSPropertyOp15
 70
     1
102
RTVSPropertyOp16
 70
     1
102
RTVSPropertyOp17
 70
     1
102
RTVSPropertyOp18
 70
     1
102
RTVSPropertyOp19
 70
     1
102
RTVSPropertyOp20
 70
     1
102
RTVSPropertyOp21
 70
     1
102
RTVSPropertyOp22
 70
     1
102
RTVSPropertyOp23
 70
     1
102
RTVSPropertyOp24
 70
     1
102
RTVSPropertyOp25
 70
     1
102
RTVSPropertyOp26
 70
     1
102
RTVSPropertyOp27
 70
     1
102
RTVSPropertyOp28
 70
     1
102
RTVSPropertyOp29
 70
     1
102
RTVSPropertyOp30
 70
     1
102
RTVSPropertyOp31
 70
     1
102
RTVSPropertyOp32
 70
     1
  0
XRECORD
  5
126
102
{ACAD_REACTORS
330
125
102
}
330
125
100
AcDbXrecord
280
     1
102
RTVSPropertyOp0
 70
     1
102
RTVSPropertyOp1
 70
     1
102
RTVSPropertyOp2
 70
     1
102
RTVSPropertyOp3
 70
     1
102
RTVSPropertyOp4
 70
     1
102
RTVSPropertyOp5
 70
     1
102
RTVSPropertyOp6
 70
     1
102
RTVSPropertyOp7
 70
     1
102
RTVSPropertyOp8
 70
     1
102
RTVSPropertyOp9
 70
     1
102
RTVSPropertyOp10
 70
     1
102
RTVSPropertyOp11
 70
     1
102
RTVSPropertyOp12
 70
     1
102
RTVSPropertyOp13
 70
     1
102
RTVSPropertyOp14
 70
     1
102
RTVSPropertyOp15
 70
     1
102
RTVSPropertyOp16
 70
     1
102
RTVSPropertyOp17
 70
     1
102
RTVSPropertyOp18
 70
     1
102
RTVSPropertyOp19
 70
     1
102
RTVSPropertyOp20
 70
     1
102
RTVSPropertyOp21
 70
     1
102
RTVSPropertyOp22
 70
     1
102
RTVSPropertyOp23
 70
     1
102
RTVSPropertyOp24
 70
     1
102
RTVSPropertyOp25
 70
     1
102
RTVSPropertyOp26
 70
     1
102
RTVSPropertyOp27
 70
     1
102
RTVSPropertyOp28
 70
     1
102
RTVSPropertyOp29
 70
     1
102
RTVSPropertyOp30
 70
     1
102
RTVSPropertyOp31
 70
     1
102
RTVSPropertyOp32
 70
     1
  0
XRECORD
  5
128
102
{ACAD_REACTORS
330
127
102
}
330
127
100
AcDbXrecord
280
     1
102
RTVSPropertyOp0
 70
     1
102
RTVSPropertyOp1
 70
     1
102
RTVSPropertyOp2
 70
     1
102
RTVSPropertyOp3
 70
     1
102
RTVSPropertyOp4
 70
     1
102
RTVSPropertyOp5
 70
     1
102
RTVSPropertyOp6
 70
     1
102
RTVSPropertyOp7
 70
     1
102
RTVSPropertyOp8
 70
     1
102
RTVSPropertyOp9
 70
     1
102
RTVSPropertyOp10
 70
     1
102
RTVSPropertyOp11
 70
     1
102
RTVSPropertyOp12
 70
     1
102
RTVSPropertyOp13
 70
     1
102
RTVSPropertyOp14
 70
     1
102
RTVSPropertyOp15
 70
     1
102
RTVSPropertyOp16
 70
     1
102
RTVSPropertyOp17
 70
     1
102
RTVSPropertyOp18
 70
     1
102
RTVSPropertyOp19
 70
     1
102
RTVSPropertyOp20
 70
     1
102
RTVSPropertyOp21
 70
     1
102
RTVSPropertyOp22
 70
     1
102
RTVSPropertyOp23
 70
     1
102
RTVSPropertyOp24
 70
     1
102
RTVSPropertyOp25
 70
     1
102
RTVSPropertyOp26
 70
     1
102
RTVSPropertyOp27
 70
     1
102
RTVSPropertyOp28
 70
     1
102
RTVSPropertyOp29
 70
     1
102
RTVSPropertyOp30
 70
     1
102
RTVSPropertyOp31
 70
     1
102
RTVSPropertyOp32
 70
     1
  0
XRECORD
  5
130
102
{ACAD_REACTORS
330
12F
102
}
330
12F
100
AcDbXrecord
280
     1
102
RTVSPropertyOp0
 70
     1
102
RTVSPropertyOp1
 70
     1
102
RTVSPropertyOp2
 70
     1
102
RTVSPropertyOp3
 70
     1
102
RTVSPropertyOp4
 70
     1
102
RTVSPropertyOp5
 70
     1
102
RTVSPropertyOp6
 70
     1
102
RTVSPropertyOp7
 70
     1
102
RTVSPropertyOp8
 70
     1
102
RTVSPropertyOp9
 70
     1
102
RTVSPropertyOp10
 70
     1
102
RTVSPropertyOp11
 70
     1
102
RTVSPropertyOp12
 70
     1
102
RTVSPropertyOp13
 70
     1
102
RTVSPropertyOp14
 70
     1
102
RTVSPropertyOp15
 70
     1
102
RTVSPropertyOp16
 70
     1
102
RTVSPropertyOp17
 70
     1
102
RTVSPropertyOp18
 70
     1
102
RTVSPropertyOp19
 70
     1
102
RTVSPropertyOp20
 70
     1
102
RTVSPropertyOp21
 70
     1
102
RTVSPropertyOp22
 70
     1
102
RTVSPropertyOp23
 70
     1
102
RTVSPropertyOp24
 70
     1
102
RTVSPropertyOp25
 70
     1
102
RTVSPropertyOp26
 70
     1
102
RTVSPropertyOp27
 70
     1
102
RTVSPropertyOp28
 70
     1
102
RTVSPropertyOp29
 70
     1
102
RTVSPropertyOp30
 70
     1
102
RTVSPropertyOp31
 70
     1
102
RTVSPropertyOp32
 70
     1
  0
XRECORD
  5
114
102
{ACAD_REACTORS
330
113
102
}
330
113
100
AcDbXrecord
280
     1
102
RTVSPropertyOp0
 70
     1
102
RTVSPropertyOp1
 70
     1
102
RTVSPropertyOp2
 70
     1
102
RTVSPropertyOp3
 70
     1
102
RTVSPropertyOp4
 70
     1
102
RTVSPropertyOp5
 70
     1
102
RTVSPropertyOp6
 70
     1
102
RTVSPropertyOp7
 70
     1
102
RTVSPropertyOp8
 70
     1
102
RTVSPropertyOp9
 70
     1
102
RTVSPropertyOp10
 70
     1
102
RTVSPropertyOp11
 70
     1
102
RTVSPropertyOp12
 70
     1
102
RTVSPropertyOp13
 70
     1
102
RTVSPropertyOp14
 70
     1
102
RTVSPropertyOp15
 70
     1
102
RTVSPropertyOp16
 70
     1
102
RTVSPropertyOp17
 70
     1
102
RTVSPropertyOp18
 70
     1
102
RTVSPropertyOp19
 70
     1
102
RTVSPropertyOp20
 70
     1
102
RTVSPropertyOp21
 70
     1
102
RTVSPropertyOp22
 70
     1
102
RTVSPropertyOp23
 70
     1
102
RTVSPropertyOp24
 70
     1
102
RTVSPropertyOp25
 70
     1
102
RTVSPropertyOp26
 70
     1
102
RTVSPropertyOp27
 70
     1
102
RTVSPropertyOp28
 70
     1
102
RTVSPropertyOp29
 70
     1
102
RTVSPropertyOp30
 70
     1
102
RTVSPropertyOp31
 70
     1
102
RTVSPropertyOp32
 70
     1
  0
XRECORD
  5
116
102
{ACAD_REACTORS
330
115
102
}
330
115
100
AcDbXrecord
280
     1
102
RTVSPropertyOp0
 70
     1
102
RTVSPropertyOp1
 70
     1
102
RTVSPropertyOp2
 70
     1
102
RTVSPropertyOp3
 70
     1
102
RTVSPropertyOp4
 70
     1
102
RTVSPropertyOp5
 70
     1
102
RTVSPropertyOp6
 70
     1
102
RTVSPropertyOp7
 70
     1
102
RTVSPropertyOp8
 70
     1
102
RTVSPropertyOp9
 70
     1
102
RTVSPropertyOp10
 70
     1
102
RTVSPropertyOp11
 70
     1
102
RTVSPropertyOp12
 70
     1
102
RTVSPropertyOp13
 70
     1
102
RTVSPropertyOp14
 70
     1
102
RTVSPropertyOp15
 70
     1
102
RTVSPropertyOp16
 70
     1
102
RTVSPropertyOp17
 70
     1
102
RTVSPropertyOp18
 70
     1
102
RTVSPropertyOp19
 70
     1
102
RTVSPropertyOp20
 70
     1
102
RTVSPropertyOp21
 70
     1
102
RTVSPropertyOp22
 70
     1
102
RTVSPropertyOp23
 70
     1
102
RTVSPropertyOp24
 70
     1
102
RTVSPropertyOp25
 70
     1
102
RTVSPropertyOp26
 70
     1
102
RTVSPropertyOp27
 70
     1
102
RTVSPropertyOp28
 70
     1
102
RTVSPropertyOp29
 70
     1
102
RTVSPropertyOp30
 70
     1
102
RTVSPropertyOp31
 70
     1
102
RTVSPropertyOp32
 70
     1
  0
XRECORD
  5
118
102
{ACAD_REACTORS
330
117
102
}
330
117
100
AcDbXrecord
280
     1
102
RTVSPropertyOp0
 70
     1
102
RTVSPropertyOp1
 70
     1
102
RTVSPropertyOp2
 70
     1
102
RTVSPropertyOp3
 70
     1
102
RTVSPropertyOp4
 70
     1
102
RTVSPropertyOp5
 70
     1
102
RTVSPropertyOp6
 70
     1
102
RTVSPropertyOp7
 70
     1
102
RTVSPropertyOp8
 70
     1
102
RTVSPropertyOp9
 70
     1
102
RTVSPropertyOp10
 70
     1
102
RTVSPropertyOp11
 70
     1
102
RTVSPropertyOp12
 70
     1
102
RTVSPropertyOp13
 70
     1
102
RTVSPropertyOp14
 70
     1
102
RTVSPropertyOp15
 70
     1
102
RTVSPropertyOp16
 70
     1
102
RTVSPropertyOp17
 70
     1
102
RTVSPropertyOp18
 70
     1
102
RTVSPropertyOp19
 70
     1
102
RTVSPropertyOp20
 70
     1
102
RTVSPropertyOp21
 70
     1
102
RTVSPropertyOp22
 70
     1
102
RTVSPropertyOp23
 70
     1
102
RTVSPropertyOp24
 70
     1
102
RTVSPropertyOp25
 70
     1
102
RTVSPropertyOp26
 70
     1
102
RTVSPropertyOp27
 70
     1
102
RTVSPropertyOp28
 70
     1
102
RTVSPropertyOp29
 70
     1
102
RTVSPropertyOp30
 70
     1
102
RTVSPropertyOp31
 70
     1
102
RTVSPropertyOp32
 70
     1
  0
XRECORD
  5
11A
102
{ACAD_REACTORS
330
119
102
}
330
119
100
AcDbXrecord
280
     1
102
RTVSPropertyOp0
 70
     1
102
RTVSPropertyOp1
 70
     1
102
RTVSPropertyOp2
 70
     1
102
RTVSPropertyOp3
 70
     1
102
RTVSPropertyOp4
 70
     1
102
RTVSPropertyOp5
 70
     1
102
RTVSPropertyOp6
 70
     1
102
RTVSPropertyOp7
 70
     1
102
RTVSPropertyOp8
 70
     1
102
RTVSPropertyOp9
 70
     1
102
RTVSPropertyOp10
 70
     1
102
RTVSPropertyOp11
 70
     1
102
RTVSPropertyOp12
 70
     1
102
RTVSPropertyOp13
 70
     1
102
RTVSPropertyOp14
 70
     1
102
RTVSPropertyOp15
 70
     1
102
RTVSPropertyOp16
 70
     1
102
RTVSPropertyOp17
 70
     1
102
RTVSPropertyOp18
 70
     1
102
RTVSPropertyOp19
 70
     1
102
RTVSPropertyOp20
 70
     1
102
RTVSPropertyOp21
 70
     1
102
RTVSPropertyOp22
 70
     1
102
RTVSPropertyOp23
 70
     1
102
RTVSPropertyOp24
 70
     1
102
RTVSPropertyOp25
 70
     1
102
RTVSPropertyOp26
 70
     1
102
RTVSPropertyOp27
 70
     1
102
RTVSPropertyOp28
 70
     1
102
RTVSPropertyOp29
 70
     1
102
RTVSPropertyOp30
 70
     1
102
RTVSPropertyOp31
 70
     1
102
RTVSPropertyOp32
 70
     1
  0
XRECORD
  5
12E
102
{ACAD_REACTORS
330
12D
102
}
330
12D
100
AcDbXrecord
280
     1
102
RTVSPropertyOp0
 70
     1
102
RTVSPropertyOp1
 70
     1
102
RTVSPropertyOp2
 70
     1
102
RTVSPropertyOp3
 70
     1
102
RTVSPropertyOp4
 70
     1
102
RTVSPropertyOp5
 70
     1
102
RTVSPropertyOp6
 70
     1
102
RTVSPropertyOp7
 70
     1
102
RTVSPropertyOp8
 70
     1
102
RTVSPropertyOp9
 70
     1
102
RTVSPropertyOp10
 70
     1
102
RTVSPropertyOp11
 70
     1
102
RTVSPropertyOp12
 70
     1
102
RTVSPropertyOp13
 70
     1
102
RTVSPropertyOp14
 70
     1
102
RTVSPropertyOp15
 70
     1
102
RTVSPropertyOp16
 70
     1
102
RTVSPropertyOp17
 70
     1
102
RTVSPropertyOp18
 70
     1
102
RTVSPropertyOp19
 70
     1
102
RTVSPropertyOp20
 70
     1
102
RTVSPropertyOp21
 70
     1
102
RTVSPropertyOp22
 70
     1
102
RTVSPropertyOp23
 70
     1
102
RTVSPropertyOp24
 70
     1
102
RTVSPropertyOp25
 70
     1
102
RTVSPropertyOp26
 70
     1
102
RTVSPropertyOp27
 70
     1
102
RTVSPropertyOp28
 70
     1
102
RTVSPropertyOp29
 70
     1
102
RTVSPropertyOp30
 70
     1
102
RTVSPropertyOp31
 70
     1
102
RTVSPropertyOp32
 70
     1
  0
XRECORD
  5
124
102
{ACAD_REACTORS
330
123
102
}
330
123
100
AcDbXrecord
280
     1
102
RTVSPropertyOp0
 70
     1
102
RTVSPropertyOp1
 70
     1
102
RTVSPropertyOp2
 70
     1
102
RTVSPropertyOp3
 70
     1
102
RTVSPropertyOp4
 70
     1
102
RTVSPropertyOp5
 70
     1
102
RTVSPropertyOp6
 70
     1
102
RTVSPropertyOp7
 70
     1
102
RTVSPropertyOp8
 70
     1
102
RTVSPropertyOp9
 70
     1
102
RTVSPropertyOp10
 70
     1
102
RTVSPropertyOp11
 70
     1
102
RTVSPropertyOp12
 70
     1
102
RTVSPropertyOp13
 70
     1
102
RTVSPropertyOp14
 70
     1
102
RTVSPropertyOp15
 70
     1
102
RTVSPropertyOp16
 70
     1
102
RTVSPropertyOp17
 70
     1
102
RTVSPropertyOp18
 70
     1
102
RTVSPropertyOp19
 70
     1
102
RTVSPropertyOp20
 70
     1
102
RTVSPropertyOp21
 70
     1
102
RTVSPropertyOp22
 70
     1
102
RTVSPropertyOp23
 70
     1
102
RTVSPropertyOp24
 70
     1
102
RTVSPropertyOp25
 70
     1
102
RTVSPropertyOp26
 70
     1
102
RTVSPropertyOp27
 70
     1
102
RTVSPropertyOp28
 70
     1
102
RTVSPropertyOp29
 70
     1
102
RTVSPropertyOp30
 70
     1
102
RTVSPropertyOp31
 70
     1
102
RTVSPropertyOp32
 70
     1
  0
XRECORD
  5
12C
102
{ACAD_REACTORS
330
12B
102
}
330
12B
100
AcDbXrecord
280
     1
102
RTVSPropertyOp0
 70
     1
102
RTVSPropertyOp1
 70
     1
102
RTVSPropertyOp2
 70
     1
102
RTVSPropertyOp3
 70
     1
102
RTVSPropertyOp4
 70
     1
102
RTVSPropertyOp5
 70
     1
102
RTVSPropertyOp6
 70
     1
102
RTVSPropertyOp7
 70
     1
102
RTVSPropertyOp8
 70
     1
102
RTVSPropertyOp9
 70
     1
102
RTVSPropertyOp10
 70
     1
102
RTVSPropertyOp11
 70
     1
102
RTVSPropertyOp12
 70
     1
102
RTVSPropertyOp13
 70
     1
102
RTVSPropertyOp14
 70
     1
102
RTVSPropertyOp15
 70
     1
102
RTVSPropertyOp16
 70
     1
102
RTVSPropertyOp17
 70
     1
102
RTVSPropertyOp18
 70
     1
102
RTVSPropertyOp19
 70
     1
102
RTVSPropertyOp20
 70
     1
102
RTVSPropertyOp21
 70
     1
102
RTVSPropertyOp22
 70
     1
102
RTVSPropertyOp23
 70
     1
102
RTVSPropertyOp24
 70
     1
102
RTVSPropertyOp25
 70
     1
102
RTVSPropertyOp26
 70
     1
102
RTVSPropertyOp27
 70
     1
102
RTVSPropertyOp28
 70
     1
102
RTVSPropertyOp29
 70
     1
102
RTVSPropertyOp30
 70
     1
102
RTVSPropertyOp31
 70
     1
102
RTVSPropertyOp32
 70
     1
  0
ENDSEC
  0
EOF
