  0
SECTION
  2
HEADER
  9
$ACADVER
  1
AC1021
  9
$ACADMAINTVER
 70
    25
  9
$DWGCODEPAGE
  3
ANSI_1252
  9
$INSBASE
 10
0.0
 20
0.0
 30
0.0
  9
$EXTMIN
 10
-188.1509
 20
-100.4462
 30
0.0
  9
$EXTMAX
 10
22.5921
 20
115.9737
 30
0.0
  9
$LIMMIN
 10
0.0
 20
0.0
  9
$LIMMAX
 10
12.0
 20
9.0
  9
$ORTHOMODE
 70
     0
  9
$REGENMODE
 70
     1
  9
$FILLMODE
 70
     1
  9
$QTEXTMODE
 70
     0
  9
$MIRRTEXT
 70
     1
  9
$LTSCALE
 40
1.0
  9
$ATTMODE
 70
     1
  9
$TEXTSIZE
 40
0.2
  9
$TRACEWID
 40
0.05
  9
$TEXTSTYLE
  7
Standard
  9
$CLAYER
  8
0
  9
$CELTYPE
  6
ByLayer
  9
$CECOLOR
 62
   256
  9
$CELTSCALE
 40
1.0
  9
$DISPSILH
 70
     0
  9
$DIMSCALE
 40
1.0
  9
$DIMASZ
 40
0.18
  9
$DIMEXO
 40
0.0625
  9
$DIMDLI
 40
0.38
  9
$DIMRND
 40
0.0
  9
$DIMDLE
 40
0.0
  9
$DIMEXE
 40
0.18
  9
$DIMTP
 40
0.0
  9
$DIMTM
 40
0.0
  9
$DIMTXT
 40
0.18
  9
$DIMCEN
 40
0.09
  9
$DIMTSZ
 40
0.0
  9
$DIMTOL
 70
     0
  9
$DIMLIM
 70
     0
  9
$DIMTIH
 70
     1
  9
$DIMTOH
 70
     1
  9
$DIMSE1
 70
     0
  9
$DIMSE2
 70
     0
  9
$DIMTAD
 70
     0
  9
$DIMZIN
 70
     0
  9
$DIMBLK
  1

  9
$DIMASO
 70
     1
  9
$DIMSHO
 70
     1
  9
$DIMPOST
  1

  9
$DIMAPOST
  1

  9
$DIMALT
 70
     0
  9
$DIMALTD
 70
     2
  9
$DIMALTF
 40
25.4
  9
$DIMLFAC
 40
1.0
  9
$DIMTOFL
 70
     0
  9
$DIMTVP
 40
0.0
  9
$DIMTIX
 70
     0
  9
$DIMSOXD
 70
     0
  9
$DIMSAH
 70
     0
  9
$DIMBLK1
  1

  9
$DIMBLK2
  1

  9
$DIMSTYLE
  2
Standard
  9
$DIMCLRD
 70
     0
  9
$DIMCLRE
 70
     0
  9
$DIMCLRT
 70
     0
  9
$DIMTFAC
 40
1.0
  9
$DIMGAP
 40
0.09
  9
$DIMJUST
 70
     0
  9
$DIMSD1
 70
     0
  9
$DIMSD2
 70
     0
  9
$DIMTOLJ
 70
     1
  9
$DIMTZIN
 70
     0
  9
$DIMALTZ
 70
     0
  9
$DIMALTTZ
 70
     0
  9
$DIMUPT
 70
     0
  9
$DIMDEC
 70
     4
  9
$DIMTDEC
 70
     4
  9
$DIMALTU
 70
     2
  9
$DIMALTTD
 70
     2
  9
$DIMTXSTY
  7
Standard
  9
$DIMAUNIT
 70
     0
  9
$DIMADEC
 70
     0
  9
$DIMALTRND
 40
0.0
  9
$DIMAZIN
 70
     0
  9
$DIMDSEP
 70
    46
  9
$DIMATFIT
 70
     3
  9
$DIMFRAC
 70
     0
  9
$DIMLDRBLK
  1

  9
$DIMLUNIT
 70
     2
  9
$DIMLWD
 70
    -2
  9
$DIMLWE
 70
    -2
  9
$DIMTMOVE
 70
     0
  9
$DIMFXL
 40
1.0
  9
$DIMFXLON
 70
     0
  9
$DIMJOGANG
 40
0.7853981633974483
  9
$DIMTFILL
 70
     0
  9
$DIMTFILLCLR
 70
     0
  9
$DIMARCSYM
 70
     0
  9
$DIMLTYPE
  6

  9
$DIMLTEX1
  6

  9
$DIMLTEX2
  6

  9
$LUNITS
 70
     2
  9
$LUPREC
 70
     4
  9
$SKETCHINC
 40
0.1
  9
$FILLETRAD
 40
0.5
  9
$AUNITS
 70
     0
  9
$AUPREC
 70
     0
  9
$MENU
  1
.
  9
$ELEVATION
 40
0.0
  9
$PELEVATION
 40
0.0
  9
$THICKNESS
 40
0.0
  9
$LIMCHECK
 70
     0
  9
$CHAMFERA
 40
0.5
  9
$CHAMFERB
 40
0.5
  9
$CHAMFERC
 40
1.0
  9
$CHAMFERD
 40
0.0
  9
$SKPOLY
 70
     0
  9
$TDCREATE
 40
2458492.805622778
  9
$TDUCREATE
 40
2458492.805622778
  9
$TDUPDATE
 40
2458492.80562309
  9
$TDUUPDATE
 40
2458492.80562309
  9
$TDINDWG
 40
0.0000000116
  9
$TDUSRTIMER
 40
0.0000000116
  9
$USRTIMER
 70
     1
  9
$ANGBASE
 50
0.0
  9
$ANGDIR
 70
     0
  9
$PDMODE
 70
     0
  9
$PDSIZE
 40
0.0
  9
$PLINEWID
 40
0.0
  9
$SPLFRAME
 70
     0
  9
$SPLINETYPE
 70
     6
  9
$SPLINESEGS
 70
     8
  9
$HANDSEED
  5
A4
  9
$SURFTAB1
 70
     6
  9
$SURFTAB2
 70
     6
  9
$SURFTYPE
 70
     6
  9
$SURFU
 70
     6
  9
$SURFV
 70
     6
  9
$UCSBASE
  2

  9
$UCSNAME
  2

  9
$UCSORG
 10
0.0
 20
0.0
 30
0.0
  9
$UCSXDIR
 10
1.0
 20
0.0
 30
0.0
  9
$UCSYDIR
 10
0.0
 20
1.0
 30
0.0
  9
$UCSORTHOREF
  2

  9
$UCSORTHOVIEW
 70
     0
  9
$UCSORGTOP
 10
0.0
 20
0.0
 30
0.0
  9
$UCSORGBOTTOM
 10
0.0
 20
0.0
 30
0.0
  9
$UCSORGLEFT
 10
0.0
 20
0.0
 30
0.0
  9
$UCSORGRIGHT
 10
0.0
 20
0.0
 30
0.0
  9
$UCSORGFRONT
 10
0.0
 20
0.0
 30
0.0
  9
$UCSORGBACK
 10
0.0
 20
0.0
 30
0.0
  9
$PUCSBASE
  2

  9
$PUCSNAME
  2

  9
$PUCSORG
 10
0.0
 20
0.0
 30
0.0
  9
$PUCSXDIR
 10
1.0
 20
0.0
 30
0.0
  9
$PUCSYDIR
 10
0.0
 20
1.0
 30
0.0
  9
$PUCSORTHOREF
  2

  9
$PUCSORTHOVIEW
 70
     0
  9
$PUCSORGTOP
 10
0.0
 20
0.0
 30
0.0
  9
$PUCSORGBOTTOM
 10
0.0
 20
0.0
 30
0.0
  9
$PUCSORGLEFT
 10
0.0
 20
0.0
 30
0.0
  9
$PUCSORGRIGHT
 10
0.0
 20
0.0
 30
0.0
  9
$PUCSORGFRONT
 10
0.0
 20
0.0
 30
0.0
  9
$PUCSORGBACK
 10
0.0
 20
0.0
 30
0.0
  9
$USERI1
 70
     0
  9
$USERI2
 70
     0
  9
$USERI3
 70
     0
  9
$USERI4
 70
     0
  9
$USERI5
 70
     0
  9
$USERR1
 40
0.0
  9
$USERR2
 40
0.0
  9
$USERR3
 40
0.0
  9
$USERR4
 40
0.0
  9
$USERR5
 40
0.0
  9
$WORLDVIEW
 70
     1
  9
$SHADEDGE
 70
     3
  9
$SHADEDIF
 70
    70
  9
$TILEMODE
 70
     1
  9
$MAXACTVP
 70
    64
  9
$PINSBASE
 10
0.0
 20
0.0
 30
0.0
  9
$PLIMCHECK
 70
     0
  9
$PEXTMIN
 10
1.000000000000000E+20
 20
1.000000000000000E+20
 30
1.000000000000000E+20
  9
$PEXTMAX
 10
-1.000000000000000E+20
 20
-1.000000000000000E+20
 30
-1.000000000000000E+20
  9
$PLIMMIN
 10
0.0
 20
0.0
  9
$PLIMMAX
 10
12.0
 20
9.0
  9
$UNITMODE
 70
     0
  9
$VISRETAIN
 70
     1
  9
$PLINEGEN
 70
     0
  9
$PSLTSCALE
 70
     1
  9
$TREEDEPTH
 70
  3020
  9
$CMLSTYLE
  2
Standard
  9
$CMLJUST
 70
     0
  9
$CMLSCALE
 40
1.0
  9
$PROXYGRAPHICS
 70
     1
  9
$MEASUREMENT
 70
     0
  9
$CELWEIGHT
370
    -1
  9
$ENDCAPS
280
     0
  9
$JOINSTYLE
280
     0
  9
$LWDISPLAY
290
     0
  9
$INSUNITS
 70
     4
  9
$HYPERLINKBASE
  1

  9
$STYLESHEET
  1

  9
$XEDIT
290
     1
  9
$CEPSNTYPE
380
     0
  9
$PSTYLEMODE
290
     1
  9
$FINGERPRINTGUID
  2
{2BB3D965-07AA-4E34-ADD0-D47871B88877}
  9
$VERSIONGUID
  2
{FAEB1C32-E019-11D5-929B-00C0DF256EC4}
  9
$EXTNAMES
290
     1
  9
$PSVPSCALE
 40
0.0
  9
$OLESTARTUP
290
     0
  9
$SORTENTS
280
   127
  9
$INDEXCTL
280
     0
  9
$HIDETEXT
280
     1
  9
$XCLIPFRAME
290
     0
  9
$HALOGAP
280
     0
  9
$OBSCOLOR
 70
   257
  9
$OBSLTYPE
280
     0
  9
$INTERSECTIONDISPLAY
280
     0
  9
$INTERSECTIONCOLOR
 70
   257
  9
$DIMASSOC
280
     2
  9
$PROJECTNAME
  1

  9
$CAMERADISPLAY
290
     0
  9
$LENSLENGTH
 40
50.0
  9
$CAMERAHEIGHT
 40
0.0
  9
$STEPSPERSEC
 40
2.0
  9
$STEPSIZE
 40
6.0
  9
$3DDWFPREC
 40
2.0
  9
$PSOLWIDTH
 40
0.25
  9
$PSOLHEIGHT
 40
4.0
  9
$LOFTANG1
 40
1.570796326794897
  9
$LOFTANG2
 40
1.570796326794897
  9
$LOFTMAG1
 40
0.0
  9
$LOFTMAG2
 40
0.0
  9
$LOFTPARAM
 70
     7
  9
$LOFTNORMALS
280
     1
  9
$LATITUDE
 40
37.795
  9
$LONGITUDE
 40
-122.394
  9
$NORTHDIRECTION
 40
0.0
  9
$TIMEZONE
 70
 -8000
  9
$LIGHTGLYPHDISPLAY
280
     1
  9
$TILEMODELIGHTSYNCH
280
     1
  9
$SOLIDHIST
280
     1
  9
$SHOWHIST
280
     1
  9
$DWFFRAME
280
     2
  9
$DGNFRAME
280
     2
  9
$REALWORLDSCALE
290
     1
  9
$INTERFERECOLOR
 62
   256
  9
$CSHADOW
280
     0
  9
$SHADOWPLANELOCATION
 40
0.0
  0
ENDSEC
  0
SECTION
  2
CLASSES
  0
CLASS
  1
ACDBDICTIONARYWDFLT
  2
AcDbDictionaryWithDefault
  3
ObjectDBX Classes
 90
        0
 91
        4
280
     0
281
     0
  0
CLASS
  1
VISUALSTYLE
  2
AcDbVisualStyle
  3
ObjectDBX Classes
 90
     4095
 91
        4
280
     0
281
     0
  0
CLASS
  1
MATERIAL
  2
AcDbMaterial
  3
ObjectDBX Classes
 90
     1153
 91
        4
280
     0
281
     0
  0
ENDSEC
  0
SECTION
  2
TABLES
  0
TABLE
  2
VPORT
  5
8
330
0
100
AcDbSymbolTable
 70
     1
  0
VPORT
  5
29
330
8
100
AcDbSymbolTableRecord
100
AcDbViewportTableRecord
  2
*Active
 70
     0
 10
0.0
 20
0.0
 11
1.0
 21
1.0
 12
10.42990654205607
 22
4.5
 13
0.0
 23
0.0
 14
0.5
 24
0.5
 15
0.5
 25
0.5
 16
0.0
 26
0.0
 36
1.0
 17
0.0
 27
0.0
 37
0.0
 40
9.0
 41
1.972972972850329
 42
50.0
 43
0.0
 44
0.0
 50
0.0
 51
0.0
 71
     0
 72
   100
 73
     1
 74
     3
 75
     0
 76
     0
 77
     0
 78
     0
281
     0
 65
     1
110
0.0
120
0.0
130
0.0
111
1.0
121
0.0
131
0.0
112
0.0
122
1.0
132
0.0
 79
     0
146
0.0
 60
     3
 61
     5
292
     1
282
     1
141
0.0
142
0.0
 63
   250
  0
ENDTAB
  0
TABLE
  2
LTYPE
  5
5
330
0
100
AcDbSymbolTable
 70
     1
  0
LTYPE
  5
14
330
5
100
AcDbSymbolTableRecord
100
AcDbLinetypeTableRecord
  2
ByBlock
 70
     0
  3

 72
    65
 73
     0
 40
0.0
  0
LTYPE
  5
15
330
5
100
AcDbSymbolTableRecord
100
AcDbLinetypeTableRecord
  2
ByLayer
 70
     0
  3

 72
    65
 73
     0
 40
0.0
  0
LTYPE
  5
16
330
5
100
AcDbSymbolTableRecord
100
AcDbLinetypeTableRecord
  2
Continuous
 70
     0
  3
Solid line
 72
    65
 73
     0
 40
0.0
  0
ENDTAB
  0
TABLE
  2
LAYER
  5
2
330
0
100
AcDbSymbolTable
 70
     2
  0
LAYER
  5
10
330
2
100
AcDbSymbolTableRecord
100
AcDbLayerTableRecord
  2
0
 70
     0
 62
     7
  6
Continuous
370
    -3
390
F
347
3E
  0
LAYER
  5
40
330
2
100
AcDbSymbolTableRecord
100
AcDbLayerTableRecord
  2
layer 1
 70
     0
 62
     7
  6
Continuous
370
    -3
390
F
347
3E
  0
ENDTAB
  0
TABLE
  2
STYLE
  5
3
330
0
100
AcDbSymbolTable
 70
     1
  0
STYLE
  5
11
330
3
100
AcDbSymbolTableRecord
100
AcDbTextStyleTableRecord
  2
Standard
 70
     0
 40
0.0
 41
1.0
 50
0.0
 71
     0
 42
0.2
  3
txt
  4

  0
ENDTAB
  0
TABLE
  2
VIEW
  5
6
330
0
100
AcDbSymbolTable
 70
     0
  0
ENDTAB
  0
TABLE
  2
UCS
  5
7
330
0
100
AcDbSymbolTable
 70
     0
  0
ENDTAB
  0
TABLE
  2
APPID
  5
9
330
0
100
AcDbSymbolTable
 70
     2
  0
APPID
  5
12
330
9
100
AcDbSymbolTableRecord
100
AcDbRegAppTableRecord
  2
ACAD
 70
     0
  0
APPID
  5
3F
330
9
100
AcDbSymbolTableRecord
100
AcDbRegAppTableRecord
  2
ODA
 70
     0
  0
ENDTAB
  0
TABLE
  2
DIMSTYLE
  5
A
330
0
100
AcDbSymbolTable
 70
     1
100
AcDbDimStyleTable
  0
DIMSTYLE
105
27
330
A
100
AcDbSymbolTableRecord
100
AcDbDimStyleTableRecord
  2
Standard
 70
     0
178
     0
340
11
  0
ENDTAB
  0
TABLE
  2
BLOCK_RECORD
  5
1
330
0
100
AcDbSymbolTable
 70
     1
  0
BLOCK_RECORD
  5
1F
330
1
100
AcDbSymbolTableRecord
100
AcDbBlockTableRecord
  2
*Model_Space
340
22
 70
     0
280
     1
281
     0
  0
BLOCK_RECORD
  5
1B
330
1
100
AcDbSymbolTableRecord
100
AcDbBlockTableRecord
  2
*Paper_Space
340
1E
 70
     0
280
     1
281
     0
  0
BLOCK_RECORD
  5
23
330
1
100
AcDbSymbolTableRecord
100
AcDbBlockTableRecord
  2
*Paper_Space0
340
26
 70
     0
280
     1
281
     0
  0
ENDTAB
  0
ENDSEC
  0
SECTION
  2
BLOCKS
  0
BLOCK
  5
20
330
1F
100
AcDbEntity
  8
0
100
AcDbBlockBegin
  2
*Model_Space
 70
     0
 10
0.0
 20
0.0
 30
0.0
  3
*Model_Space
  1

  0
ENDBLK
  5
21
330
1F
100
AcDbEntity
  8
0
100
AcDbBlockEnd
  0
BLOCK
  5
1C
330
1B
100
AcDbEntity
 67
     1
  8
0
100
AcDbBlockBegin
  2
*Paper_Space
 70
     0
 10
0.0
 20
0.0
 30
0.0
  3
*Paper_Space
  1

  0
ENDBLK
  5
1D
330
1B
100
AcDbEntity
 67
     1
  8
0
100
AcDbBlockEnd
  0
BLOCK
  5
24
330
23
100
AcDbEntity
  8
0
100
AcDbBlockBegin
  2
*Paper_Space0
 70
     0
 10
0.0
 20
0.0
 30
0.0
  3
*Paper_Space0
  1

  0
ENDBLK
  5
25
330
23
100
AcDbEntity
  8
0
100
AcDbBlockEnd
  0
ENDSEC
  0
SECTION
  2
ENTITIES
  0
SPLINE
  5
41
330
1F
100
AcDbEntity
  8
layer 1
 62
   250
370
     9
100
AcDbSpline
210
0.0
220
0.0
230
1.0
 70
    11
 71
     3
 72
    24
 73
    20
 74
     0
 42
0.0000000001
 43
0.0000000001
 12
1.0
 22
0.0
 32
0.0
 13
1.0
 23
0.0
 33
0.0
 40
0.0
 40
0.0
 40
0.0
 40
0.0
 40
0.1666666666666667
 40
0.1666666666666667
 40
0.1666666666666667
 40
0.1666666666666667
 40
0.3333333333333333
 40
0.3333333333333333
 40
0.3333333333333333
 40
0.3333333333333333
 40
0.5
 40
0.5
 40
0.5
 40
0.5
 40
0.6666666666666666
 40
0.6666666666666666
 40
0.6666666666666666
 40
0.6666666666666666
 40
1.0
 40
1.0
 40
1.0
 40
1.0
 10
-188.1128
 20
7.7638
 30
0.0
 10
-188.1128
 20
7.7638
 30
0.0
 10
-188.1128
 20
-100.4081
 30
0.0
 10
-188.1128
 20
-100.4081
 30
0.0
 10
-188.1128
 20
-100.4081
 30
0.0
 10
-188.1128
 20
-100.4081
 30
0.0
 10
22.554
 20
-100.4081
 30
0.0
 10
22.554
 20
-100.4081
 30
0.0
 10
22.554
 20
-100.4081
 30
0.0
 10
22.554
 20
-100.4081
 30
0.0
 10
22.554
 20
115.9356
 30
0.0
 10
22.554
 20
115.9356
 30
0.0
 10
22.554
 20
115.9356
 30
0.0
 10
22.554
 20
115.9356
 30
0.0
 10
-188.1128
 20
115.9356
 30
0.0
 10
-188.1128
 20
115.9356
 30
0.0
 10
-188.1128
 20
115.9356
 30
0.0
 10
-188.1128
 20
115.9356
 30
0.0
 10
-188.1128
 20
7.7638
 30
0.0
 10
-188.1128
 20
7.7638
 30
0.0
  0
SPLINE
  5
42
330
1F
100
AcDbEntity
  8
layer 1
 62
     7
370
     9
100
AcDbSpline
210
0.0
220
0.0
230
1.0
 70
    11
 71
     3
 72
    20
 73
    16
 74
     0
 42
0.0000000001
 43
0.0000000001
 12
1.0
 22
0.0
 32
0.0
 13
1.0
 23
0.0
 33
0.0
 40
0.0
 40
0.0
 40
0.0
 40
0.0
 40
0.2
 40
0.2
 40
0.2
 40
0.2
 40
0.4
 40
0.4
 40
0.4
 40
0.4
 40
0.6
 40
0.6
 40
0.6
 40
0.6
 40
1.0
 40
1.0
 40
1.0
 40
1.0
 10
-173.0066
 20
-2.6377
 30
0.0
 10
-172.8409
 20
-6.4267
 30
0.0
 10
-172.5599
 20
-10.2126
 30
0.0
 10
-172.1635
 20
-13.9931
 30
0.0
 10
-172.1635
 20
-13.9931
 30
0.0
 10
-173.2808
 20
-12.5266
 30
0.0
 10
-175.0596
 20
-11.3604
 30
0.0
 10
-177.2229
 20
-10.6763
 30
0.0
 10
-177.2229
 20
-10.6763
 30
0.0
 10
-177.2229
 20
-10.6763
 30
0.0
 10
-177.2229
 20
5.5294
 30
0.0
 10
-177.2229
 20
5.5294
 30
0.0
 10
-177.2229
 20
5.5294
 30
0.0
 10
-174.4503
 20
3.255
 30
0.0
 10
-172.9518
 20
0.3524
 30
0.0
 10
-173.0066
 20
-2.6377
 30
0.0
  0
SPLINE
  5
43
330
1F
100
AcDbEntity
  8
layer 1
 62
     7
370
     9
100
AcDbSpline
210
0.0
220
0.0
230
1.0
 70
    11
 71
     3
 72
    12
 73
     8
 74
     0
 42
0.0000000001
 43
0.0000000001
 12
1.0
 22
0.0
 32
0.0
 13
1.0
 23
0.0
 33
0.0
 40
0.0
 40
0.0
 40
0.0
 40
0.0
 40
0.3333333333333333
 40
0.3333333333333333
 40
0.3333333333333333
 40
0.3333333333333333
 40
1.0
 40
1.0
 40
1.0
 40
1.0
 10
-177.2229
 20
-32.9429
 30
0.0
 10
-173.7594
 20
-28.254
 30
0.0
 10
-173.7594
 20
-22.6803
 30
0.0
 10
-177.2229
 20
-17.9919
 30
0.0
 10
-177.2229
 20
-17.9919
 30
0.0
 10
-177.2229
 20
-17.9919
 30
0.0
 10
-177.2229
 20
-32.9429
 30
0.0
 10
-177.2229
 20
-32.9429
 30
0.0
  0
SPLINE
  5
44
330
1F
100
AcDbEntity
  8
layer 1
 62
     7
370
     9
100
AcDbSpline
210
0.0
220
0.0
230
1.0
 70
    11
 71
     3
 72
    32
 73
    28
 74
     0
 42
0.0000000001
 43
0.0000000001
 12
1.0
 22
0.0
 32
0.0
 13
1.0
 23
0.0
 33
0.0
 40
0.0
 40
0.0
 40
0.0
 40
0.0
 40
0.125
 40
0.125
 40
0.125
 40
0.125
 40
0.25
 40
0.25
 40
0.25
 40
0.25
 40
0.375
 40
0.375
 40
0.375
 40
0.375
 40
0.5
 40
0.5
 40
0.5
 40
0.5
 40
0.625
 40
0.625
 40
0.625
 40
0.625
 40
0.75
 40
0.75
 40
0.75
 40
0.75
 40
1.0
 40
1.0
 40
1.0
 40
1.0
 10
-167.363
 20
-59.6415
 30
0.0
 10
-163.9812
 20
-54.3574
 30
0.0
 10
-157.861
 20
-50.169
 30
0.0
 10
-150.2389
 20
-47.9231
 30
0.0
 10
-150.2389
 20
-47.9231
 30
0.0
 10
-155.7433
 20
-46.0318
 30
0.0
 10
-161.4732
 20
-44.4817
 30
0.0
 10
-167.363
 20
-43.29
 30
0.0
 10
-167.363
 20
-43.29
 30
0.0
 10
-161.3099
 20
-42.315
 30
0.0
 10
-155.4656
 20
-40.7877
 30
0.0
 10
-149.9794
 20
-38.7476
 30
0.0
 10
-149.9794
 20
-38.7476
 30
0.0
 10
-157.8757
 20
-36.7504
 30
0.0
 10
-164.1312
 20
-32.4366
 30
0.0
 10
-167.1037
 20
-26.9381
 30
0.0
 10
-167.1037
 20
-26.9381
 30
0.0
 10
-167.6953
 20
-31.9301
 30
0.0
 10
-171.3968
 20
-36.4864
 30
0.0
 10
-177.2229
 20
-39.3934
 30
0.0
 10
-177.2229
 20
-39.3934
 30
0.0
 10
-177.2229
 20
-39.3934
 30
0.0
 10
-177.2229
 20
-47.136
 30
0.0
 10
-177.2229
 20
-47.136
 30
0.0
 10
-177.2229
 20
-47.136
 30
0.0
 10
-171.3105
 20
-49.9866
 30
0.0
 10
-167.6581
 20
-54.6194
 30
0.0
 10
-167.363
 20
-59.6415
 30
0.0
  0
SPLINE
  5
45
330
1F
100
AcDbEntity
  8
layer 1
 62
     7
370
     9
100
AcDbSpline
210
0.0
220
0.0
230
1.0
 70
    11
 71
     3
 72
    12
 73
     8
 74
     0
 42
0.0000000001
 43
0.0000000001
 12
1.0
 22
0.0
 32
0.0
 13
1.0
 23
0.0
 33
0.0
 40
0.0
 40
0.0
 40
0.0
 40
0.0
 40
0.3333333333333333
 40
0.3333333333333333
 40
0.3333333333333333
 40
0.3333333333333333
 40
1.0
 40
1.0
 40
1.0
 40
1.0
 10
-177.2229
 20
-68.6078
 30
0.0
 10
-173.8368
 20
-64.02
 30
0.0
 10
-173.8368
 20
-58.568
 30
0.0
 10
-177.2229
 20
-53.9803
 30
0.0
 10
-177.2229
 20
-53.9803
 30
0.0
 10
-177.2229
 20
-53.9803
 30
0.0
 10
-177.2229
 20
-68.6078
 30
0.0
 10
-177.2229
 20
-68.6078
 30
0.0
  0
SPLINE
  5
46
330
1F
100
AcDbEntity
  8
layer 1
 62
     7
370
     9
100
AcDbSpline
210
0.0
220
0.0
230
1.0
 70
    11
 71
     3
 72
    24
 73
    20
 74
     0
 42
0.0000000001
 43
0.0000000001
 12
1.0
 22
0.0
 32
0.0
 13
1.0
 23
0.0
 33
0.0
 40
0.0
 40
0.0
 40
0.0
 40
0.0
 40
0.1666666666666667
 40
0.1666666666666667
 40
0.1666666666666667
 40
0.1666666666666667
 40
0.3333333333333333
 40
0.3333333333333333
 40
0.3333333333333333
 40
0.3333333333333333
 40
0.5
 40
0.5
 40
0.5
 40
0.5
 40
0.6666666666666666
 40
0.6666666666666666
 40
0.6666666666666666
 40
0.6666666666666666
 40
1.0
 40
1.0
 40
1.0
 40
1.0
 10
-173.2661
 20
-85.7591
 30
0.0
 10
-173.4414
 20
-81.5203
 30
0.0
 10
-173.072
 20
-77.279
 30
0.0
 10
-172.1635
 20
-73.0865
 30
0.0
 10
-172.1635
 20
-73.0865
 30
0.0
 10
-173.4774
 20
-74.3299
 30
0.0
 10
-175.2175
 20
-75.3218
 30
0.0
 10
-177.2229
 20
-75.971
 30
0.0
 10
-177.2229
 20
-75.971
 30
0.0
 10
-177.2229
 20
-75.971
 30
0.0
 10
-177.2229
 20
-91.9817
 30
0.0
 10
-177.2229
 20
-91.9817
 30
0.0
 10
-177.2229
 20
-91.9817
 30
0.0
 10
-177.2229
 20
-91.9817
 30
0.0
 10
-176.6214
 20
-91.9817
 30
0.0
 10
-176.6214
 20
-91.9817
 30
0.0
 10
-176.6214
 20
-91.9817
 30
0.0
 10
-174.5303
 20
-90.2329
 30
0.0
 10
-173.3477
 20
-88.0394
 30
0.0
 10
-173.2661
 20
-85.7591
 30
0.0
  0
SPLINE
  5
47
330
1F
100
AcDbEntity
  8
layer 1
 62
     7
370
     9
100
AcDbSpline
210
0.0
220
0.0
230
1.0
 70
    11
 71
     3
 72
    40
 73
    36
 74
     0
 42
0.0000000001
 43
0.0000000001
 12
1.0
 22
0.0
 32
0.0
 13
1.0
 23
0.0
 33
0.0
 40
0.0
 40
0.0
 40
0.0
 40
0.0
 40
0.1
 40
0.1
 40
0.1
 40
0.1
 40
0.2
 40
0.2
 40
0.2
 40
0.2
 40
0.3
 40
0.3
 40
0.3
 40
0.3
 40
0.4
 40
0.4
 40
0.4
 40
0.4
 40
0.5
 40
0.5
 40
0.5
 40
0.5
 40
0.6
 40
0.6
 40
0.6
 40
0.6
 40
0.7
 40
0.7
 40
0.7
 40
0.7
 40
0.8
 40
0.8
 40
0.8
 40
0.8
 40
1.0
 40
1.0
 40
1.0
 40
1.0
 10
-166.7793
 20
-77.7195
 30
0.0
 10
-165.5487
 20
-72.4458
 30
0.0
 10
-162.6453
 20
-67.4325
 30
0.0
 10
-158.2821
 20
-63.0484
 30
0.0
 10
-158.2821
 20
-63.0484
 30
0.0
 10
-155.3598
 20
-60.3282
 30
0.0
 10
-151.2666
 20
-58.3379
 30
0.0
 10
-146.6064
 20
-57.3706
 30
0.0
 10
-146.6064
 20
-57.3706
 30
0.0
 10
-142.8242
 20
-56.7703
 30
0.0
 10
-138.8591
 20
-57.4447
 30
0.0
 10
-135.8915
 20
-59.1928
 30
0.0
 10
-135.8915
 20
-59.1928
 30
0.0
 10
-132.9237
 20
-60.9409
 30
0.0
 10
-131.2955
 20
-63.5611
 30
0.0
 10
-131.4927
 20
-66.2733
 30
0.0
 10
-131.4927
 20
-66.2733
 30
0.0
 10
-134.1513
 20
-63.0132
 30
0.0
 10
-139.6061
 20
-61.4108
 30
0.0
 10
-144.7904
 20
-62.3668
 30
0.0
 10
-144.7904
 20
-62.3668
 30
0.0
 10
-149.6165
 20
-63.4879
 30
0.0
 10
-153.6815
 20
-65.8169
 30
0.0
 10
-156.2061
 20
-68.9077
 30
0.0
 10
-156.2061
 20
-68.9077
 30
0.0
 10
-161.8053
 20
-75.9198
 30
0.0
 10
-163.7918
 20
-84.0661
 30
0.0
 10
-161.8325
 20
-91.9817
 30
0.0
 10
-161.8325
 20
-91.9817
 30
0.0
 10
-161.8325
 20
-91.9817
 30
0.0
 10
-167.8149
 20
-91.9817
 30
0.0
 10
-167.8149
 20
-91.9817
 30
0.0
 10
-167.8149
 20
-91.9817
 30
0.0
 10
-168.4735
 20
-87.218
 30
0.0
 10
-168.1247
 20
-82.412
 30
0.0
 10
-166.7793
 20
-77.7195
 30
0.0
  0
SPLINE
  5
48
330
1F
100
AcDbEntity
  8
layer 1
 62
     7
370
     9
100
AcDbSpline
210
0.0
220
0.0
230
1.0
 70
    11
 71
     3
 72
    24
 73
    20
 74
     0
 42
0.0000000001
 43
0.0000000001
 12
1.0
 22
0.0
 32
0.0
 13
1.0
 23
0.0
 33
0.0
 40
0.0
 40
0.0
 40
0.0
 40
0.0
 40
0.1666666666666667
 40
0.1666666666666667
 40
0.1666666666666667
 40
0.1666666666666667
 40
0.3333333333333333
 40
0.3333333333333333
 40
0.3333333333333333
 40
0.3333333333333333
 40
0.5
 40
0.5
 40
0.5
 40
0.5
 40
0.6666666666666666
 40
0.6666666666666666
 40
0.6666666666666666
 40
0.6666666666666666
 40
1.0
 40
1.0
 40
1.0
 40
1.0
 10
-159.028
 20
-84.7598
 30
0.0
 10
-158.7282
 20
-83.9553
 30
0.0
 10
-157.7601
 20
-83.3594
 30
0.0
 10
-156.5827
 20
-83.2544
 30
0.0
 10
-156.5827
 20
-83.2544
 30
0.0
 10
-155.4049
 20
-83.1495
 30
0.0
 10
-154.2543
 20
-83.5566
 30
0.0
 10
-153.6768
 20
-84.2828
 30
0.0
 10
-153.6768
 20
-84.2828
 30
0.0
 10
-151.7897
 20
-86.68
 30
0.0
 10
-150.4931
 20
-89.2829
 30
0.0
 10
-149.8408
 20
-91.9817
 30
0.0
 10
-149.8408
 20
-91.9817
 30
0.0
 10
-149.8408
 20
-91.9817
 30
0.0
 10
-160.8894
 20
-91.9817
 30
0.0
 10
-160.8894
 20
-91.9817
 30
0.0
 10
-160.8894
 20
-91.9817
 30
0.0
 10
-160.9188
 20
-89.5142
 30
0.0
 10
-160.2875
 20
-87.0646
 30
0.0
 10
-159.028
 20
-84.7598
 30
0.0
  0
SPLINE
  5
49
330
1F
100
AcDbEntity
  8
layer 1
 62
     7
370
     9
100
AcDbSpline
210
0.0
220
0.0
230
1.0
 70
    11
 71
     3
 72
    72
 73
    68
 74
     0
 42
0.0000000001
 43
0.0000000001
 12
1.0
 22
0.0
 32
0.0
 13
1.0
 23
0.0
 33
0.0
 40
0.0
 40
0.0
 40
0.0
 40
0.0
 40
0.0555555555555556
 40
0.0555555555555556
 40
0.0555555555555556
 40
0.0555555555555556
 40
0.1111111111111111
 40
0.1111111111111111
 40
0.1111111111111111
 40
0.1111111111111111
 40
0.1666666666666667
 40
0.1666666666666667
 40
0.1666666666666667
 40
0.1666666666666667
 40
0.2222222222222222
 40
0.2222222222222222
 40
0.2222222222222222
 40
0.2222222222222222
 40
0.2777777777777778
 40
0.2777777777777778
 40
0.2777777777777778
 40
0.2777777777777778
 40
0.3333333333333333
 40
0.3333333333333333
 40
0.3333333333333333
 40
0.3333333333333333
 40
0.3888888888888889
 40
0.3888888888888889
 40
0.3888888888888889
 40
0.3888888888888889
 40
0.4444444444444444
 40
0.4444444444444444
 40
0.4444444444444444
 40
0.4444444444444444
 40
0.5
 40
0.5
 40
0.5
 40
0.5
 40
0.5555555555555556
 40
0.5555555555555556
 40
0.5555555555555556
 40
0.5555555555555556
 40
0.6111111111111112
 40
0.6111111111111112
 40
0.6111111111111112
 40
0.6111111111111112
 40
0.6666666666666666
 40
0.6666666666666666
 40
0.6666666666666666
 40
0.6666666666666666
 40
0.7222222222222222
 40
0.7222222222222222
 40
0.7222222222222222
 40
0.7222222222222222
 40
0.7777777777777778
 40
0.7777777777777778
 40
0.7777777777777778
 40
0.7777777777777778
 40
0.8333333333333334
 40
0.8333333333333334
 40
0.8333333333333334
 40
0.8333333333333334
 40
0.8888888888888888
 40
0.8888888888888888
 40
0.8888888888888888
 40
0.8888888888888888
 40
1.0
 40
1.0
 40
1.0
 40
1.0
 10
-139.0172
 20
-80.1268
 30
0.0
 10
-138.6902
 20
-81.3669
 30
0.0
 10
-138.79
 20
-82.6438
 30
0.0
 10
-139.3095
 20
-83.8513
 30
0.0
 10
-139.3095
 20
-83.8513
 30
0.0
 10
-139.6704
 20
-84.6001
 30
0.0
 10
-140.592
 20
-85.1482
 30
0.0
 10
-141.7055
 20
-85.2766
 30
0.0
 10
-141.7055
 20
-85.2766
 30
0.0
 10
-142.8191
 20
-85.4049
 30
0.0
 10
-143.943
 20
-85.0927
 30
0.0
 10
-144.6283
 20
-84.4645
 30
0.0
 10
-144.6283
 20
-84.4645
 30
0.0
 10
-147.12
 20
-81.6088
 30
0.0
 10
-147.7116
 20
-78.1349
 30
0.0
 10
-146.2497
 20
-74.9487
 30
0.0
 10
-146.2497
 20
-74.9487
 30
0.0
 10
-145.6346
 20
-73.5435
 30
0.0
 10
-144.68
 20
-72.2224
 30
0.0
 10
-143.4284
 20
-71.0427
 30
0.0
 10
-143.4284
 20
-71.0427
 30
0.0
 10
-141.5711
 20
-69.8234
 30
0.0
 10
-138.6855
 20
-69.8135
 30
0.0
 10
-136.8119
 20
-71.0196
 30
0.0
 10
-136.8119
 20
-71.0196
 30
0.0
 10
-133.4232
 20
-73.8868
 30
0.0
 10
-131.0853
 20
-77.2899
 30
0.0
 10
-130.001
 20
-80.9333
 30
0.0
 10
-130.001
 20
-80.9333
 30
0.0
 10
-128.9168
 20
-77.2899
 30
0.0
 10
-126.5787
 20
-73.8868
 30
0.0
 10
-123.1906
 20
-71.0196
 30
0.0
 10
-123.1906
 20
-71.0196
 30
0.0
 10
-121.3164
 20
-69.8135
 30
0.0
 10
-118.4309
 20
-69.8234
 30
0.0
 10
-116.5741
 20
-71.0427
 30
0.0
 10
-116.5741
 20
-71.0427
 30
0.0
 10
-115.322
 20
-72.2224
 30
0.0
 10
-114.3679
 20
-73.5435
 30
0.0
 10
-113.7523
 20
-74.9487
 30
0.0
 10
-113.7523
 20
-74.9487
 30
0.0
 10
-112.2905
 20
-78.1349
 30
0.0
 10
-112.8825
 20
-81.6088
 30
0.0
 10
-115.3737
 20
-84.4645
 30
0.0
 10
-115.3737
 20
-84.4645
 30
0.0
 10
-116.0589
 20
-85.0927
 30
0.0
 10
-117.1828
 20
-85.4049
 30
0.0
 10
-118.2964
 20
-85.2766
 30
0.0
 10
-118.2964
 20
-85.2766
 30
0.0
 10
-119.41
 20
-85.1482
 30
0.0
 10
-120.3316
 20
-84.6001
 30
0.0
 10
-120.6929
 20
-83.8513
 30
0.0
 10
-120.6929
 20
-83.8513
 30
0.0
 10
-121.2119
 20
-82.6438
 30
0.0
 10
-121.3118
 20
-81.3669
 30
0.0
 10
-120.9849
 20
-80.1268
 30
0.0
 10
-120.9849
 20
-80.1268
 30
0.0
 10
-124.5064
 20
-83.8152
 30
0.0
 10
-123.9713
 20
-88.7115
 30
0.0
 10
-119.6898
 20
-91.9817
 30
0.0
 10
-119.6898
 20
-91.9817
 30
0.0
 10
-119.6898
 20
-91.9817
 30
0.0
 10
-140.3121
 20
-91.9817
 30
0.0
 10
-140.3121
 20
-91.9817
 30
0.0
 10
-140.3121
 20
-91.9817
 30
0.0
 10
-136.0306
 20
-88.7115
 30
0.0
 10
-135.4955
 20
-83.8152
 30
0.0
 10
-139.0172
 20
-80.1268
 30
0.0
  0
SPLINE
  5
4A
330
1F
100
AcDbEntity
  8
layer 1
 62
     7
370
     9
100
AcDbSpline
210
0.0
220
0.0
230
1.0
 70
    11
 71
     3
 72
    20
 73
    16
 74
     0
 42
0.0000000001
 43
0.0000000001
 12
1.0
 22
0.0
 32
0.0
 13
1.0
 23
0.0
 33
0.0
 40
0.0
 40
0.0
 40
0.0
 40
0.0
 40
0.2
 40
0.2
 40
0.2
 40
0.2
 40
0.4
 40
0.4
 40
0.4
 40
0.4
 40
0.6
 40
0.6
 40
0.6
 40
0.6
 40
1.0
 40
1.0
 40
1.0
 40
1.0
 10
-130.001
 20
-56.3972
 30
0.0
 10
-131.3849
 20
-50.9604
 30
0.0
 10
-136.0395
 20
-46.2027
 30
0.0
 10
-142.7793
 20
-43.3353
 30
0.0
 10
-142.7793
 20
-43.3353
 30
0.0
 10
-136.6828
 20
-40.5167
 30
0.0
 10
-132.1674
 20
-36.3069
 30
0.0
 10
-130.001
 20
-31.4211
 30
0.0
 10
-130.001
 20
-31.4211
 30
0.0
 10
-127.8346
 20
-36.3069
 30
0.0
 10
-123.3197
 20
-40.5167
 30
0.0
 10
-117.2227
 20
-43.3353
 30
0.0
 10
-117.2227
 20
-43.3353
 30
0.0
 10
-123.9626
 20
-46.2027
 30
0.0
 10
-128.617
 20
-50.9604
 30
0.0
 10
-130.001
 20
-56.3972
 30
0.0
  0
SPLINE
  5
4B
330
1F
100
AcDbEntity
  8
layer 1
 62
     7
370
     9
100
AcDbSpline
210
0.0
220
0.0
230
1.0
 70
    11
 71
     3
 72
    68
 73
    64
 74
     0
 42
0.0000000001
 43
0.0000000001
 12
1.0
 22
0.0
 32
0.0
 13
1.0
 23
0.0
 33
0.0
 40
0.0
 40
0.0
 40
0.0
 40
0.0
 40
0.0588235294117647
 40
0.0588235294117647
 40
0.0588235294117647
 40
0.0588235294117647
 40
0.1176470588235294
 40
0.1176470588235294
 40
0.1176470588235294
 40
0.1176470588235294
 40
0.1764705882352941
 40
0.1764705882352941
 40
0.1764705882352941
 40
0.1764705882352941
 40
0.2352941176470588
 40
0.2352941176470588
 40
0.2352941176470588
 40
0.2352941176470588
 40
0.2941176470588235
 40
0.2941176470588235
 40
0.2941176470588235
 40
0.2941176470588235
 40
0.3529411764705883
 40
0.3529411764705883
 40
0.3529411764705883
 40
0.3529411764705883
 40
0.4117647058823529
 40
0.4117647058823529
 40
0.4117647058823529
 40
0.4117647058823529
 40
0.4705882352941176
 40
0.4705882352941176
 40
0.4705882352941176
 40
0.4705882352941176
 40
0.5294117647058824
 40
0.5294117647058824
 40
0.5294117647058824
 40
0.5294117647058824
 40
0.5882352941176471
 40
0.5882352941176471
 40
0.5882352941176471
 40
0.5882352941176471
 40
0.6470588235294118
 40
0.6470588235294118
 40
0.6470588235294118
 40
0.6470588235294118
 40
0.7058823529411765
 40
0.7058823529411765
 40
0.7058823529411765
 40
0.7058823529411765
 40
0.7647058823529411
 40
0.7647058823529411
 40
0.7647058823529411
 40
0.7647058823529411
 40
0.8235294117647058
 40
0.8235294117647058
 40
0.8235294117647058
 40
0.8235294117647058
 40
0.8823529411764706
 40
0.8823529411764706
 40
0.8823529411764706
 40
0.8823529411764706
 40
1.0
 40
1.0
 40
1.0
 40
1.0
 10
-131.6878
 20
-20.5792
 30
0.0
 10
-131.544
 20
-24.3208
 30
0.0
 10
-134.6827
 20
-27.7434
 30
0.0
 10
-139.6009
 20
-29.2093
 30
0.0
 10
-139.6009
 20
-29.2093
 30
0.0
 10
-143.6544
 20
-30.0318
 30
0.0
 10
-148.0238
 20
-29.4769
 30
0.0
 10
-151.4063
 20
-27.7105
 30
0.0
 10
-151.4063
 20
-27.7105
 30
0.0
 10
-158.6963
 20
-23.4836
 30
0.0
 10
-163.6892
 20
-17.6301
 30
0.0
 10
-165.5471
 20
-11.1315
 30
0.0
 10
-165.5471
 20
-11.1315
 30
0.0
 10
-167.9693
 20
-4.9785
 30
0.0
 10
-169.1493
 20
1.3816
 30
0.0
 10
-169.0525
 20
7.764
 30
0.0
 10
-169.0525
 20
7.764
 30
0.0
 10
-169.1493
 20
14.146
 30
0.0
 10
-167.9693
 20
20.5064
 30
0.0
 10
-165.5471
 20
26.6591
 30
0.0
 10
-165.5471
 20
26.6591
 30
0.0
 10
-163.6892
 20
33.158
 30
0.0
 10
-158.6963
 20
39.0115
 30
0.0
 10
-151.4063
 20
43.2381
 30
0.0
 10
-151.4063
 20
43.2381
 30
0.0
 10
-148.0238
 20
45.005
 30
0.0
 10
-143.6544
 20
45.5598
 30
0.0
 10
-139.6009
 20
44.7368
 30
0.0
 10
-139.6009
 20
44.7368
 30
0.0
 10
-134.6827
 20
43.2715
 30
0.0
 10
-131.544
 20
39.8487
 30
0.0
 10
-131.6878
 20
36.1071
 30
0.0
 10
-131.6878
 20
36.1071
 30
0.0
 10
-133.633
 20
38.3625
 30
0.0
 10
-136.9516
 20
39.8667
 30
0.0
 10
-140.6866
 20
40.1857
 30
0.0
 10
-140.6866
 20
40.1857
 30
0.0
 10
-144.4222
 20
40.5051
 30
0.0
 10
-148.1598
 20
39.6041
 30
0.0
 10
-150.8226
 20
37.7421
 30
0.0
 10
-150.8226
 20
37.7421
 30
0.0
 10
-155.0006
 20
34.7006
 30
0.0
 10
-158.0514
 20
30.9891
 30
0.0
 10
-159.709
 20
26.9316
 30
0.0
 10
-159.709
 20
26.9316
 30
0.0
 10
-162.1129
 20
20.684
 30
0.0
 10
-163.276
 20
14.2339
 30
0.0
 10
-163.1653
 20
7.764
 30
0.0
 10
-163.1653
 20
7.764
 30
0.0
 10
-163.276
 20
1.2936
 30
0.0
 10
-162.1129
 20
-5.1561
 30
0.0
 10
-159.709
 20
-11.404
 30
0.0
 10
-159.709
 20
-11.404
 30
0.0
 10
-158.0514
 20
-15.461
 30
0.0
 10
-155.0006
 20
-19.1727
 30
0.0
 10
-150.8226
 20
-22.2145
 30
0.0
 10
-150.8226
 20
-22.2145
 30
0.0
 10
-148.1598
 20
-24.0762
 30
0.0
 10
-144.4222
 20
-24.9771
 30
0.0
 10
-140.6866
 20
-24.6581
 30
0.0
 10
-140.6866
 20
-24.6581
 30
0.0
 10
-136.9516
 20
-24.3387
 30
0.0
 10
-133.633
 20
-22.8346
 30
0.0
 10
-131.6878
 20
-20.5792
 30
0.0
  0
SPLINE
  5
4C
330
1F
100
AcDbEntity
  8
layer 1
 62
     7
370
     9
100
AcDbSpline
210
0.0
220
0.0
230
1.0
 70
    11
 71
     3
 72
    52
 73
    48
 74
     0
 42
0.0000000001
 43
0.0000000001
 12
1.0
 22
0.0
 32
0.0
 13
1.0
 23
0.0
 33
0.0
 40
0.0
 40
0.0
 40
0.0
 40
0.0
 40
0.0769230769230769
 40
0.0769230769230769
 40
0.0769230769230769
 40
0.0769230769230769
 40
0.1538461538461539
 40
0.1538461538461539
 40
0.1538461538461539
 40
0.1538461538461539
 40
0.2307692307692308
 40
0.2307692307692308
 40
0.2307692307692308
 40
0.2307692307692308
 40
0.3076923076923077
 40
0.3076923076923077
 40
0.3076923076923077
 40
0.3076923076923077
 40
0.3846153846153846
 40
0.3846153846153846
 40
0.3846153846153846
 40
0.3846153846153846
 40
0.4615384615384616
 40
0.4615384615384616
 40
0.4615384615384616
 40
0.4615384615384616
 40
0.5384615384615384
 40
0.5384615384615384
 40
0.5384615384615384
 40
0.5384615384615384
 40
0.6153846153846154
 40
0.6153846153846154
 40
0.6153846153846154
 40
0.6153846153846154
 40
0.6923076923076923
 40
0.6923076923076923
 40
0.6923076923076923
 40
0.6923076923076923
 40
0.7692307692307693
 40
0.7692307692307693
 40
0.7692307692307693
 40
0.7692307692307693
 40
0.8461538461538461
 40
0.8461538461538461
 40
0.8461538461538461
 40
0.8461538461538461
 40
1.0
 40
1.0
 40
1.0
 40
1.0
 10
-160.0338
 20
0.2693
 30
0.0
 10
-159.7001
 20
-0.7621
 30
0.0
 10
-159.188
 20
-1.7613
 30
0.0
 10
-158.5091
 20
-2.7058
 30
0.0
 10
-158.5091
 20
-2.7058
 30
0.0
 10
-157.9914
 20
-3.2856
 30
0.0
 10
-157.0666
 20
-3.6244
 30
0.0
 10
-156.0911
 20
-3.5914
 30
0.0
 10
-156.0911
 20
-3.5914
 30
0.0
 10
-155.1157
 20
-3.5585
 30
0.0
 10
-154.2422
 20
-3.1589
 30
0.0
 10
-153.8065
 20
-2.5469
 30
0.0
 10
-153.8065
 20
-2.5469
 30
0.0
 10
-151.6107
 20
0.4133
 30
0.0
 10
-150.2666
 20
3.6461
 30
0.0
 10
-149.8497
 20
6.9692
 30
0.0
 10
-149.8497
 20
6.9692
 30
0.0
 10
-149.8099
 20
7.2329
 30
0.0
 10
-149.7917
 20
7.4984
 30
0.0
 10
-149.7948
 20
7.764
 30
0.0
 10
-149.7948
 20
7.764
 30
0.0
 10
-149.7917
 20
8.0295
 30
0.0
 10
-149.8099
 20
8.2947
 30
0.0
 10
-149.8497
 20
8.5587
 30
0.0
 10
-149.8497
 20
8.5587
 30
0.0
 10
-150.2666
 20
11.8814
 30
0.0
 10
-151.6107
 20
15.1148
 30
0.0
 10
-153.8065
 20
18.0745
 30
0.0
 10
-153.8065
 20
18.0745
 30
0.0
 10
-154.2422
 20
18.6868
 30
0.0
 10
-155.1157
 20
19.0864
 30
0.0
 10
-156.0911
 20
19.1193
 30
0.0
 10
-156.0911
 20
19.1193
 30
0.0
 10
-157.0666
 20
19.1524
 30
0.0
 10
-157.9914
 20
18.8136
 30
0.0
 10
-158.5091
 20
18.2338
 30
0.0
 10
-158.5091
 20
18.2338
 30
0.0
 10
-159.188
 20
17.2888
 30
0.0
 10
-159.7001
 20
16.29
 30
0.0
 10
-160.0338
 20
15.2587
 30
0.0
 10
-160.0338
 20
15.2587
 30
0.0
 10
-160.6364
 20
12.7828
 30
0.0
 10
-160.9381
 20
10.2754
 30
0.0
 10
-160.935
 20
7.764
 30
0.0
 10
-160.935
 20
7.764
 30
0.0
 10
-160.9381
 20
5.2525
 30
0.0
 10
-160.6364
 20
2.7452
 30
0.0
 10
-160.0338
 20
0.2693
 30
0.0
  0
SPLINE
  5
4D
330
1F
100
AcDbEntity
  8
layer 1
 62
     7
370
     9
100
AcDbSpline
210
0.0
220
0.0
230
1.0
 70
    11
 71
     3
 72
   180
 73
   176
 74
     0
 42
0.0000000001
 43
0.0000000001
 12
1.0
 22
0.0
 32
0.0
 13
1.0
 23
0.0
 33
0.0
 40
0.0
 40
0.0
 40
0.0
 40
0.0
 40
0.0222222222222222
 40
0.0222222222222222
 40
0.0222222222222222
 40
0.0222222222222222
 40
0.0444444444444444
 40
0.0444444444444444
 40
0.0444444444444444
 40
0.0444444444444444
 40
0.0666666666666667
 40
0.0666666666666667
 40
0.0666666666666667
 40
0.0666666666666667
 40
0.0888888888888889
 40
0.0888888888888889
 40
0.0888888888888889
 40
0.0888888888888889
 40
0.1111111111111111
 40
0.1111111111111111
 40
0.1111111111111111
 40
0.1111111111111111
 40
0.1333333333333333
 40
0.1333333333333333
 40
0.1333333333333333
 40
0.1333333333333333
 40
0.1555555555555556
 40
0.1555555555555556
 40
0.1555555555555556
 40
0.1555555555555556
 40
0.1777777777777778
 40
0.1777777777777778
 40
0.1777777777777778
 40
0.1777777777777778
 40
0.2
 40
0.2
 40
0.2
 40
0.2
 40
0.2222222222222222
 40
0.2222222222222222
 40
0.2222222222222222
 40
0.2222222222222222
 40
0.2444444444444444
 40
0.2444444444444444
 40
0.2444444444444444
 40
0.2444444444444444
 40
0.2666666666666667
 40
0.2666666666666667
 40
0.2666666666666667
 40
0.2666666666666667
 40
0.2888888888888889
 40
0.2888888888888889
 40
0.2888888888888889
 40
0.2888888888888889
 40
0.3111111111111111
 40
0.3111111111111111
 40
0.3111111111111111
 40
0.3111111111111111
 40
0.3333333333333333
 40
0.3333333333333333
 40
0.3333333333333333
 40
0.3333333333333333
 40
0.3555555555555556
 40
0.3555555555555556
 40
0.3555555555555556
 40
0.3555555555555556
 40
0.3777777777777778
 40
0.3777777777777778
 40
0.3777777777777778
 40
0.3777777777777778
 40
0.4
 40
0.4
 40
0.4
 40
0.4
 40
0.4222222222222222
 40
0.4222222222222222
 40
0.4222222222222222
 40
0.4222222222222222
 40
0.4444444444444444
 40
0.4444444444444444
 40
0.4444444444444444
 40
0.4444444444444444
 40
0.4666666666666667
 40
0.4666666666666667
 40
0.4666666666666667
 40
0.4666666666666667
 40
0.4888888888888889
 40
0.4888888888888889
 40
0.4888888888888889
 40
0.4888888888888889
 40
0.5111111111111111
 40
0.5111111111111111
 40
0.5111111111111111
 40
0.5111111111111111
 40
0.5333333333333333
 40
0.5333333333333333
 40
0.5333333333333333
 40
0.5333333333333333
 40
0.5555555555555556
 40
0.5555555555555556
 40
0.5555555555555556
 40
0.5555555555555556
 40
0.5777777777777777
 40
0.5777777777777777
 40
0.5777777777777777
 40
0.5777777777777777
 40
0.6
 40
0.6
 40
0.6
 40
0.6
 40
0.6222222222222222
 40
0.6222222222222222
 40
0.6222222222222222
 40
0.6222222222222222
 40
0.6444444444444445
 40
0.6444444444444445
 40
0.6444444444444445
 40
0.6444444444444445
 40
0.6666666666666666
 40
0.6666666666666666
 40
0.6666666666666666
 40
0.6666666666666666
 40
0.6888888888888889
 40
0.6888888888888889
 40
0.6888888888888889
 40
0.6888888888888889
 40
0.7111111111111111
 40
0.7111111111111111
 40
0.7111111111111111
 40
0.7111111111111111
 40
0.7333333333333333
 40
0.7333333333333333
 40
0.7333333333333333
 40
0.7333333333333333
 40
0.7555555555555555
 40
0.7555555555555555
 40
0.7555555555555555
 40
0.7555555555555555
 40
0.7777777777777778
 40
0.7777777777777778
 40
0.7777777777777778
 40
0.7777777777777778
 40
0.8
 40
0.8
 40
0.8
 40
0.8
 40
0.8222222222222222
 40
0.8222222222222222
 40
0.8222222222222222
 40
0.8222222222222222
 40
0.8444444444444444
 40
0.8444444444444444
 40
0.8444444444444444
 40
0.8444444444444444
 40
0.8666666666666667
 40
0.8666666666666667
 40
0.8666666666666667
 40
0.8666666666666667
 40
0.8888888888888888
 40
0.8888888888888888
 40
0.8888888888888888
 40
0.8888888888888888
 40
0.9111111111111111
 40
0.9111111111111111
 40
0.9111111111111111
 40
0.9111111111111111
 40
0.9333333333333333
 40
0.9333333333333333
 40
0.9333333333333333
 40
0.9333333333333333
 40
0.9555555555555556
 40
0.9555555555555556
 40
0.9555555555555556
 40
0.9555555555555556
 40
1.0
 40
1.0
 40
1.0
 40
1.0
 10
-140.639
 20
6.7417
 30
0.0
 10
-139.1442
 20
4.6497
 30
0.0
 10
-137.4653
 20
2.6246
 30
0.0
 10
-135.6116
 20
0.678
 30
0.0
 10
-135.6116
 20
0.678
 30
0.0
 10
-134.2668
 20
-2.0353
 30
0.0
 10
-135.69
 20
-5.0429
 30
0.0
 10
-139.0825
 20
-6.6574
 30
0.0
 10
-139.0825
 20
-6.6574
 30
0.0
 10
-138.5829
 20
-5.2762
 30
0.0
 10
-138.7776
 20
-3.8167
 30
0.0
 10
-139.6332
 20
-2.5241
 30
0.0
 10
-139.6332
 20
-2.5241
 30
0.0
 10
-139.9926
 20
-1.9425
 30
0.0
 10
-140.7195
 20
-1.5122
 30
0.0
 10
-141.5978
 20
-1.3609
 30
0.0
 10
-141.5978
 20
-1.3609
 30
0.0
 10
-142.4764
 20
-1.2093
 30
0.0
 10
-143.4054
 20
-1.354
 30
0.0
 10
-144.1088
 20
-1.7521
 30
0.0
 10
-144.1088
 20
-1.7521
 30
0.0
 10
-146.7513
 20
-4.599
 30
0.0
 10
-147.585
 20
-8.0869
 30
0.0
 10
-146.4118
 20
-11.3813
 30
0.0
 10
-146.4118
 20
-11.3813
 30
0.0
 10
-145.8433
 20
-12.8064
 30
0.0
 10
-144.9447
 20
-14.1568
 30
0.0
 10
-143.7522
 20
-15.3783
 30
0.0
 10
-143.7522
 20
-15.3783
 30
0.0
 10
-142.8954
 20
-16.0822
 30
0.0
 10
-141.6622
 20
-16.5079
 30
0.0
 10
-140.3429
 20
-16.5551
 30
0.0
 10
-140.3429
 20
-16.5551
 30
0.0
 10
-139.0234
 20
-16.6023
 30
0.0
 10
-137.7345
 20
-16.2672
 30
0.0
 10
-136.7796
 20
-15.6281
 30
0.0
 10
-136.7796
 20
-15.6281
 30
0.0
 10
-133.429
 20
-12.8486
 30
0.0
 10
-131.102
 20
-9.5369
 30
0.0
 10
-130.001
 20
-5.9823
 30
0.0
 10
-130.001
 20
-5.9823
 30
0.0
 10
-128.9005
 20
-9.5369
 30
0.0
 10
-126.573
 20
-12.8486
 30
0.0
 10
-123.2225
 20
-15.6281
 30
0.0
 10
-123.2225
 20
-15.6281
 30
0.0
 10
-122.2673
 20
-16.2672
 30
0.0
 10
-120.9786
 20
-16.6023
 30
0.0
 10
-119.6594
 20
-16.5551
 30
0.0
 10
-119.6594
 20
-16.5551
 30
0.0
 10
-118.3399
 20
-16.5079
 30
0.0
 10
-117.1071
 20
-16.0822
 30
0.0
 10
-116.2498
 20
-15.3783
 30
0.0
 10
-116.2498
 20
-15.3783
 30
0.0
 10
-115.0573
 20
-14.1568
 30
0.0
 10
-114.1587
 20
-12.8064
 30
0.0
 10
-113.5901
 20
-11.3813
 30
0.0
 10
-113.5901
 20
-11.3813
 30
0.0
 10
-112.4169
 20
-8.0869
 30
0.0
 10
-113.2512
 20
-4.599
 30
0.0
 10
-115.8931
 20
-1.7521
 30
0.0
 10
-115.8931
 20
-1.7521
 30
0.0
 10
-116.5966
 20
-1.354
 30
0.0
 10
-117.5261
 20
-1.2093
 30
0.0
 10
-118.4042
 20
-1.3609
 30
0.0
 10
-118.4042
 20
-1.3609
 30
0.0
 10
-119.2824
 20
-1.5122
 30
0.0
 10
-120.0095
 20
-1.9425
 30
0.0
 10
-120.3687
 20
-2.5241
 30
0.0
 10
-120.3687
 20
-2.5241
 30
0.0
 10
-121.2245
 20
-3.8167
 30
0.0
 10
-121.4194
 20
-5.2762
 30
0.0
 10
-120.9199
 20
-6.6574
 30
0.0
 10
-120.9199
 20
-6.6574
 30
0.0
 10
-124.3125
 20
-5.0429
 30
0.0
 10
-125.7351
 20
-2.0353
 30
0.0
 10
-124.3903
 20
0.678
 30
0.0
 10
-124.3903
 20
0.678
 30
0.0
 10
-122.5367
 20
2.6246
 30
0.0
 10
-120.8583
 20
4.6497
 30
0.0
 10
-119.3629
 20
6.7417
 30
0.0
 10
-119.3629
 20
6.7417
 30
0.0
 10
-119.1034
 20
7.0516
 30
0.0
 10
-118.9691
 20
7.4051
 30
0.0
 10
-118.9743
 20
7.764
 30
0.0
 10
-118.9743
 20
7.764
 30
0.0
 10
-118.9691
 20
8.1229
 30
0.0
 10
-119.1034
 20
8.4764
 30
0.0
 10
-119.3629
 20
8.7859
 30
0.0
 10
-119.3629
 20
8.7859
 30
0.0
 10
-120.8583
 20
10.8779
 30
0.0
 10
-122.5367
 20
12.9033
 30
0.0
 10
-124.3903
 20
14.8495
 30
0.0
 10
-124.3903
 20
14.8495
 30
0.0
 10
-125.7351
 20
17.5632
 30
0.0
 10
-124.3125
 20
20.5709
 30
0.0
 10
-120.9199
 20
22.1853
 30
0.0
 10
-120.9199
 20
22.1853
 30
0.0
 10
-121.4194
 20
20.8041
 30
0.0
 10
-121.2245
 20
19.3446
 30
0.0
 10
-120.3687
 20
18.0518
 30
0.0
 10
-120.3687
 20
18.0518
 30
0.0
 10
-120.0095
 20
17.4705
 30
0.0
 10
-119.2824
 20
17.0401
 30
0.0
 10
-118.4042
 20
16.8886
 30
0.0
 10
-118.4042
 20
16.8886
 30
0.0
 10
-117.5261
 20
16.7369
 30
0.0
 10
-116.5966
 20
16.8819
 30
0.0
 10
-115.8931
 20
17.2796
 30
0.0
 10
-115.8931
 20
17.2796
 30
0.0
 10
-113.2512
 20
20.1269
 30
0.0
 10
-112.4169
 20
23.6145
 30
0.0
 10
-113.5901
 20
26.9089
 30
0.0
 10
-113.5901
 20
26.9089
 30
0.0
 10
-114.1587
 20
28.3344
 30
0.0
 10
-115.0573
 20
29.6844
 30
0.0
 10
-116.2498
 20
30.9062
 30
0.0
 10
-116.2498
 20
30.9062
 30
0.0
 10
-117.1071
 20
31.6102
 30
0.0
 10
-118.3399
 20
32.0358
 30
0.0
 10
-119.6594
 20
32.083
 30
0.0
 10
-119.6594
 20
32.083
 30
0.0
 10
-120.9786
 20
32.1303
 30
0.0
 10
-122.2673
 20
31.7951
 30
0.0
 10
-123.2225
 20
31.156
 30
0.0
 10
-123.2225
 20
31.156
 30
0.0
 10
-126.573
 20
28.3765
 30
0.0
 10
-128.9005
 20
25.0648
 30
0.0
 10
-130.001
 20
21.5099
 30
0.0
 10
-130.001
 20
21.5099
 30
0.0
 10
-131.102
 20
25.0648
 30
0.0
 10
-133.429
 20
28.3765
 30
0.0
 10
-136.7796
 20
31.156
 30
0.0
 10
-136.7796
 20
31.156
 30
0.0
 10
-137.7345
 20
31.7951
 30
0.0
 10
-139.0234
 20
32.1303
 30
0.0
 10
-140.3429
 20
32.083
 30
0.0
 10
-140.3429
 20
32.083
 30
0.0
 10
-141.6622
 20
32.0358
 30
0.0
 10
-142.8954
 20
31.6102
 30
0.0
 10
-143.7522
 20
30.9062
 30
0.0
 10
-143.7522
 20
30.9062
 30
0.0
 10
-144.9447
 20
29.6844
 30
0.0
 10
-145.8433
 20
28.3344
 30
0.0
 10
-146.4118
 20
26.9089
 30
0.0
 10
-146.4118
 20
26.9089
 30
0.0
 10
-147.585
 20
23.6145
 30
0.0
 10
-146.7513
 20
20.1269
 30
0.0
 10
-144.1088
 20
17.2796
 30
0.0
 10
-144.1088
 20
17.2796
 30
0.0
 10
-143.4054
 20
16.8819
 30
0.0
 10
-142.4764
 20
16.7369
 30
0.0
 10
-141.5978
 20
16.8886
 30
0.0
 10
-141.5978
 20
16.8886
 30
0.0
 10
-140.7195
 20
17.0401
 30
0.0
 10
-139.9926
 20
17.4705
 30
0.0
 10
-139.6332
 20
18.0518
 30
0.0
 10
-139.6332
 20
18.0518
 30
0.0
 10
-138.7776
 20
19.3446
 30
0.0
 10
-138.5829
 20
20.8041
 30
0.0
 10
-139.0825
 20
22.1853
 30
0.0
 10
-139.0825
 20
22.1853
 30
0.0
 10
-135.69
 20
20.5709
 30
0.0
 10
-134.2668
 20
17.5632
 30
0.0
 10
-135.6116
 20
14.8495
 30
0.0
 10
-135.6116
 20
14.8495
 30
0.0
 10
-137.4653
 20
12.9033
 30
0.0
 10
-139.1442
 20
10.8779
 30
0.0
 10
-140.639
 20
8.7859
 30
0.0
 10
-140.639
 20
8.7859
 30
0.0
 10
-140.8985
 20
8.4764
 30
0.0
 10
-141.0329
 20
8.1229
 30
0.0
 10
-141.0276
 20
7.764
 30
0.0
 10
-141.0276
 20
7.764
 30
0.0
 10
-141.0329
 20
7.4051
 30
0.0
 10
-140.8985
 20
7.0516
 30
0.0
 10
-140.639
 20
6.7417
 30
0.0
  0
SPLINE
  5
4E
330
1F
100
AcDbEntity
  8
layer 1
 62
     7
370
     9
100
AcDbSpline
210
0.0
220
0.0
230
1.0
 70
    11
 71
     3
 72
    28
 73
    24
 74
     0
 42
0.0000000001
 43
0.0000000001
 12
1.0
 22
0.0
 32
0.0
 13
1.0
 23
0.0
 33
0.0
 40
0.0
 40
0.0
 40
0.0
 40
0.0
 40
0.1428571428571428
 40
0.1428571428571428
 40
0.1428571428571428
 40
0.1428571428571428
 40
0.2857142857142857
 40
0.2857142857142857
 40
0.2857142857142857
 40
0.2857142857142857
 40
0.4285714285714285
 40
0.4285714285714285
 40
0.4285714285714285
 40
0.4285714285714285
 40
0.5714285714285714
 40
0.5714285714285714
 40
0.5714285714285714
 40
0.5714285714285714
 40
0.7142857142857143
 40
0.7142857142857143
 40
0.7142857142857143
 40
0.7142857142857143
 40
1.0
 40
1.0
 40
1.0
 40
1.0
 10
-86.9958
 20
-2.6377
 30
0.0
 10
-87.1611
 20
-6.4267
 30
0.0
 10
-87.4424
 20
-10.2126
 30
0.0
 10
-87.839
 20
-13.9931
 30
0.0
 10
-87.839
 20
-13.9931
 30
0.0
 10
-86.7217
 20
-12.5266
 30
0.0
 10
-84.9424
 20
-11.3604
 30
0.0
 10
-82.7795
 20
-10.6763
 30
0.0
 10
-82.7795
 20
-10.6763
 30
0.0
 10
-80.6162
 20
-11.3604
 30
0.0
 10
-78.8374
 20
-12.5266
 30
0.0
 10
-77.7198
 20
-13.9931
 30
0.0
 10
-77.7198
 20
-13.9931
 30
0.0
 10
-78.1167
 20
-10.2126
 30
0.0
 10
-78.3976
 20
-6.4267
 30
0.0
 10
-78.5628
 20
-2.6377
 30
0.0
 10
-78.5628
 20
-2.6377
 30
0.0
 10
-78.5085
 20
0.3524
 30
0.0
 10
-80.007
 20
3.255
 30
0.0
 10
-82.7795
 20
5.5294
 30
0.0
 10
-82.7795
 20
5.5294
 30
0.0
 10
-85.5522
 20
3.255
 30
0.0
 10
-87.0502
 20
0.3524
 30
0.0
 10
-86.9958
 20
-2.6377
 30
0.0
  0
SPLINE
  5
4F
330
1F
100
AcDbEntity
  8
layer 1
 62
     7
370
     9
100
AcDbSpline
210
0.0
220
0.0
230
1.0
 70
    11
 71
     3
 72
    12
 73
     8
 74
     0
 42
0.0000000001
 43
0.0000000001
 12
1.0
 22
0.0
 32
0.0
 13
1.0
 23
0.0
 33
0.0
 40
0.0
 40
0.0
 40
0.0
 40
0.0
 40
0.3333333333333333
 40
0.3333333333333333
 40
0.3333333333333333
 40
0.3333333333333333
 40
1.0
 40
1.0
 40
1.0
 40
1.0
 10
-82.7795
 20
-32.9429
 30
0.0
 10
-86.2427
 20
-28.254
 30
0.0
 10
-86.2427
 20
-22.6803
 30
0.0
 10
-82.7795
 20
-17.9919
 30
0.0
 10
-82.7795
 20
-17.9919
 30
0.0
 10
-79.316
 20
-22.6803
 30
0.0
 10
-79.316
 20
-28.254
 30
0.0
 10
-82.7795
 20
-32.9429
 30
0.0
  0
SPLINE
  5
50
330
1F
100
AcDbEntity
  8
layer 1
 62
     7
370
     9
100
AcDbSpline
210
0.0
220
0.0
230
1.0
 70
    11
 71
     3
 72
    52
 73
    48
 74
     0
 42
0.0000000001
 43
0.0000000001
 12
1.0
 22
0.0
 32
0.0
 13
1.0
 23
0.0
 33
0.0
 40
0.0
 40
0.0
 40
0.0
 40
0.0
 40
0.0769230769230769
 40
0.0769230769230769
 40
0.0769230769230769
 40
0.0769230769230769
 40
0.1538461538461539
 40
0.1538461538461539
 40
0.1538461538461539
 40
0.1538461538461539
 40
0.2307692307692308
 40
0.2307692307692308
 40
0.2307692307692308
 40
0.2307692307692308
 40
0.3076923076923077
 40
0.3076923076923077
 40
0.3076923076923077
 40
0.3076923076923077
 40
0.3846153846153846
 40
0.3846153846153846
 40
0.3846153846153846
 40
0.3846153846153846
 40
0.4615384615384616
 40
0.4615384615384616
 40
0.4615384615384616
 40
0.4615384615384616
 40
0.5384615384615384
 40
0.5384615384615384
 40
0.5384615384615384
 40
0.5384615384615384
 40
0.6153846153846154
 40
0.6153846153846154
 40
0.6153846153846154
 40
0.6153846153846154
 40
0.6923076923076923
 40
0.6923076923076923
 40
0.6923076923076923
 40
0.6923076923076923
 40
0.7692307692307693
 40
0.7692307692307693
 40
0.7692307692307693
 40
0.7692307692307693
 40
0.8461538461538461
 40
0.8461538461538461
 40
0.8461538461538461
 40
0.8461538461538461
 40
1.0
 40
1.0
 40
1.0
 40
1.0
 10
-92.6389
 20
-59.6415
 30
0.0
 10
-96.0209
 20
-54.3574
 30
0.0
 10
-102.1414
 20
-50.169
 30
0.0
 10
-109.763
 20
-47.9231
 30
0.0
 10
-109.763
 20
-47.9231
 30
0.0
 10
-104.2592
 20
-46.0318
 30
0.0
 10
-98.5287
 20
-44.4817
 30
0.0
 10
-92.6389
 20
-43.29
 30
0.0
 10
-92.6389
 20
-43.29
 30
0.0
 10
-98.6924
 20
-42.315
 30
0.0
 10
-104.5363
 20
-40.7877
 30
0.0
 10
-110.0225
 20
-38.7476
 30
0.0
 10
-110.0225
 20
-38.7476
 30
0.0
 10
-102.1262
 20
-36.7504
 30
0.0
 10
-95.8707
 20
-32.4366
 30
0.0
 10
-92.8983
 20
-26.9381
 30
0.0
 10
-92.8983
 20
-26.9381
 30
0.0
 10
-92.3067
 20
-31.9301
 30
0.0
 10
-88.6052
 20
-36.4864
 30
0.0
 10
-82.7795
 20
-39.3934
 30
0.0
 10
-82.7795
 20
-39.3934
 30
0.0
 10
-76.954
 20
-36.4864
 30
0.0
 10
-73.2525
 20
-31.9301
 30
0.0
 10
-72.6603
 20
-26.9381
 30
0.0
 10
-72.6603
 20
-26.9381
 30
0.0
 10
-69.688
 20
-32.4366
 30
0.0
 10
-63.4325
 20
-36.7504
 30
0.0
 10
-55.5362
 20
-38.7476
 30
0.0
 10
-55.5362
 20
-38.7476
 30
0.0
 10
-61.0223
 20
-40.7877
 30
0.0
 10
-66.8667
 20
-42.315
 30
0.0
 10
-72.9198
 20
-43.29
 30
0.0
 10
-72.9198
 20
-43.29
 30
0.0
 10
-67.0299
 20
-44.4817
 30
0.0
 10
-61.3
 20
-46.0318
 30
0.0
 10
-55.7956
 20
-47.9231
 30
0.0
 10
-55.7956
 20
-47.9231
 30
0.0
 10
-63.4178
 20
-50.169
 30
0.0
 10
-69.5379
 20
-54.3574
 30
0.0
 10
-72.9198
 20
-59.6415
 30
0.0
 10
-72.9198
 20
-59.6415
 30
0.0
 10
-73.2148
 20
-54.6194
 30
0.0
 10
-76.8671
 20
-49.9866
 30
0.0
 10
-82.7795
 20
-47.136
 30
0.0
 10
-82.7795
 20
-47.136
 30
0.0
 10
-88.6915
 20
-49.9866
 30
0.0
 10
-92.3444
 20
-54.6194
 30
0.0
 10
-92.6389
 20
-59.6415
 30
0.0
  0
SPLINE
  5
51
330
1F
100
AcDbEntity
  8
layer 1
 62
     7
370
     9
100
AcDbSpline
210
0.0
220
0.0
230
1.0
 70
    11
 71
     3
 72
    12
 73
     8
 74
     0
 42
0.0000000001
 43
0.0000000001
 12
1.0
 22
0.0
 32
0.0
 13
1.0
 23
0.0
 33
0.0
 40
0.0
 40
0.0
 40
0.0
 40
0.0
 40
0.3333333333333333
 40
0.3333333333333333
 40
0.3333333333333333
 40
0.3333333333333333
 40
1.0
 40
1.0
 40
1.0
 40
1.0
 10
-82.7795
 20
-68.6078
 30
0.0
 10
-86.1653
 20
-64.02
 30
0.0
 10
-86.1653
 20
-58.568
 30
0.0
 10
-82.7795
 20
-53.9803
 30
0.0
 10
-82.7795
 20
-53.9803
 30
0.0
 10
-79.3935
 20
-58.568
 30
0.0
 10
-79.3935
 20
-64.02
 30
0.0
 10
-82.7795
 20
-68.6078
 30
0.0
  0
SPLINE
  5
52
330
1F
100
AcDbEntity
  8
layer 1
 62
     7
370
     9
100
AcDbSpline
210
0.0
220
0.0
230
1.0
 70
    11
 71
     3
 72
    32
 73
    28
 74
     0
 42
0.0000000001
 43
0.0000000001
 12
1.0
 22
0.0
 32
0.0
 13
1.0
 23
0.0
 33
0.0
 40
0.0
 40
0.0
 40
0.0
 40
0.0
 40
0.125
 40
0.125
 40
0.125
 40
0.125
 40
0.25
 40
0.25
 40
0.25
 40
0.25
 40
0.375
 40
0.375
 40
0.375
 40
0.375
 40
0.5
 40
0.5
 40
0.5
 40
0.5
 40
0.625
 40
0.625
 40
0.625
 40
0.625
 40
0.75
 40
0.75
 40
0.75
 40
0.75
 40
1.0
 40
1.0
 40
1.0
 40
1.0
 10
-86.7364
 20
-85.7591
 30
0.0
 10
-86.5611
 20
-81.5203
 30
0.0
 10
-86.9299
 20
-77.279
 30
0.0
 10
-87.839
 20
-73.0865
 30
0.0
 10
-87.839
 20
-73.0865
 30
0.0
 10
-86.5245
 20
-74.3299
 30
0.0
 10
-84.7844
 20
-75.3218
 30
0.0
 10
-82.7795
 20
-75.971
 30
0.0
 10
-82.7795
 20
-75.971
 30
0.0
 10
-80.7743
 20
-75.3218
 30
0.0
 10
-79.0341
 20
-74.3299
 30
0.0
 10
-77.7198
 20
-73.0865
 30
0.0
 10
-77.7198
 20
-73.0865
 30
0.0
 10
-78.6288
 20
-77.279
 30
0.0
 10
-78.9981
 20
-81.5203
 30
0.0
 10
-78.8229
 20
-85.7591
 30
0.0
 10
-78.8229
 20
-85.7591
 30
0.0
 10
-78.9044
 20
-88.0394
 30
0.0
 10
-80.0875
 20
-90.2329
 30
0.0
 10
-82.1786
 20
-91.9817
 30
0.0
 10
-82.1786
 20
-91.9817
 30
0.0
 10
-82.1786
 20
-91.9817
 30
0.0
 10
-83.3806
 20
-91.9817
 30
0.0
 10
-83.3806
 20
-91.9817
 30
0.0
 10
-83.3806
 20
-91.9817
 30
0.0
 10
-85.4717
 20
-90.2329
 30
0.0
 10
-86.6542
 20
-88.0394
 30
0.0
 10
-86.7364
 20
-85.7591
 30
0.0
  0
SPLINE
  5
53
330
1F
100
AcDbEntity
  8
layer 1
 62
     7
370
     9
100
AcDbSpline
210
0.0
220
0.0
230
1.0
 70
    11
 71
     3
 72
    40
 73
    36
 74
     0
 42
0.0000000001
 43
0.0000000001
 12
1.0
 22
0.0
 32
0.0
 13
1.0
 23
0.0
 33
0.0
 40
0.0
 40
0.0
 40
0.0
 40
0.0
 40
0.1
 40
0.1
 40
0.1
 40
0.1
 40
0.2
 40
0.2
 40
0.2
 40
0.2
 40
0.3
 40
0.3
 40
0.3
 40
0.3
 40
0.4
 40
0.4
 40
0.4
 40
0.4
 40
0.5
 40
0.5
 40
0.5
 40
0.5
 40
0.6
 40
0.6
 40
0.6
 40
0.6
 40
0.7
 40
0.7
 40
0.7
 40
0.7
 40
0.8
 40
0.8
 40
0.8
 40
0.8
 40
1.0
 40
1.0
 40
1.0
 40
1.0
 10
-93.2226
 20
-77.7195
 30
0.0
 10
-94.4533
 20
-72.4458
 30
0.0
 10
-97.3572
 20
-67.4325
 30
0.0
 10
-101.7198
 20
-63.0484
 30
0.0
 10
-101.7198
 20
-63.0484
 30
0.0
 10
-104.642
 20
-60.3282
 30
0.0
 10
-108.7353
 20
-58.3379
 30
0.0
 10
-113.3956
 20
-57.3706
 30
0.0
 10
-113.3956
 20
-57.3706
 30
0.0
 10
-117.1776
 20
-56.7703
 30
0.0
 10
-121.1434
 20
-57.4447
 30
0.0
 10
-124.111
 20
-59.1928
 30
0.0
 10
-124.111
 20
-59.1928
 30
0.0
 10
-127.0788
 20
-60.9409
 30
0.0
 10
-128.7064
 20
-63.5611
 30
0.0
 10
-128.5092
 20
-66.2733
 30
0.0
 10
-128.5092
 20
-66.2733
 30
0.0
 10
-125.8507
 20
-63.0132
 30
0.0
 10
-120.396
 20
-61.4108
 30
0.0
 10
-115.2121
 20
-62.3668
 30
0.0
 10
-115.2121
 20
-62.3668
 30
0.0
 10
-110.3854
 20
-63.4879
 30
0.0
 10
-106.3205
 20
-65.8169
 30
0.0
 10
-103.7958
 20
-68.9077
 30
0.0
 10
-103.7958
 20
-68.9077
 30
0.0
 10
-98.1966
 20
-75.9198
 30
0.0
 10
-96.2102
 20
-84.0661
 30
0.0
 10
-98.1695
 20
-91.9817
 30
0.0
 10
-98.1695
 20
-91.9817
 30
0.0
 10
-98.1695
 20
-91.9817
 30
0.0
 10
-92.1874
 20
-91.9817
 30
0.0
 10
-92.1874
 20
-91.9817
 30
0.0
 10
-92.1874
 20
-91.9817
 30
0.0
 10
-91.529
 20
-87.218
 30
0.0
 10
-91.8774
 20
-82.412
 30
0.0
 10
-93.2226
 20
-77.7195
 30
0.0
  0
SPLINE
  5
54
330
1F
100
AcDbEntity
  8
layer 1
 62
     7
370
     9
100
AcDbSpline
210
0.0
220
0.0
230
1.0
 70
    11
 71
     3
 72
    24
 73
    20
 74
     0
 42
0.0000000001
 43
0.0000000001
 12
1.0
 22
0.0
 32
0.0
 13
1.0
 23
0.0
 33
0.0
 40
0.0
 40
0.0
 40
0.0
 40
0.0
 40
0.1666666666666667
 40
0.1666666666666667
 40
0.1666666666666667
 40
0.1666666666666667
 40
0.3333333333333333
 40
0.3333333333333333
 40
0.3333333333333333
 40
0.3333333333333333
 40
0.5
 40
0.5
 40
0.5
 40
0.5
 40
0.6666666666666666
 40
0.6666666666666666
 40
0.6666666666666666
 40
0.6666666666666666
 40
1.0
 40
1.0
 40
1.0
 40
1.0
 10
-100.974
 20
-84.7598
 30
0.0
 10
-101.2737
 20
-83.9553
 30
0.0
 10
-102.2418
 20
-83.3594
 30
0.0
 10
-103.4198
 20
-83.2544
 30
0.0
 10
-103.4198
 20
-83.2544
 30
0.0
 10
-104.5971
 20
-83.1495
 30
0.0
 10
-105.7478
 20
-83.5566
 30
0.0
 10
-106.3251
 20
-84.2828
 30
0.0
 10
-106.3251
 20
-84.2828
 30
0.0
 10
-108.2124
 20
-86.68
 30
0.0
 10
-109.5094
 20
-89.2829
 30
0.0
 10
-110.1611
 20
-91.9817
 30
0.0
 10
-110.1611
 20
-91.9817
 30
0.0
 10
-110.1611
 20
-91.9817
 30
0.0
 10
-99.1124
 20
-91.9817
 30
0.0
 10
-99.1124
 20
-91.9817
 30
0.0
 10
-99.1124
 20
-91.9817
 30
0.0
 10
-99.0837
 20
-89.5142
 30
0.0
 10
-99.715
 20
-87.0646
 30
0.0
 10
-100.974
 20
-84.7598
 30
0.0
  0
SPLINE
  5
55
330
1F
100
AcDbEntity
  8
layer 1
 62
     7
370
     9
100
AcDbSpline
210
0.0
220
0.0
230
1.0
 70
    11
 71
     3
 72
    68
 73
    64
 74
     0
 42
0.0000000001
 43
0.0000000001
 12
1.0
 22
0.0
 32
0.0
 13
1.0
 23
0.0
 33
0.0
 40
0.0
 40
0.0
 40
0.0
 40
0.0
 40
0.0588235294117647
 40
0.0588235294117647
 40
0.0588235294117647
 40
0.0588235294117647
 40
0.1176470588235294
 40
0.1176470588235294
 40
0.1176470588235294
 40
0.1176470588235294
 40
0.1764705882352941
 40
0.1764705882352941
 40
0.1764705882352941
 40
0.1764705882352941
 40
0.2352941176470588
 40
0.2352941176470588
 40
0.2352941176470588
 40
0.2352941176470588
 40
0.2941176470588235
 40
0.2941176470588235
 40
0.2941176470588235
 40
0.2941176470588235
 40
0.3529411764705883
 40
0.3529411764705883
 40
0.3529411764705883
 40
0.3529411764705883
 40
0.4117647058823529
 40
0.4117647058823529
 40
0.4117647058823529
 40
0.4117647058823529
 40
0.4705882352941176
 40
0.4705882352941176
 40
0.4705882352941176
 40
0.4705882352941176
 40
0.5294117647058824
 40
0.5294117647058824
 40
0.5294117647058824
 40
0.5294117647058824
 40
0.5882352941176471
 40
0.5882352941176471
 40
0.5882352941176471
 40
0.5882352941176471
 40
0.6470588235294118
 40
0.6470588235294118
 40
0.6470588235294118
 40
0.6470588235294118
 40
0.7058823529411765
 40
0.7058823529411765
 40
0.7058823529411765
 40
0.7058823529411765
 40
0.7647058823529411
 40
0.7647058823529411
 40
0.7647058823529411
 40
0.7647058823529411
 40
0.8235294117647058
 40
0.8235294117647058
 40
0.8235294117647058
 40
0.8235294117647058
 40
0.8823529411764706
 40
0.8823529411764706
 40
0.8823529411764706
 40
0.8823529411764706
 40
1.0
 40
1.0
 40
1.0
 40
1.0
 10
-128.3147
 20
-20.5792
 30
0.0
 10
-128.4581
 20
-24.3208
 30
0.0
 10
-125.3193
 20
-27.7434
 30
0.0
 10
-120.4012
 20
-29.2093
 30
0.0
 10
-120.4012
 20
-29.2093
 30
0.0
 10
-116.3481
 20
-30.0318
 30
0.0
 10
-111.9787
 20
-29.4769
 30
0.0
 10
-108.5956
 20
-27.7105
 30
0.0
 10
-108.5956
 20
-27.7105
 30
0.0
 10
-101.3055
 20
-23.4836
 30
0.0
 10
-96.3127
 20
-17.6301
 30
0.0
 10
-94.4548
 20
-11.1315
 30
0.0
 10
-94.4548
 20
-11.1315
 30
0.0
 10
-92.0326
 20
-4.9785
 30
0.0
 10
-90.8527
 20
1.3816
 30
0.0
 10
-90.9494
 20
7.764
 30
0.0
 10
-90.9494
 20
7.764
 30
0.0
 10
-90.8527
 20
14.146
 30
0.0
 10
-92.0326
 20
20.5064
 30
0.0
 10
-94.4548
 20
26.6591
 30
0.0
 10
-94.4548
 20
26.6591
 30
0.0
 10
-96.3127
 20
33.158
 30
0.0
 10
-101.3055
 20
39.0115
 30
0.0
 10
-108.5956
 20
43.2381
 30
0.0
 10
-108.5956
 20
43.2381
 30
0.0
 10
-111.9787
 20
45.005
 30
0.0
 10
-116.3481
 20
45.5598
 30
0.0
 10
-120.4012
 20
44.7368
 30
0.0
 10
-120.4012
 20
44.7368
 30
0.0
 10
-125.3193
 20
43.2715
 30
0.0
 10
-128.4581
 20
39.8487
 30
0.0
 10
-128.3147
 20
36.1071
 30
0.0
 10
-128.3147
 20
36.1071
 30
0.0
 10
-126.369
 20
38.3625
 30
0.0
 10
-123.0509
 20
39.8667
 30
0.0
 10
-119.3153
 20
40.1857
 30
0.0
 10
-119.3153
 20
40.1857
 30
0.0
 10
-115.5803
 20
40.5051
 30
0.0
 10
-111.8421
 20
39.6041
 30
0.0
 10
-109.1793
 20
37.7421
 30
0.0
 10
-109.1793
 20
37.7421
 30
0.0
 10
-105.0019
 20
34.7006
 30
0.0
 10
-101.9505
 20
30.9891
 30
0.0
 10
-100.2929
 20
26.9316
 30
0.0
 10
-100.2929
 20
26.9316
 30
0.0
 10
-97.8891
 20
20.684
 30
0.0
 10
-96.7265
 20
14.2339
 30
0.0
 10
-96.8368
 20
7.764
 30
0.0
 10
-96.8368
 20
7.764
 30
0.0
 10
-96.7265
 20
1.2936
 30
0.0
 10
-97.8891
 20
-5.1561
 30
0.0
 10
-100.2929
 20
-11.404
 30
0.0
 10
-100.2929
 20
-11.404
 30
0.0
 10
-101.9505
 20
-15.461
 30
0.0
 10
-105.0019
 20
-19.1727
 30
0.0
 10
-109.1793
 20
-22.2145
 30
0.0
 10
-109.1793
 20
-22.2145
 30
0.0
 10
-111.8421
 20
-24.0762
 30
0.0
 10
-115.5803
 20
-24.9771
 30
0.0
 10
-119.3153
 20
-24.6581
 30
0.0
 10
-119.3153
 20
-24.6581
 30
0.0
 10
-123.0509
 20
-24.3387
 30
0.0
 10
-126.369
 20
-22.8346
 30
0.0
 10
-128.3147
 20
-20.5792
 30
0.0
  0
SPLINE
  5
56
330
1F
100
AcDbEntity
  8
layer 1
 62
     7
370
     9
100
AcDbSpline
210
0.0
220
0.0
230
1.0
 70
    11
 71
     3
 72
    52
 73
    48
 74
     0
 42
0.0000000001
 43
0.0000000001
 12
1.0
 22
0.0
 32
0.0
 13
1.0
 23
0.0
 33
0.0
 40
0.0
 40
0.0
 40
0.0
 40
0.0
 40
0.0769230769230769
 40
0.0769230769230769
 40
0.0769230769230769
 40
0.0769230769230769
 40
0.1538461538461539
 40
0.1538461538461539
 40
0.1538461538461539
 40
0.1538461538461539
 40
0.2307692307692308
 40
0.2307692307692308
 40
0.2307692307692308
 40
0.2307692307692308
 40
0.3076923076923077
 40
0.3076923076923077
 40
0.3076923076923077
 40
0.3076923076923077
 40
0.3846153846153846
 40
0.3846153846153846
 40
0.3846153846153846
 40
0.3846153846153846
 40
0.4615384615384616
 40
0.4615384615384616
 40
0.4615384615384616
 40
0.4615384615384616
 40
0.5384615384615384
 40
0.5384615384615384
 40
0.5384615384615384
 40
0.5384615384615384
 40
0.6153846153846154
 40
0.6153846153846154
 40
0.6153846153846154
 40
0.6153846153846154
 40
0.6923076923076923
 40
0.6923076923076923
 40
0.6923076923076923
 40
0.6923076923076923
 40
0.7692307692307693
 40
0.7692307692307693
 40
0.7692307692307693
 40
0.7692307692307693
 40
0.8461538461538461
 40
0.8461538461538461
 40
0.8461538461538461
 40
0.8461538461538461
 40
1.0
 40
1.0
 40
1.0
 40
1.0
 10
-99.9687
 20
0.2693
 30
0.0
 10
-100.3018
 20
-0.7621
 30
0.0
 10
-100.8139
 20
-1.7613
 30
0.0
 10
-101.4928
 20
-2.7058
 30
0.0
 10
-101.4928
 20
-2.7058
 30
0.0
 10
-102.0107
 20
-3.2856
 30
0.0
 10
-102.9354
 20
-3.6244
 30
0.0
 10
-103.9108
 20
-3.5914
 30
0.0
 10
-103.9108
 20
-3.5914
 30
0.0
 10
-104.8862
 20
-3.5585
 30
0.0
 10
-105.7602
 20
-3.1589
 30
0.0
 10
-106.1954
 20
-2.5469
 30
0.0
 10
-106.1954
 20
-2.5469
 30
0.0
 10
-108.3912
 20
0.4133
 30
0.0
 10
-109.7353
 20
3.6461
 30
0.0
 10
-110.1522
 20
6.9692
 30
0.0
 10
-110.1522
 20
6.9692
 30
0.0
 10
-110.1925
 20
7.2329
 30
0.0
 10
-110.2108
 20
7.4984
 30
0.0
 10
-110.2071
 20
7.764
 30
0.0
 10
-110.2071
 20
7.764
 30
0.0
 10
-110.2108
 20
8.0295
 30
0.0
 10
-110.1925
 20
8.2947
 30
0.0
 10
-110.1522
 20
8.5587
 30
0.0
 10
-110.1522
 20
8.5587
 30
0.0
 10
-109.7353
 20
11.8814
 30
0.0
 10
-108.3912
 20
15.1148
 30
0.0
 10
-106.1954
 20
18.0745
 30
0.0
 10
-106.1954
 20
18.0745
 30
0.0
 10
-105.7602
 20
18.6868
 30
0.0
 10
-104.8862
 20
19.0864
 30
0.0
 10
-103.9108
 20
19.1193
 30
0.0
 10
-103.9108
 20
19.1193
 30
0.0
 10
-102.9354
 20
19.1524
 30
0.0
 10
-102.0107
 20
18.8136
 30
0.0
 10
-101.4928
 20
18.2338
 30
0.0
 10
-101.4928
 20
18.2338
 30
0.0
 10
-100.8139
 20
17.2888
 30
0.0
 10
-100.3018
 20
16.29
 30
0.0
 10
-99.9687
 20
15.2587
 30
0.0
 10
-99.9687
 20
15.2587
 30
0.0
 10
-99.3657
 20
12.7828
 30
0.0
 10
-99.0644
 20
10.2754
 30
0.0
 10
-99.0675
 20
7.764
 30
0.0
 10
-99.0675
 20
7.764
 30
0.0
 10
-99.0644
 20
5.2525
 30
0.0
 10
-99.3657
 20
2.7452
 30
0.0
 10
-99.9687
 20
0.2693
 30
0.0
  0
SPLINE
  5
57
330
1F
100
AcDbEntity
  8
layer 1
 62
     7
370
     9
100
AcDbSpline
210
0.0
220
0.0
230
1.0
 70
    11
 71
     3
 72
    20
 73
    16
 74
     0
 42
0.0000000001
 43
0.0000000001
 12
1.0
 22
0.0
 32
0.0
 13
1.0
 23
0.0
 33
0.0
 40
0.0
 40
0.0
 40
0.0
 40
0.0
 40
0.2
 40
0.2
 40
0.2
 40
0.2
 40
0.4
 40
0.4
 40
0.4
 40
0.4
 40
0.6
 40
0.6
 40
0.6
 40
0.6
 40
1.0
 40
1.0
 40
1.0
 40
1.0
 10
7.4477
 20
-2.6377
 30
0.0
 10
7.2822
 20
-6.4267
 30
0.0
 10
7.0011
 20
-10.2126
 30
0.0
 10
6.6042
 20
-13.9931
 30
0.0
 10
6.6042
 20
-13.9931
 30
0.0
 10
7.7217
 20
-12.5266
 30
0.0
 10
9.5008
 20
-11.3604
 30
0.0
 10
11.6638
 20
-10.6763
 30
0.0
 10
11.6638
 20
-10.6763
 30
0.0
 10
11.6638
 20
-10.6763
 30
0.0
 10
11.6638
 20
5.5294
 30
0.0
 10
11.6638
 20
5.5294
 30
0.0
 10
11.6638
 20
5.5294
 30
0.0
 10
8.8913
 20
3.255
 30
0.0
 10
7.393
 20
0.3524
 30
0.0
 10
7.4477
 20
-2.6377
 30
0.0
  0
SPLINE
  5
58
330
1F
100
AcDbEntity
  8
layer 1
 62
     7
370
     9
100
AcDbSpline
210
0.0
220
0.0
230
1.0
 70
    11
 71
     3
 72
    12
 73
     8
 74
     0
 42
0.0000000001
 43
0.0000000001
 12
1.0
 22
0.0
 32
0.0
 13
1.0
 23
0.0
 33
0.0
 40
0.0
 40
0.0
 40
0.0
 40
0.0
 40
0.3333333333333333
 40
0.3333333333333333
 40
0.3333333333333333
 40
0.3333333333333333
 40
1.0
 40
1.0
 40
1.0
 40
1.0
 10
11.6638
 20
-32.9429
 30
0.0
 10
8.2006
 20
-28.254
 30
0.0
 10
8.2006
 20
-22.6803
 30
0.0
 10
11.6638
 20
-17.9919
 30
0.0
 10
11.6638
 20
-17.9919
 30
0.0
 10
11.6638
 20
-17.9919
 30
0.0
 10
11.6638
 20
-32.9429
 30
0.0
 10
11.6638
 20
-32.9429
 30
0.0
  0
SPLINE
  5
59
330
1F
100
AcDbEntity
  8
layer 1
 62
     7
370
     9
100
AcDbSpline
210
0.0
220
0.0
230
1.0
 70
    11
 71
     3
 72
    32
 73
    28
 74
     0
 42
0.0000000001
 43
0.0000000001
 12
1.0
 22
0.0
 32
0.0
 13
1.0
 23
0.0
 33
0.0
 40
0.0
 40
0.0
 40
0.0
 40
0.0
 40
0.125
 40
0.125
 40
0.125
 40
0.125
 40
0.25
 40
0.25
 40
0.25
 40
0.25
 40
0.375
 40
0.375
 40
0.375
 40
0.375
 40
0.5
 40
0.5
 40
0.5
 40
0.5
 40
0.625
 40
0.625
 40
0.625
 40
0.625
 40
0.75
 40
0.75
 40
0.75
 40
0.75
 40
1.0
 40
1.0
 40
1.0
 40
1.0
 10
1.8044
 20
-59.6415
 30
0.0
 10
-1.5775
 20
-54.3574
 30
0.0
 10
-7.6979
 20
-50.169
 30
0.0
 10
-15.3198
 20
-47.9231
 30
0.0
 10
-15.3198
 20
-47.9231
 30
0.0
 10
-9.8155
 20
-46.0318
 30
0.0
 10
-4.0856
 20
-44.4817
 30
0.0
 10
1.8044
 20
-43.29
 30
0.0
 10
1.8044
 20
-43.29
 30
0.0
 10
-4.2489
 20
-42.315
 30
0.0
 10
-10.0935
 20
-40.7877
 30
0.0
 10
-15.5792
 20
-38.7476
 30
0.0
 10
-15.5792
 20
-38.7476
 30
0.0
 10
-7.6829
 20
-36.7504
 30
0.0
 10
-1.4273
 20
-32.4366
 30
0.0
 10
1.5449
 20
-26.9381
 30
0.0
 10
1.5449
 20
-26.9381
 30
0.0
 10
2.1366
 20
-31.9301
 30
0.0
 10
5.8382
 20
-36.4864
 30
0.0
 10
11.6638
 20
-39.3934
 30
0.0
 10
11.6638
 20
-39.3934
 30
0.0
 10
11.6638
 20
-39.3934
 30
0.0
 10
11.6638
 20
-47.136
 30
0.0
 10
11.6638
 20
-47.136
 30
0.0
 10
11.6638
 20
-47.136
 30
0.0
 10
5.7516
 20
-49.9866
 30
0.0
 10
2.0993
 20
-54.6194
 30
0.0
 10
1.8044
 20
-59.6415
 30
0.0
  0
SPLINE
  5
5A
330
1F
100
AcDbEntity
  8
layer 1
 62
     7
370
     9
100
AcDbSpline
210
0.0
220
0.0
230
1.0
 70
    11
 71
     3
 72
    12
 73
     8
 74
     0
 42
0.0000000001
 43
0.0000000001
 12
1.0
 22
0.0
 32
0.0
 13
1.0
 23
0.0
 33
0.0
 40
0.0
 40
0.0
 40
0.0
 40
0.0
 40
0.3333333333333333
 40
0.3333333333333333
 40
0.3333333333333333
 40
0.3333333333333333
 40
1.0
 40
1.0
 40
1.0
 40
1.0
 10
11.6638
 20
-68.6078
 30
0.0
 10
8.2778
 20
-64.02
 30
0.0
 10
8.2778
 20
-58.568
 30
0.0
 10
11.6638
 20
-53.9803
 30
0.0
 10
11.6638
 20
-53.9803
 30
0.0
 10
11.6638
 20
-53.9803
 30
0.0
 10
11.6638
 20
-68.6078
 30
0.0
 10
11.6638
 20
-68.6078
 30
0.0
  0
SPLINE
  5
5B
330
1F
100
AcDbEntity
  8
layer 1
 62
     7
370
     9
100
AcDbSpline
210
0.0
220
0.0
230
1.0
 70
    11
 71
     3
 72
    24
 73
    20
 74
     0
 42
0.0000000001
 43
0.0000000001
 12
1.0
 22
0.0
 32
0.0
 13
1.0
 23
0.0
 33
0.0
 40
0.0
 40
0.0
 40
0.0
 40
0.0
 40
0.1666666666666667
 40
0.1666666666666667
 40
0.1666666666666667
 40
0.1666666666666667
 40
0.3333333333333333
 40
0.3333333333333333
 40
0.3333333333333333
 40
0.3333333333333333
 40
0.5
 40
0.5
 40
0.5
 40
0.5
 40
0.6666666666666666
 40
0.6666666666666666
 40
0.6666666666666666
 40
0.6666666666666666
 40
1.0
 40
1.0
 40
1.0
 40
1.0
 10
7.707
 20
-85.7591
 30
0.0
 10
7.8823
 20
-81.5203
 30
0.0
 10
7.5132
 20
-77.279
 30
0.0
 10
6.6042
 20
-73.0865
 30
0.0
 10
6.6042
 20
-73.0865
 30
0.0
 10
7.9186
 20
-74.3299
 30
0.0
 10
9.6586
 20
-75.3218
 30
0.0
 10
11.6638
 20
-75.971
 30
0.0
 10
11.6638
 20
-75.971
 30
0.0
 10
11.6638
 20
-75.971
 30
0.0
 10
11.6638
 20
-91.9817
 30
0.0
 10
11.6638
 20
-91.9817
 30
0.0
 10
11.6638
 20
-91.9817
 30
0.0
 10
11.6638
 20
-91.9817
 30
0.0
 10
11.0628
 20
-91.9817
 30
0.0
 10
11.0628
 20
-91.9817
 30
0.0
 10
11.0628
 20
-91.9817
 30
0.0
 10
8.9717
 20
-90.2329
 30
0.0
 10
7.7887
 20
-88.0394
 30
0.0
 10
7.707
 20
-85.7591
 30
0.0
  0
SPLINE
  5
5C
330
1F
100
AcDbEntity
  8
layer 1
 62
     7
370
     9
100
AcDbSpline
210
0.0
220
0.0
230
1.0
 70
    11
 71
     3
 72
    40
 73
    36
 74
     0
 42
0.0000000001
 43
0.0000000001
 12
1.0
 22
0.0
 32
0.0
 13
1.0
 23
0.0
 33
0.0
 40
0.0
 40
0.0
 40
0.0
 40
0.0
 40
0.1
 40
0.1
 40
0.1
 40
0.1
 40
0.2
 40
0.2
 40
0.2
 40
0.2
 40
0.3
 40
0.3
 40
0.3
 40
0.3
 40
0.4
 40
0.4
 40
0.4
 40
0.4
 40
0.5
 40
0.5
 40
0.5
 40
0.5
 40
0.6
 40
0.6
 40
0.6
 40
0.6
 40
0.7
 40
0.7
 40
0.7
 40
0.7
 40
0.8
 40
0.8
 40
0.8
 40
0.8
 40
1.0
 40
1.0
 40
1.0
 40
1.0
 10
1.2205
 20
-77.7195
 30
0.0
 10
-0.01
 20
-72.4458
 30
0.0
 10
-2.9138
 20
-67.4325
 30
0.0
 10
-7.2765
 20
-63.0484
 30
0.0
 10
-7.2765
 20
-63.0484
 30
0.0
 10
-10.1988
 20
-60.3282
 30
0.0
 10
-14.292
 20
-58.3379
 30
0.0
 10
-18.9524
 20
-57.3706
 30
0.0
 10
-18.9524
 20
-57.3706
 30
0.0
 10
-22.7344
 20
-56.7703
 30
0.0
 10
-26.7001
 20
-57.4447
 30
0.0
 10
-29.6677
 20
-59.1928
 30
0.0
 10
-29.6677
 20
-59.1928
 30
0.0
 10
-32.6355
 20
-60.9409
 30
0.0
 10
-34.2631
 20
-63.5611
 30
0.0
 10
-34.066
 20
-66.2733
 30
0.0
 10
-34.066
 20
-66.2733
 30
0.0
 10
-31.4075
 20
-63.0132
 30
0.0
 10
-25.9526
 20
-61.4108
 30
0.0
 10
-20.7683
 20
-62.3668
 30
0.0
 10
-20.7683
 20
-62.3668
 30
0.0
 10
-15.9422
 20
-63.4879
 30
0.0
 10
-11.8773
 20
-65.8169
 30
0.0
 10
-9.3524
 20
-68.9077
 30
0.0
 10
-9.3524
 20
-68.9077
 30
0.0
 10
-3.7535
 20
-75.9198
 30
0.0
 10
-1.7671
 20
-84.0661
 30
0.0
 10
-3.7261
 20
-91.9817
 30
0.0
 10
-3.7261
 20
-91.9817
 30
0.0
 10
-3.7261
 20
-91.9817
 30
0.0
 10
2.256
 20
-91.9817
 30
0.0
 10
2.256
 20
-91.9817
 30
0.0
 10
2.256
 20
-91.9817
 30
0.0
 10
2.9146
 20
-87.218
 30
0.0
 10
2.5657
 20
-82.412
 30
0.0
 10
1.2205
 20
-77.7195
 30
0.0
  0
SPLINE
  5
5D
330
1F
100
AcDbEntity
  8
layer 1
 62
     7
370
     9
100
AcDbSpline
210
0.0
220
0.0
230
1.0
 70
    11
 71
     3
 72
    24
 73
    20
 74
     0
 42
0.0000000001
 43
0.0000000001
 12
1.0
 22
0.0
 32
0.0
 13
1.0
 23
0.0
 33
0.0
 40
0.0
 40
0.0
 40
0.0
 40
0.0
 40
0.1666666666666667
 40
0.1666666666666667
 40
0.1666666666666667
 40
0.1666666666666667
 40
0.3333333333333333
 40
0.3333333333333333
 40
0.3333333333333333
 40
0.3333333333333333
 40
0.5
 40
0.5
 40
0.5
 40
0.5
 40
0.6666666666666666
 40
0.6666666666666666
 40
0.6666666666666666
 40
0.6666666666666666
 40
1.0
 40
1.0
 40
1.0
 40
1.0
 10
-6.5306
 20
-84.7598
 30
0.0
 10
-6.8304
 20
-83.9553
 30
0.0
 10
-7.7984
 20
-83.3594
 30
0.0
 10
-8.9761
 20
-83.2544
 30
0.0
 10
-8.9761
 20
-83.2544
 30
0.0
 10
-10.1539
 20
-83.1495
 30
0.0
 10
-11.3044
 20
-83.5566
 30
0.0
 10
-11.8822
 20
-84.2828
 30
0.0
 10
-11.8822
 20
-84.2828
 30
0.0
 10
-13.769
 20
-86.68
 30
0.0
 10
-15.0661
 20
-89.2829
 30
0.0
 10
-15.7179
 20
-91.9817
 30
0.0
 10
-15.7179
 20
-91.9817
 30
0.0
 10
-15.7179
 20
-91.9817
 30
0.0
 10
-4.6692
 20
-91.9817
 30
0.0
 10
-4.6692
 20
-91.9817
 30
0.0
 10
-4.6692
 20
-91.9817
 30
0.0
 10
-4.6401
 20
-89.5142
 30
0.0
 10
-5.2714
 20
-87.0646
 30
0.0
 10
-6.5306
 20
-84.7598
 30
0.0
  0
SPLINE
  5
5E
330
1F
100
AcDbEntity
  8
layer 1
 62
     7
370
     9
100
AcDbSpline
210
0.0
220
0.0
230
1.0
 70
    11
 71
     3
 72
    72
 73
    68
 74
     0
 42
0.0000000001
 43
0.0000000001
 12
1.0
 22
0.0
 32
0.0
 13
1.0
 23
0.0
 33
0.0
 40
0.0
 40
0.0
 40
0.0
 40
0.0
 40
0.0555555555555556
 40
0.0555555555555556
 40
0.0555555555555556
 40
0.0555555555555556
 40
0.1111111111111111
 40
0.1111111111111111
 40
0.1111111111111111
 40
0.1111111111111111
 40
0.1666666666666667
 40
0.1666666666666667
 40
0.1666666666666667
 40
0.1666666666666667
 40
0.2222222222222222
 40
0.2222222222222222
 40
0.2222222222222222
 40
0.2222222222222222
 40
0.2777777777777778
 40
0.2777777777777778
 40
0.2777777777777778
 40
0.2777777777777778
 40
0.3333333333333333
 40
0.3333333333333333
 40
0.3333333333333333
 40
0.3333333333333333
 40
0.3888888888888889
 40
0.3888888888888889
 40
0.3888888888888889
 40
0.3888888888888889
 40
0.4444444444444444
 40
0.4444444444444444
 40
0.4444444444444444
 40
0.4444444444444444
 40
0.5
 40
0.5
 40
0.5
 40
0.5
 40
0.5555555555555556
 40
0.5555555555555556
 40
0.5555555555555556
 40
0.5555555555555556
 40
0.6111111111111112
 40
0.6111111111111112
 40
0.6111111111111112
 40
0.6111111111111112
 40
0.6666666666666666
 40
0.6666666666666666
 40
0.6666666666666666
 40
0.6666666666666666
 40
0.7222222222222222
 40
0.7222222222222222
 40
0.7222222222222222
 40
0.7222222222222222
 40
0.7777777777777778
 40
0.7777777777777778
 40
0.7777777777777778
 40
0.7777777777777778
 40
0.8333333333333334
 40
0.8333333333333334
 40
0.8333333333333334
 40
0.8333333333333334
 40
0.8888888888888888
 40
0.8888888888888888
 40
0.8888888888888888
 40
0.8888888888888888
 40
1.0
 40
1.0
 40
1.0
 40
1.0
 10
-26.5416
 20
-80.1268
 30
0.0
 10
-26.8684
 20
-81.3669
 30
0.0
 10
-26.7686
 20
-82.6438
 30
0.0
 10
-26.2497
 20
-83.8513
 30
0.0
 10
-26.2497
 20
-83.8513
 30
0.0
 10
-25.8882
 20
-84.6001
 30
0.0
 10
-24.9666
 20
-85.1482
 30
0.0
 10
-23.8532
 20
-85.2766
 30
0.0
 10
-23.8532
 20
-85.2766
 30
0.0
 10
-22.7396
 20
-85.4049
 30
0.0
 10
-21.6156
 20
-85.0927
 30
0.0
 10
-20.9309
 20
-84.4645
 30
0.0
 10
-20.9309
 20
-84.4645
 30
0.0
 10
-18.4392
 20
-81.6088
 30
0.0
 10
-17.8471
 20
-78.1349
 30
0.0
 10
-19.3091
 20
-74.9487
 30
0.0
 10
-19.3091
 20
-74.9487
 30
0.0
 10
-19.9241
 20
-73.5435
 30
0.0
 10
-20.8786
 20
-72.2224
 30
0.0
 10
-22.1308
 20
-71.0427
 30
0.0
 10
-22.1308
 20
-71.0427
 30
0.0
 10
-23.9875
 20
-69.8234
 30
0.0
 10
-26.8731
 20
-69.8135
 30
0.0
 10
-28.7467
 20
-71.0196
 30
0.0
 10
-28.7467
 20
-71.0196
 30
0.0
 10
-32.1354
 20
-73.8868
 30
0.0
 10
-34.474
 20
-77.2899
 30
0.0
 10
-35.5576
 20
-80.9333
 30
0.0
 10
-35.5576
 20
-80.9333
 30
0.0
 10
-36.642
 20
-77.2899
 30
0.0
 10
-38.98
 20
-73.8868
 30
0.0
 10
-42.3687
 20
-71.0196
 30
0.0
 10
-42.3687
 20
-71.0196
 30
0.0
 10
-44.2427
 20
-69.8135
 30
0.0
 10
-47.1277
 20
-69.8234
 30
0.0
 10
-48.9846
 20
-71.0427
 30
0.0
 10
-48.9846
 20
-71.0427
 30
0.0
 10
-50.2368
 20
-72.2224
 30
0.0
 10
-51.1913
 20
-73.5435
 30
0.0
 10
-51.8063
 20
-74.9487
 30
0.0
 10
-51.8063
 20
-74.9487
 30
0.0
 10
-53.2688
 20
-78.1349
 30
0.0
 10
-52.6768
 20
-81.6088
 30
0.0
 10
-50.1849
 20
-84.4645
 30
0.0
 10
-50.1849
 20
-84.4645
 30
0.0
 10
-49.4998
 20
-85.0927
 30
0.0
 10
-48.3758
 20
-85.4049
 30
0.0
 10
-47.2622
 20
-85.2766
 30
0.0
 10
-47.2622
 20
-85.2766
 30
0.0
 10
-46.1486
 20
-85.1482
 30
0.0
 10
-45.227
 20
-84.6001
 30
0.0
 10
-44.8657
 20
-83.8513
 30
0.0
 10
-44.8657
 20
-83.8513
 30
0.0
 10
-44.3474
 20
-82.6438
 30
0.0
 10
-44.2468
 20
-81.3669
 30
0.0
 10
-44.5744
 20
-80.1268
 30
0.0
 10
-44.5744
 20
-80.1268
 30
0.0
 10
-41.0522
 20
-83.8152
 30
0.0
 10
-41.5873
 20
-88.7115
 30
0.0
 10
-45.8694
 20
-91.9817
 30
0.0
 10
-45.8694
 20
-91.9817
 30
0.0
 10
-45.8694
 20
-91.9817
 30
0.0
 10
-25.2466
 20
-91.9817
 30
0.0
 10
-25.2466
 20
-91.9817
 30
0.0
 10
-25.2466
 20
-91.9817
 30
0.0
 10
-29.5281
 20
-88.7115
 30
0.0
 10
-30.0632
 20
-83.8152
 30
0.0
 10
-26.5416
 20
-80.1268
 30
0.0
  0
SPLINE
  5
5F
330
1F
100
AcDbEntity
  8
layer 1
 62
     7
370
     9
100
AcDbSpline
210
0.0
220
0.0
230
1.0
 70
    11
 71
     3
 72
    20
 73
    16
 74
     0
 42
0.0000000001
 43
0.0000000001
 12
1.0
 22
0.0
 32
0.0
 13
1.0
 23
0.0
 33
0.0
 40
0.0
 40
0.0
 40
0.0
 40
0.0
 40
0.2
 40
0.2
 40
0.2
 40
0.2
 40
0.4
 40
0.4
 40
0.4
 40
0.4
 40
0.6
 40
0.6
 40
0.6
 40
0.6
 40
1.0
 40
1.0
 40
1.0
 40
1.0
 10
-35.5576
 20
-56.3972
 30
0.0
 10
-34.1737
 20
-50.9604
 30
0.0
 10
-29.5192
 20
-46.2027
 30
0.0
 10
-22.7793
 20
-43.3353
 30
0.0
 10
-22.7793
 20
-43.3353
 30
0.0
 10
-28.8765
 20
-40.5167
 30
0.0
 10
-33.3912
 20
-36.3069
 30
0.0
 10
-35.5576
 20
-31.4211
 30
0.0
 10
-35.5576
 20
-31.4211
 30
0.0
 10
-37.7242
 20
-36.3069
 30
0.0
 10
-42.2395
 20
-40.5167
 30
0.0
 10
-48.3361
 20
-43.3353
 30
0.0
 10
-48.3361
 20
-43.3353
 30
0.0
 10
-41.5962
 20
-46.2027
 30
0.0
 10
-36.9417
 20
-50.9604
 30
0.0
 10
-35.5576
 20
-56.3972
 30
0.0
  0
SPLINE
  5
60
330
1F
100
AcDbEntity
  8
layer 1
 62
     7
370
     9
100
AcDbSpline
210
0.0
220
0.0
230
1.0
 70
    11
 71
     3
 72
    68
 73
    64
 74
     0
 42
0.0000000001
 43
0.0000000001
 12
1.0
 22
0.0
 32
0.0
 13
1.0
 23
0.0
 33
0.0
 40
0.0
 40
0.0
 40
0.0
 40
0.0
 40
0.0588235294117647
 40
0.0588235294117647
 40
0.0588235294117647
 40
0.0588235294117647
 40
0.1176470588235294
 40
0.1176470588235294
 40
0.1176470588235294
 40
0.1176470588235294
 40
0.1764705882352941
 40
0.1764705882352941
 40
0.1764705882352941
 40
0.1764705882352941
 40
0.2352941176470588
 40
0.2352941176470588
 40
0.2352941176470588
 40
0.2352941176470588
 40
0.2941176470588235
 40
0.2941176470588235
 40
0.2941176470588235
 40
0.2941176470588235
 40
0.3529411764705883
 40
0.3529411764705883
 40
0.3529411764705883
 40
0.3529411764705883
 40
0.4117647058823529
 40
0.4117647058823529
 40
0.4117647058823529
 40
0.4117647058823529
 40
0.4705882352941176
 40
0.4705882352941176
 40
0.4705882352941176
 40
0.4705882352941176
 40
0.5294117647058824
 40
0.5294117647058824
 40
0.5294117647058824
 40
0.5294117647058824
 40
0.5882352941176471
 40
0.5882352941176471
 40
0.5882352941176471
 40
0.5882352941176471
 40
0.6470588235294118
 40
0.6470588235294118
 40
0.6470588235294118
 40
0.6470588235294118
 40
0.7058823529411765
 40
0.7058823529411765
 40
0.7058823529411765
 40
0.7058823529411765
 40
0.7647058823529411
 40
0.7647058823529411
 40
0.7647058823529411
 40
0.7647058823529411
 40
0.8235294117647058
 40
0.8235294117647058
 40
0.8235294117647058
 40
0.8235294117647058
 40
0.8823529411764706
 40
0.8823529411764706
 40
0.8823529411764706
 40
0.8823529411764706
 40
1.0
 40
1.0
 40
1.0
 40
1.0
 10
-33.8714
 20
-20.5792
 30
0.0
 10
-34.0148
 20
-24.3208
 30
0.0
 10
-30.8759
 20
-27.7434
 30
0.0
 10
-25.9579
 20
-29.2093
 30
0.0
 10
-25.9579
 20
-29.2093
 30
0.0
 10
-21.9043
 20
-30.0318
 30
0.0
 10
-17.5348
 20
-29.4769
 30
0.0
 10
-14.1524
 20
-27.7105
 30
0.0
 10
-14.1524
 20
-27.7105
 30
0.0
 10
-6.8623
 20
-23.4836
 30
0.0
 10
-1.8697
 20
-17.6301
 30
0.0
 10
-0.012
 20
-11.1315
 30
0.0
 10
-0.012
 20
-11.1315
 30
0.0
 10
2.4106
 20
-4.9785
 30
0.0
 10
3.5905
 20
1.3816
 30
0.0
 10
3.4937
 20
7.764
 30
0.0
 10
3.4937
 20
7.764
 30
0.0
 10
3.5905
 20
14.146
 30
0.0
 10
2.4106
 20
20.5064
 30
0.0
 10
-0.012
 20
26.6591
 30
0.0
 10
-0.012
 20
26.6591
 30
0.0
 10
-1.8697
 20
33.158
 30
0.0
 10
-6.8623
 20
39.0115
 30
0.0
 10
-14.1524
 20
43.2381
 30
0.0
 10
-14.1524
 20
43.2381
 30
0.0
 10
-17.5348
 20
45.005
 30
0.0
 10
-21.9043
 20
45.5598
 30
0.0
 10
-25.9579
 20
44.7368
 30
0.0
 10
-25.9579
 20
44.7368
 30
0.0
 10
-30.8759
 20
43.2715
 30
0.0
 10
-34.0148
 20
39.8487
 30
0.0
 10
-33.8714
 20
36.1071
 30
0.0
 10
-33.8714
 20
36.1071
 30
0.0
 10
-31.9258
 20
38.3625
 30
0.0
 10
-28.6075
 20
39.8667
 30
0.0
 10
-24.872
 20
40.1857
 30
0.0
 10
-24.872
 20
40.1857
 30
0.0
 10
-21.1366
 20
40.5051
 30
0.0
 10
-17.3995
 20
39.6041
 30
0.0
 10
-14.7361
 20
37.7421
 30
0.0
 10
-14.7361
 20
37.7421
 30
0.0
 10
-10.5585
 20
34.7006
 30
0.0
 10
-7.5074
 20
30.9891
 30
0.0
 10
-5.8497
 20
26.9316
 30
0.0
 10
-5.8497
 20
26.9316
 30
0.0
 10
-3.4457
 20
20.684
 30
0.0
 10
-2.2829
 20
14.2339
 30
0.0
 10
-2.3934
 20
7.764
 30
0.0
 10
-2.3934
 20
7.764
 30
0.0
 10
-2.2829
 20
1.2936
 30
0.0
 10
-3.4457
 20
-5.1561
 30
0.0
 10
-5.8497
 20
-11.404
 30
0.0
 10
-5.8497
 20
-11.404
 30
0.0
 10
-7.5074
 20
-15.461
 30
0.0
 10
-10.5585
 20
-19.1727
 30
0.0
 10
-14.7361
 20
-22.2145
 30
0.0
 10
-14.7361
 20
-22.2145
 30
0.0
 10
-17.3995
 20
-24.0762
 30
0.0
 10
-21.1366
 20
-24.9771
 30
0.0
 10
-24.872
 20
-24.6581
 30
0.0
 10
-24.872
 20
-24.6581
 30
0.0
 10
-28.6075
 20
-24.3387
 30
0.0
 10
-31.9258
 20
-22.8346
 30
0.0
 10
-33.8714
 20
-20.5792
 30
0.0
  0
SPLINE
  5
61
330
1F
100
AcDbEntity
  8
layer 1
 62
     7
370
     9
100
AcDbSpline
210
0.0
220
0.0
230
1.0
 70
    11
 71
     3
 72
    52
 73
    48
 74
     0
 42
0.0000000001
 43
0.0000000001
 12
1.0
 22
0.0
 32
0.0
 13
1.0
 23
0.0
 33
0.0
 40
0.0
 40
0.0
 40
0.0
 40
0.0
 40
0.0769230769230769
 40
0.0769230769230769
 40
0.0769230769230769
 40
0.0769230769230769
 40
0.1538461538461539
 40
0.1538461538461539
 40
0.1538461538461539
 40
0.1538461538461539
 40
0.2307692307692308
 40
0.2307692307692308
 40
0.2307692307692308
 40
0.2307692307692308
 40
0.3076923076923077
 40
0.3076923076923077
 40
0.3076923076923077
 40
0.3076923076923077
 40
0.3846153846153846
 40
0.3846153846153846
 40
0.3846153846153846
 40
0.3846153846153846
 40
0.4615384615384616
 40
0.4615384615384616
 40
0.4615384615384616
 40
0.4615384615384616
 40
0.5384615384615384
 40
0.5384615384615384
 40
0.5384615384615384
 40
0.5384615384615384
 40
0.6153846153846154
 40
0.6153846153846154
 40
0.6153846153846154
 40
0.6153846153846154
 40
0.6923076923076923
 40
0.6923076923076923
 40
0.6923076923076923
 40
0.6923076923076923
 40
0.7692307692307693
 40
0.7692307692307693
 40
0.7692307692307693
 40
0.7692307692307693
 40
0.8461538461538461
 40
0.8461538461538461
 40
0.8461538461538461
 40
0.8461538461538461
 40
1.0
 40
1.0
 40
1.0
 40
1.0
 10
-5.5253
 20
0.2693
 30
0.0
 10
-5.8589
 20
-0.7621
 30
0.0
 10
-6.371
 20
-1.7613
 30
0.0
 10
-7.0496
 20
-2.7058
 30
0.0
 10
-7.0496
 20
-2.7058
 30
0.0
 10
-7.5673
 20
-3.2856
 30
0.0
 10
-8.4921
 20
-3.6244
 30
0.0
 10
-9.4674
 20
-3.5914
 30
0.0
 10
-9.4674
 20
-3.5914
 30
0.0
 10
-10.443
 20
-3.5585
 30
0.0
 10
-11.3168
 20
-3.1589
 30
0.0
 10
-11.7524
 20
-2.5469
 30
0.0
 10
-11.7524
 20
-2.5469
 30
0.0
 10
-13.9479
 20
0.4133
 30
0.0
 10
-15.2927
 20
3.6461
 30
0.0
 10
-15.709
 20
6.9692
 30
0.0
 10
-15.709
 20
6.9692
 30
0.0
 10
-15.7492
 20
7.2329
 30
0.0
 10
-15.7675
 20
7.4984
 30
0.0
 10
-15.7638
 20
7.764
 30
0.0
 10
-15.7638
 20
7.764
 30
0.0
 10
-15.7675
 20
8.0295
 30
0.0
 10
-15.7492
 20
8.2947
 30
0.0
 10
-15.709
 20
8.5587
 30
0.0
 10
-15.709
 20
8.5587
 30
0.0
 10
-15.2927
 20
11.8814
 30
0.0
 10
-13.9479
 20
15.1148
 30
0.0
 10
-11.7524
 20
18.0745
 30
0.0
 10
-11.7524
 20
18.0745
 30
0.0
 10
-11.3168
 20
18.6868
 30
0.0
 10
-10.443
 20
19.0864
 30
0.0
 10
-9.4674
 20
19.1193
 30
0.0
 10
-9.4674
 20
19.1193
 30
0.0
 10
-8.4921
 20
19.1524
 30
0.0
 10
-7.5673
 20
18.8136
 30
0.0
 10
-7.0496
 20
18.2338
 30
0.0
 10
-7.0496
 20
18.2338
 30
0.0
 10
-6.371
 20
17.2888
 30
0.0
 10
-5.8589
 20
16.29
 30
0.0
 10
-5.5253
 20
15.2587
 30
0.0
 10
-5.5253
 20
15.2587
 30
0.0
 10
-4.9223
 20
12.7828
 30
0.0
 10
-4.6207
 20
10.2754
 30
0.0
 10
-4.624
 20
7.764
 30
0.0
 10
-4.624
 20
7.764
 30
0.0
 10
-4.6207
 20
5.2525
 30
0.0
 10
-4.9223
 20
2.7452
 30
0.0
 10
-5.5253
 20
0.2693
 30
0.0
  0
SPLINE
  5
62
330
1F
100
AcDbEntity
  8
layer 1
 62
     7
370
     9
100
AcDbSpline
210
0.0
220
0.0
230
1.0
 70
    11
 71
     3
 72
   180
 73
   176
 74
     0
 42
0.0000000001
 43
0.0000000001
 12
1.0
 22
0.0
 32
0.0
 13
1.0
 23
0.0
 33
0.0
 40
0.0
 40
0.0
 40
0.0
 40
0.0
 40
0.0222222222222222
 40
0.0222222222222222
 40
0.0222222222222222
 40
0.0222222222222222
 40
0.0444444444444444
 40
0.0444444444444444
 40
0.0444444444444444
 40
0.0444444444444444
 40
0.0666666666666667
 40
0.0666666666666667
 40
0.0666666666666667
 40
0.0666666666666667
 40
0.0888888888888889
 40
0.0888888888888889
 40
0.0888888888888889
 40
0.0888888888888889
 40
0.1111111111111111
 40
0.1111111111111111
 40
0.1111111111111111
 40
0.1111111111111111
 40
0.1333333333333333
 40
0.1333333333333333
 40
0.1333333333333333
 40
0.1333333333333333
 40
0.1555555555555556
 40
0.1555555555555556
 40
0.1555555555555556
 40
0.1555555555555556
 40
0.1777777777777778
 40
0.1777777777777778
 40
0.1777777777777778
 40
0.1777777777777778
 40
0.2
 40
0.2
 40
0.2
 40
0.2
 40
0.2222222222222222
 40
0.2222222222222222
 40
0.2222222222222222
 40
0.2222222222222222
 40
0.2444444444444444
 40
0.2444444444444444
 40
0.2444444444444444
 40
0.2444444444444444
 40
0.2666666666666667
 40
0.2666666666666667
 40
0.2666666666666667
 40
0.2666666666666667
 40
0.2888888888888889
 40
0.2888888888888889
 40
0.2888888888888889
 40
0.2888888888888889
 40
0.3111111111111111
 40
0.3111111111111111
 40
0.3111111111111111
 40
0.3111111111111111
 40
0.3333333333333333
 40
0.3333333333333333
 40
0.3333333333333333
 40
0.3333333333333333
 40
0.3555555555555556
 40
0.3555555555555556
 40
0.3555555555555556
 40
0.3555555555555556
 40
0.3777777777777778
 40
0.3777777777777778
 40
0.3777777777777778
 40
0.3777777777777778
 40
0.4
 40
0.4
 40
0.4
 40
0.4
 40
0.4222222222222222
 40
0.4222222222222222
 40
0.4222222222222222
 40
0.4222222222222222
 40
0.4444444444444444
 40
0.4444444444444444
 40
0.4444444444444444
 40
0.4444444444444444
 40
0.4666666666666667
 40
0.4666666666666667
 40
0.4666666666666667
 40
0.4666666666666667
 40
0.4888888888888889
 40
0.4888888888888889
 40
0.4888888888888889
 40
0.4888888888888889
 40
0.5111111111111111
 40
0.5111111111111111
 40
0.5111111111111111
 40
0.5111111111111111
 40
0.5333333333333333
 40
0.5333333333333333
 40
0.5333333333333333
 40
0.5333333333333333
 40
0.5555555555555556
 40
0.5555555555555556
 40
0.5555555555555556
 40
0.5555555555555556
 40
0.5777777777777777
 40
0.5777777777777777
 40
0.5777777777777777
 40
0.5777777777777777
 40
0.6
 40
0.6
 40
0.6
 40
0.6
 40
0.6222222222222222
 40
0.6222222222222222
 40
0.6222222222222222
 40
0.6222222222222222
 40
0.6444444444444445
 40
0.6444444444444445
 40
0.6444444444444445
 40
0.6444444444444445
 40
0.6666666666666666
 40
0.6666666666666666
 40
0.6666666666666666
 40
0.6666666666666666
 40
0.6888888888888889
 40
0.6888888888888889
 40
0.6888888888888889
 40
0.6888888888888889
 40
0.7111111111111111
 40
0.7111111111111111
 40
0.7111111111111111
 40
0.7111111111111111
 40
0.7333333333333333
 40
0.7333333333333333
 40
0.7333333333333333
 40
0.7333333333333333
 40
0.7555555555555555
 40
0.7555555555555555
 40
0.7555555555555555
 40
0.7555555555555555
 40
0.7777777777777778
 40
0.7777777777777778
 40
0.7777777777777778
 40
0.7777777777777778
 40
0.8
 40
0.8
 40
0.8
 40
0.8
 40
0.8222222222222222
 40
0.8222222222222222
 40
0.8222222222222222
 40
0.8222222222222222
 40
0.8444444444444444
 40
0.8444444444444444
 40
0.8444444444444444
 40
0.8444444444444444
 40
0.8666666666666667
 40
0.8666666666666667
 40
0.8666666666666667
 40
0.8666666666666667
 40
0.8888888888888888
 40
0.8888888888888888
 40
0.8888888888888888
 40
0.8888888888888888
 40
0.9111111111111111
 40
0.9111111111111111
 40
0.9111111111111111
 40
0.9111111111111111
 40
0.9333333333333333
 40
0.9333333333333333
 40
0.9333333333333333
 40
0.9333333333333333
 40
0.9555555555555556
 40
0.9555555555555556
 40
0.9555555555555556
 40
0.9555555555555556
 40
1.0
 40
1.0
 40
1.0
 40
1.0
 10
-24.9201
 20
6.7417
 30
0.0
 10
-26.4144
 20
4.6497
 30
0.0
 10
-28.0939
 20
2.6246
 30
0.0
 10
-29.9471
 20
0.678
 30
0.0
 10
-29.9471
 20
0.678
 30
0.0
 10
-31.2918
 20
-2.0353
 30
0.0
 10
-29.8691
 20
-5.0429
 30
0.0
 10
-26.4767
 20
-6.6574
 30
0.0
 10
-26.4767
 20
-6.6574
 30
0.0
 10
-26.9757
 20
-5.2762
 30
0.0
 10
-26.7811
 20
-3.8167
 30
0.0
 10
-25.9255
 20
-2.5241
 30
0.0
 10
-25.9255
 20
-2.5241
 30
0.0
 10
-25.5661
 20
-1.9425
 30
0.0
 10
-24.8396
 20
-1.5122
 30
0.0
 10
-23.961
 20
-1.3609
 30
0.0
 10
-23.961
 20
-1.3609
 30
0.0
 10
-23.0827
 20
-1.2093
 30
0.0
 10
-22.1534
 20
-1.354
 30
0.0
 10
-21.4499
 20
-1.7521
 30
0.0
 10
-21.4499
 20
-1.7521
 30
0.0
 10
-18.808
 20
-4.599
 30
0.0
 10
-17.9737
 20
-8.0869
 30
0.0
 10
-19.1469
 20
-11.3813
 30
0.0
 10
-19.1469
 20
-11.3813
 30
0.0
 10
-19.7159
 20
-12.8064
 30
0.0
 10
-20.6139
 20
-14.1568
 30
0.0
 10
-21.8066
 20
-15.3783
 30
0.0
 10
-21.8066
 20
-15.3783
 30
0.0
 10
-22.6632
 20
-16.0822
 30
0.0
 10
-23.8966
 20
-16.5079
 30
0.0
 10
-25.2162
 20
-16.5551
 30
0.0
 10
-25.2162
 20
-16.5551
 30
0.0
 10
-26.5353
 20
-16.6023
 30
0.0
 10
-27.8241
 20
-16.2672
 30
0.0
 10
-28.7791
 20
-15.6281
 30
0.0
 10
-28.7791
 20
-15.6281
 30
0.0
 10
-32.1296
 20
-12.8486
 30
0.0
 10
-34.4572
 20
-9.5369
 30
0.0
 10
-35.5576
 20
-5.9823
 30
0.0
 10
-35.5576
 20
-5.9823
 30
0.0
 10
-36.6586
 20
-9.5369
 30
0.0
 10
-38.9858
 20
-12.8486
 30
0.0
 10
-42.3362
 20
-15.6281
 30
0.0
 10
-42.3362
 20
-15.6281
 30
0.0
 10
-43.2913
 20
-16.2672
 30
0.0
 10
-44.5801
 20
-16.6023
 30
0.0
 10
-45.8992
 20
-16.5551
 30
0.0
 10
-45.8992
 20
-16.5551
 30
0.0
 10
-47.2188
 20
-16.5079
 30
0.0
 10
-48.4522
 20
-16.0822
 30
0.0
 10
-49.3094
 20
-15.3783
 30
0.0
 10
-49.3094
 20
-15.3783
 30
0.0
 10
-50.5015
 20
-14.1568
 30
0.0
 10
-51.3999
 20
-12.8064
 30
0.0
 10
-51.9685
 20
-11.3813
 30
0.0
 10
-51.9685
 20
-11.3813
 30
0.0
 10
-53.1417
 20
-8.0869
 30
0.0
 10
-52.3074
 20
-4.599
 30
0.0
 10
-49.6661
 20
-1.7521
 30
0.0
 10
-49.6661
 20
-1.7521
 30
0.0
 10
-48.962
 20
-1.354
 30
0.0
 10
-48.0332
 20
-1.2093
 30
0.0
 10
-47.1544
 20
-1.3609
 30
0.0
 10
-47.1544
 20
-1.3609
 30
0.0
 10
-46.2763
 20
-1.5122
 30
0.0
 10
-45.5493
 20
-1.9425
 30
0.0
 10
-45.1905
 20
-2.5241
 30
0.0
 10
-45.1905
 20
-2.5241
 30
0.0
 10
-44.3343
 20
-3.8167
 30
0.0
 10
-44.1397
 20
-5.2762
 30
0.0
 10
-44.6387
 20
-6.6574
 30
0.0
 10
-44.6387
 20
-6.6574
 30
0.0
 10
-41.2468
 20
-5.0429
 30
0.0
 10
-39.8236
 20
-2.0353
 30
0.0
 10
-41.1688
 20
0.678
 30
0.0
 10
-41.1688
 20
0.678
 30
0.0
 10
-43.0219
 20
2.6246
 30
0.0
 10
-44.701
 20
4.6497
 30
0.0
 10
-46.1958
 20
6.7417
 30
0.0
 10
-46.1958
 20
6.7417
 30
0.0
 10
-46.4552
 20
7.0516
 30
0.0
 10
-46.5895
 20
7.4051
 30
0.0
 10
-46.5844
 20
7.764
 30
0.0
 10
-46.5844
 20
7.764
 30
0.0
 10
-46.5895
 20
8.1229
 30
0.0
 10
-46.4552
 20
8.4764
 30
0.0
 10
-46.1958
 20
8.7859
 30
0.0
 10
-46.1958
 20
8.7859
 30
0.0
 10
-44.701
 20
10.8779
 30
0.0
 10
-43.0219
 20
12.9033
 30
0.0
 10
-41.1688
 20
14.8495
 30
0.0
 10
-41.1688
 20
14.8495
 30
0.0
 10
-39.8236
 20
17.5632
 30
0.0
 10
-41.2468
 20
20.5709
 30
0.0
 10
-44.6387
 20
22.1853
 30
0.0
 10
-44.6387
 20
22.1853
 30
0.0
 10
-44.1397
 20
20.8041
 30
0.0
 10
-44.3343
 20
19.3446
 30
0.0
 10
-45.1905
 20
18.0518
 30
0.0
 10
-45.1905
 20
18.0518
 30
0.0
 10
-45.5493
 20
17.4705
 30
0.0
 10
-46.2763
 20
17.0401
 30
0.0
 10
-47.1544
 20
16.8886
 30
0.0
 10
-47.1544
 20
16.8886
 30
0.0
 10
-48.0332
 20
16.7369
 30
0.0
 10
-48.962
 20
16.8819
 30
0.0
 10
-49.6661
 20
17.2796
 30
0.0
 10
-49.6661
 20
17.2796
 30
0.0
 10
-52.3074
 20
20.1269
 30
0.0
 10
-53.1417
 20
23.6145
 30
0.0
 10
-51.9685
 20
26.9089
 30
0.0
 10
-51.9685
 20
26.9089
 30
0.0
 10
-51.3999
 20
28.3344
 30
0.0
 10
-50.5015
 20
29.6844
 30
0.0
 10
-49.3094
 20
30.9062
 30
0.0
 10
-49.3094
 20
30.9062
 30
0.0
 10
-48.4522
 20
31.6102
 30
0.0
 10
-47.2188
 20
32.0358
 30
0.0
 10
-45.8992
 20
32.083
 30
0.0
 10
-45.8992
 20
32.083
 30
0.0
 10
-44.5801
 20
32.1303
 30
0.0
 10
-43.2913
 20
31.7951
 30
0.0
 10
-42.3362
 20
31.156
 30
0.0
 10
-42.3362
 20
31.156
 30
0.0
 10
-38.9858
 20
28.3765
 30
0.0
 10
-36.6586
 20
25.0648
 30
0.0
 10
-35.5576
 20
21.5099
 30
0.0
 10
-35.5576
 20
21.5099
 30
0.0
 10
-34.4572
 20
25.0648
 30
0.0
 10
-32.1296
 20
28.3765
 30
0.0
 10
-28.7791
 20
31.156
 30
0.0
 10
-28.7791
 20
31.156
 30
0.0
 10
-27.8241
 20
31.7951
 30
0.0
 10
-26.5353
 20
32.1303
 30
0.0
 10
-25.2162
 20
32.083
 30
0.0
 10
-25.2162
 20
32.083
 30
0.0
 10
-23.8966
 20
32.0358
 30
0.0
 10
-22.6632
 20
31.6102
 30
0.0
 10
-21.8066
 20
30.9062
 30
0.0
 10
-21.8066
 20
30.9062
 30
0.0
 10
-20.6139
 20
29.6844
 30
0.0
 10
-19.7159
 20
28.3344
 30
0.0
 10
-19.1469
 20
26.9089
 30
0.0
 10
-19.1469
 20
26.9089
 30
0.0
 10
-17.9737
 20
23.6145
 30
0.0
 10
-18.808
 20
20.1269
 30
0.0
 10
-21.4499
 20
17.2796
 30
0.0
 10
-21.4499
 20
17.2796
 30
0.0
 10
-22.1534
 20
16.8819
 30
0.0
 10
-23.0827
 20
16.7369
 30
0.0
 10
-23.961
 20
16.8886
 30
0.0
 10
-23.961
 20
16.8886
 30
0.0
 10
-24.8396
 20
17.0401
 30
0.0
 10
-25.5661
 20
17.4705
 30
0.0
 10
-25.9255
 20
18.0518
 30
0.0
 10
-25.9255
 20
18.0518
 30
0.0
 10
-26.7811
 20
19.3446
 30
0.0
 10
-26.9757
 20
20.8041
 30
0.0
 10
-26.4767
 20
22.1853
 30
0.0
 10
-26.4767
 20
22.1853
 30
0.0
 10
-29.8691
 20
20.5709
 30
0.0
 10
-31.2918
 20
17.5632
 30
0.0
 10
-29.9471
 20
14.8495
 30
0.0
 10
-29.9471
 20
14.8495
 30
0.0
 10
-28.0939
 20
12.9033
 30
0.0
 10
-26.4144
 20
10.8779
 30
0.0
 10
-24.9201
 20
8.7859
 30
0.0
 10
-24.9201
 20
8.7859
 30
0.0
 10
-24.6602
 20
8.4764
 30
0.0
 10
-24.5259
 20
8.1229
 30
0.0
 10
-24.531
 20
7.764
 30
0.0
 10
-24.531
 20
7.764
 30
0.0
 10
-24.5259
 20
7.4051
 30
0.0
 10
-24.6602
 20
7.0516
 30
0.0
 10
-24.9201
 20
6.7417
 30
0.0
  0
SPLINE
  5
63
330
1F
100
AcDbEntity
  8
layer 1
 62
     7
370
     9
100
AcDbSpline
210
0.0
220
0.0
230
1.0
 70
    11
 71
     3
 72
    40
 73
    36
 74
     0
 42
0.0000000001
 43
0.0000000001
 12
1.0
 22
0.0
 32
0.0
 13
1.0
 23
0.0
 33
0.0
 40
0.0
 40
0.0
 40
0.0
 40
0.0
 40
0.1
 40
0.1
 40
0.1
 40
0.1
 40
0.2
 40
0.2
 40
0.2
 40
0.2
 40
0.3
 40
0.3
 40
0.3
 40
0.3
 40
0.4
 40
0.4
 40
0.4
 40
0.4
 40
0.5
 40
0.5
 40
0.5
 40
0.5
 40
0.6
 40
0.6
 40
0.6
 40
0.6
 40
0.7
 40
0.7
 40
0.7
 40
0.7
 40
0.8
 40
0.8
 40
0.8
 40
0.8
 40
1.0
 40
1.0
 40
1.0
 40
1.0
 10
-72.3361
 20
-77.7195
 30
0.0
 10
-71.1054
 20
-72.4458
 30
0.0
 10
-68.2021
 20
-67.4325
 30
0.0
 10
-63.8389
 20
-63.0484
 30
0.0
 10
-63.8389
 20
-63.0484
 30
0.0
 10
-60.9166
 20
-60.3282
 30
0.0
 10
-56.8234
 20
-58.3379
 30
0.0
 10
-52.163
 20
-57.3706
 30
0.0
 10
-52.163
 20
-57.3706
 30
0.0
 10
-48.381
 20
-56.7703
 30
0.0
 10
-44.4159
 20
-57.4447
 30
0.0
 10
-41.4481
 20
-59.1928
 30
0.0
 10
-41.4481
 20
-59.1928
 30
0.0
 10
-38.4805
 20
-60.9409
 30
0.0
 10
-36.8527
 20
-63.5611
 30
0.0
 10
-37.0499
 20
-66.2733
 30
0.0
 10
-37.0499
 20
-66.2733
 30
0.0
 10
-39.7079
 20
-63.0132
 30
0.0
 10
-45.1628
 20
-61.4108
 30
0.0
 10
-50.3471
 20
-62.3668
 30
0.0
 10
-50.3471
 20
-62.3668
 30
0.0
 10
-55.1732
 20
-63.4879
 30
0.0
 10
-59.2383
 20
-65.8169
 30
0.0
 10
-61.7635
 20
-68.9077
 30
0.0
 10
-61.7635
 20
-68.9077
 30
0.0
 10
-67.362
 20
-75.9198
 30
0.0
 10
-69.3486
 20
-84.0661
 30
0.0
 10
-67.3897
 20
-91.9817
 30
0.0
 10
-67.3897
 20
-91.9817
 30
0.0
 10
-67.3897
 20
-91.9817
 30
0.0
 10
-73.3712
 20
-91.9817
 30
0.0
 10
-73.3712
 20
-91.9817
 30
0.0
 10
-73.3712
 20
-91.9817
 30
0.0
 10
-74.0303
 20
-87.218
 30
0.0
 10
-73.6814
 20
-82.412
 30
0.0
 10
-72.3361
 20
-77.7195
 30
0.0
  0
SPLINE
  5
64
330
1F
100
AcDbEntity
  8
layer 1
 62
     7
370
     9
100
AcDbSpline
210
0.0
220
0.0
230
1.0
 70
    11
 71
     3
 72
    24
 73
    20
 74
     0
 42
0.0000000001
 43
0.0000000001
 12
1.0
 22
0.0
 32
0.0
 13
1.0
 23
0.0
 33
0.0
 40
0.0
 40
0.0
 40
0.0
 40
0.0
 40
0.1666666666666667
 40
0.1666666666666667
 40
0.1666666666666667
 40
0.1666666666666667
 40
0.3333333333333333
 40
0.3333333333333333
 40
0.3333333333333333
 40
0.3333333333333333
 40
0.5
 40
0.5
 40
0.5
 40
0.5
 40
0.6666666666666666
 40
0.6666666666666666
 40
0.6666666666666666
 40
0.6666666666666666
 40
1.0
 40
1.0
 40
1.0
 40
1.0
 10
-64.5848
 20
-84.7598
 30
0.0
 10
-64.285
 20
-83.9553
 30
0.0
 10
-63.3168
 20
-83.3594
 30
0.0
 10
-62.1395
 20
-83.2544
 30
0.0
 10
-62.1395
 20
-83.2544
 30
0.0
 10
-60.9617
 20
-83.1495
 30
0.0
 10
-59.8115
 20
-83.5566
 30
0.0
 10
-59.2335
 20
-84.2828
 30
0.0
 10
-59.2335
 20
-84.2828
 30
0.0
 10
-57.3464
 20
-86.68
 30
0.0
 10
-56.0497
 20
-89.2829
 30
0.0
 10
-55.3975
 20
-91.9817
 30
0.0
 10
-55.3975
 20
-91.9817
 30
0.0
 10
-55.3975
 20
-91.9817
 30
0.0
 10
-66.4462
 20
-91.9817
 30
0.0
 10
-66.4462
 20
-91.9817
 30
0.0
 10
-66.4462
 20
-91.9817
 30
0.0
 10
-66.4754
 20
-89.5142
 30
0.0
 10
-65.8441
 20
-87.0646
 30
0.0
 10
-64.5848
 20
-84.7598
 30
0.0
  0
SPLINE
  5
65
330
1F
100
AcDbEntity
  8
layer 1
 62
     7
370
     9
100
AcDbSpline
210
0.0
220
0.0
230
1.0
 70
    11
 71
     3
 72
    68
 73
    64
 74
     0
 42
0.0000000001
 43
0.0000000001
 12
1.0
 22
0.0
 32
0.0
 13
1.0
 23
0.0
 33
0.0
 40
0.0
 40
0.0
 40
0.0
 40
0.0
 40
0.0588235294117647
 40
0.0588235294117647
 40
0.0588235294117647
 40
0.0588235294117647
 40
0.1176470588235294
 40
0.1176470588235294
 40
0.1176470588235294
 40
0.1176470588235294
 40
0.1764705882352941
 40
0.1764705882352941
 40
0.1764705882352941
 40
0.1764705882352941
 40
0.2352941176470588
 40
0.2352941176470588
 40
0.2352941176470588
 40
0.2352941176470588
 40
0.2941176470588235
 40
0.2941176470588235
 40
0.2941176470588235
 40
0.2941176470588235
 40
0.3529411764705883
 40
0.3529411764705883
 40
0.3529411764705883
 40
0.3529411764705883
 40
0.4117647058823529
 40
0.4117647058823529
 40
0.4117647058823529
 40
0.4117647058823529
 40
0.4705882352941176
 40
0.4705882352941176
 40
0.4705882352941176
 40
0.4705882352941176
 40
0.5294117647058824
 40
0.5294117647058824
 40
0.5294117647058824
 40
0.5294117647058824
 40
0.5882352941176471
 40
0.5882352941176471
 40
0.5882352941176471
 40
0.5882352941176471
 40
0.6470588235294118
 40
0.6470588235294118
 40
0.6470588235294118
 40
0.6470588235294118
 40
0.7058823529411765
 40
0.7058823529411765
 40
0.7058823529411765
 40
0.7058823529411765
 40
0.7647058823529411
 40
0.7647058823529411
 40
0.7647058823529411
 40
0.7647058823529411
 40
0.8235294117647058
 40
0.8235294117647058
 40
0.8235294117647058
 40
0.8235294117647058
 40
0.8823529411764706
 40
0.8823529411764706
 40
0.8823529411764706
 40
0.8823529411764706
 40
1.0
 40
1.0
 40
1.0
 40
1.0
 10
-37.244
 20
-20.5792
 30
0.0
 10
-37.1006
 20
-24.3208
 30
0.0
 10
-40.2395
 20
-27.7434
 30
0.0
 10
-45.1581
 20
-29.2093
 30
0.0
 10
-45.1581
 20
-29.2093
 30
0.0
 10
-49.2111
 20
-30.0318
 30
0.0
 10
-53.5806
 20
-29.4769
 30
0.0
 10
-56.963
 20
-27.7105
 30
0.0
 10
-56.963
 20
-27.7105
 30
0.0
 10
-64.2531
 20
-23.4836
 30
0.0
 10
-69.246
 20
-17.6301
 30
0.0
 10
-71.1039
 20
-11.1315
 30
0.0
 10
-71.1039
 20
-11.1315
 30
0.0
 10
-73.526
 20
-4.9785
 30
0.0
 10
-74.7061
 20
1.3816
 30
0.0
 10
-74.6092
 20
7.764
 30
0.0
 10
-74.6092
 20
7.764
 30
0.0
 10
-74.7061
 20
14.146
 30
0.0
 10
-73.526
 20
20.5064
 30
0.0
 10
-71.1039
 20
26.6591
 30
0.0
 10
-71.1039
 20
26.6591
 30
0.0
 10
-69.246
 20
33.158
 30
0.0
 10
-64.2531
 20
39.0115
 30
0.0
 10
-56.963
 20
43.2381
 30
0.0
 10
-56.963
 20
43.2381
 30
0.0
 10
-53.5806
 20
45.005
 30
0.0
 10
-49.2111
 20
45.5598
 30
0.0
 10
-45.1581
 20
44.7368
 30
0.0
 10
-45.1581
 20
44.7368
 30
0.0
 10
-40.2395
 20
43.2715
 30
0.0
 10
-37.1006
 20
39.8487
 30
0.0
 10
-37.244
 20
36.1071
 30
0.0
 10
-37.244
 20
36.1071
 30
0.0
 10
-39.1896
 20
38.3625
 30
0.0
 10
-42.5083
 20
39.8667
 30
0.0
 10
-46.2434
 20
40.1857
 30
0.0
 10
-46.2434
 20
40.1857
 30
0.0
 10
-49.9788
 20
40.5051
 30
0.0
 10
-53.7165
 20
39.6041
 30
0.0
 10
-56.3793
 20
37.7421
 30
0.0
 10
-56.3793
 20
37.7421
 30
0.0
 10
-60.5574
 20
34.7006
 30
0.0
 10
-63.6082
 20
30.9891
 30
0.0
 10
-65.2657
 20
26.9316
 30
0.0
 10
-65.2657
 20
26.9316
 30
0.0
 10
-67.6695
 20
20.684
 30
0.0
 10
-68.8328
 20
14.2339
 30
0.0
 10
-68.7219
 20
7.764
 30
0.0
 10
-68.7219
 20
7.764
 30
0.0
 10
-68.8328
 20
1.2936
 30
0.0
 10
-67.6695
 20
-5.1561
 30
0.0
 10
-65.2657
 20
-11.404
 30
0.0
 10
-65.2657
 20
-11.404
 30
0.0
 10
-63.6082
 20
-15.461
 30
0.0
 10
-60.5574
 20
-19.1727
 30
0.0
 10
-56.3793
 20
-22.2145
 30
0.0
 10
-56.3793
 20
-22.2145
 30
0.0
 10
-53.7165
 20
-24.0762
 30
0.0
 10
-49.9788
 20
-24.9771
 30
0.0
 10
-46.2434
 20
-24.6581
 30
0.0
 10
-46.2434
 20
-24.6581
 30
0.0
 10
-42.5083
 20
-24.3387
 30
0.0
 10
-39.1896
 20
-22.8346
 30
0.0
 10
-37.244
 20
-20.5792
 30
0.0
  0
SPLINE
  5
66
330
1F
100
AcDbEntity
  8
layer 1
 62
     7
370
     9
100
AcDbSpline
210
0.0
220
0.0
230
1.0
 70
    11
 71
     3
 72
    52
 73
    48
 74
     0
 42
0.0000000001
 43
0.0000000001
 12
1.0
 22
0.0
 32
0.0
 13
1.0
 23
0.0
 33
0.0
 40
0.0
 40
0.0
 40
0.0
 40
0.0
 40
0.0769230769230769
 40
0.0769230769230769
 40
0.0769230769230769
 40
0.0769230769230769
 40
0.1538461538461539
 40
0.1538461538461539
 40
0.1538461538461539
 40
0.1538461538461539
 40
0.2307692307692308
 40
0.2307692307692308
 40
0.2307692307692308
 40
0.2307692307692308
 40
0.3076923076923077
 40
0.3076923076923077
 40
0.3076923076923077
 40
0.3076923076923077
 40
0.3846153846153846
 40
0.3846153846153846
 40
0.3846153846153846
 40
0.3846153846153846
 40
0.4615384615384616
 40
0.4615384615384616
 40
0.4615384615384616
 40
0.4615384615384616
 40
0.5384615384615384
 40
0.5384615384615384
 40
0.5384615384615384
 40
0.5384615384615384
 40
0.6153846153846154
 40
0.6153846153846154
 40
0.6153846153846154
 40
0.6153846153846154
 40
0.6923076923076923
 40
0.6923076923076923
 40
0.6923076923076923
 40
0.6923076923076923
 40
0.7692307692307693
 40
0.7692307692307693
 40
0.7692307692307693
 40
0.7692307692307693
 40
0.8461538461538461
 40
0.8461538461538461
 40
0.8461538461538461
 40
0.8461538461538461
 40
1.0
 40
1.0
 40
1.0
 40
1.0
 10
-65.59
 20
0.2693
 30
0.0
 10
-65.2568
 20
-0.7621
 30
0.0
 10
-64.7447
 20
-1.7613
 30
0.0
 10
-64.0658
 20
-2.7058
 30
0.0
 10
-64.0658
 20
-2.7058
 30
0.0
 10
-63.548
 20
-3.2856
 30
0.0
 10
-62.6233
 20
-3.6244
 30
0.0
 10
-61.6478
 20
-3.5914
 30
0.0
 10
-61.6478
 20
-3.5914
 30
0.0
 10
-60.6724
 20
-3.5585
 30
0.0
 10
-59.7984
 20
-3.1589
 30
0.0
 10
-59.3633
 20
-2.5469
 30
0.0
 10
-59.3633
 20
-2.5469
 30
0.0
 10
-57.1675
 20
0.4133
 30
0.0
 10
-55.8233
 20
3.6461
 30
0.0
 10
-55.4064
 20
6.9692
 30
0.0
 10
-55.4064
 20
6.9692
 30
0.0
 10
-55.3661
 20
7.2329
 30
0.0
 10
-55.3483
 20
7.4984
 30
0.0
 10
-55.3516
 20
7.764
 30
0.0
 10
-55.3516
 20
7.764
 30
0.0
 10
-55.3483
 20
8.0295
 30
0.0
 10
-55.3661
 20
8.2947
 30
0.0
 10
-55.4064
 20
8.5587
 30
0.0
 10
-55.4064
 20
8.5587
 30
0.0
 10
-55.8233
 20
11.8814
 30
0.0
 10
-57.1675
 20
15.1148
 30
0.0
 10
-59.3633
 20
18.0745
 30
0.0
 10
-59.3633
 20
18.0745
 30
0.0
 10
-59.7984
 20
18.6868
 30
0.0
 10
-60.6724
 20
19.0864
 30
0.0
 10
-61.6478
 20
19.1193
 30
0.0
 10
-61.6478
 20
19.1193
 30
0.0
 10
-62.6233
 20
19.1524
 30
0.0
 10
-63.548
 20
18.8136
 30
0.0
 10
-64.0658
 20
18.2338
 30
0.0
 10
-64.0658
 20
18.2338
 30
0.0
 10
-64.7447
 20
17.2888
 30
0.0
 10
-65.2568
 20
16.29
 30
0.0
 10
-65.59
 20
15.2587
 30
0.0
 10
-65.59
 20
15.2587
 30
0.0
 10
-66.193
 20
12.7828
 30
0.0
 10
-66.4948
 20
10.2754
 30
0.0
 10
-66.4911
 20
7.764
 30
0.0
 10
-66.4911
 20
7.764
 30
0.0
 10
-66.4948
 20
5.2525
 30
0.0
 10
-66.193
 20
2.7452
 30
0.0
 10
-65.59
 20
0.2693
 30
0.0
  0
SPLINE
  5
67
330
1F
100
AcDbEntity
  8
layer 1
 62
     7
370
     9
100
AcDbSpline
210
0.0
220
0.0
230
1.0
 70
    11
 71
     3
 72
    20
 73
    16
 74
     0
 42
0.0000000001
 43
0.0000000001
 12
1.0
 22
0.0
 32
0.0
 13
1.0
 23
0.0
 33
0.0
 40
0.0
 40
0.0
 40
0.0
 40
0.0
 40
0.2
 40
0.2
 40
0.2
 40
0.2
 40
0.4
 40
0.4
 40
0.4
 40
0.4
 40
0.6
 40
0.6
 40
0.6
 40
0.6
 40
1.0
 40
1.0
 40
1.0
 40
1.0
 10
-173.0066
 20
18.1652
 30
0.0
 10
-172.8409
 20
21.9546
 30
0.0
 10
-172.5599
 20
25.7402
 30
0.0
 10
-172.1635
 20
29.5207
 30
0.0
 10
-172.1635
 20
29.5207
 30
0.0
 10
-173.2808
 20
28.0546
 30
0.0
 10
-175.0596
 20
26.8885
 30
0.0
 10
-177.2229
 20
26.2043
 30
0.0
 10
-177.2229
 20
26.2043
 30
0.0
 10
-177.2229
 20
26.2043
 30
0.0
 10
-177.2229
 20
9.9982
 30
0.0
 10
-177.2229
 20
9.9982
 30
0.0
 10
-177.2229
 20
9.9982
 30
0.0
 10
-174.4503
 20
12.273
 30
0.0
 10
-172.9518
 20
15.1752
 30
0.0
 10
-173.0066
 20
18.1652
 30
0.0
  0
SPLINE
  5
68
330
1F
100
AcDbEntity
  8
layer 1
 62
     7
370
     9
100
AcDbSpline
210
0.0
220
0.0
230
1.0
 70
    11
 71
     3
 72
    12
 73
     8
 74
     0
 42
0.0000000001
 43
0.0000000001
 12
1.0
 22
0.0
 32
0.0
 13
1.0
 23
0.0
 33
0.0
 40
0.0
 40
0.0
 40
0.0
 40
0.0
 40
0.3333333333333333
 40
0.3333333333333333
 40
0.3333333333333333
 40
0.3333333333333333
 40
1.0
 40
1.0
 40
1.0
 40
1.0
 10
-177.2229
 20
48.4704
 30
0.0
 10
-173.7594
 20
43.7819
 30
0.0
 10
-173.7594
 20
38.2083
 30
0.0
 10
-177.2229
 20
33.5198
 30
0.0
 10
-177.2229
 20
33.5198
 30
0.0
 10
-177.2229
 20
33.5198
 30
0.0
 10
-177.2229
 20
48.4704
 30
0.0
 10
-177.2229
 20
48.4704
 30
0.0
  0
SPLINE
  5
69
330
1F
100
AcDbEntity
  8
layer 1
 62
     7
370
     9
100
AcDbSpline
210
0.0
220
0.0
230
1.0
 70
    11
 71
     3
 72
    32
 73
    28
 74
     0
 42
0.0000000001
 43
0.0000000001
 12
1.0
 22
0.0
 32
0.0
 13
1.0
 23
0.0
 33
0.0
 40
0.0
 40
0.0
 40
0.0
 40
0.0
 40
0.125
 40
0.125
 40
0.125
 40
0.125
 40
0.25
 40
0.25
 40
0.25
 40
0.25
 40
0.375
 40
0.375
 40
0.375
 40
0.375
 40
0.5
 40
0.5
 40
0.5
 40
0.5
 40
0.625
 40
0.625
 40
0.625
 40
0.625
 40
0.75
 40
0.75
 40
0.75
 40
0.75
 40
1.0
 40
1.0
 40
1.0
 40
1.0
 10
-167.363
 20
75.1694
 30
0.0
 10
-163.9812
 20
69.8851
 30
0.0
 10
-157.861
 20
65.6969
 30
0.0
 10
-150.2389
 20
63.4507
 30
0.0
 10
-150.2389
 20
63.4507
 30
0.0
 10
-155.7433
 20
61.5597
 30
0.0
 10
-161.4732
 20
60.0097
 30
0.0
 10
-167.363
 20
58.8176
 30
0.0
 10
-167.363
 20
58.8176
 30
0.0
 10
-161.3099
 20
57.8426
 30
0.0
 10
-155.4656
 20
56.3156
 30
0.0
 10
-149.9794
 20
54.2756
 30
0.0
 10
-149.9794
 20
54.2756
 30
0.0
 10
-157.8757
 20
52.2784
 30
0.0
 10
-164.1312
 20
47.9643
 30
0.0
 10
-167.1037
 20
42.466
 30
0.0
 10
-167.1037
 20
42.466
 30
0.0
 10
-167.6953
 20
47.4581
 30
0.0
 10
-171.3968
 20
52.0143
 30
0.0
 10
-177.2229
 20
54.9213
 30
0.0
 10
-177.2229
 20
54.9213
 30
0.0
 10
-177.2229
 20
54.9213
 30
0.0
 10
-177.2229
 20
62.6639
 30
0.0
 10
-177.2229
 20
62.6639
 30
0.0
 10
-177.2229
 20
62.6639
 30
0.0
 10
-171.3105
 20
65.5145
 30
0.0
 10
-167.6581
 20
70.1473
 30
0.0
 10
-167.363
 20
75.1694
 30
0.0
  0
SPLINE
  5
6A
330
1F
100
AcDbEntity
  8
layer 1
 62
     7
370
     9
100
AcDbSpline
210
0.0
220
0.0
230
1.0
 70
    11
 71
     3
 72
    12
 73
     8
 74
     0
 42
0.0000000001
 43
0.0000000001
 12
1.0
 22
0.0
 32
0.0
 13
1.0
 23
0.0
 33
0.0
 40
0.0
 40
0.0
 40
0.0
 40
0.0
 40
0.3333333333333333
 40
0.3333333333333333
 40
0.3333333333333333
 40
0.3333333333333333
 40
1.0
 40
1.0
 40
1.0
 40
1.0
 10
-177.2229
 20
84.1357
 30
0.0
 10
-173.8368
 20
79.548
 30
0.0
 10
-173.8368
 20
74.0955
 30
0.0
 10
-177.2229
 20
69.5078
 30
0.0
 10
-177.2229
 20
69.5078
 30
0.0
 10
-177.2229
 20
69.5078
 30
0.0
 10
-177.2229
 20
84.1357
 30
0.0
 10
-177.2229
 20
84.1357
 30
0.0
  0
SPLINE
  5
6B
330
1F
100
AcDbEntity
  8
layer 1
 62
     7
370
     9
100
AcDbSpline
210
0.0
220
0.0
230
1.0
 70
    11
 71
     3
 72
    24
 73
    20
 74
     0
 42
0.0000000001
 43
0.0000000001
 12
1.0
 22
0.0
 32
0.0
 13
1.0
 23
0.0
 33
0.0
 40
0.0
 40
0.0
 40
0.0
 40
0.0
 40
0.1666666666666667
 40
0.1666666666666667
 40
0.1666666666666667
 40
0.1666666666666667
 40
0.3333333333333333
 40
0.3333333333333333
 40
0.3333333333333333
 40
0.3333333333333333
 40
0.5
 40
0.5
 40
0.5
 40
0.5
 40
0.6666666666666666
 40
0.6666666666666666
 40
0.6666666666666666
 40
0.6666666666666666
 40
1.0
 40
1.0
 40
1.0
 40
1.0
 10
-173.2661
 20
101.2868
 30
0.0
 10
-173.4414
 20
97.0481
 30
0.0
 10
-173.072
 20
92.8068
 30
0.0
 10
-172.1635
 20
88.6143
 30
0.0
 10
-172.1635
 20
88.6143
 30
0.0
 10
-173.4774
 20
89.8578
 30
0.0
 10
-175.2175
 20
90.8496
 30
0.0
 10
-177.2229
 20
91.499
 30
0.0
 10
-177.2229
 20
91.499
 30
0.0
 10
-177.2229
 20
91.499
 30
0.0
 10
-177.2229
 20
107.5095
 30
0.0
 10
-177.2229
 20
107.5095
 30
0.0
 10
-177.2229
 20
107.5095
 30
0.0
 10
-177.2229
 20
107.5095
 30
0.0
 10
-176.6214
 20
107.5095
 30
0.0
 10
-176.6214
 20
107.5095
 30
0.0
 10
-176.6214
 20
107.5095
 30
0.0
 10
-174.5303
 20
105.7606
 30
0.0
 10
-173.3477
 20
103.5671
 30
0.0
 10
-173.2661
 20
101.2868
 30
0.0
  0
SPLINE
  5
6C
330
1F
100
AcDbEntity
  8
layer 1
 62
     7
370
     9
100
AcDbSpline
210
0.0
220
0.0
230
1.0
 70
    11
 71
     3
 72
    40
 73
    36
 74
     0
 42
0.0000000001
 43
0.0000000001
 12
1.0
 22
0.0
 32
0.0
 13
1.0
 23
0.0
 33
0.0
 40
0.0
 40
0.0
 40
0.0
 40
0.0
 40
0.1
 40
0.1
 40
0.1
 40
0.1
 40
0.2
 40
0.2
 40
0.2
 40
0.2
 40
0.3
 40
0.3
 40
0.3
 40
0.3
 40
0.4
 40
0.4
 40
0.4
 40
0.4
 40
0.5
 40
0.5
 40
0.5
 40
0.5
 40
0.6
 40
0.6
 40
0.6
 40
0.6
 40
0.7
 40
0.7
 40
0.7
 40
0.7
 40
0.8
 40
0.8
 40
0.8
 40
0.8
 40
1.0
 40
1.0
 40
1.0
 40
1.0
 10
-166.7793
 20
93.2471
 30
0.0
 10
-165.5487
 20
87.9733
 30
0.0
 10
-162.6453
 20
82.9604
 30
0.0
 10
-158.2821
 20
78.576
 30
0.0
 10
-158.2821
 20
78.576
 30
0.0
 10
-155.3598
 20
75.8561
 30
0.0
 10
-151.2666
 20
73.8659
 30
0.0
 10
-146.6064
 20
72.8982
 30
0.0
 10
-146.6064
 20
72.8982
 30
0.0
 10
-142.8242
 20
72.298
 30
0.0
 10
-138.8591
 20
72.9723
 30
0.0
 10
-135.8915
 20
74.7204
 30
0.0
 10
-135.8915
 20
74.7204
 30
0.0
 10
-132.9237
 20
76.4685
 30
0.0
 10
-131.2955
 20
79.0891
 30
0.0
 10
-131.4927
 20
81.8009
 30
0.0
 10
-131.4927
 20
81.8009
 30
0.0
 10
-134.1513
 20
78.5412
 30
0.0
 10
-139.6061
 20
76.9387
 30
0.0
 10
-144.7904
 20
77.8947
 30
0.0
 10
-144.7904
 20
77.8947
 30
0.0
 10
-149.6165
 20
79.0159
 30
0.0
 10
-153.6815
 20
81.3449
 30
0.0
 10
-156.2061
 20
84.4353
 30
0.0
 10
-156.2061
 20
84.4353
 30
0.0
 10
-161.8053
 20
91.4473
 30
0.0
 10
-163.7918
 20
99.594
 30
0.0
 10
-161.8325
 20
107.5095
 30
0.0
 10
-161.8325
 20
107.5095
 30
0.0
 10
-161.8325
 20
107.5095
 30
0.0
 10
-167.8149
 20
107.5095
 30
0.0
 10
-167.8149
 20
107.5095
 30
0.0
 10
-167.8149
 20
107.5095
 30
0.0
 10
-168.4735
 20
102.7455
 30
0.0
 10
-168.1247
 20
97.9399
 30
0.0
 10
-166.7793
 20
93.2471
 30
0.0
  0
SPLINE
  5
6D
330
1F
100
AcDbEntity
  8
layer 1
 62
     7
370
     9
100
AcDbSpline
210
0.0
220
0.0
230
1.0
 70
    11
 71
     3
 72
    24
 73
    20
 74
     0
 42
0.0000000001
 43
0.0000000001
 12
1.0
 22
0.0
 32
0.0
 13
1.0
 23
0.0
 33
0.0
 40
0.0
 40
0.0
 40
0.0
 40
0.0
 40
0.1666666666666667
 40
0.1666666666666667
 40
0.1666666666666667
 40
0.1666666666666667
 40
0.3333333333333333
 40
0.3333333333333333
 40
0.3333333333333333
 40
0.3333333333333333
 40
0.5
 40
0.5
 40
0.5
 40
0.5
 40
0.6666666666666666
 40
0.6666666666666666
 40
0.6666666666666666
 40
0.6666666666666666
 40
1.0
 40
1.0
 40
1.0
 40
1.0
 10
-159.028
 20
100.2876
 30
0.0
 10
-158.7282
 20
99.483
 30
0.0
 10
-157.7601
 20
98.8875
 30
0.0
 10
-156.5827
 20
98.7823
 30
0.0
 10
-156.5827
 20
98.7823
 30
0.0
 10
-155.4049
 20
98.6772
 30
0.0
 10
-154.2543
 20
99.0845
 30
0.0
 10
-153.6768
 20
99.8107
 30
0.0
 10
-153.6768
 20
99.8107
 30
0.0
 10
-151.7897
 20
102.2079
 30
0.0
 10
-150.4931
 20
104.8105
 30
0.0
 10
-149.8408
 20
107.5095
 30
0.0
 10
-149.8408
 20
107.5095
 30
0.0
 10
-149.8408
 20
107.5095
 30
0.0
 10
-160.8894
 20
107.5095
 30
0.0
 10
-160.8894
 20
107.5095
 30
0.0
 10
-160.8894
 20
107.5095
 30
0.0
 10
-160.9188
 20
105.042
 30
0.0
 10
-160.2875
 20
102.5925
 30
0.0
 10
-159.028
 20
100.2876
 30
0.0
  0
SPLINE
  5
6E
330
1F
100
AcDbEntity
  8
layer 1
 62
     7
370
     9
100
AcDbSpline
210
0.0
220
0.0
230
1.0
 70
    11
 71
     3
 72
    72
 73
    68
 74
     0
 42
0.0000000001
 43
0.0000000001
 12
1.0
 22
0.0
 32
0.0
 13
1.0
 23
0.0
 33
0.0
 40
0.0
 40
0.0
 40
0.0
 40
0.0
 40
0.0555555555555556
 40
0.0555555555555556
 40
0.0555555555555556
 40
0.0555555555555556
 40
0.1111111111111111
 40
0.1111111111111111
 40
0.1111111111111111
 40
0.1111111111111111
 40
0.1666666666666667
 40
0.1666666666666667
 40
0.1666666666666667
 40
0.1666666666666667
 40
0.2222222222222222
 40
0.2222222222222222
 40
0.2222222222222222
 40
0.2222222222222222
 40
0.2777777777777778
 40
0.2777777777777778
 40
0.2777777777777778
 40
0.2777777777777778
 40
0.3333333333333333
 40
0.3333333333333333
 40
0.3333333333333333
 40
0.3333333333333333
 40
0.3888888888888889
 40
0.3888888888888889
 40
0.3888888888888889
 40
0.3888888888888889
 40
0.4444444444444444
 40
0.4444444444444444
 40
0.4444444444444444
 40
0.4444444444444444
 40
0.5
 40
0.5
 40
0.5
 40
0.5
 40
0.5555555555555556
 40
0.5555555555555556
 40
0.5555555555555556
 40
0.5555555555555556
 40
0.6111111111111112
 40
0.6111111111111112
 40
0.6111111111111112
 40
0.6111111111111112
 40
0.6666666666666666
 40
0.6666666666666666
 40
0.6666666666666666
 40
0.6666666666666666
 40
0.7222222222222222
 40
0.7222222222222222
 40
0.7222222222222222
 40
0.7222222222222222
 40
0.7777777777777778
 40
0.7777777777777778
 40
0.7777777777777778
 40
0.7777777777777778
 40
0.8333333333333334
 40
0.8333333333333334
 40
0.8333333333333334
 40
0.8333333333333334
 40
0.8888888888888888
 40
0.8888888888888888
 40
0.8888888888888888
 40
0.8888888888888888
 40
1.0
 40
1.0
 40
1.0
 40
1.0
 10
-139.0172
 20
95.6545
 30
0.0
 10
-138.6902
 20
96.8946
 30
0.0
 10
-138.79
 20
98.1714
 30
0.0
 10
-139.3095
 20
99.379
 30
0.0
 10
-139.3095
 20
99.379
 30
0.0
 10
-139.6704
 20
100.1279
 30
0.0
 10
-140.592
 20
100.6762
 30
0.0
 10
-141.7055
 20
100.8044
 30
0.0
 10
-141.7055
 20
100.8044
 30
0.0
 10
-142.8191
 20
100.9326
 30
0.0
 10
-143.943
 20
100.6205
 30
0.0
 10
-144.6283
 20
99.9924
 30
0.0
 10
-144.6283
 20
99.9924
 30
0.0
 10
-147.12
 20
97.1367
 30
0.0
 10
-147.7116
 20
93.6628
 30
0.0
 10
-146.2497
 20
90.4763
 30
0.0
 10
-146.2497
 20
90.4763
 30
0.0
 10
-145.6346
 20
89.0714
 30
0.0
 10
-144.68
 20
87.7499
 30
0.0
 10
-143.4284
 20
86.5702
 30
0.0
 10
-143.4284
 20
86.5702
 30
0.0
 10
-141.5711
 20
85.3513
 30
0.0
 10
-138.6855
 20
85.341
 30
0.0
 10
-136.8119
 20
86.5475
 30
0.0
 10
-136.8119
 20
86.5475
 30
0.0
 10
-133.4232
 20
89.4146
 30
0.0
 10
-131.0853
 20
92.8178
 30
0.0
 10
-130.001
 20
96.461
 30
0.0
 10
-130.001
 20
96.461
 30
0.0
 10
-128.9168
 20
92.8178
 30
0.0
 10
-126.5787
 20
89.4146
 30
0.0
 10
-123.1906
 20
86.5475
 30
0.0
 10
-123.1906
 20
86.5475
 30
0.0
 10
-121.3164
 20
85.341
 30
0.0
 10
-118.4309
 20
85.3513
 30
0.0
 10
-116.5741
 20
86.5702
 30
0.0
 10
-116.5741
 20
86.5702
 30
0.0
 10
-115.322
 20
87.7499
 30
0.0
 10
-114.3679
 20
89.0714
 30
0.0
 10
-113.7523
 20
90.4763
 30
0.0
 10
-113.7523
 20
90.4763
 30
0.0
 10
-112.2905
 20
93.6628
 30
0.0
 10
-112.8825
 20
97.1367
 30
0.0
 10
-115.3737
 20
99.9924
 30
0.0
 10
-115.3737
 20
99.9924
 30
0.0
 10
-116.0589
 20
100.6205
 30
0.0
 10
-117.1828
 20
100.9326
 30
0.0
 10
-118.2964
 20
100.8044
 30
0.0
 10
-118.2964
 20
100.8044
 30
0.0
 10
-119.41
 20
100.6762
 30
0.0
 10
-120.3316
 20
100.1279
 30
0.0
 10
-120.6929
 20
99.379
 30
0.0
 10
-120.6929
 20
99.379
 30
0.0
 10
-121.2119
 20
98.1714
 30
0.0
 10
-121.3118
 20
96.8946
 30
0.0
 10
-120.9849
 20
95.6545
 30
0.0
 10
-120.9849
 20
95.6545
 30
0.0
 10
-124.5064
 20
99.343
 30
0.0
 10
-123.9713
 20
104.2392
 30
0.0
 10
-119.6898
 20
107.5095
 30
0.0
 10
-119.6898
 20
107.5095
 30
0.0
 10
-119.6898
 20
107.5095
 30
0.0
 10
-140.3121
 20
107.5095
 30
0.0
 10
-140.3121
 20
107.5095
 30
0.0
 10
-140.3121
 20
107.5095
 30
0.0
 10
-136.0306
 20
104.2392
 30
0.0
 10
-135.4955
 20
99.343
 30
0.0
 10
-139.0172
 20
95.6545
 30
0.0
  0
SPLINE
  5
6F
330
1F
100
AcDbEntity
  8
layer 1
 62
     7
370
     9
100
AcDbSpline
210
0.0
220
0.0
230
1.0
 70
    11
 71
     3
 72
    20
 73
    16
 74
     0
 42
0.0000000001
 43
0.0000000001
 12
1.0
 22
0.0
 32
0.0
 13
1.0
 23
0.0
 33
0.0
 40
0.0
 40
0.0
 40
0.0
 40
0.0
 40
0.2
 40
0.2
 40
0.2
 40
0.2
 40
0.4
 40
0.4
 40
0.4
 40
0.4
 40
0.6
 40
0.6
 40
0.6
 40
0.6
 40
1.0
 40
1.0
 40
1.0
 40
1.0
 10
-130.001
 20
71.9251
 30
0.0
 10
-131.3849
 20
66.4884
 30
0.0
 10
-136.0395
 20
61.7308
 30
0.0
 10
-142.7793
 20
58.8634
 30
0.0
 10
-142.7793
 20
58.8634
 30
0.0
 10
-136.6828
 20
56.0446
 30
0.0
 10
-132.1674
 20
51.8345
 30
0.0
 10
-130.001
 20
46.949
 30
0.0
 10
-130.001
 20
46.949
 30
0.0
 10
-127.8346
 20
51.8345
 30
0.0
 10
-123.3197
 20
56.0446
 30
0.0
 10
-117.2227
 20
58.8634
 30
0.0
 10
-117.2227
 20
58.8634
 30
0.0
 10
-123.9626
 20
61.7308
 30
0.0
 10
-128.617
 20
66.4884
 30
0.0
 10
-130.001
 20
71.9251
 30
0.0
  0
SPLINE
  5
70
330
1F
100
AcDbEntity
  8
layer 1
 62
     7
370
     9
100
AcDbSpline
210
0.0
220
0.0
230
1.0
 70
    11
 71
     3
 72
    28
 73
    24
 74
     0
 42
0.0000000001
 43
0.0000000001
 12
1.0
 22
0.0
 32
0.0
 13
1.0
 23
0.0
 33
0.0
 40
0.0
 40
0.0
 40
0.0
 40
0.0
 40
0.1428571428571428
 40
0.1428571428571428
 40
0.1428571428571428
 40
0.1428571428571428
 40
0.2857142857142857
 40
0.2857142857142857
 40
0.2857142857142857
 40
0.2857142857142857
 40
0.4285714285714285
 40
0.4285714285714285
 40
0.4285714285714285
 40
0.4285714285714285
 40
0.5714285714285714
 40
0.5714285714285714
 40
0.5714285714285714
 40
0.5714285714285714
 40
0.7142857142857143
 40
0.7142857142857143
 40
0.7142857142857143
 40
0.7142857142857143
 40
1.0
 40
1.0
 40
1.0
 40
1.0
 10
-86.9958
 20
18.1652
 30
0.0
 10
-87.1611
 20
21.9546
 30
0.0
 10
-87.4424
 20
25.7402
 30
0.0
 10
-87.839
 20
29.5207
 30
0.0
 10
-87.839
 20
29.5207
 30
0.0
 10
-86.7217
 20
28.0546
 30
0.0
 10
-84.9424
 20
26.8885
 30
0.0
 10
-82.7795
 20
26.2043
 30
0.0
 10
-82.7795
 20
26.2043
 30
0.0
 10
-80.6162
 20
26.8885
 30
0.0
 10
-78.8374
 20
28.0546
 30
0.0
 10
-77.7198
 20
29.5207
 30
0.0
 10
-77.7198
 20
29.5207
 30
0.0
 10
-78.1167
 20
25.7402
 30
0.0
 10
-78.3976
 20
21.9546
 30
0.0
 10
-78.5628
 20
18.1652
 30
0.0
 10
-78.5628
 20
18.1652
 30
0.0
 10
-78.5085
 20
15.1752
 30
0.0
 10
-80.007
 20
12.273
 30
0.0
 10
-82.7795
 20
9.9982
 30
0.0
 10
-82.7795
 20
9.9982
 30
0.0
 10
-85.5522
 20
12.273
 30
0.0
 10
-87.0502
 20
15.1752
 30
0.0
 10
-86.9958
 20
18.1652
 30
0.0
  0
SPLINE
  5
71
330
1F
100
AcDbEntity
  8
layer 1
 62
     7
370
     9
100
AcDbSpline
210
0.0
220
0.0
230
1.0
 70
    11
 71
     3
 72
    12
 73
     8
 74
     0
 42
0.0000000001
 43
0.0000000001
 12
1.0
 22
0.0
 32
0.0
 13
1.0
 23
0.0
 33
0.0
 40
0.0
 40
0.0
 40
0.0
 40
0.0
 40
0.3333333333333333
 40
0.3333333333333333
 40
0.3333333333333333
 40
0.3333333333333333
 40
1.0
 40
1.0
 40
1.0
 40
1.0
 10
-82.7795
 20
48.4704
 30
0.0
 10
-86.2427
 20
43.7819
 30
0.0
 10
-86.2427
 20
38.2083
 30
0.0
 10
-82.7795
 20
33.5198
 30
0.0
 10
-82.7795
 20
33.5198
 30
0.0
 10
-79.316
 20
38.2083
 30
0.0
 10
-79.316
 20
43.7819
 30
0.0
 10
-82.7795
 20
48.4704
 30
0.0
  0
SPLINE
  5
72
330
1F
100
AcDbEntity
  8
layer 1
 62
     7
370
     9
100
AcDbSpline
210
0.0
220
0.0
230
1.0
 70
    11
 71
     3
 72
    52
 73
    48
 74
     0
 42
0.0000000001
 43
0.0000000001
 12
1.0
 22
0.0
 32
0.0
 13
1.0
 23
0.0
 33
0.0
 40
0.0
 40
0.0
 40
0.0
 40
0.0
 40
0.0769230769230769
 40
0.0769230769230769
 40
0.0769230769230769
 40
0.0769230769230769
 40
0.1538461538461539
 40
0.1538461538461539
 40
0.1538461538461539
 40
0.1538461538461539
 40
0.2307692307692308
 40
0.2307692307692308
 40
0.2307692307692308
 40
0.2307692307692308
 40
0.3076923076923077
 40
0.3076923076923077
 40
0.3076923076923077
 40
0.3076923076923077
 40
0.3846153846153846
 40
0.3846153846153846
 40
0.3846153846153846
 40
0.3846153846153846
 40
0.4615384615384616
 40
0.4615384615384616
 40
0.4615384615384616
 40
0.4615384615384616
 40
0.5384615384615384
 40
0.5384615384615384
 40
0.5384615384615384
 40
0.5384615384615384
 40
0.6153846153846154
 40
0.6153846153846154
 40
0.6153846153846154
 40
0.6153846153846154
 40
0.6923076923076923
 40
0.6923076923076923
 40
0.6923076923076923
 40
0.6923076923076923
 40
0.7692307692307693
 40
0.7692307692307693
 40
0.7692307692307693
 40
0.7692307692307693
 40
0.8461538461538461
 40
0.8461538461538461
 40
0.8461538461538461
 40
0.8461538461538461
 40
1.0
 40
1.0
 40
1.0
 40
1.0
 10
-92.6389
 20
75.1694
 30
0.0
 10
-96.0209
 20
69.8851
 30
0.0
 10
-102.1414
 20
65.6969
 30
0.0
 10
-109.763
 20
63.4507
 30
0.0
 10
-109.763
 20
63.4507
 30
0.0
 10
-104.2592
 20
61.5597
 30
0.0
 10
-98.5287
 20
60.0097
 30
0.0
 10
-92.6389
 20
58.8176
 30
0.0
 10
-92.6389
 20
58.8176
 30
0.0
 10
-98.6924
 20
57.8426
 30
0.0
 10
-104.5363
 20
56.3156
 30
0.0
 10
-110.0225
 20
54.2756
 30
0.0
 10
-110.0225
 20
54.2756
 30
0.0
 10
-102.1262
 20
52.2784
 30
0.0
 10
-95.8707
 20
47.9643
 30
0.0
 10
-92.8983
 20
42.466
 30
0.0
 10
-92.8983
 20
42.466
 30
0.0
 10
-92.3067
 20
47.4581
 30
0.0
 10
-88.6052
 20
52.0143
 30
0.0
 10
-82.7795
 20
54.9213
 30
0.0
 10
-82.7795
 20
54.9213
 30
0.0
 10
-76.954
 20
52.0143
 30
0.0
 10
-73.2525
 20
47.4581
 30
0.0
 10
-72.6603
 20
42.466
 30
0.0
 10
-72.6603
 20
42.466
 30
0.0
 10
-69.688
 20
47.9643
 30
0.0
 10
-63.4325
 20
52.2784
 30
0.0
 10
-55.5362
 20
54.2756
 30
0.0
 10
-55.5362
 20
54.2756
 30
0.0
 10
-61.0223
 20
56.3156
 30
0.0
 10
-66.8667
 20
57.8426
 30
0.0
 10
-72.9198
 20
58.8176
 30
0.0
 10
-72.9198
 20
58.8176
 30
0.0
 10
-67.0299
 20
60.0097
 30
0.0
 10
-61.3
 20
61.5597
 30
0.0
 10
-55.7956
 20
63.4507
 30
0.0
 10
-55.7956
 20
63.4507
 30
0.0
 10
-63.4178
 20
65.6969
 30
0.0
 10
-69.5379
 20
69.8851
 30
0.0
 10
-72.9198
 20
75.1694
 30
0.0
 10
-72.9198
 20
75.1694
 30
0.0
 10
-73.2148
 20
70.1473
 30
0.0
 10
-76.8671
 20
65.5145
 30
0.0
 10
-82.7795
 20
62.6639
 30
0.0
 10
-82.7795
 20
62.6639
 30
0.0
 10
-88.6915
 20
65.5145
 30
0.0
 10
-92.3444
 20
70.1473
 30
0.0
 10
-92.6389
 20
75.1694
 30
0.0
  0
SPLINE
  5
73
330
1F
100
AcDbEntity
  8
layer 1
 62
     7
370
     9
100
AcDbSpline
210
0.0
220
0.0
230
1.0
 70
    11
 71
     3
 72
    12
 73
     8
 74
     0
 42
0.0000000001
 43
0.0000000001
 12
1.0
 22
0.0
 32
0.0
 13
1.0
 23
0.0
 33
0.0
 40
0.0
 40
0.0
 40
0.0
 40
0.0
 40
0.3333333333333333
 40
0.3333333333333333
 40
0.3333333333333333
 40
0.3333333333333333
 40
1.0
 40
1.0
 40
1.0
 40
1.0
 10
-82.7795
 20
84.1357
 30
0.0
 10
-86.1653
 20
79.548
 30
0.0
 10
-86.1653
 20
74.0955
 30
0.0
 10
-82.7795
 20
69.5078
 30
0.0
 10
-82.7795
 20
69.5078
 30
0.0
 10
-79.3935
 20
74.0955
 30
0.0
 10
-79.3935
 20
79.548
 30
0.0
 10
-82.7795
 20
84.1357
 30
0.0
  0
SPLINE
  5
74
330
1F
100
AcDbEntity
  8
layer 1
 62
     7
370
     9
100
AcDbSpline
210
0.0
220
0.0
230
1.0
 70
    11
 71
     3
 72
    32
 73
    28
 74
     0
 42
0.0000000001
 43
0.0000000001
 12
1.0
 22
0.0
 32
0.0
 13
1.0
 23
0.0
 33
0.0
 40
0.0
 40
0.0
 40
0.0
 40
0.0
 40
0.125
 40
0.125
 40
0.125
 40
0.125
 40
0.25
 40
0.25
 40
0.25
 40
0.25
 40
0.375
 40
0.375
 40
0.375
 40
0.375
 40
0.5
 40
0.5
 40
0.5
 40
0.5
 40
0.625
 40
0.625
 40
0.625
 40
0.625
 40
0.75
 40
0.75
 40
0.75
 40
0.75
 40
1.0
 40
1.0
 40
1.0
 40
1.0
 10
-86.7364
 20
101.2868
 30
0.0
 10
-86.5611
 20
97.0481
 30
0.0
 10
-86.9299
 20
92.8068
 30
0.0
 10
-87.839
 20
88.6143
 30
0.0
 10
-87.839
 20
88.6143
 30
0.0
 10
-86.5245
 20
89.8578
 30
0.0
 10
-84.7844
 20
90.8496
 30
0.0
 10
-82.7795
 20
91.499
 30
0.0
 10
-82.7795
 20
91.499
 30
0.0
 10
-80.7743
 20
90.8496
 30
0.0
 10
-79.0341
 20
89.8578
 30
0.0
 10
-77.7198
 20
88.6143
 30
0.0
 10
-77.7198
 20
88.6143
 30
0.0
 10
-78.6288
 20
92.8068
 30
0.0
 10
-78.9981
 20
97.0481
 30
0.0
 10
-78.8229
 20
101.2868
 30
0.0
 10
-78.8229
 20
101.2868
 30
0.0
 10
-78.9044
 20
103.5671
 30
0.0
 10
-80.0875
 20
105.7606
 30
0.0
 10
-82.1786
 20
107.5095
 30
0.0
 10
-82.1786
 20
107.5095
 30
0.0
 10
-82.1786
 20
107.5095
 30
0.0
 10
-83.3806
 20
107.5095
 30
0.0
 10
-83.3806
 20
107.5095
 30
0.0
 10
-83.3806
 20
107.5095
 30
0.0
 10
-85.4717
 20
105.7606
 30
0.0
 10
-86.6542
 20
103.5671
 30
0.0
 10
-86.7364
 20
101.2868
 30
0.0
  0
SPLINE
  5
75
330
1F
100
AcDbEntity
  8
layer 1
 62
     7
370
     9
100
AcDbSpline
210
0.0
220
0.0
230
1.0
 70
    11
 71
     3
 72
    40
 73
    36
 74
     0
 42
0.0000000001
 43
0.0000000001
 12
1.0
 22
0.0
 32
0.0
 13
1.0
 23
0.0
 33
0.0
 40
0.0
 40
0.0
 40
0.0
 40
0.0
 40
0.1
 40
0.1
 40
0.1
 40
0.1
 40
0.2
 40
0.2
 40
0.2
 40
0.2
 40
0.3
 40
0.3
 40
0.3
 40
0.3
 40
0.4
 40
0.4
 40
0.4
 40
0.4
 40
0.5
 40
0.5
 40
0.5
 40
0.5
 40
0.6
 40
0.6
 40
0.6
 40
0.6
 40
0.7
 40
0.7
 40
0.7
 40
0.7
 40
0.8
 40
0.8
 40
0.8
 40
0.8
 40
1.0
 40
1.0
 40
1.0
 40
1.0
 10
-93.2226
 20
93.2471
 30
0.0
 10
-94.4533
 20
87.9733
 30
0.0
 10
-97.3572
 20
82.9604
 30
0.0
 10
-101.7198
 20
78.576
 30
0.0
 10
-101.7198
 20
78.576
 30
0.0
 10
-104.642
 20
75.8561
 30
0.0
 10
-108.7353
 20
73.8659
 30
0.0
 10
-113.3956
 20
72.8982
 30
0.0
 10
-113.3956
 20
72.8982
 30
0.0
 10
-117.1776
 20
72.298
 30
0.0
 10
-121.1434
 20
72.9723
 30
0.0
 10
-124.111
 20
74.7204
 30
0.0
 10
-124.111
 20
74.7204
 30
0.0
 10
-127.0788
 20
76.4685
 30
0.0
 10
-128.7064
 20
79.0891
 30
0.0
 10
-128.5092
 20
81.8009
 30
0.0
 10
-128.5092
 20
81.8009
 30
0.0
 10
-125.8507
 20
78.5412
 30
0.0
 10
-120.396
 20
76.9387
 30
0.0
 10
-115.2121
 20
77.8947
 30
0.0
 10
-115.2121
 20
77.8947
 30
0.0
 10
-110.3854
 20
79.0159
 30
0.0
 10
-106.3205
 20
81.3449
 30
0.0
 10
-103.7958
 20
84.4353
 30
0.0
 10
-103.7958
 20
84.4353
 30
0.0
 10
-98.1966
 20
91.4473
 30
0.0
 10
-96.2102
 20
99.594
 30
0.0
 10
-98.1695
 20
107.5095
 30
0.0
 10
-98.1695
 20
107.5095
 30
0.0
 10
-98.1695
 20
107.5095
 30
0.0
 10
-92.1874
 20
107.5095
 30
0.0
 10
-92.1874
 20
107.5095
 30
0.0
 10
-92.1874
 20
107.5095
 30
0.0
 10
-91.529
 20
102.7455
 30
0.0
 10
-91.8774
 20
97.9399
 30
0.0
 10
-93.2226
 20
93.2471
 30
0.0
  0
SPLINE
  5
76
330
1F
100
AcDbEntity
  8
layer 1
 62
     7
370
     9
100
AcDbSpline
210
0.0
220
0.0
230
1.0
 70
    11
 71
     3
 72
    24
 73
    20
 74
     0
 42
0.0000000001
 43
0.0000000001
 12
1.0
 22
0.0
 32
0.0
 13
1.0
 23
0.0
 33
0.0
 40
0.0
 40
0.0
 40
0.0
 40
0.0
 40
0.1666666666666667
 40
0.1666666666666667
 40
0.1666666666666667
 40
0.1666666666666667
 40
0.3333333333333333
 40
0.3333333333333333
 40
0.3333333333333333
 40
0.3333333333333333
 40
0.5
 40
0.5
 40
0.5
 40
0.5
 40
0.6666666666666666
 40
0.6666666666666666
 40
0.6666666666666666
 40
0.6666666666666666
 40
1.0
 40
1.0
 40
1.0
 40
1.0
 10
-100.974
 20
100.2876
 30
0.0
 10
-101.2737
 20
99.483
 30
0.0
 10
-102.2418
 20
98.8875
 30
0.0
 10
-103.4198
 20
98.7823
 30
0.0
 10
-103.4198
 20
98.7823
 30
0.0
 10
-104.5971
 20
98.6772
 30
0.0
 10
-105.7478
 20
99.0845
 30
0.0
 10
-106.3251
 20
99.8107
 30
0.0
 10
-106.3251
 20
99.8107
 30
0.0
 10
-108.2124
 20
102.2079
 30
0.0
 10
-109.5094
 20
104.8105
 30
0.0
 10
-110.1611
 20
107.5095
 30
0.0
 10
-110.1611
 20
107.5095
 30
0.0
 10
-110.1611
 20
107.5095
 30
0.0
 10
-99.1124
 20
107.5095
 30
0.0
 10
-99.1124
 20
107.5095
 30
0.0
 10
-99.1124
 20
107.5095
 30
0.0
 10
-99.0837
 20
105.042
 30
0.0
 10
-99.715
 20
102.5925
 30
0.0
 10
-100.974
 20
100.2876
 30
0.0
  0
SPLINE
  5
77
330
1F
100
AcDbEntity
  8
layer 1
 62
     7
370
     9
100
AcDbSpline
210
0.0
220
0.0
230
1.0
 70
    11
 71
     3
 72
    20
 73
    16
 74
     0
 42
0.0000000001
 43
0.0000000001
 12
1.0
 22
0.0
 32
0.0
 13
1.0
 23
0.0
 33
0.0
 40
0.0
 40
0.0
 40
0.0
 40
0.0
 40
0.2
 40
0.2
 40
0.2
 40
0.2
 40
0.4
 40
0.4
 40
0.4
 40
0.4
 40
0.6
 40
0.6
 40
0.6
 40
0.6
 40
1.0
 40
1.0
 40
1.0
 40
1.0
 10
7.4477
 20
18.1652
 30
0.0
 10
7.2822
 20
21.9546
 30
0.0
 10
7.0011
 20
25.7402
 30
0.0
 10
6.6042
 20
29.5207
 30
0.0
 10
6.6042
 20
29.5207
 30
0.0
 10
7.7217
 20
28.0546
 30
0.0
 10
9.5008
 20
26.8885
 30
0.0
 10
11.6638
 20
26.2043
 30
0.0
 10
11.6638
 20
26.2043
 30
0.0
 10
11.6638
 20
26.2043
 30
0.0
 10
11.6638
 20
9.9982
 30
0.0
 10
11.6638
 20
9.9982
 30
0.0
 10
11.6638
 20
9.9982
 30
0.0
 10
8.8913
 20
12.273
 30
0.0
 10
7.393
 20
15.1752
 30
0.0
 10
7.4477
 20
18.1652
 30
0.0
  0
SPLINE
  5
78
330
1F
100
AcDbEntity
  8
layer 1
 62
     7
370
     9
100
AcDbSpline
210
0.0
220
0.0
230
1.0
 70
    11
 71
     3
 72
    12
 73
     8
 74
     0
 42
0.0000000001
 43
0.0000000001
 12
1.0
 22
0.0
 32
0.0
 13
1.0
 23
0.0
 33
0.0
 40
0.0
 40
0.0
 40
0.0
 40
0.0
 40
0.3333333333333333
 40
0.3333333333333333
 40
0.3333333333333333
 40
0.3333333333333333
 40
1.0
 40
1.0
 40
1.0
 40
1.0
 10
11.6638
 20
48.4704
 30
0.0
 10
8.2006
 20
43.7819
 30
0.0
 10
8.2006
 20
38.2083
 30
0.0
 10
11.6638
 20
33.5198
 30
0.0
 10
11.6638
 20
33.5198
 30
0.0
 10
11.6638
 20
33.5198
 30
0.0
 10
11.6638
 20
48.4704
 30
0.0
 10
11.6638
 20
48.4704
 30
0.0
  0
SPLINE
  5
79
330
1F
100
AcDbEntity
  8
layer 1
 62
     7
370
     9
100
AcDbSpline
210
0.0
220
0.0
230
1.0
 70
    11
 71
     3
 72
    32
 73
    28
 74
     0
 42
0.0000000001
 43
0.0000000001
 12
1.0
 22
0.0
 32
0.0
 13
1.0
 23
0.0
 33
0.0
 40
0.0
 40
0.0
 40
0.0
 40
0.0
 40
0.125
 40
0.125
 40
0.125
 40
0.125
 40
0.25
 40
0.25
 40
0.25
 40
0.25
 40
0.375
 40
0.375
 40
0.375
 40
0.375
 40
0.5
 40
0.5
 40
0.5
 40
0.5
 40
0.625
 40
0.625
 40
0.625
 40
0.625
 40
0.75
 40
0.75
 40
0.75
 40
0.75
 40
1.0
 40
1.0
 40
1.0
 40
1.0
 10
1.8044
 20
75.1694
 30
0.0
 10
-1.5775
 20
69.8851
 30
0.0
 10
-7.6979
 20
65.6969
 30
0.0
 10
-15.3198
 20
63.4507
 30
0.0
 10
-15.3198
 20
63.4507
 30
0.0
 10
-9.8155
 20
61.5597
 30
0.0
 10
-4.0856
 20
60.0097
 30
0.0
 10
1.8044
 20
58.8176
 30
0.0
 10
1.8044
 20
58.8176
 30
0.0
 10
-4.2489
 20
57.8426
 30
0.0
 10
-10.0935
 20
56.3156
 30
0.0
 10
-15.5792
 20
54.2756
 30
0.0
 10
-15.5792
 20
54.2756
 30
0.0
 10
-7.6829
 20
52.2784
 30
0.0
 10
-1.4273
 20
47.9643
 30
0.0
 10
1.5449
 20
42.466
 30
0.0
 10
1.5449
 20
42.466
 30
0.0
 10
2.1366
 20
47.4581
 30
0.0
 10
5.8382
 20
52.0143
 30
0.0
 10
11.6638
 20
54.9213
 30
0.0
 10
11.6638
 20
54.9213
 30
0.0
 10
11.6638
 20
54.9213
 30
0.0
 10
11.6638
 20
62.6639
 30
0.0
 10
11.6638
 20
62.6639
 30
0.0
 10
11.6638
 20
62.6639
 30
0.0
 10
5.7516
 20
65.5145
 30
0.0
 10
2.0993
 20
70.1473
 30
0.0
 10
1.8044
 20
75.1694
 30
0.0
  0
SPLINE
  5
7A
330
1F
100
AcDbEntity
  8
layer 1
 62
     7
370
     9
100
AcDbSpline
210
0.0
220
0.0
230
1.0
 70
    11
 71
     3
 72
    12
 73
     8
 74
     0
 42
0.0000000001
 43
0.0000000001
 12
1.0
 22
0.0
 32
0.0
 13
1.0
 23
0.0
 33
0.0
 40
0.0
 40
0.0
 40
0.0
 40
0.0
 40
0.3333333333333333
 40
0.3333333333333333
 40
0.3333333333333333
 40
0.3333333333333333
 40
1.0
 40
1.0
 40
1.0
 40
1.0
 10
11.6638
 20
84.1357
 30
0.0
 10
8.2778
 20
79.548
 30
0.0
 10
8.2778
 20
74.0955
 30
0.0
 10
11.6638
 20
69.5078
 30
0.0
 10
11.6638
 20
69.5078
 30
0.0
 10
11.6638
 20
69.5078
 30
0.0
 10
11.6638
 20
84.1357
 30
0.0
 10
11.6638
 20
84.1357
 30
0.0
  0
SPLINE
  5
7B
330
1F
100
AcDbEntity
  8
layer 1
 62
     7
370
     9
100
AcDbSpline
210
0.0
220
0.0
230
1.0
 70
    11
 71
     3
 72
    24
 73
    20
 74
     0
 42
0.0000000001
 43
0.0000000001
 12
1.0
 22
0.0
 32
0.0
 13
1.0
 23
0.0
 33
0.0
 40
0.0
 40
0.0
 40
0.0
 40
0.0
 40
0.1666666666666667
 40
0.1666666666666667
 40
0.1666666666666667
 40
0.1666666666666667
 40
0.3333333333333333
 40
0.3333333333333333
 40
0.3333333333333333
 40
0.3333333333333333
 40
0.5
 40
0.5
 40
0.5
 40
0.5
 40
0.6666666666666666
 40
0.6666666666666666
 40
0.6666666666666666
 40
0.6666666666666666
 40
1.0
 40
1.0
 40
1.0
 40
1.0
 10
7.707
 20
101.2868
 30
0.0
 10
7.8823
 20
97.0481
 30
0.0
 10
7.5132
 20
92.8068
 30
0.0
 10
6.6042
 20
88.6143
 30
0.0
 10
6.6042
 20
88.6143
 30
0.0
 10
7.9186
 20
89.8578
 30
0.0
 10
9.6586
 20
90.8496
 30
0.0
 10
11.6638
 20
91.499
 30
0.0
 10
11.6638
 20
91.499
 30
0.0
 10
11.6638
 20
91.499
 30
0.0
 10
11.6638
 20
107.5095
 30
0.0
 10
11.6638
 20
107.5095
 30
0.0
 10
11.6638
 20
107.5095
 30
0.0
 10
11.6638
 20
107.5095
 30
0.0
 10
11.0628
 20
107.5095
 30
0.0
 10
11.0628
 20
107.5095
 30
0.0
 10
11.0628
 20
107.5095
 30
0.0
 10
8.9717
 20
105.7606
 30
0.0
 10
7.7887
 20
103.5671
 30
0.0
 10
7.707
 20
101.2868
 30
0.0
  0
SPLINE
  5
7C
330
1F
100
AcDbEntity
  8
layer 1
 62
     7
370
     9
100
AcDbSpline
210
0.0
220
0.0
230
1.0
 70
    11
 71
     3
 72
    40
 73
    36
 74
     0
 42
0.0000000001
 43
0.0000000001
 12
1.0
 22
0.0
 32
0.0
 13
1.0
 23
0.0
 33
0.0
 40
0.0
 40
0.0
 40
0.0
 40
0.0
 40
0.1
 40
0.1
 40
0.1
 40
0.1
 40
0.2
 40
0.2
 40
0.2
 40
0.2
 40
0.3
 40
0.3
 40
0.3
 40
0.3
 40
0.4
 40
0.4
 40
0.4
 40
0.4
 40
0.5
 40
0.5
 40
0.5
 40
0.5
 40
0.6
 40
0.6
 40
0.6
 40
0.6
 40
0.7
 40
0.7
 40
0.7
 40
0.7
 40
0.8
 40
0.8
 40
0.8
 40
0.8
 40
1.0
 40
1.0
 40
1.0
 40
1.0
 10
1.2205
 20
93.2471
 30
0.0
 10
-0.01
 20
87.9733
 30
0.0
 10
-2.9138
 20
82.9604
 30
0.0
 10
-7.2765
 20
78.576
 30
0.0
 10
-7.2765
 20
78.576
 30
0.0
 10
-10.1988
 20
75.8561
 30
0.0
 10
-14.292
 20
73.8659
 30
0.0
 10
-18.9524
 20
72.8982
 30
0.0
 10
-18.9524
 20
72.8982
 30
0.0
 10
-22.7344
 20
72.298
 30
0.0
 10
-26.7001
 20
72.9723
 30
0.0
 10
-29.6677
 20
74.7204
 30
0.0
 10
-29.6677
 20
74.7204
 30
0.0
 10
-32.6355
 20
76.4685
 30
0.0
 10
-34.2631
 20
79.0891
 30
0.0
 10
-34.066
 20
81.8009
 30
0.0
 10
-34.066
 20
81.8009
 30
0.0
 10
-31.4075
 20
78.5412
 30
0.0
 10
-25.9526
 20
76.9387
 30
0.0
 10
-20.7683
 20
77.8947
 30
0.0
 10
-20.7683
 20
77.8947
 30
0.0
 10
-15.9422
 20
79.0159
 30
0.0
 10
-11.8773
 20
81.3449
 30
0.0
 10
-9.3524
 20
84.4353
 30
0.0
 10
-9.3524
 20
84.4353
 30
0.0
 10
-3.7535
 20
91.4473
 30
0.0
 10
-1.7671
 20
99.594
 30
0.0
 10
-3.7261
 20
107.5095
 30
0.0
 10
-3.7261
 20
107.5095
 30
0.0
 10
-3.7261
 20
107.5095
 30
0.0
 10
2.256
 20
107.5095
 30
0.0
 10
2.256
 20
107.5095
 30
0.0
 10
2.256
 20
107.5095
 30
0.0
 10
2.9146
 20
102.7455
 30
0.0
 10
2.5657
 20
97.9399
 30
0.0
 10
1.2205
 20
93.2471
 30
0.0
  0
SPLINE
  5
7D
330
1F
100
AcDbEntity
  8
layer 1
 62
     7
370
     9
100
AcDbSpline
210
0.0
220
0.0
230
1.0
 70
    11
 71
     3
 72
    24
 73
    20
 74
     0
 42
0.0000000001
 43
0.0000000001
 12
1.0
 22
0.0
 32
0.0
 13
1.0
 23
0.0
 33
0.0
 40
0.0
 40
0.0
 40
0.0
 40
0.0
 40
0.1666666666666667
 40
0.1666666666666667
 40
0.1666666666666667
 40
0.1666666666666667
 40
0.3333333333333333
 40
0.3333333333333333
 40
0.3333333333333333
 40
0.3333333333333333
 40
0.5
 40
0.5
 40
0.5
 40
0.5
 40
0.6666666666666666
 40
0.6666666666666666
 40
0.6666666666666666
 40
0.6666666666666666
 40
1.0
 40
1.0
 40
1.0
 40
1.0
 10
-6.5306
 20
100.2876
 30
0.0
 10
-6.8304
 20
99.483
 30
0.0
 10
-7.7984
 20
98.8875
 30
0.0
 10
-8.9761
 20
98.7823
 30
0.0
 10
-8.9761
 20
98.7823
 30
0.0
 10
-10.1539
 20
98.6772
 30
0.0
 10
-11.3044
 20
99.0845
 30
0.0
 10
-11.8822
 20
99.8107
 30
0.0
 10
-11.8822
 20
99.8107
 30
0.0
 10
-13.769
 20
102.2079
 30
0.0
 10
-15.0661
 20
104.8105
 30
0.0
 10
-15.7179
 20
107.5095
 30
0.0
 10
-15.7179
 20
107.5095
 30
0.0
 10
-15.7179
 20
107.5095
 30
0.0
 10
-4.6692
 20
107.5095
 30
0.0
 10
-4.6692
 20
107.5095
 30
0.0
 10
-4.6692
 20
107.5095
 30
0.0
 10
-4.6401
 20
105.042
 30
0.0
 10
-5.2714
 20
102.5925
 30
0.0
 10
-6.5306
 20
100.2876
 30
0.0
  0
SPLINE
  5
7E
330
1F
100
AcDbEntity
  8
layer 1
 62
     7
370
     9
100
AcDbSpline
210
0.0
220
0.0
230
1.0
 70
    11
 71
     3
 72
    72
 73
    68
 74
     0
 42
0.0000000001
 43
0.0000000001
 12
1.0
 22
0.0
 32
0.0
 13
1.0
 23
0.0
 33
0.0
 40
0.0
 40
0.0
 40
0.0
 40
0.0
 40
0.0555555555555556
 40
0.0555555555555556
 40
0.0555555555555556
 40
0.0555555555555556
 40
0.1111111111111111
 40
0.1111111111111111
 40
0.1111111111111111
 40
0.1111111111111111
 40
0.1666666666666667
 40
0.1666666666666667
 40
0.1666666666666667
 40
0.1666666666666667
 40
0.2222222222222222
 40
0.2222222222222222
 40
0.2222222222222222
 40
0.2222222222222222
 40
0.2777777777777778
 40
0.2777777777777778
 40
0.2777777777777778
 40
0.2777777777777778
 40
0.3333333333333333
 40
0.3333333333333333
 40
0.3333333333333333
 40
0.3333333333333333
 40
0.3888888888888889
 40
0.3888888888888889
 40
0.3888888888888889
 40
0.3888888888888889
 40
0.4444444444444444
 40
0.4444444444444444
 40
0.4444444444444444
 40
0.4444444444444444
 40
0.5
 40
0.5
 40
0.5
 40
0.5
 40
0.5555555555555556
 40
0.5555555555555556
 40
0.5555555555555556
 40
0.5555555555555556
 40
0.6111111111111112
 40
0.6111111111111112
 40
0.6111111111111112
 40
0.6111111111111112
 40
0.6666666666666666
 40
0.6666666666666666
 40
0.6666666666666666
 40
0.6666666666666666
 40
0.7222222222222222
 40
0.7222222222222222
 40
0.7222222222222222
 40
0.7222222222222222
 40
0.7777777777777778
 40
0.7777777777777778
 40
0.7777777777777778
 40
0.7777777777777778
 40
0.8333333333333334
 40
0.8333333333333334
 40
0.8333333333333334
 40
0.8333333333333334
 40
0.8888888888888888
 40
0.8888888888888888
 40
0.8888888888888888
 40
0.8888888888888888
 40
1.0
 40
1.0
 40
1.0
 40
1.0
 10
-26.5416
 20
95.6545
 30
0.0
 10
-26.8684
 20
96.8946
 30
0.0
 10
-26.7686
 20
98.1714
 30
0.0
 10
-26.2497
 20
99.379
 30
0.0
 10
-26.2497
 20
99.379
 30
0.0
 10
-25.8882
 20
100.1279
 30
0.0
 10
-24.9666
 20
100.6762
 30
0.0
 10
-23.8532
 20
100.8044
 30
0.0
 10
-23.8532
 20
100.8044
 30
0.0
 10
-22.7396
 20
100.9326
 30
0.0
 10
-21.6156
 20
100.6205
 30
0.0
 10
-20.9309
 20
99.9924
 30
0.0
 10
-20.9309
 20
99.9924
 30
0.0
 10
-18.4392
 20
97.1367
 30
0.0
 10
-17.8471
 20
93.6628
 30
0.0
 10
-19.3091
 20
90.4763
 30
0.0
 10
-19.3091
 20
90.4763
 30
0.0
 10
-19.9241
 20
89.0714
 30
0.0
 10
-20.8786
 20
87.7499
 30
0.0
 10
-22.1308
 20
86.5702
 30
0.0
 10
-22.1308
 20
86.5702
 30
0.0
 10
-23.9875
 20
85.3513
 30
0.0
 10
-26.8731
 20
85.341
 30
0.0
 10
-28.7467
 20
86.5475
 30
0.0
 10
-28.7467
 20
86.5475
 30
0.0
 10
-32.1354
 20
89.4146
 30
0.0
 10
-34.474
 20
92.8178
 30
0.0
 10
-35.5576
 20
96.461
 30
0.0
 10
-35.5576
 20
96.461
 30
0.0
 10
-36.642
 20
92.8178
 30
0.0
 10
-38.98
 20
89.4146
 30
0.0
 10
-42.3687
 20
86.5475
 30
0.0
 10
-42.3687
 20
86.5475
 30
0.0
 10
-44.2427
 20
85.341
 30
0.0
 10
-47.1277
 20
85.3513
 30
0.0
 10
-48.9846
 20
86.5702
 30
0.0
 10
-48.9846
 20
86.5702
 30
0.0
 10
-50.2368
 20
87.7499
 30
0.0
 10
-51.1913
 20
89.0714
 30
0.0
 10
-51.8063
 20
90.4763
 30
0.0
 10
-51.8063
 20
90.4763
 30
0.0
 10
-53.2688
 20
93.6628
 30
0.0
 10
-52.6768
 20
97.1367
 30
0.0
 10
-50.1849
 20
99.9924
 30
0.0
 10
-50.1849
 20
99.9924
 30
0.0
 10
-49.4998
 20
100.6205
 30
0.0
 10
-48.3758
 20
100.9326
 30
0.0
 10
-47.2622
 20
100.8044
 30
0.0
 10
-47.2622
 20
100.8044
 30
0.0
 10
-46.1486
 20
100.6762
 30
0.0
 10
-45.227
 20
100.1279
 30
0.0
 10
-44.8657
 20
99.379
 30
0.0
 10
-44.8657
 20
99.379
 30
0.0
 10
-44.3474
 20
98.1714
 30
0.0
 10
-44.2468
 20
96.8946
 30
0.0
 10
-44.5744
 20
95.6545
 30
0.0
 10
-44.5744
 20
95.6545
 30
0.0
 10
-41.0522
 20
99.343
 30
0.0
 10
-41.5873
 20
104.2392
 30
0.0
 10
-45.8694
 20
107.5095
 30
0.0
 10
-45.8694
 20
107.5095
 30
0.0
 10
-45.8694
 20
107.5095
 30
0.0
 10
-25.2466
 20
107.5095
 30
0.0
 10
-25.2466
 20
107.5095
 30
0.0
 10
-25.2466
 20
107.5095
 30
0.0
 10
-29.5281
 20
104.2392
 30
0.0
 10
-30.0632
 20
99.343
 30
0.0
 10
-26.5416
 20
95.6545
 30
0.0
  0
SPLINE
  5
7F
330
1F
100
AcDbEntity
  8
layer 1
 62
     7
370
     9
100
AcDbSpline
210
0.0
220
0.0
230
1.0
 70
    11
 71
     3
 72
    20
 73
    16
 74
     0
 42
0.0000000001
 43
0.0000000001
 12
1.0
 22
0.0
 32
0.0
 13
1.0
 23
0.0
 33
0.0
 40
0.0
 40
0.0
 40
0.0
 40
0.0
 40
0.2
 40
0.2
 40
0.2
 40
0.2
 40
0.4
 40
0.4
 40
0.4
 40
0.4
 40
0.6
 40
0.6
 40
0.6
 40
0.6
 40
1.0
 40
1.0
 40
1.0
 40
1.0
 10
-35.5576
 20
71.9251
 30
0.0
 10
-34.1737
 20
66.4884
 30
0.0
 10
-29.5192
 20
61.7308
 30
0.0
 10
-22.7793
 20
58.8634
 30
0.0
 10
-22.7793
 20
58.8634
 30
0.0
 10
-28.8765
 20
56.0446
 30
0.0
 10
-33.3912
 20
51.8345
 30
0.0
 10
-35.5576
 20
46.949
 30
0.0
 10
-35.5576
 20
46.949
 30
0.0
 10
-37.7242
 20
51.8345
 30
0.0
 10
-42.2395
 20
56.0446
 30
0.0
 10
-48.3361
 20
58.8634
 30
0.0
 10
-48.3361
 20
58.8634
 30
0.0
 10
-41.5962
 20
61.7308
 30
0.0
 10
-36.9417
 20
66.4884
 30
0.0
 10
-35.5576
 20
71.9251
 30
0.0
  0
SPLINE
  5
80
330
1F
100
AcDbEntity
  8
layer 1
 62
     7
370
     9
100
AcDbSpline
210
0.0
220
0.0
230
1.0
 70
    11
 71
     3
 72
    40
 73
    36
 74
     0
 42
0.0000000001
 43
0.0000000001
 12
1.0
 22
0.0
 32
0.0
 13
1.0
 23
0.0
 33
0.0
 40
0.0
 40
0.0
 40
0.0
 40
0.0
 40
0.1
 40
0.1
 40
0.1
 40
0.1
 40
0.2
 40
0.2
 40
0.2
 40
0.2
 40
0.3
 40
0.3
 40
0.3
 40
0.3
 40
0.4
 40
0.4
 40
0.4
 40
0.4
 40
0.5
 40
0.5
 40
0.5
 40
0.5
 40
0.6
 40
0.6
 40
0.6
 40
0.6
 40
0.7
 40
0.7
 40
0.7
 40
0.7
 40
0.8
 40
0.8
 40
0.8
 40
0.8
 40
1.0
 40
1.0
 40
1.0
 40
1.0
 10
-72.3361
 20
93.2471
 30
0.0
 10
-71.1054
 20
87.9733
 30
0.0
 10
-68.2021
 20
82.9604
 30
0.0
 10
-63.8389
 20
78.576
 30
0.0
 10
-63.8389
 20
78.576
 30
0.0
 10
-60.9166
 20
75.8561
 30
0.0
 10
-56.8234
 20
73.8659
 30
0.0
 10
-52.163
 20
72.8982
 30
0.0
 10
-52.163
 20
72.8982
 30
0.0
 10
-48.381
 20
72.298
 30
0.0
 10
-44.4159
 20
72.9723
 30
0.0
 10
-41.4481
 20
74.7204
 30
0.0
 10
-41.4481
 20
74.7204
 30
0.0
 10
-38.4805
 20
76.4685
 30
0.0
 10
-36.8527
 20
79.0891
 30
0.0
 10
-37.0499
 20
81.8009
 30
0.0
 10
-37.0499
 20
81.8009
 30
0.0
 10
-39.7079
 20
78.5412
 30
0.0
 10
-45.1628
 20
76.9387
 30
0.0
 10
-50.3471
 20
77.8947
 30
0.0
 10
-50.3471
 20
77.8947
 30
0.0
 10
-55.1732
 20
79.0159
 30
0.0
 10
-59.2383
 20
81.3449
 30
0.0
 10
-61.7635
 20
84.4353
 30
0.0
 10
-61.7635
 20
84.4353
 30
0.0
 10
-67.362
 20
91.4473
 30
0.0
 10
-69.3486
 20
99.594
 30
0.0
 10
-67.3897
 20
107.5095
 30
0.0
 10
-67.3897
 20
107.5095
 30
0.0
 10
-67.3897
 20
107.5095
 30
0.0
 10
-73.3712
 20
107.5095
 30
0.0
 10
-73.3712
 20
107.5095
 30
0.0
 10
-73.3712
 20
107.5095
 30
0.0
 10
-74.0303
 20
102.7455
 30
0.0
 10
-73.6814
 20
97.9399
 30
0.0
 10
-72.3361
 20
93.2471
 30
0.0
  0
SPLINE
  5
81
330
1F
100
AcDbEntity
  8
layer 1
 62
     7
370
     9
100
AcDbSpline
210
0.0
220
0.0
230
1.0
 70
    11
 71
     3
 72
    24
 73
    20
 74
     0
 42
0.0000000001
 43
0.0000000001
 12
1.0
 22
0.0
 32
0.0
 13
1.0
 23
0.0
 33
0.0
 40
0.0
 40
0.0
 40
0.0
 40
0.0
 40
0.1666666666666667
 40
0.1666666666666667
 40
0.1666666666666667
 40
0.1666666666666667
 40
0.3333333333333333
 40
0.3333333333333333
 40
0.3333333333333333
 40
0.3333333333333333
 40
0.5
 40
0.5
 40
0.5
 40
0.5
 40
0.6666666666666666
 40
0.6666666666666666
 40
0.6666666666666666
 40
0.6666666666666666
 40
1.0
 40
1.0
 40
1.0
 40
1.0
 10
-64.5848
 20
100.2876
 30
0.0
 10
-64.285
 20
99.483
 30
0.0
 10
-63.3168
 20
98.8875
 30
0.0
 10
-62.1395
 20
98.7823
 30
0.0
 10
-62.1395
 20
98.7823
 30
0.0
 10
-60.9617
 20
98.6772
 30
0.0
 10
-59.8115
 20
99.0845
 30
0.0
 10
-59.2335
 20
99.8107
 30
0.0
 10
-59.2335
 20
99.8107
 30
0.0
 10
-57.3464
 20
102.2079
 30
0.0
 10
-56.0497
 20
104.8105
 30
0.0
 10
-55.3975
 20
107.5095
 30
0.0
 10
-55.3975
 20
107.5095
 30
0.0
 10
-55.3975
 20
107.5095
 30
0.0
 10
-66.4462
 20
107.5095
 30
0.0
 10
-66.4462
 20
107.5095
 30
0.0
 10
-66.4462
 20
107.5095
 30
0.0
 10
-66.4754
 20
105.042
 30
0.0
 10
-65.8441
 20
102.5925
 30
0.0
 10
-64.5848
 20
100.2876
 30
0.0
  0
ENDSEC
  0
SECTION
  2
OBJECTS
  0
DICTIONARY
  5
C
330
0
100
AcDbDictionary
281
     1
  3
ACAD_GROUP
350
D
  3
ACAD_LAYOUT
350
1A
  3
ACAD_MATERIAL
350
3B
  3
ACAD_MLEADERSTYLE
350
A3
  3
ACAD_MLINESTYLE
350
17
  3
ACAD_PLOTSETTINGS
350
19
  3
ACAD_PLOTSTYLENAME
350
E
  3
ACAD_TABLESTYLE
350
A2
  3
ACAD_VISUALSTYLE
350
2A
  0
DICTIONARY
  5
D
102
{ACAD_REACTORS
330
C
102
}
330
C
100
AcDbDictionary
281
     1
  0
DICTIONARY
  5
1A
102
{ACAD_REACTORS
330
C
102
}
330
C
100
AcDbDictionary
281
     1
  3
Layout1
350
1E
  3
Layout2
350
26
  3
Model
350
22
  0
DICTIONARY
  5
3B
102
{ACAD_REACTORS
330
C
102
}
330
C
100
AcDbDictionary
281
     1
  3
ByBlock
350
3D
  3
ByLayer
350
3C
  3
Global
350
3E
  0
DICTIONARY
  5
A3
102
{ACAD_REACTORS
330
C
102
}
330
C
100
AcDbDictionary
281
     1
  0
DICTIONARY
  5
17
102
{ACAD_REACTORS
330
C
102
}
330
C
100
AcDbDictionary
281
     1
  3
Standard
350
18
  0
DICTIONARY
  5
19
102
{ACAD_REACTORS
330
C
102
}
330
C
100
AcDbDictionary
281
     1
  0
ACDBDICTIONARYWDFLT
  5
E
102
{ACAD_REACTORS
330
C
102
}
330
C
100
AcDbDictionary
281
     1
  3
Normal
350
F
100
AcDbDictionaryWithDefault
340
F
  0
DICTIONARY
  5
A2
102
{ACAD_REACTORS
330
C
102
}
330
C
100
AcDbDictionary
281
     1
  0
DICTIONARY
  5
2A
102
{ACAD_REACTORS
330
C
102
}
330
C
100
AcDbDictionary
281
     1
  3
2dWireframe
350
2F
  3
3D Hidden
350
31
  3
3dWireframe
350
30
  3
Basic
350
32
  3
Brighten
350
36
  3
ColorChange
350
3A
  3
Conceptual
350
34
  3
Dim
350
35
  3
Facepattern
350
39
  3
Flat
350
2B
  3
FlatWithEdges
350
2C
  3
Gouraud
350
2D
  3
GouraudWithEdges
350
2E
  3
Linepattern
350
38
  3
Realistic
350
33
  3
Thicken
350
37
  0
LAYOUT
  5
1E
102
{ACAD_REACTORS
330
1A
102
}
330
1A
100
AcDbPlotSettings
  1

  2
none_device
  4

  6

 40
0.0
 41
0.0
 42
0.0
 43
0.0
 44
0.0
 45
0.0
 46
0.0
 47
0.0
 48
0.0
 49
0.0
140
0.0
141
0.0
142
1.0
143
1.0
 70
   688
 72
     0
 73
     0
 74
     5
  7

 75
    16
 76
     0
 77
     2
 78
   300
147
1.0
148
0.0
149
0.0
100
AcDbLayout
  1
Layout1
 70
     1
 71
     1
 10
0.0
 20
0.0
 11
12.0
 21
9.0
 12
0.0
 22
0.0
 32
0.0
 14
1.000000000000000E+20
 24
1.000000000000000E+20
 34
1.000000000000000E+20
 15
-1.000000000000000E+20
 25
-1.000000000000000E+20
 35
-1.000000000000000E+20
146
0.0
 13
0.0
 23
0.0
 33
0.0
 16
1.0
 26
0.0
 36
0.0
 17
0.0
 27
1.0
 37
0.0
 76
     0
330
1B
  0
LAYOUT
  5
26
102
{ACAD_REACTORS
330
1A
102
}
330
1A
100
AcDbPlotSettings
  1

  2
none_device
  4

  6

 40
0.0
 41
0.0
 42
0.0
 43
0.0
 44
0.0
 45
0.0
 46
0.0
 47
0.0
 48
0.0
 49
0.0
140
0.0
141
0.0
142
1.0
143
1.0
 70
   688
 72
     0
 73
     0
 74
     5
  7

 75
    16
 76
     0
 77
     2
 78
   300
147
1.0
148
0.0
149
0.0
100
AcDbLayout
  1
Layout2
 70
     1
 71
     2
 10
0.0
 20
0.0
 11
0.0
 21
0.0
 12
0.0
 22
0.0
 32
0.0
 14
0.0
 24
0.0
 34
0.0
 15
0.0
 25
0.0
 35
0.0
146
0.0
 13
0.0
 23
0.0
 33
0.0
 16
1.0
 26
0.0
 36
0.0
 17
0.0
 27
1.0
 37
0.0
 76
     0
330
23
  0
LAYOUT
  5
22
102
{ACAD_REACTORS
330
1A
102
}
330
1A
100
AcDbPlotSettings
  1

  2
none_device
  4

  6

 40
0.0
 41
0.0
 42
0.0
 43
0.0
 44
0.0
 45
0.0
 46
0.0
 47
0.0
 48
0.0
 49
0.0
140
0.0
141
0.0
142
1.0
143
1.0
 70
  1712
 72
     0
 73
     0
 74
     0
  7

 75
     0
 76
     0
 77
     2
 78
   300
147
1.0
148
0.0
149
0.0
100
AcDbLayout
  1
Model
 70
     1
 71
     0
 10
0.0
 20
0.0
 11
12.0
 21
9.0
 12
0.0
 22
0.0
 32
0.0
 14
-188.1509
 24
-100.4462
 34
0.0
 15
22.5921
 25
115.9737
 35
0.0
146
0.0
 13
0.0
 23
0.0
 33
0.0
 16
1.0
 26
0.0
 36
0.0
 17
0.0
 27
1.0
 37
0.0
 76
     0
330
1F
331
29
  0
MATERIAL
  5
3D
102
{ACAD_REACTORS
330
3B
102
}
330
3B
100
AcDbMaterial
  1
ByBlock
 72
     1
 94
      127
  0
MATERIAL
  5
3C
102
{ACAD_REACTORS
330
3B
102
}
330
3B
100
AcDbMaterial
  1
ByLayer
 72
     1
 94
      127
  0
MATERIAL
  5
3E
102
{ACAD_REACTORS
330
3B
102
}
330
3B
100
AcDbMaterial
  1
Global
 72
     1
 94
      127
  0
MLINESTYLE
  5
18
102
{ACAD_REACTORS
330
17
102
}
330
17
100
AcDbMlineStyle
  2
Standard
 70
     0
  3

 62
   256
 51
90.0
 52
90.0
 71
     2
 49
0.5
 62
   256
  6
BYLAYER
 49
-0.5
 62
   256
  6
BYLAYER
  0
ACDBPLACEHOLDER
  5
F
102
{ACAD_REACTORS
330
E
102
}
330
E
  0
VISUALSTYLE
  5
2F
102
{ACAD_REACTORS
330
2A
102
}
102
{ACAD_XDICTIONARY
360
8A
102
}
330
2A
100
AcDbVisualStyle
  2
2dWireframe
 70
     4
 71
     0
 72
     2
 73
     0
 90
        0
 40
-0.6
 41
-30.0
 62
     5
 63
     7
421
 16777215
 74
     1
 91
        4
 64
     7
 65
   257
 75
     1
175
     1
 42
1.0
 92
        0
 66
   257
 43
1.0
 76
     1
 77
     6
 78
     2
 67
     7
 79
     5
170
     0
171
     0
290
     0
174
     0
 93
        1
 44
0.0
173
     0
291
     0
 45
0.0
  0
VISUALSTYLE
  5
31
102
{ACAD_REACTORS
330
2A
102
}
102
{ACAD_XDICTIONARY
360
8E
102
}
330
2A
100
AcDbVisualStyle
  2
3D Hidden
 70
     6
 71
     1
 72
     2
 73
     2
 90
        0
 40
-0.6
 41
-30.0
 62
     5
 63
     7
421
 16777215
 74
     2
 91
        2
 64
     7
 65
   257
 75
     2
175
     1
 42
40.0
 92
        0
 66
   257
 43
1.0
 76
     1
 77
     6
 78
     2
 67
     7
 79
     3
170
     0
171
     0
290
     0
174
     0
 93
        1
 44
0.0
173
     0
291
     0
 45
0.0
  0
VISUALSTYLE
  5
30
102
{ACAD_REACTORS
330
2A
102
}
102
{ACAD_XDICTIONARY
360
8C
102
}
330
2A
100
AcDbVisualStyle
  2
3dWireframe
 70
     5
 71
     0
 72
     2
 73
     0
 90
        0
 40
-0.6
 41
-30.0
 62
     5
 63
     7
421
 16777215
 74
     1
 91
        4
 64
     7
 65
   257
 75
     1
175
     1
 42
1.0
 92
        0
 66
   257
 43
1.0
 76
     1
 77
     6
 78
     2
 67
     7
 79
     5
170
     0
171
     0
290
     0
174
     0
 93
        1
 44
0.0
173
     0
291
     0
 45
0.0
  0
VISUALSTYLE
  5
32
102
{ACAD_REACTORS
330
2A
102
}
102
{ACAD_XDICTIONARY
360
90
102
}
330
2A
100
AcDbVisualStyle
  2
Basic
 70
     7
 71
     1
 72
     0
 73
     1
 90
        0
 40
-0.6
 41
-30.0
 62
     5
 63
     7
421
 16777215
 74
     0
 91
        4
 64
     7
 65
   257
 75
     1
175
     1
 42
1.0
 92
        8
 66
     7
 43
1.0
 76
     1
 77
     6
 78
     2
 67
     7
 79
     5
170
     0
171
     0
290
     0
174
     0
 93
        1
 44
0.0
173
     0
291
     1
 45
0.0
  0
VISUALSTYLE
  5
36
102
{ACAD_REACTORS
330
2A
102
}
102
{ACAD_XDICTIONARY
360
98
102
}
330
2A
100
AcDbVisualStyle
  2
Brighten
 70
    12
 71
     2
 72
     2
 73
     0
 90
        0
 40
-0.6
 41
-30.0
 62
     5
 63
     7
421
 16777215
 74
     1
 91
        4
 64
     7
 65
   257
 75
     1
175
     1
 42
1.0
 92
        8
 66
     7
 43
1.0
 76
     1
 77
     6
 78
     2
 67
     7
 79
     5
170
     0
171
     0
290
     0
174
     0
 93
        1
 44
50.0
173
     0
291
     1
 45
0.0
  0
VISUALSTYLE
  5
3A
102
{ACAD_REACTORS
330
2A
102
}
102
{ACAD_XDICTIONARY
360
A0
102
}
330
2A
100
AcDbVisualStyle
  2
ColorChange
 70
    16
 71
     2
 72
     2
 73
     3
 90
        0
 40
-0.6
 41
-30.0
 62
     5
 63
     8
421
  8421504
 74
     1
 91
        4
 64
     7
 65
   257
 75
     1
175
     1
 42
1.0
 92
        8
 66
     8
424
  8421504
 43
1.0
 76
     1
 77
     6
 78
     2
 67
     7
 79
     5
170
     0
171
     0
290
     0
174
     0
 93
        1
 44
0.0
173
     0
291
     1
 45
0.0
  0
VISUALSTYLE
  5
34
102
{ACAD_REACTORS
330
2A
102
}
102
{ACAD_XDICTIONARY
360
94
102
}
330
2A
100
AcDbVisualStyle
  2
Conceptual
 70
     9
 71
     3
 72
     2
 73
     0
 90
        0
 40
-0.6
 41
-30.0
 62
     5
 63
     7
421
 16777215
 74
     2
 91
        2
 64
     7
 65
   257
 75
     1
175
     1
 42
40.0
 92
        8
 66
     7
 43
1.0
 76
     1
 77
     6
 78
     2
 67
     7
 79
     3
170
     0
171
     0
290
     0
174
     0
 93
        1
 44
0.0
173
     0
291
     0
 45
0.0
  0
VISUALSTYLE
  5
35
102
{ACAD_REACTORS
330
2A
102
}
102
{ACAD_XDICTIONARY
360
96
102
}
330
2A
100
AcDbVisualStyle
  2
Dim
 70
    11
 71
     2
 72
     2
 73
     0
 90
        0
 40
-0.6
 41
-30.0
 62
     5
 63
     7
421
 16777215
 74
     1
 91
        4
 64
     7
 65
   257
 75
     1
175
     1
 42
1.0
 92
        8
 66
     7
 43
1.0
 76
     1
 77
     6
 78
     2
 67
     7
 79
     5
170
     0
171
     0
290
     0
174
     0
 93
        1
 44
-50.0
173
     0
291
     1
 45
0.0
  0
VISUALSTYLE
  5
39
102
{ACAD_REACTORS
330
2A
102
}
102
{ACAD_XDICTIONARY
360
9E
102
}
330
2A
100
AcDbVisualStyle
  2
Facepattern
 70
    15
 71
     2
 72
     2
 73
     0
 90
        0
 40
-0.6
 41
-30.0
 62
     5
 63
     7
421
 16777215
 74
     1
 91
        4
 64
     7
 65
   257
 75
     1
175
     1
 42
1.0
 92
        8
 66
     7
 43
1.0
 76
     1
 77
     6
 78
     2
 67
     7
 79
     5
170
     0
171
     0
290
     0
174
     0
 93
        1
 44
0.0
173
     0
291
     1
 45
0.0
  0
VISUALSTYLE
  5
2B
102
{ACAD_REACTORS
330
2A
102
}
102
{ACAD_XDICTIONARY
360
82
102
}
330
2A
100
AcDbVisualStyle
  2
Flat
 70
     0
 71
     2
 72
     1
 73
     1
 90
        2
 40
-0.6
 41
30.0
 62
     5
 63
     7
421
 16777215
 74
     0
 91
        4
 64
     7
 65
   257
 75
     1
175
     1
 42
1.0
 92
        8
 66
     7
 43
1.0
 76
     1
 77
     6
 78
     2
 67
     7
 79
     5
170
     0
171
     0
290
     0
174
     0
 93
       13
 44
0.0
173
     0
291
     1
 45
0.0
  0
VISUALSTYLE
  5
2C
102
{ACAD_REACTORS
330
2A
102
}
102
{ACAD_XDICTIONARY
360
84
102
}
330
2A
100
AcDbVisualStyle
  2
FlatWithEdges
 70
     1
 71
     2
 72
     1
 73
     1
 90
        2
 40
-0.6
 41
30.0
 62
     5
 63
     7
421
 16777215
 74
     1
 91
        4
 64
     7
 65
   257
 75
     1
175
     1
 42
1.0
 92
        0
 66
   257
 43
1.0
 76
     1
 77
     6
 78
     2
 67
     7
 79
     5
170
     0
171
     0
290
     0
174
     0
 93
       13
 44
0.0
173
     0
291
     1
 45
0.0
  0
VISUALSTYLE
  5
2D
102
{ACAD_REACTORS
330
2A
102
}
102
{ACAD_XDICTIONARY
360
86
102
}
330
2A
100
AcDbVisualStyle
  2
Gouraud
 70
     2
 71
     2
 72
     2
 73
     1
 90
        2
 40
-0.6
 41
30.0
 62
     5
 63
     7
421
 16777215
 74
     0
 91
        4
 64
     7
 65
   257
 75
     1
175
     1
 42
1.0
 92
        0
 66
     7
 43
1.0
 76
     1
 77
     6
 78
     2
 67
     7
 79
     5
170
     0
171
     0
290
     0
174
     0
 93
       13
 44
0.0
173
     0
291
     1
 45
0.0
  0
VISUALSTYLE
  5
2E
102
{ACAD_REACTORS
330
2A
102
}
102
{ACAD_XDICTIONARY
360
88
102
}
330
2A
100
AcDbVisualStyle
  2
GouraudWithEdges
 70
     3
 71
     2
 72
     2
 73
     1
 90
        2
 40
-0.6
 41
30.0
 62
     5
 63
     7
421
 16777215
 74
     1
 91
        4
 64
     7
 65
   257
 75
     1
175
     1
 42
1.0
 92
        0
 66
   257
 43
1.0
 76
     1
 77
     6
 78
     2
 67
     7
 79
     5
170
     0
171
     0
290
     0
174
     0
 93
       13
 44
0.0
173
     0
291
     1
 45
0.0
  0
VISUALSTYLE
  5
38
102
{ACAD_REACTORS
330
2A
102
}
102
{ACAD_XDICTIONARY
360
9C
102
}
330
2A
100
AcDbVisualStyle
  2
Linepattern
 70
    14
 71
     2
 72
     2
 73
     0
 90
        0
 40
-0.6
 41
-30.0
 62
     5
 63
     7
421
 16777215
 74
     1
 91
        4
 64
     7
 65
   257
 75
     7
175
     7
 42
1.0
 92
        8
 66
     7
 43
1.0
 76
     1
 77
     6
 78
     2
 67
     7
 79
     5
170
     0
171
     0
290
     0
174
     0
 93
        1
 44
0.0
173
     0
291
     1
 45
0.0
  0
VISUALSTYLE
  5
33
102
{ACAD_REACTORS
330
2A
102
}
102
{ACAD_XDICTIONARY
360
92
102
}
330
2A
100
AcDbVisualStyle
  2
Realistic
 70
     8
 71
     2
 72
     2
 73
     0
 90
        0
 40
-0.6
 41
-30.0
 62
     5
 63
     7
421
 16777215
 74
     1
 91
        0
 64
     7
 65
   257
 75
     1
175
     1
 42
1.0
 92
        8
 66
     8
424
  7895160
 43
1.0
 76
     1
 77
     6
 78
     2
 67
     7
 79
     5
170
     0
171
     0
290
     0
174
     0
 93
       13
 44
0.0
173
     0
291
     0
 45
0.0
  0
VISUALSTYLE
  5
37
102
{ACAD_REACTORS
330
2A
102
}
102
{ACAD_XDICTIONARY
360
9A
102
}
330
2A
100
AcDbVisualStyle
  2
Thicken
 70
    13
 71
     2
 72
     2
 73
     0
 90
        0
 40
-0.6
 41
-30.0
 62
     5
 63
     7
421
 16777215
 74
     1
 91
        4
 64
     7
 65
   257
 75
     1
175
     1
 42
1.0
 92
       12
 66
     7
 43
1.0
 76
     1
 77
     6
 78
     2
 67
     7
 79
     5
170
     0
171
     0
290
     0
174
     0
 93
        1
 44
0.0
173
     0
291
     1
 45
0.0
  0
DICTIONARY
  5
8A
330
2F
100
AcDbDictionary
280
     1
281
     1
  3
ACAD_XREC_ROUNDTRIP
360
8B
  0
DICTIONARY
  5
8E
330
31
100
AcDbDictionary
280
     1
281
     1
  3
ACAD_XREC_ROUNDTRIP
360
8F
  0
DICTIONARY
  5
8C
330
30
100
AcDbDictionary
280
     1
281
     1
  3
ACAD_XREC_ROUNDTRIP
360
8D
  0
DICTIONARY
  5
90
330
32
100
AcDbDictionary
280
     1
281
     1
  3
ACAD_XREC_ROUNDTRIP
360
91
  0
DICTIONARY
  5
98
330
36
100
AcDbDictionary
280
     1
281
     1
  3
ACAD_XREC_ROUNDTRIP
360
99
  0
DICTIONARY
  5
A0
330
3A
100
AcDbDictionary
280
     1
281
     1
  3
ACAD_XREC_ROUNDTRIP
360
A1
  0
DICTIONARY
  5
94
330
34
100
AcDbDictionary
280
     1
281
     1
  3
ACAD_XREC_ROUNDTRIP
360
95
  0
DICTIONARY
  5
96
330
35
100
AcDbDictionary
280
     1
281
     1
  3
ACAD_XREC_ROUNDTRIP
360
97
  0
DICTIONARY
  5
9E
330
39
100
AcDbDictionary
280
     1
281
     1
  3
ACAD_XREC_ROUNDTRIP
360
9F
  0
DICTIONARY
  5
82
330
2B
100
AcDbDictionary
280
     1
281
     1
  3
ACAD_XREC_ROUNDTRIP
360
83
  0
DICTIONARY
  5
84
330
2C
100
AcDbDictionary
280
     1
281
     1
  3
ACAD_XREC_ROUNDTRIP
360
85
  0
DICTIONARY
  5
86
330
2D
100
AcDbDictionary
280
     1
281
     1
  3
ACAD_XREC_ROUNDTRIP
360
87
  0
DICTIONARY
  5
88
330
2E
100
AcDbDictionary
280
     1
281
     1
  3
ACAD_XREC_ROUNDTRIP
360
89
  0
DICTIONARY
  5
9C
330
38
100
AcDbDictionary
280
     1
281
     1
  3
ACAD_XREC_ROUNDTRIP
360
9D
  0
DICTIONARY
  5
92
330
33
100
AcDbDictionary
280
     1
281
     1
  3
ACAD_XREC_ROUNDTRIP
360
93
  0
DICTIONARY
  5
9A
330
37
100
AcDbDictionary
280
     1
281
     1
  3
ACAD_XREC_ROUNDTRIP
360
9B
  0
XRECORD
  5
8B
102
{ACAD_REACTORS
330
8A
102
}
330
8A
100
AcDbXrecord
280
     1
102
RTVSPropertyOp0
 70
     1
102
RTVSPropertyOp1
 70
     1
102
RTVSPropertyOp2
 70
     1
102
RTVSPropertyOp3
 70
     1
102
RTVSPropertyOp4
 70
     1
102
RTVSPropertyOp5
 70
     1
102
RTVSPropertyOp6
 70
     1
102
RTVSPropertyOp7
 70
     1
102
RTVSPropertyOp8
 70
     1
102
RTVSPropertyOp9
 70
     1
102
RTVSPropertyOp10
 70
     1
102
RTVSPropertyOp11
 70
     1
102
RTVSPropertyOp12
 70
     1
102
RTVSPropertyOp13
 70
     1
102
RTVSPropertyOp14
 70
     1
102
RTVSPropertyOp15
 70
     1
102
RTVSPropertyOp16
 70
     1
102
RTVSPropertyOp17
 70
     1
102
RTVSPropertyOp18
 70
     1
102
RTVSPropertyOp19
 70
     1
102
RTVSPropertyOp20
 70
     1
102
RTVSPropertyOp21
 70
     1
102
RTVSPropertyOp22
 70
     1
102
RTVSPropertyOp23
 70
     1
102
RTVSPropertyOp24
 70
     1
102
RTVSPropertyOp25
 70
     1
102
RTVSPropertyOp26
 70
     1
102
RTVSPropertyOp27
 70
     1
102
RTVSPropertyOp28
 70
     1
102
RTVSPropertyOp29
 70
     1
102
RTVSPropertyOp30
 70
     1
102
RTVSPropertyOp31
 70
     1
102
RTVSPropertyOp32
 70
     1
  0
XRECORD
  5
8F
102
{ACAD_REACTORS
330
8E
102
}
330
8E
100
AcDbXrecord
280
     1
102
RTVSPropertyOp0
 70
     1
102
RTVSPropertyOp1
 70
     1
102
RTVSPropertyOp2
 70
     1
102
RTVSPropertyOp3
 70
     1
102
RTVSPropertyOp4
 70
     1
102
RTVSPropertyOp5
 70
     1
102
RTVSPropertyOp6
 70
     1
102
RTVSPropertyOp7
 70
     1
102
RTVSPropertyOp8
 70
     1
102
RTVSPropertyOp9
 70
     1
102
RTVSPropertyOp10
 70
     1
102
RTVSPropertyOp11
 70
     1
102
RTVSPropertyOp12
 70
     1
102
RTVSPropertyOp13
 70
     1
102
RTVSPropertyOp14
 70
     1
102
RTVSPropertyOp15
 70
     1
102
RTVSPropertyOp16
 70
     1
102
RTVSPropertyOp17
 70
     1
102
RTVSPropertyOp18
 70
     1
102
RTVSPropertyOp19
 70
     1
102
RTVSPropertyOp20
 70
     1
102
RTVSPropertyOp21
 70
     1
102
RTVSPropertyOp22
 70
     1
102
RTVSPropertyOp23
 70
     1
102
RTVSPropertyOp24
 70
     1
102
RTVSPropertyOp25
 70
     1
102
RTVSPropertyOp26
 70
     1
102
RTVSPropertyOp27
 70
     1
102
RTVSPropertyOp28
 70
     1
102
RTVSPropertyOp29
 70
     1
102
RTVSPropertyOp30
 70
     1
102
RTVSPropertyOp31
 70
     1
102
RTVSPropertyOp32
 70
     1
  0
XRECORD
  5
8D
102
{ACAD_REACTORS
330
8C
102
}
330
8C
100
AcDbXrecord
280
     1
102
RTVSPropertyOp0
 70
     1
102
RTVSPropertyOp1
 70
     1
102
RTVSPropertyOp2
 70
     1
102
RTVSPropertyOp3
 70
     1
102
RTVSPropertyOp4
 70
     1
102
RTVSPropertyOp5
 70
     1
102
RTVSPropertyOp6
 70
     1
102
RTVSPropertyOp7
 70
     1
102
RTVSPropertyOp8
 70
     1
102
RTVSPropertyOp9
 70
     1
102
RTVSPropertyOp10
 70
     1
102
RTVSPropertyOp11
 70
     1
102
RTVSPropertyOp12
 70
     1
102
RTVSPropertyOp13
 70
     1
102
RTVSPropertyOp14
 70
     1
102
RTVSPropertyOp15
 70
     1
102
RTVSPropertyOp16
 70
     1
102
RTVSPropertyOp17
 70
     1
102
RTVSPropertyOp18
 70
     1
102
RTVSPropertyOp19
 70
     1
102
RTVSPropertyOp20
 70
     1
102
RTVSPropertyOp21
 70
     1
102
RTVSPropertyOp22
 70
     1
102
RTVSPropertyOp23
 70
     1
102
RTVSPropertyOp24
 70
     1
102
RTVSPropertyOp25
 70
     1
102
RTVSPropertyOp26
 70
     1
102
RTVSPropertyOp27
 70
     1
102
RTVSPropertyOp28
 70
     1
102
RTVSPropertyOp29
 70
     1
102
RTVSPropertyOp30
 70
     1
102
RTVSPropertyOp31
 70
     1
102
RTVSPropertyOp32
 70
     1
  0
XRECORD
  5
91
102
{ACAD_REACTORS
330
90
102
}
330
90
100
AcDbXrecord
280
     1
102
RTVSPropertyOp0
 70
     1
102
RTVSPropertyOp1
 70
     1
102
RTVSPropertyOp2
 70
     1
102
RTVSPropertyOp3
 70
     1
102
RTVSPropertyOp4
 70
     1
102
RTVSPropertyOp5
 70
     1
102
RTVSPropertyOp6
 70
     1
102
RTVSPropertyOp7
 70
     1
102
RTVSPropertyOp8
 70
     1
102
RTVSPropertyOp9
 70
     1
102
RTVSPropertyOp10
 70
     1
102
RTVSPropertyOp11
 70
     1
102
RTVSPropertyOp12
 70
     1
102
RTVSPropertyOp13
 70
     1
102
RTVSPropertyOp14
 70
     1
102
RTVSPropertyOp15
 70
     1
102
RTVSPropertyOp16
 70
     1
102
RTVSPropertyOp17
 70
     1
102
RTVSPropertyOp18
 70
     1
102
RTVSPropertyOp19
 70
     1
102
RTVSPropertyOp20
 70
     1
102
RTVSPropertyOp21
 70
     1
102
RTVSPropertyOp22
 70
     1
102
RTVSPropertyOp23
 70
     1
102
RTVSPropertyOp24
 70
     1
102
RTVSPropertyOp25
 70
     1
102
RTVSPropertyOp26
 70
     1
102
RTVSPropertyOp27
 70
     1
102
RTVSPropertyOp28
 70
     1
102
RTVSPropertyOp29
 70
     1
102
RTVSPropertyOp30
 70
     1
102
RTVSPropertyOp31
 70
     1
102
RTVSPropertyOp32
 70
     1
  0
XRECORD
  5
99
102
{ACAD_REACTORS
330
98
102
}
330
98
100
AcDbXrecord
280
     1
102
RTVSPropertyOp0
 70
     1
102
RTVSPropertyOp1
 70
     1
102
RTVSPropertyOp2
 70
     1
102
RTVSPropertyOp3
 70
     1
102
RTVSPropertyOp4
 70
     1
102
RTVSPropertyOp5
 70
     1
102
RTVSPropertyOp6
 70
     1
102
RTVSPropertyOp7
 70
     1
102
RTVSPropertyOp8
 70
     1
102
RTVSPropertyOp9
 70
     1
102
RTVSPropertyOp10
 70
     1
102
RTVSPropertyOp11
 70
     1
102
RTVSPropertyOp12
 70
     1
102
RTVSPropertyOp13
 70
     1
102
RTVSPropertyOp14
 70
     1
102
RTVSPropertyOp15
 70
     1
102
RTVSPropertyOp16
 70
     1
102
RTVSPropertyOp17
 70
     1
102
RTVSPropertyOp18
 70
     1
102
RTVSPropertyOp19
 70
     1
102
RTVSPropertyOp20
 70
     1
102
RTVSPropertyOp21
 70
     1
102
RTVSPropertyOp22
 70
     1
102
RTVSPropertyOp23
 70
     1
102
RTVSPropertyOp24
 70
     1
102
RTVSPropertyOp25
 70
     1
102
RTVSPropertyOp26
 70
     1
102
RTVSPropertyOp27
 70
     1
102
RTVSPropertyOp28
 70
     1
102
RTVSPropertyOp29
 70
     1
102
RTVSPropertyOp30
 70
     1
102
RTVSPropertyOp31
 70
     1
102
RTVSPropertyOp32
 70
     1
  0
XRECORD
  5
A1
102
{ACAD_REACTORS
330
A0
102
}
330
A0
100
AcDbXrecord
280
     1
102
RTVSPropertyOp0
 70
     1
102
RTVSPropertyOp1
 70
     1
102
RTVSPropertyOp2
 70
     1
102
RTVSPropertyOp3
 70
     1
102
RTVSPropertyOp4
 70
     1
102
RTVSPropertyOp5
 70
     1
102
RTVSPropertyOp6
 70
     1
102
RTVSPropertyOp7
 70
     1
102
RTVSPropertyOp8
 70
     1
102
RTVSPropertyOp9
 70
     1
102
RTVSPropertyOp10
 70
     1
102
RTVSPropertyOp11
 70
     1
102
RTVSPropertyOp12
 70
     1
102
RTVSPropertyOp13
 70
     1
102
RTVSPropertyOp14
 70
     1
102
RTVSPropertyOp15
 70
     1
102
RTVSPropertyOp16
 70
     1
102
RTVSPropertyOp17
 70
     1
102
RTVSPropertyOp18
 70
     1
102
RTVSPropertyOp19
 70
     1
102
RTVSPropertyOp20
 70
     1
102
RTVSPropertyOp21
 70
     1
102
RTVSPropertyOp22
 70
     1
102
RTVSPropertyOp23
 70
     1
102
RTVSPropertyOp24
 70
     1
102
RTVSPropertyOp25
 70
     1
102
RTVSPropertyOp26
 70
     1
102
RTVSPropertyOp27
 70
     1
102
RTVSPropertyOp28
 70
     1
102
RTVSPropertyOp29
 70
     1
102
RTVSPropertyOp30
 70
     1
102
RTVSPropertyOp31
 70
     1
102
RTVSPropertyOp32
 70
     1
  0
XRECORD
  5
95
102
{ACAD_REACTORS
330
94
102
}
330
94
100
AcDbXrecord
280
     1
102
RTVSPropertyOp0
 70
     1
102
RTVSPropertyOp1
 70
     1
102
RTVSPropertyOp2
 70
     1
102
RTVSPropertyOp3
 70
     1
102
RTVSPropertyOp4
 70
     1
102
RTVSPropertyOp5
 70
     1
102
RTVSPropertyOp6
 70
     1
102
RTVSPropertyOp7
 70
     1
102
RTVSPropertyOp8
 70
     1
102
RTVSPropertyOp9
 70
     1
102
RTVSPropertyOp10
 70
     1
102
RTVSPropertyOp11
 70
     1
102
RTVSPropertyOp12
 70
     1
102
RTVSPropertyOp13
 70
     1
102
RTVSPropertyOp14
 70
     1
102
RTVSPropertyOp15
 70
     1
102
RTVSPropertyOp16
 70
     1
102
RTVSPropertyOp17
 70
     1
102
RTVSPropertyOp18
 70
     1
102
RTVSPropertyOp19
 70
     1
102
RTVSPropertyOp20
 70
     1
102
RTVSPropertyOp21
 70
     1
102
RTVSPropertyOp22
 70
     1
102
RTVSPropertyOp23
 70
     1
102
RTVSPropertyOp24
 70
     1
102
RTVSPropertyOp25
 70
     1
102
RTVSPropertyOp26
 70
     1
102
RTVSPropertyOp27
 70
     1
102
RTVSPropertyOp28
 70
     1
102
RTVSPropertyOp29
 70
     1
102
RTVSPropertyOp30
 70
     1
102
RTVSPropertyOp31
 70
     1
102
RTVSPropertyOp32
 70
     1
  0
XRECORD
  5
97
102
{ACAD_REACTORS
330
96
102
}
330
96
100
AcDbXrecord
280
     1
102
RTVSPropertyOp0
 70
     1
102
RTVSPropertyOp1
 70
     1
102
RTVSPropertyOp2
 70
     1
102
RTVSPropertyOp3
 70
     1
102
RTVSPropertyOp4
 70
     1
102
RTVSPropertyOp5
 70
     1
102
RTVSPropertyOp6
 70
     1
102
RTVSPropertyOp7
 70
     1
102
RTVSPropertyOp8
 70
     1
102
RTVSPropertyOp9
 70
     1
102
RTVSPropertyOp10
 70
     1
102
RTVSPropertyOp11
 70
     1
102
RTVSPropertyOp12
 70
     1
102
RTVSPropertyOp13
 70
     1
102
RTVSPropertyOp14
 70
     1
102
RTVSPropertyOp15
 70
     1
102
RTVSPropertyOp16
 70
     1
102
RTVSPropertyOp17
 70
     1
102
RTVSPropertyOp18
 70
     1
102
RTVSPropertyOp19
 70
     1
102
RTVSPropertyOp20
 70
     1
102
RTVSPropertyOp21
 70
     1
102
RTVSPropertyOp22
 70
     1
102
RTVSPropertyOp23
 70
     1
102
RTVSPropertyOp24
 70
     1
102
RTVSPropertyOp25
 70
     1
102
RTVSPropertyOp26
 70
     1
102
RTVSPropertyOp27
 70
     1
102
RTVSPropertyOp28
 70
     1
102
RTVSPropertyOp29
 70
     1
102
RTVSPropertyOp30
 70
     1
102
RTVSPropertyOp31
 70
     1
102
RTVSPropertyOp32
 70
     1
  0
XRECORD
  5
9F
102
{ACAD_REACTORS
330
9E
102
}
330
9E
100
AcDbXrecord
280
     1
102
RTVSPropertyOp0
 70
     1
102
RTVSPropertyOp1
 70
     1
102
RTVSPropertyOp2
 70
     1
102
RTVSPropertyOp3
 70
     1
102
RTVSPropertyOp4
 70
     1
102
RTVSPropertyOp5
 70
     1
102
RTVSPropertyOp6
 70
     1
102
RTVSPropertyOp7
 70
     1
102
RTVSPropertyOp8
 70
     1
102
RTVSPropertyOp9
 70
     1
102
RTVSPropertyOp10
 70
     1
102
RTVSPropertyOp11
 70
     1
102
RTVSPropertyOp12
 70
     1
102
RTVSPropertyOp13
 70
     1
102
RTVSPropertyOp14
 70
     1
102
RTVSPropertyOp15
 70
     1
102
RTVSPropertyOp16
 70
     1
102
RTVSPropertyOp17
 70
     1
102
RTVSPropertyOp18
 70
     1
102
RTVSPropertyOp19
 70
     1
102
RTVSPropertyOp20
 70
     1
102
RTVSPropertyOp21
 70
     1
102
RTVSPropertyOp22
 70
     1
102
RTVSPropertyOp23
 70
     1
102
RTVSPropertyOp24
 70
     1
102
RTVSPropertyOp25
 70
     1
102
RTVSPropertyOp26
 70
     1
102
RTVSPropertyOp27
 70
     1
102
RTVSPropertyOp28
 70
     1
102
RTVSPropertyOp29
 70
     1
102
RTVSPropertyOp30
 70
     1
102
RTVSPropertyOp31
 70
     1
102
RTVSPropertyOp32
 70
     1
  0
XRECORD
  5
83
102
{ACAD_REACTORS
330
82
102
}
330
82
100
AcDbXrecord
280
     1
102
RTVSPropertyOp0
 70
     1
102
RTVSPropertyOp1
 70
     1
102
RTVSPropertyOp2
 70
     1
102
RTVSPropertyOp3
 70
     1
102
RTVSPropertyOp4
 70
     1
102
RTVSPropertyOp5
 70
     1
102
RTVSPropertyOp6
 70
     1
102
RTVSPropertyOp7
 70
     1
102
RTVSPropertyOp8
 70
     1
102
RTVSPropertyOp9
 70
     1
102
RTVSPropertyOp10
 70
     1
102
RTVSPropertyOp11
 70
     1
102
RTVSPropertyOp12
 70
     1
102
RTVSPropertyOp13
 70
     1
102
RTVSPropertyOp14
 70
     1
102
RTVSPropertyOp15
 70
     1
102
RTVSPropertyOp16
 70
     1
102
RTVSPropertyOp17
 70
     1
102
RTVSPropertyOp18
 70
     1
102
RTVSPropertyOp19
 70
     1
102
RTVSPropertyOp20
 70
     1
102
RTVSPropertyOp21
 70
     1
102
RTVSPropertyOp22
 70
     1
102
RTVSPropertyOp23
 70
     1
102
RTVSPropertyOp24
 70
     1
102
RTVSPropertyOp25
 70
     1
102
RTVSPropertyOp26
 70
     1
102
RTVSPropertyOp27
 70
     1
102
RTVSPropertyOp28
 70
     1
102
RTVSPropertyOp29
 70
     1
102
RTVSPropertyOp30
 70
     1
102
RTVSPropertyOp31
 70
     1
102
RTVSPropertyOp32
 70
     1
  0
XRECORD
  5
85
102
{ACAD_REACTORS
330
84
102
}
330
84
100
AcDbXrecord
280
     1
102
RTVSPropertyOp0
 70
     1
102
RTVSPropertyOp1
 70
     1
102
RTVSPropertyOp2
 70
     1
102
RTVSPropertyOp3
 70
     1
102
RTVSPropertyOp4
 70
     1
102
RTVSPropertyOp5
 70
     1
102
RTVSPropertyOp6
 70
     1
102
RTVSPropertyOp7
 70
     1
102
RTVSPropertyOp8
 70
     1
102
RTVSPropertyOp9
 70
     1
102
RTVSPropertyOp10
 70
     1
102
RTVSPropertyOp11
 70
     1
102
RTVSPropertyOp12
 70
     1
102
RTVSPropertyOp13
 70
     1
102
RTVSPropertyOp14
 70
     1
102
RTVSPropertyOp15
 70
     1
102
RTVSPropertyOp16
 70
     1
102
RTVSPropertyOp17
 70
     1
102
RTVSPropertyOp18
 70
     1
102
RTVSPropertyOp19
 70
     1
102
RTVSPropertyOp20
 70
     1
102
RTVSPropertyOp21
 70
     1
102
RTVSPropertyOp22
 70
     1
102
RTVSPropertyOp23
 70
     1
102
RTVSPropertyOp24
 70
     1
102
RTVSPropertyOp25
 70
     1
102
RTVSPropertyOp26
 70
     1
102
RTVSPropertyOp27
 70
     1
102
RTVSPropertyOp28
 70
     1
102
RTVSPropertyOp29
 70
     1
102
RTVSPropertyOp30
 70
     1
102
RTVSPropertyOp31
 70
     1
102
RTVSPropertyOp32
 70
     1
  0
XRECORD
  5
87
102
{ACAD_REACTORS
330
86
102
}
330
86
100
AcDbXrecord
280
     1
102
RTVSPropertyOp0
 70
     1
102
RTVSPropertyOp1
 70
     1
102
RTVSPropertyOp2
 70
     1
102
RTVSPropertyOp3
 70
     1
102
RTVSPropertyOp4
 70
     1
102
RTVSPropertyOp5
 70
     1
102
RTVSPropertyOp6
 70
     1
102
RTVSPropertyOp7
 70
     1
102
RTVSPropertyOp8
 70
     1
102
RTVSPropertyOp9
 70
     1
102
RTVSPropertyOp10
 70
     1
102
RTVSPropertyOp11
 70
     1
102
RTVSPropertyOp12
 70
     1
102
RTVSPropertyOp13
 70
     1
102
RTVSPropertyOp14
 70
     1
102
RTVSPropertyOp15
 70
     1
102
RTVSPropertyOp16
 70
     1
102
RTVSPropertyOp17
 70
     1
102
RTVSPropertyOp18
 70
     1
102
RTVSPropertyOp19
 70
     1
102
RTVSPropertyOp20
 70
     1
102
RTVSPropertyOp21
 70
     1
102
RTVSPropertyOp22
 70
     1
102
RTVSPropertyOp23
 70
     1
102
RTVSPropertyOp24
 70
     1
102
RTVSPropertyOp25
 70
     1
102
RTVSPropertyOp26
 70
     1
102
RTVSPropertyOp27
 70
     1
102
RTVSPropertyOp28
 70
     1
102
RTVSPropertyOp29
 70
     1
102
RTVSPropertyOp30
 70
     1
102
RTVSPropertyOp31
 70
     1
102
RTVSPropertyOp32
 70
     1
  0
XRECORD
  5
89
102
{ACAD_REACTORS
330
88
102
}
330
88
100
AcDbXrecord
280
     1
102
RTVSPropertyOp0
 70
     1
102
RTVSPropertyOp1
 70
     1
102
RTVSPropertyOp2
 70
     1
102
RTVSPropertyOp3
 70
     1
102
RTVSPropertyOp4
 70
     1
102
RTVSPropertyOp5
 70
     1
102
RTVSPropertyOp6
 70
     1
102
RTVSPropertyOp7
 70
     1
102
RTVSPropertyOp8
 70
     1
102
RTVSPropertyOp9
 70
     1
102
RTVSPropertyOp10
 70
     1
102
RTVSPropertyOp11
 70
     1
102
RTVSPropertyOp12
 70
     1
102
RTVSPropertyOp13
 70
     1
102
RTVSPropertyOp14
 70
     1
102
RTVSPropertyOp15
 70
     1
102
RTVSPropertyOp16
 70
     1
102
RTVSPropertyOp17
 70
     1
102
RTVSPropertyOp18
 70
     1
102
RTVSPropertyOp19
 70
     1
102
RTVSPropertyOp20
 70
     1
102
RTVSPropertyOp21
 70
     1
102
RTVSPropertyOp22
 70
     1
102
RTVSPropertyOp23
 70
     1
102
RTVSPropertyOp24
 70
     1
102
RTVSPropertyOp25
 70
     1
102
RTVSPropertyOp26
 70
     1
102
RTVSPropertyOp27
 70
     1
102
RTVSPropertyOp28
 70
     1
102
RTVSPropertyOp29
 70
     1
102
RTVSPropertyOp30
 70
     1
102
RTVSPropertyOp31
 70
     1
102
RTVSPropertyOp32
 70
     1
  0
XRECORD
  5
9D
102
{ACAD_REACTORS
330
9C
102
}
330
9C
100
AcDbXrecord
280
     1
102
RTVSPropertyOp0
 70
     1
102
RTVSPropertyOp1
 70
     1
102
RTVSPropertyOp2
 70
     1
102
RTVSPropertyOp3
 70
     1
102
RTVSPropertyOp4
 70
     1
102
RTVSPropertyOp5
 70
     1
102
RTVSPropertyOp6
 70
     1
102
RTVSPropertyOp7
 70
     1
102
RTVSPropertyOp8
 70
     1
102
RTVSPropertyOp9
 70
     1
102
RTVSPropertyOp10
 70
     1
102
RTVSPropertyOp11
 70
     1
102
RTVSPropertyOp12
 70
     1
102
RTVSPropertyOp13
 70
     1
102
RTVSPropertyOp14
 70
     1
102
RTVSPropertyOp15
 70
     1
102
RTVSPropertyOp16
 70
     1
102
RTVSPropertyOp17
 70
     1
102
RTVSPropertyOp18
 70
     1
102
RTVSPropertyOp19
 70
     1
102
RTVSPropertyOp20
 70
     1
102
RTVSPropertyOp21
 70
     1
102
RTVSPropertyOp22
 70
     1
102
RTVSPropertyOp23
 70
     1
102
RTVSPropertyOp24
 70
     1
102
RTVSPropertyOp25
 70
     1
102
RTVSPropertyOp26
 70
     1
102
RTVSPropertyOp27
 70
     1
102
RTVSPropertyOp28
 70
     1
102
RTVSPropertyOp29
 70
     1
102
RTVSPropertyOp30
 70
     1
102
RTVSPropertyOp31
 70
     1
102
RTVSPropertyOp32
 70
     1
  0
XRECORD
  5
93
102
{ACAD_REACTORS
330
92
102
}
330
92
100
AcDbXrecord
280
     1
102
RTVSPropertyOp0
 70
     1
102
RTVSPropertyOp1
 70
     1
102
RTVSPropertyOp2
 70
     1
102
RTVSPropertyOp3
 70
     1
102
RTVSPropertyOp4
 70
     1
102
RTVSPropertyOp5
 70
     1
102
RTVSPropertyOp6
 70
     1
102
RTVSPropertyOp7
 70
     1
102
RTVSPropertyOp8
 70
     1
102
RTVSPropertyOp9
 70
     1
102
RTVSPropertyOp10
 70
     1
102
RTVSPropertyOp11
 70
     1
102
RTVSPropertyOp12
 70
     1
102
RTVSPropertyOp13
 70
     1
102
RTVSPropertyOp14
 70
     1
102
RTVSPropertyOp15
 70
     1
102
RTVSPropertyOp16
 70
     1
102
RTVSPropertyOp17
 70
     1
102
RTVSPropertyOp18
 70
     1
102
RTVSPropertyOp19
 70
     1
102
RTVSPropertyOp20
 70
     1
102
RTVSPropertyOp21
 70
     1
102
RTVSPropertyOp22
 70
     1
102
RTVSPropertyOp23
 70
     1
102
RTVSPropertyOp24
 70
     1
102
RTVSPropertyOp25
 70
     1
102
RTVSPropertyOp26
 70
     1
102
RTVSPropertyOp27
 70
     1
102
RTVSPropertyOp28
 70
     1
102
RTVSPropertyOp29
 70
     1
102
RTVSPropertyOp30
 70
     1
102
RTVSPropertyOp31
 70
     1
102
RTVSPropertyOp32
 70
     1
  0
XRECORD
  5
9B
102
{ACAD_REACTORS
330
9A
102
}
330
9A
100
AcDbXrecord
280
     1
102
RTVSPropertyOp0
 70
     1
102
RTVSPropertyOp1
 70
     1
102
RTVSPropertyOp2
 70
     1
102
RTVSPropertyOp3
 70
     1
102
RTVSPropertyOp4
 70
     1
102
RTVSPropertyOp5
 70
     1
102
RTVSPropertyOp6
 70
     1
102
RTVSPropertyOp7
 70
     1
102
RTVSPropertyOp8
 70
     1
102
RTVSPropertyOp9
 70
     1
102
RTVSPropertyOp10
 70
     1
102
RTVSPropertyOp11
 70
     1
102
RTVSPropertyOp12
 70
     1
102
RTVSPropertyOp13
 70
     1
102
RTVSPropertyOp14
 70
     1
102
RTVSPropertyOp15
 70
     1
102
RTVSPropertyOp16
 70
     1
102
RTVSPropertyOp17
 70
     1
102
RTVSPropertyOp18
 70
     1
102
RTVSPropertyOp19
 70
     1
102
RTVSPropertyOp20
 70
     1
102
RTVSPropertyOp21
 70
     1
102
RTVSPropertyOp22
 70
     1
102
RTVSPropertyOp23
 70
     1
102
RTVSPropertyOp24
 70
     1
102
RTVSPropertyOp25
 70
     1
102
RTVSPropertyOp26
 70
     1
102
RTVSPropertyOp27
 70
     1
102
RTVSPropertyOp28
 70
     1
102
RTVSPropertyOp29
 70
     1
102
RTVSPropertyOp30
 70
     1
102
RTVSPropertyOp31
 70
     1
102
RTVSPropertyOp32
 70
     1
  0
ENDSEC
  0
EOF
