  0
SECTION
  2
HEADER
  9
$ACADVER
  1
AC1021
  9
$ACADMAINTVER
 70
    25
  9
$DWGCODEPAGE
  3
ANSI_1252
  9
$INSBASE
 10
0.0
 20
0.0
 30
0.0
  9
$EXTMIN
 10
68.4394
 20
-75.046
 30
0.0
  9
$EXTMAX
 10
196.0528
 20
102.9461
 30
0.0
  9
$LIMMIN
 10
0.0
 20
0.0
  9
$LIMMAX
 10
12.0
 20
9.0
  9
$ORTHOMODE
 70
     0
  9
$REGENMODE
 70
     1
  9
$FILLMODE
 70
     1
  9
$QTEXTMODE
 70
     0
  9
$MIRRTEXT
 70
     1
  9
$LTSCALE
 40
1.0
  9
$ATTMODE
 70
     1
  9
$TEXTSIZE
 40
0.2
  9
$TRACEWID
 40
0.05
  9
$TEXTSTYLE
  7
Standard
  9
$CLAYER
  8
0
  9
$CELTYPE
  6
ByLayer
  9
$CECOLOR
 62
   256
  9
$CELTSCALE
 40
1.0
  9
$DISPSILH
 70
     0
  9
$DIMSCALE
 40
1.0
  9
$DIMASZ
 40
0.18
  9
$DIMEXO
 40
0.0625
  9
$DIMDLI
 40
0.38
  9
$DIMRND
 40
0.0
  9
$DIMDLE
 40
0.0
  9
$DIMEXE
 40
0.18
  9
$DIMTP
 40
0.0
  9
$DIMTM
 40
0.0
  9
$DIMTXT
 40
0.18
  9
$DIMCEN
 40
0.09
  9
$DIMTSZ
 40
0.0
  9
$DIMTOL
 70
     0
  9
$DIMLIM
 70
     0
  9
$DIMTIH
 70
     1
  9
$DIMTOH
 70
     1
  9
$DIMSE1
 70
     0
  9
$DIMSE2
 70
     0
  9
$DIMTAD
 70
     0
  9
$DIMZIN
 70
     0
  9
$DIMBLK
  1

  9
$DIMASO
 70
     1
  9
$DIMSHO
 70
     1
  9
$DIMPOST
  1

  9
$DIMAPOST
  1

  9
$DIMALT
 70
     0
  9
$DIMALTD
 70
     2
  9
$DIMALTF
 40
25.4
  9
$DIMLFAC
 40
1.0
  9
$DIMTOFL
 70
     0
  9
$DIMTVP
 40
0.0
  9
$DIMTIX
 70
     0
  9
$DIMSOXD
 70
     0
  9
$DIMSAH
 70
     0
  9
$DIMBLK1
  1

  9
$DIMBLK2
  1

  9
$DIMSTYLE
  2
Standard
  9
$DIMCLRD
 70
     0
  9
$DIMCLRE
 70
     0
  9
$DIMCLRT
 70
     0
  9
$DIMTFAC
 40
1.0
  9
$DIMGAP
 40
0.09
  9
$DIMJUST
 70
     0
  9
$DIMSD1
 70
     0
  9
$DIMSD2
 70
     0
  9
$DIMTOLJ
 70
     1
  9
$DIMTZIN
 70
     0
  9
$DIMALTZ
 70
     0
  9
$DIMALTTZ
 70
     0
  9
$DIMUPT
 70
     0
  9
$DIMDEC
 70
     4
  9
$DIMTDEC
 70
     4
  9
$DIMALTU
 70
     2
  9
$DIMALTTD
 70
     2
  9
$DIMTXSTY
  7
Standard
  9
$DIMAUNIT
 70
     0
  9
$DIMADEC
 70
     0
  9
$DIMALTRND
 40
0.0
  9
$DIMAZIN
 70
     0
  9
$DIMDSEP
 70
    46
  9
$DIMATFIT
 70
     3
  9
$DIMFRAC
 70
     0
  9
$DIMLDRBLK
  1

  9
$DIMLUNIT
 70
     2
  9
$DIMLWD
 70
    -2
  9
$DIMLWE
 70
    -2
  9
$DIMTMOVE
 70
     0
  9
$DIMFXL
 40
1.0
  9
$DIMFXLON
 70
     0
  9
$DIMJOGANG
 40
0.7853981633974483
  9
$DIMTFILL
 70
     0
  9
$DIMTFILLCLR
 70
     0
  9
$DIMARCSYM
 70
     0
  9
$DIMLTYPE
  6

  9
$DIMLTEX1
  6

  9
$DIMLTEX2
  6

  9
$LUNITS
 70
     2
  9
$LUPREC
 70
     4
  9
$SKETCHINC
 40
0.1
  9
$FILLETRAD
 40
0.5
  9
$AUNITS
 70
     0
  9
$AUPREC
 70
     0
  9
$MENU
  1
.
  9
$ELEVATION
 40
0.0
  9
$PELEVATION
 40
0.0
  9
$THICKNESS
 40
0.0
  9
$LIMCHECK
 70
     0
  9
$CHAMFERA
 40
0.5
  9
$CHAMFERB
 40
0.5
  9
$CHAMFERC
 40
1.0
  9
$CHAMFERD
 40
0.0
  9
$SKPOLY
 70
     0
  9
$TDCREATE
 40
2458492.804995255
  9
$TDUCREATE
 40
2458492.804995255
  9
$TDUPDATE
 40
2458492.804995498
  9
$TDUUPDATE
 40
2458492.804995498
  9
$TDINDWG
 40
0.0000000116
  9
$TDUSRTIMER
 40
0.0000000116
  9
$USRTIMER
 70
     1
  9
$ANGBASE
 50
0.0
  9
$ANGDIR
 70
     0
  9
$PDMODE
 70
     0
  9
$PDSIZE
 40
0.0
  9
$PLINEWID
 40
0.0
  9
$SPLFRAME
 70
     0
  9
$SPLINETYPE
 70
     6
  9
$SPLINESEGS
 70
     8
  9
$HANDSEED
  5
82
  9
$SURFTAB1
 70
     6
  9
$SURFTAB2
 70
     6
  9
$SURFTYPE
 70
     6
  9
$SURFU
 70
     6
  9
$SURFV
 70
     6
  9
$UCSBASE
  2

  9
$UCSNAME
  2

  9
$UCSORG
 10
0.0
 20
0.0
 30
0.0
  9
$UCSXDIR
 10
1.0
 20
0.0
 30
0.0
  9
$UCSYDIR
 10
0.0
 20
1.0
 30
0.0
  9
$UCSORTHOREF
  2

  9
$UCSORTHOVIEW
 70
     0
  9
$UCSORGTOP
 10
0.0
 20
0.0
 30
0.0
  9
$UCSORGBOTTOM
 10
0.0
 20
0.0
 30
0.0
  9
$UCSORGLEFT
 10
0.0
 20
0.0
 30
0.0
  9
$UCSORGRIGHT
 10
0.0
 20
0.0
 30
0.0
  9
$UCSORGFRONT
 10
0.0
 20
0.0
 30
0.0
  9
$UCSORGBACK
 10
0.0
 20
0.0
 30
0.0
  9
$PUCSBASE
  2

  9
$PUCSNAME
  2

  9
$PUCSORG
 10
0.0
 20
0.0
 30
0.0
  9
$PUCSXDIR
 10
1.0
 20
0.0
 30
0.0
  9
$PUCSYDIR
 10
0.0
 20
1.0
 30
0.0
  9
$PUCSORTHOREF
  2

  9
$PUCSORTHOVIEW
 70
     0
  9
$PUCSORGTOP
 10
0.0
 20
0.0
 30
0.0
  9
$PUCSORGBOTTOM
 10
0.0
 20
0.0
 30
0.0
  9
$PUCSORGLEFT
 10
0.0
 20
0.0
 30
0.0
  9
$PUCSORGRIGHT
 10
0.0
 20
0.0
 30
0.0
  9
$PUCSORGFRONT
 10
0.0
 20
0.0
 30
0.0
  9
$PUCSORGBACK
 10
0.0
 20
0.0
 30
0.0
  9
$USERI1
 70
     0
  9
$USERI2
 70
     0
  9
$USERI3
 70
     0
  9
$USERI4
 70
     0
  9
$USERI5
 70
     0
  9
$USERR1
 40
0.0
  9
$USERR2
 40
0.0
  9
$USERR3
 40
0.0
  9
$USERR4
 40
0.0
  9
$USERR5
 40
0.0
  9
$WORLDVIEW
 70
     1
  9
$SHADEDGE
 70
     3
  9
$SHADEDIF
 70
    70
  9
$TILEMODE
 70
     1
  9
$MAXACTVP
 70
    64
  9
$PINSBASE
 10
0.0
 20
0.0
 30
0.0
  9
$PLIMCHECK
 70
     0
  9
$PEXTMIN
 10
1.000000000000000E+20
 20
1.000000000000000E+20
 30
1.000000000000000E+20
  9
$PEXTMAX
 10
-1.000000000000000E+20
 20
-1.000000000000000E+20
 30
-1.000000000000000E+20
  9
$PLIMMIN
 10
0.0
 20
0.0
  9
$PLIMMAX
 10
12.0
 20
9.0
  9
$UNITMODE
 70
     0
  9
$VISRETAIN
 70
     1
  9
$PLINEGEN
 70
     0
  9
$PSLTSCALE
 70
     1
  9
$TREEDEPTH
 70
  3020
  9
$CMLSTYLE
  2
Standard
  9
$CMLJUST
 70
     0
  9
$CMLSCALE
 40
1.0
  9
$PROXYGRAPHICS
 70
     1
  9
$MEASUREMENT
 70
     0
  9
$CELWEIGHT
370
    -1
  9
$ENDCAPS
280
     0
  9
$JOINSTYLE
280
     0
  9
$LWDISPLAY
290
     0
  9
$INSUNITS
 70
     4
  9
$HYPERLINKBASE
  1

  9
$STYLESHEET
  1

  9
$XEDIT
290
     1
  9
$CEPSNTYPE
380
     0
  9
$PSTYLEMODE
290
     1
  9
$FINGERPRINTGUID
  2
{D81E635C-FFF3-45EA-804C-BF82F9B623DE}
  9
$VERSIONGUID
  2
{FAEB1C32-E019-11D5-929B-00C0DF256EC4}
  9
$EXTNAMES
290
     1
  9
$PSVPSCALE
 40
0.0
  9
$OLESTARTUP
290
     0
  9
$SORTENTS
280
   127
  9
$INDEXCTL
280
     0
  9
$HIDETEXT
280
     1
  9
$XCLIPFRAME
290
     0
  9
$HALOGAP
280
     0
  9
$OBSCOLOR
 70
   257
  9
$OBSLTYPE
280
     0
  9
$INTERSECTIONDISPLAY
280
     0
  9
$INTERSECTIONCOLOR
 70
   257
  9
$DIMASSOC
280
     2
  9
$PROJECTNAME
  1

  9
$CAMERADISPLAY
290
     0
  9
$LENSLENGTH
 40
50.0
  9
$CAMERAHEIGHT
 40
0.0
  9
$STEPSPERSEC
 40
2.0
  9
$STEPSIZE
 40
6.0
  9
$3DDWFPREC
 40
2.0
  9
$PSOLWIDTH
 40
0.25
  9
$PSOLHEIGHT
 40
4.0
  9
$LOFTANG1
 40
1.570796326794897
  9
$LOFTANG2
 40
1.570796326794897
  9
$LOFTMAG1
 40
0.0
  9
$LOFTMAG2
 40
0.0
  9
$LOFTPARAM
 70
     7
  9
$LOFTNORMALS
280
     1
  9
$LATITUDE
 40
37.795
  9
$LONGITUDE
 40
-122.394
  9
$NORTHDIRECTION
 40
0.0
  9
$TIMEZONE
 70
 -8000
  9
$LIGHTGLYPHDISPLAY
280
     1
  9
$TILEMODELIGHTSYNCH
280
     1
  9
$SOLIDHIST
280
     1
  9
$SHOWHIST
280
     1
  9
$DWFFRAME
280
     2
  9
$DGNFRAME
280
     2
  9
$REALWORLDSCALE
290
     1
  9
$INTERFERECOLOR
 62
   256
  9
$CSHADOW
280
     0
  9
$SHADOWPLANELOCATION
 40
0.0
  0
ENDSEC
  0
SECTION
  2
CLASSES
  0
CLASS
  1
ACDBDICTIONARYWDFLT
  2
AcDbDictionaryWithDefault
  3
ObjectDBX Classes
 90
        0
 91
        4
280
     0
281
     0
  0
CLASS
  1
VISUALSTYLE
  2
AcDbVisualStyle
  3
ObjectDBX Classes
 90
     4095
 91
        4
280
     0
281
     0
  0
CLASS
  1
MATERIAL
  2
AcDbMaterial
  3
ObjectDBX Classes
 90
     1153
 91
        4
280
     0
281
     0
  0
ENDSEC
  0
SECTION
  2
TABLES
  0
TABLE
  2
VPORT
  5
8
330
0
100
AcDbSymbolTable
 70
     1
  0
VPORT
  5
29
330
8
100
AcDbSymbolTableRecord
100
AcDbViewportTableRecord
  2
*Active
 70
     0
 10
0.0
 20
0.0
 11
1.0
 21
1.0
 12
10.42990654205607
 22
4.5
 13
0.0
 23
0.0
 14
0.5
 24
0.5
 15
0.5
 25
0.5
 16
0.0
 26
0.0
 36
1.0
 17
0.0
 27
0.0
 37
0.0
 40
9.0
 41
1.972972972850329
 42
50.0
 43
0.0
 44
0.0
 50
0.0
 51
0.0
 71
     0
 72
   100
 73
     1
 74
     3
 75
     0
 76
     0
 77
     0
 78
     0
281
     0
 65
     1
110
0.0
120
0.0
130
0.0
111
1.0
121
0.0
131
0.0
112
0.0
122
1.0
132
0.0
 79
     0
146
0.0
 60
     3
 61
     5
292
     1
282
     1
141
0.0
142
0.0
 63
   250
  0
ENDTAB
  0
TABLE
  2
LTYPE
  5
5
330
0
100
AcDbSymbolTable
 70
     1
  0
LTYPE
  5
14
330
5
100
AcDbSymbolTableRecord
100
AcDbLinetypeTableRecord
  2
ByBlock
 70
     0
  3

 72
    65
 73
     0
 40
0.0
  0
LTYPE
  5
15
330
5
100
AcDbSymbolTableRecord
100
AcDbLinetypeTableRecord
  2
ByLayer
 70
     0
  3

 72
    65
 73
     0
 40
0.0
  0
LTYPE
  5
16
330
5
100
AcDbSymbolTableRecord
100
AcDbLinetypeTableRecord
  2
Continuous
 70
     0
  3
Solid line
 72
    65
 73
     0
 40
0.0
  0
ENDTAB
  0
TABLE
  2
LAYER
  5
2
330
0
100
AcDbSymbolTable
 70
     2
  0
LAYER
  5
10
330
2
100
AcDbSymbolTableRecord
100
AcDbLayerTableRecord
  2
0
 70
     0
 62
     7
  6
Continuous
370
    -3
390
F
347
3E
  0
LAYER
  5
40
330
2
100
AcDbSymbolTableRecord
100
AcDbLayerTableRecord
  2
layer 1
 70
     0
 62
     7
  6
Continuous
370
    -3
390
F
347
3E
  0
ENDTAB
  0
TABLE
  2
STYLE
  5
3
330
0
100
AcDbSymbolTable
 70
     1
  0
STYLE
  5
11
330
3
100
AcDbSymbolTableRecord
100
AcDbTextStyleTableRecord
  2
Standard
 70
     0
 40
0.0
 41
1.0
 50
0.0
 71
     0
 42
0.2
  3
txt
  4

  0
ENDTAB
  0
TABLE
  2
VIEW
  5
6
330
0
100
AcDbSymbolTable
 70
     0
  0
ENDTAB
  0
TABLE
  2
UCS
  5
7
330
0
100
AcDbSymbolTable
 70
     0
  0
ENDTAB
  0
TABLE
  2
APPID
  5
9
330
0
100
AcDbSymbolTable
 70
     2
  0
APPID
  5
12
330
9
100
AcDbSymbolTableRecord
100
AcDbRegAppTableRecord
  2
ACAD
 70
     0
  0
APPID
  5
3F
330
9
100
AcDbSymbolTableRecord
100
AcDbRegAppTableRecord
  2
ODA
 70
     0
  0
ENDTAB
  0
TABLE
  2
DIMSTYLE
  5
A
330
0
100
AcDbSymbolTable
 70
     1
100
AcDbDimStyleTable
  0
DIMSTYLE
105
27
330
A
100
AcDbSymbolTableRecord
100
AcDbDimStyleTableRecord
  2
Standard
 70
     0
178
     0
340
11
  0
ENDTAB
  0
TABLE
  2
BLOCK_RECORD
  5
1
330
0
100
AcDbSymbolTable
 70
     1
  0
BLOCK_RECORD
  5
1F
330
1
100
AcDbSymbolTableRecord
100
AcDbBlockTableRecord
  2
*Model_Space
340
22
 70
     0
280
     1
281
     0
  0
BLOCK_RECORD
  5
1B
330
1
100
AcDbSymbolTableRecord
100
AcDbBlockTableRecord
  2
*Paper_Space
340
1E
 70
     0
280
     1
281
     0
  0
BLOCK_RECORD
  5
23
330
1
100
AcDbSymbolTableRecord
100
AcDbBlockTableRecord
  2
*Paper_Space0
340
26
 70
     0
280
     1
281
     0
  0
ENDTAB
  0
ENDSEC
  0
SECTION
  2
BLOCKS
  0
BLOCK
  5
20
330
1F
100
AcDbEntity
  8
0
100
AcDbBlockBegin
  2
*Model_Space
 70
     0
 10
0.0
 20
0.0
 30
0.0
  3
*Model_Space
  1

  0
ENDBLK
  5
21
330
1F
100
AcDbEntity
  8
0
100
AcDbBlockEnd
  0
BLOCK
  5
1C
330
1B
100
AcDbEntity
 67
     1
  8
0
100
AcDbBlockBegin
  2
*Paper_Space
 70
     0
 10
0.0
 20
0.0
 30
0.0
  3
*Paper_Space
  1

  0
ENDBLK
  5
1D
330
1B
100
AcDbEntity
 67
     1
  8
0
100
AcDbBlockEnd
  0
BLOCK
  5
24
330
23
100
AcDbEntity
  8
0
100
AcDbBlockBegin
  2
*Paper_Space0
 70
     0
 10
0.0
 20
0.0
 30
0.0
  3
*Paper_Space0
  1

  0
ENDBLK
  5
25
330
23
100
AcDbEntity
  8
0
100
AcDbBlockEnd
  0
ENDSEC
  0
SECTION
  2
ENTITIES
  0
SPLINE
  5
41
330
1F
100
AcDbEntity
  8
layer 1
 62
   250
370
     9
100
AcDbSpline
210
0.0
220
0.0
230
1.0
 70
    11
 71
     3
 72
    24
 73
    20
 74
     0
 42
0.0000000001
 43
0.0000000001
 12
1.0
 22
0.0
 32
0.0
 13
1.0
 23
0.0
 33
0.0
 40
0.0
 40
0.0
 40
0.0
 40
0.0
 40
0.1666666666666667
 40
0.1666666666666667
 40
0.1666666666666667
 40
0.1666666666666667
 40
0.3333333333333333
 40
0.3333333333333333
 40
0.3333333333333333
 40
0.3333333333333333
 40
0.5
 40
0.5
 40
0.5
 40
0.5
 40
0.6666666666666666
 40
0.6666666666666666
 40
0.6666666666666666
 40
0.6666666666666666
 40
1.0
 40
1.0
 40
1.0
 40
1.0
 10
68.4775
 20
13.9502
 30
0.0
 10
68.4775
 20
13.9502
 30
0.0
 10
68.4775
 20
102.908
 30
0.0
 10
68.4775
 20
102.908
 30
0.0
 10
68.4775
 20
102.908
 30
0.0
 10
68.4775
 20
102.908
 30
0.0
 10
196.0147
 20
102.908
 30
0.0
 10
196.0147
 20
102.908
 30
0.0
 10
196.0147
 20
102.908
 30
0.0
 10
196.0147
 20
102.908
 30
0.0
 10
196.0147
 20
-75.0079
 30
0.0
 10
196.0147
 20
-75.0079
 30
0.0
 10
196.0147
 20
-75.0079
 30
0.0
 10
196.0147
 20
-75.0079
 30
0.0
 10
68.4775
 20
-75.0079
 30
0.0
 10
68.4775
 20
-75.0079
 30
0.0
 10
68.4775
 20
-75.0079
 30
0.0
 10
68.4775
 20
-75.0079
 30
0.0
 10
68.4775
 20
13.9502
 30
0.0
 10
68.4775
 20
13.9502
 30
0.0
  0
SPLINE
  5
42
330
1F
100
AcDbEntity
  8
layer 1
 62
     7
370
     9
100
AcDbSpline
210
0.0
220
0.0
230
1.0
 70
    11
 71
     3
 72
    24
 73
    20
 74
     0
 42
0.0000000001
 43
0.0000000001
 12
1.0
 22
0.0
 32
0.0
 13
1.0
 23
0.0
 33
0.0
 40
0.0
 40
0.0
 40
0.0
 40
0.0
 40
0.1666666666666667
 40
0.1666666666666667
 40
0.1666666666666667
 40
0.1666666666666667
 40
0.3333333333333333
 40
0.3333333333333333
 40
0.3333333333333333
 40
0.3333333333333333
 40
0.5
 40
0.5
 40
0.5
 40
0.5
 40
0.6666666666666666
 40
0.6666666666666666
 40
0.6666666666666666
 40
0.6666666666666666
 40
1.0
 40
1.0
 40
1.0
 40
1.0
 10
75.9984
 20
-66.0087
 30
0.0
 10
75.9984
 20
-66.0087
 30
0.0
 10
75.9984
 20
-17.5658
 30
0.0
 10
75.9984
 20
-17.5658
 30
0.0
 10
75.9984
 20
-17.5658
 30
0.0
 10
75.9984
 20
-17.5658
 30
0.0
 10
78.9147
 20
-14.7579
 30
0.0
 10
78.9147
 20
-14.7579
 30
0.0
 10
78.9147
 20
-14.7579
 30
0.0
 10
78.9147
 20
-14.7579
 30
0.0
 10
78.9147
 20
-63.5532
 30
0.0
 10
78.9147
 20
-63.5532
 30
0.0
 10
78.9147
 20
-63.5532
 30
0.0
 10
78.9147
 20
-63.5532
 30
0.0
 10
75.9984
 20
-66.5253
 30
0.0
 10
75.9984
 20
-66.5253
 30
0.0
 10
75.9984
 20
-66.5253
 30
0.0
 10
75.9984
 20
-66.5253
 30
0.0
 10
75.9984
 20
-66.0087
 30
0.0
 10
75.9984
 20
-66.0087
 30
0.0
  0
SPLINE
  5
43
330
1F
100
AcDbEntity
  8
layer 1
 62
     7
370
     9
100
AcDbSpline
210
0.0
220
0.0
230
1.0
 70
    11
 71
     3
 72
    20
 73
    16
 74
     0
 42
0.0000000001
 43
0.0000000001
 12
1.0
 22
0.0
 32
0.0
 13
1.0
 23
0.0
 33
0.0
 40
0.0
 40
0.0
 40
0.0
 40
0.0
 40
0.2
 40
0.2
 40
0.2
 40
0.2
 40
0.4
 40
0.4
 40
0.4
 40
0.4
 40
0.6
 40
0.6
 40
0.6
 40
0.6
 40
1.0
 40
1.0
 40
1.0
 40
1.0
 10
79.9276
 20
-70.1527
 30
0.0
 10
79.9276
 20
-70.1527
 30
0.0
 10
111.1539
 20
-70.1527
 30
0.0
 10
111.1539
 20
-70.1527
 30
0.0
 10
111.1539
 20
-70.1527
 30
0.0
 10
111.1539
 20
-70.1527
 30
0.0
 10
109.4778
 20
-67.3518
 30
0.0
 10
109.4778
 20
-67.3518
 30
0.0
 10
109.4778
 20
-67.3518
 30
0.0
 10
109.4778
 20
-67.3518
 30
0.0
 10
82.5207
 20
-67.3518
 30
0.0
 10
82.5207
 20
-67.3518
 30
0.0
 10
82.5207
 20
-67.3518
 30
0.0
 10
82.5207
 20
-67.3518
 30
0.0
 10
79.9276
 20
-70.1527
 30
0.0
 10
79.9276
 20
-70.1527
 30
0.0
  0
SPLINE
  5
44
330
1F
100
AcDbEntity
  8
layer 1
 62
     7
370
     9
100
AcDbSpline
210
0.0
220
0.0
230
1.0
 70
    11
 71
     3
 72
    20
 73
    16
 74
     0
 42
0.0000000001
 43
0.0000000001
 12
1.0
 22
0.0
 32
0.0
 13
1.0
 23
0.0
 33
0.0
 40
0.0
 40
0.0
 40
0.0
 40
0.0
 40
0.2
 40
0.2
 40
0.2
 40
0.2
 40
0.4
 40
0.4
 40
0.4
 40
0.4
 40
0.6
 40
0.6
 40
0.6
 40
0.6
 40
1.0
 40
1.0
 40
1.0
 40
1.0
 10
115.7365
 20
-67.3518
 30
0.0
 10
115.7365
 20
-67.3518
 30
0.0
 10
148.7563
 20
-67.3518
 30
0.0
 10
148.7563
 20
-67.3518
 30
0.0
 10
148.7563
 20
-67.3518
 30
0.0
 10
148.7563
 20
-67.3518
 30
0.0
 10
146.9607
 20
-70.1527
 30
0.0
 10
146.9607
 20
-70.1527
 30
0.0
 10
146.9607
 20
-70.1527
 30
0.0
 10
146.9607
 20
-70.1527
 30
0.0
 10
117.5315
 20
-70.1527
 30
0.0
 10
117.5315
 20
-70.1527
 30
0.0
 10
117.5315
 20
-70.1527
 30
0.0
 10
117.5315
 20
-70.1527
 30
0.0
 10
115.7365
 20
-67.3518
 30
0.0
 10
115.7365
 20
-67.3518
 30
0.0
  0
SPLINE
  5
45
330
1F
100
AcDbEntity
  8
layer 1
 62
     7
370
     9
100
AcDbSpline
210
0.0
220
0.0
230
1.0
 70
    11
 71
     3
 72
    20
 73
    16
 74
     0
 42
0.0000000001
 43
0.0000000001
 12
1.0
 22
0.0
 32
0.0
 13
1.0
 23
0.0
 33
0.0
 40
0.0
 40
0.0
 40
0.0
 40
0.0
 40
0.2
 40
0.2
 40
0.2
 40
0.2
 40
0.4
 40
0.4
 40
0.4
 40
0.4
 40
0.6
 40
0.6
 40
0.6
 40
0.6
 40
1.0
 40
1.0
 40
1.0
 40
1.0
 10
75.9984
 20
-9.5812
 30
0.0
 10
75.9984
 20
-9.5812
 30
0.0
 10
75.9984
 20
37.4817
 30
0.0
 10
75.9984
 20
37.4817
 30
0.0
 10
75.9984
 20
37.4817
 30
0.0
 10
75.9984
 20
37.4817
 30
0.0
 10
78.9147
 20
34.9906
 30
0.0
 10
78.9147
 20
34.9906
 30
0.0
 10
78.9147
 20
34.9906
 30
0.0
 10
78.9147
 20
34.9906
 30
0.0
 10
78.9147
 20
-7.09
 30
0.0
 10
78.9147
 20
-7.09
 30
0.0
 10
78.9147
 20
-7.09
 30
0.0
 10
78.9147
 20
-7.09
 30
0.0
 10
75.9984
 20
-9.5812
 30
0.0
 10
75.9984
 20
-9.5812
 30
0.0
  0
SPLINE
  5
46
330
1F
100
AcDbEntity
  8
layer 1
 62
     7
370
     9
100
AcDbSpline
210
0.0
220
0.0
230
1.0
 70
    11
 71
     3
 72
    24
 73
    20
 74
     0
 42
0.0000000001
 43
0.0000000001
 12
1.0
 22
0.0
 32
0.0
 13
1.0
 23
0.0
 33
0.0
 40
0.0
 40
0.0
 40
0.0
 40
0.0
 40
0.1666666666666667
 40
0.1666666666666667
 40
0.1666666666666667
 40
0.1666666666666667
 40
0.3333333333333333
 40
0.3333333333333333
 40
0.3333333333333333
 40
0.3333333333333333
 40
0.5
 40
0.5
 40
0.5
 40
0.5
 40
0.6666666666666666
 40
0.6666666666666666
 40
0.6666666666666666
 40
0.6666666666666666
 40
1.0
 40
1.0
 40
1.0
 40
1.0
 10
101.7049
 20
-25.7991
 30
0.0
 10
96.5135
 20
-26.7911
 30
0.0
 10
91.1439
 20
-25.5668
 30
0.0
 10
86.8955
 20
-22.423
 30
0.0
 10
86.8955
 20
-22.423
 30
0.0
 10
83.2849
 20
-18.672
 30
0.0
 10
81.4189
 20
-13.5753
 30
0.0
 10
81.7535
 20
-8.3803
 30
0.0
 10
81.7535
 20
-8.3803
 30
0.0
 10
82.0399
 20
-0.7837
 30
0.0
 10
85.3232
 20
6.3902
 30
0.0
 10
90.8852
 20
11.5711
 30
0.0
 10
90.8852
 20
11.5711
 30
0.0
 10
86.3379
 20
5.1595
 30
0.0
 10
84.3913
 20
-2.7378
 30
0.0
 10
85.437
 20
-10.5285
 30
0.0
 10
85.437
 20
-10.5285
 30
0.0
 10
86.8206
 20
-18.6918
 30
0.0
 10
93.4711
 20
-24.9345
 30
0.0
 10
101.7049
 20
-25.7991
 30
0.0
  0
SPLINE
  5
47
330
1F
100
AcDbEntity
  8
layer 1
 62
     7
370
     9
100
AcDbSpline
210
0.0
220
0.0
230
1.0
 70
    11
 71
     3
 72
    24
 73
    20
 74
     0
 42
0.0000000001
 43
0.0000000001
 12
1.0
 22
0.0
 32
0.0
 13
1.0
 23
0.0
 33
0.0
 40
0.0
 40
0.0
 40
0.0
 40
0.0
 40
0.1666666666666667
 40
0.1666666666666667
 40
0.1666666666666667
 40
0.1666666666666667
 40
0.3333333333333333
 40
0.3333333333333333
 40
0.3333333333333333
 40
0.3333333333333333
 40
0.5
 40
0.5
 40
0.5
 40
0.5
 40
0.6666666666666666
 40
0.6666666666666666
 40
0.6666666666666666
 40
0.6666666666666666
 40
1.0
 40
1.0
 40
1.0
 40
1.0
 10
90.7317
 20
-18.4326
 30
0.0
 10
91.5696
 20
-9.0608
 30
0.0
 10
93.5805
 20
0.1686
 30
0.0
 10
96.717
 20
9.0391
 30
0.0
 10
96.717
 20
9.0391
 30
0.0
 10
105.3035
 20
-5.4615
 30
0.0
 10
108.4835
 20
-22.5313
 30
0.0
 10
105.6952
 20
-39.1513
 30
0.0
 10
105.6952
 20
-39.1513
 30
0.0
 10
105.8802
 20
-27.717
 30
0.0
 10
103.576
 20
-16.3796
 30
0.0
 10
98.9428
 20
-5.9244
 30
0.0
 10
98.9428
 20
-5.9244
 30
0.0
 10
97.2195
 20
-11.1615
 30
0.0
 10
96.0364
 20
-16.5615
 30
0.0
 10
95.4127
 20
-22.0387
 30
0.0
 10
95.4127
 20
-22.0387
 30
0.0
 10
93.5521
 20
-21.2875
 30
0.0
 10
91.9328
 20
-20.0401
 30
0.0
 10
90.7317
 20
-18.4326
 30
0.0
  0
SPLINE
  5
48
330
1F
100
AcDbEntity
  8
layer 1
 62
     7
370
     9
100
AcDbSpline
210
0.0
220
0.0
230
1.0
 70
    11
 71
     3
 72
    28
 73
    24
 74
     0
 42
0.0000000001
 43
0.0000000001
 12
1.0
 22
0.0
 32
0.0
 13
1.0
 23
0.0
 33
0.0
 40
0.0
 40
0.0
 40
0.0
 40
0.0
 40
0.1428571428571428
 40
0.1428571428571428
 40
0.1428571428571428
 40
0.1428571428571428
 40
0.2857142857142857
 40
0.2857142857142857
 40
0.2857142857142857
 40
0.2857142857142857
 40
0.4285714285714285
 40
0.4285714285714285
 40
0.4285714285714285
 40
0.4285714285714285
 40
0.5714285714285714
 40
0.5714285714285714
 40
0.5714285714285714
 40
0.5714285714285714
 40
0.7142857142857143
 40
0.7142857142857143
 40
0.7142857142857143
 40
0.7142857142857143
 40
1.0
 40
1.0
 40
1.0
 40
1.0
 10
90.3481
 20
-26.2595
 30
0.0
 10
90.3839
 20
-39.1687
 30
0.0
 10
93.9389
 20
-51.8235
 30
0.0
 10
100.6306
 20
-62.8627
 30
0.0
 10
100.6306
 20
-62.8627
 30
0.0
 10
103.7479
 20
-57.5397
 30
0.0
 10
107.0757
 20
-52.3432
 30
0.0
 10
110.6063
 20
-47.2853
 30
0.0
 10
110.6063
 20
-47.2853
 30
0.0
 10
109.9975
 20
-45.765
 30
0.0
 10
109.3062
 20
-44.279
 30
0.0
 10
108.5347
 20
-42.8346
 30
0.0
 10
108.5347
 20
-42.8346
 30
0.0
 10
105.7762
 20
-46.1389
 30
0.0
 10
103.1403
 20
-49.543
 30
0.0
 10
100.6306
 20
-53.0404
 30
0.0
 10
100.6306
 20
-53.0404
 30
0.0
 10
97.267
 20
-44.9712
 30
0.0
 10
95.3452
 20
-36.3744
 30
0.0
 10
94.9523
 20
-27.6409
 30
0.0
 10
94.9523
 20
-27.6409
 30
0.0
 10
93.3597
 20
-27.4027
 30
0.0
 10
91.809
 20
-26.9377
 30
0.0
 10
90.3481
 20
-26.2595
 30
0.0
  0
SPLINE
  5
49
330
1F
100
AcDbEntity
  8
layer 1
 62
     7
370
     9
100
AcDbSpline
210
0.0
220
0.0
230
1.0
 70
    11
 71
     3
 72
    60
 73
    56
 74
     0
 42
0.0000000001
 43
0.0000000001
 12
1.0
 22
0.0
 32
0.0
 13
1.0
 23
0.0
 33
0.0
 40
0.0
 40
0.0
 40
0.0
 40
0.0
 40
0.0666666666666667
 40
0.0666666666666667
 40
0.0666666666666667
 40
0.0666666666666667
 40
0.1333333333333333
 40
0.1333333333333333
 40
0.1333333333333333
 40
0.1333333333333333
 40
0.2
 40
0.2
 40
0.2
 40
0.2
 40
0.2666666666666667
 40
0.2666666666666667
 40
0.2666666666666667
 40
0.2666666666666667
 40
0.3333333333333333
 40
0.3333333333333333
 40
0.3333333333333333
 40
0.3333333333333333
 40
0.4
 40
0.4
 40
0.4
 40
0.4
 40
0.4666666666666667
 40
0.4666666666666667
 40
0.4666666666666667
 40
0.4666666666666667
 40
0.5333333333333333
 40
0.5333333333333333
 40
0.5333333333333333
 40
0.5333333333333333
 40
0.6
 40
0.6
 40
0.6
 40
0.6
 40
0.6666666666666666
 40
0.6666666666666666
 40
0.6666666666666666
 40
0.6666666666666666
 40
0.7333333333333333
 40
0.7333333333333333
 40
0.7333333333333333
 40
0.7333333333333333
 40
0.8
 40
0.8
 40
0.8
 40
0.8
 40
0.8666666666666667
 40
0.8666666666666667
 40
0.8666666666666667
 40
0.8666666666666667
 40
1.0
 40
1.0
 40
1.0
 40
1.0
 10
109.4937
 20
-41.6067
 30
0.0
 10
113.5777
 20
-37.2191
 30
0.0
 10
117.0142
 20
-32.2707
 30
0.0
 10
119.6997
 20
-26.912
 30
0.0
 10
119.6997
 20
-26.912
 30
0.0
 10
121.4717
 20
-23.8536
 30
0.0
 10
121.8759
 20
-20.1918
 30
0.0
 10
120.8121
 20
-16.8207
 30
0.0
 10
120.8121
 20
-16.8207
 30
0.0
 10
122.3603
 20
-14.3116
 30
0.0
 10
123.9722
 20
-11.8422
 30
0.0
 10
125.6465
 20
-9.416
 30
0.0
 10
125.6465
 20
-9.416
 30
0.0
 10
127.0139
 20
-9.8987
 30
0.0
 10
128.5374
 20
-9.5212
 30
0.0
 10
129.5218
 20
-8.4569
 30
0.0
 10
129.5218
 20
-8.4569
 30
0.0
 10
130.6066
 20
-7.3654
 30
0.0
 10
131.5248
 20
-6.1205
 30
0.0
 10
132.2462
 20
-4.7617
 30
0.0
 10
132.2462
 20
-4.7617
 30
0.0
 10
132.9678
 20
-6.1205
 30
0.0
 10
133.886
 20
-7.3654
 30
0.0
 10
134.9701
 20
-8.4569
 30
0.0
 10
134.9701
 20
-8.4569
 30
0.0
 10
135.9544
 20
-9.5212
 30
0.0
 10
137.4779
 20
-9.8987
 30
0.0
 10
138.8453
 20
-9.416
 30
0.0
 10
138.8453
 20
-9.416
 30
0.0
 10
140.5204
 20
-11.8422
 30
0.0
 10
142.1322
 20
-14.3116
 30
0.0
 10
143.6798
 20
-16.8207
 30
0.0
 10
143.6798
 20
-16.8207
 30
0.0
 10
142.616
 20
-20.1918
 30
0.0
 10
143.0201
 20
-23.8536
 30
0.0
 10
144.7925
 20
-26.912
 30
0.0
 10
144.7925
 20
-26.912
 30
0.0
 10
147.4778
 20
-32.2707
 30
0.0
 10
150.9144
 20
-37.2191
 30
0.0
 10
154.9985
 20
-41.6067
 30
0.0
 10
154.9985
 20
-41.6067
 30
0.0
 10
154.0583
 20
-42.9462
 30
0.0
 10
153.2243
 20
-44.3576
 30
0.0
 10
152.5043
 20
-45.8271
 30
0.0
 10
152.5043
 20
-45.8271
 30
0.0
 10
144.1788
 20
-38.8651
 30
0.0
 10
137.2966
 20
-30.3406
 30
0.0
 10
132.2462
 20
-20.7343
 30
0.0
 10
132.2462
 20
-20.7343
 30
0.0
 10
127.1953
 20
-30.3406
 30
0.0
 10
120.3134
 20
-38.8651
 30
0.0
 10
111.9881
 20
-45.8271
 30
0.0
 10
111.9881
 20
-45.8271
 30
0.0
 10
111.2679
 20
-44.3576
 30
0.0
 10
110.4344
 20
-42.9462
 30
0.0
 10
109.4937
 20
-41.6067
 30
0.0
  0
SPLINE
  5
4A
330
1F
100
AcDbEntity
  8
layer 1
 62
     7
370
     9
100
AcDbSpline
210
0.0
220
0.0
230
1.0
 70
    11
 71
     3
 72
    84
 73
    80
 74
     0
 42
0.0000000001
 43
0.0000000001
 12
1.0
 22
0.0
 32
0.0
 13
1.0
 23
0.0
 33
0.0
 40
0.0
 40
0.0
 40
0.0
 40
0.0
 40
0.0476190476190476
 40
0.0476190476190476
 40
0.0476190476190476
 40
0.0476190476190476
 40
0.0952380952380952
 40
0.0952380952380952
 40
0.0952380952380952
 40
0.0952380952380952
 40
0.1428571428571428
 40
0.1428571428571428
 40
0.1428571428571428
 40
0.1428571428571428
 40
0.1904761904761905
 40
0.1904761904761905
 40
0.1904761904761905
 40
0.1904761904761905
 40
0.2380952380952381
 40
0.2380952380952381
 40
0.2380952380952381
 40
0.2380952380952381
 40
0.2857142857142857
 40
0.2857142857142857
 40
0.2857142857142857
 40
0.2857142857142857
 40
0.3333333333333333
 40
0.3333333333333333
 40
0.3333333333333333
 40
0.3333333333333333
 40
0.3809523809523809
 40
0.3809523809523809
 40
0.3809523809523809
 40
0.3809523809523809
 40
0.4285714285714285
 40
0.4285714285714285
 40
0.4285714285714285
 40
0.4285714285714285
 40
0.4761904761904762
 40
0.4761904761904762
 40
0.4761904761904762
 40
0.4761904761904762
 40
0.5238095238095238
 40
0.5238095238095238
 40
0.5238095238095238
 40
0.5238095238095238
 40
0.5714285714285714
 40
0.5714285714285714
 40
0.5714285714285714
 40
0.5714285714285714
 40
0.6190476190476191
 40
0.6190476190476191
 40
0.6190476190476191
 40
0.6190476190476191
 40
0.6666666666666666
 40
0.6666666666666666
 40
0.6666666666666666
 40
0.6666666666666666
 40
0.7142857142857143
 40
0.7142857142857143
 40
0.7142857142857143
 40
0.7142857142857143
 40
0.7619047619047619
 40
0.7619047619047619
 40
0.7619047619047619
 40
0.7619047619047619
 40
0.8095238095238095
 40
0.8095238095238095
 40
0.8095238095238095
 40
0.8095238095238095
 40
0.8571428571428571
 40
0.8571428571428571
 40
0.8571428571428571
 40
0.8571428571428571
 40
0.9047619047619048
 40
0.9047619047619048
 40
0.9047619047619048
 40
0.9047619047619048
 40
1.0
 40
1.0
 40
1.0
 40
1.0
 10
119.431
 20
-15.2479
 30
0.0
 10
120.9724
 20
-12.7499
 30
0.0
 10
122.6374
 20
-10.3293
 30
0.0
 10
124.4189
 20
-7.9967
 30
0.0
 10
124.4189
 20
-7.9967
 30
0.0
 10
122.562
 20
-4.1416
 30
0.0
 10
122.6765
 20
0.3722
 30
0.0
 10
124.7259
 20
4.128
 30
0.0
 10
124.7259
 20
4.128
 30
0.0
 10
125.7349
 20
6.5604
 30
0.0
 10
127.1495
 20
8.8053
 30
0.0
 10
128.908
 20
10.7655
 30
0.0
 10
128.908
 20
10.7655
 30
0.0
 10
125.3229
 20
9.8466
 30
0.0
 10
121.9136
 20
8.3424
 30
0.0
 10
118.8173
 20
6.3146
 30
0.0
 10
118.8173
 20
6.3146
 30
0.0
 10
117.7432
 20
8.8498
 30
0.0
 10
116.6943
 20
11.3947
 30
0.0
 10
115.6709
 20
13.9502
 30
0.0
 10
115.6709
 20
13.9502
 30
0.0
 10
116.6943
 20
16.5057
 30
0.0
 10
117.7432
 20
19.0507
 30
0.0
 10
118.8173
 20
21.585
 30
0.0
 10
118.8173
 20
21.585
 30
0.0
 10
121.9136
 20
19.5574
 30
0.0
 10
125.3229
 20
18.0538
 30
0.0
 10
128.908
 20
17.1343
 30
0.0
 10
128.908
 20
17.1343
 30
0.0
 10
127.1495
 20
19.0953
 30
0.0
 10
125.7349
 20
21.3395
 30
0.0
 10
124.7259
 20
23.7724
 30
0.0
 10
124.7259
 20
23.7724
 30
0.0
 10
122.6765
 20
27.5283
 30
0.0
 10
122.562
 20
32.0422
 30
0.0
 10
124.4189
 20
35.8963
 30
0.0
 10
124.4189
 20
35.8963
 30
0.0
 10
122.6374
 20
38.2298
 30
0.0
 10
120.9724
 20
40.6498
 30
0.0
 10
119.431
 20
43.1483
 30
0.0
 10
119.431
 20
43.1483
 30
0.0
 10
118.2969
 20
42.6644
 30
0.0
 10
117.0005
 20
42.7498
 30
0.0
 10
115.9394
 20
43.3784
 30
0.0
 10
115.9394
 20
43.3784
 30
0.0
 10
112.298
 20
47.7852
 30
0.0
 10
110.6942
 20
53.5298
 30
0.0
 10
111.5276
 20
59.1858
 30
0.0
 10
111.5276
 20
59.1858
 30
0.0
 10
109.9684
 20
53.6901
 30
0.0
 10
109.4097
 20
47.9591
 30
0.0
 10
109.8775
 20
42.2659
 30
0.0
 10
109.8775
 20
42.2659
 30
0.0
 10
110.347
 20
36.8277
 30
0.0
 10
111.7357
 20
31.5088
 30
0.0
 10
113.9828
 20
26.5345
 30
0.0
 10
113.9828
 20
26.5345
 30
0.0
 10
113.1415
 20
22.0281
 30
0.0
 10
111.3785
 20
17.7438
 30
0.0
 10
108.8051
 20
13.9502
 30
0.0
 10
108.8051
 20
13.9502
 30
0.0
 10
111.3785
 20
10.156
 30
0.0
 10
113.1415
 20
5.8723
 30
0.0
 10
113.9828
 20
1.3653
 30
0.0
 10
113.9828
 20
1.3653
 30
0.0
 10
111.7357
 20
-3.6084
 30
0.0
 10
110.347
 20
-8.9271
 30
0.0
 10
109.8775
 20
-14.3655
 30
0.0
 10
109.8775
 20
-14.3655
 30
0.0
 10
109.4097
 20
-20.0587
 30
0.0
 10
109.9684
 20
-25.79
 30
0.0
 10
111.5276
 20
-31.2857
 30
0.0
 10
111.5276
 20
-31.2857
 30
0.0
 10
110.6942
 20
-25.6295
 30
0.0
 10
112.298
 20
-19.8854
 30
0.0
 10
115.9394
 20
-15.478
 30
0.0
 10
115.9394
 20
-15.478
 30
0.0
 10
117.0005
 20
-14.8499
 30
0.0
 10
118.2969
 20
-14.764
 30
0.0
 10
119.431
 20
-15.2479
 30
0.0
  0
SPLINE
  5
4B
330
1F
100
AcDbEntity
  8
layer 1
 62
     7
370
     9
100
AcDbSpline
210
0.0
220
0.0
230
1.0
 70
    11
 71
     3
 72
    76
 73
    72
 74
     0
 42
0.0000000001
 43
0.0000000001
 12
1.0
 22
0.0
 32
0.0
 13
1.0
 23
0.0
 33
0.0
 40
0.0
 40
0.0
 40
0.0
 40
0.0
 40
0.0526315789473684
 40
0.0526315789473684
 40
0.0526315789473684
 40
0.0526315789473684
 40
0.1052631578947368
 40
0.1052631578947368
 40
0.1052631578947368
 40
0.1052631578947368
 40
0.1578947368421053
 40
0.1578947368421053
 40
0.1578947368421053
 40
0.1578947368421053
 40
0.2105263157894737
 40
0.2105263157894737
 40
0.2105263157894737
 40
0.2105263157894737
 40
0.2631578947368421
 40
0.2631578947368421
 40
0.2631578947368421
 40
0.2631578947368421
 40
0.3157894736842105
 40
0.3157894736842105
 40
0.3157894736842105
 40
0.3157894736842105
 40
0.3684210526315789
 40
0.3684210526315789
 40
0.3684210526315789
 40
0.3684210526315789
 40
0.4210526315789473
 40
0.4210526315789473
 40
0.4210526315789473
 40
0.4210526315789473
 40
0.4736842105263158
 40
0.4736842105263158
 40
0.4736842105263158
 40
0.4736842105263158
 40
0.5263157894736842
 40
0.5263157894736842
 40
0.5263157894736842
 40
0.5263157894736842
 40
0.5789473684210527
 40
0.5789473684210527
 40
0.5789473684210527
 40
0.5789473684210527
 40
0.631578947368421
 40
0.631578947368421
 40
0.631578947368421
 40
0.631578947368421
 40
0.6842105263157895
 40
0.6842105263157895
 40
0.6842105263157895
 40
0.6842105263157895
 40
0.7368421052631579
 40
0.7368421052631579
 40
0.7368421052631579
 40
0.7368421052631579
 40
0.7894736842105263
 40
0.7894736842105263
 40
0.7894736842105263
 40
0.7894736842105263
 40
0.8421052631578947
 40
0.8421052631578947
 40
0.8421052631578947
 40
0.8421052631578947
 40
0.8947368421052632
 40
0.8947368421052632
 40
0.8947368421052632
 40
0.8947368421052632
 40
1.0
 40
1.0
 40
1.0
 40
1.0
 10
107.3839
 20
-57.7979
 30
0.0
 10
111.5487
 20
-52.4708
 30
0.0
 10
117.2363
 20
-48.5366
 30
0.0
 10
123.69
 20
-46.5178
 30
0.0
 10
123.69
 20
-46.5178
 30
0.0
 10
125.0377
 20
-46.2265
 30
0.0
 10
126.2517
 20
-45.4979
 30
0.0
 10
127.1434
 20
-44.446
 30
0.0
 10
127.1434
 20
-44.446
 30
0.0
 10
125.5469
 20
-51.6522
 30
0.0
 10
122.0342
 20
-58.2938
 30
0.0
 10
116.9758
 20
-63.6684
 30
0.0
 10
116.9758
 20
-63.6684
 30
0.0
 10
122.3138
 20
-59.7078
 30
0.0
 10
126.9113
 20
-54.8374
 30
0.0
 10
130.5576
 20
-49.2803
 30
0.0
 10
130.5576
 20
-49.2803
 30
0.0
 10
130.916
 20
-50.2499
 30
0.0
 10
131.4939
 20
-51.123
 30
0.0
 10
132.2462
 20
-51.8313
 30
0.0
 10
132.2462
 20
-51.8313
 30
0.0
 10
132.9986
 20
-51.123
 30
0.0
 10
133.5766
 20
-50.2499
 30
0.0
 10
133.9342
 20
-49.2803
 30
0.0
 10
133.9342
 20
-49.2803
 30
0.0
 10
137.5805
 20
-54.8374
 30
0.0
 10
142.1786
 20
-59.7078
 30
0.0
 10
147.5166
 20
-63.6684
 30
0.0
 10
147.5166
 20
-63.6684
 30
0.0
 10
142.4576
 20
-58.2938
 30
0.0
 10
138.9456
 20
-51.6522
 30
0.0
 10
137.3492
 20
-44.446
 30
0.0
 10
137.3492
 20
-44.446
 30
0.0
 10
138.2402
 20
-45.4979
 30
0.0
 10
139.4541
 20
-46.2265
 30
0.0
 10
140.8024
 20
-46.5178
 30
0.0
 10
140.8024
 20
-46.5178
 30
0.0
 10
147.2559
 20
-48.5366
 30
0.0
 10
152.9433
 20
-52.4708
 30
0.0
 10
157.1085
 20
-57.7979
 30
0.0
 10
157.1085
 20
-57.7979
 30
0.0
 10
155.5176
 20
-53.0938
 30
0.0
 10
152.4493
 20
-49.0295
 30
0.0
 10
148.3606
 20
-46.2109
 30
0.0
 10
148.3606
 20
-46.2109
 30
0.0
 10
143.8543
 20
-43.6662
 30
0.0
 10
139.3268
 20
-41.1594
 30
0.0
 10
134.7782
 20
-38.6907
 30
0.0
 10
134.7782
 20
-38.6907
 30
0.0
 10
134.8803
 20
-40.0381
 30
0.0
 10
134.4843
 20
-41.3759
 30
0.0
 10
133.6657
 20
-42.4507
 30
0.0
 10
133.6657
 20
-42.4507
 30
0.0
 10
133.2716
 20
-42.7834
 30
0.0
 10
132.7585
 20
-42.9387
 30
0.0
 10
132.2462
 20
-42.881
 30
0.0
 10
132.2462
 20
-42.881
 30
0.0
 10
131.7339
 20
-42.9387
 30
0.0
 10
131.2203
 20
-42.7834
 30
0.0
 10
130.8262
 20
-42.4507
 30
0.0
 10
130.8262
 20
-42.4507
 30
0.0
 10
130.0081
 20
-41.3759
 30
0.0
 10
129.6123
 20
-40.0381
 30
0.0
 10
129.7136
 20
-38.6907
 30
0.0
 10
129.7136
 20
-38.6907
 30
0.0
 10
125.1658
 20
-41.1594
 30
0.0
 10
120.6377
 20
-43.6662
 30
0.0
 10
116.1318
 20
-46.2109
 30
0.0
 10
116.1318
 20
-46.2109
 30
0.0
 10
112.0431
 20
-49.0295
 30
0.0
 10
108.9747
 20
-53.0938
 30
0.0
 10
107.3839
 20
-57.7979
 30
0.0
  0
SPLINE
  5
4C
330
1F
100
AcDbEntity
  8
layer 1
 62
     7
370
     9
100
AcDbSpline
210
0.0
220
0.0
230
1.0
 70
    11
 71
     3
 72
    24
 73
    20
 74
     0
 42
0.0000000001
 43
0.0000000001
 12
1.0
 22
0.0
 32
0.0
 13
1.0
 23
0.0
 33
0.0
 40
0.0
 40
0.0
 40
0.0
 40
0.0
 40
0.1666666666666667
 40
0.1666666666666667
 40
0.1666666666666667
 40
0.1666666666666667
 40
0.3333333333333333
 40
0.3333333333333333
 40
0.3333333333333333
 40
0.3333333333333333
 40
0.5
 40
0.5
 40
0.5
 40
0.5
 40
0.6666666666666666
 40
0.6666666666666666
 40
0.6666666666666666
 40
0.6666666666666666
 40
1.0
 40
1.0
 40
1.0
 40
1.0
 10
188.4938
 20
-66.0087
 30
0.0
 10
188.4938
 20
-66.0087
 30
0.0
 10
188.4938
 20
-17.5658
 30
0.0
 10
188.4938
 20
-17.5658
 30
0.0
 10
188.4938
 20
-17.5658
 30
0.0
 10
188.4938
 20
-17.5658
 30
0.0
 10
185.5777
 20
-14.7579
 30
0.0
 10
185.5777
 20
-14.7579
 30
0.0
 10
185.5777
 20
-14.7579
 30
0.0
 10
185.5777
 20
-14.7579
 30
0.0
 10
185.5777
 20
-63.5532
 30
0.0
 10
185.5777
 20
-63.5532
 30
0.0
 10
185.5777
 20
-63.5532
 30
0.0
 10
185.5777
 20
-63.5532
 30
0.0
 10
188.4938
 20
-66.5253
 30
0.0
 10
188.4938
 20
-66.5253
 30
0.0
 10
188.4938
 20
-66.5253
 30
0.0
 10
188.4938
 20
-66.5253
 30
0.0
 10
188.4938
 20
-66.0087
 30
0.0
 10
188.4938
 20
-66.0087
 30
0.0
  0
SPLINE
  5
4D
330
1F
100
AcDbEntity
  8
layer 1
 62
     7
370
     9
100
AcDbSpline
210
0.0
220
0.0
230
1.0
 70
    11
 71
     3
 72
    20
 73
    16
 74
     0
 42
0.0000000001
 43
0.0000000001
 12
1.0
 22
0.0
 32
0.0
 13
1.0
 23
0.0
 33
0.0
 40
0.0
 40
0.0
 40
0.0
 40
0.0
 40
0.2
 40
0.2
 40
0.2
 40
0.2
 40
0.4
 40
0.4
 40
0.4
 40
0.4
 40
0.6
 40
0.6
 40
0.6
 40
0.6
 40
1.0
 40
1.0
 40
1.0
 40
1.0
 10
184.5644
 20
-70.1527
 30
0.0
 10
184.5644
 20
-70.1527
 30
0.0
 10
153.3385
 20
-70.1527
 30
0.0
 10
153.3385
 20
-70.1527
 30
0.0
 10
153.3385
 20
-70.1527
 30
0.0
 10
153.3385
 20
-70.1527
 30
0.0
 10
155.0144
 20
-67.3518
 30
0.0
 10
155.0144
 20
-67.3518
 30
0.0
 10
155.0144
 20
-67.3518
 30
0.0
 10
155.0144
 20
-67.3518
 30
0.0
 10
181.9711
 20
-67.3518
 30
0.0
 10
181.9711
 20
-67.3518
 30
0.0
 10
181.9711
 20
-67.3518
 30
0.0
 10
181.9711
 20
-67.3518
 30
0.0
 10
184.5644
 20
-70.1527
 30
0.0
 10
184.5644
 20
-70.1527
 30
0.0
  0
SPLINE
  5
4E
330
1F
100
AcDbEntity
  8
layer 1
 62
     7
370
     9
100
AcDbSpline
210
0.0
220
0.0
230
1.0
 70
    11
 71
     3
 72
    20
 73
    16
 74
     0
 42
0.0000000001
 43
0.0000000001
 12
1.0
 22
0.0
 32
0.0
 13
1.0
 23
0.0
 33
0.0
 40
0.0
 40
0.0
 40
0.0
 40
0.0
 40
0.2
 40
0.2
 40
0.2
 40
0.2
 40
0.4
 40
0.4
 40
0.4
 40
0.4
 40
0.6
 40
0.6
 40
0.6
 40
0.6
 40
1.0
 40
1.0
 40
1.0
 40
1.0
 10
188.4938
 20
-9.5812
 30
0.0
 10
188.4938
 20
-9.5812
 30
0.0
 10
188.4938
 20
37.4817
 30
0.0
 10
188.4938
 20
37.4817
 30
0.0
 10
188.4938
 20
37.4817
 30
0.0
 10
188.4938
 20
37.4817
 30
0.0
 10
185.5777
 20
34.9906
 30
0.0
 10
185.5777
 20
34.9906
 30
0.0
 10
185.5777
 20
34.9906
 30
0.0
 10
185.5777
 20
34.9906
 30
0.0
 10
185.5777
 20
-7.09
 30
0.0
 10
185.5777
 20
-7.09
 30
0.0
 10
185.5777
 20
-7.09
 30
0.0
 10
185.5777
 20
-7.09
 30
0.0
 10
188.4938
 20
-9.5812
 30
0.0
 10
188.4938
 20
-9.5812
 30
0.0
  0
SPLINE
  5
4F
330
1F
100
AcDbEntity
  8
layer 1
 62
     7
370
     9
100
AcDbSpline
210
0.0
220
0.0
230
1.0
 70
    11
 71
     3
 72
    24
 73
    20
 74
     0
 42
0.0000000001
 43
0.0000000001
 12
1.0
 22
0.0
 32
0.0
 13
1.0
 23
0.0
 33
0.0
 40
0.0
 40
0.0
 40
0.0
 40
0.0
 40
0.1666666666666667
 40
0.1666666666666667
 40
0.1666666666666667
 40
0.1666666666666667
 40
0.3333333333333333
 40
0.3333333333333333
 40
0.3333333333333333
 40
0.3333333333333333
 40
0.5
 40
0.5
 40
0.5
 40
0.5
 40
0.6666666666666666
 40
0.6666666666666666
 40
0.6666666666666666
 40
0.6666666666666666
 40
1.0
 40
1.0
 40
1.0
 40
1.0
 10
162.7871
 20
-25.7991
 30
0.0
 10
167.9787
 20
-26.7911
 30
0.0
 10
173.3483
 20
-25.5668
 30
0.0
 10
177.5973
 20
-22.423
 30
0.0
 10
177.5973
 20
-22.423
 30
0.0
 10
181.2076
 20
-18.672
 30
0.0
 10
183.0735
 20
-13.5753
 30
0.0
 10
182.7385
 20
-8.3803
 30
0.0
 10
182.7385
 20
-8.3803
 30
0.0
 10
182.4523
 20
-0.7837
 30
0.0
 10
179.169
 20
6.3902
 30
0.0
 10
173.607
 20
11.5711
 30
0.0
 10
173.607
 20
11.5711
 30
0.0
 10
178.1542
 20
5.1595
 30
0.0
 10
180.1011
 20
-2.7378
 30
0.0
 10
179.0552
 20
-10.5285
 30
0.0
 10
179.0552
 20
-10.5285
 30
0.0
 10
177.6718
 20
-18.6918
 30
0.0
 10
171.0213
 20
-24.9345
 30
0.0
 10
162.7871
 20
-25.7991
 30
0.0
  0
SPLINE
  5
50
330
1F
100
AcDbEntity
  8
layer 1
 62
     7
370
     9
100
AcDbSpline
210
0.0
220
0.0
230
1.0
 70
    11
 71
     3
 72
    24
 73
    20
 74
     0
 42
0.0000000001
 43
0.0000000001
 12
1.0
 22
0.0
 32
0.0
 13
1.0
 23
0.0
 33
0.0
 40
0.0
 40
0.0
 40
0.0
 40
0.0
 40
0.1666666666666667
 40
0.1666666666666667
 40
0.1666666666666667
 40
0.1666666666666667
 40
0.3333333333333333
 40
0.3333333333333333
 40
0.3333333333333333
 40
0.3333333333333333
 40
0.5
 40
0.5
 40
0.5
 40
0.5
 40
0.6666666666666666
 40
0.6666666666666666
 40
0.6666666666666666
 40
0.6666666666666666
 40
1.0
 40
1.0
 40
1.0
 40
1.0
 10
173.7605
 20
-18.4326
 30
0.0
 10
172.9224
 20
-9.0608
 30
0.0
 10
170.9115
 20
0.1686
 30
0.0
 10
167.7749
 20
9.0391
 30
0.0
 10
167.7749
 20
9.0391
 30
0.0
 10
159.1889
 20
-5.4615
 30
0.0
 10
156.0086
 20
-22.5313
 30
0.0
 10
158.7969
 20
-39.1513
 30
0.0
 10
158.7969
 20
-39.1513
 30
0.0
 10
158.612
 20
-27.717
 30
0.0
 10
160.9162
 20
-16.3796
 30
0.0
 10
165.5495
 20
-5.9244
 30
0.0
 10
165.5495
 20
-5.9244
 30
0.0
 10
167.2727
 20
-11.1615
 30
0.0
 10
168.4556
 20
-16.5615
 30
0.0
 10
169.0793
 20
-22.0387
 30
0.0
 10
169.0793
 20
-22.0387
 30
0.0
 10
170.9403
 20
-21.2875
 30
0.0
 10
172.5592
 20
-20.0401
 30
0.0
 10
173.7605
 20
-18.4326
 30
0.0
  0
SPLINE
  5
51
330
1F
100
AcDbEntity
  8
layer 1
 62
     7
370
     9
100
AcDbSpline
210
0.0
220
0.0
230
1.0
 70
    11
 71
     3
 72
    28
 73
    24
 74
     0
 42
0.0000000001
 43
0.0000000001
 12
1.0
 22
0.0
 32
0.0
 13
1.0
 23
0.0
 33
0.0
 40
0.0
 40
0.0
 40
0.0
 40
0.0
 40
0.1428571428571428
 40
0.1428571428571428
 40
0.1428571428571428
 40
0.1428571428571428
 40
0.2857142857142857
 40
0.2857142857142857
 40
0.2857142857142857
 40
0.2857142857142857
 40
0.4285714285714285
 40
0.4285714285714285
 40
0.4285714285714285
 40
0.4285714285714285
 40
0.5714285714285714
 40
0.5714285714285714
 40
0.5714285714285714
 40
0.5714285714285714
 40
0.7142857142857143
 40
0.7142857142857143
 40
0.7142857142857143
 40
0.7142857142857143
 40
1.0
 40
1.0
 40
1.0
 40
1.0
 10
174.1441
 20
-26.2595
 30
0.0
 10
174.1085
 20
-39.1687
 30
0.0
 10
170.5535
 20
-51.8235
 30
0.0
 10
163.8613
 20
-62.8627
 30
0.0
 10
163.8613
 20
-62.8627
 30
0.0
 10
160.7443
 20
-57.5397
 30
0.0
 10
157.4165
 20
-52.3432
 30
0.0
 10
153.8856
 20
-47.2853
 30
0.0
 10
153.8856
 20
-47.2853
 30
0.0
 10
154.4946
 20
-45.765
 30
0.0
 10
155.186
 20
-44.279
 30
0.0
 10
155.9575
 20
-42.8346
 30
0.0
 10
155.9575
 20
-42.8346
 30
0.0
 10
158.7158
 20
-46.1389
 30
0.0
 10
161.352
 20
-49.543
 30
0.0
 10
163.8613
 20
-53.0404
 30
0.0
 10
163.8613
 20
-53.0404
 30
0.0
 10
167.2252
 20
-44.9712
 30
0.0
 10
169.147
 20
-36.3744
 30
0.0
 10
169.5399
 20
-27.6409
 30
0.0
 10
169.5399
 20
-27.6409
 30
0.0
 10
171.1327
 20
-27.4027
 30
0.0
 10
172.6832
 20
-26.9377
 30
0.0
 10
174.1441
 20
-26.2595
 30
0.0
  0
SPLINE
  5
52
330
1F
100
AcDbEntity
  8
layer 1
 62
     7
370
     9
100
AcDbSpline
210
0.0
220
0.0
230
1.0
 70
    11
 71
     3
 72
    84
 73
    80
 74
     0
 42
0.0000000001
 43
0.0000000001
 12
1.0
 22
0.0
 32
0.0
 13
1.0
 23
0.0
 33
0.0
 40
0.0
 40
0.0
 40
0.0
 40
0.0
 40
0.0476190476190476
 40
0.0476190476190476
 40
0.0476190476190476
 40
0.0476190476190476
 40
0.0952380952380952
 40
0.0952380952380952
 40
0.0952380952380952
 40
0.0952380952380952
 40
0.1428571428571428
 40
0.1428571428571428
 40
0.1428571428571428
 40
0.1428571428571428
 40
0.1904761904761905
 40
0.1904761904761905
 40
0.1904761904761905
 40
0.1904761904761905
 40
0.2380952380952381
 40
0.2380952380952381
 40
0.2380952380952381
 40
0.2380952380952381
 40
0.2857142857142857
 40
0.2857142857142857
 40
0.2857142857142857
 40
0.2857142857142857
 40
0.3333333333333333
 40
0.3333333333333333
 40
0.3333333333333333
 40
0.3333333333333333
 40
0.3809523809523809
 40
0.3809523809523809
 40
0.3809523809523809
 40
0.3809523809523809
 40
0.4285714285714285
 40
0.4285714285714285
 40
0.4285714285714285
 40
0.4285714285714285
 40
0.4761904761904762
 40
0.4761904761904762
 40
0.4761904761904762
 40
0.4761904761904762
 40
0.5238095238095238
 40
0.5238095238095238
 40
0.5238095238095238
 40
0.5238095238095238
 40
0.5714285714285714
 40
0.5714285714285714
 40
0.5714285714285714
 40
0.5714285714285714
 40
0.6190476190476191
 40
0.6190476190476191
 40
0.6190476190476191
 40
0.6190476190476191
 40
0.6666666666666666
 40
0.6666666666666666
 40
0.6666666666666666
 40
0.6666666666666666
 40
0.7142857142857143
 40
0.7142857142857143
 40
0.7142857142857143
 40
0.7142857142857143
 40
0.7619047619047619
 40
0.7619047619047619
 40
0.7619047619047619
 40
0.7619047619047619
 40
0.8095238095238095
 40
0.8095238095238095
 40
0.8095238095238095
 40
0.8095238095238095
 40
0.8571428571428571
 40
0.8571428571428571
 40
0.8571428571428571
 40
0.8571428571428571
 40
0.9047619047619048
 40
0.9047619047619048
 40
0.9047619047619048
 40
0.9047619047619048
 40
1.0
 40
1.0
 40
1.0
 40
1.0
 10
145.061
 20
-15.2479
 30
0.0
 10
143.5195
 20
-12.7499
 30
0.0
 10
141.8549
 20
-10.3293
 30
0.0
 10
140.0729
 20
-7.9967
 30
0.0
 10
140.0729
 20
-7.9967
 30
0.0
 10
141.9305
 20
-4.1416
 30
0.0
 10
141.816
 20
0.3722
 30
0.0
 10
139.766
 20
4.128
 30
0.0
 10
139.766
 20
4.128
 30
0.0
 10
138.7569
 20
6.5604
 30
0.0
 10
137.343
 20
8.8053
 30
0.0
 10
135.5845
 20
10.7655
 30
0.0
 10
135.5845
 20
10.7655
 30
0.0
 10
139.1696
 20
9.8466
 30
0.0
 10
142.5783
 20
8.3424
 30
0.0
 10
145.6751
 20
6.3146
 30
0.0
 10
145.6751
 20
6.3146
 30
0.0
 10
146.7489
 20
8.8498
 30
0.0
 10
147.7979
 20
11.3947
 30
0.0
 10
148.8215
 20
13.9502
 30
0.0
 10
148.8215
 20
13.9502
 30
0.0
 10
147.7979
 20
16.5057
 30
0.0
 10
146.7489
 20
19.0507
 30
0.0
 10
145.6751
 20
21.585
 30
0.0
 10
145.6751
 20
21.585
 30
0.0
 10
142.5783
 20
19.5574
 30
0.0
 10
139.1696
 20
18.0538
 30
0.0
 10
135.5845
 20
17.1343
 30
0.0
 10
135.5845
 20
17.1343
 30
0.0
 10
137.343
 20
19.0953
 30
0.0
 10
138.7569
 20
21.3395
 30
0.0
 10
139.766
 20
23.7724
 30
0.0
 10
139.766
 20
23.7724
 30
0.0
 10
141.816
 20
27.5283
 30
0.0
 10
141.9305
 20
32.0422
 30
0.0
 10
140.0729
 20
35.8963
 30
0.0
 10
140.0729
 20
35.8963
 30
0.0
 10
141.8549
 20
38.2298
 30
0.0
 10
143.5195
 20
40.6498
 30
0.0
 10
145.061
 20
43.1483
 30
0.0
 10
145.061
 20
43.1483
 30
0.0
 10
146.1951
 20
42.6644
 30
0.0
 10
147.4918
 20
42.7498
 30
0.0
 10
148.5525
 20
43.3784
 30
0.0
 10
148.5525
 20
43.3784
 30
0.0
 10
152.1944
 20
47.7852
 30
0.0
 10
153.7981
 20
53.5298
 30
0.0
 10
152.9647
 20
59.1858
 30
0.0
 10
152.9647
 20
59.1858
 30
0.0
 10
154.5235
 20
53.6901
 30
0.0
 10
155.0823
 20
47.9591
 30
0.0
 10
154.6147
 20
42.2659
 30
0.0
 10
154.6147
 20
42.2659
 30
0.0
 10
154.145
 20
36.8277
 30
0.0
 10
152.7569
 20
31.5088
 30
0.0
 10
150.5094
 20
26.5345
 30
0.0
 10
150.5094
 20
26.5345
 30
0.0
 10
151.3509
 20
22.0281
 30
0.0
 10
153.1137
 20
17.7438
 30
0.0
 10
155.6874
 20
13.9502
 30
0.0
 10
155.6874
 20
13.9502
 30
0.0
 10
153.1137
 20
10.156
 30
0.0
 10
151.3509
 20
5.8723
 30
0.0
 10
150.5094
 20
1.3653
 30
0.0
 10
150.5094
 20
1.3653
 30
0.0
 10
152.7569
 20
-3.6084
 30
0.0
 10
154.145
 20
-8.9271
 30
0.0
 10
154.6147
 20
-14.3655
 30
0.0
 10
154.6147
 20
-14.3655
 30
0.0
 10
155.0823
 20
-20.0587
 30
0.0
 10
154.5235
 20
-25.79
 30
0.0
 10
152.9647
 20
-31.2857
 30
0.0
 10
152.9647
 20
-31.2857
 30
0.0
 10
153.7981
 20
-25.6295
 30
0.0
 10
152.1944
 20
-19.8854
 30
0.0
 10
148.5525
 20
-15.478
 30
0.0
 10
148.5525
 20
-15.478
 30
0.0
 10
147.4918
 20
-14.8499
 30
0.0
 10
146.1951
 20
-14.764
 30
0.0
 10
145.061
 20
-15.2479
 30
0.0
  0
SPLINE
  5
53
330
1F
100
AcDbEntity
  8
layer 1
 62
     7
370
     9
100
AcDbSpline
210
0.0
220
0.0
230
1.0
 70
    11
 71
     3
 72
    24
 73
    20
 74
     0
 42
0.0000000001
 43
0.0000000001
 12
1.0
 22
0.0
 32
0.0
 13
1.0
 23
0.0
 33
0.0
 40
0.0
 40
0.0
 40
0.0
 40
0.0
 40
0.1666666666666667
 40
0.1666666666666667
 40
0.1666666666666667
 40
0.1666666666666667
 40
0.3333333333333333
 40
0.3333333333333333
 40
0.3333333333333333
 40
0.3333333333333333
 40
0.5
 40
0.5
 40
0.5
 40
0.5
 40
0.6666666666666666
 40
0.6666666666666666
 40
0.6666666666666666
 40
0.6666666666666666
 40
1.0
 40
1.0
 40
1.0
 40
1.0
 10
75.9984
 20
93.9089
 30
0.0
 10
75.9984
 20
93.9089
 30
0.0
 10
75.9984
 20
45.4661
 30
0.0
 10
75.9984
 20
45.4661
 30
0.0
 10
75.9984
 20
45.4661
 30
0.0
 10
75.9984
 20
45.4661
 30
0.0
 10
78.9147
 20
42.6582
 30
0.0
 10
78.9147
 20
42.6582
 30
0.0
 10
78.9147
 20
42.6582
 30
0.0
 10
78.9147
 20
42.6582
 30
0.0
 10
78.9147
 20
91.4537
 30
0.0
 10
78.9147
 20
91.4537
 30
0.0
 10
78.9147
 20
91.4537
 30
0.0
 10
78.9147
 20
91.4537
 30
0.0
 10
75.9984
 20
94.4255
 30
0.0
 10
75.9984
 20
94.4255
 30
0.0
 10
75.9984
 20
94.4255
 30
0.0
 10
75.9984
 20
94.4255
 30
0.0
 10
75.9984
 20
93.9089
 30
0.0
 10
75.9984
 20
93.9089
 30
0.0
  0
SPLINE
  5
54
330
1F
100
AcDbEntity
  8
layer 1
 62
     7
370
     9
100
AcDbSpline
210
0.0
220
0.0
230
1.0
 70
    11
 71
     3
 72
    20
 73
    16
 74
     0
 42
0.0000000001
 43
0.0000000001
 12
1.0
 22
0.0
 32
0.0
 13
1.0
 23
0.0
 33
0.0
 40
0.0
 40
0.0
 40
0.0
 40
0.0
 40
0.2
 40
0.2
 40
0.2
 40
0.2
 40
0.4
 40
0.4
 40
0.4
 40
0.4
 40
0.6
 40
0.6
 40
0.6
 40
0.6
 40
1.0
 40
1.0
 40
1.0
 40
1.0
 10
79.9276
 20
98.0527
 30
0.0
 10
79.9276
 20
98.0527
 30
0.0
 10
111.1539
 20
98.0527
 30
0.0
 10
111.1539
 20
98.0527
 30
0.0
 10
111.1539
 20
98.0527
 30
0.0
 10
111.1539
 20
98.0527
 30
0.0
 10
109.4778
 20
95.2523
 30
0.0
 10
109.4778
 20
95.2523
 30
0.0
 10
109.4778
 20
95.2523
 30
0.0
 10
109.4778
 20
95.2523
 30
0.0
 10
82.5207
 20
95.2523
 30
0.0
 10
82.5207
 20
95.2523
 30
0.0
 10
82.5207
 20
95.2523
 30
0.0
 10
82.5207
 20
95.2523
 30
0.0
 10
79.9276
 20
98.0527
 30
0.0
 10
79.9276
 20
98.0527
 30
0.0
  0
SPLINE
  5
55
330
1F
100
AcDbEntity
  8
layer 1
 62
     7
370
     9
100
AcDbSpline
210
0.0
220
0.0
230
1.0
 70
    11
 71
     3
 72
    20
 73
    16
 74
     0
 42
0.0000000001
 43
0.0000000001
 12
1.0
 22
0.0
 32
0.0
 13
1.0
 23
0.0
 33
0.0
 40
0.0
 40
0.0
 40
0.0
 40
0.0
 40
0.2
 40
0.2
 40
0.2
 40
0.2
 40
0.4
 40
0.4
 40
0.4
 40
0.4
 40
0.6
 40
0.6
 40
0.6
 40
0.6
 40
1.0
 40
1.0
 40
1.0
 40
1.0
 10
115.7365
 20
95.2523
 30
0.0
 10
115.7365
 20
95.2523
 30
0.0
 10
148.7563
 20
95.2523
 30
0.0
 10
148.7563
 20
95.2523
 30
0.0
 10
148.7563
 20
95.2523
 30
0.0
 10
148.7563
 20
95.2523
 30
0.0
 10
146.9607
 20
98.0527
 30
0.0
 10
146.9607
 20
98.0527
 30
0.0
 10
146.9607
 20
98.0527
 30
0.0
 10
146.9607
 20
98.0527
 30
0.0
 10
117.5315
 20
98.0527
 30
0.0
 10
117.5315
 20
98.0527
 30
0.0
 10
117.5315
 20
98.0527
 30
0.0
 10
117.5315
 20
98.0527
 30
0.0
 10
115.7365
 20
95.2523
 30
0.0
 10
115.7365
 20
95.2523
 30
0.0
  0
SPLINE
  5
56
330
1F
100
AcDbEntity
  8
layer 1
 62
     7
370
     9
100
AcDbSpline
210
0.0
220
0.0
230
1.0
 70
    11
 71
     3
 72
    24
 73
    20
 74
     0
 42
0.0000000001
 43
0.0000000001
 12
1.0
 22
0.0
 32
0.0
 13
1.0
 23
0.0
 33
0.0
 40
0.0
 40
0.0
 40
0.0
 40
0.0
 40
0.1666666666666667
 40
0.1666666666666667
 40
0.1666666666666667
 40
0.1666666666666667
 40
0.3333333333333333
 40
0.3333333333333333
 40
0.3333333333333333
 40
0.3333333333333333
 40
0.5
 40
0.5
 40
0.5
 40
0.5
 40
0.6666666666666666
 40
0.6666666666666666
 40
0.6666666666666666
 40
0.6666666666666666
 40
1.0
 40
1.0
 40
1.0
 40
1.0
 10
101.7049
 20
53.6994
 30
0.0
 10
96.5135
 20
54.6913
 30
0.0
 10
91.1439
 20
53.4667
 30
0.0
 10
86.8955
 20
50.3229
 30
0.0
 10
86.8955
 20
50.3229
 30
0.0
 10
83.2849
 20
46.5718
 30
0.0
 10
81.4189
 20
41.4757
 30
0.0
 10
81.7535
 20
36.2806
 30
0.0
 10
81.7535
 20
36.2806
 30
0.0
 10
82.0399
 20
28.6842
 30
0.0
 10
85.3232
 20
21.5103
 30
0.0
 10
90.8852
 20
16.3294
 30
0.0
 10
90.8852
 20
16.3294
 30
0.0
 10
86.3379
 20
22.7409
 30
0.0
 10
84.3913
 20
30.6381
 30
0.0
 10
85.437
 20
38.4291
 30
0.0
 10
85.437
 20
38.4291
 30
0.0
 10
86.8206
 20
46.5924
 30
0.0
 10
93.4711
 20
52.8349
 30
0.0
 10
101.7049
 20
53.6994
 30
0.0
  0
SPLINE
  5
57
330
1F
100
AcDbEntity
  8
layer 1
 62
     7
370
     9
100
AcDbSpline
210
0.0
220
0.0
230
1.0
 70
    11
 71
     3
 72
    24
 73
    20
 74
     0
 42
0.0000000001
 43
0.0000000001
 12
1.0
 22
0.0
 32
0.0
 13
1.0
 23
0.0
 33
0.0
 40
0.0
 40
0.0
 40
0.0
 40
0.0
 40
0.1666666666666667
 40
0.1666666666666667
 40
0.1666666666666667
 40
0.1666666666666667
 40
0.3333333333333333
 40
0.3333333333333333
 40
0.3333333333333333
 40
0.3333333333333333
 40
0.5
 40
0.5
 40
0.5
 40
0.5
 40
0.6666666666666666
 40
0.6666666666666666
 40
0.6666666666666666
 40
0.6666666666666666
 40
1.0
 40
1.0
 40
1.0
 40
1.0
 10
90.7317
 20
46.3324
 30
0.0
 10
91.5696
 20
36.9613
 30
0.0
 10
93.5805
 20
27.7318
 30
0.0
 10
96.717
 20
18.8613
 30
0.0
 10
96.717
 20
18.8613
 30
0.0
 10
105.3035
 20
33.3613
 30
0.0
 10
108.4835
 20
50.4316
 30
0.0
 10
105.6952
 20
67.0517
 30
0.0
 10
105.6952
 20
67.0517
 30
0.0
 10
105.8802
 20
55.6169
 30
0.0
 10
103.576
 20
44.2794
 30
0.0
 10
98.9428
 20
33.8247
 30
0.0
 10
98.9428
 20
33.8247
 30
0.0
 10
97.2195
 20
39.0621
 30
0.0
 10
96.0364
 20
44.4613
 30
0.0
 10
95.4127
 20
49.9391
 30
0.0
 10
95.4127
 20
49.9391
 30
0.0
 10
93.5521
 20
49.1881
 30
0.0
 10
91.9328
 20
47.9406
 30
0.0
 10
90.7317
 20
46.3324
 30
0.0
  0
SPLINE
  5
58
330
1F
100
AcDbEntity
  8
layer 1
 62
     7
370
     9
100
AcDbSpline
210
0.0
220
0.0
230
1.0
 70
    11
 71
     3
 72
    28
 73
    24
 74
     0
 42
0.0000000001
 43
0.0000000001
 12
1.0
 22
0.0
 32
0.0
 13
1.0
 23
0.0
 33
0.0
 40
0.0
 40
0.0
 40
0.0
 40
0.0
 40
0.1428571428571428
 40
0.1428571428571428
 40
0.1428571428571428
 40
0.1428571428571428
 40
0.2857142857142857
 40
0.2857142857142857
 40
0.2857142857142857
 40
0.2857142857142857
 40
0.4285714285714285
 40
0.4285714285714285
 40
0.4285714285714285
 40
0.4285714285714285
 40
0.5714285714285714
 40
0.5714285714285714
 40
0.5714285714285714
 40
0.5714285714285714
 40
0.7142857142857143
 40
0.7142857142857143
 40
0.7142857142857143
 40
0.7142857142857143
 40
1.0
 40
1.0
 40
1.0
 40
1.0
 10
90.3481
 20
54.1597
 30
0.0
 10
90.3839
 20
67.0689
 30
0.0
 10
93.9389
 20
79.7237
 30
0.0
 10
100.6306
 20
90.7632
 30
0.0
 10
100.6306
 20
90.7632
 30
0.0
 10
103.7479
 20
85.4399
 30
0.0
 10
107.0757
 20
80.2436
 30
0.0
 10
110.6063
 20
75.1852
 30
0.0
 10
110.6063
 20
75.1852
 30
0.0
 10
109.9975
 20
73.6648
 30
0.0
 10
109.3062
 20
72.1792
 30
0.0
 10
108.5347
 20
70.7345
 30
0.0
 10
108.5347
 20
70.7345
 30
0.0
 10
105.7762
 20
74.0393
 30
0.0
 10
103.1403
 20
77.4438
 30
0.0
 10
100.6306
 20
80.941
 30
0.0
 10
100.6306
 20
80.941
 30
0.0
 10
97.267
 20
72.8717
 30
0.0
 10
95.3452
 20
64.2746
 30
0.0
 10
94.9523
 20
55.5408
 30
0.0
 10
94.9523
 20
55.5408
 30
0.0
 10
93.3597
 20
55.3033
 30
0.0
 10
91.809
 20
54.8379
 30
0.0
 10
90.3481
 20
54.1597
 30
0.0
  0
SPLINE
  5
59
330
1F
100
AcDbEntity
  8
layer 1
 62
     7
370
     9
100
AcDbSpline
210
0.0
220
0.0
230
1.0
 70
    11
 71
     3
 72
    60
 73
    56
 74
     0
 42
0.0000000001
 43
0.0000000001
 12
1.0
 22
0.0
 32
0.0
 13
1.0
 23
0.0
 33
0.0
 40
0.0
 40
0.0
 40
0.0
 40
0.0
 40
0.0666666666666667
 40
0.0666666666666667
 40
0.0666666666666667
 40
0.0666666666666667
 40
0.1333333333333333
 40
0.1333333333333333
 40
0.1333333333333333
 40
0.1333333333333333
 40
0.2
 40
0.2
 40
0.2
 40
0.2
 40
0.2666666666666667
 40
0.2666666666666667
 40
0.2666666666666667
 40
0.2666666666666667
 40
0.3333333333333333
 40
0.3333333333333333
 40
0.3333333333333333
 40
0.3333333333333333
 40
0.4
 40
0.4
 40
0.4
 40
0.4
 40
0.4666666666666667
 40
0.4666666666666667
 40
0.4666666666666667
 40
0.4666666666666667
 40
0.5333333333333333
 40
0.5333333333333333
 40
0.5333333333333333
 40
0.5333333333333333
 40
0.6
 40
0.6
 40
0.6
 40
0.6
 40
0.6666666666666666
 40
0.6666666666666666
 40
0.6666666666666666
 40
0.6666666666666666
 40
0.7333333333333333
 40
0.7333333333333333
 40
0.7333333333333333
 40
0.7333333333333333
 40
0.8
 40
0.8
 40
0.8
 40
0.8
 40
0.8666666666666667
 40
0.8666666666666667
 40
0.8666666666666667
 40
0.8666666666666667
 40
1.0
 40
1.0
 40
1.0
 40
1.0
 10
109.4937
 20
69.5069
 30
0.0
 10
113.5777
 20
65.1192
 30
0.0
 10
117.0142
 20
60.171
 30
0.0
 10
119.6997
 20
54.812
 30
0.0
 10
119.6997
 20
54.812
 30
0.0
 10
121.4717
 20
51.7539
 30
0.0
 10
121.8759
 20
48.0915
 30
0.0
 10
120.8121
 20
44.7212
 30
0.0
 10
120.8121
 20
44.7212
 30
0.0
 10
122.3603
 20
42.212
 30
0.0
 10
123.9722
 20
39.7426
 30
0.0
 10
125.6465
 20
37.3158
 30
0.0
 10
125.6465
 20
37.3158
 30
0.0
 10
127.0139
 20
37.799
 30
0.0
 10
128.5374
 20
37.4216
 30
0.0
 10
129.5218
 20
36.3567
 30
0.0
 10
129.5218
 20
36.3567
 30
0.0
 10
130.6066
 20
35.266
 30
0.0
 10
131.5248
 20
34.021
 30
0.0
 10
132.2462
 20
32.6622
 30
0.0
 10
132.2462
 20
32.6622
 30
0.0
 10
132.9678
 20
34.021
 30
0.0
 10
133.886
 20
35.266
 30
0.0
 10
134.9701
 20
36.3567
 30
0.0
 10
134.9701
 20
36.3567
 30
0.0
 10
135.9544
 20
37.4216
 30
0.0
 10
137.4779
 20
37.799
 30
0.0
 10
138.8453
 20
37.3158
 30
0.0
 10
138.8453
 20
37.3158
 30
0.0
 10
140.5204
 20
39.7426
 30
0.0
 10
142.1322
 20
42.212
 30
0.0
 10
143.6798
 20
44.7212
 30
0.0
 10
143.6798
 20
44.7212
 30
0.0
 10
142.616
 20
48.0915
 30
0.0
 10
143.0201
 20
51.7539
 30
0.0
 10
144.7925
 20
54.812
 30
0.0
 10
144.7925
 20
54.812
 30
0.0
 10
147.4778
 20
60.171
 30
0.0
 10
150.9144
 20
65.1192
 30
0.0
 10
154.9985
 20
69.5069
 30
0.0
 10
154.9985
 20
69.5069
 30
0.0
 10
154.0583
 20
70.8464
 30
0.0
 10
153.2243
 20
72.2578
 30
0.0
 10
152.5043
 20
73.7274
 30
0.0
 10
152.5043
 20
73.7274
 30
0.0
 10
144.1788
 20
66.7658
 30
0.0
 10
137.2966
 20
58.2412
 30
0.0
 10
132.2462
 20
48.6349
 30
0.0
 10
132.2462
 20
48.6349
 30
0.0
 10
127.1953
 20
58.2412
 30
0.0
 10
120.3134
 20
66.7658
 30
0.0
 10
111.9881
 20
73.7274
 30
0.0
 10
111.9881
 20
73.7274
 30
0.0
 10
111.2679
 20
72.2578
 30
0.0
 10
110.4344
 20
70.8464
 30
0.0
 10
109.4937
 20
69.5069
 30
0.0
  0
SPLINE
  5
5A
330
1F
100
AcDbEntity
  8
layer 1
 62
     7
370
     9
100
AcDbSpline
210
0.0
220
0.0
230
1.0
 70
    11
 71
     3
 72
    76
 73
    72
 74
     0
 42
0.0000000001
 43
0.0000000001
 12
1.0
 22
0.0
 32
0.0
 13
1.0
 23
0.0
 33
0.0
 40
0.0
 40
0.0
 40
0.0
 40
0.0
 40
0.0526315789473684
 40
0.0526315789473684
 40
0.0526315789473684
 40
0.0526315789473684
 40
0.1052631578947368
 40
0.1052631578947368
 40
0.1052631578947368
 40
0.1052631578947368
 40
0.1578947368421053
 40
0.1578947368421053
 40
0.1578947368421053
 40
0.1578947368421053
 40
0.2105263157894737
 40
0.2105263157894737
 40
0.2105263157894737
 40
0.2105263157894737
 40
0.2631578947368421
 40
0.2631578947368421
 40
0.2631578947368421
 40
0.2631578947368421
 40
0.3157894736842105
 40
0.3157894736842105
 40
0.3157894736842105
 40
0.3157894736842105
 40
0.3684210526315789
 40
0.3684210526315789
 40
0.3684210526315789
 40
0.3684210526315789
 40
0.4210526315789473
 40
0.4210526315789473
 40
0.4210526315789473
 40
0.4210526315789473
 40
0.4736842105263158
 40
0.4736842105263158
 40
0.4736842105263158
 40
0.4736842105263158
 40
0.5263157894736842
 40
0.5263157894736842
 40
0.5263157894736842
 40
0.5263157894736842
 40
0.5789473684210527
 40
0.5789473684210527
 40
0.5789473684210527
 40
0.5789473684210527
 40
0.631578947368421
 40
0.631578947368421
 40
0.631578947368421
 40
0.631578947368421
 40
0.6842105263157895
 40
0.6842105263157895
 40
0.6842105263157895
 40
0.6842105263157895
 40
0.7368421052631579
 40
0.7368421052631579
 40
0.7368421052631579
 40
0.7368421052631579
 40
0.7894736842105263
 40
0.7894736842105263
 40
0.7894736842105263
 40
0.7894736842105263
 40
0.8421052631578947
 40
0.8421052631578947
 40
0.8421052631578947
 40
0.8421052631578947
 40
0.8947368421052632
 40
0.8947368421052632
 40
0.8947368421052632
 40
0.8947368421052632
 40
1.0
 40
1.0
 40
1.0
 40
1.0
 10
107.3839
 20
85.6986
 30
0.0
 10
111.5487
 20
80.3711
 30
0.0
 10
117.2363
 20
76.437
 30
0.0
 10
123.69
 20
74.418
 30
0.0
 10
123.69
 20
74.418
 30
0.0
 10
125.0377
 20
74.1265
 30
0.0
 10
126.2517
 20
73.3982
 30
0.0
 10
127.1434
 20
72.3464
 30
0.0
 10
127.1434
 20
72.3464
 30
0.0
 10
125.5469
 20
79.5524
 30
0.0
 10
122.0342
 20
86.1936
 30
0.0
 10
116.9758
 20
91.5688
 30
0.0
 10
116.9758
 20
91.5688
 30
0.0
 10
122.3138
 20
87.608
 30
0.0
 10
126.9113
 20
82.7377
 30
0.0
 10
130.5576
 20
77.1807
 30
0.0
 10
130.5576
 20
77.1807
 30
0.0
 10
130.916
 20
78.1502
 30
0.0
 10
131.4939
 20
79.0234
 30
0.0
 10
132.2462
 20
79.7313
 30
0.0
 10
132.2462
 20
79.7313
 30
0.0
 10
132.9986
 20
79.0234
 30
0.0
 10
133.5766
 20
78.1502
 30
0.0
 10
133.9342
 20
77.1807
 30
0.0
 10
133.9342
 20
77.1807
 30
0.0
 10
137.5805
 20
82.7377
 30
0.0
 10
142.1786
 20
87.608
 30
0.0
 10
147.5166
 20
91.5688
 30
0.0
 10
147.5166
 20
91.5688
 30
0.0
 10
142.4576
 20
86.1936
 30
0.0
 10
138.9456
 20
79.5524
 30
0.0
 10
137.3492
 20
72.3464
 30
0.0
 10
137.3492
 20
72.3464
 30
0.0
 10
138.2402
 20
73.3982
 30
0.0
 10
139.4541
 20
74.1265
 30
0.0
 10
140.8024
 20
74.418
 30
0.0
 10
140.8024
 20
74.418
 30
0.0
 10
147.2559
 20
76.437
 30
0.0
 10
152.9433
 20
80.3711
 30
0.0
 10
157.1085
 20
85.6986
 30
0.0
 10
157.1085
 20
85.6986
 30
0.0
 10
155.5176
 20
80.9941
 30
0.0
 10
152.4493
 20
76.9302
 30
0.0
 10
148.3606
 20
74.111
 30
0.0
 10
148.3606
 20
74.111
 30
0.0
 10
143.8543
 20
71.5667
 30
0.0
 10
139.3268
 20
69.0594
 30
0.0
 10
134.7782
 20
66.5913
 30
0.0
 10
134.7782
 20
66.5913
 30
0.0
 10
134.8803
 20
67.9383
 30
0.0
 10
134.4843
 20
69.2761
 30
0.0
 10
133.6657
 20
70.3514
 30
0.0
 10
133.6657
 20
70.3514
 30
0.0
 10
133.2716
 20
70.6838
 30
0.0
 10
132.7585
 20
70.839
 30
0.0
 10
132.2462
 20
70.7808
 30
0.0
 10
132.2462
 20
70.7808
 30
0.0
 10
131.7339
 20
70.839
 30
0.0
 10
131.2203
 20
70.6838
 30
0.0
 10
130.8262
 20
70.3514
 30
0.0
 10
130.8262
 20
70.3514
 30
0.0
 10
130.0081
 20
69.2761
 30
0.0
 10
129.6123
 20
67.9383
 30
0.0
 10
129.7136
 20
66.5913
 30
0.0
 10
129.7136
 20
66.5913
 30
0.0
 10
125.1658
 20
69.0594
 30
0.0
 10
120.6377
 20
71.5667
 30
0.0
 10
116.1318
 20
74.111
 30
0.0
 10
116.1318
 20
74.111
 30
0.0
 10
112.0431
 20
76.9302
 30
0.0
 10
108.9747
 20
80.9941
 30
0.0
 10
107.3839
 20
85.6986
 30
0.0
  0
SPLINE
  5
5B
330
1F
100
AcDbEntity
  8
layer 1
 62
     7
370
     9
100
AcDbSpline
210
0.0
220
0.0
230
1.0
 70
    11
 71
     3
 72
    24
 73
    20
 74
     0
 42
0.0000000001
 43
0.0000000001
 12
1.0
 22
0.0
 32
0.0
 13
1.0
 23
0.0
 33
0.0
 40
0.0
 40
0.0
 40
0.0
 40
0.0
 40
0.1666666666666667
 40
0.1666666666666667
 40
0.1666666666666667
 40
0.1666666666666667
 40
0.3333333333333333
 40
0.3333333333333333
 40
0.3333333333333333
 40
0.3333333333333333
 40
0.5
 40
0.5
 40
0.5
 40
0.5
 40
0.6666666666666666
 40
0.6666666666666666
 40
0.6666666666666666
 40
0.6666666666666666
 40
1.0
 40
1.0
 40
1.0
 40
1.0
 10
188.4938
 20
93.9089
 30
0.0
 10
188.4938
 20
93.9089
 30
0.0
 10
188.4938
 20
45.4661
 30
0.0
 10
188.4938
 20
45.4661
 30
0.0
 10
188.4938
 20
45.4661
 30
0.0
 10
188.4938
 20
45.4661
 30
0.0
 10
185.5777
 20
42.6582
 30
0.0
 10
185.5777
 20
42.6582
 30
0.0
 10
185.5777
 20
42.6582
 30
0.0
 10
185.5777
 20
42.6582
 30
0.0
 10
185.5777
 20
91.4537
 30
0.0
 10
185.5777
 20
91.4537
 30
0.0
 10
185.5777
 20
91.4537
 30
0.0
 10
185.5777
 20
91.4537
 30
0.0
 10
188.4938
 20
94.4255
 30
0.0
 10
188.4938
 20
94.4255
 30
0.0
 10
188.4938
 20
94.4255
 30
0.0
 10
188.4938
 20
94.4255
 30
0.0
 10
188.4938
 20
93.9089
 30
0.0
 10
188.4938
 20
93.9089
 30
0.0
  0
SPLINE
  5
5C
330
1F
100
AcDbEntity
  8
layer 1
 62
     7
370
     9
100
AcDbSpline
210
0.0
220
0.0
230
1.0
 70
    11
 71
     3
 72
    20
 73
    16
 74
     0
 42
0.0000000001
 43
0.0000000001
 12
1.0
 22
0.0
 32
0.0
 13
1.0
 23
0.0
 33
0.0
 40
0.0
 40
0.0
 40
0.0
 40
0.0
 40
0.2
 40
0.2
 40
0.2
 40
0.2
 40
0.4
 40
0.4
 40
0.4
 40
0.4
 40
0.6
 40
0.6
 40
0.6
 40
0.6
 40
1.0
 40
1.0
 40
1.0
 40
1.0
 10
184.5644
 20
98.0527
 30
0.0
 10
184.5644
 20
98.0527
 30
0.0
 10
153.3385
 20
98.0527
 30
0.0
 10
153.3385
 20
98.0527
 30
0.0
 10
153.3385
 20
98.0527
 30
0.0
 10
153.3385
 20
98.0527
 30
0.0
 10
155.0144
 20
95.2523
 30
0.0
 10
155.0144
 20
95.2523
 30
0.0
 10
155.0144
 20
95.2523
 30
0.0
 10
155.0144
 20
95.2523
 30
0.0
 10
181.9711
 20
95.2523
 30
0.0
 10
181.9711
 20
95.2523
 30
0.0
 10
181.9711
 20
95.2523
 30
0.0
 10
181.9711
 20
95.2523
 30
0.0
 10
184.5644
 20
98.0527
 30
0.0
 10
184.5644
 20
98.0527
 30
0.0
  0
SPLINE
  5
5D
330
1F
100
AcDbEntity
  8
layer 1
 62
     7
370
     9
100
AcDbSpline
210
0.0
220
0.0
230
1.0
 70
    11
 71
     3
 72
    24
 73
    20
 74
     0
 42
0.0000000001
 43
0.0000000001
 12
1.0
 22
0.0
 32
0.0
 13
1.0
 23
0.0
 33
0.0
 40
0.0
 40
0.0
 40
0.0
 40
0.0
 40
0.1666666666666667
 40
0.1666666666666667
 40
0.1666666666666667
 40
0.1666666666666667
 40
0.3333333333333333
 40
0.3333333333333333
 40
0.3333333333333333
 40
0.3333333333333333
 40
0.5
 40
0.5
 40
0.5
 40
0.5
 40
0.6666666666666666
 40
0.6666666666666666
 40
0.6666666666666666
 40
0.6666666666666666
 40
1.0
 40
1.0
 40
1.0
 40
1.0
 10
162.7871
 20
53.6994
 30
0.0
 10
167.9787
 20
54.6913
 30
0.0
 10
173.3483
 20
53.4667
 30
0.0
 10
177.5973
 20
50.3229
 30
0.0
 10
177.5973
 20
50.3229
 30
0.0
 10
181.2076
 20
46.5718
 30
0.0
 10
183.0735
 20
41.4757
 30
0.0
 10
182.7385
 20
36.2806
 30
0.0
 10
182.7385
 20
36.2806
 30
0.0
 10
182.4523
 20
28.6842
 30
0.0
 10
179.169
 20
21.5103
 30
0.0
 10
173.607
 20
16.3294
 30
0.0
 10
173.607
 20
16.3294
 30
0.0
 10
178.1542
 20
22.7409
 30
0.0
 10
180.1011
 20
30.6381
 30
0.0
 10
179.0552
 20
38.4291
 30
0.0
 10
179.0552
 20
38.4291
 30
0.0
 10
177.6718
 20
46.5924
 30
0.0
 10
171.0213
 20
52.8349
 30
0.0
 10
162.7871
 20
53.6994
 30
0.0
  0
SPLINE
  5
5E
330
1F
100
AcDbEntity
  8
layer 1
 62
     7
370
     9
100
AcDbSpline
210
0.0
220
0.0
230
1.0
 70
    11
 71
     3
 72
    24
 73
    20
 74
     0
 42
0.0000000001
 43
0.0000000001
 12
1.0
 22
0.0
 32
0.0
 13
1.0
 23
0.0
 33
0.0
 40
0.0
 40
0.0
 40
0.0
 40
0.0
 40
0.1666666666666667
 40
0.1666666666666667
 40
0.1666666666666667
 40
0.1666666666666667
 40
0.3333333333333333
 40
0.3333333333333333
 40
0.3333333333333333
 40
0.3333333333333333
 40
0.5
 40
0.5
 40
0.5
 40
0.5
 40
0.6666666666666666
 40
0.6666666666666666
 40
0.6666666666666666
 40
0.6666666666666666
 40
1.0
 40
1.0
 40
1.0
 40
1.0
 10
173.7605
 20
46.3324
 30
0.0
 10
172.9224
 20
36.9613
 30
0.0
 10
170.9115
 20
27.7318
 30
0.0
 10
167.7749
 20
18.8613
 30
0.0
 10
167.7749
 20
18.8613
 30
0.0
 10
159.1889
 20
33.3613
 30
0.0
 10
156.0086
 20
50.4316
 30
0.0
 10
158.7969
 20
67.0517
 30
0.0
 10
158.7969
 20
67.0517
 30
0.0
 10
158.612
 20
55.6169
 30
0.0
 10
160.9162
 20
44.2794
 30
0.0
 10
165.5495
 20
33.8247
 30
0.0
 10
165.5495
 20
33.8247
 30
0.0
 10
167.2727
 20
39.0621
 30
0.0
 10
168.4556
 20
44.4613
 30
0.0
 10
169.0793
 20
49.9391
 30
0.0
 10
169.0793
 20
49.9391
 30
0.0
 10
170.9403
 20
49.1881
 30
0.0
 10
172.5592
 20
47.9406
 30
0.0
 10
173.7605
 20
46.3324
 30
0.0
  0
SPLINE
  5
5F
330
1F
100
AcDbEntity
  8
layer 1
 62
     7
370
     9
100
AcDbSpline
210
0.0
220
0.0
230
1.0
 70
    11
 71
     3
 72
    28
 73
    24
 74
     0
 42
0.0000000001
 43
0.0000000001
 12
1.0
 22
0.0
 32
0.0
 13
1.0
 23
0.0
 33
0.0
 40
0.0
 40
0.0
 40
0.0
 40
0.0
 40
0.1428571428571428
 40
0.1428571428571428
 40
0.1428571428571428
 40
0.1428571428571428
 40
0.2857142857142857
 40
0.2857142857142857
 40
0.2857142857142857
 40
0.2857142857142857
 40
0.4285714285714285
 40
0.4285714285714285
 40
0.4285714285714285
 40
0.4285714285714285
 40
0.5714285714285714
 40
0.5714285714285714
 40
0.5714285714285714
 40
0.5714285714285714
 40
0.7142857142857143
 40
0.7142857142857143
 40
0.7142857142857143
 40
0.7142857142857143
 40
1.0
 40
1.0
 40
1.0
 40
1.0
 10
174.1441
 20
54.1597
 30
0.0
 10
172.6832
 20
54.8379
 30
0.0
 10
171.1327
 20
55.3033
 30
0.0
 10
169.5399
 20
55.5408
 30
0.0
 10
169.5399
 20
55.5408
 30
0.0
 10
169.147
 20
64.2746
 30
0.0
 10
167.2252
 20
72.8717
 30
0.0
 10
163.8613
 20
80.941
 30
0.0
 10
163.8613
 20
80.941
 30
0.0
 10
161.352
 20
77.4438
 30
0.0
 10
158.7158
 20
74.0393
 30
0.0
 10
155.9575
 20
70.7345
 30
0.0
 10
155.9575
 20
70.7345
 30
0.0
 10
155.186
 20
72.1792
 30
0.0
 10
154.4946
 20
73.6648
 30
0.0
 10
153.8856
 20
75.1852
 30
0.0
 10
153.8856
 20
75.1852
 30
0.0
 10
157.4165
 20
80.2436
 30
0.0
 10
160.7443
 20
85.4399
 30
0.0
 10
163.8613
 20
90.7632
 30
0.0
 10
163.8613
 20
90.7632
 30
0.0
 10
170.5535
 20
79.7237
 30
0.0
 10
174.1085
 20
67.0689
 30
0.0
 10
174.1441
 20
54.1597
 30
0.0
  0
ENDSEC
  0
SECTION
  2
OBJECTS
  0
DICTIONARY
  5
C
330
0
100
AcDbDictionary
281
     1
  3
ACAD_GROUP
350
D
  3
ACAD_LAYOUT
350
1A
  3
ACAD_MATERIAL
350
3B
  3
ACAD_MLEADERSTYLE
350
81
  3
ACAD_MLINESTYLE
350
17
  3
ACAD_PLOTSETTINGS
350
19
  3
ACAD_PLOTSTYLENAME
350
E
  3
ACAD_TABLESTYLE
350
80
  3
ACAD_VISUALSTYLE
350
2A
  0
DICTIONARY
  5
D
102
{ACAD_REACTORS
330
C
102
}
330
C
100
AcDbDictionary
281
     1
  0
DICTIONARY
  5
1A
102
{ACAD_REACTORS
330
C
102
}
330
C
100
AcDbDictionary
281
     1
  3
Layout1
350
1E
  3
Layout2
350
26
  3
Model
350
22
  0
DICTIONARY
  5
3B
102
{ACAD_REACTORS
330
C
102
}
330
C
100
AcDbDictionary
281
     1
  3
ByBlock
350
3D
  3
ByLayer
350
3C
  3
Global
350
3E
  0
DICTIONARY
  5
81
102
{ACAD_REACTORS
330
C
102
}
330
C
100
AcDbDictionary
281
     1
  0
DICTIONARY
  5
17
102
{ACAD_REACTORS
330
C
102
}
330
C
100
AcDbDictionary
281
     1
  3
Standard
350
18
  0
DICTIONARY
  5
19
102
{ACAD_REACTORS
330
C
102
}
330
C
100
AcDbDictionary
281
     1
  0
ACDBDICTIONARYWDFLT
  5
E
102
{ACAD_REACTORS
330
C
102
}
330
C
100
AcDbDictionary
281
     1
  3
Normal
350
F
100
AcDbDictionaryWithDefault
340
F
  0
DICTIONARY
  5
80
102
{ACAD_REACTORS
330
C
102
}
330
C
100
AcDbDictionary
281
     1
  0
DICTIONARY
  5
2A
102
{ACAD_REACTORS
330
C
102
}
330
C
100
AcDbDictionary
281
     1
  3
2dWireframe
350
2F
  3
3D Hidden
350
31
  3
3dWireframe
350
30
  3
Basic
350
32
  3
Brighten
350
36
  3
ColorChange
350
3A
  3
Conceptual
350
34
  3
Dim
350
35
  3
Facepattern
350
39
  3
Flat
350
2B
  3
FlatWithEdges
350
2C
  3
Gouraud
350
2D
  3
GouraudWithEdges
350
2E
  3
Linepattern
350
38
  3
Realistic
350
33
  3
Thicken
350
37
  0
LAYOUT
  5
1E
102
{ACAD_REACTORS
330
1A
102
}
330
1A
100
AcDbPlotSettings
  1

  2
none_device
  4

  6

 40
0.0
 41
0.0
 42
0.0
 43
0.0
 44
0.0
 45
0.0
 46
0.0
 47
0.0
 48
0.0
 49
0.0
140
0.0
141
0.0
142
1.0
143
1.0
 70
   688
 72
     0
 73
     0
 74
     5
  7

 75
    16
 76
     0
 77
     2
 78
   300
147
1.0
148
0.0
149
0.0
100
AcDbLayout
  1
Layout1
 70
     1
 71
     1
 10
0.0
 20
0.0
 11
12.0
 21
9.0
 12
0.0
 22
0.0
 32
0.0
 14
1.000000000000000E+20
 24
1.000000000000000E+20
 34
1.000000000000000E+20
 15
-1.000000000000000E+20
 25
-1.000000000000000E+20
 35
-1.000000000000000E+20
146
0.0
 13
0.0
 23
0.0
 33
0.0
 16
1.0
 26
0.0
 36
0.0
 17
0.0
 27
1.0
 37
0.0
 76
     0
330
1B
  0
LAYOUT
  5
26
102
{ACAD_REACTORS
330
1A
102
}
330
1A
100
AcDbPlotSettings
  1

  2
none_device
  4

  6

 40
0.0
 41
0.0
 42
0.0
 43
0.0
 44
0.0
 45
0.0
 46
0.0
 47
0.0
 48
0.0
 49
0.0
140
0.0
141
0.0
142
1.0
143
1.0
 70
   688
 72
     0
 73
     0
 74
     5
  7

 75
    16
 76
     0
 77
     2
 78
   300
147
1.0
148
0.0
149
0.0
100
AcDbLayout
  1
Layout2
 70
     1
 71
     2
 10
0.0
 20
0.0
 11
0.0
 21
0.0
 12
0.0
 22
0.0
 32
0.0
 14
0.0
 24
0.0
 34
0.0
 15
0.0
 25
0.0
 35
0.0
146
0.0
 13
0.0
 23
0.0
 33
0.0
 16
1.0
 26
0.0
 36
0.0
 17
0.0
 27
1.0
 37
0.0
 76
     0
330
23
  0
LAYOUT
  5
22
102
{ACAD_REACTORS
330
1A
102
}
330
1A
100
AcDbPlotSettings
  1

  2
none_device
  4

  6

 40
0.0
 41
0.0
 42
0.0
 43
0.0
 44
0.0
 45
0.0
 46
0.0
 47
0.0
 48
0.0
 49
0.0
140
0.0
141
0.0
142
1.0
143
1.0
 70
  1712
 72
     0
 73
     0
 74
     0
  7

 75
     0
 76
     0
 77
     2
 78
   300
147
1.0
148
0.0
149
0.0
100
AcDbLayout
  1
Model
 70
     1
 71
     0
 10
0.0
 20
0.0
 11
12.0
 21
9.0
 12
0.0
 22
0.0
 32
0.0
 14
68.4394
 24
-75.046
 34
0.0
 15
196.0528
 25
102.9461
 35
0.0
146
0.0
 13
0.0
 23
0.0
 33
0.0
 16
1.0
 26
0.0
 36
0.0
 17
0.0
 27
1.0
 37
0.0
 76
     0
330
1F
331
29
  0
MATERIAL
  5
3D
102
{ACAD_REACTORS
330
3B
102
}
330
3B
100
AcDbMaterial
  1
ByBlock
 72
     1
 94
      127
  0
MATERIAL
  5
3C
102
{ACAD_REACTORS
330
3B
102
}
330
3B
100
AcDbMaterial
  1
ByLayer
 72
     1
 94
      127
  0
MATERIAL
  5
3E
102
{ACAD_REACTORS
330
3B
102
}
330
3B
100
AcDbMaterial
  1
Global
 72
     1
 94
      127
  0
MLINESTYLE
  5
18
102
{ACAD_REACTORS
330
17
102
}
330
17
100
AcDbMlineStyle
  2
Standard
 70
     0
  3

 62
   256
 51
90.0
 52
90.0
 71
     2
 49
0.5
 62
   256
  6
BYLAYER
 49
-0.5
 62
   256
  6
BYLAYER
  0
ACDBPLACEHOLDER
  5
F
102
{ACAD_REACTORS
330
E
102
}
330
E
  0
VISUALSTYLE
  5
2F
102
{ACAD_REACTORS
330
2A
102
}
102
{ACAD_XDICTIONARY
360
68
102
}
330
2A
100
AcDbVisualStyle
  2
2dWireframe
 70
     4
 71
     0
 72
     2
 73
     0
 90
        0
 40
-0.6
 41
-30.0
 62
     5
 63
     7
421
 16777215
 74
     1
 91
        4
 64
     7
 65
   257
 75
     1
175
     1
 42
1.0
 92
        0
 66
   257
 43
1.0
 76
     1
 77
     6
 78
     2
 67
     7
 79
     5
170
     0
171
     0
290
     0
174
     0
 93
        1
 44
0.0
173
     0
291
     0
 45
0.0
  0
VISUALSTYLE
  5
31
102
{ACAD_REACTORS
330
2A
102
}
102
{ACAD_XDICTIONARY
360
6C
102
}
330
2A
100
AcDbVisualStyle
  2
3D Hidden
 70
     6
 71
     1
 72
     2
 73
     2
 90
        0
 40
-0.6
 41
-30.0
 62
     5
 63
     7
421
 16777215
 74
     2
 91
        2
 64
     7
 65
   257
 75
     2
175
     1
 42
40.0
 92
        0
 66
   257
 43
1.0
 76
     1
 77
     6
 78
     2
 67
     7
 79
     3
170
     0
171
     0
290
     0
174
     0
 93
        1
 44
0.0
173
     0
291
     0
 45
0.0
  0
VISUALSTYLE
  5
30
102
{ACAD_REACTORS
330
2A
102
}
102
{ACAD_XDICTIONARY
360
6A
102
}
330
2A
100
AcDbVisualStyle
  2
3dWireframe
 70
     5
 71
     0
 72
     2
 73
     0
 90
        0
 40
-0.6
 41
-30.0
 62
     5
 63
     7
421
 16777215
 74
     1
 91
        4
 64
     7
 65
   257
 75
     1
175
     1
 42
1.0
 92
        0
 66
   257
 43
1.0
 76
     1
 77
     6
 78
     2
 67
     7
 79
     5
170
     0
171
     0
290
     0
174
     0
 93
        1
 44
0.0
173
     0
291
     0
 45
0.0
  0
VISUALSTYLE
  5
32
102
{ACAD_REACTORS
330
2A
102
}
102
{ACAD_XDICTIONARY
360
6E
102
}
330
2A
100
AcDbVisualStyle
  2
Basic
 70
     7
 71
     1
 72
     0
 73
     1
 90
        0
 40
-0.6
 41
-30.0
 62
     5
 63
     7
421
 16777215
 74
     0
 91
        4
 64
     7
 65
   257
 75
     1
175
     1
 42
1.0
 92
        8
 66
     7
 43
1.0
 76
     1
 77
     6
 78
     2
 67
     7
 79
     5
170
     0
171
     0
290
     0
174
     0
 93
        1
 44
0.0
173
     0
291
     1
 45
0.0
  0
VISUALSTYLE
  5
36
102
{ACAD_REACTORS
330
2A
102
}
102
{ACAD_XDICTIONARY
360
76
102
}
330
2A
100
AcDbVisualStyle
  2
Brighten
 70
    12
 71
     2
 72
     2
 73
     0
 90
        0
 40
-0.6
 41
-30.0
 62
     5
 63
     7
421
 16777215
 74
     1
 91
        4
 64
     7
 65
   257
 75
     1
175
     1
 42
1.0
 92
        8
 66
     7
 43
1.0
 76
     1
 77
     6
 78
     2
 67
     7
 79
     5
170
     0
171
     0
290
     0
174
     0
 93
        1
 44
50.0
173
     0
291
     1
 45
0.0
  0
VISUALSTYLE
  5
3A
102
{ACAD_REACTORS
330
2A
102
}
102
{ACAD_XDICTIONARY
360
7E
102
}
330
2A
100
AcDbVisualStyle
  2
ColorChange
 70
    16
 71
     2
 72
     2
 73
     3
 90
        0
 40
-0.6
 41
-30.0
 62
     5
 63
     8
421
  8421504
 74
     1
 91
        4
 64
     7
 65
   257
 75
     1
175
     1
 42
1.0
 92
        8
 66
     8
424
  8421504
 43
1.0
 76
     1
 77
     6
 78
     2
 67
     7
 79
     5
170
     0
171
     0
290
     0
174
     0
 93
        1
 44
0.0
173
     0
291
     1
 45
0.0
  0
VISUALSTYLE
  5
34
102
{ACAD_REACTORS
330
2A
102
}
102
{ACAD_XDICTIONARY
360
72
102
}
330
2A
100
AcDbVisualStyle
  2
Conceptual
 70
     9
 71
     3
 72
     2
 73
     0
 90
        0
 40
-0.6
 41
-30.0
 62
     5
 63
     7
421
 16777215
 74
     2
 91
        2
 64
     7
 65
   257
 75
     1
175
     1
 42
40.0
 92
        8
 66
     7
 43
1.0
 76
     1
 77
     6
 78
     2
 67
     7
 79
     3
170
     0
171
     0
290
     0
174
     0
 93
        1
 44
0.0
173
     0
291
     0
 45
0.0
  0
VISUALSTYLE
  5
35
102
{ACAD_REACTORS
330
2A
102
}
102
{ACAD_XDICTIONARY
360
74
102
}
330
2A
100
AcDbVisualStyle
  2
Dim
 70
    11
 71
     2
 72
     2
 73
     0
 90
        0
 40
-0.6
 41
-30.0
 62
     5
 63
     7
421
 16777215
 74
     1
 91
        4
 64
     7
 65
   257
 75
     1
175
     1
 42
1.0
 92
        8
 66
     7
 43
1.0
 76
     1
 77
     6
 78
     2
 67
     7
 79
     5
170
     0
171
     0
290
     0
174
     0
 93
        1
 44
-50.0
173
     0
291
     1
 45
0.0
  0
VISUALSTYLE
  5
39
102
{ACAD_REACTORS
330
2A
102
}
102
{ACAD_XDICTIONARY
360
7C
102
}
330
2A
100
AcDbVisualStyle
  2
Facepattern
 70
    15
 71
     2
 72
     2
 73
     0
 90
        0
 40
-0.6
 41
-30.0
 62
     5
 63
     7
421
 16777215
 74
     1
 91
        4
 64
     7
 65
   257
 75
     1
175
     1
 42
1.0
 92
        8
 66
     7
 43
1.0
 76
     1
 77
     6
 78
     2
 67
     7
 79
     5
170
     0
171
     0
290
     0
174
     0
 93
        1
 44
0.0
173
     0
291
     1
 45
0.0
  0
VISUALSTYLE
  5
2B
102
{ACAD_REACTORS
330
2A
102
}
102
{ACAD_XDICTIONARY
360
60
102
}
330
2A
100
AcDbVisualStyle
  2
Flat
 70
     0
 71
     2
 72
     1
 73
     1
 90
        2
 40
-0.6
 41
30.0
 62
     5
 63
     7
421
 16777215
 74
     0
 91
        4
 64
     7
 65
   257
 75
     1
175
     1
 42
1.0
 92
        8
 66
     7
 43
1.0
 76
     1
 77
     6
 78
     2
 67
     7
 79
     5
170
     0
171
     0
290
     0
174
     0
 93
       13
 44
0.0
173
     0
291
     1
 45
0.0
  0
VISUALSTYLE
  5
2C
102
{ACAD_REACTORS
330
2A
102
}
102
{ACAD_XDICTIONARY
360
62
102
}
330
2A
100
AcDbVisualStyle
  2
FlatWithEdges
 70
     1
 71
     2
 72
     1
 73
     1
 90
        2
 40
-0.6
 41
30.0
 62
     5
 63
     7
421
 16777215
 74
     1
 91
        4
 64
     7
 65
   257
 75
     1
175
     1
 42
1.0
 92
        0
 66
   257
 43
1.0
 76
     1
 77
     6
 78
     2
 67
     7
 79
     5
170
     0
171
     0
290
     0
174
     0
 93
       13
 44
0.0
173
     0
291
     1
 45
0.0
  0
VISUALSTYLE
  5
2D
102
{ACAD_REACTORS
330
2A
102
}
102
{ACAD_XDICTIONARY
360
64
102
}
330
2A
100
AcDbVisualStyle
  2
Gouraud
 70
     2
 71
     2
 72
     2
 73
     1
 90
        2
 40
-0.6
 41
30.0
 62
     5
 63
     7
421
 16777215
 74
     0
 91
        4
 64
     7
 65
   257
 75
     1
175
     1
 42
1.0
 92
        0
 66
     7
 43
1.0
 76
     1
 77
     6
 78
     2
 67
     7
 79
     5
170
     0
171
     0
290
     0
174
     0
 93
       13
 44
0.0
173
     0
291
     1
 45
0.0
  0
VISUALSTYLE
  5
2E
102
{ACAD_REACTORS
330
2A
102
}
102
{ACAD_XDICTIONARY
360
66
102
}
330
2A
100
AcDbVisualStyle
  2
GouraudWithEdges
 70
     3
 71
     2
 72
     2
 73
     1
 90
        2
 40
-0.6
 41
30.0
 62
     5
 63
     7
421
 16777215
 74
     1
 91
        4
 64
     7
 65
   257
 75
     1
175
     1
 42
1.0
 92
        0
 66
   257
 43
1.0
 76
     1
 77
     6
 78
     2
 67
     7
 79
     5
170
     0
171
     0
290
     0
174
     0
 93
       13
 44
0.0
173
     0
291
     1
 45
0.0
  0
VISUALSTYLE
  5
38
102
{ACAD_REACTORS
330
2A
102
}
102
{ACAD_XDICTIONARY
360
7A
102
}
330
2A
100
AcDbVisualStyle
  2
Linepattern
 70
    14
 71
     2
 72
     2
 73
     0
 90
        0
 40
-0.6
 41
-30.0
 62
     5
 63
     7
421
 16777215
 74
     1
 91
        4
 64
     7
 65
   257
 75
     7
175
     7
 42
1.0
 92
        8
 66
     7
 43
1.0
 76
     1
 77
     6
 78
     2
 67
     7
 79
     5
170
     0
171
     0
290
     0
174
     0
 93
        1
 44
0.0
173
     0
291
     1
 45
0.0
  0
VISUALSTYLE
  5
33
102
{ACAD_REACTORS
330
2A
102
}
102
{ACAD_XDICTIONARY
360
70
102
}
330
2A
100
AcDbVisualStyle
  2
Realistic
 70
     8
 71
     2
 72
     2
 73
     0
 90
        0
 40
-0.6
 41
-30.0
 62
     5
 63
     7
421
 16777215
 74
     1
 91
        0
 64
     7
 65
   257
 75
     1
175
     1
 42
1.0
 92
        8
 66
     8
424
  7895160
 43
1.0
 76
     1
 77
     6
 78
     2
 67
     7
 79
     5
170
     0
171
     0
290
     0
174
     0
 93
       13
 44
0.0
173
     0
291
     0
 45
0.0
  0
VISUALSTYLE
  5
37
102
{ACAD_REACTORS
330
2A
102
}
102
{ACAD_XDICTIONARY
360
78
102
}
330
2A
100
AcDbVisualStyle
  2
Thicken
 70
    13
 71
     2
 72
     2
 73
     0
 90
        0
 40
-0.6
 41
-30.0
 62
     5
 63
     7
421
 16777215
 74
     1
 91
        4
 64
     7
 65
   257
 75
     1
175
     1
 42
1.0
 92
       12
 66
     7
 43
1.0
 76
     1
 77
     6
 78
     2
 67
     7
 79
     5
170
     0
171
     0
290
     0
174
     0
 93
        1
 44
0.0
173
     0
291
     1
 45
0.0
  0
DICTIONARY
  5
68
330
2F
100
AcDbDictionary
280
     1
281
     1
  3
ACAD_XREC_ROUNDTRIP
360
69
  0
DICTIONARY
  5
6C
330
31
100
AcDbDictionary
280
     1
281
     1
  3
ACAD_XREC_ROUNDTRIP
360
6D
  0
DICTIONARY
  5
6A
330
30
100
AcDbDictionary
280
     1
281
     1
  3
ACAD_XREC_ROUNDTRIP
360
6B
  0
DICTIONARY
  5
6E
330
32
100
AcDbDictionary
280
     1
281
     1
  3
ACAD_XREC_ROUNDTRIP
360
6F
  0
DICTIONARY
  5
76
330
36
100
AcDbDictionary
280
     1
281
     1
  3
ACAD_XREC_ROUNDTRIP
360
77
  0
DICTIONARY
  5
7E
330
3A
100
AcDbDictionary
280
     1
281
     1
  3
ACAD_XREC_ROUNDTRIP
360
7F
  0
DICTIONARY
  5
72
330
34
100
AcDbDictionary
280
     1
281
     1
  3
ACAD_XREC_ROUNDTRIP
360
73
  0
DICTIONARY
  5
74
330
35
100
AcDbDictionary
280
     1
281
     1
  3
ACAD_XREC_ROUNDTRIP
360
75
  0
DICTIONARY
  5
7C
330
39
100
AcDbDictionary
280
     1
281
     1
  3
ACAD_XREC_ROUNDTRIP
360
7D
  0
DICTIONARY
  5
60
330
2B
100
AcDbDictionary
280
     1
281
     1
  3
ACAD_XREC_ROUNDTRIP
360
61
  0
DICTIONARY
  5
62
330
2C
100
AcDbDictionary
280
     1
281
     1
  3
ACAD_XREC_ROUNDTRIP
360
63
  0
DICTIONARY
  5
64
330
2D
100
AcDbDictionary
280
     1
281
     1
  3
ACAD_XREC_ROUNDTRIP
360
65
  0
DICTIONARY
  5
66
330
2E
100
AcDbDictionary
280
     1
281
     1
  3
ACAD_XREC_ROUNDTRIP
360
67
  0
DICTIONARY
  5
7A
330
38
100
AcDbDictionary
280
     1
281
     1
  3
ACAD_XREC_ROUNDTRIP
360
7B
  0
DICTIONARY
  5
70
330
33
100
AcDbDictionary
280
     1
281
     1
  3
ACAD_XREC_ROUNDTRIP
360
71
  0
DICTIONARY
  5
78
330
37
100
AcDbDictionary
280
     1
281
     1
  3
ACAD_XREC_ROUNDTRIP
360
79
  0
XRECORD
  5
69
102
{ACAD_REACTORS
330
68
102
}
330
68
100
AcDbXrecord
280
     1
102
RTVSPropertyOp0
 70
     1
102
RTVSPropertyOp1
 70
     1
102
RTVSPropertyOp2
 70
     1
102
RTVSPropertyOp3
 70
     1
102
RTVSPropertyOp4
 70
     1
102
RTVSPropertyOp5
 70
     1
102
RTVSPropertyOp6
 70
     1
102
RTVSPropertyOp7
 70
     1
102
RTVSPropertyOp8
 70
     1
102
RTVSPropertyOp9
 70
     1
102
RTVSPropertyOp10
 70
     1
102
RTVSPropertyOp11
 70
     1
102
RTVSPropertyOp12
 70
     1
102
RTVSPropertyOp13
 70
     1
102
RTVSPropertyOp14
 70
     1
102
RTVSPropertyOp15
 70
     1
102
RTVSPropertyOp16
 70
     1
102
RTVSPropertyOp17
 70
     1
102
RTVSPropertyOp18
 70
     1
102
RTVSPropertyOp19
 70
     1
102
RTVSPropertyOp20
 70
     1
102
RTVSPropertyOp21
 70
     1
102
RTVSPropertyOp22
 70
     1
102
RTVSPropertyOp23
 70
     1
102
RTVSPropertyOp24
 70
     1
102
RTVSPropertyOp25
 70
     1
102
RTVSPropertyOp26
 70
     1
102
RTVSPropertyOp27
 70
     1
102
RTVSPropertyOp28
 70
     1
102
RTVSPropertyOp29
 70
     1
102
RTVSPropertyOp30
 70
     1
102
RTVSPropertyOp31
 70
     1
102
RTVSPropertyOp32
 70
     1
  0
XRECORD
  5
6D
102
{ACAD_REACTORS
330
6C
102
}
330
6C
100
AcDbXrecord
280
     1
102
RTVSPropertyOp0
 70
     1
102
RTVSPropertyOp1
 70
     1
102
RTVSPropertyOp2
 70
     1
102
RTVSPropertyOp3
 70
     1
102
RTVSPropertyOp4
 70
     1
102
RTVSPropertyOp5
 70
     1
102
RTVSPropertyOp6
 70
     1
102
RTVSPropertyOp7
 70
     1
102
RTVSPropertyOp8
 70
     1
102
RTVSPropertyOp9
 70
     1
102
RTVSPropertyOp10
 70
     1
102
RTVSPropertyOp11
 70
     1
102
RTVSPropertyOp12
 70
     1
102
RTVSPropertyOp13
 70
     1
102
RTVSPropertyOp14
 70
     1
102
RTVSPropertyOp15
 70
     1
102
RTVSPropertyOp16
 70
     1
102
RTVSPropertyOp17
 70
     1
102
RTVSPropertyOp18
 70
     1
102
RTVSPropertyOp19
 70
     1
102
RTVSPropertyOp20
 70
     1
102
RTVSPropertyOp21
 70
     1
102
RTVSPropertyOp22
 70
     1
102
RTVSPropertyOp23
 70
     1
102
RTVSPropertyOp24
 70
     1
102
RTVSPropertyOp25
 70
     1
102
RTVSPropertyOp26
 70
     1
102
RTVSPropertyOp27
 70
     1
102
RTVSPropertyOp28
 70
     1
102
RTVSPropertyOp29
 70
     1
102
RTVSPropertyOp30
 70
     1
102
RTVSPropertyOp31
 70
     1
102
RTVSPropertyOp32
 70
     1
  0
XRECORD
  5
6B
102
{ACAD_REACTORS
330
6A
102
}
330
6A
100
AcDbXrecord
280
     1
102
RTVSPropertyOp0
 70
     1
102
RTVSPropertyOp1
 70
     1
102
RTVSPropertyOp2
 70
     1
102
RTVSPropertyOp3
 70
     1
102
RTVSPropertyOp4
 70
     1
102
RTVSPropertyOp5
 70
     1
102
RTVSPropertyOp6
 70
     1
102
RTVSPropertyOp7
 70
     1
102
RTVSPropertyOp8
 70
     1
102
RTVSPropertyOp9
 70
     1
102
RTVSPropertyOp10
 70
     1
102
RTVSPropertyOp11
 70
     1
102
RTVSPropertyOp12
 70
     1
102
RTVSPropertyOp13
 70
     1
102
RTVSPropertyOp14
 70
     1
102
RTVSPropertyOp15
 70
     1
102
RTVSPropertyOp16
 70
     1
102
RTVSPropertyOp17
 70
     1
102
RTVSPropertyOp18
 70
     1
102
RTVSPropertyOp19
 70
     1
102
RTVSPropertyOp20
 70
     1
102
RTVSPropertyOp21
 70
     1
102
RTVSPropertyOp22
 70
     1
102
RTVSPropertyOp23
 70
     1
102
RTVSPropertyOp24
 70
     1
102
RTVSPropertyOp25
 70
     1
102
RTVSPropertyOp26
 70
     1
102
RTVSPropertyOp27
 70
     1
102
RTVSPropertyOp28
 70
     1
102
RTVSPropertyOp29
 70
     1
102
RTVSPropertyOp30
 70
     1
102
RTVSPropertyOp31
 70
     1
102
RTVSPropertyOp32
 70
     1
  0
XRECORD
  5
6F
102
{ACAD_REACTORS
330
6E
102
}
330
6E
100
AcDbXrecord
280
     1
102
RTVSPropertyOp0
 70
     1
102
RTVSPropertyOp1
 70
     1
102
RTVSPropertyOp2
 70
     1
102
RTVSPropertyOp3
 70
     1
102
RTVSPropertyOp4
 70
     1
102
RTVSPropertyOp5
 70
     1
102
RTVSPropertyOp6
 70
     1
102
RTVSPropertyOp7
 70
     1
102
RTVSPropertyOp8
 70
     1
102
RTVSPropertyOp9
 70
     1
102
RTVSPropertyOp10
 70
     1
102
RTVSPropertyOp11
 70
     1
102
RTVSPropertyOp12
 70
     1
102
RTVSPropertyOp13
 70
     1
102
RTVSPropertyOp14
 70
     1
102
RTVSPropertyOp15
 70
     1
102
RTVSPropertyOp16
 70
     1
102
RTVSPropertyOp17
 70
     1
102
RTVSPropertyOp18
 70
     1
102
RTVSPropertyOp19
 70
     1
102
RTVSPropertyOp20
 70
     1
102
RTVSPropertyOp21
 70
     1
102
RTVSPropertyOp22
 70
     1
102
RTVSPropertyOp23
 70
     1
102
RTVSPropertyOp24
 70
     1
102
RTVSPropertyOp25
 70
     1
102
RTVSPropertyOp26
 70
     1
102
RTVSPropertyOp27
 70
     1
102
RTVSPropertyOp28
 70
     1
102
RTVSPropertyOp29
 70
     1
102
RTVSPropertyOp30
 70
     1
102
RTVSPropertyOp31
 70
     1
102
RTVSPropertyOp32
 70
     1
  0
XRECORD
  5
77
102
{ACAD_REACTORS
330
76
102
}
330
76
100
AcDbXrecord
280
     1
102
RTVSPropertyOp0
 70
     1
102
RTVSPropertyOp1
 70
     1
102
RTVSPropertyOp2
 70
     1
102
RTVSPropertyOp3
 70
     1
102
RTVSPropertyOp4
 70
     1
102
RTVSPropertyOp5
 70
     1
102
RTVSPropertyOp6
 70
     1
102
RTVSPropertyOp7
 70
     1
102
RTVSPropertyOp8
 70
     1
102
RTVSPropertyOp9
 70
     1
102
RTVSPropertyOp10
 70
     1
102
RTVSPropertyOp11
 70
     1
102
RTVSPropertyOp12
 70
     1
102
RTVSPropertyOp13
 70
     1
102
RTVSPropertyOp14
 70
     1
102
RTVSPropertyOp15
 70
     1
102
RTVSPropertyOp16
 70
     1
102
RTVSPropertyOp17
 70
     1
102
RTVSPropertyOp18
 70
     1
102
RTVSPropertyOp19
 70
     1
102
RTVSPropertyOp20
 70
     1
102
RTVSPropertyOp21
 70
     1
102
RTVSPropertyOp22
 70
     1
102
RTVSPropertyOp23
 70
     1
102
RTVSPropertyOp24
 70
     1
102
RTVSPropertyOp25
 70
     1
102
RTVSPropertyOp26
 70
     1
102
RTVSPropertyOp27
 70
     1
102
RTVSPropertyOp28
 70
     1
102
RTVSPropertyOp29
 70
     1
102
RTVSPropertyOp30
 70
     1
102
RTVSPropertyOp31
 70
     1
102
RTVSPropertyOp32
 70
     1
  0
XRECORD
  5
7F
102
{ACAD_REACTORS
330
7E
102
}
330
7E
100
AcDbXrecord
280
     1
102
RTVSPropertyOp0
 70
     1
102
RTVSPropertyOp1
 70
     1
102
RTVSPropertyOp2
 70
     1
102
RTVSPropertyOp3
 70
     1
102
RTVSPropertyOp4
 70
     1
102
RTVSPropertyOp5
 70
     1
102
RTVSPropertyOp6
 70
     1
102
RTVSPropertyOp7
 70
     1
102
RTVSPropertyOp8
 70
     1
102
RTVSPropertyOp9
 70
     1
102
RTVSPropertyOp10
 70
     1
102
RTVSPropertyOp11
 70
     1
102
RTVSPropertyOp12
 70
     1
102
RTVSPropertyOp13
 70
     1
102
RTVSPropertyOp14
 70
     1
102
RTVSPropertyOp15
 70
     1
102
RTVSPropertyOp16
 70
     1
102
RTVSPropertyOp17
 70
     1
102
RTVSPropertyOp18
 70
     1
102
RTVSPropertyOp19
 70
     1
102
RTVSPropertyOp20
 70
     1
102
RTVSPropertyOp21
 70
     1
102
RTVSPropertyOp22
 70
     1
102
RTVSPropertyOp23
 70
     1
102
RTVSPropertyOp24
 70
     1
102
RTVSPropertyOp25
 70
     1
102
RTVSPropertyOp26
 70
     1
102
RTVSPropertyOp27
 70
     1
102
RTVSPropertyOp28
 70
     1
102
RTVSPropertyOp29
 70
     1
102
RTVSPropertyOp30
 70
     1
102
RTVSPropertyOp31
 70
     1
102
RTVSPropertyOp32
 70
     1
  0
XRECORD
  5
73
102
{ACAD_REACTORS
330
72
102
}
330
72
100
AcDbXrecord
280
     1
102
RTVSPropertyOp0
 70
     1
102
RTVSPropertyOp1
 70
     1
102
RTVSPropertyOp2
 70
     1
102
RTVSPropertyOp3
 70
     1
102
RTVSPropertyOp4
 70
     1
102
RTVSPropertyOp5
 70
     1
102
RTVSPropertyOp6
 70
     1
102
RTVSPropertyOp7
 70
     1
102
RTVSPropertyOp8
 70
     1
102
RTVSPropertyOp9
 70
     1
102
RTVSPropertyOp10
 70
     1
102
RTVSPropertyOp11
 70
     1
102
RTVSPropertyOp12
 70
     1
102
RTVSPropertyOp13
 70
     1
102
RTVSPropertyOp14
 70
     1
102
RTVSPropertyOp15
 70
     1
102
RTVSPropertyOp16
 70
     1
102
RTVSPropertyOp17
 70
     1
102
RTVSPropertyOp18
 70
     1
102
RTVSPropertyOp19
 70
     1
102
RTVSPropertyOp20
 70
     1
102
RTVSPropertyOp21
 70
     1
102
RTVSPropertyOp22
 70
     1
102
RTVSPropertyOp23
 70
     1
102
RTVSPropertyOp24
 70
     1
102
RTVSPropertyOp25
 70
     1
102
RTVSPropertyOp26
 70
     1
102
RTVSPropertyOp27
 70
     1
102
RTVSPropertyOp28
 70
     1
102
RTVSPropertyOp29
 70
     1
102
RTVSPropertyOp30
 70
     1
102
RTVSPropertyOp31
 70
     1
102
RTVSPropertyOp32
 70
     1
  0
XRECORD
  5
75
102
{ACAD_REACTORS
330
74
102
}
330
74
100
AcDbXrecord
280
     1
102
RTVSPropertyOp0
 70
     1
102
RTVSPropertyOp1
 70
     1
102
RTVSPropertyOp2
 70
     1
102
RTVSPropertyOp3
 70
     1
102
RTVSPropertyOp4
 70
     1
102
RTVSPropertyOp5
 70
     1
102
RTVSPropertyOp6
 70
     1
102
RTVSPropertyOp7
 70
     1
102
RTVSPropertyOp8
 70
     1
102
RTVSPropertyOp9
 70
     1
102
RTVSPropertyOp10
 70
     1
102
RTVSPropertyOp11
 70
     1
102
RTVSPropertyOp12
 70
     1
102
RTVSPropertyOp13
 70
     1
102
RTVSPropertyOp14
 70
     1
102
RTVSPropertyOp15
 70
     1
102
RTVSPropertyOp16
 70
     1
102
RTVSPropertyOp17
 70
     1
102
RTVSPropertyOp18
 70
     1
102
RTVSPropertyOp19
 70
     1
102
RTVSPropertyOp20
 70
     1
102
RTVSPropertyOp21
 70
     1
102
RTVSPropertyOp22
 70
     1
102
RTVSPropertyOp23
 70
     1
102
RTVSPropertyOp24
 70
     1
102
RTVSPropertyOp25
 70
     1
102
RTVSPropertyOp26
 70
     1
102
RTVSPropertyOp27
 70
     1
102
RTVSPropertyOp28
 70
     1
102
RTVSPropertyOp29
 70
     1
102
RTVSPropertyOp30
 70
     1
102
RTVSPropertyOp31
 70
     1
102
RTVSPropertyOp32
 70
     1
  0
XRECORD
  5
7D
102
{ACAD_REACTORS
330
7C
102
}
330
7C
100
AcDbXrecord
280
     1
102
RTVSPropertyOp0
 70
     1
102
RTVSPropertyOp1
 70
     1
102
RTVSPropertyOp2
 70
     1
102
RTVSPropertyOp3
 70
     1
102
RTVSPropertyOp4
 70
     1
102
RTVSPropertyOp5
 70
     1
102
RTVSPropertyOp6
 70
     1
102
RTVSPropertyOp7
 70
     1
102
RTVSPropertyOp8
 70
     1
102
RTVSPropertyOp9
 70
     1
102
RTVSPropertyOp10
 70
     1
102
RTVSPropertyOp11
 70
     1
102
RTVSPropertyOp12
 70
     1
102
RTVSPropertyOp13
 70
     1
102
RTVSPropertyOp14
 70
     1
102
RTVSPropertyOp15
 70
     1
102
RTVSPropertyOp16
 70
     1
102
RTVSPropertyOp17
 70
     1
102
RTVSPropertyOp18
 70
     1
102
RTVSPropertyOp19
 70
     1
102
RTVSPropertyOp20
 70
     1
102
RTVSPropertyOp21
 70
     1
102
RTVSPropertyOp22
 70
     1
102
RTVSPropertyOp23
 70
     1
102
RTVSPropertyOp24
 70
     1
102
RTVSPropertyOp25
 70
     1
102
RTVSPropertyOp26
 70
     1
102
RTVSPropertyOp27
 70
     1
102
RTVSPropertyOp28
 70
     1
102
RTVSPropertyOp29
 70
     1
102
RTVSPropertyOp30
 70
     1
102
RTVSPropertyOp31
 70
     1
102
RTVSPropertyOp32
 70
     1
  0
XRECORD
  5
61
102
{ACAD_REACTORS
330
60
102
}
330
60
100
AcDbXrecord
280
     1
102
RTVSPropertyOp0
 70
     1
102
RTVSPropertyOp1
 70
     1
102
RTVSPropertyOp2
 70
     1
102
RTVSPropertyOp3
 70
     1
102
RTVSPropertyOp4
 70
     1
102
RTVSPropertyOp5
 70
     1
102
RTVSPropertyOp6
 70
     1
102
RTVSPropertyOp7
 70
     1
102
RTVSPropertyOp8
 70
     1
102
RTVSPropertyOp9
 70
     1
102
RTVSPropertyOp10
 70
     1
102
RTVSPropertyOp11
 70
     1
102
RTVSPropertyOp12
 70
     1
102
RTVSPropertyOp13
 70
     1
102
RTVSPropertyOp14
 70
     1
102
RTVSPropertyOp15
 70
     1
102
RTVSPropertyOp16
 70
     1
102
RTVSPropertyOp17
 70
     1
102
RTVSPropertyOp18
 70
     1
102
RTVSPropertyOp19
 70
     1
102
RTVSPropertyOp20
 70
     1
102
RTVSPropertyOp21
 70
     1
102
RTVSPropertyOp22
 70
     1
102
RTVSPropertyOp23
 70
     1
102
RTVSPropertyOp24
 70
     1
102
RTVSPropertyOp25
 70
     1
102
RTVSPropertyOp26
 70
     1
102
RTVSPropertyOp27
 70
     1
102
RTVSPropertyOp28
 70
     1
102
RTVSPropertyOp29
 70
     1
102
RTVSPropertyOp30
 70
     1
102
RTVSPropertyOp31
 70
     1
102
RTVSPropertyOp32
 70
     1
  0
XRECORD
  5
63
102
{ACAD_REACTORS
330
62
102
}
330
62
100
AcDbXrecord
280
     1
102
RTVSPropertyOp0
 70
     1
102
RTVSPropertyOp1
 70
     1
102
RTVSPropertyOp2
 70
     1
102
RTVSPropertyOp3
 70
     1
102
RTVSPropertyOp4
 70
     1
102
RTVSPropertyOp5
 70
     1
102
RTVSPropertyOp6
 70
     1
102
RTVSPropertyOp7
 70
     1
102
RTVSPropertyOp8
 70
     1
102
RTVSPropertyOp9
 70
     1
102
RTVSPropertyOp10
 70
     1
102
RTVSPropertyOp11
 70
     1
102
RTVSPropertyOp12
 70
     1
102
RTVSPropertyOp13
 70
     1
102
RTVSPropertyOp14
 70
     1
102
RTVSPropertyOp15
 70
     1
102
RTVSPropertyOp16
 70
     1
102
RTVSPropertyOp17
 70
     1
102
RTVSPropertyOp18
 70
     1
102
RTVSPropertyOp19
 70
     1
102
RTVSPropertyOp20
 70
     1
102
RTVSPropertyOp21
 70
     1
102
RTVSPropertyOp22
 70
     1
102
RTVSPropertyOp23
 70
     1
102
RTVSPropertyOp24
 70
     1
102
RTVSPropertyOp25
 70
     1
102
RTVSPropertyOp26
 70
     1
102
RTVSPropertyOp27
 70
     1
102
RTVSPropertyOp28
 70
     1
102
RTVSPropertyOp29
 70
     1
102
RTVSPropertyOp30
 70
     1
102
RTVSPropertyOp31
 70
     1
102
RTVSPropertyOp32
 70
     1
  0
XRECORD
  5
65
102
{ACAD_REACTORS
330
64
102
}
330
64
100
AcDbXrecord
280
     1
102
RTVSPropertyOp0
 70
     1
102
RTVSPropertyOp1
 70
     1
102
RTVSPropertyOp2
 70
     1
102
RTVSPropertyOp3
 70
     1
102
RTVSPropertyOp4
 70
     1
102
RTVSPropertyOp5
 70
     1
102
RTVSPropertyOp6
 70
     1
102
RTVSPropertyOp7
 70
     1
102
RTVSPropertyOp8
 70
     1
102
RTVSPropertyOp9
 70
     1
102
RTVSPropertyOp10
 70
     1
102
RTVSPropertyOp11
 70
     1
102
RTVSPropertyOp12
 70
     1
102
RTVSPropertyOp13
 70
     1
102
RTVSPropertyOp14
 70
     1
102
RTVSPropertyOp15
 70
     1
102
RTVSPropertyOp16
 70
     1
102
RTVSPropertyOp17
 70
     1
102
RTVSPropertyOp18
 70
     1
102
RTVSPropertyOp19
 70
     1
102
RTVSPropertyOp20
 70
     1
102
RTVSPropertyOp21
 70
     1
102
RTVSPropertyOp22
 70
     1
102
RTVSPropertyOp23
 70
     1
102
RTVSPropertyOp24
 70
     1
102
RTVSPropertyOp25
 70
     1
102
RTVSPropertyOp26
 70
     1
102
RTVSPropertyOp27
 70
     1
102
RTVSPropertyOp28
 70
     1
102
RTVSPropertyOp29
 70
     1
102
RTVSPropertyOp30
 70
     1
102
RTVSPropertyOp31
 70
     1
102
RTVSPropertyOp32
 70
     1
  0
XRECORD
  5
67
102
{ACAD_REACTORS
330
66
102
}
330
66
100
AcDbXrecord
280
     1
102
RTVSPropertyOp0
 70
     1
102
RTVSPropertyOp1
 70
     1
102
RTVSPropertyOp2
 70
     1
102
RTVSPropertyOp3
 70
     1
102
RTVSPropertyOp4
 70
     1
102
RTVSPropertyOp5
 70
     1
102
RTVSPropertyOp6
 70
     1
102
RTVSPropertyOp7
 70
     1
102
RTVSPropertyOp8
 70
     1
102
RTVSPropertyOp9
 70
     1
102
RTVSPropertyOp10
 70
     1
102
RTVSPropertyOp11
 70
     1
102
RTVSPropertyOp12
 70
     1
102
RTVSPropertyOp13
 70
     1
102
RTVSPropertyOp14
 70
     1
102
RTVSPropertyOp15
 70
     1
102
RTVSPropertyOp16
 70
     1
102
RTVSPropertyOp17
 70
     1
102
RTVSPropertyOp18
 70
     1
102
RTVSPropertyOp19
 70
     1
102
RTVSPropertyOp20
 70
     1
102
RTVSPropertyOp21
 70
     1
102
RTVSPropertyOp22
 70
     1
102
RTVSPropertyOp23
 70
     1
102
RTVSPropertyOp24
 70
     1
102
RTVSPropertyOp25
 70
     1
102
RTVSPropertyOp26
 70
     1
102
RTVSPropertyOp27
 70
     1
102
RTVSPropertyOp28
 70
     1
102
RTVSPropertyOp29
 70
     1
102
RTVSPropertyOp30
 70
     1
102
RTVSPropertyOp31
 70
     1
102
RTVSPropertyOp32
 70
     1
  0
XRECORD
  5
7B
102
{ACAD_REACTORS
330
7A
102
}
330
7A
100
AcDbXrecord
280
     1
102
RTVSPropertyOp0
 70
     1
102
RTVSPropertyOp1
 70
     1
102
RTVSPropertyOp2
 70
     1
102
RTVSPropertyOp3
 70
     1
102
RTVSPropertyOp4
 70
     1
102
RTVSPropertyOp5
 70
     1
102
RTVSPropertyOp6
 70
     1
102
RTVSPropertyOp7
 70
     1
102
RTVSPropertyOp8
 70
     1
102
RTVSPropertyOp9
 70
     1
102
RTVSPropertyOp10
 70
     1
102
RTVSPropertyOp11
 70
     1
102
RTVSPropertyOp12
 70
     1
102
RTVSPropertyOp13
 70
     1
102
RTVSPropertyOp14
 70
     1
102
RTVSPropertyOp15
 70
     1
102
RTVSPropertyOp16
 70
     1
102
RTVSPropertyOp17
 70
     1
102
RTVSPropertyOp18
 70
     1
102
RTVSPropertyOp19
 70
     1
102
RTVSPropertyOp20
 70
     1
102
RTVSPropertyOp21
 70
     1
102
RTVSPropertyOp22
 70
     1
102
RTVSPropertyOp23
 70
     1
102
RTVSPropertyOp24
 70
     1
102
RTVSPropertyOp25
 70
     1
102
RTVSPropertyOp26
 70
     1
102
RTVSPropertyOp27
 70
     1
102
RTVSPropertyOp28
 70
     1
102
RTVSPropertyOp29
 70
     1
102
RTVSPropertyOp30
 70
     1
102
RTVSPropertyOp31
 70
     1
102
RTVSPropertyOp32
 70
     1
  0
XRECORD
  5
71
102
{ACAD_REACTORS
330
70
102
}
330
70
100
AcDbXrecord
280
     1
102
RTVSPropertyOp0
 70
     1
102
RTVSPropertyOp1
 70
     1
102
RTVSPropertyOp2
 70
     1
102
RTVSPropertyOp3
 70
     1
102
RTVSPropertyOp4
 70
     1
102
RTVSPropertyOp5
 70
     1
102
RTVSPropertyOp6
 70
     1
102
RTVSPropertyOp7
 70
     1
102
RTVSPropertyOp8
 70
     1
102
RTVSPropertyOp9
 70
     1
102
RTVSPropertyOp10
 70
     1
102
RTVSPropertyOp11
 70
     1
102
RTVSPropertyOp12
 70
     1
102
RTVSPropertyOp13
 70
     1
102
RTVSPropertyOp14
 70
     1
102
RTVSPropertyOp15
 70
     1
102
RTVSPropertyOp16
 70
     1
102
RTVSPropertyOp17
 70
     1
102
RTVSPropertyOp18
 70
     1
102
RTVSPropertyOp19
 70
     1
102
RTVSPropertyOp20
 70
     1
102
RTVSPropertyOp21
 70
     1
102
RTVSPropertyOp22
 70
     1
102
RTVSPropertyOp23
 70
     1
102
RTVSPropertyOp24
 70
     1
102
RTVSPropertyOp25
 70
     1
102
RTVSPropertyOp26
 70
     1
102
RTVSPropertyOp27
 70
     1
102
RTVSPropertyOp28
 70
     1
102
RTVSPropertyOp29
 70
     1
102
RTVSPropertyOp30
 70
     1
102
RTVSPropertyOp31
 70
     1
102
RTVSPropertyOp32
 70
     1
  0
XRECORD
  5
79
102
{ACAD_REACTORS
330
78
102
}
330
78
100
AcDbXrecord
280
     1
102
RTVSPropertyOp0
 70
     1
102
RTVSPropertyOp1
 70
     1
102
RTVSPropertyOp2
 70
     1
102
RTVSPropertyOp3
 70
     1
102
RTVSPropertyOp4
 70
     1
102
RTVSPropertyOp5
 70
     1
102
RTVSPropertyOp6
 70
     1
102
RTVSPropertyOp7
 70
     1
102
RTVSPropertyOp8
 70
     1
102
RTVSPropertyOp9
 70
     1
102
RTVSPropertyOp10
 70
     1
102
RTVSPropertyOp11
 70
     1
102
RTVSPropertyOp12
 70
     1
102
RTVSPropertyOp13
 70
     1
102
RTVSPropertyOp14
 70
     1
102
RTVSPropertyOp15
 70
     1
102
RTVSPropertyOp16
 70
     1
102
RTVSPropertyOp17
 70
     1
102
RTVSPropertyOp18
 70
     1
102
RTVSPropertyOp19
 70
     1
102
RTVSPropertyOp20
 70
     1
102
RTVSPropertyOp21
 70
     1
102
RTVSPropertyOp22
 70
     1
102
RTVSPropertyOp23
 70
     1
102
RTVSPropertyOp24
 70
     1
102
RTVSPropertyOp25
 70
     1
102
RTVSPropertyOp26
 70
     1
102
RTVSPropertyOp27
 70
     1
102
RTVSPropertyOp28
 70
     1
102
RTVSPropertyOp29
 70
     1
102
RTVSPropertyOp30
 70
     1
102
RTVSPropertyOp31
 70
     1
102
RTVSPropertyOp32
 70
     1
  0
ENDSEC
  0
EOF
