  0
SECTION
  2
HEADER
  9
$ACADVER
  1
AC1021
  9
$ACADMAINTVER
 70
    25
  9
$DWGCODEPAGE
  3
ANSI_1252
  9
$INSBASE
 10
0.0
 20
0.0
 30
0.0
  9
$EXTMIN
 10
-51.2316
 20
-75.0461
 30
0.0
  9
$EXTMAX
 10
59.5823
 20
102.9462
 30
0.0
  9
$LIMMIN
 10
0.0
 20
0.0
  9
$LIMMAX
 10
12.0
 20
9.0
  9
$ORTHOMODE
 70
     0
  9
$REGENMODE
 70
     1
  9
$FILLMODE
 70
     1
  9
$QTEXTMODE
 70
     0
  9
$MIRRTEXT
 70
     1
  9
$LTSCALE
 40
1.0
  9
$ATTMODE
 70
     1
  9
$TEXTSIZE
 40
0.2
  9
$TRACEWID
 40
0.05
  9
$TEXTSTYLE
  7
Standard
  9
$CLAYER
  8
0
  9
$CELTYPE
  6
ByLayer
  9
$CECOLOR
 62
   256
  9
$CELTSCALE
 40
1.0
  9
$DISPSILH
 70
     0
  9
$DIMSCALE
 40
1.0
  9
$DIMASZ
 40
0.18
  9
$DIMEXO
 40
0.0625
  9
$DIMDLI
 40
0.38
  9
$DIMRND
 40
0.0
  9
$DIMDLE
 40
0.0
  9
$DIMEXE
 40
0.18
  9
$DIMTP
 40
0.0
  9
$DIMTM
 40
0.0
  9
$DIMTXT
 40
0.18
  9
$DIMCEN
 40
0.09
  9
$DIMTSZ
 40
0.0
  9
$DIMTOL
 70
     0
  9
$DIMLIM
 70
     0
  9
$DIMTIH
 70
     1
  9
$DIMTOH
 70
     1
  9
$DIMSE1
 70
     0
  9
$DIMSE2
 70
     0
  9
$DIMTAD
 70
     0
  9
$DIMZIN
 70
     0
  9
$DIMBLK
  1

  9
$DIMASO
 70
     1
  9
$DIMSHO
 70
     1
  9
$DIMPOST
  1

  9
$DIMAPOST
  1

  9
$DIMALT
 70
     0
  9
$DIMALTD
 70
     2
  9
$DIMALTF
 40
25.4
  9
$DIMLFAC
 40
1.0
  9
$DIMTOFL
 70
     0
  9
$DIMTVP
 40
0.0
  9
$DIMTIX
 70
     0
  9
$DIMSOXD
 70
     0
  9
$DIMSAH
 70
     0
  9
$DIMBLK1
  1

  9
$DIMBLK2
  1

  9
$DIMSTYLE
  2
Standard
  9
$DIMCLRD
 70
     0
  9
$DIMCLRE
 70
     0
  9
$DIMCLRT
 70
     0
  9
$DIMTFAC
 40
1.0
  9
$DIMGAP
 40
0.09
  9
$DIMJUST
 70
     0
  9
$DIMSD1
 70
     0
  9
$DIMSD2
 70
     0
  9
$DIMTOLJ
 70
     1
  9
$DIMTZIN
 70
     0
  9
$DIMALTZ
 70
     0
  9
$DIMALTTZ
 70
     0
  9
$DIMUPT
 70
     0
  9
$DIMDEC
 70
     4
  9
$DIMTDEC
 70
     4
  9
$DIMALTU
 70
     2
  9
$DIMALTTD
 70
     2
  9
$DIMTXSTY
  7
Standard
  9
$DIMAUNIT
 70
     0
  9
$DIMADEC
 70
     0
  9
$DIMALTRND
 40
0.0
  9
$DIMAZIN
 70
     0
  9
$DIMDSEP
 70
    46
  9
$DIMATFIT
 70
     3
  9
$DIMFRAC
 70
     0
  9
$DIMLDRBLK
  1

  9
$DIMLUNIT
 70
     2
  9
$DIMLWD
 70
    -2
  9
$DIMLWE
 70
    -2
  9
$DIMTMOVE
 70
     0
  9
$DIMFXL
 40
1.0
  9
$DIMFXLON
 70
     0
  9
$DIMJOGANG
 40
0.7853981633974483
  9
$DIMTFILL
 70
     0
  9
$DIMTFILLCLR
 70
     0
  9
$DIMARCSYM
 70
     0
  9
$DIMLTYPE
  6

  9
$DIMLTEX1
  6

  9
$DIMLTEX2
  6

  9
$LUNITS
 70
     2
  9
$LUPREC
 70
     4
  9
$SKETCHINC
 40
0.1
  9
$FILLETRAD
 40
0.5
  9
$AUNITS
 70
     0
  9
$AUPREC
 70
     0
  9
$MENU
  1
.
  9
$ELEVATION
 40
0.0
  9
$PELEVATION
 40
0.0
  9
$THICKNESS
 40
0.0
  9
$LIMCHECK
 70
     0
  9
$CHAMFERA
 40
0.5
  9
$CHAMFERB
 40
0.5
  9
$CHAMFERC
 40
1.0
  9
$CHAMFERD
 40
0.0
  9
$SKPOLY
 70
     0
  9
$TDCREATE
 40
2458492.804807407
  9
$TDUCREATE
 40
2458492.804807407
  9
$TDUPDATE
 40
2458492.804807708
  9
$TDUUPDATE
 40
2458492.804807708
  9
$TDINDWG
 40
0.0000000116
  9
$TDUSRTIMER
 40
0.0000000116
  9
$USRTIMER
 70
     1
  9
$ANGBASE
 50
0.0
  9
$ANGDIR
 70
     0
  9
$PDMODE
 70
     0
  9
$PDSIZE
 40
0.0
  9
$PLINEWID
 40
0.0
  9
$SPLFRAME
 70
     0
  9
$SPLINETYPE
 70
     6
  9
$SPLINESEGS
 70
     8
  9
$HANDSEED
  5
82
  9
$SURFTAB1
 70
     6
  9
$SURFTAB2
 70
     6
  9
$SURFTYPE
 70
     6
  9
$SURFU
 70
     6
  9
$SURFV
 70
     6
  9
$UCSBASE
  2

  9
$UCSNAME
  2

  9
$UCSORG
 10
0.0
 20
0.0
 30
0.0
  9
$UCSXDIR
 10
1.0
 20
0.0
 30
0.0
  9
$UCSYDIR
 10
0.0
 20
1.0
 30
0.0
  9
$UCSORTHOREF
  2

  9
$UCSORTHOVIEW
 70
     0
  9
$UCSORGTOP
 10
0.0
 20
0.0
 30
0.0
  9
$UCSORGBOTTOM
 10
0.0
 20
0.0
 30
0.0
  9
$UCSORGLEFT
 10
0.0
 20
0.0
 30
0.0
  9
$UCSORGRIGHT
 10
0.0
 20
0.0
 30
0.0
  9
$UCSORGFRONT
 10
0.0
 20
0.0
 30
0.0
  9
$UCSORGBACK
 10
0.0
 20
0.0
 30
0.0
  9
$PUCSBASE
  2

  9
$PUCSNAME
  2

  9
$PUCSORG
 10
0.0
 20
0.0
 30
0.0
  9
$PUCSXDIR
 10
1.0
 20
0.0
 30
0.0
  9
$PUCSYDIR
 10
0.0
 20
1.0
 30
0.0
  9
$PUCSORTHOREF
  2

  9
$PUCSORTHOVIEW
 70
     0
  9
$PUCSORGTOP
 10
0.0
 20
0.0
 30
0.0
  9
$PUCSORGBOTTOM
 10
0.0
 20
0.0
 30
0.0
  9
$PUCSORGLEFT
 10
0.0
 20
0.0
 30
0.0
  9
$PUCSORGRIGHT
 10
0.0
 20
0.0
 30
0.0
  9
$PUCSORGFRONT
 10
0.0
 20
0.0
 30
0.0
  9
$PUCSORGBACK
 10
0.0
 20
0.0
 30
0.0
  9
$USERI1
 70
     0
  9
$USERI2
 70
     0
  9
$USERI3
 70
     0
  9
$USERI4
 70
     0
  9
$USERI5
 70
     0
  9
$USERR1
 40
0.0
  9
$USERR2
 40
0.0
  9
$USERR3
 40
0.0
  9
$USERR4
 40
0.0
  9
$USERR5
 40
0.0
  9
$WORLDVIEW
 70
     1
  9
$SHADEDGE
 70
     3
  9
$SHADEDIF
 70
    70
  9
$TILEMODE
 70
     1
  9
$MAXACTVP
 70
    64
  9
$PINSBASE
 10
0.0
 20
0.0
 30
0.0
  9
$PLIMCHECK
 70
     0
  9
$PEXTMIN
 10
1.000000000000000E+20
 20
1.000000000000000E+20
 30
1.000000000000000E+20
  9
$PEXTMAX
 10
-1.000000000000000E+20
 20
-1.000000000000000E+20
 30
-1.000000000000000E+20
  9
$PLIMMIN
 10
0.0
 20
0.0
  9
$PLIMMAX
 10
12.0
 20
9.0
  9
$UNITMODE
 70
     0
  9
$VISRETAIN
 70
     1
  9
$PLINEGEN
 70
     0
  9
$PSLTSCALE
 70
     1
  9
$TREEDEPTH
 70
  3020
  9
$CMLSTYLE
  2
Standard
  9
$CMLJUST
 70
     0
  9
$CMLSCALE
 40
1.0
  9
$PROXYGRAPHICS
 70
     1
  9
$MEASUREMENT
 70
     0
  9
$CELWEIGHT
370
    -1
  9
$ENDCAPS
280
     0
  9
$JOINSTYLE
280
     0
  9
$LWDISPLAY
290
     0
  9
$INSUNITS
 70
     4
  9
$HYPERLINKBASE
  1

  9
$STYLESHEET
  1

  9
$XEDIT
290
     1
  9
$CEPSNTYPE
380
     0
  9
$PSTYLEMODE
290
     1
  9
$FINGERPRINTGUID
  2
{C90ED8DF-8DFC-4E02-B190-E0F1997BF3B0}
  9
$VERSIONGUID
  2
{FAEB1C32-E019-11D5-929B-00C0DF256EC4}
  9
$EXTNAMES
290
     1
  9
$PSVPSCALE
 40
0.0
  9
$OLESTARTUP
290
     0
  9
$SORTENTS
280
   127
  9
$INDEXCTL
280
     0
  9
$HIDETEXT
280
     1
  9
$XCLIPFRAME
290
     0
  9
$HALOGAP
280
     0
  9
$OBSCOLOR
 70
   257
  9
$OBSLTYPE
280
     0
  9
$INTERSECTIONDISPLAY
280
     0
  9
$INTERSECTIONCOLOR
 70
   257
  9
$DIMASSOC
280
     2
  9
$PROJECTNAME
  1

  9
$CAMERADISPLAY
290
     0
  9
$LENSLENGTH
 40
50.0
  9
$CAMERAHEIGHT
 40
0.0
  9
$STEPSPERSEC
 40
2.0
  9
$STEPSIZE
 40
6.0
  9
$3DDWFPREC
 40
2.0
  9
$PSOLWIDTH
 40
0.25
  9
$PSOLHEIGHT
 40
4.0
  9
$LOFTANG1
 40
1.570796326794897
  9
$LOFTANG2
 40
1.570796326794897
  9
$LOFTMAG1
 40
0.0
  9
$LOFTMAG2
 40
0.0
  9
$LOFTPARAM
 70
     7
  9
$LOFTNORMALS
280
     1
  9
$LATITUDE
 40
37.795
  9
$LONGITUDE
 40
-122.394
  9
$NORTHDIRECTION
 40
0.0
  9
$TIMEZONE
 70
 -8000
  9
$LIGHTGLYPHDISPLAY
280
     1
  9
$TILEMODELIGHTSYNCH
280
     1
  9
$SOLIDHIST
280
     1
  9
$SHOWHIST
280
     1
  9
$DWFFRAME
280
     2
  9
$DGNFRAME
280
     2
  9
$REALWORLDSCALE
290
     1
  9
$INTERFERECOLOR
 62
   256
  9
$CSHADOW
280
     0
  9
$SHADOWPLANELOCATION
 40
0.0
  0
ENDSEC
  0
SECTION
  2
CLASSES
  0
CLASS
  1
ACDBDICTIONARYWDFLT
  2
AcDbDictionaryWithDefault
  3
ObjectDBX Classes
 90
        0
 91
        4
280
     0
281
     0
  0
CLASS
  1
VISUALSTYLE
  2
AcDbVisualStyle
  3
ObjectDBX Classes
 90
     4095
 91
        4
280
     0
281
     0
  0
CLASS
  1
MATERIAL
  2
AcDbMaterial
  3
ObjectDBX Classes
 90
     1153
 91
        4
280
     0
281
     0
  0
ENDSEC
  0
SECTION
  2
TABLES
  0
TABLE
  2
VPORT
  5
8
330
0
100
AcDbSymbolTable
 70
     1
  0
VPORT
  5
29
330
8
100
AcDbSymbolTableRecord
100
AcDbViewportTableRecord
  2
*Active
 70
     0
 10
0.0
 20
0.0
 11
1.0
 21
1.0
 12
10.42990654205607
 22
4.5
 13
0.0
 23
0.0
 14
0.5
 24
0.5
 15
0.5
 25
0.5
 16
0.0
 26
0.0
 36
1.0
 17
0.0
 27
0.0
 37
0.0
 40
9.0
 41
1.972972972850329
 42
50.0
 43
0.0
 44
0.0
 50
0.0
 51
0.0
 71
     0
 72
   100
 73
     1
 74
     3
 75
     0
 76
     0
 77
     0
 78
     0
281
     0
 65
     1
110
0.0
120
0.0
130
0.0
111
1.0
121
0.0
131
0.0
112
0.0
122
1.0
132
0.0
 79
     0
146
0.0
 60
     3
 61
     5
292
     1
282
     1
141
0.0
142
0.0
 63
   250
  0
ENDTAB
  0
TABLE
  2
LTYPE
  5
5
330
0
100
AcDbSymbolTable
 70
     1
  0
LTYPE
  5
14
330
5
100
AcDbSymbolTableRecord
100
AcDbLinetypeTableRecord
  2
ByBlock
 70
     0
  3

 72
    65
 73
     0
 40
0.0
  0
LTYPE
  5
15
330
5
100
AcDbSymbolTableRecord
100
AcDbLinetypeTableRecord
  2
ByLayer
 70
     0
  3

 72
    65
 73
     0
 40
0.0
  0
LTYPE
  5
16
330
5
100
AcDbSymbolTableRecord
100
AcDbLinetypeTableRecord
  2
Continuous
 70
     0
  3
Solid line
 72
    65
 73
     0
 40
0.0
  0
ENDTAB
  0
TABLE
  2
LAYER
  5
2
330
0
100
AcDbSymbolTable
 70
     2
  0
LAYER
  5
10
330
2
100
AcDbSymbolTableRecord
100
AcDbLayerTableRecord
  2
0
 70
     0
 62
     7
  6
Continuous
370
    -3
390
F
347
3E
  0
LAYER
  5
40
330
2
100
AcDbSymbolTableRecord
100
AcDbLayerTableRecord
  2
layer 1
 70
     0
 62
     7
  6
Continuous
370
    -3
390
F
347
3E
  0
ENDTAB
  0
TABLE
  2
STYLE
  5
3
330
0
100
AcDbSymbolTable
 70
     1
  0
STYLE
  5
11
330
3
100
AcDbSymbolTableRecord
100
AcDbTextStyleTableRecord
  2
Standard
 70
     0
 40
0.0
 41
1.0
 50
0.0
 71
     0
 42
0.2
  3
txt
  4

  0
ENDTAB
  0
TABLE
  2
VIEW
  5
6
330
0
100
AcDbSymbolTable
 70
     0
  0
ENDTAB
  0
TABLE
  2
UCS
  5
7
330
0
100
AcDbSymbolTable
 70
     0
  0
ENDTAB
  0
TABLE
  2
APPID
  5
9
330
0
100
AcDbSymbolTable
 70
     2
  0
APPID
  5
12
330
9
100
AcDbSymbolTableRecord
100
AcDbRegAppTableRecord
  2
ACAD
 70
     0
  0
APPID
  5
3F
330
9
100
AcDbSymbolTableRecord
100
AcDbRegAppTableRecord
  2
ODA
 70
     0
  0
ENDTAB
  0
TABLE
  2
DIMSTYLE
  5
A
330
0
100
AcDbSymbolTable
 70
     1
100
AcDbDimStyleTable
  0
DIMSTYLE
105
27
330
A
100
AcDbSymbolTableRecord
100
AcDbDimStyleTableRecord
  2
Standard
 70
     0
178
     0
340
11
  0
ENDTAB
  0
TABLE
  2
BLOCK_RECORD
  5
1
330
0
100
AcDbSymbolTable
 70
     1
  0
BLOCK_RECORD
  5
1F
330
1
100
AcDbSymbolTableRecord
100
AcDbBlockTableRecord
  2
*Model_Space
340
22
 70
     0
280
     1
281
     0
  0
BLOCK_RECORD
  5
1B
330
1
100
AcDbSymbolTableRecord
100
AcDbBlockTableRecord
  2
*Paper_Space
340
1E
 70
     0
280
     1
281
     0
  0
BLOCK_RECORD
  5
23
330
1
100
AcDbSymbolTableRecord
100
AcDbBlockTableRecord
  2
*Paper_Space0
340
26
 70
     0
280
     1
281
     0
  0
ENDTAB
  0
ENDSEC
  0
SECTION
  2
BLOCKS
  0
BLOCK
  5
20
330
1F
100
AcDbEntity
  8
0
100
AcDbBlockBegin
  2
*Model_Space
 70
     0
 10
0.0
 20
0.0
 30
0.0
  3
*Model_Space
  1

  0
ENDBLK
  5
21
330
1F
100
AcDbEntity
  8
0
100
AcDbBlockEnd
  0
BLOCK
  5
1C
330
1B
100
AcDbEntity
 67
     1
  8
0
100
AcDbBlockBegin
  2
*Paper_Space
 70
     0
 10
0.0
 20
0.0
 30
0.0
  3
*Paper_Space
  1

  0
ENDBLK
  5
1D
330
1B
100
AcDbEntity
 67
     1
  8
0
100
AcDbBlockEnd
  0
BLOCK
  5
24
330
23
100
AcDbEntity
  8
0
100
AcDbBlockBegin
  2
*Paper_Space0
 70
     0
 10
0.0
 20
0.0
 30
0.0
  3
*Paper_Space0
  1

  0
ENDBLK
  5
25
330
23
100
AcDbEntity
  8
0
100
AcDbBlockEnd
  0
ENDSEC
  0
SECTION
  2
ENTITIES
  0
SPLINE
  5
41
330
1F
100
AcDbEntity
  8
layer 1
 62
   250
370
     9
100
AcDbSpline
210
0.0
220
0.0
230
1.0
 70
    11
 71
     3
 72
    24
 73
    20
 74
     0
 42
0.0000000001
 43
0.0000000001
 12
1.0
 22
0.0
 32
0.0
 13
1.0
 23
0.0
 33
0.0
 40
0.0
 40
0.0
 40
0.0
 40
0.0
 40
0.1666666666666667
 40
0.1666666666666667
 40
0.1666666666666667
 40
0.1666666666666667
 40
0.3333333333333333
 40
0.3333333333333333
 40
0.3333333333333333
 40
0.3333333333333333
 40
0.5
 40
0.5
 40
0.5
 40
0.5
 40
0.6666666666666666
 40
0.6666666666666666
 40
0.6666666666666666
 40
0.6666666666666666
 40
1.0
 40
1.0
 40
1.0
 40
1.0
 10
-51.1935
 20
13.95
 30
0.0
 10
-51.1935
 20
13.95
 30
0.0
 10
-51.1935
 20
102.9081
 30
0.0
 10
-51.1935
 20
102.9081
 30
0.0
 10
-51.1935
 20
102.9081
 30
0.0
 10
-51.1935
 20
102.9081
 30
0.0
 10
59.5442
 20
102.9081
 30
0.0
 10
59.5442
 20
102.9081
 30
0.0
 10
59.5442
 20
102.9081
 30
0.0
 10
59.5442
 20
102.9081
 30
0.0
 10
59.5442
 20
-75.008
 30
0.0
 10
59.5442
 20
-75.008
 30
0.0
 10
59.5442
 20
-75.008
 30
0.0
 10
59.5442
 20
-75.008
 30
0.0
 10
-51.1935
 20
-75.008
 30
0.0
 10
-51.1935
 20
-75.008
 30
0.0
 10
-51.1935
 20
-75.008
 30
0.0
 10
-51.1935
 20
-75.008
 30
0.0
 10
-51.1935
 20
13.95
 30
0.0
 10
-51.1935
 20
13.95
 30
0.0
  0
SPLINE
  5
42
330
1F
100
AcDbEntity
  8
layer 1
 62
     7
370
     9
100
AcDbSpline
210
0.0
220
0.0
230
1.0
 70
    11
 71
     3
 72
    20
 73
    16
 74
     0
 42
0.0000000001
 43
0.0000000001
 12
1.0
 22
0.0
 32
0.0
 13
1.0
 23
0.0
 33
0.0
 40
0.0
 40
0.0
 40
0.0
 40
0.0
 40
0.2
 40
0.2
 40
0.2
 40
0.2
 40
0.4
 40
0.4
 40
0.4
 40
0.4
 40
0.6
 40
0.6
 40
0.6
 40
0.6
 40
1.0
 40
1.0
 40
1.0
 40
1.0
 10
2.7597
 20
-68.3749
 30
0.0
 10
2.7597
 20
-68.3749
 30
0.0
 10
2.7597
 20
-34.5508
 30
0.0
 10
2.7597
 20
-34.5508
 30
0.0
 10
2.7597
 20
-34.5508
 30
0.0
 10
2.0474
 20
-40.023
 30
0.0
 10
0.9499
 20
-45.4176
 30
0.0
 10
-0.5215
 20
-50.6791
 30
0.0
 10
-0.5215
 20
-50.6791
 30
0.0
 10
-1.9816
 20
-55.894
 30
0.0
 10
-4.6016
 20
-60.5622
 30
0.0
 10
-8.1135
 20
-64.2061
 30
0.0
 10
-8.1135
 20
-64.2061
 30
0.0
 10
-4.1831
 20
-64.0671
 30
0.0
 10
-0.3355
 20
-65.5423
 30
0.0
 10
2.7597
 20
-68.3749
 30
0.0
  0
SPLINE
  5
43
330
1F
100
AcDbEntity
  8
layer 1
 62
     7
370
     9
100
AcDbSpline
210
0.0
220
0.0
230
1.0
 70
    11
 71
     3
 72
    24
 73
    20
 74
     0
 42
0.0000000001
 43
0.0000000001
 12
1.0
 22
0.0
 32
0.0
 13
1.0
 23
0.0
 33
0.0
 40
0.0
 40
0.0
 40
0.0
 40
0.0
 40
0.1666666666666667
 40
0.1666666666666667
 40
0.1666666666666667
 40
0.1666666666666667
 40
0.3333333333333333
 40
0.3333333333333333
 40
0.3333333333333333
 40
0.3333333333333333
 40
0.5
 40
0.5
 40
0.5
 40
0.5
 40
0.6666666666666666
 40
0.6666666666666666
 40
0.6666666666666666
 40
0.6666666666666666
 40
1.0
 40
1.0
 40
1.0
 40
1.0
 10
-0.3927
 20
-1.6059
 30
0.0
 10
-3.4511
 20
5.003
 30
0.0
 10
-8.1082
 20
10.4135
 30
0.0
 10
-13.7828
 20
13.95
 30
0.0
 10
-13.7828
 20
13.95
 30
0.0
 10
-8.1082
 20
17.4868
 30
0.0
 10
-3.4511
 20
22.8971
 30
0.0
 10
-0.3927
 20
29.5063
 30
0.0
 10
-0.3927
 20
29.5063
 30
0.0
 10
0.9972
 20
32.7168
 30
0.0
 10
2.0556
 20
36.109
 30
0.0
 10
2.7597
 20
39.6114
 30
0.0
 10
2.7597
 20
39.6114
 30
0.0
 10
2.7597
 20
39.6114
 30
0.0
 10
2.7597
 20
-11.7111
 30
0.0
 10
2.7597
 20
-11.7111
 30
0.0
 10
2.7597
 20
-11.7111
 30
0.0
 10
2.0556
 20
-8.2087
 30
0.0
 10
0.9972
 20
-4.8167
 30
0.0
 10
-0.3927
 20
-1.6059
 30
0.0
  0
SPLINE
  5
44
330
1F
100
AcDbEntity
  8
layer 1
 62
     7
370
     9
100
AcDbSpline
210
0.0
220
0.0
230
1.0
 70
    11
 71
     3
 72
    40
 73
    36
 74
     0
 42
0.0000000001
 43
0.0000000001
 12
1.0
 22
0.0
 32
0.0
 13
1.0
 23
0.0
 33
0.0
 40
0.0
 40
0.0
 40
0.0
 40
0.0
 40
0.1
 40
0.1
 40
0.1
 40
0.1
 40
0.2
 40
0.2
 40
0.2
 40
0.2
 40
0.3
 40
0.3
 40
0.3
 40
0.3
 40
0.4
 40
0.4
 40
0.4
 40
0.4
 40
0.5
 40
0.5
 40
0.5
 40
0.5
 40
0.6
 40
0.6
 40
0.6
 40
0.6
 40
0.7
 40
0.7
 40
0.7
 40
0.7
 40
0.8
 40
0.8
 40
0.8
 40
0.8
 40
1.0
 40
1.0
 40
1.0
 40
1.0
 10
-27.8654
 20
0.3478
 30
0.0
 10
-30.0316
 20
0.1137
 30
0.0
 10
-32.1815
 20
0.9599
 30
0.0
 10
-33.7845
 20
2.6775
 30
0.0
 10
-33.7845
 20
2.6775
 30
0.0
 10
-35.4351
 20
4.513
 30
0.0
 10
-35.6031
 20
7.5212
 30
0.0
 10
-34.1708
 20
9.5913
 30
0.0
 10
-34.1708
 20
9.5913
 30
0.0
 10
-32.1722
 20
11.4223
 30
0.0
 10
-29.7544
 20
12.5206
 30
0.0
 10
-27.2221
 20
12.7477
 30
0.0
 10
-27.2221
 20
12.7477
 30
0.0
 10
-23.3032
 20
12.67
 30
0.0
 10
-19.4351
 20
11.6999
 30
0.0
 10
-15.834
 20
9.892
 30
0.0
 10
-15.834
 20
9.892
 30
0.0
 10
-8.9695
 20
6.4119
 30
0.0
 10
-3.3367
 20
0.2834
 30
0.0
 10
0.122
 20
-7.4676
 30
0.0
 10
0.122
 20
-7.4676
 30
0.0
 10
-3.6613
 20
-2.4183
 30
0.0
 10
-8.4587
 20
1.4549
 30
0.0
 10
-13.8396
 20
3.8049
 30
0.0
 10
-13.8396
 20
3.8049
 30
0.0
 10
-17.0194
 20
5.3036
 30
0.0
 10
-20.4706
 20
5.8463
 30
0.0
 10
-23.8766
 20
5.3831
 30
0.0
 10
-23.8766
 20
5.3831
 30
0.0
 10
-24.9846
 20
5.3588
 30
0.0
 10
-26.0364
 20
4.808
 30
0.0
 10
-26.7893
 20
3.8579
 30
0.0
 10
-26.7893
 20
3.8579
 30
0.0
 10
-27.5421
 20
2.9077
 30
0.0
 10
-27.9307
 20
1.6403
 30
0.0
 10
-27.8654
 20
0.3478
 30
0.0
  0
SPLINE
  5
45
330
1F
100
AcDbEntity
  8
layer 1
 62
     7
370
     9
100
AcDbSpline
210
0.0
220
0.0
230
1.0
 70
    11
 71
     3
 72
    20
 73
    16
 74
     0
 42
0.0000000001
 43
0.0000000001
 12
1.0
 22
0.0
 32
0.0
 13
1.0
 23
0.0
 33
0.0
 40
0.0
 40
0.0
 40
0.0
 40
0.0
 40
0.2
 40
0.2
 40
0.2
 40
0.2
 40
0.4
 40
0.4
 40
0.4
 40
0.4
 40
0.6
 40
0.6
 40
0.6
 40
0.6
 40
1.0
 40
1.0
 40
1.0
 40
1.0
 10
-24.9702
 20
-1.5307
 30
0.0
 10
-22.7172
 20
-9.9278
 30
0.0
 10
-24.7656
 20
-19.09
 30
0.0
 10
-30.246
 20
-25.1279
 30
0.0
 10
-30.246
 20
-25.1279
 30
0.0
 10
-33.7141
 20
-29.586
 30
0.0
 10
-37.5261
 20
-33.6612
 30
0.0
 10
-41.634
 20
-37.3023
 30
0.0
 10
-41.634
 20
-37.3023
 30
0.0
 10
-28.6346
 20
-25.9661
 30
0.0
 10
-14.3415
 20
-16.8091
 30
0.0
 10
0.8295
 20
-10.0979
 30
0.0
 10
0.8295
 20
-10.0979
 30
0.0
 10
-8.3207
 20
-10.4141
 30
0.0
 10
-17.3308
 20
-7.422
 30
0.0
 10
-24.9702
 20
-1.5307
 30
0.0
  0
SPLINE
  5
46
330
1F
100
AcDbEntity
  8
layer 1
 62
     7
370
     9
100
AcDbSpline
210
0.0
220
0.0
230
1.0
 70
    11
 71
     3
 72
    20
 73
    16
 74
     0
 42
0.0000000001
 43
0.0000000001
 12
1.0
 22
0.0
 32
0.0
 13
1.0
 23
0.0
 33
0.0
 40
0.0
 40
0.0
 40
0.0
 40
0.0
 40
0.2
 40
0.2
 40
0.2
 40
0.2
 40
0.4
 40
0.4
 40
0.4
 40
0.4
 40
0.6
 40
0.6
 40
0.6
 40
0.6
 40
1.0
 40
1.0
 40
1.0
 40
1.0
 10
-25.1632
 20
-36.4006
 30
0.0
 10
-19.5205
 20
-34.883
 30
0.0
 10
-14.1443
 20
-32.2392
 30
0.0
 10
-9.2716
 20
-28.5849
 30
0.0
 10
-9.2716
 20
-28.5849
 30
0.0
 10
-4.8659
 20
-25.4299
 30
0.0
 10
-1.3527
 20
-20.83
 30
0.0
 10
0.8295
 20
-15.3586
 30
0.0
 10
0.8295
 20
-15.3586
 30
0.0
 10
-5.1936
 20
-24.7689
 30
0.0
 10
-14.3694
 20
-30.7291
 30
0.0
 10
-24.3911
 20
-31.7413
 30
0.0
 10
-24.3911
 20
-31.7413
 30
0.0
 10
-24.2877
 20
-33.3471
 30
0.0
 10
-24.5543
 20
-34.9557
 30
0.0
 10
-25.1632
 20
-36.4006
 30
0.0
  0
SPLINE
  5
47
330
1F
100
AcDbEntity
  8
layer 1
 62
     7
370
     9
100
AcDbSpline
210
0.0
220
0.0
230
1.0
 70
    11
 71
     3
 72
    24
 73
    20
 74
     0
 42
0.0000000001
 43
0.0000000001
 12
1.0
 22
0.0
 32
0.0
 13
1.0
 23
0.0
 33
0.0
 40
0.0
 40
0.0
 40
0.0
 40
0.0
 40
0.1666666666666667
 40
0.1666666666666667
 40
0.1666666666666667
 40
0.1666666666666667
 40
0.3333333333333333
 40
0.3333333333333333
 40
0.3333333333333333
 40
0.3333333333333333
 40
0.5
 40
0.5
 40
0.5
 40
0.5
 40
0.6666666666666666
 40
0.6666666666666666
 40
0.6666666666666666
 40
0.6666666666666666
 40
1.0
 40
1.0
 40
1.0
 40
1.0
 10
-20.2091
 20
-38.6551
 30
0.0
 10
-23.4334
 20
-39.9721
 30
0.0
 10
-26.7817
 20
-40.8301
 30
0.0
 10
-30.1818
 20
-41.2102
 30
0.0
 10
-30.1818
 20
-41.2102
 30
0.0
 10
-30.4193
 20
-43.1518
 30
0.0
 10
-31.268
 20
-44.9202
 30
0.0
 10
-32.5622
 20
-46.1701
 30
0.0
 10
-32.5622
 20
-46.1701
 30
0.0
 10
-28.0161
 20
-45.7864
 30
0.0
 10
-23.568
 20
-44.4367
 30
0.0
 10
-19.4371
 20
-42.1871
 30
0.0
 10
-19.4371
 20
-42.1871
 30
0.0
 10
-9.7022
 20
-38.0307
 30
0.0
 10
-2.06
 20
-29.0216
 30
0.0
 10
1.4086
 20
-17.613
 30
0.0
 10
1.4086
 20
-17.613
 30
0.0
 10
-3.3342
 20
-27.4958
 30
0.0
 10
-11.0316
 20
-34.9881
 30
0.0
 10
-20.2091
 20
-38.6551
 30
0.0
  0
SPLINE
  5
48
330
1F
100
AcDbEntity
  8
layer 1
 62
     7
370
     9
100
AcDbSpline
210
0.0
220
0.0
230
1.0
 70
    11
 71
     3
 72
    32
 73
    28
 74
     0
 42
0.0000000001
 43
0.0000000001
 12
1.0
 22
0.0
 32
0.0
 13
1.0
 23
0.0
 33
0.0
 40
0.0
 40
0.0
 40
0.0
 40
0.0
 40
0.125
 40
0.125
 40
0.125
 40
0.125
 40
0.25
 40
0.25
 40
0.25
 40
0.25
 40
0.375
 40
0.375
 40
0.375
 40
0.375
 40
0.5
 40
0.5
 40
0.5
 40
0.5
 40
0.625
 40
0.625
 40
0.625
 40
0.625
 40
0.75
 40
0.75
 40
0.75
 40
0.75
 40
1.0
 40
1.0
 40
1.0
 40
1.0
 10
-19.3086
 20
-45.4184
 30
0.0
 10
-25.3306
 20
-49.7069
 30
0.0
 10
-31.9172
 20
-52.8048
 30
0.0
 10
-38.8031
 20
-54.5869
 30
0.0
 10
-38.8031
 20
-54.5869
 30
0.0
 10
-41.4129
 20
-57.9335
 30
0.0
 10
-44.7132
 20
-60.4432
 30
0.0
 10
-48.3895
 20
-61.8765
 30
0.0
 10
-48.3895
 20
-61.8765
 30
0.0
 10
-42.7245
 20
-60.8976
 30
0.0
 10
-37.1618
 20
-59.2355
 30
0.0
 10
-31.7901
 20
-56.9165
 30
0.0
 10
-31.7901
 20
-56.9165
 30
0.0
 10
-21.3728
 20
-52.5914
 30
0.0
 10
-12.0265
 20
-45.3392
 30
0.0
 10
-4.5748
 20
-35.7993
 30
0.0
 10
-4.5748
 20
-35.7993
 30
0.0
 10
-1.2105
 20
-31.4677
 30
0.0
 10
0.944
 20
-26.0414
 30
0.0
 10
1.6016
 20
-20.2434
 30
0.0
 10
1.6016
 20
-20.2434
 30
0.0
 10
0.111
 20
-24.9737
 30
0.0
 10
-2.1625
 20
-29.3147
 30
0.0
 10
-5.0896
 20
-33.0188
 30
0.0
 10
-5.0896
 20
-33.0188
 30
0.0
 10
-9.2984
 20
-37.9233
 30
0.0
 10
-14.0865
 20
-42.0989
 30
0.0
 10
-19.3086
 20
-45.4184
 30
0.0
  0
SPLINE
  5
49
330
1F
100
AcDbEntity
  8
layer 1
 62
     7
370
     9
100
AcDbSpline
210
0.0
220
0.0
230
1.0
 70
    11
 71
     3
 72
    60
 73
    56
 74
     0
 42
0.0000000001
 43
0.0000000001
 12
1.0
 22
0.0
 32
0.0
 13
1.0
 23
0.0
 33
0.0
 40
0.0
 40
0.0
 40
0.0
 40
0.0
 40
0.0666666666666667
 40
0.0666666666666667
 40
0.0666666666666667
 40
0.0666666666666667
 40
0.1333333333333333
 40
0.1333333333333333
 40
0.1333333333333333
 40
0.1333333333333333
 40
0.2
 40
0.2
 40
0.2
 40
0.2
 40
0.2666666666666667
 40
0.2666666666666667
 40
0.2666666666666667
 40
0.2666666666666667
 40
0.3333333333333333
 40
0.3333333333333333
 40
0.3333333333333333
 40
0.3333333333333333
 40
0.4
 40
0.4
 40
0.4
 40
0.4
 40
0.4666666666666667
 40
0.4666666666666667
 40
0.4666666666666667
 40
0.4666666666666667
 40
0.5333333333333333
 40
0.5333333333333333
 40
0.5333333333333333
 40
0.5333333333333333
 40
0.6
 40
0.6
 40
0.6
 40
0.6
 40
0.6666666666666666
 40
0.6666666666666666
 40
0.6666666666666666
 40
0.6666666666666666
 40
0.7333333333333333
 40
0.7333333333333333
 40
0.7333333333333333
 40
0.7333333333333333
 40
0.8
 40
0.8
 40
0.8
 40
0.8
 40
0.8666666666666667
 40
0.8666666666666667
 40
0.8666666666666667
 40
0.8666666666666667
 40
1.0
 40
1.0
 40
1.0
 40
1.0
 10
-7.7917
 20
-45.3435
 30
0.0
 10
-11.6266
 20
-50.9067
 30
0.0
 10
-16.8403
 20
-54.949
 30
0.0
 10
-22.7185
 20
-56.9165
 30
0.0
 10
-22.7185
 20
-56.9165
 30
0.0
 10
-26.5067
 20
-57.8489
 30
0.0
 10
-30.3274
 20
-58.5885
 30
0.0
 10
-34.1708
 20
-59.1335
 30
0.0
 10
-34.1708
 20
-59.1335
 30
0.0
 10
-36.5597
 20
-59.4146
 30
0.0
 10
-38.8279
 20
-60.4978
 30
0.0
 10
-40.7011
 20
-62.2522
 30
0.0
 10
-40.7011
 20
-62.2522
 30
0.0
 10
-41.4509
 20
-62.9336
 30
0.0
 10
-41.8282
 20
-64.0342
 30
0.0
 10
-41.6882
 20
-65.1318
 30
0.0
 10
-41.6882
 20
-65.1318
 30
0.0
 10
-41.5484
 20
-66.2294
 30
0.0
 10
-40.913
 20
-67.1537
 30
0.0
 10
-40.0254
 20
-67.5502
 30
0.0
 10
-40.0254
 20
-67.5502
 30
0.0
 10
-37.5645
 20
-68.5975
 30
0.0
 10
-34.8253
 20
-68.2359
 30
0.0
 10
-32.6267
 20
-66.5733
 30
0.0
 10
-32.6267
 20
-66.5733
 30
0.0
 10
-32.164
 20
-66.093
 30
0.0
 10
-31.9048
 20
-65.4001
 30
0.0
 10
-31.917
 20
-64.6773
 30
0.0
 10
-31.917
 20
-64.6773
 30
0.0
 10
-31.9293
 20
-63.9544
 30
0.0
 10
-32.2123
 20
-63.2742
 30
0.0
 10
-32.6909
 20
-62.8158
 30
0.0
 10
-32.6909
 20
-62.8158
 30
0.0
 10
-33.474
 20
-62.1519
 30
0.0
 10
-34.3971
 20
-61.7492
 30
0.0
 10
-35.361
 20
-61.6511
 30
0.0
 10
-35.361
 20
-61.6511
 30
0.0
 10
-33.7704
 20
-60.9188
 30
0.0
 10
-32.0834
 20
-60.5121
 30
0.0
 10
-30.3748
 20
-60.4485
 30
0.0
 10
-30.3748
 20
-60.4485
 30
0.0
 10
-27.9082
 20
-60.5166
 30
0.0
 10
-25.4418
 20
-60.5919
 30
0.0
 10
-22.9758
 20
-60.6741
 30
0.0
 10
-22.9758
 20
-60.6741
 30
0.0
 10
-15.3717
 20
-60.8102
 30
0.0
 10
-8.3417
 20
-55.9648
 30
0.0
 10
-4.7678
 20
-48.124
 30
0.0
 10
-4.7678
 20
-48.124
 30
0.0
 10
-1.0216
 20
-41.4229
 30
0.0
 10
1.1934
 20
-33.7134
 30
0.0
 10
1.6661
 20
-25.7292
 30
0.0
 10
1.6661
 20
-25.7292
 30
0.0
 10
-0.3936
 20
-32.9084
 30
0.0
 10
-3.6033
 20
-39.5646
 30
0.0
 10
-7.7917
 20
-45.3435
 30
0.0
  0
SPLINE
  5
4A
330
1F
100
AcDbEntity
  8
layer 1
 62
     7
370
     9
100
AcDbSpline
210
0.0
220
0.0
230
1.0
 70
    11
 71
     3
 72
    20
 73
    16
 74
     0
 42
0.0000000001
 43
0.0000000001
 12
1.0
 22
0.0
 32
0.0
 13
1.0
 23
0.0
 33
0.0
 40
0.0
 40
0.0
 40
0.0
 40
0.0
 40
0.2
 40
0.2
 40
0.2
 40
0.2
 40
0.4
 40
0.4
 40
0.4
 40
0.4
 40
0.6
 40
0.6
 40
0.6
 40
0.6
 40
1.0
 40
1.0
 40
1.0
 40
1.0
 10
2.7597
 20
96.2752
 30
0.0
 10
2.7597
 20
96.2752
 30
0.0
 10
2.7597
 20
62.4512
 30
0.0
 10
2.7597
 20
62.4512
 30
0.0
 10
2.7597
 20
62.4512
 30
0.0
 10
2.0474
 20
67.9234
 30
0.0
 10
0.9499
 20
73.3177
 30
0.0
 10
-0.5215
 20
78.5792
 30
0.0
 10
-0.5215
 20
78.5792
 30
0.0
 10
-1.9816
 20
83.7942
 30
0.0
 10
-4.6016
 20
88.4625
 30
0.0
 10
-8.1135
 20
92.1063
 30
0.0
 10
-8.1135
 20
92.1063
 30
0.0
 10
-4.1831
 20
91.9672
 30
0.0
 10
-0.3355
 20
93.4425
 30
0.0
 10
2.7597
 20
96.2752
 30
0.0
  0
SPLINE
  5
4B
330
1F
100
AcDbEntity
  8
layer 1
 62
     7
370
     9
100
AcDbSpline
210
0.0
220
0.0
230
1.0
 70
    11
 71
     3
 72
    40
 73
    36
 74
     0
 42
0.0000000001
 43
0.0000000001
 12
1.0
 22
0.0
 32
0.0
 13
1.0
 23
0.0
 33
0.0
 40
0.0
 40
0.0
 40
0.0
 40
0.0
 40
0.1
 40
0.1
 40
0.1
 40
0.1
 40
0.2
 40
0.2
 40
0.2
 40
0.2
 40
0.3
 40
0.3
 40
0.3
 40
0.3
 40
0.4
 40
0.4
 40
0.4
 40
0.4
 40
0.5
 40
0.5
 40
0.5
 40
0.5
 40
0.6
 40
0.6
 40
0.6
 40
0.6
 40
0.7
 40
0.7
 40
0.7
 40
0.7
 40
0.8
 40
0.8
 40
0.8
 40
0.8
 40
1.0
 40
1.0
 40
1.0
 40
1.0
 10
-27.8654
 20
27.5522
 30
0.0
 10
-30.0316
 20
27.7866
 30
0.0
 10
-32.1815
 20
26.9402
 30
0.0
 10
-33.7845
 20
25.2226
 30
0.0
 10
-33.7845
 20
25.2226
 30
0.0
 10
-35.4351
 20
23.3871
 30
0.0
 10
-35.6031
 20
20.3792
 30
0.0
 10
-34.1708
 20
18.3088
 30
0.0
 10
-34.1708
 20
18.3088
 30
0.0
 10
-32.1722
 20
16.4781
 30
0.0
 10
-29.7544
 20
15.3797
 30
0.0
 10
-27.2221
 20
15.1526
 30
0.0
 10
-27.2221
 20
15.1526
 30
0.0
 10
-23.3032
 20
15.2304
 30
0.0
 10
-19.4351
 20
16.2002
 30
0.0
 10
-15.834
 20
18.0081
 30
0.0
 10
-15.834
 20
18.0081
 30
0.0
 10
-8.9695
 20
21.4882
 30
0.0
 10
-3.3367
 20
27.6167
 30
0.0
 10
0.122
 20
35.368
 30
0.0
 10
0.122
 20
35.368
 30
0.0
 10
-3.6613
 20
30.3184
 30
0.0
 10
-8.4587
 20
26.4452
 30
0.0
 10
-13.8396
 20
24.0952
 30
0.0
 10
-13.8396
 20
24.0952
 30
0.0
 10
-17.0194
 20
22.5965
 30
0.0
 10
-20.4706
 20
22.0541
 30
0.0
 10
-23.8766
 20
22.5172
 30
0.0
 10
-23.8766
 20
22.5172
 30
0.0
 10
-24.9846
 20
22.5415
 30
0.0
 10
-26.0364
 20
23.0921
 30
0.0
 10
-26.7893
 20
24.0422
 30
0.0
 10
-26.7893
 20
24.0422
 30
0.0
 10
-27.5421
 20
24.9923
 30
0.0
 10
-27.9307
 20
26.26
 30
0.0
 10
-27.8654
 20
27.5522
 30
0.0
  0
SPLINE
  5
4C
330
1F
100
AcDbEntity
  8
layer 1
 62
     7
370
     9
100
AcDbSpline
210
0.0
220
0.0
230
1.0
 70
    11
 71
     3
 72
    20
 73
    16
 74
     0
 42
0.0000000001
 43
0.0000000001
 12
1.0
 22
0.0
 32
0.0
 13
1.0
 23
0.0
 33
0.0
 40
0.0
 40
0.0
 40
0.0
 40
0.0
 40
0.2
 40
0.2
 40
0.2
 40
0.2
 40
0.4
 40
0.4
 40
0.4
 40
0.4
 40
0.6
 40
0.6
 40
0.6
 40
0.6
 40
1.0
 40
1.0
 40
1.0
 40
1.0
 10
-24.9702
 20
29.4311
 30
0.0
 10
-22.7172
 20
37.8278
 30
0.0
 10
-24.7656
 20
46.9901
 30
0.0
 10
-30.246
 20
53.0282
 30
0.0
 10
-30.246
 20
53.0282
 30
0.0
 10
-33.7141
 20
57.4861
 30
0.0
 10
-37.5261
 20
61.5613
 30
0.0
 10
-41.634
 20
65.2027
 30
0.0
 10
-41.634
 20
65.2027
 30
0.0
 10
-28.6346
 20
53.8662
 30
0.0
 10
-14.3415
 20
44.7092
 30
0.0
 10
0.8295
 20
37.998
 30
0.0
 10
0.8295
 20
37.998
 30
0.0
 10
-8.3207
 20
38.3141
 30
0.0
 10
-17.3308
 20
35.3221
 30
0.0
 10
-24.9702
 20
29.4311
 30
0.0
  0
SPLINE
  5
4D
330
1F
100
AcDbEntity
  8
layer 1
 62
     7
370
     9
100
AcDbSpline
210
0.0
220
0.0
230
1.0
 70
    11
 71
     3
 72
    20
 73
    16
 74
     0
 42
0.0000000001
 43
0.0000000001
 12
1.0
 22
0.0
 32
0.0
 13
1.0
 23
0.0
 33
0.0
 40
0.0
 40
0.0
 40
0.0
 40
0.0
 40
0.2
 40
0.2
 40
0.2
 40
0.2
 40
0.4
 40
0.4
 40
0.4
 40
0.4
 40
0.6
 40
0.6
 40
0.6
 40
0.6
 40
1.0
 40
1.0
 40
1.0
 40
1.0
 10
-25.1632
 20
64.3007
 30
0.0
 10
-19.5205
 20
62.7834
 30
0.0
 10
-14.1443
 20
60.1392
 30
0.0
 10
-9.2716
 20
56.4852
 30
0.0
 10
-9.2716
 20
56.4852
 30
0.0
 10
-4.8659
 20
53.33
 30
0.0
 10
-1.3527
 20
48.7301
 30
0.0
 10
0.8295
 20
43.2587
 30
0.0
 10
0.8295
 20
43.2587
 30
0.0
 10
-5.1936
 20
52.6692
 30
0.0
 10
-14.3694
 20
58.6292
 30
0.0
 10
-24.3911
 20
59.6414
 30
0.0
 10
-24.3911
 20
59.6414
 30
0.0
 10
-24.2877
 20
61.2472
 30
0.0
 10
-24.5543
 20
62.8561
 30
0.0
 10
-25.1632
 20
64.3007
 30
0.0
  0
SPLINE
  5
4E
330
1F
100
AcDbEntity
  8
layer 1
 62
     7
370
     9
100
AcDbSpline
210
0.0
220
0.0
230
1.0
 70
    11
 71
     3
 72
    24
 73
    20
 74
     0
 42
0.0000000001
 43
0.0000000001
 12
1.0
 22
0.0
 32
0.0
 13
1.0
 23
0.0
 33
0.0
 40
0.0
 40
0.0
 40
0.0
 40
0.0
 40
0.1666666666666667
 40
0.1666666666666667
 40
0.1666666666666667
 40
0.1666666666666667
 40
0.3333333333333333
 40
0.3333333333333333
 40
0.3333333333333333
 40
0.3333333333333333
 40
0.5
 40
0.5
 40
0.5
 40
0.5
 40
0.6666666666666666
 40
0.6666666666666666
 40
0.6666666666666666
 40
0.6666666666666666
 40
1.0
 40
1.0
 40
1.0
 40
1.0
 10
-20.2091
 20
66.5552
 30
0.0
 10
-23.4334
 20
67.8724
 30
0.0
 10
-26.7817
 20
68.7302
 30
0.0
 10
-30.1818
 20
69.1103
 30
0.0
 10
-30.1818
 20
69.1103
 30
0.0
 10
-30.4193
 20
71.0519
 30
0.0
 10
-31.268
 20
72.8203
 30
0.0
 10
-32.5622
 20
74.0702
 30
0.0
 10
-32.5622
 20
74.0702
 30
0.0
 10
-28.0161
 20
73.6864
 30
0.0
 10
-23.568
 20
72.3368
 30
0.0
 10
-19.4371
 20
70.0872
 30
0.0
 10
-19.4371
 20
70.0872
 30
0.0
 10
-9.7022
 20
65.9307
 30
0.0
 10
-2.06
 20
56.922
 30
0.0
 10
1.4086
 20
45.5131
 30
0.0
 10
1.4086
 20
45.5131
 30
0.0
 10
-3.3342
 20
55.3962
 30
0.0
 10
-11.0316
 20
62.8885
 30
0.0
 10
-20.2091
 20
66.5552
 30
0.0
  0
SPLINE
  5
4F
330
1F
100
AcDbEntity
  8
layer 1
 62
     7
370
     9
100
AcDbSpline
210
0.0
220
0.0
230
1.0
 70
    11
 71
     3
 72
    32
 73
    28
 74
     0
 42
0.0000000001
 43
0.0000000001
 12
1.0
 22
0.0
 32
0.0
 13
1.0
 23
0.0
 33
0.0
 40
0.0
 40
0.0
 40
0.0
 40
0.0
 40
0.125
 40
0.125
 40
0.125
 40
0.125
 40
0.25
 40
0.25
 40
0.25
 40
0.25
 40
0.375
 40
0.375
 40
0.375
 40
0.375
 40
0.5
 40
0.5
 40
0.5
 40
0.5
 40
0.625
 40
0.625
 40
0.625
 40
0.625
 40
0.75
 40
0.75
 40
0.75
 40
0.75
 40
1.0
 40
1.0
 40
1.0
 40
1.0
 10
-19.3086
 20
73.3188
 30
0.0
 10
-25.3306
 20
77.6073
 30
0.0
 10
-31.9172
 20
80.7051
 30
0.0
 10
-38.8031
 20
82.487
 30
0.0
 10
-38.8031
 20
82.487
 30
0.0
 10
-41.4129
 20
85.8336
 30
0.0
 10
-44.7132
 20
88.3433
 30
0.0
 10
-48.3895
 20
89.7767
 30
0.0
 10
-48.3895
 20
89.7767
 30
0.0
 10
-42.7245
 20
88.7978
 30
0.0
 10
-37.1618
 20
87.1357
 30
0.0
 10
-31.7901
 20
84.8167
 30
0.0
 10
-31.7901
 20
84.8167
 30
0.0
 10
-21.3728
 20
80.4915
 30
0.0
 10
-12.0265
 20
73.2396
 30
0.0
 10
-4.5748
 20
63.6997
 30
0.0
 10
-4.5748
 20
63.6997
 30
0.0
 10
-1.2105
 20
59.3677
 30
0.0
 10
0.944
 20
53.9414
 30
0.0
 10
1.6016
 20
48.1434
 30
0.0
 10
1.6016
 20
48.1434
 30
0.0
 10
0.111
 20
52.8738
 30
0.0
 10
-2.1625
 20
57.2148
 30
0.0
 10
-5.0896
 20
60.9189
 30
0.0
 10
-5.0896
 20
60.9189
 30
0.0
 10
-9.2984
 20
65.8234
 30
0.0
 10
-14.0865
 20
69.9992
 30
0.0
 10
-19.3086
 20
73.3188
 30
0.0
  0
SPLINE
  5
50
330
1F
100
AcDbEntity
  8
layer 1
 62
     7
370
     9
100
AcDbSpline
210
0.0
220
0.0
230
1.0
 70
    11
 71
     3
 72
    60
 73
    56
 74
     0
 42
0.0000000001
 43
0.0000000001
 12
1.0
 22
0.0
 32
0.0
 13
1.0
 23
0.0
 33
0.0
 40
0.0
 40
0.0
 40
0.0
 40
0.0
 40
0.0666666666666667
 40
0.0666666666666667
 40
0.0666666666666667
 40
0.0666666666666667
 40
0.1333333333333333
 40
0.1333333333333333
 40
0.1333333333333333
 40
0.1333333333333333
 40
0.2
 40
0.2
 40
0.2
 40
0.2
 40
0.2666666666666667
 40
0.2666666666666667
 40
0.2666666666666667
 40
0.2666666666666667
 40
0.3333333333333333
 40
0.3333333333333333
 40
0.3333333333333333
 40
0.3333333333333333
 40
0.4
 40
0.4
 40
0.4
 40
0.4
 40
0.4666666666666667
 40
0.4666666666666667
 40
0.4666666666666667
 40
0.4666666666666667
 40
0.5333333333333333
 40
0.5333333333333333
 40
0.5333333333333333
 40
0.5333333333333333
 40
0.6
 40
0.6
 40
0.6
 40
0.6
 40
0.6666666666666666
 40
0.6666666666666666
 40
0.6666666666666666
 40
0.6666666666666666
 40
0.7333333333333333
 40
0.7333333333333333
 40
0.7333333333333333
 40
0.7333333333333333
 40
0.8
 40
0.8
 40
0.8
 40
0.8
 40
0.8666666666666667
 40
0.8666666666666667
 40
0.8666666666666667
 40
0.8666666666666667
 40
1.0
 40
1.0
 40
1.0
 40
1.0
 10
-7.7917
 20
73.2436
 30
0.0
 10
-11.6266
 20
78.8068
 30
0.0
 10
-16.8403
 20
82.8493
 30
0.0
 10
-22.7185
 20
84.8167
 30
0.0
 10
-22.7185
 20
84.8167
 30
0.0
 10
-26.5067
 20
85.7491
 30
0.0
 10
-30.3274
 20
86.4887
 30
0.0
 10
-34.1708
 20
87.0337
 30
0.0
 10
-34.1708
 20
87.0337
 30
0.0
 10
-36.5597
 20
87.3148
 30
0.0
 10
-38.8279
 20
88.398
 30
0.0
 10
-40.7011
 20
90.1523
 30
0.0
 10
-40.7011
 20
90.1523
 30
0.0
 10
-41.4509
 20
90.8339
 30
0.0
 10
-41.8282
 20
91.9345
 30
0.0
 10
-41.6882
 20
93.032
 30
0.0
 10
-41.6882
 20
93.032
 30
0.0
 10
-41.5484
 20
94.1295
 30
0.0
 10
-40.913
 20
95.0539
 30
0.0
 10
-40.0254
 20
95.4504
 30
0.0
 10
-40.0254
 20
95.4504
 30
0.0
 10
-37.5645
 20
96.4978
 30
0.0
 10
-34.8253
 20
96.136
 30
0.0
 10
-32.6267
 20
94.4735
 30
0.0
 10
-32.6267
 20
94.4735
 30
0.0
 10
-32.164
 20
93.9931
 30
0.0
 10
-31.9048
 20
93.3002
 30
0.0
 10
-31.917
 20
92.5775
 30
0.0
 10
-31.917
 20
92.5775
 30
0.0
 10
-31.9293
 20
91.8544
 30
0.0
 10
-32.2123
 20
91.1742
 30
0.0
 10
-32.6909
 20
90.7161
 30
0.0
 10
-32.6909
 20
90.7161
 30
0.0
 10
-33.474
 20
90.052
 30
0.0
 10
-34.3971
 20
89.6493
 30
0.0
 10
-35.361
 20
89.5512
 30
0.0
 10
-35.361
 20
89.5512
 30
0.0
 10
-33.7704
 20
88.819
 30
0.0
 10
-32.0834
 20
88.4123
 30
0.0
 10
-30.3748
 20
88.3487
 30
0.0
 10
-30.3748
 20
88.3487
 30
0.0
 10
-27.9082
 20
88.4169
 30
0.0
 10
-25.4418
 20
88.4921
 30
0.0
 10
-22.9758
 20
88.5744
 30
0.0
 10
-22.9758
 20
88.5744
 30
0.0
 10
-15.3717
 20
88.7104
 30
0.0
 10
-8.3417
 20
83.8648
 30
0.0
 10
-4.7678
 20
76.0241
 30
0.0
 10
-4.7678
 20
76.0241
 30
0.0
 10
-1.0216
 20
69.3233
 30
0.0
 10
1.1934
 20
61.6135
 30
0.0
 10
1.6661
 20
53.6293
 30
0.0
 10
1.6661
 20
53.6293
 30
0.0
 10
-0.3936
 20
60.8085
 30
0.0
 10
-3.6033
 20
67.4647
 30
0.0
 10
-7.7917
 20
73.2436
 30
0.0
  0
SPLINE
  5
51
330
1F
100
AcDbEntity
  8
layer 1
 62
     7
370
     9
100
AcDbSpline
210
0.0
220
0.0
230
1.0
 70
    11
 71
     3
 72
    20
 73
    16
 74
     0
 42
0.0000000001
 43
0.0000000001
 12
1.0
 22
0.0
 32
0.0
 13
1.0
 23
0.0
 33
0.0
 40
0.0
 40
0.0
 40
0.0
 40
0.0
 40
0.2
 40
0.2
 40
0.2
 40
0.2
 40
0.4
 40
0.4
 40
0.4
 40
0.4
 40
0.6
 40
0.6
 40
0.6
 40
0.6
 40
1.0
 40
1.0
 40
1.0
 40
1.0
 10
5.5906
 20
-68.3749
 30
0.0
 10
5.5906
 20
-68.3749
 30
0.0
 10
5.5906
 20
-34.5508
 30
0.0
 10
5.5906
 20
-34.5508
 30
0.0
 10
5.5906
 20
-34.5508
 30
0.0
 10
6.3032
 20
-40.023
 30
0.0
 10
7.4008
 20
-45.4176
 30
0.0
 10
8.8718
 20
-50.6791
 30
0.0
 10
8.8718
 20
-50.6791
 30
0.0
 10
10.332
 20
-55.894
 30
0.0
 10
12.9522
 20
-60.5622
 30
0.0
 10
16.4639
 20
-64.2061
 30
0.0
 10
16.4639
 20
-64.2061
 30
0.0
 10
12.5337
 20
-64.0671
 30
0.0
 10
8.6859
 20
-65.5423
 30
0.0
 10
5.5906
 20
-68.3749
 30
0.0
  0
SPLINE
  5
52
330
1F
100
AcDbEntity
  8
layer 1
 62
     7
370
     9
100
AcDbSpline
210
0.0
220
0.0
230
1.0
 70
    11
 71
     3
 72
    24
 73
    20
 74
     0
 42
0.0000000001
 43
0.0000000001
 12
1.0
 22
0.0
 32
0.0
 13
1.0
 23
0.0
 33
0.0
 40
0.0
 40
0.0
 40
0.0
 40
0.0
 40
0.1666666666666667
 40
0.1666666666666667
 40
0.1666666666666667
 40
0.1666666666666667
 40
0.3333333333333333
 40
0.3333333333333333
 40
0.3333333333333333
 40
0.3333333333333333
 40
0.5
 40
0.5
 40
0.5
 40
0.5
 40
0.6666666666666666
 40
0.6666666666666666
 40
0.6666666666666666
 40
0.6666666666666666
 40
1.0
 40
1.0
 40
1.0
 40
1.0
 10
8.7433
 20
-1.6059
 30
0.0
 10
11.8017
 20
5.003
 30
0.0
 10
16.4585
 20
10.4135
 30
0.0
 10
22.1331
 20
13.95
 30
0.0
 10
22.1331
 20
13.95
 30
0.0
 10
16.4585
 20
17.4868
 30
0.0
 10
11.8017
 20
22.8971
 30
0.0
 10
8.7433
 20
29.5063
 30
0.0
 10
8.7433
 20
29.5063
 30
0.0
 10
7.3534
 20
32.7168
 30
0.0
 10
6.2951
 20
36.109
 30
0.0
 10
5.5906
 20
39.6114
 30
0.0
 10
5.5906
 20
39.6114
 30
0.0
 10
5.5906
 20
39.6114
 30
0.0
 10
5.5906
 20
-11.7111
 30
0.0
 10
5.5906
 20
-11.7111
 30
0.0
 10
5.5906
 20
-11.7111
 30
0.0
 10
6.2951
 20
-8.2087
 30
0.0
 10
7.3534
 20
-4.8167
 30
0.0
 10
8.7433
 20
-1.6059
 30
0.0
  0
SPLINE
  5
53
330
1F
100
AcDbEntity
  8
layer 1
 62
     7
370
     9
100
AcDbSpline
210
0.0
220
0.0
230
1.0
 70
    11
 71
     3
 72
    40
 73
    36
 74
     0
 42
0.0000000001
 43
0.0000000001
 12
1.0
 22
0.0
 32
0.0
 13
1.0
 23
0.0
 33
0.0
 40
0.0
 40
0.0
 40
0.0
 40
0.0
 40
0.1
 40
0.1
 40
0.1
 40
0.1
 40
0.2
 40
0.2
 40
0.2
 40
0.2
 40
0.3
 40
0.3
 40
0.3
 40
0.3
 40
0.4
 40
0.4
 40
0.4
 40
0.4
 40
0.5
 40
0.5
 40
0.5
 40
0.5
 40
0.6
 40
0.6
 40
0.6
 40
0.6
 40
0.7
 40
0.7
 40
0.7
 40
0.7
 40
0.8
 40
0.8
 40
0.8
 40
0.8
 40
1.0
 40
1.0
 40
1.0
 40
1.0
 10
36.216
 20
0.3478
 30
0.0
 10
38.3821
 20
0.1137
 30
0.0
 10
40.5322
 20
0.9599
 30
0.0
 10
42.1351
 20
2.6775
 30
0.0
 10
42.1351
 20
2.6775
 30
0.0
 10
43.7857
 20
4.513
 30
0.0
 10
43.9537
 20
7.5212
 30
0.0
 10
42.5212
 20
9.5913
 30
0.0
 10
42.5212
 20
9.5913
 30
0.0
 10
40.5228
 20
11.4223
 30
0.0
 10
38.1049
 20
12.5206
 30
0.0
 10
35.5727
 20
12.7477
 30
0.0
 10
35.5727
 20
12.7477
 30
0.0
 10
31.6538
 20
12.67
 30
0.0
 10
27.7854
 20
11.6999
 30
0.0
 10
24.1846
 20
9.892
 30
0.0
 10
24.1846
 20
9.892
 30
0.0
 10
17.3201
 20
6.4119
 30
0.0
 10
11.687
 20
0.2834
 30
0.0
 10
8.2286
 20
-7.4676
 30
0.0
 10
8.2286
 20
-7.4676
 30
0.0
 10
12.0119
 20
-2.4183
 30
0.0
 10
16.8094
 20
1.4549
 30
0.0
 10
22.19
 20
3.8049
 30
0.0
 10
22.19
 20
3.8049
 30
0.0
 10
25.3701
 20
5.3036
 30
0.0
 10
28.8209
 20
5.8463
 30
0.0
 10
32.2269
 20
5.3831
 30
0.0
 10
32.2269
 20
5.3831
 30
0.0
 10
33.3352
 20
5.3588
 30
0.0
 10
34.387
 20
4.808
 30
0.0
 10
35.1399
 20
3.8579
 30
0.0
 10
35.1399
 20
3.8579
 30
0.0
 10
35.8925
 20
2.9077
 30
0.0
 10
36.2812
 20
1.6403
 30
0.0
 10
36.216
 20
0.3478
 30
0.0
  0
SPLINE
  5
54
330
1F
100
AcDbEntity
  8
layer 1
 62
     7
370
     9
100
AcDbSpline
210
0.0
220
0.0
230
1.0
 70
    11
 71
     3
 72
    20
 73
    16
 74
     0
 42
0.0000000001
 43
0.0000000001
 12
1.0
 22
0.0
 32
0.0
 13
1.0
 23
0.0
 33
0.0
 40
0.0
 40
0.0
 40
0.0
 40
0.0
 40
0.2
 40
0.2
 40
0.2
 40
0.2
 40
0.4
 40
0.4
 40
0.4
 40
0.4
 40
0.6
 40
0.6
 40
0.6
 40
0.6
 40
1.0
 40
1.0
 40
1.0
 40
1.0
 10
33.3208
 20
-1.5307
 30
0.0
 10
31.0678
 20
-9.9278
 30
0.0
 10
33.1162
 20
-19.09
 30
0.0
 10
38.5966
 20
-25.1279
 30
0.0
 10
38.5966
 20
-25.1279
 30
0.0
 10
42.0644
 20
-29.586
 30
0.0
 10
45.8766
 20
-33.6612
 30
0.0
 10
49.9845
 20
-37.3023
 30
0.0
 10
49.9845
 20
-37.3023
 30
0.0
 10
36.9852
 20
-25.9661
 30
0.0
 10
22.6922
 20
-16.8091
 30
0.0
 10
7.5207
 20
-10.0979
 30
0.0
 10
7.5207
 20
-10.0979
 30
0.0
 10
16.6709
 20
-10.4141
 30
0.0
 10
25.6814
 20
-7.422
 30
0.0
 10
33.3208
 20
-1.5307
 30
0.0
  0
SPLINE
  5
55
330
1F
100
AcDbEntity
  8
layer 1
 62
     7
370
     9
100
AcDbSpline
210
0.0
220
0.0
230
1.0
 70
    11
 71
     3
 72
    20
 73
    16
 74
     0
 42
0.0000000001
 43
0.0000000001
 12
1.0
 22
0.0
 32
0.0
 13
1.0
 23
0.0
 33
0.0
 40
0.0
 40
0.0
 40
0.0
 40
0.0
 40
0.2
 40
0.2
 40
0.2
 40
0.2
 40
0.4
 40
0.4
 40
0.4
 40
0.4
 40
0.6
 40
0.6
 40
0.6
 40
0.6
 40
1.0
 40
1.0
 40
1.0
 40
1.0
 10
33.5138
 20
-36.4006
 30
0.0
 10
27.8708
 20
-34.883
 30
0.0
 10
22.4946
 20
-32.2392
 30
0.0
 10
17.622
 20
-28.5849
 30
0.0
 10
17.622
 20
-28.5849
 30
0.0
 10
13.2165
 20
-25.4299
 30
0.0
 10
9.7034
 20
-20.83
 30
0.0
 10
7.5207
 20
-15.3586
 30
0.0
 10
7.5207
 20
-15.3586
 30
0.0
 10
13.5442
 20
-24.7689
 30
0.0
 10
22.7197
 20
-30.7291
 30
0.0
 10
32.7417
 20
-31.7413
 30
0.0
 10
32.7417
 20
-31.7413
 30
0.0
 10
32.6384
 20
-33.3471
 30
0.0
 10
32.9049
 20
-34.9557
 30
0.0
 10
33.5138
 20
-36.4006
 30
0.0
  0
SPLINE
  5
56
330
1F
100
AcDbEntity
  8
layer 1
 62
     7
370
     9
100
AcDbSpline
210
0.0
220
0.0
230
1.0
 70
    11
 71
     3
 72
    24
 73
    20
 74
     0
 42
0.0000000001
 43
0.0000000001
 12
1.0
 22
0.0
 32
0.0
 13
1.0
 23
0.0
 33
0.0
 40
0.0
 40
0.0
 40
0.0
 40
0.0
 40
0.1666666666666667
 40
0.1666666666666667
 40
0.1666666666666667
 40
0.1666666666666667
 40
0.3333333333333333
 40
0.3333333333333333
 40
0.3333333333333333
 40
0.3333333333333333
 40
0.5
 40
0.5
 40
0.5
 40
0.5
 40
0.6666666666666666
 40
0.6666666666666666
 40
0.6666666666666666
 40
0.6666666666666666
 40
1.0
 40
1.0
 40
1.0
 40
1.0
 10
28.5597
 20
-38.6551
 30
0.0
 10
31.7837
 20
-39.9721
 30
0.0
 10
35.1323
 20
-40.8301
 30
0.0
 10
38.5323
 20
-41.2102
 30
0.0
 10
38.5323
 20
-41.2102
 30
0.0
 10
38.7699
 20
-43.1518
 30
0.0
 10
39.6186
 20
-44.9202
 30
0.0
 10
40.9128
 20
-46.1701
 30
0.0
 10
40.9128
 20
-46.1701
 30
0.0
 10
36.3667
 20
-45.7864
 30
0.0
 10
31.9187
 20
-44.4367
 30
0.0
 10
27.7877
 20
-42.1871
 30
0.0
 10
27.7877
 20
-42.1871
 30
0.0
 10
18.0525
 20
-38.0307
 30
0.0
 10
10.4106
 20
-29.0216
 30
0.0
 10
6.9417
 20
-17.613
 30
0.0
 10
6.9417
 20
-17.613
 30
0.0
 10
11.6845
 20
-27.4958
 30
0.0
 10
19.3819
 20
-34.9881
 30
0.0
 10
28.5597
 20
-38.6551
 30
0.0
  0
SPLINE
  5
57
330
1F
100
AcDbEntity
  8
layer 1
 62
     7
370
     9
100
AcDbSpline
210
0.0
220
0.0
230
1.0
 70
    11
 71
     3
 72
    32
 73
    28
 74
     0
 42
0.0000000001
 43
0.0000000001
 12
1.0
 22
0.0
 32
0.0
 13
1.0
 23
0.0
 33
0.0
 40
0.0
 40
0.0
 40
0.0
 40
0.0
 40
0.125
 40
0.125
 40
0.125
 40
0.125
 40
0.25
 40
0.25
 40
0.25
 40
0.25
 40
0.375
 40
0.375
 40
0.375
 40
0.375
 40
0.5
 40
0.5
 40
0.5
 40
0.5
 40
0.625
 40
0.625
 40
0.625
 40
0.625
 40
0.75
 40
0.75
 40
0.75
 40
0.75
 40
1.0
 40
1.0
 40
1.0
 40
1.0
 10
27.6589
 20
-45.4184
 30
0.0
 10
33.6809
 20
-49.7069
 30
0.0
 10
40.2676
 20
-52.8048
 30
0.0
 10
47.1536
 20
-54.5869
 30
0.0
 10
47.1536
 20
-54.5869
 30
0.0
 10
49.7635
 20
-57.9335
 30
0.0
 10
53.0639
 20
-60.4432
 30
0.0
 10
56.7401
 20
-61.8765
 30
0.0
 10
56.7401
 20
-61.8765
 30
0.0
 10
51.0751
 20
-60.8976
 30
0.0
 10
45.5123
 20
-59.2355
 30
0.0
 10
40.1407
 20
-56.9165
 30
0.0
 10
40.1407
 20
-56.9165
 30
0.0
 10
29.7234
 20
-52.5914
 30
0.0
 10
20.3768
 20
-45.3392
 30
0.0
 10
12.9254
 20
-35.7993
 30
0.0
 10
12.9254
 20
-35.7993
 30
0.0
 10
9.5607
 20
-31.4677
 30
0.0
 10
7.4064
 20
-26.0414
 30
0.0
 10
6.7487
 20
-20.2434
 30
0.0
 10
6.7487
 20
-20.2434
 30
0.0
 10
8.2393
 20
-24.9737
 30
0.0
 10
10.5131
 20
-29.3147
 30
0.0
 10
13.4402
 20
-33.0188
 30
0.0
 10
13.4402
 20
-33.0188
 30
0.0
 10
17.649
 20
-37.9233
 30
0.0
 10
22.4371
 20
-42.0989
 30
0.0
 10
27.6589
 20
-45.4184
 30
0.0
  0
SPLINE
  5
58
330
1F
100
AcDbEntity
  8
layer 1
 62
     7
370
     9
100
AcDbSpline
210
0.0
220
0.0
230
1.0
 70
    11
 71
     3
 72
    60
 73
    56
 74
     0
 42
0.0000000001
 43
0.0000000001
 12
1.0
 22
0.0
 32
0.0
 13
1.0
 23
0.0
 33
0.0
 40
0.0
 40
0.0
 40
0.0
 40
0.0
 40
0.0666666666666667
 40
0.0666666666666667
 40
0.0666666666666667
 40
0.0666666666666667
 40
0.1333333333333333
 40
0.1333333333333333
 40
0.1333333333333333
 40
0.1333333333333333
 40
0.2
 40
0.2
 40
0.2
 40
0.2
 40
0.2666666666666667
 40
0.2666666666666667
 40
0.2666666666666667
 40
0.2666666666666667
 40
0.3333333333333333
 40
0.3333333333333333
 40
0.3333333333333333
 40
0.3333333333333333
 40
0.4
 40
0.4
 40
0.4
 40
0.4
 40
0.4666666666666667
 40
0.4666666666666667
 40
0.4666666666666667
 40
0.4666666666666667
 40
0.5333333333333333
 40
0.5333333333333333
 40
0.5333333333333333
 40
0.5333333333333333
 40
0.6
 40
0.6
 40
0.6
 40
0.6
 40
0.6666666666666666
 40
0.6666666666666666
 40
0.6666666666666666
 40
0.6666666666666666
 40
0.7333333333333333
 40
0.7333333333333333
 40
0.7333333333333333
 40
0.7333333333333333
 40
0.8
 40
0.8
 40
0.8
 40
0.8
 40
0.8666666666666667
 40
0.8666666666666667
 40
0.8666666666666667
 40
0.8666666666666667
 40
1.0
 40
1.0
 40
1.0
 40
1.0
 10
16.1423
 20
-45.3435
 30
0.0
 10
19.977
 20
-50.9067
 30
0.0
 10
25.1906
 20
-54.949
 30
0.0
 10
31.0689
 20
-56.9165
 30
0.0
 10
31.0689
 20
-56.9165
 30
0.0
 10
34.857
 20
-57.8489
 30
0.0
 10
38.6781
 20
-58.5885
 30
0.0
 10
42.5212
 20
-59.1335
 30
0.0
 10
42.5212
 20
-59.1335
 30
0.0
 10
44.9101
 20
-59.4146
 30
0.0
 10
47.1783
 20
-60.4978
 30
0.0
 10
49.0516
 20
-62.2522
 30
0.0
 10
49.0516
 20
-62.2522
 30
0.0
 10
49.8016
 20
-62.9336
 30
0.0
 10
50.1787
 20
-64.0342
 30
0.0
 10
50.0389
 20
-65.1318
 30
0.0
 10
50.0389
 20
-65.1318
 30
0.0
 10
49.8988
 20
-66.2294
 30
0.0
 10
49.2634
 20
-67.1537
 30
0.0
 10
48.3761
 20
-67.5502
 30
0.0
 10
48.3761
 20
-67.5502
 30
0.0
 10
45.915
 20
-68.5975
 30
0.0
 10
43.1759
 20
-68.2359
 30
0.0
 10
40.9771
 20
-66.5733
 30
0.0
 10
40.9771
 20
-66.5733
 30
0.0
 10
40.5145
 20
-66.093
 30
0.0
 10
40.2553
 20
-65.4001
 30
0.0
 10
40.2676
 20
-64.6773
 30
0.0
 10
40.2676
 20
-64.6773
 30
0.0
 10
40.28
 20
-63.9544
 30
0.0
 10
40.5628
 20
-63.2742
 30
0.0
 10
41.0414
 20
-62.8158
 30
0.0
 10
41.0414
 20
-62.8158
 30
0.0
 10
41.8246
 20
-62.1519
 30
0.0
 10
42.7474
 20
-61.7492
 30
0.0
 10
43.7114
 20
-61.6511
 30
0.0
 10
43.7114
 20
-61.6511
 30
0.0
 10
42.1208
 20
-60.9188
 30
0.0
 10
40.4341
 20
-60.5121
 30
0.0
 10
38.7252
 20
-60.4485
 30
0.0
 10
38.7252
 20
-60.4485
 30
0.0
 10
36.2587
 20
-60.5166
 30
0.0
 10
33.7924
 20
-60.5919
 30
0.0
 10
31.3261
 20
-60.6741
 30
0.0
 10
31.3261
 20
-60.6741
 30
0.0
 10
23.7223
 20
-60.8102
 30
0.0
 10
16.6924
 20
-55.9648
 30
0.0
 10
13.1184
 20
-48.124
 30
0.0
 10
13.1184
 20
-48.124
 30
0.0
 10
9.372
 20
-41.4229
 30
0.0
 10
7.157
 20
-33.7134
 30
0.0
 10
6.6845
 20
-25.7292
 30
0.0
 10
6.6845
 20
-25.7292
 30
0.0
 10
8.7442
 20
-32.9084
 30
0.0
 10
11.9539
 20
-39.5646
 30
0.0
 10
16.1423
 20
-45.3435
 30
0.0
  0
SPLINE
  5
59
330
1F
100
AcDbEntity
  8
layer 1
 62
     7
370
     9
100
AcDbSpline
210
0.0
220
0.0
230
1.0
 70
    11
 71
     3
 72
    20
 73
    16
 74
     0
 42
0.0000000001
 43
0.0000000001
 12
1.0
 22
0.0
 32
0.0
 13
1.0
 23
0.0
 33
0.0
 40
0.0
 40
0.0
 40
0.0
 40
0.0
 40
0.2
 40
0.2
 40
0.2
 40
0.2
 40
0.4
 40
0.4
 40
0.4
 40
0.4
 40
0.6
 40
0.6
 40
0.6
 40
0.6
 40
1.0
 40
1.0
 40
1.0
 40
1.0
 10
5.5906
 20
96.2752
 30
0.0
 10
5.5906
 20
96.2752
 30
0.0
 10
5.5906
 20
62.4512
 30
0.0
 10
5.5906
 20
62.4512
 30
0.0
 10
5.5906
 20
62.4512
 30
0.0
 10
6.3032
 20
67.9234
 30
0.0
 10
7.4008
 20
73.3177
 30
0.0
 10
8.8718
 20
78.5792
 30
0.0
 10
8.8718
 20
78.5792
 30
0.0
 10
10.332
 20
83.7942
 30
0.0
 10
12.9522
 20
88.4625
 30
0.0
 10
16.4639
 20
92.1063
 30
0.0
 10
16.4639
 20
92.1063
 30
0.0
 10
12.5337
 20
91.9672
 30
0.0
 10
8.6859
 20
93.4425
 30
0.0
 10
5.5906
 20
96.2752
 30
0.0
  0
SPLINE
  5
5A
330
1F
100
AcDbEntity
  8
layer 1
 62
     7
370
     9
100
AcDbSpline
210
0.0
220
0.0
230
1.0
 70
    11
 71
     3
 72
    40
 73
    36
 74
     0
 42
0.0000000001
 43
0.0000000001
 12
1.0
 22
0.0
 32
0.0
 13
1.0
 23
0.0
 33
0.0
 40
0.0
 40
0.0
 40
0.0
 40
0.0
 40
0.1
 40
0.1
 40
0.1
 40
0.1
 40
0.2
 40
0.2
 40
0.2
 40
0.2
 40
0.3
 40
0.3
 40
0.3
 40
0.3
 40
0.4
 40
0.4
 40
0.4
 40
0.4
 40
0.5
 40
0.5
 40
0.5
 40
0.5
 40
0.6
 40
0.6
 40
0.6
 40
0.6
 40
0.7
 40
0.7
 40
0.7
 40
0.7
 40
0.8
 40
0.8
 40
0.8
 40
0.8
 40
1.0
 40
1.0
 40
1.0
 40
1.0
 10
36.216
 20
27.5522
 30
0.0
 10
38.3821
 20
27.7866
 30
0.0
 10
40.5322
 20
26.9402
 30
0.0
 10
42.1351
 20
25.2226
 30
0.0
 10
42.1351
 20
25.2226
 30
0.0
 10
43.7857
 20
23.3871
 30
0.0
 10
43.9537
 20
20.3792
 30
0.0
 10
42.5212
 20
18.3088
 30
0.0
 10
42.5212
 20
18.3088
 30
0.0
 10
40.5228
 20
16.4781
 30
0.0
 10
38.1049
 20
15.3797
 30
0.0
 10
35.5727
 20
15.1526
 30
0.0
 10
35.5727
 20
15.1526
 30
0.0
 10
31.6538
 20
15.2304
 30
0.0
 10
27.7854
 20
16.2002
 30
0.0
 10
24.1846
 20
18.0081
 30
0.0
 10
24.1846
 20
18.0081
 30
0.0
 10
17.3201
 20
21.4882
 30
0.0
 10
11.687
 20
27.6167
 30
0.0
 10
8.2286
 20
35.368
 30
0.0
 10
8.2286
 20
35.368
 30
0.0
 10
12.0119
 20
30.3184
 30
0.0
 10
16.8094
 20
26.4452
 30
0.0
 10
22.19
 20
24.0952
 30
0.0
 10
22.19
 20
24.0952
 30
0.0
 10
25.3701
 20
22.5965
 30
0.0
 10
28.8209
 20
22.0541
 30
0.0
 10
32.2269
 20
22.5172
 30
0.0
 10
32.2269
 20
22.5172
 30
0.0
 10
33.3352
 20
22.5415
 30
0.0
 10
34.387
 20
23.0921
 30
0.0
 10
35.1399
 20
24.0422
 30
0.0
 10
35.1399
 20
24.0422
 30
0.0
 10
35.8925
 20
24.9923
 30
0.0
 10
36.2812
 20
26.26
 30
0.0
 10
36.216
 20
27.5522
 30
0.0
  0
SPLINE
  5
5B
330
1F
100
AcDbEntity
  8
layer 1
 62
     7
370
     9
100
AcDbSpline
210
0.0
220
0.0
230
1.0
 70
    11
 71
     3
 72
    20
 73
    16
 74
     0
 42
0.0000000001
 43
0.0000000001
 12
1.0
 22
0.0
 32
0.0
 13
1.0
 23
0.0
 33
0.0
 40
0.0
 40
0.0
 40
0.0
 40
0.0
 40
0.2
 40
0.2
 40
0.2
 40
0.2
 40
0.4
 40
0.4
 40
0.4
 40
0.4
 40
0.6
 40
0.6
 40
0.6
 40
0.6
 40
1.0
 40
1.0
 40
1.0
 40
1.0
 10
33.3208
 20
29.4311
 30
0.0
 10
31.0678
 20
37.8278
 30
0.0
 10
33.1162
 20
46.9901
 30
0.0
 10
38.5966
 20
53.0282
 30
0.0
 10
38.5966
 20
53.0282
 30
0.0
 10
42.0644
 20
57.4861
 30
0.0
 10
45.8766
 20
61.5613
 30
0.0
 10
49.9845
 20
65.2027
 30
0.0
 10
49.9845
 20
65.2027
 30
0.0
 10
36.9852
 20
53.8662
 30
0.0
 10
22.6922
 20
44.7092
 30
0.0
 10
7.5207
 20
37.998
 30
0.0
 10
7.5207
 20
37.998
 30
0.0
 10
16.6709
 20
38.3141
 30
0.0
 10
25.6814
 20
35.3221
 30
0.0
 10
33.3208
 20
29.4311
 30
0.0
  0
SPLINE
  5
5C
330
1F
100
AcDbEntity
  8
layer 1
 62
     7
370
     9
100
AcDbSpline
210
0.0
220
0.0
230
1.0
 70
    11
 71
     3
 72
    20
 73
    16
 74
     0
 42
0.0000000001
 43
0.0000000001
 12
1.0
 22
0.0
 32
0.0
 13
1.0
 23
0.0
 33
0.0
 40
0.0
 40
0.0
 40
0.0
 40
0.0
 40
0.2
 40
0.2
 40
0.2
 40
0.2
 40
0.4
 40
0.4
 40
0.4
 40
0.4
 40
0.6
 40
0.6
 40
0.6
 40
0.6
 40
1.0
 40
1.0
 40
1.0
 40
1.0
 10
33.5138
 20
64.3007
 30
0.0
 10
27.8708
 20
62.7834
 30
0.0
 10
22.4946
 20
60.1392
 30
0.0
 10
17.622
 20
56.4852
 30
0.0
 10
17.622
 20
56.4852
 30
0.0
 10
13.2165
 20
53.33
 30
0.0
 10
9.7034
 20
48.7301
 30
0.0
 10
7.5207
 20
43.2587
 30
0.0
 10
7.5207
 20
43.2587
 30
0.0
 10
13.5442
 20
52.6692
 30
0.0
 10
22.7197
 20
58.6292
 30
0.0
 10
32.7417
 20
59.6414
 30
0.0
 10
32.7417
 20
59.6414
 30
0.0
 10
32.6384
 20
61.2472
 30
0.0
 10
32.9049
 20
62.8561
 30
0.0
 10
33.5138
 20
64.3007
 30
0.0
  0
SPLINE
  5
5D
330
1F
100
AcDbEntity
  8
layer 1
 62
     7
370
     9
100
AcDbSpline
210
0.0
220
0.0
230
1.0
 70
    11
 71
     3
 72
    24
 73
    20
 74
     0
 42
0.0000000001
 43
0.0000000001
 12
1.0
 22
0.0
 32
0.0
 13
1.0
 23
0.0
 33
0.0
 40
0.0
 40
0.0
 40
0.0
 40
0.0
 40
0.1666666666666667
 40
0.1666666666666667
 40
0.1666666666666667
 40
0.1666666666666667
 40
0.3333333333333333
 40
0.3333333333333333
 40
0.3333333333333333
 40
0.3333333333333333
 40
0.5
 40
0.5
 40
0.5
 40
0.5
 40
0.6666666666666666
 40
0.6666666666666666
 40
0.6666666666666666
 40
0.6666666666666666
 40
1.0
 40
1.0
 40
1.0
 40
1.0
 10
28.5597
 20
66.5552
 30
0.0
 10
31.7837
 20
67.8724
 30
0.0
 10
35.1323
 20
68.7302
 30
0.0
 10
38.5323
 20
69.1103
 30
0.0
 10
38.5323
 20
69.1103
 30
0.0
 10
38.7699
 20
71.0519
 30
0.0
 10
39.6186
 20
72.8203
 30
0.0
 10
40.9128
 20
74.0702
 30
0.0
 10
40.9128
 20
74.0702
 30
0.0
 10
36.3667
 20
73.6864
 30
0.0
 10
31.9187
 20
72.3368
 30
0.0
 10
27.7877
 20
70.0872
 30
0.0
 10
27.7877
 20
70.0872
 30
0.0
 10
18.0525
 20
65.9307
 30
0.0
 10
10.4106
 20
56.922
 30
0.0
 10
6.9417
 20
45.5131
 30
0.0
 10
6.9417
 20
45.5131
 30
0.0
 10
11.6845
 20
55.3962
 30
0.0
 10
19.3819
 20
62.8885
 30
0.0
 10
28.5597
 20
66.5552
 30
0.0
  0
SPLINE
  5
5E
330
1F
100
AcDbEntity
  8
layer 1
 62
     7
370
     9
100
AcDbSpline
210
0.0
220
0.0
230
1.0
 70
    11
 71
     3
 72
    32
 73
    28
 74
     0
 42
0.0000000001
 43
0.0000000001
 12
1.0
 22
0.0
 32
0.0
 13
1.0
 23
0.0
 33
0.0
 40
0.0
 40
0.0
 40
0.0
 40
0.0
 40
0.125
 40
0.125
 40
0.125
 40
0.125
 40
0.25
 40
0.25
 40
0.25
 40
0.25
 40
0.375
 40
0.375
 40
0.375
 40
0.375
 40
0.5
 40
0.5
 40
0.5
 40
0.5
 40
0.625
 40
0.625
 40
0.625
 40
0.625
 40
0.75
 40
0.75
 40
0.75
 40
0.75
 40
1.0
 40
1.0
 40
1.0
 40
1.0
 10
27.6589
 20
73.3188
 30
0.0
 10
33.6809
 20
77.6073
 30
0.0
 10
40.2676
 20
80.7051
 30
0.0
 10
47.1536
 20
82.487
 30
0.0
 10
47.1536
 20
82.487
 30
0.0
 10
49.7635
 20
85.8336
 30
0.0
 10
53.0639
 20
88.3433
 30
0.0
 10
56.7401
 20
89.7767
 30
0.0
 10
56.7401
 20
89.7767
 30
0.0
 10
51.0751
 20
88.7978
 30
0.0
 10
45.5123
 20
87.1357
 30
0.0
 10
40.1407
 20
84.8167
 30
0.0
 10
40.1407
 20
84.8167
 30
0.0
 10
29.7234
 20
80.4915
 30
0.0
 10
20.3768
 20
73.2396
 30
0.0
 10
12.9254
 20
63.6997
 30
0.0
 10
12.9254
 20
63.6997
 30
0.0
 10
9.5607
 20
59.3677
 30
0.0
 10
7.4064
 20
53.9414
 30
0.0
 10
6.7487
 20
48.1434
 30
0.0
 10
6.7487
 20
48.1434
 30
0.0
 10
8.2393
 20
52.8738
 30
0.0
 10
10.5131
 20
57.2148
 30
0.0
 10
13.4402
 20
60.9189
 30
0.0
 10
13.4402
 20
60.9189
 30
0.0
 10
17.649
 20
65.8234
 30
0.0
 10
22.4371
 20
69.9992
 30
0.0
 10
27.6589
 20
73.3188
 30
0.0
  0
SPLINE
  5
5F
330
1F
100
AcDbEntity
  8
layer 1
 62
     7
370
     9
100
AcDbSpline
210
0.0
220
0.0
230
1.0
 70
    11
 71
     3
 72
    60
 73
    56
 74
     0
 42
0.0000000001
 43
0.0000000001
 12
1.0
 22
0.0
 32
0.0
 13
1.0
 23
0.0
 33
0.0
 40
0.0
 40
0.0
 40
0.0
 40
0.0
 40
0.0666666666666667
 40
0.0666666666666667
 40
0.0666666666666667
 40
0.0666666666666667
 40
0.1333333333333333
 40
0.1333333333333333
 40
0.1333333333333333
 40
0.1333333333333333
 40
0.2
 40
0.2
 40
0.2
 40
0.2
 40
0.2666666666666667
 40
0.2666666666666667
 40
0.2666666666666667
 40
0.2666666666666667
 40
0.3333333333333333
 40
0.3333333333333333
 40
0.3333333333333333
 40
0.3333333333333333
 40
0.4
 40
0.4
 40
0.4
 40
0.4
 40
0.4666666666666667
 40
0.4666666666666667
 40
0.4666666666666667
 40
0.4666666666666667
 40
0.5333333333333333
 40
0.5333333333333333
 40
0.5333333333333333
 40
0.5333333333333333
 40
0.6
 40
0.6
 40
0.6
 40
0.6
 40
0.6666666666666666
 40
0.6666666666666666
 40
0.6666666666666666
 40
0.6666666666666666
 40
0.7333333333333333
 40
0.7333333333333333
 40
0.7333333333333333
 40
0.7333333333333333
 40
0.8
 40
0.8
 40
0.8
 40
0.8
 40
0.8666666666666667
 40
0.8666666666666667
 40
0.8666666666666667
 40
0.8666666666666667
 40
1.0
 40
1.0
 40
1.0
 40
1.0
 10
16.1423
 20
73.2436
 30
0.0
 10
11.9539
 20
67.4647
 30
0.0
 10
8.7442
 20
60.8085
 30
0.0
 10
6.6845
 20
53.6293
 30
0.0
 10
6.6845
 20
53.6293
 30
0.0
 10
7.157
 20
61.6135
 30
0.0
 10
9.372
 20
69.3233
 30
0.0
 10
13.1184
 20
76.0241
 30
0.0
 10
13.1184
 20
76.0241
 30
0.0
 10
16.6924
 20
83.8648
 30
0.0
 10
23.7223
 20
88.7104
 30
0.0
 10
31.3261
 20
88.5744
 30
0.0
 10
31.3261
 20
88.5744
 30
0.0
 10
33.7924
 20
88.4921
 30
0.0
 10
36.2587
 20
88.4169
 30
0.0
 10
38.7252
 20
88.3487
 30
0.0
 10
38.7252
 20
88.3487
 30
0.0
 10
40.4341
 20
88.4123
 30
0.0
 10
42.1208
 20
88.819
 30
0.0
 10
43.7114
 20
89.5512
 30
0.0
 10
43.7114
 20
89.5512
 30
0.0
 10
42.7474
 20
89.6493
 30
0.0
 10
41.8246
 20
90.052
 30
0.0
 10
41.0414
 20
90.7161
 30
0.0
 10
41.0414
 20
90.7161
 30
0.0
 10
40.5628
 20
91.1742
 30
0.0
 10
40.28
 20
91.8544
 30
0.0
 10
40.2676
 20
92.5775
 30
0.0
 10
40.2676
 20
92.5775
 30
0.0
 10
40.2553
 20
93.3002
 30
0.0
 10
40.5145
 20
93.9931
 30
0.0
 10
40.9771
 20
94.4735
 30
0.0
 10
40.9771
 20
94.4735
 30
0.0
 10
43.1759
 20
96.136
 30
0.0
 10
45.915
 20
96.4978
 30
0.0
 10
48.3761
 20
95.4504
 30
0.0
 10
48.3761
 20
95.4504
 30
0.0
 10
49.2634
 20
95.0539
 30
0.0
 10
49.8988
 20
94.1295
 30
0.0
 10
50.0389
 20
93.032
 30
0.0
 10
50.0389
 20
93.032
 30
0.0
 10
50.1787
 20
91.9345
 30
0.0
 10
49.8016
 20
90.8339
 30
0.0
 10
49.0516
 20
90.1523
 30
0.0
 10
49.0516
 20
90.1523
 30
0.0
 10
47.1783
 20
88.398
 30
0.0
 10
44.9101
 20
87.3148
 30
0.0
 10
42.5212
 20
87.0337
 30
0.0
 10
42.5212
 20
87.0337
 30
0.0
 10
38.6781
 20
86.4887
 30
0.0
 10
34.857
 20
85.7491
 30
0.0
 10
31.0689
 20
84.8167
 30
0.0
 10
31.0689
 20
84.8167
 30
0.0
 10
25.1906
 20
82.8493
 30
0.0
 10
19.977
 20
78.8068
 30
0.0
 10
16.1423
 20
73.2436
 30
0.0
  0
ENDSEC
  0
SECTION
  2
OBJECTS
  0
DICTIONARY
  5
C
330
0
100
AcDbDictionary
281
     1
  3
ACAD_GROUP
350
D
  3
ACAD_LAYOUT
350
1A
  3
ACAD_MATERIAL
350
3B
  3
ACAD_MLEADERSTYLE
350
81
  3
ACAD_MLINESTYLE
350
17
  3
ACAD_PLOTSETTINGS
350
19
  3
ACAD_PLOTSTYLENAME
350
E
  3
ACAD_TABLESTYLE
350
80
  3
ACAD_VISUALSTYLE
350
2A
  0
DICTIONARY
  5
D
102
{ACAD_REACTORS
330
C
102
}
330
C
100
AcDbDictionary
281
     1
  0
DICTIONARY
  5
1A
102
{ACAD_REACTORS
330
C
102
}
330
C
100
AcDbDictionary
281
     1
  3
Layout1
350
1E
  3
Layout2
350
26
  3
Model
350
22
  0
DICTIONARY
  5
3B
102
{ACAD_REACTORS
330
C
102
}
330
C
100
AcDbDictionary
281
     1
  3
ByBlock
350
3D
  3
ByLayer
350
3C
  3
Global
350
3E
  0
DICTIONARY
  5
81
102
{ACAD_REACTORS
330
C
102
}
330
C
100
AcDbDictionary
281
     1
  0
DICTIONARY
  5
17
102
{ACAD_REACTORS
330
C
102
}
330
C
100
AcDbDictionary
281
     1
  3
Standard
350
18
  0
DICTIONARY
  5
19
102
{ACAD_REACTORS
330
C
102
}
330
C
100
AcDbDictionary
281
     1
  0
ACDBDICTIONARYWDFLT
  5
E
102
{ACAD_REACTORS
330
C
102
}
330
C
100
AcDbDictionary
281
     1
  3
Normal
350
F
100
AcDbDictionaryWithDefault
340
F
  0
DICTIONARY
  5
80
102
{ACAD_REACTORS
330
C
102
}
330
C
100
AcDbDictionary
281
     1
  0
DICTIONARY
  5
2A
102
{ACAD_REACTORS
330
C
102
}
330
C
100
AcDbDictionary
281
     1
  3
2dWireframe
350
2F
  3
3D Hidden
350
31
  3
3dWireframe
350
30
  3
Basic
350
32
  3
Brighten
350
36
  3
ColorChange
350
3A
  3
Conceptual
350
34
  3
Dim
350
35
  3
Facepattern
350
39
  3
Flat
350
2B
  3
FlatWithEdges
350
2C
  3
Gouraud
350
2D
  3
GouraudWithEdges
350
2E
  3
Linepattern
350
38
  3
Realistic
350
33
  3
Thicken
350
37
  0
LAYOUT
  5
1E
102
{ACAD_REACTORS
330
1A
102
}
330
1A
100
AcDbPlotSettings
  1

  2
none_device
  4

  6

 40
0.0
 41
0.0
 42
0.0
 43
0.0
 44
0.0
 45
0.0
 46
0.0
 47
0.0
 48
0.0
 49
0.0
140
0.0
141
0.0
142
1.0
143
1.0
 70
   688
 72
     0
 73
     0
 74
     5
  7

 75
    16
 76
     0
 77
     2
 78
   300
147
1.0
148
0.0
149
0.0
100
AcDbLayout
  1
Layout1
 70
     1
 71
     1
 10
0.0
 20
0.0
 11
12.0
 21
9.0
 12
0.0
 22
0.0
 32
0.0
 14
1.000000000000000E+20
 24
1.000000000000000E+20
 34
1.000000000000000E+20
 15
-1.000000000000000E+20
 25
-1.000000000000000E+20
 35
-1.000000000000000E+20
146
0.0
 13
0.0
 23
0.0
 33
0.0
 16
1.0
 26
0.0
 36
0.0
 17
0.0
 27
1.0
 37
0.0
 76
     0
330
1B
  0
LAYOUT
  5
26
102
{ACAD_REACTORS
330
1A
102
}
330
1A
100
AcDbPlotSettings
  1

  2
none_device
  4

  6

 40
0.0
 41
0.0
 42
0.0
 43
0.0
 44
0.0
 45
0.0
 46
0.0
 47
0.0
 48
0.0
 49
0.0
140
0.0
141
0.0
142
1.0
143
1.0
 70
   688
 72
     0
 73
     0
 74
     5
  7

 75
    16
 76
     0
 77
     2
 78
   300
147
1.0
148
0.0
149
0.0
100
AcDbLayout
  1
Layout2
 70
     1
 71
     2
 10
0.0
 20
0.0
 11
0.0
 21
0.0
 12
0.0
 22
0.0
 32
0.0
 14
0.0
 24
0.0
 34
0.0
 15
0.0
 25
0.0
 35
0.0
146
0.0
 13
0.0
 23
0.0
 33
0.0
 16
1.0
 26
0.0
 36
0.0
 17
0.0
 27
1.0
 37
0.0
 76
     0
330
23
  0
LAYOUT
  5
22
102
{ACAD_REACTORS
330
1A
102
}
330
1A
100
AcDbPlotSettings
  1

  2
none_device
  4

  6

 40
0.0
 41
0.0
 42
0.0
 43
0.0
 44
0.0
 45
0.0
 46
0.0
 47
0.0
 48
0.0
 49
0.0
140
0.0
141
0.0
142
1.0
143
1.0
 70
  1712
 72
     0
 73
     0
 74
     0
  7

 75
     0
 76
     0
 77
     2
 78
   300
147
1.0
148
0.0
149
0.0
100
AcDbLayout
  1
Model
 70
     1
 71
     0
 10
0.0
 20
0.0
 11
12.0
 21
9.0
 12
0.0
 22
0.0
 32
0.0
 14
-51.2316
 24
-75.0461
 34
0.0
 15
59.5823
 25
102.9462
 35
0.0
146
0.0
 13
0.0
 23
0.0
 33
0.0
 16
1.0
 26
0.0
 36
0.0
 17
0.0
 27
1.0
 37
0.0
 76
     0
330
1F
331
29
  0
MATERIAL
  5
3D
102
{ACAD_REACTORS
330
3B
102
}
330
3B
100
AcDbMaterial
  1
ByBlock
 72
     1
 94
      127
  0
MATERIAL
  5
3C
102
{ACAD_REACTORS
330
3B
102
}
330
3B
100
AcDbMaterial
  1
ByLayer
 72
     1
 94
      127
  0
MATERIAL
  5
3E
102
{ACAD_REACTORS
330
3B
102
}
330
3B
100
AcDbMaterial
  1
Global
 72
     1
 94
      127
  0
MLINESTYLE
  5
18
102
{ACAD_REACTORS
330
17
102
}
330
17
100
AcDbMlineStyle
  2
Standard
 70
     0
  3

 62
   256
 51
90.0
 52
90.0
 71
     2
 49
0.5
 62
   256
  6
BYLAYER
 49
-0.5
 62
   256
  6
BYLAYER
  0
ACDBPLACEHOLDER
  5
F
102
{ACAD_REACTORS
330
E
102
}
330
E
  0
VISUALSTYLE
  5
2F
102
{ACAD_REACTORS
330
2A
102
}
102
{ACAD_XDICTIONARY
360
68
102
}
330
2A
100
AcDbVisualStyle
  2
2dWireframe
 70
     4
 71
     0
 72
     2
 73
     0
 90
        0
 40
-0.6
 41
-30.0
 62
     5
 63
     7
421
 16777215
 74
     1
 91
        4
 64
     7
 65
   257
 75
     1
175
     1
 42
1.0
 92
        0
 66
   257
 43
1.0
 76
     1
 77
     6
 78
     2
 67
     7
 79
     5
170
     0
171
     0
290
     0
174
     0
 93
        1
 44
0.0
173
     0
291
     0
 45
0.0
  0
VISUALSTYLE
  5
31
102
{ACAD_REACTORS
330
2A
102
}
102
{ACAD_XDICTIONARY
360
6C
102
}
330
2A
100
AcDbVisualStyle
  2
3D Hidden
 70
     6
 71
     1
 72
     2
 73
     2
 90
        0
 40
-0.6
 41
-30.0
 62
     5
 63
     7
421
 16777215
 74
     2
 91
        2
 64
     7
 65
   257
 75
     2
175
     1
 42
40.0
 92
        0
 66
   257
 43
1.0
 76
     1
 77
     6
 78
     2
 67
     7
 79
     3
170
     0
171
     0
290
     0
174
     0
 93
        1
 44
0.0
173
     0
291
     0
 45
0.0
  0
VISUALSTYLE
  5
30
102
{ACAD_REACTORS
330
2A
102
}
102
{ACAD_XDICTIONARY
360
6A
102
}
330
2A
100
AcDbVisualStyle
  2
3dWireframe
 70
     5
 71
     0
 72
     2
 73
     0
 90
        0
 40
-0.6
 41
-30.0
 62
     5
 63
     7
421
 16777215
 74
     1
 91
        4
 64
     7
 65
   257
 75
     1
175
     1
 42
1.0
 92
        0
 66
   257
 43
1.0
 76
     1
 77
     6
 78
     2
 67
     7
 79
     5
170
     0
171
     0
290
     0
174
     0
 93
        1
 44
0.0
173
     0
291
     0
 45
0.0
  0
VISUALSTYLE
  5
32
102
{ACAD_REACTORS
330
2A
102
}
102
{ACAD_XDICTIONARY
360
6E
102
}
330
2A
100
AcDbVisualStyle
  2
Basic
 70
     7
 71
     1
 72
     0
 73
     1
 90
        0
 40
-0.6
 41
-30.0
 62
     5
 63
     7
421
 16777215
 74
     0
 91
        4
 64
     7
 65
   257
 75
     1
175
     1
 42
1.0
 92
        8
 66
     7
 43
1.0
 76
     1
 77
     6
 78
     2
 67
     7
 79
     5
170
     0
171
     0
290
     0
174
     0
 93
        1
 44
0.0
173
     0
291
     1
 45
0.0
  0
VISUALSTYLE
  5
36
102
{ACAD_REACTORS
330
2A
102
}
102
{ACAD_XDICTIONARY
360
76
102
}
330
2A
100
AcDbVisualStyle
  2
Brighten
 70
    12
 71
     2
 72
     2
 73
     0
 90
        0
 40
-0.6
 41
-30.0
 62
     5
 63
     7
421
 16777215
 74
     1
 91
        4
 64
     7
 65
   257
 75
     1
175
     1
 42
1.0
 92
        8
 66
     7
 43
1.0
 76
     1
 77
     6
 78
     2
 67
     7
 79
     5
170
     0
171
     0
290
     0
174
     0
 93
        1
 44
50.0
173
     0
291
     1
 45
0.0
  0
VISUALSTYLE
  5
3A
102
{ACAD_REACTORS
330
2A
102
}
102
{ACAD_XDICTIONARY
360
7E
102
}
330
2A
100
AcDbVisualStyle
  2
ColorChange
 70
    16
 71
     2
 72
     2
 73
     3
 90
        0
 40
-0.6
 41
-30.0
 62
     5
 63
     8
421
  8421504
 74
     1
 91
        4
 64
     7
 65
   257
 75
     1
175
     1
 42
1.0
 92
        8
 66
     8
424
  8421504
 43
1.0
 76
     1
 77
     6
 78
     2
 67
     7
 79
     5
170
     0
171
     0
290
     0
174
     0
 93
        1
 44
0.0
173
     0
291
     1
 45
0.0
  0
VISUALSTYLE
  5
34
102
{ACAD_REACTORS
330
2A
102
}
102
{ACAD_XDICTIONARY
360
72
102
}
330
2A
100
AcDbVisualStyle
  2
Conceptual
 70
     9
 71
     3
 72
     2
 73
     0
 90
        0
 40
-0.6
 41
-30.0
 62
     5
 63
     7
421
 16777215
 74
     2
 91
        2
 64
     7
 65
   257
 75
     1
175
     1
 42
40.0
 92
        8
 66
     7
 43
1.0
 76
     1
 77
     6
 78
     2
 67
     7
 79
     3
170
     0
171
     0
290
     0
174
     0
 93
        1
 44
0.0
173
     0
291
     0
 45
0.0
  0
VISUALSTYLE
  5
35
102
{ACAD_REACTORS
330
2A
102
}
102
{ACAD_XDICTIONARY
360
74
102
}
330
2A
100
AcDbVisualStyle
  2
Dim
 70
    11
 71
     2
 72
     2
 73
     0
 90
        0
 40
-0.6
 41
-30.0
 62
     5
 63
     7
421
 16777215
 74
     1
 91
        4
 64
     7
 65
   257
 75
     1
175
     1
 42
1.0
 92
        8
 66
     7
 43
1.0
 76
     1
 77
     6
 78
     2
 67
     7
 79
     5
170
     0
171
     0
290
     0
174
     0
 93
        1
 44
-50.0
173
     0
291
     1
 45
0.0
  0
VISUALSTYLE
  5
39
102
{ACAD_REACTORS
330
2A
102
}
102
{ACAD_XDICTIONARY
360
7C
102
}
330
2A
100
AcDbVisualStyle
  2
Facepattern
 70
    15
 71
     2
 72
     2
 73
     0
 90
        0
 40
-0.6
 41
-30.0
 62
     5
 63
     7
421
 16777215
 74
     1
 91
        4
 64
     7
 65
   257
 75
     1
175
     1
 42
1.0
 92
        8
 66
     7
 43
1.0
 76
     1
 77
     6
 78
     2
 67
     7
 79
     5
170
     0
171
     0
290
     0
174
     0
 93
        1
 44
0.0
173
     0
291
     1
 45
0.0
  0
VISUALSTYLE
  5
2B
102
{ACAD_REACTORS
330
2A
102
}
102
{ACAD_XDICTIONARY
360
60
102
}
330
2A
100
AcDbVisualStyle
  2
Flat
 70
     0
 71
     2
 72
     1
 73
     1
 90
        2
 40
-0.6
 41
30.0
 62
     5
 63
     7
421
 16777215
 74
     0
 91
        4
 64
     7
 65
   257
 75
     1
175
     1
 42
1.0
 92
        8
 66
     7
 43
1.0
 76
     1
 77
     6
 78
     2
 67
     7
 79
     5
170
     0
171
     0
290
     0
174
     0
 93
       13
 44
0.0
173
     0
291
     1
 45
0.0
  0
VISUALSTYLE
  5
2C
102
{ACAD_REACTORS
330
2A
102
}
102
{ACAD_XDICTIONARY
360
62
102
}
330
2A
100
AcDbVisualStyle
  2
FlatWithEdges
 70
     1
 71
     2
 72
     1
 73
     1
 90
        2
 40
-0.6
 41
30.0
 62
     5
 63
     7
421
 16777215
 74
     1
 91
        4
 64
     7
 65
   257
 75
     1
175
     1
 42
1.0
 92
        0
 66
   257
 43
1.0
 76
     1
 77
     6
 78
     2
 67
     7
 79
     5
170
     0
171
     0
290
     0
174
     0
 93
       13
 44
0.0
173
     0
291
     1
 45
0.0
  0
VISUALSTYLE
  5
2D
102
{ACAD_REACTORS
330
2A
102
}
102
{ACAD_XDICTIONARY
360
64
102
}
330
2A
100
AcDbVisualStyle
  2
Gouraud
 70
     2
 71
     2
 72
     2
 73
     1
 90
        2
 40
-0.6
 41
30.0
 62
     5
 63
     7
421
 16777215
 74
     0
 91
        4
 64
     7
 65
   257
 75
     1
175
     1
 42
1.0
 92
        0
 66
     7
 43
1.0
 76
     1
 77
     6
 78
     2
 67
     7
 79
     5
170
     0
171
     0
290
     0
174
     0
 93
       13
 44
0.0
173
     0
291
     1
 45
0.0
  0
VISUALSTYLE
  5
2E
102
{ACAD_REACTORS
330
2A
102
}
102
{ACAD_XDICTIONARY
360
66
102
}
330
2A
100
AcDbVisualStyle
  2
GouraudWithEdges
 70
     3
 71
     2
 72
     2
 73
     1
 90
        2
 40
-0.6
 41
30.0
 62
     5
 63
     7
421
 16777215
 74
     1
 91
        4
 64
     7
 65
   257
 75
     1
175
     1
 42
1.0
 92
        0
 66
   257
 43
1.0
 76
     1
 77
     6
 78
     2
 67
     7
 79
     5
170
     0
171
     0
290
     0
174
     0
 93
       13
 44
0.0
173
     0
291
     1
 45
0.0
  0
VISUALSTYLE
  5
38
102
{ACAD_REACTORS
330
2A
102
}
102
{ACAD_XDICTIONARY
360
7A
102
}
330
2A
100
AcDbVisualStyle
  2
Linepattern
 70
    14
 71
     2
 72
     2
 73
     0
 90
        0
 40
-0.6
 41
-30.0
 62
     5
 63
     7
421
 16777215
 74
     1
 91
        4
 64
     7
 65
   257
 75
     7
175
     7
 42
1.0
 92
        8
 66
     7
 43
1.0
 76
     1
 77
     6
 78
     2
 67
     7
 79
     5
170
     0
171
     0
290
     0
174
     0
 93
        1
 44
0.0
173
     0
291
     1
 45
0.0
  0
VISUALSTYLE
  5
33
102
{ACAD_REACTORS
330
2A
102
}
102
{ACAD_XDICTIONARY
360
70
102
}
330
2A
100
AcDbVisualStyle
  2
Realistic
 70
     8
 71
     2
 72
     2
 73
     0
 90
        0
 40
-0.6
 41
-30.0
 62
     5
 63
     7
421
 16777215
 74
     1
 91
        0
 64
     7
 65
   257
 75
     1
175
     1
 42
1.0
 92
        8
 66
     8
424
  7895160
 43
1.0
 76
     1
 77
     6
 78
     2
 67
     7
 79
     5
170
     0
171
     0
290
     0
174
     0
 93
       13
 44
0.0
173
     0
291
     0
 45
0.0
  0
VISUALSTYLE
  5
37
102
{ACAD_REACTORS
330
2A
102
}
102
{ACAD_XDICTIONARY
360
78
102
}
330
2A
100
AcDbVisualStyle
  2
Thicken
 70
    13
 71
     2
 72
     2
 73
     0
 90
        0
 40
-0.6
 41
-30.0
 62
     5
 63
     7
421
 16777215
 74
     1
 91
        4
 64
     7
 65
   257
 75
     1
175
     1
 42
1.0
 92
       12
 66
     7
 43
1.0
 76
     1
 77
     6
 78
     2
 67
     7
 79
     5
170
     0
171
     0
290
     0
174
     0
 93
        1
 44
0.0
173
     0
291
     1
 45
0.0
  0
DICTIONARY
  5
68
330
2F
100
AcDbDictionary
280
     1
281
     1
  3
ACAD_XREC_ROUNDTRIP
360
69
  0
DICTIONARY
  5
6C
330
31
100
AcDbDictionary
280
     1
281
     1
  3
ACAD_XREC_ROUNDTRIP
360
6D
  0
DICTIONARY
  5
6A
330
30
100
AcDbDictionary
280
     1
281
     1
  3
ACAD_XREC_ROUNDTRIP
360
6B
  0
DICTIONARY
  5
6E
330
32
100
AcDbDictionary
280
     1
281
     1
  3
ACAD_XREC_ROUNDTRIP
360
6F
  0
DICTIONARY
  5
76
330
36
100
AcDbDictionary
280
     1
281
     1
  3
ACAD_XREC_ROUNDTRIP
360
77
  0
DICTIONARY
  5
7E
330
3A
100
AcDbDictionary
280
     1
281
     1
  3
ACAD_XREC_ROUNDTRIP
360
7F
  0
DICTIONARY
  5
72
330
34
100
AcDbDictionary
280
     1
281
     1
  3
ACAD_XREC_ROUNDTRIP
360
73
  0
DICTIONARY
  5
74
330
35
100
AcDbDictionary
280
     1
281
     1
  3
ACAD_XREC_ROUNDTRIP
360
75
  0
DICTIONARY
  5
7C
330
39
100
AcDbDictionary
280
     1
281
     1
  3
ACAD_XREC_ROUNDTRIP
360
7D
  0
DICTIONARY
  5
60
330
2B
100
AcDbDictionary
280
     1
281
     1
  3
ACAD_XREC_ROUNDTRIP
360
61
  0
DICTIONARY
  5
62
330
2C
100
AcDbDictionary
280
     1
281
     1
  3
ACAD_XREC_ROUNDTRIP
360
63
  0
DICTIONARY
  5
64
330
2D
100
AcDbDictionary
280
     1
281
     1
  3
ACAD_XREC_ROUNDTRIP
360
65
  0
DICTIONARY
  5
66
330
2E
100
AcDbDictionary
280
     1
281
     1
  3
ACAD_XREC_ROUNDTRIP
360
67
  0
DICTIONARY
  5
7A
330
38
100
AcDbDictionary
280
     1
281
     1
  3
ACAD_XREC_ROUNDTRIP
360
7B
  0
DICTIONARY
  5
70
330
33
100
AcDbDictionary
280
     1
281
     1
  3
ACAD_XREC_ROUNDTRIP
360
71
  0
DICTIONARY
  5
78
330
37
100
AcDbDictionary
280
     1
281
     1
  3
ACAD_XREC_ROUNDTRIP
360
79
  0
XRECORD
  5
69
102
{ACAD_REACTORS
330
68
102
}
330
68
100
AcDbXrecord
280
     1
102
RTVSPropertyOp0
 70
     1
102
RTVSPropertyOp1
 70
     1
102
RTVSPropertyOp2
 70
     1
102
RTVSPropertyOp3
 70
     1
102
RTVSPropertyOp4
 70
     1
102
RTVSPropertyOp5
 70
     1
102
RTVSPropertyOp6
 70
     1
102
RTVSPropertyOp7
 70
     1
102
RTVSPropertyOp8
 70
     1
102
RTVSPropertyOp9
 70
     1
102
RTVSPropertyOp10
 70
     1
102
RTVSPropertyOp11
 70
     1
102
RTVSPropertyOp12
 70
     1
102
RTVSPropertyOp13
 70
     1
102
RTVSPropertyOp14
 70
     1
102
RTVSPropertyOp15
 70
     1
102
RTVSPropertyOp16
 70
     1
102
RTVSPropertyOp17
 70
     1
102
RTVSPropertyOp18
 70
     1
102
RTVSPropertyOp19
 70
     1
102
RTVSPropertyOp20
 70
     1
102
RTVSPropertyOp21
 70
     1
102
RTVSPropertyOp22
 70
     1
102
RTVSPropertyOp23
 70
     1
102
RTVSPropertyOp24
 70
     1
102
RTVSPropertyOp25
 70
     1
102
RTVSPropertyOp26
 70
     1
102
RTVSPropertyOp27
 70
     1
102
RTVSPropertyOp28
 70
     1
102
RTVSPropertyOp29
 70
     1
102
RTVSPropertyOp30
 70
     1
102
RTVSPropertyOp31
 70
     1
102
RTVSPropertyOp32
 70
     1
  0
XRECORD
  5
6D
102
{ACAD_REACTORS
330
6C
102
}
330
6C
100
AcDbXrecord
280
     1
102
RTVSPropertyOp0
 70
     1
102
RTVSPropertyOp1
 70
     1
102
RTVSPropertyOp2
 70
     1
102
RTVSPropertyOp3
 70
     1
102
RTVSPropertyOp4
 70
     1
102
RTVSPropertyOp5
 70
     1
102
RTVSPropertyOp6
 70
     1
102
RTVSPropertyOp7
 70
     1
102
RTVSPropertyOp8
 70
     1
102
RTVSPropertyOp9
 70
     1
102
RTVSPropertyOp10
 70
     1
102
RTVSPropertyOp11
 70
     1
102
RTVSPropertyOp12
 70
     1
102
RTVSPropertyOp13
 70
     1
102
RTVSPropertyOp14
 70
     1
102
RTVSPropertyOp15
 70
     1
102
RTVSPropertyOp16
 70
     1
102
RTVSPropertyOp17
 70
     1
102
RTVSPropertyOp18
 70
     1
102
RTVSPropertyOp19
 70
     1
102
RTVSPropertyOp20
 70
     1
102
RTVSPropertyOp21
 70
     1
102
RTVSPropertyOp22
 70
     1
102
RTVSPropertyOp23
 70
     1
102
RTVSPropertyOp24
 70
     1
102
RTVSPropertyOp25
 70
     1
102
RTVSPropertyOp26
 70
     1
102
RTVSPropertyOp27
 70
     1
102
RTVSPropertyOp28
 70
     1
102
RTVSPropertyOp29
 70
     1
102
RTVSPropertyOp30
 70
     1
102
RTVSPropertyOp31
 70
     1
102
RTVSPropertyOp32
 70
     1
  0
XRECORD
  5
6B
102
{ACAD_REACTORS
330
6A
102
}
330
6A
100
AcDbXrecord
280
     1
102
RTVSPropertyOp0
 70
     1
102
RTVSPropertyOp1
 70
     1
102
RTVSPropertyOp2
 70
     1
102
RTVSPropertyOp3
 70
     1
102
RTVSPropertyOp4
 70
     1
102
RTVSPropertyOp5
 70
     1
102
RTVSPropertyOp6
 70
     1
102
RTVSPropertyOp7
 70
     1
102
RTVSPropertyOp8
 70
     1
102
RTVSPropertyOp9
 70
     1
102
RTVSPropertyOp10
 70
     1
102
RTVSPropertyOp11
 70
     1
102
RTVSPropertyOp12
 70
     1
102
RTVSPropertyOp13
 70
     1
102
RTVSPropertyOp14
 70
     1
102
RTVSPropertyOp15
 70
     1
102
RTVSPropertyOp16
 70
     1
102
RTVSPropertyOp17
 70
     1
102
RTVSPropertyOp18
 70
     1
102
RTVSPropertyOp19
 70
     1
102
RTVSPropertyOp20
 70
     1
102
RTVSPropertyOp21
 70
     1
102
RTVSPropertyOp22
 70
     1
102
RTVSPropertyOp23
 70
     1
102
RTVSPropertyOp24
 70
     1
102
RTVSPropertyOp25
 70
     1
102
RTVSPropertyOp26
 70
     1
102
RTVSPropertyOp27
 70
     1
102
RTVSPropertyOp28
 70
     1
102
RTVSPropertyOp29
 70
     1
102
RTVSPropertyOp30
 70
     1
102
RTVSPropertyOp31
 70
     1
102
RTVSPropertyOp32
 70
     1
  0
XRECORD
  5
6F
102
{ACAD_REACTORS
330
6E
102
}
330
6E
100
AcDbXrecord
280
     1
102
RTVSPropertyOp0
 70
     1
102
RTVSPropertyOp1
 70
     1
102
RTVSPropertyOp2
 70
     1
102
RTVSPropertyOp3
 70
     1
102
RTVSPropertyOp4
 70
     1
102
RTVSPropertyOp5
 70
     1
102
RTVSPropertyOp6
 70
     1
102
RTVSPropertyOp7
 70
     1
102
RTVSPropertyOp8
 70
     1
102
RTVSPropertyOp9
 70
     1
102
RTVSPropertyOp10
 70
     1
102
RTVSPropertyOp11
 70
     1
102
RTVSPropertyOp12
 70
     1
102
RTVSPropertyOp13
 70
     1
102
RTVSPropertyOp14
 70
     1
102
RTVSPropertyOp15
 70
     1
102
RTVSPropertyOp16
 70
     1
102
RTVSPropertyOp17
 70
     1
102
RTVSPropertyOp18
 70
     1
102
RTVSPropertyOp19
 70
     1
102
RTVSPropertyOp20
 70
     1
102
RTVSPropertyOp21
 70
     1
102
RTVSPropertyOp22
 70
     1
102
RTVSPropertyOp23
 70
     1
102
RTVSPropertyOp24
 70
     1
102
RTVSPropertyOp25
 70
     1
102
RTVSPropertyOp26
 70
     1
102
RTVSPropertyOp27
 70
     1
102
RTVSPropertyOp28
 70
     1
102
RTVSPropertyOp29
 70
     1
102
RTVSPropertyOp30
 70
     1
102
RTVSPropertyOp31
 70
     1
102
RTVSPropertyOp32
 70
     1
  0
XRECORD
  5
77
102
{ACAD_REACTORS
330
76
102
}
330
76
100
AcDbXrecord
280
     1
102
RTVSPropertyOp0
 70
     1
102
RTVSPropertyOp1
 70
     1
102
RTVSPropertyOp2
 70
     1
102
RTVSPropertyOp3
 70
     1
102
RTVSPropertyOp4
 70
     1
102
RTVSPropertyOp5
 70
     1
102
RTVSPropertyOp6
 70
     1
102
RTVSPropertyOp7
 70
     1
102
RTVSPropertyOp8
 70
     1
102
RTVSPropertyOp9
 70
     1
102
RTVSPropertyOp10
 70
     1
102
RTVSPropertyOp11
 70
     1
102
RTVSPropertyOp12
 70
     1
102
RTVSPropertyOp13
 70
     1
102
RTVSPropertyOp14
 70
     1
102
RTVSPropertyOp15
 70
     1
102
RTVSPropertyOp16
 70
     1
102
RTVSPropertyOp17
 70
     1
102
RTVSPropertyOp18
 70
     1
102
RTVSPropertyOp19
 70
     1
102
RTVSPropertyOp20
 70
     1
102
RTVSPropertyOp21
 70
     1
102
RTVSPropertyOp22
 70
     1
102
RTVSPropertyOp23
 70
     1
102
RTVSPropertyOp24
 70
     1
102
RTVSPropertyOp25
 70
     1
102
RTVSPropertyOp26
 70
     1
102
RTVSPropertyOp27
 70
     1
102
RTVSPropertyOp28
 70
     1
102
RTVSPropertyOp29
 70
     1
102
RTVSPropertyOp30
 70
     1
102
RTVSPropertyOp31
 70
     1
102
RTVSPropertyOp32
 70
     1
  0
XRECORD
  5
7F
102
{ACAD_REACTORS
330
7E
102
}
330
7E
100
AcDbXrecord
280
     1
102
RTVSPropertyOp0
 70
     1
102
RTVSPropertyOp1
 70
     1
102
RTVSPropertyOp2
 70
     1
102
RTVSPropertyOp3
 70
     1
102
RTVSPropertyOp4
 70
     1
102
RTVSPropertyOp5
 70
     1
102
RTVSPropertyOp6
 70
     1
102
RTVSPropertyOp7
 70
     1
102
RTVSPropertyOp8
 70
     1
102
RTVSPropertyOp9
 70
     1
102
RTVSPropertyOp10
 70
     1
102
RTVSPropertyOp11
 70
     1
102
RTVSPropertyOp12
 70
     1
102
RTVSPropertyOp13
 70
     1
102
RTVSPropertyOp14
 70
     1
102
RTVSPropertyOp15
 70
     1
102
RTVSPropertyOp16
 70
     1
102
RTVSPropertyOp17
 70
     1
102
RTVSPropertyOp18
 70
     1
102
RTVSPropertyOp19
 70
     1
102
RTVSPropertyOp20
 70
     1
102
RTVSPropertyOp21
 70
     1
102
RTVSPropertyOp22
 70
     1
102
RTVSPropertyOp23
 70
     1
102
RTVSPropertyOp24
 70
     1
102
RTVSPropertyOp25
 70
     1
102
RTVSPropertyOp26
 70
     1
102
RTVSPropertyOp27
 70
     1
102
RTVSPropertyOp28
 70
     1
102
RTVSPropertyOp29
 70
     1
102
RTVSPropertyOp30
 70
     1
102
RTVSPropertyOp31
 70
     1
102
RTVSPropertyOp32
 70
     1
  0
XRECORD
  5
73
102
{ACAD_REACTORS
330
72
102
}
330
72
100
AcDbXrecord
280
     1
102
RTVSPropertyOp0
 70
     1
102
RTVSPropertyOp1
 70
     1
102
RTVSPropertyOp2
 70
     1
102
RTVSPropertyOp3
 70
     1
102
RTVSPropertyOp4
 70
     1
102
RTVSPropertyOp5
 70
     1
102
RTVSPropertyOp6
 70
     1
102
RTVSPropertyOp7
 70
     1
102
RTVSPropertyOp8
 70
     1
102
RTVSPropertyOp9
 70
     1
102
RTVSPropertyOp10
 70
     1
102
RTVSPropertyOp11
 70
     1
102
RTVSPropertyOp12
 70
     1
102
RTVSPropertyOp13
 70
     1
102
RTVSPropertyOp14
 70
     1
102
RTVSPropertyOp15
 70
     1
102
RTVSPropertyOp16
 70
     1
102
RTVSPropertyOp17
 70
     1
102
RTVSPropertyOp18
 70
     1
102
RTVSPropertyOp19
 70
     1
102
RTVSPropertyOp20
 70
     1
102
RTVSPropertyOp21
 70
     1
102
RTVSPropertyOp22
 70
     1
102
RTVSPropertyOp23
 70
     1
102
RTVSPropertyOp24
 70
     1
102
RTVSPropertyOp25
 70
     1
102
RTVSPropertyOp26
 70
     1
102
RTVSPropertyOp27
 70
     1
102
RTVSPropertyOp28
 70
     1
102
RTVSPropertyOp29
 70
     1
102
RTVSPropertyOp30
 70
     1
102
RTVSPropertyOp31
 70
     1
102
RTVSPropertyOp32
 70
     1
  0
XRECORD
  5
75
102
{ACAD_REACTORS
330
74
102
}
330
74
100
AcDbXrecord
280
     1
102
RTVSPropertyOp0
 70
     1
102
RTVSPropertyOp1
 70
     1
102
RTVSPropertyOp2
 70
     1
102
RTVSPropertyOp3
 70
     1
102
RTVSPropertyOp4
 70
     1
102
RTVSPropertyOp5
 70
     1
102
RTVSPropertyOp6
 70
     1
102
RTVSPropertyOp7
 70
     1
102
RTVSPropertyOp8
 70
     1
102
RTVSPropertyOp9
 70
     1
102
RTVSPropertyOp10
 70
     1
102
RTVSPropertyOp11
 70
     1
102
RTVSPropertyOp12
 70
     1
102
RTVSPropertyOp13
 70
     1
102
RTVSPropertyOp14
 70
     1
102
RTVSPropertyOp15
 70
     1
102
RTVSPropertyOp16
 70
     1
102
RTVSPropertyOp17
 70
     1
102
RTVSPropertyOp18
 70
     1
102
RTVSPropertyOp19
 70
     1
102
RTVSPropertyOp20
 70
     1
102
RTVSPropertyOp21
 70
     1
102
RTVSPropertyOp22
 70
     1
102
RTVSPropertyOp23
 70
     1
102
RTVSPropertyOp24
 70
     1
102
RTVSPropertyOp25
 70
     1
102
RTVSPropertyOp26
 70
     1
102
RTVSPropertyOp27
 70
     1
102
RTVSPropertyOp28
 70
     1
102
RTVSPropertyOp29
 70
     1
102
RTVSPropertyOp30
 70
     1
102
RTVSPropertyOp31
 70
     1
102
RTVSPropertyOp32
 70
     1
  0
XRECORD
  5
7D
102
{ACAD_REACTORS
330
7C
102
}
330
7C
100
AcDbXrecord
280
     1
102
RTVSPropertyOp0
 70
     1
102
RTVSPropertyOp1
 70
     1
102
RTVSPropertyOp2
 70
     1
102
RTVSPropertyOp3
 70
     1
102
RTVSPropertyOp4
 70
     1
102
RTVSPropertyOp5
 70
     1
102
RTVSPropertyOp6
 70
     1
102
RTVSPropertyOp7
 70
     1
102
RTVSPropertyOp8
 70
     1
102
RTVSPropertyOp9
 70
     1
102
RTVSPropertyOp10
 70
     1
102
RTVSPropertyOp11
 70
     1
102
RTVSPropertyOp12
 70
     1
102
RTVSPropertyOp13
 70
     1
102
RTVSPropertyOp14
 70
     1
102
RTVSPropertyOp15
 70
     1
102
RTVSPropertyOp16
 70
     1
102
RTVSPropertyOp17
 70
     1
102
RTVSPropertyOp18
 70
     1
102
RTVSPropertyOp19
 70
     1
102
RTVSPropertyOp20
 70
     1
102
RTVSPropertyOp21
 70
     1
102
RTVSPropertyOp22
 70
     1
102
RTVSPropertyOp23
 70
     1
102
RTVSPropertyOp24
 70
     1
102
RTVSPropertyOp25
 70
     1
102
RTVSPropertyOp26
 70
     1
102
RTVSPropertyOp27
 70
     1
102
RTVSPropertyOp28
 70
     1
102
RTVSPropertyOp29
 70
     1
102
RTVSPropertyOp30
 70
     1
102
RTVSPropertyOp31
 70
     1
102
RTVSPropertyOp32
 70
     1
  0
XRECORD
  5
61
102
{ACAD_REACTORS
330
60
102
}
330
60
100
AcDbXrecord
280
     1
102
RTVSPropertyOp0
 70
     1
102
RTVSPropertyOp1
 70
     1
102
RTVSPropertyOp2
 70
     1
102
RTVSPropertyOp3
 70
     1
102
RTVSPropertyOp4
 70
     1
102
RTVSPropertyOp5
 70
     1
102
RTVSPropertyOp6
 70
     1
102
RTVSPropertyOp7
 70
     1
102
RTVSPropertyOp8
 70
     1
102
RTVSPropertyOp9
 70
     1
102
RTVSPropertyOp10
 70
     1
102
RTVSPropertyOp11
 70
     1
102
RTVSPropertyOp12
 70
     1
102
RTVSPropertyOp13
 70
     1
102
RTVSPropertyOp14
 70
     1
102
RTVSPropertyOp15
 70
     1
102
RTVSPropertyOp16
 70
     1
102
RTVSPropertyOp17
 70
     1
102
RTVSPropertyOp18
 70
     1
102
RTVSPropertyOp19
 70
     1
102
RTVSPropertyOp20
 70
     1
102
RTVSPropertyOp21
 70
     1
102
RTVSPropertyOp22
 70
     1
102
RTVSPropertyOp23
 70
     1
102
RTVSPropertyOp24
 70
     1
102
RTVSPropertyOp25
 70
     1
102
RTVSPropertyOp26
 70
     1
102
RTVSPropertyOp27
 70
     1
102
RTVSPropertyOp28
 70
     1
102
RTVSPropertyOp29
 70
     1
102
RTVSPropertyOp30
 70
     1
102
RTVSPropertyOp31
 70
     1
102
RTVSPropertyOp32
 70
     1
  0
XRECORD
  5
63
102
{ACAD_REACTORS
330
62
102
}
330
62
100
AcDbXrecord
280
     1
102
RTVSPropertyOp0
 70
     1
102
RTVSPropertyOp1
 70
     1
102
RTVSPropertyOp2
 70
     1
102
RTVSPropertyOp3
 70
     1
102
RTVSPropertyOp4
 70
     1
102
RTVSPropertyOp5
 70
     1
102
RTVSPropertyOp6
 70
     1
102
RTVSPropertyOp7
 70
     1
102
RTVSPropertyOp8
 70
     1
102
RTVSPropertyOp9
 70
     1
102
RTVSPropertyOp10
 70
     1
102
RTVSPropertyOp11
 70
     1
102
RTVSPropertyOp12
 70
     1
102
RTVSPropertyOp13
 70
     1
102
RTVSPropertyOp14
 70
     1
102
RTVSPropertyOp15
 70
     1
102
RTVSPropertyOp16
 70
     1
102
RTVSPropertyOp17
 70
     1
102
RTVSPropertyOp18
 70
     1
102
RTVSPropertyOp19
 70
     1
102
RTVSPropertyOp20
 70
     1
102
RTVSPropertyOp21
 70
     1
102
RTVSPropertyOp22
 70
     1
102
RTVSPropertyOp23
 70
     1
102
RTVSPropertyOp24
 70
     1
102
RTVSPropertyOp25
 70
     1
102
RTVSPropertyOp26
 70
     1
102
RTVSPropertyOp27
 70
     1
102
RTVSPropertyOp28
 70
     1
102
RTVSPropertyOp29
 70
     1
102
RTVSPropertyOp30
 70
     1
102
RTVSPropertyOp31
 70
     1
102
RTVSPropertyOp32
 70
     1
  0
XRECORD
  5
65
102
{ACAD_REACTORS
330
64
102
}
330
64
100
AcDbXrecord
280
     1
102
RTVSPropertyOp0
 70
     1
102
RTVSPropertyOp1
 70
     1
102
RTVSPropertyOp2
 70
     1
102
RTVSPropertyOp3
 70
     1
102
RTVSPropertyOp4
 70
     1
102
RTVSPropertyOp5
 70
     1
102
RTVSPropertyOp6
 70
     1
102
RTVSPropertyOp7
 70
     1
102
RTVSPropertyOp8
 70
     1
102
RTVSPropertyOp9
 70
     1
102
RTVSPropertyOp10
 70
     1
102
RTVSPropertyOp11
 70
     1
102
RTVSPropertyOp12
 70
     1
102
RTVSPropertyOp13
 70
     1
102
RTVSPropertyOp14
 70
     1
102
RTVSPropertyOp15
 70
     1
102
RTVSPropertyOp16
 70
     1
102
RTVSPropertyOp17
 70
     1
102
RTVSPropertyOp18
 70
     1
102
RTVSPropertyOp19
 70
     1
102
RTVSPropertyOp20
 70
     1
102
RTVSPropertyOp21
 70
     1
102
RTVSPropertyOp22
 70
     1
102
RTVSPropertyOp23
 70
     1
102
RTVSPropertyOp24
 70
     1
102
RTVSPropertyOp25
 70
     1
102
RTVSPropertyOp26
 70
     1
102
RTVSPropertyOp27
 70
     1
102
RTVSPropertyOp28
 70
     1
102
RTVSPropertyOp29
 70
     1
102
RTVSPropertyOp30
 70
     1
102
RTVSPropertyOp31
 70
     1
102
RTVSPropertyOp32
 70
     1
  0
XRECORD
  5
67
102
{ACAD_REACTORS
330
66
102
}
330
66
100
AcDbXrecord
280
     1
102
RTVSPropertyOp0
 70
     1
102
RTVSPropertyOp1
 70
     1
102
RTVSPropertyOp2
 70
     1
102
RTVSPropertyOp3
 70
     1
102
RTVSPropertyOp4
 70
     1
102
RTVSPropertyOp5
 70
     1
102
RTVSPropertyOp6
 70
     1
102
RTVSPropertyOp7
 70
     1
102
RTVSPropertyOp8
 70
     1
102
RTVSPropertyOp9
 70
     1
102
RTVSPropertyOp10
 70
     1
102
RTVSPropertyOp11
 70
     1
102
RTVSPropertyOp12
 70
     1
102
RTVSPropertyOp13
 70
     1
102
RTVSPropertyOp14
 70
     1
102
RTVSPropertyOp15
 70
     1
102
RTVSPropertyOp16
 70
     1
102
RTVSPropertyOp17
 70
     1
102
RTVSPropertyOp18
 70
     1
102
RTVSPropertyOp19
 70
     1
102
RTVSPropertyOp20
 70
     1
102
RTVSPropertyOp21
 70
     1
102
RTVSPropertyOp22
 70
     1
102
RTVSPropertyOp23
 70
     1
102
RTVSPropertyOp24
 70
     1
102
RTVSPropertyOp25
 70
     1
102
RTVSPropertyOp26
 70
     1
102
RTVSPropertyOp27
 70
     1
102
RTVSPropertyOp28
 70
     1
102
RTVSPropertyOp29
 70
     1
102
RTVSPropertyOp30
 70
     1
102
RTVSPropertyOp31
 70
     1
102
RTVSPropertyOp32
 70
     1
  0
XRECORD
  5
7B
102
{ACAD_REACTORS
330
7A
102
}
330
7A
100
AcDbXrecord
280
     1
102
RTVSPropertyOp0
 70
     1
102
RTVSPropertyOp1
 70
     1
102
RTVSPropertyOp2
 70
     1
102
RTVSPropertyOp3
 70
     1
102
RTVSPropertyOp4
 70
     1
102
RTVSPropertyOp5
 70
     1
102
RTVSPropertyOp6
 70
     1
102
RTVSPropertyOp7
 70
     1
102
RTVSPropertyOp8
 70
     1
102
RTVSPropertyOp9
 70
     1
102
RTVSPropertyOp10
 70
     1
102
RTVSPropertyOp11
 70
     1
102
RTVSPropertyOp12
 70
     1
102
RTVSPropertyOp13
 70
     1
102
RTVSPropertyOp14
 70
     1
102
RTVSPropertyOp15
 70
     1
102
RTVSPropertyOp16
 70
     1
102
RTVSPropertyOp17
 70
     1
102
RTVSPropertyOp18
 70
     1
102
RTVSPropertyOp19
 70
     1
102
RTVSPropertyOp20
 70
     1
102
RTVSPropertyOp21
 70
     1
102
RTVSPropertyOp22
 70
     1
102
RTVSPropertyOp23
 70
     1
102
RTVSPropertyOp24
 70
     1
102
RTVSPropertyOp25
 70
     1
102
RTVSPropertyOp26
 70
     1
102
RTVSPropertyOp27
 70
     1
102
RTVSPropertyOp28
 70
     1
102
RTVSPropertyOp29
 70
     1
102
RTVSPropertyOp30
 70
     1
102
RTVSPropertyOp31
 70
     1
102
RTVSPropertyOp32
 70
     1
  0
XRECORD
  5
71
102
{ACAD_REACTORS
330
70
102
}
330
70
100
AcDbXrecord
280
     1
102
RTVSPropertyOp0
 70
     1
102
RTVSPropertyOp1
 70
     1
102
RTVSPropertyOp2
 70
     1
102
RTVSPropertyOp3
 70
     1
102
RTVSPropertyOp4
 70
     1
102
RTVSPropertyOp5
 70
     1
102
RTVSPropertyOp6
 70
     1
102
RTVSPropertyOp7
 70
     1
102
RTVSPropertyOp8
 70
     1
102
RTVSPropertyOp9
 70
     1
102
RTVSPropertyOp10
 70
     1
102
RTVSPropertyOp11
 70
     1
102
RTVSPropertyOp12
 70
     1
102
RTVSPropertyOp13
 70
     1
102
RTVSPropertyOp14
 70
     1
102
RTVSPropertyOp15
 70
     1
102
RTVSPropertyOp16
 70
     1
102
RTVSPropertyOp17
 70
     1
102
RTVSPropertyOp18
 70
     1
102
RTVSPropertyOp19
 70
     1
102
RTVSPropertyOp20
 70
     1
102
RTVSPropertyOp21
 70
     1
102
RTVSPropertyOp22
 70
     1
102
RTVSPropertyOp23
 70
     1
102
RTVSPropertyOp24
 70
     1
102
RTVSPropertyOp25
 70
     1
102
RTVSPropertyOp26
 70
     1
102
RTVSPropertyOp27
 70
     1
102
RTVSPropertyOp28
 70
     1
102
RTVSPropertyOp29
 70
     1
102
RTVSPropertyOp30
 70
     1
102
RTVSPropertyOp31
 70
     1
102
RTVSPropertyOp32
 70
     1
  0
XRECORD
  5
79
102
{ACAD_REACTORS
330
78
102
}
330
78
100
AcDbXrecord
280
     1
102
RTVSPropertyOp0
 70
     1
102
RTVSPropertyOp1
 70
     1
102
RTVSPropertyOp2
 70
     1
102
RTVSPropertyOp3
 70
     1
102
RTVSPropertyOp4
 70
     1
102
RTVSPropertyOp5
 70
     1
102
RTVSPropertyOp6
 70
     1
102
RTVSPropertyOp7
 70
     1
102
RTVSPropertyOp8
 70
     1
102
RTVSPropertyOp9
 70
     1
102
RTVSPropertyOp10
 70
     1
102
RTVSPropertyOp11
 70
     1
102
RTVSPropertyOp12
 70
     1
102
RTVSPropertyOp13
 70
     1
102
RTVSPropertyOp14
 70
     1
102
RTVSPropertyOp15
 70
     1
102
RTVSPropertyOp16
 70
     1
102
RTVSPropertyOp17
 70
     1
102
RTVSPropertyOp18
 70
     1
102
RTVSPropertyOp19
 70
     1
102
RTVSPropertyOp20
 70
     1
102
RTVSPropertyOp21
 70
     1
102
RTVSPropertyOp22
 70
     1
102
RTVSPropertyOp23
 70
     1
102
RTVSPropertyOp24
 70
     1
102
RTVSPropertyOp25
 70
     1
102
RTVSPropertyOp26
 70
     1
102
RTVSPropertyOp27
 70
     1
102
RTVSPropertyOp28
 70
     1
102
RTVSPropertyOp29
 70
     1
102
RTVSPropertyOp30
 70
     1
102
RTVSPropertyOp31
 70
     1
102
RTVSPropertyOp32
 70
     1
  0
ENDSEC
  0
EOF
