  0
SECTION
  2
HEADER
  9
$ACADVER
  1
AC1021
  9
$ACADMAINTVER
 70
    25
  9
$DWGCODEPAGE
  3
ANSI_1252
  9
$INSBASE
 10
0.0
 20
0.0
 30
0.0
  9
$EXTMIN
 10
12.04
 20
-88.7109
 30
0.0
  9
$EXTMAX
 10
196.5045
 20
95.7537
 30
0.0
  9
$LIMMIN
 10
0.0
 20
0.0
  9
$LIMMAX
 10
12.0
 20
9.0
  9
$ORTHOMODE
 70
     0
  9
$REGENMODE
 70
     1
  9
$FILLMODE
 70
     1
  9
$QTEXTMODE
 70
     0
  9
$MIRRTEXT
 70
     1
  9
$LTSCALE
 40
1.0
  9
$ATTMODE
 70
     1
  9
$TEXTSIZE
 40
0.2
  9
$TRACEWID
 40
0.05
  9
$TEXTSTYLE
  7
Standard
  9
$CLAYER
  8
0
  9
$CELTYPE
  6
ByLayer
  9
$CECOLOR
 62
   256
  9
$CELTSCALE
 40
1.0
  9
$DISPSILH
 70
     0
  9
$DIMSCALE
 40
1.0
  9
$DIMASZ
 40
0.18
  9
$DIMEXO
 40
0.0625
  9
$DIMDLI
 40
0.38
  9
$DIMRND
 40
0.0
  9
$DIMDLE
 40
0.0
  9
$DIMEXE
 40
0.18
  9
$DIMTP
 40
0.0
  9
$DIMTM
 40
0.0
  9
$DIMTXT
 40
0.18
  9
$DIMCEN
 40
0.09
  9
$DIMTSZ
 40
0.0
  9
$DIMTOL
 70
     0
  9
$DIMLIM
 70
     0
  9
$DIMTIH
 70
     1
  9
$DIMTOH
 70
     1
  9
$DIMSE1
 70
     0
  9
$DIMSE2
 70
     0
  9
$DIMTAD
 70
     0
  9
$DIMZIN
 70
     0
  9
$DIMBLK
  1

  9
$DIMASO
 70
     1
  9
$DIMSHO
 70
     1
  9
$DIMPOST
  1

  9
$DIMAPOST
  1

  9
$DIMALT
 70
     0
  9
$DIMALTD
 70
     2
  9
$DIMALTF
 40
25.4
  9
$DIMLFAC
 40
1.0
  9
$DIMTOFL
 70
     0
  9
$DIMTVP
 40
0.0
  9
$DIMTIX
 70
     0
  9
$DIMSOXD
 70
     0
  9
$DIMSAH
 70
     0
  9
$DIMBLK1
  1

  9
$DIMBLK2
  1

  9
$DIMSTYLE
  2
Standard
  9
$DIMCLRD
 70
     0
  9
$DIMCLRE
 70
     0
  9
$DIMCLRT
 70
     0
  9
$DIMTFAC
 40
1.0
  9
$DIMGAP
 40
0.09
  9
$DIMJUST
 70
     0
  9
$DIMSD1
 70
     0
  9
$DIMSD2
 70
     0
  9
$DIMTOLJ
 70
     1
  9
$DIMTZIN
 70
     0
  9
$DIMALTZ
 70
     0
  9
$DIMALTTZ
 70
     0
  9
$DIMUPT
 70
     0
  9
$DIMDEC
 70
     4
  9
$DIMTDEC
 70
     4
  9
$DIMALTU
 70
     2
  9
$DIMALTTD
 70
     2
  9
$DIMTXSTY
  7
Standard
  9
$DIMAUNIT
 70
     0
  9
$DIMADEC
 70
     0
  9
$DIMALTRND
 40
0.0
  9
$DIMAZIN
 70
     0
  9
$DIMDSEP
 70
    46
  9
$DIMATFIT
 70
     3
  9
$DIMFRAC
 70
     0
  9
$DIMLDRBLK
  1

  9
$DIMLUNIT
 70
     2
  9
$DIMLWD
 70
    -2
  9
$DIMLWE
 70
    -2
  9
$DIMTMOVE
 70
     0
  9
$DIMFXL
 40
1.0
  9
$DIMFXLON
 70
     0
  9
$DIMJOGANG
 40
0.7853981633974483
  9
$DIMTFILL
 70
     0
  9
$DIMTFILLCLR
 70
     0
  9
$DIMARCSYM
 70
     0
  9
$DIMLTYPE
  6

  9
$DIMLTEX1
  6

  9
$DIMLTEX2
  6

  9
$LUNITS
 70
     2
  9
$LUPREC
 70
     4
  9
$SKETCHINC
 40
0.1
  9
$FILLETRAD
 40
0.5
  9
$AUNITS
 70
     0
  9
$AUPREC
 70
     0
  9
$MENU
  1
.
  9
$ELEVATION
 40
0.0
  9
$PELEVATION
 40
0.0
  9
$THICKNESS
 40
0.0
  9
$LIMCHECK
 70
     0
  9
$CHAMFERA
 40
0.5
  9
$CHAMFERB
 40
0.5
  9
$CHAMFERC
 40
1.0
  9
$CHAMFERD
 40
0.0
  9
$SKPOLY
 70
     0
  9
$TDCREATE
 40
2458492.679520706
  9
$TDUCREATE
 40
2458492.679520706
  9
$TDUPDATE
 40
2458492.679520833
  9
$TDUUPDATE
 40
2458492.679520833
  9
$TDINDWG
 40
0.0000000116
  9
$TDUSRTIMER
 40
0.0000000116
  9
$USRTIMER
 70
     1
  9
$ANGBASE
 50
0.0
  9
$ANGDIR
 70
     0
  9
$PDMODE
 70
     0
  9
$PDSIZE
 40
0.0
  9
$PLINEWID
 40
0.0
  9
$SPLFRAME
 70
     0
  9
$SPLINETYPE
 70
     6
  9
$SPLINESEGS
 70
     8
  9
$HANDSEED
  5
A5
  9
$SURFTAB1
 70
     6
  9
$SURFTAB2
 70
     6
  9
$SURFTYPE
 70
     6
  9
$SURFU
 70
     6
  9
$SURFV
 70
     6
  9
$UCSBASE
  2

  9
$UCSNAME
  2

  9
$UCSORG
 10
0.0
 20
0.0
 30
0.0
  9
$UCSXDIR
 10
1.0
 20
0.0
 30
0.0
  9
$UCSYDIR
 10
0.0
 20
1.0
 30
0.0
  9
$UCSORTHOREF
  2

  9
$UCSORTHOVIEW
 70
     0
  9
$UCSORGTOP
 10
0.0
 20
0.0
 30
0.0
  9
$UCSORGBOTTOM
 10
0.0
 20
0.0
 30
0.0
  9
$UCSORGLEFT
 10
0.0
 20
0.0
 30
0.0
  9
$UCSORGRIGHT
 10
0.0
 20
0.0
 30
0.0
  9
$UCSORGFRONT
 10
0.0
 20
0.0
 30
0.0
  9
$UCSORGBACK
 10
0.0
 20
0.0
 30
0.0
  9
$PUCSBASE
  2

  9
$PUCSNAME
  2

  9
$PUCSORG
 10
0.0
 20
0.0
 30
0.0
  9
$PUCSXDIR
 10
1.0
 20
0.0
 30
0.0
  9
$PUCSYDIR
 10
0.0
 20
1.0
 30
0.0
  9
$PUCSORTHOREF
  2

  9
$PUCSORTHOVIEW
 70
     0
  9
$PUCSORGTOP
 10
0.0
 20
0.0
 30
0.0
  9
$PUCSORGBOTTOM
 10
0.0
 20
0.0
 30
0.0
  9
$PUCSORGLEFT
 10
0.0
 20
0.0
 30
0.0
  9
$PUCSORGRIGHT
 10
0.0
 20
0.0
 30
0.0
  9
$PUCSORGFRONT
 10
0.0
 20
0.0
 30
0.0
  9
$PUCSORGBACK
 10
0.0
 20
0.0
 30
0.0
  9
$USERI1
 70
     0
  9
$USERI2
 70
     0
  9
$USERI3
 70
     0
  9
$USERI4
 70
     0
  9
$USERI5
 70
     0
  9
$USERR1
 40
0.0
  9
$USERR2
 40
0.0
  9
$USERR3
 40
0.0
  9
$USERR4
 40
0.0
  9
$USERR5
 40
0.0
  9
$WORLDVIEW
 70
     1
  9
$SHADEDGE
 70
     3
  9
$SHADEDIF
 70
    70
  9
$TILEMODE
 70
     1
  9
$MAXACTVP
 70
    64
  9
$PINSBASE
 10
0.0
 20
0.0
 30
0.0
  9
$PLIMCHECK
 70
     0
  9
$PEXTMIN
 10
1.000000000000000E+20
 20
1.000000000000000E+20
 30
1.000000000000000E+20
  9
$PEXTMAX
 10
-1.000000000000000E+20
 20
-1.000000000000000E+20
 30
-1.000000000000000E+20
  9
$PLIMMIN
 10
0.0
 20
0.0
  9
$PLIMMAX
 10
12.0
 20
9.0
  9
$UNITMODE
 70
     0
  9
$VISRETAIN
 70
     1
  9
$PLINEGEN
 70
     0
  9
$PSLTSCALE
 70
     1
  9
$TREEDEPTH
 70
  3020
  9
$CMLSTYLE
  2
Standard
  9
$CMLJUST
 70
     0
  9
$CMLSCALE
 40
1.0
  9
$PROXYGRAPHICS
 70
     1
  9
$MEASUREMENT
 70
     0
  9
$CELWEIGHT
370
    -1
  9
$ENDCAPS
280
     0
  9
$JOINSTYLE
280
     0
  9
$LWDISPLAY
290
     0
  9
$INSUNITS
 70
     4
  9
$HYPERLINKBASE
  1

  9
$STYLESHEET
  1

  9
$XEDIT
290
     1
  9
$CEPSNTYPE
380
     0
  9
$PSTYLEMODE
290
     1
  9
$FINGERPRINTGUID
  2
{07306792-93DC-461D-BE83-4B463E25D853}
  9
$VERSIONGUID
  2
{FAEB1C32-E019-11D5-929B-00C0DF256EC4}
  9
$EXTNAMES
290
     1
  9
$PSVPSCALE
 40
0.0
  9
$OLESTARTUP
290
     0
  9
$SORTENTS
280
   127
  9
$INDEXCTL
280
     0
  9
$HIDETEXT
280
     1
  9
$XCLIPFRAME
290
     0
  9
$HALOGAP
280
     0
  9
$OBSCOLOR
 70
   257
  9
$OBSLTYPE
280
     0
  9
$INTERSECTIONDISPLAY
280
     0
  9
$INTERSECTIONCOLOR
 70
   257
  9
$DIMASSOC
280
     2
  9
$PROJECTNAME
  1

  9
$CAMERADISPLAY
290
     0
  9
$LENSLENGTH
 40
50.0
  9
$CAMERAHEIGHT
 40
0.0
  9
$STEPSPERSEC
 40
2.0
  9
$STEPSIZE
 40
6.0
  9
$3DDWFPREC
 40
2.0
  9
$PSOLWIDTH
 40
0.25
  9
$PSOLHEIGHT
 40
4.0
  9
$LOFTANG1
 40
1.570796326794897
  9
$LOFTANG2
 40
1.570796326794897
  9
$LOFTMAG1
 40
0.0
  9
$LOFTMAG2
 40
0.0
  9
$LOFTPARAM
 70
     7
  9
$LOFTNORMALS
280
     1
  9
$LATITUDE
 40
37.795
  9
$LONGITUDE
 40
-122.394
  9
$NORTHDIRECTION
 40
0.0
  9
$TIMEZONE
 70
 -8000
  9
$LIGHTGLYPHDISPLAY
280
     1
  9
$TILEMODELIGHTSYNCH
280
     1
  9
$SOLIDHIST
280
     1
  9
$SHOWHIST
280
     1
  9
$DWFFRAME
280
     2
  9
$DGNFRAME
280
     2
  9
$REALWORLDSCALE
290
     1
  9
$INTERFERECOLOR
 62
   256
  9
$CSHADOW
280
     0
  9
$SHADOWPLANELOCATION
 40
0.0
  0
ENDSEC
  0
SECTION
  2
CLASSES
  0
CLASS
  1
ACDBDICTIONARYWDFLT
  2
AcDbDictionaryWithDefault
  3
ObjectDBX Classes
 90
        0
 91
        4
280
     0
281
     0
  0
CLASS
  1
VISUALSTYLE
  2
AcDbVisualStyle
  3
ObjectDBX Classes
 90
     4095
 91
        4
280
     0
281
     0
  0
CLASS
  1
MATERIAL
  2
AcDbMaterial
  3
ObjectDBX Classes
 90
     1153
 91
        4
280
     0
281
     0
  0
ENDSEC
  0
SECTION
  2
TABLES
  0
TABLE
  2
VPORT
  5
8
330
0
100
AcDbSymbolTable
 70
     1
  0
VPORT
  5
29
330
8
100
AcDbSymbolTableRecord
100
AcDbViewportTableRecord
  2
*Active
 70
     0
 10
0.0
 20
0.0
 11
1.0
 21
1.0
 12
10.42990654205607
 22
4.5
 13
0.0
 23
0.0
 14
0.5
 24
0.5
 15
0.5
 25
0.5
 16
0.0
 26
0.0
 36
1.0
 17
0.0
 27
0.0
 37
0.0
 40
9.0
 41
1.972972972850329
 42
50.0
 43
0.0
 44
0.0
 50
0.0
 51
0.0
 71
     0
 72
   100
 73
     1
 74
     3
 75
     0
 76
     0
 77
     0
 78
     0
281
     0
 65
     1
110
0.0
120
0.0
130
0.0
111
1.0
121
0.0
131
0.0
112
0.0
122
1.0
132
0.0
 79
     0
146
0.0
 60
     3
 61
     5
292
     1
282
     1
141
0.0
142
0.0
 63
   250
  0
ENDTAB
  0
TABLE
  2
LTYPE
  5
5
330
0
100
AcDbSymbolTable
 70
     1
  0
LTYPE
  5
14
330
5
100
AcDbSymbolTableRecord
100
AcDbLinetypeTableRecord
  2
ByBlock
 70
     0
  3

 72
    65
 73
     0
 40
0.0
  0
LTYPE
  5
15
330
5
100
AcDbSymbolTableRecord
100
AcDbLinetypeTableRecord
  2
ByLayer
 70
     0
  3

 72
    65
 73
     0
 40
0.0
  0
LTYPE
  5
16
330
5
100
AcDbSymbolTableRecord
100
AcDbLinetypeTableRecord
  2
Continuous
 70
     0
  3
Solid line
 72
    65
 73
     0
 40
0.0
  0
ENDTAB
  0
TABLE
  2
LAYER
  5
2
330
0
100
AcDbSymbolTable
 70
     2
  0
LAYER
  5
10
330
2
100
AcDbSymbolTableRecord
100
AcDbLayerTableRecord
  2
0
 70
     0
 62
     7
  6
Continuous
370
    -3
390
F
347
3E
  0
LAYER
  5
40
330
2
100
AcDbSymbolTableRecord
100
AcDbLayerTableRecord
  2
layer 1
 70
     0
 62
     7
  6
Continuous
370
    -3
390
F
347
3E
  0
ENDTAB
  0
TABLE
  2
STYLE
  5
3
330
0
100
AcDbSymbolTable
 70
     1
  0
STYLE
  5
11
330
3
100
AcDbSymbolTableRecord
100
AcDbTextStyleTableRecord
  2
Standard
 70
     0
 40
0.0
 41
1.0
 50
0.0
 71
     0
 42
0.2
  3
txt
  4

  0
ENDTAB
  0
TABLE
  2
VIEW
  5
6
330
0
100
AcDbSymbolTable
 70
     0
  0
ENDTAB
  0
TABLE
  2
UCS
  5
7
330
0
100
AcDbSymbolTable
 70
     0
  0
ENDTAB
  0
TABLE
  2
APPID
  5
9
330
0
100
AcDbSymbolTable
 70
     2
  0
APPID
  5
12
330
9
100
AcDbSymbolTableRecord
100
AcDbRegAppTableRecord
  2
ACAD
 70
     0
  0
APPID
  5
3F
330
9
100
AcDbSymbolTableRecord
100
AcDbRegAppTableRecord
  2
ODA
 70
     0
  0
ENDTAB
  0
TABLE
  2
DIMSTYLE
  5
A
330
0
100
AcDbSymbolTable
 70
     1
100
AcDbDimStyleTable
  0
DIMSTYLE
105
27
330
A
100
AcDbSymbolTableRecord
100
AcDbDimStyleTableRecord
  2
Standard
 70
     0
178
     0
340
11
  0
ENDTAB
  0
TABLE
  2
BLOCK_RECORD
  5
1
330
0
100
AcDbSymbolTable
 70
     1
  0
BLOCK_RECORD
  5
1F
330
1
100
AcDbSymbolTableRecord
100
AcDbBlockTableRecord
  2
*Model_Space
340
22
 70
     0
280
     1
281
     0
  0
BLOCK_RECORD
  5
1B
330
1
100
AcDbSymbolTableRecord
100
AcDbBlockTableRecord
  2
*Paper_Space
340
1E
 70
     0
280
     1
281
     0
  0
BLOCK_RECORD
  5
23
330
1
100
AcDbSymbolTableRecord
100
AcDbBlockTableRecord
  2
*Paper_Space0
340
26
 70
     0
280
     1
281
     0
  0
ENDTAB
  0
ENDSEC
  0
SECTION
  2
BLOCKS
  0
BLOCK
  5
20
330
1F
100
AcDbEntity
  8
0
100
AcDbBlockBegin
  2
*Model_Space
 70
     0
 10
0.0
 20
0.0
 30
0.0
  3
*Model_Space
  1

  0
ENDBLK
  5
21
330
1F
100
AcDbEntity
  8
0
100
AcDbBlockEnd
  0
BLOCK
  5
1C
330
1B
100
AcDbEntity
 67
     1
  8
0
100
AcDbBlockBegin
  2
*Paper_Space
 70
     0
 10
0.0
 20
0.0
 30
0.0
  3
*Paper_Space
  1

  0
ENDBLK
  5
1D
330
1B
100
AcDbEntity
 67
     1
  8
0
100
AcDbBlockEnd
  0
BLOCK
  5
24
330
23
100
AcDbEntity
  8
0
100
AcDbBlockBegin
  2
*Paper_Space0
 70
     0
 10
0.0
 20
0.0
 30
0.0
  3
*Paper_Space0
  1

  0
ENDBLK
  5
25
330
23
100
AcDbEntity
  8
0
100
AcDbBlockEnd
  0
ENDSEC
  0
SECTION
  2
ENTITIES
  0
SPLINE
  5
41
330
1F
100
AcDbEntity
  8
layer 1
 62
   250
370
     9
100
AcDbSpline
210
0.0
220
0.0
230
1.0
 70
    11
 71
     3
 72
    24
 73
    20
 74
     0
 42
0.0000000001
 43
0.0000000001
 12
1.0
 22
0.0
 32
0.0
 13
1.0
 23
0.0
 33
0.0
 40
0.0
 40
0.0
 40
0.0
 40
0.0
 40
0.1666666666666667
 40
0.1666666666666667
 40
0.1666666666666667
 40
0.1666666666666667
 40
0.3333333333333333
 40
0.3333333333333333
 40
0.3333333333333333
 40
0.3333333333333333
 40
0.5
 40
0.5
 40
0.5
 40
0.5
 40
0.6666666666666666
 40
0.6666666666666666
 40
0.6666666666666666
 40
0.6666666666666666
 40
1.0
 40
1.0
 40
1.0
 40
1.0
 10
104.272
 20
95.7156
 30
0.0
 10
104.272
 20
95.7156
 30
0.0
 10
196.4664
 20
95.7156
 30
0.0
 10
196.4664
 20
95.7156
 30
0.0
 10
196.4664
 20
95.7156
 30
0.0
 10
196.4664
 20
95.7156
 30
0.0
 10
196.4664
 20
-88.6728
 30
0.0
 10
196.4664
 20
-88.6728
 30
0.0
 10
196.4664
 20
-88.6728
 30
0.0
 10
196.4664
 20
-88.6728
 30
0.0
 10
12.0781
 20
-88.6728
 30
0.0
 10
12.0781
 20
-88.6728
 30
0.0
 10
12.0781
 20
-88.6728
 30
0.0
 10
12.0781
 20
-88.6728
 30
0.0
 10
12.0781
 20
95.7156
 30
0.0
 10
12.0781
 20
95.7156
 30
0.0
 10
12.0781
 20
95.7156
 30
0.0
 10
12.0781
 20
95.7156
 30
0.0
 10
104.272
 20
95.7156
 30
0.0
 10
104.272
 20
95.7156
 30
0.0
  0
SPLINE
  5
42
330
1F
100
AcDbEntity
  8
layer 1
 62
     7
370
     9
100
AcDbSpline
210
0.0
220
0.0
230
1.0
 70
    11
 71
     3
 72
    16
 73
    12
 74
     0
 42
0.0000000001
 43
0.0000000001
 12
1.0
 22
0.0
 32
0.0
 13
1.0
 23
0.0
 33
0.0
 40
0.0
 40
0.0
 40
0.0
 40
0.0
 40
0.25
 40
0.25
 40
0.25
 40
0.25
 40
0.5
 40
0.5
 40
0.5
 40
0.5
 40
1.0
 40
1.0
 40
1.0
 40
1.0
 10
98.9213
 20
69.4319
 30
0.0
 10
100.2345
 20
66.1444
 30
0.0
 10
101.0116
 20
62.4969
 30
0.0
 10
101.1994
 20
58.7485
 30
0.0
 10
101.1994
 20
58.7485
 30
0.0
 10
102.6325
 20
60.2376
 30
0.0
 10
103.2465
 20
62.8067
 30
0.0
 10
102.7386
 20
65.1891
 30
0.0
 10
102.7386
 20
65.1891
 30
0.0
 10
102.2302
 20
67.5714
 30
0.0
 10
100.7078
 20
69.2636
 30
0.0
 10
98.9213
 20
69.4319
 30
0.0
  0
SPLINE
  5
43
330
1F
100
AcDbEntity
  8
layer 1
 62
     7
370
     9
100
AcDbSpline
210
0.0
220
0.0
230
1.0
 70
    11
 71
     3
 72
    44
 73
    40
 74
     0
 42
0.0000000001
 43
0.0000000001
 12
1.0
 22
0.0
 32
0.0
 13
1.0
 23
0.0
 33
0.0
 40
0.0
 40
0.0
 40
0.0
 40
0.0
 40
0.0909090909090909
 40
0.0909090909090909
 40
0.0909090909090909
 40
0.0909090909090909
 40
0.1818181818181818
 40
0.1818181818181818
 40
0.1818181818181818
 40
0.1818181818181818
 40
0.2727272727272727
 40
0.2727272727272727
 40
0.2727272727272727
 40
0.2727272727272727
 40
0.3636363636363636
 40
0.3636363636363636
 40
0.3636363636363636
 40
0.3636363636363636
 40
0.4545454545454545
 40
0.4545454545454545
 40
0.4545454545454545
 40
0.4545454545454545
 40
0.5454545454545454
 40
0.5454545454545454
 40
0.5454545454545454
 40
0.5454545454545454
 40
0.6363636363636364
 40
0.6363636363636364
 40
0.6363636363636364
 40
0.6363636363636364
 40
0.7272727272727273
 40
0.7272727272727273
 40
0.7272727272727273
 40
0.7272727272727273
 40
0.8181818181818182
 40
0.8181818181818182
 40
0.8181818181818182
 40
0.8181818181818182
 40
1.0
 40
1.0
 40
1.0
 40
1.0
 10
94.4382
 20
56.2399
 30
0.0
 10
95.2236
 20
57.8489
 30
0.0
 10
95.8895
 20
59.5629
 30
0.0
 10
96.4269
 20
61.3563
 30
0.0
 10
96.4269
 20
61.3563
 30
0.0
 10
96.7291
 20
62.4751
 30
0.0
 10
96.6631
 20
63.7216
 30
0.0
 10
96.2463
 20
64.7668
 30
0.0
 10
96.2463
 20
64.7668
 30
0.0
 10
95.4439
 20
65.8855
 30
0.0
 10
94.2656
 20
66.3086
 30
0.0
 10
93.1729
 20
65.8711
 30
0.0
 10
93.1729
 20
65.8711
 30
0.0
 10
93.7542
 20
65.177
 30
0.0
 10
94.0137
 20
64.0963
 30
0.0
 10
93.847
 20
63.0575
 30
0.0
 10
93.847
 20
63.0575
 30
0.0
 10
93.6807
 20
62.0188
 30
0.0
 10
93.1158
 20
61.1912
 30
0.0
 10
92.3776
 20
60.9051
 30
0.0
 10
92.3776
 20
60.9051
 30
0.0
 10
91.1409
 20
60.2084
 30
0.0
 10
89.7294
 20
60.4964
 30
0.0
 10
88.6898
 20
61.6572
 30
0.0
 10
88.6898
 20
61.6572
 30
0.0
 10
87.9037
 20
63.9449
 30
0.0
 10
88.5784
 20
66.684
 30
0.0
 10
90.208
 20
67.827
 30
0.0
 10
90.208
 20
67.827
 30
0.0
 10
92.2872
 20
69.3065
 30
0.0
 10
94.7244
 20
69.4707
 30
0.0
 10
96.897
 20
68.2783
 30
0.0
 10
96.897
 20
68.2783
 30
0.0
 10
98.3885
 20
67.4501
 30
0.0
 10
99.2187
 20
65.232
 30
0.0
 10
98.8491
 20
63.0617
 30
0.0
 10
98.8491
 20
63.0617
 30
0.0
 10
98.1511
 20
60.016
 30
0.0
 10
96.5453
 20
57.5325
 30
0.0
 10
94.4382
 20
56.2399
 30
0.0
  0
SPLINE
  5
44
330
1F
100
AcDbEntity
  8
layer 1
 62
     7
370
     9
100
AcDbSpline
210
0.0
220
0.0
230
1.0
 70
    11
 71
     3
 72
    20
 73
    16
 74
     0
 42
0.0000000001
 43
0.0000000001
 12
1.0
 22
0.0
 32
0.0
 13
1.0
 23
0.0
 33
0.0
 40
0.0
 40
0.0
 40
0.0
 40
0.0
 40
0.2
 40
0.2
 40
0.2
 40
0.2
 40
0.4
 40
0.4
 40
0.4
 40
0.4
 40
0.6
 40
0.6
 40
0.6
 40
0.6
 40
1.0
 40
1.0
 40
1.0
 40
1.0
 10
104.272
 20
56.8409
 30
0.0
 10
110.263
 20
53.4039
 30
0.0
 10
116.6342
 20
51.4195
 30
0.0
 10
123.1091
 20
50.973
 30
0.0
 10
123.1091
 20
50.973
 30
0.0
 10
117.1684
 20
45.536
 30
0.0
 10
109.2894
 20
46.6621
 30
0.0
 10
104.272
 20
53.6641
 30
0.0
 10
104.272
 20
53.6641
 30
0.0
 10
99.2553
 20
46.6621
 30
0.0
 10
91.3759
 20
45.536
 30
0.0
 10
85.4356
 20
50.973
 30
0.0
 10
85.4356
 20
50.973
 30
0.0
 10
91.9106
 20
51.4195
 30
0.0
 10
98.2817
 20
53.4039
 30
0.0
 10
104.272
 20
56.8409
 30
0.0
  0
SPLINE
  5
45
330
1F
100
AcDbEntity
  8
layer 1
 62
     7
370
     9
100
AcDbSpline
210
0.0
220
0.0
230
1.0
 70
    11
 71
     3
 72
    44
 73
    40
 74
     0
 42
0.0000000001
 43
0.0000000001
 12
1.0
 22
0.0
 32
0.0
 13
1.0
 23
0.0
 33
0.0
 40
0.0
 40
0.0
 40
0.0
 40
0.0
 40
0.0909090909090909
 40
0.0909090909090909
 40
0.0909090909090909
 40
0.0909090909090909
 40
0.1818181818181818
 40
0.1818181818181818
 40
0.1818181818181818
 40
0.1818181818181818
 40
0.2727272727272727
 40
0.2727272727272727
 40
0.2727272727272727
 40
0.2727272727272727
 40
0.3636363636363636
 40
0.3636363636363636
 40
0.3636363636363636
 40
0.3636363636363636
 40
0.4545454545454545
 40
0.4545454545454545
 40
0.4545454545454545
 40
0.4545454545454545
 40
0.5454545454545454
 40
0.5454545454545454
 40
0.5454545454545454
 40
0.5454545454545454
 40
0.6363636363636364
 40
0.6363636363636364
 40
0.6363636363636364
 40
0.6363636363636364
 40
0.7272727272727273
 40
0.7272727272727273
 40
0.7272727272727273
 40
0.7272727272727273
 40
0.8181818181818182
 40
0.8181818181818182
 40
0.8181818181818182
 40
0.8181818181818182
 40
1.0
 40
1.0
 40
1.0
 40
1.0
 10
84.8933
 20
45.8563
 30
0.0
 10
87.1072
 20
43.8485
 30
0.0
 10
88.2227
 20
40.1785
 30
0.0
 10
87.7136
 20
36.5771
 30
0.0
 10
87.7136
 20
36.5771
 30
0.0
 10
87.2809
 20
33.7741
 30
0.0
 10
86.7259
 20
31.0101
 30
0.0
 10
86.0501
 20
28.3011
 30
0.0
 10
86.0501
 20
28.3011
 30
0.0
 10
85.2414
 20
25.6549
 30
0.0
 10
86.1318
 20
22.6013
 30
0.0
 10
88.0391
 20
21.4793
 30
0.0
 10
88.0391
 20
21.4793
 30
0.0
 10
90.5275
 20
19.7804
 30
0.0
 10
93.4749
 20
20.0085
 30
0.0
 10
95.8124
 20
22.081
 30
0.0
 10
95.8124
 20
22.081
 30
0.0
 10
97.7383
 20
24.6712
 30
0.0
 10
98.7546
 20
28.2976
 30
0.0
 10
98.5961
 20
32.0124
 30
0.0
 10
98.5961
 20
32.0124
 30
0.0
 10
97.8264
 20
29.1277
 30
0.0
 10
96.0585
 20
26.9769
 30
0.0
 10
93.8959
 20
26.2949
 30
0.0
 10
93.8959
 20
26.2949
 30
0.0
 10
92.4692
 20
26.0124
 30
0.0
 10
91.0278
 20
26.6604
 30
0.0
 10
89.9912
 20
28.0502
 30
0.0
 10
89.9912
 20
28.0502
 30
0.0
 10
89.5824
 20
28.9626
 30
0.0
 10
89.4284
 20
30.0507
 30
0.0
 10
89.5573
 20
31.1096
 30
0.0
 10
89.5573
 20
31.1096
 30
0.0
 10
89.7638
 20
33.5907
 30
0.0
 10
89.8482
 20
36.0869
 30
0.0
 10
89.8104
 20
38.5833
 30
0.0
 10
89.8104
 20
38.5833
 30
0.0
 10
89.8348
 20
42.4411
 30
0.0
 10
87.6698
 20
45.6438
 30
0.0
 10
84.8933
 20
45.8563
 30
0.0
  0
SPLINE
  5
46
330
1F
100
AcDbEntity
  8
layer 1
 62
     7
370
     9
100
AcDbSpline
210
0.0
220
0.0
230
1.0
 70
    11
 71
     3
 72
    44
 73
    40
 74
     0
 42
0.0000000001
 43
0.0000000001
 12
1.0
 22
0.0
 32
0.0
 13
1.0
 23
0.0
 33
0.0
 40
0.0
 40
0.0
 40
0.0
 40
0.0
 40
0.0909090909090909
 40
0.0909090909090909
 40
0.0909090909090909
 40
0.0909090909090909
 40
0.1818181818181818
 40
0.1818181818181818
 40
0.1818181818181818
 40
0.1818181818181818
 40
0.2727272727272727
 40
0.2727272727272727
 40
0.2727272727272727
 40
0.2727272727272727
 40
0.3636363636363636
 40
0.3636363636363636
 40
0.3636363636363636
 40
0.3636363636363636
 40
0.4545454545454545
 40
0.4545454545454545
 40
0.4545454545454545
 40
0.4545454545454545
 40
0.5454545454545454
 40
0.5454545454545454
 40
0.5454545454545454
 40
0.5454545454545454
 40
0.6363636363636364
 40
0.6363636363636364
 40
0.6363636363636364
 40
0.6363636363636364
 40
0.7272727272727273
 40
0.7272727272727273
 40
0.7272727272727273
 40
0.7272727272727273
 40
0.8181818181818182
 40
0.8181818181818182
 40
0.8181818181818182
 40
0.8181818181818182
 40
1.0
 40
1.0
 40
1.0
 40
1.0
 10
60.706
 20
22.1814
 30
0.0
 10
63.5784
 20
20.0118
 30
0.0
 10
66.8489
 20
19.0696
 30
0.0
 10
70.1062
 20
19.4722
 30
0.0
 10
70.1062
 20
19.4722
 30
0.0
 10
73.3463
 20
19.7756
 30
0.0
 10
76.5567
 20
20.5311
 30
0.0
 10
79.6872
 20
21.7299
 30
0.0
 10
79.6872
 20
21.7299
 30
0.0
 10
81.9349
 20
22.5277
 30
0.0
 10
84.3213
 20
21.7187
 30
0.0
 10
86.0501
 20
19.5733
 30
0.0
 10
86.0501
 20
19.5733
 30
0.0
 10
87.2193
 20
17.8407
 30
0.0
 10
87.4256
 20
15.2464
 30
0.0
 10
86.5562
 20
13.2031
 30
0.0
 10
86.5562
 20
13.2031
 30
0.0
 10
83.4357
 20
9.7408
 30
0.0
 10
79.3904
 20
8.3148
 30
0.0
 10
75.4571
 20
9.2902
 30
0.0
 10
75.4571
 20
9.2902
 30
0.0
 10
77.18
 20
9.943
 30
0.0
 10
78.8156
 20
10.9761
 30
0.0
 10
80.3017
 20
12.3496
 30
0.0
 10
80.3017
 20
12.3496
 30
0.0
 10
81.0987
 20
13.1982
 30
0.0
 10
81.3559
 20
14.7077
 30
0.0
 10
80.9162
 20
15.9616
 30
0.0
 10
80.9162
 20
15.9616
 30
0.0
 10
79.977
 20
17.4394
 30
0.0
 10
78.5614
 20
18.1562
 30
0.0
 10
77.1567
 20
17.8673
 30
0.0
 10
77.1567
 20
17.8673
 30
0.0
 10
73.5359
 20
17.4718
 30
0.0
 10
69.8993
 20
17.4215
 30
0.0
 10
66.2738
 20
17.7169
 30
0.0
 10
66.2738
 20
17.7169
 30
0.0
 10
63.9587
 20
17.6238
 30
0.0
 10
61.8038
 20
19.3518
 30
0.0
 10
60.706
 20
22.1814
 30
0.0
  0
SPLINE
  5
47
330
1F
100
AcDbEntity
  8
layer 1
 62
     7
370
     9
100
AcDbSpline
210
0.0
220
0.0
230
1.0
 70
    11
 71
     3
 72
    16
 73
    12
 74
     0
 42
0.0000000001
 43
0.0000000001
 12
1.0
 22
0.0
 32
0.0
 13
1.0
 23
0.0
 33
0.0
 40
0.0
 40
0.0
 40
0.0
 40
0.0
 40
0.25
 40
0.25
 40
0.25
 40
0.25
 40
0.5
 40
0.5
 40
0.5
 40
0.5
 40
1.0
 40
1.0
 40
1.0
 40
1.0
 10
54.2704
 20
29.2538
 30
0.0
 10
52.3636
 20
25.8693
 30
0.0
 10
49.4488
 20
23.8753
 30
0.0
 10
46.3526
 20
23.8365
 30
0.0
 10
46.3526
 20
23.8365
 30
0.0
 10
47.7895
 20
21.9904
 30
0.0
 10
49.8982
 20
21.5651
 30
0.0
 10
51.6544
 20
22.7671
 30
0.0
 10
51.6544
 20
22.7671
 30
0.0
 10
53.411
 20
23.9691
 30
0.0
 10
54.4512
 20
26.5487
 30
0.0
 10
54.2704
 20
29.2538
 30
0.0
  0
SPLINE
  5
48
330
1F
100
AcDbEntity
  8
layer 1
 62
     7
370
     9
100
AcDbSpline
210
0.0
220
0.0
230
1.0
 70
    11
 71
     3
 72
    16
 73
    12
 74
     0
 42
0.0000000001
 43
0.0000000001
 12
1.0
 22
0.0
 32
0.0
 13
1.0
 23
0.0
 33
0.0
 40
0.0
 40
0.0
 40
0.0
 40
0.0
 40
0.25
 40
0.25
 40
0.25
 40
0.25
 40
0.5
 40
0.5
 40
0.5
 40
0.5
 40
1.0
 40
1.0
 40
1.0
 40
1.0
 10
38.7964
 20
26.8966
 30
0.0
 10
34.9899
 20
24.8372
 30
0.0
 10
30.7494
 20
24.9633
 30
0.0
 10
27.0099
 20
27.2477
 30
0.0
 10
27.0099
 20
27.2477
 30
0.0
 10
28.2441
 20
24.4052
 30
0.0
 10
30.4423
 20
22.6384
 30
0.0
 10
32.8335
 20
22.5664
 30
0.0
 10
32.8335
 20
22.5664
 30
0.0
 10
35.2248
 20
22.4953
 30
0.0
 10
37.4755
 20
24.1301
 30
0.0
 10
38.7964
 20
26.8966
 30
0.0
  0
SPLINE
  5
49
330
1F
100
AcDbEntity
  8
layer 1
 62
     7
370
     9
100
AcDbSpline
210
0.0
220
0.0
230
1.0
 70
    11
 71
     3
 72
    12
 73
     8
 74
     0
 42
0.0000000001
 43
0.0000000001
 12
1.0
 22
0.0
 32
0.0
 13
1.0
 23
0.0
 33
0.0
 40
0.0
 40
0.0
 40
0.0
 40
0.0
 40
0.3333333333333333
 40
0.3333333333333333
 40
0.3333333333333333
 40
0.3333333333333333
 40
1.0
 40
1.0
 40
1.0
 40
1.0
 10
36.9162
 20
8.4377
 30
0.0
 10
40.3626
 20
6.6273
 30
0.0
 10
44.0506
 20
5.8741
 30
0.0
 10
47.7266
 20
6.2302
 30
0.0
 10
47.7266
 20
6.2302
 30
0.0
 10
44.2499
 20
3.0016
 30
0.0
 10
39.5752
 20
3.9562
 30
0.0
 10
36.9162
 20
8.4377
 30
0.0
  0
SPLINE
  5
4A
330
1F
100
AcDbEntity
  8
layer 1
 62
     7
370
     9
100
AcDbSpline
210
0.0
220
0.0
230
1.0
 70
    11
 71
     3
 72
    44
 73
    40
 74
     0
 42
0.0000000001
 43
0.0000000001
 12
1.0
 22
0.0
 32
0.0
 13
1.0
 23
0.0
 33
0.0
 40
0.0
 40
0.0
 40
0.0
 40
0.0
 40
0.0909090909090909
 40
0.0909090909090909
 40
0.0909090909090909
 40
0.0909090909090909
 40
0.1818181818181818
 40
0.1818181818181818
 40
0.1818181818181818
 40
0.1818181818181818
 40
0.2727272727272727
 40
0.2727272727272727
 40
0.2727272727272727
 40
0.2727272727272727
 40
0.3636363636363636
 40
0.3636363636363636
 40
0.3636363636363636
 40
0.3636363636363636
 40
0.4545454545454545
 40
0.4545454545454545
 40
0.4545454545454545
 40
0.4545454545454545
 40
0.5454545454545454
 40
0.5454545454545454
 40
0.5454545454545454
 40
0.5454545454545454
 40
0.6363636363636364
 40
0.6363636363636364
 40
0.6363636363636364
 40
0.6363636363636364
 40
0.7272727272727273
 40
0.7272727272727273
 40
0.7272727272727273
 40
0.7272727272727273
 40
0.8181818181818182
 40
0.8181818181818182
 40
0.8181818181818182
 40
0.8181818181818182
 40
1.0
 40
1.0
 40
1.0
 40
1.0
 10
40.2786
 20
13.7548
 30
0.0
 10
41.7718
 20
12.2267
 30
0.0
 10
43.8452
 20
12.4395
 30
0.0
 10
45.1596
 20
14.2562
 30
0.0
 10
45.1596
 20
14.2562
 30
0.0
 10
45.5228
 20
15.096
 30
0.0
 10
45.5409
 20
16.1395
 30
0.0
 10
45.2074
 20
17.0026
 30
0.0
 10
45.2074
 20
17.0026
 30
0.0
 10
44.874
 20
17.8666
 30
0.0
 10
44.2379
 20
18.4231
 30
0.0
 10
43.5325
 20
18.4692
 30
0.0
 10
43.5325
 20
18.4692
 30
0.0
 10
41.3721
 20
19.0645
 30
0.0
 10
39.1505
 20
17.9668
 30
0.0
 10
37.7479
 20
15.6105
 30
0.0
 10
37.7479
 20
15.6105
 30
0.0
 10
36.7794
 20
13.9682
 30
0.0
 10
36.8414
 20
11.5835
 30
0.0
 10
37.8925
 20
10.0426
 30
0.0
 10
37.8925
 20
10.0426
 30
0.0
 10
39.2782
 20
8.6764
 30
0.0
 10
40.9733
 20
8.0527
 30
0.0
 10
42.6649
 20
8.2872
 30
0.0
 10
42.6649
 20
8.2872
 30
0.0
 10
45.3762
 20
8.373
 30
0.0
 10
47.9568
 20
9.9197
 30
0.0
 10
49.8597
 20
12.6004
 30
0.0
 10
49.8597
 20
12.6004
 30
0.0
 10
47.8849
 20
11.5892
 30
0.0
 10
45.8358
 20
10.883
 30
0.0
 10
43.7496
 20
10.4941
 30
0.0
 10
43.7496
 20
10.4941
 30
0.0
 10
42.9707
 20
10.1469
 30
0.0
 10
42.1198
 20
10.3159
 30
0.0
 10
41.4424
 20
10.9527
 30
0.0
 10
41.4424
 20
10.9527
 30
0.0
 10
40.7651
 20
11.5892
 30
0.0
 10
40.336
 20
12.6222
 30
0.0
 10
40.2786
 20
13.7548
 30
0.0
  0
SPLINE
  5
4B
330
1F
100
AcDbEntity
  8
layer 1
 62
     7
370
     9
100
AcDbSpline
210
0.0
220
0.0
230
1.0
 70
    11
 71
     3
 72
    28
 73
    24
 74
     0
 42
0.0000000001
 43
0.0000000001
 12
1.0
 22
0.0
 32
0.0
 13
1.0
 23
0.0
 33
0.0
 40
0.0
 40
0.0
 40
0.0
 40
0.0
 40
0.1428571428571428
 40
0.1428571428571428
 40
0.1428571428571428
 40
0.1428571428571428
 40
0.2857142857142857
 40
0.2857142857142857
 40
0.2857142857142857
 40
0.2857142857142857
 40
0.4285714285714285
 40
0.4285714285714285
 40
0.4285714285714285
 40
0.4285714285714285
 40
0.5714285714285714
 40
0.5714285714285714
 40
0.5714285714285714
 40
0.5714285714285714
 40
0.7142857142857143
 40
0.7142857142857143
 40
0.7142857142857143
 40
0.7142857142857143
 40
1.0
 40
1.0
 40
1.0
 40
1.0
 10
55.6442
 20
21.5293
 30
0.0
 10
55.3114
 20
14.9286
 30
0.0
 10
53.5059
 20
8.6351
 30
0.0
 10
50.4783
 20
3.5219
 30
0.0
 10
50.4783
 20
3.5219
 30
0.0
 10
53.5059
 20
-1.5914
 30
0.0
 10
55.3114
 20
-7.8851
 30
0.0
 10
55.6442
 20
-14.4858
 30
0.0
 10
55.6442
 20
-14.4858
 30
0.0
 10
57.4471
 20
-12.486
 30
0.0
 10
58.6148
 20
-9.5879
 30
0.0
 10
58.8984
 20
-6.4102
 30
0.0
 10
58.8984
 20
-6.4102
 30
0.0
 10
58.6913
 20
-2.1949
 30
0.0
 10
56.9188
 20
1.5673
 30
0.0
 10
54.219
 20
3.5219
 30
0.0
 10
54.219
 20
3.5219
 30
0.0
 10
56.9188
 20
5.4762
 30
0.0
 10
58.6913
 20
9.2384
 30
0.0
 10
58.8984
 20
13.453
 30
0.0
 10
58.8984
 20
13.453
 30
0.0
 10
58.6148
 20
16.6314
 30
0.0
 10
57.4471
 20
19.5298
 30
0.0
 10
55.6442
 20
21.5293
 30
0.0
  0
SPLINE
  5
4C
330
1F
100
AcDbEntity
  8
layer 1
 62
     7
370
     9
100
AcDbSpline
210
0.0
220
0.0
230
1.0
 70
    11
 71
     3
 72
    92
 73
    88
 74
     0
 42
0.0000000001
 43
0.0000000001
 12
1.0
 22
0.0
 32
0.0
 13
1.0
 23
0.0
 33
0.0
 40
0.0
 40
0.0
 40
0.0
 40
0.0
 40
0.0434782608695652
 40
0.0434782608695652
 40
0.0434782608695652
 40
0.0434782608695652
 40
0.0869565217391304
 40
0.0869565217391304
 40
0.0869565217391304
 40
0.0869565217391304
 40
0.1304347826086956
 40
0.1304347826086956
 40
0.1304347826086956
 40
0.1304347826086956
 40
0.1739130434782609
 40
0.1739130434782609
 40
0.1739130434782609
 40
0.1739130434782609
 40
0.2173913043478261
 40
0.2173913043478261
 40
0.2173913043478261
 40
0.2173913043478261
 40
0.2608695652173913
 40
0.2608695652173913
 40
0.2608695652173913
 40
0.2608695652173913
 40
0.3043478260869565
 40
0.3043478260869565
 40
0.3043478260869565
 40
0.3043478260869565
 40
0.3478260869565217
 40
0.3478260869565217
 40
0.3478260869565217
 40
0.3478260869565217
 40
0.391304347826087
 40
0.391304347826087
 40
0.391304347826087
 40
0.391304347826087
 40
0.4347826086956522
 40
0.4347826086956522
 40
0.4347826086956522
 40
0.4347826086956522
 40
0.4782608695652174
 40
0.4782608695652174
 40
0.4782608695652174
 40
0.4782608695652174
 40
0.5217391304347826
 40
0.5217391304347826
 40
0.5217391304347826
 40
0.5217391304347826
 40
0.5652173913043478
 40
0.5652173913043478
 40
0.5652173913043478
 40
0.5652173913043478
 40
0.6086956521739131
 40
0.6086956521739131
 40
0.6086956521739131
 40
0.6086956521739131
 40
0.6521739130434783
 40
0.6521739130434783
 40
0.6521739130434783
 40
0.6521739130434783
 40
0.6956521739130435
 40
0.6956521739130435
 40
0.6956521739130435
 40
0.6956521739130435
 40
0.7391304347826086
 40
0.7391304347826086
 40
0.7391304347826086
 40
0.7391304347826086
 40
0.782608695652174
 40
0.782608695652174
 40
0.782608695652174
 40
0.782608695652174
 40
0.8260869565217391
 40
0.8260869565217391
 40
0.8260869565217391
 40
0.8260869565217391
 40
0.8695652173913043
 40
0.8695652173913043
 40
0.8695652173913043
 40
0.8695652173913043
 40
0.9130434782608695
 40
0.9130434782608695
 40
0.9130434782608695
 40
0.9130434782608695
 40
1.0
 40
1.0
 40
1.0
 40
1.0
 10
79.8319
 20
27.0972
 30
0.0
 10
79.7572
 20
32.1483
 30
0.0
 10
77.0972
 20
36.4065
 30
0.0
 10
73.505
 20
37.2292
 30
0.0
 10
73.505
 20
37.2292
 30
0.0
 10
71.6048
 20
37.7323
 30
0.0
 10
69.7418
 20
38.4709
 30
0.0
 10
67.937
 20
39.4367
 30
0.0
 10
67.937
 20
39.4367
 30
0.0
 10
67.1469
 20
39.7782
 30
0.0
 10
66.597
 20
40.7722
 30
0.0
 10
66.5632
 20
41.9194
 30
0.0
 10
66.5632
 20
41.9194
 30
0.0
 10
66.7752
 20
42.5479
 30
0.0
 10
67.0987
 20
43.0914
 30
0.0
 10
67.5031
 20
43.4991
 30
0.0
 10
67.5031
 20
43.4991
 30
0.0
 10
68.6275
 20
44.3794
 30
0.0
 10
69.8998
 20
44.829
 30
0.0
 10
71.1908
 20
44.8031
 30
0.0
 10
71.1908
 20
44.8031
 30
0.0
 10
73.5761
 20
44.8969
 30
0.0
 10
75.9083
 20
43.8123
 30
0.0
 10
77.7707
 20
41.7438
 30
0.0
 10
77.7707
 20
41.7438
 30
0.0
 10
80.0727
 20
39.3209
 30
0.0
 10
82.0433
 20
36.3489
 30
0.0
 10
83.5919
 20
32.9653
 30
0.0
 10
83.5919
 20
32.9653
 30
0.0
 10
83.6928
 20
35.6049
 30
0.0
 10
83.7045
 20
38.2501
 30
0.0
 10
83.6281
 20
40.8912
 30
0.0
 10
83.6281
 20
40.8912
 30
0.0
 10
83.6037
 20
44.1407
 30
0.0
 10
82.241
 20
47.0836
 30
0.0
 10
80.1209
 20
48.4651
 30
0.0
 10
80.1209
 20
48.4651
 30
0.0
 10
76.8902
 20
50.1915
 30
0.0
 10
73.3311
 20
50.333
 30
0.0
 10
70.034
 20
48.8664
 30
0.0
 10
70.034
 20
48.8664
 30
0.0
 10
67.3391
 20
48.0865
 30
0.0
 10
65.3986
 20
44.8105
 30
0.0
 10
65.37
 20
40.9914
 30
0.0
 10
65.37
 20
40.9914
 30
0.0
 10
63.648
 20
41.1962
 30
0.0
 10
61.917
 20
40.7821
 30
0.0
 10
60.3446
 20
39.7878
 30
0.0
 10
60.3446
 20
39.7878
 30
0.0
 10
58.7954
 20
38.999
 30
0.0
 10
57.5565
 20
37.3441
 30
0.0
 10
56.9309
 20
35.2254
 30
0.0
 10
56.9309
 20
35.2254
 30
0.0
 10
56.305
 20
33.1077
 30
0.0
 10
56.35
 20
30.7221
 30
0.0
 10
57.0544
 20
28.6521
 30
0.0
 10
57.0544
 20
28.6521
 30
0.0
 10
58.1735
 20
25.8725
 30
0.0
 10
60.1958
 20
24.0209
 30
0.0
 10
62.4775
 20
23.6861
 30
0.0
 10
62.4775
 20
23.6861
 30
0.0
 10
66.1815
 20
23.3649
 30
0.0
 10
69.8993
 20
23.5492
 30
0.0
 10
73.5772
 20
24.2376
 30
0.0
 10
73.5772
 20
24.2376
 30
0.0
 10
70.9354
 20
25.172
 30
0.0
 10
68.3941
 20
26.5893
 30
0.0
 10
66.0207
 20
28.4515
 30
0.0
 10
66.0207
 20
28.4515
 30
0.0
 10
64.3671
 20
29.4036
 30
0.0
 10
62.9918
 20
31.1
 30
0.0
 10
62.1162
 20
33.2671
 30
0.0
 10
62.1162
 20
33.2671
 30
0.0
 10
61.5904
 20
35.0538
 30
0.0
 10
61.7828
 20
37.094
 30
0.0
 10
62.6221
 20
38.6335
 30
0.0
 10
62.6221
 20
38.6335
 30
0.0
 10
63.8118
 20
39.8963
 30
0.0
 10
65.4426
 20
39.9965
 30
0.0
 10
66.7078
 20
38.885
 30
0.0
 10
66.7078
 20
38.885
 30
0.0
 10
67.4292
 20
38.1481
 30
0.0
 10
67.9817
 20
37.1377
 30
0.0
 10
68.2984
 20
35.9754
 30
0.0
 10
68.2984
 20
35.9754
 30
0.0
 10
70.3634
 20
29.8785
 30
0.0
 10
75.0104
 20
26.3013
 30
0.0
 10
79.8319
 20
27.0972
 30
0.0
  0
SPLINE
  5
4D
330
1F
100
AcDbEntity
  8
layer 1
 62
     7
370
     9
100
AcDbSpline
210
0.0
220
0.0
230
1.0
 70
    11
 71
     3
 72
    20
 73
    16
 74
     0
 42
0.0000000001
 43
0.0000000001
 12
1.0
 22
0.0
 32
0.0
 13
1.0
 23
0.0
 33
0.0
 40
0.0
 40
0.0
 40
0.0
 40
0.0
 40
0.2
 40
0.2
 40
0.2
 40
0.2
 40
0.4
 40
0.4
 40
0.4
 40
0.4
 40
0.6
 40
0.6
 40
0.6
 40
0.6
 40
1.0
 40
1.0
 40
1.0
 40
1.0
 10
82.8328
 20
60.1025
 30
0.0
 10
82.2322
 20
56.4671
 30
0.0
 10
80.3589
 20
53.4912
 30
0.0
 10
77.8436
 20
52.1773
 30
0.0
 10
77.8436
 20
52.1773
 30
0.0
 10
79.5023
 20
51.8723
 30
0.0
 10
81.1903
 20
52.2025
 30
0.0
 10
82.7244
 20
53.1303
 30
0.0
 10
82.7244
 20
53.1303
 30
0.0
 10
83.5838
 20
53.8746
 30
0.0
 10
84.115
 20
55.1697
 30
0.0
 10
84.1372
 20
56.5756
 30
0.0
 10
84.1372
 20
56.5756
 30
0.0
 10
84.1587
 20
57.9814
 30
0.0
 10
83.6683
 20
59.3073
 30
0.0
 10
82.8328
 20
60.1025
 30
0.0
  0
SPLINE
  5
4E
330
1F
100
AcDbEntity
  8
layer 1
 62
     7
370
     9
100
AcDbSpline
210
0.0
220
0.0
230
1.0
 70
    11
 71
     3
 72
    16
 73
    12
 74
     0
 42
0.0000000001
 43
0.0000000001
 12
1.0
 22
0.0
 32
0.0
 13
1.0
 23
0.0
 33
0.0
 40
0.0
 40
0.0
 40
0.0
 40
0.0
 40
0.25
 40
0.25
 40
0.25
 40
0.25
 40
0.5
 40
0.5
 40
0.5
 40
0.5
 40
1.0
 40
1.0
 40
1.0
 40
1.0
 10
79.1812
 20
78.6619
 30
0.0
 10
81.1852
 20
75.4956
 30
0.0
 10
81.56
 20
70.9357
 30
0.0
 10
80.1209
 20
67.2251
 30
0.0
 10
80.1209
 20
67.2251
 30
0.0
 10
82.3973
 20
67.5851
 30
0.0
 10
84.0322
 20
70.4374
 30
0.0
 10
83.7728
 20
73.5954
 30
0.0
 10
83.7728
 20
73.5954
 30
0.0
 10
83.5133
 20
76.7536
 30
0.0
 10
81.4574
 20
79.0219
 30
0.0
 10
79.1812
 20
78.6619
 30
0.0
  0
SPLINE
  5
4F
330
1F
100
AcDbEntity
  8
layer 1
 62
     7
370
     9
100
AcDbSpline
210
0.0
220
0.0
230
1.0
 70
    11
 71
     3
 72
   108
 73
   104
 74
     0
 42
0.0000000001
 43
0.0000000001
 12
1.0
 22
0.0
 32
0.0
 13
1.0
 23
0.0
 33
0.0
 40
0.0
 40
0.0
 40
0.0
 40
0.0
 40
0.037037037037037
 40
0.037037037037037
 40
0.037037037037037
 40
0.037037037037037
 40
0.0740740740740741
 40
0.0740740740740741
 40
0.0740740740740741
 40
0.0740740740740741
 40
0.1111111111111111
 40
0.1111111111111111
 40
0.1111111111111111
 40
0.1111111111111111
 40
0.1481481481481481
 40
0.1481481481481481
 40
0.1481481481481481
 40
0.1481481481481481
 40
0.1851851851851852
 40
0.1851851851851852
 40
0.1851851851851852
 40
0.1851851851851852
 40
0.2222222222222222
 40
0.2222222222222222
 40
0.2222222222222222
 40
0.2222222222222222
 40
0.2592592592592592
 40
0.2592592592592592
 40
0.2592592592592592
 40
0.2592592592592592
 40
0.2962962962962963
 40
0.2962962962962963
 40
0.2962962962962963
 40
0.2962962962962963
 40
0.3333333333333333
 40
0.3333333333333333
 40
0.3333333333333333
 40
0.3333333333333333
 40
0.3703703703703703
 40
0.3703703703703703
 40
0.3703703703703703
 40
0.3703703703703703
 40
0.4074074074074074
 40
0.4074074074074074
 40
0.4074074074074074
 40
0.4074074074074074
 40
0.4444444444444444
 40
0.4444444444444444
 40
0.4444444444444444
 40
0.4444444444444444
 40
0.4814814814814815
 40
0.4814814814814815
 40
0.4814814814814815
 40
0.4814814814814815
 40
0.5185185185185185
 40
0.5185185185185185
 40
0.5185185185185185
 40
0.5185185185185185
 40
0.5555555555555556
 40
0.5555555555555556
 40
0.5555555555555556
 40
0.5555555555555556
 40
0.5925925925925926
 40
0.5925925925925926
 40
0.5925925925925926
 40
0.5925925925925926
 40
0.6296296296296297
 40
0.6296296296296297
 40
0.6296296296296297
 40
0.6296296296296297
 40
0.6666666666666666
 40
0.6666666666666666
 40
0.6666666666666666
 40
0.6666666666666666
 40
0.7037037037037037
 40
0.7037037037037037
 40
0.7037037037037037
 40
0.7037037037037037
 40
0.7407407407407407
 40
0.7407407407407407
 40
0.7407407407407407
 40
0.7407407407407407
 40
0.7777777777777778
 40
0.7777777777777778
 40
0.7777777777777778
 40
0.7777777777777778
 40
0.8148148148148148
 40
0.8148148148148148
 40
0.8148148148148148
 40
0.8148148148148148
 40
0.8518518518518519
 40
0.8518518518518519
 40
0.8518518518518519
 40
0.8518518518518519
 40
0.8888888888888888
 40
0.8888888888888888
 40
0.8888888888888888
 40
0.8888888888888888
 40
0.9259259259259259
 40
0.9259259259259259
 40
0.9259259259259259
 40
0.9259259259259259
 40
1.0
 40
1.0
 40
1.0
 40
1.0
 10
83.1221
 20
64.6672
 30
0.0
 10
81.8707
 20
65.2199
 30
0.0
 10
80.5361
 20
65.3072
 30
0.0
 10
79.2534
 20
64.9181
 30
0.0
 10
79.2534
 20
64.9181
 30
0.0
 10
77.278
 20
64.3299
 30
0.0
 10
75.4239
 20
63.1295
 30
0.0
 10
73.8303
 20
61.4065
 30
0.0
 10
73.8303
 20
61.4065
 30
0.0
 10
74.397
 20
62.7897
 30
0.0
 10
74.8233
 20
64.2749
 30
0.0
 10
75.0955
 20
65.8209
 30
0.0
 10
75.0955
 20
65.8209
 30
0.0
 10
75.4564
 20
67.7154
 30
0.0
 10
75.4313
 20
69.7126
 30
0.0
 10
75.0233
 20
71.5892
 30
0.0
 10
75.0233
 20
71.5892
 30
0.0
 10
73.7177
 20
74.2831
 30
0.0
 10
71.2752
 20
75.4333
 30
0.0
 10
69.0577
 20
74.398
 30
0.0
 10
69.0577
 20
74.398
 30
0.0
 10
69.8269
 20
72.4071
 30
0.0
 10
69.462
 20
69.9392
 30
0.0
 10
68.19
 20
68.5292
 30
0.0
 10
68.19
 20
68.5292
 30
0.0
 10
67.6847
 20
72.963
 30
0.0
 10
65.1132
 20
76.3879
 30
0.0
 10
61.8993
 20
76.9065
 30
0.0
 10
61.8993
 20
76.9065
 30
0.0
 10
60.6622
 20
73.5461
 30
0.0
 10
61.1138
 20
69.4643
 30
0.0
 10
63.0201
 20
66.7738
 30
0.0
 10
63.0201
 20
66.7738
 30
0.0
 10
62.1193
 20
66.1646
 30
0.0
 10
61.2905
 20
65.3694
 30
0.0
 10
60.5614
 20
64.4157
 30
0.0
 10
60.5614
 20
64.4157
 30
0.0
 10
60.0056
 20
63.6092
 30
0.0
 10
59.7473
 20
62.493
 30
0.0
 10
59.86
 20
61.3871
 30
0.0
 10
59.86
 20
61.3871
 30
0.0
 10
59.9727
 20
60.282
 30
0.0
 10
60.4444
 20
59.3089
 30
0.0
 10
61.1399
 20
58.7485
 30
0.0
 10
61.1399
 20
58.7485
 30
0.0
 10
62.5624
 20
58.0883
 30
0.0
 10
64.0885
 20
57.9846
 30
0.0
 10
65.5507
 20
58.4467
 30
0.0
 10
65.5507
 20
58.4467
 30
0.0
 10
64.897
 20
59.2208
 30
0.0
 10
64.4301
 20
60.2538
 30
0.0
 10
64.2131
 20
61.4065
 30
0.0
 10
64.2131
 20
61.4065
 30
0.0
 10
63.9304
 20
62.0408
 30
0.0
 10
63.8599
 20
62.8133
 30
0.0
 10
64.0192
 20
63.5251
 30
0.0
 10
64.0192
 20
63.5251
 30
0.0
 10
64.1787
 20
64.2371
 30
0.0
 10
64.5527
 20
64.8186
 30
0.0
 10
65.0446
 20
65.1187
 30
0.0
 10
65.0446
 20
65.1187
 30
0.0
 10
66.0343
 20
65.3937
 30
0.0
 10
67.0592
 20
65.2903
 30
0.0
 10
68.0093
 20
64.817
 30
0.0
 10
68.0093
 20
64.817
 30
0.0
 10
70.4841
 20
63.9805
 30
0.0
 10
72.3953
 20
61.2511
 30
0.0
 10
72.926
 20
57.7955
 30
0.0
 10
72.926
 20
57.7955
 30
0.0
 10
73.0758
 20
55.3323
 30
0.0
 10
71.9347
 20
53.073
 30
0.0
 10
70.2147
 20
52.4272
 30
0.0
 10
70.2147
 20
52.4272
 30
0.0
 10
67.4889
 20
51.607
 30
0.0
 10
64.6709
 20
51.5731
 30
0.0
 10
61.9352
 20
52.328
 30
0.0
 10
61.9352
 20
52.328
 30
0.0
 10
60.2504
 20
52.7501
 30
0.0
 10
58.6915
 20
53.8487
 30
0.0
 10
57.452
 20
55.4875
 30
0.0
 10
57.452
 20
55.4875
 30
0.0
 10
55.968
 20
58.7913
 30
0.0
 10
55.4385
 20
62.7509
 30
0.0
 10
55.9698
 20
66.5732
 30
0.0
 10
55.9698
 20
66.5732
 30
0.0
 10
54.9036
 20
63.1132
 30
0.0
 10
55.0643
 20
59.161
 30
0.0
 10
56.4037
 20
55.8888
 30
0.0
 10
56.4037
 20
55.8888
 30
0.0
 10
58.2672
 20
52.9978
 30
0.0
 10
60.912
 20
51.3087
 30
0.0
 10
63.707
 20
51.2246
 30
0.0
 10
63.707
 20
51.2246
 30
0.0
 10
67.215
 20
50.5548
 30
0.0
 10
70.7825
 20
50.7925
 30
0.0
 10
74.2279
 20
51.9267
 30
0.0
 10
74.2279
 20
51.9267
 30
0.0
 10
76.4104
 20
53.1037
 30
0.0
 10
78.2272
 20
55.3039
 30
0.0
 10
79.3618
 20
58.1465
 30
0.0
 10
79.3618
 20
58.1465
 30
0.0
 10
80.3292
 20
60.6088
 30
0.0
 10
81.602
 20
62.8165
 30
0.0
 10
83.1221
 20
64.6672
 30
0.0
  0
SPLINE
  5
50
330
1F
100
AcDbEntity
  8
layer 1
 62
     7
370
     9
100
AcDbSpline
210
0.0
220
0.0
230
1.0
 70
    11
 71
     3
 72
   104
 73
   100
 74
     0
 42
0.0000000001
 43
0.0000000001
 12
1.0
 22
0.0
 32
0.0
 13
1.0
 23
0.0
 33
0.0
 40
0.0
 40
0.0
 40
0.0
 40
0.0
 40
0.0384615384615385
 40
0.0384615384615385
 40
0.0384615384615385
 40
0.0384615384615385
 40
0.0769230769230769
 40
0.0769230769230769
 40
0.0769230769230769
 40
0.0769230769230769
 40
0.1153846153846154
 40
0.1153846153846154
 40
0.1153846153846154
 40
0.1153846153846154
 40
0.1538461538461539
 40
0.1538461538461539
 40
0.1538461538461539
 40
0.1538461538461539
 40
0.1923076923076923
 40
0.1923076923076923
 40
0.1923076923076923
 40
0.1923076923076923
 40
0.2307692307692308
 40
0.2307692307692308
 40
0.2307692307692308
 40
0.2307692307692308
 40
0.2692307692307692
 40
0.2692307692307692
 40
0.2692307692307692
 40
0.2692307692307692
 40
0.3076923076923077
 40
0.3076923076923077
 40
0.3076923076923077
 40
0.3076923076923077
 40
0.3461538461538461
 40
0.3461538461538461
 40
0.3461538461538461
 40
0.3461538461538461
 40
0.3846153846153846
 40
0.3846153846153846
 40
0.3846153846153846
 40
0.3846153846153846
 40
0.4230769230769231
 40
0.4230769230769231
 40
0.4230769230769231
 40
0.4230769230769231
 40
0.4615384615384616
 40
0.4615384615384616
 40
0.4615384615384616
 40
0.4615384615384616
 40
0.5
 40
0.5
 40
0.5
 40
0.5
 40
0.5384615384615384
 40
0.5384615384615384
 40
0.5384615384615384
 40
0.5384615384615384
 40
0.5769230769230769
 40
0.5769230769230769
 40
0.5769230769230769
 40
0.5769230769230769
 40
0.6153846153846154
 40
0.6153846153846154
 40
0.6153846153846154
 40
0.6153846153846154
 40
0.6538461538461539
 40
0.6538461538461539
 40
0.6538461538461539
 40
0.6538461538461539
 40
0.6923076923076923
 40
0.6923076923076923
 40
0.6923076923076923
 40
0.6923076923076923
 40
0.7307692307692307
 40
0.7307692307692307
 40
0.7307692307692307
 40
0.7307692307692307
 40
0.7692307692307693
 40
0.7692307692307693
 40
0.7692307692307693
 40
0.7692307692307693
 40
0.8076923076923077
 40
0.8076923076923077
 40
0.8076923076923077
 40
0.8076923076923077
 40
0.8461538461538461
 40
0.8461538461538461
 40
0.8461538461538461
 40
0.8461538461538461
 40
0.8846153846153846
 40
0.8846153846153846
 40
0.8846153846153846
 40
0.8846153846153846
 40
0.9230769230769231
 40
0.9230769230769231
 40
0.9230769230769231
 40
0.9230769230769231
 40
1.0
 40
1.0
 40
1.0
 40
1.0
 10
41.8334
 20
41.9444
 30
0.0
 10
43.8293
 20
42.1604
 30
0.0
 10
45.8341
 20
41.7316
 30
0.0
 10
47.6905
 20
40.6906
 30
0.0
 10
47.6905
 20
40.6906
 30
0.0
 10
47.9449
 20
42.4622
 30
0.0
 10
47.5368
 20
44.2927
 30
0.0
 10
46.6057
 20
45.5564
 30
0.0
 10
46.6057
 20
45.5564
 30
0.0
 10
44.8195
 20
46.8004
 30
0.0
 10
42.7034
 20
46.7252
 30
0.0
 10
40.9657
 20
45.3548
 30
0.0
 10
40.9657
 20
45.3548
 30
0.0
 10
40.1565
 20
44.7756
 30
0.0
 10
39.5079
 20
43.8414
 30
0.0
 10
39.1217
 20
42.6968
 30
0.0
 10
39.1217
 20
42.6968
 30
0.0
 10
35.8181
 20
44.9747
 30
0.0
 10
32.0035
 20
45.3711
 30
0.0
 10
28.4925
 20
43.8002
 30
0.0
 10
28.4925
 20
43.8002
 30
0.0
 10
28.7844
 20
41.6897
 30
0.0
 10
29.9471
 20
40.0176
 30
0.0
 10
31.4569
 20
39.5363
 30
0.0
 10
31.4569
 20
39.5363
 30
0.0
 10
33.2442
 20
38.6869
 30
0.0
 10
35.1038
 20
38.1643
 30
0.0
 10
36.9888
 20
37.9814
 30
0.0
 10
36.9888
 20
37.9814
 30
0.0
 10
35.1798
 20
36.7566
 30
0.0
 10
33.1148
 20
36.4721
 30
0.0
 10
31.1677
 20
37.179
 30
0.0
 10
31.1677
 20
37.179
 30
0.0
 10
30.9773
 20
35.7335
 30
0.0
 10
31.2452
 20
34.2435
 30
0.0
 10
31.9027
 20
33.0905
 30
0.0
 10
31.9027
 20
33.0905
 30
0.0
 10
32.5603
 20
31.9378
 30
0.0
 10
33.5441
 20
31.2341
 30
0.0
 10
34.6025
 20
31.1598
 30
0.0
 10
34.6025
 20
31.1598
 30
0.0
 10
37.6552
 20
31.2075
 30
0.0
 10
40.7009
 20
31.5762
 30
0.0
 10
43.7133
 20
32.2632
 30
0.0
 10
43.7133
 20
32.2632
 30
0.0
 10
42.5722
 20
30.8709
 30
0.0
 10
41.7124
 20
29.0906
 30
0.0
 10
41.2187
 20
27.0972
 30
0.0
 10
41.2187
 20
27.0972
 30
0.0
 10
40.8636
 20
25.9033
 30
0.0
 10
40.9728
 20
24.541
 30
0.0
 10
41.508
 20
23.4855
 30
0.0
 10
41.508
 20
23.4855
 30
0.0
 10
43.5384
 20
25.3208
 30
0.0
 10
45.7741
 20
26.6767
 30
0.0
 10
48.1241
 20
27.4985
 30
0.0
 10
48.1241
 20
27.4985
 30
0.0
 10
50.6206
 20
28.2064
 30
0.0
 10
52.8956
 20
29.9771
 30
0.0
 10
54.6321
 20
32.5641
 30
0.0
 10
54.6321
 20
32.5641
 30
0.0
 10
55.4393
 20
35.888
 30
0.0
 10
55.5024
 20
39.4732
 30
0.0
 10
54.8127
 20
42.8472
 30
0.0
 10
54.8127
 20
42.8472
 30
0.0
 10
54.2342
 20
46.1274
 30
0.0
 10
52.4226
 20
48.7176
 30
0.0
 10
50.0765
 20
49.6187
 30
0.0
 10
50.0765
 20
49.6187
 30
0.0
 10
46.5516
 20
50.7708
 30
0.0
 10
42.8895
 20
50.8565
 30
0.0
 10
39.3387
 20
49.8696
 30
0.0
 10
39.3387
 20
49.8696
 30
0.0
 10
42.3757
 20
50.1906
 30
0.0
 10
45.4302
 20
49.9205
 30
0.0
 10
48.4135
 20
49.067
 30
0.0
 10
48.4135
 20
49.067
 30
0.0
 10
50.1284
 20
48.5921
 30
0.0
 10
51.7238
 20
47.5025
 30
0.0
 10
53.0413
 20
45.9065
 30
0.0
 10
53.0413
 20
45.9065
 30
0.0
 10
54.1696
 20
43.7346
 30
0.0
 10
54.6012
 20
41.0116
 30
0.0
 10
54.2346
 20
38.3826
 30
0.0
 10
54.2346
 20
38.3826
 30
0.0
 10
53.7645
 20
35.9348
 30
0.0
 10
52.2828
 20
34.1164
 30
0.0
 10
50.4743
 20
33.7686
 30
0.0
 10
50.4743
 20
33.7686
 30
0.0
 10
46.7628
 20
32.8787
 30
0.0
 10
42.9961
 20
34.8582
 30
0.0
 10
40.6401
 20
38.9343
 30
0.0
 10
40.6401
 20
38.9343
 30
0.0
 10
40.4322
 20
39.55
 30
0.0
 10
40.4489
 20
40.2659
 30
0.0
 10
40.6849
 20
40.8612
 30
0.0
 10
40.6849
 20
40.8612
 30
0.0
 10
40.9206
 20
41.4558
 30
0.0
 10
41.3477
 20
41.8586
 30
0.0
 10
41.8334
 20
41.9444
 30
0.0
  0
SPLINE
  5
51
330
1F
100
AcDbEntity
  8
layer 1
 62
     7
370
     9
100
AcDbSpline
210
0.0
220
0.0
230
1.0
 70
    11
 71
     3
 72
    48
 73
    44
 74
     0
 42
0.0000000001
 43
0.0000000001
 12
1.0
 22
0.0
 32
0.0
 13
1.0
 23
0.0
 33
0.0
 40
0.0
 40
0.0
 40
0.0
 40
0.0
 40
0.0833333333333333
 40
0.0833333333333333
 40
0.0833333333333333
 40
0.0833333333333333
 40
0.1666666666666667
 40
0.1666666666666667
 40
0.1666666666666667
 40
0.1666666666666667
 40
0.25
 40
0.25
 40
0.25
 40
0.25
 40
0.3333333333333333
 40
0.3333333333333333
 40
0.3333333333333333
 40
0.3333333333333333
 40
0.4166666666666667
 40
0.4166666666666667
 40
0.4166666666666667
 40
0.4166666666666667
 40
0.5
 40
0.5
 40
0.5
 40
0.5
 40
0.5833333333333334
 40
0.5833333333333334
 40
0.5833333333333334
 40
0.5833333333333334
 40
0.6666666666666666
 40
0.6666666666666666
 40
0.6666666666666666
 40
0.6666666666666666
 40
0.75
 40
0.75
 40
0.75
 40
0.75
 40
0.8333333333333334
 40
0.8333333333333334
 40
0.8333333333333334
 40
0.8333333333333334
 40
1.0
 40
1.0
 40
1.0
 40
1.0
 10
28.6369
 20
79.8655
 30
0.0
 10
31.7043
 20
83.0989
 30
0.0
 10
35.3109
 20
85.2037
 30
0.0
 10
39.1217
 20
85.9851
 30
0.0
 10
39.1217
 20
85.9851
 30
0.0
 10
42.6891
 20
86.7932
 30
0.0
 10
46.3491
 20
86.0028
 30
0.0
 10
49.5704
 20
83.7274
 30
0.0
 10
49.5704
 20
83.7274
 30
0.0
 10
52.4519
 20
81.2739
 30
0.0
 10
54.0126
 20
76.6864
 30
0.0
 10
53.5475
 20
72.0407
 30
0.0
 10
53.5475
 20
72.0407
 30
0.0
 10
53.1827
 20
68.2338
 30
0.0
 10
53.0376
 20
64.3923
 30
0.0
 10
53.1136
 20
60.554
 30
0.0
 10
53.1136
 20
60.554
 30
0.0
 10
52.3616
 20
62.2809
 30
0.0
 10
51.4086
 20
63.8236
 30
0.0
 10
50.2935
 20
65.1187
 30
0.0
 10
50.2935
 20
65.1187
 30
0.0
 10
47.196
 20
67.42
 30
0.0
 10
43.7549
 20
68.6917
 30
0.0
 10
40.2424
 20
68.83
 30
0.0
 10
40.2424
 20
68.83
 30
0.0
 10
38.7609
 20
68.9983
 30
0.0
 10
37.3618
 20
69.8454
 30
0.0
 10
36.2655
 20
71.2382
 30
0.0
 10
36.2655
 20
71.2382
 30
0.0
 10
37.7552
 20
72.7275
 30
0.0
 10
39.3855
 20
73.9256
 30
0.0
 10
41.1103
 20
74.7992
 30
0.0
 10
41.1103
 20
74.7992
 30
0.0
 10
42.7884
 20
75.7181
 30
0.0
 10
44.6484
 20
75.7715
 30
0.0
 10
46.3526
 20
74.9497
 30
0.0
 10
46.3526
 20
74.9497
 30
0.0
 10
45.4495
 20
76.6217
 30
0.0
 10
44.2885
 20
77.9928
 30
0.0
 10
42.9542
 20
78.9627
 30
0.0
 10
42.9542
 20
78.9627
 30
0.0
 10
38.2451
 20
80.2991
 30
0.0
 10
33.4141
 20
80.6041
 30
0.0
 10
28.6369
 20
79.8655
 30
0.0
  0
SPLINE
  5
52
330
1F
100
AcDbEntity
  8
layer 1
 62
     7
370
     9
100
AcDbSpline
210
0.0
220
0.0
230
1.0
 70
    11
 71
     3
 72
    40
 73
    36
 74
     0
 42
0.0000000001
 43
0.0000000001
 12
1.0
 22
0.0
 32
0.0
 13
1.0
 23
0.0
 33
0.0
 40
0.0
 40
0.0
 40
0.0
 40
0.0
 40
0.1
 40
0.1
 40
0.1
 40
0.1
 40
0.2
 40
0.2
 40
0.2
 40
0.2
 40
0.3
 40
0.3
 40
0.3
 40
0.3
 40
0.4
 40
0.4
 40
0.4
 40
0.4
 40
0.5
 40
0.5
 40
0.5
 40
0.5
 40
0.6
 40
0.6
 40
0.6
 40
0.6
 40
0.7
 40
0.7
 40
0.7
 40
0.7
 40
0.8
 40
0.8
 40
0.8
 40
0.8
 40
1.0
 40
1.0
 40
1.0
 40
1.0
 10
24.5876
 20
75.8524
 30
0.0
 10
20.4411
 20
73.3537
 30
0.0
 10
17.9603
 20
67.387
 30
0.0
 10
18.4776
 20
61.1557
 30
0.0
 10
18.4776
 20
61.1557
 30
0.0
 10
18.8844
 20
59.0161
 30
0.0
 10
19.725
 20
57.0844
 30
0.0
 10
20.8998
 20
55.588
 30
0.0
 10
20.8998
 20
55.588
 30
0.0
 10
23.2994
 20
53.0487
 30
0.0
 10
26.275
 20
51.7859
 30
0.0
 10
29.2876
 20
52.0262
 30
0.0
 10
29.2876
 20
52.0262
 30
0.0
 10
34.4541
 20
51.7357
 30
0.0
 10
39.6284
 20
52.0214
 30
0.0
 10
44.762
 20
52.8797
 30
0.0
 10
44.762
 20
52.8797
 30
0.0
 10
40.6393
 20
54.1284
 30
0.0
 10
37.4192
 20
58.5962
 30
0.0
 10
36.5187
 20
64.3162
 30
0.0
 10
36.5187
 20
64.3162
 30
0.0
 10
36.2154
 20
66.3976
 30
0.0
 10
35.1218
 20
68.0875
 30
0.0
 10
33.6624
 20
68.7298
 30
0.0
 10
33.6624
 20
68.7298
 30
0.0
 10
32.237
 20
67.5576
 30
0.0
 10
31.0637
 20
65.8775
 30
0.0
 10
30.2639
 20
63.864
 30
0.0
 10
30.2639
 20
63.864
 30
0.0
 10
29.5326
 20
62.3423
 30
0.0
 10
29.3333
 20
60.4455
 30
0.0
 10
29.7217
 20
58.6982
 30
0.0
 10
29.7217
 20
58.6982
 30
0.0
 10
25.4345
 20
62.1759
 30
0.0
 10
23.3371
 20
69.1843
 30
0.0
 10
24.5876
 20
75.8524
 30
0.0
  0
SPLINE
  5
53
330
1F
100
AcDbEntity
  8
layer 1
 62
     7
370
     9
100
AcDbSpline
210
0.0
220
0.0
230
1.0
 70
    11
 71
     3
 72
   212
 73
   208
 74
     0
 42
0.0000000001
 43
0.0000000001
 12
1.0
 22
0.0
 32
0.0
 13
1.0
 23
0.0
 33
0.0
 40
0.0
 40
0.0
 40
0.0
 40
0.0
 40
0.0188679245283019
 40
0.0188679245283019
 40
0.0188679245283019
 40
0.0188679245283019
 40
0.0377358490566038
 40
0.0377358490566038
 40
0.0377358490566038
 40
0.0377358490566038
 40
0.0566037735849057
 40
0.0566037735849057
 40
0.0566037735849057
 40
0.0566037735849057
 40
0.0754716981132075
 40
0.0754716981132075
 40
0.0754716981132075
 40
0.0754716981132075
 40
0.0943396226415094
 40
0.0943396226415094
 40
0.0943396226415094
 40
0.0943396226415094
 40
0.1132075471698113
 40
0.1132075471698113
 40
0.1132075471698113
 40
0.1132075471698113
 40
0.1320754716981132
 40
0.1320754716981132
 40
0.1320754716981132
 40
0.1320754716981132
 40
0.1509433962264151
 40
0.1509433962264151
 40
0.1509433962264151
 40
0.1509433962264151
 40
0.169811320754717
 40
0.169811320754717
 40
0.169811320754717
 40
0.169811320754717
 40
0.1886792452830189
 40
0.1886792452830189
 40
0.1886792452830189
 40
0.1886792452830189
 40
0.2075471698113208
 40
0.2075471698113208
 40
0.2075471698113208
 40
0.2075471698113208
 40
0.2264150943396226
 40
0.2264150943396226
 40
0.2264150943396226
 40
0.2264150943396226
 40
0.2452830188679245
 40
0.2452830188679245
 40
0.2452830188679245
 40
0.2452830188679245
 40
0.2641509433962264
 40
0.2641509433962264
 40
0.2641509433962264
 40
0.2641509433962264
 40
0.2830188679245283
 40
0.2830188679245283
 40
0.2830188679245283
 40
0.2830188679245283
 40
0.3018867924528302
 40
0.3018867924528302
 40
0.3018867924528302
 40
0.3018867924528302
 40
0.3207547169811321
 40
0.3207547169811321
 40
0.3207547169811321
 40
0.3207547169811321
 40
0.3396226415094339
 40
0.3396226415094339
 40
0.3396226415094339
 40
0.3396226415094339
 40
0.3584905660377358
 40
0.3584905660377358
 40
0.3584905660377358
 40
0.3584905660377358
 40
0.3773584905660378
 40
0.3773584905660378
 40
0.3773584905660378
 40
0.3773584905660378
 40
0.3962264150943396
 40
0.3962264150943396
 40
0.3962264150943396
 40
0.3962264150943396
 40
0.4150943396226415
 40
0.4150943396226415
 40
0.4150943396226415
 40
0.4150943396226415
 40
0.4339622641509434
 40
0.4339622641509434
 40
0.4339622641509434
 40
0.4339622641509434
 40
0.4528301886792453
 40
0.4528301886792453
 40
0.4528301886792453
 40
0.4528301886792453
 40
0.4716981132075472
 40
0.4716981132075472
 40
0.4716981132075472
 40
0.4716981132075472
 40
0.4905660377358491
 40
0.4905660377358491
 40
0.4905660377358491
 40
0.4905660377358491
 40
0.5094339622641509
 40
0.5094339622641509
 40
0.5094339622641509
 40
0.5094339622641509
 40
0.5283018867924528
 40
0.5283018867924528
 40
0.5283018867924528
 40
0.5283018867924528
 40
0.5471698113207547
 40
0.5471698113207547
 40
0.5471698113207547
 40
0.5471698113207547
 40
0.5660377358490566
 40
0.5660377358490566
 40
0.5660377358490566
 40
0.5660377358490566
 40
0.5849056603773585
 40
0.5849056603773585
 40
0.5849056603773585
 40
0.5849056603773585
 40
0.6037735849056604
 40
0.6037735849056604
 40
0.6037735849056604
 40
0.6037735849056604
 40
0.6226415094339622
 40
0.6226415094339622
 40
0.6226415094339622
 40
0.6226415094339622
 40
0.6415094339622641
 40
0.6415094339622641
 40
0.6415094339622641
 40
0.6415094339622641
 40
0.660377358490566
 40
0.660377358490566
 40
0.660377358490566
 40
0.660377358490566
 40
0.6792452830188679
 40
0.6792452830188679
 40
0.6792452830188679
 40
0.6792452830188679
 40
0.6981132075471698
 40
0.6981132075471698
 40
0.6981132075471698
 40
0.6981132075471698
 40
0.7169811320754716
 40
0.7169811320754716
 40
0.7169811320754716
 40
0.7169811320754716
 40
0.7358490566037735
 40
0.7358490566037735
 40
0.7358490566037735
 40
0.7358490566037735
 40
0.7547169811320755
 40
0.7547169811320755
 40
0.7547169811320755
 40
0.7547169811320755
 40
0.7735849056603774
 40
0.7735849056603774
 40
0.7735849056603774
 40
0.7735849056603774
 40
0.7924528301886793
 40
0.7924528301886793
 40
0.7924528301886793
 40
0.7924528301886793
 40
0.8113207547169812
 40
0.8113207547169812
 40
0.8113207547169812
 40
0.8113207547169812
 40
0.8301886792452831
 40
0.8301886792452831
 40
0.8301886792452831
 40
0.8301886792452831
 40
0.8490566037735849
 40
0.8490566037735849
 40
0.8490566037735849
 40
0.8490566037735849
 40
0.8679245283018868
 40
0.8679245283018868
 40
0.8679245283018868
 40
0.8679245283018868
 40
0.8867924528301887
 40
0.8867924528301887
 40
0.8867924528301887
 40
0.8867924528301887
 40
0.9056603773584906
 40
0.9056603773584906
 40
0.9056603773584906
 40
0.9056603773584906
 40
0.9245283018867925
 40
0.9245283018867925
 40
0.9245283018867925
 40
0.9245283018867925
 40
0.9433962264150944
 40
0.9433962264150944
 40
0.9433962264150944
 40
0.9433962264150944
 40
0.9622641509433962
 40
0.9622641509433962
 40
0.9622641509433962
 40
0.9622641509433962
 40
1.0
 40
1.0
 40
1.0
 40
1.0
 10
96.3185
 20
16.8643
 30
0.0
 10
98.9896
 20
17.4362
 30
0.0
 10
101.7211
 20
17.0875
 30
0.0
 10
104.272
 20
15.849
 30
0.0
 10
104.272
 20
15.849
 30
0.0
 10
106.8236
 20
17.0875
 30
0.0
 10
109.5553
 20
17.4362
 30
0.0
 10
112.2262
 20
16.8643
 30
0.0
 10
112.2262
 20
16.8643
 30
0.0
 10
110.2072
 20
16.2269
 30
0.0
 10
108.3243
 20
14.9382
 30
0.0
 10
106.7309
 20
13.1019
 30
0.0
 10
106.7309
 20
13.1019
 30
0.0
 10
105.9076
 20
12.2824
 30
0.0
 10
105.433
 20
10.9469
 30
0.0
 10
105.4657
 20
9.5411
 30
0.0
 10
105.4657
 20
9.5411
 30
0.0
 10
106.1245
 20
9.2159
 30
0.0
 10
106.6686
 20
8.5509
 30
0.0
 10
106.9839
 20
7.6846
 30
0.0
 10
106.9839
 20
7.6846
 30
0.0
 10
108.5174
 20
7.9094
 30
0.0
 10
109.7646
 20
9.4973
 30
0.0
 10
110.0573
 20
11.5972
 30
0.0
 10
110.0573
 20
11.5972
 30
0.0
 10
111.361
 20
14.143
 30
0.0
 10
113.5749
 20
15.4761
 30
0.0
 10
115.8056
 20
15.0588
 30
0.0
 10
115.8056
 20
15.0588
 30
0.0
 10
115.8908
 20
12.6699
 30
0.0
 10
114.853
 20
10.4803
 30
0.0
 10
113.239
 20
9.6413
 30
0.0
 10
113.239
 20
9.6413
 30
0.0
 10
112.073
 20
9.101
 30
0.0
 10
110.8911
 20
8.6326
 30
0.0
 10
109.6958
 20
8.237
 30
0.0
 10
109.6958
 20
8.237
 30
0.0
 10
109.2177
 20
8.0153
 30
0.0
 10
108.8096
 20
7.572
 30
0.0
 10
108.5384
 20
6.9832
 30
0.0
 10
108.5384
 20
6.9832
 30
0.0
 10
108.3886
 20
6.4427
 30
0.0
 10
108.5612
 20
5.8328
 30
0.0
 10
108.9367
 20
5.578
 30
0.0
 10
108.9367
 20
5.578
 30
0.0
 10
110.5301
 20
4.8273
 30
0.0
 10
112.2677
 20
4.9165
 30
0.0
 10
113.8169
 20
5.8289
 30
0.0
 10
113.8169
 20
5.8289
 30
0.0
 10
115.4128
 20
7.2558
 30
0.0
 10
116.759
 20
9.1577
 30
0.0
 10
117.7577
 20
11.3968
 30
0.0
 10
117.7577
 20
11.3968
 30
0.0
 10
118.2615
 20
8.7539
 30
0.0
 10
118.0366
 20
5.9461
 30
0.0
 10
117.1269
 20
3.5219
 30
0.0
 10
117.1269
 20
3.5219
 30
0.0
 10
118.0366
 20
1.0974
 30
0.0
 10
118.2615
 20
-1.7113
 30
0.0
 10
117.7577
 20
-4.354
 30
0.0
 10
117.7577
 20
-4.354
 30
0.0
 10
116.759
 20
-2.1149
 30
0.0
 10
115.4128
 20
-0.2123
 30
0.0
 10
113.8169
 20
1.2146
 30
0.0
 10
113.8169
 20
1.2146
 30
0.0
 10
112.2677
 20
2.1272
 30
0.0
 10
110.5301
 20
2.2162
 30
0.0
 10
108.9367
 20
1.4645
 30
0.0
 10
108.9367
 20
1.4645
 30
0.0
 10
108.5612
 20
1.2107
 30
0.0
 10
108.3886
 20
0.6008
 30
0.0
 10
108.5384
 20
0.0603
 30
0.0
 10
108.5384
 20
0.0603
 30
0.0
 10
108.8096
 20
-0.5286
 30
0.0
 10
109.2177
 20
-0.9718
 30
0.0
 10
109.6958
 20
-1.1935
 30
0.0
 10
109.6958
 20
-1.1935
 30
0.0
 10
110.8911
 20
-1.5891
 30
0.0
 10
112.073
 20
-2.0582
 30
0.0
 10
113.239
 20
-2.5978
 30
0.0
 10
113.239
 20
-2.5978
 30
0.0
 10
114.853
 20
-3.4366
 30
0.0
 10
115.8908
 20
-5.6264
 30
0.0
 10
115.8056
 20
-8.0153
 30
0.0
 10
115.8056
 20
-8.0153
 30
0.0
 10
113.5749
 20
-8.4326
 30
0.0
 10
111.361
 20
-7.0995
 30
0.0
 10
110.0573
 20
-4.5538
 30
0.0
 10
110.0573
 20
-4.5538
 30
0.0
 10
109.7646
 20
-2.4538
 30
0.0
 10
108.5174
 20
-0.8659
 30
0.0
 10
106.9839
 20
-0.6418
 30
0.0
 10
106.9839
 20
-0.6418
 30
0.0
 10
106.6686
 20
-1.5081
 30
0.0
 10
106.1245
 20
-2.1722
 30
0.0
 10
105.4657
 20
-2.4976
 30
0.0
 10
105.4657
 20
-2.4976
 30
0.0
 10
105.433
 20
-3.9034
 30
0.0
 10
105.9076
 20
-5.2389
 30
0.0
 10
106.7309
 20
-6.0591
 30
0.0
 10
106.7309
 20
-6.0591
 30
0.0
 10
108.3243
 20
-7.8938
 30
0.0
 10
110.2072
 20
-9.1834
 30
0.0
 10
112.2262
 20
-9.8209
 30
0.0
 10
112.2262
 20
-9.8209
 30
0.0
 10
109.5553
 20
-10.3932
 30
0.0
 10
106.8236
 20
-10.0449
 30
0.0
 10
104.272
 20
-8.8064
 30
0.0
 10
104.272
 20
-8.8064
 30
0.0
 10
101.7211
 20
-10.0449
 30
0.0
 10
98.9896
 20
-10.3932
 30
0.0
 10
96.3185
 20
-9.8209
 30
0.0
 10
96.3185
 20
-9.8209
 30
0.0
 10
98.3377
 20
-9.1834
 30
0.0
 10
100.2204
 20
-7.8938
 30
0.0
 10
101.8139
 20
-6.0591
 30
0.0
 10
101.8139
 20
-6.0591
 30
0.0
 10
102.6373
 20
-5.2389
 30
0.0
 10
103.1118
 20
-3.9034
 30
0.0
 10
103.0792
 20
-2.4976
 30
0.0
 10
103.0792
 20
-2.4976
 30
0.0
 10
102.4203
 20
-2.1722
 30
0.0
 10
101.8763
 20
-1.5081
 30
0.0
 10
101.5608
 20
-0.6418
 30
0.0
 10
101.5608
 20
-0.6418
 30
0.0
 10
100.0274
 20
-0.8659
 30
0.0
 10
98.7802
 20
-2.4538
 30
0.0
 10
98.4875
 20
-4.5538
 30
0.0
 10
98.4875
 20
-4.5538
 30
0.0
 10
97.1838
 20
-7.0995
 30
0.0
 10
94.9699
 20
-8.4326
 30
0.0
 10
92.7391
 20
-8.0153
 30
0.0
 10
92.7391
 20
-8.0153
 30
0.0
 10
92.654
 20
-5.6264
 30
0.0
 10
93.6918
 20
-3.4366
 30
0.0
 10
95.3057
 20
-2.5978
 30
0.0
 10
95.3057
 20
-2.5978
 30
0.0
 10
96.4719
 20
-2.0582
 30
0.0
 10
97.6538
 20
-1.5891
 30
0.0
 10
98.8491
 20
-1.1935
 30
0.0
 10
98.8491
 20
-1.1935
 30
0.0
 10
99.3271
 20
-0.9718
 30
0.0
 10
99.7353
 20
-0.5286
 30
0.0
 10
100.0064
 20
0.0603
 30
0.0
 10
100.0064
 20
0.0603
 30
0.0
 10
100.1563
 20
0.6008
 30
0.0
 10
99.9837
 20
1.2107
 30
0.0
 10
99.6082
 20
1.4645
 30
0.0
 10
99.6082
 20
1.4645
 30
0.0
 10
98.0146
 20
2.2162
 30
0.0
 10
96.2772
 20
2.1272
 30
0.0
 10
94.7279
 20
1.2146
 30
0.0
 10
94.7279
 20
1.2146
 30
0.0
 10
93.1321
 20
-0.2123
 30
0.0
 10
91.7858
 20
-2.1149
 30
0.0
 10
90.787
 20
-4.354
 30
0.0
 10
90.787
 20
-4.354
 30
0.0
 10
90.2826
 20
-1.7113
 30
0.0
 10
90.5077
 20
1.0974
 30
0.0
 10
91.4179
 20
3.5219
 30
0.0
 10
91.4179
 20
3.5219
 30
0.0
 10
90.5077
 20
5.9461
 30
0.0
 10
90.2826
 20
8.7539
 30
0.0
 10
90.787
 20
11.3968
 30
0.0
 10
90.787
 20
11.3968
 30
0.0
 10
91.7858
 20
9.1577
 30
0.0
 10
93.1321
 20
7.2558
 30
0.0
 10
94.7279
 20
5.8289
 30
0.0
 10
94.7279
 20
5.8289
 30
0.0
 10
96.2772
 20
4.9165
 30
0.0
 10
98.0146
 20
4.8273
 30
0.0
 10
99.6082
 20
5.578
 30
0.0
 10
99.6082
 20
5.578
 30
0.0
 10
99.9837
 20
5.8328
 30
0.0
 10
100.1563
 20
6.4427
 30
0.0
 10
100.0064
 20
6.9832
 30
0.0
 10
100.0064
 20
6.9832
 30
0.0
 10
99.7353
 20
7.572
 30
0.0
 10
99.3271
 20
8.0153
 30
0.0
 10
98.8491
 20
8.237
 30
0.0
 10
98.8491
 20
8.237
 30
0.0
 10
97.6538
 20
8.6326
 30
0.0
 10
96.4719
 20
9.101
 30
0.0
 10
95.3057
 20
9.6413
 30
0.0
 10
95.3057
 20
9.6413
 30
0.0
 10
93.6918
 20
10.4803
 30
0.0
 10
92.654
 20
12.6699
 30
0.0
 10
92.7391
 20
15.0588
 30
0.0
 10
92.7391
 20
15.0588
 30
0.0
 10
94.9699
 20
15.4761
 30
0.0
 10
97.1838
 20
14.143
 30
0.0
 10
98.4875
 20
11.5972
 30
0.0
 10
98.4875
 20
11.5972
 30
0.0
 10
98.7802
 20
9.4973
 30
0.0
 10
100.0274
 20
7.9094
 30
0.0
 10
101.5608
 20
7.6846
 30
0.0
 10
101.5608
 20
7.6846
 30
0.0
 10
101.8763
 20
8.5509
 30
0.0
 10
102.4203
 20
9.2159
 30
0.0
 10
103.0792
 20
9.5411
 30
0.0
 10
103.0792
 20
9.5411
 30
0.0
 10
103.1118
 20
10.9469
 30
0.0
 10
102.6373
 20
12.2824
 30
0.0
 10
101.8139
 20
13.1019
 30
0.0
 10
101.8139
 20
13.1019
 30
0.0
 10
100.2204
 20
14.9382
 30
0.0
 10
98.3377
 20
16.2269
 30
0.0
 10
96.3185
 20
16.8643
 30
0.0
  0
SPLINE
  5
54
330
1F
100
AcDbEntity
  8
layer 1
 62
     7
370
     9
100
AcDbSpline
210
0.0
220
0.0
230
1.0
 70
    11
 71
     3
 72
    16
 73
    12
 74
     0
 42
0.0000000001
 43
0.0000000001
 12
1.0
 22
0.0
 32
0.0
 13
1.0
 23
0.0
 33
0.0
 40
0.0
 40
0.0
 40
0.0
 40
0.0
 40
0.25
 40
0.25
 40
0.25
 40
0.25
 40
0.5
 40
0.5
 40
0.5
 40
0.5
 40
1.0
 40
1.0
 40
1.0
 40
1.0
 10
109.6234
 20
69.4319
 30
0.0
 10
108.3104
 20
66.1444
 30
0.0
 10
107.5331
 20
62.4969
 30
0.0
 10
107.3454
 20
58.7485
 30
0.0
 10
107.3454
 20
58.7485
 30
0.0
 10
105.9123
 20
60.2376
 30
0.0
 10
105.2982
 20
62.8067
 30
0.0
 10
105.8061
 20
65.1891
 30
0.0
 10
105.8061
 20
65.1891
 30
0.0
 10
106.314
 20
67.5714
 30
0.0
 10
107.8364
 20
69.2636
 30
0.0
 10
109.6234
 20
69.4319
 30
0.0
  0
SPLINE
  5
55
330
1F
100
AcDbEntity
  8
layer 1
 62
     7
370
     9
100
AcDbSpline
210
0.0
220
0.0
230
1.0
 70
    11
 71
     3
 72
    44
 73
    40
 74
     0
 42
0.0000000001
 43
0.0000000001
 12
1.0
 22
0.0
 32
0.0
 13
1.0
 23
0.0
 33
0.0
 40
0.0
 40
0.0
 40
0.0
 40
0.0
 40
0.0909090909090909
 40
0.0909090909090909
 40
0.0909090909090909
 40
0.0909090909090909
 40
0.1818181818181818
 40
0.1818181818181818
 40
0.1818181818181818
 40
0.1818181818181818
 40
0.2727272727272727
 40
0.2727272727272727
 40
0.2727272727272727
 40
0.2727272727272727
 40
0.3636363636363636
 40
0.3636363636363636
 40
0.3636363636363636
 40
0.3636363636363636
 40
0.4545454545454545
 40
0.4545454545454545
 40
0.4545454545454545
 40
0.4545454545454545
 40
0.5454545454545454
 40
0.5454545454545454
 40
0.5454545454545454
 40
0.5454545454545454
 40
0.6363636363636364
 40
0.6363636363636364
 40
0.6363636363636364
 40
0.6363636363636364
 40
0.7272727272727273
 40
0.7272727272727273
 40
0.7272727272727273
 40
0.7272727272727273
 40
0.8181818181818182
 40
0.8181818181818182
 40
0.8181818181818182
 40
0.8181818181818182
 40
1.0
 40
1.0
 40
1.0
 40
1.0
 10
114.1061
 20
56.2399
 30
0.0
 10
113.3213
 20
57.8489
 30
0.0
 10
112.6554
 20
59.5629
 30
0.0
 10
112.1178
 20
61.3563
 30
0.0
 10
112.1178
 20
61.3563
 30
0.0
 10
111.8158
 20
62.4751
 30
0.0
 10
111.8816
 20
63.7216
 30
0.0
 10
112.2986
 20
64.7668
 30
0.0
 10
112.2986
 20
64.7668
 30
0.0
 10
113.1009
 20
65.8855
 30
0.0
 10
114.2793
 20
66.3086
 30
0.0
 10
115.372
 20
65.8711
 30
0.0
 10
115.372
 20
65.8711
 30
0.0
 10
114.79
 20
65.177
 30
0.0
 10
114.5312
 20
64.0963
 30
0.0
 10
114.6979
 20
63.0575
 30
0.0
 10
114.6979
 20
63.0575
 30
0.0
 10
114.8641
 20
62.0188
 30
0.0
 10
115.4285
 20
61.1912
 30
0.0
 10
116.1673
 20
60.9051
 30
0.0
 10
116.1673
 20
60.9051
 30
0.0
 10
117.4039
 20
60.2084
 30
0.0
 10
118.8155
 20
60.4964
 30
0.0
 10
119.8551
 20
61.6572
 30
0.0
 10
119.8551
 20
61.6572
 30
0.0
 10
120.6405
 20
63.9449
 30
0.0
 10
119.9665
 20
66.684
 30
0.0
 10
118.3367
 20
67.827
 30
0.0
 10
118.3367
 20
67.827
 30
0.0
 10
116.2575
 20
69.3065
 30
0.0
 10
113.8203
 20
69.4707
 30
0.0
 10
111.6479
 20
68.2783
 30
0.0
 10
111.6479
 20
68.2783
 30
0.0
 10
110.1558
 20
67.4501
 30
0.0
 10
109.3261
 20
65.232
 30
0.0
 10
109.6958
 20
63.0617
 30
0.0
 10
109.6958
 20
63.0617
 30
0.0
 10
110.3931
 20
60.016
 30
0.0
 10
111.9995
 20
57.5325
 30
0.0
 10
114.1061
 20
56.2399
 30
0.0
  0
SPLINE
  5
56
330
1F
100
AcDbEntity
  8
layer 1
 62
     7
370
     9
100
AcDbSpline
210
0.0
220
0.0
230
1.0
 70
    11
 71
     3
 72
    44
 73
    40
 74
     0
 42
0.0000000001
 43
0.0000000001
 12
1.0
 22
0.0
 32
0.0
 13
1.0
 23
0.0
 33
0.0
 40
0.0
 40
0.0
 40
0.0
 40
0.0
 40
0.0909090909090909
 40
0.0909090909090909
 40
0.0909090909090909
 40
0.0909090909090909
 40
0.1818181818181818
 40
0.1818181818181818
 40
0.1818181818181818
 40
0.1818181818181818
 40
0.2727272727272727
 40
0.2727272727272727
 40
0.2727272727272727
 40
0.2727272727272727
 40
0.3636363636363636
 40
0.3636363636363636
 40
0.3636363636363636
 40
0.3636363636363636
 40
0.4545454545454545
 40
0.4545454545454545
 40
0.4545454545454545
 40
0.4545454545454545
 40
0.5454545454545454
 40
0.5454545454545454
 40
0.5454545454545454
 40
0.5454545454545454
 40
0.6363636363636364
 40
0.6363636363636364
 40
0.6363636363636364
 40
0.6363636363636364
 40
0.7272727272727273
 40
0.7272727272727273
 40
0.7272727272727273
 40
0.7272727272727273
 40
0.8181818181818182
 40
0.8181818181818182
 40
0.8181818181818182
 40
0.8181818181818182
 40
1.0
 40
1.0
 40
1.0
 40
1.0
 10
123.6514
 20
45.8563
 30
0.0
 10
121.437
 20
43.8485
 30
0.0
 10
120.3222
 20
40.1785
 30
0.0
 10
120.8311
 20
36.5771
 30
0.0
 10
120.8311
 20
36.5771
 30
0.0
 10
121.2631
 20
33.7741
 30
0.0
 10
121.8188
 20
31.0101
 30
0.0
 10
122.4941
 20
28.3011
 30
0.0
 10
122.4941
 20
28.3011
 30
0.0
 10
123.3028
 20
25.6549
 30
0.0
 10
122.413
 20
22.6013
 30
0.0
 10
120.5058
 20
21.4793
 30
0.0
 10
120.5058
 20
21.4793
 30
0.0
 10
118.0167
 20
19.7804
 30
0.0
 10
115.0693
 20
20.0085
 30
0.0
 10
112.7323
 20
22.081
 30
0.0
 10
112.7323
 20
22.081
 30
0.0
 10
110.8065
 20
24.6712
 30
0.0
 10
109.7902
 20
28.2976
 30
0.0
 10
109.9488
 20
32.0124
 30
0.0
 10
109.9488
 20
32.0124
 30
0.0
 10
110.7185
 20
29.1277
 30
0.0
 10
112.4864
 20
26.9769
 30
0.0
 10
114.6489
 20
26.2949
 30
0.0
 10
114.6489
 20
26.2949
 30
0.0
 10
116.0757
 20
26.0124
 30
0.0
 10
117.5169
 20
26.6604
 30
0.0
 10
118.5531
 20
28.0502
 30
0.0
 10
118.5531
 20
28.0502
 30
0.0
 10
118.9625
 20
28.9626
 30
0.0
 10
119.1163
 20
30.0507
 30
0.0
 10
118.9874
 20
31.1096
 30
0.0
 10
118.9874
 20
31.1096
 30
0.0
 10
118.7811
 20
33.5907
 30
0.0
 10
118.6965
 20
36.0869
 30
0.0
 10
118.7344
 20
38.5833
 30
0.0
 10
118.7344
 20
38.5833
 30
0.0
 10
118.7094
 20
42.4411
 30
0.0
 10
120.8749
 20
45.6438
 30
0.0
 10
123.6514
 20
45.8563
 30
0.0
  0
SPLINE
  5
57
330
1F
100
AcDbEntity
  8
layer 1
 62
     7
370
     9
100
AcDbSpline
210
0.0
220
0.0
230
1.0
 70
    11
 71
     3
 72
    44
 73
    40
 74
     0
 42
0.0000000001
 43
0.0000000001
 12
1.0
 22
0.0
 32
0.0
 13
1.0
 23
0.0
 33
0.0
 40
0.0
 40
0.0
 40
0.0
 40
0.0
 40
0.0909090909090909
 40
0.0909090909090909
 40
0.0909090909090909
 40
0.0909090909090909
 40
0.1818181818181818
 40
0.1818181818181818
 40
0.1818181818181818
 40
0.1818181818181818
 40
0.2727272727272727
 40
0.2727272727272727
 40
0.2727272727272727
 40
0.2727272727272727
 40
0.3636363636363636
 40
0.3636363636363636
 40
0.3636363636363636
 40
0.3636363636363636
 40
0.4545454545454545
 40
0.4545454545454545
 40
0.4545454545454545
 40
0.4545454545454545
 40
0.5454545454545454
 40
0.5454545454545454
 40
0.5454545454545454
 40
0.5454545454545454
 40
0.6363636363636364
 40
0.6363636363636364
 40
0.6363636363636364
 40
0.6363636363636364
 40
0.7272727272727273
 40
0.7272727272727273
 40
0.7272727272727273
 40
0.7272727272727273
 40
0.8181818181818182
 40
0.8181818181818182
 40
0.8181818181818182
 40
0.8181818181818182
 40
1.0
 40
1.0
 40
1.0
 40
1.0
 10
147.8387
 20
22.1814
 30
0.0
 10
144.9665
 20
20.0118
 30
0.0
 10
141.6955
 20
19.0696
 30
0.0
 10
138.4385
 20
19.4722
 30
0.0
 10
138.4385
 20
19.4722
 30
0.0
 10
135.1984
 20
19.7756
 30
0.0
 10
131.988
 20
20.5311
 30
0.0
 10
128.8577
 20
21.7299
 30
0.0
 10
128.8577
 20
21.7299
 30
0.0
 10
126.6099
 20
22.5277
 30
0.0
 10
124.2234
 20
21.7187
 30
0.0
 10
122.4941
 20
19.5733
 30
0.0
 10
122.4941
 20
19.5733
 30
0.0
 10
121.3256
 20
17.8407
 30
0.0
 10
121.1192
 20
15.2464
 30
0.0
 10
121.9879
 20
13.2031
 30
0.0
 10
121.9879
 20
13.2031
 30
0.0
 10
125.1085
 20
9.7408
 30
0.0
 10
129.1543
 20
8.3148
 30
0.0
 10
133.0878
 20
9.2902
 30
0.0
 10
133.0878
 20
9.2902
 30
0.0
 10
131.3648
 20
9.943
 30
0.0
 10
129.7293
 20
10.9761
 30
0.0
 10
128.243
 20
12.3496
 30
0.0
 10
128.243
 20
12.3496
 30
0.0
 10
127.446
 20
13.1982
 30
0.0
 10
127.1888
 20
14.7077
 30
0.0
 10
127.628
 20
15.9616
 30
0.0
 10
127.628
 20
15.9616
 30
0.0
 10
128.5684
 20
17.4394
 30
0.0
 10
129.9835
 20
18.1562
 30
0.0
 10
131.3881
 20
17.8673
 30
0.0
 10
131.3881
 20
17.8673
 30
0.0
 10
135.009
 20
17.4718
 30
0.0
 10
138.6449
 20
17.4215
 30
0.0
 10
142.271
 20
17.7169
 30
0.0
 10
142.271
 20
17.7169
 30
0.0
 10
144.5859
 20
17.6238
 30
0.0
 10
146.7408
 20
19.3518
 30
0.0
 10
147.8387
 20
22.1814
 30
0.0
  0
SPLINE
  5
58
330
1F
100
AcDbEntity
  8
layer 1
 62
     7
370
     9
100
AcDbSpline
210
0.0
220
0.0
230
1.0
 70
    11
 71
     3
 72
    16
 73
    12
 74
     0
 42
0.0000000001
 43
0.0000000001
 12
1.0
 22
0.0
 32
0.0
 13
1.0
 23
0.0
 33
0.0
 40
0.0
 40
0.0
 40
0.0
 40
0.0
 40
0.25
 40
0.25
 40
0.25
 40
0.25
 40
0.5
 40
0.5
 40
0.5
 40
0.5
 40
1.0
 40
1.0
 40
1.0
 40
1.0
 10
154.274
 20
29.2538
 30
0.0
 10
156.1811
 20
25.8693
 30
0.0
 10
159.096
 20
23.8753
 30
0.0
 10
162.192
 20
23.8365
 30
0.0
 10
162.192
 20
23.8365
 30
0.0
 10
160.7547
 20
21.9904
 30
0.0
 10
158.6464
 20
21.5651
 30
0.0
 10
156.8902
 20
22.7671
 30
0.0
 10
156.8902
 20
22.7671
 30
0.0
 10
155.1341
 20
23.9691
 30
0.0
 10
154.0932
 20
26.5487
 30
0.0
 10
154.274
 20
29.2538
 30
0.0
  0
SPLINE
  5
59
330
1F
100
AcDbEntity
  8
layer 1
 62
     7
370
     9
100
AcDbSpline
210
0.0
220
0.0
230
1.0
 70
    11
 71
     3
 72
    16
 73
    12
 74
     0
 42
0.0000000001
 43
0.0000000001
 12
1.0
 22
0.0
 32
0.0
 13
1.0
 23
0.0
 33
0.0
 40
0.0
 40
0.0
 40
0.0
 40
0.0
 40
0.25
 40
0.25
 40
0.25
 40
0.25
 40
0.5
 40
0.5
 40
0.5
 40
0.5
 40
1.0
 40
1.0
 40
1.0
 40
1.0
 10
169.7485
 20
26.8966
 30
0.0
 10
173.5548
 20
24.8372
 30
0.0
 10
177.7954
 20
24.9633
 30
0.0
 10
181.5346
 20
27.2477
 30
0.0
 10
181.5346
 20
27.2477
 30
0.0
 10
180.3008
 20
24.4052
 30
0.0
 10
178.1026
 20
22.6384
 30
0.0
 10
175.7109
 20
22.5664
 30
0.0
 10
175.7109
 20
22.5664
 30
0.0
 10
173.3198
 20
22.4953
 30
0.0
 10
171.0692
 20
24.1301
 30
0.0
 10
169.7485
 20
26.8966
 30
0.0
  0
SPLINE
  5
5A
330
1F
100
AcDbEntity
  8
layer 1
 62
     7
370
     9
100
AcDbSpline
210
0.0
220
0.0
230
1.0
 70
    11
 71
     3
 72
    12
 73
     8
 74
     0
 42
0.0000000001
 43
0.0000000001
 12
1.0
 22
0.0
 32
0.0
 13
1.0
 23
0.0
 33
0.0
 40
0.0
 40
0.0
 40
0.0
 40
0.0
 40
0.3333333333333333
 40
0.3333333333333333
 40
0.3333333333333333
 40
0.3333333333333333
 40
1.0
 40
1.0
 40
1.0
 40
1.0
 10
171.6283
 20
8.4377
 30
0.0
 10
168.1825
 20
6.6273
 30
0.0
 10
164.494
 20
5.8741
 30
0.0
 10
160.8183
 20
6.2302
 30
0.0
 10
160.8183
 20
6.2302
 30
0.0
 10
164.2945
 20
3.0016
 30
0.0
 10
168.9695
 20
3.9562
 30
0.0
 10
171.6283
 20
8.4377
 30
0.0
  0
SPLINE
  5
5B
330
1F
100
AcDbEntity
  8
layer 1
 62
     7
370
     9
100
AcDbSpline
210
0.0
220
0.0
230
1.0
 70
    11
 71
     3
 72
    44
 73
    40
 74
     0
 42
0.0000000001
 43
0.0000000001
 12
1.0
 22
0.0
 32
0.0
 13
1.0
 23
0.0
 33
0.0
 40
0.0
 40
0.0
 40
0.0
 40
0.0
 40
0.0909090909090909
 40
0.0909090909090909
 40
0.0909090909090909
 40
0.0909090909090909
 40
0.1818181818181818
 40
0.1818181818181818
 40
0.1818181818181818
 40
0.1818181818181818
 40
0.2727272727272727
 40
0.2727272727272727
 40
0.2727272727272727
 40
0.2727272727272727
 40
0.3636363636363636
 40
0.3636363636363636
 40
0.3636363636363636
 40
0.3636363636363636
 40
0.4545454545454545
 40
0.4545454545454545
 40
0.4545454545454545
 40
0.4545454545454545
 40
0.5454545454545454
 40
0.5454545454545454
 40
0.5454545454545454
 40
0.5454545454545454
 40
0.6363636363636364
 40
0.6363636363636364
 40
0.6363636363636364
 40
0.6363636363636364
 40
0.7272727272727273
 40
0.7272727272727273
 40
0.7272727272727273
 40
0.7272727272727273
 40
0.8181818181818182
 40
0.8181818181818182
 40
0.8181818181818182
 40
0.8181818181818182
 40
1.0
 40
1.0
 40
1.0
 40
1.0
 10
168.2658
 20
13.7548
 30
0.0
 10
166.7731
 20
12.2267
 30
0.0
 10
164.6997
 20
12.4395
 30
0.0
 10
163.3849
 20
14.2562
 30
0.0
 10
163.3849
 20
14.2562
 30
0.0
 10
163.0223
 20
15.096
 30
0.0
 10
163.0036
 20
16.1395
 30
0.0
 10
163.3372
 20
17.0026
 30
0.0
 10
163.3372
 20
17.0026
 30
0.0
 10
163.6707
 20
17.8666
 30
0.0
 10
164.3069
 20
18.4231
 30
0.0
 10
165.0118
 20
18.4692
 30
0.0
 10
165.0118
 20
18.4692
 30
0.0
 10
167.1726
 20
19.0645
 30
0.0
 10
169.394
 20
17.9668
 30
0.0
 10
170.7968
 20
15.6105
 30
0.0
 10
170.7968
 20
15.6105
 30
0.0
 10
171.7654
 20
13.9682
 30
0.0
 10
171.7035
 20
11.5835
 30
0.0
 10
170.6522
 20
10.0426
 30
0.0
 10
170.6522
 20
10.0426
 30
0.0
 10
169.2664
 20
8.6764
 30
0.0
 10
167.5714
 20
8.0527
 30
0.0
 10
165.8798
 20
8.2872
 30
0.0
 10
165.8798
 20
8.2872
 30
0.0
 10
163.1686
 20
8.373
 30
0.0
 10
160.5879
 20
9.9197
 30
0.0
 10
158.6849
 20
12.6004
 30
0.0
 10
158.6849
 20
12.6004
 30
0.0
 10
160.6597
 20
11.5892
 30
0.0
 10
162.7086
 20
10.883
 30
0.0
 10
164.7954
 20
10.4941
 30
0.0
 10
164.7954
 20
10.4941
 30
0.0
 10
165.5744
 20
10.1469
 30
0.0
 10
166.4251
 20
10.3159
 30
0.0
 10
167.1025
 20
10.9527
 30
0.0
 10
167.1025
 20
10.9527
 30
0.0
 10
167.7795
 20
11.5892
 30
0.0
 10
168.2086
 20
12.6222
 30
0.0
 10
168.2658
 20
13.7548
 30
0.0
  0
SPLINE
  5
5C
330
1F
100
AcDbEntity
  8
layer 1
 62
     7
370
     9
100
AcDbSpline
210
0.0
220
0.0
230
1.0
 70
    11
 71
     3
 72
    28
 73
    24
 74
     0
 42
0.0000000001
 43
0.0000000001
 12
1.0
 22
0.0
 32
0.0
 13
1.0
 23
0.0
 33
0.0
 40
0.0
 40
0.0
 40
0.0
 40
0.0
 40
0.1428571428571428
 40
0.1428571428571428
 40
0.1428571428571428
 40
0.1428571428571428
 40
0.2857142857142857
 40
0.2857142857142857
 40
0.2857142857142857
 40
0.2857142857142857
 40
0.4285714285714285
 40
0.4285714285714285
 40
0.4285714285714285
 40
0.4285714285714285
 40
0.5714285714285714
 40
0.5714285714285714
 40
0.5714285714285714
 40
0.5714285714285714
 40
0.7142857142857143
 40
0.7142857142857143
 40
0.7142857142857143
 40
0.7142857142857143
 40
1.0
 40
1.0
 40
1.0
 40
1.0
 10
152.9003
 20
21.5293
 30
0.0
 10
153.2332
 20
14.9286
 30
0.0
 10
155.039
 20
8.6351
 30
0.0
 10
158.0663
 20
3.5219
 30
0.0
 10
158.0663
 20
3.5219
 30
0.0
 10
155.039
 20
-1.5914
 30
0.0
 10
153.2332
 20
-7.8851
 30
0.0
 10
152.9003
 20
-14.4858
 30
0.0
 10
152.9003
 20
-14.4858
 30
0.0
 10
151.0975
 20
-12.486
 30
0.0
 10
149.9301
 20
-9.5879
 30
0.0
 10
149.6462
 20
-6.4102
 30
0.0
 10
149.6462
 20
-6.4102
 30
0.0
 10
149.8531
 20
-2.1949
 30
0.0
 10
151.6257
 20
1.5673
 30
0.0
 10
154.3259
 20
3.5219
 30
0.0
 10
154.3259
 20
3.5219
 30
0.0
 10
151.6257
 20
5.4762
 30
0.0
 10
149.8531
 20
9.2384
 30
0.0
 10
149.6462
 20
13.453
 30
0.0
 10
149.6462
 20
13.453
 30
0.0
 10
149.9301
 20
16.6314
 30
0.0
 10
151.0975
 20
19.5298
 30
0.0
 10
152.9003
 20
21.5293
 30
0.0
  0
SPLINE
  5
5D
330
1F
100
AcDbEntity
  8
layer 1
 62
     7
370
     9
100
AcDbSpline
210
0.0
220
0.0
230
1.0
 70
    11
 71
     3
 72
    92
 73
    88
 74
     0
 42
0.0000000001
 43
0.0000000001
 12
1.0
 22
0.0
 32
0.0
 13
1.0
 23
0.0
 33
0.0
 40
0.0
 40
0.0
 40
0.0
 40
0.0
 40
0.0434782608695652
 40
0.0434782608695652
 40
0.0434782608695652
 40
0.0434782608695652
 40
0.0869565217391304
 40
0.0869565217391304
 40
0.0869565217391304
 40
0.0869565217391304
 40
0.1304347826086956
 40
0.1304347826086956
 40
0.1304347826086956
 40
0.1304347826086956
 40
0.1739130434782609
 40
0.1739130434782609
 40
0.1739130434782609
 40
0.1739130434782609
 40
0.2173913043478261
 40
0.2173913043478261
 40
0.2173913043478261
 40
0.2173913043478261
 40
0.2608695652173913
 40
0.2608695652173913
 40
0.2608695652173913
 40
0.2608695652173913
 40
0.3043478260869565
 40
0.3043478260869565
 40
0.3043478260869565
 40
0.3043478260869565
 40
0.3478260869565217
 40
0.3478260869565217
 40
0.3478260869565217
 40
0.3478260869565217
 40
0.391304347826087
 40
0.391304347826087
 40
0.391304347826087
 40
0.391304347826087
 40
0.4347826086956522
 40
0.4347826086956522
 40
0.4347826086956522
 40
0.4347826086956522
 40
0.4782608695652174
 40
0.4782608695652174
 40
0.4782608695652174
 40
0.4782608695652174
 40
0.5217391304347826
 40
0.5217391304347826
 40
0.5217391304347826
 40
0.5217391304347826
 40
0.5652173913043478
 40
0.5652173913043478
 40
0.5652173913043478
 40
0.5652173913043478
 40
0.6086956521739131
 40
0.6086956521739131
 40
0.6086956521739131
 40
0.6086956521739131
 40
0.6521739130434783
 40
0.6521739130434783
 40
0.6521739130434783
 40
0.6521739130434783
 40
0.6956521739130435
 40
0.6956521739130435
 40
0.6956521739130435
 40
0.6956521739130435
 40
0.7391304347826086
 40
0.7391304347826086
 40
0.7391304347826086
 40
0.7391304347826086
 40
0.782608695652174
 40
0.782608695652174
 40
0.782608695652174
 40
0.782608695652174
 40
0.8260869565217391
 40
0.8260869565217391
 40
0.8260869565217391
 40
0.8260869565217391
 40
0.8695652173913043
 40
0.8695652173913043
 40
0.8695652173913043
 40
0.8695652173913043
 40
0.9130434782608695
 40
0.9130434782608695
 40
0.9130434782608695
 40
0.9130434782608695
 40
1.0
 40
1.0
 40
1.0
 40
1.0
 10
128.713
 20
27.0972
 30
0.0
 10
128.7876
 20
32.1483
 30
0.0
 10
131.4471
 20
36.4065
 30
0.0
 10
135.0399
 20
37.2292
 30
0.0
 10
135.0399
 20
37.2292
 30
0.0
 10
136.9394
 20
37.7323
 30
0.0
 10
138.8029
 20
38.4709
 30
0.0
 10
140.6075
 20
39.4367
 30
0.0
 10
140.6075
 20
39.4367
 30
0.0
 10
141.3976
 20
39.7782
 30
0.0
 10
141.9474
 20
40.7722
 30
0.0
 10
141.9817
 20
41.9194
 30
0.0
 10
141.9817
 20
41.9194
 30
0.0
 10
141.7695
 20
42.5479
 30
0.0
 10
141.4459
 20
43.0914
 30
0.0
 10
141.042
 20
43.4991
 30
0.0
 10
141.042
 20
43.4991
 30
0.0
 10
139.9173
 20
44.3794
 30
0.0
 10
138.6443
 20
44.829
 30
0.0
 10
137.354
 20
44.8031
 30
0.0
 10
137.354
 20
44.8031
 30
0.0
 10
134.9687
 20
44.8969
 30
0.0
 10
132.6364
 20
43.8123
 30
0.0
 10
130.7736
 20
41.7438
 30
0.0
 10
130.7736
 20
41.7438
 30
0.0
 10
128.4722
 20
39.3209
 30
0.0
 10
126.5008
 20
36.3489
 30
0.0
 10
124.9528
 20
32.9653
 30
0.0
 10
124.9528
 20
32.9653
 30
0.0
 10
124.852
 20
35.6049
 30
0.0
 10
124.8397
 20
38.2501
 30
0.0
 10
124.9166
 20
40.8912
 30
0.0
 10
124.9166
 20
40.8912
 30
0.0
 10
124.9406
 20
44.1407
 30
0.0
 10
126.3038
 20
47.0836
 30
0.0
 10
128.4238
 20
48.4651
 30
0.0
 10
128.4238
 20
48.4651
 30
0.0
 10
131.6545
 20
50.1915
 30
0.0
 10
135.2136
 20
50.333
 30
0.0
 10
138.5109
 20
48.8664
 30
0.0
 10
138.5109
 20
48.8664
 30
0.0
 10
141.2058
 20
48.0865
 30
0.0
 10
143.1461
 20
44.8105
 30
0.0
 10
143.1747
 20
40.9914
 30
0.0
 10
143.1747
 20
40.9914
 30
0.0
 10
144.8966
 20
41.1962
 30
0.0
 10
146.6277
 20
40.7821
 30
0.0
 10
148.2002
 20
39.7878
 30
0.0
 10
148.2002
 20
39.7878
 30
0.0
 10
149.7495
 20
38.999
 30
0.0
 10
150.9884
 20
37.3441
 30
0.0
 10
151.614
 20
35.2254
 30
0.0
 10
151.614
 20
35.2254
 30
0.0
 10
152.2397
 20
33.1077
 30
0.0
 10
152.1948
 20
30.7221
 30
0.0
 10
151.4904
 20
28.6521
 30
0.0
 10
151.4904
 20
28.6521
 30
0.0
 10
150.3709
 20
25.8725
 30
0.0
 10
148.3489
 20
24.0209
 30
0.0
 10
146.0674
 20
23.6861
 30
0.0
 10
146.0674
 20
23.6861
 30
0.0
 10
142.3632
 20
23.3649
 30
0.0
 10
138.6456
 20
23.5492
 30
0.0
 10
134.9675
 20
24.2376
 30
0.0
 10
134.9675
 20
24.2376
 30
0.0
 10
137.6095
 20
25.172
 30
0.0
 10
140.1505
 20
26.5893
 30
0.0
 10
142.524
 20
28.4515
 30
0.0
 10
142.524
 20
28.4515
 30
0.0
 10
144.1776
 20
29.4036
 30
0.0
 10
145.5531
 20
31.1
 30
0.0
 10
146.4289
 20
33.2671
 30
0.0
 10
146.4289
 20
33.2671
 30
0.0
 10
146.9541
 20
35.0538
 30
0.0
 10
146.7618
 20
37.094
 30
0.0
 10
145.9228
 20
38.6335
 30
0.0
 10
145.9228
 20
38.6335
 30
0.0
 10
144.7328
 20
39.8963
 30
0.0
 10
143.1025
 20
39.9965
 30
0.0
 10
141.8373
 20
38.885
 30
0.0
 10
141.8373
 20
38.885
 30
0.0
 10
141.1154
 20
38.1481
 30
0.0
 10
140.5627
 20
37.1377
 30
0.0
 10
140.246
 20
35.9754
 30
0.0
 10
140.246
 20
35.9754
 30
0.0
 10
138.1813
 20
29.8785
 30
0.0
 10
133.5344
 20
26.3013
 30
0.0
 10
128.713
 20
27.0972
 30
0.0
  0
SPLINE
  5
5E
330
1F
100
AcDbEntity
  8
layer 1
 62
     7
370
     9
100
AcDbSpline
210
0.0
220
0.0
230
1.0
 70
    11
 71
     3
 72
    20
 73
    16
 74
     0
 42
0.0000000001
 43
0.0000000001
 12
1.0
 22
0.0
 32
0.0
 13
1.0
 23
0.0
 33
0.0
 40
0.0
 40
0.0
 40
0.0
 40
0.0
 40
0.2
 40
0.2
 40
0.2
 40
0.2
 40
0.4
 40
0.4
 40
0.4
 40
0.4
 40
0.6
 40
0.6
 40
0.6
 40
0.6
 40
1.0
 40
1.0
 40
1.0
 40
1.0
 10
125.7119
 20
60.1025
 30
0.0
 10
126.3119
 20
56.4671
 30
0.0
 10
128.1853
 20
53.4912
 30
0.0
 10
130.7013
 20
52.1773
 30
0.0
 10
130.7013
 20
52.1773
 30
0.0
 10
129.0418
 20
51.8723
 30
0.0
 10
127.3545
 20
52.2025
 30
0.0
 10
125.8205
 20
53.1303
 30
0.0
 10
125.8205
 20
53.1303
 30
0.0
 10
124.9604
 20
53.8746
 30
0.0
 10
124.4299
 20
55.1697
 30
0.0
 10
124.4077
 20
56.5756
 30
0.0
 10
124.4077
 20
56.5756
 30
0.0
 10
124.3861
 20
57.9814
 30
0.0
 10
124.8764
 20
59.3073
 30
0.0
 10
125.7119
 20
60.1025
 30
0.0
  0
SPLINE
  5
5F
330
1F
100
AcDbEntity
  8
layer 1
 62
     7
370
     9
100
AcDbSpline
210
0.0
220
0.0
230
1.0
 70
    11
 71
     3
 72
    16
 73
    12
 74
     0
 42
0.0000000001
 43
0.0000000001
 12
1.0
 22
0.0
 32
0.0
 13
1.0
 23
0.0
 33
0.0
 40
0.0
 40
0.0
 40
0.0
 40
0.0
 40
0.25
 40
0.25
 40
0.25
 40
0.25
 40
0.5
 40
0.5
 40
0.5
 40
0.5
 40
1.0
 40
1.0
 40
1.0
 40
1.0
 10
129.3637
 20
78.6619
 30
0.0
 10
127.3597
 20
75.4956
 30
0.0
 10
126.9847
 20
70.9357
 30
0.0
 10
128.4238
 20
67.2251
 30
0.0
 10
128.4238
 20
67.2251
 30
0.0
 10
126.1476
 20
67.5851
 30
0.0
 10
124.5127
 20
70.4374
 30
0.0
 10
124.7722
 20
73.5954
 30
0.0
 10
124.7722
 20
73.5954
 30
0.0
 10
125.0315
 20
76.7536
 30
0.0
 10
127.0874
 20
79.0219
 30
0.0
 10
129.3637
 20
78.6619
 30
0.0
  0
SPLINE
  5
60
330
1F
100
AcDbEntity
  8
layer 1
 62
     7
370
     9
100
AcDbSpline
210
0.0
220
0.0
230
1.0
 70
    11
 71
     3
 72
   108
 73
   104
 74
     0
 42
0.0000000001
 43
0.0000000001
 12
1.0
 22
0.0
 32
0.0
 13
1.0
 23
0.0
 33
0.0
 40
0.0
 40
0.0
 40
0.0
 40
0.0
 40
0.037037037037037
 40
0.037037037037037
 40
0.037037037037037
 40
0.037037037037037
 40
0.0740740740740741
 40
0.0740740740740741
 40
0.0740740740740741
 40
0.0740740740740741
 40
0.1111111111111111
 40
0.1111111111111111
 40
0.1111111111111111
 40
0.1111111111111111
 40
0.1481481481481481
 40
0.1481481481481481
 40
0.1481481481481481
 40
0.1481481481481481
 40
0.1851851851851852
 40
0.1851851851851852
 40
0.1851851851851852
 40
0.1851851851851852
 40
0.2222222222222222
 40
0.2222222222222222
 40
0.2222222222222222
 40
0.2222222222222222
 40
0.2592592592592592
 40
0.2592592592592592
 40
0.2592592592592592
 40
0.2592592592592592
 40
0.2962962962962963
 40
0.2962962962962963
 40
0.2962962962962963
 40
0.2962962962962963
 40
0.3333333333333333
 40
0.3333333333333333
 40
0.3333333333333333
 40
0.3333333333333333
 40
0.3703703703703703
 40
0.3703703703703703
 40
0.3703703703703703
 40
0.3703703703703703
 40
0.4074074074074074
 40
0.4074074074074074
 40
0.4074074074074074
 40
0.4074074074074074
 40
0.4444444444444444
 40
0.4444444444444444
 40
0.4444444444444444
 40
0.4444444444444444
 40
0.4814814814814815
 40
0.4814814814814815
 40
0.4814814814814815
 40
0.4814814814814815
 40
0.5185185185185185
 40
0.5185185185185185
 40
0.5185185185185185
 40
0.5185185185185185
 40
0.5555555555555556
 40
0.5555555555555556
 40
0.5555555555555556
 40
0.5555555555555556
 40
0.5925925925925926
 40
0.5925925925925926
 40
0.5925925925925926
 40
0.5925925925925926
 40
0.6296296296296297
 40
0.6296296296296297
 40
0.6296296296296297
 40
0.6296296296296297
 40
0.6666666666666666
 40
0.6666666666666666
 40
0.6666666666666666
 40
0.6666666666666666
 40
0.7037037037037037
 40
0.7037037037037037
 40
0.7037037037037037
 40
0.7037037037037037
 40
0.7407407407407407
 40
0.7407407407407407
 40
0.7407407407407407
 40
0.7407407407407407
 40
0.7777777777777778
 40
0.7777777777777778
 40
0.7777777777777778
 40
0.7777777777777778
 40
0.8148148148148148
 40
0.8148148148148148
 40
0.8148148148148148
 40
0.8148148148148148
 40
0.8518518518518519
 40
0.8518518518518519
 40
0.8518518518518519
 40
0.8518518518518519
 40
0.8888888888888888
 40
0.8888888888888888
 40
0.8888888888888888
 40
0.8888888888888888
 40
0.9259259259259259
 40
0.9259259259259259
 40
0.9259259259259259
 40
0.9259259259259259
 40
1.0
 40
1.0
 40
1.0
 40
1.0
 10
125.4229
 20
64.6672
 30
0.0
 10
126.674
 20
65.2199
 30
0.0
 10
128.0081
 20
65.3072
 30
0.0
 10
129.2914
 20
64.9181
 30
0.0
 10
129.2914
 20
64.9181
 30
0.0
 10
131.2668
 20
64.3299
 30
0.0
 10
133.121
 20
63.1295
 30
0.0
 10
134.7145
 20
61.4065
 30
0.0
 10
134.7145
 20
61.4065
 30
0.0
 10
134.1477
 20
62.7897
 30
0.0
 10
133.7215
 20
64.2749
 30
0.0
 10
133.4493
 20
65.8209
 30
0.0
 10
133.4493
 20
65.8209
 30
0.0
 10
133.0883
 20
67.7154
 30
0.0
 10
133.1134
 20
69.7126
 30
0.0
 10
133.5215
 20
71.5892
 30
0.0
 10
133.5215
 20
71.5892
 30
0.0
 10
134.827
 20
74.2831
 30
0.0
 10
137.2695
 20
75.4333
 30
0.0
 10
139.4869
 20
74.398
 30
0.0
 10
139.4869
 20
74.398
 30
0.0
 10
138.7178
 20
72.4071
 30
0.0
 10
139.0828
 20
69.9392
 30
0.0
 10
140.3544
 20
68.5292
 30
0.0
 10
140.3544
 20
68.5292
 30
0.0
 10
140.8593
 20
72.963
 30
0.0
 10
143.4314
 20
76.3879
 30
0.0
 10
146.6452
 20
76.9065
 30
0.0
 10
146.6452
 20
76.9065
 30
0.0
 10
147.8825
 20
73.5461
 30
0.0
 10
147.4306
 20
69.4643
 30
0.0
 10
145.5245
 20
66.7738
 30
0.0
 10
145.5245
 20
66.7738
 30
0.0
 10
146.4254
 20
66.1646
 30
0.0
 10
147.2544
 20
65.3694
 30
0.0
 10
147.9833
 20
64.4157
 30
0.0
 10
147.9833
 20
64.4157
 30
0.0
 10
148.539
 20
63.6092
 30
0.0
 10
148.7973
 20
62.493
 30
0.0
 10
148.6848
 20
61.3871
 30
0.0
 10
148.6848
 20
61.3871
 30
0.0
 10
148.5722
 20
60.282
 30
0.0
 10
148.1005
 20
59.3089
 30
0.0
 10
147.4048
 20
58.7485
 30
0.0
 10
147.4048
 20
58.7485
 30
0.0
 10
145.9823
 20
58.0883
 30
0.0
 10
144.4563
 20
57.9846
 30
0.0
 10
142.9941
 20
58.4467
 30
0.0
 10
142.9941
 20
58.4467
 30
0.0
 10
143.6476
 20
59.2208
 30
0.0
 10
144.1147
 20
60.2538
 30
0.0
 10
144.3315
 20
61.4065
 30
0.0
 10
144.3315
 20
61.4065
 30
0.0
 10
144.6143
 20
62.0408
 30
0.0
 10
144.6849
 20
62.8133
 30
0.0
 10
144.5257
 20
63.5251
 30
0.0
 10
144.5257
 20
63.5251
 30
0.0
 10
144.366
 20
64.2371
 30
0.0
 10
143.9922
 20
64.8186
 30
0.0
 10
143.5002
 20
65.1187
 30
0.0
 10
143.5002
 20
65.1187
 30
0.0
 10
142.5106
 20
65.3937
 30
0.0
 10
141.4856
 20
65.2903
 30
0.0
 10
140.5352
 20
64.817
 30
0.0
 10
140.5352
 20
64.817
 30
0.0
 10
138.0607
 20
63.9805
 30
0.0
 10
136.1494
 20
61.2511
 30
0.0
 10
135.6182
 20
57.7955
 30
0.0
 10
135.6182
 20
57.7955
 30
0.0
 10
135.469
 20
55.3323
 30
0.0
 10
136.61
 20
53.073
 30
0.0
 10
138.3301
 20
52.4272
 30
0.0
 10
138.3301
 20
52.4272
 30
0.0
 10
141.0559
 20
51.607
 30
0.0
 10
143.8738
 20
51.5731
 30
0.0
 10
146.6095
 20
52.328
 30
0.0
 10
146.6095
 20
52.328
 30
0.0
 10
148.2947
 20
52.7501
 30
0.0
 10
149.8531
 20
53.8487
 30
0.0
 10
151.0922
 20
55.4875
 30
0.0
 10
151.0922
 20
55.4875
 30
0.0
 10
152.5767
 20
58.7913
 30
0.0
 10
153.1061
 20
62.7509
 30
0.0
 10
152.5749
 20
66.5732
 30
0.0
 10
152.5749
 20
66.5732
 30
0.0
 10
153.6408
 20
63.1132
 30
0.0
 10
153.4805
 20
59.161
 30
0.0
 10
152.1411
 20
55.8888
 30
0.0
 10
152.1411
 20
55.8888
 30
0.0
 10
150.2777
 20
52.9978
 30
0.0
 10
147.6329
 20
51.3087
 30
0.0
 10
144.8377
 20
51.2246
 30
0.0
 10
144.8377
 20
51.2246
 30
0.0
 10
141.3294
 20
50.5548
 30
0.0
 10
137.7622
 20
50.7925
 30
0.0
 10
134.3168
 20
51.9267
 30
0.0
 10
134.3168
 20
51.9267
 30
0.0
 10
132.1345
 20
53.1037
 30
0.0
 10
130.3176
 20
55.3039
 30
0.0
 10
129.1829
 20
58.1465
 30
0.0
 10
129.1829
 20
58.1465
 30
0.0
 10
128.2157
 20
60.6088
 30
0.0
 10
126.9427
 20
62.8165
 30
0.0
 10
125.4229
 20
64.6672
 30
0.0
  0
SPLINE
  5
61
330
1F
100
AcDbEntity
  8
layer 1
 62
     7
370
     9
100
AcDbSpline
210
0.0
220
0.0
230
1.0
 70
    11
 71
     3
 72
   104
 73
   100
 74
     0
 42
0.0000000001
 43
0.0000000001
 12
1.0
 22
0.0
 32
0.0
 13
1.0
 23
0.0
 33
0.0
 40
0.0
 40
0.0
 40
0.0
 40
0.0
 40
0.0384615384615385
 40
0.0384615384615385
 40
0.0384615384615385
 40
0.0384615384615385
 40
0.0769230769230769
 40
0.0769230769230769
 40
0.0769230769230769
 40
0.0769230769230769
 40
0.1153846153846154
 40
0.1153846153846154
 40
0.1153846153846154
 40
0.1153846153846154
 40
0.1538461538461539
 40
0.1538461538461539
 40
0.1538461538461539
 40
0.1538461538461539
 40
0.1923076923076923
 40
0.1923076923076923
 40
0.1923076923076923
 40
0.1923076923076923
 40
0.2307692307692308
 40
0.2307692307692308
 40
0.2307692307692308
 40
0.2307692307692308
 40
0.2692307692307692
 40
0.2692307692307692
 40
0.2692307692307692
 40
0.2692307692307692
 40
0.3076923076923077
 40
0.3076923076923077
 40
0.3076923076923077
 40
0.3076923076923077
 40
0.3461538461538461
 40
0.3461538461538461
 40
0.3461538461538461
 40
0.3461538461538461
 40
0.3846153846153846
 40
0.3846153846153846
 40
0.3846153846153846
 40
0.3846153846153846
 40
0.4230769230769231
 40
0.4230769230769231
 40
0.4230769230769231
 40
0.4230769230769231
 40
0.4615384615384616
 40
0.4615384615384616
 40
0.4615384615384616
 40
0.4615384615384616
 40
0.5
 40
0.5
 40
0.5
 40
0.5
 40
0.5384615384615384
 40
0.5384615384615384
 40
0.5384615384615384
 40
0.5384615384615384
 40
0.5769230769230769
 40
0.5769230769230769
 40
0.5769230769230769
 40
0.5769230769230769
 40
0.6153846153846154
 40
0.6153846153846154
 40
0.6153846153846154
 40
0.6153846153846154
 40
0.6538461538461539
 40
0.6538461538461539
 40
0.6538461538461539
 40
0.6538461538461539
 40
0.6923076923076923
 40
0.6923076923076923
 40
0.6923076923076923
 40
0.6923076923076923
 40
0.7307692307692307
 40
0.7307692307692307
 40
0.7307692307692307
 40
0.7307692307692307
 40
0.7692307692307693
 40
0.7692307692307693
 40
0.7692307692307693
 40
0.7692307692307693
 40
0.8076923076923077
 40
0.8076923076923077
 40
0.8076923076923077
 40
0.8076923076923077
 40
0.8461538461538461
 40
0.8461538461538461
 40
0.8461538461538461
 40
0.8461538461538461
 40
0.8846153846153846
 40
0.8846153846153846
 40
0.8846153846153846
 40
0.8846153846153846
 40
0.9230769230769231
 40
0.9230769230769231
 40
0.9230769230769231
 40
0.9230769230769231
 40
1.0
 40
1.0
 40
1.0
 40
1.0
 10
166.7113
 20
41.9444
 30
0.0
 10
164.7156
 20
42.1604
 30
0.0
 10
162.7103
 20
41.7316
 30
0.0
 10
160.8545
 20
40.6906
 30
0.0
 10
160.8545
 20
40.6906
 30
0.0
 10
160.5997
 20
42.4622
 30
0.0
 10
161.0077
 20
44.2927
 30
0.0
 10
161.9389
 20
45.5564
 30
0.0
 10
161.9389
 20
45.5564
 30
0.0
 10
163.7249
 20
46.8004
 30
0.0
 10
165.8415
 20
46.7252
 30
0.0
 10
167.5789
 20
45.3548
 30
0.0
 10
167.5789
 20
45.3548
 30
0.0
 10
168.3882
 20
44.7756
 30
0.0
 10
169.0366
 20
43.8414
 30
0.0
 10
169.4232
 20
42.6968
 30
0.0
 10
169.4232
 20
42.6968
 30
0.0
 10
172.7268
 20
44.9747
 30
0.0
 10
176.5412
 20
45.3711
 30
0.0
 10
180.0524
 20
43.8002
 30
0.0
 10
180.0524
 20
43.8002
 30
0.0
 10
179.7604
 20
41.6897
 30
0.0
 10
178.5976
 20
40.0176
 30
0.0
 10
177.0875
 20
39.5363
 30
0.0
 10
177.0875
 20
39.5363
 30
0.0
 10
175.3005
 20
38.6869
 30
0.0
 10
173.4411
 20
38.1643
 30
0.0
 10
171.556
 20
37.9814
 30
0.0
 10
171.556
 20
37.9814
 30
0.0
 10
173.3648
 20
36.7566
 30
0.0
 10
175.4299
 20
36.4721
 30
0.0
 10
177.3774
 20
37.179
 30
0.0
 10
177.3774
 20
37.179
 30
0.0
 10
177.5675
 20
35.7335
 30
0.0
 10
177.2999
 20
34.2435
 30
0.0
 10
176.6421
 20
33.0905
 30
0.0
 10
176.6421
 20
33.0905
 30
0.0
 10
175.9844
 20
31.9378
 30
0.0
 10
175.0008
 20
31.2341
 30
0.0
 10
173.9419
 20
31.1598
 30
0.0
 10
173.9419
 20
31.1598
 30
0.0
 10
170.8896
 20
31.2075
 30
0.0
 10
167.8436
 20
31.5762
 30
0.0
 10
164.8316
 20
32.2632
 30
0.0
 10
164.8316
 20
32.2632
 30
0.0
 10
165.9725
 20
30.8709
 30
0.0
 10
166.832
 20
29.0906
 30
0.0
 10
167.3258
 20
27.0972
 30
0.0
 10
167.3258
 20
27.0972
 30
0.0
 10
167.681
 20
25.9033
 30
0.0
 10
167.5719
 20
24.541
 30
0.0
 10
167.0368
 20
23.4855
 30
0.0
 10
167.0368
 20
23.4855
 30
0.0
 10
165.0065
 20
25.3208
 30
0.0
 10
162.7704
 20
26.6767
 30
0.0
 10
160.4207
 20
27.4985
 30
0.0
 10
160.4207
 20
27.4985
 30
0.0
 10
157.924
 20
28.2064
 30
0.0
 10
155.6489
 20
29.9771
 30
0.0
 10
153.9125
 20
32.5641
 30
0.0
 10
153.9125
 20
32.5641
 30
0.0
 10
153.1055
 20
35.888
 30
0.0
 10
153.0425
 20
39.4732
 30
0.0
 10
153.7317
 20
42.8472
 30
0.0
 10
153.7317
 20
42.8472
 30
0.0
 10
154.3107
 20
46.1274
 30
0.0
 10
156.1223
 20
48.7176
 30
0.0
 10
158.4679
 20
49.6187
 30
0.0
 10
158.4679
 20
49.6187
 30
0.0
 10
161.9931
 20
50.7708
 30
0.0
 10
165.6554
 20
50.8565
 30
0.0
 10
169.2057
 20
49.8696
 30
0.0
 10
169.2057
 20
49.8696
 30
0.0
 10
166.169
 20
50.1906
 30
0.0
 10
163.1144
 20
49.9205
 30
0.0
 10
160.1309
 20
49.067
 30
0.0
 10
160.1309
 20
49.067
 30
0.0
 10
158.416
 20
48.5921
 30
0.0
 10
156.8207
 20
47.5025
 30
0.0
 10
155.5036
 20
45.9065
 30
0.0
 10
155.5036
 20
45.9065
 30
0.0
 10
154.3755
 20
43.7346
 30
0.0
 10
153.9434
 20
41.0116
 30
0.0
 10
154.3102
 20
38.3826
 30
0.0
 10
154.3102
 20
38.3826
 30
0.0
 10
154.7801
 20
35.9348
 30
0.0
 10
156.2616
 20
34.1164
 30
0.0
 10
158.0702
 20
33.7686
 30
0.0
 10
158.0702
 20
33.7686
 30
0.0
 10
161.7821
 20
32.8787
 30
0.0
 10
165.5488
 20
34.8582
 30
0.0
 10
167.9043
 20
38.9343
 30
0.0
 10
167.9043
 20
38.9343
 30
0.0
 10
168.1124
 20
39.55
 30
0.0
 10
168.0962
 20
40.2659
 30
0.0
 10
167.86
 20
40.8612
 30
0.0
 10
167.86
 20
40.8612
 30
0.0
 10
167.6238
 20
41.4558
 30
0.0
 10
167.1971
 20
41.8586
 30
0.0
 10
166.7113
 20
41.9444
 30
0.0
  0
SPLINE
  5
62
330
1F
100
AcDbEntity
  8
layer 1
 62
     7
370
     9
100
AcDbSpline
210
0.0
220
0.0
230
1.0
 70
    11
 71
     3
 72
    48
 73
    44
 74
     0
 42
0.0000000001
 43
0.0000000001
 12
1.0
 22
0.0
 32
0.0
 13
1.0
 23
0.0
 33
0.0
 40
0.0
 40
0.0
 40
0.0
 40
0.0
 40
0.0833333333333333
 40
0.0833333333333333
 40
0.0833333333333333
 40
0.0833333333333333
 40
0.1666666666666667
 40
0.1666666666666667
 40
0.1666666666666667
 40
0.1666666666666667
 40
0.25
 40
0.25
 40
0.25
 40
0.25
 40
0.3333333333333333
 40
0.3333333333333333
 40
0.3333333333333333
 40
0.3333333333333333
 40
0.4166666666666667
 40
0.4166666666666667
 40
0.4166666666666667
 40
0.4166666666666667
 40
0.5
 40
0.5
 40
0.5
 40
0.5
 40
0.5833333333333334
 40
0.5833333333333334
 40
0.5833333333333334
 40
0.5833333333333334
 40
0.6666666666666666
 40
0.6666666666666666
 40
0.6666666666666666
 40
0.6666666666666666
 40
0.75
 40
0.75
 40
0.75
 40
0.75
 40
0.8333333333333334
 40
0.8333333333333334
 40
0.8333333333333334
 40
0.8333333333333334
 40
1.0
 40
1.0
 40
1.0
 40
1.0
 10
179.9078
 20
79.8655
 30
0.0
 10
176.8404
 20
83.0989
 30
0.0
 10
173.234
 20
85.2037
 30
0.0
 10
169.4232
 20
85.9851
 30
0.0
 10
169.4232
 20
85.9851
 30
0.0
 10
165.8553
 20
86.7932
 30
0.0
 10
162.1954
 20
86.0028
 30
0.0
 10
158.974
 20
83.7274
 30
0.0
 10
158.974
 20
83.7274
 30
0.0
 10
156.0932
 20
81.2739
 30
0.0
 10
154.5323
 20
76.6864
 30
0.0
 10
154.9976
 20
72.0407
 30
0.0
 10
154.9976
 20
72.0407
 30
0.0
 10
155.362
 20
68.2338
 30
0.0
 10
155.5071
 20
64.3923
 30
0.0
 10
155.4308
 20
60.554
 30
0.0
 10
155.4308
 20
60.554
 30
0.0
 10
156.1829
 20
62.2809
 30
0.0
 10
157.1363
 20
63.8236
 30
0.0
 10
158.2511
 20
65.1187
 30
0.0
 10
158.2511
 20
65.1187
 30
0.0
 10
161.3489
 20
67.42
 30
0.0
 10
164.7896
 20
68.6917
 30
0.0
 10
168.302
 20
68.83
 30
0.0
 10
168.302
 20
68.83
 30
0.0
 10
169.7835
 20
68.9983
 30
0.0
 10
171.1829
 20
69.8454
 30
0.0
 10
172.279
 20
71.2382
 30
0.0
 10
172.279
 20
71.2382
 30
0.0
 10
170.7892
 20
72.7275
 30
0.0
 10
169.1591
 20
73.9256
 30
0.0
 10
167.4344
 20
74.7992
 30
0.0
 10
167.4344
 20
74.7992
 30
0.0
 10
165.7563
 20
75.7181
 30
0.0
 10
163.8963
 20
75.7715
 30
0.0
 10
162.192
 20
74.9497
 30
0.0
 10
162.192
 20
74.9497
 30
0.0
 10
163.0952
 20
76.6217
 30
0.0
 10
164.2561
 20
77.9928
 30
0.0
 10
165.5907
 20
78.9627
 30
0.0
 10
165.5907
 20
78.9627
 30
0.0
 10
170.2995
 20
80.2991
 30
0.0
 10
175.1308
 20
80.6041
 30
0.0
 10
179.9078
 20
79.8655
 30
0.0
  0
SPLINE
  5
63
330
1F
100
AcDbEntity
  8
layer 1
 62
     7
370
     9
100
AcDbSpline
210
0.0
220
0.0
230
1.0
 70
    11
 71
     3
 72
    40
 73
    36
 74
     0
 42
0.0000000001
 43
0.0000000001
 12
1.0
 22
0.0
 32
0.0
 13
1.0
 23
0.0
 33
0.0
 40
0.0
 40
0.0
 40
0.0
 40
0.0
 40
0.1
 40
0.1
 40
0.1
 40
0.1
 40
0.2
 40
0.2
 40
0.2
 40
0.2
 40
0.3
 40
0.3
 40
0.3
 40
0.3
 40
0.4
 40
0.4
 40
0.4
 40
0.4
 40
0.5
 40
0.5
 40
0.5
 40
0.5
 40
0.6
 40
0.6
 40
0.6
 40
0.6
 40
0.7
 40
0.7
 40
0.7
 40
0.7
 40
0.8
 40
0.8
 40
0.8
 40
0.8
 40
1.0
 40
1.0
 40
1.0
 40
1.0
 10
183.9573
 20
75.8524
 30
0.0
 10
188.1034
 20
73.3537
 30
0.0
 10
190.5843
 20
67.387
 30
0.0
 10
190.0671
 20
61.1557
 30
0.0
 10
190.0671
 20
61.1557
 30
0.0
 10
189.6602
 20
59.0161
 30
0.0
 10
188.8199
 20
57.0844
 30
0.0
 10
187.6451
 20
55.588
 30
0.0
 10
187.6451
 20
55.588
 30
0.0
 10
185.2453
 20
53.0487
 30
0.0
 10
182.2698
 20
51.7859
 30
0.0
 10
179.2571
 20
52.0262
 30
0.0
 10
179.2571
 20
52.0262
 30
0.0
 10
174.0912
 20
51.7357
 30
0.0
 10
168.9165
 20
52.0214
 30
0.0
 10
163.7826
 20
52.8797
 30
0.0
 10
163.7826
 20
52.8797
 30
0.0
 10
167.9055
 20
54.1284
 30
0.0
 10
171.1257
 20
58.5962
 30
0.0
 10
172.026
 20
64.3162
 30
0.0
 10
172.026
 20
64.3162
 30
0.0
 10
172.3291
 20
66.3976
 30
0.0
 10
173.4229
 20
68.0875
 30
0.0
 10
174.8823
 20
68.7298
 30
0.0
 10
174.8823
 20
68.7298
 30
0.0
 10
176.308
 20
67.5576
 30
0.0
 10
177.4812
 20
65.8775
 30
0.0
 10
178.2811
 20
63.864
 30
0.0
 10
178.2811
 20
63.864
 30
0.0
 10
179.0123
 20
62.3423
 30
0.0
 10
179.2116
 20
60.4455
 30
0.0
 10
178.8234
 20
58.6982
 30
0.0
 10
178.8234
 20
58.6982
 30
0.0
 10
183.1101
 20
62.1759
 30
0.0
 10
185.2079
 20
69.1843
 30
0.0
 10
183.9573
 20
75.8524
 30
0.0
  0
SPLINE
  5
64
330
1F
100
AcDbEntity
  8
layer 1
 62
     7
370
     9
100
AcDbSpline
210
0.0
220
0.0
230
1.0
 70
    11
 71
     3
 72
    16
 73
    12
 74
     0
 42
0.0000000001
 43
0.0000000001
 12
1.0
 22
0.0
 32
0.0
 13
1.0
 23
0.0
 33
0.0
 40
0.0
 40
0.0
 40
0.0
 40
0.0
 40
0.25
 40
0.25
 40
0.25
 40
0.25
 40
0.5
 40
0.5
 40
0.5
 40
0.5
 40
1.0
 40
1.0
 40
1.0
 40
1.0
 10
98.9213
 20
-62.3887
 30
0.0
 10
100.2345
 20
-59.1009
 30
0.0
 10
101.0116
 20
-55.4541
 30
0.0
 10
101.1994
 20
-51.7045
 30
0.0
 10
101.1994
 20
-51.7045
 30
0.0
 10
102.6325
 20
-53.1941
 30
0.0
 10
103.2465
 20
-55.7634
 30
0.0
 10
102.7386
 20
-58.1456
 30
0.0
 10
102.7386
 20
-58.1456
 30
0.0
 10
102.2302
 20
-60.5279
 30
0.0
 10
100.7078
 20
-62.2204
 30
0.0
 10
98.9213
 20
-62.3887
 30
0.0
  0
SPLINE
  5
65
330
1F
100
AcDbEntity
  8
layer 1
 62
     7
370
     9
100
AcDbSpline
210
0.0
220
0.0
230
1.0
 70
    11
 71
     3
 72
    44
 73
    40
 74
     0
 42
0.0000000001
 43
0.0000000001
 12
1.0
 22
0.0
 32
0.0
 13
1.0
 23
0.0
 33
0.0
 40
0.0
 40
0.0
 40
0.0
 40
0.0
 40
0.0909090909090909
 40
0.0909090909090909
 40
0.0909090909090909
 40
0.0909090909090909
 40
0.1818181818181818
 40
0.1818181818181818
 40
0.1818181818181818
 40
0.1818181818181818
 40
0.2727272727272727
 40
0.2727272727272727
 40
0.2727272727272727
 40
0.2727272727272727
 40
0.3636363636363636
 40
0.3636363636363636
 40
0.3636363636363636
 40
0.3636363636363636
 40
0.4545454545454545
 40
0.4545454545454545
 40
0.4545454545454545
 40
0.4545454545454545
 40
0.5454545454545454
 40
0.5454545454545454
 40
0.5454545454545454
 40
0.5454545454545454
 40
0.6363636363636364
 40
0.6363636363636364
 40
0.6363636363636364
 40
0.6363636363636364
 40
0.7272727272727273
 40
0.7272727272727273
 40
0.7272727272727273
 40
0.7272727272727273
 40
0.8181818181818182
 40
0.8181818181818182
 40
0.8181818181818182
 40
0.8181818181818182
 40
1.0
 40
1.0
 40
1.0
 40
1.0
 10
94.4382
 20
-49.1966
 30
0.0
 10
95.2236
 20
-50.8052
 30
0.0
 10
95.8895
 20
-52.5192
 30
0.0
 10
96.4269
 20
-54.3131
 30
0.0
 10
96.4269
 20
-54.3131
 30
0.0
 10
96.7291
 20
-55.4321
 30
0.0
 10
96.6631
 20
-56.6781
 30
0.0
 10
96.2463
 20
-57.7237
 30
0.0
 10
96.2463
 20
-57.7237
 30
0.0
 10
95.4439
 20
-58.8425
 30
0.0
 10
94.2656
 20
-59.2653
 30
0.0
 10
93.1729
 20
-58.8274
 30
0.0
 10
93.1729
 20
-58.8274
 30
0.0
 10
93.7542
 20
-58.1337
 30
0.0
 10
94.0137
 20
-57.0526
 30
0.0
 10
93.847
 20
-56.014
 30
0.0
 10
93.847
 20
-56.014
 30
0.0
 10
93.6807
 20
-54.9753
 30
0.0
 10
93.1158
 20
-54.1482
 30
0.0
 10
92.3776
 20
-53.8616
 30
0.0
 10
92.3776
 20
-53.8616
 30
0.0
 10
91.1409
 20
-53.1652
 30
0.0
 10
89.7294
 20
-53.4529
 30
0.0
 10
88.6898
 20
-54.6139
 30
0.0
 10
88.6898
 20
-54.6139
 30
0.0
 10
87.9037
 20
-56.9012
 30
0.0
 10
88.5784
 20
-59.6409
 30
0.0
 10
90.208
 20
-60.7836
 30
0.0
 10
90.208
 20
-60.7836
 30
0.0
 10
92.2872
 20
-62.263
 30
0.0
 10
94.7244
 20
-62.4277
 30
0.0
 10
96.897
 20
-61.2351
 30
0.0
 10
96.897
 20
-61.2351
 30
0.0
 10
98.3885
 20
-60.4066
 30
0.0
 10
99.2187
 20
-58.1881
 30
0.0
 10
98.8491
 20
-56.0184
 30
0.0
 10
98.8491
 20
-56.0184
 30
0.0
 10
98.1511
 20
-52.9726
 30
0.0
 10
96.5453
 20
-50.489
 30
0.0
 10
94.4382
 20
-49.1966
 30
0.0
  0
SPLINE
  5
66
330
1F
100
AcDbEntity
  8
layer 1
 62
     7
370
     9
100
AcDbSpline
210
0.0
220
0.0
230
1.0
 70
    11
 71
     3
 72
    20
 73
    16
 74
     0
 42
0.0000000001
 43
0.0000000001
 12
1.0
 22
0.0
 32
0.0
 13
1.0
 23
0.0
 33
0.0
 40
0.0
 40
0.0
 40
0.0
 40
0.0
 40
0.2
 40
0.2
 40
0.2
 40
0.2
 40
0.4
 40
0.4
 40
0.4
 40
0.4
 40
0.6
 40
0.6
 40
0.6
 40
0.6
 40
1.0
 40
1.0
 40
1.0
 40
1.0
 10
104.272
 20
-49.7976
 30
0.0
 10
110.263
 20
-46.3604
 30
0.0
 10
116.6342
 20
-44.3755
 30
0.0
 10
123.1091
 20
-43.9297
 30
0.0
 10
123.1091
 20
-43.9297
 30
0.0
 10
117.1684
 20
-38.4932
 30
0.0
 10
109.2894
 20
-39.6186
 30
0.0
 10
104.272
 20
-46.6213
 30
0.0
 10
104.272
 20
-46.6213
 30
0.0
 10
99.2553
 20
-39.6186
 30
0.0
 10
91.3759
 20
-38.4932
 30
0.0
 10
85.4356
 20
-43.9297
 30
0.0
 10
85.4356
 20
-43.9297
 30
0.0
 10
91.9106
 20
-44.3755
 30
0.0
 10
98.2817
 20
-46.3604
 30
0.0
 10
104.272
 20
-49.7976
 30
0.0
  0
SPLINE
  5
67
330
1F
100
AcDbEntity
  8
layer 1
 62
     7
370
     9
100
AcDbSpline
210
0.0
220
0.0
230
1.0
 70
    11
 71
     3
 72
    44
 73
    40
 74
     0
 42
0.0000000001
 43
0.0000000001
 12
1.0
 22
0.0
 32
0.0
 13
1.0
 23
0.0
 33
0.0
 40
0.0
 40
0.0
 40
0.0
 40
0.0
 40
0.0909090909090909
 40
0.0909090909090909
 40
0.0909090909090909
 40
0.0909090909090909
 40
0.1818181818181818
 40
0.1818181818181818
 40
0.1818181818181818
 40
0.1818181818181818
 40
0.2727272727272727
 40
0.2727272727272727
 40
0.2727272727272727
 40
0.2727272727272727
 40
0.3636363636363636
 40
0.3636363636363636
 40
0.3636363636363636
 40
0.3636363636363636
 40
0.4545454545454545
 40
0.4545454545454545
 40
0.4545454545454545
 40
0.4545454545454545
 40
0.5454545454545454
 40
0.5454545454545454
 40
0.5454545454545454
 40
0.5454545454545454
 40
0.6363636363636364
 40
0.6363636363636364
 40
0.6363636363636364
 40
0.6363636363636364
 40
0.7272727272727273
 40
0.7272727272727273
 40
0.7272727272727273
 40
0.7272727272727273
 40
0.8181818181818182
 40
0.8181818181818182
 40
0.8181818181818182
 40
0.8181818181818182
 40
1.0
 40
1.0
 40
1.0
 40
1.0
 10
84.8933
 20
-38.8135
 30
0.0
 10
87.1072
 20
-36.8053
 30
0.0
 10
88.2227
 20
-33.1351
 30
0.0
 10
87.7136
 20
-29.5338
 30
0.0
 10
87.7136
 20
-29.5338
 30
0.0
 10
87.2809
 20
-26.7306
 30
0.0
 10
86.7259
 20
-23.9668
 30
0.0
 10
86.0501
 20
-21.2574
 30
0.0
 10
86.0501
 20
-21.2574
 30
0.0
 10
85.2414
 20
-18.6117
 30
0.0
 10
86.1318
 20
-15.5576
 30
0.0
 10
88.0391
 20
-14.4356
 30
0.0
 10
88.0391
 20
-14.4356
 30
0.0
 10
90.5275
 20
-12.7374
 30
0.0
 10
93.4749
 20
-12.9655
 30
0.0
 10
95.8124
 20
-15.0375
 30
0.0
 10
95.8124
 20
-15.0375
 30
0.0
 10
97.7383
 20
-17.6279
 30
0.0
 10
98.7546
 20
-21.2544
 30
0.0
 10
98.5961
 20
-24.9693
 30
0.0
 10
98.5961
 20
-24.9693
 30
0.0
 10
97.8264
 20
-22.0838
 30
0.0
 10
96.0585
 20
-19.9329
 30
0.0
 10
93.8959
 20
-19.251
 30
0.0
 10
93.8959
 20
-19.251
 30
0.0
 10
92.4692
 20
-18.9691
 30
0.0
 10
91.0278
 20
-19.6172
 30
0.0
 10
89.9912
 20
-21.0065
 30
0.0
 10
89.9912
 20
-21.0065
 30
0.0
 10
89.5824
 20
-21.9191
 30
0.0
 10
89.4284
 20
-23.0072
 30
0.0
 10
89.5573
 20
-24.0663
 30
0.0
 10
89.5573
 20
-24.0663
 30
0.0
 10
89.7638
 20
-26.5467
 30
0.0
 10
89.8482
 20
-29.0441
 30
0.0
 10
89.8104
 20
-31.5402
 30
0.0
 10
89.8104
 20
-31.5402
 30
0.0
 10
89.8348
 20
-35.3976
 30
0.0
 10
87.6698
 20
-38.6005
 30
0.0
 10
84.8933
 20
-38.8135
 30
0.0
  0
SPLINE
  5
68
330
1F
100
AcDbEntity
  8
layer 1
 62
     7
370
     9
100
AcDbSpline
210
0.0
220
0.0
230
1.0
 70
    11
 71
     3
 72
    44
 73
    40
 74
     0
 42
0.0000000001
 43
0.0000000001
 12
1.0
 22
0.0
 32
0.0
 13
1.0
 23
0.0
 33
0.0
 40
0.0
 40
0.0
 40
0.0
 40
0.0
 40
0.0909090909090909
 40
0.0909090909090909
 40
0.0909090909090909
 40
0.0909090909090909
 40
0.1818181818181818
 40
0.1818181818181818
 40
0.1818181818181818
 40
0.1818181818181818
 40
0.2727272727272727
 40
0.2727272727272727
 40
0.2727272727272727
 40
0.2727272727272727
 40
0.3636363636363636
 40
0.3636363636363636
 40
0.3636363636363636
 40
0.3636363636363636
 40
0.4545454545454545
 40
0.4545454545454545
 40
0.4545454545454545
 40
0.4545454545454545
 40
0.5454545454545454
 40
0.5454545454545454
 40
0.5454545454545454
 40
0.5454545454545454
 40
0.6363636363636364
 40
0.6363636363636364
 40
0.6363636363636364
 40
0.6363636363636364
 40
0.7272727272727273
 40
0.7272727272727273
 40
0.7272727272727273
 40
0.7272727272727273
 40
0.8181818181818182
 40
0.8181818181818182
 40
0.8181818181818182
 40
0.8181818181818182
 40
1.0
 40
1.0
 40
1.0
 40
1.0
 10
60.706
 20
-15.1379
 30
0.0
 10
63.5784
 20
-12.9687
 30
0.0
 10
66.8489
 20
-12.0261
 30
0.0
 10
70.1062
 20
-12.4294
 30
0.0
 10
70.1062
 20
-12.4294
 30
0.0
 10
73.3463
 20
-12.7321
 30
0.0
 10
76.5567
 20
-13.4881
 30
0.0
 10
79.6872
 20
-14.6864
 30
0.0
 10
79.6872
 20
-14.6864
 30
0.0
 10
81.9349
 20
-15.4844
 30
0.0
 10
84.3213
 20
-14.6754
 30
0.0
 10
86.0501
 20
-12.5296
 30
0.0
 10
86.0501
 20
-12.5296
 30
0.0
 10
87.2193
 20
-10.7972
 30
0.0
 10
87.4256
 20
-8.2038
 30
0.0
 10
86.5562
 20
-6.1596
 30
0.0
 10
86.5562
 20
-6.1596
 30
0.0
 10
83.4357
 20
-2.6973
 30
0.0
 10
79.3904
 20
-1.271
 30
0.0
 10
75.4571
 20
-2.2467
 30
0.0
 10
75.4571
 20
-2.2467
 30
0.0
 10
77.18
 20
-2.8996
 30
0.0
 10
78.8156
 20
-3.9326
 30
0.0
 10
80.3017
 20
-5.307
 30
0.0
 10
80.3017
 20
-5.307
 30
0.0
 10
81.0987
 20
-6.1547
 30
0.0
 10
81.3559
 20
-7.6649
 30
0.0
 10
80.9162
 20
-8.9181
 30
0.0
 10
80.9162
 20
-8.9181
 30
0.0
 10
79.977
 20
-10.3957
 30
0.0
 10
78.5614
 20
-11.1132
 30
0.0
 10
77.1567
 20
-10.8241
 30
0.0
 10
77.1567
 20
-10.8241
 30
0.0
 10
73.5359
 20
-10.4283
 30
0.0
 10
69.8993
 20
-10.3778
 30
0.0
 10
66.2738
 20
-10.6736
 30
0.0
 10
66.2738
 20
-10.6736
 30
0.0
 10
63.9587
 20
-10.5805
 30
0.0
 10
61.8038
 20
-12.3083
 30
0.0
 10
60.706
 20
-15.1379
 30
0.0
  0
SPLINE
  5
69
330
1F
100
AcDbEntity
  8
layer 1
 62
     7
370
     9
100
AcDbSpline
210
0.0
220
0.0
230
1.0
 70
    11
 71
     3
 72
    16
 73
    12
 74
     0
 42
0.0000000001
 43
0.0000000001
 12
1.0
 22
0.0
 32
0.0
 13
1.0
 23
0.0
 33
0.0
 40
0.0
 40
0.0
 40
0.0
 40
0.0
 40
0.25
 40
0.25
 40
0.25
 40
0.25
 40
0.5
 40
0.5
 40
0.5
 40
0.5
 40
1.0
 40
1.0
 40
1.0
 40
1.0
 10
54.2704
 20
-22.2106
 30
0.0
 10
52.3636
 20
-18.8263
 30
0.0
 10
49.4488
 20
-16.8316
 30
0.0
 10
46.3526
 20
-16.7933
 30
0.0
 10
46.3526
 20
-16.7933
 30
0.0
 10
47.7895
 20
-14.9474
 30
0.0
 10
49.8982
 20
-14.5223
 30
0.0
 10
51.6544
 20
-15.7238
 30
0.0
 10
51.6544
 20
-15.7238
 30
0.0
 10
53.411
 20
-16.9256
 30
0.0
 10
54.4512
 20
-19.5053
 30
0.0
 10
54.2704
 20
-22.2106
 30
0.0
  0
SPLINE
  5
6A
330
1F
100
AcDbEntity
  8
layer 1
 62
     7
370
     9
100
AcDbSpline
210
0.0
220
0.0
230
1.0
 70
    11
 71
     3
 72
    16
 73
    12
 74
     0
 42
0.0000000001
 43
0.0000000001
 12
1.0
 22
0.0
 32
0.0
 13
1.0
 23
0.0
 33
0.0
 40
0.0
 40
0.0
 40
0.0
 40
0.0
 40
0.25
 40
0.25
 40
0.25
 40
0.25
 40
0.5
 40
0.5
 40
0.5
 40
0.5
 40
1.0
 40
1.0
 40
1.0
 40
1.0
 10
38.7964
 20
-19.8529
 30
0.0
 10
34.9899
 20
-17.794
 30
0.0
 10
30.7494
 20
-17.9203
 30
0.0
 10
27.0099
 20
-20.2039
 30
0.0
 10
27.0099
 20
-20.2039
 30
0.0
 10
28.2441
 20
-17.3613
 30
0.0
 10
30.4423
 20
-15.5949
 30
0.0
 10
32.8335
 20
-15.5234
 30
0.0
 10
32.8335
 20
-15.5234
 30
0.0
 10
35.2248
 20
-15.4525
 30
0.0
 10
37.4755
 20
-17.0863
 30
0.0
 10
38.7964
 20
-19.8529
 30
0.0
  0
SPLINE
  5
6B
330
1F
100
AcDbEntity
  8
layer 1
 62
     7
370
     9
100
AcDbSpline
210
0.0
220
0.0
230
1.0
 70
    11
 71
     3
 72
    12
 73
     8
 74
     0
 42
0.0000000001
 43
0.0000000001
 12
1.0
 22
0.0
 32
0.0
 13
1.0
 23
0.0
 33
0.0
 40
0.0
 40
0.0
 40
0.0
 40
0.0
 40
0.3333333333333333
 40
0.3333333333333333
 40
0.3333333333333333
 40
0.3333333333333333
 40
1.0
 40
1.0
 40
1.0
 40
1.0
 10
36.9162
 20
-1.3942
 30
0.0
 10
40.3626
 20
0.4162
 30
0.0
 10
44.0506
 20
1.1694
 30
0.0
 10
47.7266
 20
0.8136
 30
0.0
 10
47.7266
 20
0.8136
 30
0.0
 10
44.2499
 20
4.0419
 30
0.0
 10
39.5752
 20
3.0873
 30
0.0
 10
36.9162
 20
-1.3942
 30
0.0
  0
SPLINE
  5
6C
330
1F
100
AcDbEntity
  8
layer 1
 62
     7
370
     9
100
AcDbSpline
210
0.0
220
0.0
230
1.0
 70
    11
 71
     3
 72
    44
 73
    40
 74
     0
 42
0.0000000001
 43
0.0000000001
 12
1.0
 22
0.0
 32
0.0
 13
1.0
 23
0.0
 33
0.0
 40
0.0
 40
0.0
 40
0.0
 40
0.0
 40
0.0909090909090909
 40
0.0909090909090909
 40
0.0909090909090909
 40
0.0909090909090909
 40
0.1818181818181818
 40
0.1818181818181818
 40
0.1818181818181818
 40
0.1818181818181818
 40
0.2727272727272727
 40
0.2727272727272727
 40
0.2727272727272727
 40
0.2727272727272727
 40
0.3636363636363636
 40
0.3636363636363636
 40
0.3636363636363636
 40
0.3636363636363636
 40
0.4545454545454545
 40
0.4545454545454545
 40
0.4545454545454545
 40
0.4545454545454545
 40
0.5454545454545454
 40
0.5454545454545454
 40
0.5454545454545454
 40
0.5454545454545454
 40
0.6363636363636364
 40
0.6363636363636364
 40
0.6363636363636364
 40
0.6363636363636364
 40
0.7272727272727273
 40
0.7272727272727273
 40
0.7272727272727273
 40
0.7272727272727273
 40
0.8181818181818182
 40
0.8181818181818182
 40
0.8181818181818182
 40
0.8181818181818182
 40
1.0
 40
1.0
 40
1.0
 40
1.0
 10
40.2786
 20
-6.7113
 30
0.0
 10
41.7718
 20
-5.1832
 30
0.0
 10
43.8452
 20
-5.396
 30
0.0
 10
45.1596
 20
-7.2128
 30
0.0
 10
45.1596
 20
-7.2128
 30
0.0
 10
45.5228
 20
-8.0532
 30
0.0
 10
45.5409
 20
-9.096
 30
0.0
 10
45.2074
 20
-9.9598
 30
0.0
 10
45.2074
 20
-9.9598
 30
0.0
 10
44.874
 20
-10.8231
 30
0.0
 10
44.2379
 20
-11.3799
 30
0.0
 10
43.5325
 20
-11.426
 30
0.0
 10
43.5325
 20
-11.426
 30
0.0
 10
41.3721
 20
-12.021
 30
0.0
 10
39.1505
 20
-10.9231
 30
0.0
 10
37.7479
 20
-8.5668
 30
0.0
 10
37.7479
 20
-8.5668
 30
0.0
 10
36.7794
 20
-6.9247
 30
0.0
 10
36.8414
 20
-4.54
 30
0.0
 10
37.8925
 20
-2.9991
 30
0.0
 10
37.8925
 20
-2.9991
 30
0.0
 10
39.2782
 20
-1.6327
 30
0.0
 10
40.9733
 20
-1.0099
 30
0.0
 10
42.6649
 20
-1.2438
 30
0.0
 10
42.6649
 20
-1.2438
 30
0.0
 10
45.3762
 20
-1.3293
 30
0.0
 10
47.9568
 20
-2.8769
 30
0.0
 10
49.8597
 20
-5.557
 30
0.0
 10
49.8597
 20
-5.557
 30
0.0
 10
47.8849
 20
-4.5457
 30
0.0
 10
45.8358
 20
-3.8395
 30
0.0
 10
43.7496
 20
-3.4503
 30
0.0
 10
43.7496
 20
-3.4503
 30
0.0
 10
42.9707
 20
-3.1041
 30
0.0
 10
42.1198
 20
-3.2733
 30
0.0
 10
41.4424
 20
-3.9092
 30
0.0
 10
41.4424
 20
-3.9092
 30
0.0
 10
40.7651
 20
-4.5457
 30
0.0
 10
40.336
 20
-5.5787
 30
0.0
 10
40.2786
 20
-6.7113
 30
0.0
  0
SPLINE
  5
6D
330
1F
100
AcDbEntity
  8
layer 1
 62
     7
370
     9
100
AcDbSpline
210
0.0
220
0.0
230
1.0
 70
    11
 71
     3
 72
    92
 73
    88
 74
     0
 42
0.0000000001
 43
0.0000000001
 12
1.0
 22
0.0
 32
0.0
 13
1.0
 23
0.0
 33
0.0
 40
0.0
 40
0.0
 40
0.0
 40
0.0
 40
0.0434782608695652
 40
0.0434782608695652
 40
0.0434782608695652
 40
0.0434782608695652
 40
0.0869565217391304
 40
0.0869565217391304
 40
0.0869565217391304
 40
0.0869565217391304
 40
0.1304347826086956
 40
0.1304347826086956
 40
0.1304347826086956
 40
0.1304347826086956
 40
0.1739130434782609
 40
0.1739130434782609
 40
0.1739130434782609
 40
0.1739130434782609
 40
0.2173913043478261
 40
0.2173913043478261
 40
0.2173913043478261
 40
0.2173913043478261
 40
0.2608695652173913
 40
0.2608695652173913
 40
0.2608695652173913
 40
0.2608695652173913
 40
0.3043478260869565
 40
0.3043478260869565
 40
0.3043478260869565
 40
0.3043478260869565
 40
0.3478260869565217
 40
0.3478260869565217
 40
0.3478260869565217
 40
0.3478260869565217
 40
0.391304347826087
 40
0.391304347826087
 40
0.391304347826087
 40
0.391304347826087
 40
0.4347826086956522
 40
0.4347826086956522
 40
0.4347826086956522
 40
0.4347826086956522
 40
0.4782608695652174
 40
0.4782608695652174
 40
0.4782608695652174
 40
0.4782608695652174
 40
0.5217391304347826
 40
0.5217391304347826
 40
0.5217391304347826
 40
0.5217391304347826
 40
0.5652173913043478
 40
0.5652173913043478
 40
0.5652173913043478
 40
0.5652173913043478
 40
0.6086956521739131
 40
0.6086956521739131
 40
0.6086956521739131
 40
0.6086956521739131
 40
0.6521739130434783
 40
0.6521739130434783
 40
0.6521739130434783
 40
0.6521739130434783
 40
0.6956521739130435
 40
0.6956521739130435
 40
0.6956521739130435
 40
0.6956521739130435
 40
0.7391304347826086
 40
0.7391304347826086
 40
0.7391304347826086
 40
0.7391304347826086
 40
0.782608695652174
 40
0.782608695652174
 40
0.782608695652174
 40
0.782608695652174
 40
0.8260869565217391
 40
0.8260869565217391
 40
0.8260869565217391
 40
0.8260869565217391
 40
0.8695652173913043
 40
0.8695652173913043
 40
0.8695652173913043
 40
0.8695652173913043
 40
0.9130434782608695
 40
0.9130434782608695
 40
0.9130434782608695
 40
0.9130434782608695
 40
1.0
 40
1.0
 40
1.0
 40
1.0
 10
79.8319
 20
-20.0535
 30
0.0
 10
79.7572
 20
-25.1044
 30
0.0
 10
77.0972
 20
-29.3632
 30
0.0
 10
73.505
 20
-30.186
 30
0.0
 10
73.505
 20
-30.186
 30
0.0
 10
71.6048
 20
-30.6891
 30
0.0
 10
69.7418
 20
-31.4279
 30
0.0
 10
67.937
 20
-32.393
 30
0.0
 10
67.937
 20
-32.393
 30
0.0
 10
67.1469
 20
-32.7347
 30
0.0
 10
66.597
 20
-33.7285
 30
0.0
 10
66.5632
 20
-34.8759
 30
0.0
 10
66.5632
 20
-34.8759
 30
0.0
 10
66.7752
 20
-35.504
 30
0.0
 10
67.0987
 20
-36.0479
 30
0.0
 10
67.5031
 20
-36.4558
 30
0.0
 10
67.5031
 20
-36.4558
 30
0.0
 10
68.6275
 20
-37.3359
 30
0.0
 10
69.8998
 20
-37.786
 30
0.0
 10
71.1908
 20
-37.7603
 30
0.0
 10
71.1908
 20
-37.7603
 30
0.0
 10
73.5761
 20
-37.8539
 30
0.0
 10
75.9083
 20
-36.7693
 30
0.0
 10
77.7707
 20
-34.7003
 30
0.0
 10
77.7707
 20
-34.7003
 30
0.0
 10
80.0727
 20
-32.2781
 30
0.0
 10
82.0433
 20
-29.3057
 30
0.0
 10
83.5919
 20
-25.9223
 30
0.0
 10
83.5919
 20
-25.9223
 30
0.0
 10
83.6928
 20
-28.5618
 30
0.0
 10
83.7045
 20
-31.2064
 30
0.0
 10
83.6281
 20
-33.8477
 30
0.0
 10
83.6281
 20
-33.8477
 30
0.0
 10
83.6037
 20
-37.097
 30
0.0
 10
82.241
 20
-40.0405
 30
0.0
 10
80.1209
 20
-41.4216
 30
0.0
 10
80.1209
 20
-41.4216
 30
0.0
 10
76.8902
 20
-43.1478
 30
0.0
 10
73.3311
 20
-43.2895
 30
0.0
 10
70.034
 20
-41.8234
 30
0.0
 10
70.034
 20
-41.8234
 30
0.0
 10
67.3391
 20
-41.0435
 30
0.0
 10
65.3986
 20
-37.767
 30
0.0
 10
65.37
 20
-33.9479
 30
0.0
 10
65.37
 20
-33.9479
 30
0.0
 10
63.648
 20
-34.1529
 30
0.0
 10
61.917
 20
-33.7384
 30
0.0
 10
60.3446
 20
-32.7439
 30
0.0
 10
60.3446
 20
-32.7439
 30
0.0
 10
58.7954
 20
-31.956
 30
0.0
 10
57.5565
 20
-30.3004
 30
0.0
 10
56.9309
 20
-28.1823
 30
0.0
 10
56.9309
 20
-28.1823
 30
0.0
 10
56.305
 20
-26.064
 30
0.0
 10
56.35
 20
-23.6786
 30
0.0
 10
57.0544
 20
-21.6084
 30
0.0
 10
57.0544
 20
-21.6084
 30
0.0
 10
58.1735
 20
-18.8295
 30
0.0
 10
60.1958
 20
-16.9776
 30
0.0
 10
62.4775
 20
-16.6426
 30
0.0
 10
62.4775
 20
-16.6426
 30
0.0
 10
66.1815
 20
-16.3214
 30
0.0
 10
69.8993
 20
-16.5062
 30
0.0
 10
73.5772
 20
-17.1946
 30
0.0
 10
73.5772
 20
-17.1946
 30
0.0
 10
70.9354
 20
-18.1292
 30
0.0
 10
68.3941
 20
-19.5461
 30
0.0
 10
66.0207
 20
-21.4078
 30
0.0
 10
66.0207
 20
-21.4078
 30
0.0
 10
64.3671
 20
-22.3605
 30
0.0
 10
62.9918
 20
-24.0565
 30
0.0
 10
62.1162
 20
-26.2232
 30
0.0
 10
62.1162
 20
-26.2232
 30
0.0
 10
61.5904
 20
-28.011
 30
0.0
 10
61.7828
 20
-30.0505
 30
0.0
 10
62.6221
 20
-31.5902
 30
0.0
 10
62.6221
 20
-31.5902
 30
0.0
 10
63.8118
 20
-32.8532
 30
0.0
 10
65.4426
 20
-32.9532
 30
0.0
 10
66.7078
 20
-31.8411
 30
0.0
 10
66.7078
 20
-31.8411
 30
0.0
 10
67.4292
 20
-31.1046
 30
0.0
 10
67.9817
 20
-30.0943
 30
0.0
 10
68.2984
 20
-28.9319
 30
0.0
 10
68.2984
 20
-28.9319
 30
0.0
 10
70.3634
 20
-22.8352
 30
0.0
 10
75.0104
 20
-19.2581
 30
0.0
 10
79.8319
 20
-20.0535
 30
0.0
  0
SPLINE
  5
6E
330
1F
100
AcDbEntity
  8
layer 1
 62
     7
370
     9
100
AcDbSpline
210
0.0
220
0.0
230
1.0
 70
    11
 71
     3
 72
    20
 73
    16
 74
     0
 42
0.0000000001
 43
0.0000000001
 12
1.0
 22
0.0
 32
0.0
 13
1.0
 23
0.0
 33
0.0
 40
0.0
 40
0.0
 40
0.0
 40
0.0
 40
0.2
 40
0.2
 40
0.2
 40
0.2
 40
0.4
 40
0.4
 40
0.4
 40
0.4
 40
0.6
 40
0.6
 40
0.6
 40
0.6
 40
1.0
 40
1.0
 40
1.0
 40
1.0
 10
82.8328
 20
-53.0588
 30
0.0
 10
82.2322
 20
-49.4239
 30
0.0
 10
80.3589
 20
-46.4477
 30
0.0
 10
77.8436
 20
-45.1336
 30
0.0
 10
77.8436
 20
-45.1336
 30
0.0
 10
79.5023
 20
-44.8291
 30
0.0
 10
81.1903
 20
-45.1586
 30
0.0
 10
82.7244
 20
-46.0866
 30
0.0
 10
82.7244
 20
-46.0866
 30
0.0
 10
83.5838
 20
-46.8311
 30
0.0
 10
84.115
 20
-48.1267
 30
0.0
 10
84.1372
 20
-49.5321
 30
0.0
 10
84.1372
 20
-49.5321
 30
0.0
 10
84.1587
 20
-50.9377
 30
0.0
 10
83.6683
 20
-52.2638
 30
0.0
 10
82.8328
 20
-53.0588
 30
0.0
  0
SPLINE
  5
6F
330
1F
100
AcDbEntity
  8
layer 1
 62
     7
370
     9
100
AcDbSpline
210
0.0
220
0.0
230
1.0
 70
    11
 71
     3
 72
    16
 73
    12
 74
     0
 42
0.0000000001
 43
0.0000000001
 12
1.0
 22
0.0
 32
0.0
 13
1.0
 23
0.0
 33
0.0
 40
0.0
 40
0.0
 40
0.0
 40
0.0
 40
0.25
 40
0.25
 40
0.25
 40
0.25
 40
0.5
 40
0.5
 40
0.5
 40
0.5
 40
1.0
 40
1.0
 40
1.0
 40
1.0
 10
79.1812
 20
-71.6181
 30
0.0
 10
81.1852
 20
-68.4526
 30
0.0
 10
81.56
 20
-63.8922
 30
0.0
 10
80.1209
 20
-60.1816
 30
0.0
 10
80.1209
 20
-60.1816
 30
0.0
 10
82.3973
 20
-60.5419
 30
0.0
 10
84.0322
 20
-63.3939
 30
0.0
 10
83.7728
 20
-66.5519
 30
0.0
 10
83.7728
 20
-66.5519
 30
0.0
 10
83.5133
 20
-69.7103
 30
0.0
 10
81.4574
 20
-71.9784
 30
0.0
 10
79.1812
 20
-71.6181
 30
0.0
  0
SPLINE
  5
70
330
1F
100
AcDbEntity
  8
layer 1
 62
     7
370
     9
100
AcDbSpline
210
0.0
220
0.0
230
1.0
 70
    11
 71
     3
 72
   108
 73
   104
 74
     0
 42
0.0000000001
 43
0.0000000001
 12
1.0
 22
0.0
 32
0.0
 13
1.0
 23
0.0
 33
0.0
 40
0.0
 40
0.0
 40
0.0
 40
0.0
 40
0.037037037037037
 40
0.037037037037037
 40
0.037037037037037
 40
0.037037037037037
 40
0.0740740740740741
 40
0.0740740740740741
 40
0.0740740740740741
 40
0.0740740740740741
 40
0.1111111111111111
 40
0.1111111111111111
 40
0.1111111111111111
 40
0.1111111111111111
 40
0.1481481481481481
 40
0.1481481481481481
 40
0.1481481481481481
 40
0.1481481481481481
 40
0.1851851851851852
 40
0.1851851851851852
 40
0.1851851851851852
 40
0.1851851851851852
 40
0.2222222222222222
 40
0.2222222222222222
 40
0.2222222222222222
 40
0.2222222222222222
 40
0.2592592592592592
 40
0.2592592592592592
 40
0.2592592592592592
 40
0.2592592592592592
 40
0.2962962962962963
 40
0.2962962962962963
 40
0.2962962962962963
 40
0.2962962962962963
 40
0.3333333333333333
 40
0.3333333333333333
 40
0.3333333333333333
 40
0.3333333333333333
 40
0.3703703703703703
 40
0.3703703703703703
 40
0.3703703703703703
 40
0.3703703703703703
 40
0.4074074074074074
 40
0.4074074074074074
 40
0.4074074074074074
 40
0.4074074074074074
 40
0.4444444444444444
 40
0.4444444444444444
 40
0.4444444444444444
 40
0.4444444444444444
 40
0.4814814814814815
 40
0.4814814814814815
 40
0.4814814814814815
 40
0.4814814814814815
 40
0.5185185185185185
 40
0.5185185185185185
 40
0.5185185185185185
 40
0.5185185185185185
 40
0.5555555555555556
 40
0.5555555555555556
 40
0.5555555555555556
 40
0.5555555555555556
 40
0.5925925925925926
 40
0.5925925925925926
 40
0.5925925925925926
 40
0.5925925925925926
 40
0.6296296296296297
 40
0.6296296296296297
 40
0.6296296296296297
 40
0.6296296296296297
 40
0.6666666666666666
 40
0.6666666666666666
 40
0.6666666666666666
 40
0.6666666666666666
 40
0.7037037037037037
 40
0.7037037037037037
 40
0.7037037037037037
 40
0.7037037037037037
 40
0.7407407407407407
 40
0.7407407407407407
 40
0.7407407407407407
 40
0.7407407407407407
 40
0.7777777777777778
 40
0.7777777777777778
 40
0.7777777777777778
 40
0.7777777777777778
 40
0.8148148148148148
 40
0.8148148148148148
 40
0.8148148148148148
 40
0.8148148148148148
 40
0.8518518518518519
 40
0.8518518518518519
 40
0.8518518518518519
 40
0.8518518518518519
 40
0.8888888888888888
 40
0.8888888888888888
 40
0.8888888888888888
 40
0.8888888888888888
 40
0.9259259259259259
 40
0.9259259259259259
 40
0.9259259259259259
 40
0.9259259259259259
 40
1.0
 40
1.0
 40
1.0
 40
1.0
 10
83.1221
 20
-57.6238
 30
0.0
 10
81.8707
 20
-58.1771
 30
0.0
 10
80.5361
 20
-58.2633
 30
0.0
 10
79.2534
 20
-57.8744
 30
0.0
 10
79.2534
 20
-57.8744
 30
0.0
 10
77.278
 20
-57.2864
 30
0.0
 10
75.4239
 20
-56.086
 30
0.0
 10
73.8303
 20
-54.3633
 30
0.0
 10
73.8303
 20
-54.3633
 30
0.0
 10
74.397
 20
-55.746
 30
0.0
 10
74.8233
 20
-57.2319
 30
0.0
 10
75.0955
 20
-58.7774
 30
0.0
 10
75.0955
 20
-58.7774
 30
0.0
 10
75.4564
 20
-60.6723
 30
0.0
 10
75.4313
 20
-62.6691
 30
0.0
 10
75.0233
 20
-64.5457
 30
0.0
 10
75.0233
 20
-64.5457
 30
0.0
 10
73.7177
 20
-67.2396
 30
0.0
 10
71.2752
 20
-68.3898
 30
0.0
 10
69.0577
 20
-67.3545
 30
0.0
 10
69.0577
 20
-67.3545
 30
0.0
 10
69.8269
 20
-65.3641
 30
0.0
 10
69.462
 20
-62.8957
 30
0.0
 10
68.19
 20
-61.4859
 30
0.0
 10
68.19
 20
-61.4859
 30
0.0
 10
67.6847
 20
-65.92
 30
0.0
 10
65.1132
 20
-69.3444
 30
0.0
 10
61.8993
 20
-69.8626
 30
0.0
 10
61.8993
 20
-69.8626
 30
0.0
 10
60.6622
 20
-66.5024
 30
0.0
 10
61.1138
 20
-62.4212
 30
0.0
 10
63.0201
 20
-59.7304
 30
0.0
 10
63.0201
 20
-59.7304
 30
0.0
 10
62.1193
 20
-59.1211
 30
0.0
 10
61.2905
 20
-58.3261
 30
0.0
 10
60.5614
 20
-57.3727
 30
0.0
 10
60.5614
 20
-57.3727
 30
0.0
 10
60.0056
 20
-56.5655
 30
0.0
 10
59.7473
 20
-55.4493
 30
0.0
 10
59.86
 20
-54.344
 30
0.0
 10
59.86
 20
-54.344
 30
0.0
 10
59.9727
 20
-53.2388
 30
0.0
 10
60.4444
 20
-52.2661
 30
0.0
 10
61.1399
 20
-51.7045
 30
0.0
 10
61.1399
 20
-51.7045
 30
0.0
 10
62.5624
 20
-51.045
 30
0.0
 10
64.0885
 20
-50.9409
 30
0.0
 10
65.5507
 20
-51.4037
 30
0.0
 10
65.5507
 20
-51.4037
 30
0.0
 10
64.897
 20
-52.1769
 30
0.0
 10
64.4301
 20
-53.2099
 30
0.0
 10
64.2131
 20
-54.3633
 30
0.0
 10
64.2131
 20
-54.3633
 30
0.0
 10
63.9304
 20
-54.9971
 30
0.0
 10
63.8599
 20
-55.7701
 30
0.0
 10
64.0192
 20
-56.482
 30
0.0
 10
64.0192
 20
-56.482
 30
0.0
 10
64.1787
 20
-57.1936
 30
0.0
 10
64.5527
 20
-57.7746
 30
0.0
 10
65.0446
 20
-58.0748
 30
0.0
 10
65.0446
 20
-58.0748
 30
0.0
 10
66.0343
 20
-58.3506
 30
0.0
 10
67.0592
 20
-58.2468
 30
0.0
 10
68.0093
 20
-57.7742
 30
0.0
 10
68.0093
 20
-57.7742
 30
0.0
 10
70.4841
 20
-56.937
 30
0.0
 10
72.3953
 20
-54.208
 30
0.0
 10
72.926
 20
-50.7515
 30
0.0
 10
72.926
 20
-50.7515
 30
0.0
 10
73.0758
 20
-48.2886
 30
0.0
 10
71.9347
 20
-46.0295
 30
0.0
 10
70.2147
 20
-45.3844
 30
0.0
 10
70.2147
 20
-45.3844
 30
0.0
 10
67.4889
 20
-44.5638
 30
0.0
 10
64.6709
 20
-44.5298
 30
0.0
 10
61.9352
 20
-45.2842
 30
0.0
 10
61.9352
 20
-45.2842
 30
0.0
 10
60.2504
 20
-45.7064
 30
0.0
 10
58.6915
 20
-46.8052
 30
0.0
 10
57.452
 20
-48.4443
 30
0.0
 10
57.452
 20
-48.4443
 30
0.0
 10
55.968
 20
-51.7478
 30
0.0
 10
55.4385
 20
-55.7075
 30
0.0
 10
55.9698
 20
-59.5297
 30
0.0
 10
55.9698
 20
-59.5297
 30
0.0
 10
54.9036
 20
-56.0695
 30
0.0
 10
55.0643
 20
-52.1175
 30
0.0
 10
56.4037
 20
-48.8456
 30
0.0
 10
56.4037
 20
-48.8456
 30
0.0
 10
58.2672
 20
-45.9543
 30
0.0
 10
60.912
 20
-44.265
 30
0.0
 10
63.707
 20
-44.1806
 30
0.0
 10
63.707
 20
-44.1806
 30
0.0
 10
67.215
 20
-43.511
 30
0.0
 10
70.7825
 20
-43.7493
 30
0.0
 10
74.2279
 20
-44.8827
 30
0.0
 10
74.2279
 20
-44.8827
 30
0.0
 10
76.4104
 20
-46.0597
 30
0.0
 10
78.2272
 20
-48.2606
 30
0.0
 10
79.3618
 20
-51.1026
 30
0.0
 10
79.3618
 20
-51.1026
 30
0.0
 10
80.3292
 20
-53.566
 30
0.0
 10
81.602
 20
-55.7735
 30
0.0
 10
83.1221
 20
-57.6238
 30
0.0
  0
SPLINE
  5
71
330
1F
100
AcDbEntity
  8
layer 1
 62
     7
370
     9
100
AcDbSpline
210
0.0
220
0.0
230
1.0
 70
    11
 71
     3
 72
   104
 73
   100
 74
     0
 42
0.0000000001
 43
0.0000000001
 12
1.0
 22
0.0
 32
0.0
 13
1.0
 23
0.0
 33
0.0
 40
0.0
 40
0.0
 40
0.0
 40
0.0
 40
0.0384615384615385
 40
0.0384615384615385
 40
0.0384615384615385
 40
0.0384615384615385
 40
0.0769230769230769
 40
0.0769230769230769
 40
0.0769230769230769
 40
0.0769230769230769
 40
0.1153846153846154
 40
0.1153846153846154
 40
0.1153846153846154
 40
0.1153846153846154
 40
0.1538461538461539
 40
0.1538461538461539
 40
0.1538461538461539
 40
0.1538461538461539
 40
0.1923076923076923
 40
0.1923076923076923
 40
0.1923076923076923
 40
0.1923076923076923
 40
0.2307692307692308
 40
0.2307692307692308
 40
0.2307692307692308
 40
0.2307692307692308
 40
0.2692307692307692
 40
0.2692307692307692
 40
0.2692307692307692
 40
0.2692307692307692
 40
0.3076923076923077
 40
0.3076923076923077
 40
0.3076923076923077
 40
0.3076923076923077
 40
0.3461538461538461
 40
0.3461538461538461
 40
0.3461538461538461
 40
0.3461538461538461
 40
0.3846153846153846
 40
0.3846153846153846
 40
0.3846153846153846
 40
0.3846153846153846
 40
0.4230769230769231
 40
0.4230769230769231
 40
0.4230769230769231
 40
0.4230769230769231
 40
0.4615384615384616
 40
0.4615384615384616
 40
0.4615384615384616
 40
0.4615384615384616
 40
0.5
 40
0.5
 40
0.5
 40
0.5
 40
0.5384615384615384
 40
0.5384615384615384
 40
0.5384615384615384
 40
0.5384615384615384
 40
0.5769230769230769
 40
0.5769230769230769
 40
0.5769230769230769
 40
0.5769230769230769
 40
0.6153846153846154
 40
0.6153846153846154
 40
0.6153846153846154
 40
0.6153846153846154
 40
0.6538461538461539
 40
0.6538461538461539
 40
0.6538461538461539
 40
0.6538461538461539
 40
0.6923076923076923
 40
0.6923076923076923
 40
0.6923076923076923
 40
0.6923076923076923
 40
0.7307692307692307
 40
0.7307692307692307
 40
0.7307692307692307
 40
0.7307692307692307
 40
0.7692307692307693
 40
0.7692307692307693
 40
0.7692307692307693
 40
0.7692307692307693
 40
0.8076923076923077
 40
0.8076923076923077
 40
0.8076923076923077
 40
0.8076923076923077
 40
0.8461538461538461
 40
0.8461538461538461
 40
0.8461538461538461
 40
0.8461538461538461
 40
0.8846153846153846
 40
0.8846153846153846
 40
0.8846153846153846
 40
0.8846153846153846
 40
0.9230769230769231
 40
0.9230769230769231
 40
0.9230769230769231
 40
0.9230769230769231
 40
1.0
 40
1.0
 40
1.0
 40
1.0
 10
41.8334
 20
-34.9009
 30
0.0
 10
43.8293
 20
-35.1174
 30
0.0
 10
45.8341
 20
-34.6879
 30
0.0
 10
47.6905
 20
-33.6471
 30
0.0
 10
47.6905
 20
-33.6471
 30
0.0
 10
47.9449
 20
-35.4189
 30
0.0
 10
47.5368
 20
-37.2494
 30
0.0
 10
46.6057
 20
-38.5127
 30
0.0
 10
46.6057
 20
-38.5127
 30
0.0
 10
44.8195
 20
-39.7571
 30
0.0
 10
42.7034
 20
-39.6819
 30
0.0
 10
40.9657
 20
-38.312
 30
0.0
 10
40.9657
 20
-38.312
 30
0.0
 10
40.1565
 20
-37.7324
 30
0.0
 10
39.5079
 20
-36.7975
 30
0.0
 10
39.1217
 20
-35.6533
 30
0.0
 10
39.1217
 20
-35.6533
 30
0.0
 10
35.8181
 20
-37.9316
 30
0.0
 10
32.0035
 20
-38.3274
 30
0.0
 10
28.4925
 20
-36.7571
 30
0.0
 10
28.4925
 20
-36.7571
 30
0.0
 10
28.7844
 20
-34.6462
 30
0.0
 10
29.9471
 20
-32.9741
 30
0.0
 10
31.4569
 20
-32.4935
 30
0.0
 10
31.4569
 20
-32.4935
 30
0.0
 10
33.2442
 20
-31.6434
 30
0.0
 10
35.1038
 20
-31.1204
 30
0.0
 10
36.9888
 20
-30.9383
 30
0.0
 10
36.9888
 20
-30.9383
 30
0.0
 10
35.1798
 20
-29.7136
 30
0.0
 10
33.1148
 20
-29.4288
 30
0.0
 10
31.1677
 20
-30.1358
 30
0.0
 10
31.1677
 20
-30.1358
 30
0.0
 10
30.9773
 20
-28.6898
 30
0.0
 10
31.2452
 20
-27.1995
 30
0.0
 10
31.9027
 20
-26.0473
 30
0.0
 10
31.9027
 20
-26.0473
 30
0.0
 10
32.5603
 20
-24.8946
 30
0.0
 10
33.5441
 20
-24.1911
 30
0.0
 10
34.6025
 20
-24.1165
 30
0.0
 10
34.6025
 20
-24.1165
 30
0.0
 10
37.6552
 20
-24.1642
 30
0.0
 10
40.7009
 20
-24.533
 30
0.0
 10
43.7133
 20
-25.22
 30
0.0
 10
43.7133
 20
-25.22
 30
0.0
 10
42.5722
 20
-23.8281
 30
0.0
 10
41.7124
 20
-22.0475
 30
0.0
 10
41.2187
 20
-20.0535
 30
0.0
 10
41.2187
 20
-20.0535
 30
0.0
 10
40.8636
 20
-18.8602
 30
0.0
 10
40.9728
 20
-17.4982
 30
0.0
 10
41.508
 20
-16.442
 30
0.0
 10
41.508
 20
-16.442
 30
0.0
 10
43.5384
 20
-18.2776
 30
0.0
 10
45.7741
 20
-19.6337
 30
0.0
 10
48.1241
 20
-20.4548
 30
0.0
 10
48.1241
 20
-20.4548
 30
0.0
 10
50.6206
 20
-21.1627
 30
0.0
 10
52.8956
 20
-22.9338
 30
0.0
 10
54.6321
 20
-25.521
 30
0.0
 10
54.6321
 20
-25.521
 30
0.0
 10
55.4393
 20
-28.8446
 30
0.0
 10
55.5024
 20
-32.4295
 30
0.0
 10
54.8127
 20
-35.8041
 30
0.0
 10
54.8127
 20
-35.8041
 30
0.0
 10
54.2342
 20
-39.0843
 30
0.0
 10
52.4226
 20
-41.6745
 30
0.0
 10
50.0765
 20
-42.5757
 30
0.0
 10
50.0765
 20
-42.5757
 30
0.0
 10
46.5516
 20
-43.7275
 30
0.0
 10
42.8895
 20
-43.813
 30
0.0
 10
39.3387
 20
-42.8261
 30
0.0
 10
39.3387
 20
-42.8261
 30
0.0
 10
42.3757
 20
-43.1474
 30
0.0
 10
45.4302
 20
-42.877
 30
0.0
 10
48.4135
 20
-42.0235
 30
0.0
 10
48.4135
 20
-42.0235
 30
0.0
 10
50.1284
 20
-41.5487
 30
0.0
 10
51.7238
 20
-40.459
 30
0.0
 10
53.0413
 20
-38.8637
 30
0.0
 10
53.0413
 20
-38.8637
 30
0.0
 10
54.1696
 20
-36.6909
 30
0.0
 10
54.6012
 20
-33.9688
 30
0.0
 10
54.2346
 20
-31.3396
 30
0.0
 10
54.2346
 20
-31.3396
 30
0.0
 10
53.7645
 20
-28.8918
 30
0.0
 10
52.2828
 20
-27.0732
 30
0.0
 10
50.4743
 20
-26.7251
 30
0.0
 10
50.4743
 20
-26.7251
 30
0.0
 10
46.7628
 20
-25.8354
 30
0.0
 10
42.9961
 20
-27.8143
 30
0.0
 10
40.6401
 20
-31.8913
 30
0.0
 10
40.6401
 20
-31.8913
 30
0.0
 10
40.4322
 20
-32.5063
 30
0.0
 10
40.4489
 20
-33.2222
 30
0.0
 10
40.6849
 20
-33.8175
 30
0.0
 10
40.6849
 20
-33.8175
 30
0.0
 10
40.9206
 20
-34.4127
 30
0.0
 10
41.3477
 20
-34.8154
 30
0.0
 10
41.8334
 20
-34.9009
 30
0.0
  0
SPLINE
  5
72
330
1F
100
AcDbEntity
  8
layer 1
 62
     7
370
     9
100
AcDbSpline
210
0.0
220
0.0
230
1.0
 70
    11
 71
     3
 72
    48
 73
    44
 74
     0
 42
0.0000000001
 43
0.0000000001
 12
1.0
 22
0.0
 32
0.0
 13
1.0
 23
0.0
 33
0.0
 40
0.0
 40
0.0
 40
0.0
 40
0.0
 40
0.0833333333333333
 40
0.0833333333333333
 40
0.0833333333333333
 40
0.0833333333333333
 40
0.1666666666666667
 40
0.1666666666666667
 40
0.1666666666666667
 40
0.1666666666666667
 40
0.25
 40
0.25
 40
0.25
 40
0.25
 40
0.3333333333333333
 40
0.3333333333333333
 40
0.3333333333333333
 40
0.3333333333333333
 40
0.4166666666666667
 40
0.4166666666666667
 40
0.4166666666666667
 40
0.4166666666666667
 40
0.5
 40
0.5
 40
0.5
 40
0.5
 40
0.5833333333333334
 40
0.5833333333333334
 40
0.5833333333333334
 40
0.5833333333333334
 40
0.6666666666666666
 40
0.6666666666666666
 40
0.6666666666666666
 40
0.6666666666666666
 40
0.75
 40
0.75
 40
0.75
 40
0.75
 40
0.8333333333333334
 40
0.8333333333333334
 40
0.8333333333333334
 40
0.8333333333333334
 40
1.0
 40
1.0
 40
1.0
 40
1.0
 10
28.6369
 20
-72.8222
 30
0.0
 10
31.7043
 20
-76.0556
 30
0.0
 10
35.3109
 20
-78.1604
 30
0.0
 10
39.1217
 20
-78.9416
 30
0.0
 10
39.1217
 20
-78.9416
 30
0.0
 10
42.6891
 20
-79.7502
 30
0.0
 10
46.3491
 20
-78.9593
 30
0.0
 10
49.5704
 20
-76.6844
 30
0.0
 10
49.5704
 20
-76.6844
 30
0.0
 10
52.4519
 20
-74.2306
 30
0.0
 10
54.0126
 20
-69.6429
 30
0.0
 10
53.5475
 20
-64.997
 30
0.0
 10
53.5475
 20
-64.997
 30
0.0
 10
53.1827
 20
-61.1903
 30
0.0
 10
53.0376
 20
-57.349
 30
0.0
 10
53.1136
 20
-53.5105
 30
0.0
 10
53.1136
 20
-53.5105
 30
0.0
 10
52.3616
 20
-55.2374
 30
0.0
 10
51.4086
 20
-56.7797
 30
0.0
 10
50.2935
 20
-58.0748
 30
0.0
 10
50.2935
 20
-58.0748
 30
0.0
 10
47.196
 20
-60.3772
 30
0.0
 10
43.7549
 20
-61.6478
 30
0.0
 10
40.2424
 20
-61.7868
 30
0.0
 10
40.2424
 20
-61.7868
 30
0.0
 10
38.7609
 20
-61.9548
 30
0.0
 10
37.3618
 20
-62.8019
 30
0.0
 10
36.2655
 20
-64.1942
 30
0.0
 10
36.2655
 20
-64.1942
 30
0.0
 10
37.7552
 20
-65.684
 30
0.0
 10
39.3855
 20
-66.8821
 30
0.0
 10
41.1103
 20
-67.756
 30
0.0
 10
41.1103
 20
-67.756
 30
0.0
 10
42.7884
 20
-68.6743
 30
0.0
 10
44.6484
 20
-68.7278
 30
0.0
 10
46.3526
 20
-67.9062
 30
0.0
 10
46.3526
 20
-67.9062
 30
0.0
 10
45.4495
 20
-69.5787
 30
0.0
 10
44.2885
 20
-70.95
 30
0.0
 10
42.9542
 20
-71.9194
 30
0.0
 10
42.9542
 20
-71.9194
 30
0.0
 10
38.2451
 20
-73.2556
 30
0.0
 10
33.4141
 20
-73.5603
 30
0.0
 10
28.6369
 20
-72.8222
 30
0.0
  0
SPLINE
  5
73
330
1F
100
AcDbEntity
  8
layer 1
 62
     7
370
     9
100
AcDbSpline
210
0.0
220
0.0
230
1.0
 70
    11
 71
     3
 72
    40
 73
    36
 74
     0
 42
0.0000000001
 43
0.0000000001
 12
1.0
 22
0.0
 32
0.0
 13
1.0
 23
0.0
 33
0.0
 40
0.0
 40
0.0
 40
0.0
 40
0.0
 40
0.1
 40
0.1
 40
0.1
 40
0.1
 40
0.2
 40
0.2
 40
0.2
 40
0.2
 40
0.3
 40
0.3
 40
0.3
 40
0.3
 40
0.4
 40
0.4
 40
0.4
 40
0.4
 40
0.5
 40
0.5
 40
0.5
 40
0.5
 40
0.6
 40
0.6
 40
0.6
 40
0.6
 40
0.7
 40
0.7
 40
0.7
 40
0.7
 40
0.8
 40
0.8
 40
0.8
 40
0.8
 40
1.0
 40
1.0
 40
1.0
 40
1.0
 10
24.5876
 20
-68.8094
 30
0.0
 10
20.4411
 20
-66.3102
 30
0.0
 10
17.9603
 20
-60.3431
 30
0.0
 10
18.4776
 20
-54.1124
 30
0.0
 10
18.4776
 20
-54.1124
 30
0.0
 10
18.8844
 20
-51.973
 30
0.0
 10
19.725
 20
-50.0407
 30
0.0
 10
20.8998
 20
-48.5447
 30
0.0
 10
20.8998
 20
-48.5447
 30
0.0
 10
23.2994
 20
-46.0056
 30
0.0
 10
26.275
 20
-44.7422
 30
0.0
 10
29.2876
 20
-44.9832
 30
0.0
 10
29.2876
 20
-44.9832
 30
0.0
 10
34.4541
 20
-44.6924
 30
0.0
 10
39.6284
 20
-44.9779
 30
0.0
 10
44.762
 20
-45.8359
 30
0.0
 10
44.762
 20
-45.8359
 30
0.0
 10
40.6393
 20
-47.0852
 30
0.0
 10
37.4192
 20
-51.5525
 30
0.0
 10
36.5187
 20
-57.2722
 30
0.0
 10
36.5187
 20
-57.2722
 30
0.0
 10
36.2154
 20
-59.3545
 30
0.0
 10
35.1218
 20
-61.0445
 30
0.0
 10
33.6624
 20
-61.6863
 30
0.0
 10
33.6624
 20
-61.6863
 30
0.0
 10
32.237
 20
-60.5139
 30
0.0
 10
31.0637
 20
-58.8342
 30
0.0
 10
30.2639
 20
-56.821
 30
0.0
 10
30.2639
 20
-56.821
 30
0.0
 10
29.5326
 20
-55.2995
 30
0.0
 10
29.3333
 20
-53.4023
 30
0.0
 10
29.7217
 20
-51.6543
 30
0.0
 10
29.7217
 20
-51.6543
 30
0.0
 10
25.4345
 20
-55.1324
 30
0.0
 10
23.3371
 20
-62.141
 30
0.0
 10
24.5876
 20
-68.8094
 30
0.0
  0
SPLINE
  5
74
330
1F
100
AcDbEntity
  8
layer 1
 62
     7
370
     9
100
AcDbSpline
210
0.0
220
0.0
230
1.0
 70
    11
 71
     3
 72
    16
 73
    12
 74
     0
 42
0.0000000001
 43
0.0000000001
 12
1.0
 22
0.0
 32
0.0
 13
1.0
 23
0.0
 33
0.0
 40
0.0
 40
0.0
 40
0.0
 40
0.0
 40
0.25
 40
0.25
 40
0.25
 40
0.25
 40
0.5
 40
0.5
 40
0.5
 40
0.5
 40
1.0
 40
1.0
 40
1.0
 40
1.0
 10
109.6234
 20
-62.3887
 30
0.0
 10
108.3104
 20
-59.1009
 30
0.0
 10
107.5331
 20
-55.4541
 30
0.0
 10
107.3454
 20
-51.7045
 30
0.0
 10
107.3454
 20
-51.7045
 30
0.0
 10
105.9123
 20
-53.1941
 30
0.0
 10
105.2982
 20
-55.7634
 30
0.0
 10
105.8061
 20
-58.1456
 30
0.0
 10
105.8061
 20
-58.1456
 30
0.0
 10
106.314
 20
-60.5279
 30
0.0
 10
107.8364
 20
-62.2204
 30
0.0
 10
109.6234
 20
-62.3887
 30
0.0
  0
SPLINE
  5
75
330
1F
100
AcDbEntity
  8
layer 1
 62
     7
370
     9
100
AcDbSpline
210
0.0
220
0.0
230
1.0
 70
    11
 71
     3
 72
    44
 73
    40
 74
     0
 42
0.0000000001
 43
0.0000000001
 12
1.0
 22
0.0
 32
0.0
 13
1.0
 23
0.0
 33
0.0
 40
0.0
 40
0.0
 40
0.0
 40
0.0
 40
0.0909090909090909
 40
0.0909090909090909
 40
0.0909090909090909
 40
0.0909090909090909
 40
0.1818181818181818
 40
0.1818181818181818
 40
0.1818181818181818
 40
0.1818181818181818
 40
0.2727272727272727
 40
0.2727272727272727
 40
0.2727272727272727
 40
0.2727272727272727
 40
0.3636363636363636
 40
0.3636363636363636
 40
0.3636363636363636
 40
0.3636363636363636
 40
0.4545454545454545
 40
0.4545454545454545
 40
0.4545454545454545
 40
0.4545454545454545
 40
0.5454545454545454
 40
0.5454545454545454
 40
0.5454545454545454
 40
0.5454545454545454
 40
0.6363636363636364
 40
0.6363636363636364
 40
0.6363636363636364
 40
0.6363636363636364
 40
0.7272727272727273
 40
0.7272727272727273
 40
0.7272727272727273
 40
0.7272727272727273
 40
0.8181818181818182
 40
0.8181818181818182
 40
0.8181818181818182
 40
0.8181818181818182
 40
1.0
 40
1.0
 40
1.0
 40
1.0
 10
114.1061
 20
-49.1966
 30
0.0
 10
113.3213
 20
-50.8052
 30
0.0
 10
112.6554
 20
-52.5192
 30
0.0
 10
112.1178
 20
-54.3131
 30
0.0
 10
112.1178
 20
-54.3131
 30
0.0
 10
111.8158
 20
-55.4321
 30
0.0
 10
111.8816
 20
-56.6781
 30
0.0
 10
112.2986
 20
-57.7237
 30
0.0
 10
112.2986
 20
-57.7237
 30
0.0
 10
113.1009
 20
-58.8425
 30
0.0
 10
114.2793
 20
-59.2653
 30
0.0
 10
115.372
 20
-58.8274
 30
0.0
 10
115.372
 20
-58.8274
 30
0.0
 10
114.79
 20
-58.1337
 30
0.0
 10
114.5312
 20
-57.0526
 30
0.0
 10
114.6979
 20
-56.014
 30
0.0
 10
114.6979
 20
-56.014
 30
0.0
 10
114.8641
 20
-54.9753
 30
0.0
 10
115.4285
 20
-54.1482
 30
0.0
 10
116.1673
 20
-53.8616
 30
0.0
 10
116.1673
 20
-53.8616
 30
0.0
 10
117.4039
 20
-53.1652
 30
0.0
 10
118.8155
 20
-53.4529
 30
0.0
 10
119.8551
 20
-54.6139
 30
0.0
 10
119.8551
 20
-54.6139
 30
0.0
 10
120.6405
 20
-56.9012
 30
0.0
 10
119.9665
 20
-59.6409
 30
0.0
 10
118.3367
 20
-60.7836
 30
0.0
 10
118.3367
 20
-60.7836
 30
0.0
 10
116.2575
 20
-62.263
 30
0.0
 10
113.8203
 20
-62.4277
 30
0.0
 10
111.6479
 20
-61.2351
 30
0.0
 10
111.6479
 20
-61.2351
 30
0.0
 10
110.1558
 20
-60.4066
 30
0.0
 10
109.3261
 20
-58.1881
 30
0.0
 10
109.6958
 20
-56.0184
 30
0.0
 10
109.6958
 20
-56.0184
 30
0.0
 10
110.3931
 20
-52.9726
 30
0.0
 10
111.9995
 20
-50.489
 30
0.0
 10
114.1061
 20
-49.1966
 30
0.0
  0
SPLINE
  5
76
330
1F
100
AcDbEntity
  8
layer 1
 62
     7
370
     9
100
AcDbSpline
210
0.0
220
0.0
230
1.0
 70
    11
 71
     3
 72
    44
 73
    40
 74
     0
 42
0.0000000001
 43
0.0000000001
 12
1.0
 22
0.0
 32
0.0
 13
1.0
 23
0.0
 33
0.0
 40
0.0
 40
0.0
 40
0.0
 40
0.0
 40
0.0909090909090909
 40
0.0909090909090909
 40
0.0909090909090909
 40
0.0909090909090909
 40
0.1818181818181818
 40
0.1818181818181818
 40
0.1818181818181818
 40
0.1818181818181818
 40
0.2727272727272727
 40
0.2727272727272727
 40
0.2727272727272727
 40
0.2727272727272727
 40
0.3636363636363636
 40
0.3636363636363636
 40
0.3636363636363636
 40
0.3636363636363636
 40
0.4545454545454545
 40
0.4545454545454545
 40
0.4545454545454545
 40
0.4545454545454545
 40
0.5454545454545454
 40
0.5454545454545454
 40
0.5454545454545454
 40
0.5454545454545454
 40
0.6363636363636364
 40
0.6363636363636364
 40
0.6363636363636364
 40
0.6363636363636364
 40
0.7272727272727273
 40
0.7272727272727273
 40
0.7272727272727273
 40
0.7272727272727273
 40
0.8181818181818182
 40
0.8181818181818182
 40
0.8181818181818182
 40
0.8181818181818182
 40
1.0
 40
1.0
 40
1.0
 40
1.0
 10
123.6514
 20
-38.8135
 30
0.0
 10
121.437
 20
-36.8053
 30
0.0
 10
120.3222
 20
-33.1351
 30
0.0
 10
120.8311
 20
-29.5338
 30
0.0
 10
120.8311
 20
-29.5338
 30
0.0
 10
121.2631
 20
-26.7306
 30
0.0
 10
121.8188
 20
-23.9668
 30
0.0
 10
122.4941
 20
-21.2574
 30
0.0
 10
122.4941
 20
-21.2574
 30
0.0
 10
123.3028
 20
-18.6117
 30
0.0
 10
122.413
 20
-15.5576
 30
0.0
 10
120.5058
 20
-14.4356
 30
0.0
 10
120.5058
 20
-14.4356
 30
0.0
 10
118.0167
 20
-12.7374
 30
0.0
 10
115.0693
 20
-12.9655
 30
0.0
 10
112.7323
 20
-15.0375
 30
0.0
 10
112.7323
 20
-15.0375
 30
0.0
 10
110.8065
 20
-17.6279
 30
0.0
 10
109.7902
 20
-21.2544
 30
0.0
 10
109.9488
 20
-24.9693
 30
0.0
 10
109.9488
 20
-24.9693
 30
0.0
 10
110.7185
 20
-22.0838
 30
0.0
 10
112.4864
 20
-19.9329
 30
0.0
 10
114.6489
 20
-19.251
 30
0.0
 10
114.6489
 20
-19.251
 30
0.0
 10
116.0757
 20
-18.9691
 30
0.0
 10
117.5169
 20
-19.6172
 30
0.0
 10
118.5531
 20
-21.0065
 30
0.0
 10
118.5531
 20
-21.0065
 30
0.0
 10
118.9625
 20
-21.9191
 30
0.0
 10
119.1163
 20
-23.0072
 30
0.0
 10
118.9874
 20
-24.0663
 30
0.0
 10
118.9874
 20
-24.0663
 30
0.0
 10
118.7811
 20
-26.5467
 30
0.0
 10
118.6965
 20
-29.0441
 30
0.0
 10
118.7344
 20
-31.5402
 30
0.0
 10
118.7344
 20
-31.5402
 30
0.0
 10
118.7094
 20
-35.3976
 30
0.0
 10
120.8749
 20
-38.6005
 30
0.0
 10
123.6514
 20
-38.8135
 30
0.0
  0
SPLINE
  5
77
330
1F
100
AcDbEntity
  8
layer 1
 62
     7
370
     9
100
AcDbSpline
210
0.0
220
0.0
230
1.0
 70
    11
 71
     3
 72
    44
 73
    40
 74
     0
 42
0.0000000001
 43
0.0000000001
 12
1.0
 22
0.0
 32
0.0
 13
1.0
 23
0.0
 33
0.0
 40
0.0
 40
0.0
 40
0.0
 40
0.0
 40
0.0909090909090909
 40
0.0909090909090909
 40
0.0909090909090909
 40
0.0909090909090909
 40
0.1818181818181818
 40
0.1818181818181818
 40
0.1818181818181818
 40
0.1818181818181818
 40
0.2727272727272727
 40
0.2727272727272727
 40
0.2727272727272727
 40
0.2727272727272727
 40
0.3636363636363636
 40
0.3636363636363636
 40
0.3636363636363636
 40
0.3636363636363636
 40
0.4545454545454545
 40
0.4545454545454545
 40
0.4545454545454545
 40
0.4545454545454545
 40
0.5454545454545454
 40
0.5454545454545454
 40
0.5454545454545454
 40
0.5454545454545454
 40
0.6363636363636364
 40
0.6363636363636364
 40
0.6363636363636364
 40
0.6363636363636364
 40
0.7272727272727273
 40
0.7272727272727273
 40
0.7272727272727273
 40
0.7272727272727273
 40
0.8181818181818182
 40
0.8181818181818182
 40
0.8181818181818182
 40
0.8181818181818182
 40
1.0
 40
1.0
 40
1.0
 40
1.0
 10
147.8387
 20
-15.1379
 30
0.0
 10
144.9665
 20
-12.9687
 30
0.0
 10
141.6955
 20
-12.0261
 30
0.0
 10
138.4385
 20
-12.4294
 30
0.0
 10
138.4385
 20
-12.4294
 30
0.0
 10
135.1984
 20
-12.7321
 30
0.0
 10
131.988
 20
-13.4881
 30
0.0
 10
128.8577
 20
-14.6864
 30
0.0
 10
128.8577
 20
-14.6864
 30
0.0
 10
126.6099
 20
-15.4844
 30
0.0
 10
124.2234
 20
-14.6754
 30
0.0
 10
122.4941
 20
-12.5296
 30
0.0
 10
122.4941
 20
-12.5296
 30
0.0
 10
121.3256
 20
-10.7972
 30
0.0
 10
121.1192
 20
-8.2038
 30
0.0
 10
121.9879
 20
-6.1596
 30
0.0
 10
121.9879
 20
-6.1596
 30
0.0
 10
125.1085
 20
-2.6973
 30
0.0
 10
129.1543
 20
-1.271
 30
0.0
 10
133.0878
 20
-2.2467
 30
0.0
 10
133.0878
 20
-2.2467
 30
0.0
 10
131.3648
 20
-2.8996
 30
0.0
 10
129.7293
 20
-3.9326
 30
0.0
 10
128.243
 20
-5.307
 30
0.0
 10
128.243
 20
-5.307
 30
0.0
 10
127.446
 20
-6.1547
 30
0.0
 10
127.1888
 20
-7.6649
 30
0.0
 10
127.628
 20
-8.9181
 30
0.0
 10
127.628
 20
-8.9181
 30
0.0
 10
128.5684
 20
-10.3957
 30
0.0
 10
129.9835
 20
-11.1132
 30
0.0
 10
131.3881
 20
-10.8241
 30
0.0
 10
131.3881
 20
-10.8241
 30
0.0
 10
135.009
 20
-10.4283
 30
0.0
 10
138.6449
 20
-10.3778
 30
0.0
 10
142.271
 20
-10.6736
 30
0.0
 10
142.271
 20
-10.6736
 30
0.0
 10
144.5859
 20
-10.5805
 30
0.0
 10
146.7408
 20
-12.3083
 30
0.0
 10
147.8387
 20
-15.1379
 30
0.0
  0
SPLINE
  5
78
330
1F
100
AcDbEntity
  8
layer 1
 62
     7
370
     9
100
AcDbSpline
210
0.0
220
0.0
230
1.0
 70
    11
 71
     3
 72
    16
 73
    12
 74
     0
 42
0.0000000001
 43
0.0000000001
 12
1.0
 22
0.0
 32
0.0
 13
1.0
 23
0.0
 33
0.0
 40
0.0
 40
0.0
 40
0.0
 40
0.0
 40
0.25
 40
0.25
 40
0.25
 40
0.25
 40
0.5
 40
0.5
 40
0.5
 40
0.5
 40
1.0
 40
1.0
 40
1.0
 40
1.0
 10
154.274
 20
-22.2106
 30
0.0
 10
156.1811
 20
-18.8263
 30
0.0
 10
159.096
 20
-16.8316
 30
0.0
 10
162.192
 20
-16.7933
 30
0.0
 10
162.192
 20
-16.7933
 30
0.0
 10
160.7547
 20
-14.9474
 30
0.0
 10
158.6464
 20
-14.5223
 30
0.0
 10
156.8902
 20
-15.7238
 30
0.0
 10
156.8902
 20
-15.7238
 30
0.0
 10
155.1341
 20
-16.9256
 30
0.0
 10
154.0932
 20
-19.5053
 30
0.0
 10
154.274
 20
-22.2106
 30
0.0
  0
SPLINE
  5
79
330
1F
100
AcDbEntity
  8
layer 1
 62
     7
370
     9
100
AcDbSpline
210
0.0
220
0.0
230
1.0
 70
    11
 71
     3
 72
    16
 73
    12
 74
     0
 42
0.0000000001
 43
0.0000000001
 12
1.0
 22
0.0
 32
0.0
 13
1.0
 23
0.0
 33
0.0
 40
0.0
 40
0.0
 40
0.0
 40
0.0
 40
0.25
 40
0.25
 40
0.25
 40
0.25
 40
0.5
 40
0.5
 40
0.5
 40
0.5
 40
1.0
 40
1.0
 40
1.0
 40
1.0
 10
169.7485
 20
-19.8529
 30
0.0
 10
173.5548
 20
-17.794
 30
0.0
 10
177.7954
 20
-17.9203
 30
0.0
 10
181.5346
 20
-20.2039
 30
0.0
 10
181.5346
 20
-20.2039
 30
0.0
 10
180.3008
 20
-17.3613
 30
0.0
 10
178.1026
 20
-15.5949
 30
0.0
 10
175.7109
 20
-15.5234
 30
0.0
 10
175.7109
 20
-15.5234
 30
0.0
 10
173.3198
 20
-15.4525
 30
0.0
 10
171.0692
 20
-17.0863
 30
0.0
 10
169.7485
 20
-19.8529
 30
0.0
  0
SPLINE
  5
7A
330
1F
100
AcDbEntity
  8
layer 1
 62
     7
370
     9
100
AcDbSpline
210
0.0
220
0.0
230
1.0
 70
    11
 71
     3
 72
    12
 73
     8
 74
     0
 42
0.0000000001
 43
0.0000000001
 12
1.0
 22
0.0
 32
0.0
 13
1.0
 23
0.0
 33
0.0
 40
0.0
 40
0.0
 40
0.0
 40
0.0
 40
0.3333333333333333
 40
0.3333333333333333
 40
0.3333333333333333
 40
0.3333333333333333
 40
1.0
 40
1.0
 40
1.0
 40
1.0
 10
171.6283
 20
-1.3942
 30
0.0
 10
168.1825
 20
0.4162
 30
0.0
 10
164.494
 20
1.1694
 30
0.0
 10
160.8183
 20
0.8136
 30
0.0
 10
160.8183
 20
0.8136
 30
0.0
 10
164.2945
 20
4.0419
 30
0.0
 10
168.9695
 20
3.0873
 30
0.0
 10
171.6283
 20
-1.3942
 30
0.0
  0
SPLINE
  5
7B
330
1F
100
AcDbEntity
  8
layer 1
 62
     7
370
     9
100
AcDbSpline
210
0.0
220
0.0
230
1.0
 70
    11
 71
     3
 72
    44
 73
    40
 74
     0
 42
0.0000000001
 43
0.0000000001
 12
1.0
 22
0.0
 32
0.0
 13
1.0
 23
0.0
 33
0.0
 40
0.0
 40
0.0
 40
0.0
 40
0.0
 40
0.0909090909090909
 40
0.0909090909090909
 40
0.0909090909090909
 40
0.0909090909090909
 40
0.1818181818181818
 40
0.1818181818181818
 40
0.1818181818181818
 40
0.1818181818181818
 40
0.2727272727272727
 40
0.2727272727272727
 40
0.2727272727272727
 40
0.2727272727272727
 40
0.3636363636363636
 40
0.3636363636363636
 40
0.3636363636363636
 40
0.3636363636363636
 40
0.4545454545454545
 40
0.4545454545454545
 40
0.4545454545454545
 40
0.4545454545454545
 40
0.5454545454545454
 40
0.5454545454545454
 40
0.5454545454545454
 40
0.5454545454545454
 40
0.6363636363636364
 40
0.6363636363636364
 40
0.6363636363636364
 40
0.6363636363636364
 40
0.7272727272727273
 40
0.7272727272727273
 40
0.7272727272727273
 40
0.7272727272727273
 40
0.8181818181818182
 40
0.8181818181818182
 40
0.8181818181818182
 40
0.8181818181818182
 40
1.0
 40
1.0
 40
1.0
 40
1.0
 10
168.2658
 20
-6.7113
 30
0.0
 10
166.7731
 20
-5.1832
 30
0.0
 10
164.6997
 20
-5.396
 30
0.0
 10
163.3849
 20
-7.2128
 30
0.0
 10
163.3849
 20
-7.2128
 30
0.0
 10
163.0223
 20
-8.0532
 30
0.0
 10
163.0036
 20
-9.096
 30
0.0
 10
163.3372
 20
-9.9598
 30
0.0
 10
163.3372
 20
-9.9598
 30
0.0
 10
163.6707
 20
-10.8231
 30
0.0
 10
164.3069
 20
-11.3799
 30
0.0
 10
165.0118
 20
-11.426
 30
0.0
 10
165.0118
 20
-11.426
 30
0.0
 10
167.1726
 20
-12.021
 30
0.0
 10
169.394
 20
-10.9231
 30
0.0
 10
170.7968
 20
-8.5668
 30
0.0
 10
170.7968
 20
-8.5668
 30
0.0
 10
171.7654
 20
-6.9247
 30
0.0
 10
171.7035
 20
-4.54
 30
0.0
 10
170.6522
 20
-2.9991
 30
0.0
 10
170.6522
 20
-2.9991
 30
0.0
 10
169.2664
 20
-1.6327
 30
0.0
 10
167.5714
 20
-1.0099
 30
0.0
 10
165.8798
 20
-1.2438
 30
0.0
 10
165.8798
 20
-1.2438
 30
0.0
 10
163.1686
 20
-1.3293
 30
0.0
 10
160.5879
 20
-2.8769
 30
0.0
 10
158.6849
 20
-5.557
 30
0.0
 10
158.6849
 20
-5.557
 30
0.0
 10
160.6597
 20
-4.5457
 30
0.0
 10
162.7086
 20
-3.8395
 30
0.0
 10
164.7954
 20
-3.4503
 30
0.0
 10
164.7954
 20
-3.4503
 30
0.0
 10
165.5744
 20
-3.1041
 30
0.0
 10
166.4251
 20
-3.2733
 30
0.0
 10
167.1025
 20
-3.9092
 30
0.0
 10
167.1025
 20
-3.9092
 30
0.0
 10
167.7795
 20
-4.5457
 30
0.0
 10
168.2086
 20
-5.5787
 30
0.0
 10
168.2658
 20
-6.7113
 30
0.0
  0
SPLINE
  5
7C
330
1F
100
AcDbEntity
  8
layer 1
 62
     7
370
     9
100
AcDbSpline
210
0.0
220
0.0
230
1.0
 70
    11
 71
     3
 72
    92
 73
    88
 74
     0
 42
0.0000000001
 43
0.0000000001
 12
1.0
 22
0.0
 32
0.0
 13
1.0
 23
0.0
 33
0.0
 40
0.0
 40
0.0
 40
0.0
 40
0.0
 40
0.0434782608695652
 40
0.0434782608695652
 40
0.0434782608695652
 40
0.0434782608695652
 40
0.0869565217391304
 40
0.0869565217391304
 40
0.0869565217391304
 40
0.0869565217391304
 40
0.1304347826086956
 40
0.1304347826086956
 40
0.1304347826086956
 40
0.1304347826086956
 40
0.1739130434782609
 40
0.1739130434782609
 40
0.1739130434782609
 40
0.1739130434782609
 40
0.2173913043478261
 40
0.2173913043478261
 40
0.2173913043478261
 40
0.2173913043478261
 40
0.2608695652173913
 40
0.2608695652173913
 40
0.2608695652173913
 40
0.2608695652173913
 40
0.3043478260869565
 40
0.3043478260869565
 40
0.3043478260869565
 40
0.3043478260869565
 40
0.3478260869565217
 40
0.3478260869565217
 40
0.3478260869565217
 40
0.3478260869565217
 40
0.391304347826087
 40
0.391304347826087
 40
0.391304347826087
 40
0.391304347826087
 40
0.4347826086956522
 40
0.4347826086956522
 40
0.4347826086956522
 40
0.4347826086956522
 40
0.4782608695652174
 40
0.4782608695652174
 40
0.4782608695652174
 40
0.4782608695652174
 40
0.5217391304347826
 40
0.5217391304347826
 40
0.5217391304347826
 40
0.5217391304347826
 40
0.5652173913043478
 40
0.5652173913043478
 40
0.5652173913043478
 40
0.5652173913043478
 40
0.6086956521739131
 40
0.6086956521739131
 40
0.6086956521739131
 40
0.6086956521739131
 40
0.6521739130434783
 40
0.6521739130434783
 40
0.6521739130434783
 40
0.6521739130434783
 40
0.6956521739130435
 40
0.6956521739130435
 40
0.6956521739130435
 40
0.6956521739130435
 40
0.7391304347826086
 40
0.7391304347826086
 40
0.7391304347826086
 40
0.7391304347826086
 40
0.782608695652174
 40
0.782608695652174
 40
0.782608695652174
 40
0.782608695652174
 40
0.8260869565217391
 40
0.8260869565217391
 40
0.8260869565217391
 40
0.8260869565217391
 40
0.8695652173913043
 40
0.8695652173913043
 40
0.8695652173913043
 40
0.8695652173913043
 40
0.9130434782608695
 40
0.9130434782608695
 40
0.9130434782608695
 40
0.9130434782608695
 40
1.0
 40
1.0
 40
1.0
 40
1.0
 10
128.713
 20
-20.0535
 30
0.0
 10
128.7876
 20
-25.1044
 30
0.0
 10
131.4471
 20
-29.3632
 30
0.0
 10
135.0399
 20
-30.186
 30
0.0
 10
135.0399
 20
-30.186
 30
0.0
 10
136.9394
 20
-30.6891
 30
0.0
 10
138.8029
 20
-31.4279
 30
0.0
 10
140.6075
 20
-32.393
 30
0.0
 10
140.6075
 20
-32.393
 30
0.0
 10
141.3976
 20
-32.7347
 30
0.0
 10
141.9474
 20
-33.7285
 30
0.0
 10
141.9817
 20
-34.8759
 30
0.0
 10
141.9817
 20
-34.8759
 30
0.0
 10
141.7695
 20
-35.504
 30
0.0
 10
141.4459
 20
-36.0479
 30
0.0
 10
141.042
 20
-36.4558
 30
0.0
 10
141.042
 20
-36.4558
 30
0.0
 10
139.9173
 20
-37.3359
 30
0.0
 10
138.6443
 20
-37.786
 30
0.0
 10
137.354
 20
-37.7603
 30
0.0
 10
137.354
 20
-37.7603
 30
0.0
 10
134.9687
 20
-37.8539
 30
0.0
 10
132.6364
 20
-36.7693
 30
0.0
 10
130.7736
 20
-34.7003
 30
0.0
 10
130.7736
 20
-34.7003
 30
0.0
 10
128.4722
 20
-32.2781
 30
0.0
 10
126.5008
 20
-29.3057
 30
0.0
 10
124.9528
 20
-25.9223
 30
0.0
 10
124.9528
 20
-25.9223
 30
0.0
 10
124.852
 20
-28.5618
 30
0.0
 10
124.8397
 20
-31.2064
 30
0.0
 10
124.9166
 20
-33.8477
 30
0.0
 10
124.9166
 20
-33.8477
 30
0.0
 10
124.9406
 20
-37.097
 30
0.0
 10
126.3038
 20
-40.0405
 30
0.0
 10
128.4238
 20
-41.4216
 30
0.0
 10
128.4238
 20
-41.4216
 30
0.0
 10
131.6545
 20
-43.1478
 30
0.0
 10
135.2136
 20
-43.2895
 30
0.0
 10
138.5109
 20
-41.8234
 30
0.0
 10
138.5109
 20
-41.8234
 30
0.0
 10
141.2058
 20
-41.0435
 30
0.0
 10
143.1461
 20
-37.767
 30
0.0
 10
143.1747
 20
-33.9479
 30
0.0
 10
143.1747
 20
-33.9479
 30
0.0
 10
144.8966
 20
-34.1529
 30
0.0
 10
146.6277
 20
-33.7384
 30
0.0
 10
148.2002
 20
-32.7439
 30
0.0
 10
148.2002
 20
-32.7439
 30
0.0
 10
149.7495
 20
-31.956
 30
0.0
 10
150.9884
 20
-30.3004
 30
0.0
 10
151.614
 20
-28.1823
 30
0.0
 10
151.614
 20
-28.1823
 30
0.0
 10
152.2397
 20
-26.064
 30
0.0
 10
152.1948
 20
-23.6786
 30
0.0
 10
151.4904
 20
-21.6084
 30
0.0
 10
151.4904
 20
-21.6084
 30
0.0
 10
150.3709
 20
-18.8295
 30
0.0
 10
148.3489
 20
-16.9776
 30
0.0
 10
146.0674
 20
-16.6426
 30
0.0
 10
146.0674
 20
-16.6426
 30
0.0
 10
142.3632
 20
-16.3214
 30
0.0
 10
138.6456
 20
-16.5062
 30
0.0
 10
134.9675
 20
-17.1946
 30
0.0
 10
134.9675
 20
-17.1946
 30
0.0
 10
137.6095
 20
-18.1292
 30
0.0
 10
140.1505
 20
-19.5461
 30
0.0
 10
142.524
 20
-21.4078
 30
0.0
 10
142.524
 20
-21.4078
 30
0.0
 10
144.1776
 20
-22.3605
 30
0.0
 10
145.5531
 20
-24.0565
 30
0.0
 10
146.4289
 20
-26.2232
 30
0.0
 10
146.4289
 20
-26.2232
 30
0.0
 10
146.9541
 20
-28.011
 30
0.0
 10
146.7618
 20
-30.0505
 30
0.0
 10
145.9228
 20
-31.5902
 30
0.0
 10
145.9228
 20
-31.5902
 30
0.0
 10
144.7328
 20
-32.8532
 30
0.0
 10
143.1025
 20
-32.9532
 30
0.0
 10
141.8373
 20
-31.8411
 30
0.0
 10
141.8373
 20
-31.8411
 30
0.0
 10
141.1154
 20
-31.1046
 30
0.0
 10
140.5627
 20
-30.0943
 30
0.0
 10
140.246
 20
-28.9319
 30
0.0
 10
140.246
 20
-28.9319
 30
0.0
 10
138.1813
 20
-22.8352
 30
0.0
 10
133.5344
 20
-19.2581
 30
0.0
 10
128.713
 20
-20.0535
 30
0.0
  0
SPLINE
  5
7D
330
1F
100
AcDbEntity
  8
layer 1
 62
     7
370
     9
100
AcDbSpline
210
0.0
220
0.0
230
1.0
 70
    11
 71
     3
 72
    20
 73
    16
 74
     0
 42
0.0000000001
 43
0.0000000001
 12
1.0
 22
0.0
 32
0.0
 13
1.0
 23
0.0
 33
0.0
 40
0.0
 40
0.0
 40
0.0
 40
0.0
 40
0.2
 40
0.2
 40
0.2
 40
0.2
 40
0.4
 40
0.4
 40
0.4
 40
0.4
 40
0.6
 40
0.6
 40
0.6
 40
0.6
 40
1.0
 40
1.0
 40
1.0
 40
1.0
 10
125.7119
 20
-53.0588
 30
0.0
 10
126.3119
 20
-49.4239
 30
0.0
 10
128.1853
 20
-46.4477
 30
0.0
 10
130.7013
 20
-45.1336
 30
0.0
 10
130.7013
 20
-45.1336
 30
0.0
 10
129.0418
 20
-44.8291
 30
0.0
 10
127.3545
 20
-45.1586
 30
0.0
 10
125.8205
 20
-46.0866
 30
0.0
 10
125.8205
 20
-46.0866
 30
0.0
 10
124.9604
 20
-46.8311
 30
0.0
 10
124.4299
 20
-48.1267
 30
0.0
 10
124.4077
 20
-49.5321
 30
0.0
 10
124.4077
 20
-49.5321
 30
0.0
 10
124.3861
 20
-50.9377
 30
0.0
 10
124.8764
 20
-52.2638
 30
0.0
 10
125.7119
 20
-53.0588
 30
0.0
  0
SPLINE
  5
7E
330
1F
100
AcDbEntity
  8
layer 1
 62
     7
370
     9
100
AcDbSpline
210
0.0
220
0.0
230
1.0
 70
    11
 71
     3
 72
    16
 73
    12
 74
     0
 42
0.0000000001
 43
0.0000000001
 12
1.0
 22
0.0
 32
0.0
 13
1.0
 23
0.0
 33
0.0
 40
0.0
 40
0.0
 40
0.0
 40
0.0
 40
0.25
 40
0.25
 40
0.25
 40
0.25
 40
0.5
 40
0.5
 40
0.5
 40
0.5
 40
1.0
 40
1.0
 40
1.0
 40
1.0
 10
129.3637
 20
-71.6181
 30
0.0
 10
127.3597
 20
-68.4526
 30
0.0
 10
126.9847
 20
-63.8922
 30
0.0
 10
128.4238
 20
-60.1816
 30
0.0
 10
128.4238
 20
-60.1816
 30
0.0
 10
126.1476
 20
-60.5419
 30
0.0
 10
124.5127
 20
-63.3939
 30
0.0
 10
124.7722
 20
-66.5519
 30
0.0
 10
124.7722
 20
-66.5519
 30
0.0
 10
125.0315
 20
-69.7103
 30
0.0
 10
127.0874
 20
-71.9784
 30
0.0
 10
129.3637
 20
-71.6181
 30
0.0
  0
SPLINE
  5
7F
330
1F
100
AcDbEntity
  8
layer 1
 62
     7
370
     9
100
AcDbSpline
210
0.0
220
0.0
230
1.0
 70
    11
 71
     3
 72
   108
 73
   104
 74
     0
 42
0.0000000001
 43
0.0000000001
 12
1.0
 22
0.0
 32
0.0
 13
1.0
 23
0.0
 33
0.0
 40
0.0
 40
0.0
 40
0.0
 40
0.0
 40
0.037037037037037
 40
0.037037037037037
 40
0.037037037037037
 40
0.037037037037037
 40
0.0740740740740741
 40
0.0740740740740741
 40
0.0740740740740741
 40
0.0740740740740741
 40
0.1111111111111111
 40
0.1111111111111111
 40
0.1111111111111111
 40
0.1111111111111111
 40
0.1481481481481481
 40
0.1481481481481481
 40
0.1481481481481481
 40
0.1481481481481481
 40
0.1851851851851852
 40
0.1851851851851852
 40
0.1851851851851852
 40
0.1851851851851852
 40
0.2222222222222222
 40
0.2222222222222222
 40
0.2222222222222222
 40
0.2222222222222222
 40
0.2592592592592592
 40
0.2592592592592592
 40
0.2592592592592592
 40
0.2592592592592592
 40
0.2962962962962963
 40
0.2962962962962963
 40
0.2962962962962963
 40
0.2962962962962963
 40
0.3333333333333333
 40
0.3333333333333333
 40
0.3333333333333333
 40
0.3333333333333333
 40
0.3703703703703703
 40
0.3703703703703703
 40
0.3703703703703703
 40
0.3703703703703703
 40
0.4074074074074074
 40
0.4074074074074074
 40
0.4074074074074074
 40
0.4074074074074074
 40
0.4444444444444444
 40
0.4444444444444444
 40
0.4444444444444444
 40
0.4444444444444444
 40
0.4814814814814815
 40
0.4814814814814815
 40
0.4814814814814815
 40
0.4814814814814815
 40
0.5185185185185185
 40
0.5185185185185185
 40
0.5185185185185185
 40
0.5185185185185185
 40
0.5555555555555556
 40
0.5555555555555556
 40
0.5555555555555556
 40
0.5555555555555556
 40
0.5925925925925926
 40
0.5925925925925926
 40
0.5925925925925926
 40
0.5925925925925926
 40
0.6296296296296297
 40
0.6296296296296297
 40
0.6296296296296297
 40
0.6296296296296297
 40
0.6666666666666666
 40
0.6666666666666666
 40
0.6666666666666666
 40
0.6666666666666666
 40
0.7037037037037037
 40
0.7037037037037037
 40
0.7037037037037037
 40
0.7037037037037037
 40
0.7407407407407407
 40
0.7407407407407407
 40
0.7407407407407407
 40
0.7407407407407407
 40
0.7777777777777778
 40
0.7777777777777778
 40
0.7777777777777778
 40
0.7777777777777778
 40
0.8148148148148148
 40
0.8148148148148148
 40
0.8148148148148148
 40
0.8148148148148148
 40
0.8518518518518519
 40
0.8518518518518519
 40
0.8518518518518519
 40
0.8518518518518519
 40
0.8888888888888888
 40
0.8888888888888888
 40
0.8888888888888888
 40
0.8888888888888888
 40
0.9259259259259259
 40
0.9259259259259259
 40
0.9259259259259259
 40
0.9259259259259259
 40
1.0
 40
1.0
 40
1.0
 40
1.0
 10
125.4229
 20
-57.6238
 30
0.0
 10
126.674
 20
-58.1771
 30
0.0
 10
128.0081
 20
-58.2633
 30
0.0
 10
129.2914
 20
-57.8744
 30
0.0
 10
129.2914
 20
-57.8744
 30
0.0
 10
131.2668
 20
-57.2864
 30
0.0
 10
133.121
 20
-56.086
 30
0.0
 10
134.7145
 20
-54.3633
 30
0.0
 10
134.7145
 20
-54.3633
 30
0.0
 10
134.1477
 20
-55.746
 30
0.0
 10
133.7215
 20
-57.2319
 30
0.0
 10
133.4493
 20
-58.7774
 30
0.0
 10
133.4493
 20
-58.7774
 30
0.0
 10
133.0883
 20
-60.6723
 30
0.0
 10
133.1134
 20
-62.6691
 30
0.0
 10
133.5215
 20
-64.5457
 30
0.0
 10
133.5215
 20
-64.5457
 30
0.0
 10
134.827
 20
-67.2396
 30
0.0
 10
137.2695
 20
-68.3898
 30
0.0
 10
139.4869
 20
-67.3545
 30
0.0
 10
139.4869
 20
-67.3545
 30
0.0
 10
138.7178
 20
-65.3641
 30
0.0
 10
139.0828
 20
-62.8957
 30
0.0
 10
140.3544
 20
-61.4859
 30
0.0
 10
140.3544
 20
-61.4859
 30
0.0
 10
140.8593
 20
-65.92
 30
0.0
 10
143.4314
 20
-69.3444
 30
0.0
 10
146.6452
 20
-69.8626
 30
0.0
 10
146.6452
 20
-69.8626
 30
0.0
 10
147.8825
 20
-66.5024
 30
0.0
 10
147.4306
 20
-62.4212
 30
0.0
 10
145.5245
 20
-59.7304
 30
0.0
 10
145.5245
 20
-59.7304
 30
0.0
 10
146.4254
 20
-59.1211
 30
0.0
 10
147.2544
 20
-58.3261
 30
0.0
 10
147.9833
 20
-57.3727
 30
0.0
 10
147.9833
 20
-57.3727
 30
0.0
 10
148.539
 20
-56.5655
 30
0.0
 10
148.7973
 20
-55.4493
 30
0.0
 10
148.6848
 20
-54.344
 30
0.0
 10
148.6848
 20
-54.344
 30
0.0
 10
148.5722
 20
-53.2388
 30
0.0
 10
148.1005
 20
-52.2661
 30
0.0
 10
147.4048
 20
-51.7045
 30
0.0
 10
147.4048
 20
-51.7045
 30
0.0
 10
145.9823
 20
-51.045
 30
0.0
 10
144.4563
 20
-50.9409
 30
0.0
 10
142.9941
 20
-51.4037
 30
0.0
 10
142.9941
 20
-51.4037
 30
0.0
 10
143.6476
 20
-52.1769
 30
0.0
 10
144.1147
 20
-53.2099
 30
0.0
 10
144.3315
 20
-54.3633
 30
0.0
 10
144.3315
 20
-54.3633
 30
0.0
 10
144.6143
 20
-54.9971
 30
0.0
 10
144.6849
 20
-55.7701
 30
0.0
 10
144.5257
 20
-56.482
 30
0.0
 10
144.5257
 20
-56.482
 30
0.0
 10
144.366
 20
-57.1936
 30
0.0
 10
143.9922
 20
-57.7746
 30
0.0
 10
143.5002
 20
-58.0748
 30
0.0
 10
143.5002
 20
-58.0748
 30
0.0
 10
142.5106
 20
-58.3506
 30
0.0
 10
141.4856
 20
-58.2468
 30
0.0
 10
140.5352
 20
-57.7742
 30
0.0
 10
140.5352
 20
-57.7742
 30
0.0
 10
138.0607
 20
-56.937
 30
0.0
 10
136.1494
 20
-54.208
 30
0.0
 10
135.6182
 20
-50.7515
 30
0.0
 10
135.6182
 20
-50.7515
 30
0.0
 10
135.469
 20
-48.2886
 30
0.0
 10
136.61
 20
-46.0295
 30
0.0
 10
138.3301
 20
-45.3844
 30
0.0
 10
138.3301
 20
-45.3844
 30
0.0
 10
141.0559
 20
-44.5638
 30
0.0
 10
143.8738
 20
-44.5298
 30
0.0
 10
146.6095
 20
-45.2842
 30
0.0
 10
146.6095
 20
-45.2842
 30
0.0
 10
148.2947
 20
-45.7064
 30
0.0
 10
149.8531
 20
-46.8052
 30
0.0
 10
151.0922
 20
-48.4443
 30
0.0
 10
151.0922
 20
-48.4443
 30
0.0
 10
152.5767
 20
-51.7478
 30
0.0
 10
153.1061
 20
-55.7075
 30
0.0
 10
152.5749
 20
-59.5297
 30
0.0
 10
152.5749
 20
-59.5297
 30
0.0
 10
153.6408
 20
-56.0695
 30
0.0
 10
153.4805
 20
-52.1175
 30
0.0
 10
152.1411
 20
-48.8456
 30
0.0
 10
152.1411
 20
-48.8456
 30
0.0
 10
150.2777
 20
-45.9543
 30
0.0
 10
147.6329
 20
-44.265
 30
0.0
 10
144.8377
 20
-44.1806
 30
0.0
 10
144.8377
 20
-44.1806
 30
0.0
 10
141.3294
 20
-43.511
 30
0.0
 10
137.7622
 20
-43.7493
 30
0.0
 10
134.3168
 20
-44.8827
 30
0.0
 10
134.3168
 20
-44.8827
 30
0.0
 10
132.1345
 20
-46.0597
 30
0.0
 10
130.3176
 20
-48.2606
 30
0.0
 10
129.1829
 20
-51.1026
 30
0.0
 10
129.1829
 20
-51.1026
 30
0.0
 10
128.2157
 20
-53.566
 30
0.0
 10
126.9427
 20
-55.7735
 30
0.0
 10
125.4229
 20
-57.6238
 30
0.0
  0
SPLINE
  5
80
330
1F
100
AcDbEntity
  8
layer 1
 62
     7
370
     9
100
AcDbSpline
210
0.0
220
0.0
230
1.0
 70
    11
 71
     3
 72
   104
 73
   100
 74
     0
 42
0.0000000001
 43
0.0000000001
 12
1.0
 22
0.0
 32
0.0
 13
1.0
 23
0.0
 33
0.0
 40
0.0
 40
0.0
 40
0.0
 40
0.0
 40
0.0384615384615385
 40
0.0384615384615385
 40
0.0384615384615385
 40
0.0384615384615385
 40
0.0769230769230769
 40
0.0769230769230769
 40
0.0769230769230769
 40
0.0769230769230769
 40
0.1153846153846154
 40
0.1153846153846154
 40
0.1153846153846154
 40
0.1153846153846154
 40
0.1538461538461539
 40
0.1538461538461539
 40
0.1538461538461539
 40
0.1538461538461539
 40
0.1923076923076923
 40
0.1923076923076923
 40
0.1923076923076923
 40
0.1923076923076923
 40
0.2307692307692308
 40
0.2307692307692308
 40
0.2307692307692308
 40
0.2307692307692308
 40
0.2692307692307692
 40
0.2692307692307692
 40
0.2692307692307692
 40
0.2692307692307692
 40
0.3076923076923077
 40
0.3076923076923077
 40
0.3076923076923077
 40
0.3076923076923077
 40
0.3461538461538461
 40
0.3461538461538461
 40
0.3461538461538461
 40
0.3461538461538461
 40
0.3846153846153846
 40
0.3846153846153846
 40
0.3846153846153846
 40
0.3846153846153846
 40
0.4230769230769231
 40
0.4230769230769231
 40
0.4230769230769231
 40
0.4230769230769231
 40
0.4615384615384616
 40
0.4615384615384616
 40
0.4615384615384616
 40
0.4615384615384616
 40
0.5
 40
0.5
 40
0.5
 40
0.5
 40
0.5384615384615384
 40
0.5384615384615384
 40
0.5384615384615384
 40
0.5384615384615384
 40
0.5769230769230769
 40
0.5769230769230769
 40
0.5769230769230769
 40
0.5769230769230769
 40
0.6153846153846154
 40
0.6153846153846154
 40
0.6153846153846154
 40
0.6153846153846154
 40
0.6538461538461539
 40
0.6538461538461539
 40
0.6538461538461539
 40
0.6538461538461539
 40
0.6923076923076923
 40
0.6923076923076923
 40
0.6923076923076923
 40
0.6923076923076923
 40
0.7307692307692307
 40
0.7307692307692307
 40
0.7307692307692307
 40
0.7307692307692307
 40
0.7692307692307693
 40
0.7692307692307693
 40
0.7692307692307693
 40
0.7692307692307693
 40
0.8076923076923077
 40
0.8076923076923077
 40
0.8076923076923077
 40
0.8076923076923077
 40
0.8461538461538461
 40
0.8461538461538461
 40
0.8461538461538461
 40
0.8461538461538461
 40
0.8846153846153846
 40
0.8846153846153846
 40
0.8846153846153846
 40
0.8846153846153846
 40
0.9230769230769231
 40
0.9230769230769231
 40
0.9230769230769231
 40
0.9230769230769231
 40
1.0
 40
1.0
 40
1.0
 40
1.0
 10
166.7113
 20
-34.9009
 30
0.0
 10
164.7156
 20
-35.1174
 30
0.0
 10
162.7103
 20
-34.6879
 30
0.0
 10
160.8545
 20
-33.6471
 30
0.0
 10
160.8545
 20
-33.6471
 30
0.0
 10
160.5997
 20
-35.4189
 30
0.0
 10
161.0077
 20
-37.2494
 30
0.0
 10
161.9389
 20
-38.5127
 30
0.0
 10
161.9389
 20
-38.5127
 30
0.0
 10
163.7249
 20
-39.7571
 30
0.0
 10
165.8415
 20
-39.6819
 30
0.0
 10
167.5789
 20
-38.312
 30
0.0
 10
167.5789
 20
-38.312
 30
0.0
 10
168.3882
 20
-37.7324
 30
0.0
 10
169.0366
 20
-36.7975
 30
0.0
 10
169.4232
 20
-35.6533
 30
0.0
 10
169.4232
 20
-35.6533
 30
0.0
 10
172.7268
 20
-37.9316
 30
0.0
 10
176.5412
 20
-38.3274
 30
0.0
 10
180.0524
 20
-36.7571
 30
0.0
 10
180.0524
 20
-36.7571
 30
0.0
 10
179.7604
 20
-34.6462
 30
0.0
 10
178.5976
 20
-32.9741
 30
0.0
 10
177.0875
 20
-32.4935
 30
0.0
 10
177.0875
 20
-32.4935
 30
0.0
 10
175.3005
 20
-31.6434
 30
0.0
 10
173.4411
 20
-31.1204
 30
0.0
 10
171.556
 20
-30.9383
 30
0.0
 10
171.556
 20
-30.9383
 30
0.0
 10
173.3648
 20
-29.7136
 30
0.0
 10
175.4299
 20
-29.4288
 30
0.0
 10
177.3774
 20
-30.1358
 30
0.0
 10
177.3774
 20
-30.1358
 30
0.0
 10
177.5675
 20
-28.6898
 30
0.0
 10
177.2999
 20
-27.1995
 30
0.0
 10
176.6421
 20
-26.0473
 30
0.0
 10
176.6421
 20
-26.0473
 30
0.0
 10
175.9844
 20
-24.8946
 30
0.0
 10
175.0008
 20
-24.1911
 30
0.0
 10
173.9419
 20
-24.1165
 30
0.0
 10
173.9419
 20
-24.1165
 30
0.0
 10
170.8896
 20
-24.1642
 30
0.0
 10
167.8436
 20
-24.533
 30
0.0
 10
164.8316
 20
-25.22
 30
0.0
 10
164.8316
 20
-25.22
 30
0.0
 10
165.9725
 20
-23.8281
 30
0.0
 10
166.832
 20
-22.0475
 30
0.0
 10
167.3258
 20
-20.0535
 30
0.0
 10
167.3258
 20
-20.0535
 30
0.0
 10
167.681
 20
-18.8602
 30
0.0
 10
167.5719
 20
-17.4982
 30
0.0
 10
167.0368
 20
-16.442
 30
0.0
 10
167.0368
 20
-16.442
 30
0.0
 10
165.0065
 20
-18.2776
 30
0.0
 10
162.7704
 20
-19.6337
 30
0.0
 10
160.4207
 20
-20.4548
 30
0.0
 10
160.4207
 20
-20.4548
 30
0.0
 10
157.924
 20
-21.1627
 30
0.0
 10
155.6489
 20
-22.9338
 30
0.0
 10
153.9125
 20
-25.521
 30
0.0
 10
153.9125
 20
-25.521
 30
0.0
 10
153.1055
 20
-28.8446
 30
0.0
 10
153.0425
 20
-32.4295
 30
0.0
 10
153.7317
 20
-35.8041
 30
0.0
 10
153.7317
 20
-35.8041
 30
0.0
 10
154.3107
 20
-39.0843
 30
0.0
 10
156.1223
 20
-41.6745
 30
0.0
 10
158.4679
 20
-42.5757
 30
0.0
 10
158.4679
 20
-42.5757
 30
0.0
 10
161.9931
 20
-43.7275
 30
0.0
 10
165.6554
 20
-43.813
 30
0.0
 10
169.2057
 20
-42.8261
 30
0.0
 10
169.2057
 20
-42.8261
 30
0.0
 10
166.169
 20
-43.1474
 30
0.0
 10
163.1144
 20
-42.877
 30
0.0
 10
160.1309
 20
-42.0235
 30
0.0
 10
160.1309
 20
-42.0235
 30
0.0
 10
158.416
 20
-41.5487
 30
0.0
 10
156.8207
 20
-40.459
 30
0.0
 10
155.5036
 20
-38.8637
 30
0.0
 10
155.5036
 20
-38.8637
 30
0.0
 10
154.3755
 20
-36.6909
 30
0.0
 10
153.9434
 20
-33.9688
 30
0.0
 10
154.3102
 20
-31.3396
 30
0.0
 10
154.3102
 20
-31.3396
 30
0.0
 10
154.7801
 20
-28.8918
 30
0.0
 10
156.2616
 20
-27.0732
 30
0.0
 10
158.0702
 20
-26.7251
 30
0.0
 10
158.0702
 20
-26.7251
 30
0.0
 10
161.7821
 20
-25.8354
 30
0.0
 10
165.5488
 20
-27.8143
 30
0.0
 10
167.9043
 20
-31.8913
 30
0.0
 10
167.9043
 20
-31.8913
 30
0.0
 10
168.1124
 20
-32.5063
 30
0.0
 10
168.0962
 20
-33.2222
 30
0.0
 10
167.86
 20
-33.8175
 30
0.0
 10
167.86
 20
-33.8175
 30
0.0
 10
167.6238
 20
-34.4127
 30
0.0
 10
167.1971
 20
-34.8154
 30
0.0
 10
166.7113
 20
-34.9009
 30
0.0
  0
SPLINE
  5
81
330
1F
100
AcDbEntity
  8
layer 1
 62
     7
370
     9
100
AcDbSpline
210
0.0
220
0.0
230
1.0
 70
    11
 71
     3
 72
    48
 73
    44
 74
     0
 42
0.0000000001
 43
0.0000000001
 12
1.0
 22
0.0
 32
0.0
 13
1.0
 23
0.0
 33
0.0
 40
0.0
 40
0.0
 40
0.0
 40
0.0
 40
0.0833333333333333
 40
0.0833333333333333
 40
0.0833333333333333
 40
0.0833333333333333
 40
0.1666666666666667
 40
0.1666666666666667
 40
0.1666666666666667
 40
0.1666666666666667
 40
0.25
 40
0.25
 40
0.25
 40
0.25
 40
0.3333333333333333
 40
0.3333333333333333
 40
0.3333333333333333
 40
0.3333333333333333
 40
0.4166666666666667
 40
0.4166666666666667
 40
0.4166666666666667
 40
0.4166666666666667
 40
0.5
 40
0.5
 40
0.5
 40
0.5
 40
0.5833333333333334
 40
0.5833333333333334
 40
0.5833333333333334
 40
0.5833333333333334
 40
0.6666666666666666
 40
0.6666666666666666
 40
0.6666666666666666
 40
0.6666666666666666
 40
0.75
 40
0.75
 40
0.75
 40
0.75
 40
0.8333333333333334
 40
0.8333333333333334
 40
0.8333333333333334
 40
0.8333333333333334
 40
1.0
 40
1.0
 40
1.0
 40
1.0
 10
179.9078
 20
-72.8222
 30
0.0
 10
176.8404
 20
-76.0556
 30
0.0
 10
173.234
 20
-78.1604
 30
0.0
 10
169.4232
 20
-78.9416
 30
0.0
 10
169.4232
 20
-78.9416
 30
0.0
 10
165.8553
 20
-79.7502
 30
0.0
 10
162.1954
 20
-78.9593
 30
0.0
 10
158.974
 20
-76.6844
 30
0.0
 10
158.974
 20
-76.6844
 30
0.0
 10
156.0932
 20
-74.2306
 30
0.0
 10
154.5323
 20
-69.6429
 30
0.0
 10
154.9976
 20
-64.997
 30
0.0
 10
154.9976
 20
-64.997
 30
0.0
 10
155.362
 20
-61.1903
 30
0.0
 10
155.5071
 20
-57.349
 30
0.0
 10
155.4308
 20
-53.5105
 30
0.0
 10
155.4308
 20
-53.5105
 30
0.0
 10
156.1829
 20
-55.2374
 30
0.0
 10
157.1363
 20
-56.7797
 30
0.0
 10
158.2511
 20
-58.0748
 30
0.0
 10
158.2511
 20
-58.0748
 30
0.0
 10
161.3489
 20
-60.3772
 30
0.0
 10
164.7896
 20
-61.6478
 30
0.0
 10
168.302
 20
-61.7868
 30
0.0
 10
168.302
 20
-61.7868
 30
0.0
 10
169.7835
 20
-61.9548
 30
0.0
 10
171.1829
 20
-62.8019
 30
0.0
 10
172.279
 20
-64.1942
 30
0.0
 10
172.279
 20
-64.1942
 30
0.0
 10
170.7892
 20
-65.684
 30
0.0
 10
169.1591
 20
-66.8821
 30
0.0
 10
167.4344
 20
-67.756
 30
0.0
 10
167.4344
 20
-67.756
 30
0.0
 10
165.7563
 20
-68.6743
 30
0.0
 10
163.8963
 20
-68.7278
 30
0.0
 10
162.192
 20
-67.9062
 30
0.0
 10
162.192
 20
-67.9062
 30
0.0
 10
163.0952
 20
-69.5787
 30
0.0
 10
164.2561
 20
-70.95
 30
0.0
 10
165.5907
 20
-71.9194
 30
0.0
 10
165.5907
 20
-71.9194
 30
0.0
 10
170.2995
 20
-73.2556
 30
0.0
 10
175.1308
 20
-73.5603
 30
0.0
 10
179.9078
 20
-72.8222
 30
0.0
  0
SPLINE
  5
82
330
1F
100
AcDbEntity
  8
layer 1
 62
     7
370
     9
100
AcDbSpline
210
0.0
220
0.0
230
1.0
 70
    11
 71
     3
 72
    40
 73
    36
 74
     0
 42
0.0000000001
 43
0.0000000001
 12
1.0
 22
0.0
 32
0.0
 13
1.0
 23
0.0
 33
0.0
 40
0.0
 40
0.0
 40
0.0
 40
0.0
 40
0.1
 40
0.1
 40
0.1
 40
0.1
 40
0.2
 40
0.2
 40
0.2
 40
0.2
 40
0.3
 40
0.3
 40
0.3
 40
0.3
 40
0.4
 40
0.4
 40
0.4
 40
0.4
 40
0.5
 40
0.5
 40
0.5
 40
0.5
 40
0.6
 40
0.6
 40
0.6
 40
0.6
 40
0.7
 40
0.7
 40
0.7
 40
0.7
 40
0.8
 40
0.8
 40
0.8
 40
0.8
 40
1.0
 40
1.0
 40
1.0
 40
1.0
 10
183.9573
 20
-68.8094
 30
0.0
 10
185.2079
 20
-62.141
 30
0.0
 10
183.1101
 20
-55.1324
 30
0.0
 10
178.8234
 20
-51.6543
 30
0.0
 10
178.8234
 20
-51.6543
 30
0.0
 10
179.2116
 20
-53.4023
 30
0.0
 10
179.0123
 20
-55.2995
 30
0.0
 10
178.2811
 20
-56.821
 30
0.0
 10
178.2811
 20
-56.821
 30
0.0
 10
177.4812
 20
-58.8342
 30
0.0
 10
176.308
 20
-60.5139
 30
0.0
 10
174.8823
 20
-61.6863
 30
0.0
 10
174.8823
 20
-61.6863
 30
0.0
 10
173.4229
 20
-61.0445
 30
0.0
 10
172.3291
 20
-59.3545
 30
0.0
 10
172.026
 20
-57.2722
 30
0.0
 10
172.026
 20
-57.2722
 30
0.0
 10
171.1257
 20
-51.5525
 30
0.0
 10
167.9055
 20
-47.0852
 30
0.0
 10
163.7826
 20
-45.8359
 30
0.0
 10
163.7826
 20
-45.8359
 30
0.0
 10
168.9165
 20
-44.9779
 30
0.0
 10
174.0912
 20
-44.6924
 30
0.0
 10
179.2571
 20
-44.9832
 30
0.0
 10
179.2571
 20
-44.9832
 30
0.0
 10
182.2698
 20
-44.7422
 30
0.0
 10
185.2453
 20
-46.0056
 30
0.0
 10
187.6451
 20
-48.5447
 30
0.0
 10
187.6451
 20
-48.5447
 30
0.0
 10
188.8199
 20
-50.0407
 30
0.0
 10
189.6602
 20
-51.973
 30
0.0
 10
190.0671
 20
-54.1124
 30
0.0
 10
190.0671
 20
-54.1124
 30
0.0
 10
190.5843
 20
-60.3431
 30
0.0
 10
188.1034
 20
-66.3102
 30
0.0
 10
183.9573
 20
-68.8094
 30
0.0
  0
ENDSEC
  0
SECTION
  2
OBJECTS
  0
DICTIONARY
  5
C
330
0
100
AcDbDictionary
281
     1
  3
ACAD_GROUP
350
D
  3
ACAD_LAYOUT
350
1A
  3
ACAD_MATERIAL
350
3B
  3
ACAD_MLEADERSTYLE
350
A4
  3
ACAD_MLINESTYLE
350
17
  3
ACAD_PLOTSETTINGS
350
19
  3
ACAD_PLOTSTYLENAME
350
E
  3
ACAD_TABLESTYLE
350
A3
  3
ACAD_VISUALSTYLE
350
2A
  0
DICTIONARY
  5
D
102
{ACAD_REACTORS
330
C
102
}
330
C
100
AcDbDictionary
281
     1
  0
DICTIONARY
  5
1A
102
{ACAD_REACTORS
330
C
102
}
330
C
100
AcDbDictionary
281
     1
  3
Layout1
350
1E
  3
Layout2
350
26
  3
Model
350
22
  0
DICTIONARY
  5
3B
102
{ACAD_REACTORS
330
C
102
}
330
C
100
AcDbDictionary
281
     1
  3
ByBlock
350
3D
  3
ByLayer
350
3C
  3
Global
350
3E
  0
DICTIONARY
  5
A4
102
{ACAD_REACTORS
330
C
102
}
330
C
100
AcDbDictionary
281
     1
  0
DICTIONARY
  5
17
102
{ACAD_REACTORS
330
C
102
}
330
C
100
AcDbDictionary
281
     1
  3
Standard
350
18
  0
DICTIONARY
  5
19
102
{ACAD_REACTORS
330
C
102
}
330
C
100
AcDbDictionary
281
     1
  0
ACDBDICTIONARYWDFLT
  5
E
102
{ACAD_REACTORS
330
C
102
}
330
C
100
AcDbDictionary
281
     1
  3
Normal
350
F
100
AcDbDictionaryWithDefault
340
F
  0
DICTIONARY
  5
A3
102
{ACAD_REACTORS
330
C
102
}
330
C
100
AcDbDictionary
281
     1
  0
DICTIONARY
  5
2A
102
{ACAD_REACTORS
330
C
102
}
330
C
100
AcDbDictionary
281
     1
  3
2dWireframe
350
2F
  3
3D Hidden
350
31
  3
3dWireframe
350
30
  3
Basic
350
32
  3
Brighten
350
36
  3
ColorChange
350
3A
  3
Conceptual
350
34
  3
Dim
350
35
  3
Facepattern
350
39
  3
Flat
350
2B
  3
FlatWithEdges
350
2C
  3
Gouraud
350
2D
  3
GouraudWithEdges
350
2E
  3
Linepattern
350
38
  3
Realistic
350
33
  3
Thicken
350
37
  0
LAYOUT
  5
1E
102
{ACAD_REACTORS
330
1A
102
}
330
1A
100
AcDbPlotSettings
  1

  2
none_device
  4

  6

 40
0.0
 41
0.0
 42
0.0
 43
0.0
 44
0.0
 45
0.0
 46
0.0
 47
0.0
 48
0.0
 49
0.0
140
0.0
141
0.0
142
1.0
143
1.0
 70
   688
 72
     0
 73
     0
 74
     5
  7

 75
    16
 76
     0
 77
     2
 78
   300
147
1.0
148
0.0
149
0.0
100
AcDbLayout
  1
Layout1
 70
     1
 71
     1
 10
0.0
 20
0.0
 11
12.0
 21
9.0
 12
0.0
 22
0.0
 32
0.0
 14
1.000000000000000E+20
 24
1.000000000000000E+20
 34
1.000000000000000E+20
 15
-1.000000000000000E+20
 25
-1.000000000000000E+20
 35
-1.000000000000000E+20
146
0.0
 13
0.0
 23
0.0
 33
0.0
 16
1.0
 26
0.0
 36
0.0
 17
0.0
 27
1.0
 37
0.0
 76
     0
330
1B
  0
LAYOUT
  5
26
102
{ACAD_REACTORS
330
1A
102
}
330
1A
100
AcDbPlotSettings
  1

  2
none_device
  4

  6

 40
0.0
 41
0.0
 42
0.0
 43
0.0
 44
0.0
 45
0.0
 46
0.0
 47
0.0
 48
0.0
 49
0.0
140
0.0
141
0.0
142
1.0
143
1.0
 70
   688
 72
     0
 73
     0
 74
     5
  7

 75
    16
 76
     0
 77
     2
 78
   300
147
1.0
148
0.0
149
0.0
100
AcDbLayout
  1
Layout2
 70
     1
 71
     2
 10
0.0
 20
0.0
 11
0.0
 21
0.0
 12
0.0
 22
0.0
 32
0.0
 14
0.0
 24
0.0
 34
0.0
 15
0.0
 25
0.0
 35
0.0
146
0.0
 13
0.0
 23
0.0
 33
0.0
 16
1.0
 26
0.0
 36
0.0
 17
0.0
 27
1.0
 37
0.0
 76
     0
330
23
  0
LAYOUT
  5
22
102
{ACAD_REACTORS
330
1A
102
}
330
1A
100
AcDbPlotSettings
  1

  2
none_device
  4

  6

 40
0.0
 41
0.0
 42
0.0
 43
0.0
 44
0.0
 45
0.0
 46
0.0
 47
0.0
 48
0.0
 49
0.0
140
0.0
141
0.0
142
1.0
143
1.0
 70
  1712
 72
     0
 73
     0
 74
     0
  7

 75
     0
 76
     0
 77
     2
 78
   300
147
1.0
148
0.0
149
0.0
100
AcDbLayout
  1
Model
 70
     1
 71
     0
 10
0.0
 20
0.0
 11
12.0
 21
9.0
 12
0.0
 22
0.0
 32
0.0
 14
12.04
 24
-88.7109
 34
0.0
 15
196.5045
 25
95.7537
 35
0.0
146
0.0
 13
0.0
 23
0.0
 33
0.0
 16
1.0
 26
0.0
 36
0.0
 17
0.0
 27
1.0
 37
0.0
 76
     0
330
1F
331
29
  0
MATERIAL
  5
3D
102
{ACAD_REACTORS
330
3B
102
}
330
3B
100
AcDbMaterial
  1
ByBlock
 72
     1
 94
      127
  0
MATERIAL
  5
3C
102
{ACAD_REACTORS
330
3B
102
}
330
3B
100
AcDbMaterial
  1
ByLayer
 72
     1
 94
      127
  0
MATERIAL
  5
3E
102
{ACAD_REACTORS
330
3B
102
}
330
3B
100
AcDbMaterial
  1
Global
 72
     1
 94
      127
  0
MLINESTYLE
  5
18
102
{ACAD_REACTORS
330
17
102
}
330
17
100
AcDbMlineStyle
  2
Standard
 70
     0
  3

 62
   256
 51
90.0
 52
90.0
 71
     2
 49
0.5
 62
   256
  6
BYLAYER
 49
-0.5
 62
   256
  6
BYLAYER
  0
ACDBPLACEHOLDER
  5
F
102
{ACAD_REACTORS
330
E
102
}
330
E
  0
VISUALSTYLE
  5
2F
102
{ACAD_REACTORS
330
2A
102
}
102
{ACAD_XDICTIONARY
360
8B
102
}
330
2A
100
AcDbVisualStyle
  2
2dWireframe
 70
     4
 71
     0
 72
     2
 73
     0
 90
        0
 40
-0.6
 41
-30.0
 62
     5
 63
     7
421
 16777215
 74
     1
 91
        4
 64
     7
 65
   257
 75
     1
175
     1
 42
1.0
 92
        0
 66
   257
 43
1.0
 76
     1
 77
     6
 78
     2
 67
     7
 79
     5
170
     0
171
     0
290
     0
174
     0
 93
        1
 44
0.0
173
     0
291
     0
 45
0.0
  0
VISUALSTYLE
  5
31
102
{ACAD_REACTORS
330
2A
102
}
102
{ACAD_XDICTIONARY
360
8F
102
}
330
2A
100
AcDbVisualStyle
  2
3D Hidden
 70
     6
 71
     1
 72
     2
 73
     2
 90
        0
 40
-0.6
 41
-30.0
 62
     5
 63
     7
421
 16777215
 74
     2
 91
        2
 64
     7
 65
   257
 75
     2
175
     1
 42
40.0
 92
        0
 66
   257
 43
1.0
 76
     1
 77
     6
 78
     2
 67
     7
 79
     3
170
     0
171
     0
290
     0
174
     0
 93
        1
 44
0.0
173
     0
291
     0
 45
0.0
  0
VISUALSTYLE
  5
30
102
{ACAD_REACTORS
330
2A
102
}
102
{ACAD_XDICTIONARY
360
8D
102
}
330
2A
100
AcDbVisualStyle
  2
3dWireframe
 70
     5
 71
     0
 72
     2
 73
     0
 90
        0
 40
-0.6
 41
-30.0
 62
     5
 63
     7
421
 16777215
 74
     1
 91
        4
 64
     7
 65
   257
 75
     1
175
     1
 42
1.0
 92
        0
 66
   257
 43
1.0
 76
     1
 77
     6
 78
     2
 67
     7
 79
     5
170
     0
171
     0
290
     0
174
     0
 93
        1
 44
0.0
173
     0
291
     0
 45
0.0
  0
VISUALSTYLE
  5
32
102
{ACAD_REACTORS
330
2A
102
}
102
{ACAD_XDICTIONARY
360
91
102
}
330
2A
100
AcDbVisualStyle
  2
Basic
 70
     7
 71
     1
 72
     0
 73
     1
 90
        0
 40
-0.6
 41
-30.0
 62
     5
 63
     7
421
 16777215
 74
     0
 91
        4
 64
     7
 65
   257
 75
     1
175
     1
 42
1.0
 92
        8
 66
     7
 43
1.0
 76
     1
 77
     6
 78
     2
 67
     7
 79
     5
170
     0
171
     0
290
     0
174
     0
 93
        1
 44
0.0
173
     0
291
     1
 45
0.0
  0
VISUALSTYLE
  5
36
102
{ACAD_REACTORS
330
2A
102
}
102
{ACAD_XDICTIONARY
360
99
102
}
330
2A
100
AcDbVisualStyle
  2
Brighten
 70
    12
 71
     2
 72
     2
 73
     0
 90
        0
 40
-0.6
 41
-30.0
 62
     5
 63
     7
421
 16777215
 74
     1
 91
        4
 64
     7
 65
   257
 75
     1
175
     1
 42
1.0
 92
        8
 66
     7
 43
1.0
 76
     1
 77
     6
 78
     2
 67
     7
 79
     5
170
     0
171
     0
290
     0
174
     0
 93
        1
 44
50.0
173
     0
291
     1
 45
0.0
  0
VISUALSTYLE
  5
3A
102
{ACAD_REACTORS
330
2A
102
}
102
{ACAD_XDICTIONARY
360
A1
102
}
330
2A
100
AcDbVisualStyle
  2
ColorChange
 70
    16
 71
     2
 72
     2
 73
     3
 90
        0
 40
-0.6
 41
-30.0
 62
     5
 63
     8
421
  8421504
 74
     1
 91
        4
 64
     7
 65
   257
 75
     1
175
     1
 42
1.0
 92
        8
 66
     8
424
  8421504
 43
1.0
 76
     1
 77
     6
 78
     2
 67
     7
 79
     5
170
     0
171
     0
290
     0
174
     0
 93
        1
 44
0.0
173
     0
291
     1
 45
0.0
  0
VISUALSTYLE
  5
34
102
{ACAD_REACTORS
330
2A
102
}
102
{ACAD_XDICTIONARY
360
95
102
}
330
2A
100
AcDbVisualStyle
  2
Conceptual
 70
     9
 71
     3
 72
     2
 73
     0
 90
        0
 40
-0.6
 41
-30.0
 62
     5
 63
     7
421
 16777215
 74
     2
 91
        2
 64
     7
 65
   257
 75
     1
175
     1
 42
40.0
 92
        8
 66
     7
 43
1.0
 76
     1
 77
     6
 78
     2
 67
     7
 79
     3
170
     0
171
     0
290
     0
174
     0
 93
        1
 44
0.0
173
     0
291
     0
 45
0.0
  0
VISUALSTYLE
  5
35
102
{ACAD_REACTORS
330
2A
102
}
102
{ACAD_XDICTIONARY
360
97
102
}
330
2A
100
AcDbVisualStyle
  2
Dim
 70
    11
 71
     2
 72
     2
 73
     0
 90
        0
 40
-0.6
 41
-30.0
 62
     5
 63
     7
421
 16777215
 74
     1
 91
        4
 64
     7
 65
   257
 75
     1
175
     1
 42
1.0
 92
        8
 66
     7
 43
1.0
 76
     1
 77
     6
 78
     2
 67
     7
 79
     5
170
     0
171
     0
290
     0
174
     0
 93
        1
 44
-50.0
173
     0
291
     1
 45
0.0
  0
VISUALSTYLE
  5
39
102
{ACAD_REACTORS
330
2A
102
}
102
{ACAD_XDICTIONARY
360
9F
102
}
330
2A
100
AcDbVisualStyle
  2
Facepattern
 70
    15
 71
     2
 72
     2
 73
     0
 90
        0
 40
-0.6
 41
-30.0
 62
     5
 63
     7
421
 16777215
 74
     1
 91
        4
 64
     7
 65
   257
 75
     1
175
     1
 42
1.0
 92
        8
 66
     7
 43
1.0
 76
     1
 77
     6
 78
     2
 67
     7
 79
     5
170
     0
171
     0
290
     0
174
     0
 93
        1
 44
0.0
173
     0
291
     1
 45
0.0
  0
VISUALSTYLE
  5
2B
102
{ACAD_REACTORS
330
2A
102
}
102
{ACAD_XDICTIONARY
360
83
102
}
330
2A
100
AcDbVisualStyle
  2
Flat
 70
     0
 71
     2
 72
     1
 73
     1
 90
        2
 40
-0.6
 41
30.0
 62
     5
 63
     7
421
 16777215
 74
     0
 91
        4
 64
     7
 65
   257
 75
     1
175
     1
 42
1.0
 92
        8
 66
     7
 43
1.0
 76
     1
 77
     6
 78
     2
 67
     7
 79
     5
170
     0
171
     0
290
     0
174
     0
 93
       13
 44
0.0
173
     0
291
     1
 45
0.0
  0
VISUALSTYLE
  5
2C
102
{ACAD_REACTORS
330
2A
102
}
102
{ACAD_XDICTIONARY
360
85
102
}
330
2A
100
AcDbVisualStyle
  2
FlatWithEdges
 70
     1
 71
     2
 72
     1
 73
     1
 90
        2
 40
-0.6
 41
30.0
 62
     5
 63
     7
421
 16777215
 74
     1
 91
        4
 64
     7
 65
   257
 75
     1
175
     1
 42
1.0
 92
        0
 66
   257
 43
1.0
 76
     1
 77
     6
 78
     2
 67
     7
 79
     5
170
     0
171
     0
290
     0
174
     0
 93
       13
 44
0.0
173
     0
291
     1
 45
0.0
  0
VISUALSTYLE
  5
2D
102
{ACAD_REACTORS
330
2A
102
}
102
{ACAD_XDICTIONARY
360
87
102
}
330
2A
100
AcDbVisualStyle
  2
Gouraud
 70
     2
 71
     2
 72
     2
 73
     1
 90
        2
 40
-0.6
 41
30.0
 62
     5
 63
     7
421
 16777215
 74
     0
 91
        4
 64
     7
 65
   257
 75
     1
175
     1
 42
1.0
 92
        0
 66
     7
 43
1.0
 76
     1
 77
     6
 78
     2
 67
     7
 79
     5
170
     0
171
     0
290
     0
174
     0
 93
       13
 44
0.0
173
     0
291
     1
 45
0.0
  0
VISUALSTYLE
  5
2E
102
{ACAD_REACTORS
330
2A
102
}
102
{ACAD_XDICTIONARY
360
89
102
}
330
2A
100
AcDbVisualStyle
  2
GouraudWithEdges
 70
     3
 71
     2
 72
     2
 73
     1
 90
        2
 40
-0.6
 41
30.0
 62
     5
 63
     7
421
 16777215
 74
     1
 91
        4
 64
     7
 65
   257
 75
     1
175
     1
 42
1.0
 92
        0
 66
   257
 43
1.0
 76
     1
 77
     6
 78
     2
 67
     7
 79
     5
170
     0
171
     0
290
     0
174
     0
 93
       13
 44
0.0
173
     0
291
     1
 45
0.0
  0
VISUALSTYLE
  5
38
102
{ACAD_REACTORS
330
2A
102
}
102
{ACAD_XDICTIONARY
360
9D
102
}
330
2A
100
AcDbVisualStyle
  2
Linepattern
 70
    14
 71
     2
 72
     2
 73
     0
 90
        0
 40
-0.6
 41
-30.0
 62
     5
 63
     7
421
 16777215
 74
     1
 91
        4
 64
     7
 65
   257
 75
     7
175
     7
 42
1.0
 92
        8
 66
     7
 43
1.0
 76
     1
 77
     6
 78
     2
 67
     7
 79
     5
170
     0
171
     0
290
     0
174
     0
 93
        1
 44
0.0
173
     0
291
     1
 45
0.0
  0
VISUALSTYLE
  5
33
102
{ACAD_REACTORS
330
2A
102
}
102
{ACAD_XDICTIONARY
360
93
102
}
330
2A
100
AcDbVisualStyle
  2
Realistic
 70
     8
 71
     2
 72
     2
 73
     0
 90
        0
 40
-0.6
 41
-30.0
 62
     5
 63
     7
421
 16777215
 74
     1
 91
        0
 64
     7
 65
   257
 75
     1
175
     1
 42
1.0
 92
        8
 66
     8
424
  7895160
 43
1.0
 76
     1
 77
     6
 78
     2
 67
     7
 79
     5
170
     0
171
     0
290
     0
174
     0
 93
       13
 44
0.0
173
     0
291
     0
 45
0.0
  0
VISUALSTYLE
  5
37
102
{ACAD_REACTORS
330
2A
102
}
102
{ACAD_XDICTIONARY
360
9B
102
}
330
2A
100
AcDbVisualStyle
  2
Thicken
 70
    13
 71
     2
 72
     2
 73
     0
 90
        0
 40
-0.6
 41
-30.0
 62
     5
 63
     7
421
 16777215
 74
     1
 91
        4
 64
     7
 65
   257
 75
     1
175
     1
 42
1.0
 92
       12
 66
     7
 43
1.0
 76
     1
 77
     6
 78
     2
 67
     7
 79
     5
170
     0
171
     0
290
     0
174
     0
 93
        1
 44
0.0
173
     0
291
     1
 45
0.0
  0
DICTIONARY
  5
8B
330
2F
100
AcDbDictionary
280
     1
281
     1
  3
ACAD_XREC_ROUNDTRIP
360
8C
  0
DICTIONARY
  5
8F
330
31
100
AcDbDictionary
280
     1
281
     1
  3
ACAD_XREC_ROUNDTRIP
360
90
  0
DICTIONARY
  5
8D
330
30
100
AcDbDictionary
280
     1
281
     1
  3
ACAD_XREC_ROUNDTRIP
360
8E
  0
DICTIONARY
  5
91
330
32
100
AcDbDictionary
280
     1
281
     1
  3
ACAD_XREC_ROUNDTRIP
360
92
  0
DICTIONARY
  5
99
330
36
100
AcDbDictionary
280
     1
281
     1
  3
ACAD_XREC_ROUNDTRIP
360
9A
  0
DICTIONARY
  5
A1
330
3A
100
AcDbDictionary
280
     1
281
     1
  3
ACAD_XREC_ROUNDTRIP
360
A2
  0
DICTIONARY
  5
95
330
34
100
AcDbDictionary
280
     1
281
     1
  3
ACAD_XREC_ROUNDTRIP
360
96
  0
DICTIONARY
  5
97
330
35
100
AcDbDictionary
280
     1
281
     1
  3
ACAD_XREC_ROUNDTRIP
360
98
  0
DICTIONARY
  5
9F
330
39
100
AcDbDictionary
280
     1
281
     1
  3
ACAD_XREC_ROUNDTRIP
360
A0
  0
DICTIONARY
  5
83
330
2B
100
AcDbDictionary
280
     1
281
     1
  3
ACAD_XREC_ROUNDTRIP
360
84
  0
DICTIONARY
  5
85
330
2C
100
AcDbDictionary
280
     1
281
     1
  3
ACAD_XREC_ROUNDTRIP
360
86
  0
DICTIONARY
  5
87
330
2D
100
AcDbDictionary
280
     1
281
     1
  3
ACAD_XREC_ROUNDTRIP
360
88
  0
DICTIONARY
  5
89
330
2E
100
AcDbDictionary
280
     1
281
     1
  3
ACAD_XREC_ROUNDTRIP
360
8A
  0
DICTIONARY
  5
9D
330
38
100
AcDbDictionary
280
     1
281
     1
  3
ACAD_XREC_ROUNDTRIP
360
9E
  0
DICTIONARY
  5
93
330
33
100
AcDbDictionary
280
     1
281
     1
  3
ACAD_XREC_ROUNDTRIP
360
94
  0
DICTIONARY
  5
9B
330
37
100
AcDbDictionary
280
     1
281
     1
  3
ACAD_XREC_ROUNDTRIP
360
9C
  0
XRECORD
  5
8C
102
{ACAD_REACTORS
330
8B
102
}
330
8B
100
AcDbXrecord
280
     1
102
RTVSPropertyOp0
 70
     1
102
RTVSPropertyOp1
 70
     1
102
RTVSPropertyOp2
 70
     1
102
RTVSPropertyOp3
 70
     1
102
RTVSPropertyOp4
 70
     1
102
RTVSPropertyOp5
 70
     1
102
RTVSPropertyOp6
 70
     1
102
RTVSPropertyOp7
 70
     1
102
RTVSPropertyOp8
 70
     1
102
RTVSPropertyOp9
 70
     1
102
RTVSPropertyOp10
 70
     1
102
RTVSPropertyOp11
 70
     1
102
RTVSPropertyOp12
 70
     1
102
RTVSPropertyOp13
 70
     1
102
RTVSPropertyOp14
 70
     1
102
RTVSPropertyOp15
 70
     1
102
RTVSPropertyOp16
 70
     1
102
RTVSPropertyOp17
 70
     1
102
RTVSPropertyOp18
 70
     1
102
RTVSPropertyOp19
 70
     1
102
RTVSPropertyOp20
 70
     1
102
RTVSPropertyOp21
 70
     1
102
RTVSPropertyOp22
 70
     1
102
RTVSPropertyOp23
 70
     1
102
RTVSPropertyOp24
 70
     1
102
RTVSPropertyOp25
 70
     1
102
RTVSPropertyOp26
 70
     1
102
RTVSPropertyOp27
 70
     1
102
RTVSPropertyOp28
 70
     1
102
RTVSPropertyOp29
 70
     1
102
RTVSPropertyOp30
 70
     1
102
RTVSPropertyOp31
 70
     1
102
RTVSPropertyOp32
 70
     1
  0
XRECORD
  5
90
102
{ACAD_REACTORS
330
8F
102
}
330
8F
100
AcDbXrecord
280
     1
102
RTVSPropertyOp0
 70
     1
102
RTVSPropertyOp1
 70
     1
102
RTVSPropertyOp2
 70
     1
102
RTVSPropertyOp3
 70
     1
102
RTVSPropertyOp4
 70
     1
102
RTVSPropertyOp5
 70
     1
102
RTVSPropertyOp6
 70
     1
102
RTVSPropertyOp7
 70
     1
102
RTVSPropertyOp8
 70
     1
102
RTVSPropertyOp9
 70
     1
102
RTVSPropertyOp10
 70
     1
102
RTVSPropertyOp11
 70
     1
102
RTVSPropertyOp12
 70
     1
102
RTVSPropertyOp13
 70
     1
102
RTVSPropertyOp14
 70
     1
102
RTVSPropertyOp15
 70
     1
102
RTVSPropertyOp16
 70
     1
102
RTVSPropertyOp17
 70
     1
102
RTVSPropertyOp18
 70
     1
102
RTVSPropertyOp19
 70
     1
102
RTVSPropertyOp20
 70
     1
102
RTVSPropertyOp21
 70
     1
102
RTVSPropertyOp22
 70
     1
102
RTVSPropertyOp23
 70
     1
102
RTVSPropertyOp24
 70
     1
102
RTVSPropertyOp25
 70
     1
102
RTVSPropertyOp26
 70
     1
102
RTVSPropertyOp27
 70
     1
102
RTVSPropertyOp28
 70
     1
102
RTVSPropertyOp29
 70
     1
102
RTVSPropertyOp30
 70
     1
102
RTVSPropertyOp31
 70
     1
102
RTVSPropertyOp32
 70
     1
  0
XRECORD
  5
8E
102
{ACAD_REACTORS
330
8D
102
}
330
8D
100
AcDbXrecord
280
     1
102
RTVSPropertyOp0
 70
     1
102
RTVSPropertyOp1
 70
     1
102
RTVSPropertyOp2
 70
     1
102
RTVSPropertyOp3
 70
     1
102
RTVSPropertyOp4
 70
     1
102
RTVSPropertyOp5
 70
     1
102
RTVSPropertyOp6
 70
     1
102
RTVSPropertyOp7
 70
     1
102
RTVSPropertyOp8
 70
     1
102
RTVSPropertyOp9
 70
     1
102
RTVSPropertyOp10
 70
     1
102
RTVSPropertyOp11
 70
     1
102
RTVSPropertyOp12
 70
     1
102
RTVSPropertyOp13
 70
     1
102
RTVSPropertyOp14
 70
     1
102
RTVSPropertyOp15
 70
     1
102
RTVSPropertyOp16
 70
     1
102
RTVSPropertyOp17
 70
     1
102
RTVSPropertyOp18
 70
     1
102
RTVSPropertyOp19
 70
     1
102
RTVSPropertyOp20
 70
     1
102
RTVSPropertyOp21
 70
     1
102
RTVSPropertyOp22
 70
     1
102
RTVSPropertyOp23
 70
     1
102
RTVSPropertyOp24
 70
     1
102
RTVSPropertyOp25
 70
     1
102
RTVSPropertyOp26
 70
     1
102
RTVSPropertyOp27
 70
     1
102
RTVSPropertyOp28
 70
     1
102
RTVSPropertyOp29
 70
     1
102
RTVSPropertyOp30
 70
     1
102
RTVSPropertyOp31
 70
     1
102
RTVSPropertyOp32
 70
     1
  0
XRECORD
  5
92
102
{ACAD_REACTORS
330
91
102
}
330
91
100
AcDbXrecord
280
     1
102
RTVSPropertyOp0
 70
     1
102
RTVSPropertyOp1
 70
     1
102
RTVSPropertyOp2
 70
     1
102
RTVSPropertyOp3
 70
     1
102
RTVSPropertyOp4
 70
     1
102
RTVSPropertyOp5
 70
     1
102
RTVSPropertyOp6
 70
     1
102
RTVSPropertyOp7
 70
     1
102
RTVSPropertyOp8
 70
     1
102
RTVSPropertyOp9
 70
     1
102
RTVSPropertyOp10
 70
     1
102
RTVSPropertyOp11
 70
     1
102
RTVSPropertyOp12
 70
     1
102
RTVSPropertyOp13
 70
     1
102
RTVSPropertyOp14
 70
     1
102
RTVSPropertyOp15
 70
     1
102
RTVSPropertyOp16
 70
     1
102
RTVSPropertyOp17
 70
     1
102
RTVSPropertyOp18
 70
     1
102
RTVSPropertyOp19
 70
     1
102
RTVSPropertyOp20
 70
     1
102
RTVSPropertyOp21
 70
     1
102
RTVSPropertyOp22
 70
     1
102
RTVSPropertyOp23
 70
     1
102
RTVSPropertyOp24
 70
     1
102
RTVSPropertyOp25
 70
     1
102
RTVSPropertyOp26
 70
     1
102
RTVSPropertyOp27
 70
     1
102
RTVSPropertyOp28
 70
     1
102
RTVSPropertyOp29
 70
     1
102
RTVSPropertyOp30
 70
     1
102
RTVSPropertyOp31
 70
     1
102
RTVSPropertyOp32
 70
     1
  0
XRECORD
  5
9A
102
{ACAD_REACTORS
330
99
102
}
330
99
100
AcDbXrecord
280
     1
102
RTVSPropertyOp0
 70
     1
102
RTVSPropertyOp1
 70
     1
102
RTVSPropertyOp2
 70
     1
102
RTVSPropertyOp3
 70
     1
102
RTVSPropertyOp4
 70
     1
102
RTVSPropertyOp5
 70
     1
102
RTVSPropertyOp6
 70
     1
102
RTVSPropertyOp7
 70
     1
102
RTVSPropertyOp8
 70
     1
102
RTVSPropertyOp9
 70
     1
102
RTVSPropertyOp10
 70
     1
102
RTVSPropertyOp11
 70
     1
102
RTVSPropertyOp12
 70
     1
102
RTVSPropertyOp13
 70
     1
102
RTVSPropertyOp14
 70
     1
102
RTVSPropertyOp15
 70
     1
102
RTVSPropertyOp16
 70
     1
102
RTVSPropertyOp17
 70
     1
102
RTVSPropertyOp18
 70
     1
102
RTVSPropertyOp19
 70
     1
102
RTVSPropertyOp20
 70
     1
102
RTVSPropertyOp21
 70
     1
102
RTVSPropertyOp22
 70
     1
102
RTVSPropertyOp23
 70
     1
102
RTVSPropertyOp24
 70
     1
102
RTVSPropertyOp25
 70
     1
102
RTVSPropertyOp26
 70
     1
102
RTVSPropertyOp27
 70
     1
102
RTVSPropertyOp28
 70
     1
102
RTVSPropertyOp29
 70
     1
102
RTVSPropertyOp30
 70
     1
102
RTVSPropertyOp31
 70
     1
102
RTVSPropertyOp32
 70
     1
  0
XRECORD
  5
A2
102
{ACAD_REACTORS
330
A1
102
}
330
A1
100
AcDbXrecord
280
     1
102
RTVSPropertyOp0
 70
     1
102
RTVSPropertyOp1
 70
     1
102
RTVSPropertyOp2
 70
     1
102
RTVSPropertyOp3
 70
     1
102
RTVSPropertyOp4
 70
     1
102
RTVSPropertyOp5
 70
     1
102
RTVSPropertyOp6
 70
     1
102
RTVSPropertyOp7
 70
     1
102
RTVSPropertyOp8
 70
     1
102
RTVSPropertyOp9
 70
     1
102
RTVSPropertyOp10
 70
     1
102
RTVSPropertyOp11
 70
     1
102
RTVSPropertyOp12
 70
     1
102
RTVSPropertyOp13
 70
     1
102
RTVSPropertyOp14
 70
     1
102
RTVSPropertyOp15
 70
     1
102
RTVSPropertyOp16
 70
     1
102
RTVSPropertyOp17
 70
     1
102
RTVSPropertyOp18
 70
     1
102
RTVSPropertyOp19
 70
     1
102
RTVSPropertyOp20
 70
     1
102
RTVSPropertyOp21
 70
     1
102
RTVSPropertyOp22
 70
     1
102
RTVSPropertyOp23
 70
     1
102
RTVSPropertyOp24
 70
     1
102
RTVSPropertyOp25
 70
     1
102
RTVSPropertyOp26
 70
     1
102
RTVSPropertyOp27
 70
     1
102
RTVSPropertyOp28
 70
     1
102
RTVSPropertyOp29
 70
     1
102
RTVSPropertyOp30
 70
     1
102
RTVSPropertyOp31
 70
     1
102
RTVSPropertyOp32
 70
     1
  0
XRECORD
  5
96
102
{ACAD_REACTORS
330
95
102
}
330
95
100
AcDbXrecord
280
     1
102
RTVSPropertyOp0
 70
     1
102
RTVSPropertyOp1
 70
     1
102
RTVSPropertyOp2
 70
     1
102
RTVSPropertyOp3
 70
     1
102
RTVSPropertyOp4
 70
     1
102
RTVSPropertyOp5
 70
     1
102
RTVSPropertyOp6
 70
     1
102
RTVSPropertyOp7
 70
     1
102
RTVSPropertyOp8
 70
     1
102
RTVSPropertyOp9
 70
     1
102
RTVSPropertyOp10
 70
     1
102
RTVSPropertyOp11
 70
     1
102
RTVSPropertyOp12
 70
     1
102
RTVSPropertyOp13
 70
     1
102
RTVSPropertyOp14
 70
     1
102
RTVSPropertyOp15
 70
     1
102
RTVSPropertyOp16
 70
     1
102
RTVSPropertyOp17
 70
     1
102
RTVSPropertyOp18
 70
     1
102
RTVSPropertyOp19
 70
     1
102
RTVSPropertyOp20
 70
     1
102
RTVSPropertyOp21
 70
     1
102
RTVSPropertyOp22
 70
     1
102
RTVSPropertyOp23
 70
     1
102
RTVSPropertyOp24
 70
     1
102
RTVSPropertyOp25
 70
     1
102
RTVSPropertyOp26
 70
     1
102
RTVSPropertyOp27
 70
     1
102
RTVSPropertyOp28
 70
     1
102
RTVSPropertyOp29
 70
     1
102
RTVSPropertyOp30
 70
     1
102
RTVSPropertyOp31
 70
     1
102
RTVSPropertyOp32
 70
     1
  0
XRECORD
  5
98
102
{ACAD_REACTORS
330
97
102
}
330
97
100
AcDbXrecord
280
     1
102
RTVSPropertyOp0
 70
     1
102
RTVSPropertyOp1
 70
     1
102
RTVSPropertyOp2
 70
     1
102
RTVSPropertyOp3
 70
     1
102
RTVSPropertyOp4
 70
     1
102
RTVSPropertyOp5
 70
     1
102
RTVSPropertyOp6
 70
     1
102
RTVSPropertyOp7
 70
     1
102
RTVSPropertyOp8
 70
     1
102
RTVSPropertyOp9
 70
     1
102
RTVSPropertyOp10
 70
     1
102
RTVSPropertyOp11
 70
     1
102
RTVSPropertyOp12
 70
     1
102
RTVSPropertyOp13
 70
     1
102
RTVSPropertyOp14
 70
     1
102
RTVSPropertyOp15
 70
     1
102
RTVSPropertyOp16
 70
     1
102
RTVSPropertyOp17
 70
     1
102
RTVSPropertyOp18
 70
     1
102
RTVSPropertyOp19
 70
     1
102
RTVSPropertyOp20
 70
     1
102
RTVSPropertyOp21
 70
     1
102
RTVSPropertyOp22
 70
     1
102
RTVSPropertyOp23
 70
     1
102
RTVSPropertyOp24
 70
     1
102
RTVSPropertyOp25
 70
     1
102
RTVSPropertyOp26
 70
     1
102
RTVSPropertyOp27
 70
     1
102
RTVSPropertyOp28
 70
     1
102
RTVSPropertyOp29
 70
     1
102
RTVSPropertyOp30
 70
     1
102
RTVSPropertyOp31
 70
     1
102
RTVSPropertyOp32
 70
     1
  0
XRECORD
  5
A0
102
{ACAD_REACTORS
330
9F
102
}
330
9F
100
AcDbXrecord
280
     1
102
RTVSPropertyOp0
 70
     1
102
RTVSPropertyOp1
 70
     1
102
RTVSPropertyOp2
 70
     1
102
RTVSPropertyOp3
 70
     1
102
RTVSPropertyOp4
 70
     1
102
RTVSPropertyOp5
 70
     1
102
RTVSPropertyOp6
 70
     1
102
RTVSPropertyOp7
 70
     1
102
RTVSPropertyOp8
 70
     1
102
RTVSPropertyOp9
 70
     1
102
RTVSPropertyOp10
 70
     1
102
RTVSPropertyOp11
 70
     1
102
RTVSPropertyOp12
 70
     1
102
RTVSPropertyOp13
 70
     1
102
RTVSPropertyOp14
 70
     1
102
RTVSPropertyOp15
 70
     1
102
RTVSPropertyOp16
 70
     1
102
RTVSPropertyOp17
 70
     1
102
RTVSPropertyOp18
 70
     1
102
RTVSPropertyOp19
 70
     1
102
RTVSPropertyOp20
 70
     1
102
RTVSPropertyOp21
 70
     1
102
RTVSPropertyOp22
 70
     1
102
RTVSPropertyOp23
 70
     1
102
RTVSPropertyOp24
 70
     1
102
RTVSPropertyOp25
 70
     1
102
RTVSPropertyOp26
 70
     1
102
RTVSPropertyOp27
 70
     1
102
RTVSPropertyOp28
 70
     1
102
RTVSPropertyOp29
 70
     1
102
RTVSPropertyOp30
 70
     1
102
RTVSPropertyOp31
 70
     1
102
RTVSPropertyOp32
 70
     1
  0
XRECORD
  5
84
102
{ACAD_REACTORS
330
83
102
}
330
83
100
AcDbXrecord
280
     1
102
RTVSPropertyOp0
 70
     1
102
RTVSPropertyOp1
 70
     1
102
RTVSPropertyOp2
 70
     1
102
RTVSPropertyOp3
 70
     1
102
RTVSPropertyOp4
 70
     1
102
RTVSPropertyOp5
 70
     1
102
RTVSPropertyOp6
 70
     1
102
RTVSPropertyOp7
 70
     1
102
RTVSPropertyOp8
 70
     1
102
RTVSPropertyOp9
 70
     1
102
RTVSPropertyOp10
 70
     1
102
RTVSPropertyOp11
 70
     1
102
RTVSPropertyOp12
 70
     1
102
RTVSPropertyOp13
 70
     1
102
RTVSPropertyOp14
 70
     1
102
RTVSPropertyOp15
 70
     1
102
RTVSPropertyOp16
 70
     1
102
RTVSPropertyOp17
 70
     1
102
RTVSPropertyOp18
 70
     1
102
RTVSPropertyOp19
 70
     1
102
RTVSPropertyOp20
 70
     1
102
RTVSPropertyOp21
 70
     1
102
RTVSPropertyOp22
 70
     1
102
RTVSPropertyOp23
 70
     1
102
RTVSPropertyOp24
 70
     1
102
RTVSPropertyOp25
 70
     1
102
RTVSPropertyOp26
 70
     1
102
RTVSPropertyOp27
 70
     1
102
RTVSPropertyOp28
 70
     1
102
RTVSPropertyOp29
 70
     1
102
RTVSPropertyOp30
 70
     1
102
RTVSPropertyOp31
 70
     1
102
RTVSPropertyOp32
 70
     1
  0
XRECORD
  5
86
102
{ACAD_REACTORS
330
85
102
}
330
85
100
AcDbXrecord
280
     1
102
RTVSPropertyOp0
 70
     1
102
RTVSPropertyOp1
 70
     1
102
RTVSPropertyOp2
 70
     1
102
RTVSPropertyOp3
 70
     1
102
RTVSPropertyOp4
 70
     1
102
RTVSPropertyOp5
 70
     1
102
RTVSPropertyOp6
 70
     1
102
RTVSPropertyOp7
 70
     1
102
RTVSPropertyOp8
 70
     1
102
RTVSPropertyOp9
 70
     1
102
RTVSPropertyOp10
 70
     1
102
RTVSPropertyOp11
 70
     1
102
RTVSPropertyOp12
 70
     1
102
RTVSPropertyOp13
 70
     1
102
RTVSPropertyOp14
 70
     1
102
RTVSPropertyOp15
 70
     1
102
RTVSPropertyOp16
 70
     1
102
RTVSPropertyOp17
 70
     1
102
RTVSPropertyOp18
 70
     1
102
RTVSPropertyOp19
 70
     1
102
RTVSPropertyOp20
 70
     1
102
RTVSPropertyOp21
 70
     1
102
RTVSPropertyOp22
 70
     1
102
RTVSPropertyOp23
 70
     1
102
RTVSPropertyOp24
 70
     1
102
RTVSPropertyOp25
 70
     1
102
RTVSPropertyOp26
 70
     1
102
RTVSPropertyOp27
 70
     1
102
RTVSPropertyOp28
 70
     1
102
RTVSPropertyOp29
 70
     1
102
RTVSPropertyOp30
 70
     1
102
RTVSPropertyOp31
 70
     1
102
RTVSPropertyOp32
 70
     1
  0
XRECORD
  5
88
102
{ACAD_REACTORS
330
87
102
}
330
87
100
AcDbXrecord
280
     1
102
RTVSPropertyOp0
 70
     1
102
RTVSPropertyOp1
 70
     1
102
RTVSPropertyOp2
 70
     1
102
RTVSPropertyOp3
 70
     1
102
RTVSPropertyOp4
 70
     1
102
RTVSPropertyOp5
 70
     1
102
RTVSPropertyOp6
 70
     1
102
RTVSPropertyOp7
 70
     1
102
RTVSPropertyOp8
 70
     1
102
RTVSPropertyOp9
 70
     1
102
RTVSPropertyOp10
 70
     1
102
RTVSPropertyOp11
 70
     1
102
RTVSPropertyOp12
 70
     1
102
RTVSPropertyOp13
 70
     1
102
RTVSPropertyOp14
 70
     1
102
RTVSPropertyOp15
 70
     1
102
RTVSPropertyOp16
 70
     1
102
RTVSPropertyOp17
 70
     1
102
RTVSPropertyOp18
 70
     1
102
RTVSPropertyOp19
 70
     1
102
RTVSPropertyOp20
 70
     1
102
RTVSPropertyOp21
 70
     1
102
RTVSPropertyOp22
 70
     1
102
RTVSPropertyOp23
 70
     1
102
RTVSPropertyOp24
 70
     1
102
RTVSPropertyOp25
 70
     1
102
RTVSPropertyOp26
 70
     1
102
RTVSPropertyOp27
 70
     1
102
RTVSPropertyOp28
 70
     1
102
RTVSPropertyOp29
 70
     1
102
RTVSPropertyOp30
 70
     1
102
RTVSPropertyOp31
 70
     1
102
RTVSPropertyOp32
 70
     1
  0
XRECORD
  5
8A
102
{ACAD_REACTORS
330
89
102
}
330
89
100
AcDbXrecord
280
     1
102
RTVSPropertyOp0
 70
     1
102
RTVSPropertyOp1
 70
     1
102
RTVSPropertyOp2
 70
     1
102
RTVSPropertyOp3
 70
     1
102
RTVSPropertyOp4
 70
     1
102
RTVSPropertyOp5
 70
     1
102
RTVSPropertyOp6
 70
     1
102
RTVSPropertyOp7
 70
     1
102
RTVSPropertyOp8
 70
     1
102
RTVSPropertyOp9
 70
     1
102
RTVSPropertyOp10
 70
     1
102
RTVSPropertyOp11
 70
     1
102
RTVSPropertyOp12
 70
     1
102
RTVSPropertyOp13
 70
     1
102
RTVSPropertyOp14
 70
     1
102
RTVSPropertyOp15
 70
     1
102
RTVSPropertyOp16
 70
     1
102
RTVSPropertyOp17
 70
     1
102
RTVSPropertyOp18
 70
     1
102
RTVSPropertyOp19
 70
     1
102
RTVSPropertyOp20
 70
     1
102
RTVSPropertyOp21
 70
     1
102
RTVSPropertyOp22
 70
     1
102
RTVSPropertyOp23
 70
     1
102
RTVSPropertyOp24
 70
     1
102
RTVSPropertyOp25
 70
     1
102
RTVSPropertyOp26
 70
     1
102
RTVSPropertyOp27
 70
     1
102
RTVSPropertyOp28
 70
     1
102
RTVSPropertyOp29
 70
     1
102
RTVSPropertyOp30
 70
     1
102
RTVSPropertyOp31
 70
     1
102
RTVSPropertyOp32
 70
     1
  0
XRECORD
  5
9E
102
{ACAD_REACTORS
330
9D
102
}
330
9D
100
AcDbXrecord
280
     1
102
RTVSPropertyOp0
 70
     1
102
RTVSPropertyOp1
 70
     1
102
RTVSPropertyOp2
 70
     1
102
RTVSPropertyOp3
 70
     1
102
RTVSPropertyOp4
 70
     1
102
RTVSPropertyOp5
 70
     1
102
RTVSPropertyOp6
 70
     1
102
RTVSPropertyOp7
 70
     1
102
RTVSPropertyOp8
 70
     1
102
RTVSPropertyOp9
 70
     1
102
RTVSPropertyOp10
 70
     1
102
RTVSPropertyOp11
 70
     1
102
RTVSPropertyOp12
 70
     1
102
RTVSPropertyOp13
 70
     1
102
RTVSPropertyOp14
 70
     1
102
RTVSPropertyOp15
 70
     1
102
RTVSPropertyOp16
 70
     1
102
RTVSPropertyOp17
 70
     1
102
RTVSPropertyOp18
 70
     1
102
RTVSPropertyOp19
 70
     1
102
RTVSPropertyOp20
 70
     1
102
RTVSPropertyOp21
 70
     1
102
RTVSPropertyOp22
 70
     1
102
RTVSPropertyOp23
 70
     1
102
RTVSPropertyOp24
 70
     1
102
RTVSPropertyOp25
 70
     1
102
RTVSPropertyOp26
 70
     1
102
RTVSPropertyOp27
 70
     1
102
RTVSPropertyOp28
 70
     1
102
RTVSPropertyOp29
 70
     1
102
RTVSPropertyOp30
 70
     1
102
RTVSPropertyOp31
 70
     1
102
RTVSPropertyOp32
 70
     1
  0
XRECORD
  5
94
102
{ACAD_REACTORS
330
93
102
}
330
93
100
AcDbXrecord
280
     1
102
RTVSPropertyOp0
 70
     1
102
RTVSPropertyOp1
 70
     1
102
RTVSPropertyOp2
 70
     1
102
RTVSPropertyOp3
 70
     1
102
RTVSPropertyOp4
 70
     1
102
RTVSPropertyOp5
 70
     1
102
RTVSPropertyOp6
 70
     1
102
RTVSPropertyOp7
 70
     1
102
RTVSPropertyOp8
 70
     1
102
RTVSPropertyOp9
 70
     1
102
RTVSPropertyOp10
 70
     1
102
RTVSPropertyOp11
 70
     1
102
RTVSPropertyOp12
 70
     1
102
RTVSPropertyOp13
 70
     1
102
RTVSPropertyOp14
 70
     1
102
RTVSPropertyOp15
 70
     1
102
RTVSPropertyOp16
 70
     1
102
RTVSPropertyOp17
 70
     1
102
RTVSPropertyOp18
 70
     1
102
RTVSPropertyOp19
 70
     1
102
RTVSPropertyOp20
 70
     1
102
RTVSPropertyOp21
 70
     1
102
RTVSPropertyOp22
 70
     1
102
RTVSPropertyOp23
 70
     1
102
RTVSPropertyOp24
 70
     1
102
RTVSPropertyOp25
 70
     1
102
RTVSPropertyOp26
 70
     1
102
RTVSPropertyOp27
 70
     1
102
RTVSPropertyOp28
 70
     1
102
RTVSPropertyOp29
 70
     1
102
RTVSPropertyOp30
 70
     1
102
RTVSPropertyOp31
 70
     1
102
RTVSPropertyOp32
 70
     1
  0
XRECORD
  5
9C
102
{ACAD_REACTORS
330
9B
102
}
330
9B
100
AcDbXrecord
280
     1
102
RTVSPropertyOp0
 70
     1
102
RTVSPropertyOp1
 70
     1
102
RTVSPropertyOp2
 70
     1
102
RTVSPropertyOp3
 70
     1
102
RTVSPropertyOp4
 70
     1
102
RTVSPropertyOp5
 70
     1
102
RTVSPropertyOp6
 70
     1
102
RTVSPropertyOp7
 70
     1
102
RTVSPropertyOp8
 70
     1
102
RTVSPropertyOp9
 70
     1
102
RTVSPropertyOp10
 70
     1
102
RTVSPropertyOp11
 70
     1
102
RTVSPropertyOp12
 70
     1
102
RTVSPropertyOp13
 70
     1
102
RTVSPropertyOp14
 70
     1
102
RTVSPropertyOp15
 70
     1
102
RTVSPropertyOp16
 70
     1
102
RTVSPropertyOp17
 70
     1
102
RTVSPropertyOp18
 70
     1
102
RTVSPropertyOp19
 70
     1
102
RTVSPropertyOp20
 70
     1
102
RTVSPropertyOp21
 70
     1
102
RTVSPropertyOp22
 70
     1
102
RTVSPropertyOp23
 70
     1
102
RTVSPropertyOp24
 70
     1
102
RTVSPropertyOp25
 70
     1
102
RTVSPropertyOp26
 70
     1
102
RTVSPropertyOp27
 70
     1
102
RTVSPropertyOp28
 70
     1
102
RTVSPropertyOp29
 70
     1
102
RTVSPropertyOp30
 70
     1
102
RTVSPropertyOp31
 70
     1
102
RTVSPropertyOp32
 70
     1
  0
ENDSEC
  0
EOF
