  0
SECTION
  2
HEADER
  9
$ACADVER
  1
AC1015
  9
$ACADMAINTVER
 70
     6
  9
$DWGCODEPAGE
  3
DOS850
  9
$INSBASE
 10
0.0
 20
0.0
 30
0.0
  9
$EXTMIN
 10
-4.79537
 20
-6.80776
 30
1.000000E+20
  9
$EXTMAX
 10
4.79955
 20
6.80189
 30
-1.000000E+20
  9
$LIMMIN
 10
0.0
 20
0.0
  9
$LIMMAX
 10
0.0
 20
0.0
  9
$ORTHOMODE
 70
     0
  9
$REGENMODE
 70
     1
  9
$FILLMODE
 70
     1
  9
$QTEXTMODE
 70
     0
  9
$MIRRTEXT
 70
     1
  9
$LTSCALE
 40
1.0
  9
$ATTMODE
 70
     1
  9
$TEXTSIZE
 40
0.2
  9
$TRACEWID
 40
0.05
  9
$TEXTSTYLE
  7
Standard
  9
$CLAYER
  8
0
  9
$CELTYPE
  6
Continuous
  9
$CECOLOR
 62
   256
  9
$CELTSCALE
 40
1.0
  9
$DISPSILH
 70
     0
  9
$DIMSCALE
 40
1.0
  9
$DIMASZ
 40
0.18
  9
$DIMEXO
 40
0.0625
  9
$DIMDLI
 40
0.38
  9
$DIMRND
 40
0.0
  9
$DIMDLE
 40
0.0
  9
$DIMEXE
 40
0.18
  9
$DIMTP
 40
0.0
  9
$DIMTM
 40
0.0
  9
$DIMTXT
 40
0.18
  9
$DIMCEN
 40
0.09
  9
$DIMTSZ
 40
0.0
  9
$DIMTOL
 70
     0
  9
$DIMLIM
 70
     0
  9
$DIMTIH
 70
     1
  9
$DIMTOH
 70
     1
  9
$DIMSE1
 70
     0
  9
$DIMSE2
 70
     0
  9
$DIMTAD
 70
     0
  9
$DIMZIN
 70
     0
  9
$DIMBLK
  1

  9
$DIMASO
 70
     1
  9
$DIMSHO
 70
     1
  9
$DIMPOST
  1

  9
$DIMAPOST
  1

  9
$DIMALT
 70
     0
  9
$DIMALTD
 70
     2
  9
$DIMALTF
 40
25.4
  9
$DIMLFAC
 40
1.0
  9
$DIMTOFL
 70
     0
  9
$DIMTVP
 40
0.0
  9
$DIMTIX
 70
     0
  9
$DIMSOXD
 70
     0
  9
$DIMSAH
 70
     0
  9
$DIMBLK1
  1

  9
$DIMBLK2
  1

  9
$DIMSTYLE
  2
Standard
  9
$DIMCLRD
 70
     0
  9
$DIMCLRE
 70
     0
  9
$DIMCLRT
 70
     0
  9
$DIMTFAC
 40
1.0
  9
$DIMGAP
 40
0.09
  9
$DIMJUST
 70
     0
  9
$DIMSD1
 70
     0
  9
$DIMSD2
 70
     0
  9
$DIMTOLJ
 70
     1
  9
$DIMTZIN
 70
     0
  9
$DIMALTZ
 70
     0
  9
$DIMALTTZ
 70
     0
  9
$DIMUPT
 70
     0
  9
$DIMDEC
 70
     4
  9
$DIMTDEC
 70
     4
  9
$DIMALTU
 70
     2
  9
$DIMALTTD
 70
     2
  9
$DIMTXSTY
  7
Standard
  9
$DIMAUNIT
 70
     0
  9
$DIMADEC
 70
     0
  9
$DIMALTRND
 40
0.0
  9
$DIMAZIN
 70
     0
  9
$DIMDSEP
 70
     0
  9
$DIMATFIT
 70
     3
  9
$DIMFRAC
 70
     0
  9
$DIMLDRBLK
  1

  9
$DIMLUNIT
 70
     2
  9
$DIMLWD
 70
     0
  9
$DIMLWE
 70
     0
  9
$DIMTMOVE
 70
     0
  9
$LUNITS
 70
     2
  9
$LUPREC
 70
     4
  9
$SKETCHINC
 40
0.1
  9
$FILLETRAD
 40
0.0
  9
$AUNITS
 70
     0
  9
$AUPREC
 70
     0
  9
$MENU
  1
acad
  9
$ELEVATION
 40
0.0
  9
$PELEVATION
 40
0.0
  9
$THICKNESS
 40
0.0
  9
$LIMCHECK
 70
     0
  9
$CHAMFERA
 40
0.0
  9
$CHAMFERB
 40
0.0
  9
$CHAMFERC
 40
0.0
  9
$CHAMFERD
 40
0.0
  9
$SKPOLY
 70
     0
  9
$TDCREATE
 40
0.000000000
  9
$TDUCREATE
 40
0.000000000
  9
$TDUPDATE
 40
0.000000000
  9
$TDUUPDATE
 40
0.000000000
  9
$TDINDWG
 40
0.0000000000
  9
$TDUSRTIMER
 40
0.0000000000
  9
$USRTIMER
 70
     1
  9
$ANGBASE
 50
0.0
  9
$ANGDIR
 70
     0
  9
$PDMODE
 70
     0
  9
$PDSIZE
 40
0.0
  9
$PLINEWID
 40
0.0
  9
$SPLFRAME
 70
     0
  9
$SPLINETYPE
 70
     6
  9
$SPLINESEGS
 70
     8
  9
$HANDSEED
  5
83
  9
$SURFTAB1
 70
     6
  9
$SURFTAB2
 70
     6
  9
$SURFTYPE
 70
     6
  9
$SURFU
 70
     6
  9
$SURFV
 70
     6
  9
$UCSBASE
  2

  9
$UCSNAME
  2

  9
$UCSORG
 10
0.0
 20
0.0
 30
0.0
  9
$UCSXDIR
 10
1.0
 20
0.0
 30
0.0
  9
$UCSYDIR
 10
0.0
 20
1.0
 30
0.0
  9
$UCSORTHOREF
  2

  9
$UCSORTHOVIEW
 70
     0
  9
$UCSORGTOP
 10
0.0
 20
0.0
 30
0.0
  9
$UCSORGBOTTOM
 10
0.0
 20
0.0
 30
0.0
  9
$UCSORGLEFT
 10
0.0
 20
0.0
 30
0.0
  9
$UCSORGRIGHT
 10
0.0
 20
0.0
 30
0.0
  9
$UCSORGFRONT
 10
0.0
 20
0.0
 30
0.0
  9
$UCSORGBACK
 10
0.0
 20
0.0
 30
0.0
  9
$PUCSBASE
  2

  9
$PUCSNAME
  2

  9
$PUCSORG
 10
0.0
 20
0.0
 30
0.0
  9
$PUCSXDIR
 10
1.0
 20
0.0
 30
0.0
  9
$PUCSYDIR
 10
0.0
 20
1.0
 30
0.0
  9
$PUCSORTHOREF
  2

  9
$PUCSORTHOVIEW
 70
     0
  9
$PUCSORGTOP
 10
0.0
 20
0.0
 30
0.0
  9
$PUCSORGBOTTOM
 10
0.0
 20
0.0
 30
0.0
  9
$PUCSORGLEFT
 10
0.0
 20
0.0
 30
0.0
  9
$PUCSORGRIGHT
 10
0.0
 20
0.0
 30
0.0
  9
$PUCSORGFRONT
 10
0.0
 20
0.0
 30
0.0
  9
$PUCSORGBACK
 10
0.0
 20
0.0
 30
0.0
  9
$USERI1
 70
     0
  9
$USERI2
 70
     0
  9
$USERI3
 70
     0
  9
$USERI4
 70
     0
  9
$USERI5
 70
     0
  9
$USERR1
 40
0.0
  9
$USERR2
 40
0.0
  9
$USERR3
 40
0.0
  9
$USERR4
 40
0.0
  9
$USERR5
 40
0.0
  9
$WORLDVIEW
 70
     1
  9
$SHADEDGE
 70
     3
  9
$SHADEDIF
 70
    70
  9
$TILEMODE
 70
     1
  9
$MAXACTVP
 70
    16
  9
$PINSBASE
 10
0.0
 20
0.0
 30
0.0
  9
$PLIMCHECK
 70
     0
  9
$PEXTMIN
 10
1.000000E+20
 20
1.000000E+20
 30
1.000000E+20
  9
$PEXTMAX
 10
-1.000000E+20
 20
-1.000000E+20
 30
-1.000000E+20
  9
$PLIMMIN
 10
0.0
 20
0.0
  9
$PLIMMAX
 10
12.0
 20
9.0
  9
$UNITMODE
 70
     0
  9
$VISRETAIN
 70
     0
  9
$PLINEGEN
 70
     1
  9
$PSLTSCALE
 70
     0
  9
$TREEDEPTH
 70
  3020
  9
$CMLSTYLE
  2
Standard
  9
$CMLJUST
 70
     0
  9
$CMLSCALE
 40
1.0
  9
$PROXYGRAPHICS
 70
     0
  9
$MEASUREMENT
 70
     0
  9
$CELWEIGHT
370
     0
  9
$ENDCAPS
280
     0
  9
$JOINSTYLE
280
     0
  9
$LWDISPLAY
290
     0
  9
$INSUNITS
 70
     5
  9
$HYPERLINKBASE
  1

  9
$XEDIT
290
     1
  9
$CEPSNTYPE
380
     0
  9
$PSTYLEMODE
290
     1
  9
$FINGERPRINTGUID
  2

  9
$VERSIONGUID
  2

  9
$EXTNAMES
290
     1
  9
$PSVPSCALE
 40
0.0
  0
ENDSEC
  0
SECTION
  2
CLASSES
  0
CLASS
  1
LWPOLYLINE
  2
AcDbPolyline
  3
AutoCAD 2000
 90
    32768
280
     0
281
     1
  0
CLASS
  1
IMAGE
  2
AcDbRasterImage
  3
ISM
 90
    32895
280
     0
281
     1
  0
CLASS
  1
OLE2FRAME
  2
AcDbOle2Frame
  3
AutoCAD 2000
 90
    32768
280
     0
281
     1
  0
CLASS
  1
HATCH
  2
AcDbHatch
  3
AutoCAD 2000
 90
    32768
280
     0
281
     1
  0
CLASS
  1
DICTIONARYVAR
  2
AcDbDictionaryVar
  3
AutoCAD 2000
 90
    32768
280
     0
281
     0
  0
CLASS
  1
RASTERVARIABLES
  2
AcDbRasterVariables
  3
ISM
 90
    32768
280
     0
281
     0
  0
CLASS
  1
IMAGEDEF
  2
AcDbRasterImageDef
  3
ISM
 90
    32768
280
     0
281
     0
  0
CLASS
  1
IMAGEDEF_REACTOR
  2
AcDbRasterImageDefReactor
  3
ISM
 90
    32769
280
     0
281
     0
  0
CLASS
  1
IDBUFFER
  2
AcDbIdBuffer
  3
AutoCAD 2000
 90
    32768
280
     0
281
     0
  0
CLASS
  1
SPATIAL_FILTER
  2
AcDbSpatialFilter
  3
AutoCAD 2000
 90
    32768
280
     0
281
     0
  0
CLASS
  1
XRECORD
  2
AcDbXrecord
  3
AutoCAD 2000
 90
    32768
280
     0
281
     0
  0
CLASS
  1
SORTENTSTABLE
  2
AcDbSortentsTable
  3
AutoCAD 2000
 90
    32768
280
     0
281
     0
  0
CLASS
  1
LAYER_INDEX
  2
AcDbLayerIndex
  3
AutoCAD 2000
 90
    32768
280
     0
281
     0
  0
CLASS
  1
SPATIAL_INDEX
  2
AcDbSpatialIndex
  3
AutoCAD 2000
 90
    32768
280
     0
281
     0
  0
CLASS
  1
OBJECT_PTR
  2
CAseDLPNTableRecord
  3
"ASE-LPNTableRecord"
 90
    32769
280
     0
281
     0
  0
CLASS
  1
LAYOUT
  2
AcDbLayout
  3
AutoCAD 2000
 90
        0
280
     0
281
     0
  0
CLASS
  1
PLOTSETTINGS
  2
AcDbPlotSettings
  3
AutoCAD 2000
 90
    32768
280
     0
281
     0
  0
CLASS
  1
ACDBDICTIONARYWDFLT
  2
AcDbDictionaryWithDefault
  3
AutoCAD 2000
 90
        0
280
     0
281
     0
  0
CLASS
  1
ACDBPLACEHOLDER
  2
AcDbPlaceHolder
  3
AutoCAD 2000
 90
        0
280
     0
281
     0
  0
CLASS
  1
VBA_PROJECT
  2
AcDbVbaProject
  3
acadvba
 90
    32768
280
     0
281
     0
  0
CLASS
  1
WIPEOUT
  2
AcDbWipeout
  3
WipeOut|AutoCAD Express Tool|expresstools@autodesk.com
 90
    32895
280
     0
281
     1
  0
CLASS
  1
WIPEOUTVARIABLES
  2
AcDbWipeoutVariables
  3
WipeOut|AutoCAD Express Tool|expresstools@autodesk.com
 90
        0
280
     0
281
     0
  0
CLASS
  1
RTEXT
  2
RText
  3
RText|AutoCAD Express Tool|expresstools@autodesk.com
 90
    32768
280
     0
281
     1
  0
CLASS
  1
ARCALIGNEDTEXT
  2
AcDbArcAlignedText
  3
ATEXT|AutoCAD Express Tool|expresstools@autodesk.com
 90
    32768
280
     0
281
     1
  0
ENDSEC
  0
SECTION
  2
TABLES
  0
TABLE
  2
VPORT
  5
7
100
AcDbSymbolTable
 70
     1
  0
VPORT
  5
15
100
AcDbSymbolTableRecord
100
AcDbViewportTableRecord
  2
*ACTIVE
 70
     0
 10
0.0
 20
0.0
 11
1.0
 21
1.0
 12
6.591288
 22
4.579184
 13
0.0
 23
0.0
 14
1.0
 24
1.0
 15
0.0
 25
0.0
 16
0.0
 26
0.0
 36
1.0
 17
0.0
 27
0.0
 37
0.0
 40
9.158369
 41
0.688564
 42
50.0
 43
0.0
 44
0.0
 50
0.0
 51
0.0
 71
     0
 72
   100
 73
     1
 74
     1
 75
     0
 76
     0
 77
     0
 78
     0
281
     0
 65
     0
110
0.0
120
0.0
130
0.0
111
1.0
121
0.0
131
0.0
112
0.0
122
1.0
132
0.0
345
0
346
0
 79
     0
146
0.0
  0
ENDTAB
  0
TABLE
  2
LTYPE
  5
4
100
AcDbSymbolTable
 70
     3
  0
LTYPE
  5
11
100
AcDbSymbolTableRecord
100
AcDbLinetypeTableRecord
  2
ByBlock
 70
    64
  3

 72
    65
 73
     0
 40
0.0
  0
LTYPE
  5
12
100
AcDbSymbolTableRecord
100
AcDbLinetypeTableRecord
  2
ByLayer
 70
    64
  3

 72
    65
 73
     0
 40
0.0
  0
LTYPE
  5
13
100
AcDbSymbolTableRecord
100
AcDbLinetypeTableRecord
  2
Continuous
 70
    64
  3
Solid line
 72
    65
 73
     0
 40
0.0
  0
ENDTAB
  0
TABLE
  2
LAYER
  5
2
100
AcDbSymbolTable
 70
     2
  0
LAYER
  5
14
100
AcDbSymbolTableRecord
100
AcDbLayerTableRecord
  2
0
 70
     0
 62
     7
  6
Continuous
290
     1
370
    -3
390
1D
  0
LAYER
  5
24
100
AcDbSymbolTableRecord
100
AcDbLayerTableRecord
  2
Ebene 1
 70
     0
 62
     7
  6
Continuous
290
     1
370
    -3
390
1F
  0
ENDTAB
  0
TABLE
  2
STYLE
  5
3
100
AcDbSymbolTable
 70
     1
  0
STYLE
  5
17
100
AcDbSymbolTableRecord
100
AcDbTextStyleTableRecord
  2
Standard
 70
     0
 40
0.0
 41
1.0
 50
0.0
 71
     0
 42
0.0
  3
txt
  4

  0
ENDTAB
  0
TABLE
  2
VIEW
  5
5
100
AcDbSymbolTable
 70
     0
  0
ENDTAB
  0
TABLE
  2
UCS
  5
6
100
AcDbSymbolTable
 70
     0
  0
ENDTAB
  0
TABLE
  2
APPID
  5
8
100
AcDbSymbolTable
 70
     1
  0
APPID
  5
16
100
AcDbSymbolTableRecord
100
AcDbRegAppTableRecord
  2
ACAD
 70
     0
  0
ENDTAB
  0
TABLE
  2
DIMSTYLE
  5
9
100
AcDbSymbolTable
 70
     1
100
AcDbDimStyleTable
 71
     0
  0
DIMSTYLE
105
18
100
AcDbSymbolTableRecord
100
AcDbDimStyleTableRecord
  2
Standard
 70
     0
  3

  4

 40
1.0
 41
0.18
 42
0.0625
 43
0.38
 44
0.18
 45
0.0
 46
0.0
 47
0.0
 48
0.0
 71
     0
 72
     0
 73
     1
 74
     1
 75
     0
 76
     0
 77
     0
 78
     0
 79
     0
140
0.18
141
0.09
142
0.0
143
25.4
144
1.0
145
0.0
146
1.0
147
0.09
148
0.0
170
     0
171
     2
172
     0
173
     0
174
     0
175
     0
176
     0
177
     0
178
     0
179
     0
271
     4
272
     4
273
     2
274
     2
275
     0
276
     0
277
     2
278
    46
279
     0
280
     0
281
     0
282
     0
283
     1
284
     0
285
     0
286
     0
288
     0
340
17
341
0
342
0
343
0
344
0
371
    -2
372
    -2
  0
ENDTAB
  0
TABLE
  2
BLOCK_RECORD
  5
1
100
AcDbSymbolTable
 70
     0
  0
BLOCK_RECORD
  5
A
100
AcDbSymbolTableRecord
100
AcDbBlockTableRecord
  2
*MODEL_SPACE
340
20
  0
BLOCK_RECORD
  5
B
100
AcDbSymbolTableRecord
100
AcDbBlockTableRecord
  2
*PAPER_SPACE
340
21
  0
ENDTAB
  0
ENDSEC
  0
SECTION
  2
BLOCKS
  0
BLOCK
  5
D
100
AcDbEntity
  8
0
100
AcDbBlockBegin
  2
*MODEL_SPACE
 70
     0
 10
0.0
 20
0.0
 30
0.0
  3
*MODEL_SPACE
  1

  0
ENDBLK
  5
E
100
AcDbEntity
  8
0
100
AcDbBlockEnd
  0
BLOCK
  5
F
100
AcDbEntity
 67
     1
  8
0
100
AcDbBlockBegin
  2
*PAPER_SPACE
 70
     0
 10
0.0
 20
0.0
 30
0.0
  3
*PAPER_SPACE
  1

  0
ENDBLK
  5
10
100
AcDbEntity
 67
     1
  8
0
100
AcDbBlockEnd
  0
ENDSEC
  0
SECTION
  2
ENTITIES
  0
SPLINE
  5
25
100
AcDbEntity
  8
Ebene 1
100
AcDbSpline
210
0.0
220
0.0
230
1.0
 70
     1
 71
     3
 72
   116
 73
   112
 74
     0
 42
0.0000000001
 43
0.0000000001
 40
0.0
 40
0.0
 40
0.0
 40
0.0
 40
0.0357142857142857
 40
0.0357142857142857
 40
0.0357142857142857
 40
0.0357142857142857
 40
0.0714285714285714
 40
0.0714285714285714
 40
0.0714285714285714
 40
0.0714285714285714
 40
0.1071428571428571
 40
0.1071428571428571
 40
0.1071428571428571
 40
0.1071428571428571
 40
0.1428571428571429
 40
0.1428571428571429
 40
0.1428571428571429
 40
0.1428571428571429
 40
0.1785714285714286
 40
0.1785714285714286
 40
0.1785714285714286
 40
0.1785714285714286
 40
0.2142857142857143
 40
0.2142857142857143
 40
0.2142857142857143
 40
0.2142857142857143
 40
0.2499999999999999
 40
0.2499999999999999
 40
0.2499999999999999
 40
0.2499999999999999
 40
0.2857142857142856
 40
0.2857142857142856
 40
0.2857142857142856
 40
0.2857142857142856
 40
0.3214285714285713
 40
0.3214285714285713
 40
0.3214285714285713
 40
0.3214285714285713
 40
0.357142857142857
 40
0.357142857142857
 40
0.357142857142857
 40
0.357142857142857
 40
0.3928571428571427
 40
0.3928571428571427
 40
0.3928571428571427
 40
0.3928571428571427
 40
0.4285714285714284
 40
0.4285714285714284
 40
0.4285714285714284
 40
0.4285714285714284
 40
0.4642857142857141
 40
0.4642857142857141
 40
0.4642857142857141
 40
0.4642857142857141
 40
0.4999999999999998
 40
0.4999999999999998
 40
0.4999999999999998
 40
0.4999999999999998
 40
0.5357142857142856
 40
0.5357142857142856
 40
0.5357142857142856
 40
0.5357142857142856
 40
0.5714285714285713
 40
0.5714285714285713
 40
0.5714285714285713
 40
0.5714285714285713
 40
0.607142857142857
 40
0.607142857142857
 40
0.607142857142857
 40
0.607142857142857
 40
0.6428571428571427
 40
0.6428571428571427
 40
0.6428571428571427
 40
0.6428571428571427
 40
0.6785714285714284
 40
0.6785714285714284
 40
0.6785714285714284
 40
0.6785714285714284
 40
0.7142857142857141
 40
0.7142857142857141
 40
0.7142857142857141
 40
0.7142857142857141
 40
0.7499999999999998
 40
0.7499999999999998
 40
0.7499999999999998
 40
0.7499999999999998
 40
0.7857142857142855
 40
0.7857142857142855
 40
0.7857142857142855
 40
0.7857142857142855
 40
0.8214285714285712
 40
0.8214285714285712
 40
0.8214285714285712
 40
0.8214285714285712
 40
0.8571428571428569
 40
0.8571428571428569
 40
0.8571428571428569
 40
0.8571428571428569
 40
0.8928571428571426
 40
0.8928571428571426
 40
0.8928571428571426
 40
0.8928571428571426
 40
0.9285714285714283
 40
0.9285714285714283
 40
0.9285714285714283
 40
0.9285714285714283
 40
0.964285714285714
 40
0.964285714285714
 40
0.964285714285714
 40
0.964285714285714
 40
1.0
 40
1.0
 40
1.0
 40
1.0
 10
-1.8591300000000002
 20
-3.1806400000000004
 30
0.0
 10
-2.10297
 20
-2.6955
 30
0.0
 10
-2.35697
 20
-3.3254200000000003
 30
0.0
 10
-2.6516100000000002
 20
-3.5768800000000005
 30
0.0
 10
-2.6516100000000002
 20
-3.5768800000000005
 30
0.0
 10
-2.4128500000000002
 20
-2.9520400000000002
 30
0.0
 10
-2.1334500000000003
 20
-2.31704
 30
0.0
 10
-2.1334500000000003
 20
-1.6134600000000001
 30
0.0
 10
-2.1334500000000003
 20
-1.6134600000000001
 30
0.0
 10
-2.2401300000000002
 20
-1.7328400000000002
 30
0.0
 10
-2.3976100000000002
 20
-1.9258800000000003
 30
0.0
 10
-2.5068300000000003
 20
-2.01478
 30
0.0
 10
-2.5068300000000003
 20
-2.01478
 30
0.0
 10
-2.6211300000000004
 20
-2.0554200000000002
 30
0.0
 10
-2.3696700000000002
 20
-1.7099800000000001
 30
0.0
 10
-2.4560300000000002
 20
-1.58806
 30
0.0
 10
-2.4560300000000002
 20
-1.58806
 30
0.0
 10
-2.5423900000000001
 20
-1.6820400000000002
 30
0.0
 10
-2.6008100000000001
 20
-1.5779000000000001
 30
0.0
 10
-2.6897100000000003
 20
-1.5753600000000001
 30
0.0
 10
-2.6897100000000003
 20
-1.5753600000000001
 30
0.0
 10
-3.1799300000000001
 20
-2.2408400000000004
 30
0.0
 10
-3.6422100000000004
 20
-2.9342600000000001
 30
0.0
 10
-4.3203900000000006
 20
-3.4448000000000003
 30
0.0
 10
-4.3203900000000006
 20
-3.4448000000000003
 30
0.0
 10
-4.4677100000000003
 20
-3.5718000000000001
 30
0.0
 10
-4.5997900000000005
 20
-3.7419800000000003
 30
0.0
 10
-4.7953700000000001
 20
-3.7242000000000002
 30
0.0
 10
-4.7953700000000001
 20
-3.7242000000000002
 30
0.0
 10
-4.3965900000000007
 20
-3.1755600000000004
 30
0.0
 10
-3.7412700000000001
 20
-2.4770600000000003
 30
0.0
 10
-3.7946100000000005
 20
-1.7734800000000002
 30
0.0
 10
-3.7946100000000005
 20
-1.7734800000000002
 30
0.0
 10
-3.8047700000000004
 20
-1.6439400000000002
 30
0.0
 10
-3.8200100000000003
 20
-1.5144000000000002
 30
0.0
 10
-3.8860500000000004
 20
-1.3848600000000002
 30
0.0
 10
-3.8860500000000004
 20
-1.3848600000000002
 30
0.0
 10
-3.8860500000000004
 20
-1.3848600000000002
 30
0.0
 10
-3.9012900000000004
 20
-0.4603
 30
0.0
 10
-3.9012900000000004
 20
-0.4603
 30
0.0
 10
-3.9012900000000004
 20
-0.4603
 30
0.0
 10
-3.7539700000000003
 20
0.3905900000000001
 30
0.0
 10
-2.8014700000000001
 20
1.7088500000000002
 30
0.0
 10
-3.9368500000000002
 20
2.2346300000000001
 30
0.0
 10
-3.9368500000000002
 20
2.2346300000000001
 30
0.0
 10
-3.9800300000000002
 20
2.3082900000000004
 30
0.0
 10
-4.0181300000000002
 20
2.3870300000000002
 30
0.0
 10
-4.0841700000000003
 20
2.4505300000000001
 30
0.0
 10
-4.0841700000000003
 20
2.4505300000000001
 30
0.0
 10
-4.1679900000000005
 20
2.6232500000000001
 30
0.0
 10
-4.1222700000000003
 20
2.7807300000000001
 30
0.0
 10
-3.9698700000000002
 20
2.9051900000000002
 30
0.0
 10
-3.9698700000000002
 20
2.9051900000000002
 30
0.0
 10
-3.7895300000000005
 20
3.1769700000000003
 30
0.0
 10
-3.4923500000000001
 20
3.3877900000000003
 30
0.0
 10
-3.3272500000000003
 20
3.6697300000000004
 30
0.0
 10
-3.3272500000000003
 20
3.6697300000000004
 30
0.0
 10
-3.15707
 20
3.9948500000000005
 30
0.0
 10
-2.9868900000000003
 20
4.3174300000000008
 30
0.0
 10
-2.8040100000000003
 20
4.63239
 30
0.0
 10
-2.8040100000000003
 20
4.63239
 30
0.0
 10
-1.8083300000000002
 20
6.8066300000000002
 30
0.0
 10
1.2599800000000001
 20
7.373050000000001
 30
0.0
 10
3.2030800000000004
 20
6.2122700000000002
 30
0.0
 10
3.2030800000000004
 20
6.2122700000000002
 30
0.0
 10
3.9549200000000004
 20
5.7626900000000001
 30
0.0
 10
4.5315000000000003
 20
4.9600500000000007
 30
0.0
 10
4.76518
 20
4.03803
 30
0.0
 10
4.76518
 20
4.03803
 30
0.0
 10
4.9125000000000005
 20
2.9458300000000004
 30
0.0
 10
4.6051600000000006
 20
1.5158100000000001
 30
0.0
 10
3.4799400000000005
 20
1.1424300000000001
 30
0.0
 10
3.4799400000000005
 20
1.1424300000000001
 30
0.0
 10
3.2107000000000001
 20
0.12643
 30
0.0
 10
2.8500200000000002
 20
-1.1156200000000001
 30
0.0
 10
3.5053400000000003
 20
-2.0909800000000001
 30
0.0
 10
3.5053400000000003
 20
-2.0909800000000001
 30
0.0
 10
2.6620600000000003
 20
-3.5565600000000002
 30
0.0
 10
0.6935600000000001
 20
-4.4735000000000005
 30
0.0
 10
0.6249800000000001
 20
-6.3251600000000003
 30
0.0
 10
0.6249800000000001
 20
-6.3251600000000003
 30
0.0
 10
0.14238
 20
-6.3581800000000008
 30
0.0
 10
-0.26909
 20
-6.462320000000001
 30
0.0
 10
-0.59167
 20
-6.8077600000000009
 30
0.0
 10
-0.59167
 20
-6.8077600000000009
 30
0.0
 10
-0.8990100000000001
 20
-6.2108600000000003
 30
0.0
 10
-1.5949700000000002
 20
-6.1372000000000009
 30
0.0
 10
-1.8769100000000001
 20
-5.5936400000000006
 30
0.0
 10
-1.8769100000000001
 20
-5.5936400000000006
 30
0.0
 10
-2.31887
 20
-5.5174400000000006
 30
0.0
 10
-2.77861
 20
-5.0856400000000006
 30
0.0
 10
-2.8116300000000001
 20
-4.6843200000000005
 30
0.0
 10
-2.8116300000000001
 20
-4.6843200000000005
 30
0.0
 10
-2.5855700000000001
 20
-4.8291000000000004
 30
0.0
 10
-2.3341100000000004
 20
-4.9611800000000006
 30
0.0
 10
-2.0521700000000003
 20
-4.9713400000000005
 30
0.0
 10
-2.0521700000000003
 20
-4.9713400000000005
 30
0.0
 10
-2.30871
 20
-4.5801800000000004
 30
0.0
 10
-1.9175500000000001
 20
-4.7630600000000003
 30
0.0
 10
-1.8235700000000001
 20
-4.3719000000000001
 30
0.0
 10
-1.8235700000000001
 20
-4.3719000000000001
 30
0.0
 10
-1.8235700000000001
 20
-4.2322000000000006
 30
0.0
 10
-1.7702300000000002
 20
-4.0874200000000007
 30
0.0
 10
-1.8108700000000002
 20
-3.9451800000000001
 30
0.0
 10
-1.8108700000000002
 20
-3.9451800000000001
 30
0.0
 10
-2.22743
 20
-4.0340800000000003
 30
0.0
 10
-2.2731500000000002
 20
-3.1704800000000004
 30
0.0
 10
-1.9226300000000001
 20
-3.2263600000000001
 30
0.0
 10
-1.9226300000000001
 20
-3.2263600000000001
 30
0.0
 10
-1.8007100000000003
 20
-3.2441400000000002
 30
0.0
 10
-1.7880100000000001
 20
-3.3254200000000003
 30
0.0
 10
-1.8591300000000002
 20
-3.1806400000000004
 30
0.0
  0
SPLINE
  5
26
100
AcDbEntity
  8
Ebene 1
100
AcDbSpline
210
0.0
220
0.0
230
1.0
 70
     1
 71
     3
 72
    28
 73
    24
 74
     0
 42
0.0000000001
 43
0.0000000001
 40
0.0
 40
0.0
 40
0.0
 40
0.0
 40
0.1666666666666667
 40
0.1666666666666667
 40
0.1666666666666667
 40
0.1666666666666667
 40
0.3333333333333333
 40
0.3333333333333333
 40
0.3333333333333333
 40
0.3333333333333333
 40
0.5
 40
0.5
 40
0.5
 40
0.5
 40
0.6666666666666666
 40
0.6666666666666666
 40
0.6666666666666666
 40
0.6666666666666666
 40
0.8333333333333333
 40
0.8333333333333333
 40
0.8333333333333333
 40
0.8333333333333333
 40
1.0
 40
1.0
 40
1.0
 40
1.0
 10
2.1921600000000003
 20
0.80969
 30
0.0
 10
2.1921600000000003
 20
0.80969
 30
0.0
 10
2.0448400000000002
 20
0.7538100000000001
 30
0.0
 10
2.0448400000000002
 20
0.7538100000000001
 30
0.0
 10
2.0448400000000002
 20
0.7538100000000001
 30
0.0
 10
2.0448400000000002
 20
0.7538100000000001
 30
0.0
 10
1.9508600000000003
 20
0.34233
 30
0.0
 10
1.9508600000000003
 20
0.34233
 30
0.0
 10
1.9508600000000003
 20
0.34233
 30
0.0
 10
2.08548
 20
-0.16566
 30
0.0
 10
1.9508600000000003
 20
-0.8032
 30
0.0
 10
2.2861400000000001
 20
-1.2248400000000002
 30
0.0
 10
2.2861400000000001
 20
-1.2248400000000002
 30
0.0
 10
2.33948
 20
-1.1892800000000001
 30
0.0
 10
2.3547200000000004
 20
-1.12324
 30
0.0
 10
2.3928200000000004
 20
-1.0724400000000001
 30
0.0
 10
2.3928200000000004
 20
-1.0724400000000001
 30
0.0
 10
2.4741000000000004
 20
-0.4780800000000001
 30
0.0
 10
2.5807800000000003
 20
0.21533
 30
0.0
 10
2.3547200000000004
 20
0.7817500000000001
 30
0.0
 10
2.3547200000000004
 20
0.7817500000000001
 30
0.0
 10
2.3140800000000001
 20
0.8325500000000001
 30
0.0
 10
2.24804
 20
0.8020700000000001
 30
0.0
 10
2.1921600000000003
 20
0.80969
 30
0.0
  0
SPLINE
  5
27
100
AcDbEntity
  8
Ebene 1
100
AcDbSpline
210
0.0
220
0.0
230
1.0
 70
     1
 71
     3
 72
    52
 73
    48
 74
     0
 42
0.0000000001
 43
0.0000000001
 40
0.0
 40
0.0
 40
0.0
 40
0.0
 40
0.0833333333333333
 40
0.0833333333333333
 40
0.0833333333333333
 40
0.0833333333333333
 40
0.1666666666666667
 40
0.1666666666666667
 40
0.1666666666666667
 40
0.1666666666666667
 40
0.25
 40
0.25
 40
0.25
 40
0.25
 40
0.3333333333333333
 40
0.3333333333333333
 40
0.3333333333333333
 40
0.3333333333333333
 40
0.4166666666666666
 40
0.4166666666666666
 40
0.4166666666666666
 40
0.4166666666666666
 40
0.4999999999999999
 40
0.4999999999999999
 40
0.4999999999999999
 40
0.4999999999999999
 40
0.5833333333333333
 40
0.5833333333333333
 40
0.5833333333333333
 40
0.5833333333333333
 40
0.6666666666666666
 40
0.6666666666666666
 40
0.6666666666666666
 40
0.6666666666666666
 40
0.75
 40
0.75
 40
0.75
 40
0.75
 40
0.8333333333333334
 40
0.8333333333333334
 40
0.8333333333333334
 40
0.8333333333333334
 40
0.9166666666666667
 40
0.9166666666666667
 40
0.9166666666666667
 40
0.9166666666666667
 40
1.0
 40
1.0
 40
1.0
 40
1.0
 10
0.43702
 20
-1.8801600000000001
 30
0.0
 10
0.43702
 20
-1.3467600000000002
 30
0.0
 10
1.3082400000000001
 20
-1.4890000000000001
 30
0.0
 10
1.0948800000000001
 20
-2.0097
 30
0.0
 10
1.0948800000000001
 20
-2.0097
 30
0.0
 10
1.40222
 20
-1.8496800000000002
 30
0.0
 10
1.6587600000000002
 20
-1.5753600000000001
 30
0.0
 10
1.5368400000000002
 20
-1.1842000000000001
 30
0.0
 10
1.5368400000000002
 20
-1.1842000000000001
 30
0.0
 10
1.5241400000000001
 20
-0.94798
 30
0.0
 10
1.5241400000000001
 20
-0.69652
 30
0.0
 10
1.4682600000000001
 20
-0.47554
 30
0.0
 10
1.4682600000000001
 20
-0.47554
 30
0.0
 10
1.1761600000000001
 20
-0.65842
 30
0.0
 10
0.8535800000000001
 20
-0.7066800000000001
 30
0.0
 10
0.57164
 20
-0.9022600000000001
 30
0.0
 10
0.57164
 20
-0.9022600000000001
 30
0.0
 10
0.46496
 20
-0.8743200000000001
 30
0.0
 10
0.42432
 20
-0.75748
 30
0.0
 10
0.39638
 20
-0.67366
 30
0.0
 10
0.39638
 20
-0.67366
 30
0.0
 10
0.33034
 20
-0.9530600000000001
 30
0.0
 10
-0.04049
 20
-1.1994400000000001
 30
0.0
 10
-0.30973
 20
-1.03942
 30
0.0
 10
-0.30973
 20
-1.03942
 30
0.0
 10
-0.36307
 20
-1.37216
 30
0.0
 10
0.07634
 20
-1.4763000000000002
 30
0.0
 10
0.12968
 20
-1.7201400000000002
 30
0.0
 10
0.12968
 20
-1.7201400000000002
 30
0.0
 10
-0.49769
 20
-2.2916400000000001
 30
0.0
 10
-0.24369
 20
-3.3305000000000002
 30
0.0
 10
-0.24369
 20
-4.1179000000000006
 30
0.0
 10
-0.24369
 20
-4.1179000000000006
 30
0.0
 10
0.0484
 20
-3.8232600000000003
 30
0.0
 10
0.15762
 20
-3.3559000000000001
 30
0.0
 10
0.30494
 20
-3.0180800000000003
 30
0.0
 10
0.30494
 20
-3.0180800000000003
 30
0.0
 10
0.2897
 20
-2.9850600000000003
 30
0.0
 10
0.277
 20
-2.9469600000000002
 30
0.0
 10
0.23636
 20
-2.9215600000000004
 30
0.0
 10
0.23636
 20
-2.9215600000000004
 30
0.0
 10
0.23636
 20
-2.9215600000000004
 30
0.0
 10
0.06364
 20
-2.6878800000000003
 30
0.0
 10
0.06364
 20
-2.6878800000000003
 30
0.0
 10
0.06364
 20
-2.6878800000000003
 30
0.0
 10
-0.43165
 20
-2.4288000000000003
 30
0.0
 10
-0.01509
 20
-1.7938000000000001
 30
0.0
 10
0.43702
 20
-1.8801600000000001
 30
0.0
  0
SPLINE
  5
28
100
AcDbEntity
  8
Ebene 1
 62
     7
100
AcDbSpline
210
0.0
220
0.0
230
1.0
 70
     1
 71
     3
 72
   324
 73
   320
 74
     0
 42
0.0000000001
 43
0.0000000001
 40
0.0
 40
0.0
 40
0.0
 40
0.0
 40
0.0125
 40
0.0125
 40
0.0125
 40
0.0125
 40
0.025
 40
0.025
 40
0.025
 40
0.025
 40
0.0375
 40
0.0375
 40
0.0375
 40
0.0375
 40
0.05
 40
0.05
 40
0.05
 40
0.05
 40
0.0625
 40
0.0625
 40
0.0625
 40
0.0625
 40
0.075
 40
0.075
 40
0.075
 40
0.075
 40
0.0875
 40
0.0875
 40
0.0875
 40
0.0875
 40
0.1
 40
0.1
 40
0.1
 40
0.1
 40
0.1125
 40
0.1125
 40
0.1125
 40
0.1125
 40
0.125
 40
0.125
 40
0.125
 40
0.125
 40
0.1375
 40
0.1375
 40
0.1375
 40
0.1375
 40
0.15
 40
0.15
 40
0.15
 40
0.15
 40
0.1625
 40
0.1625
 40
0.1625
 40
0.1625
 40
0.175
 40
0.175
 40
0.175
 40
0.175
 40
0.1875
 40
0.1875
 40
0.1875
 40
0.1875
 40
0.2
 40
0.2
 40
0.2
 40
0.2
 40
0.2125000000000001
 40
0.2125000000000001
 40
0.2125000000000001
 40
0.2125000000000001
 40
0.2250000000000001
 40
0.2250000000000001
 40
0.2250000000000001
 40
0.2250000000000001
 40
0.2375000000000001
 40
0.2375000000000001
 40
0.2375000000000001
 40
0.2375000000000001
 40
0.2500000000000001
 40
0.2500000000000001
 40
0.2500000000000001
 40
0.2500000000000001
 40
0.2625000000000001
 40
0.2625000000000001
 40
0.2625000000000001
 40
0.2625000000000001
 40
0.2750000000000001
 40
0.2750000000000001
 40
0.2750000000000001
 40
0.2750000000000001
 40
0.2875000000000001
 40
0.2875000000000001
 40
0.2875000000000001
 40
0.2875000000000001
 40
0.3000000000000001
 40
0.3000000000000001
 40
0.3000000000000001
 40
0.3000000000000001
 40
0.3125000000000001
 40
0.3125000000000001
 40
0.3125000000000001
 40
0.3125000000000001
 40
0.3250000000000001
 40
0.3250000000000001
 40
0.3250000000000001
 40
0.3250000000000001
 40
0.3375000000000001
 40
0.3375000000000001
 40
0.3375000000000001
 40
0.3375000000000001
 40
0.3500000000000001
 40
0.3500000000000001
 40
0.3500000000000001
 40
0.3500000000000001
 40
0.3625000000000002
 40
0.3625000000000002
 40
0.3625000000000002
 40
0.3625000000000002
 40
0.3750000000000002
 40
0.3750000000000002
 40
0.3750000000000002
 40
0.3750000000000002
 40
0.3875000000000002
 40
0.3875000000000002
 40
0.3875000000000002
 40
0.3875000000000002
 40
0.4000000000000002
 40
0.4000000000000002
 40
0.4000000000000002
 40
0.4000000000000002
 40
0.4125000000000002
 40
0.4125000000000002
 40
0.4125000000000002
 40
0.4125000000000002
 40
0.4250000000000002
 40
0.4250000000000002
 40
0.4250000000000002
 40
0.4250000000000002
 40
0.4375000000000002
 40
0.4375000000000002
 40
0.4375000000000002
 40
0.4375000000000002
 40
0.4500000000000002
 40
0.4500000000000002
 40
0.4500000000000002
 40
0.4500000000000002
 40
0.4625000000000002
 40
0.4625000000000002
 40
0.4625000000000002
 40
0.4625000000000002
 40
0.4750000000000003
 40
0.4750000000000003
 40
0.4750000000000003
 40
0.4750000000000003
 40
0.4875000000000003
 40
0.4875000000000003
 40
0.4875000000000003
 40
0.4875000000000003
 40
0.5000000000000002
 40
0.5000000000000002
 40
0.5000000000000002
 40
0.5000000000000002
 40
0.5125000000000002
 40
0.5125000000000002
 40
0.5125000000000002
 40
0.5125000000000002
 40
0.5250000000000001
 40
0.5250000000000001
 40
0.5250000000000001
 40
0.5250000000000001
 40
0.5375000000000001
 40
0.5375000000000001
 40
0.5375000000000001
 40
0.5375000000000001
 40
0.55
 40
0.55
 40
0.55
 40
0.55
 40
0.5625
 40
0.5625
 40
0.5625
 40
0.5625
 40
0.575
 40
0.575
 40
0.575
 40
0.575
 40
0.5874999999999999
 40
0.5874999999999999
 40
0.5874999999999999
 40
0.5874999999999999
 40
0.5999999999999999
 40
0.5999999999999999
 40
0.5999999999999999
 40
0.5999999999999999
 40
0.6124999999999998
 40
0.6124999999999998
 40
0.6124999999999998
 40
0.6124999999999998
 40
0.6249999999999998
 40
0.6249999999999998
 40
0.6249999999999998
 40
0.6249999999999998
 40
0.6374999999999997
 40
0.6374999999999997
 40
0.6374999999999997
 40
0.6374999999999997
 40
0.6499999999999997
 40
0.6499999999999997
 40
0.6499999999999997
 40
0.6499999999999997
 40
0.6624999999999996
 40
0.6624999999999996
 40
0.6624999999999996
 40
0.6624999999999996
 40
0.6749999999999996
 40
0.6749999999999996
 40
0.6749999999999996
 40
0.6749999999999996
 40
0.6874999999999996
 40
0.6874999999999996
 40
0.6874999999999996
 40
0.6874999999999996
 40
0.6999999999999995
 40
0.6999999999999995
 40
0.6999999999999995
 40
0.6999999999999995
 40
0.7124999999999995
 40
0.7124999999999995
 40
0.7124999999999995
 40
0.7124999999999995
 40
0.7249999999999994
 40
0.7249999999999994
 40
0.7249999999999994
 40
0.7249999999999994
 40
0.7374999999999994
 40
0.7374999999999994
 40
0.7374999999999994
 40
0.7374999999999994
 40
0.7499999999999993
 40
0.7499999999999993
 40
0.7499999999999993
 40
0.7499999999999993
 40
0.7624999999999993
 40
0.7624999999999993
 40
0.7624999999999993
 40
0.7624999999999993
 40
0.7749999999999993
 40
0.7749999999999993
 40
0.7749999999999993
 40
0.7749999999999993
 40
0.7874999999999992
 40
0.7874999999999992
 40
0.7874999999999992
 40
0.7874999999999992
 40
0.7999999999999992
 40
0.7999999999999992
 40
0.7999999999999992
 40
0.7999999999999992
 40
0.8124999999999991
 40
0.8124999999999991
 40
0.8124999999999991
 40
0.8124999999999991
 40
0.8249999999999991
 40
0.8249999999999991
 40
0.8249999999999991
 40
0.8249999999999991
 40
0.837499999999999
 40
0.837499999999999
 40
0.837499999999999
 40
0.837499999999999
 40
0.849999999999999
 40
0.849999999999999
 40
0.849999999999999
 40
0.849999999999999
 40
0.8624999999999989
 40
0.8624999999999989
 40
0.8624999999999989
 40
0.8624999999999989
 40
0.8749999999999989
 40
0.8749999999999989
 40
0.8749999999999989
 40
0.8749999999999989
 40
0.8874999999999989
 40
0.8874999999999989
 40
0.8874999999999989
 40
0.8874999999999989
 40
0.8999999999999988
 40
0.8999999999999988
 40
0.8999999999999988
 40
0.8999999999999988
 40
0.9124999999999988
 40
0.9124999999999988
 40
0.9124999999999988
 40
0.9124999999999988
 40
0.9249999999999987
 40
0.9249999999999987
 40
0.9249999999999987
 40
0.9249999999999987
 40
0.9374999999999987
 40
0.9374999999999987
 40
0.9374999999999987
 40
0.9374999999999987
 40
0.9499999999999986
 40
0.9499999999999986
 40
0.9499999999999986
 40
0.9499999999999986
 40
0.9624999999999986
 40
0.9624999999999986
 40
0.9624999999999986
 40
0.9624999999999986
 40
0.9749999999999985
 40
0.9749999999999985
 40
0.9749999999999985
 40
0.9749999999999985
 40
0.9874999999999985
 40
0.9874999999999985
 40
0.9874999999999985
 40
0.9874999999999985
 40
1.0
 40
1.0
 40
1.0
 40
1.0
 10
-2.0521700000000003
 20
5.0718100000000002
 30
0.0
 10
-2.0521700000000003
 20
5.0718100000000002
 30
0.0
 10
-1.9175500000000001
 20
5.1911900000000006
 30
0.0
 10
-1.9175500000000001
 20
5.1911900000000006
 30
0.0
 10
-1.9175500000000001
 20
5.1911900000000006
 30
0.0
 10
-2.0775700000000001
 20
5.1962700000000002
 30
0.0
 10
-1.8642100000000001
 20
5.3004100000000003
 30
0.0
 10
-1.8235700000000001
 20
5.35121
 30
0.0
 10
-1.8235700000000001
 20
5.35121
 30
0.0
 10
-1.8642100000000001
 20
5.3918500000000007
 30
0.0
 10
-1.9048500000000002
 20
5.3486700000000003
 30
0.0
 10
-1.9454900000000002
 20
5.3359700000000005
 30
0.0
 10
-1.9454900000000002
 20
5.3359700000000005
 30
0.0
 10
-2.4026900000000002
 20
5.0235500000000002
 30
0.0
 10
-2.3341100000000004
 20
4.42157
 30
0.0
 10
-2.57287
 20
3.9872300000000003
 30
0.0
 10
-2.57287
 20
3.9872300000000003
 30
0.0
 10
-2.57287
 20
3.9872300000000003
 30
0.0
 10
-2.6643100000000004
 20
3.4944700000000002
 30
0.0
 10
-2.6643100000000004
 20
3.4944700000000002
 30
0.0
 10
-2.6643100000000004
 20
3.4944700000000002
 30
0.0
 10
-2.56271
 20
3.6036900000000003
 30
0.0
 10
-2.57287
 20
3.7865700000000002
 30
0.0
 10
-2.4534900000000004
 20
3.8932500000000001
 30
0.0
 10
-2.4534900000000004
 20
3.8932500000000001
 30
0.0
 10
-2.4534900000000004
 20
3.8932500000000001
 30
0.0
 10
-2.4534900000000004
 20
3.7179900000000004
 30
0.0
 10
-2.4534900000000004
 20
3.7179900000000004
 30
0.0
 10
-2.4534900000000004
 20
3.7179900000000004
 30
0.0
 10
-2.4306300000000003
 20
3.6290900000000001
 30
0.0
 10
-2.2807700000000004
 20
3.6417900000000003
 30
0.0
 10
-2.3341100000000004
 20
3.7713300000000003
 30
0.0
 10
-2.3341100000000004
 20
3.7713300000000003
 30
0.0
 10
-2.3061700000000003
 20
3.8856300000000004
 30
0.0
 10
-2.4153900000000004
 20
3.8907100000000003
 30
0.0
 10
-2.4103100000000004
 20
3.9973900000000002
 30
0.0
 10
-2.4103100000000004
 20
3.9973900000000002
 30
0.0
 10
-1.6635500000000001
 20
4.6552500000000006
 30
0.0
 10
-2.4661900000000001
 20
3.1845900000000005
 30
0.0
 10
-2.4128500000000002
 20
3.3700100000000002
 30
0.0
 10
-2.4128500000000002
 20
3.3700100000000002
 30
0.0
 10
-2.4966700000000004
 20
3.4385900000000005
 30
0.0
 10
-2.3899900000000001
 20
3.5097100000000001
 30
0.0
 10
-2.4230100000000001
 20
3.5757500000000002
 30
0.0
 10
-2.4230100000000001
 20
3.5757500000000002
 30
0.0
 10
-2.6871700000000001
 20
3.1871300000000002
 30
0.0
 10
-2.8116300000000001
 20
3.3928700000000003
 30
0.0
 10
-2.8243300000000002
 20
3.7814900000000002
 30
0.0
 10
-2.8243300000000002
 20
3.7814900000000002
 30
0.0
 10
-3.0275300000000001
 20
3.3344500000000004
 30
0.0
 10
-3.2789900000000003
 20
3.8576900000000003
 30
0.0
 10
-2.9716500000000003
 20
4.1574100000000005
 30
0.0
 10
-2.9716500000000003
 20
4.1574100000000005
 30
0.0
 10
-2.7455900000000004
 20
4.5612700000000004
 30
0.0
 10
-2.7633700000000001
 20
4.5892100000000005
 30
0.0
 10
-2.8294100000000002
 20
4.1193100000000005
 30
0.0
 10
-2.8294100000000002
 20
4.1193100000000005
 30
0.0
 10
-2.8471900000000003
 20
4.0304100000000007
 30
0.0
 10
-2.8548100000000001
 20
3.9059500000000003
 30
0.0
 10
-2.8294100000000002
 20
3.8246700000000002
 30
0.0
 10
-2.8294100000000002
 20
3.8246700000000002
 30
0.0
 10
-2.7532100000000002
 20
4.3021900000000004
 30
0.0
 10
-2.7227300000000003
 20
4.8584500000000004
 30
0.0
 10
-2.3366500000000001
 20
5.2165900000000001
 30
0.0
 10
-2.3366500000000001
 20
5.2165900000000001
 30
0.0
 10
-2.3366500000000001
 20
5.2165900000000001
 30
0.0
 10
-2.4306300000000003
 20
4.96767
 30
0.0
 10
-2.4306300000000003
 20
4.96767
 30
0.0
 10
-2.4306300000000003
 20
4.96767
 30
0.0
 10
-2.4890500000000002
 20
4.8686100000000003
 30
0.0
 10
-2.5550900000000003
 20
4.7797100000000006
 30
0.0
 10
-2.5601700000000003
 20
4.64255
 30
0.0
 10
-2.5601700000000003
 20
4.64255
 30
0.0
 10
-2.6389100000000001
 20
4.4342700000000006
 30
0.0
 10
-2.6947900000000002
 20
3.7586300000000001
 30
0.0
 10
-2.5652500000000003
 20
4.3682300000000005
 30
0.0
 10
-2.5652500000000003
 20
4.3682300000000005
 30
0.0
 10
-2.2629900000000003
 20
5.7957100000000006
 30
0.0
 10
-0.10653
 20
7.0276100000000001
 30
0.0
 10
0.7596000000000001
 20
6.4916700000000009
 30
0.0
 10
0.7596000000000001
 20
6.4916700000000009
 30
0.0
 10
0.6249800000000001
 20
6.3443500000000004
 30
0.0
 10
0.17032
 20
6.3443500000000004
 30
0.0
 10
0.22366
 20
6.1843300000000001
 30
0.0
 10
0.22366
 20
6.1843300000000001
 30
0.0
 10
0.6656200000000001
 20
6.2021100000000002
 30
0.0
 10
0.9196200000000001
 20
6.6110500000000005
 30
0.0
 10
1.3488800000000001
 20
6.4916700000000009
 30
0.0
 10
1.3488800000000001
 20
6.4916700000000009
 30
0.0
 10
1.5622400000000001
 20
6.4637300000000009
 30
0.0
 10
1.7502000000000002
 20
6.3570500000000001
 30
0.0
 10
1.9381600000000001
 20
6.2402100000000003
 30
0.0
 10
1.9381600000000001
 20
6.2402100000000003
 30
0.0
 10
1.7654400000000001
 20
6.4510300000000003
 30
0.0
 10
1.4682600000000001
 20
6.5323100000000007
 30
0.0
 10
1.2422000000000002
 20
6.6110500000000005
 30
0.0
 10
1.2422000000000002
 20
6.6110500000000005
 30
0.0
 10
1.36158
 20
6.6262900000000009
 30
0.0
 10
1.5241400000000001
 20
6.5856500000000002
 30
0.0
 10
1.6587600000000002
 20
6.5602500000000008
 30
0.0
 10
1.6587600000000002
 20
6.5602500000000008
 30
0.0
 10
2.24804
 20
6.5602500000000008
 30
0.0
 10
2.8754200000000001
 20
6.3849900000000002
 30
0.0
 10
3.2792800000000004
 20
5.9608100000000004
 30
0.0
 10
3.2792800000000004
 20
5.9608100000000004
 30
0.0
 10
3.1167200000000004
 20
5.9354100000000001
 30
0.0
 10
2.9694000000000003
 20
5.9912900000000002
 30
0.0
 10
2.8220800000000001
 20
6.0217700000000001
 30
0.0
 10
2.8220800000000001
 20
6.0217700000000001
 30
0.0
 10
2.0321400000000001
 20
5.5493300000000003
 30
0.0
 10
0.7469
 20
6.0268500000000005
 30
0.0
 10
0.33034
 20
5.0591100000000004
 30
0.0
 10
0.33034
 20
5.0591100000000004
 30
0.0
 10
0.277
 20
5.0006900000000005
 30
0.0
 10
0.17032
 20
4.9219500000000007
 30
0.0
 10
0.18302
 20
4.8076500000000006
 30
0.0
 10
0.18302
 20
4.8076500000000006
 30
0.0
 10
1.2015600000000002
 20
4.37331
 30
0.0
 10
1.5901800000000001
 20
3.3293700000000004
 30
0.0
 10
1.3895200000000001
 20
2.26003
 30
0.0
 10
1.3895200000000001
 20
2.26003
 30
0.0
 10
2.2861400000000001
 20
2.0568300000000002
 30
0.0
 10
3.3046800000000003
 20
1.5412100000000002
 30
0.0
 10
4.2165400000000002
 20
2.0796900000000003
 30
0.0
 10
4.2165400000000002
 20
2.0796900000000003
 30
0.0
 10
3.9092000000000002
 20
1.5869300000000002
 30
0.0
 10
3.4113600000000002
 20
1.6275700000000002
 30
0.0
 10
2.9567000000000001
 20
1.4777100000000001
 30
0.0
 10
2.9567000000000001
 20
1.4777100000000001
 30
0.0
 10
3.2259400000000005
 20
1.4192900000000002
 30
0.0
 10
3.5459800000000001
 20
1.3253100000000002
 30
0.0
 10
3.3707200000000004
 20
0.9722500000000001
 30
0.0
 10
3.3707200000000004
 20
0.9722500000000001
 30
0.0
 10
3.1040200000000002
 20
1.0865500000000001
 30
0.0
 10
3.1319600000000003
 20
1.48533
 30
0.0
 10
2.67476
 20
1.4269100000000001
 30
0.0
 10
2.67476
 20
1.4269100000000001
 30
0.0
 10
2.67476
 20
1.4269100000000001
 30
0.0
 10
2.5401400000000001
 20
1.4269100000000001
 30
0.0
 10
2.5401400000000001
 20
1.4269100000000001
 30
0.0
 10
2.5401400000000001
 20
1.4269100000000001
 30
0.0
 10
2.3674200000000001
 20
1.52851
 30
0.0
 10
2.9694000000000003
 20
1.48787
 30
0.0
 10
2.9846400000000002
 20
1.6402700000000001
 30
0.0
 10
2.9846400000000002
 20
1.6402700000000001
 30
0.0
 10
2.2734400000000003
 20
1.7977500000000002
 30
0.0
 10
1.7502000000000002
 20
1.6656700000000002
 30
0.0
 10
1.2549000000000001
 20
1.32023
 30
0.0
 10
1.2549000000000001
 20
1.32023
 30
0.0
 10
0.78754
 20
1.5005700000000002
 30
0.0
 10
0.33034
 20
1.23895
 30
0.0
 10
0.023
 20
0.8681100000000001
 30
0.0
 10
0.023
 20
0.8681100000000001
 30
0.0
 10
0.18302
 20
1.3126100000000001
 30
0.0
 10
0.8789800000000001
 20
1.9526900000000003
 30
0.0
 10
1.1761600000000001
 20
1.57423
 30
0.0
 10
1.1761600000000001
 20
1.57423
 30
0.0
 10
1.2142600000000001
 20
1.6580500000000002
 30
0.0
 10
1.32094
 20
1.65551
 30
0.0
 10
1.32094
 20
1.7723500000000001
 30
0.0
 10
1.32094
 20
1.7723500000000001
 30
0.0
 10
1.0948800000000001
 20
1.8815700000000002
 30
0.0
 10
1.2295
 20
2.1431900000000002
 30
0.0
 10
1.18886
 20
2.3387700000000002
 30
0.0
 10
1.18886
 20
2.3387700000000002
 30
0.0
 10
1.2142600000000001
 20
2.5318100000000001
 30
0.0
 10
1.10758
 20
3.4157300000000004
 30
0.0
 10
1.0948800000000001
 20
2.88741
 30
0.0
 10
1.0948800000000001
 20
2.88741
 30
0.0
 10
1.2955400000000001
 20
1.2872100000000002
 30
0.0
 10
-0.23099
 20
1.7164700000000002
 30
0.0
 10
-1.3689100000000001
 20
1.7723500000000001
 30
0.0
 10
-1.3689100000000001
 20
1.7723500000000001
 30
0.0
 10
-1.3689100000000001
 20
1.6478900000000001
 30
0.0
 10
-1.16825
 20
1.57423
 30
0.0
 10
-1.1403100000000002
 20
1.4370700000000001
 30
0.0
 10
-1.1403100000000002
 20
1.4370700000000001
 30
0.0
 10
-0.9675900000000001
 20
1.0916300000000001
 30
0.0
 10
-1.04633
 20
1.5513700000000001
 30
0.0
 10
-0.8329700000000001
 20
1.2160900000000001
 30
0.0
 10
-0.8329700000000001
 20
1.2160900000000001
 30
0.0
 10
-0.6856500000000001
 20
0.9824100000000001
 30
0.0
 10
-0.7110500000000001
 20
1.2643500000000001
 30
0.0
 10
-0.8329700000000001
 20
1.36341
 30
0.0
 10
-0.8329700000000001
 20
1.36341
 30
0.0
 10
-1.04633
 20
1.8739500000000002
 30
0.0
 10
-0.40371
 20
0.7182500000000001
 30
0.0
 10
-0.4164100000000001
 20
1.1627500000000002
 30
0.0
 10
-0.4164100000000001
 20
1.1627500000000002
 30
0.0
 10
-0.44435
 20
1.2694300000000001
 30
0.0
 10
-0.26909
 20
1.1271900000000001
 30
0.0
 10
-0.19035
 20
1.19069
 30
0.0
 10
-0.19035
 20
1.19069
 30
0.0
 10
-0.43165
 20
1.4650100000000001
 30
0.0
 10
0.00776
 20
1.4497700000000002
 30
0.0
 10
-0.04049
 20
1.1373500000000001
 30
0.0
 10
-0.04049
 20
1.1373500000000001
 30
0.0
 10
0.31764
 20
1.6732900000000002
 30
0.0
 10
-0.55103
 20
0.18485
 30
0.0
 10
-0.21575
 20
0.41345
 30
0.0
 10
-0.21575
 20
0.41345
 30
0.0
 10
-0.19035
 20
0.4515500000000001
 30
0.0
 10
-0.17511
 20
0.6115700000000001
 30
0.0
 10
-0.12177
 20
0.55569
 30
0.0
 10
-0.12177
 20
0.55569
 30
0.0
 10
-0.20305
 20
0.16707
 30
0.0
 10
0.07634
 20
-0.23424
 30
0.0
 10
-0.00239
 20
0.38297
 30
0.0
 10
-0.00239
 20
0.38297
 30
0.0
 10
0.11698
 20
0.23057
 30
0.0
 10
0.023
 20
-0.06406
 30
0.0
 10
0.21096
 20
-0.16058
 30
0.0
 10
0.21096
 20
-0.16058
 30
0.0
 10
0.14238
 20
0.03753
 30
0.0
 10
0.08904
 20
0.24835
 30
0.0
 10
0.06364
 20
0.4617100000000001
 30
0.0
 10
0.06364
 20
0.4617100000000001
 30
0.0
 10
0.07634
 20
0.7360300000000001
 30
0.0
 10
0.15762
 20
0.68269
 30
0.0
 10
0.18302
 20
0.44901
 30
0.0
 10
0.18302
 20
0.44901
 30
0.0
 10
0.43702
 20
0.24073
 30
0.0
 10
0.531
 20
0.03499
 30
0.0
 10
0.18302
 20
0.03753
 30
0.0
 10
0.18302
 20
0.03753
 30
0.0
 10
0.277
 20
-0.09962
 30
0.0
 10
0.43702
 20
-0.0031
 30
0.0
 10
0.55894
 20
-0.07168
 30
0.0
 10
0.55894
 20
-0.07168
 30
0.0
 10
0.531
 20
-0.14788
 30
0.0
 10
0.41162
 20
-0.19106
 30
0.0
 10
0.43702
 20
-0.27996
 30
0.0
 10
0.43702
 20
-0.27996
 30
0.0
 10
-0.19035
 20
0.05531
 30
0.0
 10
-0.51039
 20
-0.8921000000000001
 30
0.0
 10
-1.08697
 20
-0.9378200000000001
 30
0.0
 10
-1.08697
 20
-0.9378200000000001
 30
0.0
 10
-1.08697
 20
-0.86416
 30
0.0
 10
-0.99299
 20
-0.8184400000000001
 30
0.0
 10
-0.95235
 20
-0.7676400000000001
 30
0.0
 10
-0.95235
 20
-0.7676400000000001
 30
0.0
 10
-0.95235
 20
-0.7676400000000001
 30
0.0
 10
-0.8710700000000001
 20
-0.5771400000000001
 30
0.0
 10
-0.8710700000000001
 20
-0.5771400000000001
 30
0.0
 10
-0.8710700000000001
 20
-0.5771400000000001
 30
0.0
 10
-0.8710700000000001
 20
-0.32568
 30
0.0
 10
-1.0742700000000001
 20
0.3372500000000001
 30
0.0
 10
-0.73899
 20
-0.11994
 30
0.0
 10
-0.73899
 20
-0.11994
 30
0.0
 10
-0.7516900000000001
 20
0.10611
 30
0.0
 10
-0.7110500000000001
 20
0.15691
 30
0.0
 10
-0.65771
 20
-0.08438
 30
0.0
 10
-0.65771
 20
-0.08438
 30
0.0
 10
-0.8990100000000001
 20
-1.0521200000000002
 30
0.0
 10
-0.16241
 20
-0.28758
 30
0.0
 10
-0.21575
 20
0.08579
 30
0.0
 10
-0.21575
 20
0.08579
 30
0.0
 10
-0.5230900000000001
 20
0.7792100000000001
 30
0.0
 10
-0.17511
 20
-0.4857
 30
0.0
 10
-0.5383300000000001
 20
-0.17328
 30
0.0
 10
-0.5383300000000001
 20
-0.17328
 30
0.0
 10
-0.31989
 20
0.31439
 30
0.0
 10
-0.6500900000000001
 20
0.72333
 30
0.0
 10
-1.04379
 20
1.1983100000000002
 30
0.0
 10
-1.04379
 20
1.1983100000000002
 30
0.0
 10
-1.4019300000000001
 20
1.6275700000000002
 30
0.0
 10
-1.8007100000000003
 20
2.1101700000000001
 30
0.0
 10
-2.1334500000000003
 20
2.7273900000000002
 30
0.0
 10
-2.1334500000000003
 20
2.7273900000000002
 30
0.0
 10
-2.1334500000000003
 20
2.7273900000000002
 30
0.0
 10
-2.06487
 20
3.09823
 30
0.0
 10
-2.06487
 20
3.09823
 30
0.0
 10
-2.06487
 20
3.09823
 30
0.0
 10
-2.2121900000000001
 20
3.0677500000000002
 30
0.0
 10
-2.2248900000000003
 20
2.8493100000000005
 30
0.0
 10
-2.3010900000000003
 20
2.7705700000000002
 30
0.0
 10
-2.3010900000000003
 20
2.7705700000000002
 30
0.0
 10
-2.4255500000000003
 20
3.2912700000000004
 30
0.0
 10
-2.1867900000000002
 20
3.8754700000000004
 30
0.0
 10
-1.75753
 20
4.1574100000000005
 30
0.0
 10
-1.75753
 20
4.1574100000000005
 30
0.0
 10
-1.7168900000000002
 20
4.1116900000000003
 30
0.0
 10
-1.7702300000000002
 20
4.04819
 30
0.0
 10
-1.7829300000000001
 20
3.9999300000000004
 30
0.0
 10
-1.7829300000000001
 20
3.9999300000000004
 30
0.0
 10
-1.8235700000000001
 20
3.9211900000000002
 30
0.0
 10
-1.8515100000000002
 20
3.7687900000000005
 30
0.0
 10
-1.75753
 20
3.9110300000000002
 30
0.0
 10
-1.75753
 20
3.9110300000000002
 30
0.0
 10
-1.75753
 20
3.9110300000000002
 30
0.0
 10
-1.7168900000000002
 20
3.9694500000000001
 30
0.0
 10
-1.7168900000000002
 20
3.9694500000000001
 30
0.0
 10
-1.7168900000000002
 20
3.9694500000000001
 30
0.0
 10
-1.7168900000000002
 20
3.9694500000000001
 30
0.0
 10
-1.6635500000000001
 20
4.0431100000000004
 30
0.0
 10
-1.6635500000000001
 20
4.0431100000000004
 30
0.0
 10
-1.6635500000000001
 20
4.0431100000000004
 30
0.0
 10
-1.8108700000000002
 20
4.5587300000000006
 30
0.0
 10
-1.0209300000000001
 20
4.8406700000000003
 30
0.0
 10
-0.91171
 20
5.2623100000000003
 30
0.0
 10
-0.91171
 20
5.2623100000000003
 30
0.0
 10
-1.0209300000000001
 20
5.4274100000000001
 30
0.0
 10
-0.8202700000000001
 20
5.4197900000000008
 30
0.0
 10
-1.0615700000000001
 20
5.4477300000000008
 30
0.0
 10
-1.0615700000000001
 20
5.4477300000000008
 30
0.0
 10
-1.0615700000000001
 20
5.4477300000000008
 30
0.0
 10
-0.8609100000000001
 20
5.5264700000000007
 30
0.0
 10
-0.8609100000000001
 20
5.5264700000000007
 30
0.0
 10
-0.8609100000000001
 20
5.5264700000000007
 30
0.0
 10
-1.46289
 20
5.7372900000000007
 30
0.0
 10
-1.2749300000000001
 20
4.5028500000000005
 30
0.0
 10
-2.0521700000000003
 20
4.4317299999999999
 30
0.0
 10
-2.0521700000000003
 20
4.4317299999999999
 30
0.0
 10
-2.0775700000000001
 20
4.5358700000000001
 30
0.0
 10
-2.1994900000000004
 20
4.6476300000000004
 30
0.0
 10
-2.01153
 20
4.6730300000000007
 30
0.0
 10
-2.01153
 20
4.6730300000000007
 30
0.0
 10
-2.1055100000000002
 20
5.0108500000000005
 30
0.0
 10
-2.06487
 20
4.9067100000000003
 30
0.0
 10
-2.0521700000000003
 20
5.0718100000000002
 30
0.0
  0
SPLINE
  5
29
100
AcDbEntity
  8
Ebene 1
100
AcDbSpline
210
0.0
220
0.0
230
1.0
 70
     1
 71
     3
 72
    92
 73
    88
 74
     0
 42
0.0000000001
 43
0.0000000001
 40
0.0
 40
0.0
 40
0.0
 40
0.0
 40
0.0454545454545455
 40
0.0454545454545455
 40
0.0454545454545455
 40
0.0454545454545455
 40
0.0909090909090909
 40
0.0909090909090909
 40
0.0909090909090909
 40
0.0909090909090909
 40
0.1363636363636364
 40
0.1363636363636364
 40
0.1363636363636364
 40
0.1363636363636364
 40
0.1818181818181818
 40
0.1818181818181818
 40
0.1818181818181818
 40
0.1818181818181818
 40
0.2272727272727273
 40
0.2272727272727273
 40
0.2272727272727273
 40
0.2272727272727273
 40
0.2727272727272728
 40
0.2727272727272728
 40
0.2727272727272728
 40
0.2727272727272728
 40
0.3181818181818182
 40
0.3181818181818182
 40
0.3181818181818182
 40
0.3181818181818182
 40
0.3636363636363637
 40
0.3636363636363637
 40
0.3636363636363637
 40
0.3636363636363637
 40
0.4090909090909092
 40
0.4090909090909092
 40
0.4090909090909092
 40
0.4090909090909092
 40
0.4545454545454546
 40
0.4545454545454546
 40
0.4545454545454546
 40
0.4545454545454546
 40
0.5000000000000001
 40
0.5000000000000001
 40
0.5000000000000001
 40
0.5000000000000001
 40
0.5454545454545455
 40
0.5454545454545455
 40
0.5454545454545455
 40
0.5454545454545455
 40
0.5909090909090909
 40
0.5909090909090909
 40
0.5909090909090909
 40
0.5909090909090909
 40
0.6363636363636364
 40
0.6363636363636364
 40
0.6363636363636364
 40
0.6363636363636364
 40
0.6818181818181818
 40
0.6818181818181818
 40
0.6818181818181818
 40
0.6818181818181818
 40
0.7272727272727272
 40
0.7272727272727272
 40
0.7272727272727272
 40
0.7272727272727272
 40
0.7727272727272726
 40
0.7727272727272726
 40
0.7727272727272726
 40
0.7727272727272726
 40
0.818181818181818
 40
0.818181818181818
 40
0.818181818181818
 40
0.818181818181818
 40
0.8636363636363634
 40
0.8636363636363634
 40
0.8636363636363634
 40
0.8636363636363634
 40
0.9090909090909088
 40
0.9090909090909088
 40
0.9090909090909088
 40
0.9090909090909088
 40
0.9545454545454543
 40
0.9545454545454543
 40
0.9545454545454543
 40
0.9545454545454543
 40
1.0
 40
1.0
 40
1.0
 40
1.0
 10
-0.6704100000000001
 20
4.8127300000000002
 30
0.0
 10
-0.7974100000000001
 20
4.7517700000000005
 30
0.0
 10
-0.8964700000000001
 20
4.6349300000000007
 30
0.0
 10
-1.00569
 20
4.5790500000000005
 30
0.0
 10
-1.00569
 20
4.5790500000000005
 30
0.0
 10
-1.00569
 20
4.5790500000000005
 30
0.0
 10
-0.7770900000000001
 20
4.9016300000000008
 30
0.0
 10
-0.7770900000000001
 20
4.9016300000000008
 30
0.0
 10
-0.7770900000000001
 20
4.9016300000000008
 30
0.0
 10
-0.53579
 20
5.1454700000000004
 30
0.0
 10
-0.33767
 20
5.3664500000000004
 30
0.0
 10
-0.23099
 20
5.6712500000000006
 30
0.0
 10
-0.23099
 20
5.6712500000000006
 30
0.0
 10
-0.28179
 20
5.6763300000000001
 30
0.0
 10
-0.33767
 20
5.68649
 30
0.0
 10
-0.37831
 20
5.64839
 30
0.0
 10
-0.37831
 20
5.64839
 30
0.0
 10
-0.40371
 20
5.7220500000000003
 30
0.0
 10
-0.24369
 20
5.7372900000000007
 30
0.0
 10
-0.23099
 20
5.8058700000000005
 30
0.0
 10
-0.23099
 20
5.8058700000000005
 30
0.0
 10
-0.30973
 20
5.8033300000000008
 30
0.0
 10
-0.4164100000000001
 20
5.6941100000000002
 30
0.0
 10
-0.45705
 20
5.7271300000000007
 30
0.0
 10
-0.45705
 20
5.7271300000000007
 30
0.0
 10
-0.26909
 20
5.8592100000000009
 30
0.0
 10
-0.13701
 20
5.9582700000000006
 30
0.0
 10
0.08904
 20
6.0497100000000001
 30
0.0
 10
0.08904
 20
6.0497100000000001
 30
0.0
 10
0.08904
 20
6.0497100000000001
 30
0.0
 10
-0.09637
 20
6.0268500000000005
 30
0.0
 10
-0.09637
 20
6.0268500000000005
 30
0.0
 10
-0.09637
 20
6.0268500000000005
 30
0.0
 10
-0.09637
 20
6.0751100000000005
 30
0.0
 10
-0.01509
 20
6.0878100000000002
 30
0.0
 10
0.023
 20
6.0928900000000006
 30
0.0
 10
0.023
 20
6.0928900000000006
 30
0.0
 10
0.15762
 20
6.1462300000000001
 30
0.0
 10
0.31764
 20
6.2122700000000002
 30
0.0
 10
0.46496
 20
6.1665500000000009
 30
0.0
 10
0.46496
 20
6.1665500000000009
 30
0.0
 10
0.31764
 20
5.8820700000000006
 30
0.0
 10
0.19572
 20
5.3207300000000002
 30
0.0
 10
-0.21575
 20
5.1124500000000008
 30
0.0
 10
-0.21575
 20
5.1124500000000008
 30
0.0
 10
-0.21575
 20
5.0464100000000007
 30
0.0
 10
-0.10907
 20
4.9829100000000004
 30
0.0
 10
-0.12177
 20
4.8889300000000002
 30
0.0
 10
-0.12177
 20
4.8889300000000002
 30
0.0
 10
-0.48499
 20
4.7746300000000002
 30
0.0
 10
-0.95235
 20
4.5282500000000008
 30
0.0
 10
-0.95235
 20
4.1370900000000006
 30
0.0
 10
-0.95235
 20
4.1370900000000006
 30
0.0
 10
-1.0615700000000001
 20
4.1167700000000007
 30
0.0
 10
-0.95235
 20
4.2818700000000005
 30
0.0
 10
-0.95235
 20
4.34537
 30
0.0
 10
-0.95235
 20
4.34537
 30
0.0
 10
-1.1936500000000001
 20
3.9897700000000005
 30
0.0
 10
-1.6102100000000001
 20
3.7129100000000004
 30
0.0
 10
-1.6762500000000002
 20
3.2938100000000001
 30
0.0
 10
-1.6762500000000002
 20
3.2938100000000001
 30
0.0
 10
-1.8769100000000001
 20
3.2785700000000002
 30
0.0
 10
-1.9835900000000002
 20
3.0448900000000001
 30
0.0
 10
-2.0775700000000001
 20
2.8391500000000001
 30
0.0
 10
-2.0775700000000001
 20
2.8391500000000001
 30
0.0
 10
-2.0775700000000001
 20
2.9636100000000001
 30
0.0
 10
-1.9988300000000001
 20
3.0779100000000001
 30
0.0
 10
-1.9327900000000002
 20
3.1718900000000003
 30
0.0
 10
-1.9327900000000002
 20
3.1718900000000003
 30
0.0
 10
-1.9048500000000002
 20
3.2176100000000001
 30
0.0
 10
-1.9175500000000001
 20
3.2557100000000001
 30
0.0
 10
-1.9708900000000003
 20
3.2607900000000001
 30
0.0
 10
-1.9708900000000003
 20
3.2607900000000001
 30
0.0
 10
-1.9708900000000003
 20
3.2607900000000001
 30
0.0
 10
-2.2121900000000001
 20
3.1591900000000002
 30
0.0
 10
-2.2121900000000001
 20
3.1591900000000002
 30
0.0
 10
-2.2121900000000001
 20
3.1591900000000002
 30
0.0
 10
-2.1994900000000004
 20
3.2506300000000001
 30
0.0
 10
-2.1055100000000002
 20
3.3217500000000002
 30
0.0
 10
-2.0521700000000003
 20
3.3928700000000003
 30
0.0
 10
-2.0521700000000003
 20
3.3928700000000003
 30
0.0
 10
-1.4298700000000002
 20
3.5986100000000003
 30
0.0
 10
-1.21143
 20
4.3758500000000007
 30
0.0
 10
-0.69835
 20
4.7619300000000004
 30
0.0
 10
-0.69835
 20
4.7619300000000004
 30
0.0
 10
-0.6094500000000001
 20
4.8305100000000003
 30
0.0
 10
-0.49769
 20
4.8940100000000006
 30
0.0
 10
-0.6704100000000001
 20
4.8127300000000002
 30
0.0
  0
SPLINE
  5
2A
100
AcDbEntity
  8
Ebene 1
 62
     7
100
AcDbSpline
210
0.0
220
0.0
230
1.0
 70
     1
 71
     3
 72
    80
 73
    76
 74
     0
 42
0.0000000001
 43
0.0000000001
 40
0.0
 40
0.0
 40
0.0
 40
0.0
 40
0.0526315789473684
 40
0.0526315789473684
 40
0.0526315789473684
 40
0.0526315789473684
 40
0.1052631578947368
 40
0.1052631578947368
 40
0.1052631578947368
 40
0.1052631578947368
 40
0.1578947368421053
 40
0.1578947368421053
 40
0.1578947368421053
 40
0.1578947368421053
 40
0.2105263157894737
 40
0.2105263157894737
 40
0.2105263157894737
 40
0.2105263157894737
 40
0.2631578947368421
 40
0.2631578947368421
 40
0.2631578947368421
 40
0.2631578947368421
 40
0.3157894736842105
 40
0.3157894736842105
 40
0.3157894736842105
 40
0.3157894736842105
 40
0.3684210526315789
 40
0.3684210526315789
 40
0.3684210526315789
 40
0.3684210526315789
 40
0.4210526315789474
 40
0.4210526315789474
 40
0.4210526315789474
 40
0.4210526315789474
 40
0.4736842105263158
 40
0.4736842105263158
 40
0.4736842105263158
 40
0.4736842105263158
 40
0.5263157894736842
 40
0.5263157894736842
 40
0.5263157894736842
 40
0.5263157894736842
 40
0.5789473684210527
 40
0.5789473684210527
 40
0.5789473684210527
 40
0.5789473684210527
 40
0.631578947368421
 40
0.631578947368421
 40
0.631578947368421
 40
0.631578947368421
 40
0.6842105263157894
 40
0.6842105263157894
 40
0.6842105263157894
 40
0.6842105263157894
 40
0.7368421052631577
 40
0.7368421052631577
 40
0.7368421052631577
 40
0.7368421052631577
 40
0.7894736842105261
 40
0.7894736842105261
 40
0.7894736842105261
 40
0.7894736842105261
 40
0.8421052631578945
 40
0.8421052631578945
 40
0.8421052631578945
 40
0.8421052631578945
 40
0.8947368421052628
 40
0.8947368421052628
 40
0.8947368421052628
 40
0.8947368421052628
 40
0.9473684210526312
 40
0.9473684210526312
 40
0.9473684210526312
 40
0.9473684210526312
 40
1.0
 40
1.0
 40
1.0
 40
1.0
 10
2.8093800000000004
 20
5.9430300000000003
 30
0.0
 10
3.01004
 20
5.8642900000000004
 30
0.0
 10
3.4799400000000005
 20
6.0014500000000002
 30
0.0
 10
3.4672400000000003
 20
5.6788700000000008
 30
0.0
 10
3.4672400000000003
 20
5.6788700000000008
 30
0.0
 10
3.5866200000000004
 20
5.7652300000000007
 30
0.0
 10
3.6399600000000003
 20
5.7550700000000008
 30
0.0
 10
3.7339400000000005
 20
5.5975900000000003
 30
0.0
 10
3.7339400000000005
 20
5.5975900000000003
 30
0.0
 10
4.0006400000000006
 20
5.2623100000000003
 30
0.0
 10
4.2825800000000003
 20
4.9270300000000002
 30
0.0
 10
4.4298999999999999
 20
4.5409500000000005
 30
0.0
 10
4.4298999999999999
 20
4.5409500000000005
 30
0.0
 10
4.2698800000000006
 20
4.68065
 30
0.0
 10
4.0692200000000005
 20
4.7060500000000003
 30
0.0
 10
3.8533200000000005
 20
4.7136700000000005
 30
0.0
 10
3.8533200000000005
 20
4.7136700000000005
 30
0.0
 10
3.3986600000000005
 20
5.4629700000000003
 30
0.0
 10
2.5147400000000002
 20
5.18865
 30
0.0
 10
1.8594200000000001
 20
4.8940100000000006
 30
0.0
 10
1.8594200000000001
 20
4.8940100000000006
 30
0.0
 10
1.8594200000000001
 20
4.8940100000000006
 30
0.0
 10
1.8314800000000002
 20
4.7822500000000003
 30
0.0
 10
1.8314800000000002
 20
4.7822500000000003
 30
0.0
 10
1.8314800000000002
 20
4.7822500000000003
 30
0.0
 10
1.7375
 20
4.7974900000000007
 30
0.0
 10
1.6435200000000001
 20
4.7619300000000004
 30
0.0
 10
1.5495400000000001
 20
4.7466900000000001
 30
0.0
 10
1.5495400000000001
 20
4.7466900000000001
 30
0.0
 10
1.4962000000000002
 20
4.6831900000000006
 30
0.0
 10
1.5774800000000002
 20
4.6171500000000005
 30
0.0
 10
1.5368400000000002
 20
4.5536500000000002
 30
0.0
 10
1.5368400000000002
 20
4.5536500000000002
 30
0.0
 10
1.4555600000000002
 20
4.5206300000000006
 30
0.0
 10
1.3768200000000002
 20
4.5130100000000004
 30
0.0
 10
1.3488800000000001
 20
4.6120700000000001
 30
0.0
 10
1.3488800000000001
 20
4.6120700000000001
 30
0.0
 10
1.2422000000000002
 20
4.7263700000000002
 30
0.0
 10
1.1355200000000001
 20
4.9168700000000003
 30
0.0
 10
0.9882000000000001
 20
4.9219500000000007
 30
0.0
 10
0.9882000000000001
 20
4.9219500000000007
 30
0.0
 10
1.0542400000000001
 20
4.7162100000000002
 30
0.0
 10
1.40222
 20
4.59429
 30
0.0
 10
1.4301600000000001
 20
4.3783900000000004
 30
0.0
 10
1.4301600000000001
 20
4.3783900000000004
 30
0.0
 10
1.5089000000000001
 20
4.2056700000000005
 30
0.0
 10
1.2422000000000002
 20
4.2691699999999999
 30
0.0
 10
1.2142600000000001
 20
4.4241100000000007
 30
0.0
 10
1.2142600000000001
 20
4.4241100000000007
 30
0.0
 10
1.1202800000000002
 20
4.4291900000000002
 30
0.0
 10
1.2015600000000002
 20
4.33521
 30
0.0
 10
1.1761600000000001
 20
4.3072699999999999
 30
0.0
 10
1.1761600000000001
 20
4.3072699999999999
 30
0.0
 10
1.0009000000000001
 20
4.5257100000000001
 30
0.0
 10
0.7062600000000001
 20
4.6527100000000008
 30
0.0
 10
0.55894
 20
4.8686100000000003
 30
0.0
 10
0.55894
 20
4.8686100000000003
 30
0.0
 10
0.59704
 20
4.9524300000000006
 30
0.0
 10
0.67832
 20
4.9803700000000006
 30
0.0
 10
0.7596000000000001
 20
4.9346500000000004
 30
0.0
 10
0.7596000000000001
 20
4.9346500000000004
 30
0.0
 10
0.8535800000000001
 20
4.8559100000000006
 30
0.0
 10
1.06694
 20
4.7822500000000003
 30
0.0
 10
0.9069200000000001
 20
4.9549700000000003
 30
0.0
 10
0.9069200000000001
 20
4.9549700000000003
 30
0.0
 10
0.9069200000000001
 20
4.9549700000000003
 30
0.0
 10
0.67832
 20
5.1124500000000008
 30
0.0
 10
0.67832
 20
5.1124500000000008
 30
0.0
 10
0.67832
 20
5.1124500000000008
 30
0.0
 10
0.71896
 20
5.4629700000000003
 30
0.0
 10
1.2955400000000001
 20
5.7677700000000005
 30
0.0
 10
1.5495400000000001
 20
5.5137700000000001
 30
0.0
 10
1.5495400000000001
 20
5.5137700000000001
 30
0.0
 10
1.9102200000000003
 20
5.8566700000000003
 30
0.0
 10
2.50204
 20
5.6204500000000008
 30
0.0
 10
2.8093800000000004
 20
5.9430300000000003
 30
0.0
  0
SPLINE
  5
2B
100
AcDbEntity
  8
Ebene 1
 62
     7
100
AcDbSpline
210
0.0
220
0.0
230
1.0
 70
     1
 71
     3
 72
    64
 73
    60
 74
     0
 42
0.0000000001
 43
0.0000000001
 40
0.0
 40
0.0
 40
0.0
 40
0.0
 40
0.0666666666666667
 40
0.0666666666666667
 40
0.0666666666666667
 40
0.0666666666666667
 40
0.1333333333333333
 40
0.1333333333333333
 40
0.1333333333333333
 40
0.1333333333333333
 40
0.2
 40
0.2
 40
0.2
 40
0.2
 40
0.2666666666666667
 40
0.2666666666666667
 40
0.2666666666666667
 40
0.2666666666666667
 40
0.3333333333333333
 40
0.3333333333333333
 40
0.3333333333333333
 40
0.3333333333333333
 40
0.4
 40
0.4
 40
0.4
 40
0.4
 40
0.4666666666666666
 40
0.4666666666666666
 40
0.4666666666666666
 40
0.4666666666666666
 40
0.5333333333333333
 40
0.5333333333333333
 40
0.5333333333333333
 40
0.5333333333333333
 40
0.6
 40
0.6
 40
0.6
 40
0.6
 40
0.6666666666666666
 40
0.6666666666666666
 40
0.6666666666666666
 40
0.6666666666666666
 40
0.7333333333333333
 40
0.7333333333333333
 40
0.7333333333333333
 40
0.7333333333333333
 40
0.7999999999999999
 40
0.7999999999999999
 40
0.7999999999999999
 40
0.7999999999999999
 40
0.8666666666666666
 40
0.8666666666666666
 40
0.8666666666666666
 40
0.8666666666666666
 40
0.9333333333333332
 40
0.9333333333333332
 40
0.9333333333333332
 40
0.9333333333333332
 40
1.0
 40
1.0
 40
1.0
 40
1.0
 10
2.8220800000000001
 20
5.1505500000000008
 30
0.0
 10
2.8220800000000001
 20
5.1505500000000008
 30
0.0
 10
3.0633800000000004
 20
5.0438700000000001
 30
0.0
 10
3.0633800000000004
 20
5.0438700000000001
 30
0.0
 10
3.0633800000000004
 20
5.0438700000000001
 30
0.0
 10
3.1319600000000003
 20
5.0464100000000007
 30
0.0
 10
3.0379800000000001
 20
5.1226100000000008
 30
0.0
 10
3.1167200000000004
 20
5.1251500000000005
 30
0.0
 10
3.1167200000000004
 20
5.1251500000000005
 30
0.0
 10
3.2386400000000002
 20
5.1099100000000002
 30
0.0
 10
3.3250000000000002
 20
5.1073700000000004
 30
0.0
 10
3.4621600000000003
 20
5.01593
 30
0.0
 10
3.4621600000000003
 20
5.01593
 30
0.0
 10
3.8253800000000004
 20
4.6527100000000008
 30
0.0
 10
4.0565199999999999
 20
4.1802700000000002
 30
0.0
 10
4.0006400000000006
 20
3.6290900000000001
 30
0.0
 10
4.0006400000000006
 20
3.6290900000000001
 30
0.0
 10
3.9092000000000002
 20
3.6392500000000001
 30
0.0
 10
3.8406200000000004
 20
3.5630500000000005
 30
0.0
 10
3.7618800000000001
 20
3.5173300000000003
 30
0.0
 10
3.7618800000000001
 20
3.5173300000000003
 30
0.0
 10
3.9092000000000002
 20
3.5224100000000003
 30
0.0
 10
3.9879400000000005
 20
3.4081100000000002
 30
0.0
 10
3.9346000000000005
 20
3.2531700000000003
 30
0.0
 10
3.9346000000000005
 20
3.2531700000000003
 30
0.0
 10
3.9498400000000005
 20
3.2328500000000004
 30
0.0
 10
3.9752400000000003
 20
3.2328500000000004
 30
0.0
 10
4.0006400000000006
 20
3.2404700000000002
 30
0.0
 10
4.0006400000000006
 20
3.2404700000000002
 30
0.0
 10
4.0158800000000001
 20
3.4309700000000003
 30
0.0
 10
4.1352600000000006
 20
3.0677500000000002
 30
0.0
 10
4.2978200000000006
 20
3.2480900000000004
 30
0.0
 10
4.2978200000000006
 20
3.2480900000000004
 30
0.0
 10
4.3105200000000004
 20
3.1236300000000004
 30
0.0
 10
4.1911400000000008
 20
2.9839300000000004
 30
0.0
 10
4.12256
 20
2.8645500000000004
 30
0.0
 10
4.12256
 20
2.8645500000000004
 30
0.0
 10
3.9752400000000003
 20
2.8975700000000004
 30
0.0
 10
3.9219000000000004
 20
3.09823
 30
0.0
 10
3.7745800000000003
 20
2.9178900000000003
 30
0.0
 10
3.7745800000000003
 20
2.9178900000000003
 30
0.0
 10
3.8406200000000004
 20
3.1363300000000001
 30
0.0
 10
3.7618800000000001
 20
3.3446100000000003
 30
0.0
 10
3.6120200000000002
 20
3.5071700000000003
 30
0.0
 10
3.6120200000000002
 20
3.5071700000000003
 30
0.0
 10
3.6933000000000002
 20
4.0786700000000007
 30
0.0
 10
2.9846400000000002
 20
4.1777300000000004
 30
0.0
 10
2.5807800000000003
 20
3.9770700000000003
 30
0.0
 10
2.5807800000000003
 20
3.9770700000000003
 30
0.0
 10
2.50204
 20
4.2183700000000002
 30
0.0
 10
2.5680800000000001
 20
4.46983
 30
0.0
 10
2.3928200000000004
 20
4.6958900000000003
 30
0.0
 10
2.3928200000000004
 20
4.6958900000000003
 30
0.0
 10
2.4893400000000003
 20
4.6831900000000006
 30
0.0
 10
2.5807800000000003
 20
4.7162100000000002
 30
0.0
 10
2.5680800000000001
 20
4.8406700000000003
 30
0.0
 10
2.5680800000000001
 20
4.8406700000000003
 30
0.0
 10
2.7027000000000001
 20
4.8762300000000005
 30
0.0
 10
2.7687400000000002
 20
5.0184700000000007
 30
0.0
 10
2.8220800000000001
 20
5.1505500000000008
 30
0.0
  0
SPLINE
  5
2C
100
AcDbEntity
  8
Ebene 1
 62
     7
100
AcDbSpline
210
0.0
220
0.0
230
1.0
 70
     1
 71
     3
 72
    32
 73
    28
 74
     0
 42
0.0000000001
 43
0.0000000001
 40
0.0
 40
0.0
 40
0.0
 40
0.0
 40
0.1428571428571429
 40
0.1428571428571429
 40
0.1428571428571429
 40
0.1428571428571429
 40
0.2857142857142857
 40
0.2857142857142857
 40
0.2857142857142857
 40
0.2857142857142857
 40
0.4285714285714286
 40
0.4285714285714286
 40
0.4285714285714286
 40
0.4285714285714286
 40
0.5714285714285714
 40
0.5714285714285714
 40
0.5714285714285714
 40
0.5714285714285714
 40
0.7142857142857142
 40
0.7142857142857142
 40
0.7142857142857142
 40
0.7142857142857142
 40
0.857142857142857
 40
0.857142857142857
 40
0.857142857142857
 40
0.857142857142857
 40
1.0
 40
1.0
 40
1.0
 40
1.0
 10
4.0946199999999999
 20
4.64255
 30
0.0
 10
4.2292400000000008
 20
4.5892100000000005
 30
0.0
 10
4.4705400000000006
 20
4.5028500000000005
 30
0.0
 10
4.45784
 20
4.3250500000000001
 30
0.0
 10
4.45784
 20
4.3250500000000001
 30
0.0
 10
4.45784
 20
4.3250500000000001
 30
0.0
 10
4.3638600000000007
 20
4.4241100000000007
 30
0.0
 10
4.3638600000000007
 20
4.4241100000000007
 30
0.0
 10
4.3638600000000007
 20
4.4241100000000007
 30
0.0
 10
4.3511600000000001
 20
4.4164900000000005
 30
0.0
 10
4.3105200000000004
 20
4.4139500000000007
 30
0.0
 10
4.3232200000000001
 20
4.3885500000000004
 30
0.0
 10
4.3232200000000001
 20
4.3885500000000004
 30
0.0
 10
4.45784
 20
4.2285300000000001
 30
0.0
 10
4.5238800000000001
 20
4.0456500000000002
 30
0.0
 10
4.59246
 20
3.8526100000000003
 30
0.0
 10
4.59246
 20
3.8526100000000003
 30
0.0
 10
4.59246
 20
3.8526100000000003
 30
0.0
 10
4.5238800000000001
 20
3.6773500000000001
 30
0.0
 10
4.5238800000000001
 20
3.6773500000000001
 30
0.0
 10
4.5238800000000001
 20
3.6773500000000001
 30
0.0
 10
4.3359200000000007
 20
3.9694500000000001
 30
0.0
 10
4.3105200000000004
 20
4.3936299999999999
 30
0.0
 10
4.0285800000000007
 20
4.6171500000000005
 30
0.0
 10
4.0285800000000007
 20
4.6171500000000005
 30
0.0
 10
4.0285800000000007
 20
4.6171500000000005
 30
0.0
 10
4.0946199999999999
 20
4.64255
 30
0.0
 10
4.0946199999999999
 20
4.64255
 30
0.0
  0
SPLINE
  5
2D
100
AcDbEntity
  8
Ebene 1
 62
     7
100
AcDbSpline
210
0.0
220
0.0
230
1.0
 70
     1
 71
     3
 72
    24
 73
    20
 74
     0
 42
0.0000000001
 43
0.0000000001
 40
0.0
 40
0.0
 40
0.0
 40
0.0
 40
0.2
 40
0.2
 40
0.2
 40
0.2
 40
0.4
 40
0.4
 40
0.4
 40
0.4
 40
0.6000000000000001
 40
0.6000000000000001
 40
0.6000000000000001
 40
0.6000000000000001
 40
0.8
 40
0.8
 40
0.8
 40
0.8
 40
1.0
 40
1.0
 40
1.0
 40
1.0
 10
3.8939600000000003
 20
4.6019100000000002
 30
0.0
 10
4.2825800000000003
 20
4.5307900000000005
 30
0.0
 10
4.2419400000000005
 20
4.03803
 30
0.0
 10
4.4298999999999999
 20
3.7713300000000003
 30
0.0
 10
4.4298999999999999
 20
3.7713300000000003
 30
0.0
 10
4.4298999999999999
 20
3.7713300000000003
 30
0.0
 10
4.45784
 20
3.6290900000000001
 30
0.0
 10
4.45784
 20
3.6290900000000001
 30
0.0
 10
4.45784
 20
3.6290900000000001
 30
0.0
 10
4.3765600000000004
 20
3.5859100000000002
 30
0.0
 10
4.3105200000000004
 20
3.6417900000000003
 30
0.0
 10
4.2292400000000008
 20
3.5706700000000002
 30
0.0
 10
4.2292400000000008
 20
3.5706700000000002
 30
0.0
 10
4.2013000000000007
 20
3.6316300000000004
 30
0.0
 10
4.1352600000000006
 20
3.6316300000000004
 30
0.0
 10
4.0819200000000002
 20
3.6417900000000003
 30
0.0
 10
4.0819200000000002
 20
3.6417900000000003
 30
0.0
 10
4.0692200000000005
 20
3.9745300000000001
 30
0.0
 10
4.0006400000000006
 20
4.2920300000000005
 30
0.0
 10
3.8939600000000003
 20
4.6019100000000002
 30
0.0
  0
SPLINE
  5
2E
100
AcDbEntity
  8
Ebene 1
100
AcDbSpline
210
0.0
220
0.0
230
1.0
 70
     1
 71
     3
 72
    52
 73
    48
 74
     0
 42
0.0000000001
 43
0.0000000001
 40
0.0
 40
0.0
 40
0.0
 40
0.0
 40
0.0833333333333333
 40
0.0833333333333333
 40
0.0833333333333333
 40
0.0833333333333333
 40
0.1666666666666667
 40
0.1666666666666667
 40
0.1666666666666667
 40
0.1666666666666667
 40
0.25
 40
0.25
 40
0.25
 40
0.25
 40
0.3333333333333333
 40
0.3333333333333333
 40
0.3333333333333333
 40
0.3333333333333333
 40
0.4166666666666666
 40
0.4166666666666666
 40
0.4166666666666666
 40
0.4166666666666666
 40
0.4999999999999999
 40
0.4999999999999999
 40
0.4999999999999999
 40
0.4999999999999999
 40
0.5833333333333333
 40
0.5833333333333333
 40
0.5833333333333333
 40
0.5833333333333333
 40
0.6666666666666666
 40
0.6666666666666666
 40
0.6666666666666666
 40
0.6666666666666666
 40
0.75
 40
0.75
 40
0.75
 40
0.75
 40
0.8333333333333334
 40
0.8333333333333334
 40
0.8333333333333334
 40
0.8333333333333334
 40
0.9166666666666667
 40
0.9166666666666667
 40
0.9166666666666667
 40
0.9166666666666667
 40
1.0
 40
1.0
 40
1.0
 40
1.0
 10
-0.28179
 20
4.5765100000000007
 30
0.0
 10
-0.19035
 20
4.5638100000000001
 30
0.0
 10
0.18302
 20
4.59429
 30
0.0
 10
-0.01509
 20
4.4418900000000008
 30
0.0
 10
-0.01509
 20
4.4418900000000008
 30
0.0
 10
-0.01509
 20
4.4418900000000008
 30
0.0
 10
0.0484
 20
4.3656900000000007
 30
0.0
 10
0.0484
 20
4.3656900000000007
 30
0.0
 10
0.0484
 20
4.3656900000000007
 30
0.0
 10
1.0415400000000001
 20
4.1675700000000004
 30
0.0
 10
1.2142600000000001
 20
2.6740500000000003
 30
0.0
 10
0.63768
 20
1.9679300000000002
 30
0.0
 10
0.63768
 20
1.9679300000000002
 30
0.0
 10
0.41162
 20
1.8409300000000002
 30
0.0
 10
0.17032
 20
1.9222100000000002
 30
0.0
 10
-0.05573
 20
1.9755500000000001
 30
0.0
 10
-0.05573
 20
1.9755500000000001
 30
0.0
 10
-0.24369
 20
2.00095
 30
0.0
 10
-0.43165
 20
2.0085700000000002
 30
0.0
 10
-0.6196100000000001
 20
2.0568300000000002
 30
0.0
 10
-0.6196100000000001
 20
2.0568300000000002
 30
0.0
 10
-0.91171
 20
2.1381100000000002
 30
0.0
 10
-1.1530100000000001
 20
1.8028300000000002
 30
0.0
 10
-1.4095500000000001
 20
2.0339700000000001
 30
0.0
 10
-1.4095500000000001
 20
2.0339700000000001
 30
0.0
 10
-1.5289300000000001
 20
2.2346300000000001
 30
0.0
 10
-1.7295900000000002
 20
2.4251300000000002
 30
0.0
 10
-1.7168900000000002
 20
2.6867500000000004
 30
0.0
 10
-1.7168900000000002
 20
2.6867500000000004
 30
0.0
 10
-1.1936500000000001
 20
3.1160100000000002
 30
0.0
 10
-0.6196100000000001
 20
3.6290900000000001
 30
0.0
 10
-0.24369
 20
4.20059
 30
0.0
 10
-0.24369
 20
4.20059
 30
0.0
 10
-0.29703
 20
4.2285300000000001
 30
0.0
 10
-0.37831
 20
4.2640900000000004
 30
0.0
 10
-0.39101
 20
4.3326700000000002
 30
0.0
 10
-0.39101
 20
4.3326700000000002
 30
0.0
 10
-0.45705
 20
4.3275900000000007
 30
0.0
 10
-0.45705
 20
4.20059
 30
0.0
 10
-0.51039
 20
4.1904300000000001
 30
0.0
 10
-0.51039
 20
4.1904300000000001
 30
0.0
 10
-0.49769
 20
4.2513900000000007
 30
0.0
 10
-0.48499
 20
4.3174300000000008
 30
0.0
 10
-0.45705
 20
4.3758500000000007
 30
0.0
 10
-0.45705
 20
4.3758500000000007
 30
0.0
 10
-0.4164100000000001
 20
4.45967
 30
0.0
 10
-0.35037
 20
4.5206300000000006
 30
0.0
 10
-0.28179
 20
4.5765100000000007
 30
0.0
  0
SPLINE
  5
2F
100
AcDbEntity
  8
Ebene 1
 62
     7
100
AcDbSpline
210
0.0
220
0.0
230
1.0
 70
     1
 71
     3
 72
    32
 73
    28
 74
     0
 42
0.0000000001
 43
0.0000000001
 40
0.0
 40
0.0
 40
0.0
 40
0.0
 40
0.1428571428571429
 40
0.1428571428571429
 40
0.1428571428571429
 40
0.1428571428571429
 40
0.2857142857142857
 40
0.2857142857142857
 40
0.2857142857142857
 40
0.2857142857142857
 40
0.4285714285714286
 40
0.4285714285714286
 40
0.4285714285714286
 40
0.4285714285714286
 40
0.5714285714285714
 40
0.5714285714285714
 40
0.5714285714285714
 40
0.5714285714285714
 40
0.7142857142857142
 40
0.7142857142857142
 40
0.7142857142857142
 40
0.7142857142857142
 40
0.857142857142857
 40
0.857142857142857
 40
0.857142857142857
 40
0.857142857142857
 40
1.0
 40
1.0
 40
1.0
 40
1.0
 10
2.2201
 20
4.46983
 30
0.0
 10
2.3140800000000001
 20
4.2945700000000002
 30
0.0
 10
2.4487000000000001
 20
4.0812100000000004
 30
0.0
 10
2.4741000000000004
 20
3.8653100000000005
 30
0.0
 10
2.4741000000000004
 20
3.8653100000000005
 30
0.0
 10
2.2861400000000001
 20
3.6544900000000005
 30
0.0
 10
2.08548
 20
3.4893900000000002
 30
0.0
 10
1.8721200000000002
 20
3.3065100000000003
 30
0.0
 10
1.8721200000000002
 20
3.3065100000000003
 30
0.0
 10
1.8721200000000002
 20
3.3065100000000003
 30
0.0
 10
1.7654400000000001
 20
3.6113100000000005
 30
0.0
 10
1.7654400000000001
 20
3.6113100000000005
 30
0.0
 10
1.7654400000000001
 20
3.6113100000000005
 30
0.0
 10
1.9102200000000003
 20
3.7459300000000004
 30
0.0
 10
1.7375
 20
3.9008700000000003
 30
0.0
 10
1.7248000000000001
 20
4.0507300000000006
 30
0.0
 10
1.7248000000000001
 20
4.0507300000000006
 30
0.0
 10
1.8187800000000001
 20
4.1142300000000001
 30
0.0
 10
1.9788000000000001
 20
4.0939100000000002
 30
0.0
 10
1.9508600000000003
 20
4.2513900000000007
 30
0.0
 10
1.9508600000000003
 20
4.2513900000000007
 30
0.0
 10
2.0600800000000001
 20
4.2640900000000004
 30
0.0
 10
2.08548
 20
4.33521
 30
0.0
 10
2.0600800000000001
 20
4.4241100000000007
 30
0.0
 10
2.0600800000000001
 20
4.4241100000000007
 30
0.0
 10
2.1134200000000001
 20
4.4164900000000005
 30
0.0
 10
2.1921600000000003
 20
4.4037900000000008
 30
0.0
 10
2.2201
 20
4.46983
 30
0.0
  0
SPLINE
  5
30
100
AcDbEntity
  8
Ebene 1
100
AcDbSpline
210
0.0
220
0.0
230
1.0
 70
     1
 71
     3
 72
    44
 73
    40
 74
     0
 42
0.0000000001
 43
0.0000000001
 40
0.0
 40
0.0
 40
0.0
 40
0.0
 40
0.1
 40
0.1
 40
0.1
 40
0.1
 40
0.2
 40
0.2
 40
0.2
 40
0.2
 40
0.3
 40
0.3
 40
0.3
 40
0.3
 40
0.4
 40
0.4
 40
0.4
 40
0.4
 40
0.5
 40
0.5
 40
0.5
 40
0.5
 40
0.6
 40
0.6
 40
0.6
 40
0.6
 40
0.7
 40
0.7
 40
0.7
 40
0.7
 40
0.7999999999999999
 40
0.7999999999999999
 40
0.7999999999999999
 40
0.7999999999999999
 40
0.8999999999999999
 40
0.8999999999999999
 40
0.8999999999999999
 40
0.8999999999999999
 40
1.0
 40
1.0
 40
1.0
 40
1.0
 10
-0.5230900000000001
 20
4.33521
 30
0.0
 10
-0.8329700000000001
 20
3.9364300000000005
 30
0.0
 10
-1.1022100000000001
 20
3.3903300000000001
 30
0.0
 10
-1.5695700000000001
 20
3.1388700000000003
 30
0.0
 10
-1.5695700000000001
 20
3.1388700000000003
 30
0.0
 10
-1.5949700000000002
 20
3.1083900000000004
 30
0.0
 10
-1.6102100000000001
 20
3.0525100000000003
 30
0.0
 10
-1.5568700000000002
 20
3.1058500000000002
 30
0.0
 10
-1.5568700000000002
 20
3.1058500000000002
 30
0.0
 10
-1.50353
 20
3.14141
 30
0.0
 10
-1.4501900000000001
 20
3.1591900000000002
 30
0.0
 10
-1.38161
 20
3.1795100000000001
 30
0.0
 10
-1.38161
 20
3.1795100000000001
 30
0.0
 10
-1.5949700000000002
 20
3.0448900000000001
 30
0.0
 10
-1.6635500000000001
 20
2.7781900000000004
 30
0.0
 10
-1.8235700000000001
 20
2.6181700000000001
 30
0.0
 10
-1.8235700000000001
 20
2.6181700000000001
 30
0.0
 10
-1.8235700000000001
 20
2.6181700000000001
 30
0.0
 10
-1.75753
 20
2.3641700000000001
 30
0.0
 10
-1.75753
 20
2.3641700000000001
 30
0.0
 10
-1.75753
 20
2.3641700000000001
 30
0.0
 10
-1.8362700000000001
 20
2.51403
 30
0.0
 10
-1.9048500000000002
 20
2.68167
 30
0.0
 10
-1.9175500000000001
 20
2.8594700000000004
 30
0.0
 10
-1.9175500000000001
 20
2.8594700000000004
 30
0.0
 10
-1.8769100000000001
 20
2.9940900000000004
 30
0.0
 10
-1.8108700000000002
 20
3.09823
 30
0.0
 10
-1.7295900000000002
 20
3.2201500000000003
 30
0.0
 10
-1.7295900000000002
 20
3.2201500000000003
 30
0.0
 10
-1.7295900000000002
 20
3.2201500000000003
 30
0.0
 10
-1.6229100000000001
 20
3.2252300000000003
 30
0.0
 10
-1.6229100000000001
 20
3.2252300000000003
 30
0.0
 10
-1.6229100000000001
 20
3.2252300000000003
 30
0.0
 10
-1.6229100000000001
 20
3.2252300000000003
 30
0.0
 10
-0.6653300000000001
 20
4.2742500000000003
 30
0.0
 10
-0.6653300000000001
 20
4.2742500000000003
 30
0.0
 10
-0.6653300000000001
 20
4.2742500000000003
 30
0.0
 10
-0.6653300000000001
 20
4.2742500000000003
 30
0.0
 10
-0.5230900000000001
 20
4.33521
 30
0.0
 10
-0.5230900000000001
 20
4.33521
 30
0.0
  0
SPLINE
  5
31
100
AcDbEntity
  8
Ebene 1
 62
     7
100
AcDbSpline
210
0.0
220
0.0
230
1.0
 70
     1
 71
     3
 72
    24
 73
    20
 74
     0
 42
0.0000000001
 43
0.0000000001
 40
0.0
 40
0.0
 40
0.0
 40
0.0
 40
0.2
 40
0.2
 40
0.2
 40
0.2
 40
0.4
 40
0.4
 40
0.4
 40
0.4
 40
0.6000000000000001
 40
0.6000000000000001
 40
0.6000000000000001
 40
0.6000000000000001
 40
0.8
 40
0.8
 40
0.8
 40
0.8
 40
1.0
 40
1.0
 40
1.0
 40
1.0
 10
3.0227400000000002
 20
3.8653100000000005
 30
0.0
 10
3.0227400000000002
 20
3.8653100000000005
 30
0.0
 10
3.2259400000000005
 20
3.8627700000000003
 30
0.0
 10
3.2259400000000005
 20
3.8627700000000003
 30
0.0
 10
3.2259400000000005
 20
3.8627700000000003
 30
0.0
 10
3.3046800000000003
 20
3.7383100000000002
 30
0.0
 10
3.2919800000000001
 20
3.5579700000000001
 30
0.0
 10
3.4393000000000002
 20
3.4741500000000003
 30
0.0
 10
3.4393000000000002
 20
3.4741500000000003
 30
0.0
 10
3.3453200000000001
 20
3.3014300000000003
 30
0.0
 10
3.5205800000000003
 20
3.1439500000000002
 30
0.0
 10
3.4266000000000001
 20
2.9712300000000003
 30
0.0
 10
3.4266000000000001
 20
2.9712300000000003
 30
0.0
 10
3.2919800000000001
 20
3.1058500000000002
 30
0.0
 10
3.1167200000000004
 20
3.2252300000000003
 30
0.0
 10
2.9313000000000002
 20
3.2531700000000003
 30
0.0
 10
2.9313000000000002
 20
3.2531700000000003
 30
0.0
 10
2.9440000000000004
 20
3.4360500000000003
 30
0.0
 10
2.8220800000000001
 20
3.7611700000000003
 30
0.0
 10
3.0227400000000002
 20
3.8653100000000005
 30
0.0
  0
SPLINE
  5
32
100
AcDbEntity
  8
Ebene 1
 62
     7
100
AcDbSpline
210
0.0
220
0.0
230
1.0
 70
     1
 71
     3
 72
    40
 73
    36
 74
     0
 42
0.0000000001
 43
0.0000000001
 40
0.0
 40
0.0
 40
0.0
 40
0.0
 40
0.1111111111111111
 40
0.1111111111111111
 40
0.1111111111111111
 40
0.1111111111111111
 40
0.2222222222222222
 40
0.2222222222222222
 40
0.2222222222222222
 40
0.2222222222222222
 40
0.3333333333333333
 40
0.3333333333333333
 40
0.3333333333333333
 40
0.3333333333333333
 40
0.4444444444444444
 40
0.4444444444444444
 40
0.4444444444444444
 40
0.4444444444444444
 40
0.5555555555555556
 40
0.5555555555555556
 40
0.5555555555555556
 40
0.5555555555555556
 40
0.6666666666666667
 40
0.6666666666666667
 40
0.6666666666666667
 40
0.6666666666666667
 40
0.7777777777777779
 40
0.7777777777777779
 40
0.7777777777777779
 40
0.7777777777777779
 40
0.8888888888888891
 40
0.8888888888888891
 40
0.8888888888888891
 40
0.8888888888888891
 40
1.0
 40
1.0
 40
1.0
 40
1.0
 10
2.8220800000000001
 20
3.7306900000000005
 30
0.0
 10
2.9313000000000002
 20
3.5554300000000003
 30
0.0
 10
2.9033600000000002
 20
3.0931500000000001
 30
0.0
 10
2.5807800000000003
 20
3.0448900000000001
 30
0.0
 10
2.5807800000000003
 20
3.0448900000000001
 30
0.0
 10
2.50204
 20
2.97377
 30
0.0
 10
2.4487000000000001
 20
2.8721700000000001
 30
0.0
 10
2.33948
 20
2.8391500000000001
 30
0.0
 10
2.33948
 20
2.8391500000000001
 30
0.0
 10
2.3267800000000003
 20
2.9356700000000004
 30
0.0
 10
2.3140800000000001
 20
3.0474300000000003
 30
0.0
 10
2.33948
 20
3.1566500000000004
 30
0.0
 10
2.33948
 20
3.1566500000000004
 30
0.0
 10
2.2607400000000002
 20
3.2125300000000001
 30
0.0
 10
2.2201
 20
3.3928700000000003
 30
0.0
 10
2.3674200000000001
 20
3.3141300000000005
 30
0.0
 10
2.3674200000000001
 20
3.3141300000000005
 30
0.0
 10
2.4080600000000003
 20
3.2557100000000001
 30
0.0
 10
2.4741000000000004
 20
3.1693500000000001
 30
0.0
 10
2.5553800000000004
 20
3.2201500000000003
 30
0.0
 10
2.5553800000000004
 20
3.2201500000000003
 30
0.0
 10
2.6214200000000001
 20
3.1083900000000004
 30
0.0
 10
2.7027000000000001
 20
3.1515700000000004
 30
0.0
 10
2.7814400000000004
 20
3.2252300000000003
 30
0.0
 10
2.7814400000000004
 20
3.2252300000000003
 30
0.0
 10
2.7433400000000003
 20
3.3496900000000003
 30
0.0
 10
2.7154000000000003
 20
3.6087700000000003
 30
0.0
 10
2.5274400000000004
 20
3.5046300000000001
 30
0.0
 10
2.5274400000000004
 20
3.5046300000000001
 30
0.0
 10
2.5147400000000002
 20
3.5147900000000001
 30
0.0
 10
2.4741000000000004
 20
3.5173300000000003
 30
0.0
 10
2.4741000000000004
 20
3.5452700000000004
 30
0.0
 10
2.4741000000000004
 20
3.5452700000000004
 30
0.0
 10
2.5401400000000001
 20
3.6646500000000004
 30
0.0
 10
2.7154000000000003
 20
3.6697300000000004
 30
0.0
 10
2.8220800000000001
 20
3.7306900000000005
 30
0.0
  0
SPLINE
  5
33
100
AcDbEntity
  8
Ebene 1
 62
     7
100
AcDbSpline
210
0.0
220
0.0
230
1.0
 70
     1
 71
     3
 72
    32
 73
    28
 74
     0
 42
0.0000000001
 43
0.0000000001
 40
0.0
 40
0.0
 40
0.0
 40
0.0
 40
0.1428571428571429
 40
0.1428571428571429
 40
0.1428571428571429
 40
0.1428571428571429
 40
0.2857142857142857
 40
0.2857142857142857
 40
0.2857142857142857
 40
0.2857142857142857
 40
0.4285714285714286
 40
0.4285714285714286
 40
0.4285714285714286
 40
0.4285714285714286
 40
0.5714285714285714
 40
0.5714285714285714
 40
0.5714285714285714
 40
0.5714285714285714
 40
0.7142857142857142
 40
0.7142857142857142
 40
0.7142857142857142
 40
0.7142857142857142
 40
0.857142857142857
 40
0.857142857142857
 40
0.857142857142857
 40
0.857142857142857
 40
1.0
 40
1.0
 40
1.0
 40
1.0
 10
0.35828
 20
3.5706700000000002
 30
0.0
 10
0.42432
 20
3.5503500000000003
 30
0.0
 10
0.38368
 20
3.4614500000000001
 30
0.0
 10
0.37098
 20
3.4131900000000002
 30
0.0
 10
0.37098
 20
3.4131900000000002
 30
0.0
 10
0.49036
 20
3.4258900000000003
 30
0.0
 10
0.57164
 20
3.3928700000000003
 30
0.0
 10
0.67832
 20
3.3801700000000001
 30
0.0
 10
0.67832
 20
3.3801700000000001
 30
0.0
 10
0.7316600000000001
 20
3.2379300000000004
 30
0.0
 10
0.8129400000000001
 20
3.0474300000000003
 30
0.0
 10
0.6935600000000001
 20
2.9153500000000001
 30
0.0
 10
0.6935600000000001
 20
2.9153500000000001
 30
0.0
 10
0.5665600000000001
 20
3.1261700000000001
 30
0.0
 10
0.74436
 20
3.3623900000000004
 30
0.0
 10
0.5462400000000001
 20
3.1693500000000001
 30
0.0
 10
0.5462400000000001
 20
3.1693500000000001
 30
0.0
 10
0.5462400000000001
 20
3.1693500000000001
 30
0.0
 10
0.3887600000000001
 20
3.2480900000000004
 30
0.0
 10
0.3887600000000001
 20
3.2480900000000004
 30
0.0
 10
0.3887600000000001
 20
3.2480900000000004
 30
0.0
 10
0.3887600000000001
 20
3.2480900000000004
 30
0.0
 10
0.2643
 20
3.4131900000000002
 30
0.0
 10
0.2643
 20
3.4131900000000002
 30
0.0
 10
0.2643
 20
3.4131900000000002
 30
0.0
 10
0.277
 20
3.4665300000000001
 30
0.0
 10
0.30494
 20
3.5325700000000002
 30
0.0
 10
0.35828
 20
3.5706700000000002
 30
0.0
  0
SPLINE
  5
34
100
AcDbEntity
  8
Ebene 1
 62
     7
100
AcDbSpline
210
0.0
220
0.0
230
1.0
 70
     1
 71
     3
 72
    20
 73
    16
 74
     0
 42
0.0000000001
 43
0.0000000001
 40
0.0
 40
0.0
 40
0.0
 40
0.0
 40
0.25
 40
0.25
 40
0.25
 40
0.25
 40
0.5
 40
0.5
 40
0.5
 40
0.5
 40
0.75
 40
0.75
 40
0.75
 40
0.75
 40
1.0
 40
1.0
 40
1.0
 40
1.0
 10
3.5459800000000001
 20
3.5046300000000001
 30
0.0
 10
3.7618800000000001
 20
3.3420700000000001
 30
0.0
 10
3.7212400000000003
 20
3.0829900000000001
 30
0.0
 10
3.7212400000000003
 20
2.8518500000000002
 30
0.0
 10
3.7212400000000003
 20
2.8518500000000002
 30
0.0
 10
3.7212400000000003
 20
2.8518500000000002
 30
0.0
 10
3.5612200000000005
 20
2.80613
 30
0.0
 10
3.5612200000000005
 20
2.80613
 30
0.0
 10
3.5612200000000005
 20
2.80613
 30
0.0
 10
3.4113600000000002
 20
2.8848700000000003
 30
0.0
 10
3.5332800000000004
 20
3.0398100000000001
 30
0.0
 10
3.5332800000000004
 20
3.1566500000000004
 30
0.0
 10
3.5332800000000004
 20
3.1566500000000004
 30
0.0
 10
3.4113600000000002
 20
3.2480900000000004
 30
0.0
 10
3.4926400000000002
 20
3.3903300000000001
 30
0.0
 10
3.5459800000000001
 20
3.5046300000000001
 30
0.0
  0
SPLINE
  5
35
100
AcDbEntity
  8
Ebene 1
 62
     7
100
AcDbSpline
210
0.0
220
0.0
230
1.0
 70
     1
 71
     3
 72
    60
 73
    56
 74
     0
 42
0.0000000001
 43
0.0000000001
 40
0.0
 40
0.0
 40
0.0
 40
0.0
 40
0.0714285714285714
 40
0.0714285714285714
 40
0.0714285714285714
 40
0.0714285714285714
 40
0.1428571428571429
 40
0.1428571428571429
 40
0.1428571428571429
 40
0.1428571428571429
 40
0.2142857142857143
 40
0.2142857142857143
 40
0.2142857142857143
 40
0.2142857142857143
 40
0.2857142857142857
 40
0.2857142857142857
 40
0.2857142857142857
 40
0.2857142857142857
 40
0.3571428571428571
 40
0.3571428571428571
 40
0.3571428571428571
 40
0.3571428571428571
 40
0.4285714285714285
 40
0.4285714285714285
 40
0.4285714285714285
 40
0.4285714285714285
 40
0.4999999999999999
 40
0.4999999999999999
 40
0.4999999999999999
 40
0.4999999999999999
 40
0.5714285714285713
 40
0.5714285714285713
 40
0.5714285714285713
 40
0.5714285714285713
 40
0.6428571428571427
 40
0.6428571428571427
 40
0.6428571428571427
 40
0.6428571428571427
 40
0.7142857142857141
 40
0.7142857142857141
 40
0.7142857142857141
 40
0.7142857142857141
 40
0.7857142857142855
 40
0.7857142857142855
 40
0.7857142857142855
 40
0.7857142857142855
 40
0.8571428571428569
 40
0.8571428571428569
 40
0.8571428571428569
 40
0.8571428571428569
 40
0.9285714285714283
 40
0.9285714285714283
 40
0.9285714285714283
 40
0.9285714285714283
 40
1.0
 40
1.0
 40
1.0
 40
1.0
 10
-3.0961100000000004
 20
3.3420700000000001
 30
0.0
 10
-2.8954500000000003
 20
3.2963500000000003
 30
0.0
 10
-2.7963900000000002
 20
3.2201500000000003
 30
0.0
 10
-2.6135100000000002
 20
3.0880700000000001
 30
0.0
 10
-2.6135100000000002
 20
3.0880700000000001
 30
0.0
 10
-2.5042900000000001
 20
2.9280500000000003
 30
0.0
 10
-2.61097
 20
2.7019900000000003
 30
0.0
 10
-2.65415
 20
2.5394300000000003
 30
0.0
 10
-2.65415
 20
2.5394300000000003
 30
0.0
 10
-2.81671
 20
2.59531
 30
0.0
 10
-2.9106900000000002
 20
2.7832700000000004
 30
0.0
 10
-3.1469100000000001
 20
2.75787
 30
0.0
 10
-3.1469100000000001
 20
2.75787
 30
0.0
 10
-3.1392900000000004
 20
2.84423
 30
0.0
 10
-3.2231100000000001
 20
2.9128100000000003
 30
0.0
 10
-3.3069300000000004
 20
2.8645500000000004
 30
0.0
 10
-3.3069300000000004
 20
2.8645500000000004
 30
0.0
 10
-3.4161500000000005
 20
3.0626700000000002
 30
0.0
 10
-3.8504900000000002
 20
2.9915500000000002
 30
0.0
 10
-3.7768300000000004
 20
2.7172300000000003
 30
0.0
 10
-3.7768300000000004
 20
2.7172300000000003
 30
0.0
 10
-3.7768300000000004
 20
2.7172300000000003
 30
0.0
 10
-3.6142700000000003
 20
2.67659
 30
0.0
 10
-3.6142700000000003
 20
2.67659
 30
0.0
 10
-3.6142700000000003
 20
2.67659
 30
0.0
 10
-3.3678900000000005
 20
2.6156300000000003
 30
0.0
 10
-3.0605500000000001
 20
2.5495900000000002
 30
0.0
 10
-2.8243300000000002
 20
2.3819500000000002
 30
0.0
 10
-2.8243300000000002
 20
2.3819500000000002
 30
0.0
 10
-2.7633700000000001
 20
2.3082900000000004
 30
0.0
 10
-2.6693900000000004
 20
2.3286100000000003
 30
0.0
 10
-2.5906500000000001
 20
2.3489300000000002
 30
0.0
 10
-2.5906500000000001
 20
2.3489300000000002
 30
0.0
 10
-2.5982700000000003
 20
2.24987
 30
0.0
 10
-2.7379700000000002
 20
2.1152500000000001
 30
0.0
 10
-2.6566900000000002
 20
2.0339700000000001
 30
0.0
 10
-2.6566900000000002
 20
2.0339700000000001
 30
0.0
 10
-2.6262100000000004
 20
2.1076300000000003
 30
0.0
 10
-2.5779500000000004
 20
2.21177
 30
0.0
 10
-2.4966700000000004
 20
2.2295500000000001
 30
0.0
 10
-2.4966700000000004
 20
2.2295500000000001
 30
0.0
 10
-2.5881100000000004
 20
2.0847700000000002
 30
0.0
 10
-2.6998700000000002
 20
1.9196700000000002
 30
0.0
 10
-2.8116300000000001
 20
1.8053700000000001
 30
0.0
 10
-2.8116300000000001
 20
1.8053700000000001
 30
0.0
 10
-2.81671
 20
1.9603100000000002
 30
0.0
 10
-2.6668500000000002
 20
2.16859
 30
0.0
 10
-2.8014700000000001
 20
2.2854300000000003
 30
0.0
 10
-2.8014700000000001
 20
2.2854300000000003
 30
0.0
 10
-3.1646900000000002
 20
2.47085
 30
0.0
 10
-3.5406100000000005
 20
2.5064100000000002
 30
0.0
 10
-3.9368500000000002
 20
2.5826100000000003
 30
0.0
 10
-3.9368500000000002
 20
2.5826100000000003
 30
0.0
 10
-3.9470100000000001
 20
3.0829900000000001
 30
0.0
 10
-3.4415500000000003
 20
3.1693500000000001
 30
0.0
 10
-3.0961100000000004
 20
3.3420700000000001
 30
0.0
  0
SPLINE
  5
36
100
AcDbEntity
  8
Ebene 1
 62
     7
100
AcDbSpline
210
0.0
220
0.0
230
1.0
 70
     1
 71
     3
 72
    20
 73
    16
 74
     0
 42
0.0000000001
 43
0.0000000001
 40
0.0
 40
0.0
 40
0.0
 40
0.0
 40
0.25
 40
0.25
 40
0.25
 40
0.25
 40
0.5
 40
0.5
 40
0.5
 40
0.5
 40
0.75
 40
0.75
 40
0.75
 40
0.75
 40
1.0
 40
1.0
 40
1.0
 40
1.0
 10
0.2643
 20
3.2760300000000004
 30
0.0
 10
0.2643
 20
3.2760300000000004
 30
0.0
 10
0.42432
 20
3.1261700000000001
 30
0.0
 10
0.42432
 20
3.1261700000000001
 30
0.0
 10
0.42432
 20
3.1261700000000001
 30
0.0
 10
0.4522600000000001
 20
3.0575900000000003
 30
0.0
 10
0.37098
 20
3.0499700000000001
 30
0.0
 10
0.33034
 20
3.0220300000000004
 30
0.0
 10
0.33034
 20
3.0220300000000004
 30
0.0
 10
0.23636
 20
3.0601300000000005
 30
0.0
 10
0.30494
 20
3.1769700000000003
 30
0.0
 10
0.24906
 20
3.2353900000000002
 30
0.0
 10
0.24906
 20
3.2353900000000002
 30
0.0
 10
0.24906
 20
3.2353900000000002
 30
0.0
 10
0.2643
 20
3.2760300000000004
 30
0.0
 10
0.2643
 20
3.2760300000000004
 30
0.0
  0
SPLINE
  5
37
100
AcDbEntity
  8
Ebene 1
 62
     7
100
AcDbSpline
210
0.0
220
0.0
230
1.0
 70
     1
 71
     3
 72
    64
 73
    60
 74
     0
 42
0.0000000001
 43
0.0000000001
 40
0.0
 40
0.0
 40
0.0
 40
0.0
 40
0.0666666666666667
 40
0.0666666666666667
 40
0.0666666666666667
 40
0.0666666666666667
 40
0.1333333333333333
 40
0.1333333333333333
 40
0.1333333333333333
 40
0.1333333333333333
 40
0.2
 40
0.2
 40
0.2
 40
0.2
 40
0.2666666666666667
 40
0.2666666666666667
 40
0.2666666666666667
 40
0.2666666666666667
 40
0.3333333333333333
 40
0.3333333333333333
 40
0.3333333333333333
 40
0.3333333333333333
 40
0.4
 40
0.4
 40
0.4
 40
0.4
 40
0.4666666666666666
 40
0.4666666666666666
 40
0.4666666666666666
 40
0.4666666666666666
 40
0.5333333333333333
 40
0.5333333333333333
 40
0.5333333333333333
 40
0.5333333333333333
 40
0.6
 40
0.6
 40
0.6
 40
0.6
 40
0.6666666666666666
 40
0.6666666666666666
 40
0.6666666666666666
 40
0.6666666666666666
 40
0.7333333333333333
 40
0.7333333333333333
 40
0.7333333333333333
 40
0.7333333333333333
 40
0.7999999999999999
 40
0.7999999999999999
 40
0.7999999999999999
 40
0.7999999999999999
 40
0.8666666666666666
 40
0.8666666666666666
 40
0.8666666666666666
 40
0.8666666666666666
 40
0.9333333333333332
 40
0.9333333333333332
 40
0.9333333333333332
 40
0.9333333333333332
 40
1.0
 40
1.0
 40
1.0
 40
1.0
 10
3.3199200000000002
 20
2.0161900000000004
 30
0.0
 10
3.2919800000000001
 20
2.3489300000000002
 30
0.0
 10
3.0379800000000001
 20
2.8467700000000002
 30
0.0
 10
2.6493600000000002
 20
2.6359500000000002
 30
0.0
 10
2.6493600000000002
 20
2.6359500000000002
 30
0.0
 10
2.6900000000000004
 20
2.7299300000000004
 30
0.0
 10
2.7687400000000002
 20
2.8289900000000001
 30
0.0
 10
2.7433400000000003
 20
2.9280500000000003
 30
0.0
 10
2.7433400000000003
 20
2.9280500000000003
 30
0.0
 10
2.75604
 20
3.0956900000000003
 30
0.0
 10
2.8627200000000004
 20
3.0321900000000004
 30
0.0
 10
2.7814400000000004
 20
2.9051900000000002
 30
0.0
 10
2.7814400000000004
 20
2.9051900000000002
 30
0.0
 10
2.8500200000000002
 20
2.9280500000000003
 30
0.0
 10
2.8754200000000001
 20
2.8696300000000003
 30
0.0
 10
2.9313000000000002
 20
2.8340700000000001
 30
0.0
 10
2.9313000000000002
 20
2.8340700000000001
 30
0.0
 10
3.0506800000000003
 20
2.7985100000000003
 30
0.0
 10
3.1040200000000002
 20
2.6740500000000003
 30
0.0
 10
3.1573600000000002
 20
2.5978500000000002
 30
0.0
 10
3.1573600000000002
 20
2.5978500000000002
 30
0.0
 10
3.1446600000000005
 20
2.68167
 30
0.0
 10
3.2919800000000001
 20
2.6892900000000002
 30
0.0
 10
3.2259400000000005
 20
2.7781900000000004
 30
0.0
 10
3.2259400000000005
 20
2.7781900000000004
 30
0.0
 10
3.0786200000000004
 20
2.9382100000000002
 30
0.0
 10
3.01004
 20
3.0956900000000003
 30
0.0
 10
2.8093800000000004
 20
3.1287100000000003
 30
0.0
 10
2.8093800000000004
 20
3.1287100000000003
 30
0.0
 10
2.8093800000000004
 20
3.1287100000000003
 30
0.0
 10
2.8906600000000005
 20
3.2607900000000001
 30
0.0
 10
2.8906600000000005
 20
3.2607900000000001
 30
0.0
 10
2.8906600000000005
 20
3.2607900000000001
 30
0.0
 10
2.8906600000000005
 20
3.2607900000000001
 30
0.0
 10
2.9440000000000004
 20
3.1871300000000002
 30
0.0
 10
2.9440000000000004
 20
3.1871300000000002
 30
0.0
 10
2.9440000000000004
 20
3.1871300000000002
 30
0.0
 10
3.2640400000000001
 20
3.1896700000000004
 30
0.0
 10
3.5866200000000004
 20
2.8086700000000002
 30
0.0
 10
3.3453200000000001
 20
2.5267300000000001
 30
0.0
 10
3.3453200000000001
 20
2.5267300000000001
 30
0.0
 10
3.4520000000000004
 20
2.5013300000000003
 30
0.0
 10
3.3453200000000001
 20
2.3489300000000002
 30
0.0
 10
3.3326200000000004
 20
2.26003
 30
0.0
 10
3.3326200000000004
 20
2.26003
 30
0.0
 10
3.4520000000000004
 20
2.2828900000000001
 30
0.0
 10
3.3986600000000005
 20
2.6105500000000004
 30
0.0
 10
3.5866200000000004
 20
2.6054700000000004
 30
0.0
 10
3.5866200000000004
 20
2.6054700000000004
 30
0.0
 10
3.6679000000000004
 20
2.5673700000000004
 30
0.0
 10
3.6399600000000003
 20
2.2447900000000001
 30
0.0
 10
3.7085400000000002
 20
2.4454500000000001
 30
0.0
 10
3.7085400000000002
 20
2.4454500000000001
 30
0.0
 10
3.7212400000000003
 20
2.51403
 30
0.0
 10
3.6399600000000003
 20
2.59531
 30
0.0
 10
3.7212400000000003
 20
2.6435700000000004
 30
0.0
 10
3.7212400000000003
 20
2.6435700000000004
 30
0.0
 10
3.9752400000000003
 20
2.29305
 30
0.0
 10
3.3453200000000001
 20
2.26003
 30
0.0
 10
3.3199200000000002
 20
2.0161900000000004
 30
0.0
  0
SPLINE
  5
38
100
AcDbEntity
  8
Ebene 1
 62
     7
100
AcDbSpline
210
0.0
220
0.0
230
1.0
 70
     1
 71
     3
 72
    16
 73
    12
 74
     0
 42
0.0000000001
 43
0.0000000001
 40
0.0
 40
0.0
 40
0.0
 40
0.0
 40
0.3333333333333333
 40
0.3333333333333333
 40
0.3333333333333333
 40
0.3333333333333333
 40
0.6666666666666666
 40
0.6666666666666666
 40
0.6666666666666666
 40
0.6666666666666666
 40
1.0
 40
1.0
 40
1.0
 40
1.0
 10
2.1921600000000003
 20
3.2074500000000001
 30
0.0
 10
2.1921600000000003
 20
3.2074500000000001
 30
0.0
 10
2.24804
 20
3.2074500000000001
 30
0.0
 10
2.24804
 20
3.2074500000000001
 30
0.0
 10
2.24804
 20
3.2074500000000001
 30
0.0
 10
2.2201
 20
3.1261700000000001
 30
0.0
 10
2.2074000000000003
 20
3.0347300000000001
 30
0.0
 10
2.2607400000000002
 20
2.9585300000000001
 30
0.0
 10
2.2607400000000002
 20
2.9585300000000001
 30
0.0
 10
2.0981800000000002
 20
2.9610700000000003
 30
0.0
 10
2.16676
 20
3.1160100000000002
 30
0.0
 10
2.1921600000000003
 20
3.2074500000000001
 30
0.0
  0
SPLINE
  5
39
100
AcDbEntity
  8
Ebene 1
 62
     7
100
AcDbSpline
210
0.0
220
0.0
230
1.0
 70
     1
 71
     3
 72
    16
 73
    12
 74
     0
 42
0.0000000001
 43
0.0000000001
 40
0.0
 40
0.0
 40
0.0
 40
0.0
 40
0.3333333333333333
 40
0.3333333333333333
 40
0.3333333333333333
 40
0.3333333333333333
 40
0.6666666666666666
 40
0.6666666666666666
 40
0.6666666666666666
 40
0.6666666666666666
 40
1.0
 40
1.0
 40
1.0
 40
1.0
 10
0.8942200000000001
 20
3.1947500000000004
 30
0.0
 10
0.8942200000000001
 20
3.1947500000000004
 30
0.0
 10
0.9196200000000001
 20
3.1922100000000002
 30
0.0
 10
0.9196200000000001
 20
3.1922100000000002
 30
0.0
 10
0.9196200000000001
 20
3.1922100000000002
 30
0.0
 10
0.9196200000000001
 20
3.0474300000000003
 30
0.0
 10
0.93486
 20
2.8797900000000003
 30
0.0
 10
0.8942200000000001
 20
2.7527900000000001
 30
0.0
 10
0.8942200000000001
 20
2.7527900000000001
 30
0.0
 10
0.8789800000000001
 20
2.8747100000000003
 30
0.0
 10
0.8662800000000001
 20
3.0499700000000001
 30
0.0
 10
0.8942200000000001
 20
3.1947500000000004
 30
0.0
  0
SPLINE
  5
3A
100
AcDbEntity
  8
Ebene 1
 62
     7
100
AcDbSpline
210
0.0
220
0.0
230
1.0
 70
     1
 71
     3
 72
    16
 73
    12
 74
     0
 42
0.0000000001
 43
0.0000000001
 40
0.0
 40
0.0
 40
0.0
 40
0.0
 40
0.3333333333333333
 40
0.3333333333333333
 40
0.3333333333333333
 40
0.3333333333333333
 40
0.6666666666666666
 40
0.6666666666666666
 40
0.6666666666666666
 40
0.6666666666666666
 40
1.0
 40
1.0
 40
1.0
 40
1.0
 10
4.3638600000000007
 20
3.1693500000000001
 30
0.0
 10
4.5645200000000008
 20
3.1210900000000001
 30
0.0
 10
4.3638600000000007
 20
2.8747100000000003
 30
0.0
 10
4.3105200000000004
 20
2.7680300000000004
 30
0.0
 10
4.3105200000000004
 20
2.7680300000000004
 30
0.0
 10
4.2698800000000006
 20
2.7680300000000004
 30
0.0
 10
4.2292400000000008
 20
2.7858100000000001
 30
0.0
 10
4.2013000000000007
 20
2.8213700000000004
 30
0.0
 10
4.2013000000000007
 20
2.8213700000000004
 30
0.0
 10
4.2013000000000007
 20
2.8213700000000004
 30
0.0
 10
4.3638600000000007
 20
3.1693500000000001
 30
0.0
 10
4.3638600000000007
 20
3.1693500000000001
 30
0.0
  0
SPLINE
  5
3B
100
AcDbEntity
  8
Ebene 1
 62
     7
100
AcDbSpline
210
0.0
220
0.0
230
1.0
 70
     1
 71
     3
 72
    16
 73
    12
 74
     0
 42
0.0000000001
 43
0.0000000001
 40
0.0
 40
0.0
 40
0.0
 40
0.0
 40
0.3333333333333333
 40
0.3333333333333333
 40
0.3333333333333333
 40
0.3333333333333333
 40
0.6666666666666666
 40
0.6666666666666666
 40
0.6666666666666666
 40
0.6666666666666666
 40
1.0
 40
1.0
 40
1.0
 40
1.0
 10
2.6900000000000004
 20
3.0067900000000001
 30
0.0
 10
2.7433400000000003
 20
2.8924900000000004
 30
0.0
 10
2.6493600000000002
 20
2.7299300000000004
 30
0.0
 10
2.5807800000000003
 20
2.6232500000000001
 30
0.0
 10
2.5807800000000003
 20
2.6232500000000001
 30
0.0
 10
2.5807800000000003
 20
2.6232500000000001
 30
0.0
 10
2.42076
 20
2.7426300000000001
 30
0.0
 10
2.42076
 20
2.7426300000000001
 30
0.0
 10
2.42076
 20
2.7426300000000001
 30
0.0
 10
2.50204
 20
2.8340700000000001
 30
0.0
 10
2.5680800000000001
 20
2.9559900000000003
 30
0.0
 10
2.6900000000000004
 20
3.0067900000000001
 30
0.0
  0
SPLINE
  5
3C
100
AcDbEntity
  8
Ebene 1
 62
     7
100
AcDbSpline
210
0.0
220
0.0
230
1.0
 70
     1
 71
     3
 72
    24
 73
    20
 74
     0
 42
0.0000000001
 43
0.0000000001
 40
0.0
 40
0.0
 40
0.0
 40
0.0
 40
0.2
 40
0.2
 40
0.2
 40
0.2
 40
0.4
 40
0.4
 40
0.4
 40
0.4
 40
0.6000000000000001
 40
0.6000000000000001
 40
0.6000000000000001
 40
0.6000000000000001
 40
0.8
 40
0.8
 40
0.8
 40
0.8
 40
1.0
 40
1.0
 40
1.0
 40
1.0
 10
0.4522600000000001
 20
2.9940900000000004
 30
0.0
 10
0.5056000000000001
 20
3.01187
 30
0.0
 10
0.5462400000000001
 20
2.9686900000000001
 30
0.0
 10
0.531
 20
2.9178900000000003
 30
0.0
 10
0.531
 20
2.9178900000000003
 30
0.0
 10
0.43702
 20
2.9128100000000003
 30
0.0
 10
0.33034
 20
2.8493100000000005
 30
0.0
 10
0.31764
 20
2.7705700000000002
 30
0.0
 10
0.31764
 20
2.7705700000000002
 30
0.0
 10
0.31764
 20
2.7705700000000002
 30
0.0
 10
0.277
 20
2.7705700000000002
 30
0.0
 10
0.277
 20
2.7705700000000002
 30
0.0
 10
0.277
 20
2.7705700000000002
 30
0.0
 10
0.277
 20
2.7705700000000002
 30
0.0
 10
0.30494
 20
2.88741
 30
0.0
 10
0.30494
 20
2.88741
 30
0.0
 10
0.30494
 20
2.88741
 30
0.0
 10
0.33034
 20
2.9458300000000004
 30
0.0
 10
0.43702
 20
2.9178900000000003
 30
0.0
 10
0.4522600000000001
 20
2.9940900000000004
 30
0.0
  0
SPLINE
  5
3D
100
AcDbEntity
  8
Ebene 1
 62
     7
100
AcDbSpline
210
0.0
220
0.0
230
1.0
 70
     1
 71
     3
 72
    20
 73
    16
 74
     0
 42
0.0000000001
 43
0.0000000001
 40
0.0
 40
0.0
 40
0.0
 40
0.0
 40
0.25
 40
0.25
 40
0.25
 40
0.25
 40
0.5
 40
0.5
 40
0.5
 40
0.5
 40
0.75
 40
0.75
 40
0.75
 40
0.75
 40
1.0
 40
1.0
 40
1.0
 40
1.0
 10
-0.04049
 20
2.9813900000000002
 30
0.0
 10
-0.02779
 20
2.9839300000000004
 30
0.0
 10
-0.00239
 20
2.9839300000000004
 30
0.0
 10
0.00776
 20
2.9661500000000003
 30
0.0
 10
0.00776
 20
2.9661500000000003
 30
0.0
 10
-0.01509
 20
2.8899500000000002
 30
0.0
 10
-0.02779
 20
2.80105
 30
0.0
 10
0.0357
 20
2.7400900000000004
 30
0.0
 10
0.0357
 20
2.7400900000000004
 30
0.0
 10
0.023
 20
2.71977
 30
0.0
 10
0.00776
 20
2.6969100000000004
 30
0.0
 10
-0.01509
 20
2.6867500000000004
 30
0.0
 10
-0.01509
 20
2.6867500000000004
 30
0.0
 10
-0.13701
 20
2.7426300000000001
 30
0.0
 10
-0.10907
 20
2.8975700000000004
 30
0.0
 10
-0.04049
 20
2.9813900000000002
 30
0.0
  0
SPLINE
  5
3E
100
AcDbEntity
  8
Ebene 1
 62
     7
100
AcDbSpline
210
0.0
220
0.0
230
1.0
 70
     1
 71
     3
 72
    32
 73
    28
 74
     0
 42
0.0000000001
 43
0.0000000001
 40
0.0
 40
0.0
 40
0.0
 40
0.0
 40
0.1428571428571429
 40
0.1428571428571429
 40
0.1428571428571429
 40
0.1428571428571429
 40
0.2857142857142857
 40
0.2857142857142857
 40
0.2857142857142857
 40
0.2857142857142857
 40
0.4285714285714286
 40
0.4285714285714286
 40
0.4285714285714286
 40
0.4285714285714286
 40
0.5714285714285714
 40
0.5714285714285714
 40
0.5714285714285714
 40
0.5714285714285714
 40
0.7142857142857142
 40
0.7142857142857142
 40
0.7142857142857142
 40
0.7142857142857142
 40
0.857142857142857
 40
0.857142857142857
 40
0.857142857142857
 40
0.857142857142857
 40
1.0
 40
1.0
 40
1.0
 40
1.0
 10
0.71896
 20
2.9001100000000002
 30
0.0
 10
0.71896
 20
2.9001100000000002
 30
0.0
 10
0.7596000000000001
 20
2.8975700000000004
 30
0.0
 10
0.7596000000000001
 20
2.8975700000000004
 30
0.0
 10
0.7596000000000001
 20
2.8975700000000004
 30
0.0
 10
0.78754
 20
2.6588100000000003
 30
0.0
 10
0.8002400000000001
 20
2.3590900000000001
 30
0.0
 10
0.59704
 20
2.1914500000000001
 30
0.0
 10
0.59704
 20
2.1914500000000001
 30
0.0
 10
0.46496
 20
2.2574900000000002
 30
0.0
 10
0.30494
 20
2.3565500000000004
 30
0.0
 10
0.22366
 20
2.47085
 30
0.0
 10
0.22366
 20
2.47085
 30
0.0
 10
0.22366
 20
2.47085
 30
0.0
 10
0.2643
 20
2.5216500000000002
 30
0.0
 10
0.2643
 20
2.5216500000000002
 30
0.0
 10
0.2643
 20
2.5216500000000002
 30
0.0
 10
0.42432
 20
2.47085
 30
0.0
 10
0.5183000000000001
 20
2.6588100000000003
 30
0.0
 10
0.6529200000000001
 20
2.6105500000000004
 30
0.0
 10
0.6529200000000001
 20
2.6105500000000004
 30
0.0
 10
0.6529200000000001
 20
2.6105500000000004
 30
0.0
 10
0.71896
 20
2.6511900000000002
 30
0.0
 10
0.71896
 20
2.6511900000000002
 30
0.0
 10
0.71896
 20
2.6511900000000002
 30
0.0
 10
0.71896
 20
2.71977
 30
0.0
 10
0.7316600000000001
 20
2.8264500000000004
 30
0.0
 10
0.71896
 20
2.9001100000000002
 30
0.0
  0
SPLINE
  5
3F
100
AcDbEntity
  8
Ebene 1
 62
     7
100
AcDbSpline
210
0.0
220
0.0
230
1.0
 70
     1
 71
     3
 72
    16
 73
    12
 74
     0
 42
0.0000000001
 43
0.0000000001
 40
0.0
 40
0.0
 40
0.0
 40
0.0
 40
0.3333333333333333
 40
0.3333333333333333
 40
0.3333333333333333
 40
0.3333333333333333
 40
0.6666666666666666
 40
0.6666666666666666
 40
0.6666666666666666
 40
0.6666666666666666
 40
1.0
 40
1.0
 40
1.0
 40
1.0
 10
-0.48499
 20
2.8747100000000003
 30
0.0
 10
-0.48499
 20
2.8747100000000003
 30
0.0
 10
-0.3224300000000001
 20
2.5673700000000004
 30
0.0
 10
-0.3224300000000001
 20
2.5673700000000004
 30
0.0
 10
-0.3224300000000001
 20
2.5673700000000004
 30
0.0
 10
-0.3224300000000001
 20
2.5673700000000004
 30
0.0
 10
-0.36307
 20
2.5165700000000002
 30
0.0
 10
-0.36307
 20
2.5165700000000002
 30
0.0
 10
-0.36307
 20
2.5165700000000002
 30
0.0
 10
-0.5230900000000001
 20
2.5216500000000002
 30
0.0
 10
-0.51039
 20
2.75787
 30
0.0
 10
-0.48499
 20
2.8747100000000003
 30
0.0
  0
SPLINE
  5
40
100
AcDbEntity
  8
Ebene 1
 62
     7
100
AcDbSpline
210
0.0
220
0.0
230
1.0
 70
     1
 71
     3
 72
    20
 73
    16
 74
     0
 42
0.0000000001
 43
0.0000000001
 40
0.0
 40
0.0
 40
0.0
 40
0.0
 40
0.25
 40
0.25
 40
0.25
 40
0.25
 40
0.5
 40
0.5
 40
0.5
 40
0.5
 40
0.75
 40
0.75
 40
0.75
 40
0.75
 40
1.0
 40
1.0
 40
1.0
 40
1.0
 10
0.34304
 20
2.6740500000000003
 30
0.0
 10
0.34304
 20
2.6740500000000003
 30
0.0
 10
0.47766
 20
2.6740500000000003
 30
0.0
 10
0.47766
 20
2.6740500000000003
 30
0.0
 10
0.47766
 20
2.6740500000000003
 30
0.0
 10
0.47766
 20
2.6740500000000003
 30
0.0
 10
0.5056000000000001
 20
2.6715100000000001
 30
0.0
 10
0.5056000000000001
 20
2.6715100000000001
 30
0.0
 10
0.5056000000000001
 20
2.6715100000000001
 30
0.0
 10
0.49036
 20
2.5826100000000003
 30
0.0
 10
0.34304
 20
2.5800700000000001
 30
0.0
 10
0.277
 20
2.6105500000000004
 30
0.0
 10
0.277
 20
2.6105500000000004
 30
0.0
 10
0.277
 20
2.6105500000000004
 30
0.0
 10
0.34304
 20
2.6740500000000003
 30
0.0
 10
0.34304
 20
2.6740500000000003
 30
0.0
  0
SPLINE
  5
41
100
AcDbEntity
  8
Ebene 1
 62
     7
100
AcDbSpline
210
0.0
220
0.0
230
1.0
 70
     1
 71
     3
 72
    36
 73
    32
 74
     0
 42
0.0000000001
 43
0.0000000001
 40
0.0
 40
0.0
 40
0.0
 40
0.0
 40
0.125
 40
0.125
 40
0.125
 40
0.125
 40
0.25
 40
0.25
 40
0.25
 40
0.25
 40
0.375
 40
0.375
 40
0.375
 40
0.375
 40
0.5
 40
0.5
 40
0.5
 40
0.5
 40
0.625
 40
0.625
 40
0.625
 40
0.625
 40
0.75
 40
0.75
 40
0.75
 40
0.75
 40
0.875
 40
0.875
 40
0.875
 40
0.875
 40
1.0
 40
1.0
 40
1.0
 40
1.0
 10
-0.16241
 20
2.6588100000000003
 30
0.0
 10
-0.08113
 20
2.6207100000000003
 30
0.0
 10
-0.01509
 20
2.5292700000000004
 30
0.0
 10
0.023
 20
2.4632300000000003
 30
0.0
 10
0.023
 20
2.4632300000000003
 30
0.0
 10
-0.02779
 20
2.4073500000000001
 30
0.0
 10
-0.06843
 20
2.4835500000000001
 30
0.0
 10
-0.12177
 20
2.4835500000000001
 30
0.0
 10
-0.12177
 20
2.4835500000000001
 30
0.0
 10
-0.16241
 20
2.42767
 30
0.0
 10
-0.06843
 20
2.3768700000000003
 30
0.0
 10
-0.04049
 20
2.34131
 30
0.0
 10
-0.04049
 20
2.34131
 30
0.0
 10
-0.06843
 20
2.3209900000000001
 30
0.0
 10
-0.10907
 20
2.3082900000000004
 30
0.0
 10
-0.12177
 20
2.2752700000000003
 30
0.0
 10
-0.12177
 20
2.2752700000000003
 30
0.0
 10
-0.12177
 20
2.2752700000000003
 30
0.0
 10
0.14238
 20
2.3895700000000004
 30
0.0
 10
0.14238
 20
2.3895700000000004
 30
0.0
 10
0.14238
 20
2.3895700000000004
 30
0.0
 10
0.14238
 20
2.3895700000000004
 30
0.0
 10
0.18302
 20
2.0746100000000003
 30
0.0
 10
0.18302
 20
2.0746100000000003
 30
0.0
 10
0.18302
 20
2.0746100000000003
 30
0.0
 10
0.02046
 20
2.1990700000000003
 30
0.0
 10
-0.29703
 20
2.1000100000000002
 30
0.0
 10
-0.19035
 20
2.3108300000000002
 30
0.0
 10
-0.19035
 20
2.3108300000000002
 30
0.0
 10
-0.30973
 20
2.42767
 30
0.0
 10
-0.29703
 20
2.5572100000000004
 30
0.0
 10
-0.16241
 20
2.6588100000000003
 30
0.0
  0
SPLINE
  5
42
100
AcDbEntity
  8
Ebene 1
 62
     7
100
AcDbSpline
210
0.0
220
0.0
230
1.0
 70
     1
 71
     3
 72
    28
 73
    24
 74
     0
 42
0.0000000001
 43
0.0000000001
 40
0.0
 40
0.0
 40
0.0
 40
0.0
 40
0.1666666666666667
 40
0.1666666666666667
 40
0.1666666666666667
 40
0.1666666666666667
 40
0.3333333333333333
 40
0.3333333333333333
 40
0.3333333333333333
 40
0.3333333333333333
 40
0.5
 40
0.5
 40
0.5
 40
0.5
 40
0.6666666666666666
 40
0.6666666666666666
 40
0.6666666666666666
 40
0.6666666666666666
 40
0.8333333333333333
 40
0.8333333333333333
 40
0.8333333333333333
 40
0.8333333333333333
 40
1.0
 40
1.0
 40
1.0
 40
1.0
 10
3.7999800000000001
 20
2.6588100000000003
 30
0.0
 10
3.7999800000000001
 20
2.6588100000000003
 30
0.0
 10
3.9879400000000005
 20
2.6435700000000004
 30
0.0
 10
3.9879400000000005
 20
2.6435700000000004
 30
0.0
 10
3.9879400000000005
 20
2.6435700000000004
 30
0.0
 10
3.9879400000000005
 20
2.6435700000000004
 30
0.0
 10
3.9346000000000005
 20
2.5368900000000001
 30
0.0
 10
3.9346000000000005
 20
2.5368900000000001
 30
0.0
 10
3.9346000000000005
 20
2.5368900000000001
 30
0.0
 10
3.9752400000000003
 20
2.4987900000000001
 30
0.0
 10
3.9625400000000002
 20
2.5876900000000003
 30
0.0
 10
4.0006400000000006
 20
2.59023
 30
0.0
 10
4.0006400000000006
 20
2.59023
 30
0.0
 10
4.1098600000000003
 20
2.5064100000000002
 30
0.0
 10
4.0006400000000006
 20
2.3260700000000001
 30
0.0
 10
3.8812600000000002
 20
2.41751
 30
0.0
 10
3.8812600000000002
 20
2.41751
 30
0.0
 10
3.8685600000000004
 20
2.4048100000000003
 30
0.0
 10
3.8406200000000004
 20
2.3971900000000002
 30
0.0
 10
3.8152200000000005
 20
2.4098900000000003
 30
0.0
 10
3.8152200000000005
 20
2.4098900000000003
 30
0.0
 10
3.8152200000000005
 20
2.5013300000000003
 30
0.0
 10
3.8279200000000002
 20
2.5699100000000001
 30
0.0
 10
3.7999800000000001
 20
2.6588100000000003
 30
0.0
  0
SPLINE
  5
43
100
AcDbEntity
  8
Ebene 1
 62
     7
100
AcDbSpline
210
0.0
220
0.0
230
1.0
 70
     1
 71
     3
 72
    16
 73
    12
 74
     0
 42
0.0000000001
 43
0.0000000001
 40
0.0
 40
0.0
 40
0.0
 40
0.0
 40
0.3333333333333333
 40
0.3333333333333333
 40
0.3333333333333333
 40
0.3333333333333333
 40
0.6666666666666666
 40
0.6666666666666666
 40
0.6666666666666666
 40
0.6666666666666666
 40
1.0
 40
1.0
 40
1.0
 40
1.0
 10
2.3801200000000002
 20
2.63341
 30
0.0
 10
2.4614000000000003
 20
2.6308700000000003
 30
0.0
 10
2.4741000000000004
 20
2.54705
 30
0.0
 10
2.42076
 20
2.5013300000000003
 30
0.0
 10
2.42076
 20
2.5013300000000003
 30
0.0
 10
2.33948
 20
2.50895
 30
0.0
 10
2.2861400000000001
 20
2.47085
 30
0.0
 10
2.2328000000000001
 20
2.42259
 30
0.0
 10
2.2328000000000001
 20
2.42259
 30
0.0
 10
2.2328000000000001
 20
2.42259
 30
0.0
 10
2.3801200000000002
 20
2.63341
 30
0.0
 10
2.3801200000000002
 20
2.63341
 30
0.0
  0
SPLINE
  5
44
100
AcDbEntity
  8
Ebene 1
 62
     7
100
AcDbSpline
210
0.0
220
0.0
230
1.0
 70
     1
 71
     3
 72
    12
 73
     8
 74
     0
 42
0.0000000001
 43
0.0000000001
 40
0.0
 40
0.0
 40
0.0
 40
0.0
 40
0.5
 40
0.5
 40
0.5
 40
0.5
 40
1.0
 40
1.0
 40
1.0
 40
1.0
 10
-3.9139900000000005
 20
2.4454500000000001
 30
0.0
 10
-3.7971500000000002
 20
2.4022700000000001
 30
0.0
 10
-3.5964900000000002
 20
2.4098900000000003
 30
0.0
 10
-3.5533100000000002
 20
2.2701900000000004
 30
0.0
 10
-3.5533100000000002
 20
2.2701900000000004
 30
0.0
 10
-3.6523700000000003
 20
2.3616300000000003
 30
0.0
 10
-3.8911300000000004
 20
2.2905100000000003
 30
0.0
 10
-3.9139900000000005
 20
2.4454500000000001
 30
0.0
  0
SPLINE
  5
45
100
AcDbEntity
  8
Ebene 1
 62
     7
100
AcDbSpline
210
0.0
220
0.0
230
1.0
 70
     1
 71
     3
 72
    24
 73
    20
 74
     0
 42
0.0000000001
 43
0.0000000001
 40
0.0
 40
0.0
 40
0.0
 40
0.0
 40
0.2
 40
0.2
 40
0.2
 40
0.2
 40
0.4
 40
0.4
 40
0.4
 40
0.4
 40
0.6000000000000001
 40
0.6000000000000001
 40
0.6000000000000001
 40
0.6000000000000001
 40
0.8
 40
0.8
 40
0.8
 40
0.8
 40
1.0
 40
1.0
 40
1.0
 40
1.0
 10
-0.51039
 20
2.41751
 30
0.0
 10
-0.4164100000000001
 20
2.4022700000000001
 30
0.0
 10
-0.28179
 20
2.3387700000000002
 30
0.0
 10
-0.35037
 20
2.22193
 30
0.0
 10
-0.35037
 20
2.22193
 30
0.0
 10
-0.48499
 20
2.17875
 30
0.0
 10
-0.6856500000000001
 20
2.13557
 30
0.0
 10
-0.6704100000000001
 20
2.33623
 30
0.0
 10
-0.6704100000000001
 20
2.33623
 30
0.0
 10
-0.6704100000000001
 20
2.33623
 30
0.0
 10
-0.5789700000000001
 20
2.3260700000000001
 30
0.0
 10
-0.5789700000000001
 20
2.3260700000000001
 30
0.0
 10
-0.5789700000000001
 20
2.3260700000000001
 30
0.0
 10
-0.5383300000000001
 20
2.3159100000000001
 30
0.0
 10
-0.4697500000000001
 20
2.2701900000000004
 30
0.0
 10
-0.44435
 20
2.3260700000000001
 30
0.0
 10
-0.44435
 20
2.3260700000000001
 30
0.0
 10
-0.44435
 20
2.3260700000000001
 30
0.0
 10
-0.51039
 20
2.41751
 30
0.0
 10
-0.51039
 20
2.41751
 30
0.0
  0
SPLINE
  5
46
100
AcDbEntity
  8
Ebene 1
 62
     7
100
AcDbSpline
210
0.0
220
0.0
230
1.0
 70
     1
 71
     3
 72
    20
 73
    16
 74
     0
 42
0.0000000001
 43
0.0000000001
 40
0.0
 40
0.0
 40
0.0
 40
0.0
 40
0.25
 40
0.25
 40
0.25
 40
0.25
 40
0.5
 40
0.5
 40
0.5
 40
0.5
 40
0.75
 40
0.75
 40
0.75
 40
0.75
 40
1.0
 40
1.0
 40
1.0
 40
1.0
 10
-0.84567
 20
2.3921100000000002
 30
0.0
 10
-0.7110500000000001
 20
2.4200500000000003
 30
0.0
 10
-0.73899
 20
2.2397100000000001
 30
0.0
 10
-0.6856500000000001
 20
2.16859
 30
0.0
 10
-0.6856500000000001
 20
2.16859
 30
0.0
 10
-0.6856500000000001
 20
2.16859
 30
0.0
 10
-0.9802900000000001
 20
2.1812900000000002
 30
0.0
 10
-0.9802900000000001
 20
2.1812900000000002
 30
0.0
 10
-0.9802900000000001
 20
2.1812900000000002
 30
0.0
 10
-1.0742700000000001
 20
2.2473300000000003
 30
0.0
 10
-0.99299
 20
2.3387700000000002
 30
0.0
 10
-0.8990100000000001
 20
2.3286100000000003
 30
0.0
 10
-0.8990100000000001
 20
2.3286100000000003
 30
0.0
 10
-0.8990100000000001
 20
2.3286100000000003
 30
0.0
 10
-0.84567
 20
2.3921100000000002
 30
0.0
 10
-0.84567
 20
2.3921100000000002
 30
0.0
  0
SPLINE
  5
47
100
AcDbEntity
  8
Ebene 1
 62
     7
100
AcDbSpline
210
0.0
220
0.0
230
1.0
 70
     1
 71
     3
 72
    16
 73
    12
 74
     0
 42
0.0000000001
 43
0.0000000001
 40
0.0
 40
0.0
 40
0.0
 40
0.0
 40
0.3333333333333333
 40
0.3333333333333333
 40
0.3333333333333333
 40
0.3333333333333333
 40
0.6666666666666666
 40
0.6666666666666666
 40
0.6666666666666666
 40
0.6666666666666666
 40
1.0
 40
1.0
 40
1.0
 40
1.0
 10
2.4080600000000003
 20
2.3768700000000003
 30
0.0
 10
2.42076
 20
2.3743300000000001
 30
0.0
 10
2.4487000000000001
 20
2.3870300000000002
 30
0.0
 10
2.4487000000000001
 20
2.3641700000000001
 30
0.0
 10
2.4487000000000001
 20
2.3641700000000001
 30
0.0
 10
2.3547200000000004
 20
2.3489300000000002
 30
0.0
 10
2.3928200000000004
 20
2.1939900000000003
 30
0.0
 10
2.2861400000000001
 20
2.22193
 30
0.0
 10
2.2861400000000001
 20
2.22193
 30
0.0
 10
2.2988400000000002
 20
2.2803500000000003
 30
0.0
 10
2.3547200000000004
 20
2.3540100000000002
 30
0.0
 10
2.4080600000000003
 20
2.3768700000000003
 30
0.0
  0
SPLINE
  5
48
100
AcDbEntity
  8
Ebene 1
 62
     7
100
AcDbSpline
210
0.0
220
0.0
230
1.0
 70
     1
 71
     3
 72
   228
 73
   224
 74
     0
 42
0.0000000001
 43
0.0000000001
 40
0.0
 40
0.0
 40
0.0
 40
0.0
 40
0.0178571428571429
 40
0.0178571428571429
 40
0.0178571428571429
 40
0.0178571428571429
 40
0.0357142857142857
 40
0.0357142857142857
 40
0.0357142857142857
 40
0.0357142857142857
 40
0.0535714285714286
 40
0.0535714285714286
 40
0.0535714285714286
 40
0.0535714285714286
 40
0.0714285714285714
 40
0.0714285714285714
 40
0.0714285714285714
 40
0.0714285714285714
 40
0.0892857142857143
 40
0.0892857142857143
 40
0.0892857142857143
 40
0.0892857142857143
 40
0.1071428571428571
 40
0.1071428571428571
 40
0.1071428571428571
 40
0.1071428571428571
 40
0.125
 40
0.125
 40
0.125
 40
0.125
 40
0.1428571428571428
 40
0.1428571428571428
 40
0.1428571428571428
 40
0.1428571428571428
 40
0.1607142857142857
 40
0.1607142857142857
 40
0.1607142857142857
 40
0.1607142857142857
 40
0.1785714285714285
 40
0.1785714285714285
 40
0.1785714285714285
 40
0.1785714285714285
 40
0.1964285714285714
 40
0.1964285714285714
 40
0.1964285714285714
 40
0.1964285714285714
 40
0.2142857142857142
 40
0.2142857142857142
 40
0.2142857142857142
 40
0.2142857142857142
 40
0.2321428571428571
 40
0.2321428571428571
 40
0.2321428571428571
 40
0.2321428571428571
 40
0.2499999999999999
 40
0.2499999999999999
 40
0.2499999999999999
 40
0.2499999999999999
 40
0.2678571428571428
 40
0.2678571428571428
 40
0.2678571428571428
 40
0.2678571428571428
 40
0.2857142857142856
 40
0.2857142857142856
 40
0.2857142857142856
 40
0.2857142857142856
 40
0.3035714285714285
 40
0.3035714285714285
 40
0.3035714285714285
 40
0.3035714285714285
 40
0.3214285714285713
 40
0.3214285714285713
 40
0.3214285714285713
 40
0.3214285714285713
 40
0.3392857142857142
 40
0.3392857142857142
 40
0.3392857142857142
 40
0.3392857142857142
 40
0.357142857142857
 40
0.357142857142857
 40
0.357142857142857
 40
0.357142857142857
 40
0.3749999999999999
 40
0.3749999999999999
 40
0.3749999999999999
 40
0.3749999999999999
 40
0.3928571428571427
 40
0.3928571428571427
 40
0.3928571428571427
 40
0.3928571428571427
 40
0.4107142857142856
 40
0.4107142857142856
 40
0.4107142857142856
 40
0.4107142857142856
 40
0.4285714285714284
 40
0.4285714285714284
 40
0.4285714285714284
 40
0.4285714285714284
 40
0.4464285714285713
 40
0.4464285714285713
 40
0.4464285714285713
 40
0.4464285714285713
 40
0.4642857142857141
 40
0.4642857142857141
 40
0.4642857142857141
 40
0.4642857142857141
 40
0.482142857142857
 40
0.482142857142857
 40
0.482142857142857
 40
0.482142857142857
 40
0.4999999999999998
 40
0.4999999999999998
 40
0.4999999999999998
 40
0.4999999999999998
 40
0.5178571428571427
 40
0.5178571428571427
 40
0.5178571428571427
 40
0.5178571428571427
 40
0.5357142857142856
 40
0.5357142857142856
 40
0.5357142857142856
 40
0.5357142857142856
 40
0.5535714285714285
 40
0.5535714285714285
 40
0.5535714285714285
 40
0.5535714285714285
 40
0.5714285714285714
 40
0.5714285714285714
 40
0.5714285714285714
 40
0.5714285714285714
 40
0.5892857142857143
 40
0.5892857142857143
 40
0.5892857142857143
 40
0.5892857142857143
 40
0.6071428571428572
 40
0.6071428571428572
 40
0.6071428571428572
 40
0.6071428571428572
 40
0.6250000000000001
 40
0.6250000000000001
 40
0.6250000000000001
 40
0.6250000000000001
 40
0.642857142857143
 40
0.642857142857143
 40
0.642857142857143
 40
0.642857142857143
 40
0.6607142857142859
 40
0.6607142857142859
 40
0.6607142857142859
 40
0.6607142857142859
 40
0.6785714285714288
 40
0.6785714285714288
 40
0.6785714285714288
 40
0.6785714285714288
 40
0.6964285714285717
 40
0.6964285714285717
 40
0.6964285714285717
 40
0.6964285714285717
 40
0.7142857142857146
 40
0.7142857142857146
 40
0.7142857142857146
 40
0.7142857142857146
 40
0.7321428571428575
 40
0.7321428571428575
 40
0.7321428571428575
 40
0.7321428571428575
 40
0.7500000000000004
 40
0.7500000000000004
 40
0.7500000000000004
 40
0.7500000000000004
 40
0.7678571428571434
 40
0.7678571428571434
 40
0.7678571428571434
 40
0.7678571428571434
 40
0.7857142857142863
 40
0.7857142857142863
 40
0.7857142857142863
 40
0.7857142857142863
 40
0.8035714285714292
 40
0.8035714285714292
 40
0.8035714285714292
 40
0.8035714285714292
 40
0.8214285714285721
 40
0.8214285714285721
 40
0.8214285714285721
 40
0.8214285714285721
 40
0.839285714285715
 40
0.839285714285715
 40
0.839285714285715
 40
0.839285714285715
 40
0.8571428571428579
 40
0.8571428571428579
 40
0.8571428571428579
 40
0.8571428571428579
 40
0.8750000000000008
 40
0.8750000000000008
 40
0.8750000000000008
 40
0.8750000000000008
 40
0.8928571428571437
 40
0.8928571428571437
 40
0.8928571428571437
 40
0.8928571428571437
 40
0.9107142857142866
 40
0.9107142857142866
 40
0.9107142857142866
 40
0.9107142857142866
 40
0.9285714285714295
 40
0.9285714285714295
 40
0.9285714285714295
 40
0.9285714285714295
 40
0.9464285714285724
 40
0.9464285714285724
 40
0.9464285714285724
 40
0.9464285714285724
 40
0.9642857142857153
 40
0.9642857142857153
 40
0.9642857142857153
 40
0.9642857142857153
 40
0.9821428571428582
 40
0.9821428571428582
 40
0.9821428571428582
 40
0.9821428571428582
 40
1.0
 40
1.0
 40
1.0
 40
1.0
 10
-1.4146300000000001
 20
-0.01326
 30
0.0
 10
-1.3917700000000002
 20
0.11373
 30
0.0
 10
-1.3231900000000001
 20
0.00959
 30
0.0
 10
-1.2876300000000001
 20
-0.10724
 30
0.0
 10
-1.2876300000000001
 20
-0.10724
 30
0.0
 10
-1.1403100000000002
 20
-0.14788
 30
0.0
 10
-1.1123700000000001
 20
-0.26472
 30
0.0
 10
-1.0209300000000001
 20
-0.35616
 30
0.0
 10
-1.0209300000000001
 20
-0.35616
 30
0.0
 10
-0.9269500000000001
 20
-0.43236
 30
0.0
 10
-0.95235
 20
-0.59492
 30
0.0
 10
-1.00569
 20
-0.6863600000000001
 30
0.0
 10
-1.00569
 20
-0.6863600000000001
 30
0.0
 10
-1.1809500000000002
 20
-0.4044200000000001
 30
0.0
 10
-1.79817
 20
-0.23678
 30
0.0
 10
-1.8108700000000002
 20
-0.6431800000000001
 30
0.0
 10
-1.8108700000000002
 20
-0.6431800000000001
 30
0.0
 10
-1.8108700000000002
 20
-0.6431800000000001
 30
0.0
 10
-1.6229100000000001
 20
-0.5161800000000001
 30
0.0
 10
-1.6229100000000001
 20
-0.5161800000000001
 30
0.0
 10
-1.6229100000000001
 20
-0.5161800000000001
 30
0.0
 10
-1.4527300000000001
 20
-0.45522
 30
0.0
 10
-1.3003300000000002
 20
-0.55174
 30
0.0
 10
-1.1758700000000002
 20
-0.65334
 30
0.0
 10
-1.1758700000000002
 20
-0.65334
 30
0.0
 10
-1.1530100000000001
 20
-0.6711200000000001
 30
0.0
 10
-1.1072900000000001
 20
-0.7117600000000001
 30
0.0
 10
-1.1403100000000002
 20
-0.73716
 30
0.0
 10
-1.1403100000000002
 20
-0.73716
 30
0.0
 10
-1.50353
 20
-0.57206
 30
0.0
 10
-2.0242300000000002
 20
-0.67366
 30
0.0
 10
-2.1055100000000002
 20
-1.1130800000000001
 30
0.0
 10
-2.1055100000000002
 20
-1.1130800000000001
 30
0.0
 10
-2.3341100000000004
 20
-0.92766
 30
0.0
 10
-2.3823700000000003
 20
-1.3010400000000002
 30
0.0
 10
-2.5703300000000002
 20
-1.2858000000000001
 30
0.0
 10
-2.5703300000000002
 20
-1.2858000000000001
 30
0.0
 10
-2.52969
 20
-1.0521200000000002
 30
0.0
 10
-2.3010900000000003
 20
-0.9352800000000001
 30
0.0
 10
-2.0775700000000001
 20
-0.9556000000000001
 30
0.0
 10
-2.0775700000000001
 20
-0.9556000000000001
 30
0.0
 10
-2.1182100000000004
 20
-0.9022600000000001
 30
0.0
 10
-2.06487
 20
-0.8565400000000001
 30
0.0
 10
-2.06487
 20
-0.7981200000000001
 30
0.0
 10
-2.06487
 20
-0.7981200000000001
 30
0.0
 10
-2.4128500000000002
 20
-0.9860800000000001
 30
0.0
 10
-2.2477500000000004
 20
-0.27996
 30
0.0
 10
-2.4966700000000004
 20
-0.08692
 30
0.0
 10
-2.4966700000000004
 20
-0.08692
 30
0.0
 10
-2.61097
 20
-0.05136
 30
0.0
 10
-2.6744700000000003
 20
-0.17582
 30
0.0
 10
-2.7887700000000004
 20
-0.15296
 30
0.0
 10
-2.7887700000000004
 20
-0.15296
 30
0.0
 10
-2.8675100000000002
 20
-0.3307600000000001
 30
0.0
 10
-3.2053300000000005
 20
-0.21138
 30
0.0
 10
-3.0402300000000002
 20
-0.5619000000000001
 30
0.0
 10
-3.0402300000000002
 20
-0.5619000000000001
 30
0.0
 10
-2.9792700000000001
 20
-0.55428
 30
0.0
 10
-2.9386300000000003
 20
-0.53396
 30
0.0
 10
-2.8852900000000004
 20
-0.5771400000000001
 30
0.0
 10
-2.8852900000000004
 20
-0.5771400000000001
 30
0.0
 10
-2.7760700000000003
 20
-0.18852
 30
0.0
 10
-2.7176500000000003
 20
-0.8794000000000001
 30
0.0
 10
-2.6947900000000002
 20
-1.0089400000000002
 30
0.0
 10
-2.6947900000000002
 20
-1.0089400000000002
 30
0.0
 10
-2.5855700000000001
 20
-0.8387600000000001
 30
0.0
 10
-2.7405100000000004
 20
-0.39172
 30
0.0
 10
-2.6516100000000002
 20
-0.36124
 30
0.0
 10
-2.6516100000000002
 20
-0.36124
 30
0.0
 10
-2.6516100000000002
 20
-0.36124
 30
0.0
 10
-2.5423900000000001
 20
-0.61778
 30
0.0
 10
-2.5423900000000001
 20
-0.61778
 30
0.0
 10
-2.5423900000000001
 20
-0.61778
 30
0.0
 10
-2.5423900000000001
 20
-0.61778
 30
0.0
 10
-2.4534900000000004
 20
-0.7955800000000001
 30
0.0
 10
-2.4534900000000004
 20
-0.7955800000000001
 30
0.0
 10
-2.4534900000000004
 20
-0.7955800000000001
 30
0.0
 10
-2.3798300000000001
 20
-0.8717800000000001
 30
0.0
 10
-2.4941300000000002
 20
-0.6660400000000001
 30
0.0
 10
-2.4230100000000001
 20
-0.7092200000000001
 30
0.0
 10
-2.4230100000000001
 20
-0.7092200000000001
 30
0.0
 10
-2.0928100000000001
 20
-0.84638
 30
0.0
 10
-2.77861
 20
-1.0165600000000001
 30
0.0
 10
-2.6033500000000003
 20
-1.3010400000000002
 30
0.0
 10
-2.6033500000000003
 20
-1.3010400000000002
 30
0.0
 10
-2.6414500000000003
 20
-1.3391400000000002
 30
0.0
 10
-2.6744700000000003
 20
-1.25278
 30
0.0
 10
-2.6998700000000002
 20
-1.2375400000000001
 30
0.0
 10
-2.6998700000000002
 20
-1.2375400000000001
 30
0.0
 10
-2.8548100000000001
 20
-1.1562600000000001
 30
0.0
 10
-3.0199100000000003
 20
-1.3213600000000001
 30
0.0
 10
-3.0961100000000004
 20
-1.1562600000000001
 30
0.0
 10
-3.0961100000000004
 20
-1.1562600000000001
 30
0.0
 10
-2.7557500000000004
 20
-1.20452
 30
0.0
 10
-3.0834100000000002
 20
-0.8159000000000001
 30
0.0
 10
-3.0732500000000003
 20
-0.6228600000000001
 30
0.0
 10
-3.0732500000000003
 20
-0.6228600000000001
 30
0.0
 10
-3.0732500000000003
 20
-0.6228600000000001
 30
0.0
 10
-3.1291300000000004
 20
-0.7270000000000001
 30
0.0
 10
-3.1291300000000004
 20
-0.7270000000000001
 30
0.0
 10
-3.1291300000000004
 20
-0.7270000000000001
 30
0.0
 10
-3.1291300000000004
 20
-0.7270000000000001
 30
0.0
 10
-3.1265900000000002
 20
-1.1130800000000001
 30
0.0
 10
-3.1265900000000002
 20
-1.1130800000000001
 30
0.0
 10
-3.1265900000000002
 20
-1.1130800000000001
 30
0.0
 10
-3.3094700000000001
 20
-1.0546600000000002
 30
0.0
 10
-3.5101300000000002
 20
-0.9937
 30
0.0
 10
-3.6828500000000002
 20
-1.08514
 30
0.0
 10
-3.6828500000000002
 20
-1.08514
 30
0.0
 10
-3.8225500000000001
 20
-0.8540000000000001
 30
0.0
 10
-3.8657300000000001
 20
-0.37648
 30
0.0
 10
-3.7006300000000003
 20
-0.05898
 30
0.0
 10
-3.7006300000000003
 20
-0.05898
 30
0.0
 10
-3.5533100000000002
 20
0.30677
 30
0.0
 10
-3.4999700000000002
 20
0.02737
 30
0.0
 10
-3.6345900000000002
 20
-0.20122
 30
0.0
 10
-3.6345900000000002
 20
-0.20122
 30
0.0
 10
-3.6345900000000002
 20
-0.20122
 30
0.0
 10
-3.7234900000000004
 20
-0.47554
 30
0.0
 10
-3.7234900000000004
 20
-0.47554
 30
0.0
 10
-3.7234900000000004
 20
-0.47554
 30
0.0
 10
-3.7234900000000004
 20
-0.47554
 30
0.0
 10
-3.7260300000000002
 20
-0.6609600000000001
 30
0.0
 10
-3.7260300000000002
 20
-0.6609600000000001
 30
0.0
 10
-3.7260300000000002
 20
-0.6609600000000001
 30
0.0
 10
-3.7184100000000004
 20
-0.9200400000000001
 30
0.0
 10
-3.6168100000000001
 20
-0.01834
 30
0.0
 10
-3.5253700000000001
 20
-0.19106
 30
0.0
 10
-3.5253700000000001
 20
-0.19106
 30
0.0
 10
-3.5253700000000001
 20
-0.19106
 30
0.0
 10
-3.5761700000000003
 20
-0.3968
 30
0.0
 10
-3.5761700000000003
 20
-0.3968
 30
0.0
 10
-3.5761700000000003
 20
-0.3968
 30
0.0
 10
-3.5812500000000003
 20
-0.40188
 30
0.0
 10
-3.5812500000000003
 20
-0.4222
 30
0.0
 10
-3.5685500000000001
 20
-0.4145800000000001
 30
0.0
 10
-3.5685500000000001
 20
-0.4145800000000001
 30
0.0
 10
-3.5050500000000002
 20
-0.39172
 30
0.0
 10
-3.6091900000000003
 20
-0.56698
 30
0.0
 10
-3.5279100000000003
 20
-0.48316
 30
0.0
 10
-3.5279100000000003
 20
-0.48316
 30
0.0
 10
-3.5279100000000003
 20
-0.48316
 30
0.0
 10
-3.4593300000000005
 20
-0.28504
 30
0.0
 10
-3.4593300000000005
 20
-0.28504
 30
0.0
 10
-3.4593300000000005
 20
-0.28504
 30
0.0
 10
-3.3755100000000002
 20
-0.21646
 30
0.0
 10
-3.5583900000000002
 20
-1.0140200000000001
 30
0.0
 10
-3.4440900000000001
 20
-0.6076200000000001
 30
0.0
 10
-3.4440900000000001
 20
-0.6076200000000001
 30
0.0
 10
-3.4415500000000003
 20
-0.5415800000000001
 30
0.0
 10
-3.3958300000000001
 20
-0.48316
 30
0.0
 10
-3.3729700000000005
 20
-0.4247400000000001
 30
0.0
 10
-3.3729700000000005
 20
-0.4247400000000001
 30
0.0
 10
-3.3729700000000005
 20
-0.4247400000000001
 30
0.0
 10
-3.2840700000000003
 20
-0.08438
 30
0.0
 10
-3.2840700000000003
 20
-0.08438
 30
0.0
 10
-3.2840700000000003
 20
-0.08438
 30
0.0
 10
-3.2840700000000003
 20
-0.08438
 30
0.0
 10
-3.4593300000000005
 20
0.20771
 30
0.0
 10
-3.4593300000000005
 20
0.20771
 30
0.0
 10
-3.4593300000000005
 20
0.20771
 30
0.0
 10
-3.2002500000000005
 20
0.9493900000000001
 30
0.0
 10
-2.9233900000000004
 20
1.7774300000000001
 30
0.0
 10
-2.3061700000000003
 20
2.29813
 30
0.0
 10
-2.3061700000000003
 20
2.29813
 30
0.0
 10
-2.2248900000000003
 20
2.2701900000000004
 30
0.0
 10
-2.1994900000000004
 20
2.1914500000000001
 30
0.0
 10
-2.14615
 20
2.1330300000000002
 30
0.0
 10
-2.14615
 20
2.1330300000000002
 30
0.0
 10
-2.6439900000000001
 20
1.7672700000000001
 30
0.0
 10
-2.0521700000000003
 20
0.9849500000000001
 30
0.0
 10
-2.01153
 20
0.32455
 30
0.0
 10
-2.01153
 20
0.32455
 30
0.0
 10
-2.06995
 20
0.24073
 30
0.0
 10
-2.10805
 20
0.15183
 30
0.0
 10
-2.1969500000000002
 20
0.15945
 30
0.0
 10
-2.1969500000000002
 20
0.15945
 30
0.0
 10
-2.27061
 20
0.16453
 30
0.0
 10
-2.2172700000000001
 20
0.15945
 30
0.0
 10
-2.1740900000000001
 20
0.12643
 30
0.0
 10
-2.1740900000000001
 20
0.12643
 30
0.0
 10
-1.8896100000000002
 20
-0.08438
 30
0.0
 10
-2.1766300000000003
 20
-0.4907800000000001
 30
0.0
 10
-2.0242300000000002
 20
-0.8082800000000001
 30
0.0
 10
-2.0242300000000002
 20
-0.8082800000000001
 30
0.0
 10
-1.9454900000000002
 20
-0.7346200000000001
 30
0.0
 10
-1.9048500000000002
 20
-0.7066800000000001
 30
0.0
 10
-1.9581900000000001
 20
-0.6203200000000001
 30
0.0
 10
-1.9581900000000001
 20
-0.6203200000000001
 30
0.0
 10
-1.9581900000000001
 20
-0.6203200000000001
 30
0.0
 10
-1.9048500000000002
 20
-0.25964
 30
0.0
 10
-1.9048500000000002
 20
-0.25964
 30
0.0
 10
-1.9048500000000002
 20
-0.25964
 30
0.0
 10
-1.9327900000000002
 20
-0.20122
 30
0.0
 10
-1.9175500000000001
 20
-0.11994
 30
0.0
 10
-1.8515100000000002
 20
-0.11994
 30
0.0
 10
-1.8515100000000002
 20
-0.11994
 30
0.0
 10
-1.79817
 20
-0.10724
 30
0.0
 10
-1.8362700000000001
 20
-0.04882
 30
0.0
 10
-1.8642100000000001
 20
-0.0285
 30
0.0
 10
-1.8642100000000001
 20
-0.0285
 30
0.0
 10
-1.8769100000000001
 20
0.17977
 30
0.0
 10
-1.6102100000000001
 20
-0.32822
 30
0.0
 10
-1.5289300000000001
 20
-0.22154
 30
0.0
 10
-1.5289300000000001
 20
-0.22154
 30
0.0
 10
-1.4755900000000002
 20
-0.27234
 30
0.0
 10
-1.5162300000000002
 20
-0.18344
 30
0.0
 10
-1.5416300000000001
 20
-0.16566
 30
0.0
 10
-1.5416300000000001
 20
-0.16566
 30
0.0
 10
-1.5822700000000001
 20
-0.08692
 30
0.0
 10
-1.6762500000000002
 20
-0.0285
 30
0.0
 10
-1.6508500000000002
 20
0.07055
 30
0.0
 10
-1.6508500000000002
 20
0.07055
 30
0.0
 10
-1.5695700000000001
 20
0.3372500000000001
 30
0.0
 10
-1.9708900000000003
 20
0.8046100000000001
 30
0.0
 10
-1.7702300000000002
 20
1.2668900000000001
 30
0.0
 10
-1.7702300000000002
 20
1.2668900000000001
 30
0.0
 10
-1.4324100000000002
 20
0.9874900000000001
 30
0.0
 10
-1.6330700000000002
 20
0.39567
 30
0.0
 10
-1.46289
 20
0.00197
 30
0.0
 10
-1.46289
 20
0.00197
 30
0.0
 10
-1.4095500000000001
 20
-0.1174
 30
0.0
 10
-1.4324100000000002
 20
-0.1047
 30
0.0
 10
-1.4146300000000001
 20
-0.01326
 30
0.0
  0
SPLINE
  5
49
100
AcDbEntity
  8
Ebene 1
 62
     7
100
AcDbSpline
210
0.0
220
0.0
230
1.0
 70
     1
 71
     3
 72
    16
 73
    12
 74
     0
 42
0.0000000001
 43
0.0000000001
 40
0.0
 40
0.0
 40
0.0
 40
0.0
 40
0.3333333333333333
 40
0.3333333333333333
 40
0.3333333333333333
 40
0.3333333333333333
 40
0.6666666666666666
 40
0.6666666666666666
 40
0.6666666666666666
 40
0.6666666666666666
 40
1.0
 40
1.0
 40
1.0
 40
1.0
 10
0.277
 20
2.29813
 30
0.0
 10
0.277
 20
2.29813
 30
0.0
 10
0.55894
 20
2.1228700000000003
 30
0.0
 10
0.55894
 20
2.1228700000000003
 30
0.0
 10
0.55894
 20
2.1228700000000003
 30
0.0
 10
0.49036
 20
2.0695300000000003
 30
0.0
 10
0.39638
 20
2.0517500000000002
 30
0.0
 10
0.31764
 20
2.0466700000000002
 30
0.0
 10
0.31764
 20
2.0466700000000002
 30
0.0
 10
0.24906
 20
2.1101700000000001
 30
0.0
 10
0.277
 20
2.21177
 30
0.0
 10
0.277
 20
2.29813
 30
0.0
  0
SPLINE
  5
4A
100
AcDbEntity
  8
Ebene 1
 62
     7
100
AcDbSpline
210
0.0
220
0.0
230
1.0
 70
     1
 71
     3
 72
    12
 73
     8
 74
     0
 42
0.0000000001
 43
0.0000000001
 40
0.0
 40
0.0
 40
0.0
 40
0.0
 40
0.5
 40
0.5
 40
0.5
 40
0.5
 40
1.0
 40
1.0
 40
1.0
 40
1.0
 10
-3.3805900000000002
 20
2.0568300000000002
 30
0.0
 10
-3.4923500000000001
 20
2.0974700000000004
 30
0.0
 10
-3.5329900000000003
 20
2.1838300000000004
 30
0.0
 10
-3.6422100000000004
 20
2.2295500000000001
 30
0.0
 10
-3.6422100000000004
 20
2.2295500000000001
 30
0.0
 10
-3.4999700000000002
 20
2.2625700000000002
 30
0.0
 10
-3.4059900000000001
 20
2.1889100000000004
 30
0.0
 10
-3.3805900000000002
 20
2.0568300000000002
 30
0.0
  0
SPLINE
  5
4B
100
AcDbEntity
  8
Ebene 1
 62
     7
100
AcDbSpline
210
0.0
220
0.0
230
1.0
 70
     1
 71
     3
 72
    24
 73
    20
 74
     0
 42
0.0000000001
 43
0.0000000001
 40
0.0
 40
0.0
 40
0.0
 40
0.0
 40
0.2
 40
0.2
 40
0.2
 40
0.2
 40
0.4
 40
0.4
 40
0.4
 40
0.4
 40
0.6000000000000001
 40
0.6000000000000001
 40
0.6000000000000001
 40
0.6000000000000001
 40
0.8
 40
0.8
 40
0.8
 40
0.8
 40
1.0
 40
1.0
 40
1.0
 40
1.0
 10
3.8533200000000005
 20
2.2295500000000001
 30
0.0
 10
3.9219000000000004
 20
2.2092300000000002
 30
0.0
 10
3.9625400000000002
 20
2.1533500000000001
 30
0.0
 10
4.0285800000000007
 20
2.2016100000000001
 30
0.0
 10
4.0285800000000007
 20
2.2016100000000001
 30
0.0
 10
4.0692200000000005
 20
2.2397100000000001
 30
0.0
 10
4.12256
 20
2.2320900000000004
 30
0.0
 10
4.1759000000000004
 20
2.2295500000000001
 30
0.0
 10
4.1759000000000004
 20
2.2295500000000001
 30
0.0
 10
4.1098600000000003
 20
2.0314300000000003
 30
0.0
 10
3.8812600000000002
 20
2.00095
 30
0.0
 10
3.7085400000000002
 20
1.9526900000000003
 30
0.0
 10
3.7085400000000002
 20
1.9526900000000003
 30
0.0
 10
3.7085400000000002
 20
1.9526900000000003
 30
0.0
 10
3.7466400000000002
 20
2.0847700000000002
 30
0.0
 10
3.7466400000000002
 20
2.0847700000000002
 30
0.0
 10
3.7466400000000002
 20
2.0847700000000002
 30
0.0
 10
3.7745800000000003
 20
2.1406500000000004
 30
0.0
 10
3.7872800000000004
 20
2.2244700000000002
 30
0.0
 10
3.8533200000000005
 20
2.2295500000000001
 30
0.0
  0
SPLINE
  5
4C
100
AcDbEntity
  8
Ebene 1
 62
     7
100
AcDbSpline
210
0.0
220
0.0
230
1.0
 70
     1
 71
     3
 72
    20
 73
    16
 74
     0
 42
0.0000000001
 43
0.0000000001
 40
0.0
 40
0.0
 40
0.0
 40
0.0
 40
0.25
 40
0.25
 40
0.25
 40
0.25
 40
0.5
 40
0.5
 40
0.5
 40
0.5
 40
0.75
 40
0.75
 40
0.75
 40
0.75
 40
1.0
 40
1.0
 40
1.0
 40
1.0
 10
3.1980000000000004
 20
2.21685
 30
0.0
 10
3.3199200000000002
 20
2.1812900000000002
 30
0.0
 10
3.1573600000000002
 20
2.0669900000000001
 30
0.0
 10
3.2107000000000001
 20
2.00095
 30
0.0
 10
3.2107000000000001
 20
2.00095
 30
0.0
 10
3.2107000000000001
 20
2.00095
 30
0.0
 10
3.1980000000000004
 20
1.9806300000000001
 30
0.0
 10
3.1980000000000004
 20
1.9806300000000001
 30
0.0
 10
3.1980000000000004
 20
1.9806300000000001
 30
0.0
 10
3.1573600000000002
 20
1.9755500000000001
 30
0.0
 10
3.1040200000000002
 20
1.9984100000000002
 30
0.0
 10
3.0913200000000001
 20
2.0288900000000001
 30
0.0
 10
3.0913200000000001
 20
2.0288900000000001
 30
0.0
 10
3.1319600000000003
 20
2.08731
 30
0.0
 10
3.1700600000000003
 20
2.1508100000000003
 30
0.0
 10
3.1980000000000004
 20
2.21685
 30
0.0
  0
SPLINE
  5
4D
100
AcDbEntity
  8
Ebene 1
 62
     7
100
AcDbSpline
210
0.0
220
0.0
230
1.0
 70
     1
 71
     3
 72
    12
 73
     8
 74
     0
 42
0.0000000001
 43
0.0000000001
 40
0.0
 40
0.0
 40
0.0
 40
0.0
 40
0.5
 40
0.5
 40
0.5
 40
0.5
 40
1.0
 40
1.0
 40
1.0
 40
1.0
 10
-0.36307
 20
2.1914500000000001
 30
0.0
 10
-0.33767
 20
2.1965300000000001
 30
0.0
 10
-0.30973
 20
2.16351
 30
0.0
 10
-0.3224300000000001
 20
2.1406500000000004
 30
0.0
 10
-0.3224300000000001
 20
2.1406500000000004
 30
0.0
 10
-0.36307
 20
2.12541
 30
0.0
 10
-0.4164100000000001
 20
2.1711300000000002
 30
0.0
 10
-0.36307
 20
2.1914500000000001
 30
0.0
  0
SPLINE
  5
4E
100
AcDbEntity
  8
Ebene 1
 62
     7
100
AcDbSpline
210
0.0
220
0.0
230
1.0
 70
     1
 71
     3
 72
    16
 73
    12
 74
     0
 42
0.0000000001
 43
0.0000000001
 40
0.0
 40
0.0
 40
0.0
 40
0.0
 40
0.3333333333333333
 40
0.3333333333333333
 40
0.3333333333333333
 40
0.3333333333333333
 40
0.6666666666666666
 40
0.6666666666666666
 40
0.6666666666666666
 40
0.6666666666666666
 40
1.0
 40
1.0
 40
1.0
 40
1.0
 10
3.6526600000000005
 20
2.13557
 30
0.0
 10
3.7339400000000005
 20
2.1101700000000001
 30
0.0
 10
3.6399600000000003
 20
1.9907900000000001
 30
0.0
 10
3.6399600000000003
 20
1.9272900000000002
 30
0.0
 10
3.6399600000000003
 20
1.9272900000000002
 30
0.0
 10
3.5612200000000005
 20
1.9120500000000002
 30
0.0
 10
3.4799400000000005
 20
1.9349100000000001
 30
0.0
 10
3.3986600000000005
 20
1.9526900000000003
 30
0.0
 10
3.3986600000000005
 20
1.9526900000000003
 30
0.0
 10
3.3986600000000005
 20
1.9526900000000003
 30
0.0
 10
3.6526600000000005
 20
2.13557
 30
0.0
 10
3.6526600000000005
 20
2.13557
 30
0.0
  0
SPLINE
  5
4F
100
AcDbEntity
  8
Ebene 1
 62
     7
100
AcDbSpline
210
0.0
220
0.0
230
1.0
 70
     1
 71
     3
 72
    28
 73
    24
 74
     0
 42
0.0000000001
 43
0.0000000001
 40
0.0
 40
0.0
 40
0.0
 40
0.0
 40
0.1666666666666667
 40
0.1666666666666667
 40
0.1666666666666667
 40
0.1666666666666667
 40
0.3333333333333333
 40
0.3333333333333333
 40
0.3333333333333333
 40
0.3333333333333333
 40
0.5
 40
0.5
 40
0.5
 40
0.5
 40
0.6666666666666666
 40
0.6666666666666666
 40
0.6666666666666666
 40
0.6666666666666666
 40
0.8333333333333333
 40
0.8333333333333333
 40
0.8333333333333333
 40
0.8333333333333333
 40
1.0
 40
1.0
 40
1.0
 40
1.0
 10
-3.3653500000000003
 20
2.0034900000000002
 30
0.0
 10
-3.2281900000000001
 20
1.8104500000000001
 30
0.0
 10
-3.1646900000000002
 20
1.5640700000000001
 30
0.0
 10
-3.2307300000000003
 20
1.32023
 30
0.0
 10
-3.2307300000000003
 20
1.32023
 30
0.0
 10
-3.1519900000000001
 20
1.1754500000000001
 30
0.0
 10
-3.2205700000000004
 20
0.97733
 30
0.0
 10
-3.3069300000000004
 20
0.8554100000000001
 30
0.0
 10
-3.3069300000000004
 20
0.8554100000000001
 30
0.0
 10
-3.2510500000000002
 20
1.1373500000000001
 30
0.0
 10
-3.2510500000000002
 20
1.44215
 30
0.0
 10
-3.3120100000000003
 20
1.7342500000000001
 30
0.0
 10
-3.3120100000000003
 20
1.7342500000000001
 30
0.0
 10
-3.3120100000000003
 20
1.7342500000000001
 30
0.0
 10
-3.2840700000000003
 20
1.7748900000000001
 30
0.0
 10
-3.2840700000000003
 20
1.7748900000000001
 30
0.0
 10
-3.2840700000000003
 20
1.7748900000000001
 30
0.0
 10
-3.2840700000000003
 20
1.7748900000000001
 30
0.0
 10
-3.3780500000000004
 20
1.9349100000000001
 30
0.0
 10
-3.3780500000000004
 20
1.9349100000000001
 30
0.0
 10
-3.3780500000000004
 20
1.9349100000000001
 30
0.0
 10
-3.3780500000000004
 20
1.9349100000000001
 30
0.0
 10
-3.3653500000000003
 20
2.0034900000000002
 30
0.0
 10
-3.3653500000000003
 20
2.0034900000000002
 30
0.0
  0
SPLINE
  5
50
100
AcDbEntity
  8
Ebene 1
 62
     7
100
AcDbSpline
210
0.0
220
0.0
230
1.0
 70
     1
 71
     3
 72
    16
 73
    12
 74
     0
 42
0.0000000001
 43
0.0000000001
 40
0.0
 40
0.0
 40
0.0
 40
0.0
 40
0.3333333333333333
 40
0.3333333333333333
 40
0.3333333333333333
 40
0.3333333333333333
 40
0.6666666666666666
 40
0.6666666666666666
 40
0.6666666666666666
 40
0.6666666666666666
 40
1.0
 40
1.0
 40
1.0
 40
1.0
 10
-1.9835900000000002
 20
1.7875900000000002
 30
0.0
 10
-1.8515100000000002
 20
1.6199500000000002
 30
0.0
 10
-1.8235700000000001
 20
1.3049900000000001
 30
0.0
 10
-1.9708900000000003
 20
1.15005
 30
0.0
 10
-1.9708900000000003
 20
1.15005
 30
0.0
 10
-1.9327900000000002
 20
1.2567300000000001
 30
0.0
 10
-1.9988300000000001
 20
1.4091300000000002
 30
0.0
 10
-1.9048500000000002
 20
1.5056500000000002
 30
0.0
 10
-1.9048500000000002
 20
1.5056500000000002
 30
0.0
 10
-1.9048500000000002
 20
1.5056500000000002
 30
0.0
 10
-1.9835900000000002
 20
1.7875900000000002
 30
0.0
 10
-1.9835900000000002
 20
1.7875900000000002
 30
0.0
  0
SPLINE
  5
51
100
AcDbEntity
  8
Ebene 1
100
AcDbSpline
210
0.0
220
0.0
230
1.0
 70
     1
 71
     3
 72
    44
 73
    40
 74
     0
 42
0.0000000001
 43
0.0000000001
 40
0.0
 40
0.0
 40
0.0
 40
0.0
 40
0.1
 40
0.1
 40
0.1
 40
0.1
 40
0.2
 40
0.2
 40
0.2
 40
0.2
 40
0.3
 40
0.3
 40
0.3
 40
0.3
 40
0.4
 40
0.4
 40
0.4
 40
0.4
 40
0.5
 40
0.5
 40
0.5
 40
0.5
 40
0.6
 40
0.6
 40
0.6
 40
0.6
 40
0.7
 40
0.7
 40
0.7
 40
0.7
 40
0.7999999999999999
 40
0.7999999999999999
 40
0.7999999999999999
 40
0.7999999999999999
 40
0.8999999999999999
 40
0.8999999999999999
 40
0.8999999999999999
 40
0.8999999999999999
 40
1.0
 40
1.0
 40
1.0
 40
1.0
 10
-2.8294100000000002
 20
1.5615300000000001
 30
0.0
 10
-2.8294100000000002
 20
1.5615300000000001
 30
0.0
 10
-2.6312900000000004
 20
1.5437500000000002
 30
0.0
 10
-2.6312900000000004
 20
1.5437500000000002
 30
0.0
 10
-2.6312900000000004
 20
1.5437500000000002
 30
0.0
 10
-2.3595100000000002
 20
1.19323
 30
0.0
 10
-2.1867900000000002
 20
0.7284100000000001
 30
0.0
 10
-2.1182100000000004
 20
0.30677
 30
0.0
 10
-2.1182100000000004
 20
0.30677
 30
0.0
 10
-2.2248900000000003
 20
0.29153
 30
0.0
 10
-2.3010900000000003
 20
0.37281
 30
0.0
 10
-2.3874500000000003
 20
0.40837
 30
0.0
 10
-2.3874500000000003
 20
0.40837
 30
0.0
 10
-2.4331700000000001
 20
0.13659
 30
0.0
 10
-2.6414500000000003
 20
0.49981
 30
0.0
 10
-2.6897100000000003
 20
0.6064900000000001
 30
0.0
 10
-2.6897100000000003
 20
0.6064900000000001
 30
0.0
 10
-2.7887700000000004
 20
0.5074300000000001
 30
0.0
 10
-2.6871700000000001
 20
0.36265
 30
0.0
 10
-2.7252700000000001
 20
0.25089
 30
0.0
 10
-2.7252700000000001
 20
0.25089
 30
0.0
 10
-2.8675100000000002
 20
0.27629
 30
0.0
 10
-2.8751300000000004
 20
-0.0539
 30
0.0
 10
-2.9716500000000003
 20
-0.13518
 30
0.0
 10
-2.9716500000000003
 20
-0.13518
 30
0.0
 10
-2.9665700000000004
 20
0.10611
 30
0.0
 10
-2.7455900000000004
 20
0.28645
 30
0.0
 10
-2.7760700000000003
 20
0.53029
 30
0.0
 10
-2.7760700000000003
 20
0.53029
 30
0.0
 10
-2.73543
 20
0.70047
 30
0.0
 10
-2.8141700000000003
 20
0.5836300000000001
 30
0.0
 10
-2.8700500000000004
 20
0.5023500000000001
 30
0.0
 10
-2.8700500000000004
 20
0.5023500000000001
 30
0.0
 10
-3.0173700000000001
 20
0.34487
 30
0.0
 10
-3.0707100000000001
 20
0.06547
 30
0.0
 10
-3.2942300000000002
 20
0.05023
 30
0.0
 10
-3.2942300000000002
 20
0.05023
 30
0.0
 10
-3.2535900000000004
 20
0.5480700000000001
 30
0.0
 10
-2.9284700000000004
 20
1.0459100000000001
 30
0.0
 10
-2.8294100000000002
 20
1.5615300000000001
 30
0.0
  0
SPLINE
  5
52
100
AcDbEntity
  8
Ebene 1
 62
     7
100
AcDbSpline
210
0.0
220
0.0
230
1.0
 70
     1
 71
     3
 72
    16
 73
    12
 74
     0
 42
0.0000000001
 43
0.0000000001
 40
0.0
 40
0.0
 40
0.0
 40
0.0
 40
0.3333333333333333
 40
0.3333333333333333
 40
0.3333333333333333
 40
0.3333333333333333
 40
0.6666666666666666
 40
0.6666666666666666
 40
0.6666666666666666
 40
0.6666666666666666
 40
1.0
 40
1.0
 40
1.0
 40
1.0
 10
-2.7760700000000003
 20
1.5208900000000001
 30
0.0
 10
-2.7049500000000002
 20
1.5234300000000001
 30
0.0
 10
-2.6033500000000003
 20
1.5056500000000002
 30
0.0
 10
-2.5779500000000004
 20
1.4294500000000001
 30
0.0
 10
-2.5779500000000004
 20
1.4294500000000001
 30
0.0
 10
-2.6592300000000004
 20
1.3786500000000002
 30
0.0
 10
-2.7176500000000003
 20
1.4929500000000002
 30
0.0
 10
-2.7989300000000004
 20
1.4573900000000002
 30
0.0
 10
-2.7989300000000004
 20
1.4573900000000002
 30
0.0
 10
-2.7989300000000004
 20
1.4573900000000002
 30
0.0
 10
-2.7760700000000003
 20
1.5208900000000001
 30
0.0
 10
-2.7760700000000003
 20
1.5208900000000001
 30
0.0
  0
SPLINE
  5
53
100
AcDbEntity
  8
Ebene 1
 62
     7
100
AcDbSpline
210
0.0
220
0.0
230
1.0
 70
     1
 71
     3
 72
    28
 73
    24
 74
     0
 42
0.0000000001
 43
0.0000000001
 40
0.0
 40
0.0
 40
0.0
 40
0.0
 40
0.1666666666666667
 40
0.1666666666666667
 40
0.1666666666666667
 40
0.1666666666666667
 40
0.3333333333333333
 40
0.3333333333333333
 40
0.3333333333333333
 40
0.3333333333333333
 40
0.5
 40
0.5
 40
0.5
 40
0.5
 40
0.6666666666666666
 40
0.6666666666666666
 40
0.6666666666666666
 40
0.6666666666666666
 40
0.8333333333333333
 40
0.8333333333333333
 40
0.8333333333333333
 40
0.8333333333333333
 40
1.0
 40
1.0
 40
1.0
 40
1.0
 10
1.9254600000000002
 20
1.4548500000000002
 30
0.0
 10
1.9254600000000002
 20
1.4548500000000002
 30
0.0
 10
2.0067400000000002
 20
1.39897
 30
0.0
 10
2.0067400000000002
 20
1.39897
 30
0.0
 10
2.0067400000000002
 20
1.39897
 30
0.0
 10
2.0194400000000003
 20
1.4243700000000001
 30
0.0
 10
2.0448400000000002
 20
1.4548500000000002
 30
0.0
 10
2.08548
 20
1.4396100000000001
 30
0.0
 10
2.08548
 20
1.4396100000000001
 30
0.0
 10
2.1134200000000001
 20
1.4650100000000001
 30
0.0
 10
2.1794600000000002
 20
1.4573900000000002
 30
0.0
 10
2.16676
 20
1.4142100000000002
 30
0.0
 10
2.16676
 20
1.4142100000000002
 30
0.0
 10
2.16676
 20
1.4142100000000002
 30
0.0
 10
2.1921600000000003
 20
1.3507100000000001
 30
0.0
 10
2.1921600000000003
 20
1.3507100000000001
 30
0.0
 10
2.1921600000000003
 20
1.3507100000000001
 30
0.0
 10
2.0727800000000003
 20
1.3532500000000001
 30
0.0
 10
1.9381600000000001
 20
1.2948300000000001
 30
0.0
 10
1.8441800000000002
 20
1.3735700000000002
 30
0.0
 10
1.8441800000000002
 20
1.3735700000000002
 30
0.0
 10
1.8441800000000002
 20
1.3735700000000002
 30
0.0
 10
1.9254600000000002
 20
1.4548500000000002
 30
0.0
 10
1.9254600000000002
 20
1.4548500000000002
 30
0.0
  0
SPLINE
  5
54
100
AcDbEntity
  8
Ebene 1
 62
     7
100
AcDbSpline
210
0.0
220
0.0
230
1.0
 70
     1
 71
     3
 72
    32
 73
    28
 74
     0
 42
0.0000000001
 43
0.0000000001
 40
0.0
 40
0.0
 40
0.0
 40
0.0
 40
0.1428571428571429
 40
0.1428571428571429
 40
0.1428571428571429
 40
0.1428571428571429
 40
0.2857142857142857
 40
0.2857142857142857
 40
0.2857142857142857
 40
0.2857142857142857
 40
0.4285714285714286
 40
0.4285714285714286
 40
0.4285714285714286
 40
0.4285714285714286
 40
0.5714285714285714
 40
0.5714285714285714
 40
0.5714285714285714
 40
0.5714285714285714
 40
0.7142857142857142
 40
0.7142857142857142
 40
0.7142857142857142
 40
0.7142857142857142
 40
0.857142857142857
 40
0.857142857142857
 40
0.857142857142857
 40
0.857142857142857
 40
1.0
 40
1.0
 40
1.0
 40
1.0
 10
-1.4882900000000001
 20
1.2262500000000001
 30
0.0
 10
-1.2876300000000001
 20
1.0890900000000001
 30
0.0
 10
-1.2342900000000001
 20
0.7995300000000001
 30
0.0
 10
-1.12761
 20
0.5861700000000001
 30
0.0
 10
-1.12761
 20
0.5861700000000001
 30
0.0
 10
-1.12761
 20
0.5861700000000001
 30
0.0
 10
-1.1809500000000002
 20
0.8198500000000001
 30
0.0
 10
-1.1809500000000002
 20
0.8198500000000001
 30
0.0
 10
-1.1809500000000002
 20
0.8198500000000001
 30
0.0
 10
-1.1809500000000002
 20
0.8198500000000001
 30
0.0
 10
-1.03363
 20
0.55569
 30
0.0
 10
-1.03363
 20
0.55569
 30
0.0
 10
-1.03363
 20
0.55569
 30
0.0
 10
-1.2215900000000002
 20
0.46933
 30
0.0
 10
-0.9396500000000001
 20
0.16961
 30
0.0
 10
-1.04633
 20
-0.0031
 30
0.0
 10
-1.04633
 20
-0.0031
 30
0.0
 10
-1.12761
 20
0.10611
 30
0.0
 10
-1.3028700000000002
 20
0.22803
 30
0.0
 10
-1.24699
 20
0.36519
 30
0.0
 10
-1.24699
 20
0.36519
 30
0.0
 10
-1.4349500000000002
 20
0.58109
 30
0.0
 10
-1.3689100000000001
 20
0.91383
 30
0.0
 10
-1.50353
 20
1.1322700000000001
 30
0.0
 10
-1.50353
 20
1.1322700000000001
 30
0.0
 10
-1.50353
 20
1.1652900000000002
 30
0.0
 10
-1.5162300000000002
 20
1.1983100000000002
 30
0.0
 10
-1.4882900000000001
 20
1.2262500000000001
 30
0.0
  0
SPLINE
  5
55
100
AcDbEntity
  8
Ebene 1
 62
     7
100
AcDbSpline
210
0.0
220
0.0
230
1.0
 70
     1
 71
     3
 72
    16
 73
    12
 74
     0
 42
0.0000000001
 43
0.0000000001
 40
0.0
 40
0.0
 40
0.0
 40
0.0
 40
0.3333333333333333
 40
0.3333333333333333
 40
0.3333333333333333
 40
0.3333333333333333
 40
0.6666666666666666
 40
0.6666666666666666
 40
0.6666666666666666
 40
0.6666666666666666
 40
1.0
 40
1.0
 40
1.0
 40
1.0
 10
2.75604
 20
1.2135500000000001
 30
0.0
 10
2.8906600000000005
 20
1.18815
 30
0.0
 10
2.9694000000000003
 20
1.06623
 30
0.0
 10
3.0506800000000003
 20
0.95701
 30
0.0
 10
3.0506800000000003
 20
0.95701
 30
0.0
 10
3.0506800000000003
 20
0.93415
 30
0.0
 10
3.0379800000000001
 20
0.9239900000000001
 30
0.0
 10
3.0227400000000002
 20
0.9087500000000001
 30
0.0
 10
3.0227400000000002
 20
0.9087500000000001
 30
0.0
 10
2.8500200000000002
 20
0.9290700000000001
 30
0.0
 10
2.8500200000000002
 20
1.1170300000000002
 30
0.0
 10
2.75604
 20
1.2135500000000001
 30
0.0
  0
SPLINE
  5
56
100
AcDbEntity
  8
Ebene 1
 62
     7
100
AcDbSpline
210
0.0
220
0.0
230
1.0
 70
     1
 71
     3
 72
    20
 73
    16
 74
     0
 42
0.0000000001
 43
0.0000000001
 40
0.0
 40
0.0
 40
0.0
 40
0.0
 40
0.25
 40
0.25
 40
0.25
 40
0.25
 40
0.5
 40
0.5
 40
0.5
 40
0.5
 40
0.75
 40
0.75
 40
0.75
 40
0.75
 40
1.0
 40
1.0
 40
1.0
 40
1.0
 10
1.7781400000000001
 20
1.1576700000000002
 30
0.0
 10
1.8721200000000002
 20
1.1703700000000001
 30
0.0
 10
1.9508600000000003
 20
1.1373500000000001
 30
0.0
 10
2.0194400000000003
 20
1.06877
 30
0.0
 10
2.0194400000000003
 20
1.06877
 30
0.0
 10
2.1261200000000002
 20
1.0916300000000001
 30
0.0
 10
2.1921600000000003
 20
0.9951100000000001
 30
0.0
 10
2.24804
 20
0.9214500000000001
 30
0.0
 10
2.24804
 20
0.9214500000000001
 30
0.0
 10
2.1388200000000004
 20
0.8858900000000001
 30
0.0
 10
2.0321400000000001
 20
0.8757300000000001
 30
0.0
 10
1.9254600000000002
 20
0.8554100000000001
 30
0.0
 10
1.9254600000000002
 20
0.8554100000000001
 30
0.0
 10
1.8594200000000001
 20
0.9519300000000001
 30
0.0
 10
1.7908400000000002
 20
1.0433700000000001
 30
0.0
 10
1.7781400000000001
 20
1.1576700000000002
 30
0.0
  0
SPLINE
  5
57
100
AcDbEntity
  8
Ebene 1
 62
     7
100
AcDbSpline
210
0.0
220
0.0
230
1.0
 70
     1
 71
     3
 72
    24
 73
    20
 74
     0
 42
0.0000000001
 43
0.0000000001
 40
0.0
 40
0.0
 40
0.0
 40
0.0
 40
0.2
 40
0.2
 40
0.2
 40
0.2
 40
0.4
 40
0.4
 40
0.4
 40
0.4
 40
0.6000000000000001
 40
0.6000000000000001
 40
0.6000000000000001
 40
0.6000000000000001
 40
0.8
 40
0.8
 40
0.8
 40
0.8
 40
1.0
 40
1.0
 40
1.0
 40
1.0
 10
1.3768200000000002
 20
1.1195700000000002
 30
0.0
 10
1.5368400000000002
 20
1.0535300000000001
 30
0.0
 10
1.6435200000000001
 20
0.8681100000000001
 30
0.0
 10
1.8187800000000001
 20
0.80969
 30
0.0
 10
1.8187800000000001
 20
0.80969
 30
0.0
 10
1.7375
 20
0.7309500000000001
 30
0.0
 10
1.5774800000000002
 20
0.6445900000000001
 30
0.0
 10
1.5368400000000002
 20
0.51505
 30
0.0
 10
1.5368400000000002
 20
0.51505
 30
0.0
 10
1.5089000000000001
 20
0.55315
 30
0.0
 10
1.4682600000000001
 20
0.5836300000000001
 30
0.0
 10
1.4301600000000001
 20
0.59887
 30
0.0
 10
1.4301600000000001
 20
0.59887
 30
0.0
 10
1.40222
 20
0.7741300000000001
 30
0.0
 10
1.2549000000000001
 20
0.9214500000000001
 30
0.0
 10
1.2015600000000002
 20
1.0890900000000001
 30
0.0
 10
1.2015600000000002
 20
1.0890900000000001
 30
0.0
 10
1.2015600000000002
 20
1.0890900000000001
 30
0.0
 10
1.3768200000000002
 20
1.1195700000000002
 30
0.0
 10
1.3768200000000002
 20
1.1195700000000002
 30
0.0
  0
SPLINE
  5
58
100
AcDbEntity
  8
Ebene 1
 62
     7
100
AcDbSpline
210
0.0
220
0.0
230
1.0
 70
     1
 71
     3
 72
    20
 73
    16
 74
     0
 42
0.0000000001
 43
0.0000000001
 40
0.0
 40
0.0
 40
0.0
 40
0.0
 40
0.25
 40
0.25
 40
0.25
 40
0.25
 40
0.5
 40
0.5
 40
0.5
 40
0.5
 40
0.75
 40
0.75
 40
0.75
 40
0.75
 40
1.0
 40
1.0
 40
1.0
 40
1.0
 10
2.2328000000000001
 20
1.1195700000000002
 30
0.0
 10
2.4334600000000002
 20
1.1348100000000001
 30
0.0
 10
2.67476
 20
1.0763900000000002
 30
0.0
 10
2.7814400000000004
 20
0.9087500000000001
 30
0.0
 10
2.7814400000000004
 20
0.9087500000000001
 30
0.0
 10
2.6620600000000003
 20
0.9265300000000001
 30
0.0
 10
2.5147400000000002
 20
0.9163700000000001
 30
0.0
 10
2.4334600000000002
 20
1.0128900000000001
 30
0.0
 10
2.4334600000000002
 20
1.0128900000000001
 30
0.0
 10
2.4334600000000002
 20
1.0128900000000001
 30
0.0
 10
2.3801200000000002
 20
1.0078100000000001
 30
0.0
 10
2.3801200000000002
 20
1.0078100000000001
 30
0.0
 10
2.3801200000000002
 20
1.0078100000000001
 30
0.0
 10
2.3547200000000004
 20
0.87319
 30
0.0
 10
2.2734400000000003
 20
1.06623
 30
0.0
 10
2.2328000000000001
 20
1.1195700000000002
 30
0.0
  0
SPLINE
  5
59
100
AcDbEntity
  8
Ebene 1
 62
     7
100
AcDbSpline
210
0.0
220
0.0
230
1.0
 70
     1
 71
     3
 72
    64
 73
    60
 74
     0
 42
0.0000000001
 43
0.0000000001
 40
0.0
 40
0.0
 40
0.0
 40
0.0
 40
0.0666666666666667
 40
0.0666666666666667
 40
0.0666666666666667
 40
0.0666666666666667
 40
0.1333333333333333
 40
0.1333333333333333
 40
0.1333333333333333
 40
0.1333333333333333
 40
0.2
 40
0.2
 40
0.2
 40
0.2
 40
0.2666666666666667
 40
0.2666666666666667
 40
0.2666666666666667
 40
0.2666666666666667
 40
0.3333333333333333
 40
0.3333333333333333
 40
0.3333333333333333
 40
0.3333333333333333
 40
0.4
 40
0.4
 40
0.4
 40
0.4
 40
0.4666666666666666
 40
0.4666666666666666
 40
0.4666666666666666
 40
0.4666666666666666
 40
0.5333333333333333
 40
0.5333333333333333
 40
0.5333333333333333
 40
0.5333333333333333
 40
0.6
 40
0.6
 40
0.6
 40
0.6
 40
0.6666666666666666
 40
0.6666666666666666
 40
0.6666666666666666
 40
0.6666666666666666
 40
0.7333333333333333
 40
0.7333333333333333
 40
0.7333333333333333
 40
0.7333333333333333
 40
0.7999999999999999
 40
0.7999999999999999
 40
0.7999999999999999
 40
0.7999999999999999
 40
0.8666666666666666
 40
0.8666666666666666
 40
0.8666666666666666
 40
0.8666666666666666
 40
0.9333333333333332
 40
0.9333333333333332
 40
0.9333333333333332
 40
0.9333333333333332
 40
1.0
 40
1.0
 40
1.0
 40
1.0
 10
1.06694
 20
1.0789300000000002
 30
0.0
 10
1.2955400000000001
 20
0.91383
 30
0.0
 10
1.2955400000000001
 20
0.5836300000000001
 30
0.0
 10
1.4962000000000002
 20
0.40583
 30
0.0
 10
1.4962000000000002
 20
0.40583
 30
0.0
 10
1.4962000000000002
 20
0.40583
 30
0.0
 10
1.3895200000000001
 20
0.11881
 30
0.0
 10
1.3895200000000001
 20
0.11881
 30
0.0
 10
1.3895200000000001
 20
0.11881
 30
0.0
 10
1.3361800000000001
 20
0.09341
 30
0.0
 10
1.36158
 20
0.16961
 30
0.0
 10
1.32094
 20
0.17977
 30
0.0
 10
1.32094
 20
0.17977
 30
0.0
 10
1.10758
 20
0.07817
 30
0.0
 10
0.8662800000000001
 20
-0.07168
 30
0.0
 10
0.6122800000000001
 20
-0.0412
 30
0.0
 10
0.6122800000000001
 20
-0.0412
 30
0.0
 10
0.49036
 20
0.24581
 30
0.0
 10
0.277
 20
0.5683900000000001
 30
0.0
 10
0.47766
 20
0.8757300000000001
 30
0.0
 10
0.47766
 20
0.8757300000000001
 30
0.0
 10
0.47766
 20
0.8757300000000001
 30
0.0
 10
0.57164
 20
0.68015
 30
0.0
 10
0.57164
 20
0.68015
 30
0.0
 10
0.57164
 20
0.68015
 30
0.0
 10
0.57164
 20
0.47949
 30
0.0
 10
0.8535800000000001
 20
0.32201
 30
0.0
 10
0.7469
 20
0.12643
 30
0.0
 10
0.7469
 20
0.12643
 30
0.0
 10
0.5462400000000001
 20
0.02483
 30
0.0
 10
0.9196200000000001
 20
0.01721
 30
0.0
 10
0.9475600000000001
 20
0.13913
 30
0.0
 10
0.9475600000000001
 20
0.13913
 30
0.0
 10
1.0009000000000001
 20
0.30169
 30
0.0
 10
0.78754
 20
0.39313
 30
0.0
 10
0.7723000000000001
 20
0.5429900000000001
 30
0.0
 10
0.7723000000000001
 20
0.5429900000000001
 30
0.0
 10
0.7062600000000001
 20
0.65983
 30
0.0
 10
0.7062600000000001
 20
0.76397
 30
0.0
 10
0.7596000000000001
 20
0.8884300000000001
 30
0.0
 10
0.7596000000000001
 20
0.8884300000000001
 30
0.0
 10
0.9196200000000001
 20
0.8350900000000001
 30
0.0
 10
1.0009000000000001
 20
0.6318900000000001
 30
0.0
 10
1.0948800000000001
 20
0.5023500000000001
 30
0.0
 10
1.0948800000000001
 20
0.5023500000000001
 30
0.0
 10
1.0948800000000001
 20
0.48203
 30
0.0
 10
1.0948800000000001
 20
0.44647
 30
0.0
 10
1.06694
 20
0.47949
 30
0.0
 10
1.06694
 20
0.47949
 30
0.0
 10
0.93486
 20
0.59379
 30
0.0
 10
1.0542400000000001
 20
0.25851
 30
0.0
 10
1.10758
 20
0.19755
 30
0.0
 10
1.10758
 20
0.19755
 30
0.0
 10
1.2676000000000001
 20
0.26613
 30
0.0
 10
1.3361800000000001
 20
0.51251
 30
0.0
 10
1.1609200000000002
 20
0.6674500000000001
 30
0.0
 10
1.1609200000000002
 20
0.6674500000000001
 30
0.0
 10
1.0136000000000001
 20
0.8147700000000001
 30
0.0
 10
1.0009000000000001
 20
0.93415
 30
0.0
 10
1.06694
 20
1.0789300000000002
 30
0.0
  0
SPLINE
  5
5A
100
AcDbEntity
  8
Ebene 1
 62
     7
100
AcDbSpline
210
0.0
220
0.0
230
1.0
 70
     1
 71
     3
 72
    24
 73
    20
 74
     0
 42
0.0000000001
 43
0.0000000001
 40
0.0
 40
0.0
 40
0.0
 40
0.0
 40
0.2
 40
0.2
 40
0.2
 40
0.2
 40
0.4
 40
0.4
 40
0.4
 40
0.4
 40
0.6000000000000001
 40
0.6000000000000001
 40
0.6000000000000001
 40
0.6000000000000001
 40
0.8
 40
0.8
 40
0.8
 40
0.8
 40
1.0
 40
1.0
 40
1.0
 40
1.0
 10
-1.9708900000000003
 20
1.0509900000000001
 30
0.0
 10
-1.8642100000000001
 20
0.8198500000000001
 30
0.0
 10
-1.8642100000000001
 20
0.5404500000000001
 30
0.0
 10
-1.8515100000000002
 20
0.26613
 30
0.0
 10
-1.8515100000000002
 20
0.26613
 30
0.0
 10
-1.8921500000000002
 20
0.27121
 30
0.0
 10
-1.9175500000000001
 20
0.24073
 30
0.0
 10
-1.9454900000000002
 20
0.22549
 30
0.0
 10
-1.9454900000000002
 20
0.22549
 30
0.0
 10
-1.9988300000000001
 20
0.29915
 30
0.0
 10
-1.9454900000000002
 20
0.40329
 30
0.0
 10
-1.9835900000000002
 20
0.48711
 30
0.0
 10
-1.9835900000000002
 20
0.48711
 30
0.0
 10
-1.9835900000000002
 20
0.48711
 30
0.0
 10
-1.9327900000000002
 20
0.48965
 30
0.0
 10
-1.9327900000000002
 20
0.48965
 30
0.0
 10
-1.9327900000000002
 20
0.48965
 30
0.0
 10
-1.9708900000000003
 20
0.6674500000000001
 30
0.0
 10
-1.9708900000000003
 20
0.87319
 30
0.0
 10
-1.9708900000000003
 20
1.0509900000000001
 30
0.0
  0
SPLINE
  5
5B
100
AcDbEntity
  8
Ebene 1
 62
     7
100
AcDbSpline
210
0.0
220
0.0
230
1.0
 70
     1
 71
     3
 72
    16
 73
    12
 74
     0
 42
0.0000000001
 43
0.0000000001
 40
0.0
 40
0.0
 40
0.0
 40
0.0
 40
0.3333333333333333
 40
0.3333333333333333
 40
0.3333333333333333
 40
0.3333333333333333
 40
0.6666666666666666
 40
0.6666666666666666
 40
0.6666666666666666
 40
0.6666666666666666
 40
1.0
 40
1.0
 40
1.0
 40
1.0
 10
-1.03363
 20
0.78429
 30
0.0
 10
-0.9802900000000001
 20
0.76905
 30
0.0
 10
-0.95235
 20
0.6928500000000001
 30
0.0
 10
-0.9269500000000001
 20
0.6496700000000001
 30
0.0
 10
-0.9269500000000001
 20
0.6496700000000001
 30
0.0
 10
-0.9269500000000001
 20
0.6496700000000001
 30
0.0
 10
-0.99299
 20
0.5836300000000001
 30
0.0
 10
-0.99299
 20
0.5836300000000001
 30
0.0
 10
-0.99299
 20
0.5836300000000001
 30
0.0
 10
-0.99299
 20
0.5836300000000001
 30
0.0
 10
-1.03363
 20
0.78429
 30
0.0
 10
-1.03363
 20
0.78429
 30
0.0
  0
SPLINE
  5
5C
100
AcDbEntity
  8
Ebene 1
 62
     7
100
AcDbSpline
210
0.0
220
0.0
230
1.0
 70
     1
 71
     3
 72
    24
 73
    20
 74
     0
 42
0.0000000001
 43
0.0000000001
 40
0.0
 40
0.0
 40
0.0
 40
0.0
 40
0.2
 40
0.2
 40
0.2
 40
0.2
 40
0.4
 40
0.4
 40
0.4
 40
0.4
 40
0.6000000000000001
 40
0.6000000000000001
 40
0.6000000000000001
 40
0.6000000000000001
 40
0.8
 40
0.8
 40
0.8
 40
0.8
 40
1.0
 40
1.0
 40
1.0
 40
1.0
 10
1.1355200000000001
 20
-0.03104
 30
0.0
 10
1.2828400000000002
 20
-0.1428
 30
0.0
 10
1.1609200000000002
 20
-0.36124
 30
0.0
 10
1.2295
 20
-0.49586
 30
0.0
 10
1.2295
 20
-0.49586
 30
0.0
 10
1.3768200000000002
 20
-0.43236
 30
0.0
 10
1.32094
 20
-0.23424
 30
0.0
 10
1.3361800000000001
 20
-0.12502
 30
0.0
 10
1.3361800000000001
 20
-0.12502
 30
0.0
 10
1.3488800000000001
 20
-0.17328
 30
0.0
 10
1.3488800000000001
 20
-0.23424
 30
0.0
 10
1.4174600000000002
 20
-0.26218
 30
0.0
 10
1.4174600000000002
 20
-0.26218
 30
0.0
 10
1.5241400000000001
 20
-0.45014
 30
0.0
 10
1.2015600000000002
 20
-0.61778
 30
0.0
 10
1.0415400000000001
 20
-0.5619000000000001
 30
0.0
 10
1.0415400000000001
 20
-0.5619000000000001
 30
0.0
 10
0.9475600000000001
 20
-0.4222
 30
0.0
 10
0.93486
 20
-0.09454
 30
0.0
 10
1.1355200000000001
 20
-0.03104
 30
0.0
  0
SPLINE
  5
5D
100
AcDbEntity
  8
Ebene 1
 62
     7
100
AcDbSpline
210
0.0
220
0.0
230
1.0
 70
     1
 71
     3
 72
    36
 73
    32
 74
     0
 42
0.0000000001
 43
0.0000000001
 40
0.0
 40
0.0
 40
0.0
 40
0.0
 40
0.125
 40
0.125
 40
0.125
 40
0.125
 40
0.25
 40
0.25
 40
0.25
 40
0.25
 40
0.375
 40
0.375
 40
0.375
 40
0.375
 40
0.5
 40
0.5
 40
0.5
 40
0.5
 40
0.625
 40
0.625
 40
0.625
 40
0.625
 40
0.75
 40
0.75
 40
0.75
 40
0.75
 40
0.875
 40
0.875
 40
0.875
 40
0.875
 40
1.0
 40
1.0
 40
1.0
 40
1.0
 10
0.6529200000000001
 20
-0.13772
 30
0.0
 10
0.7723000000000001
 20
-0.21392
 30
0.0
 10
0.8129400000000001
 20
-0.4272800000000001
 30
0.0
 10
0.8662800000000001
 20
-0.55428
 30
0.0
 10
0.8662800000000001
 20
-0.55428
 30
0.0
 10
0.82564
 20
-0.6812800000000001
 30
0.0
 10
0.7062600000000001
 20
-0.8311400000000001
 30
0.0
 10
0.55894
 20
-0.8336800000000001
 30
0.0
 10
0.55894
 20
-0.8336800000000001
 30
0.0
 10
0.42432
 20
-0.71938
 30
0.0
 10
0.39638
 20
-0.39934
 30
0.0
 10
0.57164
 20
-0.3002800000000001
 30
0.0
 10
0.57164
 20
-0.3002800000000001
 30
0.0
 10
0.6122800000000001
 20
-0.31806
 30
0.0
 10
0.6249800000000001
 20
-0.3587
 30
0.0
 10
0.63768
 20
-0.3942600000000001
 30
0.0
 10
0.63768
 20
-0.3942600000000001
 30
0.0
 10
0.63768
 20
-0.3942600000000001
 30
0.0
 10
0.63514
 20
-0.6254000000000001
 30
0.0
 10
0.63514
 20
-0.6254000000000001
 30
0.0
 10
0.63514
 20
-0.6254000000000001
 30
0.0
 10
0.63514
 20
-0.6254000000000001
 30
0.0
 10
0.6935600000000001
 20
-0.73716
 30
0.0
 10
0.6935600000000001
 20
-0.73716
 30
0.0
 10
0.6935600000000001
 20
-0.73716
 30
0.0
 10
0.71896
 20
-0.5593600000000001
 30
0.0
 10
0.8383400000000001
 20
-0.32568
 30
0.0
 10
0.63768
 20
-0.18852
 30
0.0
 10
0.63768
 20
-0.18852
 30
0.0
 10
0.6249800000000001
 20
-0.17074
 30
0.0
 10
0.63768
 20
-0.1555
 30
0.0
 10
0.6529200000000001
 20
-0.13772
 30
0.0
  0
SPLINE
  5
5E
100
AcDbEntity
  8
Ebene 1
 62
     7
100
AcDbSpline
210
0.0
220
0.0
230
1.0
 70
     1
 71
     3
 72
    40
 73
    36
 74
     0
 42
0.0000000001
 43
0.0000000001
 40
0.0
 40
0.0
 40
0.0
 40
0.0
 40
0.1111111111111111
 40
0.1111111111111111
 40
0.1111111111111111
 40
0.1111111111111111
 40
0.2222222222222222
 40
0.2222222222222222
 40
0.2222222222222222
 40
0.2222222222222222
 40
0.3333333333333333
 40
0.3333333333333333
 40
0.3333333333333333
 40
0.3333333333333333
 40
0.4444444444444444
 40
0.4444444444444444
 40
0.4444444444444444
 40
0.4444444444444444
 40
0.5555555555555556
 40
0.5555555555555556
 40
0.5555555555555556
 40
0.5555555555555556
 40
0.6666666666666667
 40
0.6666666666666667
 40
0.6666666666666667
 40
0.6666666666666667
 40
0.7777777777777779
 40
0.7777777777777779
 40
0.7777777777777779
 40
0.7777777777777779
 40
0.8888888888888891
 40
0.8888888888888891
 40
0.8888888888888891
 40
0.8888888888888891
 40
1.0
 40
1.0
 40
1.0
 40
1.0
 10
0.12968
 20
-0.37902
 30
0.0
 10
0.277
 20
-0.5009400000000001
 30
0.0
 10
0.22366
 20
-0.67366
 30
0.0
 10
0.21096
 20
-0.8311400000000001
 30
0.0
 10
0.21096
 20
-0.8311400000000001
 30
0.0
 10
0.0357
 20
-0.8311400000000001
 30
0.0
 10
-0.00239
 20
-1.0546600000000002
 30
0.0
 10
-0.17511
 20
-1.0241800000000001
 30
0.0
 10
-0.17511
 20
-1.0241800000000001
 30
0.0
 10
-0.35037
 20
-0.9403600000000001
 30
0.0
 10
-0.4164100000000001
 20
-0.5441200000000001
 30
0.0
 10
-0.17511
 20
-0.49586
 30
0.0
 10
-0.17511
 20
-0.49586
 30
0.0
 10
-0.17511
 20
-0.49586
 30
0.0
 10
-0.14971
 20
-0.45014
 30
0.0
 10
-0.14971
 20
-0.45014
 30
0.0
 10
-0.14971
 20
-0.45014
 30
0.0
 10
-0.14971
 20
-0.45014
 30
0.0
 10
-0.12177
 20
-0.5009400000000001
 30
0.0
 10
-0.12177
 20
-0.5009400000000001
 30
0.0
 10
-0.12177
 20
-0.5009400000000001
 30
0.0
 10
-0.09637
 20
-0.50348
 30
0.0
 10
-0.06843
 20
-0.4907800000000001
 30
0.0
 10
-0.04049
 20
-0.5161800000000001
 30
0.0
 10
-0.04049
 20
-0.5161800000000001
 30
0.0
 10
-0.13701
 20
-0.5974600000000001
 30
0.0
 10
-0.02779
 20
-0.9124200000000001
 30
0.0
 10
0.06364
 20
-0.7778000000000001
 30
0.0
 10
0.06364
 20
-0.7778000000000001
 30
0.0
 10
0.08904
 20
-0.7270000000000001
 30
0.0
 10
0.06364
 20
-0.6685800000000001
 30
0.0
 10
0.0357
 20
-0.6203200000000001
 30
0.0
 10
0.0357
 20
-0.6203200000000001
 30
0.0
 10
0.12968
 20
-0.5746
 30
0.0
 10
0.11698
 20
-0.46284
 30
0.0
 10
0.12968
 20
-0.37902
 30
0.0
  0
SPLINE
  5
5F
100
AcDbEntity
  8
Ebene 1
100
AcDbSpline
210
0.0
220
0.0
230
1.0
 70
     1
 71
     3
 72
    16
 73
    12
 74
     0
 42
0.0000000001
 43
0.0000000001
 40
0.0
 40
0.0
 40
0.0
 40
0.0
 40
0.3333333333333333
 40
0.3333333333333333
 40
0.3333333333333333
 40
0.3333333333333333
 40
0.6666666666666666
 40
0.6666666666666666
 40
0.6666666666666666
 40
0.6666666666666666
 40
1.0
 40
1.0
 40
1.0
 40
1.0
 10
-2.9106900000000002
 20
-0.6609600000000001
 30
0.0
 10
-2.8040100000000003
 20
-0.7676400000000001
 30
0.0
 10
-2.8548100000000001
 20
-0.9860800000000001
 30
0.0
 10
-2.8700500000000004
 20
-1.1308600000000002
 30
0.0
 10
-2.8700500000000004
 20
-1.1308600000000002
 30
0.0
 10
-2.8700500000000004
 20
-1.1308600000000002
 30
0.0
 10
-2.8954500000000003
 20
-1.0495800000000002
 30
0.0
 10
-2.8954500000000003
 20
-1.0495800000000002
 30
0.0
 10
-2.8954500000000003
 20
-1.0495800000000002
 30
0.0
 10
-2.8319500000000004
 20
-0.9200400000000001
 30
0.0
 10
-2.9360900000000001
 20
-0.7854200000000001
 30
0.0
 10
-2.9106900000000002
 20
-0.6609600000000001
 30
0.0
  0
SPLINE
  5
60
100
AcDbEntity
  8
Ebene 1
 62
     7
100
AcDbSpline
210
0.0
220
0.0
230
1.0
 70
     1
 71
     3
 72
    40
 73
    36
 74
     0
 42
0.0000000001
 43
0.0000000001
 40
0.0
 40
0.0
 40
0.0
 40
0.0
 40
0.1111111111111111
 40
0.1111111111111111
 40
0.1111111111111111
 40
0.1111111111111111
 40
0.2222222222222222
 40
0.2222222222222222
 40
0.2222222222222222
 40
0.2222222222222222
 40
0.3333333333333333
 40
0.3333333333333333
 40
0.3333333333333333
 40
0.3333333333333333
 40
0.4444444444444444
 40
0.4444444444444444
 40
0.4444444444444444
 40
0.4444444444444444
 40
0.5555555555555556
 40
0.5555555555555556
 40
0.5555555555555556
 40
0.5555555555555556
 40
0.6666666666666667
 40
0.6666666666666667
 40
0.6666666666666667
 40
0.6666666666666667
 40
0.7777777777777779
 40
0.7777777777777779
 40
0.7777777777777779
 40
0.7777777777777779
 40
0.8888888888888891
 40
0.8888888888888891
 40
0.8888888888888891
 40
0.8888888888888891
 40
1.0
 40
1.0
 40
1.0
 40
1.0
 10
-2.0496300000000001
 20
-2.6599400000000002
 30
0.0
 10
-1.6762500000000002
 20
-2.1290800000000001
 30
0.0
 10
-1.5263900000000001
 20
-1.4686800000000002
 30
0.0
 10
-1.20889
 20
-0.9149600000000001
 30
0.0
 10
-1.20889
 20
-0.9149600000000001
 30
0.0
 10
-1.1809500000000002
 20
-1.4331200000000002
 30
0.0
 10
-1.5695700000000001
 20
-1.9106400000000001
 30
0.0
 10
-1.7702300000000002
 20
-2.3856200000000003
 30
0.0
 10
-1.7702300000000002
 20
-2.3856200000000003
 30
0.0
 10
-1.9988300000000001
 20
-2.6980400000000002
 30
0.0
 10
-2.1994900000000004
 20
-3.0358600000000004
 30
0.0
 10
-2.4763500000000001
 20
-3.2974800000000002
 30
0.0
 10
-2.4763500000000001
 20
-3.2974800000000002
 30
0.0
 10
-2.0394700000000001
 20
-2.6167600000000002
 30
0.0
 10
-2.1334500000000003
 20
-1.7480800000000001
 30
0.0
 10
-1.9988300000000001
 20
-0.9987800000000001
 30
0.0
 10
-1.9988300000000001
 20
-0.9987800000000001
 30
0.0
 10
-1.8235700000000001
 20
-0.92766
 30
0.0
 10
-1.7422900000000001
 20
-0.8387600000000001
 30
0.0
 10
-1.6102100000000001
 20
-0.75748
 30
0.0
 10
-1.6102100000000001
 20
-0.75748
 30
0.0
 10
-1.5949700000000002
 20
-0.8108200000000001
 30
0.0
 10
-1.6356100000000002
 20
-0.88702
 30
0.0
 10
-1.6508500000000002
 20
-0.9454400000000001
 30
0.0
 10
-1.6508500000000002
 20
-0.9454400000000001
 30
0.0
 10
-1.7168900000000002
 20
-1.29596
 30
0.0
 10
-1.5162300000000002
 20
-1.5118600000000002
 30
0.0
 10
-1.7702300000000002
 20
-1.8827000000000003
 30
0.0
 10
-1.7702300000000002
 20
-1.8827000000000003
 30
0.0
 10
-1.8946900000000002
 20
-2.13924
 30
0.0
 10
-2.0089900000000003
 20
-2.39324
 30
0.0
 10
-2.10805
 20
-2.6574000000000004
 30
0.0
 10
-2.10805
 20
-2.6574000000000004
 30
0.0
 10
-2.19441
 20
-2.8936200000000003
 30
0.0
 10
-2.1918700000000002
 20
-2.8656800000000002
 30
0.0
 10
-2.0496300000000001
 20
-2.6599400000000002
 30
0.0
  0
SPLINE
  5
61
100
AcDbEntity
  8
Ebene 1
 62
     7
100
AcDbSpline
210
0.0
220
0.0
230
1.0
 70
     1
 71
     3
 72
    36
 73
    32
 74
     0
 42
0.0000000001
 43
0.0000000001
 40
0.0
 40
0.0
 40
0.0
 40
0.0
 40
0.125
 40
0.125
 40
0.125
 40
0.125
 40
0.25
 40
0.25
 40
0.25
 40
0.25
 40
0.375
 40
0.375
 40
0.375
 40
0.375
 40
0.5
 40
0.5
 40
0.5
 40
0.5
 40
0.625
 40
0.625
 40
0.625
 40
0.625
 40
0.75
 40
0.75
 40
0.75
 40
0.75
 40
0.875
 40
0.875
 40
0.875
 40
0.875
 40
1.0
 40
1.0
 40
1.0
 40
1.0
 10
-3.3247100000000001
 20
-1.1308600000000002
 30
0.0
 10
-3.2408900000000003
 20
-1.1486400000000001
 30
0.0
 10
-3.1240500000000004
 20
-1.1715
 30
0.0
 10
-3.0859500000000004
 20
-1.24516
 30
0.0
 10
-3.0859500000000004
 20
-1.24516
 30
0.0
 10
-3.2891500000000002
 20
-1.2172200000000002
 30
0.0
 10
-3.6549100000000001
 20
-1.2248400000000002
 30
0.0
 10
-3.6853900000000004
 20
-1.4915400000000001
 30
0.0
 10
-3.6853900000000004
 20
-1.4915400000000001
 30
0.0
 10
-3.6828500000000002
 20
-1.5067800000000002
 30
0.0
 10
-3.7031700000000005
 20
-1.50424
 30
0.0
 10
-3.7133300000000005
 20
-1.50424
 30
0.0
 10
-3.7133300000000005
 20
-1.50424
 30
0.0
 10
-3.7387300000000003
 20
-1.4940800000000001
 30
0.0
 10
-3.7615900000000004
 20
-1.4686800000000002
 30
0.0
 10
-3.7539700000000003
 20
-1.4382000000000001
 30
0.0
 10
-3.7539700000000003
 20
-1.4382000000000001
 30
0.0
 10
-3.7539700000000003
 20
-1.4382000000000001
 30
0.0
 10
-3.7768300000000004
 20
-1.3543800000000001
 30
0.0
 10
-3.7768300000000004
 20
-1.3543800000000001
 30
0.0
 10
-3.7768300000000004
 20
-1.3543800000000001
 30
0.0
 10
-3.7869900000000003
 20
-1.3035800000000002
 30
0.0
 10
-3.7031700000000005
 20
-1.3112000000000001
 30
0.0
 10
-3.6752300000000004
 20
-1.3264400000000001
 30
0.0
 10
-3.6752300000000004
 20
-1.3264400000000001
 30
0.0
 10
-3.6752300000000004
 20
-1.3264400000000001
 30
0.0
 10
-3.5761700000000003
 20
-1.21214
 30
0.0
 10
-3.5761700000000003
 20
-1.21214
 30
0.0
 10
-3.5761700000000003
 20
-1.21214
 30
0.0
 10
-3.4974300000000005
 20
-1.1562600000000001
 30
0.0
 10
-3.3247100000000001
 20
-1.25278
 30
0.0
 10
-3.3247100000000001
 20
-1.1308600000000002
 30
0.0
  0
SPLINE
  5
62
100
AcDbEntity
  8
Ebene 1
 62
     7
100
AcDbSpline
210
0.0
220
0.0
230
1.0
 70
     1
 71
     3
 72
    12
 73
     8
 74
     0
 42
0.0000000001
 43
0.0000000001
 40
0.0
 40
0.0
 40
0.0
 40
0.0
 40
0.5
 40
0.5
 40
0.5
 40
0.5
 40
1.0
 40
1.0
 40
1.0
 40
1.0
 10
1.8441800000000002
 20
-1.1435600000000001
 30
0.0
 10
1.9254600000000002
 20
-1.1867400000000001
 30
0.0
 10
1.8975200000000001
 20
-1.33406
 30
0.0
 10
1.8441800000000002
 20
-1.3924800000000002
 30
0.0
 10
1.8441800000000002
 20
-1.3924800000000002
 30
0.0
 10
1.8441800000000002
 20
-1.3924800000000002
 30
0.0
 10
1.8441800000000002
 20
-1.1435600000000001
 30
0.0
 10
1.8441800000000002
 20
-1.1435600000000001
 30
0.0
  0
SPLINE
  5
63
100
AcDbEntity
  8
Ebene 1
 62
     7
100
AcDbSpline
210
0.0
220
0.0
230
1.0
 70
     1
 71
     3
 72
    52
 73
    48
 74
     0
 42
0.0000000001
 43
0.0000000001
 40
0.0
 40
0.0
 40
0.0
 40
0.0
 40
0.0833333333333333
 40
0.0833333333333333
 40
0.0833333333333333
 40
0.0833333333333333
 40
0.1666666666666667
 40
0.1666666666666667
 40
0.1666666666666667
 40
0.1666666666666667
 40
0.25
 40
0.25
 40
0.25
 40
0.25
 40
0.3333333333333333
 40
0.3333333333333333
 40
0.3333333333333333
 40
0.3333333333333333
 40
0.4166666666666666
 40
0.4166666666666666
 40
0.4166666666666666
 40
0.4166666666666666
 40
0.4999999999999999
 40
0.4999999999999999
 40
0.4999999999999999
 40
0.4999999999999999
 40
0.5833333333333333
 40
0.5833333333333333
 40
0.5833333333333333
 40
0.5833333333333333
 40
0.6666666666666666
 40
0.6666666666666666
 40
0.6666666666666666
 40
0.6666666666666666
 40
0.75
 40
0.75
 40
0.75
 40
0.75
 40
0.8333333333333334
 40
0.8333333333333334
 40
0.8333333333333334
 40
0.8333333333333334
 40
0.9166666666666667
 40
0.9166666666666667
 40
0.9166666666666667
 40
0.9166666666666667
 40
1.0
 40
1.0
 40
1.0
 40
1.0
 10
2.6214200000000001
 20
-1.2248400000000002
 30
0.0
 10
2.6620600000000003
 20
-1.2197600000000002
 30
0.0
 10
2.6900000000000004
 20
-1.2197600000000002
 30
0.0
 10
2.7154000000000003
 20
-1.25278
 30
0.0
 10
2.7154000000000003
 20
-1.25278
 30
0.0
 10
2.7027000000000001
 20
-1.6337800000000002
 30
0.0
 10
2.6493600000000002
 20
-2.0071600000000003
 30
0.0
 10
2.42076
 20
-2.31196
 30
0.0
 10
2.42076
 20
-2.31196
 30
0.0
 10
2.42076
 20
-2.31196
 30
0.0
 10
1.9661000000000002
 20
-2.9749000000000003
 30
0.0
 10
1.9661000000000002
 20
-2.9749000000000003
 30
0.0
 10
1.9661000000000002
 20
-2.9749000000000003
 30
0.0
 10
1.9661000000000002
 20
-2.9749000000000003
 30
0.0
 10
1.6181200000000002
 20
-3.4219400000000002
 30
0.0
 10
1.6181200000000002
 20
-3.4219400000000002
 30
0.0
 10
1.6181200000000002
 20
-3.4219400000000002
 30
0.0
 10
1.3895200000000001
 20
-2.8250400000000004
 30
0.0
 10
2.0727800000000003
 20
-2.3018000000000001
 30
0.0
 10
1.8975200000000001
 20
-1.6388600000000002
 30
0.0
 10
1.8975200000000001
 20
-1.6388600000000002
 30
0.0
 10
1.8975200000000001
 20
-1.6388600000000002
 30
0.0
 10
1.9254600000000002
 20
-1.4001000000000001
 30
0.0
 10
1.9254600000000002
 20
-1.4001000000000001
 30
0.0
 10
1.9254600000000002
 20
-1.4001000000000001
 30
0.0
 10
2.0067400000000002
 20
-1.4026400000000001
 30
0.0
 10
2.0321400000000001
 20
-1.5169400000000002
 30
0.0
 10
2.0194400000000003
 20
-1.58552
 30
0.0
 10
2.0194400000000003
 20
-1.58552
 30
0.0
 10
1.9915000000000003
 20
-1.6439400000000002
 30
0.0
 10
2.0727800000000003
 20
-1.6591800000000001
 30
0.0
 10
2.0727800000000003
 20
-1.5982200000000002
 30
0.0
 10
2.0727800000000003
 20
-1.5982200000000002
 30
0.0
 10
2.0981800000000002
 20
-1.5296400000000001
 30
0.0
 10
2.1134200000000001
 20
-1.4763000000000002
 30
0.0
 10
2.0981800000000002
 20
-1.4001000000000001
 30
0.0
 10
2.0981800000000002
 20
-1.4001000000000001
 30
0.0
 10
2.3140800000000001
 20
-1.5931400000000002
 30
0.0
 10
2.08548
 20
-1.9284200000000002
 30
0.0
 10
2.0981800000000002
 20
-2.1722600000000001
 30
0.0
 10
2.0981800000000002
 20
-2.1722600000000001
 30
0.0
 10
2.1388200000000004
 20
-2.2103600000000001
 30
0.0
 10
2.0600800000000001
 20
-2.26878
 30
0.0
 10
2.1134200000000001
 20
-2.2967200000000001
 30
0.0
 10
2.1134200000000001
 20
-2.2967200000000001
 30
0.0
 10
2.2988400000000002
 20
-1.9589000000000001
 30
0.0
 10
2.3140800000000001
 20
-1.5372600000000001
 30
0.0
 10
2.6214200000000001
 20
-1.2248400000000002
 30
0.0
  0
SPLINE
  5
64
100
AcDbEntity
  8
Ebene 1
 62
     7
100
AcDbSpline
210
0.0
220
0.0
230
1.0
 70
     1
 71
     3
 72
    24
 73
    20
 74
     0
 42
0.0000000001
 43
0.0000000001
 40
0.0
 40
0.0
 40
0.0
 40
0.0
 40
0.2
 40
0.2
 40
0.2
 40
0.2
 40
0.4
 40
0.4
 40
0.4
 40
0.4
 40
0.6000000000000001
 40
0.6000000000000001
 40
0.6000000000000001
 40
0.6000000000000001
 40
0.8
 40
0.8
 40
0.8
 40
0.8
 40
1.0
 40
1.0
 40
1.0
 40
1.0
 10
-2.3874500000000003
 20
-1.2756400000000001
 30
0.0
 10
-2.2858500000000004
 20
-1.3620000000000001
 30
0.0
 10
-2.3112500000000002
 20
-1.5499600000000002
 30
0.0
 10
-2.35697
 20
-1.6744200000000002
 30
0.0
 10
-2.35697
 20
-1.6744200000000002
 30
0.0
 10
-2.2883900000000001
 20
-1.5728200000000001
 30
0.0
 10
-2.2248900000000003
 20
-1.46106
 30
0.0
 10
-2.1715500000000003
 20
-1.3467600000000002
 30
0.0
 10
-2.1715500000000003
 20
-1.3467600000000002
 30
0.0
 10
-2.1588500000000002
 20
-1.3391400000000002
 30
0.0
 10
-2.14615
 20
-1.3239000000000001
 30
0.0
 10
-2.1334500000000003
 20
-1.33406
 30
0.0
 10
-2.1334500000000003
 20
-1.33406
 30
0.0
 10
-2.1588500000000002
 20
-1.5118600000000002
 30
0.0
 10
-2.2934700000000001
 20
-1.7023600000000001
 30
0.0
 10
-2.4357100000000003
 20
-1.8090400000000002
 30
0.0
 10
-2.4357100000000003
 20
-1.8090400000000002
 30
0.0
 10
-2.4077700000000002
 20
-1.6287
 30
0.0
 10
-2.3722100000000004
 20
-1.4356600000000002
 30
0.0
 10
-2.3874500000000003
 20
-1.2756400000000001
 30
0.0
  0
SPLINE
  5
65
100
AcDbEntity
  8
Ebene 1
 62
     7
100
AcDbSpline
210
0.0
220
0.0
230
1.0
 70
     1
 71
     3
 72
    48
 73
    44
 74
     0
 42
0.0000000001
 43
0.0000000001
 40
0.0
 40
0.0
 40
0.0
 40
0.0
 40
0.0909090909090909
 40
0.0909090909090909
 40
0.0909090909090909
 40
0.0909090909090909
 40
0.1818181818181818
 40
0.1818181818181818
 40
0.1818181818181818
 40
0.1818181818181818
 40
0.2727272727272727
 40
0.2727272727272727
 40
0.2727272727272727
 40
0.2727272727272727
 40
0.3636363636363637
 40
0.3636363636363637
 40
0.3636363636363637
 40
0.3636363636363637
 40
0.4545454545454546
 40
0.4545454545454546
 40
0.4545454545454546
 40
0.4545454545454546
 40
0.5454545454545455
 40
0.5454545454545455
 40
0.5454545454545455
 40
0.5454545454545455
 40
0.6363636363636365
 40
0.6363636363636365
 40
0.6363636363636365
 40
0.6363636363636365
 40
0.7272727272727274
 40
0.7272727272727274
 40
0.7272727272727274
 40
0.7272727272727274
 40
0.8181818181818183
 40
0.8181818181818183
 40
0.8181818181818183
 40
0.8181818181818183
 40
0.9090909090909093
 40
0.9090909090909093
 40
0.9090909090909093
 40
0.9090909090909093
 40
1.0
 40
1.0
 40
1.0
 40
1.0
 10
-3.3932900000000004
 20
-1.3442200000000002
 30
0.0
 10
-3.3602700000000003
 20
-1.3442200000000002
 30
0.0
 10
-3.3247100000000001
 20
-1.3543800000000001
 30
0.0
 10
-3.2993100000000002
 20
-1.37216
 30
0.0
 10
-3.2993100000000002
 20
-1.37216
 30
0.0
 10
-3.4771100000000001
 20
-2.0401800000000003
 30
0.0
 10
-3.8377900000000005
 20
-2.6574000000000004
 30
0.0
 10
-4.2187900000000003
 20
-3.2162000000000002
 30
0.0
 10
-4.2187900000000003
 20
-3.2162000000000002
 30
0.0
 10
-4.1197300000000006
 20
-3.1831800000000001
 30
0.0
 10
-4.0435300000000005
 20
-3.0739600000000005
 30
0.0
 10
-3.9571700000000005
 20
-3.0028400000000004
 30
0.0
 10
-3.9571700000000005
 20
-3.0028400000000004
 30
0.0
 10
-3.9139900000000005
 20
-2.9952200000000002
 30
0.0
 10
-3.9876500000000004
 20
-3.0587200000000001
 30
0.0
 10
-4.0028900000000007
 20
-3.0739600000000005
 30
0.0
 10
-4.0028900000000007
 20
-3.0739600000000005
 30
0.0
 10
-4.0028900000000007
 20
-3.0739600000000005
 30
0.0
 10
-4.0511500000000007
 20
-3.1222200000000004
 30
0.0
 10
-4.0511500000000007
 20
-3.1222200000000004
 30
0.0
 10
-4.0511500000000007
 20
-3.1222200000000004
 30
0.0
 10
-4.23149
 20
-3.2746200000000001
 30
0.0
 10
-4.4169100000000006
 20
-3.4625800000000004
 30
0.0
 10
-4.6074100000000007
 20
-3.5641800000000003
 30
0.0
 10
-4.6074100000000007
 20
-3.5641800000000003
 30
0.0
 10
-4.2899100000000008
 20
-3.1019000000000001
 30
0.0
 10
-3.8809700000000005
 20
-2.65232
 30
0.0
 10
-3.7793700000000001
 20
-2.0808200000000001
 30
0.0
 10
-3.7793700000000001
 20
-2.0808200000000001
 30
0.0
 10
-3.7336500000000004
 20
-1.8928600000000002
 30
0.0
 10
-3.7514300000000005
 20
-2.1595600000000004
 30
0.0
 10
-3.7793700000000001
 20
-2.2281400000000002
 30
0.0
 10
-3.7793700000000001
 20
-2.2281400000000002
 30
0.0
 10
-3.7793700000000001
 20
-2.2281400000000002
 30
0.0
 10
-3.8708100000000005
 20
-2.5989800000000001
 30
0.0
 10
-3.8708100000000005
 20
-2.5989800000000001
 30
0.0
 10
-3.8708100000000005
 20
-2.5989800000000001
 30
0.0
 10
-3.7057100000000003
 20
-2.2332200000000002
 30
0.0
 10
-3.6015700000000002
 20
-1.8319000000000001
 30
0.0
 10
-3.5355300000000005
 20
-1.4280400000000002
 30
0.0
 10
-3.5355300000000005
 20
-1.4280400000000002
 30
0.0
 10
-3.5355300000000005
 20
-1.4280400000000002
 30
0.0
 10
-3.3932900000000004
 20
-1.3442200000000002
 30
0.0
 10
-3.3932900000000004
 20
-1.3442200000000002
 30
0.0
  0
SPLINE
  5
66
100
AcDbEntity
  8
Ebene 1
 62
     7
100
AcDbSpline
210
0.0
220
0.0
230
1.0
 70
     1
 71
     3
 72
    20
 73
    16
 74
     0
 42
0.0000000001
 43
0.0000000001
 40
0.0
 40
0.0
 40
0.0
 40
0.0
 40
0.25
 40
0.25
 40
0.25
 40
0.25
 40
0.5
 40
0.5
 40
0.5
 40
0.5
 40
0.75
 40
0.75
 40
0.75
 40
0.75
 40
1.0
 40
1.0
 40
1.0
 40
1.0
 10
-2.8954500000000003
 20
-1.3569200000000001
 30
0.0
 10
-2.8954500000000003
 20
-1.3569200000000001
 30
0.0
 10
-2.8319500000000004
 20
-1.3594600000000001
 30
0.0
 10
-2.8319500000000004
 20
-1.3594600000000001
 30
0.0
 10
-2.8319500000000004
 20
-1.3594600000000001
 30
0.0
 10
-2.8319500000000004
 20
-1.3594600000000001
 30
0.0
 10
-2.7887700000000004
 20
-1.4255000000000002
 30
0.0
 10
-2.7887700000000004
 20
-1.4255000000000002
 30
0.0
 10
-2.7887700000000004
 20
-1.4255000000000002
 30
0.0
 10
-2.81671
 20
-1.6541000000000001
 30
0.0
 10
-2.9360900000000001
 20
-1.8725400000000001
 30
0.0
 10
-3.0935700000000002
 20
-2.0376400000000001
 30
0.0
 10
-3.0935700000000002
 20
-2.0376400000000001
 30
0.0
 10
-3.0935700000000002
 20
-2.0376400000000001
 30
0.0
 10
-2.8954500000000003
 20
-1.3569200000000001
 30
0.0
 10
-2.8954500000000003
 20
-1.3569200000000001
 30
0.0
  0
SPLINE
  5
67
100
AcDbEntity
  8
Ebene 1
 62
     7
100
AcDbSpline
210
0.0
220
0.0
230
1.0
 70
     1
 71
     3
 72
    28
 73
    24
 74
     0
 42
0.0000000001
 43
0.0000000001
 40
0.0
 40
0.0
 40
0.0
 40
0.0
 40
0.1666666666666667
 40
0.1666666666666667
 40
0.1666666666666667
 40
0.1666666666666667
 40
0.3333333333333333
 40
0.3333333333333333
 40
0.3333333333333333
 40
0.3333333333333333
 40
0.5
 40
0.5
 40
0.5
 40
0.5
 40
0.6666666666666666
 40
0.6666666666666666
 40
0.6666666666666666
 40
0.6666666666666666
 40
0.8333333333333333
 40
0.8333333333333333
 40
0.8333333333333333
 40
0.8333333333333333
 40
1.0
 40
1.0
 40
1.0
 40
1.0
 10
3.0227400000000002
 20
-1.4102600000000001
 30
0.0
 10
3.0227400000000002
 20
-1.4102600000000001
 30
0.0
 10
3.1573600000000002
 20
-1.6896600000000002
 30
0.0
 10
3.1573600000000002
 20
-1.6896600000000002
 30
0.0
 10
3.1573600000000002
 20
-1.6896600000000002
 30
0.0
 10
3.1980000000000004
 20
-1.7582400000000002
 30
0.0
 10
3.2513400000000003
 20
-1.8319000000000001
 30
0.0
 10
3.3199200000000002
 20
-1.8801600000000001
 30
0.0
 10
3.3199200000000002
 20
-1.8801600000000001
 30
0.0
 10
3.3046800000000003
 20
-2.3780000000000001
 30
0.0
 10
2.8093800000000004
 20
-2.6929600000000002
 30
0.0
 10
2.4893400000000003
 20
-2.9647400000000004
 30
0.0
 10
2.4893400000000003
 20
-2.9647400000000004
 30
0.0
 10
2.4487000000000001
 20
-2.9342600000000001
 30
0.0
 10
2.5960200000000002
 20
-2.7971000000000004
 30
0.0
 10
2.4741000000000004
 20
-2.8326600000000002
 30
0.0
 10
2.4741000000000004
 20
-2.8326600000000002
 30
0.0
 10
2.4741000000000004
 20
-2.8326600000000002
 30
0.0
 10
2.2861400000000001
 20
-3.0282400000000003
 30
0.0
 10
2.2861400000000001
 20
-3.0282400000000003
 30
0.0
 10
2.2861400000000001
 20
-3.0282400000000003
 30
0.0
 10
2.6087200000000004
 20
-2.5304000000000002
 30
0.0
 10
3.0506800000000003
 20
-2.0452600000000003
 30
0.0
 10
3.0227400000000002
 20
-1.4102600000000001
 30
0.0
  0
SPLINE
  5
68
100
AcDbEntity
  8
Ebene 1
 62
     7
100
AcDbSpline
210
0.0
220
0.0
230
1.0
 70
     1
 71
     3
 72
    16
 73
    12
 74
     0
 42
0.0000000001
 43
0.0000000001
 40
0.0
 40
0.0
 40
0.0
 40
0.0
 40
0.3333333333333333
 40
0.3333333333333333
 40
0.3333333333333333
 40
0.3333333333333333
 40
0.6666666666666666
 40
0.6666666666666666
 40
0.6666666666666666
 40
0.6666666666666666
 40
1.0
 40
1.0
 40
1.0
 40
1.0
 10
-3.1519900000000001
 20
-1.5575800000000002
 30
0.0
 10
-3.1088100000000001
 20
-1.5499600000000002
 30
0.0
 10
-3.1291300000000004
 20
-1.6033000000000002
 30
0.0
 10
-3.1240500000000004
 20
-1.62616
 30
0.0
 10
-3.1240500000000004
 20
-1.62616
 30
0.0
 10
-3.2459700000000002
 20
-2.1367000000000003
 30
0.0
 10
-3.5380700000000003
 20
-2.6218400000000002
 30
0.0
 10
-3.9368500000000002
 20
-2.9749000000000003
 30
0.0
 10
-3.9368500000000002
 20
-2.9749000000000003
 30
0.0
 10
-3.6015700000000002
 20
-2.57104
 30
0.0
 10
-3.3272500000000003
 20
-2.0655800000000002
 30
0.0
 10
-3.1519900000000001
 20
-1.5575800000000002
 30
0.0
  0
SPLINE
  5
69
100
AcDbEntity
  8
Ebene 1
 62
     7
100
AcDbSpline
210
0.0
220
0.0
230
1.0
 70
     1
 71
     3
 72
    32
 73
    28
 74
     0
 42
0.0000000001
 43
0.0000000001
 40
0.0
 40
0.0
 40
0.0
 40
0.0
 40
0.1428571428571429
 40
0.1428571428571429
 40
0.1428571428571429
 40
0.1428571428571429
 40
0.2857142857142857
 40
0.2857142857142857
 40
0.2857142857142857
 40
0.2857142857142857
 40
0.4285714285714286
 40
0.4285714285714286
 40
0.4285714285714286
 40
0.4285714285714286
 40
0.5714285714285714
 40
0.5714285714285714
 40
0.5714285714285714
 40
0.5714285714285714
 40
0.7142857142857142
 40
0.7142857142857142
 40
0.7142857142857142
 40
0.7142857142857142
 40
0.857142857142857
 40
0.857142857142857
 40
0.857142857142857
 40
0.857142857142857
 40
1.0
 40
1.0
 40
1.0
 40
1.0
 10
0.6935600000000001
 20
-1.62616
 30
0.0
 10
1.0542400000000001
 20
-1.5601200000000002
 30
0.0
 10
1.0009000000000001
 20
-1.9741400000000002
 30
0.0
 10
0.9196200000000001
 20
-2.1976600000000004
 30
0.0
 10
0.9196200000000001
 20
-2.1976600000000004
 30
0.0
 10
0.9196200000000001
 20
-2.1976600000000004
 30
0.0
 10
0.8789800000000001
 20
-2.06812
 30
0.0
 10
0.8789800000000001
 20
-2.06812
 30
0.0
 10
0.8789800000000001
 20
-2.06812
 30
0.0
 10
0.8942200000000001
 20
-1.9716000000000002
 30
0.0
 10
0.8662800000000001
 20
-1.8776200000000001
 30
0.0
 10
0.8002400000000001
 20
-1.8090400000000002
 30
0.0
 10
0.8002400000000001
 20
-1.8090400000000002
 30
0.0
 10
0.8002400000000001
 20
-1.79634
 30
0.0
 10
0.78754
 20
-1.7760200000000002
 30
0.0
 10
0.7723000000000001
 20
-1.7760200000000002
 30
0.0
 10
0.7723000000000001
 20
-1.7760200000000002
 30
0.0
 10
0.7723000000000001
 20
-1.7760200000000002
 30
0.0
 10
0.7316600000000001
 20
-1.8268200000000001
 30
0.0
 10
0.7316600000000001
 20
-1.8268200000000001
 30
0.0
 10
0.7316600000000001
 20
-1.8268200000000001
 30
0.0
 10
0.8002400000000001
 20
-1.9995400000000001
 30
0.0
 10
0.7469
 20
-2.2154400000000001
 30
0.0
 10
0.7596000000000001
 20
-2.3754600000000003
 30
0.0
 10
0.7596000000000001
 20
-2.3754600000000003
 30
0.0
 10
0.6935600000000001
 20
-2.1646400000000003
 30
0.0
 10
0.47766
 20
-1.8522200000000002
 30
0.0
 10
0.6935600000000001
 20
-1.62616
 30
0.0
  0
SPLINE
  5
6A
100
AcDbEntity
  8
Ebene 1
100
AcDbSpline
210
0.0
220
0.0
230
1.0
 70
     1
 71
     3
 72
    16
 73
    12
 74
     0
 42
0.0000000001
 43
0.0000000001
 40
0.0
 40
0.0
 40
0.0
 40
0.0
 40
0.3333333333333333
 40
0.3333333333333333
 40
0.3333333333333333
 40
0.3333333333333333
 40
0.6666666666666666
 40
0.6666666666666666
 40
0.6666666666666666
 40
0.6666666666666666
 40
1.0
 40
1.0
 40
1.0
 40
1.0
 10
2.0321400000000001
 20
-1.6668000000000001
 30
0.0
 10
2.08548
 20
-1.6642600000000001
 30
0.0
 10
2.0321400000000001
 20
-1.7455400000000001
 30
0.0
 10
2.0727800000000003
 20
-1.7734800000000002
 30
0.0
 10
2.0727800000000003
 20
-1.7734800000000002
 30
0.0
 10
1.9915000000000003
 20
-2.0909800000000001
 30
0.0
 10
2.0067400000000002
 20
-2.4491200000000002
 30
0.0
 10
1.8441800000000002
 20
-2.7336
 30
0.0
 10
1.8441800000000002
 20
-2.7336
 30
0.0
 10
1.8441800000000002
 20
-2.7336
 30
0.0
 10
2.0321400000000001
 20
-1.6668000000000001
 30
0.0
 10
2.0321400000000001
 20
-1.6668000000000001
 30
0.0
  0
SPLINE
  5
6B
100
AcDbEntity
  8
Ebene 1
 62
     7
100
AcDbSpline
210
0.0
220
0.0
230
1.0
 70
     1
 71
     3
 72
    20
 73
    16
 74
     0
 42
0.0000000001
 43
0.0000000001
 40
0.0
 40
0.0
 40
0.0
 40
0.0
 40
0.25
 40
0.25
 40
0.25
 40
0.25
 40
0.5
 40
0.5
 40
0.5
 40
0.5
 40
0.75
 40
0.75
 40
0.75
 40
0.75
 40
1.0
 40
1.0
 40
1.0
 40
1.0
 10
1.7908400000000002
 20
-1.8801600000000001
 30
0.0
 10
1.7908400000000002
 20
-1.8801600000000001
 30
0.0
 10
1.8314800000000002
 20
-1.9335000000000002
 30
0.0
 10
1.8314800000000002
 20
-1.9335000000000002
 30
0.0
 10
1.8314800000000002
 20
-1.9335000000000002
 30
0.0
 10
1.7654400000000001
 20
-2.2560800000000003
 30
0.0
 10
1.6841600000000001
 20
-2.57104
 30
0.0
 10
1.5368400000000002
 20
-2.85806
 30
0.0
 10
1.5368400000000002
 20
-2.85806
 30
0.0
 10
1.5368400000000002
 20
-2.85806
 30
0.0
 10
1.44286
 20
-2.5100800000000003
 30
0.0
 10
1.44286
 20
-2.5100800000000003
 30
0.0
 10
1.44286
 20
-2.5100800000000003
 30
0.0
 10
1.5901800000000001
 20
-2.3195800000000002
 30
0.0
 10
1.7375
 20
-2.1163800000000004
 30
0.0
 10
1.7908400000000002
 20
-1.8801600000000001
 30
0.0
  0
SPLINE
  5
6C
100
AcDbEntity
  8
Ebene 1
 62
     7
100
AcDbSpline
210
0.0
220
0.0
230
1.0
 70
     1
 71
     3
 72
    24
 73
    20
 74
     0
 42
0.0000000001
 43
0.0000000001
 40
0.0
 40
0.0
 40
0.0
 40
0.0
 40
0.2
 40
0.2
 40
0.2
 40
0.2
 40
0.4
 40
0.4
 40
0.4
 40
0.4
 40
0.6000000000000001
 40
0.6000000000000001
 40
0.6000000000000001
 40
0.6000000000000001
 40
0.8
 40
0.8
 40
0.8
 40
0.8
 40
1.0
 40
1.0
 40
1.0
 40
1.0
 10
0.33034
 20
-1.9462000000000002
 30
0.0
 10
0.5462400000000001
 20
-1.9716000000000002
 30
0.0
 10
0.6529200000000001
 20
-2.2891000000000004
 30
0.0
 10
0.63768
 20
-2.4973800000000002
 30
0.0
 10
0.63768
 20
-2.4973800000000002
 30
0.0
 10
0.531
 20
-2.60914
 30
0.0
 10
0.4522600000000001
 20
-2.7513800000000002
 30
0.0
 10
0.38368
 20
-2.8682200000000004
 30
0.0
 10
0.38368
 20
-2.8682200000000004
 30
0.0
 10
0.38368
 20
-2.8682200000000004
 30
0.0
 10
0.07634
 20
-2.2992600000000003
 30
0.0
 10
0.07634
 20
-2.2992600000000003
 30
0.0
 10
0.07634
 20
-2.2992600000000003
 30
0.0
 10
0.023
 20
-2.2560800000000003
 30
0.0
 10
-0.04049
 20
-2.31196
 30
0.0
 10
-0.05573
 20
-2.2154400000000001
 30
0.0
 10
-0.05573
 20
-2.2154400000000001
 30
0.0
 10
-0.00239
 20
-2.0554200000000002
 30
0.0
 10
0.21096
 20
-2.0274800000000002
 30
0.0
 10
0.33034
 20
-1.9462000000000002
 30
0.0
  0
SPLINE
  5
6D
100
AcDbEntity
  8
Ebene 1
 62
     7
100
AcDbSpline
210
0.0
220
0.0
230
1.0
 70
     1
 71
     3
 72
    16
 73
    12
 74
     0
 42
0.0000000001
 43
0.0000000001
 40
0.0
 40
0.0
 40
0.0
 40
0.0
 40
0.3333333333333333
 40
0.3333333333333333
 40
0.3333333333333333
 40
0.3333333333333333
 40
0.6666666666666666
 40
0.6666666666666666
 40
0.6666666666666666
 40
0.6666666666666666
 40
1.0
 40
1.0
 40
1.0
 40
1.0
 10
-0.9675900000000001
 20
-2.0401800000000003
 30
0.0
 10
-0.9675900000000001
 20
-2.0401800000000003
 30
0.0
 10
-0.9396500000000001
 20
-2.0427200000000001
 30
0.0
 10
-0.9396500000000001
 20
-2.0427200000000001
 30
0.0
 10
-0.9396500000000001
 20
-2.0427200000000001
 30
0.0
 10
-0.95235
 20
-2.1113
 30
0.0
 10
-0.9396500000000001
 20
-2.2078200000000003
 30
0.0
 10
-0.9802900000000001
 20
-2.2510000000000003
 30
0.0
 10
-0.9802900000000001
 20
-2.2510000000000003
 30
0.0
 10
-0.9802900000000001
 20
-2.2510000000000003
 30
0.0
 10
-0.9675900000000001
 20
-2.0401800000000003
 30
0.0
 10
-0.9675900000000001
 20
-2.0401800000000003
 30
0.0
  0
SPLINE
  5
6E
100
AcDbEntity
  8
Ebene 1
 62
     7
100
AcDbSpline
210
0.0
220
0.0
230
1.0
 70
     1
 71
     3
 72
   136
 73
   132
 74
     0
 42
0.0000000001
 43
0.0000000001
 40
0.0
 40
0.0
 40
0.0
 40
0.0
 40
0.0303030303030303
 40
0.0303030303030303
 40
0.0303030303030303
 40
0.0303030303030303
 40
0.0606060606060606
 40
0.0606060606060606
 40
0.0606060606060606
 40
0.0606060606060606
 40
0.0909090909090909
 40
0.0909090909090909
 40
0.0909090909090909
 40
0.0909090909090909
 40
0.1212121212121212
 40
0.1212121212121212
 40
0.1212121212121212
 40
0.1212121212121212
 40
0.1515151515151515
 40
0.1515151515151515
 40
0.1515151515151515
 40
0.1515151515151515
 40
0.1818181818181818
 40
0.1818181818181818
 40
0.1818181818181818
 40
0.1818181818181818
 40
0.2121212121212121
 40
0.2121212121212121
 40
0.2121212121212121
 40
0.2121212121212121
 40
0.2424242424242424
 40
0.2424242424242424
 40
0.2424242424242424
 40
0.2424242424242424
 40
0.2727272727272727
 40
0.2727272727272727
 40
0.2727272727272727
 40
0.2727272727272727
 40
0.303030303030303
 40
0.303030303030303
 40
0.303030303030303
 40
0.303030303030303
 40
0.3333333333333333
 40
0.3333333333333333
 40
0.3333333333333333
 40
0.3333333333333333
 40
0.3636363636363635
 40
0.3636363636363635
 40
0.3636363636363635
 40
0.3636363636363635
 40
0.3939393939393938
 40
0.3939393939393938
 40
0.3939393939393938
 40
0.3939393939393938
 40
0.4242424242424241
 40
0.4242424242424241
 40
0.4242424242424241
 40
0.4242424242424241
 40
0.4545454545454544
 40
0.4545454545454544
 40
0.4545454545454544
 40
0.4545454545454544
 40
0.4848484848484846
 40
0.4848484848484846
 40
0.4848484848484846
 40
0.4848484848484846
 40
0.5151515151515149
 40
0.5151515151515149
 40
0.5151515151515149
 40
0.5151515151515149
 40
0.5454545454545452
 40
0.5454545454545452
 40
0.5454545454545452
 40
0.5454545454545452
 40
0.5757575757575755
 40
0.5757575757575755
 40
0.5757575757575755
 40
0.5757575757575755
 40
0.6060606060606057
 40
0.6060606060606057
 40
0.6060606060606057
 40
0.6060606060606057
 40
0.636363636363636
 40
0.636363636363636
 40
0.636363636363636
 40
0.636363636363636
 40
0.6666666666666663
 40
0.6666666666666663
 40
0.6666666666666663
 40
0.6666666666666663
 40
0.6969696969696966
 40
0.6969696969696966
 40
0.6969696969696966
 40
0.6969696969696966
 40
0.7272727272727269
 40
0.7272727272727269
 40
0.7272727272727269
 40
0.7272727272727269
 40
0.7575757575757571
 40
0.7575757575757571
 40
0.7575757575757571
 40
0.7575757575757571
 40
0.7878787878787874
 40
0.7878787878787874
 40
0.7878787878787874
 40
0.7878787878787874
 40
0.8181818181818177
 40
0.8181818181818177
 40
0.8181818181818177
 40
0.8181818181818177
 40
0.848484848484848
 40
0.848484848484848
 40
0.848484848484848
 40
0.848484848484848
 40
0.8787878787878782
 40
0.8787878787878782
 40
0.8787878787878782
 40
0.8787878787878782
 40
0.9090909090909085
 40
0.9090909090909085
 40
0.9090909090909085
 40
0.9090909090909085
 40
0.9393939393939388
 40
0.9393939393939388
 40
0.9393939393939388
 40
0.9393939393939388
 40
0.9696969696969691
 40
0.9696969696969691
 40
0.9696969696969691
 40
0.9696969696969691
 40
1.0
 40
1.0
 40
1.0
 40
1.0
 10
0.67832
 20
-2.7920200000000004
 30
0.0
 10
0.67832
 20
-2.7920200000000004
 30
0.0
 10
0.6935600000000001
 20
-2.8326600000000002
 30
0.0
 10
0.6935600000000001
 20
-2.8326600000000002
 30
0.0
 10
0.6935600000000001
 20
-2.8326600000000002
 30
0.0
 10
0.5843400000000001
 20
-3.0003000000000002
 30
0.0
 10
0.6529200000000001
 20
-3.1857200000000003
 30
0.0
 10
0.5843400000000001
 20
-3.3508200000000001
 30
0.0
 10
0.5843400000000001
 20
-3.3508200000000001
 30
0.0
 10
0.7062600000000001
 20
-3.2720800000000003
 30
0.0
 10
0.7596000000000001
 20
-3.0892000000000004
 30
0.0
 10
0.6935600000000001
 20
-2.9520400000000002
 30
0.0
 10
0.6935600000000001
 20
-2.9520400000000002
 30
0.0
 10
0.7316600000000001
 20
-2.9037800000000002
 30
0.0
 10
0.7316600000000001
 20
-2.8402800000000004
 30
0.0
 10
0.71896
 20
-2.7818600000000004
 30
0.0
 10
0.71896
 20
-2.7818600000000004
 30
0.0
 10
0.71896
 20
-2.7818600000000004
 30
0.0
 10
0.67832
 20
-2.7920200000000004
 30
0.0
 10
0.67832
 20
-2.7920200000000004
 30
0.0
 10
0.67832
 20
-2.7920200000000004
 30
0.0
 10
0.67832
 20
-2.7920200000000004
 30
0.0
 10
0.7062600000000001
 20
-2.6066000000000003
 30
0.0
 10
0.7062600000000001
 20
-2.6066000000000003
 30
0.0
 10
0.7062600000000001
 20
-2.6066000000000003
 30
0.0
 10
0.7723000000000001
 20
-2.6320000000000001
 30
0.0
 10
0.9069200000000001
 20
-2.5126200000000001
 30
0.0
 10
0.9196200000000001
 20
-2.6116800000000002
 30
0.0
 10
0.9196200000000001
 20
-2.6116800000000002
 30
0.0
 10
0.9196200000000001
 20
-2.6116800000000002
 30
0.0
 10
0.8789800000000001
 20
-2.8021800000000003
 30
0.0
 10
0.8789800000000001
 20
-2.8021800000000003
 30
0.0
 10
0.8789800000000001
 20
-2.8021800000000003
 30
0.0
 10
1.10758
 20
-2.5634200000000003
 30
0.0
 10
1.0009000000000001
 20
-2.1240000000000001
 30
0.0
 10
1.40222
 20
-2.0427200000000001
 30
0.0
 10
1.40222
 20
-2.0427200000000001
 30
0.0
 10
1.3361800000000001
 20
-2.5024600000000001
 30
0.0
 10
0.8662800000000001
 20
-2.7844000000000002
 30
0.0
 10
0.8383400000000001
 20
-3.2568400000000004
 30
0.0
 10
0.8383400000000001
 20
-3.2568400000000004
 30
0.0
 10
0.8002400000000001
 20
-3.2619200000000004
 30
0.0
 10
0.7469
 20
-3.19842
 30
0.0
 10
0.7062600000000001
 20
-3.2619200000000004
 30
0.0
 10
0.7062600000000001
 20
-3.2619200000000004
 30
0.0
 10
0.531
 20
-3.8461200000000004
 30
0.0
 10
0.07634
 20
-4.2576000000000001
 30
0.0
 10
0.0357
 20
-4.9459400000000002
 30
0.0
 10
0.0357
 20
-4.9459400000000002
 30
0.0
 10
0.11698
 20
-4.9967400000000008
 30
0.0
 10
0.1246
 20
-4.7198800000000007
 30
0.0
 10
0.16016
 20
-4.6538400000000006
 30
0.0
 10
0.16016
 20
-4.6538400000000006
 30
0.0
 10
0.28716
 20
-4.4201600000000001
 30
0.0
 10
0.44464
 20
-4.4430200000000006
 30
0.0
 10
0.6935600000000001
 20
-3.9528000000000003
 30
0.0
 10
0.6935600000000001
 20
-3.9528000000000003
 30
0.0
 10
0.71896
 20
-3.7902400000000003
 30
0.0
 10
0.78754
 20
-3.6454600000000004
 30
0.0
 10
0.9069200000000001
 20
-3.5565600000000002
 30
0.0
 10
0.9069200000000001
 20
-3.5565600000000002
 30
0.0
 10
1.02884
 20
-3.7673800000000002
 30
0.0
 10
0.8002400000000001
 20
-3.9934400000000005
 30
0.0
 10
0.7316600000000001
 20
-4.2017200000000008
 30
0.0
 10
0.7316600000000001
 20
-4.2017200000000008
 30
0.0
 10
0.6529200000000001
 20
-4.6665400000000004
 30
0.0
 10
0.531
 20
-5.0932600000000008
 30
0.0
 10
0.2897
 20
-5.5072800000000006
 30
0.0
 10
0.2897
 20
-5.5072800000000006
 30
0.0
 10
0.23636
 20
-5.3650400000000005
 30
0.0
 10
0.15762
 20
-5.4310800000000006
 30
0.0
 10
0.17032
 20
-5.5784000000000002
 30
0.0
 10
0.17032
 20
-5.5784000000000002
 30
0.0
 10
0.023
 20
-5.4463200000000001
 30
0.0
 10
0.21096
 20
-5.8781200000000009
 30
0.0
 10
0.15762
 20
-6.0051200000000007
 30
0.0
 10
0.15762
 20
-6.0051200000000007
 30
0.0
 10
-0.13701
 20
-5.9213000000000005
 30
0.0
 10
-0.30973
 20
-5.7866800000000005
 30
0.0
 10
-0.6450100000000001
 20
-5.7409600000000003
 30
0.0
 10
-0.6450100000000001
 20
-5.7409600000000003
 30
0.0
 10
-0.6856500000000001
 20
-6.2413400000000001
 30
0.0
 10
-0.95235
 20
-5.8908200000000006
 30
0.0
 10
-1.20889
 20
-5.8603400000000008
 30
0.0
 10
-1.20889
 20
-5.8603400000000008
 30
0.0
 10
-0.95235
 20
-5.6038000000000006
 30
0.0
 10
-0.59167
 20
-5.5987200000000001
 30
0.0
 10
-0.45705
 20
-5.1643800000000004
 30
0.0
 10
-0.45705
 20
-5.1643800000000004
 30
0.0
 10
-0.37831
 20
-5.2278800000000007
 30
0.0
 10
-0.44435
 20
-5.3421800000000008
 30
0.0
 10
-0.4164100000000001
 20
-5.4310800000000006
 30
0.0
 10
-0.4164100000000001
 20
-5.4310800000000006
 30
0.0
 10
-0.29703
 20
-5.4742600000000001
 30
0.0
 10
-0.29703
 20
-5.5149000000000008
 30
0.0
 10
-0.19035
 20
-5.4056800000000003
 30
0.0
 10
-0.19035
 20
-5.4056800000000003
 30
0.0
 10
-0.25639
 20
-5.5860200000000004
 30
0.0
 10
-0.08113
 20
-5.6393600000000008
 30
0.0
 10
-0.06843
 20
-5.7790600000000003
 30
0.0
 10
-0.06843
 20
-5.7790600000000003
 30
0.0
 10
-0.06843
 20
-5.7790600000000003
 30
0.0
 10
-0.04049
 20
-5.8603400000000008
 30
0.0
 10
-0.04049
 20
-5.8603400000000008
 30
0.0
 10
-0.04049
 20
-5.8603400000000008
 30
0.0
 10
0.07634
 20
-5.5403000000000002
 30
0.0
 10
-0.04049
 20
-5.3320200000000009
 30
0.0
 10
-0.08113
 20
-5.0170600000000007
 30
0.0
 10
-0.08113
 20
-5.0170600000000007
 30
0.0
 10
-0.17511
 20
-5.0602400000000003
 30
0.0
 10
-0.12177
 20
-5.2126400000000004
 30
0.0
 10
-0.19035
 20
-5.2532800000000002
 30
0.0
 10
-0.19035
 20
-5.2532800000000002
 30
0.0
 10
-0.16241
 20
-5.07294
 30
0.0
 10
-0.08113
 20
-4.8849800000000005
 30
0.0
 10
-0.30973
 20
-4.8291000000000004
 30
0.0
 10
-0.30973
 20
-4.8291000000000004
 30
0.0
 10
-0.69835
 20
-5.0373800000000006
 30
0.0
 10
-0.80503
 20
-5.5682400000000003
 30
0.0
 10
-1.3409700000000002
 20
-5.5072800000000006
 30
0.0
 10
-1.3409700000000002
 20
-5.5072800000000006
 30
0.0
 10
-1.3409700000000002
 20
-5.5072800000000006
 30
0.0
 10
-1.3282700000000001
 20
-5.3650400000000005
 30
0.0
 10
-1.3282700000000001
 20
-5.3650400000000005
 30
0.0
 10
-1.3282700000000001
 20
-5.3650400000000005
 30
0.0
 10
-0.8990100000000001
 20
-5.2355
 30
0.0
 10
-0.7923300000000001
 20
-4.8773600000000004
 30
0.0
 10
-0.6196100000000001
 20
-4.4963600000000001
 30
0.0
 10
-0.6196100000000001
 20
-4.4963600000000001
 30
0.0
 10
0.15762
 20
-4.2093400000000001
 30
0.0
 10
0.22366
 20
-3.3127200000000001
 30
0.0
 10
0.67832
 20
-2.7920200000000004
 30
0.0
  0
SPLINE
  5
6F
100
AcDbEntity
  8
Ebene 1
100
AcDbSpline
210
0.0
220
0.0
230
1.0
 70
     1
 71
     3
 72
    20
 73
    16
 74
     0
 42
0.0000000001
 43
0.0000000001
 40
0.0
 40
0.0
 40
0.0
 40
0.0
 40
0.25
 40
0.25
 40
0.25
 40
0.25
 40
0.5
 40
0.5
 40
0.5
 40
0.5
 40
0.75
 40
0.75
 40
0.75
 40
0.75
 40
1.0
 40
1.0
 40
1.0
 40
1.0
 10
0.2643
 20
-2.0808200000000001
 30
0.0
 10
0.5462400000000001
 20
-2.0706600000000002
 30
0.0
 10
0.57164
 20
-2.4516600000000004
 30
0.0
 10
0.46496
 20
-2.6294600000000004
 30
0.0
 10
0.46496
 20
-2.6294600000000004
 30
0.0
 10
0.34304
 20
-2.5202400000000003
 30
0.0
 10
0.33034
 20
-2.3195800000000002
 30
0.0
 10
0.33034
 20
-2.1519400000000002
 30
0.0
 10
0.33034
 20
-2.1519400000000002
 30
0.0
 10
0.33034
 20
-2.1519400000000002
 30
0.0
 10
0.2643
 20
-2.1316200000000003
 30
0.0
 10
0.2643
 20
-2.1316200000000003
 30
0.0
 10
0.2643
 20
-2.1316200000000003
 30
0.0
 10
0.2643
 20
-2.1316200000000003
 30
0.0
 10
0.2643
 20
-2.0808200000000001
 30
0.0
 10
0.2643
 20
-2.0808200000000001
 30
0.0
  0
SPLINE
  5
70
100
AcDbEntity
  8
Ebene 1
 62
     7
100
AcDbSpline
210
0.0
220
0.0
230
1.0
 70
     1
 71
     3
 72
    12
 73
     8
 74
     0
 42
0.0000000001
 43
0.0000000001
 40
0.0
 40
0.0
 40
0.0
 40
0.0
 40
0.5
 40
0.5
 40
0.5
 40
0.5
 40
1.0
 40
1.0
 40
1.0
 40
1.0
 10
-0.99299
 20
-2.2814800000000002
 30
0.0
 10
-0.95235
 20
-2.2916400000000001
 30
0.0
 10
-0.9396500000000001
 20
-2.4719800000000003
 30
0.0
 10
-1.0209300000000001
 20
-2.4516600000000004
 30
0.0
 10
-1.0209300000000001
 20
-2.4516600000000004
 30
0.0
 10
-1.0209300000000001
 20
-2.4516600000000004
 30
0.0
 10
-0.99299
 20
-2.2814800000000002
 30
0.0
 10
-0.99299
 20
-2.2814800000000002
 30
0.0
  0
SPLINE
  5
71
100
AcDbEntity
  8
Ebene 1
 62
     7
100
AcDbSpline
210
0.0
220
0.0
230
1.0
 70
     1
 71
     3
 72
    12
 73
     8
 74
     0
 42
0.0000000001
 43
0.0000000001
 40
0.0
 40
0.0
 40
0.0
 40
0.0
 40
0.5
 40
0.5
 40
0.5
 40
0.5
 40
1.0
 40
1.0
 40
1.0
 40
1.0
 10
-0.06843
 20
-2.2967200000000001
 30
0.0
 10
0.07634
 20
-2.3322800000000004
 30
0.0
 10
0.0357
 20
-2.5126200000000001
 30
0.0
 10
0.10174
 20
-2.5989800000000001
 30
0.0
 10
0.10174
 20
-2.5989800000000001
 30
0.0
 10
-0.05573
 20
-2.5862800000000004
 30
0.0
 10
-0.05573
 20
-2.4135600000000004
 30
0.0
 10
-0.06843
 20
-2.2967200000000001
 30
0.0
  0
SPLINE
  5
72
100
AcDbEntity
  8
Ebene 1
100
AcDbSpline
210
0.0
220
0.0
230
1.0
 70
     1
 71
     3
 72
    16
 73
    12
 74
     0
 42
0.0000000001
 43
0.0000000001
 40
0.0
 40
0.0
 40
0.0
 40
0.0
 40
0.3333333333333333
 40
0.3333333333333333
 40
0.3333333333333333
 40
0.3333333333333333
 40
0.6666666666666666
 40
0.6666666666666666
 40
0.6666666666666666
 40
0.6666666666666666
 40
1.0
 40
1.0
 40
1.0
 40
1.0
 10
2.08548
 20
-2.3348200000000001
 30
0.0
 10
2.08548
 20
-2.3348200000000001
 30
0.0
 10
2.1261200000000002
 20
-2.3373600000000003
 30
0.0
 10
2.1261200000000002
 20
-2.3373600000000003
 30
0.0
 10
2.1261200000000002
 20
-2.3373600000000003
 30
0.0
 10
2.1261200000000002
 20
-2.3373600000000003
 30
0.0
 10
2.0067400000000002
 20
-2.5761200000000004
 30
0.0
 10
2.0067400000000002
 20
-2.5761200000000004
 30
0.0
 10
2.0067400000000002
 20
-2.5761200000000004
 30
0.0
 10
1.9661000000000002
 20
-2.4999200000000004
 30
0.0
 10
2.0448400000000002
 20
-2.4059400000000002
 30
0.0
 10
2.08548
 20
-2.3348200000000001
 30
0.0
  0
SPLINE
  5
73
100
AcDbEntity
  8
Ebene 1
 62
     7
100
AcDbSpline
210
0.0
220
0.0
230
1.0
 70
     1
 71
     3
 72
    20
 73
    16
 74
     0
 42
0.0000000001
 43
0.0000000001
 40
0.0
 40
0.0
 40
0.0
 40
0.0
 40
0.25
 40
0.25
 40
0.25
 40
0.25
 40
0.5
 40
0.5
 40
0.5
 40
0.5
 40
0.75
 40
0.75
 40
0.75
 40
0.75
 40
1.0
 40
1.0
 40
1.0
 40
1.0
 10
-1.03363
 20
-2.5354800000000002
 30
0.0
 10
-1.00569
 20
-2.52786
 30
0.0
 10
-1.00569
 20
-2.56088
 30
0.0
 10
-0.99299
 20
-2.5761200000000004
 30
0.0
 10
-0.99299
 20
-2.5761200000000004
 30
0.0
 10
-0.9802900000000001
 20
-2.8555200000000003
 30
0.0
 10
-0.95235
 20
-3.1273000000000004
 30
0.0
 10
-0.8990100000000001
 20
-3.3940000000000001
 30
0.0
 10
-0.8990100000000001
 20
-3.3940000000000001
 30
0.0
 10
-1.00569
 20
-3.6556200000000003
 30
0.0
 10
-0.88631
 20
-3.9731200000000002
 30
0.0
 10
-0.9802900000000001
 20
-4.2347400000000004
 30
0.0
 10
-0.9802900000000001
 20
-4.2347400000000004
 30
0.0
 10
-1.03363
 20
-3.7038800000000003
 30
0.0
 10
-0.9802900000000001
 20
-3.1146000000000003
 30
0.0
 10
-1.03363
 20
-2.5354800000000002
 30
0.0
  0
SPLINE
  5
74
100
AcDbEntity
  8
Ebene 1
 62
     7
100
AcDbSpline
210
0.0
220
0.0
230
1.0
 70
     1
 71
     3
 72
    48
 73
    44
 74
     0
 42
0.0000000001
 43
0.0000000001
 40
0.0
 40
0.0
 40
0.0
 40
0.0
 40
0.0909090909090909
 40
0.0909090909090909
 40
0.0909090909090909
 40
0.0909090909090909
 40
0.1818181818181818
 40
0.1818181818181818
 40
0.1818181818181818
 40
0.1818181818181818
 40
0.2727272727272727
 40
0.2727272727272727
 40
0.2727272727272727
 40
0.2727272727272727
 40
0.3636363636363637
 40
0.3636363636363637
 40
0.3636363636363637
 40
0.3636363636363637
 40
0.4545454545454546
 40
0.4545454545454546
 40
0.4545454545454546
 40
0.4545454545454546
 40
0.5454545454545455
 40
0.5454545454545455
 40
0.5454545454545455
 40
0.5454545454545455
 40
0.6363636363636365
 40
0.6363636363636365
 40
0.6363636363636365
 40
0.6363636363636365
 40
0.7272727272727274
 40
0.7272727272727274
 40
0.7272727272727274
 40
0.7272727272727274
 40
0.8181818181818183
 40
0.8181818181818183
 40
0.8181818181818183
 40
0.8181818181818183
 40
0.9090909090909093
 40
0.9090909090909093
 40
0.9090909090909093
 40
0.9090909090909093
 40
1.0
 40
1.0
 40
1.0
 40
1.0
 10
1.3768200000000002
 20
-2.5507200000000001
 30
0.0
 10
1.5901800000000001
 20
-2.81996
 30
0.0
 10
1.4555600000000002
 20
-3.1349200000000002
 30
0.0
 10
1.32094
 20
-3.4067000000000003
 30
0.0
 10
1.32094
 20
-3.4067000000000003
 30
0.0
 10
1.3768200000000002
 20
-3.5540200000000004
 30
0.0
 10
1.4174600000000002
 20
-3.2492200000000002
 30
0.0
 10
1.4835
 20
-3.2085800000000004
 30
0.0
 10
1.4835
 20
-3.2085800000000004
 30
0.0
 10
1.6435200000000001
 20
-3.4092400000000005
 30
0.0
 10
1.5089000000000001
 20
-3.6353000000000004
 30
0.0
 10
1.36158
 20
-3.8131000000000004
 30
0.0
 10
1.36158
 20
-3.8131000000000004
 30
0.0
 10
1.44286
 20
-3.8080200000000004
 30
0.0
 10
1.4962000000000002
 20
-3.6353000000000004
 30
0.0
 10
1.5901800000000001
 20
-3.6251400000000005
 30
0.0
 10
1.5901800000000001
 20
-3.6251400000000005
 30
0.0
 10
1.5901800000000001
 20
-4.0417000000000005
 30
0.0
 10
1.4555600000000002
 20
-4.2753800000000002
 30
0.0
 10
1.14822
 20
-4.4379400000000002
 30
0.0
 10
1.14822
 20
-4.4379400000000002
 30
0.0
 10
1.14822
 20
-4.4379400000000002
 30
0.0
 10
1.10758
 20
-4.1712400000000001
 30
0.0
 10
1.10758
 20
-4.1712400000000001
 30
0.0
 10
1.10758
 20
-4.1712400000000001
 30
0.0
 10
0.8383400000000001
 20
-3.8334200000000003
 30
0.0
 10
1.18886
 20
-3.4321000000000002
 30
0.0
 10
1.2676000000000001
 20
-3.0892000000000004
 30
0.0
 10
1.2676000000000001
 20
-3.0892000000000004
 30
0.0
 10
1.1355200000000001
 20
-3.19842
 30
0.0
 10
1.10758
 20
-3.4041600000000001
 30
0.0
 10
1.02884
 20
-3.5565600000000002
 30
0.0
 10
1.02884
 20
-3.5565600000000002
 30
0.0
 10
1.0136000000000001
 20
-3.5768800000000005
 30
0.0
 10
1.0009000000000001
 20
-3.6124400000000003
 30
0.0
 10
0.9729600000000001
 20
-3.6175200000000003
 30
0.0
 10
0.9729600000000001
 20
-3.6175200000000003
 30
0.0
 10
0.8535800000000001
 20
-3.4397200000000003
 30
0.0
 10
0.9602600000000001
 20
-3.1273000000000004
 30
0.0
 10
1.10758
 20
-2.9876
 30
0.0
 10
1.10758
 20
-2.9876
 30
0.0
 10
1.1202800000000002
 20
-2.8021800000000003
 30
0.0
 10
1.2422000000000002
 20
-2.6599400000000002
 30
0.0
 10
1.3768200000000002
 20
-2.5507200000000001
 30
0.0
  0
SPLINE
  5
75
100
AcDbEntity
  8
Ebene 1
100
AcDbSpline
210
0.0
220
0.0
230
1.0
 70
     1
 71
     3
 72
    24
 73
    20
 74
     0
 42
0.0000000001
 43
0.0000000001
 40
0.0
 40
0.0
 40
0.0
 40
0.0
 40
0.2
 40
0.2
 40
0.2
 40
0.2
 40
0.4
 40
0.4
 40
0.4
 40
0.4
 40
0.6000000000000001
 40
0.6000000000000001
 40
0.6000000000000001
 40
0.6000000000000001
 40
0.8
 40
0.8
 40
0.8
 40
0.8
 40
1.0
 40
1.0
 40
1.0
 40
1.0
 10
0.67832
 20
-2.8885400000000003
 30
0.0
 10
0.67832
 20
-2.8885400000000003
 30
0.0
 10
0.71896
 20
-2.8783800000000004
 30
0.0
 10
0.71896
 20
-2.8783800000000004
 30
0.0
 10
0.71896
 20
-2.8783800000000004
 30
0.0
 10
0.7316600000000001
 20
-2.9291800000000001
 30
0.0
 10
0.7316600000000001
 20
-2.9799800000000003
 30
0.0
 10
0.6935600000000001
 20
-3.0206200000000001
 30
0.0
 10
0.6935600000000001
 20
-3.0206200000000001
 30
0.0
 10
0.7596000000000001
 20
-3.1349200000000002
 30
0.0
 10
0.7062600000000001
 20
-3.2847800000000005
 30
0.0
 10
0.5843400000000001
 20
-3.3508200000000001
 30
0.0
 10
0.5843400000000001
 20
-3.3508200000000001
 30
0.0
 10
0.6529200000000001
 20
-3.2162000000000002
 30
0.0
 10
0.5843400000000001
 20
-3.0612600000000003
 30
0.0
 10
0.6935600000000001
 20
-2.9215600000000004
 30
0.0
 10
0.6935600000000001
 20
-2.9215600000000004
 30
0.0
 10
0.6935600000000001
 20
-2.9215600000000004
 30
0.0
 10
0.67832
 20
-2.8885400000000003
 30
0.0
 10
0.67832
 20
-2.8885400000000003
 30
0.0
  0
SPLINE
  5
76
100
AcDbEntity
  8
Ebene 1
100
AcDbSpline
210
0.0
220
0.0
230
1.0
 70
     1
 71
     3
 72
    28
 73
    24
 74
     0
 42
0.0000000001
 43
0.0000000001
 40
0.0
 40
0.0
 40
0.0
 40
0.0
 40
0.1666666666666667
 40
0.1666666666666667
 40
0.1666666666666667
 40
0.1666666666666667
 40
0.3333333333333333
 40
0.3333333333333333
 40
0.3333333333333333
 40
0.3333333333333333
 40
0.5
 40
0.5
 40
0.5
 40
0.5
 40
0.6666666666666666
 40
0.6666666666666666
 40
0.6666666666666666
 40
0.6666666666666666
 40
0.8333333333333333
 40
0.8333333333333333
 40
0.8333333333333333
 40
0.8333333333333333
 40
1.0
 40
1.0
 40
1.0
 40
1.0
 10
0.41162
 20
-3.2873200000000002
 30
0.0
 10
0.47766
 20
-3.3076400000000001
 30
0.0
 10
0.39638
 20
-3.4041600000000001
 30
0.0
 10
0.4522600000000001
 20
-3.4473400000000001
 30
0.0
 10
0.4522600000000001
 20
-3.4473400000000001
 30
0.0
 10
0.30494
 20
-3.7978600000000005
 30
0.0
 10
0.15762
 20
-4.1229800000000001
 30
0.0
 10
-0.05573
 20
-4.4354000000000005
 30
0.0
 10
-0.05573
 20
-4.4354000000000005
 30
0.0
 10
-0.13701
 20
-4.3820600000000001
 30
0.0
 10
-0.14971
 20
-4.5065200000000001
 30
0.0
 10
-0.23099
 20
-4.4963600000000001
 30
0.0
 10
-0.23099
 20
-4.4963600000000001
 30
0.0
 10
-0.28179
 20
-4.6284400000000003
 30
0.0
 10
-0.3224300000000001
 20
-4.7097200000000008
 30
0.0
 10
-0.45705
 20
-4.7452800000000002
 30
0.0
 10
-0.45705
 20
-4.7452800000000002
 30
0.0
 10
-0.43165
 20
-4.4735000000000005
 30
0.0
 10
-0.17511
 20
-4.3287200000000006
 30
0.0
 10
0.0357
 20
-4.2068000000000003
 30
0.0
 10
0.0357
 20
-4.2068000000000003
 30
0.0
 10
0.19572
 20
-3.8842200000000005
 30
0.0
 10
0.35828
 20
-3.6276800000000002
 30
0.0
 10
0.41162
 20
-3.2873200000000002
 30
0.0
  0
SPLINE
  5
77
100
AcDbEntity
  8
Ebene 1
 62
     7
100
AcDbSpline
210
0.0
220
0.0
230
1.0
 70
     1
 71
     3
 72
    12
 73
     8
 74
     0
 42
0.0000000001
 43
0.0000000001
 40
0.0
 40
0.0
 40
0.0
 40
0.0
 40
0.5
 40
0.5
 40
0.5
 40
0.5
 40
1.0
 40
1.0
 40
1.0
 40
1.0
 10
1.8594200000000001
 20
-3.3152600000000003
 30
0.0
 10
1.8314800000000002
 20
-3.4244800000000004
 30
0.0
 10
1.7095600000000002
 20
-3.5870400000000005
 30
0.0
 10
1.6308200000000002
 20
-3.6708600000000002
 30
0.0
 10
1.6308200000000002
 20
-3.6708600000000002
 30
0.0
 10
1.5774800000000002
 20
-3.4956000000000005
 30
0.0
 10
1.7781400000000001
 20
-3.4397200000000003
 30
0.0
 10
1.8594200000000001
 20
-3.3152600000000003
 30
0.0
  0
SPLINE
  5
78
100
AcDbEntity
  8
Ebene 1
 62
     7
100
AcDbSpline
210
0.0
220
0.0
230
1.0
 70
     1
 71
     3
 72
    24
 73
    20
 74
     0
 42
0.0000000001
 43
0.0000000001
 40
0.0
 40
0.0
 40
0.0
 40
0.0
 40
0.2
 40
0.2
 40
0.2
 40
0.2
 40
0.4
 40
0.4
 40
0.4
 40
0.4
 40
0.6000000000000001
 40
0.6000000000000001
 40
0.6000000000000001
 40
0.6000000000000001
 40
0.8
 40
0.8
 40
0.8
 40
0.8
 40
1.0
 40
1.0
 40
1.0
 40
1.0
 10
2.2328000000000001
 20
-3.3152600000000003
 30
0.0
 10
2.0981800000000002
 20
-3.5870400000000005
 30
0.0
 10
1.8035400000000001
 20
-3.8943800000000004
 30
0.0
 10
1.5622400000000001
 20
-4.1280600000000005
 30
0.0
 10
1.5622400000000001
 20
-4.1280600000000005
 30
0.0
 10
1.5368400000000002
 20
-3.8740600000000005
 30
0.0
 10
1.6689200000000002
 20
-3.6759400000000002
 30
0.0
 10
1.8441800000000002
 20
-3.5032200000000002
 30
0.0
 10
1.8441800000000002
 20
-3.5032200000000002
 30
0.0
 10
1.8441800000000002
 20
-3.5946600000000002
 30
0.0
 10
1.7095600000000002
 20
-3.6683200000000005
 30
0.0
 10
1.7375
 20
-3.7572200000000002
 30
0.0
 10
1.7375
 20
-3.7572200000000002
 30
0.0
 10
1.7375
 20
-3.7572200000000002
 30
0.0
 10
1.9788000000000001
 20
-3.4905200000000001
 30
0.0
 10
1.9788000000000001
 20
-3.4905200000000001
 30
0.0
 10
1.9788000000000001
 20
-3.4905200000000001
 30
0.0
 10
2.0194400000000003
 20
-3.6200600000000005
 30
0.0
 10
2.1515200000000001
 20
-3.3635200000000003
 30
0.0
 10
2.2328000000000001
 20
-3.3152600000000003
 30
0.0
  0
SPLINE
  5
79
100
AcDbEntity
  8
Ebene 1
 62
     7
100
AcDbSpline
210
0.0
220
0.0
230
1.0
 70
     1
 71
     3
 72
    24
 73
    20
 74
     0
 42
0.0000000001
 43
0.0000000001
 40
0.0
 40
0.0
 40
0.0
 40
0.0
 40
0.2
 40
0.2
 40
0.2
 40
0.2
 40
0.4
 40
0.4
 40
0.4
 40
0.4
 40
0.6000000000000001
 40
0.6000000000000001
 40
0.6000000000000001
 40
0.6000000000000001
 40
0.8
 40
0.8
 40
0.8
 40
0.8
 40
1.0
 40
1.0
 40
1.0
 40
1.0
 10
0.93486
 20
-3.9578800000000003
 30
0.0
 10
1.06694
 20
-4.1026600000000002
 30
0.0
 10
1.1761600000000001
 20
-4.3769800000000005
 30
0.0
 10
1.0415400000000001
 20
-4.5827200000000001
 30
0.0
 10
1.0415400000000001
 20
-4.5827200000000001
 30
0.0
 10
1.0415400000000001
 20
-4.5827200000000001
 30
0.0
 10
0.9729600000000001
 20
-4.5750999999999999
 30
0.0
 10
0.9729600000000001
 20
-4.5750999999999999
 30
0.0
 10
0.9729600000000001
 20
-4.5750999999999999
 30
0.0
 10
0.9475600000000001
 20
-4.6284400000000003
 30
0.0
 10
0.8942200000000001
 20
-4.6513
 30
0.0
 10
0.8383400000000001
 20
-4.6284400000000003
 30
0.0
 10
0.8383400000000001
 20
-4.6284400000000003
 30
0.0
 10
0.8383400000000001
 20
-4.6284400000000003
 30
0.0
 10
0.7723000000000001
 20
-4.6487600000000002
 30
0.0
 10
0.7723000000000001
 20
-4.6487600000000002
 30
0.0
 10
0.7723000000000001
 20
-4.6487600000000002
 30
0.0
 10
0.7469
 20
-4.4252400000000005
 30
0.0
 10
0.8662800000000001
 20
-4.1864800000000004
 30
0.0
 10
0.93486
 20
-3.9578800000000003
 30
0.0
  0
SPLINE
  5
7A
100
AcDbEntity
  8
Ebene 1
 62
     7
100
AcDbSpline
210
0.0
220
0.0
230
1.0
 70
     1
 71
     3
 72
    24
 73
    20
 74
     0
 42
0.0000000001
 43
0.0000000001
 40
0.0
 40
0.0
 40
0.0
 40
0.0
 40
0.2
 40
0.2
 40
0.2
 40
0.2
 40
0.4
 40
0.4
 40
0.4
 40
0.4
 40
0.6000000000000001
 40
0.6000000000000001
 40
0.6000000000000001
 40
0.6000000000000001
 40
0.8
 40
0.8
 40
0.8
 40
0.8
 40
1.0
 40
1.0
 40
1.0
 40
1.0
 10
-0.9396500000000001
 20
-4.7071800000000001
 30
0.0
 10
-0.91171
 20
-4.7097200000000008
 30
0.0
 10
-0.88631
 20
-4.6970200000000002
 30
0.0
 10
-0.8609100000000001
 20
-4.7249600000000003
 30
0.0
 10
-0.8609100000000001
 20
-4.7249600000000003
 30
0.0
 10
-0.99299
 20
-4.9942000000000002
 30
0.0
 10
-1.42225
 20
-5.0043600000000001
 30
0.0
 10
-1.6635500000000001
 20
-4.8824400000000008
 30
0.0
 10
-1.6635500000000001
 20
-4.8824400000000008
 30
0.0
 10
-1.7422900000000001
 20
-4.9891200000000007
 30
0.0
 10
-1.5162300000000002
 20
-5.0145200000000001
 30
0.0
 10
-1.4501900000000001
 20
-5.0424600000000002
 30
0.0
 10
-1.4501900000000001
 20
-5.0424600000000002
 30
0.0
 10
-1.6762500000000002
 20
-5.1161200000000004
 30
0.0
 10
-1.9988300000000001
 20
-5.0297600000000005
 30
0.0
 10
-2.0521700000000003
 20
-4.7630600000000003
 30
0.0
 10
-2.0521700000000003
 20
-4.7630600000000003
 30
0.0
 10
-1.6914900000000002
 20
-4.8443400000000008
 30
0.0
 10
-1.2876300000000001
 20
-4.82402
 30
0.0
 10
-0.9396500000000001
 20
-4.7071800000000001
 30
0.0
  0
SPLINE
  5
7B
100
AcDbEntity
  8
Ebene 1
 62
     7
100
AcDbSpline
210
0.0
220
0.0
230
1.0
 70
     1
 71
     3
 72
    20
 73
    16
 74
     0
 42
0.0000000001
 43
0.0000000001
 40
0.0
 40
0.0
 40
0.0
 40
0.0
 40
0.25
 40
0.25
 40
0.25
 40
0.25
 40
0.5
 40
0.5
 40
0.5
 40
0.5
 40
0.75
 40
0.75
 40
0.75
 40
0.75
 40
1.0
 40
1.0
 40
1.0
 40
1.0
 10
-2.6947900000000002
 20
-4.8291000000000004
 30
0.0
 10
-2.4026900000000002
 20
-5.0297600000000005
 30
0.0
 10
-2.01153
 20
-4.9840400000000002
 30
0.0
 10
-1.7422900000000001
 20
-5.24566
 30
0.0
 10
-1.7422900000000001
 20
-5.24566
 30
0.0
 10
-1.7422900000000001
 20
-5.24566
 30
0.0
 10
-1.7422900000000001
 20
-5.3066200000000006
 30
0.0
 10
-1.7422900000000001
 20
-5.3066200000000006
 30
0.0
 10
-1.7422900000000001
 20
-5.3066200000000006
 30
0.0
 10
-1.7422900000000001
 20
-5.3066200000000006
 30
0.0
 10
-1.9708900000000003
 20
-5.3244000000000007
 30
0.0
 10
-1.9708900000000003
 20
-5.3244000000000007
 30
0.0
 10
-1.9708900000000003
 20
-5.3244000000000007
 30
0.0
 10
-2.2401300000000002
 20
-5.1745400000000004
 30
0.0
 10
-2.5423900000000001
 20
-5.0932600000000008
 30
0.0
 10
-2.6947900000000002
 20
-4.8291000000000004
 30
0.0
  0
SPLINE
  5
7C
100
AcDbEntity
  8
Ebene 1
 62
     7
100
AcDbSpline
210
0.0
220
0.0
230
1.0
 70
     1
 71
     3
 72
    20
 73
    16
 74
     0
 42
0.0000000001
 43
0.0000000001
 40
0.0
 40
0.0
 40
0.0
 40
0.0
 40
0.25
 40
0.25
 40
0.25
 40
0.25
 40
0.5
 40
0.5
 40
0.5
 40
0.5
 40
0.75
 40
0.75
 40
0.75
 40
0.75
 40
1.0
 40
1.0
 40
1.0
 40
1.0
 10
0.8129400000000001
 20
-5.0018200000000004
 30
0.0
 10
0.82564
 20
-4.9967400000000008
 30
0.0
 10
0.8535800000000001
 20
-5.0094400000000006
 30
0.0
 10
0.8535800000000001
 20
-5.02468
 30
0.0
 10
0.8535800000000001
 20
-5.02468
 30
0.0
 10
0.6249800000000001
 20
-5.2888400000000004
 30
0.0
 10
0.5843400000000001
 20
-5.6444400000000003
 30
0.0
 10
0.47766
 20
-5.9543200000000001
 30
0.0
 10
0.47766
 20
-5.9543200000000001
 30
0.0
 10
0.42432
 20
-5.8882800000000008
 30
0.0
 10
0.39638
 20
-5.7993800000000002
 30
0.0
 10
0.38368
 20
-5.7130200000000002
 30
0.0
 10
0.38368
 20
-5.7130200000000002
 30
0.0
 10
0.5183000000000001
 20
-5.4615600000000004
 30
0.0
 10
0.63768
 20
-5.1897800000000007
 30
0.0
 10
0.8129400000000001
 20
-5.0018200000000004
 30
0.0
  0
SPLINE
  5
7D
100
AcDbEntity
  8
Ebene 1
 62
     7
100
AcDbSpline
210
0.0
220
0.0
230
1.0
 70
     1
 71
     3
 72
    12
 73
     8
 74
     0
 42
0.0000000001
 43
0.0000000001
 40
0.0
 40
0.0
 40
0.0
 40
0.0
 40
0.5
 40
0.5
 40
0.5
 40
0.5
 40
1.0
 40
1.0
 40
1.0
 40
1.0
 10
-2.5068300000000003
 20
-5.0958000000000006
 30
0.0
 10
-2.3112500000000002
 20
-5.2558200000000008
 30
0.0
 10
-2.0775700000000001
 20
-5.3752000000000004
 30
0.0
 10
-1.8515100000000002
 20
-5.4717200000000004
 30
0.0
 10
-1.8515100000000002
 20
-5.4717200000000004
 30
0.0
 10
-2.0928100000000001
 20
-5.4895000000000005
 30
0.0
 10
-2.3595100000000002
 20
-5.3142400000000007
 30
0.0
 10
-2.5068300000000003
 20
-5.0958000000000006
 30
0.0
  0
SPLINE
  5
7E
100
AcDbEntity
  8
Ebene 1
 62
     7
100
AcDbSpline
210
0.0
220
0.0
230
1.0
 70
     1
 71
     3
 72
    16
 73
    12
 74
     0
 42
0.0000000001
 43
0.0000000001
 40
0.0
 40
0.0
 40
0.0
 40
0.0
 40
0.3333333333333333
 40
0.3333333333333333
 40
0.3333333333333333
 40
0.3333333333333333
 40
0.6666666666666666
 40
0.6666666666666666
 40
0.6666666666666666
 40
0.6666666666666666
 40
1.0
 40
1.0
 40
1.0
 40
1.0
 10
-1.4349500000000002
 20
-5.3650400000000005
 30
0.0
 10
-1.4095500000000001
 20
-5.3980600000000001
 30
0.0
 10
-1.38161
 20
-5.4615600000000004
 30
0.0
 10
-1.38161
 20
-5.5199800000000003
 30
0.0
 10
-1.38161
 20
-5.5199800000000003
 30
0.0
 10
-1.38161
 20
-5.5199800000000003
 30
0.0
 10
-1.6356100000000002
 20
-5.6419000000000006
 30
0.0
 10
-1.6356100000000002
 20
-5.6419000000000006
 30
0.0
 10
-1.6356100000000002
 20
-5.6419000000000006
 30
0.0
 10
-1.6914900000000002
 20
-5.5225200000000001
 30
0.0
 10
-1.5568700000000002
 20
-5.37012
 30
0.0
 10
-1.4349500000000002
 20
-5.3650400000000005
 30
0.0
  0
SPLINE
  5
7F
100
AcDbEntity
  8
Ebene 1
 62
     7
100
AcDbSpline
210
0.0
220
0.0
230
1.0
 70
     1
 71
     3
 72
    16
 73
    12
 74
     0
 42
0.0000000001
 43
0.0000000001
 40
0.0
 40
0.0
 40
0.0
 40
0.0
 40
0.3333333333333333
 40
0.3333333333333333
 40
0.3333333333333333
 40
0.3333333333333333
 40
0.6666666666666666
 40
0.6666666666666666
 40
0.6666666666666666
 40
0.6666666666666666
 40
1.0
 40
1.0
 40
1.0
 40
1.0
 10
-1.75753
 20
-5.5504600000000002
 30
0.0
 10
-1.75753
 20
-5.5504600000000002
 30
0.0
 10
-1.6508500000000002
 20
-5.6876200000000008
 30
0.0
 10
-1.6508500000000002
 20
-5.6876200000000008
 30
0.0
 10
-1.6508500000000002
 20
-5.6876200000000008
 30
0.0
 10
-1.6508500000000002
 20
-5.6876200000000008
 30
0.0
 10
-1.6635500000000001
 20
-5.7079400000000007
 30
0.0
 10
-1.6635500000000001
 20
-5.7079400000000007
 30
0.0
 10
-1.6635500000000001
 20
-5.7079400000000007
 30
0.0
 10
-1.7422900000000001
 20
-5.7155600000000009
 30
0.0
 10
-1.8515100000000002
 20
-5.6165000000000003
 30
0.0
 10
-1.75753
 20
-5.5504600000000002
 30
0.0
  0
SPLINE
  5
80
100
AcDbEntity
  8
Ebene 1
 62
     7
100
AcDbSpline
210
0.0
220
0.0
230
1.0
 70
     1
 71
     3
 72
    20
 73
    16
 74
     0
 42
0.0000000001
 43
0.0000000001
 40
0.0
 40
0.0
 40
0.0
 40
0.0
 40
0.25
 40
0.25
 40
0.25
 40
0.25
 40
0.5
 40
0.5
 40
0.5
 40
0.5
 40
0.75
 40
0.75
 40
0.75
 40
0.75
 40
1.0
 40
1.0
 40
1.0
 40
1.0
 10
0.35828
 20
-5.8324000000000007
 30
0.0
 10
0.42432
 20
-5.9543200000000001
 30
0.0
 10
0.5183000000000001
 20
-6.1168800000000001
 30
0.0
 10
0.46496
 20
-6.2718200000000008
 30
0.0
 10
0.46496
 20
-6.2718200000000008
 30
0.0
 10
0.39638
 20
-6.2667400000000004
 30
0.0
 10
0.33034
 20
-6.2667400000000004
 30
0.0
 10
0.277
 20
-6.2311800000000002
 30
0.0
 10
0.277
 20
-6.2311800000000002
 30
0.0
 10
0.33034
 20
-6.2007000000000003
 30
0.0
 10
0.38368
 20
-6.1372000000000009
 30
0.0
 10
0.43702
 20
-6.0889400000000009
 30
0.0
 10
0.43702
 20
-6.0889400000000009
 30
0.0
 10
0.43702
 20
-6.0889400000000009
 30
0.0
 10
0.35828
 20
-5.8324000000000007
 30
0.0
 10
0.35828
 20
-5.8324000000000007
 30
0.0
  0
SPLINE
  5
81
100
AcDbEntity
  8
Ebene 1
 62
     7
100
AcDbSpline
210
0.0
220
0.0
230
1.0
 70
     1
 71
     3
 72
    16
 73
    12
 74
     0
 42
0.0000000001
 43
0.0000000001
 40
0.0
 40
0.0
 40
0.0
 40
0.0
 40
0.3333333333333333
 40
0.3333333333333333
 40
0.3333333333333333
 40
0.3333333333333333
 40
0.6666666666666666
 40
0.6666666666666666
 40
0.6666666666666666
 40
0.6666666666666666
 40
1.0
 40
1.0
 40
1.0
 40
1.0
 10
-1.5568700000000002
 20
-5.8476400000000002
 30
0.0
 10
-1.38161
 20
-6.0660800000000004
 30
0.0
 10
-0.95235
 20
-5.8324000000000007
 30
0.0
 10
-0.91171
 20
-6.1905400000000004
 30
0.0
 10
-0.91171
 20
-6.1905400000000004
 30
0.0
 10
-0.91171
 20
-6.1905400000000004
 30
0.0
 10
-0.99299
 20
-6.1372000000000009
 30
0.0
 10
-0.99299
 20
-6.1372000000000009
 30
0.0
 10
-0.99299
 20
-6.1372000000000009
 30
0.0
 10
-1.0615700000000001
 20
-5.8806600000000007
 30
0.0
 10
-1.38161
 20
-6.2235600000000009
 30
0.0
 10
-1.5568700000000002
 20
-5.8476400000000002
 30
0.0
  0
SPLINE
  5
82
100
AcDbEntity
  8
Ebene 1
 62
     7
100
AcDbSpline
210
0.0
220
0.0
230
1.0
 70
     1
 71
     3
 72
    44
 73
    40
 74
     0
 42
0.0000000001
 43
0.0000000001
 40
0.0
 40
0.0
 40
0.0
 40
0.0
 40
0.1
 40
0.1
 40
0.1
 40
0.1
 40
0.2
 40
0.2
 40
0.2
 40
0.2
 40
0.3
 40
0.3
 40
0.3
 40
0.3
 40
0.4
 40
0.4
 40
0.4
 40
0.4
 40
0.5
 40
0.5
 40
0.5
 40
0.5
 40
0.6
 40
0.6
 40
0.6
 40
0.6
 40
0.7
 40
0.7
 40
0.7
 40
0.7
 40
0.7999999999999999
 40
0.7999999999999999
 40
0.7999999999999999
 40
0.7999999999999999
 40
0.8999999999999999
 40
0.8999999999999999
 40
0.8999999999999999
 40
0.8999999999999999
 40
1.0
 40
1.0
 40
1.0
 40
1.0
 10
-0.37831
 20
-6.0330600000000008
 30
0.0
 10
-0.24369
 20
-6.1295800000000007
 30
0.0
 10
-0.04049
 20
-6.0533800000000006
 30
0.0
 10
0.08904
 20
-6.1956200000000008
 30
0.0
 10
0.08904
 20
-6.1956200000000008
 30
0.0
 10
0.08904
 20
-6.1956200000000008
 30
0.0
 10
-0.4164100000000001
 20
-6.1321200000000005
 30
0.0
 10
-0.4164100000000001
 20
-6.1321200000000005
 30
0.0
 10
-0.4164100000000001
 20
-6.1321200000000005
 30
0.0
 10
-0.44435
 20
-6.2032400000000001
 30
0.0
 10
-0.44435
 20
-6.2616600000000009
 30
0.0
 10
-0.5230900000000001
 20
-6.3023000000000007
 30
0.0
 10
-0.5230900000000001
 20
-6.3023000000000007
 30
0.0
 10
-0.5230900000000001
 20
-6.3023000000000007
 30
0.0
 10
-0.48499
 20
-6.3785000000000007
 30
0.0
 10
-0.48499
 20
-6.3785000000000007
 30
0.0
 10
-0.48499
 20
-6.3785000000000007
 30
0.0
 10
-0.33767
 20
-6.4242200000000009
 30
0.0
 10
-0.48499
 20
-6.6782200000000005
 30
0.0
 10
-0.6043700000000001
 20
-6.7036200000000008
 30
0.0
 10
-0.6043700000000001
 20
-6.7036200000000008
 30
0.0
 10
-0.6043700000000001
 20
-6.7036200000000008
 30
0.0
 10
-0.7262900000000001
 20
-6.4928000000000008
 30
0.0
 10
-0.7262900000000001
 20
-6.4928000000000008
 30
0.0
 10
-0.7262900000000001
 20
-6.4928000000000008
 30
0.0
 10
-0.7262900000000001
 20
-6.4928000000000008
 30
0.0
 10
-0.6856500000000001
 20
-6.4648600000000007
 30
0.0
 10
-0.6856500000000001
 20
-6.4648600000000007
 30
0.0
 10
-0.6856500000000001
 20
-6.4648600000000007
 30
0.0
 10
-0.6196100000000001
 20
-6.5944000000000003
 30
0.0
 10
-0.5230900000000001
 20
-6.673140000000001
 30
0.0
 10
-0.51039
 20
-6.4902600000000001
 30
0.0
 10
-0.51039
 20
-6.4902600000000001
 30
0.0
 10
-0.5789700000000001
 20
-6.3480200000000009
 30
0.0
 10
-0.59167
 20
-6.0483000000000002
 30
0.0
 10
-0.39101
 20
-6.0737000000000005
 30
0.0
 10
-0.39101
 20
-6.0737000000000005
 30
0.0
 10
-0.36307
 20
-6.0737000000000005
 30
0.0
 10
-0.37831
 20
-6.0457600000000005
 30
0.0
 10
-0.37831
 20
-6.0330600000000008
 30
0.0
  0
ENDSEC
  0
SECTION
  2
OBJECTS
  0
DICTIONARY
  5
19
100
AcDbDictionary
280
     0
281
     1
  3
ACAD_GROUP
350
1A
  3
ACAD_MLINESTYLE
350
1B
  3
ACAD_LAYOUT
350
1E
  3
ACAD_PLOTSETTINGS
350
22
  3
ACAD_PLOTSTYLENAME
350
1F
  3
ACAD_WIPEOUT_VARS
350
23
  0
DICTIONARY
  5
1A
102
{ACAD_REACTORS
330
19
102
}
100
AcDbDictionary
280
     0
281
     1
  0
DICTIONARY
  5
1B
102
{ACAD_REACTORS
330
19
102
}
100
AcDbDictionary
280
     0
281
     1
  3
Standard
350
1C
  0
MLINESTYLE
  5
1C
102
{ACAD_REACTORS
330
1B
102
}
100
AcDbMlineStyle
  2
Standard
 70
     0
  3

 62
     0
 51
90.0
 52
90.0
 71
     2
 49
0.5
 62
   256
  6
BYLAYER
 49
-0.5
 62
   256
  6
BYLAYER
  0
ACDBDICTIONARYWDFLT
  5
1F
102
{ACAD_REACTORS
330
19
102
}
100
AcDbDictionary
281
     1
  3
Normal
350
1D
100
AcDbDictionaryWithDefault
340
1D
  0
ACDBPLACEHOLDER
  5
1D
102
{ACAD_REACTORS
330
1F
102
}
  0
LAYOUT
  5
20
102
{ACAD_REACTORS
330
1E
102
}
100
AcDbPlotSettings
  1

  2

  4

  6

 40
0.0
 41
0.0
 42
0.0
 43
0.0
 44
0.0
 45
0.0
 46
0.0
 47
0.0
 48
0.0
 49
0.0
140
0.0
141
0.0
142
1.0
143
1.0
 70
  1024
 72
     0
 73
     0
 74
     0
  7

 75
     0
147
1.0
148
0.0
149
0.0
100
AcDbLayout
  1
Model
 70
     0
 71
     0
 10
0.0
 20
0.0
 11
0.0
 21
0.0
 12
0.0
 22
0.0
 32
0.0
 14
0.0
 24
0.0
 34
0.0
 15
0.0
 25
0.0
 35
0.0
146
0.0
 13
0.0
 23
0.0
 33
0.0
 16
0.0
 26
0.0
 36
0.0
 17
0.0
 27
0.0
 37
0.0
 76
     0
330
A
331
0
345
0
346
0
  0
LAYOUT
  5
21
102
{ACAD_REACTORS
330
1E
102
}
100
AcDbPlotSettings
  1

  2

  4

  6

 40
0.0
 41
0.0
 42
0.0
 43
0.0
 44
0.0
 45
0.0
 46
0.0
 47
0.0
 48
0.0
 49
0.0
140
0.0
141
0.0
142
1.0
143
1.0
 70
     0
 72
     0
 73
     0
 74
     0
  7

 75
     0
147
1.0
148
0.0
149
0.0
100
AcDbLayout
  1
Layout1
 70
     0
 71
     0
 10
0.0
 20
0.0
 11
0.0
 21
0.0
 12
0.0
 22
0.0
 32
0.0
 14
0.0
 24
0.0
 34
0.0
 15
0.0
 25
0.0
 35
0.0
146
0.0
 13
0.0
 23
0.0
 33
0.0
 16
0.0
 26
0.0
 36
0.0
 17
0.0
 27
0.0
 37
0.0
 76
     0
330
B
331
0
345
0
346
0
  0
DICTIONARY
  5
1E
102
{ACAD_REACTORS
330
19
102
}
100
AcDbDictionary
280
     0
281
     1
  3
Layout1
350
21
  3
Model
350
20
  0
DICTIONARY
  5
22
102
{ACAD_REACTORS
330
19
102
}
100
AcDbDictionary
280
     0
281
     1
  0
WIPEOUTVARIABLES
  5
23
100
AcDbWipeoutVariables
 70
     1
  0
ENDSEC
  0
EOF
