  0
SECTION
  2
HEADER
  9
$ACADVER
  1
AC1015
  9
$ACADMAINTVER
 70
     6
  9
$DWGCODEPAGE
  3
DOS850
  9
$INSBASE
 10
0.0
 20
0.0
 30
0.0
  9
$EXTMIN
 10
-6.0333
 20
-5.40314
 30
1.000000E+20
  9
$EXTMAX
 10
6.03772
 20
5.39691
 30
-1.000000E+20
  9
$LIMMIN
 10
0.0
 20
0.0
  9
$LIMMAX
 10
0.0
 20
0.0
  9
$ORTHOMODE
 70
     0
  9
$REGENMODE
 70
     1
  9
$FILLMODE
 70
     1
  9
$QTEXTMODE
 70
     0
  9
$MIRRTEXT
 70
     1
  9
$LTSCALE
 40
1.0
  9
$ATTMODE
 70
     1
  9
$TEXTSIZE
 40
0.2
  9
$TRACEWID
 40
0.05
  9
$TEXTSTYLE
  7
Standard
  9
$CLAYER
  8
0
  9
$CELTYPE
  6
Continuous
  9
$CECOLOR
 62
   256
  9
$CELTSCALE
 40
1.0
  9
$DISPSILH
 70
     0
  9
$DIMSCALE
 40
1.0
  9
$DIMASZ
 40
0.18
  9
$DIMEXO
 40
0.0625
  9
$DIMDLI
 40
0.38
  9
$DIMRND
 40
0.0
  9
$DIMDLE
 40
0.0
  9
$DIMEXE
 40
0.18
  9
$DIMTP
 40
0.0
  9
$DIMTM
 40
0.0
  9
$DIMTXT
 40
0.18
  9
$DIMCEN
 40
0.09
  9
$DIMTSZ
 40
0.0
  9
$DIMTOL
 70
     0
  9
$DIMLIM
 70
     0
  9
$DIMTIH
 70
     1
  9
$DIMTOH
 70
     1
  9
$DIMSE1
 70
     0
  9
$DIMSE2
 70
     0
  9
$DIMTAD
 70
     0
  9
$DIMZIN
 70
     0
  9
$DIMBLK
  1

  9
$DIMASO
 70
     1
  9
$DIMSHO
 70
     1
  9
$DIMPOST
  1

  9
$DIMAPOST
  1

  9
$DIMALT
 70
     0
  9
$DIMALTD
 70
     2
  9
$DIMALTF
 40
25.4
  9
$DIMLFAC
 40
1.0
  9
$DIMTOFL
 70
     0
  9
$DIMTVP
 40
0.0
  9
$DIMTIX
 70
     0
  9
$DIMSOXD
 70
     0
  9
$DIMSAH
 70
     0
  9
$DIMBLK1
  1

  9
$DIMBLK2
  1

  9
$DIMSTYLE
  2
Standard
  9
$DIMCLRD
 70
     0
  9
$DIMCLRE
 70
     0
  9
$DIMCLRT
 70
     0
  9
$DIMTFAC
 40
1.0
  9
$DIMGAP
 40
0.09
  9
$DIMJUST
 70
     0
  9
$DIMSD1
 70
     0
  9
$DIMSD2
 70
     0
  9
$DIMTOLJ
 70
     1
  9
$DIMTZIN
 70
     0
  9
$DIMALTZ
 70
     0
  9
$DIMALTTZ
 70
     0
  9
$DIMUPT
 70
     0
  9
$DIMDEC
 70
     4
  9
$DIMTDEC
 70
     4
  9
$DIMALTU
 70
     2
  9
$DIMALTTD
 70
     2
  9
$DIMTXSTY
  7
Standard
  9
$DIMAUNIT
 70
     0
  9
$DIMADEC
 70
     0
  9
$DIMALTRND
 40
0.0
  9
$DIMAZIN
 70
     0
  9
$DIMDSEP
 70
     0
  9
$DIMATFIT
 70
     3
  9
$DIMFRAC
 70
     0
  9
$DIMLDRBLK
  1

  9
$DIMLUNIT
 70
     2
  9
$DIMLWD
 70
     0
  9
$DIMLWE
 70
     0
  9
$DIMTMOVE
 70
     0
  9
$LUNITS
 70
     2
  9
$LUPREC
 70
     4
  9
$SKETCHINC
 40
0.1
  9
$FILLETRAD
 40
0.0
  9
$AUNITS
 70
     0
  9
$AUPREC
 70
     0
  9
$MENU
  1
acad
  9
$ELEVATION
 40
0.0
  9
$PELEVATION
 40
0.0
  9
$THICKNESS
 40
0.0
  9
$LIMCHECK
 70
     0
  9
$CHAMFERA
 40
0.0
  9
$CHAMFERB
 40
0.0
  9
$CHAMFERC
 40
0.0
  9
$CHAMFERD
 40
0.0
  9
$SKPOLY
 70
     0
  9
$TDCREATE
 40
0.000000000
  9
$TDUCREATE
 40
0.000000000
  9
$TDUPDATE
 40
0.000000000
  9
$TDUUPDATE
 40
0.000000000
  9
$TDINDWG
 40
0.0000000000
  9
$TDUSRTIMER
 40
0.0000000000
  9
$USRTIMER
 70
     1
  9
$ANGBASE
 50
0.0
  9
$ANGDIR
 70
     0
  9
$PDMODE
 70
     0
  9
$PDSIZE
 40
0.0
  9
$PLINEWID
 40
0.0
  9
$SPLFRAME
 70
     0
  9
$SPLINETYPE
 70
     6
  9
$SPLINESEGS
 70
     8
  9
$HANDSEED
  5
5B
  9
$SURFTAB1
 70
     6
  9
$SURFTAB2
 70
     6
  9
$SURFTYPE
 70
     6
  9
$SURFU
 70
     6
  9
$SURFV
 70
     6
  9
$UCSBASE
  2

  9
$UCSNAME
  2

  9
$UCSORG
 10
0.0
 20
0.0
 30
0.0
  9
$UCSXDIR
 10
1.0
 20
0.0
 30
0.0
  9
$UCSYDIR
 10
0.0
 20
1.0
 30
0.0
  9
$UCSORTHOREF
  2

  9
$UCSORTHOVIEW
 70
     0
  9
$UCSORGTOP
 10
0.0
 20
0.0
 30
0.0
  9
$UCSORGBOTTOM
 10
0.0
 20
0.0
 30
0.0
  9
$UCSORGLEFT
 10
0.0
 20
0.0
 30
0.0
  9
$UCSORGRIGHT
 10
0.0
 20
0.0
 30
0.0
  9
$UCSORGFRONT
 10
0.0
 20
0.0
 30
0.0
  9
$UCSORGBACK
 10
0.0
 20
0.0
 30
0.0
  9
$PUCSBASE
  2

  9
$PUCSNAME
  2

  9
$PUCSORG
 10
0.0
 20
0.0
 30
0.0
  9
$PUCSXDIR
 10
1.0
 20
0.0
 30
0.0
  9
$PUCSYDIR
 10
0.0
 20
1.0
 30
0.0
  9
$PUCSORTHOREF
  2

  9
$PUCSORTHOVIEW
 70
     0
  9
$PUCSORGTOP
 10
0.0
 20
0.0
 30
0.0
  9
$PUCSORGBOTTOM
 10
0.0
 20
0.0
 30
0.0
  9
$PUCSORGLEFT
 10
0.0
 20
0.0
 30
0.0
  9
$PUCSORGRIGHT
 10
0.0
 20
0.0
 30
0.0
  9
$PUCSORGFRONT
 10
0.0
 20
0.0
 30
0.0
  9
$PUCSORGBACK
 10
0.0
 20
0.0
 30
0.0
  9
$USERI1
 70
     0
  9
$USERI2
 70
     0
  9
$USERI3
 70
     0
  9
$USERI4
 70
     0
  9
$USERI5
 70
     0
  9
$USERR1
 40
0.0
  9
$USERR2
 40
0.0
  9
$USERR3
 40
0.0
  9
$USERR4
 40
0.0
  9
$USERR5
 40
0.0
  9
$WORLDVIEW
 70
     1
  9
$SHADEDGE
 70
     3
  9
$SHADEDIF
 70
    70
  9
$TILEMODE
 70
     1
  9
$MAXACTVP
 70
    16
  9
$PINSBASE
 10
0.0
 20
0.0
 30
0.0
  9
$PLIMCHECK
 70
     0
  9
$PEXTMIN
 10
1.000000E+20
 20
1.000000E+20
 30
1.000000E+20
  9
$PEXTMAX
 10
-1.000000E+20
 20
-1.000000E+20
 30
-1.000000E+20
  9
$PLIMMIN
 10
0.0
 20
0.0
  9
$PLIMMAX
 10
12.0
 20
9.0
  9
$UNITMODE
 70
     0
  9
$VISRETAIN
 70
     0
  9
$PLINEGEN
 70
     1
  9
$PSLTSCALE
 70
     0
  9
$TREEDEPTH
 70
  3020
  9
$CMLSTYLE
  2
Standard
  9
$CMLJUST
 70
     0
  9
$CMLSCALE
 40
1.0
  9
$PROXYGRAPHICS
 70
     0
  9
$MEASUREMENT
 70
     0
  9
$CELWEIGHT
370
     0
  9
$ENDCAPS
280
     0
  9
$JOINSTYLE
280
     0
  9
$LWDISPLAY
290
     0
  9
$INSUNITS
 70
     5
  9
$HYPERLINKBASE
  1

  9
$XEDIT
290
     1
  9
$CEPSNTYPE
380
     0
  9
$PSTYLEMODE
290
     1
  9
$FINGERPRINTGUID
  2

  9
$VERSIONGUID
  2

  9
$EXTNAMES
290
     1
  9
$PSVPSCALE
 40
0.0
  0
ENDSEC
  0
SECTION
  2
CLASSES
  0
CLASS
  1
LWPOLYLINE
  2
AcDbPolyline
  3
AutoCAD 2000
 90
    32768
280
     0
281
     1
  0
CLASS
  1
IMAGE
  2
AcDbRasterImage
  3
ISM
 90
    32895
280
     0
281
     1
  0
CLASS
  1
OLE2FRAME
  2
AcDbOle2Frame
  3
AutoCAD 2000
 90
    32768
280
     0
281
     1
  0
CLASS
  1
HATCH
  2
AcDbHatch
  3
AutoCAD 2000
 90
    32768
280
     0
281
     1
  0
CLASS
  1
DICTIONARYVAR
  2
AcDbDictionaryVar
  3
AutoCAD 2000
 90
    32768
280
     0
281
     0
  0
CLASS
  1
RASTERVARIABLES
  2
AcDbRasterVariables
  3
ISM
 90
    32768
280
     0
281
     0
  0
CLASS
  1
IMAGEDEF
  2
AcDbRasterImageDef
  3
ISM
 90
    32768
280
     0
281
     0
  0
CLASS
  1
IMAGEDEF_REACTOR
  2
AcDbRasterImageDefReactor
  3
ISM
 90
    32769
280
     0
281
     0
  0
CLASS
  1
IDBUFFER
  2
AcDbIdBuffer
  3
AutoCAD 2000
 90
    32768
280
     0
281
     0
  0
CLASS
  1
SPATIAL_FILTER
  2
AcDbSpatialFilter
  3
AutoCAD 2000
 90
    32768
280
     0
281
     0
  0
CLASS
  1
XRECORD
  2
AcDbXrecord
  3
AutoCAD 2000
 90
    32768
280
     0
281
     0
  0
CLASS
  1
SORTENTSTABLE
  2
AcDbSortentsTable
  3
AutoCAD 2000
 90
    32768
280
     0
281
     0
  0
CLASS
  1
LAYER_INDEX
  2
AcDbLayerIndex
  3
AutoCAD 2000
 90
    32768
280
     0
281
     0
  0
CLASS
  1
SPATIAL_INDEX
  2
AcDbSpatialIndex
  3
AutoCAD 2000
 90
    32768
280
     0
281
     0
  0
CLASS
  1
OBJECT_PTR
  2
CAseDLPNTableRecord
  3
"ASE-LPNTableRecord"
 90
    32769
280
     0
281
     0
  0
CLASS
  1
LAYOUT
  2
AcDbLayout
  3
AutoCAD 2000
 90
        0
280
     0
281
     0
  0
CLASS
  1
PLOTSETTINGS
  2
AcDbPlotSettings
  3
AutoCAD 2000
 90
    32768
280
     0
281
     0
  0
CLASS
  1
ACDBDICTIONARYWDFLT
  2
AcDbDictionaryWithDefault
  3
AutoCAD 2000
 90
        0
280
     0
281
     0
  0
CLASS
  1
ACDBPLACEHOLDER
  2
AcDbPlaceHolder
  3
AutoCAD 2000
 90
        0
280
     0
281
     0
  0
CLASS
  1
VBA_PROJECT
  2
AcDbVbaProject
  3
acadvba
 90
    32768
280
     0
281
     0
  0
CLASS
  1
WIPEOUT
  2
AcDbWipeout
  3
WipeOut|AutoCAD Express Tool|expresstools@autodesk.com
 90
    32895
280
     0
281
     1
  0
CLASS
  1
WIPEOUTVARIABLES
  2
AcDbWipeoutVariables
  3
WipeOut|AutoCAD Express Tool|expresstools@autodesk.com
 90
        0
280
     0
281
     0
  0
CLASS
  1
RTEXT
  2
RText
  3
RText|AutoCAD Express Tool|expresstools@autodesk.com
 90
    32768
280
     0
281
     1
  0
CLASS
  1
ARCALIGNEDTEXT
  2
AcDbArcAlignedText
  3
ATEXT|AutoCAD Express Tool|expresstools@autodesk.com
 90
    32768
280
     0
281
     1
  0
ENDSEC
  0
SECTION
  2
TABLES
  0
TABLE
  2
VPORT
  5
7
100
AcDbSymbolTable
 70
     1
  0
VPORT
  5
15
100
AcDbSymbolTableRecord
100
AcDbViewportTableRecord
  2
*ACTIVE
 70
     0
 10
0.0
 20
0.0
 11
1.0
 21
1.0
 12
6.591288
 22
4.579184
 13
0.0
 23
0.0
 14
1.0
 24
1.0
 15
0.0
 25
0.0
 16
0.0
 26
0.0
 36
1.0
 17
0.0
 27
0.0
 37
0.0
 40
9.158369
 41
0.688564
 42
50.0
 43
0.0
 44
0.0
 50
0.0
 51
0.0
 71
     0
 72
   100
 73
     1
 74
     1
 75
     0
 76
     0
 77
     0
 78
     0
281
     0
 65
     0
110
0.0
120
0.0
130
0.0
111
1.0
121
0.0
131
0.0
112
0.0
122
1.0
132
0.0
345
0
346
0
 79
     0
146
0.0
  0
ENDTAB
  0
TABLE
  2
LTYPE
  5
4
100
AcDbSymbolTable
 70
     3
  0
LTYPE
  5
11
100
AcDbSymbolTableRecord
100
AcDbLinetypeTableRecord
  2
ByBlock
 70
    64
  3

 72
    65
 73
     0
 40
0.0
  0
LTYPE
  5
12
100
AcDbSymbolTableRecord
100
AcDbLinetypeTableRecord
  2
ByLayer
 70
    64
  3

 72
    65
 73
     0
 40
0.0
  0
LTYPE
  5
13
100
AcDbSymbolTableRecord
100
AcDbLinetypeTableRecord
  2
Continuous
 70
    64
  3
Solid line
 72
    65
 73
     0
 40
0.0
  0
ENDTAB
  0
TABLE
  2
LAYER
  5
2
100
AcDbSymbolTable
 70
     2
  0
LAYER
  5
14
100
AcDbSymbolTableRecord
100
AcDbLayerTableRecord
  2
0
 70
     0
 62
     7
  6
Continuous
290
     1
370
    -3
390
1D
  0
LAYER
  5
24
100
AcDbSymbolTableRecord
100
AcDbLayerTableRecord
  2
Ebene 1
 70
     0
 62
     7
  6
Continuous
290
     1
370
    -3
390
1F
  0
ENDTAB
  0
TABLE
  2
STYLE
  5
3
100
AcDbSymbolTable
 70
     1
  0
STYLE
  5
17
100
AcDbSymbolTableRecord
100
AcDbTextStyleTableRecord
  2
Standard
 70
     0
 40
0.0
 41
1.0
 50
0.0
 71
     0
 42
0.0
  3
txt
  4

  0
ENDTAB
  0
TABLE
  2
VIEW
  5
5
100
AcDbSymbolTable
 70
     0
  0
ENDTAB
  0
TABLE
  2
UCS
  5
6
100
AcDbSymbolTable
 70
     0
  0
ENDTAB
  0
TABLE
  2
APPID
  5
8
100
AcDbSymbolTable
 70
     1
  0
APPID
  5
16
100
AcDbSymbolTableRecord
100
AcDbRegAppTableRecord
  2
ACAD
 70
     0
  0
ENDTAB
  0
TABLE
  2
DIMSTYLE
  5
9
100
AcDbSymbolTable
 70
     1
100
AcDbDimStyleTable
 71
     0
  0
DIMSTYLE
105
18
100
AcDbSymbolTableRecord
100
AcDbDimStyleTableRecord
  2
Standard
 70
     0
  3

  4

 40
1.0
 41
0.18
 42
0.0625
 43
0.38
 44
0.18
 45
0.0
 46
0.0
 47
0.0
 48
0.0
 71
     0
 72
     0
 73
     1
 74
     1
 75
     0
 76
     0
 77
     0
 78
     0
 79
     0
140
0.18
141
0.09
142
0.0
143
25.4
144
1.0
145
0.0
146
1.0
147
0.09
148
0.0
170
     0
171
     2
172
     0
173
     0
174
     0
175
     0
176
     0
177
     0
178
     0
179
     0
271
     4
272
     4
273
     2
274
     2
275
     0
276
     0
277
     2
278
    46
279
     0
280
     0
281
     0
282
     0
283
     1
284
     0
285
     0
286
     0
288
     0
340
17
341
0
342
0
343
0
344
0
371
    -2
372
    -2
  0
ENDTAB
  0
TABLE
  2
BLOCK_RECORD
  5
1
100
AcDbSymbolTable
 70
     0
  0
BLOCK_RECORD
  5
A
100
AcDbSymbolTableRecord
100
AcDbBlockTableRecord
  2
*MODEL_SPACE
340
20
  0
BLOCK_RECORD
  5
B
100
AcDbSymbolTableRecord
100
AcDbBlockTableRecord
  2
*PAPER_SPACE
340
21
  0
ENDTAB
  0
ENDSEC
  0
SECTION
  2
BLOCKS
  0
BLOCK
  5
D
100
AcDbEntity
  8
0
100
AcDbBlockBegin
  2
*MODEL_SPACE
 70
     0
 10
0.0
 20
0.0
 30
0.0
  3
*MODEL_SPACE
  1

  0
ENDBLK
  5
E
100
AcDbEntity
  8
0
100
AcDbBlockEnd
  0
BLOCK
  5
F
100
AcDbEntity
 67
     1
  8
0
100
AcDbBlockBegin
  2
*PAPER_SPACE
 70
     0
 10
0.0
 20
0.0
 30
0.0
  3
*PAPER_SPACE
  1

  0
ENDBLK
  5
10
100
AcDbEntity
 67
     1
  8
0
100
AcDbBlockEnd
  0
ENDSEC
  0
SECTION
  2
ENTITIES
  0
SPLINE
  5
25
100
AcDbEntity
  8
Ebene 1
100
AcDbSpline
210
0.0
220
0.0
230
1.0
 70
     1
 71
     3
 72
   300
 73
   296
 74
     0
 42
0.0000000001
 43
0.0000000001
 40
0.0
 40
0.0
 40
0.0
 40
0.0
 40
0.0135135135135135
 40
0.0135135135135135
 40
0.0135135135135135
 40
0.0135135135135135
 40
0.027027027027027
 40
0.027027027027027
 40
0.027027027027027
 40
0.027027027027027
 40
0.0405405405405405
 40
0.0405405405405405
 40
0.0405405405405405
 40
0.0405405405405405
 40
0.0540540540540541
 40
0.0540540540540541
 40
0.0540540540540541
 40
0.0540540540540541
 40
0.0675675675675676
 40
0.0675675675675676
 40
0.0675675675675676
 40
0.0675675675675676
 40
0.0810810810810811
 40
0.0810810810810811
 40
0.0810810810810811
 40
0.0810810810810811
 40
0.0945945945945946
 40
0.0945945945945946
 40
0.0945945945945946
 40
0.0945945945945946
 40
0.1081081081081081
 40
0.1081081081081081
 40
0.1081081081081081
 40
0.1081081081081081
 40
0.1216216216216216
 40
0.1216216216216216
 40
0.1216216216216216
 40
0.1216216216216216
 40
0.1351351351351351
 40
0.1351351351351351
 40
0.1351351351351351
 40
0.1351351351351351
 40
0.1486486486486487
 40
0.1486486486486487
 40
0.1486486486486487
 40
0.1486486486486487
 40
0.1621621621621622
 40
0.1621621621621622
 40
0.1621621621621622
 40
0.1621621621621622
 40
0.1756756756756757
 40
0.1756756756756757
 40
0.1756756756756757
 40
0.1756756756756757
 40
0.1891891891891892
 40
0.1891891891891892
 40
0.1891891891891892
 40
0.1891891891891892
 40
0.2027027027027027
 40
0.2027027027027027
 40
0.2027027027027027
 40
0.2027027027027027
 40
0.2162162162162162
 40
0.2162162162162162
 40
0.2162162162162162
 40
0.2162162162162162
 40
0.2297297297297297
 40
0.2297297297297297
 40
0.2297297297297297
 40
0.2297297297297297
 40
0.2432432432432433
 40
0.2432432432432433
 40
0.2432432432432433
 40
0.2432432432432433
 40
0.2567567567567568
 40
0.2567567567567568
 40
0.2567567567567568
 40
0.2567567567567568
 40
0.2702702702702703
 40
0.2702702702702703
 40
0.2702702702702703
 40
0.2702702702702703
 40
0.2837837837837838
 40
0.2837837837837838
 40
0.2837837837837838
 40
0.2837837837837838
 40
0.2972972972972973
 40
0.2972972972972973
 40
0.2972972972972973
 40
0.2972972972972973
 40
0.3108108108108107
 40
0.3108108108108107
 40
0.3108108108108107
 40
0.3108108108108107
 40
0.3243243243243242
 40
0.3243243243243242
 40
0.3243243243243242
 40
0.3243243243243242
 40
0.3378378378378377
 40
0.3378378378378377
 40
0.3378378378378377
 40
0.3378378378378377
 40
0.3513513513513512
 40
0.3513513513513512
 40
0.3513513513513512
 40
0.3513513513513512
 40
0.3648648648648647
 40
0.3648648648648647
 40
0.3648648648648647
 40
0.3648648648648647
 40
0.3783783783783782
 40
0.3783783783783782
 40
0.3783783783783782
 40
0.3783783783783782
 40
0.3918918918918917
 40
0.3918918918918917
 40
0.3918918918918917
 40
0.3918918918918917
 40
0.4054054054054052
 40
0.4054054054054052
 40
0.4054054054054052
 40
0.4054054054054052
 40
0.4189189189189186
 40
0.4189189189189186
 40
0.4189189189189186
 40
0.4189189189189186
 40
0.4324324324324321
 40
0.4324324324324321
 40
0.4324324324324321
 40
0.4324324324324321
 40
0.4459459459459456
 40
0.4459459459459456
 40
0.4459459459459456
 40
0.4459459459459456
 40
0.4594594594594591
 40
0.4594594594594591
 40
0.4594594594594591
 40
0.4594594594594591
 40
0.4729729729729726
 40
0.4729729729729726
 40
0.4729729729729726
 40
0.4729729729729726
 40
0.4864864864864861
 40
0.4864864864864861
 40
0.4864864864864861
 40
0.4864864864864861
 40
0.4999999999999996
 40
0.4999999999999996
 40
0.4999999999999996
 40
0.4999999999999996
 40
0.513513513513513
 40
0.513513513513513
 40
0.513513513513513
 40
0.513513513513513
 40
0.5270270270270265
 40
0.5270270270270265
 40
0.5270270270270265
 40
0.5270270270270265
 40
0.54054054054054
 40
0.54054054054054
 40
0.54054054054054
 40
0.54054054054054
 40
0.5540540540540535
 40
0.5540540540540535
 40
0.5540540540540535
 40
0.5540540540540535
 40
0.567567567567567
 40
0.567567567567567
 40
0.567567567567567
 40
0.567567567567567
 40
0.5810810810810805
 40
0.5810810810810805
 40
0.5810810810810805
 40
0.5810810810810805
 40
0.594594594594594
 40
0.594594594594594
 40
0.594594594594594
 40
0.594594594594594
 40
0.6081081081081075
 40
0.6081081081081075
 40
0.6081081081081075
 40
0.6081081081081075
 40
0.6216216216216209
 40
0.6216216216216209
 40
0.6216216216216209
 40
0.6216216216216209
 40
0.6351351351351344
 40
0.6351351351351344
 40
0.6351351351351344
 40
0.6351351351351344
 40
0.6486486486486479
 40
0.6486486486486479
 40
0.6486486486486479
 40
0.6486486486486479
 40
0.6621621621621614
 40
0.6621621621621614
 40
0.6621621621621614
 40
0.6621621621621614
 40
0.6756756756756749
 40
0.6756756756756749
 40
0.6756756756756749
 40
0.6756756756756749
 40
0.6891891891891884
 40
0.6891891891891884
 40
0.6891891891891884
 40
0.6891891891891884
 40
0.7027027027027019
 40
0.7027027027027019
 40
0.7027027027027019
 40
0.7027027027027019
 40
0.7162162162162153
 40
0.7162162162162153
 40
0.7162162162162153
 40
0.7162162162162153
 40
0.7297297297297288
 40
0.7297297297297288
 40
0.7297297297297288
 40
0.7297297297297288
 40
0.7432432432432423
 40
0.7432432432432423
 40
0.7432432432432423
 40
0.7432432432432423
 40
0.7567567567567558
 40
0.7567567567567558
 40
0.7567567567567558
 40
0.7567567567567558
 40
0.7702702702702693
 40
0.7702702702702693
 40
0.7702702702702693
 40
0.7702702702702693
 40
0.7837837837837828
 40
0.7837837837837828
 40
0.7837837837837828
 40
0.7837837837837828
 40
0.7972972972972963
 40
0.7972972972972963
 40
0.7972972972972963
 40
0.7972972972972963
 40
0.8108108108108098
 40
0.8108108108108098
 40
0.8108108108108098
 40
0.8108108108108098
 40
0.8243243243243232
 40
0.8243243243243232
 40
0.8243243243243232
 40
0.8243243243243232
 40
0.8378378378378367
 40
0.8378378378378367
 40
0.8378378378378367
 40
0.8378378378378367
 40
0.8513513513513502
 40
0.8513513513513502
 40
0.8513513513513502
 40
0.8513513513513502
 40
0.8648648648648637
 40
0.8648648648648637
 40
0.8648648648648637
 40
0.8648648648648637
 40
0.8783783783783772
 40
0.8783783783783772
 40
0.8783783783783772
 40
0.8783783783783772
 40
0.8918918918918907
 40
0.8918918918918907
 40
0.8918918918918907
 40
0.8918918918918907
 40
0.9054054054054042
 40
0.9054054054054042
 40
0.9054054054054042
 40
0.9054054054054042
 40
0.9189189189189176
 40
0.9189189189189176
 40
0.9189189189189176
 40
0.9189189189189176
 40
0.9324324324324311
 40
0.9324324324324311
 40
0.9324324324324311
 40
0.9324324324324311
 40
0.9459459459459446
 40
0.9459459459459446
 40
0.9459459459459446
 40
0.9459459459459446
 40
0.9594594594594581
 40
0.9594594594594581
 40
0.9594594594594581
 40
0.9594594594594581
 40
0.9729729729729716
 40
0.9729729729729716
 40
0.9729729729729716
 40
0.9729729729729716
 40
0.9864864864864851
 40
0.9864864864864851
 40
0.9864864864864851
 40
0.9864864864864851
 40
1.0
 40
1.0
 40
1.0
 40
1.0
 10
3.1421200000000002
 20
1.3253100000000002
 30
0.0
 10
3.1624400000000001
 20
1.3303900000000002
 30
0.0
 10
3.1573600000000002
 20
1.3481700000000001
 30
0.0
 10
3.13958
 20
1.3456300000000001
 30
0.0
 10
3.13958
 20
1.3456300000000001
 30
0.0
 10
3.0633800000000004
 20
1.4091300000000002
 30
0.0
 10
2.9236800000000001
 20
1.39897
 30
0.0
 10
2.8881200000000002
 20
1.2922900000000002
 30
0.0
 10
2.8881200000000002
 20
1.2922900000000002
 30
0.0
 10
2.9490800000000004
 20
1.0052700000000001
 30
0.0
 10
3.2411800000000004
 20
0.8630300000000001
 30
0.0
 10
3.2869000000000002
 20
0.55061
 30
0.0
 10
3.2869000000000002
 20
0.55061
 30
0.0
 10
3.2869000000000002
 20
0.55061
 30
0.0
 10
3.3351600000000001
 20
0.32201
 30
0.0
 10
3.3351600000000001
 20
0.32201
 30
0.0
 10
3.3351600000000001
 20
0.32201
 30
0.0
 10
3.0354400000000004
 20
0.01721
 30
0.0
 10
3.0964
 20
-0.36886
 30
0.0
 10
3.2970600000000001
 20
-0.7295400000000001
 30
0.0
 10
3.2970600000000001
 20
-0.7295400000000001
 30
0.0
 10
3.2970600000000001
 20
-0.7295400000000001
 30
0.0
 10
3.1522800000000002
 20
-1.00132
 30
0.0
 10
3.1522800000000002
 20
-1.00132
 30
0.0
 10
3.1522800000000002
 20
-1.00132
 30
0.0
 10
3.5129600000000001
 20
-1.4661400000000002
 30
0.0
 10
3.5967800000000003
 20
-2.5329400000000004
 30
0.0
 10
3.0735400000000004
 20
-2.6421600000000001
 30
0.0
 10
3.0735400000000004
 20
-2.6421600000000001
 30
0.0
 10
3.3427800000000003
 20
-3.1501600000000001
 30
0.0
 10
2.7814400000000004
 20
-3.2670000000000003
 30
0.0
 10
2.4918800000000001
 20
-3.4270200000000002
 30
0.0
 10
2.4918800000000001
 20
-3.4270200000000002
 30
0.0
 10
2.5401400000000001
 20
-3.8410400000000005
 30
0.0
 10
3.1522800000000002
 20
-4.4354000000000005
 30
0.0
 10
2.4563200000000003
 20
-4.6817800000000007
 30
0.0
 10
2.4563200000000003
 20
-4.6817800000000007
 30
0.0
 10
2.3064600000000004
 20
-4.9332400000000005
 30
0.0
 10
2.6900000000000004
 20
-5.2151800000000001
 30
0.0
 10
2.3648800000000003
 20
-5.4031400000000005
 30
0.0
 10
2.3648800000000003
 20
-5.4031400000000005
 30
0.0
 10
1.9203800000000002
 20
-5.3955200000000003
 30
0.0
 10
1.4657200000000001
 20
-5.2507400000000004
 30
0.0
 10
1.0034400000000001
 20
-5.3650400000000005
 30
0.0
 10
1.0034400000000001
 20
-5.3650400000000005
 30
0.0
 10
0.0103
 20
-4.2093400000000001
 30
0.0
 10
-1.0285500000000001
 20
-3.4829000000000003
 30
0.0
 10
-2.4179300000000001
 20
-3.9934400000000005
 30
0.0
 10
-2.4179300000000001
 20
-3.9934400000000005
 30
0.0
 10
-2.4179300000000001
 20
-3.9934400000000005
 30
0.0
 10
-2.9487900000000002
 20
-4.0645600000000002
 30
0.0
 10
-2.9487900000000002
 20
-4.0645600000000002
 30
0.0
 10
-2.9487900000000002
 20
-4.0645600000000002
 30
0.0
 10
-3.1951700000000001
 20
-3.7546800000000005
 30
0.0
 10
-3.5914100000000002
 20
-4.0798000000000005
 30
0.0
 10
-3.9343100000000004
 20
-4.0493200000000007
 30
0.0
 10
-3.9343100000000004
 20
-4.0493200000000007
 30
0.0
 10
-4.1298900000000005
 20
-4.19156
 30
0.0
 10
-4.23149
 20
-4.4557200000000003
 30
0.0
 10
-4.4626300000000008
 20
-4.5420800000000003
 30
0.0
 10
-4.4626300000000008
 20
-4.5420800000000003
 30
0.0
 10
-4.4448500000000006
 20
-4.3769800000000005
 30
0.0
 10
-4.2619700000000007
 20
-4.2601400000000007
 30
0.0
 10
-4.25943
 20
-4.1001200000000004
 30
0.0
 10
-4.25943
 20
-4.1001200000000004
 30
0.0
 10
-4.3584900000000006
 20
-4.1788600000000002
 30
0.0
 10
-4.4626300000000008
 20
-4.2804600000000006
 30
0.0
 10
-4.5947100000000001
 20
-4.3084000000000007
 30
0.0
 10
-4.5947100000000001
 20
-4.3084000000000007
 30
0.0
 10
-4.5997900000000005
 20
-4.3109400000000004
 30
0.0
 10
-4.6353500000000007
 20
-4.3185600000000006
 30
0.0
 10
-4.6302700000000003
 20
-4.2957000000000001
 30
0.0
 10
-4.6302700000000003
 20
-4.2957000000000001
 30
0.0
 10
-4.4651700000000005
 20
-4.1229800000000001
 30
0.0
 10
-4.2924500000000005
 20
-3.9477200000000003
 30
0.0
 10
-4.1476700000000006
 20
-3.7445200000000005
 30
0.0
 10
-4.1476700000000006
 20
-3.7445200000000005
 30
0.0
 10
-3.9749500000000002
 20
-3.4930600000000003
 30
0.0
 10
-3.9597100000000003
 20
-3.5032200000000002
 30
0.0
 10
-4.1654500000000008
 20
-3.6886400000000004
 30
0.0
 10
-4.1654500000000008
 20
-3.6886400000000004
 30
0.0
 10
-4.5261300000000002
 20
-4.0112200000000007
 30
0.0
 10
-5.0925500000000001
 20
-4.2931600000000003
 30
0.0
 10
-4.9426900000000007
 20
-4.82402
 30
0.0
 10
-4.9426900000000007
 20
-4.82402
 30
0.0
 10
-5.2093900000000009
 20
-4.51668
 30
0.0
 10
-4.9934900000000004
 20
-4.0721800000000004
 30
0.0
 10
-4.7369500000000002
 20
-3.8385000000000002
 30
0.0
 10
-4.7369500000000002
 20
-3.8385000000000002
 30
0.0
 10
-4.78775
 20
-3.7496000000000005
 30
0.0
 10
-4.8893500000000003
 20
-3.7927800000000005
 30
0.0
 10
-4.9731700000000005
 20
-3.8283400000000003
 30
0.0
 10
-4.9731700000000005
 20
-3.8283400000000003
 30
0.0
 10
-5.1204900000000002
 20
-3.8943800000000004
 30
0.0
 10
-5.0315900000000005
 20
-3.8054800000000002
 30
0.0
 10
-5.2119300000000006
 20
-3.8766000000000003
 30
0.0
 10
-5.2119300000000006
 20
-3.8766000000000003
 30
0.0
 10
-5.1484300000000003
 20
-3.8359600000000005
 30
0.0
 10
-5.0874700000000006
 20
-3.7927800000000005
 30
0.0
 10
-5.02651
 20
-3.7470600000000003
 30
0.0
 10
-5.02651
 20
-3.7470600000000003
 30
0.0
 10
-4.5972500000000007
 20
-3.4143200000000005
 30
0.0
 10
-4.2492700000000001
 20
-2.9266400000000004
 30
0.0
 10
-4.40421
 20
-2.3399000000000001
 30
0.0
 10
-4.40421
 20
-2.3399000000000001
 30
0.0
 10
-4.2949900000000003
 20
-2.2383000000000002
 30
0.0
 10
-4.3965900000000007
 20
-2.0782800000000003
 30
0.0
 10
-4.4473900000000004
 20
-1.9487400000000001
 30
0.0
 10
-4.4473900000000004
 20
-1.9487400000000001
 30
0.0
 10
-4.4473900000000004
 20
-1.9487400000000001
 30
0.0
 10
-4.3864300000000007
 20
-1.8547600000000002
 30
0.0
 10
-4.3864300000000007
 20
-1.8547600000000002
 30
0.0
 10
-4.3864300000000007
 20
-1.8547600000000002
 30
0.0
 10
-4.4702500000000001
 20
-1.4763000000000002
 30
0.0
 10
-4.4448500000000006
 20
-1.12324
 30
0.0
 10
-4.3838900000000001
 20
-0.7524000000000001
 30
0.0
 10
-4.3838900000000001
 20
-0.7524000000000001
 30
0.0
 10
-4.3584900000000006
 20
-0.59238
 30
0.0
 10
-4.3381700000000007
 20
-0.5593600000000001
 30
0.0
 10
-4.4270700000000005
 20
-0.7397
 30
0.0
 10
-4.4270700000000005
 20
-0.7397
 30
0.0
 10
-4.7115500000000008
 20
-1.3162800000000001
 30
0.0
 10
-4.4727900000000007
 20
-1.9741400000000002
 30
0.0
 10
-4.4753300000000005
 20
-2.5761200000000004
 30
0.0
 10
-4.4753300000000005
 20
-2.5761200000000004
 30
0.0
 10
-4.5235900000000004
 20
-3.0485600000000002
 30
0.0
 10
-4.8995100000000003
 20
-3.4092400000000005
 30
0.0
 10
-5.3084500000000006
 20
-3.5133800000000002
 30
0.0
 10
-5.3084500000000006
 20
-3.5133800000000002
 30
0.0
 10
-5.1966900000000003
 20
-3.3305000000000002
 30
0.0
 10
-4.9426900000000007
 20
-3.2365200000000001
 30
0.0
 10
-4.8791900000000004
 20
-3.0231600000000003
 30
0.0
 10
-4.8791900000000004
 20
-3.0231600000000003
 30
0.0
 10
-4.7090100000000001
 20
-2.7666200000000001
 30
0.0
 10
-4.6556700000000006
 20
-2.4338800000000003
 30
0.0
 10
-4.77759
 20
-2.1189200000000001
 30
0.0
 10
-4.77759
 20
-2.1189200000000001
 30
0.0
 10
-4.77759
 20
-2.1189200000000001
 30
0.0
 10
-4.8080700000000007
 20
-2.2637
 30
0.0
 10
-4.8080700000000007
 20
-2.2637
 30
0.0
 10
-4.8080700000000007
 20
-2.2637
 30
0.0
 10
-4.7547300000000003
 20
-2.4338800000000003
 30
0.0
 10
-4.9426900000000007
 20
-2.5354800000000002
 30
0.0
 10
-5.0214300000000005
 20
-2.6701000000000001
 30
0.0
 10
-5.0214300000000005
 20
-2.6701000000000001
 30
0.0
 10
-4.8842700000000008
 20
-2.3805400000000003
 30
0.0
 10
-4.8182300000000007
 20
-2.0478000000000001
 30
0.0
 10
-5.0595300000000005
 20
-1.7938000000000001
 30
0.0
 10
-5.0595300000000005
 20
-1.7938000000000001
 30
0.0
 10
-5.0925500000000001
 20
-1.8242800000000001
 30
0.0
 10
-5.0239700000000003
 20
-2.05796
 30
0.0
 10
-5.0341300000000002
 20
-2.1214600000000003
 30
0.0
 10
-5.0341300000000002
 20
-2.1214600000000003
 30
0.0
 10
-5.0392100000000006
 20
-2.1595600000000004
 30
0.0
 10
-5.0569900000000008
 20
-2.0427200000000001
 30
0.0
 10
-5.0849300000000008
 20
-1.9614400000000001
 30
0.0
 10
-5.0849300000000008
 20
-1.9614400000000001
 30
0.0
 10
-5.1814500000000008
 20
-1.67188
 30
0.0
 10
-5.2271700000000001
 20
-1.3569200000000001
 30
0.0
 10
-5.2068500000000002
 20
-1.0597400000000001
 30
0.0
 10
-5.2068500000000002
 20
-1.0597400000000001
 30
0.0
 10
-5.1941500000000005
 20
-0.8387600000000001
 30
0.0
 10
-5.1687500000000002
 20
-0.71938
 30
0.0
 10
-5.2652700000000001
 20
-1.0597400000000001
 30
0.0
 10
-5.2652700000000001
 20
-1.0597400000000001
 30
0.0
 10
-5.3389300000000004
 20
-1.3086600000000002
 30
0.0
 10
-5.32369
 20
-1.5829800000000001
 30
0.0
 10
-5.3008300000000004
 20
-1.8446000000000002
 30
0.0
 10
-5.3008300000000004
 20
-1.8446000000000002
 30
0.0
 10
-5.3008300000000004
 20
-1.8446000000000002
 30
0.0
 10
-5.3567100000000005
 20
-1.8166600000000002
 30
0.0
 10
-5.3567100000000005
 20
-1.8166600000000002
 30
0.0
 10
-5.3567100000000005
 20
-1.8166600000000002
 30
0.0
 10
-5.4430700000000005
 20
-1.5525000000000002
 30
0.0
 10
-5.4608500000000006
 20
-1.2985000000000002
 30
0.0
 10
-5.4583100000000009
 20
-1.0445
 30
0.0
 10
-5.4583100000000009
 20
-1.0445
 30
0.0
 10
-5.4557700000000002
 20
-0.7879600000000001
 30
0.0
 10
-5.4354500000000003
 20
-0.7244600000000001
 30
0.0
 10
-5.5116500000000004
 20
-1.0241800000000001
 30
0.0
 10
-5.5116500000000004
 20
-1.0241800000000001
 30
0.0
 10
-5.6081700000000003
 20
-1.41534
 30
0.0
 10
-5.5726100000000001
 20
-1.8141200000000002
 30
0.0
 10
-5.4938700000000003
 20
-2.2281400000000002
 30
0.0
 10
-5.4938700000000003
 20
-2.2281400000000002
 30
0.0
 10
-5.4151300000000004
 20
-2.1316200000000003
 30
0.0
 10
-5.5624500000000001
 20
-1.8014200000000002
 30
0.0
 10
-5.3973500000000003
 20
-1.8446000000000002
 30
0.0
 10
-5.3973500000000003
 20
-1.8446000000000002
 30
0.0
 10
-5.3465500000000006
 20
-2.0351000000000004
 30
0.0
 10
-5.4075100000000003
 20
-2.1697200000000003
 30
0.0
 10
-5.4303700000000008
 20
-2.3348200000000001
 30
0.0
 10
-5.4303700000000008
 20
-2.3348200000000001
 30
0.0
 10
-5.4862500000000001
 20
-2.56596
 30
0.0
 10
-5.4710100000000006
 20
-2.8453600000000003
 30
0.0
 10
-5.6488100000000001
 20
-3.0231600000000003
 30
0.0
 10
-5.6488100000000001
 20
-3.0231600000000003
 30
0.0
 10
-5.70723
 20
-2.7742400000000003
 30
0.0
 10
-5.4532300000000005
 20
-2.5202400000000003
 30
0.0
 10
-5.6107100000000001
 20
-2.2713200000000002
 30
0.0
 10
-5.6107100000000001
 20
-2.2713200000000002
 30
0.0
 10
-5.6107100000000001
 20
-2.2713200000000002
 30
0.0
 10
-5.7986700000000004
 20
-1.6490200000000002
 30
0.0
 10
-5.7986700000000004
 20
-1.6490200000000002
 30
0.0
 10
-5.7986700000000004
 20
-1.6490200000000002
 30
0.0
 10
-5.7224700000000004
 20
-2.01478
 30
0.0
 10
-5.9155100000000003
 20
-2.1748000000000003
 30
0.0
 10
-5.74533
 20
-2.4999200000000004
 30
0.0
 10
-5.74533
 20
-2.4999200000000004
 30
0.0
 10
-6.1339500000000005
 20
-1.6795000000000002
 30
0.0
 10
-6.2101500000000005
 20
-0.4907800000000001
 30
0.0
 10
-5.4633900000000004
 20
0.24581
 30
0.0
 10
-5.4633900000000004
 20
0.24581
 30
0.0
 10
-5.7402500000000005
 20
0.4312300000000001
 30
0.0
 10
-5.4684700000000008
 20
0.78683
 30
0.0
 10
-5.2525700000000004
 20
0.87319
 30
0.0
 10
-5.2525700000000004
 20
0.87319
 30
0.0
 10
-5.5091100000000006
 20
0.9189100000000001
 30
0.0
 10
-6.0272700000000006
 20
0.6318900000000001
 30
0.0
 10
-5.7173900000000009
 20
0.39567
 30
0.0
 10
-5.7173900000000009
 20
0.39567
 30
0.0
 10
-5.7605700000000004
 20
0.38551
 30
0.0
 10
-5.8342300000000007
 20
0.4109100000000001
 30
0.0
 10
-5.8621700000000008
 20
0.4439300000000001
 30
0.0
 10
-5.8621700000000008
 20
0.4439300000000001
 30
0.0
 10
-5.9561500000000001
 20
1.0890900000000001
 30
0.0
 10
-5.1255700000000006
 20
1.06115
 30
0.0
 10
-4.6937700000000007
 20
1.2110100000000001
 30
0.0
 10
-4.6937700000000007
 20
1.2110100000000001
 30
0.0
 10
-4.2365700000000004
 20
1.44723
 30
0.0
 10
-5.0950900000000008
 20
1.1678300000000001
 30
0.0
 10
-5.2678100000000008
 20
1.2922900000000002
 30
0.0
 10
-5.2678100000000008
 20
1.2922900000000002
 30
0.0
 10
-4.9045900000000007
 20
1.3481700000000001
 30
0.0
 10
-4.5362900000000002
 20
1.4269100000000001
 30
0.0
 10
-4.1730700000000001
 20
1.5208900000000001
 30
0.0
 10
-4.1730700000000001
 20
1.5208900000000001
 30
0.0
 10
-4.30769
 20
1.4929500000000002
 30
0.0
 10
-4.9147500000000006
 20
1.5869300000000002
 30
0.0
 10
-4.6658300000000006
 20
1.6580500000000002
 30
0.0
 10
-4.6658300000000006
 20
1.6580500000000002
 30
0.0
 10
-4.6328100000000001
 20
1.6047100000000001
 30
0.0
 10
-4.51851
 20
1.6301100000000002
 30
0.0
 10
-4.4550100000000006
 20
1.6224900000000002
 30
0.0
 10
-4.4550100000000006
 20
1.6224900000000002
 30
0.0
 10
-4.6658300000000006
 20
1.7596500000000002
 30
0.0
 10
-5.0595300000000005
 20
1.7977500000000002
 30
0.0
 10
-4.5870900000000008
 20
1.7571100000000002
 30
0.0
 10
-4.5870900000000008
 20
1.7571100000000002
 30
0.0
 10
-4.5870900000000008
 20
1.7571100000000002
 30
0.0
 10
-4.1095700000000006
 20
1.7952100000000002
 30
0.0
 10
-4.1095700000000006
 20
1.7952100000000002
 30
0.0
 10
-4.1095700000000006
 20
1.7952100000000002
 30
0.0
 10
-4.1095700000000006
 20
1.7952100000000002
 30
0.0
 10
-4.7115500000000008
 20
1.9704700000000002
 30
0.0
 10
-4.7115500000000008
 20
1.9704700000000002
 30
0.0
 10
-4.7115500000000008
 20
1.9704700000000002
 30
0.0
 10
-4.8385500000000006
 20
2.0847700000000002
 30
0.0
 10
-5.0544500000000001
 20
2.1609700000000003
 30
0.0
 10
-5.0569900000000008
 20
2.3616300000000003
 30
0.0
 10
-5.0569900000000008
 20
2.3616300000000003
 30
0.0
 10
-4.7852100000000002
 20
2.0365100000000003
 30
0.0
 10
-4.2899100000000008
 20
1.8790300000000002
 30
0.0
 10
-3.8479500000000004
 20
1.9907900000000001
 30
0.0
 10
-3.8479500000000004
 20
1.9907900000000001
 30
0.0
 10
-3.9089100000000001
 20
2.2803500000000003
 30
0.0
 10
-3.6853900000000004
 20
2.3667100000000003
 30
0.0
 10
-3.5406100000000005
 20
2.5394300000000003
 30
0.0
 10
-3.5406100000000005
 20
2.5394300000000003
 30
0.0
 10
-4.0130500000000007
 20
4.2056700000000005
 30
0.0
 10
-2.2883900000000001
 20
5.0286300000000006
 30
0.0
 10
-0.82789
 20
4.9143300000000005
 30
0.0
 10
-0.82789
 20
4.9143300000000005
 30
0.0
 10
-0.82789
 20
4.9143300000000005
 30
0.0
 10
0.1881
 20
5.3461300000000005
 30
0.0
 10
0.1881
 20
5.3461300000000005
 30
0.0
 10
0.1881
 20
5.3461300000000005
 30
0.0
 10
0.38368
 20
5.3867700000000003
 30
0.0
 10
0.57926
 20
5.4070900000000002
 30
0.0
 10
0.785
 20
5.3918500000000007
 30
0.0
 10
0.785
 20
5.3918500000000007
 30
0.0
 10
1.5749400000000002
 20
5.1962700000000002
 30
0.0
 10
2.3699600000000003
 20
4.7797100000000006
 30
0.0
 10
2.6823800000000002
 20
3.9821500000000003
 30
0.0
 10
2.6823800000000002
 20
3.9821500000000003
 30
0.0
 10
3.4189800000000004
 20
3.5528900000000001
 30
0.0
 10
3.4875600000000002
 20
2.6613500000000001
 30
0.0
 10
3.5205800000000003
 20
1.9272900000000002
 30
0.0
 10
3.5205800000000003
 20
1.9272900000000002
 30
0.0
 10
4.3105200000000004
 20
1.52851
 30
0.0
 10
5.4382800000000007
 20
1.36341
 30
0.0
 10
6.0377200000000002
 20
0.72587
 30
0.0
 10
6.0377200000000002
 20
0.72587
 30
0.0
 10
5.0217200000000002
 20
0.7538100000000001
 30
0.0
 10
4.1073200000000005
 20
1.1652900000000002
 30
0.0
 10
3.1421200000000002
 20
1.3253100000000002
 30
0.0
  0
SPLINE
  5
26
100
AcDbEntity
  8
Ebene 1
 62
     7
100
AcDbSpline
210
0.0
220
0.0
230
1.0
 70
     1
 71
     3
 72
    20
 73
    16
 74
     0
 42
0.0000000001
 43
0.0000000001
 40
0.0
 40
0.0
 40
0.0
 40
0.0
 40
0.25
 40
0.25
 40
0.25
 40
0.25
 40
0.5
 40
0.5
 40
0.5
 40
0.5
 40
0.75
 40
0.75
 40
0.75
 40
0.75
 40
1.0
 40
1.0
 40
1.0
 40
1.0
 10
-2.2807700000000004
 20
4.6095300000000003
 30
0.0
 10
-2.2807700000000004
 20
4.6095300000000003
 30
0.0
 10
-2.0470900000000003
 20
4.6577900000000003
 30
0.0
 10
-2.0470900000000003
 20
4.6577900000000003
 30
0.0
 10
-2.0470900000000003
 20
4.6577900000000003
 30
0.0
 10
-2.5804900000000002
 20
4.4037900000000008
 30
0.0
 10
-3.1773900000000004
 20
3.9796100000000005
 30
0.0
 10
-3.2510500000000002
 20
3.3801700000000001
 30
0.0
 10
-3.2510500000000002
 20
3.3801700000000001
 30
0.0
 10
-3.2510500000000002
 20
3.3801700000000001
 30
0.0
 10
-3.3526500000000001
 20
3.2811100000000004
 30
0.0
 10
-3.3526500000000001
 20
3.2811100000000004
 30
0.0
 10
-3.3526500000000001
 20
3.2811100000000004
 30
0.0
 10
-3.4136100000000003
 20
3.9491300000000003
 30
0.0
 10
-2.8497300000000001
 20
4.4291900000000002
 30
0.0
 10
-2.2807700000000004
 20
4.6095300000000003
 30
0.0
  0
SPLINE
  5
27
100
AcDbEntity
  8
Ebene 1
 62
     7
100
AcDbSpline
210
0.0
220
0.0
230
1.0
 70
     1
 71
     3
 72
   140
 73
   136
 74
     0
 42
0.0000000001
 43
0.0000000001
 40
0.0
 40
0.0
 40
0.0
 40
0.0
 40
0.0294117647058824
 40
0.0294117647058824
 40
0.0294117647058824
 40
0.0294117647058824
 40
0.0588235294117647
 40
0.0588235294117647
 40
0.0588235294117647
 40
0.0588235294117647
 40
0.0882352941176471
 40
0.0882352941176471
 40
0.0882352941176471
 40
0.0882352941176471
 40
0.1176470588235294
 40
0.1176470588235294
 40
0.1176470588235294
 40
0.1176470588235294
 40
0.1470588235294118
 40
0.1470588235294118
 40
0.1470588235294118
 40
0.1470588235294118
 40
0.1764705882352941
 40
0.1764705882352941
 40
0.1764705882352941
 40
0.1764705882352941
 40
0.2058823529411765
 40
0.2058823529411765
 40
0.2058823529411765
 40
0.2058823529411765
 40
0.2352941176470589
 40
0.2352941176470589
 40
0.2352941176470589
 40
0.2352941176470589
 40
0.2647058823529412
 40
0.2647058823529412
 40
0.2647058823529412
 40
0.2647058823529412
 40
0.2941176470588235
 40
0.2941176470588235
 40
0.2941176470588235
 40
0.2941176470588235
 40
0.3235294117647059
 40
0.3235294117647059
 40
0.3235294117647059
 40
0.3235294117647059
 40
0.3529411764705883
 40
0.3529411764705883
 40
0.3529411764705883
 40
0.3529411764705883
 40
0.3823529411764706
 40
0.3823529411764706
 40
0.3823529411764706
 40
0.3823529411764706
 40
0.411764705882353
 40
0.411764705882353
 40
0.411764705882353
 40
0.411764705882353
 40
0.4411764705882353
 40
0.4411764705882353
 40
0.4411764705882353
 40
0.4411764705882353
 40
0.4705882352941177
 40
0.4705882352941177
 40
0.4705882352941177
 40
0.4705882352941177
 40
0.5
 40
0.5
 40
0.5
 40
0.5
 40
0.5294117647058824
 40
0.5294117647058824
 40
0.5294117647058824
 40
0.5294117647058824
 40
0.5588235294117647
 40
0.5588235294117647
 40
0.5588235294117647
 40
0.5588235294117647
 40
0.5882352941176471
 40
0.5882352941176471
 40
0.5882352941176471
 40
0.5882352941176471
 40
0.6176470588235294
 40
0.6176470588235294
 40
0.6176470588235294
 40
0.6176470588235294
 40
0.6470588235294118
 40
0.6470588235294118
 40
0.6470588235294118
 40
0.6470588235294118
 40
0.6764705882352942
 40
0.6764705882352942
 40
0.6764705882352942
 40
0.6764705882352942
 40
0.7058823529411765
 40
0.7058823529411765
 40
0.7058823529411765
 40
0.7058823529411765
 40
0.7352941176470589
 40
0.7352941176470589
 40
0.7352941176470589
 40
0.7352941176470589
 40
0.7647058823529412
 40
0.7647058823529412
 40
0.7647058823529412
 40
0.7647058823529412
 40
0.7941176470588236
 40
0.7941176470588236
 40
0.7941176470588236
 40
0.7941176470588236
 40
0.823529411764706
 40
0.823529411764706
 40
0.823529411764706
 40
0.823529411764706
 40
0.8529411764705883
 40
0.8529411764705883
 40
0.8529411764705883
 40
0.8529411764705883
 40
0.8823529411764707
 40
0.8823529411764707
 40
0.8823529411764707
 40
0.8823529411764707
 40
0.911764705882353
 40
0.911764705882353
 40
0.911764705882353
 40
0.911764705882353
 40
0.9411764705882354
 40
0.9411764705882354
 40
0.9411764705882354
 40
0.9411764705882354
 40
0.9705882352941178
 40
0.9705882352941178
 40
0.9705882352941178
 40
0.9705882352941178
 40
1.0
 40
1.0
 40
1.0
 40
1.0
 10
-1.8743700000000001
 20
4.6958900000000003
 30
0.0
 10
-1.6406900000000002
 20
4.7441500000000003
 30
0.0
 10
-1.41971
 20
4.7492300000000007
 30
0.0
 10
-1.1987300000000001
 20
4.7543100000000003
 30
0.0
 10
-1.1987300000000001
 20
4.7543100000000003
 30
0.0
 10
-1.1987300000000001
 20
4.7543100000000003
 30
0.0
 10
-1.7321300000000002
 20
4.4012500000000001
 30
0.0
 10
-1.7321300000000002
 20
4.4012500000000001
 30
0.0
 10
-1.7321300000000002
 20
4.4012500000000001
 30
0.0
 10
-1.9759700000000002
 20
4.2310700000000008
 30
0.0
 10
-2.1766300000000003
 20
4.0278700000000001
 30
0.0
 10
-2.3747500000000001
 20
3.8246700000000002
 30
0.0
 10
-2.3747500000000001
 20
3.8246700000000002
 30
0.0
 10
-2.5119100000000003
 20
3.6951300000000002
 30
0.0
 10
-2.6897100000000003
 20
3.4970100000000004
 30
0.0
 10
-2.7125700000000004
 20
3.3141300000000005
 30
0.0
 10
-2.7125700000000004
 20
3.3141300000000005
 30
0.0
 10
-2.0674100000000002
 20
3.4081100000000002
 30
0.0
 10
-1.4755900000000002
 20
3.8729300000000002
 30
0.0
 10
-0.88631
 20
4.1370900000000006
 30
0.0
 10
-0.88631
 20
4.1370900000000006
 30
0.0
 10
-0.88631
 20
4.1370900000000006
 30
0.0
 10
-1.24953
 20
4.0405700000000007
 30
0.0
 10
-1.24953
 20
4.0405700000000007
 30
0.0
 10
-1.24953
 20
4.0405700000000007
 30
0.0
 10
-1.24953
 20
4.0405700000000007
 30
0.0
 10
-1.7092700000000001
 20
3.8246700000000002
 30
0.0
 10
-1.7092700000000001
 20
3.8246700000000002
 30
0.0
 10
-1.7092700000000001
 20
3.8246700000000002
 30
0.0
 10
-1.9023100000000002
 20
3.6824300000000001
 30
0.0
 10
-2.1182100000000004
 20
3.5579700000000001
 30
0.0
 10
-2.3468100000000001
 20
3.4919300000000004
 30
0.0
 10
-2.3468100000000001
 20
3.4919300000000004
 30
0.0
 10
-2.02677
 20
3.7967300000000002
 30
0.0
 10
-1.6178300000000001
 20
3.9643700000000002
 30
0.0
 10
-1.2190500000000002
 20
4.1878900000000003
 30
0.0
 10
-1.2190500000000002
 20
4.1878900000000003
 30
0.0
 10
-1.1860300000000001
 20
4.2158300000000004
 30
0.0
 10
-1.1403100000000002
 20
4.2844100000000003
 30
0.0
 10
-1.2165100000000002
 20
4.2691699999999999
 30
0.0
 10
-1.2165100000000002
 20
4.2691699999999999
 30
0.0
 10
-1.9073900000000001
 20
4.0024700000000006
 30
0.0
 10
-0.9015500000000001
 20
4.4952300000000003
 30
0.0
 10
-0.65771
 20
4.5866700000000007
 30
0.0
 10
-0.65771
 20
4.5866700000000007
 30
0.0
 10
-0.65771
 20
4.5866700000000007
 30
0.0
 10
-0.5586500000000001
 20
4.6882700000000002
 30
0.0
 10
-0.5586500000000001
 20
4.6882700000000002
 30
0.0
 10
-0.5586500000000001
 20
4.6882700000000002
 30
0.0
 10
-0.7059700000000001
 20
4.71875
 30
0.0
 10
-0.8609100000000001
 20
4.58413
 30
0.0
 10
-1.0234700000000001
 20
4.5917500000000002
 30
0.0
 10
-1.0234700000000001
 20
4.5917500000000002
 30
0.0
 10
-0.59421
 20
4.8609900000000001
 30
0.0
 10
-0.06081
 20
5.0133900000000002
 30
0.0
 10
0.4167
 20
5.1327700000000007
 30
0.0
 10
0.4167
 20
5.1327700000000007
 30
0.0
 10
1.78068
 20
5.17849
 30
0.0
 10
3.1116400000000004
 20
3.8500700000000001
 30
0.0
 10
3.2665800000000003
 20
2.5546700000000002
 30
0.0
 10
3.2665800000000003
 20
2.5546700000000002
 30
0.0
 10
3.1345000000000001
 20
2.6080100000000002
 30
0.0
 10
2.9694000000000003
 20
3.0956900000000003
 30
0.0
 10
2.8957400000000004
 20
2.8797900000000003
 30
0.0
 10
2.8957400000000004
 20
2.8797900000000003
 30
0.0
 10
2.8957400000000004
 20
2.8797900000000003
 30
0.0
 10
2.9465400000000002
 20
2.7299300000000004
 30
0.0
 10
2.9465400000000002
 20
2.7299300000000004
 30
0.0
 10
2.9465400000000002
 20
2.7299300000000004
 30
0.0
 10
3.0608400000000002
 20
2.5724500000000003
 30
0.0
 10
3.1319600000000003
 20
2.42767
 30
0.0
 10
3.05322
 20
2.2295500000000001
 30
0.0
 10
3.05322
 20
2.2295500000000001
 30
0.0
 10
2.6112600000000001
 20
2.21685
 30
0.0
 10
2.2124800000000002
 20
2.4759300000000004
 30
0.0
 10
1.7857600000000002
 20
2.4860900000000004
 30
0.0
 10
1.7857600000000002
 20
2.4860900000000004
 30
0.0
 10
1.44286
 20
3.2379300000000004
 30
0.0
 10
0.33034
 20
2.9661500000000003
 30
0.0
 10
-0.34021
 20
3.0855300000000003
 30
0.0
 10
-0.34021
 20
3.0855300000000003
 30
0.0
 10
0.023
 20
3.2633300000000003
 30
0.0
 10
1.1355200000000001
 20
3.0753700000000004
 30
0.0
 10
1.39968
 20
3.3522300000000005
 30
0.0
 10
1.39968
 20
3.3522300000000005
 30
0.0
 10
1.0517000000000001
 20
3.5579700000000001
 30
0.0
 10
0.5843400000000001
 20
3.6621100000000002
 30
0.0
 10
0.09412
 20
3.5986100000000003
 30
0.0
 10
0.09412
 20
3.5986100000000003
 30
0.0
 10
-0.22083
 20
3.5732100000000004
 30
0.0
 10
-0.47229
 20
3.7027500000000004
 30
0.0
 10
-0.8075700000000001
 20
3.5706700000000002
 30
0.0
 10
-0.8075700000000001
 20
3.5706700000000002
 30
0.0
 10
-0.9040900000000001
 20
3.5503500000000003
 30
0.0
 10
-0.99553
 20
3.5122500000000003
 30
0.0
 10
-1.1022100000000001
 20
3.5300300000000004
 30
0.0
 10
-1.1022100000000001
 20
3.5300300000000004
 30
0.0
 10
-1.1987300000000001
 20
3.5097100000000001
 30
0.0
 10
-1.3866900000000002
 20
3.4487500000000004
 30
0.0
 10
-1.4374900000000002
 20
3.4995500000000002
 30
0.0
 10
-1.4374900000000002
 20
3.4995500000000002
 30
0.0
 10
-0.9548900000000001
 20
3.6011500000000001
 30
0.0
 10
-0.72121
 20
3.8297500000000002
 30
0.0
 10
-0.20813
 20
3.8983300000000005
 30
0.0
 10
-0.20813
 20
3.8983300000000005
 30
0.0
 10
-0.14463
 20
3.9719900000000004
 30
0.0
 10
-0.00747
 20
3.8983300000000005
 30
0.0
 10
0.02808
 20
4.0075500000000002
 30
0.0
 10
0.02808
 20
4.0075500000000002
 30
0.0
 10
-1.03617
 20
3.9846900000000005
 30
0.0
 10
-2.0877300000000001
 20
3.5046300000000001
 30
0.0
 10
-2.9741900000000001
 20
3.0194900000000002
 30
0.0
 10
-2.9741900000000001
 20
3.0194900000000002
 30
0.0
 10
-2.7659100000000003
 20
3.0017100000000001
 30
0.0
 10
-2.5119100000000003
 20
3.1337900000000003
 30
0.0
 10
-2.2833100000000002
 20
3.1007700000000002
 30
0.0
 10
-2.2833100000000002
 20
3.1007700000000002
 30
0.0
 10
-2.01153
 20
3.0575900000000003
 30
0.0
 10
-1.7219700000000002
 20
3.2201500000000003
 30
0.0
 10
-1.4705100000000002
 20
3.1718900000000003
 30
0.0
 10
-1.4705100000000002
 20
3.1718900000000003
 30
0.0
 10
-1.6610100000000001
 20
3.0296500000000002
 30
0.0
 10
-1.8896100000000002
 20
2.9636100000000001
 30
0.0
 10
-2.1232900000000003
 20
2.9153500000000001
 30
0.0
 10
-2.1232900000000003
 20
2.9153500000000001
 30
0.0
 10
-2.2198100000000003
 20
2.9940900000000004
 30
0.0
 10
-2.3493500000000003
 20
2.9280500000000003
 30
0.0
 10
-2.4636500000000003
 20
2.9026500000000004
 30
0.0
 10
-2.4636500000000003
 20
2.9026500000000004
 30
0.0
 10
-2.8014700000000001
 20
2.8747100000000003
 30
0.0
 10
-3.1342100000000004
 20
2.8213700000000004
 30
0.0
 10
-3.4186900000000002
 20
2.6435700000000004
 30
0.0
 10
-3.4186900000000002
 20
2.6435700000000004
 30
0.0
 10
-2.9919700000000002
 20
3.3954100000000005
 30
0.0
 10
-2.4280900000000001
 20
4.1574100000000005
 30
0.0
 10
-1.8743700000000001
 20
4.6958900000000003
 30
0.0
  0
SPLINE
  5
28
100
AcDbEntity
  8
Ebene 1
100
AcDbSpline
210
0.0
220
0.0
230
1.0
 70
     1
 71
     3
 72
    52
 73
    48
 74
     0
 42
0.0000000001
 43
0.0000000001
 40
0.0
 40
0.0
 40
0.0
 40
0.0
 40
0.0833333333333333
 40
0.0833333333333333
 40
0.0833333333333333
 40
0.0833333333333333
 40
0.1666666666666667
 40
0.1666666666666667
 40
0.1666666666666667
 40
0.1666666666666667
 40
0.25
 40
0.25
 40
0.25
 40
0.25
 40
0.3333333333333333
 40
0.3333333333333333
 40
0.3333333333333333
 40
0.3333333333333333
 40
0.4166666666666666
 40
0.4166666666666666
 40
0.4166666666666666
 40
0.4166666666666666
 40
0.4999999999999999
 40
0.4999999999999999
 40
0.4999999999999999
 40
0.4999999999999999
 40
0.5833333333333333
 40
0.5833333333333333
 40
0.5833333333333333
 40
0.5833333333333333
 40
0.6666666666666666
 40
0.6666666666666666
 40
0.6666666666666666
 40
0.6666666666666666
 40
0.75
 40
0.75
 40
0.75
 40
0.75
 40
0.8333333333333334
 40
0.8333333333333334
 40
0.8333333333333334
 40
0.8333333333333334
 40
0.9166666666666667
 40
0.9166666666666667
 40
0.9166666666666667
 40
0.9166666666666667
 40
1.0
 40
1.0
 40
1.0
 40
1.0
 10
0.00268
 20
4.5257100000000001
 30
0.0
 10
0.00268
 20
4.5257100000000001
 30
0.0
 10
0.19064
 20
4.4825300000000006
 30
0.0
 10
0.19064
 20
4.4825300000000006
 30
0.0
 10
0.19064
 20
4.4825300000000006
 30
0.0
 10
0.53354
 20
4.5765100000000007
 30
0.0
 10
1.0847200000000001
 20
4.5511100000000004
 30
0.0
 10
1.3717400000000002
 20
4.24885
 30
0.0
 10
1.3717400000000002
 20
4.24885
 30
0.0
 10
1.8848200000000002
 20
4.2158300000000004
 30
0.0
 10
2.1413600000000002
 20
3.7662500000000003
 30
0.0
 10
2.5503
 20
3.5503500000000003
 30
0.0
 10
2.5503
 20
3.5503500000000003
 30
0.0
 10
2.4360000000000004
 20
3.3268300000000002
 30
0.0
 10
2.8373200000000001
 20
3.1490300000000002
 30
0.0
 10
2.6671400000000003
 20
2.9940900000000004
 30
0.0
 10
2.6671400000000003
 20
2.9940900000000004
 30
0.0
 10
2.7763600000000004
 20
2.9559900000000003
 30
0.0
 10
2.8170000000000002
 20
2.8645500000000004
 30
0.0
 10
2.7535000000000003
 20
2.7883500000000003
 30
0.0
 10
2.7535000000000003
 20
2.7883500000000003
 30
0.0
 10
2.7535000000000003
 20
2.7883500000000003
 30
0.0
 10
2.9008200000000004
 20
2.6588100000000003
 30
0.0
 10
2.9008200000000004
 20
2.6588100000000003
 30
0.0
 10
2.9008200000000004
 20
2.6588100000000003
 30
0.0
 10
2.9008200000000004
 20
2.6588100000000003
 30
0.0
 10
2.7966800000000003
 20
2.5800700000000001
 30
0.0
 10
2.7966800000000003
 20
2.5800700000000001
 30
0.0
 10
2.7966800000000003
 20
2.5800700000000001
 30
0.0
 10
2.8652600000000001
 20
2.5318100000000001
 30
0.0
 10
2.9998800000000001
 20
2.4810100000000004
 30
0.0
 10
2.9567000000000001
 20
2.3921100000000002
 30
0.0
 10
2.9567000000000001
 20
2.3921100000000002
 30
0.0
 10
2.6874600000000002
 20
2.5165700000000002
 30
0.0
 10
2.50204
 20
2.33623
 30
0.0
 10
2.2505800000000002
 20
2.4860900000000004
 30
0.0
 10
2.2505800000000002
 20
2.4860900000000004
 30
0.0
 10
2.42584
 20
2.7019900000000003
 30
0.0
 10
2.3572600000000001
 20
3.0296500000000002
 30
0.0
 10
2.1540600000000003
 20
3.2277700000000005
 30
0.0
 10
2.1540600000000003
 20
3.2277700000000005
 30
0.0
 10
2.1439000000000004
 20
3.2658700000000001
 30
0.0
 10
2.17692
 20
3.3115900000000003
 30
0.0
 10
2.1870800000000004
 20
3.3547700000000003
 30
0.0
 10
2.1870800000000004
 20
3.3547700000000003
 30
0.0
 10
1.65368
 20
3.9669100000000004
 30
0.0
 10
0.6249800000000001
 20
4.1523300000000001
 30
0.0
 10
0.00268
 20
4.5257100000000001
 30
0.0
  0
SPLINE
  5
29
100
AcDbEntity
  8
Ebene 1
 62
     7
100
AcDbSpline
210
0.0
220
0.0
230
1.0
 70
     1
 71
     3
 72
    36
 73
    32
 74
     0
 42
0.0000000001
 43
0.0000000001
 40
0.0
 40
0.0
 40
0.0
 40
0.0
 40
0.125
 40
0.125
 40
0.125
 40
0.125
 40
0.25
 40
0.25
 40
0.25
 40
0.25
 40
0.375
 40
0.375
 40
0.375
 40
0.375
 40
0.5
 40
0.5
 40
0.5
 40
0.5
 40
0.625
 40
0.625
 40
0.625
 40
0.625
 40
0.75
 40
0.75
 40
0.75
 40
0.75
 40
0.875
 40
0.875
 40
0.875
 40
0.875
 40
1.0
 40
1.0
 40
1.0
 40
1.0
 10
-2.9487900000000002
 20
2.4200500000000003
 30
0.0
 10
-2.09789
 20
2.41751
 30
0.0
 10
-1.20889
 20
2.42259
 30
0.0
 10
-0.35291
 20
2.4810100000000004
 30
0.0
 10
-0.35291
 20
2.4810100000000004
 30
0.0
 10
-0.5789700000000001
 20
2.3946500000000004
 30
0.0
 10
-0.9472700000000001
 20
2.41751
 30
0.0
 10
-1.0615700000000001
 20
2.29305
 30
0.0
 10
-1.0615700000000001
 20
2.29305
 30
0.0
 10
-0.02017
 20
2.5419700000000001
 30
0.0
 10
0.9653400000000001
 20
2.4886300000000001
 30
0.0
 10
1.9508600000000003
 20
2.30321
 30
0.0
 10
1.9508600000000003
 20
2.30321
 30
0.0
 10
2.29122
 20
2.2397100000000001
 30
0.0
 10
2.6569800000000003
 20
2.2625700000000002
 30
0.0
 10
2.9922600000000004
 20
2.13557
 30
0.0
 10
2.9922600000000004
 20
2.13557
 30
0.0
 10
3.1268800000000003
 20
1.9653900000000002
 30
0.0
 10
2.7001600000000003
 20
2.1762100000000002
 30
0.0
 10
2.8576400000000004
 20
2.0085700000000002
 30
0.0
 10
2.8576400000000004
 20
2.0085700000000002
 30
0.0
 10
3.3148400000000002
 20
1.9450700000000001
 30
0.0
 10
3.7466400000000002
 20
1.8129900000000001
 30
0.0
 10
4.17082
 20
1.6224900000000002
 30
0.0
 10
4.17082
 20
1.6224900000000002
 30
0.0
 10
1.5876400000000002
 20
2.0847700000000002
 30
0.0
 10
-1.1453900000000001
 20
2.3946500000000004
 30
0.0
 10
-3.7234900000000004
 20
2.0771500000000001
 30
0.0
 10
-3.7234900000000004
 20
2.0771500000000001
 30
0.0
 10
-3.6574500000000003
 20
2.3336900000000003
 30
0.0
 10
-3.1824700000000004
 20
2.2905100000000003
 30
0.0
 10
-2.9487900000000002
 20
2.4200500000000003
 30
0.0
  0
SPLINE
  5
2A
100
AcDbEntity
  8
Ebene 1
 62
     7
100
AcDbSpline
210
0.0
220
0.0
230
1.0
 70
     1
 71
     3
 72
    64
 73
    60
 74
     0
 42
0.0000000001
 43
0.0000000001
 40
0.0
 40
0.0
 40
0.0
 40
0.0
 40
0.0666666666666667
 40
0.0666666666666667
 40
0.0666666666666667
 40
0.0666666666666667
 40
0.1333333333333333
 40
0.1333333333333333
 40
0.1333333333333333
 40
0.1333333333333333
 40
0.2
 40
0.2
 40
0.2
 40
0.2
 40
0.2666666666666667
 40
0.2666666666666667
 40
0.2666666666666667
 40
0.2666666666666667
 40
0.3333333333333333
 40
0.3333333333333333
 40
0.3333333333333333
 40
0.3333333333333333
 40
0.4
 40
0.4
 40
0.4
 40
0.4
 40
0.4666666666666666
 40
0.4666666666666666
 40
0.4666666666666666
 40
0.4666666666666666
 40
0.5333333333333333
 40
0.5333333333333333
 40
0.5333333333333333
 40
0.5333333333333333
 40
0.6
 40
0.6
 40
0.6
 40
0.6
 40
0.6666666666666666
 40
0.6666666666666666
 40
0.6666666666666666
 40
0.6666666666666666
 40
0.7333333333333333
 40
0.7333333333333333
 40
0.7333333333333333
 40
0.7333333333333333
 40
0.7999999999999999
 40
0.7999999999999999
 40
0.7999999999999999
 40
0.7999999999999999
 40
0.8666666666666666
 40
0.8666666666666666
 40
0.8666666666666666
 40
0.8666666666666666
 40
0.9333333333333332
 40
0.9333333333333332
 40
0.9333333333333332
 40
0.9333333333333332
 40
1.0
 40
1.0
 40
1.0
 40
1.0
 10
-3.9927300000000003
 20
0.01213
 30
0.0
 10
-4.1197300000000006
 20
0.22803
 30
0.0
 10
-4.14513
 20
0.34233
 30
0.0
 10
-4.09687
 20
0.59379
 30
0.0
 10
-4.09687
 20
0.59379
 30
0.0
 10
-4.2264100000000004
 20
0.5455300000000001
 30
0.0
 10
-4.3813500000000003
 20
0.31185
 30
0.0
 10
-4.4931100000000006
 20
0.16961
 30
0.0
 10
-4.4931100000000006
 20
0.16961
 30
0.0
 10
-4.5210500000000007
 20
0.02229
 30
0.0
 10
-4.6175700000000006
 20
-0.09454
 30
0.0
 10
-4.6734500000000008
 20
-0.22662
 30
0.0
 10
-4.6734500000000008
 20
-0.22662
 30
0.0
 10
-4.6734500000000008
 20
-0.22662
 30
0.0
 10
-4.7750500000000002
 20
-0.4907800000000001
 30
0.0
 10
-4.7750500000000002
 20
-0.4907800000000001
 30
0.0
 10
-4.7750500000000002
 20
-0.4907800000000001
 30
0.0
 10
-4.6963100000000004
 20
0.08579
 30
0.0
 10
-4.2619700000000007
 20
0.61919
 30
0.0
 10
-3.9266900000000002
 20
1.03067
 30
0.0
 10
-3.9266900000000002
 20
1.03067
 30
0.0
 10
-4.0790900000000008
 20
0.9798700000000001
 30
0.0
 10
-4.1959300000000006
 20
0.87319
 30
0.0
 10
-4.3153100000000002
 20
0.76651
 30
0.0
 10
-4.3153100000000002
 20
0.76651
 30
0.0
 10
-4.6963100000000004
 20
0.46679
 30
0.0
 10
-4.9071300000000004
 20
-0.0158
 30
0.0
 10
-5.1941500000000005
 20
-0.3968
 30
0.0
 10
-5.1941500000000005
 20
-0.3968
 30
0.0
 10
-5.1052500000000007
 20
0.18231
 30
0.0
 10
-4.7521900000000006
 20
0.63697
 30
0.0
 10
-4.2238700000000007
 20
0.9087500000000001
 30
0.0
 10
-4.2238700000000007
 20
0.9087500000000001
 30
0.0
 10
-4.1984700000000004
 20
0.9722500000000001
 30
0.0
 10
-4.1298900000000005
 20
1.02813
 30
0.0
 10
-4.0562300000000002
 20
1.06369
 30
0.0
 10
-4.0562300000000002
 20
1.06369
 30
0.0
 10
-4.0181300000000002
 20
1.1729100000000001
 30
0.0
 10
-4.1603700000000003
 20
1.0814700000000002
 30
0.0
 10
-4.1984700000000004
 20
1.0738500000000002
 30
0.0
 10
-4.1984700000000004
 20
1.0738500000000002
 30
0.0
 10
-3.8454100000000002
 20
1.4091300000000002
 30
0.0
 10
-3.2840700000000003
 20
1.6275700000000002
 30
0.0
 10
-2.9818100000000003
 20
2.01111
 30
0.0
 10
-2.9818100000000003
 20
2.01111
 30
0.0
 10
-2.9081500000000005
 20
1.9476100000000001
 30
0.0
 10
-2.7836900000000004
 20
2.0314300000000003
 30
0.0
 10
-2.6947900000000002
 20
1.9907900000000001
 30
0.0
 10
-2.6947900000000002
 20
1.9907900000000001
 30
0.0
 10
-2.8903700000000003
 20
1.8688700000000003
 30
0.0
 10
-3.03261
 20
1.7291700000000001
 30
0.0
 10
-3.03261
 20
1.52851
 30
0.0
 10
-3.03261
 20
1.52851
 30
0.0
 10
-3.2637500000000004
 20
1.5818500000000002
 30
0.0
 10
-3.4618700000000002
 20
1.3075300000000001
 30
0.0
 10
-3.5990300000000004
 20
1.0992500000000001
 30
0.0
 10
-3.5990300000000004
 20
1.0992500000000001
 30
0.0
 10
-3.9444700000000004
 20
0.82747
 30
0.0
 10
-3.8758900000000005
 20
0.3169300000000001
 30
0.0
 10
-3.9927300000000003
 20
0.01213
 30
0.0
  0
SPLINE
  5
2B
100
AcDbEntity
  8
Ebene 1
 62
     7
100
AcDbSpline
210
0.0
220
0.0
230
1.0
 70
     1
 71
     3
 72
    40
 73
    36
 74
     0
 42
0.0000000001
 43
0.0000000001
 40
0.0
 40
0.0
 40
0.0
 40
0.0
 40
0.1111111111111111
 40
0.1111111111111111
 40
0.1111111111111111
 40
0.1111111111111111
 40
0.2222222222222222
 40
0.2222222222222222
 40
0.2222222222222222
 40
0.2222222222222222
 40
0.3333333333333333
 40
0.3333333333333333
 40
0.3333333333333333
 40
0.3333333333333333
 40
0.4444444444444444
 40
0.4444444444444444
 40
0.4444444444444444
 40
0.4444444444444444
 40
0.5555555555555556
 40
0.5555555555555556
 40
0.5555555555555556
 40
0.5555555555555556
 40
0.6666666666666667
 40
0.6666666666666667
 40
0.6666666666666667
 40
0.6666666666666667
 40
0.7777777777777779
 40
0.7777777777777779
 40
0.7777777777777779
 40
0.7777777777777779
 40
0.8888888888888891
 40
0.8888888888888891
 40
0.8888888888888891
 40
0.8888888888888891
 40
1.0
 40
1.0
 40
1.0
 40
1.0
 10
-2.4484100000000004
 20
1.78251
 30
0.0
 10
-2.4484100000000004
 20
1.78251
 30
0.0
 10
-2.5550900000000003
 20
1.6199500000000002
 30
0.0
 10
-2.5550900000000003
 20
1.6199500000000002
 30
0.0
 10
-2.5550900000000003
 20
1.6199500000000002
 30
0.0
 10
-2.5474700000000001
 20
1.5793100000000002
 30
0.0
 10
-2.5779500000000004
 20
1.5335900000000002
 30
0.0
 10
-2.61097
 20
1.5056500000000002
 30
0.0
 10
-2.61097
 20
1.5056500000000002
 30
0.0
 10
-2.7633700000000001
 20
1.1729100000000001
 30
0.0
 10
-2.31379
 20
1.8104500000000001
 30
0.0
 10
-2.40523
 20
1.56915
 30
0.0
 10
-2.40523
 20
1.56915
 30
0.0
 10
-2.40523
 20
1.56915
 30
0.0
 10
-2.48143
 20
1.4548500000000002
 30
0.0
 10
-2.48143
 20
1.4548500000000002
 30
0.0
 10
-2.48143
 20
1.4548500000000002
 30
0.0
 10
-2.5144500000000001
 20
1.3253100000000002
 30
0.0
 10
-2.3874500000000003
 20
1.4929500000000002
 30
0.0
 10
-2.35697
 20
1.5386700000000002
 30
0.0
 10
-2.35697
 20
1.5386700000000002
 30
0.0
 10
-2.35697
 20
1.5386700000000002
 30
0.0
 10
-1.9759700000000002
 20
1.73933
 30
0.0
 10
-1.9759700000000002
 20
1.73933
 30
0.0
 10
-1.9759700000000002
 20
1.73933
 30
0.0
 10
-2.2045700000000004
 20
1.49041
 30
0.0
 10
-2.48143
 20
1.1729100000000001
 30
0.0
 10
-2.8700500000000004
 20
1.0916300000000001
 30
0.0
 10
-2.8700500000000004
 20
1.0916300000000001
 30
0.0
 10
-2.8243300000000002
 20
1.2618100000000001
 30
0.0
 10
-3.1316700000000002
 20
1.3761100000000002
 30
0.0
 10
-2.94625
 20
1.4573900000000002
 30
0.0
 10
-2.94625
 20
1.4573900000000002
 30
0.0
 10
-2.7963900000000002
 20
1.6097900000000001
 30
0.0
 10
-2.6312900000000004
 20
1.6834500000000001
 30
0.0
 10
-2.4484100000000004
 20
1.78251
 30
0.0
  0
SPLINE
  5
2C
100
AcDbEntity
  8
Ebene 1
 62
     7
100
AcDbSpline
210
0.0
220
0.0
230
1.0
 70
     1
 71
     3
 72
   396
 73
   392
 74
     0
 42
0.0000000001
 43
0.0000000001
 40
0.0
 40
0.0
 40
0.0
 40
0.0
 40
0.0102040816326531
 40
0.0102040816326531
 40
0.0102040816326531
 40
0.0102040816326531
 40
0.0204081632653061
 40
0.0204081632653061
 40
0.0204081632653061
 40
0.0204081632653061
 40
0.0306122448979592
 40
0.0306122448979592
 40
0.0306122448979592
 40
0.0306122448979592
 40
0.0408163265306122
 40
0.0408163265306122
 40
0.0408163265306122
 40
0.0408163265306122
 40
0.0510204081632653
 40
0.0510204081632653
 40
0.0510204081632653
 40
0.0510204081632653
 40
0.0612244897959184
 40
0.0612244897959184
 40
0.0612244897959184
 40
0.0612244897959184
 40
0.0714285714285714
 40
0.0714285714285714
 40
0.0714285714285714
 40
0.0714285714285714
 40
0.0816326530612245
 40
0.0816326530612245
 40
0.0816326530612245
 40
0.0816326530612245
 40
0.0918367346938775
 40
0.0918367346938775
 40
0.0918367346938775
 40
0.0918367346938775
 40
0.1020408163265306
 40
0.1020408163265306
 40
0.1020408163265306
 40
0.1020408163265306
 40
0.1122448979591837
 40
0.1122448979591837
 40
0.1122448979591837
 40
0.1122448979591837
 40
0.1224489795918367
 40
0.1224489795918367
 40
0.1224489795918367
 40
0.1224489795918367
 40
0.1326530612244898
 40
0.1326530612244898
 40
0.1326530612244898
 40
0.1326530612244898
 40
0.1428571428571429
 40
0.1428571428571429
 40
0.1428571428571429
 40
0.1428571428571429
 40
0.1530612244897959
 40
0.1530612244897959
 40
0.1530612244897959
 40
0.1530612244897959
 40
0.163265306122449
 40
0.163265306122449
 40
0.163265306122449
 40
0.163265306122449
 40
0.1734693877551021
 40
0.1734693877551021
 40
0.1734693877551021
 40
0.1734693877551021
 40
0.1836734693877551
 40
0.1836734693877551
 40
0.1836734693877551
 40
0.1836734693877551
 40
0.1938775510204082
 40
0.1938775510204082
 40
0.1938775510204082
 40
0.1938775510204082
 40
0.2040816326530613
 40
0.2040816326530613
 40
0.2040816326530613
 40
0.2040816326530613
 40
0.2142857142857144
 40
0.2142857142857144
 40
0.2142857142857144
 40
0.2142857142857144
 40
0.2244897959183674
 40
0.2244897959183674
 40
0.2244897959183674
 40
0.2244897959183674
 40
0.2346938775510205
 40
0.2346938775510205
 40
0.2346938775510205
 40
0.2346938775510205
 40
0.2448979591836736
 40
0.2448979591836736
 40
0.2448979591836736
 40
0.2448979591836736
 40
0.2551020408163267
 40
0.2551020408163267
 40
0.2551020408163267
 40
0.2551020408163267
 40
0.2653061224489797
 40
0.2653061224489797
 40
0.2653061224489797
 40
0.2653061224489797
 40
0.2755102040816328
 40
0.2755102040816328
 40
0.2755102040816328
 40
0.2755102040816328
 40
0.2857142857142859
 40
0.2857142857142859
 40
0.2857142857142859
 40
0.2857142857142859
 40
0.2959183673469389
 40
0.2959183673469389
 40
0.2959183673469389
 40
0.2959183673469389
 40
0.306122448979592
 40
0.306122448979592
 40
0.306122448979592
 40
0.306122448979592
 40
0.3163265306122451
 40
0.3163265306122451
 40
0.3163265306122451
 40
0.3163265306122451
 40
0.3265306122448982
 40
0.3265306122448982
 40
0.3265306122448982
 40
0.3265306122448982
 40
0.3367346938775512
 40
0.3367346938775512
 40
0.3367346938775512
 40
0.3367346938775512
 40
0.3469387755102043
 40
0.3469387755102043
 40
0.3469387755102043
 40
0.3469387755102043
 40
0.3571428571428574
 40
0.3571428571428574
 40
0.3571428571428574
 40
0.3571428571428574
 40
0.3673469387755105
 40
0.3673469387755105
 40
0.3673469387755105
 40
0.3673469387755105
 40
0.3775510204081635
 40
0.3775510204081635
 40
0.3775510204081635
 40
0.3775510204081635
 40
0.3877551020408166
 40
0.3877551020408166
 40
0.3877551020408166
 40
0.3877551020408166
 40
0.3979591836734697
 40
0.3979591836734697
 40
0.3979591836734697
 40
0.3979591836734697
 40
0.4081632653061227
 40
0.4081632653061227
 40
0.4081632653061227
 40
0.4081632653061227
 40
0.4183673469387758
 40
0.4183673469387758
 40
0.4183673469387758
 40
0.4183673469387758
 40
0.4285714285714289
 40
0.4285714285714289
 40
0.4285714285714289
 40
0.4285714285714289
 40
0.438775510204082
 40
0.438775510204082
 40
0.438775510204082
 40
0.438775510204082
 40
0.448979591836735
 40
0.448979591836735
 40
0.448979591836735
 40
0.448979591836735
 40
0.4591836734693881
 40
0.4591836734693881
 40
0.4591836734693881
 40
0.4591836734693881
 40
0.4693877551020412
 40
0.4693877551020412
 40
0.4693877551020412
 40
0.4693877551020412
 40
0.4795918367346942
 40
0.4795918367346942
 40
0.4795918367346942
 40
0.4795918367346942
 40
0.4897959183673473
 40
0.4897959183673473
 40
0.4897959183673473
 40
0.4897959183673473
 40
0.5000000000000003
 40
0.5000000000000003
 40
0.5000000000000003
 40
0.5000000000000003
 40
0.5102040816326534
 40
0.5102040816326534
 40
0.5102040816326534
 40
0.5102040816326534
 40
0.5204081632653065
 40
0.5204081632653065
 40
0.5204081632653065
 40
0.5204081632653065
 40
0.5306122448979596
 40
0.5306122448979596
 40
0.5306122448979596
 40
0.5306122448979596
 40
0.5408163265306126
 40
0.5408163265306126
 40
0.5408163265306126
 40
0.5408163265306126
 40
0.5510204081632657
 40
0.5510204081632657
 40
0.5510204081632657
 40
0.5510204081632657
 40
0.5612244897959188
 40
0.5612244897959188
 40
0.5612244897959188
 40
0.5612244897959188
 40
0.5714285714285718
 40
0.5714285714285718
 40
0.5714285714285718
 40
0.5714285714285718
 40
0.5816326530612249
 40
0.5816326530612249
 40
0.5816326530612249
 40
0.5816326530612249
 40
0.591836734693878
 40
0.591836734693878
 40
0.591836734693878
 40
0.591836734693878
 40
0.6020408163265311
 40
0.6020408163265311
 40
0.6020408163265311
 40
0.6020408163265311
 40
0.6122448979591841
 40
0.6122448979591841
 40
0.6122448979591841
 40
0.6122448979591841
 40
0.6224489795918372
 40
0.6224489795918372
 40
0.6224489795918372
 40
0.6224489795918372
 40
0.6326530612244903
 40
0.6326530612244903
 40
0.6326530612244903
 40
0.6326530612244903
 40
0.6428571428571434
 40
0.6428571428571434
 40
0.6428571428571434
 40
0.6428571428571434
 40
0.6530612244897964
 40
0.6530612244897964
 40
0.6530612244897964
 40
0.6530612244897964
 40
0.6632653061224495
 40
0.6632653061224495
 40
0.6632653061224495
 40
0.6632653061224495
 40
0.6734693877551026
 40
0.6734693877551026
 40
0.6734693877551026
 40
0.6734693877551026
 40
0.6836734693877556
 40
0.6836734693877556
 40
0.6836734693877556
 40
0.6836734693877556
 40
0.6938775510204087
 40
0.6938775510204087
 40
0.6938775510204087
 40
0.6938775510204087
 40
0.7040816326530618
 40
0.7040816326530618
 40
0.7040816326530618
 40
0.7040816326530618
 40
0.7142857142857149
 40
0.7142857142857149
 40
0.7142857142857149
 40
0.7142857142857149
 40
0.7244897959183679
 40
0.7244897959183679
 40
0.7244897959183679
 40
0.7244897959183679
 40
0.734693877551021
 40
0.734693877551021
 40
0.734693877551021
 40
0.734693877551021
 40
0.7448979591836741
 40
0.7448979591836741
 40
0.7448979591836741
 40
0.7448979591836741
 40
0.7551020408163272
 40
0.7551020408163272
 40
0.7551020408163272
 40
0.7551020408163272
 40
0.7653061224489802
 40
0.7653061224489802
 40
0.7653061224489802
 40
0.7653061224489802
 40
0.7755102040816333
 40
0.7755102040816333
 40
0.7755102040816333
 40
0.7755102040816333
 40
0.7857142857142864
 40
0.7857142857142864
 40
0.7857142857142864
 40
0.7857142857142864
 40
0.7959183673469394
 40
0.7959183673469394
 40
0.7959183673469394
 40
0.7959183673469394
 40
0.8061224489795925
 40
0.8061224489795925
 40
0.8061224489795925
 40
0.8061224489795925
 40
0.8163265306122456
 40
0.8163265306122456
 40
0.8163265306122456
 40
0.8163265306122456
 40
0.8265306122448987
 40
0.8265306122448987
 40
0.8265306122448987
 40
0.8265306122448987
 40
0.8367346938775517
 40
0.8367346938775517
 40
0.8367346938775517
 40
0.8367346938775517
 40
0.8469387755102048
 40
0.8469387755102048
 40
0.8469387755102048
 40
0.8469387755102048
 40
0.8571428571428579
 40
0.8571428571428579
 40
0.8571428571428579
 40
0.8571428571428579
 40
0.8673469387755109
 40
0.8673469387755109
 40
0.8673469387755109
 40
0.8673469387755109
 40
0.877551020408164
 40
0.877551020408164
 40
0.877551020408164
 40
0.877551020408164
 40
0.8877551020408171
 40
0.8877551020408171
 40
0.8877551020408171
 40
0.8877551020408171
 40
0.8979591836734702
 40
0.8979591836734702
 40
0.8979591836734702
 40
0.8979591836734702
 40
0.9081632653061232
 40
0.9081632653061232
 40
0.9081632653061232
 40
0.9081632653061232
 40
0.9183673469387763
 40
0.9183673469387763
 40
0.9183673469387763
 40
0.9183673469387763
 40
0.9285714285714294
 40
0.9285714285714294
 40
0.9285714285714294
 40
0.9285714285714294
 40
0.9387755102040825
 40
0.9387755102040825
 40
0.9387755102040825
 40
0.9387755102040825
 40
0.9489795918367355
 40
0.9489795918367355
 40
0.9489795918367355
 40
0.9489795918367355
 40
0.9591836734693886
 40
0.9591836734693886
 40
0.9591836734693886
 40
0.9591836734693886
 40
0.9693877551020417
 40
0.9693877551020417
 40
0.9693877551020417
 40
0.9693877551020417
 40
0.9795918367346947
 40
0.9795918367346947
 40
0.9795918367346947
 40
0.9795918367346947
 40
0.9897959183673478
 40
0.9897959183673478
 40
0.9897959183673478
 40
0.9897959183673478
 40
1.0
 40
1.0
 40
1.0
 40
1.0
 10
-0.76185
 20
1.2541900000000001
 30
0.0
 10
-0.51039
 20
1.5081900000000001
 30
0.0
 10
-0.18019
 20
1.7063100000000002
 30
0.0
 10
0.04586
 20
1.9222100000000002
 30
0.0
 10
0.04586
 20
1.9222100000000002
 30
0.0
 10
0.04586
 20
1.9222100000000002
 30
0.0
 10
0.55386
 20
1.8079100000000001
 30
0.0
 10
0.55386
 20
1.8079100000000001
 30
0.0
 10
0.55386
 20
1.8079100000000001
 30
0.0
 10
0.55386
 20
1.8079100000000001
 30
0.0
 10
0.59958
 20
1.8764900000000002
 30
0.0
 10
0.59958
 20
1.8764900000000002
 30
0.0
 10
0.59958
 20
1.8764900000000002
 30
0.0
 10
1.2828400000000002
 20
1.9018900000000001
 30
0.0
 10
1.9305400000000001
 20
1.7952100000000002
 30
0.0
 10
2.5680800000000001
 20
1.6478900000000001
 30
0.0
 10
2.5680800000000001
 20
1.6478900000000001
 30
0.0
 10
2.8551000000000002
 20
1.3456300000000001
 30
0.0
 10
2.8220800000000001
 20
0.8350900000000001
 30
0.0
 10
3.1141800000000002
 20
0.59633
 30
0.0
 10
3.1141800000000002
 20
0.59633
 30
0.0
 10
2.9440000000000004
 20
0.7411100000000001
 30
0.0
 10
2.7509600000000001
 20
0.49981
 30
0.0
 10
2.5503
 20
0.4972700000000001
 30
0.0
 10
2.5503
 20
0.4972700000000001
 30
0.0
 10
2.3039200000000002
 20
0.6064900000000001
 30
0.0
 10
2.6417400000000004
 20
0.7385700000000001
 30
0.0
 10
2.7814400000000004
 20
0.74873
 30
0.0
 10
2.7814400000000004
 20
0.74873
 30
0.0
 10
3.0608400000000002
 20
1.0459100000000001
 30
0.0
 10
2.2709000000000001
 20
0.8630300000000001
 30
0.0
 10
2.3928200000000004
 20
0.5658500000000001
 30
0.0
 10
2.3928200000000004
 20
0.5658500000000001
 30
0.0
 10
2.2607400000000002
 20
0.61919
 30
0.0
 10
2.3928200000000004
 20
0.76651
 30
0.0
 10
2.3293200000000001
 20
0.87319
 30
0.0
 10
2.3293200000000001
 20
0.87319
 30
0.0
 10
2.2404200000000003
 20
0.91383
 30
0.0
 10
2.3496400000000004
 20
1.0586100000000001
 30
0.0
 10
2.2302600000000004
 20
1.0535300000000001
 30
0.0
 10
2.2302600000000004
 20
1.0535300000000001
 30
0.0
 10
2.2302600000000004
 20
1.0535300000000001
 30
0.0
 10
2.1388200000000004
 20
0.91383
 30
0.0
 10
2.1388200000000004
 20
0.91383
 30
0.0
 10
2.1388200000000004
 20
0.91383
 30
0.0
 10
2.0829400000000002
 20
0.9824100000000001
 30
0.0
 10
2.1947000000000001
 20
1.1805300000000001
 30
0.0
 10
2.0778600000000003
 20
1.15513
 30
0.0
 10
2.0778600000000003
 20
1.15513
 30
0.0
 10
2.0931000000000002
 20
1.1779900000000001
 30
0.0
 10
2.0702400000000001
 20
1.2414900000000002
 30
0.0
 10
2.0143600000000004
 20
1.2084700000000002
 30
0.0
 10
2.0143600000000004
 20
1.2084700000000002
 30
0.0
 10
2.0143600000000004
 20
1.2084700000000002
 30
0.0
 10
1.8340200000000002
 20
1.11195
 30
0.0
 10
1.8340200000000002
 20
1.11195
 30
0.0
 10
1.8340200000000002
 20
1.11195
 30
0.0
 10
1.7375
 20
1.3735700000000002
 30
0.0
 10
1.3692000000000002
 20
1.4954900000000002
 30
0.0
 10
1.1990200000000002
 20
1.7215500000000001
 30
0.0
 10
1.1990200000000002
 20
1.7215500000000001
 30
0.0
 10
1.1990200000000002
 20
1.7215500000000001
 30
0.0
 10
1.1177400000000002
 20
1.7240900000000001
 30
0.0
 10
1.1177400000000002
 20
1.7240900000000001
 30
0.0
 10
1.1177400000000002
 20
1.7240900000000001
 30
0.0
 10
1.0872600000000001
 20
1.2973700000000001
 30
0.0
 10
1.7349600000000001
 20
1.3913500000000001
 30
0.0
 10
1.7400400000000003
 20
1.07131
 30
0.0
 10
1.7400400000000003
 20
1.07131
 30
0.0
 10
1.7400400000000003
 20
1.07131
 30
0.0
 10
1.8365600000000002
 20
1.0103500000000001
 30
0.0
 10
1.8365600000000002
 20
1.0103500000000001
 30
0.0
 10
1.8365600000000002
 20
1.0103500000000001
 30
0.0
 10
1.8365600000000002
 20
1.0103500000000001
 30
0.0
 10
2.0499200000000002
 20
1.1373500000000001
 30
0.0
 10
2.0499200000000002
 20
1.1373500000000001
 30
0.0
 10
2.0499200000000002
 20
1.1373500000000001
 30
0.0
 10
2.0575400000000004
 20
0.8173100000000001
 30
0.0
 10
1.6663800000000002
 20
0.4744100000000001
 30
0.0
 10
1.3082400000000001
 20
0.43885
 30
0.0
 10
1.3082400000000001
 20
0.43885
 30
0.0
 10
1.2142600000000001
 20
0.9824100000000001
 30
0.0
 10
0.30748
 20
0.87319
 30
0.0
 10
0.20842
 20
1.4345300000000001
 30
0.0
 10
0.20842
 20
1.4345300000000001
 30
0.0
 10
-0.58913
 20
1.6885300000000001
 30
0.0
 10
-1.2342900000000001
 20
0.5277500000000001
 30
0.0
 10
-0.7516900000000001
 20
-0.03104
 30
0.0
 10
-0.7516900000000001
 20
-0.03104
 30
0.0
 10
-0.25131
 20
-0.1047
 30
0.0
 10
0.23636
 20
0.15437
 30
0.0
 10
0.71896
 20
0.17469
 30
0.0
 10
0.71896
 20
0.17469
 30
0.0
 10
0.5005200000000001
 20
-0.01072
 30
0.0
 10
0.2389
 20
-0.04882
 30
0.0
 10
-0.06335
 20
-0.04628
 30
0.0
 10
-0.06335
 20
-0.04628
 30
0.0
 10
-0.13955
 20
-0.04628
 30
0.0
 10
-0.20559
 20
-0.03104
 30
0.0
 10
-0.35799
 20
-0.0666
 30
0.0
 10
-0.35799
 20
-0.0666
 30
0.0
 10
0.16016
 20
-0.14026
 30
0.0
 10
-0.4494300000000001
 20
-0.3079
 30
0.0
 10
-0.74153
 20
-0.2698
 30
0.0
 10
-0.74153
 20
-0.2698
 30
0.0
 10
-0.8329700000000001
 20
-0.20884
 30
0.0
 10
-0.9701300000000001
 20
-0.13772
 30
0.0
 10
-1.12507
 20
-0.1682
 30
0.0
 10
-1.12507
 20
-0.1682
 30
0.0
 10
-0.74407
 20
-0.63048
 30
0.0
 10
0.39638
 20
-0.21138
 30
0.0
 10
0.8764400000000001
 20
0.18993
 30
0.0
 10
0.8764400000000001
 20
0.18993
 30
0.0
 10
0.8764400000000001
 20
0.18993
 30
0.0
 10
1.0847200000000001
 20
0.17215
 30
0.0
 10
1.0847200000000001
 20
0.17215
 30
0.0
 10
1.0847200000000001
 20
0.17215
 30
0.0
 10
1.0847200000000001
 20
0.17215
 30
0.0
 10
0.8231000000000001
 20
-0.22154
 30
0.0
 10
0.8231000000000001
 20
-0.22154
 30
0.0
 10
0.8231000000000001
 20
-0.22154
 30
0.0
 10
0.8231000000000001
 20
-0.22154
 30
0.0
 10
0.7113400000000001
 20
-0.16566
 30
0.0
 10
0.7113400000000001
 20
-0.16566
 30
0.0
 10
0.7113400000000001
 20
-0.16566
 30
0.0
 10
0.1881
 20
-0.47554
 30
0.0
 10
-0.31735
 20
-0.4603
 30
0.0
 10
-0.88631
 20
-0.5390400000000001
 30
0.0
 10
-0.88631
 20
-0.5390400000000001
 30
0.0
 10
-1.08443
 20
-0.69906
 30
0.0
 10
-1.2876300000000001
 20
-0.8794000000000001
 30
0.0
 10
-1.4730500000000002
 20
-1.07498
 30
0.0
 10
-1.4730500000000002
 20
-1.07498
 30
0.0
 10
-2.0902700000000003
 20
-1.7277600000000002
 30
0.0
 10
-2.22235
 20
-1.9131800000000001
 30
0.0
 10
-1.4781300000000002
 20
-1.2299200000000001
 30
0.0
 10
-1.4781300000000002
 20
-1.2299200000000001
 30
0.0
 10
-1.4781300000000002
 20
-1.2299200000000001
 30
0.0
 10
-1.41717
 20
-1.1740400000000002
 30
0.0
 10
-1.41717
 20
-1.1740400000000002
 30
0.0
 10
-1.41717
 20
-1.1740400000000002
 30
0.0
 10
-1.41717
 20
-1.1740400000000002
 30
0.0
 10
-1.37399
 20
-1.2400800000000001
 30
0.0
 10
-1.37399
 20
-1.2400800000000001
 30
0.0
 10
-1.37399
 20
-1.2400800000000001
 30
0.0
 10
-1.37399
 20
-1.2400800000000001
 30
0.0
 10
-1.4374900000000002
 20
-1.5601200000000002
 30
0.0
 10
-1.4374900000000002
 20
-1.5601200000000002
 30
0.0
 10
-1.4374900000000002
 20
-1.5601200000000002
 30
0.0
 10
-1.3181100000000001
 20
-1.4280400000000002
 30
0.0
 10
-1.2342900000000001
 20
-1.3061200000000002
 30
0.0
 10
-1.1580900000000001
 20
-1.1892800000000001
 30
0.0
 10
-1.1580900000000001
 20
-1.1892800000000001
 30
0.0
 10
-1.00315
 20
-0.9530600000000001
 30
0.0
 10
-0.88885
 20
-0.7498600000000001
 30
0.0
 10
-0.61199
 20
-0.5847600000000001
 30
0.0
 10
-0.61199
 20
-0.5847600000000001
 30
0.0
 10
-0.09637
 20
-0.63556
 30
0.0
 10
0.28462
 20
-0.4806200000000001
 30
0.0
 10
0.74436
 20
-0.26472
 30
0.0
 10
0.74436
 20
-0.26472
 30
0.0
 10
0.63768
 20
-0.4272800000000001
 30
0.0
 10
0.51576
 20
-0.4882400000000001
 30
0.0
 10
0.37352
 20
-0.5771400000000001
 30
0.0
 10
0.37352
 20
-0.5771400000000001
 30
0.0
 10
0.37352
 20
-0.5771400000000001
 30
0.0
 10
-0.36053
 20
-1.0114800000000002
 30
0.0
 10
-0.36053
 20
-1.0114800000000002
 30
0.0
 10
-0.36053
 20
-1.0114800000000002
 30
0.0
 10
-0.6069100000000001
 20
-1.08514
 30
0.0
 10
-0.7516900000000001
 20
-1.3569200000000001
 30
0.0
 10
-0.4392700000000001
 20
-1.1105400000000001
 30
0.0
 10
-0.4392700000000001
 20
-1.1105400000000001
 30
0.0
 10
-0.33005
 20
-1.0673600000000001
 30
0.0
 10
-0.21829
 20
-1.0241800000000001
 30
0.0
 10
-0.12685
 20
-0.9632200000000001
 30
0.0
 10
-0.12685
 20
-0.9632200000000001
 30
0.0
 10
0.7596000000000001
 20
-0.5974600000000001
 30
0.0
 10
1.3387200000000001
 20
0.20517
 30
0.0
 10
2.1083400000000001
 20
0.76651
 30
0.0
 10
2.1083400000000001
 20
0.76651
 30
0.0
 10
2.0499200000000002
 20
0.57347
 30
0.0
 10
1.8492600000000001
 20
0.37281
 30
0.0
 10
2.17692
 20
0.5404500000000001
 30
0.0
 10
2.17692
 20
0.5404500000000001
 30
0.0
 10
2.3191600000000001
 20
0.24835
 30
0.0
 10
1.8797400000000002
 20
0.41853
 30
0.0
 10
1.7171800000000002
 20
0.32455
 30
0.0
 10
1.7171800000000002
 20
0.32455
 30
0.0
 10
2.2302600000000004
 20
0.29153
 30
0.0
 10
3.0379800000000001
 20
-0.5619000000000001
 30
0.0
 10
2.3521800000000002
 20
-0.5644400000000001
 30
0.0
 10
2.3521800000000002
 20
-0.5644400000000001
 30
0.0
 10
2.3039200000000002
 20
-1.0165600000000001
 30
0.0
 10
2.4842600000000004
 20
-1.8623800000000001
 30
0.0
 10
2.5909400000000002
 20
-2.0808200000000001
 30
0.0
 10
2.5909400000000002
 20
-2.0808200000000001
 30
0.0
 10
2.5299800000000001
 20
-1.5931400000000002
 30
0.0
 10
3.0176600000000002
 20
-1.3289800000000001
 30
0.0
 10
2.7077800000000001
 20
-0.8133600000000001
 30
0.0
 10
2.7077800000000001
 20
-0.8133600000000001
 30
0.0
 10
2.6138000000000003
 20
-0.36886
 30
0.0
 10
3.0735400000000004
 20
-1.2985000000000002
 30
0.0
 10
2.8424
 20
-1.54742
 30
0.0
 10
2.8424
 20
-1.54742
 30
0.0
 10
2.9414600000000002
 20
-1.5652000000000001
 30
0.0
 10
2.9592400000000003
 20
-1.4763000000000002
 30
0.0
 10
3.0024200000000003
 20
-1.4128000000000001
 30
0.0
 10
3.0024200000000003
 20
-1.4128000000000001
 30
0.0
 10
3.0583000000000005
 20
-1.33152
 30
0.0
 10
3.0760800000000001
 20
-1.1867400000000001
 30
0.0
 10
3.0887800000000003
 20
-1.0953000000000002
 30
0.0
 10
3.0887800000000003
 20
-1.0953000000000002
 30
0.0
 10
3.4545400000000002
 20
-1.4788400000000002
 30
0.0
 10
3.30722
 20
-1.9309600000000002
 30
0.0
 10
3.1649800000000003
 20
-2.4034
 30
0.0
 10
3.1649800000000003
 20
-2.4034
 30
0.0
 10
2.7484200000000003
 20
-2.5304000000000002
 30
0.0
 10
2.25312
 20
-2.4948400000000004
 30
0.0
 10
1.8924400000000001
 20
-2.5888200000000001
 30
0.0
 10
1.8924400000000001
 20
-2.5888200000000001
 30
0.0
 10
1.9407000000000001
 20
-2.4389600000000002
 30
0.0
 10
1.9661000000000002
 20
-2.2713200000000002
 30
0.0
 10
1.8594200000000001
 20
-2.1544800000000004
 30
0.0
 10
1.8594200000000001
 20
-2.1544800000000004
 30
0.0
 10
1.8594200000000001
 20
-2.1544800000000004
 30
0.0
 10
1.8492600000000001
 20
-2.5786600000000002
 30
0.0
 10
1.8492600000000001
 20
-2.5786600000000002
 30
0.0
 10
1.8492600000000001
 20
-2.5786600000000002
 30
0.0
 10
1.5216000000000001
 20
-2.56596
 30
0.0
 10
0.51322
 20
-2.4770600000000003
 30
0.0
 10
1.0263
 20
-2.1265400000000003
 30
0.0
 10
1.0263
 20
-2.1265400000000003
 30
0.0
 10
0.8129400000000001
 20
-2.27386
 30
0.0
 10
0.7697600000000001
 20
-1.8801600000000001
 30
0.0
 10
0.8612000000000001
 20
-1.6388600000000002
 30
0.0
 10
0.8612000000000001
 20
-1.6388600000000002
 30
0.0
 10
0.7951600000000001
 20
-1.6160000000000001
 30
0.0
 10
0.7113400000000001
 20
-1.7379200000000001
 30
0.0
 10
0.6732400000000001
 20
-1.79634
 30
0.0
 10
0.6732400000000001
 20
-1.79634
 30
0.0
 10
0.52846
 20
-2.0173200000000002
 30
0.0
 10
0.3989200000000001
 20
-2.2713200000000002
 30
0.0
 10
0.6884800000000001
 20
-2.2586200000000001
 30
0.0
 10
0.6884800000000001
 20
-2.2586200000000001
 30
0.0
 10
0.5233800000000001
 20
-2.3348200000000001
 30
0.0
 10
0.02554
 20
-2.27894
 30
0.0
 10
0.1119
 20
-2.0173200000000002
 30
0.0
 10
0.1119
 20
-2.0173200000000002
 30
0.0
 10
-0.22845
 20
-2.2103600000000001
 30
0.0
 10
-0.00747
 20
-1.8217400000000001
 30
0.0
 10
0.16778
 20
-1.7049000000000001
 30
0.0
 10
0.16778
 20
-1.7049000000000001
 30
0.0
 10
-0.17765
 20
-1.3975600000000001
 30
0.0
 10
0.6478400000000001
 20
-1.1029200000000001
 30
0.0
 10
0.8815200000000001
 20
-0.8717800000000001
 30
0.0
 10
0.8815200000000001
 20
-0.8717800000000001
 30
0.0
 10
0.9170800000000001
 20
-1.0445
 30
0.0
 10
0.8561200000000001
 20
-1.1384800000000002
 30
0.0
 10
0.78246
 20
-1.2756400000000001
 30
0.0
 10
0.78246
 20
-1.2756400000000001
 30
0.0
 10
0.61736
 20
-1.4509000000000001
 30
0.0
 10
0.9450200000000001
 20
-1.7430000000000001
 30
0.0
 10
1.2015600000000002
 20
-1.4280400000000002
 30
0.0
 10
1.2015600000000002
 20
-1.4280400000000002
 30
0.0
 10
1.2269600000000001
 20
-1.4686800000000002
 30
0.0
 10
1.19648
 20
-1.5347200000000001
 30
0.0
 10
1.2066400000000002
 20
-1.5753600000000001
 30
0.0
 10
1.2066400000000002
 20
-1.5753600000000001
 30
0.0
 10
1.27268
 20
-1.8496800000000002
 30
0.0
 10
1.0466200000000001
 20
-2.0859000000000001
 30
0.0
 10
1.3107800000000001
 20
-2.3297400000000001
 30
0.0
 10
1.3107800000000001
 20
-2.3297400000000001
 30
0.0
 10
1.5139800000000001
 20
-1.7658600000000002
 30
0.0
 10
1.0745600000000002
 20
-1.3137400000000001
 30
0.0
 10
1.10504
 20
-0.88702
 30
0.0
 10
1.10504
 20
-0.88702
 30
0.0
 10
1.2523600000000001
 20
-0.8159000000000001
 30
0.0
 10
1.2218800000000001
 20
-0.4806200000000001
 30
0.0
 10
1.3819000000000001
 20
-0.6685800000000001
 30
0.0
 10
1.3819000000000001
 20
-0.6685800000000001
 30
0.0
 10
1.4809600000000001
 20
-0.56698
 30
0.0
 10
1.4606400000000002
 20
-0.47046
 30
0.0
 10
1.4708000000000001
 20
-0.32822
 30
0.0
 10
1.4708000000000001
 20
-0.32822
 30
0.0
 10
0.9907400000000001
 20
-0.7295400000000001
 30
0.0
 10
-0.03287
 20
-1.2248400000000002
 30
0.0
 10
-0.14463
 20
-1.6490200000000002
 30
0.0
 10
-0.14463
 20
-1.6490200000000002
 30
0.0
 10
-0.39863
 20
-2.0655800000000002
 30
0.0
 10
-0.7974100000000001
 20
-2.1900400000000002
 30
0.0
 10
-1.07935
 20
-2.4897600000000004
 30
0.0
 10
-1.07935
 20
-2.4897600000000004
 30
0.0
 10
-1.1580900000000001
 20
-2.6853400000000001
 30
0.0
 10
-1.1504700000000001
 20
-2.9063200000000005
 30
0.0
 10
-1.08697
 20
-3.11206
 30
0.0
 10
-1.08697
 20
-3.11206
 30
0.0
 10
-0.9015500000000001
 20
-3.6149800000000001
 30
0.0
 10
-0.7288300000000001
 20
-3.3787600000000002
 30
0.0
 10
-0.5586500000000001
 20
-3.7038800000000003
 30
0.0
 10
-0.5586500000000001
 20
-3.7038800000000003
 30
0.0
 10
-0.8304300000000001
 20
-3.5616400000000001
 30
0.0
 10
-1.4552700000000001
 20
-3.6734000000000004
 30
0.0
 10
-1.4730500000000002
 20
-3.3940000000000001
 30
0.0
 10
-1.4730500000000002
 20
-3.3940000000000001
 30
0.0
 10
-1.9988300000000001
 20
-3.5845000000000002
 30
0.0
 10
-2.4306300000000003
 20
-2.9723600000000001
 30
0.0
 10
-2.4763500000000001
 20
-2.4796
 30
0.0
 10
-2.4763500000000001
 20
-2.4796
 30
0.0
 10
-2.7887700000000004
 20
-2.5253200000000002
 30
0.0
 10
-2.5576300000000001
 20
-1.8954000000000002
 30
0.0
 10
-2.3823700000000003
 20
-1.6769600000000002
 30
0.0
 10
-2.3823700000000003
 20
-1.6769600000000002
 30
0.0
 10
-2.3899900000000001
 20
-1.7379200000000001
 30
0.0
 10
-2.4153900000000004
 20
-1.8039600000000002
 30
0.0
 10
-2.4407900000000002
 20
-1.8700000000000001
 30
0.0
 10
-2.4407900000000002
 20
-1.8700000000000001
 30
0.0
 10
-2.4941300000000002
 20
-2.1036800000000002
 30
0.0
 10
-2.4509500000000002
 20
-2.31196
 30
0.0
 10
-2.3976100000000002
 20
-2.5634200000000003
 30
0.0
 10
-2.3976100000000002
 20
-2.5634200000000003
 30
0.0
 10
-2.3722100000000004
 20
-2.1976600000000004
 30
0.0
 10
-2.2883900000000001
 20
-1.8369800000000001
 30
0.0
 10
-2.11313
 20
-1.5194800000000002
 30
0.0
 10
-2.11313
 20
-1.5194800000000002
 30
0.0
 10
-2.11313
 20
-1.5194800000000002
 30
0.0
 10
-1.7702300000000002
 20
-0.9454400000000001
 30
0.0
 10
-1.7702300000000002
 20
-0.9454400000000001
 30
0.0
 10
-1.7702300000000002
 20
-0.9454400000000001
 30
0.0
 10
-1.9480300000000002
 20
-0.9632200000000001
 30
0.0
 10
-1.9480300000000002
 20
-1.24516
 30
0.0
 10
-2.1309100000000001
 20
-1.2426200000000001
 30
0.0
 10
-2.1309100000000001
 20
-1.2426200000000001
 30
0.0
 10
-2.3366500000000001
 20
-1.6058400000000002
 30
0.0
 10
-2.7608300000000003
 20
-1.79634
 30
0.0
 10
-2.8700500000000004
 20
-2.1417800000000002
 30
0.0
 10
-2.8700500000000004
 20
-2.1417800000000002
 30
0.0
 10
-2.9183100000000004
 20
-1.9106400000000001
 30
0.0
 10
-3.0910300000000004
 20
-1.6642600000000001
 30
0.0
 10
-2.9386300000000003
 20
-1.4331200000000002
 30
0.0
 10
-2.9386300000000003
 20
-1.4331200000000002
 30
0.0
 10
-2.7405100000000004
 20
-1.5118600000000002
 30
0.0
 10
-2.5423900000000001
 20
-1.4890000000000001
 30
0.0
 10
-2.3341100000000004
 20
-1.4255000000000002
 30
0.0
 10
-2.3341100000000004
 20
-1.4255000000000002
 30
0.0
 10
-2.3341100000000004
 20
-1.4255000000000002
 30
0.0
 10
-2.5068300000000003
 20
-1.3823200000000002
 30
0.0
 10
-2.5068300000000003
 20
-1.3823200000000002
 30
0.0
 10
-2.5068300000000003
 20
-1.3823200000000002
 30
0.0
 10
-3.4974300000000005
 20
-1.08768
 30
0.0
 10
-4.25943
 20
0.49981
 30
0.0
 10
-3.1875500000000003
 20
1.2643500000000001
 30
0.0
 10
-3.1875500000000003
 20
1.2643500000000001
 30
0.0
 10
-2.9792700000000001
 20
1.0459100000000001
 30
0.0
 10
-2.7887700000000004
 20
0.7080900000000001
 30
0.0
 10
-2.3798300000000001
 20
0.6903100000000001
 30
0.0
 10
-2.3798300000000001
 20
0.6903100000000001
 30
0.0
 10
-2.3798300000000001
 20
0.6903100000000001
 30
0.0
 10
-1.6914900000000002
 20
1.2567300000000001
 30
0.0
 10
-1.6914900000000002
 20
1.2567300000000001
 30
0.0
 10
-1.6914900000000002
 20
1.2567300000000001
 30
0.0
 10
-1.4806700000000002
 20
1.6021700000000001
 30
0.0
 10
-1.2190500000000002
 20
2.0796900000000003
 30
0.0
 10
-0.7288300000000001
 20
1.9603100000000002
 30
0.0
 10
-0.7288300000000001
 20
1.9603100000000002
 30
0.0
 10
-1.07935
 20
1.8053700000000001
 30
0.0
 10
-1.24699
 20
1.4497700000000002
 30
0.0
 10
-1.3841500000000002
 20
1.1398900000000001
 30
0.0
 10
-1.3841500000000002
 20
1.1398900000000001
 30
0.0
 10
-1.5619500000000002
 20
0.74365
 30
0.0
 10
-1.4019300000000001
 20
0.17215
 30
0.0
 10
-1.9810500000000002
 20
0.05277
 30
0.0
 10
-1.9810500000000002
 20
0.05277
 30
0.0
 10
-1.3917700000000002
 20
0.03499
 30
0.0
 10
-1.4247900000000002
 20
0.5709300000000001
 30
0.0
 10
-1.1987300000000001
 20
0.9392300000000001
 30
0.0
 10
-1.1987300000000001
 20
0.9392300000000001
 30
0.0
 10
-1.1987300000000001
 20
0.9392300000000001
 30
0.0
 10
-1.0310900000000001
 20
1.19577
 30
0.0
 10
-1.0310900000000001
 20
1.19577
 30
0.0
 10
-1.0310900000000001
 20
1.19577
 30
0.0
 10
-0.76439
 20
1.5513700000000001
 30
0.0
 10
-0.7085100000000001
 20
2.1457300000000004
 30
0.0
 10
-0.07605
 20
1.9374500000000001
 30
0.0
 10
-0.07605
 20
1.9374500000000001
 30
0.0
 10
-0.47229
 20
1.8358500000000002
 30
0.0
 10
-0.6246900000000001
 20
1.5793100000000002
 30
0.0
 10
-0.7999500000000001
 20
1.2643500000000001
 30
0.0
 10
-0.7999500000000001
 20
1.2643500000000001
 30
0.0
 10
-0.9472700000000001
 20
0.99765
 30
0.0
 10
-0.91171
 20
1.0967100000000001
 30
0.0
 10
-0.76185
 20
1.2541900000000001
 30
0.0
  0
SPLINE
  5
2D
100
AcDbEntity
  8
Ebene 1
 62
     7
100
AcDbSpline
210
0.0
220
0.0
230
1.0
 70
     1
 71
     3
 72
    16
 73
    12
 74
     0
 42
0.0000000001
 43
0.0000000001
 40
0.0
 40
0.0
 40
0.0
 40
0.0
 40
0.3333333333333333
 40
0.3333333333333333
 40
0.3333333333333333
 40
0.3333333333333333
 40
0.6666666666666666
 40
0.6666666666666666
 40
0.6666666666666666
 40
0.6666666666666666
 40
1.0
 40
1.0
 40
1.0
 40
1.0
 10
-5.3744900000000007
 20
0.9874900000000001
 30
0.0
 10
-4.9934900000000004
 20
1.0078100000000001
 30
0.0
 10
-4.60487
 20
0.9900300000000001
 30
0.0
 10
-4.2340300000000006
 20
1.14497
 30
0.0
 10
-4.2340300000000006
 20
1.14497
 30
0.0
 10
-4.5718500000000004
 20
0.8350900000000001
 30
0.0
 10
-5.0138100000000003
 20
1.0027300000000001
 30
0.0
 10
-5.4176700000000002
 20
0.9392300000000001
 30
0.0
 10
-5.4176700000000002
 20
0.9392300000000001
 30
0.0
 10
-5.4176700000000002
 20
0.9392300000000001
 30
0.0
 10
-5.3744900000000007
 20
0.9874900000000001
 30
0.0
 10
-5.3744900000000007
 20
0.9874900000000001
 30
0.0
  0
SPLINE
  5
2E
100
AcDbEntity
  8
Ebene 1
 62
     7
100
AcDbSpline
210
0.0
220
0.0
230
1.0
 70
     1
 71
     3
 72
    32
 73
    28
 74
     0
 42
0.0000000001
 43
0.0000000001
 40
0.0
 40
0.0
 40
0.0
 40
0.0
 40
0.1428571428571429
 40
0.1428571428571429
 40
0.1428571428571429
 40
0.1428571428571429
 40
0.2857142857142857
 40
0.2857142857142857
 40
0.2857142857142857
 40
0.2857142857142857
 40
0.4285714285714286
 40
0.4285714285714286
 40
0.4285714285714286
 40
0.4285714285714286
 40
0.5714285714285714
 40
0.5714285714285714
 40
0.5714285714285714
 40
0.5714285714285714
 40
0.7142857142857142
 40
0.7142857142857142
 40
0.7142857142857142
 40
0.7142857142857142
 40
0.857142857142857
 40
0.857142857142857
 40
0.857142857142857
 40
0.857142857142857
 40
1.0
 40
1.0
 40
1.0
 40
1.0
 10
-2.10805
 20
1.4116700000000002
 30
0.0
 10
-2.10297
 20
1.2922900000000002
 30
0.0
 10
-2.2807700000000004
 20
1.27451
 30
0.0
 10
-2.31887
 20
1.1678300000000001
 30
0.0
 10
-2.31887
 20
1.1678300000000001
 30
0.0
 10
-2.2198100000000003
 20
1.0865500000000001
 30
0.0
 10
-2.11313
 20
1.2491100000000002
 30
0.0
 10
-2.0674100000000002
 20
1.32023
 30
0.0
 10
-2.0674100000000002
 20
1.32023
 30
0.0
 10
-2.0674100000000002
 20
1.32023
 30
0.0
 10
-1.8997700000000002
 20
1.5767700000000002
 30
0.0
 10
-1.8997700000000002
 20
1.5767700000000002
 30
0.0
 10
-1.8997700000000002
 20
1.5767700000000002
 30
0.0
 10
-1.9912100000000001
 20
1.3354700000000002
 30
0.0
 10
-1.9785100000000002
 20
1.0967100000000001
 30
0.0
 10
-2.27061
 20
1.0357500000000002
 30
0.0
 10
-2.27061
 20
1.0357500000000002
 30
0.0
 10
-2.2731500000000002
 20
0.85287
 30
0.0
 10
-2.52461
 20
0.9011300000000001
 30
0.0
 10
-2.6185900000000002
 20
0.9620900000000001
 30
0.0
 10
-2.6185900000000002
 20
0.9620900000000001
 30
0.0
 10
-2.5449300000000004
 20
0.99765
 30
0.0
 10
-2.4534900000000004
 20
1.0382900000000002
 30
0.0
 10
-2.4306300000000003
 20
1.1221100000000002
 30
0.0
 10
-2.4306300000000003
 20
1.1221100000000002
 30
0.0
 10
-2.4306300000000003
 20
1.1221100000000002
 30
0.0
 10
-2.10805
 20
1.4116700000000002
 30
0.0
 10
-2.10805
 20
1.4116700000000002
 30
0.0
  0
SPLINE
  5
2F
100
AcDbEntity
  8
Ebene 1
 62
     7
100
AcDbSpline
210
0.0
220
0.0
230
1.0
 70
     1
 71
     3
 72
    36
 73
    32
 74
     0
 42
0.0000000001
 43
0.0000000001
 40
0.0
 40
0.0
 40
0.0
 40
0.0
 40
0.125
 40
0.125
 40
0.125
 40
0.125
 40
0.25
 40
0.25
 40
0.25
 40
0.25
 40
0.375
 40
0.375
 40
0.375
 40
0.375
 40
0.5
 40
0.5
 40
0.5
 40
0.5
 40
0.625
 40
0.625
 40
0.625
 40
0.625
 40
0.75
 40
0.75
 40
0.75
 40
0.75
 40
0.875
 40
0.875
 40
0.875
 40
0.875
 40
1.0
 40
1.0
 40
1.0
 40
1.0
 10
-5.4887900000000007
 20
0.48203
 30
0.0
 10
-5.4786300000000008
 20
0.6242700000000001
 30
0.0
 10
-5.3109900000000003
 20
0.68015
 30
0.0
 10
-5.1941500000000005
 20
0.72587
 30
0.0
 10
-5.1941500000000005
 20
0.72587
 30
0.0
 10
-5.15097
 20
0.7944500000000001
 30
0.0
 10
-5.0315900000000005
 20
0.8198500000000001
 30
0.0
 10
-4.94015
 20
0.8376300000000001
 30
0.0
 10
-4.94015
 20
0.8376300000000001
 30
0.0
 10
-4.94015
 20
0.8376300000000001
 30
0.0
 10
-4.6683700000000004
 20
0.8147700000000001
 30
0.0
 10
-4.6683700000000004
 20
0.8147700000000001
 30
0.0
 10
-4.6683700000000004
 20
0.8147700000000001
 30
0.0
 10
-4.9223700000000008
 20
0.68015
 30
0.0
 10
-5.2068500000000002
 20
0.5633100000000001
 30
0.0
 10
-5.41005
 20
0.33979
 30
0.0
 10
-5.41005
 20
0.33979
 30
0.0
 10
-5.49641
 20
0.4413900000000001
 30
0.0
 10
-5.3465500000000006
 20
0.51251
 30
0.0
 10
-5.2779700000000007
 20
0.5658500000000001
 30
0.0
 10
-5.2779700000000007
 20
0.5658500000000001
 30
0.0
 10
-5.2779700000000007
 20
0.5658500000000001
 30
0.0
 10
-5.0087300000000008
 20
0.70301
 30
0.0
 10
-5.0087300000000008
 20
0.70301
 30
0.0
 10
-5.0087300000000008
 20
0.70301
 30
0.0
 10
-4.98841
 20
0.7080900000000001
 30
0.0
 10
-4.98841
 20
0.7284100000000001
 30
0.0
 10
-5.0011100000000006
 20
0.74619
 30
0.0
 10
-5.0011100000000006
 20
0.74619
 30
0.0
 10
-5.19923
 20
0.72587
 30
0.0
 10
-5.3516300000000001
 20
0.6115700000000001
 30
0.0
 10
-5.4887900000000007
 20
0.48203
 30
0.0
  0
SPLINE
  5
30
100
AcDbEntity
  8
Ebene 1
 62
     7
100
AcDbSpline
210
0.0
220
0.0
230
1.0
 70
     1
 71
     3
 72
    20
 73
    16
 74
     0
 42
0.0000000001
 43
0.0000000001
 40
0.0
 40
0.0
 40
0.0
 40
0.0
 40
0.25
 40
0.25
 40
0.25
 40
0.25
 40
0.5
 40
0.5
 40
0.5
 40
0.5
 40
0.75
 40
0.75
 40
0.75
 40
0.75
 40
1.0
 40
1.0
 40
1.0
 40
1.0
 10
-4.9147500000000006
 20
0.64205
 30
0.0
 10
-4.9147500000000006
 20
0.64205
 30
0.0
 10
-4.8614100000000002
 20
0.6522100000000001
 30
0.0
 10
-4.8614100000000002
 20
0.6522100000000001
 30
0.0
 10
-4.8614100000000002
 20
0.6522100000000001
 30
0.0
 10
-4.9452300000000005
 20
0.57601
 30
0.0
 10
-5.0595300000000005
 20
0.49219
 30
0.0
 10
-5.1763700000000004
 20
0.46679
 30
0.0
 10
-5.1763700000000004
 20
0.46679
 30
0.0
 10
-5.1763700000000004
 20
0.46679
 30
0.0
 10
-5.0620700000000003
 20
0.55315
 30
0.0
 10
-5.0620700000000003
 20
0.55315
 30
0.0
 10
-5.0620700000000003
 20
0.55315
 30
0.0
 10
-5.0620700000000003
 20
0.55315
 30
0.0
 10
-4.9147500000000006
 20
0.64205
 30
0.0
 10
-4.9147500000000006
 20
0.64205
 30
0.0
  0
SPLINE
  5
31
100
AcDbEntity
  8
Ebene 1
100
AcDbSpline
210
0.0
220
0.0
230
1.0
 70
     1
 71
     3
 72
    12
 73
     8
 74
     0
 42
0.0000000001
 43
0.0000000001
 40
0.0
 40
0.0
 40
0.0
 40
0.0
 40
0.5
 40
0.5
 40
0.5
 40
0.5
 40
1.0
 40
1.0
 40
1.0
 40
1.0
 10
0.7367400000000001
 20
1.8079100000000001
 30
0.0
 10
0.8485
 20
1.8485500000000001
 30
0.0
 10
1.0390000000000001
 20
1.8079100000000001
 30
0.0
 10
1.06694
 20
1.6758300000000002
 30
0.0
 10
1.06694
 20
1.6758300000000002
 30
0.0
 10
1.06694
 20
1.6758300000000002
 30
0.0
 10
0.7367400000000001
 20
1.8079100000000001
 30
0.0
 10
0.7367400000000001
 20
1.8079100000000001
 30
0.0
  0
SPLINE
  5
32
100
AcDbEntity
  8
Ebene 1
100
AcDbSpline
210
0.0
220
0.0
230
1.0
 70
     1
 71
     3
 72
    44
 73
    40
 74
     0
 42
0.0000000001
 43
0.0000000001
 40
0.0
 40
0.0
 40
0.0
 40
0.0
 40
0.1
 40
0.1
 40
0.1
 40
0.1
 40
0.2
 40
0.2
 40
0.2
 40
0.2
 40
0.3
 40
0.3
 40
0.3
 40
0.3
 40
0.4
 40
0.4
 40
0.4
 40
0.4
 40
0.5
 40
0.5
 40
0.5
 40
0.5
 40
0.6
 40
0.6
 40
0.6
 40
0.6
 40
0.7
 40
0.7
 40
0.7
 40
0.7
 40
0.7999999999999999
 40
0.7999999999999999
 40
0.7999999999999999
 40
0.7999999999999999
 40
0.8999999999999999
 40
0.8999999999999999
 40
0.8999999999999999
 40
0.8999999999999999
 40
1.0
 40
1.0
 40
1.0
 40
1.0
 10
0.38622
 20
1.6529700000000001
 30
0.0
 10
0.38622
 20
1.6529700000000001
 30
0.0
 10
0.7164200000000001
 20
1.6224900000000002
 30
0.0
 10
0.7164200000000001
 20
1.6224900000000002
 30
0.0
 10
0.7164200000000001
 20
1.6224900000000002
 30
0.0
 10
0.7977000000000001
 20
1.5183500000000001
 30
0.0
 10
0.5487800000000001
 20
1.6453500000000001
 30
0.0
 10
0.46496
 20
1.56915
 30
0.0
 10
0.46496
 20
1.56915
 30
0.0
 10
0.5233800000000001
 20
1.4802500000000001
 30
0.0
 10
0.7088000000000001
 20
1.5589900000000001
 30
0.0
 10
0.7900800000000001
 20
1.4573900000000002
 30
0.0
 10
0.7900800000000001
 20
1.4573900000000002
 30
0.0
 10
0.7900800000000001
 20
1.4573900000000002
 30
0.0
 10
0.6249800000000001
 20
1.4802500000000001
 30
0.0
 10
0.6249800000000001
 20
1.4802500000000001
 30
0.0
 10
0.6249800000000001
 20
1.4802500000000001
 30
0.0
 10
0.8612000000000001
 20
1.2668900000000001
 30
0.0
 10
1.06948
 20
1.2948300000000001
 30
0.0
 10
1.18632
 20
1.1170300000000002
 30
0.0
 10
1.18632
 20
1.1170300000000002
 30
0.0
 10
1.39714
 20
1.0789300000000002
 30
0.0
 10
1.6282800000000002
 20
1.02813
 30
0.0
 10
1.69432
 20
0.8198500000000001
 30
0.0
 10
1.69432
 20
0.8198500000000001
 30
0.0
 10
1.69432
 20
0.8198500000000001
 30
0.0
 10
1.5470000000000002
 20
0.74873
 30
0.0
 10
1.5470000000000002
 20
0.74873
 30
0.0
 10
1.5470000000000002
 20
0.74873
 30
0.0
 10
1.5114400000000001
 20
0.8223900000000001
 30
0.0
 10
1.4581000000000002
 20
0.7919100000000001
 30
0.0
 10
1.39968
 20
0.7792100000000001
 30
0.0
 10
1.39968
 20
0.7792100000000001
 30
0.0
 10
1.2447400000000002
 20
1.02813
 30
0.0
 10
0.8764400000000001
 20
1.0509900000000001
 30
0.0
 10
0.7215
 20
1.2999100000000001
 30
0.0
 10
0.7215
 20
1.2999100000000001
 30
0.0
 10
0.5487800000000001
 20
1.2643500000000001
 30
0.0
 10
0.404
 20
1.4751700000000001
 30
0.0
 10
0.38622
 20
1.6529700000000001
 30
0.0
  0
SPLINE
  5
33
100
AcDbEntity
  8
Ebene 1
 62
     7
100
AcDbSpline
210
0.0
220
0.0
230
1.0
 70
     1
 71
     3
 72
    20
 73
    16
 74
     0
 42
0.0000000001
 43
0.0000000001
 40
0.0
 40
0.0
 40
0.0
 40
0.0
 40
0.25
 40
0.25
 40
0.25
 40
0.25
 40
0.5
 40
0.5
 40
0.5
 40
0.5
 40
0.75
 40
0.75
 40
0.75
 40
0.75
 40
1.0
 40
1.0
 40
1.0
 40
1.0
 10
-5.0722300000000002
 20
0.32963
 30
0.0
 10
-4.9604700000000008
 20
0.29153
 30
0.0
 10
-5.1687500000000002
 20
0.16707
 30
0.0
 10
-5.1662100000000004
 20
0.08833
 30
0.0
 10
-5.1662100000000004
 20
0.08833
 30
0.0
 10
-5.1916100000000007
 20
0.10357
 30
0.0
 10
-5.19923
 20
0.16199
 30
0.0
 10
-5.2525700000000004
 20
0.13151
 30
0.0
 10
-5.2525700000000004
 20
0.13151
 30
0.0
 10
-5.7046900000000003
 20
-0.22408
 30
0.0
 10
-5.7935900000000009
 20
-0.7854200000000001
 30
0.0
 10
-5.9332900000000004
 20
-1.29596
 30
0.0
 10
-5.9332900000000004
 20
-1.29596
 30
0.0
 10
-6.0831500000000007
 20
-0.6228600000000001
 30
0.0
 10
-5.5649900000000008
 20
-0.03358
 30
0.0
 10
-5.0722300000000002
 20
0.32963
 30
0.0
  0
SPLINE
  5
34
100
AcDbEntity
  8
Ebene 1
100
AcDbSpline
210
0.0
220
0.0
230
1.0
 70
     1
 71
     3
 72
    56
 73
    52
 74
     0
 42
0.0000000001
 43
0.0000000001
 40
0.0
 40
0.0
 40
0.0
 40
0.0
 40
0.0769230769230769
 40
0.0769230769230769
 40
0.0769230769230769
 40
0.0769230769230769
 40
0.1538461538461539
 40
0.1538461538461539
 40
0.1538461538461539
 40
0.1538461538461539
 40
0.2307692307692308
 40
0.2307692307692308
 40
0.2307692307692308
 40
0.2307692307692308
 40
0.3076923076923077
 40
0.3076923076923077
 40
0.3076923076923077
 40
0.3076923076923077
 40
0.3846153846153846
 40
0.3846153846153846
 40
0.3846153846153846
 40
0.3846153846153846
 40
0.4615384615384616
 40
0.4615384615384616
 40
0.4615384615384616
 40
0.4615384615384616
 40
0.5384615384615386
 40
0.5384615384615386
 40
0.5384615384615386
 40
0.5384615384615386
 40
0.6153846153846154
 40
0.6153846153846154
 40
0.6153846153846154
 40
0.6153846153846154
 40
0.6923076923076923
 40
0.6923076923076923
 40
0.6923076923076923
 40
0.6923076923076923
 40
0.7692307692307692
 40
0.7692307692307692
 40
0.7692307692307692
 40
0.7692307692307692
 40
0.846153846153846
 40
0.846153846153846
 40
0.846153846153846
 40
0.846153846153846
 40
0.9230769230769229
 40
0.9230769230769229
 40
0.9230769230769229
 40
0.9230769230769229
 40
1.0
 40
1.0
 40
1.0
 40
1.0
 10
-3.3780500000000004
 20
0.64205
 30
0.0
 10
-3.1088100000000001
 20
0.6979300000000001
 30
0.0
 10
-2.7405100000000004
 20
0.7766700000000001
 30
0.0
 10
-2.6135100000000002
 20
0.4617100000000001
 30
0.0
 10
-2.6135100000000002
 20
0.4617100000000001
 30
0.0
 10
-2.4179300000000001
 20
0.40329
 30
0.0
 10
-2.1715500000000003
 20
0.37281
 30
0.0
 10
-2.0674100000000002
 20
0.17469
 30
0.0
 10
-2.0674100000000002
 20
0.17469
 30
0.0
 10
-2.4103100000000004
 20
0.2635900000000001
 30
0.0
 10
-2.8802100000000004
 20
0.28645
 30
0.0
 10
-3.1469100000000001
 20
0.5912500000000001
 30
0.0
 10
-3.1469100000000001
 20
0.5912500000000001
 30
0.0
 10
-3.1773900000000004
 20
0.5455300000000001
 30
0.0
 10
-3.1164300000000003
 20
0.45663
 30
0.0
 10
-3.0859500000000004
 20
0.40329
 30
0.0
 10
-3.0859500000000004
 20
0.40329
 30
0.0
 10
-2.7074900000000004
 20
0.24073
 30
0.0
 10
-2.0801100000000003
 20
-0.14788
 30
0.0
 10
-2.6668500000000002
 20
-0.53142
 30
0.0
 10
-2.6668500000000002
 20
-0.53142
 30
0.0
 10
-2.69733
 20
-0.5771400000000001
 30
0.0
 10
-2.6617700000000002
 20
-0.6508000000000001
 30
0.0
 10
-2.6566900000000002
 20
-0.6711200000000001
 30
0.0
 10
-2.6566900000000002
 20
-0.6711200000000001
 30
0.0
 10
-2.5779500000000004
 20
-0.7524000000000001
 30
0.0
 10
-2.0445500000000001
 20
-0.88448
 30
0.0
 10
-2.4331700000000001
 20
-0.86416
 30
0.0
 10
-2.4331700000000001
 20
-0.86416
 30
0.0
 10
-2.7811500000000002
 20
-1.2197600000000002
 30
0.0
 10
-3.0554700000000001
 20
-0.3104400000000001
 30
0.0
 10
-2.8116300000000001
 20
-0.03866
 30
0.0
 10
-2.8116300000000001
 20
-0.03866
 30
0.0
 10
-2.86497
 20
0.02737
 30
0.0
 10
-2.9665700000000004
 20
0.02483
 30
0.0
 10
-2.9665700000000004
 20
-0.07168
 30
0.0
 10
-2.9665700000000004
 20
-0.07168
 30
0.0
 10
-3.2485100000000005
 20
-0.17074
 30
0.0
 10
-3.0351500000000002
 20
-0.50856
 30
0.0
 10
-2.9487900000000002
 20
-0.63048
 30
0.0
 10
-2.9487900000000002
 20
-0.63048
 30
0.0
 10
-3.3729700000000005
 20
-0.4374400000000001
 30
0.0
 10
-3.1773900000000004
 20
0.06293
 30
0.0
 10
-3.2256500000000004
 20
0.39313
 30
0.0
 10
-3.2256500000000004
 20
0.39313
 30
0.0
 10
-3.3120100000000003
 20
0.41599
 30
0.0
 10
-3.3424900000000002
 20
0.08833
 30
0.0
 10
-3.4466300000000003
 20
0.00705
 30
0.0
 10
-3.4466300000000003
 20
0.00705
 30
0.0
 10
-3.5939500000000004
 20
0.13659
 30
0.0
 10
-3.4237700000000002
 20
0.47187
 30
0.0
 10
-3.3780500000000004
 20
0.64205
 30
0.0
  0
SPLINE
  5
35
100
AcDbEntity
  8
Ebene 1
 62
     7
100
AcDbSpline
210
0.0
220
0.0
230
1.0
 70
     1
 71
     3
 72
    16
 73
    12
 74
     0
 42
0.0000000001
 43
0.0000000001
 40
0.0
 40
0.0
 40
0.0
 40
0.0
 40
0.3333333333333333
 40
0.3333333333333333
 40
0.3333333333333333
 40
0.3333333333333333
 40
0.6666666666666666
 40
0.6666666666666666
 40
0.6666666666666666
 40
0.6666666666666666
 40
1.0
 40
1.0
 40
1.0
 40
1.0
 10
-5.2347900000000003
 20
0.05277
 30
0.0
 10
-5.2220900000000006
 20
0.05531
 30
0.0
 10
-5.1941500000000005
 20
0.06293
 30
0.0
 10
-5.1941500000000005
 20
0.04261
 30
0.0
 10
-5.1941500000000005
 20
0.04261
 30
0.0
 10
-5.2144700000000004
 20
-0.24186
 30
0.0
 10
-5.4633900000000004
 20
-0.39172
 30
0.0
 10
-5.6132500000000007
 20
-0.6050800000000001
 30
0.0
 10
-5.6132500000000007
 20
-0.6050800000000001
 30
0.0
 10
-5.5929300000000008
 20
-0.34092
 30
0.0
 10
-5.3617900000000001
 20
-0.15042
 30
0.0
 10
-5.2347900000000003
 20
0.05277
 30
0.0
  0
SPLINE
  5
36
100
AcDbEntity
  8
Ebene 1
100
AcDbSpline
210
0.0
220
0.0
230
1.0
 70
     1
 71
     3
 72
    16
 73
    12
 74
     0
 42
0.0000000001
 43
0.0000000001
 40
0.0
 40
0.0
 40
0.0
 40
0.0
 40
0.3333333333333333
 40
0.3333333333333333
 40
0.3333333333333333
 40
0.3333333333333333
 40
0.6666666666666666
 40
0.6666666666666666
 40
0.6666666666666666
 40
0.6666666666666666
 40
1.0
 40
1.0
 40
1.0
 40
1.0
 10
2.1540600000000003
 20
1.5996300000000001
 30
0.0
 10
2.1540600000000003
 20
1.5996300000000001
 30
0.0
 10
2.2124800000000002
 20
1.61233
 30
0.0
 10
2.2124800000000002
 20
1.61233
 30
0.0
 10
2.2124800000000002
 20
1.61233
 30
0.0
 10
2.2455000000000003
 20
1.4573900000000002
 30
0.0
 10
2.30138
 20
1.2897500000000002
 30
0.0
 10
2.20486
 20
1.1703700000000001
 30
0.0
 10
2.20486
 20
1.1703700000000001
 30
0.0
 10
2.20486
 20
1.1703700000000001
 30
0.0
 10
2.1540600000000003
 20
1.5996300000000001
 30
0.0
 10
2.1540600000000003
 20
1.5996300000000001
 30
0.0
  0
SPLINE
  5
37
100
AcDbEntity
  8
Ebene 1
100
AcDbSpline
210
0.0
220
0.0
230
1.0
 70
     1
 71
     3
 72
    20
 73
    16
 74
     0
 42
0.0000000001
 43
0.0000000001
 40
0.0
 40
0.0
 40
0.0
 40
0.0
 40
0.25
 40
0.25
 40
0.25
 40
0.25
 40
0.5
 40
0.5
 40
0.5
 40
0.5
 40
0.75
 40
0.75
 40
0.75
 40
0.75
 40
1.0
 40
1.0
 40
1.0
 40
1.0
 10
-1.1098300000000001
 20
0.61665
 30
0.0
 10
-1.1098300000000001
 20
0.61665
 30
0.0
 10
-1.0717300000000001
 20
0.6242700000000001
 30
0.0
 10
-1.0717300000000001
 20
0.6242700000000001
 30
0.0
 10
-1.0717300000000001
 20
0.6242700000000001
 30
0.0
 10
-1.0717300000000001
 20
0.6242700000000001
 30
0.0
 10
-1.1606300000000001
 20
0.28391
 30
0.0
 10
-1.1606300000000001
 20
0.28391
 30
0.0
 10
-1.1606300000000001
 20
0.28391
 30
0.0
 10
-1.2647700000000002
 20
0.20263
 30
0.0
 10
-1.3663700000000001
 20
0.10103
 30
0.0
 10
-1.4959100000000001
 20
0.05277
 30
0.0
 10
-1.4959100000000001
 20
0.05277
 30
0.0
 10
-1.4959100000000001
 20
0.05277
 30
0.0
 10
-1.1098300000000001
 20
0.61665
 30
0.0
 10
-1.1098300000000001
 20
0.61665
 30
0.0
  0
SPLINE
  5
38
100
AcDbEntity
  8
Ebene 1
100
AcDbSpline
210
0.0
220
0.0
230
1.0
 70
     1
 71
     3
 72
    20
 73
    16
 74
     0
 42
0.0000000001
 43
0.0000000001
 40
0.0
 40
0.0
 40
0.0
 40
0.0
 40
0.25
 40
0.25
 40
0.25
 40
0.25
 40
0.5
 40
0.5
 40
0.5
 40
0.5
 40
0.75
 40
0.75
 40
0.75
 40
0.75
 40
1.0
 40
1.0
 40
1.0
 40
1.0
 10
2.3140800000000001
 20
1.3329300000000002
 30
0.0
 10
2.3140800000000001
 20
1.3329300000000002
 30
0.0
 10
2.5680800000000001
 20
1.2668900000000001
 30
0.0
 10
2.5680800000000001
 20
1.2668900000000001
 30
0.0
 10
2.5680800000000001
 20
1.2668900000000001
 30
0.0
 10
2.5426800000000003
 20
1.2008500000000002
 30
0.0
 10
2.4918800000000001
 20
1.15005
 30
0.0
 10
2.4233000000000002
 20
1.19577
 30
0.0
 10
2.4233000000000002
 20
1.19577
 30
0.0
 10
2.3902800000000002
 20
1.14751
 30
0.0
 10
2.3420200000000002
 20
1.0967100000000001
 30
0.0
 10
2.2836000000000003
 20
1.0840100000000001
 30
0.0
 10
2.2836000000000003
 20
1.0840100000000001
 30
0.0
 10
2.2251800000000004
 20
1.1729100000000001
 30
0.0
 10
2.29122
 20
1.2465700000000002
 30
0.0
 10
2.3140800000000001
 20
1.3329300000000002
 30
0.0
  0
SPLINE
  5
39
100
AcDbEntity
  8
Ebene 1
 62
     7
100
AcDbSpline
210
0.0
220
0.0
230
1.0
 70
     1
 71
     3
 72
    36
 73
    32
 74
     0
 42
0.0000000001
 43
0.0000000001
 40
0.0
 40
0.0
 40
0.0
 40
0.0
 40
0.125
 40
0.125
 40
0.125
 40
0.125
 40
0.25
 40
0.25
 40
0.25
 40
0.25
 40
0.375
 40
0.375
 40
0.375
 40
0.375
 40
0.5
 40
0.5
 40
0.5
 40
0.5
 40
0.625
 40
0.625
 40
0.625
 40
0.625
 40
0.75
 40
0.75
 40
0.75
 40
0.75
 40
0.875
 40
0.875
 40
0.875
 40
0.875
 40
1.0
 40
1.0
 40
1.0
 40
1.0
 10
-4.2365700000000004
 20
-0.07676
 30
0.0
 10
-4.2365700000000004
 20
-0.07676
 30
0.0
 10
-4.2645100000000005
 20
-0.4247400000000001
 30
0.0
 10
-4.2645100000000005
 20
-0.4247400000000001
 30
0.0
 10
-4.2645100000000005
 20
-0.4247400000000001
 30
0.0
 10
-4.7318700000000007
 20
-0.9225800000000001
 30
0.0
 10
-4.6988500000000002
 20
-1.6591800000000001
 30
0.0
 10
-4.6607500000000002
 20
-2.2941800000000003
 30
0.0
 10
-4.6607500000000002
 20
-2.2941800000000003
 30
0.0
 10
-4.8004500000000005
 20
-1.7404600000000001
 30
0.0
 10
-4.9325300000000007
 20
-1.12578
 30
0.0
 10
-4.7318700000000007
 20
-0.6000000000000001
 30
0.0
 10
-4.7318700000000007
 20
-0.6000000000000001
 30
0.0
 10
-4.7318700000000007
 20
-0.6000000000000001
 30
0.0
 10
-4.6963100000000004
 20
-0.7752600000000001
 30
0.0
 10
-4.6963100000000004
 20
-0.7752600000000001
 30
0.0
 10
-4.6963100000000004
 20
-0.7752600000000001
 30
0.0
 10
-4.6378900000000005
 20
-0.7041400000000001
 30
0.0
 10
-4.6709100000000001
 20
-0.50856
 30
0.0
 10
-4.5235900000000004
 20
-0.5390400000000001
 30
0.0
 10
-4.5235900000000004
 20
-0.5390400000000001
 30
0.0
 10
-4.4981900000000001
 20
-0.473
 30
0.0
 10
-4.4931100000000006
 20
-0.39172
 30
0.0
 10
-4.4448500000000006
 20
-0.34092
 30
0.0
 10
-4.4448500000000006
 20
-0.34092
 30
0.0
 10
-4.4448500000000006
 20
-0.34092
 30
0.0
 10
-4.4346900000000007
 20
-0.37902
 30
0.0
 10
-4.4346900000000007
 20
-0.37902
 30
0.0
 10
-4.4346900000000007
 20
-0.37902
 30
0.0
 10
-4.3229300000000004
 20
-0.33584
 30
0.0
 10
-4.3686500000000006
 20
-0.12502
 30
0.0
 10
-4.2365700000000004
 20
-0.07676
 30
0.0
  0
SPLINE
  5
3A
100
AcDbEntity
  8
Ebene 1
 62
     7
100
AcDbSpline
210
0.0
220
0.0
230
1.0
 70
     1
 71
     3
 72
    28
 73
    24
 74
     0
 42
0.0000000001
 43
0.0000000001
 40
0.0
 40
0.0
 40
0.0
 40
0.0
 40
0.1666666666666667
 40
0.1666666666666667
 40
0.1666666666666667
 40
0.1666666666666667
 40
0.3333333333333333
 40
0.3333333333333333
 40
0.3333333333333333
 40
0.3333333333333333
 40
0.5
 40
0.5
 40
0.5
 40
0.5
 40
0.6666666666666666
 40
0.6666666666666666
 40
0.6666666666666666
 40
0.6666666666666666
 40
0.8333333333333333
 40
0.8333333333333333
 40
0.8333333333333333
 40
0.8333333333333333
 40
1.0
 40
1.0
 40
1.0
 40
1.0
 10
-0.23099
 20
0.7588900000000001
 30
0.0
 10
-0.16495
 20
0.7334900000000001
 30
0.0
 10
-0.07859
 20
0.6090300000000001
 30
0.0
 10
-0.10145
 20
0.5252100000000001
 30
0.0
 10
-0.10145
 20
0.5252100000000001
 30
0.0
 10
-0.10145
 20
0.5252100000000001
 30
0.0
 10
-0.18781
 20
0.36519
 30
0.0
 10
-0.18781
 20
0.36519
 30
0.0
 10
-0.18781
 20
0.36519
 30
0.0
 10
-0.02017
 20
0.24073
 30
0.0
 10
0.13984
 20
0.61665
 30
0.0
 10
0.02554
 20
0.7715900000000001
 30
0.0
 10
0.02554
 20
0.7715900000000001
 30
0.0
 10
0.09158
 20
0.74873
 30
0.0
 10
0.1627
 20
0.70047
 30
0.0
 10
0.16016
 20
0.61919
 30
0.0
 10
0.16016
 20
0.61919
 30
0.0
 10
0.1754
 20
0.4439300000000001
 30
0.0
 10
-0.02779
 20
0.27883
 30
0.0
 10
-0.19035
 20
0.28645
 30
0.0
 10
-0.19035
 20
0.28645
 30
0.0
 10
-0.40879
 20
0.36011
 30
0.0
 10
-0.43165
 20
0.65729
 30
0.0
 10
-0.23099
 20
0.7588900000000001
 30
0.0
  0
SPLINE
  5
3B
100
AcDbEntity
  8
Ebene 1
100
AcDbSpline
210
0.0
220
0.0
230
1.0
 70
     1
 71
     3
 72
    24
 73
    20
 74
     0
 42
0.0000000001
 43
0.0000000001
 40
0.0
 40
0.0
 40
0.0
 40
0.0
 40
0.2
 40
0.2
 40
0.2
 40
0.2
 40
0.4
 40
0.4
 40
0.4
 40
0.4
 40
0.6000000000000001
 40
0.6000000000000001
 40
0.6000000000000001
 40
0.6000000000000001
 40
0.8
 40
0.8
 40
0.8
 40
0.8
 40
1.0
 40
1.0
 40
1.0
 40
1.0
 10
-2.2172700000000001
 20
0.12135
 30
0.0
 10
-2.0445500000000001
 20
0.05785
 30
0.0
 10
-2.0750300000000004
 20
-0.16566
 30
0.0
 10
-2.1055100000000002
 20
-0.31298
 30
0.0
 10
-2.1055100000000002
 20
-0.31298
 30
0.0
 10
-1.9505700000000001
 20
-0.38156
 30
0.0
 10
-1.9607300000000001
 20
-0.5238
 30
0.0
 10
-1.9048500000000002
 20
-0.69398
 30
0.0
 10
-1.9048500000000002
 20
-0.69398
 30
0.0
 10
-1.9810500000000002
 20
-0.7092200000000001
 30
0.0
 10
-2.0089900000000003
 20
-0.5746
 30
0.0
 10
-2.0420100000000003
 20
-0.5212600000000001
 30
0.0
 10
-2.0420100000000003
 20
-0.5212600000000001
 30
0.0
 10
-2.3061700000000003
 20
-0.4171200000000001
 30
0.0
 10
-2.0293100000000002
 20
-0.09708
 30
0.0
 10
-2.2299700000000002
 20
0.08071
 30
0.0
 10
-2.2299700000000002
 20
0.08071
 30
0.0
 10
-2.2299700000000002
 20
0.08071
 30
0.0
 10
-2.2172700000000001
 20
0.12135
 30
0.0
 10
-2.2172700000000001
 20
0.12135
 30
0.0
  0
SPLINE
  5
3C
100
AcDbEntity
  8
Ebene 1
 62
     7
100
AcDbSpline
210
0.0
220
0.0
230
1.0
 70
     1
 71
     3
 72
    16
 73
    12
 74
     0
 42
0.0000000001
 43
0.0000000001
 40
0.0
 40
0.0
 40
0.0
 40
0.0
 40
0.3333333333333333
 40
0.3333333333333333
 40
0.3333333333333333
 40
0.3333333333333333
 40
0.6666666666666666
 40
0.6666666666666666
 40
0.6666666666666666
 40
0.6666666666666666
 40
1.0
 40
1.0
 40
1.0
 40
1.0
 10
-4.1654500000000008
 20
-0.32314
 30
0.0
 10
-4.3330900000000003
 20
-1.0597400000000001
 30
0.0
 10
-4.1679900000000005
 20
-1.9284200000000002
 30
0.0
 10
-3.9393900000000004
 20
-2.7259800000000003
 30
0.0
 10
-3.9393900000000004
 20
-2.7259800000000003
 30
0.0
 10
-4.0359100000000003
 20
-2.6447000000000003
 30
0.0
 10
-4.0232100000000006
 20
-2.4237200000000003
 30
0.0
 10
-4.1806900000000002
 20
-2.43642
 30
0.0
 10
-4.1806900000000002
 20
-2.43642
 30
0.0
 10
-4.40421
 20
-1.7379200000000001
 30
0.0
 10
-4.5108900000000007
 20
-0.9784600000000001
 30
0.0
 10
-4.1654500000000008
 20
-0.32314
 30
0.0
  0
SPLINE
  5
3D
100
AcDbEntity
  8
Ebene 1
 62
     7
100
AcDbSpline
210
0.0
220
0.0
230
1.0
 70
     1
 71
     3
 72
    20
 73
    16
 74
     0
 42
0.0000000001
 43
0.0000000001
 40
0.0
 40
0.0
 40
0.0
 40
0.0
 40
0.25
 40
0.25
 40
0.25
 40
0.25
 40
0.5
 40
0.5
 40
0.5
 40
0.5
 40
0.75
 40
0.75
 40
0.75
 40
0.75
 40
1.0
 40
1.0
 40
1.0
 40
1.0
 10
-4.86395
 20
-0.5492
 30
0.0
 10
-4.8842700000000008
 20
-0.9556000000000001
 30
0.0
 10
-4.9172900000000004
 20
-1.3442200000000002
 30
0.0
 10
-4.8334700000000002
 20
-1.7684000000000002
 30
0.0
 10
-4.8334700000000002
 20
-1.7684000000000002
 30
0.0
 10
-4.8334700000000002
 20
-1.7684000000000002
 30
0.0
 10
-4.9045900000000007
 20
-1.6210800000000001
 30
0.0
 10
-4.9045900000000007
 20
-1.6210800000000001
 30
0.0
 10
-4.9045900000000007
 20
-1.6210800000000001
 30
0.0
 10
-4.9249100000000006
 20
-1.6058400000000002
 30
0.0
 10
-4.9553900000000004
 20
-1.6134600000000001
 30
0.0
 10
-4.9731700000000005
 20
-1.6363200000000002
 30
0.0
 10
-4.9731700000000005
 20
-1.6363200000000002
 30
0.0
 10
-5.0468300000000008
 20
-1.2705600000000001
 30
0.0
 10
-5.02651
 20
-0.86416
 30
0.0
 10
-4.86395
 20
-0.5492
 30
0.0
  0
SPLINE
  5
3E
100
AcDbEntity
  8
Ebene 1
100
AcDbSpline
210
0.0
220
0.0
230
1.0
 70
     1
 71
     3
 72
    40
 73
    36
 74
     0
 42
0.0000000001
 43
0.0000000001
 40
0.0
 40
0.0
 40
0.0
 40
0.0
 40
0.1111111111111111
 40
0.1111111111111111
 40
0.1111111111111111
 40
0.1111111111111111
 40
0.2222222222222222
 40
0.2222222222222222
 40
0.2222222222222222
 40
0.2222222222222222
 40
0.3333333333333333
 40
0.3333333333333333
 40
0.3333333333333333
 40
0.3333333333333333
 40
0.4444444444444444
 40
0.4444444444444444
 40
0.4444444444444444
 40
0.4444444444444444
 40
0.5555555555555556
 40
0.5555555555555556
 40
0.5555555555555556
 40
0.5555555555555556
 40
0.6666666666666667
 40
0.6666666666666667
 40
0.6666666666666667
 40
0.6666666666666667
 40
0.7777777777777779
 40
0.7777777777777779
 40
0.7777777777777779
 40
0.7777777777777779
 40
0.8888888888888891
 40
0.8888888888888891
 40
0.8888888888888891
 40
0.8888888888888891
 40
1.0
 40
1.0
 40
1.0
 40
1.0
 10
-1.6965700000000001
 20
-0.04628
 30
0.0
 10
-1.6965700000000001
 20
-0.04628
 30
0.0
 10
-1.6000500000000002
 20
-0.02596
 30
0.0
 10
-1.6000500000000002
 20
-0.02596
 30
0.0
 10
-1.6000500000000002
 20
-0.02596
 30
0.0
 10
-1.6000500000000002
 20
-0.02596
 30
0.0
 10
-1.5822700000000001
 20
-0.1047
 30
0.0
 10
-1.5822700000000001
 20
-0.1047
 30
0.0
 10
-1.5822700000000001
 20
-0.1047
 30
0.0
 10
-1.7422900000000001
 20
-0.21646
 30
0.0
 10
-1.5390900000000001
 20
-0.31552
 30
0.0
 10
-1.6356100000000002
 20
-0.4374400000000001
 30
0.0
 10
-1.6356100000000002
 20
-0.4374400000000001
 30
0.0
 10
-1.6152900000000001
 20
-0.43236
 30
0.0
 10
-1.5721100000000001
 20
-0.44252
 30
0.0
 10
-1.5695700000000001
 20
-0.46284
 30
0.0
 10
-1.5695700000000001
 20
-0.46284
 30
0.0
 10
-1.5924300000000002
 20
-0.54666
 30
0.0
 10
-1.6864100000000002
 20
-0.6685800000000001
 30
0.0
 10
-1.6508500000000002
 20
-0.7397
 30
0.0
 10
-1.6508500000000002
 20
-0.7397
 30
0.0
 10
-1.7295900000000002
 20
-0.75748
 30
0.0
 10
-1.7295900000000002
 20
-0.65588
 30
0.0
 10
-1.7194300000000002
 20
-0.61524
 30
0.0
 10
-1.7194300000000002
 20
-0.61524
 30
0.0
 10
-1.7194300000000002
 20
-0.61524
 30
0.0
 10
-1.7956300000000001
 20
-0.63048
 30
0.0
 10
-1.7956300000000001
 20
-0.63048
 30
0.0
 10
-1.7956300000000001
 20
-0.63048
 30
0.0
 10
-1.8159500000000002
 20
-0.53396
 30
0.0
 10
-1.8565900000000002
 20
-0.44252
 30
0.0
 10
-1.7905500000000001
 20
-0.36632
 30
0.0
 10
-1.7905500000000001
 20
-0.36632
 30
0.0
 10
-1.8769100000000001
 20
-0.2444
 30
0.0
 10
-1.7346700000000002
 20
-0.1555
 30
0.0
 10
-1.6965700000000001
 20
-0.04628
 30
0.0
  0
SPLINE
  5
3F
100
AcDbEntity
  8
Ebene 1
100
AcDbSpline
210
0.0
220
0.0
230
1.0
 70
     1
 71
     3
 72
    28
 73
    24
 74
     0
 42
0.0000000001
 43
0.0000000001
 40
0.0
 40
0.0
 40
0.0
 40
0.0
 40
0.1666666666666667
 40
0.1666666666666667
 40
0.1666666666666667
 40
0.1666666666666667
 40
0.3333333333333333
 40
0.3333333333333333
 40
0.3333333333333333
 40
0.3333333333333333
 40
0.5
 40
0.5
 40
0.5
 40
0.5
 40
0.6666666666666666
 40
0.6666666666666666
 40
0.6666666666666666
 40
0.6666666666666666
 40
0.8333333333333333
 40
0.8333333333333333
 40
0.8333333333333333
 40
0.8333333333333333
 40
1.0
 40
1.0
 40
1.0
 40
1.0
 10
1.7146400000000002
 20
0.14167
 30
0.0
 10
2.0550000000000002
 20
0.25343
 30
0.0
 10
1.6333600000000001
 20
-0.23424
 30
0.0
 10
1.8822800000000002
 20
-0.06152
 30
0.0
 10
1.8822800000000002
 20
-0.06152
 30
0.0
 10
1.9153000000000002
 20
-0.03358
 30
0.0
 10
1.9280000000000002
 20
-0.092
 30
0.0
 10
1.9508600000000003
 20
-0.10724
 30
0.0
 10
1.9508600000000003
 20
-0.10724
 30
0.0
 10
2.2556600000000002
 20
-0.20376
 30
0.0
 10
1.9711800000000002
 20
-0.5847600000000001
 30
0.0
 10
1.8289400000000002
 20
-0.29266
 30
0.0
 10
1.8289400000000002
 20
-0.29266
 30
0.0
 10
1.69432
 20
-0.4222
 30
0.0
 10
1.5063600000000001
 20
-0.3002800000000001
 30
0.0
 10
1.5495400000000001
 20
-0.10978
 30
0.0
 10
1.5495400000000001
 20
-0.10978
 30
0.0
 10
1.4555600000000002
 20
-0.15042
 30
0.0
 10
1.3361800000000001
 20
-0.25456
 30
0.0
 10
1.2269600000000001
 20
-0.219
 30
0.0
 10
1.2269600000000001
 20
-0.219
 30
0.0
 10
1.3107800000000001
 20
-0.0412
 30
0.0
 10
1.5495400000000001
 20
0.06801
 30
0.0
 10
1.7146400000000002
 20
0.14167
 30
0.0
  0
SPLINE
  5
40
100
AcDbEntity
  8
Ebene 1
 62
     7
100
AcDbSpline
210
0.0
220
0.0
230
1.0
 70
     1
 71
     3
 72
    16
 73
    12
 74
     0
 42
0.0000000001
 43
0.0000000001
 40
0.0
 40
0.0
 40
0.0
 40
0.0
 40
0.3333333333333333
 40
0.3333333333333333
 40
0.3333333333333333
 40
0.3333333333333333
 40
0.6666666666666666
 40
0.6666666666666666
 40
0.6666666666666666
 40
0.6666666666666666
 40
1.0
 40
1.0
 40
1.0
 40
1.0
 10
-3.8047700000000004
 20
-1.3518400000000002
 30
0.0
 10
-3.5761700000000003
 20
-1.6642600000000001
 30
0.0
 10
-3.3399500000000004
 20
-2.0173200000000002
 30
0.0
 10
-3.2713700000000001
 20
-2.4465800000000004
 30
0.0
 10
-3.2713700000000001
 20
-2.4465800000000004
 30
0.0
 10
-3.2713700000000001
 20
-2.4465800000000004
 30
0.0
 10
-3.3907500000000002
 20
-2.4516600000000004
 30
0.0
 10
-3.3907500000000002
 20
-2.4516600000000004
 30
0.0
 10
-3.3907500000000002
 20
-2.4516600000000004
 30
0.0
 10
-3.6574500000000003
 20
-2.14432
 30
0.0
 10
-3.7057100000000003
 20
-1.7328400000000002
 30
0.0
 10
-3.8047700000000004
 20
-1.3518400000000002
 30
0.0
  0
SPLINE
  5
41
100
AcDbEntity
  8
Ebene 1
 62
     7
100
AcDbSpline
210
0.0
220
0.0
230
1.0
 70
     1
 71
     3
 72
    16
 73
    12
 74
     0
 42
0.0000000001
 43
0.0000000001
 40
0.0
 40
0.0
 40
0.0
 40
0.0
 40
0.3333333333333333
 40
0.3333333333333333
 40
0.3333333333333333
 40
0.3333333333333333
 40
0.6666666666666666
 40
0.6666666666666666
 40
0.6666666666666666
 40
0.6666666666666666
 40
1.0
 40
1.0
 40
1.0
 40
1.0
 10
2.8068400000000002
 20
-0.22916
 30
0.0
 10
3.0735400000000004
 20
-0.3536200000000001
 30
0.0
 10
3.1624400000000001
 20
-0.6762
 30
0.0
 10
3.0379800000000001
 20
-0.9454400000000001
 30
0.0
 10
3.0379800000000001
 20
-0.9454400000000001
 30
0.0
 10
3.0379800000000001
 20
-0.9454400000000001
 30
0.0
 10
2.97194
 20
-0.9175000000000001
 30
0.0
 10
2.97194
 20
-0.9175000000000001
 30
0.0
 10
2.97194
 20
-0.9175000000000001
 30
0.0
 10
2.9236800000000001
 20
-0.6863600000000001
 30
0.0
 10
2.6290400000000003
 20
-0.4476000000000001
 30
0.0
 10
2.8068400000000002
 20
-0.22916
 30
0.0
  0
SPLINE
  5
42
100
AcDbEntity
  8
Ebene 1
 62
     7
100
AcDbSpline
210
0.0
220
0.0
230
1.0
 70
     1
 71
     3
 72
    32
 73
    28
 74
     0
 42
0.0000000001
 43
0.0000000001
 40
0.0
 40
0.0
 40
0.0
 40
0.0
 40
0.1428571428571429
 40
0.1428571428571429
 40
0.1428571428571429
 40
0.1428571428571429
 40
0.2857142857142857
 40
0.2857142857142857
 40
0.2857142857142857
 40
0.2857142857142857
 40
0.4285714285714286
 40
0.4285714285714286
 40
0.4285714285714286
 40
0.4285714285714286
 40
0.5714285714285714
 40
0.5714285714285714
 40
0.5714285714285714
 40
0.5714285714285714
 40
0.7142857142857142
 40
0.7142857142857142
 40
0.7142857142857142
 40
0.7142857142857142
 40
0.857142857142857
 40
0.857142857142857
 40
0.857142857142857
 40
0.857142857142857
 40
1.0
 40
1.0
 40
1.0
 40
1.0
 10
-3.9190700000000005
 20
-1.6769600000000002
 30
0.0
 10
-3.9190700000000005
 20
-1.6769600000000002
 30
0.0
 10
-3.8225500000000001
 20
-1.83952
 30
0.0
 10
-3.8225500000000001
 20
-1.83952
 30
0.0
 10
-3.8225500000000001
 20
-1.83952
 30
0.0
 10
-3.7514300000000005
 20
-2.3653000000000004
 30
0.0
 10
-3.1672300000000004
 20
-2.4618200000000003
 30
0.0
 10
-3.3805900000000002
 20
-2.9698200000000003
 30
0.0
 10
-3.3805900000000002
 20
-2.9698200000000003
 30
0.0
 10
-3.4821900000000001
 20
-2.9723600000000001
 30
0.0
 10
-3.4542500000000005
 20
-2.8250400000000004
 30
0.0
 10
-3.5482300000000002
 20
-2.8453600000000003
 30
0.0
 10
-3.5482300000000002
 20
-2.8453600000000003
 30
0.0
 10
-3.5507700000000004
 20
-3.0257000000000001
 30
0.0
 10
-3.5253700000000001
 20
-3.2416000000000005
 30
0.0
 10
-3.6650700000000005
 20
-3.3508200000000001
 30
0.0
 10
-3.6650700000000005
 20
-3.3508200000000001
 30
0.0
 10
-3.5837900000000005
 20
-2.8733000000000004
 30
0.0
 10
-3.8987500000000002
 20
-2.5380200000000004
 30
0.0
 10
-3.9774900000000004
 20
-2.0706600000000002
 30
0.0
 10
-3.9774900000000004
 20
-2.0706600000000002
 30
0.0
 10
-3.9774900000000004
 20
-2.0706600000000002
 30
0.0
 10
-3.6853900000000004
 20
-2.4923000000000002
 30
0.0
 10
-3.6853900000000004
 20
-2.4923000000000002
 30
0.0
 10
-3.6853900000000004
 20
-2.4923000000000002
 30
0.0
 10
-3.6599900000000005
 20
-2.3272000000000004
 30
0.0
 10
-3.9571700000000005
 20
-1.9665200000000003
 30
0.0
 10
-3.9190700000000005
 20
-1.6769600000000002
 30
0.0
  0
SPLINE
  5
43
100
AcDbEntity
  8
Ebene 1
100
AcDbSpline
210
0.0
220
0.0
230
1.0
 70
     1
 71
     3
 72
    28
 73
    24
 74
     0
 42
0.0000000001
 43
0.0000000001
 40
0.0
 40
0.0
 40
0.0
 40
0.0
 40
0.1666666666666667
 40
0.1666666666666667
 40
0.1666666666666667
 40
0.1666666666666667
 40
0.3333333333333333
 40
0.3333333333333333
 40
0.3333333333333333
 40
0.3333333333333333
 40
0.5
 40
0.5
 40
0.5
 40
0.5
 40
0.6666666666666666
 40
0.6666666666666666
 40
0.6666666666666666
 40
0.6666666666666666
 40
0.8333333333333333
 40
0.8333333333333333
 40
0.8333333333333333
 40
0.8333333333333333
 40
1.0
 40
1.0
 40
1.0
 40
1.0
 10
2.1896200000000001
 20
-1.8039600000000002
 30
0.0
 10
2.16168
 20
-1.66934
 30
0.0
 10
2.0423
 20
-1.4940800000000001
 30
0.0
 10
2.0270600000000001
 20
-1.6972800000000001
 30
0.0
 10
2.0270600000000001
 20
-1.6972800000000001
 30
0.0
 10
1.9356200000000001
 20
-1.5550400000000002
 30
0.0
 10
1.8822800000000002
 20
-1.4051800000000001
 30
0.0
 10
1.8467200000000001
 20
-1.2324600000000001
 30
0.0
 10
1.8467200000000001
 20
-1.2324600000000001
 30
0.0
 10
1.6917800000000001
 20
-1.3670800000000001
 30
0.0
 10
1.7095600000000002
 20
-1.6439400000000002
 30
0.0
 10
1.7375
 20
-1.8598400000000002
 30
0.0
 10
1.7375
 20
-1.8598400000000002
 30
0.0
 10
1.2549000000000001
 20
-1.49916
 30
0.0
 10
1.3844400000000001
 20
-0.4857
 30
0.0
 10
2.08548
 20
-0.4603
 30
0.0
 10
2.08548
 20
-0.4603
 30
0.0
 10
2.08548
 20
-0.4603
 30
0.0
 10
2.3623400000000001
 20
-2.1494
 30
0.0
 10
2.3623400000000001
 20
-2.1494
 30
0.0
 10
2.3623400000000001
 20
-2.1494
 30
0.0
 10
2.2302600000000004
 20
-2.09606
 30
0.0
 10
2.3420200000000002
 20
-1.8522200000000002
 30
0.0
 10
2.1896200000000001
 20
-1.8039600000000002
 30
0.0
  0
SPLINE
  5
44
100
AcDbEntity
  8
Ebene 1
100
AcDbSpline
210
0.0
220
0.0
230
1.0
 70
     1
 71
     3
 72
    20
 73
    16
 74
     0
 42
0.0000000001
 43
0.0000000001
 40
0.0
 40
0.0
 40
0.0
 40
0.0
 40
0.25
 40
0.25
 40
0.25
 40
0.25
 40
0.5
 40
0.5
 40
0.5
 40
0.5
 40
0.75
 40
0.75
 40
0.75
 40
0.75
 40
1.0
 40
1.0
 40
1.0
 40
1.0
 10
0.42432
 20
-0.90988
 30
0.0
 10
0.4421000000000001
 20
-0.9048000000000001
 30
0.0
 10
0.51576
 20
-0.8692400000000001
 30
0.0
 10
0.50814
 20
-0.9302
 30
0.0
 10
0.50814
 20
-0.9302
 30
0.0
 10
-0.21067
 20
-1.5245600000000001
 30
0.0
 10
-1.4273300000000002
 20
-2.0782800000000003
 30
0.0
 10
-1.1885700000000001
 20
-3.2136600000000004
 30
0.0
 10
-1.1885700000000001
 20
-3.2136600000000004
 30
0.0
 10
-1.33589
 20
-3.1857200000000003
 30
0.0
 10
-1.2393700000000001
 20
-3.3457400000000002
 30
0.0
 10
-1.2444500000000001
 20
-3.4270200000000002
 30
0.0
 10
-1.2444500000000001
 20
-3.4270200000000002
 30
0.0
 10
-1.9912100000000001
 20
-2.1976600000000004
 30
0.0
 10
-0.4697500000000001
 20
-1.3569200000000001
 30
0.0
 10
0.42432
 20
-0.90988
 30
0.0
  0
SPLINE
  5
45
100
AcDbEntity
  8
Ebene 1
100
AcDbSpline
210
0.0
220
0.0
230
1.0
 70
     1
 71
     3
 72
    44
 73
    40
 74
     0
 42
0.0000000001
 43
0.0000000001
 40
0.0
 40
0.0
 40
0.0
 40
0.0
 40
0.1
 40
0.1
 40
0.1
 40
0.1
 40
0.2
 40
0.2
 40
0.2
 40
0.2
 40
0.3
 40
0.3
 40
0.3
 40
0.3
 40
0.4
 40
0.4
 40
0.4
 40
0.4
 40
0.5
 40
0.5
 40
0.5
 40
0.5
 40
0.6
 40
0.6
 40
0.6
 40
0.6
 40
0.7
 40
0.7
 40
0.7
 40
0.7
 40
0.7999999999999999
 40
0.7999999999999999
 40
0.7999999999999999
 40
0.7999999999999999
 40
0.8999999999999999
 40
0.8999999999999999
 40
0.8999999999999999
 40
0.8999999999999999
 40
1.0
 40
1.0
 40
1.0
 40
1.0
 10
-0.8913900000000001
 20
-1.4636
 30
0.0
 10
-0.8151900000000001
 20
-1.4483600000000001
 30
0.0
 10
-0.8558300000000001
 20
-1.5398000000000001
 30
0.0
 10
-0.88885
 20
-1.5652000000000001
 30
0.0
 10
-0.88885
 20
-1.5652000000000001
 30
0.0
 10
-1.1809500000000002
 20
-1.8065000000000002
 30
0.0
 10
-1.46289
 20
-2.10622
 30
0.0
 10
-1.58735
 20
-2.4745200000000001
 30
0.0
 10
-1.58735
 20
-2.4745200000000001
 30
0.0
 10
-1.6889500000000002
 20
-2.4770600000000003
 30
0.0
 10
-1.6991100000000001
 20
-2.5177
 30
0.0
 10
-1.7880100000000001
 20
-2.5761200000000004
 30
0.0
 10
-1.7880100000000001
 20
-2.5761200000000004
 30
0.0
 10
-1.7880100000000001
 20
-2.5761200000000004
 30
0.0
 10
-1.84135
 20
-2.5075400000000001
 30
0.0
 10
-1.84135
 20
-2.5075400000000001
 30
0.0
 10
-1.84135
 20
-2.5075400000000001
 30
0.0
 10
-1.84135
 20
-2.5075400000000001
 30
0.0
 10
-1.9962900000000001
 20
-2.5405600000000002
 30
0.0
 10
-1.9962900000000001
 20
-2.5405600000000002
 30
0.0
 10
-1.9962900000000001
 20
-2.5405600000000002
 30
0.0
 10
-1.9962900000000001
 20
-2.5405600000000002
 30
0.0
 10
-2.05979
 20
-2.81488
 30
0.0
 10
-2.05979
 20
-2.81488
 30
0.0
 10
-2.05979
 20
-2.81488
 30
0.0
 10
-2.2020300000000002
 20
-2.52278
 30
0.0
 10
-2.05979
 20
-2.1519400000000002
 30
0.0
 10
-1.84135
 20
-1.9462000000000002
 30
0.0
 10
-1.84135
 20
-1.9462000000000002
 30
0.0
 10
-1.84135
 20
-1.9462000000000002
 30
0.0
 10
-1.7473700000000001
 20
-2.0046200000000001
 30
0.0
 10
-1.7473700000000001
 20
-2.0046200000000001
 30
0.0
 10
-1.7473700000000001
 20
-2.0046200000000001
 30
0.0
 10
-1.6076700000000002
 20
-1.9970000000000001
 30
0.0
 10
-1.5086100000000002
 20
-1.79634
 30
0.0
 10
-1.3511300000000002
 20
-1.8623800000000001
 30
0.0
 10
-1.3511300000000002
 20
-1.8623800000000001
 30
0.0
 10
-1.25461
 20
-1.6617200000000001
 30
0.0
 10
-1.0183900000000001
 20
-1.63124
 30
0.0
 10
-0.8913900000000001
 20
-1.4636
 30
0.0
  0
SPLINE
  5
46
100
AcDbEntity
  8
Ebene 1
100
AcDbSpline
210
0.0
220
0.0
230
1.0
 70
     1
 71
     3
 72
    20
 73
    16
 74
     0
 42
0.0000000001
 43
0.0000000001
 40
0.0
 40
0.0
 40
0.0
 40
0.0
 40
0.25
 40
0.25
 40
0.25
 40
0.25
 40
0.5
 40
0.5
 40
0.5
 40
0.5
 40
0.75
 40
0.75
 40
0.75
 40
0.75
 40
1.0
 40
1.0
 40
1.0
 40
1.0
 10
0.47766
 20
-1.3594600000000001
 30
0.0
 10
0.49798
 20
-1.3543800000000001
 30
0.0
 10
0.5183000000000001
 20
-1.3493000000000002
 30
0.0
 10
0.5208400000000001
 20
-1.3696200000000001
 30
0.0
 10
0.5208400000000001
 20
-1.3696200000000001
 30
0.0
 10
0.48782
 20
-1.5982200000000002
 30
0.0
 10
0.40146
 20
-1.8573000000000002
 30
0.0
 10
0.20842
 20
-1.9970000000000001
 30
0.0
 10
0.20842
 20
-1.9970000000000001
 30
0.0
 10
0.20842
 20
-1.9970000000000001
 30
0.0
 10
0.3659
 20
-1.6845800000000002
 30
0.0
 10
0.3659
 20
-1.6845800000000002
 30
0.0
 10
0.3659
 20
-1.6845800000000002
 30
0.0
 10
0.25922
 20
-1.5652000000000001
 30
0.0
 10
0.44464
 20
-1.4864600000000001
 30
0.0
 10
0.47766
 20
-1.3594600000000001
 30
0.0
  0
SPLINE
  5
47
100
AcDbEntity
  8
Ebene 1
100
AcDbSpline
210
0.0
220
0.0
230
1.0
 70
     1
 71
     3
 72
    20
 73
    16
 74
     0
 42
0.0000000001
 43
0.0000000001
 40
0.0
 40
0.0
 40
0.0
 40
0.0
 40
0.25
 40
0.25
 40
0.25
 40
0.25
 40
0.5
 40
0.5
 40
0.5
 40
0.5
 40
0.75
 40
0.75
 40
0.75
 40
0.75
 40
1.0
 40
1.0
 40
1.0
 40
1.0
 10
3.0329000000000002
 20
-1.6871200000000002
 30
0.0
 10
3.0329000000000002
 20
-1.6871200000000002
 30
0.0
 10
3.0735400000000004
 20
-1.6795000000000002
 30
0.0
 10
3.0735400000000004
 20
-1.6795000000000002
 30
0.0
 10
3.0735400000000004
 20
-1.6795000000000002
 30
0.0
 10
3.0735400000000004
 20
-1.6795000000000002
 30
0.0
 10
3.1827600000000005
 20
-2.0986000000000002
 30
0.0
 10
3.1827600000000005
 20
-2.0986000000000002
 30
0.0
 10
3.1827600000000005
 20
-2.0986000000000002
 30
0.0
 10
3.1243400000000001
 20
-2.2103600000000001
 30
0.0
 10
3.0608400000000002
 20
-2.2840200000000004
 30
0.0
 10
2.9592400000000003
 20
-2.3881600000000001
 30
0.0
 10
2.9592400000000003
 20
-2.3881600000000001
 30
0.0
 10
2.84748
 20
-2.1494
 30
0.0
 10
3.1878400000000005
 20
-1.9360400000000002
 30
0.0
 10
3.0329000000000002
 20
-1.6871200000000002
 30
0.0
  0
SPLINE
  5
48
100
AcDbEntity
  8
Ebene 1
100
AcDbSpline
210
0.0
220
0.0
230
1.0
 70
     1
 71
     3
 72
    24
 73
    20
 74
     0
 42
0.0000000001
 43
0.0000000001
 40
0.0
 40
0.0
 40
0.0
 40
0.0
 40
0.2
 40
0.2
 40
0.2
 40
0.2
 40
0.4
 40
0.4
 40
0.4
 40
0.4
 40
0.6000000000000001
 40
0.6000000000000001
 40
0.6000000000000001
 40
0.6000000000000001
 40
0.8
 40
0.8
 40
0.8
 40
0.8
 40
1.0
 40
1.0
 40
1.0
 40
1.0
 10
2.6925400000000002
 20
-1.7988800000000003
 30
0.0
 10
2.71286
 20
-1.7938000000000001
 30
0.0
 10
2.7331800000000004
 20
-1.7912600000000001
 30
0.0
 10
2.75604
 20
-1.8065000000000002
 30
0.0
 10
2.75604
 20
-1.8065000000000002
 30
0.0
 10
2.7814400000000004
 20
-1.9208000000000001
 30
0.0
 10
2.8246200000000004
 20
-2.0325600000000001
 30
0.0
 10
2.7865200000000003
 20
-2.1417800000000002
 30
0.0
 10
2.7865200000000003
 20
-2.1417800000000002
 30
0.0
 10
2.9084400000000001
 20
-2.23576
 30
0.0
 10
2.7509600000000001
 20
-2.4516600000000004
 30
0.0
 10
2.6188800000000003
 20
-2.39832
 30
0.0
 10
2.6188800000000003
 20
-2.39832
 30
0.0
 10
2.6188800000000003
 20
-2.39832
 30
0.0
 10
2.6163400000000001
 20
-2.2967200000000001
 30
0.0
 10
2.6163400000000001
 20
-2.2967200000000001
 30
0.0
 10
2.6163400000000001
 20
-2.2967200000000001
 30
0.0
 10
2.8652600000000001
 20
-2.2256
 30
0.0
 10
2.7052400000000003
 20
-1.9563600000000001
 30
0.0
 10
2.6925400000000002
 20
-1.7988800000000003
 30
0.0
  0
SPLINE
  5
49
100
AcDbEntity
  8
Ebene 1
 62
     7
100
AcDbSpline
210
0.0
220
0.0
230
1.0
 70
     1
 71
     3
 72
    20
 73
    16
 74
     0
 42
0.0000000001
 43
0.0000000001
 40
0.0
 40
0.0
 40
0.0
 40
0.0
 40
0.25
 40
0.25
 40
0.25
 40
0.25
 40
0.5
 40
0.5
 40
0.5
 40
0.5
 40
0.75
 40
0.75
 40
0.75
 40
0.75
 40
1.0
 40
1.0
 40
1.0
 40
1.0
 10
-0.12431
 20
-2.5100800000000003
 30
0.0
 10
-0.12431
 20
-2.5100800000000003
 30
0.0
 10
0.06618
 20
-2.4694400000000001
 30
0.0
 10
0.06618
 20
-2.4694400000000001
 30
0.0
 10
0.06618
 20
-2.4694400000000001
 30
0.0
 10
0.06618
 20
-2.4694400000000001
 30
0.0
 10
-0.02017
 20
-2.9088600000000002
 30
0.0
 10
-0.02017
 20
-2.9088600000000002
 30
0.0
 10
-0.02017
 20
-2.9088600000000002
 30
0.0
 10
-0.22337
 20
-2.9926800000000005
 30
0.0
 10
-0.34529
 20
-2.6167600000000002
 30
0.0
 10
-0.13447
 20
-2.5507200000000001
 30
0.0
 10
-0.13447
 20
-2.5507200000000001
 30
0.0
 10
-0.13447
 20
-2.5507200000000001
 30
0.0
 10
-0.12431
 20
-2.5100800000000003
 30
0.0
 10
-0.12431
 20
-2.5100800000000003
 30
0.0
  0
SPLINE
  5
4A
100
AcDbEntity
  8
Ebene 1
 62
     7
100
AcDbSpline
210
0.0
220
0.0
230
1.0
 70
     1
 71
     3
 72
    20
 73
    16
 74
     0
 42
0.0000000001
 43
0.0000000001
 40
0.0
 40
0.0
 40
0.0
 40
0.0
 40
0.25
 40
0.25
 40
0.25
 40
0.25
 40
0.5
 40
0.5
 40
0.5
 40
0.5
 40
0.75
 40
0.75
 40
0.75
 40
0.75
 40
1.0
 40
1.0
 40
1.0
 40
1.0
 10
0.15508
 20
-2.5100800000000003
 30
0.0
 10
0.24906
 20
-2.4719800000000003
 30
0.0
 10
0.35828
 20
-2.5100800000000003
 30
0.0
 10
0.4294000000000001
 20
-2.5558000000000001
 30
0.0
 10
0.4294000000000001
 20
-2.5558000000000001
 30
0.0
 10
0.4827400000000001
 20
-2.7234400000000001
 30
0.0
 10
0.3532
 20
-2.8707600000000002
 30
0.0
 10
0.4294000000000001
 20
-3.0358600000000004
 30
0.0
 10
0.4294000000000001
 20
-3.0358600000000004
 30
0.0
 10
0.28208
 20
-3.0053800000000002
 30
0.0
 10
0.1881
 20
-2.9469600000000002
 30
0.0
 10
0.12206
 20
-2.81996
 30
0.0
 10
0.12206
 20
-2.81996
 30
0.0
 10
0.15762
 20
-2.7107400000000004
 30
0.0
 10
0.15762
 20
-2.6116800000000002
 30
0.0
 10
0.15508
 20
-2.5100800000000003
 30
0.0
  0
SPLINE
  5
4B
100
AcDbEntity
  8
Ebene 1
 62
     7
100
AcDbSpline
210
0.0
220
0.0
230
1.0
 70
     1
 71
     3
 72
    16
 73
    12
 74
     0
 42
0.0000000001
 43
0.0000000001
 40
0.0
 40
0.0
 40
0.0
 40
0.0
 40
0.3333333333333333
 40
0.3333333333333333
 40
0.3333333333333333
 40
0.3333333333333333
 40
0.6666666666666666
 40
0.6666666666666666
 40
0.6666666666666666
 40
0.6666666666666666
 40
1.0
 40
1.0
 40
1.0
 40
1.0
 10
0.6326000000000001
 20
-2.57104
 30
0.0
 10
0.6326000000000001
 20
-2.57104
 30
0.0
 10
0.7773800000000001
 20
-2.5812000000000004
 30
0.0
 10
0.7773800000000001
 20
-2.5812000000000004
 30
0.0
 10
0.7773800000000001
 20
-2.5812000000000004
 30
0.0
 10
0.8840600000000001
 20
-2.7996400000000001
 30
0.0
 10
0.93232
 20
-3.03078
 30
0.0
 10
0.7545200000000001
 20
-3.2289000000000003
 30
0.0
 10
0.7545200000000001
 20
-3.2289000000000003
 30
0.0
 10
0.43702
 20
-3.1755600000000004
 30
0.0
 10
0.51068
 20
-2.7564600000000001
 30
0.0
 10
0.6326000000000001
 20
-2.57104
 30
0.0
  0
SPLINE
  5
4C
100
AcDbEntity
  8
Ebene 1
 62
     7
100
AcDbSpline
210
0.0
220
0.0
230
1.0
 70
     1
 71
     3
 72
    64
 73
    60
 74
     0
 42
0.0000000001
 43
0.0000000001
 40
0.0
 40
0.0
 40
0.0
 40
0.0
 40
0.0666666666666667
 40
0.0666666666666667
 40
0.0666666666666667
 40
0.0666666666666667
 40
0.1333333333333333
 40
0.1333333333333333
 40
0.1333333333333333
 40
0.1333333333333333
 40
0.2
 40
0.2
 40
0.2
 40
0.2
 40
0.2666666666666667
 40
0.2666666666666667
 40
0.2666666666666667
 40
0.2666666666666667
 40
0.3333333333333333
 40
0.3333333333333333
 40
0.3333333333333333
 40
0.3333333333333333
 40
0.4
 40
0.4
 40
0.4
 40
0.4
 40
0.4666666666666666
 40
0.4666666666666666
 40
0.4666666666666666
 40
0.4666666666666666
 40
0.5333333333333333
 40
0.5333333333333333
 40
0.5333333333333333
 40
0.5333333333333333
 40
0.6
 40
0.6
 40
0.6
 40
0.6
 40
0.6666666666666666
 40
0.6666666666666666
 40
0.6666666666666666
 40
0.6666666666666666
 40
0.7333333333333333
 40
0.7333333333333333
 40
0.7333333333333333
 40
0.7333333333333333
 40
0.7999999999999999
 40
0.7999999999999999
 40
0.7999999999999999
 40
0.7999999999999999
 40
0.8666666666666666
 40
0.8666666666666666
 40
0.8666666666666666
 40
0.8666666666666666
 40
0.9333333333333332
 40
0.9333333333333332
 40
0.9333333333333332
 40
0.9333333333333332
 40
1.0
 40
1.0
 40
1.0
 40
1.0
 10
-0.58913
 20
-2.8885400000000003
 30
0.0
 10
-0.49515
 20
-3.0485600000000002
 30
0.0
 10
-0.32497
 20
-3.2746200000000001
 30
0.0
 10
-0.07859
 20
-3.3025600000000002
 30
0.0
 10
-0.07859
 20
-3.3025600000000002
 30
0.0
 10
-0.07859
 20
-3.3025600000000002
 30
0.0
 10
0.1246
 20
-3.6022800000000004
 30
0.0
 10
0.1246
 20
-3.6022800000000004
 30
0.0
 10
0.1246
 20
-3.6022800000000004
 30
0.0
 10
0.37606
 20
-4.7935400000000001
 30
0.0
 10
2.0448400000000002
 20
-4.6462200000000005
 30
0.0
 10
2.6696800000000001
 20
-3.9731200000000002
 30
0.0
 10
2.6696800000000001
 20
-3.9731200000000002
 30
0.0
 10
2.8347800000000003
 20
-4.2804600000000006
 30
0.0
 10
2.6646000000000001
 20
-4.6182800000000004
 30
0.0
 10
2.3242400000000001
 20
-4.6284400000000003
 30
0.0
 10
2.3242400000000001
 20
-4.6284400000000003
 30
0.0
 10
1.9127600000000002
 20
-4.6944800000000004
 30
0.0
 10
1.1609200000000002
 20
-4.48874
 30
0.0
 10
1.11266
 20
-5.0221400000000003
 30
0.0
 10
1.11266
 20
-5.0221400000000003
 30
0.0
 10
1.2295
 20
-4.8976800000000003
 30
0.0
 10
1.3057000000000001
 20
-4.8824400000000008
 30
0.0
 10
1.4784200000000001
 20
-4.8468800000000005
 30
0.0
 10
1.4784200000000001
 20
-4.8468800000000005
 30
0.0
 10
1.6486000000000001
 20
-4.7910000000000004
 30
0.0
 10
1.7756000000000001
 20
-4.9027600000000007
 30
0.0
 10
1.9457800000000001
 20
-4.8468800000000005
 30
0.0
 10
1.9457800000000001
 20
-4.8468800000000005
 30
0.0
 10
1.9457800000000001
 20
-4.8468800000000005
 30
0.0
 10
2.2886800000000003
 20
-4.7554400000000001
 30
0.0
 10
2.2886800000000003
 20
-4.7554400000000001
 30
0.0
 10
2.2886800000000003
 20
-4.7554400000000001
 30
0.0
 10
2.2886800000000003
 20
-4.7554400000000001
 30
0.0
 10
2.3318600000000003
 20
-5.1491400000000001
 30
0.0
 10
2.3318600000000003
 20
-5.1491400000000001
 30
0.0
 10
2.3318600000000003
 20
-5.1491400000000001
 30
0.0
 10
2.0981800000000002
 20
-5.2786800000000005
 30
0.0
 10
1.9991200000000002
 20
-5.1974
 30
0.0
 10
1.8086200000000001
 20
-5.0577000000000005
 30
0.0
 10
1.8086200000000001
 20
-5.0577000000000005
 30
0.0
 10
1.6613000000000002
 20
-5.2278800000000007
 30
0.0
 10
1.4250800000000001
 20
-5.1567600000000002
 30
0.0
 10
1.2904600000000002
 20
-5.0043600000000001
 30
0.0
 10
1.2904600000000002
 20
-5.0043600000000001
 30
0.0
 10
1.31332
 20
-5.1008800000000001
 30
0.0
 10
1.1990200000000002
 20
-5.1440600000000005
 30
0.0
 10
1.1025
 20
-5.1643800000000004
 30
0.0
 10
1.1025
 20
-5.1643800000000004
 30
0.0
 10
0.9069200000000001
 20
-4.6233600000000008
 30
0.0
 10
0.3532
 20
-4.1966400000000004
 30
0.0
 10
-0.21321
 20
-3.8943800000000004
 30
0.0
 10
-0.21321
 20
-3.8943800000000004
 30
0.0
 10
-0.21321
 20
-3.8943800000000004
 30
0.0
 10
-0.29449
 20
-3.6099000000000001
 30
0.0
 10
-0.29449
 20
-3.6099000000000001
 30
0.0
 10
-0.29449
 20
-3.6099000000000001
 30
0.0
 10
-0.52563
 20
-3.5768800000000005
 30
0.0
 10
-0.70089
 20
-3.1323800000000004
 30
0.0
 10
-0.58913
 20
-2.8885400000000003
 30
0.0
  0
SPLINE
  5
4D
100
AcDbEntity
  8
Ebene 1
 62
     7
100
AcDbSpline
210
0.0
220
0.0
230
1.0
 70
     1
 71
     3
 72
    20
 73
    16
 74
     0
 42
0.0000000001
 43
0.0000000001
 40
0.0
 40
0.0
 40
0.0
 40
0.0
 40
0.25
 40
0.25
 40
0.25
 40
0.25
 40
0.5
 40
0.5
 40
0.5
 40
0.5
 40
0.75
 40
0.75
 40
0.75
 40
0.75
 40
1.0
 40
1.0
 40
1.0
 40
1.0
 10
0.9856600000000001
 20
-2.6980400000000002
 30
0.0
 10
1.09996
 20
-2.6751800000000001
 30
0.0
 10
1.2472800000000002
 20
-2.7056600000000004
 30
0.0
 10
1.3412600000000001
 20
-2.7640800000000003
 30
0.0
 10
1.3412600000000001
 20
-2.7640800000000003
 30
0.0
 10
1.27522
 20
-3.0206200000000001
 30
0.0
 10
1.3717400000000002
 20
-3.3813000000000004
 30
0.0
 10
0.99582
 20
-3.4194000000000004
 30
0.0
 10
0.99582
 20
-3.4194000000000004
 30
0.0
 10
0.9577200000000001
 20
-3.4270200000000002
 30
0.0
 10
0.9450200000000001
 20
-3.3711400000000005
 30
0.0
 10
0.9221600000000001
 20
-3.3559000000000001
 30
0.0
 10
0.9221600000000001
 20
-3.3559000000000001
 30
0.0
 10
0.93486
 20
-3.1323800000000004
 30
0.0
 10
0.8815200000000001
 20
-2.8809200000000001
 30
0.0
 10
0.9856600000000001
 20
-2.6980400000000002
 30
0.0
  0
SPLINE
  5
4E
100
AcDbEntity
  8
Ebene 1
 62
     7
100
AcDbSpline
210
0.0
220
0.0
230
1.0
 70
     1
 71
     3
 72
    20
 73
    16
 74
     0
 42
0.0000000001
 43
0.0000000001
 40
0.0
 40
0.0
 40
0.0
 40
0.0
 40
0.25
 40
0.25
 40
0.25
 40
0.25
 40
0.5
 40
0.5
 40
0.5
 40
0.5
 40
0.75
 40
0.75
 40
0.75
 40
0.75
 40
1.0
 40
1.0
 40
1.0
 40
1.0
 10
1.5444600000000002
 20
-2.7615400000000001
 30
0.0
 10
1.5444600000000002
 20
-2.7615400000000001
 30
0.0
 10
1.6841600000000001
 20
-2.7539200000000004
 30
0.0
 10
1.6841600000000001
 20
-2.7539200000000004
 30
0.0
 10
1.6841600000000001
 20
-2.7539200000000004
 30
0.0
 10
1.6511400000000001
 20
-2.9825200000000001
 30
0.0
 10
1.8213200000000001
 20
-3.4067000000000003
 30
0.0
 10
1.44286
 20
-3.4270200000000002
 30
0.0
 10
1.44286
 20
-3.4270200000000002
 30
0.0
 10
1.27014
 20
-3.2822400000000003
 30
0.0
 10
1.4377800000000001
 20
-3.0257000000000001
 30
0.0
 10
1.4149200000000002
 20
-2.8301200000000004
 30
0.0
 10
1.4149200000000002
 20
-2.8301200000000004
 30
0.0
 10
1.4149200000000002
 20
-2.8301200000000004
 30
0.0
 10
1.5444600000000002
 20
-2.7615400000000001
 30
0.0
 10
1.5444600000000002
 20
-2.7615400000000001
 30
0.0
  0
SPLINE
  5
4F
100
AcDbEntity
  8
Ebene 1
 62
     7
100
AcDbSpline
210
0.0
220
0.0
230
1.0
 70
     1
 71
     3
 72
    24
 73
    20
 74
     0
 42
0.0000000001
 43
0.0000000001
 40
0.0
 40
0.0
 40
0.0
 40
0.0
 40
0.2
 40
0.2
 40
0.2
 40
0.2
 40
0.4
 40
0.4
 40
0.4
 40
0.4
 40
0.6000000000000001
 40
0.6000000000000001
 40
0.6000000000000001
 40
0.6000000000000001
 40
0.8
 40
0.8
 40
0.8
 40
0.8
 40
1.0
 40
1.0
 40
1.0
 40
1.0
 10
-0.05573
 20
-3.1171400000000005
 30
0.0
 10
0.01792
 20
-3.1019000000000001
 30
0.0
 10
0.08904
 20
-3.1476200000000003
 30
0.0
 10
0.14492
 20
-3.2162000000000002
 30
0.0
 10
0.14492
 20
-3.2162000000000002
 30
0.0
 10
0.18556
 20
-3.1273000000000004
 30
0.0
 10
0.2516000000000001
 20
-3.2543000000000002
 30
0.0
 10
0.27954
 20
-3.2898600000000005
 30
0.0
 10
0.27954
 20
-3.2898600000000005
 30
0.0
 10
0.20334
 20
-3.3051000000000004
 30
0.0
 10
0.14492
 20
-3.3178000000000001
 30
0.0
 10
0.09412
 20
-3.3686000000000003
 30
0.0
 10
0.09412
 20
-3.3686000000000003
 30
0.0
 10
0.09412
 20
-3.3686000000000003
 30
0.0
 10
-0.08621
 20
-3.1654000000000004
 30
0.0
 10
-0.08621
 20
-3.1654000000000004
 30
0.0
 10
-0.08621
 20
-3.1654000000000004
 30
0.0
 10
-0.08621
 20
-3.1654000000000004
 30
0.0
 10
-0.05573
 20
-3.1171400000000005
 30
0.0
 10
-0.05573
 20
-3.1171400000000005
 30
0.0
  0
SPLINE
  5
50
100
AcDbEntity
  8
Ebene 1
 62
     7
100
AcDbSpline
210
0.0
220
0.0
230
1.0
 70
     1
 71
     3
 72
    20
 73
    16
 74
     0
 42
0.0000000001
 43
0.0000000001
 40
0.0
 40
0.0
 40
0.0
 40
0.0
 40
0.25
 40
0.25
 40
0.25
 40
0.25
 40
0.5
 40
0.5
 40
0.5
 40
0.5
 40
0.75
 40
0.75
 40
0.75
 40
0.75
 40
1.0
 40
1.0
 40
1.0
 40
1.0
 10
1.7908400000000002
 20
-2.7920200000000004
 30
0.0
 10
1.8899000000000001
 20
-2.7717000000000001
 30
0.0
 10
1.9813400000000001
 20
-2.7310600000000003
 30
0.0
 10
2.0727800000000003
 20
-2.7742400000000003
 30
0.0
 10
2.0727800000000003
 20
-2.7742400000000003
 30
0.0
 10
2.05246
 20
-2.9774400000000001
 30
0.0
 10
2.0143600000000004
 20
-3.1654000000000004
 30
0.0
 10
2.0550000000000002
 20
-3.3584400000000003
 30
0.0
 10
2.0550000000000002
 20
-3.3584400000000003
 30
0.0
 10
2.0550000000000002
 20
-3.3584400000000003
 30
0.0
 10
1.9889600000000001
 20
-3.4321000000000002
 30
0.0
 10
1.9889600000000001
 20
-3.4321000000000002
 30
0.0
 10
1.9889600000000001
 20
-3.4321000000000002
 30
0.0
 10
1.6105
 20
-3.5540200000000004
 30
0.0
 10
1.7756000000000001
 20
-2.9952200000000002
 30
0.0
 10
1.7908400000000002
 20
-2.7920200000000004
 30
0.0
  0
SPLINE
  5
51
100
AcDbEntity
  8
Ebene 1
 62
     7
100
AcDbSpline
210
0.0
220
0.0
230
1.0
 70
     1
 71
     3
 72
    20
 73
    16
 74
     0
 42
0.0000000001
 43
0.0000000001
 40
0.0
 40
0.0
 40
0.0
 40
0.0
 40
0.25
 40
0.25
 40
0.25
 40
0.25
 40
0.5
 40
0.5
 40
0.5
 40
0.5
 40
0.75
 40
0.75
 40
0.75
 40
0.75
 40
1.0
 40
1.0
 40
1.0
 40
1.0
 10
2.2937600000000002
 20
-2.6853400000000001
 30
0.0
 10
2.2937600000000002
 20
-2.6853400000000001
 30
0.0
 10
2.4512400000000003
 20
-2.6548600000000002
 30
0.0
 10
2.4512400000000003
 20
-2.6548600000000002
 30
0.0
 10
2.4512400000000003
 20
-2.6548600000000002
 30
0.0
 10
2.5325200000000003
 20
-2.85806
 30
0.0
 10
2.5604600000000004
 20
-3.1730200000000002
 30
0.0
 10
2.3750400000000003
 20
-3.3508200000000001
 30
0.0
 10
2.3750400000000003
 20
-3.3508200000000001
 30
0.0
 10
2.29122
 20
-3.3305000000000002
 30
0.0
 10
2.20994
 20
-3.3254200000000003
 30
0.0
 10
2.1439000000000004
 20
-3.3000200000000004
 30
0.0
 10
2.1439000000000004
 20
-3.3000200000000004
 30
0.0
 10
2.1413600000000002
 20
-3.0993600000000003
 30
0.0
 10
2.1413600000000002
 20
-2.8174200000000003
 30
0.0
 10
2.2937600000000002
 20
-2.6853400000000001
 30
0.0
  0
SPLINE
  5
52
100
AcDbEntity
  8
Ebene 1
 62
     7
100
AcDbSpline
210
0.0
220
0.0
230
1.0
 70
     1
 71
     3
 72
    28
 73
    24
 74
     0
 42
0.0000000001
 43
0.0000000001
 40
0.0
 40
0.0
 40
0.0
 40
0.0
 40
0.1666666666666667
 40
0.1666666666666667
 40
0.1666666666666667
 40
0.1666666666666667
 40
0.3333333333333333
 40
0.3333333333333333
 40
0.3333333333333333
 40
0.3333333333333333
 40
0.5
 40
0.5
 40
0.5
 40
0.5
 40
0.6666666666666666
 40
0.6666666666666666
 40
0.6666666666666666
 40
0.6666666666666666
 40
0.8333333333333333
 40
0.8333333333333333
 40
0.8333333333333333
 40
0.8333333333333333
 40
1.0
 40
1.0
 40
1.0
 40
1.0
 10
2.6239600000000003
 20
-2.6167600000000002
 30
0.0
 10
2.6239600000000003
 20
-2.6167600000000002
 30
0.0
 10
2.7255600000000002
 20
-2.6167600000000002
 30
0.0
 10
2.7255600000000002
 20
-2.6167600000000002
 30
0.0
 10
2.7255600000000002
 20
-2.6167600000000002
 30
0.0
 10
2.7255600000000002
 20
-2.6167600000000002
 30
0.0
 10
2.71794
 20
-2.7793200000000002
 30
0.0
 10
2.71794
 20
-2.7793200000000002
 30
0.0
 10
2.71794
 20
-2.7793200000000002
 30
0.0
 10
2.8805000000000001
 20
-2.9647400000000004
 30
0.0
 10
2.7814400000000004
 20
-3.2670000000000003
 30
0.0
 10
2.5274400000000004
 20
-3.3000200000000004
 30
0.0
 10
2.5274400000000004
 20
-3.3000200000000004
 30
0.0
 10
2.5376000000000003
 20
-3.2568400000000004
 30
0.0
 10
2.5782400000000001
 20
-3.2492200000000002
 30
0.0
 10
2.6112600000000001
 20
-3.2212800000000001
 30
0.0
 10
2.6112600000000001
 20
-3.2212800000000001
 30
0.0
 10
2.4817200000000001
 20
-3.1882600000000001
 30
0.0
 10
2.6011000000000002
 20
-2.9850600000000003
 30
0.0
 10
2.5325200000000003
 20
-2.85806
 30
0.0
 10
2.5325200000000003
 20
-2.85806
 30
0.0
 10
2.6468200000000004
 20
-2.81488
 30
0.0
 10
2.6265000000000001
 20
-2.7158200000000003
 30
0.0
 10
2.6239600000000003
 20
-2.6167600000000002
 30
0.0
  0
SPLINE
  5
53
100
AcDbEntity
  8
Ebene 1
 62
     7
100
AcDbSpline
210
0.0
220
0.0
230
1.0
 70
     1
 71
     3
 72
    16
 73
    12
 74
     0
 42
0.0000000001
 43
0.0000000001
 40
0.0
 40
0.0
 40
0.0
 40
0.0
 40
0.3333333333333333
 40
0.3333333333333333
 40
0.3333333333333333
 40
0.3333333333333333
 40
0.6666666666666666
 40
0.6666666666666666
 40
0.6666666666666666
 40
0.6666666666666666
 40
1.0
 40
1.0
 40
1.0
 40
1.0
 10
2.9033600000000002
 20
-2.5989800000000001
 30
0.0
 10
3.0786200000000004
 20
-2.6624800000000004
 30
0.0
 10
3.0151200000000005
 20
-2.9368000000000003
 30
0.0
 10
2.9236800000000001
 20
-3.0765000000000002
 30
0.0
 10
2.9236800000000001
 20
-3.0765000000000002
 30
0.0
 10
2.8068400000000002
 20
-3.0003000000000002
 30
0.0
 10
2.9770200000000004
 20
-2.9469600000000002
 30
0.0
 10
2.9617800000000001
 20
-2.8682200000000004
 30
0.0
 10
2.9617800000000001
 20
-2.8682200000000004
 30
0.0
 10
2.7865200000000003
 20
-2.9037800000000002
 30
0.0
 10
2.9236800000000001
 20
-2.6955
 30
0.0
 10
2.9033600000000002
 20
-2.5989800000000001
 30
0.0
  0
SPLINE
  5
54
100
AcDbEntity
  8
Ebene 1
 62
     7
100
AcDbSpline
210
0.0
220
0.0
230
1.0
 70
     1
 71
     3
 72
    16
 73
    12
 74
     0
 42
0.0000000001
 43
0.0000000001
 40
0.0
 40
0.0
 40
0.0
 40
0.0
 40
0.3333333333333333
 40
0.3333333333333333
 40
0.3333333333333333
 40
0.3333333333333333
 40
0.6666666666666666
 40
0.6666666666666666
 40
0.6666666666666666
 40
0.6666666666666666
 40
1.0
 40
1.0
 40
1.0
 40
1.0
 10
0.21604
 20
-3.3609800000000001
 30
0.0
 10
0.4192400000000001
 20
-3.2797000000000001
 30
0.0
 10
0.57418
 20
-3.6302200000000004
 30
0.0
 10
0.3887600000000001
 20
-3.7064200000000005
 30
0.0
 10
0.3887600000000001
 20
-3.7064200000000005
 30
0.0
 10
0.2617600000000001
 20
-3.6734000000000004
 30
0.0
 10
0.24398
 20
-3.4981400000000002
 30
0.0
 10
0.14492
 20
-3.4168600000000002
 30
0.0
 10
0.14492
 20
-3.4168600000000002
 30
0.0
 10
0.14492
 20
-3.4168600000000002
 30
0.0
 10
0.21604
 20
-3.3609800000000001
 30
0.0
 10
0.21604
 20
-3.3609800000000001
 30
0.0
  0
SPLINE
  5
55
100
AcDbEntity
  8
Ebene 1
 62
     7
100
AcDbSpline
210
0.0
220
0.0
230
1.0
 70
     1
 71
     3
 72
    16
 73
    12
 74
     0
 42
0.0000000001
 43
0.0000000001
 40
0.0
 40
0.0
 40
0.0
 40
0.0
 40
0.3333333333333333
 40
0.3333333333333333
 40
0.3333333333333333
 40
0.3333333333333333
 40
0.6666666666666666
 40
0.6666666666666666
 40
0.6666666666666666
 40
0.6666666666666666
 40
1.0
 40
1.0
 40
1.0
 40
1.0
 10
0.40146
 20
-3.7648400000000004
 30
0.0
 10
0.61736
 20
-3.6378400000000002
 30
0.0
 10
0.83072
 20
-3.8766000000000003
 30
0.0
 10
0.7519800000000001
 20
-4.0747200000000001
 30
0.0
 10
0.7519800000000001
 20
-4.0747200000000001
 30
0.0
 10
0.8586600000000001
 20
-4.0112200000000007
 30
0.0
 10
0.80532
 20
-4.1433
 30
0.0
 10
0.80532
 20
-4.2423600000000006
 30
0.0
 10
0.80532
 20
-4.2423600000000006
 30
0.0
 10
0.6021200000000001
 20
-4.2245800000000004
 30
0.0
 10
0.45734
 20
-3.9350200000000002
 30
0.0
 10
0.40146
 20
-3.7648400000000004
 30
0.0
  0
SPLINE
  5
56
100
AcDbEntity
  8
Ebene 1
 62
     7
100
AcDbSpline
210
0.0
220
0.0
230
1.0
 70
     1
 71
     3
 72
    12
 73
     8
 74
     0
 42
0.0000000001
 43
0.0000000001
 40
0.0
 40
0.0
 40
0.0
 40
0.0
 40
0.5
 40
0.5
 40
0.5
 40
0.5
 40
1.0
 40
1.0
 40
1.0
 40
1.0
 10
2.3140800000000001
 20
-3.4448000000000003
 30
0.0
 10
2.4614000000000003
 20
-3.3736800000000002
 30
0.0
 10
2.4283800000000002
 20
-3.5006800000000005
 30
0.0
 10
2.4487000000000001
 20
-3.5997400000000002
 30
0.0
 10
2.4487000000000001
 20
-3.5997400000000002
 30
0.0
 10
2.3623400000000001
 20
-3.5768800000000005
 30
0.0
 10
2.29122
 20
-3.5311600000000003
 30
0.0
 10
2.3140800000000001
 20
-3.4448000000000003
 30
0.0
  0
SPLINE
  5
57
100
AcDbEntity
  8
Ebene 1
 62
     7
100
AcDbSpline
210
0.0
220
0.0
230
1.0
 70
     1
 71
     3
 72
    32
 73
    28
 74
     0
 42
0.0000000001
 43
0.0000000001
 40
0.0
 40
0.0
 40
0.0
 40
0.0
 40
0.1428571428571429
 40
0.1428571428571429
 40
0.1428571428571429
 40
0.1428571428571429
 40
0.2857142857142857
 40
0.2857142857142857
 40
0.2857142857142857
 40
0.2857142857142857
 40
0.4285714285714286
 40
0.4285714285714286
 40
0.4285714285714286
 40
0.4285714285714286
 40
0.5714285714285714
 40
0.5714285714285714
 40
0.5714285714285714
 40
0.5714285714285714
 40
0.7142857142857142
 40
0.7142857142857142
 40
0.7142857142857142
 40
0.7142857142857142
 40
0.857142857142857
 40
0.857142857142857
 40
0.857142857142857
 40
0.857142857142857
 40
1.0
 40
1.0
 40
1.0
 40
1.0
 10
1.0110600000000001
 20
-3.8791400000000005
 30
0.0
 10
1.1355200000000001
 20
-3.8918400000000002
 30
0.0
 10
1.1583800000000002
 20
-4.0899600000000005
 30
0.0
 10
1.1812400000000001
 20
-4.2042600000000006
 30
0.0
 10
1.1812400000000001
 20
-4.2042600000000006
 30
0.0
 10
1.14822
 20
-4.2322000000000006
 30
0.0
 10
1.1025
 20
-4.3007800000000005
 30
0.0
 10
1.1787000000000001
 20
-4.2855400000000001
 30
0.0
 10
1.1787000000000001
 20
-4.2855400000000001
 30
0.0
 10
1.2904600000000002
 20
-4.2423600000000006
 30
0.0
 10
1.1533
 20
-4.0696400000000006
 30
0.0
 10
1.2650600000000001
 20
-4.0264600000000002
 30
0.0
 10
1.2650600000000001
 20
-4.0264600000000002
 30
0.0
 10
1.2955400000000001
 20
-3.9807400000000004
 30
0.0
 10
1.3692000000000002
 20
-3.9451800000000001
 30
0.0
 10
1.4276200000000001
 20
-3.9324800000000004
 30
0.0
 10
1.4276200000000001
 20
-3.9324800000000004
 30
0.0
 10
1.4276200000000001
 20
-3.9324800000000004
 30
0.0
 10
1.3285600000000002
 20
-4.31602
 30
0.0
 10
1.3285600000000002
 20
-4.31602
 30
0.0
 10
1.3285600000000002
 20
-4.31602
 30
0.0
 10
1.3285600000000002
 20
-4.31602
 30
0.0
 10
0.8612000000000001
 20
-4.3109400000000004
 30
0.0
 10
0.8612000000000001
 20
-4.3109400000000004
 30
0.0
 10
0.8612000000000001
 20
-4.3109400000000004
 30
0.0
 10
0.8662800000000001
 20
-4.1483800000000004
 30
0.0
 10
0.8967600000000001
 20
-4.0036000000000005
 30
0.0
 10
1.0110600000000001
 20
-3.8791400000000005
 30
0.0
  0
SPLINE
  5
58
100
AcDbEntity
  8
Ebene 1
 62
     7
100
AcDbSpline
210
0.0
220
0.0
230
1.0
 70
     1
 71
     3
 72
    16
 73
    12
 74
     0
 42
0.0000000001
 43
0.0000000001
 40
0.0
 40
0.0
 40
0.0
 40
0.0
 40
0.3333333333333333
 40
0.3333333333333333
 40
0.3333333333333333
 40
0.3333333333333333
 40
0.6666666666666666
 40
0.6666666666666666
 40
0.6666666666666666
 40
0.6666666666666666
 40
1.0
 40
1.0
 40
1.0
 40
1.0
 10
2.3750400000000003
 20
-3.7343600000000001
 30
0.0
 10
2.4537800000000001
 20
-3.7165800000000004
 30
0.0
 10
2.4817200000000001
 20
-3.8512000000000004
 30
0.0
 10
2.4283800000000002
 20
-3.8842200000000005
 30
0.0
 10
2.4283800000000002
 20
-3.8842200000000005
 30
0.0
 10
2.4664800000000002
 20
-3.9756600000000004
 30
0.0
 10
2.3674200000000001
 20
-4.0772600000000008
 30
0.0
 10
2.2658200000000002
 20
-4.0772600000000008
 30
0.0
 10
2.2658200000000002
 20
-4.0772600000000008
 30
0.0
 10
2.2658200000000002
 20
-4.0772600000000008
 30
0.0
 10
2.3750400000000003
 20
-3.7343600000000001
 30
0.0
 10
2.3750400000000003
 20
-3.7343600000000001
 30
0.0
  0
SPLINE
  5
59
100
AcDbEntity
  8
Ebene 1
 62
     7
100
AcDbSpline
210
0.0
220
0.0
230
1.0
 70
     1
 71
     3
 72
    12
 73
     8
 74
     0
 42
0.0000000001
 43
0.0000000001
 40
0.0
 40
0.0
 40
0.0
 40
0.0
 40
0.5
 40
0.5
 40
0.5
 40
0.5
 40
1.0
 40
1.0
 40
1.0
 40
1.0
 10
1.4936600000000002
 20
-3.9578800000000003
 30
0.0
 10
1.69432
 20
-3.9553400000000005
 30
0.0
 10
1.7019400000000002
 20
-4.1763200000000005
 30
0.0
 10
1.5851000000000002
 20
-4.3007800000000005
 30
0.0
 10
1.5851000000000002
 20
-4.3007800000000005
 30
0.0
 10
1.35904
 20
-4.3693600000000004
 30
0.0
 10
1.4377800000000001
 20
-4.0696400000000006
 30
0.0
 10
1.4936600000000002
 20
-3.9578800000000003
 30
0.0
  0
SPLINE
  5
5A
100
AcDbEntity
  8
Ebene 1
 62
     7
100
AcDbSpline
210
0.0
220
0.0
230
1.0
 70
     1
 71
     3
 72
    32
 73
    28
 74
     0
 42
0.0000000001
 43
0.0000000001
 40
0.0
 40
0.0
 40
0.0
 40
0.0
 40
0.1428571428571429
 40
0.1428571428571429
 40
0.1428571428571429
 40
0.1428571428571429
 40
0.2857142857142857
 40
0.2857142857142857
 40
0.2857142857142857
 40
0.2857142857142857
 40
0.4285714285714286
 40
0.4285714285714286
 40
0.4285714285714286
 40
0.4285714285714286
 40
0.5714285714285714
 40
0.5714285714285714
 40
0.5714285714285714
 40
0.5714285714285714
 40
0.7142857142857142
 40
0.7142857142857142
 40
0.7142857142857142
 40
0.7142857142857142
 40
0.857142857142857
 40
0.857142857142857
 40
0.857142857142857
 40
0.857142857142857
 40
1.0
 40
1.0
 40
1.0
 40
1.0
 10
1.8619600000000001
 20
-3.8816800000000002
 30
0.0
 10
2.00928
 20
-3.9096200000000003
 30
0.0
 10
1.7984600000000002
 20
-4.05694
 30
0.0
 10
1.8619600000000001
 20
-4.1636200000000008
 30
0.0
 10
1.8619600000000001
 20
-4.1636200000000008
 30
0.0
 10
1.9889600000000001
 20
-4.1966400000000004
 30
0.0
 10
1.9153000000000002
 20
-3.9502600000000001
 30
0.0
 10
2.0245200000000003
 20
-3.8867600000000002
 30
0.0
 10
2.0245200000000003
 20
-3.8867600000000002
 30
0.0
 10
2.1007200000000004
 20
-3.8715200000000003
 30
0.0
 10
2.17692
 20
-3.7546800000000005
 30
0.0
 10
2.2556600000000002
 20
-3.8385000000000002
 30
0.0
 10
2.2556600000000002
 20
-3.8385000000000002
 30
0.0
 10
2.2556600000000002
 20
-3.8385000000000002
 30
0.0
 10
2.2023200000000003
 20
-4.1509200000000002
 30
0.0
 10
2.2023200000000003
 20
-4.1509200000000002
 30
0.0
 10
2.2023200000000003
 20
-4.1509200000000002
 30
0.0
 10
2.0321400000000001
 20
-4.2068000000000003
 30
0.0
 10
1.8848200000000002
 20
-4.2779199999999999
 30
0.0
 10
1.7044800000000002
 20
-4.2753800000000002
 30
0.0
 10
1.7044800000000002
 20
-4.2753800000000002
 30
0.0
 10
1.7044800000000002
 20
-4.2753800000000002
 30
0.0
 10
1.7324200000000001
 20
-4.1280600000000005
 30
0.0
 10
1.7324200000000001
 20
-4.1280600000000005
 30
0.0
 10
1.7324200000000001
 20
-4.1280600000000005
 30
0.0
 10
1.6841600000000001
 20
-3.9985200000000005
 30
0.0
 10
1.7730600000000001
 20
-3.9401000000000002
 30
0.0
 10
1.8619600000000001
 20
-3.8816800000000002
 30
0.0
  0
ENDSEC
  0
SECTION
  2
OBJECTS
  0
DICTIONARY
  5
19
100
AcDbDictionary
280
     0
281
     1
  3
ACAD_GROUP
350
1A
  3
ACAD_MLINESTYLE
350
1B
  3
ACAD_LAYOUT
350
1E
  3
ACAD_PLOTSETTINGS
350
22
  3
ACAD_PLOTSTYLENAME
350
1F
  3
ACAD_WIPEOUT_VARS
350
23
  0
DICTIONARY
  5
1A
102
{ACAD_REACTORS
330
19
102
}
100
AcDbDictionary
280
     0
281
     1
  0
DICTIONARY
  5
1B
102
{ACAD_REACTORS
330
19
102
}
100
AcDbDictionary
280
     0
281
     1
  3
Standard
350
1C
  0
MLINESTYLE
  5
1C
102
{ACAD_REACTORS
330
1B
102
}
100
AcDbMlineStyle
  2
Standard
 70
     0
  3

 62
     0
 51
90.0
 52
90.0
 71
     2
 49
0.5
 62
   256
  6
BYLAYER
 49
-0.5
 62
   256
  6
BYLAYER
  0
ACDBDICTIONARYWDFLT
  5
1F
102
{ACAD_REACTORS
330
19
102
}
100
AcDbDictionary
281
     1
  3
Normal
350
1D
100
AcDbDictionaryWithDefault
340
1D
  0
ACDBPLACEHOLDER
  5
1D
102
{ACAD_REACTORS
330
1F
102
}
  0
LAYOUT
  5
20
102
{ACAD_REACTORS
330
1E
102
}
100
AcDbPlotSettings
  1

  2

  4

  6

 40
0.0
 41
0.0
 42
0.0
 43
0.0
 44
0.0
 45
0.0
 46
0.0
 47
0.0
 48
0.0
 49
0.0
140
0.0
141
0.0
142
1.0
143
1.0
 70
  1024
 72
     0
 73
     0
 74
     0
  7

 75
     0
147
1.0
148
0.0
149
0.0
100
AcDbLayout
  1
Model
 70
     0
 71
     0
 10
0.0
 20
0.0
 11
0.0
 21
0.0
 12
0.0
 22
0.0
 32
0.0
 14
0.0
 24
0.0
 34
0.0
 15
0.0
 25
0.0
 35
0.0
146
0.0
 13
0.0
 23
0.0
 33
0.0
 16
0.0
 26
0.0
 36
0.0
 17
0.0
 27
0.0
 37
0.0
 76
     0
330
A
331
0
345
0
346
0
  0
LAYOUT
  5
21
102
{ACAD_REACTORS
330
1E
102
}
100
AcDbPlotSettings
  1

  2

  4

  6

 40
0.0
 41
0.0
 42
0.0
 43
0.0
 44
0.0
 45
0.0
 46
0.0
 47
0.0
 48
0.0
 49
0.0
140
0.0
141
0.0
142
1.0
143
1.0
 70
     0
 72
     0
 73
     0
 74
     0
  7

 75
     0
147
1.0
148
0.0
149
0.0
100
AcDbLayout
  1
Layout1
 70
     0
 71
     0
 10
0.0
 20
0.0
 11
0.0
 21
0.0
 12
0.0
 22
0.0
 32
0.0
 14
0.0
 24
0.0
 34
0.0
 15
0.0
 25
0.0
 35
0.0
146
0.0
 13
0.0
 23
0.0
 33
0.0
 16
0.0
 26
0.0
 36
0.0
 17
0.0
 27
0.0
 37
0.0
 76
     0
330
B
331
0
345
0
346
0
  0
DICTIONARY
  5
1E
102
{ACAD_REACTORS
330
19
102
}
100
AcDbDictionary
280
     0
281
     1
  3
Layout1
350
21
  3
Model
350
20
  0
DICTIONARY
  5
22
102
{ACAD_REACTORS
330
19
102
}
100
AcDbDictionary
280
     0
281
     1
  0
WIPEOUTVARIABLES
  5
23
100
AcDbWipeoutVariables
 70
     1
  0
ENDSEC
  0
EOF
