  0
SECTION
  2
HEADER
  9
$ACADVER
  1
AC1015
  9
$ACADMAINTVER
 70
     6
  9
$DWGCODEPAGE
  3
DOS850
  9
$INSBASE
 10
0.0
 20
0.0
 30
0.0
  9
$EXTMIN
 10
-4.02989
 20
-6.69092
 30
1.000000E+20
  9
$EXTMAX
 10
4.03556
 20
6.68473
 30
-1.000000E+20
  9
$LIMMIN
 10
0.0
 20
0.0
  9
$LIMMAX
 10
0.0
 20
0.0
  9
$ORTHOMODE
 70
     0
  9
$REGENMODE
 70
     1
  9
$FILLMODE
 70
     1
  9
$QTEXTMODE
 70
     0
  9
$MIRRTEXT
 70
     1
  9
$LTSCALE
 40
1.0
  9
$ATTMODE
 70
     1
  9
$TEXTSIZE
 40
0.2
  9
$TRACEWID
 40
0.05
  9
$TEXTSTYLE
  7
Standard
  9
$CLAYER
  8
0
  9
$CELTYPE
  6
Continuous
  9
$CECOLOR
 62
   256
  9
$CELTSCALE
 40
1.0
  9
$DISPSILH
 70
     0
  9
$DIMSCALE
 40
1.0
  9
$DIMASZ
 40
0.18
  9
$DIMEXO
 40
0.0625
  9
$DIMDLI
 40
0.38
  9
$DIMRND
 40
0.0
  9
$DIMDLE
 40
0.0
  9
$DIMEXE
 40
0.18
  9
$DIMTP
 40
0.0
  9
$DIMTM
 40
0.0
  9
$DIMTXT
 40
0.18
  9
$DIMCEN
 40
0.09
  9
$DIMTSZ
 40
0.0
  9
$DIMTOL
 70
     0
  9
$DIMLIM
 70
     0
  9
$DIMTIH
 70
     1
  9
$DIMTOH
 70
     1
  9
$DIMSE1
 70
     0
  9
$DIMSE2
 70
     0
  9
$DIMTAD
 70
     0
  9
$DIMZIN
 70
     0
  9
$DIMBLK
  1

  9
$DIMASO
 70
     1
  9
$DIMSHO
 70
     1
  9
$DIMPOST
  1

  9
$DIMAPOST
  1

  9
$DIMALT
 70
     0
  9
$DIMALTD
 70
     2
  9
$DIMALTF
 40
25.4
  9
$DIMLFAC
 40
1.0
  9
$DIMTOFL
 70
     0
  9
$DIMTVP
 40
0.0
  9
$DIMTIX
 70
     0
  9
$DIMSOXD
 70
     0
  9
$DIMSAH
 70
     0
  9
$DIMBLK1
  1

  9
$DIMBLK2
  1

  9
$DIMSTYLE
  2
Standard
  9
$DIMCLRD
 70
     0
  9
$DIMCLRE
 70
     0
  9
$DIMCLRT
 70
     0
  9
$DIMTFAC
 40
1.0
  9
$DIMGAP
 40
0.09
  9
$DIMJUST
 70
     0
  9
$DIMSD1
 70
     0
  9
$DIMSD2
 70
     0
  9
$DIMTOLJ
 70
     1
  9
$DIMTZIN
 70
     0
  9
$DIMALTZ
 70
     0
  9
$DIMALTTZ
 70
     0
  9
$DIMUPT
 70
     0
  9
$DIMDEC
 70
     4
  9
$DIMTDEC
 70
     4
  9
$DIMALTU
 70
     2
  9
$DIMALTTD
 70
     2
  9
$DIMTXSTY
  7
Standard
  9
$DIMAUNIT
 70
     0
  9
$DIMADEC
 70
     0
  9
$DIMALTRND
 40
0.0
  9
$DIMAZIN
 70
     0
  9
$DIMDSEP
 70
     0
  9
$DIMATFIT
 70
     3
  9
$DIMFRAC
 70
     0
  9
$DIMLDRBLK
  1

  9
$DIMLUNIT
 70
     2
  9
$DIMLWD
 70
     0
  9
$DIMLWE
 70
     0
  9
$DIMTMOVE
 70
     0
  9
$LUNITS
 70
     2
  9
$LUPREC
 70
     4
  9
$SKETCHINC
 40
0.1
  9
$FILLETRAD
 40
0.0
  9
$AUNITS
 70
     0
  9
$AUPREC
 70
     0
  9
$MENU
  1
acad
  9
$ELEVATION
 40
0.0
  9
$PELEVATION
 40
0.0
  9
$THICKNESS
 40
0.0
  9
$LIMCHECK
 70
     0
  9
$CHAMFERA
 40
0.0
  9
$CHAMFERB
 40
0.0
  9
$CHAMFERC
 40
0.0
  9
$CHAMFERD
 40
0.0
  9
$SKPOLY
 70
     0
  9
$TDCREATE
 40
0.000000000
  9
$TDUCREATE
 40
0.000000000
  9
$TDUPDATE
 40
0.000000000
  9
$TDUUPDATE
 40
0.000000000
  9
$TDINDWG
 40
0.0000000000
  9
$TDUSRTIMER
 40
0.0000000000
  9
$USRTIMER
 70
     1
  9
$ANGBASE
 50
0.0
  9
$ANGDIR
 70
     0
  9
$PDMODE
 70
     0
  9
$PDSIZE
 40
0.0
  9
$PLINEWID
 40
0.0
  9
$SPLFRAME
 70
     0
  9
$SPLINETYPE
 70
     6
  9
$SPLINESEGS
 70
     8
  9
$HANDSEED
  5
9A
  9
$SURFTAB1
 70
     6
  9
$SURFTAB2
 70
     6
  9
$SURFTYPE
 70
     6
  9
$SURFU
 70
     6
  9
$SURFV
 70
     6
  9
$UCSBASE
  2

  9
$UCSNAME
  2

  9
$UCSORG
 10
0.0
 20
0.0
 30
0.0
  9
$UCSXDIR
 10
1.0
 20
0.0
 30
0.0
  9
$UCSYDIR
 10
0.0
 20
1.0
 30
0.0
  9
$UCSORTHOREF
  2

  9
$UCSORTHOVIEW
 70
     0
  9
$UCSORGTOP
 10
0.0
 20
0.0
 30
0.0
  9
$UCSORGBOTTOM
 10
0.0
 20
0.0
 30
0.0
  9
$UCSORGLEFT
 10
0.0
 20
0.0
 30
0.0
  9
$UCSORGRIGHT
 10
0.0
 20
0.0
 30
0.0
  9
$UCSORGFRONT
 10
0.0
 20
0.0
 30
0.0
  9
$UCSORGBACK
 10
0.0
 20
0.0
 30
0.0
  9
$PUCSBASE
  2

  9
$PUCSNAME
  2

  9
$PUCSORG
 10
0.0
 20
0.0
 30
0.0
  9
$PUCSXDIR
 10
1.0
 20
0.0
 30
0.0
  9
$PUCSYDIR
 10
0.0
 20
1.0
 30
0.0
  9
$PUCSORTHOREF
  2

  9
$PUCSORTHOVIEW
 70
     0
  9
$PUCSORGTOP
 10
0.0
 20
0.0
 30
0.0
  9
$PUCSORGBOTTOM
 10
0.0
 20
0.0
 30
0.0
  9
$PUCSORGLEFT
 10
0.0
 20
0.0
 30
0.0
  9
$PUCSORGRIGHT
 10
0.0
 20
0.0
 30
0.0
  9
$PUCSORGFRONT
 10
0.0
 20
0.0
 30
0.0
  9
$PUCSORGBACK
 10
0.0
 20
0.0
 30
0.0
  9
$USERI1
 70
     0
  9
$USERI2
 70
     0
  9
$USERI3
 70
     0
  9
$USERI4
 70
     0
  9
$USERI5
 70
     0
  9
$USERR1
 40
0.0
  9
$USERR2
 40
0.0
  9
$USERR3
 40
0.0
  9
$USERR4
 40
0.0
  9
$USERR5
 40
0.0
  9
$WORLDVIEW
 70
     1
  9
$SHADEDGE
 70
     3
  9
$SHADEDIF
 70
    70
  9
$TILEMODE
 70
     1
  9
$MAXACTVP
 70
    16
  9
$PINSBASE
 10
0.0
 20
0.0
 30
0.0
  9
$PLIMCHECK
 70
     0
  9
$PEXTMIN
 10
1.000000E+20
 20
1.000000E+20
 30
1.000000E+20
  9
$PEXTMAX
 10
-1.000000E+20
 20
-1.000000E+20
 30
-1.000000E+20
  9
$PLIMMIN
 10
0.0
 20
0.0
  9
$PLIMMAX
 10
12.0
 20
9.0
  9
$UNITMODE
 70
     0
  9
$VISRETAIN
 70
     0
  9
$PLINEGEN
 70
     1
  9
$PSLTSCALE
 70
     0
  9
$TREEDEPTH
 70
  3020
  9
$CMLSTYLE
  2
Standard
  9
$CMLJUST
 70
     0
  9
$CMLSCALE
 40
1.0
  9
$PROXYGRAPHICS
 70
     0
  9
$MEASUREMENT
 70
     0
  9
$CELWEIGHT
370
     0
  9
$ENDCAPS
280
     0
  9
$JOINSTYLE
280
     0
  9
$LWDISPLAY
290
     0
  9
$INSUNITS
 70
     5
  9
$HYPERLINKBASE
  1

  9
$XEDIT
290
     1
  9
$CEPSNTYPE
380
     0
  9
$PSTYLEMODE
290
     1
  9
$FINGERPRINTGUID
  2

  9
$VERSIONGUID
  2

  9
$EXTNAMES
290
     1
  9
$PSVPSCALE
 40
0.0
  0
ENDSEC
  0
SECTION
  2
CLASSES
  0
CLASS
  1
LWPOLYLINE
  2
AcDbPolyline
  3
AutoCAD 2000
 90
    32768
280
     0
281
     1
  0
CLASS
  1
IMAGE
  2
AcDbRasterImage
  3
ISM
 90
    32895
280
     0
281
     1
  0
CLASS
  1
OLE2FRAME
  2
AcDbOle2Frame
  3
AutoCAD 2000
 90
    32768
280
     0
281
     1
  0
CLASS
  1
HATCH
  2
AcDbHatch
  3
AutoCAD 2000
 90
    32768
280
     0
281
     1
  0
CLASS
  1
DICTIONARYVAR
  2
AcDbDictionaryVar
  3
AutoCAD 2000
 90
    32768
280
     0
281
     0
  0
CLASS
  1
RASTERVARIABLES
  2
AcDbRasterVariables
  3
ISM
 90
    32768
280
     0
281
     0
  0
CLASS
  1
IMAGEDEF
  2
AcDbRasterImageDef
  3
ISM
 90
    32768
280
     0
281
     0
  0
CLASS
  1
IMAGEDEF_REACTOR
  2
AcDbRasterImageDefReactor
  3
ISM
 90
    32769
280
     0
281
     0
  0
CLASS
  1
IDBUFFER
  2
AcDbIdBuffer
  3
AutoCAD 2000
 90
    32768
280
     0
281
     0
  0
CLASS
  1
SPATIAL_FILTER
  2
AcDbSpatialFilter
  3
AutoCAD 2000
 90
    32768
280
     0
281
     0
  0
CLASS
  1
XRECORD
  2
AcDbXrecord
  3
AutoCAD 2000
 90
    32768
280
     0
281
     0
  0
CLASS
  1
SORTENTSTABLE
  2
AcDbSortentsTable
  3
AutoCAD 2000
 90
    32768
280
     0
281
     0
  0
CLASS
  1
LAYER_INDEX
  2
AcDbLayerIndex
  3
AutoCAD 2000
 90
    32768
280
     0
281
     0
  0
CLASS
  1
SPATIAL_INDEX
  2
AcDbSpatialIndex
  3
AutoCAD 2000
 90
    32768
280
     0
281
     0
  0
CLASS
  1
OBJECT_PTR
  2
CAseDLPNTableRecord
  3
"ASE-LPNTableRecord"
 90
    32769
280
     0
281
     0
  0
CLASS
  1
LAYOUT
  2
AcDbLayout
  3
AutoCAD 2000
 90
        0
280
     0
281
     0
  0
CLASS
  1
PLOTSETTINGS
  2
AcDbPlotSettings
  3
AutoCAD 2000
 90
    32768
280
     0
281
     0
  0
CLASS
  1
ACDBDICTIONARYWDFLT
  2
AcDbDictionaryWithDefault
  3
AutoCAD 2000
 90
        0
280
     0
281
     0
  0
CLASS
  1
ACDBPLACEHOLDER
  2
AcDbPlaceHolder
  3
AutoCAD 2000
 90
        0
280
     0
281
     0
  0
CLASS
  1
VBA_PROJECT
  2
AcDbVbaProject
  3
acadvba
 90
    32768
280
     0
281
     0
  0
CLASS
  1
WIPEOUT
  2
AcDbWipeout
  3
WipeOut|AutoCAD Express Tool|expresstools@autodesk.com
 90
    32895
280
     0
281
     1
  0
CLASS
  1
WIPEOUTVARIABLES
  2
AcDbWipeoutVariables
  3
WipeOut|AutoCAD Express Tool|expresstools@autodesk.com
 90
        0
280
     0
281
     0
  0
CLASS
  1
RTEXT
  2
RText
  3
RText|AutoCAD Express Tool|expresstools@autodesk.com
 90
    32768
280
     0
281
     1
  0
CLASS
  1
ARCALIGNEDTEXT
  2
AcDbArcAlignedText
  3
ATEXT|AutoCAD Express Tool|expresstools@autodesk.com
 90
    32768
280
     0
281
     1
  0
ENDSEC
  0
SECTION
  2
TABLES
  0
TABLE
  2
VPORT
  5
7
100
AcDbSymbolTable
 70
     1
  0
VPORT
  5
15
100
AcDbSymbolTableRecord
100
AcDbViewportTableRecord
  2
*ACTIVE
 70
     0
 10
0.0
 20
0.0
 11
1.0
 21
1.0
 12
6.591288
 22
4.579184
 13
0.0
 23
0.0
 14
1.0
 24
1.0
 15
0.0
 25
0.0
 16
0.0
 26
0.0
 36
1.0
 17
0.0
 27
0.0
 37
0.0
 40
9.158369
 41
0.688564
 42
50.0
 43
0.0
 44
0.0
 50
0.0
 51
0.0
 71
     0
 72
   100
 73
     1
 74
     1
 75
     0
 76
     0
 77
     0
 78
     0
281
     0
 65
     0
110
0.0
120
0.0
130
0.0
111
1.0
121
0.0
131
0.0
112
0.0
122
1.0
132
0.0
345
0
346
0
 79
     0
146
0.0
  0
ENDTAB
  0
TABLE
  2
LTYPE
  5
4
100
AcDbSymbolTable
 70
     3
  0
LTYPE
  5
11
100
AcDbSymbolTableRecord
100
AcDbLinetypeTableRecord
  2
ByBlock
 70
    64
  3

 72
    65
 73
     0
 40
0.0
  0
LTYPE
  5
12
100
AcDbSymbolTableRecord
100
AcDbLinetypeTableRecord
  2
ByLayer
 70
    64
  3

 72
    65
 73
     0
 40
0.0
  0
LTYPE
  5
13
100
AcDbSymbolTableRecord
100
AcDbLinetypeTableRecord
  2
Continuous
 70
    64
  3
Solid line
 72
    65
 73
     0
 40
0.0
  0
ENDTAB
  0
TABLE
  2
LAYER
  5
2
100
AcDbSymbolTable
 70
     2
  0
LAYER
  5
14
100
AcDbSymbolTableRecord
100
AcDbLayerTableRecord
  2
0
 70
     0
 62
     7
  6
Continuous
290
     1
370
    -3
390
1D
  0
LAYER
  5
24
100
AcDbSymbolTableRecord
100
AcDbLayerTableRecord
  2
Ebene 1
 70
     0
 62
     7
  6
Continuous
290
     1
370
    -3
390
1F
  0
ENDTAB
  0
TABLE
  2
STYLE
  5
3
100
AcDbSymbolTable
 70
     1
  0
STYLE
  5
17
100
AcDbSymbolTableRecord
100
AcDbTextStyleTableRecord
  2
Standard
 70
     0
 40
0.0
 41
1.0
 50
0.0
 71
     0
 42
0.0
  3
txt
  4

  0
ENDTAB
  0
TABLE
  2
VIEW
  5
5
100
AcDbSymbolTable
 70
     0
  0
ENDTAB
  0
TABLE
  2
UCS
  5
6
100
AcDbSymbolTable
 70
     0
  0
ENDTAB
  0
TABLE
  2
APPID
  5
8
100
AcDbSymbolTable
 70
     1
  0
APPID
  5
16
100
AcDbSymbolTableRecord
100
AcDbRegAppTableRecord
  2
ACAD
 70
     0
  0
ENDTAB
  0
TABLE
  2
DIMSTYLE
  5
9
100
AcDbSymbolTable
 70
     1
100
AcDbDimStyleTable
 71
     0
  0
DIMSTYLE
105
18
100
AcDbSymbolTableRecord
100
AcDbDimStyleTableRecord
  2
Standard
 70
     0
  3

  4

 40
1.0
 41
0.18
 42
0.0625
 43
0.38
 44
0.18
 45
0.0
 46
0.0
 47
0.0
 48
0.0
 71
     0
 72
     0
 73
     1
 74
     1
 75
     0
 76
     0
 77
     0
 78
     0
 79
     0
140
0.18
141
0.09
142
0.0
143
25.4
144
1.0
145
0.0
146
1.0
147
0.09
148
0.0
170
     0
171
     2
172
     0
173
     0
174
     0
175
     0
176
     0
177
     0
178
     0
179
     0
271
     4
272
     4
273
     2
274
     2
275
     0
276
     0
277
     2
278
    46
279
     0
280
     0
281
     0
282
     0
283
     1
284
     0
285
     0
286
     0
288
     0
340
17
341
0
342
0
343
0
344
0
371
    -2
372
    -2
  0
ENDTAB
  0
TABLE
  2
BLOCK_RECORD
  5
1
100
AcDbSymbolTable
 70
     0
  0
BLOCK_RECORD
  5
A
100
AcDbSymbolTableRecord
100
AcDbBlockTableRecord
  2
*MODEL_SPACE
340
20
  0
BLOCK_RECORD
  5
B
100
AcDbSymbolTableRecord
100
AcDbBlockTableRecord
  2
*PAPER_SPACE
340
21
  0
ENDTAB
  0
ENDSEC
  0
SECTION
  2
BLOCKS
  0
BLOCK
  5
D
100
AcDbEntity
  8
0
100
AcDbBlockBegin
  2
*MODEL_SPACE
 70
     0
 10
0.0
 20
0.0
 30
0.0
  3
*MODEL_SPACE
  1

  0
ENDBLK
  5
E
100
AcDbEntity
  8
0
100
AcDbBlockEnd
  0
BLOCK
  5
F
100
AcDbEntity
 67
     1
  8
0
100
AcDbBlockBegin
  2
*PAPER_SPACE
 70
     0
 10
0.0
 20
0.0
 30
0.0
  3
*PAPER_SPACE
  1

  0
ENDBLK
  5
10
100
AcDbEntity
 67
     1
  8
0
100
AcDbBlockEnd
  0
ENDSEC
  0
SECTION
  2
ENTITIES
  0
SPLINE
  5
25
100
AcDbEntity
  8
Ebene 1
100
AcDbSpline
210
0.0
220
0.0
230
1.0
 70
     1
 71
     3
 72
    88
 73
    84
 74
     0
 42
0.0000000001
 43
0.0000000001
 40
0.0
 40
0.0
 40
0.0
 40
0.0
 40
0.0476190476190476
 40
0.0476190476190476
 40
0.0476190476190476
 40
0.0476190476190476
 40
0.0952380952380952
 40
0.0952380952380952
 40
0.0952380952380952
 40
0.0952380952380952
 40
0.1428571428571429
 40
0.1428571428571429
 40
0.1428571428571429
 40
0.1428571428571429
 40
0.1904761904761905
 40
0.1904761904761905
 40
0.1904761904761905
 40
0.1904761904761905
 40
0.2380952380952381
 40
0.2380952380952381
 40
0.2380952380952381
 40
0.2380952380952381
 40
0.2857142857142857
 40
0.2857142857142857
 40
0.2857142857142857
 40
0.2857142857142857
 40
0.3333333333333333
 40
0.3333333333333333
 40
0.3333333333333333
 40
0.3333333333333333
 40
0.3809523809523809
 40
0.3809523809523809
 40
0.3809523809523809
 40
0.3809523809523809
 40
0.4285714285714286
 40
0.4285714285714286
 40
0.4285714285714286
 40
0.4285714285714286
 40
0.4761904761904762
 40
0.4761904761904762
 40
0.4761904761904762
 40
0.4761904761904762
 40
0.5238095238095237
 40
0.5238095238095237
 40
0.5238095238095237
 40
0.5238095238095237
 40
0.5714285714285714
 40
0.5714285714285714
 40
0.5714285714285714
 40
0.5714285714285714
 40
0.6190476190476191
 40
0.6190476190476191
 40
0.6190476190476191
 40
0.6190476190476191
 40
0.6666666666666667
 40
0.6666666666666667
 40
0.6666666666666667
 40
0.6666666666666667
 40
0.7142857142857144
 40
0.7142857142857144
 40
0.7142857142857144
 40
0.7142857142857144
 40
0.7619047619047621
 40
0.7619047619047621
 40
0.7619047619047621
 40
0.7619047619047621
 40
0.8095238095238098
 40
0.8095238095238098
 40
0.8095238095238098
 40
0.8095238095238098
 40
0.8571428571428574
 40
0.8571428571428574
 40
0.8571428571428574
 40
0.8571428571428574
 40
0.9047619047619051
 40
0.9047619047619051
 40
0.9047619047619051
 40
0.9047619047619051
 40
0.9523809523809528
 40
0.9523809523809528
 40
0.9523809523809528
 40
0.9523809523809528
 40
1.0
 40
1.0
 40
1.0
 40
1.0
 10
-0.14463
 20
6.6770900000000006
 30
0.0
 10
0.1754
 20
6.7329700000000008
 30
0.0
 10
0.35066
 20
6.4637300000000009
 30
0.0
 10
0.658
 20
6.4764300000000006
 30
0.0
 10
0.658
 20
6.4764300000000006
 30
0.0
 10
0.8993000000000001
 20
6.6110500000000005
 30
0.0
 10
1.23458
 20
6.6643900000000009
 30
0.0
 10
1.4758800000000001
 20
6.4637300000000009
 30
0.0
 10
1.4758800000000001
 20
6.4637300000000009
 30
0.0
 10
3.3123000000000005
 20
6.6770900000000006
 30
0.0
 10
3.3910400000000003
 20
4.34537
 30
0.0
 10
3.9015800000000005
 20
3.1668100000000003
 30
0.0
 10
3.9015800000000005
 20
3.1668100000000003
 30
0.0
 10
3.9015800000000005
 20
2.9534500000000001
 30
0.0
 10
3.6983800000000002
 20
2.8416900000000003
 30
0.0
 10
3.6602800000000002
 20
2.6715100000000001
 30
0.0
 10
3.6602800000000002
 20
2.6715100000000001
 30
0.0
 10
3.9803200000000003
 20
2.3667100000000003
 30
0.0
 10
3.9549200000000004
 20
1.7545700000000002
 30
0.0
 10
3.9015800000000005
 20
1.35833
 30
0.0
 10
3.9015800000000005
 20
1.35833
 30
0.0
 10
4.1809799999999999
 20
0.9062100000000001
 30
0.0
 10
3.9676200000000001
 20
0.33979
 30
0.0
 10
3.7669600000000001
 20
-0.09962
 30
0.0
 10
3.7669600000000001
 20
-0.09962
 30
0.0
 10
3.8863400000000001
 20
-0.22408
 30
0.0
 10
3.9676200000000001
 20
-0.3587
 30
0.0
 10
3.9396800000000005
 20
-0.5365000000000001
 30
0.0
 10
3.9396800000000005
 20
-0.5365000000000001
 30
0.0
 10
3.5663000000000005
 20
-0.7041400000000001
 30
0.0
 10
3.3123000000000005
 20
-1.07752
 30
0.0
 10
2.9211400000000003
 20
-1.2781800000000001
 30
0.0
 10
2.9211400000000003
 20
-1.2781800000000001
 30
0.0
 10
2.9363800000000002
 20
-2.2891000000000004
 30
0.0
 10
3.1091000000000002
 20
-3.3228800000000001
 30
0.0
 10
3.5790000000000002
 20
-4.1991800000000001
 30
0.0
 10
3.5790000000000002
 20
-4.1991800000000001
 30
0.0
 10
3.0430600000000001
 20
-5.0551600000000008
 30
0.0
 10
2.50712
 20
-5.7231800000000002
 30
0.0
 10
1.7705200000000001
 20
-6.3785000000000007
 30
0.0
 10
1.7705200000000001
 20
-6.3785000000000007
 30
0.0
 10
1.1279000000000001
 20
-6.2083200000000005
 30
0.0
 10
0.5894200000000001
 20
-6.4470800000000006
 30
0.0
 10
0.05602
 20
-6.6909200000000002
 30
0.0
 10
0.05602
 20
-6.6909200000000002
 30
0.0
 10
-0.33005
 20
-6.1321200000000005
 30
0.0
 10
-1.04125
 20
-5.8197000000000001
 30
0.0
 10
-1.4705100000000002
 20
-5.2532800000000002
 30
0.0
 10
-1.4705100000000002
 20
-5.2532800000000002
 30
0.0
 10
-1.6838700000000002
 20
-4.4938200000000004
 30
0.0
 10
-1.58989
 20
-3.6378400000000002
 30
0.0
 10
-1.8718300000000001
 20
-2.90124
 30
0.0
 10
-1.8718300000000001
 20
-2.90124
 30
0.0
 10
-2.0191500000000002
 20
-2.31196
 30
0.0
 10
-2.4204700000000003
 20
-2.3703800000000004
 30
0.0
 10
-2.8903700000000003
 20
-2.2535400000000001
 30
0.0
 10
-2.8903700000000003
 20
-2.2535400000000001
 30
0.0
 10
-2.9310100000000001
 20
-1.6515600000000001
 30
0.0
 10
-2.7303500000000001
 20
-1.2197600000000002
 30
0.0
 10
-2.8776700000000002
 20
-0.6889000000000001
 30
0.0
 10
-2.8776700000000002
 20
-0.6889000000000001
 30
0.0
 10
-3.0376900000000004
 20
-0.18852
 30
0.0
 10
-3.8835100000000002
 20
-0.00056
 30
0.0
 10
-3.5101300000000002
 20
0.6445900000000001
 30
0.0
 10
-3.5101300000000002
 20
0.6445900000000001
 30
0.0
 10
-3.9546300000000003
 20
0.7360300000000001
 30
0.0
 10
-3.9876500000000004
 20
1.2059300000000002
 30
0.0
 10
-3.8962100000000004
 20
1.57423
 30
0.0
 10
-3.8962100000000004
 20
1.57423
 30
0.0
 10
-4.1552899999999999
 20
1.9222100000000002
 30
0.0
 10
-3.9901900000000001
 20
2.2905100000000003
 30
0.0
 10
-3.8022300000000002
 20
2.4429100000000004
 30
0.0
 10
-3.8022300000000002
 20
2.4429100000000004
 30
0.0
 10
-4.0790900000000008
 20
2.9915500000000002
 30
0.0
 10
-3.8555700000000002
 20
3.4030300000000002
 30
0.0
 10
-3.6015700000000002
 20
4.03803
 30
0.0
 10
-3.6015700000000002
 20
4.03803
 30
0.0
 10
-3.5660100000000003
 20
4.9829100000000004
 30
0.0
 10
-2.7557500000000004
 20
5.6458500000000003
 30
0.0
 10
-1.9404100000000002
 20
5.8617500000000007
 30
0.0
 10
-1.9404100000000002
 20
5.8617500000000007
 30
0.0
 10
-1.5365500000000001
 20
6.5450100000000004
 30
0.0
 10
-0.75931
 20
6.5577100000000002
 30
0.0
 10
-0.14463
 20
6.6770900000000006
 30
0.0
  0
SPLINE
  5
26
100
AcDbEntity
  8
Ebene 1
 62
     7
100
AcDbSpline
210
0.0
220
0.0
230
1.0
 70
     1
 71
     3
 72
    40
 73
    36
 74
     0
 42
0.0000000001
 43
0.0000000001
 40
0.0
 40
0.0
 40
0.0
 40
0.0
 40
0.1111111111111111
 40
0.1111111111111111
 40
0.1111111111111111
 40
0.1111111111111111
 40
0.2222222222222222
 40
0.2222222222222222
 40
0.2222222222222222
 40
0.2222222222222222
 40
0.3333333333333333
 40
0.3333333333333333
 40
0.3333333333333333
 40
0.3333333333333333
 40
0.4444444444444444
 40
0.4444444444444444
 40
0.4444444444444444
 40
0.4444444444444444
 40
0.5555555555555556
 40
0.5555555555555556
 40
0.5555555555555556
 40
0.5555555555555556
 40
0.6666666666666667
 40
0.6666666666666667
 40
0.6666666666666667
 40
0.6666666666666667
 40
0.7777777777777779
 40
0.7777777777777779
 40
0.7777777777777779
 40
0.7777777777777779
 40
0.8888888888888891
 40
0.8888888888888891
 40
0.8888888888888891
 40
0.8888888888888891
 40
1.0
 40
1.0
 40
1.0
 40
1.0
 10
-0.31735
 20
6.3976900000000008
 30
0.0
 10
-0.5180100000000001
 20
6.0090700000000004
 30
0.0
 10
-0.63993
 20
5.5264700000000007
 30
0.0
 10
-0.5459500000000001
 20
5.0311700000000004
 30
0.0
 10
-0.5459500000000001
 20
5.0311700000000004
 30
0.0
 10
-0.65263
 20
5.0591100000000004
 30
0.0
 10
-0.5992900000000001
 20
4.9244900000000005
 30
0.0
 10
-0.61199
 20
4.8686100000000003
 30
0.0
 10
-0.61199
 20
4.8686100000000003
 30
0.0
 10
-0.61199
 20
4.8686100000000003
 30
0.0
 10
-0.7339100000000001
 20
5.17849
 30
0.0
 10
-0.7339100000000001
 20
5.17849
 30
0.0
 10
-0.7339100000000001
 20
5.17849
 30
0.0
 10
-0.7466100000000001
 20
5.1073700000000004
 30
0.0
 10
-0.71867
 20
5.0006900000000005
 30
0.0
 10
-0.6932700000000001
 20
4.9244900000000005
 30
0.0
 10
-0.6932700000000001
 20
4.9244900000000005
 30
0.0
 10
-0.65263
 20
4.7797100000000006
 30
0.0
 10
-0.5992900000000001
 20
4.5790500000000005
 30
0.0
 10
-0.61199
 20
4.4266500000000004
 30
0.0
 10
-0.61199
 20
4.4266500000000004
 30
0.0
 10
-0.7466100000000001
 20
4.7441500000000003
 30
0.0
 10
-0.7999500000000001
 20
5.1327700000000007
 30
0.0
 10
-0.9599700000000001
 20
5.4324900000000005
 30
0.0
 10
-0.9599700000000001
 20
5.4324900000000005
 30
0.0
 10
-0.8812300000000001
 20
5.6991900000000006
 30
0.0
 10
-0.7999500000000001
 20
5.9404900000000005
 30
0.0
 10
-0.6272300000000001
 20
6.1284500000000008
 30
0.0
 10
-0.6272300000000001
 20
6.1284500000000008
 30
0.0
 10
-0.61199
 20
5.9811300000000003
 30
0.0
 10
-0.7872500000000001
 20
5.7398300000000004
 30
0.0
 10
-0.6272300000000001
 20
5.6331500000000005
 30
0.0
 10
-0.6272300000000001
 20
5.6331500000000005
 30
0.0
 10
-0.63993
 20
5.9150900000000002
 30
0.0
 10
-0.5459500000000001
 20
6.2097300000000004
 30
0.0
 10
-0.31735
 20
6.3976900000000008
 30
0.0
  0
SPLINE
  5
27
100
AcDbEntity
  8
Ebene 1
 62
     7
100
AcDbSpline
210
0.0
220
0.0
230
1.0
 70
     1
 71
     3
 72
    48
 73
    44
 74
     0
 42
0.0000000001
 43
0.0000000001
 40
0.0
 40
0.0
 40
0.0
 40
0.0
 40
0.0909090909090909
 40
0.0909090909090909
 40
0.0909090909090909
 40
0.0909090909090909
 40
0.1818181818181818
 40
0.1818181818181818
 40
0.1818181818181818
 40
0.1818181818181818
 40
0.2727272727272727
 40
0.2727272727272727
 40
0.2727272727272727
 40
0.2727272727272727
 40
0.3636363636363637
 40
0.3636363636363637
 40
0.3636363636363637
 40
0.3636363636363637
 40
0.4545454545454546
 40
0.4545454545454546
 40
0.4545454545454546
 40
0.4545454545454546
 40
0.5454545454545455
 40
0.5454545454545455
 40
0.5454545454545455
 40
0.5454545454545455
 40
0.6363636363636365
 40
0.6363636363636365
 40
0.6363636363636365
 40
0.6363636363636365
 40
0.7272727272727274
 40
0.7272727272727274
 40
0.7272727272727274
 40
0.7272727272727274
 40
0.8181818181818183
 40
0.8181818181818183
 40
0.8181818181818183
 40
0.8181818181818183
 40
0.9090909090909093
 40
0.9090909090909093
 40
0.9090909090909093
 40
0.9090909090909093
 40
1.0
 40
1.0
 40
1.0
 40
1.0
 10
-0.25131
 20
5.7398300000000004
 30
0.0
 10
-0.42403
 20
4.9270300000000002
 30
0.0
 10
-0.25131
 20
3.9084900000000005
 30
0.0
 10
-0.30465
 20
3.0779100000000001
 30
0.0
 10
-0.30465
 20
3.0779100000000001
 30
0.0
 10
-0.37069
 20
3.1337900000000003
 30
0.0
 10
-0.30465
 20
3.4284300000000001
 30
0.0
 10
-0.3859300000000001
 20
3.3420700000000001
 30
0.0
 10
-0.3859300000000001
 20
3.3420700000000001
 30
0.0
 10
-0.39863
 20
3.1007700000000002
 30
0.0
 10
-0.37069
 20
2.8391500000000001
 30
0.0
 10
-0.42403
 20
2.6181700000000001
 30
0.0
 10
-0.42403
 20
2.6181700000000001
 30
0.0
 10
-0.46467
 20
2.7223100000000002
 30
0.0
 10
-0.4392700000000001
 20
2.8518500000000002
 30
0.0
 10
-0.45197
 20
2.9813900000000002
 30
0.0
 10
-0.45197
 20
2.9813900000000002
 30
0.0
 10
-0.50531
 20
3.0931500000000001
 30
0.0
 10
-0.5180100000000001
 20
2.9229700000000003
 30
0.0
 10
-0.5459500000000001
 20
2.9178900000000003
 30
0.0
 10
-0.5459500000000001
 20
2.9178900000000003
 30
0.0
 10
-0.5459500000000001
 20
2.9178900000000003
 30
0.0
 10
-0.5586500000000001
 20
3.5960700000000001
 30
0.0
 10
-0.5586500000000001
 20
3.5960700000000001
 30
0.0
 10
-0.5586500000000001
 20
3.5960700000000001
 30
0.0
 10
-0.46467
 20
3.7078300000000004
 30
0.0
 10
-0.39863
 20
3.8373700000000004
 30
0.0
 10
-0.3859300000000001
 20
3.9897700000000005
 30
0.0
 10
-0.3859300000000001
 20
3.9897700000000005
 30
0.0
 10
-0.39863
 20
4.5968300000000006
 30
0.0
 10
-0.4926100000000001
 20
5.1581700000000001
 30
0.0
 10
-0.45197
 20
5.7398300000000004
 30
0.0
 10
-0.45197
 20
5.7398300000000004
 30
0.0
 10
-0.34529
 20
5.8871500000000001
 30
0.0
 10
-0.28941
 20
6.1030500000000005
 30
0.0
 10
-0.12939
 20
6.1690900000000006
 30
0.0
 10
-0.12939
 20
6.1690900000000006
 30
0.0
 10
-0.12939
 20
6.1690900000000006
 30
0.0
 10
-0.34529
 20
5.6331500000000005
 30
0.0
 10
-0.34529
 20
5.6331500000000005
 30
0.0
 10
-0.34529
 20
5.6331500000000005
 30
0.0
 10
-0.34529
 20
5.6331500000000005
 30
0.0
 10
-0.25131
 20
5.7398300000000004
 30
0.0
 10
-0.25131
 20
5.7398300000000004
 30
0.0
  0
SPLINE
  5
28
100
AcDbEntity
  8
Ebene 1
 62
     7
100
AcDbSpline
210
0.0
220
0.0
230
1.0
 70
     1
 71
     3
 72
    20
 73
    16
 74
     0
 42
0.0000000001
 43
0.0000000001
 40
0.0
 40
0.0
 40
0.0
 40
0.0
 40
0.25
 40
0.25
 40
0.25
 40
0.25
 40
0.5
 40
0.5
 40
0.5
 40
0.5
 40
0.75
 40
0.75
 40
0.75
 40
0.75
 40
1.0
 40
1.0
 40
1.0
 40
1.0
 10
-0.9345700000000001
 20
5.9811300000000003
 30
0.0
 10
-0.8532900000000001
 20
5.8058700000000005
 30
0.0
 10
-0.9879100000000001
 20
5.5671100000000004
 30
0.0
 10
-0.9879100000000001
 20
5.3664500000000004
 30
0.0
 10
-0.9879100000000001
 20
5.3664500000000004
 30
0.0
 10
-0.9879100000000001
 20
5.3664500000000004
 30
0.0
 10
-0.8405900000000001
 20
4.76701
 30
0.0
 10
-0.8405900000000001
 20
4.76701
 30
0.0
 10
-0.8405900000000001
 20
4.76701
 30
0.0
 10
-0.9599700000000001
 20
4.9321100000000007
 30
0.0
 10
-0.9599700000000001
 20
5.2115100000000005
 30
0.0
 10
-1.0691900000000001
 20
5.3918500000000007
 30
0.0
 10
-1.0691900000000001
 20
5.3918500000000007
 30
0.0
 10
-1.0539500000000002
 20
5.6052100000000005
 30
0.0
 10
-1.0133100000000002
 20
5.7957100000000006
 30
0.0
 10
-0.9345700000000001
 20
5.9811300000000003
 30
0.0
  0
SPLINE
  5
29
100
AcDbEntity
  8
Ebene 1
 62
     7
100
AcDbSpline
210
0.0
220
0.0
230
1.0
 70
     1
 71
     3
 72
    52
 73
    48
 74
     0
 42
0.0000000001
 43
0.0000000001
 40
0.0
 40
0.0
 40
0.0
 40
0.0
 40
0.0833333333333333
 40
0.0833333333333333
 40
0.0833333333333333
 40
0.0833333333333333
 40
0.1666666666666667
 40
0.1666666666666667
 40
0.1666666666666667
 40
0.1666666666666667
 40
0.25
 40
0.25
 40
0.25
 40
0.25
 40
0.3333333333333333
 40
0.3333333333333333
 40
0.3333333333333333
 40
0.3333333333333333
 40
0.4166666666666666
 40
0.4166666666666666
 40
0.4166666666666666
 40
0.4166666666666666
 40
0.4999999999999999
 40
0.4999999999999999
 40
0.4999999999999999
 40
0.4999999999999999
 40
0.5833333333333333
 40
0.5833333333333333
 40
0.5833333333333333
 40
0.5833333333333333
 40
0.6666666666666666
 40
0.6666666666666666
 40
0.6666666666666666
 40
0.6666666666666666
 40
0.75
 40
0.75
 40
0.75
 40
0.75
 40
0.8333333333333334
 40
0.8333333333333334
 40
0.8333333333333334
 40
0.8333333333333334
 40
0.9166666666666667
 40
0.9166666666666667
 40
0.9166666666666667
 40
0.9166666666666667
 40
1.0
 40
1.0
 40
1.0
 40
1.0
 10
1.2472800000000002
 20
5.9557300000000009
 30
0.0
 10
1.0466200000000001
 20
5.4680500000000007
 30
0.0
 10
0.7799200000000001
 20
4.9473500000000001
 30
0.0
 10
0.7392800000000001
 20
4.3783900000000004
 30
0.0
 10
0.7392800000000001
 20
4.3783900000000004
 30
0.0
 10
0.69864
 20
4.0659700000000001
 30
0.0
 10
0.55132
 20
3.7764100000000003
 30
0.0
 10
0.36336
 20
3.5401900000000004
 30
0.0
 10
0.36336
 20
3.5401900000000004
 30
0.0
 10
0.31002
 20
3.4487500000000004
 30
0.0
 10
0.22874
 20
3.3522300000000005
 30
0.0
 10
0.1627
 20
3.2938100000000001
 30
0.0
 10
0.1627
 20
3.2938100000000001
 30
0.0
 10
0.1881
 20
3.3801700000000001
 30
0.0
 10
0.24144
 20
3.4792300000000003
 30
0.0
 10
0.29732
 20
3.5478100000000001
 30
0.0
 10
0.29732
 20
3.5478100000000001
 30
0.0
 10
0.47004
 20
3.7789500000000005
 30
0.0
 10
0.5386200000000001
 20
4.0583499999999999
 30
0.0
 10
0.61736
 20
4.3479100000000006
 30
0.0
 10
0.61736
 20
4.3479100000000006
 30
0.0
 10
0.5233800000000001
 20
4.37331
 30
0.0
 10
0.5640200000000001
 20
4.1523300000000001
 30
0.0
 10
0.45734
 20
4.16249
 30
0.0
 10
0.45734
 20
4.16249
 30
0.0
 10
0.4421000000000001
 20
4.6247700000000007
 30
0.0
 10
0.404
 20
5.1302300000000001
 30
0.0
 10
0.6453000000000001
 20
5.5264700000000007
 30
0.0
 10
0.6453000000000001
 20
5.5264700000000007
 30
0.0
 10
0.7392800000000001
 20
5.4705900000000005
 30
0.0
 10
0.57672
 20
5.2572300000000007
 30
0.0
 10
0.6707000000000001
 20
5.2978700000000005
 30
0.0
 10
0.6707000000000001
 20
5.2978700000000005
 30
0.0
 10
0.76468
 20
5.5137700000000001
 30
0.0
 10
0.8586600000000001
 20
5.7550700000000008
 30
0.0
 10
1.0466200000000001
 20
5.9023900000000005
 30
0.0
 10
1.0466200000000001
 20
5.9023900000000005
 30
0.0
 10
0.9399400000000001
 20
5.68649
 30
0.0
 10
0.87136
 20
5.4655100000000001
 30
0.0
 10
0.80532
 20
5.2445300000000001
 30
0.0
 10
0.80532
 20
5.2445300000000001
 30
0.0
 10
0.80532
 20
5.1683300000000001
 30
0.0
 10
0.7926200000000001
 20
5.0895900000000003
 30
0.0
 10
0.8180200000000001
 20
5.0210100000000004
 30
0.0
 10
0.8180200000000001
 20
5.0210100000000004
 30
0.0
 10
0.8993000000000001
 20
5.3308900000000001
 30
0.0
 10
1.01868
 20
5.68649
 30
0.0
 10
1.2472800000000002
 20
5.9557300000000009
 30
0.0
  0
SPLINE
  5
2A
100
AcDbEntity
  8
Ebene 1
 62
     7
100
AcDbSpline
210
0.0
220
0.0
230
1.0
 70
     1
 71
     3
 72
   100
 73
    96
 74
     0
 42
0.0000000001
 43
0.0000000001
 40
0.0
 40
0.0
 40
0.0
 40
0.0
 40
0.0416666666666667
 40
0.0416666666666667
 40
0.0416666666666667
 40
0.0416666666666667
 40
0.0833333333333333
 40
0.0833333333333333
 40
0.0833333333333333
 40
0.0833333333333333
 40
0.125
 40
0.125
 40
0.125
 40
0.125
 40
0.1666666666666667
 40
0.1666666666666667
 40
0.1666666666666667
 40
0.1666666666666667
 40
0.2083333333333333
 40
0.2083333333333333
 40
0.2083333333333333
 40
0.2083333333333333
 40
0.25
 40
0.25
 40
0.25
 40
0.25
 40
0.2916666666666666
 40
0.2916666666666666
 40
0.2916666666666666
 40
0.2916666666666666
 40
0.3333333333333333
 40
0.3333333333333333
 40
0.3333333333333333
 40
0.3333333333333333
 40
0.375
 40
0.375
 40
0.375
 40
0.375
 40
0.4166666666666667
 40
0.4166666666666667
 40
0.4166666666666667
 40
0.4166666666666667
 40
0.4583333333333334
 40
0.4583333333333334
 40
0.4583333333333334
 40
0.4583333333333334
 40
0.5
 40
0.5
 40
0.5
 40
0.5
 40
0.5416666666666666
 40
0.5416666666666666
 40
0.5416666666666666
 40
0.5416666666666666
 40
0.5833333333333333
 40
0.5833333333333333
 40
0.5833333333333333
 40
0.5833333333333333
 40
0.6249999999999999
 40
0.6249999999999999
 40
0.6249999999999999
 40
0.6249999999999999
 40
0.6666666666666665
 40
0.6666666666666665
 40
0.6666666666666665
 40
0.6666666666666665
 40
0.7083333333333332
 40
0.7083333333333332
 40
0.7083333333333332
 40
0.7083333333333332
 40
0.7499999999999998
 40
0.7499999999999998
 40
0.7499999999999998
 40
0.7499999999999998
 40
0.7916666666666664
 40
0.7916666666666664
 40
0.7916666666666664
 40
0.7916666666666664
 40
0.833333333333333
 40
0.833333333333333
 40
0.833333333333333
 40
0.833333333333333
 40
0.8749999999999997
 40
0.8749999999999997
 40
0.8749999999999997
 40
0.8749999999999997
 40
0.9166666666666663
 40
0.9166666666666663
 40
0.9166666666666663
 40
0.9166666666666663
 40
0.9583333333333329
 40
0.9583333333333329
 40
0.9583333333333329
 40
0.9583333333333329
 40
1.0
 40
1.0
 40
1.0
 40
1.0
 10
0.37606
 20
5.7677700000000005
 30
0.0
 10
0.37606
 20
5.7677700000000005
 30
0.0
 10
0.1627
 20
4.9549700000000003
 30
0.0
 10
0.1627
 20
4.9549700000000003
 30
0.0
 10
0.1627
 20
4.9549700000000003
 30
0.0
 10
0.21604
 20
5.0565700000000007
 30
0.0
 10
0.26938
 20
5.2369100000000008
 30
0.0
 10
0.35066
 20
5.2877100000000006
 30
0.0
 10
0.35066
 20
5.2877100000000006
 30
0.0
 10
0.1754
 20
4.7746300000000002
 30
0.0
 10
0.47004
 20
4.1599500000000003
 30
0.0
 10
0.24144
 20
3.6900500000000003
 30
0.0
 10
0.24144
 20
3.6900500000000003
 30
0.0
 10
0.21604
 20
3.9643700000000002
 30
0.0
 10
0.29732
 20
4.2894900000000007
 30
0.0
 10
0.22874
 20
4.5714300000000003
 30
0.0
 10
0.22874
 20
4.5714300000000003
 30
0.0
 10
0.1881
 20
4.5612700000000004
 30
0.0
 10
0.2008
 20
4.5104700000000006
 30
0.0
 10
0.2008
 20
4.4799900000000008
 30
0.0
 10
0.2008
 20
4.4799900000000008
 30
0.0
 10
0.2008
 20
4.4799900000000008
 30
0.0
 10
0.2008
 20
4.2945700000000002
 30
0.0
 10
0.2008
 20
4.2945700000000002
 30
0.0
 10
0.2008
 20
4.2945700000000002
 30
0.0
 10
0.2008
 20
4.2945700000000002
 30
0.0
 10
0.1881
 20
3.8780100000000002
 30
0.0
 10
0.1881
 20
3.8780100000000002
 30
0.0
 10
0.1881
 20
3.8780100000000002
 30
0.0
 10
0.1881
 20
3.8780100000000002
 30
0.0
 10
0.15
 20
3.5960700000000001
 30
0.0
 10
0.15
 20
3.5960700000000001
 30
0.0
 10
0.15
 20
3.5960700000000001
 30
0.0
 10
0.13476
 20
3.5478100000000001
 30
0.0
 10
0.13476
 20
3.4868500000000004
 30
0.0
 10
0.10936
 20
3.4487500000000004
 30
0.0
 10
0.10936
 20
3.4487500000000004
 30
0.0
 10
0.09412
 20
3.7738700000000005
 30
0.0
 10
0.1627
 20
4.1980500000000003
 30
0.0
 10
0.05602
 20
4.4926900000000005
 30
0.0
 10
0.05602
 20
4.4926900000000005
 30
0.0
 10
0.05602
 20
4.4926900000000005
 30
0.0
 10
0.04078
 20
4.3326700000000002
 30
0.0
 10
0.04078
 20
4.3326700000000002
 30
0.0
 10
0.04078
 20
4.3326700000000002
 30
0.0
 10
0.04078
 20
4.3326700000000002
 30
0.0
 10
0.04078
 20
4.0659700000000001
 30
0.0
 10
0.04078
 20
4.0659700000000001
 30
0.0
 10
0.04078
 20
4.0659700000000001
 30
0.0
 10
0.04078
 20
4.0659700000000001
 30
0.0
 10
0.02808
 20
3.7306900000000005
 30
0.0
 10
0.02808
 20
3.7306900000000005
 30
0.0
 10
0.02808
 20
3.7306900000000005
 30
0.0
 10
0.01538
 20
3.4944700000000002
 30
0.0
 10
-0.01001
 20
3.2303100000000002
 30
0.0
 10
-0.14463
 20
3.0525100000000003
 30
0.0
 10
-0.14463
 20
3.0525100000000003
 30
0.0
 10
-0.07605
 20
3.3903300000000001
 30
0.0
 10
-0.05065
 20
3.7814900000000002
 30
0.0
 10
-0.07605
 20
4.17265
 30
0.0
 10
-0.07605
 20
4.17265
 30
0.0
 10
-0.07605
 20
4.17265
 30
0.0
 10
-0.06335
 20
4.34537
 30
0.0
 10
-0.06335
 20
4.34537
 30
0.0
 10
-0.06335
 20
4.34537
 30
0.0
 10
-0.22337
 20
4.1269300000000007
 30
0.0
 10
-0.07605
 20
3.6798900000000003
 30
0.0
 10
-0.19797
 20
3.4385900000000005
 30
0.0
 10
-0.19797
 20
3.4385900000000005
 30
0.0
 10
-0.27925
 20
4.17265
 30
0.0
 10
-0.41133
 20
5.0413300000000003
 30
0.0
 10
-0.10399
 20
5.68649
 30
0.0
 10
-0.10399
 20
5.68649
 30
0.0
 10
-0.10399
 20
5.68649
 30
0.0
 10
-0.18273
 20
5.3918500000000007
 30
0.0
 10
-0.18273
 20
5.3918500000000007
 30
0.0
 10
-0.18273
 20
5.3918500000000007
 30
0.0
 10
-0.18273
 20
5.3918500000000007
 30
0.0
 10
-0.02271
 20
5.6331500000000005
 30
0.0
 10
-0.02271
 20
5.6331500000000005
 30
0.0
 10
-0.02271
 20
5.6331500000000005
 30
0.0
 10
-0.06335
 20
5.14039
 30
0.0
 10
-0.17003
 20
5.0845100000000008
 30
0.0
 10
-0.06335
 20
4.6146100000000008
 30
0.0
 10
-0.06335
 20
4.6146100000000008
 30
0.0
 10
0.06872
 20
4.7390700000000008
 30
0.0
 10
-0.06335
 20
5.1759500000000003
 30
0.0
 10
0.12206
 20
5.2953300000000008
 30
0.0
 10
0.12206
 20
5.2953300000000008
 30
0.0
 10
0.15
 20
5.2369100000000008
 30
0.0
 10
0.05602
 20
5.1378500000000003
 30
0.0
 10
0.12206
 20
5.1149900000000006
 30
0.0
 10
0.12206
 20
5.1149900000000006
 30
0.0
 10
0.1627
 20
5.3664500000000004
 30
0.0
 10
0.22874
 20
5.5798100000000002
 30
0.0
 10
0.37606
 20
5.7677700000000005
 30
0.0
  0
SPLINE
  5
2B
100
AcDbEntity
  8
Ebene 1
 62
     7
100
AcDbSpline
210
0.0
220
0.0
230
1.0
 70
     1
 71
     3
 72
    40
 73
    36
 74
     0
 42
0.0000000001
 43
0.0000000001
 40
0.0
 40
0.0
 40
0.0
 40
0.0
 40
0.1111111111111111
 40
0.1111111111111111
 40
0.1111111111111111
 40
0.1111111111111111
 40
0.2222222222222222
 40
0.2222222222222222
 40
0.2222222222222222
 40
0.2222222222222222
 40
0.3333333333333333
 40
0.3333333333333333
 40
0.3333333333333333
 40
0.3333333333333333
 40
0.4444444444444444
 40
0.4444444444444444
 40
0.4444444444444444
 40
0.4444444444444444
 40
0.5555555555555556
 40
0.5555555555555556
 40
0.5555555555555556
 40
0.5555555555555556
 40
0.6666666666666667
 40
0.6666666666666667
 40
0.6666666666666667
 40
0.6666666666666667
 40
0.7777777777777779
 40
0.7777777777777779
 40
0.7777777777777779
 40
0.7777777777777779
 40
0.8888888888888891
 40
0.8888888888888891
 40
0.8888888888888891
 40
0.8888888888888891
 40
1.0
 40
1.0
 40
1.0
 40
1.0
 10
1.3006200000000001
 20
5.7271300000000007
 30
0.0
 10
1.2599800000000001
 20
5.5544100000000007
 30
0.0
 10
1.09996
 20
5.3613700000000009
 30
0.0
 10
1.1812400000000001
 20
5.17849
 30
0.0
 10
1.1812400000000001
 20
5.17849
 30
0.0
 10
1.2066400000000002
 20
5.1861100000000002
 30
0.0
 10
1.1660000000000001
 20
5.3029500000000001
 30
0.0
 10
1.2193400000000001
 20
5.2572300000000007
 30
0.0
 10
1.2193400000000001
 20
5.2572300000000007
 30
0.0
 10
1.2422000000000002
 20
5.1911900000000006
 30
0.0
 10
1.3361800000000001
 20
5.1581700000000001
 30
0.0
 10
1.2599800000000001
 20
5.0311700000000004
 30
0.0
 10
1.2599800000000001
 20
5.0311700000000004
 30
0.0
 10
0.9932800000000001
 20
4.4241100000000007
 30
0.0
 10
1.09996
 20
3.6341700000000001
 30
0.0
 10
0.51068
 20
3.1972900000000002
 30
0.0
 10
0.51068
 20
3.1972900000000002
 30
0.0
 10
0.7113400000000001
 20
3.5020900000000004
 30
0.0
 10
0.7392800000000001
 20
3.9008700000000003
 30
0.0
 10
0.8993000000000001
 20
4.2259900000000004
 30
0.0
 10
0.8993000000000001
 20
4.2259900000000004
 30
0.0
 10
0.8993000000000001
 20
4.2259900000000004
 30
0.0
 10
0.8459600000000001
 20
4.2539300000000004
 30
0.0
 10
0.8459600000000001
 20
4.2539300000000004
 30
0.0
 10
0.8459600000000001
 20
4.2539300000000004
 30
0.0
 10
0.8866000000000001
 20
4.5587300000000006
 30
0.0
 10
0.9247000000000001
 20
4.8838500000000007
 30
0.0
 10
0.9932800000000001
 20
5.18865
 30
0.0
 10
0.9932800000000001
 20
5.18865
 30
0.0
 10
1.0339200000000002
 20
5.2038900000000003
 30
0.0
 10
1.0059800000000001
 20
5.1251500000000005
 30
0.0
 10
1.05932
 20
5.1556300000000004
 30
0.0
 10
1.05932
 20
5.1556300000000004
 30
0.0
 10
1.0872600000000001
 20
5.3613700000000009
 30
0.0
 10
1.1660000000000001
 20
5.5671100000000004
 30
0.0
 10
1.3006200000000001
 20
5.7271300000000007
 30
0.0
  0
SPLINE
  5
2C
100
AcDbEntity
  8
Ebene 1
 62
     7
100
AcDbSpline
210
0.0
220
0.0
230
1.0
 70
     1
 71
     3
 72
    20
 73
    16
 74
     0
 42
0.0000000001
 43
0.0000000001
 40
0.0
 40
0.0
 40
0.0
 40
0.0
 40
0.25
 40
0.25
 40
0.25
 40
0.25
 40
0.5
 40
0.5
 40
0.5
 40
0.5
 40
0.75
 40
0.75
 40
0.75
 40
0.75
 40
1.0
 40
1.0
 40
1.0
 40
1.0
 10
2.50712
 20
5.6991900000000006
 30
0.0
 10
2.5604600000000004
 20
5.6991900000000006
 30
0.0
 10
2.6138000000000003
 20
5.6331500000000005
 30
0.0
 10
2.6011000000000002
 20
5.5798100000000002
 30
0.0
 10
2.6011000000000002
 20
5.5798100000000002
 30
0.0
 10
2.6011000000000002
 20
5.5798100000000002
 30
0.0
 10
2.3725000000000001
 20
5.4985300000000006
 30
0.0
 10
2.3725000000000001
 20
5.4985300000000006
 30
0.0
 10
2.3725000000000001
 20
5.4985300000000006
 30
0.0
 10
2.3191600000000001
 20
5.5264700000000007
 30
0.0
 10
2.3725000000000001
 20
5.5798100000000002
 30
0.0
 10
2.4131400000000003
 20
5.5925100000000008
 30
0.0
 10
2.4131400000000003
 20
5.5925100000000008
 30
0.0
 10
2.4537800000000001
 20
5.6204500000000008
 30
0.0
 10
2.4817200000000001
 20
5.6737900000000003
 30
0.0
 10
2.50712
 20
5.6991900000000006
 30
0.0
  0
SPLINE
  5
2D
100
AcDbEntity
  8
Ebene 1
 62
     7
100
AcDbSpline
210
0.0
220
0.0
230
1.0
 70
     1
 71
     3
 72
    24
 73
    20
 74
     0
 42
0.0000000001
 43
0.0000000001
 40
0.0
 40
0.0
 40
0.0
 40
0.0
 40
0.2
 40
0.2
 40
0.2
 40
0.2
 40
0.4
 40
0.4
 40
0.4
 40
0.4
 40
0.6000000000000001
 40
0.6000000000000001
 40
0.6000000000000001
 40
0.6000000000000001
 40
0.8
 40
0.8
 40
0.8
 40
0.8
 40
1.0
 40
1.0
 40
1.0
 40
1.0
 10
2.4817200000000001
 20
5.4451900000000002
 30
0.0
 10
2.5477600000000002
 20
5.4299500000000007
 30
0.0
 10
2.6544400000000001
 20
5.4832900000000002
 30
0.0
 10
2.6823800000000002
 20
5.4096300000000008
 30
0.0
 10
2.6823800000000002
 20
5.4096300000000008
 30
0.0
 10
2.5325200000000003
 20
5.3613700000000009
 30
0.0
 10
2.3598000000000003
 20
5.35121
 30
0.0
 10
2.25312
 20
5.2216700000000005
 30
0.0
 10
2.25312
 20
5.2216700000000005
 30
0.0
 10
2.25312
 20
5.2419900000000004
 30
0.0
 10
2.25312
 20
5.2699300000000004
 30
0.0
 10
2.2658200000000002
 20
5.2826300000000002
 30
0.0
 10
2.2658200000000002
 20
5.2826300000000002
 30
0.0
 10
2.2658200000000002
 20
5.2826300000000002
 30
0.0
 10
2.3598000000000003
 20
5.3816900000000008
 30
0.0
 10
2.3598000000000003
 20
5.3816900000000008
 30
0.0
 10
2.3598000000000003
 20
5.3816900000000008
 30
0.0
 10
2.3598000000000003
 20
5.3816900000000008
 30
0.0
 10
2.4817200000000001
 20
5.4451900000000002
 30
0.0
 10
2.4817200000000001
 20
5.4451900000000002
 30
0.0
  0
SPLINE
  5
2E
100
AcDbEntity
  8
Ebene 1
 62
     7
100
AcDbSpline
210
0.0
220
0.0
230
1.0
 70
     1
 71
     3
 72
    76
 73
    72
 74
     0
 42
0.0000000001
 43
0.0000000001
 40
0.0
 40
0.0
 40
0.0
 40
0.0
 40
0.0555555555555556
 40
0.0555555555555556
 40
0.0555555555555556
 40
0.0555555555555556
 40
0.1111111111111111
 40
0.1111111111111111
 40
0.1111111111111111
 40
0.1111111111111111
 40
0.1666666666666667
 40
0.1666666666666667
 40
0.1666666666666667
 40
0.1666666666666667
 40
0.2222222222222222
 40
0.2222222222222222
 40
0.2222222222222222
 40
0.2222222222222222
 40
0.2777777777777778
 40
0.2777777777777778
 40
0.2777777777777778
 40
0.2777777777777778
 40
0.3333333333333334
 40
0.3333333333333334
 40
0.3333333333333334
 40
0.3333333333333334
 40
0.388888888888889
 40
0.388888888888889
 40
0.388888888888889
 40
0.388888888888889
 40
0.4444444444444445
 40
0.4444444444444445
 40
0.4444444444444445
 40
0.4444444444444445
 40
0.5000000000000001
 40
0.5000000000000001
 40
0.5000000000000001
 40
0.5000000000000001
 40
0.5555555555555557
 40
0.5555555555555557
 40
0.5555555555555557
 40
0.5555555555555557
 40
0.6111111111111113
 40
0.6111111111111113
 40
0.6111111111111113
 40
0.6111111111111113
 40
0.6666666666666669
 40
0.6666666666666669
 40
0.6666666666666669
 40
0.6666666666666669
 40
0.7222222222222224
 40
0.7222222222222224
 40
0.7222222222222224
 40
0.7222222222222224
 40
0.777777777777778
 40
0.777777777777778
 40
0.777777777777778
 40
0.777777777777778
 40
0.8333333333333336
 40
0.8333333333333336
 40
0.8333333333333336
 40
0.8333333333333336
 40
0.8888888888888892
 40
0.8888888888888892
 40
0.8888888888888892
 40
0.8888888888888892
 40
0.9444444444444448
 40
0.9444444444444448
 40
0.9444444444444448
 40
0.9444444444444448
 40
1.0
 40
1.0
 40
1.0
 40
1.0
 10
-1.4578100000000001
 20
5.4045500000000004
 30
0.0
 10
-1.4425700000000001
 20
4.8508300000000002
 30
0.0
 10
-1.0539500000000002
 20
4.3326700000000002
 30
0.0
 10
-0.9472700000000001
 20
3.8018100000000001
 30
0.0
 10
-0.9472700000000001
 20
3.8018100000000001
 30
0.0
 10
-0.8532900000000001
 20
3.8881700000000001
 30
0.0
 10
-0.7872500000000001
 20
3.6722700000000001
 30
0.0
 10
-0.7059700000000001
 20
3.8068900000000001
 30
0.0
 10
-0.7059700000000001
 20
3.8068900000000001
 30
0.0
 10
-0.7059700000000001
 20
3.7408500000000005
 30
0.0
 10
-0.6932700000000001
 20
3.6621100000000002
 30
0.0
 10
-0.71867
 20
3.6011500000000001
 30
0.0
 10
-0.71867
 20
3.6011500000000001
 30
0.0
 10
-0.4926100000000001
 20
3.5274900000000002
 30
0.0
 10
-0.7466100000000001
 20
3.1668100000000003
 30
0.0
 10
-0.7339100000000001
 20
2.9661500000000003
 30
0.0
 10
-0.7339100000000001
 20
2.9661500000000003
 30
0.0
 10
-0.7339100000000001
 20
2.9661500000000003
 30
0.0
 10
-0.7872500000000001
 20
3.3293700000000004
 30
0.0
 10
-0.7872500000000001
 20
3.3293700000000004
 30
0.0
 10
-0.7872500000000001
 20
3.3293700000000004
 30
0.0
 10
-0.7872500000000001
 20
3.3293700000000004
 30
0.0
 10
-0.7999500000000001
 20
3.4360500000000003
 30
0.0
 10
-0.7999500000000001
 20
3.4360500000000003
 30
0.0
 10
-0.7999500000000001
 20
3.4360500000000003
 30
0.0
 10
-0.9193300000000001
 20
3.7865700000000002
 30
0.0
 10
-0.8532900000000001
 20
3.0042500000000003
 30
0.0
 10
-0.9193300000000001
 20
3.3014300000000003
 30
0.0
 10
-0.9193300000000001
 20
3.3014300000000003
 30
0.0
 10
-0.9193300000000001
 20
3.3014300000000003
 30
0.0
 10
-0.9599700000000001
 20
3.4360500000000003
 30
0.0
 10
-0.9599700000000001
 20
3.4360500000000003
 30
0.0
 10
-0.9599700000000001
 20
3.4360500000000003
 30
0.0
 10
-0.9599700000000001
 20
3.4360500000000003
 30
0.0
 10
-0.9879100000000001
 20
3.5147900000000001
 30
0.0
 10
-0.9879100000000001
 20
3.5147900000000001
 30
0.0
 10
-0.9879100000000001
 20
3.5147900000000001
 30
0.0
 10
-1.0945900000000002
 20
3.6875100000000005
 30
0.0
 10
-0.9472700000000001
 20
3.0626700000000002
 30
0.0
 10
-1.08189
 20
3.3293700000000004
 30
0.0
 10
-1.08189
 20
3.3293700000000004
 30
0.0
 10
-1.0945900000000002
 20
3.4944700000000002
 30
0.0
 10
-1.37653
 20
3.8551500000000005
 30
0.0
 10
-1.2012700000000001
 20
3.5274900000000002
 30
0.0
 10
-1.2012700000000001
 20
3.5274900000000002
 30
0.0
 10
-1.1758700000000002
 20
3.3268300000000002
 30
0.0
 10
-1.1098300000000001
 20
3.1134700000000004
 30
0.0
 10
-1.12253
 20
2.9178900000000003
 30
0.0
 10
-1.12253
 20
2.9178900000000003
 30
0.0
 10
-1.25461
 20
3.2734900000000002
 30
0.0
 10
-1.3892300000000002
 20
3.6494100000000005
 30
0.0
 10
-1.67117
 20
3.9364300000000005
 30
0.0
 10
-1.67117
 20
3.9364300000000005
 30
0.0
 10
-1.6432300000000002
 20
3.9897700000000005
 30
0.0
 10
-1.6991100000000001
 20
4.0634300000000003
 30
0.0
 10
-1.6584700000000001
 20
4.1167700000000007
 30
0.0
 10
-1.6584700000000001
 20
4.1167700000000007
 30
0.0
 10
-1.4959100000000001
 20
4.0939100000000002
 30
0.0
 10
-1.33589
 20
3.8678500000000002
 30
0.0
 10
-1.1885700000000001
 20
3.8754700000000004
 30
0.0
 10
-1.1885700000000001
 20
3.8754700000000004
 30
0.0
 10
-1.3638300000000001
 20
4.12439
 30
0.0
 10
-1.5517900000000002
 20
4.4114100000000001
 30
0.0
 10
-1.5365500000000001
 20
4.7212900000000007
 30
0.0
 10
-1.5365500000000001
 20
4.7212900000000007
 30
0.0
 10
-1.4959100000000001
 20
4.6095300000000003
 30
0.0
 10
-1.41717
 20
4.4622100000000007
 30
0.0
 10
-1.3104900000000002
 20
4.4266500000000004
 30
0.0
 10
-1.3104900000000002
 20
4.4266500000000004
 30
0.0
 10
-1.5365500000000001
 20
4.7035100000000005
 30
0.0
 10
-1.3892300000000002
 20
5.0362500000000008
 30
0.0
 10
-1.4578100000000001
 20
5.4045500000000004
 30
0.0
  0
SPLINE
  5
2F
100
AcDbEntity
  8
Ebene 1
 62
     7
100
AcDbSpline
210
0.0
220
0.0
230
1.0
 70
     1
 71
     3
 72
    68
 73
    64
 74
     0
 42
0.0000000001
 43
0.0000000001
 40
0.0
 40
0.0
 40
0.0
 40
0.0
 40
0.0625
 40
0.0625
 40
0.0625
 40
0.0625
 40
0.125
 40
0.125
 40
0.125
 40
0.125
 40
0.1875
 40
0.1875
 40
0.1875
 40
0.1875
 40
0.25
 40
0.25
 40
0.25
 40
0.25
 40
0.3125
 40
0.3125
 40
0.3125
 40
0.3125
 40
0.375
 40
0.375
 40
0.375
 40
0.375
 40
0.4375
 40
0.4375
 40
0.4375
 40
0.4375
 40
0.5
 40
0.5
 40
0.5
 40
0.5
 40
0.5625
 40
0.5625
 40
0.5625
 40
0.5625
 40
0.625
 40
0.625
 40
0.625
 40
0.625
 40
0.6875
 40
0.6875
 40
0.6875
 40
0.6875
 40
0.75
 40
0.75
 40
0.75
 40
0.75
 40
0.8125
 40
0.8125
 40
0.8125
 40
0.8125
 40
0.875
 40
0.875
 40
0.875
 40
0.875
 40
0.9375
 40
0.9375
 40
0.9375
 40
0.9375
 40
1.0
 40
1.0
 40
1.0
 40
1.0
 10
1.9432400000000001
 20
5.31311
 30
0.0
 10
1.9838800000000001
 20
5.22675
 30
0.0
 10
1.7959200000000002
 20
4.8228900000000001
 30
0.0
 10
1.9991200000000002
 20
5.0210100000000004
 30
0.0
 10
1.9991200000000002
 20
5.0210100000000004
 30
0.0
 10
2.0778600000000003
 20
5.0895900000000003
 30
0.0
 10
2.1591400000000003
 20
5.2140500000000003
 30
0.0
 10
2.2404200000000003
 20
5.0972100000000005
 30
0.0
 10
2.2404200000000003
 20
5.0972100000000005
 30
0.0
 10
2.3064600000000004
 20
5.1556300000000004
 30
0.0
 10
2.3725000000000001
 20
5.1962700000000002
 30
0.0
 10
2.4537800000000001
 20
5.2318300000000004
 30
0.0
 10
2.4537800000000001
 20
5.2318300000000004
 30
0.0
 10
2.5198200000000002
 20
5.26485
 30
0.0
 10
2.6417400000000004
 20
5.3054900000000007
 30
0.0
 10
2.7077800000000001
 20
5.2496100000000006
 30
0.0
 10
2.7077800000000001
 20
5.2496100000000006
 30
0.0
 10
2.4410800000000004
 20
5.2292900000000007
 30
0.0
 10
2.03722
 20
4.9956100000000001
 30
0.0
 10
2.1185
 20
4.7212900000000007
 30
0.0
 10
2.1185
 20
4.7212900000000007
 30
0.0
 10
2.1439000000000004
 20
4.7339900000000004
 30
0.0
 10
2.17184
 20
4.7644700000000002
 30
0.0
 10
2.1845400000000001
 20
4.7924100000000003
 30
0.0
 10
2.1845400000000001
 20
4.7924100000000003
 30
0.0
 10
2.2658200000000002
 20
4.9168700000000003
 30
0.0
 10
2.4004400000000001
 20
5.01593
 30
0.0
 10
2.5325200000000003
 20
5.0743500000000008
 30
0.0
 10
2.5325200000000003
 20
5.0743500000000008
 30
0.0
 10
2.5884
 20
5.0997500000000002
 30
0.0
 10
2.7077800000000001
 20
5.0946700000000007
 30
0.0
 10
2.6823800000000002
 20
5.0083100000000007
 30
0.0
 10
2.6823800000000002
 20
5.0083100000000007
 30
0.0
 10
2.3852000000000002
 20
4.9168700000000003
 30
0.0
 10
2.1845400000000001
 20
4.6273100000000005
 30
0.0
 10
1.9711800000000002
 20
4.4317299999999999
 30
0.0
 10
1.9711800000000002
 20
4.4317299999999999
 30
0.0
 10
1.9711800000000002
 20
4.4317299999999999
 30
0.0
 10
2.05246
 20
4.63239
 30
0.0
 10
2.05246
 20
4.63239
 30
0.0
 10
2.05246
 20
4.63239
 30
0.0
 10
2.0778600000000003
 20
4.6831900000000006
 30
0.0
 10
2.0245200000000003
 20
4.7162100000000002
 30
0.0
 10
1.9991200000000002
 20
4.6679500000000003
 30
0.0
 10
1.9991200000000002
 20
4.6679500000000003
 30
0.0
 10
1.9991200000000002
 20
4.6679500000000003
 30
0.0
 10
1.9305400000000001
 20
4.5333300000000003
 30
0.0
 10
1.9305400000000001
 20
4.5333300000000003
 30
0.0
 10
1.9305400000000001
 20
4.5333300000000003
 30
0.0
 10
1.9178400000000002
 20
4.49777
 30
0.0
 10
1.9026000000000001
 20
4.4545900000000005
 30
0.0
 10
1.8772000000000002
 20
4.4241100000000007
 30
0.0
 10
1.8772000000000002
 20
4.4241100000000007
 30
0.0
 10
1.7832200000000002
 20
4.3529900000000001
 30
0.0
 10
2.0118200000000002
 20
4.9244900000000005
 30
0.0
 10
1.8518000000000001
 20
4.7593900000000007
 30
0.0
 10
1.8518000000000001
 20
4.7593900000000007
 30
0.0
 10
1.8365600000000002
 20
4.7238300000000004
 30
0.0
 10
1.8518000000000001
 20
4.64255
 30
0.0
 10
1.7959200000000002
 20
4.6450900000000006
 30
0.0
 10
1.7959200000000002
 20
4.6450900000000006
 30
0.0
 10
1.8518000000000001
 20
4.8457500000000007
 30
0.0
 10
1.8238600000000003
 20
5.1149900000000006
 30
0.0
 10
1.9432400000000001
 20
5.31311
 30
0.0
  0
SPLINE
  5
30
100
AcDbEntity
  8
Ebene 1
 62
     7
100
AcDbSpline
210
0.0
220
0.0
230
1.0
 70
     1
 71
     3
 72
    20
 73
    16
 74
     0
 42
0.0000000001
 43
0.0000000001
 40
0.0
 40
0.0
 40
0.0
 40
0.0
 40
0.25
 40
0.25
 40
0.25
 40
0.25
 40
0.5
 40
0.5
 40
0.5
 40
0.5
 40
0.75
 40
0.75
 40
0.75
 40
0.75
 40
1.0
 40
1.0
 40
1.0
 40
1.0
 10
1.8365600000000002
 20
5.2851700000000008
 30
0.0
 10
1.8365600000000002
 20
5.2851700000000008
 30
0.0
 10
1.8238600000000003
 20
4.96767
 30
0.0
 10
1.8238600000000003
 20
4.96767
 30
0.0
 10
1.8238600000000003
 20
4.96767
 30
0.0
 10
1.8238600000000003
 20
4.96767
 30
0.0
 10
1.7019400000000002
 20
4.7339900000000004
 30
0.0
 10
1.7019400000000002
 20
4.7339900000000004
 30
0.0
 10
1.7019400000000002
 20
4.7339900000000004
 30
0.0
 10
1.7019400000000002
 20
4.7339900000000004
 30
0.0
 10
1.6613000000000002
 20
4.7898700000000005
 30
0.0
 10
1.6613000000000002
 20
4.7898700000000005
 30
0.0
 10
1.6613000000000002
 20
4.7898700000000005
 30
0.0
 10
1.6892400000000001
 20
4.9600500000000007
 30
0.0
 10
1.7019400000000002
 20
5.1632500000000006
 30
0.0
 10
1.8365600000000002
 20
5.2851700000000008
 30
0.0
  0
SPLINE
  5
31
100
AcDbEntity
  8
Ebene 1
 62
     7
100
AcDbSpline
210
0.0
220
0.0
230
1.0
 70
     1
 71
     3
 72
    20
 73
    16
 74
     0
 42
0.0000000001
 43
0.0000000001
 40
0.0
 40
0.0
 40
0.0
 40
0.0
 40
0.25
 40
0.25
 40
0.25
 40
0.25
 40
0.5
 40
0.5
 40
0.5
 40
0.5
 40
0.75
 40
0.75
 40
0.75
 40
0.75
 40
1.0
 40
1.0
 40
1.0
 40
1.0
 10
2.9490800000000004
 20
5.1911900000000006
 30
0.0
 10
3.0557600000000003
 20
5.1480100000000002
 30
0.0
 10
3.1776800000000001
 20
5.0616500000000002
 30
0.0
 10
3.2157800000000001
 20
4.9549700000000003
 30
0.0
 10
3.2157800000000001
 20
4.9549700000000003
 30
0.0
 10
3.1624400000000001
 20
4.96767
 30
0.0
 10
3.1091000000000002
 20
4.9727500000000004
 30
0.0
 10
3.0710000000000002
 20
5.0083100000000007
 30
0.0
 10
3.0710000000000002
 20
5.0083100000000007
 30
0.0
 10
3.0710000000000002
 20
5.0768900000000006
 30
0.0
 10
3.0151200000000005
 20
5.1480100000000002
 30
0.0
 10
2.9490800000000004
 20
5.1683300000000001
 30
0.0
 10
2.9490800000000004
 20
5.1683300000000001
 30
0.0
 10
2.9490800000000004
 20
5.1683300000000001
 30
0.0
 10
2.9490800000000004
 20
5.1911900000000006
 30
0.0
 10
2.9490800000000004
 20
5.1911900000000006
 30
0.0
  0
SPLINE
  5
32
100
AcDbEntity
  8
Ebene 1
 62
     7
100
AcDbSpline
210
0.0
220
0.0
230
1.0
 70
     1
 71
     3
 72
    24
 73
    20
 74
     0
 42
0.0000000001
 43
0.0000000001
 40
0.0
 40
0.0
 40
0.0
 40
0.0
 40
0.2
 40
0.2
 40
0.2
 40
0.2
 40
0.4
 40
0.4
 40
0.4
 40
0.4
 40
0.6000000000000001
 40
0.6000000000000001
 40
0.6000000000000001
 40
0.6000000000000001
 40
0.8
 40
0.8
 40
0.8
 40
0.8
 40
1.0
 40
1.0
 40
1.0
 40
1.0
 10
2.6950800000000004
 20
4.9752900000000002
 30
0.0
 10
2.6950800000000004
 20
4.9752900000000002
 30
0.0
 10
2.8957400000000004
 20
4.9498900000000008
 30
0.0
 10
2.8957400000000004
 20
4.9498900000000008
 30
0.0
 10
2.8957400000000004
 20
4.9498900000000008
 30
0.0
 10
2.6138000000000003
 20
4.8025700000000002
 30
0.0
 10
2.3471000000000002
 20
4.5206300000000006
 30
0.0
 10
2.05246
 20
4.3656900000000007
 30
0.0
 10
2.05246
 20
4.3656900000000007
 30
0.0
 10
2.05246
 20
4.42157
 30
0.0
 10
2.0778600000000003
 20
4.4850700000000003
 30
0.0
 10
2.1312000000000002
 20
4.5257100000000001
 30
0.0
 10
2.1312000000000002
 20
4.5257100000000001
 30
0.0
 10
2.1312000000000002
 20
4.5257100000000001
 30
0.0
 10
2.29122
 20
4.7060500000000003
 30
0.0
 10
2.29122
 20
4.7060500000000003
 30
0.0
 10
2.29122
 20
4.7060500000000003
 30
0.0
 10
2.42584
 20
4.8152700000000008
 30
0.0
 10
2.5477600000000002
 20
4.9194100000000001
 30
0.0
 10
2.6950800000000004
 20
4.9752900000000002
 30
0.0
  0
SPLINE
  5
33
100
AcDbEntity
  8
Ebene 1
 62
     7
100
AcDbSpline
210
0.0
220
0.0
230
1.0
 70
     1
 71
     3
 72
    28
 73
    24
 74
     0
 42
0.0000000001
 43
0.0000000001
 40
0.0
 40
0.0
 40
0.0
 40
0.0
 40
0.1666666666666667
 40
0.1666666666666667
 40
0.1666666666666667
 40
0.1666666666666667
 40
0.3333333333333333
 40
0.3333333333333333
 40
0.3333333333333333
 40
0.3333333333333333
 40
0.5
 40
0.5
 40
0.5
 40
0.5
 40
0.6666666666666666
 40
0.6666666666666666
 40
0.6666666666666666
 40
0.6666666666666666
 40
0.8333333333333333
 40
0.8333333333333333
 40
0.8333333333333333
 40
0.8333333333333333
 40
1.0
 40
1.0
 40
1.0
 40
1.0
 10
-2.4357100000000003
 20
4.9092500000000001
 30
0.0
 10
-2.52969
 20
4.3123500000000003
 30
0.0
 10
-2.0877300000000001
 20
3.8195900000000003
 30
0.0
 10
-1.8845300000000003
 20
3.2938100000000001
 30
0.0
 10
-1.8845300000000003
 20
3.2938100000000001
 30
0.0
 10
-1.8845300000000003
 20
3.2938100000000001
 30
0.0
 10
-2.0724900000000002
 20
3.5478100000000001
 30
0.0
 10
-2.0724900000000002
 20
3.5478100000000001
 30
0.0
 10
-2.0724900000000002
 20
3.5478100000000001
 30
0.0
 10
-2.0724900000000002
 20
3.5478100000000001
 30
0.0
 10
-2.14107
 20
3.6748100000000004
 30
0.0
 10
-2.14107
 20
3.6748100000000004
 30
0.0
 10
-2.14107
 20
3.6748100000000004
 30
0.0
 10
-2.1664700000000003
 20
3.7078300000000004
 30
0.0
 10
-2.1817100000000003
 20
3.8119700000000005
 30
0.0
 10
-2.23251
 20
3.7764100000000003
 30
0.0
 10
-2.23251
 20
3.7764100000000003
 30
0.0
 10
-2.19441
 20
3.6011500000000001
 30
0.0
 10
-2.0877300000000001
 20
3.3903300000000001
 30
0.0
 10
-2.0064500000000001
 20
3.2252300000000003
 30
0.0
 10
-2.0064500000000001
 20
3.2252300000000003
 30
0.0
 10
-2.4611100000000001
 20
3.6595700000000004
 30
0.0
 10
-2.6211300000000004
 20
4.2996500000000006
 30
0.0
 10
-2.4357100000000003
 20
4.9092500000000001
 30
0.0
  0
SPLINE
  5
34
100
AcDbEntity
  8
Ebene 1
 62
     7
100
AcDbSpline
210
0.0
220
0.0
230
1.0
 70
     1
 71
     3
 72
    16
 73
    12
 74
     0
 42
0.0000000001
 43
0.0000000001
 40
0.0
 40
0.0
 40
0.0
 40
0.0
 40
0.3333333333333333
 40
0.3333333333333333
 40
0.3333333333333333
 40
0.3333333333333333
 40
0.6666666666666666
 40
0.6666666666666666
 40
0.6666666666666666
 40
0.6666666666666666
 40
1.0
 40
1.0
 40
1.0
 40
1.0
 10
1.4479400000000002
 20
4.84321
 30
0.0
 10
1.5012800000000002
 20
4.7898700000000005
 30
0.0
 10
1.3285600000000002
 20
4.4926900000000005
 30
0.0
 10
1.4758800000000001
 20
4.5739700000000001
 30
0.0
 10
1.4758800000000001
 20
4.5739700000000001
 30
0.0
 10
1.27522
 20
4.1345499999999999
 30
0.0
 10
1.0872600000000001
 20
3.6417900000000003
 30
0.0
 10
0.69864
 20
3.3192100000000004
 30
0.0
 10
0.69864
 20
3.3192100000000004
 30
0.0
 10
1.0466200000000001
 20
3.7840300000000004
 30
0.0
 10
1.2066400000000002
 20
4.3326700000000002
 30
0.0
 10
1.4479400000000002
 20
4.84321
 30
0.0
  0
SPLINE
  5
35
100
AcDbEntity
  8
Ebene 1
 62
     7
100
AcDbSpline
210
0.0
220
0.0
230
1.0
 70
     1
 71
     3
 72
    32
 73
    28
 74
     0
 42
0.0000000001
 43
0.0000000001
 40
0.0
 40
0.0
 40
0.0
 40
0.0
 40
0.1428571428571429
 40
0.1428571428571429
 40
0.1428571428571429
 40
0.1428571428571429
 40
0.2857142857142857
 40
0.2857142857142857
 40
0.2857142857142857
 40
0.2857142857142857
 40
0.4285714285714286
 40
0.4285714285714286
 40
0.4285714285714286
 40
0.4285714285714286
 40
0.5714285714285714
 40
0.5714285714285714
 40
0.5714285714285714
 40
0.5714285714285714
 40
0.7142857142857142
 40
0.7142857142857142
 40
0.7142857142857142
 40
0.7142857142857142
 40
0.857142857142857
 40
0.857142857142857
 40
0.857142857142857
 40
0.857142857142857
 40
1.0
 40
1.0
 40
1.0
 40
1.0
 10
-2.7430500000000002
 20
4.6679500000000003
 30
0.0
 10
-2.7430500000000002
 20
4.6679500000000003
 30
0.0
 10
-2.6897100000000003
 20
4.64255
 30
0.0
 10
-2.6897100000000003
 20
4.64255
 30
0.0
 10
-2.6897100000000003
 20
4.64255
 30
0.0
 10
-2.64907
 20
4.0100899999999999
 30
0.0
 10
-2.39507
 20
3.3420700000000001
 30
0.0
 10
-1.9124700000000001
 20
2.9509100000000004
 30
0.0
 10
-1.9124700000000001
 20
2.9509100000000004
 30
0.0
 10
-1.9124700000000001
 20
2.9509100000000004
 30
0.0
 10
-1.8718300000000001
 20
2.8493100000000005
 30
0.0
 10
-1.8718300000000001
 20
2.8493100000000005
 30
0.0
 10
-1.8718300000000001
 20
2.8493100000000005
 30
0.0
 10
-2.0191500000000002
 20
2.9001100000000002
 30
0.0
 10
-2.1004300000000002
 20
3.0728300000000002
 30
0.0
 10
-2.2071100000000001
 20
3.1820500000000003
 30
0.0
 10
-2.2071100000000001
 20
3.1820500000000003
 30
0.0
 10
-2.4357100000000003
 20
3.5274900000000002
 30
0.0
 10
-2.6617700000000002
 20
3.8881700000000001
 30
0.0
 10
-2.7430500000000002
 20
4.3047300000000002
 30
0.0
 10
-2.7430500000000002
 20
4.3047300000000002
 30
0.0
 10
-2.7557500000000004
 20
4.3377500000000007
 30
0.0
 10
-2.7963900000000002
 20
4.2818700000000005
 30
0.0
 10
-2.8116300000000001
 20
4.3199700000000005
 30
0.0
 10
-2.8116300000000001
 20
4.3199700000000005
 30
0.0
 10
-2.8116300000000001
 20
4.4520500000000007
 30
0.0
 10
-2.7709900000000003
 20
4.54603
 30
0.0
 10
-2.7430500000000002
 20
4.6679500000000003
 30
0.0
  0
SPLINE
  5
36
100
AcDbEntity
  8
Ebene 1
 62
     7
100
AcDbSpline
210
0.0
220
0.0
230
1.0
 70
     1
 71
     3
 72
    12
 73
     8
 74
     0
 42
0.0000000001
 43
0.0000000001
 40
0.0
 40
0.0
 40
0.0
 40
0.0
 40
0.5
 40
0.5
 40
0.5
 40
0.5
 40
1.0
 40
1.0
 40
1.0
 40
1.0
 10
2.4918800000000001
 20
4.5612700000000004
 30
0.0
 10
2.4918800000000001
 20
4.5612700000000004
 30
0.0
 10
1.9305400000000001
 20
4.0685100000000007
 30
0.0
 10
1.9305400000000001
 20
4.0685100000000007
 30
0.0
 10
1.9305400000000001
 20
4.0685100000000007
 30
0.0
 10
1.9838800000000001
 20
4.3250500000000001
 30
0.0
 10
2.2785200000000003
 20
4.4749100000000004
 30
0.0
 10
2.4918800000000001
 20
4.5612700000000004
 30
0.0
  0
SPLINE
  5
37
100
AcDbEntity
  8
Ebene 1
 62
     7
100
AcDbSpline
210
0.0
220
0.0
230
1.0
 70
     1
 71
     3
 72
    20
 73
    16
 74
     0
 42
0.0000000001
 43
0.0000000001
 40
0.0
 40
0.0
 40
0.0
 40
0.0
 40
0.25
 40
0.25
 40
0.25
 40
0.25
 40
0.5
 40
0.5
 40
0.5
 40
0.5
 40
0.75
 40
0.75
 40
0.75
 40
0.75
 40
1.0
 40
1.0
 40
1.0
 40
1.0
 10
2.8297000000000003
 20
4.5206300000000006
 30
0.0
 10
2.8830400000000003
 20
4.5231700000000004
 30
0.0
 10
3.0024200000000003
 20
4.5384100000000007
 30
0.0
 10
2.9490800000000004
 20
4.4571300000000003
 30
0.0
 10
2.9490800000000004
 20
4.4571300000000003
 30
0.0
 10
2.7331800000000004
 20
4.4571300000000003
 30
0.0
 10
2.5604600000000004
 20
4.3504500000000004
 30
0.0
 10
2.4004400000000001
 20
4.2437700000000005
 30
0.0
 10
2.4004400000000001
 20
4.2437700000000005
 30
0.0
 10
2.4131400000000003
 20
4.3225100000000003
 30
0.0
 10
2.4918800000000001
 20
4.3529900000000001
 30
0.0
 10
2.5325200000000003
 20
4.4114100000000001
 30
0.0
 10
2.5325200000000003
 20
4.4114100000000001
 30
0.0
 10
2.5325200000000003
 20
4.4114100000000001
 30
0.0
 10
2.8297000000000003
 20
4.5206300000000006
 30
0.0
 10
2.8297000000000003
 20
4.5206300000000006
 30
0.0
  0
SPLINE
  5
38
100
AcDbEntity
  8
Ebene 1
 62
     7
100
AcDbSpline
210
0.0
220
0.0
230
1.0
 70
     1
 71
     3
 72
    16
 73
    12
 74
     0
 42
0.0000000001
 43
0.0000000001
 40
0.0
 40
0.0
 40
0.0
 40
0.0
 40
0.3333333333333333
 40
0.3333333333333333
 40
0.3333333333333333
 40
0.3333333333333333
 40
0.6666666666666666
 40
0.6666666666666666
 40
0.6666666666666666
 40
0.6666666666666666
 40
1.0
 40
1.0
 40
1.0
 40
1.0
 10
3.2437200000000002
 20
4.4012500000000001
 30
0.0
 10
3.2716600000000002
 20
4.3860100000000006
 30
0.0
 10
3.2970600000000001
 20
4.3656900000000007
 30
0.0
 10
3.2970600000000001
 20
4.3377500000000007
 30
0.0
 10
3.2970600000000001
 20
4.3377500000000007
 30
0.0
 10
3.4037400000000004
 20
4.3580700000000006
 30
0.0
 10
3.4037400000000004
 20
4.1777300000000004
 30
0.0
 10
3.3504000000000005
 20
4.1320100000000002
 30
0.0
 10
3.3504000000000005
 20
4.1320100000000002
 30
0.0
 10
3.2970600000000001
 20
4.2056700000000005
 30
0.0
 10
3.1776800000000001
 20
4.3072699999999999
 30
0.0
 10
3.2437200000000002
 20
4.4012500000000001
 30
0.0
  0
SPLINE
  5
39
100
AcDbEntity
  8
Ebene 1
 62
     7
100
AcDbSpline
210
0.0
220
0.0
230
1.0
 70
     1
 71
     3
 72
    44
 73
    40
 74
     0
 42
0.0000000001
 43
0.0000000001
 40
0.0
 40
0.0
 40
0.0
 40
0.0
 40
0.1
 40
0.1
 40
0.1
 40
0.1
 40
0.2
 40
0.2
 40
0.2
 40
0.2
 40
0.3
 40
0.3
 40
0.3
 40
0.3
 40
0.4
 40
0.4
 40
0.4
 40
0.4
 40
0.5
 40
0.5
 40
0.5
 40
0.5
 40
0.6
 40
0.6
 40
0.6
 40
0.6
 40
0.7
 40
0.7
 40
0.7
 40
0.7
 40
0.7999999999999999
 40
0.7999999999999999
 40
0.7999999999999999
 40
0.7999999999999999
 40
0.8999999999999999
 40
0.8999999999999999
 40
0.8999999999999999
 40
0.8999999999999999
 40
1.0
 40
1.0
 40
1.0
 40
1.0
 10
-2.90307
 20
4.3479100000000006
 30
0.0
 10
-2.8497300000000001
 20
4.3377500000000007
 30
0.0
 10
-2.8624300000000003
 20
4.2564700000000002
 30
0.0
 10
-2.8497300000000001
 20
4.2132900000000006
 30
0.0
 10
-2.8497300000000001
 20
4.2132900000000006
 30
0.0
 10
-2.8497300000000001
 20
4.2132900000000006
 30
0.0
 10
-2.8116300000000001
 20
4.2666300000000001
 30
0.0
 10
-2.8116300000000001
 20
4.2666300000000001
 30
0.0
 10
-2.8116300000000001
 20
4.2666300000000001
 30
0.0
 10
-2.7709900000000003
 20
4.2259900000000004
 30
0.0
 10
-2.7557500000000004
 20
4.16249
 30
0.0
 10
-2.7557500000000004
 20
4.0964499999999999
 30
0.0
 10
-2.7557500000000004
 20
4.0964499999999999
 30
0.0
 10
-2.82179
 20
4.0786700000000007
 30
0.0
 10
-2.8497300000000001
 20
4.0304100000000007
 30
0.0
 10
-2.8624300000000003
 20
3.9770700000000003
 30
0.0
 10
-2.8624300000000003
 20
3.9770700000000003
 30
0.0
 10
-2.9843500000000001
 20
3.9999300000000004
 30
0.0
 10
-2.9716500000000003
 20
3.8729300000000002
 30
0.0
 10
-2.9437100000000003
 20
3.8018100000000001
 30
0.0
 10
-2.9437100000000003
 20
3.8018100000000001
 30
0.0
 10
-2.9970500000000002
 20
3.7865700000000002
 30
0.0
 10
-3.0249900000000003
 20
3.7332300000000003
 30
0.0
 10
-3.0376900000000004
 20
3.6900500000000003
 30
0.0
 10
-3.0376900000000004
 20
3.6900500000000003
 30
0.0
 10
-3.0910300000000004
 20
3.8018100000000001
 30
0.0
 10
-3.1037300000000001
 20
3.9567500000000004
 30
0.0
 10
-3.0783300000000002
 20
4.0837500000000002
 30
0.0
 10
-3.0783300000000002
 20
4.0837500000000002
 30
0.0
 10
-3.0783300000000002
 20
4.0939100000000002
 30
0.0
 10
-3.0630900000000003
 20
4.1142300000000001
 30
0.0
 10
-3.0529300000000004
 20
4.1040700000000001
 30
0.0
 10
-3.0529300000000004
 20
4.1040700000000001
 30
0.0
 10
-3.0529300000000004
 20
4.1040700000000001
 30
0.0
 10
-3.0249900000000003
 20
4.0126300000000006
 30
0.0
 10
-3.0249900000000003
 20
4.0126300000000006
 30
0.0
 10
-3.0249900000000003
 20
4.0126300000000006
 30
0.0
 10
-3.0249900000000003
 20
4.0126300000000006
 30
0.0
 10
-2.90307
 20
4.3479100000000006
 30
0.0
 10
-2.90307
 20
4.3479100000000006
 30
0.0
  0
SPLINE
  5
3A
100
AcDbEntity
  8
Ebene 1
 62
     7
100
AcDbSpline
210
0.0
220
0.0
230
1.0
 70
     1
 71
     3
 72
    40
 73
    36
 74
     0
 42
0.0000000001
 43
0.0000000001
 40
0.0
 40
0.0
 40
0.0
 40
0.0
 40
0.1111111111111111
 40
0.1111111111111111
 40
0.1111111111111111
 40
0.1111111111111111
 40
0.2222222222222222
 40
0.2222222222222222
 40
0.2222222222222222
 40
0.2222222222222222
 40
0.3333333333333333
 40
0.3333333333333333
 40
0.3333333333333333
 40
0.3333333333333333
 40
0.4444444444444444
 40
0.4444444444444444
 40
0.4444444444444444
 40
0.4444444444444444
 40
0.5555555555555556
 40
0.5555555555555556
 40
0.5555555555555556
 40
0.5555555555555556
 40
0.6666666666666667
 40
0.6666666666666667
 40
0.6666666666666667
 40
0.6666666666666667
 40
0.7777777777777779
 40
0.7777777777777779
 40
0.7777777777777779
 40
0.7777777777777779
 40
0.8888888888888891
 40
0.8888888888888891
 40
0.8888888888888891
 40
0.8888888888888891
 40
1.0
 40
1.0
 40
1.0
 40
1.0
 10
2.9897200000000002
 20
3.4766900000000005
 30
0.0
 10
2.9897200000000002
 20
3.4766900000000005
 30
0.0
 10
2.9084400000000001
 20
3.4385900000000005
 30
0.0
 10
2.9084400000000001
 20
3.4385900000000005
 30
0.0
 10
2.9084400000000001
 20
3.4385900000000005
 30
0.0
 10
2.7331800000000004
 20
3.7764100000000003
 30
0.0
 10
2.2404200000000003
 20
3.5833700000000004
 30
0.0
 10
1.9711800000000002
 20
3.7027500000000004
 30
0.0
 10
1.9711800000000002
 20
3.7027500000000004
 30
0.0
 10
1.9711800000000002
 20
3.7027500000000004
 30
0.0
 10
2.3191600000000001
 20
3.9821500000000003
 30
0.0
 10
2.3191600000000001
 20
3.9821500000000003
 30
0.0
 10
2.3191600000000001
 20
3.9821500000000003
 30
0.0
 10
2.3191600000000001
 20
3.9821500000000003
 30
0.0
 10
2.3064600000000004
 20
3.9288100000000004
 30
0.0
 10
2.3064600000000004
 20
3.9288100000000004
 30
0.0
 10
2.3064600000000004
 20
3.9288100000000004
 30
0.0
 10
2.3064600000000004
 20
3.9135700000000004
 30
0.0
 10
2.3318600000000003
 20
3.9211900000000002
 30
0.0
 10
2.3471000000000002
 20
3.9186500000000004
 30
0.0
 10
2.3471000000000002
 20
3.9186500000000004
 30
0.0
 10
2.3471000000000002
 20
3.9186500000000004
 30
0.0
 10
2.4410800000000004
 20
3.9415100000000005
 30
0.0
 10
2.4410800000000004
 20
3.9415100000000005
 30
0.0
 10
2.4410800000000004
 20
3.9415100000000005
 30
0.0
 10
2.4004400000000001
 20
3.9008700000000003
 30
0.0
 10
2.3852000000000002
 20
3.8094300000000003
 30
0.0
 10
2.4131400000000003
 20
3.7484700000000002
 30
0.0
 10
2.4131400000000003
 20
3.7484700000000002
 30
0.0
 10
2.6417400000000004
 20
3.7484700000000002
 30
0.0
 10
2.8678000000000003
 20
3.7459300000000004
 30
0.0
 10
3.0151200000000005
 20
3.5706700000000002
 30
0.0
 10
3.0151200000000005
 20
3.5706700000000002
 30
0.0
 10
3.0151200000000005
 20
3.5706700000000002
 30
0.0
 10
2.9897200000000002
 20
3.4766900000000005
 30
0.0
 10
2.9897200000000002
 20
3.4766900000000005
 30
0.0
  0
SPLINE
  5
3B
100
AcDbEntity
  8
Ebene 1
 62
     7
100
AcDbSpline
210
0.0
220
0.0
230
1.0
 70
     1
 71
     3
 72
    52
 73
    48
 74
     0
 42
0.0000000001
 43
0.0000000001
 40
0.0
 40
0.0
 40
0.0
 40
0.0
 40
0.0833333333333333
 40
0.0833333333333333
 40
0.0833333333333333
 40
0.0833333333333333
 40
0.1666666666666667
 40
0.1666666666666667
 40
0.1666666666666667
 40
0.1666666666666667
 40
0.25
 40
0.25
 40
0.25
 40
0.25
 40
0.3333333333333333
 40
0.3333333333333333
 40
0.3333333333333333
 40
0.3333333333333333
 40
0.4166666666666666
 40
0.4166666666666666
 40
0.4166666666666666
 40
0.4166666666666666
 40
0.4999999999999999
 40
0.4999999999999999
 40
0.4999999999999999
 40
0.4999999999999999
 40
0.5833333333333333
 40
0.5833333333333333
 40
0.5833333333333333
 40
0.5833333333333333
 40
0.6666666666666666
 40
0.6666666666666666
 40
0.6666666666666666
 40
0.6666666666666666
 40
0.75
 40
0.75
 40
0.75
 40
0.75
 40
0.8333333333333334
 40
0.8333333333333334
 40
0.8333333333333334
 40
0.8333333333333334
 40
0.9166666666666667
 40
0.9166666666666667
 40
0.9166666666666667
 40
0.9166666666666667
 40
1.0
 40
1.0
 40
1.0
 40
1.0
 10
-1.9658100000000001
 20
3.8526100000000003
 30
0.0
 10
-1.7778500000000002
 20
3.6824300000000001
 30
0.0
 10
-1.8184900000000002
 20
3.3344500000000004
 30
0.0
 10
-1.6051300000000002
 20
3.2125300000000001
 30
0.0
 10
-1.6051300000000002
 20
3.2125300000000001
 30
0.0
 10
-1.67117
 20
3.2963500000000003
 30
0.0
 10
-1.7651500000000002
 20
3.4385900000000005
 30
0.0
 10
-1.7778500000000002
 20
3.5681300000000005
 30
0.0
 10
-1.7778500000000002
 20
3.5681300000000005
 30
0.0
 10
-1.7372100000000001
 20
3.5300300000000004
 30
0.0
 10
-1.5771900000000001
 20
3.3369900000000001
 30
0.0
 10
-1.6178300000000001
 20
3.5147900000000001
 30
0.0
 10
-1.6178300000000001
 20
3.5147900000000001
 30
0.0
 10
-1.63053
 20
3.5605100000000003
 30
0.0
 10
-1.6838700000000002
 20
3.6341700000000001
 30
0.0
 10
-1.6584700000000001
 20
3.6875100000000005
 30
0.0
 10
-1.6584700000000001
 20
3.6875100000000005
 30
0.0
 10
-1.4019300000000001
 20
3.5325700000000002
 30
0.0
 10
-1.29525
 20
3.1820500000000003
 30
0.0
 10
-1.2012700000000001
 20
2.9128100000000003
 30
0.0
 10
-1.2012700000000001
 20
2.9128100000000003
 30
0.0
 10
-1.2698500000000001
 20
2.9382100000000002
 30
0.0
 10
-1.3231900000000001
 20
3.1083900000000004
 30
0.0
 10
-1.37653
 20
3.2049100000000004
 30
0.0
 10
-1.37653
 20
3.2049100000000004
 30
0.0
 10
-1.41717
 20
3.2861900000000004
 30
0.0
 10
-1.41717
 20
3.4106500000000004
 30
0.0
 10
-1.5365500000000001
 20
3.4233500000000001
 30
0.0
 10
-1.5365500000000001
 20
3.4233500000000001
 30
0.0
 10
-1.67117
 20
3.3192100000000004
 30
0.0
 10
-1.4019300000000001
 20
2.8797900000000003
 30
0.0
 10
-1.6584700000000001
 20
3.1464900000000005
 30
0.0
 10
-1.6584700000000001
 20
3.1464900000000005
 30
0.0
 10
-1.6584700000000001
 20
3.1464900000000005
 30
0.0
 10
-1.7118100000000001
 20
3.1947500000000004
 30
0.0
 10
-1.7118100000000001
 20
3.1947500000000004
 30
0.0
 10
-1.7118100000000001
 20
3.1947500000000004
 30
0.0
 10
-1.7118100000000001
 20
3.1947500000000004
 30
0.0
 10
-1.6991100000000001
 20
3.0525100000000003
 30
0.0
 10
-1.6991100000000001
 20
3.0525100000000003
 30
0.0
 10
-1.6991100000000001
 20
3.0525100000000003
 30
0.0
 10
-1.7651500000000002
 20
3.1388700000000003
 30
0.0
 10
-1.9658100000000001
 20
3.4208100000000004
 30
0.0
 10
-1.8057900000000002
 20
3.4182700000000001
 30
0.0
 10
-1.8057900000000002
 20
3.4182700000000001
 30
0.0
 10
-1.9124700000000001
 20
3.5300300000000004
 30
0.0
 10
-1.92517
 20
3.7052900000000002
 30
0.0
 10
-1.9658100000000001
 20
3.8526100000000003
 30
0.0
  0
SPLINE
  5
3C
100
AcDbEntity
  8
Ebene 1
 62
     7
100
AcDbSpline
210
0.0
220
0.0
230
1.0
 70
     1
 71
     3
 72
    16
 73
    12
 74
     0
 42
0.0000000001
 43
0.0000000001
 40
0.0
 40
0.0
 40
0.0
 40
0.0
 40
0.3333333333333333
 40
0.3333333333333333
 40
0.3333333333333333
 40
0.3333333333333333
 40
0.6666666666666666
 40
0.6666666666666666
 40
0.6666666666666666
 40
0.6666666666666666
 40
1.0
 40
1.0
 40
1.0
 40
1.0
 10
-2.9183100000000004
 20
3.4893900000000002
 30
0.0
 10
-2.9437100000000003
 20
3.5427300000000002
 30
0.0
 10
-2.9970500000000002
 20
3.5503500000000003
 30
0.0
 10
-3.0630900000000003
 20
3.5478100000000001
 30
0.0
 10
-3.0630900000000003
 20
3.5478100000000001
 30
0.0
 10
-3.0783300000000002
 20
3.5909900000000001
 30
0.0
 10
-3.1240500000000004
 20
3.6646500000000004
 30
0.0
 10
-3.0783300000000002
 20
3.7002100000000002
 30
0.0
 10
-3.0783300000000002
 20
3.7002100000000002
 30
0.0
 10
-3.0529300000000004
 20
3.6087700000000003
 30
0.0
 10
-2.9183100000000004
 20
3.5935300000000003
 30
0.0
 10
-2.9183100000000004
 20
3.4893900000000002
 30
0.0
  0
SPLINE
  5
3D
100
AcDbEntity
  8
Ebene 1
 62
     7
100
AcDbSpline
210
0.0
220
0.0
230
1.0
 70
     1
 71
     3
 72
    36
 73
    32
 74
     0
 42
0.0000000001
 43
0.0000000001
 40
0.0
 40
0.0
 40
0.0
 40
0.0
 40
0.125
 40
0.125
 40
0.125
 40
0.125
 40
0.25
 40
0.25
 40
0.25
 40
0.25
 40
0.375
 40
0.375
 40
0.375
 40
0.375
 40
0.5
 40
0.5
 40
0.5
 40
0.5
 40
0.625
 40
0.625
 40
0.625
 40
0.625
 40
0.75
 40
0.75
 40
0.75
 40
0.75
 40
0.875
 40
0.875
 40
0.875
 40
0.875
 40
1.0
 40
1.0
 40
1.0
 40
1.0
 10
-2.4738100000000003
 20
3.3700100000000002
 30
0.0
 10
-2.4738100000000003
 20
3.3700100000000002
 30
0.0
 10
-2.4484100000000004
 20
3.3192100000000004
 30
0.0
 10
-2.4484100000000004
 20
3.3192100000000004
 30
0.0
 10
-2.4484100000000004
 20
3.3192100000000004
 30
0.0
 10
-2.4484100000000004
 20
3.3192100000000004
 30
0.0
 10
-2.39507
 20
3.3268300000000002
 30
0.0
 10
-2.39507
 20
3.3268300000000002
 30
0.0
 10
-2.39507
 20
3.3268300000000002
 30
0.0
 10
-2.39507
 20
3.3268300000000002
 30
0.0
 10
-2.1004300000000002
 20
2.9813900000000002
 30
0.0
 10
-2.1004300000000002
 20
2.9813900000000002
 30
0.0
 10
-2.1004300000000002
 20
2.9813900000000002
 30
0.0
 10
-2.1664700000000003
 20
3.0093300000000003
 30
0.0
 10
-2.19441
 20
2.9610700000000003
 30
0.0
 10
-2.1664700000000003
 20
2.9001100000000002
 30
0.0
 10
-2.1664700000000003
 20
2.9001100000000002
 30
0.0
 10
-2.3823700000000003
 20
3.0525100000000003
 30
0.0
 10
-2.5423900000000001
 20
3.2734900000000002
 30
0.0
 10
-2.7151100000000001
 20
3.4792300000000003
 30
0.0
 10
-2.7151100000000001
 20
3.4792300000000003
 30
0.0
 10
-2.6770100000000001
 20
3.4868500000000004
 30
0.0
 10
-2.6617700000000002
 20
3.5147900000000001
 30
0.0
 10
-2.6770100000000001
 20
3.5554300000000003
 30
0.0
 10
-2.6770100000000001
 20
3.5554300000000003
 30
0.0
 10
-2.64907
 20
3.5478100000000001
 30
0.0
 10
-2.6363700000000003
 20
3.5198700000000005
 30
0.0
 10
-2.6363700000000003
 20
3.4944700000000002
 30
0.0
 10
-2.6363700000000003
 20
3.4944700000000002
 30
0.0
 10
-2.6363700000000003
 20
3.4944700000000002
 30
0.0
 10
-2.4738100000000003
 20
3.3700100000000002
 30
0.0
 10
-2.4738100000000003
 20
3.3700100000000002
 30
0.0
  0
SPLINE
  5
3E
100
AcDbEntity
  8
Ebene 1
 62
     7
100
AcDbSpline
210
0.0
220
0.0
230
1.0
 70
     1
 71
     3
 72
    20
 73
    16
 74
     0
 42
0.0000000001
 43
0.0000000001
 40
0.0
 40
0.0
 40
0.0
 40
0.0
 40
0.25
 40
0.25
 40
0.25
 40
0.25
 40
0.5
 40
0.5
 40
0.5
 40
0.5
 40
0.75
 40
0.75
 40
0.75
 40
0.75
 40
1.0
 40
1.0
 40
1.0
 40
1.0
 10
0.49798
 20
3.5554300000000003
 30
0.0
 10
0.51068
 20
3.5554300000000003
 30
0.0
 10
0.5233800000000001
 20
3.5579700000000001
 30
0.0
 10
0.5233800000000001
 20
3.5427300000000002
 30
0.0
 10
0.5233800000000001
 20
3.5427300000000002
 30
0.0
 10
0.4421000000000001
 20
3.4055700000000004
 30
0.0
 10
0.32272
 20
3.2506300000000001
 30
0.0
 10
0.21604
 20
3.1185500000000004
 30
0.0
 10
0.21604
 20
3.1185500000000004
 30
0.0
 10
0.21604
 20
3.1185500000000004
 30
0.0
 10
0.15
 20
3.1185500000000004
 30
0.0
 10
0.15
 20
3.1185500000000004
 30
0.0
 10
0.15
 20
3.1185500000000004
 30
0.0
 10
0.1627
 20
3.3293700000000004
 30
0.0
 10
0.3887600000000001
 20
3.3979500000000002
 30
0.0
 10
0.49798
 20
3.5554300000000003
 30
0.0
  0
SPLINE
  5
3F
100
AcDbEntity
  8
Ebene 1
 62
     7
100
AcDbSpline
210
0.0
220
0.0
230
1.0
 70
     1
 71
     3
 72
    32
 73
    28
 74
     0
 42
0.0000000001
 43
0.0000000001
 40
0.0
 40
0.0
 40
0.0
 40
0.0
 40
0.1428571428571429
 40
0.1428571428571429
 40
0.1428571428571429
 40
0.1428571428571429
 40
0.2857142857142857
 40
0.2857142857142857
 40
0.2857142857142857
 40
0.2857142857142857
 40
0.4285714285714286
 40
0.4285714285714286
 40
0.4285714285714286
 40
0.4285714285714286
 40
0.5714285714285714
 40
0.5714285714285714
 40
0.5714285714285714
 40
0.5714285714285714
 40
0.7142857142857142
 40
0.7142857142857142
 40
0.7142857142857142
 40
0.7142857142857142
 40
0.857142857142857
 40
0.857142857142857
 40
0.857142857142857
 40
0.857142857142857
 40
1.0
 40
1.0
 40
1.0
 40
1.0
 10
1.9305400000000001
 20
3.5427300000000002
 30
0.0
 10
1.9305400000000001
 20
3.5427300000000002
 30
0.0
 10
2.1312000000000002
 20
3.5020900000000004
 30
0.0
 10
2.1312000000000002
 20
3.5020900000000004
 30
0.0
 10
2.1312000000000002
 20
3.5020900000000004
 30
0.0
 10
2.1312000000000002
 20
3.5020900000000004
 30
0.0
 10
2.3064600000000004
 20
3.4360500000000003
 30
0.0
 10
2.3064600000000004
 20
3.4360500000000003
 30
0.0
 10
2.3064600000000004
 20
3.4360500000000003
 30
0.0
 10
2.3191600000000001
 20
3.4233500000000001
 30
0.0
 10
2.3725000000000001
 20
3.4182700000000001
 30
0.0
 10
2.3598000000000003
 20
3.3852500000000001
 30
0.0
 10
2.3598000000000003
 20
3.3852500000000001
 30
0.0
 10
2.3598000000000003
 20
3.3852500000000001
 30
0.0
 10
2.29122
 20
3.3700100000000002
 30
0.0
 10
2.29122
 20
3.3700100000000002
 30
0.0
 10
2.29122
 20
3.3700100000000002
 30
0.0
 10
2.1058000000000003
 20
3.4970100000000004
 30
0.0
 10
1.8899000000000001
 20
3.4436700000000005
 30
0.0
 10
1.6765400000000001
 20
3.4385900000000005
 30
0.0
 10
1.6765400000000001
 20
3.4385900000000005
 30
0.0
 10
1.7019400000000002
 20
3.4538300000000004
 30
0.0
 10
1.7425800000000002
 20
3.5122500000000003
 30
0.0
 10
1.7832200000000002
 20
3.4792300000000003
 30
0.0
 10
1.7832200000000002
 20
3.4792300000000003
 30
0.0
 10
1.7832200000000002
 20
3.4792300000000003
 30
0.0
 10
1.9305400000000001
 20
3.5427300000000002
 30
0.0
 10
1.9305400000000001
 20
3.5427300000000002
 30
0.0
  0
SPLINE
  5
40
100
AcDbEntity
  8
Ebene 1
 62
     7
100
AcDbSpline
210
0.0
220
0.0
230
1.0
 70
     1
 71
     3
 72
    20
 73
    16
 74
     0
 42
0.0000000001
 43
0.0000000001
 40
0.0
 40
0.0
 40
0.0
 40
0.0
 40
0.25
 40
0.25
 40
0.25
 40
0.25
 40
0.5
 40
0.5
 40
0.5
 40
0.5
 40
0.75
 40
0.75
 40
0.75
 40
0.75
 40
1.0
 40
1.0
 40
1.0
 40
1.0
 10
-2.7151100000000001
 20
3.4233500000000001
 30
0.0
 10
-2.7151100000000001
 20
3.4233500000000001
 30
0.0
 10
-2.3417300000000001
 20
2.9966300000000001
 30
0.0
 10
-2.3417300000000001
 20
2.9966300000000001
 30
0.0
 10
-2.3417300000000001
 20
2.9966300000000001
 30
0.0
 10
-2.5144500000000001
 20
3.0702900000000004
 30
0.0
 10
-2.7430500000000002
 20
3.1566500000000004
 30
0.0
 10
-2.7836900000000004
 20
3.3674700000000004
 30
0.0
 10
-2.7836900000000004
 20
3.3674700000000004
 30
0.0
 10
-2.7557500000000004
 20
3.3623900000000004
 30
0.0
 10
-2.7151100000000001
 20
3.3217500000000002
 30
0.0
 10
-2.7024100000000004
 20
3.3547700000000003
 30
0.0
 10
-2.7024100000000004
 20
3.3547700000000003
 30
0.0
 10
-2.7151100000000001
 20
3.3750900000000001
 30
0.0
 10
-2.7151100000000001
 20
3.3979500000000002
 30
0.0
 10
-2.7151100000000001
 20
3.4233500000000001
 30
0.0
  0
SPLINE
  5
41
100
AcDbEntity
  8
Ebene 1
 62
     7
100
AcDbSpline
210
0.0
220
0.0
230
1.0
 70
     1
 71
     3
 72
    20
 73
    16
 74
     0
 42
0.0000000001
 43
0.0000000001
 40
0.0
 40
0.0
 40
0.0
 40
0.0
 40
0.25
 40
0.25
 40
0.25
 40
0.25
 40
0.5
 40
0.5
 40
0.5
 40
0.5
 40
0.75
 40
0.75
 40
0.75
 40
0.75
 40
1.0
 40
1.0
 40
1.0
 40
1.0
 10
1.8772000000000002
 20
2.2016100000000001
 30
0.0
 10
1.9305400000000001
 20
2.2397100000000001
 30
0.0
 10
1.8365600000000002
 20
2.2752700000000003
 30
0.0
 10
1.8772000000000002
 20
2.3082900000000004
 30
0.0
 10
1.8772000000000002
 20
2.3082900000000004
 30
0.0
 10
2.3725000000000001
 20
2.5699100000000001
 30
0.0
 10
2.9490800000000004
 20
2.8569300000000002
 30
0.0
 10
3.1903800000000002
 20
3.3928700000000003
 30
0.0
 10
3.1903800000000002
 20
3.3928700000000003
 30
0.0
 10
3.1903800000000002
 20
3.3928700000000003
 30
0.0
 10
3.2716600000000002
 20
3.4182700000000001
 30
0.0
 10
3.2716600000000002
 20
3.4182700000000001
 30
0.0
 10
3.2716600000000002
 20
3.4182700000000001
 30
0.0
 10
3.0430600000000001
 20
2.8086700000000002
 30
0.0
 10
2.4410800000000004
 20
2.4505300000000001
 30
0.0
 10
1.8772000000000002
 20
2.2016100000000001
 30
0.0
  0
SPLINE
  5
42
100
AcDbEntity
  8
Ebene 1
 62
     7
100
AcDbSpline
210
0.0
220
0.0
230
1.0
 70
     1
 71
     3
 72
    32
 73
    28
 74
     0
 42
0.0000000001
 43
0.0000000001
 40
0.0
 40
0.0
 40
0.0
 40
0.0
 40
0.1428571428571429
 40
0.1428571428571429
 40
0.1428571428571429
 40
0.1428571428571429
 40
0.2857142857142857
 40
0.2857142857142857
 40
0.2857142857142857
 40
0.2857142857142857
 40
0.4285714285714286
 40
0.4285714285714286
 40
0.4285714285714286
 40
0.4285714285714286
 40
0.5714285714285714
 40
0.5714285714285714
 40
0.5714285714285714
 40
0.5714285714285714
 40
0.7142857142857142
 40
0.7142857142857142
 40
0.7142857142857142
 40
0.7142857142857142
 40
0.857142857142857
 40
0.857142857142857
 40
0.857142857142857
 40
0.857142857142857
 40
1.0
 40
1.0
 40
1.0
 40
1.0
 10
1.9178400000000002
 20
3.3420700000000001
 30
0.0
 10
2.09056
 20
3.3598500000000002
 30
0.0
 10
2.4131400000000003
 20
3.2811100000000004
 30
0.0
 10
2.3064600000000004
 20
3.0474300000000003
 30
0.0
 10
2.3064600000000004
 20
3.0474300000000003
 30
0.0
 10
2.29122
 20
2.9356700000000004
 30
0.0
 10
2.3471000000000002
 20
3.0779100000000001
 30
0.0
 10
2.4004400000000001
 20
3.0448900000000001
 30
0.0
 10
2.4004400000000001
 20
3.0448900000000001
 30
0.0
 10
2.25312
 20
2.5216500000000002
 30
0.0
 10
1.6105
 20
2.3870300000000002
 30
0.0
 10
1.1660000000000001
 20
2.1939900000000003
 30
0.0
 10
1.1660000000000001
 20
2.1939900000000003
 30
0.0
 10
1.05932
 20
2.4251300000000002
 30
0.0
 10
1.1533
 20
2.6943700000000002
 30
0.0
 10
1.27522
 20
2.88741
 30
0.0
 10
1.27522
 20
2.88741
 30
0.0
 10
1.2879200000000002
 20
2.9077300000000004
 30
0.0
 10
1.3412600000000001
 20
2.9483700000000002
 30
0.0
 10
1.31332
 20
2.8975700000000004
 30
0.0
 10
1.31332
 20
2.8975700000000004
 30
0.0
 10
1.31332
 20
2.8747100000000003
 30
0.0
 10
1.2879200000000002
 20
2.8315300000000003
 30
0.0
 10
1.31332
 20
2.8188300000000002
 30
0.0
 10
1.31332
 20
2.8188300000000002
 30
0.0
 10
1.4606400000000002
 20
3.0448900000000001
 30
0.0
 10
1.6613000000000002
 20
3.2734900000000002
 30
0.0
 10
1.9178400000000002
 20
3.3420700000000001
 30
0.0
  0
SPLINE
  5
43
100
AcDbEntity
  8
Ebene 1
 62
     7
100
AcDbSpline
210
0.0
220
0.0
230
1.0
 70
     1
 71
     3
 72
    16
 73
    12
 74
     0
 42
0.0000000001
 43
0.0000000001
 40
0.0
 40
0.0
 40
0.0
 40
0.0
 40
0.3333333333333333
 40
0.3333333333333333
 40
0.3333333333333333
 40
0.3333333333333333
 40
0.6666666666666666
 40
0.6666666666666666
 40
0.6666666666666666
 40
0.6666666666666666
 40
1.0
 40
1.0
 40
1.0
 40
1.0
 10
-2.8776700000000002
 20
2.9940900000000004
 30
0.0
 10
-2.7430500000000002
 20
2.9940900000000004
 30
0.0
 10
-2.6617700000000002
 20
2.8899500000000002
 30
0.0
 10
-2.5830300000000004
 20
2.8239100000000001
 30
0.0
 10
-2.5830300000000004
 20
2.8239100000000001
 30
0.0
 10
-2.6617700000000002
 20
2.8340700000000001
 30
0.0
 10
-2.8370300000000004
 20
2.7654900000000002
 30
0.0
 10
-2.82179
 20
2.8975700000000004
 30
0.0
 10
-2.82179
 20
2.8975700000000004
 30
0.0
 10
-2.8776700000000002
 20
2.8924900000000004
 30
0.0
 10
-2.8903700000000003
 20
2.9636100000000001
 30
0.0
 10
-2.8776700000000002
 20
2.9940900000000004
 30
0.0
  0
SPLINE
  5
44
100
AcDbEntity
  8
Ebene 1
 62
     7
100
AcDbSpline
210
0.0
220
0.0
230
1.0
 70
     1
 71
     3
 72
    20
 73
    16
 74
     0
 42
0.0000000001
 43
0.0000000001
 40
0.0
 40
0.0
 40
0.0
 40
0.0
 40
0.25
 40
0.25
 40
0.25
 40
0.25
 40
0.5
 40
0.5
 40
0.5
 40
0.5
 40
0.75
 40
0.75
 40
0.75
 40
0.75
 40
1.0
 40
1.0
 40
1.0
 40
1.0
 10
-3.3043900000000002
 20
2.9661500000000003
 30
0.0
 10
-3.0630900000000003
 20
2.6842100000000002
 30
0.0
 10
-2.6617700000000002
 20
2.7985100000000003
 30
0.0
 10
-2.3417300000000001
 20
2.6842100000000002
 30
0.0
 10
-2.3417300000000001
 20
2.6842100000000002
 30
0.0
 10
-2.5830300000000004
 20
2.7096100000000001
 30
0.0
 10
-2.8497300000000001
 20
2.5064100000000002
 30
0.0
 10
-3.0376900000000004
 20
2.6715100000000001
 30
0.0
 10
-3.0376900000000004
 20
2.6715100000000001
 30
0.0
 10
-3.0376900000000004
 20
2.6715100000000001
 30
0.0
 10
-3.1418300000000001
 20
2.6080100000000002
 30
0.0
 10
-3.1418300000000001
 20
2.6080100000000002
 30
0.0
 10
-3.1418300000000001
 20
2.6080100000000002
 30
0.0
 10
-3.1342100000000004
 20
2.7553300000000003
 30
0.0
 10
-3.2713700000000001
 20
2.8239100000000001
 30
0.0
 10
-3.3043900000000002
 20
2.9661500000000003
 30
0.0
  0
SPLINE
  5
45
100
AcDbEntity
  8
Ebene 1
 62
     7
100
AcDbSpline
210
0.0
220
0.0
230
1.0
 70
     1
 71
     3
 72
    12
 73
     8
 74
     0
 42
0.0000000001
 43
0.0000000001
 40
0.0
 40
0.0
 40
0.0
 40
0.0
 40
0.5
 40
0.5
 40
0.5
 40
0.5
 40
1.0
 40
1.0
 40
1.0
 40
1.0
 10
1.1279000000000001
 20
2.80613
 30
0.0
 10
1.19394
 20
2.7731100000000004
 30
0.0
 10
1.0872600000000001
 20
2.6689700000000003
 30
0.0
 10
1.0339200000000002
 20
2.6638900000000003
 30
0.0
 10
1.0339200000000002
 20
2.6638900000000003
 30
0.0
 10
1.0339200000000002
 20
2.6638900000000003
 30
0.0
 10
1.1279000000000001
 20
2.80613
 30
0.0
 10
1.1279000000000001
 20
2.80613
 30
0.0
  0
SPLINE
  5
46
100
AcDbEntity
  8
Ebene 1
 62
     7
100
AcDbSpline
210
0.0
220
0.0
230
1.0
 70
     1
 71
     3
 72
   148
 73
   144
 74
     0
 42
0.0000000001
 43
0.0000000001
 40
0.0
 40
0.0
 40
0.0
 40
0.0
 40
0.0277777777777778
 40
0.0277777777777778
 40
0.0277777777777778
 40
0.0277777777777778
 40
0.0555555555555556
 40
0.0555555555555556
 40
0.0555555555555556
 40
0.0555555555555556
 40
0.0833333333333333
 40
0.0833333333333333
 40
0.0833333333333333
 40
0.0833333333333333
 40
0.1111111111111111
 40
0.1111111111111111
 40
0.1111111111111111
 40
0.1111111111111111
 40
0.1388888888888889
 40
0.1388888888888889
 40
0.1388888888888889
 40
0.1388888888888889
 40
0.1666666666666667
 40
0.1666666666666667
 40
0.1666666666666667
 40
0.1666666666666667
 40
0.1944444444444445
 40
0.1944444444444445
 40
0.1944444444444445
 40
0.1944444444444445
 40
0.2222222222222223
 40
0.2222222222222223
 40
0.2222222222222223
 40
0.2222222222222223
 40
0.2500000000000001
 40
0.2500000000000001
 40
0.2500000000000001
 40
0.2500000000000001
 40
0.2777777777777779
 40
0.2777777777777779
 40
0.2777777777777779
 40
0.2777777777777779
 40
0.3055555555555556
 40
0.3055555555555556
 40
0.3055555555555556
 40
0.3055555555555556
 40
0.3333333333333334
 40
0.3333333333333334
 40
0.3333333333333334
 40
0.3333333333333334
 40
0.3611111111111112
 40
0.3611111111111112
 40
0.3611111111111112
 40
0.3611111111111112
 40
0.388888888888889
 40
0.388888888888889
 40
0.388888888888889
 40
0.388888888888889
 40
0.4166666666666668
 40
0.4166666666666668
 40
0.4166666666666668
 40
0.4166666666666668
 40
0.4444444444444446
 40
0.4444444444444446
 40
0.4444444444444446
 40
0.4444444444444446
 40
0.4722222222222224
 40
0.4722222222222224
 40
0.4722222222222224
 40
0.4722222222222224
 40
0.5000000000000001
 40
0.5000000000000001
 40
0.5000000000000001
 40
0.5000000000000001
 40
0.5277777777777779
 40
0.5277777777777779
 40
0.5277777777777779
 40
0.5277777777777779
 40
0.5555555555555557
 40
0.5555555555555557
 40
0.5555555555555557
 40
0.5555555555555557
 40
0.5833333333333335
 40
0.5833333333333335
 40
0.5833333333333335
 40
0.5833333333333335
 40
0.6111111111111113
 40
0.6111111111111113
 40
0.6111111111111113
 40
0.6111111111111113
 40
0.6388888888888891
 40
0.6388888888888891
 40
0.6388888888888891
 40
0.6388888888888891
 40
0.6666666666666669
 40
0.6666666666666669
 40
0.6666666666666669
 40
0.6666666666666669
 40
0.6944444444444446
 40
0.6944444444444446
 40
0.6944444444444446
 40
0.6944444444444446
 40
0.7222222222222224
 40
0.7222222222222224
 40
0.7222222222222224
 40
0.7222222222222224
 40
0.7500000000000002
 40
0.7500000000000002
 40
0.7500000000000002
 40
0.7500000000000002
 40
0.777777777777778
 40
0.777777777777778
 40
0.777777777777778
 40
0.777777777777778
 40
0.8055555555555558
 40
0.8055555555555558
 40
0.8055555555555558
 40
0.8055555555555558
 40
0.8333333333333336
 40
0.8333333333333336
 40
0.8333333333333336
 40
0.8333333333333336
 40
0.8611111111111114
 40
0.8611111111111114
 40
0.8611111111111114
 40
0.8611111111111114
 40
0.8888888888888892
 40
0.8888888888888892
 40
0.8888888888888892
 40
0.8888888888888892
 40
0.916666666666667
 40
0.916666666666667
 40
0.916666666666667
 40
0.916666666666667
 40
0.9444444444444448
 40
0.9444444444444448
 40
0.9444444444444448
 40
0.9444444444444448
 40
0.9722222222222225
 40
0.9722222222222225
 40
0.9722222222222225
 40
0.9722222222222225
 40
1.0
 40
1.0
 40
1.0
 40
1.0
 10
0.57672
 20
2.6461100000000002
 30
0.0
 10
0.5386200000000001
 20
2.4911700000000003
 30
0.0
 10
0.49798
 20
2.2320900000000004
 30
0.0
 10
0.6046600000000001
 20
2.50895
 30
0.0
 10
0.6046600000000001
 20
2.50895
 30
0.0
 10
0.69864
 20
2.6689700000000003
 30
0.0
 10
0.8993000000000001
 20
2.8112100000000004
 30
0.0
 10
0.7799200000000001
 20
2.5292700000000004
 30
0.0
 10
0.7799200000000001
 20
2.5292700000000004
 30
0.0
 10
0.7799200000000001
 20
2.5292700000000004
 30
0.0
 10
1.0059800000000001
 20
2.7908900000000001
 30
0.0
 10
1.0059800000000001
 20
2.7908900000000001
 30
0.0
 10
1.0059800000000001
 20
2.7908900000000001
 30
0.0
 10
0.9399400000000001
 20
2.5673700000000004
 30
0.0
 10
1.0720200000000002
 20
2.3641700000000001
 30
0.0
 10
1.0720200000000002
 20
2.1406500000000004
 30
0.0
 10
1.0720200000000002
 20
2.1406500000000004
 30
0.0
 10
-0.52563
 20
1.65551
 30
0.0
 10
-2.4992100000000002
 20
1.1271900000000001
 30
0.0
 10
-3.5863300000000002
 20
1.8536300000000001
 30
0.0
 10
-3.5863300000000002
 20
1.8536300000000001
 30
0.0
 10
-3.3196300000000001
 20
1.7418700000000003
 30
0.0
 10
-3.4872700000000001
 20
1.9958700000000003
 30
0.0
 10
-3.4136100000000003
 20
2.1762100000000002
 30
0.0
 10
-3.4136100000000003
 20
2.1762100000000002
 30
0.0
 10
-3.4059900000000001
 20
2.2346300000000001
 30
0.0
 10
-3.2561300000000002
 20
1.4980300000000002
 30
0.0
 10
-3.2916900000000004
 20
1.9349100000000001
 30
0.0
 10
-3.2916900000000004
 20
1.9349100000000001
 30
0.0
 10
-3.2967700000000004
 20
1.9780900000000001
 30
0.0
 10
-3.2612100000000002
 20
1.9577700000000002
 30
0.0
 10
-3.2561300000000002
 20
1.9323700000000001
 30
0.0
 10
-3.2561300000000002
 20
1.9323700000000001
 30
0.0
 10
-3.1951700000000001
 20
1.8053700000000001
 30
0.0
 10
-3.0783300000000002
 20
1.6301100000000002
 30
0.0
 10
-2.9183100000000004
 20
1.6402700000000001
 30
0.0
 10
-2.9183100000000004
 20
1.6402700000000001
 30
0.0
 10
-2.86497
 20
1.6783700000000001
 30
0.0
 10
-2.7836900000000004
 20
1.7240900000000001
 30
0.0
 10
-2.7709900000000003
 20
1.7977500000000002
 30
0.0
 10
-2.7709900000000003
 20
1.7977500000000002
 30
0.0
 10
-2.8497300000000001
 20
1.7571100000000002
 30
0.0
 10
-2.9716500000000003
 20
1.6478900000000001
 30
0.0
 10
-3.0783300000000002
 20
1.7520300000000002
 30
0.0
 10
-3.0783300000000002
 20
1.7520300000000002
 30
0.0
 10
-3.1672300000000004
 20
1.8739500000000002
 30
0.0
 10
-3.2231100000000001
 20
2.0288900000000001
 30
0.0
 10
-3.1469100000000001
 20
2.1660500000000003
 30
0.0
 10
-3.1469100000000001
 20
2.1660500000000003
 30
0.0
 10
-3.1418300000000001
 20
2.2092300000000002
 30
0.0
 10
-3.1291300000000004
 20
2.2955900000000002
 30
0.0
 10
-3.0630900000000003
 20
2.2803500000000003
 30
0.0
 10
-3.0630900000000003
 20
2.2803500000000003
 30
0.0
 10
-3.1240500000000004
 20
2.00603
 30
0.0
 10
-2.7024100000000004
 20
1.6428100000000001
 30
0.0
 10
-2.5423900000000001
 20
1.9095100000000003
 30
0.0
 10
-2.5423900000000001
 20
1.9095100000000003
 30
0.0
 10
-2.7836900000000004
 20
1.7571100000000002
 30
0.0
 10
-3.0376900000000004
 20
2.26003
 30
0.0
 10
-2.7836900000000004
 20
2.29813
 30
0.0
 10
-2.7836900000000004
 20
2.29813
 30
0.0
 10
-2.52969
 20
2.2727300000000001
 30
0.0
 10
-2.2198100000000003
 20
1.7494900000000002
 30
0.0
 10
-2.2604500000000001
 20
2.1609700000000003
 30
0.0
 10
-2.2604500000000001
 20
2.1609700000000003
 30
0.0
 10
-2.1664700000000003
 20
2.2320900000000004
 30
0.0
 10
-2.1537700000000002
 20
2.0136500000000002
 30
0.0
 10
-2.1004300000000002
 20
1.9603100000000002
 30
0.0
 10
-2.1004300000000002
 20
1.9603100000000002
 30
0.0
 10
-2.0191500000000002
 20
2.1152500000000001
 30
0.0
 10
-2.11313
 20
2.2828900000000001
 30
0.0
 10
-2.0191500000000002
 20
2.42767
 30
0.0
 10
-2.0191500000000002
 20
2.42767
 30
0.0
 10
-1.9531100000000001
 20
2.3641700000000001
 30
0.0
 10
-1.9124700000000001
 20
2.2651100000000004
 30
0.0
 10
-1.8845300000000003
 20
2.1762100000000002
 30
0.0
 10
-1.8845300000000003
 20
2.1762100000000002
 30
0.0
 10
-1.7905500000000001
 20
2.13557
 30
0.0
 10
-1.8845300000000003
 20
2.4835500000000001
 30
0.0
 10
-1.9658100000000001
 20
2.5749900000000001
 30
0.0
 10
-1.9658100000000001
 20
2.5749900000000001
 30
0.0
 10
-1.8464300000000002
 20
2.51403
 30
0.0
 10
-1.7524500000000001
 20
2.25495
 30
0.0
 10
-1.6991100000000001
 20
2.21685
 30
0.0
 10
-1.6991100000000001
 20
2.21685
 30
0.0
 10
-1.7651500000000002
 20
2.5394300000000003
 30
0.0
 10
-1.6051300000000002
 20
2.2752700000000003
 30
0.0
 10
-1.6051300000000002
 20
2.1101700000000001
 30
0.0
 10
-1.6051300000000002
 20
2.1101700000000001
 30
0.0
 10
-1.5644900000000002
 20
1.9907900000000001
 30
0.0
 10
-1.5238500000000001
 20
2.26003
 30
0.0
 10
-1.5111500000000002
 20
2.29813
 30
0.0
 10
-1.5111500000000002
 20
2.29813
 30
0.0
 10
-1.4019300000000001
 20
2.4632300000000003
 30
0.0
 10
-1.46289
 20
2.1406500000000004
 30
0.0
 10
-1.46035
 20
2.0796900000000003
 30
0.0
 10
-1.46035
 20
2.0796900000000003
 30
0.0
 10
-1.4527300000000001
 20
1.8587100000000001
 30
0.0
 10
-1.4781300000000002
 20
1.8104500000000001
 30
0.0
 10
-1.25461
 20
1.7215500000000001
 30
0.0
 10
-1.25461
 20
1.7215500000000001
 30
0.0
 10
-1.2698500000000001
 20
1.8714100000000002
 30
0.0
 10
-1.41717
 20
2.0898500000000002
 30
0.0
 10
-1.3511300000000002
 20
2.2676500000000002
 30
0.0
 10
-1.3511300000000002
 20
2.2676500000000002
 30
0.0
 10
-1.2419100000000001
 20
1.8866500000000002
 30
0.0
 10
-1.0539500000000002
 20
2.3667100000000003
 30
0.0
 10
-0.9345700000000001
 20
2.5241900000000004
 30
0.0
 10
-0.9345700000000001
 20
2.5241900000000004
 30
0.0
 10
-0.9345700000000001
 20
2.5241900000000004
 30
0.0
 10
-0.9472700000000001
 20
2.42259
 30
0.0
 10
-0.9472700000000001
 20
2.42259
 30
0.0
 10
-0.9472700000000001
 20
2.42259
 30
0.0
 10
-0.9472700000000001
 20
2.42259
 30
0.0
 10
-0.8126500000000001
 20
2.4810100000000004
 30
0.0
 10
-0.8126500000000001
 20
2.4810100000000004
 30
0.0
 10
-0.8126500000000001
 20
2.4810100000000004
 30
0.0
 10
-0.82789
 20
2.1508100000000003
 30
0.0
 10
-0.75931
 20
2.1431900000000002
 30
0.0
 10
-0.68057
 20
1.9095100000000003
 30
0.0
 10
-0.68057
 20
1.9095100000000003
 30
0.0
 10
-0.68057
 20
1.9095100000000003
 30
0.0
 10
-0.23861
 20
2.6029300000000002
 30
0.0
 10
-0.23861
 20
2.6029300000000002
 30
0.0
 10
-0.23861
 20
2.6029300000000002
 30
0.0
 10
-0.22337
 20
2.42767
 30
0.0
 10
-0.3859300000000001
 20
2.1406500000000004
 30
0.0
 10
-0.26401
 20
2.0568300000000002
 30
0.0
 10
-0.26401
 20
2.0568300000000002
 30
0.0
 10
-0.21067
 20
2.2193900000000002
 30
0.0
 10
0.06872
 20
2.6283300000000001
 30
0.0
 10
0.02808
 20
2.2422500000000003
 30
0.0
 10
0.02808
 20
2.2422500000000003
 30
0.0
 10
0.06872
 20
2.3921100000000002
 30
0.0
 10
0.1881
 20
2.5343500000000003
 30
0.0
 10
0.29732
 20
2.6562700000000001
 30
0.0
 10
0.29732
 20
2.6562700000000001
 30
0.0
 10
0.29732
 20
2.5368900000000001
 30
0.0
 10
0.2008
 20
2.3311500000000001
 30
0.0
 10
0.35066
 20
2.3286100000000003
 30
0.0
 10
0.35066
 20
2.3286100000000003
 30
0.0
 10
0.36336
 20
2.46577
 30
0.0
 10
0.45734
 20
2.5826100000000003
 30
0.0
 10
0.57672
 20
2.6461100000000002
 30
0.0
  0
SPLINE
  5
47
100
AcDbEntity
  8
Ebene 1
 62
     7
100
AcDbSpline
210
0.0
220
0.0
230
1.0
 70
     1
 71
     3
 72
     8
 73
     4
 74
     0
 42
0.0000000001
 43
0.0000000001
 40
0.0
 40
0.0
 40
0.0
 40
0.0
 40
1.0
 40
1.0
 40
1.0
 40
1.0
 10
0.57672
 20
2.6461100000000002
 30
0.0
 10
0.57672
 20
2.6715100000000001
 30
0.0
 10
0.6046600000000001
 20
2.6435700000000004
 30
0.0
 10
0.57672
 20
2.6461100000000002
 30
0.0
  0
SPLINE
  5
48
100
AcDbEntity
  8
Ebene 1
 62
     7
100
AcDbSpline
210
0.0
220
0.0
230
1.0
 70
     1
 71
     3
 72
    28
 73
    24
 74
     0
 42
0.0000000001
 43
0.0000000001
 40
0.0
 40
0.0
 40
0.0
 40
0.0
 40
0.1666666666666667
 40
0.1666666666666667
 40
0.1666666666666667
 40
0.1666666666666667
 40
0.3333333333333333
 40
0.3333333333333333
 40
0.3333333333333333
 40
0.3333333333333333
 40
0.5
 40
0.5
 40
0.5
 40
0.5
 40
0.6666666666666666
 40
0.6666666666666666
 40
0.6666666666666666
 40
0.6666666666666666
 40
0.8333333333333333
 40
0.8333333333333333
 40
0.8333333333333333
 40
0.8333333333333333
 40
1.0
 40
1.0
 40
1.0
 40
1.0
 10
3.2157800000000001
 20
2.6054700000000004
 30
0.0
 10
3.2437200000000002
 20
2.5927700000000002
 30
0.0
 10
3.2970600000000001
 20
2.5851500000000001
 30
0.0
 10
3.2970600000000001
 20
2.55213
 30
0.0
 10
3.2970600000000001
 20
2.55213
 30
0.0
 10
2.9363800000000002
 20
2.2193900000000002
 30
0.0
 10
2.5325200000000003
 20
1.9298300000000002
 30
0.0
 10
2.1058000000000003
 20
1.7113900000000002
 30
0.0
 10
2.1058000000000003
 20
1.7113900000000002
 30
0.0
 10
2.1058000000000003
 20
1.7113900000000002
 30
0.0
 10
2.29122
 20
1.8587100000000001
 30
0.0
 10
2.29122
 20
1.8587100000000001
 30
0.0
 10
2.29122
 20
1.8587100000000001
 30
0.0
 10
2.4131400000000003
 20
1.9399900000000001
 30
0.0
 10
2.5325200000000003
 20
2.0187300000000001
 30
0.0
 10
2.6265000000000001
 20
2.12033
 30
0.0
 10
2.6265000000000001
 20
2.12033
 30
0.0
 10
2.3725000000000001
 20
2.0161900000000004
 30
0.0
 10
2.1997800000000001
 20
1.7088500000000002
 30
0.0
 10
1.9178400000000002
 20
1.7240900000000001
 30
0.0
 10
1.9178400000000002
 20
1.7240900000000001
 30
0.0
 10
1.9178400000000002
 20
1.7240900000000001
 30
0.0
 10
3.2157800000000001
 20
2.6054700000000004
 30
0.0
 10
3.2157800000000001
 20
2.6054700000000004
 30
0.0
  0
SPLINE
  5
49
100
AcDbEntity
  8
Ebene 1
 62
     7
100
AcDbSpline
210
0.0
220
0.0
230
1.0
 70
     1
 71
     3
 72
    24
 73
    20
 74
     0
 42
0.0000000001
 43
0.0000000001
 40
0.0
 40
0.0
 40
0.0
 40
0.0
 40
0.2
 40
0.2
 40
0.2
 40
0.2
 40
0.4
 40
0.4
 40
0.4
 40
0.4
 40
0.6000000000000001
 40
0.6000000000000001
 40
0.6000000000000001
 40
0.6000000000000001
 40
0.8
 40
0.8
 40
0.8
 40
0.8
 40
1.0
 40
1.0
 40
1.0
 40
1.0
 10
3.5917000000000003
 20
2.5394300000000003
 30
0.0
 10
3.8457000000000003
 20
2.16351
 30
0.0
 10
3.8609400000000003
 20
1.5793100000000002
 30
0.0
 10
3.7390200000000005
 20
1.1221100000000002
 30
0.0
 10
3.7390200000000005
 20
1.1221100000000002
 30
0.0
 10
3.7390200000000005
 20
1.1221100000000002
 30
0.0
 10
3.6729800000000004
 20
1.0789300000000002
 30
0.0
 10
3.6729800000000004
 20
1.0789300000000002
 30
0.0
 10
3.6729800000000004
 20
1.0789300000000002
 30
0.0
 10
3.6602800000000002
 20
1.2440300000000002
 30
0.0
 10
3.6602800000000002
 20
1.4700900000000001
 30
0.0
 10
3.7136200000000001
 20
1.6529700000000001
 30
0.0
 10
3.7136200000000001
 20
1.6529700000000001
 30
0.0
 10
3.6196400000000004
 20
1.86633
 30
0.0
 10
3.6044000000000005
 20
2.2143100000000002
 30
0.0
 10
3.4977200000000002
 20
2.4302100000000002
 30
0.0
 10
3.4977200000000002
 20
2.4302100000000002
 30
0.0
 10
3.4977200000000002
 20
2.4962500000000003
 30
0.0
 10
3.5917000000000003
 20
2.4733900000000002
 30
0.0
 10
3.5917000000000003
 20
2.5394300000000003
 30
0.0
  0
SPLINE
  5
4A
100
AcDbEntity
  8
Ebene 1
 62
     7
100
AcDbSpline
210
0.0
220
0.0
230
1.0
 70
     1
 71
     3
 72
    12
 73
     8
 74
     0
 42
0.0000000001
 43
0.0000000001
 40
0.0
 40
0.0
 40
0.0
 40
0.0
 40
0.5
 40
0.5
 40
0.5
 40
0.5
 40
1.0
 40
1.0
 40
1.0
 40
1.0
 10
-3.6930100000000001
 20
2.16351
 30
0.0
 10
-3.6117300000000001
 20
2.1406500000000004
 30
0.0
 10
-3.6117300000000001
 20
1.9907900000000001
 30
0.0
 10
-3.5634700000000001
 20
1.9247500000000002
 30
0.0
 10
-3.5634700000000001
 20
1.9247500000000002
 30
0.0
 10
-3.6447500000000002
 20
1.9603100000000002
 30
0.0
 10
-3.7463500000000005
 20
2.0619100000000001
 30
0.0
 10
-3.6930100000000001
 20
2.16351
 30
0.0
  0
SPLINE
  5
4B
100
AcDbEntity
  8
Ebene 1
 62
     7
100
AcDbSpline
210
0.0
220
0.0
230
1.0
 70
     1
 71
     3
 72
    16
 73
    12
 74
     0
 42
0.0000000001
 43
0.0000000001
 40
0.0
 40
0.0
 40
0.0
 40
0.0
 40
0.3333333333333333
 40
0.3333333333333333
 40
0.3333333333333333
 40
0.3333333333333333
 40
0.6666666666666666
 40
0.6666666666666666
 40
0.6666666666666666
 40
0.6666666666666666
 40
1.0
 40
1.0
 40
1.0
 40
1.0
 10
1.4479400000000002
 20
2.1228700000000003
 30
0.0
 10
1.4479400000000002
 20
2.1228700000000003
 30
0.0
 10
1.5825600000000002
 20
2.09239
 30
0.0
 10
1.5825600000000002
 20
2.09239
 30
0.0
 10
1.5825600000000002
 20
2.09239
 30
0.0
 10
1.3006200000000001
 20
1.8688700000000003
 30
0.0
 10
0.8993000000000001
 20
1.8282300000000002
 30
0.0
 10
0.55132
 20
1.7240900000000001
 30
0.0
 10
0.55132
 20
1.7240900000000001
 30
0.0
 10
0.64022
 20
1.8917300000000001
 30
0.0
 10
1.0974200000000001
 20
1.9730100000000002
 30
0.0
 10
1.4479400000000002
 20
2.1228700000000003
 30
0.0
  0
SPLINE
  5
4C
100
AcDbEntity
  8
Ebene 1
 62
     7
100
AcDbSpline
210
0.0
220
0.0
230
1.0
 70
     1
 71
     3
 72
   324
 73
   320
 74
     0
 42
0.0000000001
 43
0.0000000001
 40
0.0
 40
0.0
 40
0.0
 40
0.0
 40
0.0125
 40
0.0125
 40
0.0125
 40
0.0125
 40
0.025
 40
0.025
 40
0.025
 40
0.025
 40
0.0375
 40
0.0375
 40
0.0375
 40
0.0375
 40
0.05
 40
0.05
 40
0.05
 40
0.05
 40
0.0625
 40
0.0625
 40
0.0625
 40
0.0625
 40
0.075
 40
0.075
 40
0.075
 40
0.075
 40
0.0875
 40
0.0875
 40
0.0875
 40
0.0875
 40
0.1
 40
0.1
 40
0.1
 40
0.1
 40
0.1125
 40
0.1125
 40
0.1125
 40
0.1125
 40
0.125
 40
0.125
 40
0.125
 40
0.125
 40
0.1375
 40
0.1375
 40
0.1375
 40
0.1375
 40
0.15
 40
0.15
 40
0.15
 40
0.15
 40
0.1625
 40
0.1625
 40
0.1625
 40
0.1625
 40
0.175
 40
0.175
 40
0.175
 40
0.175
 40
0.1875
 40
0.1875
 40
0.1875
 40
0.1875
 40
0.2
 40
0.2
 40
0.2
 40
0.2
 40
0.2125000000000001
 40
0.2125000000000001
 40
0.2125000000000001
 40
0.2125000000000001
 40
0.2250000000000001
 40
0.2250000000000001
 40
0.2250000000000001
 40
0.2250000000000001
 40
0.2375000000000001
 40
0.2375000000000001
 40
0.2375000000000001
 40
0.2375000000000001
 40
0.2500000000000001
 40
0.2500000000000001
 40
0.2500000000000001
 40
0.2500000000000001
 40
0.2625000000000001
 40
0.2625000000000001
 40
0.2625000000000001
 40
0.2625000000000001
 40
0.2750000000000001
 40
0.2750000000000001
 40
0.2750000000000001
 40
0.2750000000000001
 40
0.2875000000000001
 40
0.2875000000000001
 40
0.2875000000000001
 40
0.2875000000000001
 40
0.3000000000000001
 40
0.3000000000000001
 40
0.3000000000000001
 40
0.3000000000000001
 40
0.3125000000000001
 40
0.3125000000000001
 40
0.3125000000000001
 40
0.3125000000000001
 40
0.3250000000000001
 40
0.3250000000000001
 40
0.3250000000000001
 40
0.3250000000000001
 40
0.3375000000000001
 40
0.3375000000000001
 40
0.3375000000000001
 40
0.3375000000000001
 40
0.3500000000000001
 40
0.3500000000000001
 40
0.3500000000000001
 40
0.3500000000000001
 40
0.3625000000000002
 40
0.3625000000000002
 40
0.3625000000000002
 40
0.3625000000000002
 40
0.3750000000000002
 40
0.3750000000000002
 40
0.3750000000000002
 40
0.3750000000000002
 40
0.3875000000000002
 40
0.3875000000000002
 40
0.3875000000000002
 40
0.3875000000000002
 40
0.4000000000000002
 40
0.4000000000000002
 40
0.4000000000000002
 40
0.4000000000000002
 40
0.4125000000000002
 40
0.4125000000000002
 40
0.4125000000000002
 40
0.4125000000000002
 40
0.4250000000000002
 40
0.4250000000000002
 40
0.4250000000000002
 40
0.4250000000000002
 40
0.4375000000000002
 40
0.4375000000000002
 40
0.4375000000000002
 40
0.4375000000000002
 40
0.4500000000000002
 40
0.4500000000000002
 40
0.4500000000000002
 40
0.4500000000000002
 40
0.4625000000000002
 40
0.4625000000000002
 40
0.4625000000000002
 40
0.4625000000000002
 40
0.4750000000000003
 40
0.4750000000000003
 40
0.4750000000000003
 40
0.4750000000000003
 40
0.4875000000000003
 40
0.4875000000000003
 40
0.4875000000000003
 40
0.4875000000000003
 40
0.5000000000000002
 40
0.5000000000000002
 40
0.5000000000000002
 40
0.5000000000000002
 40
0.5125000000000002
 40
0.5125000000000002
 40
0.5125000000000002
 40
0.5125000000000002
 40
0.5250000000000001
 40
0.5250000000000001
 40
0.5250000000000001
 40
0.5250000000000001
 40
0.5375000000000001
 40
0.5375000000000001
 40
0.5375000000000001
 40
0.5375000000000001
 40
0.55
 40
0.55
 40
0.55
 40
0.55
 40
0.5625
 40
0.5625
 40
0.5625
 40
0.5625
 40
0.575
 40
0.575
 40
0.575
 40
0.575
 40
0.5874999999999999
 40
0.5874999999999999
 40
0.5874999999999999
 40
0.5874999999999999
 40
0.5999999999999999
 40
0.5999999999999999
 40
0.5999999999999999
 40
0.5999999999999999
 40
0.6124999999999998
 40
0.6124999999999998
 40
0.6124999999999998
 40
0.6124999999999998
 40
0.6249999999999998
 40
0.6249999999999998
 40
0.6249999999999998
 40
0.6249999999999998
 40
0.6374999999999997
 40
0.6374999999999997
 40
0.6374999999999997
 40
0.6374999999999997
 40
0.6499999999999997
 40
0.6499999999999997
 40
0.6499999999999997
 40
0.6499999999999997
 40
0.6624999999999996
 40
0.6624999999999996
 40
0.6624999999999996
 40
0.6624999999999996
 40
0.6749999999999996
 40
0.6749999999999996
 40
0.6749999999999996
 40
0.6749999999999996
 40
0.6874999999999996
 40
0.6874999999999996
 40
0.6874999999999996
 40
0.6874999999999996
 40
0.6999999999999995
 40
0.6999999999999995
 40
0.6999999999999995
 40
0.6999999999999995
 40
0.7124999999999995
 40
0.7124999999999995
 40
0.7124999999999995
 40
0.7124999999999995
 40
0.7249999999999994
 40
0.7249999999999994
 40
0.7249999999999994
 40
0.7249999999999994
 40
0.7374999999999994
 40
0.7374999999999994
 40
0.7374999999999994
 40
0.7374999999999994
 40
0.7499999999999993
 40
0.7499999999999993
 40
0.7499999999999993
 40
0.7499999999999993
 40
0.7624999999999993
 40
0.7624999999999993
 40
0.7624999999999993
 40
0.7624999999999993
 40
0.7749999999999993
 40
0.7749999999999993
 40
0.7749999999999993
 40
0.7749999999999993
 40
0.7874999999999992
 40
0.7874999999999992
 40
0.7874999999999992
 40
0.7874999999999992
 40
0.7999999999999992
 40
0.7999999999999992
 40
0.7999999999999992
 40
0.7999999999999992
 40
0.8124999999999991
 40
0.8124999999999991
 40
0.8124999999999991
 40
0.8124999999999991
 40
0.8249999999999991
 40
0.8249999999999991
 40
0.8249999999999991
 40
0.8249999999999991
 40
0.837499999999999
 40
0.837499999999999
 40
0.837499999999999
 40
0.837499999999999
 40
0.849999999999999
 40
0.849999999999999
 40
0.849999999999999
 40
0.849999999999999
 40
0.8624999999999989
 40
0.8624999999999989
 40
0.8624999999999989
 40
0.8624999999999989
 40
0.8749999999999989
 40
0.8749999999999989
 40
0.8749999999999989
 40
0.8749999999999989
 40
0.8874999999999989
 40
0.8874999999999989
 40
0.8874999999999989
 40
0.8874999999999989
 40
0.8999999999999988
 40
0.8999999999999988
 40
0.8999999999999988
 40
0.8999999999999988
 40
0.9124999999999988
 40
0.9124999999999988
 40
0.9124999999999988
 40
0.9124999999999988
 40
0.9249999999999987
 40
0.9249999999999987
 40
0.9249999999999987
 40
0.9249999999999987
 40
0.9374999999999987
 40
0.9374999999999987
 40
0.9374999999999987
 40
0.9374999999999987
 40
0.9499999999999986
 40
0.9499999999999986
 40
0.9499999999999986
 40
0.9499999999999986
 40
0.9624999999999986
 40
0.9624999999999986
 40
0.9624999999999986
 40
0.9624999999999986
 40
0.9749999999999985
 40
0.9749999999999985
 40
0.9749999999999985
 40
0.9749999999999985
 40
0.9874999999999985
 40
0.9874999999999985
 40
0.9874999999999985
 40
0.9874999999999985
 40
1.0
 40
1.0
 40
1.0
 40
1.0
 10
2.8424
 20
1.9476100000000001
 30
0.0
 10
3.0303600000000004
 20
1.2186300000000001
 30
0.0
 10
2.9897200000000002
 20
0.4617100000000001
 30
0.0
 10
2.9897200000000002
 20
-0.22916
 30
0.0
 10
2.9897200000000002
 20
-0.22916
 30
0.0
 10
3.0964
 20
-0.25964
 30
0.0
 10
3.2030800000000004
 20
-0.07168
 30
0.0
 10
3.2716600000000002
 20
-0.22916
 30
0.0
 10
3.2716600000000002
 20
-0.22916
 30
0.0
 10
3.2716600000000002
 20
-0.22916
 30
0.0
 10
3.0430600000000001
 20
-0.47046
 30
0.0
 10
3.0430600000000001
 20
-0.47046
 30
0.0
 10
3.0430600000000001
 20
-0.47046
 30
0.0
 10
3.0151200000000005
 20
-0.5365000000000001
 30
0.0
 10
2.9490800000000004
 20
-0.5568200000000001
 30
0.0
 10
2.8830400000000003
 20
-0.5822200000000001
 30
0.0
 10
2.8830400000000003
 20
-0.5822200000000001
 30
0.0
 10
2.50712
 20
-0.08184
 30
0.0
 10
2.7331800000000004
 20
1.06623
 30
0.0
 10
1.7959200000000002
 20
1.2643500000000001
 30
0.0
 10
1.7959200000000002
 20
1.2643500000000001
 30
0.0
 10
1.2472800000000002
 20
0.7614300000000001
 30
0.0
 10
0.69864
 20
0.14167
 30
0.0
 10
0.06872
 20
-0.24948
 30
0.0
 10
0.06872
 20
-0.24948
 30
0.0
 10
0.06872
 20
-0.8514600000000001
 30
0.0
 10
0.49798
 20
-1.33406
 30
0.0
 10
1.1533
 20
-1.3010400000000002
 30
0.0
 10
1.1533
 20
-1.3010400000000002
 30
0.0
 10
1.1279000000000001
 20
-1.2680200000000001
 30
0.0
 10
1.0872600000000001
 20
-1.24516
 30
0.0
 10
1.0339200000000002
 20
-1.25024
 30
0.0
 10
1.0339200000000002
 20
-1.25024
 30
0.0
 10
0.8180200000000001
 20
-1.20452
 30
0.0
 10
0.45734
 20
-1.1765800000000002
 30
0.0
 10
0.4167
 20
-0.9048000000000001
 30
0.0
 10
0.4167
 20
-0.9048000000000001
 30
0.0
 10
1.11266
 20
-1.0902200000000002
 30
0.0
 10
1.8518000000000001
 20
-0.8032
 30
0.0
 10
2.4537800000000001
 20
-0.47554
 30
0.0
 10
2.4537800000000001
 20
-0.47554
 30
0.0
 10
2.5198200000000002
 20
-0.7041400000000001
 30
0.0
 10
2.2785200000000003
 20
-0.80066
 30
0.0
 10
2.1058000000000003
 20
-0.8794000000000001
 30
0.0
 10
2.1058000000000003
 20
-0.8794000000000001
 30
0.0
 10
1.6105
 20
-1.20452
 30
0.0
 10
2.5604600000000004
 20
-0.8489200000000001
 30
0.0
 10
2.5198200000000002
 20
-0.58984
 30
0.0
 10
2.5198200000000002
 20
-0.58984
 30
0.0
 10
2.5477600000000002
 20
-0.40696
 30
0.0
 10
2.6138000000000003
 20
-0.8362200000000001
 30
0.0
 10
2.50712
 20
-0.8768600000000001
 30
0.0
 10
2.50712
 20
-0.8768600000000001
 30
0.0
 10
2.3852000000000002
 20
-1.0140200000000001
 30
0.0
 10
2.6671400000000003
 20
-0.84638
 30
0.0
 10
2.7331800000000004
 20
-0.82352
 30
0.0
 10
2.7331800000000004
 20
-0.82352
 30
0.0
 10
2.8551000000000002
 20
-0.78288
 30
0.0
 10
2.9744800000000002
 20
-0.71684
 30
0.0
 10
3.0710000000000002
 20
-0.6254000000000001
 30
0.0
 10
3.0710000000000002
 20
-0.6254000000000001
 30
0.0
 10
2.8678000000000003
 20
-1.45852
 30
0.0
 10
1.3692000000000002
 20
-0.9683000000000001
 30
0.0
 10
1.11266
 20
-1.6236200000000001
 30
0.0
 10
1.11266
 20
-1.6236200000000001
 30
0.0
 10
1.1660000000000001
 20
-1.62616
 30
0.0
 10
1.1812400000000001
 20
-1.54742
 30
0.0
 10
1.23458
 20
-1.5728200000000001
 30
0.0
 10
1.23458
 20
-1.5728200000000001
 30
0.0
 10
1.4479400000000002
 20
-1.5601200000000002
 30
0.0
 10
1.6892400000000001
 20
-1.6820400000000002
 30
0.0
 10
1.9178400000000002
 20
-1.5093200000000002
 30
0.0
 10
1.9178400000000002
 20
-1.5093200000000002
 30
0.0
 10
2.2251800000000004
 20
-1.2197600000000002
 30
0.0
 10
2.6950800000000004
 20
-1.2781800000000001
 30
0.0
 10
3.0151200000000005
 20
-0.9860800000000001
 30
0.0
 10
3.0151200000000005
 20
-0.9860800000000001
 30
0.0
 10
3.0049600000000001
 20
-1.0673600000000001
 30
0.0
 10
2.9008200000000004
 20
-1.16642
 30
0.0
 10
2.8119200000000002
 20
-1.2324600000000001
 30
0.0
 10
2.8119200000000002
 20
-1.2324600000000001
 30
0.0
 10
2.0118200000000002
 20
-1.8268200000000001
 30
0.0
 10
1.44286
 20
-1.8852400000000002
 30
0.0
 10
0.45734
 20
-1.54234
 30
0.0
 10
0.45734
 20
-1.54234
 30
0.0
 10
0.76468
 20
-1.5398000000000001
 30
0.0
 10
0.7113400000000001
 20
-1.5804400000000001
 30
0.0
 10
0.5386200000000001
 20
-1.3848600000000002
 30
0.0
 10
0.5386200000000001
 20
-1.3848600000000002
 30
0.0
 10
1.0872600000000001
 20
-1.5906000000000002
 30
0.0
 10
0.32272
 20
-1.1943600000000001
 30
0.0
 10
0.1754
 20
-1.08768
 30
0.0
 10
0.1754
 20
-1.08768
 30
0.0
 10
0.1627
 20
-1.0191000000000001
 30
0.0
 10
0.08142
 20
-1.0292600000000001
 30
0.0
 10
0.04078
 20
-1.0140200000000001
 30
0.0
 10
0.04078
 20
-1.0140200000000001
 30
0.0
 10
0.05602
 20
-1.1130800000000001
 30
0.0
 10
-0.02271
 20
-1.1588000000000001
 30
0.0
 10
0.06872
 20
-1.2248400000000002
 30
0.0
 10
0.06872
 20
-1.2248400000000002
 30
0.0
 10
0.2008
 20
-1.1994400000000001
 30
0.0
 10
0.2008
 20
-1.37216
 30
0.0
 10
0.29732
 20
-1.3874000000000002
 30
0.0
 10
0.29732
 20
-1.3874000000000002
 30
0.0
 10
0.29732
 20
-1.3874000000000002
 30
0.0
 10
0.404
 20
-1.5169400000000002
 30
0.0
 10
0.404
 20
-1.5169400000000002
 30
0.0
 10
0.404
 20
-1.5169400000000002
 30
0.0
 10
-0.02271
 20
-1.4839200000000001
 30
0.0
 10
-0.34529
 20
-0.54666
 30
0.0
 10
-0.41133
 20
-0.8184400000000001
 30
0.0
 10
-0.41133
 20
-0.8184400000000001
 30
0.0
 10
-0.39863
 20
-0.8717800000000001
 30
0.0
 10
-0.31735
 20
-0.9987800000000001
 30
0.0
 10
-0.42403
 20
-0.9962400000000001
 30
0.0
 10
-0.42403
 20
-0.9962400000000001
 30
0.0
 10
-0.63993
 20
-0.8946400000000001
 30
0.0
 10
-0.65263
 20
-1.2096
 30
0.0
 10
-0.4799100000000001
 20
-1.28834
 30
0.0
 10
-0.4799100000000001
 20
-1.28834
 30
0.0
 10
0.1881
 20
-1.1308600000000002
 30
0.0
 10
1.01868
 20
-2.2713200000000002
 30
0.0
 10
1.3006200000000001
 20
-2.9215600000000004
 30
0.0
 10
1.3006200000000001
 20
-2.9215600000000004
 30
0.0
 10
1.3006200000000001
 20
-2.9215600000000004
 30
0.0
 10
1.1406000000000001
 20
-2.6802600000000001
 30
0.0
 10
1.1406000000000001
 20
-2.6802600000000001
 30
0.0
 10
1.1406000000000001
 20
-2.6802600000000001
 30
0.0
 10
1.0466200000000001
 20
-2.5431000000000004
 30
0.0
 10
1.11266
 20
-2.7259800000000003
 30
0.0
 10
1.1406000000000001
 20
-2.7894800000000002
 30
0.0
 10
1.1406000000000001
 20
-2.7894800000000002
 30
0.0
 10
1.1406000000000001
 20
-2.7894800000000002
 30
0.0
 10
1.19394
 20
-2.9368000000000003
 30
0.0
 10
1.19394
 20
-2.9368000000000003
 30
0.0
 10
1.19394
 20
-2.9368000000000003
 30
0.0
 10
1.2599800000000001
 20
-3.3355800000000002
 30
0.0
 10
0.9247000000000001
 20
-2.3145000000000002
 30
0.0
 10
0.912
 20
-2.6751800000000001
 30
0.0
 10
0.912
 20
-2.6751800000000001
 30
0.0
 10
1.0466200000000001
 20
-2.8377400000000002
 30
0.0
 10
1.09996
 20
-3.2974800000000002
 30
0.0
 10
0.912
 20
-3.0612600000000003
 30
0.0
 10
0.912
 20
-3.0612600000000003
 30
0.0
 10
0.912
 20
-3.0612600000000003
 30
0.0
 10
0.912
 20
-3.2746200000000001
 30
0.0
 10
0.912
 20
-3.2746200000000001
 30
0.0
 10
0.912
 20
-3.2746200000000001
 30
0.0
 10
0.8586600000000001
 20
-3.6556200000000003
 30
0.0
 10
0.6300600000000001
 20
-2.7564600000000001
 30
0.0
 10
0.7113400000000001
 20
-3.1831800000000001
 30
0.0
 10
0.7113400000000001
 20
-3.1831800000000001
 30
0.0
 10
0.7113400000000001
 20
-3.1831800000000001
 30
0.0
 10
0.7519800000000001
 20
-3.3152600000000003
 30
0.0
 10
0.7519800000000001
 20
-3.3152600000000003
 30
0.0
 10
0.7519800000000001
 20
-3.3152600000000003
 30
0.0
 10
0.7519800000000001
 20
-3.4219400000000002
 30
0.0
 10
0.6707000000000001
 20
-3.4778200000000004
 30
0.0
 10
0.6046600000000001
 20
-3.5591000000000004
 30
0.0
 10
0.6046600000000001
 20
-3.5591000000000004
 30
0.0
 10
0.6046600000000001
 20
-3.7038800000000003
 30
0.0
 10
0.7519800000000001
 20
-3.6962600000000001
 30
0.0
 10
0.7926200000000001
 20
-3.5591000000000004
 30
0.0
 10
0.7926200000000001
 20
-3.5591000000000004
 30
0.0
 10
0.912
 20
-3.5286200000000001
 30
0.0
 10
1.0720200000000002
 20
-3.4168600000000002
 30
0.0
 10
1.1660000000000001
 20
-3.5159200000000004
 30
0.0
 10
1.1660000000000001
 20
-3.5159200000000004
 30
0.0
 10
0.61736
 20
-3.7927800000000005
 30
0.0
 10
-0.21067
 20
-3.9909000000000003
 30
0.0
 10
-0.8126500000000001
 20
-3.7267400000000004
 30
0.0
 10
-0.8126500000000001
 20
-3.7267400000000004
 30
0.0
 10
-0.5180100000000001
 20
-3.6099000000000001
 30
0.0
 10
-1.0945900000000002
 20
-3.4117800000000003
 30
0.0
 10
-0.75931
 20
-2.7920200000000004
 30
0.0
 10
-0.75931
 20
-2.7920200000000004
 30
0.0
 10
-0.8812300000000001
 20
-2.6294600000000004
 30
0.0
 10
-0.9193300000000001
 20
-3.6988000000000003
 30
0.0
 10
-1.0133100000000002
 20
-3.1019000000000001
 30
0.0
 10
-1.0133100000000002
 20
-3.1019000000000001
 30
0.0
 10
-1.0691900000000001
 20
-2.7082000000000002
 30
0.0
 10
-1.1758700000000002
 20
-3.3787600000000002
 30
0.0
 10
-1.0285500000000001
 20
-3.4651200000000002
 30
0.0
 10
-1.0285500000000001
 20
-3.4651200000000002
 30
0.0
 10
-1.00061
 20
-3.5362400000000003
 30
0.0
 10
-0.9879100000000001
 20
-3.6480000000000001
 30
0.0
 10
-0.9879100000000001
 20
-3.7115000000000005
 30
0.0
 10
-0.9879100000000001
 20
-3.7115000000000005
 30
0.0
 10
-1.29525
 20
-3.3406600000000002
 30
0.0
 10
-1.3511300000000002
 20
-2.6599400000000002
 30
0.0
 10
-1.2012700000000001
 20
-2.2179800000000003
 30
0.0
 10
-1.2012700000000001
 20
-2.2179800000000003
 30
0.0
 10
-1.2012700000000001
 20
-2.2179800000000003
 30
0.0
 10
-1.1885700000000001
 20
-2.5507200000000001
 30
0.0
 10
-1.1885700000000001
 20
-2.5507200000000001
 30
0.0
 10
-1.1885700000000001
 20
-2.5507200000000001
 30
0.0
 10
-1.0945900000000002
 20
-2.5354800000000002
 30
0.0
 10
-1.2419100000000001
 20
-2.14432
 30
0.0
 10
-1.1098300000000001
 20
-2.0859000000000001
 30
0.0
 10
-1.1098300000000001
 20
-2.0859000000000001
 30
0.0
 10
-1.1352300000000002
 20
-2.4465800000000004
 30
0.0
 10
-1.1606300000000001
 20
-3.3508200000000001
 30
0.0
 10
-1.04125
 20
-2.5507200000000001
 30
0.0
 10
-1.04125
 20
-2.5507200000000001
 30
0.0
 10
-1.0158500000000001
 20
-2.3703800000000004
 30
0.0
 10
-0.9904500000000001
 20
-1.8115800000000002
 30
0.0
 10
-0.9396500000000001
 20
-2.0097
 30
0.0
 10
-0.9396500000000001
 20
-2.0097
 30
0.0
 10
-0.9345700000000001
 20
-2.0274800000000002
 30
0.0
 10
-0.92949
 20
-2.1849600000000002
 30
0.0
 10
-0.8939300000000001
 20
-2.06812
 30
0.0
 10
-0.8939300000000001
 20
-2.06812
 30
0.0
 10
-0.9193300000000001
 20
-1.8293600000000001
 30
0.0
 10
-0.75931
 20
-1.4788400000000002
 30
0.0
 10
-0.82789
 20
-1.8979400000000002
 30
0.0
 10
-0.82789
 20
-1.8979400000000002
 30
0.0
 10
-0.7339100000000001
 20
-1.7531600000000001
 30
0.0
 10
-0.61199
 20
-1.5601200000000002
 30
0.0
 10
-0.5992900000000001
 20
-1.3747
 30
0.0
 10
-0.5992900000000001
 20
-1.3747
 30
0.0
 10
-1.04125
 20
-1.4813800000000001
 30
0.0
 10
-1.4425700000000001
 20
-2.0655800000000002
 30
0.0
 10
-2.0724900000000002
 20
-2.10622
 30
0.0
 10
-2.0724900000000002
 20
-2.10622
 30
0.0
 10
-2.0724900000000002
 20
-2.10622
 30
0.0
 10
-2.0191500000000002
 20
-1.7607800000000002
 30
0.0
 10
-2.0191500000000002
 20
-1.7607800000000002
 30
0.0
 10
-2.0191500000000002
 20
-1.7607800000000002
 30
0.0
 10
-2.2477500000000004
 20
-2.0427200000000001
 30
0.0
 10
-2.5423900000000001
 20
-1.8598400000000002
 30
0.0
 10
-2.7963900000000002
 20
-1.9309600000000002
 30
0.0
 10
-2.7963900000000002
 20
-1.9309600000000002
 30
0.0
 10
-2.7557500000000004
 20
-1.6490200000000002
 30
0.0
 10
-2.7430500000000002
 20
-0.8794000000000001
 30
0.0
 10
-2.5703300000000002
 20
-1.4077200000000001
 30
0.0
 10
-2.5703300000000002
 20
-1.4077200000000001
 30
0.0
 10
-2.5423900000000001
 20
-1.0953000000000002
 30
0.0
 10
-2.7709900000000003
 20
-0.80574
 30
0.0
 10
-2.7557500000000004
 20
-0.45014
 30
0.0
 10
-2.7557500000000004
 20
-0.45014
 30
0.0
 10
-2.8116300000000001
 20
-0.06152
 30
0.0
 10
-3.5101300000000002
 20
-0.13772
 30
0.0
 10
-3.4136100000000003
 20
0.2737500000000001
 30
0.0
 10
-3.4136100000000003
 20
0.2737500000000001
 30
0.0
 10
-3.3729700000000005
 20
0.24327
 30
0.0
 10
-3.4186900000000002
 20
0.13659
 30
0.0
 10
-3.3475700000000002
 20
0.13659
 30
0.0
 10
-3.3475700000000002
 20
0.13659
 30
0.0
 10
-3.2637500000000004
 20
0.03753
 30
0.0
 10
-3.2078700000000002
 20
0.05531
 30
0.0
 10
-3.0910300000000004
 20
0.07309
 30
0.0
 10
-3.0910300000000004
 20
0.07309
 30
0.0
 10
-3.0630900000000003
 20
0.04261
 30
0.0
 10
-3.0249900000000003
 20
0.02991
 30
0.0
 10
-2.9843500000000001
 20
0.01975
 30
0.0
 10
-2.9843500000000001
 20
0.01975
 30
0.0
 10
-2.9843500000000001
 20
0.01975
 30
0.0
 10
-2.8903700000000003
 20
-0.03612
 30
0.0
 10
-2.8903700000000003
 20
-0.03612
 30
0.0
 10
-2.8903700000000003
 20
-0.03612
 30
0.0
 10
-2.7151100000000001
 20
-0.03866
 30
0.0
 10
-3.1748500000000002
 20
0.13913
 30
0.0
 10
-3.0249900000000003
 20
0.20771
 30
0.0
 10
-3.0249900000000003
 20
0.20771
 30
0.0
 10
-2.9843500000000001
 20
0.21533
 30
0.0
 10
-2.9437100000000003
 20
0.18739
 30
0.0
 10
-2.9183100000000004
 20
0.16707
 30
0.0
 10
-2.9183100000000004
 20
0.16707
 30
0.0
 10
-2.64907
 20
-0.32822
 30
0.0
 10
-2.52969
 20
-0.9962400000000001
 30
0.0
 10
-2.4204700000000003
 20
-1.5829800000000001
 30
0.0
 10
-2.4204700000000003
 20
-1.5829800000000001
 30
0.0
 10
-1.7905500000000001
 20
-1.9614400000000001
 30
0.0
 10
-0.5992900000000001
 20
-1.2629400000000002
 30
0.0
 10
-1.08189
 20
-0.50348
 30
0.0
 10
-1.08189
 20
-0.50348
 30
0.0
 10
-1.37653
 20
-0.41966
 30
0.0
 10
-1.6838700000000002
 20
-0.35616
 30
0.0
 10
-1.9124700000000001
 20
-0.12502
 30
0.0
 10
-1.9124700000000001
 20
-0.12502
 30
0.0
 10
-2.1537700000000002
 20
0.22295
 30
0.0
 10
-2.6084300000000002
 20
0.08325
 30
0.0
 10
-2.90307
 20
0.28645
 30
0.0
 10
-2.90307
 20
0.28645
 30
0.0
 10
-2.5144500000000001
 20
0.44647
 30
0.0
 10
-2.14107
 20
0.22295
 30
0.0
 10
-1.8718300000000001
 20
0.03753
 30
0.0
 10
-1.8718300000000001
 20
0.03753
 30
0.0
 10
-1.37653
 20
-0.1936
 30
0.0
 10
-0.5992900000000001
 20
-0.35108
 30
0.0
 10
-0.7466100000000001
 20
-1.12578
 30
0.0
 10
-0.7466100000000001
 20
-1.12578
 30
0.0
 10
-0.67549
 20
-1.1486400000000001
 30
0.0
 10
-0.6475500000000001
 20
-0.97084
 30
0.0
 10
-0.6450100000000001
 20
-0.90988
 30
0.0
 10
-0.6450100000000001
 20
-0.90988
 30
0.0
 10
-0.6272300000000001
 20
-0.5390400000000001
 30
0.0
 10
-0.4062500000000001
 20
-0.6000000000000001
 30
0.0
 10
-0.20305
 20
-0.7651000000000001
 30
0.0
 10
-0.20305
 20
-0.7651000000000001
 30
0.0
 10
-0.13447
 20
-0.82098
 30
0.0
 10
-0.11923
 20
-0.9962400000000001
 30
0.0
 10
0.02808
 20
-0.9378200000000001
 30
0.0
 10
0.02808
 20
-0.9378200000000001
 30
0.0
 10
-0.4392700000000001
 20
-0.4247400000000001
 30
0.0
 10
-0.03795
 20
0.20263
 30
0.0
 10
0.5233800000000001
 20
0.16961
 30
0.0
 10
0.5233800000000001
 20
0.16961
 30
0.0
 10
1.0466200000000001
 20
0.7512700000000001
 30
0.0
 10
1.5546200000000001
 20
1.3354700000000002
 30
0.0
 10
2.2251800000000004
 20
1.61233
 30
0.0
 10
2.2251800000000004
 20
1.61233
 30
0.0
 10
2.4537800000000001
 20
1.4167500000000002
 30
0.0
 10
2.7484200000000003
 20
1.1856100000000001
 30
0.0
 10
2.9084400000000001
 20
0.9214500000000001
 30
0.0
 10
2.9084400000000001
 20
0.9214500000000001
 30
0.0
 10
2.9617800000000001
 20
1.3303900000000002
 30
0.0
 10
2.2124800000000002
 20
1.7190100000000001
 30
0.0
 10
2.8424
 20
1.9476100000000001
 30
0.0
  0
SPLINE
  5
4D
100
AcDbEntity
  8
Ebene 1
 62
     7
100
AcDbSpline
210
0.0
220
0.0
230
1.0
 70
     1
 71
     3
 72
    40
 73
    36
 74
     0
 42
0.0000000001
 43
0.0000000001
 40
0.0
 40
0.0
 40
0.0
 40
0.0
 40
0.1111111111111111
 40
0.1111111111111111
 40
0.1111111111111111
 40
0.1111111111111111
 40
0.2222222222222222
 40
0.2222222222222222
 40
0.2222222222222222
 40
0.2222222222222222
 40
0.3333333333333333
 40
0.3333333333333333
 40
0.3333333333333333
 40
0.3333333333333333
 40
0.4444444444444444
 40
0.4444444444444444
 40
0.4444444444444444
 40
0.4444444444444444
 40
0.5555555555555556
 40
0.5555555555555556
 40
0.5555555555555556
 40
0.5555555555555556
 40
0.6666666666666667
 40
0.6666666666666667
 40
0.6666666666666667
 40
0.6666666666666667
 40
0.7777777777777779
 40
0.7777777777777779
 40
0.7777777777777779
 40
0.7777777777777779
 40
0.8888888888888891
 40
0.8888888888888891
 40
0.8888888888888891
 40
0.8888888888888891
 40
1.0
 40
1.0
 40
1.0
 40
1.0
 10
3.2716600000000002
 20
1.8815700000000002
 30
0.0
 10
3.3504000000000005
 20
1.6605900000000002
 30
0.0
 10
3.3250000000000002
 20
1.3684900000000002
 30
0.0
 10
3.3250000000000002
 20
1.14497
 30
0.0
 10
3.3250000000000002
 20
1.14497
 30
0.0
 10
3.3250000000000002
 20
1.14497
 30
0.0
 10
3.4189800000000004
 20
1.5208900000000001
 30
0.0
 10
3.4189800000000004
 20
1.5208900000000001
 30
0.0
 10
3.4189800000000004
 20
1.5208900000000001
 30
0.0
 10
3.4723200000000003
 20
1.3405500000000001
 30
0.0
 10
3.4570800000000004
 20
1.11449
 30
0.0
 10
3.4443800000000002
 20
0.9214500000000001
 30
0.0
 10
3.4443800000000002
 20
0.9214500000000001
 30
0.0
 10
3.4443800000000002
 20
0.9214500000000001
 30
0.0
 10
3.3250000000000002
 20
0.87319
 30
0.0
 10
3.3250000000000002
 20
0.87319
 30
0.0
 10
3.3250000000000002
 20
0.87319
 30
0.0
 10
3.3631000000000002
 20
0.78937
 30
0.0
 10
3.2970600000000001
 20
0.7512700000000001
 30
0.0
 10
3.2310200000000004
 20
0.7411100000000001
 30
0.0
 10
3.2310200000000004
 20
0.7411100000000001
 30
0.0
 10
3.1903800000000002
 20
0.7919100000000001
 30
0.0
 10
3.1903800000000002
 20
0.87319
 30
0.0
 10
3.1903800000000002
 20
0.9443100000000001
 30
0.0
 10
3.1903800000000002
 20
0.9443100000000001
 30
0.0
 10
3.1903800000000002
 20
0.9443100000000001
 30
0.0
 10
3.1218000000000004
 20
0.99765
 30
0.0
 10
3.1218000000000004
 20
0.99765
 30
0.0
 10
3.1218000000000004
 20
0.99765
 30
0.0
 10
3.1218000000000004
 20
0.99765
 30
0.0
 10
3.1218000000000004
 20
1.1576700000000002
 30
0.0
 10
3.1218000000000004
 20
1.1576700000000002
 30
0.0
 10
3.1218000000000004
 20
1.1576700000000002
 30
0.0
 10
3.2716600000000002
 20
1.36087
 30
0.0
 10
3.2157800000000001
 20
1.6402700000000001
 30
0.0
 10
3.2716600000000002
 20
1.8815700000000002
 30
0.0
  0
SPLINE
  5
4E
100
AcDbEntity
  8
Ebene 1
 62
     7
100
AcDbSpline
210
0.0
220
0.0
230
1.0
 70
     1
 71
     3
 72
    20
 73
    16
 74
     0
 42
0.0000000001
 43
0.0000000001
 40
0.0
 40
0.0
 40
0.0
 40
0.0
 40
0.25
 40
0.25
 40
0.25
 40
0.25
 40
0.5
 40
0.5
 40
0.5
 40
0.5
 40
0.75
 40
0.75
 40
0.75
 40
0.75
 40
1.0
 40
1.0
 40
1.0
 40
1.0
 10
0.29732
 20
1.6809100000000001
 30
0.0
 10
0.31002
 20
1.6783700000000001
 30
0.0
 10
0.3354200000000001
 20
1.6529700000000001
 30
0.0
 10
0.31002
 20
1.6453500000000001
 30
0.0
 10
0.31002
 20
1.6453500000000001
 30
0.0
 10
-0.39863
 20
1.4116700000000002
 30
0.0
 10
-1.12253
 20
1.2541900000000001
 30
0.0
 10
-1.9124700000000001
 20
1.2541900000000001
 30
0.0
 10
-1.9124700000000001
 20
1.2541900000000001
 30
0.0
 10
-1.92517
 20
1.3278500000000002
 30
0.0
 10
-2.0191500000000002
 20
1.2948300000000001
 30
0.0
 10
-2.0470900000000003
 20
1.3456300000000001
 30
0.0
 10
-2.0470900000000003
 20
1.3456300000000001
 30
0.0
 10
-1.3104900000000002
 20
1.4319900000000001
 30
0.0
 10
-0.45197
 20
1.5031100000000002
 30
0.0
 10
0.29732
 20
1.6809100000000001
 30
0.0
  0
SPLINE
  5
4F
100
AcDbEntity
  8
Ebene 1
 62
     7
100
AcDbSpline
210
0.0
220
0.0
230
1.0
 70
     1
 71
     3
 72
    16
 73
    12
 74
     0
 42
0.0000000001
 43
0.0000000001
 40
0.0
 40
0.0
 40
0.0
 40
0.0
 40
0.3333333333333333
 40
0.3333333333333333
 40
0.3333333333333333
 40
0.3333333333333333
 40
0.6666666666666666
 40
0.6666666666666666
 40
0.6666666666666666
 40
0.6666666666666666
 40
1.0
 40
1.0
 40
1.0
 40
1.0
 10
-3.6676100000000003
 20
1.6275700000000002
 30
0.0
 10
-3.6422100000000004
 20
1.6275700000000002
 30
0.0
 10
-3.6193500000000003
 20
1.6275700000000002
 30
0.0
 10
-3.6015700000000002
 20
1.61233
 30
0.0
 10
-3.6015700000000002
 20
1.61233
 30
0.0
 10
-3.4136100000000003
 20
1.6682100000000002
 30
0.0
 10
-3.2662900000000001
 20
1.5005700000000002
 30
0.0
 10
-3.0910300000000004
 20
1.4802500000000001
 30
0.0
 10
-3.0910300000000004
 20
1.4802500000000001
 30
0.0
 10
-3.2815300000000001
 20
1.4345300000000001
 30
0.0
 10
-3.5202900000000001
 20
1.48787
 30
0.0
 10
-3.6676100000000003
 20
1.6275700000000002
 30
0.0
  0
SPLINE
  5
50
100
AcDbEntity
  8
Ebene 1
 62
     7
100
AcDbSpline
210
0.0
220
0.0
230
1.0
 70
     1
 71
     3
 72
    20
 73
    16
 74
     0
 42
0.0000000001
 43
0.0000000001
 40
0.0
 40
0.0
 40
0.0
 40
0.0
 40
0.25
 40
0.25
 40
0.25
 40
0.25
 40
0.5
 40
0.5
 40
0.5
 40
0.5
 40
0.75
 40
0.75
 40
0.75
 40
0.75
 40
1.0
 40
1.0
 40
1.0
 40
1.0
 10
1.3692000000000002
 20
1.4929500000000002
 30
0.0
 10
1.4200000000000002
 20
1.49041
 30
0.0
 10
1.4606400000000002
 20
1.4345300000000001
 30
0.0
 10
1.48858
 20
1.3862700000000001
 30
0.0
 10
1.48858
 20
1.3862700000000001
 30
0.0
 10
1.48858
 20
1.3862700000000001
 30
0.0
 10
1.0339200000000002
 20
1.1754500000000001
 30
0.0
 10
1.0339200000000002
 20
1.1754500000000001
 30
0.0
 10
1.0339200000000002
 20
1.1754500000000001
 30
0.0
 10
1.0466200000000001
 20
1.23895
 30
0.0
 10
1.1533
 20
1.2592700000000001
 30
0.0
 10
1.1660000000000001
 20
1.3329300000000002
 30
0.0
 10
1.1660000000000001
 20
1.3329300000000002
 30
0.0
 10
1.2193400000000001
 20
1.40659
 30
0.0
 10
1.3006200000000001
 20
1.4548500000000002
 30
0.0
 10
1.3692000000000002
 20
1.4929500000000002
 30
0.0
  0
SPLINE
  5
51
100
AcDbEntity
  8
Ebene 1
 62
     7
100
AcDbSpline
210
0.0
220
0.0
230
1.0
 70
     1
 71
     3
 72
    20
 73
    16
 74
     0
 42
0.0000000001
 43
0.0000000001
 40
0.0
 40
0.0
 40
0.0
 40
0.0
 40
0.25
 40
0.25
 40
0.25
 40
0.25
 40
0.5
 40
0.5
 40
0.5
 40
0.5
 40
0.75
 40
0.75
 40
0.75
 40
0.75
 40
1.0
 40
1.0
 40
1.0
 40
1.0
 10
-3.0376900000000004
 20
1.4650100000000001
 30
0.0
 10
-3.0376900000000004
 20
1.4650100000000001
 30
0.0
 10
-2.2731500000000002
 20
1.3684900000000002
 30
0.0
 10
-2.2731500000000002
 20
1.3684900000000002
 30
0.0
 10
-2.2731500000000002
 20
1.3684900000000002
 30
0.0
 10
-2.2604500000000001
 20
1.3405500000000001
 30
0.0
 10
-2.2477500000000004
 20
1.3024500000000001
 30
0.0
 10
-2.23251
 20
1.2694300000000001
 30
0.0
 10
-2.23251
 20
1.2694300000000001
 30
0.0
 10
-2.23251
 20
1.2694300000000001
 30
0.0
 10
-3.0630900000000003
 20
1.40405
 30
0.0
 10
-3.0630900000000003
 20
1.40405
 30
0.0
 10
-3.0630900000000003
 20
1.40405
 30
0.0
 10
-3.0630900000000003
 20
1.40405
 30
0.0
 10
-3.0376900000000004
 20
1.4650100000000001
 30
0.0
 10
-3.0376900000000004
 20
1.4650100000000001
 30
0.0
  0
SPLINE
  5
52
100
AcDbEntity
  8
Ebene 1
 62
     7
100
AcDbSpline
210
0.0
220
0.0
230
1.0
 70
     1
 71
     3
 72
    24
 73
    20
 74
     0
 42
0.0000000001
 43
0.0000000001
 40
0.0
 40
0.0
 40
0.0
 40
0.0
 40
0.2
 40
0.2
 40
0.2
 40
0.2
 40
0.4
 40
0.4
 40
0.4
 40
0.4
 40
0.6000000000000001
 40
0.6000000000000001
 40
0.6000000000000001
 40
0.6000000000000001
 40
0.8
 40
0.8
 40
0.8
 40
0.8
 40
1.0
 40
1.0
 40
1.0
 40
1.0
 10
0.87136
 20
1.4650100000000001
 30
0.0
 10
0.8993000000000001
 20
1.4523100000000002
 30
0.0
 10
0.9399400000000001
 20
1.4523100000000002
 30
0.0
 10
0.9653400000000001
 20
1.4650100000000001
 30
0.0
 10
0.9653400000000001
 20
1.4650100000000001
 30
0.0
 10
0.9653400000000001
 20
1.4650100000000001
 30
0.0
 10
1.01868
 20
1.4650100000000001
 30
0.0
 10
1.01868
 20
1.4650100000000001
 30
0.0
 10
1.01868
 20
1.4650100000000001
 30
0.0
 10
0.9653400000000001
 20
1.40405
 30
0.0
 10
0.8180200000000001
 20
1.3557900000000001
 30
0.0
 10
0.7392800000000001
 20
1.4116700000000002
 30
0.0
 10
0.7392800000000001
 20
1.4116700000000002
 30
0.0
 10
0.7392800000000001
 20
1.4370700000000001
 30
0.0
 10
0.76468
 20
1.44469
 30
0.0
 10
0.7926200000000001
 20
1.4396100000000001
 30
0.0
 10
0.7926200000000001
 20
1.4396100000000001
 30
0.0
 10
0.7926200000000001
 20
1.4396100000000001
 30
0.0
 10
0.87136
 20
1.4650100000000001
 30
0.0
 10
0.87136
 20
1.4650100000000001
 30
0.0
  0
SPLINE
  5
53
100
AcDbEntity
  8
Ebene 1
 62
     7
100
AcDbSpline
210
0.0
220
0.0
230
1.0
 70
     1
 71
     3
 72
    24
 73
    20
 74
     0
 42
0.0000000001
 43
0.0000000001
 40
0.0
 40
0.0
 40
0.0
 40
0.0
 40
0.2
 40
0.2
 40
0.2
 40
0.2
 40
0.4
 40
0.4
 40
0.4
 40
0.4
 40
0.6000000000000001
 40
0.6000000000000001
 40
0.6000000000000001
 40
0.6000000000000001
 40
0.8
 40
0.8
 40
0.8
 40
0.8
 40
1.0
 40
1.0
 40
1.0
 40
1.0
 10
0.31002
 20
1.3710300000000002
 30
0.0
 10
0.36336
 20
1.3684900000000002
 30
0.0
 10
0.404
 20
1.2999100000000001
 30
0.0
 10
0.4294000000000001
 20
1.2516500000000002
 30
0.0
 10
0.4294000000000001
 20
1.2516500000000002
 30
0.0
 10
0.28208
 20
1.1348100000000001
 30
0.0
 10
0.01538
 20
1.15513
 30
0.0
 10
-0.14463
 20
1.0382900000000002
 30
0.0
 10
-0.14463
 20
1.0382900000000002
 30
0.0
 10
-0.14463
 20
1.0382900000000002
 30
0.0
 10
-0.35799
 20
1.1348100000000001
 30
0.0
 10
-0.35799
 20
1.1348100000000001
 30
0.0
 10
-0.35799
 20
1.1348100000000001
 30
0.0
 10
-0.3859300000000001
 20
1.2567300000000001
 30
0.0
 10
-0.23861
 20
1.2846700000000002
 30
0.0
 10
-0.11669
 20
1.27959
 30
0.0
 10
-0.11669
 20
1.27959
 30
0.0
 10
0.02808
 20
1.2922900000000002
 30
0.0
 10
0.1881
 20
1.31515
 30
0.0
 10
0.31002
 20
1.3710300000000002
 30
0.0
  0
SPLINE
  5
54
100
AcDbEntity
  8
Ebene 1
100
AcDbSpline
210
0.0
220
0.0
230
1.0
 70
     1
 71
     3
 72
    28
 73
    24
 74
     0
 42
0.0000000001
 43
0.0000000001
 40
0.0
 40
0.0
 40
0.0
 40
0.0
 40
0.1666666666666667
 40
0.1666666666666667
 40
0.1666666666666667
 40
0.1666666666666667
 40
0.3333333333333333
 40
0.3333333333333333
 40
0.3333333333333333
 40
0.3333333333333333
 40
0.5
 40
0.5
 40
0.5
 40
0.5
 40
0.6666666666666666
 40
0.6666666666666666
 40
0.6666666666666666
 40
0.6666666666666666
 40
0.8333333333333333
 40
0.8333333333333333
 40
0.8333333333333333
 40
0.8333333333333333
 40
1.0
 40
1.0
 40
1.0
 40
1.0
 10
2.4664800000000002
 20
1.2643500000000001
 30
0.0
 10
2.4664800000000002
 20
1.2643500000000001
 30
0.0
 10
2.76112
 20
0.95447
 30
0.0
 10
2.76112
 20
0.95447
 30
0.0
 10
2.76112
 20
0.95447
 30
0.0
 10
2.76112
 20
0.95447
 30
0.0
 10
2.8830400000000003
 20
0.43377
 30
0.0
 10
2.8830400000000003
 20
0.43377
 30
0.0
 10
2.8830400000000003
 20
0.43377
 30
0.0
 10
2.8830400000000003
 20
0.43377
 30
0.0
 10
2.8424
 20
0.34487
 30
0.0
 10
2.8424
 20
0.34487
 30
0.0
 10
2.8424
 20
0.34487
 30
0.0
 10
2.6544400000000001
 20
0.38805
 30
0.0
 10
2.6823800000000002
 20
0.6268100000000001
 30
0.0
 10
2.6823800000000002
 20
0.7817500000000001
 30
0.0
 10
2.6823800000000002
 20
0.7817500000000001
 30
0.0
 10
2.6823800000000002
 20
0.7817500000000001
 30
0.0
 10
2.42584
 20
1.23895
 30
0.0
 10
2.42584
 20
1.23895
 30
0.0
 10
2.42584
 20
1.23895
 30
0.0
 10
2.42584
 20
1.23895
 30
0.0
 10
2.4664800000000002
 20
1.2643500000000001
 30
0.0
 10
2.4664800000000002
 20
1.2643500000000001
 30
0.0
  0
SPLINE
  5
55
100
AcDbEntity
  8
Ebene 1
 62
     7
100
AcDbSpline
210
0.0
220
0.0
230
1.0
 70
     1
 71
     3
 72
    64
 73
    60
 74
     0
 42
0.0000000001
 43
0.0000000001
 40
0.0
 40
0.0
 40
0.0
 40
0.0
 40
0.0666666666666667
 40
0.0666666666666667
 40
0.0666666666666667
 40
0.0666666666666667
 40
0.1333333333333333
 40
0.1333333333333333
 40
0.1333333333333333
 40
0.1333333333333333
 40
0.2
 40
0.2
 40
0.2
 40
0.2
 40
0.2666666666666667
 40
0.2666666666666667
 40
0.2666666666666667
 40
0.2666666666666667
 40
0.3333333333333333
 40
0.3333333333333333
 40
0.3333333333333333
 40
0.3333333333333333
 40
0.4
 40
0.4
 40
0.4
 40
0.4
 40
0.4666666666666666
 40
0.4666666666666666
 40
0.4666666666666666
 40
0.4666666666666666
 40
0.5333333333333333
 40
0.5333333333333333
 40
0.5333333333333333
 40
0.5333333333333333
 40
0.6
 40
0.6
 40
0.6
 40
0.6
 40
0.6666666666666666
 40
0.6666666666666666
 40
0.6666666666666666
 40
0.6666666666666666
 40
0.7333333333333333
 40
0.7333333333333333
 40
0.7333333333333333
 40
0.7333333333333333
 40
0.7999999999999999
 40
0.7999999999999999
 40
0.7999999999999999
 40
0.7999999999999999
 40
0.8666666666666666
 40
0.8666666666666666
 40
0.8666666666666666
 40
0.8666666666666666
 40
0.9333333333333332
 40
0.9333333333333332
 40
0.9333333333333332
 40
0.9333333333333332
 40
1.0
 40
1.0
 40
1.0
 40
1.0
 10
-0.9193300000000001
 20
1.2237100000000001
 30
0.0
 10
-0.86853
 20
1.23895
 30
0.0
 10
-0.8532900000000001
 20
1.2110100000000001
 30
0.0
 10
-0.82789
 20
1.1856100000000001
 30
0.0
 10
-0.82789
 20
1.1856100000000001
 30
0.0
 10
-0.6653300000000001
 20
1.3024500000000001
 30
0.0
 10
-0.82789
 20
0.9747900000000001
 30
0.0
 10
-0.63993
 20
1.0103500000000001
 30
0.0
 10
-0.63993
 20
1.0103500000000001
 30
0.0
 10
-0.63993
 20
1.0103500000000001
 30
0.0
 10
-0.71867
 20
0.9671700000000001
 30
0.0
 10
-0.71867
 20
0.9671700000000001
 30
0.0
 10
-0.71867
 20
0.9671700000000001
 30
0.0
 10
-0.7339100000000001
 20
0.95447
 30
0.0
 10
-0.7339100000000001
 20
0.9265300000000001
 30
0.0
 10
-0.7339100000000001
 20
0.9062100000000001
 30
0.0
 10
-0.7339100000000001
 20
0.9062100000000001
 30
0.0
 10
-0.7339100000000001
 20
0.9062100000000001
 30
0.0
 10
0.04078
 20
1.0103500000000001
 30
0.0
 10
0.04078
 20
1.0103500000000001
 30
0.0
 10
0.04078
 20
1.0103500000000001
 30
0.0
 10
0.04078
 20
1.0103500000000001
 30
0.0
 10
0.29732
 20
0.95701
 30
0.0
 10
0.29732
 20
0.95701
 30
0.0
 10
0.29732
 20
0.95701
 30
0.0
 10
-0.27925
 20
0.7106300000000001
 30
0.0
 10
-0.9472700000000001
 20
0.6445900000000001
 30
0.0
 10
-1.58989
 20
0.6115700000000001
 30
0.0
 10
-1.58989
 20
0.6115700000000001
 30
0.0
 10
-1.41717
 20
0.83001
 30
0.0
 10
-1.9404100000000002
 20
0.87065
 30
0.0
 10
-1.7524500000000001
 20
0.9824100000000001
 30
0.0
 10
-1.7524500000000001
 20
0.9824100000000001
 30
0.0
 10
-1.7245100000000002
 20
0.9671700000000001
 30
0.0
 10
-1.67117
 20
1.0103500000000001
 30
0.0
 10
-1.7245100000000002
 20
1.0103500000000001
 30
0.0
 10
-1.7245100000000002
 20
1.0103500000000001
 30
0.0
 10
-2.11313
 20
1.0382900000000002
 30
0.0
 10
-1.63053
 20
1.1195700000000002
 30
0.0
 10
-1.4832100000000001
 20
1.1170300000000002
 30
0.0
 10
-1.4832100000000001
 20
1.1170300000000002
 30
0.0
 10
-1.4832100000000001
 20
1.1170300000000002
 30
0.0
 10
-1.3638300000000001
 20
1.1271900000000001
 30
0.0
 10
-1.3638300000000001
 20
1.1271900000000001
 30
0.0
 10
-1.3638300000000001
 20
1.1271900000000001
 30
0.0
 10
-1.5517900000000002
 20
0.8808100000000001
 30
0.0
 10
-1.0133100000000002
 20
0.6268100000000001
 30
0.0
 10
-0.8405900000000001
 20
0.87319
 30
0.0
 10
-0.8405900000000001
 20
0.87319
 30
0.0
 10
-0.8405900000000001
 20
0.87319
 30
0.0
 10
-1.04125
 20
0.8757300000000001
 30
0.0
 10
-1.04125
 20
0.8757300000000001
 30
0.0
 10
-1.04125
 20
0.8757300000000001
 30
0.0
 10
-0.8405900000000001
 20
0.9747900000000001
 30
0.0
 10
-1.1758700000000002
 20
1.19069
 30
0.0
 10
-1.3231900000000001
 20
1.1297300000000001
 30
0.0
 10
-1.3231900000000001
 20
1.1297300000000001
 30
0.0
 10
-1.2165100000000002
 20
1.2186300000000001
 30
0.0
 10
-1.0133100000000002
 20
1.1322700000000001
 30
0.0
 10
-0.9193300000000001
 20
1.2237100000000001
 30
0.0
  0
SPLINE
  5
56
100
AcDbEntity
  8
Ebene 1
 62
     7
100
AcDbSpline
210
0.0
220
0.0
230
1.0
 70
     1
 71
     3
 72
    24
 73
    20
 74
     0
 42
0.0000000001
 43
0.0000000001
 40
0.0
 40
0.0
 40
0.0
 40
0.0
 40
0.2
 40
0.2
 40
0.2
 40
0.2
 40
0.4
 40
0.4
 40
0.4
 40
0.4
 40
0.6000000000000001
 40
0.6000000000000001
 40
0.6000000000000001
 40
0.6000000000000001
 40
0.8
 40
0.8
 40
0.8
 40
0.8
 40
1.0
 40
1.0
 40
1.0
 40
1.0
 10
3.7923600000000004
 20
1.0916300000000001
 30
0.0
 10
3.7923600000000004
 20
1.0916300000000001
 30
0.0
 10
3.8203000000000005
 20
1.0890900000000001
 30
0.0
 10
3.8203000000000005
 20
1.0890900000000001
 30
0.0
 10
3.8203000000000005
 20
1.0890900000000001
 30
0.0
 10
3.8457000000000003
 20
0.8579500000000001
 30
0.0
 10
3.8457000000000003
 20
0.61919
 30
0.0
 10
3.7923600000000004
 20
0.40837
 30
0.0
 10
3.7923600000000004
 20
0.40837
 30
0.0
 10
3.7923600000000004
 20
0.40837
 30
0.0
 10
3.7542600000000004
 20
0.4845700000000001
 30
0.0
 10
3.7542600000000004
 20
0.4845700000000001
 30
0.0
 10
3.7542600000000004
 20
0.4845700000000001
 30
0.0
 10
3.6450400000000003
 20
0.53283
 30
0.0
 10
3.5536000000000003
 20
0.6496700000000001
 30
0.0
 10
3.6450400000000003
 20
0.7563500000000001
 30
0.0
 10
3.6450400000000003
 20
0.7563500000000001
 30
0.0
 10
3.6196400000000004
 20
0.89351
 30
0.0
 10
3.7390200000000005
 20
0.9722500000000001
 30
0.0
 10
3.7923600000000004
 20
1.0916300000000001
 30
0.0
  0
SPLINE
  5
57
100
AcDbEntity
  8
Ebene 1
 62
     7
100
AcDbSpline
210
0.0
220
0.0
230
1.0
 70
     1
 71
     3
 72
    48
 73
    44
 74
     0
 42
0.0000000001
 43
0.0000000001
 40
0.0
 40
0.0
 40
0.0
 40
0.0
 40
0.0909090909090909
 40
0.0909090909090909
 40
0.0909090909090909
 40
0.0909090909090909
 40
0.1818181818181818
 40
0.1818181818181818
 40
0.1818181818181818
 40
0.1818181818181818
 40
0.2727272727272727
 40
0.2727272727272727
 40
0.2727272727272727
 40
0.2727272727272727
 40
0.3636363636363637
 40
0.3636363636363637
 40
0.3636363636363637
 40
0.3636363636363637
 40
0.4545454545454546
 40
0.4545454545454546
 40
0.4545454545454546
 40
0.4545454545454546
 40
0.5454545454545455
 40
0.5454545454545455
 40
0.5454545454545455
 40
0.5454545454545455
 40
0.6363636363636365
 40
0.6363636363636365
 40
0.6363636363636365
 40
0.6363636363636365
 40
0.7272727272727274
 40
0.7272727272727274
 40
0.7272727272727274
 40
0.7272727272727274
 40
0.8181818181818183
 40
0.8181818181818183
 40
0.8181818181818183
 40
0.8181818181818183
 40
0.9090909090909093
 40
0.9090909090909093
 40
0.9090909090909093
 40
0.9090909090909093
 40
1.0
 40
1.0
 40
1.0
 40
1.0
 10
1.0059800000000001
 20
0.9290700000000001
 30
0.0
 10
0.9653400000000001
 20
0.5074300000000001
 30
0.0
 10
0.3354200000000001
 20
0.41599
 30
0.0
 10
0.04078
 20
0.10357
 30
0.0
 10
0.04078
 20
0.10357
 30
0.0
 10
0.10936
 20
0.26613
 30
0.0
 10
0.31002
 20
0.47187
 30
0.0
 10
0.32272
 20
0.59379
 30
0.0
 10
0.32272
 20
0.59379
 30
0.0
 10
0.1627
 20
0.4617100000000001
 30
0.0
 10
0.1627
 20
0.38551
 30
0.0
 10
0.06872
 20
0.47187
 30
0.0
 10
0.06872
 20
0.47187
 30
0.0
 10
-0.05065
 20
0.30677
 30
0.0
 10
-0.18273
 20
0.16453
 30
0.0
 10
-0.27925
 20
-0.0158
 30
0.0
 10
-0.27925
 20
-0.0158
 30
0.0
 10
-0.57135
 20
0.05531
 30
0.0
 10
-0.7059700000000001
 20
-0.23424
 30
0.0
 10
-0.9752100000000001
 20
-0.219
 30
0.0
 10
-0.9752100000000001
 20
-0.219
 30
0.0
 10
-1.2012700000000001
 20
-0.08438
 30
0.0
 10
-1.4298700000000002
 20
-0.05644
 30
0.0
 10
-1.58989
 20
0.17723
 30
0.0
 10
-1.58989
 20
0.17723
 30
0.0
 10
-1.8184900000000002
 20
0.22803
 30
0.0
 10
-2.0877300000000001
 20
0.30423
 30
0.0
 10
-2.2198100000000003
 20
0.4845700000000001
 30
0.0
 10
-2.2198100000000003
 20
0.4845700000000001
 30
0.0
 10
-2.2198100000000003
 20
0.4845700000000001
 30
0.0
 10
-1.63053
 20
0.48965
 30
0.0
 10
-1.63053
 20
0.48965
 30
0.0
 10
-1.63053
 20
0.48965
 30
0.0
 10
-1.4019300000000001
 20
0.34487
 30
0.0
 10
-1.2165100000000002
 20
-0.2444
 30
0.0
 10
-0.9066300000000001
 20
0.15183
 30
0.0
 10
-0.9066300000000001
 20
0.15183
 30
0.0
 10
-0.5459500000000001
 20
0.00451
 30
0.0
 10
-0.28941
 20
0.28391
 30
0.0
 10
-0.07605
 20
0.57855
 30
0.0
 10
-0.07605
 20
0.57855
 30
0.0
 10
0.29732
 20
0.6344300000000001
 30
0.0
 10
0.6707000000000001
 20
0.7766700000000001
 30
0.0
 10
1.0059800000000001
 20
0.9290700000000001
 30
0.0
  0
SPLINE
  5
58
100
AcDbEntity
  8
Ebene 1
 62
     7
100
AcDbSpline
210
0.0
220
0.0
230
1.0
 70
     1
 71
     3
 72
    28
 73
    24
 74
     0
 42
0.0000000001
 43
0.0000000001
 40
0.0
 40
0.0
 40
0.0
 40
0.0
 40
0.1666666666666667
 40
0.1666666666666667
 40
0.1666666666666667
 40
0.1666666666666667
 40
0.3333333333333333
 40
0.3333333333333333
 40
0.3333333333333333
 40
0.3333333333333333
 40
0.5
 40
0.5
 40
0.5
 40
0.5
 40
0.6666666666666666
 40
0.6666666666666666
 40
0.6666666666666666
 40
0.6666666666666666
 40
0.8333333333333333
 40
0.8333333333333333
 40
0.8333333333333333
 40
0.8333333333333333
 40
1.0
 40
1.0
 40
1.0
 40
1.0
 10
-2.30871
 20
0.9697100000000001
 30
0.0
 10
-2.30871
 20
0.9697100000000001
 30
0.0
 10
-2.1766300000000003
 20
0.9595500000000001
 30
0.0
 10
-2.1766300000000003
 20
0.9595500000000001
 30
0.0
 10
-2.1766300000000003
 20
0.9595500000000001
 30
0.0
 10
-2.1766300000000003
 20
0.9595500000000001
 30
0.0
 10
-2.0826500000000001
 20
0.9265300000000001
 30
0.0
 10
-2.0826500000000001
 20
0.9265300000000001
 30
0.0
 10
-2.0826500000000001
 20
0.9265300000000001
 30
0.0
 10
-2.0826500000000001
 20
0.9265300000000001
 30
0.0
 10
-2.0953500000000003
 20
0.8808100000000001
 30
0.0
 10
-2.0953500000000003
 20
0.8808100000000001
 30
0.0
 10
-2.0953500000000003
 20
0.8808100000000001
 30
0.0
 10
-2.2426700000000004
 20
0.8757300000000001
 30
0.0
 10
-2.36205
 20
0.9036700000000001
 30
0.0
 10
-2.4966700000000004
 20
0.9214500000000001
 30
0.0
 10
-2.4966700000000004
 20
0.9214500000000001
 30
0.0
 10
-2.4839700000000002
 20
0.95701
 30
0.0
 10
-2.4306300000000003
 20
0.93669
 30
0.0
 10
-2.4026900000000002
 20
0.9417700000000001
 30
0.0
 10
-2.4026900000000002
 20
0.9417700000000001
 30
0.0
 10
-2.3772900000000003
 20
0.9493900000000001
 30
0.0
 10
-2.3366500000000001
 20
0.9493900000000001
 30
0.0
 10
-2.30871
 20
0.9697100000000001
 30
0.0
  0
SPLINE
  5
59
100
AcDbEntity
  8
Ebene 1
 62
     7
100
AcDbSpline
210
0.0
220
0.0
230
1.0
 70
     1
 71
     3
 72
    24
 73
    20
 74
     0
 42
0.0000000001
 43
0.0000000001
 40
0.0
 40
0.0
 40
0.0
 40
0.0
 40
0.2
 40
0.2
 40
0.2
 40
0.2
 40
0.4
 40
0.4
 40
0.4
 40
0.4
 40
0.6000000000000001
 40
0.6000000000000001
 40
0.6000000000000001
 40
0.6000000000000001
 40
0.8
 40
0.8
 40
0.8
 40
0.8
 40
1.0
 40
1.0
 40
1.0
 40
1.0
 10
-3.3043900000000002
 20
0.85033
 30
0.0
 10
-3.0249900000000003
 20
0.7538100000000001
 30
0.0
 10
-2.6363700000000003
 20
0.8325500000000001
 30
0.0
 10
-2.3544300000000002
 20
0.7284100000000001
 30
0.0
 10
-2.3544300000000002
 20
0.7284100000000001
 30
0.0
 10
-2.2883900000000001
 20
0.89097
 30
0.0
 10
-2.0013700000000001
 20
0.85287
 30
0.0
 10
-1.9759700000000002
 20
0.6699900000000001
 30
0.0
 10
-1.9759700000000002
 20
0.6699900000000001
 30
0.0
 10
-1.9480300000000002
 20
0.68015
 30
0.0
 10
-1.8845300000000003
 20
0.6445900000000001
 30
0.0
 10
-1.8718300000000001
 20
0.59887
 30
0.0
 10
-1.8718300000000001
 20
0.59887
 30
0.0
 10
-2.3671300000000004
 20
0.55061
 30
0.0
 10
-2.82179
 20
0.6445900000000001
 30
0.0
 10
-3.2891500000000002
 20
0.74619
 30
0.0
 10
-3.2891500000000002
 20
0.74619
 30
0.0
 10
-3.3094700000000001
 20
0.7741300000000001
 30
0.0
 10
-3.3323300000000002
 20
0.8173100000000001
 30
0.0
 10
-3.3043900000000002
 20
0.85033
 30
0.0
  0
SPLINE
  5
5A
100
AcDbEntity
  8
Ebene 1
 62
     7
100
AcDbSpline
210
0.0
220
0.0
230
1.0
 70
     1
 71
     3
 72
    24
 73
    20
 74
     0
 42
0.0000000001
 43
0.0000000001
 40
0.0
 40
0.0
 40
0.0
 40
0.0
 40
0.2
 40
0.2
 40
0.2
 40
0.2
 40
0.4
 40
0.4
 40
0.4
 40
0.4
 40
0.6000000000000001
 40
0.6000000000000001
 40
0.6000000000000001
 40
0.6000000000000001
 40
0.8
 40
0.8
 40
0.8
 40
0.8
 40
1.0
 40
1.0
 40
1.0
 40
1.0
 10
2.0118200000000002
 20
0.7157100000000001
 30
0.0
 10
2.0651600000000001
 20
0.68015
 30
0.0
 10
2.03722
 20
0.60141
 30
0.0
 10
2.05246
 20
0.5455300000000001
 30
0.0
 10
2.05246
 20
0.5455300000000001
 30
0.0
 10
2.1439000000000004
 20
0.46679
 30
0.0
 10
2.2658200000000002
 20
0.27629
 30
0.0
 10
2.1058000000000003
 20
0.2737500000000001
 30
0.0
 10
2.1058000000000003
 20
0.2737500000000001
 30
0.0
 10
2.1591400000000003
 20
0.06293
 30
0.0
 10
1.9584800000000002
 20
-0.0793
 30
0.0
 10
1.7705200000000001
 20
-0.10724
 30
0.0
 10
1.7705200000000001
 20
-0.10724
 30
0.0
 10
1.7705200000000001
 20
-0.09962
 30
0.0
 10
1.7425800000000002
 20
-0.08946
 30
0.0
 10
1.7578200000000002
 20
-0.07422
 30
0.0
 10
1.7578200000000002
 20
-0.07422
 30
0.0
 10
1.9584800000000002
 20
0.13659
 30
0.0
 10
1.9432400000000001
 20
0.44647
 30
0.0
 10
2.0118200000000002
 20
0.7157100000000001
 30
0.0
  0
SPLINE
  5
5B
100
AcDbEntity
  8
Ebene 1
 62
     7
100
AcDbSpline
210
0.0
220
0.0
230
1.0
 70
     1
 71
     3
 72
    28
 73
    24
 74
     0
 42
0.0000000001
 43
0.0000000001
 40
0.0
 40
0.0
 40
0.0
 40
0.0
 40
0.1666666666666667
 40
0.1666666666666667
 40
0.1666666666666667
 40
0.1666666666666667
 40
0.3333333333333333
 40
0.3333333333333333
 40
0.3333333333333333
 40
0.3333333333333333
 40
0.5
 40
0.5
 40
0.5
 40
0.5
 40
0.6666666666666666
 40
0.6666666666666666
 40
0.6666666666666666
 40
0.6666666666666666
 40
0.8333333333333333
 40
0.8333333333333333
 40
0.8333333333333333
 40
0.8333333333333333
 40
1.0
 40
1.0
 40
1.0
 40
1.0
 10
-3.4390100000000001
 20
0.6090300000000001
 30
0.0
 10
-3.15707
 20
0.55823
 30
0.0
 10
-2.8776700000000002
 20
0.49981
 30
0.0
 10
-2.5830300000000004
 20
0.48965
 30
0.0
 10
-2.5830300000000004
 20
0.48965
 30
0.0
 10
-2.5703300000000002
 20
0.48203
 30
0.0
 10
-2.5423900000000001
 20
0.46679
 30
0.0
 10
-2.5423900000000001
 20
0.4515500000000001
 30
0.0
 10
-2.5423900000000001
 20
0.4515500000000001
 30
0.0
 10
-2.7024100000000004
 20
0.41853
 30
0.0
 10
-2.8624300000000003
 20
0.41599
 30
0.0
 10
-3.0249900000000003
 20
0.4439300000000001
 30
0.0
 10
-3.0249900000000003
 20
0.4439300000000001
 30
0.0
 10
-3.0249900000000003
 20
0.4439300000000001
 30
0.0
 10
-3.0249900000000003
 20
0.39821
 30
0.0
 10
-3.0249900000000003
 20
0.39821
 30
0.0
 10
-3.0249900000000003
 20
0.39821
 30
0.0
 10
-3.1596100000000003
 20
0.41599
 30
0.0
 10
-3.4263100000000004
 20
0.37535
 30
0.0
 10
-3.4136100000000003
 20
0.5683900000000001
 30
0.0
 10
-3.4136100000000003
 20
0.5683900000000001
 30
0.0
 10
-3.4136100000000003
 20
0.5683900000000001
 30
0.0
 10
-3.4390100000000001
 20
0.6090300000000001
 30
0.0
 10
-3.4390100000000001
 20
0.6090300000000001
 30
0.0
  0
SPLINE
  5
5C
100
AcDbEntity
  8
Ebene 1
 62
     7
100
AcDbSpline
210
0.0
220
0.0
230
1.0
 70
     1
 71
     3
 72
    24
 73
    20
 74
     0
 42
0.0000000001
 43
0.0000000001
 40
0.0
 40
0.0
 40
0.0
 40
0.0
 40
0.2
 40
0.2
 40
0.2
 40
0.2
 40
0.4
 40
0.4
 40
0.4
 40
0.4
 40
0.6000000000000001
 40
0.6000000000000001
 40
0.6000000000000001
 40
0.6000000000000001
 40
0.8
 40
0.8
 40
0.8
 40
0.8
 40
1.0
 40
1.0
 40
1.0
 40
1.0
 10
-0.33005
 20
0.55569
 30
0.0
 10
-0.33005
 20
0.55569
 30
0.0
 10
-0.22337
 20
0.55315
 30
0.0
 10
-0.22337
 20
0.55315
 30
0.0
 10
-0.22337
 20
0.55315
 30
0.0
 10
-0.34529
 20
0.4439300000000001
 30
0.0
 10
-0.4799100000000001
 20
0.33217
 30
0.0
 10
-0.57135
 20
0.19755
 30
0.0
 10
-0.57135
 20
0.19755
 30
0.0
 10
-0.57135
 20
0.19755
 30
0.0
 10
-0.9421900000000001
 20
0.23311
 30
0.0
 10
-0.9421900000000001
 20
0.23311
 30
0.0
 10
-0.9421900000000001
 20
0.23311
 30
0.0
 10
-1.1580900000000001
 20
-0.06914
 30
0.0
 10
-1.2876300000000001
 20
0.2635900000000001
 30
0.0
 10
-1.4349500000000002
 20
0.4540900000000001
 30
0.0
 10
-1.4349500000000002
 20
0.4540900000000001
 30
0.0
 10
-1.03363
 20
0.43631
 30
0.0
 10
-0.71867
 20
0.5074300000000001
 30
0.0
 10
-0.33005
 20
0.55569
 30
0.0
  0
SPLINE
  5
5D
100
AcDbEntity
  8
Ebene 1
 62
     7
100
AcDbSpline
210
0.0
220
0.0
230
1.0
 70
     1
 71
     3
 72
    24
 73
    20
 74
     0
 42
0.0000000001
 43
0.0000000001
 40
0.0
 40
0.0
 40
0.0
 40
0.0
 40
0.2
 40
0.2
 40
0.2
 40
0.2
 40
0.4
 40
0.4
 40
0.4
 40
0.4
 40
0.6000000000000001
 40
0.6000000000000001
 40
0.6000000000000001
 40
0.6000000000000001
 40
0.8
 40
0.8
 40
0.8
 40
0.8
 40
1.0
 40
1.0
 40
1.0
 40
1.0
 10
3.5790000000000002
 20
0.5277500000000001
 30
0.0
 10
3.7796600000000002
 20
0.42615
 30
0.0
 10
3.5790000000000002
 20
0.20009
 30
0.0
 10
3.5790000000000002
 20
0.05023
 30
0.0
 10
3.5790000000000002
 20
0.05023
 30
0.0
 10
3.5790000000000002
 20
0.05023
 30
0.0
 10
3.5383600000000004
 20
0.03245
 30
0.0
 10
3.5383600000000004
 20
0.03245
 30
0.0
 10
3.5383600000000004
 20
0.03245
 30
0.0
 10
3.4977200000000002
 20
0.04007
 30
0.0
 10
3.5129600000000001
 20
0.08325
 30
0.0
 10
3.5129600000000001
 20
0.11119
 30
0.0
 10
3.5129600000000001
 20
0.11119
 30
0.0
 10
3.4850200000000005
 20
0.14421
 30
0.0
 10
3.4570800000000004
 20
0.13405
 30
0.0
 10
3.4316800000000001
 20
0.13151
 30
0.0
 10
3.4316800000000001
 20
0.13151
 30
0.0
 10
3.4570800000000004
 20
0.27121
 30
0.0
 10
3.5256600000000002
 20
0.4007500000000001
 30
0.0
 10
3.5790000000000002
 20
0.5277500000000001
 30
0.0
  0
SPLINE
  5
5E
100
AcDbEntity
  8
Ebene 1
 62
     7
100
AcDbSpline
210
0.0
220
0.0
230
1.0
 70
     1
 71
     3
 72
    16
 73
    12
 74
     0
 42
0.0000000001
 43
0.0000000001
 40
0.0
 40
0.0
 40
0.0
 40
0.0
 40
0.3333333333333333
 40
0.3333333333333333
 40
0.3333333333333333
 40
0.3333333333333333
 40
0.6666666666666666
 40
0.6666666666666666
 40
0.6666666666666666
 40
0.6666666666666666
 40
1.0
 40
1.0
 40
1.0
 40
1.0
 10
1.5165200000000001
 20
0.51505
 30
0.0
 10
1.5546200000000001
 20
0.5201300000000001
 30
0.0
 10
1.6105
 20
0.51505
 30
0.0
 10
1.5952600000000001
 20
0.4642500000000001
 30
0.0
 10
1.5952600000000001
 20
0.4642500000000001
 30
0.0
 10
1.8111600000000001
 20
0.49981
 30
0.0
 10
1.6613000000000002
 20
0.25343
 30
0.0
 10
1.56986
 20
0.20771
 30
0.0
 10
1.56986
 20
0.20771
 30
0.0
 10
1.4200000000000002
 20
0.21787
 30
0.0
 10
1.4758800000000001
 20
0.42869
 30
0.0
 10
1.5165200000000001
 20
0.51505
 30
0.0
  0
SPLINE
  5
5F
100
AcDbEntity
  8
Ebene 1
 62
     7
100
AcDbSpline
210
0.0
220
0.0
230
1.0
 70
     1
 71
     3
 72
    16
 73
    12
 74
     0
 42
0.0000000001
 43
0.0000000001
 40
0.0
 40
0.0
 40
0.0
 40
0.0
 40
0.3333333333333333
 40
0.3333333333333333
 40
0.3333333333333333
 40
0.3333333333333333
 40
0.6666666666666666
 40
0.6666666666666666
 40
0.6666666666666666
 40
0.6666666666666666
 40
1.0
 40
1.0
 40
1.0
 40
1.0
 10
3.3377000000000003
 20
0.49981
 30
0.0
 10
3.3377000000000003
 20
0.49981
 30
0.0
 10
3.3783400000000001
 20
0.49981
 30
0.0
 10
3.3783400000000001
 20
0.49981
 30
0.0
 10
3.3783400000000001
 20
0.49981
 30
0.0
 10
3.3250000000000002
 20
0.37535
 30
0.0
 10
3.3377000000000003
 20
0.21025
 30
0.0
 10
3.2310200000000004
 20
0.11373
 30
0.0
 10
3.2310200000000004
 20
0.11373
 30
0.0
 10
3.1903800000000002
 20
0.24327
 30
0.0
 10
3.2843600000000004
 20
0.38297
 30
0.0
 10
3.3377000000000003
 20
0.49981
 30
0.0
  0
SPLINE
  5
60
100
AcDbEntity
  8
Ebene 1
 62
     7
100
AcDbSpline
210
0.0
220
0.0
230
1.0
 70
     1
 71
     3
 72
    20
 73
    16
 74
     0
 42
0.0000000001
 43
0.0000000001
 40
0.0
 40
0.0
 40
0.0
 40
0.0
 40
0.25
 40
0.25
 40
0.25
 40
0.25
 40
0.5
 40
0.5
 40
0.5
 40
0.5
 40
0.75
 40
0.75
 40
0.75
 40
0.75
 40
1.0
 40
1.0
 40
1.0
 40
1.0
 10
2.3598000000000003
 20
0.31439
 30
0.0
 10
2.3598000000000003
 20
0.31439
 30
0.0
 10
2.4004400000000001
 20
0.31185
 30
0.0
 10
2.4004400000000001
 20
0.31185
 30
0.0
 10
2.4004400000000001
 20
0.31185
 30
0.0
 10
2.4131400000000003
 20
0.16707
 30
0.0
 10
2.4664800000000002
 20
-0.00056
 30
0.0
 10
2.3852000000000002
 20
-0.12502
 30
0.0
 10
2.3852000000000002
 20
-0.12502
 30
0.0
 10
2.3318600000000003
 20
-0.05898
 30
0.0
 10
2.2658200000000002
 20
0.01213
 30
0.0
 10
2.25312
 20
0.09849
 30
0.0
 10
2.25312
 20
0.09849
 30
0.0
 10
2.3191600000000001
 20
0.15183
 30
0.0
 10
2.4131400000000003
 20
0.21279
 30
0.0
 10
2.3598000000000003
 20
0.31439
 30
0.0
  0
SPLINE
  5
61
100
AcDbEntity
  8
Ebene 1
 62
     7
100
AcDbSpline
210
0.0
220
0.0
230
1.0
 70
     1
 71
     3
 72
    16
 73
    12
 74
     0
 42
0.0000000001
 43
0.0000000001
 40
0.0
 40
0.0
 40
0.0
 40
0.0
 40
0.3333333333333333
 40
0.3333333333333333
 40
0.3333333333333333
 40
0.3333333333333333
 40
0.6666666666666666
 40
0.6666666666666666
 40
0.6666666666666666
 40
0.6666666666666666
 40
1.0
 40
1.0
 40
1.0
 40
1.0
 10
1.8238600000000003
 20
0.24835
 30
0.0
 10
1.8365600000000002
 20
0.24835
 30
0.0
 10
1.8518000000000001
 20
0.24835
 30
0.0
 10
1.8518000000000001
 20
0.23311
 30
0.0
 10
1.8518000000000001
 20
0.23311
 30
0.0
 10
1.7832200000000002
 20
0.11627
 30
0.0
 10
1.7705200000000001
 20
-0.14788
 30
0.0
 10
1.56986
 20
-0.09454
 30
0.0
 10
1.56986
 20
-0.09454
 30
0.0
 10
1.4606400000000002
 20
0.08579
 30
0.0
 10
1.7578200000000002
 20
0.13405
 30
0.0
 10
1.8238600000000003
 20
0.24835
 30
0.0
  0
SPLINE
  5
62
100
AcDbEntity
  8
Ebene 1
 62
     7
100
AcDbSpline
210
0.0
220
0.0
230
1.0
 70
     1
 71
     3
 72
    20
 73
    16
 74
     0
 42
0.0000000001
 43
0.0000000001
 40
0.0
 40
0.0
 40
0.0
 40
0.0
 40
0.25
 40
0.25
 40
0.25
 40
0.25
 40
0.5
 40
0.5
 40
0.5
 40
0.5
 40
0.75
 40
0.75
 40
0.75
 40
0.75
 40
1.0
 40
1.0
 40
1.0
 40
1.0
 10
1.2599800000000001
 20
0.19247
 30
0.0
 10
1.2599800000000001
 20
0.19247
 30
0.0
 10
1.4479400000000002
 20
0.07055
 30
0.0
 10
1.4479400000000002
 20
0.07055
 30
0.0
 10
1.4479400000000002
 20
0.07055
 30
0.0
 10
1.4073000000000002
 20
-0.0031
 30
0.0
 10
1.4073000000000002
 20
-0.09708
 30
0.0
 10
1.3285600000000002
 20
-0.15296
 30
0.0
 10
1.3285600000000002
 20
-0.15296
 30
0.0
 10
1.2472800000000002
 20
-0.17328
 30
0.0
 10
1.2472800000000002
 20
-0.11486
 30
0.0
 10
1.2472800000000002
 20
-0.06152
 30
0.0
 10
1.2472800000000002
 20
-0.06152
 30
0.0
 10
1.09996
 20
-0.00564
 30
0.0
 10
1.19394
 20
0.12135
 30
0.0
 10
1.2599800000000001
 20
0.19247
 30
0.0
  0
SPLINE
  5
63
100
AcDbEntity
  8
Ebene 1
 62
     7
100
AcDbSpline
210
0.0
220
0.0
230
1.0
 70
     1
 71
     3
 72
    16
 73
    12
 74
     0
 42
0.0000000001
 43
0.0000000001
 40
0.0
 40
0.0
 40
0.0
 40
0.0
 40
0.3333333333333333
 40
0.3333333333333333
 40
0.3333333333333333
 40
0.3333333333333333
 40
0.6666666666666666
 40
0.6666666666666666
 40
0.6666666666666666
 40
0.6666666666666666
 40
1.0
 40
1.0
 40
1.0
 40
1.0
 10
3.3783400000000001
 20
0.07309
 30
0.0
 10
3.4443800000000002
 20
0.08325
 30
0.0
 10
3.4723200000000003
 20
0.00959
 30
0.0
 10
3.4850200000000005
 20
-0.0412
 30
0.0
 10
3.4850200000000005
 20
-0.0412
 30
0.0
 10
3.4037400000000004
 20
-0.05898
 30
0.0
 10
3.4037400000000004
 20
-0.16566
 30
0.0
 10
3.3123000000000005
 20
-0.16566
 30
0.0
 10
3.3123000000000005
 20
-0.16566
 30
0.0
 10
3.1776800000000001
 20
-0.08184
 30
0.0
 10
3.3783400000000001
 20
-0.00818
 30
0.0
 10
3.3783400000000001
 20
0.07309
 30
0.0
  0
SPLINE
  5
64
100
AcDbEntity
  8
Ebene 1
 62
     7
100
AcDbSpline
210
0.0
220
0.0
230
1.0
 70
     1
 71
     3
 72
    32
 73
    28
 74
     0
 42
0.0000000001
 43
0.0000000001
 40
0.0
 40
0.0
 40
0.0
 40
0.0
 40
0.1428571428571429
 40
0.1428571428571429
 40
0.1428571428571429
 40
0.1428571428571429
 40
0.2857142857142857
 40
0.2857142857142857
 40
0.2857142857142857
 40
0.2857142857142857
 40
0.4285714285714286
 40
0.4285714285714286
 40
0.4285714285714286
 40
0.4285714285714286
 40
0.5714285714285714
 40
0.5714285714285714
 40
0.5714285714285714
 40
0.5714285714285714
 40
0.7142857142857142
 40
0.7142857142857142
 40
0.7142857142857142
 40
0.7142857142857142
 40
0.857142857142857
 40
0.857142857142857
 40
0.857142857142857
 40
0.857142857142857
 40
1.0
 40
1.0
 40
1.0
 40
1.0
 10
2.1845400000000001
 20
0.03245
 30
0.0
 10
2.29122
 20
-0.02596
 30
0.0
 10
2.4004400000000001
 20
-0.19614
 30
0.0
 10
2.29122
 20
-0.3002800000000001
 30
0.0
 10
2.29122
 20
-0.3002800000000001
 30
0.0
 10
2.29122
 20
-0.3104400000000001
 30
0.0
 10
2.29122
 20
-0.32822
 30
0.0
 10
2.3064600000000004
 20
-0.32822
 30
0.0
 10
2.3064600000000004
 20
-0.32822
 30
0.0
 10
2.3064600000000004
 20
-0.32822
 30
0.0
 10
2.3598000000000003
 20
-0.31552
 30
0.0
 10
2.3598000000000003
 20
-0.31552
 30
0.0
 10
2.3598000000000003
 20
-0.31552
 30
0.0
 10
2.29122
 20
-0.36632
 30
0.0
 10
2.2251800000000004
 20
-0.47046
 30
0.0
 10
2.1312000000000002
 20
-0.42982
 30
0.0
 10
2.1312000000000002
 20
-0.42982
 30
0.0
 10
2.1312000000000002
 20
-0.4222
 30
0.0
 10
2.1058000000000003
 20
-0.41204
 30
0.0
 10
2.1185
 20
-0.3968
 30
0.0
 10
2.1185
 20
-0.3968
 30
0.0
 10
2.17184
 20
-0.3002800000000001
 30
0.0
 10
2.1997800000000001
 20
-0.16058
 30
0.0
 10
2.1185
 20
-0.07168
 30
0.0
 10
2.1185
 20
-0.07168
 30
0.0
 10
2.1185
 20
-0.07168
 30
0.0
 10
2.1845400000000001
 20
0.03245
 30
0.0
 10
2.1845400000000001
 20
0.03245
 30
0.0
  0
SPLINE
  5
65
100
AcDbEntity
  8
Ebene 1
 62
     7
100
AcDbSpline
210
0.0
220
0.0
230
1.0
 70
     1
 71
     3
 72
    16
 73
    12
 74
     0
 42
0.0000000001
 43
0.0000000001
 40
0.0
 40
0.0
 40
0.0
 40
0.0
 40
0.3333333333333333
 40
0.3333333333333333
 40
0.3333333333333333
 40
0.3333333333333333
 40
0.6666666666666666
 40
0.6666666666666666
 40
0.6666666666666666
 40
0.6666666666666666
 40
1.0
 40
1.0
 40
1.0
 40
1.0
 10
1.9838800000000001
 20
-0.05898
 30
0.0
 10
2.1185
 20
-0.05898
 30
0.0
 10
2.1185
 20
-0.3079
 30
0.0
 10
2.0245200000000003
 20
-0.36632
 30
0.0
 10
2.0245200000000003
 20
-0.36632
 30
0.0
 10
1.9026000000000001
 20
-0.37648
 30
0.0
 10
1.8899000000000001
 20
-0.26472
 30
0.0
 10
1.8645
 20
-0.17836
 30
0.0
 10
1.8645
 20
-0.17836
 30
0.0
 10
1.8645
 20
-0.17836
 30
0.0
 10
1.9838800000000001
 20
-0.05898
 30
0.0
 10
1.9838800000000001
 20
-0.05898
 30
0.0
  0
SPLINE
  5
66
100
AcDbEntity
  8
Ebene 1
 62
     7
100
AcDbSpline
210
0.0
220
0.0
230
1.0
 70
     1
 71
     3
 72
    16
 73
    12
 74
     0
 42
0.0000000001
 43
0.0000000001
 40
0.0
 40
0.0
 40
0.0
 40
0.0
 40
0.3333333333333333
 40
0.3333333333333333
 40
0.3333333333333333
 40
0.3333333333333333
 40
0.6666666666666666
 40
0.6666666666666666
 40
0.6666666666666666
 40
0.6666666666666666
 40
1.0
 40
1.0
 40
1.0
 40
1.0
 10
1.4200000000000002
 20
-0.25964
 30
0.0
 10
1.4606400000000002
 20
-0.3079
 30
0.0
 10
1.4606400000000002
 20
-0.43998
 30
0.0
 10
1.4200000000000002
 20
-0.4882400000000001
 30
0.0
 10
1.4200000000000002
 20
-0.4882400000000001
 30
0.0
 10
1.3819000000000001
 20
-0.45014
 30
0.0
 10
1.31332
 20
-0.43236
 30
0.0
 10
1.31332
 20
-0.36632
 30
0.0
 10
1.31332
 20
-0.36632
 30
0.0
 10
1.31332
 20
-0.36632
 30
0.0
 10
1.4200000000000002
 20
-0.25964
 30
0.0
 10
1.4200000000000002
 20
-0.25964
 30
0.0
  0
SPLINE
  5
67
100
AcDbEntity
  8
Ebene 1
 62
     7
100
AcDbSpline
210
0.0
220
0.0
230
1.0
 70
     1
 71
     3
 72
    16
 73
    12
 74
     0
 42
0.0000000001
 43
0.0000000001
 40
0.0
 40
0.0
 40
0.0
 40
0.0
 40
0.3333333333333333
 40
0.3333333333333333
 40
0.3333333333333333
 40
0.3333333333333333
 40
0.6666666666666666
 40
0.6666666666666666
 40
0.6666666666666666
 40
0.6666666666666666
 40
1.0
 40
1.0
 40
1.0
 40
1.0
 10
1.5419200000000002
 20
-0.25964
 30
0.0
 10
1.5419200000000002
 20
-0.25964
 30
0.0
 10
1.6892400000000001
 20
-0.30282
 30
0.0
 10
1.6892400000000001
 20
-0.30282
 30
0.0
 10
1.6892400000000001
 20
-0.30282
 30
0.0
 10
1.6892400000000001
 20
-0.41204
 30
0.0
 10
1.6359000000000001
 20
-0.50348
 30
0.0
 10
1.56986
 20
-0.5822200000000001
 30
0.0
 10
1.56986
 20
-0.5822200000000001
 30
0.0
 10
1.4073000000000002
 20
-0.53396
 30
0.0
 10
1.5825600000000002
 20
-0.3587
 30
0.0
 10
1.5419200000000002
 20
-0.25964
 30
0.0
  0
SPLINE
  5
68
100
AcDbEntity
  8
Ebene 1
 62
     7
100
AcDbSpline
210
0.0
220
0.0
230
1.0
 70
     1
 71
     3
 72
    24
 73
    20
 74
     0
 42
0.0000000001
 43
0.0000000001
 40
0.0
 40
0.0
 40
0.0
 40
0.0
 40
0.2
 40
0.2
 40
0.2
 40
0.2
 40
0.4
 40
0.4
 40
0.4
 40
0.4
 40
0.6000000000000001
 40
0.6000000000000001
 40
0.6000000000000001
 40
0.6000000000000001
 40
0.8
 40
0.8
 40
0.8
 40
0.8
 40
1.0
 40
1.0
 40
1.0
 40
1.0
 10
1.01868
 20
-0.37902
 30
0.0
 10
1.0339200000000002
 20
-0.37648
 30
0.0
 10
1.0720200000000002
 20
-0.37902
 30
0.0
 10
1.0720200000000002
 20
-0.4044200000000001
 30
0.0
 10
1.0720200000000002
 20
-0.4044200000000001
 30
0.0
 10
0.9653400000000001
 20
-0.4603
 30
0.0
 10
0.95264
 20
-0.5796800000000001
 30
0.0
 10
0.95264
 20
-0.6838200000000001
 30
0.0
 10
0.95264
 20
-0.6838200000000001
 30
0.0
 10
0.912
 20
-0.76256
 30
0.0
 10
0.80532
 20
-0.7727200000000001
 30
0.0
 10
0.72404
 20
-0.7778000000000001
 30
0.0
 10
0.72404
 20
-0.7778000000000001
 30
0.0
 10
0.7926200000000001
 20
-0.71684
 30
0.0
 10
0.83072
 20
-0.4374400000000001
 30
0.0
 10
0.912
 20
-0.61778
 30
0.0
 10
0.912
 20
-0.61778
 30
0.0
 10
0.9247000000000001
 20
-0.52888
 30
0.0
 10
0.9805800000000001
 20
-0.4603
 30
0.0
 10
1.01868
 20
-0.37902
 30
0.0
  0
SPLINE
  5
69
100
AcDbEntity
  8
Ebene 1
 62
     7
100
AcDbSpline
210
0.0
220
0.0
230
1.0
 70
     1
 71
     3
 72
    28
 73
    24
 74
     0
 42
0.0000000001
 43
0.0000000001
 40
0.0
 40
0.0
 40
0.0
 40
0.0
 40
0.1666666666666667
 40
0.1666666666666667
 40
0.1666666666666667
 40
0.1666666666666667
 40
0.3333333333333333
 40
0.3333333333333333
 40
0.3333333333333333
 40
0.3333333333333333
 40
0.5
 40
0.5
 40
0.5
 40
0.5
 40
0.6666666666666666
 40
0.6666666666666666
 40
0.6666666666666666
 40
0.6666666666666666
 40
0.8333333333333333
 40
0.8333333333333333
 40
0.8333333333333333
 40
0.8333333333333333
 40
1.0
 40
1.0
 40
1.0
 40
1.0
 10
1.2472800000000002
 20
-0.41966
 30
0.0
 10
1.2472800000000002
 20
-0.41966
 30
0.0
 10
1.4200000000000002
 20
-0.5822200000000001
 30
0.0
 10
1.4200000000000002
 20
-0.5822200000000001
 30
0.0
 10
1.4200000000000002
 20
-0.5822200000000001
 30
0.0
 10
1.3819000000000001
 20
-0.6609600000000001
 30
0.0
 10
1.3412600000000001
 20
-0.8108200000000001
 30
0.0
 10
1.2193400000000001
 20
-0.7778000000000001
 30
0.0
 10
1.2193400000000001
 20
-0.7778000000000001
 30
0.0
 10
1.2066400000000002
 20
-0.7498600000000001
 30
0.0
 10
1.27522
 20
-0.7524000000000001
 30
0.0
 10
1.2472800000000002
 20
-0.7244600000000001
 30
0.0
 10
1.2472800000000002
 20
-0.7244600000000001
 30
0.0
 10
1.23458
 20
-0.7066800000000001
 30
0.0
 10
1.2066400000000002
 20
-0.71684
 30
0.0
 10
1.19394
 20
-0.7143000000000001
 30
0.0
 10
1.19394
 20
-0.7143000000000001
 30
0.0
 10
1.1279000000000001
 20
-0.69652
 30
0.0
 10
1.0466200000000001
 20
-0.7676400000000001
 30
0.0
 10
0.9932800000000001
 20
-0.69652
 30
0.0
 10
0.9932800000000001
 20
-0.69652
 30
0.0
 10
1.0339200000000002
 20
-0.56952
 30
0.0
 10
1.1533
 20
-0.50856
 30
0.0
 10
1.2472800000000002
 20
-0.41966
 30
0.0
  0
SPLINE
  5
6A
100
AcDbEntity
  8
Ebene 1
 62
     7
100
AcDbSpline
210
0.0
220
0.0
230
1.0
 70
     1
 71
     3
 72
    16
 73
    12
 74
     0
 42
0.0000000001
 43
0.0000000001
 40
0.0
 40
0.0
 40
0.0
 40
0.0
 40
0.3333333333333333
 40
0.3333333333333333
 40
0.3333333333333333
 40
0.3333333333333333
 40
0.6666666666666666
 40
0.6666666666666666
 40
0.6666666666666666
 40
0.6666666666666666
 40
1.0
 40
1.0
 40
1.0
 40
1.0
 10
2.6138000000000003
 20
-0.4349
 30
0.0
 10
2.7077800000000001
 20
-0.4679200000000001
 30
0.0
 10
2.7738200000000002
 20
-0.5644400000000001
 30
0.0
 10
2.8144600000000004
 20
-0.6482600000000001
 30
0.0
 10
2.8144600000000004
 20
-0.6482600000000001
 30
0.0
 10
2.8144600000000004
 20
-0.6482600000000001
 30
0.0
 10
2.5884
 20
-0.80574
 30
0.0
 10
2.5884
 20
-0.80574
 30
0.0
 10
2.5884
 20
-0.80574
 30
0.0
 10
2.6265000000000001
 20
-0.6863600000000001
 30
0.0
 10
2.6265000000000001
 20
-0.55174
 30
0.0
 10
2.6138000000000003
 20
-0.4349
 30
0.0
  0
SPLINE
  5
6B
100
AcDbEntity
  8
Ebene 1
 62
     7
100
AcDbSpline
210
0.0
220
0.0
230
1.0
 70
     1
 71
     3
 72
    24
 73
    20
 74
     0
 42
0.0000000001
 43
0.0000000001
 40
0.0
 40
0.0
 40
0.0
 40
0.0
 40
0.2
 40
0.2
 40
0.2
 40
0.2
 40
0.4
 40
0.4
 40
0.4
 40
0.4
 40
0.6000000000000001
 40
0.6000000000000001
 40
0.6000000000000001
 40
0.6000000000000001
 40
0.8
 40
0.8
 40
0.8
 40
0.8
 40
1.0
 40
1.0
 40
1.0
 40
1.0
 10
1.9991200000000002
 20
-0.4603
 30
0.0
 10
1.9991200000000002
 20
-0.4603
 30
0.0
 10
2.1058000000000003
 20
-0.46284
 30
0.0
 10
2.1058000000000003
 20
-0.46284
 30
0.0
 10
2.1058000000000003
 20
-0.46284
 30
0.0
 10
2.05246
 20
-0.5568200000000001
 30
0.0
 10
1.8645
 20
-0.6127
 30
0.0
 10
1.7578200000000002
 20
-0.6050800000000001
 30
0.0
 10
1.7578200000000002
 20
-0.6050800000000001
 30
0.0
 10
1.7578200000000002
 20
-0.6050800000000001
 30
0.0
 10
1.7832200000000002
 20
-0.56952
 30
0.0
 10
1.7832200000000002
 20
-0.56952
 30
0.0
 10
1.7832200000000002
 20
-0.56952
 30
0.0
 10
1.7832200000000002
 20
-0.56952
 30
0.0
 10
1.8772000000000002
 20
-0.5238
 30
0.0
 10
1.8772000000000002
 20
-0.5238
 30
0.0
 10
1.8772000000000002
 20
-0.5238
 30
0.0
 10
1.8772000000000002
 20
-0.44506
 30
0.0
 10
1.9711800000000002
 20
-0.50348
 30
0.0
 10
1.9991200000000002
 20
-0.4603
 30
0.0
  0
SPLINE
  5
6C
100
AcDbEntity
  8
Ebene 1
 62
     7
100
AcDbSpline
210
0.0
220
0.0
230
1.0
 70
     1
 71
     3
 72
    16
 73
    12
 74
     0
 42
0.0000000001
 43
0.0000000001
 40
0.0
 40
0.0
 40
0.0
 40
0.0
 40
0.3333333333333333
 40
0.3333333333333333
 40
0.3333333333333333
 40
0.3333333333333333
 40
0.6666666666666666
 40
0.6666666666666666
 40
0.6666666666666666
 40
0.6666666666666666
 40
1.0
 40
1.0
 40
1.0
 40
1.0
 10
3.5256600000000002
 20
-0.4882400000000001
 30
0.0
 10
3.6856800000000005
 20
-0.47554
 30
0.0
 10
3.5536000000000003
 20
-0.6050800000000001
 30
0.0
 10
3.4850200000000005
 20
-0.63556
 30
0.0
 10
3.4850200000000005
 20
-0.63556
 30
0.0
 10
3.4570800000000004
 20
-0.5974600000000001
 30
0.0
 10
3.4189800000000004
 20
-0.53142
 30
0.0
 10
3.5129600000000001
 20
-0.5238
 30
0.0
 10
3.5129600000000001
 20
-0.5238
 30
0.0
 10
3.5129600000000001
 20
-0.5238
 30
0.0
 10
3.5256600000000002
 20
-0.4882400000000001
 30
0.0
 10
3.5256600000000002
 20
-0.4882400000000001
 30
0.0
  0
SPLINE
  5
6D
100
AcDbEntity
  8
Ebene 1
 62
     7
100
AcDbSpline
210
0.0
220
0.0
230
1.0
 70
     1
 71
     3
 72
    20
 73
    16
 74
     0
 42
0.0000000001
 43
0.0000000001
 40
0.0
 40
0.0
 40
0.0
 40
0.0
 40
0.25
 40
0.25
 40
0.25
 40
0.25
 40
0.5
 40
0.5
 40
0.5
 40
0.5
 40
0.75
 40
0.75
 40
0.75
 40
0.75
 40
1.0
 40
1.0
 40
1.0
 40
1.0
 10
0.76468
 20
-0.5009400000000001
 30
0.0
 10
0.7799200000000001
 20
-0.5009400000000001
 30
0.0
 10
0.7926200000000001
 20
-0.4984000000000001
 30
0.0
 10
0.7926200000000001
 20
-0.5136400000000001
 30
0.0
 10
0.7926200000000001
 20
-0.5136400000000001
 30
0.0
 10
0.76468
 20
-0.6660400000000001
 30
0.0
 10
0.5640200000000001
 20
-0.9124200000000001
 30
0.0
 10
0.4167
 20
-0.74224
 30
0.0
 10
0.4167
 20
-0.74224
 30
0.0
 10
0.4167
 20
-0.74224
 30
0.0
 10
0.51068
 20
-0.7117600000000001
 30
0.0
 10
0.51068
 20
-0.7117600000000001
 30
0.0
 10
0.51068
 20
-0.7117600000000001
 30
0.0
 10
0.57672
 20
-0.61524
 30
0.0
 10
0.72404
 20
-0.61524
 30
0.0
 10
0.76468
 20
-0.5009400000000001
 30
0.0
  0
SPLINE
  5
6E
100
AcDbEntity
  8
Ebene 1
 62
     7
100
AcDbSpline
210
0.0
220
0.0
230
1.0
 70
     1
 71
     3
 72
    16
 73
    12
 74
     0
 42
0.0000000001
 43
0.0000000001
 40
0.0
 40
0.0
 40
0.0
 40
0.0
 40
0.3333333333333333
 40
0.3333333333333333
 40
0.3333333333333333
 40
0.3333333333333333
 40
0.6666666666666666
 40
0.6666666666666666
 40
0.6666666666666666
 40
0.6666666666666666
 40
1.0
 40
1.0
 40
1.0
 40
1.0
 10
-2.3417300000000001
 20
-0.52888
 30
0.0
 10
-2.19441
 20
-0.7066800000000001
 30
0.0
 10
-2.11313
 20
-0.9987800000000001
 30
0.0
 10
-2.2883900000000001
 20
-1.1842000000000001
 30
0.0
 10
-2.2883900000000001
 20
-1.1842000000000001
 30
0.0
 10
-2.2883900000000001
 20
-1.1842000000000001
 30
0.0
 10
-2.3010900000000003
 20
-1.11816
 30
0.0
 10
-2.3010900000000003
 20
-1.11816
 30
0.0
 10
-2.3010900000000003
 20
-1.11816
 30
0.0
 10
-2.2198100000000003
 20
-0.9251200000000001
 30
0.0
 10
-2.3417300000000001
 20
-0.7270000000000001
 30
0.0
 10
-2.3417300000000001
 20
-0.52888
 30
0.0
  0
SPLINE
  5
6F
100
AcDbEntity
  8
Ebene 1
 62
     7
100
AcDbSpline
210
0.0
220
0.0
230
1.0
 70
     1
 71
     3
 72
    24
 73
    20
 74
     0
 42
0.0000000001
 43
0.0000000001
 40
0.0
 40
0.0
 40
0.0
 40
0.0
 40
0.2
 40
0.2
 40
0.2
 40
0.2
 40
0.4
 40
0.4
 40
0.4
 40
0.4
 40
0.6000000000000001
 40
0.6000000000000001
 40
0.6000000000000001
 40
0.6000000000000001
 40
0.8
 40
0.8
 40
0.8
 40
0.8
 40
1.0
 40
1.0
 40
1.0
 40
1.0
 10
3.3250000000000002
 20
-0.5415800000000001
 30
0.0
 10
3.3377000000000003
 20
-0.5390400000000001
 30
0.0
 10
3.3631000000000002
 20
-0.5390400000000001
 30
0.0
 10
3.3783400000000001
 20
-0.5568200000000001
 30
0.0
 10
3.3783400000000001
 20
-0.5568200000000001
 30
0.0
 10
3.4316800000000001
 20
-0.7524000000000001
 30
0.0
 10
3.2564200000000003
 20
-0.9378200000000001
 30
0.0
 10
3.0964
 20
-1.0064000000000002
 30
0.0
 10
3.0964
 20
-1.0064000000000002
 30
0.0
 10
3.0964
 20
-0.8717800000000001
 30
0.0
 10
3.2310200000000004
 20
-0.80574
 30
0.0
 10
3.2437200000000002
 20
-0.67874
 30
0.0
 10
3.2437200000000002
 20
-0.67874
 30
0.0
 10
3.1903800000000002
 20
-0.6203200000000001
 30
0.0
 10
3.1776800000000001
 20
-0.7549400000000001
 30
0.0
 10
3.1218000000000004
 20
-0.7244600000000001
 30
0.0
 10
3.1218000000000004
 20
-0.7244600000000001
 30
0.0
 10
3.0964
 20
-0.5771400000000001
 30
0.0
 10
3.2310200000000004
 20
-0.56952
 30
0.0
 10
3.3250000000000002
 20
-0.5415800000000001
 30
0.0
  0
SPLINE
  5
70
100
AcDbEntity
  8
Ebene 1
 62
     7
100
AcDbSpline
210
0.0
220
0.0
230
1.0
 70
     1
 71
     3
 72
    12
 73
     8
 74
     0
 42
0.0000000001
 43
0.0000000001
 40
0.0
 40
0.0
 40
0.0
 40
0.0
 40
0.5
 40
0.5
 40
0.5
 40
0.5
 40
1.0
 40
1.0
 40
1.0
 40
1.0
 10
-2.0877300000000001
 20
-0.55428
 30
0.0
 10
-2.0470900000000003
 20
-0.61016
 30
0.0
 10
-1.9124700000000001
 20
-0.6279400000000001
 30
0.0
 10
-1.9658100000000001
 20
-0.7117600000000001
 30
0.0
 10
-1.9658100000000001
 20
-0.7117600000000001
 30
0.0
 10
-2.0191500000000002
 20
-0.6889000000000001
 30
0.0
 10
-2.0724900000000002
 20
-0.6203200000000001
 30
0.0
 10
-2.0877300000000001
 20
-0.55428
 30
0.0
  0
SPLINE
  5
71
100
AcDbEntity
  8
Ebene 1
 62
     7
100
AcDbSpline
210
0.0
220
0.0
230
1.0
 70
     1
 71
     3
 72
    16
 73
    12
 74
     0
 42
0.0000000001
 43
0.0000000001
 40
0.0
 40
0.0
 40
0.0
 40
0.0
 40
0.3333333333333333
 40
0.3333333333333333
 40
0.3333333333333333
 40
0.3333333333333333
 40
0.6666666666666666
 40
0.6666666666666666
 40
0.6666666666666666
 40
0.6666666666666666
 40
1.0
 40
1.0
 40
1.0
 40
1.0
 10
-1.8997700000000002
 20
-0.6203200000000001
 30
0.0
 10
-1.6991100000000001
 20
-0.6254000000000001
 30
0.0
 10
-1.8718300000000001
 20
-0.7727200000000001
 30
0.0
 10
-1.8845300000000003
 20
-0.8616200000000001
 30
0.0
 10
-1.8845300000000003
 20
-0.8616200000000001
 30
0.0
 10
-2.0064500000000001
 20
-0.8032
 30
0.0
 10
-1.8464300000000002
 20
-0.7066800000000001
 30
0.0
 10
-1.9124700000000001
 20
-0.6482600000000001
 30
0.0
 10
-1.9124700000000001
 20
-0.6482600000000001
 30
0.0
 10
-1.9124700000000001
 20
-0.6482600000000001
 30
0.0
 10
-1.8997700000000002
 20
-0.6203200000000001
 30
0.0
 10
-1.8997700000000002
 20
-0.6203200000000001
 30
0.0
  0
SPLINE
  5
72
100
AcDbEntity
  8
Ebene 1
 62
     7
100
AcDbSpline
210
0.0
220
0.0
230
1.0
 70
     1
 71
     3
 72
    16
 73
    12
 74
     0
 42
0.0000000001
 43
0.0000000001
 40
0.0
 40
0.0
 40
0.0
 40
0.0
 40
0.3333333333333333
 40
0.3333333333333333
 40
0.3333333333333333
 40
0.3333333333333333
 40
0.6666666666666666
 40
0.6666666666666666
 40
0.6666666666666666
 40
0.6666666666666666
 40
1.0
 40
1.0
 40
1.0
 40
1.0
 10
1.4758800000000001
 20
-0.6203200000000001
 30
0.0
 10
1.6105
 20
-0.6076200000000001
 30
0.0
 10
1.4200000000000002
 20
-0.78288
 30
0.0
 10
1.4200000000000002
 20
-0.67874
 30
0.0
 10
1.4200000000000002
 20
-0.67874
 30
0.0
 10
1.4200000000000002
 20
-0.67874
 30
0.0
 10
1.4479400000000002
 20
-0.6711200000000001
 30
0.0
 10
1.4479400000000002
 20
-0.6711200000000001
 30
0.0
 10
1.4479400000000002
 20
-0.6711200000000001
 30
0.0
 10
1.4479400000000002
 20
-0.6711200000000001
 30
0.0
 10
1.4758800000000001
 20
-0.6203200000000001
 30
0.0
 10
1.4758800000000001
 20
-0.6203200000000001
 30
0.0
  0
SPLINE
  5
73
100
AcDbEntity
  8
Ebene 1
 62
     7
100
AcDbSpline
210
0.0
220
0.0
230
1.0
 70
     1
 71
     3
 72
    36
 73
    32
 74
     0
 42
0.0000000001
 43
0.0000000001
 40
0.0
 40
0.0
 40
0.0
 40
0.0
 40
0.125
 40
0.125
 40
0.125
 40
0.125
 40
0.25
 40
0.25
 40
0.25
 40
0.25
 40
0.375
 40
0.375
 40
0.375
 40
0.375
 40
0.5
 40
0.5
 40
0.5
 40
0.5
 40
0.625
 40
0.625
 40
0.625
 40
0.625
 40
0.75
 40
0.75
 40
0.75
 40
0.75
 40
0.875
 40
0.875
 40
0.875
 40
0.875
 40
1.0
 40
1.0
 40
1.0
 40
1.0
 10
-1.9404100000000002
 20
-0.9835400000000001
 30
0.0
 10
-1.8464300000000002
 20
-1.0191000000000001
 30
0.0
 10
-1.8997700000000002
 20
-1.1003800000000001
 30
0.0
 10
-1.8845300000000003
 20
-1.1791200000000002
 30
0.0
 10
-1.8845300000000003
 20
-1.1791200000000002
 30
0.0
 10
-1.8718300000000001
 20
-1.07498
 30
0.0
 10
-1.7651500000000002
 20
-1.0292600000000001
 30
0.0
 10
-1.6991100000000001
 20
-1.1588000000000001
 30
0.0
 10
-1.6991100000000001
 20
-1.1588000000000001
 30
0.0
 10
-1.7245100000000002
 20
-1.2578600000000002
 30
0.0
 10
-1.7372100000000001
 20
-1.3747
 30
0.0
 10
-1.67117
 20
-1.46106
 30
0.0
 10
-1.67117
 20
-1.46106
 30
0.0
 10
-1.7651500000000002
 20
-1.5118600000000002
 30
0.0
 10
-1.8845300000000003
 20
-1.5296400000000001
 30
0.0
 10
-1.9912100000000001
 20
-1.5271000000000001
 30
0.0
 10
-1.9912100000000001
 20
-1.5271000000000001
 30
0.0
 10
-1.9404100000000002
 20
-1.4509000000000001
 30
0.0
 10
-1.8591300000000002
 20
-1.3442200000000002
 30
0.0
 10
-1.8845300000000003
 20
-1.25024
 30
0.0
 10
-1.8845300000000003
 20
-1.25024
 30
0.0
 10
-1.8845300000000003
 20
-1.25024
 30
0.0
 10
-1.9124700000000001
 20
-1.3010400000000002
 30
0.0
 10
-1.9124700000000001
 20
-1.3010400000000002
 30
0.0
 10
-1.9124700000000001
 20
-1.3010400000000002
 30
0.0
 10
-1.92517
 20
-1.3112000000000001
 30
0.0
 10
-1.9404100000000002
 20
-1.29596
 30
0.0
 10
-1.9531100000000001
 20
-1.28834
 30
0.0
 10
-1.9531100000000001
 20
-1.28834
 30
0.0
 10
-1.9531100000000001
 20
-1.28834
 30
0.0
 10
-1.9404100000000002
 20
-0.9835400000000001
 30
0.0
 10
-1.9404100000000002
 20
-0.9835400000000001
 30
0.0
  0
SPLINE
  5
74
100
AcDbEntity
  8
Ebene 1
 62
     7
100
AcDbSpline
210
0.0
220
0.0
230
1.0
 70
     1
 71
     3
 72
    12
 73
     8
 74
     0
 42
0.0000000001
 43
0.0000000001
 40
0.0
 40
0.0
 40
0.0
 40
0.0
 40
0.5
 40
0.5
 40
0.5
 40
0.5
 40
1.0
 40
1.0
 40
1.0
 40
1.0
 10
-1.29525
 20
-0.9962400000000001
 30
0.0
 10
-1.1606300000000001
 20
-1.0241800000000001
 30
0.0
 10
-1.2825500000000001
 20
-1.1715
 30
0.0
 10
-1.3638300000000001
 20
-1.1791200000000002
 30
0.0
 10
-1.3638300000000001
 20
-1.1791200000000002
 30
0.0
 10
-1.4705100000000002
 20
-1.1105400000000001
 30
0.0
 10
-1.3511300000000002
 20
-1.04196
 30
0.0
 10
-1.29525
 20
-0.9962400000000001
 30
0.0
  0
SPLINE
  5
75
100
AcDbEntity
  8
Ebene 1
 62
     7
100
AcDbSpline
210
0.0
220
0.0
230
1.0
 70
     1
 71
     3
 72
    28
 73
    24
 74
     0
 42
0.0000000001
 43
0.0000000001
 40
0.0
 40
0.0
 40
0.0
 40
0.0
 40
0.1666666666666667
 40
0.1666666666666667
 40
0.1666666666666667
 40
0.1666666666666667
 40
0.3333333333333333
 40
0.3333333333333333
 40
0.3333333333333333
 40
0.3333333333333333
 40
0.5
 40
0.5
 40
0.5
 40
0.5
 40
0.6666666666666666
 40
0.6666666666666666
 40
0.6666666666666666
 40
0.6666666666666666
 40
0.8333333333333333
 40
0.8333333333333333
 40
0.8333333333333333
 40
0.8333333333333333
 40
1.0
 40
1.0
 40
1.0
 40
1.0
 10
-1.5517900000000002
 20
-1.1435600000000001
 30
0.0
 10
-1.5517900000000002
 20
-1.1435600000000001
 30
0.0
 10
-1.4298700000000002
 20
-1.1740400000000002
 30
0.0
 10
-1.4298700000000002
 20
-1.1740400000000002
 30
0.0
 10
-1.4298700000000002
 20
-1.1740400000000002
 30
0.0
 10
-1.4298700000000002
 20
-1.2299200000000001
 30
0.0
 10
-1.4705100000000002
 20
-1.2832600000000001
 30
0.0
 10
-1.5111500000000002
 20
-1.3264400000000001
 30
0.0
 10
-1.5111500000000002
 20
-1.3264400000000001
 30
0.0
 10
-1.5238500000000001
 20
-1.3416800000000002
 30
0.0
 10
-1.5238500000000001
 20
-1.3645400000000001
 30
0.0
 10
-1.5238500000000001
 20
-1.3823200000000002
 30
0.0
 10
-1.5238500000000001
 20
-1.3823200000000002
 30
0.0
 10
-1.3511300000000002
 20
-1.3188200000000001
 30
0.0
 10
-1.5365500000000001
 20
-1.45852
 30
0.0
 10
-1.6178300000000001
 20
-1.4483600000000001
 30
0.0
 10
-1.6178300000000001
 20
-1.4483600000000001
 30
0.0
 10
-1.6991100000000001
 20
-1.4001000000000001
 30
0.0
 10
-1.6991100000000001
 20
-1.1892800000000001
 30
0.0
 10
-1.5771900000000001
 20
-1.1791200000000002
 30
0.0
 10
-1.5771900000000001
 20
-1.1791200000000002
 30
0.0
 10
-1.5771900000000001
 20
-1.1791200000000002
 30
0.0
 10
-1.5517900000000002
 20
-1.1435600000000001
 30
0.0
 10
-1.5517900000000002
 20
-1.1435600000000001
 30
0.0
  0
SPLINE
  5
76
100
AcDbEntity
  8
Ebene 1
 62
     7
100
AcDbSpline
210
0.0
220
0.0
230
1.0
 70
     1
 71
     3
 72
    20
 73
    16
 74
     0
 42
0.0000000001
 43
0.0000000001
 40
0.0
 40
0.0
 40
0.0
 40
0.0
 40
0.25
 40
0.25
 40
0.25
 40
0.25
 40
0.5
 40
0.5
 40
0.5
 40
0.5
 40
0.75
 40
0.75
 40
0.75
 40
0.75
 40
1.0
 40
1.0
 40
1.0
 40
1.0
 10
-2.1817100000000003
 20
-1.1715
 30
0.0
 10
-2.0724900000000002
 20
-1.1715
 30
0.0
 10
-2.0724900000000002
 20
-1.3924800000000002
 30
0.0
 10
-1.9785100000000002
 20
-1.3848600000000002
 30
0.0
 10
-1.9785100000000002
 20
-1.3848600000000002
 30
0.0
 10
-1.9658100000000001
 20
-1.54488
 30
0.0
 10
-2.1258300000000001
 20
-1.5931400000000002
 30
0.0
 10
-2.2604500000000001
 20
-1.5677400000000001
 30
0.0
 10
-2.2604500000000001
 20
-1.5677400000000001
 30
0.0
 10
-2.3010900000000003
 20
-1.4509000000000001
 30
0.0
 10
-2.2071100000000001
 20
-1.3289800000000001
 30
0.0
 10
-2.2198100000000003
 20
-1.1994400000000001
 30
0.0
 10
-2.2198100000000003
 20
-1.1994400000000001
 30
0.0
 10
-2.2071100000000001
 20
-1.1969000000000001
 30
0.0
 10
-2.1817100000000003
 20
-1.1892800000000001
 30
0.0
 10
-2.1817100000000003
 20
-1.1715
 30
0.0
  0
SPLINE
  5
77
100
AcDbEntity
  8
Ebene 1
100
AcDbSpline
210
0.0
220
0.0
230
1.0
 70
     1
 71
     3
 72
    20
 73
    16
 74
     0
 42
0.0000000001
 43
0.0000000001
 40
0.0
 40
0.0
 40
0.0
 40
0.0
 40
0.25
 40
0.25
 40
0.25
 40
0.25
 40
0.5
 40
0.5
 40
0.5
 40
0.5
 40
0.75
 40
0.75
 40
0.75
 40
0.75
 40
1.0
 40
1.0
 40
1.0
 40
1.0
 10
-0.42403
 20
-1.37216
 30
0.0
 10
0.08142
 20
-1.4940800000000001
 30
0.0
 10
0.49798
 20
-2.0300200000000004
 30
0.0
 10
0.5894200000000001
 20
-2.5329400000000004
 30
0.0
 10
0.5894200000000001
 20
-2.5329400000000004
 30
0.0
 10
0.36336
 20
-2.7437600000000004
 30
0.0
 10
0.10936
 20
-2.60914
 30
0.0
 10
-0.07605
 20
-2.4161000000000001
 30
0.0
 10
-0.07605
 20
-2.4161000000000001
 30
0.0
 10
-0.14463
 20
-2.6802600000000001
 30
0.0
 10
-0.4799100000000001
 20
-2.9723600000000001
 30
0.0
 10
-0.6932700000000001
 20
-2.6802600000000001
 30
0.0
 10
-0.6932700000000001
 20
-2.6802600000000001
 30
0.0
 10
-0.7059700000000001
 20
-2.2154400000000001
 30
0.0
 10
-0.7059700000000001
 20
-1.7252200000000002
 30
0.0
 10
-0.42403
 20
-1.37216
 30
0.0
  0
SPLINE
  5
78
100
AcDbEntity
  8
Ebene 1
100
AcDbSpline
210
0.0
220
0.0
230
1.0
 70
     1
 71
     3
 72
    32
 73
    28
 74
     0
 42
0.0000000001
 43
0.0000000001
 40
0.0
 40
0.0
 40
0.0
 40
0.0
 40
0.1428571428571429
 40
0.1428571428571429
 40
0.1428571428571429
 40
0.1428571428571429
 40
0.2857142857142857
 40
0.2857142857142857
 40
0.2857142857142857
 40
0.2857142857142857
 40
0.4285714285714286
 40
0.4285714285714286
 40
0.4285714285714286
 40
0.4285714285714286
 40
0.5714285714285714
 40
0.5714285714285714
 40
0.5714285714285714
 40
0.5714285714285714
 40
0.7142857142857142
 40
0.7142857142857142
 40
0.7142857142857142
 40
0.7142857142857142
 40
0.857142857142857
 40
0.857142857142857
 40
0.857142857142857
 40
0.857142857142857
 40
1.0
 40
1.0
 40
1.0
 40
1.0
 10
-1.1098300000000001
 20
-1.4509000000000001
 30
0.0
 10
-1.0691900000000001
 20
-1.4432800000000001
 30
0.0
 10
-1.0285500000000001
 20
-1.45852
 30
0.0
 10
-1.0285500000000001
 20
-1.5067800000000002
 30
0.0
 10
-1.0285500000000001
 20
-1.5067800000000002
 30
0.0
 10
-1.2698500000000001
 20
-1.7252200000000002
 30
0.0
 10
-1.5644900000000002
 20
-1.7658600000000002
 30
0.0
 10
-1.7778500000000002
 20
-2.02494
 30
0.0
 10
-1.7778500000000002
 20
-2.02494
 30
0.0
 10
-1.7778500000000002
 20
-2.02494
 30
0.0
 10
-1.8591300000000002
 20
-2.0097
 30
0.0
 10
-1.8591300000000002
 20
-2.0097
 30
0.0
 10
-1.8591300000000002
 20
-2.0097
 30
0.0
 10
-1.8591300000000002
 20
-2.0097
 30
0.0
 10
-1.8591300000000002
 20
-1.92334
 30
0.0
 10
-1.8591300000000002
 20
-1.92334
 30
0.0
 10
-1.8591300000000002
 20
-1.92334
 30
0.0
 10
-1.8184900000000002
 20
-1.8852400000000002
 30
0.0
 10
-1.7778500000000002
 20
-1.9436600000000002
 30
0.0
 10
-1.7372100000000001
 20
-1.9030200000000002
 30
0.0
 10
-1.7372100000000001
 20
-1.9030200000000002
 30
0.0
 10
-1.6838700000000002
 20
-1.8471400000000002
 30
0.0
 10
-1.6432300000000002
 20
-1.7252200000000002
 30
0.0
 10
-1.5365500000000001
 20
-1.7557
 30
0.0
 10
-1.5365500000000001
 20
-1.7557
 30
0.0
 10
-1.4298700000000002
 20
-1.5956800000000002
 30
0.0
 10
-1.2292100000000001
 20
-1.6033000000000002
 30
0.0
 10
-1.1098300000000001
 20
-1.4509000000000001
 30
0.0
  0
SPLINE
  5
79
100
AcDbEntity
  8
Ebene 1
 62
     7
100
AcDbSpline
210
0.0
220
0.0
230
1.0
 70
     1
 71
     3
 72
    24
 73
    20
 74
     0
 42
0.0000000001
 43
0.0000000001
 40
0.0
 40
0.0
 40
0.0
 40
0.0
 40
0.2
 40
0.2
 40
0.2
 40
0.2
 40
0.4
 40
0.4
 40
0.4
 40
0.4
 40
0.6000000000000001
 40
0.6000000000000001
 40
0.6000000000000001
 40
0.6000000000000001
 40
0.8
 40
0.8
 40
0.8
 40
0.8
 40
1.0
 40
1.0
 40
1.0
 40
1.0
 10
0.5894200000000001
 20
-1.7201400000000002
 30
0.0
 10
0.7392800000000001
 20
-1.7404600000000001
 30
0.0
 10
0.80532
 20
-1.8852400000000002
 30
0.0
 10
0.95264
 20
-1.9716000000000002
 30
0.0
 10
0.95264
 20
-1.9716000000000002
 30
0.0
 10
1.01868
 20
-1.9639800000000001
 30
0.0
 10
0.9247000000000001
 20
-1.8954000000000002
 30
0.0
 10
0.9247000000000001
 20
-1.8573000000000002
 30
0.0
 10
0.9247000000000001
 20
-1.8573000000000002
 30
0.0
 10
1.3412600000000001
 20
-2.1189200000000001
 30
0.0
 10
2.05246
 20
-2.90124
 30
0.0
 10
1.4200000000000002
 20
-3.2746200000000001
 30
0.0
 10
1.4200000000000002
 20
-3.2746200000000001
 30
0.0
 10
1.4606400000000002
 20
-2.8123400000000003
 30
0.0
 10
1.19394
 20
-2.3195800000000002
 30
0.0
 10
0.8459600000000001
 20
-2.0503400000000003
 30
0.0
 10
0.8459600000000001
 20
-2.0503400000000003
 30
0.0
 10
0.7926200000000001
 20
-1.9258800000000003
 30
0.0
 10
0.6834
 20
-1.8192000000000002
 30
0.0
 10
0.5894200000000001
 20
-1.7201400000000002
 30
0.0
  0
SPLINE
  5
7A
100
AcDbEntity
  8
Ebene 1
 62
     7
100
AcDbSpline
210
0.0
220
0.0
230
1.0
 70
     1
 71
     3
 72
    24
 73
    20
 74
     0
 42
0.0000000001
 43
0.0000000001
 40
0.0
 40
0.0
 40
0.0
 40
0.0
 40
0.2
 40
0.2
 40
0.2
 40
0.2
 40
0.4
 40
0.4
 40
0.4
 40
0.4
 40
0.6000000000000001
 40
0.6000000000000001
 40
0.6000000000000001
 40
0.6000000000000001
 40
0.8
 40
0.8
 40
0.8
 40
0.8
 40
1.0
 40
1.0
 40
1.0
 40
1.0
 10
1.2599800000000001
 20
-1.9208000000000001
 30
0.0
 10
1.6105
 20
-2.1367000000000003
 30
0.0
 10
1.7298800000000001
 20
-2.5634200000000003
 30
0.0
 10
1.8899000000000001
 20
-2.9088600000000002
 30
0.0
 10
1.8899000000000001
 20
-2.9088600000000002
 30
0.0
 10
1.8899000000000001
 20
-2.9088600000000002
 30
0.0
 10
1.9432400000000001
 20
-2.9266400000000004
 30
0.0
 10
1.9432400000000001
 20
-2.9266400000000004
 30
0.0
 10
1.9432400000000001
 20
-2.9266400000000004
 30
0.0
 10
1.9432400000000001
 20
-2.9266400000000004
 30
0.0
 10
1.8899000000000001
 20
-3.0053800000000002
 30
0.0
 10
1.8899000000000001
 20
-3.0053800000000002
 30
0.0
 10
1.8899000000000001
 20
-3.0053800000000002
 30
0.0
 10
1.7832200000000002
 20
-2.8529800000000001
 30
0.0
 10
1.7578200000000002
 20
-2.60406
 30
0.0
 10
1.5952600000000001
 20
-2.4542000000000002
 30
0.0
 10
1.5952600000000001
 20
-2.4542000000000002
 30
0.0
 10
1.56986
 20
-2.2332200000000002
 30
0.0
 10
1.4073000000000002
 20
-2.0833600000000003
 30
0.0
 10
1.2599800000000001
 20
-1.9208000000000001
 30
0.0
  0
SPLINE
  5
7B
100
AcDbEntity
  8
Ebene 1
 62
     7
100
AcDbSpline
210
0.0
220
0.0
230
1.0
 70
     1
 71
     3
 72
    36
 73
    32
 74
     0
 42
0.0000000001
 43
0.0000000001
 40
0.0
 40
0.0
 40
0.0
 40
0.0
 40
0.125
 40
0.125
 40
0.125
 40
0.125
 40
0.25
 40
0.25
 40
0.25
 40
0.25
 40
0.375
 40
0.375
 40
0.375
 40
0.375
 40
0.5
 40
0.5
 40
0.5
 40
0.5
 40
0.625
 40
0.625
 40
0.625
 40
0.625
 40
0.75
 40
0.75
 40
0.75
 40
0.75
 40
0.875
 40
0.875
 40
0.875
 40
0.875
 40
1.0
 40
1.0
 40
1.0
 40
1.0
 10
1.52922
 20
-1.9487400000000001
 30
0.0
 10
1.7171800000000002
 20
-2.0554200000000002
 30
0.0
 10
1.9991200000000002
 20
-2.1621000000000001
 30
0.0
 10
1.9305400000000001
 20
-2.4389600000000002
 30
0.0
 10
1.9305400000000001
 20
-2.4389600000000002
 30
0.0
 10
1.9838800000000001
 20
-2.4643600000000001
 30
0.0
 10
1.9991200000000002
 20
-2.4161000000000001
 30
0.0
 10
1.9991200000000002
 20
-2.3780000000000001
 30
0.0
 10
1.9991200000000002
 20
-2.3780000000000001
 30
0.0
 10
2.05246
 20
-2.1189200000000001
 30
0.0
 10
2.1058000000000003
 20
-2.4542000000000002
 30
0.0
 10
2.1312000000000002
 20
-2.5634200000000003
 30
0.0
 10
2.1312000000000002
 20
-2.5634200000000003
 30
0.0
 10
2.1591400000000003
 20
-2.5405600000000002
 30
0.0
 10
2.1439000000000004
 20
-2.4821400000000002
 30
0.0
 10
2.1439000000000004
 20
-2.4465800000000004
 30
0.0
 10
2.1439000000000004
 20
-2.4465800000000004
 30
0.0
 10
2.1312000000000002
 20
-2.4237200000000003
 30
0.0
 10
2.1058000000000003
 20
-2.3780000000000001
 30
0.0
 10
2.1312000000000002
 20
-2.3627600000000002
 30
0.0
 10
2.1312000000000002
 20
-2.3627600000000002
 30
0.0
 10
2.1591400000000003
 20
-2.3907000000000003
 30
0.0
 10
2.17184
 20
-2.4440400000000002
 30
0.0
 10
2.1845400000000001
 20
-2.48468
 30
0.0
 10
2.1845400000000001
 20
-2.48468
 30
0.0
 10
2.1591400000000003
 20
-2.6167600000000002
 30
0.0
 10
2.1058000000000003
 20
-2.7996400000000001
 30
0.0
 10
1.9838800000000001
 20
-2.8555200000000003
 30
0.0
 10
1.9838800000000001
 20
-2.8555200000000003
 30
0.0
 10
1.9711800000000002
 20
-2.4923000000000002
 30
0.0
 10
1.7425800000000002
 20
-2.2129000000000003
 30
0.0
 10
1.52922
 20
-1.9487400000000001
 30
0.0
  0
SPLINE
  5
7C
100
AcDbEntity
  8
Ebene 1
 62
     7
100
AcDbSpline
210
0.0
220
0.0
230
1.0
 70
     1
 71
     3
 72
    20
 73
    16
 74
     0
 42
0.0000000001
 43
0.0000000001
 40
0.0
 40
0.0
 40
0.0
 40
0.0
 40
0.25
 40
0.25
 40
0.25
 40
0.25
 40
0.5
 40
0.5
 40
0.5
 40
0.5
 40
0.75
 40
0.75
 40
0.75
 40
0.75
 40
1.0
 40
1.0
 40
1.0
 40
1.0
 10
-2.7557500000000004
 20
-2.0808200000000001
 30
0.0
 10
-2.6897100000000003
 20
-2.0935200000000003
 30
0.0
 10
-2.6211300000000004
 20
-2.0935200000000003
 30
0.0
 10
-2.5957300000000001
 20
-2.1621000000000001
 30
0.0
 10
-2.5957300000000001
 20
-2.1621000000000001
 30
0.0
 10
-2.5550900000000003
 20
-2.1265400000000003
 30
0.0
 10
-2.4611100000000001
 20
-2.14432
 30
0.0
 10
-2.4484100000000004
 20
-2.2027400000000004
 30
0.0
 10
-2.4484100000000004
 20
-2.2027400000000004
 30
0.0
 10
-2.5144500000000001
 20
-2.27386
 30
0.0
 10
-2.6617700000000002
 20
-2.26878
 30
0.0
 10
-2.7557500000000004
 20
-2.2383000000000002
 30
0.0
 10
-2.7557500000000004
 20
-2.2383000000000002
 30
0.0
 10
-2.7709900000000003
 20
-2.1849600000000002
 30
0.0
 10
-2.7709900000000003
 20
-2.1290800000000001
 30
0.0
 10
-2.7557500000000004
 20
-2.0808200000000001
 30
0.0
  0
SPLINE
  5
7D
100
AcDbEntity
  8
Ebene 1
100
AcDbSpline
210
0.0
220
0.0
230
1.0
 70
     1
 71
     3
 72
    36
 73
    32
 74
     0
 42
0.0000000001
 43
0.0000000001
 40
0.0
 40
0.0
 40
0.0
 40
0.0
 40
0.125
 40
0.125
 40
0.125
 40
0.125
 40
0.25
 40
0.25
 40
0.25
 40
0.25
 40
0.375
 40
0.375
 40
0.375
 40
0.375
 40
0.5
 40
0.5
 40
0.5
 40
0.5
 40
0.625
 40
0.625
 40
0.625
 40
0.625
 40
0.75
 40
0.75
 40
0.75
 40
0.75
 40
0.875
 40
0.875
 40
0.875
 40
0.875
 40
1.0
 40
1.0
 40
1.0
 40
1.0
 10
0.01538
 20
-2.5507200000000001
 30
0.0
 10
0.01538
 20
-2.5507200000000001
 30
0.0
 10
0.09412
 20
-2.5812000000000004
 30
0.0
 10
0.09412
 20
-2.5812000000000004
 30
0.0
 10
0.09412
 20
-2.5812000000000004
 30
0.0
 10
0.1627
 20
-2.7920200000000004
 30
0.0
 10
0.47004
 20
-2.64724
 30
0.0
 10
0.4827400000000001
 20
-2.8860000000000001
 30
0.0
 10
0.4827400000000001
 20
-2.8860000000000001
 30
0.0
 10
0.4294000000000001
 20
-2.9850600000000003
 30
0.0
 10
0.29732
 20
-2.8809200000000001
 30
0.0
 10
0.21604
 20
-2.9622000000000002
 30
0.0
 10
0.21604
 20
-2.9622000000000002
 30
0.0
 10
0.15
 20
-2.9164800000000004
 30
0.0
 10
0.1881
 20
-2.7869400000000004
 30
0.0
 10
0.10936
 20
-2.7691600000000003
 30
0.0
 10
0.10936
 20
-2.7691600000000003
 30
0.0
 10
0.10936
 20
-2.7691600000000003
 30
0.0
 10
0.09412
 20
-2.9393400000000001
 30
0.0
 10
0.09412
 20
-2.9393400000000001
 30
0.0
 10
0.09412
 20
-2.9393400000000001
 30
0.0
 10
0.09412
 20
-2.9393400000000001
 30
0.0
 10
0.15
 20
-2.9418800000000003
 30
0.0
 10
0.15
 20
-2.9418800000000003
 30
0.0
 10
0.15
 20
-2.9418800000000003
 30
0.0
 10
0.15
 20
-3.0866600000000002
 30
0.0
 10
0.25668
 20
-3.2771600000000003
 30
0.0
 10
0.21604
 20
-3.4092400000000005
 30
0.0
 10
0.21604
 20
-3.4092400000000005
 30
0.0
 10
0.15
 20
-3.1323800000000004
 30
0.0
 10
-0.07605
 20
-2.8453600000000003
 30
0.0
 10
0.01538
 20
-2.5507200000000001
 30
0.0
  0
SPLINE
  5
7E
100
AcDbEntity
  8
Ebene 1
 62
     7
100
AcDbSpline
210
0.0
220
0.0
230
1.0
 70
     1
 71
     3
 72
    20
 73
    16
 74
     0
 42
0.0000000001
 43
0.0000000001
 40
0.0
 40
0.0
 40
0.0
 40
0.0
 40
0.25
 40
0.25
 40
0.25
 40
0.25
 40
0.5
 40
0.5
 40
0.5
 40
0.5
 40
0.75
 40
0.75
 40
0.75
 40
0.75
 40
1.0
 40
1.0
 40
1.0
 40
1.0
 10
2.1312000000000002
 20
-2.8606000000000003
 30
0.0
 10
2.1312000000000002
 20
-2.8606000000000003
 30
0.0
 10
2.1591400000000003
 20
-2.8606000000000003
 30
0.0
 10
2.1591400000000003
 20
-2.8606000000000003
 30
0.0
 10
2.1591400000000003
 20
-2.8606000000000003
 30
0.0
 10
2.17184
 20
-3.0358600000000004
 30
0.0
 10
2.1845400000000001
 20
-3.2390600000000003
 30
0.0
 10
2.1185
 20
-3.3940000000000001
 30
0.0
 10
2.1185
 20
-3.3940000000000001
 30
0.0
 10
2.0245200000000003
 20
-3.2771600000000003
 30
0.0
 10
2.1185
 20
-3.1247600000000002
 30
0.0
 10
2.03722
 20
-2.9926800000000005
 30
0.0
 10
2.03722
 20
-2.9926800000000005
 30
0.0
 10
2.03722
 20
-2.9926800000000005
 30
0.0
 10
2.1312000000000002
 20
-2.8606000000000003
 30
0.0
 10
2.1312000000000002
 20
-2.8606000000000003
 30
0.0
  0
SPLINE
  5
7F
100
AcDbEntity
  8
Ebene 1
 62
     7
100
AcDbSpline
210
0.0
220
0.0
230
1.0
 70
     1
 71
     3
 72
    20
 73
    16
 74
     0
 42
0.0000000001
 43
0.0000000001
 40
0.0
 40
0.0
 40
0.0
 40
0.0
 40
0.25
 40
0.25
 40
0.25
 40
0.25
 40
0.5
 40
0.5
 40
0.5
 40
0.5
 40
0.75
 40
0.75
 40
0.75
 40
0.75
 40
1.0
 40
1.0
 40
1.0
 40
1.0
 10
1.3006200000000001
 20
-3.1273000000000004
 30
0.0
 10
1.3692000000000002
 20
-3.1476200000000003
 30
0.0
 10
1.3285600000000002
 20
-3.2593800000000002
 30
0.0
 10
1.3819000000000001
 20
-3.3025600000000002
 30
0.0
 10
1.3819000000000001
 20
-3.3025600000000002
 30
0.0
 10
1.31332
 20
-3.3508200000000001
 30
0.0
 10
1.27522
 20
-3.4702000000000002
 30
0.0
 10
1.1533
 20
-3.4321000000000002
 30
0.0
 10
1.1533
 20
-3.4321000000000002
 30
0.0
 10
1.1533
 20
-3.4321000000000002
 30
0.0
 10
1.19394
 20
-3.2365200000000001
 30
0.0
 10
1.19394
 20
-3.2365200000000001
 30
0.0
 10
1.19394
 20
-3.2365200000000001
 30
0.0
 10
1.2879200000000002
 20
-3.2568400000000004
 30
0.0
 10
1.2879200000000002
 20
-3.1857200000000003
 30
0.0
 10
1.3006200000000001
 20
-3.1273000000000004
 30
0.0
  0
SPLINE
  5
80
100
AcDbEntity
  8
Ebene 1
 62
     7
100
AcDbSpline
210
0.0
220
0.0
230
1.0
 70
     1
 71
     3
 72
    32
 73
    28
 74
     0
 42
0.0000000001
 43
0.0000000001
 40
0.0
 40
0.0
 40
0.0
 40
0.0
 40
0.1428571428571429
 40
0.1428571428571429
 40
0.1428571428571429
 40
0.1428571428571429
 40
0.2857142857142857
 40
0.2857142857142857
 40
0.2857142857142857
 40
0.2857142857142857
 40
0.4285714285714286
 40
0.4285714285714286
 40
0.4285714285714286
 40
0.4285714285714286
 40
0.5714285714285714
 40
0.5714285714285714
 40
0.5714285714285714
 40
0.5714285714285714
 40
0.7142857142857142
 40
0.7142857142857142
 40
0.7142857142857142
 40
0.7142857142857142
 40
0.857142857142857
 40
0.857142857142857
 40
0.857142857142857
 40
0.857142857142857
 40
1.0
 40
1.0
 40
1.0
 40
1.0
 10
1.7171800000000002
 20
-3.2746200000000001
 30
0.0
 10
1.7705200000000001
 20
-3.2746200000000001
 30
0.0
 10
1.7171800000000002
 20
-3.4803600000000001
 30
0.0
 10
1.7959200000000002
 20
-3.4092400000000005
 30
0.0
 10
1.7959200000000002
 20
-3.4092400000000005
 30
0.0
 10
1.7959200000000002
 20
-3.2924000000000002
 30
0.0
 10
1.8899000000000001
 20
-3.4854400000000001
 30
0.0
 10
1.8645
 20
-3.3813000000000004
 30
0.0
 10
1.8645
 20
-3.3813000000000004
 30
0.0
 10
1.8645
 20
-3.3813000000000004
 30
0.0
 10
1.8645
 20
-3.3432000000000004
 30
0.0
 10
1.8645
 20
-3.3432000000000004
 30
0.0
 10
1.8645
 20
-3.3432000000000004
 30
0.0
 10
1.8645
 20
-3.3228800000000001
 30
0.0
 10
1.8772000000000002
 20
-3.2949400000000004
 30
0.0
 10
1.8899000000000001
 20
-3.2873200000000002
 30
0.0
 10
1.8899000000000001
 20
-3.2873200000000002
 30
0.0
 10
1.9991200000000002
 20
-3.4270200000000002
 30
0.0
 10
1.8772000000000002
 20
-3.5794200000000003
 30
0.0
 10
1.8238600000000003
 20
-3.7115000000000005
 30
0.0
 10
1.8238600000000003
 20
-3.7115000000000005
 30
0.0
 10
1.7298800000000001
 20
-3.6911800000000001
 30
0.0
 10
1.6613000000000002
 20
-3.6022800000000004
 30
0.0
 10
1.6359000000000001
 20
-3.5057600000000004
 30
0.0
 10
1.6359000000000001
 20
-3.5057600000000004
 30
0.0
 10
1.5165200000000001
 20
-3.4143200000000005
 30
0.0
 10
1.6486000000000001
 20
-3.3432000000000004
 30
0.0
 10
1.7171800000000002
 20
-3.2746200000000001
 30
0.0
  0
SPLINE
  5
81
100
AcDbEntity
  8
Ebene 1
 62
     7
100
AcDbSpline
210
0.0
220
0.0
230
1.0
 70
     1
 71
     3
 72
    24
 73
    20
 74
     0
 42
0.0000000001
 43
0.0000000001
 40
0.0
 40
0.0
 40
0.0
 40
0.0
 40
0.2
 40
0.2
 40
0.2
 40
0.2
 40
0.4
 40
0.4
 40
0.4
 40
0.4
 40
0.6000000000000001
 40
0.6000000000000001
 40
0.6000000000000001
 40
0.6000000000000001
 40
0.8
 40
0.8
 40
0.8
 40
0.8
 40
1.0
 40
1.0
 40
1.0
 40
1.0
 10
1.3819000000000001
 20
-3.5032200000000002
 30
0.0
 10
1.4758800000000001
 20
-3.5286200000000001
 30
0.0
 10
1.4479400000000002
 20
-3.6632400000000005
 30
0.0
 10
1.5012800000000002
 20
-3.7292800000000002
 30
0.0
 10
1.5012800000000002
 20
-3.7292800000000002
 30
0.0
 10
1.5012800000000002
 20
-3.7292800000000002
 30
0.0
 10
1.5546200000000001
 20
-3.5565600000000002
 30
0.0
 10
1.5546200000000001
 20
-3.5565600000000002
 30
0.0
 10
1.5546200000000001
 20
-3.5565600000000002
 30
0.0
 10
1.6613000000000002
 20
-3.7292800000000002
 30
0.0
 10
1.52922
 20
-3.9477200000000003
 30
0.0
 10
1.3692000000000002
 20
-4.0391600000000007
 30
0.0
 10
1.3692000000000002
 20
-4.0391600000000007
 30
0.0
 10
1.2193400000000001
 20
-3.9629600000000003
 30
0.0
 10
1.3006200000000001
 20
-3.7546800000000005
 30
0.0
 10
1.2066400000000002
 20
-3.6505400000000003
 30
0.0
 10
1.2066400000000002
 20
-3.6505400000000003
 30
0.0
 10
1.2066400000000002
 20
-3.6505400000000003
 30
0.0
 10
1.3819000000000001
 20
-3.5032200000000002
 30
0.0
 10
1.3819000000000001
 20
-3.5032200000000002
 30
0.0
  0
SPLINE
  5
82
100
AcDbEntity
  8
Ebene 1
 62
     7
100
AcDbSpline
210
0.0
220
0.0
230
1.0
 70
     1
 71
     3
 72
    92
 73
    88
 74
     0
 42
0.0000000001
 43
0.0000000001
 40
0.0
 40
0.0
 40
0.0
 40
0.0
 40
0.0454545454545455
 40
0.0454545454545455
 40
0.0454545454545455
 40
0.0454545454545455
 40
0.0909090909090909
 40
0.0909090909090909
 40
0.0909090909090909
 40
0.0909090909090909
 40
0.1363636363636364
 40
0.1363636363636364
 40
0.1363636363636364
 40
0.1363636363636364
 40
0.1818181818181818
 40
0.1818181818181818
 40
0.1818181818181818
 40
0.1818181818181818
 40
0.2272727272727273
 40
0.2272727272727273
 40
0.2272727272727273
 40
0.2272727272727273
 40
0.2727272727272728
 40
0.2727272727272728
 40
0.2727272727272728
 40
0.2727272727272728
 40
0.3181818181818182
 40
0.3181818181818182
 40
0.3181818181818182
 40
0.3181818181818182
 40
0.3636363636363637
 40
0.3636363636363637
 40
0.3636363636363637
 40
0.3636363636363637
 40
0.4090909090909092
 40
0.4090909090909092
 40
0.4090909090909092
 40
0.4090909090909092
 40
0.4545454545454546
 40
0.4545454545454546
 40
0.4545454545454546
 40
0.4545454545454546
 40
0.5000000000000001
 40
0.5000000000000001
 40
0.5000000000000001
 40
0.5000000000000001
 40
0.5454545454545455
 40
0.5454545454545455
 40
0.5454545454545455
 40
0.5454545454545455
 40
0.5909090909090909
 40
0.5909090909090909
 40
0.5909090909090909
 40
0.5909090909090909
 40
0.6363636363636364
 40
0.6363636363636364
 40
0.6363636363636364
 40
0.6363636363636364
 40
0.6818181818181818
 40
0.6818181818181818
 40
0.6818181818181818
 40
0.6818181818181818
 40
0.7272727272727272
 40
0.7272727272727272
 40
0.7272727272727272
 40
0.7272727272727272
 40
0.7727272727272726
 40
0.7727272727272726
 40
0.7727272727272726
 40
0.7727272727272726
 40
0.818181818181818
 40
0.818181818181818
 40
0.818181818181818
 40
0.818181818181818
 40
0.8636363636363634
 40
0.8636363636363634
 40
0.8636363636363634
 40
0.8636363636363634
 40
0.9090909090909088
 40
0.9090909090909088
 40
0.9090909090909088
 40
0.9090909090909088
 40
0.9545454545454543
 40
0.9545454545454543
 40
0.9545454545454543
 40
0.9545454545454543
 40
1.0
 40
1.0
 40
1.0
 40
1.0
 10
2.7331800000000004
 20
-3.5286200000000001
 30
0.0
 10
3.0303600000000004
 20
-3.8842200000000005
 30
0.0
 10
2.7738200000000002
 20
-4.4176200000000003
 30
0.0
 10
2.5731600000000001
 20
-4.7884600000000006
 30
0.0
 10
2.5731600000000001
 20
-4.7884600000000006
 30
0.0
 10
2.5325200000000003
 20
-4.7554400000000001
 30
0.0
 10
2.6823800000000002
 20
-4.5954200000000007
 30
0.0
 10
2.5604600000000004
 20
-4.60304
 30
0.0
 10
2.5604600000000004
 20
-4.60304
 30
0.0
 10
2.42584
 20
-4.94848
 30
0.0
 10
2.2785200000000003
 20
-5.2761400000000007
 30
0.0
 10
2.05246
 20
-5.5530000000000008
 30
0.0
 10
2.05246
 20
-5.5530000000000008
 30
0.0
 10
2.05246
 20
-5.5530000000000008
 30
0.0
 10
1.9432400000000001
 20
-5.2329600000000003
 30
0.0
 10
1.9432400000000001
 20
-5.2329600000000003
 30
0.0
 10
1.9432400000000001
 20
-5.2329600000000003
 30
0.0
 10
1.8518000000000001
 20
-5.2736000000000001
 30
0.0
 10
1.8645
 20
-4.9891200000000007
 30
0.0
 10
1.7832200000000002
 20
-5.1643800000000004
 30
0.0
 10
1.7832200000000002
 20
-5.1643800000000004
 30
0.0
 10
1.7832200000000002
 20
-5.1643800000000004
 30
0.0
 10
1.7832200000000002
 20
-5.3752000000000004
 30
0.0
 10
1.7832200000000002
 20
-5.3752000000000004
 30
0.0
 10
1.7832200000000002
 20
-5.3752000000000004
 30
0.0
 10
1.56986
 20
-5.0272200000000007
 30
0.0
 10
1.8518000000000001
 20
-4.73766
 30
0.0
 10
2.1312000000000002
 20
-4.60304
 30
0.0
 10
2.1312000000000002
 20
-4.60304
 30
0.0
 10
2.1312000000000002
 20
-4.60304
 30
0.0
 10
2.1185
 20
-4.6767000000000003
 30
0.0
 10
2.1185
 20
-4.6767000000000003
 30
0.0
 10
2.1185
 20
-4.6767000000000003
 30
0.0
 10
2.1185
 20
-4.7554400000000001
 30
0.0
 10
2.17184
 20
-4.6055800000000007
 30
0.0
 10
2.1845400000000001
 20
-4.5750999999999999
 30
0.0
 10
2.1845400000000001
 20
-4.5750999999999999
 30
0.0
 10
2.2124800000000002
 20
-4.5624000000000002
 30
0.0
 10
2.2124800000000002
 20
-4.5420800000000003
 30
0.0
 10
2.2251800000000004
 20
-4.51668
 30
0.0
 10
2.2251800000000004
 20
-4.51668
 30
0.0
 10
2.3471000000000002
 20
-4.3947600000000007
 30
0.0
 10
2.25312
 20
-4.2220400000000007
 30
0.0
 10
2.17184
 20
-4.4227000000000007
 30
0.0
 10
2.17184
 20
-4.4227000000000007
 30
0.0
 10
2.03722
 20
-4.5319200000000004
 30
0.0
 10
1.9305400000000001
 20
-4.6259000000000006
 30
0.0
 10
1.7959200000000002
 20
-4.7503600000000006
 30
0.0
 10
1.7959200000000002
 20
-4.7503600000000006
 30
0.0
 10
1.6892400000000001
 20
-4.8900600000000001
 30
0.0
 10
1.48858
 20
-5.0780200000000004
 30
0.0
 10
1.4200000000000002
 20
-4.7910000000000004
 30
0.0
 10
1.4200000000000002
 20
-4.7910000000000004
 30
0.0
 10
1.7578200000000002
 20
-4.7021000000000006
 30
0.0
 10
1.9711800000000002
 20
-4.4379400000000002
 30
0.0
 10
2.1997800000000001
 20
-4.1864800000000004
 30
0.0
 10
2.1997800000000001
 20
-4.1864800000000004
 30
0.0
 10
2.25312
 20
-4.1763200000000005
 30
0.0
 10
2.2124800000000002
 20
-4.2728400000000004
 30
0.0
 10
2.2658200000000002
 20
-4.2626800000000005
 30
0.0
 10
2.2658200000000002
 20
-4.2626800000000005
 30
0.0
 10
2.2785200000000003
 20
-4.1052
 30
0.0
 10
2.2124800000000002
 20
-3.7978600000000005
 30
0.0
 10
2.4664800000000002
 20
-3.8410400000000005
 30
0.0
 10
2.4664800000000002
 20
-3.8410400000000005
 30
0.0
 10
2.4918800000000001
 20
-3.9121600000000005
 30
0.0
 10
2.4664800000000002
 20
-4.0137600000000004
 30
0.0
 10
2.4537800000000001
 20
-4.0925000000000002
 30
0.0
 10
2.4537800000000001
 20
-4.0925000000000002
 30
0.0
 10
2.4537800000000001
 20
-4.3007800000000005
 30
0.0
 10
2.4918800000000001
 20
-4.6767000000000003
 30
0.0
 10
2.2658200000000002
 20
-4.6843200000000005
 30
0.0
 10
2.2658200000000002
 20
-4.6843200000000005
 30
0.0
 10
2.29122
 20
-5.0221400000000003
 30
0.0
 10
1.9178400000000002
 20
-5.1059600000000005
 30
0.0
 10
2.03722
 20
-5.4133000000000004
 30
0.0
 10
2.03722
 20
-5.4133000000000004
 30
0.0
 10
2.1185
 20
-5.1618400000000007
 30
0.0
 10
2.4664800000000002
 20
-4.7402000000000006
 30
0.0
 10
2.4918800000000001
 20
-4.2957000000000001
 30
0.0
 10
2.4918800000000001
 20
-4.2957000000000001
 30
0.0
 10
2.5604600000000004
 20
-4.2322000000000006
 30
0.0
 10
2.4817200000000001
 20
-4.5192200000000007
 30
0.0
 10
2.5325200000000003
 20
-4.5750999999999999
 30
0.0
 10
2.5325200000000003
 20
-4.5750999999999999
 30
0.0
 10
2.6950800000000004
 20
-4.2728400000000004
 30
0.0
 10
2.5884
 20
-3.8486600000000002
 30
0.0
 10
2.7331800000000004
 20
-3.5286200000000001
 30
0.0
  0
SPLINE
  5
83
100
AcDbEntity
  8
Ebene 1
 62
     7
100
AcDbSpline
210
0.0
220
0.0
230
1.0
 70
     1
 71
     3
 72
    20
 73
    16
 74
     0
 42
0.0000000001
 43
0.0000000001
 40
0.0
 40
0.0
 40
0.0
 40
0.0
 40
0.25
 40
0.25
 40
0.25
 40
0.25
 40
0.5
 40
0.5
 40
0.5
 40
0.5
 40
0.75
 40
0.75
 40
0.75
 40
0.75
 40
1.0
 40
1.0
 40
1.0
 40
1.0
 10
2.0245200000000003
 20
-3.6099000000000001
 30
0.0
 10
2.03722
 20
-3.6073600000000003
 30
0.0
 10
2.0651600000000001
 20
-3.6073600000000003
 30
0.0
 10
2.0778600000000003
 20
-3.6251400000000005
 30
0.0
 10
2.0778600000000003
 20
-3.6251400000000005
 30
0.0
 10
2.1185
 20
-3.7800800000000003
 30
0.0
 10
2.1312000000000002
 20
-3.9985200000000005
 30
0.0
 10
2.03722
 20
-4.1280600000000005
 30
0.0
 10
2.03722
 20
-4.1280600000000005
 30
0.0
 10
2.03722
 20
-4.1280600000000005
 30
0.0
 10
1.9026000000000001
 20
-3.7699200000000004
 30
0.0
 10
1.9026000000000001
 20
-3.7699200000000004
 30
0.0
 10
1.9026000000000001
 20
-3.7699200000000004
 30
0.0
 10
1.9026000000000001
 20
-3.7699200000000004
 30
0.0
 10
2.0245200000000003
 20
-3.6099000000000001
 30
0.0
 10
2.0245200000000003
 20
-3.6099000000000001
 30
0.0
  0
SPLINE
  5
84
100
AcDbEntity
  8
Ebene 1
 62
     7
100
AcDbSpline
210
0.0
220
0.0
230
1.0
 70
     1
 71
     3
 72
    28
 73
    24
 74
     0
 42
0.0000000001
 43
0.0000000001
 40
0.0
 40
0.0
 40
0.0
 40
0.0
 40
0.1666666666666667
 40
0.1666666666666667
 40
0.1666666666666667
 40
0.1666666666666667
 40
0.3333333333333333
 40
0.3333333333333333
 40
0.3333333333333333
 40
0.3333333333333333
 40
0.5
 40
0.5
 40
0.5
 40
0.5
 40
0.6666666666666666
 40
0.6666666666666666
 40
0.6666666666666666
 40
0.6666666666666666
 40
0.8333333333333333
 40
0.8333333333333333
 40
0.8333333333333333
 40
0.8333333333333333
 40
1.0
 40
1.0
 40
1.0
 40
1.0
 10
0.8866000000000001
 20
-3.7572200000000002
 30
0.0
 10
1.05932
 20
-3.7216600000000004
 30
0.0
 10
0.9932800000000001
 20
-3.9451800000000001
 30
0.0
 10
1.01868
 20
-4.0340800000000003
 30
0.0
 10
1.01868
 20
-4.0340800000000003
 30
0.0
 10
1.0872600000000001
 20
-4.0340800000000003
 30
0.0
 10
1.0339200000000002
 20
-3.8969200000000002
 30
0.0
 10
1.0872600000000001
 20
-3.8512000000000004
 30
0.0
 10
1.0872600000000001
 20
-3.8512000000000004
 30
0.0
 10
1.2066400000000002
 20
-3.9782000000000002
 30
0.0
 10
1.19394
 20
-4.22966
 30
0.0
 10
1.0059800000000001
 20
-4.2931600000000003
 30
0.0
 10
1.0059800000000001
 20
-4.2931600000000003
 30
0.0
 10
1.0059800000000001
 20
-4.2931600000000003
 30
0.0
 10
0.912
 20
-4.2906200000000005
 30
0.0
 10
0.912
 20
-4.2906200000000005
 30
0.0
 10
0.912
 20
-4.2906200000000005
 30
0.0
 10
0.83072
 20
-4.1458400000000006
 30
0.0
 10
0.7926200000000001
 20
-3.9756600000000004
 30
0.0
 10
0.7392800000000001
 20
-3.8131000000000004
 30
0.0
 10
0.7392800000000001
 20
-3.8131000000000004
 30
0.0
 10
0.7392800000000001
 20
-3.8131000000000004
 30
0.0
 10
0.8866000000000001
 20
-3.7572200000000002
 30
0.0
 10
0.8866000000000001
 20
-3.7572200000000002
 30
0.0
  0
SPLINE
  5
85
100
AcDbEntity
  8
Ebene 1
 62
     7
100
AcDbSpline
210
0.0
220
0.0
230
1.0
 70
     1
 71
     3
 72
    40
 73
    36
 74
     0
 42
0.0000000001
 43
0.0000000001
 40
0.0
 40
0.0
 40
0.0
 40
0.0
 40
0.1111111111111111
 40
0.1111111111111111
 40
0.1111111111111111
 40
0.1111111111111111
 40
0.2222222222222222
 40
0.2222222222222222
 40
0.2222222222222222
 40
0.2222222222222222
 40
0.3333333333333333
 40
0.3333333333333333
 40
0.3333333333333333
 40
0.3333333333333333
 40
0.4444444444444444
 40
0.4444444444444444
 40
0.4444444444444444
 40
0.4444444444444444
 40
0.5555555555555556
 40
0.5555555555555556
 40
0.5555555555555556
 40
0.5555555555555556
 40
0.6666666666666667
 40
0.6666666666666667
 40
0.6666666666666667
 40
0.6666666666666667
 40
0.7777777777777779
 40
0.7777777777777779
 40
0.7777777777777779
 40
0.7777777777777779
 40
0.8888888888888891
 40
0.8888888888888891
 40
0.8888888888888891
 40
0.8888888888888891
 40
1.0
 40
1.0
 40
1.0
 40
1.0
 10
-1.3638300000000001
 20
-3.7978600000000005
 30
0.0
 10
-1.25461
 20
-3.9045400000000003
 30
0.0
 10
-1.2419100000000001
 20
-4.0925000000000002
 30
0.0
 10
-1.1352300000000002
 20
-4.2245800000000004
 30
0.0
 10
-1.1352300000000002
 20
-4.2245800000000004
 30
0.0
 10
-1.1606300000000001
 20
-4.3185600000000006
 30
0.0
 10
-1.1098300000000001
 20
-4.64114
 30
0.0
 10
-1.04125
 20
-4.5370000000000008
 30
0.0
 10
-1.04125
 20
-4.5370000000000008
 30
0.0
 10
-1.0133100000000002
 20
-4.7986200000000006
 30
0.0
 10
-0.7999500000000001
 20
-5.0551600000000008
 30
0.0
 10
-0.5865900000000001
 20
-5.1262800000000004
 30
0.0
 10
-0.5865900000000001
 20
-5.1262800000000004
 30
0.0
 10
-0.5586500000000001
 20
-5.1618400000000007
 30
0.0
 10
-0.5586500000000001
 20
-5.2101000000000006
 30
0.0
 10
-0.5586500000000001
 20
-5.2532800000000002
 30
0.0
 10
-0.5586500000000001
 20
-5.2532800000000002
 30
0.0
 10
-0.6272300000000001
 20
-5.2482000000000006
 30
0.0
 10
-0.6653300000000001
 20
-5.1516800000000007
 30
0.0
 10
-0.7466100000000001
 20
-5.1872400000000001
 30
0.0
 10
-0.7466100000000001
 20
-5.1872400000000001
 30
0.0
 10
-0.71867
 20
-5.1313600000000008
 30
0.0
 10
-0.75931
 20
-5.0602400000000003
 30
0.0
 10
-0.8126500000000001
 20
-5.0297600000000005
 30
0.0
 10
-0.8126500000000001
 20
-5.0297600000000005
 30
0.0
 10
-0.9066300000000001
 20
-5.0373800000000006
 30
0.0
 10
-0.7999500000000001
 20
-5.1440600000000005
 30
0.0
 10
-0.8405900000000001
 20
-5.1770800000000001
 30
0.0
 10
-0.8405900000000001
 20
-5.1770800000000001
 30
0.0
 10
-0.9193300000000001
 20
-5.1085000000000003
 30
0.0
 10
-0.9752100000000001
 20
-5.0043600000000001
 30
0.0
 10
-1.0285500000000001
 20
-4.8849800000000005
 30
0.0
 10
-1.0285500000000001
 20
-4.8849800000000005
 30
0.0
 10
-1.3638300000000001
 20
-4.6233600000000008
 30
0.0
 10
-1.33589
 20
-4.1763200000000005
 30
0.0
 10
-1.3638300000000001
 20
-3.7978600000000005
 30
0.0
  0
SPLINE
  5
86
100
AcDbEntity
  8
Ebene 1
 62
     7
100
AcDbSpline
210
0.0
220
0.0
230
1.0
 70
     1
 71
     3
 72
    20
 73
    16
 74
     0
 42
0.0000000001
 43
0.0000000001
 40
0.0
 40
0.0
 40
0.0
 40
0.0
 40
0.25
 40
0.25
 40
0.25
 40
0.25
 40
0.5
 40
0.5
 40
0.5
 40
0.5
 40
0.75
 40
0.75
 40
0.75
 40
0.75
 40
1.0
 40
1.0
 40
1.0
 40
1.0
 10
-1.1098300000000001
 20
-3.8232600000000003
 30
0.0
 10
-1.0945900000000002
 20
-3.8207200000000001
 30
0.0
 10
-1.0691900000000001
 20
-3.8334200000000003
 30
0.0
 10
-1.0691900000000001
 20
-3.8512000000000004
 30
0.0
 10
-1.0691900000000001
 20
-3.8512000000000004
 30
0.0
 10
-1.0691900000000001
 20
-3.8512000000000004
 30
0.0
 10
-1.1098300000000001
 20
-4.0239200000000004
 30
0.0
 10
-1.1098300000000001
 20
-4.0239200000000004
 30
0.0
 10
-1.1098300000000001
 20
-4.0239200000000004
 30
0.0
 10
-1.0691900000000001
 20
-4.0594800000000006
 30
0.0
 10
-1.04125
 20
-4.1255200000000007
 30
0.0
 10
-1.08189
 20
-4.1687000000000003
 30
0.0
 10
-1.08189
 20
-4.1687000000000003
 30
0.0
 10
-1.2419100000000001
 20
-4.1763200000000005
 30
0.0
 10
-1.1758700000000002
 20
-3.9020000000000001
 30
0.0
 10
-1.1098300000000001
 20
-3.8232600000000003
 30
0.0
  0
SPLINE
  5
87
100
AcDbEntity
  8
Ebene 1
 62
     7
100
AcDbSpline
210
0.0
220
0.0
230
1.0
 70
     1
 71
     3
 72
    32
 73
    28
 74
     0
 42
0.0000000001
 43
0.0000000001
 40
0.0
 40
0.0
 40
0.0
 40
0.0
 40
0.1428571428571429
 40
0.1428571428571429
 40
0.1428571428571429
 40
0.1428571428571429
 40
0.2857142857142857
 40
0.2857142857142857
 40
0.2857142857142857
 40
0.2857142857142857
 40
0.4285714285714286
 40
0.4285714285714286
 40
0.4285714285714286
 40
0.4285714285714286
 40
0.5714285714285714
 40
0.5714285714285714
 40
0.5714285714285714
 40
0.5714285714285714
 40
0.7142857142857142
 40
0.7142857142857142
 40
0.7142857142857142
 40
0.7142857142857142
 40
0.857142857142857
 40
0.857142857142857
 40
0.857142857142857
 40
0.857142857142857
 40
1.0
 40
1.0
 40
1.0
 40
1.0
 10
-0.9599700000000001
 20
-3.8385000000000002
 30
0.0
 10
-0.9066300000000001
 20
-3.8918400000000002
 30
0.0
 10
-0.9752100000000001
 20
-4.0493200000000007
 30
0.0
 10
-0.9193300000000001
 20
-4.13314
 30
0.0
 10
-0.9193300000000001
 20
-4.13314
 30
0.0
 10
-0.9193300000000001
 20
-4.1585400000000003
 30
0.0
 10
-0.9193300000000001
 20
-4.1966400000000004
 30
0.0
 10
-0.8939300000000001
 20
-4.2093400000000001
 30
0.0
 10
-0.8939300000000001
 20
-4.2093400000000001
 30
0.0
 10
-0.8812300000000001
 20
-4.1458400000000006
 30
0.0
 10
-0.9193300000000001
 20
-4.0417000000000005
 30
0.0
 10
-0.8532900000000001
 20
-4.00868
 30
0.0
 10
-0.8532900000000001
 20
-4.00868
 30
0.0
 10
-0.8532900000000001
 20
-4.00868
 30
0.0
 10
-0.8405900000000001
 20
-3.9197800000000003
 30
0.0
 10
-0.8405900000000001
 20
-3.9197800000000003
 30
0.0
 10
-0.8405900000000001
 20
-3.9197800000000003
 30
0.0
 10
-0.65263
 20
-3.9909000000000003
 30
0.0
 10
-0.7999500000000001
 20
-4.30586
 30
0.0
 10
-0.71867
 20
-4.4633400000000005
 30
0.0
 10
-0.71867
 20
-4.4633400000000005
 30
0.0
 10
-0.8405900000000001
 20
-4.4658800000000003
 30
0.0
 10
-0.9472700000000001
 20
-4.3668200000000006
 30
0.0
 10
-0.9752100000000001
 20
-4.2550600000000003
 30
0.0
 10
-0.9752100000000001
 20
-4.2550600000000003
 30
0.0
 10
-1.04125
 20
-4.1280600000000005
 30
0.0
 10
-1.0539500000000002
 20
-3.9553400000000005
 30
0.0
 10
-0.9599700000000001
 20
-3.8385000000000002
 30
0.0
  0
SPLINE
  5
88
100
AcDbEntity
  8
Ebene 1
 62
     7
100
AcDbSpline
210
0.0
220
0.0
230
1.0
 70
     1
 71
     3
 72
    24
 73
    20
 74
     0
 42
0.0000000001
 43
0.0000000001
 40
0.0
 40
0.0
 40
0.0
 40
0.0
 40
0.2
 40
0.2
 40
0.2
 40
0.2
 40
0.4
 40
0.4
 40
0.4
 40
0.4
 40
0.6000000000000001
 40
0.6000000000000001
 40
0.6000000000000001
 40
0.6000000000000001
 40
0.8
 40
0.8
 40
0.8
 40
0.8
 40
1.0
 40
1.0
 40
1.0
 40
1.0
 10
0.4294000000000001
 20
-3.8385000000000002
 30
0.0
 10
0.4294000000000001
 20
-3.8385000000000002
 30
0.0
 10
0.61736
 20
-3.8410400000000005
 30
0.0
 10
0.61736
 20
-3.8410400000000005
 30
0.0
 10
0.61736
 20
-3.8410400000000005
 30
0.0
 10
0.6453000000000001
 20
-3.8816800000000002
 30
0.0
 10
0.6300600000000001
 20
-3.9375600000000004
 30
0.0
 10
0.6453000000000001
 20
-3.9832800000000002
 30
0.0
 10
0.6453000000000001
 20
-3.9832800000000002
 30
0.0
 10
0.76468
 20
-4.1255200000000007
 30
0.0
 10
0.6046600000000001
 20
-4.3719000000000001
 30
0.0
 10
0.4294000000000001
 20
-4.3820600000000001
 30
0.0
 10
0.4294000000000001
 20
-4.3820600000000001
 30
0.0
 10
0.4294000000000001
 20
-4.3820600000000001
 30
0.0
 10
0.32272
 20
-3.8791400000000005
 30
0.0
 10
0.32272
 20
-3.8791400000000005
 30
0.0
 10
0.32272
 20
-3.8791400000000005
 30
0.0
 10
0.32272
 20
-3.8791400000000005
 30
0.0
 10
0.4294000000000001
 20
-3.8385000000000002
 30
0.0
 10
0.4294000000000001
 20
-3.8385000000000002
 30
0.0
  0
SPLINE
  5
89
100
AcDbEntity
  8
Ebene 1
 62
     7
100
AcDbSpline
210
0.0
220
0.0
230
1.0
 70
     1
 71
     3
 72
    20
 73
    16
 74
     0
 42
0.0000000001
 43
0.0000000001
 40
0.0
 40
0.0
 40
0.0
 40
0.0
 40
0.25
 40
0.25
 40
0.25
 40
0.25
 40
0.5
 40
0.5
 40
0.5
 40
0.5
 40
0.75
 40
0.75
 40
0.75
 40
0.75
 40
1.0
 40
1.0
 40
1.0
 40
1.0
 10
1.8645
 20
-3.8512000000000004
 30
0.0
 10
1.8772000000000002
 20
-3.8486600000000002
 30
0.0
 10
1.9026000000000001
 20
-3.8486600000000002
 30
0.0
 10
1.9178400000000002
 20
-3.8664400000000003
 30
0.0
 10
1.9178400000000002
 20
-3.8664400000000003
 30
0.0
 10
1.9432400000000001
 20
-4.0518600000000005
 30
0.0
 10
2.05246
 20
-4.3973000000000004
 30
0.0
 10
1.7832200000000002
 20
-4.4277800000000003
 30
0.0
 10
1.7832200000000002
 20
-4.4277800000000003
 30
0.0
 10
1.7019400000000002
 20
-4.2880800000000008
 30
0.0
 10
1.6892400000000001
 20
-4.1077400000000006
 30
0.0
 10
1.6613000000000002
 20
-3.9477200000000003
 30
0.0
 10
1.6613000000000002
 20
-3.9477200000000003
 30
0.0
 10
1.7171800000000002
 20
-3.8918400000000002
 30
0.0
 10
1.7959200000000002
 20
-3.8715200000000003
 30
0.0
 10
1.8645
 20
-3.8512000000000004
 30
0.0
  0
SPLINE
  5
8A
100
AcDbEntity
  8
Ebene 1
 62
     7
100
AcDbSpline
210
0.0
220
0.0
230
1.0
 70
     1
 71
     3
 72
    20
 73
    16
 74
     0
 42
0.0000000001
 43
0.0000000001
 40
0.0
 40
0.0
 40
0.0
 40
0.0
 40
0.25
 40
0.25
 40
0.25
 40
0.25
 40
0.5
 40
0.5
 40
0.5
 40
0.5
 40
0.75
 40
0.75
 40
0.75
 40
0.75
 40
1.0
 40
1.0
 40
1.0
 40
1.0
 10
0.1881
 20
-3.8766000000000003
 30
0.0
 10
0.31002
 20
-4.0010600000000007
 30
0.0
 10
0.31002
 20
-4.2042600000000006
 30
0.0
 10
0.36336
 20
-4.3744400000000008
 30
0.0
 10
0.36336
 20
-4.3744400000000008
 30
0.0
 10
0.32272
 20
-4.4811200000000007
 30
0.0
 10
0.2008
 20
-4.4506399999999999
 30
0.0
 10
0.10936
 20
-4.4531800000000006
 30
0.0
 10
0.10936
 20
-4.4531800000000006
 30
0.0
 10
0.10936
 20
-4.4531800000000006
 30
0.0
 10
0.02808
 20
-4.4100000000000001
 30
0.0
 10
0.02808
 20
-4.4100000000000001
 30
0.0
 10
0.02808
 20
-4.4100000000000001
 30
0.0
 10
-0.01001
 20
-4.2372800000000002
 30
0.0
 10
-0.05065
 20
-3.9045400000000003
 30
0.0
 10
0.1881
 20
-3.8766000000000003
 30
0.0
  0
SPLINE
  5
8B
100
AcDbEntity
  8
Ebene 1
 62
     7
100
AcDbSpline
210
0.0
220
0.0
230
1.0
 70
     1
 71
     3
 72
    36
 73
    32
 74
     0
 42
0.0000000001
 43
0.0000000001
 40
0.0
 40
0.0
 40
0.0
 40
0.0
 40
0.125
 40
0.125
 40
0.125
 40
0.125
 40
0.25
 40
0.25
 40
0.25
 40
0.25
 40
0.375
 40
0.375
 40
0.375
 40
0.375
 40
0.5
 40
0.5
 40
0.5
 40
0.5
 40
0.625
 40
0.625
 40
0.625
 40
0.625
 40
0.75
 40
0.75
 40
0.75
 40
0.75
 40
0.875
 40
0.875
 40
0.875
 40
0.875
 40
1.0
 40
1.0
 40
1.0
 40
1.0
 10
3.1624400000000001
 20
-3.8918400000000002
 30
0.0
 10
3.2564200000000003
 20
-3.8715200000000003
 30
0.0
 10
3.2310200000000004
 20
-3.9934400000000005
 30
0.0
 10
3.2437200000000002
 20
-4.0518600000000005
 30
0.0
 10
3.2437200000000002
 20
-4.0518600000000005
 30
0.0
 10
3.0303600000000004
 20
-4.4658800000000003
 30
0.0
 10
2.8017600000000003
 20
-4.8875200000000003
 30
0.0
 10
2.5325200000000003
 20
-5.2736000000000001
 30
0.0
 10
2.5325200000000003
 20
-5.2736000000000001
 30
0.0
 10
2.5325200000000003
 20
-5.2736000000000001
 30
0.0
 10
2.5325200000000003
 20
-5.4006000000000007
 30
0.0
 10
2.5325200000000003
 20
-5.4006000000000007
 30
0.0
 10
2.5325200000000003
 20
-5.4006000000000007
 30
0.0
 10
2.5325200000000003
 20
-5.4006000000000007
 30
0.0
 10
2.3471000000000002
 20
-5.6012600000000008
 30
0.0
 10
2.3471000000000002
 20
-5.6012600000000008
 30
0.0
 10
2.3471000000000002
 20
-5.6012600000000008
 30
0.0
 10
2.3725000000000001
 20
-5.2812200000000002
 30
0.0
 10
2.6417400000000004
 20
-5.0881800000000004
 30
0.0
 10
2.7077800000000001
 20
-4.7783000000000007
 30
0.0
 10
2.7077800000000001
 20
-4.7783000000000007
 30
0.0
 10
2.7484200000000003
 20
-4.7808400000000004
 30
0.0
 10
2.7204800000000002
 20
-4.9205400000000008
 30
0.0
 10
2.8017600000000003
 20
-4.8392600000000003
 30
0.0
 10
2.8017600000000003
 20
-4.8392600000000003
 30
0.0
 10
2.8424
 20
-4.5420800000000003
 30
0.0
 10
3.0964
 20
-4.3261799999999999
 30
0.0
 10
3.0710000000000002
 20
-4.0137600000000004
 30
0.0
 10
3.0710000000000002
 20
-4.0137600000000004
 30
0.0
 10
3.0710000000000002
 20
-4.0137600000000004
 30
0.0
 10
3.1624400000000001
 20
-3.8918400000000002
 30
0.0
 10
3.1624400000000001
 20
-3.8918400000000002
 30
0.0
  0
SPLINE
  5
8C
100
AcDbEntity
  8
Ebene 1
 62
     7
100
AcDbSpline
210
0.0
220
0.0
230
1.0
 70
     1
 71
     3
 72
    24
 73
    20
 74
     0
 42
0.0000000001
 43
0.0000000001
 40
0.0
 40
0.0
 40
0.0
 40
0.0
 40
0.2
 40
0.2
 40
0.2
 40
0.2
 40
0.4
 40
0.4
 40
0.4
 40
0.4
 40
0.6000000000000001
 40
0.6000000000000001
 40
0.6000000000000001
 40
0.6000000000000001
 40
0.8
 40
0.8
 40
0.8
 40
0.8
 40
1.0
 40
1.0
 40
1.0
 40
1.0
 10
-0.50531
 20
-3.9451800000000001
 30
0.0
 10
-0.50531
 20
-3.9451800000000001
 30
0.0
 10
-0.39863
 20
-3.9883600000000001
 30
0.0
 10
-0.39863
 20
-3.9883600000000001
 30
0.0
 10
-0.39863
 20
-3.9883600000000001
 30
0.0
 10
-0.4392700000000001
 20
-4.2017200000000008
 30
0.0
 10
-0.34529
 20
-4.5293800000000006
 30
0.0
 10
-0.63993
 20
-4.5700200000000004
 30
0.0
 10
-0.63993
 20
-4.5700200000000004
 30
0.0
 10
-0.65263
 20
-4.40238
 30
0.0
 10
-0.6932700000000001
 20
-4.1941000000000006
 30
0.0
 10
-0.6272300000000001
 20
-4.0391600000000007
 30
0.0
 10
-0.6272300000000001
 20
-4.0391600000000007
 30
0.0
 10
-0.61199
 20
-4.1077400000000006
 30
0.0
 10
-0.65263
 20
-4.2753800000000002
 30
0.0
 10
-0.5586500000000001
 20
-4.31602
 30
0.0
 10
-0.5586500000000001
 20
-4.31602
 30
0.0
 10
-0.61199
 20
-4.1864800000000004
 30
0.0
 10
-0.57135
 20
-4.0544000000000002
 30
0.0
 10
-0.50531
 20
-3.9451800000000001
 30
0.0
  0
SPLINE
  5
8D
100
AcDbEntity
  8
Ebene 1
 62
     7
100
AcDbSpline
210
0.0
220
0.0
230
1.0
 70
     1
 71
     3
 72
    36
 73
    32
 74
     0
 42
0.0000000001
 43
0.0000000001
 40
0.0
 40
0.0
 40
0.0
 40
0.0
 40
0.125
 40
0.125
 40
0.125
 40
0.125
 40
0.25
 40
0.25
 40
0.25
 40
0.25
 40
0.375
 40
0.375
 40
0.375
 40
0.375
 40
0.5
 40
0.5
 40
0.5
 40
0.5
 40
0.625
 40
0.625
 40
0.625
 40
0.625
 40
0.75
 40
0.75
 40
0.75
 40
0.75
 40
0.875
 40
0.875
 40
0.875
 40
0.875
 40
1.0
 40
1.0
 40
1.0
 40
1.0
 10
-0.11669
 20
-3.9451800000000001
 30
0.0
 10
-0.11669
 20
-3.9451800000000001
 30
0.0
 10
-0.07605
 20
-3.9477200000000003
 30
0.0
 10
-0.07605
 20
-3.9477200000000003
 30
0.0
 10
-0.07605
 20
-3.9477200000000003
 30
0.0
 10
-0.07605
 20
-3.9477200000000003
 30
0.0
 10
-0.05065
 20
-4.30586
 30
0.0
 10
-0.05065
 20
-4.30586
 30
0.0
 10
-0.05065
 20
-4.30586
 30
0.0
 10
0.02808
 20
-4.4252400000000005
 30
0.0
 10
-0.10399
 20
-4.5192200000000007
 30
0.0
 10
-0.22337
 20
-4.4760400000000002
 30
0.0
 10
-0.22337
 20
-4.4760400000000002
 30
0.0
 10
-0.28941
 20
-4.3388800000000005
 30
0.0
 10
-0.34529
 20
-4.1763200000000005
 30
0.0
 10
-0.31735
 20
-4.0137600000000004
 30
0.0
 10
-0.31735
 20
-4.0137600000000004
 30
0.0
 10
-0.31735
 20
-4.0137600000000004
 30
0.0
 10
-0.27925
 20
-4.0137600000000004
 30
0.0
 10
-0.27925
 20
-4.0137600000000004
 30
0.0
 10
-0.27925
 20
-4.0137600000000004
 30
0.0
 10
-0.27925
 20
-4.0137600000000004
 30
0.0
 10
-0.22337
 20
-4.1941000000000006
 30
0.0
 10
-0.22337
 20
-4.1941000000000006
 30
0.0
 10
-0.22337
 20
-4.1941000000000006
 30
0.0
 10
-0.17003
 20
-4.1204400000000003
 30
0.0
 10
-0.26401
 20
-3.9655000000000005
 30
0.0
 10
-0.11669
 20
-3.9680400000000002
 30
0.0
 10
-0.11669
 20
-3.9680400000000002
 30
0.0
 10
-0.11669
 20
-3.9680400000000002
 30
0.0
 10
-0.11669
 20
-3.9451800000000001
 30
0.0
 10
-0.11669
 20
-3.9451800000000001
 30
0.0
  0
SPLINE
  5
8E
100
AcDbEntity
  8
Ebene 1
 62
     7
100
AcDbSpline
210
0.0
220
0.0
230
1.0
 70
     1
 71
     3
 72
    16
 73
    12
 74
     0
 42
0.0000000001
 43
0.0000000001
 40
0.0
 40
0.0
 40
0.0
 40
0.0
 40
0.3333333333333333
 40
0.3333333333333333
 40
0.3333333333333333
 40
0.3333333333333333
 40
0.6666666666666666
 40
0.6666666666666666
 40
0.6666666666666666
 40
0.6666666666666666
 40
1.0
 40
1.0
 40
1.0
 40
1.0
 10
1.4479400000000002
 20
-4.0798000000000005
 30
0.0
 10
1.4479400000000002
 20
-4.0798000000000005
 30
0.0
 10
1.5546200000000001
 20
-4.0798000000000005
 30
0.0
 10
1.5546200000000001
 20
-4.0798000000000005
 30
0.0
 10
1.5546200000000001
 20
-4.0798000000000005
 30
0.0
 10
1.6486000000000001
 20
-4.2499800000000008
 30
0.0
 10
1.7298800000000001
 20
-4.5801800000000004
 30
0.0
 10
1.4606400000000002
 20
-4.6233600000000008
 30
0.0
 10
1.4606400000000002
 20
-4.6233600000000008
 30
0.0
 10
1.3946000000000001
 20
-4.47858
 30
0.0
 10
1.3006200000000001
 20
-4.2093400000000001
 30
0.0
 10
1.4479400000000002
 20
-4.0798000000000005
 30
0.0
  0
SPLINE
  5
8F
100
AcDbEntity
  8
Ebene 1
 62
     7
100
AcDbSpline
210
0.0
220
0.0
230
1.0
 70
     1
 71
     3
 72
    24
 73
    20
 74
     0
 42
0.0000000001
 43
0.0000000001
 40
0.0
 40
0.0
 40
0.0
 40
0.0
 40
0.2
 40
0.2
 40
0.2
 40
0.2
 40
0.4
 40
0.4
 40
0.4
 40
0.4
 40
0.6000000000000001
 40
0.6000000000000001
 40
0.6000000000000001
 40
0.6000000000000001
 40
0.8
 40
0.8
 40
0.8
 40
0.8
 40
1.0
 40
1.0
 40
1.0
 40
1.0
 10
1.2193400000000001
 20
-4.2652200000000002
 30
0.0
 10
1.23458
 20
-4.2626800000000005
 30
0.0
 10
1.2472800000000002
 20
-4.2728400000000004
 30
0.0
 10
1.2599800000000001
 20
-4.2830000000000004
 30
0.0
 10
1.2599800000000001
 20
-4.2830000000000004
 30
0.0
 10
1.2879200000000002
 20
-4.4379400000000002
 30
0.0
 10
1.4073000000000002
 20
-4.6894
 30
0.0
 10
1.23458
 20
-4.7884600000000006
 30
0.0
 10
1.23458
 20
-4.7884600000000006
 30
0.0
 10
1.23458
 20
-4.7884600000000006
 30
0.0
 10
1.1660000000000001
 20
-4.7706800000000005
 30
0.0
 10
1.1660000000000001
 20
-4.7706800000000005
 30
0.0
 10
1.1660000000000001
 20
-4.7706800000000005
 30
0.0
 10
1.1660000000000001
 20
-4.6360600000000005
 30
0.0
 10
1.1533
 20
-4.5039800000000003
 30
0.0
 10
1.09996
 20
-4.3871400000000005
 30
0.0
 10
1.09996
 20
-4.3871400000000005
 30
0.0
 10
1.1279000000000001
 20
-4.3312600000000003
 30
0.0
 10
1.1812400000000001
 20
-4.3007800000000005
 30
0.0
 10
1.2193400000000001
 20
-4.2652200000000002
 30
0.0
  0
SPLINE
  5
90
100
AcDbEntity
  8
Ebene 1
 62
     7
100
AcDbSpline
210
0.0
220
0.0
230
1.0
 70
     1
 71
     3
 72
    60
 73
    56
 74
     0
 42
0.0000000001
 43
0.0000000001
 40
0.0
 40
0.0
 40
0.0
 40
0.0
 40
0.0714285714285714
 40
0.0714285714285714
 40
0.0714285714285714
 40
0.0714285714285714
 40
0.1428571428571429
 40
0.1428571428571429
 40
0.1428571428571429
 40
0.1428571428571429
 40
0.2142857142857143
 40
0.2142857142857143
 40
0.2142857142857143
 40
0.2142857142857143
 40
0.2857142857142857
 40
0.2857142857142857
 40
0.2857142857142857
 40
0.2857142857142857
 40
0.3571428571428571
 40
0.3571428571428571
 40
0.3571428571428571
 40
0.3571428571428571
 40
0.4285714285714285
 40
0.4285714285714285
 40
0.4285714285714285
 40
0.4285714285714285
 40
0.4999999999999999
 40
0.4999999999999999
 40
0.4999999999999999
 40
0.4999999999999999
 40
0.5714285714285713
 40
0.5714285714285713
 40
0.5714285714285713
 40
0.5714285714285713
 40
0.6428571428571427
 40
0.6428571428571427
 40
0.6428571428571427
 40
0.6428571428571427
 40
0.7142857142857141
 40
0.7142857142857141
 40
0.7142857142857141
 40
0.7142857142857141
 40
0.7857142857142855
 40
0.7857142857142855
 40
0.7857142857142855
 40
0.7857142857142855
 40
0.8571428571428569
 40
0.8571428571428569
 40
0.8571428571428569
 40
0.8571428571428569
 40
0.9285714285714283
 40
0.9285714285714283
 40
0.9285714285714283
 40
0.9285714285714283
 40
1.0
 40
1.0
 40
1.0
 40
1.0
 10
-1.4959100000000001
 20
-4.3211000000000004
 30
0.0
 10
-1.2825500000000001
 20
-4.7554400000000001
 30
0.0
 10
-1.0133100000000002
 20
-5.3625000000000007
 30
0.0
 10
-0.8405900000000001
 20
-5.49458
 30
0.0
 10
-0.8405900000000001
 20
-5.49458
 30
0.0
 10
-0.82789
 20
-5.4336200000000003
 30
0.0
 10
-0.86853
 20
-5.3142400000000007
 30
0.0
 10
-0.8126500000000001
 20
-5.2863000000000007
 30
0.0
 10
-0.8126500000000001
 20
-5.2863000000000007
 30
0.0
 10
-0.8126500000000001
 20
-5.2863000000000007
 30
0.0
 10
-0.7872500000000001
 20
-5.4590200000000006
 30
0.0
 10
-0.7872500000000001
 20
-5.4590200000000006
 30
0.0
 10
-0.7872500000000001
 20
-5.4590200000000006
 30
0.0
 10
-0.75931
 20
-5.4514000000000005
 30
0.0
 10
-0.7339100000000001
 20
-5.4869600000000007
 30
0.0
 10
-0.7466100000000001
 20
-5.5123600000000001
 30
0.0
 10
-0.7466100000000001
 20
-5.5123600000000001
 30
0.0
 10
-0.68057
 20
-5.6901600000000006
 30
0.0
 10
-0.71867
 20
-5.2761400000000007
 30
0.0
 10
-0.65263
 20
-5.3802800000000008
 30
0.0
 10
-0.65263
 20
-5.3802800000000008
 30
0.0
 10
-0.65263
 20
-5.3802800000000008
 30
0.0
 10
-0.5992900000000001
 20
-5.4539400000000002
 30
0.0
 10
-0.5992900000000001
 20
-5.4539400000000002
 30
0.0
 10
-0.5992900000000001
 20
-5.4539400000000002
 30
0.0
 10
-0.50531
 20
-5.5987200000000001
 30
0.0
 10
-0.5180100000000001
 20
-5.6139600000000005
 30
0.0
 10
-0.6272300000000001
 20
-5.61904
 30
0.0
 10
-0.6272300000000001
 20
-5.61904
 30
0.0
 10
-0.5459500000000001
 20
-5.7435
 30
0.0
 10
-0.4392700000000001
 20
-5.8374800000000002
 30
0.0
 10
-0.41133
 20
-5.9771800000000006
 30
0.0
 10
-0.41133
 20
-5.9771800000000006
 30
0.0
 10
-0.68057
 20
-5.7536600000000009
 30
0.0
 10
-1.2419100000000001
 20
-5.6342800000000004
 30
0.0
 10
-1.1479300000000001
 20
-5.1643800000000004
 30
0.0
 10
-1.1479300000000001
 20
-5.1643800000000004
 30
0.0
 10
-1.1479300000000001
 20
-5.1643800000000004
 30
0.0
 10
-1.1758700000000002
 20
-5.0297600000000005
 30
0.0
 10
-1.1758700000000002
 20
-5.0297600000000005
 30
0.0
 10
-1.1758700000000002
 20
-5.0297600000000005
 30
0.0
 10
-1.25461
 20
-5.0450000000000008
 30
0.0
 10
-1.1479300000000001
 20
-5.24566
 30
0.0
 10
-1.1885700000000001
 20
-5.3117000000000001
 30
0.0
 10
-1.1885700000000001
 20
-5.3117000000000001
 30
0.0
 10
-1.1885700000000001
 20
-5.3117000000000001
 30
0.0
 10
-1.3511300000000002
 20
-4.7910000000000004
 30
0.0
 10
-1.3511300000000002
 20
-4.7910000000000004
 30
0.0
 10
-1.3511300000000002
 20
-4.7910000000000004
 30
0.0
 10
-1.4298700000000002
 20
-4.8265600000000006
 30
0.0
 10
-1.3231900000000001
 20
-4.9637200000000004
 30
0.0
 10
-1.3638300000000001
 20
-5.0170600000000007
 30
0.0
 10
-1.3638300000000001
 20
-5.0170600000000007
 30
0.0
 10
-1.4425700000000001
 20
-4.7986200000000006
 30
0.0
 10
-1.4959100000000001
 20
-4.5700200000000004
 30
0.0
 10
-1.4959100000000001
 20
-4.3211000000000004
 30
0.0
  0
SPLINE
  5
91
100
AcDbEntity
  8
Ebene 1
 62
     7
100
AcDbSpline
210
0.0
220
0.0
230
1.0
 70
     1
 71
     3
 72
    28
 73
    24
 74
     0
 42
0.0000000001
 43
0.0000000001
 40
0.0
 40
0.0
 40
0.0
 40
0.0
 40
0.1666666666666667
 40
0.1666666666666667
 40
0.1666666666666667
 40
0.1666666666666667
 40
0.3333333333333333
 40
0.3333333333333333
 40
0.3333333333333333
 40
0.3333333333333333
 40
0.5
 40
0.5
 40
0.5
 40
0.5
 40
0.6666666666666666
 40
0.6666666666666666
 40
0.6666666666666666
 40
0.6666666666666666
 40
0.8333333333333333
 40
0.8333333333333333
 40
0.8333333333333333
 40
0.8333333333333333
 40
1.0
 40
1.0
 40
1.0
 40
1.0
 10
0.87136
 20
-4.4150800000000006
 30
0.0
 10
1.09996
 20
-4.4938200000000004
 30
0.0
 10
1.09996
 20
-4.7427400000000004
 30
0.0
 10
1.05932
 20
-4.9459400000000002
 30
0.0
 10
1.05932
 20
-4.9459400000000002
 30
0.0
 10
1.05932
 20
-4.9459400000000002
 30
0.0
 10
0.9932800000000001
 20
-4.9713400000000005
 30
0.0
 10
0.9932800000000001
 20
-4.9713400000000005
 30
0.0
 10
0.9932800000000001
 20
-4.9713400000000005
 30
0.0
 10
1.0339200000000002
 20
-4.8392600000000003
 30
0.0
 10
1.05932
 20
-4.6767000000000003
 30
0.0
 10
0.9805800000000001
 20
-4.5497000000000005
 30
0.0
 10
0.9805800000000001
 20
-4.5497000000000005
 30
0.0
 10
0.9653400000000001
 20
-4.6868600000000002
 30
0.0
 10
1.0059800000000001
 20
-5.1313600000000008
 30
0.0
 10
0.7392800000000001
 20
-5.0399200000000004
 30
0.0
 10
0.7392800000000001
 20
-5.0399200000000004
 30
0.0
 10
0.7392800000000001
 20
-4.9510200000000006
 30
0.0
 10
0.7113400000000001
 20
-4.8037000000000001
 30
0.0
 10
0.7799200000000001
 20
-4.7351200000000002
 30
0.0
 10
0.7799200000000001
 20
-4.7351200000000002
 30
0.0
 10
0.72404
 20
-4.6284400000000003
 30
0.0
 10
0.7926200000000001
 20
-4.4862000000000002
 30
0.0
 10
0.87136
 20
-4.4150800000000006
 30
0.0
  0
SPLINE
  5
92
100
AcDbEntity
  8
Ebene 1
 62
     7
100
AcDbSpline
210
0.0
220
0.0
230
1.0
 70
     1
 71
     3
 72
    12
 73
     8
 74
     0
 42
0.0000000001
 43
0.0000000001
 40
0.0
 40
0.0
 40
0.0
 40
0.0
 40
0.5
 40
0.5
 40
0.5
 40
0.5
 40
1.0
 40
1.0
 40
1.0
 40
1.0
 10
-0.8939300000000001
 20
-4.4531800000000006
 30
0.0
 10
-0.7059700000000001
 20
-4.4633400000000005
 30
0.0
 10
-0.86853
 20
-4.6817800000000007
 30
0.0
 10
-0.82789
 20
-4.7986200000000006
 30
0.0
 10
-0.82789
 20
-4.7986200000000006
 30
0.0
 10
-0.9193300000000001
 20
-4.7198800000000007
 30
0.0
 10
-0.9066300000000001
 20
-4.5700200000000004
 30
0.0
 10
-0.8939300000000001
 20
-4.4531800000000006
 30
0.0
  0
SPLINE
  5
93
100
AcDbEntity
  8
Ebene 1
 62
     7
100
AcDbSpline
210
0.0
220
0.0
230
1.0
 70
     1
 71
     3
 72
    28
 73
    24
 74
     0
 42
0.0000000001
 43
0.0000000001
 40
0.0
 40
0.0
 40
0.0
 40
0.0
 40
0.1666666666666667
 40
0.1666666666666667
 40
0.1666666666666667
 40
0.1666666666666667
 40
0.3333333333333333
 40
0.3333333333333333
 40
0.3333333333333333
 40
0.3333333333333333
 40
0.5
 40
0.5
 40
0.5
 40
0.5
 40
0.6666666666666666
 40
0.6666666666666666
 40
0.6666666666666666
 40
0.6666666666666666
 40
0.8333333333333333
 40
0.8333333333333333
 40
0.8333333333333333
 40
0.8333333333333333
 40
1.0
 40
1.0
 40
1.0
 40
1.0
 10
0.49798
 20
-4.4811200000000007
 30
0.0
 10
0.49798
 20
-4.4811200000000007
 30
0.0
 10
0.55132
 20
-4.4836600000000004
 30
0.0
 10
0.55132
 20
-4.4836600000000004
 30
0.0
 10
0.55132
 20
-4.4836600000000004
 30
0.0
 10
0.6453000000000001
 20
-4.6792400000000001
 30
0.0
 10
0.72404
 20
-4.9180000000000001
 30
0.0
 10
0.5894200000000001
 20
-5.0831000000000008
 30
0.0
 10
0.5894200000000001
 20
-5.0831000000000008
 30
0.0
 10
0.5894200000000001
 20
-5.0831000000000008
 30
0.0
 10
0.51068
 20
-4.6538400000000006
 30
0.0
 10
0.51068
 20
-4.6538400000000006
 30
0.0
 10
0.51068
 20
-4.6538400000000006
 30
0.0
 10
0.47004
 20
-4.7224200000000005
 30
0.0
 10
0.51068
 20
-4.8164000000000007
 30
0.0
 10
0.5386200000000001
 20
-4.8849800000000005
 30
0.0
 10
0.5386200000000001
 20
-4.8849800000000005
 30
0.0
 10
0.5640200000000001
 20
-5.0475400000000006
 30
0.0
 10
0.51068
 20
-5.1720000000000006
 30
0.0
 10
0.32272
 20
-5.1339000000000006
 30
0.0
 10
0.32272
 20
-5.1339000000000006
 30
0.0
 10
0.4294000000000001
 20
-4.9840400000000002
 30
0.0
 10
0.2008
 20
-4.5522400000000003
 30
0.0
 10
0.49798
 20
-4.4811200000000007
 30
0.0
  0
SPLINE
  5
94
100
AcDbEntity
  8
Ebene 1
 62
     7
100
AcDbSpline
210
0.0
220
0.0
230
1.0
 70
     1
 71
     3
 72
    28
 73
    24
 74
     0
 42
0.0000000001
 43
0.0000000001
 40
0.0
 40
0.0
 40
0.0
 40
0.0
 40
0.1666666666666667
 40
0.1666666666666667
 40
0.1666666666666667
 40
0.1666666666666667
 40
0.3333333333333333
 40
0.3333333333333333
 40
0.3333333333333333
 40
0.3333333333333333
 40
0.5
 40
0.5
 40
0.5
 40
0.5
 40
0.6666666666666666
 40
0.6666666666666666
 40
0.6666666666666666
 40
0.6666666666666666
 40
0.8333333333333333
 40
0.8333333333333333
 40
0.8333333333333333
 40
0.8333333333333333
 40
1.0
 40
1.0
 40
1.0
 40
1.0
 10
0.06872
 20
-4.6005000000000003
 30
0.0
 10
0.29732
 20
-4.5674800000000007
 30
0.0
 10
0.28208
 20
-4.9510200000000006
 30
0.0
 10
0.1881
 20
-5.0602400000000003
 30
0.0
 10
0.1881
 20
-5.0602400000000003
 30
0.0
 10
0.1881
 20
-5.0602400000000003
 30
0.0
 10
0.21604
 20
-5.1212000000000009
 30
0.0
 10
0.21604
 20
-5.1212000000000009
 30
0.0
 10
0.21604
 20
-5.1212000000000009
 30
0.0
 10
0.21604
 20
-5.1212000000000009
 30
0.0
 10
0.28208
 20
-5.1008800000000001
 30
0.0
 10
0.28208
 20
-5.1008800000000001
 30
0.0
 10
0.28208
 20
-5.1008800000000001
 30
0.0
 10
0.24144
 20
-5.1897800000000007
 30
0.0
 10
0.09412
 20
-5.1364400000000003
 30
0.0
 10
0.01538
 20
-5.1720000000000006
 30
0.0
 10
0.01538
 20
-5.1720000000000006
 30
0.0
 10
0.01538
 20
-5.1720000000000006
 30
0.0
 10
-0.02271
 20
-5.1237400000000006
 30
0.0
 10
-0.02271
 20
-5.1237400000000006
 30
0.0
 10
-0.02271
 20
-5.1237400000000006
 30
0.0
 10
0.00268
 20
-4.9307000000000007
 30
0.0
 10
-0.15733
 20
-4.7021000000000006
 30
0.0
 10
0.06872
 20
-4.6005000000000003
 30
0.0
  0
SPLINE
  5
95
100
AcDbEntity
  8
Ebene 1
 62
     7
100
AcDbSpline
210
0.0
220
0.0
230
1.0
 70
     1
 71
     3
 72
    16
 73
    12
 74
     0
 42
0.0000000001
 43
0.0000000001
 40
0.0
 40
0.0
 40
0.0
 40
0.0
 40
0.3333333333333333
 40
0.3333333333333333
 40
0.3333333333333333
 40
0.3333333333333333
 40
0.6666666666666666
 40
0.6666666666666666
 40
0.6666666666666666
 40
0.6666666666666666
 40
1.0
 40
1.0
 40
1.0
 40
1.0
 10
-0.7466100000000001
 20
-4.6284400000000003
 30
0.0
 10
-0.6653300000000001
 20
-4.6055800000000007
 30
0.0
 10
-0.50531
 20
-4.7071800000000001
 30
0.0
 10
-0.6272300000000001
 20
-4.7503600000000006
 30
0.0
 10
-0.6272300000000001
 20
-4.7503600000000006
 30
0.0
 10
-0.5992900000000001
 20
-4.82402
 30
0.0
 10
-0.5865900000000001
 20
-4.9281600000000001
 30
0.0
 10
-0.61199
 20
-4.9992800000000006
 30
0.0
 10
-0.61199
 20
-4.9992800000000006
 30
0.0
 10
-0.7999500000000001
 20
-5.0018200000000004
 30
0.0
 10
-0.75931
 20
-4.7554400000000001
 30
0.0
 10
-0.7466100000000001
 20
-4.6284400000000003
 30
0.0
  0
SPLINE
  5
96
100
AcDbEntity
  8
Ebene 1
 62
     7
100
AcDbSpline
210
0.0
220
0.0
230
1.0
 70
     1
 71
     3
 72
    28
 73
    24
 74
     0
 42
0.0000000001
 43
0.0000000001
 40
0.0
 40
0.0
 40
0.0
 40
0.0
 40
0.1666666666666667
 40
0.1666666666666667
 40
0.1666666666666667
 40
0.1666666666666667
 40
0.3333333333333333
 40
0.3333333333333333
 40
0.3333333333333333
 40
0.3333333333333333
 40
0.5
 40
0.5
 40
0.5
 40
0.5
 40
0.6666666666666666
 40
0.6666666666666666
 40
0.6666666666666666
 40
0.6666666666666666
 40
0.8333333333333333
 40
0.8333333333333333
 40
0.8333333333333333
 40
0.8333333333333333
 40
1.0
 40
1.0
 40
1.0
 40
1.0
 10
-0.26401
 20
-4.6538400000000006
 30
0.0
 10
-0.10399
 20
-4.7478200000000008
 30
0.0
 10
-0.11669
 20
-5.0069000000000008
 30
0.0
 10
-0.15733
 20
-5.1516800000000007
 30
0.0
 10
-0.15733
 20
-5.1516800000000007
 30
0.0
 10
-0.22337
 20
-5.0704000000000002
 30
0.0
 10
-0.11669
 20
-4.8316400000000002
 30
0.0
 10
-0.26401
 20
-4.8392600000000003
 30
0.0
 10
-0.26401
 20
-4.8392600000000003
 30
0.0
 10
-0.27925
 20
-4.8214800000000002
 30
0.0
 10
-0.30465
 20
-4.8265600000000006
 30
0.0
 10
-0.31735
 20
-4.8443400000000008
 30
0.0
 10
-0.31735
 20
-4.8443400000000008
 30
0.0
 10
-0.28941
 20
-4.9713400000000005
 30
0.0
 10
-0.28941
 20
-5.1796200000000008
 30
0.0
 10
-0.3859300000000001
 20
-5.2304200000000005
 30
0.0
 10
-0.3859300000000001
 20
-5.2304200000000005
 30
0.0
 10
-0.4799100000000001
 20
-5.0907200000000001
 30
0.0
 10
-0.45197
 20
-4.9053000000000004
 30
0.0
 10
-0.4926100000000001
 20
-4.73766
 30
0.0
 10
-0.4926100000000001
 20
-4.73766
 30
0.0
 10
-0.45197
 20
-4.6436800000000007
 30
0.0
 10
-0.33005
 20
-4.6919400000000007
 30
0.0
 10
-0.26401
 20
-4.6538400000000006
 30
0.0
  0
SPLINE
  5
97
100
AcDbEntity
  8
Ebene 1
 62
     7
100
AcDbSpline
210
0.0
220
0.0
230
1.0
 70
     1
 71
     3
 72
    52
 73
    48
 74
     0
 42
0.0000000001
 43
0.0000000001
 40
0.0
 40
0.0
 40
0.0
 40
0.0
 40
0.0833333333333333
 40
0.0833333333333333
 40
0.0833333333333333
 40
0.0833333333333333
 40
0.1666666666666667
 40
0.1666666666666667
 40
0.1666666666666667
 40
0.1666666666666667
 40
0.25
 40
0.25
 40
0.25
 40
0.25
 40
0.3333333333333333
 40
0.3333333333333333
 40
0.3333333333333333
 40
0.3333333333333333
 40
0.4166666666666666
 40
0.4166666666666666
 40
0.4166666666666666
 40
0.4166666666666666
 40
0.4999999999999999
 40
0.4999999999999999
 40
0.4999999999999999
 40
0.4999999999999999
 40
0.5833333333333333
 40
0.5833333333333333
 40
0.5833333333333333
 40
0.5833333333333333
 40
0.6666666666666666
 40
0.6666666666666666
 40
0.6666666666666666
 40
0.6666666666666666
 40
0.75
 40
0.75
 40
0.75
 40
0.75
 40
0.8333333333333334
 40
0.8333333333333334
 40
0.8333333333333334
 40
0.8333333333333334
 40
0.9166666666666667
 40
0.9166666666666667
 40
0.9166666666666667
 40
0.9166666666666667
 40
1.0
 40
1.0
 40
1.0
 40
1.0
 10
1.3819000000000001
 20
-4.8951400000000005
 30
0.0
 10
1.4479400000000002
 20
-4.9586400000000008
 30
0.0
 10
1.56986
 20
-5.03484
 30
0.0
 10
1.5825600000000002
 20
-5.1339000000000006
 30
0.0
 10
1.5825600000000002
 20
-5.1339000000000006
 30
0.0
 10
1.5012800000000002
 20
-5.11104
 30
0.0
 10
1.3539600000000001
 20
-5.0272200000000007
 30
0.0
 10
1.4073000000000002
 20
-5.1872400000000001
 30
0.0
 10
1.4073000000000002
 20
-5.1872400000000001
 30
0.0
 10
1.31332
 20
-5.2075600000000009
 30
0.0
 10
1.27522
 20
-5.2761400000000007
 30
0.0
 10
1.2599800000000001
 20
-5.3599600000000001
 30
0.0
 10
1.2599800000000001
 20
-5.3599600000000001
 30
0.0
 10
1.11266
 20
-5.4031400000000005
 30
0.0
 10
0.95264
 20
-5.2558200000000008
 30
0.0
 10
0.8586600000000001
 20
-5.3879000000000001
 30
0.0
 10
0.8586600000000001
 20
-5.3879000000000001
 30
0.0
 10
0.61736
 20
-5.3345600000000006
 30
0.0
 10
0.35066
 20
-5.4133000000000004
 30
0.0
 10
0.1881
 20
-5.5885600000000002
 30
0.0
 10
0.1881
 20
-5.5885600000000002
 30
0.0
 10
0.10936
 20
-5.5885600000000002
 30
0.0
 10
0.01538
 20
-5.5352200000000007
 30
0.0
 10
-0.03795
 20
-5.6012600000000008
 30
0.0
 10
-0.03795
 20
-5.6012600000000008
 30
0.0
 10
-0.03795
 20
-5.5276000000000005
 30
0.0
 10
-0.06335
 20
-5.5022000000000002
 30
0.0
 10
-0.12939
 20
-5.4717200000000004
 30
0.0
 10
-0.12939
 20
-5.4717200000000004
 30
0.0
 10
-0.28941
 20
-5.5530000000000008
 30
0.0
 10
-0.4392700000000001
 20
-5.5098200000000004
 30
0.0
 10
-0.4799100000000001
 20
-5.2964600000000006
 30
0.0
 10
-0.4799100000000001
 20
-5.2964600000000006
 30
0.0
 10
-0.45197
 20
-5.1847000000000003
 30
0.0
 10
-0.22337
 20
-5.3167800000000005
 30
0.0
 10
-0.18273
 20
-5.1770800000000001
 30
0.0
 10
-0.18273
 20
-5.1770800000000001
 30
0.0
 10
-0.17003
 20
-5.2507400000000004
 30
0.0
 10
-0.17003
 20
-5.2812200000000002
 30
0.0
 10
-0.07605
 20
-5.3117000000000001
 30
0.0
 10
-0.07605
 20
-5.3117000000000001
 30
0.0
 10
0.04078
 20
-5.3269400000000005
 30
0.0
 10
0.13476
 20
-5.3015400000000001
 30
0.0
 10
0.2008
 20
-5.2050200000000002
 30
0.0
 10
0.2008
 20
-5.2050200000000002
 30
0.0
 10
0.6300600000000001
 20
-5.2558200000000008
 30
0.0
 10
1.0339200000000002
 20
-5.0653200000000007
 30
0.0
 10
1.3819000000000001
 20
-4.8951400000000005
 30
0.0
  0
SPLINE
  5
98
100
AcDbEntity
  8
Ebene 1
 62
     7
100
AcDbSpline
210
0.0
220
0.0
230
1.0
 70
     1
 71
     3
 72
    76
 73
    72
 74
     0
 42
0.0000000001
 43
0.0000000001
 40
0.0
 40
0.0
 40
0.0
 40
0.0
 40
0.0555555555555556
 40
0.0555555555555556
 40
0.0555555555555556
 40
0.0555555555555556
 40
0.1111111111111111
 40
0.1111111111111111
 40
0.1111111111111111
 40
0.1111111111111111
 40
0.1666666666666667
 40
0.1666666666666667
 40
0.1666666666666667
 40
0.1666666666666667
 40
0.2222222222222222
 40
0.2222222222222222
 40
0.2222222222222222
 40
0.2222222222222222
 40
0.2777777777777778
 40
0.2777777777777778
 40
0.2777777777777778
 40
0.2777777777777778
 40
0.3333333333333334
 40
0.3333333333333334
 40
0.3333333333333334
 40
0.3333333333333334
 40
0.388888888888889
 40
0.388888888888889
 40
0.388888888888889
 40
0.388888888888889
 40
0.4444444444444445
 40
0.4444444444444445
 40
0.4444444444444445
 40
0.4444444444444445
 40
0.5000000000000001
 40
0.5000000000000001
 40
0.5000000000000001
 40
0.5000000000000001
 40
0.5555555555555557
 40
0.5555555555555557
 40
0.5555555555555557
 40
0.5555555555555557
 40
0.6111111111111113
 40
0.6111111111111113
 40
0.6111111111111113
 40
0.6111111111111113
 40
0.6666666666666669
 40
0.6666666666666669
 40
0.6666666666666669
 40
0.6666666666666669
 40
0.7222222222222224
 40
0.7222222222222224
 40
0.7222222222222224
 40
0.7222222222222224
 40
0.777777777777778
 40
0.777777777777778
 40
0.777777777777778
 40
0.777777777777778
 40
0.8333333333333336
 40
0.8333333333333336
 40
0.8333333333333336
 40
0.8333333333333336
 40
0.8888888888888892
 40
0.8888888888888892
 40
0.8888888888888892
 40
0.8888888888888892
 40
0.9444444444444448
 40
0.9444444444444448
 40
0.9444444444444448
 40
0.9444444444444448
 40
1.0
 40
1.0
 40
1.0
 40
1.0
 10
1.6613000000000002
 20
-5.3244000000000007
 30
0.0
 10
1.7425800000000002
 20
-5.3371000000000004
 30
0.0
 10
1.6613000000000002
 20
-5.6088800000000001
 30
0.0
 10
1.7425800000000002
 20
-5.5377600000000005
 30
0.0
 10
1.7425800000000002
 20
-5.5377600000000005
 30
0.0
 10
1.7425800000000002
 20
-5.5098200000000004
 30
0.0
 10
1.7298800000000001
 20
-5.4514000000000005
 30
0.0
 10
1.7832200000000002
 20
-5.4615600000000004
 30
0.0
 10
1.7832200000000002
 20
-5.4615600000000004
 30
0.0
 10
1.7425800000000002
 20
-5.6215800000000007
 30
0.0
 10
1.7425800000000002
 20
-5.8070000000000004
 30
0.0
 10
1.6359000000000001
 20
-5.9365400000000008
 30
0.0
 10
1.6359000000000001
 20
-5.9365400000000008
 30
0.0
 10
1.48858
 20
-5.8679600000000001
 30
0.0
 10
1.3692000000000002
 20
-5.8095400000000001
 30
0.0
 10
1.2193400000000001
 20
-5.7790600000000003
 30
0.0
 10
1.2193400000000001
 20
-5.7790600000000003
 30
0.0
 10
1.2193400000000001
 20
-5.7790600000000003
 30
0.0
 10
1.2066400000000002
 20
-5.9238400000000002
 30
0.0
 10
1.2066400000000002
 20
-5.9238400000000002
 30
0.0
 10
1.2066400000000002
 20
-5.9238400000000002
 30
0.0
 10
1.2472800000000002
 20
-6.0787800000000001
 30
0.0
 10
1.3946000000000001
 20
-5.8908200000000006
 30
0.0
 10
1.4200000000000002
 20
-6.0305200000000001
 30
0.0
 10
1.4200000000000002
 20
-6.0305200000000001
 30
0.0
 10
1.0339200000000002
 20
-6.0076600000000004
 30
0.0
 10
0.6707000000000001
 20
-6.1245000000000003
 30
0.0
 10
0.3354200000000001
 20
-6.2845200000000006
 30
0.0
 10
0.3354200000000001
 20
-6.2845200000000006
 30
0.0
 10
0.37606
 20
-6.1067200000000001
 30
0.0
 10
0.7392800000000001
 20
-6.1346600000000002
 30
0.0
 10
0.6834
 20
-5.9848000000000008
 30
0.0
 10
0.6834
 20
-5.9848000000000008
 30
0.0
 10
0.6834
 20
-5.9848000000000008
 30
0.0
 10
0.61736
 20
-6.0178200000000004
 30
0.0
 10
0.61736
 20
-6.0178200000000004
 30
0.0
 10
0.61736
 20
-6.0178200000000004
 30
0.0
 10
0.36336
 20
-6.0432200000000007
 30
0.0
 10
0.1881
 20
-6.2997600000000009
 30
0.0
 10
0.10936
 20
-6.4648600000000007
 30
0.0
 10
0.10936
 20
-6.4648600000000007
 30
0.0
 10
0.01538
 20
-6.0991000000000009
 30
0.0
 10
0.2008
 20
-5.6215800000000007
 30
0.0
 10
0.61736
 20
-5.8171600000000003
 30
0.0
 10
0.61736
 20
-5.8171600000000003
 30
0.0
 10
0.6707000000000001
 20
-5.7028600000000003
 30
0.0
 10
0.87136
 20
-5.8171600000000003
 30
0.0
 10
0.80532
 20
-5.6495200000000008
 30
0.0
 10
0.80532
 20
-5.6495200000000008
 30
0.0
 10
0.87136
 20
-5.7155600000000009
 30
0.0
 10
0.9653400000000001
 20
-5.7231800000000002
 30
0.0
 10
0.95264
 20
-5.61904
 30
0.0
 10
0.95264
 20
-5.61904
 30
0.0
 10
1.01868
 20
-5.6927000000000003
 30
0.0
 10
1.1279000000000001
 20
-5.6596800000000007
 30
0.0
 10
1.11266
 20
-5.5555400000000006
 30
0.0
 10
1.11266
 20
-5.5555400000000006
 30
0.0
 10
1.2599800000000001
 20
-5.7054
 30
0.0
 10
1.4352400000000001
 20
-5.6241200000000005
 30
0.0
 10
1.5825600000000002
 20
-5.82986
 30
0.0
 10
1.5825600000000002
 20
-5.82986
 30
0.0
 10
1.6232000000000002
 20
-5.7739800000000008
 30
0.0
 10
1.48858
 20
-5.6622200000000005
 30
0.0
 10
1.4479400000000002
 20
-5.5885600000000002
 30
0.0
 10
1.4479400000000002
 20
-5.5885600000000002
 30
0.0
 10
1.3006200000000001
 20
-5.5072800000000006
 30
0.0
 10
1.3819000000000001
 20
-5.3574200000000003
 30
0.0
 10
1.52922
 20
-5.3777400000000002
 30
0.0
 10
1.52922
 20
-5.3777400000000002
 30
0.0
 10
1.5825600000000002
 20
-5.5098200000000004
 30
0.0
 10
1.6892400000000001
 20
-5.4717200000000004
 30
0.0
 10
1.6613000000000002
 20
-5.3244000000000007
 30
0.0
  0
SPLINE
  5
99
100
AcDbEntity
  8
Ebene 1
 62
     7
100
AcDbSpline
210
0.0
220
0.0
230
1.0
 70
     1
 71
     3
 72
    20
 73
    16
 74
     0
 42
0.0000000001
 43
0.0000000001
 40
0.0
 40
0.0
 40
0.0
 40
0.0
 40
0.25
 40
0.25
 40
0.25
 40
0.25
 40
0.5
 40
0.5
 40
0.5
 40
0.5
 40
0.75
 40
0.75
 40
0.75
 40
0.75
 40
1.0
 40
1.0
 40
1.0
 40
1.0
 10
-0.05065
 20
-5.7130200000000002
 30
0.0
 10
0.04078
 20
-5.8070000000000004
 30
0.0
 10
-0.01001
 20
-5.9619400000000002
 30
0.0
 10
-0.02271
 20
-6.0762400000000003
 30
0.0
 10
-0.02271
 20
-6.0762400000000003
 30
0.0
 10
0.01538
 20
-6.1727600000000002
 30
0.0
 10
-0.02271
 20
-6.3023000000000007
 30
0.0
 10
-0.02271
 20
-6.3835800000000003
 30
0.0
 10
-0.02271
 20
-6.3835800000000003
 30
0.0
 10
-0.15733
 20
-6.2057800000000007
 30
0.0
 10
-0.23861
 20
-5.9695600000000004
 30
0.0
 10
-0.31735
 20
-5.7689000000000004
 30
0.0
 10
-0.31735
 20
-5.7689000000000004
 30
0.0
 10
-0.21067
 20
-5.7790600000000003
 30
0.0
 10
-0.14463
 20
-5.7435
 30
0.0
 10
-0.05065
 20
-5.7130200000000002
 30
0.0
  0
ENDSEC
  0
SECTION
  2
OBJECTS
  0
DICTIONARY
  5
19
100
AcDbDictionary
280
     0
281
     1
  3
ACAD_GROUP
350
1A
  3
ACAD_MLINESTYLE
350
1B
  3
ACAD_LAYOUT
350
1E
  3
ACAD_PLOTSETTINGS
350
22
  3
ACAD_PLOTSTYLENAME
350
1F
  3
ACAD_WIPEOUT_VARS
350
23
  0
DICTIONARY
  5
1A
102
{ACAD_REACTORS
330
19
102
}
100
AcDbDictionary
280
     0
281
     1
  0
DICTIONARY
  5
1B
102
{ACAD_REACTORS
330
19
102
}
100
AcDbDictionary
280
     0
281
     1
  3
Standard
350
1C
  0
MLINESTYLE
  5
1C
102
{ACAD_REACTORS
330
1B
102
}
100
AcDbMlineStyle
  2
Standard
 70
     0
  3

 62
     0
 51
90.0
 52
90.0
 71
     2
 49
0.5
 62
   256
  6
BYLAYER
 49
-0.5
 62
   256
  6
BYLAYER
  0
ACDBDICTIONARYWDFLT
  5
1F
102
{ACAD_REACTORS
330
19
102
}
100
AcDbDictionary
281
     1
  3
Normal
350
1D
100
AcDbDictionaryWithDefault
340
1D
  0
ACDBPLACEHOLDER
  5
1D
102
{ACAD_REACTORS
330
1F
102
}
  0
LAYOUT
  5
20
102
{ACAD_REACTORS
330
1E
102
}
100
AcDbPlotSettings
  1

  2

  4

  6

 40
0.0
 41
0.0
 42
0.0
 43
0.0
 44
0.0
 45
0.0
 46
0.0
 47
0.0
 48
0.0
 49
0.0
140
0.0
141
0.0
142
1.0
143
1.0
 70
  1024
 72
     0
 73
     0
 74
     0
  7

 75
     0
147
1.0
148
0.0
149
0.0
100
AcDbLayout
  1
Model
 70
     0
 71
     0
 10
0.0
 20
0.0
 11
0.0
 21
0.0
 12
0.0
 22
0.0
 32
0.0
 14
0.0
 24
0.0
 34
0.0
 15
0.0
 25
0.0
 35
0.0
146
0.0
 13
0.0
 23
0.0
 33
0.0
 16
0.0
 26
0.0
 36
0.0
 17
0.0
 27
0.0
 37
0.0
 76
     0
330
A
331
0
345
0
346
0
  0
LAYOUT
  5
21
102
{ACAD_REACTORS
330
1E
102
}
100
AcDbPlotSettings
  1

  2

  4

  6

 40
0.0
 41
0.0
 42
0.0
 43
0.0
 44
0.0
 45
0.0
 46
0.0
 47
0.0
 48
0.0
 49
0.0
140
0.0
141
0.0
142
1.0
143
1.0
 70
     0
 72
     0
 73
     0
 74
     0
  7

 75
     0
147
1.0
148
0.0
149
0.0
100
AcDbLayout
  1
Layout1
 70
     0
 71
     0
 10
0.0
 20
0.0
 11
0.0
 21
0.0
 12
0.0
 22
0.0
 32
0.0
 14
0.0
 24
0.0
 34
0.0
 15
0.0
 25
0.0
 35
0.0
146
0.0
 13
0.0
 23
0.0
 33
0.0
 16
0.0
 26
0.0
 36
0.0
 17
0.0
 27
0.0
 37
0.0
 76
     0
330
B
331
0
345
0
346
0
  0
DICTIONARY
  5
1E
102
{ACAD_REACTORS
330
19
102
}
100
AcDbDictionary
280
     0
281
     1
  3
Layout1
350
21
  3
Model
350
20
  0
DICTIONARY
  5
22
102
{ACAD_REACTORS
330
19
102
}
100
AcDbDictionary
280
     0
281
     1
  0
WIPEOUTVARIABLES
  5
23
100
AcDbWipeoutVariables
 70
     1
  0
ENDSEC
  0
EOF
