  0
SECTION
  2
HEADER
  9
$ACADVER
  1
AC1015
  9
$ACADMAINTVER
 70
     6
  9
$DWGCODEPAGE
  3
DOS850
  9
$INSBASE
 10
0.0
 20
0.0
 30
0.0
  9
$EXTMIN
 10
-4.31785
 20
-6.41511
 30
1.000000E+20
  9
$EXTMAX
 10
4.32375
 20
6.40785
 30
-1.000000E+20
  9
$LIMMIN
 10
0.0
 20
0.0
  9
$LIMMAX
 10
0.0
 20
0.0
  9
$ORTHOMODE
 70
     0
  9
$REGENMODE
 70
     1
  9
$FILLMODE
 70
     1
  9
$QTEXTMODE
 70
     0
  9
$MIRRTEXT
 70
     1
  9
$LTSCALE
 40
1.0
  9
$ATTMODE
 70
     1
  9
$TEXTSIZE
 40
0.2
  9
$TRACEWID
 40
0.05
  9
$TEXTSTYLE
  7
Standard
  9
$CLAYER
  8
0
  9
$CELTYPE
  6
Continuous
  9
$CECOLOR
 62
   256
  9
$CELTSCALE
 40
1.0
  9
$DISPSILH
 70
     0
  9
$DIMSCALE
 40
1.0
  9
$DIMASZ
 40
0.18
  9
$DIMEXO
 40
0.0625
  9
$DIMDLI
 40
0.38
  9
$DIMRND
 40
0.0
  9
$DIMDLE
 40
0.0
  9
$DIMEXE
 40
0.18
  9
$DIMTP
 40
0.0
  9
$DIMTM
 40
0.0
  9
$DIMTXT
 40
0.18
  9
$DIMCEN
 40
0.09
  9
$DIMTSZ
 40
0.0
  9
$DIMTOL
 70
     0
  9
$DIMLIM
 70
     0
  9
$DIMTIH
 70
     1
  9
$DIMTOH
 70
     1
  9
$DIMSE1
 70
     0
  9
$DIMSE2
 70
     0
  9
$DIMTAD
 70
     0
  9
$DIMZIN
 70
     0
  9
$DIMBLK
  1

  9
$DIMASO
 70
     1
  9
$DIMSHO
 70
     1
  9
$DIMPOST
  1

  9
$DIMAPOST
  1

  9
$DIMALT
 70
     0
  9
$DIMALTD
 70
     2
  9
$DIMALTF
 40
25.4
  9
$DIMLFAC
 40
1.0
  9
$DIMTOFL
 70
     0
  9
$DIMTVP
 40
0.0
  9
$DIMTIX
 70
     0
  9
$DIMSOXD
 70
     0
  9
$DIMSAH
 70
     0
  9
$DIMBLK1
  1

  9
$DIMBLK2
  1

  9
$DIMSTYLE
  2
Standard
  9
$DIMCLRD
 70
     0
  9
$DIMCLRE
 70
     0
  9
$DIMCLRT
 70
     0
  9
$DIMTFAC
 40
1.0
  9
$DIMGAP
 40
0.09
  9
$DIMJUST
 70
     0
  9
$DIMSD1
 70
     0
  9
$DIMSD2
 70
     0
  9
$DIMTOLJ
 70
     1
  9
$DIMTZIN
 70
     0
  9
$DIMALTZ
 70
     0
  9
$DIMALTTZ
 70
     0
  9
$DIMUPT
 70
     0
  9
$DIMDEC
 70
     4
  9
$DIMTDEC
 70
     4
  9
$DIMALTU
 70
     2
  9
$DIMALTTD
 70
     2
  9
$DIMTXSTY
  7
Standard
  9
$DIMAUNIT
 70
     0
  9
$DIMADEC
 70
     0
  9
$DIMALTRND
 40
0.0
  9
$DIMAZIN
 70
     0
  9
$DIMDSEP
 70
     0
  9
$DIMATFIT
 70
     3
  9
$DIMFRAC
 70
     0
  9
$DIMLDRBLK
  1

  9
$DIMLUNIT
 70
     2
  9
$DIMLWD
 70
     0
  9
$DIMLWE
 70
     0
  9
$DIMTMOVE
 70
     0
  9
$LUNITS
 70
     2
  9
$LUPREC
 70
     4
  9
$SKETCHINC
 40
0.1
  9
$FILLETRAD
 40
0.0
  9
$AUNITS
 70
     0
  9
$AUPREC
 70
     0
  9
$MENU
  1
acad
  9
$ELEVATION
 40
0.0
  9
$PELEVATION
 40
0.0
  9
$THICKNESS
 40
0.0
  9
$LIMCHECK
 70
     0
  9
$CHAMFERA
 40
0.0
  9
$CHAMFERB
 40
0.0
  9
$CHAMFERC
 40
0.0
  9
$CHAMFERD
 40
0.0
  9
$SKPOLY
 70
     0
  9
$TDCREATE
 40
0.000000000
  9
$TDUCREATE
 40
0.000000000
  9
$TDUPDATE
 40
0.000000000
  9
$TDUUPDATE
 40
0.000000000
  9
$TDINDWG
 40
0.0000000000
  9
$TDUSRTIMER
 40
0.0000000000
  9
$USRTIMER
 70
     1
  9
$ANGBASE
 50
0.0
  9
$ANGDIR
 70
     0
  9
$PDMODE
 70
     0
  9
$PDSIZE
 40
0.0
  9
$PLINEWID
 40
0.0
  9
$SPLFRAME
 70
     0
  9
$SPLINETYPE
 70
     6
  9
$SPLINESEGS
 70
     8
  9
$HANDSEED
  5
7E
  9
$SURFTAB1
 70
     6
  9
$SURFTAB2
 70
     6
  9
$SURFTYPE
 70
     6
  9
$SURFU
 70
     6
  9
$SURFV
 70
     6
  9
$UCSBASE
  2

  9
$UCSNAME
  2

  9
$UCSORG
 10
0.0
 20
0.0
 30
0.0
  9
$UCSXDIR
 10
1.0
 20
0.0
 30
0.0
  9
$UCSYDIR
 10
0.0
 20
1.0
 30
0.0
  9
$UCSORTHOREF
  2

  9
$UCSORTHOVIEW
 70
     0
  9
$UCSORGTOP
 10
0.0
 20
0.0
 30
0.0
  9
$UCSORGBOTTOM
 10
0.0
 20
0.0
 30
0.0
  9
$UCSORGLEFT
 10
0.0
 20
0.0
 30
0.0
  9
$UCSORGRIGHT
 10
0.0
 20
0.0
 30
0.0
  9
$UCSORGFRONT
 10
0.0
 20
0.0
 30
0.0
  9
$UCSORGBACK
 10
0.0
 20
0.0
 30
0.0
  9
$PUCSBASE
  2

  9
$PUCSNAME
  2

  9
$PUCSORG
 10
0.0
 20
0.0
 30
0.0
  9
$PUCSXDIR
 10
1.0
 20
0.0
 30
0.0
  9
$PUCSYDIR
 10
0.0
 20
1.0
 30
0.0
  9
$PUCSORTHOREF
  2

  9
$PUCSORTHOVIEW
 70
     0
  9
$PUCSORGTOP
 10
0.0
 20
0.0
 30
0.0
  9
$PUCSORGBOTTOM
 10
0.0
 20
0.0
 30
0.0
  9
$PUCSORGLEFT
 10
0.0
 20
0.0
 30
0.0
  9
$PUCSORGRIGHT
 10
0.0
 20
0.0
 30
0.0
  9
$PUCSORGFRONT
 10
0.0
 20
0.0
 30
0.0
  9
$PUCSORGBACK
 10
0.0
 20
0.0
 30
0.0
  9
$USERI1
 70
     0
  9
$USERI2
 70
     0
  9
$USERI3
 70
     0
  9
$USERI4
 70
     0
  9
$USERI5
 70
     0
  9
$USERR1
 40
0.0
  9
$USERR2
 40
0.0
  9
$USERR3
 40
0.0
  9
$USERR4
 40
0.0
  9
$USERR5
 40
0.0
  9
$WORLDVIEW
 70
     1
  9
$SHADEDGE
 70
     3
  9
$SHADEDIF
 70
    70
  9
$TILEMODE
 70
     1
  9
$MAXACTVP
 70
    16
  9
$PINSBASE
 10
0.0
 20
0.0
 30
0.0
  9
$PLIMCHECK
 70
     0
  9
$PEXTMIN
 10
1.000000E+20
 20
1.000000E+20
 30
1.000000E+20
  9
$PEXTMAX
 10
-1.000000E+20
 20
-1.000000E+20
 30
-1.000000E+20
  9
$PLIMMIN
 10
0.0
 20
0.0
  9
$PLIMMAX
 10
12.0
 20
9.0
  9
$UNITMODE
 70
     0
  9
$VISRETAIN
 70
     0
  9
$PLINEGEN
 70
     1
  9
$PSLTSCALE
 70
     0
  9
$TREEDEPTH
 70
  3020
  9
$CMLSTYLE
  2
Standard
  9
$CMLJUST
 70
     0
  9
$CMLSCALE
 40
1.0
  9
$PROXYGRAPHICS
 70
     0
  9
$MEASUREMENT
 70
     0
  9
$CELWEIGHT
370
     0
  9
$ENDCAPS
280
     0
  9
$JOINSTYLE
280
     0
  9
$LWDISPLAY
290
     0
  9
$INSUNITS
 70
     5
  9
$HYPERLINKBASE
  1

  9
$XEDIT
290
     1
  9
$CEPSNTYPE
380
     0
  9
$PSTYLEMODE
290
     1
  9
$FINGERPRINTGUID
  2

  9
$VERSIONGUID
  2

  9
$EXTNAMES
290
     1
  9
$PSVPSCALE
 40
0.0
  0
ENDSEC
  0
SECTION
  2
CLASSES
  0
CLASS
  1
LWPOLYLINE
  2
AcDbPolyline
  3
AutoCAD 2000
 90
    32768
280
     0
281
     1
  0
CLASS
  1
IMAGE
  2
AcDbRasterImage
  3
ISM
 90
    32895
280
     0
281
     1
  0
CLASS
  1
OLE2FRAME
  2
AcDbOle2Frame
  3
AutoCAD 2000
 90
    32768
280
     0
281
     1
  0
CLASS
  1
HATCH
  2
AcDbHatch
  3
AutoCAD 2000
 90
    32768
280
     0
281
     1
  0
CLASS
  1
DICTIONARYVAR
  2
AcDbDictionaryVar
  3
AutoCAD 2000
 90
    32768
280
     0
281
     0
  0
CLASS
  1
RASTERVARIABLES
  2
AcDbRasterVariables
  3
ISM
 90
    32768
280
     0
281
     0
  0
CLASS
  1
IMAGEDEF
  2
AcDbRasterImageDef
  3
ISM
 90
    32768
280
     0
281
     0
  0
CLASS
  1
IMAGEDEF_REACTOR
  2
AcDbRasterImageDefReactor
  3
ISM
 90
    32769
280
     0
281
     0
  0
CLASS
  1
IDBUFFER
  2
AcDbIdBuffer
  3
AutoCAD 2000
 90
    32768
280
     0
281
     0
  0
CLASS
  1
SPATIAL_FILTER
  2
AcDbSpatialFilter
  3
AutoCAD 2000
 90
    32768
280
     0
281
     0
  0
CLASS
  1
XRECORD
  2
AcDbXrecord
  3
AutoCAD 2000
 90
    32768
280
     0
281
     0
  0
CLASS
  1
SORTENTSTABLE
  2
AcDbSortentsTable
  3
AutoCAD 2000
 90
    32768
280
     0
281
     0
  0
CLASS
  1
LAYER_INDEX
  2
AcDbLayerIndex
  3
AutoCAD 2000
 90
    32768
280
     0
281
     0
  0
CLASS
  1
SPATIAL_INDEX
  2
AcDbSpatialIndex
  3
AutoCAD 2000
 90
    32768
280
     0
281
     0
  0
CLASS
  1
OBJECT_PTR
  2
CAseDLPNTableRecord
  3
"ASE-LPNTableRecord"
 90
    32769
280
     0
281
     0
  0
CLASS
  1
LAYOUT
  2
AcDbLayout
  3
AutoCAD 2000
 90
        0
280
     0
281
     0
  0
CLASS
  1
PLOTSETTINGS
  2
AcDbPlotSettings
  3
AutoCAD 2000
 90
    32768
280
     0
281
     0
  0
CLASS
  1
ACDBDICTIONARYWDFLT
  2
AcDbDictionaryWithDefault
  3
AutoCAD 2000
 90
        0
280
     0
281
     0
  0
CLASS
  1
ACDBPLACEHOLDER
  2
AcDbPlaceHolder
  3
AutoCAD 2000
 90
        0
280
     0
281
     0
  0
CLASS
  1
VBA_PROJECT
  2
AcDbVbaProject
  3
acadvba
 90
    32768
280
     0
281
     0
  0
CLASS
  1
WIPEOUT
  2
AcDbWipeout
  3
WipeOut|AutoCAD Express Tool|expresstools@autodesk.com
 90
    32895
280
     0
281
     1
  0
CLASS
  1
WIPEOUTVARIABLES
  2
AcDbWipeoutVariables
  3
WipeOut|AutoCAD Express Tool|expresstools@autodesk.com
 90
        0
280
     0
281
     0
  0
CLASS
  1
RTEXT
  2
RText
  3
RText|AutoCAD Express Tool|expresstools@autodesk.com
 90
    32768
280
     0
281
     1
  0
CLASS
  1
ARCALIGNEDTEXT
  2
AcDbArcAlignedText
  3
ATEXT|AutoCAD Express Tool|expresstools@autodesk.com
 90
    32768
280
     0
281
     1
  0
ENDSEC
  0
SECTION
  2
TABLES
  0
TABLE
  2
VPORT
  5
7
100
AcDbSymbolTable
 70
     1
  0
VPORT
  5
15
100
AcDbSymbolTableRecord
100
AcDbViewportTableRecord
  2
*ACTIVE
 70
     0
 10
0.0
 20
0.0
 11
1.0
 21
1.0
 12
6.591288
 22
4.579184
 13
0.0
 23
0.0
 14
1.0
 24
1.0
 15
0.0
 25
0.0
 16
0.0
 26
0.0
 36
1.0
 17
0.0
 27
0.0
 37
0.0
 40
9.158369
 41
0.688564
 42
50.0
 43
0.0
 44
0.0
 50
0.0
 51
0.0
 71
     0
 72
   100
 73
     1
 74
     1
 75
     0
 76
     0
 77
     0
 78
     0
281
     0
 65
     0
110
0.0
120
0.0
130
0.0
111
1.0
121
0.0
131
0.0
112
0.0
122
1.0
132
0.0
345
0
346
0
 79
     0
146
0.0
  0
ENDTAB
  0
TABLE
  2
LTYPE
  5
4
100
AcDbSymbolTable
 70
     3
  0
LTYPE
  5
11
100
AcDbSymbolTableRecord
100
AcDbLinetypeTableRecord
  2
ByBlock
 70
    64
  3

 72
    65
 73
     0
 40
0.0
  0
LTYPE
  5
12
100
AcDbSymbolTableRecord
100
AcDbLinetypeTableRecord
  2
ByLayer
 70
    64
  3

 72
    65
 73
     0
 40
0.0
  0
LTYPE
  5
13
100
AcDbSymbolTableRecord
100
AcDbLinetypeTableRecord
  2
Continuous
 70
    64
  3
Solid line
 72
    65
 73
     0
 40
0.0
  0
ENDTAB
  0
TABLE
  2
LAYER
  5
2
100
AcDbSymbolTable
 70
     2
  0
LAYER
  5
14
100
AcDbSymbolTableRecord
100
AcDbLayerTableRecord
  2
0
 70
     0
 62
     7
  6
Continuous
290
     1
370
    -3
390
1D
  0
LAYER
  5
24
100
AcDbSymbolTableRecord
100
AcDbLayerTableRecord
  2
Ebene 1
 70
     0
 62
     7
  6
Continuous
290
     1
370
    -3
390
1F
  0
ENDTAB
  0
TABLE
  2
STYLE
  5
3
100
AcDbSymbolTable
 70
     1
  0
STYLE
  5
17
100
AcDbSymbolTableRecord
100
AcDbTextStyleTableRecord
  2
Standard
 70
     0
 40
0.0
 41
1.0
 50
0.0
 71
     0
 42
0.0
  3
txt
  4

  0
ENDTAB
  0
TABLE
  2
VIEW
  5
5
100
AcDbSymbolTable
 70
     0
  0
ENDTAB
  0
TABLE
  2
UCS
  5
6
100
AcDbSymbolTable
 70
     0
  0
ENDTAB
  0
TABLE
  2
APPID
  5
8
100
AcDbSymbolTable
 70
     1
  0
APPID
  5
16
100
AcDbSymbolTableRecord
100
AcDbRegAppTableRecord
  2
ACAD
 70
     0
  0
ENDTAB
  0
TABLE
  2
DIMSTYLE
  5
9
100
AcDbSymbolTable
 70
     1
100
AcDbDimStyleTable
 71
     0
  0
DIMSTYLE
105
18
100
AcDbSymbolTableRecord
100
AcDbDimStyleTableRecord
  2
Standard
 70
     0
  3

  4

 40
1.0
 41
0.18
 42
0.0625
 43
0.38
 44
0.18
 45
0.0
 46
0.0
 47
0.0
 48
0.0
 71
     0
 72
     0
 73
     1
 74
     1
 75
     0
 76
     0
 77
     0
 78
     0
 79
     0
140
0.18
141
0.09
142
0.0
143
25.4
144
1.0
145
0.0
146
1.0
147
0.09
148
0.0
170
     0
171
     2
172
     0
173
     0
174
     0
175
     0
176
     0
177
     0
178
     0
179
     0
271
     4
272
     4
273
     2
274
     2
275
     0
276
     0
277
     2
278
    46
279
     0
280
     0
281
     0
282
     0
283
     1
284
     0
285
     0
286
     0
288
     0
340
17
341
0
342
0
343
0
344
0
371
    -2
372
    -2
  0
ENDTAB
  0
TABLE
  2
BLOCK_RECORD
  5
1
100
AcDbSymbolTable
 70
     0
  0
BLOCK_RECORD
  5
A
100
AcDbSymbolTableRecord
100
AcDbBlockTableRecord
  2
*MODEL_SPACE
340
20
  0
BLOCK_RECORD
  5
B
100
AcDbSymbolTableRecord
100
AcDbBlockTableRecord
  2
*PAPER_SPACE
340
21
  0
ENDTAB
  0
ENDSEC
  0
SECTION
  2
BLOCKS
  0
BLOCK
  5
D
100
AcDbEntity
  8
0
100
AcDbBlockBegin
  2
*MODEL_SPACE
 70
     0
 10
0.0
 20
0.0
 30
0.0
  3
*MODEL_SPACE
  1

  0
ENDBLK
  5
E
100
AcDbEntity
  8
0
100
AcDbBlockEnd
  0
BLOCK
  5
F
100
AcDbEntity
 67
     1
  8
0
100
AcDbBlockBegin
  2
*PAPER_SPACE
 70
     0
 10
0.0
 20
0.0
 30
0.0
  3
*PAPER_SPACE
  1

  0
ENDBLK
  5
10
100
AcDbEntity
 67
     1
  8
0
100
AcDbBlockEnd
  0
ENDSEC
  0
SECTION
  2
ENTITIES
  0
SPLINE
  5
25
100
AcDbEntity
  8
Ebene 1
100
AcDbSpline
210
0.0
220
0.0
230
1.0
 70
     1
 71
     3
 72
    80
 73
    76
 74
     0
 42
0.0000000001
 43
0.0000000001
 40
0.0
 40
0.0
 40
0.0
 40
0.0
 40
0.0526315789473684
 40
0.0526315789473684
 40
0.0526315789473684
 40
0.0526315789473684
 40
0.1052631578947368
 40
0.1052631578947368
 40
0.1052631578947368
 40
0.1052631578947368
 40
0.1578947368421053
 40
0.1578947368421053
 40
0.1578947368421053
 40
0.1578947368421053
 40
0.2105263157894737
 40
0.2105263157894737
 40
0.2105263157894737
 40
0.2105263157894737
 40
0.2631578947368421
 40
0.2631578947368421
 40
0.2631578947368421
 40
0.2631578947368421
 40
0.3157894736842105
 40
0.3157894736842105
 40
0.3157894736842105
 40
0.3157894736842105
 40
0.3684210526315789
 40
0.3684210526315789
 40
0.3684210526315789
 40
0.3684210526315789
 40
0.4210526315789474
 40
0.4210526315789474
 40
0.4210526315789474
 40
0.4210526315789474
 40
0.4736842105263158
 40
0.4736842105263158
 40
0.4736842105263158
 40
0.4736842105263158
 40
0.5263157894736842
 40
0.5263157894736842
 40
0.5263157894736842
 40
0.5263157894736842
 40
0.5789473684210527
 40
0.5789473684210527
 40
0.5789473684210527
 40
0.5789473684210527
 40
0.631578947368421
 40
0.631578947368421
 40
0.631578947368421
 40
0.631578947368421
 40
0.6842105263157894
 40
0.6842105263157894
 40
0.6842105263157894
 40
0.6842105263157894
 40
0.7368421052631577
 40
0.7368421052631577
 40
0.7368421052631577
 40
0.7368421052631577
 40
0.7894736842105261
 40
0.7894736842105261
 40
0.7894736842105261
 40
0.7894736842105261
 40
0.8421052631578945
 40
0.8421052631578945
 40
0.8421052631578945
 40
0.8421052631578945
 40
0.8947368421052628
 40
0.8947368421052628
 40
0.8947368421052628
 40
0.8947368421052628
 40
0.9473684210526312
 40
0.9473684210526312
 40
0.9473684210526312
 40
0.9473684210526312
 40
1.0
 40
1.0
 40
1.0
 40
1.0
 10
-2.7709900000000003
 20
6.3011700000000008
 30
0.0
 10
-2.7176500000000003
 20
5.6737900000000003
 30
0.0
 10
-2.7963900000000002
 20
4.9498900000000008
 30
0.0
 10
-2.6135100000000002
 20
4.3047300000000002
 30
0.0
 10
-2.6135100000000002
 20
4.3047300000000002
 30
0.0
 10
-2.4788900000000003
 20
4.37331
 30
0.0
 10
-2.3823700000000003
 20
4.5485700000000007
 30
0.0
 10
-2.23251
 20
4.6044500000000008
 30
0.0
 10
-2.23251
 20
4.6044500000000008
 30
0.0
 10
-1.8032500000000002
 20
5.4985300000000006
 30
0.0
 10
-0.29449
 20
5.6280700000000001
 30
0.0
 10
-0.00747
 20
4.5587300000000006
 30
0.0
 10
-0.00747
 20
4.5587300000000006
 30
0.0
 10
-0.00747
 20
4.5587300000000006
 30
0.0
 10
-0.12177
 20
4.4063300000000005
 30
0.0
 10
-0.12177
 20
4.4063300000000005
 30
0.0
 10
-0.12177
 20
4.4063300000000005
 30
0.0
 10
-0.10145
 20
4.3377500000000007
 30
0.0
 10
-0.08113
 20
4.2844100000000003
 30
0.0
 10
-0.04811
 20
4.2158300000000004
 30
0.0
 10
-0.04811
 20
4.2158300000000004
 30
0.0
 10
1.1304400000000001
 20
4.7111300000000007
 30
0.0
 10
2.5045800000000003
 20
4.2539300000000004
 30
0.0
 10
3.3910400000000003
 20
3.4309700000000003
 30
0.0
 10
3.3910400000000003
 20
3.4309700000000003
 30
0.0
 10
3.4342200000000003
 20
4.4037900000000008
 30
0.0
 10
3.2996000000000003
 20
5.47567
 30
0.0
 10
3.3732600000000001
 20
6.4078500000000007
 30
0.0
 10
3.3732600000000001
 20
6.4078500000000007
 30
0.0
 10
3.8609400000000003
 20
4.6654100000000005
 30
0.0
 10
4.5264200000000008
 20
2.8112100000000004
 30
0.0
 10
4.2648000000000001
 20
0.9468500000000001
 30
0.0
 10
4.2648000000000001
 20
0.9468500000000001
 30
0.0
 10
4.2648000000000001
 20
0.9468500000000001
 30
0.0
 10
3.8380800000000002
 20
0.8401700000000001
 30
0.0
 10
3.8380800000000002
 20
0.8401700000000001
 30
0.0
 10
3.8380800000000002
 20
0.8401700000000001
 30
0.0
 10
3.8634800000000005
 20
0.36519
 30
0.0
 10
3.7390200000000005
 20
0.35503
 30
0.0
 10
3.5739200000000002
 20
-0.01072
 30
0.0
 10
3.5739200000000002
 20
-0.01072
 30
0.0
 10
3.6475800000000005
 20
-0.21392
 30
0.0
 10
3.5967800000000003
 20
-0.44252
 30
0.0
 10
3.7669600000000001
 20
-0.6127
 30
0.0
 10
3.7669600000000001
 20
-0.6127
 30
0.0
 10
3.7110800000000004
 20
-2.4161000000000001
 30
0.0
 10
3.5790000000000002
 20
-4.3109400000000004
 30
0.0
 10
3.9295200000000001
 20
-6.1067200000000001
 30
0.0
 10
3.9295200000000001
 20
-6.1067200000000001
 30
0.0
 10
1.3006200000000001
 20
-6.7417200000000008
 30
0.0
 10
-1.4019300000000001
 20
-6.2007000000000003
 30
0.0
 10
-4.0867100000000001
 20
-6.1930800000000001
 30
0.0
 10
-4.0867100000000001
 20
-6.1930800000000001
 30
0.0
 10
-4.1730700000000001
 20
-6.1727600000000002
 30
0.0
 10
-4.2645100000000005
 20
-6.1372000000000009
 30
0.0
 10
-4.31785
 20
-6.0584600000000002
 30
0.0
 10
-4.31785
 20
-6.0584600000000002
 30
0.0
 10
-4.2492700000000001
 20
-5.4768000000000008
 30
0.0
 10
-3.7107900000000003
 20
-4.9789600000000007
 30
0.0
 10
-3.5939500000000004
 20
-4.39222
 30
0.0
 10
-3.5939500000000004
 20
-4.39222
 30
0.0
 10
-3.8098500000000004
 20
-3.7216600000000004
 30
0.0
 10
-3.9698700000000002
 20
-3.0333200000000002
 30
0.0
 10
-4.3000700000000007
 20
-2.4161000000000001
 30
0.0
 10
-4.3000700000000007
 20
-2.4161000000000001
 30
0.0
 10
-4.1984700000000004
 20
-1.12832
 30
0.0
 10
-3.5736300000000001
 20
0.32963
 30
0.0
 10
-4.0181300000000002
 20
1.5005700000000002
 30
0.0
 10
-4.0181300000000002
 20
1.5005700000000002
 30
0.0
 10
-3.9165300000000003
 20
1.7063100000000002
 30
0.0
 10
-3.7463500000000005
 20
1.8739500000000002
 30
0.0
 10
-3.8454100000000002
 20
2.1609700000000003
 30
0.0
 10
-3.8454100000000002
 20
2.1609700000000003
 30
0.0
 10
-3.1011900000000003
 20
3.4208100000000004
 30
0.0
 10
-3.4390100000000001
 20
4.9930700000000003
 30
0.0
 10
-2.7709900000000003
 20
6.3011700000000008
 30
0.0
  0
SPLINE
  5
26
100
AcDbEntity
  8
Ebene 1
 62
     7
100
AcDbSpline
210
0.0
220
0.0
230
1.0
 70
     1
 71
     3
 72
    20
 73
    16
 74
     0
 42
0.0000000001
 43
0.0000000001
 40
0.0
 40
0.0
 40
0.0
 40
0.0
 40
0.25
 40
0.25
 40
0.25
 40
0.25
 40
0.5
 40
0.5
 40
0.5
 40
0.5
 40
0.75
 40
0.75
 40
0.75
 40
0.75
 40
1.0
 40
1.0
 40
1.0
 40
1.0
 10
-2.8700500000000004
 20
5.6610900000000006
 30
0.0
 10
-2.8573500000000003
 20
5.6610900000000006
 30
0.0
 10
-2.8421100000000004
 20
5.6636300000000004
 30
0.0
 10
-2.8421100000000004
 20
5.64839
 30
0.0
 10
-2.8421100000000004
 20
5.64839
 30
0.0
 10
-2.8573500000000003
 20
5.1708700000000007
 30
0.0
 10
-2.8522700000000003
 20
4.6349300000000007
 30
0.0
 10
-2.7684500000000001
 20
4.1370900000000006
 30
0.0
 10
-2.7684500000000001
 20
4.1370900000000006
 30
0.0
 10
-2.77861
 20
4.0939100000000002
 30
0.0
 10
-2.8192500000000003
 20
4.07613
 30
0.0
 10
-2.8446500000000001
 20
4.0456500000000002
 30
0.0
 10
-2.8446500000000001
 20
4.0456500000000002
 30
0.0
 10
-2.94625
 20
4.5714300000000003
 30
0.0
 10
-2.9386300000000003
 20
5.1353100000000005
 30
0.0
 10
-2.8700500000000004
 20
5.6610900000000006
 30
0.0
  0
SPLINE
  5
27
100
AcDbEntity
  8
Ebene 1
 62
     7
100
AcDbSpline
210
0.0
220
0.0
230
1.0
 70
     1
 71
     3
 72
    56
 73
    52
 74
     0
 42
0.0000000001
 43
0.0000000001
 40
0.0
 40
0.0
 40
0.0
 40
0.0
 40
0.0769230769230769
 40
0.0769230769230769
 40
0.0769230769230769
 40
0.0769230769230769
 40
0.1538461538461539
 40
0.1538461538461539
 40
0.1538461538461539
 40
0.1538461538461539
 40
0.2307692307692308
 40
0.2307692307692308
 40
0.2307692307692308
 40
0.2307692307692308
 40
0.3076923076923077
 40
0.3076923076923077
 40
0.3076923076923077
 40
0.3076923076923077
 40
0.3846153846153846
 40
0.3846153846153846
 40
0.3846153846153846
 40
0.3846153846153846
 40
0.4615384615384616
 40
0.4615384615384616
 40
0.4615384615384616
 40
0.4615384615384616
 40
0.5384615384615386
 40
0.5384615384615386
 40
0.5384615384615386
 40
0.5384615384615386
 40
0.6153846153846154
 40
0.6153846153846154
 40
0.6153846153846154
 40
0.6153846153846154
 40
0.6923076923076923
 40
0.6923076923076923
 40
0.6923076923076923
 40
0.6923076923076923
 40
0.7692307692307692
 40
0.7692307692307692
 40
0.7692307692307692
 40
0.7692307692307692
 40
0.846153846153846
 40
0.846153846153846
 40
0.846153846153846
 40
0.846153846153846
 40
0.9230769230769229
 40
0.9230769230769229
 40
0.9230769230769229
 40
0.9230769230769229
 40
1.0
 40
1.0
 40
1.0
 40
1.0
 10
3.4393000000000002
 20
5.7957100000000006
 30
0.0
 10
3.6958400000000005
 20
5.1149900000000006
 30
0.0
 10
3.8203000000000005
 20
4.3250500000000001
 30
0.0
 10
3.9955600000000002
 20
3.5935300000000003
 30
0.0
 10
3.9955600000000002
 20
3.5935300000000003
 30
0.0
 10
3.9955600000000002
 20
3.5935300000000003
 30
0.0
 10
4.17082
 20
2.3590900000000001
 30
0.0
 10
4.17082
 20
2.3590900000000001
 30
0.0
 10
4.17082
 20
2.3590900000000001
 30
0.0
 10
4.1098600000000003
 20
1.9171300000000002
 30
0.0
 10
4.5594400000000004
 20
1.11195
 30
0.0
 10
3.9219000000000004
 20
1.0154300000000001
 30
0.0
 10
3.9219000000000004
 20
1.0154300000000001
 30
0.0
 10
3.9219000000000004
 20
1.0154300000000001
 30
0.0
 10
4.1403400000000001
 20
1.2592700000000001
 30
0.0
 10
4.1403400000000001
 20
1.2592700000000001
 30
0.0
 10
4.1403400000000001
 20
1.2592700000000001
 30
0.0
 10
4.1428799999999999
 20
1.3862700000000001
 30
0.0
 10
4.1479600000000003
 20
1.4980300000000002
 30
0.0
 10
4.1784400000000002
 20
1.61487
 30
0.0
 10
4.1784400000000002
 20
1.61487
 30
0.0
 10
3.9244400000000002
 20
2.7883500000000003
 30
0.0
 10
3.9422200000000003
 20
4.0405700000000007
 30
0.0
 10
3.5485200000000003
 20
5.1861100000000002
 30
0.0
 10
3.5485200000000003
 20
5.1861100000000002
 30
0.0
 10
3.4977200000000002
 20
4.9702100000000007
 30
0.0
 10
3.5637600000000003
 20
4.6958900000000003
 30
0.0
 10
3.5815400000000004
 20
4.4723700000000006
 30
0.0
 10
3.5815400000000004
 20
4.4723700000000006
 30
0.0
 10
3.6272600000000002
 20
4.1116900000000003
 30
0.0
 10
3.7009200000000004
 20
3.7510100000000004
 30
0.0
 10
3.7034600000000002
 20
3.3877900000000003
 30
0.0
 10
3.7034600000000002
 20
3.3877900000000003
 30
0.0
 10
3.6780600000000003
 20
2.7096100000000001
 30
0.0
 10
3.5561400000000001
 20
2.17875
 30
0.0
 10
3.5409000000000002
 20
1.5031100000000002
 30
0.0
 10
3.5409000000000002
 20
1.5031100000000002
 30
0.0
 10
3.5078800000000001
 20
1.4294500000000001
 30
0.0
 10
3.4164400000000001
 20
1.5056500000000002
 30
0.0
 10
3.3631000000000002
 20
1.4599300000000002
 30
0.0
 10
3.3631000000000002
 20
1.4599300000000002
 30
0.0
 10
3.2869000000000002
 20
1.5234300000000001
 30
0.0
 10
3.2792800000000004
 20
1.6072500000000001
 30
0.0
 10
3.2742000000000004
 20
1.6910700000000001
 30
0.0
 10
3.2742000000000004
 20
1.6910700000000001
 30
0.0
 10
3.3123000000000005
 20
1.7367900000000001
 30
0.0
 10
3.3554800000000005
 20
1.5564500000000001
 30
0.0
 10
3.4164400000000001
 20
1.6605900000000002
 30
0.0
 10
3.4164400000000001
 20
1.6605900000000002
 30
0.0
 10
3.6450400000000003
 20
2.9178900000000003
 30
0.0
 10
3.4189800000000004
 20
4.4012500000000001
 30
0.0
 10
3.4393000000000002
 20
5.7957100000000006
 30
0.0
  0
SPLINE
  5
28
100
AcDbEntity
  8
Ebene 1
 62
     7
100
AcDbSpline
210
0.0
220
0.0
230
1.0
 70
     1
 71
     3
 72
   172
 73
   168
 74
     0
 42
0.0000000001
 43
0.0000000001
 40
0.0
 40
0.0
 40
0.0
 40
0.0
 40
0.0238095238095238
 40
0.0238095238095238
 40
0.0238095238095238
 40
0.0238095238095238
 40
0.0476190476190476
 40
0.0476190476190476
 40
0.0476190476190476
 40
0.0476190476190476
 40
0.0714285714285714
 40
0.0714285714285714
 40
0.0714285714285714
 40
0.0714285714285714
 40
0.0952380952380952
 40
0.0952380952380952
 40
0.0952380952380952
 40
0.0952380952380952
 40
0.119047619047619
 40
0.119047619047619
 40
0.119047619047619
 40
0.119047619047619
 40
0.1428571428571429
 40
0.1428571428571429
 40
0.1428571428571429
 40
0.1428571428571429
 40
0.1666666666666667
 40
0.1666666666666667
 40
0.1666666666666667
 40
0.1666666666666667
 40
0.1904761904761905
 40
0.1904761904761905
 40
0.1904761904761905
 40
0.1904761904761905
 40
0.2142857142857143
 40
0.2142857142857143
 40
0.2142857142857143
 40
0.2142857142857143
 40
0.2380952380952381
 40
0.2380952380952381
 40
0.2380952380952381
 40
0.2380952380952381
 40
0.2619047619047619
 40
0.2619047619047619
 40
0.2619047619047619
 40
0.2619047619047619
 40
0.2857142857142857
 40
0.2857142857142857
 40
0.2857142857142857
 40
0.2857142857142857
 40
0.3095238095238095
 40
0.3095238095238095
 40
0.3095238095238095
 40
0.3095238095238095
 40
0.3333333333333334
 40
0.3333333333333334
 40
0.3333333333333334
 40
0.3333333333333334
 40
0.3571428571428572
 40
0.3571428571428572
 40
0.3571428571428572
 40
0.3571428571428572
 40
0.380952380952381
 40
0.380952380952381
 40
0.380952380952381
 40
0.380952380952381
 40
0.4047619047619049
 40
0.4047619047619049
 40
0.4047619047619049
 40
0.4047619047619049
 40
0.4285714285714287
 40
0.4285714285714287
 40
0.4285714285714287
 40
0.4285714285714287
 40
0.4523809523809526
 40
0.4523809523809526
 40
0.4523809523809526
 40
0.4523809523809526
 40
0.4761904761904764
 40
0.4761904761904764
 40
0.4761904761904764
 40
0.4761904761904764
 40
0.5000000000000002
 40
0.5000000000000002
 40
0.5000000000000002
 40
0.5000000000000002
 40
0.5238095238095241
 40
0.5238095238095241
 40
0.5238095238095241
 40
0.5238095238095241
 40
0.5476190476190479
 40
0.5476190476190479
 40
0.5476190476190479
 40
0.5476190476190479
 40
0.5714285714285717
 40
0.5714285714285717
 40
0.5714285714285717
 40
0.5714285714285717
 40
0.5952380952380956
 40
0.5952380952380956
 40
0.5952380952380956
 40
0.5952380952380956
 40
0.6190476190476194
 40
0.6190476190476194
 40
0.6190476190476194
 40
0.6190476190476194
 40
0.6428571428571432
 40
0.6428571428571432
 40
0.6428571428571432
 40
0.6428571428571432
 40
0.6666666666666671
 40
0.6666666666666671
 40
0.6666666666666671
 40
0.6666666666666671
 40
0.6904761904761909
 40
0.6904761904761909
 40
0.6904761904761909
 40
0.6904761904761909
 40
0.7142857142857148
 40
0.7142857142857148
 40
0.7142857142857148
 40
0.7142857142857148
 40
0.7380952380952386
 40
0.7380952380952386
 40
0.7380952380952386
 40
0.7380952380952386
 40
0.7619047619047624
 40
0.7619047619047624
 40
0.7619047619047624
 40
0.7619047619047624
 40
0.7857142857142863
 40
0.7857142857142863
 40
0.7857142857142863
 40
0.7857142857142863
 40
0.8095238095238101
 40
0.8095238095238101
 40
0.8095238095238101
 40
0.8095238095238101
 40
0.8333333333333339
 40
0.8333333333333339
 40
0.8333333333333339
 40
0.8333333333333339
 40
0.8571428571428578
 40
0.8571428571428578
 40
0.8571428571428578
 40
0.8571428571428578
 40
0.8809523809523816
 40
0.8809523809523816
 40
0.8809523809523816
 40
0.8809523809523816
 40
0.9047619047619054
 40
0.9047619047619054
 40
0.9047619047619054
 40
0.9047619047619054
 40
0.9285714285714293
 40
0.9285714285714293
 40
0.9285714285714293
 40
0.9285714285714293
 40
0.9523809523809531
 40
0.9523809523809531
 40
0.9523809523809531
 40
0.9523809523809531
 40
0.9761904761904769
 40
0.9761904761904769
 40
0.9761904761904769
 40
0.9761904761904769
 40
1.0
 40
1.0
 40
1.0
 40
1.0
 10
-1.2266700000000001
 20
5.2064300000000001
 30
0.0
 10
-0.9244100000000001
 20
5.2750100000000009
 30
0.0
 10
-0.7923300000000001
 20
5.17849
 30
0.0
 10
-0.8964700000000001
 20
4.92957
 30
0.0
 10
-0.8964700000000001
 20
4.92957
 30
0.0
 10
-0.8837700000000001
 20
4.8635300000000008
 30
0.0
 10
-0.8431300000000001
 20
4.9727500000000004
 30
0.0
 10
-0.82789
 20
4.9905300000000006
 30
0.0
 10
-0.82789
 20
4.9905300000000006
 30
0.0
 10
-0.55103
 20
5.3842300000000005
 30
0.0
 10
-0.6221500000000001
 20
4.7289099999999999
 30
0.0
 10
-0.7466100000000001
 20
4.4799900000000008
 30
0.0
 10
-0.7466100000000001
 20
4.4799900000000008
 30
0.0
 10
-0.69835
 20
4.4444300000000005
 30
0.0
 10
-0.6297700000000001
 20
4.5714300000000003
 30
0.0
 10
-0.6069100000000001
 20
4.6298500000000002
 30
0.0
 10
-0.6069100000000001
 20
4.6298500000000002
 30
0.0
 10
-0.55103
 20
4.7822500000000003
 30
0.0
 10
-0.56881
 20
4.9600500000000007
 30
0.0
 10
-0.41387
 20
5.0438700000000001
 30
0.0
 10
-0.41387
 20
5.0438700000000001
 30
0.0
 10
-0.41387
 20
5.0438700000000001
 30
0.0
 10
-0.22083
 20
4.7492300000000007
 30
0.0
 10
-0.22083
 20
4.7492300000000007
 30
0.0
 10
-0.22083
 20
4.7492300000000007
 30
0.0
 10
-0.5230900000000001
 20
4.34537
 30
0.0
 10
0.12714
 20
3.9516700000000005
 30
0.0
 10
-0.06843
 20
3.4843100000000002
 30
0.0
 10
-0.06843
 20
3.4843100000000002
 30
0.0
 10
-0.20051
 20
3.3877900000000003
 30
0.0
 10
-0.47737
 20
3.6595700000000004
 30
0.0
 10
-0.20051
 20
3.6976700000000005
 30
0.0
 10
-0.20051
 20
3.6976700000000005
 30
0.0
 10
-0.23353
 20
3.7789500000000005
 30
0.0
 10
-0.41387
 20
3.8907100000000003
 30
0.0
 10
-0.21829
 20
3.8932500000000001
 30
0.0
 10
-0.21829
 20
3.8932500000000001
 30
0.0
 10
-0.34783
 20
3.9389700000000003
 30
0.0
 10
-0.6069100000000001
 20
4.3377500000000007
 30
0.0
 10
-0.8710700000000001
 20
4.2996500000000006
 30
0.0
 10
-0.8710700000000001
 20
4.2996500000000006
 30
0.0
 10
-0.78471
 20
4.1396300000000004
 30
0.0
 10
-0.16495
 20
3.9389700000000003
 30
0.0
 10
-0.4824500000000001
 20
3.8703900000000004
 30
0.0
 10
-0.4824500000000001
 20
3.8703900000000004
 30
0.0
 10
-0.22083
 20
3.7662500000000003
 30
0.0
 10
-0.4265700000000001
 20
3.7052900000000002
 30
0.0
 10
-0.53071
 20
3.6265500000000004
 30
0.0
 10
-0.53071
 20
3.6265500000000004
 30
0.0
 10
-0.3859300000000001
 20
3.4004900000000005
 30
0.0
 10
0.04586
 20
3.4233500000000001
 30
0.0
 10
0.023
 20
3.0423500000000003
 30
0.0
 10
0.023
 20
3.0423500000000003
 30
0.0
 10
0.34812
 20
2.9991700000000003
 30
0.0
 10
0.6732400000000001
 20
2.8162900000000004
 30
0.0
 10
0.41162
 20
2.5978500000000002
 30
0.0
 10
0.41162
 20
2.5978500000000002
 30
0.0
 10
0.7519800000000001
 20
2.5851500000000001
 30
0.0
 10
1.0415400000000001
 20
2.4683100000000002
 30
0.0
 10
1.31586
 20
2.37941
 30
0.0
 10
1.31586
 20
2.37941
 30
0.0
 10
1.1609200000000002
 20
2.3819500000000002
 30
0.0
 10
1.0364600000000002
 20
2.3565500000000004
 30
0.0
 10
1.18886
 20
2.2143100000000002
 30
0.0
 10
1.18886
 20
2.2143100000000002
 30
0.0
 10
0.9653400000000001
 20
2.2092300000000002
 30
0.0
 10
1.06948
 20
2.1482700000000001
 30
0.0
 10
1.18632
 20
2.1025500000000004
 30
0.0
 10
1.18632
 20
2.1025500000000004
 30
0.0
 10
1.3184
 20
2.0161900000000004
 30
0.0
 10
0.8764400000000001
 20
1.8053700000000001
 30
0.0
 10
0.4827400000000001
 20
1.9425300000000001
 30
0.0
 10
0.4827400000000001
 20
1.9425300000000001
 30
0.0
 10
0.24144
 20
2.1330300000000002
 30
0.0
 10
0.61736
 20
2.5165700000000002
 30
0.0
 10
0.19572
 20
2.50895
 30
0.0
 10
0.19572
 20
2.50895
 30
0.0
 10
0.19572
 20
2.50895
 30
0.0
 10
-0.02271
 20
2.1101700000000001
 30
0.0
 10
-0.02271
 20
2.1101700000000001
 30
0.0
 10
-0.02271
 20
2.1101700000000001
 30
0.0
 10
-0.17257
 20
2.5622900000000004
 30
0.0
 10
-0.05573
 20
3.1617300000000004
 30
0.0
 10
-0.50785
 20
3.3623900000000004
 30
0.0
 10
-0.50785
 20
3.3623900000000004
 30
0.0
 10
-0.61453
 20
3.3166700000000002
 30
0.0
 10
-0.5002300000000001
 20
3.2709500000000005
 30
0.0
 10
-0.50785
 20
3.2125300000000001
 30
0.0
 10
-0.50785
 20
3.2125300000000001
 30
0.0
 10
-0.5586500000000001
 20
3.2938100000000001
 30
0.0
 10
-0.61707
 20
3.1566500000000004
 30
0.0
 10
-0.5027700000000001
 20
3.1236300000000004
 30
0.0
 10
-0.5027700000000001
 20
3.1236300000000004
 30
0.0
 10
-0.5027700000000001
 20
3.1236300000000004
 30
0.0
 10
-0.3427500000000001
 20
3.0804500000000004
 30
0.0
 10
-0.3427500000000001
 20
3.0804500000000004
 30
0.0
 10
-0.3427500000000001
 20
3.0804500000000004
 30
0.0
 10
-0.44435
 20
2.7908900000000001
 30
0.0
 10
-0.39101
 20
2.5013300000000003
 30
0.0
 10
-0.65771
 20
2.1533500000000001
 30
0.0
 10
-0.65771
 20
2.1533500000000001
 30
0.0
 10
-0.8075700000000001
 20
2.7451700000000003
 30
0.0
 10
-0.9345700000000001
 20
3.2557100000000001
 30
0.0
 10
-0.7720100000000001
 20
3.6494100000000005
 30
0.0
 10
-0.7720100000000001
 20
3.6494100000000005
 30
0.0
 10
-0.7897900000000001
 20
3.6875100000000005
 30
0.0
 10
-0.8634500000000001
 20
3.7256100000000001
 30
0.0
 10
-0.9066300000000001
 20
3.7357700000000005
 30
0.0
 10
-0.9066300000000001
 20
3.7357700000000005
 30
0.0
 10
-0.84821
 20
3.5579700000000001
 30
0.0
 10
-1.1403100000000002
 20
3.5046300000000001
 30
0.0
 10
-0.8761500000000001
 20
3.3877900000000003
 30
0.0
 10
-0.8761500000000001
 20
3.3877900000000003
 30
0.0
 10
-1.17079
 20
3.2201500000000003
 30
0.0
 10
-0.97267
 20
2.7045300000000001
 30
0.0
 10
-1.3231900000000001
 20
2.3641700000000001
 30
0.0
 10
-1.3231900000000001
 20
2.3641700000000001
 30
0.0
 10
-1.6457700000000002
 20
2.8416900000000003
 30
0.0
 10
-1.0564900000000002
 20
3.2023700000000002
 30
0.0
 10
-1.1403100000000002
 20
3.6875100000000005
 30
0.0
 10
-1.1403100000000002
 20
3.6875100000000005
 30
0.0
 10
-1.1453900000000001
 20
3.7281500000000003
 30
0.0
 10
-1.16317
 20
3.7967300000000002
 30
0.0
 10
-1.2215900000000002
 20
3.8068900000000001
 30
0.0
 10
-1.2215900000000002
 20
3.8068900000000001
 30
0.0
 10
-1.6025900000000002
 20
3.3369900000000001
 30
0.0
 10
-1.7880100000000001
 20
2.5622900000000004
 30
0.0
 10
-2.0801100000000003
 20
2.0187300000000001
 30
0.0
 10
-2.0801100000000003
 20
2.0187300000000001
 30
0.0
 10
-2.1156700000000002
 20
2.25495
 30
0.0
 10
-1.9835900000000002
 20
2.3768700000000003
 30
0.0
 10
-1.9912100000000001
 20
2.6156300000000003
 30
0.0
 10
-1.9912100000000001
 20
2.6156300000000003
 30
0.0
 10
-1.8743700000000001
 20
2.5699100000000001
 30
0.0
 10
-1.8108700000000002
 20
2.9813900000000002
 30
0.0
 10
-1.9886700000000002
 20
2.9255100000000001
 30
0.0
 10
-1.9886700000000002
 20
2.9255100000000001
 30
0.0
 10
-2.06995
 20
2.8899500000000002
 30
0.0
 10
-2.1334500000000003
 20
2.80105
 30
0.0
 10
-2.1385300000000003
 20
2.7019900000000003
 30
0.0
 10
-2.1385300000000003
 20
2.7019900000000003
 30
0.0
 10
-2.2909300000000004
 20
2.5064100000000002
 30
0.0
 10
-2.4636500000000003
 20
2.0695300000000003
 30
0.0
 10
-2.3671300000000004
 20
2.5699100000000001
 30
0.0
 10
-2.3671300000000004
 20
2.5699100000000001
 30
0.0
 10
-2.3341100000000004
 20
2.6994500000000001
 30
0.0
 10
-2.3036300000000001
 20
2.8416900000000003
 30
0.0
 10
-2.3163300000000002
 20
2.9686900000000001
 30
0.0
 10
-2.3163300000000002
 20
2.9686900000000001
 30
0.0
 10
-2.48143
 20
2.7705700000000002
 30
0.0
 10
-2.4839700000000002
 20
2.46069
 30
0.0
 10
-2.5347700000000004
 20
2.2447900000000001
 30
0.0
 10
-2.5347700000000004
 20
2.2447900000000001
 30
0.0
 10
-2.8116300000000001
 20
2.6867500000000004
 30
0.0
 10
-2.3645900000000002
 20
3.2023700000000002
 30
0.0
 10
-2.3722100000000004
 20
3.6240100000000002
 30
0.0
 10
-2.3722100000000004
 20
3.6240100000000002
 30
0.0
 10
-1.9556500000000001
 20
3.8272100000000004
 30
0.0
 10
-1.71435
 20
4.2996500000000006
 30
0.0
 10
-1.7880100000000001
 20
4.6577900000000003
 30
0.0
 10
-1.7880100000000001
 20
4.6577900000000003
 30
0.0
 10
-1.6889500000000002
 20
4.8203500000000004
 30
0.0
 10
-1.6762500000000002
 20
5.0184700000000007
 30
0.0
 10
-1.5213100000000002
 20
5.1581700000000001
 30
0.0
 10
-1.5213100000000002
 20
5.1581700000000001
 30
0.0
 10
-1.38161
 20
5.1835700000000005
 30
0.0
 10
-1.3485900000000002
 20
5.1530900000000006
 30
0.0
 10
-1.2266700000000001
 20
5.2064300000000001
 30
0.0
  0
SPLINE
  5
29
100
AcDbEntity
  8
Ebene 1
 62
     7
100
AcDbSpline
210
0.0
220
0.0
230
1.0
 70
     1
 71
     3
 72
    32
 73
    28
 74
     0
 42
0.0000000001
 43
0.0000000001
 40
0.0
 40
0.0
 40
0.0
 40
0.0
 40
0.1428571428571429
 40
0.1428571428571429
 40
0.1428571428571429
 40
0.1428571428571429
 40
0.2857142857142857
 40
0.2857142857142857
 40
0.2857142857142857
 40
0.2857142857142857
 40
0.4285714285714286
 40
0.4285714285714286
 40
0.4285714285714286
 40
0.4285714285714286
 40
0.5714285714285714
 40
0.5714285714285714
 40
0.5714285714285714
 40
0.5714285714285714
 40
0.7142857142857142
 40
0.7142857142857142
 40
0.7142857142857142
 40
0.7142857142857142
 40
0.857142857142857
 40
0.857142857142857
 40
0.857142857142857
 40
0.857142857142857
 40
1.0
 40
1.0
 40
1.0
 40
1.0
 10
-1.7753100000000002
 20
5.0235500000000002
 30
0.0
 10
-1.7626100000000002
 20
5.0260900000000008
 30
0.0
 10
-1.7473700000000001
 20
5.0260900000000008
 30
0.0
 10
-1.7473700000000001
 20
5.0133900000000002
 30
0.0
 10
-1.7473700000000001
 20
5.0133900000000002
 30
0.0
 10
-1.8032500000000002
 20
4.8381300000000005
 30
0.0
 10
-1.8261100000000001
 20
4.6247700000000007
 30
0.0
 10
-1.9556500000000001
 20
4.4876100000000001
 30
0.0
 10
-1.9556500000000001
 20
4.4876100000000001
 30
0.0
 10
-1.9556500000000001
 20
4.4876100000000001
 30
0.0
 10
-1.9607300000000001
 20
4.4037900000000008
 30
0.0
 10
-1.9607300000000001
 20
4.4037900000000008
 30
0.0
 10
-1.9607300000000001
 20
4.4037900000000008
 30
0.0
 10
-1.9607300000000001
 20
4.4037900000000008
 30
0.0
 10
-2.0039100000000003
 20
4.4012500000000001
 30
0.0
 10
-2.0039100000000003
 20
4.4012500000000001
 30
0.0
 10
-2.0039100000000003
 20
4.4012500000000001
 30
0.0
 10
-1.9962900000000001
 20
4.46983
 30
0.0
 10
-1.9835900000000002
 20
4.5003100000000007
 30
0.0
 10
-1.9327900000000002
 20
4.54603
 30
0.0
 10
-1.9327900000000002
 20
4.54603
 30
0.0
 10
-1.9327900000000002
 20
4.54603
 30
0.0
 10
-1.9785100000000002
 20
4.6120700000000001
 30
0.0
 10
-1.9785100000000002
 20
4.6120700000000001
 30
0.0
 10
-1.9785100000000002
 20
4.6120700000000001
 30
0.0
 10
-1.9226300000000001
 20
4.7593900000000007
 30
0.0
 10
-1.8489700000000002
 20
4.89147
 30
0.0
 10
-1.7753100000000002
 20
5.0235500000000002
 30
0.0
  0
SPLINE
  5
2A
100
AcDbEntity
  8
Ebene 1
 62
     7
100
AcDbSpline
210
0.0
220
0.0
230
1.0
 70
     1
 71
     3
 72
    36
 73
    32
 74
     0
 42
0.0000000001
 43
0.0000000001
 40
0.0
 40
0.0
 40
0.0
 40
0.0
 40
0.125
 40
0.125
 40
0.125
 40
0.125
 40
0.25
 40
0.25
 40
0.25
 40
0.25
 40
0.375
 40
0.375
 40
0.375
 40
0.375
 40
0.5
 40
0.5
 40
0.5
 40
0.5
 40
0.625
 40
0.625
 40
0.625
 40
0.625
 40
0.75
 40
0.75
 40
0.75
 40
0.75
 40
0.875
 40
0.875
 40
0.875
 40
0.875
 40
1.0
 40
1.0
 40
1.0
 40
1.0
 10
-2.0318500000000004
 20
4.7339900000000004
 30
0.0
 10
-1.9734300000000002
 20
4.7111300000000007
 30
0.0
 10
-2.0775700000000001
 20
4.6044500000000008
 30
0.0
 10
-2.0445500000000001
 20
4.5384100000000007
 30
0.0
 10
-2.0445500000000001
 20
4.5384100000000007
 30
0.0
 10
-2.14615
 20
4.4291900000000002
 30
0.0
 10
-2.2502900000000001
 20
4.3225100000000003
 30
0.0
 10
-2.40015
 20
4.2666300000000001
 30
0.0
 10
-2.40015
 20
4.2666300000000001
 30
0.0
 10
-2.43825
 20
4.2361500000000003
 30
0.0
 10
-2.3544300000000002
 20
4.2285300000000001
 30
0.0
 10
-2.3798300000000001
 20
4.1853500000000006
 30
0.0
 10
-2.3798300000000001
 20
4.1853500000000006
 30
0.0
 10
-2.4179300000000001
 20
4.1523300000000001
 30
0.0
 10
-2.4585700000000004
 20
4.1497900000000003
 30
0.0
 10
-2.5169900000000003
 20
4.1447100000000008
 30
0.0
 10
-2.5169900000000003
 20
4.1447100000000008
 30
0.0
 10
-2.5398500000000004
 20
4.1142300000000001
 30
0.0
 10
-2.5119100000000003
 20
4.1040700000000001
 30
0.0
 10
-2.4966700000000004
 20
4.07613
 30
0.0
 10
-2.4966700000000004
 20
4.07613
 30
0.0
 10
-3.0275300000000001
 20
3.5681300000000005
 30
0.0
 10
-3.4644100000000004
 20
2.9102700000000001
 30
0.0
 10
-3.5126700000000004
 20
2.1762100000000002
 30
0.0
 10
-3.5126700000000004
 20
2.1762100000000002
 30
0.0
 10
-3.5304500000000001
 20
2.1457300000000004
 30
0.0
 10
-3.5152100000000002
 20
2.0771500000000001
 30
0.0
 10
-3.5736300000000001
 20
2.0720700000000001
 30
0.0
 10
-3.5736300000000001
 20
2.0720700000000001
 30
0.0
 10
-3.5177500000000004
 20
3.1033100000000005
 30
0.0
 10
-2.7989300000000004
 20
4.0075500000000002
 30
0.0
 10
-2.0318500000000004
 20
4.7339900000000004
 30
0.0
  0
SPLINE
  5
2B
100
AcDbEntity
  8
Ebene 1
 62
     7
100
AcDbSpline
210
0.0
220
0.0
230
1.0
 70
     1
 71
     3
 72
    20
 73
    16
 74
     0
 42
0.0000000001
 43
0.0000000001
 40
0.0
 40
0.0
 40
0.0
 40
0.0
 40
0.25
 40
0.25
 40
0.25
 40
0.25
 40
0.5
 40
0.5
 40
0.5
 40
0.5
 40
0.75
 40
0.75
 40
0.75
 40
0.75
 40
1.0
 40
1.0
 40
1.0
 40
1.0
 10
-3.2205700000000004
 20
4.1701100000000002
 30
0.0
 10
-3.2205700000000004
 20
4.1701100000000002
 30
0.0
 10
-3.1926300000000003
 20
4.1701100000000002
 30
0.0
 10
-3.1926300000000003
 20
4.1701100000000002
 30
0.0
 10
-3.1926300000000003
 20
4.1701100000000002
 30
0.0
 10
-3.1773900000000004
 20
4.0024700000000006
 30
0.0
 10
-3.1773900000000004
 20
3.8221300000000005
 30
0.0
 10
-3.1088100000000001
 20
3.6722700000000001
 30
0.0
 10
-3.1088100000000001
 20
3.6722700000000001
 30
0.0
 10
-3.1088100000000001
 20
3.6722700000000001
 30
0.0
 10
-3.2662900000000001
 20
3.4462100000000002
 30
0.0
 10
-3.2662900000000001
 20
3.4462100000000002
 30
0.0
 10
-3.2662900000000001
 20
3.4462100000000002
 30
0.0
 10
-3.3475700000000002
 20
3.6925900000000005
 30
0.0
 10
-3.2434300000000005
 20
3.9288100000000004
 30
0.0
 10
-3.2205700000000004
 20
4.1701100000000002
 30
0.0
  0
SPLINE
  5
2C
100
AcDbEntity
  8
Ebene 1
 62
     7
100
AcDbSpline
210
0.0
220
0.0
230
1.0
 70
     1
 71
     3
 72
    64
 73
    60
 74
     0
 42
0.0000000001
 43
0.0000000001
 40
0.0
 40
0.0
 40
0.0
 40
0.0
 40
0.0666666666666667
 40
0.0666666666666667
 40
0.0666666666666667
 40
0.0666666666666667
 40
0.1333333333333333
 40
0.1333333333333333
 40
0.1333333333333333
 40
0.1333333333333333
 40
0.2
 40
0.2
 40
0.2
 40
0.2
 40
0.2666666666666667
 40
0.2666666666666667
 40
0.2666666666666667
 40
0.2666666666666667
 40
0.3333333333333333
 40
0.3333333333333333
 40
0.3333333333333333
 40
0.3333333333333333
 40
0.4
 40
0.4
 40
0.4
 40
0.4
 40
0.4666666666666666
 40
0.4666666666666666
 40
0.4666666666666666
 40
0.4666666666666666
 40
0.5333333333333333
 40
0.5333333333333333
 40
0.5333333333333333
 40
0.5333333333333333
 40
0.6
 40
0.6
 40
0.6
 40
0.6
 40
0.6666666666666666
 40
0.6666666666666666
 40
0.6666666666666666
 40
0.6666666666666666
 40
0.7333333333333333
 40
0.7333333333333333
 40
0.7333333333333333
 40
0.7333333333333333
 40
0.7999999999999999
 40
0.7999999999999999
 40
0.7999999999999999
 40
0.7999999999999999
 40
0.8666666666666666
 40
0.8666666666666666
 40
0.8666666666666666
 40
0.8666666666666666
 40
0.9333333333333332
 40
0.9333333333333332
 40
0.9333333333333332
 40
0.9333333333333332
 40
1.0
 40
1.0
 40
1.0
 40
1.0
 10
0.82818
 20
4.3047300000000002
 30
0.0
 10
1.4250800000000001
 20
4.3860100000000006
 30
0.0
 10
2.0296000000000003
 20
4.2259900000000004
 30
0.0
 10
2.4614000000000003
 20
3.7713300000000003
 30
0.0
 10
2.4614000000000003
 20
3.7713300000000003
 30
0.0
 10
2.5299800000000001
 20
3.8068900000000001
 30
0.0
 10
2.3979000000000004
 20
3.8653100000000005
 30
0.0
 10
2.3928200000000004
 20
3.9211900000000002
 30
0.0
 10
2.3928200000000004
 20
3.9211900000000002
 30
0.0
 10
2.8805000000000001
 20
3.9618300000000004
 30
0.0
 10
3.1599000000000004
 20
3.4944700000000002
 30
0.0
 10
3.2640400000000001
 20
3.0956900000000003
 30
0.0
 10
3.2640400000000001
 20
3.0956900000000003
 30
0.0
 10
3.2538800000000001
 20
3.2226900000000001
 30
0.0
 10
3.2437200000000002
 20
3.3471500000000001
 30
0.0
 10
3.2056200000000001
 20
3.4716100000000001
 30
0.0
 10
3.2056200000000001
 20
3.4716100000000001
 30
0.0
 10
3.1903800000000002
 20
3.4843100000000002
 30
0.0
 10
3.1599000000000004
 20
3.5071700000000003
 30
0.0
 10
3.1700600000000003
 20
3.5376500000000002
 30
0.0
 10
3.1700600000000003
 20
3.5376500000000002
 30
0.0
 10
3.4520000000000004
 20
3.3801700000000001
 30
0.0
 10
3.3986600000000005
 20
3.0093300000000003
 30
0.0
 10
3.4240600000000003
 20
2.7172300000000003
 30
0.0
 10
3.4240600000000003
 20
2.7172300000000003
 30
0.0
 10
3.4139000000000004
 20
2.6588100000000003
 30
0.0
 10
3.4189800000000004
 20
2.6029300000000002
 30
0.0
 10
3.4240600000000003
 20
2.54705
 30
0.0
 10
3.4240600000000003
 20
2.54705
 30
0.0
 10
3.4266000000000001
 20
2.3641700000000001
 30
0.0
 10
3.3707200000000004
 20
2.1762100000000002
 30
0.0
 10
3.3453200000000001
 20
2.00603
 30
0.0
 10
3.3453200000000001
 20
2.00603
 30
0.0
 10
3.3097600000000003
 20
2.0746100000000003
 30
0.0
 10
3.2767400000000002
 20
2.1558900000000003
 30
0.0
 10
3.2538800000000001
 20
2.2371700000000003
 30
0.0
 10
3.2538800000000001
 20
2.2371700000000003
 30
0.0
 10
3.0862400000000001
 20
2.5597500000000002
 30
0.0
 10
2.9313000000000002
 20
2.8975700000000004
 30
0.0
 10
2.7077800000000001
 20
3.1896700000000004
 30
0.0
 10
2.7077800000000001
 20
3.1896700000000004
 30
0.0
 10
2.7077800000000001
 20
3.1896700000000004
 30
0.0
 10
1.6740000000000002
 20
3.4665300000000001
 30
0.0
 10
1.6740000000000002
 20
3.4665300000000001
 30
0.0
 10
1.6740000000000002
 20
3.4665300000000001
 30
0.0
 10
1.5368400000000002
 20
3.4106500000000004
 30
0.0
 10
1.6105
 20
3.1922100000000002
 30
0.0
 10
1.4098400000000002
 20
3.2455500000000002
 30
0.0
 10
1.4098400000000002
 20
3.2455500000000002
 30
0.0
 10
1.0745600000000002
 20
3.3852500000000001
 30
0.0
 10
0.7367400000000001
 20
3.7357700000000005
 30
0.0
 10
0.3887600000000001
 20
3.6925900000000005
 30
0.0
 10
0.3887600000000001
 20
3.6925900000000005
 30
0.0
 10
0.31764
 20
3.8551500000000005
 30
0.0
 10
0.24652
 20
4.0304100000000007
 30
0.0
 10
0.0865
 20
4.1015300000000003
 30
0.0
 10
0.0865
 20
4.1015300000000003
 30
0.0
 10
0.31256
 20
4.24885
 30
0.0
 10
0.59704
 20
4.2158300000000004
 30
0.0
 10
0.82818
 20
4.3047300000000002
 30
0.0
  0
SPLINE
  5
2D
100
AcDbEntity
  8
Ebene 1
 62
     7
100
AcDbSpline
210
0.0
220
0.0
230
1.0
 70
     1
 71
     3
 72
    24
 73
    20
 74
     0
 42
0.0000000001
 43
0.0000000001
 40
0.0
 40
0.0
 40
0.0
 40
0.0
 40
0.2
 40
0.2
 40
0.2
 40
0.2
 40
0.4
 40
0.4
 40
0.4
 40
0.4
 40
0.6000000000000001
 40
0.6000000000000001
 40
0.6000000000000001
 40
0.6000000000000001
 40
0.8
 40
0.8
 40
0.8
 40
0.8
 40
1.0
 40
1.0
 40
1.0
 40
1.0
 10
0.0738
 20
3.9186500000000004
 30
0.0
 10
0.23636
 20
3.8195900000000003
 30
0.0
 10
0.31002
 20
3.6290900000000001
 30
0.0
 10
0.33796
 20
3.4487500000000004
 30
0.0
 10
0.33796
 20
3.4487500000000004
 30
0.0
 10
0.4319400000000001
 20
3.3446100000000003
 30
0.0
 10
0.45988
 20
3.1922100000000002
 30
0.0
 10
0.47004
 20
3.0525100000000003
 30
0.0
 10
0.47004
 20
3.0525100000000003
 30
0.0
 10
0.37098
 20
3.0855300000000003
 30
0.0
 10
0.28208
 20
3.1210900000000001
 30
0.0
 10
0.18302
 20
3.1261700000000001
 30
0.0
 10
0.18302
 20
3.1261700000000001
 30
0.0
 10
0.15762
 20
3.2633300000000003
 30
0.0
 10
0.10682
 20
3.3725500000000004
 30
0.0
 10
-0.01001
 20
3.4614500000000001
 30
0.0
 10
-0.01001
 20
3.4614500000000001
 30
0.0
 10
-0.01001
 20
3.6138500000000002
 30
0.0
 10
0.01538
 20
3.7713300000000003
 30
0.0
 10
0.0738
 20
3.9186500000000004
 30
0.0
  0
SPLINE
  5
2E
100
AcDbEntity
  8
Ebene 1
 62
     7
100
AcDbSpline
210
0.0
220
0.0
230
1.0
 70
     1
 71
     3
 72
    84
 73
    80
 74
     0
 42
0.0000000001
 43
0.0000000001
 40
0.0
 40
0.0
 40
0.0
 40
0.0
 40
0.05
 40
0.05
 40
0.05
 40
0.05
 40
0.1
 40
0.1
 40
0.1
 40
0.1
 40
0.15
 40
0.15
 40
0.15
 40
0.15
 40
0.2
 40
0.2
 40
0.2
 40
0.2
 40
0.25
 40
0.25
 40
0.25
 40
0.25
 40
0.3
 40
0.3
 40
0.3
 40
0.3
 40
0.35
 40
0.35
 40
0.35
 40
0.35
 40
0.4
 40
0.4
 40
0.4
 40
0.4
 40
0.45
 40
0.45
 40
0.45
 40
0.45
 40
0.4999999999999999
 40
0.4999999999999999
 40
0.4999999999999999
 40
0.4999999999999999
 40
0.5499999999999999
 40
0.5499999999999999
 40
0.5499999999999999
 40
0.5499999999999999
 40
0.6
 40
0.6
 40
0.6
 40
0.6
 40
0.65
 40
0.65
 40
0.65
 40
0.65
 40
0.7000000000000001
 40
0.7000000000000001
 40
0.7000000000000001
 40
0.7000000000000001
 40
0.7500000000000001
 40
0.7500000000000001
 40
0.7500000000000001
 40
0.7500000000000001
 40
0.8000000000000002
 40
0.8000000000000002
 40
0.8000000000000002
 40
0.8000000000000002
 40
0.8500000000000002
 40
0.8500000000000002
 40
0.8500000000000002
 40
0.8500000000000002
 40
0.9000000000000002
 40
0.9000000000000002
 40
0.9000000000000002
 40
0.9000000000000002
 40
0.9500000000000003
 40
0.9500000000000003
 40
0.9500000000000003
 40
0.9500000000000003
 40
1.0
 40
1.0
 40
1.0
 40
1.0
 10
0.5233800000000001
 20
3.5909900000000001
 30
0.0
 10
0.9805800000000001
 20
3.5046300000000001
 30
0.0
 10
0.82564
 20
3.0271100000000004
 30
0.0
 10
0.9856600000000001
 20
2.6461100000000002
 30
0.0
 10
0.9856600000000001
 20
2.6461100000000002
 30
0.0
 10
1.0491600000000001
 20
2.8645500000000004
 30
0.0
 10
0.86882
 20
3.1566500000000004
 30
0.0
 10
0.9374000000000001
 20
3.3598500000000002
 30
0.0
 10
0.9374000000000001
 20
3.3598500000000002
 30
0.0
 10
1.2015600000000002
 20
3.2404700000000002
 30
0.0
 10
1.5876400000000002
 20
3.1490300000000002
 30
0.0
 10
1.4073000000000002
 20
2.7959700000000001
 30
0.0
 10
1.4073000000000002
 20
2.7959700000000001
 30
0.0
 10
1.3844400000000001
 20
2.7375500000000001
 30
0.0
 10
1.27776
 20
2.6715100000000001
 30
0.0
 10
1.2955400000000001
 20
2.6181700000000001
 30
0.0
 10
1.2955400000000001
 20
2.6181700000000001
 30
0.0
 10
1.3793600000000001
 20
2.63849
 30
0.0
 10
1.3717400000000002
 20
2.7350100000000004
 30
0.0
 10
1.4530200000000002
 20
2.75787
 30
0.0
 10
1.4530200000000002
 20
2.75787
 30
0.0
 10
1.4733400000000001
 20
3.01187
 30
0.0
 10
1.5622400000000001
 20
3.1312500000000001
 30
0.0
 10
1.7273400000000001
 20
3.3141300000000005
 30
0.0
 10
1.7273400000000001
 20
3.3141300000000005
 30
0.0
 10
1.9330800000000001
 20
3.2201500000000003
 30
0.0
 10
2.2226400000000002
 20
3.2861900000000004
 30
0.0
 10
2.2759800000000001
 20
2.9966300000000001
 30
0.0
 10
2.2759800000000001
 20
2.9966300000000001
 30
0.0
 10
2.0626200000000003
 20
3.0194900000000002
 30
0.0
 10
1.7171800000000002
 20
2.7807300000000001
 30
0.0
 10
1.8365600000000002
 20
2.55213
 30
0.0
 10
1.8365600000000002
 20
2.55213
 30
0.0
 10
1.9356200000000001
 20
2.6867500000000004
 30
0.0
 10
1.8924400000000001
 20
2.5419700000000001
 30
0.0
 10
1.9254600000000002
 20
2.4886300000000001
 30
0.0
 10
1.9254600000000002
 20
2.4886300000000001
 30
0.0
 10
2.0880200000000002
 20
2.71469
 30
0.0
 10
2.1515200000000001
 20
2.46577
 30
0.0
 10
2.1362800000000002
 20
2.3235300000000003
 30
0.0
 10
2.1362800000000002
 20
2.3235300000000003
 30
0.0
 10
2.3242400000000001
 20
2.2574900000000002
 30
0.0
 10
2.63666
 20
2.2397100000000001
 30
0.0
 10
2.7306400000000002
 20
1.9399900000000001
 30
0.0
 10
2.7306400000000002
 20
1.9399900000000001
 30
0.0
 10
2.6493600000000002
 20
1.7647300000000001
 30
0.0
 10
2.5045800000000003
 20
1.9628500000000002
 30
0.0
 10
2.41568
 20
1.8434700000000002
 30
0.0
 10
2.41568
 20
1.8434700000000002
 30
0.0
 10
2.3572600000000001
 20
1.86633
 30
0.0
 10
2.3547200000000004
 20
1.9069700000000001
 30
0.0
 10
2.3496400000000004
 20
1.9780900000000001
 30
0.0
 10
2.3496400000000004
 20
1.9780900000000001
 30
0.0
 10
2.2658200000000002
 20
1.9704700000000002
 30
0.0
 10
2.20486
 20
2.0212700000000003
 30
0.0
 10
2.1566000000000001
 20
1.9171300000000002
 30
0.0
 10
2.1566000000000001
 20
1.9171300000000002
 30
0.0
 10
1.9991200000000002
 20
2.1279500000000002
 30
0.0
 10
1.7044800000000002
 20
2.1050900000000001
 30
0.0
 10
1.4962000000000002
 20
2.25495
 30
0.0
 10
1.4962000000000002
 20
2.25495
 30
0.0
 10
1.4352400000000001
 20
2.3057500000000002
 30
0.0
 10
1.5444600000000002
 20
2.3311500000000001
 30
0.0
 10
1.5139800000000001
 20
2.3819500000000002
 30
0.0
 10
1.5139800000000001
 20
2.3819500000000002
 30
0.0
 10
1.23458
 20
2.51403
 30
0.0
 10
0.9907400000000001
 20
2.5775300000000003
 30
0.0
 10
0.6732400000000001
 20
2.6613500000000001
 30
0.0
 10
0.6732400000000001
 20
2.6613500000000001
 30
0.0
 10
0.68086
 20
2.7324700000000002
 30
0.0
 10
0.8154800000000001
 20
2.6588100000000003
 30
0.0
 10
0.8535800000000001
 20
2.7045300000000001
 30
0.0
 10
0.8535800000000001
 20
2.7045300000000001
 30
0.0
 10
0.85104
 20
2.7350100000000004
 30
0.0
 10
0.8485
 20
2.76295
 30
0.0
 10
0.8180200000000001
 20
2.7858100000000001
 30
0.0
 10
0.8180200000000001
 20
2.7858100000000001
 30
0.0
 10
0.5056000000000001
 20
2.8162900000000004
 30
0.0
 10
0.48782
 20
3.3623900000000004
 30
0.0
 10
0.5233800000000001
 20
3.5909900000000001
 30
0.0
  0
SPLINE
  5
2F
100
AcDbEntity
  8
Ebene 1
 62
     7
100
AcDbSpline
210
0.0
220
0.0
230
1.0
 70
     1
 71
     3
 72
    36
 73
    32
 74
     0
 42
0.0000000001
 43
0.0000000001
 40
0.0
 40
0.0
 40
0.0
 40
0.0
 40
0.125
 40
0.125
 40
0.125
 40
0.125
 40
0.25
 40
0.25
 40
0.25
 40
0.25
 40
0.375
 40
0.375
 40
0.375
 40
0.375
 40
0.5
 40
0.5
 40
0.5
 40
0.5
 40
0.625
 40
0.625
 40
0.625
 40
0.625
 40
0.75
 40
0.75
 40
0.75
 40
0.75
 40
0.875
 40
0.875
 40
0.875
 40
0.875
 40
1.0
 40
1.0
 40
1.0
 40
1.0
 10
2.2886800000000003
 20
3.1795100000000001
 30
0.0
 10
2.2886800000000003
 20
3.1795100000000001
 30
0.0
 10
2.6011000000000002
 20
3.1515700000000004
 30
0.0
 10
2.6011000000000002
 20
3.1515700000000004
 30
0.0
 10
2.6011000000000002
 20
3.1515700000000004
 30
0.0
 10
2.9084400000000001
 20
2.8137500000000002
 30
0.0
 10
3.0913200000000001
 20
2.33623
 30
0.0
 10
3.2513400000000003
 20
1.9425300000000001
 30
0.0
 10
3.2513400000000003
 20
1.9425300000000001
 30
0.0
 10
3.1675200000000001
 20
1.9501500000000001
 30
0.0
 10
3.1268800000000003
 20
1.9323700000000001
 30
0.0
 10
3.0659200000000002
 20
1.9831700000000001
 30
0.0
 10
3.0659200000000002
 20
1.9831700000000001
 30
0.0
 10
3.0252800000000004
 20
2.2752700000000003
 30
0.0
 10
2.8119200000000002
 20
2.4810100000000004
 30
0.0
 10
2.6112600000000001
 20
2.6740500000000003
 30
0.0
 10
2.6112600000000001
 20
2.6740500000000003
 30
0.0
 10
2.6112600000000001
 20
2.6740500000000003
 30
0.0
 10
2.6163400000000001
 20
2.7883500000000003
 30
0.0
 10
2.6163400000000001
 20
2.7883500000000003
 30
0.0
 10
2.6163400000000001
 20
2.7883500000000003
 30
0.0
 10
2.54522
 20
2.8086700000000002
 30
0.0
 10
2.5096600000000002
 20
2.8772500000000001
 30
0.0
 10
2.4766400000000002
 20
2.9432900000000002
 30
0.0
 10
2.4766400000000002
 20
2.9432900000000002
 30
0.0
 10
2.4766400000000002
 20
2.9432900000000002
 30
0.0
 10
2.3369400000000002
 20
2.9458300000000004
 30
0.0
 10
2.3369400000000002
 20
2.9458300000000004
 30
0.0
 10
2.3369400000000002
 20
2.9458300000000004
 30
0.0
 10
2.3140800000000001
 20
3.0296500000000002
 30
0.0
 10
2.2658200000000002
 20
3.1083900000000004
 30
0.0
 10
2.2886800000000003
 20
3.1795100000000001
 30
0.0
  0
SPLINE
  5
30
100
AcDbEntity
  8
Ebene 1
100
AcDbSpline
210
0.0
220
0.0
230
1.0
 70
     1
 71
     3
 72
    40
 73
    36
 74
     0
 42
0.0000000001
 43
0.0000000001
 40
0.0
 40
0.0
 40
0.0
 40
0.0
 40
0.1111111111111111
 40
0.1111111111111111
 40
0.1111111111111111
 40
0.1111111111111111
 40
0.2222222222222222
 40
0.2222222222222222
 40
0.2222222222222222
 40
0.2222222222222222
 40
0.3333333333333333
 40
0.3333333333333333
 40
0.3333333333333333
 40
0.3333333333333333
 40
0.4444444444444444
 40
0.4444444444444444
 40
0.4444444444444444
 40
0.4444444444444444
 40
0.5555555555555556
 40
0.5555555555555556
 40
0.5555555555555556
 40
0.5555555555555556
 40
0.6666666666666667
 40
0.6666666666666667
 40
0.6666666666666667
 40
0.6666666666666667
 40
0.7777777777777779
 40
0.7777777777777779
 40
0.7777777777777779
 40
0.7777777777777779
 40
0.8888888888888891
 40
0.8888888888888891
 40
0.8888888888888891
 40
0.8888888888888891
 40
1.0
 40
1.0
 40
1.0
 40
1.0
 10
1.9076800000000003
 20
3.0220300000000004
 30
0.0
 10
1.9229200000000002
 20
3.0220300000000004
 30
0.0
 10
1.9483200000000001
 20
3.0398100000000001
 30
0.0
 10
1.9508600000000003
 20
3.01187
 30
0.0
 10
1.9508600000000003
 20
3.01187
 30
0.0
 10
1.9508600000000003
 20
3.01187
 30
0.0
 10
1.6105
 20
2.4048100000000003
 30
0.0
 10
1.6105
 20
2.4048100000000003
 30
0.0
 10
1.6105
 20
2.4048100000000003
 30
0.0
 10
1.6105
 20
2.4048100000000003
 30
0.0
 10
1.6206600000000002
 20
2.6029300000000002
 30
0.0
 10
1.6206600000000002
 20
2.6029300000000002
 30
0.0
 10
1.6206600000000002
 20
2.6029300000000002
 30
0.0
 10
1.5774800000000002
 20
2.5978500000000002
 30
0.0
 10
1.5520800000000001
 20
2.5699100000000001
 30
0.0
 10
1.5343000000000002
 20
2.6105500000000004
 30
0.0
 10
1.5343000000000002
 20
2.6105500000000004
 30
0.0
 10
1.5343000000000002
 20
2.6105500000000004
 30
0.0
 10
1.4682600000000001
 20
2.5622900000000004
 30
0.0
 10
1.4682600000000001
 20
2.5622900000000004
 30
0.0
 10
1.4682600000000001
 20
2.5622900000000004
 30
0.0
 10
1.5114400000000001
 20
2.7070700000000003
 30
0.0
 10
1.5952600000000001
 20
2.8950300000000002
 30
0.0
 10
1.7273400000000001
 20
2.9915500000000002
 30
0.0
 10
1.7273400000000001
 20
2.9915500000000002
 30
0.0
 10
1.7273400000000001
 20
2.9915500000000002
 30
0.0
 10
1.7730600000000001
 20
2.9534500000000001
 30
0.0
 10
1.7730600000000001
 20
2.9534500000000001
 30
0.0
 10
1.7730600000000001
 20
2.9534500000000001
 30
0.0
 10
1.7984600000000002
 20
2.9839300000000004
 30
0.0
 10
1.8264000000000002
 20
2.9864700000000002
 30
0.0
 10
1.8568800000000001
 20
2.9763100000000002
 30
0.0
 10
1.8568800000000001
 20
2.9763100000000002
 30
0.0
 10
1.8568800000000001
 20
2.9763100000000002
 30
0.0
 10
1.9076800000000003
 20
3.0220300000000004
 30
0.0
 10
1.9076800000000003
 20
3.0220300000000004
 30
0.0
  0
SPLINE
  5
31
100
AcDbEntity
  8
Ebene 1
 62
     7
100
AcDbSpline
210
0.0
220
0.0
230
1.0
 70
     1
 71
     3
 72
    92
 73
    88
 74
     0
 42
0.0000000001
 43
0.0000000001
 40
0.0
 40
0.0
 40
0.0
 40
0.0
 40
0.0454545454545455
 40
0.0454545454545455
 40
0.0454545454545455
 40
0.0454545454545455
 40
0.0909090909090909
 40
0.0909090909090909
 40
0.0909090909090909
 40
0.0909090909090909
 40
0.1363636363636364
 40
0.1363636363636364
 40
0.1363636363636364
 40
0.1363636363636364
 40
0.1818181818181818
 40
0.1818181818181818
 40
0.1818181818181818
 40
0.1818181818181818
 40
0.2272727272727273
 40
0.2272727272727273
 40
0.2272727272727273
 40
0.2272727272727273
 40
0.2727272727272728
 40
0.2727272727272728
 40
0.2727272727272728
 40
0.2727272727272728
 40
0.3181818181818182
 40
0.3181818181818182
 40
0.3181818181818182
 40
0.3181818181818182
 40
0.3636363636363637
 40
0.3636363636363637
 40
0.3636363636363637
 40
0.3636363636363637
 40
0.4090909090909092
 40
0.4090909090909092
 40
0.4090909090909092
 40
0.4090909090909092
 40
0.4545454545454546
 40
0.4545454545454546
 40
0.4545454545454546
 40
0.4545454545454546
 40
0.5000000000000001
 40
0.5000000000000001
 40
0.5000000000000001
 40
0.5000000000000001
 40
0.5454545454545455
 40
0.5454545454545455
 40
0.5454545454545455
 40
0.5454545454545455
 40
0.5909090909090909
 40
0.5909090909090909
 40
0.5909090909090909
 40
0.5909090909090909
 40
0.6363636363636364
 40
0.6363636363636364
 40
0.6363636363636364
 40
0.6363636363636364
 40
0.6818181818181818
 40
0.6818181818181818
 40
0.6818181818181818
 40
0.6818181818181818
 40
0.7272727272727272
 40
0.7272727272727272
 40
0.7272727272727272
 40
0.7272727272727272
 40
0.7727272727272726
 40
0.7727272727272726
 40
0.7727272727272726
 40
0.7727272727272726
 40
0.818181818181818
 40
0.818181818181818
 40
0.818181818181818
 40
0.818181818181818
 40
0.8636363636363634
 40
0.8636363636363634
 40
0.8636363636363634
 40
0.8636363636363634
 40
0.9090909090909088
 40
0.9090909090909088
 40
0.9090909090909088
 40
0.9090909090909088
 40
0.9545454545454543
 40
0.9545454545454543
 40
0.9545454545454543
 40
0.9545454545454543
 40
1.0
 40
1.0
 40
1.0
 40
1.0
 10
-0.92949
 20
2.7070700000000003
 30
0.0
 10
-0.8405900000000001
 20
2.4759300000000004
 30
0.0
 10
-0.86599
 20
2.1228700000000003
 30
0.0
 10
-0.76185
 20
1.8790300000000002
 30
0.0
 10
-0.76185
 20
1.8790300000000002
 30
0.0
 10
-0.36053
 20
1.8129900000000001
 30
0.0
 10
0.02808
 20
1.8206100000000001
 30
0.0
 10
0.26684
 20
2.16351
 30
0.0
 10
0.26684
 20
2.16351
 30
0.0
 10
0.3887600000000001
 20
1.5564500000000001
 30
0.0
 10
1.2193400000000001
 20
1.8790300000000002
 30
0.0
 10
1.6740000000000002
 20
1.6656700000000002
 30
0.0
 10
1.6740000000000002
 20
1.6656700000000002
 30
0.0
 10
1.6740000000000002
 20
1.6656700000000002
 30
0.0
 10
1.8848200000000002
 20
1.8104500000000001
 30
0.0
 10
1.8848200000000002
 20
1.8104500000000001
 30
0.0
 10
1.8848200000000002
 20
1.8104500000000001
 30
0.0
 10
2.0423
 20
1.4599300000000002
 30
0.0
 10
2.5299800000000001
 20
1.5158100000000001
 30
0.0
 10
2.8347800000000003
 20
1.3862700000000001
 30
0.0
 10
2.8347800000000003
 20
1.3862700000000001
 30
0.0
 10
2.9211400000000003
 20
1.5208900000000001
 30
0.0
 10
2.9033600000000002
 20
1.7291700000000001
 30
0.0
 10
3.0506800000000003
 20
1.8409300000000002
 30
0.0
 10
3.0506800000000003
 20
1.8409300000000002
 30
0.0
 10
3.0506800000000003
 20
1.8409300000000002
 30
0.0
 10
2.8957400000000004
 20
1.32023
 30
0.0
 10
2.8957400000000004
 20
1.32023
 30
0.0
 10
2.8957400000000004
 20
1.32023
 30
0.0
 10
2.6061800000000002
 20
1.2821300000000002
 30
0.0
 10
2.12866
 20
1.4370700000000001
 30
0.0
 10
1.9991200000000002
 20
1.4700900000000001
 30
0.0
 10
1.9991200000000002
 20
1.4700900000000001
 30
0.0
 10
1.9991200000000002
 20
1.4700900000000001
 30
0.0
 10
1.8594200000000001
 20
1.4726300000000001
 30
0.0
 10
1.8594200000000001
 20
1.4726300000000001
 30
0.0
 10
1.8594200000000001
 20
1.4726300000000001
 30
0.0
 10
1.9635600000000002
 20
1.8866500000000002
 30
0.0
 10
1.6105
 20
1.40659
 30
0.0
 10
1.8213200000000001
 20
1.2567300000000001
 30
0.0
 10
1.8213200000000001
 20
1.2567300000000001
 30
0.0
 10
2.1007200000000004
 20
1.2668900000000001
 30
0.0
 10
2.4842600000000004
 20
0.7385700000000001
 30
0.0
 10
2.7509600000000001
 20
1.0560700000000001
 30
0.0
 10
2.7509600000000001
 20
1.0560700000000001
 30
0.0
 10
2.8043
 20
0.9214500000000001
 30
0.0
 10
2.8906600000000005
 20
0.7588900000000001
 30
0.0
 10
3.0354400000000004
 20
0.70047
 30
0.0
 10
3.0354400000000004
 20
0.70047
 30
0.0
 10
3.0354400000000004
 20
0.70047
 30
0.0
 10
3.5485200000000003
 20
0.4642500000000001
 30
0.0
 10
3.5485200000000003
 20
0.4642500000000001
 30
0.0
 10
3.5485200000000003
 20
0.4642500000000001
 30
0.0
 10
1.23712
 20
1.19323
 30
0.0
 10
-1.3231900000000001
 20
1.5640700000000001
 30
0.0
 10
-3.7971500000000002
 20
1.11195
 30
0.0
 10
-3.7971500000000002
 20
1.11195
 30
0.0
 10
-3.7971500000000002
 20
1.11195
 30
0.0
 10
-3.8047700000000004
 20
1.2084700000000002
 30
0.0
 10
-3.8047700000000004
 20
1.2084700000000002
 30
0.0
 10
-3.8047700000000004
 20
1.2084700000000002
 30
0.0
 10
-3.5507700000000004
 20
1.1602100000000002
 30
0.0
 10
-3.5914100000000002
 20
1.4802500000000001
 30
0.0
 10
-3.3475700000000002
 20
1.5564500000000001
 30
0.0
 10
-3.3475700000000002
 20
1.5564500000000001
 30
0.0
 10
-3.2383500000000001
 20
1.39897
 30
0.0
 10
-2.9259300000000001
 20
1.22879
 30
0.0
 10
-2.8827500000000001
 20
1.5564500000000001
 30
0.0
 10
-2.8827500000000001
 20
1.5564500000000001
 30
0.0
 10
-2.8040100000000003
 20
2.1101700000000001
 30
0.0
 10
-3.2434300000000005
 20
1.6097900000000001
 30
0.0
 10
-3.5329900000000003
 20
1.6250300000000002
 30
0.0
 10
-3.5329900000000003
 20
1.6250300000000002
 30
0.0
 10
-3.6015700000000002
 20
1.5488300000000002
 30
0.0
 10
-3.7361900000000001
 20
1.5945500000000001
 30
0.0
 10
-3.8022300000000002
 20
1.6580500000000002
 30
0.0
 10
-3.8022300000000002
 20
1.6580500000000002
 30
0.0
 10
-3.4009100000000001
 20
1.6097900000000001
 30
0.0
 10
-3.1697700000000002
 20
1.9095100000000003
 30
0.0
 10
-2.8979900000000001
 20
2.2270100000000004
 30
0.0
 10
-2.8979900000000001
 20
2.2270100000000004
 30
0.0
 10
-2.6592300000000004
 20
1.57423
 30
0.0
 10
-1.9124700000000001
 20
1.8637900000000001
 30
0.0
 10
-1.3663700000000001
 20
1.8815700000000002
 30
0.0
 10
-1.3663700000000001
 20
1.8815700000000002
 30
0.0
 10
-1.1784100000000002
 20
2.1660500000000003
 30
0.0
 10
-1.0717300000000001
 20
2.3997300000000004
 30
0.0
 10
-0.92949
 20
2.7070700000000003
 30
0.0
  0
SPLINE
  5
32
100
AcDbEntity
  8
Ebene 1
100
AcDbSpline
210
0.0
220
0.0
230
1.0
 70
     1
 71
     3
 72
    60
 73
    56
 74
     0
 42
0.0000000001
 43
0.0000000001
 40
0.0
 40
0.0
 40
0.0
 40
0.0
 40
0.0714285714285714
 40
0.0714285714285714
 40
0.0714285714285714
 40
0.0714285714285714
 40
0.1428571428571429
 40
0.1428571428571429
 40
0.1428571428571429
 40
0.1428571428571429
 40
0.2142857142857143
 40
0.2142857142857143
 40
0.2142857142857143
 40
0.2142857142857143
 40
0.2857142857142857
 40
0.2857142857142857
 40
0.2857142857142857
 40
0.2857142857142857
 40
0.3571428571428571
 40
0.3571428571428571
 40
0.3571428571428571
 40
0.3571428571428571
 40
0.4285714285714285
 40
0.4285714285714285
 40
0.4285714285714285
 40
0.4285714285714285
 40
0.4999999999999999
 40
0.4999999999999999
 40
0.4999999999999999
 40
0.4999999999999999
 40
0.5714285714285713
 40
0.5714285714285713
 40
0.5714285714285713
 40
0.5714285714285713
 40
0.6428571428571427
 40
0.6428571428571427
 40
0.6428571428571427
 40
0.6428571428571427
 40
0.7142857142857141
 40
0.7142857142857141
 40
0.7142857142857141
 40
0.7142857142857141
 40
0.7857142857142855
 40
0.7857142857142855
 40
0.7857142857142855
 40
0.7857142857142855
 40
0.8571428571428569
 40
0.8571428571428569
 40
0.8571428571428569
 40
0.8571428571428569
 40
0.9285714285714283
 40
0.9285714285714283
 40
0.9285714285714283
 40
0.9285714285714283
 40
1.0
 40
1.0
 40
1.0
 40
1.0
 10
-1.00315
 20
2.4048100000000003
 30
0.0
 10
-0.8964700000000001
 20
2.1609700000000003
 30
0.0
 10
-0.8990100000000001
 20
1.8536300000000001
 30
0.0
 10
-0.9472700000000001
 20
1.6097900000000001
 30
0.0
 10
-0.9472700000000001
 20
1.6097900000000001
 30
0.0
 10
-0.9040900000000001
 20
1.57169
 30
0.0
 10
-0.8786900000000001
 20
1.6275700000000002
 30
0.0
 10
-0.8532900000000001
 20
1.6580500000000002
 30
0.0
 10
-0.8532900000000001
 20
1.6580500000000002
 30
0.0
 10
-0.8431300000000001
 20
2.0263500000000003
 30
0.0
 10
0.2008
 20
1.6377300000000001
 30
0.0
 10
-0.34783
 20
1.6478900000000001
 30
0.0
 10
-0.34783
 20
1.6478900000000001
 30
0.0
 10
-0.3021100000000001
 20
1.6072500000000001
 30
0.0
 10
-0.30973
 20
1.5386700000000002
 30
0.0
 10
-0.37323
 20
1.44723
 30
0.0
 10
-0.37323
 20
1.44723
 30
0.0
 10
-0.37323
 20
1.44723
 30
0.0
 10
1.0059800000000001
 20
1.2440300000000002
 30
0.0
 10
1.0059800000000001
 20
1.2440300000000002
 30
0.0
 10
1.0059800000000001
 20
1.2440300000000002
 30
0.0
 10
1.4327000000000001
 20
1.19577
 30
0.0
 10
1.9153000000000002
 20
1.1373500000000001
 30
0.0
 10
2.2836000000000003
 20
0.9316100000000001
 30
0.0
 10
2.2836000000000003
 20
0.9316100000000001
 30
0.0
 10
0.9069200000000001
 20
1.2491100000000002
 30
0.0
 10
-0.5027700000000001
 20
1.4929500000000002
 30
0.0
 10
-1.9378700000000002
 20
1.3557900000000001
 30
0.0
 10
-1.9378700000000002
 20
1.3557900000000001
 30
0.0
 10
-2.0496300000000001
 20
1.48533
 30
0.0
 10
-1.8210300000000001
 20
1.4624700000000002
 30
0.0
 10
-1.8007100000000003
 20
1.5488300000000002
 30
0.0
 10
-1.8007100000000003
 20
1.5488300000000002
 30
0.0
 10
-1.5746500000000001
 20
1.7088500000000002
 30
0.0
 10
-2.0750300000000004
 20
1.6529700000000001
 30
0.0
 10
-2.1740900000000001
 20
1.6428100000000001
 30
0.0
 10
-2.1740900000000001
 20
1.6428100000000001
 30
0.0
 10
-2.1740900000000001
 20
1.6428100000000001
 30
0.0
 10
-2.0902700000000003
 20
1.6656700000000002
 30
0.0
 10
-2.0902700000000003
 20
1.6656700000000002
 30
0.0
 10
-2.0902700000000003
 20
1.6656700000000002
 30
0.0
 10
-2.0420100000000003
 20
1.7266300000000001
 30
0.0
 10
-2.15123
 20
1.6885300000000001
 30
0.0
 10
-2.1664700000000003
 20
1.7164700000000002
 30
0.0
 10
-2.1664700000000003
 20
1.7164700000000002
 30
0.0
 10
-2.1664700000000003
 20
1.7164700000000002
 30
0.0
 10
-1.37399
 20
1.8129900000000001
 30
0.0
 10
-1.37399
 20
1.8129900000000001
 30
0.0
 10
-1.37399
 20
1.8129900000000001
 30
0.0
 10
-1.0641100000000001
 20
2.1330300000000002
 30
0.0
 10
-1.1911100000000001
 20
1.32023
 30
0.0
 10
-0.99299
 20
1.6478900000000001
 30
0.0
 10
-0.99299
 20
1.6478900000000001
 30
0.0
 10
-0.99299
 20
1.6478900000000001
 30
0.0
 10
-1.00315
 20
2.4048100000000003
 30
0.0
 10
-1.00315
 20
2.4048100000000003
 30
0.0
  0
SPLINE
  5
33
100
AcDbEntity
  8
Ebene 1
 62
     7
100
AcDbSpline
210
0.0
220
0.0
230
1.0
 70
     1
 71
     3
 72
    12
 73
     8
 74
     0
 42
0.0000000001
 43
0.0000000001
 40
0.0
 40
0.0
 40
0.0
 40
0.0
 40
0.5
 40
0.5
 40
0.5
 40
0.5
 40
1.0
 40
1.0
 40
1.0
 40
1.0
 10
1.8416400000000002
 20
1.9882500000000001
 30
0.0
 10
1.8822800000000002
 20
2.00603
 30
0.0
 10
1.9457800000000001
 20
1.9425300000000001
 30
0.0
 10
1.9051400000000001
 20
1.9095100000000003
 30
0.0
 10
1.9051400000000001
 20
1.9095100000000003
 30
0.0
 10
1.8619600000000001
 20
1.9069700000000001
 30
0.0
 10
1.8035400000000001
 20
1.9450700000000001
 30
0.0
 10
1.8416400000000002
 20
1.9882500000000001
 30
0.0
  0
SPLINE
  5
34
100
AcDbEntity
  8
Ebene 1
 62
     7
100
AcDbSpline
210
0.0
220
0.0
230
1.0
 70
     1
 71
     3
 72
    28
 73
    24
 74
     0
 42
0.0000000001
 43
0.0000000001
 40
0.0
 40
0.0
 40
0.0
 40
0.0
 40
0.1666666666666667
 40
0.1666666666666667
 40
0.1666666666666667
 40
0.1666666666666667
 40
0.3333333333333333
 40
0.3333333333333333
 40
0.3333333333333333
 40
0.3333333333333333
 40
0.5
 40
0.5
 40
0.5
 40
0.5
 40
0.6666666666666666
 40
0.6666666666666666
 40
0.6666666666666666
 40
0.6666666666666666
 40
0.8333333333333333
 40
0.8333333333333333
 40
0.8333333333333333
 40
0.8333333333333333
 40
1.0
 40
1.0
 40
1.0
 40
1.0
 10
-2.82179
 20
1.1805300000000001
 30
0.0
 10
-2.0826500000000001
 20
1.23133
 30
0.0
 10
-1.3435100000000002
 20
1.2948300000000001
 30
0.0
 10
-0.6196100000000001
 20
1.2160900000000001
 30
0.0
 10
-0.6196100000000001
 20
1.2160900000000001
 30
0.0
 10
-0.6196100000000001
 20
1.2160900000000001
 30
0.0
 10
0.48528
 20
1.0865500000000001
 30
0.0
 10
0.48528
 20
1.0865500000000001
 30
0.0
 10
0.48528
 20
1.0865500000000001
 30
0.0
 10
0.74182
 20
1.06623
 30
0.0
 10
1.0110600000000001
 20
1.01797
 30
0.0
 10
1.2574400000000001
 20
0.95447
 30
0.0
 10
1.2574400000000001
 20
0.95447
 30
0.0
 10
-0.19797
 20
1.0535300000000001
 30
0.0
 10
-1.7422900000000001
 20
1.35833
 30
0.0
 10
-3.2485100000000005
 20
1.0459100000000001
 30
0.0
 10
-3.2485100000000005
 20
1.0459100000000001
 30
0.0
 10
-3.2485100000000005
 20
1.0459100000000001
 30
0.0
 10
-3.4999700000000002
 20
1.0509900000000001
 30
0.0
 10
-3.4999700000000002
 20
1.0509900000000001
 30
0.0
 10
-3.4999700000000002
 20
1.0509900000000001
 30
0.0
 10
-3.4999700000000002
 20
1.0509900000000001
 30
0.0
 10
-2.82179
 20
1.1805300000000001
 30
0.0
 10
-2.82179
 20
1.1805300000000001
 30
0.0
  0
SPLINE
  5
35
100
AcDbEntity
  8
Ebene 1
 62
     7
100
AcDbSpline
210
0.0
220
0.0
230
1.0
 70
     1
 71
     3
 72
   180
 73
   176
 74
     0
 42
0.0000000001
 43
0.0000000001
 40
0.0
 40
0.0
 40
0.0
 40
0.0
 40
0.0227272727272727
 40
0.0227272727272727
 40
0.0227272727272727
 40
0.0227272727272727
 40
0.0454545454545455
 40
0.0454545454545455
 40
0.0454545454545455
 40
0.0454545454545455
 40
0.0681818181818182
 40
0.0681818181818182
 40
0.0681818181818182
 40
0.0681818181818182
 40
0.0909090909090909
 40
0.0909090909090909
 40
0.0909090909090909
 40
0.0909090909090909
 40
0.1136363636363637
 40
0.1136363636363637
 40
0.1136363636363637
 40
0.1136363636363637
 40
0.1363636363636364
 40
0.1363636363636364
 40
0.1363636363636364
 40
0.1363636363636364
 40
0.1590909090909091
 40
0.1590909090909091
 40
0.1590909090909091
 40
0.1590909090909091
 40
0.1818181818181819
 40
0.1818181818181819
 40
0.1818181818181819
 40
0.1818181818181819
 40
0.2045454545454546
 40
0.2045454545454546
 40
0.2045454545454546
 40
0.2045454545454546
 40
0.2272727272727273
 40
0.2272727272727273
 40
0.2272727272727273
 40
0.2272727272727273
 40
0.2500000000000001
 40
0.2500000000000001
 40
0.2500000000000001
 40
0.2500000000000001
 40
0.2727272727272728
 40
0.2727272727272728
 40
0.2727272727272728
 40
0.2727272727272728
 40
0.2954545454545455
 40
0.2954545454545455
 40
0.2954545454545455
 40
0.2954545454545455
 40
0.3181818181818182
 40
0.3181818181818182
 40
0.3181818181818182
 40
0.3181818181818182
 40
0.3409090909090909
 40
0.3409090909090909
 40
0.3409090909090909
 40
0.3409090909090909
 40
0.3636363636363636
 40
0.3636363636363636
 40
0.3636363636363636
 40
0.3636363636363636
 40
0.3863636363636363
 40
0.3863636363636363
 40
0.3863636363636363
 40
0.3863636363636363
 40
0.409090909090909
 40
0.409090909090909
 40
0.409090909090909
 40
0.409090909090909
 40
0.4318181818181817
 40
0.4318181818181817
 40
0.4318181818181817
 40
0.4318181818181817
 40
0.4545454545454544
 40
0.4545454545454544
 40
0.4545454545454544
 40
0.4545454545454544
 40
0.4772727272727271
 40
0.4772727272727271
 40
0.4772727272727271
 40
0.4772727272727271
 40
0.4999999999999998
 40
0.4999999999999998
 40
0.4999999999999998
 40
0.4999999999999998
 40
0.5227272727272726
 40
0.5227272727272726
 40
0.5227272727272726
 40
0.5227272727272726
 40
0.5454545454545453
 40
0.5454545454545453
 40
0.5454545454545453
 40
0.5454545454545453
 40
0.568181818181818
 40
0.568181818181818
 40
0.568181818181818
 40
0.568181818181818
 40
0.5909090909090907
 40
0.5909090909090907
 40
0.5909090909090907
 40
0.5909090909090907
 40
0.6136363636363634
 40
0.6136363636363634
 40
0.6136363636363634
 40
0.6136363636363634
 40
0.6363636363636361
 40
0.6363636363636361
 40
0.6363636363636361
 40
0.6363636363636361
 40
0.6590909090909088
 40
0.6590909090909088
 40
0.6590909090909088
 40
0.6590909090909088
 40
0.6818181818181816
 40
0.6818181818181816
 40
0.6818181818181816
 40
0.6818181818181816
 40
0.7045454545454543
 40
0.7045454545454543
 40
0.7045454545454543
 40
0.7045454545454543
 40
0.727272727272727
 40
0.727272727272727
 40
0.727272727272727
 40
0.727272727272727
 40
0.7499999999999997
 40
0.7499999999999997
 40
0.7499999999999997
 40
0.7499999999999997
 40
0.7727272727272724
 40
0.7727272727272724
 40
0.7727272727272724
 40
0.7727272727272724
 40
0.7954545454545451
 40
0.7954545454545451
 40
0.7954545454545451
 40
0.7954545454545451
 40
0.8181818181818178
 40
0.8181818181818178
 40
0.8181818181818178
 40
0.8181818181818178
 40
0.8409090909090905
 40
0.8409090909090905
 40
0.8409090909090905
 40
0.8409090909090905
 40
0.8636363636363632
 40
0.8636363636363632
 40
0.8636363636363632
 40
0.8636363636363632
 40
0.8863636363636359
 40
0.8863636363636359
 40
0.8863636363636359
 40
0.8863636363636359
 40
0.9090909090909086
 40
0.9090909090909086
 40
0.9090909090909086
 40
0.9090909090909086
 40
0.9318181818181813
 40
0.9318181818181813
 40
0.9318181818181813
 40
0.9318181818181813
 40
0.954545454545454
 40
0.954545454545454
 40
0.954545454545454
 40
0.954545454545454
 40
0.9772727272727267
 40
0.9772727272727267
 40
0.9772727272727267
 40
0.9772727272727267
 40
1.0
 40
1.0
 40
1.0
 40
1.0
 10
-2.4738100000000003
 20
-1.3467600000000002
 30
0.0
 10
-2.4585700000000004
 20
-1.3594600000000001
 30
0.0
 10
-2.5703300000000002
 20
-1.5347200000000001
 30
0.0
 10
-2.57287
 20
-1.5499600000000002
 30
0.0
 10
-2.57287
 20
-1.5499600000000002
 30
0.0
 10
-2.6236700000000002
 20
-1.4712200000000002
 30
0.0
 10
-2.6363700000000003
 20
-1.33152
 30
0.0
 10
-2.7379700000000002
 20
-1.2832600000000001
 30
0.0
 10
-2.7379700000000002
 20
-1.2832600000000001
 30
0.0
 10
-2.4153900000000004
 20
-1.1156200000000001
 30
0.0
 10
-2.7532100000000002
 20
-0.9327400000000001
 30
0.0
 10
-2.8090900000000003
 20
-1.2756400000000001
 30
0.0
 10
-2.8090900000000003
 20
-1.2756400000000001
 30
0.0
 10
-3.0275300000000001
 20
-1.16896
 30
0.0
 10
-3.2967700000000004
 20
-1.2756400000000001
 30
0.0
 10
-3.4948900000000003
 20
-1.0953000000000002
 30
0.0
 10
-3.4948900000000003
 20
-1.0953000000000002
 30
0.0
 10
-3.2688300000000003
 20
-0.4577600000000001
 30
0.0
 10
-3.4491700000000001
 20
0.25597
 30
0.0
 10
-3.2891500000000002
 20
0.9163700000000001
 30
0.0
 10
-3.2891500000000002
 20
0.9163700000000001
 30
0.0
 10
-2.3696700000000002
 20
1.1348100000000001
 30
0.0
 10
-1.6686300000000001
 20
1.0001900000000001
 30
0.0
 10
-0.72375
 20
0.95447
 30
0.0
 10
-0.72375
 20
0.95447
 30
0.0
 10
-0.82281
 20
0.8046100000000001
 30
0.0
 10
-1.1504700000000001
 20
0.8452500000000001
 30
0.0
 10
-1.1504700000000001
 20
0.70555
 30
0.0
 10
-1.1504700000000001
 20
0.70555
 30
0.0
 10
-0.91171
 20
0.68523
 30
0.0
 10
-0.7110500000000001
 20
0.8147700000000001
 30
0.0
 10
-0.52817
 20
0.9849500000000001
 30
0.0
 10
-0.52817
 20
0.9849500000000001
 30
0.0
 10
-0.47483
 20
0.9900300000000001
 30
0.0
 10
-0.4164100000000001
 20
0.9798700000000001
 30
0.0
 10
-0.36053
 20
0.9697100000000001
 30
0.0
 10
-0.36053
 20
0.9697100000000001
 30
0.0
 10
-0.20051
 20
0.9265300000000001
 30
0.0
 10
-0.4926100000000001
 20
0.9036700000000001
 30
0.0
 10
-0.5002300000000001
 20
0.8046100000000001
 30
0.0
 10
-0.5002300000000001
 20
0.8046100000000001
 30
0.0
 10
0.20588
 20
1.0763900000000002
 30
0.0
 10
1.02122
 20
0.9062100000000001
 30
0.0
 10
1.7121000000000002
 20
0.7131700000000001
 30
0.0
 10
1.7121000000000002
 20
0.7131700000000001
 30
0.0
 10
1.7324200000000001
 20
0.65983
 30
0.0
 10
1.7654400000000001
 20
0.57855
 30
0.0
 10
1.7552800000000002
 20
0.53537
 30
0.0
 10
1.7552800000000002
 20
0.53537
 30
0.0
 10
1.6841600000000001
 20
0.55569
 30
0.0
 10
1.7019400000000002
 20
0.6699900000000001
 30
0.0
 10
1.6308200000000002
 20
0.6776100000000001
 30
0.0
 10
1.6308200000000002
 20
0.6776100000000001
 30
0.0
 10
1.7933800000000002
 20
0.25089
 30
0.0
 10
1.9127600000000002
 20
-0.27234
 30
0.0
 10
1.7019400000000002
 20
-0.63556
 30
0.0
 10
1.7019400000000002
 20
-0.63556
 30
0.0
 10
1.7070200000000002
 20
-0.3536200000000001
 30
0.0
 10
1.7730600000000001
 20
0.01467
 30
0.0
 10
1.4911200000000002
 20
0.17469
 30
0.0
 10
1.4911200000000002
 20
0.17469
 30
0.0
 10
1.8340200000000002
 20
-0.21646
 30
0.0
 10
1.1761600000000001
 20
-0.8768600000000001
 30
0.0
 10
1.7298800000000001
 20
-1.1384800000000002
 30
0.0
 10
1.7298800000000001
 20
-1.1384800000000002
 30
0.0
 10
1.7197200000000001
 20
-1.0114800000000002
 30
0.0
 10
1.7375
 20
-0.88448
 30
0.0
 10
1.7527400000000002
 20
-0.74224
 30
0.0
 10
1.7527400000000002
 20
-0.74224
 30
0.0
 10
1.7476600000000002
 20
-0.67366
 30
0.0
 10
1.7832200000000002
 20
-0.6000000000000001
 30
0.0
 10
1.8213200000000001
 20
-0.55428
 30
0.0
 10
1.8213200000000001
 20
-0.55428
 30
0.0
 10
1.8594200000000001
 20
-1.00132
 30
0.0
 10
1.6892400000000001
 20
-1.4636
 30
0.0
 10
1.4225400000000001
 20
-1.8115800000000002
 30
0.0
 10
1.4225400000000001
 20
-1.8115800000000002
 30
0.0
 10
1.0796400000000002
 20
-1.7277600000000002
 30
0.0
 10
0.7138800000000001
 20
-1.3950200000000001
 30
0.0
 10
0.3455800000000001
 20
-1.5372600000000001
 30
0.0
 10
0.3455800000000001
 20
-1.5372600000000001
 30
0.0
 10
0.32272
 20
-1.7506200000000001
 30
0.0
 10
1.0364600000000002
 20
-1.7328400000000002
 30
0.0
 10
0.6834
 20
-1.8598400000000002
 30
0.0
 10
0.6834
 20
-1.8598400000000002
 30
0.0
 10
0.6935600000000001
 20
-1.8166600000000002
 30
0.0
 10
0.658
 20
-1.7226800000000002
 30
0.0
 10
0.6072000000000001
 20
-1.7836400000000001
 30
0.0
 10
0.6072000000000001
 20
-1.7836400000000001
 30
0.0
 10
0.6300600000000001
 20
-1.8928600000000002
 30
0.0
 10
0.7494400000000001
 20
-1.9817600000000002
 30
0.0
 10
0.61736
 20
-2.0757400000000001
 30
0.0
 10
0.61736
 20
-2.0757400000000001
 30
0.0
 10
0.4497200000000001
 20
-1.7684000000000002
 30
0.0
 10
0.26938
 20
-1.46106
 30
0.0
 10
-0.04811
 20
-1.33406
 30
0.0
 10
-0.04811
 20
-1.33406
 30
0.0
 10
-0.01509
 20
-1.7226800000000002
 30
0.0
 10
0.21096
 20
-2.0986000000000002
 30
0.0
 10
0.2008
 20
-2.4770600000000003
 30
0.0
 10
0.2008
 20
-2.4770600000000003
 30
0.0
 10
-0.09637
 20
-2.9114000000000004
 30
0.0
 10
-0.03287
 20
-2.0071600000000003
 30
0.0
 10
-0.21829
 20
-2.1494
 30
0.0
 10
-0.21829
 20
-2.1494
 30
0.0
 10
-0.19543
 20
-2.2332200000000002
 30
0.0
 10
-0.10145
 20
-2.35006
 30
0.0
 10
-0.20813
 20
-2.4008600000000002
 30
0.0
 10
-0.20813
 20
-2.4008600000000002
 30
0.0
 10
-0.44689
 20
-2.5913600000000003
 30
0.0
 10
0.05602
 20
-2.4059400000000002
 30
0.0
 10
-0.18273
 20
-2.7234400000000001
 30
0.0
 10
-0.18273
 20
-2.7234400000000001
 30
0.0
 10
-0.54849
 20
-2.8809200000000001
 30
0.0
 10
-0.38339
 20
-2.3322800000000004
 30
0.0
 10
-0.5383300000000001
 20
-2.1773400000000001
 30
0.0
 10
-0.5383300000000001
 20
-2.1773400000000001
 30
0.0
 10
-0.59167
 20
-2.5202400000000003
 30
0.0
 10
-0.9244100000000001
 20
-2.8987000000000003
 30
0.0
 10
-0.9371100000000001
 20
-2.2967200000000001
 30
0.0
 10
-0.9371100000000001
 20
-2.2967200000000001
 30
0.0
 10
-1.1072900000000001
 20
-2.2484600000000001
 30
0.0
 10
-0.97267
 20
-2.4745200000000001
 30
0.0
 10
-0.9980700000000001
 20
-2.5304000000000002
 30
0.0
 10
-0.9980700000000001
 20
-2.5304000000000002
 30
0.0
 10
-1.08189
 20
-2.7285200000000001
 30
0.0
 10
-1.2850900000000001
 20
-2.6345400000000003
 30
0.0
 10
-1.3155700000000001
 20
-2.2865600000000001
 30
0.0
 10
-1.3155700000000001
 20
-2.2865600000000001
 30
0.0
 10
-1.5187700000000002
 20
-2.2332200000000002
 30
0.0
 10
-1.3511300000000002
 20
-2.4719800000000003
 30
0.0
 10
-1.3714500000000001
 20
-2.5888200000000001
 30
0.0
 10
-1.3714500000000001
 20
-2.5888200000000001
 30
0.0
 10
-1.4120900000000001
 20
-2.8428200000000001
 30
0.0
 10
-1.4781300000000002
 20
-3.0612600000000003
 30
0.0
 10
-1.5238500000000001
 20
-2.6396200000000003
 30
0.0
 10
-1.5238500000000001
 20
-2.6396200000000003
 30
0.0
 10
-1.6000500000000002
 20
-2.9139400000000002
 30
0.0
 10
-1.6559300000000001
 20
-2.9190200000000002
 30
0.0
 10
-1.9327900000000002
 20
-2.8174200000000003
 30
0.0
 10
-1.9327900000000002
 20
-2.8174200000000003
 30
0.0
 10
-1.6152900000000001
 20
-2.7183600000000001
 30
0.0
 10
-1.9226300000000001
 20
-2.60406
 30
0.0
 10
-1.8362700000000001
 20
-2.3018000000000001
 30
0.0
 10
-1.8362700000000001
 20
-2.3018000000000001
 30
0.0
 10
-1.9708900000000003
 20
-2.3703800000000004
 30
0.0
 10
-1.8845300000000003
 20
-3.0358600000000004
 30
0.0
 10
-2.23759
 20
-2.6726400000000003
 30
0.0
 10
-2.23759
 20
-2.6726400000000003
 30
0.0
 10
-2.02677
 20
-2.52786
 30
0.0
 10
-2.1537700000000002
 20
-2.3576800000000002
 30
0.0
 10
-2.1664700000000003
 20
-2.0503400000000003
 30
0.0
 10
-2.1664700000000003
 20
-2.0503400000000003
 30
0.0
 10
-2.2985500000000001
 20
-1.9487400000000001
 30
0.0
 10
-2.2299700000000002
 20
-2.1646400000000003
 30
0.0
 10
-2.2452100000000002
 20
-2.23576
 30
0.0
 10
-2.2452100000000002
 20
-2.23576
 30
0.0
 10
-2.3061700000000003
 20
-2.5481800000000003
 30
0.0
 10
-2.4484100000000004
 20
-2.9114000000000004
 30
0.0
 10
-2.51953
 20
-2.3475200000000003
 30
0.0
 10
-2.51953
 20
-2.3475200000000003
 30
0.0
 10
-2.52461
 20
-2.2764000000000002
 30
0.0
 10
-2.5169900000000003
 20
-2.2052800000000001
 30
0.0
 10
-2.48143
 20
-2.1468600000000002
 30
0.0
 10
-2.48143
 20
-2.1468600000000002
 30
0.0
 10
-2.4153900000000004
 20
-2.2535400000000001
 30
0.0
 10
-2.5119100000000003
 20
-2.4440400000000002
 30
0.0
 10
-2.3798300000000001
 20
-2.5024600000000001
 30
0.0
 10
-2.3798300000000001
 20
-2.5024600000000001
 30
0.0
 10
-2.3899900000000001
 20
-2.2535400000000001
 30
0.0
 10
-2.4077700000000002
 20
-1.8954000000000002
 30
0.0
 10
-2.36205
 20
-1.6464800000000002
 30
0.0
 10
-2.36205
 20
-1.6464800000000002
 30
0.0
 10
-2.3061700000000003
 20
-1.3467600000000002
 30
0.0
 10
-2.1994900000000004
 20
-1.1892800000000001
 30
0.0
 10
-2.4738100000000003
 20
-1.3467600000000002
 30
0.0
  0
SPLINE
  5
36
100
AcDbEntity
  8
Ebene 1
 62
     7
100
AcDbSpline
210
0.0
220
0.0
230
1.0
 70
     1
 71
     3
 72
   220
 73
   216
 74
     0
 42
0.0000000001
 43
0.0000000001
 40
0.0
 40
0.0
 40
0.0
 40
0.0
 40
0.0185185185185185
 40
0.0185185185185185
 40
0.0185185185185185
 40
0.0185185185185185
 40
0.037037037037037
 40
0.037037037037037
 40
0.037037037037037
 40
0.037037037037037
 40
0.0555555555555556
 40
0.0555555555555556
 40
0.0555555555555556
 40
0.0555555555555556
 40
0.0740740740740741
 40
0.0740740740740741
 40
0.0740740740740741
 40
0.0740740740740741
 40
0.0925925925925926
 40
0.0925925925925926
 40
0.0925925925925926
 40
0.0925925925925926
 40
0.1111111111111111
 40
0.1111111111111111
 40
0.1111111111111111
 40
0.1111111111111111
 40
0.1296296296296296
 40
0.1296296296296296
 40
0.1296296296296296
 40
0.1296296296296296
 40
0.1481481481481481
 40
0.1481481481481481
 40
0.1481481481481481
 40
0.1481481481481481
 40
0.1666666666666667
 40
0.1666666666666667
 40
0.1666666666666667
 40
0.1666666666666667
 40
0.1851851851851852
 40
0.1851851851851852
 40
0.1851851851851852
 40
0.1851851851851852
 40
0.2037037037037037
 40
0.2037037037037037
 40
0.2037037037037037
 40
0.2037037037037037
 40
0.2222222222222222
 40
0.2222222222222222
 40
0.2222222222222222
 40
0.2222222222222222
 40
0.2407407407407407
 40
0.2407407407407407
 40
0.2407407407407407
 40
0.2407407407407407
 40
0.2592592592592592
 40
0.2592592592592592
 40
0.2592592592592592
 40
0.2592592592592592
 40
0.2777777777777778
 40
0.2777777777777778
 40
0.2777777777777778
 40
0.2777777777777778
 40
0.2962962962962963
 40
0.2962962962962963
 40
0.2962962962962963
 40
0.2962962962962963
 40
0.3148148148148148
 40
0.3148148148148148
 40
0.3148148148148148
 40
0.3148148148148148
 40
0.3333333333333333
 40
0.3333333333333333
 40
0.3333333333333333
 40
0.3333333333333333
 40
0.3518518518518518
 40
0.3518518518518518
 40
0.3518518518518518
 40
0.3518518518518518
 40
0.3703703703703702
 40
0.3703703703703702
 40
0.3703703703703702
 40
0.3703703703703702
 40
0.3888888888888887
 40
0.3888888888888887
 40
0.3888888888888887
 40
0.3888888888888887
 40
0.4074074074074072
 40
0.4074074074074072
 40
0.4074074074074072
 40
0.4074074074074072
 40
0.4259259259259257
 40
0.4259259259259257
 40
0.4259259259259257
 40
0.4259259259259257
 40
0.4444444444444442
 40
0.4444444444444442
 40
0.4444444444444442
 40
0.4444444444444442
 40
0.4629629629629627
 40
0.4629629629629627
 40
0.4629629629629627
 40
0.4629629629629627
 40
0.4814814814814812
 40
0.4814814814814812
 40
0.4814814814814812
 40
0.4814814814814812
 40
0.4999999999999997
 40
0.4999999999999997
 40
0.4999999999999997
 40
0.4999999999999997
 40
0.5185185185185182
 40
0.5185185185185182
 40
0.5185185185185182
 40
0.5185185185185182
 40
0.5370370370370367
 40
0.5370370370370367
 40
0.5370370370370367
 40
0.5370370370370367
 40
0.5555555555555551
 40
0.5555555555555551
 40
0.5555555555555551
 40
0.5555555555555551
 40
0.5740740740740736
 40
0.5740740740740736
 40
0.5740740740740736
 40
0.5740740740740736
 40
0.5925925925925921
 40
0.5925925925925921
 40
0.5925925925925921
 40
0.5925925925925921
 40
0.6111111111111106
 40
0.6111111111111106
 40
0.6111111111111106
 40
0.6111111111111106
 40
0.6296296296296291
 40
0.6296296296296291
 40
0.6296296296296291
 40
0.6296296296296291
 40
0.6481481481481476
 40
0.6481481481481476
 40
0.6481481481481476
 40
0.6481481481481476
 40
0.6666666666666661
 40
0.6666666666666661
 40
0.6666666666666661
 40
0.6666666666666661
 40
0.6851851851851846
 40
0.6851851851851846
 40
0.6851851851851846
 40
0.6851851851851846
 40
0.7037037037037031
 40
0.7037037037037031
 40
0.7037037037037031
 40
0.7037037037037031
 40
0.7222222222222215
 40
0.7222222222222215
 40
0.7222222222222215
 40
0.7222222222222215
 40
0.74074074074074
 40
0.74074074074074
 40
0.74074074074074
 40
0.74074074074074
 40
0.7592592592592585
 40
0.7592592592592585
 40
0.7592592592592585
 40
0.7592592592592585
 40
0.777777777777777
 40
0.777777777777777
 40
0.777777777777777
 40
0.777777777777777
 40
0.7962962962962955
 40
0.7962962962962955
 40
0.7962962962962955
 40
0.7962962962962955
 40
0.814814814814814
 40
0.814814814814814
 40
0.814814814814814
 40
0.814814814814814
 40
0.8333333333333325
 40
0.8333333333333325
 40
0.8333333333333325
 40
0.8333333333333325
 40
0.851851851851851
 40
0.851851851851851
 40
0.851851851851851
 40
0.851851851851851
 40
0.8703703703703695
 40
0.8703703703703695
 40
0.8703703703703695
 40
0.8703703703703695
 40
0.888888888888888
 40
0.888888888888888
 40
0.888888888888888
 40
0.888888888888888
 40
0.9074074074074064
 40
0.9074074074074064
 40
0.9074074074074064
 40
0.9074074074074064
 40
0.9259259259259249
 40
0.9259259259259249
 40
0.9259259259259249
 40
0.9259259259259249
 40
0.9444444444444434
 40
0.9444444444444434
 40
0.9444444444444434
 40
0.9444444444444434
 40
0.9629629629629619
 40
0.9629629629629619
 40
0.9629629629629619
 40
0.9629629629629619
 40
0.9814814814814804
 40
0.9814814814814804
 40
0.9814814814814804
 40
0.9814814814814804
 40
1.0
 40
1.0
 40
1.0
 40
1.0
 10
1.3768200000000002
 20
-3.5438600000000005
 30
0.0
 10
1.3565
 20
-3.4905200000000001
 30
0.0
 10
1.4606400000000002
 20
-3.3813000000000004
 30
0.0
 10
1.3641200000000002
 20
-3.3889200000000002
 30
0.0
 10
1.3641200000000002
 20
-3.3889200000000002
 30
0.0
 10
0.6935600000000001
 20
-4.4455600000000004
 30
0.0
 10
-0.45197
 20
-5.7816000000000001
 30
0.0
 10
-1.8057900000000002
 20
-5.4336200000000003
 30
0.0
 10
-1.8057900000000002
 20
-5.4336200000000003
 30
0.0
 10
-1.9835900000000002
 20
-5.4768000000000008
 30
0.0
 10
-2.1207500000000001
 20
-5.3345600000000006
 30
0.0
 10
-2.2858500000000004
 20
-5.4056800000000003
 30
0.0
 10
-2.2858500000000004
 20
-5.4056800000000003
 30
0.0
 10
-2.8446500000000001
 20
-5.4539400000000002
 30
0.0
 10
-2.6439900000000001
 20
-5.5631600000000008
 30
0.0
 10
-2.2248900000000003
 20
-5.5961800000000004
 30
0.0
 10
-2.2248900000000003
 20
-5.5961800000000004
 30
0.0
 10
-2.1283700000000003
 20
-5.5885600000000002
 30
0.0
 10
-1.7651500000000002
 20
-5.5707800000000001
 30
0.0
 10
-1.9099300000000001
 20
-5.6952400000000001
 30
0.0
 10
-1.9099300000000001
 20
-5.6952400000000001
 30
0.0
 10
-2.1817100000000003
 20
-5.6342800000000004
 30
0.0
 10
-2.5347700000000004
 20
-5.7358800000000008
 30
0.0
 10
-2.7557500000000004
 20
-5.6012600000000008
 30
0.0
 10
-2.7557500000000004
 20
-5.6012600000000008
 30
0.0
 10
-2.7633700000000001
 20
-5.2482000000000006
 30
0.0
 10
-2.61097
 20
-4.9129200000000006
 30
0.0
 10
-2.6998700000000002
 20
-4.5420800000000003
 30
0.0
 10
-2.6998700000000002
 20
-4.5420800000000003
 30
0.0
 10
-2.7405100000000004
 20
-4.8824400000000008
 30
0.0
 10
-2.7938500000000004
 20
-5.2659800000000008
 30
0.0
 10
-2.8878300000000001
 20
-5.5987200000000001
 30
0.0
 10
-2.8878300000000001
 20
-5.5987200000000001
 30
0.0
 10
-2.9386300000000003
 20
-5.3345600000000006
 30
0.0
 10
-3.0148300000000003
 20
-5.1161200000000004
 30
0.0
 10
-3.1875500000000003
 20
-4.8799000000000001
 30
0.0
 10
-3.1875500000000003
 20
-4.8799000000000001
 30
0.0
 10
-3.1646900000000002
 20
-4.6944800000000004
 30
0.0
 10
-3.6142700000000003
 20
-4.1839400000000007
 30
0.0
 10
-3.4212300000000004
 20
-4.3211000000000004
 30
0.0
 10
-3.4212300000000004
 20
-4.3211000000000004
 30
0.0
 10
-3.3958300000000001
 20
-4.3617400000000002
 30
0.0
 10
-3.3805900000000002
 20
-4.4862000000000002
 30
0.0
 10
-3.3272500000000003
 20
-4.44048
 30
0.0
 10
-3.3272500000000003
 20
-4.44048
 30
0.0
 10
-3.3272500000000003
 20
-4.44048
 30
0.0
 10
-3.3678900000000005
 20
-4.2474400000000001
 30
0.0
 10
-3.3678900000000005
 20
-4.2474400000000001
 30
0.0
 10
-3.3678900000000005
 20
-4.2474400000000001
 30
0.0
 10
-3.4542500000000005
 20
-4.05694
 30
0.0
 10
-3.5761700000000003
 20
-3.9147000000000003
 30
0.0
 10
-3.5812500000000003
 20
-3.6886400000000004
 30
0.0
 10
-3.5812500000000003
 20
-3.6886400000000004
 30
0.0
 10
-3.1469100000000001
 20
-4.0315400000000006
 30
0.0
 10
-3.2078700000000002
 20
-4.6284400000000003
 30
0.0
 10
-2.9614900000000004
 20
-5.0551600000000008
 30
0.0
 10
-2.9614900000000004
 20
-5.0551600000000008
 30
0.0
 10
-2.8294100000000002
 20
-4.1864800000000004
 30
0.0
 10
-3.6066500000000001
 20
-3.4956000000000005
 30
0.0
 10
-3.9698700000000002
 20
-2.8377400000000002
 30
0.0
 10
-3.9698700000000002
 20
-2.8377400000000002
 30
0.0
 10
-4.0460700000000003
 20
-2.8021800000000003
 30
0.0
 10
-3.9876500000000004
 20
-2.7412200000000002
 30
0.0
 10
-3.9571700000000005
 20
-2.8225000000000002
 30
0.0
 10
-3.9571700000000005
 20
-2.8225000000000002
 30
0.0
 10
-3.7387300000000003
 20
-3.15524
 30
0.0
 10
-3.3729700000000005
 20
-3.2365200000000001
 30
0.0
 10
-3.1723100000000004
 20
-3.5413200000000002
 30
0.0
 10
-3.1723100000000004
 20
-3.5413200000000002
 30
0.0
 10
-3.1723100000000004
 20
-3.5413200000000002
 30
0.0
 10
-3.0072100000000002
 20
-3.7394400000000001
 30
0.0
 10
-3.0072100000000002
 20
-3.7394400000000001
 30
0.0
 10
-3.0072100000000002
 20
-3.7394400000000001
 30
0.0
 10
-3.2637500000000004
 20
-2.9164800000000004
 30
0.0
 10
-3.7463500000000005
 20
-3.0003000000000002
 30
0.0
 10
-4.0232100000000006
 20
-2.30688
 30
0.0
 10
-4.0232100000000006
 20
-2.30688
 30
0.0
 10
-3.9393900000000004
 20
-2.3018000000000001
 30
0.0
 10
-3.9851100000000002
 20
-2.4161000000000001
 30
0.0
 10
-3.9343100000000004
 20
-2.4542000000000002
 30
0.0
 10
-3.9343100000000004
 20
-2.4542000000000002
 30
0.0
 10
-3.7336500000000004
 20
-2.5354800000000002
 30
0.0
 10
-3.4948900000000003
 20
-2.5989800000000001
 30
0.0
 10
-3.4110700000000005
 20
-2.8021800000000003
 30
0.0
 10
-3.4110700000000005
 20
-2.8021800000000003
 30
0.0
 10
-3.4491700000000001
 20
-2.5380200000000004
 30
0.0
 10
-3.5685500000000001
 20
-2.2256
 30
0.0
 10
-3.8098500000000004
 20
-2.1621000000000001
 30
0.0
 10
-3.8098500000000004
 20
-2.1621000000000001
 30
0.0
 10
-3.9165300000000003
 20
-1.6947400000000001
 30
0.0
 10
-4.0359100000000003
 20
-1.1003800000000001
 30
0.0
 10
-3.8784300000000003
 20
-0.59492
 30
0.0
 10
-3.8784300000000003
 20
-0.59492
 30
0.0
 10
-3.6879300000000002
 20
-0.12756
 30
0.0
 10
-3.8047700000000004
 20
0.44901
 30
0.0
 10
-3.4694900000000004
 20
0.8452500000000001
 30
0.0
 10
-3.4694900000000004
 20
0.8452500000000001
 30
0.0
 10
-3.3501100000000004
 20
0.36265
 30
0.0
 10
-3.5152100000000002
 20
-0.04374
 30
0.0
 10
-3.6650700000000005
 20
-0.50602
 30
0.0
 10
-3.6650700000000005
 20
-0.50602
 30
0.0
 10
-3.7615900000000004
 20
-1.9182600000000001
 30
0.0
 10
-2.5373100000000002
 20
-3.5997400000000002
 30
0.0
 10
-2.5144500000000001
 20
-5.1440600000000005
 30
0.0
 10
-2.5144500000000001
 20
-5.1440600000000005
 30
0.0
 10
-0.11161
 20
-5.8933600000000004
 30
0.0
 10
0.8129400000000001
 20
-2.9266400000000004
 30
0.0
 10
1.8772000000000002
 20
-1.1943600000000001
 30
0.0
 10
1.8772000000000002
 20
-1.1943600000000001
 30
0.0
 10
1.8772000000000002
 20
-1.1943600000000001
 30
0.0
 10
1.9305400000000001
 20
-0.5161800000000001
 30
0.0
 10
1.9305400000000001
 20
-0.5161800000000001
 30
0.0
 10
1.9305400000000001
 20
-0.5161800000000001
 30
0.0
 10
1.8873600000000001
 20
-0.18344
 30
0.0
 10
1.9584800000000002
 20
0.14421
 30
0.0
 10
1.9711800000000002
 20
0.46933
 30
0.0
 10
1.9711800000000002
 20
0.46933
 30
0.0
 10
2.1261200000000002
 20
0.15945
 30
0.0
 10
1.9203800000000002
 20
-0.4044200000000001
 30
0.0
 10
2.4055200000000001
 20
-0.16566
 30
0.0
 10
2.4055200000000001
 20
-0.16566
 30
0.0
 10
2.2201
 20
-0.6050800000000001
 30
0.0
 10
2.0626200000000003
 20
-1.0521200000000002
 30
0.0
 10
1.9026000000000001
 20
-1.4890000000000001
 30
0.0
 10
1.9026000000000001
 20
-1.4890000000000001
 30
0.0
 10
2.0169000000000001
 20
-1.3518400000000002
 30
0.0
 10
2.12866
 20
-1.1740400000000002
 30
0.0
 10
2.2277200000000001
 20
-1.0241800000000001
 30
0.0
 10
2.2277200000000001
 20
-1.0241800000000001
 30
0.0
 10
2.42584
 20
-0.7117600000000001
 30
0.0
 10
2.5731600000000001
 20
-0.29266
 30
0.0
 10
2.9389200000000004
 20
-0.13518
 30
0.0
 10
2.9389200000000004
 20
-0.13518
 30
0.0
 10
2.6900000000000004
 20
-0.5212600000000001
 30
0.0
 10
2.3166200000000003
 20
-1.0597400000000001
 30
0.0
 10
2.2455000000000003
 20
-1.4026400000000001
 30
0.0
 10
2.2455000000000003
 20
-1.4026400000000001
 30
0.0
 10
2.5122
 20
-1.2400800000000001
 30
0.0
 10
2.6239600000000003
 20
-0.90734
 30
0.0
 10
2.9084400000000001
 20
-0.7701800000000001
 30
0.0
 10
2.9084400000000001
 20
-0.7701800000000001
 30
0.0
 10
3.0837000000000003
 20
-0.6838200000000001
 30
0.0
 10
3.1802200000000003
 20
-0.50856
 30
0.0
 10
3.3402400000000001
 20
-0.4095
 30
0.0
 10
3.3402400000000001
 20
-0.4095
 30
0.0
 10
2.8576400000000004
 20
-1.16642
 30
0.0
 10
2.1566000000000001
 20
-1.9868400000000002
 30
0.0
 10
1.8670400000000003
 20
-2.8961600000000001
 30
0.0
 10
1.8670400000000003
 20
-2.8961600000000001
 30
0.0
 10
1.9280000000000002
 20
-2.9342600000000001
 30
0.0
 10
1.9457800000000001
 20
-2.81996
 30
0.0
 10
1.9864200000000001
 20
-2.7894800000000002
 30
0.0
 10
1.9864200000000001
 20
-2.7894800000000002
 30
0.0
 10
2.1845400000000001
 20
-2.4897600000000004
 30
0.0
 10
2.17692
 20
-2.7310600000000003
 30
0.0
 10
2.0550000000000002
 20
-2.9368000000000003
 30
0.0
 10
2.0550000000000002
 20
-2.9368000000000003
 30
0.0
 10
1.6435200000000001
 20
-3.3813000000000004
 30
0.0
 10
1.7578200000000002
 20
-3.8918400000000002
 30
0.0
 10
2.2683600000000004
 20
-3.2974800000000002
 30
0.0
 10
2.2683600000000004
 20
-3.2974800000000002
 30
0.0
 10
2.6214200000000001
 20
-2.8174200000000003
 30
0.0
 10
3.0202000000000004
 20
-2.4034
 30
0.0
 10
3.5485200000000003
 20
-2.1494
 30
0.0
 10
3.5485200000000003
 20
-2.1494
 30
0.0
 10
3.6120200000000002
 20
-2.7336
 30
0.0
 10
3.4977200000000002
 20
-3.5311600000000003
 30
0.0
 10
3.0049600000000001
 20
-3.8664400000000003
 30
0.0
 10
3.0049600000000001
 20
-3.8664400000000003
 30
0.0
 10
2.6061800000000002
 20
-4.1128200000000001
 30
0.0
 10
2.2683600000000004
 20
-4.4506399999999999
 30
0.0
 10
1.8162400000000001
 20
-4.5878000000000005
 30
0.0
 10
1.8162400000000001
 20
-4.5878000000000005
 30
0.0
 10
1.5901800000000001
 20
-4.7198800000000007
 30
0.0
 10
1.3285600000000002
 20
-4.78592
 30
0.0
 10
1.06694
 20
-4.8494200000000003
 30
0.0
 10
1.06694
 20
-4.8494200000000003
 30
0.0
 10
1.7756000000000001
 20
-4.2830000000000004
 30
0.0
 10
2.9338400000000004
 20
-4.0010600000000007
 30
0.0
 10
3.2411800000000004
 20
-3.0028400000000004
 30
0.0
 10
3.2411800000000004
 20
-3.0028400000000004
 30
0.0
 10
3.2081600000000003
 20
-2.9368000000000003
 30
0.0
 10
3.13958
 20
-2.9698200000000003
 30
0.0
 10
3.0710000000000002
 20
-2.9774400000000001
 30
0.0
 10
3.0710000000000002
 20
-2.9774400000000001
 30
0.0
 10
3.0024200000000003
 20
-3.0104600000000001
 30
0.0
 10
2.9363800000000002
 20
-3.0434800000000002
 30
0.0
 10
2.8703400000000001
 20
-3.1069800000000001
 30
0.0
 10
2.8703400000000001
 20
-3.1069800000000001
 30
0.0
 10
2.8703400000000001
 20
-3.1069800000000001
 30
0.0
 10
2.7077800000000001
 20
-3.3305000000000002
 30
0.0
 10
2.7077800000000001
 20
-3.3305000000000002
 30
0.0
 10
2.7077800000000001
 20
-3.3305000000000002
 30
0.0
 10
2.6392000000000002
 20
-3.1958800000000003
 30
0.0
 10
2.7865200000000003
 20
-3.1273000000000004
 30
0.0
 10
2.9567000000000001
 20
-2.9596600000000004
 30
0.0
 10
2.9567000000000001
 20
-2.9596600000000004
 30
0.0
 10
3.1116400000000004
 20
-2.8047200000000001
 30
0.0
 10
3.2767400000000002
 20
-2.6066000000000003
 30
0.0
 10
3.3148400000000002
 20
-2.3805400000000003
 30
0.0
 10
3.3148400000000002
 20
-2.3805400000000003
 30
0.0
 10
2.6900000000000004
 20
-3.3051000000000004
 30
0.0
 10
1.6714600000000002
 20
-3.8562800000000004
 30
0.0
 10
0.8612000000000001
 20
-4.5852600000000008
 30
0.0
 10
0.8612000000000001
 20
-4.5852600000000008
 30
0.0
 10
0.8612000000000001
 20
-4.5852600000000008
 30
0.0
 10
1.3742800000000002
 20
-3.6988000000000003
 30
0.0
 10
1.3742800000000002
 20
-3.6988000000000003
 30
0.0
 10
1.3742800000000002
 20
-3.6988000000000003
 30
0.0
 10
1.4631800000000001
 20
-3.5794200000000003
 30
0.0
 10
1.7756000000000001
 20
-2.9749000000000003
 30
0.0
 10
1.5724
 20
-3.2035000000000005
 30
0.0
 10
1.5724
 20
-3.2035000000000005
 30
0.0
 10
1.5724
 20
-3.2035000000000005
 30
0.0
 10
1.3768200000000002
 20
-3.5438600000000005
 30
0.0
 10
1.3768200000000002
 20
-3.5438600000000005
 30
0.0
  0
SPLINE
  5
37
100
AcDbEntity
  8
Ebene 1
100
AcDbSpline
210
0.0
220
0.0
230
1.0
 70
     1
 71
     3
 72
    40
 73
    36
 74
     0
 42
0.0000000001
 43
0.0000000001
 40
0.0
 40
0.0
 40
0.0
 40
0.0
 40
0.1111111111111111
 40
0.1111111111111111
 40
0.1111111111111111
 40
0.1111111111111111
 40
0.2222222222222222
 40
0.2222222222222222
 40
0.2222222222222222
 40
0.2222222222222222
 40
0.3333333333333333
 40
0.3333333333333333
 40
0.3333333333333333
 40
0.3333333333333333
 40
0.4444444444444444
 40
0.4444444444444444
 40
0.4444444444444444
 40
0.4444444444444444
 40
0.5555555555555556
 40
0.5555555555555556
 40
0.5555555555555556
 40
0.5555555555555556
 40
0.6666666666666667
 40
0.6666666666666667
 40
0.6666666666666667
 40
0.6666666666666667
 40
0.7777777777777779
 40
0.7777777777777779
 40
0.7777777777777779
 40
0.7777777777777779
 40
0.8888888888888891
 40
0.8888888888888891
 40
0.8888888888888891
 40
0.8888888888888891
 40
1.0
 40
1.0
 40
1.0
 40
1.0
 10
-3.0605500000000001
 20
0.85033
 30
0.0
 10
-2.8319500000000004
 20
0.7995300000000001
 30
0.0
 10
-2.6033500000000003
 20
0.9036700000000001
 30
0.0
 10
-2.3595100000000002
 20
0.8554100000000001
 30
0.0
 10
-2.3595100000000002
 20
0.8554100000000001
 30
0.0
 10
-2.2807700000000004
 20
0.74873
 30
0.0
 10
-2.1182100000000004
 20
0.8325500000000001
 30
0.0
 10
-1.9886700000000002
 20
0.7741300000000001
 30
0.0
 10
-1.9886700000000002
 20
0.7741300000000001
 30
0.0
 10
-1.8642100000000001
 20
0.7995300000000001
 30
0.0
 10
-1.7829300000000001
 20
0.68015
 30
0.0
 10
-1.6914900000000002
 20
0.61665
 30
0.0
 10
-1.6914900000000002
 20
0.61665
 30
0.0
 10
-1.6914900000000002
 20
0.61665
 30
0.0
 10
-1.7753100000000002
 20
0.6090300000000001
 30
0.0
 10
-1.7753100000000002
 20
0.6090300000000001
 30
0.0
 10
-1.7753100000000002
 20
0.6090300000000001
 30
0.0
 10
-2.1182100000000004
 20
0.8325500000000001
 30
0.0
 10
-2.60589
 20
0.62173
 30
0.0
 10
-2.9818100000000003
 20
0.7309500000000001
 30
0.0
 10
-2.9818100000000003
 20
0.7309500000000001
 30
0.0
 10
-2.9818100000000003
 20
0.7309500000000001
 30
0.0
 10
-3.1037300000000001
 20
0.6928500000000001
 30
0.0
 10
-3.1037300000000001
 20
0.6928500000000001
 30
0.0
 10
-3.1037300000000001
 20
0.6928500000000001
 30
0.0
 10
-3.1037300000000001
 20
0.6928500000000001
 30
0.0
 10
-3.1545300000000003
 20
0.74365
 30
0.0
 10
-3.1545300000000003
 20
0.74365
 30
0.0
 10
-3.1545300000000003
 20
0.74365
 30
0.0
 10
-3.1545300000000003
 20
0.74365
 30
0.0
 10
-3.3145500000000001
 20
0.6877700000000001
 30
0.0
 10
-3.3145500000000001
 20
0.6877700000000001
 30
0.0
 10
-3.3145500000000001
 20
0.6877700000000001
 30
0.0
 10
-3.2866100000000005
 20
0.8020700000000001
 30
0.0
 10
-3.1392900000000004
 20
0.8020700000000001
 30
0.0
 10
-3.0605500000000001
 20
0.85033
 30
0.0
  0
SPLINE
  5
38
100
AcDbEntity
  8
Ebene 1
 62
     7
100
AcDbSpline
210
0.0
220
0.0
230
1.0
 70
     1
 71
     3
 72
    20
 73
    16
 74
     0
 42
0.0000000001
 43
0.0000000001
 40
0.0
 40
0.0
 40
0.0
 40
0.0
 40
0.25
 40
0.25
 40
0.25
 40
0.25
 40
0.5
 40
0.5
 40
0.5
 40
0.5
 40
0.75
 40
0.75
 40
0.75
 40
0.75
 40
1.0
 40
1.0
 40
1.0
 40
1.0
 10
2.4766400000000002
 20
1.2999100000000001
 30
0.0
 10
2.4766400000000002
 20
1.2999100000000001
 30
0.0
 10
2.9008200000000004
 20
1.2643500000000001
 30
0.0
 10
2.9008200000000004
 20
1.2643500000000001
 30
0.0
 10
2.9008200000000004
 20
1.2643500000000001
 30
0.0
 10
2.8881200000000002
 20
1.10941
 30
0.0
 10
2.8703400000000001
 20
0.9951100000000001
 30
0.0
 10
2.9236800000000001
 20
0.8604900000000001
 30
0.0
 10
2.9236800000000001
 20
0.8604900000000001
 30
0.0
 10
2.8322400000000001
 20
0.9214500000000001
 30
0.0
 10
2.8220800000000001
 20
1.0484500000000001
 30
0.0
 10
2.8119200000000002
 20
1.1602100000000002
 30
0.0
 10
2.8119200000000002
 20
1.1602100000000002
 30
0.0
 10
2.6874600000000002
 20
1.1348100000000001
 30
0.0
 10
2.5680800000000001
 20
1.23641
 30
0.0
 10
2.4766400000000002
 20
1.2999100000000001
 30
0.0
  0
SPLINE
  5
39
100
AcDbEntity
  8
Ebene 1
100
AcDbSpline
210
0.0
220
0.0
230
1.0
 70
     1
 71
     3
 72
    36
 73
    32
 74
     0
 42
0.0000000001
 43
0.0000000001
 40
0.0
 40
0.0
 40
0.0
 40
0.0
 40
0.125
 40
0.125
 40
0.125
 40
0.125
 40
0.25
 40
0.25
 40
0.25
 40
0.25
 40
0.375
 40
0.375
 40
0.375
 40
0.375
 40
0.5
 40
0.5
 40
0.5
 40
0.5
 40
0.625
 40
0.625
 40
0.625
 40
0.625
 40
0.75
 40
0.75
 40
0.75
 40
0.75
 40
0.875
 40
0.875
 40
0.875
 40
0.875
 40
1.0
 40
1.0
 40
1.0
 40
1.0
 10
-2.9310100000000001
 20
0.6522100000000001
 30
0.0
 10
-2.8065500000000001
 20
0.6471300000000001
 30
0.0
 10
-2.6668500000000002
 20
0.65983
 30
0.0
 10
-2.5347700000000004
 20
0.61411
 30
0.0
 10
-2.5347700000000004
 20
0.61411
 30
0.0
 10
-2.1867900000000002
 20
0.65983
 30
0.0
 10
-1.7854700000000001
 20
0.7080900000000001
 30
0.0
 10
-1.5746500000000001
 20
0.38805
 30
0.0
 10
-1.5746500000000001
 20
0.38805
 30
0.0
 10
-1.5365500000000001
 20
0.09595
 30
0.0
 10
-1.6076700000000002
 20
-0.18852
 30
0.0
 10
-1.75753
 20
-0.43998
 30
0.0
 10
-1.75753
 20
-0.43998
 30
0.0
 10
-1.7702300000000002
 20
-0.44252
 30
0.0
 10
-1.7829300000000001
 20
-0.44252
 30
0.0
 10
-1.7854700000000001
 20
-0.4272800000000001
 30
0.0
 10
-1.7854700000000001
 20
-0.4272800000000001
 30
0.0
 10
-1.7880100000000001
 20
-0.38664
 30
0.0
 10
-1.7067300000000001
 20
-0.35108
 30
0.0
 10
-1.7524500000000001
 20
-0.31298
 30
0.0
 10
-1.7524500000000001
 20
-0.31298
 30
0.0
 10
-2.0318500000000004
 20
-0.67366
 30
0.0
 10
-2.5576300000000001
 20
-0.76256
 30
0.0
 10
-2.9767300000000003
 20
-0.7270000000000001
 30
0.0
 10
-2.9767300000000003
 20
-0.7270000000000001
 30
0.0
 10
-3.03261
 20
-0.6762
 30
0.0
 10
-3.1037300000000001
 20
-0.65334
 30
0.0
 10
-3.1215100000000002
 20
-0.5847600000000001
 30
0.0
 10
-3.1215100000000002
 20
-0.5847600000000001
 30
0.0
 10
-3.0173700000000001
 20
-0.1682
 30
0.0
 10
-3.4694900000000004
 20
0.43631
 30
0.0
 10
-2.9310100000000001
 20
0.6522100000000001
 30
0.0
  0
SPLINE
  5
3A
100
AcDbEntity
  8
Ebene 1
 62
     7
100
AcDbSpline
210
0.0
220
0.0
230
1.0
 70
     1
 71
     3
 72
    12
 73
     8
 74
     0
 42
0.0000000001
 43
0.0000000001
 40
0.0
 40
0.0
 40
0.0
 40
0.0
 40
0.5
 40
0.5
 40
0.5
 40
0.5
 40
1.0
 40
1.0
 40
1.0
 40
1.0
 10
3.0456000000000003
 20
1.0535300000000001
 30
0.0
 10
3.0456000000000003
 20
1.0535300000000001
 30
0.0
 10
3.2513400000000003
 20
0.9722500000000001
 30
0.0
 10
3.2513400000000003
 20
0.9722500000000001
 30
0.0
 10
3.2513400000000003
 20
0.9722500000000001
 30
0.0
 10
3.1827600000000005
 20
0.9239900000000001
 30
0.0
 10
3.0430600000000001
 20
0.9417700000000001
 30
0.0
 10
3.0456000000000003
 20
1.0535300000000001
 30
0.0
  0
SPLINE
  5
3B
100
AcDbEntity
  8
Ebene 1
100
AcDbSpline
210
0.0
220
0.0
230
1.0
 70
     1
 71
     3
 72
    44
 73
    40
 74
     0
 42
0.0000000001
 43
0.0000000001
 40
0.0
 40
0.0
 40
0.0
 40
0.0
 40
0.1
 40
0.1
 40
0.1
 40
0.1
 40
0.2
 40
0.2
 40
0.2
 40
0.2
 40
0.3
 40
0.3
 40
0.3
 40
0.3
 40
0.4
 40
0.4
 40
0.4
 40
0.4
 40
0.5
 40
0.5
 40
0.5
 40
0.5
 40
0.6
 40
0.6
 40
0.6
 40
0.6
 40
0.7
 40
0.7
 40
0.7
 40
0.7
 40
0.7999999999999999
 40
0.7999999999999999
 40
0.7999999999999999
 40
0.7999999999999999
 40
0.8999999999999999
 40
0.8999999999999999
 40
0.8999999999999999
 40
0.8999999999999999
 40
1.0
 40
1.0
 40
1.0
 40
1.0
 10
-0.29449
 20
0.6953900000000001
 30
0.0
 10
0.32018
 20
0.7334900000000001
 30
0.0
 10
0.95264
 20
0.7182500000000001
 30
0.0
 10
1.4657200000000001
 20
0.46679
 30
0.0
 10
1.4657200000000001
 20
0.46679
 30
0.0
 10
1.1177400000000002
 20
0.42361
 30
0.0
 10
0.7291200000000001
 20
0.5455300000000001
 30
0.0
 10
0.32018
 20
0.5658500000000001
 30
0.0
 10
0.32018
 20
0.5658500000000001
 30
0.0
 10
0.1373
 20
0.55061
 30
0.0
 10
-0.09129
 20
0.64205
 30
0.0
 10
-0.24877
 20
0.51759
 30
0.0
 10
-0.24877
 20
0.51759
 30
0.0
 10
0.06364
 20
0.41853
 30
0.0
 10
0.41416
 20
0.4617100000000001
 30
0.0
 10
0.74182
 20
0.40583
 30
0.0
 10
0.74182
 20
0.40583
 30
0.0
 10
1.5444600000000002
 20
0.37535
 30
0.0
 10
1.5393800000000002
 20
-0.7041400000000001
 30
0.0
 10
0.9501000000000001
 20
-1.0495800000000002
 30
0.0
 10
0.9501000000000001
 20
-1.0495800000000002
 30
0.0
 10
0.3989200000000001
 20
-1.16896
 30
0.0
 10
-0.01001
 20
-0.7955800000000001
 30
0.0
 10
-0.47737
 20
-0.6127
 30
0.0
 10
-0.47737
 20
-0.6127
 30
0.0
 10
-0.61453
 20
-0.31298
 30
0.0
 10
-0.61453
 20
0.00705
 30
0.0
 10
-0.6272300000000001
 20
0.31439
 30
0.0
 10
-0.6272300000000001
 20
0.31439
 30
0.0
 10
-0.6246900000000001
 20
0.45663
 30
0.0
 10
-0.21067
 20
0.5480700000000001
 30
0.0
 10
-0.39355
 20
0.5455300000000001
 30
0.0
 10
-0.39355
 20
0.5455300000000001
 30
0.0
 10
-0.47737
 20
0.55315
 30
0.0
 10
-0.5840500000000001
 20
0.48711
 30
0.0
 10
-0.6653300000000001
 20
0.43885
 30
0.0
 10
-0.6653300000000001
 20
0.43885
 30
0.0
 10
-0.6069100000000001
 20
0.5836300000000001
 30
0.0
 10
-0.4164100000000001
 20
0.64205
 30
0.0
 10
-0.29449
 20
0.6953900000000001
 30
0.0
  0
SPLINE
  5
3C
100
AcDbEntity
  8
Ebene 1
 62
     7
100
AcDbSpline
210
0.0
220
0.0
230
1.0
 70
     1
 71
     3
 72
    16
 73
    12
 74
     0
 42
0.0000000001
 43
0.0000000001
 40
0.0
 40
0.0
 40
0.0
 40
0.0
 40
0.3333333333333333
 40
0.3333333333333333
 40
0.3333333333333333
 40
0.3333333333333333
 40
0.6666666666666666
 40
0.6666666666666666
 40
0.6666666666666666
 40
0.6666666666666666
 40
1.0
 40
1.0
 40
1.0
 40
1.0
 10
-2.7862300000000002
 20
0.4109100000000001
 30
0.0
 10
-2.7303500000000001
 20
0.4312300000000001
 30
0.0
 10
-2.65415
 20
0.35249
 30
0.0
 10
-2.6770100000000001
 20
0.30677
 30
0.0
 10
-2.6770100000000001
 20
0.30677
 30
0.0
 10
-2.7074900000000004
 20
0.31947
 30
0.0
 10
-2.7481300000000002
 20
0.3169300000000001
 30
0.0
 10
-2.7532100000000002
 20
0.3575700000000001
 30
0.0
 10
-2.7532100000000002
 20
0.3575700000000001
 30
0.0
 10
-2.7938500000000004
 20
0.33979
 30
0.0
 10
-2.8116300000000001
 20
0.3804300000000001
 30
0.0
 10
-2.7862300000000002
 20
0.4109100000000001
 30
0.0
  0
SPLINE
  5
3D
100
AcDbEntity
  8
Ebene 1
 62
     7
100
AcDbSpline
210
0.0
220
0.0
230
1.0
 70
     1
 71
     3
 72
    12
 73
     8
 74
     0
 42
0.0000000001
 43
0.0000000001
 40
0.0
 40
0.0
 40
0.0
 40
0.0
 40
0.5
 40
0.5
 40
0.5
 40
0.5
 40
1.0
 40
1.0
 40
1.0
 40
1.0
 10
-2.56271
 20
0.4312300000000001
 30
0.0
 10
-2.4509500000000002
 20
0.4540900000000001
 30
0.0
 10
-2.31887
 20
0.39313
 30
0.0
 10
-2.3341100000000004
 20
0.25343
 30
0.0
 10
-2.3341100000000004
 20
0.25343
 30
0.0
 10
-2.4357100000000003
 20
0.27121
 30
0.0
 10
-2.52461
 20
0.33471
 30
0.0
 10
-2.56271
 20
0.4312300000000001
 30
0.0
  0
SPLINE
  5
3E
100
AcDbEntity
  8
Ebene 1
 62
     7
100
AcDbSpline
210
0.0
220
0.0
230
1.0
 70
     1
 71
     3
 72
    16
 73
    12
 74
     0
 42
0.0000000001
 43
0.0000000001
 40
0.0
 40
0.0
 40
0.0
 40
0.0
 40
0.3333333333333333
 40
0.3333333333333333
 40
0.3333333333333333
 40
0.3333333333333333
 40
0.6666666666666666
 40
0.6666666666666666
 40
0.6666666666666666
 40
0.6666666666666666
 40
1.0
 40
1.0
 40
1.0
 40
1.0
 10
-2.3036300000000001
 20
0.3804300000000001
 30
0.0
 10
-2.2477500000000004
 20
0.38551
 30
0.0
 10
-2.19441
 20
0.3905900000000001
 30
0.0
 10
-2.1359900000000001
 20
0.3677300000000001
 30
0.0
 10
-2.1359900000000001
 20
0.3677300000000001
 30
0.0
 10
-2.1283700000000003
 20
0.28391
 30
0.0
 10
-2.1359900000000001
 20
0.21279
 30
0.0
 10
-2.1588500000000002
 20
0.14167
 30
0.0
 10
-2.1588500000000002
 20
0.14167
 30
0.0
 10
-2.2579100000000003
 20
0.16199
 30
0.0
 10
-2.3264900000000002
 20
0.29661
 30
0.0
 10
-2.3036300000000001
 20
0.3804300000000001
 30
0.0
  0
SPLINE
  5
3F
100
AcDbEntity
  8
Ebene 1
 62
     7
100
AcDbSpline
210
0.0
220
0.0
230
1.0
 70
     1
 71
     3
 72
    20
 73
    16
 74
     0
 42
0.0000000001
 43
0.0000000001
 40
0.0
 40
0.0
 40
0.0
 40
0.0
 40
0.25
 40
0.25
 40
0.25
 40
0.25
 40
0.5
 40
0.5
 40
0.5
 40
0.5
 40
0.75
 40
0.75
 40
0.75
 40
0.75
 40
1.0
 40
1.0
 40
1.0
 40
1.0
 10
-3.0148300000000003
 20
0.30677
 30
0.0
 10
-2.9106900000000002
 20
0.31439
 30
0.0
 10
-2.9945100000000004
 20
0.19501
 30
0.0
 10
-2.9538700000000002
 20
0.12897
 30
0.0
 10
-2.9538700000000002
 20
0.12897
 30
0.0
 10
-2.9106900000000002
 20
0.07563
 30
0.0
 10
-2.9106900000000002
 20
0.24581
 30
0.0
 10
-2.8446500000000001
 20
0.12389
 30
0.0
 10
-2.8446500000000001
 20
0.12389
 30
0.0
 10
-2.7125700000000004
 20
0.06547
 30
0.0
 10
-2.8040100000000003
 20
-0.03866
 30
0.0
 10
-2.8929100000000001
 20
-0.08692
 30
0.0
 10
-2.8929100000000001
 20
-0.08692
 30
0.0
 10
-3.0097500000000004
 20
-0.00056
 30
0.0
 10
-3.1748500000000002
 20
0.22295
 30
0.0
 10
-3.0148300000000003
 20
0.30677
 30
0.0
  0
SPLINE
  5
40
100
AcDbEntity
  8
Ebene 1
 62
     7
100
AcDbSpline
210
0.0
220
0.0
230
1.0
 70
     1
 71
     3
 72
    16
 73
    12
 74
     0
 42
0.0000000001
 43
0.0000000001
 40
0.0
 40
0.0
 40
0.0
 40
0.0
 40
0.3333333333333333
 40
0.3333333333333333
 40
0.3333333333333333
 40
0.3333333333333333
 40
0.6666666666666666
 40
0.6666666666666666
 40
0.6666666666666666
 40
0.6666666666666666
 40
1.0
 40
1.0
 40
1.0
 40
1.0
 10
-1.8845300000000003
 20
0.40329
 30
0.0
 10
-1.7422900000000001
 20
0.38805
 30
0.0
 10
-1.7930900000000001
 20
0.15945
 30
0.0
 10
-1.7854700000000001
 20
0.06039
 30
0.0
 10
-1.7854700000000001
 20
0.06039
 30
0.0
 10
-1.9962900000000001
 20
0.07055
 30
0.0
 10
-1.7499100000000001
 20
0.30169
 30
0.0
 10
-1.8972300000000002
 20
0.37535
 30
0.0
 10
-1.8972300000000002
 20
0.37535
 30
0.0
 10
-1.8972300000000002
 20
0.37535
 30
0.0
 10
-1.8845300000000003
 20
0.40329
 30
0.0
 10
-1.8845300000000003
 20
0.40329
 30
0.0
  0
SPLINE
  5
41
100
AcDbEntity
  8
Ebene 1
 62
     7
100
AcDbSpline
210
0.0
220
0.0
230
1.0
 70
     1
 71
     3
 72
    16
 73
    12
 74
     0
 42
0.0000000001
 43
0.0000000001
 40
0.0
 40
0.0
 40
0.0
 40
0.0
 40
0.3333333333333333
 40
0.3333333333333333
 40
0.3333333333333333
 40
0.3333333333333333
 40
0.6666666666666666
 40
0.6666666666666666
 40
0.6666666666666666
 40
0.6666666666666666
 40
1.0
 40
1.0
 40
1.0
 40
1.0
 10
-2.7735300000000001
 20
0.27121
 30
0.0
 10
-2.6744700000000003
 20
0.25089
 30
0.0
 10
-2.5144500000000001
 20
0.21025
 30
0.0
 10
-2.5169900000000003
 20
0.06801
 30
0.0
 10
-2.5169900000000003
 20
0.06801
 30
0.0
 10
-2.5703300000000002
 20
0.03499
 30
0.0
 10
-2.6414500000000003
 20
0.04515
 30
0.0
 10
-2.69733
 20
0.04007
 30
0.0
 10
-2.69733
 20
0.04007
 30
0.0
 10
-2.69733
 20
0.04007
 30
0.0
 10
-2.7735300000000001
 20
0.27121
 30
0.0
 10
-2.7735300000000001
 20
0.27121
 30
0.0
  0
SPLINE
  5
42
100
AcDbEntity
  8
Ebene 1
100
AcDbSpline
210
0.0
220
0.0
230
1.0
 70
     1
 71
     3
 72
    24
 73
    20
 74
     0
 42
0.0000000001
 43
0.0000000001
 40
0.0
 40
0.0
 40
0.0
 40
0.0
 40
0.2
 40
0.2
 40
0.2
 40
0.2
 40
0.4
 40
0.4
 40
0.4
 40
0.4
 40
0.6000000000000001
 40
0.6000000000000001
 40
0.6000000000000001
 40
0.6000000000000001
 40
0.8
 40
0.8
 40
0.8
 40
0.8
 40
1.0
 40
1.0
 40
1.0
 40
1.0
 10
-0.91171
 20
0.37535
 30
0.0
 10
-0.91171
 20
0.37535
 30
0.0
 10
-0.8355100000000001
 20
0.29661
 30
0.0
 10
-0.8355100000000001
 20
0.29661
 30
0.0
 10
-0.8355100000000001
 20
0.29661
 30
0.0
 10
-0.8939300000000001
 20
-0.18344
 30
0.0
 10
-0.54849
 20
-0.58984
 30
0.0
 10
-0.65263
 20
-1.0191000000000001
 30
0.0
 10
-0.65263
 20
-1.0191000000000001
 30
0.0
 10
-0.7135900000000001
 20
-0.9556000000000001
 30
0.0
 10
-0.7110500000000001
 20
-0.8286000000000001
 30
0.0
 10
-0.71867
 20
-0.7295400000000001
 30
0.0
 10
-0.71867
 20
-0.7295400000000001
 30
0.0
 10
-0.7364500000000001
 20
-0.6889000000000001
 30
0.0
 10
-0.74407
 20
-0.7752600000000001
 30
0.0
 10
-0.7745500000000001
 20
-0.7346200000000001
 30
0.0
 10
-0.7745500000000001
 20
-0.7346200000000001
 30
0.0
 10
-0.8609100000000001
 20
-0.37648
 30
0.0
 10
-1.0082300000000002
 20
0.01467
 30
0.0
 10
-0.91171
 20
0.37535
 30
0.0
  0
SPLINE
  5
43
100
AcDbEntity
  8
Ebene 1
100
AcDbSpline
210
0.0
220
0.0
230
1.0
 70
     1
 71
     3
 72
    20
 73
    16
 74
     0
 42
0.0000000001
 43
0.0000000001
 40
0.0
 40
0.0
 40
0.0
 40
0.0
 40
0.25
 40
0.25
 40
0.25
 40
0.25
 40
0.5
 40
0.5
 40
0.5
 40
0.5
 40
0.75
 40
0.75
 40
0.75
 40
0.75
 40
1.0
 40
1.0
 40
1.0
 40
1.0
 10
-0.99299
 20
0.3270900000000001
 30
0.0
 10
-0.9396500000000001
 20
0.21787
 30
0.0
 10
-1.13015
 20
0.11627
 30
0.0
 10
-1.07681
 20
-0.0031
 30
0.0
 10
-1.07681
 20
-0.0031
 30
0.0
 10
-1.08951
 20
-0.01834
 30
0.0
 10
-1.1022100000000001
 20
-0.01834
 30
0.0
 10
-1.1174500000000001
 20
-0.02088
 30
0.0
 10
-1.1174500000000001
 20
-0.02088
 30
0.0
 10
-1.1326900000000002
 20
-0.02088
 30
0.0
 10
-1.16317
 20
0.00197
 30
0.0
 10
-1.16317
 20
0.01721
 30
0.0
 10
-1.16317
 20
0.01721
 30
0.0
 10
-1.16317
 20
0.01721
 30
0.0
 10
-0.99299
 20
0.3270900000000001
 30
0.0
 10
-0.99299
 20
0.3270900000000001
 30
0.0
  0
SPLINE
  5
44
100
AcDbEntity
  8
Ebene 1
 62
     7
100
AcDbSpline
210
0.0
220
0.0
230
1.0
 70
     1
 71
     3
 72
    16
 73
    12
 74
     0
 42
0.0000000001
 43
0.0000000001
 40
0.0
 40
0.0
 40
0.0
 40
0.0
 40
0.3333333333333333
 40
0.3333333333333333
 40
0.3333333333333333
 40
0.3333333333333333
 40
0.6666666666666666
 40
0.6666666666666666
 40
0.6666666666666666
 40
0.6666666666666666
 40
1.0
 40
1.0
 40
1.0
 40
1.0
 10
-2.3112500000000002
 20
0.11373
 30
0.0
 10
-2.2071100000000001
 20
0.06801
 30
0.0
 10
-2.1690100000000001
 20
-0.0539
 30
0.0
 10
-2.2452100000000002
 20
-0.14534
 30
0.0
 10
-2.2452100000000002
 20
-0.14534
 30
0.0
 10
-2.3315700000000001
 20
-0.10978
 30
0.0
 10
-2.39507
 20
-0.21392
 30
0.0
 10
-2.4661900000000001
 20
-0.17836
 30
0.0
 10
-2.4661900000000001
 20
-0.17836
 30
0.0
 10
-2.4484100000000004
 20
-0.06406
 30
0.0
 10
-2.27061
 20
-0.00564
 30
0.0
 10
-2.3112500000000002
 20
0.11373
 30
0.0
  0
SPLINE
  5
45
100
AcDbEntity
  8
Ebene 1
 62
     7
100
AcDbSpline
210
0.0
220
0.0
230
1.0
 70
     1
 71
     3
 72
    12
 73
     8
 74
     0
 42
0.0000000001
 43
0.0000000001
 40
0.0
 40
0.0
 40
0.0
 40
0.0
 40
0.5
 40
0.5
 40
0.5
 40
0.5
 40
1.0
 40
1.0
 40
1.0
 40
1.0
 10
-2.6389100000000001
 20
0.01467
 30
0.0
 10
-2.5576300000000001
 20
0.05023
 30
0.0
 10
-2.4280900000000001
 20
0.01975
 30
0.0
 10
-2.4763500000000001
 20
-0.0793
 30
0.0
 10
-2.4763500000000001
 20
-0.0793
 30
0.0
 10
-2.5322300000000002
 20
-0.08438
 30
0.0
 10
-2.6617700000000002
 20
-0.0539
 30
0.0
 10
-2.6389100000000001
 20
0.01467
 30
0.0
  0
SPLINE
  5
46
100
AcDbEntity
  8
Ebene 1
 62
     7
100
AcDbSpline
210
0.0
220
0.0
230
1.0
 70
     1
 71
     3
 72
    12
 73
     8
 74
     0
 42
0.0000000001
 43
0.0000000001
 40
0.0
 40
0.0
 40
0.0
 40
0.0
 40
0.5
 40
0.5
 40
0.5
 40
0.5
 40
1.0
 40
1.0
 40
1.0
 40
1.0
 10
-3.0249900000000003
 20
-0.05644
 30
0.0
 10
-2.98943
 20
-0.06914
 30
0.0
 10
-2.9157700000000002
 20
-0.08946
 30
0.0
 10
-2.9233900000000004
 20
-0.14788
 30
0.0
 10
-2.9233900000000004
 20
-0.14788
 30
0.0
 10
-2.9843500000000001
 20
-0.22154
 30
0.0
 10
-3.03261
 20
-0.11486
 30
0.0
 10
-3.0249900000000003
 20
-0.05644
 30
0.0
  0
SPLINE
  5
47
100
AcDbEntity
  8
Ebene 1
 62
     7
100
AcDbSpline
210
0.0
220
0.0
230
1.0
 70
     1
 71
     3
 72
    24
 73
    20
 74
     0
 42
0.0000000001
 43
0.0000000001
 40
0.0
 40
0.0
 40
0.0
 40
0.0
 40
0.2
 40
0.2
 40
0.2
 40
0.2
 40
0.4
 40
0.4
 40
0.4
 40
0.4
 40
0.6000000000000001
 40
0.6000000000000001
 40
0.6000000000000001
 40
0.6000000000000001
 40
0.8
 40
0.8
 40
0.8
 40
0.8
 40
1.0
 40
1.0
 40
1.0
 40
1.0
 10
-1.9099300000000001
 20
0.03499
 30
0.0
 10
-1.7676900000000002
 20
0.03499
 30
0.0
 10
-1.8134100000000002
 20
-0.09454
 30
0.0
 10
-1.8769100000000001
 20
-0.1682
 30
0.0
 10
-1.8769100000000001
 20
-0.1682
 30
0.0
 10
-1.8769100000000001
 20
-0.1682
 30
0.0
 10
-1.7905500000000001
 20
-0.19106
 30
0.0
 10
-1.7905500000000001
 20
-0.19106
 30
0.0
 10
-1.7905500000000001
 20
-0.19106
 30
0.0
 10
-1.8311900000000001
 20
-0.38918
 30
0.0
 10
-2.0953500000000003
 20
-0.41204
 30
0.0
 10
-2.2426700000000004
 20
-0.49586
 30
0.0
 10
-2.2426700000000004
 20
-0.49586
 30
0.0
 10
-2.1994900000000004
 20
-0.33838
 30
0.0
 10
-2.0623300000000002
 20
-0.12756
 30
0.0
 10
-1.8819900000000001
 20
-0.12756
 30
0.0
 10
-1.8819900000000001
 20
-0.12756
 30
0.0
 10
-1.8819900000000001
 20
-0.12756
 30
0.0
 10
-1.9099300000000001
 20
0.03499
 30
0.0
 10
-1.9099300000000001
 20
0.03499
 30
0.0
  0
SPLINE
  5
48
100
AcDbEntity
  8
Ebene 1
 62
     7
100
AcDbSpline
210
0.0
220
0.0
230
1.0
 70
     1
 71
     3
 72
    12
 73
     8
 74
     0
 42
0.0000000001
 43
0.0000000001
 40
0.0
 40
0.0
 40
0.0
 40
0.0
 40
0.5
 40
0.5
 40
0.5
 40
0.5
 40
1.0
 40
1.0
 40
1.0
 40
1.0
 10
-2.8141700000000003
 20
-0.0539
 30
0.0
 10
-2.7455900000000004
 20
-0.03358
 30
0.0
 10
-2.6871700000000001
 20
-0.06914
 30
0.0
 10
-2.65415
 20
-0.12248
 30
0.0
 10
-2.65415
 20
-0.12248
 30
0.0
 10
-2.7074900000000004
 20
-0.17074
 30
0.0
 10
-2.8548100000000001
 20
-0.12756
 30
0.0
 10
-2.8141700000000003
 20
-0.0539
 30
0.0
  0
SPLINE
  5
49
100
AcDbEntity
  8
Ebene 1
100
AcDbSpline
210
0.0
220
0.0
230
1.0
 70
     1
 71
     3
 72
    28
 73
    24
 74
     0
 42
0.0000000001
 43
0.0000000001
 40
0.0
 40
0.0
 40
0.0
 40
0.0
 40
0.1666666666666667
 40
0.1666666666666667
 40
0.1666666666666667
 40
0.1666666666666667
 40
0.3333333333333333
 40
0.3333333333333333
 40
0.3333333333333333
 40
0.3333333333333333
 40
0.5
 40
0.5
 40
0.5
 40
0.5
 40
0.6666666666666666
 40
0.6666666666666666
 40
0.6666666666666666
 40
0.6666666666666666
 40
0.8333333333333333
 40
0.8333333333333333
 40
0.8333333333333333
 40
0.8333333333333333
 40
1.0
 40
1.0
 40
1.0
 40
1.0
 10
-1.3511300000000002
 20
0.07055
 30
0.0
 10
-1.2444500000000001
 20
-0.0158
 30
0.0
 10
-1.5314700000000001
 20
-0.25202
 30
0.0
 10
-1.33081
 20
-0.30536
 30
0.0
 10
-1.33081
 20
-0.30536
 30
0.0
 10
-1.5517900000000002
 20
-0.36632
 30
0.0
 10
-1.6229100000000001
 20
-0.6812800000000001
 30
0.0
 10
-1.6889500000000002
 20
-0.88448
 30
0.0
 10
-1.6889500000000002
 20
-0.88448
 30
0.0
 10
-1.0996700000000001
 20
-0.8743200000000001
 30
0.0
 10
-1.12253
 20
-1.6083800000000001
 30
0.0
 10
-1.0133100000000002
 20
-2.0503400000000003
 30
0.0
 10
-1.0133100000000002
 20
-2.0503400000000003
 30
0.0
 10
-1.2825500000000001
 20
-2.1697200000000003
 30
0.0
 10
-1.6051300000000002
 20
-1.8598400000000002
 30
0.0
 10
-1.8845300000000003
 20
-2.05288
 30
0.0
 10
-1.8845300000000003
 20
-2.05288
 30
0.0
 10
-1.9277100000000003
 20
-2.0427200000000001
 30
0.0
 10
-1.9835900000000002
 20
-2.0325600000000001
 30
0.0
 10
-2.0293100000000002
 20
-1.9970000000000001
 30
0.0
 10
-2.0293100000000002
 20
-1.9970000000000001
 30
0.0
 10
-2.02169
 20
-1.2629400000000002
 30
0.0
 10
-1.63053
 20
-0.5974600000000001
 30
0.0
 10
-1.3511300000000002
 20
0.07055
 30
0.0
  0
SPLINE
  5
4A
100
AcDbEntity
  8
Ebene 1
 62
     7
100
AcDbSpline
210
0.0
220
0.0
230
1.0
 70
     1
 71
     3
 72
    20
 73
    16
 74
     0
 42
0.0000000001
 43
0.0000000001
 40
0.0
 40
0.0
 40
0.0
 40
0.0
 40
0.25
 40
0.25
 40
0.25
 40
0.25
 40
0.5
 40
0.5
 40
0.5
 40
0.5
 40
0.75
 40
0.75
 40
0.75
 40
0.75
 40
1.0
 40
1.0
 40
1.0
 40
1.0
 10
0.5183000000000001
 20
0.23057
 30
0.0
 10
0.5183000000000001
 20
0.23057
 30
0.0
 10
0.8129400000000001
 20
0.22803
 30
0.0
 10
0.8129400000000001
 20
0.22803
 30
0.0
 10
0.8129400000000001
 20
0.22803
 30
0.0
 10
0.7545200000000001
 20
0.09595
 30
0.0
 10
0.9678800000000001
 20
-0.09454
 30
0.0
 10
0.7316600000000001
 20
-0.12756
 30
0.0
 10
0.7316600000000001
 20
-0.12756
 30
0.0
 10
0.69864
 20
-0.08692
 30
0.0
 10
0.7748400000000001
 20
-0.00056
 30
0.0
 10
0.6910200000000001
 20
0.01975
 30
0.0
 10
0.6910200000000001
 20
0.01975
 30
0.0
 10
0.5437000000000001
 20
-0.08692
 30
0.0
 10
0.5386200000000001
 20
0.14929
 30
0.0
 10
0.5183000000000001
 20
0.23057
 30
0.0
  0
SPLINE
  5
4B
100
AcDbEntity
  8
Ebene 1
 62
     7
100
AcDbSpline
210
0.0
220
0.0
230
1.0
 70
     1
 71
     3
 72
    24
 73
    20
 74
     0
 42
0.0000000001
 43
0.0000000001
 40
0.0
 40
0.0
 40
0.0
 40
0.0
 40
0.2
 40
0.2
 40
0.2
 40
0.2
 40
0.4
 40
0.4
 40
0.4
 40
0.4
 40
0.6000000000000001
 40
0.6000000000000001
 40
0.6000000000000001
 40
0.6000000000000001
 40
0.8
 40
0.8
 40
0.8
 40
0.8
 40
1.0
 40
1.0
 40
1.0
 40
1.0
 10
0.83072
 20
0.18739
 30
0.0
 10
0.93486
 20
0.12643
 30
0.0
 10
1.0415400000000001
 20
0.00959
 30
0.0
 10
1.0542400000000001
 20
-0.12756
 30
0.0
 10
1.0542400000000001
 20
-0.12756
 30
0.0
 10
1.1990200000000002
 20
-0.18598
 30
0.0
 10
1.1202800000000002
 20
-0.38918
 30
0.0
 10
1.0415400000000001
 20
-0.4806200000000001
 30
0.0
 10
1.0415400000000001
 20
-0.4806200000000001
 30
0.0
 10
0.9704200000000001
 20
-0.4577600000000001
 30
0.0
 10
0.8942200000000001
 20
-0.4095
 30
0.0
 10
0.9018400000000001
 20
-0.32314
 30
0.0
 10
0.9018400000000001
 20
-0.32314
 30
0.0
 10
0.8459600000000001
 20
-0.31552
 30
0.0
 10
0.7977000000000001
 20
-0.26218
 30
0.0
 10
0.7799200000000001
 20
-0.20884
 30
0.0
 10
0.7799200000000001
 20
-0.20884
 30
0.0
 10
0.95518
 20
-0.12248
 30
0.0
 10
0.912
 20
0.05531
 30
0.0
 10
0.83072
 20
0.18739
 30
0.0
  0
SPLINE
  5
4C
100
AcDbEntity
  8
Ebene 1
 62
     7
100
AcDbSpline
210
0.0
220
0.0
230
1.0
 70
     1
 71
     3
 72
    20
 73
    16
 74
     0
 42
0.0000000001
 43
0.0000000001
 40
0.0
 40
0.0
 40
0.0
 40
0.0
 40
0.25
 40
0.25
 40
0.25
 40
0.25
 40
0.5
 40
0.5
 40
0.5
 40
0.5
 40
0.75
 40
0.75
 40
0.75
 40
0.75
 40
1.0
 40
1.0
 40
1.0
 40
1.0
 10
-2.86497
 20
-0.1428
 30
0.0
 10
-2.7913100000000002
 20
-0.16312
 30
0.0
 10
-2.7074900000000004
 20
-0.1555
 30
0.0
 10
-2.6617700000000002
 20
-0.20884
 30
0.0
 10
-2.6617700000000002
 20
-0.20884
 30
0.0
 10
-2.7481300000000002
 20
-0.35616
 30
0.0
 10
-2.9284700000000004
 20
-0.4145800000000001
 30
0.0
 10
-3.0376900000000004
 20
-0.5365000000000001
 30
0.0
 10
-3.0376900000000004
 20
-0.5365000000000001
 30
0.0
 10
-3.0376900000000004
 20
-0.5365000000000001
 30
0.0
 10
-2.9995900000000004
 20
-0.34854
 30
0.0
 10
-2.9995900000000004
 20
-0.34854
 30
0.0
 10
-2.9995900000000004
 20
-0.34854
 30
0.0
 10
-3.0199100000000003
 20
-0.23932
 30
0.0
 10
-2.9005300000000003
 20
-0.22916
 30
0.0
 10
-2.86497
 20
-0.1428
 30
0.0
  0
SPLINE
  5
4D
100
AcDbEntity
  8
Ebene 1
 62
     7
100
AcDbSpline
210
0.0
220
0.0
230
1.0
 70
     1
 71
     3
 72
    20
 73
    16
 74
     0
 42
0.0000000001
 43
0.0000000001
 40
0.0
 40
0.0
 40
0.0
 40
0.0
 40
0.25
 40
0.25
 40
0.25
 40
0.25
 40
0.5
 40
0.5
 40
0.5
 40
0.5
 40
0.75
 40
0.75
 40
0.75
 40
0.75
 40
1.0
 40
1.0
 40
1.0
 40
1.0
 10
-2.3239500000000004
 20
-0.1936
 30
0.0
 10
-2.3239500000000004
 20
-0.1936
 30
0.0
 10
-2.2833100000000002
 20
-0.19106
 30
0.0
 10
-2.2833100000000002
 20
-0.19106
 30
0.0
 10
-2.2833100000000002
 20
-0.19106
 30
0.0
 10
-2.2807700000000004
 20
-0.2317
 30
0.0
 10
-2.31887
 20
-0.27742
 30
0.0
 10
-2.3290300000000004
 20
-0.3206000000000001
 30
0.0
 10
-2.3290300000000004
 20
-0.3206000000000001
 30
0.0
 10
-2.3722100000000004
 20
-0.3104400000000001
 30
0.0
 10
-2.4407900000000002
 20
-0.31552
 30
0.0
 10
-2.4738100000000003
 20
-0.27742
 30
0.0
 10
-2.4738100000000003
 20
-0.27742
 30
0.0
 10
-2.4738100000000003
 20
-0.27742
 30
0.0
 10
-2.3239500000000004
 20
-0.1936
 30
0.0
 10
-2.3239500000000004
 20
-0.1936
 30
0.0
  0
SPLINE
  5
4E
100
AcDbEntity
  8
Ebene 1
100
AcDbSpline
210
0.0
220
0.0
230
1.0
 70
     1
 71
     3
 72
    52
 73
    48
 74
     0
 42
0.0000000001
 43
0.0000000001
 40
0.0
 40
0.0
 40
0.0
 40
0.0
 40
0.0833333333333333
 40
0.0833333333333333
 40
0.0833333333333333
 40
0.0833333333333333
 40
0.1666666666666667
 40
0.1666666666666667
 40
0.1666666666666667
 40
0.1666666666666667
 40
0.25
 40
0.25
 40
0.25
 40
0.25
 40
0.3333333333333333
 40
0.3333333333333333
 40
0.3333333333333333
 40
0.3333333333333333
 40
0.4166666666666666
 40
0.4166666666666666
 40
0.4166666666666666
 40
0.4166666666666666
 40
0.4999999999999999
 40
0.4999999999999999
 40
0.4999999999999999
 40
0.4999999999999999
 40
0.5833333333333333
 40
0.5833333333333333
 40
0.5833333333333333
 40
0.5833333333333333
 40
0.6666666666666666
 40
0.6666666666666666
 40
0.6666666666666666
 40
0.6666666666666666
 40
0.75
 40
0.75
 40
0.75
 40
0.75
 40
0.8333333333333334
 40
0.8333333333333334
 40
0.8333333333333334
 40
0.8333333333333334
 40
0.9166666666666667
 40
0.9166666666666667
 40
0.9166666666666667
 40
0.9166666666666667
 40
1.0
 40
1.0
 40
1.0
 40
1.0
 10
-1.1098300000000001
 20
-0.10216
 30
0.0
 10
-1.0691900000000001
 20
-0.09962
 30
0.0
 10
-1.03871
 20
-0.12502
 30
0.0
 10
-0.99553
 20
-0.13518
 30
0.0
 10
-0.99553
 20
-0.13518
 30
0.0
 10
-1.03617
 20
-0.46284
 30
0.0
 10
-0.63739
 20
-0.8489200000000001
 30
0.0
 10
-0.90917
 20
-1.12578
 30
0.0
 10
-0.90917
 20
-1.12578
 30
0.0
 10
-0.7745500000000001
 20
-1.3950200000000001
 30
0.0
 10
-0.82281
 20
-1.6541000000000001
 30
0.0
 10
-1.0133100000000002
 20
-1.8649200000000001
 30
0.0
 10
-1.0133100000000002
 20
-1.8649200000000001
 30
0.0
 10
-1.0260100000000001
 20
-1.7404600000000001
 30
0.0
 10
-0.8405900000000001
 20
-1.6134600000000001
 30
0.0
 10
-0.91171
 20
-1.4483600000000001
 30
0.0
 10
-0.91171
 20
-1.4483600000000001
 30
0.0
 10
-0.9625100000000001
 20
-1.1715
 30
0.0
 10
-0.9752100000000001
 20
-1.0064000000000002
 30
0.0
 10
-0.9269500000000001
 20
-0.76256
 30
0.0
 10
-0.9269500000000001
 20
-0.76256
 30
0.0
 10
-0.9269500000000001
 20
-0.76256
 30
0.0
 10
-1.08443
 20
-0.3968
 30
0.0
 10
-1.08443
 20
-0.3968
 30
0.0
 10
-1.08443
 20
-0.3968
 30
0.0
 10
-1.1580900000000001
 20
-0.52888
 30
0.0
 10
-1.03617
 20
-0.7981200000000001
 30
0.0
 10
-1.1606300000000001
 20
-0.8108200000000001
 30
0.0
 10
-1.1606300000000001
 20
-0.8108200000000001
 30
0.0
 10
-1.04379
 20
-0.8717800000000001
 30
0.0
 10
-1.0971300000000002
 20
-1.0724400000000001
 30
0.0
 10
-1.0742700000000001
 20
-1.1816600000000002
 30
0.0
 10
-1.0742700000000001
 20
-1.1816600000000002
 30
0.0
 10
-1.1784100000000002
 20
-1.1207
 30
0.0
 10
-1.08443
 20
-0.7346200000000001
 30
0.0
 10
-1.20635
 20
-0.9403600000000001
 30
0.0
 10
-1.20635
 20
-0.9403600000000001
 30
0.0
 10
-1.21143
 20
-0.8997200000000001
 30
0.0
 10
-1.2393700000000001
 20
-0.88702
 30
0.0
 10
-1.2698500000000001
 20
-0.8616200000000001
 30
0.0
 10
-1.2698500000000001
 20
-0.8616200000000001
 30
0.0
 10
-1.2317500000000001
 20
-0.6482600000000001
 30
0.0
 10
-1.0590300000000001
 20
-0.36632
 30
0.0
 10
-1.17079
 20
-0.2063
 30
0.0
 10
-1.17079
 20
-0.2063
 30
0.0
 10
-1.17079
 20
-0.2063
 30
0.0
 10
-1.1098300000000001
 20
-0.10216
 30
0.0
 10
-1.1098300000000001
 20
-0.10216
 30
0.0
  0
SPLINE
  5
4F
100
AcDbEntity
  8
Ebene 1
 62
     7
100
AcDbSpline
210
0.0
220
0.0
230
1.0
 70
     1
 71
     3
 72
    24
 73
    20
 74
     0
 42
0.0000000001
 43
0.0000000001
 40
0.0
 40
0.0
 40
0.0
 40
0.0
 40
0.2
 40
0.2
 40
0.2
 40
0.2
 40
0.4
 40
0.4
 40
0.4
 40
0.4
 40
0.6000000000000001
 40
0.6000000000000001
 40
0.6000000000000001
 40
0.6000000000000001
 40
0.8
 40
0.8
 40
0.8
 40
0.8
 40
1.0
 40
1.0
 40
1.0
 40
1.0
 10
0.31256
 20
0.00197
 30
0.0
 10
0.3659
 20
0.02229
 30
0.0
 10
0.41416
 20
-0.0285
 30
0.0
 10
0.44464
 20
-0.0539
 30
0.0
 10
0.44464
 20
-0.0539
 30
0.0
 10
0.38368
 20
-0.17074
 30
0.0
 10
0.2516000000000001
 20
-0.26726
 30
0.0
 10
0.11698
 20
-0.1936
 30
0.0
 10
0.11698
 20
-0.1936
 30
0.0
 10
0.11698
 20
-0.1936
 30
0.0
 10
0.1119
 20
-0.13772
 30
0.0
 10
0.1119
 20
-0.13772
 30
0.0
 10
0.1119
 20
-0.13772
 30
0.0
 10
0.1119
 20
-0.13772
 30
0.0
 10
0.18048
 20
-0.1047
 30
0.0
 10
0.18048
 20
-0.1047
 30
0.0
 10
0.18048
 20
-0.1047
 30
0.0
 10
0.18048
 20
-0.1047
 30
0.0
 10
0.31256
 20
0.00197
 30
0.0
 10
0.31256
 20
0.00197
 30
0.0
  0
SPLINE
  5
50
100
AcDbEntity
  8
Ebene 1
 62
     7
100
AcDbSpline
210
0.0
220
0.0
230
1.0
 70
     1
 71
     3
 72
    12
 73
     8
 74
     0
 42
0.0000000001
 43
0.0000000001
 40
0.0
 40
0.0
 40
0.0
 40
0.0
 40
0.5
 40
0.5
 40
0.5
 40
0.5
 40
1.0
 40
1.0
 40
1.0
 40
1.0
 10
-2.2096500000000003
 20
-0.22662
 30
0.0
 10
-2.1385300000000003
 20
-0.23424
 30
0.0
 10
-2.2248900000000003
 20
-0.36886
 30
0.0
 10
-2.26553
 20
-0.39934
 30
0.0
 10
-2.26553
 20
-0.39934
 30
0.0
 10
-2.3391900000000003
 20
-0.3637800000000001
 30
0.0
 10
-2.2502900000000001
 20
-0.2571
 30
0.0
 10
-2.2096500000000003
 20
-0.22662
 30
0.0
  0
SPLINE
  5
51
100
AcDbEntity
  8
Ebene 1
 62
     7
100
AcDbSpline
210
0.0
220
0.0
230
1.0
 70
     1
 71
     3
 72
    16
 73
    12
 74
     0
 42
0.0000000001
 43
0.0000000001
 40
0.0
 40
0.0
 40
0.0
 40
0.0
 40
0.3333333333333333
 40
0.3333333333333333
 40
0.3333333333333333
 40
0.3333333333333333
 40
0.6666666666666666
 40
0.6666666666666666
 40
0.6666666666666666
 40
0.6666666666666666
 40
1.0
 40
1.0
 40
1.0
 40
1.0
 10
-0.30973
 20
-0.07676
 30
0.0
 10
-0.30973
 20
-0.07676
 30
0.0
 10
-0.14971
 20
-0.14788
 30
0.0
 10
-0.14971
 20
-0.14788
 30
0.0
 10
-0.14971
 20
-0.14788
 30
0.0
 10
-0.13193
 20
-0.20122
 30
0.0
 10
-0.18273
 20
-0.24948
 30
0.0
 10
-0.21067
 20
-0.27996
 30
0.0
 10
-0.21067
 20
-0.27996
 30
0.0
 10
-0.28179
 20
-0.24186
 30
0.0
 10
-0.27671
 20
-0.1428
 30
0.0
 10
-0.30973
 20
-0.07676
 30
0.0
  0
SPLINE
  5
52
100
AcDbEntity
  8
Ebene 1
 62
     7
100
AcDbSpline
210
0.0
220
0.0
230
1.0
 70
     1
 71
     3
 72
    28
 73
    24
 74
     0
 42
0.0000000001
 43
0.0000000001
 40
0.0
 40
0.0
 40
0.0
 40
0.0
 40
0.1666666666666667
 40
0.1666666666666667
 40
0.1666666666666667
 40
0.1666666666666667
 40
0.3333333333333333
 40
0.3333333333333333
 40
0.3333333333333333
 40
0.3333333333333333
 40
0.5
 40
0.5
 40
0.5
 40
0.5
 40
0.6666666666666666
 40
0.6666666666666666
 40
0.6666666666666666
 40
0.6666666666666666
 40
0.8333333333333333
 40
0.8333333333333333
 40
0.8333333333333333
 40
0.8333333333333333
 40
1.0
 40
1.0
 40
1.0
 40
1.0
 10
-2.61097
 20
-0.31552
 30
0.0
 10
-2.5398500000000004
 20
-0.3104400000000001
 30
0.0
 10
-2.4255500000000003
 20
-0.34346
 30
0.0
 10
-2.3925300000000003
 20
-0.4095
 30
0.0
 10
-2.3925300000000003
 20
-0.4095
 30
0.0
 10
-2.3925300000000003
 20
-0.4095
 30
0.0
 10
-2.5830300000000004
 20
-0.6228600000000001
 30
0.0
 10
-2.5830300000000004
 20
-0.6228600000000001
 30
0.0
 10
-2.5830300000000004
 20
-0.6228600000000001
 30
0.0
 10
-2.5830300000000004
 20
-0.6228600000000001
 30
0.0
 10
-2.9056100000000002
 20
-0.6228600000000001
 30
0.0
 10
-2.9056100000000002
 20
-0.6228600000000001
 30
0.0
 10
-2.9056100000000002
 20
-0.6228600000000001
 30
0.0
 10
-2.9056100000000002
 20
-0.6228600000000001
 30
0.0
 10
-2.8192500000000003
 20
-0.4882400000000001
 30
0.0
 10
-2.8192500000000003
 20
-0.4882400000000001
 30
0.0
 10
-2.8192500000000003
 20
-0.4882400000000001
 30
0.0
 10
-2.7481300000000002
 20
-0.52634
 30
0.0
 10
-2.6770100000000001
 20
-0.33584
 30
0.0
 10
-2.69733
 20
-0.4349
 30
0.0
 10
-2.69733
 20
-0.4349
 30
0.0
 10
-2.6897100000000003
 20
-0.53396
 30
0.0
 10
-2.6211300000000004
 20
-0.3587
 30
0.0
 10
-2.61097
 20
-0.31552
 30
0.0
  0
SPLINE
  5
53
100
AcDbEntity
  8
Ebene 1
 62
     7
100
AcDbSpline
210
0.0
220
0.0
230
1.0
 70
     1
 71
     3
 72
    16
 73
    12
 74
     0
 42
0.0000000001
 43
0.0000000001
 40
0.0
 40
0.0
 40
0.0
 40
0.0
 40
0.3333333333333333
 40
0.3333333333333333
 40
0.3333333333333333
 40
0.3333333333333333
 40
0.6666666666666666
 40
0.6666666666666666
 40
0.6666666666666666
 40
0.6666666666666666
 40
1.0
 40
1.0
 40
1.0
 40
1.0
 10
0.5843400000000001
 20
-0.05644
 30
0.0
 10
0.5843400000000001
 20
-0.05644
 30
0.0
 10
0.6249800000000001
 20
-0.05136
 30
0.0
 10
0.6249800000000001
 20
-0.05136
 30
0.0
 10
0.6249800000000001
 20
-0.05136
 30
0.0
 10
0.72404
 20
-0.19868
 30
0.0
 10
0.531
 20
-0.27234
 30
0.0
 10
0.42686
 20
-0.35108
 30
0.0
 10
0.42686
 20
-0.35108
 30
0.0
 10
0.4192400000000001
 20
-0.25202
 30
0.0
 10
0.53608
 20
-0.14534
 30
0.0
 10
0.5843400000000001
 20
-0.05644
 30
0.0
  0
SPLINE
  5
54
100
AcDbEntity
  8
Ebene 1
 62
     7
100
AcDbSpline
210
0.0
220
0.0
230
1.0
 70
     1
 71
     3
 72
    16
 73
    12
 74
     0
 42
0.0000000001
 43
0.0000000001
 40
0.0
 40
0.0
 40
0.0
 40
0.0
 40
0.3333333333333333
 40
0.3333333333333333
 40
0.3333333333333333
 40
0.3333333333333333
 40
0.6666666666666666
 40
0.6666666666666666
 40
0.6666666666666666
 40
0.6666666666666666
 40
1.0
 40
1.0
 40
1.0
 40
1.0
 10
0.44718
 20
-0.09454
 30
0.0
 10
0.45734
 20
-0.22154
 30
0.0
 10
0.33034
 20
-0.3587
 30
0.0
 10
0.26938
 20
-0.47554
 30
0.0
 10
0.26938
 20
-0.47554
 30
0.0
 10
0.19318
 20
-0.4272800000000001
 30
0.0
 10
0.09412
 20
-0.40696
 30
0.0
 10
0.05856
 20
-0.31298
 30
0.0
 10
0.05856
 20
-0.31298
 30
0.0
 10
0.17794
 20
-0.2317
 30
0.0
 10
0.3786000000000001
 20
-0.29774
 30
0.0
 10
0.44718
 20
-0.09454
 30
0.0
  0
SPLINE
  5
55
100
AcDbEntity
  8
Ebene 1
 62
     7
100
AcDbSpline
210
0.0
220
0.0
230
1.0
 70
     1
 71
     3
 72
    44
 73
    40
 74
     0
 42
0.0000000001
 43
0.0000000001
 40
0.0
 40
0.0
 40
0.0
 40
0.0
 40
0.1
 40
0.1
 40
0.1
 40
0.1
 40
0.2
 40
0.2
 40
0.2
 40
0.2
 40
0.3
 40
0.3
 40
0.3
 40
0.3
 40
0.4
 40
0.4
 40
0.4
 40
0.4
 40
0.5
 40
0.5
 40
0.5
 40
0.5
 40
0.6
 40
0.6
 40
0.6
 40
0.6
 40
0.7
 40
0.7
 40
0.7
 40
0.7
 40
0.7999999999999999
 40
0.7999999999999999
 40
0.7999999999999999
 40
0.7999999999999999
 40
0.8999999999999999
 40
0.8999999999999999
 40
0.8999999999999999
 40
0.8999999999999999
 40
1.0
 40
1.0
 40
1.0
 40
1.0
 10
-0.4926100000000001
 20
-0.24694
 30
0.0
 10
-0.4926100000000001
 20
-0.24694
 30
0.0
 10
-0.41387
 20
-0.33838
 30
0.0
 10
-0.41387
 20
-0.33838
 30
0.0
 10
-0.41387
 20
-0.33838
 30
0.0
 10
-0.41387
 20
-0.33838
 30
0.0
 10
-0.38339
 20
-0.3637800000000001
 30
0.0
 10
-0.38339
 20
-0.3637800000000001
 30
0.0
 10
-0.38339
 20
-0.3637800000000001
 30
0.0
 10
-0.36053
 20
-0.16566
 30
0.0
 10
-0.20051
 20
-0.37648
 30
0.0
 10
-0.35037
 20
-0.43236
 30
0.0
 10
-0.35037
 20
-0.43236
 30
0.0
 10
-0.35037
 20
-0.43236
 30
0.0
 10
-0.37323
 20
-0.4882400000000001
 30
0.0
 10
-0.37323
 20
-0.4882400000000001
 30
0.0
 10
-0.37323
 20
-0.4882400000000001
 30
0.0
 10
-0.30719
 20
-0.6254000000000001
 30
0.0
 10
-0.25385
 20
-0.4222
 30
0.0
 10
-0.19289
 20
-0.4603
 30
0.0
 10
-0.19289
 20
-0.4603
 30
0.0
 10
-0.09891
 20
-0.5796800000000001
 30
0.0
 10
-0.18781
 20
-0.36124
 30
0.0
 10
-0.13447
 20
-0.32822
 30
0.0
 10
-0.13447
 20
-0.32822
 30
0.0
 10
-0.02017
 20
-0.1936
 30
0.0
 10
0.03062
 20
-0.48316
 30
0.0
 10
0.17286
 20
-0.4984000000000001
 30
0.0
 10
0.17286
 20
-0.4984000000000001
 30
0.0
 10
0.17286
 20
-0.4984000000000001
 30
0.0
 10
0.1754
 20
-0.5415800000000001
 30
0.0
 10
0.1754
 20
-0.5415800000000001
 30
0.0
 10
0.1754
 20
-0.5415800000000001
 30
0.0
 10
0.0611
 20
-0.6762
 30
0.0
 10
-0.05319
 20
-0.61778
 30
0.0
 10
-0.18527
 20
-0.5593600000000001
 30
0.0
 10
-0.18527
 20
-0.5593600000000001
 30
0.0
 10
-0.39101
 20
-0.63048
 30
0.0
 10
-0.4926100000000001
 20
-0.4145800000000001
 30
0.0
 10
-0.4926100000000001
 20
-0.24694
 30
0.0
  0
SPLINE
  5
56
100
AcDbEntity
  8
Ebene 1
 62
     7
100
AcDbSpline
210
0.0
220
0.0
230
1.0
 70
     1
 71
     3
 72
    16
 73
    12
 74
     0
 42
0.0000000001
 43
0.0000000001
 40
0.0
 40
0.0
 40
0.0
 40
0.0
 40
0.3333333333333333
 40
0.3333333333333333
 40
0.3333333333333333
 40
0.3333333333333333
 40
0.6666666666666666
 40
0.6666666666666666
 40
0.6666666666666666
 40
0.6666666666666666
 40
1.0
 40
1.0
 40
1.0
 40
1.0
 10
-2.3315700000000001
 20
-0.4476000000000001
 30
0.0
 10
-2.3315700000000001
 20
-0.4476000000000001
 30
0.0
 10
-2.3036300000000001
 20
-0.44506
 30
0.0
 10
-2.3036300000000001
 20
-0.44506
 30
0.0
 10
-2.3036300000000001
 20
-0.44506
 30
0.0
 10
-2.30871
 20
-0.5441200000000001
 30
0.0
 10
-2.44333
 20
-0.6127
 30
0.0
 10
-2.5144500000000001
 20
-0.58984
 30
0.0
 10
-2.5144500000000001
 20
-0.58984
 30
0.0
 10
-2.4636500000000003
 20
-0.5415800000000001
 30
0.0
 10
-2.3671300000000004
 20
-0.5212600000000001
 30
0.0
 10
-2.3315700000000001
 20
-0.4476000000000001
 30
0.0
  0
SPLINE
  5
57
100
AcDbEntity
  8
Ebene 1
 62
     7
100
AcDbSpline
210
0.0
220
0.0
230
1.0
 70
     1
 71
     3
 72
    36
 73
    32
 74
     0
 42
0.0000000001
 43
0.0000000001
 40
0.0
 40
0.0
 40
0.0
 40
0.0
 40
0.125
 40
0.125
 40
0.125
 40
0.125
 40
0.25
 40
0.25
 40
0.25
 40
0.25
 40
0.375
 40
0.375
 40
0.375
 40
0.375
 40
0.5
 40
0.5
 40
0.5
 40
0.5
 40
0.625
 40
0.625
 40
0.625
 40
0.625
 40
0.75
 40
0.75
 40
0.75
 40
0.75
 40
0.875
 40
0.875
 40
0.875
 40
0.875
 40
1.0
 40
1.0
 40
1.0
 40
1.0
 10
0.6707000000000001
 20
-0.25964
 30
0.0
 10
0.74182
 20
-0.23932
 30
0.0
 10
0.8027800000000001
 20
-0.31806
 30
0.0
 10
0.7519800000000001
 20
-0.3637800000000001
 30
0.0
 10
0.7519800000000001
 20
-0.3637800000000001
 30
0.0
 10
0.7494400000000001
 20
-0.4476000000000001
 30
0.0
 10
0.8231000000000001
 20
-0.36632
 30
0.0
 10
0.8459600000000001
 20
-0.3841000000000001
 30
0.0
 10
0.8459600000000001
 20
-0.3841000000000001
 30
0.0
 10
0.8993000000000001
 20
-0.4222
 30
0.0
 10
0.9297800000000001
 20
-0.50856
 30
0.0
 10
1.01614
 20
-0.5111
 30
0.0
 10
1.01614
 20
-0.5111
 30
0.0
 10
1.0263
 20
-0.6076200000000001
 30
0.0
 10
0.8739000000000001
 20
-0.6482600000000001
 30
0.0
 10
0.8815200000000001
 20
-0.7473200000000001
 30
0.0
 10
0.8815200000000001
 20
-0.7473200000000001
 30
0.0
 10
0.9475600000000001
 20
-0.6863600000000001
 30
0.0
 10
1.14822
 20
-0.56952
 30
0.0
 10
1.1634600000000002
 20
-0.73716
 30
0.0
 10
1.1634600000000002
 20
-0.73716
 30
0.0
 10
1.02122
 20
-0.88956
 30
0.0
 10
0.8459600000000001
 20
-0.9886200000000001
 30
0.0
 10
0.6453000000000001
 20
-0.9225800000000001
 30
0.0
 10
0.6453000000000001
 20
-0.9225800000000001
 30
0.0
 10
0.6199
 20
-0.7981200000000001
 30
0.0
 10
0.5818000000000001
 20
-0.67366
 30
0.0
 10
0.5030600000000001
 20
-0.56952
 30
0.0
 10
0.5030600000000001
 20
-0.56952
 30
0.0
 10
0.5056000000000001
 20
-0.44252
 30
0.0
 10
0.5640200000000001
 20
-0.3104400000000001
 30
0.0
 10
0.6707000000000001
 20
-0.25964
 30
0.0
  0
SPLINE
  5
58
100
AcDbEntity
  8
Ebene 1
 62
     7
100
AcDbSpline
210
0.0
220
0.0
230
1.0
 70
     1
 71
     3
 72
    28
 73
    24
 74
     0
 42
0.0000000001
 43
0.0000000001
 40
0.0
 40
0.0
 40
0.0
 40
0.0
 40
0.1666666666666667
 40
0.1666666666666667
 40
0.1666666666666667
 40
0.1666666666666667
 40
0.3333333333333333
 40
0.3333333333333333
 40
0.3333333333333333
 40
0.3333333333333333
 40
0.5
 40
0.5
 40
0.5
 40
0.5
 40
0.6666666666666666
 40
0.6666666666666666
 40
0.6666666666666666
 40
0.6666666666666666
 40
0.8333333333333333
 40
0.8333333333333333
 40
0.8333333333333333
 40
0.8333333333333333
 40
1.0
 40
1.0
 40
1.0
 40
1.0
 10
0.4319400000000001
 20
-0.40696
 30
0.0
 10
0.45734
 20
-0.38918
 30
0.0
 10
0.4624200000000001
 20
-0.43236
 30
0.0
 10
0.4624200000000001
 20
-0.44506
 30
0.0
 10
0.4624200000000001
 20
-0.44506
 30
0.0
 10
0.38114
 20
-0.6228600000000001
 30
0.0
 10
0.64276
 20
-0.7244600000000001
 30
0.0
 10
0.5462400000000001
 20
-0.9022600000000001
 30
0.0
 10
0.5462400000000001
 20
-0.9022600000000001
 30
0.0
 10
0.47512
 20
-0.9225800000000001
 30
0.0
 10
0.277
 20
-0.8971800000000001
 30
0.0
 10
0.39638
 20
-0.8159000000000001
 30
0.0
 10
0.39638
 20
-0.8159000000000001
 30
0.0
 10
0.39638
 20
-0.8159000000000001
 30
0.0
 10
0.3532
 20
-0.7930400000000001
 30
0.0
 10
0.3532
 20
-0.7930400000000001
 30
0.0
 10
0.3532
 20
-0.7930400000000001
 30
0.0
 10
0.38622
 20
-0.6914400000000001
 30
0.0
 10
0.404
 20
-0.5771400000000001
 30
0.0
 10
0.3659
 20
-0.4679200000000001
 30
0.0
 10
0.3659
 20
-0.4679200000000001
 30
0.0
 10
0.3659
 20
-0.4679200000000001
 30
0.0
 10
0.4319400000000001
 20
-0.40696
 30
0.0
 10
0.4319400000000001
 20
-0.40696
 30
0.0
  0
SPLINE
  5
59
100
AcDbEntity
  8
Ebene 1
 62
     7
100
AcDbSpline
210
0.0
220
0.0
230
1.0
 70
     1
 71
     3
 72
    16
 73
    12
 74
     0
 42
0.0000000001
 43
0.0000000001
 40
0.0
 40
0.0
 40
0.0
 40
0.0
 40
0.3333333333333333
 40
0.3333333333333333
 40
0.3333333333333333
 40
0.3333333333333333
 40
0.6666666666666666
 40
0.6666666666666666
 40
0.6666666666666666
 40
0.6666666666666666
 40
1.0
 40
1.0
 40
1.0
 40
1.0
 10
0.23382
 20
-0.5492
 30
0.0
 10
0.45734
 20
-0.5441200000000001
 30
0.0
 10
0.26684
 20
-0.7727200000000001
 30
0.0
 10
0.2897
 20
-0.8692400000000001
 30
0.0
 10
0.2897
 20
-0.8692400000000001
 30
0.0
 10
0.20334
 20
-0.84638
 30
0.0
 10
0.09666
 20
-0.7727200000000001
 30
0.0
 10
0.0611
 20
-0.6914400000000001
 30
0.0
 10
0.0611
 20
-0.6914400000000001
 30
0.0
 10
0.0611
 20
-0.6914400000000001
 30
0.0
 10
0.23382
 20
-0.5492
 30
0.0
 10
0.23382
 20
-0.5492
 30
0.0
  0
SPLINE
  5
5A
100
AcDbEntity
  8
Ebene 1
 62
     7
100
AcDbSpline
210
0.0
220
0.0
230
1.0
 70
     1
 71
     3
 72
    16
 73
    12
 74
     0
 42
0.0000000001
 43
0.0000000001
 40
0.0
 40
0.0
 40
0.0
 40
0.0
 40
0.3333333333333333
 40
0.3333333333333333
 40
0.3333333333333333
 40
0.3333333333333333
 40
0.6666666666666666
 40
0.6666666666666666
 40
0.6666666666666666
 40
0.6666666666666666
 40
1.0
 40
1.0
 40
1.0
 40
1.0
 10
-3.5964900000000002
 20
-1.11816
 30
0.0
 10
-3.5964900000000002
 20
-1.11816
 30
0.0
 10
-3.5710900000000003
 20
-1.1156200000000001
 30
0.0
 10
-3.5710900000000003
 20
-1.1156200000000001
 30
0.0
 10
-3.5710900000000003
 20
-1.1156200000000001
 30
0.0
 10
-3.5710900000000003
 20
-1.1156200000000001
 30
0.0
 10
-3.3729700000000005
 20
-1.2807200000000001
 30
0.0
 10
-3.3729700000000005
 20
-1.2807200000000001
 30
0.0
 10
-3.3729700000000005
 20
-1.2807200000000001
 30
0.0
 10
-3.4542500000000005
 20
-1.2731000000000001
 30
0.0
 10
-3.5863300000000002
 20
-1.2172200000000002
 30
0.0
 10
-3.5964900000000002
 20
-1.11816
 30
0.0
  0
SPLINE
  5
5B
100
AcDbEntity
  8
Ebene 1
100
AcDbSpline
210
0.0
220
0.0
230
1.0
 70
     1
 71
     3
 72
    32
 73
    28
 74
     0
 42
0.0000000001
 43
0.0000000001
 40
0.0
 40
0.0
 40
0.0
 40
0.0
 40
0.1428571428571429
 40
0.1428571428571429
 40
0.1428571428571429
 40
0.1428571428571429
 40
0.2857142857142857
 40
0.2857142857142857
 40
0.2857142857142857
 40
0.2857142857142857
 40
0.4285714285714286
 40
0.4285714285714286
 40
0.4285714285714286
 40
0.4285714285714286
 40
0.5714285714285714
 40
0.5714285714285714
 40
0.5714285714285714
 40
0.5714285714285714
 40
0.7142857142857142
 40
0.7142857142857142
 40
0.7142857142857142
 40
0.7142857142857142
 40
0.857142857142857
 40
0.857142857142857
 40
0.857142857142857
 40
0.857142857142857
 40
1.0
 40
1.0
 40
1.0
 40
1.0
 10
-2.3798300000000001
 20
-1.1969000000000001
 30
0.0
 10
-2.3798300000000001
 20
-1.1969000000000001
 30
0.0
 10
-2.3925300000000003
 20
-1.21214
 30
0.0
 10
-2.3925300000000003
 20
-1.21214
 30
0.0
 10
-2.3925300000000003
 20
-1.21214
 30
0.0
 10
-2.3925300000000003
 20
-1.21214
 30
0.0
 10
-2.5093700000000001
 20
-1.3213600000000001
 30
0.0
 10
-2.5093700000000001
 20
-1.3213600000000001
 30
0.0
 10
-2.5093700000000001
 20
-1.3213600000000001
 30
0.0
 10
-2.51953
 20
-1.3645400000000001
 30
0.0
 10
-2.5500100000000003
 20
-1.3391400000000002
 30
0.0
 10
-2.5652500000000003
 20
-1.3264400000000001
 30
0.0
 10
-2.5652500000000003
 20
-1.3264400000000001
 30
0.0
 10
-2.52969
 20
-1.25278
 30
0.0
 10
-2.4636500000000003
 20
-1.1918200000000001
 30
0.0
 10
-2.40015
 20
-1.1435600000000001
 30
0.0
 10
-2.40015
 20
-1.1435600000000001
 30
0.0
 10
-2.40523
 20
-1.0597400000000001
 30
0.0
 10
-2.3391900000000003
 20
-1.0114800000000002
 30
0.0
 10
-2.27061
 20
-0.99116
 30
0.0
 10
-2.27061
 20
-0.99116
 30
0.0
 10
-2.2528300000000003
 20
-1.0318000000000001
 30
0.0
 10
-2.2960100000000003
 20
-1.0495800000000002
 30
0.0
 10
-2.3061700000000003
 20
-1.07752
 30
0.0
 10
-2.3061700000000003
 20
-1.07752
 30
0.0
 10
-2.3061700000000003
 20
-1.07752
 30
0.0
 10
-2.3798300000000001
 20
-1.1969000000000001
 30
0.0
 10
-2.3798300000000001
 20
-1.1969000000000001
 30
0.0
  0
SPLINE
  5
5C
100
AcDbEntity
  8
Ebene 1
100
AcDbSpline
210
0.0
220
0.0
230
1.0
 70
     1
 71
     3
 72
    12
 73
     8
 74
     0
 42
0.0000000001
 43
0.0000000001
 40
0.0
 40
0.0
 40
0.0
 40
0.0
 40
0.5
 40
0.5
 40
0.5
 40
0.5
 40
1.0
 40
1.0
 40
1.0
 40
1.0
 10
-0.5637300000000001
 20
-1.0673600000000001
 30
0.0
 10
-0.40879
 20
-1.4026400000000001
 30
0.0
 10
-0.28433
 20
-1.9665200000000003
 30
0.0
 10
-0.41387
 20
-1.9843000000000002
 30
0.0
 10
-0.41387
 20
-1.9843000000000002
 30
0.0
 10
-0.41133
 20
-1.6871200000000002
 30
0.0
 10
-0.59421
 20
-1.3670800000000001
 30
0.0
 10
-0.5637300000000001
 20
-1.0673600000000001
 30
0.0
  0
SPLINE
  5
5D
100
AcDbEntity
  8
Ebene 1
100
AcDbSpline
210
0.0
220
0.0
230
1.0
 70
     1
 71
     3
 72
    16
 73
    12
 74
     0
 42
0.0000000001
 43
0.0000000001
 40
0.0
 40
0.0
 40
0.0
 40
0.0
 40
0.3333333333333333
 40
0.3333333333333333
 40
0.3333333333333333
 40
0.3333333333333333
 40
0.6666666666666666
 40
0.6666666666666666
 40
0.6666666666666666
 40
0.6666666666666666
 40
1.0
 40
1.0
 40
1.0
 40
1.0
 10
-0.47483
 20
-1.1029200000000001
 30
0.0
 10
-0.39101
 20
-1.1105400000000001
 30
0.0
 10
-0.33005
 20
-1.1740400000000002
 30
0.0
 10
-0.24115
 20
-1.2248400000000002
 30
0.0
 10
-0.24115
 20
-1.2248400000000002
 30
0.0
 10
-0.05319
 20
-1.6185400000000001
 30
0.0
 10
0.19318
 20
-2.2510000000000003
 30
0.0
 10
0.01792
 20
-2.2967200000000001
 30
0.0
 10
0.01792
 20
-2.2967200000000001
 30
0.0
 10
0.0484
 20
-1.8446000000000002
 30
0.0
 10
-0.26147
 20
-1.4788400000000002
 30
0.0
 10
-0.47483
 20
-1.1029200000000001
 30
0.0
  0
SPLINE
  5
5E
100
AcDbEntity
  8
Ebene 1
 62
     7
100
AcDbSpline
210
0.0
220
0.0
230
1.0
 70
     1
 71
     3
 72
    20
 73
    16
 74
     0
 42
0.0000000001
 43
0.0000000001
 40
0.0
 40
0.0
 40
0.0
 40
0.0
 40
0.25
 40
0.25
 40
0.25
 40
0.25
 40
0.5
 40
0.5
 40
0.5
 40
0.5
 40
0.75
 40
0.75
 40
0.75
 40
0.75
 40
1.0
 40
1.0
 40
1.0
 40
1.0
 10
-1.54925
 20
-1.2223000000000002
 30
0.0
 10
-1.3104900000000002
 20
-1.7709400000000002
 30
0.0
 10
-1.75499
 20
-1.5550400000000002
 30
0.0
 10
-1.4425700000000001
 20
-1.9716000000000002
 30
0.0
 10
-1.4425700000000001
 20
-1.9716000000000002
 30
0.0
 10
-1.5644900000000002
 20
-2.0122400000000003
 30
0.0
 10
-1.6152900000000001
 20
-1.9030200000000002
 30
0.0
 10
-1.7397500000000001
 20
-1.9284200000000002
 30
0.0
 10
-1.7397500000000001
 20
-1.9284200000000002
 30
0.0
 10
-1.7397500000000001
 20
-1.9284200000000002
 30
0.0
 10
-1.6940300000000001
 20
-1.8115800000000002
 30
0.0
 10
-1.6940300000000001
 20
-1.8115800000000002
 30
0.0
 10
-1.6940300000000001
 20
-1.8115800000000002
 30
0.0
 10
-1.6762500000000002
 20
-1.5067800000000002
 30
0.0
 10
-1.6686300000000001
 20
-1.6185400000000001
 30
0.0
 10
-1.54925
 20
-1.2223000000000002
 30
0.0
  0
SPLINE
  5
5F
100
AcDbEntity
  8
Ebene 1
 62
     7
100
AcDbSpline
210
0.0
220
0.0
230
1.0
 70
     1
 71
     3
 72
    20
 73
    16
 74
     0
 42
0.0000000001
 43
0.0000000001
 40
0.0
 40
0.0
 40
0.0
 40
0.0
 40
0.25
 40
0.25
 40
0.25
 40
0.25
 40
0.5
 40
0.5
 40
0.5
 40
0.5
 40
0.75
 40
0.75
 40
0.75
 40
0.75
 40
1.0
 40
1.0
 40
1.0
 40
1.0
 10
-2.4890500000000002
 20
-1.54488
 30
0.0
 10
-2.4763500000000001
 20
-1.54234
 30
0.0
 10
-2.4611100000000001
 20
-1.5550400000000002
 30
0.0
 10
-2.4611100000000001
 20
-1.5677400000000001
 30
0.0
 10
-2.4611100000000001
 20
-1.5677400000000001
 30
0.0
 10
-2.5220700000000003
 20
-1.8420600000000003
 30
0.0
 10
-2.56779
 20
-2.1265400000000003
 30
0.0
 10
-2.57287
 20
-2.39324
 30
0.0
 10
-2.57287
 20
-2.39324
 30
0.0
 10
-2.5855700000000001
 20
-2.4084800000000004
 30
0.0
 10
-2.5957300000000001
 20
-2.4389600000000002
 30
0.0
 10
-2.6236700000000002
 20
-2.4542000000000002
 30
0.0
 10
-2.6236700000000002
 20
-2.4542000000000002
 30
0.0
 10
-2.6465300000000003
 20
-2.1621000000000001
 30
0.0
 10
-2.5347700000000004
 20
-1.8420600000000003
 30
0.0
 10
-2.4890500000000002
 20
-1.54488
 30
0.0
  0
SPLINE
  5
60
100
AcDbEntity
  8
Ebene 1
100
AcDbSpline
210
0.0
220
0.0
230
1.0
 70
     1
 71
     3
 72
    28
 73
    24
 74
     0
 42
0.0000000001
 43
0.0000000001
 40
0.0
 40
0.0
 40
0.0
 40
0.0
 40
0.1666666666666667
 40
0.1666666666666667
 40
0.1666666666666667
 40
0.1666666666666667
 40
0.3333333333333333
 40
0.3333333333333333
 40
0.3333333333333333
 40
0.3333333333333333
 40
0.5
 40
0.5
 40
0.5
 40
0.5
 40
0.6666666666666666
 40
0.6666666666666666
 40
0.6666666666666666
 40
0.6666666666666666
 40
0.8333333333333333
 40
0.8333333333333333
 40
0.8333333333333333
 40
0.8333333333333333
 40
1.0
 40
1.0
 40
1.0
 40
1.0
 10
1.1660000000000001
 20
-1.2553200000000002
 30
0.0
 10
1.19394
 20
-1.2553200000000002
 30
0.0
 10
1.2218800000000001
 20
-1.25278
 30
0.0
 10
1.23712
 20
-1.2654800000000002
 30
0.0
 10
1.23712
 20
-1.2654800000000002
 30
0.0
 10
1.3666600000000002
 20
-1.1562600000000001
 30
0.0
 10
1.4174600000000002
 20
-1.41788
 30
0.0
 10
1.5393800000000002
 20
-1.3518400000000002
 30
0.0
 10
1.5393800000000002
 20
-1.3518400000000002
 30
0.0
 10
1.6867000000000001
 20
-1.2832600000000001
 30
0.0
 10
1.5901800000000001
 20
-1.6287
 30
0.0
 10
1.4454
 20
-1.5702800000000001
 30
0.0
 10
1.4454
 20
-1.5702800000000001
 30
0.0
 10
1.4327000000000001
 20
-1.5982200000000002
 30
0.0
 10
1.40476
 20
-1.6007600000000002
 30
0.0
 10
1.3768200000000002
 20
-1.6033000000000002
 30
0.0
 10
1.3768200000000002
 20
-1.6033000000000002
 30
0.0
 10
1.27522
 20
-1.4026400000000001
 30
0.0
 10
1.0390000000000001
 20
-1.4229600000000002
 30
0.0
 10
0.8662800000000001
 20
-1.3823200000000002
 30
0.0
 10
0.8662800000000001
 20
-1.3823200000000002
 30
0.0
 10
0.9272400000000001
 20
-1.25024
 30
0.0
 10
1.0898000000000001
 20
-1.3620000000000001
 30
0.0
 10
1.1660000000000001
 20
-1.2553200000000002
 30
0.0
  0
SPLINE
  5
61
100
AcDbEntity
  8
Ebene 1
 62
     7
100
AcDbSpline
210
0.0
220
0.0
230
1.0
 70
     1
 71
     3
 72
    12
 73
     8
 74
     0
 42
0.0000000001
 43
0.0000000001
 40
0.0
 40
0.0
 40
0.0
 40
0.0
 40
0.5
 40
0.5
 40
0.5
 40
0.5
 40
1.0
 40
1.0
 40
1.0
 40
1.0
 10
0.31256
 20
-1.8090400000000002
 30
0.0
 10
0.41416
 20
-1.8420600000000003
 30
0.0
 10
0.41162
 20
-1.9817600000000002
 30
0.0
 10
0.3913
 20
-2.06812
 30
0.0
 10
0.3913
 20
-2.06812
 30
0.0
 10
0.3557400000000001
 20
-1.9868400000000002
 30
0.0
 10
0.3354200000000001
 20
-1.8903200000000002
 30
0.0
 10
0.31256
 20
-1.8090400000000002
 30
0.0
  0
SPLINE
  5
62
100
AcDbEntity
  8
Ebene 1
 62
     7
100
AcDbSpline
210
0.0
220
0.0
230
1.0
 70
     1
 71
     3
 72
    24
 73
    20
 74
     0
 42
0.0000000001
 43
0.0000000001
 40
0.0
 40
0.0
 40
0.0
 40
0.0
 40
0.2
 40
0.2
 40
0.2
 40
0.2
 40
0.4
 40
0.4
 40
0.4
 40
0.4
 40
0.6000000000000001
 40
0.6000000000000001
 40
0.6000000000000001
 40
0.6000000000000001
 40
0.8
 40
0.8
 40
0.8
 40
0.8
 40
1.0
 40
1.0
 40
1.0
 40
1.0
 10
0.28208
 20
-1.9385800000000002
 30
0.0
 10
0.33796
 20
-1.9462000000000002
 30
0.0
 10
0.31764
 20
-2.0325600000000001
 30
0.0
 10
0.3354200000000001
 20
-2.0732000000000004
 30
0.0
 10
0.3354200000000001
 20
-2.0732000000000004
 30
0.0
 10
0.4497200000000001
 20
-2.0782800000000003
 30
0.0
 10
0.4624200000000001
 20
-2.2459200000000004
 30
0.0
 10
0.5640200000000001
 20
-2.27894
 30
0.0
 10
0.5640200000000001
 20
-2.27894
 30
0.0
 10
0.5259200000000001
 20
-2.3246600000000002
 30
0.0
 10
0.45734
 20
-2.3297400000000001
 30
0.0
 10
0.40146
 20
-2.3475200000000003
 30
0.0
 10
0.40146
 20
-2.3475200000000003
 30
0.0
 10
0.39384
 20
-2.4059400000000002
 30
0.0
 10
0.4827400000000001
 20
-2.4669000000000003
 30
0.0
 10
0.38368
 20
-2.4770600000000003
 30
0.0
 10
0.38368
 20
-2.4770600000000003
 30
0.0
 10
0.23128
 20
-2.3348200000000001
 30
0.0
 10
0.28462
 20
-2.1341600000000001
 30
0.0
 10
0.28208
 20
-1.9385800000000002
 30
0.0
  0
SPLINE
  5
63
100
AcDbEntity
  8
Ebene 1
 62
     7
100
AcDbSpline
210
0.0
220
0.0
230
1.0
 70
     1
 71
     3
 72
    36
 73
    32
 74
     0
 42
0.0000000001
 43
0.0000000001
 40
0.0
 40
0.0
 40
0.0
 40
0.0
 40
0.125
 40
0.125
 40
0.125
 40
0.125
 40
0.25
 40
0.25
 40
0.25
 40
0.25
 40
0.375
 40
0.375
 40
0.375
 40
0.375
 40
0.5
 40
0.5
 40
0.5
 40
0.5
 40
0.625
 40
0.625
 40
0.625
 40
0.625
 40
0.75
 40
0.75
 40
0.75
 40
0.75
 40
0.875
 40
0.875
 40
0.875
 40
0.875
 40
1.0
 40
1.0
 40
1.0
 40
1.0
 10
0.91454
 20
-2.2484600000000001
 30
0.0
 10
0.9856600000000001
 20
-2.26878
 30
0.0
 10
0.8967600000000001
 20
-2.3780000000000001
 30
0.0
 10
0.9297800000000001
 20
-2.4288000000000003
 30
0.0
 10
0.9297800000000001
 20
-2.4288000000000003
 30
0.0
 10
0.9602600000000001
 20
-2.4694400000000001
 30
0.0
 10
0.9628000000000001
 20
-2.5126200000000001
 30
0.0
 10
1.0085200000000001
 20
-2.5481800000000003
 30
0.0
 10
1.0085200000000001
 20
-2.5481800000000003
 30
0.0
 10
0.9018400000000001
 20
-2.9088600000000002
 30
0.0
 10
0.6478400000000001
 20
-3.2517600000000004
 30
0.0
 10
0.5005200000000001
 20
-3.3381200000000004
 30
0.0
 10
0.5005200000000001
 20
-3.3381200000000004
 30
0.0
 10
0.6757800000000001
 20
-3.0841200000000004
 30
0.0
 10
0.70372
 20
-2.7590000000000003
 30
0.0
 10
0.6935600000000001
 20
-2.4643600000000001
 30
0.0
 10
0.6935600000000001
 20
-2.4643600000000001
 30
0.0
 10
0.70372
 20
-2.4338800000000003
 30
0.0
 10
0.7367400000000001
 20
-2.4745200000000001
 30
0.0
 10
0.7494400000000001
 20
-2.4745200000000001
 30
0.0
 10
0.7494400000000001
 20
-2.4745200000000001
 30
0.0
 10
0.7494400000000001
 20
-2.4745200000000001
 30
0.0
 10
0.78754
 20
-2.4262600000000001
 30
0.0
 10
0.78754
 20
-2.4262600000000001
 30
0.0
 10
0.78754
 20
-2.4262600000000001
 30
0.0
 10
0.9399400000000001
 20
-2.5558000000000001
 30
0.0
 10
0.7164200000000001
 20
-2.7564600000000001
 30
0.0
 10
0.7723000000000001
 20
-2.8936200000000003
 30
0.0
 10
0.7723000000000001
 20
-2.8936200000000003
 30
0.0
 10
0.95518
 20
-2.7361400000000002
 30
0.0
 10
0.83072
 20
-2.4389600000000002
 30
0.0
 10
0.91454
 20
-2.2484600000000001
 30
0.0
  0
SPLINE
  5
64
100
AcDbEntity
  8
Ebene 1
 62
     7
100
AcDbSpline
210
0.0
220
0.0
230
1.0
 70
     1
 71
     3
 72
    12
 73
     8
 74
     0
 42
0.0000000001
 43
0.0000000001
 40
0.0
 40
0.0
 40
0.0
 40
0.0
 40
0.5
 40
0.5
 40
0.5
 40
0.5
 40
1.0
 40
1.0
 40
1.0
 40
1.0
 10
0.53608
 20
-2.4338800000000003
 30
0.0
 10
0.6046600000000001
 20
-2.4288000000000003
 30
0.0
 10
0.57164
 20
-2.5177
 30
0.0
 10
0.5462400000000001
 20
-2.5481800000000003
 30
0.0
 10
0.5462400000000001
 20
-2.5481800000000003
 30
0.0
 10
0.48782
 20
-2.5380200000000004
 30
0.0
 10
0.51068
 20
-2.4643600000000001
 30
0.0
 10
0.53608
 20
-2.4338800000000003
 30
0.0
  0
SPLINE
  5
65
100
AcDbEntity
  8
Ebene 1
 62
     7
100
AcDbSpline
210
0.0
220
0.0
230
1.0
 70
     1
 71
     3
 72
    28
 73
    24
 74
     0
 42
0.0000000001
 43
0.0000000001
 40
0.0
 40
0.0
 40
0.0
 40
0.0
 40
0.1666666666666667
 40
0.1666666666666667
 40
0.1666666666666667
 40
0.1666666666666667
 40
0.3333333333333333
 40
0.3333333333333333
 40
0.3333333333333333
 40
0.3333333333333333
 40
0.5
 40
0.5
 40
0.5
 40
0.5
 40
0.6666666666666666
 40
0.6666666666666666
 40
0.6666666666666666
 40
0.6666666666666666
 40
0.8333333333333333
 40
0.8333333333333333
 40
0.8333333333333333
 40
0.8333333333333333
 40
1.0
 40
1.0
 40
1.0
 40
1.0
 10
-2.4585700000000004
 20
-2.7361400000000002
 30
0.0
 10
-2.4585700000000004
 20
-2.7361400000000002
 30
0.0
 10
-2.4153900000000004
 20
-2.7310600000000003
 30
0.0
 10
-2.4153900000000004
 20
-2.7310600000000003
 30
0.0
 10
-2.4153900000000004
 20
-2.7310600000000003
 30
0.0
 10
-2.4204700000000003
 20
-2.85806
 30
0.0
 10
-2.5068300000000003
 20
-2.9926800000000005
 30
0.0
 10
-2.4534900000000004
 20
-3.1273000000000004
 30
0.0
 10
-2.4534900000000004
 20
-3.1273000000000004
 30
0.0
 10
-2.4458700000000002
 20
-3.0434800000000002
 30
0.0
 10
-2.4128500000000002
 20
-2.9418800000000003
 30
0.0
 10
-2.3925300000000003
 20
-2.8555200000000003
 30
0.0
 10
-2.3925300000000003
 20
-2.8555200000000003
 30
0.0
 10
-2.3671300000000004
 20
-2.8250400000000004
 30
0.0
 10
-2.3417300000000001
 20
-2.7666200000000001
 30
0.0
 10
-2.3010900000000003
 20
-2.7793200000000002
 30
0.0
 10
-2.3010900000000003
 20
-2.7793200000000002
 30
0.0
 10
-2.3315700000000001
 20
-2.9063200000000005
 30
0.0
 10
-2.2629900000000003
 20
-3.2238200000000004
 30
0.0
 10
-2.4915900000000004
 20
-3.1603200000000005
 30
0.0
 10
-2.4915900000000004
 20
-3.1603200000000005
 30
0.0
 10
-2.5322300000000002
 20
-3.0231600000000003
 30
0.0
 10
-2.51953
 20
-2.8529800000000001
 30
0.0
 10
-2.4585700000000004
 20
-2.7361400000000002
 30
0.0
  0
SPLINE
  5
66
100
AcDbEntity
  8
Ebene 1
 62
     7
100
AcDbSpline
210
0.0
220
0.0
230
1.0
 70
     1
 71
     3
 72
    24
 73
    20
 74
     0
 42
0.0000000001
 43
0.0000000001
 40
0.0
 40
0.0
 40
0.0
 40
0.0
 40
0.2
 40
0.2
 40
0.2
 40
0.2
 40
0.4
 40
0.4
 40
0.4
 40
0.4
 40
0.6000000000000001
 40
0.6000000000000001
 40
0.6000000000000001
 40
0.6000000000000001
 40
0.8
 40
0.8
 40
0.8
 40
0.8
 40
1.0
 40
1.0
 40
1.0
 40
1.0
 10
-0.57135
 20
-2.6015200000000003
 30
0.0
 10
-0.5586500000000001
 20
-2.5989800000000001
 30
0.0
 10
-0.53071
 20
-2.5989800000000001
 30
0.0
 10
-0.5154700000000001
 20
-2.6116800000000002
 30
0.0
 10
-0.5154700000000001
 20
-2.6116800000000002
 30
0.0
 10
-0.5002300000000001
 20
-2.77678
 30
0.0
 10
-0.6831100000000001
 20
-2.9469600000000002
 30
0.0
 10
-0.84567
 20
-2.8504400000000003
 30
0.0
 10
-0.84567
 20
-2.8504400000000003
 30
0.0
 10
-0.84567
 20
-2.8504400000000003
 30
0.0
 10
-0.8380500000000001
 20
-2.7793200000000002
 30
0.0
 10
-0.8380500000000001
 20
-2.7793200000000002
 30
0.0
 10
-0.8380500000000001
 20
-2.7793200000000002
 30
0.0
 10
-0.8380500000000001
 20
-2.7793200000000002
 30
0.0
 10
-0.73899
 20
-2.7971000000000004
 30
0.0
 10
-0.73899
 20
-2.7971000000000004
 30
0.0
 10
-0.73899
 20
-2.7971000000000004
 30
0.0
 10
-0.7770900000000001
 20
-2.6751800000000001
 30
0.0
 10
-0.6500900000000001
 20
-2.6650200000000002
 30
0.0
 10
-0.57135
 20
-2.6015200000000003
 30
0.0
  0
SPLINE
  5
67
100
AcDbEntity
  8
Ebene 1
 62
     7
100
AcDbSpline
210
0.0
220
0.0
230
1.0
 70
     1
 71
     3
 72
    16
 73
    12
 74
     0
 42
0.0000000001
 43
0.0000000001
 40
0.0
 40
0.0
 40
0.0
 40
0.0
 40
0.3333333333333333
 40
0.3333333333333333
 40
0.3333333333333333
 40
0.3333333333333333
 40
0.6666666666666666
 40
0.6666666666666666
 40
0.6666666666666666
 40
0.6666666666666666
 40
1.0
 40
1.0
 40
1.0
 40
1.0
 10
0.404
 20
-2.5456400000000001
 30
0.0
 10
0.59196
 20
-2.5989800000000001
 30
0.0
 10
0.59196
 20
-2.9088600000000002
 30
0.0
 10
0.48782
 20
-3.03078
 30
0.0
 10
0.48782
 20
-3.03078
 30
0.0
 10
0.42178
 20
-2.8961600000000001
 30
0.0
 10
0.59958
 20
-2.6955
 30
0.0
 10
0.4090800000000001
 20
-2.6015200000000003
 30
0.0
 10
0.4090800000000001
 20
-2.6015200000000003
 30
0.0
 10
0.4090800000000001
 20
-2.6015200000000003
 30
0.0
 10
0.404
 20
-2.5456400000000001
 30
0.0
 10
0.404
 20
-2.5456400000000001
 30
0.0
  0
SPLINE
  5
68
100
AcDbEntity
  8
Ebene 1
 62
     7
100
AcDbSpline
210
0.0
220
0.0
230
1.0
 70
     1
 71
     3
 72
    24
 73
    20
 74
     0
 42
0.0000000001
 43
0.0000000001
 40
0.0
 40
0.0
 40
0.0
 40
0.0
 40
0.2
 40
0.2
 40
0.2
 40
0.2
 40
0.4
 40
0.4
 40
0.4
 40
0.4
 40
0.6000000000000001
 40
0.6000000000000001
 40
0.6000000000000001
 40
0.6000000000000001
 40
0.8
 40
0.8
 40
0.8
 40
0.8
 40
1.0
 40
1.0
 40
1.0
 40
1.0
 10
-1.2241300000000002
 20
-2.7005800000000004
 30
0.0
 10
-1.2241300000000002
 20
-2.7005800000000004
 30
0.0
 10
-1.07935
 20
-2.7437600000000004
 30
0.0
 10
-1.07935
 20
-2.7437600000000004
 30
0.0
 10
-1.07935
 20
-2.7437600000000004
 30
0.0
 10
-1.07935
 20
-2.7437600000000004
 30
0.0
 10
-0.9040900000000001
 20
-2.6726400000000003
 30
0.0
 10
-0.9040900000000001
 20
-2.6726400000000003
 30
0.0
 10
-0.9040900000000001
 20
-2.6726400000000003
 30
0.0
 10
-0.9040900000000001
 20
-2.6726400000000003
 30
0.0
 10
-0.9421900000000001
 20
-2.8707600000000002
 30
0.0
 10
-0.9421900000000001
 20
-2.8707600000000002
 30
0.0
 10
-0.9421900000000001
 20
-2.8707600000000002
 30
0.0
 10
-1.04125
 20
-2.8656800000000002
 30
0.0
 10
-1.1606300000000001
 20
-2.9469600000000002
 30
0.0
 10
-1.24953
 20
-2.8834600000000004
 30
0.0
 10
-1.24953
 20
-2.8834600000000004
 30
0.0
 10
-1.21397
 20
-2.8250400000000004
 30
0.0
 10
-1.2190500000000002
 20
-2.7539200000000004
 30
0.0
 10
-1.2241300000000002
 20
-2.7005800000000004
 30
0.0
  0
SPLINE
  5
69
100
AcDbEntity
  8
Ebene 1
 62
     7
100
AcDbSpline
210
0.0
220
0.0
230
1.0
 70
     1
 71
     3
 72
    24
 73
    20
 74
     0
 42
0.0000000001
 43
0.0000000001
 40
0.0
 40
0.0
 40
0.0
 40
0.0
 40
0.2
 40
0.2
 40
0.2
 40
0.2
 40
0.4
 40
0.4
 40
0.4
 40
0.4
 40
0.6000000000000001
 40
0.6000000000000001
 40
0.6000000000000001
 40
0.6000000000000001
 40
0.8
 40
0.8
 40
0.8
 40
0.8
 40
1.0
 40
1.0
 40
1.0
 40
1.0
 10
0.19064
 20
-2.6751800000000001
 30
0.0
 10
0.32018
 20
-2.7056600000000004
 30
0.0
 10
0.20842
 20
-3.0409400000000004
 30
0.0
 10
0.1627
 20
-2.8326600000000002
 30
0.0
 10
0.1627
 20
-2.8326600000000002
 30
0.0
 10
0.1627
 20
-2.8326600000000002
 30
0.0
 10
0.15
 20
-3.0155400000000001
 30
0.0
 10
0.15
 20
-3.0155400000000001
 30
0.0
 10
0.15
 20
-3.0155400000000001
 30
0.0
 10
0.02554
 20
-3.0561800000000003
 30
0.0
 10
0.1119
 20
-2.9088600000000002
 30
0.0
 10
0.08142
 20
-2.8809200000000001
 30
0.0
 10
0.08142
 20
-2.8809200000000001
 30
0.0
 10
0.00268
 20
-3.0714200000000003
 30
0.0
 10
-0.00747
 20
-2.8047200000000001
 30
0.0
 10
0.00014
 20
-2.7082000000000002
 30
0.0
 10
0.00014
 20
-2.7082000000000002
 30
0.0
 10
0.06872
 20
-2.7158200000000003
 30
0.0
 10
0.1373
 20
-2.7082000000000002
 30
0.0
 10
0.19064
 20
-2.6751800000000001
 30
0.0
  0
SPLINE
  5
6A
100
AcDbEntity
  8
Ebene 1
 62
     7
100
AcDbSpline
210
0.0
220
0.0
230
1.0
 70
     1
 71
     3
 72
    24
 73
    20
 74
     0
 42
0.0000000001
 43
0.0000000001
 40
0.0
 40
0.0
 40
0.0
 40
0.0
 40
0.2
 40
0.2
 40
0.2
 40
0.2
 40
0.4
 40
0.4
 40
0.4
 40
0.4
 40
0.6000000000000001
 40
0.6000000000000001
 40
0.6000000000000001
 40
0.6000000000000001
 40
0.8
 40
0.8
 40
0.8
 40
0.8
 40
1.0
 40
1.0
 40
1.0
 40
1.0
 10
-1.8972300000000002
 20
-2.8834600000000004
 30
0.0
 10
-1.8388100000000001
 20
-2.9215600000000004
 30
0.0
 10
-1.7168900000000002
 20
-2.8402800000000004
 30
0.0
 10
-1.7245100000000002
 20
-2.9393400000000001
 30
0.0
 10
-1.7245100000000002
 20
-2.9393400000000001
 30
0.0
 10
-1.6127500000000001
 20
-2.9291800000000001
 30
0.0
 10
-1.63053
 20
-3.0434800000000002
 30
0.0
 10
-1.6381500000000002
 20
-3.1146000000000003
 30
0.0
 10
-1.6381500000000002
 20
-3.1146000000000003
 30
0.0
 10
-1.58989
 20
-3.1806400000000004
 30
0.0
 10
-1.5238500000000001
 20
-3.2873200000000002
 30
0.0
 10
-1.6025900000000002
 20
-3.3660600000000005
 30
0.0
 10
-1.6025900000000002
 20
-3.3660600000000005
 30
0.0
 10
-1.7270500000000002
 20
-3.3889200000000002
 30
0.0
 10
-1.8921500000000002
 20
-3.4321000000000002
 30
0.0
 10
-1.9607300000000001
 20
-3.2822400000000003
 30
0.0
 10
-1.9607300000000001
 20
-3.2822400000000003
 30
0.0
 10
-1.9607300000000001
 20
-3.2822400000000003
 30
0.0
 10
-1.8972300000000002
 20
-2.8834600000000004
 30
0.0
 10
-1.8972300000000002
 20
-2.8834600000000004
 30
0.0
  0
SPLINE
  5
6B
100
AcDbEntity
  8
Ebene 1
 62
     7
100
AcDbSpline
210
0.0
220
0.0
230
1.0
 70
     1
 71
     3
 72
    20
 73
    16
 74
     0
 42
0.0000000001
 43
0.0000000001
 40
0.0
 40
0.0
 40
0.0
 40
0.0
 40
0.25
 40
0.25
 40
0.25
 40
0.25
 40
0.5
 40
0.5
 40
0.5
 40
0.5
 40
0.75
 40
0.75
 40
0.75
 40
0.75
 40
1.0
 40
1.0
 40
1.0
 40
1.0
 10
-0.35291
 20
-2.8504400000000003
 30
0.0
 10
-0.19797
 20
-2.8504400000000003
 30
0.0
 10
-0.31989
 20
-3.0714200000000003
 30
0.0
 10
-0.29703
 20
-3.1679400000000002
 30
0.0
 10
-0.29703
 20
-3.1679400000000002
 30
0.0
 10
-0.29703
 20
-3.1679400000000002
 30
0.0
 10
-0.14463
 20
-3.0003000000000002
 30
0.0
 10
-0.14463
 20
-3.0003000000000002
 30
0.0
 10
-0.14463
 20
-3.0003000000000002
 30
0.0
 10
-0.13193
 20
-3.1400000000000001
 30
0.0
 10
-0.27417
 20
-3.2771600000000003
 30
0.0
 10
-0.39101
 20
-3.2314400000000001
 30
0.0
 10
-0.39101
 20
-3.2314400000000001
 30
0.0
 10
-0.44435
 20
-3.0968200000000001
 30
0.0
 10
-0.35799
 20
-2.9774400000000001
 30
0.0
 10
-0.35291
 20
-2.8504400000000003
 30
0.0
  0
SPLINE
  5
6C
100
AcDbEntity
  8
Ebene 1
 62
     7
100
AcDbSpline
210
0.0
220
0.0
230
1.0
 70
     1
 71
     3
 72
    24
 73
    20
 74
     0
 42
0.0000000001
 43
0.0000000001
 40
0.0
 40
0.0
 40
0.0
 40
0.0
 40
0.2
 40
0.2
 40
0.2
 40
0.2
 40
0.4
 40
0.4
 40
0.4
 40
0.4
 40
0.6000000000000001
 40
0.6000000000000001
 40
0.6000000000000001
 40
0.6000000000000001
 40
0.8
 40
0.8
 40
0.8
 40
0.8
 40
1.0
 40
1.0
 40
1.0
 40
1.0
 10
-1.11999
 20
-2.9291800000000001
 30
0.0
 10
-1.0234700000000001
 20
-2.9215600000000004
 30
0.0
 10
-1.0641100000000001
 20
-3.0790400000000004
 30
0.0
 10
-1.0590300000000001
 20
-3.1501600000000001
 30
0.0
 10
-1.0590300000000001
 20
-3.1501600000000001
 30
0.0
 10
-1.04125
 20
-3.1908000000000003
 30
0.0
 10
-1.0209300000000001
 20
-3.1044400000000003
 30
0.0
 10
-0.9777500000000001
 20
-3.1273000000000004
 30
0.0
 10
-0.9777500000000001
 20
-3.1273000000000004
 30
0.0
 10
-0.9371100000000001
 20
-3.2517600000000004
 30
0.0
 10
-1.03871
 20
-3.3711400000000005
 30
0.0
 10
-1.1834900000000002
 20
-3.3432000000000004
 30
0.0
 10
-1.1834900000000002
 20
-3.3432000000000004
 30
0.0
 10
-1.24953
 20
-3.2365200000000001
 30
0.0
 10
-1.1758700000000002
 20
-3.0892000000000004
 30
0.0
 10
-1.2165100000000002
 20
-2.9520400000000002
 30
0.0
 10
-1.2165100000000002
 20
-2.9520400000000002
 30
0.0
 10
-1.2165100000000002
 20
-2.9520400000000002
 30
0.0
 10
-1.11999
 20
-2.9291800000000001
 30
0.0
 10
-1.11999
 20
-2.9291800000000001
 30
0.0
  0
SPLINE
  5
6D
100
AcDbEntity
  8
Ebene 1
 62
     7
100
AcDbSpline
210
0.0
220
0.0
230
1.0
 70
     1
 71
     3
 72
    24
 73
    20
 74
     0
 42
0.0000000001
 43
0.0000000001
 40
0.0
 40
0.0
 40
0.0
 40
0.0
 40
0.2
 40
0.2
 40
0.2
 40
0.2
 40
0.4
 40
0.4
 40
0.4
 40
0.4
 40
0.6000000000000001
 40
0.6000000000000001
 40
0.6000000000000001
 40
0.6000000000000001
 40
0.8
 40
0.8
 40
0.8
 40
0.8
 40
1.0
 40
1.0
 40
1.0
 40
1.0
 10
-0.82789
 20
-2.9037800000000002
 30
0.0
 10
-0.61453
 20
-2.9139400000000002
 30
0.0
 10
-0.61453
 20
-3.0282400000000003
 30
0.0
 10
-0.61199
 20
-3.1958800000000003
 30
0.0
 10
-0.61199
 20
-3.1958800000000003
 30
0.0
 10
-0.61199
 20
-3.1958800000000003
 30
0.0
 10
-0.48753
 20
-3.0993600000000003
 30
0.0
 10
-0.48753
 20
-3.0993600000000003
 30
0.0
 10
-0.48753
 20
-3.0993600000000003
 30
0.0
 10
-0.42149
 20
-3.1933400000000001
 30
0.0
 10
-0.5586500000000001
 20
-3.4016200000000003
 30
0.0
 10
-0.65263
 20
-3.2822400000000003
 30
0.0
 10
-0.65263
 20
-3.2822400000000003
 30
0.0
 10
-0.72121
 20
-3.3305000000000002
 30
0.0
 10
-0.78217
 20
-3.2670000000000003
 30
0.0
 10
-0.8405900000000001
 20
-3.2416000000000005
 30
0.0
 10
-0.8405900000000001
 20
-3.2416000000000005
 30
0.0
 10
-0.8786900000000001
 20
-3.1349200000000002
 30
0.0
 10
-0.9040900000000001
 20
-3.0104600000000001
 30
0.0
 10
-0.82789
 20
-2.9037800000000002
 30
0.0
  0
SPLINE
  5
6E
100
AcDbEntity
  8
Ebene 1
 62
     7
100
AcDbSpline
210
0.0
220
0.0
230
1.0
 70
     1
 71
     3
 72
    20
 73
    16
 74
     0
 42
0.0000000001
 43
0.0000000001
 40
0.0
 40
0.0
 40
0.0
 40
0.0
 40
0.25
 40
0.25
 40
0.25
 40
0.25
 40
0.5
 40
0.5
 40
0.5
 40
0.5
 40
0.75
 40
0.75
 40
0.75
 40
0.75
 40
1.0
 40
1.0
 40
1.0
 40
1.0
 10
-1.5086100000000002
 20
-2.9774400000000001
 30
0.0
 10
-1.3866900000000002
 20
-2.9520400000000002
 30
0.0
 10
-1.41717
 20
-3.0688800000000001
 30
0.0
 10
-1.4247900000000002
 20
-3.1527000000000003
 30
0.0
 10
-1.4247900000000002
 20
-3.1527000000000003
 30
0.0
 10
-1.37907
 20
-3.2060400000000002
 30
0.0
 10
-1.3562100000000001
 20
-3.1171400000000005
 30
0.0
 10
-1.3155700000000001
 20
-3.1146000000000003
 30
0.0
 10
-1.3155700000000001
 20
-3.1146000000000003
 30
0.0
 10
-1.2165100000000002
 20
-3.2746200000000001
 30
0.0
 10
-1.3714500000000001
 20
-3.4575000000000005
 30
0.0
 10
-1.5314700000000001
 20
-3.3584400000000003
 30
0.0
 10
-1.5314700000000001
 20
-3.3584400000000003
 30
0.0
 10
-1.5289300000000001
 20
-3.2314400000000001
 30
0.0
 10
-1.5416300000000001
 20
-3.0917400000000002
 30
0.0
 10
-1.5086100000000002
 20
-2.9774400000000001
 30
0.0
  0
SPLINE
  5
6F
100
AcDbEntity
  8
Ebene 1
 62
     7
100
AcDbSpline
210
0.0
220
0.0
230
1.0
 70
     1
 71
     3
 72
    16
 73
    12
 74
     0
 42
0.0000000001
 43
0.0000000001
 40
0.0
 40
0.0
 40
0.0
 40
0.0
 40
0.3333333333333333
 40
0.3333333333333333
 40
0.3333333333333333
 40
0.3333333333333333
 40
0.6666666666666666
 40
0.6666666666666666
 40
0.6666666666666666
 40
0.6666666666666666
 40
1.0
 40
1.0
 40
1.0
 40
1.0
 10
-0.50531
 20
-2.9037800000000002
 30
0.0
 10
-0.44435
 20
-2.9266400000000004
 30
0.0
 10
-0.4799100000000001
 20
-3.0282400000000003
 30
0.0
 10
-0.4900700000000001
 20
-3.0714200000000003
 30
0.0
 10
-0.4900700000000001
 20
-3.0714200000000003
 30
0.0
 10
-0.4900700000000001
 20
-3.0714200000000003
 30
0.0
 10
-0.54849
 20
-3.0485600000000002
 30
0.0
 10
-0.54849
 20
-3.0485600000000002
 30
0.0
 10
-0.54849
 20
-3.0485600000000002
 30
0.0
 10
-0.5789700000000001
 20
-3.0231600000000003
 30
0.0
 10
-0.53071
 20
-2.9342600000000001
 30
0.0
 10
-0.50531
 20
-2.9037800000000002
 30
0.0
  0
SPLINE
  5
70
100
AcDbEntity
  8
Ebene 1
 62
     7
100
AcDbSpline
210
0.0
220
0.0
230
1.0
 70
     1
 71
     3
 72
    16
 73
    12
 74
     0
 42
0.0000000001
 43
0.0000000001
 40
0.0
 40
0.0
 40
0.0
 40
0.0
 40
0.3333333333333333
 40
0.3333333333333333
 40
0.3333333333333333
 40
0.3333333333333333
 40
0.6666666666666666
 40
0.6666666666666666
 40
0.6666666666666666
 40
0.6666666666666666
 40
1.0
 40
1.0
 40
1.0
 40
1.0
 10
-2.1994900000000004
 20
-3.6276800000000002
 30
0.0
 10
-2.1994900000000004
 20
-3.6276800000000002
 30
0.0
 10
-1.9581900000000001
 20
-3.6607000000000003
 30
0.0
 10
-1.9581900000000001
 20
-3.6607000000000003
 30
0.0
 10
-1.9581900000000001
 20
-3.6607000000000003
 30
0.0
 10
-1.9581900000000001
 20
-3.8156400000000001
 30
0.0
 10
-1.9454900000000002
 20
-3.9705800000000004
 30
0.0
 10
-2.10805
 20
-4.0264600000000002
 30
0.0
 10
-2.10805
 20
-4.0264600000000002
 30
0.0
 10
-2.3163300000000002
 20
-4.0594800000000006
 30
0.0
 10
-2.2883900000000001
 20
-3.7191200000000002
 30
0.0
 10
-2.1994900000000004
 20
-3.6276800000000002
 30
0.0
  0
SPLINE
  5
71
100
AcDbEntity
  8
Ebene 1
 62
     7
100
AcDbSpline
210
0.0
220
0.0
230
1.0
 70
     1
 71
     3
 72
    16
 73
    12
 74
     0
 42
0.0000000001
 43
0.0000000001
 40
0.0
 40
0.0
 40
0.0
 40
0.0
 40
0.3333333333333333
 40
0.3333333333333333
 40
0.3333333333333333
 40
0.3333333333333333
 40
0.6666666666666666
 40
0.6666666666666666
 40
0.6666666666666666
 40
0.6666666666666666
 40
1.0
 40
1.0
 40
1.0
 40
1.0
 10
-2.30871
 20
-3.6632400000000005
 30
0.0
 10
-2.30871
 20
-3.6632400000000005
 30
0.0
 10
-2.2782300000000002
 20
-3.6759400000000002
 30
0.0
 10
-2.2782300000000002
 20
-3.6759400000000002
 30
0.0
 10
-2.2782300000000002
 20
-3.6759400000000002
 30
0.0
 10
-2.3417300000000001
 20
-3.7648400000000004
 30
0.0
 10
-2.2452100000000002
 20
-3.8969200000000002
 30
0.0
 10
-2.3239500000000004
 20
-3.9604200000000005
 30
0.0
 10
-2.3239500000000004
 20
-3.9604200000000005
 30
0.0
 10
-2.4788900000000003
 20
-3.9477200000000003
 30
0.0
 10
-2.3442700000000003
 20
-3.7369000000000003
 30
0.0
 10
-2.30871
 20
-3.6632400000000005
 30
0.0
  0
SPLINE
  5
72
100
AcDbEntity
  8
Ebene 1
 62
     7
100
AcDbSpline
210
0.0
220
0.0
230
1.0
 70
     1
 71
     3
 72
    16
 73
    12
 74
     0
 42
0.0000000001
 43
0.0000000001
 40
0.0
 40
0.0
 40
0.0
 40
0.0
 40
0.3333333333333333
 40
0.3333333333333333
 40
0.3333333333333333
 40
0.3333333333333333
 40
0.6666666666666666
 40
0.6666666666666666
 40
0.6666666666666666
 40
0.6666666666666666
 40
1.0
 40
1.0
 40
1.0
 40
1.0
 10
-1.79817
 20
-3.7038800000000003
 30
0.0
 10
-1.6127500000000001
 20
-3.7318200000000004
 30
0.0
 10
-1.6381500000000002
 20
-3.9426400000000004
 30
0.0
 10
-1.6838700000000002
 20
-4.0747200000000001
 30
0.0
 10
-1.6838700000000002
 20
-4.0747200000000001
 30
0.0
 10
-1.7524500000000001
 20
-4.0798000000000005
 30
0.0
 10
-1.8235700000000001
 20
-4.0721800000000004
 30
0.0
 10
-1.8819900000000001
 20
-4.0340800000000003
 30
0.0
 10
-1.8819900000000001
 20
-4.0340800000000003
 30
0.0
 10
-1.8921500000000002
 20
-3.9096200000000003
 30
0.0
 10
-1.8896100000000002
 20
-3.7953200000000002
 30
0.0
 10
-1.79817
 20
-3.7038800000000003
 30
0.0
  0
SPLINE
  5
73
100
AcDbEntity
  8
Ebene 1
 62
     7
100
AcDbSpline
210
0.0
220
0.0
230
1.0
 70
     1
 71
     3
 72
    28
 73
    24
 74
     0
 42
0.0000000001
 43
0.0000000001
 40
0.0
 40
0.0
 40
0.0
 40
0.0
 40
0.1666666666666667
 40
0.1666666666666667
 40
0.1666666666666667
 40
0.1666666666666667
 40
0.3333333333333333
 40
0.3333333333333333
 40
0.3333333333333333
 40
0.3333333333333333
 40
0.5
 40
0.5
 40
0.5
 40
0.5
 40
0.6666666666666666
 40
0.6666666666666666
 40
0.6666666666666666
 40
0.6666666666666666
 40
0.8333333333333333
 40
0.8333333333333333
 40
0.8333333333333333
 40
0.8333333333333333
 40
1.0
 40
1.0
 40
1.0
 40
1.0
 10
2.6087200000000004
 20
-3.3254200000000003
 30
0.0
 10
2.6341200000000002
 20
-3.3101800000000003
 30
0.0
 10
2.67984
 20
-3.3330400000000004
 30
0.0
 10
2.6696800000000001
 20
-3.3762200000000004
 30
0.0
 10
2.6696800000000001
 20
-3.3762200000000004
 30
0.0
 10
2.6417400000000004
 20
-3.3914600000000004
 30
0.0
 10
2.6265000000000001
 20
-3.3813000000000004
 30
0.0
 10
2.6112600000000001
 20
-3.3686000000000003
 30
0.0
 10
2.6112600000000001
 20
-3.3686000000000003
 30
0.0
 10
2.5985600000000004
 20
-3.5362400000000003
 30
0.0
 10
2.37758
 20
-3.5972000000000004
 30
0.0
 10
2.2632800000000004
 20
-3.7216600000000004
 30
0.0
 10
2.2632800000000004
 20
-3.7216600000000004
 30
0.0
 10
2.2632800000000004
 20
-3.7216600000000004
 30
0.0
 10
2.2582
 20
-3.8181800000000004
 30
0.0
 10
2.2582
 20
-3.8181800000000004
 30
0.0
 10
2.2582
 20
-3.8181800000000004
 30
0.0
 10
1.9534000000000002
 20
-4.0417000000000005
 30
0.0
 10
1.6079600000000001
 20
-4.2830000000000004
 30
0.0
 10
1.2853800000000002
 20
-4.4658800000000003
 30
0.0
 10
1.2853800000000002
 20
-4.4658800000000003
 30
0.0
 10
1.2853800000000002
 20
-4.4658800000000003
 30
0.0
 10
2.6087200000000004
 20
-3.3254200000000003
 30
0.0
 10
2.6087200000000004
 20
-3.3254200000000003
 30
0.0
  0
SPLINE
  5
74
100
AcDbEntity
  8
Ebene 1
 62
     7
100
AcDbSpline
210
0.0
220
0.0
230
1.0
 70
     1
 71
     3
 72
    20
 73
    16
 74
     0
 42
0.0000000001
 43
0.0000000001
 40
0.0
 40
0.0
 40
0.0
 40
0.0
 40
0.25
 40
0.25
 40
0.25
 40
0.25
 40
0.5
 40
0.5
 40
0.5
 40
0.5
 40
0.75
 40
0.75
 40
0.75
 40
0.75
 40
1.0
 40
1.0
 40
1.0
 40
1.0
 10
-1.4882900000000001
 20
-3.7064200000000005
 30
0.0
 10
-1.4324100000000002
 20
-3.7013400000000005
 30
0.0
 10
-1.37399
 20
-3.7369000000000003
 30
0.0
 10
-1.3282700000000001
 20
-3.7775400000000001
 30
0.0
 10
-1.3282700000000001
 20
-3.7775400000000001
 30
0.0
 10
-1.3460500000000002
 20
-3.9045400000000003
 30
0.0
 10
-1.3638300000000001
 20
-4.0036000000000005
 30
0.0
 10
-1.3968500000000001
 20
-4.1204400000000003
 30
0.0
 10
-1.3968500000000001
 20
-4.1204400000000003
 30
0.0
 10
-1.3968500000000001
 20
-4.1204400000000003
 30
0.0
 10
-1.4425700000000001
 20
-4.09504
 30
0.0
 10
-1.4425700000000001
 20
-4.09504
 30
0.0
 10
-1.4425700000000001
 20
-4.09504
 30
0.0
 10
-1.6762500000000002
 20
-4.1433
 30
0.0
 10
-1.5949700000000002
 20
-3.7851600000000003
 30
0.0
 10
-1.4882900000000001
 20
-3.7064200000000005
 30
0.0
  0
SPLINE
  5
75
100
AcDbEntity
  8
Ebene 1
 62
     7
100
AcDbSpline
210
0.0
220
0.0
230
1.0
 70
     1
 71
     3
 72
    16
 73
    12
 74
     0
 42
0.0000000001
 43
0.0000000001
 40
0.0
 40
0.0
 40
0.0
 40
0.0
 40
0.3333333333333333
 40
0.3333333333333333
 40
0.3333333333333333
 40
0.3333333333333333
 40
0.6666666666666666
 40
0.6666666666666666
 40
0.6666666666666666
 40
0.6666666666666666
 40
1.0
 40
1.0
 40
1.0
 40
1.0
 10
-0.5408700000000001
 20
-3.6251400000000005
 30
0.0
 10
-0.49769
 20
-3.6200600000000005
 30
0.0
 10
-0.44181
 20
-3.6175200000000003
 30
0.0
 10
-0.39863
 20
-3.6403800000000004
 30
0.0
 10
-0.39863
 20
-3.6403800000000004
 30
0.0
 10
-0.4164100000000001
 20
-3.7699200000000004
 30
0.0
 10
-0.3859300000000001
 20
-3.9477200000000003
 30
0.0
 10
-0.5205500000000001
 20
-4.0163000000000002
 30
0.0
 10
-0.5205500000000001
 20
-4.0163000000000002
 30
0.0
 10
-0.6907300000000001
 20
-4.0036000000000005
 30
0.0
 10
-0.61707
 20
-3.7165800000000004
 30
0.0
 10
-0.5408700000000001
 20
-3.6251400000000005
 30
0.0
  0
SPLINE
  5
76
100
AcDbEntity
  8
Ebene 1
 62
     7
100
AcDbSpline
210
0.0
220
0.0
230
1.0
 70
     1
 71
     3
 72
    36
 73
    32
 74
     0
 42
0.0000000001
 43
0.0000000001
 40
0.0
 40
0.0
 40
0.0
 40
0.0
 40
0.125
 40
0.125
 40
0.125
 40
0.125
 40
0.25
 40
0.25
 40
0.25
 40
0.25
 40
0.375
 40
0.375
 40
0.375
 40
0.375
 40
0.5
 40
0.5
 40
0.5
 40
0.5
 40
0.625
 40
0.625
 40
0.625
 40
0.625
 40
0.75
 40
0.75
 40
0.75
 40
0.75
 40
0.875
 40
0.875
 40
0.875
 40
0.875
 40
1.0
 40
1.0
 40
1.0
 40
1.0
 10
-1.20889
 20
-3.6962600000000001
 30
0.0
 10
-1.20889
 20
-3.6962600000000001
 30
0.0
 10
-1.0539500000000002
 20
-3.6962600000000001
 30
0.0
 10
-1.0539500000000002
 20
-3.6962600000000001
 30
0.0
 10
-1.0539500000000002
 20
-3.6962600000000001
 30
0.0
 10
-1.0564900000000002
 20
-3.8232600000000003
 30
0.0
 10
-1.0590300000000001
 20
-3.9782000000000002
 30
0.0
 10
-1.08951
 20
-4.0925000000000002
 30
0.0
 10
-1.08951
 20
-4.0925000000000002
 30
0.0
 10
-1.1326900000000002
 20
-4.0848800000000001
 30
0.0
 10
-1.1098300000000001
 20
-4.0391600000000007
 30
0.0
 10
-1.0971300000000002
 20
-4.00868
 30
0.0
 10
-1.0971300000000002
 20
-4.00868
 30
0.0
 10
-1.0971300000000002
 20
-4.00868
 30
0.0
 10
-1.1098300000000001
 20
-3.8689800000000005
 30
0.0
 10
-1.1098300000000001
 20
-3.8689800000000005
 30
0.0
 10
-1.1098300000000001
 20
-3.8689800000000005
 30
0.0
 10
-1.1123700000000001
 20
-3.8283400000000003
 30
0.0
 10
-1.1047500000000001
 20
-3.7445200000000005
 30
0.0
 10
-1.16317
 20
-3.7470600000000003
 30
0.0
 10
-1.16317
 20
-3.7470600000000003
 30
0.0
 10
-1.1530100000000001
 20
-3.8588200000000001
 30
0.0
 10
-1.13015
 20
-3.9705800000000004
 30
0.0
 10
-1.1606300000000001
 20
-4.0874200000000007
 30
0.0
 10
-1.1606300000000001
 20
-4.0874200000000007
 30
0.0
 10
-1.2393700000000001
 20
-4.1636200000000008
 30
0.0
 10
-1.2774700000000001
 20
-4.0544000000000002
 30
0.0
 10
-1.2698500000000001
 20
-3.9807400000000004
 30
0.0
 10
-1.2698500000000001
 20
-3.9807400000000004
 30
0.0
 10
-1.29017
 20
-3.8867600000000002
 30
0.0
 10
-1.2876300000000001
 20
-3.7724600000000001
 30
0.0
 10
-1.20889
 20
-3.6962600000000001
 30
0.0
  0
SPLINE
  5
77
100
AcDbEntity
  8
Ebene 1
 62
     7
100
AcDbSpline
210
0.0
220
0.0
230
1.0
 70
     1
 71
     3
 72
    96
 73
    92
 74
     0
 42
0.0000000001
 43
0.0000000001
 40
0.0
 40
0.0
 40
0.0
 40
0.0
 40
0.0434782608695652
 40
0.0434782608695652
 40
0.0434782608695652
 40
0.0434782608695652
 40
0.0869565217391304
 40
0.0869565217391304
 40
0.0869565217391304
 40
0.0869565217391304
 40
0.1304347826086957
 40
0.1304347826086957
 40
0.1304347826086957
 40
0.1304347826086957
 40
0.1739130434782609
 40
0.1739130434782609
 40
0.1739130434782609
 40
0.1739130434782609
 40
0.2173913043478261
 40
0.2173913043478261
 40
0.2173913043478261
 40
0.2173913043478261
 40
0.2608695652173913
 40
0.2608695652173913
 40
0.2608695652173913
 40
0.2608695652173913
 40
0.3043478260869565
 40
0.3043478260869565
 40
0.3043478260869565
 40
0.3043478260869565
 40
0.3478260869565217
 40
0.3478260869565217
 40
0.3478260869565217
 40
0.3478260869565217
 40
0.3913043478260869
 40
0.3913043478260869
 40
0.3913043478260869
 40
0.3913043478260869
 40
0.4347826086956521
 40
0.4347826086956521
 40
0.4347826086956521
 40
0.4347826086956521
 40
0.4782608695652173
 40
0.4782608695652173
 40
0.4782608695652173
 40
0.4782608695652173
 40
0.5217391304347825
 40
0.5217391304347825
 40
0.5217391304347825
 40
0.5217391304347825
 40
0.5652173913043477
 40
0.5652173913043477
 40
0.5652173913043477
 40
0.5652173913043477
 40
0.6086956521739129
 40
0.6086956521739129
 40
0.6086956521739129
 40
0.6086956521739129
 40
0.6521739130434781
 40
0.6521739130434781
 40
0.6521739130434781
 40
0.6521739130434781
 40
0.6956521739130432
 40
0.6956521739130432
 40
0.6956521739130432
 40
0.6956521739130432
 40
0.7391304347826084
 40
0.7391304347826084
 40
0.7391304347826084
 40
0.7391304347826084
 40
0.7826086956521736
 40
0.7826086956521736
 40
0.7826086956521736
 40
0.7826086956521736
 40
0.8260869565217388
 40
0.8260869565217388
 40
0.8260869565217388
 40
0.8260869565217388
 40
0.869565217391304
 40
0.869565217391304
 40
0.869565217391304
 40
0.869565217391304
 40
0.9130434782608692
 40
0.9130434782608692
 40
0.9130434782608692
 40
0.9130434782608692
 40
0.9565217391304344
 40
0.9565217391304344
 40
0.9565217391304344
 40
0.9565217391304344
 40
1.0
 40
1.0
 40
1.0
 40
1.0
 10
-2.48143
 20
-4.1001200000000004
 30
0.0
 10
-2.2172700000000001
 20
-4.2195
 30
0.0
 10
-2.4280900000000001
 20
-4.5598600000000005
 30
0.0
 10
-2.3976100000000002
 20
-4.7402000000000006
 30
0.0
 10
-2.3976100000000002
 20
-4.7402000000000006
 30
0.0
 10
-2.3976100000000002
 20
-4.7402000000000006
 30
0.0
 10
-2.3493500000000003
 20
-4.6513
 30
0.0
 10
-2.3493500000000003
 20
-4.6513
 30
0.0
 10
-2.3493500000000003
 20
-4.6513
 30
0.0
 10
-2.3391900000000003
 20
-4.6233600000000008
 30
0.0
 10
-2.2934700000000001
 20
-4.6462200000000005
 30
0.0
 10
-2.3061700000000003
 20
-4.6767000000000003
 30
0.0
 10
-2.3061700000000003
 20
-4.6767000000000003
 30
0.0
 10
-2.3061700000000003
 20
-4.6767000000000003
 30
0.0
 10
-2.3061700000000003
 20
-4.8291000000000004
 30
0.0
 10
-2.3061700000000003
 20
-4.8291000000000004
 30
0.0
 10
-2.3061700000000003
 20
-4.8291000000000004
 30
0.0
 10
-2.23759
 20
-4.64114
 30
0.0
 10
-2.2147300000000003
 20
-4.4150800000000006
 30
0.0
 10
-2.2452100000000002
 20
-4.2220400000000007
 30
0.0
 10
-2.2452100000000002
 20
-4.2220400000000007
 30
0.0
 10
-2.2452100000000002
 20
-4.2220400000000007
 30
0.0
 10
-1.8921500000000002
 20
-4.2474400000000001
 30
0.0
 10
-1.8921500000000002
 20
-4.2474400000000001
 30
0.0
 10
-1.8921500000000002
 20
-4.2474400000000001
 30
0.0
 10
-1.8007100000000003
 20
-4.4912800000000006
 30
0.0
 10
-2.02677
 20
-4.6386000000000003
 30
0.0
 10
-2.0826500000000001
 20
-4.82402
 30
0.0
 10
-2.0826500000000001
 20
-4.82402
 30
0.0
 10
-1.92517
 20
-4.6716200000000008
 30
0.0
 10
-1.6787900000000002
 20
-4.6081200000000004
 30
0.0
 10
-1.4451100000000001
 20
-4.5446200000000001
 30
0.0
 10
-1.4451100000000001
 20
-4.5446200000000001
 30
0.0
 10
-1.2749300000000001
 20
-4.7148000000000003
 30
0.0
 10
-1.29017
 20
-4.8697400000000002
 30
0.0
 10
-0.9828300000000001
 20
-4.8570400000000005
 30
0.0
 10
-0.9828300000000001
 20
-4.8570400000000005
 30
0.0
 10
-1.0183900000000001
 20
-4.7630600000000003
 30
0.0
 10
-0.9472700000000001
 20
-4.5776400000000006
 30
0.0
 10
-1.12507
 20
-4.6335200000000007
 30
0.0
 10
-1.12507
 20
-4.6335200000000007
 30
0.0
 10
-1.16825
 20
-4.6157400000000006
 30
0.0
 10
-1.08951
 20
-4.5624000000000002
 30
0.0
 10
-1.1174500000000001
 20
-4.5141400000000003
 30
0.0
 10
-1.1174500000000001
 20
-4.5141400000000003
 30
0.0
 10
-1.16317
 20
-4.4354000000000005
 30
0.0
 10
-1.2800100000000001
 20
-4.3566600000000006
 30
0.0
 10
-1.0945900000000002
 20
-4.3744400000000008
 30
0.0
 10
-1.0945900000000002
 20
-4.3744400000000008
 30
0.0
 10
-1.0691900000000001
 20
-4.3312600000000003
 30
0.0
 10
-0.9853700000000001
 20
-4.3236400000000001
 30
0.0
 10
-0.9421900000000001
 20
-4.3465000000000007
 30
0.0
 10
-0.9421900000000001
 20
-4.3465000000000007
 30
0.0
 10
-0.90917
 20
-4.40238
 30
0.0
 10
-0.7897900000000001
 20
-4.48874
 30
0.0
 10
-0.67549
 20
-4.4938200000000004
 30
0.0
 10
-0.67549
 20
-4.4938200000000004
 30
0.0
 10
-0.6627900000000001
 20
-4.3388800000000005
 30
0.0
 10
-0.7948700000000001
 20
-4.2499800000000008
 30
0.0
 10
-0.95235
 20
-4.2372800000000002
 30
0.0
 10
-0.95235
 20
-4.2372800000000002
 30
0.0
 10
-0.9701300000000001
 20
-4.1814
 30
0.0
 10
-1.0615700000000001
 20
-4.2728400000000004
 30
0.0
 10
-1.0945900000000002
 20
-4.2068000000000003
 30
0.0
 10
-1.0945900000000002
 20
-4.2068000000000003
 30
0.0
 10
-1.0945900000000002
 20
-4.2068000000000003
 30
0.0
 10
-0.22083
 20
-4.0747200000000001
 30
0.0
 10
-0.22083
 20
-4.0747200000000001
 30
0.0
 10
-0.22083
 20
-4.0747200000000001
 30
0.0
 10
-0.24623
 20
-4.2601400000000007
 30
0.0
 10
-0.47229
 20
-4.2372800000000002
 30
0.0
 10
-0.59421
 20
-4.3185600000000006
 30
0.0
 10
-0.59421
 20
-4.3185600000000006
 30
0.0
 10
-0.52563
 20
-4.4531800000000006
 30
0.0
 10
-0.7262900000000001
 20
-4.7224200000000005
 30
0.0
 10
-0.61453
 20
-4.7402000000000006
 30
0.0
 10
-0.61453
 20
-4.7402000000000006
 30
0.0
 10
-0.3859300000000001
 20
-4.5954200000000007
 30
0.0
 10
-0.46721
 20
-4.3211000000000004
 30
0.0
 10
-0.20813
 20
-4.2144200000000005
 30
0.0
 10
-0.20813
 20
-4.2144200000000005
 30
0.0
 10
-0.56881
 20
-5.0881800000000004
 30
0.0
 10
-1.6254500000000001
 20
-5.3777400000000002
 30
0.0
 10
-2.4407900000000002
 20
-5.0119800000000003
 30
0.0
 10
-2.4407900000000002
 20
-5.0119800000000003
 30
0.0
 10
-2.3595100000000002
 20
-4.7071800000000001
 30
0.0
 10
-2.5474700000000001
 20
-4.8367200000000006
 30
0.0
 10
-2.4306300000000003
 20
-4.5192200000000007
 30
0.0
 10
-2.4306300000000003
 20
-4.5192200000000007
 30
0.0
 10
-2.4306300000000003
 20
-4.5192200000000007
 30
0.0
 10
-2.48143
 20
-4.1001200000000004
 30
0.0
 10
-2.48143
 20
-4.1001200000000004
 30
0.0
  0
SPLINE
  5
78
100
AcDbEntity
  8
Ebene 1
100
AcDbSpline
210
0.0
220
0.0
230
1.0
 70
     1
 71
     3
 72
    16
 73
    12
 74
     0
 42
0.0000000001
 43
0.0000000001
 40
0.0
 40
0.0
 40
0.0
 40
0.0
 40
0.3333333333333333
 40
0.3333333333333333
 40
0.3333333333333333
 40
0.3333333333333333
 40
0.6666666666666666
 40
0.6666666666666666
 40
0.6666666666666666
 40
0.6666666666666666
 40
1.0
 40
1.0
 40
1.0
 40
1.0
 10
-3.0199100000000003
 20
-4.2042600000000006
 30
0.0
 10
-2.9335500000000003
 20
-4.2804600000000006
 30
0.0
 10
-2.9259300000000001
 20
-4.4328600000000007
 30
0.0
 10
-2.9056100000000002
 20
-4.5598600000000005
 30
0.0
 10
-2.9056100000000002
 20
-4.5598600000000005
 30
0.0
 10
-2.8370300000000004
 20
-4.6513
 30
0.0
 10
-2.7659100000000003
 20
-4.81386
 30
0.0
 10
-2.8192500000000003
 20
-4.9307000000000007
 30
0.0
 10
-2.8192500000000003
 20
-4.9307000000000007
 30
0.0
 10
-2.8929100000000001
 20
-4.7122600000000006
 30
0.0
 10
-3.0300700000000003
 20
-4.4709600000000007
 30
0.0
 10
-3.0199100000000003
 20
-4.2042600000000006
 30
0.0
  0
SPLINE
  5
79
100
AcDbEntity
  8
Ebene 1
 62
     7
100
AcDbSpline
210
0.0
220
0.0
230
1.0
 70
     1
 71
     3
 72
   180
 73
   176
 74
     0
 42
0.0000000001
 43
0.0000000001
 40
0.0
 40
0.0
 40
0.0
 40
0.0
 40
0.0227272727272727
 40
0.0227272727272727
 40
0.0227272727272727
 40
0.0227272727272727
 40
0.0454545454545455
 40
0.0454545454545455
 40
0.0454545454545455
 40
0.0454545454545455
 40
0.0681818181818182
 40
0.0681818181818182
 40
0.0681818181818182
 40
0.0681818181818182
 40
0.0909090909090909
 40
0.0909090909090909
 40
0.0909090909090909
 40
0.0909090909090909
 40
0.1136363636363637
 40
0.1136363636363637
 40
0.1136363636363637
 40
0.1136363636363637
 40
0.1363636363636364
 40
0.1363636363636364
 40
0.1363636363636364
 40
0.1363636363636364
 40
0.1590909090909091
 40
0.1590909090909091
 40
0.1590909090909091
 40
0.1590909090909091
 40
0.1818181818181819
 40
0.1818181818181819
 40
0.1818181818181819
 40
0.1818181818181819
 40
0.2045454545454546
 40
0.2045454545454546
 40
0.2045454545454546
 40
0.2045454545454546
 40
0.2272727272727273
 40
0.2272727272727273
 40
0.2272727272727273
 40
0.2272727272727273
 40
0.2500000000000001
 40
0.2500000000000001
 40
0.2500000000000001
 40
0.2500000000000001
 40
0.2727272727272728
 40
0.2727272727272728
 40
0.2727272727272728
 40
0.2727272727272728
 40
0.2954545454545455
 40
0.2954545454545455
 40
0.2954545454545455
 40
0.2954545454545455
 40
0.3181818181818182
 40
0.3181818181818182
 40
0.3181818181818182
 40
0.3181818181818182
 40
0.3409090909090909
 40
0.3409090909090909
 40
0.3409090909090909
 40
0.3409090909090909
 40
0.3636363636363636
 40
0.3636363636363636
 40
0.3636363636363636
 40
0.3636363636363636
 40
0.3863636363636363
 40
0.3863636363636363
 40
0.3863636363636363
 40
0.3863636363636363
 40
0.409090909090909
 40
0.409090909090909
 40
0.409090909090909
 40
0.409090909090909
 40
0.4318181818181817
 40
0.4318181818181817
 40
0.4318181818181817
 40
0.4318181818181817
 40
0.4545454545454544
 40
0.4545454545454544
 40
0.4545454545454544
 40
0.4545454545454544
 40
0.4772727272727271
 40
0.4772727272727271
 40
0.4772727272727271
 40
0.4772727272727271
 40
0.4999999999999998
 40
0.4999999999999998
 40
0.4999999999999998
 40
0.4999999999999998
 40
0.5227272727272726
 40
0.5227272727272726
 40
0.5227272727272726
 40
0.5227272727272726
 40
0.5454545454545453
 40
0.5454545454545453
 40
0.5454545454545453
 40
0.5454545454545453
 40
0.568181818181818
 40
0.568181818181818
 40
0.568181818181818
 40
0.568181818181818
 40
0.5909090909090907
 40
0.5909090909090907
 40
0.5909090909090907
 40
0.5909090909090907
 40
0.6136363636363634
 40
0.6136363636363634
 40
0.6136363636363634
 40
0.6136363636363634
 40
0.6363636363636361
 40
0.6363636363636361
 40
0.6363636363636361
 40
0.6363636363636361
 40
0.6590909090909088
 40
0.6590909090909088
 40
0.6590909090909088
 40
0.6590909090909088
 40
0.6818181818181816
 40
0.6818181818181816
 40
0.6818181818181816
 40
0.6818181818181816
 40
0.7045454545454543
 40
0.7045454545454543
 40
0.7045454545454543
 40
0.7045454545454543
 40
0.727272727272727
 40
0.727272727272727
 40
0.727272727272727
 40
0.727272727272727
 40
0.7499999999999997
 40
0.7499999999999997
 40
0.7499999999999997
 40
0.7499999999999997
 40
0.7727272727272724
 40
0.7727272727272724
 40
0.7727272727272724
 40
0.7727272727272724
 40
0.7954545454545451
 40
0.7954545454545451
 40
0.7954545454545451
 40
0.7954545454545451
 40
0.8181818181818178
 40
0.8181818181818178
 40
0.8181818181818178
 40
0.8181818181818178
 40
0.8409090909090905
 40
0.8409090909090905
 40
0.8409090909090905
 40
0.8409090909090905
 40
0.8636363636363632
 40
0.8636363636363632
 40
0.8636363636363632
 40
0.8636363636363632
 40
0.8863636363636359
 40
0.8863636363636359
 40
0.8863636363636359
 40
0.8863636363636359
 40
0.9090909090909086
 40
0.9090909090909086
 40
0.9090909090909086
 40
0.9090909090909086
 40
0.9318181818181813
 40
0.9318181818181813
 40
0.9318181818181813
 40
0.9318181818181813
 40
0.954545454545454
 40
0.954545454545454
 40
0.954545454545454
 40
0.954545454545454
 40
0.9772727272727267
 40
0.9772727272727267
 40
0.9772727272727267
 40
0.9772727272727267
 40
1.0
 40
1.0
 40
1.0
 40
1.0
 10
-1.37399
 20
-6.1118000000000006
 30
0.0
 10
-1.37399
 20
-6.1118000000000006
 30
0.0
 10
-1.8540500000000002
 20
-5.8730400000000005
 30
0.0
 10
-1.8540500000000002
 20
-5.8730400000000005
 30
0.0
 10
-1.8540500000000002
 20
-5.8730400000000005
 30
0.0
 10
-0.7923300000000001
 20
-5.9213000000000005
 30
0.0
 10
0.20842
 20
-5.7638200000000008
 30
0.0
 10
1.1279000000000001
 20
-5.6165000000000003
 30
0.0
 10
1.1279000000000001
 20
-5.6165000000000003
 30
0.0
 10
1.1380600000000001
 20
-5.5733200000000007
 30
0.0
 10
1.1329800000000001
 20
-5.5199800000000003
 30
0.0
 10
1.1304400000000001
 20
-5.4768000000000008
 30
0.0
 10
1.1304400000000001
 20
-5.4768000000000008
 30
0.0
 10
0.8967600000000001
 20
-5.3853600000000004
 30
0.0
 10
0.7062600000000001
 20
-5.5682400000000003
 30
0.0
 10
0.50814
 20
-5.3777400000000002
 30
0.0
 10
0.50814
 20
-5.3777400000000002
 30
0.0
 10
0.38622
 20
-5.1085000000000003
 30
0.0
 10
0.91454
 20
-4.93832
 30
0.0
 10
1.27776
 20
-4.9357800000000003
 30
0.0
 10
1.27776
 20
-4.9357800000000003
 30
0.0
 10
1.1812400000000001
 20
-5.1262800000000004
 30
0.0
 10
1.3336400000000002
 20
-5.2634400000000001
 30
0.0
 10
1.1787000000000001
 20
-5.4031400000000005
 30
0.0
 10
1.1787000000000001
 20
-5.4031400000000005
 30
0.0
 10
1.9102200000000003
 20
-5.1872400000000001
 30
0.0
 10
2.4944200000000003
 20
-4.3719000000000001
 30
0.0
 10
3.2259400000000005
 20
-4.3084000000000007
 30
0.0
 10
3.2259400000000005
 20
-4.3084000000000007
 30
0.0
 10
3.0151200000000005
 20
-4.7579800000000008
 30
0.0
 10
2.4004400000000001
 20
-5.2151800000000001
 30
0.0
 10
2.2201
 20
-5.5377600000000005
 30
0.0
 10
2.2201
 20
-5.5377600000000005
 30
0.0
 10
2.4842600000000004
 20
-5.5403000000000002
 30
0.0
 10
1.9813400000000001
 20
-5.6977800000000007
 30
0.0
 10
1.8772000000000002
 20
-5.7612800000000002
 30
0.0
 10
1.8772000000000002
 20
-5.7612800000000002
 30
0.0
 10
1.5241400000000001
 20
-6.0127400000000009
 30
0.0
 10
2.4233000000000002
 20
-5.6444400000000003
 30
0.0
 10
2.5782400000000001
 20
-5.4920400000000003
 30
0.0
 10
2.5782400000000001
 20
-5.4920400000000003
 30
0.0
 10
2.9465400000000002
 20
-5.2507400000000004
 30
0.0
 10
3.2183200000000003
 20
-4.8392600000000003
 30
0.0
 10
3.4774000000000003
 20
-4.4811200000000007
 30
0.0
 10
3.4774000000000003
 20
-4.4811200000000007
 30
0.0
 10
3.5586800000000003
 20
-4.6132
 30
0.0
 10
3.5459800000000001
 20
-4.7833800000000002
 30
0.0
 10
3.5586800000000003
 20
-4.9357800000000003
 30
0.0
 10
3.5586800000000003
 20
-4.9357800000000003
 30
0.0
 10
2.9236800000000001
 20
-5.9619400000000002
 30
0.0
 10
2.7687400000000002
 20
-5.4488600000000007
 30
0.0
 10
1.52668
 20
-6.2235600000000009
 30
0.0
 10
1.52668
 20
-6.2235600000000009
 30
0.0
 10
1.8187800000000001
 20
-6.2108600000000003
 30
0.0
 10
2.1312000000000002
 20
-6.1422800000000004
 30
0.0
 10
2.4360000000000004
 20
-6.1016400000000006
 30
0.0
 10
2.4360000000000004
 20
-6.1016400000000006
 30
0.0
 10
2.8170000000000002
 20
-6.0127400000000009
 30
0.0
 10
3.1091000000000002
 20
-5.6825400000000004
 30
0.0
 10
3.4723200000000003
 20
-5.5403000000000002
 30
0.0
 10
3.4723200000000003
 20
-5.5403000000000002
 30
0.0
 10
3.2107000000000001
 20
-5.7282600000000006
 30
0.0
 10
2.7585800000000003
 20
-6.1448200000000002
 30
0.0
 10
3.3427800000000003
 20
-5.82986
 30
0.0
 10
3.3427800000000003
 20
-5.82986
 30
0.0
 10
3.4469200000000004
 20
-5.7511200000000002
 30
0.0
 10
3.5663000000000005
 20
-5.6850800000000001
 30
0.0
 10
3.6704400000000001
 20
-5.5936400000000006
 30
0.0
 10
3.6704400000000001
 20
-5.5936400000000006
 30
0.0
 10
3.7390200000000005
 20
-5.7257200000000008
 30
0.0
 10
3.8203000000000005
 20
-5.8857400000000002
 30
0.0
 10
3.8228400000000002
 20
-6.0533800000000006
 30
0.0
 10
3.8228400000000002
 20
-6.0533800000000006
 30
0.0
 10
3.1243400000000001
 20
-6.3505600000000006
 30
0.0
 10
2.2201
 20
-6.3429400000000005
 30
0.0
 10
1.4606400000000002
 20
-6.2692800000000002
 30
0.0
 10
1.4606400000000002
 20
-6.2692800000000002
 30
0.0
 10
1.6079600000000001
 20
-6.0483000000000002
 30
0.0
 10
1.8695800000000002
 20
-6.0127400000000009
 30
0.0
 10
2.0677000000000003
 20
-5.8832000000000004
 30
0.0
 10
2.0677000000000003
 20
-5.8832000000000004
 30
0.0
 10
2.0677000000000003
 20
-5.8832000000000004
 30
0.0
 10
2.1870800000000004
 20
-5.8171600000000003
 30
0.0
 10
2.1870800000000004
 20
-5.8171600000000003
 30
0.0
 10
2.1870800000000004
 20
-5.8171600000000003
 30
0.0
 10
1.7349600000000001
 20
-5.8984400000000008
 30
0.0
 10
1.18886
 20
-6.3353200000000003
 30
0.0
 10
0.95518
 20
-6.1880000000000006
 30
0.0
 10
0.95518
 20
-6.1880000000000006
 30
0.0
 10
0.82818
 20
-6.1727600000000002
 30
0.0
 10
0.8027800000000001
 20
-6.2007000000000003
 30
0.0
 10
0.9424800000000001
 20
-6.2159400000000007
 30
0.0
 10
0.9424800000000001
 20
-6.2159400000000007
 30
0.0
 10
0.9424800000000001
 20
-6.2159400000000007
 30
0.0
 10
1.09996
 20
-6.2870600000000003
 30
0.0
 10
1.09996
 20
-6.2870600000000003
 30
0.0
 10
1.09996
 20
-6.2870600000000003
 30
0.0
 10
0.89168
 20
-6.2769000000000004
 30
0.0
 10
0.6249800000000001
 20
-6.2591200000000002
 30
0.0
 10
0.404
 20
-6.2769000000000004
 30
0.0
 10
0.404
 20
-6.2769000000000004
 30
0.0
 10
0.7088000000000001
 20
-6.1118000000000006
 30
0.0
 10
1.0466200000000001
 20
-6.1245000000000003
 30
0.0
 10
1.3539600000000001
 20
-5.9873400000000006
 30
0.0
 10
1.3539600000000001
 20
-5.9873400000000006
 30
0.0
 10
1.8086200000000001
 20
-5.6266600000000002
 30
0.0
 10
2.2175600000000002
 20
-5.1872400000000001
 30
0.0
 10
2.5376000000000003
 20
-4.7021000000000006
 30
0.0
 10
2.5376000000000003
 20
-4.7021000000000006
 30
0.0
 10
1.5571600000000001
 20
-5.6215800000000007
 30
0.0
 10
0.47004
 20
-6.2438800000000008
 30
0.0
 10
-0.7669300000000001
 20
-6.0432200000000007
 30
0.0
 10
-0.7669300000000001
 20
-6.0432200000000007
 30
0.0
 10
-0.80503
 20
-6.1016400000000006
 30
0.0
 10
-0.61453
 20
-6.1981600000000006
 30
0.0
 10
-0.53325
 20
-6.1905400000000004
 30
0.0
 10
-0.53325
 20
-6.1905400000000004
 30
0.0
 10
-0.41387
 20
-6.2642000000000007
 30
0.0
 10
-0.23353
 20
-6.0965600000000002
 30
0.0
 10
-0.12685
 20
-6.2261000000000006
 30
0.0
 10
-0.12685
 20
-6.2261000000000006
 30
0.0
 10
-0.49515
 20
-6.3124600000000006
 30
0.0
 10
-0.90917
 20
-6.1956200000000008
 30
0.0
 10
-1.25461
 20
-6.0584600000000002
 30
0.0
 10
-1.25461
 20
-6.0584600000000002
 30
0.0
 10
-1.37653
 20
-6.0965600000000002
 30
0.0
 10
-1.20381
 20
-6.1372000000000009
 30
0.0
 10
-1.21143
 20
-6.2083200000000005
 30
0.0
 10
-1.21143
 20
-6.2083200000000005
 30
0.0
 10
-1.7727700000000002
 20
-6.1575200000000008
 30
0.0
 10
-2.3366500000000001
 20
-6.2337200000000008
 30
0.0
 10
-2.8776700000000002
 20
-6.1143400000000003
 30
0.0
 10
-2.8776700000000002
 20
-6.1143400000000003
 30
0.0
 10
-2.6516100000000002
 20
-6.0254400000000006
 30
0.0
 10
-2.3722100000000004
 20
-6.1956200000000008
 30
0.0
 10
-2.1283700000000003
 20
-6.0914800000000007
 30
0.0
 10
-2.1283700000000003
 20
-6.0914800000000007
 30
0.0
 10
-2.1283700000000003
 20
-6.0914800000000007
 30
0.0
 10
-2.40015
 20
-6.0305200000000001
 30
0.0
 10
-2.40015
 20
-6.0305200000000001
 30
0.0
 10
-2.40015
 20
-6.0305200000000001
 30
0.0
 10
-2.4484100000000004
 20
-6.0356000000000005
 30
0.0
 10
-2.4941300000000002
 20
-6.0254400000000006
 30
0.0
 10
-2.5398500000000004
 20
-6.0000400000000003
 30
0.0
 10
-2.5398500000000004
 20
-6.0000400000000003
 30
0.0
 10
-2.8548100000000001
 20
-5.9162200000000009
 30
0.0
 10
-2.9437100000000003
 20
-6.1194200000000007
 30
0.0
 10
-3.1799300000000001
 20
-5.9162200000000009
 30
0.0
 10
-3.1799300000000001
 20
-5.9162200000000009
 30
0.0
 10
-3.2383500000000001
 20
-5.8806600000000007
 30
0.0
 10
-3.3272500000000003
 20
-5.6520600000000005
 30
0.0
 10
-3.2205700000000004
 20
-5.7816000000000001
 30
0.0
 10
-3.2205700000000004
 20
-5.7816000000000001
 30
0.0
 10
-2.7252700000000001
 20
-5.8933600000000004
 30
0.0
 10
-3.5914100000000002
 20
-5.4387000000000008
 30
0.0
 10
-3.5253700000000001
 20
-5.0297600000000005
 30
0.0
 10
-3.5253700000000001
 20
-5.0297600000000005
 30
0.0
 10
-3.6244300000000003
 20
-4.8697400000000002
 30
0.0
 10
-3.5126700000000004
 20
-4.6944800000000004
 30
0.0
 10
-3.4593300000000005
 20
-4.5370000000000008
 30
0.0
 10
-3.4593300000000005
 20
-4.5370000000000008
 30
0.0
 10
-3.2866100000000005
 20
-4.7021000000000006
 30
0.0
 10
-3.4288500000000002
 20
-4.9510200000000006
 30
0.0
 10
-3.4263100000000004
 20
-5.1593
 30
0.0
 10
-3.4263100000000004
 20
-5.1593
 30
0.0
 10
-3.11389
 20
-5.0907200000000001
 30
0.0
 10
-3.2180300000000002
 20
-5.3777400000000002
 30
0.0
 10
-2.9741900000000001
 20
-5.6622200000000005
 30
0.0
 10
-2.9741900000000001
 20
-5.6622200000000005
 30
0.0
 10
-2.6338300000000001
 20
-5.8425600000000006
 30
0.0
 10
-2.06487
 20
-6.0025800000000009
 30
0.0
 10
-1.4882900000000001
 20
-6.1397400000000006
 30
0.0
 10
-1.4882900000000001
 20
-6.1397400000000006
 30
0.0
 10
-1.3206500000000001
 20
-6.1803800000000004
 30
0.0
 10
-1.2190500000000002
 20
-6.1880000000000006
 30
0.0
 10
-1.37399
 20
-6.1118000000000006
 30
0.0
  0
SPLINE
  5
7A
100
AcDbEntity
  8
Ebene 1
100
AcDbSpline
210
0.0
220
0.0
230
1.0
 70
     1
 71
     3
 72
    20
 73
    16
 74
     0
 42
0.0000000001
 43
0.0000000001
 40
0.0
 40
0.0
 40
0.0
 40
0.0
 40
0.25
 40
0.25
 40
0.25
 40
0.25
 40
0.5
 40
0.5
 40
0.5
 40
0.5
 40
0.75
 40
0.75
 40
0.75
 40
0.75
 40
1.0
 40
1.0
 40
1.0
 40
1.0
 10
-2.1156700000000002
 20
-4.4354000000000005
 30
0.0
 10
-2.1004300000000002
 20
-4.4328600000000007
 30
0.0
 10
-2.0851900000000003
 20
-4.4455600000000004
 30
0.0
 10
-2.0851900000000003
 20
-4.4608000000000008
 30
0.0
 10
-2.0851900000000003
 20
-4.4608000000000008
 30
0.0
 10
-2.0851900000000003
 20
-4.4608000000000008
 30
0.0
 10
-2.1740900000000001
 20
-5.07294
 30
0.0
 10
-2.1740900000000001
 20
-5.07294
 30
0.0
 10
-2.1740900000000001
 20
-5.07294
 30
0.0
 10
-2.1740900000000001
 20
-5.07294
 30
0.0
 10
-2.2020300000000002
 20
-5.0475400000000006
 30
0.0
 10
-2.2020300000000002
 20
-5.0475400000000006
 30
0.0
 10
-2.2020300000000002
 20
-5.0475400000000006
 30
0.0
 10
-2.2020300000000002
 20
-5.0475400000000006
 30
0.0
 10
-2.1156700000000002
 20
-4.4354000000000005
 30
0.0
 10
-2.1156700000000002
 20
-4.4354000000000005
 30
0.0
  0
SPLINE
  5
7B
100
AcDbEntity
  8
Ebene 1
 62
     7
100
AcDbSpline
210
0.0
220
0.0
230
1.0
 70
     1
 71
     3
 72
    40
 73
    36
 74
     0
 42
0.0000000001
 43
0.0000000001
 40
0.0
 40
0.0
 40
0.0
 40
0.0
 40
0.1111111111111111
 40
0.1111111111111111
 40
0.1111111111111111
 40
0.1111111111111111
 40
0.2222222222222222
 40
0.2222222222222222
 40
0.2222222222222222
 40
0.2222222222222222
 40
0.3333333333333333
 40
0.3333333333333333
 40
0.3333333333333333
 40
0.3333333333333333
 40
0.4444444444444444
 40
0.4444444444444444
 40
0.4444444444444444
 40
0.4444444444444444
 40
0.5555555555555556
 40
0.5555555555555556
 40
0.5555555555555556
 40
0.5555555555555556
 40
0.6666666666666667
 40
0.6666666666666667
 40
0.6666666666666667
 40
0.6666666666666667
 40
0.7777777777777779
 40
0.7777777777777779
 40
0.7777777777777779
 40
0.7777777777777779
 40
0.8888888888888891
 40
0.8888888888888891
 40
0.8888888888888891
 40
0.8888888888888891
 40
1.0
 40
1.0
 40
1.0
 40
1.0
 10
0.3455800000000001
 20
-4.9535600000000004
 30
0.0
 10
0.38622
 20
-4.9510200000000006
 30
0.0
 10
0.4294000000000001
 20
-4.9738800000000003
 30
0.0
 10
0.45988
 20
-4.98658
 30
0.0
 10
0.45988
 20
-4.98658
 30
0.0
 10
0.0103
 20
-5.3193200000000003
 30
0.0
 10
-0.46721
 20
-5.7841400000000007
 30
0.0
 10
-1.0615700000000001
 20
-5.7358800000000008
 30
0.0
 10
-1.0615700000000001
 20
-5.7358800000000008
 30
0.0
 10
-0.9040900000000001
 20
-5.6088800000000001
 30
0.0
 10
-0.65517
 20
-5.5733200000000007
 30
0.0
 10
-0.49769
 20
-5.4209200000000006
 30
0.0
 10
-0.49769
 20
-5.4209200000000006
 30
0.0
 10
-0.49769
 20
-5.4209200000000006
 30
0.0
 10
-0.40879
 20
-5.4818800000000003
 30
0.0
 10
-0.40879
 20
-5.4818800000000003
 30
0.0
 10
-0.40879
 20
-5.4818800000000003
 30
0.0
 10
-0.39863
 20
-5.4387000000000008
 30
0.0
 10
-0.36053
 20
-5.3955200000000003
 30
0.0
 10
-0.31989
 20
-5.3625000000000007
 30
0.0
 10
-0.31989
 20
-5.3625000000000007
 30
0.0
 10
-0.31989
 20
-5.3625000000000007
 30
0.0
 10
-0.24369
 20
-5.4260000000000002
 30
0.0
 10
-0.24369
 20
-5.4260000000000002
 30
0.0
 10
-0.24369
 20
-5.4260000000000002
 30
0.0
 10
-0.18019
 20
-5.3650400000000005
 30
0.0
 10
-0.11161
 20
-5.1618400000000007
 30
0.0
 10
-0.01763
 20
-5.2939200000000008
 30
0.0
 10
-0.01763
 20
-5.2939200000000008
 30
0.0
 10
-0.01763
 20
-5.2939200000000008
 30
0.0
 10
0.13222
 20
-5.0983400000000003
 30
0.0
 10
0.13222
 20
-5.0983400000000003
 30
0.0
 10
0.13222
 20
-5.0983400000000003
 30
0.0
 10
0.23636
 20
-5.1593
 30
0.0
 10
0.30748
 20
-5.0272200000000007
 30
0.0
 10
0.3455800000000001
 20
-4.9535600000000004
 30
0.0
  0
SPLINE
  5
7C
100
AcDbEntity
  8
Ebene 1
 62
     7
100
AcDbSpline
210
0.0
220
0.0
230
1.0
 70
     1
 71
     3
 72
    20
 73
    16
 74
     0
 42
0.0000000001
 43
0.0000000001
 40
0.0
 40
0.0
 40
0.0
 40
0.0
 40
0.25
 40
0.25
 40
0.25
 40
0.25
 40
0.5
 40
0.5
 40
0.5
 40
0.5
 40
0.75
 40
0.75
 40
0.75
 40
0.75
 40
1.0
 40
1.0
 40
1.0
 40
1.0
 10
-3.9571700000000005
 20
-5.5784000000000002
 30
0.0
 10
-3.8835100000000002
 20
-5.6698400000000007
 30
0.0
 10
-3.7844500000000001
 20
-5.7866800000000005
 30
0.0
 10
-3.6701500000000005
 20
-5.9035200000000003
 30
0.0
 10
-3.6701500000000005
 20
-5.9035200000000003
 30
0.0
 10
-3.5914100000000002
 20
-6.0381400000000003
 30
0.0
 10
-3.4034500000000003
 20
-5.9238400000000002
 30
0.0
 10
-3.3018500000000004
 20
-6.0127400000000009
 30
0.0
 10
-3.3018500000000004
 20
-6.0127400000000009
 30
0.0
 10
-3.5888700000000004
 20
-6.0787800000000001
 30
0.0
 10
-3.9216100000000003
 20
-6.0660800000000004
 30
0.0
 10
-4.2086300000000003
 20
-6.0203600000000002
 30
0.0
 10
-4.2086300000000003
 20
-6.0203600000000002
 30
0.0
 10
-4.30769
 20
-5.8171600000000003
 30
0.0
 10
-4.0155900000000004
 20
-5.7231800000000002
 30
0.0
 10
-3.9571700000000005
 20
-5.5784000000000002
 30
0.0
  0
SPLINE
  5
7D
100
AcDbEntity
  8
Ebene 1
100
AcDbSpline
210
0.0
220
0.0
230
1.0
 70
     1
 71
     3
 72
    12
 73
     8
 74
     0
 42
0.0000000001
 43
0.0000000001
 40
0.0
 40
0.0
 40
0.0
 40
0.0
 40
0.5
 40
0.5
 40
0.5
 40
0.5
 40
1.0
 40
1.0
 40
1.0
 40
1.0
 10
3.6577400000000004
 20
-5.7384200000000005
 30
0.0
 10
3.7568000000000001
 20
-5.7435
 30
0.0
 10
3.7720400000000005
 20
-6.0508400000000009
 30
0.0
 10
3.6094800000000005
 20
-5.9670200000000007
 30
0.0
 10
3.6094800000000005
 20
-5.9670200000000007
 30
0.0
 10
3.6094800000000005
 20
-5.9670200000000007
 30
0.0
 10
3.6577400000000004
 20
-5.7384200000000005
 30
0.0
 10
3.6577400000000004
 20
-5.7384200000000005
 30
0.0
  0
ENDSEC
  0
SECTION
  2
OBJECTS
  0
DICTIONARY
  5
19
100
AcDbDictionary
280
     0
281
     1
  3
ACAD_GROUP
350
1A
  3
ACAD_MLINESTYLE
350
1B
  3
ACAD_LAYOUT
350
1E
  3
ACAD_PLOTSETTINGS
350
22
  3
ACAD_PLOTSTYLENAME
350
1F
  3
ACAD_WIPEOUT_VARS
350
23
  0
DICTIONARY
  5
1A
102
{ACAD_REACTORS
330
19
102
}
100
AcDbDictionary
280
     0
281
     1
  0
DICTIONARY
  5
1B
102
{ACAD_REACTORS
330
19
102
}
100
AcDbDictionary
280
     0
281
     1
  3
Standard
350
1C
  0
MLINESTYLE
  5
1C
102
{ACAD_REACTORS
330
1B
102
}
100
AcDbMlineStyle
  2
Standard
 70
     0
  3

 62
     0
 51
90.0
 52
90.0
 71
     2
 49
0.5
 62
   256
  6
BYLAYER
 49
-0.5
 62
   256
  6
BYLAYER
  0
ACDBDICTIONARYWDFLT
  5
1F
102
{ACAD_REACTORS
330
19
102
}
100
AcDbDictionary
281
     1
  3
Normal
350
1D
100
AcDbDictionaryWithDefault
340
1D
  0
ACDBPLACEHOLDER
  5
1D
102
{ACAD_REACTORS
330
1F
102
}
  0
LAYOUT
  5
20
102
{ACAD_REACTORS
330
1E
102
}
100
AcDbPlotSettings
  1

  2

  4

  6

 40
0.0
 41
0.0
 42
0.0
 43
0.0
 44
0.0
 45
0.0
 46
0.0
 47
0.0
 48
0.0
 49
0.0
140
0.0
141
0.0
142
1.0
143
1.0
 70
  1024
 72
     0
 73
     0
 74
     0
  7

 75
     0
147
1.0
148
0.0
149
0.0
100
AcDbLayout
  1
Model
 70
     0
 71
     0
 10
0.0
 20
0.0
 11
0.0
 21
0.0
 12
0.0
 22
0.0
 32
0.0
 14
0.0
 24
0.0
 34
0.0
 15
0.0
 25
0.0
 35
0.0
146
0.0
 13
0.0
 23
0.0
 33
0.0
 16
0.0
 26
0.0
 36
0.0
 17
0.0
 27
0.0
 37
0.0
 76
     0
330
A
331
0
345
0
346
0
  0
LAYOUT
  5
21
102
{ACAD_REACTORS
330
1E
102
}
100
AcDbPlotSettings
  1

  2

  4

  6

 40
0.0
 41
0.0
 42
0.0
 43
0.0
 44
0.0
 45
0.0
 46
0.0
 47
0.0
 48
0.0
 49
0.0
140
0.0
141
0.0
142
1.0
143
1.0
 70
     0
 72
     0
 73
     0
 74
     0
  7

 75
     0
147
1.0
148
0.0
149
0.0
100
AcDbLayout
  1
Layout1
 70
     0
 71
     0
 10
0.0
 20
0.0
 11
0.0
 21
0.0
 12
0.0
 22
0.0
 32
0.0
 14
0.0
 24
0.0
 34
0.0
 15
0.0
 25
0.0
 35
0.0
146
0.0
 13
0.0
 23
0.0
 33
0.0
 16
0.0
 26
0.0
 36
0.0
 17
0.0
 27
0.0
 37
0.0
 76
     0
330
B
331
0
345
0
346
0
  0
DICTIONARY
  5
1E
102
{ACAD_REACTORS
330
19
102
}
100
AcDbDictionary
280
     0
281
     1
  3
Layout1
350
21
  3
Model
350
20
  0
DICTIONARY
  5
22
102
{ACAD_REACTORS
330
19
102
}
100
AcDbDictionary
280
     0
281
     1
  0
WIPEOUTVARIABLES
  5
23
100
AcDbWipeoutVariables
 70
     1
  0
ENDSEC
  0
EOF
