  0
SECTION
  2
HEADER
  9
$ACADVER
  1
AC1015
  9
$ACADMAINTVER
 70
     6
  9
$DWGCODEPAGE
  3
DOS850
  9
$INSBASE
 10
0.0
 20
0.0
 30
0.0
  9
$EXTMIN
 10
-4.49311
 20
-6.5944
 30
1.000000E+20
  9
$EXTMAX
 10
4.50009
 20
6.58916
 30
-1.000000E+20
  9
$LIMMIN
 10
0.0
 20
0.0
  9
$LIMMAX
 10
0.0
 20
0.0
  9
$ORTHOMODE
 70
     0
  9
$REGENMODE
 70
     1
  9
$FILLMODE
 70
     1
  9
$QTEXTMODE
 70
     0
  9
$MIRRTEXT
 70
     1
  9
$LTSCALE
 40
1.0
  9
$ATTMODE
 70
     1
  9
$TEXTSIZE
 40
0.2
  9
$TRACEWID
 40
0.05
  9
$TEXTSTYLE
  7
Standard
  9
$CLAYER
  8
0
  9
$CELTYPE
  6
Continuous
  9
$CECOLOR
 62
   256
  9
$CELTSCALE
 40
1.0
  9
$DISPSILH
 70
     0
  9
$DIMSCALE
 40
1.0
  9
$DIMASZ
 40
0.18
  9
$DIMEXO
 40
0.0625
  9
$DIMDLI
 40
0.38
  9
$DIMRND
 40
0.0
  9
$DIMDLE
 40
0.0
  9
$DIMEXE
 40
0.18
  9
$DIMTP
 40
0.0
  9
$DIMTM
 40
0.0
  9
$DIMTXT
 40
0.18
  9
$DIMCEN
 40
0.09
  9
$DIMTSZ
 40
0.0
  9
$DIMTOL
 70
     0
  9
$DIMLIM
 70
     0
  9
$DIMTIH
 70
     1
  9
$DIMTOH
 70
     1
  9
$DIMSE1
 70
     0
  9
$DIMSE2
 70
     0
  9
$DIMTAD
 70
     0
  9
$DIMZIN
 70
     0
  9
$DIMBLK
  1

  9
$DIMASO
 70
     1
  9
$DIMSHO
 70
     1
  9
$DIMPOST
  1

  9
$DIMAPOST
  1

  9
$DIMALT
 70
     0
  9
$DIMALTD
 70
     2
  9
$DIMALTF
 40
25.4
  9
$DIMLFAC
 40
1.0
  9
$DIMTOFL
 70
     0
  9
$DIMTVP
 40
0.0
  9
$DIMTIX
 70
     0
  9
$DIMSOXD
 70
     0
  9
$DIMSAH
 70
     0
  9
$DIMBLK1
  1

  9
$DIMBLK2
  1

  9
$DIMSTYLE
  2
Standard
  9
$DIMCLRD
 70
     0
  9
$DIMCLRE
 70
     0
  9
$DIMCLRT
 70
     0
  9
$DIMTFAC
 40
1.0
  9
$DIMGAP
 40
0.09
  9
$DIMJUST
 70
     0
  9
$DIMSD1
 70
     0
  9
$DIMSD2
 70
     0
  9
$DIMTOLJ
 70
     1
  9
$DIMTZIN
 70
     0
  9
$DIMALTZ
 70
     0
  9
$DIMALTTZ
 70
     0
  9
$DIMUPT
 70
     0
  9
$DIMDEC
 70
     4
  9
$DIMTDEC
 70
     4
  9
$DIMALTU
 70
     2
  9
$DIMALTTD
 70
     2
  9
$DIMTXSTY
  7
Standard
  9
$DIMAUNIT
 70
     0
  9
$DIMADEC
 70
     0
  9
$DIMALTRND
 40
0.0
  9
$DIMAZIN
 70
     0
  9
$DIMDSEP
 70
     0
  9
$DIMATFIT
 70
     3
  9
$DIMFRAC
 70
     0
  9
$DIMLDRBLK
  1

  9
$DIMLUNIT
 70
     2
  9
$DIMLWD
 70
     0
  9
$DIMLWE
 70
     0
  9
$DIMTMOVE
 70
     0
  9
$LUNITS
 70
     2
  9
$LUPREC
 70
     4
  9
$SKETCHINC
 40
0.1
  9
$FILLETRAD
 40
0.0
  9
$AUNITS
 70
     0
  9
$AUPREC
 70
     0
  9
$MENU
  1
acad
  9
$ELEVATION
 40
0.0
  9
$PELEVATION
 40
0.0
  9
$THICKNESS
 40
0.0
  9
$LIMCHECK
 70
     0
  9
$CHAMFERA
 40
0.0
  9
$CHAMFERB
 40
0.0
  9
$CHAMFERC
 40
0.0
  9
$CHAMFERD
 40
0.0
  9
$SKPOLY
 70
     0
  9
$TDCREATE
 40
0.000000000
  9
$TDUCREATE
 40
0.000000000
  9
$TDUPDATE
 40
0.000000000
  9
$TDUUPDATE
 40
0.000000000
  9
$TDINDWG
 40
0.0000000000
  9
$TDUSRTIMER
 40
0.0000000000
  9
$USRTIMER
 70
     1
  9
$ANGBASE
 50
0.0
  9
$ANGDIR
 70
     0
  9
$PDMODE
 70
     0
  9
$PDSIZE
 40
0.0
  9
$PLINEWID
 40
0.0
  9
$SPLFRAME
 70
     0
  9
$SPLINETYPE
 70
     6
  9
$SPLINESEGS
 70
     8
  9
$HANDSEED
  5
B1
  9
$SURFTAB1
 70
     6
  9
$SURFTAB2
 70
     6
  9
$SURFTYPE
 70
     6
  9
$SURFU
 70
     6
  9
$SURFV
 70
     6
  9
$UCSBASE
  2

  9
$UCSNAME
  2

  9
$UCSORG
 10
0.0
 20
0.0
 30
0.0
  9
$UCSXDIR
 10
1.0
 20
0.0
 30
0.0
  9
$UCSYDIR
 10
0.0
 20
1.0
 30
0.0
  9
$UCSORTHOREF
  2

  9
$UCSORTHOVIEW
 70
     0
  9
$UCSORGTOP
 10
0.0
 20
0.0
 30
0.0
  9
$UCSORGBOTTOM
 10
0.0
 20
0.0
 30
0.0
  9
$UCSORGLEFT
 10
0.0
 20
0.0
 30
0.0
  9
$UCSORGRIGHT
 10
0.0
 20
0.0
 30
0.0
  9
$UCSORGFRONT
 10
0.0
 20
0.0
 30
0.0
  9
$UCSORGBACK
 10
0.0
 20
0.0
 30
0.0
  9
$PUCSBASE
  2

  9
$PUCSNAME
  2

  9
$PUCSORG
 10
0.0
 20
0.0
 30
0.0
  9
$PUCSXDIR
 10
1.0
 20
0.0
 30
0.0
  9
$PUCSYDIR
 10
0.0
 20
1.0
 30
0.0
  9
$PUCSORTHOREF
  2

  9
$PUCSORTHOVIEW
 70
     0
  9
$PUCSORGTOP
 10
0.0
 20
0.0
 30
0.0
  9
$PUCSORGBOTTOM
 10
0.0
 20
0.0
 30
0.0
  9
$PUCSORGLEFT
 10
0.0
 20
0.0
 30
0.0
  9
$PUCSORGRIGHT
 10
0.0
 20
0.0
 30
0.0
  9
$PUCSORGFRONT
 10
0.0
 20
0.0
 30
0.0
  9
$PUCSORGBACK
 10
0.0
 20
0.0
 30
0.0
  9
$USERI1
 70
     0
  9
$USERI2
 70
     0
  9
$USERI3
 70
     0
  9
$USERI4
 70
     0
  9
$USERI5
 70
     0
  9
$USERR1
 40
0.0
  9
$USERR2
 40
0.0
  9
$USERR3
 40
0.0
  9
$USERR4
 40
0.0
  9
$USERR5
 40
0.0
  9
$WORLDVIEW
 70
     1
  9
$SHADEDGE
 70
     3
  9
$SHADEDIF
 70
    70
  9
$TILEMODE
 70
     1
  9
$MAXACTVP
 70
    16
  9
$PINSBASE
 10
0.0
 20
0.0
 30
0.0
  9
$PLIMCHECK
 70
     0
  9
$PEXTMIN
 10
1.000000E+20
 20
1.000000E+20
 30
1.000000E+20
  9
$PEXTMAX
 10
-1.000000E+20
 20
-1.000000E+20
 30
-1.000000E+20
  9
$PLIMMIN
 10
0.0
 20
0.0
  9
$PLIMMAX
 10
12.0
 20
9.0
  9
$UNITMODE
 70
     0
  9
$VISRETAIN
 70
     0
  9
$PLINEGEN
 70
     1
  9
$PSLTSCALE
 70
     0
  9
$TREEDEPTH
 70
  3020
  9
$CMLSTYLE
  2
Standard
  9
$CMLJUST
 70
     0
  9
$CMLSCALE
 40
1.0
  9
$PROXYGRAPHICS
 70
     0
  9
$MEASUREMENT
 70
     0
  9
$CELWEIGHT
370
     0
  9
$ENDCAPS
280
     0
  9
$JOINSTYLE
280
     0
  9
$LWDISPLAY
290
     0
  9
$INSUNITS
 70
     5
  9
$HYPERLINKBASE
  1

  9
$XEDIT
290
     1
  9
$CEPSNTYPE
380
     0
  9
$PSTYLEMODE
290
     1
  9
$FINGERPRINTGUID
  2

  9
$VERSIONGUID
  2

  9
$EXTNAMES
290
     1
  9
$PSVPSCALE
 40
0.0
  0
ENDSEC
  0
SECTION
  2
CLASSES
  0
CLASS
  1
LWPOLYLINE
  2
AcDbPolyline
  3
AutoCAD 2000
 90
    32768
280
     0
281
     1
  0
CLASS
  1
IMAGE
  2
AcDbRasterImage
  3
ISM
 90
    32895
280
     0
281
     1
  0
CLASS
  1
OLE2FRAME
  2
AcDbOle2Frame
  3
AutoCAD 2000
 90
    32768
280
     0
281
     1
  0
CLASS
  1
HATCH
  2
AcDbHatch
  3
AutoCAD 2000
 90
    32768
280
     0
281
     1
  0
CLASS
  1
DICTIONARYVAR
  2
AcDbDictionaryVar
  3
AutoCAD 2000
 90
    32768
280
     0
281
     0
  0
CLASS
  1
RASTERVARIABLES
  2
AcDbRasterVariables
  3
ISM
 90
    32768
280
     0
281
     0
  0
CLASS
  1
IMAGEDEF
  2
AcDbRasterImageDef
  3
ISM
 90
    32768
280
     0
281
     0
  0
CLASS
  1
IMAGEDEF_REACTOR
  2
AcDbRasterImageDefReactor
  3
ISM
 90
    32769
280
     0
281
     0
  0
CLASS
  1
IDBUFFER
  2
AcDbIdBuffer
  3
AutoCAD 2000
 90
    32768
280
     0
281
     0
  0
CLASS
  1
SPATIAL_FILTER
  2
AcDbSpatialFilter
  3
AutoCAD 2000
 90
    32768
280
     0
281
     0
  0
CLASS
  1
XRECORD
  2
AcDbXrecord
  3
AutoCAD 2000
 90
    32768
280
     0
281
     0
  0
CLASS
  1
SORTENTSTABLE
  2
AcDbSortentsTable
  3
AutoCAD 2000
 90
    32768
280
     0
281
     0
  0
CLASS
  1
LAYER_INDEX
  2
AcDbLayerIndex
  3
AutoCAD 2000
 90
    32768
280
     0
281
     0
  0
CLASS
  1
SPATIAL_INDEX
  2
AcDbSpatialIndex
  3
AutoCAD 2000
 90
    32768
280
     0
281
     0
  0
CLASS
  1
OBJECT_PTR
  2
CAseDLPNTableRecord
  3
"ASE-LPNTableRecord"
 90
    32769
280
     0
281
     0
  0
CLASS
  1
LAYOUT
  2
AcDbLayout
  3
AutoCAD 2000
 90
        0
280
     0
281
     0
  0
CLASS
  1
PLOTSETTINGS
  2
AcDbPlotSettings
  3
AutoCAD 2000
 90
    32768
280
     0
281
     0
  0
CLASS
  1
ACDBDICTIONARYWDFLT
  2
AcDbDictionaryWithDefault
  3
AutoCAD 2000
 90
        0
280
     0
281
     0
  0
CLASS
  1
ACDBPLACEHOLDER
  2
AcDbPlaceHolder
  3
AutoCAD 2000
 90
        0
280
     0
281
     0
  0
CLASS
  1
VBA_PROJECT
  2
AcDbVbaProject
  3
acadvba
 90
    32768
280
     0
281
     0
  0
CLASS
  1
WIPEOUT
  2
AcDbWipeout
  3
WipeOut|AutoCAD Express Tool|expresstools@autodesk.com
 90
    32895
280
     0
281
     1
  0
CLASS
  1
WIPEOUTVARIABLES
  2
AcDbWipeoutVariables
  3
WipeOut|AutoCAD Express Tool|expresstools@autodesk.com
 90
        0
280
     0
281
     0
  0
CLASS
  1
RTEXT
  2
RText
  3
RText|AutoCAD Express Tool|expresstools@autodesk.com
 90
    32768
280
     0
281
     1
  0
CLASS
  1
ARCALIGNEDTEXT
  2
AcDbArcAlignedText
  3
ATEXT|AutoCAD Express Tool|expresstools@autodesk.com
 90
    32768
280
     0
281
     1
  0
ENDSEC
  0
SECTION
  2
TABLES
  0
TABLE
  2
VPORT
  5
7
100
AcDbSymbolTable
 70
     1
  0
VPORT
  5
15
100
AcDbSymbolTableRecord
100
AcDbViewportTableRecord
  2
*ACTIVE
 70
     0
 10
0.0
 20
0.0
 11
1.0
 21
1.0
 12
6.591288
 22
4.579184
 13
0.0
 23
0.0
 14
1.0
 24
1.0
 15
0.0
 25
0.0
 16
0.0
 26
0.0
 36
1.0
 17
0.0
 27
0.0
 37
0.0
 40
9.158369
 41
0.688564
 42
50.0
 43
0.0
 44
0.0
 50
0.0
 51
0.0
 71
     0
 72
   100
 73
     1
 74
     1
 75
     0
 76
     0
 77
     0
 78
     0
281
     0
 65
     0
110
0.0
120
0.0
130
0.0
111
1.0
121
0.0
131
0.0
112
0.0
122
1.0
132
0.0
345
0
346
0
 79
     0
146
0.0
  0
ENDTAB
  0
TABLE
  2
LTYPE
  5
4
100
AcDbSymbolTable
 70
     3
  0
LTYPE
  5
11
100
AcDbSymbolTableRecord
100
AcDbLinetypeTableRecord
  2
ByBlock
 70
    64
  3

 72
    65
 73
     0
 40
0.0
  0
LTYPE
  5
12
100
AcDbSymbolTableRecord
100
AcDbLinetypeTableRecord
  2
ByLayer
 70
    64
  3

 72
    65
 73
     0
 40
0.0
  0
LTYPE
  5
13
100
AcDbSymbolTableRecord
100
AcDbLinetypeTableRecord
  2
Continuous
 70
    64
  3
Solid line
 72
    65
 73
     0
 40
0.0
  0
ENDTAB
  0
TABLE
  2
LAYER
  5
2
100
AcDbSymbolTable
 70
     2
  0
LAYER
  5
14
100
AcDbSymbolTableRecord
100
AcDbLayerTableRecord
  2
0
 70
     0
 62
     7
  6
Continuous
290
     1
370
    -3
390
1D
  0
LAYER
  5
24
100
AcDbSymbolTableRecord
100
AcDbLayerTableRecord
  2
Ebene 1
 70
     0
 62
     7
  6
Continuous
290
     1
370
    -3
390
1F
  0
ENDTAB
  0
TABLE
  2
STYLE
  5
3
100
AcDbSymbolTable
 70
     1
  0
STYLE
  5
17
100
AcDbSymbolTableRecord
100
AcDbTextStyleTableRecord
  2
Standard
 70
     0
 40
0.0
 41
1.0
 50
0.0
 71
     0
 42
0.0
  3
txt
  4

  0
ENDTAB
  0
TABLE
  2
VIEW
  5
5
100
AcDbSymbolTable
 70
     0
  0
ENDTAB
  0
TABLE
  2
UCS
  5
6
100
AcDbSymbolTable
 70
     0
  0
ENDTAB
  0
TABLE
  2
APPID
  5
8
100
AcDbSymbolTable
 70
     1
  0
APPID
  5
16
100
AcDbSymbolTableRecord
100
AcDbRegAppTableRecord
  2
ACAD
 70
     0
  0
ENDTAB
  0
TABLE
  2
DIMSTYLE
  5
9
100
AcDbSymbolTable
 70
     1
100
AcDbDimStyleTable
 71
     0
  0
DIMSTYLE
105
18
100
AcDbSymbolTableRecord
100
AcDbDimStyleTableRecord
  2
Standard
 70
     0
  3

  4

 40
1.0
 41
0.18
 42
0.0625
 43
0.38
 44
0.18
 45
0.0
 46
0.0
 47
0.0
 48
0.0
 71
     0
 72
     0
 73
     1
 74
     1
 75
     0
 76
     0
 77
     0
 78
     0
 79
     0
140
0.18
141
0.09
142
0.0
143
25.4
144
1.0
145
0.0
146
1.0
147
0.09
148
0.0
170
     0
171
     2
172
     0
173
     0
174
     0
175
     0
176
     0
177
     0
178
     0
179
     0
271
     4
272
     4
273
     2
274
     2
275
     0
276
     0
277
     2
278
    46
279
     0
280
     0
281
     0
282
     0
283
     1
284
     0
285
     0
286
     0
288
     0
340
17
341
0
342
0
343
0
344
0
371
    -2
372
    -2
  0
ENDTAB
  0
TABLE
  2
BLOCK_RECORD
  5
1
100
AcDbSymbolTable
 70
     0
  0
BLOCK_RECORD
  5
A
100
AcDbSymbolTableRecord
100
AcDbBlockTableRecord
  2
*MODEL_SPACE
340
20
  0
BLOCK_RECORD
  5
B
100
AcDbSymbolTableRecord
100
AcDbBlockTableRecord
  2
*PAPER_SPACE
340
21
  0
ENDTAB
  0
ENDSEC
  0
SECTION
  2
BLOCKS
  0
BLOCK
  5
D
100
AcDbEntity
  8
0
100
AcDbBlockBegin
  2
*MODEL_SPACE
 70
     0
 10
0.0
 20
0.0
 30
0.0
  3
*MODEL_SPACE
  1

  0
ENDBLK
  5
E
100
AcDbEntity
  8
0
100
AcDbBlockEnd
  0
BLOCK
  5
F
100
AcDbEntity
 67
     1
  8
0
100
AcDbBlockBegin
  2
*PAPER_SPACE
 70
     0
 10
0.0
 20
0.0
 30
0.0
  3
*PAPER_SPACE
  1

  0
ENDBLK
  5
10
100
AcDbEntity
 67
     1
  8
0
100
AcDbBlockEnd
  0
ENDSEC
  0
SECTION
  2
ENTITIES
  0
SPLINE
  5
25
100
AcDbEntity
  8
Ebene 1
100
AcDbSpline
210
0.0
220
0.0
230
1.0
 70
     1
 71
     3
 72
    84
 73
    80
 74
     0
 42
0.0000000001
 43
0.0000000001
 40
0.0
 40
0.0
 40
0.0
 40
0.0
 40
0.05
 40
0.05
 40
0.05
 40
0.05
 40
0.1
 40
0.1
 40
0.1
 40
0.1
 40
0.15
 40
0.15
 40
0.15
 40
0.15
 40
0.2
 40
0.2
 40
0.2
 40
0.2
 40
0.25
 40
0.25
 40
0.25
 40
0.25
 40
0.3
 40
0.3
 40
0.3
 40
0.3
 40
0.35
 40
0.35
 40
0.35
 40
0.35
 40
0.4
 40
0.4
 40
0.4
 40
0.4
 40
0.45
 40
0.45
 40
0.45
 40
0.45
 40
0.4999999999999999
 40
0.4999999999999999
 40
0.4999999999999999
 40
0.4999999999999999
 40
0.5499999999999999
 40
0.5499999999999999
 40
0.5499999999999999
 40
0.5499999999999999
 40
0.6
 40
0.6
 40
0.6
 40
0.6
 40
0.65
 40
0.65
 40
0.65
 40
0.65
 40
0.7000000000000001
 40
0.7000000000000001
 40
0.7000000000000001
 40
0.7000000000000001
 40
0.7500000000000001
 40
0.7500000000000001
 40
0.7500000000000001
 40
0.7500000000000001
 40
0.8000000000000002
 40
0.8000000000000002
 40
0.8000000000000002
 40
0.8000000000000002
 40
0.8500000000000002
 40
0.8500000000000002
 40
0.8500000000000002
 40
0.8500000000000002
 40
0.9000000000000002
 40
0.9000000000000002
 40
0.9000000000000002
 40
0.9000000000000002
 40
0.9500000000000003
 40
0.9500000000000003
 40
0.9500000000000003
 40
0.9500000000000003
 40
1.0
 40
1.0
 40
1.0
 40
1.0
 10
0.5208400000000001
 20
6.5780300000000009
 30
0.0
 10
2.4131400000000003
 20
6.7507500000000009
 30
0.0
 10
4.5746800000000007
 20
5.0768900000000006
 30
0.0
 10
4.3156000000000008
 20
3.1134700000000004
 30
0.0
 10
4.3156000000000008
 20
3.1134700000000004
 30
0.0
 10
4.38164
 20
2.7375500000000001
 30
0.0
 10
4.3613200000000001
 20
2.3260700000000001
 30
0.0
 10
4.2724200000000003
 20
1.9603100000000002
 30
0.0
 10
4.2724200000000003
 20
1.9603100000000002
 30
0.0
 10
4.3156000000000008
 20
1.9044300000000001
 30
0.0
 10
4.4146600000000005
 20
1.9399900000000001
 30
0.0
 10
4.45784
 20
1.8714100000000002
 30
0.0
 10
4.45784
 20
1.8714100000000002
 30
0.0
 10
4.6737400000000004
 20
0.8960500000000001
 30
0.0
 10
3.9930200000000005
 20
0.02229
 30
0.0
 10
4.1124000000000001
 20
-0.9352800000000001
 30
0.0
 10
4.1124000000000001
 20
-0.9352800000000001
 30
0.0
 10
3.7034600000000002
 20
-1.2375400000000001
 30
0.0
 10
3.0354400000000004
 20
-0.6254000000000001
 30
0.0
 10
2.9490800000000004
 20
-1.33152
 30
0.0
 10
2.9490800000000004
 20
-1.33152
 30
0.0
 10
2.8017600000000003
 20
-2.5202400000000003
 30
0.0
 10
2.2734400000000003
 20
-3.5464000000000002
 30
0.0
 10
2.2632800000000004
 20
-4.8164000000000007
 30
0.0
 10
2.2632800000000004
 20
-4.8164000000000007
 30
0.0
 10
1.8391000000000002
 20
-5.4133000000000004
 30
0.0
 10
1.4479400000000002
 20
-6.0406800000000009
 30
0.0
 10
0.9678800000000001
 20
-6.5944000000000003
 30
0.0
 10
0.9678800000000001
 20
-6.5944000000000003
 30
0.0
 10
0.7773800000000001
 20
-6.5613800000000007
 30
0.0
 10
0.59196
 20
-6.5105800000000009
 30
0.0
 10
0.40654
 20
-6.4496200000000004
 30
0.0
 10
0.40654
 20
-6.4496200000000004
 30
0.0
 10
-1.4070100000000001
 20
-6.5588400000000009
 30
0.0
 10
-1.7372100000000001
 20
-4.34396
 30
0.0
 10
-2.6744700000000003
 20
-3.2416000000000005
 30
0.0
 10
-2.6744700000000003
 20
-3.2416000000000005
 30
0.0
 10
-2.7455900000000004
 20
-3.0739600000000005
 30
0.0
 10
-2.77861
 20
-2.8961600000000001
 30
0.0
 10
-2.8116300000000001
 20
-2.7158200000000003
 30
0.0
 10
-2.8116300000000001
 20
-2.7158200000000003
 30
0.0
 10
-3.1240500000000004
 20
-2.43642
 30
0.0
 10
-3.3856700000000002
 20
-2.9114000000000004
 30
0.0
 10
-3.6853900000000004
 20
-2.9545800000000004
 30
0.0
 10
-3.6853900000000004
 20
-2.9545800000000004
 30
0.0
 10
-3.7057100000000003
 20
-2.9139400000000002
 30
0.0
 10
-3.7285700000000004
 20
-2.8656800000000002
 30
0.0
 10
-3.7285700000000004
 20
-2.8174200000000003
 30
0.0
 10
-3.7285700000000004
 20
-2.8174200000000003
 30
0.0
 10
-3.2358100000000003
 20
-2.3678400000000002
 30
0.0
 10
-4.2365700000000004
 20
-2.56596
 30
0.0
 10
-4.4931100000000006
 20
-2.5050000000000003
 30
0.0
 10
-4.4931100000000006
 20
-2.5050000000000003
 30
0.0
 10
-4.4677100000000003
 20
-2.1087600000000002
 30
0.0
 10
-3.8885900000000002
 20
-2.1798800000000003
 30
0.0
 10
-3.6066500000000001
 20
-2.0884400000000003
 30
0.0
 10
-3.6066500000000001
 20
-2.0884400000000003
 30
0.0
 10
-3.6066500000000001
 20
-2.0884400000000003
 30
0.0
 10
-3.9597100000000003
 20
-1.9284200000000002
 30
0.0
 10
-3.9597100000000003
 20
-1.9284200000000002
 30
0.0
 10
-3.9597100000000003
 20
-1.9284200000000002
 30
0.0
 10
-4.0663900000000002
 20
-1.7582400000000002
 30
0.0
 10
-3.8301700000000003
 20
-1.6591800000000001
 30
0.0
 10
-3.7184100000000004
 20
-1.58806
 30
0.0
 10
-3.7184100000000004
 20
-1.58806
 30
0.0
 10
-4.1121100000000004
 20
-1.3645400000000001
 30
0.0
 10
-3.6955500000000003
 20
-1.0140200000000001
 30
0.0
 10
-3.4898100000000003
 20
-0.8032
 30
0.0
 10
-3.4898100000000003
 20
-0.8032
 30
0.0
 10
-3.9063700000000003
 20
-0.46284
 30
0.0
 10
-3.2027900000000002
 20
-0.04628
 30
0.0
 10
-3.0732500000000003
 20
0.31185
 30
0.0
 10
-3.0732500000000003
 20
0.31185
 30
0.0
 10
-5.5319700000000003
 20
2.16859
 30
0.0
 10
-3.5025100000000005
 20
6.1309900000000006
 30
0.0
 10
-0.7034300000000001
 20
6.3595900000000007
 30
0.0
 10
-0.7034300000000001
 20
6.3595900000000007
 30
0.0
 10
-0.31989
 20
6.5475500000000002
 30
0.0
 10
0.10682
 20
6.5348500000000005
 30
0.0
 10
0.5208400000000001
 20
6.5780300000000009
 30
0.0
  0
SPLINE
  5
26
100
AcDbEntity
  8
Ebene 1
100
AcDbSpline
210
0.0
220
0.0
230
1.0
 70
     1
 71
     3
 72
    56
 73
    52
 74
     0
 42
0.0000000001
 43
0.0000000001
 40
0.0
 40
0.0
 40
0.0
 40
0.0
 40
0.0769230769230769
 40
0.0769230769230769
 40
0.0769230769230769
 40
0.0769230769230769
 40
0.1538461538461539
 40
0.1538461538461539
 40
0.1538461538461539
 40
0.1538461538461539
 40
0.2307692307692308
 40
0.2307692307692308
 40
0.2307692307692308
 40
0.2307692307692308
 40
0.3076923076923077
 40
0.3076923076923077
 40
0.3076923076923077
 40
0.3076923076923077
 40
0.3846153846153846
 40
0.3846153846153846
 40
0.3846153846153846
 40
0.3846153846153846
 40
0.4615384615384616
 40
0.4615384615384616
 40
0.4615384615384616
 40
0.4615384615384616
 40
0.5384615384615386
 40
0.5384615384615386
 40
0.5384615384615386
 40
0.5384615384615386
 40
0.6153846153846154
 40
0.6153846153846154
 40
0.6153846153846154
 40
0.6153846153846154
 40
0.6923076923076923
 40
0.6923076923076923
 40
0.6923076923076923
 40
0.6923076923076923
 40
0.7692307692307692
 40
0.7692307692307692
 40
0.7692307692307692
 40
0.7692307692307692
 40
0.846153846153846
 40
0.846153846153846
 40
0.846153846153846
 40
0.846153846153846
 40
0.9230769230769229
 40
0.9230769230769229
 40
0.9230769230769229
 40
0.9230769230769229
 40
1.0
 40
1.0
 40
1.0
 40
1.0
 10
0.30494
 20
-2.7564600000000001
 30
0.0
 10
0.15254
 20
-2.9495000000000005
 30
0.0
 10
0.13984
 20
-3.5845000000000002
 30
0.0
 10
0.5056000000000001
 20
-3.2797000000000001
 30
0.0
 10
0.5056000000000001
 20
-3.2797000000000001
 30
0.0
 10
0.51322
 20
-3.3838400000000002
 30
0.0
 10
0.22366
 20
-3.4981400000000002
 30
0.0
 10
0.18048
 20
-3.3279600000000005
 30
0.0
 10
0.18048
 20
-3.3279600000000005
 30
0.0
 10
0.18556
 20
-3.2009600000000002
 30
0.0
 10
0.14238
 20
-3.1400000000000001
 30
0.0
 10
0.0992
 20
-3.2847800000000005
 30
0.0
 10
0.0992
 20
-3.2847800000000005
 30
0.0
 10
0.0992
 20
-3.2847800000000005
 30
0.0
 10
-0.12685
 20
-3.2771600000000003
 30
0.0
 10
-0.12685
 20
-3.2771600000000003
 30
0.0
 10
-0.12685
 20
-3.2771600000000003
 30
0.0
 10
-0.27925
 20
-3.1323800000000004
 30
0.0
 10
-0.50531
 20
-3.2416000000000005
 30
0.0
 10
-0.6831100000000001
 20
-3.1196800000000002
 30
0.0
 10
-0.6831100000000001
 20
-3.1196800000000002
 30
0.0
 10
-0.75931
 20
-3.2619200000000004
 30
0.0
 10
-0.55611
 20
-3.3787600000000002
 30
0.0
 10
-0.51039
 20
-3.5159200000000004
 30
0.0
 10
-0.51039
 20
-3.5159200000000004
 30
0.0
 10
-0.39355
 20
-3.4244800000000004
 30
0.0
 10
-0.36053
 20
-3.6022800000000004
 30
0.0
 10
-0.30719
 20
-3.6607000000000003
 30
0.0
 10
-0.30719
 20
-3.6607000000000003
 30
0.0
 10
-0.17257
 20
-3.5565600000000002
 30
0.0
 10
0.023
 20
-3.6124400000000003
 30
0.0
 10
0.0738
 20
-3.7800800000000003
 30
0.0
 10
0.0738
 20
-3.7800800000000003
 30
0.0
 10
0.11698
 20
-3.7394400000000001
 30
0.0
 10
0.14492
 20
-3.6607000000000003
 30
0.0
 10
0.21858
 20
-3.6657800000000003
 30
0.0
 10
0.21858
 20
-3.6657800000000003
 30
0.0
 10
0.21858
 20
-3.6657800000000003
 30
0.0
 10
0.42432
 20
-3.8766000000000003
 30
0.0
 10
0.42432
 20
-3.8766000000000003
 30
0.0
 10
0.42432
 20
-3.8766000000000003
 30
0.0
 10
0.64022
 20
-3.7775400000000001
 30
0.0
 10
0.8586600000000001
 20
-4.0315400000000006
 30
0.0
 10
1.0517000000000001
 20
-3.9070800000000001
 30
0.0
 10
1.0517000000000001
 20
-3.9070800000000001
 30
0.0
 10
1.1152000000000002
 20
-3.6911800000000001
 30
0.0
 10
0.9272400000000001
 20
-3.6759400000000002
 30
0.0
 10
0.8104000000000001
 20
-3.5641800000000003
 30
0.0
 10
0.8104000000000001
 20
-3.5641800000000003
 30
0.0
 10
0.23382
 20
-3.6581600000000001
 30
0.0
 10
0.87136
 20
-2.7539200000000004
 30
0.0
 10
0.30494
 20
-2.7564600000000001
 30
0.0
  0
SPLINE
  5
27
100
AcDbEntity
  8
Ebene 1
 62
     7
100
AcDbSpline
210
0.0
220
0.0
230
1.0
 70
     1
 71
     3
 72
    64
 73
    60
 74
     0
 42
0.0000000001
 43
0.0000000001
 40
0.0
 40
0.0
 40
0.0
 40
0.0
 40
0.0666666666666667
 40
0.0666666666666667
 40
0.0666666666666667
 40
0.0666666666666667
 40
0.1333333333333333
 40
0.1333333333333333
 40
0.1333333333333333
 40
0.1333333333333333
 40
0.2
 40
0.2
 40
0.2
 40
0.2
 40
0.2666666666666667
 40
0.2666666666666667
 40
0.2666666666666667
 40
0.2666666666666667
 40
0.3333333333333333
 40
0.3333333333333333
 40
0.3333333333333333
 40
0.3333333333333333
 40
0.4
 40
0.4
 40
0.4
 40
0.4
 40
0.4666666666666666
 40
0.4666666666666666
 40
0.4666666666666666
 40
0.4666666666666666
 40
0.5333333333333333
 40
0.5333333333333333
 40
0.5333333333333333
 40
0.5333333333333333
 40
0.6
 40
0.6
 40
0.6
 40
0.6
 40
0.6666666666666666
 40
0.6666666666666666
 40
0.6666666666666666
 40
0.6666666666666666
 40
0.7333333333333333
 40
0.7333333333333333
 40
0.7333333333333333
 40
0.7333333333333333
 40
0.7999999999999999
 40
0.7999999999999999
 40
0.7999999999999999
 40
0.7999999999999999
 40
0.8666666666666666
 40
0.8666666666666666
 40
0.8666666666666666
 40
0.8666666666666666
 40
0.9333333333333332
 40
0.9333333333333332
 40
0.9333333333333332
 40
0.9333333333333332
 40
1.0
 40
1.0
 40
1.0
 40
1.0
 10
0.7545200000000001
 20
6.5551700000000004
 30
0.0
 10
1.7629000000000001
 20
6.5399300000000009
 30
0.0
 10
2.6214200000000001
 20
6.0014500000000002
 30
0.0
 10
3.3326200000000004
 20
5.3207300000000002
 30
0.0
 10
3.3326200000000004
 20
5.3207300000000002
 30
0.0
 10
3.3326200000000004
 20
5.3207300000000002
 30
0.0
 10
2.6900000000000004
 20
5.7830100000000009
 30
0.0
 10
2.6900000000000004
 20
5.7830100000000009
 30
0.0
 10
2.6900000000000004
 20
5.7830100000000009
 30
0.0
 10
2.6696800000000001
 20
5.8109500000000001
 30
0.0
 10
2.5960200000000002
 20
5.8414300000000008
 30
0.0
 10
2.6138000000000003
 20
5.7830100000000009
 30
0.0
 10
2.6138000000000003
 20
5.7830100000000009
 30
0.0
 10
3.0659200000000002
 20
5.3791500000000001
 30
0.0
 10
3.5205800000000003
 20
4.9371900000000002
 30
0.0
 10
3.6933000000000002
 20
4.3606100000000003
 30
0.0
 10
3.6933000000000002
 20
4.3606100000000003
 30
0.0
 10
3.2792800000000004
 20
5.1480100000000002
 30
0.0
 10
2.4893400000000003
 20
5.9277900000000008
 30
0.0
 10
1.5647800000000001
 20
6.0420900000000008
 30
0.0
 10
1.5647800000000001
 20
6.0420900000000008
 30
0.0
 10
1.5647800000000001
 20
6.0420900000000008
 30
0.0
 10
1.4123800000000002
 20
6.3392700000000008
 30
0.0
 10
1.4123800000000002
 20
6.3392700000000008
 30
0.0
 10
1.4123800000000002
 20
6.3392700000000008
 30
0.0
 10
1.4123800000000002
 20
6.3392700000000008
 30
0.0
 10
1.2625200000000001
 20
6.4459500000000007
 30
0.0
 10
1.2625200000000001
 20
6.4459500000000007
 30
0.0
 10
1.2625200000000001
 20
6.4459500000000007
 30
0.0
 10
1.7121000000000002
 20
5.8998500000000007
 30
0.0
 10
1.7044800000000002
 20
5.0768900000000006
 30
0.0
 10
1.7730600000000001
 20
4.3606100000000003
 30
0.0
 10
1.7730600000000001
 20
4.3606100000000003
 30
0.0
 10
1.1736200000000001
 20
4.5053900000000002
 30
0.0
 10
0.6275200000000001
 20
4.89147
 30
0.0
 10
0.02046
 20
5.09213
 30
0.0
 10
0.02046
 20
5.09213
 30
0.0
 10
0.19318
 20
5.5086900000000005
 30
0.0
 10
0.65546
 20
5.8261900000000004
 30
0.0
 10
1.06948
 20
5.9862100000000007
 30
0.0
 10
1.06948
 20
5.9862100000000007
 30
0.0
 10
1.10504
 20
5.9862100000000007
 30
0.0
 10
1.1787000000000001
 20
6.0014500000000002
 30
0.0
 10
1.1812400000000001
 20
6.0420900000000008
 30
0.0
 10
1.1812400000000001
 20
6.0420900000000008
 30
0.0
 10
0.7342000000000001
 20
5.9557300000000009
 30
0.0
 10
0.36336
 20
5.6255300000000004
 30
0.0
 10
0.0611
 20
5.2927900000000001
 30
0.0
 10
0.0611
 20
5.2927900000000001
 30
0.0
 10
-0.56881
 20
5.35121
 30
0.0
 10
-1.08189
 20
6.0014500000000002
 30
0.0
 10
-1.7219700000000002
 20
5.7118900000000004
 30
0.0
 10
-1.7219700000000002
 20
5.7118900000000004
 30
0.0
 10
-1.4679700000000002
 20
6.0725700000000007
 30
0.0
 10
-1.0920500000000002
 20
6.2986300000000002
 30
0.0
 10
-0.6729500000000001
 20
6.2910100000000009
 30
0.0
 10
-0.6729500000000001
 20
6.2910100000000009
 30
0.0
 10
-0.3859300000000001
 20
6.4688100000000004
 30
0.0
 10
0.3151000000000001
 20
6.5018300000000009
 30
0.0
 10
0.7545200000000001
 20
6.5551700000000004
 30
0.0
  0
SPLINE
  5
28
100
AcDbEntity
  8
Ebene 1
 62
     7
100
AcDbSpline
210
0.0
220
0.0
230
1.0
 70
     1
 71
     3
 72
    20
 73
    16
 74
     0
 42
0.0000000001
 43
0.0000000001
 40
0.0
 40
0.0
 40
0.0
 40
0.0
 40
0.25
 40
0.25
 40
0.25
 40
0.25
 40
0.5
 40
0.5
 40
0.5
 40
0.5
 40
0.75
 40
0.75
 40
0.75
 40
0.75
 40
1.0
 40
1.0
 40
1.0
 40
1.0
 10
-1.3231900000000001
 20
6.1868700000000008
 30
0.0
 10
-1.3054100000000002
 20
6.1868700000000008
 30
0.0
 10
-1.2673100000000002
 20
6.1868700000000008
 30
0.0
 10
-1.2825500000000001
 20
6.1589300000000007
 30
0.0
 10
-1.2825500000000001
 20
6.1589300000000007
 30
0.0
 10
-1.7829300000000001
 20
5.9557300000000009
 30
0.0
 10
-2.19441
 20
5.5823500000000008
 30
0.0
 10
-2.5347700000000004
 20
5.1632500000000006
 30
0.0
 10
-2.5347700000000004
 20
5.1632500000000006
 30
0.0
 10
-2.4687300000000003
 20
5.3080300000000005
 30
0.0
 10
-2.6744700000000003
 20
5.3207300000000002
 30
0.0
 10
-2.7913100000000002
 20
5.3080300000000005
 30
0.0
 10
-2.7913100000000002
 20
5.3080300000000005
 30
0.0
 10
-2.3823700000000003
 20
5.6966500000000009
 30
0.0
 10
-1.8616700000000002
 20
6.0293900000000002
 30
0.0
 10
-1.3231900000000001
 20
6.1868700000000008
 30
0.0
  0
SPLINE
  5
29
100
AcDbEntity
  8
Ebene 1
 62
     7
100
AcDbSpline
210
0.0
220
0.0
230
1.0
 70
     1
 71
     3
 72
    16
 73
    12
 74
     0
 42
0.0000000001
 43
0.0000000001
 40
0.0
 40
0.0
 40
0.0
 40
0.0
 40
0.3333333333333333
 40
0.3333333333333333
 40
0.3333333333333333
 40
0.3333333333333333
 40
0.6666666666666666
 40
0.6666666666666666
 40
0.6666666666666666
 40
0.6666666666666666
 40
1.0
 40
1.0
 40
1.0
 40
1.0
 10
1.6892400000000001
 20
5.9557300000000009
 30
0.0
 10
2.3166200000000003
 20
5.8998500000000007
 30
0.0
 10
2.8322400000000001
 20
5.43757
 30
0.0
 10
3.1878400000000005
 20
4.9371900000000002
 30
0.0
 10
3.1878400000000005
 20
4.9371900000000002
 30
0.0
 10
2.7484200000000003
 20
4.8203500000000004
 30
0.0
 10
2.2861400000000001
 20
4.5866700000000007
 30
0.0
 10
1.8975200000000001
 20
4.3148900000000001
 30
0.0
 10
1.8975200000000001
 20
4.3148900000000001
 30
0.0
 10
1.8695800000000002
 20
4.8508300000000002
 30
0.0
 10
1.7044800000000002
 20
5.4070900000000002
 30
0.0
 10
1.6892400000000001
 20
5.9557300000000009
 30
0.0
  0
SPLINE
  5
2A
100
AcDbEntity
  8
Ebene 1
 62
     7
100
AcDbSpline
210
0.0
220
0.0
230
1.0
 70
     1
 71
     3
 72
    44
 73
    40
 74
     0
 42
0.0000000001
 43
0.0000000001
 40
0.0
 40
0.0
 40
0.0
 40
0.0
 40
0.1
 40
0.1
 40
0.1
 40
0.1
 40
0.2
 40
0.2
 40
0.2
 40
0.2
 40
0.3
 40
0.3
 40
0.3
 40
0.3
 40
0.4
 40
0.4
 40
0.4
 40
0.4
 40
0.5
 40
0.5
 40
0.5
 40
0.5
 40
0.6
 40
0.6
 40
0.6
 40
0.6
 40
0.7
 40
0.7
 40
0.7
 40
0.7
 40
0.7999999999999999
 40
0.7999999999999999
 40
0.7999999999999999
 40
0.7999999999999999
 40
0.8999999999999999
 40
0.8999999999999999
 40
0.8999999999999999
 40
0.8999999999999999
 40
1.0
 40
1.0
 40
1.0
 40
1.0
 10
-1.75499
 20
5.2927900000000001
 30
0.0
 10
-1.5924300000000002
 20
5.2775500000000006
 30
0.0
 10
-1.4451100000000001
 20
5.17849
 30
0.0
 10
-1.2800100000000001
 20
5.26485
 30
0.0
 10
-1.2800100000000001
 20
5.26485
 30
0.0
 10
-1.2317500000000001
 20
5.1632500000000006
 30
0.0
 10
-1.11999
 20
5.1632500000000006
 30
0.0
 10
-1.0488700000000002
 20
5.2343700000000002
 30
0.0
 10
-1.0488700000000002
 20
5.2343700000000002
 30
0.0
 10
-1.0488700000000002
 20
5.2343700000000002
 30
0.0
 10
-0.9574300000000001
 20
5.1632500000000006
 30
0.0
 10
-0.9574300000000001
 20
5.1632500000000006
 30
0.0
 10
-0.9574300000000001
 20
5.1632500000000006
 30
0.0
 10
-0.8304300000000001
 20
5.2216700000000005
 30
0.0
 10
-0.6500900000000001
 20
5.1327700000000007
 30
0.0
 10
-0.9040900000000001
 20
5.1327700000000007
 30
0.0
 10
-0.9040900000000001
 20
5.1327700000000007
 30
0.0
 10
-1.3587500000000001
 20
5.2064300000000001
 30
0.0
 10
-1.9048500000000002
 20
5.0616500000000002
 30
0.0
 10
-2.27061
 20
5.09213
 30
0.0
 10
-2.27061
 20
5.09213
 30
0.0
 10
-2.2629900000000003
 20
5.1327700000000007
 30
0.0
 10
-2.2680700000000003
 20
5.1911900000000006
 30
0.0
 10
-2.3341100000000004
 20
5.17849
 30
0.0
 10
-2.3341100000000004
 20
5.17849
 30
0.0
 10
-2.3645900000000002
 20
5.1327700000000007
 30
0.0
 10
-2.4331700000000001
 20
5.0337100000000001
 30
0.0
 10
-2.48651
 20
5.0464100000000007
 30
0.0
 10
-2.48651
 20
5.0464100000000007
 30
0.0
 10
-2.4560300000000002
 20
5.1327700000000007
 30
0.0
 10
-2.3696700000000002
 20
5.17849
 30
0.0
 10
-2.31887
 20
5.2343700000000002
 30
0.0
 10
-2.31887
 20
5.2343700000000002
 30
0.0
 10
-2.1664700000000003
 20
5.3207300000000002
 30
0.0
 10
-2.01661
 20
5.0768900000000006
 30
0.0
 10
-1.8997700000000002
 20
5.26485
 30
0.0
 10
-1.8997700000000002
 20
5.26485
 30
0.0
 10
-1.8438900000000003
 20
5.2343700000000002
 30
0.0
 10
-1.7956300000000001
 20
5.2343700000000002
 30
0.0
 10
-1.75499
 20
5.2927900000000001
 30
0.0
  0
SPLINE
  5
2B
100
AcDbEntity
  8
Ebene 1
 62
     7
100
AcDbSpline
210
0.0
220
0.0
230
1.0
 70
     1
 71
     3
 72
    16
 73
    12
 74
     0
 42
0.0000000001
 43
0.0000000001
 40
0.0
 40
0.0
 40
0.0
 40
0.0
 40
0.3333333333333333
 40
0.3333333333333333
 40
0.3333333333333333
 40
0.3333333333333333
 40
0.6666666666666666
 40
0.6666666666666666
 40
0.6666666666666666
 40
0.6666666666666666
 40
1.0
 40
1.0
 40
1.0
 40
1.0
 10
-0.5434100000000001
 20
5.26485
 30
0.0
 10
-0.4926100000000001
 20
5.2496100000000006
 30
0.0
 10
-0.46721
 20
5.17849
 30
0.0
 10
-0.44435
 20
5.1327700000000007
 30
0.0
 10
-0.44435
 20
5.1327700000000007
 30
0.0
 10
-0.51293
 20
5.1327700000000007
 30
0.0
 10
-0.5992900000000001
 20
5.1200700000000001
 30
0.0
 10
-0.65517
 20
5.1480100000000002
 30
0.0
 10
-0.65517
 20
5.1480100000000002
 30
0.0
 10
-0.65517
 20
5.1480100000000002
 30
0.0
 10
-0.5434100000000001
 20
5.26485
 30
0.0
 10
-0.5434100000000001
 20
5.26485
 30
0.0
  0
SPLINE
  5
2C
100
AcDbEntity
  8
Ebene 1
 62
     7
100
AcDbSpline
210
0.0
220
0.0
230
1.0
 70
     1
 71
     3
 72
   136
 73
   132
 74
     0
 42
0.0000000001
 43
0.0000000001
 40
0.0
 40
0.0
 40
0.0
 40
0.0
 40
0.0303030303030303
 40
0.0303030303030303
 40
0.0303030303030303
 40
0.0303030303030303
 40
0.0606060606060606
 40
0.0606060606060606
 40
0.0606060606060606
 40
0.0606060606060606
 40
0.0909090909090909
 40
0.0909090909090909
 40
0.0909090909090909
 40
0.0909090909090909
 40
0.1212121212121212
 40
0.1212121212121212
 40
0.1212121212121212
 40
0.1212121212121212
 40
0.1515151515151515
 40
0.1515151515151515
 40
0.1515151515151515
 40
0.1515151515151515
 40
0.1818181818181818
 40
0.1818181818181818
 40
0.1818181818181818
 40
0.1818181818181818
 40
0.2121212121212121
 40
0.2121212121212121
 40
0.2121212121212121
 40
0.2121212121212121
 40
0.2424242424242424
 40
0.2424242424242424
 40
0.2424242424242424
 40
0.2424242424242424
 40
0.2727272727272727
 40
0.2727272727272727
 40
0.2727272727272727
 40
0.2727272727272727
 40
0.303030303030303
 40
0.303030303030303
 40
0.303030303030303
 40
0.303030303030303
 40
0.3333333333333333
 40
0.3333333333333333
 40
0.3333333333333333
 40
0.3333333333333333
 40
0.3636363636363635
 40
0.3636363636363635
 40
0.3636363636363635
 40
0.3636363636363635
 40
0.3939393939393938
 40
0.3939393939393938
 40
0.3939393939393938
 40
0.3939393939393938
 40
0.4242424242424241
 40
0.4242424242424241
 40
0.4242424242424241
 40
0.4242424242424241
 40
0.4545454545454544
 40
0.4545454545454544
 40
0.4545454545454544
 40
0.4545454545454544
 40
0.4848484848484846
 40
0.4848484848484846
 40
0.4848484848484846
 40
0.4848484848484846
 40
0.5151515151515149
 40
0.5151515151515149
 40
0.5151515151515149
 40
0.5151515151515149
 40
0.5454545454545452
 40
0.5454545454545452
 40
0.5454545454545452
 40
0.5454545454545452
 40
0.5757575757575755
 40
0.5757575757575755
 40
0.5757575757575755
 40
0.5757575757575755
 40
0.6060606060606057
 40
0.6060606060606057
 40
0.6060606060606057
 40
0.6060606060606057
 40
0.636363636363636
 40
0.636363636363636
 40
0.636363636363636
 40
0.636363636363636
 40
0.6666666666666663
 40
0.6666666666666663
 40
0.6666666666666663
 40
0.6666666666666663
 40
0.6969696969696966
 40
0.6969696969696966
 40
0.6969696969696966
 40
0.6969696969696966
 40
0.7272727272727269
 40
0.7272727272727269
 40
0.7272727272727269
 40
0.7272727272727269
 40
0.7575757575757571
 40
0.7575757575757571
 40
0.7575757575757571
 40
0.7575757575757571
 40
0.7878787878787874
 40
0.7878787878787874
 40
0.7878787878787874
 40
0.7878787878787874
 40
0.8181818181818177
 40
0.8181818181818177
 40
0.8181818181818177
 40
0.8181818181818177
 40
0.848484848484848
 40
0.848484848484848
 40
0.848484848484848
 40
0.848484848484848
 40
0.8787878787878782
 40
0.8787878787878782
 40
0.8787878787878782
 40
0.8787878787878782
 40
0.9090909090909085
 40
0.9090909090909085
 40
0.9090909090909085
 40
0.9090909090909085
 40
0.9393939393939388
 40
0.9393939393939388
 40
0.9393939393939388
 40
0.9393939393939388
 40
0.9696969696969691
 40
0.9696969696969691
 40
0.9696969696969691
 40
0.9696969696969691
 40
1.0
 40
1.0
 40
1.0
 40
1.0
 10
-1.38161
 20
4.4418900000000008
 30
0.0
 10
-1.38161
 20
4.4418900000000008
 30
0.0
 10
-1.5365500000000001
 20
4.4520500000000007
 30
0.0
 10
-1.5365500000000001
 20
4.4520500000000007
 30
0.0
 10
-1.5365500000000001
 20
4.4520500000000007
 30
0.0
 10
-1.0107700000000002
 20
4.16249
 30
0.0
 10
-0.49769
 20
3.6824300000000001
 30
0.0
 10
-0.45705
 20
3.0423500000000003
 30
0.0
 10
-0.45705
 20
3.0423500000000003
 30
0.0
 10
-0.9421900000000001
 20
2.4530700000000003
 30
0.0
 10
-1.3714500000000001
 20
1.61487
 30
0.0
 10
-1.2215900000000002
 20
0.7614300000000001
 30
0.0
 10
-1.2215900000000002
 20
0.7614300000000001
 30
0.0
 10
-0.7491500000000001
 20
-0.1301
 30
0.0
 10
1.4962000000000002
 20
-0.04628
 30
0.0
 10
0.9882000000000001
 20
1.3430900000000001
 30
0.0
 10
0.9882000000000001
 20
1.3430900000000001
 30
0.0
 10
0.4802
 20
1.7342500000000001
 30
0.0
 10
0.11952
 20
2.4479900000000003
 30
0.0
 10
-0.49769
 20
2.6207100000000003
 30
0.0
 10
-0.49769
 20
2.6207100000000003
 30
0.0
 10
0.2262
 20
3.2303100000000002
 30
0.0
 10
0.9170800000000001
 20
1.7672700000000001
 30
0.0
 10
1.3844400000000001
 20
1.2491100000000002
 30
0.0
 10
1.3844400000000001
 20
1.2491100000000002
 30
0.0
 10
1.5825600000000002
 20
0.9062100000000001
 30
0.0
 10
1.2676000000000001
 20
0.43885
 30
0.0
 10
0.9577200000000001
 20
0.18231
 30
0.0
 10
0.9577200000000001
 20
0.18231
 30
0.0
 10
0.8942200000000001
 20
0.08579
 30
0.0
 10
0.8358000000000001
 20
-0.00818
 30
0.0
 10
0.7951600000000001
 20
-0.11486
 30
0.0
 10
0.7951600000000001
 20
-0.11486
 30
0.0
 10
0.88914
 20
-0.06152
 30
0.0
 10
0.99582
 20
0.12643
 30
0.0
 10
1.1406000000000001
 20
0.15437
 30
0.0
 10
1.1406000000000001
 20
0.15437
 30
0.0
 10
0.9247000000000001
 20
-0.3587
 30
0.0
 10
0.1754
 20
-0.86416
 30
0.0
 10
-0.3859300000000001
 20
-0.47554
 30
0.0
 10
-0.3859300000000001
 20
-0.47554
 30
0.0
 10
-1.1911100000000001
 20
-0.7092200000000001
 30
0.0
 10
-1.9835900000000002
 20
-0.36886
 30
0.0
 10
-2.7913100000000002
 20
-0.24186
 30
0.0
 10
-2.7913100000000002
 20
-0.24186
 30
0.0
 10
-2.81671
 20
-0.06406
 30
0.0
 10
-2.3341100000000004
 20
0.03499
 30
0.0
 10
-2.8344900000000002
 20
0.26867
 30
0.0
 10
-2.8344900000000002
 20
0.26867
 30
0.0
 10
-2.7201900000000001
 20
0.24581
 30
0.0
 10
-2.6160500000000004
 20
0.19755
 30
0.0
 10
-2.5068300000000003
 20
0.15691
 30
0.0
 10
-2.5068300000000003
 20
0.15691
 30
0.0
 10
-2.2731500000000002
 20
0.10865
 30
0.0
 10
-2.1690100000000001
 20
0.12897
 30
0.0
 10
-2.4230100000000001
 20
-0.03866
 30
0.0
 10
-2.4230100000000001
 20
-0.03866
 30
0.0
 10
-2.1258300000000001
 20
-0.36886
 30
0.0
 10
-1.1987300000000001
 20
-0.38918
 30
0.0
 10
-0.5865900000000001
 20
-0.3307600000000001
 30
0.0
 10
-0.5865900000000001
 20
-0.3307600000000001
 30
0.0
 10
-1.0310900000000001
 20
-0.26218
 30
0.0
 10
-1.8540500000000002
 20
-0.26726
 30
0.0
 10
-1.75499
 20
0.30169
 30
0.0
 10
-1.75499
 20
0.30169
 30
0.0
 10
-2.2553700000000001
 20
0.03245
 30
0.0
 10
-2.4306300000000003
 20
0.39567
 30
0.0
 10
-2.8522700000000003
 20
0.6039500000000001
 30
0.0
 10
-2.8522700000000003
 20
0.6039500000000001
 30
0.0
 10
-2.8522700000000003
 20
0.6039500000000001
 30
0.0
 10
-2.7532100000000002
 20
0.7741300000000001
 30
0.0
 10
-2.7532100000000002
 20
0.7741300000000001
 30
0.0
 10
-2.7532100000000002
 20
0.7741300000000001
 30
0.0
 10
-2.6897100000000003
 20
0.7411100000000001
 30
0.0
 10
-2.7709900000000003
 20
0.5480700000000001
 30
0.0
 10
-2.7074900000000004
 20
0.61665
 30
0.0
 10
-2.7074900000000004
 20
0.61665
 30
0.0
 10
-2.5347700000000004
 20
0.61919
 30
0.0
 10
-2.3264900000000002
 20
0.4007500000000001
 30
0.0
 10
-2.14107
 20
0.31947
 30
0.0
 10
-2.14107
 20
0.31947
 30
0.0
 10
-1.3612900000000001
 20
0.6674500000000001
 30
0.0
 10
-2.0623300000000002
 20
1.7494900000000002
 30
0.0
 10
-1.8388100000000001
 20
2.3743300000000001
 30
0.0
 10
-1.8388100000000001
 20
2.3743300000000001
 30
0.0
 10
-1.7600700000000002
 20
2.4860900000000004
 30
0.0
 10
-1.6381500000000002
 20
2.5673700000000004
 30
0.0
 10
-1.5111500000000002
 20
2.6080100000000002
 30
0.0
 10
-1.5111500000000002
 20
2.6080100000000002
 30
0.0
 10
-1.29779
 20
2.5800700000000001
 30
0.0
 10
-1.1072900000000001
 20
2.5826100000000003
 30
0.0
 10
-0.8939300000000001
 20
2.5851500000000001
 30
0.0
 10
-0.8939300000000001
 20
2.5851500000000001
 30
0.0
 10
-0.11923
 20
3.6240100000000002
 30
0.0
 10
-1.5086100000000002
 20
4.8406700000000003
 30
0.0
 10
-2.6465300000000003
 20
4.4241100000000007
 30
0.0
 10
-2.6465300000000003
 20
4.4241100000000007
 30
0.0
 10
-3.4542500000000005
 20
4.0253300000000003
 30
0.0
 10
-2.7074900000000004
 20
4.8178100000000006
 30
0.0
 10
-2.3036300000000001
 20
4.7441500000000003
 30
0.0
 10
-2.3036300000000001
 20
4.7441500000000003
 30
0.0
 10
-1.75753
 20
4.7974900000000007
 30
0.0
 10
-1.20381
 20
4.5511100000000004
 30
0.0
 10
-0.76439
 20
4.2310700000000008
 30
0.0
 10
-0.76439
 20
4.2310700000000008
 30
0.0
 10
-0.67803
 20
4.2361500000000003
 30
0.0
 10
-0.7770900000000001
 20
4.3555300000000008
 30
0.0
 10
-0.8151900000000001
 20
4.4139500000000007
 30
0.0
 10
-0.8151900000000001
 20
4.4139500000000007
 30
0.0
 10
-0.8990100000000001
 20
4.5434900000000003
 30
0.0
 10
-1.0488700000000002
 20
4.6603300000000001
 30
0.0
 10
-1.1961900000000001
 20
4.7263700000000002
 30
0.0
 10
-1.1961900000000001
 20
4.7263700000000002
 30
0.0
 10
-1.3943100000000002
 20
4.8686100000000003
 30
0.0
 10
-1.6635500000000001
 20
4.9600500000000007
 30
0.0
 10
-1.8515100000000002
 20
5.0032300000000003
 30
0.0
 10
-1.8515100000000002
 20
5.0032300000000003
 30
0.0
 10
-1.8515100000000002
 20
5.0032300000000003
 30
0.0
 10
-2.0851900000000003
 20
4.9752900000000002
 30
0.0
 10
-2.0851900000000003
 20
4.9752900000000002
 30
0.0
 10
-2.0851900000000003
 20
4.9752900000000002
 30
0.0
 10
-1.50099
 20
5.2343700000000002
 30
0.0
 10
-0.7999500000000001
 20
5.0464100000000007
 30
0.0
 10
-0.14209
 20
5.09213
 30
0.0
 10
-0.14209
 20
5.09213
 30
0.0
 10
-0.14209
 20
5.09213
 30
0.0
 10
-0.4595900000000001
 20
4.5333300000000003
 30
0.0
 10
-0.4595900000000001
 20
4.5333300000000003
 30
0.0
 10
-0.4595900000000001
 20
4.5333300000000003
 30
0.0
 10
-0.5434100000000001
 20
3.6468700000000003
 30
0.0
 10
-1.08951
 20
4.6273100000000005
 30
0.0
 10
-1.38161
 20
4.4418900000000008
 30
0.0
  0
SPLINE
  5
2D
100
AcDbEntity
  8
Ebene 1
 62
     7
100
AcDbSpline
210
0.0
220
0.0
230
1.0
 70
     1
 71
     3
 72
    80
 73
    76
 74
     0
 42
0.0000000001
 43
0.0000000001
 40
0.0
 40
0.0
 40
0.0
 40
0.0
 40
0.0526315789473684
 40
0.0526315789473684
 40
0.0526315789473684
 40
0.0526315789473684
 40
0.1052631578947368
 40
0.1052631578947368
 40
0.1052631578947368
 40
0.1052631578947368
 40
0.1578947368421053
 40
0.1578947368421053
 40
0.1578947368421053
 40
0.1578947368421053
 40
0.2105263157894737
 40
0.2105263157894737
 40
0.2105263157894737
 40
0.2105263157894737
 40
0.2631578947368421
 40
0.2631578947368421
 40
0.2631578947368421
 40
0.2631578947368421
 40
0.3157894736842105
 40
0.3157894736842105
 40
0.3157894736842105
 40
0.3157894736842105
 40
0.3684210526315789
 40
0.3684210526315789
 40
0.3684210526315789
 40
0.3684210526315789
 40
0.4210526315789474
 40
0.4210526315789474
 40
0.4210526315789474
 40
0.4210526315789474
 40
0.4736842105263158
 40
0.4736842105263158
 40
0.4736842105263158
 40
0.4736842105263158
 40
0.5263157894736842
 40
0.5263157894736842
 40
0.5263157894736842
 40
0.5263157894736842
 40
0.5789473684210527
 40
0.5789473684210527
 40
0.5789473684210527
 40
0.5789473684210527
 40
0.631578947368421
 40
0.631578947368421
 40
0.631578947368421
 40
0.631578947368421
 40
0.6842105263157894
 40
0.6842105263157894
 40
0.6842105263157894
 40
0.6842105263157894
 40
0.7368421052631577
 40
0.7368421052631577
 40
0.7368421052631577
 40
0.7368421052631577
 40
0.7894736842105261
 40
0.7894736842105261
 40
0.7894736842105261
 40
0.7894736842105261
 40
0.8421052631578945
 40
0.8421052631578945
 40
0.8421052631578945
 40
0.8421052631578945
 40
0.8947368421052628
 40
0.8947368421052628
 40
0.8947368421052628
 40
0.8947368421052628
 40
0.9473684210526312
 40
0.9473684210526312
 40
0.9473684210526312
 40
0.9473684210526312
 40
1.0
 40
1.0
 40
1.0
 40
1.0
 10
0.01538
 20
5.0464100000000007
 30
0.0
 10
0.6326000000000001
 20
4.8025700000000002
 30
0.0
 10
1.2447400000000002
 20
4.5511100000000004
 30
0.0
 10
1.7451200000000002
 20
4.0786700000000007
 30
0.0
 10
1.7451200000000002
 20
4.0786700000000007
 30
0.0
 10
1.8543400000000001
 20
3.2861900000000004
 30
0.0
 10
1.6841600000000001
 20
2.3743300000000001
 30
0.0
 10
1.6435200000000001
 20
1.7621900000000001
 30
0.0
 10
1.6435200000000001
 20
1.7621900000000001
 30
0.0
 10
1.5444600000000002
 20
2.1406500000000004
 30
0.0
 10
1.31586
 20
2.25495
 30
0.0
 10
1.01614
 20
2.4048100000000003
 30
0.0
 10
1.01614
 20
2.4048100000000003
 30
0.0
 10
0.9501000000000001
 20
2.1127100000000003
 30
0.0
 10
1.2930000000000001
 20
1.9171300000000002
 30
0.0
 10
1.3107800000000001
 20
1.6758300000000002
 30
0.0
 10
1.3107800000000001
 20
1.6758300000000002
 30
0.0
 10
0.89168
 20
2.04921
 30
0.0
 10
0.47512
 20
2.6664300000000001
 30
0.0
 10
0.00268
 20
3.1287100000000003
 30
0.0
 10
0.00268
 20
3.1287100000000003
 30
0.0
 10
0.15254
 20
3.1718900000000003
 30
0.0
 10
0.2516000000000001
 20
2.9509100000000004
 30
0.0
 10
0.3887600000000001
 20
2.8950300000000002
 30
0.0
 10
0.3887600000000001
 20
2.8950300000000002
 30
0.0
 10
0.3887600000000001
 20
2.8950300000000002
 30
0.0
 10
0.80786
 20
2.5114900000000002
 30
0.0
 10
0.80786
 20
2.5114900000000002
 30
0.0
 10
0.80786
 20
2.5114900000000002
 30
0.0
 10
0.7342000000000001
 20
2.6080100000000002
 30
0.0
 10
0.6656200000000001
 20
2.7273900000000002
 30
0.0
 10
0.57672
 20
2.8213700000000004
 30
0.0
 10
0.57672
 20
2.8213700000000004
 30
0.0
 10
0.51068
 20
2.9204300000000001
 30
0.0
 10
0.43702
 20
3.0144100000000003
 30
0.0
 10
0.3455800000000001
 20
3.0956900000000003
 30
0.0
 10
0.3455800000000001
 20
3.0956900000000003
 30
0.0
 10
0.3455800000000001
 20
3.0956900000000003
 30
0.0
 10
0.27954
 20
3.1845900000000005
 30
0.0
 10
0.27954
 20
3.1845900000000005
 30
0.0
 10
0.27954
 20
3.1845900000000005
 30
0.0
 10
0.5868800000000001
 20
3.1185500000000004
 30
0.0
 10
0.80532
 20
2.7426300000000001
 30
0.0
 10
1.06694
 20
2.5419700000000001
 30
0.0
 10
1.06694
 20
2.5419700000000001
 30
0.0
 10
1.0644
 20
2.6207100000000003
 30
0.0
 10
1.0059800000000001
 20
2.6918300000000004
 30
0.0
 10
0.95518
 20
2.7527900000000001
 30
0.0
 10
0.95518
 20
2.7527900000000001
 30
0.0
 10
0.95518
 20
2.7527900000000001
 30
0.0
 10
0.785
 20
3.0601300000000005
 30
0.0
 10
0.785
 20
3.0601300000000005
 30
0.0
 10
0.785
 20
3.0601300000000005
 30
0.0
 10
0.6681600000000001
 20
3.1769700000000003
 30
0.0
 10
0.8535800000000001
 20
3.1363300000000001
 30
0.0
 10
0.9247000000000001
 20
3.1134700000000004
 30
0.0
 10
0.9247000000000001
 20
3.1134700000000004
 30
0.0
 10
1.0771000000000002
 20
3.1007700000000002
 30
0.0
 10
1.2422000000000002
 20
3.0347300000000001
 30
0.0
 10
1.3869800000000001
 20
3.0702900000000004
 30
0.0
 10
1.3869800000000001
 20
3.0702900000000004
 30
0.0
 10
1.3869800000000001
 20
3.0702900000000004
 30
0.0
 10
1.0263
 20
3.1287100000000003
 30
0.0
 10
1.0263
 20
3.1287100000000003
 30
0.0
 10
1.0263
 20
3.1287100000000003
 30
0.0
 10
0.64276
 20
3.1185500000000004
 30
0.0
 10
0.4548
 20
3.4868500000000004
 30
0.0
 10
0.24398
 20
3.7306900000000005
 30
0.0
 10
0.24398
 20
3.7306900000000005
 30
0.0
 10
-0.03541
 20
3.7281500000000003
 30
0.0
 10
-0.17257
 20
3.7306900000000005
 30
0.0
 10
-0.47483
 20
3.9897700000000005
 30
0.0
 10
-0.47483
 20
3.9897700000000005
 30
0.0
 10
-0.44689
 20
4.4139500000000007
 30
0.0
 10
-0.19797
 20
4.7263700000000002
 30
0.0
 10
0.01538
 20
5.0464100000000007
 30
0.0
  0
SPLINE
  5
2E
100
AcDbEntity
  8
Ebene 1
 62
     7
100
AcDbSpline
210
0.0
220
0.0
230
1.0
 70
     1
 71
     3
 72
    24
 73
    20
 74
     0
 42
0.0000000001
 43
0.0000000001
 40
0.0
 40
0.0
 40
0.0
 40
0.0
 40
0.2
 40
0.2
 40
0.2
 40
0.2
 40
0.4
 40
0.4
 40
0.4
 40
0.4
 40
0.6000000000000001
 40
0.6000000000000001
 40
0.6000000000000001
 40
0.6000000000000001
 40
0.8
 40
0.8
 40
0.8
 40
0.8
 40
1.0
 40
1.0
 40
1.0
 40
1.0
 10
3.1903800000000002
 20
4.8889300000000002
 30
0.0
 10
3.4291400000000003
 20
4.5231700000000004
 30
0.0
 10
3.5840800000000002
 20
4.0456500000000002
 30
0.0
 10
3.7212400000000003
 20
3.6240100000000002
 30
0.0
 10
3.7212400000000003
 20
3.6240100000000002
 30
0.0
 10
3.4520000000000004
 20
3.4766900000000005
 30
0.0
 10
3.3173800000000004
 20
3.2963500000000003
 30
0.0
 10
3.1446600000000005
 20
3.0880700000000001
 30
0.0
 10
3.1446600000000005
 20
3.0880700000000001
 30
0.0
 10
2.7408000000000001
 20
3.05505
 30
0.0
 10
2.3496400000000004
 20
3.1439500000000002
 30
0.0
 10
1.9534000000000002
 20
3.1033100000000005
 30
0.0
 10
1.9534000000000002
 20
3.1033100000000005
 30
0.0
 10
1.9534000000000002
 20
3.1033100000000005
 30
0.0
 10
1.9965800000000002
 20
4.1650300000000007
 30
0.0
 10
1.9965800000000002
 20
4.1650300000000007
 30
0.0
 10
1.9965800000000002
 20
4.1650300000000007
 30
0.0
 10
2.3267800000000003
 20
4.5587300000000006
 30
0.0
 10
2.7357200000000002
 20
4.7390700000000008
 30
0.0
 10
3.1903800000000002
 20
4.8889300000000002
 30
0.0
  0
SPLINE
  5
2F
100
AcDbEntity
  8
Ebene 1
 62
     7
100
AcDbSpline
210
0.0
220
0.0
230
1.0
 70
     1
 71
     3
 72
    32
 73
    28
 74
     0
 42
0.0000000001
 43
0.0000000001
 40
0.0
 40
0.0
 40
0.0
 40
0.0
 40
0.1428571428571429
 40
0.1428571428571429
 40
0.1428571428571429
 40
0.1428571428571429
 40
0.2857142857142857
 40
0.2857142857142857
 40
0.2857142857142857
 40
0.2857142857142857
 40
0.4285714285714286
 40
0.4285714285714286
 40
0.4285714285714286
 40
0.4285714285714286
 40
0.5714285714285714
 40
0.5714285714285714
 40
0.5714285714285714
 40
0.5714285714285714
 40
0.7142857142857142
 40
0.7142857142857142
 40
0.7142857142857142
 40
0.7142857142857142
 40
0.857142857142857
 40
0.857142857142857
 40
0.857142857142857
 40
0.857142857142857
 40
1.0
 40
1.0
 40
1.0
 40
1.0
 10
-3.1977100000000003
 20
4.6882700000000002
 30
0.0
 10
-3.1392900000000004
 20
4.6577900000000003
 30
0.0
 10
-3.2383500000000001
 20
4.5892100000000005
 30
0.0
 10
-3.1977100000000003
 20
4.5434900000000003
 30
0.0
 10
-3.1977100000000003
 20
4.5434900000000003
 30
0.0
 10
-3.1621500000000005
 20
4.4495100000000001
 30
0.0
 10
-3.0554700000000001
 20
4.5968300000000006
 30
0.0
 10
-3.0275300000000001
 20
4.5104700000000006
 30
0.0
 10
-3.0275300000000001
 20
4.5104700000000006
 30
0.0
 10
-3.0732500000000003
 20
4.1904300000000001
 30
0.0
 10
-3.4288500000000002
 20
4.0735900000000003
 30
0.0
 10
-3.6142700000000003
 20
3.8475300000000003
 30
0.0
 10
-3.6142700000000003
 20
3.8475300000000003
 30
0.0
 10
-3.7006300000000003
 20
3.6544900000000005
 30
0.0
 10
-3.7514300000000005
 20
3.3979500000000002
 30
0.0
 10
-3.9292300000000004
 20
3.2709500000000005
 30
0.0
 10
-3.9292300000000004
 20
3.2709500000000005
 30
0.0
 10
-3.9622500000000005
 20
3.2074500000000001
 30
0.0
 10
-3.8885900000000002
 20
3.0931500000000001
 30
0.0
 10
-3.9495500000000003
 20
3.0702900000000004
 30
0.0
 10
-3.9495500000000003
 20
3.0702900000000004
 30
0.0
 10
-4.0308299999999999
 20
3.4385900000000005
 30
0.0
 10
-3.8200100000000003
 20
3.8221300000000005
 30
0.0
 10
-3.6549100000000001
 20
4.1497900000000003
 30
0.0
 10
-3.6549100000000001
 20
4.1497900000000003
 30
0.0
 10
-3.3755100000000002
 20
4.1828099999999999
 30
0.0
 10
-3.3628100000000001
 20
4.5180899999999999
 30
0.0
 10
-3.1977100000000003
 20
4.6882700000000002
 30
0.0
  0
SPLINE
  5
30
100
AcDbEntity
  8
Ebene 1
 62
     7
100
AcDbSpline
210
0.0
220
0.0
230
1.0
 70
     1
 71
     3
 72
    20
 73
    16
 74
     0
 42
0.0000000001
 43
0.0000000001
 40
0.0
 40
0.0
 40
0.0
 40
0.0
 40
0.25
 40
0.25
 40
0.25
 40
0.25
 40
0.5
 40
0.5
 40
0.5
 40
0.5
 40
0.75
 40
0.75
 40
0.75
 40
0.75
 40
1.0
 40
1.0
 40
1.0
 40
1.0
 10
3.9701600000000004
 20
4.46983
 30
0.0
 10
4.1251000000000007
 20
4.2564700000000002
 30
0.0
 10
4.2267000000000001
 20
3.9262700000000001
 30
0.0
 10
4.19876
 20
3.6519500000000003
 30
0.0
 10
4.19876
 20
3.6519500000000003
 30
0.0
 10
4.19876
 20
3.6519500000000003
 30
0.0
 10
4.1479600000000003
 20
3.6671900000000002
 30
0.0
 10
4.1479600000000003
 20
3.6671900000000002
 30
0.0
 10
4.1479600000000003
 20
3.6671900000000002
 30
0.0
 10
4.1555800000000005
 20
3.7560900000000004
 30
0.0
 10
4.1098600000000003
 20
3.8297500000000002
 30
0.0
 10
4.0717600000000003
 20
3.9084900000000005
 30
0.0
 10
4.0717600000000003
 20
3.9084900000000005
 30
0.0
 10
4.0920800000000002
 20
4.0939100000000002
 30
0.0
 10
4.0158800000000001
 20
4.2894900000000007
 30
0.0
 10
3.9701600000000004
 20
4.46983
 30
0.0
  0
SPLINE
  5
31
100
AcDbEntity
  8
Ebene 1
 62
     7
100
AcDbSpline
210
0.0
220
0.0
230
1.0
 70
     1
 71
     3
 72
    96
 73
    92
 74
     0
 42
0.0000000001
 43
0.0000000001
 40
0.0
 40
0.0
 40
0.0
 40
0.0
 40
0.0434782608695652
 40
0.0434782608695652
 40
0.0434782608695652
 40
0.0434782608695652
 40
0.0869565217391304
 40
0.0869565217391304
 40
0.0869565217391304
 40
0.0869565217391304
 40
0.1304347826086957
 40
0.1304347826086957
 40
0.1304347826086957
 40
0.1304347826086957
 40
0.1739130434782609
 40
0.1739130434782609
 40
0.1739130434782609
 40
0.1739130434782609
 40
0.2173913043478261
 40
0.2173913043478261
 40
0.2173913043478261
 40
0.2173913043478261
 40
0.2608695652173913
 40
0.2608695652173913
 40
0.2608695652173913
 40
0.2608695652173913
 40
0.3043478260869565
 40
0.3043478260869565
 40
0.3043478260869565
 40
0.3043478260869565
 40
0.3478260869565217
 40
0.3478260869565217
 40
0.3478260869565217
 40
0.3478260869565217
 40
0.3913043478260869
 40
0.3913043478260869
 40
0.3913043478260869
 40
0.3913043478260869
 40
0.4347826086956521
 40
0.4347826086956521
 40
0.4347826086956521
 40
0.4347826086956521
 40
0.4782608695652173
 40
0.4782608695652173
 40
0.4782608695652173
 40
0.4782608695652173
 40
0.5217391304347825
 40
0.5217391304347825
 40
0.5217391304347825
 40
0.5217391304347825
 40
0.5652173913043477
 40
0.5652173913043477
 40
0.5652173913043477
 40
0.5652173913043477
 40
0.6086956521739129
 40
0.6086956521739129
 40
0.6086956521739129
 40
0.6086956521739129
 40
0.6521739130434781
 40
0.6521739130434781
 40
0.6521739130434781
 40
0.6521739130434781
 40
0.6956521739130432
 40
0.6956521739130432
 40
0.6956521739130432
 40
0.6956521739130432
 40
0.7391304347826084
 40
0.7391304347826084
 40
0.7391304347826084
 40
0.7391304347826084
 40
0.7826086956521736
 40
0.7826086956521736
 40
0.7826086956521736
 40
0.7826086956521736
 40
0.8260869565217388
 40
0.8260869565217388
 40
0.8260869565217388
 40
0.8260869565217388
 40
0.869565217391304
 40
0.869565217391304
 40
0.869565217391304
 40
0.869565217391304
 40
0.9130434782608692
 40
0.9130434782608692
 40
0.9130434782608692
 40
0.9130434782608692
 40
0.9565217391304344
 40
0.9565217391304344
 40
0.9565217391304344
 40
0.9565217391304344
 40
1.0
 40
1.0
 40
1.0
 40
1.0
 10
-2.0293100000000002
 20
4.12439
 30
0.0
 10
-2.01661
 20
4.0354900000000002
 30
0.0
 10
-2.1664700000000003
 20
3.9059500000000003
 30
0.0
 10
-2.1766300000000003
 20
3.7814900000000002
 30
0.0
 10
-2.1766300000000003
 20
3.7814900000000002
 30
0.0
 10
-2.3468100000000001
 20
3.8094300000000003
 30
0.0
 10
-2.5423900000000001
 20
3.8195900000000003
 30
0.0
 10
-2.7176500000000003
 20
3.7306900000000005
 30
0.0
 10
-2.7176500000000003
 20
3.7306900000000005
 30
0.0
 10
-2.7836900000000004
 20
3.5097100000000001
 30
0.0
 10
-2.73543
 20
3.2430100000000004
 30
0.0
 10
-2.8243300000000002
 20
3.0423500000000003
 30
0.0
 10
-2.8243300000000002
 20
3.0423500000000003
 30
0.0
 10
-2.9310100000000001
 20
3.0753700000000004
 30
0.0
 10
-2.8624300000000003
 20
3.2176100000000001
 30
0.0
 10
-2.8827500000000001
 20
3.3014300000000003
 30
0.0
 10
-2.8827500000000001
 20
3.3014300000000003
 30
0.0
 10
-2.8827500000000001
 20
3.3014300000000003
 30
0.0
 10
-2.9233900000000004
 20
3.5909900000000001
 30
0.0
 10
-2.9233900000000004
 20
3.5909900000000001
 30
0.0
 10
-2.9233900000000004
 20
3.5909900000000001
 30
0.0
 10
-2.9868900000000003
 20
3.4970100000000004
 30
0.0
 10
-2.9691100000000001
 20
3.3598500000000002
 30
0.0
 10
-2.9818100000000003
 20
3.2430100000000004
 30
0.0
 10
-2.9818100000000003
 20
3.2430100000000004
 30
0.0
 10
-2.9589500000000002
 20
3.0321900000000004
 30
0.0
 10
-3.0884900000000002
 20
3.1388700000000003
 30
0.0
 10
-3.0554700000000001
 20
3.2887300000000002
 30
0.0
 10
-3.0554700000000001
 20
3.2887300000000002
 30
0.0
 10
-3.1392900000000004
 20
3.2607900000000001
 30
0.0
 10
-3.2281900000000001
 20
2.7858100000000001
 30
0.0
 10
-3.3755100000000002
 20
3.05505
 30
0.0
 10
-3.3755100000000002
 20
3.05505
 30
0.0
 10
-3.3755100000000002
 20
3.05505
 30
0.0
 10
-3.4821900000000001
 20
3.0601300000000005
 30
0.0
 10
-3.4821900000000001
 20
3.0601300000000005
 30
0.0
 10
-3.4821900000000001
 20
3.0601300000000005
 30
0.0
 10
-3.4821900000000001
 20
3.0601300000000005
 30
0.0
 10
-3.3247100000000001
 20
3.6824300000000001
 30
0.0
 10
-3.3247100000000001
 20
3.6824300000000001
 30
0.0
 10
-3.3247100000000001
 20
3.6824300000000001
 30
0.0
 10
-3.2612100000000002
 20
3.7992700000000004
 30
0.0
 10
-3.3170900000000003
 20
4.0583499999999999
 30
0.0
 10
-3.1291300000000004
 20
4.0634300000000003
 30
0.0
 10
-3.1291300000000004
 20
4.0634300000000003
 30
0.0
 10
-3.1646900000000002
 20
3.9643700000000002
 30
0.0
 10
-3.2154900000000004
 20
3.8678500000000002
 30
0.0
 10
-3.2281900000000001
 20
3.7637100000000001
 30
0.0
 10
-3.2281900000000001
 20
3.7637100000000001
 30
0.0
 10
-3.2485100000000005
 20
3.5960700000000001
 30
0.0
 10
-3.2840700000000003
 20
3.4004900000000005
 30
0.0
 10
-3.2815300000000001
 20
3.2480900000000004
 30
0.0
 10
-3.2815300000000001
 20
3.2480900000000004
 30
0.0
 10
-3.2027900000000002
 20
3.3344500000000004
 30
0.0
 10
-3.2205700000000004
 20
3.5909900000000001
 30
0.0
 10
-3.0859500000000004
 20
3.5884500000000004
 30
0.0
 10
-3.0859500000000004
 20
3.5884500000000004
 30
0.0
 10
-3.0859500000000004
 20
3.5884500000000004
 30
0.0
 10
-3.0859500000000004
 20
3.3700100000000002
 30
0.0
 10
-3.0859500000000004
 20
3.3700100000000002
 30
0.0
 10
-3.0859500000000004
 20
3.3700100000000002
 30
0.0
 10
-2.9818100000000003
 20
3.4436700000000005
 30
0.0
 10
-3.0148300000000003
 20
3.9211900000000002
 30
0.0
 10
-2.8548100000000001
 20
4.0786700000000007
 30
0.0
 10
-2.8548100000000001
 20
4.0786700000000007
 30
0.0
 10
-2.8548100000000001
 20
4.0786700000000007
 30
0.0
 10
-2.8827500000000001
 20
3.9567500000000004
 30
0.0
 10
-2.8827500000000001
 20
3.9567500000000004
 30
0.0
 10
-2.8827500000000001
 20
3.9567500000000004
 30
0.0
 10
-2.8903700000000003
 20
3.8856300000000004
 30
0.0
 10
-2.9259300000000001
 20
3.7916500000000002
 30
0.0
 10
-2.8954500000000003
 20
3.7332300000000003
 30
0.0
 10
-2.8954500000000003
 20
3.7332300000000003
 30
0.0
 10
-2.8421100000000004
 20
3.8297500000000002
 30
0.0
 10
-2.7760700000000003
 20
3.9313500000000001
 30
0.0
 10
-2.7049500000000002
 20
4.0202500000000008
 30
0.0
 10
-2.7049500000000002
 20
4.0202500000000008
 30
0.0
 10
-2.6770100000000001
 20
3.9897700000000005
 30
0.0
 10
-2.6998700000000002
 20
3.9211900000000002
 30
0.0
 10
-2.7049500000000002
 20
3.8830900000000002
 30
0.0
 10
-2.7049500000000002
 20
3.8830900000000002
 30
0.0
 10
-2.5423900000000001
 20
3.8653100000000005
 30
0.0
 10
-2.43825
 20
3.7916500000000002
 30
0.0
 10
-2.3290300000000004
 20
3.9770700000000003
 30
0.0
 10
-2.3290300000000004
 20
3.9770700000000003
 30
0.0
 10
-2.3112500000000002
 20
3.9846900000000005
 30
0.0
 10
-2.2909300000000004
 20
3.9796100000000005
 30
0.0
 10
-2.2782300000000002
 20
3.9618300000000004
 30
0.0
 10
-2.2782300000000002
 20
3.9618300000000004
 30
0.0
 10
-2.3290300000000004
 20
3.7332300000000003
 30
0.0
 10
-2.1486900000000002
 20
4.1091500000000005
 30
0.0
 10
-2.0293100000000002
 20
4.12439
 30
0.0
  0
SPLINE
  5
32
100
AcDbEntity
  8
Ebene 1
 62
     7
100
AcDbSpline
210
0.0
220
0.0
230
1.0
 70
     1
 71
     3
 72
    20
 73
    16
 74
     0
 42
0.0000000001
 43
0.0000000001
 40
0.0
 40
0.0
 40
0.0
 40
0.0
 40
0.25
 40
0.25
 40
0.25
 40
0.25
 40
0.5
 40
0.5
 40
0.5
 40
0.5
 40
0.75
 40
0.75
 40
0.75
 40
0.75
 40
1.0
 40
1.0
 40
1.0
 40
1.0
 10
-1.9429500000000002
 20
4.0227900000000005
 30
0.0
 10
-1.9429500000000002
 20
4.0227900000000005
 30
0.0
 10
-1.8438900000000003
 20
3.8653100000000005
 30
0.0
 10
-1.8438900000000003
 20
3.8653100000000005
 30
0.0
 10
-1.8438900000000003
 20
3.8653100000000005
 30
0.0
 10
-1.8438900000000003
 20
3.8653100000000005
 30
0.0
 10
-1.9607300000000001
 20
3.5224100000000003
 30
0.0
 10
-1.9607300000000001
 20
3.5224100000000003
 30
0.0
 10
-1.9607300000000001
 20
3.5224100000000003
 30
0.0
 10
-1.9607300000000001
 20
3.5224100000000003
 30
0.0
 10
-2.0724900000000002
 20
3.7332300000000003
 30
0.0
 10
-2.0724900000000002
 20
3.7332300000000003
 30
0.0
 10
-2.0724900000000002
 20
3.7332300000000003
 30
0.0
 10
-2.06995
 20
3.8322900000000004
 30
0.0
 10
-1.9988300000000001
 20
3.9338900000000003
 30
0.0
 10
-1.9429500000000002
 20
4.0227900000000005
 30
0.0
  0
SPLINE
  5
33
100
AcDbEntity
  8
Ebene 1
 62
     7
100
AcDbSpline
210
0.0
220
0.0
230
1.0
 70
     1
 71
     3
 72
    20
 73
    16
 74
     0
 42
0.0000000001
 43
0.0000000001
 40
0.0
 40
0.0
 40
0.0
 40
0.0
 40
0.25
 40
0.25
 40
0.25
 40
0.25
 40
0.5
 40
0.5
 40
0.5
 40
0.5
 40
0.75
 40
0.75
 40
0.75
 40
0.75
 40
1.0
 40
1.0
 40
1.0
 40
1.0
 10
1.8645
 20
3.9948500000000005
 30
0.0
 10
1.8746600000000002
 20
3.9948500000000005
 30
0.0
 10
1.8949800000000001
 20
3.9973900000000002
 30
0.0
 10
1.8924400000000001
 20
3.9796100000000005
 30
0.0
 10
1.8924400000000001
 20
3.9796100000000005
 30
0.0
 10
1.9051400000000001
 20
3.7078300000000004
 30
0.0
 10
1.9102200000000003
 20
3.4335100000000001
 30
0.0
 10
1.9076800000000003
 20
3.1566500000000004
 30
0.0
 10
1.9076800000000003
 20
3.1566500000000004
 30
0.0
 10
1.9076800000000003
 20
3.1566500000000004
 30
0.0
 10
1.8670400000000003
 20
3.1337900000000003
 30
0.0
 10
1.8670400000000003
 20
3.1337900000000003
 30
0.0
 10
1.8670400000000003
 20
3.1337900000000003
 30
0.0
 10
1.8670400000000003
 20
3.1337900000000003
 30
0.0
 10
1.8645
 20
3.9948500000000005
 30
0.0
 10
1.8645
 20
3.9948500000000005
 30
0.0
  0
SPLINE
  5
34
100
AcDbEntity
  8
Ebene 1
 62
     7
100
AcDbSpline
210
0.0
220
0.0
230
1.0
 70
     1
 71
     3
 72
    24
 73
    20
 74
     0
 42
0.0000000001
 43
0.0000000001
 40
0.0
 40
0.0
 40
0.0
 40
0.0
 40
0.2
 40
0.2
 40
0.2
 40
0.2
 40
0.4
 40
0.4
 40
0.4
 40
0.4
 40
0.6000000000000001
 40
0.6000000000000001
 40
0.6000000000000001
 40
0.6000000000000001
 40
0.8
 40
0.8
 40
0.8
 40
0.8
 40
1.0
 40
1.0
 40
1.0
 40
1.0
 10
-3.5304500000000001
 20
3.7332300000000003
 30
0.0
 10
-3.5202900000000001
 20
3.7332300000000003
 30
0.0
 10
-3.4999700000000002
 20
3.7383100000000002
 30
0.0
 10
-3.5025100000000005
 20
3.7205300000000001
 30
0.0
 10
-3.5025100000000005
 20
3.7205300000000001
 30
0.0
 10
-3.5228300000000004
 20
3.4665300000000001
 30
0.0
 10
-3.5761700000000003
 20
3.2049100000000004
 30
0.0
 10
-3.6320500000000004
 20
2.9686900000000001
 30
0.0
 10
-3.6320500000000004
 20
2.9686900000000001
 30
0.0
 10
-3.6701500000000005
 20
2.9915500000000002
 30
0.0
 10
-3.5914100000000002
 20
3.0880700000000001
 30
0.0
 10
-3.6701500000000005
 20
3.0829900000000001
 30
0.0
 10
-3.6701500000000005
 20
3.0829900000000001
 30
0.0
 10
-3.6676100000000003
 20
2.9559900000000003
 30
0.0
 10
-3.8250900000000003
 20
3.0677500000000002
 30
0.0
 10
-3.8784300000000003
 20
3.1007700000000002
 30
0.0
 10
-3.8784300000000003
 20
3.1007700000000002
 30
0.0
 10
-3.7488900000000003
 20
3.3039700000000001
 30
0.0
 10
-3.5990300000000004
 20
3.4995500000000002
 30
0.0
 10
-3.5304500000000001
 20
3.7332300000000003
 30
0.0
  0
SPLINE
  5
35
100
AcDbEntity
  8
Ebene 1
 62
     7
100
AcDbSpline
210
0.0
220
0.0
230
1.0
 70
     1
 71
     3
 72
    20
 73
    16
 74
     0
 42
0.0000000001
 43
0.0000000001
 40
0.0
 40
0.0
 40
0.0
 40
0.0
 40
0.25
 40
0.25
 40
0.25
 40
0.25
 40
0.5
 40
0.5
 40
0.5
 40
0.5
 40
0.75
 40
0.75
 40
0.75
 40
0.75
 40
1.0
 40
1.0
 40
1.0
 40
1.0
 10
-2.4204700000000003
 20
3.5909900000000001
 30
0.0
 10
-2.31379
 20
3.6138500000000002
 30
0.0
 10
-2.2172700000000001
 20
3.5503500000000003
 30
0.0
 10
-2.2934700000000001
 20
3.4512900000000002
 30
0.0
 10
-2.2934700000000001
 20
3.4512900000000002
 30
0.0
 10
-2.3823700000000003
 20
3.4335100000000001
 30
0.0
 10
-2.4788900000000003
 20
3.4639900000000003
 30
0.0
 10
-2.52969
 20
3.5300300000000004
 30
0.0
 10
-2.52969
 20
3.5300300000000004
 30
0.0
 10
-2.52969
 20
3.5300300000000004
 30
0.0
 10
-2.4585700000000004
 20
3.5300300000000004
 30
0.0
 10
-2.4585700000000004
 20
3.5300300000000004
 30
0.0
 10
-2.4585700000000004
 20
3.5300300000000004
 30
0.0
 10
-2.4585700000000004
 20
3.5300300000000004
 30
0.0
 10
-2.4204700000000003
 20
3.5909900000000001
 30
0.0
 10
-2.4204700000000003
 20
3.5909900000000001
 30
0.0
  0
SPLINE
  5
36
100
AcDbEntity
  8
Ebene 1
 62
     7
100
AcDbSpline
210
0.0
220
0.0
230
1.0
 70
     1
 71
     3
 72
    16
 73
    12
 74
     0
 42
0.0000000001
 43
0.0000000001
 40
0.0
 40
0.0
 40
0.0
 40
0.0
 40
0.3333333333333333
 40
0.3333333333333333
 40
0.3333333333333333
 40
0.3333333333333333
 40
0.6666666666666666
 40
0.6666666666666666
 40
0.6666666666666666
 40
0.6666666666666666
 40
1.0
 40
1.0
 40
1.0
 40
1.0
 10
-0.22591
 20
3.5325700000000002
 30
0.0
 10
-0.05065
 20
3.4411300000000002
 30
0.0
 10
0.15762
 20
3.4030300000000002
 30
0.0
 10
0.27192
 20
3.2328500000000004
 30
0.0
 10
0.27192
 20
3.2328500000000004
 30
0.0
 10
0.27192
 20
3.2328500000000004
 30
0.0
 10
0.20842
 20
3.2328500000000004
 30
0.0
 10
0.20842
 20
3.2328500000000004
 30
0.0
 10
0.20842
 20
3.2328500000000004
 30
0.0
 10
0.08904
 20
3.3801700000000001
 30
0.0
 10
-0.14463
 20
3.3852500000000001
 30
0.0
 10
-0.22591
 20
3.5325700000000002
 30
0.0
  0
SPLINE
  5
37
100
AcDbEntity
  8
Ebene 1
 62
     7
100
AcDbSpline
210
0.0
220
0.0
230
1.0
 70
     1
 71
     3
 72
    20
 73
    16
 74
     0
 42
0.0000000001
 43
0.0000000001
 40
0.0
 40
0.0
 40
0.0
 40
0.0
 40
0.25
 40
0.25
 40
0.25
 40
0.25
 40
0.5
 40
0.5
 40
0.5
 40
0.5
 40
0.75
 40
0.75
 40
0.75
 40
0.75
 40
1.0
 40
1.0
 40
1.0
 40
1.0
 10
3.8965000000000005
 20
3.5173300000000003
 30
0.0
 10
3.9193600000000002
 20
3.5147900000000001
 30
0.0
 10
3.9346000000000005
 20
3.4843100000000002
 30
0.0
 10
3.9244400000000002
 20
3.4639900000000003
 30
0.0
 10
3.9244400000000002
 20
3.4639900000000003
 30
0.0
 10
3.7999800000000001
 20
3.3369900000000001
 30
0.0
 10
3.6577400000000004
 20
3.2201500000000003
 30
0.0
 10
3.5485200000000003
 20
3.0753700000000004
 30
0.0
 10
3.5485200000000003
 20
3.0753700000000004
 30
0.0
 10
3.5485200000000003
 20
3.0753700000000004
 30
0.0
 10
3.3681800000000002
 20
3.1033100000000005
 30
0.0
 10
3.3681800000000002
 20
3.1033100000000005
 30
0.0
 10
3.3681800000000002
 20
3.1033100000000005
 30
0.0
 10
3.5205800000000003
 20
3.2658700000000001
 30
0.0
 10
3.7110800000000004
 20
3.4233500000000001
 30
0.0
 10
3.8965000000000005
 20
3.5173300000000003
 30
0.0
  0
SPLINE
  5
38
100
AcDbEntity
  8
Ebene 1
 62
     7
100
AcDbSpline
210
0.0
220
0.0
230
1.0
 70
     1
 71
     3
 72
    28
 73
    24
 74
     0
 42
0.0000000001
 43
0.0000000001
 40
0.0
 40
0.0
 40
0.0
 40
0.0
 40
0.1666666666666667
 40
0.1666666666666667
 40
0.1666666666666667
 40
0.1666666666666667
 40
0.3333333333333333
 40
0.3333333333333333
 40
0.3333333333333333
 40
0.3333333333333333
 40
0.5
 40
0.5
 40
0.5
 40
0.5
 40
0.6666666666666666
 40
0.6666666666666666
 40
0.6666666666666666
 40
0.6666666666666666
 40
0.8333333333333333
 40
0.8333333333333333
 40
0.8333333333333333
 40
0.8333333333333333
 40
1.0
 40
1.0
 40
1.0
 40
1.0
 10
-1.8515100000000002
 20
3.1134700000000004
 30
0.0
 10
-1.8692900000000001
 20
3.0575900000000003
 30
0.0
 10
-1.8591300000000002
 20
2.9890100000000004
 30
0.0
 10
-1.92517
 20
2.9661500000000003
 30
0.0
 10
-1.92517
 20
2.9661500000000003
 30
0.0
 10
-1.92517
 20
2.9661500000000003
 30
0.0
 10
-1.9861300000000002
 20
2.8112100000000004
 30
0.0
 10
-1.9861300000000002
 20
2.8112100000000004
 30
0.0
 10
-1.9861300000000002
 20
2.8112100000000004
 30
0.0
 10
-1.9683500000000003
 20
2.9940900000000004
 30
0.0
 10
-1.9988300000000001
 20
3.2760300000000004
 30
0.0
 10
-1.8438900000000003
 20
3.4208100000000004
 30
0.0
 10
-1.8438900000000003
 20
3.4208100000000004
 30
0.0
 10
-1.8667500000000001
 20
3.4462100000000002
 30
0.0
 10
-1.8438900000000003
 20
3.4792300000000003
 30
0.0
 10
-1.8235700000000001
 20
3.4995500000000002
 30
0.0
 10
-1.8235700000000001
 20
3.4995500000000002
 30
0.0
 10
-1.7956300000000001
 20
3.5173300000000003
 30
0.0
 10
-1.7753100000000002
 20
3.4893900000000002
 30
0.0
 10
-1.7600700000000002
 20
3.4716100000000001
 30
0.0
 10
-1.7600700000000002
 20
3.4716100000000001
 30
0.0
 10
-1.8743700000000001
 20
3.0347300000000001
 30
0.0
 10
-1.7422900000000001
 20
3.1312500000000001
 30
0.0
 10
-1.8515100000000002
 20
3.1134700000000004
 30
0.0
  0
SPLINE
  5
39
100
AcDbEntity
  8
Ebene 1
 62
     7
100
AcDbSpline
210
0.0
220
0.0
230
1.0
 70
     1
 71
     3
 72
    72
 73
    68
 74
     0
 42
0.0000000001
 43
0.0000000001
 40
0.0
 40
0.0
 40
0.0
 40
0.0
 40
0.0588235294117647
 40
0.0588235294117647
 40
0.0588235294117647
 40
0.0588235294117647
 40
0.1176470588235294
 40
0.1176470588235294
 40
0.1176470588235294
 40
0.1176470588235294
 40
0.1764705882352941
 40
0.1764705882352941
 40
0.1764705882352941
 40
0.1764705882352941
 40
0.2352941176470588
 40
0.2352941176470588
 40
0.2352941176470588
 40
0.2352941176470588
 40
0.2941176470588235
 40
0.2941176470588235
 40
0.2941176470588235
 40
0.2941176470588235
 40
0.3529411764705883
 40
0.3529411764705883
 40
0.3529411764705883
 40
0.3529411764705883
 40
0.411764705882353
 40
0.411764705882353
 40
0.411764705882353
 40
0.411764705882353
 40
0.4705882352941177
 40
0.4705882352941177
 40
0.4705882352941177
 40
0.4705882352941177
 40
0.5294117647058824
 40
0.5294117647058824
 40
0.5294117647058824
 40
0.5294117647058824
 40
0.5882352941176471
 40
0.5882352941176471
 40
0.5882352941176471
 40
0.5882352941176471
 40
0.6470588235294118
 40
0.6470588235294118
 40
0.6470588235294118
 40
0.6470588235294118
 40
0.7058823529411765
 40
0.7058823529411765
 40
0.7058823529411765
 40
0.7058823529411765
 40
0.7647058823529412
 40
0.7647058823529412
 40
0.7647058823529412
 40
0.7647058823529412
 40
0.823529411764706
 40
0.823529411764706
 40
0.823529411764706
 40
0.823529411764706
 40
0.8823529411764707
 40
0.8823529411764707
 40
0.8823529411764707
 40
0.8823529411764707
 40
0.9411764705882354
 40
0.9411764705882354
 40
0.9411764705882354
 40
0.9411764705882354
 40
1.0
 40
1.0
 40
1.0
 40
1.0
 10
3.0506800000000003
 20
2.8162900000000004
 30
0.0
 10
3.0760800000000001
 20
2.8289900000000001
 30
0.0
 10
3.0989400000000002
 20
2.8670900000000001
 30
0.0
 10
3.1040200000000002
 20
2.8975700000000004
 30
0.0
 10
3.1040200000000002
 20
2.8975700000000004
 30
0.0
 10
3.2157800000000001
 20
2.9966300000000001
 30
0.0
 10
3.3529400000000003
 20
3.1236300000000004
 30
0.0
 10
3.5053400000000003
 20
3.0245700000000002
 30
0.0
 10
3.5053400000000003
 20
3.0245700000000002
 30
0.0
 10
3.5053400000000003
 20
3.0245700000000002
 30
0.0
 10
3.3681800000000002
 20
2.8162900000000004
 30
0.0
 10
3.3681800000000002
 20
2.8162900000000004
 30
0.0
 10
3.3681800000000002
 20
2.8162900000000004
 30
0.0
 10
3.4748600000000005
 20
2.8416900000000003
 30
0.0
 10
3.5155000000000003
 20
3.0093300000000003
 30
0.0
 10
3.6247200000000004
 20
3.0271100000000004
 30
0.0
 10
3.6247200000000004
 20
3.0271100000000004
 30
0.0
 10
3.8380800000000002
 20
2.97377
 30
0.0
 10
3.7364800000000002
 20
3.0398100000000001
 30
0.0
 10
3.6501200000000003
 20
3.0880700000000001
 30
0.0
 10
3.6501200000000003
 20
3.0880700000000001
 30
0.0
 10
3.7847400000000002
 20
3.2328500000000004
 30
0.0
 10
3.9346000000000005
 20
3.3750900000000001
 30
0.0
 10
4.1251000000000007
 20
3.4284300000000001
 30
0.0
 10
4.1251000000000007
 20
3.4284300000000001
 30
0.0
 10
4.1251000000000007
 20
3.4284300000000001
 30
0.0
 10
3.9447600000000005
 20
3.1109300000000002
 30
0.0
 10
3.9447600000000005
 20
3.1109300000000002
 30
0.0
 10
3.9447600000000005
 20
3.1109300000000002
 30
0.0
 10
3.9447600000000005
 20
3.1109300000000002
 30
0.0
 10
3.7872800000000004
 20
2.7934300000000003
 30
0.0
 10
3.7872800000000004
 20
2.7934300000000003
 30
0.0
 10
3.7872800000000004
 20
2.7934300000000003
 30
0.0
 10
3.7339400000000005
 20
2.5800700000000001
 30
0.0
 10
3.6933000000000002
 20
2.3616300000000003
 30
0.0
 10
3.5637600000000003
 20
2.1812900000000002
 30
0.0
 10
3.5637600000000003
 20
2.1812900000000002
 30
0.0
 10
3.5637600000000003
 20
2.1812900000000002
 30
0.0
 10
1.9534000000000002
 20
1.4599300000000002
 30
0.0
 10
1.9534000000000002
 20
1.4599300000000002
 30
0.0
 10
1.9534000000000002
 20
1.4599300000000002
 30
0.0
 10
2.1210400000000003
 20
1.6326500000000002
 30
0.0
 10
2.3242400000000001
 20
1.8460100000000002
 30
0.0
 10
2.5706200000000003
 20
1.9755500000000001
 30
0.0
 10
2.5706200000000003
 20
1.9755500000000001
 30
0.0
 10
2.7738200000000002
 20
2.12033
 30
0.0
 10
2.97194
 20
2.2270100000000004
 30
0.0
 10
2.9440000000000004
 20
2.4479900000000003
 30
0.0
 10
2.9440000000000004
 20
2.4479900000000003
 30
0.0
 10
2.67984
 20
2.3743300000000001
 30
0.0
 10
2.4868000000000001
 20
2.16859
 30
0.0
 10
2.2277200000000001
 20
2.04413
 30
0.0
 10
2.2277200000000001
 20
2.04413
 30
0.0
 10
2.1007200000000004
 20
1.9882500000000001
 30
0.0
 10
2.1083400000000001
 20
1.8358500000000002
 30
0.0
 10
2.0499200000000002
 20
1.7444100000000002
 30
0.0
 10
2.0499200000000002
 20
1.7444100000000002
 30
0.0
 10
1.9102200000000003
 20
2.0898500000000002
 30
0.0
 10
1.9788000000000001
 20
2.5749900000000001
 30
0.0
 10
1.9534000000000002
 20
3.0093300000000003
 30
0.0
 10
1.9534000000000002
 20
3.0093300000000003
 30
0.0
 10
2.2937600000000002
 20
3.1591900000000002
 30
0.0
 10
2.7103200000000003
 20
3.0093300000000003
 30
0.0
 10
3.1014800000000005
 20
3.05505
 30
0.0
 10
3.1014800000000005
 20
3.05505
 30
0.0
 10
3.0557600000000003
 20
2.80105
 30
0.0
 10
3.0202000000000004
 20
3.0296500000000002
 30
0.0
 10
3.0506800000000003
 20
2.8162900000000004
 30
0.0
  0
SPLINE
  5
3A
100
AcDbEntity
  8
Ebene 1
 62
     7
100
AcDbSpline
210
0.0
220
0.0
230
1.0
 70
     1
 71
     3
 72
    24
 73
    20
 74
     0
 42
0.0000000001
 43
0.0000000001
 40
0.0
 40
0.0
 40
0.0
 40
0.0
 40
0.2
 40
0.2
 40
0.2
 40
0.2
 40
0.4
 40
0.4
 40
0.4
 40
0.4
 40
0.6000000000000001
 40
0.6000000000000001
 40
0.6000000000000001
 40
0.6000000000000001
 40
0.8
 40
0.8
 40
0.8
 40
0.8
 40
1.0
 40
1.0
 40
1.0
 40
1.0
 10
4.1581200000000003
 20
3.4309700000000003
 30
0.0
 10
4.2495600000000007
 20
3.4512900000000002
 30
0.0
 10
4.2546400000000002
 20
3.3446100000000003
 30
0.0
 10
4.2724200000000003
 20
3.2887300000000002
 30
0.0
 10
4.2724200000000003
 20
3.2887300000000002
 30
0.0
 10
3.9015800000000005
 20
3.0601300000000005
 30
0.0
 10
3.8304600000000004
 20
2.5978500000000002
 30
0.0
 10
3.8660200000000002
 20
2.1939900000000003
 30
0.0
 10
3.8660200000000002
 20
2.1939900000000003
 30
0.0
 10
3.8228400000000002
 20
2.1533500000000001
 30
0.0
 10
3.7669600000000001
 20
2.1228700000000003
 30
0.0
 10
3.7110800000000004
 20
2.1177900000000003
 30
0.0
 10
3.7110800000000004
 20
2.1177900000000003
 30
0.0
 10
3.8482400000000001
 20
2.4962500000000003
 30
0.0
 10
3.8076000000000003
 20
3.0296500000000002
 30
0.0
 10
4.1555800000000005
 20
3.3344500000000004
 30
0.0
 10
4.1555800000000005
 20
3.3344500000000004
 30
0.0
 10
4.1784400000000002
 20
3.3674700000000004
 30
0.0
 10
4.1682800000000002
 20
3.3954100000000005
 30
0.0
 10
4.1581200000000003
 20
3.4309700000000003
 30
0.0
  0
SPLINE
  5
3B
100
AcDbEntity
  8
Ebene 1
 62
     7
100
AcDbSpline
210
0.0
220
0.0
230
1.0
 70
     1
 71
     3
 72
    24
 73
    20
 74
     0
 42
0.0000000001
 43
0.0000000001
 40
0.0
 40
0.0
 40
0.0
 40
0.0
 40
0.2
 40
0.2
 40
0.2
 40
0.2
 40
0.4
 40
0.4
 40
0.4
 40
0.4
 40
0.6000000000000001
 40
0.6000000000000001
 40
0.6000000000000001
 40
0.6000000000000001
 40
0.8
 40
0.8
 40
0.8
 40
0.8
 40
1.0
 40
1.0
 40
1.0
 40
1.0
 10
-2.5779500000000004
 20
3.4182700000000001
 30
0.0
 10
-2.5779500000000004
 20
3.4182700000000001
 30
0.0
 10
-2.3061700000000003
 20
3.3573100000000005
 30
0.0
 10
-2.3061700000000003
 20
3.3573100000000005
 30
0.0
 10
-2.3061700000000003
 20
3.3573100000000005
 30
0.0
 10
-2.3214100000000002
 20
3.1287100000000003
 30
0.0
 10
-2.35189
 20
2.9026500000000004
 30
0.0
 10
-2.3493500000000003
 20
2.6715100000000001
 30
0.0
 10
-2.3493500000000003
 20
2.6715100000000001
 30
0.0
 10
-2.3874500000000003
 20
2.7756500000000002
 30
0.0
 10
-2.7328900000000003
 20
2.9001100000000002
 30
0.0
 10
-2.6947900000000002
 20
2.6537300000000004
 30
0.0
 10
-2.6947900000000002
 20
2.6537300000000004
 30
0.0
 10
-2.69733
 20
2.6410300000000002
 30
0.0
 10
-2.7074900000000004
 20
2.6257900000000003
 30
0.0
 10
-2.7176500000000003
 20
2.6283300000000001
 30
0.0
 10
-2.7176500000000003
 20
2.6283300000000001
 30
0.0
 10
-2.7405100000000004
 20
2.88741
 30
0.0
 10
-2.6312900000000004
 20
3.1591900000000002
 30
0.0
 10
-2.5779500000000004
 20
3.4182700000000001
 30
0.0
  0
SPLINE
  5
3C
100
AcDbEntity
  8
Ebene 1
 62
     7
100
AcDbSpline
210
0.0
220
0.0
230
1.0
 70
     1
 71
     3
 72
    20
 73
    16
 74
     0
 42
0.0000000001
 43
0.0000000001
 40
0.0
 40
0.0
 40
0.0
 40
0.0
 40
0.25
 40
0.25
 40
0.25
 40
0.25
 40
0.5
 40
0.5
 40
0.5
 40
0.5
 40
0.75
 40
0.75
 40
0.75
 40
0.75
 40
1.0
 40
1.0
 40
1.0
 40
1.0
 10
-2.1588500000000002
 20
3.3725500000000004
 30
0.0
 10
-2.05471
 20
3.0296500000000002
 30
0.0
 10
-2.31379
 20
2.6638900000000003
 30
0.0
 10
-2.3341100000000004
 20
2.3057500000000002
 30
0.0
 10
-2.3341100000000004
 20
2.3057500000000002
 30
0.0
 10
-2.3366500000000001
 20
2.2879700000000001
 30
0.0
 10
-2.35697
 20
2.2727300000000001
 30
0.0
 10
-2.3747500000000001
 20
2.2778100000000001
 30
0.0
 10
-2.3747500000000001
 20
2.2778100000000001
 30
0.0
 10
-2.39507
 20
2.2828900000000001
 30
0.0
 10
-2.4103100000000004
 20
2.3006700000000002
 30
0.0
 10
-2.40523
 20
2.3209900000000001
 30
0.0
 10
-2.40523
 20
2.3209900000000001
 30
0.0
 10
-2.40523
 20
2.3209900000000001
 30
0.0
 10
-2.1588500000000002
 20
3.3725500000000004
 30
0.0
 10
-2.1588500000000002
 20
3.3725500000000004
 30
0.0
  0
SPLINE
  5
3D
100
AcDbEntity
  8
Ebene 1
 62
     7
100
AcDbSpline
210
0.0
220
0.0
230
1.0
 70
     1
 71
     3
 72
    12
 73
     8
 74
     0
 42
0.0000000001
 43
0.0000000001
 40
0.0
 40
0.0
 40
0.0
 40
0.0
 40
0.5
 40
0.5
 40
0.5
 40
0.5
 40
1.0
 40
1.0
 40
1.0
 40
1.0
 10
-0.19797
 20
3.2887300000000002
 30
0.0
 10
-0.12685
 20
3.2912700000000004
 30
0.0
 10
-0.03033
 20
3.2430100000000004
 30
0.0
 10
-0.01255
 20
3.1769700000000003
 30
0.0
 10
-0.01255
 20
3.1769700000000003
 30
0.0
 10
-0.08621
 20
3.1668100000000003
 30
0.0
 10
-0.18781
 20
3.2201500000000003
 30
0.0
 10
-0.19797
 20
3.2887300000000002
 30
0.0
  0
SPLINE
  5
3E
100
AcDbEntity
  8
Ebene 1
 62
     7
100
AcDbSpline
210
0.0
220
0.0
230
1.0
 70
     1
 71
     3
 72
    28
 73
    24
 74
     0
 42
0.0000000001
 43
0.0000000001
 40
0.0
 40
0.0
 40
0.0
 40
0.0
 40
0.1666666666666667
 40
0.1666666666666667
 40
0.1666666666666667
 40
0.1666666666666667
 40
0.3333333333333333
 40
0.3333333333333333
 40
0.3333333333333333
 40
0.3333333333333333
 40
0.5
 40
0.5
 40
0.5
 40
0.5
 40
0.6666666666666666
 40
0.6666666666666666
 40
0.6666666666666666
 40
0.6666666666666666
 40
0.8333333333333333
 40
0.8333333333333333
 40
0.8333333333333333
 40
0.8333333333333333
 40
1.0
 40
1.0
 40
1.0
 40
1.0
 10
4.2292400000000008
 20
3.1718900000000003
 30
0.0
 10
4.3054399999999999
 20
3.0906100000000003
 30
0.0
 10
4.2444800000000003
 20
2.9661500000000003
 30
0.0
 10
4.25718
 20
2.8594700000000004
 30
0.0
 10
4.25718
 20
2.8594700000000004
 30
0.0
 10
4.2267000000000001
 20
2.8467700000000002
 30
0.0
 10
4.2063800000000002
 20
2.9229700000000003
 30
0.0
 10
4.1759000000000004
 20
2.8797900000000003
 30
0.0
 10
4.1759000000000004
 20
2.8797900000000003
 30
0.0
 10
4.2622600000000004
 20
2.7654900000000002
 30
0.0
 10
4.2343200000000003
 20
2.5826100000000003
 30
0.0
 10
4.19876
 20
2.4556100000000001
 30
0.0
 10
4.19876
 20
2.4556100000000001
 30
0.0
 10
4.1378000000000004
 20
2.46577
 30
0.0
 10
4.2013000000000007
 20
2.5775300000000003
 30
0.0
 10
4.1555800000000005
 20
2.6207100000000003
 30
0.0
 10
4.1555800000000005
 20
2.6207100000000003
 30
0.0
 10
4.0971600000000006
 20
2.6308700000000003
 30
0.0
 10
4.1174800000000005
 20
2.5368900000000001
 30
0.0
 10
4.0743
 20
2.5267300000000001
 30
0.0
 10
4.0743
 20
2.5267300000000001
 30
0.0
 10
3.9879400000000005
 20
2.7502500000000003
 30
0.0
 10
4.0387400000000007
 20
3.0067900000000001
 30
0.0
 10
4.2292400000000008
 20
3.1718900000000003
 30
0.0
  0
SPLINE
  5
3F
100
AcDbEntity
  8
Ebene 1
 62
     7
100
AcDbSpline
210
0.0
220
0.0
230
1.0
 70
     1
 71
     3
 72
    32
 73
    28
 74
     0
 42
0.0000000001
 43
0.0000000001
 40
0.0
 40
0.0
 40
0.0
 40
0.0
 40
0.1428571428571429
 40
0.1428571428571429
 40
0.1428571428571429
 40
0.1428571428571429
 40
0.2857142857142857
 40
0.2857142857142857
 40
0.2857142857142857
 40
0.2857142857142857
 40
0.4285714285714286
 40
0.4285714285714286
 40
0.4285714285714286
 40
0.4285714285714286
 40
0.5714285714285714
 40
0.5714285714285714
 40
0.5714285714285714
 40
0.5714285714285714
 40
0.7142857142857142
 40
0.7142857142857142
 40
0.7142857142857142
 40
0.7142857142857142
 40
0.857142857142857
 40
0.857142857142857
 40
0.857142857142857
 40
0.857142857142857
 40
1.0
 40
1.0
 40
1.0
 40
1.0
 10
-3.0249900000000003
 20
2.9128100000000003
 30
0.0
 10
-3.0072100000000002
 20
2.9178900000000003
 30
0.0
 10
-2.9868900000000003
 20
2.9026500000000004
 30
0.0
 10
-2.9818100000000003
 20
2.8823300000000001
 30
0.0
 10
-2.9818100000000003
 20
2.8823300000000001
 30
0.0
 10
-2.9818100000000003
 20
2.4683100000000002
 30
0.0
 10
-2.9868900000000003
 20
2.0542899999999999
 30
0.0
 10
-2.9640300000000002
 20
1.6605900000000002
 30
0.0
 10
-2.9640300000000002
 20
1.6605900000000002
 30
0.0
 10
-2.9284700000000004
 20
1.6072500000000001
 30
0.0
 10
-2.85989
 20
1.6224900000000002
 30
0.0
 10
-2.8243300000000002
 20
1.61487
 30
0.0
 10
-2.8243300000000002
 20
1.61487
 30
0.0
 10
-2.7227300000000003
 20
1.5361300000000002
 30
0.0
 10
-2.9183100000000004
 20
1.5589900000000001
 30
0.0
 10
-2.94625
 20
1.52597
 30
0.0
 10
-2.94625
 20
1.52597
 30
0.0
 10
-3.0402300000000002
 20
1.4142100000000002
 30
0.0
 10
-2.9564100000000004
 20
1.2059300000000002
 30
0.0
 10
-2.7659100000000003
 20
1.2237100000000001
 30
0.0
 10
-2.7659100000000003
 20
1.2237100000000001
 30
0.0
 10
-2.8548100000000001
 20
1.0992500000000001
 30
0.0
 10
-2.7506700000000004
 20
0.97733
 30
0.0
 10
-2.8954500000000003
 20
0.9062100000000001
 30
0.0
 10
-2.8954500000000003
 20
0.9062100000000001
 30
0.0
 10
-3.1265900000000002
 20
1.52851
 30
0.0
 10
-3.0402300000000002
 20
2.2143100000000002
 30
0.0
 10
-3.0249900000000003
 20
2.9128100000000003
 30
0.0
  0
SPLINE
  5
40
100
AcDbEntity
  8
Ebene 1
100
AcDbSpline
210
0.0
220
0.0
230
1.0
 70
     1
 71
     3
 72
    12
 73
     8
 74
     0
 42
0.0000000001
 43
0.0000000001
 40
0.0
 40
0.0
 40
0.0
 40
0.0
 40
0.5
 40
0.5
 40
0.5
 40
0.5
 40
1.0
 40
1.0
 40
1.0
 40
1.0
 10
3.1040200000000002
 20
2.8975700000000004
 30
0.0
 10
3.0989400000000002
 20
2.8670900000000001
 30
0.0
 10
3.0760800000000001
 20
2.8289900000000001
 30
0.0
 10
3.0506800000000003
 20
2.8162900000000004
 30
0.0
 10
3.0506800000000003
 20
2.8162900000000004
 30
0.0
 10
3.0456000000000003
 20
2.8467700000000002
 30
0.0
 10
3.0735400000000004
 20
2.8848700000000003
 30
0.0
 10
3.1040200000000002
 20
2.8975700000000004
 30
0.0
  0
SPLINE
  5
41
100
AcDbEntity
  8
Ebene 1
 62
     7
100
AcDbSpline
210
0.0
220
0.0
230
1.0
 70
     1
 71
     3
 72
    36
 73
    32
 74
     0
 42
0.0000000001
 43
0.0000000001
 40
0.0
 40
0.0
 40
0.0
 40
0.0
 40
0.125
 40
0.125
 40
0.125
 40
0.125
 40
0.25
 40
0.25
 40
0.25
 40
0.25
 40
0.375
 40
0.375
 40
0.375
 40
0.375
 40
0.5
 40
0.5
 40
0.5
 40
0.5
 40
0.625
 40
0.625
 40
0.625
 40
0.625
 40
0.75
 40
0.75
 40
0.75
 40
0.75
 40
0.875
 40
0.875
 40
0.875
 40
0.875
 40
1.0
 40
1.0
 40
1.0
 40
1.0
 10
-1.7422900000000001
 20
2.8696300000000003
 30
0.0
 10
-1.7194300000000002
 20
2.8264500000000004
 30
0.0
 10
-1.7321300000000002
 20
2.7527900000000001
 30
0.0
 10
-1.6584700000000001
 20
2.7934300000000003
 30
0.0
 10
-1.6584700000000001
 20
2.7934300000000003
 30
0.0
 10
-1.6330700000000002
 20
2.68167
 30
0.0
 10
-1.50353
 20
2.7375500000000001
 30
0.0
 10
-1.4857500000000001
 20
2.6435700000000004
 30
0.0
 10
-1.4857500000000001
 20
2.6435700000000004
 30
0.0
 10
-1.4857500000000001
 20
2.6435700000000004
 30
0.0
 10
-1.5975100000000002
 20
2.6232500000000001
 30
0.0
 10
-1.5975100000000002
 20
2.6232500000000001
 30
0.0
 10
-1.5975100000000002
 20
2.6232500000000001
 30
0.0
 10
-1.5975100000000002
 20
2.6232500000000001
 30
0.0
 10
-1.7270500000000002
 20
2.55213
 30
0.0
 10
-1.7270500000000002
 20
2.55213
 30
0.0
 10
-1.7270500000000002
 20
2.55213
 30
0.0
 10
-1.7626100000000002
 20
2.5851500000000001
 30
0.0
 10
-1.79817
 20
2.6435700000000004
 30
0.0
 10
-1.8515100000000002
 20
2.6130900000000001
 30
0.0
 10
-1.8515100000000002
 20
2.6130900000000001
 30
0.0
 10
-1.8896100000000002
 20
2.6664300000000001
 30
0.0
 10
-1.8667500000000001
 20
2.7451700000000003
 30
0.0
 10
-1.8667500000000001
 20
2.8086700000000002
 30
0.0
 10
-1.8667500000000001
 20
2.8086700000000002
 30
0.0
 10
-1.8362700000000001
 20
2.8035900000000002
 30
0.0
 10
-1.8057900000000002
 20
2.7908900000000001
 30
0.0
 10
-1.7727700000000002
 20
2.8162900000000004
 30
0.0
 10
-1.7727700000000002
 20
2.8162900000000004
 30
0.0
 10
-1.7727700000000002
 20
2.8162900000000004
 30
0.0
 10
-1.7422900000000001
 20
2.8696300000000003
 30
0.0
 10
-1.7422900000000001
 20
2.8696300000000003
 30
0.0
  0
SPLINE
  5
42
100
AcDbEntity
  8
Ebene 1
 62
     7
100
AcDbSpline
210
0.0
220
0.0
230
1.0
 70
     1
 71
     3
 72
    20
 73
    16
 74
     0
 42
0.0000000001
 43
0.0000000001
 40
0.0
 40
0.0
 40
0.0
 40
0.0
 40
0.25
 40
0.25
 40
0.25
 40
0.25
 40
0.5
 40
0.5
 40
0.5
 40
0.5
 40
0.75
 40
0.75
 40
0.75
 40
0.75
 40
1.0
 40
1.0
 40
1.0
 40
1.0
 10
-3.5736300000000001
 20
2.7959700000000001
 30
0.0
 10
-3.5736300000000001
 20
2.7959700000000001
 30
0.0
 10
-3.4618700000000002
 20
2.7502500000000003
 30
0.0
 10
-3.4618700000000002
 20
2.7502500000000003
 30
0.0
 10
-3.4618700000000002
 20
2.7502500000000003
 30
0.0
 10
-3.4491700000000001
 20
2.4530700000000003
 30
0.0
 10
-3.4491700000000001
 20
2.1177900000000003
 30
0.0
 10
-3.4771100000000001
 20
1.8206100000000001
 30
0.0
 10
-3.4771100000000001
 20
1.8206100000000001
 30
0.0
 10
-3.5406100000000005
 20
1.8790300000000002
 30
0.0
 10
-3.5431500000000002
 20
1.9577700000000002
 30
0.0
 10
-3.5304500000000001
 20
2.0466700000000002
 30
0.0
 10
-3.5304500000000001
 20
2.0466700000000002
 30
0.0
 10
-3.6752300000000004
 20
2.2676500000000002
 30
0.0
 10
-3.5837900000000005
 20
2.54705
 30
0.0
 10
-3.5736300000000001
 20
2.7959700000000001
 30
0.0
  0
SPLINE
  5
43
100
AcDbEntity
  8
Ebene 1
 62
     7
100
AcDbSpline
210
0.0
220
0.0
230
1.0
 70
     1
 71
     3
 72
    12
 73
     8
 74
     0
 42
0.0000000001
 43
0.0000000001
 40
0.0
 40
0.0
 40
0.0
 40
0.0
 40
0.5
 40
0.5
 40
0.5
 40
0.5
 40
1.0
 40
1.0
 40
1.0
 40
1.0
 10
-2.5779500000000004
 20
2.7096100000000001
 30
0.0
 10
-2.4153900000000004
 20
2.7121500000000003
 30
0.0
 10
-2.40015
 20
2.4784700000000002
 30
0.0
 10
-2.4661900000000001
 20
2.3692500000000001
 30
0.0
 10
-2.4661900000000001
 20
2.3692500000000001
 30
0.0
 10
-2.6439900000000001
 20
2.3387700000000002
 30
0.0
 10
-2.52969
 20
2.6054700000000004
 30
0.0
 10
-2.5779500000000004
 20
2.7096100000000001
 30
0.0
  0
SPLINE
  5
44
100
AcDbEntity
  8
Ebene 1
 62
     7
100
AcDbSpline
210
0.0
220
0.0
230
1.0
 70
     1
 71
     3
 72
    16
 73
    12
 74
     0
 42
0.0000000001
 43
0.0000000001
 40
0.0
 40
0.0
 40
0.0
 40
0.0
 40
0.3333333333333333
 40
0.3333333333333333
 40
0.3333333333333333
 40
0.3333333333333333
 40
0.6666666666666666
 40
0.6666666666666666
 40
0.6666666666666666
 40
0.6666666666666666
 40
1.0
 40
1.0
 40
1.0
 40
1.0
 10
3.9701600000000004
 20
2.6232500000000001
 30
0.0
 10
3.9701600000000004
 20
2.6232500000000001
 30
0.0
 10
3.9955600000000002
 20
2.6207100000000003
 30
0.0
 10
3.9955600000000002
 20
2.6207100000000003
 30
0.0
 10
3.9955600000000002
 20
2.6207100000000003
 30
0.0
 10
3.9955600000000002
 20
2.6207100000000003
 30
0.0
 10
4.0133400000000004
 20
2.3921100000000002
 30
0.0
 10
4.0133400000000004
 20
2.3921100000000002
 30
0.0
 10
4.0133400000000004
 20
2.3921100000000002
 30
0.0
 10
3.9955600000000002
 20
2.46069
 30
0.0
 10
3.9625400000000002
 20
2.5419700000000001
 30
0.0
 10
3.9701600000000004
 20
2.6232500000000001
 30
0.0
  0
SPLINE
  5
45
100
AcDbEntity
  8
Ebene 1
 62
     7
100
AcDbSpline
210
0.0
220
0.0
230
1.0
 70
     1
 71
     3
 72
    12
 73
     8
 74
     0
 42
0.0000000001
 43
0.0000000001
 40
0.0
 40
0.0
 40
0.0
 40
0.0
 40
0.5
 40
0.5
 40
0.5
 40
0.5
 40
1.0
 40
1.0
 40
1.0
 40
1.0
 10
-2.23251
 20
2.6080100000000002
 30
0.0
 10
-2.14107
 20
2.5749900000000001
 30
0.0
 10
-2.2071100000000001
 20
2.4200500000000003
 30
0.0
 10
-2.1918700000000002
 20
2.3387700000000002
 30
0.0
 10
-2.1918700000000002
 20
2.3387700000000002
 30
0.0
 10
-2.3341100000000004
 20
2.3336900000000003
 30
0.0
 10
-2.2680700000000003
 20
2.5343500000000003
 30
0.0
 10
-2.23251
 20
2.6080100000000002
 30
0.0
  0
SPLINE
  5
46
100
AcDbEntity
  8
Ebene 1
 62
     7
100
AcDbSpline
210
0.0
220
0.0
230
1.0
 70
     1
 71
     3
 72
    36
 73
    32
 74
     0
 42
0.0000000001
 43
0.0000000001
 40
0.0
 40
0.0
 40
0.0
 40
0.0
 40
0.125
 40
0.125
 40
0.125
 40
0.125
 40
0.25
 40
0.25
 40
0.25
 40
0.25
 40
0.375
 40
0.375
 40
0.375
 40
0.375
 40
0.5
 40
0.5
 40
0.5
 40
0.5
 40
0.625
 40
0.625
 40
0.625
 40
0.625
 40
0.75
 40
0.75
 40
0.75
 40
0.75
 40
0.875
 40
0.875
 40
0.875
 40
0.875
 40
1.0
 40
1.0
 40
1.0
 40
1.0
 10
-0.44181
 20
2.5241900000000004
 30
0.0
 10
-0.10907
 20
2.5394300000000003
 30
0.0
 10
0.03316
 20
2.1762100000000002
 30
0.0
 10
0.25922
 20
2.00095
 30
0.0
 10
0.25922
 20
2.00095
 30
0.0
 10
0.25922
 20
2.00095
 30
0.0
 10
0.5462400000000001
 20
1.6605900000000002
 30
0.0
 10
0.5462400000000001
 20
1.6605900000000002
 30
0.0
 10
0.5462400000000001
 20
1.6605900000000002
 30
0.0
 10
0.5462400000000001
 20
1.6605900000000002
 30
0.0
 10
-0.3859300000000001
 20
2.1609700000000003
 30
0.0
 10
-0.3859300000000001
 20
2.1609700000000003
 30
0.0
 10
-0.3859300000000001
 20
2.1609700000000003
 30
0.0
 10
-0.6881900000000001
 20
2.1965300000000001
 30
0.0
 10
-0.9371100000000001
 20
1.9298300000000002
 30
0.0
 10
-1.0310900000000001
 20
1.6682100000000002
 30
0.0
 10
-1.0310900000000001
 20
1.6682100000000002
 30
0.0
 10
-1.1479300000000001
 20
1.4700900000000001
 30
0.0
 10
-1.03871
 20
1.8561700000000001
 30
0.0
 10
-1.0310900000000001
 20
1.9425300000000001
 30
0.0
 10
-1.0310900000000001
 20
1.9425300000000001
 30
0.0
 10
-1.0310900000000001
 20
1.9425300000000001
 30
0.0
 10
-0.9040900000000001
 20
2.2625700000000002
 30
0.0
 10
-0.9040900000000001
 20
2.2625700000000002
 30
0.0
 10
-0.9040900000000001
 20
2.2625700000000002
 30
0.0
 10
-0.7999500000000001
 20
2.34131
 30
0.0
 10
-0.9548900000000001
 20
2.0517500000000002
 30
0.0
 10
-0.92949
 20
1.9628500000000002
 30
0.0
 10
-0.92949
 20
1.9628500000000002
 30
0.0
 10
-0.66025
 20
2.0771500000000001
 30
0.0
 10
-0.59675
 20
2.3184500000000003
 30
0.0
 10
-0.44181
 20
2.5241900000000004
 30
0.0
  0
SPLINE
  5
47
100
AcDbEntity
  8
Ebene 1
100
AcDbSpline
210
0.0
220
0.0
230
1.0
 70
     1
 71
     3
 72
    40
 73
    36
 74
     0
 42
0.0000000001
 43
0.0000000001
 40
0.0
 40
0.0
 40
0.0
 40
0.0
 40
0.1111111111111111
 40
0.1111111111111111
 40
0.1111111111111111
 40
0.1111111111111111
 40
0.2222222222222222
 40
0.2222222222222222
 40
0.2222222222222222
 40
0.2222222222222222
 40
0.3333333333333333
 40
0.3333333333333333
 40
0.3333333333333333
 40
0.3333333333333333
 40
0.4444444444444444
 40
0.4444444444444444
 40
0.4444444444444444
 40
0.4444444444444444
 40
0.5555555555555556
 40
0.5555555555555556
 40
0.5555555555555556
 40
0.5555555555555556
 40
0.6666666666666667
 40
0.6666666666666667
 40
0.6666666666666667
 40
0.6666666666666667
 40
0.7777777777777779
 40
0.7777777777777779
 40
0.7777777777777779
 40
0.7777777777777779
 40
0.8888888888888891
 40
0.8888888888888891
 40
0.8888888888888891
 40
0.8888888888888891
 40
1.0
 40
1.0
 40
1.0
 40
1.0
 10
-1.5822700000000001
 20
2.3921100000000002
 30
0.0
 10
-1.4705100000000002
 20
2.42259
 30
0.0
 10
-1.5517900000000002
 20
2.3133700000000004
 30
0.0
 10
-1.4781300000000002
 20
2.2828900000000001
 30
0.0
 10
-1.4781300000000002
 20
2.2828900000000001
 30
0.0
 10
-1.3638300000000001
 20
2.3489300000000002
 30
0.0
 10
-1.1580900000000001
 20
2.3260700000000001
 30
0.0
 10
-1.1352300000000002
 20
2.1762100000000002
 30
0.0
 10
-1.1352300000000002
 20
2.1762100000000002
 30
0.0
 10
-1.1606300000000001
 20
2.0593700000000004
 30
0.0
 10
-1.29017
 20
1.9476100000000001
 30
0.0
 10
-1.2215900000000002
 20
1.8307700000000002
 30
0.0
 10
-1.2215900000000002
 20
1.8307700000000002
 30
0.0
 10
-1.3003300000000002
 20
1.7520300000000002
 30
0.0
 10
-1.3054100000000002
 20
1.6326500000000002
 30
0.0
 10
-1.33589
 20
1.5412100000000002
 30
0.0
 10
-1.33589
 20
1.5412100000000002
 30
0.0
 10
-1.4070100000000001
 20
1.5894700000000002
 30
0.0
 10
-1.3435100000000002
 20
1.7317100000000001
 30
0.0
 10
-1.3536700000000002
 20
1.8129900000000001
 30
0.0
 10
-1.3536700000000002
 20
1.8129900000000001
 30
0.0
 10
-1.4501900000000001
 20
1.8383900000000002
 30
0.0
 10
-1.5314700000000001
 20
1.9120500000000002
 30
0.0
 10
-1.5416300000000001
 20
2.0136500000000002
 30
0.0
 10
-1.5416300000000001
 20
2.0136500000000002
 30
0.0
 10
-1.5416300000000001
 20
2.0136500000000002
 30
0.0
 10
-1.7067300000000001
 20
1.9780900000000001
 30
0.0
 10
-1.7067300000000001
 20
1.9780900000000001
 30
0.0
 10
-1.7067300000000001
 20
1.9780900000000001
 30
0.0
 10
-1.7397500000000001
 20
2.0517500000000002
 30
0.0
 10
-1.7600700000000002
 20
2.1381100000000002
 30
0.0
 10
-1.8235700000000001
 20
2.17367
 30
0.0
 10
-1.8235700000000001
 20
2.17367
 30
0.0
 10
-1.8235700000000001
 20
2.17367
 30
0.0
 10
-1.5822700000000001
 20
2.3921100000000002
 30
0.0
 10
-1.5822700000000001
 20
2.3921100000000002
 30
0.0
  0
SPLINE
  5
48
100
AcDbEntity
  8
Ebene 1
 62
     7
100
AcDbSpline
210
0.0
220
0.0
230
1.0
 70
     1
 71
     3
 72
   176
 73
   172
 74
     0
 42
0.0000000001
 43
0.0000000001
 40
0.0
 40
0.0
 40
0.0
 40
0.0
 40
0.0232558139534884
 40
0.0232558139534884
 40
0.0232558139534884
 40
0.0232558139534884
 40
0.0465116279069767
 40
0.0465116279069767
 40
0.0465116279069767
 40
0.0465116279069767
 40
0.0697674418604651
 40
0.0697674418604651
 40
0.0697674418604651
 40
0.0697674418604651
 40
0.0930232558139535
 40
0.0930232558139535
 40
0.0930232558139535
 40
0.0930232558139535
 40
0.1162790697674419
 40
0.1162790697674419
 40
0.1162790697674419
 40
0.1162790697674419
 40
0.1395348837209302
 40
0.1395348837209302
 40
0.1395348837209302
 40
0.1395348837209302
 40
0.1627906976744186
 40
0.1627906976744186
 40
0.1627906976744186
 40
0.1627906976744186
 40
0.186046511627907
 40
0.186046511627907
 40
0.186046511627907
 40
0.186046511627907
 40
0.2093023255813953
 40
0.2093023255813953
 40
0.2093023255813953
 40
0.2093023255813953
 40
0.2325581395348837
 40
0.2325581395348837
 40
0.2325581395348837
 40
0.2325581395348837
 40
0.2558139534883721
 40
0.2558139534883721
 40
0.2558139534883721
 40
0.2558139534883721
 40
0.2790697674418604
 40
0.2790697674418604
 40
0.2790697674418604
 40
0.2790697674418604
 40
0.3023255813953488
 40
0.3023255813953488
 40
0.3023255813953488
 40
0.3023255813953488
 40
0.3255813953488371
 40
0.3255813953488371
 40
0.3255813953488371
 40
0.3255813953488371
 40
0.3488372093023255
 40
0.3488372093023255
 40
0.3488372093023255
 40
0.3488372093023255
 40
0.3720930232558138
 40
0.3720930232558138
 40
0.3720930232558138
 40
0.3720930232558138
 40
0.3953488372093022
 40
0.3953488372093022
 40
0.3953488372093022
 40
0.3953488372093022
 40
0.4186046511627906
 40
0.4186046511627906
 40
0.4186046511627906
 40
0.4186046511627906
 40
0.4418604651162789
 40
0.4418604651162789
 40
0.4418604651162789
 40
0.4418604651162789
 40
0.4651162790697673
 40
0.4651162790697673
 40
0.4651162790697673
 40
0.4651162790697673
 40
0.4883720930232556
 40
0.4883720930232556
 40
0.4883720930232556
 40
0.4883720930232556
 40
0.511627906976744
 40
0.511627906976744
 40
0.511627906976744
 40
0.511627906976744
 40
0.5348837209302324
 40
0.5348837209302324
 40
0.5348837209302324
 40
0.5348837209302324
 40
0.5581395348837208
 40
0.5581395348837208
 40
0.5581395348837208
 40
0.5581395348837208
 40
0.5813953488372092
 40
0.5813953488372092
 40
0.5813953488372092
 40
0.5813953488372092
 40
0.6046511627906976
 40
0.6046511627906976
 40
0.6046511627906976
 40
0.6046511627906976
 40
0.6279069767441861
 40
0.6279069767441861
 40
0.6279069767441861
 40
0.6279069767441861
 40
0.6511627906976745
 40
0.6511627906976745
 40
0.6511627906976745
 40
0.6511627906976745
 40
0.6744186046511629
 40
0.6744186046511629
 40
0.6744186046511629
 40
0.6744186046511629
 40
0.6976744186046513
 40
0.6976744186046513
 40
0.6976744186046513
 40
0.6976744186046513
 40
0.7209302325581397
 40
0.7209302325581397
 40
0.7209302325581397
 40
0.7209302325581397
 40
0.7441860465116281
 40
0.7441860465116281
 40
0.7441860465116281
 40
0.7441860465116281
 40
0.7674418604651165
 40
0.7674418604651165
 40
0.7674418604651165
 40
0.7674418604651165
 40
0.790697674418605
 40
0.790697674418605
 40
0.790697674418605
 40
0.790697674418605
 40
0.8139534883720934
 40
0.8139534883720934
 40
0.8139534883720934
 40
0.8139534883720934
 40
0.8372093023255818
 40
0.8372093023255818
 40
0.8372093023255818
 40
0.8372093023255818
 40
0.8604651162790702
 40
0.8604651162790702
 40
0.8604651162790702
 40
0.8604651162790702
 40
0.8837209302325586
 40
0.8837209302325586
 40
0.8837209302325586
 40
0.8837209302325586
 40
0.906976744186047
 40
0.906976744186047
 40
0.906976744186047
 40
0.906976744186047
 40
0.9302325581395354
 40
0.9302325581395354
 40
0.9302325581395354
 40
0.9302325581395354
 40
0.9534883720930238
 40
0.9534883720930238
 40
0.9534883720930238
 40
0.9534883720930238
 40
0.9767441860465123
 40
0.9767441860465123
 40
0.9767441860465123
 40
0.9767441860465123
 40
1.0
 40
1.0
 40
1.0
 40
1.0
 10
0.24652
 20
-1.3137400000000001
 30
0.0
 10
0.47004
 20
-0.9124200000000001
 30
0.0
 10
0.6529200000000001
 20
-0.47554
 30
0.0
 10
0.99582
 20
-0.17582
 30
0.0
 10
0.99582
 20
-0.17582
 30
0.0
 10
0.99582
 20
-0.17582
 30
0.0
 10
0.5945
 20
-1.0673600000000001
 30
0.0
 10
0.5945
 20
-1.0673600000000001
 30
0.0
 10
0.5945
 20
-1.0673600000000001
 30
0.0
 10
0.5945
 20
-1.0673600000000001
 30
0.0
 10
0.5183000000000001
 20
-1.25024
 30
0.0
 10
0.5183000000000001
 20
-1.25024
 30
0.0
 10
0.5183000000000001
 20
-1.25024
 30
0.0
 10
0.4548
 20
-1.5144000000000002
 30
0.0
 10
0.70372
 20
-1.7582400000000002
 30
0.0
 10
0.76468
 20
-1.3518400000000002
 30
0.0
 10
0.76468
 20
-1.3518400000000002
 30
0.0
 10
0.9272400000000001
 20
-1.0165600000000001
 30
0.0
 10
1.02122
 20
-0.55174
 30
0.0
 10
1.3565
 20
-0.34854
 30
0.0
 10
1.3565
 20
-0.34854
 30
0.0
 10
1.0872600000000001
 20
-0.7397
 30
0.0
 10
0.8739000000000001
 20
-1.1765800000000002
 30
0.0
 10
0.7951600000000001
 20
-1.6439400000000002
 30
0.0
 10
0.7951600000000001
 20
-1.6439400000000002
 30
0.0
 10
0.9831200000000001
 20
-2.1138400000000002
 30
0.0
 10
1.5114400000000001
 20
-1.4813800000000001
 30
0.0
 10
1.48858
 20
-1.1537200000000001
 30
0.0
 10
1.48858
 20
-1.1537200000000001
 30
0.0
 10
1.5571600000000001
 20
-1.3010400000000002
 30
0.0
 10
1.40476
 20
-1.6617200000000001
 30
0.0
 10
1.6359000000000001
 20
-1.8141200000000002
 30
0.0
 10
1.6359000000000001
 20
-1.8141200000000002
 30
0.0
 10
1.7146400000000002
 20
-1.83952
 30
0.0
 10
1.8086200000000001
 20
-1.8268200000000001
 30
0.0
 10
1.8746600000000002
 20
-1.7709400000000002
 30
0.0
 10
1.8746600000000002
 20
-1.7709400000000002
 30
0.0
 10
1.9737200000000001
 20
-0.78288
 30
0.0
 10
1.9864200000000001
 20
0.15437
 30
0.0
 10
1.8645
 20
1.15259
 30
0.0
 10
1.8645
 20
1.15259
 30
0.0
 10
1.9203800000000002
 20
1.2414900000000002
 30
0.0
 10
2.0042
 20
1.2897500000000002
 30
0.0
 10
2.09056
 20
1.3430900000000001
 30
0.0
 10
2.09056
 20
1.3430900000000001
 30
0.0
 10
2.6087200000000004
 20
1.8155300000000001
 30
0.0
 10
3.2945200000000003
 20
1.8053700000000001
 30
0.0
 10
3.8660200000000002
 20
2.13049
 30
0.0
 10
3.8660200000000002
 20
2.13049
 30
0.0
 10
4.1022400000000001
 20
1.9704700000000002
 30
0.0
 10
4.2114600000000006
 20
1.7139300000000002
 30
0.0
 10
4.0565199999999999
 20
1.4269100000000001
 30
0.0
 10
4.0565199999999999
 20
1.4269100000000001
 30
0.0
 10
4.2140000000000004
 20
1.3888100000000001
 30
0.0
 10
4.2394000000000007
 20
1.7037700000000002
 30
0.0
 10
4.2292400000000008
 20
1.8002900000000002
 30
0.0
 10
4.2292400000000008
 20
1.8002900000000002
 30
0.0
 10
4.6813600000000006
 20
0.9824100000000001
 30
0.0
 10
3.8965000000000005
 20
-0.03866
 30
0.0
 10
4.0692200000000005
 20
-0.9048000000000001
 30
0.0
 10
4.0692200000000005
 20
-0.9048000000000001
 30
0.0
 10
3.5256600000000002
 20
-1.1765800000000002
 30
0.0
 10
2.4080600000000003
 20
-0.4222
 30
0.0
 10
2.3547200000000004
 20
-1.3848600000000002
 30
0.0
 10
2.3547200000000004
 20
-1.3848600000000002
 30
0.0
 10
2.3191600000000001
 20
-1.2832600000000001
 30
0.0
 10
2.3623400000000001
 20
-1.1511800000000001
 30
0.0
 10
2.3674200000000001
 20
-1.03942
 30
0.0
 10
2.3674200000000001
 20
-1.03942
 30
0.0
 10
2.3928200000000004
 20
-0.5212600000000001
 30
0.0
 10
3.0735400000000004
 20
-0.7930400000000001
 30
0.0
 10
3.2970600000000001
 20
-0.78288
 30
0.0
 10
3.2970600000000001
 20
-0.78288
 30
0.0
 10
3.5561400000000001
 20
-0.90734
 30
0.0
 10
4.0514400000000004
 20
-1.00132
 30
0.0
 10
3.9092000000000002
 20
-0.46538
 30
0.0
 10
3.9092000000000002
 20
-0.46538
 30
0.0
 10
3.7898200000000002
 20
-0.7092200000000001
 30
0.0
 10
3.4850200000000005
 20
-0.55428
 30
0.0
 10
3.2488000000000001
 20
-0.63556
 30
0.0
 10
3.2488000000000001
 20
-0.63556
 30
0.0
 10
3.2488000000000001
 20
-0.63556
 30
0.0
 10
2.0981800000000002
 20
-0.4780800000000001
 30
0.0
 10
2.0981800000000002
 20
-0.4780800000000001
 30
0.0
 10
2.0981800000000002
 20
-0.4780800000000001
 30
0.0
 10
2.1083400000000001
 20
-0.84384
 30
0.0
 10
2.1159600000000003
 20
-1.9081000000000001
 30
0.0
 10
2.2505800000000002
 20
-2.60914
 30
0.0
 10
2.2505800000000002
 20
-2.60914
 30
0.0
 10
2.1947000000000001
 20
-2.6447000000000003
 30
0.0
 10
2.24804
 20
-2.5075400000000001
 30
0.0
 10
2.20994
 20
-2.4821400000000002
 30
0.0
 10
2.20994
 20
-2.4821400000000002
 30
0.0
 10
2.1566000000000001
 20
-2.4338800000000003
 30
0.0
 10
2.1261200000000002
 20
-2.43642
 30
0.0
 10
2.1261200000000002
 20
-2.3348200000000001
 30
0.0
 10
2.1261200000000002
 20
-2.3348200000000001
 30
0.0
 10
2.0296000000000003
 20
-1.9893800000000001
 30
0.0
 10
2.1083400000000001
 20
-2.6828000000000003
 30
0.0
 10
1.9457800000000001
 20
-2.7666200000000001
 30
0.0
 10
1.9457800000000001
 20
-2.7666200000000001
 30
0.0
 10
1.3260200000000002
 20
-2.9266400000000004
 30
0.0
 10
0.6656200000000001
 20
-2.7793200000000002
 30
0.0
 10
0.09412
 20
-2.5786600000000002
 30
0.0
 10
0.09412
 20
-2.5786600000000002
 30
0.0
 10
-0.27163
 20
-2.4592800000000001
 30
0.0
 10
0.18048
 20
-1.4305800000000002
 30
0.0
 10
-0.05319
 20
-1.8776200000000001
 30
0.0
 10
-0.05319
 20
-1.8776200000000001
 30
0.0
 10
-0.12177
 20
-2.0554200000000002
 30
0.0
 10
-0.15987
 20
-2.2560800000000003
 30
0.0
 10
-0.09891
 20
-2.4415
 30
0.0
 10
-0.09891
 20
-2.4415
 30
0.0
 10
-0.22337
 20
-2.5126200000000001
 30
0.0
 10
-1.33081
 20
-2.1519400000000002
 30
0.0
 10
-0.9472700000000001
 20
-1.7734800000000002
 30
0.0
 10
-0.9472700000000001
 20
-1.7734800000000002
 30
0.0
 10
-1.00569
 20
-2.2027400000000004
 30
0.0
 10
-0.48499
 20
-2.2662400000000003
 30
0.0
 10
-0.21575
 20
-2.4059400000000002
 30
0.0
 10
-0.21575
 20
-2.4059400000000002
 30
0.0
 10
-0.21575
 20
-2.4059400000000002
 30
0.0
 10
-0.19289
 20
-2.3830800000000001
 30
0.0
 10
-0.19289
 20
-2.3830800000000001
 30
0.0
 10
-0.19289
 20
-2.3830800000000001
 30
0.0
 10
-0.19289
 20
-2.3830800000000001
 30
0.0
 10
-0.17257
 20
-2.3348200000000001
 30
0.0
 10
-0.17257
 20
-2.3348200000000001
 30
0.0
 10
-0.17257
 20
-2.3348200000000001
 30
0.0
 10
-0.48499
 20
-2.4313400000000001
 30
0.0
 10
-0.06335
 20
-1.5347200000000001
 30
0.0
 10
-0.3122700000000001
 20
-1.9919200000000001
 30
0.0
 10
-0.3122700000000001
 20
-1.9919200000000001
 30
0.0
 10
-0.34529
 20
-2.0554200000000002
 30
0.0
 10
-0.35291
 20
-2.2230600000000003
 30
0.0
 10
-0.44181
 20
-2.19258
 30
0.0
 10
-0.44181
 20
-2.19258
 30
0.0
 10
-0.39101
 20
-2.0986000000000002
 30
0.0
 10
-0.55103
 20
-2.1417800000000002
 30
0.0
 10
-0.57135
 20
-2.0478000000000001
 30
0.0
 10
-0.57135
 20
-2.0478000000000001
 30
0.0
 10
-0.57135
 20
-2.0478000000000001
 30
0.0
 10
-0.53071
 20
-1.8039600000000002
 30
0.0
 10
-0.53071
 20
-1.8039600000000002
 30
0.0
 10
-0.53071
 20
-1.8039600000000002
 30
0.0
 10
-0.53071
 20
-1.8039600000000002
 30
0.0
 10
-0.5002300000000001
 20
-1.6896600000000002
 30
0.0
 10
-0.5002300000000001
 20
-1.6896600000000002
 30
0.0
 10
-0.5002300000000001
 20
-1.6896600000000002
 30
0.0
 10
-0.39355
 20
-1.5931400000000002
 30
0.0
 10
-0.48499
 20
-1.9716000000000002
 30
0.0
 10
-0.46721
 20
-2.0732000000000004
 30
0.0
 10
-0.46721
 20
-2.0732000000000004
 30
0.0
 10
-0.20051
 20
-1.37978
 30
0.0
 10
-0.6729500000000001
 20
-1.5753600000000001
 30
0.0
 10
-0.5434100000000001
 20
-0.9530600000000001
 30
0.0
 10
-0.5434100000000001
 20
-0.9530600000000001
 30
0.0
 10
-0.74153
 20
-0.4984000000000001
 30
0.0
 10
0.01792
 20
-0.6609600000000001
 30
0.0
 10
0.19318
 20
-0.9200400000000001
 30
0.0
 10
0.19318
 20
-0.9200400000000001
 30
0.0
 10
0.28208
 20
-0.90734
 30
0.0
 10
0.25922
 20
-0.69906
 30
0.0
 10
0.37606
 20
-0.7651000000000001
 30
0.0
 10
0.37606
 20
-0.7651000000000001
 30
0.0
 10
0.6834
 20
-0.50856
 30
0.0
 10
0.26684
 20
-1.0445
 30
0.0
 10
0.18048
 20
-1.3162800000000001
 30
0.0
 10
0.18048
 20
-1.3162800000000001
 30
0.0
 10
0.13476
 20
-1.4636
 30
0.0
 10
0.18302
 20
-1.4280400000000002
 30
0.0
 10
0.24652
 20
-1.3137400000000001
 30
0.0
  0
SPLINE
  5
49
100
AcDbEntity
  8
Ebene 1
 62
     7
100
AcDbSpline
210
0.0
220
0.0
230
1.0
 70
     1
 71
     3
 72
    24
 73
    20
 74
     0
 42
0.0000000001
 43
0.0000000001
 40
0.0
 40
0.0
 40
0.0
 40
0.0
 40
0.2
 40
0.2
 40
0.2
 40
0.2
 40
0.4
 40
0.4
 40
0.4
 40
0.4
 40
0.6000000000000001
 40
0.6000000000000001
 40
0.6000000000000001
 40
0.6000000000000001
 40
0.8
 40
0.8
 40
0.8
 40
0.8
 40
1.0
 40
1.0
 40
1.0
 40
1.0
 10
-3.9927300000000003
 20
2.0466700000000002
 30
0.0
 10
-3.9927300000000003
 20
2.0466700000000002
 30
0.0
 10
-3.9673300000000005
 20
2.04413
 30
0.0
 10
-3.9673300000000005
 20
2.04413
 30
0.0
 10
-3.9673300000000005
 20
2.04413
 30
0.0
 10
-3.9597100000000003
 20
1.8968100000000001
 30
0.0
 10
-3.8936700000000002
 20
1.7037700000000002
 30
0.0
 10
-3.7641300000000002
 20
1.69615
 30
0.0
 10
-3.7641300000000002
 20
1.69615
 30
0.0
 10
-3.7641300000000002
 20
1.69615
 30
0.0
 10
-3.7514300000000005
 20
1.6326500000000002
 30
0.0
 10
-3.7514300000000005
 20
1.6326500000000002
 30
0.0
 10
-3.7514300000000005
 20
1.6326500000000002
 30
0.0
 10
-3.7514300000000005
 20
1.6326500000000002
 30
0.0
 10
-3.9622500000000005
 20
1.6936100000000001
 30
0.0
 10
-3.9622500000000005
 20
1.6936100000000001
 30
0.0
 10
-3.9622500000000005
 20
1.6936100000000001
 30
0.0
 10
-3.9952700000000005
 20
1.82315
 30
0.0
 10
-4.0181300000000002
 20
1.9095100000000003
 30
0.0
 10
-3.9927300000000003
 20
2.0466700000000002
 30
0.0
  0
SPLINE
  5
4A
100
AcDbEntity
  8
Ebene 1
 62
     7
100
AcDbSpline
210
0.0
220
0.0
230
1.0
 70
     1
 71
     3
 72
    36
 73
    32
 74
     0
 42
0.0000000001
 43
0.0000000001
 40
0.0
 40
0.0
 40
0.0
 40
0.0
 40
0.125
 40
0.125
 40
0.125
 40
0.125
 40
0.25
 40
0.25
 40
0.25
 40
0.25
 40
0.375
 40
0.375
 40
0.375
 40
0.375
 40
0.5
 40
0.5
 40
0.5
 40
0.5
 40
0.625
 40
0.625
 40
0.625
 40
0.625
 40
0.75
 40
0.75
 40
0.75
 40
0.75
 40
0.875
 40
0.875
 40
0.875
 40
0.875
 40
1.0
 40
1.0
 40
1.0
 40
1.0
 10
-2.6211300000000004
 20
2.0466700000000002
 30
0.0
 10
-2.4788900000000003
 20
2.08731
 30
0.0
 10
-2.3849100000000001
 20
1.8155300000000001
 30
0.0
 10
-2.5601700000000003
 20
1.8256900000000003
 30
0.0
 10
-2.5601700000000003
 20
1.8256900000000003
 30
0.0
 10
-2.5601700000000003
 20
1.8256900000000003
 30
0.0
 10
-2.6033500000000003
 20
1.7774300000000001
 30
0.0
 10
-2.6033500000000003
 20
1.7774300000000001
 30
0.0
 10
-2.6033500000000003
 20
1.7774300000000001
 30
0.0
 10
-2.5601700000000003
 20
1.6834500000000001
 30
0.0
 10
-2.4687300000000003
 20
1.78251
 30
0.0
 10
-2.4077700000000002
 20
1.7266300000000001
 30
0.0
 10
-2.4077700000000002
 20
1.7266300000000001
 30
0.0
 10
-2.4077700000000002
 20
1.7266300000000001
 30
0.0
 10
-2.4661900000000001
 20
1.15513
 30
0.0
 10
-2.4661900000000001
 20
1.15513
 30
0.0
 10
-2.4661900000000001
 20
1.15513
 30
0.0
 10
-2.4661900000000001
 20
1.15513
 30
0.0
 10
-2.6363700000000003
 20
1.0941700000000001
 30
0.0
 10
-2.6363700000000003
 20
1.0941700000000001
 30
0.0
 10
-2.6363700000000003
 20
1.0941700000000001
 30
0.0
 10
-2.6668500000000002
 20
1.1322700000000001
 30
0.0
 10
-2.5982700000000003
 20
1.2008500000000002
 30
0.0
 10
-2.5652500000000003
 20
1.2237100000000001
 30
0.0
 10
-2.5652500000000003
 20
1.2237100000000001
 30
0.0
 10
-2.6871700000000001
 20
1.4700900000000001
 30
0.0
 10
-2.6312900000000004
 20
1.7469500000000002
 30
0.0
 10
-2.6643100000000004
 20
2.0034900000000002
 30
0.0
 10
-2.6643100000000004
 20
2.0034900000000002
 30
0.0
 10
-2.6643100000000004
 20
2.0034900000000002
 30
0.0
 10
-2.6211300000000004
 20
2.0466700000000002
 30
0.0
 10
-2.6211300000000004
 20
2.0466700000000002
 30
0.0
  0
SPLINE
  5
4B
100
AcDbEntity
  8
Ebene 1
 62
     7
100
AcDbSpline
210
0.0
220
0.0
230
1.0
 70
     1
 71
     3
 72
    24
 73
    20
 74
     0
 42
0.0000000001
 43
0.0000000001
 40
0.0
 40
0.0
 40
0.0
 40
0.0
 40
0.2
 40
0.2
 40
0.2
 40
0.2
 40
0.4
 40
0.4
 40
0.4
 40
0.4
 40
0.6000000000000001
 40
0.6000000000000001
 40
0.6000000000000001
 40
0.6000000000000001
 40
0.8
 40
0.8
 40
0.8
 40
0.8
 40
1.0
 40
1.0
 40
1.0
 40
1.0
 10
-0.3122700000000001
 20
1.9171300000000002
 30
0.0
 10
-0.10907
 20
1.7952100000000002
 30
0.0
 10
0.08904
 20
1.6478900000000001
 30
0.0
 10
0.17286
 20
1.4294500000000001
 30
0.0
 10
0.17286
 20
1.4294500000000001
 30
0.0
 10
0.02046
 20
1.3710300000000002
 30
0.0
 10
-0.16749
 20
1.5234300000000001
 30
0.0
 10
-0.25131
 20
1.6682100000000002
 30
0.0
 10
-0.25131
 20
1.6682100000000002
 30
0.0
 10
-0.25131
 20
1.6682100000000002
 30
0.0
 10
-0.05573
 20
1.6682100000000002
 30
0.0
 10
-0.05573
 20
1.6682100000000002
 30
0.0
 10
-0.05573
 20
1.6682100000000002
 30
0.0
 10
-0.13193
 20
1.73933
 30
0.0
 10
-0.37069
 20
1.69615
 30
0.0
 10
-0.25639
 20
1.8307700000000002
 30
0.0
 10
-0.25639
 20
1.8307700000000002
 30
0.0
 10
-0.28433
 20
1.8485500000000001
 30
0.0
 10
-0.33005
 20
1.8637900000000001
 30
0.0
 10
-0.3122700000000001
 20
1.9171300000000002
 30
0.0
  0
SPLINE
  5
4C
100
AcDbEntity
  8
Ebene 1
100
AcDbSpline
210
0.0
220
0.0
230
1.0
 70
     1
 71
     3
 72
    32
 73
    28
 74
     0
 42
0.0000000001
 43
0.0000000001
 40
0.0
 40
0.0
 40
0.0
 40
0.0
 40
0.1428571428571429
 40
0.1428571428571429
 40
0.1428571428571429
 40
0.1428571428571429
 40
0.2857142857142857
 40
0.2857142857142857
 40
0.2857142857142857
 40
0.2857142857142857
 40
0.4285714285714286
 40
0.4285714285714286
 40
0.4285714285714286
 40
0.4285714285714286
 40
0.5714285714285714
 40
0.5714285714285714
 40
0.5714285714285714
 40
0.5714285714285714
 40
0.7142857142857142
 40
0.7142857142857142
 40
0.7142857142857142
 40
0.7142857142857142
 40
0.857142857142857
 40
0.857142857142857
 40
0.857142857142857
 40
0.857142857142857
 40
1.0
 40
1.0
 40
1.0
 40
1.0
 10
3.6094800000000005
 20
1.8587100000000001
 30
0.0
 10
3.7339400000000005
 20
1.8561700000000001
 30
0.0
 10
3.7593400000000003
 20
1.7774300000000001
 30
0.0
 10
3.6704400000000001
 20
1.7190100000000001
 30
0.0
 10
3.6704400000000001
 20
1.7190100000000001
 30
0.0
 10
4.1251000000000007
 20
1.27705
 30
0.0
 10
4.1276400000000004
 20
0.50997
 30
0.0
 10
3.8939600000000003
 20
-0.02596
 30
0.0
 10
3.8939600000000003
 20
-0.02596
 30
0.0
 10
3.6628200000000004
 20
-0.3637800000000001
 30
0.0
 10
3.2107000000000001
 20
-0.2952
 30
0.0
 10
2.8728800000000003
 20
-0.21646
 30
0.0
 10
2.8728800000000003
 20
-0.21646
 30
0.0
 10
2.6950800000000004
 20
-0.25456
 30
0.0
 10
2.5198200000000002
 20
-0.24186
 30
0.0
 10
2.34456
 20
-0.19868
 30
0.0
 10
2.34456
 20
-0.19868
 30
0.0
 10
1.8162400000000001
 20
0.10357
 30
0.0
 10
2.0804
 20
0.7309500000000001
 30
0.0
 10
2.1997800000000001
 20
1.1779900000000001
 30
0.0
 10
2.1997800000000001
 20
1.1779900000000001
 30
0.0
 10
2.5045800000000003
 20
1.44469
 30
0.0
 10
3.0608400000000002
 20
1.3557900000000001
 30
0.0
 10
3.2665800000000003
 20
1.7113900000000002
 30
0.0
 10
3.2665800000000003
 20
1.7113900000000002
 30
0.0
 10
3.2665800000000003
 20
1.7113900000000002
 30
0.0
 10
3.6094800000000005
 20
1.8587100000000001
 30
0.0
 10
3.6094800000000005
 20
1.8587100000000001
 30
0.0
  0
SPLINE
  5
4D
100
AcDbEntity
  8
Ebene 1
 62
     7
100
AcDbSpline
210
0.0
220
0.0
230
1.0
 70
     1
 71
     3
 72
    28
 73
    24
 74
     0
 42
0.0000000001
 43
0.0000000001
 40
0.0
 40
0.0
 40
0.0
 40
0.0
 40
0.1666666666666667
 40
0.1666666666666667
 40
0.1666666666666667
 40
0.1666666666666667
 40
0.3333333333333333
 40
0.3333333333333333
 40
0.3333333333333333
 40
0.3333333333333333
 40
0.5
 40
0.5
 40
0.5
 40
0.5
 40
0.6666666666666666
 40
0.6666666666666666
 40
0.6666666666666666
 40
0.6666666666666666
 40
0.8333333333333333
 40
0.8333333333333333
 40
0.8333333333333333
 40
0.8333333333333333
 40
1.0
 40
1.0
 40
1.0
 40
1.0
 10
-2.1309100000000001
 20
1.8002900000000002
 30
0.0
 10
-2.1105900000000002
 20
1.8028300000000002
 30
0.0
 10
-2.0902700000000003
 20
1.8028300000000002
 30
0.0
 10
-2.0775700000000001
 20
1.78251
 30
0.0
 10
-2.0775700000000001
 20
1.78251
 30
0.0
 10
-2.0775700000000001
 20
1.78251
 30
0.0
 10
-2.1055100000000002
 20
1.4599300000000002
 30
0.0
 10
-2.1055100000000002
 20
1.4599300000000002
 30
0.0
 10
-2.1055100000000002
 20
1.4599300000000002
 30
0.0
 10
-2.1766300000000003
 20
1.5208900000000001
 30
0.0
 10
-2.2426700000000004
 20
1.6377300000000001
 30
0.0
 10
-2.18933
 20
1.7291700000000001
 30
0.0
 10
-2.18933
 20
1.7291700000000001
 30
0.0
 10
-2.18933
 20
1.7291700000000001
 30
0.0
 10
-2.1639300000000001
 20
1.7037700000000002
 30
0.0
 10
-2.1639300000000001
 20
1.7037700000000002
 30
0.0
 10
-2.1639300000000001
 20
1.7037700000000002
 30
0.0
 10
-2.1639300000000001
 20
1.7037700000000002
 30
0.0
 10
-2.1486900000000002
 20
1.7190100000000001
 30
0.0
 10
-2.1486900000000002
 20
1.7190100000000001
 30
0.0
 10
-2.1486900000000002
 20
1.7190100000000001
 30
0.0
 10
-2.1486900000000002
 20
1.7190100000000001
 30
0.0
 10
-2.1309100000000001
 20
1.8002900000000002
 30
0.0
 10
-2.1309100000000001
 20
1.8002900000000002
 30
0.0
  0
SPLINE
  5
4E
100
AcDbEntity
  8
Ebene 1
 62
     7
100
AcDbSpline
210
0.0
220
0.0
230
1.0
 70
     1
 71
     3
 72
    12
 73
     8
 74
     0
 42
0.0000000001
 43
0.0000000001
 40
0.0
 40
0.0
 40
0.0
 40
0.0
 40
0.5
 40
0.5
 40
0.5
 40
0.5
 40
1.0
 40
1.0
 40
1.0
 40
1.0
 10
-0.5586500000000001
 20
1.7291700000000001
 30
0.0
 10
-0.40879
 20
1.7317100000000001
 30
0.0
 10
-0.6450100000000001
 20
1.5996300000000001
 30
0.0
 10
-0.59675
 20
1.69615
 30
0.0
 10
-0.59675
 20
1.69615
 30
0.0
 10
-0.5815100000000001
 20
1.7012300000000002
 30
0.0
 10
-0.5611900000000001
 20
1.7113900000000002
 30
0.0
 10
-0.5586500000000001
 20
1.7291700000000001
 30
0.0
  0
SPLINE
  5
4F
100
AcDbEntity
  8
Ebene 1
 62
     7
100
AcDbSpline
210
0.0
220
0.0
230
1.0
 70
     1
 71
     3
 72
    16
 73
    12
 74
     0
 42
0.0000000001
 43
0.0000000001
 40
0.0
 40
0.0
 40
0.0
 40
0.0
 40
0.3333333333333333
 40
0.3333333333333333
 40
0.3333333333333333
 40
0.3333333333333333
 40
0.6666666666666666
 40
0.6666666666666666
 40
0.6666666666666666
 40
0.6666666666666666
 40
1.0
 40
1.0
 40
1.0
 40
1.0
 10
3.5815400000000004
 20
1.6859900000000001
 30
0.0
 10
3.6298000000000004
 20
1.6885300000000001
 30
0.0
 10
3.6679000000000004
 20
1.6428100000000001
 30
0.0
 10
3.6958400000000005
 20
1.61487
 30
0.0
 10
3.6958400000000005
 20
1.61487
 30
0.0
 10
3.30722
 20
1.4675500000000001
 30
0.0
 10
2.8932000000000002
 20
1.1652900000000002
 30
0.0
 10
2.4537800000000001
 20
1.2516500000000002
 30
0.0
 10
2.4537800000000001
 20
1.2516500000000002
 30
0.0
 10
2.4537800000000001
 20
1.2516500000000002
 30
0.0
 10
3.5815400000000004
 20
1.6859900000000001
 30
0.0
 10
3.5815400000000004
 20
1.6859900000000001
 30
0.0
  0
SPLINE
  5
50
100
AcDbEntity
  8
Ebene 1
 62
     7
100
AcDbSpline
210
0.0
220
0.0
230
1.0
 70
     1
 71
     3
 72
    12
 73
     8
 74
     0
 42
0.0000000001
 43
0.0000000001
 40
0.0
 40
0.0
 40
0.0
 40
0.0
 40
0.5
 40
0.5
 40
0.5
 40
0.5
 40
1.0
 40
1.0
 40
1.0
 40
1.0
 10
-2.3468100000000001
 20
1.65551
 30
0.0
 10
-2.3010900000000003
 20
1.6529700000000001
 30
0.0
 10
-2.3010900000000003
 20
1.57169
 30
0.0
 10
-2.3061700000000003
 20
1.53105
 30
0.0
 10
-2.3061700000000003
 20
1.53105
 30
0.0
 10
-2.3722100000000004
 20
1.5234300000000001
 30
0.0
 10
-2.3417300000000001
 20
1.6174100000000002
 30
0.0
 10
-2.3468100000000001
 20
1.65551
 30
0.0
  0
SPLINE
  5
51
100
AcDbEntity
  8
Ebene 1
 62
     7
100
AcDbSpline
210
0.0
220
0.0
230
1.0
 70
     1
 71
     3
 72
    12
 73
     8
 74
     0
 42
0.0000000001
 43
0.0000000001
 40
0.0
 40
0.0
 40
0.0
 40
0.0
 40
0.5
 40
0.5
 40
0.5
 40
0.5
 40
1.0
 40
1.0
 40
1.0
 40
1.0
 10
-0.48499
 20
1.6428100000000001
 30
0.0
 10
-0.3859300000000001
 20
1.61487
 30
0.0
 10
-0.6500900000000001
 20
1.5005700000000002
 30
0.0
 10
-0.53071
 20
1.6047100000000001
 30
0.0
 10
-0.53071
 20
1.6047100000000001
 30
0.0
 10
-0.53071
 20
1.6047100000000001
 30
0.0
 10
-0.48499
 20
1.6428100000000001
 30
0.0
 10
-0.48499
 20
1.6428100000000001
 30
0.0
  0
SPLINE
  5
52
100
AcDbEntity
  8
Ebene 1
 62
     7
100
AcDbSpline
210
0.0
220
0.0
230
1.0
 70
     1
 71
     3
 72
    12
 73
     8
 74
     0
 42
0.0000000001
 43
0.0000000001
 40
0.0
 40
0.0
 40
0.0
 40
0.0
 40
0.5
 40
0.5
 40
0.5
 40
0.5
 40
1.0
 40
1.0
 40
1.0
 40
1.0
 10
0.11698
 20
1.61487
 30
0.0
 10
0.11698
 20
1.61487
 30
0.0
 10
0.2617600000000001
 20
1.52597
 30
0.0
 10
0.2617600000000001
 20
1.52597
 30
0.0
 10
0.2617600000000001
 20
1.52597
 30
0.0
 10
0.21604
 20
1.4218300000000001
 30
0.0
 10
0.12206
 20
1.5539100000000001
 30
0.0
 10
0.11698
 20
1.61487
 30
0.0
  0
SPLINE
  5
53
100
AcDbEntity
  8
Ebene 1
 62
     7
100
AcDbSpline
210
0.0
220
0.0
230
1.0
 70
     1
 71
     3
 72
    16
 73
    12
 74
     0
 42
0.0000000001
 43
0.0000000001
 40
0.0
 40
0.0
 40
0.0
 40
0.0
 40
0.3333333333333333
 40
0.3333333333333333
 40
0.3333333333333333
 40
0.3333333333333333
 40
0.6666666666666666
 40
0.6666666666666666
 40
0.6666666666666666
 40
0.6666666666666666
 40
1.0
 40
1.0
 40
1.0
 40
1.0
 10
1.40222
 20
1.56915
 30
0.0
 10
1.5470000000000002
 20
1.5183500000000001
 30
0.0
 10
1.8111600000000001
 20
1.5945500000000001
 30
0.0
 10
1.9051400000000001
 20
1.4294500000000001
 30
0.0
 10
1.9051400000000001
 20
1.4294500000000001
 30
0.0
 10
1.9051400000000001
 20
1.4294500000000001
 30
0.0
 10
1.8060800000000001
 20
1.4269100000000001
 30
0.0
 10
1.8060800000000001
 20
1.4269100000000001
 30
0.0
 10
1.8060800000000001
 20
1.4269100000000001
 30
0.0
 10
1.6892400000000001
 20
1.5335900000000002
 30
0.0
 10
1.3819000000000001
 20
1.3380100000000001
 30
0.0
 10
1.40222
 20
1.56915
 30
0.0
  0
SPLINE
  5
54
100
AcDbEntity
  8
Ebene 1
 62
     7
100
AcDbSpline
210
0.0
220
0.0
230
1.0
 70
     1
 71
     3
 72
    24
 73
    20
 74
     0
 42
0.0000000001
 43
0.0000000001
 40
0.0
 40
0.0
 40
0.0
 40
0.0
 40
0.2
 40
0.2
 40
0.2
 40
0.2
 40
0.4
 40
0.4
 40
0.4
 40
0.4
 40
0.6000000000000001
 40
0.6000000000000001
 40
0.6000000000000001
 40
0.6000000000000001
 40
0.8
 40
0.8
 40
0.8
 40
0.8
 40
1.0
 40
1.0
 40
1.0
 40
1.0
 10
-3.4440900000000001
 20
1.5564500000000001
 30
0.0
 10
-3.4237700000000002
 20
1.5564500000000001
 30
0.0
 10
-3.4034500000000003
 20
1.5564500000000001
 30
0.0
 10
-3.3882100000000004
 20
1.5386700000000002
 30
0.0
 10
-3.3882100000000004
 20
1.5386700000000002
 30
0.0
 10
-3.3170900000000003
 20
1.27705
 30
0.0
 10
-3.2281900000000001
 20
1.0078100000000001
 30
0.0
 10
-3.0859500000000004
 20
0.7817500000000001
 30
0.0
 10
-3.0859500000000004
 20
0.7817500000000001
 30
0.0
 10
-3.2916900000000004
 20
0.9316100000000001
 30
0.0
 10
-3.3755100000000002
 20
1.2160900000000001
 30
0.0
 10
-3.4720300000000002
 20
1.4396100000000001
 30
0.0
 10
-3.4720300000000002
 20
1.4396100000000001
 30
0.0
 10
-3.4720300000000002
 20
1.4396100000000001
 30
0.0
 10
-3.4136100000000003
 20
1.4980300000000002
 30
0.0
 10
-3.4136100000000003
 20
1.4980300000000002
 30
0.0
 10
-3.4136100000000003
 20
1.4980300000000002
 30
0.0
 10
-3.4136100000000003
 20
1.4980300000000002
 30
0.0
 10
-3.4440900000000001
 20
1.5564500000000001
 30
0.0
 10
-3.4440900000000001
 20
1.5564500000000001
 30
0.0
  0
SPLINE
  5
55
100
AcDbEntity
  8
Ebene 1
 62
     7
100
AcDbSpline
210
0.0
220
0.0
230
1.0
 70
     1
 71
     3
 72
    16
 73
    12
 74
     0
 42
0.0000000001
 43
0.0000000001
 40
0.0
 40
0.0
 40
0.0
 40
0.0
 40
0.3333333333333333
 40
0.3333333333333333
 40
0.3333333333333333
 40
0.3333333333333333
 40
0.6666666666666666
 40
0.6666666666666666
 40
0.6666666666666666
 40
0.6666666666666666
 40
1.0
 40
1.0
 40
1.0
 40
1.0
 10
-3.2434300000000005
 20
1.5132700000000001
 30
0.0
 10
-3.2434300000000005
 20
1.5132700000000001
 30
0.0
 10
-3.2154900000000004
 20
1.5107300000000001
 30
0.0
 10
-3.2154900000000004
 20
1.5107300000000001
 30
0.0
 10
-3.2154900000000004
 20
1.5107300000000001
 30
0.0
 10
-3.2154900000000004
 20
1.5107300000000001
 30
0.0
 10
-3.1850100000000001
 20
1.2668900000000001
 30
0.0
 10
-3.1850100000000001
 20
1.2668900000000001
 30
0.0
 10
-3.1850100000000001
 20
1.2668900000000001
 30
0.0
 10
-3.2205700000000004
 20
1.3354700000000002
 30
0.0
 10
-3.2231100000000001
 20
1.4319900000000001
 30
0.0
 10
-3.2434300000000005
 20
1.5132700000000001
 30
0.0
  0
SPLINE
  5
56
100
AcDbEntity
  8
Ebene 1
 62
     7
100
AcDbSpline
210
0.0
220
0.0
230
1.0
 70
     1
 71
     3
 72
    24
 73
    20
 74
     0
 42
0.0000000001
 43
0.0000000001
 40
0.0
 40
0.0
 40
0.0
 40
0.0
 40
0.2
 40
0.2
 40
0.2
 40
0.2
 40
0.4
 40
0.4
 40
0.4
 40
0.4
 40
0.6000000000000001
 40
0.6000000000000001
 40
0.6000000000000001
 40
0.6000000000000001
 40
0.8
 40
0.8
 40
0.8
 40
0.8
 40
1.0
 40
1.0
 40
1.0
 40
1.0
 10
0.2897
 20
1.4827900000000001
 30
0.0
 10
0.42432
 20
1.4777100000000001
 30
0.0
 10
0.5564
 20
1.3659500000000002
 30
0.0
 10
0.63514
 20
1.2846700000000002
 30
0.0
 10
0.63514
 20
1.2846700000000002
 30
0.0
 10
0.5183000000000001
 20
1.27197
 30
0.0
 10
0.39384
 20
1.2643500000000001
 30
0.0
 10
0.32018
 20
1.3684900000000002
 30
0.0
 10
0.32018
 20
1.3684900000000002
 30
0.0
 10
0.31002
 20
1.3684900000000002
 30
0.0
 10
0.28716
 20
1.3710300000000002
 30
0.0
 10
0.2897
 20
1.3532500000000001
 30
0.0
 10
0.2897
 20
1.3532500000000001
 30
0.0
 10
0.34304
 20
1.2567300000000001
 30
0.0
 10
0.19064
 20
1.27705
 30
0.0
 10
0.1754
 20
1.3532500000000001
 30
0.0
 10
0.1754
 20
1.3532500000000001
 30
0.0
 10
0.1754
 20
1.3532500000000001
 30
0.0
 10
0.2897
 20
1.4827900000000001
 30
0.0
 10
0.2897
 20
1.4827900000000001
 30
0.0
  0
SPLINE
  5
57
100
AcDbEntity
  8
Ebene 1
 62
     7
100
AcDbSpline
210
0.0
220
0.0
230
1.0
 70
     1
 71
     3
 72
    24
 73
    20
 74
     0
 42
0.0000000001
 43
0.0000000001
 40
0.0
 40
0.0
 40
0.0
 40
0.0
 40
0.2
 40
0.2
 40
0.2
 40
0.2
 40
0.4
 40
0.4
 40
0.4
 40
0.4
 40
0.6000000000000001
 40
0.6000000000000001
 40
0.6000000000000001
 40
0.6000000000000001
 40
0.8
 40
0.8
 40
0.8
 40
0.8
 40
1.0
 40
1.0
 40
1.0
 40
1.0
 10
-2.2172700000000001
 20
1.4396100000000001
 30
0.0
 10
-2.1918700000000002
 20
1.44723
 30
0.0
 10
-2.1817100000000003
 20
1.4218300000000001
 30
0.0
 10
-2.1639300000000001
 20
1.4091300000000002
 30
0.0
 10
-2.1639300000000001
 20
1.4091300000000002
 30
0.0
 10
-2.22743
 20
1.3253100000000002
 30
0.0
 10
-2.1232900000000003
 20
1.06877
 30
0.0
 10
-2.3036300000000001
 20
1.1373500000000001
 30
0.0
 10
-2.3036300000000001
 20
1.1373500000000001
 30
0.0
 10
-2.3214100000000002
 20
1.1297300000000001
 30
0.0
 10
-2.3391900000000003
 20
1.11449
 30
0.0
 10
-2.35697
 20
1.1271900000000001
 30
0.0
 10
-2.35697
 20
1.1271900000000001
 30
0.0
 10
-2.35697
 20
1.1805300000000001
 30
0.0
 10
-2.3290300000000004
 20
1.2516500000000002
 30
0.0
 10
-2.35697
 20
1.3075300000000001
 30
0.0
 10
-2.35697
 20
1.3075300000000001
 30
0.0
 10
-2.35697
 20
1.3075300000000001
 30
0.0
 10
-2.2172700000000001
 20
1.4396100000000001
 30
0.0
 10
-2.2172700000000001
 20
1.4396100000000001
 30
0.0
  0
SPLINE
  5
58
100
AcDbEntity
  8
Ebene 1
 62
     7
100
AcDbSpline
210
0.0
220
0.0
230
1.0
 70
     1
 71
     3
 72
    12
 73
     8
 74
     0
 42
0.0000000001
 43
0.0000000001
 40
0.0
 40
0.0
 40
0.0
 40
0.0
 40
0.5
 40
0.5
 40
0.5
 40
0.5
 40
1.0
 40
1.0
 40
1.0
 40
1.0
 10
-2.8243300000000002
 20
1.4116700000000002
 30
0.0
 10
-2.7633700000000001
 20
1.4142100000000002
 30
0.0
 10
-2.6414500000000003
 20
1.4192900000000002
 30
0.0
 10
-2.6668500000000002
 20
1.3303900000000002
 30
0.0
 10
-2.6668500000000002
 20
1.3303900000000002
 30
0.0
 10
-2.7201900000000001
 20
1.3507100000000001
 30
0.0
 10
-2.8497300000000001
 20
1.3075300000000001
 30
0.0
 10
-2.8243300000000002
 20
1.4116700000000002
 30
0.0
  0
SPLINE
  5
59
100
AcDbEntity
  8
Ebene 1
 62
     7
100
AcDbSpline
210
0.0
220
0.0
230
1.0
 70
     1
 71
     3
 72
    12
 73
     8
 74
     0
 42
0.0000000001
 43
0.0000000001
 40
0.0
 40
0.0
 40
0.0
 40
0.0
 40
0.5
 40
0.5
 40
0.5
 40
0.5
 40
1.0
 40
1.0
 40
1.0
 40
1.0
 10
3.7110800000000004
 20
1.4116700000000002
 30
0.0
 10
3.8076000000000003
 20
1.3913500000000001
 30
0.0
 10
3.8609400000000003
 20
1.2618100000000001
 30
0.0
 10
3.8507800000000003
 20
1.1703700000000001
 30
0.0
 10
3.8507800000000003
 20
1.1703700000000001
 30
0.0
 10
3.7364800000000002
 20
1.1627500000000002
 30
0.0
 10
3.7669600000000001
 20
1.3405500000000001
 30
0.0
 10
3.7110800000000004
 20
1.4116700000000002
 30
0.0
  0
SPLINE
  5
5A
100
AcDbEntity
  8
Ebene 1
 62
     7
100
AcDbSpline
210
0.0
220
0.0
230
1.0
 70
     1
 71
     3
 72
    20
 73
    16
 74
     0
 42
0.0000000001
 43
0.0000000001
 40
0.0
 40
0.0
 40
0.0
 40
0.0
 40
0.25
 40
0.25
 40
0.25
 40
0.25
 40
0.5
 40
0.5
 40
0.5
 40
0.5
 40
0.75
 40
0.75
 40
0.75
 40
0.75
 40
1.0
 40
1.0
 40
1.0
 40
1.0
 10
3.6272600000000002
 20
1.18815
 30
0.0
 10
3.6171000000000002
 20
1.18815
 30
0.0
 10
3.5942400000000001
 20
1.19323
 30
0.0
 10
3.5993200000000001
 20
1.1754500000000001
 30
0.0
 10
3.5993200000000001
 20
1.1754500000000001
 30
0.0
 10
3.5180400000000005
 20
1.1297300000000001
 30
0.0
 10
3.4393000000000002
 20
1.1221100000000002
 30
0.0
 10
3.4113600000000002
 20
1.23133
 30
0.0
 10
3.4113600000000002
 20
1.23133
 30
0.0
 10
3.4113600000000002
 20
1.23133
 30
0.0
 10
3.5688400000000002
 20
1.40659
 30
0.0
 10
3.5688400000000002
 20
1.40659
 30
0.0
 10
3.5688400000000002
 20
1.40659
 30
0.0
 10
3.6247200000000004
 20
1.35833
 30
0.0
 10
3.6856800000000005
 20
1.2541900000000001
 30
0.0
 10
3.6272600000000002
 20
1.18815
 30
0.0
  0
SPLINE
  5
5B
100
AcDbEntity
  8
Ebene 1
 62
     7
100
AcDbSpline
210
0.0
220
0.0
230
1.0
 70
     1
 71
     3
 72
    20
 73
    16
 74
     0
 42
0.0000000001
 43
0.0000000001
 40
0.0
 40
0.0
 40
0.0
 40
0.0
 40
0.25
 40
0.25
 40
0.25
 40
0.25
 40
0.5
 40
0.5
 40
0.5
 40
0.5
 40
0.75
 40
0.75
 40
0.75
 40
0.75
 40
1.0
 40
1.0
 40
1.0
 40
1.0
 10
-0.37069
 20
1.3405500000000001
 30
0.0
 10
-0.19797
 20
1.36087
 30
0.0
 10
-0.04811
 20
1.2440300000000002
 30
0.0
 10
0.05602
 20
1.1348100000000001
 30
0.0
 10
0.05602
 20
1.1348100000000001
 30
0.0
 10
0.10682
 20
0.9239900000000001
 30
0.0
 10
-0.03033
 20
0.7131700000000001
 30
0.0
 10
-0.21067
 20
0.6039500000000001
 30
0.0
 10
-0.21067
 20
0.6039500000000001
 30
0.0
 10
-0.6246900000000001
 20
0.44647
 30
0.0
 10
-0.9015500000000001
 20
1.1983100000000002
 30
0.0
 10
-0.4595900000000001
 20
1.2846700000000002
 30
0.0
 10
-0.4595900000000001
 20
1.2846700000000002
 30
0.0
 10
-0.4595900000000001
 20
1.2846700000000002
 30
0.0
 10
-0.37069
 20
1.3405500000000001
 30
0.0
 10
-0.37069
 20
1.3405500000000001
 30
0.0
  0
SPLINE
  5
5C
100
AcDbEntity
  8
Ebene 1
 62
     7
100
AcDbSpline
210
0.0
220
0.0
230
1.0
 70
     1
 71
     3
 72
    16
 73
    12
 74
     0
 42
0.0000000001
 43
0.0000000001
 40
0.0
 40
0.0
 40
0.0
 40
0.0
 40
0.3333333333333333
 40
0.3333333333333333
 40
0.3333333333333333
 40
0.3333333333333333
 40
0.6666666666666666
 40
0.6666666666666666
 40
0.6666666666666666
 40
0.6666666666666666
 40
1.0
 40
1.0
 40
1.0
 40
1.0
 10
-1.9581900000000001
 20
1.3253100000000002
 30
0.0
 10
-1.9581900000000001
 20
1.3253100000000002
 30
0.0
 10
-1.9327900000000002
 20
1.32277
 30
0.0
 10
-1.9327900000000002
 20
1.32277
 30
0.0
 10
-1.9327900000000002
 20
1.32277
 30
0.0
 10
-1.8743700000000001
 20
1.0941700000000001
 30
0.0
 10
-1.9124700000000001
 20
0.8401700000000001
 30
0.0
 10
-1.9861300000000002
 20
0.6318900000000001
 30
0.0
 10
-1.9861300000000002
 20
0.6318900000000001
 30
0.0
 10
-1.9861300000000002
 20
0.6318900000000001
 30
0.0
 10
-1.9581900000000001
 20
1.3253100000000002
 30
0.0
 10
-1.9581900000000001
 20
1.3253100000000002
 30
0.0
  0
SPLINE
  5
5D
100
AcDbEntity
  8
Ebene 1
 62
     7
100
AcDbSpline
210
0.0
220
0.0
230
1.0
 70
     1
 71
     3
 72
    12
 73
     8
 74
     0
 42
0.0000000001
 43
0.0000000001
 40
0.0
 40
0.0
 40
0.0
 40
0.0
 40
0.5
 40
0.5
 40
0.5
 40
0.5
 40
1.0
 40
1.0
 40
1.0
 40
1.0
 10
-2.1156700000000002
 20
1.2516500000000002
 30
0.0
 10
-2.0623300000000002
 20
1.2440300000000002
 30
0.0
 10
-2.0851900000000003
 20
1.1297300000000001
 30
0.0
 10
-2.11313
 20
1.11195
 30
0.0
 10
-2.11313
 20
1.11195
 30
0.0
 10
-2.11313
 20
1.11195
 30
0.0
 10
-2.1156700000000002
 20
1.2516500000000002
 30
0.0
 10
-2.1156700000000002
 20
1.2516500000000002
 30
0.0
  0
SPLINE
  5
5E
100
AcDbEntity
  8
Ebene 1
 62
     7
100
AcDbSpline
210
0.0
220
0.0
230
1.0
 70
     1
 71
     3
 72
    16
 73
    12
 74
     0
 42
0.0000000001
 43
0.0000000001
 40
0.0
 40
0.0
 40
0.0
 40
0.0
 40
0.3333333333333333
 40
0.3333333333333333
 40
0.3333333333333333
 40
0.3333333333333333
 40
0.6666666666666666
 40
0.6666666666666666
 40
0.6666666666666666
 40
0.6666666666666666
 40
1.0
 40
1.0
 40
1.0
 40
1.0
 10
0.277
 20
1.2516500000000002
 30
0.0
 10
0.3557400000000001
 20
1.27197
 30
0.0
 10
0.42432
 20
1.2237100000000001
 30
0.0
 10
0.4497200000000001
 20
1.15259
 30
0.0
 10
0.4497200000000001
 20
1.15259
 30
0.0
 10
0.404
 20
1.0941700000000001
 30
0.0
 10
0.33034
 20
1.0586100000000001
 30
0.0
 10
0.2617600000000001
 20
1.0357500000000002
 30
0.0
 10
0.2617600000000001
 20
1.0357500000000002
 30
0.0
 10
0.24652
 20
1.0992500000000001
 30
0.0
 10
0.16778
 20
1.2414900000000002
 30
0.0
 10
0.277
 20
1.2516500000000002
 30
0.0
  0
SPLINE
  5
5F
100
AcDbEntity
  8
Ebene 1
 62
     7
100
AcDbSpline
210
0.0
220
0.0
230
1.0
 70
     1
 71
     3
 72
    12
 73
     8
 74
     0
 42
0.0000000001
 43
0.0000000001
 40
0.0
 40
0.0
 40
0.0
 40
0.0
 40
0.5
 40
0.5
 40
0.5
 40
0.5
 40
1.0
 40
1.0
 40
1.0
 40
1.0
 10
0.46496
 20
1.23895
 30
0.0
 10
0.46496
 20
1.23895
 30
0.0
 10
0.6656200000000001
 20
1.2237100000000001
 30
0.0
 10
0.6656200000000001
 20
1.2237100000000001
 30
0.0
 10
0.6656200000000001
 20
1.2237100000000001
 30
0.0
 10
0.61482
 20
1.1856100000000001
 30
0.0
 10
0.4395600000000001
 20
1.1221100000000002
 30
0.0
 10
0.46496
 20
1.23895
 30
0.0
  0
SPLINE
  5
60
100
AcDbEntity
  8
Ebene 1
100
AcDbSpline
210
0.0
220
0.0
230
1.0
 70
     1
 71
     3
 72
    56
 73
    52
 74
     0
 42
0.0000000001
 43
0.0000000001
 40
0.0
 40
0.0
 40
0.0
 40
0.0
 40
0.0769230769230769
 40
0.0769230769230769
 40
0.0769230769230769
 40
0.0769230769230769
 40
0.1538461538461539
 40
0.1538461538461539
 40
0.1538461538461539
 40
0.1538461538461539
 40
0.2307692307692308
 40
0.2307692307692308
 40
0.2307692307692308
 40
0.2307692307692308
 40
0.3076923076923077
 40
0.3076923076923077
 40
0.3076923076923077
 40
0.3076923076923077
 40
0.3846153846153846
 40
0.3846153846153846
 40
0.3846153846153846
 40
0.3846153846153846
 40
0.4615384615384616
 40
0.4615384615384616
 40
0.4615384615384616
 40
0.4615384615384616
 40
0.5384615384615386
 40
0.5384615384615386
 40
0.5384615384615386
 40
0.5384615384615386
 40
0.6153846153846154
 40
0.6153846153846154
 40
0.6153846153846154
 40
0.6153846153846154
 40
0.6923076923076923
 40
0.6923076923076923
 40
0.6923076923076923
 40
0.6923076923076923
 40
0.7692307692307692
 40
0.7692307692307692
 40
0.7692307692307692
 40
0.7692307692307692
 40
0.846153846153846
 40
0.846153846153846
 40
0.846153846153846
 40
0.846153846153846
 40
0.9230769230769229
 40
0.9230769230769229
 40
0.9230769230769229
 40
0.9230769230769229
 40
1.0
 40
1.0
 40
1.0
 40
1.0
 10
-1.6559300000000001
 20
1.2084700000000002
 30
0.0
 10
-1.58735
 20
0.9874900000000001
 30
0.0
 10
-1.4857500000000001
 20
0.7385700000000001
 30
0.0
 10
-1.3917700000000002
 20
0.5201300000000001
 30
0.0
 10
-1.3917700000000002
 20
0.5201300000000001
 30
0.0
 10
-1.3562100000000001
 20
0.55315
 30
0.0
 10
-1.29779
 20
0.5404500000000001
 30
0.0
 10
-1.25461
 20
0.49981
 30
0.0
 10
-1.25461
 20
0.49981
 30
0.0
 10
-1.25461
 20
0.49981
 30
0.0
 10
-1.2622300000000002
 20
0.37535
 30
0.0
 10
-1.2622300000000002
 20
0.37535
 30
0.0
 10
-1.2622300000000002
 20
0.37535
 30
0.0
 10
-1.0514100000000002
 20
0.27629
 30
0.0
 10
-0.9548900000000001
 20
-0.10978
 30
0.0
 10
-0.66025
 20
0.06801
 30
0.0
 10
-0.66025
 20
0.06801
 30
0.0
 10
-0.59167
 20
0.06547
 30
0.0
 10
-0.52563
 20
0.00959
 30
0.0
 10
-0.4595900000000001
 20
0.06801
 30
0.0
 10
-0.4595900000000001
 20
0.06801
 30
0.0
 10
-0.41387
 20
0.00451
 30
0.0
 10
-0.28433
 20
0.04515
 30
0.0
 10
-0.3122700000000001
 20
-0.07168
 30
0.0
 10
-0.3122700000000001
 20
-0.07168
 30
0.0
 10
-0.4164100000000001
 20
-0.15804
 30
0.0
 10
-0.6297700000000001
 20
-0.2825
 30
0.0
 10
-0.6729500000000001
 20
-0.08692
 30
0.0
 10
-0.6729500000000001
 20
-0.08692
 30
0.0
 10
-0.8304300000000001
 20
-0.22662
 30
0.0
 10
-0.9879100000000001
 20
-0.092
 30
0.0
 10
-1.13015
 20
-0.18344
 30
0.0
 10
-1.13015
 20
-0.18344
 30
0.0
 10
-1.1784100000000002
 20
-0.0158
 30
0.0
 10
-1.2241300000000002
 20
0.05023
 30
0.0
 10
-1.37653
 20
0.02991
 30
0.0
 10
-1.37653
 20
0.02991
 30
0.0
 10
-1.4120900000000001
 20
0.02483
 30
0.0
 10
-1.5797300000000001
 20
-0.07168
 30
0.0
 10
-1.5771900000000001
 20
0.02991
 30
0.0
 10
-1.5771900000000001
 20
0.02991
 30
0.0
 10
-1.5771900000000001
 20
0.02991
 30
0.0
 10
-1.4247900000000002
 20
0.16961
 30
0.0
 10
-1.4247900000000002
 20
0.16961
 30
0.0
 10
-1.4247900000000002
 20
0.16961
 30
0.0
 10
-1.5619500000000002
 20
0.26105
 30
0.0
 10
-1.5924300000000002
 20
0.42615
 30
0.0
 10
-1.71435
 20
0.5023500000000001
 30
0.0
 10
-1.71435
 20
0.5023500000000001
 30
0.0
 10
-1.7118100000000001
 20
0.74365
 30
0.0
 10
-1.7219700000000002
 20
0.9925700000000001
 30
0.0
 10
-1.6559300000000001
 20
1.2084700000000002
 30
0.0
  0
SPLINE
  5
61
100
AcDbEntity
  8
Ebene 1
 62
     7
100
AcDbSpline
210
0.0
220
0.0
230
1.0
 70
     1
 71
     3
 72
    24
 73
    20
 74
     0
 42
0.0000000001
 43
0.0000000001
 40
0.0
 40
0.0
 40
0.0
 40
0.0
 40
0.2
 40
0.2
 40
0.2
 40
0.2
 40
0.4
 40
0.4
 40
0.4
 40
0.4
 40
0.6000000000000001
 40
0.6000000000000001
 40
0.6000000000000001
 40
0.6000000000000001
 40
0.8
 40
0.8
 40
0.8
 40
0.8
 40
1.0
 40
1.0
 40
1.0
 40
1.0
 10
0.7799200000000001
 20
1.19577
 30
0.0
 10
0.80786
 20
1.19323
 30
0.0
 10
0.8459600000000001
 20
1.2059300000000002
 30
0.0
 10
0.8662800000000001
 20
1.1779900000000001
 30
0.0
 10
0.8662800000000001
 20
1.1779900000000001
 30
0.0
 10
0.8764400000000001
 20
0.9290700000000001
 30
0.0
 10
0.8205600000000001
 20
0.6776100000000001
 30
0.0
 10
0.6656200000000001
 20
0.5023500000000001
 30
0.0
 10
0.6656200000000001
 20
0.5023500000000001
 30
0.0
 10
0.63768
 20
0.51759
 30
0.0
 10
0.6097400000000001
 20
0.5480700000000001
 30
0.0
 10
0.5945
 20
0.57601
 30
0.0
 10
0.5945
 20
0.57601
 30
0.0
 10
0.6478400000000001
 20
0.7588900000000001
 30
0.0
 10
0.785
 20
0.9239900000000001
 30
0.0
 10
0.7392800000000001
 20
1.1221100000000002
 30
0.0
 10
0.7392800000000001
 20
1.1221100000000002
 30
0.0
 10
0.7519800000000001
 20
1.15259
 30
0.0
 10
0.7545200000000001
 20
1.1805300000000001
 30
0.0
 10
0.7799200000000001
 20
1.19577
 30
0.0
  0
SPLINE
  5
62
100
AcDbEntity
  8
Ebene 1
 62
     7
100
AcDbSpline
210
0.0
220
0.0
230
1.0
 70
     1
 71
     3
 72
    20
 73
    16
 74
     0
 42
0.0000000001
 43
0.0000000001
 40
0.0
 40
0.0
 40
0.0
 40
0.0
 40
0.25
 40
0.25
 40
0.25
 40
0.25
 40
0.5
 40
0.5
 40
0.5
 40
0.5
 40
0.75
 40
0.75
 40
0.75
 40
0.75
 40
1.0
 40
1.0
 40
1.0
 40
1.0
 10
1.5597000000000001
 20
1.15259
 30
0.0
 10
1.5597000000000001
 20
1.15259
 30
0.0
 10
1.8035400000000001
 20
1.1195700000000002
 30
0.0
 10
1.8035400000000001
 20
1.1195700000000002
 30
0.0
 10
1.8035400000000001
 20
1.1195700000000002
 30
0.0
 10
1.8416400000000002
 20
0.9646300000000001
 30
0.0
 10
1.8594200000000001
 20
0.7995300000000001
 30
0.0
 10
1.8594200000000001
 20
0.63697
 30
0.0
 10
1.8594200000000001
 20
0.63697
 30
0.0
 10
1.8594200000000001
 20
0.63697
 30
0.0
 10
1.4784200000000001
 20
0.7080900000000001
 30
0.0
 10
1.4784200000000001
 20
0.7080900000000001
 30
0.0
 10
1.4784200000000001
 20
0.7080900000000001
 30
0.0
 10
1.4733400000000001
 20
0.8604900000000001
 30
0.0
 10
1.4682600000000001
 20
1.0103500000000001
 30
0.0
 10
1.5597000000000001
 20
1.15259
 30
0.0
  0
SPLINE
  5
63
100
AcDbEntity
  8
Ebene 1
 62
     7
100
AcDbSpline
210
0.0
220
0.0
230
1.0
 70
     1
 71
     3
 72
    20
 73
    16
 74
     0
 42
0.0000000001
 43
0.0000000001
 40
0.0
 40
0.0
 40
0.0
 40
0.0
 40
0.25
 40
0.25
 40
0.25
 40
0.25
 40
0.5
 40
0.5
 40
0.5
 40
0.5
 40
0.75
 40
0.75
 40
0.75
 40
0.75
 40
1.0
 40
1.0
 40
1.0
 40
1.0
 10
0.6224400000000001
 20
1.1373500000000001
 30
0.0
 10
0.6224400000000001
 20
1.1373500000000001
 30
0.0
 10
0.6910200000000001
 20
1.1348100000000001
 30
0.0
 10
0.6910200000000001
 20
1.1348100000000001
 30
0.0
 10
0.6910200000000001
 20
1.1348100000000001
 30
0.0
 10
0.7392800000000001
 20
0.9671700000000001
 30
0.0
 10
0.63514
 20
0.8020700000000001
 30
0.0
 10
0.5640200000000001
 20
0.66237
 30
0.0
 10
0.5640200000000001
 20
0.66237
 30
0.0
 10
0.5411600000000001
 20
0.78683
 30
0.0
 10
0.6097400000000001
 20
0.9697100000000001
 30
0.0
 10
0.5411600000000001
 20
1.0916300000000001
 30
0.0
 10
0.5411600000000001
 20
1.0916300000000001
 30
0.0
 10
0.5411600000000001
 20
1.0916300000000001
 30
0.0
 10
0.6224400000000001
 20
1.1373500000000001
 30
0.0
 10
0.6224400000000001
 20
1.1373500000000001
 30
0.0
  0
SPLINE
  5
64
100
AcDbEntity
  8
Ebene 1
 62
     7
100
AcDbSpline
210
0.0
220
0.0
230
1.0
 70
     1
 71
     3
 72
    16
 73
    12
 74
     0
 42
0.0000000001
 43
0.0000000001
 40
0.0
 40
0.0
 40
0.0
 40
0.0
 40
0.3333333333333333
 40
0.3333333333333333
 40
0.3333333333333333
 40
0.3333333333333333
 40
0.6666666666666666
 40
0.6666666666666666
 40
0.6666666666666666
 40
0.6666666666666666
 40
1.0
 40
1.0
 40
1.0
 40
1.0
 10
3.6374200000000001
 20
1.1221100000000002
 30
0.0
 10
3.6475800000000005
 20
1.1221100000000002
 30
0.0
 10
3.6704400000000001
 20
1.1195700000000002
 30
0.0
 10
3.6679000000000004
 20
1.1373500000000001
 30
0.0
 10
3.6679000000000004
 20
1.1373500000000001
 30
0.0
 10
3.7644200000000003
 20
1.1170300000000002
 30
0.0
 10
3.7517200000000002
 20
0.95447
 30
0.0
 10
3.7517200000000002
 20
0.8681100000000001
 30
0.0
 10
3.7517200000000002
 20
0.8681100000000001
 30
0.0
 10
3.6145600000000004
 20
0.8579500000000001
 30
0.0
 10
3.4647000000000001
 20
1.0535300000000001
 30
0.0
 10
3.6374200000000001
 20
1.1221100000000002
 30
0.0
  0
SPLINE
  5
65
100
AcDbEntity
  8
Ebene 1
 62
     7
100
AcDbSpline
210
0.0
220
0.0
230
1.0
 70
     1
 71
     3
 72
    12
 73
     8
 74
     0
 42
0.0000000001
 43
0.0000000001
 40
0.0
 40
0.0
 40
0.0
 40
0.0
 40
0.5
 40
0.5
 40
0.5
 40
0.5
 40
1.0
 40
1.0
 40
1.0
 40
1.0
 10
3.8253800000000004
 20
1.1221100000000002
 30
0.0
 10
3.8888800000000003
 20
1.0763900000000002
 30
0.0
 10
3.9117400000000004
 20
0.9316100000000001
 30
0.0
 10
3.8558600000000003
 20
0.8782700000000001
 30
0.0
 10
3.8558600000000003
 20
0.8782700000000001
 30
0.0
 10
3.7745800000000003
 20
0.9062100000000001
 30
0.0
 10
3.8152200000000005
 20
1.0560700000000001
 30
0.0
 10
3.8253800000000004
 20
1.1221100000000002
 30
0.0
  0
SPLINE
  5
66
100
AcDbEntity
  8
Ebene 1
 62
     7
100
AcDbSpline
210
0.0
220
0.0
230
1.0
 70
     1
 71
     3
 72
    16
 73
    12
 74
     0
 42
0.0000000001
 43
0.0000000001
 40
0.0
 40
0.0
 40
0.0
 40
0.0
 40
0.3333333333333333
 40
0.3333333333333333
 40
0.3333333333333333
 40
0.3333333333333333
 40
0.6666666666666666
 40
0.6666666666666666
 40
0.6666666666666666
 40
0.6666666666666666
 40
1.0
 40
1.0
 40
1.0
 40
1.0
 10
-0.84567
 20
1.10687
 30
0.0
 10
-0.82789
 20
1.10941
 30
0.0
 10
-0.80503
 20
1.10941
 30
0.0
 10
-0.7923300000000001
 20
1.0916300000000001
 30
0.0
 10
-0.7923300000000001
 20
1.0916300000000001
 30
0.0
 10
-0.82281
 20
1.0103500000000001
 30
0.0
 10
-0.7694700000000001
 20
0.8808100000000001
 30
0.0
 10
-0.8329700000000001
 20
0.8198500000000001
 30
0.0
 10
-0.8329700000000001
 20
0.8198500000000001
 30
0.0
 10
-0.9142500000000001
 20
0.8782700000000001
 30
0.0
 10
-0.9142500000000001
 20
1.0382900000000002
 30
0.0
 10
-0.84567
 20
1.10687
 30
0.0
  0
SPLINE
  5
67
100
AcDbEntity
  8
Ebene 1
 62
     7
100
AcDbSpline
210
0.0
220
0.0
230
1.0
 70
     1
 71
     3
 72
    20
 73
    16
 74
     0
 42
0.0000000001
 43
0.0000000001
 40
0.0
 40
0.0
 40
0.0
 40
0.0
 40
0.25
 40
0.25
 40
0.25
 40
0.25
 40
0.5
 40
0.5
 40
0.5
 40
0.5
 40
0.75
 40
0.75
 40
0.75
 40
0.75
 40
1.0
 40
1.0
 40
1.0
 40
1.0
 10
-1.00569
 20
1.0789300000000002
 30
0.0
 10
-0.99553
 20
1.0789300000000002
 30
0.0
 10
-0.97267
 20
1.0814700000000002
 30
0.0
 10
-0.9777500000000001
 20
1.06623
 30
0.0
 10
-0.9777500000000001
 20
1.06623
 30
0.0
 10
-0.99299
 20
0.9595500000000001
 30
0.0
 10
-0.9599700000000001
 20
0.8655700000000001
 30
0.0
 10
-0.8913900000000001
 20
0.7919100000000001
 30
0.0
 10
-0.8913900000000001
 20
0.7919100000000001
 30
0.0
 10
-0.8913900000000001
 20
0.7919100000000001
 30
0.0
 10
-1.0158500000000001
 20
0.68015
 30
0.0
 10
-1.0158500000000001
 20
0.68015
 30
0.0
 10
-1.0158500000000001
 20
0.68015
 30
0.0
 10
-1.0945900000000002
 20
0.7944500000000001
 30
0.0
 10
-1.0234700000000001
 20
0.95701
 30
0.0
 10
-1.00569
 20
1.0789300000000002
 30
0.0
  0
SPLINE
  5
68
100
AcDbEntity
  8
Ebene 1
 62
     7
100
AcDbSpline
210
0.0
220
0.0
230
1.0
 70
     1
 71
     3
 72
    32
 73
    28
 74
     0
 42
0.0000000001
 43
0.0000000001
 40
0.0
 40
0.0
 40
0.0
 40
0.0
 40
0.1428571428571429
 40
0.1428571428571429
 40
0.1428571428571429
 40
0.1428571428571429
 40
0.2857142857142857
 40
0.2857142857142857
 40
0.2857142857142857
 40
0.2857142857142857
 40
0.4285714285714286
 40
0.4285714285714286
 40
0.4285714285714286
 40
0.4285714285714286
 40
0.5714285714285714
 40
0.5714285714285714
 40
0.5714285714285714
 40
0.5714285714285714
 40
0.7142857142857142
 40
0.7142857142857142
 40
0.7142857142857142
 40
0.7142857142857142
 40
0.857142857142857
 40
0.857142857142857
 40
0.857142857142857
 40
0.857142857142857
 40
1.0
 40
1.0
 40
1.0
 40
1.0
 10
-2.1309100000000001
 20
1.06623
 30
0.0
 10
-2.0343900000000001
 20
0.9062100000000001
 30
0.0
 10
-2.1817100000000003
 20
0.6877700000000001
 30
0.0
 10
-2.1309100000000001
 20
0.5023500000000001
 30
0.0
 10
-2.1309100000000001
 20
0.5023500000000001
 30
0.0
 10
-2.1334500000000003
 20
0.48711
 30
0.0
 10
-2.14615
 20
0.47695
 30
0.0
 10
-2.1588500000000002
 20
0.47187
 30
0.0
 10
-2.1588500000000002
 20
0.47187
 30
0.0
 10
-2.2401300000000002
 20
0.51759
 30
0.0
 10
-2.3315700000000001
 20
0.5429900000000001
 30
0.0
 10
-2.40015
 20
0.6090300000000001
 30
0.0
 10
-2.40015
 20
0.6090300000000001
 30
0.0
 10
-2.3010900000000003
 20
0.63951
 30
0.0
 10
-2.4636500000000003
 20
0.8173100000000001
 30
0.0
 10
-2.3036300000000001
 20
0.8350900000000001
 30
0.0
 10
-2.3036300000000001
 20
0.8350900000000001
 30
0.0
 10
-2.2350500000000002
 20
0.8173100000000001
 30
0.0
 10
-2.3214100000000002
 20
0.68523
 30
0.0
 10
-2.23251
 20
0.70555
 30
0.0
 10
-2.23251
 20
0.70555
 30
0.0
 10
-2.1918700000000002
 20
0.70555
 30
0.0
 10
-2.1664700000000003
 20
0.74873
 30
0.0
 10
-2.14615
 20
0.7766700000000001
 30
0.0
 10
-2.14615
 20
0.7766700000000001
 30
0.0
 10
-2.15123
 20
0.8808100000000001
 30
0.0
 10
-2.1969500000000002
 20
0.9722500000000001
 30
0.0
 10
-2.1309100000000001
 20
1.06623
 30
0.0
  0
SPLINE
  5
69
100
AcDbEntity
  8
Ebene 1
 62
     7
100
AcDbSpline
210
0.0
220
0.0
230
1.0
 70
     1
 71
     3
 72
    20
 73
    16
 74
     0
 42
0.0000000001
 43
0.0000000001
 40
0.0
 40
0.0
 40
0.0
 40
0.0
 40
0.25
 40
0.25
 40
0.25
 40
0.25
 40
0.5
 40
0.5
 40
0.5
 40
0.5
 40
0.75
 40
0.75
 40
0.75
 40
0.75
 40
1.0
 40
1.0
 40
1.0
 40
1.0
 10
0.43448
 20
1.06623
 30
0.0
 10
0.4522600000000001
 20
1.06877
 30
0.0
 10
0.46496
 20
1.0586100000000001
 30
0.0
 10
0.47512
 20
1.0484500000000001
 30
0.0
 10
0.47512
 20
1.0484500000000001
 30
0.0
 10
0.4827400000000001
 20
0.9189100000000001
 30
0.0
 10
0.52846
 20
0.7766700000000001
 30
0.0
 10
0.49036
 20
0.6496700000000001
 30
0.0
 10
0.49036
 20
0.6496700000000001
 30
0.0
 10
0.40146
 20
0.74365
 30
0.0
 10
0.22112
 20
0.7385700000000001
 30
0.0
 10
0.19064
 20
0.89097
 30
0.0
 10
0.19064
 20
0.89097
 30
0.0
 10
0.19064
 20
0.89097
 30
0.0
 10
0.43448
 20
1.06623
 30
0.0
 10
0.43448
 20
1.06623
 30
0.0
  0
SPLINE
  5
6A
100
AcDbEntity
  8
Ebene 1
 62
     7
100
AcDbSpline
210
0.0
220
0.0
230
1.0
 70
     1
 71
     3
 72
    16
 73
    12
 74
     0
 42
0.0000000001
 43
0.0000000001
 40
0.0
 40
0.0
 40
0.0
 40
0.0
 40
0.3333333333333333
 40
0.3333333333333333
 40
0.3333333333333333
 40
0.3333333333333333
 40
0.6666666666666666
 40
0.6666666666666666
 40
0.6666666666666666
 40
0.6666666666666666
 40
1.0
 40
1.0
 40
1.0
 40
1.0
 10
3.3631000000000002
 20
1.06623
 30
0.0
 10
3.4697800000000001
 20
1.0789300000000002
 30
0.0
 10
3.3554800000000005
 20
0.9392300000000001
 30
0.0
 10
3.4697800000000001
 20
0.95447
 30
0.0
 10
3.4697800000000001
 20
0.95447
 30
0.0
 10
3.4774000000000003
 20
0.9468500000000001
 30
0.0
 10
3.4850200000000005
 20
0.93415
 30
0.0
 10
3.4774000000000003
 20
0.9239900000000001
 30
0.0
 10
3.4774000000000003
 20
0.9239900000000001
 30
0.0
 10
3.3681800000000002
 20
0.85033
 30
0.0
 10
3.3351600000000001
 20
0.9824100000000001
 30
0.0
 10
3.3631000000000002
 20
1.06623
 30
0.0
  0
SPLINE
  5
6B
100
AcDbEntity
  8
Ebene 1
 62
     7
100
AcDbSpline
210
0.0
220
0.0
230
1.0
 70
     1
 71
     3
 72
    20
 73
    16
 74
     0
 42
0.0000000001
 43
0.0000000001
 40
0.0
 40
0.0
 40
0.0
 40
0.0
 40
0.25
 40
0.25
 40
0.25
 40
0.25
 40
0.5
 40
0.5
 40
0.5
 40
0.5
 40
0.75
 40
0.75
 40
0.75
 40
0.75
 40
1.0
 40
1.0
 40
1.0
 40
1.0
 10
2.6138000000000003
 20
1.02051
 30
0.0
 10
2.7458800000000001
 20
1.02813
 30
0.0
 10
2.8805000000000001
 20
1.02813
 30
0.0
 10
2.9846400000000002
 20
0.9468500000000001
 30
0.0
 10
2.9846400000000002
 20
0.9468500000000001
 30
0.0
 10
3.0227400000000002
 20
0.9290700000000001
 30
0.0
 10
3.0608400000000002
 20
0.89351
 30
0.0
 10
3.0735400000000004
 20
0.85287
 30
0.0
 10
3.0735400000000004
 20
0.85287
 30
0.0
 10
2.9033600000000002
 20
0.8579500000000001
 30
0.0
 10
2.7103200000000003
 20
1.02559
 30
0.0
 10
2.5325200000000003
 20
0.9697100000000001
 30
0.0
 10
2.5325200000000003
 20
0.9697100000000001
 30
0.0
 10
2.5325200000000003
 20
0.9697100000000001
 30
0.0
 10
2.6138000000000003
 20
1.02051
 30
0.0
 10
2.6138000000000003
 20
1.02051
 30
0.0
  0
SPLINE
  5
6C
100
AcDbEntity
  8
Ebene 1
 62
     7
100
AcDbSpline
210
0.0
220
0.0
230
1.0
 70
     1
 71
     3
 72
    24
 73
    20
 74
     0
 42
0.0000000001
 43
0.0000000001
 40
0.0
 40
0.0
 40
0.0
 40
0.0
 40
0.2
 40
0.2
 40
0.2
 40
0.2
 40
0.4
 40
0.4
 40
0.4
 40
0.4
 40
0.6000000000000001
 40
0.6000000000000001
 40
0.6000000000000001
 40
0.6000000000000001
 40
0.8
 40
0.8
 40
0.8
 40
0.8
 40
1.0
 40
1.0
 40
1.0
 40
1.0
 10
-3.5736300000000001
 20
0.9646300000000001
 30
0.0
 10
-3.5736300000000001
 20
0.9646300000000001
 30
0.0
 10
-3.2535900000000004
 20
0.7385700000000001
 30
0.0
 10
-3.2535900000000004
 20
0.7385700000000001
 30
0.0
 10
-3.2535900000000004
 20
0.7385700000000001
 30
0.0
 10
-3.2535900000000004
 20
0.7385700000000001
 30
0.0
 10
-3.2154900000000004
 20
0.7385700000000001
 30
0.0
 10
-3.2154900000000004
 20
0.7385700000000001
 30
0.0
 10
-3.2154900000000004
 20
0.7385700000000001
 30
0.0
 10
-3.2154900000000004
 20
0.7385700000000001
 30
0.0
 10
-3.2231100000000001
 20
0.7741300000000001
 30
0.0
 10
-3.2231100000000001
 20
0.7741300000000001
 30
0.0
 10
-3.2231100000000001
 20
0.7741300000000001
 30
0.0
 10
-3.1088100000000001
 20
0.76905
 30
0.0
 10
-3.0834100000000002
 20
0.6318900000000001
 30
0.0
 10
-3.1443700000000003
 20
0.55061
 30
0.0
 10
-3.1443700000000003
 20
0.55061
 30
0.0
 10
-3.2942300000000002
 20
0.6496700000000001
 30
0.0
 10
-3.4440900000000001
 20
0.8325500000000001
 30
0.0
 10
-3.5736300000000001
 20
0.9646300000000001
 30
0.0
  0
SPLINE
  5
6D
100
AcDbEntity
  8
Ebene 1
 62
     7
100
AcDbSpline
210
0.0
220
0.0
230
1.0
 70
     1
 71
     3
 72
    20
 73
    16
 74
     0
 42
0.0000000001
 43
0.0000000001
 40
0.0
 40
0.0
 40
0.0
 40
0.0
 40
0.25
 40
0.25
 40
0.25
 40
0.25
 40
0.5
 40
0.5
 40
0.5
 40
0.5
 40
0.75
 40
0.75
 40
0.75
 40
0.75
 40
1.0
 40
1.0
 40
1.0
 40
1.0
 10
2.4995000000000003
 20
0.9062100000000001
 30
0.0
 10
2.5426800000000003
 20
0.9011300000000001
 30
0.0
 10
2.5909400000000002
 20
0.9189100000000001
 30
0.0
 10
2.6290400000000003
 20
0.89097
 30
0.0
 10
2.6290400000000003
 20
0.89097
 30
0.0
 10
3.0075000000000003
 20
0.9874900000000001
 30
0.0
 10
3.2589600000000001
 20
0.4642500000000001
 30
0.0
 10
2.8982800000000002
 20
0.24581
 30
0.0
 10
2.8982800000000002
 20
0.24581
 30
0.0
 10
2.6950800000000004
 20
0.11881
 30
0.0
 10
2.42076
 20
0.18739
 30
0.0
 10
2.3166200000000003
 20
0.40583
 30
0.0
 10
2.3166200000000003
 20
0.40583
 30
0.0
 10
2.2759800000000001
 20
0.59633
 30
0.0
 10
2.3242400000000001
 20
0.7969900000000001
 30
0.0
 10
2.4995000000000003
 20
0.9062100000000001
 30
0.0
  0
SPLINE
  5
6E
100
AcDbEntity
  8
Ebene 1
 62
     7
100
AcDbSpline
210
0.0
220
0.0
230
1.0
 70
     1
 71
     3
 72
    20
 73
    16
 74
     0
 42
0.0000000001
 43
0.0000000001
 40
0.0
 40
0.0
 40
0.0
 40
0.0
 40
0.25
 40
0.25
 40
0.25
 40
0.25
 40
0.5
 40
0.5
 40
0.5
 40
0.5
 40
0.75
 40
0.75
 40
0.75
 40
0.75
 40
1.0
 40
1.0
 40
1.0
 40
1.0
 10
-2.5068300000000003
 20
0.8630300000000001
 30
0.0
 10
-2.40523
 20
0.8427100000000001
 30
0.0
 10
-2.5169900000000003
 20
0.68523
 30
0.0
 10
-2.4230100000000001
 20
0.6445900000000001
 30
0.0
 10
-2.4230100000000001
 20
0.6445900000000001
 30
0.0
 10
-2.4230100000000001
 20
0.6445900000000001
 30
0.0
 10
-2.4230100000000001
 20
0.62173
 30
0.0
 10
-2.4230100000000001
 20
0.62173
 30
0.0
 10
-2.4230100000000001
 20
0.62173
 30
0.0
 10
-2.4230100000000001
 20
0.62173
 30
0.0
 10
-2.5754100000000002
 20
0.72333
 30
0.0
 10
-2.5754100000000002
 20
0.72333
 30
0.0
 10
-2.5754100000000002
 20
0.72333
 30
0.0
 10
-2.5881100000000004
 20
0.7817500000000001
 30
0.0
 10
-2.5373100000000002
 20
0.8223900000000001
 30
0.0
 10
-2.5068300000000003
 20
0.8630300000000001
 30
0.0
  0
SPLINE
  5
6F
100
AcDbEntity
  8
Ebene 1
 62
     7
100
AcDbSpline
210
0.0
220
0.0
230
1.0
 70
     1
 71
     3
 72
    24
 73
    20
 74
     0
 42
0.0000000001
 43
0.0000000001
 40
0.0
 40
0.0
 40
0.0
 40
0.0
 40
0.2
 40
0.2
 40
0.2
 40
0.2
 40
0.4
 40
0.4
 40
0.4
 40
0.4
 40
0.6000000000000001
 40
0.6000000000000001
 40
0.6000000000000001
 40
0.6000000000000001
 40
0.8
 40
0.8
 40
0.8
 40
0.8
 40
1.0
 40
1.0
 40
1.0
 40
1.0
 10
3.8558600000000003
 20
0.8630300000000001
 30
0.0
 10
3.9447600000000005
 20
0.8173100000000001
 30
0.0
 10
3.8787200000000004
 20
0.6547500000000001
 30
0.0
 10
3.8939600000000003
 20
0.5633100000000001
 30
0.0
 10
3.8939600000000003
 20
0.5633100000000001
 30
0.0
 10
3.8380800000000002
 20
0.53029
 30
0.0
 10
3.7466400000000002
 20
0.53791
 30
0.0
 10
3.6856800000000005
 20
0.5633100000000001
 30
0.0
 10
3.6856800000000005
 20
0.5633100000000001
 30
0.0
 10
3.6450400000000003
 20
0.6318900000000001
 30
0.0
 10
3.6577400000000004
 20
0.7385700000000001
 30
0.0
 10
3.7212400000000003
 20
0.78683
 30
0.0
 10
3.7212400000000003
 20
0.78683
 30
0.0
 10
3.6831400000000003
 20
0.7614300000000001
 30
0.0
 10
3.6018600000000003
 20
0.7944500000000001
 30
0.0
 10
3.6577400000000004
 20
0.8452500000000001
 30
0.0
 10
3.6577400000000004
 20
0.8452500000000001
 30
0.0
 10
3.7136200000000001
 20
0.8325500000000001
 30
0.0
 10
3.8101400000000005
 20
0.8147700000000001
 30
0.0
 10
3.8558600000000003
 20
0.8630300000000001
 30
0.0
  0
SPLINE
  5
70
100
AcDbEntity
  8
Ebene 1
 62
     7
100
AcDbSpline
210
0.0
220
0.0
230
1.0
 70
     1
 71
     3
 72
    12
 73
     8
 74
     0
 42
0.0000000001
 43
0.0000000001
 40
0.0
 40
0.0
 40
0.0
 40
0.0
 40
0.5
 40
0.5
 40
0.5
 40
0.5
 40
1.0
 40
1.0
 40
1.0
 40
1.0
 10
3.4215200000000001
 20
0.8350900000000001
 30
0.0
 10
3.4723200000000003
 20
0.8376300000000001
 30
0.0
 10
3.5409000000000002
 20
0.8452500000000001
 30
0.0
 10
3.5485200000000003
 20
0.7817500000000001
 30
0.0
 10
3.5485200000000003
 20
0.7817500000000001
 30
0.0
 10
3.5155000000000003
 20
0.7385700000000001
 30
0.0
 10
3.3732600000000001
 20
0.76905
 30
0.0
 10
3.4215200000000001
 20
0.8350900000000001
 30
0.0
  0
SPLINE
  5
71
100
AcDbEntity
  8
Ebene 1
 62
     7
100
AcDbSpline
210
0.0
220
0.0
230
1.0
 70
     1
 71
     3
 72
    16
 73
    12
 74
     0
 42
0.0000000001
 43
0.0000000001
 40
0.0
 40
0.0
 40
0.0
 40
0.0
 40
0.3333333333333333
 40
0.3333333333333333
 40
0.3333333333333333
 40
0.3333333333333333
 40
0.6666666666666666
 40
0.6666666666666666
 40
0.6666666666666666
 40
0.6666666666666666
 40
1.0
 40
1.0
 40
1.0
 40
1.0
 10
-0.8177300000000001
 20
0.7766700000000001
 30
0.0
 10
-0.6678700000000001
 20
0.7131700000000001
 30
0.0
 10
-0.63739
 20
0.5277500000000001
 30
0.0
 10
-0.7745500000000001
 20
0.4312300000000001
 30
0.0
 10
-0.7745500000000001
 20
0.4312300000000001
 30
0.0
 10
-0.8913900000000001
 20
0.43377
 30
0.0
 10
-1.00315
 20
0.50997
 30
0.0
 10
-1.0488700000000002
 20
0.61665
 30
0.0
 10
-1.0488700000000002
 20
0.61665
 30
0.0
 10
-0.9421900000000001
 20
0.6471300000000001
 30
0.0
 10
-0.8736100000000001
 20
0.72079
 30
0.0
 10
-0.8177300000000001
 20
0.7766700000000001
 30
0.0
  0
SPLINE
  5
72
100
AcDbEntity
  8
Ebene 1
 62
     7
100
AcDbSpline
210
0.0
220
0.0
230
1.0
 70
     1
 71
     3
 72
    16
 73
    12
 74
     0
 42
0.0000000001
 43
0.0000000001
 40
0.0
 40
0.0
 40
0.0
 40
0.0
 40
0.3333333333333333
 40
0.3333333333333333
 40
0.3333333333333333
 40
0.3333333333333333
 40
0.6666666666666666
 40
0.6666666666666666
 40
0.6666666666666666
 40
0.6666666666666666
 40
1.0
 40
1.0
 40
1.0
 40
1.0
 10
0.16016
 20
0.7766700000000001
 30
0.0
 10
0.28208
 20
0.68269
 30
0.0
 10
0.55386
 20
0.61665
 30
0.0
 10
0.4167
 20
0.4210700000000001
 30
0.0
 10
0.4167
 20
0.4210700000000001
 30
0.0
 10
0.4167
 20
0.4210700000000001
 30
0.0
 10
0.3532
 20
0.4210700000000001
 30
0.0
 10
0.3532
 20
0.4210700000000001
 30
0.0
 10
0.3532
 20
0.4210700000000001
 30
0.0
 10
0.28208
 20
0.53283
 30
0.0
 10
0.12206
 20
0.63951
 30
0.0
 10
0.16016
 20
0.7766700000000001
 30
0.0
  0
SPLINE
  5
73
100
AcDbEntity
  8
Ebene 1
 62
     7
100
AcDbSpline
210
0.0
220
0.0
230
1.0
 70
     1
 71
     3
 72
    16
 73
    12
 74
     0
 42
0.0000000001
 43
0.0000000001
 40
0.0
 40
0.0
 40
0.0
 40
0.0
 40
0.3333333333333333
 40
0.3333333333333333
 40
0.3333333333333333
 40
0.3333333333333333
 40
0.6666666666666666
 40
0.6666666666666666
 40
0.6666666666666666
 40
0.6666666666666666
 40
1.0
 40
1.0
 40
1.0
 40
1.0
 10
3.4520000000000004
 20
0.7182500000000001
 30
0.0
 10
3.6044000000000005
 20
0.7792100000000001
 30
0.0
 10
3.6348800000000003
 20
0.51759
 30
0.0
 10
3.5078800000000001
 20
0.48711
 30
0.0
 10
3.5078800000000001
 20
0.48711
 30
0.0
 10
3.3961200000000002
 20
0.48203
 30
0.0
 10
3.4850200000000005
 20
0.6344300000000001
 30
0.0
 10
3.4367600000000005
 20
0.6903100000000001
 30
0.0
 10
3.4367600000000005
 20
0.6903100000000001
 30
0.0
 10
3.4367600000000005
 20
0.6903100000000001
 30
0.0
 10
3.4520000000000004
 20
0.7182500000000001
 30
0.0
 10
3.4520000000000004
 20
0.7182500000000001
 30
0.0
  0
SPLINE
  5
74
100
AcDbEntity
  8
Ebene 1
 62
     7
100
AcDbSpline
210
0.0
220
0.0
230
1.0
 70
     1
 71
     3
 72
    36
 73
    32
 74
     0
 42
0.0000000001
 43
0.0000000001
 40
0.0
 40
0.0
 40
0.0
 40
0.0
 40
0.125
 40
0.125
 40
0.125
 40
0.125
 40
0.25
 40
0.25
 40
0.25
 40
0.25
 40
0.375
 40
0.375
 40
0.375
 40
0.375
 40
0.5
 40
0.5
 40
0.5
 40
0.5
 40
0.625
 40
0.625
 40
0.625
 40
0.625
 40
0.75
 40
0.75
 40
0.75
 40
0.75
 40
0.875
 40
0.875
 40
0.875
 40
0.875
 40
1.0
 40
1.0
 40
1.0
 40
1.0
 10
0.0738
 20
0.6471300000000001
 30
0.0
 10
0.0738
 20
0.6471300000000001
 30
0.0
 10
0.23128
 20
0.37535
 30
0.0
 10
0.23128
 20
0.37535
 30
0.0
 10
0.23128
 20
0.37535
 30
0.0
 10
-0.01001
 20
0.33979
 30
0.0
 10
-0.27417
 20
0.41853
 30
0.0
 10
-0.5154700000000001
 20
0.3575700000000001
 30
0.0
 10
-0.5154700000000001
 20
0.3575700000000001
 30
0.0
 10
-0.5154700000000001
 20
0.3575700000000001
 30
0.0
 10
-0.6881900000000001
 20
0.45917
 30
0.0
 10
-0.6881900000000001
 20
0.45917
 30
0.0
 10
-0.6881900000000001
 20
0.45917
 30
0.0
 10
-0.6627900000000001
 20
0.49981
 30
0.0
 10
-0.6450100000000001
 20
0.55061
 30
0.0
 10
-0.6018300000000001
 20
0.57601
 30
0.0
 10
-0.6018300000000001
 20
0.57601
 30
0.0
 10
-0.6018300000000001
 20
0.57601
 30
0.0
 10
-0.4291100000000001
 20
0.5023500000000001
 30
0.0
 10
-0.4291100000000001
 20
0.5023500000000001
 30
0.0
 10
-0.4291100000000001
 20
0.5023500000000001
 30
0.0
 10
-0.33767
 20
0.45663
 30
0.0
 10
-0.23353
 20
0.47949
 30
0.0
 10
-0.13955
 20
0.5023500000000001
 30
0.0
 10
-0.13955
 20
0.5023500000000001
 30
0.0
 10
-0.08875
 20
0.4007500000000001
 30
0.0
 10
-0.01763
 20
0.41599
 30
0.0
 10
-0.03541
 20
0.55823
 30
0.0
 10
-0.03541
 20
0.55823
 30
0.0
 10
0.01538
 20
0.5683900000000001
 30
0.0
 10
0.05094
 20
0.59633
 30
0.0
 10
0.0738
 20
0.6471300000000001
 30
0.0
  0
SPLINE
  5
75
100
AcDbEntity
  8
Ebene 1
 62
     7
100
AcDbSpline
210
0.0
220
0.0
230
1.0
 70
     1
 71
     3
 72
    20
 73
    16
 74
     0
 42
0.0000000001
 43
0.0000000001
 40
0.0
 40
0.0
 40
0.0
 40
0.0
 40
0.25
 40
0.25
 40
0.25
 40
0.25
 40
0.5
 40
0.5
 40
0.5
 40
0.5
 40
0.75
 40
0.75
 40
0.75
 40
0.75
 40
1.0
 40
1.0
 40
1.0
 40
1.0
 10
1.5597000000000001
 20
0.57601
 30
0.0
 10
1.5597000000000001
 20
0.57601
 30
0.0
 10
1.7451200000000002
 20
0.5709300000000001
 30
0.0
 10
1.7451200000000002
 20
0.5709300000000001
 30
0.0
 10
1.7451200000000002
 20
0.5709300000000001
 30
0.0
 10
1.7451200000000002
 20
0.5709300000000001
 30
0.0
 10
1.8746600000000002
 20
-0.3714
 30
0.0
 10
1.8746600000000002
 20
-0.3714
 30
0.0
 10
1.8746600000000002
 20
-0.3714
 30
0.0
 10
1.8746600000000002
 20
-0.3714
 30
0.0
 10
1.4352400000000001
 20
-0.32822
 30
0.0
 10
1.4352400000000001
 20
-0.32822
 30
0.0
 10
1.4352400000000001
 20
-0.32822
 30
0.0
 10
1.6079600000000001
 20
-0.02596
 30
0.0
 10
1.3336400000000002
 20
0.30423
 30
0.0
 10
1.5597000000000001
 20
0.57601
 30
0.0
  0
SPLINE
  5
76
100
AcDbEntity
  8
Ebene 1
 62
     7
100
AcDbSpline
210
0.0
220
0.0
230
1.0
 70
     1
 71
     3
 72
    20
 73
    16
 74
     0
 42
0.0000000001
 43
0.0000000001
 40
0.0
 40
0.0
 40
0.0
 40
0.0
 40
0.25
 40
0.25
 40
0.25
 40
0.25
 40
0.5
 40
0.5
 40
0.5
 40
0.5
 40
0.75
 40
0.75
 40
0.75
 40
0.75
 40
1.0
 40
1.0
 40
1.0
 40
1.0
 10
3.8253800000000004
 20
0.51759
 30
0.0
 10
3.9600000000000004
 20
0.48711
 30
0.0
 10
3.8965000000000005
 20
0.2737500000000001
 30
0.0
 10
3.8406200000000004
 20
0.20009
 30
0.0
 10
3.8406200000000004
 20
0.20009
 30
0.0
 10
3.7949000000000002
 20
0.27629
 30
0.0
 10
3.7161600000000004
 20
0.32455
 30
0.0
 10
3.6425000000000005
 20
0.37535
 30
0.0
 10
3.6425000000000005
 20
0.37535
 30
0.0
 10
3.6298000000000004
 20
0.4210700000000001
 30
0.0
 10
3.6577400000000004
 20
0.45663
 30
0.0
 10
3.6704400000000001
 20
0.49981
 30
0.0
 10
3.6704400000000001
 20
0.49981
 30
0.0
 10
3.7237800000000001
 20
0.5048900000000001
 30
0.0
 10
3.7872800000000004
 20
0.46933
 30
0.0
 10
3.8253800000000004
 20
0.51759
 30
0.0
  0
SPLINE
  5
77
100
AcDbEntity
  8
Ebene 1
 62
     7
100
AcDbSpline
210
0.0
220
0.0
230
1.0
 70
     1
 71
     3
 72
    12
 73
     8
 74
     0
 42
0.0000000001
 43
0.0000000001
 40
0.0
 40
0.0
 40
0.0
 40
0.0
 40
0.5
 40
0.5
 40
0.5
 40
0.5
 40
1.0
 40
1.0
 40
1.0
 40
1.0
 10
0.55132
 20
0.47187
 30
0.0
 10
0.6834
 20
0.48203
 30
0.0
 10
0.4624200000000001
 20
0.32455
 30
0.0
 10
0.5259200000000001
 20
0.42615
 30
0.0
 10
0.5259200000000001
 20
0.42615
 30
0.0
 10
0.5386200000000001
 20
0.43885
 30
0.0
 10
0.5564
 20
0.4515500000000001
 30
0.0
 10
0.55132
 20
0.47187
 30
0.0
  0
SPLINE
  5
78
100
AcDbEntity
  8
Ebene 1
 62
     7
100
AcDbSpline
210
0.0
220
0.0
230
1.0
 70
     1
 71
     3
 72
     8
 73
     4
 74
     0
 42
0.0000000001
 43
0.0000000001
 40
0.0
 40
0.0
 40
0.0
 40
0.0
 40
1.0
 40
1.0
 40
1.0
 40
1.0
 10
3.5510600000000001
 20
0.45917
 30
0.0
 10
3.6374200000000001
 20
0.3905900000000001
 30
0.0
 10
3.4367600000000005
 20
0.38805
 30
0.0
 10
3.5510600000000001
 20
0.45917
 30
0.0
  0
SPLINE
  5
79
100
AcDbEntity
  8
Ebene 1
 62
     7
100
AcDbSpline
210
0.0
220
0.0
230
1.0
 70
     1
 71
     3
 72
    28
 73
    24
 74
     0
 42
0.0000000001
 43
0.0000000001
 40
0.0
 40
0.0
 40
0.0
 40
0.0
 40
0.1666666666666667
 40
0.1666666666666667
 40
0.1666666666666667
 40
0.1666666666666667
 40
0.3333333333333333
 40
0.3333333333333333
 40
0.3333333333333333
 40
0.3333333333333333
 40
0.5
 40
0.5
 40
0.5
 40
0.5
 40
0.6666666666666666
 40
0.6666666666666666
 40
0.6666666666666666
 40
0.6666666666666666
 40
0.8333333333333333
 40
0.8333333333333333
 40
0.8333333333333333
 40
0.8333333333333333
 40
1.0
 40
1.0
 40
1.0
 40
1.0
 10
3.3199200000000002
 20
0.4312300000000001
 30
0.0
 10
3.3427800000000003
 20
0.39567
 30
0.0
 10
3.3834200000000001
 20
0.36519
 30
0.0
 10
3.4215200000000001
 20
0.34233
 30
0.0
 10
3.4215200000000001
 20
0.34233
 30
0.0
 10
3.5561400000000001
 20
0.37789
 30
0.0
 10
3.7771200000000005
 20
0.31439
 30
0.0
 10
3.7720400000000005
 20
0.14675
 30
0.0
 10
3.7720400000000005
 20
0.14675
 30
0.0
 10
3.7720400000000005
 20
0.14675
 30
0.0
 10
3.8126800000000003
 20
0.09849
 30
0.0
 10
3.8126800000000003
 20
0.09849
 30
0.0
 10
3.8126800000000003
 20
0.09849
 30
0.0
 10
3.7593400000000003
 20
-0.00564
 30
0.0
 10
3.6577400000000004
 20
-0.08946
 30
0.0
 10
3.5510600000000001
 20
-0.1301
 30
0.0
 10
3.5510600000000001
 20
-0.1301
 30
0.0
 10
3.5510600000000001
 20
-0.1301
 30
0.0
 10
3.6094800000000005
 20
-0.05898
 30
0.0
 10
3.6094800000000005
 20
-0.05898
 30
0.0
 10
3.6094800000000005
 20
-0.05898
 30
0.0
 10
3.5078800000000001
 20
0.09849
 30
0.0
 10
3.3478600000000003
 20
0.23819
 30
0.0
 10
3.3199200000000002
 20
0.4312300000000001
 30
0.0
  0
SPLINE
  5
7A
100
AcDbEntity
  8
Ebene 1
 62
     7
100
AcDbSpline
210
0.0
220
0.0
230
1.0
 70
     1
 71
     3
 72
    12
 73
     8
 74
     0
 42
0.0000000001
 43
0.0000000001
 40
0.0
 40
0.0
 40
0.0
 40
0.0
 40
0.5
 40
0.5
 40
0.5
 40
0.5
 40
1.0
 40
1.0
 40
1.0
 40
1.0
 10
-3.0249900000000003
 20
0.37281
 30
0.0
 10
-2.9868900000000003
 20
0.37535
 30
0.0
 10
-2.9386300000000003
 20
0.37535
 30
0.0
 10
-2.9284700000000004
 20
0.33471
 30
0.0
 10
-2.9284700000000004
 20
0.33471
 30
0.0
 10
-2.9614900000000004
 20
0.32455
 30
0.0
 10
-3.03261
 20
0.31947
 30
0.0
 10
-3.0249900000000003
 20
0.37281
 30
0.0
  0
SPLINE
  5
7B
100
AcDbEntity
  8
Ebene 1
 62
     7
100
AcDbSpline
210
0.0
220
0.0
230
1.0
 70
     1
 71
     3
 72
    24
 73
    20
 74
     0
 42
0.0000000001
 43
0.0000000001
 40
0.0
 40
0.0
 40
0.0
 40
0.0
 40
0.2
 40
0.2
 40
0.2
 40
0.2
 40
0.4
 40
0.4
 40
0.4
 40
0.4
 40
0.6000000000000001
 40
0.6000000000000001
 40
0.6000000000000001
 40
0.6000000000000001
 40
0.8
 40
0.8
 40
0.8
 40
0.8
 40
1.0
 40
1.0
 40
1.0
 40
1.0
 10
3.2640400000000001
 20
0.25597
 30
0.0
 10
3.3453200000000001
 20
0.17215
 30
0.0
 10
3.4443800000000002
 20
0.08325
 30
0.0
 10
3.5078800000000001
 20
-0.0158
 30
0.0
 10
3.5078800000000001
 20
-0.0158
 30
0.0
 10
3.5078800000000001
 20
-0.0158
 30
0.0
 10
3.4926400000000002
 20
-0.05898
 30
0.0
 10
3.4926400000000002
 20
-0.05898
 30
0.0
 10
3.4926400000000002
 20
-0.05898
 30
0.0
 10
3.5510600000000001
 20
-0.22662
 30
0.0
 10
3.3123000000000005
 20
-0.19868
 30
0.0
 10
3.2107000000000001
 20
-0.18344
 30
0.0
 10
3.2107000000000001
 20
-0.18344
 30
0.0
 10
3.2284800000000002
 20
-0.08438
 30
0.0
 10
3.2335600000000002
 20
0.03753
 30
0.0
 10
3.1472000000000002
 20
0.11373
 30
0.0
 10
3.1472000000000002
 20
0.11373
 30
0.0
 10
3.1472000000000002
 20
0.11373
 30
0.0
 10
3.2640400000000001
 20
0.25597
 30
0.0
 10
3.2640400000000001
 20
0.25597
 30
0.0
  0
SPLINE
  5
7C
100
AcDbEntity
  8
Ebene 1
 62
     7
100
AcDbSpline
210
0.0
220
0.0
230
1.0
 70
     1
 71
     3
 72
    16
 73
    12
 74
     0
 42
0.0000000001
 43
0.0000000001
 40
0.0
 40
0.0
 40
0.0
 40
0.0
 40
0.3333333333333333
 40
0.3333333333333333
 40
0.3333333333333333
 40
0.3333333333333333
 40
0.6666666666666666
 40
0.6666666666666666
 40
0.6666666666666666
 40
0.6666666666666666
 40
1.0
 40
1.0
 40
1.0
 40
1.0
 10
1.3006200000000001
 20
0.18485
 30
0.0
 10
1.44032
 20
0.03753
 30
0.0
 10
1.4149200000000002
 20
-0.24948
 30
0.0
 10
1.2041000000000002
 20
-0.32822
 30
0.0
 10
1.2041000000000002
 20
-0.32822
 30
0.0
 10
1.2041000000000002
 20
-0.32822
 30
0.0
 10
1.1558400000000002
 20
-0.27488
 30
0.0
 10
1.1558400000000002
 20
-0.27488
 30
0.0
 10
1.1558400000000002
 20
-0.27488
 30
0.0
 10
1.1990200000000002
 20
-0.1174
 30
0.0
 10
1.23204
 20
0.03753
 30
0.0
 10
1.3006200000000001
 20
0.18485
 30
0.0
  0
SPLINE
  5
7D
100
AcDbEntity
  8
Ebene 1
 62
     7
100
AcDbSpline
210
0.0
220
0.0
230
1.0
 70
     1
 71
     3
 72
    16
 73
    12
 74
     0
 42
0.0000000001
 43
0.0000000001
 40
0.0
 40
0.0
 40
0.0
 40
0.0
 40
0.3333333333333333
 40
0.3333333333333333
 40
0.3333333333333333
 40
0.3333333333333333
 40
0.6666666666666666
 40
0.6666666666666666
 40
0.6666666666666666
 40
0.6666666666666666
 40
1.0
 40
1.0
 40
1.0
 40
1.0
 10
3.0456000000000003
 20
0.11373
 30
0.0
 10
3.1497400000000004
 20
0.07055
 30
0.0
 10
3.1675200000000001
 20
-0.0793
 30
0.0
 10
3.1599000000000004
 20
-0.1682
 30
0.0
 10
3.1599000000000004
 20
-0.1682
 30
0.0
 10
3.1599000000000004
 20
-0.1682
 30
0.0
 10
2.9211400000000003
 20
-0.11232
 30
0.0
 10
2.9211400000000003
 20
-0.11232
 30
0.0
 10
2.9211400000000003
 20
-0.11232
 30
0.0
 10
2.8551000000000002
 20
0.00705
 30
0.0
 10
2.9313000000000002
 20
0.10357
 30
0.0
 10
3.0456000000000003
 20
0.11373
 30
0.0
  0
SPLINE
  5
7E
100
AcDbEntity
  8
Ebene 1
 62
     7
100
AcDbSpline
210
0.0
220
0.0
230
1.0
 70
     1
 71
     3
 72
    16
 73
    12
 74
     0
 42
0.0000000001
 43
0.0000000001
 40
0.0
 40
0.0
 40
0.0
 40
0.0
 40
0.3333333333333333
 40
0.3333333333333333
 40
0.3333333333333333
 40
0.3333333333333333
 40
0.6666666666666666
 40
0.6666666666666666
 40
0.6666666666666666
 40
0.6666666666666666
 40
1.0
 40
1.0
 40
1.0
 40
1.0
 10
-3.1113500000000003
 20
0.06801
 30
0.0
 10
-3.0630900000000003
 20
0.02991
 30
0.0
 10
-3.0097500000000004
 20
-0.03104
 30
0.0
 10
-3.0148300000000003
 20
-0.09708
 30
0.0
 10
-3.0148300000000003
 20
-0.09708
 30
0.0
 10
-3.0783300000000002
 20
-0.11486
 30
0.0
 10
-3.1621500000000005
 20
-0.1301
 30
0.0
 10
-3.1977100000000003
 20
-0.05898
 30
0.0
 10
-3.1977100000000003
 20
-0.05898
 30
0.0
 10
-3.1977100000000003
 20
-0.05898
 30
0.0
 10
-3.1113500000000003
 20
0.06801
 30
0.0
 10
-3.1113500000000003
 20
0.06801
 30
0.0
  0
SPLINE
  5
7F
100
AcDbEntity
  8
Ebene 1
 62
     7
100
AcDbSpline
210
0.0
220
0.0
230
1.0
 70
     1
 71
     3
 72
    24
 73
    20
 74
     0
 42
0.0000000001
 43
0.0000000001
 40
0.0
 40
0.0
 40
0.0
 40
0.0
 40
0.2
 40
0.2
 40
0.2
 40
0.2
 40
0.4
 40
0.4
 40
0.4
 40
0.4
 40
0.6000000000000001
 40
0.6000000000000001
 40
0.6000000000000001
 40
0.6000000000000001
 40
0.8
 40
0.8
 40
0.8
 40
0.8
 40
1.0
 40
1.0
 40
1.0
 40
1.0
 10
2.3979000000000004
 20
0.04007
 30
0.0
 10
2.5223600000000004
 20
0.01213
 30
0.0
 10
2.6468200000000004
 20
-0.07168
 30
0.0
 10
2.7738200000000002
 20
0.02737
 30
0.0
 10
2.7738200000000002
 20
0.02737
 30
0.0
 10
2.7890600000000001
 20
0.02991
 30
0.0
 10
2.8017600000000003
 20
0.01975
 30
0.0
 10
2.8119200000000002
 20
0.00959
 30
0.0
 10
2.8119200000000002
 20
0.00959
 30
0.0
 10
2.8170000000000002
 20
-0.01834
 30
0.0
 10
2.8271600000000001
 20
-0.06152
 30
0.0
 10
2.79922
 20
-0.08184
 30
0.0
 10
2.79922
 20
-0.08184
 30
0.0
 10
2.6671400000000003
 20
-0.07168
 30
0.0
 10
2.5096600000000002
 20
-0.09962
 30
0.0
 10
2.38774
 20
-0.02596
 30
0.0
 10
2.38774
 20
-0.02596
 30
0.0
 10
2.3750400000000003
 20
-0.0031
 30
0.0
 10
2.3852000000000002
 20
0.01975
 30
0.0
 10
2.3979000000000004
 20
0.04007
 30
0.0
  0
SPLINE
  5
80
100
AcDbEntity
  8
Ebene 1
 62
     7
100
AcDbSpline
210
0.0
220
0.0
230
1.0
 70
     1
 71
     3
 72
    16
 73
    12
 74
     0
 42
0.0000000001
 43
0.0000000001
 40
0.0
 40
0.0
 40
0.0
 40
0.0
 40
0.3333333333333333
 40
0.3333333333333333
 40
0.3333333333333333
 40
0.3333333333333333
 40
0.6666666666666666
 40
0.6666666666666666
 40
0.6666666666666666
 40
0.6666666666666666
 40
1.0
 40
1.0
 40
1.0
 40
1.0
 10
1.1279000000000001
 20
-0.11486
 30
0.0
 10
1.19648
 20
-0.16566
 30
0.0
 10
1.0542400000000001
 20
-0.32314
 30
0.0
 10
1.1406000000000001
 20
-0.39934
 30
0.0
 10
1.1406000000000001
 20
-0.39934
 30
0.0
 10
0.88914
 20
-0.69398
 30
0.0
 10
0.8129400000000001
 20
-1.12324
 30
0.0
 10
0.59704
 20
-1.3950200000000001
 30
0.0
 10
0.59704
 20
-1.3950200000000001
 30
0.0
 10
0.7164200000000001
 20
-0.9683000000000001
 30
0.0
 10
0.93486
 20
-0.52888
 30
0.0
 10
1.1279000000000001
 20
-0.11486
 30
0.0
  0
SPLINE
  5
81
100
AcDbEntity
  8
Ebene 1
 62
     7
100
AcDbSpline
210
0.0
220
0.0
230
1.0
 70
     1
 71
     3
 72
    12
 73
     8
 74
     0
 42
0.0000000001
 43
0.0000000001
 40
0.0
 40
0.0
 40
0.0
 40
0.0
 40
0.5
 40
0.5
 40
0.5
 40
0.5
 40
1.0
 40
1.0
 40
1.0
 40
1.0
 10
3.6679000000000004
 20
-0.11486
 30
0.0
 10
3.7720400000000005
 20
-0.1682
 30
0.0
 10
3.4139000000000004
 20
-0.26218
 30
0.0
 10
3.5713800000000004
 20
-0.16312
 30
0.0
 10
3.5713800000000004
 20
-0.16312
 30
0.0
 10
3.5713800000000004
 20
-0.16312
 30
0.0
 10
3.6679000000000004
 20
-0.11486
 30
0.0
 10
3.6679000000000004
 20
-0.11486
 30
0.0
  0
SPLINE
  5
82
100
AcDbEntity
  8
Ebene 1
 62
     7
100
AcDbSpline
210
0.0
220
0.0
230
1.0
 70
     1
 71
     3
 72
    16
 73
    12
 74
     0
 42
0.0000000001
 43
0.0000000001
 40
0.0
 40
0.0
 40
0.0
 40
0.0
 40
0.3333333333333333
 40
0.3333333333333333
 40
0.3333333333333333
 40
0.3333333333333333
 40
0.6666666666666666
 40
0.6666666666666666
 40
0.6666666666666666
 40
0.6666666666666666
 40
1.0
 40
1.0
 40
1.0
 40
1.0
 10
-3.0681700000000003
 20
-0.3307600000000001
 30
0.0
 10
-3.0681700000000003
 20
-0.3307600000000001
 30
0.0
 10
-3.0275300000000001
 20
-0.33584
 30
0.0
 10
-3.0275300000000001
 20
-0.33584
 30
0.0
 10
-3.0275300000000001
 20
-0.33584
 30
0.0
 10
-2.9970500000000002
 20
-0.5187200000000001
 30
0.0
 10
-3.1646900000000002
 20
-0.6431800000000001
 30
0.0
 10
-3.3399500000000004
 20
-0.57206
 30
0.0
 10
-3.3399500000000004
 20
-0.57206
 30
0.0
 10
-3.3120100000000003
 20
-0.45522
 30
0.0
 10
-3.1545300000000003
 20
-0.3968
 30
0.0
 10
-3.0681700000000003
 20
-0.3307600000000001
 30
0.0
  0
SPLINE
  5
83
100
AcDbEntity
  8
Ebene 1
 62
     7
100
AcDbSpline
210
0.0
220
0.0
230
1.0
 70
     1
 71
     3
 72
    12
 73
     8
 74
     0
 42
0.0000000001
 43
0.0000000001
 40
0.0
 40
0.0
 40
0.0
 40
0.0
 40
0.5
 40
0.5
 40
0.5
 40
0.5
 40
1.0
 40
1.0
 40
1.0
 40
1.0
 10
1.5444600000000002
 20
-0.36124
 30
0.0
 10
1.6105
 20
-0.3587
 30
0.0
 10
1.6841600000000001
 20
-0.3637800000000001
 30
0.0
 10
1.7324200000000001
 20
-0.38918
 30
0.0
 10
1.7324200000000001
 20
-0.38918
 30
0.0
 10
1.69686
 20
-0.40696
 30
0.0
 10
1.5190600000000001
 20
-0.4349
 30
0.0
 10
1.5444600000000002
 20
-0.36124
 30
0.0
  0
SPLINE
  5
84
100
AcDbEntity
  8
Ebene 1
 62
     7
100
AcDbSpline
210
0.0
220
0.0
230
1.0
 70
     1
 71
     3
 72
    48
 73
    44
 74
     0
 42
0.0000000001
 43
0.0000000001
 40
0.0
 40
0.0
 40
0.0
 40
0.0
 40
0.0909090909090909
 40
0.0909090909090909
 40
0.0909090909090909
 40
0.0909090909090909
 40
0.1818181818181818
 40
0.1818181818181818
 40
0.1818181818181818
 40
0.1818181818181818
 40
0.2727272727272727
 40
0.2727272727272727
 40
0.2727272727272727
 40
0.2727272727272727
 40
0.3636363636363637
 40
0.3636363636363637
 40
0.3636363636363637
 40
0.3636363636363637
 40
0.4545454545454546
 40
0.4545454545454546
 40
0.4545454545454546
 40
0.4545454545454546
 40
0.5454545454545455
 40
0.5454545454545455
 40
0.5454545454545455
 40
0.5454545454545455
 40
0.6363636363636365
 40
0.6363636363636365
 40
0.6363636363636365
 40
0.6363636363636365
 40
0.7272727272727274
 40
0.7272727272727274
 40
0.7272727272727274
 40
0.7272727272727274
 40
0.8181818181818183
 40
0.8181818181818183
 40
0.8181818181818183
 40
0.8181818181818183
 40
0.9090909090909093
 40
0.9090909090909093
 40
0.9090909090909093
 40
0.9090909090909093
 40
1.0
 40
1.0
 40
1.0
 40
1.0
 10
-2.2604500000000001
 20
-0.5187200000000001
 30
0.0
 10
-2.1232900000000003
 20
-0.5974600000000001
 30
0.0
 10
-2.0953500000000003
 20
-0.7905000000000001
 30
0.0
 10
-2.0293100000000002
 20
-0.9225800000000001
 30
0.0
 10
-2.0293100000000002
 20
-0.9225800000000001
 30
0.0
 10
-1.9886700000000002
 20
-1.6515600000000001
 30
0.0
 10
-2.0191500000000002
 20
-2.3526000000000002
 30
0.0
 10
-2.0445500000000001
 20
-3.0866600000000002
 30
0.0
 10
-2.0445500000000001
 20
-3.0866600000000002
 30
0.0
 10
-1.9302500000000002
 20
-3.9528000000000003
 30
0.0
 10
-1.4501900000000001
 20
-4.7910000000000004
 30
0.0
 10
-0.9218700000000001
 20
-5.4437800000000003
 30
0.0
 10
-0.9218700000000001
 20
-5.4437800000000003
 30
0.0
 10
-0.8736100000000001
 20
-5.6165000000000003
 30
0.0
 10
-0.6907300000000001
 20
-5.7435
 30
0.0
 10
-0.6907300000000001
 20
-5.9111400000000005
 30
0.0
 10
-0.6907300000000001
 20
-5.9111400000000005
 30
0.0
 10
-1.7016500000000001
 20
-5.3904400000000008
 30
0.0
 10
-1.7727700000000002
 20
-3.8664400000000003
 30
0.0
 10
-2.35697
 20
-2.9164800000000004
 30
0.0
 10
-2.35697
 20
-2.9164800000000004
 30
0.0
 10
-2.4153900000000004
 20
-3.0130000000000003
 30
0.0
 10
-2.31887
 20
-3.11206
 30
0.0
 10
-2.3468100000000001
 20
-3.2187400000000004
 30
0.0
 10
-2.3468100000000001
 20
-3.2187400000000004
 30
0.0
 10
-2.27061
 20
-3.4397200000000003
 30
0.0
 10
-2.2909300000000004
 20
-3.5667200000000001
 30
0.0
 10
-2.44333
 20
-3.3152600000000003
 30
0.0
 10
-2.44333
 20
-3.3152600000000003
 30
0.0
 10
-2.44333
 20
-3.3152600000000003
 30
0.0
 10
-2.6795500000000003
 20
-2.7844000000000002
 30
0.0
 10
-2.6795500000000003
 20
-2.7844000000000002
 30
0.0
 10
-2.6795500000000003
 20
-2.7844000000000002
 30
0.0
 10
-2.4915900000000004
 20
-2.2027400000000004
 30
0.0
 10
-2.2452100000000002
 20
-1.6058400000000002
 30
0.0
 10
-2.2452100000000002
 20
-0.9810000000000001
 30
0.0
 10
-2.2452100000000002
 20
-0.9810000000000001
 30
0.0
 10
-2.1588500000000002
 20
-1.3442200000000002
 30
0.0
 10
-2.2299700000000002
 20
-1.7785600000000001
 30
0.0
 10
-2.2553700000000001
 20
-2.1316200000000003
 30
0.0
 10
-2.2553700000000001
 20
-2.1316200000000003
 30
0.0
 10
-2.1232900000000003
 20
-1.6515600000000001
 30
0.0
 10
-1.9454900000000002
 20
-0.9733800000000001
 30
0.0
 10
-2.2604500000000001
 20
-0.5187200000000001
 30
0.0
  0
SPLINE
  5
85
100
AcDbEntity
  8
Ebene 1
 62
     7
100
AcDbSpline
210
0.0
220
0.0
230
1.0
 70
     1
 71
     3
 72
    16
 73
    12
 74
     0
 42
0.0000000001
 43
0.0000000001
 40
0.0
 40
0.0
 40
0.0
 40
0.0
 40
0.3333333333333333
 40
0.3333333333333333
 40
0.3333333333333333
 40
0.3333333333333333
 40
0.6666666666666666
 40
0.6666666666666666
 40
0.6666666666666666
 40
0.6666666666666666
 40
1.0
 40
1.0
 40
1.0
 40
1.0
 10
1.6028800000000001
 20
-0.5492
 30
0.0
 10
1.6409800000000001
 20
-0.54666
 30
0.0
 10
1.6714600000000002
 20
-0.5492
 30
0.0
 10
1.7019400000000002
 20
-0.5644400000000001
 30
0.0
 10
1.7019400000000002
 20
-0.5644400000000001
 30
0.0
 10
1.61304
 20
-0.9175000000000001
 30
0.0
 10
1.44032
 20
-1.2604000000000002
 30
0.0
 10
1.1736200000000001
 20
-1.5245600000000001
 30
0.0
 10
1.1736200000000001
 20
-1.5245600000000001
 30
0.0
 10
1.3285600000000002
 20
-1.2146800000000002
 30
0.0
 10
1.52922
 20
-0.8946400000000001
 30
0.0
 10
1.6028800000000001
 20
-0.5492
 30
0.0
  0
SPLINE
  5
86
100
AcDbEntity
  8
Ebene 1
 62
     7
100
AcDbSpline
210
0.0
220
0.0
230
1.0
 70
     1
 71
     3
 72
    20
 73
    16
 74
     0
 42
0.0000000001
 43
0.0000000001
 40
0.0
 40
0.0
 40
0.0
 40
0.0
 40
0.25
 40
0.25
 40
0.25
 40
0.25
 40
0.5
 40
0.5
 40
0.5
 40
0.5
 40
0.75
 40
0.75
 40
0.75
 40
0.75
 40
1.0
 40
1.0
 40
1.0
 40
1.0
 10
-2.4484100000000004
 20
-0.63556
 30
0.0
 10
-2.4103100000000004
 20
-0.7016000000000001
 30
0.0
 10
-2.3645900000000002
 20
-0.86416
 30
0.0
 10
-2.4484100000000004
 20
-0.9225800000000001
 30
0.0
 10
-2.4484100000000004
 20
-0.9225800000000001
 30
0.0
 10
-2.4484100000000004
 20
-0.9225800000000001
 30
0.0
 10
-2.4738100000000003
 20
-0.9048000000000001
 30
0.0
 10
-2.4738100000000003
 20
-0.9048000000000001
 30
0.0
 10
-2.4738100000000003
 20
-0.9048000000000001
 30
0.0
 10
-2.4484100000000004
 20
-0.82352
 30
0.0
 10
-2.5830300000000004
 20
-0.6863600000000001
 30
0.0
 10
-2.4661900000000001
 20
-0.6609600000000001
 30
0.0
 10
-2.4661900000000001
 20
-0.6609600000000001
 30
0.0
 10
-2.4661900000000001
 20
-0.6609600000000001
 30
0.0
 10
-2.4484100000000004
 20
-0.63556
 30
0.0
 10
-2.4484100000000004
 20
-0.63556
 30
0.0
  0
SPLINE
  5
87
100
AcDbEntity
  8
Ebene 1
 62
     7
100
AcDbSpline
210
0.0
220
0.0
230
1.0
 70
     1
 71
     3
 72
    20
 73
    16
 74
     0
 42
0.0000000001
 43
0.0000000001
 40
0.0
 40
0.0
 40
0.0
 40
0.0
 40
0.25
 40
0.25
 40
0.25
 40
0.25
 40
0.5
 40
0.5
 40
0.5
 40
0.5
 40
0.75
 40
0.75
 40
0.75
 40
0.75
 40
1.0
 40
1.0
 40
1.0
 40
1.0
 10
-3.1850100000000001
 20
-0.7346200000000001
 30
0.0
 10
-3.1418300000000001
 20
-0.7295400000000001
 30
0.0
 10
-3.1367500000000001
 20
-0.78288
 30
0.0
 10
-3.1164300000000003
 20
-0.8032
 30
0.0
 10
-3.1164300000000003
 20
-0.8032
 30
0.0
 10
-3.2561300000000002
 20
-0.9835400000000001
 30
0.0
 10
-3.5990300000000004
 20
-1.0216400000000001
 30
0.0
 10
-3.6498300000000001
 20
-1.25024
 30
0.0
 10
-3.6498300000000001
 20
-1.25024
 30
0.0
 10
-3.6650700000000005
 20
-1.2705600000000001
 30
0.0
 10
-3.6879300000000002
 20
-1.2985000000000002
 30
0.0
 10
-3.7133300000000005
 20
-1.2807200000000001
 30
0.0
 10
-3.7133300000000005
 20
-1.2807200000000001
 30
0.0
 10
-3.6168100000000001
 20
-1.0521200000000002
 30
0.0
 10
-3.4186900000000002
 20
-0.82606
 30
0.0
 10
-3.1850100000000001
 20
-0.7346200000000001
 30
0.0
  0
SPLINE
  5
88
100
AcDbEntity
  8
Ebene 1
 62
     7
100
AcDbSpline
210
0.0
220
0.0
230
1.0
 70
     1
 71
     3
 72
    16
 73
    12
 74
     0
 42
0.0000000001
 43
0.0000000001
 40
0.0
 40
0.0
 40
0.0
 40
0.0
 40
0.3333333333333333
 40
0.3333333333333333
 40
0.3333333333333333
 40
0.3333333333333333
 40
0.6666666666666666
 40
0.6666666666666666
 40
0.6666666666666666
 40
0.6666666666666666
 40
1.0
 40
1.0
 40
1.0
 40
1.0
 10
-2.6947900000000002
 20
-0.7651000000000001
 30
0.0
 10
-2.6160500000000004
 20
-0.78288
 30
0.0
 10
-2.5601700000000003
 20
-0.8997200000000001
 30
0.0
 10
-2.5500100000000003
 20
-0.9810000000000001
 30
0.0
 10
-2.5500100000000003
 20
-0.9810000000000001
 30
0.0
 10
-2.5906500000000001
 20
-1.0267200000000001
 30
0.0
 10
-2.6338300000000001
 20
-1.0953000000000002
 30
0.0
 10
-2.6947900000000002
 20
-1.1105400000000001
 30
0.0
 10
-2.6947900000000002
 20
-1.1105400000000001
 30
0.0
 10
-2.7811500000000002
 20
-1.0216400000000001
 30
0.0
 10
-2.8522700000000003
 20
-0.8159000000000001
 30
0.0
 10
-2.6947900000000002
 20
-0.7651000000000001
 30
0.0
  0
SPLINE
  5
89
100
AcDbEntity
  8
Ebene 1
 62
     7
100
AcDbSpline
210
0.0
220
0.0
230
1.0
 70
     1
 71
     3
 72
    28
 73
    24
 74
     0
 42
0.0000000001
 43
0.0000000001
 40
0.0
 40
0.0
 40
0.0
 40
0.0
 40
0.1666666666666667
 40
0.1666666666666667
 40
0.1666666666666667
 40
0.1666666666666667
 40
0.3333333333333333
 40
0.3333333333333333
 40
0.3333333333333333
 40
0.3333333333333333
 40
0.5
 40
0.5
 40
0.5
 40
0.5
 40
0.6666666666666666
 40
0.6666666666666666
 40
0.6666666666666666
 40
0.6666666666666666
 40
0.8333333333333333
 40
0.8333333333333333
 40
0.8333333333333333
 40
0.8333333333333333
 40
1.0
 40
1.0
 40
1.0
 40
1.0
 10
-3.0249900000000003
 20
-0.9378200000000001
 30
0.0
 10
-2.9208500000000002
 20
-0.9784600000000001
 30
0.0
 10
-2.9487900000000002
 20
-1.1359400000000002
 30
0.0
 10
-2.8522700000000003
 20
-1.1969000000000001
 30
0.0
 10
-2.8522700000000003
 20
-1.1969000000000001
 30
0.0
 10
-2.9284700000000004
 20
-1.2731000000000001
 30
0.0
 10
-3.0351500000000002
 20
-1.33406
 30
0.0
 10
-3.1240500000000004
 20
-1.3670800000000001
 30
0.0
 10
-3.1240500000000004
 20
-1.3670800000000001
 30
0.0
 10
-3.1240500000000004
 20
-1.3670800000000001
 30
0.0
 10
-3.0580100000000003
 20
-1.3747
 30
0.0
 10
-3.0580100000000003
 20
-1.3747
 30
0.0
 10
-3.0580100000000003
 20
-1.3747
 30
0.0
 10
-3.0478500000000004
 20
-1.3899400000000002
 30
0.0
 10
-3.0630900000000003
 20
-1.4026400000000001
 30
0.0
 10
-3.0732500000000003
 20
-1.4102600000000001
 30
0.0
 10
-3.0732500000000003
 20
-1.4102600000000001
 30
0.0
 10
-3.0732500000000003
 20
-1.4102600000000001
 30
0.0
 10
-3.4542500000000005
 20
-1.37978
 30
0.0
 10
-3.4542500000000005
 20
-1.37978
 30
0.0
 10
-3.4542500000000005
 20
-1.37978
 30
0.0
 10
-3.3831300000000004
 20
-1.1842000000000001
 30
0.0
 10
-3.2154900000000004
 20
-1.0318000000000001
 30
0.0
 10
-3.0249900000000003
 20
-0.9378200000000001
 30
0.0
  0
SPLINE
  5
8A
100
AcDbEntity
  8
Ebene 1
 62
     7
100
AcDbSpline
210
0.0
220
0.0
230
1.0
 70
     1
 71
     3
 72
   120
 73
   116
 74
     0
 42
0.0000000001
 43
0.0000000001
 40
0.0
 40
0.0
 40
0.0
 40
0.0
 40
0.0344827586206897
 40
0.0344827586206897
 40
0.0344827586206897
 40
0.0344827586206897
 40
0.0689655172413793
 40
0.0689655172413793
 40
0.0689655172413793
 40
0.0689655172413793
 40
0.103448275862069
 40
0.103448275862069
 40
0.103448275862069
 40
0.103448275862069
 40
0.1379310344827586
 40
0.1379310344827586
 40
0.1379310344827586
 40
0.1379310344827586
 40
0.1724137931034483
 40
0.1724137931034483
 40
0.1724137931034483
 40
0.1724137931034483
 40
0.206896551724138
 40
0.206896551724138
 40
0.206896551724138
 40
0.206896551724138
 40
0.2413793103448276
 40
0.2413793103448276
 40
0.2413793103448276
 40
0.2413793103448276
 40
0.2758620689655173
 40
0.2758620689655173
 40
0.2758620689655173
 40
0.2758620689655173
 40
0.310344827586207
 40
0.310344827586207
 40
0.310344827586207
 40
0.310344827586207
 40
0.3448275862068966
 40
0.3448275862068966
 40
0.3448275862068966
 40
0.3448275862068966
 40
0.3793103448275863
 40
0.3793103448275863
 40
0.3793103448275863
 40
0.3793103448275863
 40
0.413793103448276
 40
0.413793103448276
 40
0.413793103448276
 40
0.413793103448276
 40
0.4482758620689656
 40
0.4482758620689656
 40
0.4482758620689656
 40
0.4482758620689656
 40
0.4827586206896553
 40
0.4827586206896553
 40
0.4827586206896553
 40
0.4827586206896553
 40
0.517241379310345
 40
0.517241379310345
 40
0.517241379310345
 40
0.517241379310345
 40
0.5517241379310346
 40
0.5517241379310346
 40
0.5517241379310346
 40
0.5517241379310346
 40
0.5862068965517242
 40
0.5862068965517242
 40
0.5862068965517242
 40
0.5862068965517242
 40
0.6206896551724138
 40
0.6206896551724138
 40
0.6206896551724138
 40
0.6206896551724138
 40
0.6551724137931034
 40
0.6551724137931034
 40
0.6551724137931034
 40
0.6551724137931034
 40
0.689655172413793
 40
0.689655172413793
 40
0.689655172413793
 40
0.689655172413793
 40
0.7241379310344827
 40
0.7241379310344827
 40
0.7241379310344827
 40
0.7241379310344827
 40
0.7586206896551723
 40
0.7586206896551723
 40
0.7586206896551723
 40
0.7586206896551723
 40
0.7931034482758619
 40
0.7931034482758619
 40
0.7931034482758619
 40
0.7931034482758619
 40
0.8275862068965515
 40
0.8275862068965515
 40
0.8275862068965515
 40
0.8275862068965515
 40
0.8620689655172411
 40
0.8620689655172411
 40
0.8620689655172411
 40
0.8620689655172411
 40
0.8965517241379307
 40
0.8965517241379307
 40
0.8965517241379307
 40
0.8965517241379307
 40
0.9310344827586203
 40
0.9310344827586203
 40
0.9310344827586203
 40
0.9310344827586203
 40
0.9655172413793099
 40
0.9655172413793099
 40
0.9655172413793099
 40
0.9655172413793099
 40
1.0
 40
1.0
 40
1.0
 40
1.0
 10
-0.45705
 20
-5.3955200000000003
 30
0.0
 10
-0.7466100000000001
 20
-5.4463200000000001
 30
0.0
 10
-1.03617
 20
-4.6386000000000003
 30
0.0
 10
-1.04379
 20
-5.0475400000000006
 30
0.0
 10
-1.04379
 20
-5.0475400000000006
 30
0.0
 10
-1.1123700000000001
 20
-4.6970200000000002
 30
0.0
 10
-1.2647700000000002
 20
-4.4227000000000007
 30
0.0
 10
-1.4679700000000002
 20
-4.1407600000000002
 30
0.0
 10
-1.4679700000000002
 20
-4.1407600000000002
 30
0.0
 10
-1.5086100000000002
 20
-4.1534599999999999
 30
0.0
 10
-1.4501900000000001
 20
-4.2525200000000005
 30
0.0
 10
-1.50607
 20
-4.2372800000000002
 30
0.0
 10
-1.50607
 20
-4.2372800000000002
 30
0.0
 10
-1.6559300000000001
 20
-3.8232600000000003
 30
0.0
 10
-1.7473700000000001
 20
-3.3432000000000004
 30
0.0
 10
-1.9734300000000002
 20
-2.9876
 30
0.0
 10
-1.9734300000000002
 20
-2.9876
 30
0.0
 10
-1.8032500000000002
 20
-2.35514
 30
0.0
 10
-1.8819900000000001
 20
-1.6337800000000002
 30
0.0
 10
-1.8438900000000003
 20
-0.9810000000000001
 30
0.0
 10
-1.8438900000000003
 20
-0.9810000000000001
 30
0.0
 10
-1.6381500000000002
 20
-1.4229600000000002
 30
0.0
 10
-1.8692900000000001
 20
-1.9563600000000001
 30
0.0
 10
-1.79817
 20
-2.4084800000000004
 30
0.0
 10
-1.79817
 20
-2.4084800000000004
 30
0.0
 10
-1.7753100000000002
 20
-2.7285200000000001
 30
0.0
 10
-1.7651500000000002
 20
-3.0358600000000004
 30
0.0
 10
-1.6559300000000001
 20
-3.3330400000000004
 30
0.0
 10
-1.6559300000000001
 20
-3.3330400000000004
 30
0.0
 10
-1.6000500000000002
 20
-3.5057600000000004
 30
0.0
 10
-1.5416300000000001
 20
-3.6759400000000002
 30
0.0
 10
-1.4705100000000002
 20
-3.8410400000000005
 30
0.0
 10
-1.4705100000000002
 20
-3.8410400000000005
 30
0.0
 10
-1.4501900000000001
 20
-3.8969200000000002
 30
0.0
 10
-1.4324100000000002
 20
-4.0036000000000005
 30
0.0
 10
-1.3536700000000002
 20
-3.9934400000000005
 30
0.0
 10
-1.3536700000000002
 20
-3.9934400000000005
 30
0.0
 10
-1.4501900000000001
 20
-3.5210000000000004
 30
0.0
 10
-1.7219700000000002
 20
-3.0587200000000001
 30
0.0
 10
-1.6406900000000002
 20
-2.5532600000000003
 30
0.0
 10
-1.6406900000000002
 20
-2.5532600000000003
 30
0.0
 10
-1.6483100000000002
 20
-2.2941800000000003
 30
0.0
 10
-1.6356100000000002
 20
-1.3010400000000002
 30
0.0
 10
-1.6076700000000002
 20
-1.9741400000000002
 30
0.0
 10
-1.6076700000000002
 20
-1.9741400000000002
 30
0.0
 10
-1.5187700000000002
 20
-2.6777200000000003
 30
0.0
 10
-1.5746500000000001
 20
-3.4625800000000004
 30
0.0
 10
-1.04379
 20
-4.0213800000000006
 30
0.0
 10
-1.04379
 20
-4.0213800000000006
 30
0.0
 10
-0.9777500000000001
 20
-4.0823400000000003
 30
0.0
 10
-0.9142500000000001
 20
-3.9832800000000002
 30
0.0
 10
-0.8507500000000001
 20
-4.0289999999999999
 30
0.0
 10
-0.8507500000000001
 20
-4.0289999999999999
 30
0.0
 10
-0.20559
 20
-4.6360600000000005
 30
0.0
 10
0.8739000000000001
 20
-4.7402000000000006
 30
0.0
 10
1.7171800000000002
 20
-4.6132
 30
0.0
 10
1.7171800000000002
 20
-4.6132
 30
0.0
 10
1.9534000000000002
 20
-4.4582600000000001
 30
0.0
 10
2.0651600000000001
 20
-4.1509200000000002
 30
0.0
 10
2.2074000000000003
 20
-3.8994600000000004
 30
0.0
 10
2.2074000000000003
 20
-3.8994600000000004
 30
0.0
 10
2.4029800000000003
 20
-4.7198800000000007
 30
0.0
 10
1.8162400000000001
 20
-5.2405800000000005
 30
0.0
 10
1.3869800000000001
 20
-5.7993800000000002
 30
0.0
 10
1.3869800000000001
 20
-5.7993800000000002
 30
0.0
 10
1.3742800000000002
 20
-5.8628800000000005
 30
0.0
 10
1.3285600000000002
 20
-5.9187600000000007
 30
0.0
 10
1.2853800000000002
 20
-5.9594000000000005
 30
0.0
 10
1.2853800000000002
 20
-5.9594000000000005
 30
0.0
 10
1.2523600000000001
 20
-5.4209200000000006
 30
0.0
 10
1.8416400000000002
 20
-5.0653200000000007
 30
0.0
 10
1.9457800000000001
 20
-4.5497000000000005
 30
0.0
 10
1.9457800000000001
 20
-4.5497000000000005
 30
0.0
 10
1.9457800000000001
 20
-4.5497000000000005
 30
0.0
 10
1.6740000000000002
 20
-4.8722800000000008
 30
0.0
 10
1.6740000000000002
 20
-4.8722800000000008
 30
0.0
 10
1.6740000000000002
 20
-4.8722800000000008
 30
0.0
 10
1.6740000000000002
 20
-4.8722800000000008
 30
0.0
 10
1.39968
 20
-5.2482000000000006
 30
0.0
 10
1.39968
 20
-5.2482000000000006
 30
0.0
 10
1.39968
 20
-5.2482000000000006
 30
0.0
 10
1.3514200000000001
 20
-5.49458
 30
0.0
 10
1.0974200000000001
 20
-5.1593
 30
0.0
 10
1.2295
 20
-5.1237400000000006
 30
0.0
 10
1.2295
 20
-5.1237400000000006
 30
0.0
 10
1.2295
 20
-5.1237400000000006
 30
0.0
 10
1.5368400000000002
 20
-4.8799000000000001
 30
0.0
 10
1.5368400000000002
 20
-4.8799000000000001
 30
0.0
 10
1.5368400000000002
 20
-4.8799000000000001
 30
0.0
 10
1.5368400000000002
 20
-4.8799000000000001
 30
0.0
 10
1.7451200000000002
 20
-4.7198800000000007
 30
0.0
 10
1.7451200000000002
 20
-4.7198800000000007
 30
0.0
 10
1.7451200000000002
 20
-4.7198800000000007
 30
0.0
 10
1.7908400000000002
 20
-4.5878000000000005
 30
0.0
 10
1.56986
 20
-4.6792400000000001
 30
0.0
 10
1.4758800000000001
 20
-4.7960800000000008
 30
0.0
 10
1.4758800000000001
 20
-4.7960800000000008
 30
0.0
 10
1.02122
 20
-5.3599600000000001
 30
0.0
 10
0.2897
 20
-4.8468800000000005
 30
0.0
 10
-0.33005
 20
-4.5192200000000007
 30
0.0
 10
-0.33005
 20
-4.5192200000000007
 30
0.0
 10
-0.48499
 20
-4.4252400000000005
 30
0.0
 10
-0.5662700000000001
 20
-4.4963600000000001
 30
0.0
 10
-0.37069
 20
-4.5598600000000005
 30
0.0
 10
-0.37069
 20
-4.5598600000000005
 30
0.0
 10
-0.10399
 20
-4.6741600000000005
 30
0.0
 10
0.19064
 20
-4.7783000000000007
 30
0.0
 10
0.36336
 20
-5.0069000000000008
 30
0.0
 10
0.36336
 20
-5.0069000000000008
 30
0.0
 10
0.22874
 20
-5.0856400000000006
 30
0.0
 10
0.1754
 20
-5.2609000000000004
 30
0.0
 10
0.03062
 20
-5.3396400000000002
 30
0.0
 10
0.03062
 20
-5.3396400000000002
 30
0.0
 10
-0.09383
 20
-5.1821600000000005
 30
0.0
 10
-0.37831
 20
-5.1948600000000003
 30
0.0
 10
-0.45705
 20
-5.3955200000000003
 30
0.0
  0
SPLINE
  5
8B
100
AcDbEntity
  8
Ebene 1
 62
     7
100
AcDbSpline
210
0.0
220
0.0
230
1.0
 70
     1
 71
     3
 72
    32
 73
    28
 74
     0
 42
0.0000000001
 43
0.0000000001
 40
0.0
 40
0.0
 40
0.0
 40
0.0
 40
0.1428571428571429
 40
0.1428571428571429
 40
0.1428571428571429
 40
0.1428571428571429
 40
0.2857142857142857
 40
0.2857142857142857
 40
0.2857142857142857
 40
0.2857142857142857
 40
0.4285714285714286
 40
0.4285714285714286
 40
0.4285714285714286
 40
0.4285714285714286
 40
0.5714285714285714
 40
0.5714285714285714
 40
0.5714285714285714
 40
0.5714285714285714
 40
0.7142857142857142
 40
0.7142857142857142
 40
0.7142857142857142
 40
0.7142857142857142
 40
0.857142857142857
 40
0.857142857142857
 40
0.857142857142857
 40
0.857142857142857
 40
1.0
 40
1.0
 40
1.0
 40
1.0
 10
-0.71613
 20
-1.1105400000000001
 30
0.0
 10
-0.58913
 20
-1.2654800000000002
 30
0.0
 10
-0.6500900000000001
 20
-1.5525000000000002
 30
0.0
 10
-0.7034300000000001
 20
-1.7455400000000001
 30
0.0
 10
-0.7034300000000001
 20
-1.7455400000000001
 30
0.0
 10
-0.70089
 20
-1.7684000000000002
 30
0.0
 10
-0.6627900000000001
 20
-1.7607800000000002
 30
0.0
 10
-0.6475500000000001
 20
-1.7557
 30
0.0
 10
-0.6475500000000001
 20
-1.7557
 30
0.0
 10
-0.63485
 20
-1.7049000000000001
 30
0.0
 10
-0.6272300000000001
 20
-1.6363200000000002
 30
0.0
 10
-0.5865900000000001
 20
-1.6033000000000002
 30
0.0
 10
-0.5865900000000001
 20
-1.6033000000000002
 30
0.0
 10
-0.53325
 20
-1.7379200000000001
 30
0.0
 10
-0.6043700000000001
 20
-1.9639800000000001
 30
0.0
 10
-0.7034300000000001
 20
-2.06304
 30
0.0
 10
-0.7034300000000001
 20
-2.06304
 30
0.0
 10
-0.7034300000000001
 20
-2.06304
 30
0.0
 10
-0.78471
 20
-2.01478
 30
0.0
 10
-0.78471
 20
-2.01478
 30
0.0
 10
-0.78471
 20
-2.01478
 30
0.0
 10
-0.7770900000000001
 20
-1.8903200000000002
 30
0.0
 10
-0.7745500000000001
 20
-1.7506200000000001
 30
0.0
 10
-0.7339100000000001
 20
-1.6337800000000002
 30
0.0
 10
-0.7339100000000001
 20
-1.6337800000000002
 30
0.0
 10
-0.9269500000000001
 20
-1.5093200000000002
 30
0.0
 10
-0.7262900000000001
 20
-1.2807200000000001
 30
0.0
 10
-0.71613
 20
-1.1105400000000001
 30
0.0
  0
SPLINE
  5
8C
100
AcDbEntity
  8
Ebene 1
 62
     7
100
AcDbSpline
210
0.0
220
0.0
230
1.0
 70
     1
 71
     3
 72
    12
 73
     8
 74
     0
 42
0.0000000001
 43
0.0000000001
 40
0.0
 40
0.0
 40
0.0
 40
0.0
 40
0.5
 40
0.5
 40
0.5
 40
0.5
 40
1.0
 40
1.0
 40
1.0
 40
1.0
 10
-2.5347700000000004
 20
-1.1537200000000001
 30
0.0
 10
-2.4890500000000002
 20
-1.16896
 30
0.0
 10
-2.5068300000000003
 20
-1.2324600000000001
 30
0.0
 10
-2.5093700000000001
 20
-1.2654800000000002
 30
0.0
 10
-2.5093700000000001
 20
-1.2654800000000002
 30
0.0
 10
-2.6008100000000001
 20
-1.29596
 30
0.0
 10
-2.61097
 20
-1.1740400000000002
 30
0.0
 10
-2.5347700000000004
 20
-1.1537200000000001
 30
0.0
  0
SPLINE
  5
8D
100
AcDbEntity
  8
Ebene 1
 62
     7
100
AcDbSpline
210
0.0
220
0.0
230
1.0
 70
     1
 71
     3
 72
    12
 73
     8
 74
     0
 42
0.0000000001
 43
0.0000000001
 40
0.0
 40
0.0
 40
0.0
 40
0.0
 40
0.5
 40
0.5
 40
0.5
 40
0.5
 40
1.0
 40
1.0
 40
1.0
 40
1.0
 10
2.16676
 20
-1.4280400000000002
 30
0.0
 10
2.3039200000000002
 20
-1.7404600000000001
 30
0.0
 10
2.5426800000000003
 20
-2.1875
 30
0.0
 10
2.3242400000000001
 20
-2.5405600000000002
 30
0.0
 10
2.3242400000000001
 20
-2.5405600000000002
 30
0.0
 10
2.33948
 20
-2.1595600000000004
 30
0.0
 10
2.2201
 20
-1.79634
 30
0.0
 10
2.16676
 20
-1.4280400000000002
 30
0.0
  0
SPLINE
  5
8E
100
AcDbEntity
  8
Ebene 1
 62
     7
100
AcDbSpline
210
0.0
220
0.0
230
1.0
 70
     1
 71
     3
 72
    12
 73
     8
 74
     0
 42
0.0000000001
 43
0.0000000001
 40
0.0
 40
0.0
 40
0.0
 40
0.0
 40
0.5
 40
0.5
 40
0.5
 40
0.5
 40
1.0
 40
1.0
 40
1.0
 40
1.0
 10
-3.3577300000000001
 20
-1.58806
 30
0.0
 10
-3.3170900000000003
 20
-1.5677400000000001
 30
0.0
 10
-3.2510500000000002
 20
-1.6236200000000001
 30
0.0
 10
-3.2891500000000002
 20
-1.6541000000000001
 30
0.0
 10
-3.2891500000000002
 20
-1.6541000000000001
 30
0.0
 10
-3.3374100000000002
 20
-1.6820400000000002
 30
0.0
 10
-3.4161500000000005
 20
-1.6287
 30
0.0
 10
-3.3577300000000001
 20
-1.58806
 30
0.0
  0
SPLINE
  5
8F
100
AcDbEntity
  8
Ebene 1
 62
     7
100
AcDbSpline
210
0.0
220
0.0
230
1.0
 70
     1
 71
     3
 72
    16
 73
    12
 74
     0
 42
0.0000000001
 43
0.0000000001
 40
0.0
 40
0.0
 40
0.0
 40
0.0
 40
0.3333333333333333
 40
0.3333333333333333
 40
0.3333333333333333
 40
0.3333333333333333
 40
0.6666666666666666
 40
0.6666666666666666
 40
0.6666666666666666
 40
0.6666666666666666
 40
1.0
 40
1.0
 40
1.0
 40
1.0
 10
2.5274400000000004
 20
-1.6033000000000002
 30
0.0
 10
2.5477600000000002
 20
-1.5956800000000002
 30
0.0
 10
2.5630000000000002
 20
-1.6109200000000001
 30
0.0
 10
2.5553800000000004
 20
-1.63124
 30
0.0
 10
2.5553800000000004
 20
-1.63124
 30
0.0
 10
2.4664800000000002
 20
-1.9284200000000002
 30
0.0
 10
2.7408000000000001
 20
-2.2637
 30
0.0
 10
2.45886
 20
-2.5050000000000003
 30
0.0
 10
2.45886
 20
-2.5050000000000003
 30
0.0
 10
2.45886
 20
-2.5050000000000003
 30
0.0
 10
2.5274400000000004
 20
-1.6033000000000002
 30
0.0
 10
2.5274400000000004
 20
-1.6033000000000002
 30
0.0
  0
SPLINE
  5
90
100
AcDbEntity
  8
Ebene 1
 62
     7
100
AcDbSpline
210
0.0
220
0.0
230
1.0
 70
     1
 71
     3
 72
    24
 73
    20
 74
     0
 42
0.0000000001
 43
0.0000000001
 40
0.0
 40
0.0
 40
0.0
 40
0.0
 40
0.2
 40
0.2
 40
0.2
 40
0.2
 40
0.4
 40
0.4
 40
0.4
 40
0.4
 40
0.6000000000000001
 40
0.6000000000000001
 40
0.6000000000000001
 40
0.6000000000000001
 40
0.8
 40
0.8
 40
0.8
 40
0.8
 40
1.0
 40
1.0
 40
1.0
 40
1.0
 10
-3.5177500000000004
 20
-1.6160000000000001
 30
0.0
 10
-3.4948900000000003
 20
-1.6134600000000001
 30
0.0
 10
-3.4745700000000004
 20
-1.6134600000000001
 30
0.0
 10
-3.4618700000000002
 20
-1.6337800000000002
 30
0.0
 10
-3.4618700000000002
 20
-1.6337800000000002
 30
0.0
 10
-3.4542500000000005
 20
-1.6591800000000001
 30
0.0
 10
-3.4339300000000001
 20
-1.6845800000000002
 30
0.0
 10
-3.4466300000000003
 20
-1.71252
 30
0.0
 10
-3.4466300000000003
 20
-1.71252
 30
0.0
 10
-3.4466300000000003
 20
-1.71252
 30
0.0
 10
-3.8581100000000004
 20
-1.8573000000000002
 30
0.0
 10
-3.8581100000000004
 20
-1.8573000000000002
 30
0.0
 10
-3.8581100000000004
 20
-1.8573000000000002
 30
0.0
 10
-3.8784300000000003
 20
-1.8039600000000002
 30
0.0
 10
-3.7742900000000001
 20
-1.7353800000000001
 30
0.0
 10
-3.7209500000000002
 20
-1.71252
 30
0.0
 10
-3.7209500000000002
 20
-1.71252
 30
0.0
 10
-3.7209500000000002
 20
-1.71252
 30
0.0
 10
-3.5177500000000004
 20
-1.6160000000000001
 30
0.0
 10
-3.5177500000000004
 20
-1.6160000000000001
 30
0.0
  0
SPLINE
  5
91
100
AcDbEntity
  8
Ebene 1
 62
     7
100
AcDbSpline
210
0.0
220
0.0
230
1.0
 70
     1
 71
     3
 72
    12
 73
     8
 74
     0
 42
0.0000000001
 43
0.0000000001
 40
0.0
 40
0.0
 40
0.0
 40
0.0
 40
0.5
 40
0.5
 40
0.5
 40
0.5
 40
1.0
 40
1.0
 40
1.0
 40
1.0
 10
2.7001600000000003
 20
-1.7328400000000002
 30
0.0
 10
2.75604
 20
-1.8115800000000002
 30
0.0
 10
2.7357200000000002
 20
-1.9792200000000002
 30
0.0
 10
2.7001600000000003
 20
-2.06304
 30
0.0
 10
2.7001600000000003
 20
-2.06304
 30
0.0
 10
2.6646000000000001
 20
-1.9665200000000003
 30
0.0
 10
2.6620600000000003
 20
-1.8369800000000001
 30
0.0
 10
2.7001600000000003
 20
-1.7328400000000002
 30
0.0
  0
SPLINE
  5
92
100
AcDbEntity
  8
Ebene 1
 62
     7
100
AcDbSpline
210
0.0
220
0.0
230
1.0
 70
     1
 71
     3
 72
    28
 73
    24
 74
     0
 42
0.0000000001
 43
0.0000000001
 40
0.0
 40
0.0
 40
0.0
 40
0.0
 40
0.1666666666666667
 40
0.1666666666666667
 40
0.1666666666666667
 40
0.1666666666666667
 40
0.3333333333333333
 40
0.3333333333333333
 40
0.3333333333333333
 40
0.3333333333333333
 40
0.5
 40
0.5
 40
0.5
 40
0.5
 40
0.6666666666666666
 40
0.6666666666666666
 40
0.6666666666666666
 40
0.6666666666666666
 40
0.8333333333333333
 40
0.8333333333333333
 40
0.8333333333333333
 40
0.8333333333333333
 40
1.0
 40
1.0
 40
1.0
 40
1.0
 10
-2.7074900000000004
 20
-1.7887200000000001
 30
0.0
 10
-2.6592300000000004
 20
-1.7938000000000001
 30
0.0
 10
-2.5982700000000003
 20
-1.7709400000000002
 30
0.0
 10
-2.56779
 20
-1.8217400000000001
 30
0.0
 10
-2.56779
 20
-1.8217400000000001
 30
0.0
 10
-2.56779
 20
-1.8217400000000001
 30
0.0
 10
-2.5804900000000002
 20
-1.9157200000000001
 30
0.0
 10
-2.5804900000000002
 20
-1.9157200000000001
 30
0.0
 10
-2.5804900000000002
 20
-1.9157200000000001
 30
0.0
 10
-2.5804900000000002
 20
-1.9157200000000001
 30
0.0
 10
-3.0199100000000003
 20
-2.01478
 30
0.0
 10
-3.0199100000000003
 20
-2.01478
 30
0.0
 10
-3.0199100000000003
 20
-2.01478
 30
0.0
 10
-3.0935700000000002
 20
-1.9360400000000002
 30
0.0
 10
-3.2459700000000002
 20
-1.9335000000000002
 30
0.0
 10
-3.2942300000000002
 20
-1.8496800000000002
 30
0.0
 10
-3.2942300000000002
 20
-1.8496800000000002
 30
0.0
 10
-3.2942300000000002
 20
-1.8496800000000002
 30
0.0
 10
-3.0783300000000002
 20
-1.8369800000000001
 30
0.0
 10
-3.0783300000000002
 20
-1.8369800000000001
 30
0.0
 10
-3.0783300000000002
 20
-1.8369800000000001
 30
0.0
 10
-2.9614900000000004
 20
-1.8598400000000002
 30
0.0
 10
-2.8090900000000003
 20
-1.8369800000000001
 30
0.0
 10
-2.7074900000000004
 20
-1.7887200000000001
 30
0.0
  0
SPLINE
  5
93
100
AcDbEntity
  8
Ebene 1
100
AcDbSpline
210
0.0
220
0.0
230
1.0
 70
     1
 71
     3
 72
    24
 73
    20
 74
     0
 42
0.0000000001
 43
0.0000000001
 40
0.0
 40
0.0
 40
0.0
 40
0.0
 40
0.2
 40
0.2
 40
0.2
 40
0.2
 40
0.4
 40
0.4
 40
0.4
 40
0.4
 40
0.6000000000000001
 40
0.6000000000000001
 40
0.6000000000000001
 40
0.6000000000000001
 40
0.8
 40
0.8
 40
0.8
 40
0.8
 40
1.0
 40
1.0
 40
1.0
 40
1.0
 10
1.3285600000000002
 20
-1.7887200000000001
 30
0.0
 10
1.3285600000000002
 20
-1.7887200000000001
 30
0.0
 10
1.4555600000000002
 20
-1.8217400000000001
 30
0.0
 10
1.4555600000000002
 20
-1.8217400000000001
 30
0.0
 10
1.4555600000000002
 20
-1.8217400000000001
 30
0.0
 10
1.4657200000000001
 20
-2.10114
 30
0.0
 10
1.48858
 20
-2.4745200000000001
 30
0.0
 10
1.3057000000000001
 20
-2.6929600000000002
 30
0.0
 10
1.3057000000000001
 20
-2.6929600000000002
 30
0.0
 10
1.40222
 20
-2.4262600000000001
 30
0.0
 10
1.35904
 20
-2.1748000000000003
 30
0.0
 10
1.3565
 20
-1.9081000000000001
 30
0.0
 10
1.3565
 20
-1.9081000000000001
 30
0.0
 10
1.3565
 20
-1.9081000000000001
 30
0.0
 10
1.3006200000000001
 20
-1.8623800000000001
 30
0.0
 10
1.3006200000000001
 20
-1.8623800000000001
 30
0.0
 10
1.3006200000000001
 20
-1.8623800000000001
 30
0.0
 10
1.2930000000000001
 20
-1.8268200000000001
 30
0.0
 10
1.3057000000000001
 20
-1.8065000000000002
 30
0.0
 10
1.3285600000000002
 20
-1.7887200000000001
 30
0.0
  0
SPLINE
  5
94
100
AcDbEntity
  8
Ebene 1
 62
     7
100
AcDbSpline
210
0.0
220
0.0
230
1.0
 70
     1
 71
     3
 72
    24
 73
    20
 74
     0
 42
0.0000000001
 43
0.0000000001
 40
0.0
 40
0.0
 40
0.0
 40
0.0
 40
0.2
 40
0.2
 40
0.2
 40
0.2
 40
0.4
 40
0.4
 40
0.4
 40
0.4
 40
0.6000000000000001
 40
0.6000000000000001
 40
0.6000000000000001
 40
0.6000000000000001
 40
0.8
 40
0.8
 40
0.8
 40
0.8
 40
1.0
 40
1.0
 40
1.0
 40
1.0
 10
-2.7227300000000003
 20
-2.0782800000000003
 30
0.0
 10
-2.69225
 20
-2.0782800000000003
 30
0.0
 10
-2.6439900000000001
 20
-2.0655800000000002
 30
0.0
 10
-2.6363700000000003
 20
-2.10622
 30
0.0
 10
-2.6363700000000003
 20
-2.10622
 30
0.0
 10
-2.6363700000000003
 20
-2.10622
 30
0.0
 10
-2.6668500000000002
 20
-2.1595600000000004
 30
0.0
 10
-2.6668500000000002
 20
-2.1595600000000004
 30
0.0
 10
-2.6668500000000002
 20
-2.1595600000000004
 30
0.0
 10
-2.9132300000000004
 20
-2.2002000000000002
 30
0.0
 10
-3.1748500000000002
 20
-2.2179800000000003
 30
0.0
 10
-3.4110700000000005
 20
-2.1900400000000002
 30
0.0
 10
-3.4110700000000005
 20
-2.1900400000000002
 30
0.0
 10
-3.4110700000000005
 20
-2.1900400000000002
 30
0.0
 10
-3.2104100000000004
 20
-2.13924
 30
0.0
 10
-3.2104100000000004
 20
-2.13924
 30
0.0
 10
-3.2104100000000004
 20
-2.13924
 30
0.0
 10
-3.0503900000000002
 20
-2.1494
 30
0.0
 10
-2.8725900000000002
 20
-2.1113
 30
0.0
 10
-2.7227300000000003
 20
-2.0782800000000003
 30
0.0
  0
SPLINE
  5
95
100
AcDbEntity
  8
Ebene 1
100
AcDbSpline
210
0.0
220
0.0
230
1.0
 70
     1
 71
     3
 72
    32
 73
    28
 74
     0
 42
0.0000000001
 43
0.0000000001
 40
0.0
 40
0.0
 40
0.0
 40
0.0
 40
0.1428571428571429
 40
0.1428571428571429
 40
0.1428571428571429
 40
0.1428571428571429
 40
0.2857142857142857
 40
0.2857142857142857
 40
0.2857142857142857
 40
0.2857142857142857
 40
0.4285714285714286
 40
0.4285714285714286
 40
0.4285714285714286
 40
0.4285714285714286
 40
0.5714285714285714
 40
0.5714285714285714
 40
0.5714285714285714
 40
0.5714285714285714
 40
0.7142857142857142
 40
0.7142857142857142
 40
0.7142857142857142
 40
0.7142857142857142
 40
0.857142857142857
 40
0.857142857142857
 40
0.857142857142857
 40
0.857142857142857
 40
1.0
 40
1.0
 40
1.0
 40
1.0
 10
0.3913
 20
-2.0782800000000003
 30
0.0
 10
0.48528
 20
-2.1900400000000002
 30
0.0
 10
0.36082
 20
-2.3627600000000002
 30
0.0
 10
0.3455800000000001
 20
-2.4923000000000002
 30
0.0
 10
0.3455800000000001
 20
-2.4923000000000002
 30
0.0
 10
0.27192
 20
-2.52786
 30
0.0
 10
0.21096
 20
-2.5202400000000003
 30
0.0
 10
0.14492
 20
-2.4669000000000003
 30
0.0
 10
0.14492
 20
-2.4669000000000003
 30
0.0
 10
0.14492
 20
-2.4669000000000003
 30
0.0
 10
0.07888
 20
-2.5050000000000003
 30
0.0
 10
0.07888
 20
-2.5050000000000003
 30
0.0
 10
0.07888
 20
-2.5050000000000003
 30
0.0
 10
-0.01763
 20
-2.43642
 30
0.0
 10
0.1881
 20
-2.2078200000000003
 30
0.0
 10
0.22366
 20
-2.3348200000000001
 30
0.0
 10
0.22366
 20
-2.3348200000000001
 30
0.0
 10
0.24652
 20
-2.3373600000000003
 30
0.0
 10
0.26684
 20
-2.3424400000000003
 30
0.0
 10
0.27954
 20
-2.3627600000000002
 30
0.0
 10
0.27954
 20
-2.3627600000000002
 30
0.0
 10
0.29478
 20
-2.3729200000000001
 30
0.0
 10
0.30494
 20
-2.3576800000000002
 30
0.0
 10
0.31764
 20
-2.3475200000000003
 30
0.0
 10
0.31764
 20
-2.3475200000000003
 30
0.0
 10
0.35066
 20
-2.2560800000000003
 30
0.0
 10
0.39638
 20
-2.1697200000000003
 30
0.0
 10
0.3913
 20
-2.0782800000000003
 30
0.0
  0
SPLINE
  5
96
100
AcDbEntity
  8
Ebene 1
100
AcDbSpline
210
0.0
220
0.0
230
1.0
 70
     1
 71
     3
 72
    24
 73
    20
 74
     0
 42
0.0000000001
 43
0.0000000001
 40
0.0
 40
0.0
 40
0.0
 40
0.0
 40
0.2
 40
0.2
 40
0.2
 40
0.2
 40
0.4
 40
0.4
 40
0.4
 40
0.4
 40
0.6000000000000001
 40
0.6000000000000001
 40
0.6000000000000001
 40
0.6000000000000001
 40
0.8
 40
0.8
 40
0.8
 40
0.8
 40
1.0
 40
1.0
 40
1.0
 40
1.0
 10
1.9788000000000001
 20
-2.0782800000000003
 30
0.0
 10
1.9788000000000001
 20
-2.0782800000000003
 30
0.0
 10
2.0042
 20
-2.0808200000000001
 30
0.0
 10
2.0042
 20
-2.0808200000000001
 30
0.0
 10
2.0042
 20
-2.0808200000000001
 30
0.0
 10
2.0346800000000003
 20
-2.3043400000000003
 30
0.0
 10
2.0296000000000003
 20
-2.7132800000000001
 30
0.0
 10
1.7222600000000001
 20
-2.6650200000000002
 30
0.0
 10
1.7222600000000001
 20
-2.6650200000000002
 30
0.0
 10
1.7171800000000002
 20
-2.5862800000000004
 30
0.0
 10
1.7679800000000001
 20
-2.5050000000000003
 30
0.0
 10
1.8314800000000002
 20
-2.4643600000000001
 30
0.0
 10
1.8314800000000002
 20
-2.4643600000000001
 30
0.0
 10
1.8391000000000002
 20
-2.3856200000000003
 30
0.0
 10
1.8162400000000001
 20
-2.2433800000000002
 30
0.0
 10
1.9330800000000001
 20
-2.2459200000000004
 30
0.0
 10
1.9330800000000001
 20
-2.2459200000000004
 30
0.0
 10
1.9330800000000001
 20
-2.2459200000000004
 30
0.0
 10
1.9788000000000001
 20
-2.0782800000000003
 30
0.0
 10
1.9788000000000001
 20
-2.0782800000000003
 30
0.0
  0
SPLINE
  5
97
100
AcDbEntity
  8
Ebene 1
100
AcDbSpline
210
0.0
220
0.0
230
1.0
 70
     1
 71
     3
 72
    20
 73
    16
 74
     0
 42
0.0000000001
 43
0.0000000001
 40
0.0
 40
0.0
 40
0.0
 40
0.0
 40
0.25
 40
0.25
 40
0.25
 40
0.25
 40
0.5
 40
0.5
 40
0.5
 40
0.5
 40
0.75
 40
0.75
 40
0.75
 40
0.75
 40
1.0
 40
1.0
 40
1.0
 40
1.0
 10
1.6181200000000002
 20
-2.1494
 30
0.0
 10
1.6181200000000002
 20
-2.1494
 30
0.0
 10
1.6740000000000002
 20
-2.18242
 30
0.0
 10
1.6740000000000002
 20
-2.18242
 30
0.0
 10
1.6740000000000002
 20
-2.18242
 30
0.0
 10
1.69432
 20
-2.3449800000000001
 30
0.0
 10
1.7603600000000001
 20
-2.7310600000000003
 30
0.0
 10
1.4936600000000002
 20
-2.6802600000000001
 30
0.0
 10
1.4936600000000002
 20
-2.6802600000000001
 30
0.0
 10
1.4936600000000002
 20
-2.6802600000000001
 30
0.0
 10
1.4936600000000002
 20
-2.6421600000000001
 30
0.0
 10
1.4936600000000002
 20
-2.6421600000000001
 30
0.0
 10
1.4936600000000002
 20
-2.6421600000000001
 30
0.0
 10
1.6308200000000002
 20
-2.5177
 30
0.0
 10
1.5190600000000001
 20
-2.2713200000000002
 30
0.0
 10
1.6181200000000002
 20
-2.1494
 30
0.0
  0
SPLINE
  5
98
100
AcDbEntity
  8
Ebene 1
 62
     7
100
AcDbSpline
210
0.0
220
0.0
230
1.0
 70
     1
 71
     3
 72
    32
 73
    28
 74
     0
 42
0.0000000001
 43
0.0000000001
 40
0.0
 40
0.0
 40
0.0
 40
0.0
 40
0.1428571428571429
 40
0.1428571428571429
 40
0.1428571428571429
 40
0.1428571428571429
 40
0.2857142857142857
 40
0.2857142857142857
 40
0.2857142857142857
 40
0.2857142857142857
 40
0.4285714285714286
 40
0.4285714285714286
 40
0.4285714285714286
 40
0.4285714285714286
 40
0.5714285714285714
 40
0.5714285714285714
 40
0.5714285714285714
 40
0.5714285714285714
 40
0.7142857142857142
 40
0.7142857142857142
 40
0.7142857142857142
 40
0.7142857142857142
 40
0.857142857142857
 40
0.857142857142857
 40
0.857142857142857
 40
0.857142857142857
 40
1.0
 40
1.0
 40
1.0
 40
1.0
 10
-1.03363
 20
-2.2078200000000003
 30
0.0
 10
-1.0082300000000002
 20
-2.3221200000000004
 30
0.0
 10
-1.11999
 20
-2.4542000000000002
 30
0.0
 10
-1.1022100000000001
 20
-2.5862800000000004
 30
0.0
 10
-1.1022100000000001
 20
-2.5862800000000004
 30
0.0
 10
-1.1174500000000001
 20
-2.6243800000000004
 30
0.0
 10
-1.1072900000000001
 20
-2.7361400000000002
 30
0.0
 10
-1.0514100000000002
 20
-2.6802600000000001
 30
0.0
 10
-1.0514100000000002
 20
-2.6802600000000001
 30
0.0
 10
-1.0514100000000002
 20
-2.6802600000000001
 30
0.0
 10
-0.9625100000000001
 20
-2.4669000000000003
 30
0.0
 10
-0.9625100000000001
 20
-2.4669000000000003
 30
0.0
 10
-0.9625100000000001
 20
-2.4669000000000003
 30
0.0
 10
-0.9548900000000001
 20
-2.3856200000000003
 30
0.0
 10
-0.9040900000000001
 20
-2.1976600000000004
 30
0.0
 10
-0.80503
 20
-2.3221200000000004
 30
0.0
 10
-0.80503
 20
-2.3221200000000004
 30
0.0
 10
-0.8786900000000001
 20
-2.4643600000000001
 30
0.0
 10
-0.90917
 20
-2.6193000000000004
 30
0.0
 10
-0.9218700000000001
 20
-2.7793200000000002
 30
0.0
 10
-0.9218700000000001
 20
-2.7793200000000002
 30
0.0
 10
-1.03871
 20
-2.8758400000000002
 30
0.0
 10
-1.29017
 20
-2.7793200000000002
 30
0.0
 10
-1.1784100000000002
 20
-2.6116800000000002
 30
0.0
 10
-1.1784100000000002
 20
-2.6116800000000002
 30
0.0
 10
-1.1885700000000001
 20
-2.4592800000000001
 30
0.0
 10
-1.1098300000000001
 20
-2.3297400000000001
 30
0.0
 10
-1.03363
 20
-2.2078200000000003
 30
0.0
  0
SPLINE
  5
99
100
AcDbEntity
  8
Ebene 1
 62
     7
100
AcDbSpline
210
0.0
220
0.0
230
1.0
 70
     1
 71
     3
 72
    12
 73
     8
 74
     0
 42
0.0000000001
 43
0.0000000001
 40
0.0
 40
0.0
 40
0.0
 40
0.0
 40
0.5
 40
0.5
 40
0.5
 40
0.5
 40
1.0
 40
1.0
 40
1.0
 40
1.0
 10
-2.7532100000000002
 20
-2.3094200000000003
 30
0.0
 10
-2.6160500000000004
 20
-2.4288000000000003
 30
0.0
 10
-3.0910300000000004
 20
-2.3856200000000003
 30
0.0
 10
-2.8903700000000003
 20
-2.3399000000000001
 30
0.0
 10
-2.8903700000000003
 20
-2.3399000000000001
 30
0.0
 10
-2.8903700000000003
 20
-2.3399000000000001
 30
0.0
 10
-2.7532100000000002
 20
-2.3094200000000003
 30
0.0
 10
-2.7532100000000002
 20
-2.3094200000000003
 30
0.0
  0
SPLINE
  5
9A
100
AcDbEntity
  8
Ebene 1
 62
     7
100
AcDbSpline
210
0.0
220
0.0
230
1.0
 70
     1
 71
     3
 72
    28
 73
    24
 74
     0
 42
0.0000000001
 43
0.0000000001
 40
0.0
 40
0.0
 40
0.0
 40
0.0
 40
0.1666666666666667
 40
0.1666666666666667
 40
0.1666666666666667
 40
0.1666666666666667
 40
0.3333333333333333
 40
0.3333333333333333
 40
0.3333333333333333
 40
0.3333333333333333
 40
0.5
 40
0.5
 40
0.5
 40
0.5
 40
0.6666666666666666
 40
0.6666666666666666
 40
0.6666666666666666
 40
0.6666666666666666
 40
0.8333333333333333
 40
0.8333333333333333
 40
0.8333333333333333
 40
0.8333333333333333
 40
1.0
 40
1.0
 40
1.0
 40
1.0
 10
-0.6297700000000001
 20
-2.3957800000000002
 30
0.0
 10
-0.5154700000000001
 20
-2.5507200000000001
 30
0.0
 10
-0.6500900000000001
 20
-2.7590000000000003
 30
0.0
 10
-0.67549
 20
-2.9241000000000001
 30
0.0
 10
-0.67549
 20
-2.9241000000000001
 30
0.0
 10
-0.67549
 20
-2.9241000000000001
 30
0.0
 10
-0.82789
 20
-2.9114000000000004
 30
0.0
 10
-0.82789
 20
-2.9114000000000004
 30
0.0
 10
-0.82789
 20
-2.9114000000000004
 30
0.0
 10
-0.91171
 20
-2.7894800000000002
 30
0.0
 10
-0.8939300000000001
 20
-2.4491200000000002
 30
0.0
 10
-0.71867
 20
-2.4567400000000004
 30
0.0
 10
-0.71867
 20
-2.4567400000000004
 30
0.0
 10
-0.71867
 20
-2.4567400000000004
 30
0.0
 10
-0.7466100000000001
 20
-2.5685000000000002
 30
0.0
 10
-0.7466100000000001
 20
-2.5685000000000002
 30
0.0
 10
-0.7466100000000001
 20
-2.5685000000000002
 30
0.0
 10
-0.7466100000000001
 20
-2.5685000000000002
 30
0.0
 10
-0.8126500000000001
 20
-2.8529800000000001
 30
0.0
 10
-0.8126500000000001
 20
-2.8529800000000001
 30
0.0
 10
-0.8126500000000001
 20
-2.8529800000000001
 30
0.0
 10
-0.63739
 20
-2.7945600000000002
 30
0.0
 10
-0.69581
 20
-2.5456400000000001
 30
0.0
 10
-0.6297700000000001
 20
-2.3957800000000002
 30
0.0
  0
SPLINE
  5
9B
100
AcDbEntity
  8
Ebene 1
100
AcDbSpline
210
0.0
220
0.0
230
1.0
 70
     1
 71
     3
 72
    24
 73
    20
 74
     0
 42
0.0000000001
 43
0.0000000001
 40
0.0
 40
0.0
 40
0.0
 40
0.0
 40
0.2
 40
0.2
 40
0.2
 40
0.2
 40
0.4
 40
0.4
 40
0.4
 40
0.4
 40
0.6000000000000001
 40
0.6000000000000001
 40
0.6000000000000001
 40
0.6000000000000001
 40
0.8
 40
0.8
 40
0.8
 40
0.8
 40
1.0
 40
1.0
 40
1.0
 40
1.0
 10
0.47766
 20
-2.4389600000000002
 30
0.0
 10
0.5208400000000001
 20
-2.4313400000000001
 30
0.0
 10
0.5233800000000001
 20
-2.4796
 30
0.0
 10
0.5259200000000001
 20
-2.5050000000000003
 30
0.0
 10
0.5259200000000001
 20
-2.5050000000000003
 30
0.0
 10
0.5843400000000001
 20
-2.4516600000000004
 30
0.0
 10
0.5868800000000001
 20
-2.52786
 30
0.0
 10
0.6122800000000001
 20
-2.5786600000000002
 30
0.0
 10
0.6122800000000001
 20
-2.5786600000000002
 30
0.0
 10
0.6681600000000001
 20
-2.5075400000000001
 30
0.0
 10
0.7723000000000001
 20
-2.52786
 30
0.0
 10
0.7342000000000001
 20
-2.6370800000000001
 30
0.0
 10
0.7342000000000001
 20
-2.6370800000000001
 30
0.0
 10
0.7342000000000001
 20
-2.6370800000000001
 30
0.0
 10
0.6503800000000001
 20
-2.5964400000000003
 30
0.0
 10
0.6503800000000001
 20
-2.5964400000000003
 30
0.0
 10
0.6503800000000001
 20
-2.5964400000000003
 30
0.0
 10
0.5691000000000001
 20
-2.6980400000000002
 30
0.0
 10
0.40146
 20
-2.5431000000000004
 30
0.0
 10
0.47766
 20
-2.4389600000000002
 30
0.0
  0
SPLINE
  5
9C
100
AcDbEntity
  8
Ebene 1
 62
     7
100
AcDbSpline
210
0.0
220
0.0
230
1.0
 70
     1
 71
     3
 72
    16
 73
    12
 74
     0
 42
0.0000000001
 43
0.0000000001
 40
0.0
 40
0.0
 40
0.0
 40
0.0
 40
0.3333333333333333
 40
0.3333333333333333
 40
0.3333333333333333
 40
0.3333333333333333
 40
0.6666666666666666
 40
0.6666666666666666
 40
0.6666666666666666
 40
0.6666666666666666
 40
1.0
 40
1.0
 40
1.0
 40
1.0
 10
-0.47229
 20
-2.5253200000000002
 30
0.0
 10
-0.39355
 20
-2.52278
 30
0.0
 10
-0.32497
 20
-2.5456400000000001
 30
0.0
 10
-0.25893
 20
-2.57104
 30
0.0
 10
-0.25893
 20
-2.57104
 30
0.0
 10
-0.18527
 20
-2.81996
 30
0.0
 10
-0.3021100000000001
 20
-3.1247600000000002
 30
0.0
 10
-0.5815100000000001
 20
-3.1273000000000004
 30
0.0
 10
-0.5815100000000001
 20
-3.1273000000000004
 30
0.0
 10
-0.63485
 20
-2.9241000000000001
 30
0.0
 10
-0.46213
 20
-2.7361400000000002
 30
0.0
 10
-0.47229
 20
-2.5253200000000002
 30
0.0
  0
SPLINE
  5
9D
100
AcDbEntity
  8
Ebene 1
 62
     7
100
AcDbSpline
210
0.0
220
0.0
230
1.0
 70
     1
 71
     3
 72
    20
 73
    16
 74
     0
 42
0.0000000001
 43
0.0000000001
 40
0.0
 40
0.0
 40
0.0
 40
0.0
 40
0.25
 40
0.25
 40
0.25
 40
0.25
 40
0.5
 40
0.5
 40
0.5
 40
0.5
 40
0.75
 40
0.75
 40
0.75
 40
0.75
 40
1.0
 40
1.0
 40
1.0
 40
1.0
 10
-0.09637
 20
-2.6269200000000001
 30
0.0
 10
0.09412
 20
-2.6294600000000004
 30
0.0
 10
0.07126
 20
-2.8225000000000002
 30
0.0
 10
0.04586
 20
-2.9571200000000002
 30
0.0
 10
0.04586
 20
-2.9571200000000002
 30
0.0
 10
0.10936
 20
-2.9952200000000002
 30
0.0
 10
0.10174
 20
-2.81488
 30
0.0
 10
0.17286
 20
-2.8174200000000003
 30
0.0
 10
0.17286
 20
-2.8174200000000003
 30
0.0
 10
0.1627
 20
-3.0180800000000003
 30
0.0
 10
0.09412
 20
-3.3025600000000002
 30
0.0
 10
-0.16495
 20
-3.2136600000000004
 30
0.0
 10
-0.16495
 20
-3.2136600000000004
 30
0.0
 10
-0.28433
 20
-3.0358600000000004
 30
0.0
 10
-0.10399
 20
-2.81996
 30
0.0
 10
-0.09637
 20
-2.6269200000000001
 30
0.0
  0
SPLINE
  5
9E
100
AcDbEntity
  8
Ebene 1
 62
     7
100
AcDbSpline
210
0.0
220
0.0
230
1.0
 70
     1
 71
     3
 72
    20
 73
    16
 74
     0
 42
0.0000000001
 43
0.0000000001
 40
0.0
 40
0.0
 40
0.0
 40
0.0
 40
0.25
 40
0.25
 40
0.25
 40
0.25
 40
0.5
 40
0.5
 40
0.5
 40
0.5
 40
0.75
 40
0.75
 40
0.75
 40
0.75
 40
1.0
 40
1.0
 40
1.0
 40
1.0
 10
2.3674200000000001
 20
-2.7564600000000001
 30
0.0
 10
2.4969600000000001
 20
-2.8301200000000004
 30
0.0
 10
2.37758
 20
-3.0130000000000003
 30
0.0
 10
2.38774
 20
-3.1273000000000004
 30
0.0
 10
2.38774
 20
-3.1273000000000004
 30
0.0
 10
2.38774
 20
-3.1273000000000004
 30
0.0
 10
2.5096600000000002
 20
-2.9901400000000002
 30
0.0
 10
2.5096600000000002
 20
-2.9901400000000002
 30
0.0
 10
2.5096600000000002
 20
-2.9901400000000002
 30
0.0
 10
2.4766400000000002
 20
-3.1044400000000003
 30
0.0
 10
2.42584
 20
-3.2822400000000003
 30
0.0
 10
2.2861400000000001
 20
-3.3000200000000004
 30
0.0
 10
2.2861400000000001
 20
-3.3000200000000004
 30
0.0
 10
2.3166200000000003
 20
-3.1171400000000005
 30
0.0
 10
2.38266
 20
-2.9418800000000003
 30
0.0
 10
2.3674200000000001
 20
-2.7564600000000001
 30
0.0
  0
SPLINE
  5
9F
100
AcDbEntity
  8
Ebene 1
 62
     7
100
AcDbSpline
210
0.0
220
0.0
230
1.0
 70
     1
 71
     3
 72
    20
 73
    16
 74
     0
 42
0.0000000001
 43
0.0000000001
 40
0.0
 40
0.0
 40
0.0
 40
0.0
 40
0.25
 40
0.25
 40
0.25
 40
0.25
 40
0.5
 40
0.5
 40
0.5
 40
0.5
 40
0.75
 40
0.75
 40
0.75
 40
0.75
 40
1.0
 40
1.0
 40
1.0
 40
1.0
 10
0.72404
 20
-2.8860000000000001
 30
0.0
 10
0.72404
 20
-2.8860000000000001
 30
0.0
 10
0.85104
 20
-2.9037800000000002
 30
0.0
 10
0.85104
 20
-2.9037800000000002
 30
0.0
 10
0.85104
 20
-2.9037800000000002
 30
0.0
 10
0.87136
 20
-3.0942800000000004
 30
0.0
 10
0.8358000000000001
 20
-3.2771600000000003
 30
0.0
 10
0.80786
 20
-3.4727400000000004
 30
0.0
 10
0.80786
 20
-3.4727400000000004
 30
0.0
 10
0.7799200000000001
 20
-3.5108400000000004
 30
0.0
 10
0.7469
 20
-3.5210000000000004
 30
0.0
 10
0.7088000000000001
 20
-3.5362400000000003
 30
0.0
 10
0.7088000000000001
 20
-3.5362400000000003
 30
0.0
 10
0.4167
 20
-3.4397200000000003
 30
0.0
 10
0.6834
 20
-3.0815800000000002
 30
0.0
 10
0.72404
 20
-2.8860000000000001
 30
0.0
  0
SPLINE
  5
A0
100
AcDbEntity
  8
Ebene 1
 62
     7
100
AcDbSpline
210
0.0
220
0.0
230
1.0
 70
     1
 71
     3
 72
    44
 73
    40
 74
     0
 42
0.0000000001
 43
0.0000000001
 40
0.0
 40
0.0
 40
0.0
 40
0.0
 40
0.1
 40
0.1
 40
0.1
 40
0.1
 40
0.2
 40
0.2
 40
0.2
 40
0.2
 40
0.3
 40
0.3
 40
0.3
 40
0.3
 40
0.4
 40
0.4
 40
0.4
 40
0.4
 40
0.5
 40
0.5
 40
0.5
 40
0.5
 40
0.6
 40
0.6
 40
0.6
 40
0.6
 40
0.7
 40
0.7
 40
0.7
 40
0.7
 40
0.7999999999999999
 40
0.7999999999999999
 40
0.7999999999999999
 40
0.7999999999999999
 40
0.8999999999999999
 40
0.8999999999999999
 40
0.8999999999999999
 40
0.8999999999999999
 40
1.0
 40
1.0
 40
1.0
 40
1.0
 10
1.8772000000000002
 20
-2.90124
 30
0.0
 10
1.8772000000000002
 20
-2.90124
 30
0.0
 10
1.9610200000000002
 20
-2.9164800000000004
 30
0.0
 10
1.9610200000000002
 20
-2.9164800000000004
 30
0.0
 10
1.9610200000000002
 20
-2.9164800000000004
 30
0.0
 10
1.9584800000000002
 20
-3.1374600000000004
 30
0.0
 10
1.9635600000000002
 20
-3.5464000000000002
 30
0.0
 10
1.6765400000000001
 20
-3.5210000000000004
 30
0.0
 10
1.6765400000000001
 20
-3.5210000000000004
 30
0.0
 10
1.69432
 20
-3.4879800000000003
 30
0.0
 10
1.7400400000000003
 20
-3.4397200000000003
 30
0.0
 10
1.78068
 20
-3.4727400000000004
 30
0.0
 10
1.78068
 20
-3.4727400000000004
 30
0.0
 10
1.8746600000000002
 20
-3.4295600000000004
 30
0.0
 10
1.8822800000000002
 20
-3.2847800000000005
 30
0.0
 10
1.9076800000000003
 20
-3.1882600000000001
 30
0.0
 10
1.9076800000000003
 20
-3.1882600000000001
 30
0.0
 10
1.9076800000000003
 20
-3.1882600000000001
 30
0.0
 10
1.9254600000000002
 20
-3.0485600000000002
 30
0.0
 10
1.9254600000000002
 20
-3.0485600000000002
 30
0.0
 10
1.9254600000000002
 20
-3.0485600000000002
 30
0.0
 10
1.9407000000000001
 20
-3.0358600000000004
 30
0.0
 10
1.9381600000000001
 20
-3.0079200000000004
 30
0.0
 10
1.9330800000000001
 20
-2.9901400000000002
 30
0.0
 10
1.9330800000000001
 20
-2.9901400000000002
 30
0.0
 10
1.8111600000000001
 20
-3.0409400000000004
 30
0.0
 10
1.9203800000000002
 20
-3.3635200000000003
 30
0.0
 10
1.7375
 20
-3.3736800000000002
 30
0.0
 10
1.7375
 20
-3.3736800000000002
 30
0.0
 10
1.7375
 20
-3.3736800000000002
 30
0.0
 10
1.7222600000000001
 20
-3.3279600000000005
 30
0.0
 10
1.7222600000000001
 20
-3.3279600000000005
 30
0.0
 10
1.7222600000000001
 20
-3.3279600000000005
 30
0.0
 10
1.7070200000000002
 20
-3.2466800000000005
 30
0.0
 10
1.7298800000000001
 20
-3.1679400000000002
 30
0.0
 10
1.7324200000000001
 20
-3.0866600000000002
 30
0.0
 10
1.7324200000000001
 20
-3.0866600000000002
 30
0.0
 10
1.7095600000000002
 20
-2.9876
 30
0.0
 10
1.8314800000000002
 20
-2.9596600000000004
 30
0.0
 10
1.8772000000000002
 20
-2.90124
 30
0.0
  0
SPLINE
  5
A1
100
AcDbEntity
  8
Ebene 1
 62
     7
100
AcDbSpline
210
0.0
220
0.0
230
1.0
 70
     1
 71
     3
 72
    24
 73
    20
 74
     0
 42
0.0000000001
 43
0.0000000001
 40
0.0
 40
0.0
 40
0.0
 40
0.0
 40
0.2
 40
0.2
 40
0.2
 40
0.2
 40
0.4
 40
0.4
 40
0.4
 40
0.4
 40
0.6000000000000001
 40
0.6000000000000001
 40
0.6000000000000001
 40
0.6000000000000001
 40
0.8
 40
0.8
 40
0.8
 40
0.8
 40
1.0
 40
1.0
 40
1.0
 40
1.0
 10
0.9983600000000001
 20
-2.9164800000000004
 30
0.0
 10
0.9983600000000001
 20
-2.9164800000000004
 30
0.0
 10
1.11012
 20
-2.9164800000000004
 30
0.0
 10
1.11012
 20
-2.9164800000000004
 30
0.0
 10
1.11012
 20
-2.9164800000000004
 30
0.0
 10
1.11012
 20
-2.9164800000000004
 30
0.0
 10
1.0745600000000002
 20
-3.4295600000000004
 30
0.0
 10
1.0745600000000002
 20
-3.4295600000000004
 30
0.0
 10
1.0745600000000002
 20
-3.4295600000000004
 30
0.0
 10
1.1609200000000002
 20
-3.3686000000000003
 30
0.0
 10
1.1253600000000001
 20
-3.1882600000000001
 30
0.0
 10
1.1990200000000002
 20
-3.1019000000000001
 30
0.0
 10
1.1990200000000002
 20
-3.1019000000000001
 30
0.0
 10
1.23712
 20
-3.2822400000000003
 30
0.0
 10
1.1685400000000001
 20
-3.5362400000000003
 30
0.0
 10
0.9983600000000001
 20
-3.6353000000000004
 30
0.0
 10
0.9983600000000001
 20
-3.6353000000000004
 30
0.0
 10
0.6681600000000001
 20
-3.5057600000000004
 30
0.0
 10
0.9729600000000001
 20
-3.1400000000000001
 30
0.0
 10
0.9983600000000001
 20
-2.9164800000000004
 30
0.0
  0
SPLINE
  5
A2
100
AcDbEntity
  8
Ebene 1
 62
     7
100
AcDbSpline
210
0.0
220
0.0
230
1.0
 70
     1
 71
     3
 72
    32
 73
    28
 74
     0
 42
0.0000000001
 43
0.0000000001
 40
0.0
 40
0.0
 40
0.0
 40
0.0
 40
0.1428571428571429
 40
0.1428571428571429
 40
0.1428571428571429
 40
0.1428571428571429
 40
0.2857142857142857
 40
0.2857142857142857
 40
0.2857142857142857
 40
0.2857142857142857
 40
0.4285714285714286
 40
0.4285714285714286
 40
0.4285714285714286
 40
0.4285714285714286
 40
0.5714285714285714
 40
0.5714285714285714
 40
0.5714285714285714
 40
0.5714285714285714
 40
0.7142857142857142
 40
0.7142857142857142
 40
0.7142857142857142
 40
0.7142857142857142
 40
0.857142857142857
 40
0.857142857142857
 40
0.857142857142857
 40
0.857142857142857
 40
1.0
 40
1.0
 40
1.0
 40
1.0
 10
2.0931000000000002
 20
-2.9164800000000004
 30
0.0
 10
2.16676
 20
-3.0384000000000002
 30
0.0
 10
2.0804
 20
-3.2466800000000005
 30
0.0
 10
2.0702400000000001
 20
-3.4016200000000003
 30
0.0
 10
2.0702400000000001
 20
-3.4016200000000003
 30
0.0
 10
2.13374
 20
-3.3508200000000001
 30
0.0
 10
2.1489800000000003
 20
-3.2543000000000002
 30
0.0
 10
2.17184
 20
-3.1781000000000001
 30
0.0
 10
2.17184
 20
-3.1781000000000001
 30
0.0
 10
2.17184
 20
-3.1781000000000001
 30
0.0
 10
2.1947000000000001
 20
-3.1323800000000004
 30
0.0
 10
2.1947000000000001
 20
-3.1323800000000004
 30
0.0
 10
2.1947000000000001
 20
-3.1323800000000004
 30
0.0
 10
2.2582
 20
-3.2695400000000001
 30
0.0
 10
2.1870800000000004
 20
-3.5108400000000004
 30
0.0
 10
1.9686400000000002
 20
-3.4727400000000004
 30
0.0
 10
1.9686400000000002
 20
-3.4727400000000004
 30
0.0
 10
1.9686400000000002
 20
-3.4727400000000004
 30
0.0
 10
2.0219800000000001
 20
-3.3762200000000004
 30
0.0
 10
2.0219800000000001
 20
-3.3762200000000004
 30
0.0
 10
2.0219800000000001
 20
-3.3762200000000004
 30
0.0
 10
2.0219800000000001
 20
-3.3762200000000004
 30
0.0
 10
1.9788000000000001
 20
-3.3482800000000004
 30
0.0
 10
1.9788000000000001
 20
-3.3482800000000004
 30
0.0
 10
1.9788000000000001
 20
-3.3482800000000004
 30
0.0
 10
1.9788000000000001
 20
-3.3482800000000004
 30
0.0
 10
2.0931000000000002
 20
-2.9164800000000004
 30
0.0
 10
2.0931000000000002
 20
-2.9164800000000004
 30
0.0
  0
SPLINE
  5
A3
100
AcDbEntity
  8
Ebene 1
 62
     7
100
AcDbSpline
210
0.0
220
0.0
230
1.0
 70
     1
 71
     3
 72
    40
 73
    36
 74
     0
 42
0.0000000001
 43
0.0000000001
 40
0.0
 40
0.0
 40
0.0
 40
0.0
 40
0.1111111111111111
 40
0.1111111111111111
 40
0.1111111111111111
 40
0.1111111111111111
 40
0.2222222222222222
 40
0.2222222222222222
 40
0.2222222222222222
 40
0.2222222222222222
 40
0.3333333333333333
 40
0.3333333333333333
 40
0.3333333333333333
 40
0.3333333333333333
 40
0.4444444444444444
 40
0.4444444444444444
 40
0.4444444444444444
 40
0.4444444444444444
 40
0.5555555555555556
 40
0.5555555555555556
 40
0.5555555555555556
 40
0.5555555555555556
 40
0.6666666666666667
 40
0.6666666666666667
 40
0.6666666666666667
 40
0.6666666666666667
 40
0.7777777777777779
 40
0.7777777777777779
 40
0.7777777777777779
 40
0.7777777777777779
 40
0.8888888888888891
 40
0.8888888888888891
 40
0.8888888888888891
 40
0.8888888888888891
 40
1.0
 40
1.0
 40
1.0
 40
1.0
 10
1.6028800000000001
 20
-2.9291800000000001
 30
0.0
 10
1.7527400000000002
 20
-3.1450800000000001
 30
0.0
 10
1.5647800000000001
 20
-3.8613600000000003
 30
0.0
 10
1.2142600000000001
 20
-3.5641800000000003
 30
0.0
 10
1.2142600000000001
 20
-3.5641800000000003
 30
0.0
 10
1.1990200000000002
 20
-3.4778200000000004
 30
0.0
 10
1.2904600000000002
 20
-3.4321000000000002
 30
0.0
 10
1.2853800000000002
 20
-3.3482800000000004
 30
0.0
 10
1.2853800000000002
 20
-3.3482800000000004
 30
0.0
 10
1.2853800000000002
 20
-3.3482800000000004
 30
0.0
 10
1.3285600000000002
 20
-3.1323800000000004
 30
0.0
 10
1.3285600000000002
 20
-3.1323800000000004
 30
0.0
 10
1.3285600000000002
 20
-3.1323800000000004
 30
0.0
 10
1.31586
 20
-3.0765000000000002
 30
0.0
 10
1.31586
 20
-3.0282400000000003
 30
0.0
 10
1.3285600000000002
 20
-2.9723600000000001
 30
0.0
 10
1.3285600000000002
 20
-2.9723600000000001
 30
0.0
 10
1.3412600000000001
 20
-2.9317200000000003
 30
0.0
 10
1.39714
 20
-2.94442
 30
0.0
 10
1.4276200000000001
 20
-2.9469600000000002
 30
0.0
 10
1.4276200000000001
 20
-2.9469600000000002
 30
0.0
 10
1.4276200000000001
 20
-2.9469600000000002
 30
0.0
 10
1.4352400000000001
 20
-3.5032200000000002
 30
0.0
 10
1.4352400000000001
 20
-3.5032200000000002
 30
0.0
 10
1.4352400000000001
 20
-3.5032200000000002
 30
0.0
 10
1.5038200000000002
 20
-3.5006800000000005
 30
0.0
 10
1.5241400000000001
 20
-3.4270200000000002
 30
0.0
 10
1.5216000000000001
 20
-3.3660600000000005
 30
0.0
 10
1.5216000000000001
 20
-3.3660600000000005
 30
0.0
 10
1.5216000000000001
 20
-3.3660600000000005
 30
0.0
 10
1.5597000000000001
 20
-3.2035000000000005
 30
0.0
 10
1.5597000000000001
 20
-3.2035000000000005
 30
0.0
 10
1.5597000000000001
 20
-3.2035000000000005
 30
0.0
 10
1.5597000000000001
 20
-3.2035000000000005
 30
0.0
 10
1.6028800000000001
 20
-2.9291800000000001
 30
0.0
 10
1.6028800000000001
 20
-2.9291800000000001
 30
0.0
  0
SPLINE
  5
A4
100
AcDbEntity
  8
Ebene 1
 62
     7
100
AcDbSpline
210
0.0
220
0.0
230
1.0
 70
     1
 71
     3
 72
    28
 73
    24
 74
     0
 42
0.0000000001
 43
0.0000000001
 40
0.0
 40
0.0
 40
0.0
 40
0.0
 40
0.1666666666666667
 40
0.1666666666666667
 40
0.1666666666666667
 40
0.1666666666666667
 40
0.3333333333333333
 40
0.3333333333333333
 40
0.3333333333333333
 40
0.3333333333333333
 40
0.5
 40
0.5
 40
0.5
 40
0.5
 40
0.6666666666666666
 40
0.6666666666666666
 40
0.6666666666666666
 40
0.6666666666666666
 40
0.8333333333333333
 40
0.8333333333333333
 40
0.8333333333333333
 40
0.8333333333333333
 40
1.0
 40
1.0
 40
1.0
 40
1.0
 10
-0.80503
 20
-3.3330400000000004
 30
0.0
 10
-0.73899
 20
-3.3152600000000003
 30
0.0
 10
-0.7059700000000001
 20
-3.3762200000000004
 30
0.0
 10
-0.7135900000000001
 20
-3.4295600000000004
 30
0.0
 10
-0.7135900000000001
 20
-3.4295600000000004
 30
0.0
 10
-0.55611
 20
-3.5260800000000003
 30
0.0
 10
-0.69581
 20
-3.7597600000000004
 30
0.0
 10
-0.7034300000000001
 20
-3.8816800000000002
 30
0.0
 10
-0.7034300000000001
 20
-3.8816800000000002
 30
0.0
 10
-0.78217
 20
-3.7953200000000002
 30
0.0
 10
-0.74407
 20
-3.5794200000000003
 30
0.0
 10
-0.8710700000000001
 20
-3.5387800000000005
 30
0.0
 10
-0.8710700000000001
 20
-3.5387800000000005
 30
0.0
 10
-0.8710700000000001
 20
-3.5387800000000005
 30
0.0
 10
-0.8913900000000001
 20
-3.5921200000000004
 30
0.0
 10
-0.8913900000000001
 20
-3.5921200000000004
 30
0.0
 10
-0.8913900000000001
 20
-3.5921200000000004
 30
0.0
 10
-0.8913900000000001
 20
-3.6911800000000001
 30
0.0
 10
-0.9015500000000001
 20
-3.8004000000000002
 30
0.0
 10
-0.9345700000000001
 20
-3.8816800000000002
 30
0.0
 10
-0.9345700000000001
 20
-3.8816800000000002
 30
0.0
 10
-1.0209300000000001
 20
-3.7165800000000004
 30
0.0
 10
-0.9574300000000001
 20
-3.4524200000000005
 30
0.0
 10
-0.80503
 20
-3.3330400000000004
 30
0.0
  0
SPLINE
  5
A5
100
AcDbEntity
  8
Ebene 1
 62
     7
100
AcDbSpline
210
0.0
220
0.0
230
1.0
 70
     1
 71
     3
 72
    20
 73
    16
 74
     0
 42
0.0000000001
 43
0.0000000001
 40
0.0
 40
0.0
 40
0.0
 40
0.0
 40
0.25
 40
0.25
 40
0.25
 40
0.25
 40
0.5
 40
0.5
 40
0.5
 40
0.5
 40
0.75
 40
0.75
 40
0.75
 40
0.75
 40
1.0
 40
1.0
 40
1.0
 40
1.0
 10
-0.45705
 20
-3.5362400000000003
 30
0.0
 10
-0.36815
 20
-3.5616400000000001
 30
0.0
 10
-0.45705
 20
-3.6962600000000001
 30
0.0
 10
-0.37069
 20
-3.7089600000000003
 30
0.0
 10
-0.37069
 20
-3.7089600000000003
 30
0.0
 10
-0.4367300000000001
 20
-3.8842200000000005
 30
0.0
 10
-0.41895
 20
-4.0925000000000002
 30
0.0
 10
-0.38847
 20
-4.2804600000000006
 30
0.0
 10
-0.38847
 20
-4.2804600000000006
 30
0.0
 10
-0.48499
 20
-4.3084000000000007
 30
0.0
 10
-0.57643
 20
-4.1890200000000002
 30
0.0
 10
-0.53071
 20
-4.1001200000000004
 30
0.0
 10
-0.53071
 20
-4.1001200000000004
 30
0.0
 10
-0.6907300000000001
 20
-3.9553400000000005
 30
0.0
 10
-0.6094500000000001
 20
-3.6530800000000001
 30
0.0
 10
-0.45705
 20
-3.5362400000000003
 30
0.0
  0
SPLINE
  5
A6
100
AcDbEntity
  8
Ebene 1
 62
     7
100
AcDbSpline
210
0.0
220
0.0
230
1.0
 70
     1
 71
     3
 72
    24
 73
    20
 74
     0
 42
0.0000000001
 43
0.0000000001
 40
0.0
 40
0.0
 40
0.0
 40
0.0
 40
0.2
 40
0.2
 40
0.2
 40
0.2
 40
0.4
 40
0.4
 40
0.4
 40
0.4
 40
0.6000000000000001
 40
0.6000000000000001
 40
0.6000000000000001
 40
0.6000000000000001
 40
0.8
 40
0.8
 40
0.8
 40
0.8
 40
1.0
 40
1.0
 40
1.0
 40
1.0
 10
-0.16749
 20
-3.6505400000000003
 30
0.0
 10
-0.10907
 20
-3.6480000000000001
 30
0.0
 10
-0.05065
 20
-3.6632400000000005
 30
0.0
 10
-0.01255
 20
-3.7115000000000005
 30
0.0
 10
-0.01255
 20
-3.7115000000000005
 30
0.0
 10
-0.04049
 20
-3.9147000000000003
 30
0.0
 10
0.0611
 20
-4.2449000000000003
 30
0.0
 10
-0.18273
 20
-4.34396
 30
0.0
 10
-0.18273
 20
-4.34396
 30
0.0
 10
-0.18273
 20
-4.34396
 30
0.0
 10
-0.30719
 20
-4.3261799999999999
 30
0.0
 10
-0.30719
 20
-4.3261799999999999
 30
0.0
 10
-0.30719
 20
-4.3261799999999999
 30
0.0
 10
-0.34529
 20
-4.30586
 30
0.0
 10
-0.3122700000000001
 20
-4.2804600000000006
 30
0.0
 10
-0.3021100000000001
 20
-4.2601400000000007
 30
0.0
 10
-0.3021100000000001
 20
-4.2601400000000007
 30
0.0
 10
-0.44435
 20
-4.0874200000000007
 30
0.0
 10
-0.38339
 20
-3.7318200000000004
 30
0.0
 10
-0.16749
 20
-3.6505400000000003
 30
0.0
  0
SPLINE
  5
A7
100
AcDbEntity
  8
Ebene 1
 62
     7
100
AcDbSpline
210
0.0
220
0.0
230
1.0
 70
     1
 71
     3
 72
    32
 73
    28
 74
     0
 42
0.0000000001
 43
0.0000000001
 40
0.0
 40
0.0
 40
0.0
 40
0.0
 40
0.1428571428571429
 40
0.1428571428571429
 40
0.1428571428571429
 40
0.1428571428571429
 40
0.2857142857142857
 40
0.2857142857142857
 40
0.2857142857142857
 40
0.2857142857142857
 40
0.4285714285714286
 40
0.4285714285714286
 40
0.4285714285714286
 40
0.4285714285714286
 40
0.5714285714285714
 40
0.5714285714285714
 40
0.5714285714285714
 40
0.5714285714285714
 40
0.7142857142857142
 40
0.7142857142857142
 40
0.7142857142857142
 40
0.7142857142857142
 40
0.857142857142857
 40
0.857142857142857
 40
0.857142857142857
 40
0.857142857142857
 40
1.0
 40
1.0
 40
1.0
 40
1.0
 10
2.0499200000000002
 20
-3.7089600000000003
 30
0.0
 10
2.1159600000000003
 20
-3.7216600000000004
 30
0.0
 10
2.0600800000000001
 20
-3.8181800000000004
 30
0.0
 10
2.0423
 20
-3.8562800000000004
 30
0.0
 10
2.0423
 20
-3.8562800000000004
 30
0.0
 10
2.1058000000000003
 20
-3.9629600000000003
 30
0.0
 10
1.9737200000000001
 20
-4.0925000000000002
 30
0.0
 10
1.8975200000000001
 20
-4.1661600000000005
 30
0.0
 10
1.8975200000000001
 20
-4.1661600000000005
 30
0.0
 10
1.9330800000000001
 20
-4.0544000000000002
 30
0.0
 10
1.9813400000000001
 20
-3.9197800000000003
 30
0.0
 10
1.9356200000000001
 20
-3.7953200000000002
 30
0.0
 10
1.9356200000000001
 20
-3.7953200000000002
 30
0.0
 10
1.9407000000000001
 20
-3.7775400000000001
 30
0.0
 10
1.9584800000000002
 20
-3.7597600000000004
 30
0.0
 10
1.9762600000000001
 20
-3.7546800000000005
 30
0.0
 10
1.9762600000000001
 20
-3.7546800000000005
 30
0.0
 10
1.9762600000000001
 20
-3.7546800000000005
 30
0.0
 10
1.9940400000000003
 20
-3.7953200000000002
 30
0.0
 10
1.9940400000000003
 20
-3.7953200000000002
 30
0.0
 10
1.9940400000000003
 20
-3.7953200000000002
 30
0.0
 10
2.0118200000000002
 20
-3.8004000000000002
 30
0.0
 10
2.0245200000000003
 20
-3.7902400000000003
 30
0.0
 10
2.0346800000000003
 20
-3.7775400000000001
 30
0.0
 10
2.0346800000000003
 20
-3.7775400000000001
 30
0.0
 10
2.0346800000000003
 20
-3.7775400000000001
 30
0.0
 10
2.0499200000000002
 20
-3.7089600000000003
 30
0.0
 10
2.0499200000000002
 20
-3.7089600000000003
 30
0.0
  0
SPLINE
  5
A8
100
AcDbEntity
  8
Ebene 1
 62
     7
100
AcDbSpline
210
0.0
220
0.0
230
1.0
 70
     1
 71
     3
 72
    20
 73
    16
 74
     0
 42
0.0000000001
 43
0.0000000001
 40
0.0
 40
0.0
 40
0.0
 40
0.0
 40
0.25
 40
0.25
 40
0.25
 40
0.25
 40
0.5
 40
0.5
 40
0.5
 40
0.5
 40
0.75
 40
0.75
 40
0.75
 40
0.75
 40
1.0
 40
1.0
 40
1.0
 40
1.0
 10
0.19064
 20
-3.7800800000000003
 30
0.0
 10
0.19064
 20
-3.7800800000000003
 30
0.0
 10
0.33034
 20
-3.8562800000000004
 30
0.0
 10
0.33034
 20
-3.8562800000000004
 30
0.0
 10
0.33034
 20
-3.8562800000000004
 30
0.0
 10
0.28716
 20
-4.0391600000000007
 30
0.0
 10
0.35066
 20
-4.3084000000000007
 30
0.0
 10
0.16016
 20
-4.4150800000000006
 30
0.0
 10
0.16016
 20
-4.4150800000000006
 30
0.0
 10
0.0611
 20
-4.3719000000000001
 30
0.0
 10
-0.02525
 20
-4.2271200000000002
 30
0.0
 10
0.0611
 20
-4.1128200000000001
 30
0.0
 10
0.0611
 20
-4.1128200000000001
 30
0.0
 10
0.04586
 20
-3.9832800000000002
 30
0.0
 10
0.10428
 20
-3.8715200000000003
 30
0.0
 10
0.19064
 20
-3.7800800000000003
 30
0.0
  0
SPLINE
  5
A9
100
AcDbEntity
  8
Ebene 1
 62
     7
100
AcDbSpline
210
0.0
220
0.0
230
1.0
 70
     1
 71
     3
 72
    24
 73
    20
 74
     0
 42
0.0000000001
 43
0.0000000001
 40
0.0
 40
0.0
 40
0.0
 40
0.0
 40
0.2
 40
0.2
 40
0.2
 40
0.2
 40
0.4
 40
0.4
 40
0.4
 40
0.4
 40
0.6000000000000001
 40
0.6000000000000001
 40
0.6000000000000001
 40
0.6000000000000001
 40
0.8
 40
0.8
 40
0.8
 40
0.8
 40
1.0
 40
1.0
 40
1.0
 40
1.0
 10
1.7781400000000001
 20
-3.8969200000000002
 30
0.0
 10
1.8899000000000001
 20
-3.8816800000000002
 30
0.0
 10
1.8314800000000002
 20
-4.1687000000000003
 30
0.0
 10
1.7679800000000001
 20
-4.0442400000000003
 30
0.0
 10
1.7679800000000001
 20
-4.0442400000000003
 30
0.0
 10
1.7679800000000001
 20
-4.0442400000000003
 30
0.0
 10
1.7375
 20
-4.0874200000000007
 30
0.0
 10
1.7375
 20
-4.0874200000000007
 30
0.0
 10
1.7375
 20
-4.0874200000000007
 30
0.0
 10
1.7095600000000002
 20
-4.2322000000000006
 30
0.0
 10
1.6994000000000002
 20
-4.40238
 30
0.0
 10
1.5647800000000001
 20
-4.4836600000000004
 30
0.0
 10
1.5647800000000001
 20
-4.4836600000000004
 30
0.0
 10
1.5444600000000002
 20
-4.4709600000000007
 30
0.0
 10
1.5444600000000002
 20
-4.4506399999999999
 30
0.0
 10
1.5444600000000002
 20
-4.43032
 30
0.0
 10
1.5444600000000002
 20
-4.43032
 30
0.0
 10
1.65368
 20
-4.2652200000000002
 30
0.0
 10
1.7197200000000001
 20
-4.0772600000000008
 30
0.0
 10
1.7781400000000001
 20
-3.8969200000000002
 30
0.0
  0
SPLINE
  5
AA
100
AcDbEntity
  8
Ebene 1
 62
     7
100
AcDbSpline
210
0.0
220
0.0
230
1.0
 70
     1
 71
     3
 72
    24
 73
    20
 74
     0
 42
0.0000000001
 43
0.0000000001
 40
0.0
 40
0.0
 40
0.0
 40
0.0
 40
0.2
 40
0.2
 40
0.2
 40
0.2
 40
0.4
 40
0.4
 40
0.4
 40
0.4
 40
0.6000000000000001
 40
0.6000000000000001
 40
0.6000000000000001
 40
0.6000000000000001
 40
0.8
 40
0.8
 40
0.8
 40
0.8
 40
1.0
 40
1.0
 40
1.0
 40
1.0
 10
0.47766
 20
-3.9096200000000003
 30
0.0
 10
0.5691000000000001
 20
-3.9274000000000004
 30
0.0
 10
0.6884800000000001
 20
-3.8689800000000005
 30
0.0
 10
0.7494400000000001
 20
-3.9553400000000005
 30
0.0
 10
0.7494400000000001
 20
-3.9553400000000005
 30
0.0
 10
0.6859400000000001
 20
-4.1382200000000005
 30
0.0
 10
0.7723000000000001
 20
-4.3846000000000007
 30
0.0
 10
0.59196
 20
-4.5116000000000005
 30
0.0
 10
0.59196
 20
-4.5116000000000005
 30
0.0
 10
0.51322
 20
-4.4582600000000001
 30
0.0
 10
0.39638
 20
-4.4760400000000002
 30
0.0
 10
0.47512
 20
-4.3617400000000002
 30
0.0
 10
0.47512
 20
-4.3617400000000002
 30
0.0
 10
0.47512
 20
-4.3617400000000002
 30
0.0
 10
0.39638
 20
-4.3973000000000004
 30
0.0
 10
0.39638
 20
-4.3973000000000004
 30
0.0
 10
0.39638
 20
-4.3973000000000004
 30
0.0
 10
0.3659
 20
-4.2423600000000006
 30
0.0
 10
0.3405
 20
-4.0213800000000006
 30
0.0
 10
0.47766
 20
-3.9096200000000003
 30
0.0
  0
SPLINE
  5
AB
100
AcDbEntity
  8
Ebene 1
 62
     7
100
AcDbSpline
210
0.0
220
0.0
230
1.0
 70
     1
 71
     3
 72
    20
 73
    16
 74
     0
 42
0.0000000001
 43
0.0000000001
 40
0.0
 40
0.0
 40
0.0
 40
0.0
 40
0.25
 40
0.25
 40
0.25
 40
0.25
 40
0.5
 40
0.5
 40
0.5
 40
0.5
 40
0.75
 40
0.75
 40
0.75
 40
0.75
 40
1.0
 40
1.0
 40
1.0
 40
1.0
 10
0.912
 20
-3.9832800000000002
 30
0.0
 10
0.9780400000000001
 20
-3.9655000000000005
 30
0.0
 10
1.01868
 20
-4.0112200000000007
 30
0.0
 10
1.06694
 20
-4.0442400000000003
 30
0.0
 10
1.06694
 20
-4.0442400000000003
 30
0.0
 10
1.0364600000000002
 20
-4.2042600000000006
 30
0.0
 10
1.0491600000000001
 20
-4.5039800000000003
 30
0.0
 10
0.82564
 20
-4.51668
 30
0.0
 10
0.82564
 20
-4.51668
 30
0.0
 10
0.80532
 20
-4.5039800000000003
 30
0.0
 10
0.7723000000000001
 20
-4.5014400000000006
 30
0.0
 10
0.76722
 20
-4.4735000000000005
 30
0.0
 10
0.76722
 20
-4.4735000000000005
 30
0.0
 10
0.8561200000000001
 20
-4.3185600000000006
 30
0.0
 10
0.7062600000000001
 20
-4.0289999999999999
 30
0.0
 10
0.912
 20
-3.9832800000000002
 30
0.0
  0
SPLINE
  5
AC
100
AcDbEntity
  8
Ebene 1
 62
     7
100
AcDbSpline
210
0.0
220
0.0
230
1.0
 70
     1
 71
     3
 72
    24
 73
    20
 74
     0
 42
0.0000000001
 43
0.0000000001
 40
0.0
 40
0.0
 40
0.0
 40
0.0
 40
0.2
 40
0.2
 40
0.2
 40
0.2
 40
0.4
 40
0.4
 40
0.4
 40
0.4
 40
0.6000000000000001
 40
0.6000000000000001
 40
0.6000000000000001
 40
0.6000000000000001
 40
0.8
 40
0.8
 40
0.8
 40
0.8
 40
1.0
 40
1.0
 40
1.0
 40
1.0
 10
1.2853800000000002
 20
-3.9959800000000003
 30
0.0
 10
1.3184
 20
-4.0036000000000005
 30
0.0
 10
1.36158
 20
-3.9832800000000002
 30
0.0
 10
1.3844400000000001
 20
-4.0137600000000004
 30
0.0
 10
1.3844400000000001
 20
-4.0137600000000004
 30
0.0
 10
1.3844400000000001
 20
-4.0137600000000004
 30
0.0
 10
1.3869800000000001
 20
-4.1839400000000007
 30
0.0
 10
1.3869800000000001
 20
-4.1839400000000007
 30
0.0
 10
1.3869800000000001
 20
-4.1839400000000007
 30
0.0
 10
1.2676000000000001
 20
-4.3211000000000004
 30
0.0
 10
1.2853800000000002
 20
-4.6233600000000008
 30
0.0
 10
1.0313800000000002
 20
-4.5700200000000004
 30
0.0
 10
1.0313800000000002
 20
-4.5700200000000004
 30
0.0
 10
1.0313800000000002
 20
-4.5700200000000004
 30
0.0
 10
1.0110600000000001
 20
-4.5446200000000001
 30
0.0
 10
1.0110600000000001
 20
-4.5446200000000001
 30
0.0
 10
1.0110600000000001
 20
-4.5446200000000001
 30
0.0
 10
1.1253600000000001
 20
-4.3668200000000006
 30
0.0
 10
1.0517000000000001
 20
-4.0747200000000001
 30
0.0
 10
1.2853800000000002
 20
-3.9959800000000003
 30
0.0
  0
SPLINE
  5
AD
100
AcDbEntity
  8
Ebene 1
 62
     7
100
AcDbSpline
210
0.0
220
0.0
230
1.0
 70
     1
 71
     3
 72
    24
 73
    20
 74
     0
 42
0.0000000001
 43
0.0000000001
 40
0.0
 40
0.0
 40
0.0
 40
0.0
 40
0.2
 40
0.2
 40
0.2
 40
0.2
 40
0.4
 40
0.4
 40
0.4
 40
0.4
 40
0.6000000000000001
 40
0.6000000000000001
 40
0.6000000000000001
 40
0.6000000000000001
 40
0.8
 40
0.8
 40
0.8
 40
0.8
 40
1.0
 40
1.0
 40
1.0
 40
1.0
 10
1.48858
 20
-3.9959800000000003
 30
0.0
 10
1.48858
 20
-3.9959800000000003
 30
0.0
 10
1.6435200000000001
 20
-4.0137600000000004
 30
0.0
 10
1.6435200000000001
 20
-4.0137600000000004
 30
0.0
 10
1.6435200000000001
 20
-4.0137600000000004
 30
0.0
 10
1.5901800000000001
 20
-4.1941000000000006
 30
0.0
 10
1.5190600000000001
 20
-4.3820600000000001
 30
0.0
 10
1.4123800000000002
 20
-4.5420800000000003
 30
0.0
 10
1.4123800000000002
 20
-4.5420800000000003
 30
0.0
 10
1.4123800000000002
 20
-4.5420800000000003
 30
0.0
 10
1.35904
 20
-4.5446200000000001
 30
0.0
 10
1.35904
 20
-4.5446200000000001
 30
0.0
 10
1.35904
 20
-4.5446200000000001
 30
0.0
 10
1.2879200000000002
 20
-4.3973000000000004
 30
0.0
 10
1.4708000000000001
 20
-4.2245800000000004
 30
0.0
 10
1.4352400000000001
 20
-4.0442400000000003
 30
0.0
 10
1.4352400000000001
 20
-4.0442400000000003
 30
0.0
 10
1.4352400000000001
 20
-4.0442400000000003
 30
0.0
 10
1.48858
 20
-3.9959800000000003
 30
0.0
 10
1.48858
 20
-3.9959800000000003
 30
0.0
  0
SPLINE
  5
AE
100
AcDbEntity
  8
Ebene 1
 62
     7
100
AcDbSpline
210
0.0
220
0.0
230
1.0
 70
     1
 71
     3
 72
    40
 73
    36
 74
     0
 42
0.0000000001
 43
0.0000000001
 40
0.0
 40
0.0
 40
0.0
 40
0.0
 40
0.1111111111111111
 40
0.1111111111111111
 40
0.1111111111111111
 40
0.1111111111111111
 40
0.2222222222222222
 40
0.2222222222222222
 40
0.2222222222222222
 40
0.2222222222222222
 40
0.3333333333333333
 40
0.3333333333333333
 40
0.3333333333333333
 40
0.3333333333333333
 40
0.4444444444444444
 40
0.4444444444444444
 40
0.4444444444444444
 40
0.4444444444444444
 40
0.5555555555555556
 40
0.5555555555555556
 40
0.5555555555555556
 40
0.5555555555555556
 40
0.6666666666666667
 40
0.6666666666666667
 40
0.6666666666666667
 40
0.6666666666666667
 40
0.7777777777777779
 40
0.7777777777777779
 40
0.7777777777777779
 40
0.7777777777777779
 40
0.8888888888888891
 40
0.8888888888888891
 40
0.8888888888888891
 40
0.8888888888888891
 40
1.0
 40
1.0
 40
1.0
 40
1.0
 10
0.4497200000000001
 20
-5.0932600000000008
 30
0.0
 10
0.4497200000000001
 20
-5.0932600000000008
 30
0.0
 10
1.0364600000000002
 20
-5.1389800000000001
 30
0.0
 10
1.0364600000000002
 20
-5.1389800000000001
 30
0.0
 10
1.0364600000000002
 20
-5.1389800000000001
 30
0.0
 10
1.1406000000000001
 20
-5.2863000000000007
 30
0.0
 10
1.2599800000000001
 20
-5.4717200000000004
 30
0.0
 10
1.1558400000000002
 20
-5.6292000000000009
 30
0.0
 10
1.1558400000000002
 20
-5.6292000000000009
 30
0.0
 10
1.1558400000000002
 20
-5.6292000000000009
 30
0.0
 10
1.2396600000000002
 20
-5.6444400000000003
 30
0.0
 10
1.2396600000000002
 20
-5.6444400000000003
 30
0.0
 10
1.2396600000000002
 20
-5.6444400000000003
 30
0.0
 10
1.3031600000000001
 20
-5.9517800000000003
 30
0.0
 10
1.1253600000000001
 20
-6.2057800000000007
 30
0.0
 10
0.8942200000000001
 20
-6.3734200000000003
 30
0.0
 10
0.8942200000000001
 20
-6.3734200000000003
 30
0.0
 10
0.5056000000000001
 20
-6.3378600000000009
 30
0.0
 10
0.11952
 20
-6.2743600000000006
 30
0.0
 10
-0.27925
 20
-6.2718200000000008
 30
0.0
 10
-0.27925
 20
-6.2718200000000008
 30
0.0
 10
-0.35291
 20
-6.1448200000000002
 30
0.0
 10
-0.5180100000000001
 20
-6.0940200000000004
 30
0.0
 10
-0.5815100000000001
 20
-5.9771800000000006
 30
0.0
 10
-0.5815100000000001
 20
-5.9771800000000006
 30
0.0
 10
-0.48499
 20
-5.9949600000000007
 30
0.0
 10
-0.39355
 20
-6.1168800000000001
 30
0.0
 10
-0.33005
 20
-5.9924200000000001
 30
0.0
 10
-0.33005
 20
-5.9924200000000001
 30
0.0
 10
-0.28941
 20
-6.1194200000000007
 30
0.0
 10
-0.21575
 20
-6.1372000000000009
 30
0.0
 10
-0.16495
 20
-6.0051200000000007
 30
0.0
 10
-0.16495
 20
-6.0051200000000007
 30
0.0
 10
0.01538
 20
-5.6977800000000007
 30
0.0
 10
0.15
 20
-5.3244000000000007
 30
0.0
 10
0.4497200000000001
 20
-5.0932600000000008
 30
0.0
  0
SPLINE
  5
AF
100
AcDbEntity
  8
Ebene 1
 62
     7
100
AcDbSpline
210
0.0
220
0.0
230
1.0
 70
     1
 71
     3
 72
    24
 73
    20
 74
     0
 42
0.0000000001
 43
0.0000000001
 40
0.0
 40
0.0
 40
0.0
 40
0.0
 40
0.2
 40
0.2
 40
0.2
 40
0.2
 40
0.4
 40
0.4
 40
0.4
 40
0.4
 40
0.6000000000000001
 40
0.6000000000000001
 40
0.6000000000000001
 40
0.6000000000000001
 40
0.8
 40
0.8
 40
0.8
 40
0.8
 40
1.0
 40
1.0
 40
1.0
 40
1.0
 10
-0.42149
 20
-5.4412400000000005
 30
0.0
 10
-0.25893
 20
-5.3853600000000004
 30
0.0
 10
-0.15479
 20
-5.4514000000000005
 30
0.0
 10
-0.02779
 20
-5.5301400000000003
 30
0.0
 10
-0.02779
 20
-5.5301400000000003
 30
0.0
 10
-0.12939
 20
-5.6698400000000007
 30
0.0
 10
-0.17765
 20
-5.8451000000000004
 30
0.0
 10
-0.22591
 20
-6.0025800000000009
 30
0.0
 10
-0.22591
 20
-6.0025800000000009
 30
0.0
 10
-0.22591
 20
-6.0025800000000009
 30
0.0
 10
-0.28433
 20
-5.9441600000000001
 30
0.0
 10
-0.28433
 20
-5.9441600000000001
 30
0.0
 10
-0.28433
 20
-5.9441600000000001
 30
0.0
 10
-0.29195
 20
-5.8324000000000007
 30
0.0
 10
-0.20559
 20
-5.6952400000000001
 30
0.0
 10
-0.35291
 20
-5.6368200000000002
 30
0.0
 10
-0.35291
 20
-5.6368200000000002
 30
0.0
 10
-0.35291
 20
-5.6368200000000002
 30
0.0
 10
-0.42149
 20
-5.4412400000000005
 30
0.0
 10
-0.42149
 20
-5.4412400000000005
 30
0.0
  0
SPLINE
  5
B0
100
AcDbEntity
  8
Ebene 1
100
AcDbSpline
210
0.0
220
0.0
230
1.0
 70
     1
 71
     3
 72
    28
 73
    24
 74
     0
 42
0.0000000001
 43
0.0000000001
 40
0.0
 40
0.0
 40
0.0
 40
0.0
 40
0.1666666666666667
 40
0.1666666666666667
 40
0.1666666666666667
 40
0.1666666666666667
 40
0.3333333333333333
 40
0.3333333333333333
 40
0.3333333333333333
 40
0.3333333333333333
 40
0.5
 40
0.5
 40
0.5
 40
0.5
 40
0.6666666666666666
 40
0.6666666666666666
 40
0.6666666666666666
 40
0.6666666666666666
 40
0.8333333333333333
 40
0.8333333333333333
 40
0.8333333333333333
 40
0.8333333333333333
 40
1.0
 40
1.0
 40
1.0
 40
1.0
 10
0.5640200000000001
 20
-5.4412400000000005
 30
0.0
 10
0.5640200000000001
 20
-5.4412400000000005
 30
0.0
 10
0.7570600000000001
 20
-5.5504600000000002
 30
0.0
 10
0.7570600000000001
 20
-5.5504600000000002
 30
0.0
 10
0.7570600000000001
 20
-5.5504600000000002
 30
0.0
 10
1.1177400000000002
 20
-5.5911000000000008
 30
0.0
 10
0.9399400000000001
 20
-6.0203600000000002
 30
0.0
 10
0.7773800000000001
 20
-6.2159400000000007
 30
0.0
 10
0.7773800000000001
 20
-6.2159400000000007
 30
0.0
 10
0.7773800000000001
 20
-6.2159400000000007
 30
0.0
 10
0.74182
 20
-6.2159400000000007
 30
0.0
 10
0.74182
 20
-6.2159400000000007
 30
0.0
 10
0.74182
 20
-6.2159400000000007
 30
0.0
 10
0.7316600000000001
 20
-6.0559200000000004
 30
0.0
 10
0.5691000000000001
 20
-6.0356000000000005
 30
0.0
 10
0.4497200000000001
 20
-5.9441600000000001
 30
0.0
 10
0.4497200000000001
 20
-5.9441600000000001
 30
0.0
 10
0.3684400000000001
 20
-6.0635400000000006
 30
0.0
 10
0.29986
 20
-6.1346600000000002
 30
0.0
 10
0.18048
 20
-6.2286400000000004
 30
0.0
 10
0.18048
 20
-6.2286400000000004
 30
0.0
 10
0.20334
 20
-5.9187600000000007
 30
0.0
 10
0.277
 20
-5.5911000000000008
 30
0.0
 10
0.5640200000000001
 20
-5.4412400000000005
 30
0.0
  0
ENDSEC
  0
SECTION
  2
OBJECTS
  0
DICTIONARY
  5
19
100
AcDbDictionary
280
     0
281
     1
  3
ACAD_GROUP
350
1A
  3
ACAD_MLINESTYLE
350
1B
  3
ACAD_LAYOUT
350
1E
  3
ACAD_PLOTSETTINGS
350
22
  3
ACAD_PLOTSTYLENAME
350
1F
  3
ACAD_WIPEOUT_VARS
350
23
  0
DICTIONARY
  5
1A
102
{ACAD_REACTORS
330
19
102
}
100
AcDbDictionary
280
     0
281
     1
  0
DICTIONARY
  5
1B
102
{ACAD_REACTORS
330
19
102
}
100
AcDbDictionary
280
     0
281
     1
  3
Standard
350
1C
  0
MLINESTYLE
  5
1C
102
{ACAD_REACTORS
330
1B
102
}
100
AcDbMlineStyle
  2
Standard
 70
     0
  3

 62
     0
 51
90.0
 52
90.0
 71
     2
 49
0.5
 62
   256
  6
BYLAYER
 49
-0.5
 62
   256
  6
BYLAYER
  0
ACDBDICTIONARYWDFLT
  5
1F
102
{ACAD_REACTORS
330
19
102
}
100
AcDbDictionary
281
     1
  3
Normal
350
1D
100
AcDbDictionaryWithDefault
340
1D
  0
ACDBPLACEHOLDER
  5
1D
102
{ACAD_REACTORS
330
1F
102
}
  0
LAYOUT
  5
20
102
{ACAD_REACTORS
330
1E
102
}
100
AcDbPlotSettings
  1

  2

  4

  6

 40
0.0
 41
0.0
 42
0.0
 43
0.0
 44
0.0
 45
0.0
 46
0.0
 47
0.0
 48
0.0
 49
0.0
140
0.0
141
0.0
142
1.0
143
1.0
 70
  1024
 72
     0
 73
     0
 74
     0
  7

 75
     0
147
1.0
148
0.0
149
0.0
100
AcDbLayout
  1
Model
 70
     0
 71
     0
 10
0.0
 20
0.0
 11
0.0
 21
0.0
 12
0.0
 22
0.0
 32
0.0
 14
0.0
 24
0.0
 34
0.0
 15
0.0
 25
0.0
 35
0.0
146
0.0
 13
0.0
 23
0.0
 33
0.0
 16
0.0
 26
0.0
 36
0.0
 17
0.0
 27
0.0
 37
0.0
 76
     0
330
A
331
0
345
0
346
0
  0
LAYOUT
  5
21
102
{ACAD_REACTORS
330
1E
102
}
100
AcDbPlotSettings
  1

  2

  4

  6

 40
0.0
 41
0.0
 42
0.0
 43
0.0
 44
0.0
 45
0.0
 46
0.0
 47
0.0
 48
0.0
 49
0.0
140
0.0
141
0.0
142
1.0
143
1.0
 70
     0
 72
     0
 73
     0
 74
     0
  7

 75
     0
147
1.0
148
0.0
149
0.0
100
AcDbLayout
  1
Layout1
 70
     0
 71
     0
 10
0.0
 20
0.0
 11
0.0
 21
0.0
 12
0.0
 22
0.0
 32
0.0
 14
0.0
 24
0.0
 34
0.0
 15
0.0
 25
0.0
 35
0.0
146
0.0
 13
0.0
 23
0.0
 33
0.0
 16
0.0
 26
0.0
 36
0.0
 17
0.0
 27
0.0
 37
0.0
 76
     0
330
B
331
0
345
0
346
0
  0
DICTIONARY
  5
1E
102
{ACAD_REACTORS
330
19
102
}
100
AcDbDictionary
280
     0
281
     1
  3
Layout1
350
21
  3
Model
350
20
  0
DICTIONARY
  5
22
102
{ACAD_REACTORS
330
19
102
}
100
AcDbDictionary
280
     0
281
     1
  0
WIPEOUTVARIABLES
  5
23
100
AcDbWipeoutVariables
 70
     1
  0
ENDSEC
  0
EOF
