  0
SECTION
  2
HEADER
  9
$ACADVER
  1
AC1015
  9
$ACADMAINTVER
 70
     6
  9
$DWGCODEPAGE
  3
DOS850
  9
$INSBASE
 10
0.0
 20
0.0
 30
0.0
  9
$EXTMIN
 10
-4.22327
 20
-6.13212
 30
1.000000E+20
  9
$EXTMAX
 10
4.22924
 20
6.12591
 30
-1.000000E+20
  9
$LIMMIN
 10
0.0
 20
0.0
  9
$LIMMAX
 10
0.0
 20
0.0
  9
$ORTHOMODE
 70
     0
  9
$REGENMODE
 70
     1
  9
$FILLMODE
 70
     1
  9
$QTEXTMODE
 70
     0
  9
$MIRRTEXT
 70
     1
  9
$LTSCALE
 40
1.0
  9
$ATTMODE
 70
     1
  9
$TEXTSIZE
 40
0.2
  9
$TRACEWID
 40
0.05
  9
$TEXTSTYLE
  7
Standard
  9
$CLAYER
  8
0
  9
$CELTYPE
  6
Continuous
  9
$CECOLOR
 62
   256
  9
$CELTSCALE
 40
1.0
  9
$DISPSILH
 70
     0
  9
$DIMSCALE
 40
1.0
  9
$DIMASZ
 40
0.18
  9
$DIMEXO
 40
0.0625
  9
$DIMDLI
 40
0.38
  9
$DIMRND
 40
0.0
  9
$DIMDLE
 40
0.0
  9
$DIMEXE
 40
0.18
  9
$DIMTP
 40
0.0
  9
$DIMTM
 40
0.0
  9
$DIMTXT
 40
0.18
  9
$DIMCEN
 40
0.09
  9
$DIMTSZ
 40
0.0
  9
$DIMTOL
 70
     0
  9
$DIMLIM
 70
     0
  9
$DIMTIH
 70
     1
  9
$DIMTOH
 70
     1
  9
$DIMSE1
 70
     0
  9
$DIMSE2
 70
     0
  9
$DIMTAD
 70
     0
  9
$DIMZIN
 70
     0
  9
$DIMBLK
  1

  9
$DIMASO
 70
     1
  9
$DIMSHO
 70
     1
  9
$DIMPOST
  1

  9
$DIMAPOST
  1

  9
$DIMALT
 70
     0
  9
$DIMALTD
 70
     2
  9
$DIMALTF
 40
25.4
  9
$DIMLFAC
 40
1.0
  9
$DIMTOFL
 70
     0
  9
$DIMTVP
 40
0.0
  9
$DIMTIX
 70
     0
  9
$DIMSOXD
 70
     0
  9
$DIMSAH
 70
     0
  9
$DIMBLK1
  1

  9
$DIMBLK2
  1

  9
$DIMSTYLE
  2
Standard
  9
$DIMCLRD
 70
     0
  9
$DIMCLRE
 70
     0
  9
$DIMCLRT
 70
     0
  9
$DIMTFAC
 40
1.0
  9
$DIMGAP
 40
0.09
  9
$DIMJUST
 70
     0
  9
$DIMSD1
 70
     0
  9
$DIMSD2
 70
     0
  9
$DIMTOLJ
 70
     1
  9
$DIMTZIN
 70
     0
  9
$DIMALTZ
 70
     0
  9
$DIMALTTZ
 70
     0
  9
$DIMUPT
 70
     0
  9
$DIMDEC
 70
     4
  9
$DIMTDEC
 70
     4
  9
$DIMALTU
 70
     2
  9
$DIMALTTD
 70
     2
  9
$DIMTXSTY
  7
Standard
  9
$DIMAUNIT
 70
     0
  9
$DIMADEC
 70
     0
  9
$DIMALTRND
 40
0.0
  9
$DIMAZIN
 70
     0
  9
$DIMDSEP
 70
     0
  9
$DIMATFIT
 70
     3
  9
$DIMFRAC
 70
     0
  9
$DIMLDRBLK
  1

  9
$DIMLUNIT
 70
     2
  9
$DIMLWD
 70
     0
  9
$DIMLWE
 70
     0
  9
$DIMTMOVE
 70
     0
  9
$LUNITS
 70
     2
  9
$LUPREC
 70
     4
  9
$SKETCHINC
 40
0.1
  9
$FILLETRAD
 40
0.0
  9
$AUNITS
 70
     0
  9
$AUPREC
 70
     0
  9
$MENU
  1
acad
  9
$ELEVATION
 40
0.0
  9
$PELEVATION
 40
0.0
  9
$THICKNESS
 40
0.0
  9
$LIMCHECK
 70
     0
  9
$CHAMFERA
 40
0.0
  9
$CHAMFERB
 40
0.0
  9
$CHAMFERC
 40
0.0
  9
$CHAMFERD
 40
0.0
  9
$SKPOLY
 70
     0
  9
$TDCREATE
 40
0.000000000
  9
$TDUCREATE
 40
0.000000000
  9
$TDUPDATE
 40
0.000000000
  9
$TDUUPDATE
 40
0.000000000
  9
$TDINDWG
 40
0.0000000000
  9
$TDUSRTIMER
 40
0.0000000000
  9
$USRTIMER
 70
     1
  9
$ANGBASE
 50
0.0
  9
$ANGDIR
 70
     0
  9
$PDMODE
 70
     0
  9
$PDSIZE
 40
0.0
  9
$PLINEWID
 40
0.0
  9
$SPLFRAME
 70
     0
  9
$SPLINETYPE
 70
     6
  9
$SPLINESEGS
 70
     8
  9
$HANDSEED
  5
83
  9
$SURFTAB1
 70
     6
  9
$SURFTAB2
 70
     6
  9
$SURFTYPE
 70
     6
  9
$SURFU
 70
     6
  9
$SURFV
 70
     6
  9
$UCSBASE
  2

  9
$UCSNAME
  2

  9
$UCSORG
 10
0.0
 20
0.0
 30
0.0
  9
$UCSXDIR
 10
1.0
 20
0.0
 30
0.0
  9
$UCSYDIR
 10
0.0
 20
1.0
 30
0.0
  9
$UCSORTHOREF
  2

  9
$UCSORTHOVIEW
 70
     0
  9
$UCSORGTOP
 10
0.0
 20
0.0
 30
0.0
  9
$UCSORGBOTTOM
 10
0.0
 20
0.0
 30
0.0
  9
$UCSORGLEFT
 10
0.0
 20
0.0
 30
0.0
  9
$UCSORGRIGHT
 10
0.0
 20
0.0
 30
0.0
  9
$UCSORGFRONT
 10
0.0
 20
0.0
 30
0.0
  9
$UCSORGBACK
 10
0.0
 20
0.0
 30
0.0
  9
$PUCSBASE
  2

  9
$PUCSNAME
  2

  9
$PUCSORG
 10
0.0
 20
0.0
 30
0.0
  9
$PUCSXDIR
 10
1.0
 20
0.0
 30
0.0
  9
$PUCSYDIR
 10
0.0
 20
1.0
 30
0.0
  9
$PUCSORTHOREF
  2

  9
$PUCSORTHOVIEW
 70
     0
  9
$PUCSORGTOP
 10
0.0
 20
0.0
 30
0.0
  9
$PUCSORGBOTTOM
 10
0.0
 20
0.0
 30
0.0
  9
$PUCSORGLEFT
 10
0.0
 20
0.0
 30
0.0
  9
$PUCSORGRIGHT
 10
0.0
 20
0.0
 30
0.0
  9
$PUCSORGFRONT
 10
0.0
 20
0.0
 30
0.0
  9
$PUCSORGBACK
 10
0.0
 20
0.0
 30
0.0
  9
$USERI1
 70
     0
  9
$USERI2
 70
     0
  9
$USERI3
 70
     0
  9
$USERI4
 70
     0
  9
$USERI5
 70
     0
  9
$USERR1
 40
0.0
  9
$USERR2
 40
0.0
  9
$USERR3
 40
0.0
  9
$USERR4
 40
0.0
  9
$USERR5
 40
0.0
  9
$WORLDVIEW
 70
     1
  9
$SHADEDGE
 70
     3
  9
$SHADEDIF
 70
    70
  9
$TILEMODE
 70
     1
  9
$MAXACTVP
 70
    16
  9
$PINSBASE
 10
0.0
 20
0.0
 30
0.0
  9
$PLIMCHECK
 70
     0
  9
$PEXTMIN
 10
1.000000E+20
 20
1.000000E+20
 30
1.000000E+20
  9
$PEXTMAX
 10
-1.000000E+20
 20
-1.000000E+20
 30
-1.000000E+20
  9
$PLIMMIN
 10
0.0
 20
0.0
  9
$PLIMMAX
 10
12.0
 20
9.0
  9
$UNITMODE
 70
     0
  9
$VISRETAIN
 70
     0
  9
$PLINEGEN
 70
     1
  9
$PSLTSCALE
 70
     0
  9
$TREEDEPTH
 70
  3020
  9
$CMLSTYLE
  2
Standard
  9
$CMLJUST
 70
     0
  9
$CMLSCALE
 40
1.0
  9
$PROXYGRAPHICS
 70
     0
  9
$MEASUREMENT
 70
     0
  9
$CELWEIGHT
370
     0
  9
$ENDCAPS
280
     0
  9
$JOINSTYLE
280
     0
  9
$LWDISPLAY
290
     0
  9
$INSUNITS
 70
     5
  9
$HYPERLINKBASE
  1

  9
$XEDIT
290
     1
  9
$CEPSNTYPE
380
     0
  9
$PSTYLEMODE
290
     1
  9
$FINGERPRINTGUID
  2

  9
$VERSIONGUID
  2

  9
$EXTNAMES
290
     1
  9
$PSVPSCALE
 40
0.0
  0
ENDSEC
  0
SECTION
  2
CLASSES
  0
CLASS
  1
LWPOLYLINE
  2
AcDbPolyline
  3
AutoCAD 2000
 90
    32768
280
     0
281
     1
  0
CLASS
  1
IMAGE
  2
AcDbRasterImage
  3
ISM
 90
    32895
280
     0
281
     1
  0
CLASS
  1
OLE2FRAME
  2
AcDbOle2Frame
  3
AutoCAD 2000
 90
    32768
280
     0
281
     1
  0
CLASS
  1
HATCH
  2
AcDbHatch
  3
AutoCAD 2000
 90
    32768
280
     0
281
     1
  0
CLASS
  1
DICTIONARYVAR
  2
AcDbDictionaryVar
  3
AutoCAD 2000
 90
    32768
280
     0
281
     0
  0
CLASS
  1
RASTERVARIABLES
  2
AcDbRasterVariables
  3
ISM
 90
    32768
280
     0
281
     0
  0
CLASS
  1
IMAGEDEF
  2
AcDbRasterImageDef
  3
ISM
 90
    32768
280
     0
281
     0
  0
CLASS
  1
IMAGEDEF_REACTOR
  2
AcDbRasterImageDefReactor
  3
ISM
 90
    32769
280
     0
281
     0
  0
CLASS
  1
IDBUFFER
  2
AcDbIdBuffer
  3
AutoCAD 2000
 90
    32768
280
     0
281
     0
  0
CLASS
  1
SPATIAL_FILTER
  2
AcDbSpatialFilter
  3
AutoCAD 2000
 90
    32768
280
     0
281
     0
  0
CLASS
  1
XRECORD
  2
AcDbXrecord
  3
AutoCAD 2000
 90
    32768
280
     0
281
     0
  0
CLASS
  1
SORTENTSTABLE
  2
AcDbSortentsTable
  3
AutoCAD 2000
 90
    32768
280
     0
281
     0
  0
CLASS
  1
LAYER_INDEX
  2
AcDbLayerIndex
  3
AutoCAD 2000
 90
    32768
280
     0
281
     0
  0
CLASS
  1
SPATIAL_INDEX
  2
AcDbSpatialIndex
  3
AutoCAD 2000
 90
    32768
280
     0
281
     0
  0
CLASS
  1
OBJECT_PTR
  2
CAseDLPNTableRecord
  3
"ASE-LPNTableRecord"
 90
    32769
280
     0
281
     0
  0
CLASS
  1
LAYOUT
  2
AcDbLayout
  3
AutoCAD 2000
 90
        0
280
     0
281
     0
  0
CLASS
  1
PLOTSETTINGS
  2
AcDbPlotSettings
  3
AutoCAD 2000
 90
    32768
280
     0
281
     0
  0
CLASS
  1
ACDBDICTIONARYWDFLT
  2
AcDbDictionaryWithDefault
  3
AutoCAD 2000
 90
        0
280
     0
281
     0
  0
CLASS
  1
ACDBPLACEHOLDER
  2
AcDbPlaceHolder
  3
AutoCAD 2000
 90
        0
280
     0
281
     0
  0
CLASS
  1
VBA_PROJECT
  2
AcDbVbaProject
  3
acadvba
 90
    32768
280
     0
281
     0
  0
CLASS
  1
WIPEOUT
  2
AcDbWipeout
  3
WipeOut|AutoCAD Express Tool|expresstools@autodesk.com
 90
    32895
280
     0
281
     1
  0
CLASS
  1
WIPEOUTVARIABLES
  2
AcDbWipeoutVariables
  3
WipeOut|AutoCAD Express Tool|expresstools@autodesk.com
 90
        0
280
     0
281
     0
  0
CLASS
  1
RTEXT
  2
RText
  3
RText|AutoCAD Express Tool|expresstools@autodesk.com
 90
    32768
280
     0
281
     1
  0
CLASS
  1
ARCALIGNEDTEXT
  2
AcDbArcAlignedText
  3
ATEXT|AutoCAD Express Tool|expresstools@autodesk.com
 90
    32768
280
     0
281
     1
  0
ENDSEC
  0
SECTION
  2
TABLES
  0
TABLE
  2
VPORT
  5
7
100
AcDbSymbolTable
 70
     1
  0
VPORT
  5
15
100
AcDbSymbolTableRecord
100
AcDbViewportTableRecord
  2
*ACTIVE
 70
     0
 10
0.0
 20
0.0
 11
1.0
 21
1.0
 12
6.591288
 22
4.579184
 13
0.0
 23
0.0
 14
1.0
 24
1.0
 15
0.0
 25
0.0
 16
0.0
 26
0.0
 36
1.0
 17
0.0
 27
0.0
 37
0.0
 40
9.158369
 41
0.688564
 42
50.0
 43
0.0
 44
0.0
 50
0.0
 51
0.0
 71
     0
 72
   100
 73
     1
 74
     1
 75
     0
 76
     0
 77
     0
 78
     0
281
     0
 65
     0
110
0.0
120
0.0
130
0.0
111
1.0
121
0.0
131
0.0
112
0.0
122
1.0
132
0.0
345
0
346
0
 79
     0
146
0.0
  0
ENDTAB
  0
TABLE
  2
LTYPE
  5
4
100
AcDbSymbolTable
 70
     3
  0
LTYPE
  5
11
100
AcDbSymbolTableRecord
100
AcDbLinetypeTableRecord
  2
ByBlock
 70
    64
  3

 72
    65
 73
     0
 40
0.0
  0
LTYPE
  5
12
100
AcDbSymbolTableRecord
100
AcDbLinetypeTableRecord
  2
ByLayer
 70
    64
  3

 72
    65
 73
     0
 40
0.0
  0
LTYPE
  5
13
100
AcDbSymbolTableRecord
100
AcDbLinetypeTableRecord
  2
Continuous
 70
    64
  3
Solid line
 72
    65
 73
     0
 40
0.0
  0
ENDTAB
  0
TABLE
  2
LAYER
  5
2
100
AcDbSymbolTable
 70
     2
  0
LAYER
  5
14
100
AcDbSymbolTableRecord
100
AcDbLayerTableRecord
  2
0
 70
     0
 62
     7
  6
Continuous
290
     1
370
    -3
390
1D
  0
LAYER
  5
24
100
AcDbSymbolTableRecord
100
AcDbLayerTableRecord
  2
Ebene 1
 70
     0
 62
     7
  6
Continuous
290
     1
370
    -3
390
1F
  0
ENDTAB
  0
TABLE
  2
STYLE
  5
3
100
AcDbSymbolTable
 70
     1
  0
STYLE
  5
17
100
AcDbSymbolTableRecord
100
AcDbTextStyleTableRecord
  2
Standard
 70
     0
 40
0.0
 41
1.0
 50
0.0
 71
     0
 42
0.0
  3
txt
  4

  0
ENDTAB
  0
TABLE
  2
VIEW
  5
5
100
AcDbSymbolTable
 70
     0
  0
ENDTAB
  0
TABLE
  2
UCS
  5
6
100
AcDbSymbolTable
 70
     0
  0
ENDTAB
  0
TABLE
  2
APPID
  5
8
100
AcDbSymbolTable
 70
     1
  0
APPID
  5
16
100
AcDbSymbolTableRecord
100
AcDbRegAppTableRecord
  2
ACAD
 70
     0
  0
ENDTAB
  0
TABLE
  2
DIMSTYLE
  5
9
100
AcDbSymbolTable
 70
     1
100
AcDbDimStyleTable
 71
     0
  0
DIMSTYLE
105
18
100
AcDbSymbolTableRecord
100
AcDbDimStyleTableRecord
  2
Standard
 70
     0
  3

  4

 40
1.0
 41
0.18
 42
0.0625
 43
0.38
 44
0.18
 45
0.0
 46
0.0
 47
0.0
 48
0.0
 71
     0
 72
     0
 73
     1
 74
     1
 75
     0
 76
     0
 77
     0
 78
     0
 79
     0
140
0.18
141
0.09
142
0.0
143
25.4
144
1.0
145
0.0
146
1.0
147
0.09
148
0.0
170
     0
171
     2
172
     0
173
     0
174
     0
175
     0
176
     0
177
     0
178
     0
179
     0
271
     4
272
     4
273
     2
274
     2
275
     0
276
     0
277
     2
278
    46
279
     0
280
     0
281
     0
282
     0
283
     1
284
     0
285
     0
286
     0
288
     0
340
17
341
0
342
0
343
0
344
0
371
    -2
372
    -2
  0
ENDTAB
  0
TABLE
  2
BLOCK_RECORD
  5
1
100
AcDbSymbolTable
 70
     0
  0
BLOCK_RECORD
  5
A
100
AcDbSymbolTableRecord
100
AcDbBlockTableRecord
  2
*MODEL_SPACE
340
20
  0
BLOCK_RECORD
  5
B
100
AcDbSymbolTableRecord
100
AcDbBlockTableRecord
  2
*PAPER_SPACE
340
21
  0
ENDTAB
  0
ENDSEC
  0
SECTION
  2
BLOCKS
  0
BLOCK
  5
D
100
AcDbEntity
  8
0
100
AcDbBlockBegin
  2
*MODEL_SPACE
 70
     0
 10
0.0
 20
0.0
 30
0.0
  3
*MODEL_SPACE
  1

  0
ENDBLK
  5
E
100
AcDbEntity
  8
0
100
AcDbBlockEnd
  0
BLOCK
  5
F
100
AcDbEntity
 67
     1
  8
0
100
AcDbBlockBegin
  2
*PAPER_SPACE
 70
     0
 10
0.0
 20
0.0
 30
0.0
  3
*PAPER_SPACE
  1

  0
ENDBLK
  5
10
100
AcDbEntity
 67
     1
  8
0
100
AcDbBlockEnd
  0
ENDSEC
  0
SECTION
  2
ENTITIES
  0
SPLINE
  5
25
100
AcDbEntity
  8
Ebene 1
100
AcDbSpline
210
0.0
220
0.0
230
1.0
 70
     1
 71
     3
 72
    88
 73
    84
 74
     0
 42
0.0000000001
 43
0.0000000001
 40
0.0
 40
0.0
 40
0.0
 40
0.0
 40
0.0476190476190476
 40
0.0476190476190476
 40
0.0476190476190476
 40
0.0476190476190476
 40
0.0952380952380952
 40
0.0952380952380952
 40
0.0952380952380952
 40
0.0952380952380952
 40
0.1428571428571429
 40
0.1428571428571429
 40
0.1428571428571429
 40
0.1428571428571429
 40
0.1904761904761905
 40
0.1904761904761905
 40
0.1904761904761905
 40
0.1904761904761905
 40
0.2380952380952381
 40
0.2380952380952381
 40
0.2380952380952381
 40
0.2380952380952381
 40
0.2857142857142857
 40
0.2857142857142857
 40
0.2857142857142857
 40
0.2857142857142857
 40
0.3333333333333333
 40
0.3333333333333333
 40
0.3333333333333333
 40
0.3333333333333333
 40
0.3809523809523809
 40
0.3809523809523809
 40
0.3809523809523809
 40
0.3809523809523809
 40
0.4285714285714286
 40
0.4285714285714286
 40
0.4285714285714286
 40
0.4285714285714286
 40
0.4761904761904762
 40
0.4761904761904762
 40
0.4761904761904762
 40
0.4761904761904762
 40
0.5238095238095237
 40
0.5238095238095237
 40
0.5238095238095237
 40
0.5238095238095237
 40
0.5714285714285714
 40
0.5714285714285714
 40
0.5714285714285714
 40
0.5714285714285714
 40
0.6190476190476191
 40
0.6190476190476191
 40
0.6190476190476191
 40
0.6190476190476191
 40
0.6666666666666667
 40
0.6666666666666667
 40
0.6666666666666667
 40
0.6666666666666667
 40
0.7142857142857144
 40
0.7142857142857144
 40
0.7142857142857144
 40
0.7142857142857144
 40
0.7619047619047621
 40
0.7619047619047621
 40
0.7619047619047621
 40
0.7619047619047621
 40
0.8095238095238098
 40
0.8095238095238098
 40
0.8095238095238098
 40
0.8095238095238098
 40
0.8571428571428574
 40
0.8571428571428574
 40
0.8571428571428574
 40
0.8571428571428574
 40
0.9047619047619051
 40
0.9047619047619051
 40
0.9047619047619051
 40
0.9047619047619051
 40
0.9523809523809528
 40
0.9523809523809528
 40
0.9523809523809528
 40
0.9523809523809528
 40
1.0
 40
1.0
 40
1.0
 40
1.0
 10
-0.24877
 20
6.1259100000000002
 30
0.0
 10
-0.18527
 20
6.0954300000000003
 30
0.0
 10
-0.06081
 20
6.0852700000000004
 30
0.0
 10
-0.09129
 20
6.0014500000000002
 30
0.0
 10
-0.09129
 20
6.0014500000000002
 30
0.0
 10
0.74436
 20
6.2198900000000004
 30
0.0
 10
1.6308200000000002
 20
5.8769900000000002
 30
0.0
 10
2.3521800000000002
 20
5.4121700000000006
 30
0.0
 10
2.3521800000000002
 20
5.4121700000000006
 30
0.0
 10
2.9363800000000002
 20
4.9498900000000008
 30
0.0
 10
3.1853000000000002
 20
4.25901
 30
0.0
 10
3.4672400000000003
 20
3.6087700000000003
 30
0.0
 10
3.4672400000000003
 20
3.6087700000000003
 30
0.0
 10
3.7745800000000003
 20
2.7705700000000002
 30
0.0
 10
3.6323400000000001
 20
1.8256900000000003
 30
0.0
 10
3.3021400000000001
 20
1.0535300000000001
 30
0.0
 10
3.3021400000000001
 20
1.0535300000000001
 30
0.0
 10
3.4748600000000005
 20
0.6039500000000001
 30
0.0
 10
3.8228400000000002
 20
0.04261
 30
0.0
 10
3.9803200000000003
 20
-0.53396
 30
0.0
 10
3.9803200000000003
 20
-0.53396
 30
0.0
 10
4.0692200000000005
 20
-0.52634
 30
0.0
 10
4.2190799999999999
 20
-0.4857
 30
0.0
 10
4.2292400000000008
 20
-0.61016
 30
0.0
 10
4.2292400000000008
 20
-0.61016
 30
0.0
 10
4.0158800000000001
 20
-0.7447800000000001
 30
0.0
 10
3.9473000000000003
 20
-1.1003800000000001
 30
0.0
 10
3.7212400000000003
 20
-1.1054600000000001
 30
0.0
 10
3.7212400000000003
 20
-1.1054600000000001
 30
0.0
 10
3.9219000000000004
 20
-1.20706
 30
0.0
 10
3.8152200000000005
 20
-1.5067800000000002
 30
0.0
 10
3.6399600000000003
 20
-1.6210800000000001
 30
0.0
 10
3.6399600000000003
 20
-1.6210800000000001
 30
0.0
 10
3.6983800000000002
 20
-1.8141200000000002
 30
0.0
 10
3.3910400000000003
 20
-2.0935200000000003
 30
0.0
 10
3.2564200000000003
 20
-1.8801600000000001
 30
0.0
 10
3.2564200000000003
 20
-1.8801600000000001
 30
0.0
 10
3.2792800000000004
 20
-1.6439400000000002
 30
0.0
 10
3.5739200000000002
 20
-1.4788400000000002
 30
0.0
 10
3.5688400000000002
 20
-1.2477
 30
0.0
 10
3.5688400000000002
 20
-1.2477
 30
0.0
 10
3.4316800000000001
 20
-1.1537200000000001
 30
0.0
 10
3.0710000000000002
 20
-1.58552
 30
0.0
 10
3.2132400000000003
 20
-1.8725400000000001
 30
0.0
 10
3.2132400000000003
 20
-1.8725400000000001
 30
0.0
 10
3.1548200000000004
 20
-1.9690600000000003
 30
0.0
 10
3.0887800000000003
 20
-2.0274800000000002
 30
0.0
 10
3.1014800000000005
 20
-2.1570200000000002
 30
0.0
 10
3.1014800000000005
 20
-2.1570200000000002
 30
0.0
 10
2.71794
 20
-2.4237200000000003
 30
0.0
 10
3.1243400000000001
 20
-2.8606000000000003
 30
0.0
 10
3.1141800000000002
 20
-3.2035000000000005
 30
0.0
 10
3.1141800000000002
 20
-3.2035000000000005
 30
0.0
 10
2.3267800000000003
 20
-4.0112200000000007
 30
0.0
 10
1.3006200000000001
 20
-4.7732200000000002
 30
0.0
 10
0.7519800000000001
 20
-5.8197000000000001
 30
0.0
 10
0.7519800000000001
 20
-5.8197000000000001
 30
0.0
 10
0.1246
 20
-5.7587400000000004
 30
0.0
 10
-0.4697500000000001
 20
-5.9187600000000007
 30
0.0
 10
-1.0234700000000001
 20
-6.1321200000000005
 30
0.0
 10
-1.0234700000000001
 20
-6.1321200000000005
 30
0.0
 10
-1.7930900000000001
 20
-5.6698400000000007
 30
0.0
 10
-1.4755900000000002
 20
-4.5420800000000003
 30
0.0
 10
-2.2807700000000004
 20
-4.0594800000000006
 30
0.0
 10
-2.2807700000000004
 20
-4.0594800000000006
 30
0.0
 10
-2.22743
 20
-3.4448000000000003
 30
0.0
 10
-2.5804900000000002
 20
-2.9317200000000003
 30
0.0
 10
-2.5957300000000001
 20
-2.3348200000000001
 30
0.0
 10
-2.5957300000000001
 20
-2.3348200000000001
 30
0.0
 10
-2.6770100000000001
 20
-2.2332200000000002
 30
0.0
 10
-2.7633700000000001
 20
-2.1697200000000003
 30
0.0
 10
-2.8725900000000002
 20
-2.1036800000000002
 30
0.0
 10
-2.8725900000000002
 20
-2.1036800000000002
 30
0.0
 10
-3.7361900000000001
 20
-1.9741400000000002
 30
0.0
 10
-3.6904700000000004
 20
-0.9581400000000001
 30
0.0
 10
-3.6168100000000001
 20
-0.3206000000000001
 30
0.0
 10
-3.6168100000000001
 20
-0.3206000000000001
 30
0.0
 10
-3.8428700000000005
 20
0.13659
 30
0.0
 10
-4.3127700000000004
 20
0.5912500000000001
 30
0.0
 10
-4.0409900000000007
 20
1.1246500000000001
 30
0.0
 10
-4.0409900000000007
 20
1.1246500000000001
 30
0.0
 10
-4.9071300000000004
 20
3.5376500000000002
 30
0.0
 10
-2.5474700000000001
 20
5.9709700000000003
 30
0.0
 10
-0.24877
 20
6.1259100000000002
 30
0.0
  0
SPLINE
  5
26
100
AcDbEntity
  8
Ebene 1
 62
     7
100
AcDbSpline
210
0.0
220
0.0
230
1.0
 70
     1
 71
     3
 72
    16
 73
    12
 74
     0
 42
0.0000000001
 43
0.0000000001
 40
0.0
 40
0.0
 40
0.0
 40
0.0
 40
0.3333333333333333
 40
0.3333333333333333
 40
0.3333333333333333
 40
0.3333333333333333
 40
0.6666666666666666
 40
0.6666666666666666
 40
0.6666666666666666
 40
0.6666666666666666
 40
1.0
 40
1.0
 40
1.0
 40
1.0
 10
-0.50531
 20
6.0141500000000008
 30
0.0
 10
-0.46213
 20
5.9963700000000006
 30
0.0
 10
-0.59675
 20
5.9785900000000005
 30
0.0
 10
-0.6221500000000001
 20
5.9430300000000003
 30
0.0
 10
-0.6221500000000001
 20
5.9430300000000003
 30
0.0
 10
-0.9980700000000001
 20
5.9481100000000007
 30
0.0
 10
-1.3206500000000001
 20
5.7652300000000007
 30
0.0
 10
-1.6660900000000001
 20
5.6229900000000006
 30
0.0
 10
-1.6660900000000001
 20
5.6229900000000006
 30
0.0
 10
-1.3511300000000002
 20
5.8541300000000005
 30
0.0
 10
-0.9625100000000001
 20
5.9709700000000003
 30
0.0
 10
-0.50531
 20
6.0141500000000008
 30
0.0
  0
SPLINE
  5
27
100
AcDbEntity
  8
Ebene 1
 62
     7
100
AcDbSpline
210
0.0
220
0.0
230
1.0
 70
     1
 71
     3
 72
    28
 73
    24
 74
     0
 42
0.0000000001
 43
0.0000000001
 40
0.0
 40
0.0
 40
0.0
 40
0.0
 40
0.1666666666666667
 40
0.1666666666666667
 40
0.1666666666666667
 40
0.1666666666666667
 40
0.3333333333333333
 40
0.3333333333333333
 40
0.3333333333333333
 40
0.3333333333333333
 40
0.5
 40
0.5
 40
0.5
 40
0.5
 40
0.6666666666666666
 40
0.6666666666666666
 40
0.6666666666666666
 40
0.6666666666666666
 40
0.8333333333333333
 40
0.8333333333333333
 40
0.8333333333333333
 40
0.8333333333333333
 40
1.0
 40
1.0
 40
1.0
 40
1.0
 10
0.4675
 20
5.9963700000000006
 30
0.0
 10
0.5437000000000001
 20
5.9430300000000003
 30
0.0
 10
0.6453000000000001
 20
5.9887500000000005
 30
0.0
 10
0.7088000000000001
 20
5.9354100000000001
 30
0.0
 10
0.7088000000000001
 20
5.9354100000000001
 30
0.0
 10
0.9755
 20
5.9531900000000002
 30
0.0
 10
1.2422000000000002
 20
5.8541300000000005
 30
0.0
 10
1.4784200000000001
 20
5.7245900000000001
 30
0.0
 10
1.4784200000000001
 20
5.7245900000000001
 30
0.0
 10
1.6892400000000001
 20
5.6458500000000003
 30
0.0
 10
1.9254600000000002
 20
5.5645700000000007
 30
0.0
 10
2.08548
 20
5.4172500000000001
 30
0.0
 10
2.08548
 20
5.4172500000000001
 30
0.0
 10
1.9965800000000002
 20
5.35121
 30
0.0
 10
1.9381600000000001
 20
5.5594900000000003
 30
0.0
 10
1.8543400000000001
 20
5.4401100000000007
 30
0.0
 10
1.8543400000000001
 20
5.4401100000000007
 30
0.0
 10
1.4073000000000002
 20
5.7296700000000005
 30
0.0
 10
0.8866000000000001
 20
5.8414300000000008
 30
0.0
 10
0.38622
 20
5.9608100000000004
 30
0.0
 10
0.38622
 20
5.9608100000000004
 30
0.0
 10
0.38622
 20
5.9963700000000006
 30
0.0
 10
0.4497200000000001
 20
5.9709700000000003
 30
0.0
 10
0.4675
 20
5.9963700000000006
 30
0.0
  0
SPLINE
  5
28
100
AcDbEntity
  8
Ebene 1
 62
     7
100
AcDbSpline
210
0.0
220
0.0
230
1.0
 70
     1
 71
     3
 72
   476
 73
   472
 74
     0
 42
0.0000000001
 43
0.0000000001
 40
0.0
 40
0.0
 40
0.0
 40
0.0
 40
0.0084745762711864
 40
0.0084745762711864
 40
0.0084745762711864
 40
0.0084745762711864
 40
0.0169491525423729
 40
0.0169491525423729
 40
0.0169491525423729
 40
0.0169491525423729
 40
0.0254237288135593
 40
0.0254237288135593
 40
0.0254237288135593
 40
0.0254237288135593
 40
0.0338983050847458
 40
0.0338983050847458
 40
0.0338983050847458
 40
0.0338983050847458
 40
0.0423728813559322
 40
0.0423728813559322
 40
0.0423728813559322
 40
0.0423728813559322
 40
0.0508474576271186
 40
0.0508474576271186
 40
0.0508474576271186
 40
0.0508474576271186
 40
0.0593220338983051
 40
0.0593220338983051
 40
0.0593220338983051
 40
0.0593220338983051
 40
0.0677966101694915
 40
0.0677966101694915
 40
0.0677966101694915
 40
0.0677966101694915
 40
0.076271186440678
 40
0.076271186440678
 40
0.076271186440678
 40
0.076271186440678
 40
0.0847457627118644
 40
0.0847457627118644
 40
0.0847457627118644
 40
0.0847457627118644
 40
0.0932203389830509
 40
0.0932203389830509
 40
0.0932203389830509
 40
0.0932203389830509
 40
0.1016949152542373
 40
0.1016949152542373
 40
0.1016949152542373
 40
0.1016949152542373
 40
0.1101694915254238
 40
0.1101694915254238
 40
0.1101694915254238
 40
0.1101694915254238
 40
0.1186440677966102
 40
0.1186440677966102
 40
0.1186440677966102
 40
0.1186440677966102
 40
0.1271186440677966
 40
0.1271186440677966
 40
0.1271186440677966
 40
0.1271186440677966
 40
0.1355932203389831
 40
0.1355932203389831
 40
0.1355932203389831
 40
0.1355932203389831
 40
0.1440677966101695
 40
0.1440677966101695
 40
0.1440677966101695
 40
0.1440677966101695
 40
0.152542372881356
 40
0.152542372881356
 40
0.152542372881356
 40
0.152542372881356
 40
0.1610169491525424
 40
0.1610169491525424
 40
0.1610169491525424
 40
0.1610169491525424
 40
0.1694915254237289
 40
0.1694915254237289
 40
0.1694915254237289
 40
0.1694915254237289
 40
0.1779661016949153
 40
0.1779661016949153
 40
0.1779661016949153
 40
0.1779661016949153
 40
0.1864406779661018
 40
0.1864406779661018
 40
0.1864406779661018
 40
0.1864406779661018
 40
0.1949152542372882
 40
0.1949152542372882
 40
0.1949152542372882
 40
0.1949152542372882
 40
0.2033898305084746
 40
0.2033898305084746
 40
0.2033898305084746
 40
0.2033898305084746
 40
0.2118644067796611
 40
0.2118644067796611
 40
0.2118644067796611
 40
0.2118644067796611
 40
0.2203389830508475
 40
0.2203389830508475
 40
0.2203389830508475
 40
0.2203389830508475
 40
0.228813559322034
 40
0.228813559322034
 40
0.228813559322034
 40
0.228813559322034
 40
0.2372881355932204
 40
0.2372881355932204
 40
0.2372881355932204
 40
0.2372881355932204
 40
0.2457627118644069
 40
0.2457627118644069
 40
0.2457627118644069
 40
0.2457627118644069
 40
0.2542372881355933
 40
0.2542372881355933
 40
0.2542372881355933
 40
0.2542372881355933
 40
0.2627118644067797
 40
0.2627118644067797
 40
0.2627118644067797
 40
0.2627118644067797
 40
0.2711864406779662
 40
0.2711864406779662
 40
0.2711864406779662
 40
0.2711864406779662
 40
0.2796610169491526
 40
0.2796610169491526
 40
0.2796610169491526
 40
0.2796610169491526
 40
0.288135593220339
 40
0.288135593220339
 40
0.288135593220339
 40
0.288135593220339
 40
0.2966101694915254
 40
0.2966101694915254
 40
0.2966101694915254
 40
0.2966101694915254
 40
0.3050847457627118
 40
0.3050847457627118
 40
0.3050847457627118
 40
0.3050847457627118
 40
0.3135593220338983
 40
0.3135593220338983
 40
0.3135593220338983
 40
0.3135593220338983
 40
0.3220338983050847
 40
0.3220338983050847
 40
0.3220338983050847
 40
0.3220338983050847
 40
0.3305084745762711
 40
0.3305084745762711
 40
0.3305084745762711
 40
0.3305084745762711
 40
0.3389830508474575
 40
0.3389830508474575
 40
0.3389830508474575
 40
0.3389830508474575
 40
0.3474576271186439
 40
0.3474576271186439
 40
0.3474576271186439
 40
0.3474576271186439
 40
0.3559322033898303
 40
0.3559322033898303
 40
0.3559322033898303
 40
0.3559322033898303
 40
0.3644067796610168
 40
0.3644067796610168
 40
0.3644067796610168
 40
0.3644067796610168
 40
0.3728813559322032
 40
0.3728813559322032
 40
0.3728813559322032
 40
0.3728813559322032
 40
0.3813559322033896
 40
0.3813559322033896
 40
0.3813559322033896
 40
0.3813559322033896
 40
0.389830508474576
 40
0.389830508474576
 40
0.389830508474576
 40
0.389830508474576
 40
0.3983050847457624
 40
0.3983050847457624
 40
0.3983050847457624
 40
0.3983050847457624
 40
0.4067796610169489
 40
0.4067796610169489
 40
0.4067796610169489
 40
0.4067796610169489
 40
0.4152542372881353
 40
0.4152542372881353
 40
0.4152542372881353
 40
0.4152542372881353
 40
0.4237288135593217
 40
0.4237288135593217
 40
0.4237288135593217
 40
0.4237288135593217
 40
0.4322033898305081
 40
0.4322033898305081
 40
0.4322033898305081
 40
0.4322033898305081
 40
0.4406779661016945
 40
0.4406779661016945
 40
0.4406779661016945
 40
0.4406779661016945
 40
0.4491525423728809
 40
0.4491525423728809
 40
0.4491525423728809
 40
0.4491525423728809
 40
0.4576271186440674
 40
0.4576271186440674
 40
0.4576271186440674
 40
0.4576271186440674
 40
0.4661016949152538
 40
0.4661016949152538
 40
0.4661016949152538
 40
0.4661016949152538
 40
0.4745762711864402
 40
0.4745762711864402
 40
0.4745762711864402
 40
0.4745762711864402
 40
0.4830508474576266
 40
0.4830508474576266
 40
0.4830508474576266
 40
0.4830508474576266
 40
0.491525423728813
 40
0.491525423728813
 40
0.491525423728813
 40
0.491525423728813
 40
0.4999999999999994
 40
0.4999999999999994
 40
0.4999999999999994
 40
0.4999999999999994
 40
0.5084745762711859
 40
0.5084745762711859
 40
0.5084745762711859
 40
0.5084745762711859
 40
0.5169491525423723
 40
0.5169491525423723
 40
0.5169491525423723
 40
0.5169491525423723
 40
0.5254237288135587
 40
0.5254237288135587
 40
0.5254237288135587
 40
0.5254237288135587
 40
0.5338983050847451
 40
0.5338983050847451
 40
0.5338983050847451
 40
0.5338983050847451
 40
0.5423728813559315
 40
0.5423728813559315
 40
0.5423728813559315
 40
0.5423728813559315
 40
0.550847457627118
 40
0.550847457627118
 40
0.550847457627118
 40
0.550847457627118
 40
0.5593220338983044
 40
0.5593220338983044
 40
0.5593220338983044
 40
0.5593220338983044
 40
0.5677966101694908
 40
0.5677966101694908
 40
0.5677966101694908
 40
0.5677966101694908
 40
0.5762711864406772
 40
0.5762711864406772
 40
0.5762711864406772
 40
0.5762711864406772
 40
0.5847457627118636
 40
0.5847457627118636
 40
0.5847457627118636
 40
0.5847457627118636
 40
0.59322033898305
 40
0.59322033898305
 40
0.59322033898305
 40
0.59322033898305
 40
0.6016949152542365
 40
0.6016949152542365
 40
0.6016949152542365
 40
0.6016949152542365
 40
0.6101694915254229
 40
0.6101694915254229
 40
0.6101694915254229
 40
0.6101694915254229
 40
0.6186440677966093
 40
0.6186440677966093
 40
0.6186440677966093
 40
0.6186440677966093
 40
0.6271186440677957
 40
0.6271186440677957
 40
0.6271186440677957
 40
0.6271186440677957
 40
0.6355932203389821
 40
0.6355932203389821
 40
0.6355932203389821
 40
0.6355932203389821
 40
0.6440677966101686
 40
0.6440677966101686
 40
0.6440677966101686
 40
0.6440677966101686
 40
0.652542372881355
 40
0.652542372881355
 40
0.652542372881355
 40
0.652542372881355
 40
0.6610169491525414
 40
0.6610169491525414
 40
0.6610169491525414
 40
0.6610169491525414
 40
0.6694915254237278
 40
0.6694915254237278
 40
0.6694915254237278
 40
0.6694915254237278
 40
0.6779661016949142
 40
0.6779661016949142
 40
0.6779661016949142
 40
0.6779661016949142
 40
0.6864406779661006
 40
0.6864406779661006
 40
0.6864406779661006
 40
0.6864406779661006
 40
0.6949152542372871
 40
0.6949152542372871
 40
0.6949152542372871
 40
0.6949152542372871
 40
0.7033898305084735
 40
0.7033898305084735
 40
0.7033898305084735
 40
0.7033898305084735
 40
0.7118644067796599
 40
0.7118644067796599
 40
0.7118644067796599
 40
0.7118644067796599
 40
0.7203389830508463
 40
0.7203389830508463
 40
0.7203389830508463
 40
0.7203389830508463
 40
0.7288135593220327
 40
0.7288135593220327
 40
0.7288135593220327
 40
0.7288135593220327
 40
0.7372881355932192
 40
0.7372881355932192
 40
0.7372881355932192
 40
0.7372881355932192
 40
0.7457627118644056
 40
0.7457627118644056
 40
0.7457627118644056
 40
0.7457627118644056
 40
0.754237288135592
 40
0.754237288135592
 40
0.754237288135592
 40
0.754237288135592
 40
0.7627118644067784
 40
0.7627118644067784
 40
0.7627118644067784
 40
0.7627118644067784
 40
0.7711864406779648
 40
0.7711864406779648
 40
0.7711864406779648
 40
0.7711864406779648
 40
0.7796610169491512
 40
0.7796610169491512
 40
0.7796610169491512
 40
0.7796610169491512
 40
0.7881355932203377
 40
0.7881355932203377
 40
0.7881355932203377
 40
0.7881355932203377
 40
0.7966101694915241
 40
0.7966101694915241
 40
0.7966101694915241
 40
0.7966101694915241
 40
0.8050847457627105
 40
0.8050847457627105
 40
0.8050847457627105
 40
0.8050847457627105
 40
0.8135593220338969
 40
0.8135593220338969
 40
0.8135593220338969
 40
0.8135593220338969
 40
0.8220338983050833
 40
0.8220338983050833
 40
0.8220338983050833
 40
0.8220338983050833
 40
0.8305084745762698
 40
0.8305084745762698
 40
0.8305084745762698
 40
0.8305084745762698
 40
0.8389830508474562
 40
0.8389830508474562
 40
0.8389830508474562
 40
0.8389830508474562
 40
0.8474576271186426
 40
0.8474576271186426
 40
0.8474576271186426
 40
0.8474576271186426
 40
0.855932203389829
 40
0.855932203389829
 40
0.855932203389829
 40
0.855932203389829
 40
0.8644067796610154
 40
0.8644067796610154
 40
0.8644067796610154
 40
0.8644067796610154
 40
0.8728813559322018
 40
0.8728813559322018
 40
0.8728813559322018
 40
0.8728813559322018
 40
0.8813559322033883
 40
0.8813559322033883
 40
0.8813559322033883
 40
0.8813559322033883
 40
0.8898305084745747
 40
0.8898305084745747
 40
0.8898305084745747
 40
0.8898305084745747
 40
0.8983050847457611
 40
0.8983050847457611
 40
0.8983050847457611
 40
0.8983050847457611
 40
0.9067796610169475
 40
0.9067796610169475
 40
0.9067796610169475
 40
0.9067796610169475
 40
0.9152542372881339
 40
0.9152542372881339
 40
0.9152542372881339
 40
0.9152542372881339
 40
0.9237288135593204
 40
0.9237288135593204
 40
0.9237288135593204
 40
0.9237288135593204
 40
0.9322033898305068
 40
0.9322033898305068
 40
0.9322033898305068
 40
0.9322033898305068
 40
0.9406779661016932
 40
0.9406779661016932
 40
0.9406779661016932
 40
0.9406779661016932
 40
0.9491525423728796
 40
0.9491525423728796
 40
0.9491525423728796
 40
0.9491525423728796
 40
0.957627118644066
 40
0.957627118644066
 40
0.957627118644066
 40
0.957627118644066
 40
0.9661016949152524
 40
0.9661016949152524
 40
0.9661016949152524
 40
0.9661016949152524
 40
0.9745762711864389
 40
0.9745762711864389
 40
0.9745762711864389
 40
0.9745762711864389
 40
0.9830508474576253
 40
0.9830508474576253
 40
0.9830508474576253
 40
0.9830508474576253
 40
0.9915254237288117
 40
0.9915254237288117
 40
0.9915254237288117
 40
0.9915254237288117
 40
1.0
 40
1.0
 40
1.0
 40
1.0
 10
-2.8192500000000003
 20
0.8350900000000001
 30
0.0
 10
-2.7227300000000003
 20
0.7995300000000001
 30
0.0
 10
-2.6312900000000004
 20
0.6699900000000001
 30
0.0
 10
-2.5373100000000002
 20
0.6750700000000001
 30
0.0
 10
-2.5373100000000002
 20
0.6750700000000001
 30
0.0
 10
-2.6033500000000003
 20
0.7284100000000001
 30
0.0
 10
-2.6998700000000002
 20
0.7995300000000001
 30
0.0
 10
-2.7125700000000004
 20
0.8884300000000001
 30
0.0
 10
-2.7125700000000004
 20
0.8884300000000001
 30
0.0
 10
-2.6643100000000004
 20
0.87065
 30
0.0
 10
-2.60589
 20
0.8046100000000001
 30
0.0
 10
-2.5652500000000003
 20
0.8173100000000001
 30
0.0
 10
-2.5652500000000003
 20
0.8173100000000001
 30
0.0
 10
-2.5982700000000003
 20
0.9239900000000001
 30
0.0
 10
-2.7709900000000003
 20
0.9925700000000001
 30
0.0
 10
-2.8751300000000004
 20
1.07131
 30
0.0
 10
-2.8751300000000004
 20
1.07131
 30
0.0
 10
-2.85989
 20
1.1246500000000001
 30
0.0
 10
-2.7582900000000001
 20
1.11195
 30
0.0
 10
-2.7913100000000002
 20
1.19323
 30
0.0
 10
-2.7913100000000002
 20
1.19323
 30
0.0
 10
-2.7913100000000002
 20
1.19323
 30
0.0
 10
-3.3120100000000003
 20
1.7088500000000002
 30
0.0
 10
-3.3120100000000003
 20
1.7088500000000002
 30
0.0
 10
-3.3120100000000003
 20
1.7088500000000002
 30
0.0
 10
-3.2154900000000004
 20
1.8079100000000001
 30
0.0
 10
-3.3501100000000004
 20
1.8968100000000001
 30
0.0
 10
-3.4263100000000004
 20
1.9628500000000002
 30
0.0
 10
-3.4263100000000004
 20
1.9628500000000002
 30
0.0
 10
-3.3069300000000004
 20
2.08731
 30
0.0
 10
-3.4948900000000003
 20
2.1863700000000001
 30
0.0
 10
-3.4339300000000001
 20
2.3057500000000002
 30
0.0
 10
-3.4339300000000001
 20
2.3057500000000002
 30
0.0
 10
-3.4466300000000003
 20
2.3565500000000004
 30
0.0
 10
-3.4898100000000003
 20
2.3819500000000002
 30
0.0
 10
-3.5431500000000002
 20
2.3692500000000001
 30
0.0
 10
-3.5431500000000002
 20
2.3692500000000001
 30
0.0
 10
-3.5431500000000002
 20
2.6892900000000002
 30
0.0
 10
-3.6193500000000003
 20
2.9610700000000003
 30
0.0
 10
-3.5507700000000004
 20
3.2912700000000004
 30
0.0
 10
-3.5507700000000004
 20
3.2912700000000004
 30
0.0
 10
-3.5253700000000001
 20
3.3496900000000003
 30
0.0
 10
-3.5075900000000004
 20
3.4258900000000003
 30
0.0
 10
-3.5228300000000004
 20
3.4919300000000004
 30
0.0
 10
-3.5228300000000004
 20
3.4919300000000004
 30
0.0
 10
-3.6980900000000001
 20
3.1617300000000004
 30
0.0
 10
-3.7082500000000005
 20
2.7654900000000002
 30
0.0
 10
-3.6879300000000002
 20
2.42767
 30
0.0
 10
-3.6879300000000002
 20
2.42767
 30
0.0
 10
-3.5964900000000002
 20
2.3336900000000003
 30
0.0
 10
-3.7336500000000004
 20
2.2574900000000002
 30
0.0
 10
-3.6041100000000004
 20
2.16859
 30
0.0
 10
-3.6041100000000004
 20
2.16859
 30
0.0
 10
-3.7311100000000001
 20
2.1050900000000001
 30
0.0
 10
-3.6371300000000004
 20
1.9501500000000001
 30
0.0
 10
-3.5380700000000003
 20
1.9501500000000001
 30
0.0
 10
-3.5380700000000003
 20
1.9501500000000001
 30
0.0
 10
-3.6447500000000002
 20
1.8841100000000002
 30
0.0
 10
-3.5914100000000002
 20
1.8028300000000002
 30
0.0
 10
-3.5152100000000002
 20
1.7266300000000001
 30
0.0
 10
-3.5152100000000002
 20
1.7266300000000001
 30
0.0
 10
-3.6599900000000005
 20
1.6250300000000002
 30
0.0
 10
-3.4745700000000004
 20
1.49041
 30
0.0
 10
-3.5228300000000004
 20
1.3659500000000002
 30
0.0
 10
-3.5228300000000004
 20
1.3659500000000002
 30
0.0
 10
-3.5228300000000004
 20
1.3659500000000002
 30
0.0
 10
-3.7158700000000002
 20
1.3481700000000001
 30
0.0
 10
-3.7158700000000002
 20
1.3481700000000001
 30
0.0
 10
-3.7158700000000002
 20
1.3481700000000001
 30
0.0
 10
-3.7844500000000001
 20
1.4954900000000002
 30
0.0
 10
-3.7793700000000001
 20
1.6656700000000002
 30
0.0
 10
-3.8174700000000001
 20
1.8206100000000001
 30
0.0
 10
-3.8174700000000001
 20
1.8206100000000001
 30
0.0
 10
-3.9317700000000002
 20
2.4632300000000003
 30
0.0
 10
-3.9292300000000004
 20
3.2023700000000002
 30
0.0
 10
-3.5863300000000002
 20
3.7865700000000002
 30
0.0
 10
-3.5863300000000002
 20
3.7865700000000002
 30
0.0
 10
-3.5482300000000002
 20
3.9237300000000004
 30
0.0
 10
-3.7031700000000005
 20
3.7814900000000002
 30
0.0
 10
-3.6447500000000002
 20
3.8805500000000004
 30
0.0
 10
-3.6447500000000002
 20
3.8805500000000004
 30
0.0
 10
-3.0021300000000002
 20
4.8787700000000003
 30
0.0
 10
-1.9505700000000001
 20
5.6001300000000001
 30
0.0
 10
-0.7999500000000001
 20
5.8947700000000003
 30
0.0
 10
-0.7999500000000001
 20
5.8947700000000003
 30
0.0
 10
-0.6831100000000001
 20
5.9125500000000004
 30
0.0
 10
-0.6424700000000001
 20
5.8769900000000002
 30
0.0
 10
-0.7516900000000001
 20
5.8134900000000007
 30
0.0
 10
-0.7516900000000001
 20
5.8134900000000007
 30
0.0
 10
-0.9599700000000001
 20
5.5874300000000003
 30
0.0
 10
-1.1504700000000001
 20
5.3283500000000004
 30
0.0
 10
-1.2647700000000002
 20
5.0565700000000007
 30
0.0
 10
-1.2647700000000002
 20
5.0565700000000007
 30
0.0
 10
-1.0564900000000002
 20
5.3410500000000001
 30
0.0
 10
-0.8304300000000001
 20
5.7474500000000006
 30
0.0
 10
-0.48753
 20
5.8642900000000004
 30
0.0
 10
-0.48753
 20
5.8642900000000004
 30
0.0
 10
-0.5154700000000001
 20
5.8058700000000005
 30
0.0
 10
-0.6297700000000001
 20
5.6991900000000006
 30
0.0
 10
-0.51039
 20
5.6712500000000006
 30
0.0
 10
-0.51039
 20
5.6712500000000006
 30
0.0
 10
-0.40371
 20
5.7703100000000003
 30
0.0
 10
-0.3122700000000001
 20
5.8922300000000005
 30
0.0
 10
-0.21321
 20
5.7982500000000003
 30
0.0
 10
-0.21321
 20
5.7982500000000003
 30
0.0
 10
-0.18273
 20
5.8388900000000001
 30
0.0
 10
-0.12685
 20
5.8642900000000004
 30
0.0
 10
-0.06843
 20
5.8465100000000003
 30
0.0
 10
-0.06843
 20
5.8465100000000003
 30
0.0
 10
-0.09891
 20
5.8185700000000002
 30
0.0
 10
-0.29703
 20
5.6915700000000005
 30
0.0
 10
-0.4595900000000001
 20
5.5213900000000002
 30
0.0
 10
-0.4595900000000001
 20
5.5213900000000002
 30
0.0
 10
-0.7466100000000001
 20
5.2216700000000005
 30
0.0
 10
-1.0590300000000001
 20
4.85337
 30
0.0
 10
-0.8380500000000001
 20
4.9930700000000003
 30
0.0
 10
-0.8380500000000001
 20
4.9930700000000003
 30
0.0
 10
-0.7796300000000001
 20
5.1175300000000004
 30
0.0
 10
0.01792
 20
6.0141500000000008
 30
0.0
 10
-0.03795
 20
5.6890300000000007
 30
0.0
 10
-0.03795
 20
5.6890300000000007
 30
0.0
 10
0.41416
 20
6.1792500000000006
 30
0.0
 10
1.19394
 20
5.6712500000000006
 30
0.0
 10
1.7248000000000001
 20
5.47567
 30
0.0
 10
1.7248000000000001
 20
5.47567
 30
0.0
 10
1.44286
 20
5.2343700000000002
 30
0.0
 10
0.9805800000000001
 20
5.1276900000000003
 30
0.0
 10
0.9704200000000001
 20
4.8330500000000001
 30
0.0
 10
0.9704200000000001
 20
4.8330500000000001
 30
0.0
 10
0.7088000000000001
 20
4.9397300000000008
 30
0.0
 10
0.33288
 20
4.6908100000000008
 30
0.0
 10
0.27192
 20
4.4495100000000001
 30
0.0
 10
0.27192
 20
4.4495100000000001
 30
0.0
 10
0.40146
 20
4.5612700000000004
 30
0.0
 10
0.5208400000000001
 20
4.7263700000000002
 30
0.0
 10
0.69864
 20
4.7847900000000001
 30
0.0
 10
0.69864
 20
4.7847900000000001
 30
0.0
 10
1.8137000000000001
 20
4.6552500000000006
 30
0.0
 10
2.5884
 20
3.5986100000000003
 30
0.0
 10
3.0303600000000004
 20
2.6461100000000002
 30
0.0
 10
3.0303600000000004
 20
2.6461100000000002
 30
0.0
 10
2.9236800000000001
 20
2.6943700000000002
 30
0.0
 10
2.71794
 20
2.7070700000000003
 30
0.0
 10
2.7585800000000003
 20
2.5114900000000002
 30
0.0
 10
2.7585800000000003
 20
2.5114900000000002
 30
0.0
 10
2.6646000000000001
 20
2.6461100000000002
 30
0.0
 10
2.5223600000000004
 20
2.6588100000000003
 30
0.0
 10
2.4233000000000002
 20
2.8188300000000002
 30
0.0
 10
2.4233000000000002
 20
2.8188300000000002
 30
0.0
 10
2.3267800000000003
 20
2.9001100000000002
 30
0.0
 10
1.9864200000000001
 20
3.2861900000000004
 30
0.0
 10
2.1388200000000004
 20
3.0017100000000001
 30
0.0
 10
2.1388200000000004
 20
3.0017100000000001
 30
0.0
 10
2.0981800000000002
 20
3.0245700000000002
 30
0.0
 10
2.0626200000000003
 20
3.0017100000000001
 30
0.0
 10
2.0397600000000002
 20
2.9610700000000003
 30
0.0
 10
2.0397600000000002
 20
2.9610700000000003
 30
0.0
 10
1.8543400000000001
 20
3.0906100000000003
 30
0.0
 10
1.5774800000000002
 20
3.1668100000000003
 30
0.0
 10
1.4708000000000001
 20
3.3496900000000003
 30
0.0
 10
1.4708000000000001
 20
3.3496900000000003
 30
0.0
 10
1.4784200000000001
 20
3.3903300000000001
 30
0.0
 10
1.5825600000000002
 20
3.3369900000000001
 30
0.0
 10
1.61304
 20
3.3903300000000001
 30
0.0
 10
1.61304
 20
3.3903300000000001
 30
0.0
 10
1.5317600000000002
 20
3.8399100000000002
 30
0.0
 10
2.3699600000000003
 20
3.9059500000000003
 30
0.0
 10
2.2810600000000001
 20
3.3369900000000001
 30
0.0
 10
2.2810600000000001
 20
3.3369900000000001
 30
0.0
 10
2.4995000000000003
 20
3.4208100000000004
 30
0.0
 10
2.2759800000000001
 20
3.6036900000000003
 30
0.0
 10
2.2683600000000004
 20
3.7459300000000004
 30
0.0
 10
2.2683600000000004
 20
3.7459300000000004
 30
0.0
 10
2.0499200000000002
 20
4.1828099999999999
 30
0.0
 10
1.5368400000000002
 20
4.3961700000000006
 30
0.0
 10
1.1355200000000001
 20
4.6247700000000007
 30
0.0
 10
1.1355200000000001
 20
4.6247700000000007
 30
0.0
 10
1.2295
 20
4.4545900000000005
 30
0.0
 10
1.4530200000000002
 20
4.3783900000000004
 30
0.0
 10
1.6028800000000001
 20
4.24885
 30
0.0
 10
1.6028800000000001
 20
4.24885
 30
0.0
 10
1.4301600000000001
 20
4.1472500000000005
 30
0.0
 10
1.31332
 20
3.8881700000000001
 30
0.0
 10
1.2955400000000001
 20
3.7408500000000005
 30
0.0
 10
1.2955400000000001
 20
3.7408500000000005
 30
0.0
 10
1.1710800000000001
 20
3.7408500000000005
 30
0.0
 10
0.95264
 20
4.0050100000000004
 30
0.0
 10
0.8993000000000001
 20
4.1116900000000003
 30
0.0
 10
0.8993000000000001
 20
4.1116900000000003
 30
0.0
 10
1.2244200000000001
 20
3.9415100000000005
 30
0.0
 10
1.5368400000000002
 20
4.3783900000000004
 30
0.0
 10
1.02884
 20
4.3479100000000006
 30
0.0
 10
1.02884
 20
4.3479100000000006
 30
0.0
 10
0.9170800000000001
 20
4.3783900000000004
 30
0.0
 10
0.7748400000000001
 20
4.2894900000000007
 30
0.0
 10
0.7748400000000001
 20
4.1878900000000003
 30
0.0
 10
0.7748400000000001
 20
4.1878900000000003
 30
0.0
 10
0.6681600000000001
 20
4.1828099999999999
 30
0.0
 10
0.5564
 20
4.0405700000000007
 30
0.0
 10
0.68086
 20
4.1955100000000005
 30
0.0
 10
0.68086
 20
4.1955100000000005
 30
0.0
 10
0.7088000000000001
 20
4.2361500000000003
 30
0.0
 10
0.7926200000000001
 20
4.2717100000000006
 30
0.0
 10
0.7926200000000001
 20
4.3250500000000001
 30
0.0
 10
0.7926200000000001
 20
4.3250500000000001
 30
0.0
 10
0.15508
 20
3.8449900000000001
 30
0.0
 10
-0.34529
 20
3.1668100000000003
 30
0.0
 10
-0.6653300000000001
 20
2.4530700000000003
 30
0.0
 10
-0.6653300000000001
 20
2.4530700000000003
 30
0.0
 10
-0.8151900000000001
 20
2.4454500000000001
 30
0.0
 10
-0.9650500000000001
 20
2.4530700000000003
 30
0.0
 10
-1.1098300000000001
 20
2.47085
 30
0.0
 10
-1.1098300000000001
 20
2.47085
 30
0.0
 10
-1.00061
 20
3.0245700000000002
 30
0.0
 10
-0.6018300000000001
 20
3.4741500000000003
 30
0.0
 10
-0.26909
 20
3.9110300000000002
 30
0.0
 10
-0.26909
 20
3.9110300000000002
 30
0.0
 10
-0.3021100000000001
 20
3.9288100000000004
 30
0.0
 10
-0.30973
 20
3.8627700000000003
 30
0.0
 10
-0.33767
 20
3.8526100000000003
 30
0.0
 10
-0.33767
 20
3.8526100000000003
 30
0.0
 10
-0.6907300000000001
 20
3.4385900000000005
 30
0.0
 10
-1.03871
 20
2.9890100000000004
 30
0.0
 10
-1.1606300000000001
 20
2.47085
 30
0.0
 10
-1.1606300000000001
 20
2.47085
 30
0.0
 10
-1.3155700000000001
 20
2.4759300000000004
 30
0.0
 10
-1.4781300000000002
 20
2.4632300000000003
 30
0.0
 10
-1.6356100000000002
 20
2.4530700000000003
 30
0.0
 10
-1.6356100000000002
 20
2.4530700000000003
 30
0.0
 10
-1.6457700000000002
 20
2.4911700000000003
 30
0.0
 10
-1.58989
 20
2.5368900000000001
 30
0.0
 10
-1.5822700000000001
 20
2.5851500000000001
 30
0.0
 10
-1.5822700000000001
 20
2.5851500000000001
 30
0.0
 10
-1.5746500000000001
 20
2.6359500000000002
 30
0.0
 10
-1.6178300000000001
 20
2.6892900000000002
 30
0.0
 10
-1.6483100000000002
 20
2.7121500000000003
 30
0.0
 10
-1.6483100000000002
 20
2.7121500000000003
 30
0.0
 10
-1.6762500000000002
 20
2.3514700000000004
 30
0.0
 10
-1.9734300000000002
 20
2.2727300000000001
 30
0.0
 10
-2.0470900000000003
 20
2.5673700000000004
 30
0.0
 10
-2.0470900000000003
 20
2.5673700000000004
 30
0.0
 10
-2.0572500000000002
 20
2.6105500000000004
 30
0.0
 10
-2.11313
 20
2.6613500000000001
 30
0.0
 10
-2.1105900000000002
 20
2.7172300000000003
 30
0.0
 10
-2.1105900000000002
 20
2.7172300000000003
 30
0.0
 10
-2.1740900000000001
 20
2.6638900000000003
 30
0.0
 10
-2.1105900000000002
 20
2.4810100000000004
 30
0.0
 10
-2.0928100000000001
 20
2.3819500000000002
 30
0.0
 10
-2.0928100000000001
 20
2.3819500000000002
 30
0.0
 10
-2.2452100000000002
 20
2.34639
 30
0.0
 10
-2.40523
 20
2.29813
 30
0.0
 10
-2.5576300000000001
 20
2.2879700000000001
 30
0.0
 10
-2.5576300000000001
 20
2.2879700000000001
 30
0.0
 10
-2.6795500000000003
 20
2.8366100000000003
 30
0.0
 10
-2.60589
 20
3.4385900000000005
 30
0.0
 10
-2.4992100000000002
 20
3.9999300000000004
 30
0.0
 10
-2.4992100000000002
 20
3.9999300000000004
 30
0.0
 10
-2.6389100000000001
 20
3.7586300000000001
 30
0.0
 10
-2.8852900000000004
 20
2.6054700000000004
 30
0.0
 10
-2.5449300000000004
 20
2.08731
 30
0.0
 10
-2.5449300000000004
 20
2.08731
 30
0.0
 10
-2.4992100000000002
 20
2.2524100000000002
 30
0.0
 10
-2.2121900000000001
 20
2.2092300000000002
 30
0.0
 10
-2.0445500000000001
 20
2.2879700000000001
 30
0.0
 10
-2.0445500000000001
 20
2.2879700000000001
 30
0.0
 10
-1.9277100000000003
 20
2.2701900000000004
 30
0.0
 10
-1.6508500000000002
 20
2.42767
 30
0.0
 10
-1.6787900000000002
 20
2.2270100000000004
 30
0.0
 10
-1.6787900000000002
 20
2.2270100000000004
 30
0.0
 10
-1.9150100000000001
 20
2.0339700000000001
 30
0.0
 10
-2.4128500000000002
 20
2.1609700000000003
 30
0.0
 10
-2.7328900000000003
 20
1.9857100000000001
 30
0.0
 10
-2.7328900000000003
 20
1.9857100000000001
 30
0.0
 10
-2.9564100000000004
 20
2.9051900000000002
 30
0.0
 10
-2.8014700000000001
 20
3.8576900000000003
 30
0.0
 10
-2.3417300000000001
 20
4.64255
 30
0.0
 10
-2.3417300000000001
 20
4.64255
 30
0.0
 10
-2.4204700000000003
 20
4.5714300000000003
 30
0.0
 10
-2.4763500000000001
 20
4.4723700000000006
 30
0.0
 10
-2.5271500000000002
 20
4.38347
 30
0.0
 10
-2.5271500000000002
 20
4.38347
 30
0.0
 10
-2.7252700000000001
 20
4.0456500000000002
 30
0.0
 10
-2.8573500000000003
 20
3.6925900000000005
 30
0.0
 10
-2.9310100000000001
 20
3.3090500000000005
 30
0.0
 10
-2.9310100000000001
 20
3.3090500000000005
 30
0.0
 10
-2.9945100000000004
 20
2.8721700000000001
 30
0.0
 10
-3.0021300000000002
 20
2.3336900000000003
 30
0.0
 10
-2.8243300000000002
 20
1.9374500000000001
 30
0.0
 10
-2.8243300000000002
 20
1.9374500000000001
 30
0.0
 10
-2.6897100000000003
 20
1.8079100000000001
 30
0.0
 10
-2.0826500000000001
 20
2.13557
 30
0.0
 10
-1.7092700000000001
 20
2.0593700000000004
 30
0.0
 10
-1.7092700000000001
 20
2.0593700000000004
 30
0.0
 10
-1.4425700000000001
 20
1.3380100000000001
 30
0.0
 10
-2.1867900000000002
 20
1.4319900000000001
 30
0.0
 10
-2.6693900000000004
 20
1.3303900000000002
 30
0.0
 10
-2.6693900000000004
 20
1.3303900000000002
 30
0.0
 10
-2.73543
 20
1.40659
 30
0.0
 10
-2.7557500000000004
 20
1.5081900000000001
 30
0.0
 10
-2.7811500000000002
 20
1.6021700000000001
 30
0.0
 10
-2.7811500000000002
 20
1.6021700000000001
 30
0.0
 10
-2.8929100000000001
 20
1.5539100000000001
 30
0.0
 10
-2.77861
 20
1.2643500000000001
 30
0.0
 10
-2.6770100000000001
 20
1.1830700000000001
 30
0.0
 10
-2.6770100000000001
 20
1.1830700000000001
 30
0.0
 10
-2.3696700000000002
 20
1.3354700000000002
 30
0.0
 10
-1.9861300000000002
 20
1.40659
 30
0.0
 10
-1.6330700000000002
 20
1.4548500000000002
 30
0.0
 10
-1.6330700000000002
 20
1.4548500000000002
 30
0.0
 10
-1.6076700000000002
 20
1.2541900000000001
 30
0.0
 10
-1.58735
 20
1.0459100000000001
 30
0.0
 10
-1.5187700000000002
 20
0.87065
 30
0.0
 10
-1.5187700000000002
 20
0.87065
 30
0.0
 10
-1.5162300000000002
 20
1.0535300000000001
 30
0.0
 10
-1.5949700000000002
 20
1.2643500000000001
 30
0.0
 10
-1.6000500000000002
 20
1.4650100000000001
 30
0.0
 10
-1.6000500000000002
 20
1.4650100000000001
 30
0.0
 10
-1.2444500000000001
 20
1.4954900000000002
 30
0.0
 10
-0.8202700000000001
 20
1.57169
 30
0.0
 10
-0.47483
 20
1.4599300000000002
 30
0.0
 10
-0.47483
 20
1.4599300000000002
 30
0.0
 10
-0.45705
 20
1.53105
 30
0.0
 10
-0.30973
 20
1.7545700000000002
 30
0.0
 10
-0.44435
 20
1.7266300000000001
 30
0.0
 10
-0.44435
 20
1.7266300000000001
 30
0.0
 10
-0.4926100000000001
 20
1.65551
 30
0.0
 10
-0.52817
 20
1.5539100000000001
 30
0.0
 10
-0.6272300000000001
 20
1.5615300000000001
 30
0.0
 10
-0.6272300000000001
 20
1.5615300000000001
 30
0.0
 10
-1.0971300000000002
 20
1.5818500000000002
 30
0.0
 10
-1.2850900000000001
 20
1.5158100000000001
 30
0.0
 10
-1.4705100000000002
 20
1.5640700000000001
 30
0.0
 10
-1.4705100000000002
 20
1.5640700000000001
 30
0.0
 10
-1.6000500000000002
 20
1.5970900000000001
 30
0.0
 10
-1.54671
 20
1.7164700000000002
 30
0.0
 10
-1.5644900000000002
 20
1.8333100000000002
 30
0.0
 10
-1.5644900000000002
 20
1.8333100000000002
 30
0.0
 10
-1.6025900000000002
 20
2.0771500000000001
 30
0.0
 10
-1.3917700000000002
 20
2.0949300000000002
 30
0.0
 10
-1.4476500000000001
 20
2.1558900000000003
 30
0.0
 10
-1.4476500000000001
 20
2.1558900000000003
 30
0.0
 10
-1.7245100000000002
 20
2.0695300000000003
 30
0.0
 10
-1.6533900000000001
 20
2.4632300000000003
 30
0.0
 10
-1.4120900000000001
 20
2.3387700000000002
 30
0.0
 10
-1.4120900000000001
 20
2.3387700000000002
 30
0.0
 10
-1.3003300000000002
 20
2.3743300000000001
 30
0.0
 10
-1.1352300000000002
 20
2.29305
 30
0.0
 10
-1.0717300000000001
 20
2.3870300000000002
 30
0.0
 10
-1.0717300000000001
 20
2.3870300000000002
 30
0.0
 10
-0.9244100000000001
 20
2.3692500000000001
 30
0.0
 10
-0.7364500000000001
 20
2.3921100000000002
 30
0.0
 10
-0.61199
 20
2.3565500000000004
 30
0.0
 10
-0.61199
 20
2.3565500000000004
 30
0.0
 10
-0.22591
 20
2.8899500000000002
 30
0.0
 10
0.29732
 20
4.0227900000000005
 30
0.0
 10
0.7392800000000001
 20
4.0812100000000004
 30
0.0
 10
0.7392800000000001
 20
4.0812100000000004
 30
0.0
 10
1.0415400000000001
 20
3.8932500000000001
 30
0.0
 10
1.27014
 20
3.7052900000000002
 30
0.0
 10
1.3184
 20
3.3979500000000002
 30
0.0
 10
1.3184
 20
3.3979500000000002
 30
0.0
 10
1.05932
 20
3.3268300000000002
 30
0.0
 10
0.6503800000000001
 20
3.1541100000000002
 30
0.0
 10
0.6859400000000001
 20
2.8366100000000003
 30
0.0
 10
0.6859400000000001
 20
2.8366100000000003
 30
0.0
 10
0.6859400000000001
 20
2.8366100000000003
 30
0.0
 10
0.7697600000000001
 20
2.9610700000000003
 30
0.0
 10
0.7697600000000001
 20
2.9610700000000003
 30
0.0
 10
0.7697600000000001
 20
2.9610700000000003
 30
0.0
 10
0.7926200000000001
 20
2.9890100000000004
 30
0.0
 10
0.8586600000000001
 20
3.1439500000000002
 30
0.0
 10
0.8586600000000001
 20
3.05505
 30
0.0
 10
0.8586600000000001
 20
3.05505
 30
0.0
 10
0.658
 20
2.8188300000000002
 30
0.0
 10
0.9272400000000001
 20
2.6588100000000003
 30
0.0
 10
0.7697600000000001
 20
2.4403700000000002
 30
0.0
 10
0.7697600000000001
 20
2.4403700000000002
 30
0.0
 10
0.9450200000000001
 20
2.3641700000000001
 30
0.0
 10
0.9932800000000001
 20
2.21685
 30
0.0
 10
1.05932
 20
2.09239
 30
0.0
 10
1.05932
 20
2.09239
 30
0.0
 10
0.5437000000000001
 20
1.7545700000000002
 30
0.0
 10
0.7799200000000001
 20
1.2059300000000002
 30
0.0
 10
-0.13701
 20
1.2186300000000001
 30
0.0
 10
-0.13701
 20
1.2186300000000001
 30
0.0
 10
-0.13701
 20
1.2186300000000001
 30
0.0
 10
-0.04811
 20
1.4726300000000001
 30
0.0
 10
-0.04811
 20
1.4726300000000001
 30
0.0
 10
-0.04811
 20
1.4726300000000001
 30
0.0
 10
0.25414
 20
2.1990700000000003
 30
0.0
 10
-0.02017
 20
1.8028300000000002
 30
0.0
 10
0.5208400000000001
 20
2.6181700000000001
 30
0.0
 10
0.5208400000000001
 20
2.6181700000000001
 30
0.0
 10
0.00776
 20
2.0517500000000002
 30
0.0
 10
-0.61199
 20
1.4548500000000002
 30
0.0
 10
-0.63739
 20
0.8808100000000001
 30
0.0
 10
-0.63739
 20
0.8808100000000001
 30
0.0
 10
-0.61453
 20
0.8630300000000001
 30
0.0
 10
-0.56881
 20
1.0052700000000001
 30
0.0
 10
-0.5586500000000001
 20
0.9417700000000001
 30
0.0
 10
-0.5586500000000001
 20
0.9417700000000001
 30
0.0
 10
-0.6043700000000001
 20
0.85287
 30
0.0
 10
-0.61199
 20
0.74619
 30
0.0
 10
-0.6831100000000001
 20
0.66237
 30
0.0
 10
-0.6831100000000001
 20
0.66237
 30
0.0
 10
-1.0666500000000001
 20
0.76397
 30
0.0
 10
-0.71867
 20
1.19323
 30
0.0
 10
-1.0209300000000001
 20
1.0814700000000002
 30
0.0
 10
-1.0209300000000001
 20
1.0814700000000002
 30
0.0
 10
-1.1149100000000001
 20
0.8630300000000001
 30
0.0
 10
-1.0133100000000002
 20
0.4744100000000001
 30
0.0
 10
-1.2622300000000002
 20
0.43377
 30
0.0
 10
-1.2622300000000002
 20
0.43377
 30
0.0
 10
-1.4425700000000001
 20
0.12643
 30
0.0
 10
-1.7168900000000002
 20
1.7799700000000001
 30
0.0
 10
-1.67371
 20
0.9646300000000001
 30
0.0
 10
-1.67371
 20
0.9646300000000001
 30
0.0
 10
-1.67371
 20
0.9646300000000001
 30
0.0
 10
-1.5111500000000002
 20
0.3677300000000001
 30
0.0
 10
-1.5111500000000002
 20
0.3677300000000001
 30
0.0
 10
-1.5111500000000002
 20
0.3677300000000001
 30
0.0
 10
-1.7651500000000002
 20
0.5683900000000001
 30
0.0
 10
-1.5924300000000002
 20
0.49219
 30
0.0
 10
-1.6914900000000002
 20
0.7563500000000001
 30
0.0
 10
-1.6914900000000002
 20
0.7563500000000001
 30
0.0
 10
-1.7778500000000002
 20
0.6699900000000001
 30
0.0
 10
-1.7168900000000002
 20
0.4845700000000001
 30
0.0
 10
-1.7092700000000001
 20
0.36265
 30
0.0
 10
-1.7092700000000001
 20
0.36265
 30
0.0
 10
-1.7092700000000001
 20
0.36265
 30
0.0
 10
-1.8210300000000001
 20
0.46933
 30
0.0
 10
-1.8210300000000001
 20
0.46933
 30
0.0
 10
-1.8210300000000001
 20
0.46933
 30
0.0
 10
-1.9683500000000003
 20
0.59887
 30
0.0
 10
-2.2731500000000002
 20
0.9697100000000001
 30
0.0
 10
-2.3264900000000002
 20
0.9239900000000001
 30
0.0
 10
-2.3264900000000002
 20
0.9239900000000001
 30
0.0
 10
-2.05471
 20
0.49219
 30
0.0
 10
-1.4451100000000001
 20
0.16707
 30
0.0
 10
-1.5340100000000001
 20
-0.38664
 30
0.0
 10
-1.5340100000000001
 20
-0.38664
 30
0.0
 10
-2.2629900000000003
 20
0.16199
 30
0.0
 10
-3.1621500000000005
 20
1.0357500000000002
 30
0.0
 10
-4.0740100000000004
 20
0.6928500000000001
 30
0.0
 10
-4.0740100000000004
 20
0.6928500000000001
 30
0.0
 10
-4.2162500000000005
 20
1.2948300000000001
 30
0.0
 10
-3.3678900000000005
 20
1.5005700000000002
 30
0.0
 10
-3.1900900000000001
 20
1.07131
 30
0.0
 10
-3.1900900000000001
 20
1.07131
 30
0.0
 10
-3.1900900000000001
 20
1.07131
 30
0.0
 10
-3.1621500000000005
 20
1.0535300000000001
 30
0.0
 10
-3.1621500000000005
 20
1.0535300000000001
 30
0.0
 10
-3.1621500000000005
 20
1.0535300000000001
 30
0.0
 10
-3.1621500000000005
 20
1.0535300000000001
 30
0.0
 10
-3.1240500000000004
 20
1.02813
 30
0.0
 10
-3.1240500000000004
 20
1.02813
 30
0.0
 10
-3.1240500000000004
 20
1.02813
 30
0.0
 10
-3.5355300000000005
 20
1.11195
 30
0.0
 10
-2.6617700000000002
 20
0.30169
 30
0.0
 10
-2.8141700000000003
 20
0.6979300000000001
 30
0.0
 10
-2.8141700000000003
 20
0.6979300000000001
 30
0.0
 10
-2.94625
 20
0.87065
 30
0.0
 10
-2.6160500000000004
 20
0.57347
 30
0.0
 10
-2.6389100000000001
 20
0.6699900000000001
 30
0.0
 10
-2.6389100000000001
 20
0.6699900000000001
 30
0.0
 10
-2.6389100000000001
 20
0.6699900000000001
 30
0.0
 10
-2.7201900000000001
 20
0.74619
 30
0.0
 10
-2.7201900000000001
 20
0.74619
 30
0.0
 10
-2.7201900000000001
 20
0.74619
 30
0.0
 10
-2.7557500000000004
 20
0.76905
 30
0.0
 10
-2.7913100000000002
 20
0.8046100000000001
 30
0.0
 10
-2.8192500000000003
 20
0.8350900000000001
 30
0.0
  0
SPLINE
  5
29
100
AcDbEntity
  8
Ebene 1
 62
     7
100
AcDbSpline
210
0.0
220
0.0
230
1.0
 70
     1
 71
     3
 72
    28
 73
    24
 74
     0
 42
0.0000000001
 43
0.0000000001
 40
0.0
 40
0.0
 40
0.0
 40
0.0
 40
0.1666666666666667
 40
0.1666666666666667
 40
0.1666666666666667
 40
0.1666666666666667
 40
0.3333333333333333
 40
0.3333333333333333
 40
0.3333333333333333
 40
0.3333333333333333
 40
0.5
 40
0.5
 40
0.5
 40
0.5
 40
0.6666666666666666
 40
0.6666666666666666
 40
0.6666666666666666
 40
0.6666666666666666
 40
0.8333333333333333
 40
0.8333333333333333
 40
0.8333333333333333
 40
0.8333333333333333
 40
1.0
 40
1.0
 40
1.0
 40
1.0
 10
1.9864200000000001
 20
5.2699300000000004
 30
0.0
 10
2.2328000000000001
 20
5.1505500000000008
 30
0.0
 10
2.5223600000000004
 20
4.9498900000000008
 30
0.0
 10
2.6519000000000004
 20
4.6831900000000006
 30
0.0
 10
2.6519000000000004
 20
4.6831900000000006
 30
0.0
 10
2.5807800000000003
 20
4.7441500000000003
 30
0.0
 10
2.5172800000000004
 20
4.8863900000000005
 30
0.0
 10
2.4106000000000001
 20
4.8254300000000008
 30
0.0
 10
2.4106000000000001
 20
4.8254300000000008
 30
0.0
 10
2.33948
 20
4.8609900000000001
 30
0.0
 10
2.2505800000000002
 20
4.9270300000000002
 30
0.0
 10
2.1921600000000003
 20
4.8508300000000002
 30
0.0
 10
2.1921600000000003
 20
4.8508300000000002
 30
0.0
 10
2.0804
 20
4.9625900000000005
 30
0.0
 10
1.9559400000000002
 20
5.0692700000000004
 30
0.0
 10
1.8365600000000002
 20
5.1632500000000006
 30
0.0
 10
1.8365600000000002
 20
5.1632500000000006
 30
0.0
 10
1.8492600000000001
 20
5.1911900000000006
 30
0.0
 10
1.9153000000000002
 20
5.2216700000000005
 30
0.0
 10
1.8797400000000002
 20
5.2623100000000003
 30
0.0
 10
1.8797400000000002
 20
5.2623100000000003
 30
0.0
 10
1.9153000000000002
 20
5.2445300000000001
 30
0.0
 10
1.9610200000000002
 20
5.22675
 30
0.0
 10
1.9864200000000001
 20
5.2699300000000004
 30
0.0
  0
SPLINE
  5
2A
100
AcDbEntity
  8
Ebene 1
 62
     7
100
AcDbSpline
210
0.0
220
0.0
230
1.0
 70
     1
 71
     3
 72
    20
 73
    16
 74
     0
 42
0.0000000001
 43
0.0000000001
 40
0.0
 40
0.0
 40
0.0
 40
0.0
 40
0.25
 40
0.25
 40
0.25
 40
0.25
 40
0.5
 40
0.5
 40
0.5
 40
0.5
 40
0.75
 40
0.75
 40
0.75
 40
0.75
 40
1.0
 40
1.0
 40
1.0
 40
1.0
 10
2.20486
 20
5.2394500000000006
 30
0.0
 10
2.4334600000000002
 20
5.1911900000000006
 30
0.0
 10
2.5807800000000003
 20
4.9981500000000008
 30
0.0
 10
2.71286
 20
4.8076500000000006
 30
0.0
 10
2.71286
 20
4.8076500000000006
 30
0.0
 10
2.71286
 20
4.8076500000000006
 30
0.0
 10
2.6112600000000001
 20
4.8508300000000002
 30
0.0
 10
2.6112600000000001
 20
4.8508300000000002
 30
0.0
 10
2.6112600000000001
 20
4.8508300000000002
 30
0.0
 10
2.4868000000000001
 20
4.9905300000000006
 30
0.0
 10
2.33948
 20
5.09213
 30
0.0
 10
2.1972400000000003
 20
5.2089700000000008
 30
0.0
 10
2.1972400000000003
 20
5.2089700000000008
 30
0.0
 10
2.1972400000000003
 20
5.2216700000000005
 30
0.0
 10
2.1972400000000003
 20
5.2343700000000002
 30
0.0
 10
2.20486
 20
5.2394500000000006
 30
0.0
  0
SPLINE
  5
2B
100
AcDbEntity
  8
Ebene 1
 62
     7
100
AcDbSpline
210
0.0
220
0.0
230
1.0
 70
     1
 71
     3
 72
    64
 73
    60
 74
     0
 42
0.0000000001
 43
0.0000000001
 40
0.0
 40
0.0
 40
0.0
 40
0.0
 40
0.0666666666666667
 40
0.0666666666666667
 40
0.0666666666666667
 40
0.0666666666666667
 40
0.1333333333333333
 40
0.1333333333333333
 40
0.1333333333333333
 40
0.1333333333333333
 40
0.2
 40
0.2
 40
0.2
 40
0.2
 40
0.2666666666666667
 40
0.2666666666666667
 40
0.2666666666666667
 40
0.2666666666666667
 40
0.3333333333333333
 40
0.3333333333333333
 40
0.3333333333333333
 40
0.3333333333333333
 40
0.4
 40
0.4
 40
0.4
 40
0.4
 40
0.4666666666666666
 40
0.4666666666666666
 40
0.4666666666666666
 40
0.4666666666666666
 40
0.5333333333333333
 40
0.5333333333333333
 40
0.5333333333333333
 40
0.5333333333333333
 40
0.6
 40
0.6
 40
0.6
 40
0.6
 40
0.6666666666666666
 40
0.6666666666666666
 40
0.6666666666666666
 40
0.6666666666666666
 40
0.7333333333333333
 40
0.7333333333333333
 40
0.7333333333333333
 40
0.7333333333333333
 40
0.7999999999999999
 40
0.7999999999999999
 40
0.7999999999999999
 40
0.7999999999999999
 40
0.8666666666666666
 40
0.8666666666666666
 40
0.8666666666666666
 40
0.8666666666666666
 40
0.9333333333333332
 40
0.9333333333333332
 40
0.9333333333333332
 40
0.9333333333333332
 40
1.0
 40
1.0
 40
1.0
 40
1.0
 10
1.7324200000000001
 20
5.1683300000000001
 30
0.0
 10
1.9381600000000001
 20
5.01593
 30
0.0
 10
2.1388200000000004
 20
4.8076500000000006
 30
0.0
 10
2.3090000000000002
 20
4.6146100000000008
 30
0.0
 10
2.3090000000000002
 20
4.6146100000000008
 30
0.0
 10
2.3090000000000002
 20
4.6146100000000008
 30
0.0
 10
2.2404200000000003
 20
4.6247700000000007
 30
0.0
 10
2.2404200000000003
 20
4.6247700000000007
 30
0.0
 10
2.2404200000000003
 20
4.6247700000000007
 30
0.0
 10
2.1693000000000002
 20
4.6781100000000002
 30
0.0
 10
2.1388200000000004
 20
4.8152700000000008
 30
0.0
 10
2.0270600000000001
 20
4.76701
 30
0.0
 10
2.0270600000000001
 20
4.76701
 30
0.0
 10
1.9737200000000001
 20
4.8076500000000006
 30
0.0
 10
1.9203800000000002
 20
4.8508300000000002
 30
0.0
 10
1.8543400000000001
 20
4.8686100000000003
 30
0.0
 10
1.8543400000000001
 20
4.8686100000000003
 30
0.0
 10
1.8314800000000002
 20
4.8508300000000002
 30
0.0
 10
1.8086200000000001
 20
4.8254300000000008
 30
0.0
 10
1.8035400000000001
 20
4.7974900000000007
 30
0.0
 10
1.8035400000000001
 20
4.7974900000000007
 30
0.0
 10
1.8035400000000001
 20
4.7974900000000007
 30
0.0
 10
1.8797400000000002
 20
4.7136700000000005
 30
0.0
 10
1.8797400000000002
 20
4.7136700000000005
 30
0.0
 10
1.8797400000000002
 20
4.7136700000000005
 30
0.0
 10
1.8797400000000002
 20
4.7136700000000005
 30
0.0
 10
1.8899000000000001
 20
4.6958900000000003
 30
0.0
 10
1.8899000000000001
 20
4.6958900000000003
 30
0.0
 10
1.8899000000000001
 20
4.6958900000000003
 30
0.0
 10
1.8213200000000001
 20
4.7263700000000002
 30
0.0
 10
1.7679800000000001
 20
4.8152700000000008
 30
0.0
 10
1.6790800000000001
 20
4.8152700000000008
 30
0.0
 10
1.6790800000000001
 20
4.8152700000000008
 30
0.0
 10
1.6181200000000002
 20
4.7365300000000001
 30
0.0
 10
1.7502000000000002
 20
4.6831900000000006
 30
0.0
 10
1.7832200000000002
 20
4.6247700000000007
 30
0.0
 10
1.7832200000000002
 20
4.6247700000000007
 30
0.0
 10
1.65368
 20
4.6679500000000003
 30
0.0
 10
1.5419200000000002
 20
4.8203500000000004
 30
0.0
 10
1.4123800000000002
 20
4.8076500000000006
 30
0.0
 10
1.4123800000000002
 20
4.8076500000000006
 30
0.0
 10
1.4123800000000002
 20
4.8076500000000006
 30
0.0
 10
1.3641200000000002
 20
4.8508300000000002
 30
0.0
 10
1.3641200000000002
 20
4.8508300000000002
 30
0.0
 10
1.3641200000000002
 20
4.8508300000000002
 30
0.0
 10
1.3768200000000002
 20
4.8736900000000007
 30
0.0
 10
1.40222
 20
4.8965500000000004
 30
0.0
 10
1.3768200000000002
 20
4.9270300000000002
 30
0.0
 10
1.3768200000000002
 20
4.9270300000000002
 30
0.0
 10
1.3768200000000002
 20
4.9270300000000002
 30
0.0
 10
1.31332
 20
4.9625900000000005
 30
0.0
 10
1.31332
 20
4.9625900000000005
 30
0.0
 10
1.31332
 20
4.9625900000000005
 30
0.0
 10
1.4123800000000002
 20
4.9625900000000005
 30
0.0
 10
1.6435200000000001
 20
5.0083100000000007
 30
0.0
 10
1.5901800000000001
 20
5.1276900000000003
 30
0.0
 10
1.5901800000000001
 20
5.1276900000000003
 30
0.0
 10
1.6359000000000001
 20
5.14039
 30
0.0
 10
1.7019400000000002
 20
5.1226100000000008
 30
0.0
 10
1.7324200000000001
 20
5.1683300000000001
 30
0.0
  0
SPLINE
  5
2C
100
AcDbEntity
  8
Ebene 1
 62
     7
100
AcDbSpline
210
0.0
220
0.0
230
1.0
 70
     1
 71
     3
 72
    12
 73
     8
 74
     0
 42
0.0000000001
 43
0.0000000001
 40
0.0
 40
0.0
 40
0.0
 40
0.0
 40
0.5
 40
0.5
 40
0.5
 40
0.5
 40
1.0
 40
1.0
 40
1.0
 40
1.0
 10
3.0075000000000003
 20
4.5358700000000001
 30
0.0
 10
3.0075000000000003
 20
4.5358700000000001
 30
0.0
 10
2.7941400000000001
 20
4.8736900000000007
 30
0.0
 10
2.7941400000000001
 20
4.8736900000000007
 30
0.0
 10
2.7941400000000001
 20
4.8736900000000007
 30
0.0
 10
2.9008200000000004
 20
4.7797100000000006
 30
0.0
 10
2.9668600000000001
 20
4.6603300000000001
 30
0.0
 10
3.0075000000000003
 20
4.5358700000000001
 30
0.0
  0
SPLINE
  5
2D
100
AcDbEntity
  8
Ebene 1
 62
     7
100
AcDbSpline
210
0.0
220
0.0
230
1.0
 70
     1
 71
     3
 72
    28
 73
    24
 74
     0
 42
0.0000000001
 43
0.0000000001
 40
0.0
 40
0.0
 40
0.0
 40
0.0
 40
0.1666666666666667
 40
0.1666666666666667
 40
0.1666666666666667
 40
0.1666666666666667
 40
0.3333333333333333
 40
0.3333333333333333
 40
0.3333333333333333
 40
0.3333333333333333
 40
0.5
 40
0.5
 40
0.5
 40
0.5
 40
0.6666666666666666
 40
0.6666666666666666
 40
0.6666666666666666
 40
0.6666666666666666
 40
0.8333333333333333
 40
0.8333333333333333
 40
0.8333333333333333
 40
0.8333333333333333
 40
1.0
 40
1.0
 40
1.0
 40
1.0
 10
1.0059800000000001
 20
4.8254300000000008
 30
0.0
 10
1.0059800000000001
 20
4.8254300000000008
 30
0.0
 10
1.1355200000000001
 20
4.8254300000000008
 30
0.0
 10
1.1355200000000001
 20
4.8254300000000008
 30
0.0
 10
1.1355200000000001
 20
4.8254300000000008
 30
0.0
 10
1.3412600000000001
 20
4.7009700000000008
 30
0.0
 10
1.5495400000000001
 20
4.5714300000000003
 30
0.0
 10
1.7375
 20
4.4190300000000002
 30
0.0
 10
1.7375
 20
4.4190300000000002
 30
0.0
 10
1.7502000000000002
 20
4.4114100000000001
 30
0.0
 10
1.7679800000000001
 20
4.4114100000000001
 30
0.0
 10
1.7781400000000001
 20
4.4114100000000001
 30
0.0
 10
1.7781400000000001
 20
4.4114100000000001
 30
0.0
 10
1.8314800000000002
 20
4.5003100000000007
 30
0.0
 10
1.9203800000000002
 20
4.4063300000000005
 30
0.0
 10
1.9432400000000001
 20
4.33521
 30
0.0
 10
1.9432400000000001
 20
4.33521
 30
0.0
 10
1.9432400000000001
 20
4.33521
 30
0.0
 10
1.8721200000000002
 20
4.3174300000000008
 30
0.0
 10
1.8721200000000002
 20
4.3174300000000008
 30
0.0
 10
1.8721200000000002
 20
4.3174300000000008
 30
0.0
 10
1.5774800000000002
 20
4.4825300000000006
 30
0.0
 10
1.31332
 20
4.7212900000000007
 30
0.0
 10
1.0059800000000001
 20
4.8254300000000008
 30
0.0
  0
SPLINE
  5
2E
100
AcDbEntity
  8
Ebene 1
 62
     7
100
AcDbSpline
210
0.0
220
0.0
230
1.0
 70
     1
 71
     3
 72
    60
 73
    56
 74
     0
 42
0.0000000001
 43
0.0000000001
 40
0.0
 40
0.0
 40
0.0
 40
0.0
 40
0.0714285714285714
 40
0.0714285714285714
 40
0.0714285714285714
 40
0.0714285714285714
 40
0.1428571428571429
 40
0.1428571428571429
 40
0.1428571428571429
 40
0.1428571428571429
 40
0.2142857142857143
 40
0.2142857142857143
 40
0.2142857142857143
 40
0.2142857142857143
 40
0.2857142857142857
 40
0.2857142857142857
 40
0.2857142857142857
 40
0.2857142857142857
 40
0.3571428571428571
 40
0.3571428571428571
 40
0.3571428571428571
 40
0.3571428571428571
 40
0.4285714285714285
 40
0.4285714285714285
 40
0.4285714285714285
 40
0.4285714285714285
 40
0.4999999999999999
 40
0.4999999999999999
 40
0.4999999999999999
 40
0.4999999999999999
 40
0.5714285714285713
 40
0.5714285714285713
 40
0.5714285714285713
 40
0.5714285714285713
 40
0.6428571428571427
 40
0.6428571428571427
 40
0.6428571428571427
 40
0.6428571428571427
 40
0.7142857142857141
 40
0.7142857142857141
 40
0.7142857142857141
 40
0.7142857142857141
 40
0.7857142857142855
 40
0.7857142857142855
 40
0.7857142857142855
 40
0.7857142857142855
 40
0.8571428571428569
 40
0.8571428571428569
 40
0.8571428571428569
 40
0.8571428571428569
 40
0.9285714285714283
 40
0.9285714285714283
 40
0.9285714285714283
 40
0.9285714285714283
 40
1.0
 40
1.0
 40
1.0
 40
1.0
 10
2.8881200000000002
 20
3.0779100000000001
 30
0.0
 10
2.6773000000000002
 20
3.4081100000000002
 30
0.0
 10
2.4233000000000002
 20
3.7281500000000003
 30
0.0
 10
2.1743800000000002
 20
4.0405700000000007
 30
0.0
 10
2.1743800000000002
 20
4.0405700000000007
 30
0.0
 10
2.3039200000000002
 20
3.9821500000000003
 30
0.0
 10
2.3521800000000002
 20
3.8221300000000005
 30
0.0
 10
2.46902
 20
3.7408500000000005
 30
0.0
 10
2.46902
 20
3.7408500000000005
 30
0.0
 10
2.4995000000000003
 20
3.7281500000000003
 30
0.0
 10
2.5223600000000004
 20
3.7814900000000002
 30
0.0
 10
2.5223600000000004
 20
3.8094300000000003
 30
0.0
 10
2.5223600000000004
 20
3.8094300000000003
 30
0.0
 10
2.6874600000000002
 20
3.7459300000000004
 30
0.0
 10
2.7001600000000003
 20
3.9415100000000005
 30
0.0
 10
2.6290400000000003
 20
4.0583499999999999
 30
0.0
 10
2.6290400000000003
 20
4.0583499999999999
 30
0.0
 10
2.5884
 20
4.21075
 30
0.0
 10
2.46394
 20
4.3174300000000008
 30
0.0
 10
2.4233000000000002
 20
4.4723700000000006
 30
0.0
 10
2.4233000000000002
 20
4.4723700000000006
 30
0.0
 10
2.4233000000000002
 20
4.4723700000000006
 30
0.0
 10
2.5223600000000004
 20
4.33521
 30
0.0
 10
2.5223600000000004
 20
4.33521
 30
0.0
 10
2.5223600000000004
 20
4.33521
 30
0.0
 10
2.8652600000000001
 20
3.8348300000000002
 30
0.0
 10
3.0659200000000002
 20
3.2734900000000002
 30
0.0
 10
3.2488000000000001
 20
2.6994500000000001
 30
0.0
 10
3.2488000000000001
 20
2.6994500000000001
 30
0.0
 10
3.2488000000000001
 20
2.6994500000000001
 30
0.0
 10
3.2310200000000004
 20
2.6054700000000004
 30
0.0
 10
3.2310200000000004
 20
2.6054700000000004
 30
0.0
 10
3.2310200000000004
 20
2.6054700000000004
 30
0.0
 10
3.1192600000000001
 20
2.7121500000000003
 30
0.0
 10
3.1548200000000004
 20
2.9128100000000003
 30
0.0
 10
3.05322
 20
3.0423500000000003
 30
0.0
 10
3.05322
 20
3.0423500000000003
 30
0.0
 10
2.97194
 20
3.1896700000000004
 30
0.0
 10
2.9236800000000001
 20
3.3496900000000003
 30
0.0
 10
2.8119200000000002
 20
3.4792300000000003
 30
0.0
 10
2.8119200000000002
 20
3.4792300000000003
 30
0.0
 10
2.7712800000000004
 20
3.5325700000000002
 30
0.0
 10
2.7357200000000002
 20
3.6087700000000003
 30
0.0
 10
2.6696800000000001
 20
3.6265500000000004
 30
0.0
 10
2.6696800000000001
 20
3.6265500000000004
 30
0.0
 10
2.6646000000000001
 20
3.5681300000000005
 30
0.0
 10
2.7230200000000004
 20
3.5274900000000002
 30
0.0
 10
2.7408000000000001
 20
3.4741500000000003
 30
0.0
 10
2.7408000000000001
 20
3.4741500000000003
 30
0.0
 10
2.79922
 20
3.3979500000000002
 30
0.0
 10
2.8119200000000002
 20
3.3014300000000003
 30
0.0
 10
2.8424
 20
3.2150700000000003
 30
0.0
 10
2.8424
 20
3.2150700000000003
 30
0.0
 10
2.8601800000000002
 20
3.1668100000000003
 30
0.0
 10
2.8779600000000003
 20
3.1261700000000001
 30
0.0
 10
2.8881200000000002
 20
3.0779100000000001
 30
0.0
  0
SPLINE
  5
2F
100
AcDbEntity
  8
Ebene 1
 62
     7
100
AcDbSpline
210
0.0
220
0.0
230
1.0
 70
     1
 71
     3
 72
    20
 73
    16
 74
     0
 42
0.0000000001
 43
0.0000000001
 40
0.0
 40
0.0
 40
0.0
 40
0.0
 40
0.25
 40
0.25
 40
0.25
 40
0.25
 40
0.5
 40
0.5
 40
0.5
 40
0.5
 40
0.75
 40
0.75
 40
0.75
 40
0.75
 40
1.0
 40
1.0
 40
1.0
 40
1.0
 10
3.1599000000000004
 20
3.6697300000000004
 30
0.0
 10
3.1726000000000001
 20
3.4385900000000005
 30
0.0
 10
3.2843600000000004
 20
3.1896700000000004
 30
0.0
 10
3.2564200000000003
 20
2.9534500000000001
 30
0.0
 10
3.2564200000000003
 20
2.9534500000000001
 30
0.0
 10
3.2259400000000005
 20
3.1490300000000002
 30
0.0
 10
3.1319600000000003
 20
3.3268300000000002
 30
0.0
 10
3.0786200000000004
 20
3.5147900000000001
 30
0.0
 10
3.0786200000000004
 20
3.5147900000000001
 30
0.0
 10
3.1141800000000002
 20
3.5452700000000004
 30
0.0
 10
3.0735400000000004
 20
3.5757500000000002
 30
0.0
 10
3.1167200000000004
 20
3.5935300000000003
 30
0.0
 10
3.1167200000000004
 20
3.5935300000000003
 30
0.0
 10
3.1167200000000004
 20
3.6240100000000002
 30
0.0
 10
3.1675200000000001
 20
3.6392500000000001
 30
0.0
 10
3.1599000000000004
 20
3.6697300000000004
 30
0.0
  0
SPLINE
  5
30
100
AcDbEntity
  8
Ebene 1
 62
     7
100
AcDbSpline
210
0.0
220
0.0
230
1.0
 70
     1
 71
     3
 72
    24
 73
    20
 74
     0
 42
0.0000000001
 43
0.0000000001
 40
0.0
 40
0.0
 40
0.0
 40
0.0
 40
0.2
 40
0.2
 40
0.2
 40
0.2
 40
0.4
 40
0.4
 40
0.4
 40
0.4
 40
0.6000000000000001
 40
0.6000000000000001
 40
0.6000000000000001
 40
0.6000000000000001
 40
0.8
 40
0.8
 40
0.8
 40
0.8
 40
1.0
 40
1.0
 40
1.0
 40
1.0
 10
3.2259400000000005
 20
3.6621100000000002
 30
0.0
 10
3.5561400000000001
 20
3.0829900000000001
 30
0.0
 10
3.7034600000000002
 20
2.3514700000000004
 30
0.0
 10
3.4672400000000003
 20
1.7012300000000002
 30
0.0
 10
3.4672400000000003
 20
1.7012300000000002
 30
0.0
 10
3.5078800000000001
 20
1.86633
 30
0.0
 10
3.4850200000000005
 20
2.0339700000000001
 30
0.0
 10
3.4672400000000003
 20
2.2041500000000003
 30
0.0
 10
3.4672400000000003
 20
2.2041500000000003
 30
0.0
 10
3.4672400000000003
 20
2.2041500000000003
 30
0.0
 10
3.4672400000000003
 20
2.29305
 30
0.0
 10
3.4672400000000003
 20
2.29305
 30
0.0
 10
3.4672400000000003
 20
2.29305
 30
0.0
 10
3.4672400000000003
 20
2.29305
 30
0.0
 10
3.5155000000000003
 20
2.42767
 30
0.0
 10
3.5155000000000003
 20
2.42767
 30
0.0
 10
3.5155000000000003
 20
2.42767
 30
0.0
 10
3.4977200000000002
 20
2.8543900000000004
 30
0.0
 10
3.2792800000000004
 20
3.2430100000000004
 30
0.0
 10
3.2259400000000005
 20
3.6621100000000002
 30
0.0
  0
SPLINE
  5
31
100
AcDbEntity
  8
Ebene 1
 62
     7
100
AcDbSpline
210
0.0
220
0.0
230
1.0
 70
     1
 71
     3
 72
    16
 73
    12
 74
     0
 42
0.0000000001
 43
0.0000000001
 40
0.0
 40
0.0
 40
0.0
 40
0.0
 40
0.3333333333333333
 40
0.3333333333333333
 40
0.3333333333333333
 40
0.3333333333333333
 40
0.6666666666666666
 40
0.6666666666666666
 40
0.6666666666666666
 40
0.6666666666666666
 40
1.0
 40
1.0
 40
1.0
 40
1.0
 10
-3.8454100000000002
 20
3.5325700000000002
 30
0.0
 10
-4.1121100000000004
 20
2.8543900000000004
 30
0.0
 10
-4.0816300000000005
 20
2.0161900000000004
 30
0.0
 10
-3.7463500000000005
 20
1.3481700000000001
 30
0.0
 10
-3.7463500000000005
 20
1.3481700000000001
 30
0.0
 10
-3.8200100000000003
 20
1.3075300000000001
 30
0.0
 10
-3.9038300000000001
 20
1.2643500000000001
 30
0.0
 10
-3.9698700000000002
 20
1.2008500000000002
 30
0.0
 10
-3.9698700000000002
 20
1.2008500000000002
 30
0.0
 10
-4.1984700000000004
 20
1.9450700000000001
 30
0.0
 10
-4.1959300000000006
 20
2.8188300000000002
 30
0.0
 10
-3.8454100000000002
 20
3.5325700000000002
 30
0.0
  0
SPLINE
  5
32
100
AcDbEntity
  8
Ebene 1
100
AcDbSpline
210
0.0
220
0.0
230
1.0
 70
     1
 71
     3
 72
    28
 73
    24
 74
     0
 42
0.0000000001
 43
0.0000000001
 40
0.0
 40
0.0
 40
0.0
 40
0.0
 40
0.1666666666666667
 40
0.1666666666666667
 40
0.1666666666666667
 40
0.1666666666666667
 40
0.3333333333333333
 40
0.3333333333333333
 40
0.3333333333333333
 40
0.3333333333333333
 40
0.5
 40
0.5
 40
0.5
 40
0.5
 40
0.6666666666666666
 40
0.6666666666666666
 40
0.6666666666666666
 40
0.6666666666666666
 40
0.8333333333333333
 40
0.8333333333333333
 40
0.8333333333333333
 40
0.8333333333333333
 40
1.0
 40
1.0
 40
1.0
 40
1.0
 10
2.0448400000000002
 20
3.4335100000000001
 30
0.0
 10
2.1794600000000002
 20
3.4385900000000005
 30
0.0
 10
2.2328000000000001
 20
3.2379300000000004
 30
0.0
 10
2.08548
 20
3.2150700000000003
 30
0.0
 10
2.08548
 20
3.2150700000000003
 30
0.0
 10
2.0804
 20
3.1896700000000004
 30
0.0
 10
2.0550000000000002
 20
3.1845900000000005
 30
0.0
 10
2.0397600000000002
 20
3.1718900000000003
 30
0.0
 10
2.0397600000000002
 20
3.1718900000000003
 30
0.0
 10
1.9381600000000001
 20
3.1972900000000002
 30
0.0
 10
1.8848200000000002
 20
3.3268300000000002
 30
0.0
 10
1.9686400000000002
 20
3.4030300000000002
 30
0.0
 10
1.9686400000000002
 20
3.4030300000000002
 30
0.0
 10
2.08548
 20
3.4512900000000002
 30
0.0
 10
1.9559400000000002
 20
3.2785700000000002
 30
0.0
 10
2.0219800000000001
 20
3.2379300000000004
 30
0.0
 10
2.0219800000000001
 20
3.2379300000000004
 30
0.0
 10
2.0931000000000002
 20
3.2328500000000004
 30
0.0
 10
2.0219800000000001
 20
3.3192100000000004
 30
0.0
 10
2.08548
 20
3.3547700000000003
 30
0.0
 10
2.08548
 20
3.3547700000000003
 30
0.0
 10
2.0677000000000003
 20
3.3801700000000001
 30
0.0
 10
2.0042
 20
3.3903300000000001
 30
0.0
 10
2.0448400000000002
 20
3.4335100000000001
 30
0.0
  0
SPLINE
  5
33
100
AcDbEntity
  8
Ebene 1
100
AcDbSpline
210
0.0
220
0.0
230
1.0
 70
     1
 71
     3
 72
    20
 73
    16
 74
     0
 42
0.0000000001
 43
0.0000000001
 40
0.0
 40
0.0
 40
0.0
 40
0.0
 40
0.25
 40
0.25
 40
0.25
 40
0.25
 40
0.5
 40
0.5
 40
0.5
 40
0.5
 40
0.75
 40
0.75
 40
0.75
 40
0.75
 40
1.0
 40
1.0
 40
1.0
 40
1.0
 10
-1.54417
 20
3.3192100000000004
 30
0.0
 10
-1.5314700000000001
 20
3.3192100000000004
 30
0.0
 10
-1.5238500000000001
 20
3.3090500000000005
 30
0.0
 10
-1.5187700000000002
 20
3.3014300000000003
 30
0.0
 10
-1.5187700000000002
 20
3.3014300000000003
 30
0.0
 10
-1.5594100000000002
 20
3.2150700000000003
 30
0.0
 10
-1.5543300000000002
 20
3.1007700000000002
 30
0.0
 10
-1.58989
 20
3.0144100000000003
 30
0.0
 10
-1.58989
 20
3.0144100000000003
 30
0.0
 10
-1.6025900000000002
 20
3.0144100000000003
 30
0.0
 10
-1.6025900000000002
 20
3.0296500000000002
 30
0.0
 10
-1.6076700000000002
 20
3.0372700000000004
 30
0.0
 10
-1.6076700000000002
 20
3.0372700000000004
 30
0.0
 10
-1.58735
 20
3.1312500000000001
 30
0.0
 10
-1.5721100000000001
 20
3.2328500000000004
 30
0.0
 10
-1.54417
 20
3.3192100000000004
 30
0.0
  0
SPLINE
  5
34
100
AcDbEntity
  8
Ebene 1
 62
     7
100
AcDbSpline
210
0.0
220
0.0
230
1.0
 70
     1
 71
     3
 72
   172
 73
   168
 74
     0
 42
0.0000000001
 43
0.0000000001
 40
0.0
 40
0.0
 40
0.0
 40
0.0
 40
0.0238095238095238
 40
0.0238095238095238
 40
0.0238095238095238
 40
0.0238095238095238
 40
0.0476190476190476
 40
0.0476190476190476
 40
0.0476190476190476
 40
0.0476190476190476
 40
0.0714285714285714
 40
0.0714285714285714
 40
0.0714285714285714
 40
0.0714285714285714
 40
0.0952380952380952
 40
0.0952380952380952
 40
0.0952380952380952
 40
0.0952380952380952
 40
0.119047619047619
 40
0.119047619047619
 40
0.119047619047619
 40
0.119047619047619
 40
0.1428571428571429
 40
0.1428571428571429
 40
0.1428571428571429
 40
0.1428571428571429
 40
0.1666666666666667
 40
0.1666666666666667
 40
0.1666666666666667
 40
0.1666666666666667
 40
0.1904761904761905
 40
0.1904761904761905
 40
0.1904761904761905
 40
0.1904761904761905
 40
0.2142857142857143
 40
0.2142857142857143
 40
0.2142857142857143
 40
0.2142857142857143
 40
0.2380952380952381
 40
0.2380952380952381
 40
0.2380952380952381
 40
0.2380952380952381
 40
0.2619047619047619
 40
0.2619047619047619
 40
0.2619047619047619
 40
0.2619047619047619
 40
0.2857142857142857
 40
0.2857142857142857
 40
0.2857142857142857
 40
0.2857142857142857
 40
0.3095238095238095
 40
0.3095238095238095
 40
0.3095238095238095
 40
0.3095238095238095
 40
0.3333333333333334
 40
0.3333333333333334
 40
0.3333333333333334
 40
0.3333333333333334
 40
0.3571428571428572
 40
0.3571428571428572
 40
0.3571428571428572
 40
0.3571428571428572
 40
0.380952380952381
 40
0.380952380952381
 40
0.380952380952381
 40
0.380952380952381
 40
0.4047619047619049
 40
0.4047619047619049
 40
0.4047619047619049
 40
0.4047619047619049
 40
0.4285714285714287
 40
0.4285714285714287
 40
0.4285714285714287
 40
0.4285714285714287
 40
0.4523809523809526
 40
0.4523809523809526
 40
0.4523809523809526
 40
0.4523809523809526
 40
0.4761904761904764
 40
0.4761904761904764
 40
0.4761904761904764
 40
0.4761904761904764
 40
0.5000000000000002
 40
0.5000000000000002
 40
0.5000000000000002
 40
0.5000000000000002
 40
0.5238095238095241
 40
0.5238095238095241
 40
0.5238095238095241
 40
0.5238095238095241
 40
0.5476190476190479
 40
0.5476190476190479
 40
0.5476190476190479
 40
0.5476190476190479
 40
0.5714285714285717
 40
0.5714285714285717
 40
0.5714285714285717
 40
0.5714285714285717
 40
0.5952380952380956
 40
0.5952380952380956
 40
0.5952380952380956
 40
0.5952380952380956
 40
0.6190476190476194
 40
0.6190476190476194
 40
0.6190476190476194
 40
0.6190476190476194
 40
0.6428571428571432
 40
0.6428571428571432
 40
0.6428571428571432
 40
0.6428571428571432
 40
0.6666666666666671
 40
0.6666666666666671
 40
0.6666666666666671
 40
0.6666666666666671
 40
0.6904761904761909
 40
0.6904761904761909
 40
0.6904761904761909
 40
0.6904761904761909
 40
0.7142857142857148
 40
0.7142857142857148
 40
0.7142857142857148
 40
0.7142857142857148
 40
0.7380952380952386
 40
0.7380952380952386
 40
0.7380952380952386
 40
0.7380952380952386
 40
0.7619047619047624
 40
0.7619047619047624
 40
0.7619047619047624
 40
0.7619047619047624
 40
0.7857142857142863
 40
0.7857142857142863
 40
0.7857142857142863
 40
0.7857142857142863
 40
0.8095238095238101
 40
0.8095238095238101
 40
0.8095238095238101
 40
0.8095238095238101
 40
0.8333333333333339
 40
0.8333333333333339
 40
0.8333333333333339
 40
0.8333333333333339
 40
0.8571428571428578
 40
0.8571428571428578
 40
0.8571428571428578
 40
0.8571428571428578
 40
0.8809523809523816
 40
0.8809523809523816
 40
0.8809523809523816
 40
0.8809523809523816
 40
0.9047619047619054
 40
0.9047619047619054
 40
0.9047619047619054
 40
0.9047619047619054
 40
0.9285714285714293
 40
0.9285714285714293
 40
0.9285714285714293
 40
0.9285714285714293
 40
0.9523809523809531
 40
0.9523809523809531
 40
0.9523809523809531
 40
0.9523809523809531
 40
0.9761904761904769
 40
0.9761904761904769
 40
0.9761904761904769
 40
0.9761904761904769
 40
1.0
 40
1.0
 40
1.0
 40
1.0
 10
1.7248000000000001
 20
3.0779100000000001
 30
0.0
 10
1.8289400000000002
 20
2.9991700000000003
 30
0.0
 10
1.6714600000000002
 20
3.0601300000000005
 30
0.0
 10
1.6384400000000001
 20
3.0677500000000002
 30
0.0
 10
1.6384400000000001
 20
3.0677500000000002
 30
0.0
 10
1.40222
 20
3.1236300000000004
 30
0.0
 10
1.2244200000000001
 20
3.0499700000000001
 30
0.0
 10
1.2599800000000001
 20
2.9356700000000004
 30
0.0
 10
1.2599800000000001
 20
2.9356700000000004
 30
0.0
 10
1.3311000000000002
 20
2.9788500000000004
 30
0.0
 10
1.3895200000000001
 20
3.05505
 30
0.0
 10
1.4784200000000001
 20
3.0601300000000005
 30
0.0
 10
1.4784200000000001
 20
3.0601300000000005
 30
0.0
 10
2.21502
 20
2.9483700000000002
 30
0.0
 10
2.2861400000000001
 20
2.1457300000000004
 30
0.0
 10
2.4868000000000001
 20
1.5945500000000001
 30
0.0
 10
2.4868000000000001
 20
1.5945500000000001
 30
0.0
 10
2.38774
 20
1.27197
 30
0.0
 10
2.2683600000000004
 20
0.9519300000000001
 30
0.0
 10
2.3267800000000003
 20
0.6090300000000001
 30
0.0
 10
2.3267800000000003
 20
0.6090300000000001
 30
0.0
 10
2.3267800000000003
 20
0.4845700000000001
 30
0.0
 10
2.4233000000000002
 20
0.43885
 30
0.0
 10
2.3217000000000003
 20
0.30169
 30
0.0
 10
2.3217000000000003
 20
0.30169
 30
0.0
 10
2.3344
 20
0.28391
 30
0.0
 10
2.34456
 20
0.25597
 30
0.0
 10
2.3750400000000003
 20
0.26105
 30
0.0
 10
2.3750400000000003
 20
0.26105
 30
0.0
 10
2.3521800000000002
 20
0.34995
 30
0.0
 10
2.3979000000000004
 20
0.31439
 30
0.0
 10
2.4233000000000002
 20
0.38551
 30
0.0
 10
2.4233000000000002
 20
0.38551
 30
0.0
 10
2.6874600000000002
 20
0.12643
 30
0.0
 10
2.2455000000000003
 20
-0.2317
 30
0.0
 10
2.1210400000000003
 20
-0.27234
 30
0.0
 10
2.1210400000000003
 20
-0.27234
 30
0.0
 10
1.9686400000000002
 20
0.27883
 30
0.0
 10
1.8721200000000002
 20
0.9163700000000001
 30
0.0
 10
1.5317600000000002
 20
1.3786500000000002
 30
0.0
 10
1.5317600000000002
 20
1.3786500000000002
 30
0.0
 10
1.4657200000000001
 20
1.3837300000000001
 30
0.0
 10
1.4123800000000002
 20
1.3786500000000002
 30
0.0
 10
1.3539600000000001
 20
1.3481700000000001
 30
0.0
 10
1.3539600000000001
 20
1.3481700000000001
 30
0.0
 10
0.8408800000000001
 20
0.8757300000000001
 30
0.0
 10
0.3557400000000001
 20
0.34995
 30
0.0
 10
-0.19035
 20
-0.06152
 30
0.0
 10
-0.19035
 20
-0.06152
 30
0.0
 10
0.0357
 20
0.18485
 30
0.0
 10
0.24398
 20
0.4515500000000001
 30
0.0
 10
0.4192400000000001
 20
0.7284100000000001
 30
0.0
 10
0.4192400000000001
 20
0.7284100000000001
 30
0.0
 10
0.6046600000000001
 20
1.0001900000000001
 30
0.0
 10
0.6326000000000001
 20
1.3303900000000002
 30
0.0
 10
0.76214
 20
1.6199500000000002
 30
0.0
 10
0.76214
 20
1.6199500000000002
 30
0.0
 10
0.8154800000000001
 20
1.9450700000000001
 30
0.0
 10
1.19394
 20
2.2270100000000004
 30
0.0
 10
1.4606400000000002
 20
1.9450700000000001
 30
0.0
 10
1.4606400000000002
 20
1.9450700000000001
 30
0.0
 10
1.3361800000000001
 20
1.8968100000000001
 30
0.0
 10
1.2650600000000001
 20
1.6250300000000002
 30
0.0
 10
1.1177400000000002
 20
1.4827900000000001
 30
0.0
 10
1.1177400000000002
 20
1.4827900000000001
 30
0.0
 10
1.09996
 20
1.5666100000000001
 30
0.0
 10
1.23458
 20
1.6834500000000001
 30
0.0
 10
1.1761600000000001
 20
1.7266300000000001
 30
0.0
 10
1.1761600000000001
 20
1.7266300000000001
 30
0.0
 10
1.0517000000000001
 20
1.4319900000000001
 30
0.0
 10
0.7697600000000001
 20
1.18815
 30
0.0
 10
0.6681600000000001
 20
0.87065
 30
0.0
 10
0.6681600000000001
 20
0.87065
 30
0.0
 10
0.7926200000000001
 20
1.0459100000000001
 30
0.0
 10
0.9805800000000001
 20
1.2186300000000001
 30
0.0
 10
1.0771000000000002
 20
1.4243700000000001
 30
0.0
 10
1.0771000000000002
 20
1.4243700000000001
 30
0.0
 10
1.1710800000000001
 20
1.44469
 30
0.0
 10
1.1253600000000001
 20
1.3532500000000001
 30
0.0
 10
1.1202800000000002
 20
1.3329300000000002
 30
0.0
 10
1.1202800000000002
 20
1.3329300000000002
 30
0.0
 10
1.0974200000000001
 20
1.1779900000000001
 30
0.0
 10
1.3514200000000001
 20
1.5437500000000002
 30
0.0
 10
1.4657200000000001
 20
1.6250300000000002
 30
0.0
 10
1.4657200000000001
 20
1.6250300000000002
 30
0.0
 10
1.4657200000000001
 20
1.6250300000000002
 30
0.0
 10
1.6613000000000002
 20
1.5894700000000002
 30
0.0
 10
1.6613000000000002
 20
1.5894700000000002
 30
0.0
 10
1.6613000000000002
 20
1.5894700000000002
 30
0.0
 10
1.6613000000000002
 20
1.5894700000000002
 30
0.0
 10
1.9203800000000002
 20
0.74619
 30
0.0
 10
1.9203800000000002
 20
0.74619
 30
0.0
 10
1.9203800000000002
 20
0.74619
 30
0.0
 10
2.0219800000000001
 20
0.49219
 30
0.0
 10
2.0270600000000001
 20
0.17977
 30
0.0
 10
2.1870800000000004
 20
-0.03104
 30
0.0
 10
2.1870800000000004
 20
-0.03104
 30
0.0
 10
2.0397600000000002
 20
0.5683900000000001
 30
0.0
 10
2.1210400000000003
 20
1.57169
 30
0.0
 10
1.5139800000000001
 20
1.9095100000000003
 30
0.0
 10
1.5139800000000001
 20
1.9095100000000003
 30
0.0
 10
1.5190600000000001
 20
1.9907900000000001
 30
0.0
 10
1.4174600000000002
 20
2.0339700000000001
 30
0.0
 10
1.3641200000000002
 20
2.0746100000000003
 30
0.0
 10
1.3641200000000002
 20
2.0746100000000003
 30
0.0
 10
1.48858
 20
2.1228700000000003
 30
0.0
 10
1.6257400000000002
 20
2.1558900000000003
 30
0.0
 10
1.6841600000000001
 20
1.9984100000000002
 30
0.0
 10
1.6841600000000001
 20
1.9984100000000002
 30
0.0
 10
1.7908400000000002
 20
1.8333100000000002
 30
0.0
 10
1.8899000000000001
 20
1.65551
 30
0.0
 10
1.9483200000000001
 20
1.4650100000000001
 30
0.0
 10
1.9483200000000001
 20
1.4650100000000001
 30
0.0
 10
2.0727800000000003
 20
1.06369
 30
0.0
 10
2.1693000000000002
 20
0.66237
 30
0.0
 10
2.2505800000000002
 20
0.24327
 30
0.0
 10
2.2505800000000002
 20
0.24327
 30
0.0
 10
2.2328000000000001
 20
0.6522100000000001
 30
0.0
 10
2.1032600000000001
 20
1.3126100000000001
 30
0.0
 10
2.1210400000000003
 20
1.52597
 30
0.0
 10
2.1210400000000003
 20
1.52597
 30
0.0
 10
2.2328000000000001
 20
1.6199500000000002
 30
0.0
 10
2.0727800000000003
 20
1.9679300000000002
 30
0.0
 10
2.2277200000000001
 20
1.6910700000000001
 30
0.0
 10
2.2277200000000001
 20
1.6910700000000001
 30
0.0
 10
2.2226400000000002
 20
1.7444100000000002
 30
0.0
 10
2.1566000000000001
 20
1.9552300000000002
 30
0.0
 10
2.1972400000000003
 20
1.9145900000000002
 30
0.0
 10
2.1972400000000003
 20
1.9145900000000002
 30
0.0
 10
2.2505800000000002
 20
1.7977500000000002
 30
0.0
 10
2.2937600000000002
 20
1.6478900000000001
 30
0.0
 10
2.3750400000000003
 20
1.5539100000000001
 30
0.0
 10
2.3750400000000003
 20
1.5539100000000001
 30
0.0
 10
2.3039200000000002
 20
1.9044300000000001
 30
0.0
 10
2.2759800000000001
 20
2.4454500000000001
 30
0.0
 10
1.9330800000000001
 20
2.5572100000000004
 30
0.0
 10
1.9330800000000001
 20
2.5572100000000004
 30
0.0
 10
1.9026000000000001
 20
2.54705
 30
0.0
 10
1.9330800000000001
 20
2.5064100000000002
 30
0.0
 10
1.9153000000000002
 20
2.4937100000000001
 30
0.0
 10
1.9153000000000002
 20
2.4937100000000001
 30
0.0
 10
1.8441800000000002
 20
2.5292700000000004
 30
0.0
 10
1.8365600000000002
 20
2.5165700000000002
 30
0.0
 10
1.7679800000000001
 20
2.5241900000000004
 30
0.0
 10
1.7679800000000001
 20
2.5241900000000004
 30
0.0
 10
1.7679800000000001
 20
2.42259
 30
0.0
 10
1.8086200000000001
 20
2.3286100000000003
 30
0.0
 10
1.8365600000000002
 20
2.2346300000000001
 30
0.0
 10
1.8365600000000002
 20
2.2346300000000001
 30
0.0
 10
1.8137000000000001
 20
2.16351
 30
0.0
 10
1.7375
 20
2.1381100000000002
 30
0.0
 10
1.7679800000000001
 20
2.0619100000000001
 30
0.0
 10
1.7679800000000001
 20
2.0619100000000001
 30
0.0
 10
1.5012800000000002
 20
2.3336900000000003
 30
0.0
 10
1.2472800000000002
 20
2.47085
 30
0.0
 10
1.01614
 20
2.6943700000000002
 30
0.0
 10
1.01614
 20
2.6943700000000002
 30
0.0
 10
1.10504
 20
2.80105
 30
0.0
 10
1.0923400000000001
 20
2.9483700000000002
 30
0.0
 10
1.2168000000000001
 20
3.0601300000000005
 30
0.0
 10
1.2168000000000001
 20
3.0601300000000005
 30
0.0
 10
1.18886
 20
3.1185500000000004
 30
0.0
 10
1.05932
 20
3.1896700000000004
 30
0.0
 10
1.14568
 20
3.2557100000000001
 30
0.0
 10
1.14568
 20
3.2557100000000001
 30
0.0
 10
1.3488800000000001
 20
3.2785700000000002
 30
0.0
 10
1.5546200000000001
 20
3.1845900000000005
 30
0.0
 10
1.7248000000000001
 20
3.0779100000000001
 30
0.0
  0
SPLINE
  5
35
100
AcDbEntity
  8
Ebene 1
100
AcDbSpline
210
0.0
220
0.0
230
1.0
 70
     1
 71
     3
 72
    32
 73
    28
 74
     0
 42
0.0000000001
 43
0.0000000001
 40
0.0
 40
0.0
 40
0.0
 40
0.0
 40
0.1428571428571429
 40
0.1428571428571429
 40
0.1428571428571429
 40
0.1428571428571429
 40
0.2857142857142857
 40
0.2857142857142857
 40
0.2857142857142857
 40
0.2857142857142857
 40
0.4285714285714286
 40
0.4285714285714286
 40
0.4285714285714286
 40
0.4285714285714286
 40
0.5714285714285714
 40
0.5714285714285714
 40
0.5714285714285714
 40
0.5714285714285714
 40
0.7142857142857142
 40
0.7142857142857142
 40
0.7142857142857142
 40
0.7142857142857142
 40
0.857142857142857
 40
0.857142857142857
 40
0.857142857142857
 40
0.857142857142857
 40
1.0
 40
1.0
 40
1.0
 40
1.0
 10
1.5419200000000002
 20
2.9890100000000004
 30
0.0
 10
1.7019400000000002
 20
2.9966300000000001
 30
0.0
 10
1.7248000000000001
 20
2.7654900000000002
 30
0.0
 10
1.6613000000000002
 20
2.6715100000000001
 30
0.0
 10
1.6613000000000002
 20
2.6715100000000001
 30
0.0
 10
1.5546200000000001
 20
2.5699100000000001
 30
0.0
 10
1.2599800000000001
 20
2.6994500000000001
 30
0.0
 10
1.4073000000000002
 20
2.8366100000000003
 30
0.0
 10
1.4073000000000002
 20
2.8366100000000003
 30
0.0
 10
1.3946000000000001
 20
2.7248500000000004
 30
0.0
 10
1.5368400000000002
 20
2.6359500000000002
 30
0.0
 10
1.6181200000000002
 20
2.7172300000000003
 30
0.0
 10
1.6181200000000002
 20
2.7172300000000003
 30
0.0
 10
1.6181200000000002
 20
2.7172300000000003
 30
0.0
 10
1.6028800000000001
 20
2.7426300000000001
 30
0.0
 10
1.6028800000000001
 20
2.7426300000000001
 30
0.0
 10
1.6028800000000001
 20
2.7426300000000001
 30
0.0
 10
1.65368
 20
2.80105
 30
0.0
 10
1.6028800000000001
 20
2.8543900000000004
 30
0.0
 10
1.5901800000000001
 20
2.9178900000000003
 30
0.0
 10
1.5901800000000001
 20
2.9178900000000003
 30
0.0
 10
1.48858
 20
2.9255100000000001
 30
0.0
 10
1.5825600000000002
 20
2.8137500000000002
 30
0.0
 10
1.5063600000000001
 20
2.7883500000000003
 30
0.0
 10
1.5063600000000001
 20
2.7883500000000003
 30
0.0
 10
1.44286
 20
2.8366100000000003
 30
0.0
 10
1.48858
 20
2.9483700000000002
 30
0.0
 10
1.5419200000000002
 20
2.9890100000000004
 30
0.0
  0
SPLINE
  5
36
100
AcDbEntity
  8
Ebene 1
100
AcDbSpline
210
0.0
220
0.0
230
1.0
 70
     1
 71
     3
 72
    16
 73
    12
 74
     0
 42
0.0000000001
 43
0.0000000001
 40
0.0
 40
0.0
 40
0.0
 40
0.0
 40
0.3333333333333333
 40
0.3333333333333333
 40
0.3333333333333333
 40
0.3333333333333333
 40
0.6666666666666666
 40
0.6666666666666666
 40
0.6666666666666666
 40
0.6666666666666666
 40
1.0
 40
1.0
 40
1.0
 40
1.0
 10
-1.6076700000000002
 20
2.9839300000000004
 30
0.0
 10
-1.6000500000000002
 20
2.9839300000000004
 30
0.0
 10
-1.5949700000000002
 20
2.9839300000000004
 30
0.0
 10
-1.5924300000000002
 20
2.9788500000000004
 30
0.0
 10
-1.5924300000000002
 20
2.9788500000000004
 30
0.0
 10
-1.6076700000000002
 20
2.9255100000000001
 30
0.0
 10
-1.5822700000000001
 20
2.8543900000000004
 30
0.0
 10
-1.6203700000000001
 20
2.8137500000000002
 30
0.0
 10
-1.6203700000000001
 20
2.8137500000000002
 30
0.0
 10
-1.6533900000000001
 20
2.8670900000000001
 30
0.0
 10
-1.6127500000000001
 20
2.93059
 30
0.0
 10
-1.6076700000000002
 20
2.9839300000000004
 30
0.0
  0
SPLINE
  5
37
100
AcDbEntity
  8
Ebene 1
 62
     7
100
AcDbSpline
210
0.0
220
0.0
230
1.0
 70
     1
 71
     3
 72
    20
 73
    16
 74
     0
 42
0.0000000001
 43
0.0000000001
 40
0.0
 40
0.0
 40
0.0
 40
0.0
 40
0.25
 40
0.25
 40
0.25
 40
0.25
 40
0.5
 40
0.5
 40
0.5
 40
0.5
 40
0.75
 40
0.75
 40
0.75
 40
0.75
 40
1.0
 40
1.0
 40
1.0
 40
1.0
 10
3.2970600000000001
 20
2.8366100000000003
 30
0.0
 10
3.30722
 20
2.8416900000000003
 30
0.0
 10
3.30722
 20
2.8289900000000001
 30
0.0
 10
3.3148400000000002
 20
2.8239100000000001
 30
0.0
 10
3.3148400000000002
 20
2.8239100000000001
 30
0.0
 10
3.3199200000000002
 20
2.7248500000000004
 30
0.0
 10
3.3554800000000005
 20
2.6105500000000004
 30
0.0
 10
3.3199200000000002
 20
2.5165700000000002
 30
0.0
 10
3.3199200000000002
 20
2.5165700000000002
 30
0.0
 10
3.2970600000000001
 20
2.5241900000000004
 30
0.0
 10
3.2843600000000004
 20
2.55213
 30
0.0
 10
3.2716600000000002
 20
2.5699100000000001
 30
0.0
 10
3.2716600000000002
 20
2.5699100000000001
 30
0.0
 10
3.2716600000000002
 20
2.5699100000000001
 30
0.0
 10
3.2970600000000001
 20
2.8366100000000003
 30
0.0
 10
3.2970600000000001
 20
2.8366100000000003
 30
0.0
  0
SPLINE
  5
38
100
AcDbEntity
  8
Ebene 1
100
AcDbSpline
210
0.0
220
0.0
230
1.0
 70
     1
 71
     3
 72
    32
 73
    28
 74
     0
 42
0.0000000001
 43
0.0000000001
 40
0.0
 40
0.0
 40
0.0
 40
0.0
 40
0.1428571428571429
 40
0.1428571428571429
 40
0.1428571428571429
 40
0.1428571428571429
 40
0.2857142857142857
 40
0.2857142857142857
 40
0.2857142857142857
 40
0.2857142857142857
 40
0.4285714285714286
 40
0.4285714285714286
 40
0.4285714285714286
 40
0.4285714285714286
 40
0.5714285714285714
 40
0.5714285714285714
 40
0.5714285714285714
 40
0.5714285714285714
 40
0.7142857142857142
 40
0.7142857142857142
 40
0.7142857142857142
 40
0.7142857142857142
 40
0.857142857142857
 40
0.857142857142857
 40
0.857142857142857
 40
0.857142857142857
 40
1.0
 40
1.0
 40
1.0
 40
1.0
 10
-0.6094500000000001
 20
2.3108300000000002
 30
0.0
 10
-0.59421
 20
2.3159100000000001
 30
0.0
 10
-0.5865900000000001
 20
2.29813
 30
0.0
 10
-0.57389
 20
2.29305
 30
0.0
 10
-0.57389
 20
2.29305
 30
0.0
 10
-0.6043700000000001
 20
2.2092300000000002
 30
0.0
 10
-0.5815100000000001
 20
2.0974700000000004
 30
0.0
 10
-0.6627900000000001
 20
2.0517500000000002
 30
0.0
 10
-0.6627900000000001
 20
2.0517500000000002
 30
0.0
 10
-0.67549
 20
2.0517500000000002
 30
0.0
 10
-0.6831100000000001
 20
2.0619100000000001
 30
0.0
 10
-0.6907300000000001
 20
2.0695300000000003
 30
0.0
 10
-0.6907300000000001
 20
2.0695300000000003
 30
0.0
 10
-0.6881900000000001
 20
2.1101700000000001
 30
0.0
 10
-0.7135900000000001
 20
2.16859
 30
0.0
 10
-0.76439
 20
2.1330300000000002
 30
0.0
 10
-0.76439
 20
2.1330300000000002
 30
0.0
 10
-0.76439
 20
2.1330300000000002
 30
0.0
 10
-0.7872500000000001
 20
2.1508100000000003
 30
0.0
 10
-0.7872500000000001
 20
2.1508100000000003
 30
0.0
 10
-0.7872500000000001
 20
2.1508100000000003
 30
0.0
 10
-0.8202700000000001
 20
2.1381100000000002
 30
0.0
 10
-0.86599
 20
2.1101700000000001
 30
0.0
 10
-0.88885
 20
2.1508100000000003
 30
0.0
 10
-0.88885
 20
2.1508100000000003
 30
0.0
 10
-0.8151900000000001
 20
2.2270100000000004
 30
0.0
 10
-0.6729500000000001
 20
2.21685
 30
0.0
 10
-0.6094500000000001
 20
2.3108300000000002
 30
0.0
  0
SPLINE
  5
39
100
AcDbEntity
  8
Ebene 1
100
AcDbSpline
210
0.0
220
0.0
230
1.0
 70
     1
 71
     3
 72
    24
 73
    20
 74
     0
 42
0.0000000001
 43
0.0000000001
 40
0.0
 40
0.0
 40
0.0
 40
0.0
 40
0.2
 40
0.2
 40
0.2
 40
0.2
 40
0.4
 40
0.4
 40
0.4
 40
0.4
 40
0.6000000000000001
 40
0.6000000000000001
 40
0.6000000000000001
 40
0.6000000000000001
 40
0.8
 40
0.8
 40
0.8
 40
0.8
 40
1.0
 40
1.0
 40
1.0
 40
1.0
 10
-0.20305
 20
2.21685
 30
0.0
 10
-0.15479
 20
2.1990700000000003
 30
0.0
 10
-0.12685
 20
2.1152500000000001
 30
0.0
 10
-0.15479
 20
2.0695300000000003
 30
0.0
 10
-0.15479
 20
2.0695300000000003
 30
0.0
 10
-0.16749
 20
2.0695300000000003
 30
0.0
 10
-0.17257
 20
2.0619100000000001
 30
0.0
 10
-0.18527
 20
2.0568300000000002
 30
0.0
 10
-0.18527
 20
2.0568300000000002
 30
0.0
 10
-0.22083
 20
2.09239
 30
0.0
 10
-0.27417
 20
2.0517500000000002
 30
0.0
 10
-0.31481
 20
2.0695300000000003
 30
0.0
 10
-0.31481
 20
2.0695300000000003
 30
0.0
 10
-0.3021100000000001
 20
2.1279500000000002
 30
0.0
 10
-0.20305
 20
2.1279500000000002
 30
0.0
 10
-0.22591
 20
2.1990700000000003
 30
0.0
 10
-0.22591
 20
2.1990700000000003
 30
0.0
 10
-0.22591
 20
2.1990700000000003
 30
0.0
 10
-0.20305
 20
2.21685
 30
0.0
 10
-0.20305
 20
2.21685
 30
0.0
  0
SPLINE
  5
3A
100
AcDbEntity
  8
Ebene 1
 62
     7
100
AcDbSpline
210
0.0
220
0.0
230
1.0
 70
     1
 71
     3
 72
    48
 73
    44
 74
     0
 42
0.0000000001
 43
0.0000000001
 40
0.0
 40
0.0
 40
0.0
 40
0.0
 40
0.0909090909090909
 40
0.0909090909090909
 40
0.0909090909090909
 40
0.0909090909090909
 40
0.1818181818181818
 40
0.1818181818181818
 40
0.1818181818181818
 40
0.1818181818181818
 40
0.2727272727272727
 40
0.2727272727272727
 40
0.2727272727272727
 40
0.2727272727272727
 40
0.3636363636363637
 40
0.3636363636363637
 40
0.3636363636363637
 40
0.3636363636363637
 40
0.4545454545454546
 40
0.4545454545454546
 40
0.4545454545454546
 40
0.4545454545454546
 40
0.5454545454545455
 40
0.5454545454545455
 40
0.5454545454545455
 40
0.5454545454545455
 40
0.6363636363636365
 40
0.6363636363636365
 40
0.6363636363636365
 40
0.6363636363636365
 40
0.7272727272727274
 40
0.7272727272727274
 40
0.7272727272727274
 40
0.7272727272727274
 40
0.8181818181818183
 40
0.8181818181818183
 40
0.8181818181818183
 40
0.8181818181818183
 40
0.9090909090909093
 40
0.9090909090909093
 40
0.9090909090909093
 40
0.9090909090909093
 40
1.0
 40
1.0
 40
1.0
 40
1.0
 10
2.9592400000000003
 20
2.16351
 30
0.0
 10
2.9592400000000003
 20
2.16351
 30
0.0
 10
3.0430600000000001
 20
2.08731
 30
0.0
 10
3.0430600000000001
 20
2.08731
 30
0.0
 10
3.0430600000000001
 20
2.08731
 30
0.0
 10
3.0837000000000003
 20
2.0974700000000004
 30
0.0
 10
3.0760800000000001
 20
2.24987
 30
0.0
 10
3.0989400000000002
 20
2.2244700000000002
 30
0.0
 10
3.0989400000000002
 20
2.2244700000000002
 30
0.0
 10
3.2386400000000002
 20
2.1558900000000003
 30
0.0
 10
3.0964
 20
1.6326500000000002
 30
0.0
 10
3.0887800000000003
 20
1.5132700000000001
 30
0.0
 10
3.0887800000000003
 20
1.5132700000000001
 30
0.0
 10
3.0252800000000004
 20
1.6326500000000002
 30
0.0
 10
3.0075000000000003
 20
1.7723500000000001
 30
0.0
 10
3.0964
 20
1.8841100000000002
 30
0.0
 10
3.0964
 20
1.8841100000000002
 30
0.0
 10
3.1192600000000001
 20
1.9044300000000001
 30
0.0
 10
3.1192600000000001
 20
1.9272900000000002
 30
0.0
 10
3.0964
 20
1.9450700000000001
 30
0.0
 10
3.0964
 20
1.9450700000000001
 30
0.0
 10
2.9414600000000002
 20
1.8917300000000001
 30
0.0
 10
2.9948000000000001
 20
1.6199500000000002
 30
0.0
 10
2.7890600000000001
 20
1.6072500000000001
 30
0.0
 10
2.7890600000000001
 20
1.6072500000000001
 30
0.0
 10
2.7662000000000004
 20
1.65551
 30
0.0
 10
2.8068400000000002
 20
1.7901300000000002
 30
0.0
 10
2.8601800000000002
 20
1.7139300000000002
 30
0.0
 10
2.8601800000000002
 20
1.7139300000000002
 30
0.0
 10
2.8703400000000001
 20
1.7139300000000002
 30
0.0
 10
2.8830400000000003
 20
1.7139300000000002
 30
0.0
 10
2.8881200000000002
 20
1.7190100000000001
 30
0.0
 10
2.8881200000000002
 20
1.7190100000000001
 30
0.0
 10
2.8881200000000002
 20
1.7190100000000001
 30
0.0
 10
2.8652600000000001
 20
2.1330300000000002
 30
0.0
 10
2.8652600000000001
 20
2.1330300000000002
 30
0.0
 10
2.8652600000000001
 20
2.1330300000000002
 30
0.0
 10
2.9008200000000004
 20
2.1050900000000001
 30
0.0
 10
2.9059000000000004
 20
1.9806300000000001
 30
0.0
 10
2.9592400000000003
 20
2.0034900000000002
 30
0.0
 10
2.9592400000000003
 20
2.0034900000000002
 30
0.0
 10
2.9592400000000003
 20
2.0034900000000002
 30
0.0
 10
2.9592400000000003
 20
2.16351
 30
0.0
 10
2.9592400000000003
 20
2.16351
 30
0.0
  0
SPLINE
  5
3B
100
AcDbEntity
  8
Ebene 1
100
AcDbSpline
210
0.0
220
0.0
230
1.0
 70
     1
 71
     3
 72
    24
 73
    20
 74
     0
 42
0.0000000001
 43
0.0000000001
 40
0.0
 40
0.0
 40
0.0
 40
0.0
 40
0.2
 40
0.2
 40
0.2
 40
0.2
 40
0.4
 40
0.4
 40
0.4
 40
0.4
 40
0.6000000000000001
 40
0.6000000000000001
 40
0.6000000000000001
 40
0.6000000000000001
 40
0.8
 40
0.8
 40
0.8
 40
0.8
 40
1.0
 40
1.0
 40
1.0
 40
1.0
 10
-0.5865900000000001
 20
1.9679300000000002
 30
0.0
 10
-0.5205500000000001
 20
1.9679300000000002
 30
0.0
 10
-0.55103
 20
1.8510900000000001
 30
0.0
 10
-0.5586500000000001
 20
1.8079100000000001
 30
0.0
 10
-0.5586500000000001
 20
1.8079100000000001
 30
0.0
 10
-0.61199
 20
1.7850500000000002
 30
0.0
 10
-0.6729500000000001
 20
1.8434700000000002
 30
0.0
 10
-0.7288300000000001
 20
1.8079100000000001
 30
0.0
 10
-0.7288300000000001
 20
1.8079100000000001
 30
0.0
 10
-0.7339100000000001
 20
1.8079100000000001
 30
0.0
 10
-0.73899
 20
1.8155300000000001
 30
0.0
 10
-0.74153
 20
1.8206100000000001
 30
0.0
 10
-0.74153
 20
1.8206100000000001
 30
0.0
 10
-0.7059700000000001
 20
1.8510900000000001
 30
0.0
 10
-0.65517
 20
1.8612500000000001
 30
0.0
 10
-0.61199
 20
1.8790300000000002
 30
0.0
 10
-0.61199
 20
1.8790300000000002
 30
0.0
 10
-0.5840500000000001
 20
1.9044300000000001
 30
0.0
 10
-0.61199
 20
1.9450700000000001
 30
0.0
 10
-0.5865900000000001
 20
1.9679300000000002
 30
0.0
  0
SPLINE
  5
3C
100
AcDbEntity
  8
Ebene 1
 62
     7
100
AcDbSpline
210
0.0
220
0.0
230
1.0
 70
     1
 71
     3
 72
    24
 73
    20
 74
     0
 42
0.0000000001
 43
0.0000000001
 40
0.0
 40
0.0
 40
0.0
 40
0.0
 40
0.2
 40
0.2
 40
0.2
 40
0.2
 40
0.4
 40
0.4
 40
0.4
 40
0.4
 40
0.6000000000000001
 40
0.6000000000000001
 40
0.6000000000000001
 40
0.6000000000000001
 40
0.8
 40
0.8
 40
0.8
 40
0.8
 40
1.0
 40
1.0
 40
1.0
 40
1.0
 10
3.1954600000000002
 20
1.9679300000000002
 30
0.0
 10
3.2183200000000003
 20
1.9272900000000002
 30
0.0
 10
3.2615000000000003
 20
1.8841100000000002
 30
0.0
 10
3.3021400000000001
 20
1.8561700000000001
 30
0.0
 10
3.3021400000000001
 20
1.8561700000000001
 30
0.0
 10
3.3732600000000001
 20
1.6072500000000001
 30
0.0
 10
3.3148400000000002
 20
1.3481700000000001
 30
0.0
 10
3.2259400000000005
 20
1.1170300000000002
 30
0.0
 10
3.2259400000000005
 20
1.1170300000000002
 30
0.0
 10
3.1853000000000002
 20
1.22879
 30
0.0
 10
3.2437200000000002
 20
1.3786500000000002
 30
0.0
 10
3.1421200000000002
 20
1.4599300000000002
 30
0.0
 10
3.1421200000000002
 20
1.4599300000000002
 30
0.0
 10
3.1421200000000002
 20
1.4599300000000002
 30
0.0
 10
3.1370400000000003
 20
1.5005700000000002
 30
0.0
 10
3.1370400000000003
 20
1.5005700000000002
 30
0.0
 10
3.1370400000000003
 20
1.5005700000000002
 30
0.0
 10
3.1497400000000004
 20
1.6605900000000002
 30
0.0
 10
3.1776800000000001
 20
1.8206100000000001
 30
0.0
 10
3.1954600000000002
 20
1.9679300000000002
 30
0.0
  0
SPLINE
  5
3D
100
AcDbEntity
  8
Ebene 1
100
AcDbSpline
210
0.0
220
0.0
230
1.0
 70
     1
 71
     3
 72
    24
 73
    20
 74
     0
 42
0.0000000001
 43
0.0000000001
 40
0.0
 40
0.0
 40
0.0
 40
0.0
 40
0.2
 40
0.2
 40
0.2
 40
0.2
 40
0.4
 40
0.4
 40
0.4
 40
0.4
 40
0.6000000000000001
 40
0.6000000000000001
 40
0.6000000000000001
 40
0.6000000000000001
 40
0.8
 40
0.8
 40
0.8
 40
0.8
 40
1.0
 40
1.0
 40
1.0
 40
1.0
 10
-1.4425700000000001
 20
1.9552300000000002
 30
0.0
 10
-1.3587500000000001
 20
1.9552300000000002
 30
0.0
 10
-1.3028700000000002
 20
1.8612500000000001
 30
0.0
 10
-1.3003300000000002
 20
1.7850500000000002
 30
0.0
 10
-1.3003300000000002
 20
1.7850500000000002
 30
0.0
 10
-1.3257300000000001
 20
1.7494900000000002
 30
0.0
 10
-1.3485900000000002
 20
1.69615
 30
0.0
 10
-1.3968500000000001
 20
1.6910700000000001
 30
0.0
 10
-1.3968500000000001
 20
1.6910700000000001
 30
0.0
 10
-1.3968500000000001
 20
1.6910700000000001
 30
0.0
 10
-1.4832100000000001
 20
1.7799700000000001
 30
0.0
 10
-1.4832100000000001
 20
1.7799700000000001
 30
0.0
 10
-1.4832100000000001
 20
1.7799700000000001
 30
0.0
 10
-1.4832100000000001
 20
1.7799700000000001
 30
0.0
 10
-1.4070100000000001
 20
1.8434700000000002
 30
0.0
 10
-1.4070100000000001
 20
1.8434700000000002
 30
0.0
 10
-1.4070100000000001
 20
1.8434700000000002
 30
0.0
 10
-1.3968500000000001
 20
1.8917300000000001
 30
0.0
 10
-1.4984500000000001
 20
1.9044300000000001
 30
0.0
 10
-1.4425700000000001
 20
1.9552300000000002
 30
0.0
  0
SPLINE
  5
3E
100
AcDbEntity
  8
Ebene 1
100
AcDbSpline
210
0.0
220
0.0
230
1.0
 70
     1
 71
     3
 72
    16
 73
    12
 74
     0
 42
0.0000000001
 43
0.0000000001
 40
0.0
 40
0.0
 40
0.0
 40
0.0
 40
0.3333333333333333
 40
0.3333333333333333
 40
0.3333333333333333
 40
0.3333333333333333
 40
0.6666666666666666
 40
0.6666666666666666
 40
0.6666666666666666
 40
0.6666666666666666
 40
1.0
 40
1.0
 40
1.0
 40
1.0
 10
-1.9404100000000002
 20
1.8256900000000003
 30
0.0
 10
-1.8007100000000003
 20
1.8206100000000001
 30
0.0
 10
-1.9378700000000002
 20
1.5437500000000002
 30
0.0
 10
-2.0039100000000003
 20
1.69615
 30
0.0
 10
-2.0039100000000003
 20
1.69615
 30
0.0
 10
-2.0445500000000001
 20
1.7139300000000002
 30
0.0
 10
-2.0826500000000001
 20
1.6605900000000002
 30
0.0
 10
-2.10805
 20
1.69615
 30
0.0
 10
-2.10805
 20
1.69615
 30
0.0
 10
-2.0801100000000003
 20
1.7723500000000001
 30
0.0
 10
-1.9759700000000002
 20
1.7621900000000001
 30
0.0
 10
-1.9404100000000002
 20
1.8256900000000003
 30
0.0
  0
SPLINE
  5
3F
100
AcDbEntity
  8
Ebene 1
 62
     7
100
AcDbSpline
210
0.0
220
0.0
230
1.0
 70
     1
 71
     3
 72
    36
 73
    32
 74
     0
 42
0.0000000001
 43
0.0000000001
 40
0.0
 40
0.0
 40
0.0
 40
0.0
 40
0.125
 40
0.125
 40
0.125
 40
0.125
 40
0.25
 40
0.25
 40
0.25
 40
0.25
 40
0.375
 40
0.375
 40
0.375
 40
0.375
 40
0.5
 40
0.5
 40
0.5
 40
0.5
 40
0.625
 40
0.625
 40
0.625
 40
0.625
 40
0.75
 40
0.75
 40
0.75
 40
0.75
 40
0.875
 40
0.875
 40
0.875
 40
0.875
 40
1.0
 40
1.0
 40
1.0
 40
1.0
 10
2.97194
 20
1.6834500000000001
 30
0.0
 10
2.97194
 20
1.6834500000000001
 30
0.0
 10
3.0125800000000003
 20
1.5615300000000001
 30
0.0
 10
3.0125800000000003
 20
1.5615300000000001
 30
0.0
 10
3.0125800000000003
 20
1.5615300000000001
 30
0.0
 10
2.9592400000000003
 20
1.5945500000000001
 30
0.0
 10
2.9236800000000001
 20
1.5894700000000002
 30
0.0
 10
2.8703400000000001
 20
1.5793100000000002
 30
0.0
 10
2.8703400000000001
 20
1.5793100000000002
 30
0.0
 10
2.8297000000000003
 20
1.5437500000000002
 30
0.0
 10
2.8424
 20
1.4777100000000001
 30
0.0
 10
2.8424
 20
1.4319900000000001
 30
0.0
 10
2.8424
 20
1.4319900000000001
 30
0.0
 10
2.8246200000000004
 20
1.40151
 30
0.0
 10
2.7941400000000001
 20
1.44723
 30
0.0
 10
2.7763600000000004
 20
1.4243700000000001
 30
0.0
 10
2.7763600000000004
 20
1.4243700000000001
 30
0.0
 10
2.7458800000000001
 20
1.22879
 30
0.0
 10
2.5807800000000003
 20
1.0586100000000001
 30
0.0
 10
2.4766400000000002
 20
0.8884300000000001
 30
0.0
 10
2.4766400000000002
 20
0.8884300000000001
 30
0.0
 10
2.5807800000000003
 20
1.0814700000000002
 30
0.0
 10
2.6595200000000001
 20
1.31769
 30
0.0
 10
2.79922
 20
1.4777100000000001
 30
0.0
 10
2.79922
 20
1.4777100000000001
 30
0.0
 10
2.79922
 20
1.5005700000000002
 30
0.0
 10
2.8068400000000002
 20
1.53105
 30
0.0
 10
2.7941400000000001
 20
1.5539100000000001
 30
0.0
 10
2.7941400000000001
 20
1.5539100000000001
 30
0.0
 10
2.8652600000000001
 20
1.5793100000000002
 30
0.0
 10
2.9236800000000001
 20
1.6250300000000002
 30
0.0
 10
2.97194
 20
1.6834500000000001
 30
0.0
  0
SPLINE
  5
40
100
AcDbEntity
  8
Ebene 1
 62
     7
100
AcDbSpline
210
0.0
220
0.0
230
1.0
 70
     1
 71
     3
 72
    28
 73
    24
 74
     0
 42
0.0000000001
 43
0.0000000001
 40
0.0
 40
0.0
 40
0.0
 40
0.0
 40
0.1666666666666667
 40
0.1666666666666667
 40
0.1666666666666667
 40
0.1666666666666667
 40
0.3333333333333333
 40
0.3333333333333333
 40
0.3333333333333333
 40
0.3333333333333333
 40
0.5
 40
0.5
 40
0.5
 40
0.5
 40
0.6666666666666666
 40
0.6666666666666666
 40
0.6666666666666666
 40
0.6666666666666666
 40
0.8333333333333333
 40
0.8333333333333333
 40
0.8333333333333333
 40
0.8333333333333333
 40
1.0
 40
1.0
 40
1.0
 40
1.0
 10
3.0354400000000004
 20
1.4777100000000001
 30
0.0
 10
3.0786200000000004
 20
1.40151
 30
0.0
 10
3.1141800000000002
 20
1.2948300000000001
 30
0.0
 10
3.0887800000000003
 20
1.2008500000000002
 30
0.0
 10
3.0887800000000003
 20
1.2008500000000002
 30
0.0
 10
2.8703400000000001
 20
1.0459100000000001
 30
0.0
 10
2.71794
 20
0.80969
 30
0.0
 10
2.5122
 20
0.6522100000000001
 30
0.0
 10
2.5122
 20
0.6522100000000001
 30
0.0
 10
2.5757000000000003
 20
0.8452500000000001
 30
0.0
 10
2.7839800000000001
 20
0.9239900000000001
 30
0.0
 10
2.8779600000000003
 20
1.0941700000000001
 30
0.0
 10
2.8779600000000003
 20
1.0941700000000001
 30
0.0
 10
2.9363800000000002
 20
1.0890900000000001
 30
0.0
 10
2.9668600000000001
 20
1.1424300000000001
 30
0.0
 10
3.0075000000000003
 20
1.1703700000000001
 30
0.0
 10
3.0075000000000003
 20
1.1703700000000001
 30
0.0
 10
3.0075000000000003
 20
1.1703700000000001
 30
0.0
 10
2.9897200000000002
 20
1.3888100000000001
 30
0.0
 10
2.9897200000000002
 20
1.3888100000000001
 30
0.0
 10
2.9897200000000002
 20
1.3888100000000001
 30
0.0
 10
2.9897200000000002
 20
1.3888100000000001
 30
0.0
 10
3.0354400000000004
 20
1.4777100000000001
 30
0.0
 10
3.0354400000000004
 20
1.4777100000000001
 30
0.0
  0
SPLINE
  5
41
100
AcDbEntity
  8
Ebene 1
 62
     7
100
AcDbSpline
210
0.0
220
0.0
230
1.0
 70
     1
 71
     3
 72
    64
 73
    60
 74
     0
 42
0.0000000001
 43
0.0000000001
 40
0.0
 40
0.0
 40
0.0
 40
0.0
 40
0.0666666666666667
 40
0.0666666666666667
 40
0.0666666666666667
 40
0.0666666666666667
 40
0.1333333333333333
 40
0.1333333333333333
 40
0.1333333333333333
 40
0.1333333333333333
 40
0.2
 40
0.2
 40
0.2
 40
0.2
 40
0.2666666666666667
 40
0.2666666666666667
 40
0.2666666666666667
 40
0.2666666666666667
 40
0.3333333333333333
 40
0.3333333333333333
 40
0.3333333333333333
 40
0.3333333333333333
 40
0.4
 40
0.4
 40
0.4
 40
0.4
 40
0.4666666666666666
 40
0.4666666666666666
 40
0.4666666666666666
 40
0.4666666666666666
 40
0.5333333333333333
 40
0.5333333333333333
 40
0.5333333333333333
 40
0.5333333333333333
 40
0.6
 40
0.6
 40
0.6
 40
0.6
 40
0.6666666666666666
 40
0.6666666666666666
 40
0.6666666666666666
 40
0.6666666666666666
 40
0.7333333333333333
 40
0.7333333333333333
 40
0.7333333333333333
 40
0.7333333333333333
 40
0.7999999999999999
 40
0.7999999999999999
 40
0.7999999999999999
 40
0.7999999999999999
 40
0.8666666666666666
 40
0.8666666666666666
 40
0.8666666666666666
 40
0.8666666666666666
 40
0.9333333333333332
 40
0.9333333333333332
 40
0.9333333333333332
 40
0.9333333333333332
 40
1.0
 40
1.0
 40
1.0
 40
1.0
 10
1.48858
 20
0.9925700000000001
 30
0.0
 10
1.5724
 20
0.85287
 30
0.0
 10
1.5241400000000001
 20
0.6750700000000001
 30
0.0
 10
1.5368400000000002
 20
0.5023500000000001
 30
0.0
 10
1.5368400000000002
 20
0.5023500000000001
 30
0.0
 10
1.6079600000000001
 20
0.42615
 30
0.0
 10
1.5825600000000002
 20
0.59887
 30
0.0
 10
1.6308200000000002
 20
0.6268100000000001
 30
0.0
 10
1.6308200000000002
 20
0.6268100000000001
 30
0.0
 10
1.7248000000000001
 20
0.3804300000000001
 30
0.0
 10
1.7832200000000002
 20
0.09087
 30
0.0
 10
1.7552800000000002
 20
-0.17836
 30
0.0
 10
1.7552800000000002
 20
-0.17836
 30
0.0
 10
1.69686
 20
-0.2444
 30
0.0
 10
1.6257400000000002
 20
-0.29012
 30
0.0
 10
1.5647800000000001
 20
-0.34346
 30
0.0
 10
1.5647800000000001
 20
-0.34346
 30
0.0
 10
1.5419200000000002
 20
-0.3206000000000001
 30
0.0
 10
1.5901800000000001
 20
-0.32568
 30
0.0
 10
1.5774800000000002
 20
-0.30282
 30
0.0
 10
1.5774800000000002
 20
-0.30282
 30
0.0
 10
1.3412600000000001
 20
-0.29774
 30
0.0
 10
1.11266
 20
-0.37902
 30
0.0
 10
0.8815200000000001
 20
-0.39172
 30
0.0
 10
0.8815200000000001
 20
-0.39172
 30
0.0
 10
1.1812400000000001
 20
-0.19614
 30
0.0
 10
1.3768200000000002
 20
0.28391
 30
0.0
 10
1.01614
 20
0.5455300000000001
 30
0.0
 10
1.01614
 20
0.5455300000000001
 30
0.0
 10
0.9805800000000001
 20
0.55569
 30
0.0
 10
1.0059800000000001
 20
0.59887
 30
0.0
 10
1.02376
 20
0.61665
 30
0.0
 10
1.02376
 20
0.61665
 30
0.0
 10
1.2828400000000002
 20
0.55061
 30
0.0
 10
1.2066400000000002
 20
0.22041
 30
0.0
 10
1.35904
 20
0.05023
 30
0.0
 10
1.35904
 20
0.05023
 30
0.0
 10
1.35904
 20
0.00197
 30
0.0
 10
1.3184
 20
-0.06152
 30
0.0
 10
1.3539600000000001
 20
-0.10724
 30
0.0
 10
1.3539600000000001
 20
-0.10724
 30
0.0
 10
1.4073000000000002
 20
-0.04882
 30
0.0
 10
1.5190600000000001
 20
0.06547
 30
0.0
 10
1.4530200000000002
 20
0.14421
 30
0.0
 10
1.4530200000000002
 20
0.14421
 30
0.0
 10
1.4708000000000001
 20
0.15437
 30
0.0
 10
1.4962000000000002
 20
0.16199
 30
0.0
 10
1.5012800000000002
 20
0.18485
 30
0.0
 10
1.5012800000000002
 20
0.18485
 30
0.0
 10
1.4352400000000001
 20
0.30169
 30
0.0
 10
1.4835
 20
0.42615
 30
0.0
 10
1.4073000000000002
 20
0.53283
 30
0.0
 10
1.4073000000000002
 20
0.53283
 30
0.0
 10
1.4835
 20
0.53791
 30
0.0
 10
1.4708000000000001
 20
0.6268100000000001
 30
0.0
 10
1.4250800000000001
 20
0.6699900000000001
 30
0.0
 10
1.4250800000000001
 20
0.6699900000000001
 30
0.0
 10
1.5368400000000002
 20
0.76397
 30
0.0
 10
1.3819000000000001
 20
0.9036700000000001
 30
0.0
 10
1.48858
 20
0.9925700000000001
 30
0.0
  0
SPLINE
  5
42
100
AcDbEntity
  8
Ebene 1
 62
     7
100
AcDbSpline
210
0.0
220
0.0
230
1.0
 70
     1
 71
     3
 72
   412
 73
   408
 74
     0
 42
0.0000000001
 43
0.0000000001
 40
0.0
 40
0.0
 40
0.0
 40
0.0
 40
0.0098039215686275
 40
0.0098039215686275
 40
0.0098039215686275
 40
0.0098039215686275
 40
0.0196078431372549
 40
0.0196078431372549
 40
0.0196078431372549
 40
0.0196078431372549
 40
0.0294117647058824
 40
0.0294117647058824
 40
0.0294117647058824
 40
0.0294117647058824
 40
0.0392156862745098
 40
0.0392156862745098
 40
0.0392156862745098
 40
0.0392156862745098
 40
0.0490196078431373
 40
0.0490196078431373
 40
0.0490196078431373
 40
0.0490196078431373
 40
0.0588235294117647
 40
0.0588235294117647
 40
0.0588235294117647
 40
0.0588235294117647
 40
0.0686274509803922
 40
0.0686274509803922
 40
0.0686274509803922
 40
0.0686274509803922
 40
0.0784313725490196
 40
0.0784313725490196
 40
0.0784313725490196
 40
0.0784313725490196
 40
0.0882352941176471
 40
0.0882352941176471
 40
0.0882352941176471
 40
0.0882352941176471
 40
0.0980392156862745
 40
0.0980392156862745
 40
0.0980392156862745
 40
0.0980392156862745
 40
0.1078431372549019
 40
0.1078431372549019
 40
0.1078431372549019
 40
0.1078431372549019
 40
0.1176470588235294
 40
0.1176470588235294
 40
0.1176470588235294
 40
0.1176470588235294
 40
0.1274509803921568
 40
0.1274509803921568
 40
0.1274509803921568
 40
0.1274509803921568
 40
0.1372549019607843
 40
0.1372549019607843
 40
0.1372549019607843
 40
0.1372549019607843
 40
0.1470588235294117
 40
0.1470588235294117
 40
0.1470588235294117
 40
0.1470588235294117
 40
0.1568627450980392
 40
0.1568627450980392
 40
0.1568627450980392
 40
0.1568627450980392
 40
0.1666666666666666
 40
0.1666666666666666
 40
0.1666666666666666
 40
0.1666666666666666
 40
0.1764705882352941
 40
0.1764705882352941
 40
0.1764705882352941
 40
0.1764705882352941
 40
0.1862745098039215
 40
0.1862745098039215
 40
0.1862745098039215
 40
0.1862745098039215
 40
0.1960784313725489
 40
0.1960784313725489
 40
0.1960784313725489
 40
0.1960784313725489
 40
0.2058823529411764
 40
0.2058823529411764
 40
0.2058823529411764
 40
0.2058823529411764
 40
0.2156862745098038
 40
0.2156862745098038
 40
0.2156862745098038
 40
0.2156862745098038
 40
0.2254901960784313
 40
0.2254901960784313
 40
0.2254901960784313
 40
0.2254901960784313
 40
0.2352941176470587
 40
0.2352941176470587
 40
0.2352941176470587
 40
0.2352941176470587
 40
0.2450980392156862
 40
0.2450980392156862
 40
0.2450980392156862
 40
0.2450980392156862
 40
0.2549019607843136
 40
0.2549019607843136
 40
0.2549019607843136
 40
0.2549019607843136
 40
0.2647058823529411
 40
0.2647058823529411
 40
0.2647058823529411
 40
0.2647058823529411
 40
0.2745098039215685
 40
0.2745098039215685
 40
0.2745098039215685
 40
0.2745098039215685
 40
0.284313725490196
 40
0.284313725490196
 40
0.284313725490196
 40
0.284313725490196
 40
0.2941176470588235
 40
0.2941176470588235
 40
0.2941176470588235
 40
0.2941176470588235
 40
0.303921568627451
 40
0.303921568627451
 40
0.303921568627451
 40
0.303921568627451
 40
0.3137254901960784
 40
0.3137254901960784
 40
0.3137254901960784
 40
0.3137254901960784
 40
0.3235294117647059
 40
0.3235294117647059
 40
0.3235294117647059
 40
0.3235294117647059
 40
0.3333333333333334
 40
0.3333333333333334
 40
0.3333333333333334
 40
0.3333333333333334
 40
0.3431372549019608
 40
0.3431372549019608
 40
0.3431372549019608
 40
0.3431372549019608
 40
0.3529411764705883
 40
0.3529411764705883
 40
0.3529411764705883
 40
0.3529411764705883
 40
0.3627450980392158
 40
0.3627450980392158
 40
0.3627450980392158
 40
0.3627450980392158
 40
0.3725490196078433
 40
0.3725490196078433
 40
0.3725490196078433
 40
0.3725490196078433
 40
0.3823529411764707
 40
0.3823529411764707
 40
0.3823529411764707
 40
0.3823529411764707
 40
0.3921568627450982
 40
0.3921568627450982
 40
0.3921568627450982
 40
0.3921568627450982
 40
0.4019607843137257
 40
0.4019607843137257
 40
0.4019607843137257
 40
0.4019607843137257
 40
0.4117647058823531
 40
0.4117647058823531
 40
0.4117647058823531
 40
0.4117647058823531
 40
0.4215686274509806
 40
0.4215686274509806
 40
0.4215686274509806
 40
0.4215686274509806
 40
0.4313725490196081
 40
0.4313725490196081
 40
0.4313725490196081
 40
0.4313725490196081
 40
0.4411764705882356
 40
0.4411764705882356
 40
0.4411764705882356
 40
0.4411764705882356
 40
0.450980392156863
 40
0.450980392156863
 40
0.450980392156863
 40
0.450980392156863
 40
0.4607843137254905
 40
0.4607843137254905
 40
0.4607843137254905
 40
0.4607843137254905
 40
0.470588235294118
 40
0.470588235294118
 40
0.470588235294118
 40
0.470588235294118
 40
0.4803921568627455
 40
0.4803921568627455
 40
0.4803921568627455
 40
0.4803921568627455
 40
0.4901960784313729
 40
0.4901960784313729
 40
0.4901960784313729
 40
0.4901960784313729
 40
0.5000000000000003
 40
0.5000000000000003
 40
0.5000000000000003
 40
0.5000000000000003
 40
0.5098039215686278
 40
0.5098039215686278
 40
0.5098039215686278
 40
0.5098039215686278
 40
0.5196078431372552
 40
0.5196078431372552
 40
0.5196078431372552
 40
0.5196078431372552
 40
0.5294117647058826
 40
0.5294117647058826
 40
0.5294117647058826
 40
0.5294117647058826
 40
0.53921568627451
 40
0.53921568627451
 40
0.53921568627451
 40
0.53921568627451
 40
0.5490196078431374
 40
0.5490196078431374
 40
0.5490196078431374
 40
0.5490196078431374
 40
0.5588235294117648
 40
0.5588235294117648
 40
0.5588235294117648
 40
0.5588235294117648
 40
0.5686274509803923
 40
0.5686274509803923
 40
0.5686274509803923
 40
0.5686274509803923
 40
0.5784313725490197
 40
0.5784313725490197
 40
0.5784313725490197
 40
0.5784313725490197
 40
0.5882352941176471
 40
0.5882352941176471
 40
0.5882352941176471
 40
0.5882352941176471
 40
0.5980392156862745
 40
0.5980392156862745
 40
0.5980392156862745
 40
0.5980392156862745
 40
0.6078431372549019
 40
0.6078431372549019
 40
0.6078431372549019
 40
0.6078431372549019
 40
0.6176470588235293
 40
0.6176470588235293
 40
0.6176470588235293
 40
0.6176470588235293
 40
0.6274509803921567
 40
0.6274509803921567
 40
0.6274509803921567
 40
0.6274509803921567
 40
0.6372549019607842
 40
0.6372549019607842
 40
0.6372549019607842
 40
0.6372549019607842
 40
0.6470588235294116
 40
0.6470588235294116
 40
0.6470588235294116
 40
0.6470588235294116
 40
0.656862745098039
 40
0.656862745098039
 40
0.656862745098039
 40
0.656862745098039
 40
0.6666666666666664
 40
0.6666666666666664
 40
0.6666666666666664
 40
0.6666666666666664
 40
0.6764705882352938
 40
0.6764705882352938
 40
0.6764705882352938
 40
0.6764705882352938
 40
0.6862745098039212
 40
0.6862745098039212
 40
0.6862745098039212
 40
0.6862745098039212
 40
0.6960784313725487
 40
0.6960784313725487
 40
0.6960784313725487
 40
0.6960784313725487
 40
0.7058823529411761
 40
0.7058823529411761
 40
0.7058823529411761
 40
0.7058823529411761
 40
0.7156862745098035
 40
0.7156862745098035
 40
0.7156862745098035
 40
0.7156862745098035
 40
0.7254901960784309
 40
0.7254901960784309
 40
0.7254901960784309
 40
0.7254901960784309
 40
0.7352941176470583
 40
0.7352941176470583
 40
0.7352941176470583
 40
0.7352941176470583
 40
0.7450980392156857
 40
0.7450980392156857
 40
0.7450980392156857
 40
0.7450980392156857
 40
0.7549019607843132
 40
0.7549019607843132
 40
0.7549019607843132
 40
0.7549019607843132
 40
0.7647058823529406
 40
0.7647058823529406
 40
0.7647058823529406
 40
0.7647058823529406
 40
0.774509803921568
 40
0.774509803921568
 40
0.774509803921568
 40
0.774509803921568
 40
0.7843137254901954
 40
0.7843137254901954
 40
0.7843137254901954
 40
0.7843137254901954
 40
0.7941176470588228
 40
0.7941176470588228
 40
0.7941176470588228
 40
0.7941176470588228
 40
0.8039215686274502
 40
0.8039215686274502
 40
0.8039215686274502
 40
0.8039215686274502
 40
0.8137254901960777
 40
0.8137254901960777
 40
0.8137254901960777
 40
0.8137254901960777
 40
0.8235294117647051
 40
0.8235294117647051
 40
0.8235294117647051
 40
0.8235294117647051
 40
0.8333333333333325
 40
0.8333333333333325
 40
0.8333333333333325
 40
0.8333333333333325
 40
0.8431372549019599
 40
0.8431372549019599
 40
0.8431372549019599
 40
0.8431372549019599
 40
0.8529411764705873
 40
0.8529411764705873
 40
0.8529411764705873
 40
0.8529411764705873
 40
0.8627450980392147
 40
0.8627450980392147
 40
0.8627450980392147
 40
0.8627450980392147
 40
0.8725490196078422
 40
0.8725490196078422
 40
0.8725490196078422
 40
0.8725490196078422
 40
0.8823529411764696
 40
0.8823529411764696
 40
0.8823529411764696
 40
0.8823529411764696
 40
0.892156862745097
 40
0.892156862745097
 40
0.892156862745097
 40
0.892156862745097
 40
0.9019607843137244
 40
0.9019607843137244
 40
0.9019607843137244
 40
0.9019607843137244
 40
0.9117647058823518
 40
0.9117647058823518
 40
0.9117647058823518
 40
0.9117647058823518
 40
0.9215686274509792
 40
0.9215686274509792
 40
0.9215686274509792
 40
0.9215686274509792
 40
0.9313725490196066
 40
0.9313725490196066
 40
0.9313725490196066
 40
0.9313725490196066
 40
0.9411764705882341
 40
0.9411764705882341
 40
0.9411764705882341
 40
0.9411764705882341
 40
0.9509803921568615
 40
0.9509803921568615
 40
0.9509803921568615
 40
0.9509803921568615
 40
0.9607843137254889
 40
0.9607843137254889
 40
0.9607843137254889
 40
0.9607843137254889
 40
0.9705882352941163
 40
0.9705882352941163
 40
0.9705882352941163
 40
0.9705882352941163
 40
0.9803921568627437
 40
0.9803921568627437
 40
0.9803921568627437
 40
0.9803921568627437
 40
0.9901960784313711
 40
0.9901960784313711
 40
0.9901960784313711
 40
0.9901960784313711
 40
1.0
 40
1.0
 40
1.0
 40
1.0
 10
0.47766
 20
-2.1900400000000002
 30
0.0
 10
0.4725800000000001
 20
-2.2002000000000002
 30
0.0
 10
0.5614800000000001
 20
-2.2840200000000004
 30
0.0
 10
0.57926
 20
-2.2764000000000002
 30
0.0
 10
0.57926
 20
-2.2764000000000002
 30
0.0
 10
0.6097400000000001
 20
-2.18242
 30
0.0
 10
0.3278
 20
-1.92334
 30
0.0
 10
0.27192
 20
-1.8725400000000001
 30
0.0
 10
0.27192
 20
-1.8725400000000001
 30
0.0
 10
0.00268
 20
-1.79634
 30
0.0
 10
-0.08367
 20
-1.5321800000000001
 30
0.0
 10
-0.22591
 20
-1.3137400000000001
 30
0.0
 10
-0.22591
 20
-1.3137400000000001
 30
0.0
 10
-0.22591
 20
-1.3137400000000001
 30
0.0
 10
-0.14463
 20
-1.3543800000000001
 30
0.0
 10
-0.14463
 20
-1.3543800000000001
 30
0.0
 10
-0.14463
 20
-1.3543800000000001
 30
0.0
 10
-0.01509
 20
-1.4255000000000002
 30
0.0
 10
0.02554
 20
-1.6083800000000001
 30
0.0
 10
0.18302
 20
-1.6617200000000001
 30
0.0
 10
0.18302
 20
-1.6617200000000001
 30
0.0
 10
0.3786000000000001
 20
-1.6541000000000001
 30
0.0
 10
0.0357
 20
-1.5372600000000001
 30
0.0
 10
0.0611
 20
-1.4432800000000001
 30
0.0
 10
0.0611
 20
-1.4432800000000001
 30
0.0
 10
0.50814
 20
-1.4483600000000001
 30
0.0
 10
0.82818
 20
-1.7912600000000001
 30
0.0
 10
1.0339200000000002
 20
-2.1519400000000002
 30
0.0
 10
1.0339200000000002
 20
-2.1519400000000002
 30
0.0
 10
1.10504
 20
-2.1036800000000002
 30
0.0
 10
0.95264
 20
-1.9741400000000002
 30
0.0
 10
0.93486
 20
-1.8903200000000002
 30
0.0
 10
0.93486
 20
-1.8903200000000002
 30
0.0
 10
1.05932
 20
-1.9868400000000002
 30
0.0
 10
1.1761600000000001
 20
-2.1113
 30
0.0
 10
1.27776
 20
-2.2281400000000002
 30
0.0
 10
1.27776
 20
-2.2281400000000002
 30
0.0
 10
1.2650600000000001
 20
-2.2814800000000002
 30
0.0
 10
1.2168000000000001
 20
-2.3297400000000001
 30
0.0
 10
1.2295
 20
-2.39324
 30
0.0
 10
1.2295
 20
-2.39324
 30
0.0
 10
1.1228200000000002
 20
-2.4338800000000003
 30
0.0
 10
1.02376
 20
-2.5050000000000003
 30
0.0
 10
1.0110600000000001
 20
-2.6294600000000004
 30
0.0
 10
1.0110600000000001
 20
-2.6294600000000004
 30
0.0
 10
0.8459600000000001
 20
-2.6167600000000002
 30
0.0
 10
0.6681600000000001
 20
-2.7539200000000004
 30
0.0
 10
0.6503800000000001
 20
-2.9190200000000002
 30
0.0
 10
0.6503800000000001
 20
-2.9190200000000002
 30
0.0
 10
0.4802
 20
-2.8174200000000003
 30
0.0
 10
0.24906
 20
-2.9672800000000001
 30
0.0
 10
0.14238
 20
-3.1374600000000004
 30
0.0
 10
0.14238
 20
-3.1374600000000004
 30
0.0
 10
-0.03033
 20
-3.0028400000000004
 30
0.0
 10
-0.32751
 20
-3.0257000000000001
 30
0.0
 10
-0.4164100000000001
 20
-3.2670000000000003
 30
0.0
 10
-0.4164100000000001
 20
-3.2670000000000003
 30
0.0
 10
-0.55103
 20
-3.1247600000000002
 30
0.0
 10
-0.78217
 20
-3.1425400000000003
 30
0.0
 10
-0.8634500000000001
 20
-3.3152600000000003
 30
0.0
 10
-0.8634500000000001
 20
-3.3152600000000003
 30
0.0
 10
-0.9371100000000001
 20
-3.2492200000000002
 30
0.0
 10
-0.9675900000000001
 20
-3.1196800000000002
 30
0.0
 10
-1.08189
 20
-3.1247600000000002
 30
0.0
 10
-1.08189
 20
-3.1247600000000002
 30
0.0
 10
-1.21397
 20
-3.3863800000000004
 30
0.0
 10
-1.4019300000000001
 20
-3.0968200000000001
 30
0.0
 10
-1.5263900000000001
 20
-3.3152600000000003
 30
0.0
 10
-1.5263900000000001
 20
-3.3152600000000003
 30
0.0
 10
-1.58989
 20
-3.2441400000000002
 30
0.0
 10
-1.6889500000000002
 20
-3.1425400000000003
 30
0.0
 10
-1.7727700000000002
 20
-3.2390600000000003
 30
0.0
 10
-1.7727700000000002
 20
-3.2390600000000003
 30
0.0
 10
-1.8032500000000002
 20
-3.1323800000000004
 30
0.0
 10
-1.7778500000000002
 20
-3.0130000000000003
 30
0.0
 10
-1.7854700000000001
 20
-2.90124
 30
0.0
 10
-1.7854700000000001
 20
-2.90124
 30
0.0
 10
-1.7854700000000001
 20
-2.7894800000000002
 30
0.0
 10
-1.7651500000000002
 20
-2.6650200000000002
 30
0.0
 10
-1.7448300000000001
 20
-2.5583400000000003
 30
0.0
 10
-1.7448300000000001
 20
-2.5583400000000003
 30
0.0
 10
-1.7270500000000002
 20
-2.4516600000000004
 30
0.0
 10
-1.7041900000000001
 20
-2.3449800000000001
 30
0.0
 10
-1.67371
 20
-2.2459200000000004
 30
0.0
 10
-1.67371
 20
-2.2459200000000004
 30
0.0
 10
-1.7067300000000001
 20
-2.52278
 30
0.0
 10
-1.7524500000000001
 20
-2.8428200000000001
 30
0.0
 10
-1.71435
 20
-3.1374600000000004
 30
0.0
 10
-1.71435
 20
-3.1374600000000004
 30
0.0
 10
-1.6787900000000002
 20
-3.1323800000000004
 30
0.0
 10
-1.7092700000000001
 20
-3.0841200000000004
 30
0.0
 10
-1.6914900000000002
 20
-3.0663400000000003
 30
0.0
 10
-1.6914900000000002
 20
-3.0663400000000003
 30
0.0
 10
-1.6838700000000002
 20
-3.0130000000000003
 30
0.0
 10
-1.6508500000000002
 20
-3.1374600000000004
 30
0.0
 10
-1.6102100000000001
 20
-3.1323800000000004
 30
0.0
 10
-1.6102100000000001
 20
-3.1323800000000004
 30
0.0
 10
-1.6000500000000002
 20
-2.7590000000000003
 30
0.0
 10
-1.6051300000000002
 20
-2.3526000000000002
 30
0.0
 10
-1.5619500000000002
 20
-1.9258800000000003
 30
0.0
 10
-1.5619500000000002
 20
-1.9258800000000003
 30
0.0
 10
-1.6356100000000002
 20
-2.0325600000000001
 30
0.0
 10
-1.6483100000000002
 20
-2.1265400000000003
 30
0.0
 10
-1.6965700000000001
 20
-2.19258
 30
0.0
 10
-1.6965700000000001
 20
-2.19258
 30
0.0
 10
-1.8286500000000001
 20
-2.5761200000000004
 30
0.0
 10
-1.8337300000000001
 20
-2.9901400000000002
 30
0.0
 10
-1.8337300000000001
 20
-3.3965400000000003
 30
0.0
 10
-1.8337300000000001
 20
-3.3965400000000003
 30
0.0
 10
-2.22743
 20
-3.2974800000000002
 30
0.0
 10
-1.9226300000000001
 20
-2.64724
 30
0.0
 10
-1.8718300000000001
 20
-2.3348200000000001
 30
0.0
 10
-1.8718300000000001
 20
-2.3348200000000001
 30
0.0
 10
-1.8642100000000001
 20
-2.2586200000000001
 30
0.0
 10
-1.8337300000000001
 20
-2.2764000000000002
 30
0.0
 10
-1.8616700000000002
 20
-2.3399000000000001
 30
0.0
 10
-1.8616700000000002
 20
-2.3399000000000001
 30
0.0
 10
-1.8743700000000001
 20
-2.5304000000000002
 30
0.0
 10
-1.92517
 20
-2.7234400000000001
 30
0.0
 10
-1.8972300000000002
 20
-2.9063200000000005
 30
0.0
 10
-1.8972300000000002
 20
-2.9063200000000005
 30
0.0
 10
-1.7448300000000001
 20
-2.4770600000000003
 30
0.0
 10
-1.75753
 20
-1.9106400000000001
 30
0.0
 10
-1.4857500000000001
 20
-1.54234
 30
0.0
 10
-1.4857500000000001
 20
-1.54234
 30
0.0
 10
-1.4755900000000002
 20
-1.5144000000000002
 30
0.0
 10
-1.5086100000000002
 20
-1.5017
 30
0.0
 10
-1.5213100000000002
 20
-1.4839200000000001
 30
0.0
 10
-1.5213100000000002
 20
-1.4839200000000001
 30
0.0
 10
-1.7956300000000001
 20
-1.5017
 30
0.0
 10
-1.8946900000000002
 20
-1.8979400000000002
 30
0.0
 10
-2.1740900000000001
 20
-1.9614400000000001
 30
0.0
 10
-2.1740900000000001
 20
-1.9614400000000001
 30
0.0
 10
-2.1994900000000004
 20
-1.9970000000000001
 30
0.0
 10
-2.1690100000000001
 20
-2.0325600000000001
 30
0.0
 10
-2.2045700000000004
 20
-2.06304
 30
0.0
 10
-2.2045700000000004
 20
-2.06304
 30
0.0
 10
-2.3366500000000001
 20
-1.8268200000000001
 30
0.0
 10
-2.5906500000000001
 20
-1.7912600000000001
 30
0.0
 10
-2.8903700000000003
 20
-1.83952
 30
0.0
 10
-2.8903700000000003
 20
-1.83952
 30
0.0
 10
-2.5449300000000004
 20
-1.6668000000000001
 30
0.0
 10
-2.2350500000000002
 20
-1.9436600000000002
 30
0.0
 10
-1.9302500000000002
 20
-1.6617200000000001
 30
0.0
 10
-1.9302500000000002
 20
-1.6617200000000001
 30
0.0
 10
-1.9150100000000001
 20
-1.6388600000000002
 30
0.0
 10
-1.9023100000000002
 20
-1.58552
 30
0.0
 10
-1.9327900000000002
 20
-1.5601200000000002
 30
0.0
 10
-1.9327900000000002
 20
-1.5601200000000002
 30
0.0
 10
-2.3264900000000002
 20
-1.6490200000000002
 30
0.0
 10
-2.7913100000000002
 20
-1.67188
 30
0.0
 10
-2.9716500000000003
 20
-1.7201400000000002
 30
0.0
 10
-2.9716500000000003
 20
-1.7201400000000002
 30
0.0
 10
-2.9919700000000002
 20
-1.6896600000000002
 30
0.0
 10
-3.0097500000000004
 20
-1.6388600000000002
 30
0.0
 10
-3.0554700000000001
 20
-1.63124
 30
0.0
 10
-3.0554700000000001
 20
-1.63124
 30
0.0
 10
-3.1265900000000002
 20
-1.6617200000000001
 30
0.0
 10
-3.1977100000000003
 20
-1.7023600000000001
 30
0.0
 10
-3.2789900000000003
 20
-1.7074400000000001
 30
0.0
 10
-3.2789900000000003
 20
-1.7074400000000001
 30
0.0
 10
-3.4542500000000005
 20
-1.6083800000000001
 30
0.0
 10
-3.4923500000000001
 20
-1.37724
 30
0.0
 10
-3.4669500000000002
 20
-1.1994400000000001
 30
0.0
 10
-3.4669500000000002
 20
-1.1994400000000001
 30
0.0
 10
-3.3983700000000003
 20
-1.3493000000000002
 30
0.0
 10
-3.3983700000000003
 20
-1.5906000000000002
 30
0.0
 10
-3.2281900000000001
 20
-1.6668000000000001
 30
0.0
 10
-3.2281900000000001
 20
-1.6668000000000001
 30
0.0
 10
-3.3450300000000004
 20
-1.3416800000000002
 30
0.0
 10
-3.4288500000000002
 20
-0.9632200000000001
 30
0.0
 10
-3.4796500000000004
 20
-0.6050800000000001
 30
0.0
 10
-3.4796500000000004
 20
-0.6050800000000001
 30
0.0
 10
-3.4796500000000004
 20
-0.6050800000000001
 30
0.0
 10
-3.3526500000000001
 20
-0.8768600000000001
 30
0.0
 10
-3.3526500000000001
 20
-0.8768600000000001
 30
0.0
 10
-3.3526500000000001
 20
-0.8768600000000001
 30
0.0
 10
-3.3399500000000004
 20
-0.9302
 30
0.0
 10
-3.2510500000000002
 20
-1.1003800000000001
 30
0.0
 10
-3.2739100000000003
 20
-0.97084
 30
0.0
 10
-3.2739100000000003
 20
-0.97084
 30
0.0
 10
-3.3221700000000003
 20
-0.8768600000000001
 30
0.0
 10
-3.3297900000000005
 20
-0.8286000000000001
 30
0.0
 10
-3.2383500000000001
 20
-0.8590800000000001
 30
0.0
 10
-3.2383500000000001
 20
-0.8590800000000001
 30
0.0
 10
-3.4542500000000005
 20
-0.3739400000000001
 30
0.0
 10
-3.7539700000000003
 20
0.06547
 30
0.0
 10
-4.0054300000000005
 20
0.53283
 30
0.0
 10
-4.0054300000000005
 20
0.53283
 30
0.0
 10
-3.8123900000000002
 20
0.34487
 30
0.0
 10
-3.6091900000000003
 20
0.16199
 30
0.0
 10
-3.3983700000000003
 20
-0.02596
 30
0.0
 10
-3.3983700000000003
 20
-0.02596
 30
0.0
 10
-3.2916900000000004
 20
-0.50348
 30
0.0
 10
-3.1646900000000002
 20
-0.9886200000000001
 30
0.0
 10
-3.0783300000000002
 20
-1.4661400000000002
 30
0.0
 10
-3.0783300000000002
 20
-1.4661400000000002
 30
0.0
 10
-2.9081500000000005
 20
-1.6541000000000001
 30
0.0
 10
-2.6414500000000003
 20
-1.5601200000000002
 30
0.0
 10
-2.4357100000000003
 20
-1.5144000000000002
 30
0.0
 10
-2.4357100000000003
 20
-1.5144000000000002
 30
0.0
 10
-2.31887
 20
-1.46106
 30
0.0
 10
-2.18933
 20
-1.46106
 30
0.0
 10
-2.06995
 20
-1.4255000000000002
 30
0.0
 10
-2.06995
 20
-1.4255000000000002
 30
0.0
 10
-1.9937500000000001
 20
-1.4077200000000001
 30
0.0
 10
-1.9023100000000002
 20
-1.4483600000000001
 30
0.0
 10
-1.8438900000000003
 20
-1.3950200000000001
 30
0.0
 10
-1.8438900000000003
 20
-1.3950200000000001
 30
0.0
 10
-1.7930900000000001
 20
-1.42042
 30
0.0
 10
-1.7524500000000001
 20
-1.4661400000000002
 30
0.0
 10
-1.6864100000000002
 20
-1.4483600000000001
 30
0.0
 10
-1.6864100000000002
 20
-1.4483600000000001
 30
0.0
 10
-1.4044700000000001
 20
-1.1410200000000001
 30
0.0
 10
-1.5162300000000002
 20
-0.39172
 30
0.0
 10
-2.0445500000000001
 20
-0.36886
 30
0.0
 10
-2.0445500000000001
 20
-0.36886
 30
0.0
 10
-2.1258300000000001
 20
-0.29774
 30
0.0
 10
-2.2172700000000001
 20
-0.24948
 30
0.0
 10
-2.3061700000000003
 20
-0.19614
 30
0.0
 10
-2.3061700000000003
 20
-0.19614
 30
0.0
 10
-2.4484100000000004
 20
-0.11486
 30
0.0
 10
-2.5830300000000004
 20
-0.01834
 30
0.0
 10
-2.7430500000000002
 20
0.01975
 30
0.0
 10
-2.7430500000000002
 20
0.01975
 30
0.0
 10
-3.1164300000000003
 20
0.13659
 30
0.0
 10
-3.4339300000000001
 20
0.34487
 30
0.0
 10
-3.6803100000000004
 20
0.6750700000000001
 30
0.0
 10
-3.6803100000000004
 20
0.6750700000000001
 30
0.0
 10
-3.4161500000000005
 20
0.6877700000000001
 30
0.0
 10
-3.1443700000000003
 20
0.51505
 30
0.0
 10
-2.9335500000000003
 20
0.43885
 30
0.0
 10
-2.9335500000000003
 20
0.43885
 30
0.0
 10
-3.0986500000000001
 20
0.55569
 30
0.0
 10
-3.15707
 20
0.62173
 30
0.0
 10
-2.9386300000000003
 20
0.4972700000000001
 30
0.0
 10
-2.9386300000000003
 20
0.4972700000000001
 30
0.0
 10
-2.7201900000000001
 20
0.34995
 30
0.0
 10
-2.4915900000000004
 20
0.23057
 30
0.0
 10
-2.26553
 20
0.10103
 30
0.0
 10
-2.26553
 20
0.10103
 30
0.0
 10
-2.57287
 20
0.20263
 30
0.0
 10
-2.4204700000000003
 20
-0.11486
 30
0.0
 10
-2.2071100000000001
 20
-0.20884
 30
0.0
 10
-2.2071100000000001
 20
-0.20884
 30
0.0
 10
-1.7194300000000002
 20
-0.32568
 30
0.0
 10
-1.6686300000000001
 20
-0.39172
 30
0.0
 10
-1.50099
 20
-0.7397
 30
0.0
 10
-1.50099
 20
-0.7397
 30
0.0
 10
-1.4730500000000002
 20
-0.7955800000000001
 30
0.0
 10
-1.38161
 20
-0.9556000000000001
 30
0.0
 10
-1.3841500000000002
 20
-0.7930400000000001
 30
0.0
 10
-1.3841500000000002
 20
-0.7930400000000001
 30
0.0
 10
-1.6584700000000001
 20
-0.3079
 30
0.0
 10
-1.16571
 20
0.05531
 30
0.0
 10
-0.6500900000000001
 20
0.09595
 30
0.0
 10
-0.6500900000000001
 20
0.09595
 30
0.0
 10
-0.5992900000000001
 20
0.35503
 30
0.0
 10
-0.46213
 20
0.66237
 30
0.0
 10
-0.26909
 20
0.8985900000000001
 30
0.0
 10
-0.26909
 20
0.8985900000000001
 30
0.0
 10
-0.05573
 20
0.8884300000000001
 30
0.0
 10
0.0611
 20
0.8173100000000001
 30
0.0
 10
0.25414
 20
0.7817500000000001
 30
0.0
 10
0.25414
 20
0.7817500000000001
 30
0.0
 10
0.3913
 20
0.23819
 30
0.0
 10
-0.72121
 20
-0.06152
 30
0.0
 10
-0.3325900000000001
 20
-0.61524
 30
0.0
 10
-0.3325900000000001
 20
-0.61524
 30
0.0
 10
-0.02017
 20
-1.0241800000000001
 30
0.0
 10
0.59704
 20
-0.6914400000000001
 30
0.0
 10
1.06948
 20
-0.8286000000000001
 30
0.0
 10
1.06948
 20
-0.8286000000000001
 30
0.0
 10
1.4784200000000001
 20
-0.71684
 30
0.0
 10
2.0448400000000002
 20
-0.26726
 30
0.0
 10
1.9330800000000001
 20
0.19755
 30
0.0
 10
1.9330800000000001
 20
0.19755
 30
0.0
 10
2.1743800000000002
 20
-0.27996
 30
0.0
 10
1.69686
 20
-0.9886200000000001
 30
0.0
 10
1.19394
 20
-0.8692400000000001
 30
0.0
 10
1.19394
 20
-0.8692400000000001
 30
0.0
 10
1.19394
 20
-0.8692400000000001
 30
0.0
 10
1.1406000000000001
 20
-0.9403600000000001
 30
0.0
 10
1.1406000000000001
 20
-0.9403600000000001
 30
0.0
 10
1.1406000000000001
 20
-0.9403600000000001
 30
0.0
 10
0.9043800000000001
 20
-1.0114800000000002
 30
0.0
 10
0.6453000000000001
 20
-0.9352800000000001
 30
0.0
 10
0.41416
 20
-0.9581400000000001
 30
0.0
 10
0.41416
 20
-0.9581400000000001
 30
0.0
 10
0.64022
 20
-1.1943600000000001
 30
0.0
 10
1.1634600000000002
 20
-1.2350000000000001
 30
0.0
 10
1.3412600000000001
 20
-0.9886200000000001
 30
0.0
 10
1.3412600000000001
 20
-0.9886200000000001
 30
0.0
 10
1.4301600000000001
 20
-1.0165600000000001
 30
0.0
 10
1.5495400000000001
 20
-0.97084
 30
0.0
 10
1.6028800000000001
 20
-1.0597400000000001
 30
0.0
 10
1.6028800000000001
 20
-1.0597400000000001
 30
0.0
 10
1.6435200000000001
 20
-1.04196
 30
0.0
 10
1.6181200000000002
 20
-0.97084
 30
0.0
 10
1.6613000000000002
 20
-0.9581400000000001
 30
0.0
 10
1.6613000000000002
 20
-0.9581400000000001
 30
0.0
 10
1.7552800000000002
 20
-1.0114800000000002
 30
0.0
 10
1.7197200000000001
 20
-1.16642
 30
0.0
 10
1.7781400000000001
 20
-1.2350000000000001
 30
0.0
 10
1.7781400000000001
 20
-1.2350000000000001
 30
0.0
 10
1.8365600000000002
 20
-0.9581400000000001
 30
0.0
 10
1.7324200000000001
 20
-0.6762
 30
0.0
 10
1.9864200000000001
 20
-0.47554
 30
0.0
 10
1.9864200000000001
 20
-0.47554
 30
0.0
 10
2.2328000000000001
 20
-0.32568
 30
0.0
 10
1.8137000000000001
 20
-0.6635000000000001
 30
0.0
 10
1.8797400000000002
 20
-0.80574
 30
0.0
 10
1.8797400000000002
 20
-0.80574
 30
0.0
 10
1.8619600000000001
 20
-0.9530600000000001
 30
0.0
 10
1.8899000000000001
 20
-1.1054600000000001
 30
0.0
 10
1.9381600000000001
 20
-1.2477
 30
0.0
 10
1.9381600000000001
 20
-1.2477
 30
0.0
 10
1.9381600000000001
 20
-1.2477
 30
0.0
 10
1.9788000000000001
 20
-1.3416800000000002
 30
0.0
 10
1.9788000000000001
 20
-1.3416800000000002
 30
0.0
 10
1.9788000000000001
 20
-1.3416800000000002
 30
0.0
 10
1.6841600000000001
 20
-1.3061200000000002
 30
0.0
 10
1.1761600000000001
 20
-0.9225800000000001
 30
0.0
 10
1.0466200000000001
 20
-1.3137400000000001
 30
0.0
 10
1.0466200000000001
 20
-1.3137400000000001
 30
0.0
 10
0.93486
 20
-1.21214
 30
0.0
 10
0.7697600000000001
 20
-1.2604000000000002
 30
0.0
 10
0.6326000000000001
 20
-1.2197600000000002
 30
0.0
 10
0.6326000000000001
 20
-1.2197600000000002
 30
0.0
 10
0.41416
 20
-1.1816600000000002
 30
0.0
 10
0.2617600000000001
 20
-0.9175000000000001
 30
0.0
 10
0.05348
 20
-0.88702
 30
0.0
 10
0.05348
 20
-0.88702
 30
0.0
 10
0.1373
 20
-0.9937
 30
0.0
 10
0.37352
 20
-1.07752
 30
0.0
 10
0.38622
 20
-1.16642
 30
0.0
 10
0.38622
 20
-1.16642
 30
0.0
 10
0.19572
 20
-1.1410200000000001
 30
0.0
 10
-0.05573
 20
-1.1130800000000001
 30
0.0
 10
-0.23353
 20
-0.97084
 30
0.0
 10
-0.23353
 20
-0.97084
 30
0.0
 10
-0.44435
 20
-0.6685800000000001
 30
0.0
 10
-0.72121
 20
-0.28504
 30
0.0
 10
-1.1047500000000001
 20
-0.36886
 30
0.0
 10
-1.1047500000000001
 20
-0.36886
 30
0.0
 10
-1.4527300000000001
 20
-0.9810000000000001
 30
0.0
 10
-1.3054100000000002
 20
-1.7379200000000001
 30
0.0
 10
-1.3282700000000001
 20
-2.4288000000000003
 30
0.0
 10
-1.3282700000000001
 20
-2.4288000000000003
 30
0.0
 10
-1.29525
 20
-2.4821400000000002
 30
0.0
 10
-1.2266700000000001
 20
-2.4288000000000003
 30
0.0
 10
-1.2012700000000001
 20
-2.4821400000000002
 30
0.0
 10
-1.2012700000000001
 20
-2.4821400000000002
 30
0.0
 10
-1.11999
 20
-2.4237200000000003
 30
0.0
 10
-1.0945900000000002
 20
-2.2865600000000001
 30
0.0
 10
-1.0183900000000001
 20
-2.2281400000000002
 30
0.0
 10
-1.0183900000000001
 20
-2.2281400000000002
 30
0.0
 10
-0.9853700000000001
 20
-2.1163800000000004
 30
0.0
 10
-0.99299
 20
-1.9919200000000001
 30
0.0
 10
-0.9421900000000001
 20
-1.8903200000000002
 30
0.0
 10
-0.9421900000000001
 20
-1.8903200000000002
 30
0.0
 10
-0.8507500000000001
 20
-1.9512800000000001
 30
0.0
 10
-0.7999500000000001
 20
-2.06304
 30
0.0
 10
-0.72121
 20
-2.1265400000000003
 30
0.0
 10
-0.72121
 20
-2.1265400000000003
 30
0.0
 10
-0.57389
 20
-2.2814800000000002
 30
0.0
 10
-0.31989
 20
-2.2637
 30
0.0
 10
-0.22083
 20
-2.1748000000000003
 30
0.0
 10
-0.22083
 20
-2.1748000000000003
 30
0.0
 10
-0.26909
 20
-2.0274800000000002
 30
0.0
 10
-0.34529
 20
-1.8725400000000001
 30
0.0
 10
-0.43419
 20
-1.7430000000000001
 30
0.0
 10
-0.43419
 20
-1.7430000000000001
 30
0.0
 10
-0.6500900000000001
 20
-1.46106
 30
0.0
 10
-0.82789
 20
-0.8108200000000001
 30
0.0
 10
-1.2825500000000001
 20
-1.0699000000000001
 30
0.0
 10
-1.2825500000000001
 20
-1.0699000000000001
 30
0.0
 10
-1.29779
 20
-0.9302
 30
0.0
 10
-1.24699
 20
-0.7879600000000001
 30
0.0
 10
-1.1911100000000001
 20
-0.6635000000000001
 30
0.0
 10
-1.1911100000000001
 20
-0.6635000000000001
 30
0.0
 10
-1.1555500000000001
 20
-0.4984000000000001
 30
0.0
 10
-1.1047500000000001
 20
-0.4145800000000001
 30
0.0
 10
-0.9472700000000001
 20
-0.4272800000000001
 30
0.0
 10
-0.9472700000000001
 20
-0.4272800000000001
 30
0.0
 10
-1.00569
 20
-0.7701800000000001
 30
0.0
 10
-0.7669300000000001
 20
-1.11816
 30
0.0
 10
-0.56881
 20
-1.4255000000000002
 30
0.0
 10
-0.56881
 20
-1.4255000000000002
 30
0.0
 10
-0.43419
 20
-1.6617200000000001
 30
0.0
 10
-0.5586500000000001
 20
-1.2654800000000002
 30
0.0
 10
-0.61707
 20
-1.1816600000000002
 30
0.0
 10
-0.61707
 20
-1.1816600000000002
 30
0.0
 10
-0.6907300000000001
 20
-1.03434
 30
0.0
 10
-0.7796300000000001
 20
-0.8997200000000001
 30
0.0
 10
-0.8355100000000001
 20
-0.7447800000000001
 30
0.0
 10
-0.8355100000000001
 20
-0.7447800000000001
 30
0.0
 10
-0.93203
 20
-0.6050800000000001
 30
0.0
 10
-0.7288300000000001
 20
-0.6762
 30
0.0
 10
-0.70089
 20
-0.7524000000000001
 30
0.0
 10
-0.70089
 20
-0.7524000000000001
 30
0.0
 10
-0.5637300000000001
 20
-1.1054600000000001
 30
0.0
 10
-0.26909
 20
-1.4255000000000002
 30
0.0
 10
-0.12685
 20
-1.8039600000000002
 30
0.0
 10
-0.12685
 20
-1.8039600000000002
 30
0.0
 10
0.1373
 20
-1.8903200000000002
 30
0.0
 10
0.3252600000000001
 20
-2.0173200000000002
 30
0.0
 10
0.47766
 20
-2.1900400000000002
 30
0.0
  0
SPLINE
  5
43
100
AcDbEntity
  8
Ebene 1
 62
     7
100
AcDbSpline
210
0.0
220
0.0
230
1.0
 70
     1
 71
     3
 72
    20
 73
    16
 74
     0
 42
0.0000000001
 43
0.0000000001
 40
0.0
 40
0.0
 40
0.0
 40
0.0
 40
0.25
 40
0.25
 40
0.25
 40
0.25
 40
0.5
 40
0.5
 40
0.5
 40
0.5
 40
0.75
 40
0.75
 40
0.75
 40
0.75
 40
1.0
 40
1.0
 40
1.0
 40
1.0
 10
3.0354400000000004
 20
0.7995300000000001
 30
0.0
 10
3.1141800000000002
 20
0.8046100000000001
 30
0.0
 10
3.1065600000000004
 20
0.70301
 30
0.0
 10
3.1243400000000001
 20
0.6522100000000001
 30
0.0
 10
3.1243400000000001
 20
0.6522100000000001
 30
0.0
 10
3.0786200000000004
 20
0.68015
 30
0.0
 10
2.9998800000000001
 20
0.6090300000000001
 30
0.0
 10
2.9897200000000002
 20
0.6928500000000001
 30
0.0
 10
2.9897200000000002
 20
0.6928500000000001
 30
0.0
 10
3.0354400000000004
 20
0.66237
 30
0.0
 10
3.0430600000000001
 20
0.7106300000000001
 30
0.0
 10
3.0608400000000002
 20
0.7411100000000001
 30
0.0
 10
3.0608400000000002
 20
0.7411100000000001
 30
0.0
 10
3.0608400000000002
 20
0.7411100000000001
 30
0.0
 10
3.0354400000000004
 20
0.7995300000000001
 30
0.0
 10
3.0354400000000004
 20
0.7995300000000001
 30
0.0
  0
SPLINE
  5
44
100
AcDbEntity
  8
Ebene 1
 62
     7
100
AcDbSpline
210
0.0
220
0.0
230
1.0
 70
     1
 71
     3
 72
    20
 73
    16
 74
     0
 42
0.0000000001
 43
0.0000000001
 40
0.0
 40
0.0
 40
0.0
 40
0.0
 40
0.25
 40
0.25
 40
0.25
 40
0.25
 40
0.5
 40
0.5
 40
0.5
 40
0.5
 40
0.75
 40
0.75
 40
0.75
 40
0.75
 40
1.0
 40
1.0
 40
1.0
 40
1.0
 10
-3.7819100000000003
 20
0.6699900000000001
 30
0.0
 10
-3.7819100000000003
 20
0.6699900000000001
 30
0.0
 10
-3.7412700000000001
 20
0.6699900000000001
 30
0.0
 10
-3.7412700000000001
 20
0.6699900000000001
 30
0.0
 10
-3.7412700000000001
 20
0.6699900000000001
 30
0.0
 10
-3.6422100000000004
 20
0.55061
 30
0.0
 10
-3.5304500000000001
 20
0.43885
 30
0.0
 10
-3.4161500000000005
 20
0.3270900000000001
 30
0.0
 10
-3.4161500000000005
 20
0.3270900000000001
 30
0.0
 10
-3.4136100000000003
 20
0.31439
 30
0.0
 10
-3.4161500000000005
 20
0.30931
 30
0.0
 10
-3.4212300000000004
 20
0.30169
 30
0.0
 10
-3.4212300000000004
 20
0.30169
 30
0.0
 10
-3.5482300000000002
 20
0.41599
 30
0.0
 10
-3.6752300000000004
 20
0.5455300000000001
 30
0.0
 10
-3.7819100000000003
 20
0.6699900000000001
 30
0.0
  0
SPLINE
  5
45
100
AcDbEntity
  8
Ebene 1
 62
     7
100
AcDbSpline
210
0.0
220
0.0
230
1.0
 70
     1
 71
     3
 72
    36
 73
    32
 74
     0
 42
0.0000000001
 43
0.0000000001
 40
0.0
 40
0.0
 40
0.0
 40
0.0
 40
0.125
 40
0.125
 40
0.125
 40
0.125
 40
0.25
 40
0.25
 40
0.25
 40
0.25
 40
0.375
 40
0.375
 40
0.375
 40
0.375
 40
0.5
 40
0.5
 40
0.5
 40
0.5
 40
0.625
 40
0.625
 40
0.625
 40
0.625
 40
0.75
 40
0.75
 40
0.75
 40
0.75
 40
0.875
 40
0.875
 40
0.875
 40
0.875
 40
1.0
 40
1.0
 40
1.0
 40
1.0
 10
2.7941400000000001
 20
0.6522100000000001
 30
0.0
 10
2.8525600000000004
 20
0.5201300000000001
 30
0.0
 10
2.8881200000000002
 20
0.34995
 30
0.0
 10
2.97194
 20
0.22549
 30
0.0
 10
2.97194
 20
0.22549
 30
0.0
 10
3.0176600000000002
 20
0.30169
 30
0.0
 10
2.9236800000000001
 20
0.46933
 30
0.0
 10
2.9948000000000001
 20
0.5201300000000001
 30
0.0
 10
2.9948000000000001
 20
0.5201300000000001
 30
0.0
 10
2.9948000000000001
 20
0.5201300000000001
 30
0.0
 10
3.0252800000000004
 20
0.4845700000000001
 30
0.0
 10
3.0252800000000004
 20
0.4845700000000001
 30
0.0
 10
3.0252800000000004
 20
0.4845700000000001
 30
0.0
 10
2.9465400000000002
 20
0.36265
 30
0.0
 10
3.1370400000000003
 20
0.21279
 30
0.0
 10
3.2259400000000005
 20
0.33217
 30
0.0
 10
3.2259400000000005
 20
0.33217
 30
0.0
 10
3.2259400000000005
 20
0.33217
 30
0.0
 10
3.3326200000000004
 20
-0.01834
 30
0.0
 10
3.3326200000000004
 20
-0.01834
 30
0.0
 10
3.3326200000000004
 20
-0.01834
 30
0.0
 10
3.2437200000000002
 20
-0.01326
 30
0.0
 10
3.1776800000000001
 20
-0.1428
 30
0.0
 10
3.2183200000000003
 20
-0.21392
 30
0.0
 10
3.2183200000000003
 20
-0.21392
 30
0.0
 10
2.9998800000000001
 20
0.01213
 30
0.0
 10
2.9414600000000002
 20
0.33217
 30
0.0
 10
2.7306400000000002
 20
0.5683900000000001
 30
0.0
 10
2.7306400000000002
 20
0.5683900000000001
 30
0.0
 10
2.7306400000000002
 20
0.5683900000000001
 30
0.0
 10
2.7941400000000001
 20
0.6522100000000001
 30
0.0
 10
2.7941400000000001
 20
0.6522100000000001
 30
0.0
  0
SPLINE
  5
46
100
AcDbEntity
  8
Ebene 1
 62
     7
100
AcDbSpline
210
0.0
220
0.0
230
1.0
 70
     1
 71
     3
 72
    24
 73
    20
 74
     0
 42
0.0000000001
 43
0.0000000001
 40
0.0
 40
0.0
 40
0.0
 40
0.0
 40
0.2
 40
0.2
 40
0.2
 40
0.2
 40
0.4
 40
0.4
 40
0.4
 40
0.4
 40
0.6000000000000001
 40
0.6000000000000001
 40
0.6000000000000001
 40
0.6000000000000001
 40
0.8
 40
0.8
 40
0.8
 40
0.8
 40
1.0
 40
1.0
 40
1.0
 40
1.0
 10
-3.8530300000000004
 20
0.63951
 30
0.0
 10
-3.8530300000000004
 20
0.63951
 30
0.0
 10
-3.8250900000000003
 20
0.63951
 30
0.0
 10
-3.8250900000000003
 20
0.63951
 30
0.0
 10
-3.8250900000000003
 20
0.63951
 30
0.0
 10
-3.8250900000000003
 20
0.63951
 30
0.0
 10
-3.4390100000000001
 20
0.25089
 30
0.0
 10
-3.4390100000000001
 20
0.25089
 30
0.0
 10
-3.4390100000000001
 20
0.25089
 30
0.0
 10
-3.4390100000000001
 20
0.25089
 30
0.0
 10
-3.4517100000000003
 20
0.20263
 30
0.0
 10
-3.4517100000000003
 20
0.20263
 30
0.0
 10
-3.4517100000000003
 20
0.20263
 30
0.0
 10
-3.6015700000000002
 20
0.3270900000000001
 30
0.0
 10
-3.7615900000000004
 20
0.4617100000000001
 30
0.0
 10
-3.8885900000000002
 20
0.61665
 30
0.0
 10
-3.8885900000000002
 20
0.61665
 30
0.0
 10
-3.8885900000000002
 20
0.61665
 30
0.0
 10
-3.8530300000000004
 20
0.63951
 30
0.0
 10
-3.8530300000000004
 20
0.63951
 30
0.0
  0
SPLINE
  5
47
100
AcDbEntity
  8
Ebene 1
 62
     7
100
AcDbSpline
210
0.0
220
0.0
230
1.0
 70
     1
 71
     3
 72
    20
 73
    16
 74
     0
 42
0.0000000001
 43
0.0000000001
 40
0.0
 40
0.0
 40
0.0
 40
0.0
 40
0.25
 40
0.25
 40
0.25
 40
0.25
 40
0.5
 40
0.5
 40
0.5
 40
0.5
 40
0.75
 40
0.75
 40
0.75
 40
0.75
 40
1.0
 40
1.0
 40
1.0
 40
1.0
 10
-3.9470100000000001
 20
0.5912500000000001
 30
0.0
 10
-3.7819100000000003
 20
0.43885
 30
0.0
 10
-3.6142700000000003
 20
0.26613
 30
0.0
 10
-3.4339300000000001
 20
0.12643
 30
0.0
 10
-3.4339300000000001
 20
0.12643
 30
0.0
 10
-3.4237700000000002
 20
0.10103
 30
0.0
 10
-3.4161500000000005
 20
0.07817
 30
0.0
 10
-3.4212300000000004
 20
0.05023
 30
0.0
 10
-3.4212300000000004
 20
0.05023
 30
0.0
 10
-3.4212300000000004
 20
0.05023
 30
0.0
 10
-3.9622500000000005
 20
0.55569
 30
0.0
 10
-3.9622500000000005
 20
0.55569
 30
0.0
 10
-3.9622500000000005
 20
0.55569
 30
0.0
 10
-3.9724100000000004
 20
0.57347
 30
0.0
 10
-3.9571700000000005
 20
0.5861700000000001
 30
0.0
 10
-3.9470100000000001
 20
0.5912500000000001
 30
0.0
  0
SPLINE
  5
48
100
AcDbEntity
  8
Ebene 1
 62
     7
100
AcDbSpline
210
0.0
220
0.0
230
1.0
 70
     1
 71
     3
 72
    12
 73
     8
 74
     0
 42
0.0000000001
 43
0.0000000001
 40
0.0
 40
0.0
 40
0.0
 40
0.0
 40
0.5
 40
0.5
 40
0.5
 40
0.5
 40
1.0
 40
1.0
 40
1.0
 40
1.0
 10
3.1141800000000002
 20
0.4845700000000001
 30
0.0
 10
3.1853000000000002
 20
0.4972700000000001
 30
0.0
 10
3.2259400000000005
 20
0.3804300000000001
 30
0.0
 10
3.1421200000000002
 20
0.3677300000000001
 30
0.0
 10
3.1421200000000002
 20
0.3677300000000001
 30
0.0
 10
3.0786200000000004
 20
0.36265
 30
0.0
 10
3.1014800000000005
 20
0.4515500000000001
 30
0.0
 10
3.1141800000000002
 20
0.4845700000000001
 30
0.0
  0
SPLINE
  5
49
100
AcDbEntity
  8
Ebene 1
 62
     7
100
AcDbSpline
210
0.0
220
0.0
230
1.0
 70
     1
 71
     3
 72
    12
 73
     8
 74
     0
 42
0.0000000001
 43
0.0000000001
 40
0.0
 40
0.0
 40
0.0
 40
0.0
 40
0.5
 40
0.5
 40
0.5
 40
0.5
 40
1.0
 40
1.0
 40
1.0
 40
1.0
 10
0.9932800000000001
 20
0.22549
 30
0.0
 10
0.93486
 20
0.30169
 30
0.0
 10
0.8408800000000001
 20
0.34487
 30
0.0
 10
0.7570600000000001
 20
0.37281
 30
0.0
 10
0.7570600000000001
 20
0.37281
 30
0.0
 10
0.8332600000000001
 20
0.49219
 30
0.0
 10
0.9704200000000001
 20
0.31439
 30
0.0
 10
0.9932800000000001
 20
0.22549
 30
0.0
  0
SPLINE
  5
4A
100
AcDbEntity
  8
Ebene 1
100
AcDbSpline
210
0.0
220
0.0
230
1.0
 70
     1
 71
     3
 72
    48
 73
    44
 74
     0
 42
0.0000000001
 43
0.0000000001
 40
0.0
 40
0.0
 40
0.0
 40
0.0
 40
0.0909090909090909
 40
0.0909090909090909
 40
0.0909090909090909
 40
0.0909090909090909
 40
0.1818181818181818
 40
0.1818181818181818
 40
0.1818181818181818
 40
0.1818181818181818
 40
0.2727272727272727
 40
0.2727272727272727
 40
0.2727272727272727
 40
0.2727272727272727
 40
0.3636363636363637
 40
0.3636363636363637
 40
0.3636363636363637
 40
0.3636363636363637
 40
0.4545454545454546
 40
0.4545454545454546
 40
0.4545454545454546
 40
0.4545454545454546
 40
0.5454545454545455
 40
0.5454545454545455
 40
0.5454545454545455
 40
0.5454545454545455
 40
0.6363636363636365
 40
0.6363636363636365
 40
0.6363636363636365
 40
0.6363636363636365
 40
0.7272727272727274
 40
0.7272727272727274
 40
0.7272727272727274
 40
0.7272727272727274
 40
0.8181818181818183
 40
0.8181818181818183
 40
0.8181818181818183
 40
0.8181818181818183
 40
0.9090909090909093
 40
0.9090909090909093
 40
0.9090909090909093
 40
0.9090909090909093
 40
1.0
 40
1.0
 40
1.0
 40
1.0
 10
-0.34529
 20
0.3804300000000001
 30
0.0
 10
-0.27925
 20
0.3804300000000001
 30
0.0
 10
-0.22591
 20
0.34487
 30
0.0
 10
-0.20813
 20
0.27883
 30
0.0
 10
-0.20813
 20
0.27883
 30
0.0
 10
-0.20813
 20
0.27883
 30
0.0
 10
-0.3021100000000001
 20
0.12643
 30
0.0
 10
-0.3021100000000001
 20
0.12643
 30
0.0
 10
-0.3021100000000001
 20
0.12643
 30
0.0
 10
-0.27925
 20
0.09087
 30
0.0
 10
-0.27925
 20
0.05023
 30
0.0
 10
-0.3021100000000001
 20
0.01213
 30
0.0
 10
-0.3021100000000001
 20
0.01213
 30
0.0
 10
-0.31481
 20
0.00705
 30
0.0
 10
-0.3325900000000001
 20
0.00197
 30
0.0
 10
-0.34529
 20
0.00197
 30
0.0
 10
-0.34529
 20
0.00197
 30
0.0
 10
-0.4392700000000001
 20
0.06547
 30
0.0
 10
-0.47483
 20
-0.0666
 30
0.0
 10
-0.47483
 20
-0.15042
 30
0.0
 10
-0.47483
 20
-0.15042
 30
0.0
 10
-0.47483
 20
-0.15042
 30
0.0
 10
-0.49769
 20
-0.17836
 30
0.0
 10
-0.49769
 20
-0.17836
 30
0.0
 10
-0.49769
 20
-0.17836
 30
0.0
 10
-0.61199
 20
-0.1428
 30
0.0
 10
-0.53325
 20
-0.3333
 30
0.0
 10
-0.6221500000000001
 20
-0.35616
 30
0.0
 10
-0.6221500000000001
 20
-0.35616
 30
0.0
 10
-0.68057
 20
-0.35108
 30
0.0
 10
-0.7110500000000001
 20
-0.29774
 30
0.0
 10
-0.76185
 20
-0.27996
 30
0.0
 10
-0.76185
 20
-0.27996
 30
0.0
 10
-0.7059700000000001
 20
-0.20884
 30
0.0
 10
-0.7491500000000001
 20
-0.06152
 30
0.0
 10
-0.6221500000000001
 20
-0.0793
 30
0.0
 10
-0.6221500000000001
 20
-0.0793
 30
0.0
 10
-0.63485
 20
0.10103
 30
0.0
 10
-0.40879
 20
0.14421
 30
0.0
 10
-0.40371
 20
0.31439
 30
0.0
 10
-0.40371
 20
0.31439
 30
0.0
 10
-0.38085
 20
0.33217
 30
0.0
 10
-0.36307
 20
0.35503
 30
0.0
 10
-0.34529
 20
0.3804300000000001
 30
0.0
  0
SPLINE
  5
4B
100
AcDbEntity
  8
Ebene 1
 62
     7
100
AcDbSpline
210
0.0
220
0.0
230
1.0
 70
     1
 71
     3
 72
    24
 73
    20
 74
     0
 42
0.0000000001
 43
0.0000000001
 40
0.0
 40
0.0
 40
0.0
 40
0.0
 40
0.2
 40
0.2
 40
0.2
 40
0.2
 40
0.4
 40
0.4
 40
0.4
 40
0.4
 40
0.6000000000000001
 40
0.6000000000000001
 40
0.6000000000000001
 40
0.6000000000000001
 40
0.8
 40
0.8
 40
0.8
 40
0.8
 40
1.0
 40
1.0
 40
1.0
 40
1.0
 10
0.5437000000000001
 20
0.24327
 30
0.0
 10
0.57926
 20
0.24327
 30
0.0
 10
0.6224400000000001
 20
0.24327
 30
0.0
 10
0.6453000000000001
 20
0.21279
 30
0.0
 10
0.6453000000000001
 20
0.21279
 30
0.0
 10
0.74436
 20
0.23819
 30
0.0
 10
0.8637400000000001
 20
0.15437
 30
0.0
 10
0.912
 20
0.06039
 30
0.0
 10
0.912
 20
0.06039
 30
0.0
 10
0.9399400000000001
 20
-0.11486
 30
0.0
 10
0.82818
 20
-0.32568
 30
0.0
 10
0.64022
 20
-0.36124
 30
0.0
 10
0.64022
 20
-0.36124
 30
0.0
 10
0.5614800000000001
 20
-0.35616
 30
0.0
 10
0.3913
 20
-0.33838
 30
0.0
 10
0.4319400000000001
 20
-0.23678
 30
0.0
 10
0.4319400000000001
 20
-0.23678
 30
0.0
 10
0.2617600000000001
 20
-0.11994
 30
0.0
 10
0.3786000000000001
 20
0.16707
 30
0.0
 10
0.5437000000000001
 20
0.24327
 30
0.0
  0
SPLINE
  5
4C
100
AcDbEntity
  8
Ebene 1
 62
     7
100
AcDbSpline
210
0.0
220
0.0
230
1.0
 70
     1
 71
     3
 72
    16
 73
    12
 74
     0
 42
0.0000000001
 43
0.0000000001
 40
0.0
 40
0.0
 40
0.0
 40
0.0
 40
0.3333333333333333
 40
0.3333333333333333
 40
0.3333333333333333
 40
0.3333333333333333
 40
0.6666666666666666
 40
0.6666666666666666
 40
0.6666666666666666
 40
0.6666666666666666
 40
1.0
 40
1.0
 40
1.0
 40
1.0
 10
2.7890600000000001
 20
0.23819
 30
0.0
 10
2.7890600000000001
 20
0.23819
 30
0.0
 10
2.9592400000000003
 20
-0.02596
 30
0.0
 10
2.9592400000000003
 20
-0.02596
 30
0.0
 10
2.9592400000000003
 20
-0.02596
 30
0.0
 10
2.9592400000000003
 20
-0.02596
 30
0.0
 10
2.9414600000000002
 20
-0.07168
 30
0.0
 10
2.9414600000000002
 20
-0.07168
 30
0.0
 10
2.9414600000000002
 20
-0.07168
 30
0.0
 10
2.8652600000000001
 20
0.01213
 30
0.0
 10
2.8170000000000002
 20
0.13151
 30
0.0
 10
2.7890600000000001
 20
0.23819
 30
0.0
  0
SPLINE
  5
4D
100
AcDbEntity
  8
Ebene 1
 62
     7
100
AcDbSpline
210
0.0
220
0.0
230
1.0
 70
     1
 71
     3
 72
    16
 73
    12
 74
     0
 42
0.0000000001
 43
0.0000000001
 40
0.0
 40
0.0
 40
0.0
 40
0.0
 40
0.3333333333333333
 40
0.3333333333333333
 40
0.3333333333333333
 40
0.3333333333333333
 40
0.6666666666666666
 40
0.6666666666666666
 40
0.6666666666666666
 40
0.6666666666666666
 40
1.0
 40
1.0
 40
1.0
 40
1.0
 10
2.6823800000000002
 20
0.10103
 30
0.0
 10
2.6823800000000002
 20
0.10103
 30
0.0
 10
2.7763600000000004
 20
-0.04882
 30
0.0
 10
2.7763600000000004
 20
-0.04882
 30
0.0
 10
2.7763600000000004
 20
-0.04882
 30
0.0
 10
2.7763600000000004
 20
-0.04882
 30
0.0
 10
2.7408000000000001
 20
-0.03612
 30
0.0
 10
2.7408000000000001
 20
-0.03612
 30
0.0
 10
2.7408000000000001
 20
-0.03612
 30
0.0
 10
2.7306400000000002
 20
0.01213
 30
0.0
 10
2.6468200000000004
 20
0.03753
 30
0.0
 10
2.6823800000000002
 20
0.10103
 30
0.0
  0
SPLINE
  5
4E
100
AcDbEntity
  8
Ebene 1
 62
     7
100
AcDbSpline
210
0.0
220
0.0
230
1.0
 70
     1
 71
     3
 72
    20
 73
    16
 74
     0
 42
0.0000000001
 43
0.0000000001
 40
0.0
 40
0.0
 40
0.0
 40
0.0
 40
0.25
 40
0.25
 40
0.25
 40
0.25
 40
0.5
 40
0.5
 40
0.5
 40
0.5
 40
0.75
 40
0.75
 40
0.75
 40
0.75
 40
1.0
 40
1.0
 40
1.0
 40
1.0
 10
0.95264
 20
0.04261
 30
0.0
 10
0.95264
 20
0.04261
 30
0.0
 10
1.0339200000000002
 20
0.03753
 30
0.0
 10
1.0339200000000002
 20
0.03753
 30
0.0
 10
1.0339200000000002
 20
0.03753
 30
0.0
 10
1.0644
 20
-0.11486
 30
0.0
 10
0.9450200000000001
 20
-0.21392
 30
0.0
 10
0.8815200000000001
 20
-0.33838
 30
0.0
 10
0.8815200000000001
 20
-0.33838
 30
0.0
 10
0.8815200000000001
 20
-0.33838
 30
0.0
 10
0.8154800000000001
 20
-0.33838
 30
0.0
 10
0.8154800000000001
 20
-0.33838
 30
0.0
 10
0.8154800000000001
 20
-0.33838
 30
0.0
 10
0.8993000000000001
 20
-0.23678
 30
0.0
 10
1.0059800000000001
 20
-0.09708
 30
0.0
 10
0.95264
 20
0.04261
 30
0.0
  0
SPLINE
  5
4F
100
AcDbEntity
  8
Ebene 1
 62
     7
100
AcDbSpline
210
0.0
220
0.0
230
1.0
 70
     1
 71
     3
 72
    16
 73
    12
 74
     0
 42
0.0000000001
 43
0.0000000001
 40
0.0
 40
0.0
 40
0.0
 40
0.0
 40
0.3333333333333333
 40
0.3333333333333333
 40
0.3333333333333333
 40
0.3333333333333333
 40
0.6666666666666666
 40
0.6666666666666666
 40
0.6666666666666666
 40
0.6666666666666666
 40
1.0
 40
1.0
 40
1.0
 40
1.0
 10
2.8246200000000004
 20
-0.10724
 30
0.0
 10
2.8246200000000004
 20
-0.10724
 30
0.0
 10
2.8779600000000003
 20
-0.1428
 30
0.0
 10
2.8779600000000003
 20
-0.1428
 30
0.0
 10
2.8779600000000003
 20
-0.1428
 30
0.0
 10
2.8703400000000001
 20
-0.16058
 30
0.0
 10
2.8601800000000002
 20
-0.18598
 30
0.0
 10
2.8424
 20
-0.18598
 30
0.0
 10
2.8424
 20
-0.18598
 30
0.0
 10
2.8347800000000003
 20
-0.16058
 30
0.0
 10
2.8170000000000002
 20
-0.13772
 30
0.0
 10
2.8246200000000004
 20
-0.10724
 30
0.0
  0
SPLINE
  5
50
100
AcDbEntity
  8
Ebene 1
 62
     7
100
AcDbSpline
210
0.0
220
0.0
230
1.0
 70
     1
 71
     3
 72
    32
 73
    28
 74
     0
 42
0.0000000001
 43
0.0000000001
 40
0.0
 40
0.0
 40
0.0
 40
0.0
 40
0.1428571428571429
 40
0.1428571428571429
 40
0.1428571428571429
 40
0.1428571428571429
 40
0.2857142857142857
 40
0.2857142857142857
 40
0.2857142857142857
 40
0.2857142857142857
 40
0.4285714285714286
 40
0.4285714285714286
 40
0.4285714285714286
 40
0.4285714285714286
 40
0.5714285714285714
 40
0.5714285714285714
 40
0.5714285714285714
 40
0.5714285714285714
 40
0.7142857142857142
 40
0.7142857142857142
 40
0.7142857142857142
 40
0.7142857142857142
 40
0.857142857142857
 40
0.857142857142857
 40
0.857142857142857
 40
0.857142857142857
 40
1.0
 40
1.0
 40
1.0
 40
1.0
 10
2.5528400000000002
 20
-0.11994
 30
0.0
 10
2.6519000000000004
 20
-0.11486
 30
0.0
 10
2.6874600000000002
 20
-0.24948
 30
0.0
 10
2.7941400000000001
 20
-0.2444
 30
0.0
 10
2.7941400000000001
 20
-0.2444
 30
0.0
 10
2.7763600000000004
 20
-0.28504
 30
0.0
 10
2.71794
 20
-0.34346
 30
0.0
 10
2.7585800000000003
 20
-0.38664
 30
0.0
 10
2.7585800000000003
 20
-0.38664
 30
0.0
 10
2.8246200000000004
 20
-0.28504
 30
0.0
 10
2.9186000000000001
 20
-0.219
 30
0.0
 10
2.9998800000000001
 20
-0.1428
 30
0.0
 10
2.9998800000000001
 20
-0.1428
 30
0.0
 10
2.9998800000000001
 20
-0.1428
 30
0.0
 10
2.8347800000000003
 20
-0.4806200000000001
 30
0.0
 10
2.8347800000000003
 20
-0.4806200000000001
 30
0.0
 10
2.8347800000000003
 20
-0.4806200000000001
 30
0.0
 10
2.7662000000000004
 20
-0.43236
 30
0.0
 10
2.71794
 20
-0.36124
 30
0.0
 10
2.6773000000000002
 20
-0.29012
 30
0.0
 10
2.6773000000000002
 20
-0.29012
 30
0.0
 10
2.5985600000000004
 20
-0.36124
 30
0.0
 10
2.5045800000000003
 20
-0.219
 30
0.0
 10
2.4055200000000001
 20
-0.2317
 30
0.0
 10
2.4055200000000001
 20
-0.2317
 30
0.0
 10
2.4410800000000004
 20
-0.18598
 30
0.0
 10
2.5045800000000003
 20
-0.15042
 30
0.0
 10
2.5528400000000002
 20
-0.11994
 30
0.0
  0
SPLINE
  5
51
100
AcDbEntity
  8
Ebene 1
 62
     7
100
AcDbSpline
210
0.0
220
0.0
230
1.0
 70
     1
 71
     3
 72
    16
 73
    12
 74
     0
 42
0.0000000001
 43
0.0000000001
 40
0.0
 40
0.0
 40
0.0
 40
0.0
 40
0.3333333333333333
 40
0.3333333333333333
 40
0.3333333333333333
 40
0.3333333333333333
 40
0.6666666666666666
 40
0.6666666666666666
 40
0.6666666666666666
 40
0.6666666666666666
 40
1.0
 40
1.0
 40
1.0
 40
1.0
 10
3.3732600000000001
 20
-0.27996
 30
0.0
 10
3.4672400000000003
 20
-0.32568
 30
0.0
 10
3.4977200000000002
 20
-0.44506
 30
0.0
 10
3.5205800000000003
 20
-0.5441200000000001
 30
0.0
 10
3.5205800000000003
 20
-0.5441200000000001
 30
0.0
 10
3.5205800000000003
 20
-0.5441200000000001
 30
0.0
 10
3.4977200000000002
 20
-0.5441200000000001
 30
0.0
 10
3.4977200000000002
 20
-0.5441200000000001
 30
0.0
 10
3.4977200000000002
 20
-0.5441200000000001
 30
0.0
 10
3.4393000000000002
 20
-0.4679200000000001
 30
0.0
 10
3.3427800000000003
 20
-0.37902
 30
0.0
 10
3.3732600000000001
 20
-0.27996
 30
0.0
  0
SPLINE
  5
52
100
AcDbEntity
  8
Ebene 1
 62
     7
100
AcDbSpline
210
0.0
220
0.0
230
1.0
 70
     1
 71
     3
 72
    40
 73
    36
 74
     0
 42
0.0000000001
 43
0.0000000001
 40
0.0
 40
0.0
 40
0.0
 40
0.0
 40
0.1111111111111111
 40
0.1111111111111111
 40
0.1111111111111111
 40
0.1111111111111111
 40
0.2222222222222222
 40
0.2222222222222222
 40
0.2222222222222222
 40
0.2222222222222222
 40
0.3333333333333333
 40
0.3333333333333333
 40
0.3333333333333333
 40
0.3333333333333333
 40
0.4444444444444444
 40
0.4444444444444444
 40
0.4444444444444444
 40
0.4444444444444444
 40
0.5555555555555556
 40
0.5555555555555556
 40
0.5555555555555556
 40
0.5555555555555556
 40
0.6666666666666667
 40
0.6666666666666667
 40
0.6666666666666667
 40
0.6666666666666667
 40
0.7777777777777779
 40
0.7777777777777779
 40
0.7777777777777779
 40
0.7777777777777779
 40
0.8888888888888891
 40
0.8888888888888891
 40
0.8888888888888891
 40
0.8888888888888891
 40
1.0
 40
1.0
 40
1.0
 40
1.0
 10
3.1319600000000003
 20
-0.31552
 30
0.0
 10
3.1319600000000003
 20
-0.31552
 30
0.0
 10
3.1497400000000004
 20
-0.31552
 30
0.0
 10
3.1497400000000004
 20
-0.31552
 30
0.0
 10
3.1497400000000004
 20
-0.31552
 30
0.0
 10
3.1497400000000004
 20
-0.36886
 30
0.0
 10
3.1903800000000002
 20
-0.44506
 30
0.0
 10
3.1319600000000003
 20
-0.46284
 30
0.0
 10
3.1319600000000003
 20
-0.46284
 30
0.0
 10
3.1370400000000003
 20
-0.4907800000000001
 30
0.0
 10
3.1141800000000002
 20
-0.50856
 30
0.0
 10
3.0964
 20
-0.5212600000000001
 30
0.0
 10
3.0964
 20
-0.5212600000000001
 30
0.0
 10
3.0964
 20
-0.5212600000000001
 30
0.0
 10
3.05322
 20
-0.5212600000000001
 30
0.0
 10
3.05322
 20
-0.5212600000000001
 30
0.0
 10
3.05322
 20
-0.5212600000000001
 30
0.0
 10
3.0125800000000003
 20
-0.44506
 30
0.0
 10
2.9008200000000004
 20
-0.53396
 30
0.0
 10
2.9770200000000004
 20
-0.59238
 30
0.0
 10
2.9770200000000004
 20
-0.59238
 30
0.0
 10
2.9846400000000002
 20
-0.6050800000000001
 30
0.0
 10
2.9668600000000001
 20
-0.6050800000000001
 30
0.0
 10
2.9592400000000003
 20
-0.6050800000000001
 30
0.0
 10
2.9592400000000003
 20
-0.6050800000000001
 30
0.0
 10
2.9363800000000002
 20
-0.5873
 30
0.0
 10
2.9186000000000001
 20
-0.56952
 30
0.0
 10
2.9008200000000004
 20
-0.5441200000000001
 30
0.0
 10
2.9008200000000004
 20
-0.5441200000000001
 30
0.0
 10
2.9236800000000001
 20
-0.4984000000000001
 30
0.0
 10
2.9770200000000004
 20
-0.4806200000000001
 30
0.0
 10
2.9770200000000004
 20
-0.4145800000000001
 30
0.0
 10
2.9770200000000004
 20
-0.4145800000000001
 30
0.0
 10
3.0303600000000004
 20
-0.37902
 30
0.0
 10
3.0786200000000004
 20
-0.33838
 30
0.0
 10
3.1319600000000003
 20
-0.31552
 30
0.0
  0
SPLINE
  5
53
100
AcDbEntity
  8
Ebene 1
 62
     7
100
AcDbSpline
210
0.0
220
0.0
230
1.0
 70
     1
 71
     3
 72
    44
 73
    40
 74
     0
 42
0.0000000001
 43
0.0000000001
 40
0.0
 40
0.0
 40
0.0
 40
0.0
 40
0.1
 40
0.1
 40
0.1
 40
0.1
 40
0.2
 40
0.2
 40
0.2
 40
0.2
 40
0.3
 40
0.3
 40
0.3
 40
0.3
 40
0.4
 40
0.4
 40
0.4
 40
0.4
 40
0.5
 40
0.5
 40
0.5
 40
0.5
 40
0.6
 40
0.6
 40
0.6
 40
0.6
 40
0.7
 40
0.7
 40
0.7
 40
0.7
 40
0.7999999999999999
 40
0.7999999999999999
 40
0.7999999999999999
 40
0.7999999999999999
 40
0.8999999999999999
 40
0.8999999999999999
 40
0.8999999999999999
 40
0.8999999999999999
 40
1.0
 40
1.0
 40
1.0
 40
1.0
 10
-2.4407900000000002
 20
-0.36124
 30
0.0
 10
-2.4128500000000002
 20
-0.3739400000000001
 30
0.0
 10
-2.3747500000000001
 20
-0.37902
 30
0.0
 10
-2.35189
 20
-0.4044200000000001
 30
0.0
 10
-2.35189
 20
-0.4044200000000001
 30
0.0
 10
-2.4204700000000003
 20
-0.5161800000000001
 30
0.0
 10
-2.56779
 20
-0.61016
 30
0.0
 10
-2.5652500000000003
 20
-0.7524000000000001
 30
0.0
 10
-2.5652500000000003
 20
-0.7524000000000001
 30
0.0
 10
-2.6363700000000003
 20
-0.90988
 30
0.0
 10
-2.52461
 20
-1.0648200000000001
 30
0.0
 10
-2.4153900000000004
 20
-1.1765800000000002
 30
0.0
 10
-2.4153900000000004
 20
-1.1765800000000002
 30
0.0
 10
-2.4153900000000004
 20
-1.1765800000000002
 30
0.0
 10
-2.3239500000000004
 20
-1.2197600000000002
 30
0.0
 10
-2.3239500000000004
 20
-1.2197600000000002
 30
0.0
 10
-2.3239500000000004
 20
-1.2197600000000002
 30
0.0
 10
-2.4738100000000003
 20
-1.2832600000000001
 30
0.0
 10
-2.69733
 20
-1.3010400000000002
 30
0.0
 10
-2.7252700000000001
 20
-1.0953000000000002
 30
0.0
 10
-2.7252700000000001
 20
-1.0953000000000002
 30
0.0
 10
-2.8624300000000003
 20
-1.0241800000000001
 30
0.0
 10
-2.9183100000000004
 20
-0.8692400000000001
 30
0.0
 10
-2.9259300000000001
 20
-0.72192
 30
0.0
 10
-2.9259300000000001
 20
-0.72192
 30
0.0
 10
-2.9945100000000004
 20
-0.6279400000000001
 30
0.0
 10
-3.0122900000000001
 20
-0.5212600000000001
 30
0.0
 10
-3.0427700000000004
 20
-0.4095
 30
0.0
 10
-3.0427700000000004
 20
-0.4095
 30
0.0
 10
-2.9005300000000003
 20
-0.46284
 30
0.0
 10
-2.7887700000000004
 20
-0.6279400000000001
 30
0.0
 10
-2.6439900000000001
 20
-0.6508000000000001
 30
0.0
 10
-2.6439900000000001
 20
-0.6508000000000001
 30
0.0
 10
-2.5855700000000001
 20
-0.5873
 30
0.0
 10
-2.6871700000000001
 20
-0.5161800000000001
 30
0.0
 10
-2.7100300000000002
 20
-0.4577600000000001
 30
0.0
 10
-2.7100300000000002
 20
-0.4577600000000001
 30
0.0
 10
-2.6211300000000004
 20
-0.4857
 30
0.0
 10
-2.3976100000000002
 20
-0.5161800000000001
 30
0.0
 10
-2.4407900000000002
 20
-0.36124
 30
0.0
  0
SPLINE
  5
54
100
AcDbEntity
  8
Ebene 1
 62
     7
100
AcDbSpline
210
0.0
220
0.0
230
1.0
 70
     1
 71
     3
 72
    40
 73
    36
 74
     0
 42
0.0000000001
 43
0.0000000001
 40
0.0
 40
0.0
 40
0.0
 40
0.0
 40
0.1111111111111111
 40
0.1111111111111111
 40
0.1111111111111111
 40
0.1111111111111111
 40
0.2222222222222222
 40
0.2222222222222222
 40
0.2222222222222222
 40
0.2222222222222222
 40
0.3333333333333333
 40
0.3333333333333333
 40
0.3333333333333333
 40
0.3333333333333333
 40
0.4444444444444444
 40
0.4444444444444444
 40
0.4444444444444444
 40
0.4444444444444444
 40
0.5555555555555556
 40
0.5555555555555556
 40
0.5555555555555556
 40
0.5555555555555556
 40
0.6666666666666667
 40
0.6666666666666667
 40
0.6666666666666667
 40
0.6666666666666667
 40
0.7777777777777779
 40
0.7777777777777779
 40
0.7777777777777779
 40
0.7777777777777779
 40
0.8888888888888891
 40
0.8888888888888891
 40
0.8888888888888891
 40
0.8888888888888891
 40
1.0
 40
1.0
 40
1.0
 40
1.0
 10
1.4301600000000001
 20
-0.36124
 30
0.0
 10
1.4301600000000001
 20
-0.36124
 30
0.0
 10
1.5368400000000002
 20
-0.36886
 30
0.0
 10
1.5368400000000002
 20
-0.36886
 30
0.0
 10
1.5368400000000002
 20
-0.36886
 30
0.0
 10
1.3361800000000001
 20
-0.5873
 30
0.0
 10
1.02884
 20
-0.7041400000000001
 30
0.0
 10
0.74436
 20
-0.61524
 30
0.0
 10
0.74436
 20
-0.61524
 30
0.0
 10
0.4725800000000001
 20
-0.61016
 30
0.0
 10
0.20842
 20
-0.6228600000000001
 30
0.0
 10
-0.05573
 20
-0.6279400000000001
 30
0.0
 10
-0.05573
 20
-0.6279400000000001
 30
0.0
 10
-0.07859
 20
-0.61524
 30
0.0
 10
-0.07859
 20
-0.59238
 30
0.0
 10
-0.07859
 20
-0.56952
 30
0.0
 10
-0.07859
 20
-0.56952
 30
0.0
 10
-0.03033
 20
-0.59238
 30
0.0
 10
0.01284
 20
-0.52634
 30
0.0
 10
0.0357
 20
-0.4857
 30
0.0
 10
0.0357
 20
-0.4857
 30
0.0
 10
0.08904
 20
-0.50348
 30
0.0
 10
0.11444
 20
-0.5619000000000001
 30
0.0
 10
0.17286
 20
-0.5873
 30
0.0
 10
0.17286
 20
-0.5873
 30
0.0
 10
0.2262
 20
-0.6050800000000001
 30
0.0
 10
0.20842
 20
-0.52634
 30
0.0
 10
0.24906
 20
-0.5212600000000001
 30
0.0
 10
0.24906
 20
-0.5212600000000001
 30
0.0
 10
0.39638
 20
-0.5390400000000001
 30
0.0
 10
0.5208400000000001
 20
-0.50348
 30
0.0
 10
0.6681600000000001
 20
-0.52634
 30
0.0
 10
0.6681600000000001
 20
-0.52634
 30
0.0
 10
0.912
 20
-0.4374400000000001
 30
0.0
 10
1.1812400000000001
 20
-0.4222
 30
0.0
 10
1.4301600000000001
 20
-0.36124
 30
0.0
  0
SPLINE
  5
55
100
AcDbEntity
  8
Ebene 1
 62
     7
100
AcDbSpline
210
0.0
220
0.0
230
1.0
 70
     1
 71
     3
 72
    44
 73
    40
 74
     0
 42
0.0000000001
 43
0.0000000001
 40
0.0
 40
0.0
 40
0.0
 40
0.0
 40
0.1
 40
0.1
 40
0.1
 40
0.1
 40
0.2
 40
0.2
 40
0.2
 40
0.2
 40
0.3
 40
0.3
 40
0.3
 40
0.3
 40
0.4
 40
0.4
 40
0.4
 40
0.4
 40
0.5
 40
0.5
 40
0.5
 40
0.5
 40
0.6
 40
0.6
 40
0.6
 40
0.6
 40
0.7
 40
0.7
 40
0.7
 40
0.7
 40
0.7999999999999999
 40
0.7999999999999999
 40
0.7999999999999999
 40
0.7999999999999999
 40
0.8999999999999999
 40
0.8999999999999999
 40
0.8999999999999999
 40
0.8999999999999999
 40
1.0
 40
1.0
 40
1.0
 40
1.0
 10
3.2132400000000003
 20
-0.4044200000000001
 30
0.0
 10
3.2132400000000003
 20
-0.4044200000000001
 30
0.0
 10
3.5205800000000003
 20
-0.7346200000000001
 30
0.0
 10
3.5205800000000003
 20
-0.7346200000000001
 30
0.0
 10
3.5205800000000003
 20
-0.7346200000000001
 30
0.0
 10
3.4977200000000002
 20
-0.8108200000000001
 30
0.0
 10
3.4215200000000001
 20
-0.8692400000000001
 30
0.0
 10
3.4088200000000004
 20
-0.9530600000000001
 30
0.0
 10
3.4088200000000004
 20
-0.9530600000000001
 30
0.0
 10
3.4139000000000004
 20
-1.0241800000000001
 30
0.0
 10
3.4901000000000004
 20
-1.1054600000000001
 30
0.0
 10
3.5383600000000004
 20
-1.0165600000000001
 30
0.0
 10
3.5383600000000004
 20
-1.0165600000000001
 30
0.0
 10
3.5561400000000001
 20
-1.04196
 30
0.0
 10
3.5612200000000005
 20
-1.0648200000000001
 30
0.0
 10
3.5510600000000001
 20
-1.0953000000000002
 30
0.0
 10
3.5510600000000001
 20
-1.0953000000000002
 30
0.0
 10
3.5510600000000001
 20
-1.0953000000000002
 30
0.0
 10
3.4316800000000001
 20
-1.12324
 30
0.0
 10
3.4316800000000001
 20
-1.12324
 30
0.0
 10
3.4316800000000001
 20
-1.12324
 30
0.0
 10
3.3377000000000003
 20
-0.9530600000000001
 30
0.0
 10
3.1548200000000004
 20
-0.8286000000000001
 30
0.0
 10
3.0430600000000001
 20
-0.6685800000000001
 30
0.0
 10
3.0430600000000001
 20
-0.6685800000000001
 30
0.0
 10
3.1065600000000004
 20
-0.65842
 30
0.0
 10
3.1319600000000003
 20
-0.6863600000000001
 30
0.0
 10
3.1599000000000004
 20
-0.7346200000000001
 30
0.0
 10
3.1599000000000004
 20
-0.7346200000000001
 30
0.0
 10
3.2030800000000004
 20
-0.75748
 30
0.0
 10
3.2615000000000003
 20
-0.7346200000000001
 30
0.0
 10
3.2894400000000004
 20
-0.69906
 30
0.0
 10
3.2894400000000004
 20
-0.69906
 30
0.0
 10
3.2894400000000004
 20
-0.69906
 30
0.0
 10
3.3326200000000004
 20
-0.5568200000000001
 30
0.0
 10
3.3326200000000004
 20
-0.5568200000000001
 30
0.0
 10
3.3326200000000004
 20
-0.5568200000000001
 30
0.0
 10
3.3021400000000001
 20
-0.52634
 30
0.0
 10
3.1675200000000001
 20
-0.4806200000000001
 30
0.0
 10
3.2132400000000003
 20
-0.4044200000000001
 30
0.0
  0
SPLINE
  5
56
100
AcDbEntity
  8
Ebene 1
 62
     7
100
AcDbSpline
210
0.0
220
0.0
230
1.0
 70
     1
 71
     3
 72
    28
 73
    24
 74
     0
 42
0.0000000001
 43
0.0000000001
 40
0.0
 40
0.0
 40
0.0
 40
0.0
 40
0.1666666666666667
 40
0.1666666666666667
 40
0.1666666666666667
 40
0.1666666666666667
 40
0.3333333333333333
 40
0.3333333333333333
 40
0.3333333333333333
 40
0.3333333333333333
 40
0.5
 40
0.5
 40
0.5
 40
0.5
 40
0.6666666666666666
 40
0.6666666666666666
 40
0.6666666666666666
 40
0.6666666666666666
 40
0.8333333333333333
 40
0.8333333333333333
 40
0.8333333333333333
 40
0.8333333333333333
 40
1.0
 40
1.0
 40
1.0
 40
1.0
 10
-2.1867900000000002
 20
-0.50348
 30
0.0
 10
-2.1359900000000001
 20
-0.50856
 30
0.0
 10
-2.0826500000000001
 20
-0.53396
 30
0.0
 10
-2.0851900000000003
 20
-0.59238
 30
0.0
 10
-2.0851900000000003
 20
-0.59238
 30
0.0
 10
-2.0572500000000002
 20
-0.6050800000000001
 30
0.0
 10
-2.0623300000000002
 20
-0.56952
 30
0.0
 10
-2.0445500000000001
 20
-0.56952
 30
0.0
 10
-2.0445500000000001
 20
-0.56952
 30
0.0
 10
-1.8007100000000003
 20
-0.7041400000000001
 30
0.0
 10
-1.9429500000000002
 20
-1.0521200000000002
 30
0.0
 10
-2.2045700000000004
 20
-1.0241800000000001
 30
0.0
 10
-2.2045700000000004
 20
-1.0241800000000001
 30
0.0
 10
-2.4103100000000004
 20
-1.0521200000000002
 30
0.0
 10
-2.4839700000000002
 20
-0.8286000000000001
 30
0.0
 10
-2.43825
 20
-0.6635000000000001
 30
0.0
 10
-2.43825
 20
-0.6635000000000001
 30
0.0
 10
-2.3747500000000001
 20
-0.61016
 30
0.0
 10
-2.3239500000000004
 20
-0.50856
 30
0.0
 10
-2.22743
 20
-0.5390400000000001
 30
0.0
 10
-2.22743
 20
-0.5390400000000001
 30
0.0
 10
-2.22743
 20
-0.5390400000000001
 30
0.0
 10
-2.1867900000000002
 20
-0.50348
 30
0.0
 10
-2.1867900000000002
 20
-0.50348
 30
0.0
  0
SPLINE
  5
57
100
AcDbEntity
  8
Ebene 1
 62
     7
100
AcDbSpline
210
0.0
220
0.0
230
1.0
 70
     1
 71
     3
 72
    28
 73
    24
 74
     0
 42
0.0000000001
 43
0.0000000001
 40
0.0
 40
0.0
 40
0.0
 40
0.0
 40
0.1666666666666667
 40
0.1666666666666667
 40
0.1666666666666667
 40
0.1666666666666667
 40
0.3333333333333333
 40
0.3333333333333333
 40
0.3333333333333333
 40
0.3333333333333333
 40
0.5
 40
0.5
 40
0.5
 40
0.5
 40
0.6666666666666666
 40
0.6666666666666666
 40
0.6666666666666666
 40
0.6666666666666666
 40
0.8333333333333333
 40
0.8333333333333333
 40
0.8333333333333333
 40
0.8333333333333333
 40
1.0
 40
1.0
 40
1.0
 40
1.0
 10
2.1921600000000003
 20
-0.5746
 30
0.0
 10
2.2328000000000001
 20
-0.63302
 30
0.0
 10
2.3090000000000002
 20
-0.63302
 30
0.0
 10
2.3623400000000001
 20
-0.6812800000000001
 30
0.0
 10
2.3623400000000001
 20
-0.6812800000000001
 30
0.0
 10
2.3928200000000004
 20
-0.6812800000000001
 30
0.0
 10
2.4055200000000001
 20
-0.6508000000000001
 30
0.0
 10
2.41568
 20
-0.63302
 30
0.0
 10
2.41568
 20
-0.63302
 30
0.0
 10
2.4512400000000003
 20
-0.6406400000000001
 30
0.0
 10
2.4868000000000001
 20
-0.6635000000000001
 30
0.0
 10
2.5223600000000004
 20
-0.6508000000000001
 30
0.0
 10
2.5223600000000004
 20
-0.6508000000000001
 30
0.0
 10
2.4512400000000003
 20
-0.76256
 30
0.0
 10
2.3928200000000004
 20
-0.8946400000000001
 30
0.0
 10
2.4233000000000002
 20
-1.0292600000000001
 30
0.0
 10
2.4233000000000002
 20
-1.0292600000000001
 30
0.0
 10
2.4233000000000002
 20
-1.0292600000000001
 30
0.0
 10
2.1159600000000003
 20
-0.6279400000000001
 30
0.0
 10
2.1159600000000003
 20
-0.6279400000000001
 30
0.0
 10
2.1159600000000003
 20
-0.6279400000000001
 30
0.0
 10
2.1159600000000003
 20
-0.6279400000000001
 30
0.0
 10
2.1921600000000003
 20
-0.5746
 30
0.0
 10
2.1921600000000003
 20
-0.5746
 30
0.0
  0
SPLINE
  5
58
100
AcDbEntity
  8
Ebene 1
 62
     7
100
AcDbSpline
210
0.0
220
0.0
230
1.0
 70
     1
 71
     3
 72
    12
 73
     8
 74
     0
 42
0.0000000001
 43
0.0000000001
 40
0.0
 40
0.0
 40
0.0
 40
0.0
 40
0.5
 40
0.5
 40
0.5
 40
0.5
 40
1.0
 40
1.0
 40
1.0
 40
1.0
 10
2.8601800000000002
 20
-0.59238
 30
0.0
 10
2.8779600000000003
 20
-0.5873
 30
0.0
 10
2.9008200000000004
 20
-0.6050800000000001
 30
0.0
 10
2.9008200000000004
 20
-0.6228600000000001
 30
0.0
 10
2.9008200000000004
 20
-0.6228600000000001
 30
0.0
 10
2.8779600000000003
 20
-0.6508000000000001
 30
0.0
 10
2.8424
 20
-0.6228600000000001
 30
0.0
 10
2.8601800000000002
 20
-0.59238
 30
0.0
  0
SPLINE
  5
59
100
AcDbEntity
  8
Ebene 1
 62
     7
100
AcDbSpline
210
0.0
220
0.0
230
1.0
 70
     1
 71
     3
 72
    48
 73
    44
 74
     0
 42
0.0000000001
 43
0.0000000001
 40
0.0
 40
0.0
 40
0.0
 40
0.0
 40
0.0909090909090909
 40
0.0909090909090909
 40
0.0909090909090909
 40
0.0909090909090909
 40
0.1818181818181818
 40
0.1818181818181818
 40
0.1818181818181818
 40
0.1818181818181818
 40
0.2727272727272727
 40
0.2727272727272727
 40
0.2727272727272727
 40
0.2727272727272727
 40
0.3636363636363637
 40
0.3636363636363637
 40
0.3636363636363637
 40
0.3636363636363637
 40
0.4545454545454546
 40
0.4545454545454546
 40
0.4545454545454546
 40
0.4545454545454546
 40
0.5454545454545455
 40
0.5454545454545455
 40
0.5454545454545455
 40
0.5454545454545455
 40
0.6363636363636365
 40
0.6363636363636365
 40
0.6363636363636365
 40
0.6363636363636365
 40
0.7272727272727274
 40
0.7272727272727274
 40
0.7272727272727274
 40
0.7272727272727274
 40
0.8181818181818183
 40
0.8181818181818183
 40
0.8181818181818183
 40
0.8181818181818183
 40
0.9090909090909093
 40
0.9090909090909093
 40
0.9090909090909093
 40
0.9090909090909093
 40
1.0
 40
1.0
 40
1.0
 40
1.0
 10
2.6696800000000001
 20
-1.00132
 30
0.0
 10
2.6976200000000001
 20
-0.8362200000000001
 30
0.0
 10
2.7890600000000001
 20
-0.71684
 30
0.0
 10
2.9465400000000002
 20
-0.65842
 30
0.0
 10
2.9465400000000002
 20
-0.65842
 30
0.0
 10
3.1065600000000004
 20
-0.82352
 30
0.0
 10
3.30722
 20
-0.9810000000000001
 30
0.0
 10
3.4215200000000001
 20
-1.1765800000000002
 30
0.0
 10
3.4215200000000001
 20
-1.1765800000000002
 30
0.0
 10
3.3732600000000001
 20
-1.20706
 30
0.0
 10
3.3250000000000002
 20
-1.2477
 30
0.0
 10
3.2970600000000001
 20
-1.29596
 30
0.0
 10
3.2970600000000001
 20
-1.29596
 30
0.0
 10
3.2970600000000001
 20
-1.29596
 30
0.0
 10
3.2030800000000004
 20
-1.4001000000000001
 30
0.0
 10
3.2030800000000004
 20
-1.4001000000000001
 30
0.0
 10
3.2030800000000004
 20
-1.4001000000000001
 30
0.0
 10
3.2132400000000003
 20
-1.37216
 30
0.0
 10
3.2081600000000003
 20
-1.3416800000000002
 30
0.0
 10
3.1853000000000002
 20
-1.3188200000000001
 30
0.0
 10
3.1853000000000002
 20
-1.3188200000000001
 30
0.0
 10
3.2665800000000003
 20
-1.1943600000000001
 30
0.0
 10
3.0430600000000001
 20
-1.1943600000000001
 30
0.0
 10
3.0710000000000002
 20
-1.0826
 30
0.0
 10
3.0710000000000002
 20
-1.0826
 30
0.0
 10
3.0710000000000002
 20
-1.0826
 30
0.0
 10
3.0481400000000001
 20
-1.0597400000000001
 30
0.0
 10
3.0481400000000001
 20
-1.0597400000000001
 30
0.0
 10
3.0481400000000001
 20
-1.0597400000000001
 30
0.0
 10
2.9668600000000001
 20
-1.0064000000000002
 30
0.0
 10
2.8779600000000003
 20
-0.94798
 30
0.0
 10
2.7890600000000001
 20
-0.9048000000000001
 30
0.0
 10
2.7890600000000001
 20
-0.9048000000000001
 30
0.0
 10
2.7890600000000001
 20
-0.9048000000000001
 30
0.0
 10
2.8424
 20
-0.8336800000000001
 30
0.0
 10
2.8424
 20
-0.8336800000000001
 30
0.0
 10
2.8424
 20
-0.8336800000000001
 30
0.0
 10
2.84748
 20
-0.8108200000000001
 30
0.0
 10
2.8424
 20
-0.7879600000000001
 30
0.0
 10
2.8170000000000002
 20
-0.7701800000000001
 30
0.0
 10
2.8170000000000002
 20
-0.7701800000000001
 30
0.0
 10
2.71794
 20
-0.8159000000000001
 30
0.0
 10
2.7408000000000001
 20
-0.97084
 30
0.0
 10
2.6696800000000001
 20
-1.00132
 30
0.0
  0
SPLINE
  5
5A
100
AcDbEntity
  8
Ebene 1
 62
     7
100
AcDbSpline
210
0.0
220
0.0
230
1.0
 70
     1
 71
     3
 72
    20
 73
    16
 74
     0
 42
0.0000000001
 43
0.0000000001
 40
0.0
 40
0.0
 40
0.0
 40
0.0
 40
0.25
 40
0.25
 40
0.25
 40
0.25
 40
0.5
 40
0.5
 40
0.5
 40
0.5
 40
0.75
 40
0.75
 40
0.75
 40
0.75
 40
1.0
 40
1.0
 40
1.0
 40
1.0
 10
2.7001600000000003
 20
-0.6914400000000001
 30
0.0
 10
2.7001600000000003
 20
-0.6914400000000001
 30
0.0
 10
2.7839800000000001
 20
-0.6914400000000001
 30
0.0
 10
2.7839800000000001
 20
-0.6914400000000001
 30
0.0
 10
2.7839800000000001
 20
-0.6914400000000001
 30
0.0
 10
2.6646000000000001
 20
-0.8108200000000001
 30
0.0
 10
2.5706200000000003
 20
-0.94798
 30
0.0
 10
2.5274400000000004
 20
-1.0953000000000002
 30
0.0
 10
2.5274400000000004
 20
-1.0953000000000002
 30
0.0
 10
2.5122
 20
-1.08768
 30
0.0
 10
2.4944200000000003
 20
-1.0699000000000001
 30
0.0
 10
2.4817200000000001
 20
-1.0521200000000002
 30
0.0
 10
2.4817200000000001
 20
-1.0521200000000002
 30
0.0
 10
2.5122
 20
-0.9175000000000001
 30
0.0
 10
2.5655400000000004
 20
-0.76256
 30
0.0
 10
2.7001600000000003
 20
-0.6914400000000001
 30
0.0
  0
SPLINE
  5
5B
100
AcDbEntity
  8
Ebene 1
 62
     7
100
AcDbSpline
210
0.0
220
0.0
230
1.0
 70
     1
 71
     3
 72
    24
 73
    20
 74
     0
 42
0.0000000001
 43
0.0000000001
 40
0.0
 40
0.0
 40
0.0
 40
0.0
 40
0.2
 40
0.2
 40
0.2
 40
0.2
 40
0.4
 40
0.4
 40
0.4
 40
0.4
 40
0.6000000000000001
 40
0.6000000000000001
 40
0.6000000000000001
 40
0.6000000000000001
 40
0.8
 40
0.8
 40
0.8
 40
0.8
 40
1.0
 40
1.0
 40
1.0
 40
1.0
 10
-3.0249900000000003
 20
-0.9759200000000001
 30
0.0
 10
-3.0021300000000002
 20
-1.0521200000000002
 30
0.0
 10
-2.9970500000000002
 20
-1.1588000000000001
 30
0.0
 10
-2.9132300000000004
 20
-1.1994400000000001
 30
0.0
 10
-2.9132300000000004
 20
-1.1994400000000001
 30
0.0
 10
-2.9005300000000003
 20
-1.2477
 30
0.0
 10
-2.8751300000000004
 20
-1.29596
 30
0.0
 10
-2.9081500000000005
 20
-1.3366
 30
0.0
 10
-2.9081500000000005
 20
-1.3366
 30
0.0
 10
-2.8878300000000001
 20
-1.3950200000000001
 30
0.0
 10
-2.8141700000000003
 20
-1.4356600000000002
 30
0.0
 10
-2.77861
 20
-1.4534400000000001
 30
0.0
 10
-2.77861
 20
-1.4534400000000001
 30
0.0
 10
-2.8395700000000001
 20
-1.4483600000000001
 30
0.0
 10
-2.8700500000000004
 20
-1.5017
 30
0.0
 10
-2.9183100000000004
 20
-1.5194800000000002
 30
0.0
 10
-2.9183100000000004
 20
-1.5194800000000002
 30
0.0
 10
-3.0097500000000004
 20
-1.3594600000000001
 30
0.0
 10
-3.0275300000000001
 20
-1.16642
 30
0.0
 10
-3.0249900000000003
 20
-0.9759200000000001
 30
0.0
  0
SPLINE
  5
5C
100
AcDbEntity
  8
Ebene 1
 62
     7
100
AcDbSpline
210
0.0
220
0.0
230
1.0
 70
     1
 71
     3
 72
    28
 73
    24
 74
     0
 42
0.0000000001
 43
0.0000000001
 40
0.0
 40
0.0
 40
0.0
 40
0.0
 40
0.1666666666666667
 40
0.1666666666666667
 40
0.1666666666666667
 40
0.1666666666666667
 40
0.3333333333333333
 40
0.3333333333333333
 40
0.3333333333333333
 40
0.3333333333333333
 40
0.5
 40
0.5
 40
0.5
 40
0.5
 40
0.6666666666666666
 40
0.6666666666666666
 40
0.6666666666666666
 40
0.6666666666666666
 40
0.8333333333333333
 40
0.8333333333333333
 40
0.8333333333333333
 40
0.8333333333333333
 40
1.0
 40
1.0
 40
1.0
 40
1.0
 10
-1.7372100000000001
 20
-0.9886200000000001
 30
0.0
 10
-1.7372100000000001
 20
-0.9886200000000001
 30
0.0
 10
-1.75753
 20
-1.1943600000000001
 30
0.0
 10
-1.75753
 20
-1.1943600000000001
 30
0.0
 10
-1.75753
 20
-1.1943600000000001
 30
0.0
 10
-2.0140700000000002
 20
-1.2781800000000001
 30
0.0
 10
-2.3163300000000002
 20
-1.29596
 30
0.0
 10
-2.5703300000000002
 20
-1.3594600000000001
 30
0.0
 10
-2.5703300000000002
 20
-1.3594600000000001
 30
0.0
 10
-2.5703300000000002
 20
-1.3594600000000001
 30
0.0
 10
-2.5398500000000004
 20
-1.3188200000000001
 30
0.0
 10
-2.5398500000000004
 20
-1.3188200000000001
 30
0.0
 10
-2.5398500000000004
 20
-1.3188200000000001
 30
0.0
 10
-2.3899900000000001
 20
-1.3188200000000001
 30
0.0
 10
-2.2579100000000003
 20
-1.2248400000000002
 30
0.0
 10
-2.1105900000000002
 20
-1.2299200000000001
 30
0.0
 10
-2.1105900000000002
 20
-1.2299200000000001
 30
0.0
 10
-2.0191500000000002
 20
-1.1765800000000002
 30
0.0
 10
-1.9404100000000002
 20
-1.1003800000000001
 30
0.0
 10
-1.8337300000000001
 20
-1.08768
 30
0.0
 10
-1.8337300000000001
 20
-1.08768
 30
0.0
 10
-1.8108700000000002
 20
-1.0470400000000002
 30
0.0
 10
-1.7803900000000001
 20
-1.0064000000000002
 30
0.0
 10
-1.7372100000000001
 20
-0.9886200000000001
 30
0.0
  0
SPLINE
  5
5D
100
AcDbEntity
  8
Ebene 1
 62
     7
100
AcDbSpline
210
0.0
220
0.0
230
1.0
 70
     1
 71
     3
 72
    28
 73
    24
 74
     0
 42
0.0000000001
 43
0.0000000001
 40
0.0
 40
0.0
 40
0.0
 40
0.0
 40
0.1666666666666667
 40
0.1666666666666667
 40
0.1666666666666667
 40
0.1666666666666667
 40
0.3333333333333333
 40
0.3333333333333333
 40
0.3333333333333333
 40
0.3333333333333333
 40
0.5
 40
0.5
 40
0.5
 40
0.5
 40
0.6666666666666666
 40
0.6666666666666666
 40
0.6666666666666666
 40
0.6666666666666666
 40
0.8333333333333333
 40
0.8333333333333333
 40
0.8333333333333333
 40
0.8333333333333333
 40
1.0
 40
1.0
 40
1.0
 40
1.0
 10
2.6239600000000003
 20
-1.04196
 30
0.0
 10
2.6112600000000001
 20
-1.20706
 30
0.0
 10
2.84748
 20
-1.1816600000000002
 30
0.0
 10
2.8525600000000004
 20
-1.33152
 30
0.0
 10
2.8525600000000004
 20
-1.33152
 30
0.0
 10
2.8779600000000003
 20
-1.3543800000000001
 30
0.0
 10
2.9059000000000004
 20
-1.37724
 30
0.0
 10
2.9186000000000001
 20
-1.4077200000000001
 30
0.0
 10
2.9186000000000001
 20
-1.4077200000000001
 30
0.0
 10
2.9414600000000002
 20
-1.4001000000000001
 30
0.0
 10
2.9465400000000002
 20
-1.4255000000000002
 30
0.0
 10
2.9668600000000001
 20
-1.4305800000000002
 30
0.0
 10
2.9668600000000001
 20
-1.4305800000000002
 30
0.0
 10
3.0964
 20
-1.3823200000000002
 30
0.0
 10
3.1370400000000003
 20
-1.5677400000000001
 30
0.0
 10
3.0430600000000001
 20
-1.6388600000000002
 30
0.0
 10
3.0430600000000001
 20
-1.6388600000000002
 30
0.0
 10
2.8779600000000003
 20
-1.4966200000000001
 30
0.0
 10
2.7357200000000002
 20
-1.3188200000000001
 30
0.0
 10
2.6061800000000002
 20
-1.1537200000000001
 30
0.0
 10
2.6061800000000002
 20
-1.1537200000000001
 30
0.0
 10
2.6061800000000002
 20
-1.1537200000000001
 30
0.0
 10
2.6239600000000003
 20
-1.04196
 30
0.0
 10
2.6239600000000003
 20
-1.04196
 30
0.0
  0
SPLINE
  5
5E
100
AcDbEntity
  8
Ebene 1
 62
     7
100
AcDbSpline
210
0.0
220
0.0
230
1.0
 70
     1
 71
     3
 72
    48
 73
    44
 74
     0
 42
0.0000000001
 43
0.0000000001
 40
0.0
 40
0.0
 40
0.0
 40
0.0
 40
0.0909090909090909
 40
0.0909090909090909
 40
0.0909090909090909
 40
0.0909090909090909
 40
0.1818181818181818
 40
0.1818181818181818
 40
0.1818181818181818
 40
0.1818181818181818
 40
0.2727272727272727
 40
0.2727272727272727
 40
0.2727272727272727
 40
0.2727272727272727
 40
0.3636363636363637
 40
0.3636363636363637
 40
0.3636363636363637
 40
0.3636363636363637
 40
0.4545454545454546
 40
0.4545454545454546
 40
0.4545454545454546
 40
0.4545454545454546
 40
0.5454545454545455
 40
0.5454545454545455
 40
0.5454545454545455
 40
0.5454545454545455
 40
0.6363636363636365
 40
0.6363636363636365
 40
0.6363636363636365
 40
0.6363636363636365
 40
0.7272727272727274
 40
0.7272727272727274
 40
0.7272727272727274
 40
0.7272727272727274
 40
0.8181818181818183
 40
0.8181818181818183
 40
0.8181818181818183
 40
0.8181818181818183
 40
0.9090909090909093
 40
0.9090909090909093
 40
0.9090909090909093
 40
0.9090909090909093
 40
1.0
 40
1.0
 40
1.0
 40
1.0
 10
-1.1834900000000002
 20
-1.0521200000000002
 30
0.0
 10
-1.1606300000000001
 20
-1.0521200000000002
 30
0.0
 10
-1.1377700000000002
 20
-1.0521200000000002
 30
0.0
 10
-1.1174500000000001
 20
-1.0648200000000001
 30
0.0
 10
-1.1174500000000001
 20
-1.0648200000000001
 30
0.0
 10
-0.8812300000000001
 20
-1.0114800000000002
 30
0.0
 10
-0.7567700000000001
 20
-1.2832600000000001
 30
0.0
 10
-0.6678700000000001
 20
-1.46106
 30
0.0
 10
-0.6678700000000001
 20
-1.46106
 30
0.0
 10
-0.61199
 20
-1.5550400000000002
 30
0.0
 10
-0.5637300000000001
 20
-1.6490200000000002
 30
0.0
 10
-0.4926100000000001
 20
-1.7328400000000002
 30
0.0
 10
-0.4926100000000001
 20
-1.7328400000000002
 30
0.0
 10
-0.45197
 20
-1.8039600000000002
 30
0.0
 10
-0.39101
 20
-1.8725400000000001
 30
0.0
 10
-0.36815
 20
-1.9563600000000001
 30
0.0
 10
-0.36815
 20
-1.9563600000000001
 30
0.0
 10
-0.6424700000000001
 20
-1.7252200000000002
 30
0.0
 10
-0.6729500000000001
 20
-1.33152
 30
0.0
 10
-0.9650500000000001
 20
-1.1003800000000001
 30
0.0
 10
-0.9650500000000001
 20
-1.1003800000000001
 30
0.0
 10
-1.00315
 20
-1.0927600000000002
 30
0.0
 10
-1.04633
 20
-1.0953000000000002
 30
0.0
 10
-1.0945900000000002
 20
-1.1003800000000001
 30
0.0
 10
-1.0945900000000002
 20
-1.1003800000000001
 30
0.0
 10
-1.1326900000000002
 20
-1.1029200000000001
 30
0.0
 10
-1.1530100000000001
 20
-1.1029200000000001
 30
0.0
 10
-1.1834900000000002
 20
-1.1054600000000001
 30
0.0
 10
-1.1834900000000002
 20
-1.1054600000000001
 30
0.0
 10
-1.1834900000000002
 20
-1.1054600000000001
 30
0.0
 10
-1.24699
 20
-1.2604000000000002
 30
0.0
 10
-1.24699
 20
-1.2604000000000002
 30
0.0
 10
-1.24699
 20
-1.2604000000000002
 30
0.0
 10
-1.24699
 20
-1.2604000000000002
 30
0.0
 10
-1.2292100000000001
 20
-1.3543800000000001
 30
0.0
 10
-1.2292100000000001
 20
-1.3543800000000001
 30
0.0
 10
-1.2292100000000001
 20
-1.3543800000000001
 30
0.0
 10
-1.2292100000000001
 20
-1.3543800000000001
 30
0.0
 10
-1.2876300000000001
 20
-1.3137400000000001
 30
0.0
 10
-1.2876300000000001
 20
-1.3137400000000001
 30
0.0
 10
-1.2876300000000001
 20
-1.3137400000000001
 30
0.0
 10
-1.2800100000000001
 20
-1.2197600000000002
 30
0.0
 10
-1.2825500000000001
 20
-1.0953000000000002
 30
0.0
 10
-1.1834900000000002
 20
-1.0521200000000002
 30
0.0
  0
SPLINE
  5
5F
100
AcDbEntity
  8
Ebene 1
 62
     7
100
AcDbSpline
210
0.0
220
0.0
230
1.0
 70
     1
 71
     3
 72
    24
 73
    20
 74
     0
 42
0.0000000001
 43
0.0000000001
 40
0.0
 40
0.0
 40
0.0
 40
0.0
 40
0.2
 40
0.2
 40
0.2
 40
0.2
 40
0.4
 40
0.4
 40
0.4
 40
0.4
 40
0.6000000000000001
 40
0.6000000000000001
 40
0.6000000000000001
 40
0.6000000000000001
 40
0.8
 40
0.8
 40
0.8
 40
0.8
 40
1.0
 40
1.0
 40
1.0
 40
1.0
 10
2.5350600000000001
 20
-1.2477
 30
0.0
 10
2.59348
 20
-1.3010400000000002
 30
0.0
 10
2.6468200000000004
 20
-1.37216
 30
0.0
 10
2.6950800000000004
 20
-1.4356600000000002
 30
0.0
 10
2.6950800000000004
 20
-1.4356600000000002
 30
0.0
 10
2.7052400000000003
 20
-1.4966200000000001
 30
0.0
 10
2.6595200000000001
 20
-1.5372600000000001
 30
0.0
 10
2.6163400000000001
 20
-1.5728200000000001
 30
0.0
 10
2.6163400000000001
 20
-1.5728200000000001
 30
0.0
 10
2.5274400000000004
 20
-1.5550400000000002
 30
0.0
 10
2.5172800000000004
 20
-1.46106
 30
0.0
 10
2.46394
 20
-1.4077200000000001
 30
0.0
 10
2.46394
 20
-1.4077200000000001
 30
0.0
 10
2.4817200000000001
 20
-1.3670800000000001
 30
0.0
 10
2.5045800000000003
 20
-1.33152
 30
0.0
 10
2.5401400000000001
 20
-1.29596
 30
0.0
 10
2.5401400000000001
 20
-1.29596
 30
0.0
 10
2.5401400000000001
 20
-1.29596
 30
0.0
 10
2.5350600000000001
 20
-1.2477
 30
0.0
 10
2.5350600000000001
 20
-1.2477
 30
0.0
  0
SPLINE
  5
60
100
AcDbEntity
  8
Ebene 1
100
AcDbSpline
210
0.0
220
0.0
230
1.0
 70
     1
 71
     3
 72
    24
 73
    20
 74
     0
 42
0.0000000001
 43
0.0000000001
 40
0.0
 40
0.0
 40
0.0
 40
0.0
 40
0.2
 40
0.2
 40
0.2
 40
0.2
 40
0.4
 40
0.4
 40
0.4
 40
0.4
 40
0.6000000000000001
 40
0.6000000000000001
 40
0.6000000000000001
 40
0.6000000000000001
 40
0.8
 40
0.8
 40
0.8
 40
0.8
 40
1.0
 40
1.0
 40
1.0
 40
1.0
 10
0.33796
 20
-1.63124
 30
0.0
 10
0.33796
 20
-1.63124
 30
0.0
 10
0.3786000000000001
 20
-1.6490200000000002
 30
0.0
 10
0.3786000000000001
 20
-1.6490200000000002
 30
0.0
 10
0.3786000000000001
 20
-1.6490200000000002
 30
0.0
 10
0.4319400000000001
 20
-1.7328400000000002
 30
0.0
 10
0.55132
 20
-1.7023600000000001
 30
0.0
 10
0.6046600000000001
 20
-1.7734800000000002
 30
0.0
 10
0.6046600000000001
 20
-1.7734800000000002
 30
0.0
 10
0.6046600000000001
 20
-1.7861800000000001
 30
0.0
 10
0.59196
 20
-1.7861800000000001
 30
0.0
 10
0.57926
 20
-1.7861800000000001
 30
0.0
 10
0.57926
 20
-1.7861800000000001
 30
0.0
 10
0.49036
 20
-1.7506200000000001
 30
0.0
 10
0.3786000000000001
 20
-1.7506200000000001
 30
0.0
 10
0.3252600000000001
 20
-1.6490200000000002
 30
0.0
 10
0.3252600000000001
 20
-1.6490200000000002
 30
0.0
 10
0.3252600000000001
 20
-1.6490200000000002
 30
0.0
 10
0.33796
 20
-1.63124
 30
0.0
 10
0.33796
 20
-1.63124
 30
0.0
  0
SPLINE
  5
61
100
AcDbEntity
  8
Ebene 1
 62
     7
100
AcDbSpline
210
0.0
220
0.0
230
1.0
 70
     1
 71
     3
 72
   228
 73
   224
 74
     0
 42
0.0000000001
 43
0.0000000001
 40
0.0
 40
0.0
 40
0.0
 40
0.0
 40
0.0178571428571429
 40
0.0178571428571429
 40
0.0178571428571429
 40
0.0178571428571429
 40
0.0357142857142857
 40
0.0357142857142857
 40
0.0357142857142857
 40
0.0357142857142857
 40
0.0535714285714286
 40
0.0535714285714286
 40
0.0535714285714286
 40
0.0535714285714286
 40
0.0714285714285714
 40
0.0714285714285714
 40
0.0714285714285714
 40
0.0714285714285714
 40
0.0892857142857143
 40
0.0892857142857143
 40
0.0892857142857143
 40
0.0892857142857143
 40
0.1071428571428571
 40
0.1071428571428571
 40
0.1071428571428571
 40
0.1071428571428571
 40
0.125
 40
0.125
 40
0.125
 40
0.125
 40
0.1428571428571428
 40
0.1428571428571428
 40
0.1428571428571428
 40
0.1428571428571428
 40
0.1607142857142857
 40
0.1607142857142857
 40
0.1607142857142857
 40
0.1607142857142857
 40
0.1785714285714285
 40
0.1785714285714285
 40
0.1785714285714285
 40
0.1785714285714285
 40
0.1964285714285714
 40
0.1964285714285714
 40
0.1964285714285714
 40
0.1964285714285714
 40
0.2142857142857142
 40
0.2142857142857142
 40
0.2142857142857142
 40
0.2142857142857142
 40
0.2321428571428571
 40
0.2321428571428571
 40
0.2321428571428571
 40
0.2321428571428571
 40
0.2499999999999999
 40
0.2499999999999999
 40
0.2499999999999999
 40
0.2499999999999999
 40
0.2678571428571428
 40
0.2678571428571428
 40
0.2678571428571428
 40
0.2678571428571428
 40
0.2857142857142856
 40
0.2857142857142856
 40
0.2857142857142856
 40
0.2857142857142856
 40
0.3035714285714285
 40
0.3035714285714285
 40
0.3035714285714285
 40
0.3035714285714285
 40
0.3214285714285713
 40
0.3214285714285713
 40
0.3214285714285713
 40
0.3214285714285713
 40
0.3392857142857142
 40
0.3392857142857142
 40
0.3392857142857142
 40
0.3392857142857142
 40
0.357142857142857
 40
0.357142857142857
 40
0.357142857142857
 40
0.357142857142857
 40
0.3749999999999999
 40
0.3749999999999999
 40
0.3749999999999999
 40
0.3749999999999999
 40
0.3928571428571427
 40
0.3928571428571427
 40
0.3928571428571427
 40
0.3928571428571427
 40
0.4107142857142856
 40
0.4107142857142856
 40
0.4107142857142856
 40
0.4107142857142856
 40
0.4285714285714284
 40
0.4285714285714284
 40
0.4285714285714284
 40
0.4285714285714284
 40
0.4464285714285713
 40
0.4464285714285713
 40
0.4464285714285713
 40
0.4464285714285713
 40
0.4642857142857141
 40
0.4642857142857141
 40
0.4642857142857141
 40
0.4642857142857141
 40
0.482142857142857
 40
0.482142857142857
 40
0.482142857142857
 40
0.482142857142857
 40
0.4999999999999998
 40
0.4999999999999998
 40
0.4999999999999998
 40
0.4999999999999998
 40
0.5178571428571427
 40
0.5178571428571427
 40
0.5178571428571427
 40
0.5178571428571427
 40
0.5357142857142856
 40
0.5357142857142856
 40
0.5357142857142856
 40
0.5357142857142856
 40
0.5535714285714285
 40
0.5535714285714285
 40
0.5535714285714285
 40
0.5535714285714285
 40
0.5714285714285714
 40
0.5714285714285714
 40
0.5714285714285714
 40
0.5714285714285714
 40
0.5892857142857143
 40
0.5892857142857143
 40
0.5892857142857143
 40
0.5892857142857143
 40
0.6071428571428572
 40
0.6071428571428572
 40
0.6071428571428572
 40
0.6071428571428572
 40
0.6250000000000001
 40
0.6250000000000001
 40
0.6250000000000001
 40
0.6250000000000001
 40
0.642857142857143
 40
0.642857142857143
 40
0.642857142857143
 40
0.642857142857143
 40
0.6607142857142859
 40
0.6607142857142859
 40
0.6607142857142859
 40
0.6607142857142859
 40
0.6785714285714288
 40
0.6785714285714288
 40
0.6785714285714288
 40
0.6785714285714288
 40
0.6964285714285717
 40
0.6964285714285717
 40
0.6964285714285717
 40
0.6964285714285717
 40
0.7142857142857146
 40
0.7142857142857146
 40
0.7142857142857146
 40
0.7142857142857146
 40
0.7321428571428575
 40
0.7321428571428575
 40
0.7321428571428575
 40
0.7321428571428575
 40
0.7500000000000004
 40
0.7500000000000004
 40
0.7500000000000004
 40
0.7500000000000004
 40
0.7678571428571434
 40
0.7678571428571434
 40
0.7678571428571434
 40
0.7678571428571434
 40
0.7857142857142863
 40
0.7857142857142863
 40
0.7857142857142863
 40
0.7857142857142863
 40
0.8035714285714292
 40
0.8035714285714292
 40
0.8035714285714292
 40
0.8035714285714292
 40
0.8214285714285721
 40
0.8214285714285721
 40
0.8214285714285721
 40
0.8214285714285721
 40
0.839285714285715
 40
0.839285714285715
 40
0.839285714285715
 40
0.839285714285715
 40
0.8571428571428579
 40
0.8571428571428579
 40
0.8571428571428579
 40
0.8571428571428579
 40
0.8750000000000008
 40
0.8750000000000008
 40
0.8750000000000008
 40
0.8750000000000008
 40
0.8928571428571437
 40
0.8928571428571437
 40
0.8928571428571437
 40
0.8928571428571437
 40
0.9107142857142866
 40
0.9107142857142866
 40
0.9107142857142866
 40
0.9107142857142866
 40
0.9285714285714295
 40
0.9285714285714295
 40
0.9285714285714295
 40
0.9285714285714295
 40
0.9464285714285724
 40
0.9464285714285724
 40
0.9464285714285724
 40
0.9464285714285724
 40
0.9642857142857153
 40
0.9642857142857153
 40
0.9642857142857153
 40
0.9642857142857153
 40
0.9821428571428582
 40
0.9821428571428582
 40
0.9821428571428582
 40
0.9821428571428582
 40
1.0
 40
1.0
 40
1.0
 40
1.0
 10
2.4512400000000003
 20
-1.7023600000000001
 30
0.0
 10
2.46394
 20
-2.1697200000000003
 30
0.0
 10
2.7535000000000003
 20
-2.5888200000000001
 30
0.0
 10
2.79922
 20
-3.0485600000000002
 30
0.0
 10
2.79922
 20
-3.0485600000000002
 30
0.0
 10
2.4385400000000002
 20
-3.8054800000000002
 30
0.0
 10
1.9889600000000001
 20
-4.0721800000000004
 30
0.0
 10
1.4174600000000002
 20
-4.6716200000000008
 30
0.0
 10
1.4174600000000002
 20
-4.6716200000000008
 30
0.0
 10
1.3742800000000002
 20
-4.7173400000000001
 30
0.0
 10
1.2549000000000001
 20
-4.8468800000000005
 30
0.0
 10
1.2828400000000002
 20
-4.7605200000000005
 30
0.0
 10
1.2828400000000002
 20
-4.7605200000000005
 30
0.0
 10
1.44286
 20
-4.5192200000000007
 30
0.0
 10
1.61304
 20
-4.2830000000000004
 30
0.0
 10
1.7832200000000002
 20
-4.0518600000000005
 30
0.0
 10
1.7832200000000002
 20
-4.0518600000000005
 30
0.0
 10
1.6486000000000001
 20
-4.0772600000000008
 30
0.0
 10
1.3641200000000002
 20
-4.5776400000000006
 30
0.0
 10
1.2828400000000002
 20
-4.5903400000000003
 30
0.0
 10
1.2828400000000002
 20
-4.5903400000000003
 30
0.0
 10
1.14568
 20
-4.6894
 30
0.0
 10
1.05932
 20
-4.8976800000000003
 30
0.0
 10
0.95264
 20
-5.0450000000000008
 30
0.0
 10
0.95264
 20
-5.0450000000000008
 30
0.0
 10
0.95264
 20
-5.0450000000000008
 30
0.0
 10
0.68086
 20
-5.4818800000000003
 30
0.0
 10
0.68086
 20
-5.4818800000000003
 30
0.0
 10
0.68086
 20
-5.4818800000000003
 30
0.0
 10
0.6275200000000001
 20
-5.4412400000000005
 30
0.0
 10
0.64022
 20
-5.3523400000000008
 30
0.0
 10
0.6224400000000001
 20
-5.2812200000000002
 30
0.0
 10
0.6224400000000001
 20
-5.2812200000000002
 30
0.0
 10
0.658
 20
-5.2761400000000007
 30
0.0
 10
0.6910200000000001
 20
-5.2583600000000006
 30
0.0
 10
0.7164200000000001
 20
-5.2278800000000007
 30
0.0
 10
0.7164200000000001
 20
-5.2278800000000007
 30
0.0
 10
0.8408800000000001
 20
-4.6792400000000001
 30
0.0
 10
1.4657200000000001
 20
-4.3185600000000006
 30
0.0
 10
1.7832200000000002
 20
-3.8283400000000003
 30
0.0
 10
1.7832200000000002
 20
-3.8283400000000003
 30
0.0
 10
1.65368
 20
-3.8867600000000002
 30
0.0
 10
1.5368400000000002
 20
-4.0289999999999999
 30
0.0
 10
1.4174600000000002
 20
-4.1229800000000001
 30
0.0
 10
1.4174600000000002
 20
-4.1229800000000001
 30
0.0
 10
1.2828400000000002
 20
-4.22966
 30
0.0
 10
1.1634600000000002
 20
-4.3414200000000003
 30
0.0
 10
1.0466200000000001
 20
-4.4658800000000003
 30
0.0
 10
1.0466200000000001
 20
-4.4658800000000003
 30
0.0
 10
0.86882
 20
-4.6614600000000008
 30
0.0
 10
0.6326000000000001
 20
-4.7910000000000004
 30
0.0
 10
0.4548
 20
-4.9789600000000007
 30
0.0
 10
0.4548
 20
-4.9789600000000007
 30
0.0
 10
0.25414
 20
-4.8443400000000008
 30
0.0
 10
-0.27417
 20
-4.8494200000000003
 30
0.0
 10
0.16016
 20
-5.0450000000000008
 30
0.0
 10
0.16016
 20
-5.0450000000000008
 30
0.0
 10
0.32018
 20
-5.2863000000000007
 30
0.0
 10
0.34304
 20
-5.4818800000000003
 30
0.0
 10
0.5259200000000001
 20
-5.6596800000000007
 30
0.0
 10
0.5259200000000001
 20
-5.6596800000000007
 30
0.0
 10
0.0611
 20
-5.7765200000000005
 30
0.0
 10
-0.49769
 20
-5.6825400000000004
 30
0.0
 10
-0.92949
 20
-5.9543200000000001
 30
0.0
 10
-0.92949
 20
-5.9543200000000001
 30
0.0
 10
-0.92949
 20
-5.9543200000000001
 30
0.0
 10
-1.1174500000000001
 20
-5.9365400000000008
 30
0.0
 10
-1.1174500000000001
 20
-5.9365400000000008
 30
0.0
 10
-1.1174500000000001
 20
-5.9365400000000008
 30
0.0
 10
-1.20635
 20
-5.8654200000000003
 30
0.0
 10
-1.2444500000000001
 20
-5.7485800000000005
 30
0.0
 10
-1.3003300000000002
 20
-5.6520600000000005
 30
0.0
 10
-1.3003300000000002
 20
-5.6520600000000005
 30
0.0
 10
-1.4984500000000001
 20
-5.3117000000000001
 30
0.0
 10
-1.2393700000000001
 20
-5.5174400000000006
 30
0.0
 10
-1.1174500000000001
 20
-5.7130200000000002
 30
0.0
 10
-1.1174500000000001
 20
-5.7130200000000002
 30
0.0
 10
-1.08697
 20
-5.7308000000000003
 30
0.0
 10
-1.0666500000000001
 20
-5.7943000000000007
 30
0.0
 10
-1.0260100000000001
 20
-5.7714400000000001
 30
0.0
 10
-1.0260100000000001
 20
-5.7714400000000001
 30
0.0
 10
-1.12253
 20
-5.5301400000000003
 30
0.0
 10
-1.4527300000000001
 20
-5.3879000000000001
 30
0.0
 10
-1.4425700000000001
 20
-5.0983400000000003
 30
0.0
 10
-1.4425700000000001
 20
-5.0983400000000003
 30
0.0
 10
-1.3536700000000002
 20
-5.1161200000000004
 30
0.0
 10
-1.3104900000000002
 20
-5.1974
 30
0.0
 10
-1.2266700000000001
 20
-5.2405800000000005
 30
0.0
 10
-1.2266700000000001
 20
-5.2405800000000005
 30
0.0
 10
-1.16571
 20
-5.3294800000000002
 30
0.0
 10
-1.0183900000000001
 20
-5.5479200000000004
 30
0.0
 10
-0.95235
 20
-5.5174400000000006
 30
0.0
 10
-0.95235
 20
-5.5174400000000006
 30
0.0
 10
-0.9802900000000001
 20
-5.4590200000000006
 30
0.0
 10
-0.9828300000000001
 20
-5.3929800000000006
 30
0.0
 10
-0.99299
 20
-5.3294800000000002
 30
0.0
 10
-0.99299
 20
-5.3294800000000002
 30
0.0
 10
-0.7669300000000001
 20
-4.9434000000000005
 30
0.0
 10
-1.6330700000000002
 20
-4.8849800000000005
 30
0.0
 10
-1.4679700000000002
 20
-4.6614600000000008
 30
0.0
 10
-1.4679700000000002
 20
-4.6614600000000008
 30
0.0
 10
-1.4908300000000001
 20
-4.6081200000000004
 30
0.0
 10
-1.4959100000000001
 20
-4.5370000000000008
 30
0.0
 10
-1.50607
 20
-4.47858
 30
0.0
 10
-1.50607
 20
-4.47858
 30
0.0
 10
-1.4933700000000001
 20
-4.5192200000000007
 30
0.0
 10
-1.3562100000000001
 20
-4.6614600000000008
 30
0.0
 10
-1.37399
 20
-4.5497000000000005
 30
0.0
 10
-1.37399
 20
-4.5497000000000005
 30
0.0
 10
-1.5263900000000001
 20
-4.43032
 30
0.0
 10
-1.5797300000000001
 20
-4.0874200000000007
 30
0.0
 10
-1.37907
 20
-3.9883600000000001
 30
0.0
 10
-1.37907
 20
-3.9883600000000001
 30
0.0
 10
-1.38161
 20
-4.1712400000000001
 30
0.0
 10
-1.3892300000000002
 20
-4.5192200000000007
 30
0.0
 10
-1.25207
 20
-4.5674800000000007
 30
0.0
 10
-1.25207
 20
-4.5674800000000007
 30
0.0
 10
-1.2190500000000002
 20
-4.60304
 30
0.0
 10
-1.1479300000000001
 20
-4.6386000000000003
 30
0.0
 10
-1.12507
 20
-4.5725600000000002
 30
0.0
 10
-1.12507
 20
-4.5725600000000002
 30
0.0
 10
-1.3257300000000001
 20
-4.5370000000000008
 30
0.0
 10
-1.33335
 20
-4.1763200000000005
 30
0.0
 10
-1.2393700000000001
 20
-4.0112200000000007
 30
0.0
 10
-1.2393700000000001
 20
-4.0112200000000007
 30
0.0
 10
-0.99299
 20
-4.04678
 30
0.0
 10
-0.93203
 20
-4.3592000000000004
 30
0.0
 10
-0.9421900000000001
 20
-4.5725600000000002
 30
0.0
 10
-0.9421900000000001
 20
-4.5725600000000002
 30
0.0
 10
-1.0971300000000002
 20
-4.4481000000000002
 30
0.0
 10
-1.1504700000000001
 20
-4.6132
 30
0.0
 10
-0.95235
 20
-4.7275
 30
0.0
 10
-0.95235
 20
-4.7275
 30
0.0
 10
-0.7923300000000001
 20
-4.6259000000000006
 30
0.0
 10
-0.63739
 20
-4.8392600000000003
 30
0.0
 10
-0.5154700000000001
 20
-4.5903400000000003
 30
0.0
 10
-0.5154700000000001
 20
-4.5903400000000003
 30
0.0
 10
-0.06081
 20
-4.7275
 30
0.0
 10
0.3024
 20
-4.40238
 30
0.0
 10
0.6910200000000001
 20
-4.1356800000000007
 30
0.0
 10
0.6910200000000001
 20
-4.1356800000000007
 30
0.0
 10
0.8332600000000001
 20
-3.9121600000000005
 30
0.0
 10
0.86882
 20
-4.1306000000000003
 30
0.0
 10
0.7164200000000001
 20
-4.2423600000000006
 30
0.0
 10
0.7164200000000001
 20
-4.2423600000000006
 30
0.0
 10
0.49036
 20
-4.47858
 30
0.0
 10
0.35066
 20
-4.5776400000000006
 30
0.0
 10
0.14238
 20
-4.7325800000000005
 30
0.0
 10
0.14238
 20
-4.7325800000000005
 30
0.0
 10
0.2897
 20
-4.8672000000000004
 30
0.0
 10
0.34304
 20
-4.6081200000000004
 30
0.0
 10
0.49036
 20
-4.6843200000000005
 30
0.0
 10
0.49036
 20
-4.6843200000000005
 30
0.0
 10
0.6224400000000001
 20
-4.5014400000000006
 30
0.0
 10
0.76214
 20
-4.2601400000000007
 30
0.0
 10
0.9932800000000001
 20
-4.2703000000000007
 30
0.0
 10
0.9932800000000001
 20
-4.2703000000000007
 30
0.0
 10
1.31332
 20
-3.8410400000000005
 30
0.0
 10
1.8721200000000002
 20
-3.4854400000000001
 30
0.0
 10
1.6841600000000001
 20
-2.8021800000000003
 30
0.0
 10
1.6841600000000001
 20
-2.8021800000000003
 30
0.0
 10
1.7019400000000002
 20
-2.3221200000000004
 30
0.0
 10
1.9686400000000002
 20
-3.6226000000000003
 30
0.0
 10
1.9153000000000002
 20
-3.1374600000000004
 30
0.0
 10
1.9153000000000002
 20
-3.1374600000000004
 30
0.0
 10
1.9153000000000002
 20
-3.1374600000000004
 30
0.0
 10
1.9026000000000001
 20
-2.9190200000000002
 30
0.0
 10
1.9026000000000001
 20
-2.9190200000000002
 30
0.0
 10
1.9026000000000001
 20
-2.9190200000000002
 30
0.0
 10
1.8797400000000002
 20
-2.8783800000000004
 30
0.0
 10
1.8721200000000002
 20
-2.7488400000000004
 30
0.0
 10
1.9153000000000002
 20
-2.8479000000000001
 30
0.0
 10
1.9153000000000002
 20
-2.8479000000000001
 30
0.0
 10
1.9864200000000001
 20
-2.9901400000000002
 30
0.0
 10
2.1159600000000003
 20
-3.2543000000000002
 30
0.0
 10
1.9965800000000002
 20
-3.3432000000000004
 30
0.0
 10
1.9965800000000002
 20
-3.3432000000000004
 30
0.0
 10
1.9788000000000001
 20
-3.4676600000000004
 30
0.0
 10
1.6663800000000002
 20
-3.9655000000000005
 30
0.0
 10
1.8975200000000001
 20
-3.6988000000000003
 30
0.0
 10
1.8975200000000001
 20
-3.6988000000000003
 30
0.0
 10
2.3267800000000003
 20
-3.5260800000000003
 30
0.0
 10
2.1159600000000003
 20
-2.7717000000000001
 30
0.0
 10
1.9026000000000001
 20
-2.4288000000000003
 30
0.0
 10
1.9026000000000001
 20
-2.4288000000000003
 30
0.0
 10
1.7781400000000001
 20
-2.31196
 30
0.0
 10
1.8797400000000002
 20
-2.2459200000000004
 30
0.0
 10
1.9254600000000002
 20
-2.4161000000000001
 30
0.0
 10
1.9254600000000002
 20
-2.4161000000000001
 30
0.0
 10
1.9254600000000002
 20
-2.4161000000000001
 30
0.0
 10
2.1083400000000001
 20
-2.7132800000000001
 30
0.0
 10
2.1083400000000001
 20
-2.7132800000000001
 30
0.0
 10
2.1083400000000001
 20
-2.7132800000000001
 30
0.0
 10
2.1083400000000001
 20
-2.7132800000000001
 30
0.0
 10
2.2505800000000002
 20
-3.0358600000000004
 30
0.0
 10
2.2505800000000002
 20
-3.0358600000000004
 30
0.0
 10
2.2505800000000002
 20
-3.0358600000000004
 30
0.0
 10
2.3801200000000002
 20
-2.6955
 30
0.0
 10
2.2226400000000002
 20
-2.2764000000000002
 30
0.0
 10
1.9965800000000002
 20
-1.9868400000000002
 30
0.0
 10
1.9965800000000002
 20
-1.9868400000000002
 30
0.0
 10
1.9203800000000002
 20
-1.79634
 30
0.0
 10
2.0270600000000001
 20
-1.9741400000000002
 30
0.0
 10
2.0727800000000003
 20
-2.05796
 30
0.0
 10
2.0727800000000003
 20
-2.05796
 30
0.0
 10
2.0727800000000003
 20
-2.05796
 30
0.0
 10
2.2226400000000002
 20
-2.31196
 30
0.0
 10
2.2226400000000002
 20
-2.31196
 30
0.0
 10
2.2226400000000002
 20
-2.31196
 30
0.0
 10
2.3699600000000003
 20
-2.4948400000000004
 30
0.0
 10
2.3623400000000001
 20
-2.8174200000000003
 30
0.0
 10
2.3572600000000001
 20
-3.0790400000000004
 30
0.0
 10
2.3572600000000001
 20
-3.0790400000000004
 30
0.0
 10
2.3521800000000002
 20
-3.1730200000000002
 30
0.0
 10
2.2988400000000002
 20
-3.2619200000000004
 30
0.0
 10
2.3267800000000003
 20
-3.3559000000000001
 30
0.0
 10
2.3267800000000003
 20
-3.3559000000000001
 30
0.0
 10
2.8119200000000002
 20
-2.9901400000000002
 30
0.0
 10
2.4461600000000003
 20
-2.26878
 30
0.0
 10
2.3572600000000001
 20
-1.7734800000000002
 30
0.0
 10
2.3572600000000001
 20
-1.7734800000000002
 30
0.0
 10
2.3572600000000001
 20
-1.62616
 30
0.0
 10
2.37758
 20
-1.6388600000000002
 30
0.0
 10
2.4512400000000003
 20
-1.7023600000000001
 30
0.0
  0
SPLINE
  5
62
100
AcDbEntity
  8
Ebene 1
100
AcDbSpline
210
0.0
220
0.0
230
1.0
 70
     1
 71
     3
 72
    56
 73
    52
 74
     0
 42
0.0000000001
 43
0.0000000001
 40
0.0
 40
0.0
 40
0.0
 40
0.0
 40
0.0769230769230769
 40
0.0769230769230769
 40
0.0769230769230769
 40
0.0769230769230769
 40
0.1538461538461539
 40
0.1538461538461539
 40
0.1538461538461539
 40
0.1538461538461539
 40
0.2307692307692308
 40
0.2307692307692308
 40
0.2307692307692308
 40
0.2307692307692308
 40
0.3076923076923077
 40
0.3076923076923077
 40
0.3076923076923077
 40
0.3076923076923077
 40
0.3846153846153846
 40
0.3846153846153846
 40
0.3846153846153846
 40
0.3846153846153846
 40
0.4615384615384616
 40
0.4615384615384616
 40
0.4615384615384616
 40
0.4615384615384616
 40
0.5384615384615386
 40
0.5384615384615386
 40
0.5384615384615386
 40
0.5384615384615386
 40
0.6153846153846154
 40
0.6153846153846154
 40
0.6153846153846154
 40
0.6153846153846154
 40
0.6923076923076923
 40
0.6923076923076923
 40
0.6923076923076923
 40
0.6923076923076923
 40
0.7692307692307692
 40
0.7692307692307692
 40
0.7692307692307692
 40
0.7692307692307692
 40
0.846153846153846
 40
0.846153846153846
 40
0.846153846153846
 40
0.846153846153846
 40
0.9230769230769229
 40
0.9230769230769229
 40
0.9230769230769229
 40
0.9230769230769229
 40
1.0
 40
1.0
 40
1.0
 40
1.0
 10
0.5208400000000001
 20
-1.8446000000000002
 30
0.0
 10
0.68086
 20
-1.9385800000000002
 30
0.0
 10
0.78754
 20
-2.0986000000000002
 30
0.0
 10
0.9221600000000001
 20
-2.2408400000000004
 30
0.0
 10
0.9221600000000001
 20
-2.2408400000000004
 30
0.0
 10
0.9221600000000001
 20
-2.2408400000000004
 30
0.0
 10
0.9805800000000001
 20
-2.2814800000000002
 30
0.0
 10
0.9805800000000001
 20
-2.2814800000000002
 30
0.0
 10
0.9805800000000001
 20
-2.2814800000000002
 30
0.0
 10
0.9755
 20
-2.2459200000000004
 30
0.0
 10
0.9272400000000001
 20
-2.2230600000000003
 30
0.0
 10
0.93486
 20
-2.1798800000000003
 30
0.0
 10
0.93486
 20
-2.1798800000000003
 30
0.0
 10
0.9983600000000001
 20
-2.19258
 30
0.0
 10
1.0872600000000001
 20
-2.2992600000000003
 30
0.0
 10
1.0339200000000002
 20
-2.3449800000000001
 30
0.0
 10
1.0339200000000002
 20
-2.3449800000000001
 30
0.0
 10
1.09996
 20
-2.4237200000000003
 30
0.0
 10
0.9932800000000001
 20
-2.4948400000000004
 30
0.0
 10
0.9628000000000001
 20
-2.5405600000000002
 30
0.0
 10
0.9628000000000001
 20
-2.5405600000000002
 30
0.0
 10
0.9272400000000001
 20
-2.5126200000000001
 30
0.0
 10
0.9399400000000001
 20
-2.4592800000000001
 30
0.0
 10
0.912
 20
-2.4237200000000003
 30
0.0
 10
0.912
 20
-2.4237200000000003
 30
0.0
 10
0.8866000000000001
 20
-2.3703800000000004
 30
0.0
 10
0.8637400000000001
 20
-2.2941800000000003
 30
0.0
 10
0.8231000000000001
 20
-2.2586200000000001
 30
0.0
 10
0.8231000000000001
 20
-2.2586200000000001
 30
0.0
 10
0.8231000000000001
 20
-2.2586200000000001
 30
0.0
 10
0.8815200000000001
 20
-2.4237200000000003
 30
0.0
 10
0.8815200000000001
 20
-2.4237200000000003
 30
0.0
 10
0.8815200000000001
 20
-2.4237200000000003
 30
0.0
 10
0.8866000000000001
 20
-2.4694400000000001
 30
0.0
 10
0.9043800000000001
 20
-2.5532600000000003
 30
0.0
 10
0.8815200000000001
 20
-2.6015200000000003
 30
0.0
 10
0.8815200000000001
 20
-2.6015200000000003
 30
0.0
 10
0.68086
 20
-2.57104
 30
0.0
 10
0.8104000000000001
 20
-2.2992600000000003
 30
0.0
 10
0.6503800000000001
 20
-2.19258
 30
0.0
 10
0.6503800000000001
 20
-2.19258
 30
0.0
 10
0.6453000000000001
 20
-2.1748000000000003
 30
0.0
 10
0.6326000000000001
 20
-2.1621000000000001
 30
0.0
 10
0.64022
 20
-2.13924
 30
0.0
 10
0.64022
 20
-2.13924
 30
0.0
 10
0.7164200000000001
 20
-2.06812
 30
0.0
 10
0.7519800000000001
 20
-2.2510000000000003
 30
0.0
 10
0.8154800000000001
 20
-2.2408400000000004
 30
0.0
 10
0.8154800000000001
 20
-2.2408400000000004
 30
0.0
 10
0.7342000000000001
 20
-2.0986000000000002
 30
0.0
 10
0.5564
 20
-2.0046200000000001
 30
0.0
 10
0.5208400000000001
 20
-1.8446000000000002
 30
0.0
  0
SPLINE
  5
63
100
AcDbEntity
  8
Ebene 1
100
AcDbSpline
210
0.0
220
0.0
230
1.0
 70
     1
 71
     3
 72
    40
 73
    36
 74
     0
 42
0.0000000001
 43
0.0000000001
 40
0.0
 40
0.0
 40
0.0
 40
0.0
 40
0.1111111111111111
 40
0.1111111111111111
 40
0.1111111111111111
 40
0.1111111111111111
 40
0.2222222222222222
 40
0.2222222222222222
 40
0.2222222222222222
 40
0.2222222222222222
 40
0.3333333333333333
 40
0.3333333333333333
 40
0.3333333333333333
 40
0.3333333333333333
 40
0.4444444444444444
 40
0.4444444444444444
 40
0.4444444444444444
 40
0.4444444444444444
 40
0.5555555555555556
 40
0.5555555555555556
 40
0.5555555555555556
 40
0.5555555555555556
 40
0.6666666666666667
 40
0.6666666666666667
 40
0.6666666666666667
 40
0.6666666666666667
 40
0.7777777777777779
 40
0.7777777777777779
 40
0.7777777777777779
 40
0.7777777777777779
 40
0.8888888888888891
 40
0.8888888888888891
 40
0.8888888888888891
 40
0.8888888888888891
 40
1.0
 40
1.0
 40
1.0
 40
1.0
 10
-0.19035
 20
-1.9106400000000001
 30
0.0
 10
-0.09637
 20
-1.9614400000000001
 30
0.0
 10
-0.09637
 20
-2.0986000000000002
 30
0.0
 10
-0.03795
 20
-2.1748000000000003
 30
0.0
 10
-0.03795
 20
-2.1748000000000003
 30
0.0
 10
-0.03795
 20
-2.2510000000000003
 30
0.0
 10
-0.02525
 20
-2.31704
 30
0.0
 10
0.0357
 20
-2.3627600000000002
 30
0.0
 10
0.0357
 20
-2.3627600000000002
 30
0.0
 10
0.03062
 20
-2.39324
 30
0.0
 10
0.03062
 20
-2.4288000000000003
 30
0.0
 10
0.01792
 20
-2.4643600000000001
 30
0.0
 10
0.01792
 20
-2.4643600000000001
 30
0.0
 10
-0.00747
 20
-2.4694400000000001
 30
0.0
 10
-0.02525
 20
-2.4338800000000003
 30
0.0
 10
-0.02017
 20
-2.4110200000000002
 30
0.0
 10
-0.02017
 20
-2.4110200000000002
 30
0.0
 10
-0.05573
 20
-2.39832
 30
0.0
 10
-0.10145
 20
-2.3754600000000003
 30
0.0
 10
-0.09129
 20
-2.3221200000000004
 30
0.0
 10
-0.09129
 20
-2.3221200000000004
 30
0.0
 10
-0.12685
 20
-2.3043400000000003
 30
0.0
 10
-0.16241
 20
-2.2865600000000001
 30
0.0
 10
-0.18527
 20
-2.3348200000000001
 30
0.0
 10
-0.18527
 20
-2.3348200000000001
 30
0.0
 10
-0.19797
 20
-2.3348200000000001
 30
0.0
 10
-0.20305
 20
-2.3348200000000001
 30
0.0
 10
-0.20813
 20
-2.3297400000000001
 30
0.0
 10
-0.20813
 20
-2.3297400000000001
 30
0.0
 10
-0.18019
 20
-2.2052800000000001
 30
0.0
 10
-0.14971
 20
-2.0732000000000004
 30
0.0
 10
-0.20813
 20
-1.9512800000000001
 30
0.0
 10
-0.20813
 20
-1.9512800000000001
 30
0.0
 10
-0.21575
 20
-1.9335000000000002
 30
0.0
 10
-0.19797
 20
-1.9208000000000001
 30
0.0
 10
-0.19035
 20
-1.9106400000000001
 30
0.0
  0
SPLINE
  5
64
100
AcDbEntity
  8
Ebene 1
 62
     7
100
AcDbSpline
210
0.0
220
0.0
230
1.0
 70
     1
 71
     3
 72
    32
 73
    28
 74
     0
 42
0.0000000001
 43
0.0000000001
 40
0.0
 40
0.0
 40
0.0
 40
0.0
 40
0.1428571428571429
 40
0.1428571428571429
 40
0.1428571428571429
 40
0.1428571428571429
 40
0.2857142857142857
 40
0.2857142857142857
 40
0.2857142857142857
 40
0.2857142857142857
 40
0.4285714285714286
 40
0.4285714285714286
 40
0.4285714285714286
 40
0.4285714285714286
 40
0.5714285714285714
 40
0.5714285714285714
 40
0.5714285714285714
 40
0.5714285714285714
 40
0.7142857142857142
 40
0.7142857142857142
 40
0.7142857142857142
 40
0.7142857142857142
 40
0.857142857142857
 40
0.857142857142857
 40
0.857142857142857
 40
0.857142857142857
 40
1.0
 40
1.0
 40
1.0
 40
1.0
 10
-1.9810500000000002
 20
-2.0097
 30
0.0
 10
-1.9708900000000003
 20
-2.0097
 30
0.0
 10
-1.9607300000000001
 20
-2.01478
 30
0.0
 10
-1.9556500000000001
 20
-2.0224000000000002
 30
0.0
 10
-1.9556500000000001
 20
-2.0224000000000002
 30
0.0
 10
-2.10805
 20
-2.4338800000000003
 30
0.0
 10
-2.0521700000000003
 20
-2.8885400000000003
 30
0.0
 10
-2.0877300000000001
 20
-3.3254200000000003
 30
0.0
 10
-2.0877300000000001
 20
-3.3254200000000003
 30
0.0
 10
-2.1309100000000001
 20
-3.3203400000000003
 30
0.0
 10
-2.1563100000000004
 20
-3.2847800000000005
 30
0.0
 10
-2.18425
 20
-3.2543000000000002
 30
0.0
 10
-2.18425
 20
-3.2543000000000002
 30
0.0
 10
-2.1385300000000003
 20
-3.1958800000000003
 30
0.0
 10
-2.1867900000000002
 20
-3.1146000000000003
 30
0.0
 10
-2.14615
 20
-3.0536400000000001
 30
0.0
 10
-2.14615
 20
-3.0536400000000001
 30
0.0
 10
-2.1639300000000001
 20
-3.0130000000000003
 30
0.0
 10
-2.1563100000000004
 20
-2.9723600000000001
 30
0.0
 10
-2.1563100000000004
 20
-2.9241000000000001
 30
0.0
 10
-2.1563100000000004
 20
-2.9241000000000001
 30
0.0
 10
-2.27569
 20
-2.6167600000000002
 30
0.0
 10
-2.0902700000000003
 20
-2.3399000000000001
 30
0.0
 10
-2.0191500000000002
 20
-2.05796
 30
0.0
 10
-2.0191500000000002
 20
-2.05796
 30
0.0
 10
-2.0191500000000002
 20
-2.05796
 30
0.0
 10
-1.9810500000000002
 20
-2.0097
 30
0.0
 10
-1.9810500000000002
 20
-2.0097
 30
0.0
  0
SPLINE
  5
65
100
AcDbEntity
  8
Ebene 1
100
AcDbSpline
210
0.0
220
0.0
230
1.0
 70
     1
 71
     3
 72
    56
 73
    52
 74
     0
 42
0.0000000001
 43
0.0000000001
 40
0.0
 40
0.0
 40
0.0
 40
0.0
 40
0.0769230769230769
 40
0.0769230769230769
 40
0.0769230769230769
 40
0.0769230769230769
 40
0.1538461538461539
 40
0.1538461538461539
 40
0.1538461538461539
 40
0.1538461538461539
 40
0.2307692307692308
 40
0.2307692307692308
 40
0.2307692307692308
 40
0.2307692307692308
 40
0.3076923076923077
 40
0.3076923076923077
 40
0.3076923076923077
 40
0.3076923076923077
 40
0.3846153846153846
 40
0.3846153846153846
 40
0.3846153846153846
 40
0.3846153846153846
 40
0.4615384615384616
 40
0.4615384615384616
 40
0.4615384615384616
 40
0.4615384615384616
 40
0.5384615384615386
 40
0.5384615384615386
 40
0.5384615384615386
 40
0.5384615384615386
 40
0.6153846153846154
 40
0.6153846153846154
 40
0.6153846153846154
 40
0.6153846153846154
 40
0.6923076923076923
 40
0.6923076923076923
 40
0.6923076923076923
 40
0.6923076923076923
 40
0.7692307692307692
 40
0.7692307692307692
 40
0.7692307692307692
 40
0.7692307692307692
 40
0.846153846153846
 40
0.846153846153846
 40
0.846153846153846
 40
0.846153846153846
 40
0.9230769230769229
 40
0.9230769230769229
 40
0.9230769230769229
 40
0.9230769230769229
 40
1.0
 40
1.0
 40
1.0
 40
1.0
 10
-0.9345700000000001
 20
-2.19258
 30
0.0
 10
-0.90917
 20
-2.1875
 30
0.0
 10
-0.8990100000000001
 20
-2.2103600000000001
 30
0.0
 10
-0.88631
 20
-2.2281400000000002
 30
0.0
 10
-0.88631
 20
-2.2281400000000002
 30
0.0
 10
-0.8558300000000001
 20
-2.1976600000000004
 30
0.0
 10
-0.8177300000000001
 20
-2.2230600000000003
 30
0.0
 10
-0.8151900000000001
 20
-2.2637
 30
0.0
 10
-0.8151900000000001
 20
-2.2637
 30
0.0
 10
-0.7516900000000001
 20
-2.26878
 30
0.0
 10
-0.76185
 20
-2.3348200000000001
 30
0.0
 10
-0.7516900000000001
 20
-2.3805400000000003
 30
0.0
 10
-0.7516900000000001
 20
-2.3805400000000003
 30
0.0
 10
-0.7516900000000001
 20
-2.3805400000000003
 30
0.0
 10
-0.7720100000000001
 20
-2.4288000000000003
 30
0.0
 10
-0.7720100000000001
 20
-2.4288000000000003
 30
0.0
 10
-0.7720100000000001
 20
-2.4288000000000003
 30
0.0
 10
-0.90917
 20
-2.4999200000000004
 30
0.0
 10
-0.86599
 20
-2.7056600000000004
 30
0.0
 10
-0.8507500000000001
 20
-2.8352000000000004
 30
0.0
 10
-0.8507500000000001
 20
-2.8352000000000004
 30
0.0
 10
-0.8202700000000001
 20
-2.8021800000000003
 30
0.0
 10
-0.7669300000000001
 20
-2.8301200000000004
 30
0.0
 10
-0.72121
 20
-2.8072600000000003
 30
0.0
 10
-0.72121
 20
-2.8072600000000003
 30
0.0
 10
-0.69581
 20
-2.8174200000000003
 30
0.0
 10
-0.6704100000000001
 20
-2.8479000000000001
 30
0.0
 10
-0.6704100000000001
 20
-2.8783800000000004
 30
0.0
 10
-0.6704100000000001
 20
-2.8783800000000004
 30
0.0
 10
-0.76185
 20
-2.9317200000000003
 30
0.0
 10
-0.7288300000000001
 20
-3.0358600000000004
 30
0.0
 10
-0.7999500000000001
 20
-3.0968200000000001
 30
0.0
 10
-0.7999500000000001
 20
-3.0968200000000001
 30
0.0
 10
-0.8151900000000001
 20
-3.0968200000000001
 30
0.0
 10
-0.8329700000000001
 20
-3.0892000000000004
 30
0.0
 10
-0.84567
 20
-3.0790400000000004
 30
0.0
 10
-0.84567
 20
-3.0790400000000004
 30
0.0
 10
-0.8710700000000001
 20
-2.8656800000000002
 30
0.0
 10
-0.9447300000000001
 20
-2.6701000000000001
 30
0.0
 10
-0.9421900000000001
 20
-2.4592800000000001
 30
0.0
 10
-0.9421900000000001
 20
-2.4592800000000001
 30
0.0
 10
-0.9421900000000001
 20
-2.4059400000000002
 30
0.0
 10
-1.0133100000000002
 20
-2.4059400000000002
 30
0.0
 10
-1.00061
 20
-2.3449800000000001
 30
0.0
 10
-1.00061
 20
-2.3449800000000001
 30
0.0
 10
-0.99299
 20
-2.31196
 30
0.0
 10
-0.97267
 20
-2.2814800000000002
 30
0.0
 10
-0.92949
 20
-2.2941800000000003
 30
0.0
 10
-0.92949
 20
-2.2941800000000003
 30
0.0
 10
-0.9371100000000001
 20
-2.2637
 30
0.0
 10
-0.9752100000000001
 20
-2.2154400000000001
 30
0.0
 10
-0.9345700000000001
 20
-2.19258
 30
0.0
  0
SPLINE
  5
66
100
AcDbEntity
  8
Ebene 1
100
AcDbSpline
210
0.0
220
0.0
230
1.0
 70
     1
 71
     3
 72
    56
 73
    52
 74
     0
 42
0.0000000001
 43
0.0000000001
 40
0.0
 40
0.0
 40
0.0
 40
0.0
 40
0.0769230769230769
 40
0.0769230769230769
 40
0.0769230769230769
 40
0.0769230769230769
 40
0.1538461538461539
 40
0.1538461538461539
 40
0.1538461538461539
 40
0.1538461538461539
 40
0.2307692307692308
 40
0.2307692307692308
 40
0.2307692307692308
 40
0.2307692307692308
 40
0.3076923076923077
 40
0.3076923076923077
 40
0.3076923076923077
 40
0.3076923076923077
 40
0.3846153846153846
 40
0.3846153846153846
 40
0.3846153846153846
 40
0.3846153846153846
 40
0.4615384615384616
 40
0.4615384615384616
 40
0.4615384615384616
 40
0.4615384615384616
 40
0.5384615384615386
 40
0.5384615384615386
 40
0.5384615384615386
 40
0.5384615384615386
 40
0.6153846153846154
 40
0.6153846153846154
 40
0.6153846153846154
 40
0.6153846153846154
 40
0.6923076923076923
 40
0.6923076923076923
 40
0.6923076923076923
 40
0.6923076923076923
 40
0.7692307692307692
 40
0.7692307692307692
 40
0.7692307692307692
 40
0.7692307692307692
 40
0.846153846153846
 40
0.846153846153846
 40
0.846153846153846
 40
0.846153846153846
 40
0.9230769230769229
 40
0.9230769230769229
 40
0.9230769230769229
 40
0.9230769230769229
 40
1.0
 40
1.0
 40
1.0
 40
1.0
 10
0.3684400000000001
 20
-2.2408400000000004
 30
0.0
 10
0.5437000000000001
 20
-2.31196
 30
0.0
 10
0.658
 20
-2.5126200000000001
 30
0.0
 10
0.6046600000000001
 20
-2.6828000000000003
 30
0.0
 10
0.6046600000000001
 20
-2.6828000000000003
 30
0.0
 10
0.61482
 20
-2.7132800000000001
 30
0.0
 10
0.658
 20
-2.7005800000000004
 30
0.0
 10
0.6681600000000001
 20
-2.7310600000000003
 30
0.0
 10
0.6681600000000001
 20
-2.7310600000000003
 30
0.0
 10
0.6275200000000001
 20
-2.8072600000000003
 30
0.0
 10
0.53354
 20
-2.7234400000000001
 30
0.0
 10
0.51576
 20
-2.8072600000000003
 30
0.0
 10
0.51576
 20
-2.8072600000000003
 30
0.0
 10
0.51576
 20
-2.8072600000000003
 30
0.0
 10
0.49036
 20
-2.7894800000000002
 30
0.0
 10
0.49036
 20
-2.7894800000000002
 30
0.0
 10
0.49036
 20
-2.7894800000000002
 30
0.0
 10
0.4802
 20
-2.8123400000000003
 30
0.0
 10
0.5030600000000001
 20
-2.8656800000000002
 30
0.0
 10
0.4548
 20
-2.8606000000000003
 30
0.0
 10
0.4548
 20
-2.8606000000000003
 30
0.0
 10
0.4395600000000001
 20
-2.8352000000000004
 30
0.0
 10
0.4395600000000001
 20
-2.8021800000000003
 30
0.0
 10
0.4319400000000001
 20
-2.7717000000000001
 30
0.0
 10
0.4319400000000001
 20
-2.7717000000000001
 30
0.0
 10
0.4319400000000001
 20
-2.7717000000000001
 30
0.0
 10
0.44464
 20
-2.7234400000000001
 30
0.0
 10
0.44464
 20
-2.7234400000000001
 30
0.0
 10
0.44464
 20
-2.7234400000000001
 30
0.0
 10
0.4675
 20
-2.6955
 30
0.0
 10
0.48528
 20
-2.7488400000000004
 30
0.0
 10
0.49798
 20
-2.7590000000000003
 30
0.0
 10
0.49798
 20
-2.7590000000000003
 30
0.0
 10
0.4675
 20
-2.6421600000000001
 30
0.0
 10
0.3913
 20
-2.5354800000000002
 30
0.0
 10
0.33796
 20
-2.4237200000000003
 30
0.0
 10
0.33796
 20
-2.4237200000000003
 30
0.0
 10
0.34304
 20
-2.39832
 30
0.0
 10
0.3151000000000001
 20
-2.3754600000000003
 30
0.0
 10
0.33288
 20
-2.3576800000000002
 30
0.0
 10
0.33288
 20
-2.3576800000000002
 30
0.0
 10
0.4395600000000001
 20
-2.4415
 30
0.0
 10
0.4624200000000001
 20
-2.6015200000000003
 30
0.0
 10
0.5386200000000001
 20
-2.7056600000000004
 30
0.0
 10
0.5386200000000001
 20
-2.7056600000000004
 30
0.0
 10
0.5868800000000001
 20
-2.5481800000000003
 30
0.0
 10
0.49798
 20
-2.3881600000000001
 30
0.0
 10
0.3684400000000001
 20
-2.2865600000000001
 30
0.0
 10
0.3684400000000001
 20
-2.2865600000000001
 30
0.0
 10
0.36082
 20
-2.26878
 30
0.0
 10
0.3557400000000001
 20
-2.2510000000000003
 30
0.0
 10
0.3684400000000001
 20
-2.2408400000000004
 30
0.0
  0
SPLINE
  5
67
100
AcDbEntity
  8
Ebene 1
 62
     7
100
AcDbSpline
210
0.0
220
0.0
230
1.0
 70
     1
 71
     3
 72
    24
 73
    20
 74
     0
 42
0.0000000001
 43
0.0000000001
 40
0.0
 40
0.0
 40
0.0
 40
0.0
 40
0.2
 40
0.2
 40
0.2
 40
0.2
 40
0.4
 40
0.4
 40
0.4
 40
0.4
 40
0.6000000000000001
 40
0.6000000000000001
 40
0.6000000000000001
 40
0.6000000000000001
 40
0.8
 40
0.8
 40
0.8
 40
0.8
 40
1.0
 40
1.0
 40
1.0
 40
1.0
 10
1.35904
 20
-2.4110200000000002
 30
0.0
 10
1.40222
 20
-2.39832
 30
0.0
 10
1.44286
 20
-2.4592800000000001
 30
0.0
 10
1.4657200000000001
 20
-2.4237200000000003
 30
0.0
 10
1.4657200000000001
 20
-2.4237200000000003
 30
0.0
 10
1.5774800000000002
 20
-2.57104
 30
0.0
 10
1.5419200000000002
 20
-2.7590000000000003
 30
0.0
 10
1.4962000000000002
 20
-2.9241000000000001
 30
0.0
 10
1.4962000000000002
 20
-2.9241000000000001
 30
0.0
 10
1.4962000000000002
 20
-2.9241000000000001
 30
0.0
 10
1.4708000000000001
 20
-2.9241000000000001
 30
0.0
 10
1.4708000000000001
 20
-2.9241000000000001
 30
0.0
 10
1.4708000000000001
 20
-2.9241000000000001
 30
0.0
 10
1.4301600000000001
 20
-2.77678
 30
0.0
 10
1.4835
 20
-2.5634200000000003
 30
0.0
 10
1.3311000000000002
 20
-2.4694400000000001
 30
0.0
 10
1.3311000000000002
 20
-2.4694400000000001
 30
0.0
 10
1.3311000000000002
 20
-2.4694400000000001
 30
0.0
 10
1.35904
 20
-2.4110200000000002
 30
0.0
 10
1.35904
 20
-2.4110200000000002
 30
0.0
  0
SPLINE
  5
68
100
AcDbEntity
  8
Ebene 1
 62
     7
100
AcDbSpline
210
0.0
220
0.0
230
1.0
 70
     1
 71
     3
 72
    24
 73
    20
 74
     0
 42
0.0000000001
 43
0.0000000001
 40
0.0
 40
0.0
 40
0.0
 40
0.0
 40
0.2
 40
0.2
 40
0.2
 40
0.2
 40
0.4
 40
0.4
 40
0.4
 40
0.4
 40
0.6000000000000001
 40
0.6000000000000001
 40
0.6000000000000001
 40
0.6000000000000001
 40
0.8
 40
0.8
 40
0.8
 40
0.8
 40
1.0
 40
1.0
 40
1.0
 40
1.0
 10
-2.3645900000000002
 20
-2.4694400000000001
 30
0.0
 10
-2.3595100000000002
 20
-2.4694400000000001
 30
0.0
 10
-2.3468100000000001
 20
-2.4643600000000001
 30
0.0
 10
-2.3468100000000001
 20
-2.4770600000000003
 30
0.0
 10
-2.3468100000000001
 20
-2.4770600000000003
 30
0.0
 10
-2.3417300000000001
 20
-2.7412200000000002
 30
0.0
 10
-2.2350500000000002
 20
-2.9774400000000001
 30
0.0
 10
-2.1994900000000004
 20
-3.2390600000000003
 30
0.0
 10
-2.1994900000000004
 20
-3.2390600000000003
 30
0.0
 10
-2.1994900000000004
 20
-3.2390600000000003
 30
0.0
 10
-2.2629900000000003
 20
-3.15524
 30
0.0
 10
-2.2629900000000003
 20
-3.15524
 30
0.0
 10
-2.2629900000000003
 20
-3.15524
 30
0.0
 10
-2.2629900000000003
 20
-3.15524
 30
0.0
 10
-2.3874500000000003
 20
-2.52278
 30
0.0
 10
-2.3874500000000003
 20
-2.52278
 30
0.0
 10
-2.3874500000000003
 20
-2.52278
 30
0.0
 10
-2.3899900000000001
 20
-2.5050000000000003
 30
0.0
 10
-2.3747500000000001
 20
-2.4872200000000002
 30
0.0
 10
-2.3645900000000002
 20
-2.4694400000000001
 30
0.0
  0
SPLINE
  5
69
100
AcDbEntity
  8
Ebene 1
100
AcDbSpline
210
0.0
220
0.0
230
1.0
 70
     1
 71
     3
 72
    28
 73
    24
 74
     0
 42
0.0000000001
 43
0.0000000001
 40
0.0
 40
0.0
 40
0.0
 40
0.0
 40
0.1666666666666667
 40
0.1666666666666667
 40
0.1666666666666667
 40
0.1666666666666667
 40
0.3333333333333333
 40
0.3333333333333333
 40
0.3333333333333333
 40
0.3333333333333333
 40
0.5
 40
0.5
 40
0.5
 40
0.5
 40
0.6666666666666666
 40
0.6666666666666666
 40
0.6666666666666666
 40
0.6666666666666666
 40
0.8333333333333333
 40
0.8333333333333333
 40
0.8333333333333333
 40
0.8333333333333333
 40
1.0
 40
1.0
 40
1.0
 40
1.0
 10
-0.13701
 20
-2.4770600000000003
 30
0.0
 10
-0.06081
 20
-2.4948400000000004
 30
0.0
 10
-0.11415
 20
-2.5761200000000004
 30
0.0
 10
-0.10907
 20
-2.6294600000000004
 30
0.0
 10
-0.10907
 20
-2.6294600000000004
 30
0.0
 10
0.02554
 20
-2.6066000000000003
 30
0.0
 10
0.00776
 20
-2.8021800000000003
 30
0.0
 10
0.0611
 20
-2.8834600000000004
 30
0.0
 10
0.0611
 20
-2.8834600000000004
 30
0.0
 10
0.0611
 20
-2.8885400000000003
 30
0.0
 10
0.0611
 20
-2.8961600000000001
 30
0.0
 10
0.05348
 20
-2.90124
 30
0.0
 10
0.05348
 20
-2.90124
 30
0.0
 10
-0.00239
 20
-2.8428200000000001
 30
0.0
 10
-0.03033
 20
-2.7488400000000004
 30
0.0
 10
-0.06843
 20
-2.6701000000000001
 30
0.0
 10
-0.06843
 20
-2.6701000000000001
 30
0.0
 10
-0.13701
 20
-2.7361400000000002
 30
0.0
 10
-0.19797
 20
-2.6828000000000003
 30
0.0
 10
-0.15479
 20
-2.6015200000000003
 30
0.0
 10
-0.15479
 20
-2.6015200000000003
 30
0.0
 10
-0.18527
 20
-2.5634200000000003
 30
0.0
 10
-0.19035
 20
-2.4948400000000004
 30
0.0
 10
-0.13701
 20
-2.4770600000000003
 30
0.0
  0
SPLINE
  5
6A
100
AcDbEntity
  8
Ebene 1
100
AcDbSpline
210
0.0
220
0.0
230
1.0
 70
     1
 71
     3
 72
    20
 73
    16
 74
     0
 42
0.0000000001
 43
0.0000000001
 40
0.0
 40
0.0
 40
0.0
 40
0.0
 40
0.25
 40
0.25
 40
0.25
 40
0.25
 40
0.5
 40
0.5
 40
0.5
 40
0.5
 40
0.75
 40
0.75
 40
0.75
 40
0.75
 40
1.0
 40
1.0
 40
1.0
 40
1.0
 10
0.24398
 20
-2.5050000000000003
 30
0.0
 10
0.24906
 20
-2.5050000000000003
 30
0.0
 10
0.2617600000000001
 20
-2.5050000000000003
 30
0.0
 10
0.26684
 20
-2.5126200000000001
 30
0.0
 10
0.26684
 20
-2.5126200000000001
 30
0.0
 10
0.3024
 20
-2.6167600000000002
 30
0.0
 10
0.4192400000000001
 20
-2.7310600000000003
 30
0.0
 10
0.36082
 20
-2.8428200000000001
 30
0.0
 10
0.36082
 20
-2.8428200000000001
 30
0.0
 10
0.3557400000000001
 20
-2.8428200000000001
 30
0.0
 10
0.34304
 20
-2.8428200000000001
 30
0.0
 10
0.33796
 20
-2.8352000000000004
 30
0.0
 10
0.33796
 20
-2.8352000000000004
 30
0.0
 10
0.33288
 20
-2.7183600000000001
 30
0.0
 10
0.24398
 20
-2.6167600000000002
 30
0.0
 10
0.24398
 20
-2.5050000000000003
 30
0.0
  0
SPLINE
  5
6B
100
AcDbEntity
  8
Ebene 1
 62
     7
100
AcDbSpline
210
0.0
220
0.0
230
1.0
 70
     1
 71
     3
 72
    48
 73
    44
 74
     0
 42
0.0000000001
 43
0.0000000001
 40
0.0
 40
0.0
 40
0.0
 40
0.0
 40
0.0909090909090909
 40
0.0909090909090909
 40
0.0909090909090909
 40
0.0909090909090909
 40
0.1818181818181818
 40
0.1818181818181818
 40
0.1818181818181818
 40
0.1818181818181818
 40
0.2727272727272727
 40
0.2727272727272727
 40
0.2727272727272727
 40
0.2727272727272727
 40
0.3636363636363637
 40
0.3636363636363637
 40
0.3636363636363637
 40
0.3636363636363637
 40
0.4545454545454546
 40
0.4545454545454546
 40
0.4545454545454546
 40
0.4545454545454546
 40
0.5454545454545455
 40
0.5454545454545455
 40
0.5454545454545455
 40
0.5454545454545455
 40
0.6363636363636365
 40
0.6363636363636365
 40
0.6363636363636365
 40
0.6363636363636365
 40
0.7272727272727274
 40
0.7272727272727274
 40
0.7272727272727274
 40
0.7272727272727274
 40
0.8181818181818183
 40
0.8181818181818183
 40
0.8181818181818183
 40
0.8181818181818183
 40
0.9090909090909093
 40
0.9090909090909093
 40
0.9090909090909093
 40
0.9090909090909093
 40
1.0
 40
1.0
 40
1.0
 40
1.0
 10
1.2650600000000001
 20
-2.5583400000000003
 30
0.0
 10
1.4352400000000001
 20
-2.6650200000000002
 30
0.0
 10
1.3717400000000002
 20
-2.9190200000000002
 30
0.0
 10
1.2828400000000002
 20
-3.0536400000000001
 30
0.0
 10
1.2828400000000002
 20
-3.0536400000000001
 30
0.0
 10
1.2599800000000001
 20
-3.0536400000000001
 30
0.0
 10
1.23458
 20
-3.0536400000000001
 30
0.0
 10
1.2117200000000001
 20
-3.0663400000000003
 30
0.0
 10
1.2117200000000001
 20
-3.0663400000000003
 30
0.0
 10
1.2117200000000001
 20
-3.0663400000000003
 30
0.0
 10
1.1812400000000001
 20
-3.1019000000000001
 30
0.0
 10
1.1812400000000001
 20
-3.1019000000000001
 30
0.0
 10
1.1812400000000001
 20
-3.1019000000000001
 30
0.0
 10
1.1812400000000001
 20
-3.1019000000000001
 30
0.0
 10
1.10504
 20
-3.1958800000000003
 30
0.0
 10
1.10504
 20
-3.1958800000000003
 30
0.0
 10
1.10504
 20
-3.1958800000000003
 30
0.0
 10
1.1355200000000001
 20
-3.0892000000000004
 30
0.0
 10
1.1990200000000002
 20
-2.9672800000000001
 30
0.0
 10
1.1406000000000001
 20
-2.8529800000000001
 30
0.0
 10
1.1406000000000001
 20
-2.8529800000000001
 30
0.0
 10
1.1406000000000001
 20
-2.8529800000000001
 30
0.0
 10
1.09996
 20
-2.7361400000000002
 30
0.0
 10
1.09996
 20
-2.7361400000000002
 30
0.0
 10
1.09996
 20
-2.7361400000000002
 30
0.0
 10
1.0923400000000001
 20
-2.6955
 30
0.0
 10
1.09996
 20
-2.65232
 30
0.0
 10
1.1228200000000002
 20
-2.6243800000000004
 30
0.0
 10
1.1228200000000002
 20
-2.6243800000000004
 30
0.0
 10
1.2650600000000001
 20
-2.6421600000000001
 30
0.0
 10
1.19394
 20
-2.8656800000000002
 30
0.0
 10
1.2828400000000002
 20
-2.9495000000000005
 30
0.0
 10
1.2828400000000002
 20
-2.9495000000000005
 30
0.0
 10
1.3006200000000001
 20
-2.9418800000000003
 30
0.0
 10
1.3057000000000001
 20
-2.9190200000000002
 30
0.0
 10
1.31332
 20
-2.9063200000000005
 30
0.0
 10
1.31332
 20
-2.9063200000000005
 30
0.0
 10
1.3234800000000002
 20
-2.8479000000000001
 30
0.0
 10
1.3234800000000002
 20
-2.77678
 30
0.0
 10
1.3184
 20
-2.7183600000000001
 30
0.0
 10
1.3184
 20
-2.7183600000000001
 30
0.0
 10
1.3184
 20
-2.7183600000000001
 30
0.0
 10
1.2650600000000001
 20
-2.5583400000000003
 30
0.0
 10
1.2650600000000001
 20
-2.5583400000000003
 30
0.0
  0
SPLINE
  5
6C
100
AcDbEntity
  8
Ebene 1
100
AcDbSpline
210
0.0
220
0.0
230
1.0
 70
     1
 71
     3
 72
    32
 73
    28
 74
     0
 42
0.0000000001
 43
0.0000000001
 40
0.0
 40
0.0
 40
0.0
 40
0.0
 40
0.1428571428571429
 40
0.1428571428571429
 40
0.1428571428571429
 40
0.1428571428571429
 40
0.2857142857142857
 40
0.2857142857142857
 40
0.2857142857142857
 40
0.2857142857142857
 40
0.4285714285714286
 40
0.4285714285714286
 40
0.4285714285714286
 40
0.4285714285714286
 40
0.5714285714285714
 40
0.5714285714285714
 40
0.5714285714285714
 40
0.5714285714285714
 40
0.7142857142857142
 40
0.7142857142857142
 40
0.7142857142857142
 40
0.7142857142857142
 40
0.857142857142857
 40
0.857142857142857
 40
0.857142857142857
 40
0.857142857142857
 40
1.0
 40
1.0
 40
1.0
 40
1.0
 10
-1.5263900000000001
 20
-2.6955
 30
0.0
 10
-1.4806700000000002
 20
-2.7234400000000001
 30
0.0
 10
-1.50353
 20
-2.8021800000000003
 30
0.0
 10
-1.4933700000000001
 20
-2.8529800000000001
 30
0.0
 10
-1.4933700000000001
 20
-2.8529800000000001
 30
0.0
 10
-1.46289
 20
-2.8123400000000003
 30
0.0
 10
-1.4349500000000002
 20
-2.8529800000000001
 30
0.0
 10
-1.4374900000000002
 20
-2.8885400000000003
 30
0.0
 10
-1.4374900000000002
 20
-2.8885400000000003
 30
0.0
 10
-1.33843
 20
-2.8352000000000004
 30
0.0
 10
-1.4146300000000001
 20
-3.03078
 30
0.0
 10
-1.3663700000000001
 20
-3.0790400000000004
 30
0.0
 10
-1.3663700000000001
 20
-3.0790400000000004
 30
0.0
 10
-1.3638300000000001
 20
-3.0892000000000004
 30
0.0
 10
-1.3714500000000001
 20
-3.1019000000000001
 30
0.0
 10
-1.37907
 20
-3.1069800000000001
 30
0.0
 10
-1.37907
 20
-3.1069800000000001
 30
0.0
 10
-1.4070100000000001
 20
-3.1069800000000001
 30
0.0
 10
-1.4349500000000002
 20
-3.0892000000000004
 30
0.0
 10
-1.46035
 20
-3.0841200000000004
 30
0.0
 10
-1.46035
 20
-3.0841200000000004
 30
0.0
 10
-1.4705100000000002
 20
-3.0892000000000004
 30
0.0
 10
-1.4781300000000002
 20
-3.1146000000000003
 30
0.0
 10
-1.4959100000000001
 20
-3.1069800000000001
 30
0.0
 10
-1.4959100000000001
 20
-3.1069800000000001
 30
0.0
 10
-1.5949700000000002
 20
-3.0028400000000004
 30
0.0
 10
-1.5822700000000001
 20
-2.8174200000000003
 30
0.0
 10
-1.5263900000000001
 20
-2.6955
 30
0.0
  0
SPLINE
  5
6D
100
AcDbEntity
  8
Ebene 1
 62
     7
100
AcDbSpline
210
0.0
220
0.0
230
1.0
 70
     1
 71
     3
 72
    44
 73
    40
 74
     0
 42
0.0000000001
 43
0.0000000001
 40
0.0
 40
0.0
 40
0.0
 40
0.0
 40
0.1
 40
0.1
 40
0.1
 40
0.1
 40
0.2
 40
0.2
 40
0.2
 40
0.2
 40
0.3
 40
0.3
 40
0.3
 40
0.3
 40
0.4
 40
0.4
 40
0.4
 40
0.4
 40
0.5
 40
0.5
 40
0.5
 40
0.5
 40
0.6
 40
0.6
 40
0.6
 40
0.6
 40
0.7
 40
0.7
 40
0.7
 40
0.7
 40
0.7999999999999999
 40
0.7999999999999999
 40
0.7999999999999999
 40
0.7999999999999999
 40
0.8999999999999999
 40
0.8999999999999999
 40
0.8999999999999999
 40
0.8999999999999999
 40
1.0
 40
1.0
 40
1.0
 40
1.0
 10
0.9882000000000001
 20
-2.8021800000000003
 30
0.0
 10
0.9983600000000001
 20
-2.8021800000000003
 30
0.0
 10
1.0110600000000001
 20
-2.7945600000000002
 30
0.0
 10
1.02376
 20
-2.8072600000000003
 30
0.0
 10
1.02376
 20
-2.8072600000000003
 30
0.0
 10
1.0872600000000001
 20
-2.9495000000000005
 30
0.0
 10
1.09996
 20
-3.1501600000000001
 30
0.0
 10
1.02376
 20
-3.2924000000000002
 30
0.0
 10
1.02376
 20
-3.2924000000000002
 30
0.0
 10
0.9628000000000001
 20
-3.2924000000000002
 30
0.0
 10
0.9170800000000001
 20
-3.3432000000000004
 30
0.0
 10
0.8637400000000001
 20
-3.3152600000000003
 30
0.0
 10
0.8637400000000001
 20
-3.3152600000000003
 30
0.0
 10
0.85104
 20
-3.2263600000000001
 30
0.0
 10
0.8408800000000001
 20
-3.1425400000000003
 30
0.0
 10
0.7977000000000001
 20
-3.0739600000000005
 30
0.0
 10
0.7977000000000001
 20
-3.0739600000000005
 30
0.0
 10
0.7799200000000001
 20
-3.0079200000000004
 30
0.0
 10
0.69864
 20
-2.9723600000000001
 30
0.0
 10
0.76214
 20
-2.90124
 30
0.0
 10
0.76214
 20
-2.90124
 30
0.0
 10
0.7926200000000001
 20
-2.8656800000000002
 30
0.0
 10
0.82818
 20
-2.8174200000000003
 30
0.0
 10
0.8739000000000001
 20
-2.8123400000000003
 30
0.0
 10
0.8739000000000001
 20
-2.8123400000000003
 30
0.0
 10
0.9399400000000001
 20
-2.9317200000000003
 30
0.0
 10
0.9221600000000001
 20
-3.0739600000000005
 30
0.0
 10
0.9805800000000001
 20
-3.1781000000000001
 30
0.0
 10
0.9805800000000001
 20
-3.1781000000000001
 30
0.0
 10
1.01614
 20
-3.15524
 30
0.0
 10
1.0059800000000001
 20
-3.1019000000000001
 30
0.0
 10
1.0110600000000001
 20
-3.0663400000000003
 30
0.0
 10
1.0110600000000001
 20
-3.0663400000000003
 30
0.0
 10
1.0059800000000001
 20
-3.0257000000000001
 30
0.0
 10
0.9932800000000001
 20
-2.9901400000000002
 30
0.0
 10
0.9983600000000001
 20
-2.9495000000000005
 30
0.0
 10
0.9983600000000001
 20
-2.9495000000000005
 30
0.0
 10
1.01614
 20
-2.8961600000000001
 30
0.0
 10
0.93486
 20
-2.8250400000000004
 30
0.0
 10
0.9882000000000001
 20
-2.8021800000000003
 30
0.0
  0
SPLINE
  5
6E
100
AcDbEntity
  8
Ebene 1
 62
     7
100
AcDbSpline
210
0.0
220
0.0
230
1.0
 70
     1
 71
     3
 72
    16
 73
    12
 74
     0
 42
0.0000000001
 43
0.0000000001
 40
0.0
 40
0.0
 40
0.0
 40
0.0
 40
0.3333333333333333
 40
0.3333333333333333
 40
0.3333333333333333
 40
0.3333333333333333
 40
0.6666666666666666
 40
0.6666666666666666
 40
0.6666666666666666
 40
0.6666666666666666
 40
1.0
 40
1.0
 40
1.0
 40
1.0
 10
-2.48143
 20
-2.8250400000000004
 30
0.0
 10
-2.40523
 20
-2.9723600000000001
 30
0.0
 10
-2.3595100000000002
 20
-3.1501600000000001
 30
0.0
 10
-2.2528300000000003
 20
-3.2924000000000002
 30
0.0
 10
-2.2528300000000003
 20
-3.2924000000000002
 30
0.0
 10
-2.27569
 20
-3.2746200000000001
 30
0.0
 10
-2.3010900000000003
 20
-3.2492200000000002
 30
0.0
 10
-2.3264900000000002
 20
-3.2797000000000001
 30
0.0
 10
-2.3264900000000002
 20
-3.2797000000000001
 30
0.0
 10
-2.3849100000000001
 20
-3.1247600000000002
 30
0.0
 10
-2.4407900000000002
 20
-2.9774400000000001
 30
0.0
 10
-2.48143
 20
-2.8250400000000004
 30
0.0
  0
SPLINE
  5
6F
100
AcDbEntity
  8
Ebene 1
 62
     7
100
AcDbSpline
210
0.0
220
0.0
230
1.0
 70
     1
 71
     3
 72
    20
 73
    16
 74
     0
 42
0.0000000001
 43
0.0000000001
 40
0.0
 40
0.0
 40
0.0
 40
0.0
 40
0.25
 40
0.25
 40
0.25
 40
0.25
 40
0.5
 40
0.5
 40
0.5
 40
0.5
 40
0.75
 40
0.75
 40
0.75
 40
0.75
 40
1.0
 40
1.0
 40
1.0
 40
1.0
 10
1.4784200000000001
 20
-3.0206200000000001
 30
0.0
 10
1.4962000000000002
 20
-3.0130000000000003
 30
0.0
 10
1.5012800000000002
 20
-3.0206200000000001
 30
0.0
 10
1.5063600000000001
 20
-3.0358600000000004
 30
0.0
 10
1.5063600000000001
 20
-3.0358600000000004
 30
0.0
 10
1.4530200000000002
 20
-3.1425400000000003
 30
0.0
 10
1.4962000000000002
 20
-3.2797000000000001
 30
0.0
 10
1.4530200000000002
 20
-3.3863800000000004
 30
0.0
 10
1.4530200000000002
 20
-3.3863800000000004
 30
0.0
 10
1.44286
 20
-3.2847800000000005
 30
0.0
 10
1.4073000000000002
 20
-3.1857200000000003
 30
0.0
 10
1.3768200000000002
 20
-3.0892000000000004
 30
0.0
 10
1.3768200000000002
 20
-3.0892000000000004
 30
0.0
 10
1.3895200000000001
 20
-3.0434800000000002
 30
0.0
 10
1.4479400000000002
 20
-3.0434800000000002
 30
0.0
 10
1.4784200000000001
 20
-3.0206200000000001
 30
0.0
  0
SPLINE
  5
70
100
AcDbEntity
  8
Ebene 1
 62
     7
100
AcDbSpline
210
0.0
220
0.0
230
1.0
 70
     1
 71
     3
 72
    44
 73
    40
 74
     0
 42
0.0000000001
 43
0.0000000001
 40
0.0
 40
0.0
 40
0.0
 40
0.0
 40
0.1
 40
0.1
 40
0.1
 40
0.1
 40
0.2
 40
0.2
 40
0.2
 40
0.2
 40
0.3
 40
0.3
 40
0.3
 40
0.3
 40
0.4
 40
0.4
 40
0.4
 40
0.4
 40
0.5
 40
0.5
 40
0.5
 40
0.5
 40
0.6
 40
0.6
 40
0.6
 40
0.6
 40
0.7
 40
0.7
 40
0.7
 40
0.7
 40
0.7999999999999999
 40
0.7999999999999999
 40
0.7999999999999999
 40
0.7999999999999999
 40
0.8999999999999999
 40
0.8999999999999999
 40
0.8999999999999999
 40
0.8999999999999999
 40
1.0
 40
1.0
 40
1.0
 40
1.0
 10
0.66308
 20
-3.0434800000000002
 30
0.0
 10
0.7697600000000001
 20
-3.15524
 30
0.0
 10
0.8154800000000001
 20
-3.3863800000000004
 30
0.0
 10
0.6503800000000001
 20
-3.4752800000000001
 30
0.0
 10
0.6503800000000001
 20
-3.4752800000000001
 30
0.0
 10
0.6503800000000001
 20
-3.4752800000000001
 30
0.0
 10
0.61482
 20
-3.5260800000000003
 30
0.0
 10
0.61482
 20
-3.5260800000000003
 30
0.0
 10
0.61482
 20
-3.5260800000000003
 30
0.0
 10
0.61482
 20
-3.5260800000000003
 30
0.0
 10
0.5208400000000001
 20
-3.2263600000000001
 30
0.0
 10
0.5208400000000001
 20
-3.2263600000000001
 30
0.0
 10
0.5208400000000001
 20
-3.2263600000000001
 30
0.0
 10
0.48528
 20
-3.1958800000000003
 30
0.0
 10
0.4725800000000001
 20
-3.1603200000000005
 30
0.0
 10
0.4548
 20
-3.1196800000000002
 30
0.0
 10
0.4548
 20
-3.1196800000000002
 30
0.0
 10
0.4548
 20
-3.1196800000000002
 30
0.0
 10
0.44464
 20
-3.0841200000000004
 30
0.0
 10
0.44464
 20
-3.0841200000000004
 30
0.0
 10
0.44464
 20
-3.0841200000000004
 30
0.0
 10
0.44464
 20
-3.0841200000000004
 30
0.0
 10
0.5614800000000001
 20
-3.0536400000000001
 30
0.0
 10
0.5614800000000001
 20
-3.0536400000000001
 30
0.0
 10
0.5614800000000001
 20
-3.0536400000000001
 30
0.0
 10
0.6046600000000001
 20
-3.1425400000000003
 30
0.0
 10
0.6503800000000001
 20
-3.2390600000000003
 30
0.0
 10
0.70372
 20
-3.3203400000000003
 30
0.0
 10
0.70372
 20
-3.3203400000000003
 30
0.0
 10
0.7342000000000001
 20
-3.3025600000000002
 30
0.0
 10
0.6910200000000001
 20
-3.2670000000000003
 30
0.0
 10
0.70372
 20
-3.2390600000000003
 30
0.0
 10
0.70372
 20
-3.2390600000000003
 30
0.0
 10
0.70372
 20
-3.2390600000000003
 30
0.0
 10
0.6732400000000001
 20
-3.1425400000000003
 30
0.0
 10
0.6732400000000001
 20
-3.1425400000000003
 30
0.0
 10
0.6732400000000001
 20
-3.1425400000000003
 30
0.0
 10
0.66308
 20
-3.1146000000000003
 30
0.0
 10
0.61482
 20
-3.0485600000000002
 30
0.0
 10
0.66308
 20
-3.0434800000000002
 30
0.0
  0
SPLINE
  5
71
100
AcDbEntity
  8
Ebene 1
 62
     7
100
AcDbSpline
210
0.0
220
0.0
230
1.0
 70
     1
 71
     3
 72
    40
 73
    36
 74
     0
 42
0.0000000001
 43
0.0000000001
 40
0.0
 40
0.0
 40
0.0
 40
0.0
 40
0.1111111111111111
 40
0.1111111111111111
 40
0.1111111111111111
 40
0.1111111111111111
 40
0.2222222222222222
 40
0.2222222222222222
 40
0.2222222222222222
 40
0.2222222222222222
 40
0.3333333333333333
 40
0.3333333333333333
 40
0.3333333333333333
 40
0.3333333333333333
 40
0.4444444444444444
 40
0.4444444444444444
 40
0.4444444444444444
 40
0.4444444444444444
 40
0.5555555555555556
 40
0.5555555555555556
 40
0.5555555555555556
 40
0.5555555555555556
 40
0.6666666666666667
 40
0.6666666666666667
 40
0.6666666666666667
 40
0.6666666666666667
 40
0.7777777777777779
 40
0.7777777777777779
 40
0.7777777777777779
 40
0.7777777777777779
 40
0.8888888888888891
 40
0.8888888888888891
 40
0.8888888888888891
 40
0.8888888888888891
 40
1.0
 40
1.0
 40
1.0
 40
1.0
 10
0.3913
 20
-3.0892000000000004
 30
0.0
 10
0.3913
 20
-3.0892000000000004
 30
0.0
 10
0.5208400000000001
 20
-3.5438600000000005
 30
0.0
 10
0.5208400000000001
 20
-3.5438600000000005
 30
0.0
 10
0.5208400000000001
 20
-3.5438600000000005
 30
0.0
 10
0.4675
 20
-3.6581600000000001
 30
0.0
 10
0.33288
 20
-3.6683200000000005
 30
0.0
 10
0.23636
 20
-3.7343600000000001
 30
0.0
 10
0.23636
 20
-3.7343600000000001
 30
0.0
 10
0.15
 20
-3.6454600000000004
 30
0.0
 10
0.2135
 20
-3.5083000000000002
 30
0.0
 10
0.15508
 20
-3.4092400000000005
 30
0.0
 10
0.15508
 20
-3.4092400000000005
 30
0.0
 10
0.1373
 20
-3.3686000000000003
 30
0.0
 10
0.11952
 20
-3.3076400000000001
 30
0.0
 10
0.17286
 20
-3.2924000000000002
 30
0.0
 10
0.17286
 20
-3.2924000000000002
 30
0.0
 10
0.21858
 20
-3.2619200000000004
 30
0.0
 10
0.2262
 20
-3.1958800000000003
 30
0.0
 10
0.27192
 20
-3.1679400000000002
 30
0.0
 10
0.27192
 20
-3.1679400000000002
 30
0.0
 10
0.35066
 20
-3.2797000000000001
 30
0.0
 10
0.3557400000000001
 20
-3.4270200000000002
 30
0.0
 10
0.41416
 20
-3.5387800000000005
 30
0.0
 10
0.41416
 20
-3.5387800000000005
 30
0.0
 10
0.4548
 20
-3.5159200000000004
 30
0.0
 10
0.4090800000000001
 20
-3.4752800000000001
 30
0.0
 10
0.4192400000000001
 20
-3.4397200000000003
 30
0.0
 10
0.4192400000000001
 20
-3.4397200000000003
 30
0.0
 10
0.4192400000000001
 20
-3.3965400000000003
 30
0.0
 10
0.4192400000000001
 20
-3.3609800000000001
 30
0.0
 10
0.41416
 20
-3.3203400000000003
 30
0.0
 10
0.41416
 20
-3.3203400000000003
 30
0.0
 10
0.4090800000000001
 20
-3.2441400000000002
 30
0.0
 10
0.33288
 20
-3.15524
 30
0.0
 10
0.3913
 20
-3.0892000000000004
 30
0.0
  0
SPLINE
  5
72
100
AcDbEntity
  8
Ebene 1
 62
     7
100
AcDbSpline
210
0.0
220
0.0
230
1.0
 70
     1
 71
     3
 72
    40
 73
    36
 74
     0
 42
0.0000000001
 43
0.0000000001
 40
0.0
 40
0.0
 40
0.0
 40
0.0
 40
0.1111111111111111
 40
0.1111111111111111
 40
0.1111111111111111
 40
0.1111111111111111
 40
0.2222222222222222
 40
0.2222222222222222
 40
0.2222222222222222
 40
0.2222222222222222
 40
0.3333333333333333
 40
0.3333333333333333
 40
0.3333333333333333
 40
0.3333333333333333
 40
0.4444444444444444
 40
0.4444444444444444
 40
0.4444444444444444
 40
0.4444444444444444
 40
0.5555555555555556
 40
0.5555555555555556
 40
0.5555555555555556
 40
0.5555555555555556
 40
0.6666666666666667
 40
0.6666666666666667
 40
0.6666666666666667
 40
0.6666666666666667
 40
0.7777777777777779
 40
0.7777777777777779
 40
0.7777777777777779
 40
0.7777777777777779
 40
0.8888888888888891
 40
0.8888888888888891
 40
0.8888888888888891
 40
0.8888888888888891
 40
1.0
 40
1.0
 40
1.0
 40
1.0
 10
1.19648
 20
-3.2136600000000004
 30
0.0
 10
1.2269600000000001
 20
-3.3381200000000004
 30
0.0
 10
1.2523600000000001
 20
-3.3940000000000001
 30
0.0
 10
1.27014
 20
-3.5260800000000003
 30
0.0
 10
1.27014
 20
-3.5260800000000003
 30
0.0
 10
1.27776
 20
-3.5260800000000003
 30
0.0
 10
1.3031600000000001
 20
-3.5032200000000002
 30
0.0
 10
1.31332
 20
-3.4956000000000005
 30
0.0
 10
1.31332
 20
-3.4956000000000005
 30
0.0
 10
1.31332
 20
-3.3660600000000005
 30
0.0
 10
1.3234800000000002
 20
-3.2390600000000003
 30
0.0
 10
1.2218800000000001
 20
-3.1400000000000001
 30
0.0
 10
1.2218800000000001
 20
-3.1400000000000001
 30
0.0
 10
1.2218800000000001
 20
-3.1400000000000001
 30
0.0
 10
1.27776
 20
-3.1069800000000001
 30
0.0
 10
1.27776
 20
-3.1069800000000001
 30
0.0
 10
1.27776
 20
-3.1069800000000001
 30
0.0
 10
1.3895200000000001
 20
-3.2085800000000004
 30
0.0
 10
1.3768200000000002
 20
-3.3863800000000004
 30
0.0
 10
1.3539600000000001
 20
-3.5083000000000002
 30
0.0
 10
1.3539600000000001
 20
-3.5083000000000002
 30
0.0
 10
1.2650600000000001
 20
-3.5743400000000003
 30
0.0
 10
1.2066400000000002
 20
-3.6861000000000002
 30
0.0
 10
1.0923400000000001
 20
-3.7038800000000003
 30
0.0
 10
1.0923400000000001
 20
-3.7038800000000003
 30
0.0
 10
1.02376
 20
-3.5794200000000003
 30
0.0
 10
1.02884
 20
-3.4270200000000002
 30
0.0
 10
1.11266
 20
-3.3025600000000002
 30
0.0
 10
1.11266
 20
-3.3025600000000002
 30
0.0
 10
1.11266
 20
-3.3025600000000002
 30
0.0
 10
1.1583800000000002
 20
-3.3025600000000002
 30
0.0
 10
1.1583800000000002
 20
-3.3025600000000002
 30
0.0
 10
1.1583800000000002
 20
-3.3025600000000002
 30
0.0
 10
1.14568
 20
-3.2543000000000002
 30
0.0
 10
1.1558400000000002
 20
-3.2441400000000002
 30
0.0
 10
1.19648
 20
-3.2136600000000004
 30
0.0
  0
SPLINE
  5
73
100
AcDbEntity
  8
Ebene 1
 62
     7
100
AcDbSpline
210
0.0
220
0.0
230
1.0
 70
     1
 71
     3
 72
    28
 73
    24
 74
     0
 42
0.0000000001
 43
0.0000000001
 40
0.0
 40
0.0
 40
0.0
 40
0.0
 40
0.1666666666666667
 40
0.1666666666666667
 40
0.1666666666666667
 40
0.1666666666666667
 40
0.3333333333333333
 40
0.3333333333333333
 40
0.3333333333333333
 40
0.3333333333333333
 40
0.5
 40
0.5
 40
0.5
 40
0.5
 40
0.6666666666666666
 40
0.6666666666666666
 40
0.6666666666666666
 40
0.6666666666666666
 40
0.8333333333333333
 40
0.8333333333333333
 40
0.8333333333333333
 40
0.8333333333333333
 40
1.0
 40
1.0
 40
1.0
 40
1.0
 10
-0.20813
 20
-3.1857200000000003
 30
0.0
 10
-0.20813
 20
-3.1857200000000003
 30
0.0
 10
-0.15479
 20
-3.1857200000000003
 30
0.0
 10
-0.15479
 20
-3.1857200000000003
 30
0.0
 10
-0.15479
 20
-3.1857200000000003
 30
0.0
 10
-0.06081
 20
-3.3686000000000003
 30
0.0
 10
-0.04811
 20
-3.5743400000000003
 30
0.0
 10
-0.00239
 20
-3.7699200000000004
 30
0.0
 10
-0.00239
 20
-3.7699200000000004
 30
0.0
 10
-0.07351
 20
-3.7699200000000004
 30
0.0
 10
-0.11923
 20
-3.8410400000000005
 30
0.0
 10
-0.19035
 20
-3.8410400000000005
 30
0.0
 10
-0.19035
 20
-3.8410400000000005
 30
0.0
 10
-0.19035
 20
-3.8410400000000005
 30
0.0
 10
-0.25639
 20
-3.7978600000000005
 30
0.0
 10
-0.25639
 20
-3.7978600000000005
 30
0.0
 10
-0.25639
 20
-3.7978600000000005
 30
0.0
 10
-0.29195
 20
-3.6861000000000002
 30
0.0
 10
-0.31481
 20
-3.5743400000000003
 30
0.0
 10
-0.30973
 20
-3.4575000000000005
 30
0.0
 10
-0.30973
 20
-3.4575000000000005
 30
0.0
 10
-0.35037
 20
-3.3559000000000001
 30
0.0
 10
-0.31481
 20
-3.2263600000000001
 30
0.0
 10
-0.20813
 20
-3.1857200000000003
 30
0.0
  0
SPLINE
  5
74
100
AcDbEntity
  8
Ebene 1
 62
     7
100
AcDbSpline
210
0.0
220
0.0
230
1.0
 70
     1
 71
     3
 72
    24
 73
    20
 74
     0
 42
0.0000000001
 43
0.0000000001
 40
0.0
 40
0.0
 40
0.0
 40
0.0
 40
0.2
 40
0.2
 40
0.2
 40
0.2
 40
0.4
 40
0.4
 40
0.4
 40
0.4
 40
0.6000000000000001
 40
0.6000000000000001
 40
0.6000000000000001
 40
0.6000000000000001
 40
0.8
 40
0.8
 40
0.8
 40
0.8
 40
1.0
 40
1.0
 40
1.0
 40
1.0
 10
-0.02525
 20
-3.2390600000000003
 30
0.0
 10
0.05348
 20
-3.3736800000000002
 30
0.0
 10
0.12968
 20
-3.5337000000000005
 30
0.0
 10
0.08904
 20
-3.6937200000000003
 30
0.0
 10
0.08904
 20
-3.6937200000000003
 30
0.0
 10
0.07888
 20
-3.6810200000000002
 30
0.0
 10
0.0611
 20
-3.6759400000000002
 30
0.0
 10
0.0484
 20
-3.6937200000000003
 30
0.0
 10
0.0484
 20
-3.6937200000000003
 30
0.0
 10
0.04332
 20
-3.7115000000000005
 30
0.0
 10
0.04332
 20
-3.7343600000000001
 30
0.0
 10
0.02554
 20
-3.7394400000000001
 30
0.0
 10
0.02554
 20
-3.7394400000000001
 30
0.0
 10
0.01792
 20
-3.7394400000000001
 30
0.0
 10
0.00776
 20
-3.7267400000000004
 30
0.0
 10
0.00776
 20
-3.7216600000000004
 30
0.0
 10
0.00776
 20
-3.7216600000000004
 30
0.0
 10
0.0357
 20
-3.5514800000000002
 30
0.0
 10
-0.00747
 20
-3.4041600000000001
 30
0.0
 10
-0.02525
 20
-3.2390600000000003
 30
0.0
  0
SPLINE
  5
75
100
AcDbEntity
  8
Ebene 1
 62
     7
100
AcDbSpline
210
0.0
220
0.0
230
1.0
 70
     1
 71
     3
 72
    40
 73
    36
 74
     0
 42
0.0000000001
 43
0.0000000001
 40
0.0
 40
0.0
 40
0.0
 40
0.0
 40
0.1111111111111111
 40
0.1111111111111111
 40
0.1111111111111111
 40
0.1111111111111111
 40
0.2222222222222222
 40
0.2222222222222222
 40
0.2222222222222222
 40
0.2222222222222222
 40
0.3333333333333333
 40
0.3333333333333333
 40
0.3333333333333333
 40
0.3333333333333333
 40
0.4444444444444444
 40
0.4444444444444444
 40
0.4444444444444444
 40
0.4444444444444444
 40
0.5555555555555556
 40
0.5555555555555556
 40
0.5555555555555556
 40
0.5555555555555556
 40
0.6666666666666667
 40
0.6666666666666667
 40
0.6666666666666667
 40
0.6666666666666667
 40
0.7777777777777779
 40
0.7777777777777779
 40
0.7777777777777779
 40
0.7777777777777779
 40
0.8888888888888891
 40
0.8888888888888891
 40
0.8888888888888891
 40
0.8888888888888891
 40
1.0
 40
1.0
 40
1.0
 40
1.0
 10
1.5724
 20
-3.3076400000000001
 30
0.0
 10
1.5724
 20
-3.3736800000000002
 30
0.0
 10
1.48858
 20
-3.4448000000000003
 30
0.0
 10
1.5139800000000001
 20
-3.5210000000000004
 30
0.0
 10
1.5139800000000001
 20
-3.5210000000000004
 30
0.0
 10
1.4606400000000002
 20
-3.5743400000000003
 30
0.0
 10
1.4073000000000002
 20
-3.6403800000000004
 30
0.0
 10
1.4123800000000002
 20
-3.7216600000000004
 30
0.0
 10
1.4123800000000002
 20
-3.7216600000000004
 30
0.0
 10
1.2472800000000002
 20
-3.8105600000000002
 30
0.0
 10
1.1355200000000001
 20
-3.9655000000000005
 30
0.0
 10
0.9983600000000001
 20
-4.1001200000000004
 30
0.0
 10
0.9983600000000001
 20
-4.1001200000000004
 30
0.0
 10
0.9983600000000001
 20
-4.1001200000000004
 30
0.0
 10
0.9704200000000001
 20
-4.1052
 30
0.0
 10
0.9704200000000001
 20
-4.1052
 30
0.0
 10
0.9704200000000001
 20
-4.1052
 30
0.0
 10
0.9755
 20
-4.0163000000000002
 30
0.0
 10
0.912
 20
-4.1179000000000006
 30
0.0
 10
0.86882
 20
-4.1052
 30
0.0
 10
0.86882
 20
-4.1052
 30
0.0
 10
0.86882
 20
-4.1052
 30
0.0
 10
0.86882
 20
-4.0340800000000003
 30
0.0
 10
0.86882
 20
-4.0340800000000003
 30
0.0
 10
0.86882
 20
-4.0340800000000003
 30
0.0
 10
0.9882000000000001
 20
-4.0239200000000004
 30
0.0
 10
1.0339200000000002
 20
-3.9045400000000003
 30
0.0
 10
1.06948
 20
-3.8105600000000002
 30
0.0
 10
1.06948
 20
-3.8105600000000002
 30
0.0
 10
1.2244200000000001
 20
-3.8054800000000002
 30
0.0
 10
1.3311000000000002
 20
-3.6505400000000003
 30
0.0
 10
1.3946000000000001
 20
-3.5260800000000003
 30
0.0
 10
1.3946000000000001
 20
-3.5260800000000003
 30
0.0
 10
1.4962000000000002
 20
-3.5159200000000004
 30
0.0
 10
1.5012800000000002
 20
-3.3736800000000002
 30
0.0
 10
1.5724
 20
-3.3076400000000001
 30
0.0
  0
SPLINE
  5
76
100
AcDbEntity
  8
Ebene 1
 62
     7
100
AcDbSpline
210
0.0
220
0.0
230
1.0
 70
     1
 71
     3
 72
    28
 73
    24
 74
     0
 42
0.0000000001
 43
0.0000000001
 40
0.0
 40
0.0
 40
0.0
 40
0.0
 40
0.1666666666666667
 40
0.1666666666666667
 40
0.1666666666666667
 40
0.1666666666666667
 40
0.3333333333333333
 40
0.3333333333333333
 40
0.3333333333333333
 40
0.3333333333333333
 40
0.5
 40
0.5
 40
0.5
 40
0.5
 40
0.6666666666666666
 40
0.6666666666666666
 40
0.6666666666666666
 40
0.6666666666666666
 40
0.8333333333333333
 40
0.8333333333333333
 40
0.8333333333333333
 40
0.8333333333333333
 40
1.0
 40
1.0
 40
1.0
 40
1.0
 10
-1.04633
 20
-3.3203400000000003
 30
0.0
 10
-0.97267
 20
-3.3152600000000003
 30
0.0
 10
-0.95235
 20
-3.4041600000000001
 30
0.0
 10
-0.8710700000000001
 20
-3.3965400000000003
 30
0.0
 10
-0.8710700000000001
 20
-3.3965400000000003
 30
0.0
 10
-0.8710700000000001
 20
-3.3965400000000003
 30
0.0
 10
-0.80503
 20
-3.7927800000000005
 30
0.0
 10
-0.80503
 20
-3.7927800000000005
 30
0.0
 10
-0.80503
 20
-3.7927800000000005
 30
0.0
 10
-0.84821
 20
-3.8639000000000001
 30
0.0
 10
-0.88631
 20
-3.9528000000000003
 30
0.0
 10
-0.9777500000000001
 20
-3.9756600000000004
 30
0.0
 10
-0.9777500000000001
 20
-3.9756600000000004
 30
0.0
 10
-1.0209300000000001
 20
-3.9528000000000003
 30
0.0
 10
-1.0590300000000001
 20
-3.9477200000000003
 30
0.0
 10
-1.08697
 20
-3.9045400000000003
 30
0.0
 10
-1.08697
 20
-3.9045400000000003
 30
0.0
 10
-1.1098300000000001
 20
-3.7521400000000003
 30
0.0
 10
-1.1606300000000001
 20
-3.6099000000000001
 30
0.0
 10
-1.1530100000000001
 20
-3.4498800000000003
 30
0.0
 10
-1.1530100000000001
 20
-3.4498800000000003
 30
0.0
 10
-1.1530100000000001
 20
-3.4498800000000003
 30
0.0
 10
-1.04633
 20
-3.3203400000000003
 30
0.0
 10
-1.04633
 20
-3.3203400000000003
 30
0.0
  0
SPLINE
  5
77
100
AcDbEntity
  8
Ebene 1
 62
     7
100
AcDbSpline
210
0.0
220
0.0
230
1.0
 70
     1
 71
     3
 72
    32
 73
    28
 74
     0
 42
0.0000000001
 43
0.0000000001
 40
0.0
 40
0.0
 40
0.0
 40
0.0
 40
0.1428571428571429
 40
0.1428571428571429
 40
0.1428571428571429
 40
0.1428571428571429
 40
0.2857142857142857
 40
0.2857142857142857
 40
0.2857142857142857
 40
0.2857142857142857
 40
0.4285714285714286
 40
0.4285714285714286
 40
0.4285714285714286
 40
0.4285714285714286
 40
0.5714285714285714
 40
0.5714285714285714
 40
0.5714285714285714
 40
0.5714285714285714
 40
0.7142857142857142
 40
0.7142857142857142
 40
0.7142857142857142
 40
0.7142857142857142
 40
0.857142857142857
 40
0.857142857142857
 40
0.857142857142857
 40
0.857142857142857
 40
1.0
 40
1.0
 40
1.0
 40
1.0
 10
-0.6450100000000001
 20
-3.3203400000000003
 30
0.0
 10
-0.46213
 20
-3.3381200000000004
 30
0.0
 10
-0.4926100000000001
 20
-3.5514800000000002
 30
0.0
 10
-0.45197
 20
-3.6861000000000002
 30
0.0
 10
-0.45197
 20
-3.6861000000000002
 30
0.0
 10
-0.3859300000000001
 20
-3.7115000000000005
 30
0.0
 10
-0.44435
 20
-3.5692600000000003
 30
0.0
 10
-0.40879
 20
-3.5337000000000005
 30
0.0
 10
-0.40879
 20
-3.5337000000000005
 30
0.0
 10
-0.39101
 20
-3.6403800000000004
 30
0.0
 10
-0.33767
 20
-3.7572200000000002
 30
0.0
 10
-0.39101
 20
-3.8639000000000001
 30
0.0
 10
-0.39101
 20
-3.8639000000000001
 30
0.0
 10
-0.45197
 20
-3.9223200000000005
 30
0.0
 10
-0.5383300000000001
 20
-3.9477200000000003
 30
0.0
 10
-0.6196100000000001
 20
-3.9756600000000004
 30
0.0
 10
-0.6196100000000001
 20
-3.9756600000000004
 30
0.0
 10
-0.6196100000000001
 20
-3.9756600000000004
 30
0.0
 10
-0.6500900000000001
 20
-3.9655000000000005
 30
0.0
 10
-0.6500900000000001
 20
-3.9655000000000005
 30
0.0
 10
-0.6500900000000001
 20
-3.9655000000000005
 30
0.0
 10
-0.72375
 20
-3.7978600000000005
 30
0.0
 10
-0.74407
 20
-3.6099000000000001
 30
0.0
 10
-0.7516900000000001
 20
-3.4448000000000003
 30
0.0
 10
-0.7516900000000001
 20
-3.4448000000000003
 30
0.0
 10
-0.7516900000000001
 20
-3.4448000000000003
 30
0.0
 10
-0.6450100000000001
 20
-3.3203400000000003
 30
0.0
 10
-0.6450100000000001
 20
-3.3203400000000003
 30
0.0
  0
SPLINE
  5
78
100
AcDbEntity
  8
Ebene 1
 62
     7
100
AcDbSpline
210
0.0
220
0.0
230
1.0
 70
     1
 71
     3
 72
    28
 73
    24
 74
     0
 42
0.0000000001
 43
0.0000000001
 40
0.0
 40
0.0
 40
0.0
 40
0.0
 40
0.1666666666666667
 40
0.1666666666666667
 40
0.1666666666666667
 40
0.1666666666666667
 40
0.3333333333333333
 40
0.3333333333333333
 40
0.3333333333333333
 40
0.3333333333333333
 40
0.5
 40
0.5
 40
0.5
 40
0.5
 40
0.6666666666666666
 40
0.6666666666666666
 40
0.6666666666666666
 40
0.6666666666666666
 40
0.8333333333333333
 40
0.8333333333333333
 40
0.8333333333333333
 40
0.8333333333333333
 40
1.0
 40
1.0
 40
1.0
 40
1.0
 10
-1.3536700000000002
 20
-3.3736800000000002
 30
0.0
 10
-1.3536700000000002
 20
-3.3736800000000002
 30
0.0
 10
-1.3028700000000002
 20
-3.3914600000000004
 30
0.0
 10
-1.3028700000000002
 20
-3.3914600000000004
 30
0.0
 10
-1.3028700000000002
 20
-3.3914600000000004
 30
0.0
 10
-1.29271
 20
-3.4219400000000002
 30
0.0
 10
-1.29525
 20
-3.4498800000000003
 30
0.0
 10
-1.2723900000000001
 20
-3.4752800000000001
 30
0.0
 10
-1.2723900000000001
 20
-3.4752800000000001
 30
0.0
 10
-1.29271
 20
-3.6276800000000002
 30
0.0
 10
-1.17079
 20
-3.7927800000000005
 30
0.0
 10
-1.21397
 20
-3.9528000000000003
 30
0.0
 10
-1.21397
 20
-3.9528000000000003
 30
0.0
 10
-1.21397
 20
-3.9528000000000003
 30
0.0
 10
-1.2647700000000002
 20
-3.9477200000000003
 30
0.0
 10
-1.2647700000000002
 20
-3.9477200000000003
 30
0.0
 10
-1.2647700000000002
 20
-3.9477200000000003
 30
0.0
 10
-1.4019300000000001
 20
-3.8105600000000002
 30
0.0
 10
-1.4019300000000001
 20
-3.6149800000000001
 30
0.0
 10
-1.4019300000000001
 20
-3.4397200000000003
 30
0.0
 10
-1.4019300000000001
 20
-3.4397200000000003
 30
0.0
 10
-1.4019300000000001
 20
-3.4397200000000003
 30
0.0
 10
-1.3536700000000002
 20
-3.3736800000000002
 30
0.0
 10
-1.3536700000000002
 20
-3.3736800000000002
 30
0.0
  0
SPLINE
  5
79
100
AcDbEntity
  8
Ebene 1
 62
     7
100
AcDbSpline
210
0.0
220
0.0
230
1.0
 70
     1
 71
     3
 72
    24
 73
    20
 74
     0
 42
0.0000000001
 43
0.0000000001
 40
0.0
 40
0.0
 40
0.0
 40
0.0
 40
0.2
 40
0.2
 40
0.2
 40
0.2
 40
0.4
 40
0.4
 40
0.4
 40
0.4
 40
0.6000000000000001
 40
0.6000000000000001
 40
0.6000000000000001
 40
0.6000000000000001
 40
0.8
 40
0.8
 40
0.8
 40
0.8
 40
1.0
 40
1.0
 40
1.0
 40
1.0
 10
-1.6203700000000001
 20
-3.3787600000000002
 30
0.0
 10
-1.4527300000000001
 20
-3.4625800000000004
 30
0.0
 10
-1.50353
 20
-3.6759400000000002
 30
0.0
 10
-1.4501900000000001
 20
-3.8232600000000003
 30
0.0
 10
-1.4501900000000001
 20
-3.8232600000000003
 30
0.0
 10
-1.4908300000000001
 20
-3.8512000000000004
 30
0.0
 10
-1.50607
 20
-3.9223200000000005
 30
0.0
 10
-1.5619500000000002
 20
-3.9223200000000005
 30
0.0
 10
-1.5619500000000002
 20
-3.9223200000000005
 30
0.0
 10
-1.7092700000000001
 20
-3.8054800000000002
 30
0.0
 10
-1.6762500000000002
 20
-3.5921200000000004
 30
0.0
 10
-1.6610100000000001
 20
-3.4270200000000002
 30
0.0
 10
-1.6610100000000001
 20
-3.4270200000000002
 30
0.0
 10
-1.6381500000000002
 20
-3.4498800000000003
 30
0.0
 10
-1.6102100000000001
 20
-3.5159200000000004
 30
0.0
 10
-1.5670300000000001
 20
-3.4854400000000001
 30
0.0
 10
-1.5670300000000001
 20
-3.4854400000000001
 30
0.0
 10
-1.5746500000000001
 20
-3.4448000000000003
 30
0.0
 10
-1.62799
 20
-3.4270200000000002
 30
0.0
 10
-1.6203700000000001
 20
-3.3787600000000002
 30
0.0
  0
SPLINE
  5
7A
100
AcDbEntity
  8
Ebene 1
 62
     7
100
AcDbSpline
210
0.0
220
0.0
230
1.0
 70
     1
 71
     3
 72
    28
 73
    24
 74
     0
 42
0.0000000001
 43
0.0000000001
 40
0.0
 40
0.0
 40
0.0
 40
0.0
 40
0.1666666666666667
 40
0.1666666666666667
 40
0.1666666666666667
 40
0.1666666666666667
 40
0.3333333333333333
 40
0.3333333333333333
 40
0.3333333333333333
 40
0.3333333333333333
 40
0.5
 40
0.5
 40
0.5
 40
0.5
 40
0.6666666666666666
 40
0.6666666666666666
 40
0.6666666666666666
 40
0.6666666666666666
 40
0.8333333333333333
 40
0.8333333333333333
 40
0.8333333333333333
 40
0.8333333333333333
 40
1.0
 40
1.0
 40
1.0
 40
1.0
 10
0.8154800000000001
 20
-3.3965400000000003
 30
0.0
 10
0.86882
 20
-3.4041600000000001
 30
0.0
 10
0.8993000000000001
 20
-3.4625800000000004
 30
0.0
 10
0.95264
 20
-3.4498800000000003
 30
0.0
 10
0.95264
 20
-3.4498800000000003
 30
0.0
 10
0.9399400000000001
 20
-3.5743400000000003
 30
0.0
 10
0.95264
 20
-3.6937200000000003
 30
0.0
 10
0.9983600000000001
 20
-3.8054800000000002
 30
0.0
 10
0.9983600000000001
 20
-3.8054800000000002
 30
0.0
 10
0.9577200000000001
 20
-3.8512000000000004
 30
0.0
 10
0.912
 20
-3.9045400000000003
 30
0.0
 10
0.8586600000000001
 20
-3.9350200000000002
 30
0.0
 10
0.8586600000000001
 20
-3.9350200000000002
 30
0.0
 10
0.8586600000000001
 20
-3.9350200000000002
 30
0.0
 10
0.7697600000000001
 20
-3.9121600000000005
 30
0.0
 10
0.7697600000000001
 20
-3.9121600000000005
 30
0.0
 10
0.7697600000000001
 20
-3.9121600000000005
 30
0.0
 10
0.7748400000000001
 20
-3.7978600000000005
 30
0.0
 10
0.7392800000000001
 20
-3.7165800000000004
 30
0.0
 10
0.7392800000000001
 20
-3.6048200000000001
 30
0.0
 10
0.7392800000000001
 20
-3.6048200000000001
 30
0.0
 10
0.7926200000000001
 20
-3.5438600000000005
 30
0.0
 10
0.8332600000000001
 20
-3.4803600000000001
 30
0.0
 10
0.8154800000000001
 20
-3.3965400000000003
 30
0.0
  0
SPLINE
  5
7B
100
AcDbEntity
  8
Ebene 1
 62
     7
100
AcDbSpline
210
0.0
220
0.0
230
1.0
 70
     1
 71
     3
 72
    20
 73
    16
 74
     0
 42
0.0000000001
 43
0.0000000001
 40
0.0
 40
0.0
 40
0.0
 40
0.0
 40
0.25
 40
0.25
 40
0.25
 40
0.25
 40
0.5
 40
0.5
 40
0.5
 40
0.5
 40
0.75
 40
0.75
 40
0.75
 40
0.75
 40
1.0
 40
1.0
 40
1.0
 40
1.0
 10
-1.8032500000000002
 20
-3.4625800000000004
 30
0.0
 10
-1.8032500000000002
 20
-3.4625800000000004
 30
0.0
 10
-1.7753100000000002
 20
-3.4625800000000004
 30
0.0
 10
-1.7753100000000002
 20
-3.4625800000000004
 30
0.0
 10
-1.7753100000000002
 20
-3.4625800000000004
 30
0.0
 10
-1.71435
 20
-3.5438600000000005
 30
0.0
 10
-1.7346700000000002
 20
-3.6581600000000001
 30
0.0
 10
-1.7092700000000001
 20
-3.7521400000000003
 30
0.0
 10
-1.7092700000000001
 20
-3.7521400000000003
 30
0.0
 10
-1.7702300000000002
 20
-3.6759400000000002
 30
0.0
 10
-1.75753
 20
-3.5692600000000003
 30
0.0
 10
-1.8159500000000002
 20
-3.4981400000000002
 30
0.0
 10
-1.8159500000000002
 20
-3.4981400000000002
 30
0.0
 10
-1.8184900000000002
 20
-3.4803600000000001
 30
0.0
 10
-1.8108700000000002
 20
-3.4752800000000001
 30
0.0
 10
-1.8032500000000002
 20
-3.4625800000000004
 30
0.0
  0
SPLINE
  5
7C
100
AcDbEntity
  8
Ebene 1
 62
     7
100
AcDbSpline
210
0.0
220
0.0
230
1.0
 70
     1
 71
     3
 72
    28
 73
    24
 74
     0
 42
0.0000000001
 43
0.0000000001
 40
0.0
 40
0.0
 40
0.0
 40
0.0
 40
0.1666666666666667
 40
0.1666666666666667
 40
0.1666666666666667
 40
0.1666666666666667
 40
0.3333333333333333
 40
0.3333333333333333
 40
0.3333333333333333
 40
0.3333333333333333
 40
0.5
 40
0.5
 40
0.5
 40
0.5
 40
0.6666666666666666
 40
0.6666666666666666
 40
0.6666666666666666
 40
0.6666666666666666
 40
0.8333333333333333
 40
0.8333333333333333
 40
0.8333333333333333
 40
0.8333333333333333
 40
1.0
 40
1.0
 40
1.0
 40
1.0
 10
0.5386200000000001
 20
-3.6226000000000003
 30
0.0
 10
0.5386200000000001
 20
-3.6226000000000003
 30
0.0
 10
0.6097400000000001
 20
-3.6276800000000002
 30
0.0
 10
0.6097400000000001
 20
-3.6276800000000002
 30
0.0
 10
0.6097400000000001
 20
-3.6276800000000002
 30
0.0
 10
0.6681600000000001
 20
-3.7216600000000004
 30
0.0
 10
0.70372
 20
-3.8334200000000003
 30
0.0
 10
0.7164200000000001
 20
-3.9477200000000003
 30
0.0
 10
0.7164200000000001
 20
-3.9477200000000003
 30
0.0
 10
0.658
 20
-4.1052
 30
0.0
 10
0.49036
 20
-4.2245800000000004
 30
0.0
 10
0.3252600000000001
 20
-4.2372800000000002
 30
0.0
 10
0.3252600000000001
 20
-4.2372800000000002
 30
0.0
 10
0.3252600000000001
 20
-4.2372800000000002
 30
0.0
 10
0.26684
 20
-4.2118800000000007
 30
0.0
 10
0.26684
 20
-4.2118800000000007
 30
0.0
 10
0.26684
 20
-4.2118800000000007
 30
0.0
 10
0.23636
 20
-4.0772600000000008
 30
0.0
 10
0.28462
 20
-3.9477200000000003
 30
0.0
 10
0.27192
 20
-3.8105600000000002
 30
0.0
 10
0.27192
 20
-3.8105600000000002
 30
0.0
 10
0.37352
 20
-3.7750000000000004
 30
0.0
 10
0.4725800000000001
 20
-3.7115000000000005
 30
0.0
 10
0.5386200000000001
 20
-3.6226000000000003
 30
0.0
  0
SPLINE
  5
7D
100
AcDbEntity
  8
Ebene 1
 62
     7
100
AcDbSpline
210
0.0
220
0.0
230
1.0
 70
     1
 71
     3
 72
    20
 73
    16
 74
     0
 42
0.0000000001
 43
0.0000000001
 40
0.0
 40
0.0
 40
0.0
 40
0.0
 40
0.25
 40
0.25
 40
0.25
 40
0.25
 40
0.5
 40
0.5
 40
0.5
 40
0.5
 40
0.75
 40
0.75
 40
0.75
 40
0.75
 40
1.0
 40
1.0
 40
1.0
 40
1.0
 10
-1.7016500000000001
 20
-3.9045400000000003
 30
0.0
 10
-1.7016500000000001
 20
-3.9045400000000003
 30
0.0
 10
-1.5848100000000001
 20
-4.0061400000000003
 30
0.0
 10
-1.5848100000000001
 20
-4.0061400000000003
 30
0.0
 10
-1.5848100000000001
 20
-4.0061400000000003
 30
0.0
 10
-1.5848100000000001
 20
-4.0061400000000003
 30
0.0
 10
-1.6127500000000001
 20
-4.1661600000000005
 30
0.0
 10
-1.6127500000000001
 20
-4.1661600000000005
 30
0.0
 10
-1.6127500000000001
 20
-4.1661600000000005
 30
0.0
 10
-1.6508500000000002
 20
-4.0874200000000007
 30
0.0
 10
-1.6178300000000001
 20
-3.9832800000000002
 30
0.0
 10
-1.6940300000000001
 20
-3.9299400000000002
 30
0.0
 10
-1.6940300000000001
 20
-3.9299400000000002
 30
0.0
 10
-1.6940300000000001
 20
-3.9299400000000002
 30
0.0
 10
-1.7016500000000001
 20
-3.9045400000000003
 30
0.0
 10
-1.7016500000000001
 20
-3.9045400000000003
 30
0.0
  0
SPLINE
  5
7E
100
AcDbEntity
  8
Ebene 1
 62
     7
100
AcDbSpline
210
0.0
220
0.0
230
1.0
 70
     1
 71
     3
 72
    36
 73
    32
 74
     0
 42
0.0000000001
 43
0.0000000001
 40
0.0
 40
0.0
 40
0.0
 40
0.0
 40
0.125
 40
0.125
 40
0.125
 40
0.125
 40
0.25
 40
0.25
 40
0.25
 40
0.25
 40
0.375
 40
0.375
 40
0.375
 40
0.375
 40
0.5
 40
0.5
 40
0.5
 40
0.5
 40
0.625
 40
0.625
 40
0.625
 40
0.625
 40
0.75
 40
0.75
 40
0.75
 40
0.75
 40
0.875
 40
0.875
 40
0.875
 40
0.875
 40
1.0
 40
1.0
 40
1.0
 40
1.0
 10
-0.02525
 20
-3.9477200000000003
 30
0.0
 10
-0.02525
 20
-3.9477200000000003
 30
0.0
 10
0.00776
 20
-3.9477200000000003
 30
0.0
 10
0.00776
 20
-3.9477200000000003
 30
0.0
 10
0.00776
 20
-3.9477200000000003
 30
0.0
 10
0.11952
 20
-4.0594800000000006
 30
0.0
 10
0.2135
 20
-4.22966
 30
0.0
 10
0.1246
 20
-4.3769800000000005
 30
0.0
 10
0.1246
 20
-4.3769800000000005
 30
0.0
 10
0.1246
 20
-4.3185600000000006
 30
0.0
 10
0.1246
 20
-4.1763200000000005
 30
0.0
 10
0.05348
 20
-4.2068000000000003
 30
0.0
 10
0.05348
 20
-4.2068000000000003
 30
0.0
 10
0.05348
 20
-4.22966
 30
0.0
 10
0.05348
 20
-4.2525200000000005
 30
0.0
 10
0.0611
 20
-4.2703000000000007
 30
0.0
 10
0.0611
 20
-4.2703000000000007
 30
0.0
 10
0.08396
 20
-4.3592000000000004
 30
0.0
 10
0.10174
 20
-4.5243000000000002
 30
0.0
 10
-0.04303
 20
-4.4963600000000001
 30
0.0
 10
-0.04303
 20
-4.4963600000000001
 30
0.0
 10
-0.04303
 20
-4.3363400000000007
 30
0.0
 10
-0.03795
 20
-4.1407600000000002
 30
0.0
 10
-0.13193
 20
-3.9883600000000001
 30
0.0
 10
-0.13193
 20
-3.9883600000000001
 30
0.0
 10
-0.08367
 20
-3.9401000000000002
 30
0.0
 10
-0.09129
 20
-3.9985200000000005
 30
0.0
 10
-0.05573
 20
-3.9934400000000005
 30
0.0
 10
-0.05573
 20
-3.9934400000000005
 30
0.0
 10
-0.05573
 20
-3.9934400000000005
 30
0.0
 10
-0.02525
 20
-3.9477200000000003
 30
0.0
 10
-0.02525
 20
-3.9477200000000003
 30
0.0
  0
SPLINE
  5
7F
100
AcDbEntity
  8
Ebene 1
 62
     7
100
AcDbSpline
210
0.0
220
0.0
230
1.0
 70
     1
 71
     3
 72
    36
 73
    32
 74
     0
 42
0.0000000001
 43
0.0000000001
 40
0.0
 40
0.0
 40
0.0
 40
0.0
 40
0.125
 40
0.125
 40
0.125
 40
0.125
 40
0.25
 40
0.25
 40
0.25
 40
0.25
 40
0.375
 40
0.375
 40
0.375
 40
0.375
 40
0.5
 40
0.5
 40
0.5
 40
0.5
 40
0.625
 40
0.625
 40
0.625
 40
0.625
 40
0.75
 40
0.75
 40
0.75
 40
0.75
 40
0.875
 40
0.875
 40
0.875
 40
0.875
 40
1.0
 40
1.0
 40
1.0
 40
1.0
 10
-0.38085
 20
-3.9883600000000001
 30
0.0
 10
-0.15479
 20
-3.9985200000000005
 30
0.0
 10
-0.15479
 20
-4.2703000000000007
 30
0.0
 10
-0.13701
 20
-4.4379400000000002
 30
0.0
 10
-0.13701
 20
-4.4379400000000002
 30
0.0
 10
-0.15479
 20
-4.4608000000000008
 30
0.0
 10
-0.18527
 20
-4.48874
 30
0.0
 10
-0.21575
 20
-4.5014400000000006
 30
0.0
 10
-0.21575
 20
-4.5014400000000006
 30
0.0
 10
-0.23861
 20
-4.4709600000000007
 30
0.0
 10
-0.19797
 20
-4.4430200000000006
 30
0.0
 10
-0.21575
 20
-4.4125400000000008
 30
0.0
 10
-0.21575
 20
-4.4125400000000008
 30
0.0
 10
-0.20813
 20
-4.3363400000000007
 30
0.0
 10
-0.20813
 20
-4.2652200000000002
 30
0.0
 10
-0.25639
 20
-4.2068000000000003
 30
0.0
 10
-0.25639
 20
-4.2068000000000003
 30
0.0
 10
-0.25639
 20
-4.1839400000000007
 30
0.0
 10
-0.27925
 20
-4.1712400000000001
 30
0.0
 10
-0.29703
 20
-4.1763200000000005
 30
0.0
 10
-0.29703
 20
-4.1763200000000005
 30
0.0
 10
-0.29703
 20
-4.2957000000000001
 30
0.0
 10
-0.19797
 20
-4.5598600000000005
 30
0.0
 10
-0.40371
 20
-4.5598600000000005
 30
0.0
 10
-0.40371
 20
-4.5598600000000005
 30
0.0
 10
-0.5586500000000001
 20
-4.4658800000000003
 30
0.0
 10
-0.48753
 20
-4.2474400000000001
 30
0.0
 10
-0.55103
 20
-4.1001200000000004
 30
0.0
 10
-0.55103
 20
-4.1001200000000004
 30
0.0
 10
-0.48753
 20
-4.0874200000000007
 30
0.0
 10
-0.4265700000000001
 20
-4.0239200000000004
 30
0.0
 10
-0.38085
 20
-3.9883600000000001
 30
0.0
  0
SPLINE
  5
80
100
AcDbEntity
  8
Ebene 1
 62
     7
100
AcDbSpline
210
0.0
220
0.0
230
1.0
 70
     1
 71
     3
 72
    28
 73
    24
 74
     0
 42
0.0000000001
 43
0.0000000001
 40
0.0
 40
0.0
 40
0.0
 40
0.0
 40
0.1666666666666667
 40
0.1666666666666667
 40
0.1666666666666667
 40
0.1666666666666667
 40
0.3333333333333333
 40
0.3333333333333333
 40
0.3333333333333333
 40
0.3333333333333333
 40
0.5
 40
0.5
 40
0.5
 40
0.5
 40
0.6666666666666666
 40
0.6666666666666666
 40
0.6666666666666666
 40
0.6666666666666666
 40
0.8333333333333333
 40
0.8333333333333333
 40
0.8333333333333333
 40
0.8333333333333333
 40
1.0
 40
1.0
 40
1.0
 40
1.0
 10
-0.82281
 20
-4.0163000000000002
 30
0.0
 10
-0.6704100000000001
 20
-4.0823400000000003
 30
0.0
 10
-0.5459500000000001
 20
-4.2525200000000005
 30
0.0
 10
-0.55103
 20
-4.4252400000000005
 30
0.0
 10
-0.55103
 20
-4.4252400000000005
 30
0.0
 10
-0.52817
 20
-4.4608000000000008
 30
0.0
 10
-0.5205500000000001
 20
-4.5065200000000001
 30
0.0
 10
-0.5154700000000001
 20
-4.5497000000000005
 30
0.0
 10
-0.5154700000000001
 20
-4.5497000000000005
 30
0.0
 10
-0.5154700000000001
 20
-4.5497000000000005
 30
0.0
 10
-0.6881900000000001
 20
-4.6386000000000003
 30
0.0
 10
-0.6881900000000001
 20
-4.6386000000000003
 30
0.0
 10
-0.6881900000000001
 20
-4.6386000000000003
 30
0.0
 10
-0.6881900000000001
 20
-4.6386000000000003
 30
0.0
 10
-0.8101100000000001
 20
-4.5598600000000005
 30
0.0
 10
-0.8101100000000001
 20
-4.5598600000000005
 30
0.0
 10
-0.8101100000000001
 20
-4.5598600000000005
 30
0.0
 10
-0.8837700000000001
 20
-4.4074600000000004
 30
0.0
 10
-0.9193300000000001
 20
-4.2525200000000005
 30
0.0
 10
-0.9167900000000001
 20
-4.0772600000000008
 30
0.0
 10
-0.9167900000000001
 20
-4.0772600000000008
 30
0.0
 10
-0.9167900000000001
 20
-4.0772600000000008
 30
0.0
 10
-0.82281
 20
-4.0163000000000002
 30
0.0
 10
-0.82281
 20
-4.0163000000000002
 30
0.0
  0
SPLINE
  5
81
100
AcDbEntity
  8
Ebene 1
100
AcDbSpline
210
0.0
220
0.0
230
1.0
 70
     1
 71
     3
 72
    20
 73
    16
 74
     0
 42
0.0000000001
 43
0.0000000001
 40
0.0
 40
0.0
 40
0.0
 40
0.0
 40
0.25
 40
0.25
 40
0.25
 40
0.25
 40
0.5
 40
0.5
 40
0.5
 40
0.5
 40
0.75
 40
0.75
 40
0.75
 40
0.75
 40
1.0
 40
1.0
 40
1.0
 40
1.0
 10
-0.21575
 20
-4.8087800000000005
 30
0.0
 10
-0.14971
 20
-4.81386
 30
0.0
 10
-0.04811
 20
-4.8087800000000005
 30
0.0
 10
-0.02017
 20
-4.8672000000000004
 30
0.0
 10
-0.02017
 20
-4.8672000000000004
 30
0.0
 10
-0.45705
 20
-4.7198800000000007
 30
0.0
 10
-0.95235
 20
-5.1796200000000008
 30
0.0
 10
-0.7745500000000001
 20
-5.6063400000000003
 30
0.0
 10
-0.7745500000000001
 20
-5.6063400000000003
 30
0.0
 10
-0.7897900000000001
 20
-5.6063400000000003
 30
0.0
 10
-0.7999500000000001
 20
-5.5936400000000006
 30
0.0
 10
-0.8101100000000001
 20
-5.5885600000000002
 30
0.0
 10
-0.8101100000000001
 20
-5.5885600000000002
 30
0.0
 10
-0.9777500000000001
 20
-5.2101000000000006
 30
0.0
 10
-0.59167
 20
-4.7960800000000008
 30
0.0
 10
-0.21575
 20
-4.8087800000000005
 30
0.0
  0
SPLINE
  5
82
100
AcDbEntity
  8
Ebene 1
100
AcDbSpline
210
0.0
220
0.0
230
1.0
 70
     1
 71
     3
 72
    44
 73
    40
 74
     0
 42
0.0000000001
 43
0.0000000001
 40
0.0
 40
0.0
 40
0.0
 40
0.0
 40
0.1
 40
0.1
 40
0.1
 40
0.1
 40
0.2
 40
0.2
 40
0.2
 40
0.2
 40
0.3
 40
0.3
 40
0.3
 40
0.3
 40
0.4
 40
0.4
 40
0.4
 40
0.4
 40
0.5
 40
0.5
 40
0.5
 40
0.5
 40
0.6
 40
0.6
 40
0.6
 40
0.6
 40
0.7
 40
0.7
 40
0.7
 40
0.7
 40
0.7999999999999999
 40
0.7999999999999999
 40
0.7999999999999999
 40
0.7999999999999999
 40
0.8999999999999999
 40
0.8999999999999999
 40
0.8999999999999999
 40
0.8999999999999999
 40
1.0
 40
1.0
 40
1.0
 40
1.0
 10
-0.16749
 20
-5.1034200000000007
 30
0.0
 10
-0.10907
 20
-5.0983400000000003
 30
0.0
 10
0.00268
 20
-5.11104
 30
0.0
 10
-0.02017
 20
-5.1923200000000005
 30
0.0
 10
-0.02017
 20
-5.1923200000000005
 30
0.0
 10
0.09666
 20
-5.2583600000000006
 30
0.0
 10
0.11952
 20
-5.4107600000000007
 30
0.0
 10
0.17286
 20
-5.5301400000000003
 30
0.0
 10
0.17286
 20
-5.5301400000000003
 30
0.0
 10
0.17286
 20
-5.5403000000000002
 30
0.0
 10
0.16016
 20
-5.5479200000000004
 30
0.0
 10
0.15508
 20
-5.5580800000000004
 30
0.0
 10
0.15508
 20
-5.5580800000000004
 30
0.0
 10
0.08904
 20
-5.5530000000000008
 30
0.0
 10
0.02554
 20
-5.5301400000000003
 30
0.0
 10
-0.02525
 20
-5.4869600000000007
 30
0.0
 10
-0.02525
 20
-5.4869600000000007
 30
0.0
 10
-0.06843
 20
-5.5123600000000001
 30
0.0
 10
-0.12685
 20
-5.5225200000000001
 30
0.0
 10
-0.17257
 20
-5.49458
 30
0.0
 10
-0.17257
 20
-5.49458
 30
0.0
 10
-0.25639
 20
-5.5758600000000005
 30
0.0
 10
-0.35545
 20
-5.49458
 30
0.0
 10
-0.43419
 20
-5.4590200000000006
 30
0.0
 10
-0.43419
 20
-5.4590200000000006
 30
0.0
 10
-0.46213
 20
-5.5809400000000009
 30
0.0
 10
-0.57389
 20
-5.6876200000000008
 30
0.0
 10
-0.7085100000000001
 20
-5.6114200000000007
 30
0.0
 10
-0.7085100000000001
 20
-5.6114200000000007
 30
0.0
 10
-0.76185
 20
-5.5758600000000005
 30
0.0
 10
-0.7491500000000001
 20
-5.4590200000000006
 30
0.0
 10
-0.6881900000000001
 20
-5.4818800000000003
 30
0.0
 10
-0.6881900000000001
 20
-5.4818800000000003
 30
0.0
 10
-0.72121
 20
-5.3294800000000002
 30
0.0
 10
-0.57389
 20
-5.2583600000000006
 30
0.0
 10
-0.45705
 20
-5.2278800000000007
 30
0.0
 10
-0.45705
 20
-5.2278800000000007
 30
0.0
 10
-0.4392700000000001
 20
-5.0856400000000006
 30
0.0
 10
-0.25639
 20
-5.1567600000000002
 30
0.0
 10
-0.16749
 20
-5.1034200000000007
 30
0.0
  0
ENDSEC
  0
SECTION
  2
OBJECTS
  0
DICTIONARY
  5
19
100
AcDbDictionary
280
     0
281
     1
  3
ACAD_GROUP
350
1A
  3
ACAD_MLINESTYLE
350
1B
  3
ACAD_LAYOUT
350
1E
  3
ACAD_PLOTSETTINGS
350
22
  3
ACAD_PLOTSTYLENAME
350
1F
  3
ACAD_WIPEOUT_VARS
350
23
  0
DICTIONARY
  5
1A
102
{ACAD_REACTORS
330
19
102
}
100
AcDbDictionary
280
     0
281
     1
  0
DICTIONARY
  5
1B
102
{ACAD_REACTORS
330
19
102
}
100
AcDbDictionary
280
     0
281
     1
  3
Standard
350
1C
  0
MLINESTYLE
  5
1C
102
{ACAD_REACTORS
330
1B
102
}
100
AcDbMlineStyle
  2
Standard
 70
     0
  3

 62
     0
 51
90.0
 52
90.0
 71
     2
 49
0.5
 62
   256
  6
BYLAYER
 49
-0.5
 62
   256
  6
BYLAYER
  0
ACDBDICTIONARYWDFLT
  5
1F
102
{ACAD_REACTORS
330
19
102
}
100
AcDbDictionary
281
     1
  3
Normal
350
1D
100
AcDbDictionaryWithDefault
340
1D
  0
ACDBPLACEHOLDER
  5
1D
102
{ACAD_REACTORS
330
1F
102
}
  0
LAYOUT
  5
20
102
{ACAD_REACTORS
330
1E
102
}
100
AcDbPlotSettings
  1

  2

  4

  6

 40
0.0
 41
0.0
 42
0.0
 43
0.0
 44
0.0
 45
0.0
 46
0.0
 47
0.0
 48
0.0
 49
0.0
140
0.0
141
0.0
142
1.0
143
1.0
 70
  1024
 72
     0
 73
     0
 74
     0
  7

 75
     0
147
1.0
148
0.0
149
0.0
100
AcDbLayout
  1
Model
 70
     0
 71
     0
 10
0.0
 20
0.0
 11
0.0
 21
0.0
 12
0.0
 22
0.0
 32
0.0
 14
0.0
 24
0.0
 34
0.0
 15
0.0
 25
0.0
 35
0.0
146
0.0
 13
0.0
 23
0.0
 33
0.0
 16
0.0
 26
0.0
 36
0.0
 17
0.0
 27
0.0
 37
0.0
 76
     0
330
A
331
0
345
0
346
0
  0
LAYOUT
  5
21
102
{ACAD_REACTORS
330
1E
102
}
100
AcDbPlotSettings
  1

  2

  4

  6

 40
0.0
 41
0.0
 42
0.0
 43
0.0
 44
0.0
 45
0.0
 46
0.0
 47
0.0
 48
0.0
 49
0.0
140
0.0
141
0.0
142
1.0
143
1.0
 70
     0
 72
     0
 73
     0
 74
     0
  7

 75
     0
147
1.0
148
0.0
149
0.0
100
AcDbLayout
  1
Layout1
 70
     0
 71
     0
 10
0.0
 20
0.0
 11
0.0
 21
0.0
 12
0.0
 22
0.0
 32
0.0
 14
0.0
 24
0.0
 34
0.0
 15
0.0
 25
0.0
 35
0.0
146
0.0
 13
0.0
 23
0.0
 33
0.0
 16
0.0
 26
0.0
 36
0.0
 17
0.0
 27
0.0
 37
0.0
 76
     0
330
B
331
0
345
0
346
0
  0
DICTIONARY
  5
1E
102
{ACAD_REACTORS
330
19
102
}
100
AcDbDictionary
280
     0
281
     1
  3
Layout1
350
21
  3
Model
350
20
  0
DICTIONARY
  5
22
102
{ACAD_REACTORS
330
19
102
}
100
AcDbDictionary
280
     0
281
     1
  0
WIPEOUTVARIABLES
  5
23
100
AcDbWipeoutVariables
 70
     1
  0
ENDSEC
  0
EOF
