  0
SECTION
  2
HEADER
  9
$ACADVER
  1
AC1015
  9
$ACADMAINTVER
 70
     6
  9
$DWGCODEPAGE
  3
DOS850
  9
$INSBASE
 10
0.0
 20
0.0
 30
0.0
  9
$EXTMIN
 10
-4.41841
 20
-6.78998
 30
1.000000E+20
  9
$EXTMAX
 10
4.42314
 20
6.78377
 30
-1.000000E+20
  9
$LIMMIN
 10
0.0
 20
0.0
  9
$LIMMAX
 10
0.0
 20
0.0
  9
$ORTHOMODE
 70
     0
  9
$REGENMODE
 70
     1
  9
$FILLMODE
 70
     1
  9
$QTEXTMODE
 70
     0
  9
$MIRRTEXT
 70
     1
  9
$LTSCALE
 40
1.0
  9
$ATTMODE
 70
     1
  9
$TEXTSIZE
 40
0.2
  9
$TRACEWID
 40
0.05
  9
$TEXTSTYLE
  7
Standard
  9
$CLAYER
  8
0
  9
$CELTYPE
  6
Continuous
  9
$CECOLOR
 62
   256
  9
$CELTSCALE
 40
1.0
  9
$DISPSILH
 70
     0
  9
$DIMSCALE
 40
1.0
  9
$DIMASZ
 40
0.18
  9
$DIMEXO
 40
0.0625
  9
$DIMDLI
 40
0.38
  9
$DIMRND
 40
0.0
  9
$DIMDLE
 40
0.0
  9
$DIMEXE
 40
0.18
  9
$DIMTP
 40
0.0
  9
$DIMTM
 40
0.0
  9
$DIMTXT
 40
0.18
  9
$DIMCEN
 40
0.09
  9
$DIMTSZ
 40
0.0
  9
$DIMTOL
 70
     0
  9
$DIMLIM
 70
     0
  9
$DIMTIH
 70
     1
  9
$DIMTOH
 70
     1
  9
$DIMSE1
 70
     0
  9
$DIMSE2
 70
     0
  9
$DIMTAD
 70
     0
  9
$DIMZIN
 70
     0
  9
$DIMBLK
  1

  9
$DIMASO
 70
     1
  9
$DIMSHO
 70
     1
  9
$DIMPOST
  1

  9
$DIMAPOST
  1

  9
$DIMALT
 70
     0
  9
$DIMALTD
 70
     2
  9
$DIMALTF
 40
25.4
  9
$DIMLFAC
 40
1.0
  9
$DIMTOFL
 70
     0
  9
$DIMTVP
 40
0.0
  9
$DIMTIX
 70
     0
  9
$DIMSOXD
 70
     0
  9
$DIMSAH
 70
     0
  9
$DIMBLK1
  1

  9
$DIMBLK2
  1

  9
$DIMSTYLE
  2
Standard
  9
$DIMCLRD
 70
     0
  9
$DIMCLRE
 70
     0
  9
$DIMCLRT
 70
     0
  9
$DIMTFAC
 40
1.0
  9
$DIMGAP
 40
0.09
  9
$DIMJUST
 70
     0
  9
$DIMSD1
 70
     0
  9
$DIMSD2
 70
     0
  9
$DIMTOLJ
 70
     1
  9
$DIMTZIN
 70
     0
  9
$DIMALTZ
 70
     0
  9
$DIMALTTZ
 70
     0
  9
$DIMUPT
 70
     0
  9
$DIMDEC
 70
     4
  9
$DIMTDEC
 70
     4
  9
$DIMALTU
 70
     2
  9
$DIMALTTD
 70
     2
  9
$DIMTXSTY
  7
Standard
  9
$DIMAUNIT
 70
     0
  9
$DIMADEC
 70
     0
  9
$DIMALTRND
 40
0.0
  9
$DIMAZIN
 70
     0
  9
$DIMDSEP
 70
     0
  9
$DIMATFIT
 70
     3
  9
$DIMFRAC
 70
     0
  9
$DIMLDRBLK
  1

  9
$DIMLUNIT
 70
     2
  9
$DIMLWD
 70
     0
  9
$DIMLWE
 70
     0
  9
$DIMTMOVE
 70
     0
  9
$LUNITS
 70
     2
  9
$LUPREC
 70
     4
  9
$SKETCHINC
 40
0.1
  9
$FILLETRAD
 40
0.0
  9
$AUNITS
 70
     0
  9
$AUPREC
 70
     0
  9
$MENU
  1
acad
  9
$ELEVATION
 40
0.0
  9
$PELEVATION
 40
0.0
  9
$THICKNESS
 40
0.0
  9
$LIMCHECK
 70
     0
  9
$CHAMFERA
 40
0.0
  9
$CHAMFERB
 40
0.0
  9
$CHAMFERC
 40
0.0
  9
$CHAMFERD
 40
0.0
  9
$SKPOLY
 70
     0
  9
$TDCREATE
 40
0.000000000
  9
$TDUCREATE
 40
0.000000000
  9
$TDUPDATE
 40
0.000000000
  9
$TDUUPDATE
 40
0.000000000
  9
$TDINDWG
 40
0.0000000000
  9
$TDUSRTIMER
 40
0.0000000000
  9
$USRTIMER
 70
     1
  9
$ANGBASE
 50
0.0
  9
$ANGDIR
 70
     0
  9
$PDMODE
 70
     0
  9
$PDSIZE
 40
0.0
  9
$PLINEWID
 40
0.0
  9
$SPLFRAME
 70
     0
  9
$SPLINETYPE
 70
     6
  9
$SPLINESEGS
 70
     8
  9
$HANDSEED
  5
9E
  9
$SURFTAB1
 70
     6
  9
$SURFTAB2
 70
     6
  9
$SURFTYPE
 70
     6
  9
$SURFU
 70
     6
  9
$SURFV
 70
     6
  9
$UCSBASE
  2

  9
$UCSNAME
  2

  9
$UCSORG
 10
0.0
 20
0.0
 30
0.0
  9
$UCSXDIR
 10
1.0
 20
0.0
 30
0.0
  9
$UCSYDIR
 10
0.0
 20
1.0
 30
0.0
  9
$UCSORTHOREF
  2

  9
$UCSORTHOVIEW
 70
     0
  9
$UCSORGTOP
 10
0.0
 20
0.0
 30
0.0
  9
$UCSORGBOTTOM
 10
0.0
 20
0.0
 30
0.0
  9
$UCSORGLEFT
 10
0.0
 20
0.0
 30
0.0
  9
$UCSORGRIGHT
 10
0.0
 20
0.0
 30
0.0
  9
$UCSORGFRONT
 10
0.0
 20
0.0
 30
0.0
  9
$UCSORGBACK
 10
0.0
 20
0.0
 30
0.0
  9
$PUCSBASE
  2

  9
$PUCSNAME
  2

  9
$PUCSORG
 10
0.0
 20
0.0
 30
0.0
  9
$PUCSXDIR
 10
1.0
 20
0.0
 30
0.0
  9
$PUCSYDIR
 10
0.0
 20
1.0
 30
0.0
  9
$PUCSORTHOREF
  2

  9
$PUCSORTHOVIEW
 70
     0
  9
$PUCSORGTOP
 10
0.0
 20
0.0
 30
0.0
  9
$PUCSORGBOTTOM
 10
0.0
 20
0.0
 30
0.0
  9
$PUCSORGLEFT
 10
0.0
 20
0.0
 30
0.0
  9
$PUCSORGRIGHT
 10
0.0
 20
0.0
 30
0.0
  9
$PUCSORGFRONT
 10
0.0
 20
0.0
 30
0.0
  9
$PUCSORGBACK
 10
0.0
 20
0.0
 30
0.0
  9
$USERI1
 70
     0
  9
$USERI2
 70
     0
  9
$USERI3
 70
     0
  9
$USERI4
 70
     0
  9
$USERI5
 70
     0
  9
$USERR1
 40
0.0
  9
$USERR2
 40
0.0
  9
$USERR3
 40
0.0
  9
$USERR4
 40
0.0
  9
$USERR5
 40
0.0
  9
$WORLDVIEW
 70
     1
  9
$SHADEDGE
 70
     3
  9
$SHADEDIF
 70
    70
  9
$TILEMODE
 70
     1
  9
$MAXACTVP
 70
    16
  9
$PINSBASE
 10
0.0
 20
0.0
 30
0.0
  9
$PLIMCHECK
 70
     0
  9
$PEXTMIN
 10
1.000000E+20
 20
1.000000E+20
 30
1.000000E+20
  9
$PEXTMAX
 10
-1.000000E+20
 20
-1.000000E+20
 30
-1.000000E+20
  9
$PLIMMIN
 10
0.0
 20
0.0
  9
$PLIMMAX
 10
12.0
 20
9.0
  9
$UNITMODE
 70
     0
  9
$VISRETAIN
 70
     0
  9
$PLINEGEN
 70
     1
  9
$PSLTSCALE
 70
     0
  9
$TREEDEPTH
 70
  3020
  9
$CMLSTYLE
  2
Standard
  9
$CMLJUST
 70
     0
  9
$CMLSCALE
 40
1.0
  9
$PROXYGRAPHICS
 70
     0
  9
$MEASUREMENT
 70
     0
  9
$CELWEIGHT
370
     0
  9
$ENDCAPS
280
     0
  9
$JOINSTYLE
280
     0
  9
$LWDISPLAY
290
     0
  9
$INSUNITS
 70
     5
  9
$HYPERLINKBASE
  1

  9
$XEDIT
290
     1
  9
$CEPSNTYPE
380
     0
  9
$PSTYLEMODE
290
     1
  9
$FINGERPRINTGUID
  2

  9
$VERSIONGUID
  2

  9
$EXTNAMES
290
     1
  9
$PSVPSCALE
 40
0.0
  0
ENDSEC
  0
SECTION
  2
CLASSES
  0
CLASS
  1
LWPOLYLINE
  2
AcDbPolyline
  3
AutoCAD 2000
 90
    32768
280
     0
281
     1
  0
CLASS
  1
IMAGE
  2
AcDbRasterImage
  3
ISM
 90
    32895
280
     0
281
     1
  0
CLASS
  1
OLE2FRAME
  2
AcDbOle2Frame
  3
AutoCAD 2000
 90
    32768
280
     0
281
     1
  0
CLASS
  1
HATCH
  2
AcDbHatch
  3
AutoCAD 2000
 90
    32768
280
     0
281
     1
  0
CLASS
  1
DICTIONARYVAR
  2
AcDbDictionaryVar
  3
AutoCAD 2000
 90
    32768
280
     0
281
     0
  0
CLASS
  1
RASTERVARIABLES
  2
AcDbRasterVariables
  3
ISM
 90
    32768
280
     0
281
     0
  0
CLASS
  1
IMAGEDEF
  2
AcDbRasterImageDef
  3
ISM
 90
    32768
280
     0
281
     0
  0
CLASS
  1
IMAGEDEF_REACTOR
  2
AcDbRasterImageDefReactor
  3
ISM
 90
    32769
280
     0
281
     0
  0
CLASS
  1
IDBUFFER
  2
AcDbIdBuffer
  3
AutoCAD 2000
 90
    32768
280
     0
281
     0
  0
CLASS
  1
SPATIAL_FILTER
  2
AcDbSpatialFilter
  3
AutoCAD 2000
 90
    32768
280
     0
281
     0
  0
CLASS
  1
XRECORD
  2
AcDbXrecord
  3
AutoCAD 2000
 90
    32768
280
     0
281
     0
  0
CLASS
  1
SORTENTSTABLE
  2
AcDbSortentsTable
  3
AutoCAD 2000
 90
    32768
280
     0
281
     0
  0
CLASS
  1
LAYER_INDEX
  2
AcDbLayerIndex
  3
AutoCAD 2000
 90
    32768
280
     0
281
     0
  0
CLASS
  1
SPATIAL_INDEX
  2
AcDbSpatialIndex
  3
AutoCAD 2000
 90
    32768
280
     0
281
     0
  0
CLASS
  1
OBJECT_PTR
  2
CAseDLPNTableRecord
  3
"ASE-LPNTableRecord"
 90
    32769
280
     0
281
     0
  0
CLASS
  1
LAYOUT
  2
AcDbLayout
  3
AutoCAD 2000
 90
        0
280
     0
281
     0
  0
CLASS
  1
PLOTSETTINGS
  2
AcDbPlotSettings
  3
AutoCAD 2000
 90
    32768
280
     0
281
     0
  0
CLASS
  1
ACDBDICTIONARYWDFLT
  2
AcDbDictionaryWithDefault
  3
AutoCAD 2000
 90
        0
280
     0
281
     0
  0
CLASS
  1
ACDBPLACEHOLDER
  2
AcDbPlaceHolder
  3
AutoCAD 2000
 90
        0
280
     0
281
     0
  0
CLASS
  1
VBA_PROJECT
  2
AcDbVbaProject
  3
acadvba
 90
    32768
280
     0
281
     0
  0
CLASS
  1
WIPEOUT
  2
AcDbWipeout
  3
WipeOut|AutoCAD Express Tool|expresstools@autodesk.com
 90
    32895
280
     0
281
     1
  0
CLASS
  1
WIPEOUTVARIABLES
  2
AcDbWipeoutVariables
  3
WipeOut|AutoCAD Express Tool|expresstools@autodesk.com
 90
        0
280
     0
281
     0
  0
CLASS
  1
RTEXT
  2
RText
  3
RText|AutoCAD Express Tool|expresstools@autodesk.com
 90
    32768
280
     0
281
     1
  0
CLASS
  1
ARCALIGNEDTEXT
  2
AcDbArcAlignedText
  3
ATEXT|AutoCAD Express Tool|expresstools@autodesk.com
 90
    32768
280
     0
281
     1
  0
ENDSEC
  0
SECTION
  2
TABLES
  0
TABLE
  2
VPORT
  5
7
100
AcDbSymbolTable
 70
     1
  0
VPORT
  5
15
100
AcDbSymbolTableRecord
100
AcDbViewportTableRecord
  2
*ACTIVE
 70
     0
 10
0.0
 20
0.0
 11
1.0
 21
1.0
 12
6.591288
 22
4.579184
 13
0.0
 23
0.0
 14
1.0
 24
1.0
 15
0.0
 25
0.0
 16
0.0
 26
0.0
 36
1.0
 17
0.0
 27
0.0
 37
0.0
 40
9.158369
 41
0.688564
 42
50.0
 43
0.0
 44
0.0
 50
0.0
 51
0.0
 71
     0
 72
   100
 73
     1
 74
     1
 75
     0
 76
     0
 77
     0
 78
     0
281
     0
 65
     0
110
0.0
120
0.0
130
0.0
111
1.0
121
0.0
131
0.0
112
0.0
122
1.0
132
0.0
345
0
346
0
 79
     0
146
0.0
  0
ENDTAB
  0
TABLE
  2
LTYPE
  5
4
100
AcDbSymbolTable
 70
     3
  0
LTYPE
  5
11
100
AcDbSymbolTableRecord
100
AcDbLinetypeTableRecord
  2
ByBlock
 70
    64
  3

 72
    65
 73
     0
 40
0.0
  0
LTYPE
  5
12
100
AcDbSymbolTableRecord
100
AcDbLinetypeTableRecord
  2
ByLayer
 70
    64
  3

 72
    65
 73
     0
 40
0.0
  0
LTYPE
  5
13
100
AcDbSymbolTableRecord
100
AcDbLinetypeTableRecord
  2
Continuous
 70
    64
  3
Solid line
 72
    65
 73
     0
 40
0.0
  0
ENDTAB
  0
TABLE
  2
LAYER
  5
2
100
AcDbSymbolTable
 70
     2
  0
LAYER
  5
14
100
AcDbSymbolTableRecord
100
AcDbLayerTableRecord
  2
0
 70
     0
 62
     7
  6
Continuous
290
     1
370
    -3
390
1D
  0
LAYER
  5
24
100
AcDbSymbolTableRecord
100
AcDbLayerTableRecord
  2
Ebene 1
 70
     0
 62
     7
  6
Continuous
290
     1
370
    -3
390
1F
  0
ENDTAB
  0
TABLE
  2
STYLE
  5
3
100
AcDbSymbolTable
 70
     1
  0
STYLE
  5
17
100
AcDbSymbolTableRecord
100
AcDbTextStyleTableRecord
  2
Standard
 70
     0
 40
0.0
 41
1.0
 50
0.0
 71
     0
 42
0.0
  3
txt
  4

  0
ENDTAB
  0
TABLE
  2
VIEW
  5
5
100
AcDbSymbolTable
 70
     0
  0
ENDTAB
  0
TABLE
  2
UCS
  5
6
100
AcDbSymbolTable
 70
     0
  0
ENDTAB
  0
TABLE
  2
APPID
  5
8
100
AcDbSymbolTable
 70
     1
  0
APPID
  5
16
100
AcDbSymbolTableRecord
100
AcDbRegAppTableRecord
  2
ACAD
 70
     0
  0
ENDTAB
  0
TABLE
  2
DIMSTYLE
  5
9
100
AcDbSymbolTable
 70
     1
100
AcDbDimStyleTable
 71
     0
  0
DIMSTYLE
105
18
100
AcDbSymbolTableRecord
100
AcDbDimStyleTableRecord
  2
Standard
 70
     0
  3

  4

 40
1.0
 41
0.18
 42
0.0625
 43
0.38
 44
0.18
 45
0.0
 46
0.0
 47
0.0
 48
0.0
 71
     0
 72
     0
 73
     1
 74
     1
 75
     0
 76
     0
 77
     0
 78
     0
 79
     0
140
0.18
141
0.09
142
0.0
143
25.4
144
1.0
145
0.0
146
1.0
147
0.09
148
0.0
170
     0
171
     2
172
     0
173
     0
174
     0
175
     0
176
     0
177
     0
178
     0
179
     0
271
     4
272
     4
273
     2
274
     2
275
     0
276
     0
277
     2
278
    46
279
     0
280
     0
281
     0
282
     0
283
     1
284
     0
285
     0
286
     0
288
     0
340
17
341
0
342
0
343
0
344
0
371
    -2
372
    -2
  0
ENDTAB
  0
TABLE
  2
BLOCK_RECORD
  5
1
100
AcDbSymbolTable
 70
     0
  0
BLOCK_RECORD
  5
A
100
AcDbSymbolTableRecord
100
AcDbBlockTableRecord
  2
*MODEL_SPACE
340
20
  0
BLOCK_RECORD
  5
B
100
AcDbSymbolTableRecord
100
AcDbBlockTableRecord
  2
*PAPER_SPACE
340
21
  0
ENDTAB
  0
ENDSEC
  0
SECTION
  2
BLOCKS
  0
BLOCK
  5
D
100
AcDbEntity
  8
0
100
AcDbBlockBegin
  2
*MODEL_SPACE
 70
     0
 10
0.0
 20
0.0
 30
0.0
  3
*MODEL_SPACE
  1

  0
ENDBLK
  5
E
100
AcDbEntity
  8
0
100
AcDbBlockEnd
  0
BLOCK
  5
F
100
AcDbEntity
 67
     1
  8
0
100
AcDbBlockBegin
  2
*PAPER_SPACE
 70
     0
 10
0.0
 20
0.0
 30
0.0
  3
*PAPER_SPACE
  1

  0
ENDBLK
  5
10
100
AcDbEntity
 67
     1
  8
0
100
AcDbBlockEnd
  0
ENDSEC
  0
SECTION
  2
ENTITIES
  0
SPLINE
  5
25
100
AcDbEntity
  8
Ebene 1
100
AcDbSpline
210
0.0
220
0.0
230
1.0
 70
     1
 71
     3
 72
   124
 73
   120
 74
     0
 42
0.0000000001
 43
0.0000000001
 40
0.0
 40
0.0
 40
0.0
 40
0.0
 40
0.0333333333333333
 40
0.0333333333333333
 40
0.0333333333333333
 40
0.0333333333333333
 40
0.0666666666666667
 40
0.0666666666666667
 40
0.0666666666666667
 40
0.0666666666666667
 40
0.1
 40
0.1
 40
0.1
 40
0.1
 40
0.1333333333333333
 40
0.1333333333333333
 40
0.1333333333333333
 40
0.1333333333333333
 40
0.1666666666666667
 40
0.1666666666666667
 40
0.1666666666666667
 40
0.1666666666666667
 40
0.2
 40
0.2
 40
0.2
 40
0.2
 40
0.2333333333333333
 40
0.2333333333333333
 40
0.2333333333333333
 40
0.2333333333333333
 40
0.2666666666666667
 40
0.2666666666666667
 40
0.2666666666666667
 40
0.2666666666666667
 40
0.3
 40
0.3
 40
0.3
 40
0.3
 40
0.3333333333333333
 40
0.3333333333333333
 40
0.3333333333333333
 40
0.3333333333333333
 40
0.3666666666666666
 40
0.3666666666666666
 40
0.3666666666666666
 40
0.3666666666666666
 40
0.4
 40
0.4
 40
0.4
 40
0.4
 40
0.4333333333333333
 40
0.4333333333333333
 40
0.4333333333333333
 40
0.4333333333333333
 40
0.4666666666666666
 40
0.4666666666666666
 40
0.4666666666666666
 40
0.4666666666666666
 40
0.4999999999999999
 40
0.4999999999999999
 40
0.4999999999999999
 40
0.4999999999999999
 40
0.5333333333333333
 40
0.5333333333333333
 40
0.5333333333333333
 40
0.5333333333333333
 40
0.5666666666666667
 40
0.5666666666666667
 40
0.5666666666666667
 40
0.5666666666666667
 40
0.6
 40
0.6
 40
0.6
 40
0.6
 40
0.6333333333333333
 40
0.6333333333333333
 40
0.6333333333333333
 40
0.6333333333333333
 40
0.6666666666666666
 40
0.6666666666666666
 40
0.6666666666666666
 40
0.6666666666666666
 40
0.7
 40
0.7
 40
0.7
 40
0.7
 40
0.7333333333333333
 40
0.7333333333333333
 40
0.7333333333333333
 40
0.7333333333333333
 40
0.7666666666666666
 40
0.7666666666666666
 40
0.7666666666666666
 40
0.7666666666666666
 40
0.7999999999999999
 40
0.7999999999999999
 40
0.7999999999999999
 40
0.7999999999999999
 40
0.8333333333333333
 40
0.8333333333333333
 40
0.8333333333333333
 40
0.8333333333333333
 40
0.8666666666666666
 40
0.8666666666666666
 40
0.8666666666666666
 40
0.8666666666666666
 40
0.8999999999999999
 40
0.8999999999999999
 40
0.8999999999999999
 40
0.8999999999999999
 40
0.9333333333333332
 40
0.9333333333333332
 40
0.9333333333333332
 40
0.9333333333333332
 40
0.9666666666666666
 40
0.9666666666666666
 40
0.9666666666666666
 40
0.9666666666666666
 40
1.0
 40
1.0
 40
1.0
 40
1.0
 10
0.0103
 20
6.7837700000000005
 30
0.0
 10
1.5216000000000001
 20
6.7532900000000007
 30
0.0
 10
3.1345000000000001
 20
6.1741700000000002
 30
0.0
 10
3.9142800000000002
 20
4.7847900000000001
 30
0.0
 10
3.9142800000000002
 20
4.7847900000000001
 30
0.0
 10
4.5569000000000006
 20
3.6722700000000001
 30
0.0
 10
4.7474000000000007
 20
1.9349100000000001
 30
0.0
 10
3.5459800000000001
 20
1.1246500000000001
 30
0.0
 10
3.5459800000000001
 20
1.1246500000000001
 30
0.0
 10
3.4647000000000001
 20
0.66237
 30
0.0
 10
3.1141800000000002
 20
0.47187
 30
0.0
 10
2.7585800000000003
 20
0.41599
 30
0.0
 10
2.7585800000000003
 20
0.41599
 30
0.0
 10
2.9490800000000004
 20
-0.0158
 30
0.0
 10
2.4004400000000001
 20
-0.7117600000000001
 30
0.0
 10
2.8322400000000001
 20
-1.2756400000000001
 30
0.0
 10
2.8322400000000001
 20
-1.2756400000000001
 30
0.0
 10
2.5350600000000001
 20
-1.6668000000000001
 30
0.0
 10
2.6849200000000004
 20
-2.3449800000000001
 30
0.0
 10
2.7585800000000003
 20
-2.8682200000000004
 30
0.0
 10
2.7585800000000003
 20
-2.8682200000000004
 30
0.0
 10
2.2505800000000002
 20
-3.1857200000000003
 30
0.0
 10
2.6442800000000002
 20
-3.8080200000000004
 30
0.0
 10
2.4563200000000003
 20
-4.2550600000000003
 30
0.0
 10
2.4563200000000003
 20
-4.2550600000000003
 30
0.0
 10
2.2277200000000001
 20
-4.2423600000000006
 30
0.0
 10
2.3801200000000002
 20
-3.9248600000000002
 30
0.0
 10
2.2785200000000003
 20
-3.7648400000000004
 30
0.0
 10
2.2785200000000003
 20
-3.7648400000000004
 30
0.0
 10
2.20994
 20
-3.8080200000000004
 30
0.0
 10
2.2175600000000002
 20
-3.9807400000000004
 30
0.0
 10
2.0778600000000003
 20
-3.9528000000000003
 30
0.0
 10
2.0778600000000003
 20
-3.9528000000000003
 30
0.0
 10
2.08548
 20
-4.4582600000000001
 30
0.0
 10
2.25312
 20
-4.9815000000000005
 30
0.0
 10
2.2632800000000004
 20
-5.4564800000000009
 30
0.0
 10
2.2632800000000004
 20
-5.4564800000000009
 30
0.0
 10
1.7984600000000002
 20
-5.4285400000000008
 30
0.0
 10
2.16168
 20
-4.1560000000000006
 30
0.0
 10
1.7222600000000001
 20
-3.9959800000000003
 30
0.0
 10
1.7222600000000001
 20
-3.9959800000000003
 30
0.0
 10
1.7222600000000001
 20
-3.9959800000000003
 30
0.0
 10
1.6892400000000001
 20
-3.7216600000000004
 30
0.0
 10
1.6892400000000001
 20
-3.7216600000000004
 30
0.0
 10
1.6892400000000001
 20
-3.7216600000000004
 30
0.0
 10
1.65622
 20
-3.9959800000000003
 30
0.0
 10
1.7095600000000002
 20
-4.3007800000000005
 30
0.0
 10
1.8289400000000002
 20
-4.5446200000000001
 30
0.0
 10
1.8289400000000002
 20
-4.5446200000000001
 30
0.0
 10
1.7197200000000001
 20
-4.6894
 30
0.0
 10
1.4504800000000002
 20
-4.7630600000000003
 30
0.0
 10
1.4581000000000002
 20
-4.48874
 30
0.0
 10
1.4581000000000002
 20
-4.48874
 30
0.0
 10
1.56732
 20
-4.4150800000000006
 30
0.0
 10
1.5216000000000001
 20
-4.1407600000000002
 30
0.0
 10
1.4708000000000001
 20
-3.9959800000000003
 30
0.0
 10
1.4708000000000001
 20
-3.9959800000000003
 30
0.0
 10
1.3869800000000001
 20
-4.3871400000000005
 30
0.0
 10
1.3006200000000001
 20
-4.7630600000000003
 30
0.0
 10
1.3666600000000002
 20
-5.1542200000000005
 30
0.0
 10
1.3666600000000002
 20
-5.1542200000000005
 30
0.0
 10
0.9069200000000001
 20
-5.2253400000000001
 30
0.0
 10
1.0263
 20
-5.9771800000000006
 30
0.0
 10
0.9043800000000001
 20
-6.3835800000000003
 30
0.0
 10
0.9043800000000001
 20
-6.3835800000000003
 30
0.0
 10
0.70372
 20
-6.4420000000000002
 30
0.0
 10
0.59704
 20
-6.4851800000000006
 30
0.0
 10
0.49798
 20
-6.7036200000000008
 30
0.0
 10
0.49798
 20
-6.7036200000000008
 30
0.0
 10
-0.06843
 20
-6.4140600000000001
 30
0.0
 10
0.33034
 20
-5.6469800000000001
 30
0.0
 10
0.29732
 20
-5.1389800000000001
 30
0.0
 10
0.29732
 20
-5.1389800000000001
 30
0.0
 10
0.02554
 20
-5.0805600000000002
 30
0.0
 10
0.21604
 20
-5.5022000000000002
 30
0.0
 10
0.15254
 20
-5.6749200000000002
 30
0.0
 10
0.15254
 20
-5.6749200000000002
 30
0.0
 10
-0.07605
 20
-5.7612800000000002
 30
0.0
 10
-0.46721
 20
-5.8324000000000007
 30
0.0
 10
-0.29449
 20
-6.1803800000000004
 30
0.0
 10
-0.29449
 20
-6.1803800000000004
 30
0.0
 10
-0.6043700000000001
 20
-6.2388000000000003
 30
0.0
 10
-0.4595900000000001
 20
-6.759500000000001
 30
0.0
 10
-0.67803
 20
-6.7899800000000008
 30
0.0
 10
-0.67803
 20
-6.7899800000000008
 30
0.0
 10
-0.76185
 20
-6.5436000000000005
 30
0.0
 10
-0.5662700000000001
 20
-6.1676800000000007
 30
0.0
 10
-0.8837700000000001
 20
-6.0940200000000004
 30
0.0
 10
-0.8837700000000001
 20
-6.0940200000000004
 30
0.0
 10
-0.7059700000000001
 20
-5.6469800000000001
 30
0.0
 10
-1.03617
 20
-5.2253400000000001
 30
0.0
 10
-0.9599700000000001
 20
-4.7198800000000007
 30
0.0
 10
-0.9599700000000001
 20
-4.7198800000000007
 30
0.0
 10
-1.3638300000000001
 20
-4.6182800000000004
 30
0.0
 10
-1.7600700000000002
 20
-4.6767000000000003
 30
0.0
 10
-2.1385300000000003
 20
-4.7630600000000003
 30
0.0
 10
-2.1385300000000003
 20
-4.7630600000000003
 30
0.0
 10
-2.6566900000000002
 20
-4.1839400000000007
 30
0.0
 10
-2.6516100000000002
 20
-3.3025600000000002
 30
0.0
 10
-3.3018500000000004
 20
-2.7945600000000002
 30
0.0
 10
-3.3018500000000004
 20
-2.7945600000000002
 30
0.0
 10
-3.3856700000000002
 20
-1.8700000000000001
 30
0.0
 10
-3.0224500000000001
 20
-0.6228600000000001
 30
0.0
 10
-3.9393900000000004
 20
-0.1174
 30
0.0
 10
-3.9393900000000004
 20
-0.1174
 30
0.0
 10
-3.7514300000000005
 20
0.5887100000000001
 30
0.0
 10
-4.0867100000000001
 20
1.1398900000000001
 30
0.0
 10
-4.4169100000000006
 20
1.6885300000000001
 30
0.0
 10
-4.4169100000000006
 20
1.6885300000000001
 30
0.0
 10
-4.4448500000000006
 20
1.9780900000000001
 30
0.0
 10
-4.0841700000000003
 20
2.0212700000000003
 30
0.0
 10
-3.9419300000000002
 20
2.2244700000000002
 30
0.0
 10
-3.9419300000000002
 20
2.2244700000000002
 30
0.0
 10
-4.1781500000000005
 20
2.8467700000000002
 30
0.0
 10
-3.7336500000000004
 20
3.3827100000000003
 30
0.0
 10
-3.7615900000000004
 20
4.0177100000000001
 30
0.0
 10
-3.7615900000000004
 20
4.0177100000000001
 30
0.0
 10
-3.2078700000000002
 20
5.6255300000000004
 30
0.0
 10
-1.6991100000000001
 20
6.8117100000000006
 30
0.0
 10
0.0103
 20
6.7837700000000005
 30
0.0
  0
SPLINE
  5
26
100
AcDbEntity
  8
Ebene 1
 62
     7
100
AcDbSpline
210
0.0
220
0.0
230
1.0
 70
     1
 71
     3
 72
    36
 73
    32
 74
     0
 42
0.0000000001
 43
0.0000000001
 40
0.0
 40
0.0
 40
0.0
 40
0.0
 40
0.125
 40
0.125
 40
0.125
 40
0.125
 40
0.25
 40
0.25
 40
0.25
 40
0.25
 40
0.375
 40
0.375
 40
0.375
 40
0.375
 40
0.5
 40
0.5
 40
0.5
 40
0.5
 40
0.625
 40
0.625
 40
0.625
 40
0.625
 40
0.75
 40
0.75
 40
0.75
 40
0.75
 40
0.875
 40
0.875
 40
0.875
 40
0.875
 40
1.0
 40
1.0
 40
1.0
 40
1.0
 10
0.0103
 20
6.6821700000000002
 30
0.0
 10
0.8358000000000001
 20
6.6085100000000008
 30
0.0
 10
1.6917800000000001
 20
6.4789700000000003
 30
0.0
 10
2.38266
 20
6.0166900000000005
 30
0.0
 10
2.38266
 20
6.0166900000000005
 30
0.0
 10
1.5978000000000001
 20
6.0446300000000006
 30
0.0
 10
0.6859400000000001
 20
5.7703100000000003
 30
0.0
 10
0.18048
 20
5.0743500000000008
 30
0.0
 10
0.18048
 20
5.0743500000000008
 30
0.0
 10
0.18048
 20
5.0743500000000008
 30
0.0
 10
-0.9752100000000001
 20
5.2343700000000002
 30
0.0
 10
-0.9752100000000001
 20
5.2343700000000002
 30
0.0
 10
-0.9752100000000001
 20
5.2343700000000002
 30
0.0
 10
-0.8202700000000001
 20
5.6966500000000009
 30
0.0
 10
-0.41895
 20
6.1741700000000002
 30
0.0
 10
-0.09129
 20
6.5805700000000007
 30
0.0
 10
-0.09129
 20
6.5805700000000007
 30
0.0
 10
-0.55357
 20
6.2478300000000004
 30
0.0
 10
-0.7669300000000001
 20
5.6255300000000004
 30
0.0
 10
-1.1123700000000001
 20
5.2343700000000002
 30
0.0
 10
-1.1123700000000001
 20
5.2343700000000002
 30
0.0
 10
-1.3917700000000002
 20
5.2927900000000001
 30
0.0
 10
-1.67371
 20
5.2191300000000007
 30
0.0
 10
-1.9073900000000001
 20
5.1480100000000002
 30
0.0
 10
-1.9073900000000001
 20
5.1480100000000002
 30
0.0
 10
-1.79817
 20
5.5518700000000001
 30
0.0
 10
-1.5136900000000002
 20
5.8871500000000001
 30
0.0
 10
-1.2850900000000001
 20
6.2071900000000007
 30
0.0
 10
-1.2850900000000001
 20
6.2071900000000007
 30
0.0
 10
-1.03617
 20
6.4383300000000006
 30
0.0
 10
-0.50785
 20
6.6821700000000002
 30
0.0
 10
0.0103
 20
6.6821700000000002
 30
0.0
  0
SPLINE
  5
27
100
AcDbEntity
  8
Ebene 1
 62
     7
100
AcDbSpline
210
0.0
220
0.0
230
1.0
 70
     1
 71
     3
 72
    36
 73
    32
 74
     0
 42
0.0000000001
 43
0.0000000001
 40
0.0
 40
0.0
 40
0.0
 40
0.0
 40
0.125
 40
0.125
 40
0.125
 40
0.125
 40
0.25
 40
0.25
 40
0.25
 40
0.25
 40
0.375
 40
0.375
 40
0.375
 40
0.375
 40
0.5
 40
0.5
 40
0.5
 40
0.5
 40
0.625
 40
0.625
 40
0.625
 40
0.625
 40
0.75
 40
0.75
 40
0.75
 40
0.75
 40
0.875
 40
0.875
 40
0.875
 40
0.875
 40
1.0
 40
1.0
 40
1.0
 40
1.0
 10
-0.9142500000000001
 20
6.5653300000000003
 30
0.0
 10
-0.9142500000000001
 20
6.5653300000000003
 30
0.0
 10
-0.8151900000000001
 20
6.5373900000000003
 30
0.0
 10
-0.8151900000000001
 20
6.5373900000000003
 30
0.0
 10
-0.8151900000000001
 20
6.5373900000000003
 30
0.0
 10
-1.3587500000000001
 20
6.4078500000000007
 30
0.0
 10
-1.6635500000000001
 20
5.8719100000000006
 30
0.0
 10
-2.1537700000000002
 20
5.6407700000000007
 30
0.0
 10
-2.1537700000000002
 20
5.6407700000000007
 30
0.0
 10
-2.2020300000000002
 20
5.5366300000000006
 30
0.0
 10
-2.2934700000000001
 20
5.43757
 30
0.0
 10
-2.3849100000000001
 20
5.3791500000000001
 30
0.0
 10
-2.3849100000000001
 20
5.3791500000000001
 30
0.0
 10
-2.31379
 20
5.5366300000000006
 30
0.0
 10
-2.1232900000000003
 20
5.6814100000000005
 30
0.0
 10
-2.09789
 20
5.8414300000000008
 30
0.0
 10
-2.09789
 20
5.8414300000000008
 30
0.0
 10
-2.5093700000000001
 20
5.43757
 30
0.0
 10
-2.8090900000000003
 20
4.9752900000000002
 30
0.0
 10
-3.1392900000000004
 20
4.5536500000000002
 30
0.0
 10
-3.1392900000000004
 20
4.5536500000000002
 30
0.0
 10
-3.0910300000000004
 20
4.7847900000000001
 30
0.0
 10
-2.9437100000000003
 20
4.9879900000000008
 30
0.0
 10
-2.8192500000000003
 20
5.1911900000000006
 30
0.0
 10
-2.8192500000000003
 20
5.1911900000000006
 30
0.0
 10
-2.8065500000000001
 20
5.2496100000000006
 30
0.0
 10
-2.7557500000000004
 20
5.3639100000000006
 30
0.0
 10
-2.8624300000000003
 20
5.3054900000000007
 30
0.0
 10
-2.8624300000000003
 20
5.3054900000000007
 30
0.0
 10
-2.4458700000000002
 20
6.0293900000000002
 30
0.0
 10
-1.6432300000000002
 20
6.3494300000000008
 30
0.0
 10
-0.9142500000000001
 20
6.5653300000000003
 30
0.0
  0
SPLINE
  5
28
100
AcDbEntity
  8
Ebene 1
 62
     7
100
AcDbSpline
210
0.0
220
0.0
230
1.0
 70
     1
 71
     3
 72
    20
 73
    16
 74
     0
 42
0.0000000001
 43
0.0000000001
 40
0.0
 40
0.0
 40
0.0
 40
0.0
 40
0.25
 40
0.25
 40
0.25
 40
0.25
 40
0.5
 40
0.5
 40
0.5
 40
0.5
 40
0.75
 40
0.75
 40
0.75
 40
0.75
 40
1.0
 40
1.0
 40
1.0
 40
1.0
 10
-1.6508500000000002
 20
5.9430300000000003
 30
0.0
 10
-2.05471
 20
5.1607100000000008
 30
0.0
 10
-2.4661900000000001
 20
4.07613
 30
0.0
 10
-2.0750300000000004
 20
3.1515700000000004
 30
0.0
 10
-2.0750300000000004
 20
3.1515700000000004
 30
0.0
 10
-2.2858500000000004
 20
3.0931500000000001
 30
0.0
 10
-2.5347700000000004
 20
3.1210900000000001
 30
0.0
 10
-2.7227300000000003
 20
2.9610700000000003
 30
0.0
 10
-2.7227300000000003
 20
2.9610700000000003
 30
0.0
 10
-2.85989
 20
3.1922100000000002
 30
0.0
 10
-2.6312900000000004
 20
3.5554300000000003
 30
0.0
 10
-2.7811500000000002
 20
3.7154500000000001
 30
0.0
 10
-2.7811500000000002
 20
3.7154500000000001
 30
0.0
 10
-2.57287
 20
4.58413
 30
0.0
 10
-2.39507
 20
5.3943900000000005
 30
0.0
 10
-1.6508500000000002
 20
5.9430300000000003
 30
0.0
  0
SPLINE
  5
29
100
AcDbEntity
  8
Ebene 1
 62
     7
100
AcDbSpline
210
0.0
220
0.0
230
1.0
 70
     1
 71
     3
 72
    32
 73
    28
 74
     0
 42
0.0000000001
 43
0.0000000001
 40
0.0
 40
0.0
 40
0.0
 40
0.0
 40
0.1428571428571429
 40
0.1428571428571429
 40
0.1428571428571429
 40
0.1428571428571429
 40
0.2857142857142857
 40
0.2857142857142857
 40
0.2857142857142857
 40
0.2857142857142857
 40
0.4285714285714286
 40
0.4285714285714286
 40
0.4285714285714286
 40
0.4285714285714286
 40
0.5714285714285714
 40
0.5714285714285714
 40
0.5714285714285714
 40
0.5714285714285714
 40
0.7142857142857142
 40
0.7142857142857142
 40
0.7142857142857142
 40
0.7142857142857142
 40
0.857142857142857
 40
0.857142857142857
 40
0.857142857142857
 40
0.857142857142857
 40
1.0
 40
1.0
 40
1.0
 40
1.0
 10
2.0067400000000002
 20
5.9277900000000008
 30
0.0
 10
2.08548
 20
5.9277900000000008
 30
0.0
 10
2.1743800000000002
 20
5.9277900000000008
 30
0.0
 10
2.2378800000000001
 20
5.8998500000000007
 30
0.0
 10
2.2378800000000001
 20
5.8998500000000007
 30
0.0
 10
1.9178400000000002
 20
5.6407700000000007
 30
0.0
 10
1.56732
 20
5.2496100000000006
 30
0.0
 10
1.6638400000000002
 20
4.8152700000000008
 30
0.0
 10
1.6638400000000002
 20
4.8152700000000008
 30
0.0
 10
1.7298800000000001
 20
4.7136700000000005
 30
0.0
 10
1.8492600000000001
 20
4.7416100000000005
 30
0.0
 10
1.9457800000000001
 20
4.7136700000000005
 30
0.0
 10
1.9457800000000001
 20
4.7136700000000005
 30
0.0
 10
1.9813400000000001
 20
4.6831900000000006
 30
0.0
 10
2.03722
 20
4.67049
 30
0.0
 10
2.04738
 20
4.6120700000000001
 30
0.0
 10
2.04738
 20
4.6120700000000001
 30
0.0
 10
1.9178400000000002
 20
4.5968300000000006
 30
0.0
 10
1.7959200000000002
 20
4.5257100000000001
 30
0.0
 10
1.7476600000000002
 20
4.3936299999999999
 30
0.0
 10
1.7476600000000002
 20
4.3936299999999999
 30
0.0
 10
1.2904600000000002
 20
4.67049
 30
0.0
 10
0.7900800000000001
 20
4.9016300000000008
 30
0.0
 10
0.2897
 20
5.0616500000000002
 30
0.0
 10
0.2897
 20
5.0616500000000002
 30
0.0
 10
0.658
 20
5.6534700000000004
 30
0.0
 10
1.3920600000000001
 20
5.8134900000000007
 30
0.0
 10
2.0067400000000002
 20
5.9277900000000008
 30
0.0
  0
SPLINE
  5
2A
100
AcDbEntity
  8
Ebene 1
 62
     7
100
AcDbSpline
210
0.0
220
0.0
230
1.0
 70
     1
 71
     3
 72
   132
 73
   128
 74
     0
 42
0.0000000001
 43
0.0000000001
 40
0.0
 40
0.0
 40
0.0
 40
0.0
 40
0.03125
 40
0.03125
 40
0.03125
 40
0.03125
 40
0.0625
 40
0.0625
 40
0.0625
 40
0.0625
 40
0.09375
 40
0.09375
 40
0.09375
 40
0.09375
 40
0.125
 40
0.125
 40
0.125
 40
0.125
 40
0.15625
 40
0.15625
 40
0.15625
 40
0.15625
 40
0.1875
 40
0.1875
 40
0.1875
 40
0.1875
 40
0.21875
 40
0.21875
 40
0.21875
 40
0.21875
 40
0.25
 40
0.25
 40
0.25
 40
0.25
 40
0.28125
 40
0.28125
 40
0.28125
 40
0.28125
 40
0.3125
 40
0.3125
 40
0.3125
 40
0.3125
 40
0.34375
 40
0.34375
 40
0.34375
 40
0.34375
 40
0.375
 40
0.375
 40
0.375
 40
0.375
 40
0.40625
 40
0.40625
 40
0.40625
 40
0.40625
 40
0.4375
 40
0.4375
 40
0.4375
 40
0.4375
 40
0.46875
 40
0.46875
 40
0.46875
 40
0.46875
 40
0.5
 40
0.5
 40
0.5
 40
0.5
 40
0.53125
 40
0.53125
 40
0.53125
 40
0.53125
 40
0.5625
 40
0.5625
 40
0.5625
 40
0.5625
 40
0.59375
 40
0.59375
 40
0.59375
 40
0.59375
 40
0.625
 40
0.625
 40
0.625
 40
0.625
 40
0.65625
 40
0.65625
 40
0.65625
 40
0.65625
 40
0.6875
 40
0.6875
 40
0.6875
 40
0.6875
 40
0.71875
 40
0.71875
 40
0.71875
 40
0.71875
 40
0.75
 40
0.75
 40
0.75
 40
0.75
 40
0.78125
 40
0.78125
 40
0.78125
 40
0.78125
 40
0.8125
 40
0.8125
 40
0.8125
 40
0.8125
 40
0.84375
 40
0.84375
 40
0.84375
 40
0.84375
 40
0.875
 40
0.875
 40
0.875
 40
0.875
 40
0.90625
 40
0.90625
 40
0.90625
 40
0.90625
 40
0.9375
 40
0.9375
 40
0.9375
 40
0.9375
 40
0.96875
 40
0.96875
 40
0.96875
 40
0.96875
 40
1.0
 40
1.0
 40
1.0
 40
1.0
 10
3.2081600000000003
 20
4.84321
 30
0.0
 10
3.2056200000000001
 20
4.8152700000000008
 30
0.0
 10
3.2361000000000004
 20
4.84321
 30
0.0
 10
3.2081600000000003
 20
4.84321
 30
0.0
 10
3.2081600000000003
 20
4.84321
 30
0.0
 10
3.2615000000000003
 20
4.9879900000000008
 30
0.0
 10
3.3605600000000004
 20
4.6247700000000007
 30
0.0
 10
3.4596200000000001
 20
4.5688900000000006
 30
0.0
 10
3.4596200000000001
 20
4.5688900000000006
 30
0.0
 10
3.4596200000000001
 20
4.5688900000000006
 30
0.0
 10
3.5231200000000005
 20
4.5257100000000001
 30
0.0
 10
3.5231200000000005
 20
4.5257100000000001
 30
0.0
 10
3.5231200000000005
 20
4.5257100000000001
 30
0.0
 10
3.5231200000000005
 20
4.5257100000000001
 30
0.0
 10
3.5155000000000003
 20
4.6400100000000002
 30
0.0
 10
3.5155000000000003
 20
4.6400100000000002
 30
0.0
 10
3.5155000000000003
 20
4.6400100000000002
 30
0.0
 10
3.5155000000000003
 20
4.6400100000000002
 30
0.0
 10
3.5739200000000002
 20
4.5536500000000002
 30
0.0
 10
3.5739200000000002
 20
4.5536500000000002
 30
0.0
 10
3.5739200000000002
 20
4.5536500000000002
 30
0.0
 10
3.6069400000000003
 20
4.6831900000000006
 30
0.0
 10
3.6831400000000003
 20
4.4952300000000003
 30
0.0
 10
3.7542600000000004
 20
4.58413
 30
0.0
 10
3.7542600000000004
 20
4.58413
 30
0.0
 10
4.2013000000000007
 20
4.07613
 30
0.0
 10
3.9625400000000002
 20
3.1642700000000001
 30
0.0
 10
3.4596200000000001
 20
2.8162900000000004
 30
0.0
 10
3.4596200000000001
 20
2.8162900000000004
 30
0.0
 10
3.3961200000000002
 20
2.9204300000000001
 30
0.0
 10
3.1522800000000002
 20
3.1922100000000002
 30
0.0
 10
3.3148400000000002
 20
3.2074500000000001
 30
0.0
 10
3.3148400000000002
 20
3.2074500000000001
 30
0.0
 10
3.4266000000000001
 20
3.2658700000000001
 30
0.0
 10
3.3250000000000002
 20
3.3674700000000004
 30
0.0
 10
3.3148400000000002
 20
3.4538300000000004
 30
0.0
 10
3.3148400000000002
 20
3.4538300000000004
 30
0.0
 10
3.6196400000000004
 20
3.2506300000000001
 30
0.0
 10
3.5790000000000002
 20
3.6290900000000001
 30
0.0
 10
3.6983800000000002
 20
3.8018100000000001
 30
0.0
 10
3.6983800000000002
 20
3.8018100000000001
 30
0.0
 10
4.0209600000000005
 20
3.9745300000000001
 30
0.0
 10
3.6907600000000005
 20
4.5968300000000006
 30
0.0
 10
3.5561400000000001
 20
4.2361500000000003
 30
0.0
 10
3.5561400000000001
 20
4.2361500000000003
 30
0.0
 10
3.5078800000000001
 20
4.0913700000000004
 30
0.0
 10
3.3783400000000001
 20
4.0634300000000003
 30
0.0
 10
3.3935800000000005
 20
3.8729300000000002
 30
0.0
 10
3.3935800000000005
 20
3.8729300000000002
 30
0.0
 10
3.2665800000000003
 20
3.9897700000000005
 30
0.0
 10
3.0989400000000002
 20
3.8881700000000001
 30
0.0
 10
3.1903800000000002
 20
3.7154500000000001
 30
0.0
 10
3.1903800000000002
 20
3.7154500000000001
 30
0.0
 10
2.9846400000000002
 20
3.7433900000000002
 30
0.0
 10
2.97194
 20
3.5833700000000004
 30
0.0
 10
2.9186000000000001
 20
3.4690700000000003
 30
0.0
 10
2.9186000000000001
 20
3.4690700000000003
 30
0.0
 10
2.71794
 20
3.6290900000000001
 30
0.0
 10
2.4995000000000003
 20
3.7433900000000002
 30
0.0
 10
2.42584
 20
4.0050100000000004
 30
0.0
 10
2.42584
 20
4.0050100000000004
 30
0.0
 10
2.71286
 20
4.0177100000000001
 30
0.0
 10
2.4461600000000003
 20
4.3072699999999999
 30
0.0
 10
2.5172800000000004
 20
4.4672900000000002
 30
0.0
 10
2.5172800000000004
 20
4.4672900000000002
 30
0.0
 10
2.6442800000000002
 20
4.4520500000000007
 30
0.0
 10
2.7306400000000002
 20
4.2793300000000007
 30
0.0
 10
2.8297000000000003
 20
4.2209099999999999
 30
0.0
 10
2.8297000000000003
 20
4.2209099999999999
 30
0.0
 10
2.8373200000000001
 20
4.3225100000000003
 30
0.0
 10
2.71794
 20
4.4241100000000007
 30
0.0
 10
2.8043
 20
4.5257100000000001
 30
0.0
 10
2.8043
 20
4.5257100000000001
 30
0.0
 10
2.8678000000000003
 20
4.58413
 30
0.0
 10
2.9059000000000004
 20
4.3529900000000001
 30
0.0
 10
2.9592400000000003
 20
4.2945700000000002
 30
0.0
 10
2.9592400000000003
 20
4.2945700000000002
 30
0.0
 10
3.0176600000000002
 20
4.3656900000000007
 30
0.0
 10
2.9490800000000004
 20
4.5257100000000001
 30
0.0
 10
3.0608400000000002
 20
4.4088700000000003
 30
0.0
 10
3.0608400000000002
 20
4.4088700000000003
 30
0.0
 10
2.9516200000000001
 20
4.5968300000000006
 30
0.0
 10
2.9998800000000001
 20
4.7847900000000001
 30
0.0
 10
2.9084400000000001
 20
4.9879900000000008
 30
0.0
 10
2.9084400000000001
 20
4.9879900000000008
 30
0.0
 10
2.9871800000000004
 20
4.9600500000000007
 30
0.0
 10
3.0075000000000003
 20
4.7136700000000005
 30
0.0
 10
3.0633800000000004
 20
4.75685
 30
0.0
 10
3.0633800000000004
 20
4.75685
 30
0.0
 10
2.9643200000000003
 20
5.01593
 30
0.0
 10
2.8424
 20
5.3359700000000005
 30
0.0
 10
2.5960200000000002
 20
5.4807500000000005
 30
0.0
 10
2.5960200000000002
 20
5.4807500000000005
 30
0.0
 10
2.5325200000000003
 20
5.3791500000000001
 30
0.0
 10
2.7230200000000004
 20
5.3054900000000007
 30
0.0
 10
2.75604
 20
5.2064300000000001
 30
0.0
 10
2.75604
 20
5.2064300000000001
 30
0.0
 10
2.4918800000000001
 20
5.5239300000000009
 30
0.0
 10
2.3344
 20
5.2496100000000006
 30
0.0
 10
2.0550000000000002
 20
5.1607100000000008
 30
0.0
 10
2.0550000000000002
 20
5.1607100000000008
 30
0.0
 10
2.0169000000000001
 20
5.0616500000000002
 30
0.0
 10
2.1947000000000001
 20
5.0895900000000003
 30
0.0
 10
2.17692
 20
5.0032300000000003
 30
0.0
 10
2.17692
 20
5.0032300000000003
 30
0.0
 10
1.8594200000000001
 20
5.2191300000000007
 30
0.0
 10
1.8848200000000002
 20
4.67049
 30
0.0
 10
1.7171800000000002
 20
4.8279700000000005
 30
0.0
 10
1.7171800000000002
 20
4.8279700000000005
 30
0.0
 10
1.5978000000000001
 20
5.26485
 30
0.0
 10
1.9965800000000002
 20
5.6814100000000005
 30
0.0
 10
2.33948
 20
5.9150900000000002
 30
0.0
 10
2.33948
 20
5.9150900000000002
 30
0.0
 10
2.7814400000000004
 20
5.9430300000000003
 30
0.0
 10
3.2005400000000002
 20
5.6534700000000004
 30
0.0
 10
3.4367600000000005
 20
5.2775500000000006
 30
0.0
 10
3.4367600000000005
 20
5.2775500000000006
 30
0.0
 10
3.2996000000000003
 20
5.3943900000000005
 30
0.0
 10
3.0075000000000003
 20
5.5671100000000004
 30
0.0
 10
2.9160600000000003
 20
5.5239300000000009
 30
0.0
 10
2.9160600000000003
 20
5.5239300000000009
 30
0.0
 10
3.0557600000000003
 20
5.2775500000000006
 30
0.0
 10
2.7001600000000003
 20
5.6102900000000009
 30
0.0
 10
2.7204800000000002
 20
5.43757
 30
0.0
 10
2.7204800000000002
 20
5.43757
 30
0.0
 10
2.9363800000000002
 20
5.2927900000000001
 30
0.0
 10
3.0252800000000004
 20
5.0032300000000003
 30
0.0
 10
3.2081600000000003
 20
4.84321
 30
0.0
  0
SPLINE
  5
2B
100
AcDbEntity
  8
Ebene 1
 62
     7
100
AcDbSpline
210
0.0
220
0.0
230
1.0
 70
     1
 71
     3
 72
    28
 73
    24
 74
     0
 42
0.0000000001
 43
0.0000000001
 40
0.0
 40
0.0
 40
0.0
 40
0.0
 40
0.1666666666666667
 40
0.1666666666666667
 40
0.1666666666666667
 40
0.1666666666666667
 40
0.3333333333333333
 40
0.3333333333333333
 40
0.3333333333333333
 40
0.3333333333333333
 40
0.5
 40
0.5
 40
0.5
 40
0.5
 40
0.6666666666666666
 40
0.6666666666666666
 40
0.6666666666666666
 40
0.6666666666666666
 40
0.8333333333333333
 40
0.8333333333333333
 40
0.8333333333333333
 40
0.8333333333333333
 40
1.0
 40
1.0
 40
1.0
 40
1.0
 10
-1.4501900000000001
 20
5.1759500000000003
 30
0.0
 10
-1.4501900000000001
 20
5.1759500000000003
 30
0.0
 10
-1.1047500000000001
 20
5.1480100000000002
 30
0.0
 10
-1.1047500000000001
 20
5.1480100000000002
 30
0.0
 10
-1.1047500000000001
 20
5.1480100000000002
 30
0.0
 10
-1.37907
 20
4.5536500000000002
 30
0.0
 10
-1.5543300000000002
 20
3.9313500000000001
 30
0.0
 10
-1.5543300000000002
 20
3.2506300000000001
 30
0.0
 10
-1.5543300000000002
 20
3.2506300000000001
 30
0.0
 10
-1.6660900000000001
 20
3.2379300000000004
 30
0.0
 10
-1.9048500000000002
 20
3.1363300000000001
 30
0.0
 10
-1.9378700000000002
 20
3.2658700000000001
 30
0.0
 10
-1.9378700000000002
 20
3.2658700000000001
 30
0.0
 10
-1.9378700000000002
 20
3.2658700000000001
 30
0.0
 10
-2.0140700000000002
 20
3.1795100000000001
 30
0.0
 10
-2.0140700000000002
 20
3.1795100000000001
 30
0.0
 10
-2.0140700000000002
 20
3.1795100000000001
 30
0.0
 10
-2.3341100000000004
 20
3.7281500000000003
 30
0.0
 10
-2.1207500000000001
 20
4.4393500000000001
 30
0.0
 10
-1.9658100000000001
 20
5.0311700000000004
 30
0.0
 10
-1.9658100000000001
 20
5.0311700000000004
 30
0.0
 10
-1.8235700000000001
 20
5.1480100000000002
 30
0.0
 10
-1.6203700000000001
 20
5.1480100000000002
 30
0.0
 10
-1.4501900000000001
 20
5.1759500000000003
 30
0.0
  0
SPLINE
  5
2C
100
AcDbEntity
  8
Ebene 1
 62
     7
100
AcDbSpline
210
0.0
220
0.0
230
1.0
 70
     1
 71
     3
 72
    24
 73
    20
 74
     0
 42
0.0000000001
 43
0.0000000001
 40
0.0
 40
0.0
 40
0.0
 40
0.0
 40
0.2
 40
0.2
 40
0.2
 40
0.2
 40
0.4
 40
0.4
 40
0.4
 40
0.4
 40
0.6000000000000001
 40
0.6000000000000001
 40
0.6000000000000001
 40
0.6000000000000001
 40
0.8
 40
0.8
 40
0.8
 40
0.8
 40
1.0
 40
1.0
 40
1.0
 40
1.0
 10
-1.04379
 20
5.1480100000000002
 30
0.0
 10
-0.6627900000000001
 20
5.1327700000000007
 30
0.0
 10
-0.29195
 20
5.0464100000000007
 30
0.0
 10
0.06872
 20
5.0032300000000003
 30
0.0
 10
0.06872
 20
5.0032300000000003
 30
0.0
 10
-0.50785
 20
4.5968300000000006
 30
0.0
 10
-0.9980700000000001
 20
3.9465900000000005
 30
0.0
 10
-1.2342900000000001
 20
3.2658700000000001
 30
0.0
 10
-1.2342900000000001
 20
3.2658700000000001
 30
0.0
 10
-1.2342900000000001
 20
3.2658700000000001
 30
0.0
 10
-1.4451100000000001
 20
3.2658700000000001
 30
0.0
 10
-1.4451100000000001
 20
3.2658700000000001
 30
0.0
 10
-1.4451100000000001
 20
3.2658700000000001
 30
0.0
 10
-1.4933700000000001
 20
3.5833700000000004
 30
0.0
 10
-1.41717
 20
3.9034100000000005
 30
0.0
 10
-1.37653
 20
4.2082100000000002
 30
0.0
 10
-1.37653
 20
4.2082100000000002
 30
0.0
 10
-1.29017
 20
4.5257100000000001
 30
0.0
 10
-1.1733300000000002
 20
4.84321
 30
0.0
 10
-1.04379
 20
5.1480100000000002
 30
0.0
  0
SPLINE
  5
2D
100
AcDbEntity
  8
Ebene 1
 62
     7
100
AcDbSpline
210
0.0
220
0.0
230
1.0
 70
     1
 71
     3
 72
   316
 73
   312
 74
     0
 42
0.0000000001
 43
0.0000000001
 40
0.0
 40
0.0
 40
0.0
 40
0.0
 40
0.0128205128205128
 40
0.0128205128205128
 40
0.0128205128205128
 40
0.0128205128205128
 40
0.0256410256410256
 40
0.0256410256410256
 40
0.0256410256410256
 40
0.0256410256410256
 40
0.0384615384615385
 40
0.0384615384615385
 40
0.0384615384615385
 40
0.0384615384615385
 40
0.0512820512820513
 40
0.0512820512820513
 40
0.0512820512820513
 40
0.0512820512820513
 40
0.0641025641025641
 40
0.0641025641025641
 40
0.0641025641025641
 40
0.0641025641025641
 40
0.0769230769230769
 40
0.0769230769230769
 40
0.0769230769230769
 40
0.0769230769230769
 40
0.0897435897435897
 40
0.0897435897435897
 40
0.0897435897435897
 40
0.0897435897435897
 40
0.1025641025641026
 40
0.1025641025641026
 40
0.1025641025641026
 40
0.1025641025641026
 40
0.1153846153846154
 40
0.1153846153846154
 40
0.1153846153846154
 40
0.1153846153846154
 40
0.1282051282051282
 40
0.1282051282051282
 40
0.1282051282051282
 40
0.1282051282051282
 40
0.141025641025641
 40
0.141025641025641
 40
0.141025641025641
 40
0.141025641025641
 40
0.1538461538461539
 40
0.1538461538461539
 40
0.1538461538461539
 40
0.1538461538461539
 40
0.1666666666666667
 40
0.1666666666666667
 40
0.1666666666666667
 40
0.1666666666666667
 40
0.1794871794871795
 40
0.1794871794871795
 40
0.1794871794871795
 40
0.1794871794871795
 40
0.1923076923076924
 40
0.1923076923076924
 40
0.1923076923076924
 40
0.1923076923076924
 40
0.2051282051282052
 40
0.2051282051282052
 40
0.2051282051282052
 40
0.2051282051282052
 40
0.217948717948718
 40
0.217948717948718
 40
0.217948717948718
 40
0.217948717948718
 40
0.2307692307692308
 40
0.2307692307692308
 40
0.2307692307692308
 40
0.2307692307692308
 40
0.2435897435897437
 40
0.2435897435897437
 40
0.2435897435897437
 40
0.2435897435897437
 40
0.2564102564102565
 40
0.2564102564102565
 40
0.2564102564102565
 40
0.2564102564102565
 40
0.2692307692307693
 40
0.2692307692307693
 40
0.2692307692307693
 40
0.2692307692307693
 40
0.2820512820512822
 40
0.2820512820512822
 40
0.2820512820512822
 40
0.2820512820512822
 40
0.294871794871795
 40
0.294871794871795
 40
0.294871794871795
 40
0.294871794871795
 40
0.3076923076923078
 40
0.3076923076923078
 40
0.3076923076923078
 40
0.3076923076923078
 40
0.3205128205128207
 40
0.3205128205128207
 40
0.3205128205128207
 40
0.3205128205128207
 40
0.3333333333333335
 40
0.3333333333333335
 40
0.3333333333333335
 40
0.3333333333333335
 40
0.3461538461538463
 40
0.3461538461538463
 40
0.3461538461538463
 40
0.3461538461538463
 40
0.3589743589743591
 40
0.3589743589743591
 40
0.3589743589743591
 40
0.3589743589743591
 40
0.371794871794872
 40
0.371794871794872
 40
0.371794871794872
 40
0.371794871794872
 40
0.3846153846153848
 40
0.3846153846153848
 40
0.3846153846153848
 40
0.3846153846153848
 40
0.3974358974358976
 40
0.3974358974358976
 40
0.3974358974358976
 40
0.3974358974358976
 40
0.4102564102564105
 40
0.4102564102564105
 40
0.4102564102564105
 40
0.4102564102564105
 40
0.4230769230769233
 40
0.4230769230769233
 40
0.4230769230769233
 40
0.4230769230769233
 40
0.4358974358974361
 40
0.4358974358974361
 40
0.4358974358974361
 40
0.4358974358974361
 40
0.448717948717949
 40
0.448717948717949
 40
0.448717948717949
 40
0.448717948717949
 40
0.4615384615384618
 40
0.4615384615384618
 40
0.4615384615384618
 40
0.4615384615384618
 40
0.4743589743589746
 40
0.4743589743589746
 40
0.4743589743589746
 40
0.4743589743589746
 40
0.4871794871794875
 40
0.4871794871794875
 40
0.4871794871794875
 40
0.4871794871794875
 40
0.5000000000000002
 40
0.5000000000000002
 40
0.5000000000000002
 40
0.5000000000000002
 40
0.512820512820513
 40
0.512820512820513
 40
0.512820512820513
 40
0.512820512820513
 40
0.5256410256410258
 40
0.5256410256410258
 40
0.5256410256410258
 40
0.5256410256410258
 40
0.5384615384615386
 40
0.5384615384615386
 40
0.5384615384615386
 40
0.5384615384615386
 40
0.5512820512820513
 40
0.5512820512820513
 40
0.5512820512820513
 40
0.5512820512820513
 40
0.5641025641025641
 40
0.5641025641025641
 40
0.5641025641025641
 40
0.5641025641025641
 40
0.5769230769230769
 40
0.5769230769230769
 40
0.5769230769230769
 40
0.5769230769230769
 40
0.5897435897435897
 40
0.5897435897435897
 40
0.5897435897435897
 40
0.5897435897435897
 40
0.6025641025641024
 40
0.6025641025641024
 40
0.6025641025641024
 40
0.6025641025641024
 40
0.6153846153846152
 40
0.6153846153846152
 40
0.6153846153846152
 40
0.6153846153846152
 40
0.628205128205128
 40
0.628205128205128
 40
0.628205128205128
 40
0.628205128205128
 40
0.6410256410256408
 40
0.6410256410256408
 40
0.6410256410256408
 40
0.6410256410256408
 40
0.6538461538461535
 40
0.6538461538461535
 40
0.6538461538461535
 40
0.6538461538461535
 40
0.6666666666666663
 40
0.6666666666666663
 40
0.6666666666666663
 40
0.6666666666666663
 40
0.6794871794871791
 40
0.6794871794871791
 40
0.6794871794871791
 40
0.6794871794871791
 40
0.6923076923076919
 40
0.6923076923076919
 40
0.6923076923076919
 40
0.6923076923076919
 40
0.7051282051282046
 40
0.7051282051282046
 40
0.7051282051282046
 40
0.7051282051282046
 40
0.7179487179487174
 40
0.7179487179487174
 40
0.7179487179487174
 40
0.7179487179487174
 40
0.7307692307692302
 40
0.7307692307692302
 40
0.7307692307692302
 40
0.7307692307692302
 40
0.743589743589743
 40
0.743589743589743
 40
0.743589743589743
 40
0.743589743589743
 40
0.7564102564102557
 40
0.7564102564102557
 40
0.7564102564102557
 40
0.7564102564102557
 40
0.7692307692307685
 40
0.7692307692307685
 40
0.7692307692307685
 40
0.7692307692307685
 40
0.7820512820512813
 40
0.7820512820512813
 40
0.7820512820512813
 40
0.7820512820512813
 40
0.7948717948717941
 40
0.7948717948717941
 40
0.7948717948717941
 40
0.7948717948717941
 40
0.8076923076923068
 40
0.8076923076923068
 40
0.8076923076923068
 40
0.8076923076923068
 40
0.8205128205128196
 40
0.8205128205128196
 40
0.8205128205128196
 40
0.8205128205128196
 40
0.8333333333333324
 40
0.8333333333333324
 40
0.8333333333333324
 40
0.8333333333333324
 40
0.8461538461538452
 40
0.8461538461538452
 40
0.8461538461538452
 40
0.8461538461538452
 40
0.8589743589743579
 40
0.8589743589743579
 40
0.8589743589743579
 40
0.8589743589743579
 40
0.8717948717948707
 40
0.8717948717948707
 40
0.8717948717948707
 40
0.8717948717948707
 40
0.8846153846153835
 40
0.8846153846153835
 40
0.8846153846153835
 40
0.8846153846153835
 40
0.8974358974358963
 40
0.8974358974358963
 40
0.8974358974358963
 40
0.8974358974358963
 40
0.910256410256409
 40
0.910256410256409
 40
0.910256410256409
 40
0.910256410256409
 40
0.9230769230769218
 40
0.9230769230769218
 40
0.9230769230769218
 40
0.9230769230769218
 40
0.9358974358974346
 40
0.9358974358974346
 40
0.9358974358974346
 40
0.9358974358974346
 40
0.9487179487179474
 40
0.9487179487179474
 40
0.9487179487179474
 40
0.9487179487179474
 40
0.9615384615384601
 40
0.9615384615384601
 40
0.9615384615384601
 40
0.9615384615384601
 40
0.9743589743589729
 40
0.9743589743589729
 40
0.9743589743589729
 40
0.9743589743589729
 40
0.9871794871794857
 40
0.9871794871794857
 40
0.9871794871794857
 40
0.9871794871794857
 40
1.0
 40
1.0
 40
1.0
 40
1.0
 10
1.4581000000000002
 20
4.4672900000000002
 30
0.0
 10
1.8365600000000002
 20
4.4241100000000007
 30
0.0
 10
1.6663800000000002
 20
3.9745300000000001
 30
0.0
 10
2.04738
 20
3.9186500000000004
 30
0.0
 10
2.04738
 20
3.9186500000000004
 30
0.0
 10
0.9704200000000001
 20
3.7433900000000002
 30
0.0
 10
1.4936600000000002
 20
2.2524100000000002
 30
0.0
 10
2.5401400000000001
 20
2.5419700000000001
 30
0.0
 10
2.5401400000000001
 20
2.5419700000000001
 30
0.0
 10
2.5706200000000003
 20
2.2092300000000002
 30
0.0
 10
2.0321400000000001
 20
2.3971900000000002
 30
0.0
 10
1.9813400000000001
 20
2.0644500000000003
 30
0.0
 10
1.9813400000000001
 20
2.0644500000000003
 30
0.0
 10
1.8645
 20
1.7469500000000002
 30
0.0
 10
2.8678000000000003
 20
1.7596500000000002
 30
0.0
 10
2.4080600000000003
 20
1.8637900000000001
 30
0.0
 10
2.4080600000000003
 20
1.8637900000000001
 30
0.0
 10
2.3598000000000003
 20
1.8485500000000001
 30
0.0
 10
2.2861400000000001
 20
1.8764900000000002
 30
0.0
 10
2.3521800000000002
 20
1.9196700000000002
 30
0.0
 10
2.3521800000000002
 20
1.9196700000000002
 30
0.0
 10
2.6696800000000001
 20
2.1508100000000003
 30
0.0
 10
3.1065600000000004
 20
1.7317100000000001
 30
0.0
 10
2.7154000000000003
 20
2.2397100000000001
 30
0.0
 10
2.7154000000000003
 20
2.2397100000000001
 30
0.0
 10
2.6265000000000001
 20
2.2524100000000002
 30
0.0
 10
2.7331800000000004
 20
2.3108300000000002
 30
0.0
 10
2.7738200000000002
 20
2.3108300000000002
 30
0.0
 10
2.7738200000000002
 20
2.3108300000000002
 30
0.0
 10
3.1014800000000005
 20
2.4987900000000001
 30
0.0
 10
2.8957400000000004
 20
1.4726300000000001
 30
0.0
 10
3.0633800000000004
 20
2.0365100000000003
 30
0.0
 10
3.0633800000000004
 20
2.0365100000000003
 30
0.0
 10
3.3326200000000004
 20
2.2397100000000001
 30
0.0
 10
3.8736400000000004
 20
1.9196700000000002
 30
0.0
 10
3.1497400000000004
 20
1.9044300000000001
 30
0.0
 10
3.1497400000000004
 20
1.9044300000000001
 30
0.0
 10
3.0837000000000003
 20
1.8053700000000001
 30
0.0
 10
3.1370400000000003
 20
1.4573900000000002
 30
0.0
 10
3.2361000000000004
 20
1.6885300000000001
 30
0.0
 10
3.2361000000000004
 20
1.6885300000000001
 30
0.0
 10
3.2284800000000002
 20
1.8917300000000001
 30
0.0
 10
3.4113600000000002
 20
1.8053700000000001
 30
0.0
 10
3.5231200000000005
 20
1.8637900000000001
 30
0.0
 10
3.5231200000000005
 20
1.8637900000000001
 30
0.0
 10
3.5332800000000004
 20
1.7037700000000002
 30
0.0
 10
3.1802200000000003
 20
1.4294500000000001
 30
0.0
 10
2.8652600000000001
 20
1.39897
 30
0.0
 10
2.8652600000000001
 20
1.39897
 30
0.0
 10
2.9998800000000001
 20
2.1660500000000003
 30
0.0
 10
2.5884
 20
1.5005700000000002
 30
0.0
 10
2.25312
 20
1.4726300000000001
 30
0.0
 10
2.25312
 20
1.4726300000000001
 30
0.0
 10
2.0219800000000001
 20
1.4142100000000002
 30
0.0
 10
1.8010000000000002
 20
1.2846700000000002
 30
0.0
 10
1.6790800000000001
 20
1.06623
 30
0.0
 10
1.6790800000000001
 20
1.06623
 30
0.0
 10
1.8949800000000001
 20
1.0814700000000002
 30
0.0
 10
2.1388200000000004
 20
1.2973700000000001
 30
0.0
 10
2.4461600000000003
 20
1.2694300000000001
 30
0.0
 10
2.4461600000000003
 20
1.2694300000000001
 30
0.0
 10
2.7484200000000003
 20
1.1246500000000001
 30
0.0
 10
3.1294200000000001
 20
1.3837300000000001
 30
0.0
 10
3.4113600000000002
 20
1.3126100000000001
 30
0.0
 10
3.4113600000000002
 20
1.3126100000000001
 30
0.0
 10
2.8043
 20
0.93669
 30
0.0
 10
1.5470000000000002
 20
1.3837300000000001
 30
0.0
 10
1.8162400000000001
 20
0.14167
 30
0.0
 10
1.8162400000000001
 20
0.14167
 30
0.0
 10
1.3539600000000001
 20
0.15437
 30
0.0
 10
1.0034400000000001
 20
-0.0031
 30
0.0
 10
0.51576
 20
-0.0031
 30
0.0
 10
0.51576
 20
-0.0031
 30
0.0
 10
0.15254
 20
0.16961
 30
0.0
 10
0.09412
 20
0.02483
 30
0.0
 10
0.45988
 20
-0.17582
 30
0.0
 10
0.45988
 20
-0.17582
 30
0.0
 10
0.76468
 20
-0.39172
 30
0.0
 10
1.0364600000000002
 20
-0.26218
 30
0.0
 10
1.2650600000000001
 20
-0.04628
 30
0.0
 10
1.2650600000000001
 20
-0.04628
 30
0.0
 10
1.01614
 20
-1.08768
 30
0.0
 10
0.0611
 20
-0.13264
 30
0.0
 10
-0.36053
 20
0.18485
 30
0.0
 10
-0.36053
 20
0.18485
 30
0.0
 10
-0.5865900000000001
 20
0.3575700000000001
 30
0.0
 10
-0.6704100000000001
 20
0.6750700000000001
 30
0.0
 10
-0.8075700000000001
 20
0.93669
 30
0.0
 10
-0.8075700000000001
 20
0.93669
 30
0.0
 10
-0.8736100000000001
 20
1.0509900000000001
 30
0.0
 10
-0.8583700000000001
 20
1.1830700000000001
 30
0.0
 10
-0.8558300000000001
 20
1.2846700000000002
 30
0.0
 10
-0.8558300000000001
 20
1.2846700000000002
 30
0.0
 10
-0.6932700000000001
 20
-0.1174
 30
0.0
 10
1.8238600000000003
 20
-0.19106
 30
0.0
 10
1.4581000000000002
 20
1.44215
 30
0.0
 10
1.4581000000000002
 20
1.44215
 30
0.0
 10
1.56732
 20
1.6605900000000002
 30
0.0
 10
1.6333600000000001
 20
1.9501500000000001
 30
0.0
 10
1.4911200000000002
 20
2.1812900000000002
 30
0.0
 10
1.4911200000000002
 20
2.1812900000000002
 30
0.0
 10
1.39968
 20
2.38449
 30
0.0
 10
1.1660000000000001
 20
2.47085
 30
0.0
 10
0.9653400000000001
 20
2.3971900000000002
 30
0.0
 10
0.9653400000000001
 20
2.3971900000000002
 30
0.0
 10
1.4987400000000002
 20
2.8162900000000004
 30
0.0
 10
2.0067400000000002
 20
2.04921
 30
0.0
 10
1.7222600000000001
 20
1.5005700000000002
 30
0.0
 10
1.7222600000000001
 20
1.5005700000000002
 30
0.0
 10
1.8822800000000002
 20
1.6301100000000002
 30
0.0
 10
1.8264000000000002
 20
1.6301100000000002
 30
0.0
 10
1.8670400000000003
 20
1.7596500000000002
 30
0.0
 10
1.8670400000000003
 20
1.7596500000000002
 30
0.0
 10
1.8670400000000003
 20
1.7596500000000002
 30
0.0
 10
1.9203800000000002
 20
2.2092300000000002
 30
0.0
 10
1.9203800000000002
 20
2.2092300000000002
 30
0.0
 10
1.9203800000000002
 20
2.2092300000000002
 30
0.0
 10
1.9635600000000002
 20
2.2955900000000002
 30
0.0
 10
2.1972400000000003
 20
2.4860900000000004
 30
0.0
 10
1.9254600000000002
 20
2.3692500000000001
 30
0.0
 10
1.9254600000000002
 20
2.3692500000000001
 30
0.0
 10
1.40476
 20
2.9229700000000003
 30
0.0
 10
0.24906
 20
2.6511900000000002
 30
0.0
 10
-0.6069100000000001
 20
2.2041500000000003
 30
0.0
 10
-0.6069100000000001
 20
2.2041500000000003
 30
0.0
 10
-0.7542300000000001
 20
2.1279500000000002
 30
0.0
 10
-0.9447300000000001
 20
2.0466700000000002
 30
0.0
 10
-0.9828300000000001
 20
1.9196700000000002
 30
0.0
 10
-0.9828300000000001
 20
1.9196700000000002
 30
0.0
 10
-0.5840500000000001
 20
2.2244700000000002
 30
0.0
 10
-0.15987
 20
2.1939900000000003
 30
0.0
 10
0.28462
 20
2.2524100000000002
 30
0.0
 10
0.28462
 20
2.2524100000000002
 30
0.0
 10
0.5233800000000001
 20
2.2955900000000002
 30
0.0
 10
0.8840600000000001
 20
2.3260700000000001
 30
0.0
 10
0.45988
 20
2.1939900000000003
 30
0.0
 10
0.45988
 20
2.1939900000000003
 30
0.0
 10
-2.1232900000000003
 20
2.1939900000000003
 30
0.0
 10
-0.3122700000000001
 20
-0.0031
 30
0.0
 10
0.02554
 20
-1.29088
 30
0.0
 10
0.02554
 20
-1.29088
 30
0.0
 10
-0.19035
 20
-1.1308600000000002
 30
0.0
 10
-0.24877
 20
-0.6381
 30
0.0
 10
-0.47483
 20
-0.3637800000000001
 30
0.0
 10
-0.47483
 20
-0.3637800000000001
 30
0.0
 10
-0.63485
 20
-0.26218
 30
0.0
 10
-0.3859300000000001
 20
-0.8540000000000001
 30
0.0
 10
-0.40371
 20
-1.0572000000000001
 30
0.0
 10
-0.40371
 20
-1.0572000000000001
 30
0.0
 10
-0.26401
 20
-1.12578
 30
0.0
 10
-0.28433
 20
-0.9860800000000001
 30
0.0
 10
-0.35799
 20
-0.8387600000000001
 30
0.0
 10
-0.35799
 20
-0.8387600000000001
 30
0.0
 10
-0.40117
 20
-0.7498600000000001
 30
0.0
 10
-0.30465
 20
-0.72192
 30
0.0
 10
-0.24877
 20
-0.9581400000000001
 30
0.0
 10
-0.24877
 20
-0.9581400000000001
 30
0.0
 10
-0.27925
 20
-2.23068
 30
0.0
 10
-0.9218700000000001
 20
0.57601
 30
0.0
 10
-0.63993
 20
-0.78288
 30
0.0
 10
-0.63993
 20
-0.78288
 30
0.0
 10
-0.6018300000000001
 20
-0.97084
 30
0.0
 10
-0.4900700000000001
 20
-1.2324600000000001
 30
0.0
 10
-0.6500900000000001
 20
-1.37724
 30
0.0
 10
-0.6500900000000001
 20
-1.37724
 30
0.0
 10
-0.74153
 20
-0.4780800000000001
 30
0.0
 10
-1.1453900000000001
 20
-0.07422
 30
0.0
 10
-0.8990100000000001
 20
0.6903100000000001
 30
0.0
 10
-0.8990100000000001
 20
0.6903100000000001
 30
0.0
 10
-1.0920500000000002
 20
1.02305
 30
0.0
 10
-1.4400300000000001
 20
2.0796900000000003
 30
0.0
 10
-1.7956300000000001
 20
1.4294500000000001
 30
0.0
 10
-1.7956300000000001
 20
1.4294500000000001
 30
0.0
 10
-1.8489700000000002
 20
1.2694300000000001
 30
0.0
 10
-1.7397500000000001
 20
1.3710300000000002
 30
0.0
 10
-1.7067300000000001
 20
1.4573900000000002
 30
0.0
 10
-1.7067300000000001
 20
1.4573900000000002
 30
0.0
 10
-1.62799
 20
1.5005700000000002
 30
0.0
 10
-1.71435
 20
1.4726300000000001
 30
0.0
 10
-1.58989
 20
1.44469
 30
0.0
 10
-1.58989
 20
1.44469
 30
0.0
 10
-1.5594100000000002
 20
1.2618100000000001
 30
0.0
 10
-1.5746500000000001
 20
1.0433700000000001
 30
0.0
 10
-1.5340100000000001
 20
0.80969
 30
0.0
 10
-1.5340100000000001
 20
0.80969
 30
0.0
 10
-1.46289
 20
0.39821
 30
0.0
 10
-1.3206500000000001
 20
-0.06152
 30
0.0
 10
-1.1784100000000002
 20
-0.4780800000000001
 30
0.0
 10
-1.1784100000000002
 20
-0.4780800000000001
 30
0.0
 10
-1.1784100000000002
 20
-0.4780800000000001
 30
0.0
 10
-1.2622300000000002
 20
-0.43236
 30
0.0
 10
-1.2622300000000002
 20
-0.43236
 30
0.0
 10
-1.2622300000000002
 20
-0.43236
 30
0.0
 10
-1.2622300000000002
 20
-0.43236
 30
0.0
 10
-1.6229100000000001
 20
0.5023500000000001
 30
0.0
 10
-1.6229100000000001
 20
0.5023500000000001
 30
0.0
 10
-1.6229100000000001
 20
0.5023500000000001
 30
0.0
 10
-2.1715500000000003
 20
1.15259
 30
0.0
 10
-2.4103100000000004
 20
-1.6795000000000002
 30
0.0
 10
-1.7702300000000002
 20
-0.4780800000000001
 30
0.0
 10
-1.7702300000000002
 20
-0.4780800000000001
 30
0.0
 10
-1.5975100000000002
 20
-0.65334
 30
0.0
 10
-1.2850900000000001
 20
-0.88448
 30
0.0
 10
-1.1047500000000001
 20
-0.6381
 30
0.0
 10
-1.1047500000000001
 20
-0.6381
 30
0.0
 10
-0.9777500000000001
 20
-1.0572000000000001
 30
0.0
 10
-0.86599
 20
-1.1156200000000001
 30
0.0
 10
-1.04633
 20
-0.65334
 30
0.0
 10
-1.04633
 20
-0.65334
 30
0.0
 10
-1.1047500000000001
 20
-0.4222
 30
0.0
 10
-1.0260100000000001
 20
-0.16058
 30
0.0
 10
-0.95235
 20
-0.50856
 30
0.0
 10
-0.95235
 20
-0.50856
 30
0.0
 10
-0.7694700000000001
 20
-0.7981200000000001
 30
0.0
 10
-0.8202700000000001
 20
-1.7099800000000001
 30
0.0
 10
-1.00315
 20
-0.9987800000000001
 30
0.0
 10
-1.00315
 20
-0.9987800000000001
 30
0.0
 10
-1.04125
 20
-0.9124200000000001
 30
0.0
 10
-1.0691900000000001
 20
-1.0140200000000001
 30
0.0
 10
-1.04379
 20
-1.0572000000000001
 30
0.0
 10
-1.04379
 20
-1.0572000000000001
 30
0.0
 10
-0.9066300000000001
 20
-1.5804400000000001
 30
0.0
 10
-1.4705100000000002
 20
-1.5067800000000002
 30
0.0
 10
-1.4019300000000001
 20
-1.0572000000000001
 30
0.0
 10
-1.4019300000000001
 20
-1.0572000000000001
 30
0.0
 10
-1.5594100000000002
 20
-1.2096
 30
0.0
 10
-1.3409700000000002
 20
-1.3924800000000002
 30
0.0
 10
-1.46543
 20
-1.4356600000000002
 30
0.0
 10
-1.46543
 20
-1.4356600000000002
 30
0.0
 10
-2.3239500000000004
 20
-1.7252200000000002
 30
0.0
 10
-0.4900700000000001
 20
-1.4051800000000001
 30
0.0
 10
-1.2622300000000002
 20
-1.6515600000000001
 30
0.0
 10
-1.2622300000000002
 20
-1.6515600000000001
 30
0.0
 10
-1.2622300000000002
 20
-1.6515600000000001
 30
0.0
 10
-1.5949700000000002
 20
-1.6795000000000002
 30
0.0
 10
-1.5949700000000002
 20
-1.6795000000000002
 30
0.0
 10
-1.5949700000000002
 20
-1.6795000000000002
 30
0.0
 10
-1.9353300000000002
 20
-1.7252200000000002
 30
0.0
 10
-2.0394700000000001
 20
-1.4356600000000002
 30
0.0
 10
-2.0674100000000002
 20
-1.1740400000000002
 30
0.0
 10
-2.0674100000000002
 20
-1.1740400000000002
 30
0.0
 10
-2.1105900000000002
 20
-1.1054600000000001
 30
0.0
 10
-2.0902700000000003
 20
-1.2680200000000001
 30
0.0
 10
-2.0928100000000001
 20
-1.3061200000000002
 30
0.0
 10
-2.0928100000000001
 20
-1.3061200000000002
 30
0.0
 10
-2.1182100000000004
 20
-1.67188
 30
0.0
 10
-2.2553700000000001
 20
-1.2629400000000002
 30
0.0
 10
-2.2553700000000001
 20
-1.0140200000000001
 30
0.0
 10
-2.2553700000000001
 20
-1.0140200000000001
 30
0.0
 10
-2.2985500000000001
 20
-0.9606800000000001
 30
0.0
 10
-2.2858500000000004
 20
-1.11816
 30
0.0
 10
-2.2909300000000004
 20
-1.16388
 30
0.0
 10
-2.2909300000000004
 20
-1.16388
 30
0.0
 10
-2.4204700000000003
 20
-2.1367000000000003
 30
0.0
 10
-2.9132300000000004
 20
-1.0597400000000001
 30
0.0
 10
-2.5068300000000003
 20
-0.4374400000000001
 30
0.0
 10
-2.5068300000000003
 20
-0.4374400000000001
 30
0.0
 10
-2.4484100000000004
 20
-0.27742
 30
0.0
 10
-2.3493500000000003
 20
0.02483
 30
0.0
 10
-2.5144500000000001
 20
-0.26218
 30
0.0
 10
-2.5144500000000001
 20
-0.26218
 30
0.0
 10
-2.5703300000000002
 20
-0.4222
 30
0.0
 10
-2.6033500000000003
 20
-0.6381
 30
0.0
 10
-2.7328900000000003
 20
-0.7397
 30
0.0
 10
-2.7328900000000003
 20
-0.7397
 30
0.0
 10
-2.5703300000000002
 20
0.09595
 30
0.0
 10
-1.29525
 20
1.3557900000000001
 30
0.0
 10
-2.6465300000000003
 20
1.8333100000000002
 30
0.0
 10
-2.6465300000000003
 20
1.8333100000000002
 30
0.0
 10
-2.4636500000000003
 20
1.8917300000000001
 30
0.0
 10
-2.2121900000000001
 20
1.7317100000000001
 30
0.0
 10
-2.05979
 20
1.6021700000000001
 30
0.0
 10
-2.05979
 20
1.6021700000000001
 30
0.0
 10
-2.2071100000000001
 20
2.2092300000000002
 30
0.0
 10
-3.2688300000000003
 20
2.0212700000000003
 30
0.0
 10
-3.3704300000000003
 20
2.51403
 30
0.0
 10
-3.3704300000000003
 20
2.51403
 30
0.0
 10
-3.0707100000000001
 20
2.4860900000000004
 30
0.0
 10
-2.7405100000000004
 20
2.3971900000000002
 30
0.0
 10
-2.4357100000000003
 20
2.3108300000000002
 30
0.0
 10
-2.4357100000000003
 20
2.3108300000000002
 30
0.0
 10
-2.2172700000000001
 20
2.0644500000000003
 30
0.0
 10
-1.9810500000000002
 20
1.8485500000000001
 30
0.0
 10
-1.6508500000000002
 20
1.9501500000000001
 30
0.0
 10
-1.6508500000000002
 20
1.9501500000000001
 30
0.0
 10
-1.42225
 20
1.8333100000000002
 30
0.0
 10
-1.8743700000000001
 20
1.9780900000000001
 30
0.0
 10
-1.9124700000000001
 20
1.8485500000000001
 30
0.0
 10
-1.9124700000000001
 20
1.8485500000000001
 30
0.0
 10
-1.5238500000000001
 20
1.44215
 30
0.0
 10
-0.9066300000000001
 20
1.9628500000000002
 30
0.0
 10
-1.2850900000000001
 20
2.0796900000000003
 30
0.0
 10
-1.2850900000000001
 20
2.0796900000000003
 30
0.0
 10
-0.56881
 20
2.38449
 30
0.0
 10
0.24906
 20
2.9483700000000002
 30
0.0
 10
1.10758
 20
3.1058500000000002
 30
0.0
 10
1.10758
 20
3.1058500000000002
 30
0.0
 10
1.2523600000000001
 20
3.3954100000000005
 30
0.0
 10
1.5495400000000001
 20
4.0177100000000001
 30
0.0
 10
1.02122
 20
3.8322900000000004
 30
0.0
 10
1.02122
 20
3.8322900000000004
 30
0.0
 10
0.8866000000000001
 20
2.7172300000000003
 30
0.0
 10
-0.29957
 20
2.8315300000000003
 30
0.0
 10
-1.0158500000000001
 20
3.3242900000000004
 30
0.0
 10
-1.0158500000000001
 20
3.3242900000000004
 30
0.0
 10
-0.8710700000000001
 20
3.9897700000000005
 30
0.0
 10
-0.35037
 20
4.4952300000000003
 30
0.0
 10
0.11444
 20
4.9752900000000002
 30
0.0
 10
0.11444
 20
4.9752900000000002
 30
0.0
 10
0.57672
 20
5.01593
 30
0.0
 10
1.0136000000000001
 20
4.6247700000000007
 30
0.0
 10
1.4581000000000002
 20
4.4672900000000002
 30
0.0
  0
SPLINE
  5
2E
100
AcDbEntity
  8
Ebene 1
 62
     7
100
AcDbSpline
210
0.0
220
0.0
230
1.0
 70
     1
 71
     3
 72
    84
 73
    80
 74
     0
 42
0.0000000001
 43
0.0000000001
 40
0.0
 40
0.0
 40
0.0
 40
0.0
 40
0.05
 40
0.05
 40
0.05
 40
0.05
 40
0.1
 40
0.1
 40
0.1
 40
0.1
 40
0.15
 40
0.15
 40
0.15
 40
0.15
 40
0.2
 40
0.2
 40
0.2
 40
0.2
 40
0.25
 40
0.25
 40
0.25
 40
0.25
 40
0.3
 40
0.3
 40
0.3
 40
0.3
 40
0.35
 40
0.35
 40
0.35
 40
0.35
 40
0.4
 40
0.4
 40
0.4
 40
0.4
 40
0.45
 40
0.45
 40
0.45
 40
0.45
 40
0.4999999999999999
 40
0.4999999999999999
 40
0.4999999999999999
 40
0.4999999999999999
 40
0.5499999999999999
 40
0.5499999999999999
 40
0.5499999999999999
 40
0.5499999999999999
 40
0.6
 40
0.6
 40
0.6
 40
0.6
 40
0.65
 40
0.65
 40
0.65
 40
0.65
 40
0.7000000000000001
 40
0.7000000000000001
 40
0.7000000000000001
 40
0.7000000000000001
 40
0.7500000000000001
 40
0.7500000000000001
 40
0.7500000000000001
 40
0.7500000000000001
 40
0.8000000000000002
 40
0.8000000000000002
 40
0.8000000000000002
 40
0.8000000000000002
 40
0.8500000000000002
 40
0.8500000000000002
 40
0.8500000000000002
 40
0.8500000000000002
 40
0.9000000000000002
 40
0.9000000000000002
 40
0.9000000000000002
 40
0.9000000000000002
 40
0.9500000000000003
 40
0.9500000000000003
 40
0.9500000000000003
 40
0.9500000000000003
 40
1.0
 40
1.0
 40
1.0
 40
1.0
 10
-2.5500100000000003
 20
4.8736900000000007
 30
0.0
 10
-2.7532100000000002
 20
4.2640900000000004
 30
0.0
 10
-3.1011900000000003
 20
3.6417900000000003
 30
0.0
 10
-3.11389
 20
2.9610700000000003
 30
0.0
 10
-3.11389
 20
2.9610700000000003
 30
0.0
 10
-2.9919700000000002
 20
2.7883500000000003
 30
0.0
 10
-2.8878300000000001
 20
2.6867500000000004
 30
0.0
 10
-2.7074900000000004
 20
2.6308700000000003
 30
0.0
 10
-2.7074900000000004
 20
2.6308700000000003
 30
0.0
 10
-2.6719300000000001
 20
2.7172300000000003
 30
0.0
 10
-2.6770100000000001
 20
2.8467700000000002
 30
0.0
 10
-2.52969
 20
2.8620100000000002
 30
0.0
 10
-2.52969
 20
2.8620100000000002
 30
0.0
 10
-2.4103100000000004
 20
2.8899500000000002
 30
0.0
 10
-2.2858500000000004
 20
2.9204300000000001
 30
0.0
 10
-2.1588500000000002
 20
2.9331300000000002
 30
0.0
 10
-2.1588500000000002
 20
2.9331300000000002
 30
0.0
 10
-2.0801100000000003
 20
2.8747100000000003
 30
0.0
 10
-2.1055100000000002
 20
2.7172300000000003
 30
0.0
 10
-2.05979
 20
2.6156300000000003
 30
0.0
 10
-2.05979
 20
2.6156300000000003
 30
0.0
 10
-1.9988300000000001
 20
2.4556100000000001
 30
0.0
 10
-1.9429500000000002
 20
2.2828900000000001
 30
0.0
 10
-1.9150100000000001
 20
2.1076300000000003
 30
0.0
 10
-1.9150100000000001
 20
2.1076300000000003
 30
0.0
 10
-2.1690100000000001
 20
2.1381100000000002
 30
0.0
 10
-2.2096500000000003
 20
2.6003900000000004
 30
0.0
 10
-2.3468100000000001
 20
2.6588100000000003
 30
0.0
 10
-2.3468100000000001
 20
2.6588100000000003
 30
0.0
 10
-2.3468100000000001
 20
2.6588100000000003
 30
0.0
 10
-2.05979
 20
2.0796900000000003
 30
0.0
 10
-2.05979
 20
2.0796900000000003
 30
0.0
 10
-2.05979
 20
2.0796900000000003
 30
0.0
 10
-2.0928100000000001
 20
2.0796900000000003
 30
0.0
 10
-2.1283700000000003
 20
2.1076300000000003
 30
0.0
 10
-2.1537700000000002
 20
2.1228700000000003
 30
0.0
 10
-2.1537700000000002
 20
2.1228700000000003
 30
0.0
 10
-2.35189
 20
2.6435700000000004
 30
0.0
 10
-3.0224500000000001
 20
2.3692500000000001
 30
0.0
 10
-3.4034500000000003
 20
2.6308700000000003
 30
0.0
 10
-3.4034500000000003
 20
2.6308700000000003
 30
0.0
 10
-3.5761700000000003
 20
2.5419700000000001
 30
0.0
 10
-3.4593300000000005
 20
2.2676500000000002
 30
0.0
 10
-3.7158700000000002
 20
2.2092300000000002
 30
0.0
 10
-3.7158700000000002
 20
2.2092300000000002
 30
0.0
 10
-3.7158700000000002
 20
2.2092300000000002
 30
0.0
 10
-3.6345900000000002
 20
2.4556100000000001
 30
0.0
 10
-3.6345900000000002
 20
2.4556100000000001
 30
0.0
 10
-3.6345900000000002
 20
2.4556100000000001
 30
0.0
 10
-3.6574500000000003
 20
2.6867500000000004
 30
0.0
 10
-3.8733500000000003
 20
2.6715100000000001
 30
0.0
 10
-3.6345900000000002
 20
2.7604100000000003
 30
0.0
 10
-3.6345900000000002
 20
2.7604100000000003
 30
0.0
 10
-3.6193500000000003
 20
2.8035900000000002
 30
0.0
 10
-3.6701500000000005
 20
2.8035900000000002
 30
0.0
 10
-3.7031700000000005
 20
2.8035900000000002
 30
0.0
 10
-3.7031700000000005
 20
2.8035900000000002
 30
0.0
 10
-3.7565100000000005
 20
2.9915500000000002
 30
0.0
 10
-3.5126700000000004
 20
2.6867500000000004
 30
0.0
 10
-3.4186900000000002
 20
2.7756500000000002
 30
0.0
 10
-3.4186900000000002
 20
2.7756500000000002
 30
0.0
 10
-3.2510500000000002
 20
3.1363300000000001
 30
0.0
 10
-2.9259300000000001
 20
3.6290900000000001
 30
0.0
 10
-3.5050500000000002
 20
3.8018100000000001
 30
0.0
 10
-3.5050500000000002
 20
3.8018100000000001
 30
0.0
 10
-3.4263100000000004
 20
3.9034100000000005
 30
0.0
 10
-3.2129500000000002
 20
3.7002100000000002
 30
0.0
 10
-3.1418300000000001
 20
3.8322900000000004
 30
0.0
 10
-3.1418300000000001
 20
3.8322900000000004
 30
0.0
 10
-3.3094700000000001
 20
3.9034100000000005
 30
0.0
 10
-3.3221700000000003
 20
4.0050100000000004
 30
0.0
 10
-3.3983700000000003
 20
4.1193100000000005
 30
0.0
 10
-3.3983700000000003
 20
4.1193100000000005
 30
0.0
 10
-3.2688300000000003
 20
4.1040700000000001
 30
0.0
 10
-3.1088100000000001
 20
4.0913700000000004
 30
0.0
 10
-2.9716500000000003
 20
4.04819
 30
0.0
 10
-2.9716500000000003
 20
4.04819
 30
0.0
 10
-2.9716500000000003
 20
4.04819
 30
0.0
 10
-2.5500100000000003
 20
4.8736900000000007
 30
0.0
 10
-2.5500100000000003
 20
4.8736900000000007
 30
0.0
  0
SPLINE
  5
2F
100
AcDbEntity
  8
Ebene 1
 62
     7
100
AcDbSpline
210
0.0
220
0.0
230
1.0
 70
     1
 71
     3
 72
    20
 73
    16
 74
     0
 42
0.0000000001
 43
0.0000000001
 40
0.0
 40
0.0
 40
0.0
 40
0.0
 40
0.25
 40
0.25
 40
0.25
 40
0.25
 40
0.5
 40
0.5
 40
0.5
 40
0.5
 40
0.75
 40
0.75
 40
0.75
 40
0.75
 40
1.0
 40
1.0
 40
1.0
 40
1.0
 10
4.0616000000000003
 20
3.8881700000000001
 30
0.0
 10
4.0920800000000002
 20
3.9034100000000005
 30
0.0
 10
4.0920800000000002
 20
3.8602300000000005
 30
0.0
 10
4.1047800000000008
 20
3.8449900000000001
 30
0.0
 10
4.1047800000000008
 20
3.8449900000000001
 30
0.0
 10
4.0946199999999999
 20
3.4538300000000004
 30
0.0
 10
3.9320600000000003
 20
3.0779100000000001
 30
0.0
 10
3.8025200000000003
 20
2.7451700000000003
 30
0.0
 10
3.8025200000000003
 20
2.7451700000000003
 30
0.0
 10
3.7796600000000002
 20
2.7604100000000003
 30
0.0
 10
3.7542600000000004
 20
2.7756500000000002
 30
0.0
 10
3.7441000000000004
 20
2.8035900000000002
 30
0.0
 10
3.7441000000000004
 20
2.8035900000000002
 30
0.0
 10
3.8533200000000005
 20
3.1642700000000001
 30
0.0
 10
3.9930200000000005
 20
3.4970100000000004
 30
0.0
 10
4.0616000000000003
 20
3.8881700000000001
 30
0.0
  0
SPLINE
  5
30
100
AcDbEntity
  8
Ebene 1
 62
     7
100
AcDbSpline
210
0.0
220
0.0
230
1.0
 70
     1
 71
     3
 72
    12
 73
     8
 74
     0
 42
0.0000000001
 43
0.0000000001
 40
0.0
 40
0.0
 40
0.0
 40
0.0
 40
0.5
 40
0.5
 40
0.5
 40
0.5
 40
1.0
 40
1.0
 40
1.0
 40
1.0
 10
4.2216200000000006
 20
3.7002100000000002
 30
0.0
 10
4.4095800000000001
 20
3.3827100000000003
 30
0.0
 10
4.1809799999999999
 20
2.9610700000000003
 30
0.0
 10
3.9930200000000005
 20
2.6588100000000003
 30
0.0
 10
3.9930200000000005
 20
2.6588100000000003
 30
0.0
 10
4.0920800000000002
 20
3.0067900000000001
 30
0.0
 10
4.1784400000000002
 20
3.3369900000000001
 30
0.0
 10
4.2216200000000006
 20
3.7002100000000002
 30
0.0
  0
SPLINE
  5
31
100
AcDbEntity
  8
Ebene 1
 62
     7
100
AcDbSpline
210
0.0
220
0.0
230
1.0
 70
     1
 71
     3
 72
    28
 73
    24
 74
     0
 42
0.0000000001
 43
0.0000000001
 40
0.0
 40
0.0
 40
0.0
 40
0.0
 40
0.1666666666666667
 40
0.1666666666666667
 40
0.1666666666666667
 40
0.1666666666666667
 40
0.3333333333333333
 40
0.3333333333333333
 40
0.3333333333333333
 40
0.3333333333333333
 40
0.5
 40
0.5
 40
0.5
 40
0.5
 40
0.6666666666666666
 40
0.6666666666666666
 40
0.6666666666666666
 40
0.6666666666666666
 40
0.8333333333333333
 40
0.8333333333333333
 40
0.8333333333333333
 40
0.8333333333333333
 40
1.0
 40
1.0
 40
1.0
 40
1.0
 10
2.5426800000000003
 20
3.6570300000000002
 30
0.0
 10
2.6671400000000003
 20
3.5706700000000002
 30
0.0
 10
2.9338400000000004
 20
3.4970100000000004
 30
0.0
 10
2.7458800000000001
 20
3.3369900000000001
 30
0.0
 10
2.7458800000000001
 20
3.3369900000000001
 30
0.0
 10
2.8093800000000004
 20
3.2074500000000001
 30
0.0
 10
2.7789000000000001
 20
3.0499700000000001
 30
0.0
 10
2.6036400000000004
 20
3.0931500000000001
 30
0.0
 10
2.6036400000000004
 20
3.0931500000000001
 30
0.0
 10
2.5503
 20
3.1210900000000001
 30
0.0
 10
2.5807800000000003
 20
3.1642700000000001
 30
0.0
 10
2.6112600000000001
 20
3.1922100000000002
 30
0.0
 10
2.6112600000000001
 20
3.1922100000000002
 30
0.0
 10
2.5274400000000004
 20
3.3090500000000005
 30
0.0
 10
2.6493600000000002
 20
3.3827100000000003
 30
0.0
 10
2.71286
 20
3.2506300000000001
 30
0.0
 10
2.71286
 20
3.2506300000000001
 30
0.0
 10
2.71286
 20
3.2506300000000001
 30
0.0
 10
2.6417400000000004
 20
3.5122500000000003
 30
0.0
 10
2.6417400000000004
 20
3.5122500000000003
 30
0.0
 10
2.6417400000000004
 20
3.5122500000000003
 30
0.0
 10
2.5960200000000002
 20
3.5401900000000004
 30
0.0
 10
2.5045800000000003
 20
3.5986100000000003
 30
0.0
 10
2.5426800000000003
 20
3.6570300000000002
 30
0.0
  0
SPLINE
  5
32
100
AcDbEntity
  8
Ebene 1
 62
     7
100
AcDbSpline
210
0.0
220
0.0
230
1.0
 70
     1
 71
     3
 72
    48
 73
    44
 74
     0
 42
0.0000000001
 43
0.0000000001
 40
0.0
 40
0.0
 40
0.0
 40
0.0
 40
0.0909090909090909
 40
0.0909090909090909
 40
0.0909090909090909
 40
0.0909090909090909
 40
0.1818181818181818
 40
0.1818181818181818
 40
0.1818181818181818
 40
0.1818181818181818
 40
0.2727272727272727
 40
0.2727272727272727
 40
0.2727272727272727
 40
0.2727272727272727
 40
0.3636363636363637
 40
0.3636363636363637
 40
0.3636363636363637
 40
0.3636363636363637
 40
0.4545454545454546
 40
0.4545454545454546
 40
0.4545454545454546
 40
0.4545454545454546
 40
0.5454545454545455
 40
0.5454545454545455
 40
0.5454545454545455
 40
0.5454545454545455
 40
0.6363636363636365
 40
0.6363636363636365
 40
0.6363636363636365
 40
0.6363636363636365
 40
0.7272727272727274
 40
0.7272727272727274
 40
0.7272727272727274
 40
0.7272727272727274
 40
0.8181818181818183
 40
0.8181818181818183
 40
0.8181818181818183
 40
0.8181818181818183
 40
0.9090909090909093
 40
0.9090909090909093
 40
0.9090909090909093
 40
0.9090909090909093
 40
1.0
 40
1.0
 40
1.0
 40
1.0
 10
-1.29017
 20
3.1363300000000001
 30
0.0
 10
-1.29017
 20
3.1363300000000001
 30
0.0
 10
-1.0742700000000001
 20
3.1210900000000001
 30
0.0
 10
-1.0742700000000001
 20
3.1210900000000001
 30
0.0
 10
-1.0742700000000001
 20
3.1210900000000001
 30
0.0
 10
-1.12253
 20
2.8899500000000002
 30
0.0
 10
-1.16571
 20
2.6308700000000003
 30
0.0
 10
-1.2647700000000002
 20
2.4124300000000001
 30
0.0
 10
-1.2647700000000002
 20
2.4124300000000001
 30
0.0
 10
-1.3587500000000001
 20
2.47085
 30
0.0
 10
-1.4908300000000001
 20
2.3260700000000001
 30
0.0
 10
-1.6330700000000002
 20
2.38449
 30
0.0
 10
-1.6330700000000002
 20
2.38449
 30
0.0
 10
-1.6914900000000002
 20
2.47085
 30
0.0
 10
-1.54671
 20
2.6308700000000003
 30
0.0
 10
-1.6686300000000001
 20
2.7299300000000004
 30
0.0
 10
-1.6686300000000001
 20
2.7299300000000004
 30
0.0
 10
-1.7397500000000001
 20
2.6867500000000004
 30
0.0
 10
-1.7219700000000002
 20
2.4987900000000001
 30
0.0
 10
-1.6991100000000001
 20
2.4124300000000001
 30
0.0
 10
-1.6991100000000001
 20
2.4124300000000001
 30
0.0
 10
-1.7626100000000002
 20
2.4124300000000001
 30
0.0
 10
-1.8362700000000001
 20
2.42767
 30
0.0
 10
-1.8794500000000001
 20
2.3692500000000001
 30
0.0
 10
-1.8794500000000001
 20
2.3692500000000001
 30
0.0
 10
-2.05471
 20
2.5292700000000004
 30
0.0
 10
-2.0470900000000003
 20
2.8315300000000003
 30
0.0
 10
-2.0521700000000003
 20
3.0347300000000001
 30
0.0
 10
-2.0521700000000003
 20
3.0347300000000001
 30
0.0
 10
-2.0521700000000003
 20
3.0347300000000001
 30
0.0
 10
-1.9734300000000002
 20
2.9204300000000001
 30
0.0
 10
-1.9734300000000002
 20
2.9204300000000001
 30
0.0
 10
-1.9734300000000002
 20
2.9204300000000001
 30
0.0
 10
-1.9734300000000002
 20
2.9204300000000001
 30
0.0
 10
-1.9810500000000002
 20
3.0499700000000001
 30
0.0
 10
-1.9810500000000002
 20
3.0499700000000001
 30
0.0
 10
-1.9810500000000002
 20
3.0499700000000001
 30
0.0
 10
-1.7956300000000001
 20
3.0931500000000001
 30
0.0
 10
-1.5924300000000002
 20
3.1363300000000001
 30
0.0
 10
-1.41971
 20
3.0347300000000001
 30
0.0
 10
-1.41971
 20
3.0347300000000001
 30
0.0
 10
-1.3460500000000002
 20
3.0194900000000002
 30
0.0
 10
-1.3181100000000001
 20
3.0779100000000001
 30
0.0
 10
-1.29017
 20
3.1363300000000001
 30
0.0
  0
SPLINE
  5
33
100
AcDbEntity
  8
Ebene 1
 62
     7
100
AcDbSpline
210
0.0
220
0.0
230
1.0
 70
     1
 71
     3
 72
    48
 73
    44
 74
     0
 42
0.0000000001
 43
0.0000000001
 40
0.0
 40
0.0
 40
0.0
 40
0.0
 40
0.0909090909090909
 40
0.0909090909090909
 40
0.0909090909090909
 40
0.0909090909090909
 40
0.1818181818181818
 40
0.1818181818181818
 40
0.1818181818181818
 40
0.1818181818181818
 40
0.2727272727272727
 40
0.2727272727272727
 40
0.2727272727272727
 40
0.2727272727272727
 40
0.3636363636363637
 40
0.3636363636363637
 40
0.3636363636363637
 40
0.3636363636363637
 40
0.4545454545454546
 40
0.4545454545454546
 40
0.4545454545454546
 40
0.4545454545454546
 40
0.5454545454545455
 40
0.5454545454545455
 40
0.5454545454545455
 40
0.5454545454545455
 40
0.6363636363636365
 40
0.6363636363636365
 40
0.6363636363636365
 40
0.6363636363636365
 40
0.7272727272727274
 40
0.7272727272727274
 40
0.7272727272727274
 40
0.7272727272727274
 40
0.8181818181818183
 40
0.8181818181818183
 40
0.8181818181818183
 40
0.8181818181818183
 40
0.9090909090909093
 40
0.9090909090909093
 40
0.9090909090909093
 40
0.9090909090909093
 40
1.0
 40
1.0
 40
1.0
 40
1.0
 10
-1.0158500000000001
 20
3.1210900000000001
 30
0.0
 10
-0.6729500000000001
 20
3.1515700000000004
 30
0.0
 10
-0.3757700000000001
 20
2.9915500000000002
 30
0.0
 10
-0.10653
 20
2.8315300000000003
 30
0.0
 10
-0.10653
 20
2.8315300000000003
 30
0.0
 10
-0.3122700000000001
 20
2.7756500000000002
 30
0.0
 10
-0.45705
 20
2.5572100000000004
 30
0.0
 10
-0.6856500000000001
 20
2.51403
 30
0.0
 10
-0.6856500000000001
 20
2.51403
 30
0.0
 10
-0.7770900000000001
 20
2.5572100000000004
 30
0.0
 10
-0.58913
 20
2.6156300000000003
 30
0.0
 10
-0.65263
 20
2.6867500000000004
 30
0.0
 10
-0.65263
 20
2.6867500000000004
 30
0.0
 10
-0.5180100000000001
 20
2.6867500000000004
 30
0.0
 10
-0.6094500000000001
 20
2.7756500000000002
 30
0.0
 10
-0.5408700000000001
 20
2.8315300000000003
 30
0.0
 10
-0.5408700000000001
 20
2.8315300000000003
 30
0.0
 10
-0.5180100000000001
 20
2.8899500000000002
 30
0.0
 10
-0.4164100000000001
 20
2.8315300000000003
 30
0.0
 10
-0.4367300000000001
 20
2.9051900000000002
 30
0.0
 10
-0.4367300000000001
 20
2.9051900000000002
 30
0.0
 10
-0.44181
 20
2.9204300000000001
 30
0.0
 10
-0.4595900000000001
 20
2.9331300000000002
 30
0.0
 10
-0.4799100000000001
 20
2.9331300000000002
 30
0.0
 10
-0.4799100000000001
 20
2.9331300000000002
 30
0.0
 10
-0.80249
 20
2.7883500000000003
 30
0.0
 10
-1.04633
 20
2.5724500000000003
 30
0.0
 10
-1.1784100000000002
 20
2.2676500000000002
 30
0.0
 10
-1.1784100000000002
 20
2.2676500000000002
 30
0.0
 10
-1.20381
 20
2.2524100000000002
 30
0.0
 10
-1.2393700000000001
 20
2.2244700000000002
 30
0.0
 10
-1.2723900000000001
 20
2.2244700000000002
 30
0.0
 10
-1.2723900000000001
 20
2.2244700000000002
 30
0.0
 10
-1.2723900000000001
 20
2.2244700000000002
 30
0.0
 10
-1.20381
 20
2.4124300000000001
 30
0.0
 10
-1.20381
 20
2.4124300000000001
 30
0.0
 10
-1.20381
 20
2.4124300000000001
 30
0.0
 10
-1.1149100000000001
 20
2.4987900000000001
 30
0.0
 10
-1.20381
 20
2.5724500000000003
 30
0.0
 10
-1.1479300000000001
 20
2.6588100000000003
 30
0.0
 10
-1.1479300000000001
 20
2.6588100000000003
 30
0.0
 10
-1.1479300000000001
 20
2.6588100000000003
 30
0.0
 10
-1.0158500000000001
 20
3.1210900000000001
 30
0.0
 10
-1.0158500000000001
 20
3.1210900000000001
 30
0.0
  0
SPLINE
  5
34
100
AcDbEntity
  8
Ebene 1
 62
     7
100
AcDbSpline
210
0.0
220
0.0
230
1.0
 70
     1
 71
     3
 72
    24
 73
    20
 74
     0
 42
0.0000000001
 43
0.0000000001
 40
0.0
 40
0.0
 40
0.0
 40
0.0
 40
0.2
 40
0.2
 40
0.2
 40
0.2
 40
0.4
 40
0.4
 40
0.4
 40
0.4
 40
0.6000000000000001
 40
0.6000000000000001
 40
0.6000000000000001
 40
0.6000000000000001
 40
0.8
 40
0.8
 40
0.8
 40
0.8
 40
1.0
 40
1.0
 40
1.0
 40
1.0
 10
4.3079800000000006
 20
3.1058500000000002
 30
0.0
 10
4.3181400000000005
 20
3.1058500000000002
 30
0.0
 10
4.3410000000000002
 20
3.1058500000000002
 30
0.0
 10
4.3359200000000007
 20
3.0931500000000001
 30
0.0
 10
4.3359200000000007
 20
3.0931500000000001
 30
0.0
 10
4.3105200000000004
 20
2.8035900000000002
 30
0.0
 10
4.3181400000000005
 20
2.4987900000000001
 30
0.0
 10
4.1911400000000008
 20
2.2397100000000001
 30
0.0
 10
4.1911400000000008
 20
2.2397100000000001
 30
0.0
 10
4.0971600000000006
 20
2.2828900000000001
 30
0.0
 10
4.1657400000000004
 20
2.38449
 30
0.0
 10
4.2216200000000006
 20
2.4403700000000002
 30
0.0
 10
4.2216200000000006
 20
2.4403700000000002
 30
0.0
 10
4.2216200000000006
 20
2.4403700000000002
 30
0.0
 10
4.1479600000000003
 20
2.5419700000000001
 30
0.0
 10
4.1479600000000003
 20
2.5419700000000001
 30
0.0
 10
4.1479600000000003
 20
2.5419700000000001
 30
0.0
 10
4.2114600000000006
 20
2.7299300000000004
 30
0.0
 10
4.2876600000000007
 20
2.9051900000000002
 30
0.0
 10
4.3079800000000006
 20
3.1058500000000002
 30
0.0
  0
SPLINE
  5
35
100
AcDbEntity
  8
Ebene 1
 62
     7
100
AcDbSpline
210
0.0
220
0.0
230
1.0
 70
     1
 71
     3
 72
    28
 73
    24
 74
     0
 42
0.0000000001
 43
0.0000000001
 40
0.0
 40
0.0
 40
0.0
 40
0.0
 40
0.1666666666666667
 40
0.1666666666666667
 40
0.1666666666666667
 40
0.1666666666666667
 40
0.3333333333333333
 40
0.3333333333333333
 40
0.3333333333333333
 40
0.3333333333333333
 40
0.5
 40
0.5
 40
0.5
 40
0.5
 40
0.6666666666666666
 40
0.6666666666666666
 40
0.6666666666666666
 40
0.6666666666666666
 40
0.8333333333333333
 40
0.8333333333333333
 40
0.8333333333333333
 40
0.8333333333333333
 40
1.0
 40
1.0
 40
1.0
 40
1.0
 10
3.2513400000000003
 20
2.9610700000000003
 30
0.0
 10
3.4316800000000001
 20
2.9051900000000002
 30
0.0
 10
3.3427800000000003
 20
2.6715100000000001
 30
0.0
 10
3.3631000000000002
 20
2.5572100000000004
 30
0.0
 10
3.3631000000000002
 20
2.5572100000000004
 30
0.0
 10
3.1345000000000001
 20
2.5419700000000001
 30
0.0
 10
2.9160600000000003
 20
2.6308700000000003
 30
0.0
 10
2.6925400000000002
 20
2.5851500000000001
 30
0.0
 10
2.6925400000000002
 20
2.5851500000000001
 30
0.0
 10
2.7331800000000004
 20
2.7299300000000004
 30
0.0
 10
2.9617800000000001
 20
2.5851500000000001
 30
0.0
 10
2.9770200000000004
 20
2.7451700000000003
 30
0.0
 10
2.9770200000000004
 20
2.7451700000000003
 30
0.0
 10
2.9795600000000002
 20
2.7756500000000002
 30
0.0
 10
3.01004
 20
2.7756500000000002
 30
0.0
 10
3.0303600000000004
 20
2.7756500000000002
 30
0.0
 10
3.0303600000000004
 20
2.7756500000000002
 30
0.0
 10
3.01004
 20
2.8620100000000002
 30
0.0
 10
3.0506800000000003
 20
2.8620100000000002
 30
0.0
 10
3.1167200000000004
 20
2.8467700000000002
 30
0.0
 10
3.1167200000000004
 20
2.8467700000000002
 30
0.0
 10
3.1649800000000003
 20
2.8899500000000002
 30
0.0
 10
3.1929200000000004
 20
2.9483700000000002
 30
0.0
 10
3.2513400000000003
 20
2.9610700000000003
 30
0.0
  0
SPLINE
  5
36
100
AcDbEntity
  8
Ebene 1
 62
     7
100
AcDbSpline
210
0.0
220
0.0
230
1.0
 70
     1
 71
     3
 72
    24
 73
    20
 74
     0
 42
0.0000000001
 43
0.0000000001
 40
0.0
 40
0.0
 40
0.0
 40
0.0
 40
0.2
 40
0.2
 40
0.2
 40
0.2
 40
0.4
 40
0.4
 40
0.4
 40
0.4
 40
0.6000000000000001
 40
0.6000000000000001
 40
0.6000000000000001
 40
0.6000000000000001
 40
0.8
 40
0.8
 40
0.8
 40
0.8
 40
1.0
 40
1.0
 40
1.0
 40
1.0
 10
2.6874600000000002
 20
2.5572100000000004
 30
0.0
 10
3.0049600000000001
 20
2.4987900000000001
 30
0.0
 10
3.4621600000000003
 20
2.6003900000000004
 30
0.0
 10
3.6856800000000005
 20
2.3108300000000002
 30
0.0
 10
3.6856800000000005
 20
2.3108300000000002
 30
0.0
 10
3.6628200000000004
 20
2.2676500000000002
 30
0.0
 10
3.6348800000000003
 20
2.2244700000000002
 30
0.0
 10
3.5993200000000001
 20
2.1939900000000003
 30
0.0
 10
3.5993200000000001
 20
2.1939900000000003
 30
0.0
 10
3.5256600000000002
 20
2.1812900000000002
 30
0.0
 10
3.5485200000000003
 20
2.2828900000000001
 30
0.0
 10
3.4799400000000005
 20
2.2955900000000002
 30
0.0
 10
3.4799400000000005
 20
2.2955900000000002
 30
0.0
 10
3.2132400000000003
 20
2.2828900000000001
 30
0.0
 10
2.9567000000000001
 20
2.3971900000000002
 30
0.0
 10
2.7052400000000003
 20
2.3387700000000002
 30
0.0
 10
2.7052400000000003
 20
2.3387700000000002
 30
0.0
 10
2.6493600000000002
 20
2.3971900000000002
 30
0.0
 10
2.6671400000000003
 20
2.4987900000000001
 30
0.0
 10
2.6874600000000002
 20
2.5572100000000004
 30
0.0
  0
SPLINE
  5
37
100
AcDbEntity
  8
Ebene 1
100
AcDbSpline
210
0.0
220
0.0
230
1.0
 70
     1
 71
     3
 72
    12
 73
     8
 74
     0
 42
0.0000000001
 43
0.0000000001
 40
0.0
 40
0.0
 40
0.0
 40
0.0
 40
0.5
 40
0.5
 40
0.5
 40
0.5
 40
1.0
 40
1.0
 40
1.0
 40
1.0
 10
-0.65263
 20
2.42767
 30
0.0
 10
-0.65263
 20
2.42767
 30
0.0
 10
-0.6856500000000001
 20
2.3971900000000002
 30
0.0
 10
-0.6856500000000001
 20
2.3971900000000002
 30
0.0
 10
-0.6856500000000001
 20
2.3971900000000002
 30
0.0
 10
-0.6856500000000001
 20
2.3971900000000002
 30
0.0
 10
-0.65263
 20
2.42767
 30
0.0
 10
-0.65263
 20
2.42767
 30
0.0
  0
SPLINE
  5
38
100
AcDbEntity
  8
Ebene 1
 62
     7
100
AcDbSpline
210
0.0
220
0.0
230
1.0
 70
     1
 71
     3
 72
    28
 73
    24
 74
     0
 42
0.0000000001
 43
0.0000000001
 40
0.0
 40
0.0
 40
0.0
 40
0.0
 40
0.1666666666666667
 40
0.1666666666666667
 40
0.1666666666666667
 40
0.1666666666666667
 40
0.3333333333333333
 40
0.3333333333333333
 40
0.3333333333333333
 40
0.3333333333333333
 40
0.5
 40
0.5
 40
0.5
 40
0.5
 40
0.6666666666666666
 40
0.6666666666666666
 40
0.6666666666666666
 40
0.6666666666666666
 40
0.8333333333333333
 40
0.8333333333333333
 40
0.8333333333333333
 40
0.8333333333333333
 40
1.0
 40
1.0
 40
1.0
 40
1.0
 10
-1.4070100000000001
 20
2.2092300000000002
 30
0.0
 10
-1.4070100000000001
 20
2.2092300000000002
 30
0.0
 10
-1.3054100000000002
 20
2.1939900000000003
 30
0.0
 10
-1.3054100000000002
 20
2.1939900000000003
 30
0.0
 10
-1.3054100000000002
 20
2.1939900000000003
 30
0.0
 10
-1.3054100000000002
 20
2.1939900000000003
 30
0.0
 10
-1.5517900000000002
 20
2.0644500000000003
 30
0.0
 10
-1.5517900000000002
 20
2.0644500000000003
 30
0.0
 10
-1.5517900000000002
 20
2.0644500000000003
 30
0.0
 10
-1.5619500000000002
 20
2.0644500000000003
 30
0.0
 10
-1.5771900000000001
 20
2.0796900000000003
 30
0.0
 10
-1.5746500000000001
 20
2.0949300000000002
 30
0.0
 10
-1.5746500000000001
 20
2.0949300000000002
 30
0.0
 10
-1.5746500000000001
 20
2.0949300000000002
 30
0.0
 10
-1.5365500000000001
 20
2.1076300000000003
 30
0.0
 10
-1.5365500000000001
 20
2.1076300000000003
 30
0.0
 10
-1.5365500000000001
 20
2.1076300000000003
 30
0.0
 10
-1.5263900000000001
 20
2.1228700000000003
 30
0.0
 10
-1.50607
 20
2.1508100000000003
 30
0.0
 10
-1.4781300000000002
 20
2.1508100000000003
 30
0.0
 10
-1.4781300000000002
 20
2.1508100000000003
 30
0.0
 10
-1.46543
 20
2.1812900000000002
 30
0.0
 10
-1.4298700000000002
 20
2.1939900000000003
 30
0.0
 10
-1.4070100000000001
 20
2.2092300000000002
 30
0.0
  0
SPLINE
  5
39
100
AcDbEntity
  8
Ebene 1
 62
     7
100
AcDbSpline
210
0.0
220
0.0
230
1.0
 70
     1
 71
     3
 72
    44
 73
    40
 74
     0
 42
0.0000000001
 43
0.0000000001
 40
0.0
 40
0.0
 40
0.0
 40
0.0
 40
0.1
 40
0.1
 40
0.1
 40
0.1
 40
0.2
 40
0.2
 40
0.2
 40
0.2
 40
0.3
 40
0.3
 40
0.3
 40
0.3
 40
0.4
 40
0.4
 40
0.4
 40
0.4
 40
0.5
 40
0.5
 40
0.5
 40
0.5
 40
0.6
 40
0.6
 40
0.6
 40
0.6
 40
0.7
 40
0.7
 40
0.7
 40
0.7
 40
0.7999999999999999
 40
0.7999999999999999
 40
0.7999999999999999
 40
0.7999999999999999
 40
0.8999999999999999
 40
0.8999999999999999
 40
0.8999999999999999
 40
0.8999999999999999
 40
1.0
 40
1.0
 40
1.0
 40
1.0
 10
3.8025200000000003
 20
2.1508100000000003
 30
0.0
 10
3.8025200000000003
 20
2.1508100000000003
 30
0.0
 10
3.8990400000000003
 20
2.0796900000000003
 30
0.0
 10
3.8990400000000003
 20
2.0796900000000003
 30
0.0
 10
3.8990400000000003
 20
2.0796900000000003
 30
0.0
 10
3.8888800000000003
 20
1.8333100000000002
 30
0.0
 10
3.8736400000000004
 20
1.5437500000000002
 30
0.0
 10
3.6272600000000002
 20
1.4142100000000002
 30
0.0
 10
3.6272600000000002
 20
1.4142100000000002
 30
0.0
 10
3.6272600000000002
 20
1.4142100000000002
 30
0.0
 10
3.5815400000000004
 20
1.4573900000000002
 30
0.0
 10
3.5815400000000004
 20
1.4573900000000002
 30
0.0
 10
3.5815400000000004
 20
1.4573900000000002
 30
0.0
 10
3.5485200000000003
 20
1.44215
 30
0.0
 10
3.4850200000000005
 20
1.39897
 30
0.0
 10
3.4672400000000003
 20
1.4573900000000002
 30
0.0
 10
3.4672400000000003
 20
1.4573900000000002
 30
0.0
 10
3.4672400000000003
 20
1.4573900000000002
 30
0.0
 10
3.4875600000000002
 20
1.6301100000000002
 30
0.0
 10
3.4875600000000002
 20
1.6301100000000002
 30
0.0
 10
3.4875600000000002
 20
1.6301100000000002
 30
0.0
 10
3.5510600000000001
 20
1.5869300000000002
 30
0.0
 10
3.6831400000000003
 20
1.5005700000000002
 30
0.0
 10
3.7695000000000003
 20
1.6021700000000001
 30
0.0
 10
3.7695000000000003
 20
1.6021700000000001
 30
0.0
 10
3.7441000000000004
 20
1.7596500000000002
 30
0.0
 10
3.8888800000000003
 20
1.8764900000000002
 30
0.0
 10
3.8558600000000003
 20
2.0365100000000003
 30
0.0
 10
3.8558600000000003
 20
2.0365100000000003
 30
0.0
 10
3.8050600000000001
 20
2.0796900000000003
 30
0.0
 10
3.7771200000000005
 20
2.0212700000000003
 30
0.0
 10
3.7491800000000004
 20
1.9933300000000003
 30
0.0
 10
3.7491800000000004
 20
1.9933300000000003
 30
0.0
 10
3.7491800000000004
 20
1.9933300000000003
 30
0.0
 10
3.7618800000000001
 20
2.0796900000000003
 30
0.0
 10
3.7618800000000001
 20
2.0796900000000003
 30
0.0
 10
3.7618800000000001
 20
2.0796900000000003
 30
0.0
 10
3.7618800000000001
 20
2.0796900000000003
 30
0.0
 10
3.8025200000000003
 20
2.1508100000000003
 30
0.0
 10
3.8025200000000003
 20
2.1508100000000003
 30
0.0
  0
SPLINE
  5
3A
100
AcDbEntity
  8
Ebene 1
 62
     7
100
AcDbSpline
210
0.0
220
0.0
230
1.0
 70
     1
 71
     3
 72
    64
 73
    60
 74
     0
 42
0.0000000001
 43
0.0000000001
 40
0.0
 40
0.0
 40
0.0
 40
0.0
 40
0.0666666666666667
 40
0.0666666666666667
 40
0.0666666666666667
 40
0.0666666666666667
 40
0.1333333333333333
 40
0.1333333333333333
 40
0.1333333333333333
 40
0.1333333333333333
 40
0.2
 40
0.2
 40
0.2
 40
0.2
 40
0.2666666666666667
 40
0.2666666666666667
 40
0.2666666666666667
 40
0.2666666666666667
 40
0.3333333333333333
 40
0.3333333333333333
 40
0.3333333333333333
 40
0.3333333333333333
 40
0.4
 40
0.4
 40
0.4
 40
0.4
 40
0.4666666666666666
 40
0.4666666666666666
 40
0.4666666666666666
 40
0.4666666666666666
 40
0.5333333333333333
 40
0.5333333333333333
 40
0.5333333333333333
 40
0.5333333333333333
 40
0.6
 40
0.6
 40
0.6
 40
0.6
 40
0.6666666666666666
 40
0.6666666666666666
 40
0.6666666666666666
 40
0.6666666666666666
 40
0.7333333333333333
 40
0.7333333333333333
 40
0.7333333333333333
 40
0.7333333333333333
 40
0.7999999999999999
 40
0.7999999999999999
 40
0.7999999999999999
 40
0.7999999999999999
 40
0.8666666666666666
 40
0.8666666666666666
 40
0.8666666666666666
 40
0.8666666666666666
 40
0.9333333333333332
 40
0.9333333333333332
 40
0.9333333333333332
 40
0.9333333333333332
 40
1.0
 40
1.0
 40
1.0
 40
1.0
 10
-3.6193500000000003
 20
2.1381100000000002
 30
0.0
 10
-3.6193500000000003
 20
2.1381100000000002
 30
0.0
 10
-3.3297900000000005
 20
2.1381100000000002
 30
0.0
 10
-3.3297900000000005
 20
2.1381100000000002
 30
0.0
 10
-3.3297900000000005
 20
2.1381100000000002
 30
0.0
 10
-3.3297900000000005
 20
2.1381100000000002
 30
0.0
 10
-3.0732500000000003
 20
2.0644500000000003
 30
0.0
 10
-3.0732500000000003
 20
2.0644500000000003
 30
0.0
 10
-3.0732500000000003
 20
2.0644500000000003
 30
0.0
 10
-3.0402300000000002
 20
2.0365100000000003
 30
0.0
 10
-2.9564100000000004
 20
2.0365100000000003
 30
0.0
 10
-2.9564100000000004
 20
1.9780900000000001
 30
0.0
 10
-2.9564100000000004
 20
1.9780900000000001
 30
0.0
 10
-3.2408900000000003
 20
2.1076300000000003
 30
0.0
 10
-3.7260300000000002
 20
2.1076300000000003
 30
0.0
 10
-3.8377900000000005
 20
1.7469500000000002
 30
0.0
 10
-3.8377900000000005
 20
1.7469500000000002
 30
0.0
 10
-3.7641300000000002
 20
1.23895
 30
0.0
 10
-3.7234900000000004
 20
0.74873
 30
0.0
 10
-3.5583900000000002
 20
0.28645
 30
0.0
 10
-3.5583900000000002
 20
0.28645
 30
0.0
 10
-3.3145500000000001
 20
0.04007
 30
0.0
 10
-2.9792700000000001
 20
0.16961
 30
0.0
 10
-2.7176500000000003
 20
0.31439
 30
0.0
 10
-2.7176500000000003
 20
0.31439
 30
0.0
 10
-2.7176500000000003
 20
0.31439
 30
0.0
 10
-2.2731500000000002
 20
0.47187
 30
0.0
 10
-2.2731500000000002
 20
0.47187
 30
0.0
 10
-2.2731500000000002
 20
0.47187
 30
0.0
 10
-2.40523
 20
0.28645
 30
0.0
 10
-2.5017500000000004
 20
0.06801
 30
0.0
 10
-2.61097
 20
-0.13264
 30
0.0
 10
-2.61097
 20
-0.13264
 30
0.0
 10
-2.6770100000000001
 20
-0.13264
 30
0.0
 10
-2.5906500000000001
 20
-0.04628
 30
0.0
 10
-2.6363700000000003
 20
-0.03104
 30
0.0
 10
-2.6363700000000003
 20
-0.03104
 30
0.0
 10
-2.8954500000000003
 20
-0.39172
 30
0.0
 10
-3.4974300000000005
 20
-0.4374400000000001
 30
0.0
 10
-3.8327100000000005
 20
-0.14788
 30
0.0
 10
-3.8327100000000005
 20
-0.14788
 30
0.0
 10
-3.8504900000000002
 20
0.00959
 30
0.0
 10
-3.7717500000000004
 20
0.12643
 30
0.0
 10
-3.8225500000000001
 20
0.29915
 30
0.0
 10
-3.8225500000000001
 20
0.29915
 30
0.0
 10
-3.7641300000000002
 20
0.3575700000000001
 30
0.0
 10
-3.7844500000000001
 20
0.4312300000000001
 30
0.0
 10
-3.7234900000000004
 20
0.31439
 30
0.0
 10
-3.7234900000000004
 20
0.31439
 30
0.0
 10
-3.7438100000000003
 20
0.70555
 30
0.0
 10
-3.8352500000000003
 20
1.0814700000000002
 30
0.0
 10
-3.9546300000000003
 20
1.44215
 30
0.0
 10
-3.9546300000000003
 20
1.44215
 30
0.0
 10
-3.9825700000000004
 20
1.4573900000000002
 30
0.0
 10
-4.0079700000000003
 20
1.3837300000000001
 30
0.0
 10
-4.0257500000000004
 20
1.4294500000000001
 30
0.0
 10
-4.0257500000000004
 20
1.4294500000000001
 30
0.0
 10
-4.0689299999999999
 20
1.7190100000000001
 30
0.0
 10
-3.8885900000000002
 20
2.0212700000000003
 30
0.0
 10
-3.6193500000000003
 20
2.1381100000000002
 30
0.0
  0
SPLINE
  5
3B
100
AcDbEntity
  8
Ebene 1
 62
     7
100
AcDbSpline
210
0.0
220
0.0
230
1.0
 70
     1
 71
     3
 72
    20
 73
    16
 74
     0
 42
0.0000000001
 43
0.0000000001
 40
0.0
 40
0.0
 40
0.0
 40
0.0
 40
0.25
 40
0.25
 40
0.25
 40
0.25
 40
0.5
 40
0.5
 40
0.5
 40
0.5
 40
0.75
 40
0.75
 40
0.75
 40
0.75
 40
1.0
 40
1.0
 40
1.0
 40
1.0
 10
1.1812400000000001
 20
2.1228700000000003
 30
0.0
 10
1.23458
 20
2.0949300000000002
 30
0.0
 10
1.2828400000000002
 20
2.0365100000000003
 30
0.0
 10
1.3412600000000001
 20
2.1076300000000003
 30
0.0
 10
1.3412600000000001
 20
2.1076300000000003
 30
0.0
 10
1.4352400000000001
 20
2.0949300000000002
 30
0.0
 10
1.4352400000000001
 20
1.9349100000000001
 30
0.0
 10
1.4276200000000001
 20
1.8764900000000002
 30
0.0
 10
1.4276200000000001
 20
1.8764900000000002
 30
0.0
 10
1.3387200000000001
 20
1.9933300000000003
 30
0.0
 10
1.14314
 20
1.9501500000000001
 30
0.0
 10
1.0567800000000001
 20
2.0796900000000003
 30
0.0
 10
1.0567800000000001
 20
2.0796900000000003
 30
0.0
 10
1.0567800000000001
 20
2.0796900000000003
 30
0.0
 10
1.1812400000000001
 20
2.1228700000000003
 30
0.0
 10
1.1812400000000001
 20
2.1228700000000003
 30
0.0
  0
SPLINE
  5
3C
100
AcDbEntity
  8
Ebene 1
 62
     7
100
AcDbSpline
210
0.0
220
0.0
230
1.0
 70
     1
 71
     3
 72
    16
 73
    12
 74
     0
 42
0.0000000001
 43
0.0000000001
 40
0.0
 40
0.0
 40
0.0
 40
0.0
 40
0.3333333333333333
 40
0.3333333333333333
 40
0.3333333333333333
 40
0.3333333333333333
 40
0.6666666666666666
 40
0.6666666666666666
 40
0.6666666666666666
 40
0.6666666666666666
 40
1.0
 40
1.0
 40
1.0
 40
1.0
 10
-3.9825700000000004
 20
2.0085700000000002
 30
0.0
 10
-3.9597100000000003
 20
1.9501500000000001
 30
0.0
 10
-4.0917900000000005
 20
1.7037700000000002
 30
0.0
 10
-4.1578300000000006
 20
1.8485500000000001
 30
0.0
 10
-4.1578300000000006
 20
1.8485500000000001
 30
0.0
 10
-4.1705300000000003
 20
1.8485500000000001
 30
0.0
 10
-4.1959300000000006
 20
1.8180700000000001
 30
0.0
 10
-4.1984700000000004
 20
1.8485500000000001
 30
0.0
 10
-4.1984700000000004
 20
1.8485500000000001
 30
0.0
 10
-4.1273500000000007
 20
1.8917300000000001
 30
0.0
 10
-4.0384500000000001
 20
1.9349100000000001
 30
0.0
 10
-3.9825700000000004
 20
2.0085700000000002
 30
0.0
  0
SPLINE
  5
3D
100
AcDbEntity
  8
Ebene 1
 62
     7
100
AcDbSpline
210
0.0
220
0.0
230
1.0
 70
     1
 71
     3
 72
    40
 73
    36
 74
     0
 42
0.0000000001
 43
0.0000000001
 40
0.0
 40
0.0
 40
0.0
 40
0.0
 40
0.1111111111111111
 40
0.1111111111111111
 40
0.1111111111111111
 40
0.1111111111111111
 40
0.2222222222222222
 40
0.2222222222222222
 40
0.2222222222222222
 40
0.2222222222222222
 40
0.3333333333333333
 40
0.3333333333333333
 40
0.3333333333333333
 40
0.3333333333333333
 40
0.4444444444444444
 40
0.4444444444444444
 40
0.4444444444444444
 40
0.4444444444444444
 40
0.5555555555555556
 40
0.5555555555555556
 40
0.5555555555555556
 40
0.5555555555555556
 40
0.6666666666666667
 40
0.6666666666666667
 40
0.6666666666666667
 40
0.6666666666666667
 40
0.7777777777777779
 40
0.7777777777777779
 40
0.7777777777777779
 40
0.7777777777777779
 40
0.8888888888888891
 40
0.8888888888888891
 40
0.8888888888888891
 40
0.8888888888888891
 40
1.0
 40
1.0
 40
1.0
 40
1.0
 10
0.51576
 20
1.19577
 30
0.0
 10
0.5005200000000001
 20
1.10941
 30
0.0
 10
0.59958
 20
0.9925700000000001
 30
0.0
 10
0.70118
 20
1.0382900000000002
 30
0.0
 10
0.70118
 20
1.0382900000000002
 30
0.0
 10
0.7138800000000001
 20
0.89351
 30
0.0
 10
0.76722
 20
0.93669
 30
0.0
 10
0.8612000000000001
 20
0.9646300000000001
 30
0.0
 10
0.8612000000000001
 20
0.9646300000000001
 30
0.0
 10
0.8332600000000001
 20
0.84779
 30
0.0
 10
0.7062600000000001
 20
0.80715
 30
0.0
 10
0.6224400000000001
 20
0.7614300000000001
 30
0.0
 10
0.6224400000000001
 20
0.7614300000000001
 30
0.0
 10
0.00522
 20
0.41599
 30
0.0
 10
-0.6450100000000001
 20
1.2541900000000001
 30
0.0
 10
-0.17003
 20
1.7748900000000001
 30
0.0
 10
-0.17003
 20
1.7748900000000001
 30
0.0
 10
0.14746
 20
2.2676500000000002
 30
0.0
 10
1.23458
 20
1.9044300000000001
 30
0.0
 10
0.8764400000000001
 20
1.39897
 30
0.0
 10
0.8764400000000001
 20
1.39897
 30
0.0
 10
0.8866000000000001
 20
1.3126100000000001
 30
0.0
 10
0.8662800000000001
 20
1.3126100000000001
 30
0.0
 10
0.82564
 20
1.3557900000000001
 30
0.0
 10
0.82564
 20
1.3557900000000001
 30
0.0
 10
0.82564
 20
1.3557900000000001
 30
0.0
 10
0.5640200000000001
 20
1.2262500000000001
 30
0.0
 10
0.5640200000000001
 20
1.2262500000000001
 30
0.0
 10
0.5640200000000001
 20
1.2262500000000001
 30
0.0
 10
0.7062600000000001
 20
1.57423
 30
0.0
 10
0.19826
 20
1.8333100000000002
 30
0.0
 10
0.01284
 20
1.5158100000000001
 30
0.0
 10
0.01284
 20
1.5158100000000001
 30
0.0
 10
-0.18527
 20
1.19577
 30
0.0
 10
0.31764
 20
0.9062100000000001
 30
0.0
 10
0.51576
 20
1.19577
 30
0.0
  0
SPLINE
  5
3E
100
AcDbEntity
  8
Ebene 1
 62
     7
100
AcDbSpline
210
0.0
220
0.0
230
1.0
 70
     1
 71
     3
 72
    12
 73
     8
 74
     0
 42
0.0000000001
 43
0.0000000001
 40
0.0
 40
0.0
 40
0.0
 40
0.0
 40
0.5
 40
0.5
 40
0.5
 40
0.5
 40
1.0
 40
1.0
 40
1.0
 40
1.0
 10
2.1794600000000002
 20
1.9628500000000002
 30
0.0
 10
2.21502
 20
1.9501500000000001
 30
0.0
 10
2.2759800000000001
 20
1.9196700000000002
 30
0.0
 10
2.2785200000000003
 20
1.8764900000000002
 30
0.0
 10
2.2785200000000003
 20
1.8764900000000002
 30
0.0
 10
2.2226400000000002
 20
1.8637900000000001
 30
0.0
 10
2.1388200000000004
 20
1.9044300000000001
 30
0.0
 10
2.1794600000000002
 20
1.9628500000000002
 30
0.0
  0
SPLINE
  5
3F
100
AcDbEntity
  8
Ebene 1
 62
     7
100
AcDbSpline
210
0.0
220
0.0
230
1.0
 70
     1
 71
     3
 72
    16
 73
    12
 74
     0
 42
0.0000000001
 43
0.0000000001
 40
0.0
 40
0.0
 40
0.0
 40
0.0
 40
0.3333333333333333
 40
0.3333333333333333
 40
0.3333333333333333
 40
0.3333333333333333
 40
0.6666666666666666
 40
0.6666666666666666
 40
0.6666666666666666
 40
0.6666666666666666
 40
1.0
 40
1.0
 40
1.0
 40
1.0
 10
1.2117200000000001
 20
1.9196700000000002
 30
0.0
 10
1.5774800000000002
 20
1.8764900000000002
 30
0.0
 10
1.2980800000000001
 20
1.5005700000000002
 30
0.0
 10
1.3260200000000002
 20
1.2846700000000002
 30
0.0
 10
1.3260200000000002
 20
1.2846700000000002
 30
0.0
 10
1.3260200000000002
 20
1.2846700000000002
 30
0.0
 10
1.2295
 20
1.6301100000000002
 30
0.0
 10
1.2295
 20
1.6301100000000002
 30
0.0
 10
1.2295
 20
1.6301100000000002
 30
0.0
 10
1.3641200000000002
 20
1.6885300000000001
 30
0.0
 10
1.27268
 20
1.8485500000000001
 30
0.0
 10
1.2117200000000001
 20
1.9196700000000002
 30
0.0
  0
SPLINE
  5
40
100
AcDbEntity
  8
Ebene 1
 62
     7
100
AcDbSpline
210
0.0
220
0.0
230
1.0
 70
     1
 71
     3
 72
    24
 73
    20
 74
     0
 42
0.0000000001
 43
0.0000000001
 40
0.0
 40
0.0
 40
0.0
 40
0.0
 40
0.2
 40
0.2
 40
0.2
 40
0.2
 40
0.4
 40
0.4
 40
0.4
 40
0.4
 40
0.6000000000000001
 40
0.6000000000000001
 40
0.6000000000000001
 40
0.6000000000000001
 40
0.8
 40
0.8
 40
0.8
 40
0.8
 40
1.0
 40
1.0
 40
1.0
 40
1.0
 10
-2.9259300000000001
 20
1.8053700000000001
 30
0.0
 10
-2.7532100000000002
 20
1.8053700000000001
 30
0.0
 10
-2.6033500000000003
 20
1.7190100000000001
 30
0.0
 10
-2.4611100000000001
 20
1.6453500000000001
 30
0.0
 10
-2.4611100000000001
 20
1.6453500000000001
 30
0.0
 10
-2.4661900000000001
 20
1.6174100000000002
 30
0.0
 10
-2.5373100000000002
 20
1.6453500000000001
 30
0.0
 10
-2.5144500000000001
 20
1.6021700000000001
 30
0.0
 10
-2.5144500000000001
 20
1.6021700000000001
 30
0.0
 10
-2.02169
 20
1.3557900000000001
 30
0.0
 10
-2.18933
 20
0.4439300000000001
 30
0.0
 10
-2.7811500000000002
 20
0.4312300000000001
 30
0.0
 10
-2.7811500000000002
 20
0.4312300000000001
 30
0.0
 10
-3.1723100000000004
 20
0.37281
 30
0.0
 10
-3.5279100000000003
 20
0.6471300000000001
 30
0.0
 10
-3.5914100000000002
 20
1.02305
 30
0.0
 10
-3.5914100000000002
 20
1.02305
 30
0.0
 10
-3.5964900000000002
 20
1.39897
 30
0.0
 10
-3.2815300000000001
 20
1.7596500000000002
 30
0.0
 10
-2.9259300000000001
 20
1.8053700000000001
 30
0.0
  0
SPLINE
  5
41
100
AcDbEntity
  8
Ebene 1
 62
     7
100
AcDbSpline
210
0.0
220
0.0
230
1.0
 70
     1
 71
     3
 72
    16
 73
    12
 74
     0
 42
0.0000000001
 43
0.0000000001
 40
0.0
 40
0.0
 40
0.0
 40
0.0
 40
0.3333333333333333
 40
0.3333333333333333
 40
0.3333333333333333
 40
0.3333333333333333
 40
0.6666666666666666
 40
0.6666666666666666
 40
0.6666666666666666
 40
0.6666666666666666
 40
1.0
 40
1.0
 40
1.0
 40
1.0
 10
0.21096
 20
1.6174100000000002
 30
0.0
 10
0.43448
 20
1.7037700000000002
 30
0.0
 10
0.6453000000000001
 20
1.3126100000000001
 30
0.0
 10
0.42686
 20
1.2110100000000001
 30
0.0
 10
0.42686
 20
1.2110100000000001
 30
0.0
 10
0.42686
 20
1.2110100000000001
 30
0.0
 10
0.34304
 20
1.1398900000000001
 30
0.0
 10
0.34304
 20
1.1398900000000001
 30
0.0
 10
0.34304
 20
1.1398900000000001
 30
0.0
 10
0.02554
 20
1.06623
 30
0.0
 10
-0.05827
 20
1.5158100000000001
 30
0.0
 10
0.21096
 20
1.6174100000000002
 30
0.0
  0
SPLINE
  5
42
100
AcDbEntity
  8
Ebene 1
100
AcDbSpline
210
0.0
220
0.0
230
1.0
 70
     1
 71
     3
 72
    12
 73
     8
 74
     0
 42
0.0000000001
 43
0.0000000001
 40
0.0
 40
0.0
 40
0.0
 40
0.0
 40
0.5
 40
0.5
 40
0.5
 40
0.5
 40
1.0
 40
1.0
 40
1.0
 40
1.0
 10
0.21096
 20
1.48787
 30
0.0
 10
0.3786000000000001
 20
1.5437500000000002
 30
0.0
 10
0.44464
 20
1.2846700000000002
 30
0.0
 10
0.28462
 20
1.23895
 30
0.0
 10
0.28462
 20
1.23895
 30
0.0
 10
0.10682
 20
1.1830700000000001
 30
0.0
 10
0.05348
 20
1.44215
 30
0.0
 10
0.21096
 20
1.48787
 30
0.0
  0
SPLINE
  5
43
100
AcDbEntity
  8
Ebene 1
100
AcDbSpline
210
0.0
220
0.0
230
1.0
 70
     1
 71
     3
 72
    16
 73
    12
 74
     0
 42
0.0000000001
 43
0.0000000001
 40
0.0
 40
0.0
 40
0.0
 40
0.0
 40
0.3333333333333333
 40
0.3333333333333333
 40
0.3333333333333333
 40
0.3333333333333333
 40
0.6666666666666666
 40
0.6666666666666666
 40
0.6666666666666666
 40
0.6666666666666666
 40
1.0
 40
1.0
 40
1.0
 40
1.0
 10
-3.0122900000000001
 20
1.4573900000000002
 30
0.0
 10
-2.7938500000000004
 20
1.48787
 30
0.0
 10
-2.6084300000000002
 20
1.2846700000000002
 30
0.0
 10
-2.6211300000000004
 20
1.06623
 30
0.0
 10
-2.6211300000000004
 20
1.06623
 30
0.0
 10
-2.6744700000000003
 20
0.8782700000000001
 30
0.0
 10
-2.81671
 20
0.7919100000000001
 30
0.0
 10
-2.9970500000000002
 20
0.7614300000000001
 30
0.0
 10
-2.9970500000000002
 20
0.7614300000000001
 30
0.0
 10
-3.4542500000000005
 20
0.74873
 30
0.0
 10
-3.4237700000000002
 20
1.4294500000000001
 30
0.0
 10
-3.0122900000000001
 20
1.4573900000000002
 30
0.0
  0
SPLINE
  5
44
100
AcDbEntity
  8
Ebene 1
 62
     7
100
AcDbSpline
210
0.0
220
0.0
230
1.0
 70
     1
 71
     3
 72
    12
 73
     8
 74
     0
 42
0.0000000001
 43
0.0000000001
 40
0.0
 40
0.0
 40
0.0
 40
0.0
 40
0.5
 40
0.5
 40
0.5
 40
0.5
 40
1.0
 40
1.0
 40
1.0
 40
1.0
 10
0.18302
 20
1.4142100000000002
 30
0.0
 10
0.22874
 20
1.4294500000000001
 30
0.0
 10
0.24398
 20
1.3557900000000001
 30
0.0
 10
0.21096
 20
1.3278500000000002
 30
0.0
 10
0.21096
 20
1.3278500000000002
 30
0.0
 10
0.15508
 20
1.3126100000000001
 30
0.0
 10
0.1627
 20
1.3837300000000001
 30
0.0
 10
0.18302
 20
1.4142100000000002
 30
0.0
  0
SPLINE
  5
45
100
AcDbEntity
  8
Ebene 1
 62
     7
100
AcDbSpline
210
0.0
220
0.0
230
1.0
 70
     1
 71
     3
 72
    16
 73
    12
 74
     0
 42
0.0000000001
 43
0.0000000001
 40
0.0
 40
0.0
 40
0.0
 40
0.0
 40
0.3333333333333333
 40
0.3333333333333333
 40
0.3333333333333333
 40
0.3333333333333333
 40
0.6666666666666666
 40
0.6666666666666666
 40
0.6666666666666666
 40
0.6666666666666666
 40
1.0
 40
1.0
 40
1.0
 40
1.0
 10
-2.9843500000000001
 20
1.39897
 30
0.0
 10
-2.5601700000000003
 20
1.4294500000000001
 30
0.0
 10
-2.5957300000000001
 20
0.7334900000000001
 30
0.0
 10
-3.0275300000000001
 20
0.8198500000000001
 30
0.0
 10
-3.0275300000000001
 20
0.8198500000000001
 30
0.0
 10
-3.2104100000000004
 20
0.8198500000000001
 30
0.0
 10
-3.3297900000000005
 20
1.0078100000000001
 30
0.0
 10
-3.3018500000000004
 20
1.1830700000000001
 30
0.0
 10
-3.3018500000000004
 20
1.1830700000000001
 30
0.0
 10
-3.2104100000000004
 20
1.2694300000000001
 30
0.0
 10
-3.1316700000000002
 20
1.4142100000000002
 30
0.0
 10
-2.9843500000000001
 20
1.39897
 30
0.0
  0
SPLINE
  5
46
100
AcDbEntity
  8
Ebene 1
100
AcDbSpline
210
0.0
220
0.0
230
1.0
 70
     1
 71
     3
 72
    12
 73
     8
 74
     0
 42
0.0000000001
 43
0.0000000001
 40
0.0
 40
0.0
 40
0.0
 40
0.0
 40
0.5
 40
0.5
 40
0.5
 40
0.5
 40
1.0
 40
1.0
 40
1.0
 40
1.0
 10
-3.0554700000000001
 20
1.2541900000000001
 30
0.0
 10
-2.8751300000000004
 20
1.2846700000000002
 30
0.0
 10
-2.7659100000000003
 20
1.0814700000000002
 30
0.0
 10
-2.9132300000000004
 20
0.9646300000000001
 30
0.0
 10
-2.9132300000000004
 20
0.9646300000000001
 30
0.0
 10
-3.0884900000000002
 20
0.9062100000000001
 30
0.0
 10
-3.2281900000000001
 20
1.1678300000000001
 30
0.0
 10
-3.0554700000000001
 20
1.2541900000000001
 30
0.0
  0
SPLINE
  5
47
100
AcDbEntity
  8
Ebene 1
100
AcDbSpline
210
0.0
220
0.0
230
1.0
 70
     1
 71
     3
 72
    12
 73
     8
 74
     0
 42
0.0000000001
 43
0.0000000001
 40
0.0
 40
0.0
 40
0.0
 40
0.0
 40
0.5
 40
0.5
 40
0.5
 40
0.5
 40
1.0
 40
1.0
 40
1.0
 40
1.0
 10
-1.84135
 20
1.23895
 30
0.0
 10
-1.8565900000000002
 20
0.9062100000000001
 30
0.0
 10
-1.9861300000000002
 20
0.53029
 30
0.0
 10
-2.1537700000000002
 20
0.22803
 30
0.0
 10
-2.1537700000000002
 20
0.22803
 30
0.0
 10
-2.1537700000000002
 20
0.22803
 30
0.0
 10
-1.84135
 20
1.23895
 30
0.0
 10
-1.84135
 20
1.23895
 30
0.0
  0
SPLINE
  5
48
100
AcDbEntity
  8
Ebene 1
 62
     7
100
AcDbSpline
210
0.0
220
0.0
230
1.0
 70
     1
 71
     3
 72
    24
 73
    20
 74
     0
 42
0.0000000001
 43
0.0000000001
 40
0.0
 40
0.0
 40
0.0
 40
0.0
 40
0.2
 40
0.2
 40
0.2
 40
0.2
 40
0.4
 40
0.4
 40
0.4
 40
0.4
 40
0.6000000000000001
 40
0.6000000000000001
 40
0.6000000000000001
 40
0.6000000000000001
 40
0.8
 40
0.8
 40
0.8
 40
0.8
 40
1.0
 40
1.0
 40
1.0
 40
1.0
 10
1.2828400000000002
 20
1.2262500000000001
 30
0.0
 10
1.2930000000000001
 20
1.2262500000000001
 30
0.0
 10
1.31586
 20
1.2262500000000001
 30
0.0
 10
1.31332
 20
1.2110100000000001
 30
0.0
 10
1.31332
 20
1.2110100000000001
 30
0.0
 10
1.2498200000000002
 20
1.02305
 30
0.0
 10
1.3692000000000002
 20
0.7614300000000001
 30
0.0
 10
1.2396600000000002
 20
0.6039500000000001
 30
0.0
 10
1.2396600000000002
 20
0.6039500000000001
 30
0.0
 10
1.1914
 20
0.66237
 30
0.0
 10
1.0339200000000002
 20
0.7614300000000001
 30
0.0
 10
1.1685400000000001
 20
0.84779
 30
0.0
 10
1.1685400000000001
 20
0.84779
 30
0.0
 10
1.1279000000000001
 20
0.89351
 30
0.0
 10
1.0872600000000001
 20
1.02305
 30
0.0
 10
1.1787000000000001
 20
0.9925700000000001
 30
0.0
 10
1.1787000000000001
 20
0.9925700000000001
 30
0.0
 10
1.18632
 20
1.0814700000000002
 30
0.0
 10
1.2980800000000001
 20
1.1246500000000001
 30
0.0
 10
1.2828400000000002
 20
1.2262500000000001
 30
0.0
  0
SPLINE
  5
49
100
AcDbEntity
  8
Ebene 1
 62
     7
100
AcDbSpline
210
0.0
220
0.0
230
1.0
 70
     1
 71
     3
 72
    12
 73
     8
 74
     0
 42
0.0000000001
 43
0.0000000001
 40
0.0
 40
0.0
 40
0.0
 40
0.0
 40
0.5
 40
0.5
 40
0.5
 40
0.5
 40
1.0
 40
1.0
 40
1.0
 40
1.0
 10
-3.0427700000000004
 20
1.2110100000000001
 30
0.0
 10
-2.9767300000000003
 20
1.2110100000000001
 30
0.0
 10
-3.0046700000000004
 20
1.15259
 30
0.0
 10
-3.0148300000000003
 20
1.10941
 30
0.0
 10
-3.0148300000000003
 20
1.10941
 30
0.0
 10
-3.0757900000000005
 20
1.10941
 30
0.0
 10
-3.0681700000000003
 20
1.1830700000000001
 30
0.0
 10
-3.0427700000000004
 20
1.2110100000000001
 30
0.0
  0
SPLINE
  5
4A
100
AcDbEntity
  8
Ebene 1
 62
     7
100
AcDbSpline
210
0.0
220
0.0
230
1.0
 70
     1
 71
     3
 72
    20
 73
    16
 74
     0
 42
0.0000000001
 43
0.0000000001
 40
0.0
 40
0.0
 40
0.0
 40
0.0
 40
0.25
 40
0.25
 40
0.25
 40
0.25
 40
0.5
 40
0.5
 40
0.5
 40
0.5
 40
0.75
 40
0.75
 40
0.75
 40
0.75
 40
1.0
 40
1.0
 40
1.0
 40
1.0
 10
-1.4070100000000001
 20
1.2110100000000001
 30
0.0
 10
-1.29525
 20
1.15259
 30
0.0
 10
-1.2774700000000001
 20
0.9646300000000001
 30
0.0
 10
-1.21397
 20
0.84779
 30
0.0
 10
-1.21397
 20
0.84779
 30
0.0
 10
-1.21397
 20
0.84779
 30
0.0
 10
-1.1885700000000001
 20
0.9214500000000001
 30
0.0
 10
-1.1885700000000001
 20
0.9214500000000001
 30
0.0
 10
-1.1885700000000001
 20
0.9214500000000001
 30
0.0
 10
-1.08697
 20
0.7766700000000001
 30
0.0
 10
-0.9244100000000001
 20
0.56077
 30
0.0
 10
-1.0285500000000001
 20
0.4007500000000001
 30
0.0
 10
-1.0285500000000001
 20
0.4007500000000001
 30
0.0
 10
-1.0285500000000001
 20
0.4007500000000001
 30
0.0
 10
-1.4070100000000001
 20
1.2110100000000001
 30
0.0
 10
-1.4070100000000001
 20
1.2110100000000001
 30
0.0
  0
SPLINE
  5
4B
100
AcDbEntity
  8
Ebene 1
 62
     7
100
AcDbSpline
210
0.0
220
0.0
230
1.0
 70
     1
 71
     3
 72
    20
 73
    16
 74
     0
 42
0.0000000001
 43
0.0000000001
 40
0.0
 40
0.0
 40
0.0
 40
0.0
 40
0.25
 40
0.25
 40
0.25
 40
0.25
 40
0.5
 40
0.5
 40
0.5
 40
0.5
 40
0.75
 40
0.75
 40
0.75
 40
0.75
 40
1.0
 40
1.0
 40
1.0
 40
1.0
 10
2.2328000000000001
 20
0.9392300000000001
 30
0.0
 10
2.2709000000000001
 20
0.9392300000000001
 30
0.0
 10
2.3140800000000001
 20
0.9392300000000001
 30
0.0
 10
2.34456
 20
0.9189100000000001
 30
0.0
 10
2.34456
 20
0.9189100000000001
 30
0.0
 10
2.3420200000000002
 20
0.8198500000000001
 30
0.0
 10
2.3648800000000003
 20
0.70047
 30
0.0
 10
2.3344
 20
0.6115700000000001
 30
0.0
 10
2.3344
 20
0.6115700000000001
 30
0.0
 10
2.2709000000000001
 20
0.70047
 30
0.0
 10
2.2226400000000002
 20
0.8198500000000001
 30
0.0
 10
2.1794600000000002
 20
0.9189100000000001
 30
0.0
 10
2.1794600000000002
 20
0.9189100000000001
 30
0.0
 10
2.1794600000000002
 20
0.9189100000000001
 30
0.0
 10
2.2328000000000001
 20
0.9392300000000001
 30
0.0
 10
2.2328000000000001
 20
0.9392300000000001
 30
0.0
  0
SPLINE
  5
4C
100
AcDbEntity
  8
Ebene 1
 62
     7
100
AcDbSpline
210
0.0
220
0.0
230
1.0
 70
     1
 71
     3
 72
    20
 73
    16
 74
     0
 42
0.0000000001
 43
0.0000000001
 40
0.0
 40
0.0
 40
0.0
 40
0.0
 40
0.25
 40
0.25
 40
0.25
 40
0.25
 40
0.5
 40
0.5
 40
0.5
 40
0.5
 40
0.75
 40
0.75
 40
0.75
 40
0.75
 40
1.0
 40
1.0
 40
1.0
 40
1.0
 10
-1.3181100000000001
 20
0.8782700000000001
 30
0.0
 10
-1.2165100000000002
 20
0.7182500000000001
 30
0.0
 10
-1.1123700000000001
 20
0.53029
 30
0.0
 10
-1.04125
 20
0.34233
 30
0.0
 10
-1.04125
 20
0.34233
 30
0.0
 10
-1.04125
 20
0.34233
 30
0.0
 10
-1.0158500000000001
 20
0.3575700000000001
 30
0.0
 10
-1.0158500000000001
 20
0.3575700000000001
 30
0.0
 10
-1.0158500000000001
 20
0.3575700000000001
 30
0.0
 10
-1.0183900000000001
 20
0.3270900000000001
 30
0.0
 10
-1.00061
 20
0.27121
 30
0.0
 10
-1.04379
 20
0.25597
 30
0.0
 10
-1.04379
 20
0.25597
 30
0.0
 10
-1.04379
 20
0.25597
 30
0.0
 10
-1.3181100000000001
 20
0.8782700000000001
 30
0.0
 10
-1.3181100000000001
 20
0.8782700000000001
 30
0.0
  0
SPLINE
  5
4D
100
AcDbEntity
  8
Ebene 1
 62
     7
100
AcDbSpline
210
0.0
220
0.0
230
1.0
 70
     1
 71
     3
 72
    20
 73
    16
 74
     0
 42
0.0000000001
 43
0.0000000001
 40
0.0
 40
0.0
 40
0.0
 40
0.0
 40
0.25
 40
0.25
 40
0.25
 40
0.25
 40
0.5
 40
0.5
 40
0.5
 40
0.5
 40
0.75
 40
0.75
 40
0.75
 40
0.75
 40
1.0
 40
1.0
 40
1.0
 40
1.0
 10
-1.46543
 20
0.84779
 30
0.0
 10
-1.3587500000000001
 20
0.7334900000000001
 30
0.0
 10
-1.3282700000000001
 20
0.53029
 30
0.0
 10
-1.2215900000000002
 20
0.4007500000000001
 30
0.0
 10
-1.2215900000000002
 20
0.4007500000000001
 30
0.0
 10
-1.2419100000000001
 20
0.5023500000000001
 30
0.0
 10
-1.37907
 20
0.70555
 30
0.0
 10
-1.3231900000000001
 20
0.74873
 30
0.0
 10
-1.3231900000000001
 20
0.74873
 30
0.0
 10
-1.2698500000000001
 20
0.48711
 30
0.0
 10
-0.92949
 20
0.24073
 30
0.0
 10
-1.1149100000000001
 20
-0.0158
 30
0.0
 10
-1.1149100000000001
 20
-0.0158
 30
0.0
 10
-1.2393700000000001
 20
0.27121
 30
0.0
 10
-1.4578100000000001
 20
0.53029
 30
0.0
 10
-1.46543
 20
0.84779
 30
0.0
  0
SPLINE
  5
4E
100
AcDbEntity
  8
Ebene 1
 62
     7
100
AcDbSpline
210
0.0
220
0.0
230
1.0
 70
     1
 71
     3
 72
    16
 73
    12
 74
     0
 42
0.0000000001
 43
0.0000000001
 40
0.0
 40
0.0
 40
0.0
 40
0.0
 40
0.3333333333333333
 40
0.3333333333333333
 40
0.3333333333333333
 40
0.3333333333333333
 40
0.6666666666666666
 40
0.6666666666666666
 40
0.6666666666666666
 40
0.6666666666666666
 40
1.0
 40
1.0
 40
1.0
 40
1.0
 10
2.7154000000000003
 20
0.7766700000000001
 30
0.0
 10
2.7154000000000003
 20
0.7766700000000001
 30
0.0
 10
2.7712800000000004
 20
0.7766700000000001
 30
0.0
 10
2.7712800000000004
 20
0.7766700000000001
 30
0.0
 10
2.7712800000000004
 20
0.7766700000000001
 30
0.0
 10
2.7408000000000001
 20
0.66237
 30
0.0
 10
2.67476
 20
0.5455300000000001
 30
0.0
 10
2.6290400000000003
 20
0.4439300000000001
 30
0.0
 10
2.6290400000000003
 20
0.4439300000000001
 30
0.0
 10
2.5706200000000003
 20
0.56077
 30
0.0
 10
2.63158
 20
0.6750700000000001
 30
0.0
 10
2.7154000000000003
 20
0.7766700000000001
 30
0.0
  0
SPLINE
  5
4F
100
AcDbEntity
  8
Ebene 1
 62
     7
100
AcDbSpline
210
0.0
220
0.0
230
1.0
 70
     1
 71
     3
 72
    12
 73
     8
 74
     0
 42
0.0000000001
 43
0.0000000001
 40
0.0
 40
0.0
 40
0.0
 40
0.0
 40
0.5
 40
0.5
 40
0.5
 40
0.5
 40
1.0
 40
1.0
 40
1.0
 40
1.0
 10
2.16676
 20
0.6750700000000001
 30
0.0
 10
2.2632800000000004
 20
0.5023500000000001
 30
0.0
 10
2.3623400000000001
 20
0.16961
 30
0.0
 10
2.20486
 20
-0.0158
 30
0.0
 10
2.20486
 20
-0.0158
 30
0.0
 10
2.0499200000000002
 20
0.16961
 30
0.0
 10
2.0956400000000004
 20
0.45917
 30
0.0
 10
2.16676
 20
0.6750700000000001
 30
0.0
  0
SPLINE
  5
50
100
AcDbEntity
  8
Ebene 1
 62
     7
100
AcDbSpline
210
0.0
220
0.0
230
1.0
 70
     1
 71
     3
 72
    28
 73
    24
 74
     0
 42
0.0000000001
 43
0.0000000001
 40
0.0
 40
0.0
 40
0.0
 40
0.0
 40
0.1666666666666667
 40
0.1666666666666667
 40
0.1666666666666667
 40
0.1666666666666667
 40
0.3333333333333333
 40
0.3333333333333333
 40
0.3333333333333333
 40
0.3333333333333333
 40
0.5
 40
0.5
 40
0.5
 40
0.5
 40
0.6666666666666666
 40
0.6666666666666666
 40
0.6666666666666666
 40
0.6666666666666666
 40
0.8333333333333333
 40
0.8333333333333333
 40
0.8333333333333333
 40
0.8333333333333333
 40
1.0
 40
1.0
 40
1.0
 40
1.0
 10
0.8764400000000001
 20
0.61665
 30
0.0
 10
0.9272400000000001
 20
0.61665
 30
0.0
 10
1.0034400000000001
 20
0.5887100000000001
 30
0.0
 10
1.0085200000000001
 20
0.53029
 30
0.0
 10
1.0085200000000001
 20
0.53029
 30
0.0
 10
1.0263
 20
0.5023500000000001
 30
0.0
 10
1.0720200000000002
 20
0.5023500000000001
 30
0.0
 10
1.10758
 20
0.5023500000000001
 30
0.0
 10
1.10758
 20
0.5023500000000001
 30
0.0
 10
1.1177400000000002
 20
0.4439300000000001
 30
0.0
 10
1.0517000000000001
 20
0.45917
 30
0.0
 10
1.0263
 20
0.47187
 30
0.0
 10
1.0263
 20
0.47187
 30
0.0
 10
1.0263
 20
0.47187
 30
0.0
 10
1.01868
 20
0.41599
 30
0.0
 10
1.01868
 20
0.41599
 30
0.0
 10
1.01868
 20
0.41599
 30
0.0
 10
0.91454
 20
0.38551
 30
0.0
 10
0.7367400000000001
 20
0.37281
 30
0.0
 10
0.7316600000000001
 20
0.53029
 30
0.0
 10
0.7316600000000001
 20
0.53029
 30
0.0
 10
0.7316600000000001
 20
0.53029
 30
0.0
 10
0.8764400000000001
 20
0.61665
 30
0.0
 10
0.8764400000000001
 20
0.61665
 30
0.0
  0
SPLINE
  5
51
100
AcDbEntity
  8
Ebene 1
 62
     7
100
AcDbSpline
210
0.0
220
0.0
230
1.0
 70
     1
 71
     3
 72
    32
 73
    28
 74
     0
 42
0.0000000001
 43
0.0000000001
 40
0.0
 40
0.0
 40
0.0
 40
0.0
 40
0.1428571428571429
 40
0.1428571428571429
 40
0.1428571428571429
 40
0.1428571428571429
 40
0.2857142857142857
 40
0.2857142857142857
 40
0.2857142857142857
 40
0.2857142857142857
 40
0.4285714285714286
 40
0.4285714285714286
 40
0.4285714285714286
 40
0.4285714285714286
 40
0.5714285714285714
 40
0.5714285714285714
 40
0.5714285714285714
 40
0.5714285714285714
 40
0.7142857142857142
 40
0.7142857142857142
 40
0.7142857142857142
 40
0.7142857142857142
 40
0.857142857142857
 40
0.857142857142857
 40
0.857142857142857
 40
0.857142857142857
 40
1.0
 40
1.0
 40
1.0
 40
1.0
 10
0.05348
 20
0.57601
 30
0.0
 10
0.17032
 20
0.56077
 30
0.0
 10
0.277
 20
0.4439300000000001
 30
0.0
 10
0.39638
 20
0.53029
 30
0.0
 10
0.39638
 20
0.53029
 30
0.0
 10
0.5005200000000001
 20
0.56077
 30
0.0
 10
0.49798
 20
0.47187
 30
0.0
 10
0.59958
 20
0.5455300000000001
 30
0.0
 10
0.59958
 20
0.5455300000000001
 30
0.0
 10
0.64276
 20
0.51759
 30
0.0
 10
0.6935600000000001
 20
0.47187
 30
0.0
 10
0.6859400000000001
 20
0.41599
 30
0.0
 10
0.6859400000000001
 20
0.41599
 30
0.0
 10
0.40654
 20
0.41599
 30
0.0
 10
-0.06081
 20
0.18485
 30
0.0
 10
-0.15733
 20
0.56077
 30
0.0
 10
-0.15733
 20
0.56077
 30
0.0
 10
-0.15733
 20
0.56077
 30
0.0
 10
-0.04811
 20
0.48711
 30
0.0
 10
-0.04811
 20
0.48711
 30
0.0
 10
-0.04811
 20
0.48711
 30
0.0
 10
-0.04811
 20
0.48711
 30
0.0
 10
0.2516000000000001
 20
0.37281
 30
0.0
 10
0.2516000000000001
 20
0.37281
 30
0.0
 10
0.2516000000000001
 20
0.37281
 30
0.0
 10
0.24398
 20
0.48711
 30
0.0
 10
0.09412
 20
0.51759
 30
0.0
 10
0.05348
 20
0.57601
 30
0.0
  0
SPLINE
  5
52
100
AcDbEntity
  8
Ebene 1
 62
     7
100
AcDbSpline
210
0.0
220
0.0
230
1.0
 70
     1
 71
     3
 72
    20
 73
    16
 74
     0
 42
0.0000000001
 43
0.0000000001
 40
0.0
 40
0.0
 40
0.0
 40
0.0
 40
0.25
 40
0.25
 40
0.25
 40
0.25
 40
0.5
 40
0.5
 40
0.5
 40
0.5
 40
0.75
 40
0.75
 40
0.75
 40
0.75
 40
1.0
 40
1.0
 40
1.0
 40
1.0
 10
2.6722200000000003
 20
0.34233
 30
0.0
 10
2.7890600000000001
 20
0.3270900000000001
 30
0.0
 10
2.7789000000000001
 20
0.21279
 30
0.0
 10
2.6620600000000003
 20
0.27121
 30
0.0
 10
2.6620600000000003
 20
0.27121
 30
0.0
 10
2.6188800000000003
 20
0.22803
 30
0.0
 10
2.71286
 20
0.15437
 30
0.0
 10
2.6290400000000003
 20
0.11119
 30
0.0
 10
2.6290400000000003
 20
0.11119
 30
0.0
 10
2.6138000000000003
 20
0.15437
 30
0.0
 10
2.5807800000000003
 20
0.34233
 30
0.0
 10
2.6544400000000001
 20
0.31439
 30
0.0
 10
2.6544400000000001
 20
0.31439
 30
0.0
 10
2.6544400000000001
 20
0.31439
 30
0.0
 10
2.6722200000000003
 20
0.34233
 30
0.0
 10
2.6722200000000003
 20
0.34233
 30
0.0
  0
SPLINE
  5
53
100
AcDbEntity
  8
Ebene 1
 62
     7
100
AcDbSpline
210
0.0
220
0.0
230
1.0
 70
     1
 71
     3
 72
    44
 73
    40
 74
     0
 42
0.0000000001
 43
0.0000000001
 40
0.0
 40
0.0
 40
0.0
 40
0.0
 40
0.1
 40
0.1
 40
0.1
 40
0.1
 40
0.2
 40
0.2
 40
0.2
 40
0.2
 40
0.3
 40
0.3
 40
0.3
 40
0.3
 40
0.4
 40
0.4
 40
0.4
 40
0.4
 40
0.5
 40
0.5
 40
0.5
 40
0.5
 40
0.6
 40
0.6
 40
0.6
 40
0.6
 40
0.7
 40
0.7
 40
0.7
 40
0.7
 40
0.7999999999999999
 40
0.7999999999999999
 40
0.7999999999999999
 40
0.7999999999999999
 40
0.8999999999999999
 40
0.8999999999999999
 40
0.8999999999999999
 40
0.8999999999999999
 40
1.0
 40
1.0
 40
1.0
 40
1.0
 10
-0.46467
 20
0.19755
 30
0.0
 10
-0.29703
 20
-0.0158
 30
0.0
 10
-0.13447
 20
-0.26218
 30
0.0
 10
-0.08367
 20
-0.5365000000000001
 30
0.0
 10
-0.08367
 20
-0.5365000000000001
 30
0.0
 10
0.00776
 20
-0.49332
 30
0.0
 10
-0.12939
 20
-0.30536
 30
0.0
 10
-0.12939
 20
-0.20376
 30
0.0
 10
-0.12939
 20
-0.20376
 30
0.0
 10
0.00014
 20
-0.46538
 30
0.0
 10
0.26938
 20
-0.6812800000000001
 30
0.0
 10
0.29732
 20
-0.9860800000000001
 30
0.0
 10
0.29732
 20
-0.9860800000000001
 30
0.0
 10
0.26684
 20
-0.9581400000000001
 30
0.0
 10
0.23128
 20
-0.7981200000000001
 30
0.0
 10
0.19826
 20
-0.88448
 30
0.0
 10
0.19826
 20
-0.88448
 30
0.0
 10
0.2516000000000001
 20
-0.9987800000000001
 30
0.0
 10
0.32272
 20
-1.1461000000000001
 30
0.0
 10
0.2516000000000001
 20
-1.2756400000000001
 30
0.0
 10
0.2516000000000001
 20
-1.2756400000000001
 30
0.0
 10
0.2516000000000001
 20
-1.2756400000000001
 30
0.0
 10
0.1881
 20
-1.0292600000000001
 30
0.0
 10
0.1881
 20
-1.0292600000000001
 30
0.0
 10
0.1881
 20
-1.0292600000000001
 30
0.0
 10
0.10682
 20
-1.0292600000000001
 30
0.0
 10
0.23382
 20
-1.1588000000000001
 30
0.0
 10
0.16524
 20
-1.2172200000000002
 30
0.0
 10
0.16524
 20
-1.2172200000000002
 30
0.0
 10
0.16524
 20
-1.2172200000000002
 30
0.0
 10
0.10174
 20
-1.1892800000000001
 30
0.0
 10
0.10174
 20
-1.1892800000000001
 30
0.0
 10
0.10174
 20
-1.1892800000000001
 30
0.0
 10
-0.05065
 20
-0.7397
 30
0.0
 10
-0.14717
 20
-0.26218
 30
0.0
 10
-0.4595900000000001
 20
0.11119
 30
0.0
 10
-0.4595900000000001
 20
0.11119
 30
0.0
 10
-0.47483
 20
0.14167
 30
0.0
 10
-0.4900700000000001
 20
0.16961
 30
0.0
 10
-0.46467
 20
0.19755
 30
0.0
  0
SPLINE
  5
54
100
AcDbEntity
  8
Ebene 1
 62
     7
100
AcDbSpline
210
0.0
220
0.0
230
1.0
 70
     1
 71
     3
 72
    20
 73
    16
 74
     0
 42
0.0000000001
 43
0.0000000001
 40
0.0
 40
0.0
 40
0.0
 40
0.0
 40
0.25
 40
0.25
 40
0.25
 40
0.25
 40
0.5
 40
0.5
 40
0.5
 40
0.5
 40
0.75
 40
0.75
 40
0.75
 40
0.75
 40
1.0
 40
1.0
 40
1.0
 40
1.0
 10
-1.7829300000000001
 20
0.18485
 30
0.0
 10
-1.7829300000000001
 20
0.18485
 30
0.0
 10
-1.75499
 20
0.18485
 30
0.0
 10
-1.75499
 20
0.18485
 30
0.0
 10
-1.75499
 20
0.18485
 30
0.0
 10
-1.7321300000000002
 20
-0.0158
 30
0.0
 10
-1.6813300000000002
 20
-0.20376
 30
0.0
 10
-1.6406900000000002
 20
-0.39172
 30
0.0
 10
-1.6406900000000002
 20
-0.39172
 30
0.0
 10
-1.6406900000000002
 20
-0.39172
 30
0.0
 10
-1.7930900000000001
 20
-0.3637800000000001
 30
0.0
 10
-1.7930900000000001
 20
-0.3637800000000001
 30
0.0
 10
-1.7930900000000001
 20
-0.3637800000000001
 30
0.0
 10
-1.7930900000000001
 20
-0.3637800000000001
 30
0.0
 10
-1.7829300000000001
 20
0.18485
 30
0.0
 10
-1.7829300000000001
 20
0.18485
 30
0.0
  0
SPLINE
  5
55
100
AcDbEntity
  8
Ebene 1
100
AcDbSpline
210
0.0
220
0.0
230
1.0
 70
     1
 71
     3
 72
    16
 73
    12
 74
     0
 42
0.0000000001
 43
0.0000000001
 40
0.0
 40
0.0
 40
0.0
 40
0.0
 40
0.3333333333333333
 40
0.3333333333333333
 40
0.3333333333333333
 40
0.3333333333333333
 40
0.6666666666666666
 40
0.6666666666666666
 40
0.6666666666666666
 40
0.6666666666666666
 40
1.0
 40
1.0
 40
1.0
 40
1.0
 10
-0.8126500000000001
 20
0.12643
 30
0.0
 10
-0.6856500000000001
 20
0.12643
 30
0.0
 10
-0.69581
 20
-0.0031
 30
0.0
 10
-0.6424700000000001
 20
-0.08946
 30
0.0
 10
-0.6424700000000001
 20
-0.08946
 30
0.0
 10
-0.73899
 20
0.02483
 30
0.0
 10
-0.8583700000000001
 20
-0.07422
 30
0.0
 10
-0.8812300000000001
 20
-0.17582
 30
0.0
 10
-0.8812300000000001
 20
-0.17582
 30
0.0
 10
-0.99299
 20
-0.05898
 30
0.0
 10
-0.82535
 20
0.00959
 30
0.0
 10
-0.8126500000000001
 20
0.12643
 30
0.0
  0
SPLINE
  5
56
100
AcDbEntity
  8
Ebene 1
100
AcDbSpline
210
0.0
220
0.0
230
1.0
 70
     1
 71
     3
 72
    24
 73
    20
 74
     0
 42
0.0000000001
 43
0.0000000001
 40
0.0
 40
0.0
 40
0.0
 40
0.0
 40
0.2
 40
0.2
 40
0.2
 40
0.2
 40
0.4
 40
0.4
 40
0.4
 40
0.4
 40
0.6000000000000001
 40
0.6000000000000001
 40
0.6000000000000001
 40
0.6000000000000001
 40
0.8
 40
0.8
 40
0.8
 40
0.8
 40
1.0
 40
1.0
 40
1.0
 40
1.0
 10
-2.6516100000000002
 20
0.09595
 30
0.0
 10
-2.6262100000000004
 20
0.09595
 30
0.0
 10
-2.6135100000000002
 20
0.06801
 30
0.0
 10
-2.6236700000000002
 20
0.04007
 30
0.0
 10
-2.6236700000000002
 20
0.04007
 30
0.0
 10
-2.8116300000000001
 20
-0.1174
 30
0.0
 10
-3.1164300000000003
 20
-0.4374400000000001
 30
0.0
 10
-3.3628100000000001
 20
-0.20376
 30
0.0
 10
-3.3628100000000001
 20
-0.20376
 30
0.0
 10
-3.3628100000000001
 20
-0.20376
 30
0.0
 10
-3.4313900000000004
 20
-0.19106
 30
0.0
 10
-3.4313900000000004
 20
-0.19106
 30
0.0
 10
-3.4313900000000004
 20
-0.19106
 30
0.0
 10
-3.4313900000000004
 20
-0.19106
 30
0.0
 10
-3.6345900000000002
 20
-0.23424
 30
0.0
 10
-3.6345900000000002
 20
-0.23424
 30
0.0
 10
-3.6345900000000002
 20
-0.23424
 30
0.0
 10
-3.3932900000000004
 20
0.08325
 30
0.0
 10
-2.9056100000000002
 20
-0.219
 30
0.0
 10
-2.6516100000000002
 20
0.09595
 30
0.0
  0
SPLINE
  5
57
100
AcDbEntity
  8
Ebene 1
 62
     7
100
AcDbSpline
210
0.0
220
0.0
230
1.0
 70
     1
 71
     3
 72
    16
 73
    12
 74
     0
 42
0.0000000001
 43
0.0000000001
 40
0.0
 40
0.0
 40
0.0
 40
0.0
 40
0.3333333333333333
 40
0.3333333333333333
 40
0.3333333333333333
 40
0.3333333333333333
 40
0.6666666666666666
 40
0.6666666666666666
 40
0.6666666666666666
 40
0.6666666666666666
 40
1.0
 40
1.0
 40
1.0
 40
1.0
 10
1.5571600000000001
 20
0.05277
 30
0.0
 10
1.5724
 20
0.05277
 30
0.0
 10
1.6003400000000001
 20
0.06801
 30
0.0
 10
1.6028800000000001
 20
0.04007
 30
0.0
 10
1.6028800000000001
 20
0.04007
 30
0.0
 10
1.6028800000000001
 20
0.04007
 30
0.0
 10
1.27268
 20
-0.13264
 30
0.0
 10
1.27268
 20
-0.13264
 30
0.0
 10
1.27268
 20
-0.13264
 30
0.0
 10
1.3082400000000001
 20
-0.0031
 30
0.0
 10
1.4708000000000001
 20
-0.0031
 30
0.0
 10
1.5571600000000001
 20
0.05277
 30
0.0
  0
SPLINE
  5
58
100
AcDbEntity
  8
Ebene 1
 62
     7
100
AcDbSpline
210
0.0
220
0.0
230
1.0
 70
     1
 71
     3
 72
    16
 73
    12
 74
     0
 42
0.0000000001
 43
0.0000000001
 40
0.0
 40
0.0
 40
0.0
 40
0.0
 40
0.3333333333333333
 40
0.3333333333333333
 40
0.3333333333333333
 40
0.3333333333333333
 40
0.6666666666666666
 40
0.6666666666666666
 40
0.6666666666666666
 40
0.6666666666666666
 40
1.0
 40
1.0
 40
1.0
 40
1.0
 10
-1.84135
 20
-0.03104
 30
0.0
 10
-1.84135
 20
-0.03104
 30
0.0
 10
-1.8134100000000002
 20
-0.03104
 30
0.0
 10
-1.8134100000000002
 20
-0.03104
 30
0.0
 10
-1.8134100000000002
 20
-0.03104
 30
0.0
 10
-1.8134100000000002
 20
-0.03104
 30
0.0
 10
-1.8540500000000002
 20
-0.3206000000000001
 30
0.0
 10
-1.8540500000000002
 20
-0.3206000000000001
 30
0.0
 10
-1.8540500000000002
 20
-0.3206000000000001
 30
0.0
 10
-1.8845300000000003
 20
-0.23424
 30
0.0
 10
-1.8743700000000001
 20
-0.1174
 30
0.0
 10
-1.84135
 20
-0.03104
 30
0.0
  0
SPLINE
  5
59
100
AcDbEntity
  8
Ebene 1
 62
     7
100
AcDbSpline
210
0.0
220
0.0
230
1.0
 70
     1
 71
     3
 72
    20
 73
    16
 74
     0
 42
0.0000000001
 43
0.0000000001
 40
0.0
 40
0.0
 40
0.0
 40
0.0
 40
0.25
 40
0.25
 40
0.25
 40
0.25
 40
0.5
 40
0.5
 40
0.5
 40
0.5
 40
0.75
 40
0.75
 40
0.75
 40
0.75
 40
1.0
 40
1.0
 40
1.0
 40
1.0
 10
2.3674200000000001
 20
-0.04628
 30
0.0
 10
2.3674200000000001
 20
-0.04628
 30
0.0
 10
2.4893400000000003
 20
-0.05898
 30
0.0
 10
2.4893400000000003
 20
-0.05898
 30
0.0
 10
2.4893400000000003
 20
-0.05898
 30
0.0
 10
2.5299800000000001
 20
-0.05898
 30
0.0
 10
2.59348
 20
-0.05898
 30
0.0
 10
2.6138000000000003
 20
-0.10216
 30
0.0
 10
2.6138000000000003
 20
-0.10216
 30
0.0
 10
2.5477600000000002
 20
-0.17582
 30
0.0
 10
2.3699600000000003
 20
-0.16058
 30
0.0
 10
2.2963
 20
-0.1174
 30
0.0
 10
2.2963
 20
-0.1174
 30
0.0
 10
2.2963
 20
-0.1174
 30
0.0
 10
2.3674200000000001
 20
-0.04628
 30
0.0
 10
2.3674200000000001
 20
-0.04628
 30
0.0
  0
SPLINE
  5
5A
100
AcDbEntity
  8
Ebene 1
 62
     7
100
AcDbSpline
210
0.0
220
0.0
230
1.0
 70
     1
 71
     3
 72
    20
 73
    16
 74
     0
 42
0.0000000001
 43
0.0000000001
 40
0.0
 40
0.0
 40
0.0
 40
0.0
 40
0.25
 40
0.25
 40
0.25
 40
0.25
 40
0.5
 40
0.5
 40
0.5
 40
0.5
 40
0.75
 40
0.75
 40
0.75
 40
0.75
 40
1.0
 40
1.0
 40
1.0
 40
1.0
 10
2.1362800000000002
 20
-0.219
 30
0.0
 10
2.17692
 20
-0.20376
 30
0.0
 10
2.1972400000000003
 20
-0.24694
 30
0.0
 10
2.2201
 20
-0.26218
 30
0.0
 10
2.2201
 20
-0.26218
 30
0.0
 10
2.1896200000000001
 20
-0.4780800000000001
 30
0.0
 10
2.3242400000000001
 20
-0.8413000000000001
 30
0.0
 10
2.0651600000000001
 20
-0.92766
 30
0.0
 10
2.0651600000000001
 20
-0.92766
 30
0.0
 10
2.0499200000000002
 20
-0.92766
 30
0.0
 10
2.03722
 20
-0.9124200000000001
 30
0.0
 10
2.0346800000000003
 20
-0.8997200000000001
 30
0.0
 10
2.0346800000000003
 20
-0.8997200000000001
 30
0.0
 10
2.09056
 20
-0.6685800000000001
 30
0.0
 10
2.0118200000000002
 20
-0.4222
 30
0.0
 10
2.1362800000000002
 20
-0.219
 30
0.0
  0
SPLINE
  5
5B
100
AcDbEntity
  8
Ebene 1
 62
     7
100
AcDbSpline
210
0.0
220
0.0
230
1.0
 70
     1
 71
     3
 72
    24
 73
    20
 74
     0
 42
0.0000000001
 43
0.0000000001
 40
0.0
 40
0.0
 40
0.0
 40
0.0
 40
0.2
 40
0.2
 40
0.2
 40
0.2
 40
0.4
 40
0.4
 40
0.4
 40
0.4
 40
0.6000000000000001
 40
0.6000000000000001
 40
0.6000000000000001
 40
0.6000000000000001
 40
0.8
 40
0.8
 40
0.8
 40
0.8
 40
1.0
 40
1.0
 40
1.0
 40
1.0
 10
2.3242400000000001
 20
-0.26218
 30
0.0
 10
2.3598000000000003
 20
-0.26218
 30
0.0
 10
2.3953600000000002
 20
-0.27742
 30
0.0
 10
2.4233000000000002
 20
-0.29266
 30
0.0
 10
2.4233000000000002
 20
-0.29266
 30
0.0
 10
2.41568
 20
-0.55174
 30
0.0
 10
2.38774
 20
-0.8413000000000001
 30
0.0
 10
2.4385400000000002
 20
-1.08768
 30
0.0
 10
2.4385400000000002
 20
-1.08768
 30
0.0
 10
2.4385400000000002
 20
-1.08768
 30
0.0
 10
2.2709000000000001
 20
-1.1029200000000001
 30
0.0
 10
2.2709000000000001
 20
-1.1029200000000001
 30
0.0
 10
2.2709000000000001
 20
-1.1029200000000001
 30
0.0
 10
2.2709000000000001
 20
-1.1029200000000001
 30
0.0
 10
2.2810600000000001
 20
-0.30536
 30
0.0
 10
2.2810600000000001
 20
-0.30536
 30
0.0
 10
2.2810600000000001
 20
-0.30536
 30
0.0
 10
2.2810600000000001
 20
-0.30536
 30
0.0
 10
2.3242400000000001
 20
-0.26218
 30
0.0
 10
2.3242400000000001
 20
-0.26218
 30
0.0
  0
SPLINE
  5
5C
100
AcDbEntity
  8
Ebene 1
 62
     7
100
AcDbSpline
210
0.0
220
0.0
230
1.0
 70
     1
 71
     3
 72
    12
 73
     8
 74
     0
 42
0.0000000001
 43
0.0000000001
 40
0.0
 40
0.0
 40
0.0
 40
0.0
 40
0.5
 40
0.5
 40
0.5
 40
0.5
 40
1.0
 40
1.0
 40
1.0
 40
1.0
 10
2.5553800000000004
 20
-0.27742
 30
0.0
 10
2.63666
 20
-0.27742
 30
0.0
 10
2.5985600000000004
 20
-0.4374400000000001
 30
0.0
 10
2.5858600000000003
 20
-0.4780800000000001
 30
0.0
 10
2.5858600000000003
 20
-0.4780800000000001
 30
0.0
 10
2.5858600000000003
 20
-0.4780800000000001
 30
0.0
 10
2.5553800000000004
 20
-0.27742
 30
0.0
 10
2.5553800000000004
 20
-0.27742
 30
0.0
  0
SPLINE
  5
5D
100
AcDbEntity
  8
Ebene 1
 62
     7
100
AcDbSpline
210
0.0
220
0.0
230
1.0
 70
     1
 71
     3
 72
    72
 73
    68
 74
     0
 42
0.0000000001
 43
0.0000000001
 40
0.0
 40
0.0
 40
0.0
 40
0.0
 40
0.0588235294117647
 40
0.0588235294117647
 40
0.0588235294117647
 40
0.0588235294117647
 40
0.1176470588235294
 40
0.1176470588235294
 40
0.1176470588235294
 40
0.1176470588235294
 40
0.1764705882352941
 40
0.1764705882352941
 40
0.1764705882352941
 40
0.1764705882352941
 40
0.2352941176470588
 40
0.2352941176470588
 40
0.2352941176470588
 40
0.2352941176470588
 40
0.2941176470588235
 40
0.2941176470588235
 40
0.2941176470588235
 40
0.2941176470588235
 40
0.3529411764705883
 40
0.3529411764705883
 40
0.3529411764705883
 40
0.3529411764705883
 40
0.411764705882353
 40
0.411764705882353
 40
0.411764705882353
 40
0.411764705882353
 40
0.4705882352941177
 40
0.4705882352941177
 40
0.4705882352941177
 40
0.4705882352941177
 40
0.5294117647058824
 40
0.5294117647058824
 40
0.5294117647058824
 40
0.5294117647058824
 40
0.5882352941176471
 40
0.5882352941176471
 40
0.5882352941176471
 40
0.5882352941176471
 40
0.6470588235294118
 40
0.6470588235294118
 40
0.6470588235294118
 40
0.6470588235294118
 40
0.7058823529411765
 40
0.7058823529411765
 40
0.7058823529411765
 40
0.7058823529411765
 40
0.7647058823529412
 40
0.7647058823529412
 40
0.7647058823529412
 40
0.7647058823529412
 40
0.823529411764706
 40
0.823529411764706
 40
0.823529411764706
 40
0.823529411764706
 40
0.8823529411764707
 40
0.8823529411764707
 40
0.8823529411764707
 40
0.8823529411764707
 40
0.9411764705882354
 40
0.9411764705882354
 40
0.9411764705882354
 40
0.9411764705882354
 40
1.0
 40
1.0
 40
1.0
 40
1.0
 10
1.8035400000000001
 20
-0.40696
 30
0.0
 10
1.7197200000000001
 20
-1.3188200000000001
 30
0.0
 10
1.9000600000000001
 20
-2.36022
 30
0.0
 10
1.4606400000000002
 20
-3.0688800000000001
 30
0.0
 10
1.4606400000000002
 20
-3.0688800000000001
 30
0.0
 10
1.6206600000000002
 20
-2.9977600000000004
 30
0.0
 10
1.7476600000000002
 20
-2.8098000000000001
 30
0.0
 10
1.8924400000000001
 20
-2.7818600000000004
 30
0.0
 10
1.8924400000000001
 20
-2.7818600000000004
 30
0.0
 10
1.5343000000000002
 20
-3.5032200000000002
 30
0.0
 10
0.49798
 20
-3.7216600000000004
 30
0.0
 10
-0.21575
 20
-4.1102800000000004
 30
0.0
 10
-0.21575
 20
-4.1102800000000004
 30
0.0
 10
-0.08875
 20
-3.9680400000000002
 30
0.0
 10
0.06872
 20
-3.8232600000000003
 30
0.0
 10
0.2389
 20
-3.7216600000000004
 30
0.0
 10
0.2389
 20
-3.7216600000000004
 30
0.0
 10
0.4294000000000001
 20
-3.5895800000000002
 30
0.0
 10
0.66308
 20
-3.4879800000000003
 30
0.0
 10
0.8180200000000001
 20
-3.3152600000000003
 30
0.0
 10
0.8180200000000001
 20
-3.3152600000000003
 30
0.0
 10
0.55132
 20
-3.4168600000000002
 30
0.0
 10
0.30748
 20
-3.5895800000000002
 30
0.0
 10
0.05856
 20
-3.7343600000000001
 30
0.0
 10
0.05856
 20
-3.7343600000000001
 30
0.0
 10
0.05856
 20
-3.7343600000000001
 30
0.0
 10
-0.42149
 20
-4.0975800000000007
 30
0.0
 10
-0.42149
 20
-4.0975800000000007
 30
0.0
 10
-0.42149
 20
-4.0975800000000007
 30
0.0
 10
-0.39355
 20
-3.6048200000000001
 30
0.0
 10
0.6249800000000001
 20
-3.5184600000000001
 30
0.0
 10
0.31764
 20
-2.9825200000000001
 30
0.0
 10
0.31764
 20
-2.9825200000000001
 30
0.0
 10
0.46496
 20
-2.9393400000000001
 30
0.0
 10
0.59958
 20
-2.7945600000000002
 30
0.0
 10
0.74436
 20
-2.7945600000000002
 30
0.0
 10
0.74436
 20
-2.7945600000000002
 30
0.0
 10
0.74436
 20
-2.7945600000000002
 30
0.0
 10
0.43448
 20
-3.1857200000000003
 30
0.0
 10
0.43448
 20
-3.1857200000000003
 30
0.0
 10
0.43448
 20
-3.1857200000000003
 30
0.0
 10
0.51576
 20
-3.2238200000000004
 30
0.0
 10
0.57926
 20
-3.1527000000000003
 30
0.0
 10
0.6199
 20
-3.1196800000000002
 30
0.0
 10
0.6199
 20
-3.1196800000000002
 30
0.0
 10
0.8408800000000001
 20
-2.9418800000000003
 30
0.0
 10
1.0085200000000001
 20
-2.7209000000000003
 30
0.0
 10
1.1533
 20
-2.4770600000000003
 30
0.0
 10
1.1533
 20
-2.4770600000000003
 30
0.0
 10
1.1812400000000001
 20
-2.6218400000000002
 30
0.0
 10
0.49036
 20
-3.5337000000000005
 30
0.0
 10
1.2091800000000001
 20
-3.2441400000000002
 30
0.0
 10
1.2091800000000001
 20
-3.2441400000000002
 30
0.0
 10
1.3412600000000001
 20
-3.1577800000000003
 30
0.0
 10
1.4504800000000002
 20
-2.8225000000000002
 30
0.0
 10
1.2447400000000002
 20
-3.0688800000000001
 30
0.0
 10
1.2447400000000002
 20
-3.0688800000000001
 30
0.0
 10
1.1787000000000001
 20
-3.1425400000000003
 30
0.0
 10
1.0923400000000001
 20
-3.19842
 30
0.0
 10
0.9983600000000001
 20
-3.19842
 30
0.0
 10
0.9983600000000001
 20
-3.19842
 30
0.0
 10
1.6765400000000001
 20
-2.52786
 30
0.0
 10
1.6384400000000001
 20
-1.5296400000000001
 30
0.0
 10
1.7324200000000001
 20
-0.6508000000000001
 30
0.0
 10
1.7324200000000001
 20
-0.6508000000000001
 30
0.0
 10
1.7425800000000002
 20
-0.5619000000000001
 30
0.0
 10
1.7629000000000001
 20
-0.32568
 30
0.0
 10
1.8035400000000001
 20
-0.40696
 30
0.0
  0
SPLINE
  5
5E
100
AcDbEntity
  8
Ebene 1
100
AcDbSpline
210
0.0
220
0.0
230
1.0
 70
     1
 71
     3
 72
    20
 73
    16
 74
     0
 42
0.0000000001
 43
0.0000000001
 40
0.0
 40
0.0
 40
0.0
 40
0.0
 40
0.25
 40
0.25
 40
0.25
 40
0.25
 40
0.5
 40
0.5
 40
0.5
 40
0.5
 40
0.75
 40
0.75
 40
0.75
 40
0.75
 40
1.0
 40
1.0
 40
1.0
 40
1.0
 10
-2.3747500000000001
 20
-0.4222
 30
0.0
 10
-2.3544300000000002
 20
-0.4222
 30
0.0
 10
-2.3391900000000003
 20
-0.4374400000000001
 30
0.0
 10
-2.3468100000000001
 20
-0.45014
 30
0.0
 10
-2.3468100000000001
 20
-0.45014
 30
0.0
 10
-2.4484100000000004
 20
-0.7397
 30
0.0
 10
-2.43825
 20
-1.08768
 30
0.0
 10
-2.5144500000000001
 20
-1.37724
 30
0.0
 10
-2.5144500000000001
 20
-1.37724
 30
0.0
 10
-2.5144500000000001
 20
-1.37724
 30
0.0
 10
-2.5500100000000003
 20
-1.33406
 30
0.0
 10
-2.5500100000000003
 20
-1.33406
 30
0.0
 10
-2.5500100000000003
 20
-1.33406
 30
0.0
 10
-2.4915900000000004
 20
-1.0292600000000001
 30
0.0
 10
-2.5093700000000001
 20
-0.69652
 30
0.0
 10
-2.3747500000000001
 20
-0.4222
 30
0.0
  0
SPLINE
  5
5F
100
AcDbEntity
  8
Ebene 1
 62
     7
100
AcDbSpline
210
0.0
220
0.0
230
1.0
 70
     1
 71
     3
 72
    32
 73
    28
 74
     0
 42
0.0000000001
 43
0.0000000001
 40
0.0
 40
0.0
 40
0.0
 40
0.0
 40
0.1428571428571429
 40
0.1428571428571429
 40
0.1428571428571429
 40
0.1428571428571429
 40
0.2857142857142857
 40
0.2857142857142857
 40
0.2857142857142857
 40
0.2857142857142857
 40
0.4285714285714286
 40
0.4285714285714286
 40
0.4285714285714286
 40
0.4285714285714286
 40
0.5714285714285714
 40
0.5714285714285714
 40
0.5714285714285714
 40
0.5714285714285714
 40
0.7142857142857142
 40
0.7142857142857142
 40
0.7142857142857142
 40
0.7142857142857142
 40
0.857142857142857
 40
0.857142857142857
 40
0.857142857142857
 40
0.857142857142857
 40
1.0
 40
1.0
 40
1.0
 40
1.0
 10
1.31332
 20
-0.45014
 30
0.0
 10
1.2853800000000002
 20
-0.7549400000000001
 30
0.0
 10
1.2447400000000002
 20
-1.1156200000000001
 30
0.0
 10
1.3717400000000002
 20
-1.42042
 30
0.0
 10
1.3717400000000002
 20
-1.42042
 30
0.0
 10
1.2599800000000001
 20
-1.8547600000000002
 30
0.0
 10
1.19648
 20
-2.4923000000000002
 30
0.0
 10
0.72404
 20
-2.6650200000000002
 30
0.0
 10
0.72404
 20
-2.6650200000000002
 30
0.0
 10
0.8764400000000001
 20
-2.4465800000000004
 30
0.0
 10
0.9069200000000001
 20
-2.1290800000000001
 30
0.0
 10
1.0517000000000001
 20
-1.9258800000000003
 30
0.0
 10
1.0517000000000001
 20
-1.9258800000000003
 30
0.0
 10
1.0517000000000001
 20
-1.9258800000000003
 30
0.0
 10
1.1533
 20
-1.9843000000000002
 30
0.0
 10
1.1533
 20
-1.9843000000000002
 30
0.0
 10
1.1533
 20
-1.9843000000000002
 30
0.0
 10
1.1533
 20
-1.9843000000000002
 30
0.0
 10
1.2244200000000001
 20
-1.9411200000000002
 30
0.0
 10
1.2244200000000001
 20
-1.9411200000000002
 30
0.0
 10
1.2244200000000001
 20
-1.9411200000000002
 30
0.0
 10
1.1380600000000001
 20
-1.6515600000000001
 30
0.0
 10
1.1609200000000002
 20
-1.5499600000000002
 30
0.0
 10
1.19648
 20
-1.3035800000000002
 30
0.0
 10
1.19648
 20
-1.3035800000000002
 30
0.0
 10
0.9983600000000001
 20
-1.0292600000000001
 30
0.0
 10
1.06948
 20
-0.69652
 30
0.0
 10
1.31332
 20
-0.45014
 30
0.0
  0
SPLINE
  5
60
100
AcDbEntity
  8
Ebene 1
 62
     7
100
AcDbSpline
210
0.0
220
0.0
230
1.0
 70
     1
 71
     3
 72
    12
 73
     8
 74
     0
 42
0.0000000001
 43
0.0000000001
 40
0.0
 40
0.0
 40
0.0
 40
0.0
 40
0.5
 40
0.5
 40
0.5
 40
0.5
 40
1.0
 40
1.0
 40
1.0
 40
1.0
 10
-3.4466300000000003
 20
-0.46538
 30
0.0
 10
-3.3577300000000001
 20
-0.5365000000000001
 30
0.0
 10
-3.3018500000000004
 20
-0.7397
 30
0.0
 10
-3.3297900000000005
 20
-0.8540000000000001
 30
0.0
 10
-3.3297900000000005
 20
-0.8540000000000001
 30
0.0
 10
-3.3958300000000001
 20
-0.7397
 30
0.0
 10
-3.4212300000000004
 20
-0.59492
 30
0.0
 10
-3.4466300000000003
 20
-0.46538
 30
0.0
  0
SPLINE
  5
61
100
AcDbEntity
  8
Ebene 1
100
AcDbSpline
210
0.0
220
0.0
230
1.0
 70
     1
 71
     3
 72
    12
 73
     8
 74
     0
 42
0.0000000001
 43
0.0000000001
 40
0.0
 40
0.0
 40
0.0
 40
0.0
 40
0.5
 40
0.5
 40
0.5
 40
0.5
 40
1.0
 40
1.0
 40
1.0
 40
1.0
 10
-0.04557
 20
-0.5822200000000001
 30
0.0
 10
0.07634
 20
-0.6381
 30
0.0
 10
0.16524
 20
-0.82606
 30
0.0
 10
0.13984
 20
-0.9581400000000001
 30
0.0
 10
0.13984
 20
-0.9581400000000001
 30
0.0
 10
0.13984
 20
-0.9581400000000001
 30
0.0
 10
-0.04557
 20
-0.5822200000000001
 30
0.0
 10
-0.04557
 20
-0.5822200000000001
 30
0.0
  0
SPLINE
  5
62
100
AcDbEntity
  8
Ebene 1
 62
     7
100
AcDbSpline
210
0.0
220
0.0
230
1.0
 70
     1
 71
     3
 72
    36
 73
    32
 74
     0
 42
0.0000000001
 43
0.0000000001
 40
0.0
 40
0.0
 40
0.0
 40
0.0
 40
0.125
 40
0.125
 40
0.125
 40
0.125
 40
0.25
 40
0.25
 40
0.25
 40
0.25
 40
0.375
 40
0.375
 40
0.375
 40
0.375
 40
0.5
 40
0.5
 40
0.5
 40
0.5
 40
0.625
 40
0.625
 40
0.625
 40
0.625
 40
0.75
 40
0.75
 40
0.75
 40
0.75
 40
0.875
 40
0.875
 40
0.875
 40
0.875
 40
1.0
 40
1.0
 40
1.0
 40
1.0
 10
-3.1291300000000004
 20
-0.9124200000000001
 30
0.0
 10
-2.9691100000000001
 20
-1.3035800000000002
 30
0.0
 10
-3.0097500000000004
 20
-1.8115800000000002
 30
0.0
 10
-2.9106900000000002
 20
-2.23068
 30
0.0
 10
-2.9106900000000002
 20
-2.23068
 30
0.0
 10
-2.8446500000000001
 20
-2.5481800000000003
 30
0.0
 10
-2.7582900000000001
 20
-2.8098000000000001
 30
0.0
 10
-2.7659100000000003
 20
-3.1273000000000004
 30
0.0
 10
-2.7659100000000003
 20
-3.1273000000000004
 30
0.0
 10
-2.7659100000000003
 20
-3.1273000000000004
 30
0.0
 10
-2.7252700000000001
 20
-3.2873200000000002
 30
0.0
 10
-2.7252700000000001
 20
-3.2873200000000002
 30
0.0
 10
-2.7252700000000001
 20
-3.2873200000000002
 30
0.0
 10
-3.3907500000000002
 20
-2.8809200000000001
 30
0.0
 10
-3.1951700000000001
 20
-2.0427200000000001
 30
0.0
 10
-3.2002500000000005
 20
-1.3899400000000002
 30
0.0
 10
-3.2002500000000005
 20
-1.3899400000000002
 30
0.0
 10
-3.1824700000000004
 20
-1.6236200000000001
 30
0.0
 10
-3.1596100000000003
 20
-1.8700000000000001
 30
0.0
 10
-3.1240500000000004
 20
-2.10114
 30
0.0
 10
-3.1240500000000004
 20
-2.10114
 30
0.0
 10
-3.0935700000000002
 20
-2.4186400000000003
 30
0.0
 10
-3.0732500000000003
 20
-2.7818600000000004
 30
0.0
 10
-2.8700500000000004
 20
-3.0257000000000001
 30
0.0
 10
-2.8700500000000004
 20
-3.0257000000000001
 30
0.0
 10
-2.9360900000000001
 20
-2.5634200000000003
 30
0.0
 10
-3.1545300000000003
 20
-2.10114
 30
0.0
 10
-3.0427700000000004
 20
-1.5652000000000001
 30
0.0
 10
-3.0427700000000004
 20
-1.5652000000000001
 30
0.0
 10
-3.1291300000000004
 20
-1.3620000000000001
 30
0.0
 10
-3.1316700000000002
 20
-1.1308600000000002
 30
0.0
 10
-3.1291300000000004
 20
-0.9124200000000001
 30
0.0
  0
SPLINE
  5
63
100
AcDbEntity
  8
Ebene 1
 62
     7
100
AcDbSpline
210
0.0
220
0.0
230
1.0
 70
     1
 71
     3
 72
   164
 73
   160
 74
     0
 42
0.0000000001
 43
0.0000000001
 40
0.0
 40
0.0
 40
0.0
 40
0.0
 40
0.025
 40
0.025
 40
0.025
 40
0.025
 40
0.05
 40
0.05
 40
0.05
 40
0.05
 40
0.075
 40
0.075
 40
0.075
 40
0.075
 40
0.1
 40
0.1
 40
0.1
 40
0.1
 40
0.125
 40
0.125
 40
0.125
 40
0.125
 40
0.15
 40
0.15
 40
0.15
 40
0.15
 40
0.175
 40
0.175
 40
0.175
 40
0.175
 40
0.2
 40
0.2
 40
0.2
 40
0.2
 40
0.225
 40
0.225
 40
0.225
 40
0.225
 40
0.25
 40
0.25
 40
0.25
 40
0.25
 40
0.275
 40
0.275
 40
0.275
 40
0.275
 40
0.3
 40
0.3
 40
0.3
 40
0.3
 40
0.325
 40
0.325
 40
0.325
 40
0.325
 40
0.35
 40
0.35
 40
0.35
 40
0.35
 40
0.3750000000000001
 40
0.3750000000000001
 40
0.3750000000000001
 40
0.3750000000000001
 40
0.4000000000000001
 40
0.4000000000000001
 40
0.4000000000000001
 40
0.4000000000000001
 40
0.4250000000000001
 40
0.4250000000000001
 40
0.4250000000000001
 40
0.4250000000000001
 40
0.4500000000000001
 40
0.4500000000000001
 40
0.4500000000000001
 40
0.4500000000000001
 40
0.4750000000000001
 40
0.4750000000000001
 40
0.4750000000000001
 40
0.4750000000000001
 40
0.5000000000000001
 40
0.5000000000000001
 40
0.5000000000000001
 40
0.5000000000000001
 40
0.5250000000000001
 40
0.5250000000000001
 40
0.5250000000000001
 40
0.5250000000000001
 40
0.5500000000000002
 40
0.5500000000000002
 40
0.5500000000000002
 40
0.5500000000000002
 40
0.5750000000000002
 40
0.5750000000000002
 40
0.5750000000000002
 40
0.5750000000000002
 40
0.6000000000000002
 40
0.6000000000000002
 40
0.6000000000000002
 40
0.6000000000000002
 40
0.6250000000000002
 40
0.6250000000000002
 40
0.6250000000000002
 40
0.6250000000000002
 40
0.6500000000000002
 40
0.6500000000000002
 40
0.6500000000000002
 40
0.6500000000000002
 40
0.6750000000000003
 40
0.6750000000000003
 40
0.6750000000000003
 40
0.6750000000000003
 40
0.7000000000000003
 40
0.7000000000000003
 40
0.7000000000000003
 40
0.7000000000000003
 40
0.7250000000000003
 40
0.7250000000000003
 40
0.7250000000000003
 40
0.7250000000000003
 40
0.7500000000000003
 40
0.7500000000000003
 40
0.7500000000000003
 40
0.7500000000000003
 40
0.7750000000000004
 40
0.7750000000000004
 40
0.7750000000000004
 40
0.7750000000000004
 40
0.8000000000000004
 40
0.8000000000000004
 40
0.8000000000000004
 40
0.8000000000000004
 40
0.8250000000000004
 40
0.8250000000000004
 40
0.8250000000000004
 40
0.8250000000000004
 40
0.8500000000000004
 40
0.8500000000000004
 40
0.8500000000000004
 40
0.8500000000000004
 40
0.8750000000000004
 40
0.8750000000000004
 40
0.8750000000000004
 40
0.8750000000000004
 40
0.9000000000000005
 40
0.9000000000000005
 40
0.9000000000000005
 40
0.9000000000000005
 40
0.9250000000000005
 40
0.9250000000000005
 40
0.9250000000000005
 40
0.9250000000000005
 40
0.9500000000000005
 40
0.9500000000000005
 40
0.9500000000000005
 40
0.9500000000000005
 40
0.9750000000000005
 40
0.9750000000000005
 40
0.9750000000000005
 40
0.9750000000000005
 40
1.0
 40
1.0
 40
1.0
 40
1.0
 10
-0.9701300000000001
 20
-4.5090600000000007
 30
0.0
 10
-0.9142500000000001
 20
-4.4074600000000004
 30
0.0
 10
-0.9447300000000001
 20
-4.2550600000000003
 30
0.0
 10
-1.04125
 20
-4.1839400000000007
 30
0.0
 10
-1.04125
 20
-4.1839400000000007
 30
0.0
 10
-1.04125
 20
-4.1839400000000007
 30
0.0
 10
-1.04633
 20
-4.0544000000000002
 30
0.0
 10
-1.04633
 20
-4.0544000000000002
 30
0.0
 10
-1.04633
 20
-4.0544000000000002
 30
0.0
 10
-1.04633
 20
-4.0544000000000002
 30
0.0
 10
-1.21397
 20
-3.9680400000000002
 30
0.0
 10
-1.21397
 20
-3.9680400000000002
 30
0.0
 10
-1.21397
 20
-3.9680400000000002
 30
0.0
 10
-1.3155700000000001
 20
-3.8359600000000005
 30
0.0
 10
-1.5848100000000001
 20
-3.7648400000000004
 30
0.0
 10
-1.6686300000000001
 20
-3.9096200000000003
 30
0.0
 10
-1.6686300000000001
 20
-3.9096200000000003
 30
0.0
 10
-1.8515100000000002
 20
-3.8791400000000005
 30
0.0
 10
-1.8591300000000002
 20
-4.1407600000000002
 30
0.0
 10
-1.84135
 20
-4.2703000000000007
 30
0.0
 10
-1.84135
 20
-4.2703000000000007
 30
0.0
 10
-1.8362700000000001
 20
-4.34396
 30
0.0
 10
-1.8337300000000001
 20
-4.4735000000000005
 30
0.0
 10
-1.75499
 20
-4.4735000000000005
 30
0.0
 10
-1.75499
 20
-4.4735000000000005
 30
0.0
 10
-1.7524500000000001
 20
-4.34396
 30
0.0
 10
-1.7295900000000002
 20
-4.1991800000000001
 30
0.0
 10
-1.6838700000000002
 20
-4.0975800000000007
 30
0.0
 10
-1.6838700000000002
 20
-4.0975800000000007
 30
0.0
 10
-1.5924300000000002
 20
-4.3007800000000005
 30
0.0
 10
-1.50607
 20
-3.9959800000000003
 30
0.0
 10
-1.37907
 20
-4.0975800000000007
 30
0.0
 10
-1.37907
 20
-4.0975800000000007
 30
0.0
 10
-1.37907
 20
-4.0975800000000007
 30
0.0
 10
-1.3003300000000002
 20
-4.1687000000000003
 30
0.0
 10
-1.3003300000000002
 20
-4.1687000000000003
 30
0.0
 10
-1.3003300000000002
 20
-4.1687000000000003
 30
0.0
 10
-1.0971300000000002
 20
-4.1560000000000006
 30
0.0
 10
-1.2292100000000001
 20
-4.3769800000000005
 30
0.0
 10
-1.0158500000000001
 20
-4.51668
 30
0.0
 10
-1.0158500000000001
 20
-4.51668
 30
0.0
 10
-1.3435100000000002
 20
-4.5319200000000004
 30
0.0
 10
-1.8032500000000002
 20
-4.51668
 30
0.0
 10
-2.1537700000000002
 20
-4.5903400000000003
 30
0.0
 10
-2.1537700000000002
 20
-4.5903400000000003
 30
0.0
 10
-2.4687300000000003
 20
-4.1814
 30
0.0
 10
-2.5322300000000002
 20
-3.6403800000000004
 30
0.0
 10
-2.7100300000000002
 20
-3.1273000000000004
 30
0.0
 10
-2.7100300000000002
 20
-3.1273000000000004
 30
0.0
 10
-2.7328900000000003
 20
-3.0612600000000003
 30
0.0
 10
-2.7481300000000002
 20
-2.9647400000000004
 30
0.0
 10
-2.7430500000000002
 20
-2.8860000000000001
 30
0.0
 10
-2.7430500000000002
 20
-2.8860000000000001
 30
0.0
 10
-2.7430500000000002
 20
-2.8860000000000001
 30
0.0
 10
-2.5017500000000004
 20
-3.4016200000000003
 30
0.0
 10
-2.5017500000000004
 20
-3.4016200000000003
 30
0.0
 10
-2.5017500000000004
 20
-3.4016200000000003
 30
0.0
 10
-2.4687300000000003
 20
-3.4879800000000003
 30
0.0
 10
-2.2807700000000004
 20
-3.8080200000000004
 30
0.0
 10
-2.3772900000000003
 20
-3.5616400000000001
 30
0.0
 10
-2.3772900000000003
 20
-3.5616400000000001
 30
0.0
 10
-2.6262100000000004
 20
-3.0409400000000004
 30
0.0
 10
-2.8344900000000002
 20
-2.4923000000000002
 30
0.0
 10
-2.8522700000000003
 20
-1.8979400000000002
 30
0.0
 10
-2.8522700000000003
 20
-1.8979400000000002
 30
0.0
 10
-2.8675100000000002
 20
-1.6795000000000002
 30
0.0
 10
-2.8878300000000001
 20
-1.42042
 30
0.0
 10
-2.8624300000000003
 20
-1.2172200000000002
 30
0.0
 10
-2.8624300000000003
 20
-1.2172200000000002
 30
0.0
 10
-2.7862300000000002
 20
-1.6363200000000002
 30
0.0
 10
-2.6947900000000002
 20
-1.6083800000000001
 30
0.0
 10
-2.7659100000000003
 20
-1.9995400000000001
 30
0.0
 10
-2.7659100000000003
 20
-1.9995400000000001
 30
0.0
 10
-2.5652500000000003
 20
-2.2002000000000002
 30
0.0
 10
-2.7938500000000004
 20
-2.5634200000000003
 30
0.0
 10
-2.5449300000000004
 20
-2.7945600000000002
 30
0.0
 10
-2.5449300000000004
 20
-2.7945600000000002
 30
0.0
 10
-2.4509500000000002
 20
-2.8961600000000001
 30
0.0
 10
-2.2833100000000002
 20
-2.8961600000000001
 30
0.0
 10
-2.2045700000000004
 20
-2.7818600000000004
 30
0.0
 10
-2.2045700000000004
 20
-2.7818600000000004
 30
0.0
 10
-1.8769100000000001
 20
-3.1704800000000004
 30
0.0
 10
-1.1784100000000002
 20
-3.0409400000000004
 30
0.0
 10
-1.3435100000000002
 20
-2.4338800000000003
 30
0.0
 10
-1.3435100000000002
 20
-2.4338800000000003
 30
0.0
 10
-1.16317
 20
-2.2891000000000004
 30
0.0
 10
-1.1784100000000002
 20
-2.6218400000000002
 30
0.0
 10
-1.2190500000000002
 20
-2.7234400000000001
 30
0.0
 10
-1.2190500000000002
 20
-2.7234400000000001
 30
0.0
 10
-1.1936500000000001
 20
-3.2136600000000004
 30
0.0
 10
-1.0996700000000001
 20
-1.7658600000000002
 30
0.0
 10
-0.9574300000000001
 20
-2.5050000000000003
 30
0.0
 10
-0.9574300000000001
 20
-2.5050000000000003
 30
0.0
 10
-0.9040900000000001
 20
-2.6497800000000002
 30
0.0
 10
-0.9447300000000001
 20
-2.7666200000000001
 30
0.0
 10
-0.9675900000000001
 20
-2.8809200000000001
 30
0.0
 10
-0.9675900000000001
 20
-2.8809200000000001
 30
0.0
 10
-0.44181
 20
-2.7666200000000001
 30
0.0
 10
-0.10399
 20
-2.8529800000000001
 30
0.0
 10
0.3024
 20
-2.4465800000000004
 30
0.0
 10
0.3024
 20
-2.4465800000000004
 30
0.0
 10
0.8840600000000001
 20
-2.7082000000000002
 30
0.0
 10
0.8434200000000001
 20
-1.6363200000000002
 30
0.0
 10
0.88914
 20
-1.2604000000000002
 30
0.0
 10
0.88914
 20
-1.2604000000000002
 30
0.0
 10
1.2447400000000002
 20
-2.3754600000000003
 30
0.0
 10
0.02554
 20
-3.19842
 30
0.0
 10
-0.92949
 20
-3.1857200000000003
 30
0.0
 10
-0.92949
 20
-3.1857200000000003
 30
0.0
 10
-1.4984500000000001
 20
-3.0993600000000003
 30
0.0
 10
-2.31887
 20
-3.4600400000000002
 30
0.0
 10
-2.6185900000000002
 20
-2.8098000000000001
 30
0.0
 10
-2.6185900000000002
 20
-2.8098000000000001
 30
0.0
 10
-2.6312900000000004
 20
-3.2873200000000002
 30
0.0
 10
-1.9581900000000001
 20
-3.3152600000000003
 30
0.0
 10
-1.8210300000000001
 20
-3.4321000000000002
 30
0.0
 10
-1.8210300000000001
 20
-3.4321000000000002
 30
0.0
 10
-1.9048500000000002
 20
-3.5464000000000002
 30
0.0
 10
-2.0039100000000003
 20
-3.6480000000000001
 30
0.0
 10
-2.0394700000000001
 20
-3.7800800000000003
 30
0.0
 10
-2.0394700000000001
 20
-3.7800800000000003
 30
0.0
 10
-1.8819900000000001
 20
-3.5895800000000002
 30
0.0
 10
-1.8438900000000003
 20
-3.6911800000000001
 30
0.0
 10
-1.6813300000000002
 20
-3.4879800000000003
 30
0.0
 10
-1.6813300000000002
 20
-3.4879800000000003
 30
0.0
 10
-1.4095500000000001
 20
-3.3584400000000003
 30
0.0
 10
-1.2012700000000001
 20
-3.8664400000000003
 30
0.0
 10
-0.88885
 20
-3.8512000000000004
 30
0.0
 10
-0.88885
 20
-3.8512000000000004
 30
0.0
 10
-0.9701300000000001
 20
-3.7343600000000001
 30
0.0
 10
-1.1987300000000001
 20
-3.4473400000000001
 30
0.0
 10
-1.0691900000000001
 20
-3.3736800000000002
 30
0.0
 10
-1.0691900000000001
 20
-3.3736800000000002
 30
0.0
 10
-0.36815
 20
-3.4879800000000003
 30
0.0
 10
-0.5002300000000001
 20
-3.3025600000000002
 30
0.0
 10
-0.10653
 20
-3.19842
 30
0.0
 10
-0.10653
 20
-3.19842
 30
0.0
 10
-0.02525
 20
-3.2720800000000003
 30
0.0
 10
0.1881
 20
-2.9545800000000004
 30
0.0
 10
0.3278
 20
-3.0993600000000003
 30
0.0
 10
0.3278
 20
-3.0993600000000003
 30
0.0
 10
0.16016
 20
-3.3152600000000003
 30
0.0
 10
-0.17511
 20
-3.4016200000000003
 30
0.0
 10
-0.36053
 20
-3.6784800000000004
 30
0.0
 10
-0.36053
 20
-3.6784800000000004
 30
0.0
 10
-0.36053
 20
-3.6784800000000004
 30
0.0
 10
-0.43165
 20
-3.7800800000000003
 30
0.0
 10
-0.43165
 20
-3.7800800000000003
 30
0.0
 10
-0.43165
 20
-3.7800800000000003
 30
0.0
 10
-0.37323
 20
-3.7927800000000005
 30
0.0
 10
-0.35037
 20
-3.7064200000000005
 30
0.0
 10
-0.29449
 20
-3.7216600000000004
 30
0.0
 10
-0.29449
 20
-3.7216600000000004
 30
0.0
 10
-0.53579
 20
-3.8791400000000005
 30
0.0
 10
-0.61199
 20
-4.2423600000000006
 30
0.0
 10
-0.86599
 20
-3.9375600000000004
 30
0.0
 10
-0.86599
 20
-3.9375600000000004
 30
0.0
 10
-0.7948700000000001
 20
-4.1255200000000007
 30
0.0
 10
-0.7135900000000001
 20
-4.4379400000000002
 30
0.0
 10
-0.9701300000000001
 20
-4.5090600000000007
 30
0.0
  0
SPLINE
  5
64
100
AcDbEntity
  8
Ebene 1
 62
     7
100
AcDbSpline
210
0.0
220
0.0
230
1.0
 70
     1
 71
     3
 72
    12
 73
     8
 74
     0
 42
0.0000000001
 43
0.0000000001
 40
0.0
 40
0.0
 40
0.0
 40
0.0
 40
0.5
 40
0.5
 40
0.5
 40
0.5
 40
1.0
 40
1.0
 40
1.0
 40
1.0
 10
0.13984
 20
-1.29088
 30
0.0
 10
0.24906
 20
-1.2604000000000002
 30
0.0
 10
0.20588
 20
-1.3899400000000002
 30
0.0
 10
0.13984
 20
-1.4051800000000001
 30
0.0
 10
0.13984
 20
-1.4051800000000001
 30
0.0
 10
0.1119
 20
-1.37724
 30
0.0
 10
0.12206
 20
-1.3188200000000001
 30
0.0
 10
0.13984
 20
-1.29088
 30
0.0
  0
SPLINE
  5
65
100
AcDbEntity
  8
Ebene 1
 62
     7
100
AcDbSpline
210
0.0
220
0.0
230
1.0
 70
     1
 71
     3
 72
    24
 73
    20
 74
     0
 42
0.0000000001
 43
0.0000000001
 40
0.0
 40
0.0
 40
0.0
 40
0.0
 40
0.2
 40
0.2
 40
0.2
 40
0.2
 40
0.4
 40
0.4
 40
0.4
 40
0.4
 40
0.6000000000000001
 40
0.6000000000000001
 40
0.6000000000000001
 40
0.6000000000000001
 40
0.8
 40
0.8
 40
0.8
 40
0.8
 40
1.0
 40
1.0
 40
1.0
 40
1.0
 10
2.1947000000000001
 20
-1.33406
 30
0.0
 10
2.2988400000000002
 20
-1.3035800000000002
 30
0.0
 10
2.2836000000000003
 20
-1.3899400000000002
 30
0.0
 10
2.2226400000000002
 20
-1.4356600000000002
 30
0.0
 10
2.2226400000000002
 20
-1.4356600000000002
 30
0.0
 10
2.25312
 20
-1.4940800000000001
 30
0.0
 10
2.2988400000000002
 20
-1.5931400000000002
 30
0.0
 10
2.2632800000000004
 20
-1.6668000000000001
 30
0.0
 10
2.2632800000000004
 20
-1.6668000000000001
 30
0.0
 10
2.2632800000000004
 20
-1.6668000000000001
 30
0.0
 10
2.1566000000000001
 20
-1.6668000000000001
 30
0.0
 10
2.1566000000000001
 20
-1.6668000000000001
 30
0.0
 10
2.1566000000000001
 20
-1.6668000000000001
 30
0.0
 10
2.1845400000000001
 20
-1.5804400000000001
 30
0.0
 10
2.0804
 20
-1.5804400000000001
 30
0.0
 10
2.0931000000000002
 20
-1.5067800000000002
 30
0.0
 10
2.0931000000000002
 20
-1.5067800000000002
 30
0.0
 10
2.16168
 20
-1.4636
 30
0.0
 10
2.1947000000000001
 20
-1.42042
 30
0.0
 10
2.1947000000000001
 20
-1.33406
 30
0.0
  0
SPLINE
  5
66
100
AcDbEntity
  8
Ebene 1
 62
     7
100
AcDbSpline
210
0.0
220
0.0
230
1.0
 70
     1
 71
     3
 72
    24
 73
    20
 74
     0
 42
0.0000000001
 43
0.0000000001
 40
0.0
 40
0.0
 40
0.0
 40
0.0
 40
0.2
 40
0.2
 40
0.2
 40
0.2
 40
0.4
 40
0.4
 40
0.4
 40
0.4
 40
0.6000000000000001
 40
0.6000000000000001
 40
0.6000000000000001
 40
0.6000000000000001
 40
0.8
 40
0.8
 40
0.8
 40
0.8
 40
1.0
 40
1.0
 40
1.0
 40
1.0
 10
0.37098
 20
-1.3467600000000002
 30
0.0
 10
0.45734
 20
-1.4356600000000002
 30
0.0
 10
0.41162
 20
-1.6668000000000001
 30
0.0
 10
0.38622
 20
-1.7811000000000001
 30
0.0
 10
0.38622
 20
-1.7811000000000001
 30
0.0
 10
0.38622
 20
-1.7811000000000001
 30
0.0
 10
0.37098
 20
-1.4636
 30
0.0
 10
0.37098
 20
-1.4636
 30
0.0
 10
0.37098
 20
-1.4636
 30
0.0
 10
0.3684400000000001
 20
-1.4483600000000001
 30
0.0
 10
0.38114
 20
-1.42042
 30
0.0
 10
0.3557400000000001
 20
-1.42042
 30
0.0
 10
0.3557400000000001
 20
-1.42042
 30
0.0
 10
0.29224
 20
-1.5652000000000001
 30
0.0
 10
0.42686
 20
-1.7811000000000001
 30
0.0
 10
0.25668
 20
-1.9106400000000001
 30
0.0
 10
0.25668
 20
-1.9106400000000001
 30
0.0
 10
0.2897
 20
-1.7379200000000001
 30
0.0
 10
0.18048
 20
-1.4788400000000002
 30
0.0
 10
0.37098
 20
-1.3467600000000002
 30
0.0
  0
SPLINE
  5
67
100
AcDbEntity
  8
Ebene 1
 62
     7
100
AcDbSpline
210
0.0
220
0.0
230
1.0
 70
     1
 71
     3
 72
    12
 73
     8
 74
     0
 42
0.0000000001
 43
0.0000000001
 40
0.0
 40
0.0
 40
0.0
 40
0.0
 40
0.5
 40
0.5
 40
0.5
 40
0.5
 40
1.0
 40
1.0
 40
1.0
 40
1.0
 10
-0.06081
 20
-1.37724
 30
0.0
 10
-0.03033
 20
-1.37724
 30
0.0
 10
0.00268
 20
-1.37724
 30
0.0
 10
0.02554
 20
-1.3899400000000002
 30
0.0
 10
0.02554
 20
-1.3899400000000002
 30
0.0
 10
0.1246
 20
-1.4940800000000001
 30
0.0
 10
-0.22337
 20
-1.4788400000000002
 30
0.0
 10
-0.06081
 20
-1.37724
 30
0.0
  0
SPLINE
  5
68
100
AcDbEntity
  8
Ebene 1
 62
     7
100
AcDbSpline
210
0.0
220
0.0
230
1.0
 70
     1
 71
     3
 72
    12
 73
     8
 74
     0
 42
0.0000000001
 43
0.0000000001
 40
0.0
 40
0.0
 40
0.0
 40
0.0
 40
0.5
 40
0.5
 40
0.5
 40
0.5
 40
1.0
 40
1.0
 40
1.0
 40
1.0
 10
2.4131400000000003
 20
-1.4483600000000001
 30
0.0
 10
2.4791800000000004
 20
-1.5347200000000001
 30
0.0
 10
2.4563200000000003
 20
-1.7531600000000001
 30
0.0
 10
2.30138
 20
-1.6795000000000002
 30
0.0
 10
2.30138
 20
-1.6795000000000002
 30
0.0
 10
2.2683600000000004
 20
-1.5652000000000001
 30
0.0
 10
2.3140800000000001
 20
-1.4788400000000002
 30
0.0
 10
2.4131400000000003
 20
-1.4483600000000001
 30
0.0
  0
SPLINE
  5
69
100
AcDbEntity
  8
Ebene 1
 62
     7
100
AcDbSpline
210
0.0
220
0.0
230
1.0
 70
     1
 71
     3
 72
    32
 73
    28
 74
     0
 42
0.0000000001
 43
0.0000000001
 40
0.0
 40
0.0
 40
0.0
 40
0.0
 40
0.1428571428571429
 40
0.1428571428571429
 40
0.1428571428571429
 40
0.1428571428571429
 40
0.2857142857142857
 40
0.2857142857142857
 40
0.2857142857142857
 40
0.2857142857142857
 40
0.4285714285714286
 40
0.4285714285714286
 40
0.4285714285714286
 40
0.4285714285714286
 40
0.5714285714285714
 40
0.5714285714285714
 40
0.5714285714285714
 40
0.5714285714285714
 40
0.7142857142857142
 40
0.7142857142857142
 40
0.7142857142857142
 40
0.7142857142857142
 40
0.857142857142857
 40
0.857142857142857
 40
0.857142857142857
 40
0.857142857142857
 40
1.0
 40
1.0
 40
1.0
 40
1.0
 10
-0.23353
 20
-1.5652000000000001
 30
0.0
 10
-0.22083
 20
-1.5652000000000001
 30
0.0
 10
-0.19289
 20
-1.5499600000000002
 30
0.0
 10
-0.19035
 20
-1.5804400000000001
 30
0.0
 10
-0.19035
 20
-1.5804400000000001
 30
0.0
 10
-0.24623
 20
-1.7379200000000001
 30
0.0
 10
-0.01763
 20
-2.1570200000000002
 30
0.0
 10
-0.30719
 20
-2.0706600000000002
 30
0.0
 10
-0.30719
 20
-2.0706600000000002
 30
0.0
 10
-0.30719
 20
-2.0706600000000002
 30
0.0
 10
-0.40371
 20
-2.10114
 30
0.0
 10
-0.40371
 20
-2.10114
 30
0.0
 10
-0.40371
 20
-2.10114
 30
0.0
 10
-0.4291100000000001
 20
-1.9258800000000003
 30
0.0
 10
-0.46213
 20
-1.7252200000000002
 30
0.0
 10
-0.37831
 20
-1.5804400000000001
 30
0.0
 10
-0.37831
 20
-1.5804400000000001
 30
0.0
 10
-0.37831
 20
-1.5804400000000001
 30
0.0
 10
-0.33767
 20
-1.6236200000000001
 30
0.0
 10
-0.33767
 20
-1.6236200000000001
 30
0.0
 10
-0.33767
 20
-1.6236200000000001
 30
0.0
 10
-0.29957
 20
-1.7531600000000001
 30
0.0
 10
-0.29195
 20
-1.8827000000000003
 30
0.0
 10
-0.28687
 20
-2.0274800000000002
 30
0.0
 10
-0.28687
 20
-2.0274800000000002
 30
0.0
 10
-0.21067
 20
-1.8979400000000002
 30
0.0
 10
-0.20813
 20
-1.7252200000000002
 30
0.0
 10
-0.23353
 20
-1.5652000000000001
 30
0.0
  0
SPLINE
  5
6A
100
AcDbEntity
  8
Ebene 1
 62
     7
100
AcDbSpline
210
0.0
220
0.0
230
1.0
 70
     1
 71
     3
 72
    24
 73
    20
 74
     0
 42
0.0000000001
 43
0.0000000001
 40
0.0
 40
0.0
 40
0.0
 40
0.0
 40
0.2
 40
0.2
 40
0.2
 40
0.2
 40
0.4
 40
0.4
 40
0.4
 40
0.4
 40
0.6000000000000001
 40
0.6000000000000001
 40
0.6000000000000001
 40
0.6000000000000001
 40
0.8
 40
0.8
 40
0.8
 40
0.8
 40
1.0
 40
1.0
 40
1.0
 40
1.0
 10
-0.10399
 20
-1.5652000000000001
 30
0.0
 10
-0.05319
 20
-1.5804400000000001
 30
0.0
 10
0.00522
 20
-1.5499600000000002
 30
0.0
 10
0.04332
 20
-1.6236200000000001
 30
0.0
 10
0.04332
 20
-1.6236200000000001
 30
0.0
 10
0.04332
 20
-1.6236200000000001
 30
0.0
 10
0.10682
 20
-1.6236200000000001
 30
0.0
 10
0.10682
 20
-1.6236200000000001
 30
0.0
 10
0.10682
 20
-1.6236200000000001
 30
0.0
 10
0.19826
 20
-1.7658600000000002
 30
0.0
 10
0.15762
 20
-2.01478
 30
0.0
 10
-0.03033
 20
-2.0427200000000001
 30
0.0
 10
-0.03033
 20
-2.0427200000000001
 30
0.0
 10
-0.03033
 20
-2.0427200000000001
 30
0.0
 10
-0.05573
 20
-2.0274800000000002
 30
0.0
 10
-0.05573
 20
-2.0274800000000002
 30
0.0
 10
-0.05573
 20
-2.0274800000000002
 30
0.0
 10
-0.03795
 20
-1.8827000000000003
 30
0.0
 10
-0.15225
 20
-1.7252200000000002
 30
0.0
 10
-0.10399
 20
-1.5652000000000001
 30
0.0
  0
SPLINE
  5
6B
100
AcDbEntity
  8
Ebene 1
 62
     7
100
AcDbSpline
210
0.0
220
0.0
230
1.0
 70
     1
 71
     3
 72
    20
 73
    16
 74
     0
 42
0.0000000001
 43
0.0000000001
 40
0.0
 40
0.0
 40
0.0
 40
0.0
 40
0.25
 40
0.25
 40
0.25
 40
0.25
 40
0.5
 40
0.5
 40
0.5
 40
0.5
 40
0.75
 40
0.75
 40
0.75
 40
0.75
 40
1.0
 40
1.0
 40
1.0
 40
1.0
 10
-2.2172700000000001
 20
-1.6083800000000001
 30
0.0
 10
-2.1588500000000002
 20
-1.6236200000000001
 30
0.0
 10
-2.1182100000000004
 20
-1.6363200000000002
 30
0.0
 10
-2.0572500000000002
 20
-1.6083800000000001
 30
0.0
 10
-2.0572500000000002
 20
-1.6083800000000001
 30
0.0
 10
-2.0572500000000002
 20
-1.6083800000000001
 30
0.0
 10
-1.9581900000000001
 20
-1.7252200000000002
 30
0.0
 10
-1.9581900000000001
 20
-1.7252200000000002
 30
0.0
 10
-1.9581900000000001
 20
-1.7252200000000002
 30
0.0
 10
-1.9581900000000001
 20
-1.7252200000000002
 30
0.0
 10
-2.2553700000000001
 20
-1.7379200000000001
 30
0.0
 10
-2.2553700000000001
 20
-1.7379200000000001
 30
0.0
 10
-2.2553700000000001
 20
-1.7379200000000001
 30
0.0
 10
-2.3061700000000003
 20
-1.6947400000000001
 30
0.0
 10
-2.2553700000000001
 20
-1.6236200000000001
 30
0.0
 10
-2.2172700000000001
 20
-1.6083800000000001
 30
0.0
  0
SPLINE
  5
6C
100
AcDbEntity
  8
Ebene 1
 62
     7
100
AcDbSpline
210
0.0
220
0.0
230
1.0
 70
     1
 71
     3
 72
    28
 73
    24
 74
     0
 42
0.0000000001
 43
0.0000000001
 40
0.0
 40
0.0
 40
0.0
 40
0.0
 40
0.1666666666666667
 40
0.1666666666666667
 40
0.1666666666666667
 40
0.1666666666666667
 40
0.3333333333333333
 40
0.3333333333333333
 40
0.3333333333333333
 40
0.3333333333333333
 40
0.5
 40
0.5
 40
0.5
 40
0.5
 40
0.6666666666666666
 40
0.6666666666666666
 40
0.6666666666666666
 40
0.6666666666666666
 40
0.8333333333333333
 40
0.8333333333333333
 40
0.8333333333333333
 40
0.8333333333333333
 40
1.0
 40
1.0
 40
1.0
 40
1.0
 10
-0.7694700000000001
 20
-1.6236200000000001
 30
0.0
 10
-0.7694700000000001
 20
-1.6236200000000001
 30
0.0
 10
-0.55357
 20
-1.6515600000000001
 30
0.0
 10
-0.55357
 20
-1.6515600000000001
 30
0.0
 10
-0.55357
 20
-1.6515600000000001
 30
0.0
 10
-0.5408700000000001
 20
-1.8242800000000001
 30
0.0
 10
-0.46467
 20
-2.0859000000000001
 30
0.0
 10
-0.6678700000000001
 20
-2.1570200000000002
 30
0.0
 10
-0.6678700000000001
 20
-2.1570200000000002
 30
0.0
 10
-0.6881900000000001
 20
-2.14432
 30
0.0
 10
-0.7135900000000001
 20
-2.14432
 30
0.0
 10
-0.73899
 20
-2.14432
 30
0.0
 10
-0.73899
 20
-2.14432
 30
0.0
 10
-0.73899
 20
-2.14432
 30
0.0
 10
-0.8507500000000001
 20
-2.1570200000000002
 30
0.0
 10
-0.8507500000000001
 20
-2.1570200000000002
 30
0.0
 10
-0.8507500000000001
 20
-2.1570200000000002
 30
0.0
 10
-0.92949
 20
-2.01478
 30
0.0
 10
-0.88631
 20
-1.8242800000000001
 30
0.0
 10
-0.8812300000000001
 20
-1.6668000000000001
 30
0.0
 10
-0.8812300000000001
 20
-1.6668000000000001
 30
0.0
 10
-0.8812300000000001
 20
-1.6668000000000001
 30
0.0
 10
-0.7694700000000001
 20
-1.6236200000000001
 30
0.0
 10
-0.7694700000000001
 20
-1.6236200000000001
 30
0.0
  0
SPLINE
  5
6D
100
AcDbEntity
  8
Ebene 1
 62
     7
100
AcDbSpline
210
0.0
220
0.0
230
1.0
 70
     1
 71
     3
 72
    24
 73
    20
 74
     0
 42
0.0000000001
 43
0.0000000001
 40
0.0
 40
0.0
 40
0.0
 40
0.0
 40
0.2
 40
0.2
 40
0.2
 40
0.2
 40
0.4
 40
0.4
 40
0.4
 40
0.4
 40
0.6000000000000001
 40
0.6000000000000001
 40
0.6000000000000001
 40
0.6000000000000001
 40
0.8
 40
0.8
 40
0.8
 40
0.8
 40
1.0
 40
1.0
 40
1.0
 40
1.0
 10
1.39968
 20
-1.6668000000000001
 30
0.0
 10
1.4708000000000001
 20
-1.6668000000000001
 30
0.0
 10
1.4225400000000001
 20
-1.7531600000000001
 30
0.0
 10
1.4606400000000002
 20
-1.79634
 30
0.0
 10
1.4606400000000002
 20
-1.79634
 30
0.0
 10
1.4606400000000002
 20
-1.79634
 30
0.0
 10
1.5393800000000002
 20
-1.8115800000000002
 30
0.0
 10
1.5393800000000002
 20
-1.8115800000000002
 30
0.0
 10
1.5393800000000002
 20
-1.8115800000000002
 30
0.0
 10
1.5647800000000001
 20
-1.9690600000000003
 30
0.0
 10
1.5089000000000001
 20
-2.10114
 30
0.0
 10
1.4530200000000002
 20
-2.2459200000000004
 30
0.0
 10
1.4530200000000002
 20
-2.2459200000000004
 30
0.0
 10
1.3565
 20
-2.2154400000000001
 30
0.0
 10
1.3717400000000002
 20
-2.3754600000000003
 30
0.0
 10
1.31586
 20
-2.4186400000000003
 30
0.0
 10
1.31586
 20
-2.4186400000000003
 30
0.0
 10
1.3793600000000001
 20
-2.1722600000000001
 30
0.0
 10
1.4123800000000002
 20
-1.9258800000000003
 30
0.0
 10
1.39968
 20
-1.6668000000000001
 30
0.0
  0
SPLINE
  5
6E
100
AcDbEntity
  8
Ebene 1
 62
     7
100
AcDbSpline
210
0.0
220
0.0
230
1.0
 70
     1
 71
     3
 72
    16
 73
    12
 74
     0
 42
0.0000000001
 43
0.0000000001
 40
0.0
 40
0.0
 40
0.0
 40
0.0
 40
0.3333333333333333
 40
0.3333333333333333
 40
0.3333333333333333
 40
0.3333333333333333
 40
0.6666666666666666
 40
0.6666666666666666
 40
0.6666666666666666
 40
0.6666666666666666
 40
1.0
 40
1.0
 40
1.0
 40
1.0
 10
-2.6363700000000003
 20
-1.6795000000000002
 30
0.0
 10
-2.6363700000000003
 20
-1.6795000000000002
 30
0.0
 10
-2.61097
 20
-1.6795000000000002
 30
0.0
 10
-2.61097
 20
-1.6795000000000002
 30
0.0
 10
-2.61097
 20
-1.6795000000000002
 30
0.0
 10
-2.5931900000000003
 20
-1.8242800000000001
 30
0.0
 10
-2.5474700000000001
 20
-1.9690600000000003
 30
0.0
 10
-2.6592300000000004
 20
-2.0859000000000001
 30
0.0
 10
-2.6592300000000004
 20
-2.0859000000000001
 30
0.0
 10
-2.7811500000000002
 20
-1.9690600000000003
 30
0.0
 10
-2.6566900000000002
 20
-1.8115800000000002
 30
0.0
 10
-2.6363700000000003
 20
-1.6795000000000002
 30
0.0
  0
SPLINE
  5
6F
100
AcDbEntity
  8
Ebene 1
 62
     7
100
AcDbSpline
210
0.0
220
0.0
230
1.0
 70
     1
 71
     3
 72
    20
 73
    16
 74
     0
 42
0.0000000001
 43
0.0000000001
 40
0.0
 40
0.0
 40
0.0
 40
0.0
 40
0.25
 40
0.25
 40
0.25
 40
0.25
 40
0.5
 40
0.5
 40
0.5
 40
0.5
 40
0.75
 40
0.75
 40
0.75
 40
0.75
 40
1.0
 40
1.0
 40
1.0
 40
1.0
 10
-1.13015
 20
-1.7099800000000001
 30
0.0
 10
-0.9879100000000001
 20
-1.6668000000000001
 30
0.0
 10
-0.9701300000000001
 20
-1.8115800000000002
 30
0.0
 10
-0.9853700000000001
 20
-1.9106400000000001
 30
0.0
 10
-0.9853700000000001
 20
-1.9106400000000001
 30
0.0
 10
-0.9066300000000001
 20
-2.0274800000000002
 30
0.0
 10
-0.9650500000000001
 20
-2.2002000000000002
 30
0.0
 10
-1.1149100000000001
 20
-2.2002000000000002
 30
0.0
 10
-1.1149100000000001
 20
-2.2002000000000002
 30
0.0
 10
-1.1149100000000001
 20
-2.2002000000000002
 30
0.0
 10
-1.17079
 20
-2.1722600000000001
 30
0.0
 10
-1.17079
 20
-2.1722600000000001
 30
0.0
 10
-1.17079
 20
-2.1722600000000001
 30
0.0
 10
-1.1530100000000001
 20
-2.0274800000000002
 30
0.0
 10
-1.2241300000000002
 20
-1.8242800000000001
 30
0.0
 10
-1.13015
 20
-1.7099800000000001
 30
0.0
  0
SPLINE
  5
70
100
AcDbEntity
  8
Ebene 1
 62
     7
100
AcDbSpline
210
0.0
220
0.0
230
1.0
 70
     1
 71
     3
 72
    20
 73
    16
 74
     0
 42
0.0000000001
 43
0.0000000001
 40
0.0
 40
0.0
 40
0.0
 40
0.0
 40
0.25
 40
0.25
 40
0.25
 40
0.25
 40
0.5
 40
0.5
 40
0.5
 40
0.5
 40
0.75
 40
0.75
 40
0.75
 40
0.75
 40
1.0
 40
1.0
 40
1.0
 40
1.0
 10
-1.41971
 20
-1.7379200000000001
 30
0.0
 10
-1.41971
 20
-1.7379200000000001
 30
0.0
 10
-1.2647700000000002
 20
-1.7531600000000001
 30
0.0
 10
-1.2647700000000002
 20
-1.7531600000000001
 30
0.0
 10
-1.2647700000000002
 20
-1.7531600000000001
 30
0.0
 10
-1.2749300000000001
 20
-1.9411200000000002
 30
0.0
 10
-1.1961900000000001
 20
-2.1138400000000002
 30
0.0
 10
-1.3079500000000002
 20
-2.27386
 30
0.0
 10
-1.3079500000000002
 20
-2.27386
 30
0.0
 10
-1.3612900000000001
 20
-2.2586200000000001
 30
0.0
 10
-1.4120900000000001
 20
-2.2459200000000004
 30
0.0
 10
-1.4451100000000001
 20
-2.2002000000000002
 30
0.0
 10
-1.4451100000000001
 20
-2.2002000000000002
 30
0.0
 10
-1.4451100000000001
 20
-2.2002000000000002
 30
0.0
 10
-1.41971
 20
-1.7379200000000001
 30
0.0
 10
-1.41971
 20
-1.7379200000000001
 30
0.0
  0
SPLINE
  5
71
100
AcDbEntity
  8
Ebene 1
 62
     7
100
AcDbSpline
210
0.0
220
0.0
230
1.0
 70
     1
 71
     3
 72
    20
 73
    16
 74
     0
 42
0.0000000001
 43
0.0000000001
 40
0.0
 40
0.0
 40
0.0
 40
0.0
 40
0.25
 40
0.25
 40
0.25
 40
0.25
 40
0.5
 40
0.5
 40
0.5
 40
0.5
 40
0.75
 40
0.75
 40
0.75
 40
0.75
 40
1.0
 40
1.0
 40
1.0
 40
1.0
 10
-2.4915900000000004
 20
-1.7531600000000001
 30
0.0
 10
-2.3772900000000003
 20
-1.7531600000000001
 30
0.0
 10
-2.3290300000000004
 20
-1.79634
 30
0.0
 10
-2.3417300000000001
 20
-1.9106400000000001
 30
0.0
 10
-2.3417300000000001
 20
-1.9106400000000001
 30
0.0
 10
-2.2198100000000003
 20
-1.9843000000000002
 30
0.0
 10
-2.2579100000000003
 20
-2.14432
 30
0.0
 10
-2.2629900000000003
 20
-2.2586200000000001
 30
0.0
 10
-2.2629900000000003
 20
-2.2586200000000001
 30
0.0
 10
-2.3061700000000003
 20
-2.27386
 30
0.0
 10
-2.3290300000000004
 20
-2.2459200000000004
 30
0.0
 10
-2.3468100000000001
 20
-2.2154400000000001
 30
0.0
 10
-2.3468100000000001
 20
-2.2154400000000001
 30
0.0
 10
-2.6236700000000002
 20
-2.2459200000000004
 30
0.0
 10
-2.4966700000000004
 20
-1.9106400000000001
 30
0.0
 10
-2.4915900000000004
 20
-1.7531600000000001
 30
0.0
  0
SPLINE
  5
72
100
AcDbEntity
  8
Ebene 1
 62
     7
100
AcDbSpline
210
0.0
220
0.0
230
1.0
 70
     1
 71
     3
 72
    16
 73
    12
 74
     0
 42
0.0000000001
 43
0.0000000001
 40
0.0
 40
0.0
 40
0.0
 40
0.0
 40
0.3333333333333333
 40
0.3333333333333333
 40
0.3333333333333333
 40
0.3333333333333333
 40
0.6666666666666666
 40
0.6666666666666666
 40
0.6666666666666666
 40
0.6666666666666666
 40
1.0
 40
1.0
 40
1.0
 40
1.0
 10
-1.6965700000000001
 20
-1.7658600000000002
 30
0.0
 10
-1.6965700000000001
 20
-1.7658600000000002
 30
0.0
 10
-1.4959100000000001
 20
-1.7811000000000001
 30
0.0
 10
-1.4959100000000001
 20
-1.7811000000000001
 30
0.0
 10
-1.4959100000000001
 20
-1.7811000000000001
 30
0.0
 10
-1.4806700000000002
 20
-1.9411200000000002
 30
0.0
 10
-1.41971
 20
-2.1875
 30
0.0
 10
-1.5695700000000001
 20
-2.2891000000000004
 30
0.0
 10
-1.5695700000000001
 20
-2.2891000000000004
 30
0.0
 10
-1.84135
 20
-2.3018000000000001
 30
0.0
 10
-1.7321300000000002
 20
-1.9258800000000003
 30
0.0
 10
-1.6965700000000001
 20
-1.7658600000000002
 30
0.0
  0
SPLINE
  5
73
100
AcDbEntity
  8
Ebene 1
 62
     7
100
AcDbSpline
210
0.0
220
0.0
230
1.0
 70
     1
 71
     3
 72
    20
 73
    16
 74
     0
 42
0.0000000001
 43
0.0000000001
 40
0.0
 40
0.0
 40
0.0
 40
0.0
 40
0.25
 40
0.25
 40
0.25
 40
0.25
 40
0.5
 40
0.5
 40
0.5
 40
0.5
 40
0.75
 40
0.75
 40
0.75
 40
0.75
 40
1.0
 40
1.0
 40
1.0
 40
1.0
 10
-2.0572500000000002
 20
-1.8115800000000002
 30
0.0
 10
-2.0572500000000002
 20
-1.8115800000000002
 30
0.0
 10
-1.9861300000000002
 20
-1.8115800000000002
 30
0.0
 10
-1.9861300000000002
 20
-1.8115800000000002
 30
0.0
 10
-1.9861300000000002
 20
-1.8115800000000002
 30
0.0
 10
-2.0191500000000002
 20
-1.9690600000000003
 30
0.0
 10
-1.9480300000000002
 20
-2.23068
 30
0.0
 10
-2.1309100000000001
 20
-2.2891000000000004
 30
0.0
 10
-2.1309100000000001
 20
-2.2891000000000004
 30
0.0
 10
-2.2172700000000001
 20
-2.1722600000000001
 30
0.0
 10
-2.1690100000000001
 20
-1.9995400000000001
 30
0.0
 10
-2.1969500000000002
 20
-1.8547600000000002
 30
0.0
 10
-2.1969500000000002
 20
-1.8547600000000002
 30
0.0
 10
-2.1969500000000002
 20
-1.8547600000000002
 30
0.0
 10
-2.0572500000000002
 20
-1.8115800000000002
 30
0.0
 10
-2.0572500000000002
 20
-1.8115800000000002
 30
0.0
  0
SPLINE
  5
74
100
AcDbEntity
  8
Ebene 1
 62
     7
100
AcDbSpline
210
0.0
220
0.0
230
1.0
 70
     1
 71
     3
 72
    24
 73
    20
 74
     0
 42
0.0000000001
 43
0.0000000001
 40
0.0
 40
0.0
 40
0.0
 40
0.0
 40
0.2
 40
0.2
 40
0.2
 40
0.2
 40
0.4
 40
0.4
 40
0.4
 40
0.4
 40
0.6000000000000001
 40
0.6000000000000001
 40
0.6000000000000001
 40
0.6000000000000001
 40
0.8
 40
0.8
 40
0.8
 40
0.8
 40
1.0
 40
1.0
 40
1.0
 40
1.0
 10
-1.8108700000000002
 20
-1.8115800000000002
 30
0.0
 10
-1.8108700000000002
 20
-1.8115800000000002
 30
0.0
 10
-1.75499
 20
-1.8115800000000002
 30
0.0
 10
-1.75499
 20
-1.8115800000000002
 30
0.0
 10
-1.75499
 20
-1.8115800000000002
 30
0.0
 10
-1.8134100000000002
 20
-1.9690600000000003
 30
0.0
 10
-1.7448300000000001
 20
-2.1875
 30
0.0
 10
-1.8286500000000001
 20
-2.3322800000000004
 30
0.0
 10
-1.8286500000000001
 20
-2.3322800000000004
 30
0.0
 10
-1.8286500000000001
 20
-2.3322800000000004
 30
0.0
 10
-1.8972300000000002
 20
-2.3322800000000004
 30
0.0
 10
-1.8972300000000002
 20
-2.3322800000000004
 30
0.0
 10
-1.8972300000000002
 20
-2.3322800000000004
 30
0.0
 10
-2.0420100000000003
 20
-2.2002000000000002
 30
0.0
 10
-1.9327900000000002
 20
-1.9995400000000001
 30
0.0
 10
-1.9378700000000002
 20
-1.83952
 30
0.0
 10
-1.9378700000000002
 20
-1.83952
 30
0.0
 10
-1.9378700000000002
 20
-1.83952
 30
0.0
 10
-1.8108700000000002
 20
-1.8115800000000002
 30
0.0
 10
-1.8108700000000002
 20
-1.8115800000000002
 30
0.0
  0
SPLINE
  5
75
100
AcDbEntity
  8
Ebene 1
 62
     7
100
AcDbSpline
210
0.0
220
0.0
230
1.0
 70
     1
 71
     3
 72
    16
 73
    12
 74
     0
 42
0.0000000001
 43
0.0000000001
 40
0.0
 40
0.0
 40
0.0
 40
0.0
 40
0.3333333333333333
 40
0.3333333333333333
 40
0.3333333333333333
 40
0.3333333333333333
 40
0.6666666666666666
 40
0.6666666666666666
 40
0.6666666666666666
 40
0.6666666666666666
 40
1.0
 40
1.0
 40
1.0
 40
1.0
 10
1.9635600000000002
 20
-1.8115800000000002
 30
0.0
 10
1.9737200000000001
 20
-1.8115800000000002
 30
0.0
 10
1.9965800000000002
 20
-1.8115800000000002
 30
0.0
 10
1.9915000000000003
 20
-1.8242800000000001
 30
0.0
 10
1.9915000000000003
 20
-1.8242800000000001
 30
0.0
 10
2.0143600000000004
 20
-2.1290800000000001
 30
0.0
 10
2.1870800000000004
 20
-2.5050000000000003
 30
0.0
 10
1.9102200000000003
 20
-2.7513800000000002
 30
0.0
 10
1.9102200000000003
 20
-2.7513800000000002
 30
0.0
 10
1.9102200000000003
 20
-2.7513800000000002
 30
0.0
 10
1.9635600000000002
 20
-1.8115800000000002
 30
0.0
 10
1.9635600000000002
 20
-1.8115800000000002
 30
0.0
  0
SPLINE
  5
76
100
AcDbEntity
  8
Ebene 1
 62
     7
100
AcDbSpline
210
0.0
220
0.0
230
1.0
 70
     1
 71
     3
 72
    16
 73
    12
 74
     0
 42
0.0000000001
 43
0.0000000001
 40
0.0
 40
0.0
 40
0.0
 40
0.0
 40
0.3333333333333333
 40
0.3333333333333333
 40
0.3333333333333333
 40
0.3333333333333333
 40
0.6666666666666666
 40
0.6666666666666666
 40
0.6666666666666666
 40
0.6666666666666666
 40
1.0
 40
1.0
 40
1.0
 40
1.0
 10
2.25312
 20
-1.8700000000000001
 30
0.0
 10
2.3725000000000001
 20
-1.9411200000000002
 30
0.0
 10
2.2963
 20
-2.14432
 30
0.0
 10
2.33948
 20
-2.2586200000000001
 30
0.0
 10
2.33948
 20
-2.2586200000000001
 30
0.0
 10
2.3318600000000003
 20
-2.27386
 30
0.0
 10
2.3166200000000003
 20
-2.3018000000000001
 30
0.0
 10
2.2963
 20
-2.3018000000000001
 30
0.0
 10
2.2963
 20
-2.3018000000000001
 30
0.0
 10
2.2963
 20
-2.3018000000000001
 30
0.0
 10
2.25312
 20
-1.8700000000000001
 30
0.0
 10
2.25312
 20
-1.8700000000000001
 30
0.0
  0
SPLINE
  5
77
100
AcDbEntity
  8
Ebene 1
 62
     7
100
AcDbSpline
210
0.0
220
0.0
230
1.0
 70
     1
 71
     3
 72
    20
 73
    16
 74
     0
 42
0.0000000001
 43
0.0000000001
 40
0.0
 40
0.0
 40
0.0
 40
0.0
 40
0.25
 40
0.25
 40
0.25
 40
0.25
 40
0.5
 40
0.5
 40
0.5
 40
0.5
 40
0.75
 40
0.75
 40
0.75
 40
0.75
 40
1.0
 40
1.0
 40
1.0
 40
1.0
 10
0.40146
 20
-1.9258800000000003
 30
0.0
 10
0.40146
 20
-1.9258800000000003
 30
0.0
 10
0.47004
 20
-1.9258800000000003
 30
0.0
 10
0.47004
 20
-1.9258800000000003
 30
0.0
 10
0.47004
 20
-1.9258800000000003
 30
0.0
 10
0.4624200000000001
 20
-2.10114
 30
0.0
 10
0.55132
 20
-2.3322800000000004
 30
0.0
 10
0.404
 20
-2.4618200000000003
 30
0.0
 10
0.404
 20
-2.4618200000000003
 30
0.0
 10
0.32272
 20
-2.3322800000000004
 30
0.0
 10
0.40654
 20
-2.1290800000000001
 30
0.0
 10
0.3557400000000001
 20
-1.9843000000000002
 30
0.0
 10
0.3557400000000001
 20
-1.9843000000000002
 30
0.0
 10
0.3557400000000001
 20
-1.9843000000000002
 30
0.0
 10
0.40146
 20
-1.9258800000000003
 30
0.0
 10
0.40146
 20
-1.9258800000000003
 30
0.0
  0
SPLINE
  5
78
100
AcDbEntity
  8
Ebene 1
 62
     7
100
AcDbSpline
210
0.0
220
0.0
230
1.0
 70
     1
 71
     3
 72
    28
 73
    24
 74
     0
 42
0.0000000001
 43
0.0000000001
 40
0.0
 40
0.0
 40
0.0
 40
0.0
 40
0.1666666666666667
 40
0.1666666666666667
 40
0.1666666666666667
 40
0.1666666666666667
 40
0.3333333333333333
 40
0.3333333333333333
 40
0.3333333333333333
 40
0.3333333333333333
 40
0.5
 40
0.5
 40
0.5
 40
0.5
 40
0.6666666666666666
 40
0.6666666666666666
 40
0.6666666666666666
 40
0.6666666666666666
 40
0.8333333333333333
 40
0.8333333333333333
 40
0.8333333333333333
 40
0.8333333333333333
 40
1.0
 40
1.0
 40
1.0
 40
1.0
 10
2.5274400000000004
 20
-1.9843000000000002
 30
0.0
 10
2.6087200000000004
 20
-2.2002000000000002
 30
0.0
 10
2.50204
 20
-2.5481800000000003
 30
0.0
 10
2.5960200000000002
 20
-2.7818600000000004
 30
0.0
 10
2.5960200000000002
 20
-2.7818600000000004
 30
0.0
 10
2.4893400000000003
 20
-2.7513800000000002
 30
0.0
 10
2.3725000000000001
 20
-2.7513800000000002
 30
0.0
 10
2.2582
 20
-2.7513800000000002
 30
0.0
 10
2.2582
 20
-2.7513800000000002
 30
0.0
 10
2.2582
 20
-2.7513800000000002
 30
0.0
 10
2.2963
 20
-2.3907000000000003
 30
0.0
 10
2.2963
 20
-2.3907000000000003
 30
0.0
 10
2.2963
 20
-2.3907000000000003
 30
0.0
 10
2.2963
 20
-2.3907000000000003
 30
0.0
 10
2.3115400000000004
 20
-2.4618200000000003
 30
0.0
 10
2.3115400000000004
 20
-2.4618200000000003
 30
0.0
 10
2.3115400000000004
 20
-2.4618200000000003
 30
0.0
 10
2.3166200000000003
 20
-2.5913600000000003
 30
0.0
 10
2.3217000000000003
 20
-2.7513800000000002
 30
0.0
 10
2.4969600000000001
 20
-2.7082000000000002
 30
0.0
 10
2.4969600000000001
 20
-2.7082000000000002
 30
0.0
 10
2.4969600000000001
 20
-2.7082000000000002
 30
0.0
 10
2.5274400000000004
 20
-1.9843000000000002
 30
0.0
 10
2.5274400000000004
 20
-1.9843000000000002
 30
0.0
  0
SPLINE
  5
79
100
AcDbEntity
  8
Ebene 1
 62
     7
100
AcDbSpline
210
0.0
220
0.0
230
1.0
 70
     1
 71
     3
 72
    24
 73
    20
 74
     0
 42
0.0000000001
 43
0.0000000001
 40
0.0
 40
0.0
 40
0.0
 40
0.0
 40
0.2
 40
0.2
 40
0.2
 40
0.2
 40
0.4
 40
0.4
 40
0.4
 40
0.4
 40
0.6000000000000001
 40
0.6000000000000001
 40
0.6000000000000001
 40
0.6000000000000001
 40
0.8
 40
0.8
 40
0.8
 40
0.8
 40
1.0
 40
1.0
 40
1.0
 40
1.0
 10
0.18302
 20
-2.0859000000000001
 30
0.0
 10
0.22874
 20
-2.10114
 30
0.0
 10
0.23382
 20
-2.1570200000000002
 30
0.0
 10
0.24398
 20
-2.2002000000000002
 30
0.0
 10
0.24398
 20
-2.2002000000000002
 30
0.0
 10
0.3659
 20
-2.2891000000000004
 30
0.0
 10
0.2262
 20
-2.5050000000000003
 30
0.0
 10
0.10174
 20
-2.5202400000000003
 30
0.0
 10
0.10174
 20
-2.5202400000000003
 30
0.0
 10
0.10174
 20
-2.5202400000000003
 30
0.0
 10
0.08142
 20
-2.4923000000000002
 30
0.0
 10
0.08142
 20
-2.4923000000000002
 30
0.0
 10
0.08142
 20
-2.4923000000000002
 30
0.0
 10
0.14746
 20
-2.3907000000000003
 30
0.0
 10
0.00268
 20
-2.1570200000000002
 30
0.0
 10
0.15254
 20
-2.14432
 30
0.0
 10
0.15254
 20
-2.14432
 30
0.0
 10
0.15254
 20
-2.14432
 30
0.0
 10
0.18302
 20
-2.0859000000000001
 30
0.0
 10
0.18302
 20
-2.0859000000000001
 30
0.0
  0
SPLINE
  5
7A
100
AcDbEntity
  8
Ebene 1
 62
     7
100
AcDbSpline
210
0.0
220
0.0
230
1.0
 70
     1
 71
     3
 72
    16
 73
    12
 74
     0
 42
0.0000000001
 43
0.0000000001
 40
0.0
 40
0.0
 40
0.0
 40
0.0
 40
0.3333333333333333
 40
0.3333333333333333
 40
0.3333333333333333
 40
0.3333333333333333
 40
0.6666666666666666
 40
0.6666666666666666
 40
0.6666666666666666
 40
0.6666666666666666
 40
1.0
 40
1.0
 40
1.0
 40
1.0
 10
-2.5931900000000003
 20
-2.1722600000000001
 30
0.0
 10
-2.5601700000000003
 20
-2.1875
 30
0.0
 10
-2.5271500000000002
 20
-2.23068
 30
0.0
 10
-2.5068300000000003
 20
-2.2586200000000001
 30
0.0
 10
-2.5068300000000003
 20
-2.2586200000000001
 30
0.0
 10
-2.61097
 20
-2.3754600000000003
 30
0.0
 10
-2.56779
 20
-2.5354800000000002
 30
0.0
 10
-2.5373100000000002
 20
-2.6650200000000002
 30
0.0
 10
-2.5373100000000002
 20
-2.6650200000000002
 30
0.0
 10
-2.6363700000000003
 20
-2.5354800000000002
 30
0.0
 10
-2.6236700000000002
 20
-2.31704
 30
0.0
 10
-2.5931900000000003
 20
-2.1722600000000001
 30
0.0
  0
SPLINE
  5
7B
100
AcDbEntity
  8
Ebene 1
 62
     7
100
AcDbSpline
210
0.0
220
0.0
230
1.0
 70
     1
 71
     3
 72
    44
 73
    40
 74
     0
 42
0.0000000001
 43
0.0000000001
 40
0.0
 40
0.0
 40
0.0
 40
0.0
 40
0.1
 40
0.1
 40
0.1
 40
0.1
 40
0.2
 40
0.2
 40
0.2
 40
0.2
 40
0.3
 40
0.3
 40
0.3
 40
0.3
 40
0.4
 40
0.4
 40
0.4
 40
0.4
 40
0.5
 40
0.5
 40
0.5
 40
0.5
 40
0.6
 40
0.6
 40
0.6
 40
0.6
 40
0.7
 40
0.7
 40
0.7
 40
0.7
 40
0.7999999999999999
 40
0.7999999999999999
 40
0.7999999999999999
 40
0.7999999999999999
 40
0.8999999999999999
 40
0.8999999999999999
 40
0.8999999999999999
 40
0.8999999999999999
 40
1.0
 40
1.0
 40
1.0
 40
1.0
 10
-0.7262900000000001
 20
-2.2154400000000001
 30
0.0
 10
-0.7262900000000001
 20
-2.2154400000000001
 30
0.0
 10
-0.6704100000000001
 20
-2.2154400000000001
 30
0.0
 10
-0.6704100000000001
 20
-2.2154400000000001
 30
0.0
 10
-0.6704100000000001
 20
-2.2154400000000001
 30
0.0
 10
-0.58913
 20
-2.3754600000000003
 30
0.0
 10
-0.7110500000000001
 20
-2.5786600000000002
 30
0.0
 10
-0.7059700000000001
 20
-2.7234400000000001
 30
0.0
 10
-0.7059700000000001
 20
-2.7234400000000001
 30
0.0
 10
-0.6907300000000001
 20
-2.7361400000000002
 30
0.0
 10
-0.6704100000000001
 20
-2.7082000000000002
 30
0.0
 10
-0.6678700000000001
 20
-2.6929600000000002
 30
0.0
 10
-0.6678700000000001
 20
-2.6929600000000002
 30
0.0
 10
-0.6856500000000001
 20
-2.6650200000000002
 30
0.0
 10
-0.63993
 20
-2.6066000000000003
 30
0.0
 10
-0.63993
 20
-2.6650200000000002
 30
0.0
 10
-0.63993
 20
-2.6650200000000002
 30
0.0
 10
-0.63739
 20
-2.7234400000000001
 30
0.0
 10
-0.6907300000000001
 20
-2.7513800000000002
 30
0.0
 10
-0.7364500000000001
 20
-2.7818600000000004
 30
0.0
 10
-0.7364500000000001
 20
-2.7818600000000004
 30
0.0
 10
-0.7796300000000001
 20
-2.7361400000000002
 30
0.0
 10
-0.7466100000000001
 20
-2.6370800000000001
 30
0.0
 10
-0.8075700000000001
 20
-2.6218400000000002
 30
0.0
 10
-0.8075700000000001
 20
-2.6218400000000002
 30
0.0
 10
-0.84821
 20
-2.6777200000000003
 30
0.0
 10
-0.75931
 20
-2.8225000000000002
 30
0.0
 10
-0.8812300000000001
 20
-2.8098000000000001
 30
0.0
 10
-0.8812300000000001
 20
-2.8098000000000001
 30
0.0
 10
-0.80249
 20
-2.6650200000000002
 30
0.0
 10
-0.9015500000000001
 20
-2.4465800000000004
 30
0.0
 10
-0.82281
 20
-2.27386
 30
0.0
 10
-0.82281
 20
-2.27386
 30
0.0
 10
-0.82281
 20
-2.27386
 30
0.0
 10
-0.7567700000000001
 20
-2.27386
 30
0.0
 10
-0.7567700000000001
 20
-2.27386
 30
0.0
 10
-0.7567700000000001
 20
-2.27386
 30
0.0
 10
-0.7567700000000001
 20
-2.27386
 30
0.0
 10
-0.7262900000000001
 20
-2.2154400000000001
 30
0.0
 10
-0.7262900000000001
 20
-2.2154400000000001
 30
0.0
  0
SPLINE
  5
7C
100
AcDbEntity
  8
Ebene 1
 62
     7
100
AcDbSpline
210
0.0
220
0.0
230
1.0
 70
     1
 71
     3
 72
    28
 73
    24
 74
     0
 42
0.0000000001
 43
0.0000000001
 40
0.0
 40
0.0
 40
0.0
 40
0.0
 40
0.1666666666666667
 40
0.1666666666666667
 40
0.1666666666666667
 40
0.1666666666666667
 40
0.3333333333333333
 40
0.3333333333333333
 40
0.3333333333333333
 40
0.3333333333333333
 40
0.5
 40
0.5
 40
0.5
 40
0.5
 40
0.6666666666666666
 40
0.6666666666666666
 40
0.6666666666666666
 40
0.6666666666666666
 40
0.8333333333333333
 40
0.8333333333333333
 40
0.8333333333333333
 40
0.8333333333333333
 40
1.0
 40
1.0
 40
1.0
 40
1.0
 10
-0.39355
 20
-2.2154400000000001
 30
0.0
 10
-0.39355
 20
-2.2154400000000001
 30
0.0
 10
-0.25131
 20
-2.2586200000000001
 30
0.0
 10
-0.25131
 20
-2.2586200000000001
 30
0.0
 10
-0.25131
 20
-2.2586200000000001
 30
0.0
 10
-0.26655
 20
-2.4034
 30
0.0
 10
-0.21829
 20
-2.5913600000000003
 30
0.0
 10
-0.31481
 20
-2.7082000000000002
 30
0.0
 10
-0.31481
 20
-2.7082000000000002
 30
0.0
 10
-0.34529
 20
-2.6497800000000002
 30
0.0
 10
-0.28941
 20
-2.5481800000000003
 30
0.0
 10
-0.35291
 20
-2.4923000000000002
 30
0.0
 10
-0.35291
 20
-2.4923000000000002
 30
0.0
 10
-0.37323
 20
-2.4618200000000003
 30
0.0
 10
-0.4062500000000001
 20
-2.4923000000000002
 30
0.0
 10
-0.39355
 20
-2.5202400000000003
 30
0.0
 10
-0.39355
 20
-2.5202400000000003
 30
0.0
 10
-0.33005
 20
-2.6370800000000001
 30
0.0
 10
-0.41387
 20
-2.8098000000000001
 30
0.0
 10
-0.53325
 20
-2.7082000000000002
 30
0.0
 10
-0.53325
 20
-2.7082000000000002
 30
0.0
 10
-0.50531
 20
-2.5481800000000003
 30
0.0
 10
-0.5662700000000001
 20
-2.3018000000000001
 30
0.0
 10
-0.39355
 20
-2.2154400000000001
 30
0.0
  0
SPLINE
  5
7D
100
AcDbEntity
  8
Ebene 1
 62
     7
100
AcDbSpline
210
0.0
220
0.0
230
1.0
 70
     1
 71
     3
 72
    24
 73
    20
 74
     0
 42
0.0000000001
 43
0.0000000001
 40
0.0
 40
0.0
 40
0.0
 40
0.0
 40
0.2
 40
0.2
 40
0.2
 40
0.2
 40
0.4
 40
0.4
 40
0.4
 40
0.4
 40
0.6000000000000001
 40
0.6000000000000001
 40
0.6000000000000001
 40
0.6000000000000001
 40
0.8
 40
0.8
 40
0.8
 40
0.8
 40
1.0
 40
1.0
 40
1.0
 40
1.0
 10
-0.14717
 20
-2.23068
 30
0.0
 10
-0.12939
 20
-2.23068
 30
0.0
 10
-0.11669
 20
-2.23068
 30
0.0
 10
-0.10653
 20
-2.2459200000000004
 30
0.0
 10
-0.10653
 20
-2.2459200000000004
 30
0.0
 10
-0.13447
 20
-2.36022
 30
0.0
 10
-0.02779
 20
-2.5050000000000003
 30
0.0
 10
-0.14209
 20
-2.5913600000000003
 30
0.0
 10
-0.14209
 20
-2.5913600000000003
 30
0.0
 10
-0.12939
 20
-2.6218400000000002
 30
0.0
 10
-0.11923
 20
-2.6777200000000003
 30
0.0
 10
-0.16241
 20
-2.6650200000000002
 30
0.0
 10
-0.16241
 20
-2.6650200000000002
 30
0.0
 10
-0.20305
 20
-2.6370800000000001
 30
0.0
 10
-0.19035
 20
-2.5786600000000002
 30
0.0
 10
-0.16241
 20
-2.5354800000000002
 30
0.0
 10
-0.16241
 20
-2.5354800000000002
 30
0.0
 10
-0.22845
 20
-2.4465800000000004
 30
0.0
 10
-0.17511
 20
-2.31704
 30
0.0
 10
-0.14717
 20
-2.23068
 30
0.0
  0
SPLINE
  5
7E
100
AcDbEntity
  8
Ebene 1
 62
     7
100
AcDbSpline
210
0.0
220
0.0
230
1.0
 70
     1
 71
     3
 72
    28
 73
    24
 74
     0
 42
0.0000000001
 43
0.0000000001
 40
0.0
 40
0.0
 40
0.0
 40
0.0
 40
0.1666666666666667
 40
0.1666666666666667
 40
0.1666666666666667
 40
0.1666666666666667
 40
0.3333333333333333
 40
0.3333333333333333
 40
0.3333333333333333
 40
0.3333333333333333
 40
0.5
 40
0.5
 40
0.5
 40
0.5
 40
0.6666666666666666
 40
0.6666666666666666
 40
0.6666666666666666
 40
0.6666666666666666
 40
0.8333333333333333
 40
0.8333333333333333
 40
0.8333333333333333
 40
0.8333333333333333
 40
1.0
 40
1.0
 40
1.0
 40
1.0
 10
-2.4484100000000004
 20
-2.2891000000000004
 30
0.0
 10
-2.3798300000000001
 20
-2.3322800000000004
 30
0.0
 10
-2.35189
 20
-2.3018000000000001
 30
0.0
 10
-2.27569
 20
-2.3018000000000001
 30
0.0
 10
-2.27569
 20
-2.3018000000000001
 30
0.0
 10
-2.3010900000000003
 20
-2.4465800000000004
 30
0.0
 10
-2.2909300000000004
 20
-2.6066000000000003
 30
0.0
 10
-2.2299700000000002
 20
-2.7361400000000002
 30
0.0
 10
-2.2299700000000002
 20
-2.7361400000000002
 30
0.0
 10
-2.2299700000000002
 20
-2.7361400000000002
 30
0.0
 10
-2.27569
 20
-2.7945600000000002
 30
0.0
 10
-2.27569
 20
-2.7945600000000002
 30
0.0
 10
-2.27569
 20
-2.7945600000000002
 30
0.0
 10
-2.3214100000000002
 20
-2.8098000000000001
 30
0.0
 10
-2.3341100000000004
 20
-2.7666200000000001
 30
0.0
 10
-2.3214100000000002
 20
-2.7361400000000002
 30
0.0
 10
-2.3214100000000002
 20
-2.7361400000000002
 30
0.0
 10
-2.3214100000000002
 20
-2.7361400000000002
 30
0.0
 10
-2.3747500000000001
 20
-2.7818600000000004
 30
0.0
 10
-2.3747500000000001
 20
-2.7818600000000004
 30
0.0
 10
-2.3747500000000001
 20
-2.7818600000000004
 30
0.0
 10
-2.4611100000000001
 20
-2.6497800000000002
 30
0.0
 10
-2.5042900000000001
 20
-2.4465800000000004
 30
0.0
 10
-2.4484100000000004
 20
-2.2891000000000004
 30
0.0
  0
SPLINE
  5
7F
100
AcDbEntity
  8
Ebene 1
 62
     7
100
AcDbSpline
210
0.0
220
0.0
230
1.0
 70
     1
 71
     3
 72
    16
 73
    12
 74
     0
 42
0.0000000001
 43
0.0000000001
 40
0.0
 40
0.0
 40
0.0
 40
0.0
 40
0.3333333333333333
 40
0.3333333333333333
 40
0.3333333333333333
 40
0.3333333333333333
 40
0.6666666666666666
 40
0.6666666666666666
 40
0.6666666666666666
 40
0.6666666666666666
 40
1.0
 40
1.0
 40
1.0
 40
1.0
 10
-2.2172700000000001
 20
-2.3322800000000004
 30
0.0
 10
-2.2172700000000001
 20
-2.3322800000000004
 30
0.0
 10
-2.0445500000000001
 20
-2.3907000000000003
 30
0.0
 10
-2.0445500000000001
 20
-2.3907000000000003
 30
0.0
 10
-2.0445500000000001
 20
-2.3907000000000003
 30
0.0
 10
-2.0750300000000004
 20
-2.5354800000000002
 30
0.0
 10
-2.0674100000000002
 20
-2.7082000000000002
 30
0.0
 10
-2.0750300000000004
 20
-2.8377400000000002
 30
0.0
 10
-2.0750300000000004
 20
-2.8377400000000002
 30
0.0
 10
-2.2401300000000002
 20
-2.7513800000000002
 30
0.0
 10
-2.2350500000000002
 20
-2.4923000000000002
 30
0.0
 10
-2.2172700000000001
 20
-2.3322800000000004
 30
0.0
  0
SPLINE
  5
80
100
AcDbEntity
  8
Ebene 1
 62
     7
100
AcDbSpline
210
0.0
220
0.0
230
1.0
 70
     1
 71
     3
 72
    16
 73
    12
 74
     0
 42
0.0000000001
 43
0.0000000001
 40
0.0
 40
0.0
 40
0.0
 40
0.0
 40
0.3333333333333333
 40
0.3333333333333333
 40
0.3333333333333333
 40
0.3333333333333333
 40
0.6666666666666666
 40
0.6666666666666666
 40
0.6666666666666666
 40
0.6666666666666666
 40
1.0
 40
1.0
 40
1.0
 40
1.0
 10
-1.6813300000000002
 20
-2.3322800000000004
 30
0.0
 10
-1.5949700000000002
 20
-2.3322800000000004
 30
0.0
 10
-1.5136900000000002
 20
-2.3754600000000003
 30
0.0
 10
-1.4527300000000001
 20
-2.4338800000000003
 30
0.0
 10
-1.4527300000000001
 20
-2.4338800000000003
 30
0.0
 10
-1.4578100000000001
 20
-2.6066000000000003
 30
0.0
 10
-1.3841500000000002
 20
-2.8225000000000002
 30
0.0
 10
-1.5797300000000001
 20
-2.9114000000000004
 30
0.0
 10
-1.5797300000000001
 20
-2.9114000000000004
 30
0.0
 10
-1.7245100000000002
 20
-2.7666200000000001
 30
0.0
 10
-1.75499
 20
-2.5202400000000003
 30
0.0
 10
-1.6813300000000002
 20
-2.3322800000000004
 30
0.0
  0
SPLINE
  5
81
100
AcDbEntity
  8
Ebene 1
 62
     7
100
AcDbSpline
210
0.0
220
0.0
230
1.0
 70
     1
 71
     3
 72
    16
 73
    12
 74
     0
 42
0.0000000001
 43
0.0000000001
 40
0.0
 40
0.0
 40
0.0
 40
0.0
 40
0.3333333333333333
 40
0.3333333333333333
 40
0.3333333333333333
 40
0.3333333333333333
 40
0.6666666666666666
 40
0.6666666666666666
 40
0.6666666666666666
 40
0.6666666666666666
 40
1.0
 40
1.0
 40
1.0
 40
1.0
 10
-1.9404100000000002
 20
-2.4186400000000003
 30
0.0
 10
-1.8057900000000002
 20
-2.3907000000000003
 30
0.0
 10
-1.7854700000000001
 20
-2.5050000000000003
 30
0.0
 10
-1.8108700000000002
 20
-2.6218400000000002
 30
0.0
 10
-1.8108700000000002
 20
-2.6218400000000002
 30
0.0
 10
-1.7626100000000002
 20
-2.7361400000000002
 30
0.0
 10
-1.7448300000000001
 20
-2.8682200000000004
 30
0.0
 10
-1.8540500000000002
 20
-2.9393400000000001
 30
0.0
 10
-1.8540500000000002
 20
-2.9393400000000001
 30
0.0
 10
-2.10805
 20
-2.8682200000000004
 30
0.0
 10
-1.9302500000000002
 20
-2.5913600000000003
 30
0.0
 10
-1.9404100000000002
 20
-2.4186400000000003
 30
0.0
  0
SPLINE
  5
82
100
AcDbEntity
  8
Ebene 1
 62
     7
100
AcDbSpline
210
0.0
220
0.0
230
1.0
 70
     1
 71
     3
 72
    16
 73
    12
 74
     0
 42
0.0000000001
 43
0.0000000001
 40
0.0
 40
0.0
 40
0.0
 40
0.0
 40
0.3333333333333333
 40
0.3333333333333333
 40
0.3333333333333333
 40
0.3333333333333333
 40
0.6666666666666666
 40
0.6666666666666666
 40
0.6666666666666666
 40
0.6666666666666666
 40
1.0
 40
1.0
 40
1.0
 40
1.0
 10
1.2244200000000001
 20
-2.4186400000000003
 30
0.0
 10
1.2650600000000001
 20
-2.4034
 30
0.0
 10
1.2523600000000001
 20
-2.4465800000000004
 30
0.0
 10
1.2549000000000001
 20
-2.4770600000000003
 30
0.0
 10
1.2549000000000001
 20
-2.4770600000000003
 30
0.0
 10
1.3311000000000002
 20
-2.5050000000000003
 30
0.0
 10
1.1914
 20
-2.6218400000000002
 30
0.0
 10
1.14314
 20
-2.6650200000000002
 30
0.0
 10
1.14314
 20
-2.6650200000000002
 30
0.0
 10
1.14314
 20
-2.6650200000000002
 30
0.0
 10
1.2244200000000001
 20
-2.4186400000000003
 30
0.0
 10
1.2244200000000001
 20
-2.4186400000000003
 30
0.0
  0
SPLINE
  5
83
100
AcDbEntity
  8
Ebene 1
100
AcDbSpline
210
0.0
220
0.0
230
1.0
 70
     1
 71
     3
 72
    20
 73
    16
 74
     0
 42
0.0000000001
 43
0.0000000001
 40
0.0
 40
0.0
 40
0.0
 40
0.0
 40
0.25
 40
0.25
 40
0.25
 40
0.25
 40
0.5
 40
0.5
 40
0.5
 40
0.5
 40
0.75
 40
0.75
 40
0.75
 40
0.75
 40
1.0
 40
1.0
 40
1.0
 40
1.0
 10
-1.0742700000000001
 20
-2.4770600000000003
 30
0.0
 10
-1.0742700000000001
 20
-2.4770600000000003
 30
0.0
 10
-1.03363
 20
-2.4770600000000003
 30
0.0
 10
-1.03363
 20
-2.4770600000000003
 30
0.0
 10
-1.03363
 20
-2.4770600000000003
 30
0.0
 10
-0.9828300000000001
 20
-2.6066000000000003
 30
0.0
 10
-0.9701300000000001
 20
-2.8098000000000001
 30
0.0
 10
-1.0742700000000001
 20
-2.9114000000000004
 30
0.0
 10
-1.0742700000000001
 20
-2.9114000000000004
 30
0.0
 10
-1.08697
 20
-2.9114000000000004
 30
0.0
 10
-1.0996700000000001
 20
-2.8961600000000001
 30
0.0
 10
-1.1022100000000001
 20
-2.8809200000000001
 30
0.0
 10
-1.1022100000000001
 20
-2.8809200000000001
 30
0.0
 10
-1.0514100000000002
 20
-2.7513800000000002
 30
0.0
 10
-1.0641100000000001
 20
-2.6218400000000002
 30
0.0
 10
-1.0742700000000001
 20
-2.4770600000000003
 30
0.0
  0
SPLINE
  5
84
100
AcDbEntity
  8
Ebene 1
 62
     7
100
AcDbSpline
210
0.0
220
0.0
230
1.0
 70
     1
 71
     3
 72
    16
 73
    12
 74
     0
 42
0.0000000001
 43
0.0000000001
 40
0.0
 40
0.0
 40
0.0
 40
0.0
 40
0.3333333333333333
 40
0.3333333333333333
 40
0.3333333333333333
 40
0.3333333333333333
 40
0.6666666666666666
 40
0.6666666666666666
 40
0.6666666666666666
 40
0.6666666666666666
 40
1.0
 40
1.0
 40
1.0
 40
1.0
 10
2.1362800000000002
 20
-2.6218400000000002
 30
0.0
 10
2.1820000000000004
 20
-2.6370800000000001
 30
0.0
 10
2.2124800000000002
 20
-2.8098000000000001
 30
0.0
 10
2.1134200000000001
 20
-2.7666200000000001
 30
0.0
 10
2.1134200000000001
 20
-2.7666200000000001
 30
0.0
 10
2.1083400000000001
 20
-2.7818600000000004
 30
0.0
 10
2.1007200000000004
 20
-2.8098000000000001
 30
0.0
 10
2.0829400000000002
 20
-2.7945600000000002
 30
0.0
 10
2.0829400000000002
 20
-2.7945600000000002
 30
0.0
 10
2.0829400000000002
 20
-2.7945600000000002
 30
0.0
 10
2.1362800000000002
 20
-2.6218400000000002
 30
0.0
 10
2.1362800000000002
 20
-2.6218400000000002
 30
0.0
  0
SPLINE
  5
85
100
AcDbEntity
  8
Ebene 1
 62
     7
100
AcDbSpline
210
0.0
220
0.0
230
1.0
 70
     1
 71
     3
 72
    24
 73
    20
 74
     0
 42
0.0000000001
 43
0.0000000001
 40
0.0
 40
0.0
 40
0.0
 40
0.0
 40
0.2
 40
0.2
 40
0.2
 40
0.2
 40
0.4
 40
0.4
 40
0.4
 40
0.4
 40
0.6000000000000001
 40
0.6000000000000001
 40
0.6000000000000001
 40
0.6000000000000001
 40
0.8
 40
0.8
 40
0.8
 40
0.8
 40
1.0
 40
1.0
 40
1.0
 40
1.0
 10
2.2683600000000004
 20
-2.8682200000000004
 30
0.0
 10
2.2861400000000001
 20
-2.8682200000000004
 30
0.0
 10
2.3039200000000002
 20
-2.8961600000000001
 30
0.0
 10
2.3115400000000004
 20
-2.9114000000000004
 30
0.0
 10
2.3115400000000004
 20
-2.9114000000000004
 30
0.0
 10
2.2709000000000001
 20
-3.1273000000000004
 30
0.0
 10
2.3852000000000002
 20
-3.3305000000000002
 30
0.0
 10
2.3521800000000002
 20
-3.5616400000000001
 30
0.0
 10
2.3521800000000002
 20
-3.5616400000000001
 30
0.0
 10
2.3344
 20
-3.5768800000000005
 30
0.0
 10
2.3090000000000002
 20
-3.5895800000000002
 30
0.0
 10
2.2861400000000001
 20
-3.6048200000000001
 30
0.0
 10
2.2861400000000001
 20
-3.6048200000000001
 30
0.0
 10
2.2861400000000001
 20
-3.6048200000000001
 30
0.0
 10
2.1794600000000002
 20
-2.9977600000000004
 30
0.0
 10
2.1794600000000002
 20
-2.9977600000000004
 30
0.0
 10
2.1794600000000002
 20
-2.9977600000000004
 30
0.0
 10
2.1794600000000002
 20
-2.9977600000000004
 30
0.0
 10
2.2683600000000004
 20
-2.8682200000000004
 30
0.0
 10
2.2683600000000004
 20
-2.8682200000000004
 30
0.0
  0
SPLINE
  5
86
100
AcDbEntity
  8
Ebene 1
 62
     7
100
AcDbSpline
210
0.0
220
0.0
230
1.0
 70
     1
 71
     3
 72
    12
 73
     8
 74
     0
 42
0.0000000001
 43
0.0000000001
 40
0.0
 40
0.0
 40
0.0
 40
0.0
 40
0.5
 40
0.5
 40
0.5
 40
0.5
 40
1.0
 40
1.0
 40
1.0
 40
1.0
 10
0.06872
 20
-3.0130000000000003
 30
0.0
 10
0.10428
 20
-2.9545800000000004
 30
0.0
 10
0.17794
 20
-2.9266400000000004
 30
0.0
 10
0.2389
 20
-2.9266400000000004
 30
0.0
 10
0.2389
 20
-2.9266400000000004
 30
0.0
 10
0.20588
 20
-2.9825200000000001
 30
0.0
 10
0.13222
 20
-3.0130000000000003
 30
0.0
 10
0.06872
 20
-3.0130000000000003
 30
0.0
  0
SPLINE
  5
87
100
AcDbEntity
  8
Ebene 1
 62
     7
100
AcDbSpline
210
0.0
220
0.0
230
1.0
 70
     1
 71
     3
 72
    12
 73
     8
 74
     0
 42
0.0000000001
 43
0.0000000001
 40
0.0
 40
0.0
 40
0.0
 40
0.0
 40
0.5
 40
0.5
 40
0.5
 40
0.5
 40
1.0
 40
1.0
 40
1.0
 40
1.0
 10
-0.13193
 20
-3.0561800000000003
 30
0.0
 10
-0.12177
 20
-3.0561800000000003
 30
0.0
 10
-0.09383
 20
-3.0561800000000003
 30
0.0
 10
-0.11415
 20
-3.0688800000000001
 30
0.0
 10
-0.11415
 20
-3.0688800000000001
 30
0.0
 10
-0.05065
 20
-3.11206
 30
0.0
 10
-0.22337
 20
-3.1273000000000004
 30
0.0
 10
-0.13193
 20
-3.0561800000000003
 30
0.0
  0
SPLINE
  5
88
100
AcDbEntity
  8
Ebene 1
 62
     7
100
AcDbSpline
210
0.0
220
0.0
230
1.0
 70
     1
 71
     3
 72
    16
 73
    12
 74
     0
 42
0.0000000001
 43
0.0000000001
 40
0.0
 40
0.0
 40
0.0
 40
0.0
 40
0.3333333333333333
 40
0.3333333333333333
 40
0.3333333333333333
 40
0.3333333333333333
 40
0.6666666666666666
 40
0.6666666666666666
 40
0.6666666666666666
 40
0.6666666666666666
 40
1.0
 40
1.0
 40
1.0
 40
1.0
 10
2.0651600000000001
 20
-3.0688800000000001
 30
0.0
 10
2.2404200000000003
 20
-3.1857200000000003
 30
0.0
 10
2.1870800000000004
 20
-3.4752800000000001
 30
0.0
 10
2.1921600000000003
 20
-3.6632400000000005
 30
0.0
 10
2.1921600000000003
 20
-3.6632400000000005
 30
0.0
 10
2.1566000000000001
 20
-3.6632400000000005
 30
0.0
 10
2.1134200000000001
 20
-3.6480000000000001
 30
0.0
 10
2.0829400000000002
 20
-3.6353000000000004
 30
0.0
 10
2.0829400000000002
 20
-3.6353000000000004
 30
0.0
 10
2.0677000000000003
 20
-3.4473400000000001
 30
0.0
 10
2.0600800000000001
 20
-3.2568400000000004
 30
0.0
 10
2.0651600000000001
 20
-3.0688800000000001
 30
0.0
  0
SPLINE
  5
89
100
AcDbEntity
  8
Ebene 1
 62
     7
100
AcDbSpline
210
0.0
220
0.0
230
1.0
 70
     1
 71
     3
 72
    20
 73
    16
 74
     0
 42
0.0000000001
 43
0.0000000001
 40
0.0
 40
0.0
 40
0.0
 40
0.0
 40
0.25
 40
0.25
 40
0.25
 40
0.25
 40
0.5
 40
0.5
 40
0.5
 40
0.5
 40
0.75
 40
0.75
 40
0.75
 40
0.75
 40
1.0
 40
1.0
 40
1.0
 40
1.0
 10
1.9203800000000002
 20
-3.1425400000000003
 30
0.0
 10
1.9203800000000002
 20
-3.1425400000000003
 30
0.0
 10
1.9457800000000001
 20
-3.1425400000000003
 30
0.0
 10
1.9457800000000001
 20
-3.1425400000000003
 30
0.0
 10
1.9457800000000001
 20
-3.1425400000000003
 30
0.0
 10
1.9457800000000001
 20
-3.1425400000000003
 30
0.0
 10
2.0067400000000002
 20
-3.6200600000000005
 30
0.0
 10
2.0067400000000002
 20
-3.6200600000000005
 30
0.0
 10
2.0067400000000002
 20
-3.6200600000000005
 30
0.0
 10
2.0067400000000002
 20
-3.6200600000000005
 30
0.0
 10
1.9686400000000002
 20
-3.5895800000000002
 30
0.0
 10
1.9686400000000002
 20
-3.5895800000000002
 30
0.0
 10
1.9686400000000002
 20
-3.5895800000000002
 30
0.0
 10
1.9686400000000002
 20
-3.5895800000000002
 30
0.0
 10
1.9203800000000002
 20
-3.1425400000000003
 30
0.0
 10
1.9203800000000002
 20
-3.1425400000000003
 30
0.0
  0
SPLINE
  5
8A
100
AcDbEntity
  8
Ebene 1
 62
     7
100
AcDbSpline
210
0.0
220
0.0
230
1.0
 70
     1
 71
     3
 72
    20
 73
    16
 74
     0
 42
0.0000000001
 43
0.0000000001
 40
0.0
 40
0.0
 40
0.0
 40
0.0
 40
0.25
 40
0.25
 40
0.25
 40
0.25
 40
0.5
 40
0.5
 40
0.5
 40
0.5
 40
0.75
 40
0.75
 40
0.75
 40
0.75
 40
1.0
 40
1.0
 40
1.0
 40
1.0
 10
1.7476600000000002
 20
-3.19842
 30
0.0
 10
1.7476600000000002
 20
-3.19842
 30
0.0
 10
1.7730600000000001
 20
-3.19842
 30
0.0
 10
1.7730600000000001
 20
-3.19842
 30
0.0
 10
1.7730600000000001
 20
-3.19842
 30
0.0
 10
1.7959200000000002
 20
-3.3889200000000002
 30
0.0
 10
1.8365600000000002
 20
-3.6200600000000005
 30
0.0
 10
1.8187800000000001
 20
-3.7927800000000005
 30
0.0
 10
1.8187800000000001
 20
-3.7927800000000005
 30
0.0
 10
1.6714600000000002
 20
-3.6784800000000004
 30
0.0
 10
1.7248000000000001
 20
-3.4600400000000002
 30
0.0
 10
1.6740000000000002
 20
-3.2873200000000002
 30
0.0
 10
1.6740000000000002
 20
-3.2873200000000002
 30
0.0
 10
1.6740000000000002
 20
-3.2873200000000002
 30
0.0
 10
1.7476600000000002
 20
-3.19842
 30
0.0
 10
1.7476600000000002
 20
-3.19842
 30
0.0
  0
SPLINE
  5
8B
100
AcDbEntity
  8
Ebene 1
 62
     7
100
AcDbSpline
210
0.0
220
0.0
230
1.0
 70
     1
 71
     3
 72
    24
 73
    20
 74
     0
 42
0.0000000001
 43
0.0000000001
 40
0.0
 40
0.0
 40
0.0
 40
0.0
 40
0.2
 40
0.2
 40
0.2
 40
0.2
 40
0.4
 40
0.4
 40
0.4
 40
0.4
 40
0.6000000000000001
 40
0.6000000000000001
 40
0.6000000000000001
 40
0.6000000000000001
 40
0.8
 40
0.8
 40
0.8
 40
0.8
 40
1.0
 40
1.0
 40
1.0
 40
1.0
 10
1.4276200000000001
 20
-3.4752800000000001
 30
0.0
 10
1.4454
 20
-3.4752800000000001
 30
0.0
 10
1.4606400000000002
 20
-3.5032200000000002
 30
0.0
 10
1.4581000000000002
 20
-3.5184600000000001
 30
0.0
 10
1.4581000000000002
 20
-3.5184600000000001
 30
0.0
 10
1.35904
 20
-3.8943800000000004
 30
0.0
 10
1.3717400000000002
 20
-4.3287200000000006
 30
0.0
 10
1.19648
 20
-4.6767000000000003
 30
0.0
 10
1.19648
 20
-4.6767000000000003
 30
0.0
 10
1.1558400000000002
 20
-4.6614600000000008
 30
0.0
 10
1.1253600000000001
 20
-4.6309800000000001
 30
0.0
 10
1.1380600000000001
 20
-4.5903400000000003
 30
0.0
 10
1.1380600000000001
 20
-4.5903400000000003
 30
0.0
 10
1.2955400000000001
 20
-4.2703000000000007
 30
0.0
 10
1.3234800000000002
 20
-3.9096200000000003
 30
0.0
 10
1.3463400000000001
 20
-3.5464000000000002
 30
0.0
 10
1.3463400000000001
 20
-3.5464000000000002
 30
0.0
 10
1.3463400000000001
 20
-3.5464000000000002
 30
0.0
 10
1.4276200000000001
 20
-3.4752800000000001
 30
0.0
 10
1.4276200000000001
 20
-3.4752800000000001
 30
0.0
  0
SPLINE
  5
8C
100
AcDbEntity
  8
Ebene 1
100
AcDbSpline
210
0.0
220
0.0
230
1.0
 70
     1
 71
     3
 72
    16
 73
    12
 74
     0
 42
0.0000000001
 43
0.0000000001
 40
0.0
 40
0.0
 40
0.0
 40
0.0
 40
0.3333333333333333
 40
0.3333333333333333
 40
0.3333333333333333
 40
0.3333333333333333
 40
0.6666666666666666
 40
0.6666666666666666
 40
0.6666666666666666
 40
0.6666666666666666
 40
1.0
 40
1.0
 40
1.0
 40
1.0
 10
-0.63993
 20
-3.5768800000000005
 30
0.0
 10
-0.6297700000000001
 20
-3.5768800000000005
 30
0.0
 10
-0.6069100000000001
 20
-3.5768800000000005
 30
0.0
 10
-0.6094500000000001
 20
-3.5895800000000002
 30
0.0
 10
-0.6094500000000001
 20
-3.5895800000000002
 30
0.0
 10
-0.68057
 20
-3.6480000000000001
 30
0.0
 10
-0.67549
 20
-3.8232600000000003
 30
0.0
 10
-0.7796300000000001
 20
-3.8232600000000003
 30
0.0
 10
-0.7796300000000001
 20
-3.8232600000000003
 30
0.0
 10
-0.7796300000000001
 20
-3.8232600000000003
 30
0.0
 10
-0.63993
 20
-3.5768800000000005
 30
0.0
 10
-0.63993
 20
-3.5768800000000005
 30
0.0
  0
SPLINE
  5
8D
100
AcDbEntity
  8
Ebene 1
 62
     7
100
AcDbSpline
210
0.0
220
0.0
230
1.0
 70
     1
 71
     3
 72
    20
 73
    16
 74
     0
 42
0.0000000001
 43
0.0000000001
 40
0.0
 40
0.0
 40
0.0
 40
0.0
 40
0.25
 40
0.25
 40
0.25
 40
0.25
 40
0.5
 40
0.5
 40
0.5
 40
0.5
 40
0.75
 40
0.75
 40
0.75
 40
0.75
 40
1.0
 40
1.0
 40
1.0
 40
1.0
 10
0.9932800000000001
 20
-3.7064200000000005
 30
0.0
 10
1.0034400000000001
 20
-3.7064200000000005
 30
0.0
 10
1.0263
 20
-3.7064200000000005
 30
0.0
 10
1.02122
 20
-3.7216600000000004
 30
0.0
 10
1.02122
 20
-3.7216600000000004
 30
0.0
 10
1.02122
 20
-3.7216600000000004
 30
0.0
 10
0.8764400000000001
 20
-4.48874
 30
0.0
 10
0.8764400000000001
 20
-4.48874
 30
0.0
 10
0.8764400000000001
 20
-4.48874
 30
0.0
 10
0.8764400000000001
 20
-4.48874
 30
0.0
 10
0.68086
 20
-4.5014400000000006
 30
0.0
 10
0.68086
 20
-4.5014400000000006
 30
0.0
 10
0.68086
 20
-4.5014400000000006
 30
0.0
 10
0.7215
 20
-4.2423600000000006
 30
0.0
 10
0.6834
 20
-3.8232600000000003
 30
0.0
 10
0.9932800000000001
 20
-3.7064200000000005
 30
0.0
  0
SPLINE
  5
8E
100
AcDbEntity
  8
Ebene 1
 62
     7
100
AcDbSpline
210
0.0
220
0.0
230
1.0
 70
     1
 71
     3
 72
    20
 73
    16
 74
     0
 42
0.0000000001
 43
0.0000000001
 40
0.0
 40
0.0
 40
0.0
 40
0.0
 40
0.25
 40
0.25
 40
0.25
 40
0.25
 40
0.5
 40
0.5
 40
0.5
 40
0.5
 40
0.75
 40
0.75
 40
0.75
 40
0.75
 40
1.0
 40
1.0
 40
1.0
 40
1.0
 10
2.0499200000000002
 20
-3.7496000000000005
 30
0.0
 10
2.0829400000000002
 20
-3.7648400000000004
 30
0.0
 10
2.09056
 20
-3.8080200000000004
 30
0.0
 10
2.1058000000000003
 20
-3.8359600000000005
 30
0.0
 10
2.1058000000000003
 20
-3.8359600000000005
 30
0.0
 10
2.0143600000000004
 20
-3.8664400000000003
 30
0.0
 10
1.9178400000000002
 20
-3.9096200000000003
 30
0.0
 10
1.8187800000000001
 20
-3.9248600000000002
 30
0.0
 10
1.8187800000000001
 20
-3.9248600000000002
 30
0.0
 10
1.7375
 20
-3.8791400000000005
 30
0.0
 10
1.8416400000000002
 20
-3.7927800000000005
 30
0.0
 10
1.9051400000000001
 20
-3.8232600000000003
 30
0.0
 10
1.9051400000000001
 20
-3.8232600000000003
 30
0.0
 10
1.9635600000000002
 20
-3.8232600000000003
 30
0.0
 10
2.05246
 20
-3.8232600000000003
 30
0.0
 10
2.0499200000000002
 20
-3.7496000000000005
 30
0.0
  0
SPLINE
  5
8F
100
AcDbEntity
  8
Ebene 1
100
AcDbSpline
210
0.0
220
0.0
230
1.0
 70
     1
 71
     3
 72
    24
 73
    20
 74
     0
 42
0.0000000001
 43
0.0000000001
 40
0.0
 40
0.0
 40
0.0
 40
0.0
 40
0.2
 40
0.2
 40
0.2
 40
0.2
 40
0.4
 40
0.4
 40
0.4
 40
0.4
 40
0.6000000000000001
 40
0.6000000000000001
 40
0.6000000000000001
 40
0.6000000000000001
 40
0.8
 40
0.8
 40
0.8
 40
0.8
 40
1.0
 40
1.0
 40
1.0
 40
1.0
 10
-2.4179300000000001
 20
-3.7800800000000003
 30
0.0
 10
-2.3315700000000001
 20
-3.8791400000000005
 30
0.0
 10
-2.2528300000000003
 20
-3.9807400000000004
 30
0.0
 10
-2.2401300000000002
 20
-4.1255200000000007
 30
0.0
 10
-2.2401300000000002
 20
-4.1255200000000007
 30
0.0
 10
-2.0902700000000003
 20
-4.1839400000000007
 30
0.0
 10
-2.1283700000000003
 20
-4.3998400000000002
 30
0.0
 10
-2.0445500000000001
 20
-4.5319200000000004
 30
0.0
 10
-2.0445500000000001
 20
-4.5319200000000004
 30
0.0
 10
-2.1055100000000002
 20
-4.5319200000000004
 30
0.0
 10
-2.1563100000000004
 20
-4.4455600000000004
 30
0.0
 10
-2.1613900000000004
 20
-4.3871400000000005
 30
0.0
 10
-2.1613900000000004
 20
-4.3871400000000005
 30
0.0
 10
-2.3696700000000002
 20
-4.2855400000000001
 30
0.0
 10
-2.3010900000000003
 20
-3.9807400000000004
 30
0.0
 10
-2.4280900000000001
 20
-3.8232600000000003
 30
0.0
 10
-2.4280900000000001
 20
-3.8232600000000003
 30
0.0
 10
-2.4280900000000001
 20
-3.8232600000000003
 30
0.0
 10
-2.4179300000000001
 20
-3.7800800000000003
 30
0.0
 10
-2.4179300000000001
 20
-3.7800800000000003
 30
0.0
  0
SPLINE
  5
90
100
AcDbEntity
  8
Ebene 1
 62
     7
100
AcDbSpline
210
0.0
220
0.0
230
1.0
 70
     1
 71
     3
 72
    24
 73
    20
 74
     0
 42
0.0000000001
 43
0.0000000001
 40
0.0
 40
0.0
 40
0.0
 40
0.0
 40
0.2
 40
0.2
 40
0.2
 40
0.2
 40
0.4
 40
0.4
 40
0.4
 40
0.4
 40
0.6000000000000001
 40
0.6000000000000001
 40
0.6000000000000001
 40
0.6000000000000001
 40
0.8
 40
0.8
 40
0.8
 40
0.8
 40
1.0
 40
1.0
 40
1.0
 40
1.0
 10
0.5894200000000001
 20
-3.9096200000000003
 30
0.0
 10
0.6072000000000001
 20
-3.9096200000000003
 30
0.0
 10
0.6275200000000001
 20
-3.9248600000000002
 30
0.0
 10
0.6326000000000001
 20
-3.9375600000000004
 30
0.0
 10
0.6326000000000001
 20
-3.9375600000000004
 30
0.0
 10
0.5818000000000001
 20
-4.1255200000000007
 30
0.0
 10
0.57926
 20
-4.3134800000000002
 30
0.0
 10
0.57164
 20
-4.51668
 30
0.0
 10
0.57164
 20
-4.51668
 30
0.0
 10
0.57164
 20
-4.51668
 30
0.0
 10
0.404
 20
-4.5598600000000005
 30
0.0
 10
0.404
 20
-4.5598600000000005
 30
0.0
 10
0.404
 20
-4.5598600000000005
 30
0.0
 10
0.404
 20
-4.5598600000000005
 30
0.0
 10
0.4929000000000001
 20
-3.9680400000000002
 30
0.0
 10
0.4929000000000001
 20
-3.9680400000000002
 30
0.0
 10
0.4929000000000001
 20
-3.9680400000000002
 30
0.0
 10
0.4929000000000001
 20
-3.9680400000000002
 30
0.0
 10
0.5894200000000001
 20
-3.9096200000000003
 30
0.0
 10
0.5894200000000001
 20
-3.9096200000000003
 30
0.0
  0
SPLINE
  5
91
100
AcDbEntity
  8
Ebene 1
 62
     7
100
AcDbSpline
210
0.0
220
0.0
230
1.0
 70
     1
 71
     3
 72
    20
 73
    16
 74
     0
 42
0.0000000001
 43
0.0000000001
 40
0.0
 40
0.0
 40
0.0
 40
0.0
 40
0.25
 40
0.25
 40
0.25
 40
0.25
 40
0.5
 40
0.5
 40
0.5
 40
0.5
 40
0.75
 40
0.75
 40
0.75
 40
0.75
 40
1.0
 40
1.0
 40
1.0
 40
1.0
 10
-0.01763
 20
-4.1839400000000007
 30
0.0
 10
-0.01763
 20
-4.1839400000000007
 30
0.0
 10
0.0103
 20
-4.2271200000000002
 30
0.0
 10
0.0103
 20
-4.2271200000000002
 30
0.0
 10
0.0103
 20
-4.2271200000000002
 30
0.0
 10
-0.04303
 20
-4.48874
 30
0.0
 10
0.0103
 20
-4.7910000000000004
 30
0.0
 10
-0.06335
 20
-5.0526200000000001
 30
0.0
 10
-0.06335
 20
-5.0526200000000001
 30
0.0
 10
-0.06335
 20
-5.0526200000000001
 30
0.0
 10
-0.11923
 20
-4.9815000000000005
 30
0.0
 10
-0.11923
 20
-4.9815000000000005
 30
0.0
 10
-0.11923
 20
-4.9815000000000005
 30
0.0
 10
-0.09129
 20
-4.7198800000000007
 30
0.0
 10
-0.12177
 20
-4.43032
 30
0.0
 10
-0.01763
 20
-4.1839400000000007
 30
0.0
  0
SPLINE
  5
92
100
AcDbEntity
  8
Ebene 1
 62
     7
100
AcDbSpline
210
0.0
220
0.0
230
1.0
 70
     1
 71
     3
 72
    20
 73
    16
 74
     0
 42
0.0000000001
 43
0.0000000001
 40
0.0
 40
0.0
 40
0.0
 40
0.0
 40
0.25
 40
0.25
 40
0.25
 40
0.25
 40
0.5
 40
0.5
 40
0.5
 40
0.5
 40
0.75
 40
0.75
 40
0.75
 40
0.75
 40
1.0
 40
1.0
 40
1.0
 40
1.0
 10
-0.13193
 20
-4.2550600000000003
 30
0.0
 10
-0.13193
 20
-4.2550600000000003
 30
0.0
 10
-0.09129
 20
-4.2550600000000003
 30
0.0
 10
-0.09129
 20
-4.2550600000000003
 30
0.0
 10
-0.09129
 20
-4.2550600000000003
 30
0.0
 10
-0.09129
 20
-4.2550600000000003
 30
0.0
 10
-0.14717
 20
-4.7630600000000003
 30
0.0
 10
-0.14717
 20
-4.7630600000000003
 30
0.0
 10
-0.14717
 20
-4.7630600000000003
 30
0.0
 10
-0.18527
 20
-4.6309800000000001
 30
0.0
 10
-0.19543
 20
-4.4735000000000005
 30
0.0
 10
-0.21575
 20
-4.3287200000000006
 30
0.0
 10
-0.21575
 20
-4.3287200000000006
 30
0.0
 10
-0.18781
 20
-4.3134800000000002
 30
0.0
 10
-0.14717
 20
-4.3007800000000005
 30
0.0
 10
-0.13193
 20
-4.2550600000000003
 30
0.0
  0
SPLINE
  5
93
100
AcDbEntity
  8
Ebene 1
 62
     7
100
AcDbSpline
210
0.0
220
0.0
230
1.0
 70
     1
 71
     3
 72
    24
 73
    20
 74
     0
 42
0.0000000001
 43
0.0000000001
 40
0.0
 40
0.0
 40
0.0
 40
0.0
 40
0.2
 40
0.2
 40
0.2
 40
0.2
 40
0.4
 40
0.4
 40
0.4
 40
0.4
 40
0.6000000000000001
 40
0.6000000000000001
 40
0.6000000000000001
 40
0.6000000000000001
 40
0.8
 40
0.8
 40
0.8
 40
0.8
 40
1.0
 40
1.0
 40
1.0
 40
1.0
 10
-0.4494300000000001
 20
-4.4582600000000001
 30
0.0
 10
-0.43165
 20
-4.4582600000000001
 30
0.0
 10
-0.40879
 20
-4.4582600000000001
 30
0.0
 10
-0.3960900000000001
 20
-4.4735000000000005
 30
0.0
 10
-0.3960900000000001
 20
-4.4735000000000005
 30
0.0
 10
-0.35037
 20
-4.6894
 30
0.0
 10
-0.3757700000000001
 20
-4.9510200000000006
 30
0.0
 10
-0.26401
 20
-5.11104
 30
0.0
 10
-0.26401
 20
-5.11104
 30
0.0
 10
-0.26401
 20
-5.11104
 30
0.0
 10
-0.30973
 20
-5.1542200000000005
 30
0.0
 10
-0.30973
 20
-5.1542200000000005
 30
0.0
 10
-0.30973
 20
-5.1542200000000005
 30
0.0
 10
-0.39101
 20
-4.9662600000000001
 30
0.0
 10
-0.39355
 20
-4.7198800000000007
 30
0.0
 10
-0.5230900000000001
 20
-4.5319200000000004
 30
0.0
 10
-0.5230900000000001
 20
-4.5319200000000004
 30
0.0
 10
-0.5230900000000001
 20
-4.5319200000000004
 30
0.0
 10
-0.4494300000000001
 20
-4.4582600000000001
 30
0.0
 10
-0.4494300000000001
 20
-4.4582600000000001
 30
0.0
  0
SPLINE
  5
94
100
AcDbEntity
  8
Ebene 1
 62
     7
100
AcDbSpline
210
0.0
220
0.0
230
1.0
 70
     1
 71
     3
 72
    16
 73
    12
 74
     0
 42
0.0000000001
 43
0.0000000001
 40
0.0
 40
0.0
 40
0.0
 40
0.0
 40
0.3333333333333333
 40
0.3333333333333333
 40
0.3333333333333333
 40
0.3333333333333333
 40
0.6666666666666666
 40
0.6666666666666666
 40
0.6666666666666666
 40
0.6666666666666666
 40
1.0
 40
1.0
 40
1.0
 40
1.0
 10
-0.59421
 20
-4.60304
 30
0.0
 10
-0.50531
 20
-4.7478200000000008
 30
0.0
 10
-0.4367300000000001
 20
-5.0094400000000006
 30
0.0
 10
-0.41133
 20
-5.1821600000000005
 30
0.0
 10
-0.41133
 20
-5.1821600000000005
 30
0.0
 10
-0.6627900000000001
 20
-5.2558200000000008
 30
0.0
 10
-0.65517
 20
-4.8799000000000001
 30
0.0
 10
-0.7948700000000001
 20
-4.7478200000000008
 30
0.0
 10
-0.7948700000000001
 20
-4.7478200000000008
 30
0.0
 10
-0.72121
 20
-4.7198800000000007
 30
0.0
 10
-0.63993
 20
-4.6767000000000003
 30
0.0
 10
-0.59421
 20
-4.60304
 30
0.0
  0
SPLINE
  5
95
100
AcDbEntity
  8
Ebene 1
 62
     7
100
AcDbSpline
210
0.0
220
0.0
230
1.0
 70
     1
 71
     3
 72
    32
 73
    28
 74
     0
 42
0.0000000001
 43
0.0000000001
 40
0.0
 40
0.0
 40
0.0
 40
0.0
 40
0.1428571428571429
 40
0.1428571428571429
 40
0.1428571428571429
 40
0.1428571428571429
 40
0.2857142857142857
 40
0.2857142857142857
 40
0.2857142857142857
 40
0.2857142857142857
 40
0.4285714285714286
 40
0.4285714285714286
 40
0.4285714285714286
 40
0.4285714285714286
 40
0.5714285714285714
 40
0.5714285714285714
 40
0.5714285714285714
 40
0.5714285714285714
 40
0.7142857142857142
 40
0.7142857142857142
 40
0.7142857142857142
 40
0.7142857142857142
 40
0.857142857142857
 40
0.857142857142857
 40
0.857142857142857
 40
0.857142857142857
 40
1.0
 40
1.0
 40
1.0
 40
1.0
 10
0.7316600000000001
 20
-4.6309800000000001
 30
0.0
 10
0.7316600000000001
 20
-4.6309800000000001
 30
0.0
 10
0.83072
 20
-4.7630600000000003
 30
0.0
 10
0.83072
 20
-4.7630600000000003
 30
0.0
 10
0.83072
 20
-4.7630600000000003
 30
0.0
 10
0.78246
 20
-4.7478200000000008
 30
0.0
 10
0.7392800000000001
 20
-4.7478200000000008
 30
0.0
 10
0.6910200000000001
 20
-4.7630600000000003
 30
0.0
 10
0.6910200000000001
 20
-4.7630600000000003
 30
0.0
 10
0.6910200000000001
 20
-4.7630600000000003
 30
0.0
 10
0.59196
 20
-4.7910000000000004
 30
0.0
 10
0.59196
 20
-4.7910000000000004
 30
0.0
 10
0.59196
 20
-4.7910000000000004
 30
0.0
 10
0.59196
 20
-4.7910000000000004
 30
0.0
 10
0.5487800000000001
 20
-4.8341800000000008
 30
0.0
 10
0.5487800000000001
 20
-4.8341800000000008
 30
0.0
 10
0.5487800000000001
 20
-4.8341800000000008
 30
0.0
 10
0.64276
 20
-4.8062400000000007
 30
0.0
 10
0.7977000000000001
 20
-4.8494200000000003
 30
0.0
 10
0.8180200000000001
 20
-4.9510200000000006
 30
0.0
 10
0.8180200000000001
 20
-4.9510200000000006
 30
0.0
 10
0.8180200000000001
 20
-4.9510200000000006
 30
0.0
 10
0.25922
 20
-5.0094400000000006
 30
0.0
 10
0.25922
 20
-5.0094400000000006
 30
0.0
 10
0.25922
 20
-5.0094400000000006
 30
0.0
 10
0.12206
 20
-4.6767000000000003
 30
0.0
 10
0.49798
 20
-4.6182800000000004
 30
0.0
 10
0.7316600000000001
 20
-4.6309800000000001
 30
0.0
  0
SPLINE
  5
96
100
AcDbEntity
  8
Ebene 1
 62
     7
100
AcDbSpline
210
0.0
220
0.0
230
1.0
 70
     1
 71
     3
 72
    20
 73
    16
 74
     0
 42
0.0000000001
 43
0.0000000001
 40
0.0
 40
0.0
 40
0.0
 40
0.0
 40
0.25
 40
0.25
 40
0.25
 40
0.25
 40
0.5
 40
0.5
 40
0.5
 40
0.5
 40
0.75
 40
0.75
 40
0.75
 40
0.75
 40
1.0
 40
1.0
 40
1.0
 40
1.0
 10
1.1380600000000001
 20
-4.7046400000000004
 30
0.0
 10
1.18632
 20
-4.7046400000000004
 30
0.0
 10
1.2422000000000002
 20
-4.7198800000000007
 30
0.0
 10
1.2676000000000001
 20
-4.7630600000000003
 30
0.0
 10
1.2676000000000001
 20
-4.7630600000000003
 30
0.0
 10
1.2676000000000001
 20
-4.7630600000000003
 30
0.0
 10
1.2117200000000001
 20
-4.8926000000000007
 30
0.0
 10
1.2117200000000001
 20
-4.8926000000000007
 30
0.0
 10
1.2117200000000001
 20
-4.8926000000000007
 30
0.0
 10
1.2117200000000001
 20
-4.8926000000000007
 30
0.0
 10
1.1380600000000001
 20
-4.8214800000000002
 30
0.0
 10
1.1380600000000001
 20
-4.8214800000000002
 30
0.0
 10
1.1380600000000001
 20
-4.8214800000000002
 30
0.0
 10
1.1558400000000002
 20
-4.7783000000000007
 30
0.0
 10
1.1761600000000001
 20
-4.7478200000000008
 30
0.0
 10
1.1380600000000001
 20
-4.7046400000000004
 30
0.0
  0
SPLINE
  5
97
100
AcDbEntity
  8
Ebene 1
 62
     7
100
AcDbSpline
210
0.0
220
0.0
230
1.0
 70
     1
 71
     3
 72
    16
 73
    12
 74
     0
 42
0.0000000001
 43
0.0000000001
 40
0.0
 40
0.0
 40
0.0
 40
0.0
 40
0.3333333333333333
 40
0.3333333333333333
 40
0.3333333333333333
 40
0.3333333333333333
 40
0.6666666666666666
 40
0.6666666666666666
 40
0.6666666666666666
 40
0.6666666666666666
 40
1.0
 40
1.0
 40
1.0
 40
1.0
 10
-0.8837700000000001
 20
-4.8341800000000008
 30
0.0
 10
-0.7364500000000001
 20
-4.9357800000000003
 30
0.0
 10
-0.7567700000000001
 20
-5.1974
 30
0.0
 10
-0.78471
 20
-5.37012
 30
0.0
 10
-0.78471
 20
-5.37012
 30
0.0
 10
-0.78471
 20
-5.37012
 30
0.0
 10
-0.86599
 20
-5.3117000000000001
 30
0.0
 10
-0.86599
 20
-5.3117000000000001
 30
0.0
 10
-0.86599
 20
-5.3117000000000001
 30
0.0
 10
-0.86599
 20
-5.3117000000000001
 30
0.0
 10
-0.8837700000000001
 20
-4.8341800000000008
 30
0.0
 10
-0.8837700000000001
 20
-4.8341800000000008
 30
0.0
  0
SPLINE
  5
98
100
AcDbEntity
  8
Ebene 1
 62
     7
100
AcDbSpline
210
0.0
220
0.0
230
1.0
 70
     1
 71
     3
 72
    16
 73
    12
 74
     0
 42
0.0000000001
 43
0.0000000001
 40
0.0
 40
0.0
 40
0.0
 40
0.0
 40
0.3333333333333333
 40
0.3333333333333333
 40
0.3333333333333333
 40
0.3333333333333333
 40
0.6666666666666666
 40
0.6666666666666666
 40
0.6666666666666666
 40
0.6666666666666666
 40
1.0
 40
1.0
 40
1.0
 40
1.0
 10
1.0948800000000001
 20
-4.8926000000000007
 30
0.0
 10
1.14822
 20
-4.9078400000000002
 30
0.0
 10
1.2015600000000002
 20
-4.9815000000000005
 30
0.0
 10
1.19394
 20
-5.0373800000000006
 30
0.0
 10
1.19394
 20
-5.0373800000000006
 30
0.0
 10
1.14314
 20
-5.0373800000000006
 30
0.0
 10
1.0923400000000001
 20
-5.0221400000000003
 30
0.0
 10
1.0567800000000001
 20
-4.9942000000000002
 30
0.0
 10
1.0567800000000001
 20
-4.9942000000000002
 30
0.0
 10
1.0567800000000001
 20
-4.9942000000000002
 30
0.0
 10
1.0948800000000001
 20
-4.8926000000000007
 30
0.0
 10
1.0948800000000001
 20
-4.8926000000000007
 30
0.0
  0
SPLINE
  5
99
100
AcDbEntity
  8
Ebene 1
 62
     7
100
AcDbSpline
210
0.0
220
0.0
230
1.0
 70
     1
 71
     3
 72
    24
 73
    20
 74
     0
 42
0.0000000001
 43
0.0000000001
 40
0.0
 40
0.0
 40
0.0
 40
0.0
 40
0.2
 40
0.2
 40
0.2
 40
0.2
 40
0.4
 40
0.4
 40
0.4
 40
0.4
 40
0.6000000000000001
 40
0.6000000000000001
 40
0.6000000000000001
 40
0.6000000000000001
 40
0.8
 40
0.8
 40
0.8
 40
0.8
 40
1.0
 40
1.0
 40
1.0
 40
1.0
 10
0.5894200000000001
 20
-5.1389800000000001
 30
0.0
 10
0.5894200000000001
 20
-5.1389800000000001
 30
0.0
 10
0.70118
 20
-5.1542200000000005
 30
0.0
 10
0.70118
 20
-5.1542200000000005
 30
0.0
 10
0.70118
 20
-5.1542200000000005
 30
0.0
 10
0.59196
 20
-5.4869600000000007
 30
0.0
 10
0.55894
 20
-5.8628800000000005
 30
0.0
 10
0.531
 20
-6.2235600000000009
 30
0.0
 10
0.531
 20
-6.2235600000000009
 30
0.0
 10
0.4624200000000001
 20
-6.1803800000000004
 30
0.0
 10
0.36082
 20
-6.2388000000000003
 30
0.0
 10
0.3024
 20
-6.1803800000000004
 30
0.0
 10
0.3024
 20
-6.1803800000000004
 30
0.0
 10
0.36336
 20
-5.8476400000000002
 30
0.0
 10
0.3786000000000001
 20
-5.5149000000000008
 30
0.0
 10
0.3887600000000001
 20
-5.1669200000000002
 30
0.0
 10
0.3887600000000001
 20
-5.1669200000000002
 30
0.0
 10
0.4421000000000001
 20
-5.1262800000000004
 30
0.0
 10
0.5411600000000001
 20
-5.1821600000000005
 30
0.0
 10
0.5894200000000001
 20
-5.1389800000000001
 30
0.0
  0
SPLINE
  5
9A
100
AcDbEntity
  8
Ebene 1
 62
     7
100
AcDbSpline
210
0.0
220
0.0
230
1.0
 70
     1
 71
     3
 72
    28
 73
    24
 74
     0
 42
0.0000000001
 43
0.0000000001
 40
0.0
 40
0.0
 40
0.0
 40
0.0
 40
0.1666666666666667
 40
0.1666666666666667
 40
0.1666666666666667
 40
0.1666666666666667
 40
0.3333333333333333
 40
0.3333333333333333
 40
0.3333333333333333
 40
0.3333333333333333
 40
0.5
 40
0.5
 40
0.5
 40
0.5
 40
0.6666666666666666
 40
0.6666666666666666
 40
0.6666666666666666
 40
0.6666666666666666
 40
0.8333333333333333
 40
0.8333333333333333
 40
0.8333333333333333
 40
0.8333333333333333
 40
1.0
 40
1.0
 40
1.0
 40
1.0
 10
0.9501000000000001
 20
-5.1542200000000005
 30
0.0
 10
0.9805800000000001
 20
-5.1389800000000001
 30
0.0
 10
1.0110600000000001
 20
-5.1669200000000002
 30
0.0
 10
1.02122
 20
-5.1974
 30
0.0
 10
1.02122
 20
-5.1974
 30
0.0
 10
0.9577200000000001
 20
-5.5580800000000004
 30
0.0
 10
0.86882
 20
-5.9213000000000005
 30
0.0
 10
0.78754
 20
-6.2819800000000008
 30
0.0
 10
0.78754
 20
-6.2819800000000008
 30
0.0
 10
0.7367400000000001
 20
-6.2819800000000008
 30
0.0
 10
0.6834
 20
-6.2692800000000002
 30
0.0
 10
0.63514
 20
-6.2540400000000007
 30
0.0
 10
0.63514
 20
-6.2540400000000007
 30
0.0
 10
0.6046600000000001
 20
-6.2235600000000009
 30
0.0
 10
0.61482
 20
-6.1803800000000004
 30
0.0
 10
0.6326000000000001
 20
-6.1524400000000004
 30
0.0
 10
0.6326000000000001
 20
-6.1524400000000004
 30
0.0
 10
0.6529200000000001
 20
-6.0508400000000009
 30
0.0
 10
0.658
 20
-6.1803800000000004
 30
0.0
 10
0.6757800000000001
 20
-6.2108600000000003
 30
0.0
 10
0.6757800000000001
 20
-6.2108600000000003
 30
0.0
 10
0.8764400000000001
 20
-5.9060600000000001
 30
0.0
 10
0.7926200000000001
 20
-5.4869600000000007
 30
0.0
 10
0.9501000000000001
 20
-5.1542200000000005
 30
0.0
  0
SPLINE
  5
9B
100
AcDbEntity
  8
Ebene 1
 62
     7
100
AcDbSpline
210
0.0
220
0.0
230
1.0
 70
     1
 71
     3
 72
    24
 73
    20
 74
     0
 42
0.0000000001
 43
0.0000000001
 40
0.0
 40
0.0
 40
0.0
 40
0.0
 40
0.2
 40
0.2
 40
0.2
 40
0.2
 40
0.4
 40
0.4
 40
0.4
 40
0.4
 40
0.6000000000000001
 40
0.6000000000000001
 40
0.6000000000000001
 40
0.6000000000000001
 40
0.8
 40
0.8
 40
0.8
 40
0.8
 40
1.0
 40
1.0
 40
1.0
 40
1.0
 10
-0.36307
 20
-5.28376
 30
0.0
 10
-0.26909
 20
-5.3269400000000005
 30
0.0
 10
-0.20559
 20
-5.4717200000000004
 30
0.0
 10
-0.07351
 20
-5.3574200000000003
 30
0.0
 10
-0.07351
 20
-5.3574200000000003
 30
0.0
 10
-0.07351
 20
-5.3574200000000003
 30
0.0
 10
0.06618
 20
-5.3421800000000008
 30
0.0
 10
0.06618
 20
-5.3421800000000008
 30
0.0
 10
0.06618
 20
-5.3421800000000008
 30
0.0
 10
-0.05065
 20
-5.4133000000000004
 30
0.0
 10
-0.27925
 20
-5.6317400000000006
 30
0.0
 10
-0.3960900000000001
 20
-5.4564800000000009
 30
0.0
 10
-0.3960900000000001
 20
-5.4564800000000009
 30
0.0
 10
-0.4824500000000001
 20
-5.4869600000000007
 30
0.0
 10
-0.5002300000000001
 20
-5.37012
 30
0.0
 10
-0.50531
 20
-5.3117000000000001
 30
0.0
 10
-0.50531
 20
-5.3117000000000001
 30
0.0
 10
-0.50531
 20
-5.3117000000000001
 30
0.0
 10
-0.36307
 20
-5.28376
 30
0.0
 10
-0.36307
 20
-5.28376
 30
0.0
  0
SPLINE
  5
9C
100
AcDbEntity
  8
Ebene 1
 62
     7
100
AcDbSpline
210
0.0
220
0.0
230
1.0
 70
     1
 71
     3
 72
    20
 73
    16
 74
     0
 42
0.0000000001
 43
0.0000000001
 40
0.0
 40
0.0
 40
0.0
 40
0.0
 40
0.25
 40
0.25
 40
0.25
 40
0.25
 40
0.5
 40
0.5
 40
0.5
 40
0.5
 40
0.75
 40
0.75
 40
0.75
 40
0.75
 40
1.0
 40
1.0
 40
1.0
 40
1.0
 10
0.09666
 20
-5.5301400000000003
 30
0.0
 10
0.20588
 20
-5.6012600000000008
 30
0.0
 10
-0.06081
 20
-5.7765200000000005
 30
0.0
 10
-0.08875
 20
-5.6596800000000007
 30
0.0
 10
-0.08875
 20
-5.6596800000000007
 30
0.0
 10
-0.16241
 20
-5.7765200000000005
 30
0.0
 10
-0.35291
 20
-5.7765200000000005
 30
0.0
 10
-0.31481
 20
-5.6012600000000008
 30
0.0
 10
-0.31481
 20
-5.6012600000000008
 30
0.0
 10
-0.24115
 20
-5.6012600000000008
 30
0.0
 10
-0.14209
 20
-5.5301400000000003
 30
0.0
 10
-0.13193
 20
-5.6469800000000001
 30
0.0
 10
-0.13193
 20
-5.6469800000000001
 30
0.0
 10
-0.05319
 20
-5.6165000000000003
 30
0.0
 10
0.0357
 20
-5.5885600000000002
 30
0.0
 10
0.09666
 20
-5.5301400000000003
 30
0.0
  0
SPLINE
  5
9D
100
AcDbEntity
  8
Ebene 1
 62
     7
100
AcDbSpline
210
0.0
220
0.0
230
1.0
 70
     1
 71
     3
 72
    16
 73
    12
 74
     0
 42
0.0000000001
 43
0.0000000001
 40
0.0
 40
0.0
 40
0.0
 40
0.0
 40
0.3333333333333333
 40
0.3333333333333333
 40
0.3333333333333333
 40
0.3333333333333333
 40
0.6666666666666666
 40
0.6666666666666666
 40
0.6666666666666666
 40
0.6666666666666666
 40
1.0
 40
1.0
 40
1.0
 40
1.0
 10
-0.59421
 20
-6.0356000000000005
 30
0.0
 10
-0.5459500000000001
 20
-6.0229000000000008
 30
0.0
 10
-0.45451
 20
-6.0940200000000004
 30
0.0
 10
-0.5383300000000001
 20
-6.1245000000000003
 30
0.0
 10
-0.5383300000000001
 20
-6.1245000000000003
 30
0.0
 10
-0.5865900000000001
 20
-6.1245000000000003
 30
0.0
 10
-0.65517
 20
-6.1245000000000003
 30
0.0
 10
-0.6831100000000001
 20
-6.0787800000000001
 30
0.0
 10
-0.6831100000000001
 20
-6.0787800000000001
 30
0.0
 10
-0.6831100000000001
 20
-6.0787800000000001
 30
0.0
 10
-0.59421
 20
-6.0356000000000005
 30
0.0
 10
-0.59421
 20
-6.0356000000000005
 30
0.0
  0
ENDSEC
  0
SECTION
  2
OBJECTS
  0
DICTIONARY
  5
19
100
AcDbDictionary
280
     0
281
     1
  3
ACAD_GROUP
350
1A
  3
ACAD_MLINESTYLE
350
1B
  3
ACAD_LAYOUT
350
1E
  3
ACAD_PLOTSETTINGS
350
22
  3
ACAD_PLOTSTYLENAME
350
1F
  3
ACAD_WIPEOUT_VARS
350
23
  0
DICTIONARY
  5
1A
102
{ACAD_REACTORS
330
19
102
}
100
AcDbDictionary
280
     0
281
     1
  0
DICTIONARY
  5
1B
102
{ACAD_REACTORS
330
19
102
}
100
AcDbDictionary
280
     0
281
     1
  3
Standard
350
1C
  0
MLINESTYLE
  5
1C
102
{ACAD_REACTORS
330
1B
102
}
100
AcDbMlineStyle
  2
Standard
 70
     0
  3

 62
     0
 51
90.0
 52
90.0
 71
     2
 49
0.5
 62
   256
  6
BYLAYER
 49
-0.5
 62
   256
  6
BYLAYER
  0
ACDBDICTIONARYWDFLT
  5
1F
102
{ACAD_REACTORS
330
19
102
}
100
AcDbDictionary
281
     1
  3
Normal
350
1D
100
AcDbDictionaryWithDefault
340
1D
  0
ACDBPLACEHOLDER
  5
1D
102
{ACAD_REACTORS
330
1F
102
}
  0
LAYOUT
  5
20
102
{ACAD_REACTORS
330
1E
102
}
100
AcDbPlotSettings
  1

  2

  4

  6

 40
0.0
 41
0.0
 42
0.0
 43
0.0
 44
0.0
 45
0.0
 46
0.0
 47
0.0
 48
0.0
 49
0.0
140
0.0
141
0.0
142
1.0
143
1.0
 70
  1024
 72
     0
 73
     0
 74
     0
  7

 75
     0
147
1.0
148
0.0
149
0.0
100
AcDbLayout
  1
Model
 70
     0
 71
     0
 10
0.0
 20
0.0
 11
0.0
 21
0.0
 12
0.0
 22
0.0
 32
0.0
 14
0.0
 24
0.0
 34
0.0
 15
0.0
 25
0.0
 35
0.0
146
0.0
 13
0.0
 23
0.0
 33
0.0
 16
0.0
 26
0.0
 36
0.0
 17
0.0
 27
0.0
 37
0.0
 76
     0
330
A
331
0
345
0
346
0
  0
LAYOUT
  5
21
102
{ACAD_REACTORS
330
1E
102
}
100
AcDbPlotSettings
  1

  2

  4

  6

 40
0.0
 41
0.0
 42
0.0
 43
0.0
 44
0.0
 45
0.0
 46
0.0
 47
0.0
 48
0.0
 49
0.0
140
0.0
141
0.0
142
1.0
143
1.0
 70
     0
 72
     0
 73
     0
 74
     0
  7

 75
     0
147
1.0
148
0.0
149
0.0
100
AcDbLayout
  1
Layout1
 70
     0
 71
     0
 10
0.0
 20
0.0
 11
0.0
 21
0.0
 12
0.0
 22
0.0
 32
0.0
 14
0.0
 24
0.0
 34
0.0
 15
0.0
 25
0.0
 35
0.0
146
0.0
 13
0.0
 23
0.0
 33
0.0
 16
0.0
 26
0.0
 36
0.0
 17
0.0
 27
0.0
 37
0.0
 76
     0
330
B
331
0
345
0
346
0
  0
DICTIONARY
  5
1E
102
{ACAD_REACTORS
330
19
102
}
100
AcDbDictionary
280
     0
281
     1
  3
Layout1
350
21
  3
Model
350
20
  0
DICTIONARY
  5
22
102
{ACAD_REACTORS
330
19
102
}
100
AcDbDictionary
280
     0
281
     1
  0
WIPEOUTVARIABLES
  5
23
100
AcDbWipeoutVariables
 70
     1
  0
ENDSEC
  0
EOF
