  0
SECTION
  2
HEADER
  9
$ACADVER
  1
AC1014
  9
$ACADMAINTVER
 70
     0
  9
$DWGCODEPAGE
  3
ANSI_1252
  9
$INSBASE
 10
0.0
 20
0.0
 30
0.0
  9
$EXTMIN
 10
0.0
 20
0.0
 30
0.0
  9
$EXTMAX
 10
1184.514404
 20
692.872192
 30
2.0
  9
$LIMMIN
 10
0.0
 20
0.0
  9
$LIMMAX
 10
420.0
 20
297.0
  9
$ORTHOMODE
 70
     0
  9
$REGENMODE
 70
     1
  9
$FILLMODE
 70
     1
  9
$QTEXTMODE
 70
     0
  9
$MIRRTEXT
 70
     1
  9
$DRAGMODE
 70
     2
  9
$LTSCALE
 40
1.0
  9
$OSMODE
 70
     0
  9
$ATTMODE
 70
     1
  9
$TEXTSIZE
 40
2.5
  9
$TRACEWID
 40
1.0
  9
$TEXTSTYLE
  7
STANDARD
  9
$CLAYER
  8
0
  9
$CELTYPE
  6
BYLAYER
  9
$CECOLOR
 62
   256
  9
$CELTSCALE
 40
1.0
  9
$DELOBJ
 70
     1
  9
$DISPSILH
 70
     0
  9
$DIMSCALE
 40
1.0
  9
$DIMASZ
 40
2.5
  9
$DIMEXO
 40
0.625
  9
$DIMDLI
 40
3.75
  9
$DIMRND
 40
0.0
  9
$DIMDLE
 40
0.0
  9
$DIMEXE
 40
1.25
  9
$DIMTP
 40
0.0
  9
$DIMTM
 40
0.0
  9
$DIMTXT
 40
2.5
  9
$DIMCEN
 40
2.5
  9
$DIMTSZ
 40
0.0
  9
$DIMTOL
 70
     0
  9
$DIMLIM
 70
     0
  9
$DIMTIH
 70
     0
  9
$DIMTOH
 70
     0
  9
$DIMSE1
 70
     0
  9
$DIMSE2
 70
     0
  9
$DIMTAD
 70
     1
  9
$DIMZIN
 70
     8
  9
$DIMBLK
  1

  9
$DIMASO
 70
     1
  9
$DIMSHO
 70
     1
  9
$DIMPOST
  1

  9
$DIMAPOST
  1

  9
$DIMALT
 70
     0
  9
$DIMALTD
 70
     3
  9
$DIMALTF
 40
0.03937
  9
$DIMLFAC
 40
1.0
  9
$DIMTOFL
 70
     1
  9
$DIMTVP
 40
0.0
  9
$DIMTIX
 70
     0
  9
$DIMSOXD
 70
     0
  9
$DIMSAH
 70
     0
  9
$DIMBLK1
  1

  9
$DIMBLK2
  1

  9
$DIMSTYLE
  2

  9
$DIMCLRD
 70
     0
  9
$DIMCLRE
 70
     0
  9
$DIMCLRT
 70
     0
  9
$DIMTFAC
 40
1.0
  9
$DIMGAP
 40
0.625
  9
$DIMJUST
 70
     0
  9
$DIMSD1
 70
     0
  9
$DIMSD2
 70
     0
  9
$DIMTOLJ
 70
     0
  9
$DIMTZIN
 70
     8
  9
$DIMALTZ
 70
     0
  9
$DIMALTTZ
 70
     0
  9
$DIMFIT
 70
     0
  9
$DIMUPT
 70
     0
  9
$DIMUNIT
 70
     2
  9
$DIMDEC
 70
     2
  9
$DIMTDEC
 70
     2
  9
$DIMALTU
 70
     2
  9
$DIMALTTD
 70
     3
  9
$DIMTXSTY
  7
STANDARD
  9
$DIMAUNIT
 70
     0
  9
$LUNITS
 70
     2
  9
$LUPREC
 70
     4
  9
$SKETCHINC
 40
1.0
  9
$FILLETRAD
 40
2.5
  9
$AUNITS
 70
     0
  9
$AUPREC
 70
     0
  9
$MENU
  1
.
  9
$ELEVATION
 40
0.0
  9
$PELEVATION
 40
0.0
  9
$THICKNESS
 40
0.0
  9
$LIMCHECK
 70
     0
  9
$BLIPMODE
 70
     1
  9
$CHAMFERA
 40
2.5
  9
$CHAMFERB
 40
2.5
  9
$CHAMFERC
 40
0.0
  9
$CHAMFERD
 40
0.0
  9
$SKPOLY
 70
     0
  9
$TDCREATE
 40
0.000000000
  9
$TDUPDATE
 40
0.000000000
  9
$TDINDWG
 40
0.0000000000
  9
$TDUSRTIMER
 40
0.0000000000
  9
$USRTIMER
 70
     1
  9
$ANGBASE
 50
0.0
  9
$ANGDIR
 70
     0
  9
$PDMODE
 70
     0
  9
$PDSIZE
 40
0.0
  9
$PLINEWID
 40
0.0
  9
$COORDS
 70
     0
  9
$SPLFRAME
 70
     0
  9
$SPLINETYPE
 70
     6
  9
$SPLINESEGS
 70
     8
  9
$ATTDIA
 70
     0
  9
$ATTREQ
 70
     1
  9
$HANDLING
 70
     1
  9
$HANDSEED
  5
11D
  9
$SURFTAB1
 70
     6
  9
$SURFTAB2
 70
     6
  9
$SURFTYPE
 70
     6
  9
$SURFU
 70
     6
  9
$SURFV
 70
     6
  9
$UCSNAME
  2

  9
$UCSORG
 10
0.0
 20
0.0
 30
0.0
  9
$UCSXDIR
 10
1.0
 20
0.0
 30
0.0
  9
$UCSYDIR
 10
0.0
 20
1.0
 30
0.0
  9
$PUCSNAME
  2

  9
$PUCSORG
 10
0.0
 20
0.0
 30
0.0
  9
$PUCSXDIR
 10
1.0
 20
0.0
 30
0.0
  9
$PUCSYDIR
 10
0.0
 20
1.0
 30
0.0
  9
$USERI1
 70
     0
  9
$USERI2
 70
     0
  9
$USERI3
 70
     0
  9
$USERI4
 70
     0
  9
$USERI5
 70
     0
  9
$USERR1
 40
0.0
  9
$USERR2
 40
0.0
  9
$USERR3
 40
0.0
  9
$USERR4
 40
0.0
  9
$USERR5
 40
0.0
  9
$WORLDVIEW
 70
     1
  9
$SHADEDGE
 70
     3
  9
$SHADEDIF
 70
    70
  9
$TILEMODE
 70
     1
  9
$MAXACTVP
 70
    48
  9
$PINSBASE
 10
0.0
 20
0.0
 30
0.0
  9
$PLIMCHECK
 70
     0
  9
$PEXTMIN
 10
0.0
 20
0.0
 30
0.0
  9
$PEXTMAX
 10
1184.514404
 20
692.872192
 30
2.0
  9
$PLIMMIN
 10
0.0
 20
0.0
  9
$PLIMMAX
 10
420.0
 20
297.0
  9
$UNITMODE
 70
     0
  9
$VISRETAIN
 70
     0
  9
$PLINEGEN
 70
     0
  9
$PSLTSCALE
 70
     1
  9
$TREEDEPTH
 70
  3020
  9
$PICKSTYLE
 70
     1
  9
$CMLSTYLE
  2
STANDARD
  9
$CMLJUST
 70
     0
  9
$CMLSCALE
 40
20.0
  9
$PROXYGRAPHICS
 70
     1
  9
$MEASUREMENT
 70
     1
  0
ENDSEC
  0
SECTION
  2
CLASSES
  0
CLASS
  1
LWPOLYLINE
  2
AcDbPolyline
  3
"AutoCAD"
 90
        0
280
     0
281
     1
  0
CLASS
  1
IMAGE
  2
AcDbRasterImage
  3
ISM
 90
      127
280
     0
281
     1
  0
CLASS
  1
OLE2FRAME
  2
AcDbOle2Frame
  3
""
 90
        0
280
     0
281
     1
  0
CLASS
  1
HATCH
  2
AcDbHatch
  3
"ACAD_SEDONA"
 90
        0
280
     0
281
     1
  0
CLASS
  1
DICTIONARYVAR
  2
AcDbDictionaryVar
  3
"AutoCAD"
 90
        0
280
     0
281
     0
  0
CLASS
  1
RASTERVARIABLES
  2
AcDbRasterVariables
  3
ISM
 90
        0
280
     0
281
     0
  0
CLASS
  1
IMAGEDEF
  2
AcDbRasterImageDef
  3
ISM
 90
        0
280
     0
281
     0
  0
CLASS
  1
IMAGEDEF_REACTOR
  2
AcDbRasterImageDefReactor
  3
ISM
 90
        1
280
     0
281
     0
  0
CLASS
  1
IDBUFFER
  2
AcDbIdBuffer
  3
"Acad"
 90
        0
280
     0
281
     0
  0
CLASS
  1
SPATIAL_FILTER
  2
AcDbSpatialFilter
  3
"Acad"
 90
        0
280
     0
281
     0
  0
CLASS
  1
XRECORD
  2
AcDbXrecord
  3
"<Built In>"
 90
        0
280
     0
281
     0
  0
CLASS
  1
SORTENTSTABLE
  2
AcDbSortentsTable
  3
"AutoCAD"
 90
        0
280
     0
281
     0
  0
CLASS
  1
LAYER_INDEX
  2
AcDbLayerIndex
  3
"Acad"
 90
        0
280
     0
281
     0
  0
CLASS
  1
SPATIAL_INDEX
  2
AcDbSpatialIndex
  3
"Acad"
 90
        0
280
     0
281
     0
  0
CLASS
  1
OBJECT_PTR
  2
CAseDLPNTableRecord
  3
"ASE-LPNTableRecord"
 90
        1
280
     0
281
     0
  0
CLASS
  1
LAYOUT
  2
AcDbLayout
  3
"AutoCAD 2000"
 90
        0
280
     0
281
     0
  0
CLASS
  1
PLOTSETTINGS
  2
AcDbPlotSettings
  3
"AutoCAD 2000"
 90
        0
280
     0
281
     0
  0
CLASS
  1
ACDBDICTIONARYWDFLT
  2
AcDbDictionaryWithDefault
  3
"AutoCAD 2000"
 90
        0
280
     0
281
     0
  0
CLASS
  1
ACDBPLACEHOLDER
  2
AcDbPlaceHolder
  3
"AutoCAD 2000"
 90
        0
280
     0
281
     0
  0
CLASS
  1
VBA_PROJECT
  2
AcDbVbaProject
  3
"acadvba"
 90
        0
280
     0
281
     0
  0
CLASS
  1
WIPEOUT
  2
AcDbWipeout
  3
WipeOut|AutoCAD Express Tool|expresstools@autodesk.com
 90
      127
280
     0
281
     1
  0
CLASS
  1
WIPEOUTVARIABLES
  2
AcDbWipeoutVariables
  3
WipeOut|AutoCAD Express Tool|expresstools@autodesk.com
 90
        0
280
     0
281
     0
  0
CLASS
  1
RTEXT
  2
RText
  3
RText|AutoCAD Express Tool|expresstools@autodesk.com
 90
        0
280
     0
281
     1
  0
CLASS
  1
ARCALIGNEDTEXT
  2
AcDbArcAlignedText
  3
ATEXT|AutoCAD Express Tool|expresstools@autodesk.com
 90
        0
280
     0
281
     1
  0
ENDSEC
  0
SECTION
  2
TABLES
  0
TABLE
  2
VPORT
  5
7
100
AcDbSymbolTable
 70
     1
  0
VPORT
  5
15
100
AcDbSymbolTableRecord
100
AcDbViewportTableRecord
  2
*ACTIVE
 70
     0
 10
0.0
 20
0.0
 11
1.0
 21
1.0
 12
6.591288
 22
4.579184
 13
0.0
 23
0.0
 14
1.0
 24
1.0
 15
0.0
 25
0.0
 16
0.0
 26
0.0
 36
1.0
 17
0.0
 27
0.0
 37
0.0
 40
9.158369
 41
0.688564
 42
50.0
 43
0.0
 44
0.0
 50
0.0
 51
0.0
 71
     0
 72
   100
 73
     1
 74
     1
 75
     0
 76
     0
 77
     0
 78
     0
  0
ENDTAB
  0
TABLE
  2
LTYPE
  5
4
100
AcDbSymbolTable
 70
     3
  0
LTYPE
  5
11
100
AcDbSymbolTableRecord
100
AcDbLinetypeTableRecord
  2
BYBLOCK
 70
    64
  3

 72
    65
 73
     0
 40
0.0
  0
LTYPE
  5
12
100
AcDbSymbolTableRecord
100
AcDbLinetypeTableRecord
  2
BYLAYER
 70
    64
  3

 72
    65
 73
     0
 40
0.0
  0
LTYPE
  5
13
100
AcDbSymbolTableRecord
100
AcDbLinetypeTableRecord
  2
CONTINUOUS
 70
    64
  3
Solid line
 72
    65
 73
     0
 40
0.0
  0
ENDTAB
  0
TABLE
  2
LAYER
  5
2
100
AcDbSymbolTable
 70
     1
  0
LAYER
  5
14
100
AcDbSymbolTableRecord
100
AcDbLayerTableRecord
  2
0
 70
     0
 62
     7
  6
CONTINUOUS
  0
ENDTAB
  0
TABLE
  2
STYLE
  5
3
100
AcDbSymbolTable
 70
     1
  0
STYLE
  5
17
100
AcDbSymbolTableRecord
100
AcDbTextStyleTableRecord
  2
STANDARD
 70
     0
 40
0.0
 41
1.0
 50
0.0
 71
     0
 42
0.0
  3
txt
  4

  0
ENDTAB
  0
TABLE
  2
VIEW
  5
5
100
AcDbSymbolTable
 70
     0
  0
ENDTAB
  0
TABLE
  2
UCS
  5
6
100
AcDbSymbolTable
 70
     0
  0
ENDTAB
  0
TABLE
  2
APPID
  5
8
100
AcDbSymbolTable
 70
     1
  0
APPID
  5
16
100
AcDbSymbolTableRecord
100
AcDbRegAppTableRecord
  2
ACAD
 70
     0
  0
ENDTAB
  0
TABLE
  2
DIMSTYLE
  5
9
100
AcDbSymbolTable
 70
     1
  0
DIMSTYLE
105
18
100
AcDbSymbolTableRecord
100
AcDbDimStyleTableRecord
  2
STANDARD
 70
     0
  3

  4

  5

  6

  7

 40
1.0
 41
0.18
 42
0.0625
 43
0.38
 44
0.18
 45
0.0
 46
0.0
 47
0.0
 48
0.0
 71
     0
 72
     0
 73
     1
 74
     1
 75
     0
 76
     0
 77
     0
 78
     0
140
0.18
141
0.09
142
0.0
143
25.4
144
1.0
145
0.0
146
1.0
147
0.09
170
     0
171
     2
172
     0
173
     0
174
     0
175
     0
176
     0
177
     0
178
     0
270
     2
271
     4
272
     4
273
     2
274
     2
275
     0
280
     0
281
     0
282
     0
283
     1
284
     0
285
     0
286
     0
287
     3
288
     0
340
17
  0
ENDTAB
  0
TABLE
  2
BLOCK_RECORD
  5
1
100
AcDbSymbolTable
 70
     0
  0
BLOCK_RECORD
  5
A
100
AcDbSymbolTableRecord
100
AcDbBlockTableRecord
  2
*MODEL_SPACE
  0
BLOCK_RECORD
  5
B
100
AcDbSymbolTableRecord
100
AcDbBlockTableRecord
  2
*PAPER_SPACE
  0
ENDTAB
  0
ENDSEC
  0
SECTION
  2
BLOCKS
  0
BLOCK
  5
D
100
AcDbEntity
  8
0
100
AcDbBlockBegin
  2
*MODEL_SPACE
 70
     0
 10
0.0
 20
0.0
 30
0.0
  3
*MODEL_SPACE
  1

  0
ENDBLK
  5
E
100
AcDbEntity
  8
0
100
AcDbBlockEnd
  0
BLOCK
  5
F
100
AcDbEntity
 67
     1
  8
0
100
AcDbBlockBegin
  2
*PAPER_SPACE
 70
     0
 10
0.0
 20
0.0
 30
0.0
  3
*PAPER_SPACE
  1

  0
ENDBLK
  5
10
100
AcDbEntity
 67
     1
  8
0
100
AcDbBlockEnd
  0
ENDSEC
  0
SECTION
  2
ENTITIES
  0
VIEWPORT
  5
11C
100
AcDbEntity
 67
     1
  8
0
 62
     0
 48
0.0
100
AcDbViewport
 10
0.0
 20
0.0
 30
0.0
 40
1000.0
 41
1000.0
 68
     1
 69
     1
1001
ACAD
1000
MVIEW
1002
{
1070
    16
1010
0.0
1020
0.0
1030
0.0
1010
0.0
1020
0.0
1030
1.0
1040
0.0
1040
1000.0
1040
0.0
1040
0.0
1040
50.0
1040
0.0
1040
0.0
1070
     0
1070
   100
1070
     1
1070
     1
1070
     0
1070
     0
1070
     0
1070
     0
1040
0.0
1040
0.0
1040
0.0
1040
1.0
1040
1.0
1040
1.0
1040
1.0
1070
     0
1002
{
1002
}
1002
}
  0
CIRCLE
  5
1D
100
AcDbEntity
  8
0
 62
     7
100
AcDbCircle
 10
129.340912
 20
325.116608
 30
0.0
 40
35.0
210
0.0
220
0.0
230
1.0
  0
CIRCLE
  5
1E
100
AcDbEntity
  8
0
 62
     7
100
AcDbCircle
 10
633.331787
 20
315.272247
 30
0.0
 40
67.8233
210
0.0
220
0.0
230
1.0
  0
CIRCLE
  5
1F
100
AcDbEntity
  8
0
 62
     7
100
AcDbCircle
 10
633.331787
 20
315.272247
 30
0.0
 40
52.8233
210
0.0
220
0.0
230
1.0
  0
CIRCLE
  5
20
100
AcDbEntity
  8
0
 62
     7
100
AcDbCircle
 10
612.309814
 20
577.866028
 30
0.0
 40
67.8233
210
0.0
220
0.0
230
1.0
  0
CIRCLE
  5
21
100
AcDbEntity
  8
0
 62
     7
100
AcDbCircle
 10
612.309814
 20
577.866028
 30
0.0
 40
52.8233
210
0.0
220
0.0
230
1.0
  0
CIRCLE
  5
22
100
AcDbEntity
  8
0
 62
     7
100
AcDbCircle
 10
379.242065
 20
581.475769
 30
0.0
 40
86.746758
210
0.0
220
0.0
230
1.0
  0
CIRCLE
  5
23
100
AcDbEntity
  8
0
 62
     7
100
AcDbCircle
 10
379.242065
 20
581.475769
 30
0.0
 40
71.746758
210
0.0
220
0.0
230
1.0
  0
CIRCLE
  5
24
100
AcDbEntity
  8
0
 62
     7
100
AcDbCircle
 10
858.544312
 20
573.349548
 30
0.0
 40
86.746758
210
0.0
220
0.0
230
1.0
  0
CIRCLE
  5
25
100
AcDbEntity
  8
0
 62
     7
100
AcDbCircle
 10
858.544312
 20
573.349548
 30
0.0
 40
71.746758
210
0.0
220
0.0
230
1.0
  0
CIRCLE
  5
26
100
AcDbEntity
  8
0
 62
     7
100
AcDbCircle
 10
135.659134
 20
567.010681
 30
0.0
 40
100.0
210
0.0
220
0.0
230
1.0
  0
CIRCLE
  5
27
100
AcDbEntity
  8
0
 62
     7
100
AcDbCircle
 10
135.659134
 20
567.010681
 30
0.0
 40
85.0
210
0.0
220
0.0
230
1.0
  0
CIRCLE
  5
28
100
AcDbEntity
  8
0
 62
     7
100
AcDbCircle
 10
947.31366
 20
194.591995
 30
0.0
 40
100.0
210
0.0
220
0.0
230
1.0
  0
CIRCLE
  5
29
100
AcDbEntity
  8
0
 62
     7
100
AcDbCircle
 10
947.31366
 20
194.591995
 30
0.0
 40
85.0
210
0.0
220
0.0
230
1.0
  0
CIRCLE
  5
2A
100
AcDbEntity
  8
0
 62
     7
100
AcDbCircle
 10
486.410553
 20
124.387245
 30
0.0
 40
109.658561
210
0.0
220
0.0
230
1.0
  0
CIRCLE
  5
2B
100
AcDbEntity
  8
0
 62
     7
100
AcDbCircle
 10
486.410553
 20
124.387245
 30
0.0
 40
94.658561
210
0.0
220
0.0
230
1.0
  0
CIRCLE
  5
2C
100
AcDbEntity
  8
0
 62
     7
100
AcDbCircle
 10
378.920227
 20
580.866272
 30
0.0
 40
109.658561
210
0.0
220
0.0
230
1.0
  0
CIRCLE
  5
2D
100
AcDbEntity
  8
0
 62
     7
100
AcDbCircle
 10
378.920227
 20
580.866272
 30
0.0
 40
94.658561
210
0.0
220
0.0
230
1.0
  0
CIRCLE
  5
2E
100
AcDbEntity
  8
0
 62
     7
100
AcDbCircle
 10
614.518311
 20
576.072388
 30
0.0
 40
116.619038
210
0.0
220
0.0
230
1.0
  0
CIRCLE
  5
2F
100
AcDbEntity
  8
0
 62
     7
100
AcDbCircle
 10
614.518311
 20
576.072388
 30
0.0
 40
101.619038
210
0.0
220
0.0
230
1.0
  0
CIRCLE
  5
30
100
AcDbEntity
  8
0
 62
     7
100
AcDbCircle
 10
857.318054
 20
574.110962
 30
0.0
 40
116.619038
210
0.0
220
0.0
230
1.0
  0
CIRCLE
  5
31
100
AcDbEntity
  8
0
 62
     7
100
AcDbCircle
 10
857.318054
 20
574.110962
 30
0.0
 40
101.619038
210
0.0
220
0.0
230
1.0
  0
CIRCLE
  5
32
100
AcDbEntity
  8
0
 62
     7
100
AcDbCircle
 10
132.53479
 20
316.404419
 30
0.0
 40
121.346611
210
0.0
220
0.0
230
1.0
  0
CIRCLE
  5
33
100
AcDbEntity
  8
0
 62
     7
100
AcDbCircle
 10
132.53479
 20
316.404419
 30
0.0
 40
106.346611
210
0.0
220
0.0
230
1.0
  0
CIRCLE
  5
34
100
AcDbEntity
  8
0
 62
     7
100
AcDbCircle
 10
384.963806
 20
337.292053
 30
0.0
 40
121.346611
210
0.0
220
0.0
230
1.0
  0
CIRCLE
  5
35
100
AcDbEntity
  8
0
 62
     7
100
AcDbCircle
 10
384.963806
 20
337.292053
 30
0.0
 40
106.346611
210
0.0
220
0.0
230
1.0
  0
CIRCLE
  5
36
100
AcDbEntity
  8
0
 62
     7
100
AcDbCircle
 10
135.872971
 20
568.775452
 30
0.0
 40
124.096736
210
0.0
220
0.0
230
1.0
  0
CIRCLE
  5
37
100
AcDbEntity
  8
0
 62
     7
100
AcDbCircle
 10
135.872971
 20
568.775452
 30
0.0
 40
109.096736
210
0.0
220
0.0
230
1.0
  0
CIRCLE
  5
38
100
AcDbEntity
  8
0
 62
     7
100
AcDbCircle
 10
946.803284
 20
193.381912
 30
0.0
 40
124.096736
210
0.0
220
0.0
230
1.0
  0
CIRCLE
  5
39
100
AcDbEntity
  8
0
 62
     7
100
AcDbCircle
 10
946.803284
 20
193.381912
 30
0.0
 40
109.096736
210
0.0
220
0.0
230
1.0
  0
CIRCLE
  5
3A
100
AcDbEntity
  8
0
 62
     7
100
AcDbCircle
 10
637.504333
 20
313.540802
 30
0.0
 40
125.0
210
0.0
220
0.0
230
1.0
  0
CIRCLE
  5
3B
100
AcDbEntity
  8
0
 62
     7
100
AcDbCircle
 10
637.504333
 20
313.540802
 30
0.0
 40
110.0
210
0.0
220
0.0
230
1.0
  0
ARC
  5
3C
100
AcDbEntity
  8
0
 62
     7
100
AcDbCircle
 10
960.491882
 20
562.467407
 30
0.0
 40
135.0
210
0.0
220
0.0
230
1.0
100
AcDbArc
 50
291.59836
 51
40.730887
  0
ARC
  5
3D
100
AcDbEntity
  8
0
 62
     7
100
AcDbCircle
 10
989.931519
 20
587.817139
 30
0.0
 40
96.150294
210
0.0
220
0.0
230
1.0
100
AcDbArc
 50
40.730887
 51
86.684738
  0
LINE
  5
3E
100
AcDbEntity
  8
0
 62
     7
 48
0.070978
100
AcDbLine
 10
995.491882
 20
680.967407
 30
0.0
 11
995.491882
 21
683.806519
 31
0.0
210
0.0
220
0.0
230
1.0
  0
LINE
  5
3F
100
AcDbEntity
  8
0
 62
     7
 48
0.402142
100
AcDbLine
 10
979.406189
 20
680.967407
 30
0.0
 11
995.491882
 21
680.967407
 31
0.0
210
0.0
220
0.0
230
1.0
  0
ARC
  5
40
100
AcDbEntity
  8
0
 62
     7
100
AcDbCircle
 10
960.491882
 20
562.467407
 30
0.0
 40
120.0
210
0.0
220
0.0
230
1.0
100
AcDbArc
 50
62.560763
 51
80.93128
  0
LINE
  5
41
100
AcDbEntity
  8
0
 62
     7
 48
0.313159
100
AcDbLine
 10
1028.315186
 20
668.967407
 30
0.0
 11
1015.788818
 21
668.967407
 31
0.0
210
0.0
220
0.0
230
1.0
  0
LINE
  5
42
100
AcDbEntity
  8
0
 62
     7
 48
0.075
100
AcDbLine
 10
1028.315186
 20
665.967407
 30
0.0
 11
1028.315186
 21
668.967407
 31
0.0
210
0.0
220
0.0
230
1.0
  0
LINE
  5
43
100
AcDbEntity
  8
0
 62
     7
 48
0.177411
100
AcDbLine
 10
1021.21875
 20
665.967407
 30
0.0
 11
1028.315186
 21
665.967407
 31
0.0
210
0.0
220
0.0
230
1.0
  0
ARC
  5
44
100
AcDbEntity
  8
0
 62
     7
100
AcDbCircle
 10
960.491882
 20
562.467407
 30
0.0
 40
120.0
210
0.0
220
0.0
230
1.0
100
AcDbArc
 50
49.685091
 51
59.598455
  0
LINE
  5
45
100
AcDbEntity
  8
0
 62
     7
 48
0.227704
100
AcDbLine
 10
1047.238647
 20
653.967407
 30
0.0
 11
1038.130493
 21
653.967407
 31
0.0
210
0.0
220
0.0
230
1.0
  0
LINE
  5
46
100
AcDbEntity
  8
0
 62
     7
 48
0.075
100
AcDbLine
 10
1047.238647
 20
650.967407
 30
0.0
 11
1047.238647
 21
653.967407
 31
0.0
210
0.0
220
0.0
230
1.0
  0
LINE
  5
47
100
AcDbEntity
  8
0
 62
     7
 48
0.142627
100
AcDbLine
 10
1041.533569
 20
650.967407
 30
0.0
 11
1047.238647
 21
650.967407
 31
0.0
210
0.0
220
0.0
230
1.0
  0
ARC
  5
48
100
AcDbEntity
  8
0
 62
     7
100
AcDbCircle
 10
960.491882
 20
562.467407
 30
0.0
 40
120.0
210
0.0
220
0.0
230
1.0
100
AcDbArc
 50
39.605651
 51
47.518886
  0
LINE
  5
49
100
AcDbEntity
  8
0
 62
     7
 48
0.188651
100
AcDbLine
 10
1060.491943
 20
638.967407
 30
0.0
 11
1052.945923
 21
638.967407
 31
0.0
210
0.0
220
0.0
230
1.0
  0
LINE
  5
4A
100
AcDbEntity
  8
0
 62
     7
 48
0.075
100
AcDbLine
 10
1060.491943
 20
635.967407
 30
0.0
 11
1060.491943
 21
638.967407
 31
0.0
210
0.0
220
0.0
230
1.0
  0
LINE
  5
4B
100
AcDbEntity
  8
0
 62
     7
 48
0.128589
100
AcDbLine
 10
1055.348389
 20
635.967407
 30
0.0
 11
1060.491943
 21
635.967407
 31
0.0
210
0.0
220
0.0
230
1.0
  0
ARC
  5
4C
100
AcDbEntity
  8
0
 62
     7
100
AcDbCircle
 10
960.491882
 20
562.467407
 30
0.0
 40
120.0
210
0.0
220
0.0
230
1.0
100
AcDbArc
 50
30.830497
 51
37.770488
  0
LINE
  5
4D
100
AcDbEntity
  8
0
 62
     7
 48
0.165402
100
AcDbLine
 10
1070.150391
 20
623.967407
 30
0.0
 11
1063.534302
 21
623.967407
 31
0.0
210
0.0
220
0.0
230
1.0
  0
LINE
  5
4E
100
AcDbEntity
  8
0
 62
     7
 48
0.075
100
AcDbLine
 10
1070.150391
 20
620.967407
 30
0.0
 11
1070.150391
 21
623.967407
 31
0.0
210
0.0
220
0.0
230
1.0
  0
LINE
  5
4F
100
AcDbEntity
  8
0
 62
     7
 48
0.122095
100
AcDbLine
 10
1065.266602
 20
620.967407
 30
0.0
 11
1070.150391
 21
620.967407
 31
0.0
210
0.0
220
0.0
230
1.0
  0
ARC
  5
50
100
AcDbEntity
  8
0
 62
     7
100
AcDbCircle
 10
960.491882
 20
562.467407
 30
0.0
 40
120.0
210
0.0
220
0.0
230
1.0
100
AcDbArc
 50
22.799031
 51
29.176396
  0
LINE
  5
51
100
AcDbEntity
  8
0
 62
     7
 48
0.149869
100
AcDbLine
 10
1077.110962
 20
608.967407
 30
0.0
 11
1071.116211
 21
608.967407
 31
0.0
210
0.0
220
0.0
230
1.0
  0
LINE
  5
52
100
AcDbEntity
  8
0
 62
     7
 48
0.075
100
AcDbLine
 10
1077.110962
 20
605.967407
 30
0.0
 11
1077.110962
 21
608.967407
 31
0.0
210
0.0
220
0.0
230
1.0
  0
LINE
  5
53
100
AcDbEntity
  8
0
 62
     7
 48
0.119525
100
AcDbLine
 10
1072.329956
 20
605.967407
 30
0.0
 11
1077.110962
 21
605.967407
 31
0.0
210
0.0
220
0.0
230
1.0
  0
ARC
  5
54
100
AcDbEntity
  8
0
 62
     7
100
AcDbCircle
 10
960.491882
 20
562.467407
 30
0.0
 40
120.0
210
0.0
220
0.0
230
1.0
100
AcDbArc
 50
15.218455
 51
21.25381
  0
LINE
  5
55
100
AcDbEntity
  8
0
 62
     7
 48
0.13887
100
AcDbLine
 10
1081.838501
 20
593.967407
 30
0.0
 11
1076.283691
 21
593.967407
 31
0.0
210
0.0
220
0.0
230
1.0
  0
LINE
  5
56
100
AcDbEntity
  8
0
 62
     7
 48
0.075
100
AcDbLine
 10
1081.838501
 20
590.967407
 30
0.0
 11
1081.838501
 21
593.967407
 31
0.0
210
0.0
220
0.0
230
1.0
  0
LINE
  5
57
100
AcDbEntity
  8
0
 62
     7
 48
0.119504
100
AcDbLine
 10
1077.05835
 20
590.967407
 30
0.0
 11
1081.838501
 21
590.967407
 31
0.0
210
0.0
220
0.0
230
1.0
  0
ARC
  5
58
100
AcDbEntity
  8
0
 62
     7
100
AcDbCircle
 10
960.491882
 20
562.467407
 30
0.0
 40
120.0
210
0.0
220
0.0
230
1.0
100
AcDbArc
 50
7.903208
 51
13.739035
  0
LINE
  5
59
100
AcDbEntity
  8
0
 62
     7
 48
0.130914
100
AcDbLine
 10
1084.588623
 20
578.967407
 30
0.0
 11
1079.352051
 21
578.967407
 31
0.0
210
0.0
220
0.0
230
1.0
  0
LINE
  5
5A
100
AcDbEntity
  8
0
 62
     7
 48
0.075
100
AcDbLine
 10
1084.588623
 20
575.967407
 30
0.0
 11
1084.588623
 21
578.967407
 31
0.0
210
0.0
220
0.0
230
1.0
  0
LINE
  5
5B
100
AcDbEntity
  8
0
 62
     7
 48
0.121463
100
AcDbLine
 10
1079.730103
 20
575.967407
 30
0.0
 11
1084.588623
 21
575.967407
 31
0.0
210
0.0
220
0.0
230
1.0
  0
ARC
  5
5C
100
AcDbEntity
  8
0
 62
     7
100
AcDbCircle
 10
960.491882
 20
562.467407
 30
0.0
 40
120.0
210
0.0
220
0.0
230
1.0
100
AcDbArc
 50
0.716216
 51
6.459449
  0
LINE
  5
5D
100
AcDbEntity
  8
0
 62
     7
 48
0.125235
100
AcDbLine
 10
1085.491943
 20
563.967407
 30
0.0
 11
1080.482544
 21
563.967407
 31
0.0
210
0.0
220
0.0
230
1.0
  0
LINE
  5
5E
100
AcDbEntity
  8
0
 62
     7
 48
0.075
100
AcDbLine
 10
1085.491943
 20
560.967407
 30
0.0
 11
1085.491943
 21
563.967407
 31
0.0
210
0.0
220
0.0
230
1.0
  0
LINE
  5
5F
100
AcDbEntity
  8
0
 62
     7
 48
0.125235
100
AcDbLine
 10
1080.482544
 20
560.967407
 30
0.0
 11
1085.491943
 21
560.967407
 31
0.0
210
0.0
220
0.0
230
1.0
  0
ARC
  5
60
100
AcDbEntity
  8
0
 62
     7
100
AcDbCircle
 10
960.491882
 20
562.467407
 30
0.0
 40
120.0
210
0.0
220
0.0
230
1.0
100
AcDbArc
 50
353.540551
 51
359.283784
  0
LINE
  5
61
100
AcDbEntity
  8
0
 62
     7
 48
0.121463
100
AcDbLine
 10
1084.588623
 20
548.967407
 30
0.0
 11
1079.730103
 21
548.967407
 31
0.0
210
0.0
220
0.0
230
1.0
  0
LINE
  5
62
100
AcDbEntity
  8
0
 62
     7
 48
0.075
100
AcDbLine
 10
1084.588623
 20
545.967407
 30
0.0
 11
1084.588623
 21
548.967407
 31
0.0
210
0.0
220
0.0
230
1.0
  0
LINE
  5
63
100
AcDbEntity
  8
0
 62
     7
 48
0.130914
100
AcDbLine
 10
1084.588623
 20
545.967407
 30
0.0
 11
1079.352051
 21
545.967407
 31
0.0
210
0.0
220
0.0
230
1.0
  0
ARC
  5
64
100
AcDbEntity
  8
0
 62
     7
100
AcDbCircle
 10
960.491882
 20
562.467407
 30
0.0
 40
120.0
210
0.0
220
0.0
230
1.0
100
AcDbArc
 50
346.260965
 51
352.096792
  0
LINE
  5
65
100
AcDbEntity
  8
0
 62
     7
 48
0.119504
100
AcDbLine
 10
1081.838501
 20
533.967407
 30
0.0
 11
1077.05835
 21
533.967407
 31
0.0
210
0.0
220
0.0
230
1.0
  0
LINE
  5
66
100
AcDbEntity
  8
0
 62
     7
 48
0.075
100
AcDbLine
 10
1081.838501
 20
530.967407
 30
0.0
 11
1081.838501
 21
533.967407
 31
0.0
210
0.0
220
0.0
230
1.0
  0
LINE
  5
67
100
AcDbEntity
  8
0
 62
     7
 48
0.13887
100
AcDbLine
 10
1076.283691
 20
530.967407
 30
0.0
 11
1081.838501
 21
530.967407
 31
0.0
210
0.0
220
0.0
230
1.0
  0
ARC
  5
68
100
AcDbEntity
  8
0
 62
     7
100
AcDbCircle
 10
960.491882
 20
562.467407
 30
0.0
 40
120.0
210
0.0
220
0.0
230
1.0
100
AcDbArc
 50
338.74619
 51
344.781545
  0
LINE
  5
69
100
AcDbEntity
  8
0
 62
     7
 48
0.119525
100
AcDbLine
 10
1077.110962
 20
518.967407
 30
0.0
 11
1072.329956
 21
518.967407
 31
0.0
210
0.0
220
0.0
230
1.0
  0
LINE
  5
6A
100
AcDbEntity
  8
0
 62
     7
 48
0.075
100
AcDbLine
 10
1077.110962
 20
515.967407
 30
0.0
 11
1077.110962
 21
518.967407
 31
0.0
210
0.0
220
0.0
230
1.0
  0
LINE
  5
6B
100
AcDbEntity
  8
0
 62
     7
 48
0.149869
100
AcDbLine
 10
1071.116211
 20
515.967407
 30
0.0
 11
1077.110962
 21
515.967407
 31
0.0
210
0.0
220
0.0
230
1.0
  0
ARC
  5
6C
100
AcDbEntity
  8
0
 62
     7
100
AcDbCircle
 10
960.491882
 20
562.467407
 30
0.0
 40
120.0
210
0.0
220
0.0
230
1.0
100
AcDbArc
 50
330.823604
 51
337.200969
  0
LINE
  5
6D
100
AcDbEntity
  8
0
 62
     7
 48
0.122095
100
AcDbLine
 10
1070.150391
 20
503.967407
 30
0.0
 11
1065.266602
 21
503.967407
 31
0.0
210
0.0
220
0.0
230
1.0
  0
LINE
  5
6E
100
AcDbEntity
  8
0
 62
     7
 48
0.075
100
AcDbLine
 10
1070.150391
 20
500.967407
 30
0.0
 11
1070.150391
 21
503.967407
 31
0.0
210
0.0
220
0.0
230
1.0
  0
LINE
  5
6F
100
AcDbEntity
  8
0
 62
     7
 48
0.165402
100
AcDbLine
 10
1063.534302
 20
500.967407
 30
0.0
 11
1070.150391
 21
500.967407
 31
0.0
210
0.0
220
0.0
230
1.0
  0
ARC
  5
70
100
AcDbEntity
  8
0
 62
     7
100
AcDbCircle
 10
960.491882
 20
562.467407
 30
0.0
 40
120.0
210
0.0
220
0.0
230
1.0
100
AcDbArc
 50
322.229512
 51
329.169503
  0
LINE
  5
71
100
AcDbEntity
  8
0
 62
     7
 48
0.128589
100
AcDbLine
 10
1060.491943
 20
488.967407
 30
0.0
 11
1055.348389
 21
488.967407
 31
0.0
210
0.0
220
0.0
230
1.0
  0
LINE
  5
72
100
AcDbEntity
  8
0
 62
     7
 48
0.075
100
AcDbLine
 10
1060.491943
 20
485.967407
 30
0.0
 11
1060.491943
 21
488.967407
 31
0.0
210
0.0
220
0.0
230
1.0
  0
LINE
  5
73
100
AcDbEntity
  8
0
 62
     7
 48
0.188651
100
AcDbLine
 10
1052.945923
 20
485.967407
 30
0.0
 11
1060.491943
 21
485.967407
 31
0.0
210
0.0
220
0.0
230
1.0
  0
ARC
  5
74
100
AcDbEntity
  8
0
 62
     7
100
AcDbCircle
 10
960.491882
 20
562.467407
 30
0.0
 40
120.0
210
0.0
220
0.0
230
1.0
100
AcDbArc
 50
312.481114
 51
320.394349
  0
LINE
  5
75
100
AcDbEntity
  8
0
 62
     7
 48
0.142627
100
AcDbLine
 10
1047.238647
 20
473.967407
 30
0.0
 11
1041.533569
 21
473.967407
 31
0.0
210
0.0
220
0.0
230
1.0
  0
LINE
  5
76
100
AcDbEntity
  8
0
 62
     7
 48
0.075
100
AcDbLine
 10
1047.238647
 20
470.967407
 30
0.0
 11
1047.238647
 21
473.967407
 31
0.0
210
0.0
220
0.0
230
1.0
  0
LINE
  5
77
100
AcDbEntity
  8
0
 62
     7
 48
0.227704
100
AcDbLine
 10
1047.238647
 20
470.967407
 30
0.0
 11
1038.130493
 21
470.967407
 31
0.0
210
0.0
220
0.0
230
1.0
  0
ARC
  5
78
100
AcDbEntity
  8
0
 62
     7
100
AcDbCircle
 10
960.491882
 20
562.467407
 30
0.0
 40
120.0
210
0.0
220
0.0
230
1.0
100
AcDbArc
 50
300.401545
 51
310.314909
  0
LINE
  5
79
100
AcDbEntity
  8
0
 62
     7
 48
0.177411
100
AcDbLine
 10
1021.21875
 20
458.967407
 30
0.0
 11
1028.315186
 21
458.967407
 31
0.0
210
0.0
220
0.0
230
1.0
  0
LINE
  5
7A
100
AcDbEntity
  8
0
 62
     7
 48
0.075
100
AcDbLine
 10
1028.315186
 20
458.967407
 30
0.0
 11
1028.315186
 21
455.967407
 31
0.0
210
0.0
220
0.0
230
1.0
  0
LINE
  5
7B
100
AcDbEntity
  8
0
 62
     7
 48
0.313159
100
AcDbLine
 10
1028.315186
 20
455.967407
 30
0.0
 11
1015.788818
 21
455.967407
 31
0.0
210
0.0
220
0.0
230
1.0
  0
ARC
  5
7C
100
AcDbEntity
  8
0
 62
     7
100
AcDbCircle
 10
960.491882
 20
562.467407
 30
0.0
 40
120.0
210
0.0
220
0.0
230
1.0
100
AcDbArc
 50
286.957766
 51
297.439237
  0
LINE
  5
7D
100
AcDbEntity
  8
0
 62
     7
 48
0.09294
100
AcDbLine
 10
995.491882
 20
443.967407
 30
0.0
 11
995.491882
 21
447.684998
 31
0.0
210
0.0
220
0.0
230
1.0
  0
LINE
  5
7E
100
AcDbEntity
  8
0
 62
     7
 48
0.075
100
AcDbLine
 10
995.491882
 20
443.967407
 30
0.0
 11
995.491882
 21
440.967407
 31
0.0
210
0.0
220
0.0
230
1.0
  0
LINE
  5
7F
100
AcDbEntity
  8
0
 62
     7
 48
0.295157
100
AcDbLine
 10
995.491882
 20
440.967407
 30
0.0
 11
983.685608
 21
440.967407
 31
0.0
210
0.0
220
0.0
230
1.0
  0
ARC
  5
80
100
AcDbEntity
  8
0
 62
     7
100
AcDbCircle
 10
1015.550049
 20
423.394714
 30
0.0
 40
36.388778
210
0.0
220
0.0
230
1.0
100
AcDbArc
 50
151.124001
 51
269.999997
  0
LINE
  5
81
100
AcDbEntity
  8
0
 62
     7
100
AcDbLine
 10
1015.550049
 20
387.00592
 30
0.0
 11
1057.234253
 21
387.00592
 31
0.0
210
0.0
220
0.0
230
1.0
  0
LINE
  5
82
100
AcDbEntity
  8
0
 62
     7
 48
0.050102
100
AcDbLine
 10
1057.234253
 20
389.01001
 30
0.0
 11
1057.234253
 21
387.00592
 31
0.0
210
0.0
220
0.0
230
1.0
  0
ARC
  5
83
100
AcDbEntity
  8
0
 62
     7
100
AcDbCircle
 10
1049.234253
 20
389.01001
 30
0.0
 40
8.0
210
0.0
220
0.0
230
1.0
100
AcDbArc
 50
0.0
 51
72.379405
  0
LINE
  5
84
100
AcDbEntity
  8
0
 62
     7
100
AcDbLine
 10
1051.656006
 20
396.634644
 30
0.0
 11
1011.138062
 21
409.503723
 31
0.0
210
0.0
220
0.0
230
1.0
  0
ARC
  5
85
100
AcDbEntity
  8
0
 62
     7
100
AcDbCircle
 10
1015.550049
 20
423.394714
 30
0.0
 40
14.574802
210
0.0
220
0.0
230
1.0
100
AcDbArc
 50
111.598358
 51
252.3794
  0
ARC
  5
86
100
AcDbEntity
  8
0
 62
     7
100
AcDbCircle
 10
1031.011597
 20
227.01059
 30
0.0
 40
135.0
210
0.0
220
0.0
230
1.0
100
AcDbArc
 50
291.59836
 51
40.730887
  0
ARC
  5
87
100
AcDbEntity
  8
0
 62
     7
100
AcDbCircle
 10
1060.451172
 20
252.360291
 30
0.0
 40
96.150294
210
0.0
220
0.0
230
1.0
100
AcDbArc
 50
40.730887
 51
86.684738
  0
LINE
  5
88
100
AcDbEntity
  8
0
 62
     7
 48
0.070977
100
AcDbLine
 10
1066.011597
 20
345.51059
 30
0.0
 11
1066.011597
 21
348.34967
 31
0.0
210
0.0
220
0.0
230
1.0
  0
LINE
  5
89
100
AcDbEntity
  8
0
 62
     7
 48
0.402142
100
AcDbLine
 10
1049.925903
 20
345.51059
 30
0.0
 11
1066.011597
 21
345.51059
 31
0.0
210
0.0
220
0.0
230
1.0
  0
ARC
  5
8A
100
AcDbEntity
  8
0
 62
     7
100
AcDbCircle
 10
1031.011597
 20
227.01059
 30
0.0
 40
120.0
210
0.0
220
0.0
230
1.0
100
AcDbArc
 50
62.560763
 51
80.93128
  0
LINE
  5
8B
100
AcDbEntity
  8
0
 62
     7
 48
0.313162
100
AcDbLine
 10
1098.834961
 20
333.51059
 30
0.0
 11
1086.308472
 21
333.51059
 31
0.0
210
0.0
220
0.0
230
1.0
  0
LINE
  5
8C
100
AcDbEntity
  8
0
 62
     7
 48
0.075
100
AcDbLine
 10
1098.834961
 20
330.51059
 30
0.0
 11
1098.834961
 21
333.51059
 31
0.0
210
0.0
220
0.0
230
1.0
  0
LINE
  5
8D
100
AcDbEntity
  8
0
 62
     7
 48
0.177414
100
AcDbLine
 10
1091.738403
 20
330.51059
 30
0.0
 11
1098.834961
 21
330.51059
 31
0.0
210
0.0
220
0.0
230
1.0
  0
ARC
  5
8E
100
AcDbEntity
  8
0
 62
     7
100
AcDbCircle
 10
1031.011597
 20
227.01059
 30
0.0
 40
120.0
210
0.0
220
0.0
230
1.0
100
AcDbArc
 50
49.685091
 51
59.598455
  0
LINE
  5
8F
100
AcDbEntity
  8
0
 62
     7
 48
0.227704
100
AcDbLine
 10
1117.758301
 20
318.51059
 30
0.0
 11
1108.650146
 21
318.51059
 31
0.0
210
0.0
220
0.0
230
1.0
  0
LINE
  5
90
100
AcDbEntity
  8
0
 62
     7
 48
0.075
100
AcDbLine
 10
1117.758301
 20
315.51059
 30
0.0
 11
1117.758301
 21
318.51059
 31
0.0
210
0.0
220
0.0
230
1.0
  0
LINE
  5
91
100
AcDbEntity
  8
0
 62
     7
 48
0.142627
100
AcDbLine
 10
1112.053223
 20
315.51059
 30
0.0
 11
1117.758301
 21
315.51059
 31
0.0
210
0.0
220
0.0
230
1.0
  0
ARC
  5
92
100
AcDbEntity
  8
0
 62
     7
100
AcDbCircle
 10
1031.011597
 20
227.01059
 30
0.0
 40
120.0
210
0.0
220
0.0
230
1.0
100
AcDbArc
 50
39.605651
 51
47.518886
  0
LINE
  5
93
100
AcDbEntity
  8
0
 62
     7
 48
0.188651
100
AcDbLine
 10
1131.011597
 20
303.51059
 30
0.0
 11
1123.465576
 21
303.51059
 31
0.0
210
0.0
220
0.0
230
1.0
  0
LINE
  5
94
100
AcDbEntity
  8
0
 62
     7
 48
0.075
100
AcDbLine
 10
1131.011597
 20
300.51059
 30
0.0
 11
1131.011597
 21
303.51059
 31
0.0
210
0.0
220
0.0
230
1.0
  0
LINE
  5
95
100
AcDbEntity
  8
0
 62
     7
 48
0.128589
100
AcDbLine
 10
1125.868042
 20
300.51059
 30
0.0
 11
1131.011597
 21
300.51059
 31
0.0
210
0.0
220
0.0
230
1.0
  0
ARC
  5
96
100
AcDbEntity
  8
0
 62
     7
100
AcDbCircle
 10
1031.011597
 20
227.01059
 30
0.0
 40
120.0
210
0.0
220
0.0
230
1.0
100
AcDbArc
 50
30.830497
 51
37.770488
  0
LINE
  5
97
100
AcDbEntity
  8
0
 62
     7
 48
0.165402
100
AcDbLine
 10
1140.670166
 20
288.51059
 30
0.0
 11
1134.054077
 21
288.51059
 31
0.0
210
0.0
220
0.0
230
1.0
  0
LINE
  5
98
100
AcDbEntity
  8
0
 62
     7
 48
0.075
100
AcDbLine
 10
1140.670166
 20
285.51059
 30
0.0
 11
1140.670166
 21
288.51059
 31
0.0
210
0.0
220
0.0
230
1.0
  0
LINE
  5
99
100
AcDbEntity
  8
0
 62
     7
 48
0.122095
100
AcDbLine
 10
1135.786377
 20
285.51059
 30
0.0
 11
1140.670166
 21
285.51059
 31
0.0
210
0.0
220
0.0
230
1.0
  0
ARC
  5
9A
100
AcDbEntity
  8
0
 62
     7
100
AcDbCircle
 10
1031.011597
 20
227.01059
 30
0.0
 40
120.0
210
0.0
220
0.0
230
1.0
100
AcDbArc
 50
22.799031
 51
29.176396
  0
LINE
  5
9B
100
AcDbEntity
  8
0
 62
     7
 48
0.149866
100
AcDbLine
 10
1147.630615
 20
273.51059
 30
0.0
 11
1141.635986
 21
273.51059
 31
0.0
210
0.0
220
0.0
230
1.0
  0
LINE
  5
9C
100
AcDbEntity
  8
0
 62
     7
 48
0.075
100
AcDbLine
 10
1147.630615
 20
270.51059
 30
0.0
 11
1147.630615
 21
273.51059
 31
0.0
210
0.0
220
0.0
230
1.0
  0
LINE
  5
9D
100
AcDbEntity
  8
0
 62
     7
 48
0.119525
100
AcDbLine
 10
1142.849609
 20
270.51059
 30
0.0
 11
1147.630615
 21
270.51059
 31
0.0
210
0.0
220
0.0
230
1.0
  0
ARC
  5
9E
100
AcDbEntity
  8
0
 62
     7
100
AcDbCircle
 10
1031.011597
 20
227.01059
 30
0.0
 40
120.0
210
0.0
220
0.0
230
1.0
100
AcDbArc
 50
15.218455
 51
21.25381
  0
LINE
  5
9F
100
AcDbEntity
  8
0
 62
     7
 48
0.138867
100
AcDbLine
 10
1152.358154
 20
258.51059
 30
0.0
 11
1146.803467
 21
258.51059
 31
0.0
210
0.0
220
0.0
230
1.0
  0
LINE
  5
A0
100
AcDbEntity
  8
0
 62
     7
 48
0.075
100
AcDbLine
 10
1152.358154
 20
255.51059
 30
0.0
 11
1152.358154
 21
258.51059
 31
0.0
210
0.0
220
0.0
230
1.0
  0
LINE
  5
A1
100
AcDbEntity
  8
0
 62
     7
 48
0.119501
100
AcDbLine
 10
1147.578125
 20
255.51059
 30
0.0
 11
1152.358154
 21
255.51059
 31
0.0
210
0.0
220
0.0
230
1.0
  0
ARC
  5
A2
100
AcDbEntity
  8
0
 62
     7
100
AcDbCircle
 10
1031.011597
 20
227.01059
 30
0.0
 40
120.0
210
0.0
220
0.0
230
1.0
100
AcDbArc
 50
7.903208
 51
13.739035
  0
LINE
  5
A3
100
AcDbEntity
  8
0
 62
     7
 48
0.130911
100
AcDbLine
 10
1155.108276
 20
243.51059
 30
0.0
 11
1149.871826
 21
243.51059
 31
0.0
210
0.0
220
0.0
230
1.0
  0
LINE
  5
A4
100
AcDbEntity
  8
0
 62
     7
 48
0.075
100
AcDbLine
 10
1155.108276
 20
240.51059
 30
0.0
 11
1155.108276
 21
243.51059
 31
0.0
210
0.0
220
0.0
230
1.0
  0
LINE
  5
A5
100
AcDbEntity
  8
0
 62
     7
 48
0.121463
100
AcDbLine
 10
1150.249756
 20
240.51059
 30
0.0
 11
1155.108276
 21
240.51059
 31
0.0
210
0.0
220
0.0
230
1.0
  0
ARC
  5
A6
100
AcDbEntity
  8
0
 62
     7
100
AcDbCircle
 10
1031.011597
 20
227.01059
 30
0.0
 40
120.0
210
0.0
220
0.0
230
1.0
100
AcDbArc
 50
0.716216
 51
6.459449
  0
LINE
  5
A7
100
AcDbEntity
  8
0
 62
     7
 48
0.125235
100
AcDbLine
 10
1156.011597
 20
228.51059
 30
0.0
 11
1151.002197
 21
228.51059
 31
0.0
210
0.0
220
0.0
230
1.0
  0
LINE
  5
A8
100
AcDbEntity
  8
0
 62
     7
 48
0.075
100
AcDbLine
 10
1156.011597
 20
225.51059
 30
0.0
 11
1156.011597
 21
228.51059
 31
0.0
210
0.0
220
0.0
230
1.0
  0
LINE
  5
A9
100
AcDbEntity
  8
0
 62
     7
 48
0.125235
100
AcDbLine
 10
1151.002197
 20
225.51059
 30
0.0
 11
1156.011597
 21
225.51059
 31
0.0
210
0.0
220
0.0
230
1.0
  0
ARC
  5
AA
100
AcDbEntity
  8
0
 62
     7
100
AcDbCircle
 10
1031.011597
 20
227.01059
 30
0.0
 40
120.0
210
0.0
220
0.0
230
1.0
100
AcDbArc
 50
353.540551
 51
359.283784
  0
LINE
  5
AB
100
AcDbEntity
  8
0
 62
     7
 48
0.121463
100
AcDbLine
 10
1155.108276
 20
213.51059
 30
0.0
 11
1150.249756
 21
213.51059
 31
0.0
210
0.0
220
0.0
230
1.0
  0
LINE
  5
AC
100
AcDbEntity
  8
0
 62
     7
 48
0.075
100
AcDbLine
 10
1155.108276
 20
210.51059
 30
0.0
 11
1155.108276
 21
213.51059
 31
0.0
210
0.0
220
0.0
230
1.0
  0
LINE
  5
AD
100
AcDbEntity
  8
0
 62
     7
 48
0.130911
100
AcDbLine
 10
1155.108276
 20
210.51059
 30
0.0
 11
1149.871826
 21
210.51059
 31
0.0
210
0.0
220
0.0
230
1.0
  0
ARC
  5
AE
100
AcDbEntity
  8
0
 62
     7
100
AcDbCircle
 10
1031.011597
 20
227.01059
 30
0.0
 40
120.0
210
0.0
220
0.0
230
1.0
100
AcDbArc
 50
346.260965
 51
352.096792
  0
LINE
  5
AF
100
AcDbEntity
  8
0
 62
     7
 48
0.119501
100
AcDbLine
 10
1152.358154
 20
198.51059
 30
0.0
 11
1147.578125
 21
198.51059
 31
0.0
210
0.0
220
0.0
230
1.0
  0
LINE
  5
B0
100
AcDbEntity
  8
0
 62
     7
 48
0.075
100
AcDbLine
 10
1152.358154
 20
195.51059
 30
0.0
 11
1152.358154
 21
198.51059
 31
0.0
210
0.0
220
0.0
230
1.0
  0
LINE
  5
B1
100
AcDbEntity
  8
0
 62
     7
 48
0.138867
100
AcDbLine
 10
1146.803467
 20
195.51059
 30
0.0
 11
1152.358154
 21
195.51059
 31
0.0
210
0.0
220
0.0
230
1.0
  0
ARC
  5
B2
100
AcDbEntity
  8
0
 62
     7
100
AcDbCircle
 10
1031.011597
 20
227.01059
 30
0.0
 40
120.0
210
0.0
220
0.0
230
1.0
100
AcDbArc
 50
338.74619
 51
344.781545
  0
LINE
  5
B3
100
AcDbEntity
  8
0
 62
     7
 48
0.119525
100
AcDbLine
 10
1147.630615
 20
183.51059
 30
0.0
 11
1142.849609
 21
183.51059
 31
0.0
210
0.0
220
0.0
230
1.0
  0
LINE
  5
B4
100
AcDbEntity
  8
0
 62
     7
 48
0.075
100
AcDbLine
 10
1147.630615
 20
180.51059
 30
0.0
 11
1147.630615
 21
183.51059
 31
0.0
210
0.0
220
0.0
230
1.0
  0
LINE
  5
B5
100
AcDbEntity
  8
0
 62
     7
 48
0.149866
100
AcDbLine
 10
1141.635986
 20
180.51059
 30
0.0
 11
1147.630615
 21
180.51059
 31
0.0
210
0.0
220
0.0
230
1.0
  0
ARC
  5
B6
100
AcDbEntity
  8
0
 62
     7
100
AcDbCircle
 10
1031.011597
 20
227.01059
 30
0.0
 40
120.0
210
0.0
220
0.0
230
1.0
100
AcDbArc
 50
330.823604
 51
337.200969
  0
LINE
  5
B7
100
AcDbEntity
  8
0
 62
     7
 48
0.122095
100
AcDbLine
 10
1140.670166
 20
168.51059
 30
0.0
 11
1135.786377
 21
168.51059
 31
0.0
210
0.0
220
0.0
230
1.0
  0
LINE
  5
B8
100
AcDbEntity
  8
0
 62
     7
 48
0.075
100
AcDbLine
 10
1140.670166
 20
165.51059
 30
0.0
 11
1140.670166
 21
168.51059
 31
0.0
210
0.0
220
0.0
230
1.0
  0
LINE
  5
B9
100
AcDbEntity
  8
0
 62
     7
 48
0.165402
100
AcDbLine
 10
1134.054077
 20
165.51059
 30
0.0
 11
1140.670166
 21
165.51059
 31
0.0
210
0.0
220
0.0
230
1.0
  0
ARC
  5
BA
100
AcDbEntity
  8
0
 62
     7
100
AcDbCircle
 10
1031.011597
 20
227.01059
 30
0.0
 40
120.0
210
0.0
220
0.0
230
1.0
100
AcDbArc
 50
322.229512
 51
329.169503
  0
LINE
  5
BB
100
AcDbEntity
  8
0
 62
     7
 48
0.128589
100
AcDbLine
 10
1131.011597
 20
153.51059
 30
0.0
 11
1125.868042
 21
153.51059
 31
0.0
210
0.0
220
0.0
230
1.0
  0
LINE
  5
BC
100
AcDbEntity
  8
0
 62
     7
 48
0.075
100
AcDbLine
 10
1131.011597
 20
150.51059
 30
0.0
 11
1131.011597
 21
153.51059
 31
0.0
210
0.0
220
0.0
230
1.0
  0
LINE
  5
BD
100
AcDbEntity
  8
0
 62
     7
 48
0.188651
100
AcDbLine
 10
1123.465576
 20
150.51059
 30
0.0
 11
1131.011597
 21
150.51059
 31
0.0
210
0.0
220
0.0
230
1.0
  0
ARC
  5
BE
100
AcDbEntity
  8
0
 62
     7
100
AcDbCircle
 10
1031.011597
 20
227.01059
 30
0.0
 40
120.0
210
0.0
220
0.0
230
1.0
100
AcDbArc
 50
312.481114
 51
320.394349
  0
LINE
  5
BF
100
AcDbEntity
  8
0
 62
     7
 48
0.142627
100
AcDbLine
 10
1117.758301
 20
138.51059
 30
0.0
 11
1112.053223
 21
138.51059
 31
0.0
210
0.0
220
0.0
230
1.0
  0
LINE
  5
C0
100
AcDbEntity
  8
0
 62
     7
 48
0.075
100
AcDbLine
 10
1117.758301
 20
135.51059
 30
0.0
 11
1117.758301
 21
138.51059
 31
0.0
210
0.0
220
0.0
230
1.0
  0
LINE
  5
C1
100
AcDbEntity
  8
0
 62
     7
 48
0.227704
100
AcDbLine
 10
1117.758301
 20
135.51059
 30
0.0
 11
1108.650146
 21
135.51059
 31
0.0
210
0.0
220
0.0
230
1.0
  0
ARC
  5
C2
100
AcDbEntity
  8
0
 62
     7
100
AcDbCircle
 10
1031.011597
 20
227.01059
 30
0.0
 40
120.0
210
0.0
220
0.0
230
1.0
100
AcDbArc
 50
300.401545
 51
310.314909
  0
LINE
  5
C3
100
AcDbEntity
  8
0
 62
     7
 48
0.177414
100
AcDbLine
 10
1091.738403
 20
123.51059
 30
0.0
 11
1098.834961
 21
123.51059
 31
0.0
210
0.0
220
0.0
230
1.0
  0
LINE
  5
C4
100
AcDbEntity
  8
0
 62
     7
 48
0.075
100
AcDbLine
 10
1098.834961
 20
123.51059
 30
0.0
 11
1098.834961
 21
120.51059
 31
0.0
210
0.0
220
0.0
230
1.0
  0
LINE
  5
C5
100
AcDbEntity
  8
0
 62
     7
 48
0.313162
100
AcDbLine
 10
1098.834961
 20
120.51059
 30
0.0
 11
1086.308472
 21
120.51059
 31
0.0
210
0.0
220
0.0
230
1.0
  0
ARC
  5
C6
100
AcDbEntity
  8
0
 62
     7
100
AcDbCircle
 10
1031.011597
 20
227.01059
 30
0.0
 40
120.0
210
0.0
220
0.0
230
1.0
100
AcDbArc
 50
286.957766
 51
297.439237
  0
LINE
  5
C7
100
AcDbEntity
  8
0
 62
     7
 48
0.09294
100
AcDbLine
 10
1066.011597
 20
108.51059
 30
0.0
 11
1066.011597
 21
112.228188
 31
0.0
210
0.0
220
0.0
230
1.0
  0
LINE
  5
C8
100
AcDbEntity
  8
0
 62
     7
 48
0.075
100
AcDbLine
 10
1066.011597
 20
108.51059
 30
0.0
 11
1066.011597
 21
105.51059
 31
0.0
210
0.0
220
0.0
230
1.0
  0
LINE
  5
C9
100
AcDbEntity
  8
0
 62
     7
 48
0.295157
100
AcDbLine
 10
1066.011597
 20
105.51059
 30
0.0
 11
1054.205322
 21
105.51059
 31
0.0
210
0.0
220
0.0
230
1.0
  0
ARC
  5
CA
100
AcDbEntity
  8
0
 62
     7
100
AcDbCircle
 10
1086.069824
 20
87.937881
 30
0.0
 40
36.388778
210
0.0
220
0.0
230
1.0
100
AcDbArc
 50
151.124001
 51
269.999997
  0
LINE
  5
CB
100
AcDbEntity
  8
0
 62
     7
100
AcDbLine
 10
1086.069824
 20
51.549103
 30
0.0
 11
1127.754028
 21
51.549103
 31
0.0
210
0.0
220
0.0
230
1.0
  0
LINE
  5
CC
100
AcDbEntity
  8
0
 62
     7
 48
0.050102
100
AcDbLine
 10
1127.754028
 20
53.553177
 30
0.0
 11
1127.754028
 21
51.549103
 31
0.0
210
0.0
220
0.0
230
1.0
  0
ARC
  5
CD
100
AcDbEntity
  8
0
 62
     7
100
AcDbCircle
 10
1119.754028
 20
53.553177
 30
0.0
 40
8.0
210
0.0
220
0.0
230
1.0
100
AcDbArc
 50
0.0
 51
72.379405
  0
LINE
  5
CE
100
AcDbEntity
  8
0
 62
     7
100
AcDbLine
 10
1122.175659
 20
61.177826
 30
0.0
 11
1081.657837
 21
74.046906
 31
0.0
210
0.0
220
0.0
230
1.0
  0
ARC
  5
CF
100
AcDbEntity
  8
0
 62
     7
100
AcDbCircle
 10
1086.069824
 20
87.937881
 30
0.0
 40
14.574802
210
0.0
220
0.0
230
1.0
100
AcDbArc
 50
111.598358
 51
252.3794
  0
ARC
  5
D0
100
AcDbEntity
  8
0
 62
     7
100
AcDbCircle
 10
1049.514404
 20
562.334656
 30
0.0
 40
135.0
210
0.0
220
0.0
230
1.0
100
AcDbArc
 50
291.59836
 51
40.730887
  0
ARC
  5
D1
100
AcDbEntity
  8
0
 62
     7
100
AcDbCircle
 10
1078.953979
 20
587.684387
 30
0.0
 40
96.150294
210
0.0
220
0.0
230
1.0
100
AcDbArc
 50
40.730887
 51
86.684738
  0
LINE
  5
D2
100
AcDbEntity
  8
0
 62
     7
 48
0.070978
100
AcDbLine
 10
1084.514404
 20
680.834656
 30
0.0
 11
1084.514404
 21
683.673767
 31
0.0
210
0.0
220
0.0
230
1.0
  0
LINE
  5
D3
100
AcDbEntity
  8
0
 62
     7
 48
0.402142
100
AcDbLine
 10
1068.428711
 20
680.834656
 30
0.0
 11
1084.514404
 21
680.834656
 31
0.0
210
0.0
220
0.0
230
1.0
  0
ARC
  5
D4
100
AcDbEntity
  8
0
 62
     7
100
AcDbCircle
 10
1049.514404
 20
562.334656
 30
0.0
 40
120.0
210
0.0
220
0.0
230
1.0
100
AcDbArc
 50
62.560763
 51
80.93128
  0
LINE
  5
D5
100
AcDbEntity
  8
0
 62
     7
 48
0.313159
100
AcDbLine
 10
1117.337646
 20
668.834656
 30
0.0
 11
1104.811279
 21
668.834656
 31
0.0
210
0.0
220
0.0
230
1.0
  0
LINE
  5
D6
100
AcDbEntity
  8
0
 62
     7
 48
0.075
100
AcDbLine
 10
1117.337646
 20
665.834656
 30
0.0
 11
1117.337646
 21
668.834656
 31
0.0
210
0.0
220
0.0
230
1.0
  0
LINE
  5
D7
100
AcDbEntity
  8
0
 62
     7
 48
0.177411
100
AcDbLine
 10
1110.241211
 20
665.834656
 30
0.0
 11
1117.337646
 21
665.834656
 31
0.0
210
0.0
220
0.0
230
1.0
  0
ARC
  5
D8
100
AcDbEntity
  8
0
 62
     7
100
AcDbCircle
 10
1049.514404
 20
562.334656
 30
0.0
 40
120.0
210
0.0
220
0.0
230
1.0
100
AcDbArc
 50
49.685091
 51
59.598455
  0
LINE
  5
D9
100
AcDbEntity
  8
0
 62
     7
 48
0.227704
100
AcDbLine
 10
1136.261108
 20
653.834656
 30
0.0
 11
1127.152954
 21
653.834656
 31
0.0
210
0.0
220
0.0
230
1.0
  0
LINE
  5
DA
100
AcDbEntity
  8
0
 62
     7
 48
0.075
100
AcDbLine
 10
1136.261108
 20
650.834656
 30
0.0
 11
1136.261108
 21
653.834656
 31
0.0
210
0.0
220
0.0
230
1.0
  0
LINE
  5
DB
100
AcDbEntity
  8
0
 62
     7
 48
0.142627
100
AcDbLine
 10
1130.55603
 20
650.834656
 30
0.0
 11
1136.261108
 21
650.834656
 31
0.0
210
0.0
220
0.0
230
1.0
  0
ARC
  5
DC
100
AcDbEntity
  8
0
 62
     7
100
AcDbCircle
 10
1049.514404
 20
562.334656
 30
0.0
 40
120.0
210
0.0
220
0.0
230
1.0
100
AcDbArc
 50
39.605651
 51
47.518886
  0
LINE
  5
DD
100
AcDbEntity
  8
0
 62
     7
 48
0.188647
100
AcDbLine
 10
1149.514404
 20
638.834656
 30
0.0
 11
1141.968506
 21
638.834656
 31
0.0
210
0.0
220
0.0
230
1.0
  0
LINE
  5
DE
100
AcDbEntity
  8
0
 62
     7
 48
0.075
100
AcDbLine
 10
1149.514404
 20
635.834656
 30
0.0
 11
1149.514404
 21
638.834656
 31
0.0
210
0.0
220
0.0
230
1.0
  0
LINE
  5
DF
100
AcDbEntity
  8
0
 62
     7
 48
0.128589
100
AcDbLine
 10
1144.37085
 20
635.834656
 30
0.0
 11
1149.514404
 21
635.834656
 31
0.0
210
0.0
220
0.0
230
1.0
  0
ARC
  5
E0
100
AcDbEntity
  8
0
 62
     7
100
AcDbCircle
 10
1049.514404
 20
562.334656
 30
0.0
 40
120.0
210
0.0
220
0.0
230
1.0
100
AcDbArc
 50
30.830497
 51
37.770488
  0
LINE
  5
E1
100
AcDbEntity
  8
0
 62
     7
 48
0.165402
100
AcDbLine
 10
1159.172974
 20
623.834656
 30
0.0
 11
1152.556885
 21
623.834656
 31
0.0
210
0.0
220
0.0
230
1.0
  0
LINE
  5
E2
100
AcDbEntity
  8
0
 62
     7
 48
0.075
100
AcDbLine
 10
1159.172974
 20
620.834656
 30
0.0
 11
1159.172974
 21
623.834656
 31
0.0
210
0.0
220
0.0
230
1.0
  0
LINE
  5
E3
100
AcDbEntity
  8
0
 62
     7
 48
0.122095
100
AcDbLine
 10
1154.289185
 20
620.834656
 30
0.0
 11
1159.172974
 21
620.834656
 31
0.0
210
0.0
220
0.0
230
1.0
  0
ARC
  5
E4
100
AcDbEntity
  8
0
 62
     7
100
AcDbCircle
 10
1049.514404
 20
562.334656
 30
0.0
 40
120.0
210
0.0
220
0.0
230
1.0
100
AcDbArc
 50
22.799031
 51
29.176396
  0
LINE
  5
E5
100
AcDbEntity
  8
0
 62
     7
 48
0.149866
100
AcDbLine
 10
1166.133423
 20
608.834656
 30
0.0
 11
1160.138794
 21
608.834656
 31
0.0
210
0.0
220
0.0
230
1.0
  0
LINE
  5
E6
100
AcDbEntity
  8
0
 62
     7
 48
0.075
100
AcDbLine
 10
1166.133423
 20
605.834656
 30
0.0
 11
1166.133423
 21
608.834656
 31
0.0
210
0.0
220
0.0
230
1.0
  0
LINE
  5
E7
100
AcDbEntity
  8
0
 62
     7
 48
0.119525
100
AcDbLine
 10
1161.352417
 20
605.834656
 30
0.0
 11
1166.133423
 21
605.834656
 31
0.0
210
0.0
220
0.0
230
1.0
  0
ARC
  5
E8
100
AcDbEntity
  8
0
 62
     7
100
AcDbCircle
 10
1049.514404
 20
562.334656
 30
0.0
 40
120.0
210
0.0
220
0.0
230
1.0
100
AcDbArc
 50
15.218455
 51
21.25381
  0
LINE
  5
E9
100
AcDbEntity
  8
0
 62
     7
 48
0.138867
100
AcDbLine
 10
1170.860962
 20
593.834656
 30
0.0
 11
1165.306274
 21
593.834656
 31
0.0
210
0.0
220
0.0
230
1.0
  0
LINE
  5
EA
100
AcDbEntity
  8
0
 62
     7
 48
0.075
100
AcDbLine
 10
1170.860962
 20
590.834656
 30
0.0
 11
1170.860962
 21
593.834656
 31
0.0
210
0.0
220
0.0
230
1.0
  0
LINE
  5
EB
100
AcDbEntity
  8
0
 62
     7
 48
0.119501
100
AcDbLine
 10
1166.080933
 20
590.834656
 30
0.0
 11
1170.860962
 21
590.834656
 31
0.0
210
0.0
220
0.0
230
1.0
  0
ARC
  5
EC
100
AcDbEntity
  8
0
 62
     7
100
AcDbCircle
 10
1049.514404
 20
562.334656
 30
0.0
 40
120.0
210
0.0
220
0.0
230
1.0
100
AcDbArc
 50
7.903208
 51
13.739035
  0
LINE
  5
ED
100
AcDbEntity
  8
0
 62
     7
 48
0.130911
100
AcDbLine
 10
1173.611084
 20
578.834656
 30
0.0
 11
1168.374634
 21
578.834656
 31
0.0
210
0.0
220
0.0
230
1.0
  0
LINE
  5
EE
100
AcDbEntity
  8
0
 62
     7
 48
0.075
100
AcDbLine
 10
1173.611084
 20
575.834656
 30
0.0
 11
1173.611084
 21
578.834656
 31
0.0
210
0.0
220
0.0
230
1.0
  0
LINE
  5
EF
100
AcDbEntity
  8
0
 62
     7
 48
0.121463
100
AcDbLine
 10
1168.752563
 20
575.834656
 30
0.0
 11
1173.611084
 21
575.834656
 31
0.0
210
0.0
220
0.0
230
1.0
  0
ARC
  5
F0
100
AcDbEntity
  8
0
 62
     7
100
AcDbCircle
 10
1049.514404
 20
562.334656
 30
0.0
 40
120.0
210
0.0
220
0.0
230
1.0
100
AcDbArc
 50
0.716216
 51
6.459449
  0
LINE
  5
F1
100
AcDbEntity
  8
0
 62
     7
 48
0.125235
100
AcDbLine
 10
1174.514404
 20
563.834656
 30
0.0
 11
1169.505005
 21
563.834656
 31
0.0
210
0.0
220
0.0
230
1.0
  0
LINE
  5
F2
100
AcDbEntity
  8
0
 62
     7
 48
0.075
100
AcDbLine
 10
1174.514404
 20
560.834656
 30
0.0
 11
1174.514404
 21
563.834656
 31
0.0
210
0.0
220
0.0
230
1.0
  0
LINE
  5
F3
100
AcDbEntity
  8
0
 62
     7
 48
0.125235
100
AcDbLine
 10
1169.505005
 20
560.834656
 30
0.0
 11
1174.514404
 21
560.834656
 31
0.0
210
0.0
220
0.0
230
1.0
  0
ARC
  5
F4
100
AcDbEntity
  8
0
 62
     7
100
AcDbCircle
 10
1049.514404
 20
562.334656
 30
0.0
 40
120.0
210
0.0
220
0.0
230
1.0
100
AcDbArc
 50
353.540551
 51
359.283784
  0
LINE
  5
F5
100
AcDbEntity
  8
0
 62
     7
 48
0.121463
100
AcDbLine
 10
1173.611084
 20
548.834656
 30
0.0
 11
1168.752563
 21
548.834656
 31
0.0
210
0.0
220
0.0
230
1.0
  0
LINE
  5
F6
100
AcDbEntity
  8
0
 62
     7
 48
0.075
100
AcDbLine
 10
1173.611084
 20
545.834656
 30
0.0
 11
1173.611084
 21
548.834656
 31
0.0
210
0.0
220
0.0
230
1.0
  0
LINE
  5
F7
100
AcDbEntity
  8
0
 62
     7
 48
0.130911
100
AcDbLine
 10
1173.611084
 20
545.834656
 30
0.0
 11
1168.374634
 21
545.834656
 31
0.0
210
0.0
220
0.0
230
1.0
  0
ARC
  5
F8
100
AcDbEntity
  8
0
 62
     7
100
AcDbCircle
 10
1049.514404
 20
562.334656
 30
0.0
 40
120.0
210
0.0
220
0.0
230
1.0
100
AcDbArc
 50
346.260965
 51
352.096792
  0
LINE
  5
F9
100
AcDbEntity
  8
0
 62
     7
 48
0.119501
100
AcDbLine
 10
1170.860962
 20
533.834656
 30
0.0
 11
1166.080933
 21
533.834656
 31
0.0
210
0.0
220
0.0
230
1.0
  0
LINE
  5
FA
100
AcDbEntity
  8
0
 62
     7
 48
0.075
100
AcDbLine
 10
1170.860962
 20
530.834656
 30
0.0
 11
1170.860962
 21
533.834656
 31
0.0
210
0.0
220
0.0
230
1.0
  0
LINE
  5
FB
100
AcDbEntity
  8
0
 62
     7
 48
0.138867
100
AcDbLine
 10
1165.306274
 20
530.834656
 30
0.0
 11
1170.860962
 21
530.834656
 31
0.0
210
0.0
220
0.0
230
1.0
  0
ARC
  5
FC
100
AcDbEntity
  8
0
 62
     7
100
AcDbCircle
 10
1049.514404
 20
562.334656
 30
0.0
 40
120.0
210
0.0
220
0.0
230
1.0
100
AcDbArc
 50
338.74619
 51
344.781545
  0
LINE
  5
FD
100
AcDbEntity
  8
0
 62
     7
 48
0.119525
100
AcDbLine
 10
1166.133423
 20
518.834656
 30
0.0
 11
1161.352417
 21
518.834656
 31
0.0
210
0.0
220
0.0
230
1.0
  0
LINE
  5
FE
100
AcDbEntity
  8
0
 62
     7
 48
0.075
100
AcDbLine
 10
1166.133423
 20
515.834656
 30
0.0
 11
1166.133423
 21
518.834656
 31
0.0
210
0.0
220
0.0
230
1.0
  0
LINE
  5
FF
100
AcDbEntity
  8
0
 62
     7
 48
0.149866
100
AcDbLine
 10
1160.138794
 20
515.834656
 30
0.0
 11
1166.133423
 21
515.834656
 31
0.0
210
0.0
220
0.0
230
1.0
  0
ARC
  5
100
100
AcDbEntity
  8
0
 62
     7
100
AcDbCircle
 10
1049.514404
 20
562.334656
 30
0.0
 40
120.0
210
0.0
220
0.0
230
1.0
100
AcDbArc
 50
330.823604
 51
337.200969
  0
LINE
  5
101
100
AcDbEntity
  8
0
 62
     7
 48
0.122095
100
AcDbLine
 10
1159.172974
 20
503.834656
 30
0.0
 11
1154.289185
 21
503.834656
 31
0.0
210
0.0
220
0.0
230
1.0
  0
LINE
  5
102
100
AcDbEntity
  8
0
 62
     7
 48
0.075
100
AcDbLine
 10
1159.172974
 20
500.834656
 30
0.0
 11
1159.172974
 21
503.834656
 31
0.0
210
0.0
220
0.0
230
1.0
  0
LINE
  5
103
100
AcDbEntity
  8
0
 62
     7
 48
0.165402
100
AcDbLine
 10
1152.556885
 20
500.834656
 30
0.0
 11
1159.172974
 21
500.834656
 31
0.0
210
0.0
220
0.0
230
1.0
  0
ARC
  5
104
100
AcDbEntity
  8
0
 62
     7
100
AcDbCircle
 10
1049.514404
 20
562.334656
 30
0.0
 40
120.0
210
0.0
220
0.0
230
1.0
100
AcDbArc
 50
322.229512
 51
329.169503
  0
LINE
  5
105
100
AcDbEntity
  8
0
 62
     7
 48
0.128589
100
AcDbLine
 10
1149.514404
 20
488.834656
 30
0.0
 11
1144.37085
 21
488.834656
 31
0.0
210
0.0
220
0.0
230
1.0
  0
LINE
  5
106
100
AcDbEntity
  8
0
 62
     7
 48
0.075
100
AcDbLine
 10
1149.514404
 20
485.834656
 30
0.0
 11
1149.514404
 21
488.834656
 31
0.0
210
0.0
220
0.0
230
1.0
  0
LINE
  5
107
100
AcDbEntity
  8
0
 62
     7
 48
0.188647
100
AcDbLine
 10
1141.968506
 20
485.834656
 30
0.0
 11
1149.514404
 21
485.834656
 31
0.0
210
0.0
220
0.0
230
1.0
  0
ARC
  5
108
100
AcDbEntity
  8
0
 62
     7
100
AcDbCircle
 10
1049.514404
 20
562.334656
 30
0.0
 40
120.0
210
0.0
220
0.0
230
1.0
100
AcDbArc
 50
312.481114
 51
320.394349
  0
LINE
  5
109
100
AcDbEntity
  8
0
 62
     7
 48
0.142627
100
AcDbLine
 10
1136.261108
 20
473.834656
 30
0.0
 11
1130.55603
 21
473.834656
 31
0.0
210
0.0
220
0.0
230
1.0
  0
LINE
  5
10A
100
AcDbEntity
  8
0
 62
     7
 48
0.075
100
AcDbLine
 10
1136.261108
 20
470.834656
 30
0.0
 11
1136.261108
 21
473.834656
 31
0.0
210
0.0
220
0.0
230
1.0
  0
LINE
  5
10B
100
AcDbEntity
  8
0
 62
     7
 48
0.227704
100
AcDbLine
 10
1136.261108
 20
470.834656
 30
0.0
 11
1127.152954
 21
470.834656
 31
0.0
210
0.0
220
0.0
230
1.0
  0
ARC
  5
10C
100
AcDbEntity
  8
0
 62
     7
100
AcDbCircle
 10
1049.514404
 20
562.334656
 30
0.0
 40
120.0
210
0.0
220
0.0
230
1.0
100
AcDbArc
 50
300.401545
 51
310.314909
  0
LINE
  5
10D
100
AcDbEntity
  8
0
 62
     7
 48
0.177411
100
AcDbLine
 10
1110.241211
 20
458.834656
 30
0.0
 11
1117.337646
 21
458.834656
 31
0.0
210
0.0
220
0.0
230
1.0
  0
LINE
  5
10E
100
AcDbEntity
  8
0
 62
     7
 48
0.075
100
AcDbLine
 10
1117.337646
 20
458.834656
 30
0.0
 11
1117.337646
 21
455.834656
 31
0.0
210
0.0
220
0.0
230
1.0
  0
LINE
  5
10F
100
AcDbEntity
  8
0
 62
     7
 48
0.313159
100
AcDbLine
 10
1117.337646
 20
455.834656
 30
0.0
 11
1104.811279
 21
455.834656
 31
0.0
210
0.0
220
0.0
230
1.0
  0
ARC
  5
110
100
AcDbEntity
  8
0
 62
     7
100
AcDbCircle
 10
1049.514404
 20
562.334656
 30
0.0
 40
120.0
210
0.0
220
0.0
230
1.0
100
AcDbArc
 50
286.957766
 51
297.439237
  0
LINE
  5
111
100
AcDbEntity
  8
0
 62
     7
 48
0.09294
100
AcDbLine
 10
1084.514404
 20
443.834656
 30
0.0
 11
1084.514404
 21
447.552246
 31
0.0
210
0.0
220
0.0
230
1.0
  0
LINE
  5
112
100
AcDbEntity
  8
0
 62
     7
 48
0.075
100
AcDbLine
 10
1084.514404
 20
443.834656
 30
0.0
 11
1084.514404
 21
440.834656
 31
0.0
210
0.0
220
0.0
230
1.0
  0
LINE
  5
113
100
AcDbEntity
  8
0
 62
     7
 48
0.295157
100
AcDbLine
 10
1084.514404
 20
440.834656
 30
0.0
 11
1072.70813
 21
440.834656
 31
0.0
210
0.0
220
0.0
230
1.0
  0
ARC
  5
114
100
AcDbEntity
  8
0
 62
     7
100
AcDbCircle
 10
1104.572632
 20
423.261963
 30
0.0
 40
36.388778
210
0.0
220
0.0
230
1.0
100
AcDbArc
 50
151.124001
 51
269.999997
  0
LINE
  5
115
100
AcDbEntity
  8
0
 62
     7
100
AcDbLine
 10
1104.572632
 20
386.873169
 30
0.0
 11
1146.256836
 21
386.873169
 31
0.0
210
0.0
220
0.0
230
1.0
  0
LINE
  5
116
100
AcDbEntity
  8
0
 62
     7
 48
0.050102
100
AcDbLine
 10
1146.256836
 20
388.877258
 30
0.0
 11
1146.256836
 21
386.873169
 31
0.0
210
0.0
220
0.0
230
1.0
  0
ARC
  5
117
100
AcDbEntity
  8
0
 62
     7
100
AcDbCircle
 10
1138.256836
 20
388.877258
 30
0.0
 40
8.0
210
0.0
220
0.0
230
1.0
100
AcDbArc
 50
0.0
 51
72.379405
  0
LINE
  5
118
100
AcDbEntity
  8
0
 62
     7
100
AcDbLine
 10
1140.678467
 20
396.501892
 30
0.0
 11
1100.160645
 21
409.370972
 31
0.0
210
0.0
220
0.0
230
1.0
  0
ARC
  5
119
100
AcDbEntity
  8
0
 62
     7
100
AcDbCircle
 10
1104.572632
 20
423.261963
 30
0.0
 40
14.574802
210
0.0
220
0.0
230
1.0
100
AcDbArc
 50
111.598358
 51
252.3794
  0
CIRCLE
  5
11A
100
AcDbEntity
  8
0
 62
     7
100
AcDbCircle
 10
391.790985
 20
372.825745
 30
0.0
 40
13.5
210
0.0
220
0.0
230
1.0
  0
CIRCLE
  5
11B
100
AcDbEntity
  8
0
 62
     7
100
AcDbCircle
 10
391.790985
 20
372.825745
 30
0.0
 40
35.0
210
0.0
220
0.0
230
1.0
  0
ENDSEC
  0
SECTION
  2
OBJECTS
  0
DICTIONARY
  5
19
100
AcDbDictionary
  3
ACAD_GROUP
350
1A
  3
ACAD_MLINESTYLE
350
1B
  0
DICTIONARY
  5
1A
102
{ACAD_REACTORS
330
19
102
}
100
AcDbDictionary
  0
DICTIONARY
  5
1B
102
{ACAD_REACTORS
330
19
102
}
100
AcDbDictionary
  3
STANDARD
350
1C
  0
MLINESTYLE
  5
1C
102
{ACAD_REACTORS
330
1B
102
}
100
AcDbMlineStyle
  2
STANDARD
 70
     0
  3

 62
     0
 51
90.0
 52
90.0
 71
     2
 49
0.5
 62
   256
  6
BYLAYER
 49
-0.5
 62
   256
  6
BYLAYER
  0
ENDSEC
  0
EOF
