  0
SECTION
  2
HEADER
  9
$ACADVER
  1
AC1015
  9
$ACADMAINTVER
 70
     6
  9
$DWGCODEPAGE
  3
DOS850
  9
$INSBASE
 10
0.0
 20
0.0
 30
0.0
  9
$EXTMIN
 10
-4.23973
 20
-7.00842
 30
1.000000E+20
  9
$EXTMAX
 10
4.24448
 20
7.00165
 30
-1.000000E+20
  9
$LIMMIN
 10
0.0
 20
0.0
  9
$LIMMAX
 10
0.0
 20
0.0
  9
$ORTHOMODE
 70
     0
  9
$REGENMODE
 70
     1
  9
$FILLMODE
 70
     1
  9
$QTEXTMODE
 70
     0
  9
$MIRRTEXT
 70
     1
  9
$LTSCALE
 40
1.0
  9
$ATTMODE
 70
     1
  9
$TEXTSIZE
 40
0.2
  9
$TRACEWID
 40
0.05
  9
$TEXTSTYLE
  7
Standard
  9
$CLAYER
  8
0
  9
$CELTYPE
  6
Continuous
  9
$CECOLOR
 62
   256
  9
$CELTSCALE
 40
1.0
  9
$DISPSILH
 70
     0
  9
$DIMSCALE
 40
1.0
  9
$DIMASZ
 40
0.18
  9
$DIMEXO
 40
0.0625
  9
$DIMDLI
 40
0.38
  9
$DIMRND
 40
0.0
  9
$DIMDLE
 40
0.0
  9
$DIMEXE
 40
0.18
  9
$DIMTP
 40
0.0
  9
$DIMTM
 40
0.0
  9
$DIMTXT
 40
0.18
  9
$DIMCEN
 40
0.09
  9
$DIMTSZ
 40
0.0
  9
$DIMTOL
 70
     0
  9
$DIMLIM
 70
     0
  9
$DIMTIH
 70
     1
  9
$DIMTOH
 70
     1
  9
$DIMSE1
 70
     0
  9
$DIMSE2
 70
     0
  9
$DIMTAD
 70
     0
  9
$DIMZIN
 70
     0
  9
$DIMBLK
  1

  9
$DIMASO
 70
     1
  9
$DIMSHO
 70
     1
  9
$DIMPOST
  1

  9
$DIMAPOST
  1

  9
$DIMALT
 70
     0
  9
$DIMALTD
 70
     2
  9
$DIMALTF
 40
25.4
  9
$DIMLFAC
 40
1.0
  9
$DIMTOFL
 70
     0
  9
$DIMTVP
 40
0.0
  9
$DIMTIX
 70
     0
  9
$DIMSOXD
 70
     0
  9
$DIMSAH
 70
     0
  9
$DIMBLK1
  1

  9
$DIMBLK2
  1

  9
$DIMSTYLE
  2
Standard
  9
$DIMCLRD
 70
     0
  9
$DIMCLRE
 70
     0
  9
$DIMCLRT
 70
     0
  9
$DIMTFAC
 40
1.0
  9
$DIMGAP
 40
0.09
  9
$DIMJUST
 70
     0
  9
$DIMSD1
 70
     0
  9
$DIMSD2
 70
     0
  9
$DIMTOLJ
 70
     1
  9
$DIMTZIN
 70
     0
  9
$DIMALTZ
 70
     0
  9
$DIMALTTZ
 70
     0
  9
$DIMUPT
 70
     0
  9
$DIMDEC
 70
     4
  9
$DIMTDEC
 70
     4
  9
$DIMALTU
 70
     2
  9
$DIMALTTD
 70
     2
  9
$DIMTXSTY
  7
Standard
  9
$DIMAUNIT
 70
     0
  9
$DIMADEC
 70
     0
  9
$DIMALTRND
 40
0.0
  9
$DIMAZIN
 70
     0
  9
$DIMDSEP
 70
     0
  9
$DIMATFIT
 70
     3
  9
$DIMFRAC
 70
     0
  9
$DIMLDRBLK
  1

  9
$DIMLUNIT
 70
     2
  9
$DIMLWD
 70
     0
  9
$DIMLWE
 70
     0
  9
$DIMTMOVE
 70
     0
  9
$LUNITS
 70
     2
  9
$LUPREC
 70
     4
  9
$SKETCHINC
 40
0.1
  9
$FILLETRAD
 40
0.0
  9
$AUNITS
 70
     0
  9
$AUPREC
 70
     0
  9
$MENU
  1
acad
  9
$ELEVATION
 40
0.0
  9
$PELEVATION
 40
0.0
  9
$THICKNESS
 40
0.0
  9
$LIMCHECK
 70
     0
  9
$CHAMFERA
 40
0.0
  9
$CHAMFERB
 40
0.0
  9
$CHAMFERC
 40
0.0
  9
$CHAMFERD
 40
0.0
  9
$SKPOLY
 70
     0
  9
$TDCREATE
 40
0.000000000
  9
$TDUCREATE
 40
0.000000000
  9
$TDUPDATE
 40
0.000000000
  9
$TDUUPDATE
 40
0.000000000
  9
$TDINDWG
 40
0.0000000000
  9
$TDUSRTIMER
 40
0.0000000000
  9
$USRTIMER
 70
     1
  9
$ANGBASE
 50
0.0
  9
$ANGDIR
 70
     0
  9
$PDMODE
 70
     0
  9
$PDSIZE
 40
0.0
  9
$PLINEWID
 40
0.0
  9
$SPLFRAME
 70
     0
  9
$SPLINETYPE
 70
     6
  9
$SPLINESEGS
 70
     8
  9
$HANDSEED
  5
85
  9
$SURFTAB1
 70
     6
  9
$SURFTAB2
 70
     6
  9
$SURFTYPE
 70
     6
  9
$SURFU
 70
     6
  9
$SURFV
 70
     6
  9
$UCSBASE
  2

  9
$UCSNAME
  2

  9
$UCSORG
 10
0.0
 20
0.0
 30
0.0
  9
$UCSXDIR
 10
1.0
 20
0.0
 30
0.0
  9
$UCSYDIR
 10
0.0
 20
1.0
 30
0.0
  9
$UCSORTHOREF
  2

  9
$UCSORTHOVIEW
 70
     0
  9
$UCSORGTOP
 10
0.0
 20
0.0
 30
0.0
  9
$UCSORGBOTTOM
 10
0.0
 20
0.0
 30
0.0
  9
$UCSORGLEFT
 10
0.0
 20
0.0
 30
0.0
  9
$UCSORGRIGHT
 10
0.0
 20
0.0
 30
0.0
  9
$UCSORGFRONT
 10
0.0
 20
0.0
 30
0.0
  9
$UCSORGBACK
 10
0.0
 20
0.0
 30
0.0
  9
$PUCSBASE
  2

  9
$PUCSNAME
  2

  9
$PUCSORG
 10
0.0
 20
0.0
 30
0.0
  9
$PUCSXDIR
 10
1.0
 20
0.0
 30
0.0
  9
$PUCSYDIR
 10
0.0
 20
1.0
 30
0.0
  9
$PUCSORTHOREF
  2

  9
$PUCSORTHOVIEW
 70
     0
  9
$PUCSORGTOP
 10
0.0
 20
0.0
 30
0.0
  9
$PUCSORGBOTTOM
 10
0.0
 20
0.0
 30
0.0
  9
$PUCSORGLEFT
 10
0.0
 20
0.0
 30
0.0
  9
$PUCSORGRIGHT
 10
0.0
 20
0.0
 30
0.0
  9
$PUCSORGFRONT
 10
0.0
 20
0.0
 30
0.0
  9
$PUCSORGBACK
 10
0.0
 20
0.0
 30
0.0
  9
$USERI1
 70
     0
  9
$USERI2
 70
     0
  9
$USERI3
 70
     0
  9
$USERI4
 70
     0
  9
$USERI5
 70
     0
  9
$USERR1
 40
0.0
  9
$USERR2
 40
0.0
  9
$USERR3
 40
0.0
  9
$USERR4
 40
0.0
  9
$USERR5
 40
0.0
  9
$WORLDVIEW
 70
     1
  9
$SHADEDGE
 70
     3
  9
$SHADEDIF
 70
    70
  9
$TILEMODE
 70
     1
  9
$MAXACTVP
 70
    16
  9
$PINSBASE
 10
0.0
 20
0.0
 30
0.0
  9
$PLIMCHECK
 70
     0
  9
$PEXTMIN
 10
1.000000E+20
 20
1.000000E+20
 30
1.000000E+20
  9
$PEXTMAX
 10
-1.000000E+20
 20
-1.000000E+20
 30
-1.000000E+20
  9
$PLIMMIN
 10
0.0
 20
0.0
  9
$PLIMMAX
 10
12.0
 20
9.0
  9
$UNITMODE
 70
     0
  9
$VISRETAIN
 70
     0
  9
$PLINEGEN
 70
     1
  9
$PSLTSCALE
 70
     0
  9
$TREEDEPTH
 70
  3020
  9
$CMLSTYLE
  2
Standard
  9
$CMLJUST
 70
     0
  9
$CMLSCALE
 40
1.0
  9
$PROXYGRAPHICS
 70
     0
  9
$MEASUREMENT
 70
     0
  9
$CELWEIGHT
370
     0
  9
$ENDCAPS
280
     0
  9
$JOINSTYLE
280
     0
  9
$LWDISPLAY
290
     0
  9
$INSUNITS
 70
     5
  9
$HYPERLINKBASE
  1

  9
$XEDIT
290
     1
  9
$CEPSNTYPE
380
     0
  9
$PSTYLEMODE
290
     1
  9
$FINGERPRINTGUID
  2

  9
$VERSIONGUID
  2

  9
$EXTNAMES
290
     1
  9
$PSVPSCALE
 40
0.0
  0
ENDSEC
  0
SECTION
  2
CLASSES
  0
CLASS
  1
LWPOLYLINE
  2
AcDbPolyline
  3
AutoCAD 2000
 90
    32768
280
     0
281
     1
  0
CLASS
  1
IMAGE
  2
AcDbRasterImage
  3
ISM
 90
    32895
280
     0
281
     1
  0
CLASS
  1
OLE2FRAME
  2
AcDbOle2Frame
  3
AutoCAD 2000
 90
    32768
280
     0
281
     1
  0
CLASS
  1
HATCH
  2
AcDbHatch
  3
AutoCAD 2000
 90
    32768
280
     0
281
     1
  0
CLASS
  1
DICTIONARYVAR
  2
AcDbDictionaryVar
  3
AutoCAD 2000
 90
    32768
280
     0
281
     0
  0
CLASS
  1
RASTERVARIABLES
  2
AcDbRasterVariables
  3
ISM
 90
    32768
280
     0
281
     0
  0
CLASS
  1
IMAGEDEF
  2
AcDbRasterImageDef
  3
ISM
 90
    32768
280
     0
281
     0
  0
CLASS
  1
IMAGEDEF_REACTOR
  2
AcDbRasterImageDefReactor
  3
ISM
 90
    32769
280
     0
281
     0
  0
CLASS
  1
IDBUFFER
  2
AcDbIdBuffer
  3
AutoCAD 2000
 90
    32768
280
     0
281
     0
  0
CLASS
  1
SPATIAL_FILTER
  2
AcDbSpatialFilter
  3
AutoCAD 2000
 90
    32768
280
     0
281
     0
  0
CLASS
  1
XRECORD
  2
AcDbXrecord
  3
AutoCAD 2000
 90
    32768
280
     0
281
     0
  0
CLASS
  1
SORTENTSTABLE
  2
AcDbSortentsTable
  3
AutoCAD 2000
 90
    32768
280
     0
281
     0
  0
CLASS
  1
LAYER_INDEX
  2
AcDbLayerIndex
  3
AutoCAD 2000
 90
    32768
280
     0
281
     0
  0
CLASS
  1
SPATIAL_INDEX
  2
AcDbSpatialIndex
  3
AutoCAD 2000
 90
    32768
280
     0
281
     0
  0
CLASS
  1
OBJECT_PTR
  2
CAseDLPNTableRecord
  3
"ASE-LPNTableRecord"
 90
    32769
280
     0
281
     0
  0
CLASS
  1
LAYOUT
  2
AcDbLayout
  3
AutoCAD 2000
 90
        0
280
     0
281
     0
  0
CLASS
  1
PLOTSETTINGS
  2
AcDbPlotSettings
  3
AutoCAD 2000
 90
    32768
280
     0
281
     0
  0
CLASS
  1
ACDBDICTIONARYWDFLT
  2
AcDbDictionaryWithDefault
  3
AutoCAD 2000
 90
        0
280
     0
281
     0
  0
CLASS
  1
ACDBPLACEHOLDER
  2
AcDbPlaceHolder
  3
AutoCAD 2000
 90
        0
280
     0
281
     0
  0
CLASS
  1
VBA_PROJECT
  2
AcDbVbaProject
  3
acadvba
 90
    32768
280
     0
281
     0
  0
CLASS
  1
WIPEOUT
  2
AcDbWipeout
  3
WipeOut|AutoCAD Express Tool|expresstools@autodesk.com
 90
    32895
280
     0
281
     1
  0
CLASS
  1
WIPEOUTVARIABLES
  2
AcDbWipeoutVariables
  3
WipeOut|AutoCAD Express Tool|expresstools@autodesk.com
 90
        0
280
     0
281
     0
  0
CLASS
  1
RTEXT
  2
RText
  3
RText|AutoCAD Express Tool|expresstools@autodesk.com
 90
    32768
280
     0
281
     1
  0
CLASS
  1
ARCALIGNEDTEXT
  2
AcDbArcAlignedText
  3
ATEXT|AutoCAD Express Tool|expresstools@autodesk.com
 90
    32768
280
     0
281
     1
  0
ENDSEC
  0
SECTION
  2
TABLES
  0
TABLE
  2
VPORT
  5
7
100
AcDbSymbolTable
 70
     1
  0
VPORT
  5
15
100
AcDbSymbolTableRecord
100
AcDbViewportTableRecord
  2
*ACTIVE
 70
     0
 10
0.0
 20
0.0
 11
1.0
 21
1.0
 12
6.591288
 22
4.579184
 13
0.0
 23
0.0
 14
1.0
 24
1.0
 15
0.0
 25
0.0
 16
0.0
 26
0.0
 36
1.0
 17
0.0
 27
0.0
 37
0.0
 40
9.158369
 41
0.688564
 42
50.0
 43
0.0
 44
0.0
 50
0.0
 51
0.0
 71
     0
 72
   100
 73
     1
 74
     1
 75
     0
 76
     0
 77
     0
 78
     0
281
     0
 65
     0
110
0.0
120
0.0
130
0.0
111
1.0
121
0.0
131
0.0
112
0.0
122
1.0
132
0.0
345
0
346
0
 79
     0
146
0.0
  0
ENDTAB
  0
TABLE
  2
LTYPE
  5
4
100
AcDbSymbolTable
 70
     3
  0
LTYPE
  5
11
100
AcDbSymbolTableRecord
100
AcDbLinetypeTableRecord
  2
ByBlock
 70
    64
  3

 72
    65
 73
     0
 40
0.0
  0
LTYPE
  5
12
100
AcDbSymbolTableRecord
100
AcDbLinetypeTableRecord
  2
ByLayer
 70
    64
  3

 72
    65
 73
     0
 40
0.0
  0
LTYPE
  5
13
100
AcDbSymbolTableRecord
100
AcDbLinetypeTableRecord
  2
Continuous
 70
    64
  3
Solid line
 72
    65
 73
     0
 40
0.0
  0
ENDTAB
  0
TABLE
  2
LAYER
  5
2
100
AcDbSymbolTable
 70
     2
  0
LAYER
  5
14
100
AcDbSymbolTableRecord
100
AcDbLayerTableRecord
  2
0
 70
     0
 62
     7
  6
Continuous
290
     1
370
    -3
390
1D
  0
LAYER
  5
24
100
AcDbSymbolTableRecord
100
AcDbLayerTableRecord
  2
Ebene 1
 70
     0
 62
     7
  6
Continuous
290
     1
370
    -3
390
1F
  0
ENDTAB
  0
TABLE
  2
STYLE
  5
3
100
AcDbSymbolTable
 70
     1
  0
STYLE
  5
17
100
AcDbSymbolTableRecord
100
AcDbTextStyleTableRecord
  2
Standard
 70
     0
 40
0.0
 41
1.0
 50
0.0
 71
     0
 42
0.0
  3
txt
  4

  0
ENDTAB
  0
TABLE
  2
VIEW
  5
5
100
AcDbSymbolTable
 70
     0
  0
ENDTAB
  0
TABLE
  2
UCS
  5
6
100
AcDbSymbolTable
 70
     0
  0
ENDTAB
  0
TABLE
  2
APPID
  5
8
100
AcDbSymbolTable
 70
     1
  0
APPID
  5
16
100
AcDbSymbolTableRecord
100
AcDbRegAppTableRecord
  2
ACAD
 70
     0
  0
ENDTAB
  0
TABLE
  2
DIMSTYLE
  5
9
100
AcDbSymbolTable
 70
     1
100
AcDbDimStyleTable
 71
     0
  0
DIMSTYLE
105
18
100
AcDbSymbolTableRecord
100
AcDbDimStyleTableRecord
  2
Standard
 70
     0
  3

  4

 40
1.0
 41
0.18
 42
0.0625
 43
0.38
 44
0.18
 45
0.0
 46
0.0
 47
0.0
 48
0.0
 71
     0
 72
     0
 73
     1
 74
     1
 75
     0
 76
     0
 77
     0
 78
     0
 79
     0
140
0.18
141
0.09
142
0.0
143
25.4
144
1.0
145
0.0
146
1.0
147
0.09
148
0.0
170
     0
171
     2
172
     0
173
     0
174
     0
175
     0
176
     0
177
     0
178
     0
179
     0
271
     4
272
     4
273
     2
274
     2
275
     0
276
     0
277
     2
278
    46
279
     0
280
     0
281
     0
282
     0
283
     1
284
     0
285
     0
286
     0
288
     0
340
17
341
0
342
0
343
0
344
0
371
    -2
372
    -2
  0
ENDTAB
  0
TABLE
  2
BLOCK_RECORD
  5
1
100
AcDbSymbolTable
 70
     0
  0
BLOCK_RECORD
  5
A
100
AcDbSymbolTableRecord
100
AcDbBlockTableRecord
  2
*MODEL_SPACE
340
20
  0
BLOCK_RECORD
  5
B
100
AcDbSymbolTableRecord
100
AcDbBlockTableRecord
  2
*PAPER_SPACE
340
21
  0
ENDTAB
  0
ENDSEC
  0
SECTION
  2
BLOCKS
  0
BLOCK
  5
D
100
AcDbEntity
  8
0
100
AcDbBlockBegin
  2
*MODEL_SPACE
 70
     0
 10
0.0
 20
0.0
 30
0.0
  3
*MODEL_SPACE
  1

  0
ENDBLK
  5
E
100
AcDbEntity
  8
0
100
AcDbBlockEnd
  0
BLOCK
  5
F
100
AcDbEntity
 67
     1
  8
0
100
AcDbBlockBegin
  2
*PAPER_SPACE
 70
     0
 10
0.0
 20
0.0
 30
0.0
  3
*PAPER_SPACE
  1

  0
ENDBLK
  5
10
100
AcDbEntity
 67
     1
  8
0
100
AcDbBlockEnd
  0
ENDSEC
  0
SECTION
  2
ENTITIES
  0
SPLINE
  5
25
100
AcDbEntity
  8
Ebene 1
100
AcDbSpline
210
0.0
220
0.0
230
1.0
 70
     1
 71
     3
 72
   104
 73
   100
 74
     0
 42
0.0000000001
 43
0.0000000001
 40
0.0
 40
0.0
 40
0.0
 40
0.0
 40
0.04
 40
0.04
 40
0.04
 40
0.04
 40
0.08
 40
0.08
 40
0.08
 40
0.08
 40
0.12
 40
0.12
 40
0.12
 40
0.12
 40
0.16
 40
0.16
 40
0.16
 40
0.16
 40
0.2
 40
0.2
 40
0.2
 40
0.2
 40
0.24
 40
0.24
 40
0.24
 40
0.24
 40
0.28
 40
0.28
 40
0.28
 40
0.28
 40
0.32
 40
0.32
 40
0.32
 40
0.32
 40
0.36
 40
0.36
 40
0.36
 40
0.36
 40
0.4
 40
0.4
 40
0.4
 40
0.4
 40
0.44
 40
0.44
 40
0.44
 40
0.44
 40
0.4799999999999999
 40
0.4799999999999999
 40
0.4799999999999999
 40
0.4799999999999999
 40
0.5199999999999999
 40
0.5199999999999999
 40
0.5199999999999999
 40
0.5199999999999999
 40
0.5599999999999999
 40
0.5599999999999999
 40
0.5599999999999999
 40
0.5599999999999999
 40
0.6
 40
0.6
 40
0.6
 40
0.6
 40
0.64
 40
0.64
 40
0.64
 40
0.64
 40
0.6800000000000001
 40
0.6800000000000001
 40
0.6800000000000001
 40
0.6800000000000001
 40
0.7200000000000001
 40
0.7200000000000001
 40
0.7200000000000001
 40
0.7200000000000001
 40
0.7600000000000001
 40
0.7600000000000001
 40
0.7600000000000001
 40
0.7600000000000001
 40
0.8000000000000002
 40
0.8000000000000002
 40
0.8000000000000002
 40
0.8000000000000002
 40
0.8400000000000002
 40
0.8400000000000002
 40
0.8400000000000002
 40
0.8400000000000002
 40
0.8800000000000002
 40
0.8800000000000002
 40
0.8800000000000002
 40
0.8800000000000002
 40
0.9200000000000003
 40
0.9200000000000003
 40
0.9200000000000003
 40
0.9200000000000003
 40
0.9600000000000003
 40
0.9600000000000003
 40
0.9600000000000003
 40
0.9600000000000003
 40
1.0
 40
1.0
 40
1.0
 40
1.0
 10
0.0738
 20
6.9996700000000009
 30
0.0
 10
0.27192
 20
6.913310000000001
 30
0.0
 10
-0.00747
 20
6.5475500000000002
 30
0.0
 10
0.4497200000000001
 20
6.6516900000000003
 30
0.0
 10
0.4497200000000001
 20
6.6516900000000003
 30
0.0
 10
0.40146
 20
6.3621300000000005
 30
0.0
 10
0.40146
 20
6.1919500000000003
 30
0.0
 10
0.12968
 20
6.3722900000000005
 30
0.0
 10
0.12968
 20
6.3722900000000005
 30
0.0
 10
0.22874
 20
6.1309900000000006
 30
0.0
 10
0.23128
 20
6.0624100000000007
 30
0.0
 10
0.29732
 20
5.77285
 30
0.0
 10
0.29732
 20
5.77285
 30
0.0
 10
1.7552800000000002
 20
4.7924100000000003
 30
0.0
 10
3.7923600000000004
 20
4.21075
 30
0.0
 10
4.2444800000000003
 20
2.3717900000000003
 30
0.0
 10
4.2444800000000003
 20
2.3717900000000003
 30
0.0
 10
4.2444800000000003
 20
2.3717900000000003
 30
0.0
 10
3.8634800000000005
 20
1.4243700000000001
 30
0.0
 10
3.8634800000000005
 20
1.4243700000000001
 30
0.0
 10
3.8634800000000005
 20
1.4243700000000001
 30
0.0
 10
3.6755200000000001
 20
1.1195700000000002
 30
0.0
 10
3.4850200000000005
 20
0.82747
 30
0.0
 10
3.1776800000000001
 20
0.62173
 30
0.0
 10
3.1776800000000001
 20
0.62173
 30
0.0
 10
3.13958
 20
-0.08184
 30
0.0
 10
3.1319600000000003
 20
-0.71684
 30
0.0
 10
2.9084400000000001
 20
-1.4407400000000001
 30
0.0
 10
2.9084400000000001
 20
-1.4407400000000001
 30
0.0
 10
3.2640400000000001
 20
-1.7658600000000002
 30
0.0
 10
2.9617800000000001
 20
-2.2256
 30
0.0
 10
2.8678000000000003
 20
-2.5735800000000002
 30
0.0
 10
2.8678000000000003
 20
-2.5735800000000002
 30
0.0
 10
2.6290400000000003
 20
-2.7539200000000004
 30
0.0
 10
2.2836000000000003
 20
-2.81996
 30
0.0
 10
2.2582
 20
-3.15524
 30
0.0
 10
2.2582
 20
-3.15524
 30
0.0
 10
2.16168
 20
-3.8740600000000005
 30
0.0
 10
2.37758
 20
-4.6436800000000007
 30
0.0
 10
2.1972400000000003
 20
-5.3650400000000005
 30
0.0
 10
2.1972400000000003
 20
-5.3650400000000005
 30
0.0
 10
1.7629000000000001
 20
-5.9086000000000007
 30
0.0
 10
1.1812400000000001
 20
-6.3048400000000004
 30
0.0
 10
0.8154800000000001
 20
-6.9144400000000008
 30
0.0
 10
0.8154800000000001
 20
-6.9144400000000008
 30
0.0
 10
0.36336
 20
-6.8458600000000009
 30
0.0
 10
-0.11923
 20
-6.8001400000000007
 30
0.0
 10
-0.5662700000000001
 20
-7.008420000000001
 30
0.0
 10
-0.5662700000000001
 20
-7.008420000000001
 30
0.0
 10
-1.12761
 20
-6.7341000000000006
 30
0.0
 10
-1.37907
 20
-5.9289200000000006
 30
0.0
 10
-2.0394700000000001
 20
-5.8781200000000009
 30
0.0
 10
-2.0394700000000001
 20
-5.8781200000000009
 30
0.0
 10
-2.0394700000000001
 20
-5.8781200000000009
 30
0.0
 10
-2.18425
 20
-5.6850800000000001
 30
0.0
 10
-2.18425
 20
-5.6850800000000001
 30
0.0
 10
-2.18425
 20
-5.6850800000000001
 30
0.0
 10
-2.4509500000000002
 20
-4.7427400000000004
 30
0.0
 10
-1.7397500000000001
 20
-3.1069800000000001
 30
0.0
 10
-2.9157700000000002
 20
-2.7666200000000001
 30
0.0
 10
-2.9157700000000002
 20
-2.7666200000000001
 30
0.0
 10
-2.98943
 20
-2.7005800000000004
 30
0.0
 10
-3.0580100000000003
 20
-2.6548600000000002
 30
0.0
 10
-3.1062700000000003
 20
-2.5634200000000003
 30
0.0
 10
-3.1062700000000003
 20
-2.5634200000000003
 30
0.0
 10
-3.11389
 20
-2.2408400000000004
 30
0.0
 10
-2.8446500000000001
 20
-1.9792200000000002
 30
0.0
 10
-3.0478500000000004
 20
-1.6845800000000002
 30
0.0
 10
-3.0478500000000004
 20
-1.6845800000000002
 30
0.0
 10
-2.8370300000000004
 20
-1.33152
 30
0.0
 10
-2.6871700000000001
 20
-0.8997200000000001
 30
0.0
 10
-3.0300700000000003
 20
-0.5619000000000001
 30
0.0
 10
-3.0300700000000003
 20
-0.5619000000000001
 30
0.0
 10
-2.8548100000000001
 20
-0.22408
 30
0.0
 10
-3.1215100000000002
 20
0.26613
 30
0.0
 10
-3.0834100000000002
 20
0.60141
 30
0.0
 10
-3.0834100000000002
 20
0.60141
 30
0.0
 10
-3.3882100000000004
 20
0.7792100000000001
 30
0.0
 10
-3.9597100000000003
 20
1.4802500000000001
 30
0.0
 10
-4.2137100000000007
 20
1.7164700000000002
 30
0.0
 10
-4.2137100000000007
 20
1.7164700000000002
 30
0.0
 10
-4.3305500000000006
 20
1.9222100000000002
 30
0.0
 10
-4.0130500000000007
 20
2.4378300000000004
 30
0.0
 10
-4.0638500000000004
 20
2.6562700000000001
 30
0.0
 10
-4.0638500000000004
 20
2.6562700000000001
 30
0.0
 10
-3.1875500000000003
 20
4.07613
 30
0.0
 10
-1.8769100000000001
 20
4.9448100000000004
 30
0.0
 10
-0.3122700000000001
 20
5.6890300000000007
 30
0.0
 10
-0.3122700000000001
 20
5.6890300000000007
 30
0.0
 10
-0.31735
 20
5.9785900000000005
 30
0.0
 10
-0.19543
 20
6.1309900000000006
 30
0.0
 10
-0.07351
 20
6.3646700000000003
 30
0.0
 10
-0.07351
 20
6.3646700000000003
 30
0.0
 10
-0.38339
 20
6.2757700000000005
 30
0.0
 10
-0.45705
 20
6.4637300000000009
 30
0.0
 10
-0.4062500000000001
 20
6.7532900000000007
 30
0.0
 10
-0.4062500000000001
 20
6.7532900000000007
 30
0.0
 10
-0.06589
 20
6.5196100000000001
 30
0.0
 10
-0.30719
 20
7.037770000000001
 30
0.0
 10
0.0738
 20
6.9996700000000009
 30
0.0
  0
SPLINE
  5
26
100
AcDbEntity
  8
Ebene 1
 62
     7
100
AcDbSpline
210
0.0
220
0.0
230
1.0
 70
     1
 71
     3
 72
    24
 73
    20
 74
     0
 42
0.0000000001
 43
0.0000000001
 40
0.0
 40
0.0
 40
0.0
 40
0.0
 40
0.2
 40
0.2
 40
0.2
 40
0.2
 40
0.4
 40
0.4
 40
0.4
 40
0.4
 40
0.6000000000000001
 40
0.6000000000000001
 40
0.6000000000000001
 40
0.6000000000000001
 40
0.8
 40
0.8
 40
0.8
 40
0.8
 40
1.0
 40
1.0
 40
1.0
 40
1.0
 10
0.0611
 20
6.8777500000000007
 30
0.0
 10
0.07126
 20
6.8777500000000007
 30
0.0
 10
0.09412
 20
6.8904500000000004
 30
0.0
 10
0.09412
 20
6.8675900000000007
 30
0.0
 10
0.09412
 20
6.8675900000000007
 30
0.0
 10
0.09412
 20
6.8675900000000007
 30
0.0
 10
-0.01001
 20
6.5627900000000006
 30
0.0
 10
-0.01001
 20
6.5627900000000006
 30
0.0
 10
-0.01001
 20
6.5627900000000006
 30
0.0
 10
-0.01001
 20
6.5627900000000006
 30
0.0
 10
-0.06843
 20
6.5856500000000002
 30
0.0
 10
-0.06843
 20
6.5856500000000002
 30
0.0
 10
-0.06843
 20
6.5856500000000002
 30
0.0
 10
-0.05827
 20
6.6770900000000006
 30
0.0
 10
-0.14209
 20
6.7329700000000008
 30
0.0
 10
-0.12177
 20
6.826950000000001
 30
0.0
 10
-0.12177
 20
6.826950000000001
 30
0.0
 10
-0.05065
 20
6.8294900000000007
 30
0.0
 10
0.00268
 20
6.865050000000001
 30
0.0
 10
0.0611
 20
6.8777500000000007
 30
0.0
  0
SPLINE
  5
27
100
AcDbEntity
  8
Ebene 1
 62
     7
100
AcDbSpline
210
0.0
220
0.0
230
1.0
 70
     1
 71
     3
 72
    20
 73
    16
 74
     0
 42
0.0000000001
 43
0.0000000001
 40
0.0
 40
0.0
 40
0.0
 40
0.0
 40
0.25
 40
0.25
 40
0.25
 40
0.25
 40
0.5
 40
0.5
 40
0.5
 40
0.5
 40
0.75
 40
0.75
 40
0.75
 40
0.75
 40
1.0
 40
1.0
 40
1.0
 40
1.0
 10
-0.3021100000000001
 20
6.6491500000000006
 30
0.0
 10
-0.26401
 20
6.5678700000000001
 30
0.0
 10
-0.07859
 20
6.5272300000000003
 30
0.0
 10
-0.12177
 20
6.4230900000000002
 30
0.0
 10
-0.12177
 20
6.4230900000000002
 30
0.0
 10
-0.12177
 20
6.4230900000000002
 30
0.0
 10
-0.20305
 20
6.4205500000000004
 30
0.0
 10
-0.20305
 20
6.4205500000000004
 30
0.0
 10
-0.20305
 20
6.4205500000000004
 30
0.0
 10
-0.17003
 20
6.4789700000000003
 30
0.0
 10
-0.19543
 20
6.5831100000000005
 30
0.0
 10
-0.27417
 20
6.5094500000000002
 30
0.0
 10
-0.27417
 20
6.5094500000000002
 30
0.0
 10
-0.3325900000000001
 20
6.5323100000000007
 30
0.0
 10
-0.3122700000000001
 20
6.6008900000000006
 30
0.0
 10
-0.3021100000000001
 20
6.6491500000000006
 30
0.0
  0
SPLINE
  5
28
100
AcDbEntity
  8
Ebene 1
 62
     7
100
AcDbSpline
210
0.0
220
0.0
230
1.0
 70
     1
 71
     3
 72
    20
 73
    16
 74
     0
 42
0.0000000001
 43
0.0000000001
 40
0.0
 40
0.0
 40
0.0
 40
0.0
 40
0.25
 40
0.25
 40
0.25
 40
0.25
 40
0.5
 40
0.5
 40
0.5
 40
0.5
 40
0.75
 40
0.75
 40
0.75
 40
0.75
 40
1.0
 40
1.0
 40
1.0
 40
1.0
 10
0.21858
 20
6.5577100000000002
 30
0.0
 10
0.21858
 20
6.5577100000000002
 30
0.0
 10
0.2643
 20
6.5602500000000008
 30
0.0
 10
0.2643
 20
6.5602500000000008
 30
0.0
 10
0.2643
 20
6.5602500000000008
 30
0.0
 10
0.26684
 20
6.5119900000000008
 30
0.0
 10
0.22112
 20
6.4764300000000006
 30
0.0
 10
0.1754
 20
6.4865900000000005
 30
0.0
 10
0.1754
 20
6.4865900000000005
 30
0.0
 10
0.14238
 20
6.4180100000000007
 30
0.0
 10
0.08142
 20
6.5069100000000004
 30
0.0
 10
0.1373
 20
6.5323100000000007
 30
0.0
 10
0.1373
 20
6.5323100000000007
 30
0.0
 10
0.1627
 20
6.5323100000000007
 30
0.0
 10
0.19572
 20
6.5450100000000004
 30
0.0
 10
0.21858
 20
6.5577100000000002
 30
0.0
  0
SPLINE
  5
29
100
AcDbEntity
  8
Ebene 1
 62
     7
100
AcDbSpline
210
0.0
220
0.0
230
1.0
 70
     1
 71
     3
 72
    24
 73
    20
 74
     0
 42
0.0000000001
 43
0.0000000001
 40
0.0
 40
0.0
 40
0.0
 40
0.0
 40
0.2
 40
0.2
 40
0.2
 40
0.2
 40
0.4
 40
0.4
 40
0.4
 40
0.4
 40
0.6000000000000001
 40
0.6000000000000001
 40
0.6000000000000001
 40
0.6000000000000001
 40
0.8
 40
0.8
 40
0.8
 40
0.8
 40
1.0
 40
1.0
 40
1.0
 40
1.0
 10
-0.05065
 20
6.3545100000000003
 30
0.0
 10
0.02808
 20
6.3570500000000001
 30
0.0
 10
-0.01255
 20
6.2503700000000002
 30
0.0
 10
0.00014
 20
6.2046500000000009
 30
0.0
 10
0.00014
 20
6.2046500000000009
 30
0.0
 10
0.02046
 20
6.1487700000000007
 30
0.0
 10
0.10174
 20
6.2071900000000007
 30
0.0
 10
0.08904
 20
6.2554500000000006
 30
0.0
 10
0.08904
 20
6.2554500000000006
 30
0.0
 10
0.0865
 20
6.2884700000000002
 30
0.0
 10
0.16016
 20
6.1741700000000002
 30
0.0
 10
0.1246
 20
6.1386100000000008
 30
0.0
 10
0.1246
 20
6.1386100000000008
 30
0.0
 10
0.03316
 20
6.1614700000000004
 30
0.0
 10
-0.04557
 20
6.1589300000000007
 30
0.0
 10
-0.13701
 20
6.1335300000000004
 30
0.0
 10
-0.13701
 20
6.1335300000000004
 30
0.0
 10
-0.13701
 20
6.1335300000000004
 30
0.0
 10
-0.05065
 20
6.3545100000000003
 30
0.0
 10
-0.05065
 20
6.3545100000000003
 30
0.0
  0
SPLINE
  5
2A
100
AcDbEntity
  8
Ebene 1
 62
     7
100
AcDbSpline
210
0.0
220
0.0
230
1.0
 70
     1
 71
     3
 72
    20
 73
    16
 74
     0
 42
0.0000000001
 43
0.0000000001
 40
0.0
 40
0.0
 40
0.0
 40
0.0
 40
0.25
 40
0.25
 40
0.25
 40
0.25
 40
0.5
 40
0.5
 40
0.5
 40
0.5
 40
0.75
 40
0.75
 40
0.75
 40
0.75
 40
1.0
 40
1.0
 40
1.0
 40
1.0
 10
-0.11415
 20
6.0751100000000005
 30
0.0
 10
-0.06843
 20
6.0751100000000005
 30
0.0
 10
-0.02017
 20
6.0674900000000003
 30
0.0
 10
0.023
 20
6.0446300000000006
 30
0.0
 10
0.023
 20
6.0446300000000006
 30
0.0
 10
-0.00493
 20
5.9506500000000004
 30
0.0
 10
0.03316
 20
5.68649
 30
0.0
 10
-0.13955
 20
5.7626900000000001
 30
0.0
 10
-0.13955
 20
5.7626900000000001
 30
0.0
 10
-0.13955
 20
5.7626900000000001
 30
0.0
 10
-0.19543
 20
5.7144300000000001
 30
0.0
 10
-0.19543
 20
5.7144300000000001
 30
0.0
 10
-0.19543
 20
5.7144300000000001
 30
0.0
 10
-0.25893
 20
5.8414300000000008
 30
0.0
 10
-0.23861
 20
5.9912900000000002
 30
0.0
 10
-0.11415
 20
6.0751100000000005
 30
0.0
  0
SPLINE
  5
2B
100
AcDbEntity
  8
Ebene 1
 62
     7
100
AcDbSpline
210
0.0
220
0.0
230
1.0
 70
     1
 71
     3
 72
    12
 73
     8
 74
     0
 42
0.0000000001
 43
0.0000000001
 40
0.0
 40
0.0
 40
0.0
 40
0.0
 40
0.5
 40
0.5
 40
0.5
 40
0.5
 40
1.0
 40
1.0
 40
1.0
 40
1.0
 10
-0.18527
 20
5.7042700000000002
 30
0.0
 10
-0.12685
 20
5.6712500000000006
 30
0.0
 10
-0.06589
 20
5.6153700000000004
 30
0.0
 10
0.00268
 20
5.6153700000000004
 30
0.0
 10
0.00268
 20
5.6153700000000004
 30
0.0
 10
-0.04049
 20
5.5213900000000002
 30
0.0
 10
-0.19289
 20
5.6102900000000009
 30
0.0
 10
-0.18527
 20
5.7042700000000002
 30
0.0
  0
SPLINE
  5
2C
100
AcDbEntity
  8
Ebene 1
 62
     7
100
AcDbSpline
210
0.0
220
0.0
230
1.0
 70
     1
 71
     3
 72
    16
 73
    12
 74
     0
 42
0.0000000001
 43
0.0000000001
 40
0.0
 40
0.0
 40
0.0
 40
0.0
 40
0.3333333333333333
 40
0.3333333333333333
 40
0.3333333333333333
 40
0.3333333333333333
 40
0.6666666666666666
 40
0.6666666666666666
 40
0.6666666666666666
 40
0.6666666666666666
 40
1.0
 40
1.0
 40
1.0
 40
1.0
 10
0.29986
 20
5.6814100000000005
 30
0.0
 10
0.43702
 20
5.6839500000000003
 30
0.0
 10
0.277
 20
5.6001300000000001
 30
0.0
 10
0.27954
 20
5.5315500000000002
 30
0.0
 10
0.27954
 20
5.5315500000000002
 30
0.0
 10
0.22112
 20
5.5290100000000004
 30
0.0
 10
0.18556
 20
5.5518700000000001
 30
0.0
 10
0.22112
 20
5.6102900000000009
 30
0.0
 10
0.22112
 20
5.6102900000000009
 30
0.0
 10
0.22112
 20
5.6102900000000009
 30
0.0
 10
0.29986
 20
5.6814100000000005
 30
0.0
 10
0.29986
 20
5.6814100000000005
 30
0.0
  0
SPLINE
  5
2D
100
AcDbEntity
  8
Ebene 1
 62
     7
100
AcDbSpline
210
0.0
220
0.0
230
1.0
 70
     1
 71
     3
 72
   104
 73
   100
 74
     0
 42
0.0000000001
 43
0.0000000001
 40
0.0
 40
0.0
 40
0.0
 40
0.0
 40
0.04
 40
0.04
 40
0.04
 40
0.04
 40
0.08
 40
0.08
 40
0.08
 40
0.08
 40
0.12
 40
0.12
 40
0.12
 40
0.12
 40
0.16
 40
0.16
 40
0.16
 40
0.16
 40
0.2
 40
0.2
 40
0.2
 40
0.2
 40
0.24
 40
0.24
 40
0.24
 40
0.24
 40
0.28
 40
0.28
 40
0.28
 40
0.28
 40
0.32
 40
0.32
 40
0.32
 40
0.32
 40
0.36
 40
0.36
 40
0.36
 40
0.36
 40
0.4
 40
0.4
 40
0.4
 40
0.4
 40
0.44
 40
0.44
 40
0.44
 40
0.44
 40
0.4799999999999999
 40
0.4799999999999999
 40
0.4799999999999999
 40
0.4799999999999999
 40
0.5199999999999999
 40
0.5199999999999999
 40
0.5199999999999999
 40
0.5199999999999999
 40
0.5599999999999999
 40
0.5599999999999999
 40
0.5599999999999999
 40
0.5599999999999999
 40
0.6
 40
0.6
 40
0.6
 40
0.6
 40
0.64
 40
0.64
 40
0.64
 40
0.64
 40
0.6800000000000001
 40
0.6800000000000001
 40
0.6800000000000001
 40
0.6800000000000001
 40
0.7200000000000001
 40
0.7200000000000001
 40
0.7200000000000001
 40
0.7200000000000001
 40
0.7600000000000001
 40
0.7600000000000001
 40
0.7600000000000001
 40
0.7600000000000001
 40
0.8000000000000002
 40
0.8000000000000002
 40
0.8000000000000002
 40
0.8000000000000002
 40
0.8400000000000002
 40
0.8400000000000002
 40
0.8400000000000002
 40
0.8400000000000002
 40
0.8800000000000002
 40
0.8800000000000002
 40
0.8800000000000002
 40
0.8800000000000002
 40
0.9200000000000003
 40
0.9200000000000003
 40
0.9200000000000003
 40
0.9200000000000003
 40
0.9600000000000003
 40
0.9600000000000003
 40
0.9600000000000003
 40
0.9600000000000003
 40
1.0
 40
1.0
 40
1.0
 40
1.0
 10
-0.05319
 20
5.4883700000000006
 30
0.0
 10
-0.02779
 20
3.7789500000000005
 30
0.0
 10
-0.11415
 20
1.9653900000000002
 30
0.0
 10
0.11698
 20
0.11627
 30
0.0
 10
0.11698
 20
0.11627
 30
0.0
 10
0.19826
 20
0.04769
 30
0.0
 10
0.277
 20
0.16707
 30
0.0
 10
0.22874
 20
0.23565
 30
0.0
 10
0.22874
 20
0.23565
 30
0.0
 10
0.24144
 20
0.26867
 30
0.0
 10
0.23636
 20
0.4540900000000001
 30
0.0
 10
0.27192
 20
0.33979
 30
0.0
 10
0.27192
 20
0.33979
 30
0.0
 10
0.26938
 20
0.02737
 30
0.0
 10
0.57926
 20
0.05785
 30
0.0
 10
0.785
 20
0.14421
 30
0.0
 10
0.785
 20
0.14421
 30
0.0
 10
1.2218800000000001
 20
-0.15296
 30
0.0
 10
1.8391000000000002
 20
0.14929
 30
0.0
 10
2.1362800000000002
 20
0.20263
 30
0.0
 10
2.1362800000000002
 20
0.20263
 30
0.0
 10
2.4131400000000003
 20
0.30169
 30
0.0
 10
2.2988400000000002
 20
0.20517
 30
0.0
 10
2.0804
 20
0.16707
 30
0.0
 10
2.0804
 20
0.16707
 30
0.0
 10
1.9203800000000002
 20
0.11627
 30
0.0
 10
2.3572600000000001
 20
0.18485
 30
0.0
 10
2.4487000000000001
 20
0.21025
 30
0.0
 10
2.4487000000000001
 20
0.21025
 30
0.0
 10
2.4487000000000001
 20
0.21025
 30
0.0
 10
2.5426800000000003
 20
0.22295
 30
0.0
 10
2.5426800000000003
 20
0.22295
 30
0.0
 10
2.5426800000000003
 20
0.22295
 30
0.0
 10
1.7019400000000002
 20
0.04261
 30
0.0
 10
1.2142600000000001
 20
-0.2698
 30
0.0
 10
0.28462
 20
-0.10724
 30
0.0
 10
0.28462
 20
-0.10724
 30
0.0
 10
0.2643
 20
-0.23678
 30
0.0
 10
0.07888
 20
-0.1936
 30
0.0
 10
-0.02271
 20
-0.219
 30
0.0
 10
-0.02271
 20
-0.219
 30
0.0
 10
-0.05827
 20
-0.17328
 30
0.0
 10
-0.04811
 20
-0.05898
 30
0.0
 10
-0.15225
 20
-0.09454
 30
0.0
 10
-0.15225
 20
-0.09454
 30
0.0
 10
-0.25385
 20
-0.14534
 30
0.0
 10
-0.12431
 20
-0.30282
 30
0.0
 10
-0.28687
 20
-0.26218
 30
0.0
 10
-0.28687
 20
-0.26218
 30
0.0
 10
-0.3224300000000001
 20
-0.1936
 30
0.0
 10
-0.25639
 20
-0.0539
 30
0.0
 10
-0.35037
 20
-0.03104
 30
0.0
 10
-0.35037
 20
-0.03104
 30
0.0
 10
-1.0717300000000001
 20
-0.31552
 30
0.0
 10
-1.9708900000000003
 20
0.04007
 30
0.0
 10
-2.6820900000000001
 20
0.25343
 30
0.0
 10
-2.6820900000000001
 20
0.25343
 30
0.0
 10
-2.7532100000000002
 20
0.28645
 30
0.0
 10
-2.8802100000000004
 20
0.30677
 30
0.0
 10
-2.8700500000000004
 20
0.4210700000000001
 30
0.0
 10
-2.8700500000000004
 20
0.4210700000000001
 30
0.0
 10
-2.06487
 20
0.06039
 30
0.0
 10
-1.1530100000000001
 20
0.10865
 30
0.0
 10
-0.24877
 20
0.05023
 30
0.0
 10
-0.24877
 20
0.05023
 30
0.0
 10
-0.14463
 20
0.06293
 30
0.0
 10
-0.19543
 20
0.17723
 30
0.0
 10
-0.13701
 20
0.21533
 30
0.0
 10
-0.13701
 20
0.21533
 30
0.0
 10
-0.14717
 20
0.15437
 30
0.0
 10
-0.13447
 20
0.04007
 30
0.0
 10
-0.03033
 20
0.05531
 30
0.0
 10
-0.03033
 20
0.05531
 30
0.0
 10
0.06618
 20
0.7741300000000001
 30
0.0
 10
-0.11669
 20
1.6936100000000001
 30
0.0
 10
-0.15987
 20
2.4784700000000002
 30
0.0
 10
-0.15987
 20
2.4784700000000002
 30
0.0
 10
-0.25893
 20
1.7723500000000001
 30
0.0
 10
-0.06335
 20
0.9443100000000001
 30
0.0
 10
-0.15987
 20
0.23565
 30
0.0
 10
-0.15987
 20
0.23565
 30
0.0
 10
-0.24115
 20
0.23565
 30
0.0
 10
-0.17511
 20
0.35249
 30
0.0
 10
-0.21067
 20
0.39821
 30
0.0
 10
-0.21067
 20
0.39821
 30
0.0
 10
-0.19543
 20
2.0034900000000002
 30
0.0
 10
-0.6424700000000001
 20
3.7281500000000003
 30
0.0
 10
-0.19543
 20
5.2064300000000001
 30
0.0
 10
-0.19543
 20
5.2064300000000001
 30
0.0
 10
-0.19543
 20
5.2064300000000001
 30
0.0
 10
-0.24877
 20
3.7256100000000001
 30
0.0
 10
-0.24877
 20
3.7256100000000001
 30
0.0
 10
-0.24877
 20
3.7256100000000001
 30
0.0
 10
-0.25639
 20
3.5173300000000003
 30
0.0
 10
-0.27163
 20
3.2607900000000001
 30
0.0
 10
-0.23353
 20
3.0906100000000003
 30
0.0
 10
-0.23353
 20
3.0906100000000003
 30
0.0
 10
-0.20813
 20
3.8983300000000005
 30
0.0
 10
-0.14717
 20
4.6882700000000002
 30
0.0
 10
-0.05319
 20
5.4883700000000006
 30
0.0
  0
SPLINE
  5
2E
100
AcDbEntity
  8
Ebene 1
 62
     7
100
AcDbSpline
210
0.0
220
0.0
230
1.0
 70
     1
 71
     3
 72
   120
 73
   116
 74
     0
 42
0.0000000001
 43
0.0000000001
 40
0.0
 40
0.0
 40
0.0
 40
0.0
 40
0.0344827586206897
 40
0.0344827586206897
 40
0.0344827586206897
 40
0.0344827586206897
 40
0.0689655172413793
 40
0.0689655172413793
 40
0.0689655172413793
 40
0.0689655172413793
 40
0.103448275862069
 40
0.103448275862069
 40
0.103448275862069
 40
0.103448275862069
 40
0.1379310344827586
 40
0.1379310344827586
 40
0.1379310344827586
 40
0.1379310344827586
 40
0.1724137931034483
 40
0.1724137931034483
 40
0.1724137931034483
 40
0.1724137931034483
 40
0.206896551724138
 40
0.206896551724138
 40
0.206896551724138
 40
0.206896551724138
 40
0.2413793103448276
 40
0.2413793103448276
 40
0.2413793103448276
 40
0.2413793103448276
 40
0.2758620689655173
 40
0.2758620689655173
 40
0.2758620689655173
 40
0.2758620689655173
 40
0.310344827586207
 40
0.310344827586207
 40
0.310344827586207
 40
0.310344827586207
 40
0.3448275862068966
 40
0.3448275862068966
 40
0.3448275862068966
 40
0.3448275862068966
 40
0.3793103448275863
 40
0.3793103448275863
 40
0.3793103448275863
 40
0.3793103448275863
 40
0.413793103448276
 40
0.413793103448276
 40
0.413793103448276
 40
0.413793103448276
 40
0.4482758620689656
 40
0.4482758620689656
 40
0.4482758620689656
 40
0.4482758620689656
 40
0.4827586206896553
 40
0.4827586206896553
 40
0.4827586206896553
 40
0.4827586206896553
 40
0.517241379310345
 40
0.517241379310345
 40
0.517241379310345
 40
0.517241379310345
 40
0.5517241379310346
 40
0.5517241379310346
 40
0.5517241379310346
 40
0.5517241379310346
 40
0.5862068965517242
 40
0.5862068965517242
 40
0.5862068965517242
 40
0.5862068965517242
 40
0.6206896551724138
 40
0.6206896551724138
 40
0.6206896551724138
 40
0.6206896551724138
 40
0.6551724137931034
 40
0.6551724137931034
 40
0.6551724137931034
 40
0.6551724137931034
 40
0.689655172413793
 40
0.689655172413793
 40
0.689655172413793
 40
0.689655172413793
 40
0.7241379310344827
 40
0.7241379310344827
 40
0.7241379310344827
 40
0.7241379310344827
 40
0.7586206896551723
 40
0.7586206896551723
 40
0.7586206896551723
 40
0.7586206896551723
 40
0.7931034482758619
 40
0.7931034482758619
 40
0.7931034482758619
 40
0.7931034482758619
 40
0.8275862068965515
 40
0.8275862068965515
 40
0.8275862068965515
 40
0.8275862068965515
 40
0.8620689655172411
 40
0.8620689655172411
 40
0.8620689655172411
 40
0.8620689655172411
 40
0.8965517241379307
 40
0.8965517241379307
 40
0.8965517241379307
 40
0.8965517241379307
 40
0.9310344827586203
 40
0.9310344827586203
 40
0.9310344827586203
 40
0.9310344827586203
 40
0.9655172413793099
 40
0.9655172413793099
 40
0.9655172413793099
 40
0.9655172413793099
 40
1.0
 40
1.0
 40
1.0
 40
1.0
 10
-0.5230900000000001
 20
5.3943900000000005
 30
0.0
 10
-0.46721
 20
5.3969300000000002
 30
0.0
 10
-0.3859300000000001
 20
5.3969300000000002
 30
0.0
 10
-0.33767
 20
5.3766100000000003
 30
0.0
 10
-0.33767
 20
5.3766100000000003
 30
0.0
 10
-0.7135900000000001
 20
3.7256100000000001
 30
0.0
 10
-0.21575
 20
1.8993500000000001
 30
0.0
 10
-0.28941
 20
0.29153
 30
0.0
 10
-0.28941
 20
0.29153
 30
0.0
 10
-0.72375
 20
0.5226700000000001
 30
0.0
 10
-1.00061
 20
0.97733
 30
0.0
 10
-1.4705100000000002
 20
1.2541900000000001
 30
0.0
 10
-1.4705100000000002
 20
1.2541900000000001
 30
0.0
 10
-1.3587500000000001
 20
0.93415
 30
0.0
 10
-1.0158500000000001
 20
0.6877700000000001
 30
0.0
 10
-1.0666500000000001
 20
0.36265
 30
0.0
 10
-1.0666500000000001
 20
0.36265
 30
0.0
 10
-1.0666500000000001
 20
0.36265
 30
0.0
 10
-2.39507
 20
1.2999100000000001
 30
0.0
 10
-2.39507
 20
1.2999100000000001
 30
0.0
 10
-2.39507
 20
1.2999100000000001
 30
0.0
 10
-2.5347700000000004
 20
1.32023
 30
0.0
 10
-2.27569
 20
1.10687
 30
0.0
 10
-2.22743
 20
1.0382900000000002
 30
0.0
 10
-2.22743
 20
1.0382900000000002
 30
0.0
 10
-2.0394700000000001
 20
0.8579500000000001
 30
0.0
 10
-1.7905500000000001
 20
0.70301
 30
0.0
 10
-1.7854700000000001
 20
0.43885
 30
0.0
 10
-1.7854700000000001
 20
0.43885
 30
0.0
 10
-2.2045700000000004
 20
0.60141
 30
0.0
 10
-2.4915900000000004
 20
1.0103500000000001
 30
0.0
 10
-2.90307
 20
1.27705
 30
0.0
 10
-2.90307
 20
1.27705
 30
0.0
 10
-3.2053300000000005
 20
1.36087
 30
0.0
 10
-3.2993100000000002
 20
1.7621900000000001
 30
0.0
 10
-3.2205700000000004
 20
1.9501500000000001
 30
0.0
 10
-3.2205700000000004
 20
1.9501500000000001
 30
0.0
 10
-3.1799300000000001
 20
1.69615
 30
0.0
 10
-2.9691100000000001
 20
1.52851
 30
0.0
 10
-2.8116300000000001
 20
1.3253100000000002
 30
0.0
 10
-2.8116300000000001
 20
1.3253100000000002
 30
0.0
 10
-2.61097
 20
1.5615300000000001
 30
0.0
 10
-2.4560300000000002
 20
1.3684900000000002
 30
0.0
 10
-2.18933
 20
1.3405500000000001
 30
0.0
 10
-2.18933
 20
1.3405500000000001
 30
0.0
 10
-2.48651
 20
1.7139300000000002
 30
0.0
 10
-2.7836900000000004
 20
1.5234300000000001
 30
0.0
 10
-2.94625
 20
1.9907900000000001
 30
0.0
 10
-2.94625
 20
1.9907900000000001
 30
0.0
 10
-2.9665700000000004
 20
1.8993500000000001
 30
0.0
 10
-3.0681700000000003
 20
1.8155300000000001
 30
0.0
 10
-3.1189700000000005
 20
1.9755500000000001
 30
0.0
 10
-3.1189700000000005
 20
1.9755500000000001
 30
0.0
 10
-2.8268700000000004
 20
2.3311500000000001
 30
0.0
 10
-3.1646900000000002
 20
2.9102700000000001
 30
0.0
 10
-2.6947900000000002
 20
3.4893900000000002
 30
0.0
 10
-2.6947900000000002
 20
3.4893900000000002
 30
0.0
 10
-2.8268700000000004
 20
3.1871300000000002
 30
0.0
 10
-2.8294100000000002
 20
2.8620100000000002
 30
0.0
 10
-2.8471900000000003
 20
2.6410300000000002
 30
0.0
 10
-2.8471900000000003
 20
2.6410300000000002
 30
0.0
 10
-2.8548100000000001
 20
2.5267300000000001
 30
0.0
 10
-2.8954500000000003
 20
2.2473300000000003
 30
0.0
 10
-2.8319500000000004
 20
2.4911700000000003
 30
0.0
 10
-2.8319500000000004
 20
2.4911700000000003
 30
0.0
 10
-2.81671
 20
2.3870300000000002
 30
0.0
 10
-2.8268700000000004
 20
2.2955900000000002
 30
0.0
 10
-2.7557500000000004
 20
2.2270100000000004
 30
0.0
 10
-2.7557500000000004
 20
2.2270100000000004
 30
0.0
 10
-2.6770100000000001
 20
2.7858100000000001
 30
0.0
 10
-2.6668500000000002
 20
3.3039700000000001
 30
0.0
 10
-2.3214100000000002
 20
3.8119700000000005
 30
0.0
 10
-2.3214100000000002
 20
3.8119700000000005
 30
0.0
 10
-2.3214100000000002
 20
3.8119700000000005
 30
0.0
 10
-2.3849100000000001
 20
3.6240100000000002
 30
0.0
 10
-2.3849100000000001
 20
3.6240100000000002
 30
0.0
 10
-2.3849100000000001
 20
3.6240100000000002
 30
0.0
 10
-2.4280900000000001
 20
3.4614500000000001
 30
0.0
 10
-2.4458700000000002
 20
3.2760300000000004
 30
0.0
 10
-2.5220700000000003
 20
3.1236300000000004
 30
0.0
 10
-2.5220700000000003
 20
3.1236300000000004
 30
0.0
 10
-2.5881100000000004
 20
2.9153500000000001
 30
0.0
 10
-2.5703300000000002
 20
2.6943700000000002
 30
0.0
 10
-2.5652500000000003
 20
2.4759300000000004
 30
0.0
 10
-2.5652500000000003
 20
2.4759300000000004
 30
0.0
 10
-2.5601700000000003
 20
2.33623
 30
0.0
 10
-2.5474700000000001
 20
2.2092300000000002
 30
0.0
 10
-2.48651
 20
2.0949300000000002
 30
0.0
 10
-2.48651
 20
2.0949300000000002
 30
0.0
 10
-2.4560300000000002
 20
2.3159100000000001
 30
0.0
 10
-2.39507
 20
2.6537300000000004
 30
0.0
 10
-2.36205
 20
2.1812900000000002
 30
0.0
 10
-2.36205
 20
2.1812900000000002
 30
0.0
 10
-2.4128500000000002
 20
2.00603
 30
0.0
 10
-2.1918700000000002
 20
1.9526900000000003
 30
0.0
 10
-2.1867900000000002
 20
2.1279500000000002
 30
0.0
 10
-2.1867900000000002
 20
2.1279500000000002
 30
0.0
 10
-1.9937500000000001
 20
3.2074500000000001
 30
0.0
 10
-2.06487
 20
4.6146100000000008
 30
0.0
 10
-0.9599700000000001
 20
5.2445300000000001
 30
0.0
 10
-0.9599700000000001
 20
5.2445300000000001
 30
0.0
 10
-1.1834900000000002
 20
4.9727500000000004
 30
0.0
 10
-1.3968500000000001
 20
4.6908100000000008
 30
0.0
 10
-1.4806700000000002
 20
4.3656900000000007
 30
0.0
 10
-1.4806700000000002
 20
4.3656900000000007
 30
0.0
 10
-1.6102100000000001
 20
4.0151700000000003
 30
0.0
 10
-1.4959100000000001
 20
3.6697300000000004
 30
0.0
 10
-1.5340100000000001
 20
3.3242900000000004
 30
0.0
 10
-1.5340100000000001
 20
3.3242900000000004
 30
0.0
 10
-1.5340100000000001
 20
3.2887300000000002
 30
0.0
 10
-1.5543300000000002
 20
3.2074500000000001
 30
0.0
 10
-1.4959100000000001
 20
3.1972900000000002
 30
0.0
 10
-1.4959100000000001
 20
3.1972900000000002
 30
0.0
 10
-1.3562100000000001
 20
4.0100899999999999
 30
0.0
 10
-1.37653
 20
4.8406700000000003
 30
0.0
 10
-0.5230900000000001
 20
5.3943900000000005
 30
0.0
  0
SPLINE
  5
2F
100
AcDbEntity
  8
Ebene 1
 62
     7
100
AcDbSpline
210
0.0
220
0.0
230
1.0
 70
     1
 71
     3
 72
   176
 73
   172
 74
     0
 42
0.0000000001
 43
0.0000000001
 40
0.0
 40
0.0
 40
0.0
 40
0.0
 40
0.0232558139534884
 40
0.0232558139534884
 40
0.0232558139534884
 40
0.0232558139534884
 40
0.0465116279069767
 40
0.0465116279069767
 40
0.0465116279069767
 40
0.0465116279069767
 40
0.0697674418604651
 40
0.0697674418604651
 40
0.0697674418604651
 40
0.0697674418604651
 40
0.0930232558139535
 40
0.0930232558139535
 40
0.0930232558139535
 40
0.0930232558139535
 40
0.1162790697674419
 40
0.1162790697674419
 40
0.1162790697674419
 40
0.1162790697674419
 40
0.1395348837209302
 40
0.1395348837209302
 40
0.1395348837209302
 40
0.1395348837209302
 40
0.1627906976744186
 40
0.1627906976744186
 40
0.1627906976744186
 40
0.1627906976744186
 40
0.186046511627907
 40
0.186046511627907
 40
0.186046511627907
 40
0.186046511627907
 40
0.2093023255813953
 40
0.2093023255813953
 40
0.2093023255813953
 40
0.2093023255813953
 40
0.2325581395348837
 40
0.2325581395348837
 40
0.2325581395348837
 40
0.2325581395348837
 40
0.2558139534883721
 40
0.2558139534883721
 40
0.2558139534883721
 40
0.2558139534883721
 40
0.2790697674418604
 40
0.2790697674418604
 40
0.2790697674418604
 40
0.2790697674418604
 40
0.3023255813953488
 40
0.3023255813953488
 40
0.3023255813953488
 40
0.3023255813953488
 40
0.3255813953488371
 40
0.3255813953488371
 40
0.3255813953488371
 40
0.3255813953488371
 40
0.3488372093023255
 40
0.3488372093023255
 40
0.3488372093023255
 40
0.3488372093023255
 40
0.3720930232558138
 40
0.3720930232558138
 40
0.3720930232558138
 40
0.3720930232558138
 40
0.3953488372093022
 40
0.3953488372093022
 40
0.3953488372093022
 40
0.3953488372093022
 40
0.4186046511627906
 40
0.4186046511627906
 40
0.4186046511627906
 40
0.4186046511627906
 40
0.4418604651162789
 40
0.4418604651162789
 40
0.4418604651162789
 40
0.4418604651162789
 40
0.4651162790697673
 40
0.4651162790697673
 40
0.4651162790697673
 40
0.4651162790697673
 40
0.4883720930232556
 40
0.4883720930232556
 40
0.4883720930232556
 40
0.4883720930232556
 40
0.511627906976744
 40
0.511627906976744
 40
0.511627906976744
 40
0.511627906976744
 40
0.5348837209302324
 40
0.5348837209302324
 40
0.5348837209302324
 40
0.5348837209302324
 40
0.5581395348837208
 40
0.5581395348837208
 40
0.5581395348837208
 40
0.5581395348837208
 40
0.5813953488372092
 40
0.5813953488372092
 40
0.5813953488372092
 40
0.5813953488372092
 40
0.6046511627906976
 40
0.6046511627906976
 40
0.6046511627906976
 40
0.6046511627906976
 40
0.6279069767441861
 40
0.6279069767441861
 40
0.6279069767441861
 40
0.6279069767441861
 40
0.6511627906976745
 40
0.6511627906976745
 40
0.6511627906976745
 40
0.6511627906976745
 40
0.6744186046511629
 40
0.6744186046511629
 40
0.6744186046511629
 40
0.6744186046511629
 40
0.6976744186046513
 40
0.6976744186046513
 40
0.6976744186046513
 40
0.6976744186046513
 40
0.7209302325581397
 40
0.7209302325581397
 40
0.7209302325581397
 40
0.7209302325581397
 40
0.7441860465116281
 40
0.7441860465116281
 40
0.7441860465116281
 40
0.7441860465116281
 40
0.7674418604651165
 40
0.7674418604651165
 40
0.7674418604651165
 40
0.7674418604651165
 40
0.790697674418605
 40
0.790697674418605
 40
0.790697674418605
 40
0.790697674418605
 40
0.8139534883720934
 40
0.8139534883720934
 40
0.8139534883720934
 40
0.8139534883720934
 40
0.8372093023255818
 40
0.8372093023255818
 40
0.8372093023255818
 40
0.8372093023255818
 40
0.8604651162790702
 40
0.8604651162790702
 40
0.8604651162790702
 40
0.8604651162790702
 40
0.8837209302325586
 40
0.8837209302325586
 40
0.8837209302325586
 40
0.8837209302325586
 40
0.906976744186047
 40
0.906976744186047
 40
0.906976744186047
 40
0.906976744186047
 40
0.9302325581395354
 40
0.9302325581395354
 40
0.9302325581395354
 40
0.9302325581395354
 40
0.9534883720930238
 40
0.9534883720930238
 40
0.9534883720930238
 40
0.9534883720930238
 40
0.9767441860465123
 40
0.9767441860465123
 40
0.9767441860465123
 40
0.9767441860465123
 40
1.0
 40
1.0
 40
1.0
 40
1.0
 10
1.8060800000000001
 20
4.5739700000000001
 30
0.0
 10
2.4410800000000004
 20
4.1523300000000001
 30
0.0
 10
3.2513400000000003
 20
3.6875100000000005
 30
0.0
 10
3.2157800000000001
 20
2.8086700000000002
 30
0.0
 10
3.2157800000000001
 20
2.8086700000000002
 30
0.0
 10
3.3910400000000003
 20
2.7883500000000003
 30
0.0
 10
3.3250000000000002
 20
3.0652100000000004
 30
0.0
 10
3.5078800000000001
 20
3.1744300000000001
 30
0.0
 10
3.5078800000000001
 20
3.1744300000000001
 30
0.0
 10
3.8507800000000003
 20
2.80105
 30
0.0
 10
3.7618800000000001
 20
2.1990700000000003
 30
0.0
 10
3.4723200000000003
 20
1.7977500000000002
 30
0.0
 10
3.4723200000000003
 20
1.7977500000000002
 30
0.0
 10
3.4723200000000003
 20
1.7977500000000002
 30
0.0
 10
3.5256600000000002
 20
1.9476100000000001
 30
0.0
 10
3.5256600000000002
 20
1.9476100000000001
 30
0.0
 10
3.5256600000000002
 20
1.9476100000000001
 30
0.0
 10
3.5891600000000001
 20
2.1711300000000002
 30
0.0
 10
3.6526600000000005
 20
2.4378300000000004
 30
0.0
 10
3.5891600000000001
 20
2.6664300000000001
 30
0.0
 10
3.5891600000000001
 20
2.6664300000000001
 30
0.0
 10
3.4977200000000002
 20
1.6936100000000001
 30
0.0
 10
2.9033600000000002
 20
1.0535300000000001
 30
0.0
 10
2.2455000000000003
 20
0.45917
 30
0.0
 10
2.2455000000000003
 20
0.45917
 30
0.0
 10
2.4868000000000001
 20
1.0433700000000001
 30
0.0
 10
3.8863400000000001
 20
1.9222100000000002
 30
0.0
 10
3.0583000000000005
 20
2.59531
 30
0.0
 10
3.0583000000000005
 20
2.59531
 30
0.0
 10
2.9694000000000003
 20
2.5114900000000002
 30
0.0
 10
2.9668600000000001
 20
2.1889100000000004
 30
0.0
 10
2.8068400000000002
 20
2.1279500000000002
 30
0.0
 10
2.8068400000000002
 20
2.1279500000000002
 30
0.0
 10
2.8068400000000002
 20
2.1279500000000002
 30
0.0
 10
2.2810600000000001
 20
1.4192900000000002
 30
0.0
 10
2.2810600000000001
 20
1.4192900000000002
 30
0.0
 10
2.2810600000000001
 20
1.4192900000000002
 30
0.0
 10
2.4563200000000003
 20
1.3329300000000002
 30
0.0
 10
2.5579200000000002
 20
1.8307700000000002
 30
0.0
 10
2.5884
 20
1.5564500000000001
 30
0.0
 10
2.5884
 20
1.5564500000000001
 30
0.0
 10
2.6442800000000002
 20
1.6504300000000001
 30
0.0
 10
2.7255600000000002
 20
1.5818500000000002
 30
0.0
 10
2.7408000000000001
 20
1.5005700000000002
 30
0.0
 10
2.7408000000000001
 20
1.5005700000000002
 30
0.0
 10
2.2074000000000003
 20
1.10687
 30
0.0
 10
2.13374
 20
0.37535
 30
0.0
 10
1.4073000000000002
 20
0.25343
 30
0.0
 10
1.4073000000000002
 20
0.25343
 30
0.0
 10
1.7298800000000001
 20
0.8046100000000001
 30
0.0
 10
2.0194400000000003
 20
1.23895
 30
0.0
 10
2.3369400000000002
 20
1.8612500000000001
 30
0.0
 10
2.3369400000000002
 20
1.8612500000000001
 30
0.0
 10
2.12358
 20
1.6809100000000001
 30
0.0
 10
1.7273400000000001
 20
1.3253100000000002
 30
0.0
 10
1.6714600000000002
 20
0.8604900000000001
 30
0.0
 10
1.6714600000000002
 20
0.8604900000000001
 30
0.0
 10
1.5774800000000002
 20
0.87065
 30
0.0
 10
1.48604
 20
0.8452500000000001
 30
0.0
 10
1.40476
 20
0.8198500000000001
 30
0.0
 10
1.40476
 20
0.8198500000000001
 30
0.0
 10
1.5139800000000001
 20
0.5912500000000001
 30
0.0
 10
1.3412600000000001
 20
0.57601
 30
0.0
 10
1.1710800000000001
 20
0.53537
 30
0.0
 10
1.1710800000000001
 20
0.53537
 30
0.0
 10
1.23204
 20
0.35249
 30
0.0
 10
1.0948800000000001
 20
0.29153
 30
0.0
 10
0.93232
 20
0.32201
 30
0.0
 10
0.93232
 20
0.32201
 30
0.0
 10
0.9602600000000001
 20
0.5887100000000001
 30
0.0
 10
1.1177400000000002
 20
0.76651
 30
0.0
 10
1.1812400000000001
 20
1.02305
 30
0.0
 10
1.1812400000000001
 20
1.02305
 30
0.0
 10
1.2472800000000002
 20
1.0941700000000001
 30
0.0
 10
1.1990200000000002
 20
1.2084700000000002
 30
0.0
 10
1.2549000000000001
 20
1.2897500000000002
 30
0.0
 10
1.2549000000000001
 20
1.2897500000000002
 30
0.0
 10
1.3463400000000001
 20
1.8002900000000002
 30
0.0
 10
1.2218800000000001
 20
1.1856100000000001
 30
0.0
 10
0.9907400000000001
 20
1.1678300000000001
 30
0.0
 10
0.9907400000000001
 20
1.1678300000000001
 30
0.0
 10
0.91454
 20
1.06115
 30
0.0
 10
0.8104000000000001
 20
1.02305
 30
0.0
 10
0.85104
 20
0.8401700000000001
 30
0.0
 10
0.85104
 20
0.8401700000000001
 30
0.0
 10
0.70118
 20
0.8122300000000001
 30
0.0
 10
0.5843400000000001
 20
0.8452500000000001
 30
0.0
 10
0.47766
 20
0.95701
 30
0.0
 10
0.47766
 20
0.95701
 30
0.0
 10
0.35066
 20
1.9399900000000001
 30
0.0
 10
0.48782
 20
3.0423500000000003
 30
0.0
 10
0.25414
 20
3.7840300000000004
 30
0.0
 10
0.25414
 20
3.7840300000000004
 30
0.0
 10
0.25414
 20
3.7840300000000004
 30
0.0
 10
0.24144
 20
2.4429100000000004
 30
0.0
 10
0.24144
 20
2.4429100000000004
 30
0.0
 10
0.24144
 20
2.4429100000000004
 30
0.0
 10
0.30748
 20
1.7164700000000002
 30
0.0
 10
0.2897
 20
1.0459100000000001
 30
0.0
 10
0.23382
 20
0.48965
 30
0.0
 10
0.23382
 20
0.48965
 30
0.0
 10
0.23382
 20
0.48965
 30
0.0
 10
0.21604
 20
0.78937
 30
0.0
 10
0.21604
 20
0.78937
 30
0.0
 10
0.21604
 20
0.78937
 30
0.0
 10
0.21604
 20
0.78937
 30
0.0
 10
0.12968
 20
1.44723
 30
0.0
 10
0.12968
 20
1.44723
 30
0.0
 10
0.12968
 20
1.44723
 30
0.0
 10
0.03062
 20
2.1152500000000001
 30
0.0
 10
-0.02271
 20
3.0271100000000004
 30
0.0
 10
0.07126
 20
3.7459300000000004
 30
0.0
 10
0.07126
 20
3.7459300000000004
 30
0.0
 10
0.10936
 20
3.5732100000000004
 30
0.0
 10
0.0484
 20
3.2480900000000004
 30
0.0
 10
0.15508
 20
3.1464900000000005
 30
0.0
 10
0.15508
 20
3.1464900000000005
 30
0.0
 10
0.21858
 20
3.8653100000000005
 30
0.0
 10
0.1754
 20
4.6146100000000008
 30
0.0
 10
0.30748
 20
5.31311
 30
0.0
 10
0.30748
 20
5.31311
 30
0.0
 10
0.63768
 20
5.1226100000000008
 30
0.0
 10
0.912
 20
4.7492300000000007
 30
0.0
 10
1.19394
 20
4.6069900000000006
 30
0.0
 10
1.19394
 20
4.6069900000000006
 30
0.0
 10
1.19394
 20
4.6069900000000006
 30
0.0
 10
0.8459600000000001
 20
5.1175300000000004
 30
0.0
 10
0.8459600000000001
 20
5.1175300000000004
 30
0.0
 10
0.8459600000000001
 20
5.1175300000000004
 30
0.0
 10
1.5724
 20
4.71875
 30
0.0
 10
1.4606400000000002
 20
4.5434900000000003
 30
0.0
 10
1.8695800000000002
 20
3.8957900000000003
 30
0.0
 10
1.8695800000000002
 20
3.8957900000000003
 30
0.0
 10
1.9813400000000001
 20
3.5986100000000003
 30
0.0
 10
2.1439000000000004
 20
3.4157300000000004
 30
0.0
 10
2.12866
 20
3.0906100000000003
 30
0.0
 10
2.12866
 20
3.0906100000000003
 30
0.0
 10
2.12866
 20
3.0906100000000003
 30
0.0
 10
2.0270600000000001
 20
3.2049100000000004
 30
0.0
 10
2.0270600000000001
 20
3.2049100000000004
 30
0.0
 10
2.0270600000000001
 20
3.2049100000000004
 30
0.0
 10
1.9559400000000002
 20
3.2607900000000001
 30
0.0
 10
2.0702400000000001
 20
2.8137500000000002
 30
0.0
 10
1.9686400000000002
 20
2.6943700000000002
 30
0.0
 10
1.9686400000000002
 20
2.6943700000000002
 30
0.0
 10
2.0677000000000003
 20
2.54705
 30
0.0
 10
2.0600800000000001
 20
2.8467700000000002
 30
0.0
 10
2.09056
 20
2.93059
 30
0.0
 10
2.09056
 20
2.93059
 30
0.0
 10
2.1489800000000003
 20
2.9432900000000002
 30
0.0
 10
2.1058000000000003
 20
2.8035900000000002
 30
0.0
 10
2.2074000000000003
 20
2.8645500000000004
 30
0.0
 10
2.2074000000000003
 20
2.8645500000000004
 30
0.0
 10
2.3547200000000004
 20
3.5147900000000001
 30
0.0
 10
1.9026000000000001
 20
4.0354900000000002
 30
0.0
 10
1.6206600000000002
 20
4.5587300000000006
 30
0.0
 10
1.6206600000000002
 20
4.5587300000000006
 30
0.0
 10
1.8695800000000002
 20
4.3682300000000005
 30
0.0
 10
2.1058000000000003
 20
4.1548700000000007
 30
0.0
 10
2.3420200000000002
 20
3.9516700000000005
 30
0.0
 10
2.3420200000000002
 20
3.9516700000000005
 30
0.0
 10
2.4741000000000004
 20
3.7941900000000004
 30
0.0
 10
2.5630000000000002
 20
3.9008700000000003
 30
0.0
 10
2.3750400000000003
 20
3.9999300000000004
 30
0.0
 10
2.3750400000000003
 20
3.9999300000000004
 30
0.0
 10
2.3750400000000003
 20
3.9999300000000004
 30
0.0
 10
2.2226400000000002
 20
4.1472500000000005
 30
0.0
 10
2.2226400000000002
 20
4.1472500000000005
 30
0.0
 10
2.2226400000000002
 20
4.1472500000000005
 30
0.0
 10
2.1032600000000001
 20
4.3047300000000002
 30
0.0
 10
1.9254600000000002
 20
4.4164900000000005
 30
0.0
 10
1.8060800000000001
 20
4.5739700000000001
 30
0.0
  0
SPLINE
  5
30
100
AcDbEntity
  8
Ebene 1
 62
     7
100
AcDbSpline
210
0.0
220
0.0
230
1.0
 70
     1
 71
     3
 72
    12
 73
     8
 74
     0
 42
0.0000000001
 43
0.0000000001
 40
0.0
 40
0.0
 40
0.0
 40
0.0
 40
0.5
 40
0.5
 40
0.5
 40
0.5
 40
1.0
 40
1.0
 40
1.0
 40
1.0
 10
0.08396
 20
5.0057700000000001
 30
0.0
 10
0.24398
 20
4.6400100000000002
 30
0.0
 10
0.15508
 20
4.2056700000000005
 30
0.0
 10
0.08142
 20
3.7814900000000002
 30
0.0
 10
0.08142
 20
3.7814900000000002
 30
0.0
 10
0.0357
 20
4.1828099999999999
 30
0.0
 10
0.10682
 20
4.6019100000000002
 30
0.0
 10
0.08396
 20
5.0057700000000001
 30
0.0
  0
SPLINE
  5
31
100
AcDbEntity
  8
Ebene 1
 62
     7
100
AcDbSpline
210
0.0
220
0.0
230
1.0
 70
     1
 71
     3
 72
     8
 73
     4
 74
     0
 42
0.0000000001
 43
0.0000000001
 40
0.0
 40
0.0
 40
0.0
 40
0.0
 40
1.0
 40
1.0
 40
1.0
 40
1.0
 10
-0.36053
 20
4.3936299999999999
 30
0.0
 10
-0.33767
 20
4.3936299999999999
 30
0.0
 10
-0.35799
 20
4.3707700000000003
 30
0.0
 10
-0.36053
 20
4.3936299999999999
 30
0.0
  0
SPLINE
  5
32
100
AcDbEntity
  8
Ebene 1
100
AcDbSpline
210
0.0
220
0.0
230
1.0
 70
     1
 71
     3
 72
    24
 73
    20
 74
     0
 42
0.0000000001
 43
0.0000000001
 40
0.0
 40
0.0
 40
0.0
 40
0.0
 40
0.2
 40
0.2
 40
0.2
 40
0.2
 40
0.4
 40
0.4
 40
0.4
 40
0.4
 40
0.6000000000000001
 40
0.6000000000000001
 40
0.6000000000000001
 40
0.6000000000000001
 40
0.8
 40
0.8
 40
0.8
 40
0.8
 40
1.0
 40
1.0
 40
1.0
 40
1.0
 10
-1.3460500000000002
 20
3.6621100000000002
 30
0.0
 10
-1.2647700000000002
 20
3.5732100000000004
 30
0.0
 10
-1.42225
 20
3.4512900000000002
 30
0.0
 10
-1.3943100000000002
 20
3.3268300000000002
 30
0.0
 10
-1.3943100000000002
 20
3.3268300000000002
 30
0.0
 10
-1.3943100000000002
 20
3.3268300000000002
 30
0.0
 10
-1.3282700000000001
 20
3.4081100000000002
 30
0.0
 10
-1.3282700000000001
 20
3.4081100000000002
 30
0.0
 10
-1.3282700000000001
 20
3.4081100000000002
 30
0.0
 10
-1.3181100000000001
 20
3.4335100000000001
 30
0.0
 10
-1.29271
 20
3.4106500000000004
 30
0.0
 10
-1.3054100000000002
 20
3.3852500000000001
 30
0.0
 10
-1.3054100000000002
 20
3.3852500000000001
 30
0.0
 10
-1.3714500000000001
 20
3.2328500000000004
 30
0.0
 10
-1.4019300000000001
 20
3.0728300000000002
 30
0.0
 10
-1.41971
 20
2.88741
 30
0.0
 10
-1.41971
 20
2.88741
 30
0.0
 10
-1.46035
 20
3.1287100000000003
 30
0.0
 10
-1.50353
 20
3.4385900000000005
 30
0.0
 10
-1.3460500000000002
 20
3.6621100000000002
 30
0.0
  0
SPLINE
  5
33
100
AcDbEntity
  8
Ebene 1
 62
     7
100
AcDbSpline
210
0.0
220
0.0
230
1.0
 70
     1
 71
     3
 72
    20
 73
    16
 74
     0
 42
0.0000000001
 43
0.0000000001
 40
0.0
 40
0.0
 40
0.0
 40
0.0
 40
0.25
 40
0.25
 40
0.25
 40
0.25
 40
0.5
 40
0.5
 40
0.5
 40
0.5
 40
0.75
 40
0.75
 40
0.75
 40
0.75
 40
1.0
 40
1.0
 40
1.0
 40
1.0
 10
-3.1088100000000001
 20
2.9585300000000001
 30
0.0
 10
-3.1164300000000003
 20
2.8086700000000002
 30
0.0
 10
-3.2866100000000005
 20
2.6537300000000004
 30
0.0
 10
-3.2231100000000001
 20
2.47085
 30
0.0
 10
-3.2231100000000001
 20
2.47085
 30
0.0
 10
-3.4288500000000002
 20
2.3489300000000002
 30
0.0
 10
-3.5025100000000005
 20
2.08223
 30
0.0
 10
-3.3577300000000001
 20
1.86633
 30
0.0
 10
-3.3577300000000001
 20
1.86633
 30
0.0
 10
-3.3577300000000001
 20
1.8434700000000002
 30
0.0
 10
-3.3678900000000005
 20
1.8206100000000001
 30
0.0
 10
-3.3907500000000002
 20
1.8079100000000001
 30
0.0
 10
-3.3907500000000002
 20
1.8079100000000001
 30
0.0
 10
-3.7057100000000003
 20
2.1914500000000001
 30
0.0
 10
-3.3196300000000001
 20
2.6308700000000003
 30
0.0
 10
-3.1088100000000001
 20
2.9585300000000001
 30
0.0
  0
SPLINE
  5
34
100
AcDbEntity
  8
Ebene 1
 62
     7
100
AcDbSpline
210
0.0
220
0.0
230
1.0
 70
     1
 71
     3
 72
    36
 73
    32
 74
     0
 42
0.0000000001
 43
0.0000000001
 40
0.0
 40
0.0
 40
0.0
 40
0.0
 40
0.125
 40
0.125
 40
0.125
 40
0.125
 40
0.25
 40
0.25
 40
0.25
 40
0.25
 40
0.375
 40
0.375
 40
0.375
 40
0.375
 40
0.5
 40
0.5
 40
0.5
 40
0.5
 40
0.625
 40
0.625
 40
0.625
 40
0.625
 40
0.75
 40
0.75
 40
0.75
 40
0.75
 40
0.875
 40
0.875
 40
0.875
 40
0.875
 40
1.0
 40
1.0
 40
1.0
 40
1.0
 10
-2.7709900000000003
 20
0.9798700000000001
 30
0.0
 10
-2.6744700000000003
 20
0.9239900000000001
 30
0.0
 10
-2.5931900000000003
 20
0.8325500000000001
 30
0.0
 10
-2.5652500000000003
 20
0.7309500000000001
 30
0.0
 10
-2.5652500000000003
 20
0.7309500000000001
 30
0.0
 10
-2.5652500000000003
 20
0.7309500000000001
 30
0.0
 10
-2.3315700000000001
 20
0.5861700000000001
 30
0.0
 10
-2.3315700000000001
 20
0.5861700000000001
 30
0.0
 10
-2.3315700000000001
 20
0.5861700000000001
 30
0.0
 10
-2.2960100000000003
 20
0.5633100000000001
 30
0.0
 10
-2.2833100000000002
 20
0.53029
 30
0.0
 10
-2.2934700000000001
 20
0.48203
 30
0.0
 10
-2.2934700000000001
 20
0.48203
 30
0.0
 10
-2.3874500000000003
 20
0.46933
 30
0.0
 10
-2.5601700000000003
 20
0.48711
 30
0.0
 10
-2.5855700000000001
 20
0.5912500000000001
 30
0.0
 10
-2.5855700000000001
 20
0.5912500000000001
 30
0.0
 10
-2.7151100000000001
 20
0.65729
 30
0.0
 10
-2.8573500000000003
 20
0.74619
 30
0.0
 10
-2.9741900000000001
 20
0.8223900000000001
 30
0.0
 10
-2.9741900000000001
 20
0.8223900000000001
 30
0.0
 10
-2.9741900000000001
 20
0.8223900000000001
 30
0.0
 10
-2.9995900000000004
 20
0.9265300000000001
 30
0.0
 10
-2.9995900000000004
 20
0.9265300000000001
 30
0.0
 10
-2.9995900000000004
 20
0.9265300000000001
 30
0.0
 10
-2.9995900000000004
 20
0.9265300000000001
 30
0.0
 10
-2.8370300000000004
 20
0.8960500000000001
 30
0.0
 10
-2.8370300000000004
 20
0.8960500000000001
 30
0.0
 10
-2.8370300000000004
 20
0.8960500000000001
 30
0.0
 10
-2.8014700000000001
 20
0.9214500000000001
 30
0.0
 10
-2.7684500000000001
 20
0.9214500000000001
 30
0.0
 10
-2.7709900000000003
 20
0.9798700000000001
 30
0.0
  0
SPLINE
  5
35
100
AcDbEntity
  8
Ebene 1
 62
     7
100
AcDbSpline
210
0.0
220
0.0
230
1.0
 70
     1
 71
     3
 72
    16
 73
    12
 74
     0
 42
0.0000000001
 43
0.0000000001
 40
0.0
 40
0.0
 40
0.0
 40
0.0
 40
0.3333333333333333
 40
0.3333333333333333
 40
0.3333333333333333
 40
0.3333333333333333
 40
0.6666666666666666
 40
0.6666666666666666
 40
0.6666666666666666
 40
0.6666666666666666
 40
1.0
 40
1.0
 40
1.0
 40
1.0
 10
2.6671400000000003
 20
0.7131700000000001
 30
0.0
 10
2.6671400000000003
 20
0.7131700000000001
 30
0.0
 10
2.9236800000000001
 20
1.10179
 30
0.0
 10
2.9236800000000001
 20
1.10179
 30
0.0
 10
2.9236800000000001
 20
1.10179
 30
0.0
 10
2.9465400000000002
 20
1.10179
 30
0.0
 10
2.9821000000000004
 20
1.11449
 30
0.0
 10
3.0049600000000001
 20
1.0916300000000001
 30
0.0
 10
3.0049600000000001
 20
1.0916300000000001
 30
0.0
 10
3.0049600000000001
 20
1.0916300000000001
 30
0.0
 10
2.6671400000000003
 20
0.7131700000000001
 30
0.0
 10
2.6671400000000003
 20
0.7131700000000001
 30
0.0
  0
SPLINE
  5
36
100
AcDbEntity
  8
Ebene 1
 62
     7
100
AcDbSpline
210
0.0
220
0.0
230
1.0
 70
     1
 71
     3
 72
    24
 73
    20
 74
     0
 42
0.0000000001
 43
0.0000000001
 40
0.0
 40
0.0
 40
0.0
 40
0.0
 40
0.2
 40
0.2
 40
0.2
 40
0.2
 40
0.4
 40
0.4
 40
0.4
 40
0.4
 40
0.6000000000000001
 40
0.6000000000000001
 40
0.6000000000000001
 40
0.6000000000000001
 40
0.8
 40
0.8
 40
0.8
 40
0.8
 40
1.0
 40
1.0
 40
1.0
 40
1.0
 10
-2.4636500000000003
 20
-0.13264
 30
0.0
 10
-1.8388100000000001
 20
-0.11486
 30
0.0
 10
-1.2698500000000001
 20
-0.26218
 30
0.0
 10
-0.65771
 20
-0.2825
 30
0.0
 10
-0.65771
 20
-0.2825
 30
0.0
 10
-0.6196100000000001
 20
-0.40696
 30
0.0
 10
-0.6729500000000001
 20
-0.5593600000000001
 30
0.0
 10
-0.6221500000000001
 20
-0.6863600000000001
 30
0.0
 10
-0.6221500000000001
 20
-0.6863600000000001
 30
0.0
 10
-1.16571
 20
-0.7117600000000001
 30
0.0
 10
-1.6889500000000002
 20
-0.6203200000000001
 30
0.0
 10
-2.1994900000000004
 20
-0.50602
 30
0.0
 10
-2.1994900000000004
 20
-0.50602
 30
0.0
 10
-2.1588500000000002
 20
-0.34346
 30
0.0
 10
-2.3264900000000002
 20
-0.47554
 30
0.0
 10
-2.2985500000000001
 20
-0.27742
 30
0.0
 10
-2.2985500000000001
 20
-0.27742
 30
0.0
 10
-2.3798300000000001
 20
-0.2571
 30
0.0
 10
-2.4839700000000002
 20
-0.25964
 30
0.0
 10
-2.4636500000000003
 20
-0.13264
 30
0.0
  0
SPLINE
  5
37
100
AcDbEntity
  8
Ebene 1
 62
     7
100
AcDbSpline
210
0.0
220
0.0
230
1.0
 70
     1
 71
     3
 72
    20
 73
    16
 74
     0
 42
0.0000000001
 43
0.0000000001
 40
0.0
 40
0.0
 40
0.0
 40
0.0
 40
0.25
 40
0.25
 40
0.25
 40
0.25
 40
0.5
 40
0.5
 40
0.5
 40
0.5
 40
0.75
 40
0.75
 40
0.75
 40
0.75
 40
1.0
 40
1.0
 40
1.0
 40
1.0
 10
2.9313000000000002
 20
-0.13264
 30
0.0
 10
2.9313000000000002
 20
-0.13264
 30
0.0
 10
2.9567000000000001
 20
-0.13264
 30
0.0
 10
2.9567000000000001
 20
-0.13264
 30
0.0
 10
2.9567000000000001
 20
-0.13264
 30
0.0
 10
2.9948000000000001
 20
-0.3637800000000001
 30
0.0
 10
2.7687400000000002
 20
-0.473
 30
0.0
 10
2.5960200000000002
 20
-0.56952
 30
0.0
 10
2.5960200000000002
 20
-0.56952
 30
0.0
 10
2.5960200000000002
 20
-0.56952
 30
0.0
 10
2.59348
 20
-0.4882400000000001
 30
0.0
 10
2.59348
 20
-0.4882400000000001
 30
0.0
 10
2.59348
 20
-0.4882400000000001
 30
0.0
 10
2.8144600000000004
 20
-0.47046
 30
0.0
 10
2.8551000000000002
 20
-0.29774
 30
0.0
 10
2.9313000000000002
 20
-0.13264
 30
0.0
  0
SPLINE
  5
38
100
AcDbEntity
  8
Ebene 1
 62
     7
100
AcDbSpline
210
0.0
220
0.0
230
1.0
 70
     1
 71
     3
 72
    24
 73
    20
 74
     0
 42
0.0000000001
 43
0.0000000001
 40
0.0
 40
0.0
 40
0.0
 40
0.0
 40
0.2
 40
0.2
 40
0.2
 40
0.2
 40
0.4
 40
0.4
 40
0.4
 40
0.4
 40
0.6000000000000001
 40
0.6000000000000001
 40
0.6000000000000001
 40
0.6000000000000001
 40
0.8
 40
0.8
 40
0.8
 40
0.8
 40
1.0
 40
1.0
 40
1.0
 40
1.0
 10
1.2803000000000002
 20
-0.18598
 30
0.0
 10
1.4073000000000002
 20
-0.18344
 30
0.0
 10
1.8238600000000003
 20
-0.15042
 30
0.0
 10
1.5851000000000002
 20
-0.34092
 30
0.0
 10
1.5851000000000002
 20
-0.34092
 30
0.0
 10
1.6790800000000001
 20
-0.36124
 30
0.0
 10
1.8416400000000002
 20
-0.39172
 30
0.0
 10
1.9229200000000002
 20
-0.4476000000000001
 30
0.0
 10
1.9229200000000002
 20
-0.4476000000000001
 30
0.0
 10
1.5546200000000001
 20
-0.5492
 30
0.0
 10
1.1990200000000002
 20
-0.6508000000000001
 30
0.0
 10
0.80532
 20
-0.6508000000000001
 30
0.0
 10
0.80532
 20
-0.6508000000000001
 30
0.0
 10
0.8027800000000001
 20
-0.53396
 30
0.0
 10
0.6707000000000001
 20
-0.27234
 30
0.0
 10
0.83072
 20
-0.25456
 30
0.0
 10
0.83072
 20
-0.25456
 30
0.0
 10
0.9805800000000001
 20
-0.24186
 30
0.0
 10
1.14314
 20
-0.23678
 30
0.0
 10
1.2803000000000002
 20
-0.18598
 30
0.0
  0
SPLINE
  5
39
100
AcDbEntity
  8
Ebene 1
 62
     7
100
AcDbSpline
210
0.0
220
0.0
230
1.0
 70
     1
 71
     3
 72
    24
 73
    20
 74
     0
 42
0.0000000001
 43
0.0000000001
 40
0.0
 40
0.0
 40
0.0
 40
0.0
 40
0.2
 40
0.2
 40
0.2
 40
0.2
 40
0.4
 40
0.4
 40
0.4
 40
0.4
 40
0.6000000000000001
 40
0.6000000000000001
 40
0.6000000000000001
 40
0.6000000000000001
 40
0.8
 40
0.8
 40
0.8
 40
0.8
 40
1.0
 40
1.0
 40
1.0
 40
1.0
 10
0.35828
 20
-0.23424
 30
0.0
 10
0.35828
 20
-0.23424
 30
0.0
 10
0.4624200000000001
 20
-0.24186
 30
0.0
 10
0.4624200000000001
 20
-0.24186
 30
0.0
 10
0.4624200000000001
 20
-0.24186
 30
0.0
 10
0.4294000000000001
 20
-0.33584
 30
0.0
 10
0.5005200000000001
 20
-0.4145800000000001
 30
0.0
 10
0.51322
 20
-0.49586
 30
0.0
 10
0.51322
 20
-0.49586
 30
0.0
 10
0.3989200000000001
 20
-0.4857
 30
0.0
 10
0.28462
 20
-0.54666
 30
0.0
 10
0.2008
 20
-0.4806200000000001
 30
0.0
 10
0.2008
 20
-0.4806200000000001
 30
0.0
 10
0.1754
 20
-0.34092
 30
0.0
 10
0.38368
 20
-0.40696
 30
0.0
 10
0.3455800000000001
 20
-0.26726
 30
0.0
 10
0.3455800000000001
 20
-0.26726
 30
0.0
 10
0.3455800000000001
 20
-0.26726
 30
0.0
 10
0.35828
 20
-0.23424
 30
0.0
 10
0.35828
 20
-0.23424
 30
0.0
  0
SPLINE
  5
3A
100
AcDbEntity
  8
Ebene 1
 62
     7
100
AcDbSpline
210
0.0
220
0.0
230
1.0
 70
     1
 71
     3
 72
    20
 73
    16
 74
     0
 42
0.0000000001
 43
0.0000000001
 40
0.0
 40
0.0
 40
0.0
 40
0.0
 40
0.25
 40
0.25
 40
0.25
 40
0.25
 40
0.5
 40
0.5
 40
0.5
 40
0.5
 40
0.75
 40
0.75
 40
0.75
 40
0.75
 40
1.0
 40
1.0
 40
1.0
 40
1.0
 10
-0.55357
 20
-0.27996
 30
0.0
 10
-0.49515
 20
-0.3002800000000001
 30
0.0
 10
-0.4494300000000001
 20
-0.27742
 30
0.0
 10
-0.39101
 20
-0.27488
 30
0.0
 10
-0.39101
 20
-0.27488
 30
0.0
 10
-0.46721
 20
-0.39172
 30
0.0
 10
-0.45197
 20
-0.55428
 30
0.0
 10
-0.4595900000000001
 20
-0.69398
 30
0.0
 10
-0.4595900000000001
 20
-0.69398
 30
0.0
 10
-0.5408700000000001
 20
-0.71938
 30
0.0
 10
-0.5205500000000001
 20
-0.6025400000000001
 30
0.0
 10
-0.53325
 20
-0.5568200000000001
 30
0.0
 10
-0.53325
 20
-0.5568200000000001
 30
0.0
 10
-0.53325
 20
-0.5568200000000001
 30
0.0
 10
-0.55357
 20
-0.27996
 30
0.0
 10
-0.55357
 20
-0.27996
 30
0.0
  0
SPLINE
  5
3B
100
AcDbEntity
  8
Ebene 1
 62
     7
100
AcDbSpline
210
0.0
220
0.0
230
1.0
 70
     1
 71
     3
 72
    16
 73
    12
 74
     0
 42
0.0000000001
 43
0.0000000001
 40
0.0
 40
0.0
 40
0.0
 40
0.0
 40
0.3333333333333333
 40
0.3333333333333333
 40
0.3333333333333333
 40
0.3333333333333333
 40
0.6666666666666666
 40
0.6666666666666666
 40
0.6666666666666666
 40
0.6666666666666666
 40
1.0
 40
1.0
 40
1.0
 40
1.0
 10
-2.8395700000000001
 20
-0.3714
 30
0.0
 10
-2.77861
 20
-0.42982
 30
0.0
 10
-2.7989300000000004
 20
-0.56698
 30
0.0
 10
-2.7633700000000001
 20
-0.6482600000000001
 30
0.0
 10
-2.7633700000000001
 20
-0.6482600000000001
 30
0.0
 10
-2.8319500000000004
 20
-0.6838200000000001
 30
0.0
 10
-2.8776700000000002
 20
-0.6508000000000001
 30
0.0
 10
-2.9157700000000002
 20
-0.5822200000000001
 30
0.0
 10
-2.9157700000000002
 20
-0.5822200000000001
 30
0.0
 10
-2.8344900000000002
 20
-0.53396
 30
0.0
 10
-2.8141700000000003
 20
-0.46284
 30
0.0
 10
-2.8395700000000001
 20
-0.3714
 30
0.0
  0
SPLINE
  5
3C
100
AcDbEntity
  8
Ebene 1
 62
     7
100
AcDbSpline
210
0.0
220
0.0
230
1.0
 70
     1
 71
     3
 72
    28
 73
    24
 74
     0
 42
0.0000000001
 43
0.0000000001
 40
0.0
 40
0.0
 40
0.0
 40
0.0
 40
0.1666666666666667
 40
0.1666666666666667
 40
0.1666666666666667
 40
0.1666666666666667
 40
0.3333333333333333
 40
0.3333333333333333
 40
0.3333333333333333
 40
0.3333333333333333
 40
0.5
 40
0.5
 40
0.5
 40
0.5
 40
0.6666666666666666
 40
0.6666666666666666
 40
0.6666666666666666
 40
0.6666666666666666
 40
0.8333333333333333
 40
0.8333333333333333
 40
0.8333333333333333
 40
0.8333333333333333
 40
1.0
 40
1.0
 40
1.0
 40
1.0
 10
-0.28433
 20
-0.3307600000000001
 30
0.0
 10
-0.19289
 20
-0.32822
 30
0.0
 10
-0.08621
 20
-0.3942600000000001
 30
0.0
 10
-0.11923
 20
-0.5111
 30
0.0
 10
-0.11923
 20
-0.5111
 30
0.0
 10
-0.11923
 20
-0.5111
 30
0.0
 10
-0.20051
 20
-0.5136400000000001
 30
0.0
 10
-0.20051
 20
-0.5136400000000001
 30
0.0
 10
-0.20051
 20
-0.5136400000000001
 30
0.0
 10
-0.20051
 20
-0.4907800000000001
 30
0.0
 10
-0.17765
 20
-0.45522
 30
0.0
 10
-0.21321
 20
-0.44506
 30
0.0
 10
-0.21321
 20
-0.44506
 30
0.0
 10
-0.21321
 20
-0.44506
 30
0.0
 10
-0.23607
 20
-0.4679200000000001
 30
0.0
 10
-0.23607
 20
-0.4679200000000001
 30
0.0
 10
-0.23607
 20
-0.4679200000000001
 30
0.0
 10
-0.19797
 20
-0.5492
 30
0.0
 10
-0.31481
 20
-0.5161800000000001
 30
0.0
 10
-0.34783
 20
-0.55174
 30
0.0
 10
-0.34783
 20
-0.55174
 30
0.0
 10
-0.34783
 20
-0.55174
 30
0.0
 10
-0.28433
 20
-0.3307600000000001
 30
0.0
 10
-0.28433
 20
-0.3307600000000001
 30
0.0
  0
SPLINE
  5
3D
100
AcDbEntity
  8
Ebene 1
 62
     7
100
AcDbSpline
210
0.0
220
0.0
230
1.0
 70
     1
 71
     3
 72
    20
 73
    16
 74
     0
 42
0.0000000001
 43
0.0000000001
 40
0.0
 40
0.0
 40
0.0
 40
0.0
 40
0.25
 40
0.25
 40
0.25
 40
0.25
 40
0.5
 40
0.5
 40
0.5
 40
0.5
 40
0.75
 40
0.75
 40
0.75
 40
0.75
 40
1.0
 40
1.0
 40
1.0
 40
1.0
 10
0.63514
 20
-0.3079
 30
0.0
 10
0.63514
 20
-0.3079
 30
0.0
 10
0.6732400000000001
 20
-0.34092
 30
0.0
 10
0.6732400000000001
 20
-0.34092
 30
0.0
 10
0.6732400000000001
 20
-0.34092
 30
0.0
 10
0.66308
 20
-0.4679200000000001
 30
0.0
 10
0.76214
 20
-0.6635000000000001
 30
0.0
 10
0.57672
 20
-0.67874
 30
0.0
 10
0.57672
 20
-0.67874
 30
0.0
 10
0.52846
 20
-0.5746
 30
0.0
 10
0.64022
 20
-0.4577600000000001
 30
0.0
 10
0.5691000000000001
 20
-0.3333
 30
0.0
 10
0.5691000000000001
 20
-0.3333
 30
0.0
 10
0.5894200000000001
 20
-0.3307600000000001
 30
0.0
 10
0.6249800000000001
 20
-0.3307600000000001
 30
0.0
 10
0.63514
 20
-0.3079
 30
0.0
  0
SPLINE
  5
3E
100
AcDbEntity
  8
Ebene 1
 62
     7
100
AcDbSpline
210
0.0
220
0.0
230
1.0
 70
     1
 71
     3
 72
    20
 73
    16
 74
     0
 42
0.0000000001
 43
0.0000000001
 40
0.0
 40
0.0
 40
0.0
 40
0.0
 40
0.25
 40
0.25
 40
0.25
 40
0.25
 40
0.5
 40
0.5
 40
0.5
 40
0.5
 40
0.75
 40
0.75
 40
0.75
 40
0.75
 40
1.0
 40
1.0
 40
1.0
 40
1.0
 10
-0.04303
 20
-0.33584
 30
0.0
 10
0.11698
 20
-0.3079
 30
0.0
 10
0.17794
 20
-0.47046
 30
0.0
 10
0.1246
 20
-0.5974600000000001
 30
0.0
 10
0.1246
 20
-0.5974600000000001
 30
0.0
 10
0.1246
 20
-0.5974600000000001
 30
0.0
 10
0.07634
 20
-0.5771400000000001
 30
0.0
 10
0.07634
 20
-0.5771400000000001
 30
0.0
 10
0.07634
 20
-0.5771400000000001
 30
0.0
 10
0.00776
 20
-0.6000000000000001
 30
0.0
 10
-0.03795
 20
-0.5212600000000001
 30
0.0
 10
-0.00493
 20
-0.45014
 30
0.0
 10
-0.00493
 20
-0.45014
 30
0.0
 10
-0.03033
 20
-0.4171200000000001
 30
0.0
 10
-0.04049
 20
-0.38156
 30
0.0
 10
-0.04303
 20
-0.33584
 30
0.0
  0
SPLINE
  5
3F
100
AcDbEntity
  8
Ebene 1
 62
     7
100
AcDbSpline
210
0.0
220
0.0
230
1.0
 70
     1
 71
     3
 72
    12
 73
     8
 74
     0
 42
0.0000000001
 43
0.0000000001
 40
0.0
 40
0.0
 40
0.0
 40
0.0
 40
0.5
 40
0.5
 40
0.5
 40
0.5
 40
1.0
 40
1.0
 40
1.0
 40
1.0
 10
2.6925400000000002
 20
-0.29012
 30
0.0
 10
2.7738200000000002
 20
-0.3206000000000001
 30
0.0
 10
2.6265000000000001
 20
-0.3942600000000001
 30
0.0
 10
2.5807800000000003
 20
-0.40696
 30
0.0
 10
2.5807800000000003
 20
-0.40696
 30
0.0
 10
2.5223600000000004
 20
-0.32822
 30
0.0
 10
2.6595200000000001
 20
-0.31298
 30
0.0
 10
2.6925400000000002
 20
-0.29012
 30
0.0
  0
SPLINE
  5
40
100
AcDbEntity
  8
Ebene 1
 62
     7
100
AcDbSpline
210
0.0
220
0.0
230
1.0
 70
     1
 71
     3
 72
    24
 73
    20
 74
     0
 42
0.0000000001
 43
0.0000000001
 40
0.0
 40
0.0
 40
0.0
 40
0.0
 40
0.2
 40
0.2
 40
0.2
 40
0.2
 40
0.4
 40
0.4
 40
0.4
 40
0.4
 40
0.6000000000000001
 40
0.6000000000000001
 40
0.6000000000000001
 40
0.6000000000000001
 40
0.8
 40
0.8
 40
0.8
 40
0.8
 40
1.0
 40
1.0
 40
1.0
 40
1.0
 10
-2.7659100000000003
 20
-0.46284
 30
0.0
 10
-2.7659100000000003
 20
-0.46284
 30
0.0
 10
-2.7201900000000001
 20
-0.46284
 30
0.0
 10
-2.7201900000000001
 20
-0.46284
 30
0.0
 10
-2.7201900000000001
 20
-0.46284
 30
0.0
 10
-2.6617700000000002
 20
-0.55174
 30
0.0
 10
-2.4890500000000002
 20
-0.5365000000000001
 30
0.0
 10
-2.52969
 20
-0.6660400000000001
 30
0.0
 10
-2.52969
 20
-0.6660400000000001
 30
0.0
 10
-2.52969
 20
-0.6660400000000001
 30
0.0
 10
-2.5068300000000003
 20
-0.69906
 30
0.0
 10
-2.5068300000000003
 20
-0.69906
 30
0.0
 10
-2.5068300000000003
 20
-0.69906
 30
0.0
 10
-2.5068300000000003
 20
-0.69906
 30
0.0
 10
-2.6008100000000001
 20
-0.67874
 30
0.0
 10
-2.6008100000000001
 20
-0.67874
 30
0.0
 10
-2.6008100000000001
 20
-0.67874
 30
0.0
 10
-2.7252700000000001
 20
-0.7270000000000001
 30
0.0
 10
-2.7760700000000003
 20
-0.56698
 30
0.0
 10
-2.7659100000000003
 20
-0.46284
 30
0.0
  0
SPLINE
  5
41
100
AcDbEntity
  8
Ebene 1
 62
     7
100
AcDbSpline
210
0.0
220
0.0
230
1.0
 70
     1
 71
     3
 72
    88
 73
    84
 74
     0
 42
0.0000000001
 43
0.0000000001
 40
0.0
 40
0.0
 40
0.0
 40
0.0
 40
0.0476190476190476
 40
0.0476190476190476
 40
0.0476190476190476
 40
0.0476190476190476
 40
0.0952380952380952
 40
0.0952380952380952
 40
0.0952380952380952
 40
0.0952380952380952
 40
0.1428571428571429
 40
0.1428571428571429
 40
0.1428571428571429
 40
0.1428571428571429
 40
0.1904761904761905
 40
0.1904761904761905
 40
0.1904761904761905
 40
0.1904761904761905
 40
0.2380952380952381
 40
0.2380952380952381
 40
0.2380952380952381
 40
0.2380952380952381
 40
0.2857142857142857
 40
0.2857142857142857
 40
0.2857142857142857
 40
0.2857142857142857
 40
0.3333333333333333
 40
0.3333333333333333
 40
0.3333333333333333
 40
0.3333333333333333
 40
0.3809523809523809
 40
0.3809523809523809
 40
0.3809523809523809
 40
0.3809523809523809
 40
0.4285714285714286
 40
0.4285714285714286
 40
0.4285714285714286
 40
0.4285714285714286
 40
0.4761904761904762
 40
0.4761904761904762
 40
0.4761904761904762
 40
0.4761904761904762
 40
0.5238095238095237
 40
0.5238095238095237
 40
0.5238095238095237
 40
0.5238095238095237
 40
0.5714285714285714
 40
0.5714285714285714
 40
0.5714285714285714
 40
0.5714285714285714
 40
0.6190476190476191
 40
0.6190476190476191
 40
0.6190476190476191
 40
0.6190476190476191
 40
0.6666666666666667
 40
0.6666666666666667
 40
0.6666666666666667
 40
0.6666666666666667
 40
0.7142857142857144
 40
0.7142857142857144
 40
0.7142857142857144
 40
0.7142857142857144
 40
0.7619047619047621
 40
0.7619047619047621
 40
0.7619047619047621
 40
0.7619047619047621
 40
0.8095238095238098
 40
0.8095238095238098
 40
0.8095238095238098
 40
0.8095238095238098
 40
0.8571428571428574
 40
0.8571428571428574
 40
0.8571428571428574
 40
0.8571428571428574
 40
0.9047619047619051
 40
0.9047619047619051
 40
0.9047619047619051
 40
0.9047619047619051
 40
0.9523809523809528
 40
0.9523809523809528
 40
0.9523809523809528
 40
0.9523809523809528
 40
1.0
 40
1.0
 40
1.0
 40
1.0
 10
2.4537800000000001
 20
-0.3637800000000001
 30
0.0
 10
2.5604600000000004
 20
-0.4780800000000001
 30
0.0
 10
2.2607400000000002
 20
-0.50856
 30
0.0
 10
2.1693000000000002
 20
-0.5441200000000001
 30
0.0
 10
2.1693000000000002
 20
-0.5441200000000001
 30
0.0
 10
2.1693000000000002
 20
-0.5441200000000001
 30
0.0
 10
1.8365600000000002
 20
-0.6685800000000001
 30
0.0
 10
1.8365600000000002
 20
-0.6685800000000001
 30
0.0
 10
1.8365600000000002
 20
-0.6685800000000001
 30
0.0
 10
1.8365600000000002
 20
-0.6685800000000001
 30
0.0
 10
1.9610200000000002
 20
-0.67366
 30
0.0
 10
1.9610200000000002
 20
-0.67366
 30
0.0
 10
1.9610200000000002
 20
-0.67366
 30
0.0
 10
1.9610200000000002
 20
-0.67366
 30
0.0
 10
2.38266
 20
-0.5212600000000001
 30
0.0
 10
2.38266
 20
-0.5212600000000001
 30
0.0
 10
2.38266
 20
-0.5212600000000001
 30
0.0
 10
2.38266
 20
-0.5212600000000001
 30
0.0
 10
2.4791800000000004
 20
-0.52634
 30
0.0
 10
2.4791800000000004
 20
-0.52634
 30
0.0
 10
2.4791800000000004
 20
-0.52634
 30
0.0
 10
1.0491600000000001
 20
-1.1410200000000001
 30
0.0
 10
-0.78217
 20
-1.2807200000000001
 30
0.0
 10
-2.2731500000000002
 20
-0.7752600000000001
 30
0.0
 10
-2.2731500000000002
 20
-0.7752600000000001
 30
0.0
 10
-2.1359900000000001
 20
-0.7244600000000001
 30
0.0
 10
-1.9480300000000002
 20
-0.8133600000000001
 30
0.0
 10
-1.7880100000000001
 20
-0.8082800000000001
 30
0.0
 10
-1.7880100000000001
 20
-0.8082800000000001
 30
0.0
 10
-1.5187700000000002
 20
-0.8946400000000001
 30
0.0
 10
-1.2419100000000001
 20
-0.90988
 30
0.0
 10
-0.95235
 20
-0.9378200000000001
 30
0.0
 10
-0.95235
 20
-0.9378200000000001
 30
0.0
 10
-0.95235
 20
-0.9378200000000001
 30
0.0
 10
-1.6838700000000002
 20
-0.78288
 30
0.0
 10
-1.6838700000000002
 20
-0.78288
 30
0.0
 10
-1.6838700000000002
 20
-0.78288
 30
0.0
 10
-1.6838700000000002
 20
-0.78288
 30
0.0
 10
-1.8819900000000001
 20
-0.7397
 30
0.0
 10
-1.8819900000000001
 20
-0.7397
 30
0.0
 10
-1.8819900000000001
 20
-0.7397
 30
0.0
 10
-2.02169
 20
-0.7092200000000001
 30
0.0
 10
-2.1715500000000003
 20
-0.67874
 30
0.0
 10
-2.2909300000000004
 20
-0.6127
 30
0.0
 10
-2.2909300000000004
 20
-0.6127
 30
0.0
 10
-2.2909300000000004
 20
-0.6127
 30
0.0
 10
-0.7110500000000001
 20
-0.8387600000000001
 30
0.0
 10
-0.7110500000000001
 20
-0.8387600000000001
 30
0.0
 10
-0.7110500000000001
 20
-0.8387600000000001
 30
0.0
 10
-0.52563
 20
-0.8692400000000001
 30
0.0
 10
-0.24877
 20
-0.8387600000000001
 30
0.0
 10
-0.32497
 20
-0.5873
 30
0.0
 10
-0.32497
 20
-0.5873
 30
0.0
 10
-0.32497
 20
-0.5873
 30
0.0
 10
-0.21067
 20
-0.5822200000000001
 30
0.0
 10
-0.21067
 20
-0.5822200000000001
 30
0.0
 10
-0.21067
 20
-0.5822200000000001
 30
0.0
 10
-0.02271
 20
-0.65842
 30
0.0
 10
-0.25385
 20
-0.6406400000000001
 30
0.0
 10
-0.27417
 20
-0.7346200000000001
 30
0.0
 10
-0.27417
 20
-0.7346200000000001
 30
0.0
 10
0.07126
 20
-0.80574
 30
0.0
 10
-0.30465
 20
-0.9327400000000001
 30
0.0
 10
-0.46467
 20
-0.94798
 30
0.0
 10
-0.46467
 20
-0.94798
 30
0.0
 10
-0.32751
 20
-0.9556000000000001
 30
0.0
 10
-0.14209
 20
-0.9175000000000001
 30
0.0
 10
-0.04811
 20
-1.0191000000000001
 30
0.0
 10
-0.04811
 20
-1.0191000000000001
 30
0.0
 10
-0.00493
 20
-0.8667
 30
0.0
 10
0.5030600000000001
 20
-0.97084
 30
0.0
 10
0.3024
 20
-0.8133600000000001
 30
0.0
 10
0.3024
 20
-0.8133600000000001
 30
0.0
 10
0.3024
 20
-0.8362200000000001
 30
0.0
 10
0.30494
 20
-0.9048000000000001
 30
0.0
 10
0.26938
 20
-0.8717800000000001
 30
0.0
 10
0.26938
 20
-0.8717800000000001
 30
0.0
 10
0.16524
 20
-0.8387600000000001
 30
0.0
 10
-0.07351
 20
-0.9606800000000001
 30
0.0
 10
-0.05319
 20
-0.7879600000000001
 30
0.0
 10
-0.05319
 20
-0.7879600000000001
 30
0.0
 10
0.7392800000000001
 20
-0.7676400000000001
 30
0.0
 10
1.6765400000000001
 20
-0.71938
 30
0.0
 10
2.4537800000000001
 20
-0.3637800000000001
 30
0.0
  0
SPLINE
  5
42
100
AcDbEntity
  8
Ebene 1
 62
     7
100
AcDbSpline
210
0.0
220
0.0
230
1.0
 70
     1
 71
     3
 72
    24
 73
    20
 74
     0
 42
0.0000000001
 43
0.0000000001
 40
0.0
 40
0.0
 40
0.0
 40
0.0
 40
0.2
 40
0.2
 40
0.2
 40
0.2
 40
0.4
 40
0.4
 40
0.4
 40
0.4
 40
0.6000000000000001
 40
0.6000000000000001
 40
0.6000000000000001
 40
0.6000000000000001
 40
0.8
 40
0.8
 40
0.8
 40
0.8
 40
1.0
 40
1.0
 40
1.0
 40
1.0
 10
0.38622
 20
-0.53396
 30
0.0
 10
0.43448
 20
-0.5212600000000001
 30
0.0
 10
0.47004
 20
-0.5415800000000001
 30
0.0
 10
0.4827400000000001
 20
-0.5873
 30
0.0
 10
0.4827400000000001
 20
-0.5873
 30
0.0
 10
0.4827400000000001
 20
-0.5873
 30
0.0
 10
0.5056000000000001
 20
-0.6457200000000001
 30
0.0
 10
0.5056000000000001
 20
-0.6457200000000001
 30
0.0
 10
0.5056000000000001
 20
-0.6457200000000001
 30
0.0
 10
0.404
 20
-0.69398
 30
0.0
 10
0.29732
 20
-0.61524
 30
0.0
 10
0.20588
 20
-0.61778
 30
0.0
 10
0.20588
 20
-0.61778
 30
0.0
 10
0.19064
 20
-0.5619000000000001
 30
0.0
 10
0.2617600000000001
 20
-0.59492
 30
0.0
 10
0.28462
 20
-0.56952
 30
0.0
 10
0.28462
 20
-0.56952
 30
0.0
 10
0.28462
 20
-0.56952
 30
0.0
 10
0.38622
 20
-0.53396
 30
0.0
 10
0.38622
 20
-0.53396
 30
0.0
  0
SPLINE
  5
43
100
AcDbEntity
  8
Ebene 1
 62
     7
100
AcDbSpline
210
0.0
220
0.0
230
1.0
 70
     1
 71
     3
 72
    16
 73
    12
 74
     0
 42
0.0000000001
 43
0.0000000001
 40
0.0
 40
0.0
 40
0.0
 40
0.0
 40
0.3333333333333333
 40
0.3333333333333333
 40
0.3333333333333333
 40
0.3333333333333333
 40
0.6666666666666666
 40
0.6666666666666666
 40
0.6666666666666666
 40
0.6666666666666666
 40
1.0
 40
1.0
 40
1.0
 40
1.0
 10
2.8398600000000003
 20
-0.5390400000000001
 30
0.0
 10
2.9211400000000003
 20
-0.5847600000000001
 30
0.0
 10
2.8576400000000004
 20
-0.8387600000000001
 30
0.0
 10
2.7535000000000003
 20
-0.7727200000000001
 30
0.0
 10
2.7535000000000003
 20
-0.7727200000000001
 30
0.0
 10
2.7535000000000003
 20
-0.7727200000000001
 30
0.0
 10
2.6823800000000002
 20
-0.7752600000000001
 30
0.0
 10
2.6823800000000002
 20
-0.7752600000000001
 30
0.0
 10
2.6823800000000002
 20
-0.7752600000000001
 30
0.0
 10
2.5630000000000002
 20
-0.6279400000000001
 30
0.0
 10
2.7712800000000004
 20
-0.61016
 30
0.0
 10
2.8398600000000003
 20
-0.5390400000000001
 30
0.0
  0
SPLINE
  5
44
100
AcDbEntity
  8
Ebene 1
 62
     7
100
AcDbSpline
210
0.0
220
0.0
230
1.0
 70
     1
 71
     3
 72
   264
 73
   260
 74
     0
 42
0.0000000001
 43
0.0000000001
 40
0.0
 40
0.0
 40
0.0
 40
0.0
 40
0.0153846153846154
 40
0.0153846153846154
 40
0.0153846153846154
 40
0.0153846153846154
 40
0.0307692307692308
 40
0.0307692307692308
 40
0.0307692307692308
 40
0.0307692307692308
 40
0.0461538461538462
 40
0.0461538461538462
 40
0.0461538461538462
 40
0.0461538461538462
 40
0.0615384615384615
 40
0.0615384615384615
 40
0.0615384615384615
 40
0.0615384615384615
 40
0.0769230769230769
 40
0.0769230769230769
 40
0.0769230769230769
 40
0.0769230769230769
 40
0.0923076923076923
 40
0.0923076923076923
 40
0.0923076923076923
 40
0.0923076923076923
 40
0.1076923076923077
 40
0.1076923076923077
 40
0.1076923076923077
 40
0.1076923076923077
 40
0.1230769230769231
 40
0.1230769230769231
 40
0.1230769230769231
 40
0.1230769230769231
 40
0.1384615384615385
 40
0.1384615384615385
 40
0.1384615384615385
 40
0.1384615384615385
 40
0.1538461538461539
 40
0.1538461538461539
 40
0.1538461538461539
 40
0.1538461538461539
 40
0.1692307692307692
 40
0.1692307692307692
 40
0.1692307692307692
 40
0.1692307692307692
 40
0.1846153846153846
 40
0.1846153846153846
 40
0.1846153846153846
 40
0.1846153846153846
 40
0.2
 40
0.2
 40
0.2
 40
0.2
 40
0.2153846153846154
 40
0.2153846153846154
 40
0.2153846153846154
 40
0.2153846153846154
 40
0.2307692307692308
 40
0.2307692307692308
 40
0.2307692307692308
 40
0.2307692307692308
 40
0.2461538461538462
 40
0.2461538461538462
 40
0.2461538461538462
 40
0.2461538461538462
 40
0.2615384615384616
 40
0.2615384615384616
 40
0.2615384615384616
 40
0.2615384615384616
 40
0.2769230769230769
 40
0.2769230769230769
 40
0.2769230769230769
 40
0.2769230769230769
 40
0.2923076923076923
 40
0.2923076923076923
 40
0.2923076923076923
 40
0.2923076923076923
 40
0.3076923076923077
 40
0.3076923076923077
 40
0.3076923076923077
 40
0.3076923076923077
 40
0.3230769230769231
 40
0.3230769230769231
 40
0.3230769230769231
 40
0.3230769230769231
 40
0.3384615384615385
 40
0.3384615384615385
 40
0.3384615384615385
 40
0.3384615384615385
 40
0.3538461538461539
 40
0.3538461538461539
 40
0.3538461538461539
 40
0.3538461538461539
 40
0.3692307692307693
 40
0.3692307692307693
 40
0.3692307692307693
 40
0.3692307692307693
 40
0.3846153846153846
 40
0.3846153846153846
 40
0.3846153846153846
 40
0.3846153846153846
 40
0.4
 40
0.4
 40
0.4
 40
0.4
 40
0.4153846153846154
 40
0.4153846153846154
 40
0.4153846153846154
 40
0.4153846153846154
 40
0.4307692307692308
 40
0.4307692307692308
 40
0.4307692307692308
 40
0.4307692307692308
 40
0.4461538461538462
 40
0.4461538461538462
 40
0.4461538461538462
 40
0.4461538461538462
 40
0.4615384615384616
 40
0.4615384615384616
 40
0.4615384615384616
 40
0.4615384615384616
 40
0.476923076923077
 40
0.476923076923077
 40
0.476923076923077
 40
0.476923076923077
 40
0.4923076923076923
 40
0.4923076923076923
 40
0.4923076923076923
 40
0.4923076923076923
 40
0.5076923076923077
 40
0.5076923076923077
 40
0.5076923076923077
 40
0.5076923076923077
 40
0.523076923076923
 40
0.523076923076923
 40
0.523076923076923
 40
0.523076923076923
 40
0.5384615384615383
 40
0.5384615384615383
 40
0.5384615384615383
 40
0.5384615384615383
 40
0.5538461538461537
 40
0.5538461538461537
 40
0.5538461538461537
 40
0.5538461538461537
 40
0.569230769230769
 40
0.569230769230769
 40
0.569230769230769
 40
0.569230769230769
 40
0.5846153846153843
 40
0.5846153846153843
 40
0.5846153846153843
 40
0.5846153846153843
 40
0.5999999999999996
 40
0.5999999999999996
 40
0.5999999999999996
 40
0.5999999999999996
 40
0.615384615384615
 40
0.615384615384615
 40
0.615384615384615
 40
0.615384615384615
 40
0.6307692307692303
 40
0.6307692307692303
 40
0.6307692307692303
 40
0.6307692307692303
 40
0.6461538461538456
 40
0.6461538461538456
 40
0.6461538461538456
 40
0.6461538461538456
 40
0.661538461538461
 40
0.661538461538461
 40
0.661538461538461
 40
0.661538461538461
 40
0.6769230769230763
 40
0.6769230769230763
 40
0.6769230769230763
 40
0.6769230769230763
 40
0.6923076923076916
 40
0.6923076923076916
 40
0.6923076923076916
 40
0.6923076923076916
 40
0.707692307692307
 40
0.707692307692307
 40
0.707692307692307
 40
0.707692307692307
 40
0.7230769230769223
 40
0.7230769230769223
 40
0.7230769230769223
 40
0.7230769230769223
 40
0.7384615384615376
 40
0.7384615384615376
 40
0.7384615384615376
 40
0.7384615384615376
 40
0.7538461538461529
 40
0.7538461538461529
 40
0.7538461538461529
 40
0.7538461538461529
 40
0.7692307692307683
 40
0.7692307692307683
 40
0.7692307692307683
 40
0.7692307692307683
 40
0.7846153846153836
 40
0.7846153846153836
 40
0.7846153846153836
 40
0.7846153846153836
 40
0.7999999999999989
 40
0.7999999999999989
 40
0.7999999999999989
 40
0.7999999999999989
 40
0.8153846153846143
 40
0.8153846153846143
 40
0.8153846153846143
 40
0.8153846153846143
 40
0.8307692307692296
 40
0.8307692307692296
 40
0.8307692307692296
 40
0.8307692307692296
 40
0.8461538461538449
 40
0.8461538461538449
 40
0.8461538461538449
 40
0.8461538461538449
 40
0.8615384615384603
 40
0.8615384615384603
 40
0.8615384615384603
 40
0.8615384615384603
 40
0.8769230769230756
 40
0.8769230769230756
 40
0.8769230769230756
 40
0.8769230769230756
 40
0.8923076923076909
 40
0.8923076923076909
 40
0.8923076923076909
 40
0.8923076923076909
 40
0.9076923076923062
 40
0.9076923076923062
 40
0.9076923076923062
 40
0.9076923076923062
 40
0.9230769230769216
 40
0.9230769230769216
 40
0.9230769230769216
 40
0.9230769230769216
 40
0.9384615384615369
 40
0.9384615384615369
 40
0.9384615384615369
 40
0.9384615384615369
 40
0.9538461538461522
 40
0.9538461538461522
 40
0.9538461538461522
 40
0.9538461538461522
 40
0.9692307692307676
 40
0.9692307692307676
 40
0.9692307692307676
 40
0.9692307692307676
 40
0.9846153846153829
 40
0.9846153846153829
 40
0.9846153846153829
 40
0.9846153846153829
 40
1.0
 40
1.0
 40
1.0
 40
1.0
 10
-2.3290300000000004
 20
-0.84638
 30
0.0
 10
-1.6076700000000002
 20
-1.08006
 30
0.0
 10
-0.8177300000000001
 20
-1.21214
 30
0.0
 10
-0.04303
 20
-1.2248400000000002
 30
0.0
 10
-0.04303
 20
-1.2248400000000002
 30
0.0
 10
-0.04049
 20
-1.3518400000000002
 30
0.0
 10
-0.01255
 20
-1.4788400000000002
 30
0.0
 10
0.05602
 20
-1.5575800000000002
 30
0.0
 10
0.05602
 20
-1.5575800000000002
 30
0.0
 10
0.22112
 20
-1.2426200000000001
 30
0.0
 10
0.5386200000000001
 20
-1.03688
 30
0.0
 10
1.0034400000000001
 20
-1.1054600000000001
 30
0.0
 10
1.0034400000000001
 20
-1.1054600000000001
 30
0.0
 10
0.9018400000000001
 20
-1.1892800000000001
 30
0.0
 10
0.785
 20
-1.1461000000000001
 30
0.0
 10
0.6732400000000001
 20
-1.2553200000000002
 30
0.0
 10
0.6732400000000001
 20
-1.2553200000000002
 30
0.0
 10
0.07888
 20
-2.0325600000000001
 30
0.0
 10
-0.41387
 20
-1.1892800000000001
 30
0.0
 10
-1.1403100000000002
 20
-1.28834
 30
0.0
 10
-1.1403100000000002
 20
-1.28834
 30
0.0
 10
-0.7872500000000001
 20
-1.4763000000000002
 30
0.0
 10
-0.35545
 20
-1.6490200000000002
 30
0.0
 10
-0.03541
 20
-1.9309600000000002
 30
0.0
 10
-0.03541
 20
-1.9309600000000002
 30
0.0
 10
-0.03541
 20
-1.9309600000000002
 30
0.0
 10
-0.26909
 20
-2.4059400000000002
 30
0.0
 10
-0.26909
 20
-2.4059400000000002
 30
0.0
 10
-0.26909
 20
-2.4059400000000002
 30
0.0
 10
-0.35037
 20
-2.3729200000000001
 30
0.0
 10
-0.3757700000000001
 20
-2.6447000000000003
 30
0.0
 10
-0.42403
 20
-2.5888200000000001
 30
0.0
 10
-0.42403
 20
-2.5888200000000001
 30
0.0
 10
-0.8329700000000001
 20
-2.8529800000000001
 30
0.0
 10
-1.58989
 20
-2.6167600000000002
 30
0.0
 10
-1.8692900000000001
 20
-3.0409400000000004
 30
0.0
 10
-1.8692900000000001
 20
-3.0409400000000004
 30
0.0
 10
-1.67117
 20
-3.1171400000000005
 30
0.0
 10
-1.37907
 20
-2.81996
 30
0.0
 10
-1.08951
 20
-2.8352000000000004
 30
0.0
 10
-1.08951
 20
-2.8352000000000004
 30
0.0
 10
-0.26401
 20
-2.4923000000000002
 30
0.0
 10
-0.7720100000000001
 20
-3.4981400000000002
 30
0.0
 10
-0.88885
 20
-3.8715200000000003
 30
0.0
 10
-0.88885
 20
-3.8715200000000003
 30
0.0
 10
-0.88885
 20
-3.8715200000000003
 30
0.0
 10
-0.7770900000000001
 20
-3.7521400000000003
 30
0.0
 10
-0.7770900000000001
 20
-3.7521400000000003
 30
0.0
 10
-0.7770900000000001
 20
-3.7521400000000003
 30
0.0
 10
-0.7770900000000001
 20
-3.7521400000000003
 30
0.0
 10
-0.72121
 20
-3.6708600000000002
 30
0.0
 10
-0.72121
 20
-3.6708600000000002
 30
0.0
 10
-0.72121
 20
-3.6708600000000002
 30
0.0
 10
-0.57389
 20
-3.5641800000000003
 30
0.0
 10
-0.80503
 20
-3.9502600000000001
 30
0.0
 10
-0.65771
 20
-3.8435800000000002
 30
0.0
 10
-0.65771
 20
-3.8435800000000002
 30
0.0
 10
-0.65771
 20
-3.8435800000000002
 30
0.0
 10
-0.6246900000000001
 20
-3.7724600000000001
 30
0.0
 10
-0.6246900000000001
 20
-3.7724600000000001
 30
0.0
 10
-0.6246900000000001
 20
-3.7724600000000001
 30
0.0
 10
-0.6246900000000001
 20
-3.7724600000000001
 30
0.0
 10
-0.57135
 20
-3.6683200000000005
 30
0.0
 10
-0.57135
 20
-3.6683200000000005
 30
0.0
 10
-0.57135
 20
-3.6683200000000005
 30
0.0
 10
-0.4595900000000001
 20
-3.9070800000000001
 30
0.0
 10
-0.7542300000000001
 20
-4.1560000000000006
 30
0.0
 10
-0.5637300000000001
 20
-4.3947600000000007
 30
0.0
 10
-0.5637300000000001
 20
-4.3947600000000007
 30
0.0
 10
-0.46721
 20
-3.9096200000000003
 30
0.0
 10
-0.52817
 20
-3.5972000000000004
 30
0.0
 10
-0.4926100000000001
 20
-3.2314400000000001
 30
0.0
 10
-0.4926100000000001
 20
-3.2314400000000001
 30
0.0
 10
-0.4595900000000001
 20
-2.8885400000000003
 30
0.0
 10
-0.33767
 20
-2.4897600000000004
 30
0.0
 10
0.00268
 20
-2.1494
 30
0.0
 10
0.00268
 20
-2.1494
 30
0.0
 10
0.02554
 20
-2.2078200000000003
 30
0.0
 10
-0.02525
 20
-2.3475200000000003
 30
0.0
 10
0.06364
 20
-2.3780000000000001
 30
0.0
 10
0.06364
 20
-2.3780000000000001
 30
0.0
 10
0.02554
 20
-1.7226800000000002
 30
0.0
 10
0.37352
 20
-2.22052
 30
0.0
 10
0.4827400000000001
 20
-2.4161000000000001
 30
0.0
 10
0.4827400000000001
 20
-2.4161000000000001
 30
0.0
 10
0.4827400000000001
 20
-2.4161000000000001
 30
0.0
 10
0.3659
 20
-1.9309600000000002
 30
0.0
 10
0.3659
 20
-1.9309600000000002
 30
0.0
 10
0.3659
 20
-1.9309600000000002
 30
0.0
 10
0.5437000000000001
 20
-1.7201400000000002
 30
0.0
 10
0.8535800000000001
 20
-1.5956800000000002
 30
0.0
 10
1.0339200000000002
 20
-1.3848600000000002
 30
0.0
 10
1.0339200000000002
 20
-1.3848600000000002
 30
0.0
 10
0.8383400000000001
 20
-1.4356600000000002
 30
0.0
 10
0.3532
 20
-1.8877800000000002
 30
0.0
 10
0.57164
 20
-1.4407400000000001
 30
0.0
 10
0.57164
 20
-1.4407400000000001
 30
0.0
 10
1.0720200000000002
 20
-1.03688
 30
0.0
 10
1.7171800000000002
 20
-0.9962400000000001
 30
0.0
 10
2.3140800000000001
 20
-0.8082800000000001
 30
0.0
 10
2.3140800000000001
 20
-0.8082800000000001
 30
0.0
 10
2.2861400000000001
 20
-1.1207
 30
0.0
 10
2.5477600000000002
 20
-1.41534
 30
0.0
 10
2.54522
 20
-1.7506200000000001
 30
0.0
 10
2.54522
 20
-1.7506200000000001
 30
0.0
 10
2.54522
 20
-1.7506200000000001
 30
0.0
 10
2.5782400000000001
 20
-1.6109200000000001
 30
0.0
 10
2.5782400000000001
 20
-1.6109200000000001
 30
0.0
 10
2.5782400000000001
 20
-1.6109200000000001
 30
0.0
 10
2.5858600000000003
 20
-1.5067800000000002
 30
0.0
 10
2.4664800000000002
 20
-1.3594600000000001
 30
0.0
 10
2.5096600000000002
 20
-1.20706
 30
0.0
 10
2.5096600000000002
 20
-1.20706
 30
0.0
 10
2.5401400000000001
 20
-1.03434
 30
0.0
 10
2.30138
 20
-0.7727200000000001
 30
0.0
 10
2.4842600000000004
 20
-0.7346200000000001
 30
0.0
 10
2.4842600000000004
 20
-0.7346200000000001
 30
0.0
 10
2.3598000000000003
 20
-1.2350000000000001
 30
0.0
 10
3.1345000000000001
 20
-1.7226800000000002
 30
0.0
 10
2.8525600000000004
 20
-1.9843000000000002
 30
0.0
 10
2.8525600000000004
 20
-1.9843000000000002
 30
0.0
 10
2.8601800000000002
 20
-1.8674600000000001
 30
0.0
 10
2.8373200000000001
 20
-1.8801600000000001
 30
0.0
 10
2.7789000000000001
 20
-1.8141200000000002
 30
0.0
 10
2.7789000000000001
 20
-1.8141200000000002
 30
0.0
 10
2.71286
 20
-1.5601200000000002
 30
0.0
 10
2.5350600000000001
 20
-1.7379200000000001
 30
0.0
 10
2.5858600000000003
 20
-1.9563600000000001
 30
0.0
 10
2.5858600000000003
 20
-1.9563600000000001
 30
0.0
 10
2.7458800000000001
 20
-2.3907000000000003
 30
0.0
 10
2.2785200000000003
 20
-2.1367000000000003
 30
0.0
 10
1.8848200000000002
 20
-2.5634200000000003
 30
0.0
 10
1.8848200000000002
 20
-2.5634200000000003
 30
0.0
 10
1.6282800000000002
 20
-2.9063200000000005
 30
0.0
 10
2.3547200000000004
 20
-2.4237200000000003
 30
0.0
 10
2.5528400000000002
 20
-2.4440400000000002
 30
0.0
 10
2.5528400000000002
 20
-2.4440400000000002
 30
0.0
 10
2.63158
 20
-2.3830800000000001
 30
0.0
 10
2.6646000000000001
 20
-2.3475200000000003
 30
0.0
 10
2.7458800000000001
 20
-2.3221200000000004
 30
0.0
 10
2.7458800000000001
 20
-2.3221200000000004
 30
0.0
 10
3.0659200000000002
 20
-2.2332200000000002
 30
0.0
 10
2.4055200000000001
 20
-2.6193000000000004
 30
0.0
 10
2.6468200000000004
 20
-2.5100800000000003
 30
0.0
 10
2.6468200000000004
 20
-2.5100800000000003
 30
0.0
 10
2.7154000000000003
 20
-2.4745200000000001
 30
0.0
 10
2.7839800000000001
 20
-2.4262600000000001
 30
0.0
 10
2.8398600000000003
 20
-2.3780000000000001
 30
0.0
 10
2.8398600000000003
 20
-2.3780000000000001
 30
0.0
 10
2.4969600000000001
 20
-2.9647400000000004
 30
0.0
 10
1.65622
 20
-2.6751800000000001
 30
0.0
 10
1.2625200000000001
 20
-3.1222200000000004
 30
0.0
 10
1.2625200000000001
 20
-3.1222200000000004
 30
0.0
 10
1.2625200000000001
 20
-3.1222200000000004
 30
0.0
 10
1.11012
 20
-3.0003000000000002
 30
0.0
 10
1.11012
 20
-3.0003000000000002
 30
0.0
 10
1.11012
 20
-3.0003000000000002
 30
0.0
 10
1.2472800000000002
 20
-2.9266400000000004
 30
0.0
 10
1.44286
 20
-2.8987000000000003
 30
0.0
 10
1.5546200000000001
 20
-2.7818600000000004
 30
0.0
 10
1.5546200000000001
 20
-2.7818600000000004
 30
0.0
 10
1.4276200000000001
 20
-2.7844000000000002
 30
0.0
 10
1.31332
 20
-2.8326600000000002
 30
0.0
 10
1.2117200000000001
 20
-2.8936200000000003
 30
0.0
 10
1.2117200000000001
 20
-2.8936200000000003
 30
0.0
 10
1.05932
 20
-2.8047200000000001
 30
0.0
 10
0.912
 20
-2.7971000000000004
 30
0.0
 10
0.7773800000000001
 20
-2.7412200000000002
 30
0.0
 10
0.7773800000000001
 20
-2.7412200000000002
 30
0.0
 10
0.72404
 20
-2.7183600000000001
 30
0.0
 10
0.5691000000000001
 20
-2.5126200000000001
 30
0.0
 10
0.6046600000000001
 20
-2.6548600000000002
 30
0.0
 10
0.6046600000000001
 20
-2.6548600000000002
 30
0.0
 10
0.9272400000000001
 20
-3.0866600000000002
 30
0.0
 10
0.7316600000000001
 20
-3.5870400000000005
 30
0.0
 10
0.7062600000000001
 20
-3.9705800000000004
 30
0.0
 10
0.7062600000000001
 20
-3.9705800000000004
 30
0.0
 10
0.6884800000000001
 20
-4.1788600000000002
 30
0.0
 10
0.7697600000000001
 20
-4.1534599999999999
 30
0.0
 10
0.76468
 20
-3.9680400000000002
 30
0.0
 10
0.76468
 20
-3.9680400000000002
 30
0.0
 10
0.7951600000000001
 20
-3.8181800000000004
 30
0.0
 10
0.93486
 20
-3.8131000000000004
 30
0.0
 10
0.89168
 20
-3.4905200000000001
 30
0.0
 10
0.89168
 20
-3.4905200000000001
 30
0.0
 10
1.0923400000000001
 20
-3.2898600000000005
 30
0.0
 10
1.2574400000000001
 20
-4.7071800000000001
 30
0.0
 10
1.1355200000000001
 20
-4.0620200000000004
 30
0.0
 10
1.1355200000000001
 20
-4.0620200000000004
 30
0.0
 10
1.1355200000000001
 20
-4.0620200000000004
 30
0.0
 10
1.0796400000000002
 20
-3.8359600000000005
 30
0.0
 10
1.0796400000000002
 20
-3.8359600000000005
 30
0.0
 10
1.0796400000000002
 20
-3.8359600000000005
 30
0.0
 10
1.0796400000000002
 20
-3.8359600000000005
 30
0.0
 10
0.9907400000000001
 20
-3.7877000000000005
 30
0.0
 10
0.9907400000000001
 20
-3.7877000000000005
 30
0.0
 10
0.9907400000000001
 20
-3.7877000000000005
 30
0.0
 10
1.15076
 20
-4.1788600000000002
 30
0.0
 10
1.0339200000000002
 20
-4.6208200000000001
 30
0.0
 10
0.9602600000000001
 20
-3.9756600000000004
 30
0.0
 10
0.9602600000000001
 20
-3.9756600000000004
 30
0.0
 10
0.8485
 20
-4.0594800000000006
 30
0.0
 10
0.93232
 20
-4.2525200000000005
 30
0.0
 10
0.71896
 20
-4.47858
 30
0.0
 10
0.71896
 20
-4.47858
 30
0.0
 10
0.63514
 20
-4.3185600000000006
 30
0.0
 10
0.6859400000000001
 20
-4.0975800000000007
 30
0.0
 10
0.6707000000000001
 20
-3.8893000000000004
 30
0.0
 10
0.6707000000000001
 20
-3.8893000000000004
 30
0.0
 10
0.46496
 20
-3.5362400000000003
 30
0.0
 10
0.7265800000000001
 20
-4.7427400000000004
 30
0.0
 10
0.47512
 20
-4.4150800000000006
 30
0.0
 10
0.47512
 20
-4.4150800000000006
 30
0.0
 10
0.52846
 20
-4.2855400000000001
 30
0.0
 10
0.3887600000000001
 20
-4.1864800000000004
 30
0.0
 10
0.4319400000000001
 20
-4.04678
 30
0.0
 10
0.4319400000000001
 20
-4.04678
 30
0.0
 10
0.29986
 20
-3.9324800000000004
 30
0.0
 10
0.5437000000000001
 20
-4.4125400000000008
 30
0.0
 10
0.39638
 20
-4.5319200000000004
 30
0.0
 10
0.39638
 20
-4.5319200000000004
 30
0.0
 10
-0.14209
 20
-4.5344600000000002
 30
0.0
 10
-0.71867
 20
-4.6868600000000002
 30
0.0
 10
-1.16571
 20
-4.3871400000000005
 30
0.0
 10
-1.16571
 20
-4.3871400000000005
 30
0.0
 10
-0.92949
 20
-4.1052
 30
0.0
 10
-1.0996700000000001
 20
-3.3457400000000002
 30
0.0
 10
-0.68057
 20
-2.9647400000000004
 30
0.0
 10
-0.68057
 20
-2.9647400000000004
 30
0.0
 10
-1.1352300000000002
 20
-2.8479000000000001
 30
0.0
 10
-1.4476500000000001
 20
-3.2390600000000003
 30
0.0
 10
-1.8743700000000001
 20
-3.2847800000000005
 30
0.0
 10
-1.8743700000000001
 20
-3.2847800000000005
 30
0.0
 10
-2.1994900000000004
 20
-2.7615400000000001
 30
0.0
 10
-3.4872700000000001
 20
-2.7590000000000003
 30
0.0
 10
-2.7405100000000004
 20
-1.9411200000000002
 30
0.0
 10
-2.7405100000000004
 20
-1.9411200000000002
 30
0.0
 10
-2.5322300000000002
 20
-1.9716000000000002
 30
0.0
 10
-2.60589
 20
-2.2510000000000003
 30
0.0
 10
-2.44333
 20
-2.2941800000000003
 30
0.0
 10
-2.44333
 20
-2.2941800000000003
 30
0.0
 10
-2.5500100000000003
 20
-1.7760200000000002
 30
0.0
 10
-2.1817100000000003
 20
-1.1994400000000001
 30
0.0
 10
-1.6610100000000001
 20
-1.2096
 30
0.0
 10
-1.6610100000000001
 20
-1.2096
 30
0.0
 10
-1.5568700000000002
 20
-1.2426200000000001
 30
0.0
 10
-1.41717
 20
-1.2832600000000001
 30
0.0
 10
-1.3257300000000001
 20
-1.2578600000000002
 30
0.0
 10
-1.3257300000000001
 20
-1.2578600000000002
 30
0.0
 10
-1.7524500000000001
 20
-0.8413000000000001
 30
0.0
 10
-2.3290300000000004
 20
-1.2832600000000001
 30
0.0
 10
-2.4687300000000003
 20
-1.7277600000000002
 30
0.0
 10
-2.4687300000000003
 20
-1.7277600000000002
 30
0.0
 10
-2.69733
 20
-1.9055600000000001
 30
0.0
 10
-2.48143
 20
-1.66934
 30
0.0
 10
-2.4153900000000004
 20
-1.5525000000000002
 30
0.0
 10
-2.4153900000000004
 20
-1.5525000000000002
 30
0.0
 10
-2.27061
 20
-1.3747
 30
0.0
 10
-2.1740900000000001
 20
-1.0597400000000001
 30
0.0
 10
-2.3290300000000004
 20
-0.84638
 30
0.0
  0
SPLINE
  5
45
100
AcDbEntity
  8
Ebene 1
100
AcDbSpline
210
0.0
220
0.0
230
1.0
 70
     1
 71
     3
 72
    60
 73
    56
 74
     0
 42
0.0000000001
 43
0.0000000001
 40
0.0
 40
0.0
 40
0.0
 40
0.0
 40
0.0714285714285714
 40
0.0714285714285714
 40
0.0714285714285714
 40
0.0714285714285714
 40
0.1428571428571429
 40
0.1428571428571429
 40
0.1428571428571429
 40
0.1428571428571429
 40
0.2142857142857143
 40
0.2142857142857143
 40
0.2142857142857143
 40
0.2142857142857143
 40
0.2857142857142857
 40
0.2857142857142857
 40
0.2857142857142857
 40
0.2857142857142857
 40
0.3571428571428571
 40
0.3571428571428571
 40
0.3571428571428571
 40
0.3571428571428571
 40
0.4285714285714285
 40
0.4285714285714285
 40
0.4285714285714285
 40
0.4285714285714285
 40
0.4999999999999999
 40
0.4999999999999999
 40
0.4999999999999999
 40
0.4999999999999999
 40
0.5714285714285713
 40
0.5714285714285713
 40
0.5714285714285713
 40
0.5714285714285713
 40
0.6428571428571427
 40
0.6428571428571427
 40
0.6428571428571427
 40
0.6428571428571427
 40
0.7142857142857141
 40
0.7142857142857141
 40
0.7142857142857141
 40
0.7142857142857141
 40
0.7857142857142855
 40
0.7857142857142855
 40
0.7857142857142855
 40
0.7857142857142855
 40
0.8571428571428569
 40
0.8571428571428569
 40
0.8571428571428569
 40
0.8571428571428569
 40
0.9285714285714283
 40
0.9285714285714283
 40
0.9285714285714283
 40
0.9285714285714283
 40
1.0
 40
1.0
 40
1.0
 40
1.0
 10
2.0880200000000002
 20
-0.9860800000000001
 30
0.0
 10
2.1896200000000001
 20
-0.9733800000000001
 30
0.0
 10
2.20486
 20
-1.07498
 30
0.0
 10
2.2861400000000001
 20
-1.0978400000000001
 30
0.0
 10
2.2861400000000001
 20
-1.0978400000000001
 30
0.0
 10
2.2785200000000003
 20
-1.21214
 30
0.0
 10
2.2810600000000001
 20
-1.3061200000000002
 30
0.0
 10
2.2607400000000002
 20
-1.4102600000000001
 30
0.0
 10
2.2607400000000002
 20
-1.4102600000000001
 30
0.0
 10
2.4715600000000002
 20
-2.0300200000000004
 30
0.0
 10
1.8543400000000001
 20
-2.7031200000000002
 30
0.0
 10
1.19394
 20
-2.7336
 30
0.0
 10
1.19394
 20
-2.7336
 30
0.0
 10
0.43702
 20
-2.8910800000000001
 30
0.0
 10
0.21096
 20
-1.7277600000000002
 30
0.0
 10
0.9831200000000001
 20
-1.6744200000000002
 30
0.0
 10
0.9831200000000001
 20
-1.6744200000000002
 30
0.0
 10
0.9831200000000001
 20
-1.6744200000000002
 30
0.0
 10
1.2244200000000001
 20
-1.6083800000000001
 30
0.0
 10
1.2244200000000001
 20
-1.6083800000000001
 30
0.0
 10
1.2244200000000001
 20
-1.6083800000000001
 30
0.0
 10
1.2244200000000001
 20
-1.6083800000000001
 30
0.0
 10
1.4631800000000001
 20
-1.4432800000000001
 30
0.0
 10
1.4631800000000001
 20
-1.4432800000000001
 30
0.0
 10
1.4631800000000001
 20
-1.4432800000000001
 30
0.0
 10
1.6181200000000002
 20
-1.1715
 30
0.0
 10
1.9305400000000001
 20
-1.1765800000000002
 30
0.0
 10
2.0981800000000002
 20
-1.4382000000000001
 30
0.0
 10
2.0981800000000002
 20
-1.4382000000000001
 30
0.0
 10
2.2074000000000003
 20
-1.5956800000000002
 30
0.0
 10
2.1896200000000001
 20
-1.8166600000000002
 30
0.0
 10
2.1464400000000001
 20
-1.9893800000000001
 30
0.0
 10
2.1464400000000001
 20
-1.9893800000000001
 30
0.0
 10
2.1464400000000001
 20
-1.9893800000000001
 30
0.0
 10
2.2353400000000003
 20
-1.8217400000000001
 30
0.0
 10
2.2353400000000003
 20
-1.8217400000000001
 30
0.0
 10
2.2353400000000003
 20
-1.8217400000000001
 30
0.0
 10
2.3064600000000004
 20
-1.4737600000000002
 30
0.0
 10
2.0550000000000002
 20
-1.0927600000000002
 30
0.0
 10
1.7679800000000001
 20
-1.1334000000000002
 30
0.0
 10
1.7679800000000001
 20
-1.1334000000000002
 30
0.0
 10
1.4708000000000001
 20
-1.3035800000000002
 30
0.0
 10
1.2244200000000001
 20
-1.5753600000000001
 30
0.0
 10
0.8332600000000001
 20
-1.6769600000000002
 30
0.0
 10
0.8332600000000001
 20
-1.6769600000000002
 30
0.0
 10
0.912
 20
-1.54742
 30
0.0
 10
1.10758
 20
-1.5321800000000001
 30
0.0
 10
1.19648
 20
-1.4128000000000001
 30
0.0
 10
1.19648
 20
-1.4128000000000001
 30
0.0
 10
1.3438000000000001
 20
-1.3416800000000002
 30
0.0
 10
1.4555600000000002
 20
-1.2096
 30
0.0
 10
1.6181200000000002
 20
-1.16134
 30
0.0
 10
1.6181200000000002
 20
-1.16134
 30
0.0
 10
1.6181200000000002
 20
-1.16134
 30
0.0
 10
2.0880200000000002
 20
-0.9860800000000001
 30
0.0
 10
2.0880200000000002
 20
-0.9860800000000001
 30
0.0
  0
SPLINE
  5
46
100
AcDbEntity
  8
Ebene 1
100
AcDbSpline
210
0.0
220
0.0
230
1.0
 70
     1
 71
     3
 72
    32
 73
    28
 74
     0
 42
0.0000000001
 43
0.0000000001
 40
0.0
 40
0.0
 40
0.0
 40
0.0
 40
0.1428571428571429
 40
0.1428571428571429
 40
0.1428571428571429
 40
0.1428571428571429
 40
0.2857142857142857
 40
0.2857142857142857
 40
0.2857142857142857
 40
0.2857142857142857
 40
0.4285714285714286
 40
0.4285714285714286
 40
0.4285714285714286
 40
0.4285714285714286
 40
0.5714285714285714
 40
0.5714285714285714
 40
0.5714285714285714
 40
0.5714285714285714
 40
0.7142857142857142
 40
0.7142857142857142
 40
0.7142857142857142
 40
0.7142857142857142
 40
0.857142857142857
 40
0.857142857142857
 40
0.857142857142857
 40
0.857142857142857
 40
1.0
 40
1.0
 40
1.0
 40
1.0
 10
-1.8438900000000003
 20
-1.2705600000000001
 30
0.0
 10
-1.54417
 20
-1.2985000000000002
 30
0.0
 10
-1.2292100000000001
 20
-1.41788
 30
0.0
 10
-1.0717300000000001
 20
-1.6922000000000001
 30
0.0
 10
-1.0717300000000001
 20
-1.6922000000000001
 30
0.0
 10
-1.0717300000000001
 20
-1.6922000000000001
 30
0.0
 10
-0.9777500000000001
 20
-1.7353800000000001
 30
0.0
 10
-0.9777500000000001
 20
-1.7353800000000001
 30
0.0
 10
-0.9777500000000001
 20
-1.7353800000000001
 30
0.0
 10
-0.72375
 20
-1.7633200000000002
 30
0.0
 10
-0.41133
 20
-1.7912600000000001
 30
0.0
 10
-0.29957
 20
-2.0655800000000002
 30
0.0
 10
-0.29957
 20
-2.0655800000000002
 30
0.0
 10
-0.28179
 20
-2.3195800000000002
 30
0.0
 10
-0.47229
 20
-2.5075400000000001
 30
0.0
 10
-0.65517
 20
-2.65232
 30
0.0
 10
-0.65517
 20
-2.65232
 30
0.0
 10
-0.65517
 20
-2.65232
 30
0.0
 10
-0.80503
 20
-2.6548600000000002
 30
0.0
 10
-0.80503
 20
-2.6548600000000002
 30
0.0
 10
-0.80503
 20
-2.6548600000000002
 30
0.0
 10
-1.1809500000000002
 20
-2.4110200000000002
 30
0.0
 10
-1.6457700000000002
 20
-2.7234400000000001
 30
0.0
 10
-2.0318500000000004
 20
-2.5253200000000002
 30
0.0
 10
-2.0318500000000004
 20
-2.5253200000000002
 30
0.0
 10
-2.3544300000000002
 20
-2.1290800000000001
 30
0.0
 10
-2.3010900000000003
 20
-1.5271000000000001
 30
0.0
 10
-1.8438900000000003
 20
-1.2705600000000001
 30
0.0
  0
SPLINE
  5
47
100
AcDbEntity
  8
Ebene 1
 62
     7
100
AcDbSpline
210
0.0
220
0.0
230
1.0
 70
     1
 71
     3
 72
    16
 73
    12
 74
     0
 42
0.0000000001
 43
0.0000000001
 40
0.0
 40
0.0
 40
0.0
 40
0.0
 40
0.3333333333333333
 40
0.3333333333333333
 40
0.3333333333333333
 40
0.3333333333333333
 40
0.6666666666666666
 40
0.6666666666666666
 40
0.6666666666666666
 40
0.6666666666666666
 40
1.0
 40
1.0
 40
1.0
 40
1.0
 10
-2.5601700000000003
 20
-1.3239000000000001
 30
0.0
 10
-2.5601700000000003
 20
-1.3239000000000001
 30
0.0
 10
-2.4687300000000003
 20
-1.33406
 30
0.0
 10
-2.4687300000000003
 20
-1.33406
 30
0.0
 10
-2.4687300000000003
 20
-1.33406
 30
0.0
 10
-2.5576300000000001
 20
-1.4763000000000002
 30
0.0
 10
-2.6439900000000001
 20
-1.6287
 30
0.0
 10
-2.7455900000000004
 20
-1.7455400000000001
 30
0.0
 10
-2.7455900000000004
 20
-1.7455400000000001
 30
0.0
 10
-2.8090900000000003
 20
-1.5626600000000002
 30
0.0
 10
-2.56779
 20
-1.49916
 30
0.0
 10
-2.5601700000000003
 20
-1.3239000000000001
 30
0.0
  0
SPLINE
  5
48
100
AcDbEntity
  8
Ebene 1
100
AcDbSpline
210
0.0
220
0.0
230
1.0
 70
     1
 71
     3
 72
     8
 73
     4
 74
     0
 42
0.0000000001
 43
0.0000000001
 40
0.0
 40
0.0
 40
0.0
 40
0.0
 40
1.0
 40
1.0
 40
1.0
 40
1.0
 10
-0.61707
 20
-1.3569200000000001
 30
0.0
 10
-0.59421
 20
-1.3543800000000001
 30
0.0
 10
-0.61707
 20
-1.37978
 30
0.0
 10
-0.61707
 20
-1.3569200000000001
 30
0.0
  0
SPLINE
  5
49
100
AcDbEntity
  8
Ebene 1
 62
     7
100
AcDbSpline
210
0.0
220
0.0
230
1.0
 70
     1
 71
     3
 72
    20
 73
    16
 74
     0
 42
0.0000000001
 43
0.0000000001
 40
0.0
 40
0.0
 40
0.0
 40
0.0
 40
0.25
 40
0.25
 40
0.25
 40
0.25
 40
0.5
 40
0.5
 40
0.5
 40
0.5
 40
0.75
 40
0.75
 40
0.75
 40
0.75
 40
1.0
 40
1.0
 40
1.0
 40
1.0
 10
-2.9081500000000005
 20
-1.7277600000000002
 30
0.0
 10
-2.8852900000000004
 20
-1.7252200000000002
 30
0.0
 10
-2.8268700000000004
 20
-1.7480800000000001
 30
0.0
 10
-2.85989
 20
-1.7836400000000001
 30
0.0
 10
-2.85989
 20
-1.7836400000000001
 30
0.0
 10
-2.8243300000000002
 20
-1.8166600000000002
 30
0.0
 10
-2.8370300000000004
 20
-1.8522200000000002
 30
0.0
 10
-2.8471900000000003
 20
-1.8979400000000002
 30
0.0
 10
-2.8471900000000003
 20
-1.8979400000000002
 30
0.0
 10
-2.8471900000000003
 20
-1.8979400000000002
 30
0.0
 10
-2.8802100000000004
 20
-1.9004800000000002
 30
0.0
 10
-2.8802100000000004
 20
-1.9004800000000002
 30
0.0
 10
-2.8802100000000004
 20
-1.9004800000000002
 30
0.0
 10
-2.8954500000000003
 20
-1.8420600000000003
 30
0.0
 10
-2.9310100000000001
 20
-1.7861800000000001
 30
0.0
 10
-2.9081500000000005
 20
-1.7277600000000002
 30
0.0
  0
SPLINE
  5
4A
100
AcDbEntity
  8
Ebene 1
 62
     7
100
AcDbSpline
210
0.0
220
0.0
230
1.0
 70
     1
 71
     3
 72
    12
 73
     8
 74
     0
 42
0.0000000001
 43
0.0000000001
 40
0.0
 40
0.0
 40
0.0
 40
0.0
 40
0.5
 40
0.5
 40
0.5
 40
0.5
 40
1.0
 40
1.0
 40
1.0
 40
1.0
 10
0.27954
 20
-1.6795000000000002
 30
0.0
 10
0.3252600000000001
 20
-1.7150600000000003
 30
0.0
 10
0.24652
 20
-1.7607800000000002
 30
0.0
 10
0.22366
 20
-1.7861800000000001
 30
0.0
 10
0.22366
 20
-1.7861800000000001
 30
0.0
 10
0.13984
 20
-1.7404600000000001
 30
0.0
 10
0.23128
 20
-1.6922000000000001
 30
0.0
 10
0.27954
 20
-1.6795000000000002
 30
0.0
  0
SPLINE
  5
4B
100
AcDbEntity
  8
Ebene 1
100
AcDbSpline
210
0.0
220
0.0
230
1.0
 70
     1
 71
     3
 72
    40
 73
    36
 74
     0
 42
0.0000000001
 43
0.0000000001
 40
0.0
 40
0.0
 40
0.0
 40
0.0
 40
0.1111111111111111
 40
0.1111111111111111
 40
0.1111111111111111
 40
0.1111111111111111
 40
0.2222222222222222
 40
0.2222222222222222
 40
0.2222222222222222
 40
0.2222222222222222
 40
0.3333333333333333
 40
0.3333333333333333
 40
0.3333333333333333
 40
0.3333333333333333
 40
0.4444444444444444
 40
0.4444444444444444
 40
0.4444444444444444
 40
0.4444444444444444
 40
0.5555555555555556
 40
0.5555555555555556
 40
0.5555555555555556
 40
0.5555555555555556
 40
0.6666666666666667
 40
0.6666666666666667
 40
0.6666666666666667
 40
0.6666666666666667
 40
0.7777777777777779
 40
0.7777777777777779
 40
0.7777777777777779
 40
0.7777777777777779
 40
0.8888888888888891
 40
0.8888888888888891
 40
0.8888888888888891
 40
0.8888888888888891
 40
1.0
 40
1.0
 40
1.0
 40
1.0
 10
-2.7405100000000004
 20
-1.9893800000000001
 30
0.0
 10
-2.7176500000000003
 20
-1.9868400000000002
 30
0.0
 10
-2.6947900000000002
 20
-1.9995400000000001
 30
0.0
 10
-2.6693900000000004
 20
-2.0097
 30
0.0
 10
-2.6693900000000004
 20
-2.0097
 30
0.0
 10
-2.6668500000000002
 20
-2.1722600000000001
 30
0.0
 10
-2.6744700000000003
 20
-2.3449800000000001
 30
0.0
 10
-2.5779500000000004
 20
-2.4821400000000002
 30
0.0
 10
-2.5779500000000004
 20
-2.4821400000000002
 30
0.0
 10
-2.5779500000000004
 20
-2.4821400000000002
 30
0.0
 10
-2.4763500000000001
 20
-2.4211800000000001
 30
0.0
 10
-2.4763500000000001
 20
-2.4211800000000001
 30
0.0
 10
-2.4763500000000001
 20
-2.4211800000000001
 30
0.0
 10
-2.4763500000000001
 20
-2.4211800000000001
 30
0.0
 10
-2.3671300000000004
 20
-2.5812000000000004
 30
0.0
 10
-2.3671300000000004
 20
-2.5812000000000004
 30
0.0
 10
-2.3671300000000004
 20
-2.5812000000000004
 30
0.0
 10
-2.2071100000000001
 20
-2.5304000000000002
 30
0.0
 10
-2.1436100000000002
 20
-2.7717000000000001
 30
0.0
 10
-1.9912100000000001
 20
-2.8250400000000004
 30
0.0
 10
-1.9912100000000001
 20
-2.8250400000000004
 30
0.0
 10
-1.9912100000000001
 20
-2.8250400000000004
 30
0.0
 10
-1.9785100000000002
 20
-2.8834600000000004
 30
0.0
 10
-1.9785100000000002
 20
-2.8834600000000004
 30
0.0
 10
-1.9785100000000002
 20
-2.8834600000000004
 30
0.0
 10
-2.0343900000000001
 20
-2.8961600000000001
 30
0.0
 10
-2.1055100000000002
 20
-2.86314
 30
0.0
 10
-2.14107
 20
-2.8275800000000002
 30
0.0
 10
-2.14107
 20
-2.8275800000000002
 30
0.0
 10
-2.1867900000000002
 20
-2.8301200000000004
 30
0.0
 10
-2.22235
 20
-2.8301200000000004
 30
0.0
 10
-2.2579100000000003
 20
-2.8098000000000001
 30
0.0
 10
-2.2579100000000003
 20
-2.8098000000000001
 30
0.0
 10
-2.6363700000000003
 20
-2.8402800000000004
 30
0.0
 10
-2.9386300000000003
 20
-2.3399000000000001
 30
0.0
 10
-2.7405100000000004
 20
-1.9893800000000001
 30
0.0
  0
SPLINE
  5
4C
100
AcDbEntity
  8
Ebene 1
 62
     7
100
AcDbSpline
210
0.0
220
0.0
230
1.0
 70
     1
 71
     3
 72
    20
 73
    16
 74
     0
 42
0.0000000001
 43
0.0000000001
 40
0.0
 40
0.0
 40
0.0
 40
0.0
 40
0.25
 40
0.25
 40
0.25
 40
0.25
 40
0.5
 40
0.5
 40
0.5
 40
0.5
 40
0.75
 40
0.75
 40
0.75
 40
0.75
 40
1.0
 40
1.0
 40
1.0
 40
1.0
 10
-1.9073900000000001
 20
-1.9792200000000002
 30
0.0
 10
-1.8616700000000002
 20
-1.9893800000000001
 30
0.0
 10
-1.8946900000000002
 20
-2.0478000000000001
 30
0.0
 10
-1.8819900000000001
 20
-2.0833600000000003
 30
0.0
 10
-1.8819900000000001
 20
-2.0833600000000003
 30
0.0
 10
-1.79817
 20
-2.1621000000000001
 30
0.0
 10
-1.9124700000000001
 20
-2.2332200000000002
 30
0.0
 10
-1.9810500000000002
 20
-2.26878
 30
0.0
 10
-1.9810500000000002
 20
-2.26878
 30
0.0
 10
-2.02677
 20
-2.3272000000000004
 30
0.0
 10
-1.9556500000000001
 20
-2.3957800000000002
 30
0.0
 10
-1.9556500000000001
 20
-2.4313400000000001
 30
0.0
 10
-1.9556500000000001
 20
-2.4313400000000001
 30
0.0
 10
-2.1664700000000003
 20
-2.3322800000000004
 30
0.0
 10
-1.9150100000000001
 20
-2.1290800000000001
 30
0.0
 10
-1.9073900000000001
 20
-1.9792200000000002
 30
0.0
  0
SPLINE
  5
4D
100
AcDbEntity
  8
Ebene 1
 62
     7
100
AcDbSpline
210
0.0
220
0.0
230
1.0
 70
     1
 71
     3
 72
    52
 73
    48
 74
     0
 42
0.0000000001
 43
0.0000000001
 40
0.0
 40
0.0
 40
0.0
 40
0.0
 40
0.0833333333333333
 40
0.0833333333333333
 40
0.0833333333333333
 40
0.0833333333333333
 40
0.1666666666666667
 40
0.1666666666666667
 40
0.1666666666666667
 40
0.1666666666666667
 40
0.25
 40
0.25
 40
0.25
 40
0.25
 40
0.3333333333333333
 40
0.3333333333333333
 40
0.3333333333333333
 40
0.3333333333333333
 40
0.4166666666666666
 40
0.4166666666666666
 40
0.4166666666666666
 40
0.4166666666666666
 40
0.4999999999999999
 40
0.4999999999999999
 40
0.4999999999999999
 40
0.4999999999999999
 40
0.5833333333333333
 40
0.5833333333333333
 40
0.5833333333333333
 40
0.5833333333333333
 40
0.6666666666666666
 40
0.6666666666666666
 40
0.6666666666666666
 40
0.6666666666666666
 40
0.75
 40
0.75
 40
0.75
 40
0.75
 40
0.8333333333333334
 40
0.8333333333333334
 40
0.8333333333333334
 40
0.8333333333333334
 40
0.9166666666666667
 40
0.9166666666666667
 40
0.9166666666666667
 40
0.9166666666666667
 40
1.0
 40
1.0
 40
1.0
 40
1.0
 10
1.5241400000000001
 20
-2.0071600000000003
 30
0.0
 10
1.5012800000000002
 20
-2.0757400000000001
 30
0.0
 10
1.4479400000000002
 20
-2.1697200000000003
 30
0.0
 10
1.4504800000000002
 20
-2.2637
 30
0.0
 10
1.4504800000000002
 20
-2.2637
 30
0.0
 10
1.4377800000000001
 20
-2.3094200000000003
 30
0.0
 10
1.4174600000000002
 20
-2.3322800000000004
 30
0.0
 10
1.4631800000000001
 20
-2.35514
 30
0.0
 10
1.4631800000000001
 20
-2.35514
 30
0.0
 10
1.5317600000000002
 20
-2.2179800000000003
 30
0.0
 10
1.6867000000000001
 20
-2.23068
 30
0.0
 10
1.7984600000000002
 20
-2.1290800000000001
 30
0.0
 10
1.7984600000000002
 20
-2.1290800000000001
 30
0.0
 10
1.8264000000000002
 20
-2.10114
 30
0.0
 10
1.8670400000000003
 20
-1.92334
 30
0.0
 10
1.8924400000000001
 20
-2.0097
 30
0.0
 10
1.8924400000000001
 20
-2.0097
 30
0.0
 10
1.8924400000000001
 20
-2.0097
 30
0.0
 10
1.8314800000000002
 20
-2.2535400000000001
 30
0.0
 10
1.8314800000000002
 20
-2.2535400000000001
 30
0.0
 10
1.8314800000000002
 20
-2.2535400000000001
 30
0.0
 10
1.7756000000000001
 20
-2.31196
 30
0.0
 10
1.7857600000000002
 20
-2.3348200000000001
 30
0.0
 10
1.8441800000000002
 20
-2.3221200000000004
 30
0.0
 10
1.8441800000000002
 20
-2.3221200000000004
 30
0.0
 10
1.7984600000000002
 20
-2.3703800000000004
 30
0.0
 10
1.7425800000000002
 20
-2.4288000000000003
 30
0.0
 10
1.6740000000000002
 20
-2.4415
 30
0.0
 10
1.6740000000000002
 20
-2.4415
 30
0.0
 10
1.69432
 20
-2.3957800000000002
 30
0.0
 10
1.7019400000000002
 20
-2.2332200000000002
 30
0.0
 10
1.6587600000000002
 20
-2.2814800000000002
 30
0.0
 10
1.6587600000000002
 20
-2.2814800000000002
 30
0.0
 10
1.6740000000000002
 20
-2.4084800000000004
 30
0.0
 10
1.5825600000000002
 20
-2.5380200000000004
 30
0.0
 10
1.4454
 20
-2.5405600000000002
 30
0.0
 10
1.4454
 20
-2.5405600000000002
 30
0.0
 10
1.4555600000000002
 20
-2.4821400000000002
 30
0.0
 10
1.4987400000000002
 20
-2.4338800000000003
 30
0.0
 10
1.5343000000000002
 20
-2.4008600000000002
 30
0.0
 10
1.5343000000000002
 20
-2.4008600000000002
 30
0.0
 10
1.4174600000000002
 20
-2.4034
 30
0.0
 10
1.3234800000000002
 20
-2.31196
 30
0.0
 10
1.2091800000000001
 20
-2.3272000000000004
 30
0.0
 10
1.2091800000000001
 20
-2.3272000000000004
 30
0.0
 10
1.2091800000000001
 20
-2.3272000000000004
 30
0.0
 10
1.5241400000000001
 20
-2.0071600000000003
 30
0.0
 10
1.5241400000000001
 20
-2.0071600000000003
 30
0.0
  0
SPLINE
  5
4E
100
AcDbEntity
  8
Ebene 1
 62
     7
100
AcDbSpline
210
0.0
220
0.0
230
1.0
 70
     1
 71
     3
 72
    12
 73
     8
 74
     0
 42
0.0000000001
 43
0.0000000001
 40
0.0
 40
0.0
 40
0.0
 40
0.0
 40
0.5
 40
0.5
 40
0.5
 40
0.5
 40
1.0
 40
1.0
 40
1.0
 40
1.0
 10
2.1261200000000002
 20
-2.0376400000000001
 30
0.0
 10
2.1845400000000001
 20
-2.0605000000000002
 30
0.0
 10
2.12866
 20
-2.1544800000000004
 30
0.0
 10
2.0829400000000002
 20
-2.1671800000000001
 30
0.0
 10
2.0829400000000002
 20
-2.1671800000000001
 30
0.0
 10
2.0829400000000002
 20
-2.1671800000000001
 30
0.0
 10
2.1261200000000002
 20
-2.0376400000000001
 30
0.0
 10
2.1261200000000002
 20
-2.0376400000000001
 30
0.0
  0
SPLINE
  5
4F
100
AcDbEntity
  8
Ebene 1
 62
     7
100
AcDbSpline
210
0.0
220
0.0
230
1.0
 70
     1
 71
     3
 72
    16
 73
    12
 74
     0
 42
0.0000000001
 43
0.0000000001
 40
0.0
 40
0.0
 40
0.0
 40
0.0
 40
0.3333333333333333
 40
0.3333333333333333
 40
0.3333333333333333
 40
0.3333333333333333
 40
0.6666666666666666
 40
0.6666666666666666
 40
0.6666666666666666
 40
0.6666666666666666
 40
1.0
 40
1.0
 40
1.0
 40
1.0
 10
-1.8438900000000003
 20
-2.2433800000000002
 30
0.0
 10
-1.7727700000000002
 20
-2.2764000000000002
 30
0.0
 10
-1.6533900000000001
 20
-2.4008600000000002
 30
0.0
 10
-1.7803900000000001
 20
-2.4389600000000002
 30
0.0
 10
-1.7803900000000001
 20
-2.4389600000000002
 30
0.0
 10
-1.8388100000000001
 20
-2.4161000000000001
 30
0.0
 10
-1.9073900000000001
 20
-2.4059400000000002
 30
0.0
 10
-1.9454900000000002
 20
-2.35006
 30
0.0
 10
-1.9454900000000002
 20
-2.35006
 30
0.0
 10
-1.9581900000000001
 20
-2.2814800000000002
 30
0.0
 10
-1.8642100000000001
 20
-2.2891000000000004
 30
0.0
 10
-1.8438900000000003
 20
-2.2433800000000002
 30
0.0
  0
SPLINE
  5
50
100
AcDbEntity
  8
Ebene 1
 62
     7
100
AcDbSpline
210
0.0
220
0.0
230
1.0
 70
     1
 71
     3
 72
    36
 73
    32
 74
     0
 42
0.0000000001
 43
0.0000000001
 40
0.0
 40
0.0
 40
0.0
 40
0.0
 40
0.125
 40
0.125
 40
0.125
 40
0.125
 40
0.25
 40
0.25
 40
0.25
 40
0.25
 40
0.375
 40
0.375
 40
0.375
 40
0.375
 40
0.5
 40
0.5
 40
0.5
 40
0.5
 40
0.625
 40
0.625
 40
0.625
 40
0.625
 40
0.75
 40
0.75
 40
0.75
 40
0.75
 40
0.875
 40
0.875
 40
0.875
 40
0.875
 40
1.0
 40
1.0
 40
1.0
 40
1.0
 10
-1.3460500000000002
 20
-2.23068
 30
0.0
 10
-1.3460500000000002
 20
-2.23068
 30
0.0
 10
-1.1733300000000002
 20
-2.2713200000000002
 30
0.0
 10
-1.1733300000000002
 20
-2.2713200000000002
 30
0.0
 10
-1.1733300000000002
 20
-2.2713200000000002
 30
0.0
 10
-1.1352300000000002
 20
-2.3627600000000002
 30
0.0
 10
-1.07681
 20
-2.4313400000000001
 30
0.0
 10
-0.9828300000000001
 20
-2.4745200000000001
 30
0.0
 10
-0.9828300000000001
 20
-2.4745200000000001
 30
0.0
 10
-0.9701300000000001
 20
-2.4745200000000001
 30
0.0
 10
-0.9701300000000001
 20
-2.4973800000000002
 30
0.0
 10
-0.9701300000000001
 20
-2.5100800000000003
 30
0.0
 10
-0.9701300000000001
 20
-2.5100800000000003
 30
0.0
 10
-0.9701300000000001
 20
-2.5100800000000003
 30
0.0
 10
-1.0615700000000001
 20
-2.5126200000000001
 30
0.0
 10
-1.0615700000000001
 20
-2.5126200000000001
 30
0.0
 10
-1.0615700000000001
 20
-2.5126200000000001
 30
0.0
 10
-1.0615700000000001
 20
-2.5126200000000001
 30
0.0
 10
-1.0971300000000002
 20
-2.4897600000000004
 30
0.0
 10
-1.0971300000000002
 20
-2.4897600000000004
 30
0.0
 10
-1.0971300000000002
 20
-2.4897600000000004
 30
0.0
 10
-1.0971300000000002
 20
-2.4897600000000004
 30
0.0
 10
-1.07681
 20
-2.4313400000000001
 30
0.0
 10
-1.07681
 20
-2.4313400000000001
 30
0.0
 10
-1.07681
 20
-2.4313400000000001
 30
0.0
 10
-1.07681
 20
-2.4313400000000001
 30
0.0
 10
-1.12253
 20
-2.4440400000000002
 30
0.0
 10
-1.12253
 20
-2.4440400000000002
 30
0.0
 10
-1.12253
 20
-2.4440400000000002
 30
0.0
 10
-1.1809500000000002
 20
-2.3653000000000004
 30
0.0
 10
-1.37653
 20
-2.3703800000000004
 30
0.0
 10
-1.3460500000000002
 20
-2.23068
 30
0.0
  0
SPLINE
  5
51
100
AcDbEntity
  8
Ebene 1
 62
     7
100
AcDbSpline
210
0.0
220
0.0
230
1.0
 70
     1
 71
     3
 72
    16
 73
    12
 74
     0
 42
0.0000000001
 43
0.0000000001
 40
0.0
 40
0.0
 40
0.0
 40
0.0
 40
0.3333333333333333
 40
0.3333333333333333
 40
0.3333333333333333
 40
0.3333333333333333
 40
0.6666666666666666
 40
0.6666666666666666
 40
0.6666666666666666
 40
0.6666666666666666
 40
1.0
 40
1.0
 40
1.0
 40
1.0
 10
-1.0234700000000001
 20
-2.2230600000000003
 30
0.0
 10
-1.0234700000000001
 20
-2.2230600000000003
 30
0.0
 10
-0.9879100000000001
 20
-2.22052
 30
0.0
 10
-0.9879100000000001
 20
-2.22052
 30
0.0
 10
-0.9879100000000001
 20
-2.22052
 30
0.0
 10
-0.9879100000000001
 20
-2.22052
 30
0.0
 10
-0.9244100000000001
 20
-2.4516600000000004
 30
0.0
 10
-0.9244100000000001
 20
-2.4516600000000004
 30
0.0
 10
-0.9244100000000001
 20
-2.4516600000000004
 30
0.0
 10
-1.0183900000000001
 20
-2.4186400000000003
 30
0.0
 10
-1.1834900000000002
 20
-2.2840200000000004
 30
0.0
 10
-1.0234700000000001
 20
-2.2230600000000003
 30
0.0
  0
SPLINE
  5
52
100
AcDbEntity
  8
Ebene 1
 62
     7
100
AcDbSpline
210
0.0
220
0.0
230
1.0
 70
     1
 71
     3
 72
    20
 73
    16
 74
     0
 42
0.0000000001
 43
0.0000000001
 40
0.0
 40
0.0
 40
0.0
 40
0.0
 40
0.25
 40
0.25
 40
0.25
 40
0.25
 40
0.5
 40
0.5
 40
0.5
 40
0.5
 40
0.75
 40
0.75
 40
0.75
 40
0.75
 40
1.0
 40
1.0
 40
1.0
 40
1.0
 10
0.9602600000000001
 20
-2.18242
 30
0.0
 10
0.9831200000000001
 20
-2.1697200000000003
 30
0.0
 10
0.9856600000000001
 20
-2.2052800000000001
 30
0.0
 10
0.9856600000000001
 20
-2.2179800000000003
 30
0.0
 10
0.9856600000000001
 20
-2.2179800000000003
 30
0.0
 10
0.9069200000000001
 20
-2.3348200000000001
 30
0.0
 10
1.01614
 20
-2.4821400000000002
 30
0.0
 10
1.0415400000000001
 20
-2.6193000000000004
 30
0.0
 10
1.0415400000000001
 20
-2.6193000000000004
 30
0.0
 10
0.9247000000000001
 20
-2.5761200000000004
 30
0.0
 10
0.78754
 20
-2.5685000000000002
 30
0.0
 10
0.6910200000000001
 20
-2.4796
 30
0.0
 10
0.6910200000000001
 20
-2.4796
 30
0.0
 10
0.82818
 20
-2.4288000000000003
 30
0.0
 10
0.7900800000000001
 20
-2.2103600000000001
 30
0.0
 10
0.9602600000000001
 20
-2.18242
 30
0.0
  0
SPLINE
  5
53
100
AcDbEntity
  8
Ebene 1
 62
     7
100
AcDbSpline
210
0.0
220
0.0
230
1.0
 70
     1
 71
     3
 72
    24
 73
    20
 74
     0
 42
0.0000000001
 43
0.0000000001
 40
0.0
 40
0.0
 40
0.0
 40
0.0
 40
0.2
 40
0.2
 40
0.2
 40
0.2
 40
0.4
 40
0.4
 40
0.4
 40
0.4
 40
0.6000000000000001
 40
0.6000000000000001
 40
0.6000000000000001
 40
0.6000000000000001
 40
0.8
 40
0.8
 40
0.8
 40
0.8
 40
1.0
 40
1.0
 40
1.0
 40
1.0
 10
-1.5086100000000002
 20
-2.2586200000000001
 30
0.0
 10
-1.4044700000000001
 20
-2.2433800000000002
 30
0.0
 10
-1.4019300000000001
 20
-2.3475200000000003
 30
0.0
 10
-1.3079500000000002
 20
-2.3805400000000003
 30
0.0
 10
-1.3079500000000002
 20
-2.3805400000000003
 30
0.0
 10
-1.3079500000000002
 20
-2.3805400000000003
 30
0.0
 10
-1.16825
 20
-2.4567400000000004
 30
0.0
 10
-1.16825
 20
-2.4567400000000004
 30
0.0
 10
-1.16825
 20
-2.4567400000000004
 30
0.0
 10
-1.2266700000000001
 20
-2.4465800000000004
 30
0.0
 10
-1.5238500000000001
 20
-2.5126200000000001
 30
0.0
 10
-1.4247900000000002
 20
-2.3830800000000001
 30
0.0
 10
-1.4247900000000002
 20
-2.3830800000000001
 30
0.0
 10
-1.4806700000000002
 20
-2.3856200000000003
 30
0.0
 10
-1.5289300000000001
 20
-2.3729200000000001
 30
0.0
 10
-1.5975100000000002
 20
-2.39832
 30
0.0
 10
-1.5975100000000002
 20
-2.39832
 30
0.0
 10
-1.6457700000000002
 20
-2.3297400000000001
 30
0.0
 10
-1.5644900000000002
 20
-2.2713200000000002
 30
0.0
 10
-1.5086100000000002
 20
-2.2586200000000001
 30
0.0
  0
SPLINE
  5
54
100
AcDbEntity
  8
Ebene 1
 62
     7
100
AcDbSpline
210
0.0
220
0.0
230
1.0
 70
     1
 71
     3
 72
    12
 73
     8
 74
     0
 42
0.0000000001
 43
0.0000000001
 40
0.0
 40
0.0
 40
0.0
 40
0.0
 40
0.5
 40
0.5
 40
0.5
 40
0.5
 40
1.0
 40
1.0
 40
1.0
 40
1.0
 10
-0.69835
 20
-2.2383000000000002
 30
0.0
 10
-0.69835
 20
-2.2383000000000002
 30
0.0
 10
-0.6297700000000001
 20
-2.26878
 30
0.0
 10
-0.6297700000000001
 20
-2.26878
 30
0.0
 10
-0.6297700000000001
 20
-2.26878
 30
0.0
 10
-0.48753
 20
-2.36022
 30
0.0
 10
-0.84821
 20
-2.2992600000000003
 30
0.0
 10
-0.69835
 20
-2.2383000000000002
 30
0.0
  0
SPLINE
  5
55
100
AcDbEntity
  8
Ebene 1
 62
     7
100
AcDbSpline
210
0.0
220
0.0
230
1.0
 70
     1
 71
     3
 72
    24
 73
    20
 74
     0
 42
0.0000000001
 43
0.0000000001
 40
0.0
 40
0.0
 40
0.0
 40
0.0
 40
0.2
 40
0.2
 40
0.2
 40
0.2
 40
0.4
 40
0.4
 40
0.4
 40
0.4
 40
0.6000000000000001
 40
0.6000000000000001
 40
0.6000000000000001
 40
0.6000000000000001
 40
0.8
 40
0.8
 40
0.8
 40
0.8
 40
1.0
 40
1.0
 40
1.0
 40
1.0
 10
-0.8151900000000001
 20
-2.27386
 30
0.0
 10
-0.7542300000000001
 20
-2.3653000000000004
 30
0.0
 10
-0.6272300000000001
 20
-2.3272000000000004
 30
0.0
 10
-0.5789700000000001
 20
-2.4084800000000004
 30
0.0
 10
-0.5789700000000001
 20
-2.4084800000000004
 30
0.0
 10
-0.63485
 20
-2.4897600000000004
 30
0.0
 10
-0.7491500000000001
 20
-2.5507200000000001
 30
0.0
 10
-0.8405900000000001
 20
-2.5304000000000002
 30
0.0
 10
-0.8405900000000001
 20
-2.5304000000000002
 30
0.0
 10
-0.8405900000000001
 20
-2.5304000000000002
 30
0.0
 10
-0.7516900000000001
 20
-2.4338800000000003
 30
0.0
 10
-0.7516900000000001
 20
-2.4338800000000003
 30
0.0
 10
-0.7516900000000001
 20
-2.4338800000000003
 30
0.0
 10
-0.8202700000000001
 20
-2.4262600000000001
 30
0.0
 10
-0.8634500000000001
 20
-2.56596
 30
0.0
 10
-0.9244100000000001
 20
-2.48468
 30
0.0
 10
-0.9244100000000001
 20
-2.48468
 30
0.0
 10
-0.8913900000000001
 20
-2.4262600000000001
 30
0.0
 10
-0.8355100000000001
 20
-2.35514
 30
0.0
 10
-0.8151900000000001
 20
-2.27386
 30
0.0
  0
SPLINE
  5
56
100
AcDbEntity
  8
Ebene 1
100
AcDbSpline
210
0.0
220
0.0
230
1.0
 70
     1
 71
     3
 72
    24
 73
    20
 74
     0
 42
0.0000000001
 43
0.0000000001
 40
0.0
 40
0.0
 40
0.0
 40
0.0
 40
0.2
 40
0.2
 40
0.2
 40
0.2
 40
0.4
 40
0.4
 40
0.4
 40
0.4
 40
0.6000000000000001
 40
0.6000000000000001
 40
0.6000000000000001
 40
0.6000000000000001
 40
0.8
 40
0.8
 40
0.8
 40
0.8
 40
1.0
 40
1.0
 40
1.0
 40
1.0
 10
0.14492
 20
-2.3780000000000001
 30
0.0
 10
0.21604
 20
-2.3754600000000003
 30
0.0
 10
0.27446
 20
-2.4084800000000004
 30
0.0
 10
0.34304
 20
-2.4313400000000001
 30
0.0
 10
0.34304
 20
-2.4313400000000001
 30
0.0
 10
0.5487800000000001
 20
-2.7717000000000001
 30
0.0
 10
0.87136
 20
-3.1679400000000002
 30
0.0
 10
0.6961000000000001
 20
-3.6124400000000003
 30
0.0
 10
0.6961000000000001
 20
-3.6124400000000003
 30
0.0
 10
0.46496
 20
-3.6175200000000003
 30
0.0
 10
0.34304
 20
-3.3432000000000004
 30
0.0
 10
0.12206
 20
-3.2797000000000001
 30
0.0
 10
0.12206
 20
-3.2797000000000001
 30
0.0
 10
-0.09383
 20
-3.2974800000000002
 30
0.0
 10
-0.17765
 20
-3.6454600000000004
 30
0.0
 10
-0.41133
 20
-3.5591000000000004
 30
0.0
 10
-0.41133
 20
-3.5591000000000004
 30
0.0
 10
-0.5154700000000001
 20
-3.1095200000000003
 30
0.0
 10
-0.13193
 20
-2.6726400000000003
 30
0.0
 10
0.14492
 20
-2.3780000000000001
 30
0.0
  0
SPLINE
  5
57
100
AcDbEntity
  8
Ebene 1
 62
     7
100
AcDbSpline
210
0.0
220
0.0
230
1.0
 70
     1
 71
     3
 72
    24
 73
    20
 74
     0
 42
0.0000000001
 43
0.0000000001
 40
0.0
 40
0.0
 40
0.0
 40
0.0
 40
0.2
 40
0.2
 40
0.2
 40
0.2
 40
0.4
 40
0.4
 40
0.4
 40
0.4
 40
0.6000000000000001
 40
0.6000000000000001
 40
0.6000000000000001
 40
0.6000000000000001
 40
0.8
 40
0.8
 40
0.8
 40
0.8
 40
1.0
 40
1.0
 40
1.0
 40
1.0
 10
-1.6533900000000001
 20
-2.4465800000000004
 30
0.0
 10
-1.6533900000000001
 20
-2.4465800000000004
 30
0.0
 10
-1.5594100000000002
 20
-2.4567400000000004
 30
0.0
 10
-1.5594100000000002
 20
-2.4567400000000004
 30
0.0
 10
-1.5594100000000002
 20
-2.4567400000000004
 30
0.0
 10
-1.5594100000000002
 20
-2.4567400000000004
 30
0.0
 10
-1.4908300000000001
 20
-2.4643600000000001
 30
0.0
 10
-1.4908300000000001
 20
-2.4643600000000001
 30
0.0
 10
-1.4908300000000001
 20
-2.4643600000000001
 30
0.0
 10
-1.5695700000000001
 20
-2.5024600000000001
 30
0.0
 10
-1.6864100000000002
 20
-2.4948400000000004
 30
0.0
 10
-1.7905500000000001
 20
-2.4973800000000002
 30
0.0
 10
-1.7905500000000001
 20
-2.4973800000000002
 30
0.0
 10
-1.8032500000000002
 20
-2.48468
 30
0.0
 10
-1.7803900000000001
 20
-2.4719800000000003
 30
0.0
 10
-1.7676900000000002
 20
-2.4719800000000003
 30
0.0
 10
-1.7676900000000002
 20
-2.4719800000000003
 30
0.0
 10
-1.7676900000000002
 20
-2.4719800000000003
 30
0.0
 10
-1.6533900000000001
 20
-2.4465800000000004
 30
0.0
 10
-1.6533900000000001
 20
-2.4465800000000004
 30
0.0
  0
SPLINE
  5
58
100
AcDbEntity
  8
Ebene 1
 62
     7
100
AcDbSpline
210
0.0
220
0.0
230
1.0
 70
     1
 71
     3
 72
    16
 73
    12
 74
     0
 42
0.0000000001
 43
0.0000000001
 40
0.0
 40
0.0
 40
0.0
 40
0.0
 40
0.3333333333333333
 40
0.3333333333333333
 40
0.3333333333333333
 40
0.3333333333333333
 40
0.6666666666666666
 40
0.6666666666666666
 40
0.6666666666666666
 40
0.6666666666666666
 40
1.0
 40
1.0
 40
1.0
 40
1.0
 10
1.0364600000000002
 20
-2.3881600000000001
 30
0.0
 10
1.0364600000000002
 20
-2.3881600000000001
 30
0.0
 10
1.1533
 20
-2.4084800000000004
 30
0.0
 10
1.1533
 20
-2.4084800000000004
 30
0.0
 10
1.1533
 20
-2.4084800000000004
 30
0.0
 10
1.1533
 20
-2.4084800000000004
 30
0.0
 10
1.0745600000000002
 20
-2.56088
 30
0.0
 10
1.0745600000000002
 20
-2.56088
 30
0.0
 10
1.0745600000000002
 20
-2.56088
 30
0.0
 10
1.02884
 20
-2.52786
 30
0.0
 10
1.0390000000000001
 20
-2.4465800000000004
 30
0.0
 10
1.0364600000000002
 20
-2.3881600000000001
 30
0.0
  0
SPLINE
  5
59
100
AcDbEntity
  8
Ebene 1
 62
     7
100
AcDbSpline
210
0.0
220
0.0
230
1.0
 70
     1
 71
     3
 72
    24
 73
    20
 74
     0
 42
0.0000000001
 43
0.0000000001
 40
0.0
 40
0.0
 40
0.0
 40
0.0
 40
0.2
 40
0.2
 40
0.2
 40
0.2
 40
0.4
 40
0.4
 40
0.4
 40
0.4
 40
0.6000000000000001
 40
0.6000000000000001
 40
0.6000000000000001
 40
0.6000000000000001
 40
0.8
 40
0.8
 40
0.8
 40
0.8
 40
1.0
 40
1.0
 40
1.0
 40
1.0
 10
0.14746
 20
-2.4237200000000003
 30
0.0
 10
0.18048
 20
-2.4237200000000003
 30
0.0
 10
0.19318
 20
-2.4567400000000004
 30
0.0
 10
0.20588
 20
-2.4796
 30
0.0
 10
0.20588
 20
-2.4796
 30
0.0
 10
0.17286
 20
-2.4923000000000002
 30
0.0
 10
0.15
 20
-2.52786
 30
0.0
 10
0.17286
 20
-2.56088
 30
0.0
 10
0.17286
 20
-2.56088
 30
0.0
 10
0.17286
 20
-2.56088
 30
0.0
 10
0.1627
 20
-2.5837400000000001
 30
0.0
 10
0.1627
 20
-2.5837400000000001
 30
0.0
 10
0.1627
 20
-2.5837400000000001
 30
0.0
 10
0.12714
 20
-2.5862800000000004
 30
0.0
 10
0.1373
 20
-2.5507200000000001
 30
0.0
 10
0.1373
 20
-2.52786
 30
0.0
 10
0.1373
 20
-2.52786
 30
0.0
 10
0.06872
 20
-2.5177
 30
0.0
 10
0.08904
 20
-2.43642
 30
0.0
 10
0.14746
 20
-2.4237200000000003
 30
0.0
  0
SPLINE
  5
5A
100
AcDbEntity
  8
Ebene 1
 62
     7
100
AcDbSpline
210
0.0
220
0.0
230
1.0
 70
     1
 71
     3
 72
    16
 73
    12
 74
     0
 42
0.0000000001
 43
0.0000000001
 40
0.0
 40
0.0
 40
0.0
 40
0.0
 40
0.3333333333333333
 40
0.3333333333333333
 40
0.3333333333333333
 40
0.3333333333333333
 40
0.6666666666666666
 40
0.6666666666666666
 40
0.6666666666666666
 40
0.6666666666666666
 40
1.0
 40
1.0
 40
1.0
 40
1.0
 10
1.23204
 20
-2.3957800000000002
 30
0.0
 10
1.3031600000000001
 20
-2.39324
 30
0.0
 10
1.3819000000000001
 20
-2.3678400000000002
 30
0.0
 10
1.4200000000000002
 20
-2.43642
 30
0.0
 10
1.4200000000000002
 20
-2.43642
 30
0.0
 10
1.4123800000000002
 20
-2.5989800000000001
 30
0.0
 10
1.2396600000000002
 20
-2.6370800000000001
 30
0.0
 10
1.09996
 20
-2.6294600000000004
 30
0.0
 10
1.09996
 20
-2.6294600000000004
 30
0.0
 10
1.09996
 20
-2.6294600000000004
 30
0.0
 10
1.23204
 20
-2.3957800000000002
 30
0.0
 10
1.23204
 20
-2.3957800000000002
 30
0.0
  0
SPLINE
  5
5B
100
AcDbEntity
  8
Ebene 1
 62
     7
100
AcDbSpline
210
0.0
220
0.0
230
1.0
 70
     1
 71
     3
 72
    48
 73
    44
 74
     0
 42
0.0000000001
 43
0.0000000001
 40
0.0
 40
0.0
 40
0.0
 40
0.0
 40
0.0909090909090909
 40
0.0909090909090909
 40
0.0909090909090909
 40
0.0909090909090909
 40
0.1818181818181818
 40
0.1818181818181818
 40
0.1818181818181818
 40
0.1818181818181818
 40
0.2727272727272727
 40
0.2727272727272727
 40
0.2727272727272727
 40
0.2727272727272727
 40
0.3636363636363637
 40
0.3636363636363637
 40
0.3636363636363637
 40
0.3636363636363637
 40
0.4545454545454546
 40
0.4545454545454546
 40
0.4545454545454546
 40
0.4545454545454546
 40
0.5454545454545455
 40
0.5454545454545455
 40
0.5454545454545455
 40
0.5454545454545455
 40
0.6363636363636365
 40
0.6363636363636365
 40
0.6363636363636365
 40
0.6363636363636365
 40
0.7272727272727274
 40
0.7272727272727274
 40
0.7272727272727274
 40
0.7272727272727274
 40
0.8181818181818183
 40
0.8181818181818183
 40
0.8181818181818183
 40
0.8181818181818183
 40
0.9090909090909093
 40
0.9090909090909093
 40
0.9090909090909093
 40
0.9090909090909093
 40
1.0
 40
1.0
 40
1.0
 40
1.0
 10
0.80786
 20
-2.9495000000000005
 30
0.0
 10
0.9729600000000001
 20
-3.0968200000000001
 30
0.0
 10
1.0364600000000002
 20
-3.3254200000000003
 30
0.0
 10
1.09996
 20
-3.5438600000000005
 30
0.0
 10
1.09996
 20
-3.5438600000000005
 30
0.0
 10
1.1355200000000001
 20
-3.5540200000000004
 30
0.0
 10
1.11012
 20
-3.4981400000000002
 30
0.0
 10
1.14568
 20
-3.5083000000000002
 30
0.0
 10
1.14568
 20
-3.5083000000000002
 30
0.0
 10
1.2650600000000001
 20
-3.6429200000000002
 30
0.0
 10
1.1761600000000001
 20
-3.7953200000000002
 30
0.0
 10
1.2498200000000002
 20
-3.9451800000000001
 30
0.0
 10
1.2498200000000002
 20
-3.9451800000000001
 30
0.0
 10
1.2599800000000001
 20
-3.9324800000000004
 30
0.0
 10
1.27268
 20
-3.9197800000000003
 30
0.0
 10
1.2955400000000001
 20
-3.9324800000000004
 30
0.0
 10
1.2955400000000001
 20
-3.9324800000000004
 30
0.0
 10
1.2955400000000001
 20
-3.9324800000000004
 30
0.0
 10
1.3082400000000001
 20
-3.9655000000000005
 30
0.0
 10
1.3082400000000001
 20
-3.9655000000000005
 30
0.0
 10
1.3082400000000001
 20
-3.9655000000000005
 30
0.0
 10
1.39714
 20
-3.8029400000000004
 30
0.0
 10
1.2523600000000001
 20
-3.6327600000000002
 30
0.0
 10
1.2142600000000001
 20
-3.4600400000000002
 30
0.0
 10
1.2142600000000001
 20
-3.4600400000000002
 30
0.0
 10
1.2142600000000001
 20
-3.4600400000000002
 30
0.0
 10
1.1761600000000001
 20
-3.3101800000000003
 30
0.0
 10
1.1761600000000001
 20
-3.3101800000000003
 30
0.0
 10
1.1761600000000001
 20
-3.3101800000000003
 30
0.0
 10
1.3082400000000001
 20
-3.5489400000000004
 30
0.0
 10
1.5876400000000002
 20
-4.0620200000000004
 30
0.0
 10
1.2447400000000002
 20
-4.26776
 30
0.0
 10
1.2447400000000002
 20
-4.26776
 30
0.0
 10
1.2193400000000001
 20
-4.1890200000000002
 30
0.0
 10
1.2625200000000001
 20
-4.0594800000000006
 30
0.0
 10
1.2142600000000001
 20
-3.9807400000000004
 30
0.0
 10
1.2142600000000001
 20
-3.9807400000000004
 30
0.0
 10
1.2117200000000001
 20
-3.8766000000000003
 30
0.0
 10
1.1634600000000002
 20
-3.7724600000000001
 30
0.0
 10
1.1279000000000001
 20
-3.6937200000000003
 30
0.0
 10
1.1279000000000001
 20
-3.6937200000000003
 30
0.0
 10
1.0390000000000001
 20
-3.4295600000000004
 30
0.0
 10
0.8840600000000001
 20
-3.2136600000000004
 30
0.0
 10
0.80786
 20
-2.9495000000000005
 30
0.0
  0
SPLINE
  5
5C
100
AcDbEntity
  8
Ebene 1
 62
     7
100
AcDbSpline
210
0.0
220
0.0
230
1.0
 70
     1
 71
     3
 72
    16
 73
    12
 74
     0
 42
0.0000000001
 43
0.0000000001
 40
0.0
 40
0.0
 40
0.0
 40
0.0
 40
0.3333333333333333
 40
0.3333333333333333
 40
0.3333333333333333
 40
0.3333333333333333
 40
0.6666666666666666
 40
0.6666666666666666
 40
0.6666666666666666
 40
0.6666666666666666
 40
1.0
 40
1.0
 40
1.0
 40
1.0
 10
-2.22743
 20
-3.0384000000000002
 30
0.0
 10
-2.1563100000000004
 20
-3.0612600000000003
 30
0.0
 10
-2.06487
 20
-3.1171400000000005
 30
0.0
 10
-2.0724900000000002
 20
-3.2085800000000004
 30
0.0
 10
-2.0724900000000002
 20
-3.2085800000000004
 30
0.0
 10
-2.0724900000000002
 20
-3.2085800000000004
 30
0.0
 10
-2.10805
 20
-3.2085800000000004
 30
0.0
 10
-2.10805
 20
-3.2085800000000004
 30
0.0
 10
-2.10805
 20
-3.2085800000000004
 30
0.0
 10
-2.10805
 20
-3.2085800000000004
 30
0.0
 10
-2.22743
 20
-3.0384000000000002
 30
0.0
 10
-2.22743
 20
-3.0384000000000002
 30
0.0
  0
SPLINE
  5
5D
100
AcDbEntity
  8
Ebene 1
 62
     7
100
AcDbSpline
210
0.0
220
0.0
230
1.0
 70
     1
 71
     3
 72
    36
 73
    32
 74
     0
 42
0.0000000001
 43
0.0000000001
 40
0.0
 40
0.0
 40
0.0
 40
0.0
 40
0.125
 40
0.125
 40
0.125
 40
0.125
 40
0.25
 40
0.25
 40
0.25
 40
0.25
 40
0.375
 40
0.375
 40
0.375
 40
0.375
 40
0.5
 40
0.5
 40
0.5
 40
0.5
 40
0.625
 40
0.625
 40
0.625
 40
0.625
 40
0.75
 40
0.75
 40
0.75
 40
0.75
 40
0.875
 40
0.875
 40
0.875
 40
0.875
 40
1.0
 40
1.0
 40
1.0
 40
1.0
 10
2.0677000000000003
 20
-2.9749000000000003
 30
0.0
 10
2.1134200000000001
 20
-2.9749000000000003
 30
0.0
 10
2.1845400000000001
 20
-2.9622000000000002
 30
0.0
 10
2.1972400000000003
 20
-3.0180800000000003
 30
0.0
 10
2.1972400000000003
 20
-3.0180800000000003
 30
0.0
 10
1.8492600000000001
 20
-3.9172400000000005
 30
0.0
 10
2.6620600000000003
 20
-5.2380400000000007
 30
0.0
 10
1.6359000000000001
 20
-5.8197000000000001
 30
0.0
 10
1.6359000000000001
 20
-5.8197000000000001
 30
0.0
 10
1.6028800000000001
 20
-5.8781200000000009
 30
0.0
 10
1.5190600000000001
 20
-5.9136800000000003
 30
0.0
 10
1.4606400000000002
 20
-5.9517800000000003
 30
0.0
 10
1.4606400000000002
 20
-5.9517800000000003
 30
0.0
 10
1.65368
 20
-5.7612800000000002
 30
0.0
 10
1.8340200000000002
 20
-5.5250600000000007
 30
0.0
 10
1.8238600000000003
 20
-5.2126400000000004
 30
0.0
 10
1.8238600000000003
 20
-5.2126400000000004
 30
0.0
 10
1.9534000000000002
 20
-4.8291000000000004
 30
0.0
 10
1.8619600000000001
 20
-4.8291000000000004
 30
0.0
 10
1.9051400000000001
 20
-4.3084000000000007
 30
0.0
 10
1.9051400000000001
 20
-4.3084000000000007
 30
0.0
 10
1.9051400000000001
 20
-4.3084000000000007
 30
0.0
 10
1.8645
 20
-4.0798000000000005
 30
0.0
 10
1.8645
 20
-4.0798000000000005
 30
0.0
 10
1.8645
 20
-4.0798000000000005
 30
0.0
 10
2.0118200000000002
 20
-4.35412
 30
0.0
 10
2.0550000000000002
 20
-4.6868600000000002
 30
0.0
 10
2.0270600000000001
 20
-5.0119800000000003
 30
0.0
 10
2.0270600000000001
 20
-5.0119800000000003
 30
0.0
 10
2.2302600000000004
 20
-4.3236400000000001
 30
0.0
 10
1.7248000000000001
 20
-3.5845000000000002
 30
0.0
 10
2.0677000000000003
 20
-2.9749000000000003
 30
0.0
  0
SPLINE
  5
5E
100
AcDbEntity
  8
Ebene 1
 62
     7
100
AcDbSpline
210
0.0
220
0.0
230
1.0
 70
     1
 71
     3
 72
    12
 73
     8
 74
     0
 42
0.0000000001
 43
0.0000000001
 40
0.0
 40
0.0
 40
0.0
 40
0.0
 40
0.5
 40
0.5
 40
0.5
 40
0.5
 40
1.0
 40
1.0
 40
1.0
 40
1.0
 10
-2.0521700000000003
 20
-3.1374600000000004
 30
0.0
 10
-2.0064500000000001
 20
-3.1476200000000003
 30
0.0
 10
-1.9683500000000003
 20
-3.1933400000000001
 30
0.0
 10
-1.9683500000000003
 20
-3.2390600000000003
 30
0.0
 10
-1.9683500000000003
 20
-3.2390600000000003
 30
0.0
 10
-2.0140700000000002
 20
-3.2416000000000005
 30
0.0
 10
-2.0623300000000002
 20
-3.1857200000000003
 30
0.0
 10
-2.0521700000000003
 20
-3.1374600000000004
 30
0.0
  0
SPLINE
  5
5F
100
AcDbEntity
  8
Ebene 1
 62
     7
100
AcDbSpline
210
0.0
220
0.0
230
1.0
 70
     1
 71
     3
 72
    24
 73
    20
 74
     0
 42
0.0000000001
 43
0.0000000001
 40
0.0
 40
0.0
 40
0.0
 40
0.0
 40
0.2
 40
0.2
 40
0.2
 40
0.2
 40
0.4
 40
0.4
 40
0.4
 40
0.4
 40
0.6000000000000001
 40
0.6000000000000001
 40
0.6000000000000001
 40
0.6000000000000001
 40
0.8
 40
0.8
 40
0.8
 40
0.8
 40
1.0
 40
1.0
 40
1.0
 40
1.0
 10
1.4936600000000002
 20
-3.1628600000000002
 30
0.0
 10
1.5063600000000001
 20
-3.1628600000000002
 30
0.0
 10
1.5190600000000001
 20
-3.1628600000000002
 30
0.0
 10
1.52922
 20
-3.1730200000000002
 30
0.0
 10
1.52922
 20
-3.1730200000000002
 30
0.0
 10
1.6079600000000001
 20
-3.4854400000000001
 30
0.0
 10
1.8213200000000001
 20
-3.7216600000000004
 30
0.0
 10
1.8746600000000002
 20
-4.0315400000000006
 30
0.0
 10
1.8746600000000002
 20
-4.0315400000000006
 30
0.0
 10
1.8645
 20
-4.0442400000000003
 30
0.0
 10
1.8518000000000001
 20
-4.0213800000000006
 30
0.0
 10
1.8416400000000002
 20
-4.0213800000000006
 30
0.0
 10
1.8416400000000002
 20
-4.0213800000000006
 30
0.0
 10
1.7527400000000002
 20
-3.7242000000000002
 30
0.0
 10
1.5368400000000002
 20
-3.4752800000000001
 30
0.0
 10
1.3920600000000001
 20
-3.2009600000000002
 30
0.0
 10
1.3920600000000001
 20
-3.2009600000000002
 30
0.0
 10
1.3920600000000001
 20
-3.2009600000000002
 30
0.0
 10
1.4936600000000002
 20
-3.1628600000000002
 30
0.0
 10
1.4936600000000002
 20
-3.1628600000000002
 30
0.0
  0
SPLINE
  5
60
100
AcDbEntity
  8
Ebene 1
 62
     7
100
AcDbSpline
210
0.0
220
0.0
230
1.0
 70
     1
 71
     3
 72
    32
 73
    28
 74
     0
 42
0.0000000001
 43
0.0000000001
 40
0.0
 40
0.0
 40
0.0
 40
0.0
 40
0.1428571428571429
 40
0.1428571428571429
 40
0.1428571428571429
 40
0.1428571428571429
 40
0.2857142857142857
 40
0.2857142857142857
 40
0.2857142857142857
 40
0.2857142857142857
 40
0.4285714285714286
 40
0.4285714285714286
 40
0.4285714285714286
 40
0.4285714285714286
 40
0.5714285714285714
 40
0.5714285714285714
 40
0.5714285714285714
 40
0.5714285714285714
 40
0.7142857142857142
 40
0.7142857142857142
 40
0.7142857142857142
 40
0.7142857142857142
 40
0.857142857142857
 40
0.857142857142857
 40
0.857142857142857
 40
0.857142857142857
 40
1.0
 40
1.0
 40
1.0
 40
1.0
 10
-1.1072900000000001
 20
-3.4498800000000003
 30
0.0
 10
-1.1022100000000001
 20
-3.5997400000000002
 30
0.0
 10
-1.3536700000000002
 20
-3.7902400000000003
 30
0.0
 10
-1.2571500000000002
 20
-3.9502600000000001
 30
0.0
 10
-1.2571500000000002
 20
-3.9502600000000001
 30
0.0
 10
-1.3485900000000002
 20
-3.9756600000000004
 30
0.0
 10
-1.29779
 20
-4.1814
 30
0.0
 10
-1.2596900000000002
 20
-4.2525200000000005
 30
0.0
 10
-1.2596900000000002
 20
-4.2525200000000005
 30
0.0
 10
-1.2596900000000002
 20
-4.2525200000000005
 30
0.0
 10
-1.2292100000000001
 20
-4.1356800000000007
 30
0.0
 10
-1.2292100000000001
 20
-4.1356800000000007
 30
0.0
 10
-1.2292100000000001
 20
-4.1356800000000007
 30
0.0
 10
-1.1733300000000002
 20
-4.0874200000000007
 30
0.0
 10
-1.2012700000000001
 20
-4.3084000000000007
 30
0.0
 10
-1.21143
 20
-4.3769800000000005
 30
0.0
 10
-1.21143
 20
-4.3769800000000005
 30
0.0
 10
-1.29271
 20
-4.3668200000000006
 30
0.0
 10
-1.2825500000000001
 20
-4.2626800000000005
 30
0.0
 10
-1.3079500000000002
 20
-4.2068000000000003
 30
0.0
 10
-1.3079500000000002
 20
-4.2068000000000003
 30
0.0
 10
-1.3435100000000002
 20
-4.1255200000000007
 30
0.0
 10
-1.3663700000000001
 20
-4.22966
 30
0.0
 10
-1.4247900000000002
 20
-4.1966400000000004
 30
0.0
 10
-1.4247900000000002
 20
-4.1966400000000004
 30
0.0
 10
-1.37399
 20
-3.9197800000000003
 30
0.0
 10
-1.33335
 20
-3.6302200000000004
 30
0.0
 10
-1.1072900000000001
 20
-3.4498800000000003
 30
0.0
  0
SPLINE
  5
61
100
AcDbEntity
  8
Ebene 1
100
AcDbSpline
210
0.0
220
0.0
230
1.0
 70
     1
 71
     3
 72
    24
 73
    20
 74
     0
 42
0.0000000001
 43
0.0000000001
 40
0.0
 40
0.0
 40
0.0
 40
0.0
 40
0.2
 40
0.2
 40
0.2
 40
0.2
 40
0.4
 40
0.4
 40
0.4
 40
0.4
 40
0.6000000000000001
 40
0.6000000000000001
 40
0.6000000000000001
 40
0.6000000000000001
 40
0.8
 40
0.8
 40
0.8
 40
0.8
 40
1.0
 40
1.0
 40
1.0
 40
1.0
 10
0.21858
 20
-3.4397200000000003
 30
0.0
 10
0.2643
 20
-3.4498800000000003
 30
0.0
 10
0.27954
 20
-3.5184600000000001
 30
0.0
 10
0.3024
 20
-3.5641800000000003
 30
0.0
 10
0.3024
 20
-3.5641800000000003
 30
0.0
 10
0.2617600000000001
 20
-3.7623000000000002
 30
0.0
 10
0.25668
 20
-3.9934400000000005
 30
0.0
 10
0.2389
 20
-4.1890200000000002
 30
0.0
 10
0.2389
 20
-4.1890200000000002
 30
0.0
 10
0.17794
 20
-4.1204400000000003
 30
0.0
 10
0.1881
 20
-4.0163000000000002
 30
0.0
 10
0.20842
 20
-3.9350200000000002
 30
0.0
 10
0.20842
 20
-3.9350200000000002
 30
0.0
 10
0.17032
 20
-3.7978600000000005
 30
0.0
 10
0.17794
 20
-3.6480000000000001
 30
0.0
 10
0.1754
 20
-3.5083000000000002
 30
0.0
 10
0.1754
 20
-3.5083000000000002
 30
0.0
 10
0.1754
 20
-3.5083000000000002
 30
0.0
 10
0.21858
 20
-3.4397200000000003
 30
0.0
 10
0.21858
 20
-3.4397200000000003
 30
0.0
  0
SPLINE
  5
62
100
AcDbEntity
  8
Ebene 1
100
AcDbSpline
210
0.0
220
0.0
230
1.0
 70
     1
 71
     3
 72
    24
 73
    20
 74
     0
 42
0.0000000001
 43
0.0000000001
 40
0.0
 40
0.0
 40
0.0
 40
0.0
 40
0.2
 40
0.2
 40
0.2
 40
0.2
 40
0.4
 40
0.4
 40
0.4
 40
0.4
 40
0.6000000000000001
 40
0.6000000000000001
 40
0.6000000000000001
 40
0.6000000000000001
 40
0.8
 40
0.8
 40
0.8
 40
0.8
 40
1.0
 40
1.0
 40
1.0
 40
1.0
 10
0.01538
 20
-3.5819600000000005
 30
0.0
 10
0.01538
 20
-3.5819600000000005
 30
0.0
 10
0.0484
 20
-3.5819600000000005
 30
0.0
 10
0.0484
 20
-3.5819600000000005
 30
0.0
 10
0.0484
 20
-3.5819600000000005
 30
0.0
 10
0.07634
 20
-3.7318200000000004
 30
0.0
 10
0.023
 20
-3.8842200000000005
 30
0.0
 10
0.01538
 20
-4.0340800000000003
 30
0.0
 10
0.01538
 20
-4.0340800000000003
 30
0.0
 10
0.01538
 20
-4.0340800000000003
 30
0.0
 10
-0.00493
 20
-4.0340800000000003
 30
0.0
 10
-0.00493
 20
-4.0340800000000003
 30
0.0
 10
-0.00493
 20
-4.0340800000000003
 30
0.0
 10
-0.03033
 20
-3.9655000000000005
 30
0.0
 10
-0.02271
 20
-3.8385000000000002
 30
0.0
 10
0.00776
 20
-3.7800800000000003
 30
0.0
 10
0.00776
 20
-3.7800800000000003
 30
0.0
 10
-0.04811
 20
-3.7216600000000004
 30
0.0
 10
0.01538
 20
-3.6530800000000001
 30
0.0
 10
0.01538
 20
-3.5819600000000005
 30
0.0
  0
SPLINE
  5
63
100
AcDbEntity
  8
Ebene 1
 62
     7
100
AcDbSpline
210
0.0
220
0.0
230
1.0
 70
     1
 71
     3
 72
    52
 73
    48
 74
     0
 42
0.0000000001
 43
0.0000000001
 40
0.0
 40
0.0
 40
0.0
 40
0.0
 40
0.0833333333333333
 40
0.0833333333333333
 40
0.0833333333333333
 40
0.0833333333333333
 40
0.1666666666666667
 40
0.1666666666666667
 40
0.1666666666666667
 40
0.1666666666666667
 40
0.25
 40
0.25
 40
0.25
 40
0.25
 40
0.3333333333333333
 40
0.3333333333333333
 40
0.3333333333333333
 40
0.3333333333333333
 40
0.4166666666666666
 40
0.4166666666666666
 40
0.4166666666666666
 40
0.4166666666666666
 40
0.4999999999999999
 40
0.4999999999999999
 40
0.4999999999999999
 40
0.4999999999999999
 40
0.5833333333333333
 40
0.5833333333333333
 40
0.5833333333333333
 40
0.5833333333333333
 40
0.6666666666666666
 40
0.6666666666666666
 40
0.6666666666666666
 40
0.6666666666666666
 40
0.75
 40
0.75
 40
0.75
 40
0.75
 40
0.8333333333333334
 40
0.8333333333333334
 40
0.8333333333333334
 40
0.8333333333333334
 40
0.9166666666666667
 40
0.9166666666666667
 40
0.9166666666666667
 40
0.9166666666666667
 40
1.0
 40
1.0
 40
1.0
 40
1.0
 10
1.4835
 20
-3.6378400000000002
 30
0.0
 10
1.7146400000000002
 20
-4.0137600000000004
 30
0.0
 10
1.7273400000000001
 20
-4.5090600000000007
 30
0.0
 10
1.8187800000000001
 20
-4.9459400000000002
 30
0.0
 10
1.8187800000000001
 20
-4.9459400000000002
 30
0.0
 10
1.6917800000000001
 20
-4.93832
 30
0.0
 10
1.7578200000000002
 20
-5.3193200000000003
 30
0.0
 10
1.6003400000000001
 20
-5.4387000000000008
 30
0.0
 10
1.6003400000000001
 20
-5.4387000000000008
 30
0.0
 10
1.6003400000000001
 20
-5.4387000000000008
 30
0.0
 10
1.6003400000000001
 20
-5.4717200000000004
 30
0.0
 10
1.6003400000000001
 20
-5.4717200000000004
 30
0.0
 10
1.6003400000000001
 20
-5.4717200000000004
 30
0.0
 10
1.7578200000000002
 20
-5.3650400000000005
 30
0.0
 10
1.3895200000000001
 20
-5.8705000000000007
 30
0.0
 10
1.6384400000000001
 20
-5.5987200000000001
 30
0.0
 10
1.6384400000000001
 20
-5.5987200000000001
 30
0.0
 10
1.6714600000000002
 20
-5.5860200000000004
 30
0.0
 10
1.6689200000000002
 20
-5.5072800000000006
 30
0.0
 10
1.7070200000000002
 20
-5.5403000000000002
 30
0.0
 10
1.7070200000000002
 20
-5.5403000000000002
 30
0.0
 10
1.6079600000000001
 20
-5.7485800000000005
 30
0.0
 10
1.3920600000000001
 20
-5.9187600000000007
 30
0.0
 10
1.2472800000000002
 20
-6.1067200000000001
 30
0.0
 10
1.2472800000000002
 20
-6.1067200000000001
 30
0.0
 10
1.2472800000000002
 20
-6.1067200000000001
 30
0.0
 10
1.32094
 20
-5.8044600000000006
 30
0.0
 10
1.32094
 20
-5.8044600000000006
 30
0.0
 10
1.32094
 20
-5.8044600000000006
 30
0.0
 10
1.6333600000000001
 20
-5.3802800000000008
 30
0.0
 10
1.7781400000000001
 20
-4.7630600000000003
 30
0.0
 10
1.5927200000000001
 20
-4.2474400000000001
 30
0.0
 10
1.5927200000000001
 20
-4.2474400000000001
 30
0.0
 10
1.5749400000000002
 20
-4.4912800000000006
 30
0.0
 10
1.6181200000000002
 20
-4.7681400000000007
 30
0.0
 10
1.4606400000000002
 20
-4.9688000000000008
 30
0.0
 10
1.4606400000000002
 20
-4.9688000000000008
 30
0.0
 10
1.4606400000000002
 20
-4.9688000000000008
 30
0.0
 10
1.4479400000000002
 20
-4.9205400000000008
 30
0.0
 10
1.4479400000000002
 20
-4.9205400000000008
 30
0.0
 10
1.4479400000000002
 20
-4.9205400000000008
 30
0.0
 10
1.2396600000000002
 20
-4.5344600000000002
 30
0.0
 10
1.7044800000000002
 20
-4.1179000000000006
 30
0.0
 10
1.4631800000000001
 20
-3.7191200000000002
 30
0.0
 10
1.4631800000000001
 20
-3.7191200000000002
 30
0.0
 10
1.4631800000000001
 20
-3.6835600000000004
 30
0.0
 10
1.4504800000000002
 20
-3.6505400000000003
 30
0.0
 10
1.4835
 20
-3.6378400000000002
 30
0.0
  0
SPLINE
  5
64
100
AcDbEntity
  8
Ebene 1
 62
     7
100
AcDbSpline
210
0.0
220
0.0
230
1.0
 70
     1
 71
     3
 72
    32
 73
    28
 74
     0
 42
0.0000000001
 43
0.0000000001
 40
0.0
 40
0.0
 40
0.0
 40
0.0
 40
0.1428571428571429
 40
0.1428571428571429
 40
0.1428571428571429
 40
0.1428571428571429
 40
0.2857142857142857
 40
0.2857142857142857
 40
0.2857142857142857
 40
0.2857142857142857
 40
0.4285714285714286
 40
0.4285714285714286
 40
0.4285714285714286
 40
0.4285714285714286
 40
0.5714285714285714
 40
0.5714285714285714
 40
0.5714285714285714
 40
0.5714285714285714
 40
0.7142857142857142
 40
0.7142857142857142
 40
0.7142857142857142
 40
0.7142857142857142
 40
0.857142857142857
 40
0.857142857142857
 40
0.857142857142857
 40
0.857142857142857
 40
1.0
 40
1.0
 40
1.0
 40
1.0
 10
-1.5568700000000002
 20
-3.9350200000000002
 30
0.0
 10
-1.50099
 20
-3.9451800000000001
 30
0.0
 10
-1.5543300000000002
 20
-4.0163000000000002
 30
0.0
 10
-1.5416300000000001
 20
-4.0620200000000004
 30
0.0
 10
-1.5416300000000001
 20
-4.0620200000000004
 30
0.0
 10
-1.4984500000000001
 20
-4.0366200000000001
 30
0.0
 10
-1.5213100000000002
 20
-3.9451800000000001
 30
0.0
 10
-1.46543
 20
-3.9553400000000005
 30
0.0
 10
-1.46543
 20
-3.9553400000000005
 30
0.0
 10
-1.42225
 20
-4.2322000000000006
 30
0.0
 10
-1.58989
 20
-4.5014400000000006
 30
0.0
 10
-1.4451100000000001
 20
-4.7529000000000003
 30
0.0
 10
-1.4451100000000001
 20
-4.7529000000000003
 30
0.0
 10
-1.5568700000000002
 20
-4.8494200000000003
 30
0.0
 10
-1.5162300000000002
 20
-5.0551600000000008
 30
0.0
 10
-1.5365500000000001
 20
-5.2050200000000002
 30
0.0
 10
-1.5365500000000001
 20
-5.2050200000000002
 30
0.0
 10
-1.4070100000000001
 20
-5.28376
 30
0.0
 10
-1.37907
 20
-5.5250600000000007
 30
0.0
 10
-1.3181100000000001
 20
-5.6520600000000005
 30
0.0
 10
-1.3181100000000001
 20
-5.6520600000000005
 30
0.0
 10
-1.3181100000000001
 20
-5.6520600000000005
 30
0.0
 10
-1.37399
 20
-5.6647600000000002
 30
0.0
 10
-1.37399
 20
-5.6647600000000002
 30
0.0
 10
-1.37399
 20
-5.6647600000000002
 30
0.0
 10
-1.7346700000000002
 20
-5.1542200000000005
 30
0.0
 10
-1.6940300000000001
 20
-4.51668
 30
0.0
 10
-1.5568700000000002
 20
-3.9350200000000002
 30
0.0
  0
SPLINE
  5
65
100
AcDbEntity
  8
Ebene 1
 62
     7
100
AcDbSpline
210
0.0
220
0.0
230
1.0
 70
     1
 71
     3
 72
    12
 73
     8
 74
     0
 42
0.0000000001
 43
0.0000000001
 40
0.0
 40
0.0
 40
0.0
 40
0.0
 40
0.5
 40
0.5
 40
0.5
 40
0.5
 40
1.0
 40
1.0
 40
1.0
 40
1.0
 10
-1.1530100000000001
 20
-3.9477200000000003
 30
0.0
 10
-1.1403100000000002
 20
-3.9832800000000002
 30
0.0
 10
-1.1504700000000001
 20
-4.0747200000000001
 30
0.0
 10
-1.1606300000000001
 20
-4.1102800000000004
 30
0.0
 10
-1.1606300000000001
 20
-4.1102800000000004
 30
0.0
 10
-1.20635
 20
-4.0874200000000007
 30
0.0
 10
-1.1860300000000001
 20
-3.9705800000000004
 30
0.0
 10
-1.1530100000000001
 20
-3.9477200000000003
 30
0.0
  0
SPLINE
  5
66
100
AcDbEntity
  8
Ebene 1
100
AcDbSpline
210
0.0
220
0.0
230
1.0
 70
     1
 71
     3
 72
    24
 73
    20
 74
     0
 42
0.0000000001
 43
0.0000000001
 40
0.0
 40
0.0
 40
0.0
 40
0.0
 40
0.2
 40
0.2
 40
0.2
 40
0.2
 40
0.4
 40
0.4
 40
0.4
 40
0.4
 40
0.6000000000000001
 40
0.6000000000000001
 40
0.6000000000000001
 40
0.6000000000000001
 40
0.8
 40
0.8
 40
0.8
 40
0.8
 40
1.0
 40
1.0
 40
1.0
 40
1.0
 10
-0.7948700000000001
 20
-3.9604200000000005
 30
0.0
 10
-0.7948700000000001
 20
-3.9604200000000005
 30
0.0
 10
-0.7694700000000001
 20
-4.0315400000000006
 30
0.0
 10
-0.7694700000000001
 20
-4.0315400000000006
 30
0.0
 10
-0.7694700000000001
 20
-4.0315400000000006
 30
0.0
 10
-0.80249
 20
-4.1001200000000004
 30
0.0
 10
-0.7999500000000001
 20
-4.1941000000000006
 30
0.0
 10
-0.7745500000000001
 20
-4.2855400000000001
 30
0.0
 10
-0.7745500000000001
 20
-4.2855400000000001
 30
0.0
 10
-0.68057
 20
-4.2830000000000004
 30
0.0
 10
-0.7364500000000001
 20
-4.3998400000000002
 30
0.0
 10
-0.7466100000000001
 20
-4.4582600000000001
 30
0.0
 10
-0.7466100000000001
 20
-4.4582600000000001
 30
0.0
 10
-0.8380500000000001
 20
-4.4608000000000008
 30
0.0
 10
-0.91171
 20
-4.3465000000000007
 30
0.0
 10
-0.86853
 20
-4.2652200000000002
 30
0.0
 10
-0.86853
 20
-4.2652200000000002
 30
0.0
 10
-0.9167900000000001
 20
-4.1610800000000001
 30
0.0
 10
-0.8736100000000001
 20
-4.0340800000000003
 30
0.0
 10
-0.7948700000000001
 20
-3.9604200000000005
 30
0.0
  0
SPLINE
  5
67
100
AcDbEntity
  8
Ebene 1
 62
     7
100
AcDbSpline
210
0.0
220
0.0
230
1.0
 70
     1
 71
     3
 72
    20
 73
    16
 74
     0
 42
0.0000000001
 43
0.0000000001
 40
0.0
 40
0.0
 40
0.0
 40
0.0
 40
0.25
 40
0.25
 40
0.25
 40
0.25
 40
0.5
 40
0.5
 40
0.5
 40
0.5
 40
0.75
 40
0.75
 40
0.75
 40
0.75
 40
1.0
 40
1.0
 40
1.0
 40
1.0
 10
-2.02677
 20
-4.0747200000000001
 30
0.0
 10
-1.9048500000000002
 20
-4.3363400000000007
 30
0.0
 10
-1.8845300000000003
 20
-4.6944800000000004
 30
0.0
 10
-1.8540500000000002
 20
-5.0170600000000007
 30
0.0
 10
-1.8540500000000002
 20
-5.0170600000000007
 30
0.0
 10
-1.7321300000000002
 20
-5.2228000000000003
 30
0.0
 10
-1.5746500000000001
 20
-5.4844200000000001
 30
0.0
 10
-1.4781300000000002
 20
-5.7028600000000003
 30
0.0
 10
-1.4781300000000002
 20
-5.7028600000000003
 30
0.0
 10
-1.6457700000000002
 20
-5.5199800000000003
 30
0.0
 10
-1.8235700000000001
 20
-5.28376
 30
0.0
 10
-1.9454900000000002
 20
-5.0551600000000008
 30
0.0
 10
-1.9454900000000002
 20
-5.0551600000000008
 30
0.0
 10
-1.9454900000000002
 20
-5.0551600000000008
 30
0.0
 10
-2.02677
 20
-4.0747200000000001
 30
0.0
 10
-2.02677
 20
-4.0747200000000001
 30
0.0
  0
SPLINE
  5
68
100
AcDbEntity
  8
Ebene 1
100
AcDbSpline
210
0.0
220
0.0
230
1.0
 70
     1
 71
     3
 72
    12
 73
     8
 74
     0
 42
0.0000000001
 43
0.0000000001
 40
0.0
 40
0.0
 40
0.0
 40
0.0
 40
0.5
 40
0.5
 40
0.5
 40
0.5
 40
1.0
 40
1.0
 40
1.0
 40
1.0
 10
-0.00493
 20
-4.0925000000000002
 30
0.0
 10
0.0738
 20
-4.1356800000000007
 30
0.0
 10
0.00014
 20
-4.2525200000000005
 30
0.0
 10
-0.01001
 20
-4.3109400000000004
 30
0.0
 10
-0.01001
 20
-4.3109400000000004
 30
0.0
 10
-0.03541
 20
-4.2550600000000003
 30
0.0
 10
-0.01509
 20
-4.1610800000000001
 30
0.0
 10
-0.00493
 20
-4.0925000000000002
 30
0.0
  0
SPLINE
  5
69
100
AcDbEntity
  8
Ebene 1
100
AcDbSpline
210
0.0
220
0.0
230
1.0
 70
     1
 71
     3
 72
    16
 73
    12
 74
     0
 42
0.0000000001
 43
0.0000000001
 40
0.0
 40
0.0
 40
0.0
 40
0.0
 40
0.3333333333333333
 40
0.3333333333333333
 40
0.3333333333333333
 40
0.3333333333333333
 40
0.6666666666666666
 40
0.6666666666666666
 40
0.6666666666666666
 40
0.6666666666666666
 40
1.0
 40
1.0
 40
1.0
 40
1.0
 10
0.24906
 20
-4.2017200000000008
 30
0.0
 10
0.2617600000000001
 20
-4.2017200000000008
 30
0.0
 10
0.27192
 20
-4.2017200000000008
 30
0.0
 10
0.28462
 20
-4.2118800000000007
 30
0.0
 10
0.28462
 20
-4.2118800000000007
 30
0.0
 10
0.2643
 20
-4.2931600000000003
 30
0.0
 10
0.3354200000000001
 20
-4.3947600000000007
 30
0.0
 10
0.27954
 20
-4.4531800000000006
 30
0.0
 10
0.27954
 20
-4.4531800000000006
 30
0.0
 10
0.25414
 20
-4.3871400000000005
 30
0.0
 10
0.2516000000000001
 20
-4.2830000000000004
 30
0.0
 10
0.24906
 20
-4.2017200000000008
 30
0.0
  0
SPLINE
  5
6A
100
AcDbEntity
  8
Ebene 1
 62
     7
100
AcDbSpline
210
0.0
220
0.0
230
1.0
 70
     1
 71
     3
 72
    16
 73
    12
 74
     0
 42
0.0000000001
 43
0.0000000001
 40
0.0
 40
0.0
 40
0.0
 40
0.0
 40
0.3333333333333333
 40
0.3333333333333333
 40
0.3333333333333333
 40
0.3333333333333333
 40
0.6666666666666666
 40
0.6666666666666666
 40
0.6666666666666666
 40
0.6666666666666666
 40
1.0
 40
1.0
 40
1.0
 40
1.0
 10
-1.37399
 20
-4.3820600000000001
 30
0.0
 10
-1.3612900000000001
 20
-4.3795200000000003
 30
0.0
 10
-1.3485900000000002
 20
-4.3795200000000003
 30
0.0
 10
-1.33843
 20
-4.39222
 30
0.0
 10
-1.33843
 20
-4.39222
 30
0.0
 10
-1.3460500000000002
 20
-4.5192200000000007
 30
0.0
 10
-1.3536700000000002
 20
-4.6589200000000002
 30
0.0
 10
-1.3155700000000001
 20
-4.7833800000000002
 30
0.0
 10
-1.3155700000000001
 20
-4.7833800000000002
 30
0.0
 10
-1.4806700000000002
 20
-4.7427400000000004
 30
0.0
 10
-1.3917700000000002
 20
-4.4963600000000001
 30
0.0
 10
-1.37399
 20
-4.3820600000000001
 30
0.0
  0
SPLINE
  5
6B
100
AcDbEntity
  8
Ebene 1
 62
     7
100
AcDbSpline
210
0.0
220
0.0
230
1.0
 70
     1
 71
     3
 72
    16
 73
    12
 74
     0
 42
0.0000000001
 43
0.0000000001
 40
0.0
 40
0.0
 40
0.0
 40
0.0
 40
0.3333333333333333
 40
0.3333333333333333
 40
0.3333333333333333
 40
0.3333333333333333
 40
0.6666666666666666
 40
0.6666666666666666
 40
0.6666666666666666
 40
0.6666666666666666
 40
1.0
 40
1.0
 40
1.0
 40
1.0
 10
-1.2444500000000001
 20
-4.4811200000000007
 30
0.0
 10
-1.2444500000000001
 20
-4.4811200000000007
 30
0.0
 10
-1.1834900000000002
 20
-4.4912800000000006
 30
0.0
 10
-1.1834900000000002
 20
-4.4912800000000006
 30
0.0
 10
-1.1834900000000002
 20
-4.4912800000000006
 30
0.0
 10
-1.1834900000000002
 20
-4.4912800000000006
 30
0.0
 10
-1.21143
 20
-4.7935400000000001
 30
0.0
 10
-1.21143
 20
-4.7935400000000001
 30
0.0
 10
-1.21143
 20
-4.7935400000000001
 30
0.0
 10
-1.3054100000000002
 20
-4.73766
 30
0.0
 10
-1.2419100000000001
 20
-4.5750999999999999
 30
0.0
 10
-1.2444500000000001
 20
-4.4811200000000007
 30
0.0
  0
SPLINE
  5
6C
100
AcDbEntity
  8
Ebene 1
 62
     7
100
AcDbSpline
210
0.0
220
0.0
230
1.0
 70
     1
 71
     3
 72
    16
 73
    12
 74
     0
 42
0.0000000001
 43
0.0000000001
 40
0.0
 40
0.0
 40
0.0
 40
0.0
 40
0.3333333333333333
 40
0.3333333333333333
 40
0.3333333333333333
 40
0.3333333333333333
 40
0.6666666666666666
 40
0.6666666666666666
 40
0.6666666666666666
 40
0.6666666666666666
 40
1.0
 40
1.0
 40
1.0
 40
1.0
 10
1.2396600000000002
 20
-4.44048
 30
0.0
 10
1.3539600000000001
 20
-4.4506399999999999
 30
0.0
 10
1.2904600000000002
 20
-4.6487600000000002
 30
0.0
 10
1.2447400000000002
 20
-4.7071800000000001
 30
0.0
 10
1.2447400000000002
 20
-4.7071800000000001
 30
0.0
 10
1.23204
 20
-4.6259000000000006
 30
0.0
 10
1.2168000000000001
 20
-4.5344600000000002
 30
0.0
 10
1.2041000000000002
 20
-4.4531800000000006
 30
0.0
 10
1.2041000000000002
 20
-4.4531800000000006
 30
0.0
 10
1.2041000000000002
 20
-4.4531800000000006
 30
0.0
 10
1.2396600000000002
 20
-4.44048
 30
0.0
 10
1.2396600000000002
 20
-4.44048
 30
0.0
  0
SPLINE
  5
6D
100
AcDbEntity
  8
Ebene 1
 62
     7
100
AcDbSpline
210
0.0
220
0.0
230
1.0
 70
     1
 71
     3
 72
    16
 73
    12
 74
     0
 42
0.0000000001
 43
0.0000000001
 40
0.0
 40
0.0
 40
0.0
 40
0.0
 40
0.3333333333333333
 40
0.3333333333333333
 40
0.3333333333333333
 40
0.3333333333333333
 40
0.6666666666666666
 40
0.6666666666666666
 40
0.6666666666666666
 40
0.6666666666666666
 40
1.0
 40
1.0
 40
1.0
 40
1.0
 10
1.01868
 20
-4.4582600000000001
 30
0.0
 10
1.1279000000000001
 20
-4.5954200000000007
 30
0.0
 10
1.0517000000000001
 20
-4.8519600000000001
 30
0.0
 10
0.9043800000000001
 20
-4.9256200000000003
 30
0.0
 10
0.9043800000000001
 20
-4.9256200000000003
 30
0.0
 10
0.9704200000000001
 20
-4.7960800000000008
 30
0.0
 10
0.95518
 20
-4.6335200000000007
 30
0.0
 10
0.9170800000000001
 20
-4.4963600000000001
 30
0.0
 10
0.9170800000000001
 20
-4.4963600000000001
 30
0.0
 10
0.9170800000000001
 20
-4.4963600000000001
 30
0.0
 10
1.01868
 20
-4.4582600000000001
 30
0.0
 10
1.01868
 20
-4.4582600000000001
 30
0.0
  0
SPLINE
  5
6E
100
AcDbEntity
  8
Ebene 1
 62
     7
100
AcDbSpline
210
0.0
220
0.0
230
1.0
 70
     1
 71
     3
 72
    24
 73
    20
 74
     0
 42
0.0000000001
 43
0.0000000001
 40
0.0
 40
0.0
 40
0.0
 40
0.0
 40
0.2
 40
0.2
 40
0.2
 40
0.2
 40
0.4
 40
0.4
 40
0.4
 40
0.4
 40
0.6000000000000001
 40
0.6000000000000001
 40
0.6000000000000001
 40
0.6000000000000001
 40
0.8
 40
0.8
 40
0.8
 40
0.8
 40
1.0
 40
1.0
 40
1.0
 40
1.0
 10
-1.12761
 20
-4.5243000000000002
 30
0.0
 10
-1.0691900000000001
 20
-4.5243000000000002
 30
0.0
 10
-1.00061
 20
-4.5116000000000005
 30
0.0
 10
-0.9421900000000001
 20
-4.5446200000000001
 30
0.0
 10
-0.9421900000000001
 20
-4.5446200000000001
 30
0.0
 10
-0.9625100000000001
 20
-4.6589200000000002
 30
0.0
 10
-0.8532900000000001
 20
-4.8062400000000007
 30
0.0
 10
-0.9421900000000001
 20
-4.9129200000000006
 30
0.0
 10
-0.9421900000000001
 20
-4.9129200000000006
 30
0.0
 10
-0.9650500000000001
 20
-4.9129200000000006
 30
0.0
 10
-0.9879100000000001
 20
-4.9154600000000004
 30
0.0
 10
-1.0133100000000002
 20
-4.9027600000000007
 30
0.0
 10
-1.0133100000000002
 20
-4.9027600000000007
 30
0.0
 10
-1.0133100000000002
 20
-4.9027600000000007
 30
0.0
 10
-1.04633
 20
-4.93832
 30
0.0
 10
-1.04633
 20
-4.93832
 30
0.0
 10
-1.04633
 20
-4.93832
 30
0.0
 10
-1.1987300000000001
 20
-4.8976800000000003
 30
0.0
 10
-1.1936500000000001
 20
-4.6436800000000007
 30
0.0
 10
-1.12761
 20
-4.5243000000000002
 30
0.0
  0
SPLINE
  5
6F
100
AcDbEntity
  8
Ebene 1
 62
     7
100
AcDbSpline
210
0.0
220
0.0
230
1.0
 70
     1
 71
     3
 72
    16
 73
    12
 74
     0
 42
0.0000000001
 43
0.0000000001
 40
0.0
 40
0.0
 40
0.0
 40
0.0
 40
0.3333333333333333
 40
0.3333333333333333
 40
0.3333333333333333
 40
0.3333333333333333
 40
0.6666666666666666
 40
0.6666666666666666
 40
0.6666666666666666
 40
0.6666666666666666
 40
1.0
 40
1.0
 40
1.0
 40
1.0
 10
0.8485
 20
-4.5090600000000007
 30
0.0
 10
0.93232
 20
-4.6335200000000007
 30
0.0
 10
0.88914
 20
-4.8214800000000002
 30
0.0
 10
0.8586600000000001
 20
-4.9586400000000008
 30
0.0
 10
0.8586600000000001
 20
-4.9586400000000008
 30
0.0
 10
0.8358000000000001
 20
-4.9713400000000005
 30
0.0
 10
0.8027800000000001
 20
-4.9738800000000003
 30
0.0
 10
0.7773800000000001
 20
-4.9738800000000003
 30
0.0
 10
0.7773800000000001
 20
-4.9738800000000003
 30
0.0
 10
0.7291200000000001
 20
-4.8468800000000005
 30
0.0
 10
0.69864
 20
-4.5827200000000001
 30
0.0
 10
0.8485
 20
-4.5090600000000007
 30
0.0
  0
SPLINE
  5
70
100
AcDbEntity
  8
Ebene 1
 62
     7
100
AcDbSpline
210
0.0
220
0.0
230
1.0
 70
     1
 71
     3
 72
    24
 73
    20
 74
     0
 42
0.0000000001
 43
0.0000000001
 40
0.0
 40
0.0
 40
0.0
 40
0.0
 40
0.2
 40
0.2
 40
0.2
 40
0.2
 40
0.4
 40
0.4
 40
0.4
 40
0.4
 40
0.6000000000000001
 40
0.6000000000000001
 40
0.6000000000000001
 40
0.6000000000000001
 40
0.8
 40
0.8
 40
0.8
 40
0.8
 40
1.0
 40
1.0
 40
1.0
 40
1.0
 10
-0.74153
 20
-4.6436800000000007
 30
0.0
 10
-0.6831100000000001
 20
-4.6538400000000006
 30
0.0
 10
-0.61453
 20
-4.6386000000000003
 30
0.0
 10
-0.5662700000000001
 20
-4.6716200000000008
 30
0.0
 10
-0.5662700000000001
 20
-4.6716200000000008
 30
0.0
 10
-0.55357
 20
-4.7656000000000001
 30
0.0
 10
-0.55103
 20
-4.8697400000000002
 30
0.0
 10
-0.54849
 20
-4.9611800000000006
 30
0.0
 10
-0.54849
 20
-4.9611800000000006
 30
0.0
 10
-0.54849
 20
-4.9611800000000006
 30
0.0
 10
-0.59421
 20
-4.9967400000000008
 30
0.0
 10
-0.59421
 20
-4.9967400000000008
 30
0.0
 10
-0.59421
 20
-4.9967400000000008
 30
0.0
 10
-0.6500900000000001
 20
-5.0094400000000006
 30
0.0
 10
-0.7542300000000001
 20
-5.03484
 30
0.0
 10
-0.8151900000000001
 20
-4.9916600000000004
 30
0.0
 10
-0.8151900000000001
 20
-4.9916600000000004
 30
0.0
 10
-0.8532900000000001
 20
-4.8545000000000007
 30
0.0
 10
-0.7745500000000001
 20
-4.7605200000000005
 30
0.0
 10
-0.74153
 20
-4.6436800000000007
 30
0.0
  0
SPLINE
  5
71
100
AcDbEntity
  8
Ebene 1
 62
     7
100
AcDbSpline
210
0.0
220
0.0
230
1.0
 70
     1
 71
     3
 72
    20
 73
    16
 74
     0
 42
0.0000000001
 43
0.0000000001
 40
0.0
 40
0.0
 40
0.0
 40
0.0
 40
0.25
 40
0.25
 40
0.25
 40
0.25
 40
0.5
 40
0.5
 40
0.5
 40
0.5
 40
0.75
 40
0.75
 40
0.75
 40
0.75
 40
1.0
 40
1.0
 40
1.0
 40
1.0
 10
0.23636
 20
-4.6182800000000004
 30
0.0
 10
0.29478
 20
-4.6055800000000007
 30
0.0
 10
0.30748
 20
-4.6386000000000003
 30
0.0
 10
0.3532
 20
-4.6487600000000002
 30
0.0
 10
0.3532
 20
-4.6487600000000002
 30
0.0
 10
0.35828
 20
-4.77576
 30
0.0
 10
0.4548
 20
-4.9942000000000002
 30
0.0
 10
0.30494
 20
-5.0551600000000008
 30
0.0
 10
0.30494
 20
-5.0551600000000008
 30
0.0
 10
0.23636
 20
-5.0577000000000005
 30
0.0
 10
0.16778
 20
-5.0475400000000006
 30
0.0
 10
0.10936
 20
-5.0373800000000006
 30
0.0
 10
0.10936
 20
-5.0373800000000006
 30
0.0
 10
0.08142
 20
-4.8875200000000003
 30
0.0
 10
0.08904
 20
-4.6792400000000001
 30
0.0
 10
0.23636
 20
-4.6182800000000004
 30
0.0
  0
SPLINE
  5
72
100
AcDbEntity
  8
Ebene 1
 62
     7
100
AcDbSpline
210
0.0
220
0.0
230
1.0
 70
     1
 71
     3
 72
    32
 73
    28
 74
     0
 42
0.0000000001
 43
0.0000000001
 40
0.0
 40
0.0
 40
0.0
 40
0.0
 40
0.1428571428571429
 40
0.1428571428571429
 40
0.1428571428571429
 40
0.1428571428571429
 40
0.2857142857142857
 40
0.2857142857142857
 40
0.2857142857142857
 40
0.2857142857142857
 40
0.4285714285714286
 40
0.4285714285714286
 40
0.4285714285714286
 40
0.4285714285714286
 40
0.5714285714285714
 40
0.5714285714285714
 40
0.5714285714285714
 40
0.5714285714285714
 40
0.7142857142857142
 40
0.7142857142857142
 40
0.7142857142857142
 40
0.7142857142857142
 40
0.857142857142857
 40
0.857142857142857
 40
0.857142857142857
 40
0.857142857142857
 40
1.0
 40
1.0
 40
1.0
 40
1.0
 10
0.5945
 20
-4.6081200000000004
 30
0.0
 10
0.6072000000000001
 20
-4.6081200000000004
 30
0.0
 10
0.6300600000000001
 20
-4.6081200000000004
 30
0.0
 10
0.64276
 20
-4.6182800000000004
 30
0.0
 10
0.64276
 20
-4.6182800000000004
 30
0.0
 10
0.65546
 20
-4.6767000000000003
 30
0.0
 10
0.6453000000000001
 20
-4.7351200000000002
 30
0.0
 10
0.63514
 20
-4.7808400000000004
 30
0.0
 10
0.63514
 20
-4.7808400000000004
 30
0.0
 10
0.7291200000000001
 20
-4.8595800000000002
 30
0.0
 10
0.6529200000000001
 20
-5.0577000000000005
 30
0.0
 10
0.5259200000000001
 20
-5.0272200000000007
 30
0.0
 10
0.5259200000000001
 20
-5.0272200000000007
 30
0.0
 10
0.5259200000000001
 20
-5.0272200000000007
 30
0.0
 10
0.4675
 20
-5.0500800000000003
 30
0.0
 10
0.4675
 20
-5.0500800000000003
 30
0.0
 10
0.4675
 20
-5.0500800000000003
 30
0.0
 10
0.36082
 20
-4.93832
 30
0.0
 10
0.42686
 20
-4.7732200000000002
 30
0.0
 10
0.45734
 20
-4.6462200000000005
 30
0.0
 10
0.45734
 20
-4.6462200000000005
 30
0.0
 10
0.45734
 20
-4.6462200000000005
 30
0.0
 10
0.57418
 20
-4.6309800000000001
 30
0.0
 10
0.57418
 20
-4.6309800000000001
 30
0.0
 10
0.57418
 20
-4.6309800000000001
 30
0.0
 10
0.5843400000000001
 20
-4.6309800000000001
 30
0.0
 10
0.5945
 20
-4.6208200000000001
 30
0.0
 10
0.5945
 20
-4.6081200000000004
 30
0.0
  0
SPLINE
  5
73
100
AcDbEntity
  8
Ebene 1
 62
     7
100
AcDbSpline
210
0.0
220
0.0
230
1.0
 70
     1
 71
     3
 72
    24
 73
    20
 74
     0
 42
0.0000000001
 43
0.0000000001
 40
0.0
 40
0.0
 40
0.0
 40
0.0
 40
0.2
 40
0.2
 40
0.2
 40
0.2
 40
0.4
 40
0.4
 40
0.4
 40
0.4
 40
0.6000000000000001
 40
0.6000000000000001
 40
0.6000000000000001
 40
0.6000000000000001
 40
0.8
 40
0.8
 40
0.8
 40
0.8
 40
1.0
 40
1.0
 40
1.0
 40
1.0
 10
-0.4062500000000001
 20
-4.6792400000000001
 30
0.0
 10
-0.4062500000000001
 20
-4.6792400000000001
 30
0.0
 10
-0.3021100000000001
 20
-4.6767000000000003
 30
0.0
 10
-0.3021100000000001
 20
-4.6767000000000003
 30
0.0
 10
-0.3021100000000001
 20
-4.6767000000000003
 30
0.0
 10
-0.25131
 20
-4.8037000000000001
 30
0.0
 10
-0.30719
 20
-4.9434000000000005
 30
0.0
 10
-0.25639
 20
-5.0678600000000005
 30
0.0
 10
-0.25639
 20
-5.0678600000000005
 30
0.0
 10
-0.25639
 20
-5.0678600000000005
 30
0.0
 10
-0.29195
 20
-5.1059600000000005
 30
0.0
 10
-0.29195
 20
-5.1059600000000005
 30
0.0
 10
-0.29195
 20
-5.1059600000000005
 30
0.0
 10
-0.36053
 20
-5.0958000000000006
 30
0.0
 10
-0.44181
 20
-5.07294
 30
0.0
 10
-0.4900700000000001
 20
-5.0297600000000005
 30
0.0
 10
-0.4900700000000001
 20
-5.0297600000000005
 30
0.0
 10
-0.50531
 20
-4.9027600000000007
 30
0.0
 10
-0.4367300000000001
 20
-4.7960800000000008
 30
0.0
 10
-0.4062500000000001
 20
-4.6792400000000001
 30
0.0
  0
SPLINE
  5
74
100
AcDbEntity
  8
Ebene 1
 62
     7
100
AcDbSpline
210
0.0
220
0.0
230
1.0
 70
     1
 71
     3
 72
    24
 73
    20
 74
     0
 42
0.0000000001
 43
0.0000000001
 40
0.0
 40
0.0
 40
0.0
 40
0.0
 40
0.2
 40
0.2
 40
0.2
 40
0.2
 40
0.4
 40
0.4
 40
0.4
 40
0.4
 40
0.6000000000000001
 40
0.6000000000000001
 40
0.6000000000000001
 40
0.6000000000000001
 40
0.8
 40
0.8
 40
0.8
 40
0.8
 40
1.0
 40
1.0
 40
1.0
 40
1.0
 10
-0.10653
 20
-4.6716200000000008
 30
0.0
 10
0.0992
 20
-4.6436800000000007
 30
0.0
 10
0.03824
 20
-4.9230800000000006
 30
0.0
 10
0.07634
 20
-5.0602400000000003
 30
0.0
 10
0.07634
 20
-5.0602400000000003
 30
0.0
 10
0.07634
 20
-5.0602400000000003
 30
0.0
 10
-0.05827
 20
-5.1212000000000009
 30
0.0
 10
-0.05827
 20
-5.1212000000000009
 30
0.0
 10
-0.05827
 20
-5.1212000000000009
 30
0.0
 10
-0.05827
 20
-5.1212000000000009
 30
0.0
 10
-0.09383
 20
-5.1008800000000001
 30
0.0
 10
-0.09383
 20
-5.1008800000000001
 30
0.0
 10
-0.09383
 20
-5.1008800000000001
 30
0.0
 10
-0.33767
 20
-5.0932600000000008
 30
0.0
 10
-0.19289
 20
-4.8367200000000006
 30
0.0
 10
-0.19797
 20
-4.6970200000000002
 30
0.0
 10
-0.19797
 20
-4.6970200000000002
 30
0.0
 10
-0.19797
 20
-4.6970200000000002
 30
0.0
 10
-0.10653
 20
-4.6716200000000008
 30
0.0
 10
-0.10653
 20
-4.6716200000000008
 30
0.0
  0
SPLINE
  5
75
100
AcDbEntity
  8
Ebene 1
 62
     7
100
AcDbSpline
210
0.0
220
0.0
230
1.0
 70
     1
 71
     3
 72
    20
 73
    16
 74
     0
 42
0.0000000001
 43
0.0000000001
 40
0.0
 40
0.0
 40
0.0
 40
0.0
 40
0.25
 40
0.25
 40
0.25
 40
0.25
 40
0.5
 40
0.5
 40
0.5
 40
0.5
 40
0.75
 40
0.75
 40
0.75
 40
0.75
 40
1.0
 40
1.0
 40
1.0
 40
1.0
 10
1.1736200000000001
 20
-4.6386000000000003
 30
0.0
 10
1.1736200000000001
 20
-4.6386000000000003
 30
0.0
 10
1.1990200000000002
 20
-4.6386000000000003
 30
0.0
 10
1.1990200000000002
 20
-4.6386000000000003
 30
0.0
 10
1.1990200000000002
 20
-4.6386000000000003
 30
0.0
 10
1.2218800000000001
 20
-4.7300400000000007
 30
0.0
 10
1.1914
 20
-4.8011600000000003
 30
0.0
 10
1.1329800000000001
 20
-4.8494200000000003
 30
0.0
 10
1.1329800000000001
 20
-4.8494200000000003
 30
0.0
 10
1.1228200000000002
 20
-4.8494200000000003
 30
0.0
 10
1.0974200000000001
 20
-4.8265600000000006
 30
0.0
 10
1.0974200000000001
 20
-4.8164000000000007
 30
0.0
 10
1.0974200000000001
 20
-4.8164000000000007
 30
0.0
 10
1.14314
 20
-4.7681400000000007
 30
0.0
 10
1.1533
 20
-4.69956
 30
0.0
 10
1.1736200000000001
 20
-4.6386000000000003
 30
0.0
  0
SPLINE
  5
76
100
AcDbEntity
  8
Ebene 1
 62
     7
100
AcDbSpline
210
0.0
220
0.0
230
1.0
 70
     1
 71
     3
 72
    16
 73
    12
 74
     0
 42
0.0000000001
 43
0.0000000001
 40
0.0
 40
0.0
 40
0.0
 40
0.0
 40
0.3333333333333333
 40
0.3333333333333333
 40
0.3333333333333333
 40
0.3333333333333333
 40
0.6666666666666666
 40
0.6666666666666666
 40
0.6666666666666666
 40
0.6666666666666666
 40
1.0
 40
1.0
 40
1.0
 40
1.0
 10
-1.4070100000000001
 20
-4.8214800000000002
 30
0.0
 10
-1.4070100000000001
 20
-4.8214800000000002
 30
0.0
 10
-1.29017
 20
-4.8519600000000001
 30
0.0
 10
-1.29017
 20
-4.8519600000000001
 30
0.0
 10
-1.29017
 20
-4.8519600000000001
 30
0.0
 10
-1.3587500000000001
 20
-4.9357800000000003
 30
0.0
 10
-1.3206500000000001
 20
-5.07294
 30
0.0
 10
-1.3638300000000001
 20
-5.1669200000000002
 30
0.0
 10
-1.3638300000000001
 20
-5.1669200000000002
 30
0.0
 10
-1.3638300000000001
 20
-5.1669200000000002
 30
0.0
 10
-1.4070100000000001
 20
-4.8214800000000002
 30
0.0
 10
-1.4070100000000001
 20
-4.8214800000000002
 30
0.0
  0
SPLINE
  5
77
100
AcDbEntity
  8
Ebene 1
 62
     7
100
AcDbSpline
210
0.0
220
0.0
230
1.0
 70
     1
 71
     3
 72
    20
 73
    16
 74
     0
 42
0.0000000001
 43
0.0000000001
 40
0.0
 40
0.0
 40
0.0
 40
0.0
 40
0.25
 40
0.25
 40
0.25
 40
0.25
 40
0.5
 40
0.5
 40
0.5
 40
0.5
 40
0.75
 40
0.75
 40
0.75
 40
0.75
 40
1.0
 40
1.0
 40
1.0
 40
1.0
 10
1.3285600000000002
 20
-4.7630600000000003
 30
0.0
 10
1.3387200000000001
 20
-4.7630600000000003
 30
0.0
 10
1.36158
 20
-4.7630600000000003
 30
0.0
 10
1.3742800000000002
 20
-4.7732200000000002
 30
0.0
 10
1.3742800000000002
 20
-4.7732200000000002
 30
0.0
 10
1.3895200000000001
 20
-4.9230800000000006
 30
0.0
 10
1.31332
 20
-5.0526200000000001
 30
0.0
 10
1.23458
 20
-5.1593
 30
0.0
 10
1.23458
 20
-5.1593
 30
0.0
 10
1.2422000000000002
 20
-5.0424600000000002
 30
0.0
 10
1.1685400000000001
 20
-4.8367200000000006
 30
0.0
 10
1.3285600000000002
 20
-4.78592
 30
0.0
 10
1.3285600000000002
 20
-4.78592
 30
0.0
 10
1.3285600000000002
 20
-4.78592
 30
0.0
 10
1.3285600000000002
 20
-4.7630600000000003
 30
0.0
 10
1.3285600000000002
 20
-4.7630600000000003
 30
0.0
  0
SPLINE
  5
78
100
AcDbEntity
  8
Ebene 1
 62
     7
100
AcDbSpline
210
0.0
220
0.0
230
1.0
 70
     1
 71
     3
 72
    68
 73
    64
 74
     0
 42
0.0000000001
 43
0.0000000001
 40
0.0
 40
0.0
 40
0.0
 40
0.0
 40
0.0625
 40
0.0625
 40
0.0625
 40
0.0625
 40
0.125
 40
0.125
 40
0.125
 40
0.125
 40
0.1875
 40
0.1875
 40
0.1875
 40
0.1875
 40
0.25
 40
0.25
 40
0.25
 40
0.25
 40
0.3125
 40
0.3125
 40
0.3125
 40
0.3125
 40
0.375
 40
0.375
 40
0.375
 40
0.375
 40
0.4375
 40
0.4375
 40
0.4375
 40
0.4375
 40
0.5
 40
0.5
 40
0.5
 40
0.5
 40
0.5625
 40
0.5625
 40
0.5625
 40
0.5625
 40
0.625
 40
0.625
 40
0.625
 40
0.625
 40
0.6875
 40
0.6875
 40
0.6875
 40
0.6875
 40
0.75
 40
0.75
 40
0.75
 40
0.75
 40
0.8125
 40
0.8125
 40
0.8125
 40
0.8125
 40
0.875
 40
0.875
 40
0.875
 40
0.875
 40
0.9375
 40
0.9375
 40
0.9375
 40
0.9375
 40
1.0
 40
1.0
 40
1.0
 40
1.0
 10
-1.21143
 20
-4.86212
 30
0.0
 10
-1.1758700000000002
 20
-4.86212
 30
0.0
 10
-1.1733300000000002
 20
-4.9078400000000002
 30
0.0
 10
-1.1504700000000001
 20
-4.9307000000000007
 30
0.0
 10
-1.1504700000000001
 20
-4.9307000000000007
 30
0.0
 10
-1.24953
 20
-5.1516800000000007
 30
0.0
 10
-1.1352300000000002
 20
-5.5885600000000002
 30
0.0
 10
-0.8609100000000001
 20
-5.4310800000000006
 30
0.0
 10
-0.8609100000000001
 20
-5.4310800000000006
 30
0.0
 10
-1.03363
 20
-5.4488600000000007
 30
0.0
 10
-1.16571
 20
-5.2786800000000005
 30
0.0
 10
-1.0310900000000001
 20
-5.1364400000000003
 30
0.0
 10
-1.0310900000000001
 20
-5.1364400000000003
 30
0.0
 10
-1.0310900000000001
 20
-5.1237400000000006
 30
0.0
 10
-1.0209300000000001
 20
-5.0881800000000004
 30
0.0
 10
-0.99553
 20
-5.0983400000000003
 30
0.0
 10
-0.99553
 20
-5.0983400000000003
 30
0.0
 10
-0.9218700000000001
 20
-5.3294800000000002
 30
0.0
 10
-0.8355100000000001
 20
-5.5453800000000006
 30
0.0
 10
-0.5586500000000001
 20
-5.5174400000000006
 30
0.0
 10
-0.5586500000000001
 20
-5.5174400000000006
 30
0.0
 10
-0.5586500000000001
 20
-5.5174400000000006
 30
0.0
 10
-0.5230900000000001
 20
-5.5504600000000002
 30
0.0
 10
-0.5230900000000001
 20
-5.5504600000000002
 30
0.0
 10
-0.5230900000000001
 20
-5.5504600000000002
 30
0.0
 10
-0.65517
 20
-5.7511200000000002
 30
0.0
 10
-0.39355
 20
-5.6520600000000005
 30
0.0
 10
-0.28941
 20
-5.6241200000000005
 30
0.0
 10
-0.28941
 20
-5.6241200000000005
 30
0.0
 10
-0.22591
 20
-5.8070000000000004
 30
0.0
 10
0.0103
 20
-5.6876200000000008
 30
0.0
 10
0.07888
 20
-5.5911000000000008
 30
0.0
 10
0.07888
 20
-5.5911000000000008
 30
0.0
 10
0.40654
 20
-5.7689000000000004
 30
0.0
 10
0.9653400000000001
 20
-5.5250600000000007
 30
0.0
 10
1.0390000000000001
 20
-5.2786800000000005
 30
0.0
 10
1.0390000000000001
 20
-5.2786800000000005
 30
0.0
 10
1.0872600000000001
 20
-5.2786800000000005
 30
0.0
 10
1.02884
 20
-5.3269400000000005
 30
0.0
 10
1.0542400000000001
 20
-5.3472600000000003
 30
0.0
 10
1.0542400000000001
 20
-5.3472600000000003
 30
0.0
 10
1.1558400000000002
 20
-5.2405800000000005
 30
0.0
 10
1.3717400000000002
 20
-5.1770800000000001
 30
0.0
 10
1.4606400000000002
 20
-5.0373800000000006
 30
0.0
 10
1.4606400000000002
 20
-5.0373800000000006
 30
0.0
 10
1.3336400000000002
 20
-5.4234600000000004
 30
0.0
 10
0.8840600000000001
 20
-5.5250600000000007
 30
0.0
 10
0.61482
 20
-5.7739800000000008
 30
0.0
 10
0.61482
 20
-5.7739800000000008
 30
0.0
 10
0.19572
 20
-5.7282600000000006
 30
0.0
 10
-0.3325900000000001
 20
-5.7409600000000003
 30
0.0
 10
-0.7567700000000001
 20
-5.8578000000000001
 30
0.0
 10
-0.7567700000000001
 20
-5.8578000000000001
 30
0.0
 10
-1.00315
 20
-5.7587400000000004
 30
0.0
 10
-1.1352300000000002
 20
-5.5530000000000008
 30
0.0
 10
-1.2774700000000001
 20
-5.3853600000000004
 30
0.0
 10
-1.2774700000000001
 20
-5.3853600000000004
 30
0.0
 10
-1.2774700000000001
 20
-5.3853600000000004
 30
0.0
 10
-1.20889
 20
-5.3472600000000003
 30
0.0
 10
-1.20889
 20
-5.3472600000000003
 30
0.0
 10
-1.20889
 20
-5.3472600000000003
 30
0.0
 10
-1.33843
 20
-5.2583600000000006
 30
0.0
 10
-1.2876300000000001
 20
-4.9916600000000004
 30
0.0
 10
-1.21143
 20
-4.86212
 30
0.0
  0
SPLINE
  5
79
100
AcDbEntity
  8
Ebene 1
 62
     7
100
AcDbSpline
210
0.0
220
0.0
230
1.0
 70
     1
 71
     3
 72
    20
 73
    16
 74
     0
 42
0.0000000001
 43
0.0000000001
 40
0.0
 40
0.0
 40
0.0
 40
0.0
 40
0.25
 40
0.25
 40
0.25
 40
0.25
 40
0.5
 40
0.5
 40
0.5
 40
0.5
 40
0.75
 40
0.75
 40
0.75
 40
0.75
 40
1.0
 40
1.0
 40
1.0
 40
1.0
 10
1.06694
 20
-4.9078400000000002
 30
0.0
 10
1.14568
 20
-4.9180000000000001
 30
0.0
 10
1.1253600000000001
 20
-5.03484
 30
0.0
 10
1.06948
 20
-5.0577000000000005
 30
0.0
 10
1.06948
 20
-5.0577000000000005
 30
0.0
 10
1.1609200000000002
 20
-5.0678600000000005
 30
0.0
 10
1.0847200000000001
 20
-5.1974
 30
0.0
 10
1.06186
 20
-5.2558200000000008
 30
0.0
 10
1.06186
 20
-5.2558200000000008
 30
0.0
 10
1.0390000000000001
 20
-5.1974
 30
0.0
 10
1.0466200000000001
 20
-5.1059600000000005
 30
0.0
 10
1.0466200000000001
 20
-5.0475400000000006
 30
0.0
 10
1.0466200000000001
 20
-5.0475400000000006
 30
0.0
 10
0.9755
 20
-5.0043600000000001
 30
0.0
 10
0.9856600000000001
 20
-4.9332400000000005
 30
0.0
 10
1.06694
 20
-4.9078400000000002
 30
0.0
  0
SPLINE
  5
7A
100
AcDbEntity
  8
Ebene 1
 62
     7
100
AcDbSpline
210
0.0
220
0.0
230
1.0
 70
     1
 71
     3
 72
    24
 73
    20
 74
     0
 42
0.0000000001
 43
0.0000000001
 40
0.0
 40
0.0
 40
0.0
 40
0.0
 40
0.2
 40
0.2
 40
0.2
 40
0.2
 40
0.4
 40
0.4
 40
0.4
 40
0.4
 40
0.6000000000000001
 40
0.6000000000000001
 40
0.6000000000000001
 40
0.6000000000000001
 40
0.8
 40
0.8
 40
0.8
 40
0.8
 40
1.0
 40
1.0
 40
1.0
 40
1.0
 10
-0.86853
 20
-5.0627800000000001
 30
0.0
 10
-0.84821
 20
-5.0627800000000001
 30
0.0
 10
-0.82281
 20
-5.07294
 30
0.0
 10
-0.7999500000000001
 20
-5.0831000000000008
 30
0.0
 10
-0.7999500000000001
 20
-5.0831000000000008
 30
0.0
 10
-0.7999500000000001
 20
-5.0831000000000008
 30
0.0
 10
-0.71867
 20
-5.0805600000000002
 30
0.0
 10
-0.71867
 20
-5.0805600000000002
 30
0.0
 10
-0.71867
 20
-5.0805600000000002
 30
0.0
 10
-0.6704100000000001
 20
-5.1948600000000003
 30
0.0
 10
-0.65517
 20
-5.32186
 30
0.0
 10
-0.6881900000000001
 20
-5.4387000000000008
 30
0.0
 10
-0.6881900000000001
 20
-5.4387000000000008
 30
0.0
 10
-0.7567700000000001
 20
-5.4412400000000005
 30
0.0
 10
-0.78217
 20
-5.3726600000000007
 30
0.0
 10
-0.7466100000000001
 20
-5.3371000000000004
 30
0.0
 10
-0.7466100000000001
 20
-5.3371000000000004
 30
0.0
 10
-0.9193300000000001
 20
-5.3752000000000004
 30
0.0
 10
-0.9015500000000001
 20
-5.1669200000000002
 30
0.0
 10
-0.86853
 20
-5.0627800000000001
 30
0.0
  0
SPLINE
  5
7B
100
AcDbEntity
  8
Ebene 1
 62
     7
100
AcDbSpline
210
0.0
220
0.0
230
1.0
 70
     1
 71
     3
 72
    24
 73
    20
 74
     0
 42
0.0000000001
 43
0.0000000001
 40
0.0
 40
0.0
 40
0.0
 40
0.0
 40
0.2
 40
0.2
 40
0.2
 40
0.2
 40
0.4
 40
0.4
 40
0.4
 40
0.4
 40
0.6000000000000001
 40
0.6000000000000001
 40
0.6000000000000001
 40
0.6000000000000001
 40
0.8
 40
0.8
 40
0.8
 40
0.8
 40
1.0
 40
1.0
 40
1.0
 40
1.0
 10
0.8612000000000001
 20
-5.0297600000000005
 30
0.0
 10
0.9678800000000001
 20
-5.1186600000000002
 30
0.0
 10
0.91454
 20
-5.2685200000000005
 30
0.0
 10
0.8815200000000001
 20
-5.3955200000000003
 30
0.0
 10
0.8815200000000001
 20
-5.3955200000000003
 30
0.0
 10
0.8129400000000001
 20
-5.4437800000000003
 30
0.0
 10
0.7570600000000001
 20
-5.5174400000000006
 30
0.0
 10
0.6656200000000001
 20
-5.5199800000000003
 30
0.0
 10
0.6656200000000001
 20
-5.5199800000000003
 30
0.0
 10
0.6529200000000001
 20
-5.4742600000000001
 30
0.0
 10
0.6732400000000001
 20
-5.3929800000000006
 30
0.0
 10
0.7088000000000001
 20
-5.3675800000000002
 30
0.0
 10
0.7088000000000001
 20
-5.3675800000000002
 30
0.0
 10
0.7088000000000001
 20
-5.3675800000000002
 30
0.0
 10
0.7062600000000001
 20
-5.3117000000000001
 30
0.0
 10
0.7062600000000001
 20
-5.3117000000000001
 30
0.0
 10
0.7062600000000001
 20
-5.3117000000000001
 30
0.0
 10
0.6224400000000001
 20
-5.2101000000000006
 30
0.0
 10
0.7342000000000001
 20
-5.0221400000000003
 30
0.0
 10
0.8612000000000001
 20
-5.0297600000000005
 30
0.0
  0
SPLINE
  5
7C
100
AcDbEntity
  8
Ebene 1
 62
     7
100
AcDbSpline
210
0.0
220
0.0
230
1.0
 70
     1
 71
     3
 72
    24
 73
    20
 74
     0
 42
0.0000000001
 43
0.0000000001
 40
0.0
 40
0.0
 40
0.0
 40
0.0
 40
0.2
 40
0.2
 40
0.2
 40
0.2
 40
0.4
 40
0.4
 40
0.4
 40
0.4
 40
0.6000000000000001
 40
0.6000000000000001
 40
0.6000000000000001
 40
0.6000000000000001
 40
0.8
 40
0.8
 40
0.8
 40
0.8
 40
1.0
 40
1.0
 40
1.0
 40
1.0
 10
-2.1639300000000001
 20
-5.1415200000000008
 30
0.0
 10
-1.9962900000000001
 20
-5.2761400000000007
 30
0.0
 10
-2.06995
 20
-5.5885600000000002
 30
0.0
 10
-1.8921500000000002
 20
-5.7231800000000002
 30
0.0
 10
-1.8921500000000002
 20
-5.7231800000000002
 30
0.0
 10
-1.8921500000000002
 20
-5.7231800000000002
 30
0.0
 10
-1.8235700000000001
 20
-5.7003200000000005
 30
0.0
 10
-1.8235700000000001
 20
-5.7003200000000005
 30
0.0
 10
-1.8235700000000001
 20
-5.7003200000000005
 30
0.0
 10
-1.7905500000000001
 20
-5.7104800000000004
 30
0.0
 10
-1.7676900000000002
 20
-5.7308000000000003
 30
0.0
 10
-1.7194300000000002
 20
-5.7308000000000003
 30
0.0
 10
-1.7194300000000002
 20
-5.7308000000000003
 30
0.0
 10
-1.7194300000000002
 20
-5.7308000000000003
 30
0.0
 10
-1.67117
 20
-5.8222400000000007
 30
0.0
 10
-1.67117
 20
-5.8222400000000007
 30
0.0
 10
-1.67117
 20
-5.8222400000000007
 30
0.0
 10
-2.0064500000000001
 20
-5.8527200000000006
 30
0.0
 10
-2.1563100000000004
 20
-5.4285400000000008
 30
0.0
 10
-2.1639300000000001
 20
-5.1415200000000008
 30
0.0
  0
SPLINE
  5
7D
100
AcDbEntity
  8
Ebene 1
 62
     7
100
AcDbSpline
210
0.0
220
0.0
230
1.0
 70
     1
 71
     3
 72
    24
 73
    20
 74
     0
 42
0.0000000001
 43
0.0000000001
 40
0.0
 40
0.0
 40
0.0
 40
0.0
 40
0.2
 40
0.2
 40
0.2
 40
0.2
 40
0.4
 40
0.4
 40
0.4
 40
0.4
 40
0.6000000000000001
 40
0.6000000000000001
 40
0.6000000000000001
 40
0.6000000000000001
 40
0.8
 40
0.8
 40
0.8
 40
0.8
 40
1.0
 40
1.0
 40
1.0
 40
1.0
 10
0.5487800000000001
 20
-5.07294
 30
0.0
 10
0.57418
 20
-5.0704000000000002
 30
0.0
 10
0.59704
 20
-5.0704000000000002
 30
0.0
 10
0.6072000000000001
 20
-5.0831000000000008
 30
0.0
 10
0.6072000000000001
 20
-5.0831000000000008
 30
0.0
 10
0.6072000000000001
 20
-5.0831000000000008
 30
0.0
 10
0.59704
 20
-5.5225200000000001
 30
0.0
 10
0.59704
 20
-5.5225200000000001
 30
0.0
 10
0.59704
 20
-5.5225200000000001
 30
0.0
 10
0.51576
 20
-5.5250600000000007
 30
0.0
 10
0.4827400000000001
 20
-5.6520600000000005
 30
0.0
 10
0.3913
 20
-5.6088800000000001
 30
0.0
 10
0.3913
 20
-5.6088800000000001
 30
0.0
 10
0.3913
 20
-5.6088800000000001
 30
0.0
 10
0.44718
 20
-5.1339000000000006
 30
0.0
 10
0.44718
 20
-5.1339000000000006
 30
0.0
 10
0.44718
 20
-5.1339000000000006
 30
0.0
 10
0.44718
 20
-5.1339000000000006
 30
0.0
 10
0.5487800000000001
 20
-5.07294
 30
0.0
 10
0.5487800000000001
 20
-5.07294
 30
0.0
  0
SPLINE
  5
7E
100
AcDbEntity
  8
Ebene 1
 62
     7
100
AcDbSpline
210
0.0
220
0.0
230
1.0
 70
     1
 71
     3
 72
    28
 73
    24
 74
     0
 42
0.0000000001
 43
0.0000000001
 40
0.0
 40
0.0
 40
0.0
 40
0.0
 40
0.1666666666666667
 40
0.1666666666666667
 40
0.1666666666666667
 40
0.1666666666666667
 40
0.3333333333333333
 40
0.3333333333333333
 40
0.3333333333333333
 40
0.3333333333333333
 40
0.5
 40
0.5
 40
0.5
 40
0.5
 40
0.6666666666666666
 40
0.6666666666666666
 40
0.6666666666666666
 40
0.6666666666666666
 40
0.8333333333333333
 40
0.8333333333333333
 40
0.8333333333333333
 40
0.8333333333333333
 40
1.0
 40
1.0
 40
1.0
 40
1.0
 10
-0.53325
 20
-5.11104
 30
0.0
 10
-0.47483
 20
-5.0983400000000003
 30
0.0
 10
-0.4494300000000001
 20
-5.1770800000000001
 30
0.0
 10
-0.39355
 20
-5.1669200000000002
 30
0.0
 10
-0.39355
 20
-5.1669200000000002
 30
0.0
 10
-0.39355
 20
-5.1669200000000002
 30
0.0
 10
-0.37323
 20
-5.5225200000000001
 30
0.0
 10
-0.37323
 20
-5.5225200000000001
 30
0.0
 10
-0.37323
 20
-5.5225200000000001
 30
0.0
 10
-0.40879
 20
-5.5250600000000007
 30
0.0
 10
-0.47483
 20
-5.5479200000000004
 30
0.0
 10
-0.46467
 20
-5.4895000000000005
 30
0.0
 10
-0.46467
 20
-5.4895000000000005
 30
0.0
 10
-0.51293
 20
-5.4920400000000003
 30
0.0
 10
-0.56881
 20
-5.4920400000000003
 30
0.0
 10
-0.5611900000000001
 20
-5.4234600000000004
 30
0.0
 10
-0.5611900000000001
 20
-5.4234600000000004
 30
0.0
 10
-0.5611900000000001
 20
-5.4234600000000004
 30
0.0
 10
-0.59421
 20
-5.4260000000000002
 30
0.0
 10
-0.59421
 20
-5.4260000000000002
 30
0.0
 10
-0.59421
 20
-5.4260000000000002
 30
0.0
 10
-0.6094500000000001
 20
-5.3091600000000003
 30
0.0
 10
-0.61199
 20
-5.1821600000000005
 30
0.0
 10
-0.53325
 20
-5.11104
 30
0.0
  0
SPLINE
  5
7F
100
AcDbEntity
  8
Ebene 1
 62
     7
100
AcDbSpline
210
0.0
220
0.0
230
1.0
 70
     1
 71
     3
 72
    24
 73
    20
 74
     0
 42
0.0000000001
 43
0.0000000001
 40
0.0
 40
0.0
 40
0.0
 40
0.0
 40
0.2
 40
0.2
 40
0.2
 40
0.2
 40
0.4
 40
0.4
 40
0.4
 40
0.4
 40
0.6000000000000001
 40
0.6000000000000001
 40
0.6000000000000001
 40
0.6000000000000001
 40
0.8
 40
0.8
 40
0.8
 40
0.8
 40
1.0
 40
1.0
 40
1.0
 40
1.0
 10
-0.25639
 20
-5.1389800000000001
 30
0.0
 10
-0.17511
 20
-5.1491400000000001
 30
0.0
 10
-0.02271
 20
-5.1440600000000005
 30
0.0
 10
-0.04303
 20
-5.2710600000000003
 30
0.0
 10
-0.04303
 20
-5.2710600000000003
 30
0.0
 10
-0.03287
 20
-5.2609000000000004
 30
0.0
 10
-0.02017
 20
-5.2482000000000006
 30
0.0
 10
0.00268
 20
-5.2609000000000004
 30
0.0
 10
0.00268
 20
-5.2609000000000004
 30
0.0
 10
0.0357
 20
-5.3625000000000007
 30
0.0
 10
0.00522
 20
-5.4895000000000005
 30
0.0
 10
-0.05827
 20
-5.5733200000000007
 30
0.0
 10
-0.05827
 20
-5.5733200000000007
 30
0.0
 10
-0.12939
 20
-5.5631600000000008
 30
0.0
 10
-0.18781
 20
-5.5758600000000005
 30
0.0
 10
-0.25639
 20
-5.5555400000000006
 30
0.0
 10
-0.25639
 20
-5.5555400000000006
 30
0.0
 10
-0.31735
 20
-5.4285400000000008
 30
0.0
 10
-0.37831
 20
-5.2583600000000006
 30
0.0
 10
-0.25639
 20
-5.1389800000000001
 30
0.0
  0
SPLINE
  5
80
100
AcDbEntity
  8
Ebene 1
 62
     7
100
AcDbSpline
210
0.0
220
0.0
230
1.0
 70
     1
 71
     3
 72
    28
 73
    24
 74
     0
 42
0.0000000001
 43
0.0000000001
 40
0.0
 40
0.0
 40
0.0
 40
0.0
 40
0.1666666666666667
 40
0.1666666666666667
 40
0.1666666666666667
 40
0.1666666666666667
 40
0.3333333333333333
 40
0.3333333333333333
 40
0.3333333333333333
 40
0.3333333333333333
 40
0.5
 40
0.5
 40
0.5
 40
0.5
 40
0.6666666666666666
 40
0.6666666666666666
 40
0.6666666666666666
 40
0.6666666666666666
 40
0.8333333333333333
 40
0.8333333333333333
 40
0.8333333333333333
 40
0.8333333333333333
 40
1.0
 40
1.0
 40
1.0
 40
1.0
 10
0.2389
 20
-5.1262800000000004
 30
0.0
 10
0.29478
 20
-5.1135800000000007
 30
0.0
 10
0.3557400000000001
 20
-5.1237400000000006
 30
0.0
 10
0.3913
 20
-5.1694600000000008
 30
0.0
 10
0.3913
 20
-5.1694600000000008
 30
0.0
 10
0.39384
 20
-5.3193200000000003
 30
0.0
 10
0.43448
 20
-5.5250600000000007
 30
0.0
 10
0.27446
 20
-5.5885600000000002
 30
0.0
 10
0.27446
 20
-5.5885600000000002
 30
0.0
 10
0.2516000000000001
 20
-5.5885600000000002
 30
0.0
 10
0.21604
 20
-5.5885600000000002
 30
0.0
 10
0.21604
 20
-5.5555400000000006
 30
0.0
 10
0.21604
 20
-5.5555400000000006
 30
0.0
 10
0.21604
 20
-5.5555400000000006
 30
0.0
 10
0.13476
 20
-5.5682400000000003
 30
0.0
 10
0.13476
 20
-5.5682400000000003
 30
0.0
 10
0.13476
 20
-5.5682400000000003
 30
0.0
 10
0.09666
 20
-5.4412400000000005
 30
0.0
 10
0.03316
 20
-5.1999400000000007
 30
0.0
 10
0.21604
 20
-5.1618400000000007
 30
0.0
 10
0.21604
 20
-5.1618400000000007
 30
0.0
 10
0.21604
 20
-5.1618400000000007
 30
0.0
 10
0.2389
 20
-5.1262800000000004
 30
0.0
 10
0.2389
 20
-5.1262800000000004
 30
0.0
  0
SPLINE
  5
81
100
AcDbEntity
  8
Ebene 1
 62
     7
100
AcDbSpline
210
0.0
220
0.0
230
1.0
 70
     1
 71
     3
 72
    96
 73
    92
 74
     0
 42
0.0000000001
 43
0.0000000001
 40
0.0
 40
0.0
 40
0.0
 40
0.0
 40
0.0434782608695652
 40
0.0434782608695652
 40
0.0434782608695652
 40
0.0434782608695652
 40
0.0869565217391304
 40
0.0869565217391304
 40
0.0869565217391304
 40
0.0869565217391304
 40
0.1304347826086957
 40
0.1304347826086957
 40
0.1304347826086957
 40
0.1304347826086957
 40
0.1739130434782609
 40
0.1739130434782609
 40
0.1739130434782609
 40
0.1739130434782609
 40
0.2173913043478261
 40
0.2173913043478261
 40
0.2173913043478261
 40
0.2173913043478261
 40
0.2608695652173913
 40
0.2608695652173913
 40
0.2608695652173913
 40
0.2608695652173913
 40
0.3043478260869565
 40
0.3043478260869565
 40
0.3043478260869565
 40
0.3043478260869565
 40
0.3478260869565217
 40
0.3478260869565217
 40
0.3478260869565217
 40
0.3478260869565217
 40
0.3913043478260869
 40
0.3913043478260869
 40
0.3913043478260869
 40
0.3913043478260869
 40
0.4347826086956521
 40
0.4347826086956521
 40
0.4347826086956521
 40
0.4347826086956521
 40
0.4782608695652173
 40
0.4782608695652173
 40
0.4782608695652173
 40
0.4782608695652173
 40
0.5217391304347825
 40
0.5217391304347825
 40
0.5217391304347825
 40
0.5217391304347825
 40
0.5652173913043477
 40
0.5652173913043477
 40
0.5652173913043477
 40
0.5652173913043477
 40
0.6086956521739129
 40
0.6086956521739129
 40
0.6086956521739129
 40
0.6086956521739129
 40
0.6521739130434781
 40
0.6521739130434781
 40
0.6521739130434781
 40
0.6521739130434781
 40
0.6956521739130432
 40
0.6956521739130432
 40
0.6956521739130432
 40
0.6956521739130432
 40
0.7391304347826084
 40
0.7391304347826084
 40
0.7391304347826084
 40
0.7391304347826084
 40
0.7826086956521736
 40
0.7826086956521736
 40
0.7826086956521736
 40
0.7826086956521736
 40
0.8260869565217388
 40
0.8260869565217388
 40
0.8260869565217388
 40
0.8260869565217388
 40
0.869565217391304
 40
0.869565217391304
 40
0.869565217391304
 40
0.869565217391304
 40
0.9130434782608692
 40
0.9130434782608692
 40
0.9130434782608692
 40
0.9130434782608692
 40
0.9565217391304344
 40
0.9565217391304344
 40
0.9565217391304344
 40
0.9565217391304344
 40
1.0
 40
1.0
 40
1.0
 40
1.0
 10
1.3920600000000001
 20
-5.4209200000000006
 30
0.0
 10
1.4149200000000002
 20
-5.4996600000000004
 30
0.0
 10
1.2676000000000001
 20
-5.6317400000000006
 30
0.0
 10
1.1787000000000001
 20
-5.7028600000000003
 30
0.0
 10
1.1787000000000001
 20
-5.7028600000000003
 30
0.0
 10
1.1787000000000001
 20
-5.7384200000000005
 30
0.0
 10
1.1812400000000001
 20
-5.7968400000000004
 30
0.0
 10
1.2269600000000001
 20
-5.7587400000000004
 30
0.0
 10
1.2269600000000001
 20
-5.7587400000000004
 30
0.0
 10
1.3742800000000002
 20
-5.6419000000000006
 30
0.0
 10
1.2269600000000001
 20
-5.7816000000000001
 30
0.0
 10
1.2269600000000001
 20
-5.8171600000000003
 30
0.0
 10
1.2269600000000001
 20
-5.8171600000000003
 30
0.0
 10
1.3412600000000001
 20
-5.7460400000000007
 30
0.0
 10
1.2549000000000001
 20
-5.9568600000000007
 30
0.0
 10
1.19648
 20
-5.9797200000000004
 30
0.0
 10
1.19648
 20
-5.9797200000000004
 30
0.0
 10
1.1761600000000001
 20
-6.0279800000000003
 30
0.0
 10
1.15076
 20
-6.0051200000000007
 30
0.0
 10
1.1609200000000002
 20
-5.9594000000000005
 30
0.0
 10
1.1609200000000002
 20
-5.9594000000000005
 30
0.0
 10
1.1609200000000002
 20
-5.9594000000000005
 30
0.0
 10
1.1710800000000001
 20
-5.8755800000000002
 30
0.0
 10
1.1710800000000001
 20
-5.8755800000000002
 30
0.0
 10
1.1710800000000001
 20
-5.8755800000000002
 30
0.0
 10
1.10504
 20
-5.7917600000000009
 30
0.0
 10
1.1025
 20
-5.9848000000000008
 30
0.0
 10
1.0821800000000001
 20
-6.0406800000000009
 30
0.0
 10
1.0821800000000001
 20
-6.0406800000000009
 30
0.0
 10
0.9602600000000001
 20
-6.3835800000000003
 30
0.0
 10
0.6859400000000001
 20
-6.7290200000000002
 30
0.0
 10
0.41162
 20
-6.4978800000000003
 30
0.0
 10
0.41162
 20
-6.4978800000000003
 30
0.0
 10
0.41162
 20
-6.4978800000000003
 30
0.0
 10
0.16778
 20
-6.4445400000000008
 30
0.0
 10
0.16778
 20
-6.4445400000000008
 30
0.0
 10
0.16778
 20
-6.4445400000000008
 30
0.0
 10
0.07634
 20
-6.4826400000000008
 30
0.0
 10
0.01792
 20
-6.4496200000000004
 30
0.0
 10
-0.07097
 20
-6.4394600000000004
 30
0.0
 10
-0.07097
 20
-6.4394600000000004
 30
0.0
 10
-0.07097
 20
-6.4394600000000004
 30
0.0
 10
-0.24369
 20
-6.4674000000000005
 30
0.0
 10
-0.24369
 20
-6.4674000000000005
 30
0.0
 10
-0.24369
 20
-6.4674000000000005
 30
0.0
 10
-0.3224300000000001
 20
-6.5740800000000004
 30
0.0
 10
-0.40371
 20
-6.5766200000000001
 30
0.0
 10
-0.3427500000000001
 20
-6.7010800000000001
 30
0.0
 10
-0.3427500000000001
 20
-6.7010800000000001
 30
0.0
 10
-0.4824500000000001
 20
-6.6706000000000003
 30
0.0
 10
-0.63993
 20
-6.7772800000000002
 30
0.0
 10
-0.6932700000000001
 20
-6.5131200000000007
 30
0.0
 10
-0.6932700000000001
 20
-6.5131200000000007
 30
0.0
 10
-0.7897900000000001
 20
-6.4343800000000009
 30
0.0
 10
-0.7135900000000001
 20
-6.6299600000000005
 30
0.0
 10
-0.7262900000000001
 20
-6.6528200000000002
 30
0.0
 10
-0.7262900000000001
 20
-6.6528200000000002
 30
0.0
 10
-0.9396500000000001
 20
-6.3708800000000005
 30
0.0
 10
-1.04125
 20
-6.0254400000000006
 30
0.0
 10
-1.1885700000000001
 20
-5.7181000000000006
 30
0.0
 10
-1.1885700000000001
 20
-5.7181000000000006
 30
0.0
 10
-1.1047500000000001
 20
-5.8070000000000004
 30
0.0
 10
-1.0209300000000001
 20
-5.9898800000000003
 30
0.0
 10
-0.9472700000000001
 20
-6.1270400000000009
 30
0.0
 10
-0.9472700000000001
 20
-6.1270400000000009
 30
0.0
 10
-0.7745500000000001
 20
-6.1346600000000002
 30
0.0
 10
-1.03363
 20
-5.9441600000000001
 30
0.0
 10
-0.95235
 20
-5.8730400000000005
 30
0.0
 10
-0.95235
 20
-5.8730400000000005
 30
0.0
 10
-0.6932700000000001
 20
-6.0737000000000005
 30
0.0
 10
-0.40371
 20
-6.1829200000000002
 30
0.0
 10
-0.07859
 20
-6.1753000000000009
 30
0.0
 10
-0.07859
 20
-6.1753000000000009
 30
0.0
 10
-0.12177
 20
-6.2794400000000001
 30
0.0
 10
-0.45705
 20
-6.2769000000000004
 30
0.0
 10
-0.37323
 20
-6.4242200000000009
 30
0.0
 10
-0.37323
 20
-6.4242200000000009
 30
0.0
 10
-0.07605
 20
-6.2438800000000008
 30
0.0
 10
0.21096
 20
-6.2946800000000005
 30
0.0
 10
0.4675
 20
-6.4369200000000006
 30
0.0
 10
0.4675
 20
-6.4369200000000006
 30
0.0
 10
0.6046600000000001
 20
-6.3302400000000008
 30
0.0
 10
0.8561200000000001
 20
-6.2667400000000004
 30
0.0
 10
0.9094600000000001
 20
-6.0584600000000002
 30
0.0
 10
0.9094600000000001
 20
-6.0584600000000002
 30
0.0
 10
0.6834
 20
-6.2235600000000009
 30
0.0
 10
0.3557400000000001
 20
-6.1295800000000007
 30
0.0
 10
0.19318
 20
-6.0051200000000007
 30
0.0
 10
0.19318
 20
-6.0051200000000007
 30
0.0
 10
0.68086
 20
-6.1549800000000001
 30
0.0
 10
1.11012
 20
-5.7612800000000002
 30
0.0
 10
1.3920600000000001
 20
-5.4209200000000006
 30
0.0
  0
SPLINE
  5
82
100
AcDbEntity
  8
Ebene 1
 62
     7
100
AcDbSpline
210
0.0
220
0.0
230
1.0
 70
     1
 71
     3
 72
    24
 73
    20
 74
     0
 42
0.0000000001
 43
0.0000000001
 40
0.0
 40
0.0
 40
0.0
 40
0.0
 40
0.2
 40
0.2
 40
0.2
 40
0.2
 40
0.4
 40
0.4
 40
0.4
 40
0.4
 40
0.6000000000000001
 40
0.6000000000000001
 40
0.6000000000000001
 40
0.6000000000000001
 40
0.8
 40
0.8
 40
0.8
 40
0.8
 40
1.0
 40
1.0
 40
1.0
 40
1.0
 10
-1.2165100000000002
 20
-5.9492400000000005
 30
0.0
 10
-1.00315
 20
-6.1524400000000004
 30
0.0
 10
-0.9472700000000001
 20
-6.5207400000000009
 30
0.0
 10
-0.6907300000000001
 20
-6.711240000000001
 30
0.0
 10
-0.6907300000000001
 20
-6.711240000000001
 30
0.0
 10
-0.6907300000000001
 20
-6.711240000000001
 30
0.0
 10
-0.6627900000000001
 20
-6.8382400000000008
 30
0.0
 10
-0.6627900000000001
 20
-6.8382400000000008
 30
0.0
 10
-0.6627900000000001
 20
-6.8382400000000008
 30
0.0
 10
-0.6627900000000001
 20
-6.8382400000000008
 30
0.0
 10
-0.7669300000000001
 20
-6.7925200000000006
 30
0.0
 10
-0.7669300000000001
 20
-6.7925200000000006
 30
0.0
 10
-0.7669300000000001
 20
-6.7925200000000006
 30
0.0
 10
-0.9599700000000001
 20
-6.5563000000000002
 30
0.0
 10
-1.1606300000000001
 20
-6.3175400000000002
 30
0.0
 10
-1.29525
 20
-6.0559200000000004
 30
0.0
 10
-1.29525
 20
-6.0559200000000004
 30
0.0
 10
-1.2266700000000001
 20
-6.0533800000000006
 30
0.0
 10
-1.2393700000000001
 20
-5.9848000000000008
 30
0.0
 10
-1.2165100000000002
 20
-5.9492400000000005
 30
0.0
  0
SPLINE
  5
83
100
AcDbEntity
  8
Ebene 1
 62
     7
100
AcDbSpline
210
0.0
220
0.0
230
1.0
 70
     1
 71
     3
 72
    16
 73
    12
 74
     0
 42
0.0000000001
 43
0.0000000001
 40
0.0
 40
0.0
 40
0.0
 40
0.0
 40
0.3333333333333333
 40
0.3333333333333333
 40
0.3333333333333333
 40
0.3333333333333333
 40
0.6666666666666666
 40
0.6666666666666666
 40
0.6666666666666666
 40
0.6666666666666666
 40
1.0
 40
1.0
 40
1.0
 40
1.0
 10
1.1990200000000002
 20
-6.0381400000000003
 30
0.0
 10
1.2091800000000001
 20
-6.0381400000000003
 30
0.0
 10
1.2218800000000001
 20
-6.0381400000000003
 30
0.0
 10
1.2218800000000001
 20
-6.0483000000000002
 30
0.0
 10
1.2218800000000001
 20
-6.0483000000000002
 30
0.0
 10
1.1660000000000001
 20
-6.1651400000000001
 30
0.0
 10
1.1380600000000001
 20
-6.3531000000000004
 30
0.0
 10
1.02376
 20
-6.4343800000000009
 30
0.0
 10
1.02376
 20
-6.4343800000000009
 30
0.0
 10
1.0898000000000001
 20
-6.3073800000000002
 30
0.0
 10
1.0974200000000001
 20
-6.1321200000000005
 30
0.0
 10
1.1990200000000002
 20
-6.0381400000000003
 30
0.0
  0
SPLINE
  5
84
100
AcDbEntity
  8
Ebene 1
 62
     7
100
AcDbSpline
210
0.0
220
0.0
230
1.0
 70
     1
 71
     3
 72
    20
 73
    16
 74
     0
 42
0.0000000001
 43
0.0000000001
 40
0.0
 40
0.0
 40
0.0
 40
0.0
 40
0.25
 40
0.25
 40
0.25
 40
0.25
 40
0.5
 40
0.5
 40
0.5
 40
0.5
 40
0.75
 40
0.75
 40
0.75
 40
0.75
 40
1.0
 40
1.0
 40
1.0
 40
1.0
 10
0.18556
 20
-6.6655200000000008
 30
0.0
 10
0.25668
 20
-6.6985400000000004
 30
0.0
 10
0.3354200000000001
 20
-6.6960000000000006
 30
0.0
 10
0.40654
 20
-6.6604400000000004
 30
0.0
 10
0.40654
 20
-6.6604400000000004
 30
0.0
 10
0.49798
 20
-6.7137800000000007
 30
0.0
 10
0.61482
 20
-6.7239400000000007
 30
0.0
 10
0.6757800000000001
 20
-6.8128400000000005
 30
0.0
 10
0.6757800000000001
 20
-6.8128400000000005
 30
0.0
 10
0.4675
 20
-6.8306200000000006
 30
0.0
 10
0.3151000000000001
 20
-6.7087000000000003
 30
0.0
 10
0.11698
 20
-6.7239400000000007
 30
0.0
 10
0.11698
 20
-6.7239400000000007
 30
0.0
 10
0.11698
 20
-6.7239400000000007
 30
0.0
 10
0.18556
 20
-6.6655200000000008
 30
0.0
 10
0.18556
 20
-6.6655200000000008
 30
0.0
  0
ENDSEC
  0
SECTION
  2
OBJECTS
  0
DICTIONARY
  5
19
100
AcDbDictionary
280
     0
281
     1
  3
ACAD_GROUP
350
1A
  3
ACAD_MLINESTYLE
350
1B
  3
ACAD_LAYOUT
350
1E
  3
ACAD_PLOTSETTINGS
350
22
  3
ACAD_PLOTSTYLENAME
350
1F
  3
ACAD_WIPEOUT_VARS
350
23
  0
DICTIONARY
  5
1A
102
{ACAD_REACTORS
330
19
102
}
100
AcDbDictionary
280
     0
281
     1
  0
DICTIONARY
  5
1B
102
{ACAD_REACTORS
330
19
102
}
100
AcDbDictionary
280
     0
281
     1
  3
Standard
350
1C
  0
MLINESTYLE
  5
1C
102
{ACAD_REACTORS
330
1B
102
}
100
AcDbMlineStyle
  2
Standard
 70
     0
  3

 62
     0
 51
90.0
 52
90.0
 71
     2
 49
0.5
 62
   256
  6
BYLAYER
 49
-0.5
 62
   256
  6
BYLAYER
  0
ACDBDICTIONARYWDFLT
  5
1F
102
{ACAD_REACTORS
330
19
102
}
100
AcDbDictionary
281
     1
  3
Normal
350
1D
100
AcDbDictionaryWithDefault
340
1D
  0
ACDBPLACEHOLDER
  5
1D
102
{ACAD_REACTORS
330
1F
102
}
  0
LAYOUT
  5
20
102
{ACAD_REACTORS
330
1E
102
}
100
AcDbPlotSettings
  1

  2

  4

  6

 40
0.0
 41
0.0
 42
0.0
 43
0.0
 44
0.0
 45
0.0
 46
0.0
 47
0.0
 48
0.0
 49
0.0
140
0.0
141
0.0
142
1.0
143
1.0
 70
  1024
 72
     0
 73
     0
 74
     0
  7

 75
     0
147
1.0
148
0.0
149
0.0
100
AcDbLayout
  1
Model
 70
     0
 71
     0
 10
0.0
 20
0.0
 11
0.0
 21
0.0
 12
0.0
 22
0.0
 32
0.0
 14
0.0
 24
0.0
 34
0.0
 15
0.0
 25
0.0
 35
0.0
146
0.0
 13
0.0
 23
0.0
 33
0.0
 16
0.0
 26
0.0
 36
0.0
 17
0.0
 27
0.0
 37
0.0
 76
     0
330
A
331
0
345
0
346
0
  0
LAYOUT
  5
21
102
{ACAD_REACTORS
330
1E
102
}
100
AcDbPlotSettings
  1

  2

  4

  6

 40
0.0
 41
0.0
 42
0.0
 43
0.0
 44
0.0
 45
0.0
 46
0.0
 47
0.0
 48
0.0
 49
0.0
140
0.0
141
0.0
142
1.0
143
1.0
 70
     0
 72
     0
 73
     0
 74
     0
  7

 75
     0
147
1.0
148
0.0
149
0.0
100
AcDbLayout
  1
Layout1
 70
     0
 71
     0
 10
0.0
 20
0.0
 11
0.0
 21
0.0
 12
0.0
 22
0.0
 32
0.0
 14
0.0
 24
0.0
 34
0.0
 15
0.0
 25
0.0
 35
0.0
146
0.0
 13
0.0
 23
0.0
 33
0.0
 16
0.0
 26
0.0
 36
0.0
 17
0.0
 27
0.0
 37
0.0
 76
     0
330
B
331
0
345
0
346
0
  0
DICTIONARY
  5
1E
102
{ACAD_REACTORS
330
19
102
}
100
AcDbDictionary
280
     0
281
     1
  3
Layout1
350
21
  3
Model
350
20
  0
DICTIONARY
  5
22
102
{ACAD_REACTORS
330
19
102
}
100
AcDbDictionary
280
     0
281
     1
  0
WIPEOUTVARIABLES
  5
23
100
AcDbWipeoutVariables
 70
     1
  0
ENDSEC
  0
EOF
