  0
SECTION
  2
HEADER
  9
$ACADVER
  1
AC1015
  9
$ACADMAINTVER
 70
     6
  9
$DWGCODEPAGE
  3
DOS850
  9
$INSBASE
 10
0.0
 20
0.0
 30
0.0
  9
$EXTMIN
 10
-4.60535
 20
-6.4166
 30
1.000000E+20
  9
$EXTMAX
 10
4.61088
 20
6.40983
 30
-1.000000E+20
  9
$LIMMIN
 10
0.0
 20
0.0
  9
$LIMMAX
 10
0.0
 20
0.0
  9
$ORTHOMODE
 70
     0
  9
$REGENMODE
 70
     1
  9
$FILLMODE
 70
     1
  9
$QTEXTMODE
 70
     0
  9
$MIRRTEXT
 70
     1
  9
$LTSCALE
 40
1.0
  9
$ATTMODE
 70
     1
  9
$TEXTSIZE
 40
0.2
  9
$TRACEWID
 40
0.05
  9
$TEXTSTYLE
  7
Standard
  9
$CLAYER
  8
0
  9
$CELTYPE
  6
Continuous
  9
$CECOLOR
 62
   256
  9
$CELTSCALE
 40
1.0
  9
$DISPSILH
 70
     0
  9
$DIMSCALE
 40
1.0
  9
$DIMASZ
 40
0.18
  9
$DIMEXO
 40
0.0625
  9
$DIMDLI
 40
0.38
  9
$DIMRND
 40
0.0
  9
$DIMDLE
 40
0.0
  9
$DIMEXE
 40
0.18
  9
$DIMTP
 40
0.0
  9
$DIMTM
 40
0.0
  9
$DIMTXT
 40
0.18
  9
$DIMCEN
 40
0.09
  9
$DIMTSZ
 40
0.0
  9
$DIMTOL
 70
     0
  9
$DIMLIM
 70
     0
  9
$DIMTIH
 70
     1
  9
$DIMTOH
 70
     1
  9
$DIMSE1
 70
     0
  9
$DIMSE2
 70
     0
  9
$DIMTAD
 70
     0
  9
$DIMZIN
 70
     0
  9
$DIMBLK
  1

  9
$DIMASO
 70
     1
  9
$DIMSHO
 70
     1
  9
$DIMPOST
  1

  9
$DIMAPOST
  1

  9
$DIMALT
 70
     0
  9
$DIMALTD
 70
     2
  9
$DIMALTF
 40
25.4
  9
$DIMLFAC
 40
1.0
  9
$DIMTOFL
 70
     0
  9
$DIMTVP
 40
0.0
  9
$DIMTIX
 70
     0
  9
$DIMSOXD
 70
     0
  9
$DIMSAH
 70
     0
  9
$DIMBLK1
  1

  9
$DIMBLK2
  1

  9
$DIMSTYLE
  2
Standard
  9
$DIMCLRD
 70
     0
  9
$DIMCLRE
 70
     0
  9
$DIMCLRT
 70
     0
  9
$DIMTFAC
 40
1.0
  9
$DIMGAP
 40
0.09
  9
$DIMJUST
 70
     0
  9
$DIMSD1
 70
     0
  9
$DIMSD2
 70
     0
  9
$DIMTOLJ
 70
     1
  9
$DIMTZIN
 70
     0
  9
$DIMALTZ
 70
     0
  9
$DIMALTTZ
 70
     0
  9
$DIMUPT
 70
     0
  9
$DIMDEC
 70
     4
  9
$DIMTDEC
 70
     4
  9
$DIMALTU
 70
     2
  9
$DIMALTTD
 70
     2
  9
$DIMTXSTY
  7
Standard
  9
$DIMAUNIT
 70
     0
  9
$DIMADEC
 70
     0
  9
$DIMALTRND
 40
0.0
  9
$DIMAZIN
 70
     0
  9
$DIMDSEP
 70
     0
  9
$DIMATFIT
 70
     3
  9
$DIMFRAC
 70
     0
  9
$DIMLDRBLK
  1

  9
$DIMLUNIT
 70
     2
  9
$DIMLWD
 70
     0
  9
$DIMLWE
 70
     0
  9
$DIMTMOVE
 70
     0
  9
$LUNITS
 70
     2
  9
$LUPREC
 70
     4
  9
$SKETCHINC
 40
0.1
  9
$FILLETRAD
 40
0.0
  9
$AUNITS
 70
     0
  9
$AUPREC
 70
     0
  9
$MENU
  1
acad
  9
$ELEVATION
 40
0.0
  9
$PELEVATION
 40
0.0
  9
$THICKNESS
 40
0.0
  9
$LIMCHECK
 70
     0
  9
$CHAMFERA
 40
0.0
  9
$CHAMFERB
 40
0.0
  9
$CHAMFERC
 40
0.0
  9
$CHAMFERD
 40
0.0
  9
$SKPOLY
 70
     0
  9
$TDCREATE
 40
0.000000000
  9
$TDUCREATE
 40
0.000000000
  9
$TDUPDATE
 40
0.000000000
  9
$TDUUPDATE
 40
0.000000000
  9
$TDINDWG
 40
0.0000000000
  9
$TDUSRTIMER
 40
0.0000000000
  9
$USRTIMER
 70
     1
  9
$ANGBASE
 50
0.0
  9
$ANGDIR
 70
     0
  9
$PDMODE
 70
     0
  9
$PDSIZE
 40
0.0
  9
$PLINEWID
 40
0.0
  9
$SPLFRAME
 70
     0
  9
$SPLINETYPE
 70
     6
  9
$SPLINESEGS
 70
     8
  9
$HANDSEED
  5
6F
  9
$SURFTAB1
 70
     6
  9
$SURFTAB2
 70
     6
  9
$SURFTYPE
 70
     6
  9
$SURFU
 70
     6
  9
$SURFV
 70
     6
  9
$UCSBASE
  2

  9
$UCSNAME
  2

  9
$UCSORG
 10
0.0
 20
0.0
 30
0.0
  9
$UCSXDIR
 10
1.0
 20
0.0
 30
0.0
  9
$UCSYDIR
 10
0.0
 20
1.0
 30
0.0
  9
$UCSORTHOREF
  2

  9
$UCSORTHOVIEW
 70
     0
  9
$UCSORGTOP
 10
0.0
 20
0.0
 30
0.0
  9
$UCSORGBOTTOM
 10
0.0
 20
0.0
 30
0.0
  9
$UCSORGLEFT
 10
0.0
 20
0.0
 30
0.0
  9
$UCSORGRIGHT
 10
0.0
 20
0.0
 30
0.0
  9
$UCSORGFRONT
 10
0.0
 20
0.0
 30
0.0
  9
$UCSORGBACK
 10
0.0
 20
0.0
 30
0.0
  9
$PUCSBASE
  2

  9
$PUCSNAME
  2

  9
$PUCSORG
 10
0.0
 20
0.0
 30
0.0
  9
$PUCSXDIR
 10
1.0
 20
0.0
 30
0.0
  9
$PUCSYDIR
 10
0.0
 20
1.0
 30
0.0
  9
$PUCSORTHOREF
  2

  9
$PUCSORTHOVIEW
 70
     0
  9
$PUCSORGTOP
 10
0.0
 20
0.0
 30
0.0
  9
$PUCSORGBOTTOM
 10
0.0
 20
0.0
 30
0.0
  9
$PUCSORGLEFT
 10
0.0
 20
0.0
 30
0.0
  9
$PUCSORGRIGHT
 10
0.0
 20
0.0
 30
0.0
  9
$PUCSORGFRONT
 10
0.0
 20
0.0
 30
0.0
  9
$PUCSORGBACK
 10
0.0
 20
0.0
 30
0.0
  9
$USERI1
 70
     0
  9
$USERI2
 70
     0
  9
$USERI3
 70
     0
  9
$USERI4
 70
     0
  9
$USERI5
 70
     0
  9
$USERR1
 40
0.0
  9
$USERR2
 40
0.0
  9
$USERR3
 40
0.0
  9
$USERR4
 40
0.0
  9
$USERR5
 40
0.0
  9
$WORLDVIEW
 70
     1
  9
$SHADEDGE
 70
     3
  9
$SHADEDIF
 70
    70
  9
$TILEMODE
 70
     1
  9
$MAXACTVP
 70
    16
  9
$PINSBASE
 10
0.0
 20
0.0
 30
0.0
  9
$PLIMCHECK
 70
     0
  9
$PEXTMIN
 10
1.000000E+20
 20
1.000000E+20
 30
1.000000E+20
  9
$PEXTMAX
 10
-1.000000E+20
 20
-1.000000E+20
 30
-1.000000E+20
  9
$PLIMMIN
 10
0.0
 20
0.0
  9
$PLIMMAX
 10
12.0
 20
9.0
  9
$UNITMODE
 70
     0
  9
$VISRETAIN
 70
     0
  9
$PLINEGEN
 70
     1
  9
$PSLTSCALE
 70
     0
  9
$TREEDEPTH
 70
  3020
  9
$CMLSTYLE
  2
Standard
  9
$CMLJUST
 70
     0
  9
$CMLSCALE
 40
1.0
  9
$PROXYGRAPHICS
 70
     0
  9
$MEASUREMENT
 70
     0
  9
$CELWEIGHT
370
     0
  9
$ENDCAPS
280
     0
  9
$JOINSTYLE
280
     0
  9
$LWDISPLAY
290
     0
  9
$INSUNITS
 70
     5
  9
$HYPERLINKBASE
  1

  9
$XEDIT
290
     1
  9
$CEPSNTYPE
380
     0
  9
$PSTYLEMODE
290
     1
  9
$FINGERPRINTGUID
  2

  9
$VERSIONGUID
  2

  9
$EXTNAMES
290
     1
  9
$PSVPSCALE
 40
0.0
  0
ENDSEC
  0
SECTION
  2
CLASSES
  0
CLASS
  1
LWPOLYLINE
  2
AcDbPolyline
  3
AutoCAD 2000
 90
    32768
280
     0
281
     1
  0
CLASS
  1
IMAGE
  2
AcDbRasterImage
  3
ISM
 90
    32895
280
     0
281
     1
  0
CLASS
  1
OLE2FRAME
  2
AcDbOle2Frame
  3
AutoCAD 2000
 90
    32768
280
     0
281
     1
  0
CLASS
  1
HATCH
  2
AcDbHatch
  3
AutoCAD 2000
 90
    32768
280
     0
281
     1
  0
CLASS
  1
DICTIONARYVAR
  2
AcDbDictionaryVar
  3
AutoCAD 2000
 90
    32768
280
     0
281
     0
  0
CLASS
  1
RASTERVARIABLES
  2
AcDbRasterVariables
  3
ISM
 90
    32768
280
     0
281
     0
  0
CLASS
  1
IMAGEDEF
  2
AcDbRasterImageDef
  3
ISM
 90
    32768
280
     0
281
     0
  0
CLASS
  1
IMAGEDEF_REACTOR
  2
AcDbRasterImageDefReactor
  3
ISM
 90
    32769
280
     0
281
     0
  0
CLASS
  1
IDBUFFER
  2
AcDbIdBuffer
  3
AutoCAD 2000
 90
    32768
280
     0
281
     0
  0
CLASS
  1
SPATIAL_FILTER
  2
AcDbSpatialFilter
  3
AutoCAD 2000
 90
    32768
280
     0
281
     0
  0
CLASS
  1
XRECORD
  2
AcDbXrecord
  3
AutoCAD 2000
 90
    32768
280
     0
281
     0
  0
CLASS
  1
SORTENTSTABLE
  2
AcDbSortentsTable
  3
AutoCAD 2000
 90
    32768
280
     0
281
     0
  0
CLASS
  1
LAYER_INDEX
  2
AcDbLayerIndex
  3
AutoCAD 2000
 90
    32768
280
     0
281
     0
  0
CLASS
  1
SPATIAL_INDEX
  2
AcDbSpatialIndex
  3
AutoCAD 2000
 90
    32768
280
     0
281
     0
  0
CLASS
  1
OBJECT_PTR
  2
CAseDLPNTableRecord
  3
"ASE-LPNTableRecord"
 90
    32769
280
     0
281
     0
  0
CLASS
  1
LAYOUT
  2
AcDbLayout
  3
AutoCAD 2000
 90
        0
280
     0
281
     0
  0
CLASS
  1
PLOTSETTINGS
  2
AcDbPlotSettings
  3
AutoCAD 2000
 90
    32768
280
     0
281
     0
  0
CLASS
  1
ACDBDICTIONARYWDFLT
  2
AcDbDictionaryWithDefault
  3
AutoCAD 2000
 90
        0
280
     0
281
     0
  0
CLASS
  1
ACDBPLACEHOLDER
  2
AcDbPlaceHolder
  3
AutoCAD 2000
 90
        0
280
     0
281
     0
  0
CLASS
  1
VBA_PROJECT
  2
AcDbVbaProject
  3
acadvba
 90
    32768
280
     0
281
     0
  0
CLASS
  1
WIPEOUT
  2
AcDbWipeout
  3
WipeOut|AutoCAD Express Tool|expresstools@autodesk.com
 90
    32895
280
     0
281
     1
  0
CLASS
  1
WIPEOUTVARIABLES
  2
AcDbWipeoutVariables
  3
WipeOut|AutoCAD Express Tool|expresstools@autodesk.com
 90
        0
280
     0
281
     0
  0
CLASS
  1
RTEXT
  2
RText
  3
RText|AutoCAD Express Tool|expresstools@autodesk.com
 90
    32768
280
     0
281
     1
  0
CLASS
  1
ARCALIGNEDTEXT
  2
AcDbArcAlignedText
  3
ATEXT|AutoCAD Express Tool|expresstools@autodesk.com
 90
    32768
280
     0
281
     1
  0
ENDSEC
  0
SECTION
  2
TABLES
  0
TABLE
  2
VPORT
  5
7
100
AcDbSymbolTable
 70
     1
  0
VPORT
  5
15
100
AcDbSymbolTableRecord
100
AcDbViewportTableRecord
  2
*ACTIVE
 70
     0
 10
0.0
 20
0.0
 11
1.0
 21
1.0
 12
6.591288
 22
4.579184
 13
0.0
 23
0.0
 14
1.0
 24
1.0
 15
0.0
 25
0.0
 16
0.0
 26
0.0
 36
1.0
 17
0.0
 27
0.0
 37
0.0
 40
9.158369
 41
0.688564
 42
50.0
 43
0.0
 44
0.0
 50
0.0
 51
0.0
 71
     0
 72
   100
 73
     1
 74
     1
 75
     0
 76
     0
 77
     0
 78
     0
281
     0
 65
     0
110
0.0
120
0.0
130
0.0
111
1.0
121
0.0
131
0.0
112
0.0
122
1.0
132
0.0
345
0
346
0
 79
     0
146
0.0
  0
ENDTAB
  0
TABLE
  2
LTYPE
  5
4
100
AcDbSymbolTable
 70
     3
  0
LTYPE
  5
11
100
AcDbSymbolTableRecord
100
AcDbLinetypeTableRecord
  2
ByBlock
 70
    64
  3

 72
    65
 73
     0
 40
0.0
  0
LTYPE
  5
12
100
AcDbSymbolTableRecord
100
AcDbLinetypeTableRecord
  2
ByLayer
 70
    64
  3

 72
    65
 73
     0
 40
0.0
  0
LTYPE
  5
13
100
AcDbSymbolTableRecord
100
AcDbLinetypeTableRecord
  2
Continuous
 70
    64
  3
Solid line
 72
    65
 73
     0
 40
0.0
  0
ENDTAB
  0
TABLE
  2
LAYER
  5
2
100
AcDbSymbolTable
 70
     2
  0
LAYER
  5
14
100
AcDbSymbolTableRecord
100
AcDbLayerTableRecord
  2
0
 70
     0
 62
     7
  6
Continuous
290
     1
370
    -3
390
1D
  0
LAYER
  5
24
100
AcDbSymbolTableRecord
100
AcDbLayerTableRecord
  2
Ebene 1
 70
     0
 62
     7
  6
Continuous
290
     1
370
    -3
390
1F
  0
ENDTAB
  0
TABLE
  2
STYLE
  5
3
100
AcDbSymbolTable
 70
     1
  0
STYLE
  5
17
100
AcDbSymbolTableRecord
100
AcDbTextStyleTableRecord
  2
Standard
 70
     0
 40
0.0
 41
1.0
 50
0.0
 71
     0
 42
0.0
  3
txt
  4

  0
ENDTAB
  0
TABLE
  2
VIEW
  5
5
100
AcDbSymbolTable
 70
     0
  0
ENDTAB
  0
TABLE
  2
UCS
  5
6
100
AcDbSymbolTable
 70
     0
  0
ENDTAB
  0
TABLE
  2
APPID
  5
8
100
AcDbSymbolTable
 70
     1
  0
APPID
  5
16
100
AcDbSymbolTableRecord
100
AcDbRegAppTableRecord
  2
ACAD
 70
     0
  0
ENDTAB
  0
TABLE
  2
DIMSTYLE
  5
9
100
AcDbSymbolTable
 70
     1
100
AcDbDimStyleTable
 71
     0
  0
DIMSTYLE
105
18
100
AcDbSymbolTableRecord
100
AcDbDimStyleTableRecord
  2
Standard
 70
     0
  3

  4

 40
1.0
 41
0.18
 42
0.0625
 43
0.38
 44
0.18
 45
0.0
 46
0.0
 47
0.0
 48
0.0
 71
     0
 72
     0
 73
     1
 74
     1
 75
     0
 76
     0
 77
     0
 78
     0
 79
     0
140
0.18
141
0.09
142
0.0
143
25.4
144
1.0
145
0.0
146
1.0
147
0.09
148
0.0
170
     0
171
     2
172
     0
173
     0
174
     0
175
     0
176
     0
177
     0
178
     0
179
     0
271
     4
272
     4
273
     2
274
     2
275
     0
276
     0
277
     2
278
    46
279
     0
280
     0
281
     0
282
     0
283
     1
284
     0
285
     0
286
     0
288
     0
340
17
341
0
342
0
343
0
344
0
371
    -2
372
    -2
  0
ENDTAB
  0
TABLE
  2
BLOCK_RECORD
  5
1
100
AcDbSymbolTable
 70
     0
  0
BLOCK_RECORD
  5
A
100
AcDbSymbolTableRecord
100
AcDbBlockTableRecord
  2
*MODEL_SPACE
340
20
  0
BLOCK_RECORD
  5
B
100
AcDbSymbolTableRecord
100
AcDbBlockTableRecord
  2
*PAPER_SPACE
340
21
  0
ENDTAB
  0
ENDSEC
  0
SECTION
  2
BLOCKS
  0
BLOCK
  5
D
100
AcDbEntity
  8
0
100
AcDbBlockBegin
  2
*MODEL_SPACE
 70
     0
 10
0.0
 20
0.0
 30
0.0
  3
*MODEL_SPACE
  1

  0
ENDBLK
  5
E
100
AcDbEntity
  8
0
100
AcDbBlockEnd
  0
BLOCK
  5
F
100
AcDbEntity
 67
     1
  8
0
100
AcDbBlockBegin
  2
*PAPER_SPACE
 70
     0
 10
0.0
 20
0.0
 30
0.0
  3
*PAPER_SPACE
  1

  0
ENDBLK
  5
10
100
AcDbEntity
 67
     1
  8
0
100
AcDbBlockEnd
  0
ENDSEC
  0
SECTION
  2
ENTITIES
  0
SPLINE
  5
25
100
AcDbEntity
  8
Ebene 1
100
AcDbSpline
210
0.0
220
0.0
230
1.0
 70
     1
 71
     3
 72
   120
 73
   116
 74
     0
 42
0.0000000001
 43
0.0000000001
 40
0.0
 40
0.0
 40
0.0
 40
0.0
 40
0.0344827586206897
 40
0.0344827586206897
 40
0.0344827586206897
 40
0.0344827586206897
 40
0.0689655172413793
 40
0.0689655172413793
 40
0.0689655172413793
 40
0.0689655172413793
 40
0.103448275862069
 40
0.103448275862069
 40
0.103448275862069
 40
0.103448275862069
 40
0.1379310344827586
 40
0.1379310344827586
 40
0.1379310344827586
 40
0.1379310344827586
 40
0.1724137931034483
 40
0.1724137931034483
 40
0.1724137931034483
 40
0.1724137931034483
 40
0.206896551724138
 40
0.206896551724138
 40
0.206896551724138
 40
0.206896551724138
 40
0.2413793103448276
 40
0.2413793103448276
 40
0.2413793103448276
 40
0.2413793103448276
 40
0.2758620689655173
 40
0.2758620689655173
 40
0.2758620689655173
 40
0.2758620689655173
 40
0.310344827586207
 40
0.310344827586207
 40
0.310344827586207
 40
0.310344827586207
 40
0.3448275862068966
 40
0.3448275862068966
 40
0.3448275862068966
 40
0.3448275862068966
 40
0.3793103448275863
 40
0.3793103448275863
 40
0.3793103448275863
 40
0.3793103448275863
 40
0.413793103448276
 40
0.413793103448276
 40
0.413793103448276
 40
0.413793103448276
 40
0.4482758620689656
 40
0.4482758620689656
 40
0.4482758620689656
 40
0.4482758620689656
 40
0.4827586206896553
 40
0.4827586206896553
 40
0.4827586206896553
 40
0.4827586206896553
 40
0.517241379310345
 40
0.517241379310345
 40
0.517241379310345
 40
0.517241379310345
 40
0.5517241379310346
 40
0.5517241379310346
 40
0.5517241379310346
 40
0.5517241379310346
 40
0.5862068965517242
 40
0.5862068965517242
 40
0.5862068965517242
 40
0.5862068965517242
 40
0.6206896551724138
 40
0.6206896551724138
 40
0.6206896551724138
 40
0.6206896551724138
 40
0.6551724137931034
 40
0.6551724137931034
 40
0.6551724137931034
 40
0.6551724137931034
 40
0.689655172413793
 40
0.689655172413793
 40
0.689655172413793
 40
0.689655172413793
 40
0.7241379310344827
 40
0.7241379310344827
 40
0.7241379310344827
 40
0.7241379310344827
 40
0.7586206896551723
 40
0.7586206896551723
 40
0.7586206896551723
 40
0.7586206896551723
 40
0.7931034482758619
 40
0.7931034482758619
 40
0.7931034482758619
 40
0.7931034482758619
 40
0.8275862068965515
 40
0.8275862068965515
 40
0.8275862068965515
 40
0.8275862068965515
 40
0.8620689655172411
 40
0.8620689655172411
 40
0.8620689655172411
 40
0.8620689655172411
 40
0.8965517241379307
 40
0.8965517241379307
 40
0.8965517241379307
 40
0.8965517241379307
 40
0.9310344827586203
 40
0.9310344827586203
 40
0.9310344827586203
 40
0.9310344827586203
 40
0.9655172413793099
 40
0.9655172413793099
 40
0.9655172413793099
 40
0.9655172413793099
 40
1.0
 40
1.0
 40
1.0
 40
1.0
 10
0.48528
 20
6.4002300000000005
 30
0.0
 10
3.0125800000000003
 20
6.5856500000000002
 30
0.0
 10
5.3392200000000001
 20
4.08629
 30
0.0
 10
4.3968800000000003
 20
1.5462900000000002
 30
0.0
 10
4.3968800000000003
 20
1.5462900000000002
 30
0.0
 10
4.3410000000000002
 20
1.06115
 30
0.0
 10
4.2546400000000002
 20
0.5633100000000001
 30
0.0
 10
3.9396800000000005
 20
0.17723
 30
0.0
 10
3.9396800000000005
 20
0.17723
 30
0.0
 10
3.8406200000000004
 20
-0.15042
 30
0.0
 10
3.7974400000000004
 20
-0.50602
 30
0.0
 10
3.5561400000000001
 20
-0.7498600000000001
 30
0.0
 10
3.5561400000000001
 20
-0.7498600000000001
 30
0.0
 10
3.2843600000000004
 20
-0.6635000000000001
 30
0.0
 10
3.1548200000000004
 20
-0.4780800000000001
 30
0.0
 10
2.8551000000000002
 20
-0.50602
 30
0.0
 10
2.8551000000000002
 20
-0.50602
 30
0.0
 10
2.6544400000000001
 20
-0.8616200000000001
 30
0.0
 10
2.4131400000000003
 20
-0.5771400000000001
 30
0.0
 10
2.2709000000000001
 20
-0.9632200000000001
 30
0.0
 10
2.2709000000000001
 20
-0.9632200000000001
 30
0.0
 10
1.7552800000000002
 20
-1.8344400000000001
 30
0.0
 10
1.8416400000000002
 20
-2.8479000000000001
 30
0.0
 10
2.0702400000000001
 20
-3.7623000000000002
 30
0.0
 10
2.0702400000000001
 20
-3.7623000000000002
 30
0.0
 10
1.8695800000000002
 20
-3.9324800000000004
 30
0.0
 10
1.5571600000000001
 20
-3.8613600000000003
 30
0.0
 10
1.3285600000000002
 20
-3.9756600000000004
 30
0.0
 10
1.3285600000000002
 20
-3.9756600000000004
 30
0.0
 10
0.38622
 20
-4.8011600000000003
 30
0.0
 10
-0.78217
 20
-5.3879000000000001
 30
0.0
 10
-1.5822700000000001
 20
-6.3861200000000009
 30
0.0
 10
-1.5822700000000001
 20
-6.3861200000000009
 30
0.0
 10
-1.8515100000000002
 20
-6.3861200000000009
 30
0.0
 10
-2.0521700000000003
 20
-6.1727600000000002
 30
0.0
 10
-2.30871
 20
-6.1295800000000007
 30
0.0
 10
-2.30871
 20
-6.1295800000000007
 30
0.0
 10
-2.5652500000000003
 20
-6.1448200000000002
 30
0.0
 10
-2.7532100000000002
 20
-6.4166000000000007
 30
0.0
 10
-2.9945100000000004
 20
-6.4166000000000007
 30
0.0
 10
-2.9945100000000004
 20
-6.4166000000000007
 30
0.0
 10
-3.2815300000000001
 20
-6.2159400000000007
 30
0.0
 10
-3.0808700000000004
 20
-5.82986
 30
0.0
 10
-3.1519900000000001
 20
-5.5453800000000006
 30
0.0
 10
-3.1519900000000001
 20
-5.5453800000000006
 30
0.0
 10
-3.7463500000000005
 20
-5.1745400000000004
 30
0.0
 10
-3.3907500000000002
 20
-4.3465000000000007
 30
0.0
 10
-3.3374100000000002
 20
-3.7623000000000002
 30
0.0
 10
-3.3374100000000002
 20
-3.7623000000000002
 30
0.0
 10
-3.3374100000000002
 20
-3.7623000000000002
 30
0.0
 10
-3.0935700000000002
 20
-4.43032
 30
0.0
 10
-3.0935700000000002
 20
-4.43032
 30
0.0
 10
-3.0935700000000002
 20
-4.43032
 30
0.0
 10
-3.0935700000000002
 20
-4.1890200000000002
 30
0.0
 10
-3.2383500000000001
 20
-3.3330400000000004
 30
0.0
 10
-2.9233900000000004
 20
-3.7750000000000004
 30
0.0
 10
-2.9233900000000004
 20
-3.7750000000000004
 30
0.0
 10
-3.1088100000000001
 20
-3.4473400000000001
 30
0.0
 10
-2.7811500000000002
 20
-3.1603200000000005
 30
0.0
 10
-2.86497
 20
-2.8606000000000003
 30
0.0
 10
-2.86497
 20
-2.8606000000000003
 30
0.0
 10
-2.8954500000000003
 20
-2.7615400000000001
 30
0.0
 10
-2.9665700000000004
 20
-2.8758400000000002
 30
0.0
 10
-3.0097500000000004
 20
-2.7742400000000003
 30
0.0
 10
-3.0097500000000004
 20
-2.7742400000000003
 30
0.0
 10
-3.0097500000000004
 20
-2.7742400000000003
 30
0.0
 10
-3.0656300000000001
 20
-2.64724
 30
0.0
 10
-3.0656300000000001
 20
-2.64724
 30
0.0
 10
-3.0656300000000001
 20
-2.64724
 30
0.0
 10
-3.0935700000000002
 20
-2.22052
 30
0.0
 10
-3.1240500000000004
 20
-3.0460200000000004
 30
0.0
 10
-3.2815300000000001
 20
-2.8047200000000001
 30
0.0
 10
-3.2815300000000001
 20
-2.8047200000000001
 30
0.0
 10
-3.2815300000000001
 20
-2.8047200000000001
 30
0.0
 10
-3.3094700000000001
 20
-2.6624800000000004
 30
0.0
 10
-3.3094700000000001
 20
-2.6624800000000004
 30
0.0
 10
-3.3094700000000001
 20
-2.6624800000000004
 30
0.0
 10
-3.3374100000000002
 20
-2.5913600000000003
 30
0.0
 10
-3.3374100000000002
 20
-2.1773400000000001
 30
0.0
 10
-3.3983700000000003
 20
-2.4338800000000003
 30
0.0
 10
-3.3983700000000003
 20
-2.4338800000000003
 30
0.0
 10
-3.4974300000000005
 20
-2.8047200000000001
 30
0.0
 10
-3.4745700000000004
 20
-3.2339800000000003
 30
0.0
 10
-3.4796500000000004
 20
-3.6175200000000003
 30
0.0
 10
-3.4796500000000004
 20
-3.6175200000000003
 30
0.0
 10
-3.9241500000000005
 20
-3.2187400000000004
 30
0.0
 10
-4.10703
 20
-2.5481800000000003
 30
0.0
 10
-4.09687
 20
-1.9614400000000001
 30
0.0
 10
-4.09687
 20
-1.9614400000000001
 30
0.0
 10
-4.6556700000000006
 20
-1.6769600000000002
 30
0.0
 10
-4.2391100000000002
 20
-1.1207
 30
0.0
 10
-4.1806900000000002
 20
-0.6482600000000001
 30
0.0
 10
-4.1806900000000002
 20
-0.6482600000000001
 30
0.0
 10
-4.5743900000000002
 20
-0.39172
 30
0.0
 10
-4.7852100000000002
 20
0.11881
 30
0.0
 10
-4.4067500000000006
 20
0.5048900000000001
 30
0.0
 10
-4.4067500000000006
 20
0.5048900000000001
 30
0.0
 10
-4.5769299999999999
 20
0.9620900000000001
 30
0.0
 10
-4.09687
 20
1.36087
 30
0.0
 10
-3.9216100000000003
 20
1.7901300000000002
 30
0.0
 10
-3.9216100000000003
 20
1.7901300000000002
 30
0.0
 10
-4.1171899999999999
 20
2.1584300000000001
 30
0.0
 10
-4.4677100000000003
 20
2.7604100000000003
 30
0.0
 10
-4.3737300000000001
 20
3.1515700000000004
 30
0.0
 10
-4.3737300000000001
 20
3.1515700000000004
 30
0.0
 10
-4.3254700000000001
 20
3.3547700000000003
 30
0.0
 10
-4.1298900000000005
 20
3.4919300000000004
 30
0.0
 10
-3.7971500000000002
 20
3.5325700000000002
 30
0.0
 10
-3.7971500000000002
 20
3.5325700000000002
 30
0.0
 10
-3.7971500000000002
 20
3.5325700000000002
 30
0.0
 10
-3.5685500000000001
 20
3.6875100000000005
 30
0.0
 10
-3.5685500000000001
 20
3.6875100000000005
 30
0.0
 10
-3.5685500000000001
 20
3.6875100000000005
 30
0.0
 10
-3.1367500000000001
 20
5.5442500000000008
 30
0.0
 10
-0.99553
 20
5.8287300000000002
 30
0.0
 10
0.48528
 20
6.4002300000000005
 30
0.0
  0
SPLINE
  5
26
100
AcDbEntity
  8
Ebene 1
100
AcDbSpline
210
0.0
220
0.0
230
1.0
 70
     1
 71
     3
 72
    20
 73
    16
 74
     0
 42
0.0000000001
 43
0.0000000001
 40
0.0
 40
0.0
 40
0.0
 40
0.0
 40
0.25
 40
0.25
 40
0.25
 40
0.25
 40
0.5
 40
0.5
 40
0.5
 40
0.5
 40
0.75
 40
0.75
 40
0.75
 40
0.75
 40
1.0
 40
1.0
 40
1.0
 40
1.0
 10
1.6841600000000001
 20
-0.23424
 30
0.0
 10
1.6841600000000001
 20
-0.23424
 30
0.0
 10
1.48604
 20
-0.30536
 30
0.0
 10
1.48604
 20
-0.30536
 30
0.0
 10
1.48604
 20
-0.30536
 30
0.0
 10
1.4149200000000002
 20
-0.6635000000000001
 30
0.0
 10
1.2853800000000002
 20
-1.0495800000000002
 30
0.0
 10
1.3565
 20
-1.42042
 30
0.0
 10
1.3565
 20
-1.42042
 30
0.0
 10
1.3565
 20
-1.42042
 30
0.0
 10
1.9000600000000001
 20
-0.3637800000000001
 30
0.0
 10
1.9000600000000001
 20
-0.3637800000000001
 30
0.0
 10
1.9000600000000001
 20
-0.3637800000000001
 30
0.0
 10
1.9000600000000001
 20
-0.3637800000000001
 30
0.0
 10
1.6841600000000001
 20
-0.23424
 30
0.0
 10
1.6841600000000001
 20
-0.23424
 30
0.0
  0
SPLINE
  5
27
100
AcDbEntity
  8
Ebene 1
100
AcDbSpline
210
0.0
220
0.0
230
1.0
 70
     1
 71
     3
 72
    64
 73
    60
 74
     0
 42
0.0000000001
 43
0.0000000001
 40
0.0
 40
0.0
 40
0.0
 40
0.0
 40
0.0666666666666667
 40
0.0666666666666667
 40
0.0666666666666667
 40
0.0666666666666667
 40
0.1333333333333333
 40
0.1333333333333333
 40
0.1333333333333333
 40
0.1333333333333333
 40
0.2
 40
0.2
 40
0.2
 40
0.2
 40
0.2666666666666667
 40
0.2666666666666667
 40
0.2666666666666667
 40
0.2666666666666667
 40
0.3333333333333333
 40
0.3333333333333333
 40
0.3333333333333333
 40
0.3333333333333333
 40
0.4
 40
0.4
 40
0.4
 40
0.4
 40
0.4666666666666666
 40
0.4666666666666666
 40
0.4666666666666666
 40
0.4666666666666666
 40
0.5333333333333333
 40
0.5333333333333333
 40
0.5333333333333333
 40
0.5333333333333333
 40
0.6
 40
0.6
 40
0.6
 40
0.6
 40
0.6666666666666666
 40
0.6666666666666666
 40
0.6666666666666666
 40
0.6666666666666666
 40
0.7333333333333333
 40
0.7333333333333333
 40
0.7333333333333333
 40
0.7333333333333333
 40
0.7999999999999999
 40
0.7999999999999999
 40
0.7999999999999999
 40
0.7999999999999999
 40
0.8666666666666666
 40
0.8666666666666666
 40
0.8666666666666666
 40
0.8666666666666666
 40
0.9333333333333332
 40
0.9333333333333332
 40
0.9333333333333332
 40
0.9333333333333332
 40
1.0
 40
1.0
 40
1.0
 40
1.0
 10
0.28462
 20
-1.46106
 30
0.0
 10
0.18556
 20
-1.54742
 30
0.0
 10
0.12968
 20
-1.7049000000000001
 30
0.0
 10
-0.02525
 20
-1.6617200000000001
 30
0.0
 10
-0.02525
 20
-1.6617200000000001
 30
0.0
 10
-0.09637
 20
-1.8471400000000002
 30
0.0
 10
-0.34021
 20
-1.9487400000000001
 30
0.0
 10
-0.52563
 20
-1.9893800000000001
 30
0.0
 10
-0.52563
 20
-1.9893800000000001
 30
0.0
 10
-0.56881
 20
-2.1341600000000001
 30
0.0
 10
-0.7262900000000001
 20
-2.2052800000000001
 30
0.0
 10
-0.8532900000000001
 20
-2.2611600000000003
 30
0.0
 10
-0.8532900000000001
 20
-2.2611600000000003
 30
0.0
 10
-0.8532900000000001
 20
-2.2611600000000003
 30
0.0
 10
-0.8812300000000001
 20
-3.0333200000000002
 30
0.0
 10
-0.8812300000000001
 20
-3.0333200000000002
 30
0.0
 10
-0.8812300000000001
 20
-3.0333200000000002
 30
0.0
 10
-1.2393700000000001
 20
-3.2898600000000005
 30
0.0
 10
-1.5390900000000001
 20
-3.7191200000000002
 30
0.0
 10
-1.6660900000000001
 20
-4.13314
 30
0.0
 10
-1.6660900000000001
 20
-4.13314
 30
0.0
 10
-1.6254500000000001
 20
-4.2169600000000003
 30
0.0
 10
-1.5822700000000001
 20
-4.3312600000000003
 30
0.0
 10
-1.4959100000000001
 20
-4.3896800000000002
 30
0.0
 10
-1.4959100000000001
 20
-4.3896800000000002
 30
0.0
 10
-1.4679700000000002
 20
-4.1737800000000007
 30
0.0
 10
-1.6381500000000002
 20
-3.7318200000000004
 30
0.0
 10
-1.33843
 20
-3.6607000000000003
 30
0.0
 10
-1.33843
 20
-3.6607000000000003
 30
0.0
 10
-0.9396500000000001
 20
-3.6175200000000003
 30
0.0
 10
-0.99553
 20
-3.8181800000000004
 30
0.0
 10
-0.9244100000000001
 20
-4.1458400000000006
 30
0.0
 10
-0.9244100000000001
 20
-4.1458400000000006
 30
0.0
 10
-0.7974100000000001
 20
-4.0594800000000006
 30
0.0
 10
-0.86853
 20
-3.9172400000000005
 30
0.0
 10
-0.82535
 20
-3.7877000000000005
 30
0.0
 10
-0.82535
 20
-3.7877000000000005
 30
0.0
 10
-1.0107700000000002
 20
-3.6607000000000003
 30
0.0
 10
-0.78217
 20
-3.5464000000000002
 30
0.0
 10
-0.8101100000000001
 20
-3.4473400000000001
 30
0.0
 10
-0.8101100000000001
 20
-3.4473400000000001
 30
0.0
 10
-0.9396500000000001
 20
-3.3457400000000002
 30
0.0
 10
-1.0234700000000001
 20
-3.5464000000000002
 30
0.0
 10
-1.0234700000000001
 20
-3.6454600000000004
 30
0.0
 10
-1.0234700000000001
 20
-3.6454600000000004
 30
0.0
 10
-1.0971300000000002
 20
-3.4752800000000001
 30
0.0
 10
-0.8532900000000001
 20
-3.2898600000000005
 30
0.0
 10
-0.7262900000000001
 20
-3.4473400000000001
 30
0.0
 10
-0.7262900000000001
 20
-3.4473400000000001
 30
0.0
 10
-0.7110500000000001
 20
-3.2466800000000005
 30
0.0
 10
-0.5815100000000001
 20
-3.0612600000000003
 30
0.0
 10
-0.36815
 20
-3.1196800000000002
 30
0.0
 10
-0.36815
 20
-3.1196800000000002
 30
0.0
 10
-0.35545
 20
-2.7742400000000003
 30
0.0
 10
-0.05319
 20
-2.5913600000000003
 30
0.0
 10
0.24398
 20
-2.6320000000000001
 30
0.0
 10
0.24398
 20
-2.6320000000000001
 30
0.0
 10
0.27192
 20
-2.2484600000000001
 30
0.0
 10
0.40146
 20
-1.8192000000000002
 30
0.0
 10
0.28462
 20
-1.46106
 30
0.0
  0
SPLINE
  5
28
100
AcDbEntity
  8
Ebene 1
 62
     7
100
AcDbSpline
210
0.0
220
0.0
230
1.0
 70
     1
 71
     3
 72
   240
 73
   236
 74
     0
 42
0.0000000001
 43
0.0000000001
 40
0.0
 40
0.0
 40
0.0
 40
0.0
 40
0.0169491525423729
 40
0.0169491525423729
 40
0.0169491525423729
 40
0.0169491525423729
 40
0.0338983050847458
 40
0.0338983050847458
 40
0.0338983050847458
 40
0.0338983050847458
 40
0.0508474576271186
 40
0.0508474576271186
 40
0.0508474576271186
 40
0.0508474576271186
 40
0.0677966101694915
 40
0.0677966101694915
 40
0.0677966101694915
 40
0.0677966101694915
 40
0.0847457627118644
 40
0.0847457627118644
 40
0.0847457627118644
 40
0.0847457627118644
 40
0.1016949152542373
 40
0.1016949152542373
 40
0.1016949152542373
 40
0.1016949152542373
 40
0.1186440677966102
 40
0.1186440677966102
 40
0.1186440677966102
 40
0.1186440677966102
 40
0.1355932203389831
 40
0.1355932203389831
 40
0.1355932203389831
 40
0.1355932203389831
 40
0.1525423728813559
 40
0.1525423728813559
 40
0.1525423728813559
 40
0.1525423728813559
 40
0.1694915254237288
 40
0.1694915254237288
 40
0.1694915254237288
 40
0.1694915254237288
 40
0.1864406779661017
 40
0.1864406779661017
 40
0.1864406779661017
 40
0.1864406779661017
 40
0.2033898305084746
 40
0.2033898305084746
 40
0.2033898305084746
 40
0.2033898305084746
 40
0.2203389830508475
 40
0.2203389830508475
 40
0.2203389830508475
 40
0.2203389830508475
 40
0.2372881355932204
 40
0.2372881355932204
 40
0.2372881355932204
 40
0.2372881355932204
 40
0.2542372881355933
 40
0.2542372881355933
 40
0.2542372881355933
 40
0.2542372881355933
 40
0.2711864406779662
 40
0.2711864406779662
 40
0.2711864406779662
 40
0.2711864406779662
 40
0.2881355932203391
 40
0.2881355932203391
 40
0.2881355932203391
 40
0.2881355932203391
 40
0.3050847457627119
 40
0.3050847457627119
 40
0.3050847457627119
 40
0.3050847457627119
 40
0.3220338983050848
 40
0.3220338983050848
 40
0.3220338983050848
 40
0.3220338983050848
 40
0.3389830508474577
 40
0.3389830508474577
 40
0.3389830508474577
 40
0.3389830508474577
 40
0.3559322033898306
 40
0.3559322033898306
 40
0.3559322033898306
 40
0.3559322033898306
 40
0.3728813559322035
 40
0.3728813559322035
 40
0.3728813559322035
 40
0.3728813559322035
 40
0.3898305084745764
 40
0.3898305084745764
 40
0.3898305084745764
 40
0.3898305084745764
 40
0.4067796610169493
 40
0.4067796610169493
 40
0.4067796610169493
 40
0.4067796610169493
 40
0.4237288135593222
 40
0.4237288135593222
 40
0.4237288135593222
 40
0.4237288135593222
 40
0.4406779661016951
 40
0.4406779661016951
 40
0.4406779661016951
 40
0.4406779661016951
 40
0.457627118644068
 40
0.457627118644068
 40
0.457627118644068
 40
0.457627118644068
 40
0.4745762711864409
 40
0.4745762711864409
 40
0.4745762711864409
 40
0.4745762711864409
 40
0.4915254237288138
 40
0.4915254237288138
 40
0.4915254237288138
 40
0.4915254237288138
 40
0.5084745762711866
 40
0.5084745762711866
 40
0.5084745762711866
 40
0.5084745762711866
 40
0.5254237288135595
 40
0.5254237288135595
 40
0.5254237288135595
 40
0.5254237288135595
 40
0.5423728813559323
 40
0.5423728813559323
 40
0.5423728813559323
 40
0.5423728813559323
 40
0.5593220338983052
 40
0.5593220338983052
 40
0.5593220338983052
 40
0.5593220338983052
 40
0.576271186440678
 40
0.576271186440678
 40
0.576271186440678
 40
0.576271186440678
 40
0.5932203389830508
 40
0.5932203389830508
 40
0.5932203389830508
 40
0.5932203389830508
 40
0.6101694915254237
 40
0.6101694915254237
 40
0.6101694915254237
 40
0.6101694915254237
 40
0.6271186440677965
 40
0.6271186440677965
 40
0.6271186440677965
 40
0.6271186440677965
 40
0.6440677966101693
 40
0.6440677966101693
 40
0.6440677966101693
 40
0.6440677966101693
 40
0.6610169491525422
 40
0.6610169491525422
 40
0.6610169491525422
 40
0.6610169491525422
 40
0.677966101694915
 40
0.677966101694915
 40
0.677966101694915
 40
0.677966101694915
 40
0.6949152542372878
 40
0.6949152542372878
 40
0.6949152542372878
 40
0.6949152542372878
 40
0.7118644067796607
 40
0.7118644067796607
 40
0.7118644067796607
 40
0.7118644067796607
 40
0.7288135593220335
 40
0.7288135593220335
 40
0.7288135593220335
 40
0.7288135593220335
 40
0.7457627118644064
 40
0.7457627118644064
 40
0.7457627118644064
 40
0.7457627118644064
 40
0.7627118644067792
 40
0.7627118644067792
 40
0.7627118644067792
 40
0.7627118644067792
 40
0.779661016949152
 40
0.779661016949152
 40
0.779661016949152
 40
0.779661016949152
 40
0.7966101694915249
 40
0.7966101694915249
 40
0.7966101694915249
 40
0.7966101694915249
 40
0.8135593220338977
 40
0.8135593220338977
 40
0.8135593220338977
 40
0.8135593220338977
 40
0.8305084745762705
 40
0.8305084745762705
 40
0.8305084745762705
 40
0.8305084745762705
 40
0.8474576271186434
 40
0.8474576271186434
 40
0.8474576271186434
 40
0.8474576271186434
 40
0.8644067796610162
 40
0.8644067796610162
 40
0.8644067796610162
 40
0.8644067796610162
 40
0.881355932203389
 40
0.881355932203389
 40
0.881355932203389
 40
0.881355932203389
 40
0.8983050847457619
 40
0.8983050847457619
 40
0.8983050847457619
 40
0.8983050847457619
 40
0.9152542372881347
 40
0.9152542372881347
 40
0.9152542372881347
 40
0.9152542372881347
 40
0.9322033898305075
 40
0.9322033898305075
 40
0.9322033898305075
 40
0.9322033898305075
 40
0.9491525423728804
 40
0.9491525423728804
 40
0.9491525423728804
 40
0.9491525423728804
 40
0.9661016949152532
 40
0.9661016949152532
 40
0.9661016949152532
 40
0.9661016949152532
 40
0.9830508474576261
 40
0.9830508474576261
 40
0.9830508474576261
 40
0.9830508474576261
 40
1.0
 40
1.0
 40
1.0
 40
1.0
 10
-4.2086300000000003
 20
2.6588100000000003
 30
0.0
 10
-4.2797499999999999
 20
2.6918300000000004
 30
0.0
 10
-4.2975300000000001
 20
2.84423
 30
0.0
 10
-4.3203900000000006
 20
2.8950300000000002
 30
0.0
 10
-4.3203900000000006
 20
2.8950300000000002
 30
0.0
 10
-4.3813500000000003
 20
3.0499700000000001
 30
0.0
 10
-4.2822900000000006
 20
3.1642700000000001
 30
0.0
 10
-4.1883100000000004
 20
3.3014300000000003
 30
0.0
 10
-4.1883100000000004
 20
3.3014300000000003
 30
0.0
 10
-3.8377900000000005
 20
3.2887300000000002
 30
0.0
 10
-3.4821900000000001
 20
3.2176100000000001
 30
0.0
 10
-3.1672300000000004
 20
3.0880700000000001
 30
0.0
 10
-3.1672300000000004
 20
3.0880700000000001
 30
0.0
 10
-3.1519900000000001
 20
3.1312500000000001
 30
0.0
 10
-3.1672300000000004
 20
3.1871300000000002
 30
0.0
 10
-3.2078700000000002
 20
3.2176100000000001
 30
0.0
 10
-3.2078700000000002
 20
3.2176100000000001
 30
0.0
 10
-3.4593300000000005
 20
3.2734900000000002
 30
0.0
 10
-3.0935700000000002
 20
3.2607900000000001
 30
0.0
 10
-3.2815300000000001
 20
3.3446100000000003
 30
0.0
 10
-3.2815300000000001
 20
3.3446100000000003
 30
0.0
 10
-3.4263100000000004
 20
3.3877900000000003
 30
0.0
 10
-2.9360900000000001
 20
3.3750900000000001
 30
0.0
 10
-3.1672300000000004
 20
3.4309700000000003
 30
0.0
 10
-3.1672300000000004
 20
3.4309700000000003
 30
0.0
 10
-3.1672300000000004
 20
3.4309700000000003
 30
0.0
 10
-3.2383500000000001
 20
3.4462100000000002
 30
0.0
 10
-3.2383500000000001
 20
3.4462100000000002
 30
0.0
 10
-3.2383500000000001
 20
3.4462100000000002
 30
0.0
 10
-3.1367500000000001
 20
3.4893900000000002
 30
0.0
 10
-3.1951700000000001
 20
3.4893900000000002
 30
0.0
 10
-3.2662900000000001
 20
3.5325700000000002
 30
0.0
 10
-3.2662900000000001
 20
3.5325700000000002
 30
0.0
 10
-3.2662900000000001
 20
3.5325700000000002
 30
0.0
 10
-2.9513300000000005
 20
3.6163900000000004
 30
0.0
 10
-2.9513300000000005
 20
3.6163900000000004
 30
0.0
 10
-2.9513300000000005
 20
3.6163900000000004
 30
0.0
 10
-2.4230100000000001
 20
3.8297500000000002
 30
0.0
 10
-3.3221700000000003
 20
3.2303100000000002
 30
0.0
 10
-2.8522700000000003
 20
3.3319100000000001
 30
0.0
 10
-2.8522700000000003
 20
3.3319100000000001
 30
0.0
 10
-2.3798300000000001
 20
3.6316300000000004
 30
0.0
 10
-2.2934700000000001
 20
4.20059
 30
0.0
 10
-2.0369300000000004
 20
4.6450900000000006
 30
0.0
 10
-2.0369300000000004
 20
4.6450900000000006
 30
0.0
 10
-1.8083300000000002
 20
4.9879900000000008
 30
0.0
 10
-1.5111500000000002
 20
5.3867700000000003
 30
0.0
 10
-1.12507
 20
5.5721900000000009
 30
0.0
 10
-1.12507
 20
5.5721900000000009
 30
0.0
 10
-1.3104900000000002
 20
5.3435900000000007
 30
0.0
 10
-1.5949700000000002
 20
5.2013500000000006
 30
0.0
 10
-1.7524500000000001
 20
4.9600500000000007
 30
0.0
 10
-1.7524500000000001
 20
4.9600500000000007
 30
0.0
 10
-1.4247900000000002
 20
5.2292900000000007
 30
0.0
 10
-1.08189
 20
5.5874300000000003
 30
0.0
 10
-0.6678700000000001
 20
5.7576100000000006
 30
0.0
 10
-0.6678700000000001
 20
5.7576100000000006
 30
0.0
 10
-0.4392700000000001
 20
5.8160300000000005
 30
0.0
 10
-0.6246900000000001
 20
5.5594900000000003
 30
0.0
 10
-0.5383300000000001
 20
5.5290100000000004
 30
0.0
 10
-0.5383300000000001
 20
5.5290100000000004
 30
0.0
 10
-0.38085
 20
5.6153700000000004
 30
0.0
 10
-0.06843
 20
6.0573300000000003
 30
0.0
 10
-0.3960900000000001
 20
5.9735100000000001
 30
0.0
 10
-0.3960900000000001
 20
5.9735100000000001
 30
0.0
 10
1.0136000000000001
 20
6.6847100000000008
 30
0.0
 10
3.1700600000000003
 20
5.9862100000000007
 30
0.0
 10
3.8965000000000005
 20
4.54603
 30
0.0
 10
3.8965000000000005
 20
4.54603
 30
0.0
 10
3.6247200000000004
 20
4.6146100000000008
 30
0.0
 10
3.3402400000000001
 20
4.9448100000000004
 30
0.0
 10
3.0405200000000003
 20
5.1302300000000001
 30
0.0
 10
3.0405200000000003
 20
5.1302300000000001
 30
0.0
 10
2.4563200000000003
 20
5.3588300000000002
 30
0.0
 10
1.7984600000000002
 20
5.1429300000000007
 30
0.0
 10
1.39968
 20
4.6882700000000002
 30
0.0
 10
1.39968
 20
4.6882700000000002
 30
0.0
 10
1.5419200000000002
 20
4.92957
 30
0.0
 10
1.7984600000000002
 20
5.1429300000000007
 30
0.0
 10
2.0575400000000004
 20
5.2572300000000007
 30
0.0
 10
2.0575400000000004
 20
5.2572300000000007
 30
0.0
 10
1.7552800000000002
 20
5.2877100000000006
 30
0.0
 10
0.9272400000000001
 20
4.5739700000000001
 30
0.0
 10
0.41416
 20
4.4012500000000001
 30
0.0
 10
0.41416
 20
4.4012500000000001
 30
0.0
 10
0.12968
 20
4.1294700000000004
 30
0.0
 10
0.7138800000000001
 20
4.54603
 30
0.0
 10
0.8129400000000001
 20
4.3580700000000006
 30
0.0
 10
0.8129400000000001
 20
4.3580700000000006
 30
0.0
 10
0.64276
 20
4.1167700000000007
 30
0.0
 10
0.01538
 20
4.0177100000000001
 30
0.0
 10
-0.34021
 20
3.8449900000000001
 30
0.0
 10
-0.34021
 20
3.8449900000000001
 30
0.0
 10
-0.4824500000000001
 20
3.8729300000000002
 30
0.0
 10
-0.63993
 20
3.8449900000000001
 30
0.0
 10
-0.78217
 20
3.8018100000000001
 30
0.0
 10
-0.78217
 20
3.8018100000000001
 30
0.0
 10
-0.69581
 20
3.8449900000000001
 30
0.0
 10
-0.7669300000000001
 20
3.8602300000000005
 30
0.0
 10
-0.7542300000000001
 20
3.9161100000000002
 30
0.0
 10
-0.7542300000000001
 20
3.9161100000000002
 30
0.0
 10
-1.0945900000000002
 20
3.8754700000000004
 30
0.0
 10
-1.1098300000000001
 20
3.4843100000000002
 30
0.0
 10
-0.28941
 20
3.7256100000000001
 30
0.0
 10
-0.28941
 20
3.7256100000000001
 30
0.0
 10
0.01538
 20
3.8145100000000003
 30
0.0
 10
0.59958
 20
3.9440500000000003
 30
0.0
 10
1.09996
 20
4.28695
 30
0.0
 10
1.09996
 20
4.28695
 30
0.0
 10
1.0720200000000002
 20
4.1599500000000003
 30
0.0
 10
1.14314
 20
4.0735900000000003
 30
0.0
 10
1.1710800000000001
 20
3.9592900000000002
 30
0.0
 10
1.1710800000000001
 20
3.9592900000000002
 30
0.0
 10
2.1566000000000001
 20
3.3877900000000003
 30
0.0
 10
1.1583800000000002
 20
1.9603100000000002
 30
0.0
 10
2.0829400000000002
 20
1.3481700000000001
 30
0.0
 10
2.0829400000000002
 20
1.3481700000000001
 30
0.0
 10
2.1134200000000001
 20
1.2186300000000001
 30
0.0
 10
2.2277200000000001
 20
1.1322700000000001
 30
0.0
 10
2.1997800000000001
 20
0.9900300000000001
 30
0.0
 10
2.1997800000000001
 20
0.9900300000000001
 30
0.0
 10
1.7552800000000002
 20
0.70555
 30
0.0
 10
1.0720200000000002
 20
0.9900300000000001
 30
0.0
 10
0.59958
 20
0.61919
 30
0.0
 10
0.59958
 20
0.61919
 30
0.0
 10
1.0847200000000001
 20
0.74619
 30
0.0
 10
1.6003400000000001
 20
0.61919
 30
0.0
 10
2.0423
 20
0.6471300000000001
 30
0.0
 10
2.0423
 20
0.6471300000000001
 30
0.0
 10
1.6435200000000001
 20
-0.02088
 30
0.0
 10
0.9704200000000001
 20
0.78937
 30
0.0
 10
0.37098
 20
0.44901
 30
0.0
 10
0.37098
 20
0.44901
 30
0.0
 10
0.37098
 20
0.44901
 30
0.0
 10
0.12968
 20
0.37535
 30
0.0
 10
0.12968
 20
0.37535
 30
0.0
 10
0.12968
 20
0.37535
 30
0.0
 10
-0.01001
 20
0.30423
 30
0.0
 10
-0.13955
 20
0.36265
 30
0.0
 10
0.02808
 20
0.47695
 30
0.0
 10
0.02808
 20
0.47695
 30
0.0
 10
0.18556
 20
0.7614300000000001
 30
0.0
 10
0.5564
 20
0.6750700000000001
 30
0.0
 10
0.7723000000000001
 20
0.8325500000000001
 30
0.0
 10
0.7723000000000001
 20
0.8325500000000001
 30
0.0
 10
0.05856
 20
0.7766700000000001
 30
0.0
 10
-0.7110500000000001
 20
0.5201300000000001
 30
0.0
 10
-1.38161
 20
0.89097
 30
0.0
 10
-1.38161
 20
0.89097
 30
0.0
 10
-1.5238500000000001
 20
1.1322700000000001
 30
0.0
 10
-1.8083300000000002
 20
1.2618100000000001
 30
0.0
 10
-2.0369300000000004
 20
1.36087
 30
0.0
 10
-2.0369300000000004
 20
1.36087
 30
0.0
 10
-2.0369300000000004
 20
-0.00564
 30
0.0
 10
-0.12431
 20
0.19247
 30
0.0
 10
0.40146
 20
-0.6635000000000001
 30
0.0
 10
0.40146
 20
-0.6635000000000001
 30
0.0
 10
0.12968
 20
-0.5619000000000001
 30
0.0
 10
-0.09637
 20
-0.3333
 30
0.0
 10
-0.36815
 20
-0.22154
 30
0.0
 10
-0.36815
 20
-0.22154
 30
0.0
 10
-0.3960900000000001
 20
-0.24948
 30
0.0
 10
-0.26909
 20
-0.34854
 30
0.0
 10
-0.21067
 20
-0.3637800000000001
 30
0.0
 10
-0.21067
 20
-0.3637800000000001
 30
0.0
 10
0.27192
 20
-0.67874
 30
0.0
 10
0.12968
 20
-0.7930400000000001
 30
0.0
 10
-0.23861
 20
-0.40696
 30
0.0
 10
-0.23861
 20
-0.40696
 30
0.0
 10
-0.23861
 20
-0.40696
 30
0.0
 10
-0.45451
 20
-0.26472
 30
0.0
 10
-0.45451
 20
-0.26472
 30
0.0
 10
-0.45451
 20
-0.26472
 30
0.0
 10
-0.6831100000000001
 20
-0.13518
 30
0.0
 10
-0.9244100000000001
 20
-0.02088
 30
0.0
 10
-1.1809500000000002
 20
0.06293
 30
0.0
 10
-1.1809500000000002
 20
0.06293
 30
0.0
 10
-0.9828300000000001
 20
-0.19106
 30
0.0
 10
-0.55357
 20
-0.19106
 30
0.0
 10
-0.32497
 20
-0.46284
 30
0.0
 10
-0.32497
 20
-0.46284
 30
0.0
 10
-0.25385
 20
-0.5771400000000001
 30
0.0
 10
-0.06843
 20
-0.6482600000000001
 30
0.0
 10
-0.06843
 20
-0.7930400000000001
 30
0.0
 10
-0.06843
 20
-0.7930400000000001
 30
0.0
 10
-0.21067
 20
-0.7498600000000001
 30
0.0
 10
-0.32497
 20
-0.7778000000000001
 30
0.0
 10
-0.46721
 20
-0.8489200000000001
 30
0.0
 10
-0.46721
 20
-0.8489200000000001
 30
0.0
 10
-1.0971300000000002
 20
-0.03612
 30
0.0
 10
-2.30871
 20
0.5912500000000001
 30
0.0
 10
-2.1232900000000003
 20
1.5894700000000002
 30
0.0
 10
-2.1232900000000003
 20
1.5894700000000002
 30
0.0
 10
-2.0674100000000002
 20
1.6199500000000002
 30
0.0
 10
-1.9962900000000001
 20
1.5335900000000002
 30
0.0
 10
-1.9810500000000002
 20
1.5894700000000002
 30
0.0
 10
-1.9810500000000002
 20
1.5894700000000002
 30
0.0
 10
-2.0801100000000003
 20
1.8891900000000001
 30
0.0
 10
-2.0521700000000003
 20
2.2320900000000004
 30
0.0
 10
-1.8667500000000001
 20
2.4886300000000001
 30
0.0
 10
-1.8667500000000001
 20
2.4886300000000001
 30
0.0
 10
-1.8388100000000001
 20
2.8035900000000002
 30
0.0
 10
-2.1817100000000003
 20
2.4327500000000004
 30
0.0
 10
-2.2528300000000003
 20
2.3184500000000003
 30
0.0
 10
-2.2528300000000003
 20
2.3184500000000003
 30
0.0
 10
-2.2248900000000003
 20
2.0619100000000001
 30
0.0
 10
-2.5652500000000003
 20
2.26003
 30
0.0
 10
-2.6084300000000002
 20
2.3311500000000001
 30
0.0
 10
-2.6084300000000002
 20
2.3311500000000001
 30
0.0
 10
-2.52461
 20
2.5749900000000001
 30
0.0
 10
-2.0369300000000004
 20
2.34639
 30
0.0
 10
-2.0801100000000003
 20
2.7324700000000002
 30
0.0
 10
-2.0801100000000003
 20
2.7324700000000002
 30
0.0
 10
-2.5373100000000002
 20
2.9178900000000003
 30
0.0
 10
-2.2248900000000003
 20
3.5452700000000004
 30
0.0
 10
-2.1232900000000003
 20
3.8449900000000001
 30
0.0
 10
-2.1232900000000003
 20
3.8449900000000001
 30
0.0
 10
-2.4661900000000001
 20
3.5020900000000004
 30
0.0
 10
-2.3366500000000001
 20
2.7451700000000003
 30
0.0
 10
-2.7659100000000003
 20
2.6029300000000002
 30
0.0
 10
-2.7659100000000003
 20
2.6029300000000002
 30
0.0
 10
-3.0808700000000004
 20
2.6740500000000003
 30
0.0
 10
-2.8370300000000004
 20
2.97377
 30
0.0
 10
-2.8522700000000003
 20
3.1591900000000002
 30
0.0
 10
-2.8522700000000003
 20
3.1591900000000002
 30
0.0
 10
-3.1088100000000001
 20
3.1033100000000005
 30
0.0
 10
-3.1519900000000001
 20
2.7019900000000003
 30
0.0
 10
-3.4034500000000003
 20
2.9890100000000004
 30
0.0
 10
-3.4034500000000003
 20
2.9890100000000004
 30
0.0
 10
-3.0376900000000004
 20
2.2473300000000003
 30
0.0
 10
-3.8885900000000002
 20
3.1871300000000002
 30
0.0
 10
-4.2899100000000008
 20
3.0448900000000001
 30
0.0
 10
-4.2899100000000008
 20
3.0448900000000001
 30
0.0
 10
-4.3889700000000005
 20
2.9026500000000004
 30
0.0
 10
-4.2162500000000005
 20
2.8035900000000002
 30
0.0
 10
-4.2086300000000003
 20
2.6588100000000003
 30
0.0
  0
SPLINE
  5
29
100
AcDbEntity
  8
Ebene 1
 62
     7
100
AcDbSpline
210
0.0
220
0.0
230
1.0
 70
     1
 71
     3
 72
    52
 73
    48
 74
     0
 42
0.0000000001
 43
0.0000000001
 40
0.0
 40
0.0
 40
0.0
 40
0.0
 40
0.0833333333333333
 40
0.0833333333333333
 40
0.0833333333333333
 40
0.0833333333333333
 40
0.1666666666666667
 40
0.1666666666666667
 40
0.1666666666666667
 40
0.1666666666666667
 40
0.25
 40
0.25
 40
0.25
 40
0.25
 40
0.3333333333333333
 40
0.3333333333333333
 40
0.3333333333333333
 40
0.3333333333333333
 40
0.4166666666666666
 40
0.4166666666666666
 40
0.4166666666666666
 40
0.4166666666666666
 40
0.4999999999999999
 40
0.4999999999999999
 40
0.4999999999999999
 40
0.4999999999999999
 40
0.5833333333333333
 40
0.5833333333333333
 40
0.5833333333333333
 40
0.5833333333333333
 40
0.6666666666666666
 40
0.6666666666666666
 40
0.6666666666666666
 40
0.6666666666666666
 40
0.75
 40
0.75
 40
0.75
 40
0.75
 40
0.8333333333333334
 40
0.8333333333333334
 40
0.8333333333333334
 40
0.8333333333333334
 40
0.9166666666666667
 40
0.9166666666666667
 40
0.9166666666666667
 40
0.9166666666666667
 40
1.0
 40
1.0
 40
1.0
 40
1.0
 10
-0.9244100000000001
 20
5.7855500000000006
 30
0.0
 10
-0.9244100000000001
 20
5.7855500000000006
 30
0.0
 10
-1.08189
 20
5.6585500000000009
 30
0.0
 10
-1.08189
 20
5.6585500000000009
 30
0.0
 10
-1.08189
 20
5.6585500000000009
 30
0.0
 10
-1.9810500000000002
 20
5.3867700000000003
 30
0.0
 10
-2.0801100000000003
 20
4.3174300000000008
 30
0.0
 10
-2.8802100000000004
 20
3.9592900000000002
 30
0.0
 10
-2.8802100000000004
 20
3.9592900000000002
 30
0.0
 10
-2.9945100000000004
 20
3.8602300000000005
 30
0.0
 10
-2.8522700000000003
 20
3.8881700000000001
 30
0.0
 10
-2.8090900000000003
 20
3.8729300000000002
 30
0.0
 10
-2.8090900000000003
 20
3.8729300000000002
 30
0.0
 10
-2.7811500000000002
 20
3.9034100000000005
 30
0.0
 10
-2.7379700000000002
 20
3.9313500000000001
 30
0.0
 10
-2.6947900000000002
 20
3.9313500000000001
 30
0.0
 10
-2.6947900000000002
 20
3.9313500000000001
 30
0.0
 10
-2.8802100000000004
 20
3.6595700000000004
 30
0.0
 10
-3.2383500000000001
 20
3.6011500000000001
 30
0.0
 10
-3.5075900000000004
 20
3.5579700000000001
 30
0.0
 10
-3.5075900000000004
 20
3.5579700000000001
 30
0.0
 10
-3.3882100000000004
 20
3.7027500000000004
 30
0.0
 10
-3.1519900000000001
 20
3.7459300000000004
 30
0.0
 10
-3.0224500000000001
 20
3.8881700000000001
 30
0.0
 10
-3.0224500000000001
 20
3.8881700000000001
 30
0.0
 10
-3.0224500000000001
 20
3.8881700000000001
 30
0.0
 10
-3.1519900000000001
 20
3.8449900000000001
 30
0.0
 10
-3.1519900000000001
 20
3.8449900000000001
 30
0.0
 10
-3.1519900000000001
 20
3.8449900000000001
 30
0.0
 10
-3.1519900000000001
 20
3.8449900000000001
 30
0.0
 10
-3.3374100000000002
 20
3.7738700000000005
 30
0.0
 10
-3.3374100000000002
 20
3.7738700000000005
 30
0.0
 10
-3.3374100000000002
 20
3.7738700000000005
 30
0.0
 10
-3.2662900000000001
 20
4.20059
 30
0.0
 10
-2.9945100000000004
 20
4.6450900000000006
 30
0.0
 10
-2.6389100000000001
 20
4.9168700000000003
 30
0.0
 10
-2.6389100000000001
 20
4.9168700000000003
 30
0.0
 10
-2.6389100000000001
 20
4.9168700000000003
 30
0.0
 10
-2.7100300000000002
 20
4.8152700000000008
 30
0.0
 10
-2.7100300000000002
 20
4.8152700000000008
 30
0.0
 10
-2.7100300000000002
 20
4.8152700000000008
 30
0.0
 10
-2.8370300000000004
 20
4.5866700000000007
 30
0.0
 10
-3.2815300000000001
 20
4.2742500000000003
 30
0.0
 10
-2.9513300000000005
 20
4.0456500000000002
 30
0.0
 10
-2.9513300000000005
 20
4.0456500000000002
 30
0.0
 10
-2.8090900000000003
 20
4.8584500000000004
 30
0.0
 10
-1.8515100000000002
 20
5.68649
 30
0.0
 10
-0.9244100000000001
 20
5.7855500000000006
 30
0.0
  0
SPLINE
  5
2A
100
AcDbEntity
  8
Ebene 1
100
AcDbSpline
210
0.0
220
0.0
230
1.0
 70
     1
 71
     3
 72
    56
 73
    52
 74
     0
 42
0.0000000001
 43
0.0000000001
 40
0.0
 40
0.0
 40
0.0
 40
0.0
 40
0.0769230769230769
 40
0.0769230769230769
 40
0.0769230769230769
 40
0.0769230769230769
 40
0.1538461538461539
 40
0.1538461538461539
 40
0.1538461538461539
 40
0.1538461538461539
 40
0.2307692307692308
 40
0.2307692307692308
 40
0.2307692307692308
 40
0.2307692307692308
 40
0.3076923076923077
 40
0.3076923076923077
 40
0.3076923076923077
 40
0.3076923076923077
 40
0.3846153846153846
 40
0.3846153846153846
 40
0.3846153846153846
 40
0.3846153846153846
 40
0.4615384615384616
 40
0.4615384615384616
 40
0.4615384615384616
 40
0.4615384615384616
 40
0.5384615384615386
 40
0.5384615384615386
 40
0.5384615384615386
 40
0.5384615384615386
 40
0.6153846153846154
 40
0.6153846153846154
 40
0.6153846153846154
 40
0.6153846153846154
 40
0.6923076923076923
 40
0.6923076923076923
 40
0.6923076923076923
 40
0.6923076923076923
 40
0.7692307692307692
 40
0.7692307692307692
 40
0.7692307692307692
 40
0.7692307692307692
 40
0.846153846153846
 40
0.846153846153846
 40
0.846153846153846
 40
0.846153846153846
 40
0.9230769230769229
 40
0.9230769230769229
 40
0.9230769230769229
 40
0.9230769230769229
 40
1.0
 40
1.0
 40
1.0
 40
1.0
 10
-0.11161
 20
5.5721900000000009
 30
0.0
 10
-0.63993
 20
5.0997500000000002
 30
0.0
 10
-1.7803900000000001
 20
4.45967
 30
0.0
 10
-1.6813300000000002
 20
3.4589100000000004
 30
0.0
 10
-1.6813300000000002
 20
3.4589100000000004
 30
0.0
 10
-1.6813300000000002
 20
3.4589100000000004
 30
0.0
 10
-1.16825
 20
3.6443300000000005
 30
0.0
 10
-1.16825
 20
3.6443300000000005
 30
0.0
 10
-1.16825
 20
3.6443300000000005
 30
0.0
 10
-1.29525
 20
3.4182700000000001
 30
0.0
 10
-1.3663700000000001
 20
3.4030300000000002
 30
0.0
 10
-1.5949700000000002
 20
3.2455500000000002
 30
0.0
 10
-1.5949700000000002
 20
3.2455500000000002
 30
0.0
 10
-1.38161
 20
3.1744300000000001
 30
0.0
 10
-1.4679700000000002
 20
3.0169500000000005
 30
0.0
 10
-1.4959100000000001
 20
2.8315300000000003
 30
0.0
 10
-1.4959100000000001
 20
2.8315300000000003
 30
0.0
 10
-1.0666500000000001
 20
3.1464900000000005
 30
0.0
 10
-0.65263
 20
3.3877900000000003
 30
0.0
 10
-0.21067
 20
3.4309700000000003
 30
0.0
 10
-0.21067
 20
3.4309700000000003
 30
0.0
 10
-0.21067
 20
3.4309700000000003
 30
0.0
 10
0.18556
 20
3.6316300000000004
 30
0.0
 10
0.18556
 20
3.6316300000000004
 30
0.0
 10
0.18556
 20
3.6316300000000004
 30
0.0
 10
-0.3960900000000001
 20
2.9178900000000003
 30
0.0
 10
-1.6965700000000001
 20
3.0169500000000005
 30
0.0
 10
-1.8083300000000002
 20
1.9907900000000001
 30
0.0
 10
-1.8083300000000002
 20
1.9907900000000001
 30
0.0
 10
-1.8515100000000002
 20
1.9323700000000001
 30
0.0
 10
-1.8235700000000001
 20
1.7748900000000001
 30
0.0
 10
-1.9226300000000001
 20
1.8333100000000002
 30
0.0
 10
-1.9226300000000001
 20
1.8333100000000002
 30
0.0
 10
-1.9378700000000002
 20
2.1050900000000001
 30
0.0
 10
-1.8515100000000002
 20
2.3743300000000001
 30
0.0
 10
-1.7397500000000001
 20
2.6181700000000001
 30
0.0
 10
-1.7397500000000001
 20
2.6181700000000001
 30
0.0
 10
-1.8946900000000002
 20
2.6892900000000002
 30
0.0
 10
-1.8667500000000001
 20
2.9610700000000003
 30
0.0
 10
-1.6813300000000002
 20
2.9458300000000004
 30
0.0
 10
-1.6813300000000002
 20
2.9458300000000004
 30
0.0
 10
-1.6660900000000001
 20
3.0753700000000004
 30
0.0
 10
-1.7676900000000002
 20
2.9178900000000003
 30
0.0
 10
-1.8235700000000001
 20
3.0448900000000001
 30
0.0
 10
-1.8235700000000001
 20
3.0448900000000001
 30
0.0
 10
-1.8667500000000001
 20
3.1312500000000001
 30
0.0
 10
-1.7956300000000001
 20
3.1744300000000001
 30
0.0
 10
-1.7676900000000002
 20
3.2455500000000002
 30
0.0
 10
-1.7676900000000002
 20
3.2455500000000002
 30
0.0
 10
-2.0674100000000002
 20
4.3580700000000006
 30
0.0
 10
-1.0234700000000001
 20
5.1302300000000001
 30
0.0
 10
-0.11161
 20
5.5721900000000009
 30
0.0
  0
SPLINE
  5
2B
100
AcDbEntity
  8
Ebene 1
 62
     7
100
AcDbSpline
210
0.0
220
0.0
230
1.0
 70
     1
 71
     3
 72
    60
 73
    56
 74
     0
 42
0.0000000001
 43
0.0000000001
 40
0.0
 40
0.0
 40
0.0
 40
0.0
 40
0.0714285714285714
 40
0.0714285714285714
 40
0.0714285714285714
 40
0.0714285714285714
 40
0.1428571428571429
 40
0.1428571428571429
 40
0.1428571428571429
 40
0.1428571428571429
 40
0.2142857142857143
 40
0.2142857142857143
 40
0.2142857142857143
 40
0.2142857142857143
 40
0.2857142857142857
 40
0.2857142857142857
 40
0.2857142857142857
 40
0.2857142857142857
 40
0.3571428571428571
 40
0.3571428571428571
 40
0.3571428571428571
 40
0.3571428571428571
 40
0.4285714285714285
 40
0.4285714285714285
 40
0.4285714285714285
 40
0.4285714285714285
 40
0.4999999999999999
 40
0.4999999999999999
 40
0.4999999999999999
 40
0.4999999999999999
 40
0.5714285714285713
 40
0.5714285714285713
 40
0.5714285714285713
 40
0.5714285714285713
 40
0.6428571428571427
 40
0.6428571428571427
 40
0.6428571428571427
 40
0.6428571428571427
 40
0.7142857142857141
 40
0.7142857142857141
 40
0.7142857142857141
 40
0.7142857142857141
 40
0.7857142857142855
 40
0.7857142857142855
 40
0.7857142857142855
 40
0.7857142857142855
 40
0.8571428571428569
 40
0.8571428571428569
 40
0.8571428571428569
 40
0.8571428571428569
 40
0.9285714285714283
 40
0.9285714285714283
 40
0.9285714285714283
 40
0.9285714285714283
 40
1.0
 40
1.0
 40
1.0
 40
1.0
 10
2.1566000000000001
 20
4.8152700000000008
 30
0.0
 10
2.3420200000000002
 20
4.6730300000000007
 30
0.0
 10
2.5274400000000004
 20
4.7720900000000004
 30
0.0
 10
2.71286
 20
4.6298500000000002
 30
0.0
 10
2.71286
 20
4.6298500000000002
 30
0.0
 10
2.71286
 20
4.6298500000000002
 30
0.0
 10
2.7687400000000002
 20
4.7162100000000002
 30
0.0
 10
2.7687400000000002
 20
4.7162100000000002
 30
0.0
 10
2.7687400000000002
 20
4.7162100000000002
 30
0.0
 10
2.8424
 20
4.5866700000000007
 30
0.0
 10
2.9414600000000002
 20
4.6577900000000003
 30
0.0
 10
3.0278200000000002
 20
4.7162100000000002
 30
0.0
 10
3.0278200000000002
 20
4.7162100000000002
 30
0.0
 10
3.2259400000000005
 20
4.6298500000000002
 30
0.0
 10
3.3986600000000005
 20
4.5155500000000002
 30
0.0
 10
3.5840800000000002
 20
4.4012500000000001
 30
0.0
 10
3.5840800000000002
 20
4.4012500000000001
 30
0.0
 10
4.0971600000000006
 20
4.4723700000000006
 30
0.0
 10
4.3689400000000003
 20
3.6875100000000005
 30
0.0
 10
4.2114600000000006
 20
3.1033100000000005
 30
0.0
 10
4.2114600000000006
 20
3.1033100000000005
 30
0.0
 10
4.2114600000000006
 20
3.1033100000000005
 30
0.0
 10
3.5840800000000002
 20
3.8170500000000005
 30
0.0
 10
3.5840800000000002
 20
3.8170500000000005
 30
0.0
 10
3.5840800000000002
 20
3.8170500000000005
 30
0.0
 10
3.2411800000000004
 20
3.9745300000000001
 30
0.0
 10
2.9567000000000001
 20
4.1294700000000004
 30
0.0
 10
2.5706200000000003
 20
4.2158300000000004
 30
0.0
 10
2.5706200000000003
 20
4.2158300000000004
 30
0.0
 10
2.4563200000000003
 20
4.17265
 30
0.0
 10
2.3420200000000002
 20
4.1447100000000008
 30
0.0
 10
2.2404200000000003
 20
4.08629
 30
0.0
 10
2.2404200000000003
 20
4.08629
 30
0.0
 10
2.0702400000000001
 20
4.2158300000000004
 30
0.0
 10
1.9838800000000001
 20
4.0024700000000006
 30
0.0
 10
1.8416400000000002
 20
4.0456500000000002
 30
0.0
 10
1.8416400000000002
 20
4.0456500000000002
 30
0.0
 10
1.8416400000000002
 20
4.0456500000000002
 30
0.0
 10
1.8137000000000001
 20
3.8881700000000001
 30
0.0
 10
1.8137000000000001
 20
3.8881700000000001
 30
0.0
 10
1.8137000000000001
 20
3.8881700000000001
 30
0.0
 10
1.7121000000000002
 20
4.0304100000000007
 30
0.0
 10
1.4987400000000002
 20
4.0735900000000003
 30
0.0
 10
1.48604
 20
4.3021900000000004
 30
0.0
 10
1.48604
 20
4.3021900000000004
 30
0.0
 10
1.5139800000000001
 20
4.34537
 30
0.0
 10
1.5419200000000002
 20
4.25901
 30
0.0
 10
1.5851000000000002
 20
4.28695
 30
0.0
 10
1.5851000000000002
 20
4.28695
 30
0.0
 10
1.61304
 20
4.5587300000000006
 30
0.0
 10
1.7857600000000002
 20
4.7162100000000002
 30
0.0
 10
2.0270600000000001
 20
4.6450900000000006
 30
0.0
 10
2.0270600000000001
 20
4.6450900000000006
 30
0.0
 10
1.9711800000000002
 20
4.8584500000000004
 30
0.0
 10
2.2124800000000002
 20
4.6146100000000008
 30
0.0
 10
2.1566000000000001
 20
4.8152700000000008
 30
0.0
  0
SPLINE
  5
2C
100
AcDbEntity
  8
Ebene 1
100
AcDbSpline
210
0.0
220
0.0
230
1.0
 70
     1
 71
     3
 72
    16
 73
    12
 74
     0
 42
0.0000000001
 43
0.0000000001
 40
0.0
 40
0.0
 40
0.0
 40
0.0
 40
0.3333333333333333
 40
0.3333333333333333
 40
0.3333333333333333
 40
0.3333333333333333
 40
0.6666666666666666
 40
0.6666666666666666
 40
0.6666666666666666
 40
0.6666666666666666
 40
1.0
 40
1.0
 40
1.0
 40
1.0
 10
-2.0521700000000003
 20
4.37331
 30
0.0
 10
-2.0369300000000004
 20
4.37331
 30
0.0
 10
-2.0089900000000003
 20
4.3580700000000006
 30
0.0
 10
-2.0242300000000002
 20
4.34537
 30
0.0
 10
-2.0242300000000002
 20
4.34537
 30
0.0
 10
-2.2528300000000003
 20
4.0177100000000001
 30
0.0
 10
-2.3239500000000004
 20
3.6011500000000001
 30
0.0
 10
-2.6236700000000002
 20
3.3014300000000003
 30
0.0
 10
-2.6236700000000002
 20
3.3014300000000003
 30
0.0
 10
-2.4509500000000002
 20
3.6595700000000004
 30
0.0
 10
-2.30871
 20
4.0735900000000003
 30
0.0
 10
-2.0521700000000003
 20
4.37331
 30
0.0
  0
SPLINE
  5
2D
100
AcDbEntity
  8
Ebene 1
 62
     7
100
AcDbSpline
210
0.0
220
0.0
230
1.0
 70
     1
 71
     3
 72
    80
 73
    76
 74
     0
 42
0.0000000001
 43
0.0000000001
 40
0.0
 40
0.0
 40
0.0
 40
0.0
 40
0.0526315789473684
 40
0.0526315789473684
 40
0.0526315789473684
 40
0.0526315789473684
 40
0.1052631578947368
 40
0.1052631578947368
 40
0.1052631578947368
 40
0.1052631578947368
 40
0.1578947368421053
 40
0.1578947368421053
 40
0.1578947368421053
 40
0.1578947368421053
 40
0.2105263157894737
 40
0.2105263157894737
 40
0.2105263157894737
 40
0.2105263157894737
 40
0.2631578947368421
 40
0.2631578947368421
 40
0.2631578947368421
 40
0.2631578947368421
 40
0.3157894736842105
 40
0.3157894736842105
 40
0.3157894736842105
 40
0.3157894736842105
 40
0.3684210526315789
 40
0.3684210526315789
 40
0.3684210526315789
 40
0.3684210526315789
 40
0.4210526315789474
 40
0.4210526315789474
 40
0.4210526315789474
 40
0.4210526315789474
 40
0.4736842105263158
 40
0.4736842105263158
 40
0.4736842105263158
 40
0.4736842105263158
 40
0.5263157894736842
 40
0.5263157894736842
 40
0.5263157894736842
 40
0.5263157894736842
 40
0.5789473684210527
 40
0.5789473684210527
 40
0.5789473684210527
 40
0.5789473684210527
 40
0.631578947368421
 40
0.631578947368421
 40
0.631578947368421
 40
0.631578947368421
 40
0.6842105263157894
 40
0.6842105263157894
 40
0.6842105263157894
 40
0.6842105263157894
 40
0.7368421052631577
 40
0.7368421052631577
 40
0.7368421052631577
 40
0.7368421052631577
 40
0.7894736842105261
 40
0.7894736842105261
 40
0.7894736842105261
 40
0.7894736842105261
 40
0.8421052631578945
 40
0.8421052631578945
 40
0.8421052631578945
 40
0.8421052631578945
 40
0.8947368421052628
 40
0.8947368421052628
 40
0.8947368421052628
 40
0.8947368421052628
 40
0.9473684210526312
 40
0.9473684210526312
 40
0.9473684210526312
 40
0.9473684210526312
 40
1.0
 40
1.0
 40
1.0
 40
1.0
 10
2.1566000000000001
 20
4.0024700000000006
 30
0.0
 10
2.3420200000000002
 20
3.8602300000000005
 30
0.0
 10
2.4995000000000003
 20
3.7154500000000001
 30
0.0
 10
2.7255600000000002
 20
3.5884500000000004
 30
0.0
 10
2.7255600000000002
 20
3.5884500000000004
 30
0.0
 10
2.6112600000000001
 20
3.2303100000000002
 30
0.0
 10
2.9973400000000003
 20
2.93059
 30
0.0
 10
3.2970600000000001
 20
2.8315300000000003
 30
0.0
 10
3.2970600000000001
 20
2.8315300000000003
 30
0.0
 10
3.2132400000000003
 20
2.9458300000000004
 30
0.0
 10
2.7839800000000001
 20
3.1033100000000005
 30
0.0
 10
2.9973400000000003
 20
3.3446100000000003
 30
0.0
 10
2.9973400000000003
 20
3.3446100000000003
 30
0.0
 10
2.9973400000000003
 20
3.3446100000000003
 30
0.0
 10
3.1116400000000004
 20
3.2887300000000002
 30
0.0
 10
3.1116400000000004
 20
3.2887300000000002
 30
0.0
 10
3.1116400000000004
 20
3.2887300000000002
 30
0.0
 10
3.2843600000000004
 20
3.4893900000000002
 30
0.0
 10
3.6247200000000004
 20
3.1591900000000002
 30
0.0
 10
3.6552000000000002
 20
3.5325700000000002
 30
0.0
 10
3.6552000000000002
 20
3.5325700000000002
 30
0.0
 10
3.6552000000000002
 20
3.5325700000000002
 30
0.0
 10
4.2114600000000006
 20
3.0448900000000001
 30
0.0
 10
4.2114600000000006
 20
3.0448900000000001
 30
0.0
 10
4.2114600000000006
 20
3.0448900000000001
 30
0.0
 10
4.1124000000000001
 20
3.0321900000000004
 30
0.0
 10
4.1530400000000007
 20
2.8162900000000004
 30
0.0
 10
4.1276400000000004
 20
2.7019900000000003
 30
0.0
 10
4.1276400000000004
 20
2.7019900000000003
 30
0.0
 10
4.0412800000000004
 20
2.8035900000000002
 30
0.0
 10
3.9396800000000005
 20
2.63341
 30
0.0
 10
3.9269800000000004
 20
2.54705
 30
0.0
 10
3.9269800000000004
 20
2.54705
 30
0.0
 10
3.9269800000000004
 20
2.54705
 30
0.0
 10
3.8838000000000004
 20
2.4327500000000004
 30
0.0
 10
3.8838000000000004
 20
2.4327500000000004
 30
0.0
 10
3.8838000000000004
 20
2.4327500000000004
 30
0.0
 10
3.6831400000000003
 20
2.8289900000000001
 30
0.0
 10
3.1192600000000001
 20
2.7705700000000002
 30
0.0
 10
3.4977200000000002
 20
2.2041500000000003
 30
0.0
 10
3.4977200000000002
 20
2.2041500000000003
 30
0.0
 10
3.6399600000000003
 20
2.0746100000000003
 30
0.0
 10
3.6983800000000002
 20
1.8612500000000001
 30
0.0
 10
3.8558600000000003
 20
1.7317100000000001
 30
0.0
 10
3.8558600000000003
 20
1.7317100000000001
 30
0.0
 10
3.8558600000000003
 20
1.7317100000000001
 30
0.0
 10
3.5409000000000002
 20
1.2618100000000001
 30
0.0
 10
3.5409000000000002
 20
1.2618100000000001
 30
0.0
 10
3.5409000000000002
 20
1.2618100000000001
 30
0.0
 10
3.5129600000000001
 20
1.4192900000000002
 30
0.0
 10
3.7974400000000004
 20
1.7748900000000001
 30
0.0
 10
3.4850200000000005
 20
1.7469500000000002
 30
0.0
 10
3.4850200000000005
 20
1.7469500000000002
 30
0.0
 10
3.5409000000000002
 20
1.8333100000000002
 30
0.0
 10
3.5129600000000001
 20
1.9476100000000001
 30
0.0
 10
3.3834200000000001
 20
1.9171300000000002
 30
0.0
 10
3.3834200000000001
 20
1.9171300000000002
 30
0.0
 10
3.3986600000000005
 20
2.26003
 30
0.0
 10
3.1548200000000004
 20
2.4327500000000004
 30
0.0
 10
3.2132400000000003
 20
2.7604100000000003
 30
0.0
 10
3.2132400000000003
 20
2.7604100000000003
 30
0.0
 10
2.9567000000000001
 20
2.8747100000000003
 30
0.0
 10
2.9973400000000003
 20
2.50387
 30
0.0
 10
2.8424
 20
2.6181700000000001
 30
0.0
 10
2.8424
 20
2.6181700000000001
 30
0.0
 10
2.9567000000000001
 20
3.0601300000000005
 30
0.0
 10
2.4283800000000002
 20
3.3014300000000003
 30
0.0
 10
2.3852000000000002
 20
3.7027500000000004
 30
0.0
 10
2.3852000000000002
 20
3.7027500000000004
 30
0.0
 10
2.2836000000000003
 20
3.7586300000000001
 30
0.0
 10
2.1693000000000002
 20
3.8170500000000005
 30
0.0
 10
2.0981800000000002
 20
3.9034100000000005
 30
0.0
 10
2.0981800000000002
 20
3.9034100000000005
 30
0.0
 10
2.0981800000000002
 20
3.9034100000000005
 30
0.0
 10
2.1566000000000001
 20
4.0024700000000006
 30
0.0
 10
2.1566000000000001
 20
4.0024700000000006
 30
0.0
  0
SPLINE
  5
2E
100
AcDbEntity
  8
Ebene 1
100
AcDbSpline
210
0.0
220
0.0
230
1.0
 70
     1
 71
     3
 72
    44
 73
    40
 74
     0
 42
0.0000000001
 43
0.0000000001
 40
0.0
 40
0.0
 40
0.0
 40
0.0
 40
0.1
 40
0.1
 40
0.1
 40
0.1
 40
0.2
 40
0.2
 40
0.2
 40
0.2
 40
0.3
 40
0.3
 40
0.3
 40
0.3
 40
0.4
 40
0.4
 40
0.4
 40
0.4
 40
0.5
 40
0.5
 40
0.5
 40
0.5
 40
0.6
 40
0.6
 40
0.6
 40
0.6
 40
0.7
 40
0.7
 40
0.7
 40
0.7
 40
0.7999999999999999
 40
0.7999999999999999
 40
0.7999999999999999
 40
0.7999999999999999
 40
0.8999999999999999
 40
0.8999999999999999
 40
0.8999999999999999
 40
0.8999999999999999
 40
1.0
 40
1.0
 40
1.0
 40
1.0
 10
0.69864
 20
3.7306900000000005
 30
0.0
 10
0.7291200000000001
 20
3.7459300000000004
 30
0.0
 10
0.7723000000000001
 20
3.7154500000000001
 30
0.0
 10
0.7291200000000001
 20
3.7027500000000004
 30
0.0
 10
0.7291200000000001
 20
3.7027500000000004
 30
0.0
 10
0.7138800000000001
 20
3.6875100000000005
 30
0.0
 10
0.658
 20
3.6748100000000004
 30
0.0
 10
0.6707000000000001
 20
3.6316300000000004
 30
0.0
 10
0.6707000000000001
 20
3.6316300000000004
 30
0.0
 10
0.87136
 20
3.6443300000000005
 30
0.0
 10
1.0847200000000001
 20
3.6316300000000004
 30
0.0
 10
1.2142600000000001
 20
3.4741500000000003
 30
0.0
 10
1.2142600000000001
 20
3.4741500000000003
 30
0.0
 10
1.39968
 20
3.4589100000000004
 30
0.0
 10
1.3285600000000002
 20
3.2887300000000002
 30
0.0
 10
1.2574400000000001
 20
3.1871300000000002
 30
0.0
 10
1.2574400000000001
 20
3.1871300000000002
 30
0.0
 10
1.1710800000000001
 20
3.1744300000000001
 30
0.0
 10
1.14314
 20
3.2303100000000002
 30
0.0
 10
1.1279000000000001
 20
3.3014300000000003
 30
0.0
 10
1.1279000000000001
 20
3.3014300000000003
 30
0.0
 10
0.9577200000000001
 20
3.2023700000000002
 30
0.0
 10
0.8866000000000001
 20
3.5579700000000001
 30
0.0
 10
0.74182
 20
3.3014300000000003
 30
0.0
 10
0.74182
 20
3.3014300000000003
 30
0.0
 10
0.74182
 20
3.3014300000000003
 30
0.0
 10
0.64276
 20
3.3750900000000001
 30
0.0
 10
0.64276
 20
3.3750900000000001
 30
0.0
 10
0.64276
 20
3.3750900000000001
 30
0.0
 10
0.0865
 20
3.3319100000000001
 30
0.0
 10
-0.36815
 20
2.7756500000000002
 30
0.0
 10
-0.90917
 20
2.7883500000000003
 30
0.0
 10
-0.90917
 20
2.7883500000000003
 30
0.0
 10
-0.6831100000000001
 20
2.9890100000000004
 30
0.0
 10
-0.35545
 20
3.0169500000000005
 30
0.0
 10
-0.09637
 20
3.2023700000000002
 30
0.0
 10
-0.09637
 20
3.2023700000000002
 30
0.0
 10
-0.09637
 20
3.2023700000000002
 30
0.0
 10
0.69864
 20
3.7306900000000005
 30
0.0
 10
0.69864
 20
3.7306900000000005
 30
0.0
  0
SPLINE
  5
2F
100
AcDbEntity
  8
Ebene 1
 62
     7
100
AcDbSpline
210
0.0
220
0.0
230
1.0
 70
     1
 71
     3
 72
    40
 73
    36
 74
     0
 42
0.0000000001
 43
0.0000000001
 40
0.0
 40
0.0
 40
0.0
 40
0.0
 40
0.1111111111111111
 40
0.1111111111111111
 40
0.1111111111111111
 40
0.1111111111111111
 40
0.2222222222222222
 40
0.2222222222222222
 40
0.2222222222222222
 40
0.2222222222222222
 40
0.3333333333333333
 40
0.3333333333333333
 40
0.3333333333333333
 40
0.3333333333333333
 40
0.4444444444444444
 40
0.4444444444444444
 40
0.4444444444444444
 40
0.4444444444444444
 40
0.5555555555555556
 40
0.5555555555555556
 40
0.5555555555555556
 40
0.5555555555555556
 40
0.6666666666666667
 40
0.6666666666666667
 40
0.6666666666666667
 40
0.6666666666666667
 40
0.7777777777777779
 40
0.7777777777777779
 40
0.7777777777777779
 40
0.7777777777777779
 40
0.8888888888888891
 40
0.8888888888888891
 40
0.8888888888888891
 40
0.8888888888888891
 40
1.0
 40
1.0
 40
1.0
 40
1.0
 10
2.1566000000000001
 20
3.7306900000000005
 30
0.0
 10
2.3699600000000003
 20
3.7154500000000001
 30
0.0
 10
2.2988400000000002
 20
3.5020900000000004
 30
0.0
 10
2.3979000000000004
 20
3.3598500000000002
 30
0.0
 10
2.3979000000000004
 20
3.3598500000000002
 30
0.0
 10
2.8271600000000001
 20
3.1160100000000002
 30
0.0
 10
2.7408000000000001
 20
2.63341
 30
0.0
 10
2.8551000000000002
 20
2.2473300000000003
 30
0.0
 10
2.8551000000000002
 20
2.2473300000000003
 30
0.0
 10
2.8551000000000002
 20
2.2473300000000003
 30
0.0
 10
2.5274400000000004
 20
1.4319900000000001
 30
0.0
 10
2.5274400000000004
 20
1.4319900000000001
 30
0.0
 10
2.5274400000000004
 20
1.4319900000000001
 30
0.0
 10
2.5274400000000004
 20
1.6885300000000001
 30
0.0
 10
2.3140800000000001
 20
2.0619100000000001
 30
0.0
 10
2.0143600000000004
 20
1.9603100000000002
 30
0.0
 10
2.0143600000000004
 20
1.9603100000000002
 30
0.0
 10
2.1845400000000001
 20
2.0898500000000002
 30
0.0
 10
1.8695800000000002
 20
2.21685
 30
0.0
 10
1.9991200000000002
 20
2.4327500000000004
 30
0.0
 10
1.9991200000000002
 20
2.4327500000000004
 30
0.0
 10
2.1693000000000002
 20
2.4886300000000001
 30
0.0
 10
2.3979000000000004
 20
2.2879700000000001
 30
0.0
 10
2.4410800000000004
 20
2.5749900000000001
 30
0.0
 10
2.4410800000000004
 20
2.5749900000000001
 30
0.0
 10
2.3979000000000004
 20
2.6740500000000003
 30
0.0
 10
2.4283800000000002
 20
2.7604100000000003
 30
0.0
 10
2.2836000000000003
 20
2.7883500000000003
 30
0.0
 10
2.2836000000000003
 20
2.7883500000000003
 30
0.0
 10
2.3699600000000003
 20
2.97377
 30
0.0
 10
2.1997800000000001
 20
2.93059
 30
0.0
 10
2.1261200000000002
 20
3.0601300000000005
 30
0.0
 10
2.1261200000000002
 20
3.0601300000000005
 30
0.0
 10
2.2124800000000002
 20
3.2734900000000002
 30
0.0
 10
2.1566000000000001
 20
3.5173300000000003
 30
0.0
 10
2.1566000000000001
 20
3.7306900000000005
 30
0.0
  0
SPLINE
  5
30
100
AcDbEntity
  8
Ebene 1
100
AcDbSpline
210
0.0
220
0.0
230
1.0
 70
     1
 71
     3
 72
    36
 73
    32
 74
     0
 42
0.0000000001
 43
0.0000000001
 40
0.0
 40
0.0
 40
0.0
 40
0.0
 40
0.125
 40
0.125
 40
0.125
 40
0.125
 40
0.25
 40
0.25
 40
0.25
 40
0.25
 40
0.375
 40
0.375
 40
0.375
 40
0.375
 40
0.5
 40
0.5
 40
0.5
 40
0.5
 40
0.625
 40
0.625
 40
0.625
 40
0.625
 40
0.75
 40
0.75
 40
0.75
 40
0.75
 40
0.875
 40
0.875
 40
0.875
 40
0.875
 40
1.0
 40
1.0
 40
1.0
 40
1.0
 10
1.4708000000000001
 20
3.2734900000000002
 30
0.0
 10
1.61304
 20
2.97377
 30
0.0
 10
1.6003400000000001
 20
2.5597500000000002
 30
0.0
 10
1.4987400000000002
 20
2.26003
 30
0.0
 10
1.4987400000000002
 20
2.26003
 30
0.0
 10
1.4987400000000002
 20
2.26003
 30
0.0
 10
1.44286
 20
2.2879700000000001
 30
0.0
 10
1.44286
 20
2.2879700000000001
 30
0.0
 10
1.44286
 20
2.2879700000000001
 30
0.0
 10
1.44286
 20
2.3184500000000003
 30
0.0
 10
1.44286
 20
2.34639
 30
0.0
 10
1.4555600000000002
 20
2.3743300000000001
 30
0.0
 10
1.4555600000000002
 20
2.3743300000000001
 30
0.0
 10
1.4555600000000002
 20
2.3743300000000001
 30
0.0
 10
1.4149200000000002
 20
2.4327500000000004
 30
0.0
 10
1.4149200000000002
 20
2.4327500000000004
 30
0.0
 10
1.4149200000000002
 20
2.4327500000000004
 30
0.0
 10
1.4149200000000002
 20
2.4759300000000004
 30
0.0
 10
1.44286
 20
2.5191100000000004
 30
0.0
 10
1.4555600000000002
 20
2.5597500000000002
 30
0.0
 10
1.4555600000000002
 20
2.5597500000000002
 30
0.0
 10
1.3844400000000001
 20
2.6892900000000002
 30
0.0
 10
1.5419200000000002
 20
2.8315300000000003
 30
0.0
 10
1.4708000000000001
 20
2.97377
 30
0.0
 10
1.4708000000000001
 20
2.97377
 30
0.0
 10
1.5419200000000002
 20
3.0321900000000004
 30
0.0
 10
1.48604
 20
3.1160100000000002
 30
0.0
 10
1.4555600000000002
 20
3.2023700000000002
 30
0.0
 10
1.4555600000000002
 20
3.2023700000000002
 30
0.0
 10
1.4555600000000002
 20
3.2303100000000002
 30
0.0
 10
1.4555600000000002
 20
3.2607900000000001
 30
0.0
 10
1.4708000000000001
 20
3.2734900000000002
 30
0.0
  0
SPLINE
  5
31
100
AcDbEntity
  8
Ebene 1
100
AcDbSpline
210
0.0
220
0.0
230
1.0
 70
     1
 71
     3
 72
    52
 73
    48
 74
     0
 42
0.0000000001
 43
0.0000000001
 40
0.0
 40
0.0
 40
0.0
 40
0.0
 40
0.0833333333333333
 40
0.0833333333333333
 40
0.0833333333333333
 40
0.0833333333333333
 40
0.1666666666666667
 40
0.1666666666666667
 40
0.1666666666666667
 40
0.1666666666666667
 40
0.25
 40
0.25
 40
0.25
 40
0.25
 40
0.3333333333333333
 40
0.3333333333333333
 40
0.3333333333333333
 40
0.3333333333333333
 40
0.4166666666666666
 40
0.4166666666666666
 40
0.4166666666666666
 40
0.4166666666666666
 40
0.4999999999999999
 40
0.4999999999999999
 40
0.4999999999999999
 40
0.4999999999999999
 40
0.5833333333333333
 40
0.5833333333333333
 40
0.5833333333333333
 40
0.5833333333333333
 40
0.6666666666666666
 40
0.6666666666666666
 40
0.6666666666666666
 40
0.6666666666666666
 40
0.75
 40
0.75
 40
0.75
 40
0.75
 40
0.8333333333333334
 40
0.8333333333333334
 40
0.8333333333333334
 40
0.8333333333333334
 40
0.9166666666666667
 40
0.9166666666666667
 40
0.9166666666666667
 40
0.9166666666666667
 40
1.0
 40
1.0
 40
1.0
 40
1.0
 10
0.658
 20
3.1871300000000002
 30
0.0
 10
0.785
 20
3.1033100000000005
 30
0.0
 10
1.0136000000000001
 20
3.0880700000000001
 30
0.0
 10
1.1583800000000002
 20
2.9458300000000004
 30
0.0
 10
1.1583800000000002
 20
2.9458300000000004
 30
0.0
 10
1.3006200000000001
 20
2.41751
 30
0.0
 10
1.4276200000000001
 20
1.8333100000000002
 30
0.0
 10
1.1710800000000001
 20
1.3329300000000002
 30
0.0
 10
1.1710800000000001
 20
1.3329300000000002
 30
0.0
 10
1.3006200000000001
 20
1.0763900000000002
 30
0.0
 10
1.65622
 20
1.2465700000000002
 30
0.0
 10
1.8416400000000002
 20
1.1170300000000002
 30
0.0
 10
1.8416400000000002
 20
1.1170300000000002
 30
0.0
 10
1.61304
 20
1.1602100000000002
 30
0.0
 10
1.31332
 20
1.0484500000000001
 30
0.0
 10
1.1279000000000001
 20
1.23387
 30
0.0
 10
1.1279000000000001
 20
1.23387
 30
0.0
 10
1.0720200000000002
 20
1.1754500000000001
 30
0.0
 10
1.02884
 20
1.1170300000000002
 30
0.0
 10
0.9577200000000001
 20
1.0763900000000002
 30
0.0
 10
0.9577200000000001
 20
1.0763900000000002
 30
0.0
 10
0.28462
 20
0.9468500000000001
 30
0.0
 10
-0.55357
 20
0.66237
 30
0.0
 10
-1.1961900000000001
 20
1.0916300000000001
 30
0.0
 10
-1.1961900000000001
 20
1.0916300000000001
 30
0.0
 10
-1.1961900000000001
 20
1.0916300000000001
 30
0.0
 10
-1.2800100000000001
 20
0.9468500000000001
 30
0.0
 10
-1.2800100000000001
 20
0.9468500000000001
 30
0.0
 10
-1.2800100000000001
 20
0.9468500000000001
 30
0.0
 10
-1.4095500000000001
 20
1.2186300000000001
 30
0.0
 10
-1.7676900000000002
 20
1.2618100000000001
 30
0.0
 10
-1.9658100000000001
 20
1.4624700000000002
 30
0.0
 10
-1.9658100000000001
 20
1.4624700000000002
 30
0.0
 10
-1.7803900000000001
 20
1.5031100000000002
 30
0.0
 10
-1.5670300000000001
 20
1.3761100000000002
 30
0.0
 10
-1.3943100000000002
 20
1.3049900000000001
 30
0.0
 10
-1.3943100000000002
 20
1.3049900000000001
 30
0.0
 10
-1.6102100000000001
 20
1.6885300000000001
 30
0.0
 10
-1.7676900000000002
 20
2.1609700000000003
 30
0.0
 10
-1.4527300000000001
 20
2.54705
 30
0.0
 10
-1.4527300000000001
 20
2.54705
 30
0.0
 10
-1.4527300000000001
 20
2.54705
 30
0.0
 10
-1.0666500000000001
 20
2.6740500000000003
 30
0.0
 10
-1.0666500000000001
 20
2.6740500000000003
 30
0.0
 10
-1.0666500000000001
 20
2.6740500000000003
 30
0.0
 10
-0.4392700000000001
 20
2.5318100000000001
 30
0.0
 10
0.15762
 20
2.8594700000000004
 30
0.0
 10
0.658
 20
3.1871300000000002
 30
0.0
  0
SPLINE
  5
32
100
AcDbEntity
  8
Ebene 1
 62
     7
100
AcDbSpline
210
0.0
220
0.0
230
1.0
 70
     1
 71
     3
 72
    24
 73
    20
 74
     0
 42
0.0000000001
 43
0.0000000001
 40
0.0
 40
0.0
 40
0.0
 40
0.0
 40
0.2
 40
0.2
 40
0.2
 40
0.2
 40
0.4
 40
0.4
 40
0.4
 40
0.4
 40
0.6000000000000001
 40
0.6000000000000001
 40
0.6000000000000001
 40
0.6000000000000001
 40
0.8
 40
0.8
 40
0.8
 40
0.8
 40
1.0
 40
1.0
 40
1.0
 40
1.0
 10
-3.8504900000000002
 20
2.7172300000000003
 30
0.0
 10
-3.4999700000000002
 20
2.63341
 30
0.0
 10
-3.1799300000000001
 20
2.54705
 30
0.0
 10
-2.8802100000000004
 20
2.34639
 30
0.0
 10
-2.8802100000000004
 20
2.34639
 30
0.0
 10
-2.7811500000000002
 20
2.0898500000000002
 30
0.0
 10
-2.6236700000000002
 20
1.7317100000000001
 30
0.0
 10
-2.82179
 20
1.4751700000000001
 30
0.0
 10
-2.82179
 20
1.4751700000000001
 30
0.0
 10
-2.7811500000000002
 20
1.7748900000000001
 30
0.0
 10
-2.9233900000000004
 20
2.1050900000000001
 30
0.0
 10
-3.0935700000000002
 20
2.3616300000000003
 30
0.0
 10
-3.0935700000000002
 20
2.3616300000000003
 30
0.0
 10
-3.3932900000000004
 20
2.2752700000000003
 30
0.0
 10
-3.6904700000000004
 20
2.54705
 30
0.0
 10
-3.9470100000000001
 20
2.7019900000000003
 30
0.0
 10
-3.9470100000000001
 20
2.7019900000000003
 30
0.0
 10
-3.9470100000000001
 20
2.7019900000000003
 30
0.0
 10
-3.8504900000000002
 20
2.7172300000000003
 30
0.0
 10
-3.8504900000000002
 20
2.7172300000000003
 30
0.0
  0
SPLINE
  5
33
100
AcDbEntity
  8
Ebene 1
 62
     7
100
AcDbSpline
210
0.0
220
0.0
230
1.0
 70
     1
 71
     3
 72
    12
 73
     8
 74
     0
 42
0.0000000001
 43
0.0000000001
 40
0.0
 40
0.0
 40
0.0
 40
0.0
 40
0.5
 40
0.5
 40
0.5
 40
0.5
 40
1.0
 40
1.0
 40
1.0
 40
1.0
 10
-4.0079700000000003
 20
2.46069
 30
0.0
 10
-3.8200100000000003
 20
2.2879700000000001
 30
0.0
 10
-3.6955500000000003
 20
1.9907900000000001
 30
0.0
 10
-3.7361900000000001
 20
1.7317100000000001
 30
0.0
 10
-3.7361900000000001
 20
1.7317100000000001
 30
0.0
 10
-3.8098500000000004
 20
1.9755500000000001
 30
0.0
 10
-3.9851100000000002
 20
2.2041500000000003
 30
0.0
 10
-4.0079700000000003
 20
2.46069
 30
0.0
  0
SPLINE
  5
34
100
AcDbEntity
  8
Ebene 1
 62
     7
100
AcDbSpline
210
0.0
220
0.0
230
1.0
 70
     1
 71
     3
 72
    24
 73
    20
 74
     0
 42
0.0000000001
 43
0.0000000001
 40
0.0
 40
0.0
 40
0.0
 40
0.0
 40
0.2
 40
0.2
 40
0.2
 40
0.2
 40
0.4
 40
0.4
 40
0.4
 40
0.4
 40
0.6000000000000001
 40
0.6000000000000001
 40
0.6000000000000001
 40
0.6000000000000001
 40
0.8
 40
0.8
 40
0.8
 40
0.8
 40
1.0
 40
1.0
 40
1.0
 40
1.0
 10
0.9577200000000001
 20
2.1889100000000004
 30
0.0
 10
0.9577200000000001
 20
2.1889100000000004
 30
0.0
 10
1.1279000000000001
 20
2.1050900000000001
 30
0.0
 10
1.1279000000000001
 20
2.1050900000000001
 30
0.0
 10
1.1279000000000001
 20
2.1050900000000001
 30
0.0
 10
1.14314
 20
1.9476100000000001
 30
0.0
 10
1.02884
 20
1.8333100000000002
 30
0.0
 10
0.91454
 20
1.7596500000000002
 30
0.0
 10
0.91454
 20
1.7596500000000002
 30
0.0
 10
0.91454
 20
1.7596500000000002
 30
0.0
 10
0.87136
 20
1.7901300000000002
 30
0.0
 10
0.87136
 20
1.7901300000000002
 30
0.0
 10
0.87136
 20
1.7901300000000002
 30
0.0
 10
0.7138800000000001
 20
1.7748900000000001
 30
0.0
 10
0.82818
 20
1.9476100000000001
 30
0.0
 10
0.8129400000000001
 20
2.0314300000000003
 30
0.0
 10
0.8129400000000001
 20
2.0314300000000003
 30
0.0
 10
0.8866000000000001
 20
2.0619100000000001
 30
0.0
 10
0.9272400000000001
 20
2.1177900000000003
 30
0.0
 10
0.9577200000000001
 20
2.1889100000000004
 30
0.0
  0
SPLINE
  5
35
100
AcDbEntity
  8
Ebene 1
 62
     7
100
AcDbSpline
210
0.0
220
0.0
230
1.0
 70
     1
 71
     3
 72
    20
 73
    16
 74
     0
 42
0.0000000001
 43
0.0000000001
 40
0.0
 40
0.0
 40
0.0
 40
0.0
 40
0.25
 40
0.25
 40
0.25
 40
0.25
 40
0.5
 40
0.5
 40
0.5
 40
0.5
 40
0.75
 40
0.75
 40
0.75
 40
0.75
 40
1.0
 40
1.0
 40
1.0
 40
1.0
 10
1.1710800000000001
 20
2.0746100000000003
 30
0.0
 10
1.1837800000000001
 20
2.0746100000000003
 30
0.0
 10
1.1990200000000002
 20
2.0746100000000003
 30
0.0
 10
1.1990200000000002
 20
2.0619100000000001
 30
0.0
 10
1.1990200000000002
 20
2.0619100000000001
 30
0.0
 10
1.1990200000000002
 20
2.0619100000000001
 30
0.0
 10
1.1710800000000001
 20
1.6047100000000001
 30
0.0
 10
1.1710800000000001
 20
1.6047100000000001
 30
0.0
 10
1.1710800000000001
 20
1.6047100000000001
 30
0.0
 10
1.1710800000000001
 20
1.6047100000000001
 30
0.0
 10
0.9272400000000001
 20
1.7317100000000001
 30
0.0
 10
0.9272400000000001
 20
1.7317100000000001
 30
0.0
 10
0.9272400000000001
 20
1.7317100000000001
 30
0.0
 10
1.02884
 20
1.8180700000000001
 30
0.0
 10
1.1990200000000002
 20
1.9044300000000001
 30
0.0
 10
1.1710800000000001
 20
2.0746100000000003
 30
0.0
  0
SPLINE
  5
36
100
AcDbEntity
  8
Ebene 1
 62
     7
100
AcDbSpline
210
0.0
220
0.0
230
1.0
 70
     1
 71
     3
 72
    12
 73
     8
 74
     0
 42
0.0000000001
 43
0.0000000001
 40
0.0
 40
0.0
 40
0.0
 40
0.0
 40
0.5
 40
0.5
 40
0.5
 40
0.5
 40
1.0
 40
1.0
 40
1.0
 40
1.0
 10
0.7291200000000001
 20
2.0619100000000001
 30
0.0
 10
0.785
 20
2.0187300000000001
 30
0.0
 10
0.74182
 20
1.9171300000000002
 30
0.0
 10
0.7291200000000001
 20
1.8764900000000002
 30
0.0
 10
0.7291200000000001
 20
1.8764900000000002
 30
0.0
 10
0.64276
 20
1.9044300000000001
 30
0.0
 10
0.69864
 20
2.0034900000000002
 30
0.0
 10
0.7291200000000001
 20
2.0619100000000001
 30
0.0
  0
SPLINE
  5
37
100
AcDbEntity
  8
Ebene 1
 62
     7
100
AcDbSpline
210
0.0
220
0.0
230
1.0
 70
     1
 71
     3
 72
    32
 73
    28
 74
     0
 42
0.0000000001
 43
0.0000000001
 40
0.0
 40
0.0
 40
0.0
 40
0.0
 40
0.1428571428571429
 40
0.1428571428571429
 40
0.1428571428571429
 40
0.1428571428571429
 40
0.2857142857142857
 40
0.2857142857142857
 40
0.2857142857142857
 40
0.2857142857142857
 40
0.4285714285714286
 40
0.4285714285714286
 40
0.4285714285714286
 40
0.4285714285714286
 40
0.5714285714285714
 40
0.5714285714285714
 40
0.5714285714285714
 40
0.5714285714285714
 40
0.7142857142857142
 40
0.7142857142857142
 40
0.7142857142857142
 40
0.7142857142857142
 40
0.857142857142857
 40
0.857142857142857
 40
0.857142857142857
 40
0.857142857142857
 40
1.0
 40
1.0
 40
1.0
 40
1.0
 10
2.8703400000000001
 20
2.0619100000000001
 30
0.0
 10
2.9135200000000001
 20
2.0466700000000002
 30
0.0
 10
2.9567000000000001
 20
2.0314300000000003
 30
0.0
 10
2.9694000000000003
 20
1.9907900000000001
 30
0.0
 10
2.9694000000000003
 20
1.9907900000000001
 30
0.0
 10
2.9135200000000001
 20
1.9171300000000002
 30
0.0
 10
2.8424
 20
1.8333100000000002
 30
0.0
 10
2.9414600000000002
 20
1.7596500000000002
 30
0.0
 10
2.9414600000000002
 20
1.7596500000000002
 30
0.0
 10
2.8982800000000002
 20
1.7037700000000002
 30
0.0
 10
2.9135200000000001
 20
1.6199500000000002
 30
0.0
 10
2.9846400000000002
 20
1.5894700000000002
 30
0.0
 10
2.9846400000000002
 20
1.5894700000000002
 30
0.0
 10
2.9262200000000003
 20
1.4751700000000001
 30
0.0
 10
3.13958
 20
1.40405
 30
0.0
 10
3.0710000000000002
 20
1.2897500000000002
 30
0.0
 10
3.0710000000000002
 20
1.2897500000000002
 30
0.0
 10
2.9567000000000001
 20
1.31769
 30
0.0
 10
2.9414600000000002
 20
1.5894700000000002
 30
0.0
 10
2.8982800000000002
 20
1.3481700000000001
 30
0.0
 10
2.8982800000000002
 20
1.3481700000000001
 30
0.0
 10
2.8119200000000002
 20
1.40405
 30
0.0
 10
2.7255600000000002
 20
1.4319900000000001
 30
0.0
 10
2.6112600000000001
 20
1.44723
 30
0.0
 10
2.6112600000000001
 20
1.44723
 30
0.0
 10
2.6112600000000001
 20
1.44723
 30
0.0
 10
2.8703400000000001
 20
2.0619100000000001
 30
0.0
 10
2.8703400000000001
 20
2.0619100000000001
 30
0.0
  0
SPLINE
  5
38
100
AcDbEntity
  8
Ebene 1
 62
     7
100
AcDbSpline
210
0.0
220
0.0
230
1.0
 70
     1
 71
     3
 72
    24
 73
    20
 74
     0
 42
0.0000000001
 43
0.0000000001
 40
0.0
 40
0.0
 40
0.0
 40
0.0
 40
0.2
 40
0.2
 40
0.2
 40
0.2
 40
0.4
 40
0.4
 40
0.4
 40
0.4
 40
0.6000000000000001
 40
0.6000000000000001
 40
0.6000000000000001
 40
0.6000000000000001
 40
0.8
 40
0.8
 40
0.8
 40
0.8
 40
1.0
 40
1.0
 40
1.0
 40
1.0
 10
0.5437000000000001
 20
1.9476100000000001
 30
0.0
 10
0.61482
 20
1.9044300000000001
 30
0.0
 10
0.45734
 20
1.6453500000000001
 30
0.0
 10
0.61482
 20
1.8180700000000001
 30
0.0
 10
0.61482
 20
1.8180700000000001
 30
0.0
 10
0.6707000000000001
 20
1.9171300000000002
 30
0.0
 10
0.785
 20
1.7317100000000001
 30
0.0
 10
0.8129400000000001
 20
1.7037700000000002
 30
0.0
 10
0.8129400000000001
 20
1.7037700000000002
 30
0.0
 10
0.785
 20
1.5767700000000002
 30
0.0
 10
0.61482
 20
1.6047100000000001
 30
0.0
 10
0.51576
 20
1.5615300000000001
 30
0.0
 10
0.51576
 20
1.5615300000000001
 30
0.0
 10
0.45734
 20
1.5767700000000002
 30
0.0
 10
0.38622
 20
1.6199500000000002
 30
0.0
 10
0.34304
 20
1.6605900000000002
 30
0.0
 10
0.34304
 20
1.6605900000000002
 30
0.0
 10
0.34304
 20
1.7901300000000002
 30
0.0
 10
0.4725800000000001
 20
1.8612500000000001
 30
0.0
 10
0.5437000000000001
 20
1.9476100000000001
 30
0.0
  0
SPLINE
  5
39
100
AcDbEntity
  8
Ebene 1
 62
     7
100
AcDbSpline
210
0.0
220
0.0
230
1.0
 70
     1
 71
     3
 72
    32
 73
    28
 74
     0
 42
0.0000000001
 43
0.0000000001
 40
0.0
 40
0.0
 40
0.0
 40
0.0
 40
0.1428571428571429
 40
0.1428571428571429
 40
0.1428571428571429
 40
0.1428571428571429
 40
0.2857142857142857
 40
0.2857142857142857
 40
0.2857142857142857
 40
0.2857142857142857
 40
0.4285714285714286
 40
0.4285714285714286
 40
0.4285714285714286
 40
0.4285714285714286
 40
0.5714285714285714
 40
0.5714285714285714
 40
0.5714285714285714
 40
0.5714285714285714
 40
0.7142857142857142
 40
0.7142857142857142
 40
0.7142857142857142
 40
0.7142857142857142
 40
0.857142857142857
 40
0.857142857142857
 40
0.857142857142857
 40
0.857142857142857
 40
1.0
 40
1.0
 40
1.0
 40
1.0
 10
2.1134200000000001
 20
1.9323700000000001
 30
0.0
 10
2.2124800000000002
 20
1.8891900000000001
 30
0.0
 10
2.3140800000000001
 20
1.8764900000000002
 30
0.0
 10
2.3547200000000004
 20
1.7596500000000002
 30
0.0
 10
2.3547200000000004
 20
1.7596500000000002
 30
0.0
 10
2.4131400000000003
 20
1.7037700000000002
 30
0.0
 10
2.4995000000000003
 20
1.6199500000000002
 30
0.0
 10
2.4410800000000004
 20
1.5183500000000001
 30
0.0
 10
2.4410800000000004
 20
1.5183500000000001
 30
0.0
 10
2.2277200000000001
 20
1.6326500000000002
 30
0.0
 10
1.8848200000000002
 20
1.4751700000000001
 30
0.0
 10
1.7857600000000002
 20
1.7596500000000002
 30
0.0
 10
1.7857600000000002
 20
1.7596500000000002
 30
0.0
 10
1.7857600000000002
 20
1.7596500000000002
 30
0.0
 10
1.9280000000000002
 20
1.7190100000000001
 30
0.0
 10
1.9280000000000002
 20
1.7190100000000001
 30
0.0
 10
1.9280000000000002
 20
1.7190100000000001
 30
0.0
 10
1.9559400000000002
 20
1.7469500000000002
 30
0.0
 10
1.9838800000000001
 20
1.7748900000000001
 30
0.0
 10
1.9711800000000002
 20
1.8180700000000001
 30
0.0
 10
1.9711800000000002
 20
1.8180700000000001
 30
0.0
 10
1.9280000000000002
 20
1.8891900000000001
 30
0.0
 10
2.0143600000000004
 20
1.8612500000000001
 30
0.0
 10
2.0423
 20
1.8180700000000001
 30
0.0
 10
2.0423
 20
1.8180700000000001
 30
0.0
 10
2.0575400000000004
 20
1.8612500000000001
 30
0.0
 10
2.0702400000000001
 20
1.9171300000000002
 30
0.0
 10
2.1134200000000001
 20
1.9323700000000001
 30
0.0
  0
SPLINE
  5
3A
100
AcDbEntity
  8
Ebene 1
 62
     7
100
AcDbSpline
210
0.0
220
0.0
230
1.0
 70
     1
 71
     3
 72
    16
 73
    12
 74
     0
 42
0.0000000001
 43
0.0000000001
 40
0.0
 40
0.0
 40
0.0
 40
0.0
 40
0.3333333333333333
 40
0.3333333333333333
 40
0.3333333333333333
 40
0.3333333333333333
 40
0.6666666666666666
 40
0.6666666666666666
 40
0.6666666666666666
 40
0.6666666666666666
 40
1.0
 40
1.0
 40
1.0
 40
1.0
 10
-0.28179
 20
1.8612500000000001
 30
0.0
 10
-0.28179
 20
1.8612500000000001
 30
0.0
 10
-0.25385
 20
1.8612500000000001
 30
0.0
 10
-0.25385
 20
1.8612500000000001
 30
0.0
 10
-0.25385
 20
1.8612500000000001
 30
0.0
 10
-0.25385
 20
1.8612500000000001
 30
0.0
 10
-0.32497
 20
1.5615300000000001
 30
0.0
 10
-0.32497
 20
1.5615300000000001
 30
0.0
 10
-0.32497
 20
1.5615300000000001
 30
0.0
 10
-0.38085
 20
1.6605900000000002
 30
0.0
 10
-0.3960900000000001
 20
1.7901300000000002
 30
0.0
 10
-0.28179
 20
1.8612500000000001
 30
0.0
  0
SPLINE
  5
3B
100
AcDbEntity
  8
Ebene 1
 62
     7
100
AcDbSpline
210
0.0
220
0.0
230
1.0
 70
     1
 71
     3
 72
    12
 73
     8
 74
     0
 42
0.0000000001
 43
0.0000000001
 40
0.0
 40
0.0
 40
0.0
 40
0.0
 40
0.5
 40
0.5
 40
0.5
 40
0.5
 40
1.0
 40
1.0
 40
1.0
 40
1.0
 10
-0.09637
 20
1.8180700000000001
 30
0.0
 10
0.0865
 20
1.7469500000000002
 30
0.0
 10
-0.13955
 20
1.5767700000000002
 30
0.0
 10
-0.23861
 20
1.5183500000000001
 30
0.0
 10
-0.23861
 20
1.5183500000000001
 30
0.0
 10
-0.26909
 20
1.6326500000000002
 30
0.0
 10
-0.11161
 20
1.7037700000000002
 30
0.0
 10
-0.09637
 20
1.8180700000000001
 30
0.0
  0
SPLINE
  5
3C
100
AcDbEntity
  8
Ebene 1
 62
     7
100
AcDbSpline
210
0.0
220
0.0
230
1.0
 70
     1
 71
     3
 72
    16
 73
    12
 74
     0
 42
0.0000000001
 43
0.0000000001
 40
0.0
 40
0.0
 40
0.0
 40
0.0
 40
0.3333333333333333
 40
0.3333333333333333
 40
0.3333333333333333
 40
0.3333333333333333
 40
0.6666666666666666
 40
0.6666666666666666
 40
0.6666666666666666
 40
0.6666666666666666
 40
1.0
 40
1.0
 40
1.0
 40
1.0
 10
3.9549200000000004
 20
1.7901300000000002
 30
0.0
 10
3.9549200000000004
 20
1.7901300000000002
 30
0.0
 10
3.9828600000000005
 20
1.7748900000000001
 30
0.0
 10
3.9828600000000005
 20
1.7748900000000001
 30
0.0
 10
3.9828600000000005
 20
1.7748900000000001
 30
0.0
 10
3.9828600000000005
 20
1.7748900000000001
 30
0.0
 10
3.8685600000000004
 20
1.5462900000000002
 30
0.0
 10
3.8685600000000004
 20
1.5462900000000002
 30
0.0
 10
3.8685600000000004
 20
1.5462900000000002
 30
0.0
 10
3.8126800000000003
 20
1.6326500000000002
 30
0.0
 10
3.8965000000000005
 20
1.7317100000000001
 30
0.0
 10
3.9549200000000004
 20
1.7901300000000002
 30
0.0
  0
SPLINE
  5
3D
100
AcDbEntity
  8
Ebene 1
 62
     7
100
AcDbSpline
210
0.0
220
0.0
230
1.0
 70
     1
 71
     3
 72
   220
 73
   216
 74
     0
 42
0.0000000001
 43
0.0000000001
 40
0.0
 40
0.0
 40
0.0
 40
0.0
 40
0.0185185185185185
 40
0.0185185185185185
 40
0.0185185185185185
 40
0.0185185185185185
 40
0.037037037037037
 40
0.037037037037037
 40
0.037037037037037
 40
0.037037037037037
 40
0.0555555555555556
 40
0.0555555555555556
 40
0.0555555555555556
 40
0.0555555555555556
 40
0.0740740740740741
 40
0.0740740740740741
 40
0.0740740740740741
 40
0.0740740740740741
 40
0.0925925925925926
 40
0.0925925925925926
 40
0.0925925925925926
 40
0.0925925925925926
 40
0.1111111111111111
 40
0.1111111111111111
 40
0.1111111111111111
 40
0.1111111111111111
 40
0.1296296296296296
 40
0.1296296296296296
 40
0.1296296296296296
 40
0.1296296296296296
 40
0.1481481481481481
 40
0.1481481481481481
 40
0.1481481481481481
 40
0.1481481481481481
 40
0.1666666666666667
 40
0.1666666666666667
 40
0.1666666666666667
 40
0.1666666666666667
 40
0.1851851851851852
 40
0.1851851851851852
 40
0.1851851851851852
 40
0.1851851851851852
 40
0.2037037037037037
 40
0.2037037037037037
 40
0.2037037037037037
 40
0.2037037037037037
 40
0.2222222222222222
 40
0.2222222222222222
 40
0.2222222222222222
 40
0.2222222222222222
 40
0.2407407407407407
 40
0.2407407407407407
 40
0.2407407407407407
 40
0.2407407407407407
 40
0.2592592592592592
 40
0.2592592592592592
 40
0.2592592592592592
 40
0.2592592592592592
 40
0.2777777777777778
 40
0.2777777777777778
 40
0.2777777777777778
 40
0.2777777777777778
 40
0.2962962962962963
 40
0.2962962962962963
 40
0.2962962962962963
 40
0.2962962962962963
 40
0.3148148148148148
 40
0.3148148148148148
 40
0.3148148148148148
 40
0.3148148148148148
 40
0.3333333333333333
 40
0.3333333333333333
 40
0.3333333333333333
 40
0.3333333333333333
 40
0.3518518518518518
 40
0.3518518518518518
 40
0.3518518518518518
 40
0.3518518518518518
 40
0.3703703703703702
 40
0.3703703703703702
 40
0.3703703703703702
 40
0.3703703703703702
 40
0.3888888888888887
 40
0.3888888888888887
 40
0.3888888888888887
 40
0.3888888888888887
 40
0.4074074074074072
 40
0.4074074074074072
 40
0.4074074074074072
 40
0.4074074074074072
 40
0.4259259259259257
 40
0.4259259259259257
 40
0.4259259259259257
 40
0.4259259259259257
 40
0.4444444444444442
 40
0.4444444444444442
 40
0.4444444444444442
 40
0.4444444444444442
 40
0.4629629629629627
 40
0.4629629629629627
 40
0.4629629629629627
 40
0.4629629629629627
 40
0.4814814814814812
 40
0.4814814814814812
 40
0.4814814814814812
 40
0.4814814814814812
 40
0.4999999999999997
 40
0.4999999999999997
 40
0.4999999999999997
 40
0.4999999999999997
 40
0.5185185185185182
 40
0.5185185185185182
 40
0.5185185185185182
 40
0.5185185185185182
 40
0.5370370370370367
 40
0.5370370370370367
 40
0.5370370370370367
 40
0.5370370370370367
 40
0.5555555555555551
 40
0.5555555555555551
 40
0.5555555555555551
 40
0.5555555555555551
 40
0.5740740740740736
 40
0.5740740740740736
 40
0.5740740740740736
 40
0.5740740740740736
 40
0.5925925925925921
 40
0.5925925925925921
 40
0.5925925925925921
 40
0.5925925925925921
 40
0.6111111111111106
 40
0.6111111111111106
 40
0.6111111111111106
 40
0.6111111111111106
 40
0.6296296296296291
 40
0.6296296296296291
 40
0.6296296296296291
 40
0.6296296296296291
 40
0.6481481481481476
 40
0.6481481481481476
 40
0.6481481481481476
 40
0.6481481481481476
 40
0.6666666666666661
 40
0.6666666666666661
 40
0.6666666666666661
 40
0.6666666666666661
 40
0.6851851851851846
 40
0.6851851851851846
 40
0.6851851851851846
 40
0.6851851851851846
 40
0.7037037037037031
 40
0.7037037037037031
 40
0.7037037037037031
 40
0.7037037037037031
 40
0.7222222222222215
 40
0.7222222222222215
 40
0.7222222222222215
 40
0.7222222222222215
 40
0.74074074074074
 40
0.74074074074074
 40
0.74074074074074
 40
0.74074074074074
 40
0.7592592592592585
 40
0.7592592592592585
 40
0.7592592592592585
 40
0.7592592592592585
 40
0.777777777777777
 40
0.777777777777777
 40
0.777777777777777
 40
0.777777777777777
 40
0.7962962962962955
 40
0.7962962962962955
 40
0.7962962962962955
 40
0.7962962962962955
 40
0.814814814814814
 40
0.814814814814814
 40
0.814814814814814
 40
0.814814814814814
 40
0.8333333333333325
 40
0.8333333333333325
 40
0.8333333333333325
 40
0.8333333333333325
 40
0.851851851851851
 40
0.851851851851851
 40
0.851851851851851
 40
0.851851851851851
 40
0.8703703703703695
 40
0.8703703703703695
 40
0.8703703703703695
 40
0.8703703703703695
 40
0.888888888888888
 40
0.888888888888888
 40
0.888888888888888
 40
0.888888888888888
 40
0.9074074074074064
 40
0.9074074074074064
 40
0.9074074074074064
 40
0.9074074074074064
 40
0.9259259259259249
 40
0.9259259259259249
 40
0.9259259259259249
 40
0.9259259259259249
 40
0.9444444444444434
 40
0.9444444444444434
 40
0.9444444444444434
 40
0.9444444444444434
 40
0.9629629629629619
 40
0.9629629629629619
 40
0.9629629629629619
 40
0.9629629629629619
 40
0.9814814814814804
 40
0.9814814814814804
 40
0.9814814814814804
 40
0.9814814814814804
 40
1.0
 40
1.0
 40
1.0
 40
1.0
 10
-4.3356300000000001
 20
0.8198500000000001
 30
0.0
 10
-4.1171899999999999
 20
0.27629
 30
0.0
 10
-3.5710900000000003
 20
1.36087
 30
0.0
 10
-3.0656300000000001
 20
1.14751
 30
0.0
 10
-3.0656300000000001
 20
1.14751
 30
0.0
 10
-3.3501100000000004
 20
0.8604900000000001
 30
0.0
 10
-3.9495500000000003
 20
0.8604900000000001
 30
0.0
 10
-4.0333700000000006
 20
0.3905900000000001
 30
0.0
 10
-4.0333700000000006
 20
0.3905900000000001
 30
0.0
 10
-3.8504900000000002
 20
0.57601
 30
0.0
 10
-3.6726900000000002
 20
0.8198500000000001
 30
0.0
 10
-3.4110700000000005
 20
0.9036700000000001
 30
0.0
 10
-3.4110700000000005
 20
0.9036700000000001
 30
0.0
 10
-3.4110700000000005
 20
0.9036700000000001
 30
0.0
 10
-3.8606500000000001
 20
-0.7778000000000001
 30
0.0
 10
-3.8606500000000001
 20
-0.7778000000000001
 30
0.0
 10
-3.8606500000000001
 20
-0.7778000000000001
 30
0.0
 10
-3.7590500000000002
 20
-0.80574
 30
0.0
 10
-3.6930100000000001
 20
-0.7066800000000001
 30
0.0
 10
-3.6117300000000001
 20
-0.67874
 30
0.0
 10
-3.6117300000000001
 20
-0.67874
 30
0.0
 10
-3.2942300000000002
 20
0.36265
 30
0.0
 10
-2.5525500000000001
 20
-1.1054600000000001
 30
0.0
 10
-2.2528300000000003
 20
-0.67874
 30
0.0
 10
-2.2528300000000003
 20
-0.67874
 30
0.0
 10
-2.48143
 20
-0.23424
 30
0.0
 10
-2.8522700000000003
 20
0.16199
 30
0.0
 10
-3.0376900000000004
 20
0.6318900000000001
 30
0.0
 10
-3.0376900000000004
 20
0.6318900000000001
 30
0.0
 10
-3.1951700000000001
 20
0.6039500000000001
 30
0.0
 10
-3.2510500000000002
 20
0.40583
 30
0.0
 10
-3.3374100000000002
 20
0.31947
 30
0.0
 10
-3.3374100000000002
 20
0.31947
 30
0.0
 10
-3.5660100000000003
 20
0.5048900000000001
 30
0.0
 10
-3.1951700000000001
 20
1.1602100000000002
 30
0.0
 10
-3.2662900000000001
 20
0.7334900000000001
 30
0.0
 10
-3.2662900000000001
 20
0.7334900000000001
 30
0.0
 10
-3.3094700000000001
 20
0.6903100000000001
 30
0.0
 10
-3.2662900000000001
 20
0.6318900000000001
 30
0.0
 10
-3.2231100000000001
 20
0.6903100000000001
 30
0.0
 10
-3.2231100000000001
 20
0.6903100000000001
 30
0.0
 10
-3.0529300000000004
 20
1.10433
 30
0.0
 10
-2.6795500000000003
 20
1.3761100000000002
 30
0.0
 10
-2.5093700000000001
 20
1.7748900000000001
 30
0.0
 10
-2.5093700000000001
 20
1.7748900000000001
 30
0.0
 10
-2.4661900000000001
 20
1.44723
 30
0.0
 10
-3.0935700000000002
 20
0.7766700000000001
 30
0.0
 10
-2.7379700000000002
 20
0.7334900000000001
 30
0.0
 10
-2.7379700000000002
 20
0.7334900000000001
 30
0.0
 10
-2.7379700000000002
 20
0.7334900000000001
 30
0.0
 10
-2.6795500000000003
 20
0.97733
 30
0.0
 10
-2.6795500000000003
 20
0.97733
 30
0.0
 10
-2.6795500000000003
 20
0.97733
 30
0.0
 10
-2.5804900000000002
 20
1.6885300000000001
 30
0.0
 10
-2.3366500000000001
 20
0.7766700000000001
 30
0.0
 10
-2.3798300000000001
 20
1.31769
 30
0.0
 10
-2.3798300000000001
 20
1.31769
 30
0.0
 10
-2.5804900000000002
 20
1.6758300000000002
 30
0.0
 10
-2.4509500000000002
 20
1.7037700000000002
 30
0.0
 10
-2.3239500000000004
 20
1.31769
 30
0.0
 10
-2.3239500000000004
 20
1.31769
 30
0.0
 10
-2.2528300000000003
 20
1.23387
 30
0.0
 10
-2.23759
 20
1.1322700000000001
 30
0.0
 10
-2.2528300000000003
 20
1.01797
 30
0.0
 10
-2.2528300000000003
 20
1.01797
 30
0.0
 10
-2.4103100000000004
 20
1.0916300000000001
 30
0.0
 10
-2.8802100000000004
 20
-0.02088
 30
0.0
 10
-2.48143
 20
0.40583
 30
0.0
 10
-2.48143
 20
0.40583
 30
0.0
 10
-2.7811500000000002
 20
-0.3333
 30
0.0
 10
-2.0089900000000003
 20
0.10611
 30
0.0
 10
-2.1817100000000003
 20
-1.07752
 30
0.0
 10
-2.1817100000000003
 20
-1.07752
 30
0.0
 10
-2.0369300000000004
 20
-0.8616200000000001
 30
0.0
 10
-1.9226300000000001
 20
-0.63556
 30
0.0
 10
-1.9810500000000002
 20
-0.37648
 30
0.0
 10
-1.9810500000000002
 20
-0.37648
 30
0.0
 10
-1.9658100000000001
 20
-0.30536
 30
0.0
 10
-1.9658100000000001
 20
-0.23424
 30
0.0
 10
-1.9658100000000001
 20
-0.15042
 30
0.0
 10
-1.9658100000000001
 20
-0.15042
 30
0.0
 10
-1.9658100000000001
 20
-0.15042
 30
0.0
 10
-1.9810500000000002
 20
-0.00564
 30
0.0
 10
-1.9810500000000002
 20
-0.00564
 30
0.0
 10
-1.9810500000000002
 20
-0.00564
 30
0.0
 10
-1.7676900000000002
 20
-0.41966
 30
0.0
 10
-1.6102100000000001
 20
-0.8768600000000001
 30
0.0
 10
-1.2800100000000001
 20
-1.2197600000000002
 30
0.0
 10
-1.2800100000000001
 20
-1.2197600000000002
 30
0.0
 10
-1.3104900000000002
 20
-1.0495800000000002
 30
0.0
 10
-1.4374900000000002
 20
-0.9200400000000001
 30
0.0
 10
-1.5238500000000001
 20
-0.7778000000000001
 30
0.0
 10
-1.5238500000000001
 20
-0.7778000000000001
 30
0.0
 10
-1.5238500000000001
 20
-0.7778000000000001
 30
0.0
 10
-1.6965700000000001
 20
-0.39172
 30
0.0
 10
-1.6965700000000001
 20
-0.39172
 30
0.0
 10
-1.6965700000000001
 20
-0.39172
 30
0.0
 10
-1.9099300000000001
 20
0.11881
 30
0.0
 10
-1.5517900000000002
 20
-0.41966
 30
0.0
 10
-1.3536700000000002
 20
-0.46284
 30
0.0
 10
-1.3536700000000002
 20
-0.46284
 30
0.0
 10
-1.6533900000000001
 20
0.09087
 30
0.0
 10
-1.3231900000000001
 20
-0.27742
 30
0.0
 10
-1.03871
 20
-0.5212600000000001
 30
0.0
 10
-1.03871
 20
-0.5212600000000001
 30
0.0
 10
-0.7110500000000001
 20
-0.7498600000000001
 30
0.0
 10
-0.42403
 20
-0.9048000000000001
 30
0.0
 10
-0.7262900000000001
 20
-1.16388
 30
0.0
 10
-0.7262900000000001
 20
-1.16388
 30
0.0
 10
-0.8380500000000001
 20
-0.9200400000000001
 30
0.0
 10
-1.03871
 20
-0.59238
 30
0.0
 10
-1.29525
 20
-0.5212600000000001
 30
0.0
 10
-1.29525
 20
-0.5212600000000001
 30
0.0
 10
-0.6450100000000001
 20
-1.1435600000000001
 30
0.0
 10
-1.0590300000000001
 20
-1.9055600000000001
 30
0.0
 10
-1.3663700000000001
 20
-1.3416800000000002
 30
0.0
 10
-1.3663700000000001
 20
-1.3416800000000002
 30
0.0
 10
-1.4781300000000002
 20
-1.1359400000000002
 30
0.0
 10
-1.46289
 20
-1.1537200000000001
 30
0.0
 10
-1.4451100000000001
 20
-1.3442200000000002
 30
0.0
 10
-1.4451100000000001
 20
-1.3442200000000002
 30
0.0
 10
-1.42225
 20
-1.5753600000000001
 30
0.0
 10
-1.7067300000000001
 20
-1.1892800000000001
 30
0.0
 10
-1.8667500000000001
 20
-1.0064000000000002
 30
0.0
 10
-1.8667500000000001
 20
-1.0064000000000002
 30
0.0
 10
-1.8667500000000001
 20
-1.0064000000000002
 30
0.0
 10
-1.7092700000000001
 20
-1.42042
 30
0.0
 10
-1.7092700000000001
 20
-1.42042
 30
0.0
 10
-1.7092700000000001
 20
-1.42042
 30
0.0
 10
-1.7092700000000001
 20
-1.42042
 30
0.0
 10
-1.7092700000000001
 20
-1.54742
 30
0.0
 10
-1.7092700000000001
 20
-1.54742
 30
0.0
 10
-1.7092700000000001
 20
-1.54742
 30
0.0
 10
-1.7676900000000002
 20
-1.2781800000000001
 30
0.0
 10
-1.8667500000000001
 20
-1.8623800000000001
 30
0.0
 10
-2.0242300000000002
 20
-1.7328400000000002
 30
0.0
 10
-2.0242300000000002
 20
-1.7328400000000002
 30
0.0
 10
-2.1817100000000003
 20
-1.6922000000000001
 30
0.0
 10
-2.39507
 20
-1.7049000000000001
 30
0.0
 10
-2.3671300000000004
 20
-1.9335000000000002
 30
0.0
 10
-2.3671300000000004
 20
-1.9335000000000002
 30
0.0
 10
-2.1232900000000003
 20
-1.7328400000000002
 30
0.0
 10
-1.9378700000000002
 20
-2.01986
 30
0.0
 10
-1.8667500000000001
 20
-2.0478000000000001
 30
0.0
 10
-1.8667500000000001
 20
-2.0478000000000001
 30
0.0
 10
-1.8667500000000001
 20
-2.0478000000000001
 30
0.0
 10
-1.6102100000000001
 20
-1.42042
 30
0.0
 10
-1.6102100000000001
 20
-1.42042
 30
0.0
 10
-1.6102100000000001
 20
-1.42042
 30
0.0
 10
-1.3104900000000002
 20
-1.6058400000000002
 30
0.0
 10
-1.6102100000000001
 20
-1.8065000000000002
 30
0.0
 10
-1.7397500000000001
 20
-1.9487400000000001
 30
0.0
 10
-1.7397500000000001
 20
-1.9487400000000001
 30
0.0
 10
-1.2800100000000001
 20
-1.7633200000000002
 30
0.0
 10
-1.2393700000000001
 20
-1.7633200000000002
 30
0.0
 10
-0.78217
 20
-1.3620000000000001
 30
0.0
 10
-0.78217
 20
-1.3620000000000001
 30
0.0
 10
-0.4824500000000001
 20
-0.9632200000000001
 30
0.0
 10
0.07126
 20
-0.8768600000000001
 30
0.0
 10
0.52846
 20
-0.8336800000000001
 30
0.0
 10
0.52846
 20
-0.8336800000000001
 30
0.0
 10
0.22874
 20
-1.0191000000000001
 30
0.0
 10
-0.16749
 20
-1.1207
 30
0.0
 10
-0.52563
 20
-1.1918200000000001
 30
0.0
 10
-0.52563
 20
-1.1918200000000001
 30
0.0
 10
-1.3231900000000001
 20
-2.4618200000000003
 30
0.0
 10
-2.7811500000000002
 20
-2.0325600000000001
 30
0.0
 10
-3.9190700000000005
 20
-2.0325600000000001
 30
0.0
 10
-3.9190700000000005
 20
-2.0325600000000001
 30
0.0
 10
-3.9190700000000005
 20
-2.0325600000000001
 30
0.0
 10
-3.8530300000000004
 20
-1.7049000000000001
 30
0.0
 10
-3.8530300000000004
 20
-1.7049000000000001
 30
0.0
 10
-3.8530300000000004
 20
-1.7049000000000001
 30
0.0
 10
-3.7946100000000005
 20
-1.6490200000000002
 30
0.0
 10
-3.8987500000000002
 20
-1.6490200000000002
 30
0.0
 10
-3.9317700000000002
 20
-1.6337800000000002
 30
0.0
 10
-3.9317700000000002
 20
-1.6337800000000002
 30
0.0
 10
-4.2187900000000003
 20
-2.5481800000000003
 30
0.0
 10
-3.8250900000000003
 20
-0.9048000000000001
 30
0.0
 10
-3.9749500000000002
 20
-1.07752
 30
0.0
 10
-3.9749500000000002
 20
-1.07752
 30
0.0
 10
-3.9749500000000002
 20
-1.07752
 30
0.0
 10
-4.1171899999999999
 20
-1.4763000000000002
 30
0.0
 10
-4.1171899999999999
 20
-1.4763000000000002
 30
0.0
 10
-4.1171899999999999
 20
-1.4763000000000002
 30
0.0
 10
-4.1730700000000001
 20
-1.6185400000000001
 30
0.0
 10
-4.09687
 20
-1.7480800000000001
 30
0.0
 10
-4.1248100000000001
 20
-1.8903200000000002
 30
0.0
 10
-4.1248100000000001
 20
-1.8903200000000002
 30
0.0
 10
-4.3356300000000001
 20
-1.42042
 30
0.0
 10
-3.9597100000000003
 20
-0.8184400000000001
 30
0.0
 10
-3.8606500000000001
 20
-0.3206000000000001
 30
0.0
 10
-3.8606500000000001
 20
-0.3206000000000001
 30
0.0
 10
-3.7057100000000003
 20
0.29153
 30
0.0
 10
-4.1197300000000006
 20
-0.8336800000000001
 30
0.0
 10
-4.1502100000000004
 20
-1.0622800000000001
 30
0.0
 10
-4.1502100000000004
 20
-1.0622800000000001
 30
0.0
 10
-4.1502100000000004
 20
-1.0622800000000001
 30
0.0
 10
-4.34579
 20
-1.6617200000000001
 30
0.0
 10
-4.34579
 20
-1.6617200000000001
 30
0.0
 10
-4.34579
 20
-1.6617200000000001
 30
0.0
 10
-4.2772100000000002
 20
-0.9352800000000001
 30
0.0
 10
-3.8860500000000004
 20
-0.19106
 30
0.0
 10
-3.6828500000000002
 20
0.5048900000000001
 30
0.0
 10
-3.6828500000000002
 20
0.5048900000000001
 30
0.0
 10
-3.7692100000000002
 20
0.48965
 30
0.0
 10
-3.7971500000000002
 20
0.36265
 30
0.0
 10
-3.8504900000000002
 20
0.30423
 30
0.0
 10
-3.8504900000000002
 20
0.30423
 30
0.0
 10
-4.0816300000000005
 20
0.07817
 30
0.0
 10
-4.2670500000000002
 20
-0.02088
 30
0.0
 10
-4.2619700000000007
 20
0.29153
 30
0.0
 10
-4.2619700000000007
 20
0.29153
 30
0.0
 10
-4.1146500000000001
 20
0.48965
 30
0.0
 10
-4.4880300000000002
 20
0.66237
 30
0.0
 10
-4.3356300000000001
 20
0.8198500000000001
 30
0.0
  0
SPLINE
  5
3E
100
AcDbEntity
  8
Ebene 1
 62
     7
100
AcDbSpline
210
0.0
220
0.0
230
1.0
 70
     1
 71
     3
 72
    12
 73
     8
 74
     0
 42
0.0000000001
 43
0.0000000001
 40
0.0
 40
0.0
 40
0.0
 40
0.0
 40
0.5
 40
0.5
 40
0.5
 40
0.5
 40
1.0
 40
1.0
 40
1.0
 40
1.0
 10
0.17032
 20
1.7469500000000002
 30
0.0
 10
0.2135
 20
1.7317100000000001
 30
0.0
 10
0.27192
 20
1.7469500000000002
 30
0.0
 10
0.28462
 20
1.6885300000000001
 30
0.0
 10
0.28462
 20
1.6885300000000001
 30
0.0
 10
0.24398
 20
1.6885300000000001
 30
0.0
 10
0.15762
 20
1.6885300000000001
 30
0.0
 10
0.17032
 20
1.7469500000000002
 30
0.0
  0
SPLINE
  5
3F
100
AcDbEntity
  8
Ebene 1
 62
     7
100
AcDbSpline
210
0.0
220
0.0
230
1.0
 70
     1
 71
     3
 72
    32
 73
    28
 74
     0
 42
0.0000000001
 43
0.0000000001
 40
0.0
 40
0.0
 40
0.0
 40
0.0
 40
0.1428571428571429
 40
0.1428571428571429
 40
0.1428571428571429
 40
0.1428571428571429
 40
0.2857142857142857
 40
0.2857142857142857
 40
0.2857142857142857
 40
0.2857142857142857
 40
0.4285714285714286
 40
0.4285714285714286
 40
0.4285714285714286
 40
0.4285714285714286
 40
0.5714285714285714
 40
0.5714285714285714
 40
0.5714285714285714
 40
0.5714285714285714
 40
0.7142857142857142
 40
0.7142857142857142
 40
0.7142857142857142
 40
0.7142857142857142
 40
0.857142857142857
 40
0.857142857142857
 40
0.857142857142857
 40
0.857142857142857
 40
1.0
 40
1.0
 40
1.0
 40
1.0
 10
-3.8504900000000002
 20
1.7317100000000001
 30
0.0
 10
-3.8149300000000004
 20
1.7037700000000002
 30
0.0
 10
-3.7717500000000004
 20
1.7037700000000002
 30
0.0
 10
-3.7260300000000002
 20
1.7037700000000002
 30
0.0
 10
-3.7260300000000002
 20
1.7037700000000002
 30
0.0
 10
-3.7692100000000002
 20
1.36087
 30
0.0
 10
-4.1171899999999999
 20
1.1170300000000002
 30
0.0
 10
-4.1756100000000007
 20
0.78937
 30
0.0
 10
-4.1756100000000007
 20
0.78937
 30
0.0
 10
-4.2060900000000006
 20
0.8198500000000001
 30
0.0
 10
-4.2137100000000007
 20
0.8604900000000001
 30
0.0
 10
-4.2086300000000003
 20
0.9036700000000001
 30
0.0
 10
-4.2086300000000003
 20
0.9036700000000001
 30
0.0
 10
-4.2086300000000003
 20
0.9036700000000001
 30
0.0
 10
-4.0257500000000004
 20
1.23387
 30
0.0
 10
-4.0257500000000004
 20
1.23387
 30
0.0
 10
-4.0257500000000004
 20
1.23387
 30
0.0
 10
-4.0257500000000004
 20
1.23387
 30
0.0
 10
-4.0892500000000007
 20
1.19069
 30
0.0
 10
-4.0892500000000007
 20
1.19069
 30
0.0
 10
-4.0892500000000007
 20
1.19069
 30
0.0
 10
-4.0892500000000007
 20
1.19069
 30
0.0
 10
-4.0943300000000002
 20
1.23387
 30
0.0
 10
-4.0943300000000002
 20
1.23387
 30
0.0
 10
-4.0943300000000002
 20
1.23387
 30
0.0
 10
-4.0943300000000002
 20
1.23387
 30
0.0
 10
-3.8504900000000002
 20
1.7317100000000001
 30
0.0
 10
-3.8504900000000002
 20
1.7317100000000001
 30
0.0
  0
SPLINE
  5
40
100
AcDbEntity
  8
Ebene 1
 62
     7
100
AcDbSpline
210
0.0
220
0.0
230
1.0
 70
     1
 71
     3
 72
    16
 73
    12
 74
     0
 42
0.0000000001
 43
0.0000000001
 40
0.0
 40
0.0
 40
0.0
 40
0.0
 40
0.3333333333333333
 40
0.3333333333333333
 40
0.3333333333333333
 40
0.3333333333333333
 40
0.6666666666666666
 40
0.6666666666666666
 40
0.6666666666666666
 40
0.6666666666666666
 40
1.0
 40
1.0
 40
1.0
 40
1.0
 10
0.8866000000000001
 20
1.7037700000000002
 30
0.0
 10
0.9577200000000001
 20
1.6605900000000002
 30
0.0
 10
1.14314
 20
1.6326500000000002
 30
0.0
 10
1.09996
 20
1.5183500000000001
 30
0.0
 10
1.09996
 20
1.5183500000000001
 30
0.0
 10
1.09996
 20
1.5183500000000001
 30
0.0
 10
1.0567800000000001
 20
1.5183500000000001
 30
0.0
 10
1.0567800000000001
 20
1.5183500000000001
 30
0.0
 10
1.0567800000000001
 20
1.5183500000000001
 30
0.0
 10
1.0440800000000001
 20
1.6326500000000002
 30
0.0
 10
0.8561200000000001
 20
1.6199500000000002
 30
0.0
 10
0.8866000000000001
 20
1.7037700000000002
 30
0.0
  0
SPLINE
  5
41
100
AcDbEntity
  8
Ebene 1
 62
     7
100
AcDbSpline
210
0.0
220
0.0
230
1.0
 70
     1
 71
     3
 72
    20
 73
    16
 74
     0
 42
0.0000000001
 43
0.0000000001
 40
0.0
 40
0.0
 40
0.0
 40
0.0
 40
0.25
 40
0.25
 40
0.25
 40
0.25
 40
0.5
 40
0.5
 40
0.5
 40
0.5
 40
0.75
 40
0.75
 40
0.75
 40
0.75
 40
1.0
 40
1.0
 40
1.0
 40
1.0
 10
4.2978200000000006
 20
1.6885300000000001
 30
0.0
 10
4.2394000000000007
 20
1.3049900000000001
 30
0.0
 10
4.1530400000000007
 20
0.84779
 30
0.0
 10
3.9269800000000004
 20
0.5048900000000001
 30
0.0
 10
3.9269800000000004
 20
0.5048900000000001
 30
0.0
 10
3.8685600000000004
 20
0.5912500000000001
 30
0.0
 10
3.8253800000000004
 20
0.7182500000000001
 30
0.0
 10
3.8406200000000004
 20
0.8325500000000001
 30
0.0
 10
3.8406200000000004
 20
0.8325500000000001
 30
0.0
 10
3.8685600000000004
 20
0.89097
 30
0.0
 10
3.9269800000000004
 20
0.8046100000000001
 30
0.0
 10
3.9828600000000005
 20
0.8325500000000001
 30
0.0
 10
3.9828600000000005
 20
0.8325500000000001
 30
0.0
 10
4.08446
 20
1.1170300000000002
 30
0.0
 10
4.1682800000000002
 20
1.4192900000000002
 30
0.0
 10
4.2978200000000006
 20
1.6885300000000001
 30
0.0
  0
SPLINE
  5
42
100
AcDbEntity
  8
Ebene 1
 62
     7
100
AcDbSpline
210
0.0
220
0.0
230
1.0
 70
     1
 71
     3
 72
    44
 73
    40
 74
     0
 42
0.0000000001
 43
0.0000000001
 40
0.0
 40
0.0
 40
0.0
 40
0.0
 40
0.1
 40
0.1
 40
0.1
 40
0.1
 40
0.2
 40
0.2
 40
0.2
 40
0.2
 40
0.3
 40
0.3
 40
0.3
 40
0.3
 40
0.4
 40
0.4
 40
0.4
 40
0.4
 40
0.5
 40
0.5
 40
0.5
 40
0.5
 40
0.6
 40
0.6
 40
0.6
 40
0.6
 40
0.7
 40
0.7
 40
0.7
 40
0.7
 40
0.7999999999999999
 40
0.7999999999999999
 40
0.7999999999999999
 40
0.7999999999999999
 40
0.8999999999999999
 40
0.8999999999999999
 40
0.8999999999999999
 40
0.8999999999999999
 40
1.0
 40
1.0
 40
1.0
 40
1.0
 10
-0.6678700000000001
 20
1.31769
 30
0.0
 10
-0.6678700000000001
 20
1.31769
 30
0.0
 10
-0.5815100000000001
 20
1.3888100000000001
 30
0.0
 10
-0.5815100000000001
 20
1.3888100000000001
 30
0.0
 10
-0.5815100000000001
 20
1.3888100000000001
 30
0.0
 10
-0.51039
 20
1.5031100000000002
 30
0.0
 10
-0.7669300000000001
 20
1.31769
 30
0.0
 10
-0.8380500000000001
 20
1.3049900000000001
 30
0.0
 10
-0.8380500000000001
 20
1.3049900000000001
 30
0.0
 10
-0.8380500000000001
 20
1.3049900000000001
 30
0.0
 10
-0.9244100000000001
 20
1.3481700000000001
 30
0.0
 10
-0.9244100000000001
 20
1.3481700000000001
 30
0.0
 10
-0.9244100000000001
 20
1.3481700000000001
 30
0.0
 10
-0.90917
 20
1.5615300000000001
 30
0.0
 10
-0.7262900000000001
 20
1.49041
 30
0.0
 10
-0.59675
 20
1.5894700000000002
 30
0.0
 10
-0.59675
 20
1.5894700000000002
 30
0.0
 10
-0.59675
 20
1.5894700000000002
 30
0.0
 10
-0.35545
 20
1.40405
 30
0.0
 10
-0.35545
 20
1.40405
 30
0.0
 10
-0.35545
 20
1.40405
 30
0.0
 10
-0.25385
 20
1.5335900000000002
 30
0.0
 10
-0.04049
 20
1.4751700000000001
 30
0.0
 10
0.07126
 20
1.6047100000000001
 30
0.0
 10
0.07126
 20
1.6047100000000001
 30
0.0
 10
0.10174
 20
1.6047100000000001
 30
0.0
 10
0.14492
 20
1.6047100000000001
 30
0.0
 10
0.17032
 20
1.5894700000000002
 30
0.0
 10
0.17032
 20
1.5894700000000002
 30
0.0
 10
0.04332
 20
1.4751700000000001
 30
0.0
 10
-0.11161
 20
1.3888100000000001
 30
0.0
 10
-0.25385
 20
1.3049900000000001
 30
0.0
 10
-0.25385
 20
1.3049900000000001
 30
0.0
 10
-0.28179
 20
1.27451
 30
0.0
 10
-0.32497
 20
1.2465700000000002
 30
0.0
 10
-0.36815
 20
1.2465700000000002
 30
0.0
 10
-0.36815
 20
1.2465700000000002
 30
0.0
 10
-0.32497
 20
1.49041
 30
0.0
 10
-0.5383300000000001
 20
1.3888100000000001
 30
0.0
 10
-0.6678700000000001
 20
1.31769
 30
0.0
  0
SPLINE
  5
43
100
AcDbEntity
  8
Ebene 1
 62
     7
100
AcDbSpline
210
0.0
220
0.0
230
1.0
 70
     1
 71
     3
 72
    16
 73
    12
 74
     0
 42
0.0000000001
 43
0.0000000001
 40
0.0
 40
0.0
 40
0.0
 40
0.0
 40
0.3333333333333333
 40
0.3333333333333333
 40
0.3333333333333333
 40
0.3333333333333333
 40
0.6666666666666666
 40
0.6666666666666666
 40
0.6666666666666666
 40
0.6666666666666666
 40
1.0
 40
1.0
 40
1.0
 40
1.0
 10
0.8434200000000001
 20
1.5335900000000002
 30
0.0
 10
1.0136000000000001
 20
1.5335900000000002
 30
0.0
 10
1.1583800000000002
 20
1.31769
 30
0.0
 10
0.9272400000000001
 20
1.2465700000000002
 30
0.0
 10
0.9272400000000001
 20
1.2465700000000002
 30
0.0
 10
0.8561200000000001
 20
1.3329300000000002
 30
0.0
 10
0.74182
 20
1.31769
 30
0.0
 10
0.6707000000000001
 20
1.3888100000000001
 30
0.0
 10
0.6707000000000001
 20
1.3888100000000001
 30
0.0
 10
0.6859400000000001
 20
1.4751700000000001
 30
0.0
 10
0.8129400000000001
 20
1.44723
 30
0.0
 10
0.8434200000000001
 20
1.5335900000000002
 30
0.0
  0
SPLINE
  5
44
100
AcDbEntity
  8
Ebene 1
 62
     7
100
AcDbSpline
210
0.0
220
0.0
230
1.0
 70
     1
 71
     3
 72
    20
 73
    16
 74
     0
 42
0.0000000001
 43
0.0000000001
 40
0.0
 40
0.0
 40
0.0
 40
0.0
 40
0.25
 40
0.25
 40
0.25
 40
0.25
 40
0.5
 40
0.5
 40
0.5
 40
0.5
 40
0.75
 40
0.75
 40
0.75
 40
0.75
 40
1.0
 40
1.0
 40
1.0
 40
1.0
 10
0.25668
 20
1.5183500000000001
 30
0.0
 10
0.28462
 20
1.5183500000000001
 30
0.0
 10
0.3151000000000001
 20
1.5335900000000002
 30
0.0
 10
0.34304
 20
1.5031100000000002
 30
0.0
 10
0.34304
 20
1.5031100000000002
 30
0.0
 10
0.34304
 20
1.5031100000000002
 30
0.0
 10
0.28462
 20
1.4319900000000001
 30
0.0
 10
0.28462
 20
1.4319900000000001
 30
0.0
 10
0.28462
 20
1.4319900000000001
 30
0.0
 10
0.28462
 20
1.1754500000000001
 30
0.0
 10
-0.04049
 20
1.2186300000000001
 30
0.0
 10
-0.22591
 20
1.19069
 30
0.0
 10
-0.22591
 20
1.19069
 30
0.0
 10
-0.08367
 20
1.2897500000000002
 30
0.0
 10
0.10174
 20
1.4319900000000001
 30
0.0
 10
0.25668
 20
1.5183500000000001
 30
0.0
  0
SPLINE
  5
45
100
AcDbEntity
  8
Ebene 1
 62
     7
100
AcDbSpline
210
0.0
220
0.0
230
1.0
 70
     1
 71
     3
 72
    16
 73
    12
 74
     0
 42
0.0000000001
 43
0.0000000001
 40
0.0
 40
0.0
 40
0.0
 40
0.0
 40
0.3333333333333333
 40
0.3333333333333333
 40
0.3333333333333333
 40
0.3333333333333333
 40
0.6666666666666666
 40
0.6666666666666666
 40
0.6666666666666666
 40
0.6666666666666666
 40
1.0
 40
1.0
 40
1.0
 40
1.0
 10
0.69864
 20
1.5183500000000001
 30
0.0
 10
0.69864
 20
1.5183500000000001
 30
0.0
 10
0.7291200000000001
 20
1.5183500000000001
 30
0.0
 10
0.7291200000000001
 20
1.5183500000000001
 30
0.0
 10
0.7291200000000001
 20
1.5183500000000001
 30
0.0
 10
0.7138800000000001
 20
1.4319900000000001
 30
0.0
 10
0.6300600000000001
 20
1.4192900000000002
 30
0.0
 10
0.5564
 20
1.3888100000000001
 30
0.0
 10
0.5564
 20
1.3888100000000001
 30
0.0
 10
0.4725800000000001
 20
1.5031100000000002
 30
0.0
 10
0.64276
 20
1.49041
 30
0.0
 10
0.69864
 20
1.5183500000000001
 30
0.0
  0
SPLINE
  5
46
100
AcDbEntity
  8
Ebene 1
 62
     7
100
AcDbSpline
210
0.0
220
0.0
230
1.0
 70
     1
 71
     3
 72
    36
 73
    32
 74
     0
 42
0.0000000001
 43
0.0000000001
 40
0.0
 40
0.0
 40
0.0
 40
0.0
 40
0.125
 40
0.125
 40
0.125
 40
0.125
 40
0.25
 40
0.25
 40
0.25
 40
0.25
 40
0.375
 40
0.375
 40
0.375
 40
0.375
 40
0.5
 40
0.5
 40
0.5
 40
0.5
 40
0.625
 40
0.625
 40
0.625
 40
0.625
 40
0.75
 40
0.75
 40
0.75
 40
0.75
 40
0.875
 40
0.875
 40
0.875
 40
0.875
 40
1.0
 40
1.0
 40
1.0
 40
1.0
 10
3.7263200000000003
 20
0.31947
 30
0.0
 10
3.6247200000000004
 20
0.44901
 30
0.0
 10
3.6983800000000002
 20
0.6039500000000001
 30
0.0
 10
3.5840800000000002
 20
0.7334900000000001
 30
0.0
 10
3.5840800000000002
 20
0.7334900000000001
 30
0.0
 10
3.3834200000000001
 20
0.70555
 30
0.0
 10
3.1980000000000004
 20
0.8325500000000001
 30
0.0
 10
3.0125800000000003
 20
0.9189100000000001
 30
0.0
 10
3.0125800000000003
 20
0.9189100000000001
 30
0.0
 10
3.0125800000000003
 20
0.9189100000000001
 30
0.0
 10
2.8551000000000002
 20
0.8198500000000001
 30
0.0
 10
2.8551000000000002
 20
0.8198500000000001
 30
0.0
 10
2.8551000000000002
 20
0.8198500000000001
 30
0.0
 10
2.8703400000000001
 20
0.9468500000000001
 30
0.0
 10
2.9414600000000002
 20
1.0763900000000002
 30
0.0
 10
3.0405200000000003
 20
1.14751
 30
0.0
 10
3.0405200000000003
 20
1.14751
 30
0.0
 10
3.1116400000000004
 20
1.0763900000000002
 30
0.0
 10
3.2132400000000003
 20
1.0052700000000001
 30
0.0
 10
3.3275400000000004
 20
1.01797
 30
0.0
 10
3.3275400000000004
 20
1.01797
 30
0.0
 10
3.5688400000000002
 20
1.0916300000000001
 30
0.0
 10
3.6120200000000002
 20
1.3888100000000001
 30
0.0
 10
3.7695000000000003
 20
1.5183500000000001
 30
0.0
 10
3.7695000000000003
 20
1.5183500000000001
 30
0.0
 10
3.7695000000000003
 20
1.5183500000000001
 30
0.0
 10
3.7695000000000003
 20
1.36087
 30
0.0
 10
3.7695000000000003
 20
1.36087
 30
0.0
 10
3.7695000000000003
 20
1.36087
 30
0.0
 10
3.4977200000000002
 20
1.0332100000000002
 30
0.0
 10
3.8838000000000004
 20
0.6318900000000001
 30
0.0
 10
3.7263200000000003
 20
0.31947
 30
0.0
  0
SPLINE
  5
47
100
AcDbEntity
  8
Ebene 1
 62
     7
100
AcDbSpline
210
0.0
220
0.0
230
1.0
 70
     1
 71
     3
 72
    44
 73
    40
 74
     0
 42
0.0000000001
 43
0.0000000001
 40
0.0
 40
0.0
 40
0.0
 40
0.0
 40
0.1
 40
0.1
 40
0.1
 40
0.1
 40
0.2
 40
0.2
 40
0.2
 40
0.2
 40
0.3
 40
0.3
 40
0.3
 40
0.3
 40
0.4
 40
0.4
 40
0.4
 40
0.4
 40
0.5
 40
0.5
 40
0.5
 40
0.5
 40
0.6
 40
0.6
 40
0.6
 40
0.6
 40
0.7
 40
0.7
 40
0.7
 40
0.7
 40
0.7999999999999999
 40
0.7999999999999999
 40
0.7999999999999999
 40
0.7999999999999999
 40
0.8999999999999999
 40
0.8999999999999999
 40
0.8999999999999999
 40
0.8999999999999999
 40
1.0
 40
1.0
 40
1.0
 40
1.0
 10
2.1134200000000001
 20
1.4751700000000001
 30
0.0
 10
2.2709000000000001
 20
1.4319900000000001
 30
0.0
 10
2.4410800000000004
 20
1.44723
 30
0.0
 10
2.5426800000000003
 20
1.2897500000000002
 30
0.0
 10
2.5426800000000003
 20
1.2897500000000002
 30
0.0
 10
2.5985600000000004
 20
1.3481700000000001
 30
0.0
 10
2.6849200000000004
 20
1.36087
 30
0.0
 10
2.7408000000000001
 20
1.3049900000000001
 30
0.0
 10
2.7408000000000001
 20
1.3049900000000001
 30
0.0
 10
2.7408000000000001
 20
1.3049900000000001
 30
0.0
 10
2.5553800000000004
 20
1.27451
 30
0.0
 10
2.5553800000000004
 20
1.27451
 30
0.0
 10
2.5553800000000004
 20
1.27451
 30
0.0
 10
2.3420200000000002
 20
1.1754500000000001
 30
0.0
 10
3.0989400000000002
 20
1.1322700000000001
 30
0.0
 10
2.75604
 20
1.19069
 30
0.0
 10
2.75604
 20
1.19069
 30
0.0
 10
2.75604
 20
1.19069
 30
0.0
 10
2.6417400000000004
 20
1.2186300000000001
 30
0.0
 10
2.6417400000000004
 20
1.2186300000000001
 30
0.0
 10
2.6417400000000004
 20
1.2186300000000001
 30
0.0
 10
2.5706200000000003
 20
1.2186300000000001
 30
0.0
 10
2.6544400000000001
 20
1.2897500000000002
 30
0.0
 10
2.6849200000000004
 20
1.2618100000000001
 30
0.0
 10
2.6849200000000004
 20
1.2618100000000001
 30
0.0
 10
2.6849200000000004
 20
1.2618100000000001
 30
0.0
 10
2.8830400000000003
 20
1.2618100000000001
 30
0.0
 10
2.8830400000000003
 20
1.2618100000000001
 30
0.0
 10
2.8830400000000003
 20
1.2618100000000001
 30
0.0
 10
2.8982800000000002
 20
1.1170300000000002
 30
0.0
 10
2.8982800000000002
 20
0.9900300000000001
 30
0.0
 10
2.8119200000000002
 20
0.89097
 30
0.0
 10
2.8119200000000002
 20
0.89097
 30
0.0
 10
2.6265000000000001
 20
0.93415
 30
0.0
 10
2.3979000000000004
 20
1.14751
 30
0.0
 10
2.2988400000000002
 20
0.9189100000000001
 30
0.0
 10
2.2988400000000002
 20
0.9189100000000001
 30
0.0
 10
2.3140800000000001
 20
1.1322700000000001
 30
0.0
 10
2.1413600000000002
 20
1.3049900000000001
 30
0.0
 10
2.1134200000000001
 20
1.4751700000000001
 30
0.0
  0
SPLINE
  5
48
100
AcDbEntity
  8
Ebene 1
 62
     7
100
AcDbSpline
210
0.0
220
0.0
230
1.0
 70
     1
 71
     3
 72
    28
 73
    24
 74
     0
 42
0.0000000001
 43
0.0000000001
 40
0.0
 40
0.0
 40
0.0
 40
0.0
 40
0.1666666666666667
 40
0.1666666666666667
 40
0.1666666666666667
 40
0.1666666666666667
 40
0.3333333333333333
 40
0.3333333333333333
 40
0.3333333333333333
 40
0.3333333333333333
 40
0.5
 40
0.5
 40
0.5
 40
0.5
 40
0.6666666666666666
 40
0.6666666666666666
 40
0.6666666666666666
 40
0.6666666666666666
 40
0.8333333333333333
 40
0.8333333333333333
 40
0.8333333333333333
 40
0.8333333333333333
 40
1.0
 40
1.0
 40
1.0
 40
1.0
 10
0.35828
 20
1.40405
 30
0.0
 10
0.4294000000000001
 20
1.31769
 30
0.0
 10
0.5437000000000001
 20
1.23387
 30
0.0
 10
0.658
 20
1.27451
 30
0.0
 10
0.658
 20
1.27451
 30
0.0
 10
0.74182
 20
1.3481700000000001
 30
0.0
 10
0.8561200000000001
 20
1.2465700000000002
 30
0.0
 10
0.9272400000000001
 20
1.2033900000000002
 30
0.0
 10
0.9272400000000001
 20
1.2033900000000002
 30
0.0
 10
0.9272400000000001
 20
1.2033900000000002
 30
0.0
 10
0.7723000000000001
 20
1.1322700000000001
 30
0.0
 10
0.7723000000000001
 20
1.1322700000000001
 30
0.0
 10
0.7723000000000001
 20
1.1322700000000001
 30
0.0
 10
0.5868800000000001
 20
1.19069
 30
0.0
 10
0.24398
 20
0.97733
 30
0.0
 10
0.00268
 20
1.0332100000000002
 30
0.0
 10
0.00268
 20
1.0332100000000002
 30
0.0
 10
0.02808
 20
1.1170300000000002
 30
0.0
 10
0.14492
 20
1.1170300000000002
 30
0.0
 10
0.2008
 20
1.19069
 30
0.0
 10
0.2008
 20
1.19069
 30
0.0
 10
0.29986
 20
1.2186300000000001
 30
0.0
 10
0.3151000000000001
 20
1.31769
 30
0.0
 10
0.35828
 20
1.40405
 30
0.0
  0
SPLINE
  5
49
100
AcDbEntity
  8
Ebene 1
 62
     7
100
AcDbSpline
210
0.0
220
0.0
230
1.0
 70
     1
 71
     3
 72
    28
 73
    24
 74
     0
 42
0.0000000001
 43
0.0000000001
 40
0.0
 40
0.0
 40
0.0
 40
0.0
 40
0.1666666666666667
 40
0.1666666666666667
 40
0.1666666666666667
 40
0.1666666666666667
 40
0.3333333333333333
 40
0.3333333333333333
 40
0.3333333333333333
 40
0.3333333333333333
 40
0.5
 40
0.5
 40
0.5
 40
0.5
 40
0.6666666666666666
 40
0.6666666666666666
 40
0.6666666666666666
 40
0.6666666666666666
 40
0.8333333333333333
 40
0.8333333333333333
 40
0.8333333333333333
 40
0.8333333333333333
 40
1.0
 40
1.0
 40
1.0
 40
1.0
 10
-0.78217
 20
1.1754500000000001
 30
0.0
 10
-0.61199
 20
1.1602100000000002
 30
0.0
 10
-0.45451
 20
1.10433
 30
0.0
 10
-0.29703
 20
1.1602100000000002
 30
0.0
 10
-0.29703
 20
1.1602100000000002
 30
0.0
 10
-0.18273
 20
1.0763900000000002
 30
0.0
 10
-0.05319
 20
1.14751
 30
0.0
 10
0.07126
 20
1.1602100000000002
 30
0.0
 10
0.07126
 20
1.1602100000000002
 30
0.0
 10
0.04332
 20
1.10433
 30
0.0
 10
-0.01001
 20
1.06115
 30
0.0
 10
-0.08367
 20
1.0763900000000002
 30
0.0
 10
-0.08367
 20
1.0763900000000002
 30
0.0
 10
-0.09637
 20
1.0484500000000001
 30
0.0
 10
-0.11161
 20
1.01797
 30
0.0
 10
-0.15479
 20
1.0052700000000001
 30
0.0
 10
-0.15479
 20
1.0052700000000001
 30
0.0
 10
-0.15479
 20
1.0052700000000001
 30
0.0
 10
-0.82535
 20
1.10433
 30
0.0
 10
-0.82535
 20
1.10433
 30
0.0
 10
-0.82535
 20
1.10433
 30
0.0
 10
-0.82535
 20
1.10433
 30
0.0
 10
-0.78217
 20
1.1754500000000001
 30
0.0
 10
-0.78217
 20
1.1754500000000001
 30
0.0
  0
SPLINE
  5
4A
100
AcDbEntity
  8
Ebene 1
 62
     7
100
AcDbSpline
210
0.0
220
0.0
230
1.0
 70
     1
 71
     3
 72
    28
 73
    24
 74
     0
 42
0.0000000001
 43
0.0000000001
 40
0.0
 40
0.0
 40
0.0
 40
0.0
 40
0.1666666666666667
 40
0.1666666666666667
 40
0.1666666666666667
 40
0.1666666666666667
 40
0.3333333333333333
 40
0.3333333333333333
 40
0.3333333333333333
 40
0.3333333333333333
 40
0.5
 40
0.5
 40
0.5
 40
0.5
 40
0.6666666666666666
 40
0.6666666666666666
 40
0.6666666666666666
 40
0.6666666666666666
 40
0.8333333333333333
 40
0.8333333333333333
 40
0.8333333333333333
 40
0.8333333333333333
 40
1.0
 40
1.0
 40
1.0
 40
1.0
 10
-2.2807700000000004
 20
0.8604900000000001
 30
0.0
 10
-2.2528300000000003
 20
0.8604900000000001
 30
0.0
 10
-2.2096500000000003
 20
0.8757300000000001
 30
0.0
 10
-2.1817100000000003
 20
0.84779
 30
0.0
 10
-2.1817100000000003
 20
0.84779
 30
0.0
 10
-2.1817100000000003
 20
0.40583
 30
0.0
 10
-1.9658100000000001
 20
0.01975
 30
0.0
 10
-2.0242300000000002
 20
-0.40696
 30
0.0
 10
-2.0242300000000002
 20
-0.40696
 30
0.0
 10
-2.0242300000000002
 20
-0.40696
 30
0.0
 10
-2.35189
 20
-0.00564
 30
0.0
 10
-2.35189
 20
-0.00564
 30
0.0
 10
-2.35189
 20
-0.00564
 30
0.0
 10
-2.35189
 20
-0.00564
 30
0.0
 10
-2.30871
 20
0.01975
 30
0.0
 10
-2.30871
 20
0.01975
 30
0.0
 10
-2.30871
 20
0.01975
 30
0.0
 10
-2.3798300000000001
 20
0.27629
 30
0.0
 10
-2.35189
 20
0.5480700000000001
 30
0.0
 10
-2.35189
 20
0.8046100000000001
 30
0.0
 10
-2.35189
 20
0.8046100000000001
 30
0.0
 10
-2.35189
 20
0.8046100000000001
 30
0.0
 10
-2.2807700000000004
 20
0.8604900000000001
 30
0.0
 10
-2.2807700000000004
 20
0.8604900000000001
 30
0.0
  0
SPLINE
  5
4B
100
AcDbEntity
  8
Ebene 1
 62
     7
100
AcDbSpline
210
0.0
220
0.0
230
1.0
 70
     1
 71
     3
 72
    24
 73
    20
 74
     0
 42
0.0000000001
 43
0.0000000001
 40
0.0
 40
0.0
 40
0.0
 40
0.0
 40
0.2
 40
0.2
 40
0.2
 40
0.2
 40
0.4
 40
0.4
 40
0.4
 40
0.4
 40
0.6000000000000001
 40
0.6000000000000001
 40
0.6000000000000001
 40
0.6000000000000001
 40
0.8
 40
0.8
 40
0.8
 40
0.8
 40
1.0
 40
1.0
 40
1.0
 40
1.0
 10
2.2988400000000002
 20
0.6903100000000001
 30
0.0
 10
2.3699600000000003
 20
0.6750700000000001
 30
0.0
 10
2.4283800000000002
 20
0.5480700000000001
 30
0.0
 10
2.4995000000000003
 20
0.61919
 30
0.0
 10
2.4995000000000003
 20
0.61919
 30
0.0
 10
2.5122
 20
0.61919
 30
0.0
 10
2.5274400000000004
 20
0.6039500000000001
 30
0.0
 10
2.5274400000000004
 20
0.5912500000000001
 30
0.0
 10
2.5274400000000004
 20
0.5912500000000001
 30
0.0
 10
2.3979000000000004
 20
0.3905900000000001
 30
0.0
 10
2.1693000000000002
 20
0.4617100000000001
 30
0.0
 10
1.9838800000000001
 20
0.43377
 30
0.0
 10
1.9838800000000001
 20
0.43377
 30
0.0
 10
1.9838800000000001
 20
0.43377
 30
0.0
 10
2.1261200000000002
 20
0.5912500000000001
 30
0.0
 10
2.1261200000000002
 20
0.5912500000000001
 30
0.0
 10
2.1261200000000002
 20
0.5912500000000001
 30
0.0
 10
2.1566000000000001
 20
0.6471300000000001
 30
0.0
 10
2.2709000000000001
 20
0.6039500000000001
 30
0.0
 10
2.2988400000000002
 20
0.6903100000000001
 30
0.0
  0
SPLINE
  5
4C
100
AcDbEntity
  8
Ebene 1
 62
     7
100
AcDbSpline
210
0.0
220
0.0
230
1.0
 70
     1
 71
     3
 72
    20
 73
    16
 74
     0
 42
0.0000000001
 43
0.0000000001
 40
0.0
 40
0.0
 40
0.0
 40
0.0
 40
0.25
 40
0.25
 40
0.25
 40
0.25
 40
0.5
 40
0.5
 40
0.5
 40
0.5
 40
0.75
 40
0.75
 40
0.75
 40
0.75
 40
1.0
 40
1.0
 40
1.0
 40
1.0
 10
-1.0971300000000002
 20
0.4617100000000001
 30
0.0
 10
-0.7262900000000001
 20
0.27629
 30
0.0
 10
-0.34021
 20
0.14929
 30
0.0
 10
0.05856
 20
0.03499
 30
0.0
 10
0.05856
 20
0.03499
 30
0.0
 10
0.11444
 20
-0.15042
 30
0.0
 10
0.4421000000000001
 20
-0.16312
 30
0.0
 10
0.59958
 20
-0.27742
 30
0.0
 10
0.59958
 20
-0.27742
 30
0.0
 10
0.59958
 20
-0.27742
 30
0.0
 10
0.64276
 20
-0.41966
 30
0.0
 10
0.64276
 20
-0.41966
 30
0.0
 10
0.64276
 20
-0.41966
 30
0.0
 10
0.12968
 20
-0.03612
 30
0.0
 10
-0.55357
 20
0.06293
 30
0.0
 10
-1.0971300000000002
 20
0.4617100000000001
 30
0.0
  0
SPLINE
  5
4D
100
AcDbEntity
  8
Ebene 1
 62
     7
100
AcDbSpline
210
0.0
220
0.0
230
1.0
 70
     1
 71
     3
 72
    44
 73
    40
 74
     0
 42
0.0000000001
 43
0.0000000001
 40
0.0
 40
0.0
 40
0.0
 40
0.0
 40
0.1
 40
0.1
 40
0.1
 40
0.1
 40
0.2
 40
0.2
 40
0.2
 40
0.2
 40
0.3
 40
0.3
 40
0.3
 40
0.3
 40
0.4
 40
0.4
 40
0.4
 40
0.4
 40
0.5
 40
0.5
 40
0.5
 40
0.5
 40
0.6
 40
0.6
 40
0.6
 40
0.6
 40
0.7
 40
0.7
 40
0.7
 40
0.7
 40
0.7999999999999999
 40
0.7999999999999999
 40
0.7999999999999999
 40
0.7999999999999999
 40
0.8999999999999999
 40
0.8999999999999999
 40
0.8999999999999999
 40
0.8999999999999999
 40
1.0
 40
1.0
 40
1.0
 40
1.0
 10
-4.39405
 20
0.44901
 30
0.0
 10
-4.3483300000000007
 20
0.4617100000000001
 30
0.0
 10
-4.3686500000000006
 20
0.40583
 30
0.0
 10
-4.3635700000000002
 20
0.37535
 30
0.0
 10
-4.3635700000000002
 20
0.37535
 30
0.0
 10
-4.5413700000000006
 20
0.20517
 30
0.0
 10
-4.4600900000000001
 20
-0.03612
 30
0.0
 10
-4.34579
 20
-0.22154
 30
0.0
 10
-4.34579
 20
-0.22154
 30
0.0
 10
-4.3991300000000004
 20
-0.27742
 30
0.0
 10
-4.4880300000000002
 20
-0.10724
 30
0.0
 10
-4.51851
 20
-0.07676
 30
0.0
 10
-4.51851
 20
-0.07676
 30
0.0
 10
-4.5083500000000001
 20
-0.24948
 30
0.0
 10
-4.30769
 20
-0.37648
 30
0.0
 10
-4.18323
 20
-0.4907800000000001
 30
0.0
 10
-4.18323
 20
-0.4907800000000001
 30
0.0
 10
-4.18323
 20
-0.39172
 30
0.0
 10
-4.2924500000000005
 20
-0.34854
 30
0.0
 10
-4.2899100000000008
 20
-0.24948
 30
0.0
 10
-4.2899100000000008
 20
-0.24948
 30
0.0
 10
-4.2060900000000006
 20
-0.22154
 30
0.0
 10
-4.2137100000000007
 20
-0.3333
 30
0.0
 10
-4.1654500000000008
 20
-0.3637800000000001
 30
0.0
 10
-4.1654500000000008
 20
-0.3637800000000001
 30
0.0
 10
-4.13497
 20
-0.29266
 30
0.0
 10
-4.1273500000000007
 20
-0.17836
 30
0.0
 10
-4.0536900000000005
 20
-0.11994
 30
0.0
 10
-4.0536900000000005
 20
-0.11994
 30
0.0
 10
-4.0079700000000003
 20
-0.19106
 30
0.0
 10
-4.0765500000000001
 20
-0.26472
 30
0.0
 10
-4.0943300000000002
 20
-0.3206000000000001
 30
0.0
 10
-4.0943300000000002
 20
-0.3206000000000001
 30
0.0
 10
-4.1171899999999999
 20
-0.39172
 30
0.0
 10
-4.14513
 20
-0.4780800000000001
 30
0.0
 10
-4.1400500000000005
 20
-0.5619000000000001
 30
0.0
 10
-4.1400500000000005
 20
-0.5619000000000001
 30
0.0
 10
-4.5515300000000005
 20
-0.39172
 30
0.0
 10
-4.7267900000000003
 20
0.11881
 30
0.0
 10
-4.39405
 20
0.44901
 30
0.0
  0
SPLINE
  5
4E
100
AcDbEntity
  8
Ebene 1
 62
     7
100
AcDbSpline
210
0.0
220
0.0
230
1.0
 70
     1
 71
     3
 72
    24
 73
    20
 74
     0
 42
0.0000000001
 43
0.0000000001
 40
0.0
 40
0.0
 40
0.0
 40
0.0
 40
0.2
 40
0.2
 40
0.2
 40
0.2
 40
0.4
 40
0.4
 40
0.4
 40
0.4
 40
0.6000000000000001
 40
0.6000000000000001
 40
0.6000000000000001
 40
0.6000000000000001
 40
0.8
 40
0.8
 40
0.8
 40
0.8
 40
1.0
 40
1.0
 40
1.0
 40
1.0
 10
3.7110800000000004
 20
0.30423
 30
0.0
 10
3.7110800000000004
 20
0.27629
 30
0.0
 10
3.6679000000000004
 20
0.27629
 30
0.0
 10
3.6399600000000003
 20
0.27629
 30
0.0
 10
3.6399600000000003
 20
0.27629
 30
0.0
 10
3.4977200000000002
 20
0.09087
 30
0.0
 10
3.2691200000000005
 20
0.19247
 30
0.0
 10
3.0989400000000002
 20
0.24835
 30
0.0
 10
3.0989400000000002
 20
0.24835
 30
0.0
 10
3.0989400000000002
 20
0.24835
 30
0.0
 10
3.0989400000000002
 20
0.31947
 30
0.0
 10
3.0989400000000002
 20
0.31947
 30
0.0
 10
3.0989400000000002
 20
0.31947
 30
0.0
 10
3.0989400000000002
 20
0.31947
 30
0.0
 10
3.1548200000000004
 20
0.29153
 30
0.0
 10
3.1548200000000004
 20
0.29153
 30
0.0
 10
3.1548200000000004
 20
0.29153
 30
0.0
 10
3.3402400000000001
 20
0.3474100000000001
 30
0.0
 10
3.5256600000000002
 20
0.24835
 30
0.0
 10
3.7110800000000004
 20
0.30423
 30
0.0
  0
SPLINE
  5
4F
100
AcDbEntity
  8
Ebene 1
 62
     7
100
AcDbSpline
210
0.0
220
0.0
230
1.0
 70
     1
 71
     3
 72
    24
 73
    20
 74
     0
 42
0.0000000001
 43
0.0000000001
 40
0.0
 40
0.0
 40
0.0
 40
0.0
 40
0.2
 40
0.2
 40
0.2
 40
0.2
 40
0.4
 40
0.4
 40
0.4
 40
0.4
 40
0.6000000000000001
 40
0.6000000000000001
 40
0.6000000000000001
 40
0.6000000000000001
 40
0.8
 40
0.8
 40
0.8
 40
0.8
 40
1.0
 40
1.0
 40
1.0
 40
1.0
 10
0.61482
 20
0.26105
 30
0.0
 10
0.74182
 20
0.20517
 30
0.0
 10
0.87136
 20
0.17723
 30
0.0
 10
1.0136000000000001
 20
0.14929
 30
0.0
 10
1.0136000000000001
 20
0.14929
 30
0.0
 10
1.2269600000000001
 20
0.19247
 30
0.0
 10
1.3412600000000001
 20
-0.13518
 30
0.0
 10
1.1710800000000001
 20
-0.27742
 30
0.0
 10
1.1710800000000001
 20
-0.27742
 30
0.0
 10
0.87136
 20
-0.07676
 30
0.0
 10
0.52846
 20
0.04769
 30
0.0
 10
0.17032
 20
0.11881
 30
0.0
 10
0.17032
 20
0.11881
 30
0.0
 10
0.17032
 20
0.11881
 30
0.0
 10
0.12968
 20
0.17723
 30
0.0
 10
0.12968
 20
0.17723
 30
0.0
 10
0.12968
 20
0.17723
 30
0.0
 10
0.12968
 20
0.17723
 30
0.0
 10
0.61482
 20
0.26105
 30
0.0
 10
0.61482
 20
0.26105
 30
0.0
  0
SPLINE
  5
50
100
AcDbEntity
  8
Ebene 1
 62
     7
100
AcDbSpline
210
0.0
220
0.0
230
1.0
 70
     1
 71
     3
 72
    60
 73
    56
 74
     0
 42
0.0000000001
 43
0.0000000001
 40
0.0
 40
0.0
 40
0.0
 40
0.0
 40
0.0714285714285714
 40
0.0714285714285714
 40
0.0714285714285714
 40
0.0714285714285714
 40
0.1428571428571429
 40
0.1428571428571429
 40
0.1428571428571429
 40
0.1428571428571429
 40
0.2142857142857143
 40
0.2142857142857143
 40
0.2142857142857143
 40
0.2142857142857143
 40
0.2857142857142857
 40
0.2857142857142857
 40
0.2857142857142857
 40
0.2857142857142857
 40
0.3571428571428571
 40
0.3571428571428571
 40
0.3571428571428571
 40
0.3571428571428571
 40
0.4285714285714285
 40
0.4285714285714285
 40
0.4285714285714285
 40
0.4285714285714285
 40
0.4999999999999999
 40
0.4999999999999999
 40
0.4999999999999999
 40
0.4999999999999999
 40
0.5714285714285713
 40
0.5714285714285713
 40
0.5714285714285713
 40
0.5714285714285713
 40
0.6428571428571427
 40
0.6428571428571427
 40
0.6428571428571427
 40
0.6428571428571427
 40
0.7142857142857141
 40
0.7142857142857141
 40
0.7142857142857141
 40
0.7142857142857141
 40
0.7857142857142855
 40
0.7857142857142855
 40
0.7857142857142855
 40
0.7857142857142855
 40
0.8571428571428569
 40
0.8571428571428569
 40
0.8571428571428569
 40
0.8571428571428569
 40
0.9285714285714283
 40
0.9285714285714283
 40
0.9285714285714283
 40
0.9285714285714283
 40
1.0
 40
1.0
 40
1.0
 40
1.0
 10
2.2404200000000003
 20
0.24835
 30
0.0
 10
2.3267800000000003
 20
0.24835
 30
0.0
 10
2.4563200000000003
 20
0.26105
 30
0.0
 10
2.3699600000000003
 20
0.16199
 30
0.0
 10
2.3699600000000003
 20
0.16199
 30
0.0
 10
2.3852000000000002
 20
0.14929
 30
0.0
 10
2.3979000000000004
 20
0.17723
 30
0.0
 10
2.4131400000000003
 20
0.17723
 30
0.0
 10
2.4131400000000003
 20
0.17723
 30
0.0
 10
2.4283800000000002
 20
0.20517
 30
0.0
 10
2.46902
 20
0.23311
 30
0.0
 10
2.5122
 20
0.21787
 30
0.0
 10
2.5122
 20
0.21787
 30
0.0
 10
2.2556600000000002
 20
-0.10724
 30
0.0
 10
1.8568800000000001
 20
-0.19106
 30
0.0
 10
1.4708000000000001
 20
-0.24948
 30
0.0
 10
1.4708000000000001
 20
-0.24948
 30
0.0
 10
1.48604
 20
-0.19106
 30
0.0
 10
1.5139800000000001
 20
-0.11994
 30
0.0
 10
1.5139800000000001
 20
-0.04882
 30
0.0
 10
1.5139800000000001
 20
-0.04882
 30
0.0
 10
1.56986
 20
-0.04882
 30
0.0
 10
1.6003400000000001
 20
-0.24948
 30
0.0
 10
1.61304
 20
-0.10724
 30
0.0
 10
1.61304
 20
-0.10724
 30
0.0
 10
1.6282800000000002
 20
-0.06406
 30
0.0
 10
1.7705200000000001
 20
-0.02088
 30
0.0
 10
1.8264000000000002
 20
-0.06406
 30
0.0
 10
1.8264000000000002
 20
-0.06406
 30
0.0
 10
1.8264000000000002
 20
-0.06406
 30
0.0
 10
1.9991200000000002
 20
0.01975
 30
0.0
 10
1.9991200000000002
 20
0.01975
 30
0.0
 10
1.9991200000000002
 20
0.01975
 30
0.0
 10
2.0575400000000004
 20
-0.02088
 30
0.0
 10
2.0829400000000002
 20
0.01975
 30
0.0
 10
2.1413600000000002
 20
0.04769
 30
0.0
 10
2.1413600000000002
 20
0.04769
 30
0.0
 10
2.1566000000000001
 20
0.06293
 30
0.0
 10
2.1566000000000001
 20
0.10611
 30
0.0
 10
2.1413600000000002
 20
0.11881
 30
0.0
 10
2.1413600000000002
 20
0.11881
 30
0.0
 10
1.9838800000000001
 20
0.09087
 30
0.0
 10
1.8264000000000002
 20
0.00451
 30
0.0
 10
1.6714600000000002
 20
0.04769
 30
0.0
 10
1.6714600000000002
 20
0.04769
 30
0.0
 10
1.6714600000000002
 20
0.04769
 30
0.0
 10
1.7273400000000001
 20
0.11881
 30
0.0
 10
1.7273400000000001
 20
0.11881
 30
0.0
 10
1.7273400000000001
 20
0.11881
 30
0.0
 10
1.7273400000000001
 20
0.11881
 30
0.0
 10
1.9838800000000001
 20
0.14929
 30
0.0
 10
1.9838800000000001
 20
0.14929
 30
0.0
 10
1.9838800000000001
 20
0.14929
 30
0.0
 10
1.9838800000000001
 20
0.14929
 30
0.0
 10
2.2404200000000003
 20
0.24835
 30
0.0
 10
2.2404200000000003
 20
0.24835
 30
0.0
  0
SPLINE
  5
51
100
AcDbEntity
  8
Ebene 1
 62
     7
100
AcDbSpline
210
0.0
220
0.0
230
1.0
 70
     1
 71
     3
 72
    24
 73
    20
 74
     0
 42
0.0000000001
 43
0.0000000001
 40
0.0
 40
0.0
 40
0.0
 40
0.0
 40
0.2
 40
0.2
 40
0.2
 40
0.2
 40
0.4
 40
0.4
 40
0.4
 40
0.4
 40
0.6000000000000001
 40
0.6000000000000001
 40
0.6000000000000001
 40
0.6000000000000001
 40
0.8
 40
0.8
 40
0.8
 40
0.8
 40
1.0
 40
1.0
 40
1.0
 40
1.0
 10
1.3285600000000002
 20
0.10611
 30
0.0
 10
1.3565
 20
0.10611
 30
0.0
 10
1.3844400000000001
 20
0.10611
 30
0.0
 10
1.4149200000000002
 20
0.07817
 30
0.0
 10
1.4149200000000002
 20
0.07817
 30
0.0
 10
1.4149200000000002
 20
0.07817
 30
0.0
 10
1.3844400000000001
 20
-0.26472
 30
0.0
 10
1.3844400000000001
 20
-0.26472
 30
0.0
 10
1.3844400000000001
 20
-0.26472
 30
0.0
 10
1.3717400000000002
 20
-0.27742
 30
0.0
 10
1.3565
 20
-0.27742
 30
0.0
 10
1.3412600000000001
 20
-0.27742
 30
0.0
 10
1.3412600000000001
 20
-0.27742
 30
0.0
 10
1.3412600000000001
 20
-0.27742
 30
0.0
 10
1.3285600000000002
 20
-0.22154
 30
0.0
 10
1.3285600000000002
 20
-0.22154
 30
0.0
 10
1.3285600000000002
 20
-0.22154
 30
0.0
 10
1.4149200000000002
 20
-0.11994
 30
0.0
 10
1.3006200000000001
 20
0.00451
 30
0.0
 10
1.3285600000000002
 20
0.10611
 30
0.0
  0
SPLINE
  5
52
100
AcDbEntity
  8
Ebene 1
 62
     7
100
AcDbSpline
210
0.0
220
0.0
230
1.0
 70
     1
 71
     3
 72
    28
 73
    24
 74
     0
 42
0.0000000001
 43
0.0000000001
 40
0.0
 40
0.0
 40
0.0
 40
0.0
 40
0.1666666666666667
 40
0.1666666666666667
 40
0.1666666666666667
 40
0.1666666666666667
 40
0.3333333333333333
 40
0.3333333333333333
 40
0.3333333333333333
 40
0.3333333333333333
 40
0.5
 40
0.5
 40
0.5
 40
0.5
 40
0.6666666666666666
 40
0.6666666666666666
 40
0.6666666666666666
 40
0.6666666666666666
 40
0.8333333333333333
 40
0.8333333333333333
 40
0.8333333333333333
 40
0.8333333333333333
 40
1.0
 40
1.0
 40
1.0
 40
1.0
 10
3.6679000000000004
 20
0.06293
 30
0.0
 10
3.6831400000000003
 20
0.06293
 30
0.0
 10
3.6983800000000002
 20
0.06293
 30
0.0
 10
3.7110800000000004
 20
0.04769
 30
0.0
 10
3.7110800000000004
 20
0.04769
 30
0.0
 10
3.6983800000000002
 20
-0.11994
 30
0.0
 10
3.6247200000000004
 20
-0.27742
 30
0.0
 10
3.5256600000000002
 20
-0.40696
 30
0.0
 10
3.5256600000000002
 20
-0.40696
 30
0.0
 10
3.4545400000000002
 20
-0.37648
 30
0.0
 10
3.3834200000000001
 20
-0.29266
 30
0.0
 10
3.3275400000000004
 20
-0.22154
 30
0.0
 10
3.3275400000000004
 20
-0.22154
 30
0.0
 10
3.4113600000000002
 20
-0.2063
 30
0.0
 10
3.4697800000000001
 20
-0.37648
 30
0.0
 10
3.5409000000000002
 20
-0.29266
 30
0.0
 10
3.5409000000000002
 20
-0.29266
 30
0.0
 10
3.6247200000000004
 20
-0.16312
 30
0.0
 10
3.5688400000000002
 20
-0.03612
 30
0.0
 10
3.4266000000000001
 20
0.00451
 30
0.0
 10
3.4266000000000001
 20
0.00451
 30
0.0
 10
3.4266000000000001
 20
0.00451
 30
0.0
 10
3.6679000000000004
 20
0.06293
 30
0.0
 10
3.6679000000000004
 20
0.06293
 30
0.0
  0
SPLINE
  5
53
100
AcDbEntity
  8
Ebene 1
 62
     7
100
AcDbSpline
210
0.0
220
0.0
230
1.0
 70
     1
 71
     3
 72
    32
 73
    28
 74
     0
 42
0.0000000001
 43
0.0000000001
 40
0.0
 40
0.0
 40
0.0
 40
0.0
 40
0.1428571428571429
 40
0.1428571428571429
 40
0.1428571428571429
 40
0.1428571428571429
 40
0.2857142857142857
 40
0.2857142857142857
 40
0.2857142857142857
 40
0.2857142857142857
 40
0.4285714285714286
 40
0.4285714285714286
 40
0.4285714285714286
 40
0.4285714285714286
 40
0.5714285714285714
 40
0.5714285714285714
 40
0.5714285714285714
 40
0.5714285714285714
 40
0.7142857142857142
 40
0.7142857142857142
 40
0.7142857142857142
 40
0.7142857142857142
 40
0.857142857142857
 40
0.857142857142857
 40
0.857142857142857
 40
0.857142857142857
 40
1.0
 40
1.0
 40
1.0
 40
1.0
 10
0.24398
 20
-0.00564
 30
0.0
 10
0.24398
 20
-0.00564
 30
0.0
 10
0.9272400000000001
 20
-0.23424
 30
0.0
 10
0.9272400000000001
 20
-0.23424
 30
0.0
 10
0.9272400000000001
 20
-0.23424
 30
0.0
 10
1.1279000000000001
 20
-0.40696
 30
0.0
 10
1.1152000000000002
 20
-0.7778000000000001
 30
0.0
 10
0.8129400000000001
 20
-0.7930400000000001
 30
0.0
 10
0.8129400000000001
 20
-0.7930400000000001
 30
0.0
 10
0.7723000000000001
 20
-0.80574
 30
0.0
 10
0.74182
 20
-0.71938
 30
0.0
 10
0.7723000000000001
 20
-0.6914400000000001
 30
0.0
 10
0.7723000000000001
 20
-0.6914400000000001
 30
0.0
 10
0.8129400000000001
 20
-0.7066800000000001
 30
0.0
 10
0.8434200000000001
 20
-0.71938
 30
0.0
 10
0.8866000000000001
 20
-0.6914400000000001
 30
0.0
 10
0.8866000000000001
 20
-0.6914400000000001
 30
0.0
 10
0.8993000000000001
 20
-0.6635000000000001
 30
0.0
 10
0.8866000000000001
 20
-0.6482600000000001
 30
0.0
 10
0.8866000000000001
 20
-0.6203200000000001
 30
0.0
 10
0.8866000000000001
 20
-0.6203200000000001
 30
0.0
 10
0.8866000000000001
 20
-0.6203200000000001
 30
0.0
 10
0.9577200000000001
 20
-0.6203200000000001
 30
0.0
 10
0.9577200000000001
 20
-0.6203200000000001
 30
0.0
 10
0.9577200000000001
 20
-0.6203200000000001
 30
0.0
 10
0.9856600000000001
 20
-0.22154
 30
0.0
 10
0.4421000000000001
 20
-0.2063
 30
0.0
 10
0.24398
 20
-0.00564
 30
0.0
  0
SPLINE
  5
54
100
AcDbEntity
  8
Ebene 1
 62
     7
100
AcDbSpline
210
0.0
220
0.0
230
1.0
 70
     1
 71
     3
 72
    12
 73
     8
 74
     0
 42
0.0000000001
 43
0.0000000001
 40
0.0
 40
0.0
 40
0.0
 40
0.0
 40
0.5
 40
0.5
 40
0.5
 40
0.5
 40
1.0
 40
1.0
 40
1.0
 40
1.0
 10
-0.12431
 20
-0.15042
 30
0.0
 10
0.17032
 20
-0.19106
 30
0.0
 10
0.51576
 20
-0.37648
 30
0.0
 10
0.59958
 20
-0.6914400000000001
 30
0.0
 10
0.59958
 20
-0.6914400000000001
 30
0.0
 10
0.37098
 20
-0.4907800000000001
 30
0.0
 10
0.11444
 20
-0.29266
 30
0.0
 10
-0.12431
 20
-0.15042
 30
0.0
  0
SPLINE
  5
55
100
AcDbEntity
  8
Ebene 1
100
AcDbSpline
210
0.0
220
0.0
230
1.0
 70
     1
 71
     3
 72
    52
 73
    48
 74
     0
 42
0.0000000001
 43
0.0000000001
 40
0.0
 40
0.0
 40
0.0
 40
0.0
 40
0.0833333333333333
 40
0.0833333333333333
 40
0.0833333333333333
 40
0.0833333333333333
 40
0.1666666666666667
 40
0.1666666666666667
 40
0.1666666666666667
 40
0.1666666666666667
 40
0.25
 40
0.25
 40
0.25
 40
0.25
 40
0.3333333333333333
 40
0.3333333333333333
 40
0.3333333333333333
 40
0.3333333333333333
 40
0.4166666666666666
 40
0.4166666666666666
 40
0.4166666666666666
 40
0.4166666666666666
 40
0.4999999999999999
 40
0.4999999999999999
 40
0.4999999999999999
 40
0.4999999999999999
 40
0.5833333333333333
 40
0.5833333333333333
 40
0.5833333333333333
 40
0.5833333333333333
 40
0.6666666666666666
 40
0.6666666666666666
 40
0.6666666666666666
 40
0.6666666666666666
 40
0.75
 40
0.75
 40
0.75
 40
0.75
 40
0.8333333333333334
 40
0.8333333333333334
 40
0.8333333333333334
 40
0.8333333333333334
 40
0.9166666666666667
 40
0.9166666666666667
 40
0.9166666666666667
 40
0.9166666666666667
 40
1.0
 40
1.0
 40
1.0
 40
1.0
 10
-3.2383500000000001
 20
-0.5492
 30
0.0
 10
-3.2383500000000001
 20
-0.5492
 30
0.0
 10
-3.1088100000000001
 20
-0.8184400000000001
 30
0.0
 10
-3.1088100000000001
 20
-0.8184400000000001
 30
0.0
 10
-3.1088100000000001
 20
-0.8184400000000001
 30
0.0
 10
-3.2383500000000001
 20
-1.2197600000000002
 30
0.0
 10
-3.4339300000000001
 20
-1.54742
 30
0.0
 10
-3.3831300000000004
 20
-1.9893800000000001
 30
0.0
 10
-3.3831300000000004
 20
-1.9893800000000001
 30
0.0
 10
-3.4059900000000001
 20
-2.01986
 30
0.0
 10
-3.4466300000000003
 20
-1.9766800000000002
 30
0.0
 10
-3.4745700000000004
 20
-1.9766800000000002
 30
0.0
 10
-3.4745700000000004
 20
-1.9766800000000002
 30
0.0
 10
-3.4517100000000003
 20
-1.8750800000000001
 30
0.0
 10
-3.5634700000000001
 20
-1.7480800000000001
 30
0.0
 10
-3.6117300000000001
 20
-1.9055600000000001
 30
0.0
 10
-3.6117300000000001
 20
-1.9055600000000001
 30
0.0
 10
-3.7057100000000003
 20
-1.8344400000000001
 30
0.0
 10
-3.7133300000000005
 20
-1.8750800000000001
 30
0.0
 10
-3.7463500000000005
 20
-1.9614400000000001
 30
0.0
 10
-3.7463500000000005
 20
-1.9614400000000001
 30
0.0
 10
-3.7463500000000005
 20
-1.9614400000000001
 30
0.0
 10
-3.7615900000000004
 20
-1.9487400000000001
 30
0.0
 10
-3.7615900000000004
 20
-1.9487400000000001
 30
0.0
 10
-3.7615900000000004
 20
-1.9487400000000001
 30
0.0
 10
-3.7615900000000004
 20
-1.9487400000000001
 30
0.0
 10
-3.7615900000000004
 20
-1.8344400000000001
 30
0.0
 10
-3.7615900000000004
 20
-1.8344400000000001
 30
0.0
 10
-3.7615900000000004
 20
-1.8344400000000001
 30
0.0
 10
-3.4085300000000003
 20
-1.7480800000000001
 30
0.0
 10
-3.5050500000000002
 20
-1.1918200000000001
 30
0.0
 10
-3.2231100000000001
 20
-1.1054600000000001
 30
0.0
 10
-3.2231100000000001
 20
-1.1054600000000001
 30
0.0
 10
-3.2231100000000001
 20
-1.0064000000000002
 30
0.0
 10
-3.2231100000000001
 20
-0.9048000000000001
 30
0.0
 10
-3.2815300000000001
 20
-0.8336800000000001
 30
0.0
 10
-3.2815300000000001
 20
-0.8336800000000001
 30
0.0
 10
-3.2815300000000001
 20
-0.8336800000000001
 30
0.0
 10
-3.3653500000000003
 20
-0.8921000000000001
 30
0.0
 10
-3.3653500000000003
 20
-0.8921000000000001
 30
0.0
 10
-3.3653500000000003
 20
-0.8921000000000001
 30
0.0
 10
-3.3653500000000003
 20
-0.8921000000000001
 30
0.0
 10
-3.3805900000000002
 20
-0.80574
 30
0.0
 10
-3.3805900000000002
 20
-0.80574
 30
0.0
 10
-3.3805900000000002
 20
-0.80574
 30
0.0
 10
-3.3805900000000002
 20
-0.80574
 30
0.0
 10
-3.2383500000000001
 20
-0.5492
 30
0.0
 10
-3.2383500000000001
 20
-0.5492
 30
0.0
  0
SPLINE
  5
56
100
AcDbEntity
  8
Ebene 1
100
AcDbSpline
210
0.0
220
0.0
230
1.0
 70
     1
 71
     3
 72
    12
 73
     8
 74
     0
 42
0.0000000001
 43
0.0000000001
 40
0.0
 40
0.0
 40
0.0
 40
0.0
 40
0.5
 40
0.5
 40
0.5
 40
0.5
 40
1.0
 40
1.0
 40
1.0
 40
1.0
 10
-1.7803900000000001
 20
-0.7346200000000001
 30
0.0
 10
-1.6813300000000002
 20
-0.8184400000000001
 30
0.0
 10
-1.5822700000000001
 20
-0.9632200000000001
 30
0.0
 10
-1.5238500000000001
 20
-1.0902200000000002
 30
0.0
 10
-1.5238500000000001
 20
-1.0902200000000002
 30
0.0
 10
-1.6254500000000001
 20
-1.0064000000000002
 30
0.0
 10
-1.7524500000000001
 20
-0.8768600000000001
 30
0.0
 10
-1.7803900000000001
 20
-0.7346200000000001
 30
0.0
  0
SPLINE
  5
57
100
AcDbEntity
  8
Ebene 1
 62
     7
100
AcDbSpline
210
0.0
220
0.0
230
1.0
 70
     1
 71
     3
 72
    28
 73
    24
 74
     0
 42
0.0000000001
 43
0.0000000001
 40
0.0
 40
0.0
 40
0.0
 40
0.0
 40
0.1666666666666667
 40
0.1666666666666667
 40
0.1666666666666667
 40
0.1666666666666667
 40
0.3333333333333333
 40
0.3333333333333333
 40
0.3333333333333333
 40
0.3333333333333333
 40
0.5
 40
0.5
 40
0.5
 40
0.5
 40
0.6666666666666666
 40
0.6666666666666666
 40
0.6666666666666666
 40
0.6666666666666666
 40
0.8333333333333333
 40
0.8333333333333333
 40
0.8333333333333333
 40
0.8333333333333333
 40
1.0
 40
1.0
 40
1.0
 40
1.0
 10
-0.19797
 20
-1.1918200000000001
 30
0.0
 10
-0.11161
 20
-1.16388
 30
0.0
 10
-0.08367
 20
-1.2781800000000001
 30
0.0
 10
0.00268
 20
-1.2350000000000001
 30
0.0
 10
0.00268
 20
-1.2350000000000001
 30
0.0
 10
0.02808
 20
-1.3213600000000001
 30
0.0
 10
0.04332
 20
-1.4051800000000001
 30
0.0
 10
0.10174
 20
-1.4763000000000002
 30
0.0
 10
0.10174
 20
-1.4763000000000002
 30
0.0
 10
0.17032
 20
-1.46106
 30
0.0
 10
0.17032
 20
-1.37724
 30
0.0
 10
0.2008
 20
-1.33406
 30
0.0
 10
0.2008
 20
-1.33406
 30
0.0
 10
0.3278
 20
-1.4331200000000002
 30
0.0
 10
0.12968
 20
-1.5779000000000001
 30
0.0
 10
0.02808
 20
-1.6337800000000002
 30
0.0
 10
0.02808
 20
-1.6337800000000002
 30
0.0
 10
0.02808
 20
-1.6337800000000002
 30
0.0
 10
-0.21067
 20
-1.2629400000000002
 30
0.0
 10
-0.21067
 20
-1.2629400000000002
 30
0.0
 10
-0.21067
 20
-1.2629400000000002
 30
0.0
 10
-0.21067
 20
-1.2350000000000001
 30
0.0
 10
-0.21067
 20
-1.20452
 30
0.0
 10
-0.19797
 20
-1.1918200000000001
 30
0.0
  0
SPLINE
  5
58
100
AcDbEntity
  8
Ebene 1
 62
     7
100
AcDbSpline
210
0.0
220
0.0
230
1.0
 70
     1
 71
     3
 72
    36
 73
    32
 74
     0
 42
0.0000000001
 43
0.0000000001
 40
0.0
 40
0.0
 40
0.0
 40
0.0
 40
0.125
 40
0.125
 40
0.125
 40
0.125
 40
0.25
 40
0.25
 40
0.25
 40
0.25
 40
0.375
 40
0.375
 40
0.375
 40
0.375
 40
0.5
 40
0.5
 40
0.5
 40
0.5
 40
0.625
 40
0.625
 40
0.625
 40
0.625
 40
0.75
 40
0.75
 40
0.75
 40
0.75
 40
0.875
 40
0.875
 40
0.875
 40
0.875
 40
1.0
 40
1.0
 40
1.0
 40
1.0
 10
-0.46721
 20
-1.3620000000000001
 30
0.0
 10
-0.38085
 20
-1.4483600000000001
 30
0.0
 10
-0.36815
 20
-1.5779000000000001
 30
0.0
 10
-0.34021
 20
-1.6922000000000001
 30
0.0
 10
-0.34021
 20
-1.6922000000000001
 30
0.0
 10
-0.32497
 20
-1.7480800000000001
 30
0.0
 10
-0.29703
 20
-1.8192000000000002
 30
0.0
 10
-0.29703
 20
-1.7328400000000002
 30
0.0
 10
-0.29703
 20
-1.7328400000000002
 30
0.0
 10
-0.28179
 20
-1.6617200000000001
 30
0.0
 10
-0.23861
 20
-1.7760200000000002
 30
0.0
 10
-0.21067
 20
-1.6490200000000002
 30
0.0
 10
-0.21067
 20
-1.6490200000000002
 30
0.0
 10
-0.21067
 20
-1.6490200000000002
 30
0.0
 10
-0.18273
 20
-1.5194800000000002
 30
0.0
 10
-0.18273
 20
-1.5194800000000002
 30
0.0
 10
-0.18273
 20
-1.5194800000000002
 30
0.0
 10
-0.15479
 20
-1.5906000000000002
 30
0.0
 10
-0.08367
 20
-1.6490200000000002
 30
0.0
 10
-0.09637
 20
-1.7328400000000002
 30
0.0
 10
-0.09637
 20
-1.7328400000000002
 30
0.0
 10
-0.21067
 20
-1.8192000000000002
 30
0.0
 10
-0.32497
 20
-1.8750800000000001
 30
0.0
 10
-0.45451
 20
-1.9487400000000001
 30
0.0
 10
-0.45451
 20
-1.9487400000000001
 30
0.0
 10
-0.52563
 20
-1.8192000000000002
 30
0.0
 10
-0.6831100000000001
 20
-1.5626600000000002
 30
0.0
 10
-0.51039
 20
-1.4763000000000002
 30
0.0
 10
-0.51039
 20
-1.4763000000000002
 30
0.0
 10
-0.51039
 20
-1.4763000000000002
 30
0.0
 10
-0.46721
 20
-1.3620000000000001
 30
0.0
 10
-0.46721
 20
-1.3620000000000001
 30
0.0
  0
SPLINE
  5
59
100
AcDbEntity
  8
Ebene 1
 62
     7
100
AcDbSpline
210
0.0
220
0.0
230
1.0
 70
     1
 71
     3
 72
    44
 73
    40
 74
     0
 42
0.0000000001
 43
0.0000000001
 40
0.0
 40
0.0
 40
0.0
 40
0.0
 40
0.1
 40
0.1
 40
0.1
 40
0.1
 40
0.2
 40
0.2
 40
0.2
 40
0.2
 40
0.3
 40
0.3
 40
0.3
 40
0.3
 40
0.4
 40
0.4
 40
0.4
 40
0.4
 40
0.5
 40
0.5
 40
0.5
 40
0.5
 40
0.6
 40
0.6
 40
0.6
 40
0.6
 40
0.7
 40
0.7
 40
0.7
 40
0.7
 40
0.7999999999999999
 40
0.7999999999999999
 40
0.7999999999999999
 40
0.7999999999999999
 40
0.8999999999999999
 40
0.8999999999999999
 40
0.8999999999999999
 40
0.8999999999999999
 40
1.0
 40
1.0
 40
1.0
 40
1.0
 10
-0.82535
 20
-1.6922000000000001
 30
0.0
 10
-0.73899
 20
-1.7912600000000001
 30
0.0
 10
-0.7542300000000001
 20
-1.9487400000000001
 30
0.0
 10
-0.69581
 20
-2.06304
 30
0.0
 10
-0.69581
 20
-2.06304
 30
0.0
 10
-0.61199
 20
-2.01986
 30
0.0
 10
-0.69581
 20
-1.6769600000000002
 30
0.0
 10
-0.59675
 20
-1.8344400000000001
 30
0.0
 10
-0.59675
 20
-1.8344400000000001
 30
0.0
 10
-0.4824500000000001
 20
-2.0046200000000001
 30
0.0
 10
-0.7110500000000001
 20
-2.1341600000000001
 30
0.0
 10
-0.8380500000000001
 20
-2.2052800000000001
 30
0.0
 10
-0.8380500000000001
 20
-2.2052800000000001
 30
0.0
 10
-0.8380500000000001
 20
-2.2052800000000001
 30
0.0
 10
-0.9828300000000001
 20
-1.8623800000000001
 30
0.0
 10
-0.9828300000000001
 20
-1.8623800000000001
 30
0.0
 10
-0.9828300000000001
 20
-1.8623800000000001
 30
0.0
 10
-0.95235
 20
-2.1036800000000002
 30
0.0
 10
-0.9244100000000001
 20
-2.4034
 30
0.0
 10
-1.25461
 20
-2.4338800000000003
 30
0.0
 10
-1.25461
 20
-2.4338800000000003
 30
0.0
 10
-1.2800100000000001
 20
-2.2891000000000004
 30
0.0
 10
-1.3104900000000002
 20
-2.1036800000000002
 30
0.0
 10
-1.4679700000000002
 20
-2.0909800000000001
 30
0.0
 10
-1.4679700000000002
 20
-2.0909800000000001
 30
0.0
 10
-1.4679700000000002
 20
-2.0909800000000001
 30
0.0
 10
-1.2673100000000002
 20
-2.01986
 30
0.0
 10
-1.2673100000000002
 20
-2.01986
 30
0.0
 10
-1.2673100000000002
 20
-2.01986
 30
0.0
 10
-1.1809500000000002
 20
-2.0325600000000001
 30
0.0
 10
-1.21143
 20
-2.2484600000000001
 30
0.0
 10
-1.1530100000000001
 20
-2.3322800000000004
 30
0.0
 10
-1.1530100000000001
 20
-2.3322800000000004
 30
0.0
 10
-1.0666500000000001
 20
-2.22052
 30
0.0
 10
-0.99553
 20
-2.06304
 30
0.0
 10
-1.0971300000000002
 20
-1.9182600000000001
 30
0.0
 10
-1.0971300000000002
 20
-1.9182600000000001
 30
0.0
 10
-1.0971300000000002
 20
-1.9182600000000001
 30
0.0
 10
-0.82535
 20
-1.6922000000000001
 30
0.0
 10
-0.82535
 20
-1.6922000000000001
 30
0.0
  0
SPLINE
  5
5A
100
AcDbEntity
  8
Ebene 1
 62
     7
100
AcDbSpline
210
0.0
220
0.0
230
1.0
 70
     1
 71
     3
 72
    60
 73
    56
 74
     0
 42
0.0000000001
 43
0.0000000001
 40
0.0
 40
0.0
 40
0.0
 40
0.0
 40
0.0714285714285714
 40
0.0714285714285714
 40
0.0714285714285714
 40
0.0714285714285714
 40
0.1428571428571429
 40
0.1428571428571429
 40
0.1428571428571429
 40
0.1428571428571429
 40
0.2142857142857143
 40
0.2142857142857143
 40
0.2142857142857143
 40
0.2142857142857143
 40
0.2857142857142857
 40
0.2857142857142857
 40
0.2857142857142857
 40
0.2857142857142857
 40
0.3571428571428571
 40
0.3571428571428571
 40
0.3571428571428571
 40
0.3571428571428571
 40
0.4285714285714285
 40
0.4285714285714285
 40
0.4285714285714285
 40
0.4285714285714285
 40
0.4999999999999999
 40
0.4999999999999999
 40
0.4999999999999999
 40
0.4999999999999999
 40
0.5714285714285713
 40
0.5714285714285713
 40
0.5714285714285713
 40
0.5714285714285713
 40
0.6428571428571427
 40
0.6428571428571427
 40
0.6428571428571427
 40
0.6428571428571427
 40
0.7142857142857141
 40
0.7142857142857141
 40
0.7142857142857141
 40
0.7142857142857141
 40
0.7857142857142855
 40
0.7857142857142855
 40
0.7857142857142855
 40
0.7857142857142855
 40
0.8571428571428569
 40
0.8571428571428569
 40
0.8571428571428569
 40
0.8571428571428569
 40
0.9285714285714283
 40
0.9285714285714283
 40
0.9285714285714283
 40
0.9285714285714283
 40
1.0
 40
1.0
 40
1.0
 40
1.0
 10
0.8129400000000001
 20
-1.7049000000000001
 30
0.0
 10
1.0136000000000001
 20
-2.3322800000000004
 30
0.0
 10
1.0136000000000001
 20
-2.5329400000000004
 30
0.0
 10
0.9704200000000001
 20
-3.1196800000000002
 30
0.0
 10
0.9704200000000001
 20
-3.1196800000000002
 30
0.0
 10
0.9704200000000001
 20
-3.1196800000000002
 30
0.0
 10
0.8561200000000001
 20
-3.1196800000000002
 30
0.0
 10
0.8561200000000001
 20
-3.1196800000000002
 30
0.0
 10
0.8561200000000001
 20
-3.1196800000000002
 30
0.0
 10
0.8561200000000001
 20
-3.1196800000000002
 30
0.0
 10
0.8561200000000001
 20
-3.3178000000000001
 30
0.0
 10
0.8561200000000001
 20
-3.3178000000000001
 30
0.0
 10
0.8561200000000001
 20
-3.3178000000000001
 30
0.0
 10
0.8561200000000001
 20
-3.3178000000000001
 30
0.0
 10
0.8002400000000001
 20
-3.2746200000000001
 30
0.0
 10
0.8002400000000001
 20
-3.2746200000000001
 30
0.0
 10
0.8002400000000001
 20
-3.2746200000000001
 30
0.0
 10
0.61482
 20
-3.5032200000000002
 30
0.0
 10
0.4421000000000001
 20
-3.7470600000000003
 30
0.0
 10
0.18556
 20
-3.8893000000000004
 30
0.0
 10
0.18556
 20
-3.8893000000000004
 30
0.0
 10
0.18556
 20
-3.8893000000000004
 30
0.0
 10
0.2135
 20
-3.7318200000000004
 30
0.0
 10
0.2135
 20
-3.7318200000000004
 30
0.0
 10
0.2135
 20
-3.7318200000000004
 30
0.0
 10
0.22874
 20
-3.6759400000000002
 30
0.0
 10
0.28462
 20
-3.7470600000000003
 30
0.0
 10
0.3151000000000001
 20
-3.7038800000000003
 30
0.0
 10
0.3151000000000001
 20
-3.7038800000000003
 30
0.0
 10
0.40146
 20
-3.4168600000000002
 30
0.0
 10
0.27192
 20
-3.1196800000000002
 30
0.0
 10
0.37098
 20
-2.8606000000000003
 30
0.0
 10
0.37098
 20
-2.8606000000000003
 30
0.0
 10
0.2008
 20
-2.6320000000000001
 30
0.0
 10
0.4294000000000001
 20
-2.3475200000000003
 30
0.0
 10
0.45734
 20
-2.1036800000000002
 30
0.0
 10
0.45734
 20
-2.1036800000000002
 30
0.0
 10
0.45734
 20
-2.1036800000000002
 30
0.0
 10
0.51576
 20
-1.7912600000000001
 30
0.0
 10
0.51576
 20
-1.7912600000000001
 30
0.0
 10
0.51576
 20
-1.7912600000000001
 30
0.0
 10
0.52846
 20
-2.2764000000000002
 30
0.0
 10
0.5868800000000001
 20
-2.8174200000000003
 30
0.0
 10
0.48528
 20
-3.2746200000000001
 30
0.0
 10
0.48528
 20
-3.2746200000000001
 30
0.0
 10
0.57164
 20
-3.2339800000000003
 30
0.0
 10
0.61482
 20
-3.1196800000000002
 30
0.0
 10
0.64276
 20
-3.0333200000000002
 30
0.0
 10
0.64276
 20
-3.0333200000000002
 30
0.0
 10
0.658
 20
-2.9037800000000002
 30
0.0
 10
0.6859400000000001
 20
-2.7894800000000002
 30
0.0
 10
0.6707000000000001
 20
-2.6624800000000004
 30
0.0
 10
0.6707000000000001
 20
-2.6624800000000004
 30
0.0
 10
0.658
 20
-2.3195800000000002
 30
0.0
 10
0.69864
 20
-2.0046200000000001
 30
0.0
 10
0.8129400000000001
 20
-1.7049000000000001
 30
0.0
  0
SPLINE
  5
5B
100
AcDbEntity
  8
Ebene 1
100
AcDbSpline
210
0.0
220
0.0
230
1.0
 70
     1
 71
     3
 72
    24
 73
    20
 74
     0
 42
0.0000000001
 43
0.0000000001
 40
0.0
 40
0.0
 40
0.0
 40
0.0
 40
0.2
 40
0.2
 40
0.2
 40
0.2
 40
0.4
 40
0.4
 40
0.4
 40
0.4
 40
0.6000000000000001
 40
0.6000000000000001
 40
0.6000000000000001
 40
0.6000000000000001
 40
0.8
 40
0.8
 40
0.8
 40
0.8
 40
1.0
 40
1.0
 40
1.0
 40
1.0
 10
-2.5957300000000001
 20
-1.7201400000000002
 30
0.0
 10
-2.48143
 20
-1.7049000000000001
 30
0.0
 10
-2.5373100000000002
 20
-1.9182600000000001
 30
0.0
 10
-2.43825
 20
-1.8471400000000002
 30
0.0
 10
-2.43825
 20
-1.8471400000000002
 30
0.0
 10
-2.3798300000000001
 20
-1.8471400000000002
 30
0.0
 10
-2.4103100000000004
 20
-1.9182600000000001
 30
0.0
 10
-2.4103100000000004
 20
-1.9614400000000001
 30
0.0
 10
-2.4103100000000004
 20
-1.9614400000000001
 30
0.0
 10
-2.4661900000000001
 20
-1.9487400000000001
 30
0.0
 10
-2.5525500000000001
 20
-1.9487400000000001
 30
0.0
 10
-2.5652500000000003
 20
-1.8903200000000002
 30
0.0
 10
-2.5652500000000003
 20
-1.8903200000000002
 30
0.0
 10
-2.6668500000000002
 20
-1.9055600000000001
 30
0.0
 10
-2.7963900000000002
 20
-1.9335000000000002
 30
0.0
 10
-2.7811500000000002
 20
-1.7760200000000002
 30
0.0
 10
-2.7811500000000002
 20
-1.7760200000000002
 30
0.0
 10
-2.7811500000000002
 20
-1.7760200000000002
 30
0.0
 10
-2.5957300000000001
 20
-1.7201400000000002
 30
0.0
 10
-2.5957300000000001
 20
-1.7201400000000002
 30
0.0
  0
SPLINE
  5
5C
100
AcDbEntity
  8
Ebene 1
 62
     7
100
AcDbSpline
210
0.0
220
0.0
230
1.0
 70
     1
 71
     3
 72
    16
 73
    12
 74
     0
 42
0.0000000001
 43
0.0000000001
 40
0.0
 40
0.0
 40
0.0
 40
0.0
 40
0.3333333333333333
 40
0.3333333333333333
 40
0.3333333333333333
 40
0.3333333333333333
 40
0.6666666666666666
 40
0.6666666666666666
 40
0.6666666666666666
 40
0.6666666666666666
 40
1.0
 40
1.0
 40
1.0
 40
1.0
 10
-3.3094700000000001
 20
-2.0909800000000001
 30
0.0
 10
-3.3094700000000001
 20
-2.0909800000000001
 30
0.0
 10
-3.2383500000000001
 20
-2.0909800000000001
 30
0.0
 10
-3.2383500000000001
 20
-2.0909800000000001
 30
0.0
 10
-3.2383500000000001
 20
-2.0909800000000001
 30
0.0
 10
-3.1240500000000004
 20
-2.2611600000000003
 30
0.0
 10
-3.2078700000000002
 20
-2.5481800000000003
 30
0.0
 10
-3.2383500000000001
 20
-2.7463000000000002
 30
0.0
 10
-3.2383500000000001
 20
-2.7463000000000002
 30
0.0
 10
-3.2942300000000002
 20
-2.5481800000000003
 30
0.0
 10
-3.3221700000000003
 20
-2.3195800000000002
 30
0.0
 10
-3.3094700000000001
 20
-2.0909800000000001
 30
0.0
  0
SPLINE
  5
5D
100
AcDbEntity
  8
Ebene 1
 62
     7
100
AcDbSpline
210
0.0
220
0.0
230
1.0
 70
     1
 71
     3
 72
    32
 73
    28
 74
     0
 42
0.0000000001
 43
0.0000000001
 40
0.0
 40
0.0
 40
0.0
 40
0.0
 40
0.1428571428571429
 40
0.1428571428571429
 40
0.1428571428571429
 40
0.1428571428571429
 40
0.2857142857142857
 40
0.2857142857142857
 40
0.2857142857142857
 40
0.2857142857142857
 40
0.4285714285714286
 40
0.4285714285714286
 40
0.4285714285714286
 40
0.4285714285714286
 40
0.5714285714285714
 40
0.5714285714285714
 40
0.5714285714285714
 40
0.5714285714285714
 40
0.7142857142857142
 40
0.7142857142857142
 40
0.7142857142857142
 40
0.7142857142857142
 40
0.857142857142857
 40
0.857142857142857
 40
0.857142857142857
 40
0.857142857142857
 40
1.0
 40
1.0
 40
1.0
 40
1.0
 10
-2.8090900000000003
 20
-2.1036800000000002
 30
0.0
 10
-2.6795500000000003
 20
-2.2052800000000001
 30
0.0
 10
-2.7379700000000002
 20
-2.4897600000000004
 30
0.0
 10
-2.7659100000000003
 20
-2.6320000000000001
 30
0.0
 10
-2.7659100000000003
 20
-2.6320000000000001
 30
0.0
 10
-2.8090900000000003
 20
-2.5177
 30
0.0
 10
-2.82179
 20
-2.3754600000000003
 30
0.0
 10
-2.8370300000000004
 20
-2.2484600000000001
 30
0.0
 10
-2.8370300000000004
 20
-2.2484600000000001
 30
0.0
 10
-2.7963900000000002
 20
-2.1900400000000002
 30
0.0
 10
-2.86497
 20
-2.1036800000000002
 30
0.0
 10
-2.9081500000000005
 20
-2.1900400000000002
 30
0.0
 10
-2.9081500000000005
 20
-2.1900400000000002
 30
0.0
 10
-2.9081500000000005
 20
-2.1900400000000002
 30
0.0
 10
-2.9360900000000001
 20
-2.5481800000000003
 30
0.0
 10
-2.9360900000000001
 20
-2.5481800000000003
 30
0.0
 10
-2.9360900000000001
 20
-2.5481800000000003
 30
0.0
 10
-2.9360900000000001
 20
-2.5481800000000003
 30
0.0
 10
-2.9945100000000004
 20
-2.7056600000000004
 30
0.0
 10
-2.9945100000000004
 20
-2.7056600000000004
 30
0.0
 10
-2.9945100000000004
 20
-2.7056600000000004
 30
0.0
 10
-2.9945100000000004
 20
-2.7056600000000004
 30
0.0
 10
-3.0808700000000004
 20
-2.1189200000000001
 30
0.0
 10
-3.0808700000000004
 20
-2.1189200000000001
 30
0.0
 10
-3.0808700000000004
 20
-2.1189200000000001
 30
0.0
 10
-2.9945100000000004
 20
-2.1900400000000002
 30
0.0
 10
-2.9081500000000005
 20
-2.1341600000000001
 30
0.0
 10
-2.8090900000000003
 20
-2.1036800000000002
 30
0.0
  0
SPLINE
  5
5E
100
AcDbEntity
  8
Ebene 1
 62
     7
100
AcDbSpline
210
0.0
220
0.0
230
1.0
 70
     1
 71
     3
 72
    16
 73
    12
 74
     0
 42
0.0000000001
 43
0.0000000001
 40
0.0
 40
0.0
 40
0.0
 40
0.0
 40
0.3333333333333333
 40
0.3333333333333333
 40
0.3333333333333333
 40
0.3333333333333333
 40
0.6666666666666666
 40
0.6666666666666666
 40
0.6666666666666666
 40
0.6666666666666666
 40
1.0
 40
1.0
 40
1.0
 40
1.0
 10
-2.4230100000000001
 20
-2.1468600000000002
 30
0.0
 10
-2.4230100000000001
 20
-2.1468600000000002
 30
0.0
 10
-2.1817100000000003
 20
-2.2052800000000001
 30
0.0
 10
-2.1817100000000003
 20
-2.2052800000000001
 30
0.0
 10
-2.1817100000000003
 20
-2.2052800000000001
 30
0.0
 10
-2.3671300000000004
 20
-2.64724
 30
0.0
 10
-2.19441
 20
-3.1044400000000003
 30
0.0
 10
-2.2248900000000003
 20
-3.5464000000000002
 30
0.0
 10
-2.2248900000000003
 20
-3.5464000000000002
 30
0.0
 10
-2.4509500000000002
 20
-3.1603200000000005
 30
0.0
 10
-2.4509500000000002
 20
-2.60406
 30
0.0
 10
-2.4230100000000001
 20
-2.1468600000000002
 30
0.0
  0
SPLINE
  5
5F
100
AcDbEntity
  8
Ebene 1
 62
     7
100
AcDbSpline
210
0.0
220
0.0
230
1.0
 70
     1
 71
     3
 72
    48
 73
    44
 74
     0
 42
0.0000000001
 43
0.0000000001
 40
0.0
 40
0.0
 40
0.0
 40
0.0
 40
0.0909090909090909
 40
0.0909090909090909
 40
0.0909090909090909
 40
0.0909090909090909
 40
0.1818181818181818
 40
0.1818181818181818
 40
0.1818181818181818
 40
0.1818181818181818
 40
0.2727272727272727
 40
0.2727272727272727
 40
0.2727272727272727
 40
0.2727272727272727
 40
0.3636363636363637
 40
0.3636363636363637
 40
0.3636363636363637
 40
0.3636363636363637
 40
0.4545454545454546
 40
0.4545454545454546
 40
0.4545454545454546
 40
0.4545454545454546
 40
0.5454545454545455
 40
0.5454545454545455
 40
0.5454545454545455
 40
0.5454545454545455
 40
0.6363636363636365
 40
0.6363636363636365
 40
0.6363636363636365
 40
0.6363636363636365
 40
0.7272727272727274
 40
0.7272727272727274
 40
0.7272727272727274
 40
0.7272727272727274
 40
0.8181818181818183
 40
0.8181818181818183
 40
0.8181818181818183
 40
0.8181818181818183
 40
0.9090909090909093
 40
0.9090909090909093
 40
0.9090909090909093
 40
0.9090909090909093
 40
1.0
 40
1.0
 40
1.0
 40
1.0
 10
-3.6803100000000004
 20
-2.1621000000000001
 30
0.0
 10
-3.5685500000000001
 20
-2.2052800000000001
 30
0.0
 10
-3.7006300000000003
 20
-2.4465800000000004
 30
0.0
 10
-3.6803100000000004
 20
-2.5761200000000004
 30
0.0
 10
-3.6803100000000004
 20
-2.5761200000000004
 30
0.0
 10
-3.6803100000000004
 20
-2.5761200000000004
 30
0.0
 10
-3.6803100000000004
 20
-2.8758400000000002
 30
0.0
 10
-3.6803100000000004
 20
-2.8758400000000002
 30
0.0
 10
-3.6803100000000004
 20
-2.8758400000000002
 30
0.0
 10
-3.6803100000000004
 20
-2.9469600000000002
 30
0.0
 10
-3.6853900000000004
 20
-3.0333200000000002
 30
0.0
 10
-3.6650700000000005
 20
-3.1044400000000003
 30
0.0
 10
-3.6650700000000005
 20
-3.1044400000000003
 30
0.0
 10
-3.6650700000000005
 20
-3.1044400000000003
 30
0.0
 10
-3.6091900000000003
 20
-3.2339800000000003
 30
0.0
 10
-3.6091900000000003
 20
-3.2339800000000003
 30
0.0
 10
-3.6091900000000003
 20
-3.2339800000000003
 30
0.0
 10
-3.5609300000000004
 20
-2.9469600000000002
 30
0.0
 10
-3.6498300000000001
 20
-2.5329400000000004
 30
0.0
 10
-3.4694900000000004
 20
-2.3043400000000003
 30
0.0
 10
-3.4694900000000004
 20
-2.3043400000000003
 30
0.0
 10
-3.4694900000000004
 20
-2.3043400000000003
 30
0.0
 10
-3.4898100000000003
 20
-2.4897600000000004
 30
0.0
 10
-3.4898100000000003
 20
-2.4897600000000004
 30
0.0
 10
-3.4898100000000003
 20
-2.4897600000000004
 30
0.0
 10
-3.4898100000000003
 20
-2.4897600000000004
 30
0.0
 10
-3.5075900000000004
 20
-2.7336
 30
0.0
 10
-3.5075900000000004
 20
-2.7336
 30
0.0
 10
-3.5075900000000004
 20
-2.7336
 30
0.0
 10
-3.5075900000000004
 20
-2.7336
 30
0.0
 10
-3.5380700000000003
 20
-3.0892000000000004
 30
0.0
 10
-3.5380700000000003
 20
-3.0892000000000004
 30
0.0
 10
-3.5380700000000003
 20
-3.0892000000000004
 30
0.0
 10
-3.5380700000000003
 20
-3.0892000000000004
 30
0.0
 10
-3.5253700000000001
 20
-3.4905200000000001
 30
0.0
 10
-3.5253700000000001
 20
-3.4905200000000001
 30
0.0
 10
-3.5253700000000001
 20
-3.4905200000000001
 30
0.0
 10
-3.5253700000000001
 20
-3.4905200000000001
 30
0.0
 10
-3.7031700000000005
 20
-3.3178000000000001
 30
0.0
 10
-3.7031700000000005
 20
-3.3178000000000001
 30
0.0
 10
-3.7031700000000005
 20
-3.3178000000000001
 30
0.0
 10
-3.8936700000000002
 20
-2.8047200000000001
 30
0.0
 10
-3.7768300000000004
 20
-2.8047200000000001
 30
0.0
 10
-3.6803100000000004
 20
-2.1621000000000001
 30
0.0
  0
SPLINE
  5
60
100
AcDbEntity
  8
Ebene 1
 62
     7
100
AcDbSpline
210
0.0
220
0.0
230
1.0
 70
     1
 71
     3
 72
    20
 73
    16
 74
     0
 42
0.0000000001
 43
0.0000000001
 40
0.0
 40
0.0
 40
0.0
 40
0.0
 40
0.25
 40
0.25
 40
0.25
 40
0.25
 40
0.5
 40
0.5
 40
0.5
 40
0.5
 40
0.75
 40
0.75
 40
0.75
 40
0.75
 40
1.0
 40
1.0
 40
1.0
 40
1.0
 10
-2.0521700000000003
 20
-2.1900400000000002
 30
0.0
 10
-2.0242300000000002
 20
-2.1900400000000002
 30
0.0
 10
-1.9962900000000001
 20
-2.1900400000000002
 30
0.0
 10
-1.9810500000000002
 20
-2.2052800000000001
 30
0.0
 10
-1.9810500000000002
 20
-2.2052800000000001
 30
0.0
 10
-1.9810500000000002
 20
-2.2052800000000001
 30
0.0
 10
-2.1664700000000003
 20
-3.0028400000000004
 30
0.0
 10
-2.1664700000000003
 20
-3.0028400000000004
 30
0.0
 10
-2.1664700000000003
 20
-3.0028400000000004
 30
0.0
 10
-2.23759
 20
-2.7742400000000003
 30
0.0
 10
-2.19441
 20
-2.4465800000000004
 30
0.0
 10
-2.0369300000000004
 20
-2.2611600000000003
 30
0.0
 10
-2.0369300000000004
 20
-2.2611600000000003
 30
0.0
 10
-2.0369300000000004
 20
-2.2611600000000003
 30
0.0
 10
-2.0521700000000003
 20
-2.1900400000000002
 30
0.0
 10
-2.0521700000000003
 20
-2.1900400000000002
 30
0.0
  0
SPLINE
  5
61
100
AcDbEntity
  8
Ebene 1
 62
     7
100
AcDbSpline
210
0.0
220
0.0
230
1.0
 70
     1
 71
     3
 72
    28
 73
    24
 74
     0
 42
0.0000000001
 43
0.0000000001
 40
0.0
 40
0.0
 40
0.0
 40
0.0
 40
0.1666666666666667
 40
0.1666666666666667
 40
0.1666666666666667
 40
0.1666666666666667
 40
0.3333333333333333
 40
0.3333333333333333
 40
0.3333333333333333
 40
0.3333333333333333
 40
0.5
 40
0.5
 40
0.5
 40
0.5
 40
0.6666666666666666
 40
0.6666666666666666
 40
0.6666666666666666
 40
0.6666666666666666
 40
0.8333333333333333
 40
0.8333333333333333
 40
0.8333333333333333
 40
0.8333333333333333
 40
1.0
 40
1.0
 40
1.0
 40
1.0
 10
-1.8819900000000001
 20
-2.1900400000000002
 30
0.0
 10
-1.8819900000000001
 20
-2.1900400000000002
 30
0.0
 10
-1.8388100000000001
 20
-2.1900400000000002
 30
0.0
 10
-1.8388100000000001
 20
-2.1900400000000002
 30
0.0
 10
-1.8388100000000001
 20
-2.1900400000000002
 30
0.0
 10
-1.8388100000000001
 20
-2.1900400000000002
 30
0.0
 10
-1.7397500000000001
 20
-2.7056600000000004
 30
0.0
 10
-1.7397500000000001
 20
-2.7056600000000004
 30
0.0
 10
-1.7397500000000001
 20
-2.7056600000000004
 30
0.0
 10
-1.7397500000000001
 20
-2.7056600000000004
 30
0.0
 10
-1.6965700000000001
 20
-2.7183600000000001
 30
0.0
 10
-1.6965700000000001
 20
-2.7183600000000001
 30
0.0
 10
-1.6965700000000001
 20
-2.7183600000000001
 30
0.0
 10
-1.6965700000000001
 20
-2.7183600000000001
 30
0.0
 10
-1.7092700000000001
 20
-2.7894800000000002
 30
0.0
 10
-1.7092700000000001
 20
-2.7894800000000002
 30
0.0
 10
-1.7092700000000001
 20
-2.7894800000000002
 30
0.0
 10
-1.7092700000000001
 20
-2.7894800000000002
 30
0.0
 10
-1.7524500000000001
 20
-2.7894800000000002
 30
0.0
 10
-1.7524500000000001
 20
-2.7894800000000002
 30
0.0
 10
-1.7524500000000001
 20
-2.7894800000000002
 30
0.0
 10
-1.8235700000000001
 20
-2.60406
 30
0.0
 10
-2.0242300000000002
 20
-2.4034
 30
0.0
 10
-1.8819900000000001
 20
-2.1900400000000002
 30
0.0
  0
SPLINE
  5
62
100
AcDbEntity
  8
Ebene 1
 62
     7
100
AcDbSpline
210
0.0
220
0.0
230
1.0
 70
     1
 71
     3
 72
   256
 73
   252
 74
     0
 42
0.0000000001
 43
0.0000000001
 40
0.0
 40
0.0
 40
0.0
 40
0.0
 40
0.0158730158730159
 40
0.0158730158730159
 40
0.0158730158730159
 40
0.0158730158730159
 40
0.0317460317460317
 40
0.0317460317460317
 40
0.0317460317460317
 40
0.0317460317460317
 40
0.0476190476190476
 40
0.0476190476190476
 40
0.0476190476190476
 40
0.0476190476190476
 40
0.0634920634920635
 40
0.0634920634920635
 40
0.0634920634920635
 40
0.0634920634920635
 40
0.0793650793650794
 40
0.0793650793650794
 40
0.0793650793650794
 40
0.0793650793650794
 40
0.0952380952380952
 40
0.0952380952380952
 40
0.0952380952380952
 40
0.0952380952380952
 40
0.1111111111111111
 40
0.1111111111111111
 40
0.1111111111111111
 40
0.1111111111111111
 40
0.126984126984127
 40
0.126984126984127
 40
0.126984126984127
 40
0.126984126984127
 40
0.1428571428571429
 40
0.1428571428571429
 40
0.1428571428571429
 40
0.1428571428571429
 40
0.1587301587301587
 40
0.1587301587301587
 40
0.1587301587301587
 40
0.1587301587301587
 40
0.1746031746031746
 40
0.1746031746031746
 40
0.1746031746031746
 40
0.1746031746031746
 40
0.1904761904761905
 40
0.1904761904761905
 40
0.1904761904761905
 40
0.1904761904761905
 40
0.2063492063492063
 40
0.2063492063492063
 40
0.2063492063492063
 40
0.2063492063492063
 40
0.2222222222222222
 40
0.2222222222222222
 40
0.2222222222222222
 40
0.2222222222222222
 40
0.2380952380952381
 40
0.2380952380952381
 40
0.2380952380952381
 40
0.2380952380952381
 40
0.253968253968254
 40
0.253968253968254
 40
0.253968253968254
 40
0.253968253968254
 40
0.2698412698412698
 40
0.2698412698412698
 40
0.2698412698412698
 40
0.2698412698412698
 40
0.2857142857142857
 40
0.2857142857142857
 40
0.2857142857142857
 40
0.2857142857142857
 40
0.3015873015873016
 40
0.3015873015873016
 40
0.3015873015873016
 40
0.3015873015873016
 40
0.3174603174603174
 40
0.3174603174603174
 40
0.3174603174603174
 40
0.3174603174603174
 40
0.3333333333333333
 40
0.3333333333333333
 40
0.3333333333333333
 40
0.3333333333333333
 40
0.3492063492063492
 40
0.3492063492063492
 40
0.3492063492063492
 40
0.3492063492063492
 40
0.3650793650793651
 40
0.3650793650793651
 40
0.3650793650793651
 40
0.3650793650793651
 40
0.3809523809523809
 40
0.3809523809523809
 40
0.3809523809523809
 40
0.3809523809523809
 40
0.3968253968253968
 40
0.3968253968253968
 40
0.3968253968253968
 40
0.3968253968253968
 40
0.4126984126984127
 40
0.4126984126984127
 40
0.4126984126984127
 40
0.4126984126984127
 40
0.4285714285714286
 40
0.4285714285714286
 40
0.4285714285714286
 40
0.4285714285714286
 40
0.4444444444444444
 40
0.4444444444444444
 40
0.4444444444444444
 40
0.4444444444444444
 40
0.4603174603174603
 40
0.4603174603174603
 40
0.4603174603174603
 40
0.4603174603174603
 40
0.4761904761904762
 40
0.4761904761904762
 40
0.4761904761904762
 40
0.4761904761904762
 40
0.492063492063492
 40
0.492063492063492
 40
0.492063492063492
 40
0.492063492063492
 40
0.5079365079365079
 40
0.5079365079365079
 40
0.5079365079365079
 40
0.5079365079365079
 40
0.5238095238095237
 40
0.5238095238095237
 40
0.5238095238095237
 40
0.5238095238095237
 40
0.5396825396825395
 40
0.5396825396825395
 40
0.5396825396825395
 40
0.5396825396825395
 40
0.5555555555555554
 40
0.5555555555555554
 40
0.5555555555555554
 40
0.5555555555555554
 40
0.5714285714285712
 40
0.5714285714285712
 40
0.5714285714285712
 40
0.5714285714285712
 40
0.587301587301587
 40
0.587301587301587
 40
0.587301587301587
 40
0.587301587301587
 40
0.6031746031746028
 40
0.6031746031746028
 40
0.6031746031746028
 40
0.6031746031746028
 40
0.6190476190476186
 40
0.6190476190476186
 40
0.6190476190476186
 40
0.6190476190476186
 40
0.6349206349206344
 40
0.6349206349206344
 40
0.6349206349206344
 40
0.6349206349206344
 40
0.6507936507936503
 40
0.6507936507936503
 40
0.6507936507936503
 40
0.6507936507936503
 40
0.6666666666666661
 40
0.6666666666666661
 40
0.6666666666666661
 40
0.6666666666666661
 40
0.6825396825396819
 40
0.6825396825396819
 40
0.6825396825396819
 40
0.6825396825396819
 40
0.6984126984126977
 40
0.6984126984126977
 40
0.6984126984126977
 40
0.6984126984126977
 40
0.7142857142857135
 40
0.7142857142857135
 40
0.7142857142857135
 40
0.7142857142857135
 40
0.7301587301587293
 40
0.7301587301587293
 40
0.7301587301587293
 40
0.7301587301587293
 40
0.7460317460317452
 40
0.7460317460317452
 40
0.7460317460317452
 40
0.7460317460317452
 40
0.761904761904761
 40
0.761904761904761
 40
0.761904761904761
 40
0.761904761904761
 40
0.7777777777777768
 40
0.7777777777777768
 40
0.7777777777777768
 40
0.7777777777777768
 40
0.7936507936507926
 40
0.7936507936507926
 40
0.7936507936507926
 40
0.7936507936507926
 40
0.8095238095238084
 40
0.8095238095238084
 40
0.8095238095238084
 40
0.8095238095238084
 40
0.8253968253968242
 40
0.8253968253968242
 40
0.8253968253968242
 40
0.8253968253968242
 40
0.8412698412698401
 40
0.8412698412698401
 40
0.8412698412698401
 40
0.8412698412698401
 40
0.8571428571428559
 40
0.8571428571428559
 40
0.8571428571428559
 40
0.8571428571428559
 40
0.8730158730158717
 40
0.8730158730158717
 40
0.8730158730158717
 40
0.8730158730158717
 40
0.8888888888888875
 40
0.8888888888888875
 40
0.8888888888888875
 40
0.8888888888888875
 40
0.9047619047619033
 40
0.9047619047619033
 40
0.9047619047619033
 40
0.9047619047619033
 40
0.9206349206349191
 40
0.9206349206349191
 40
0.9206349206349191
 40
0.9206349206349191
 40
0.936507936507935
 40
0.936507936507935
 40
0.936507936507935
 40
0.936507936507935
 40
0.9523809523809508
 40
0.9523809523809508
 40
0.9523809523809508
 40
0.9523809523809508
 40
0.9682539682539666
 40
0.9682539682539666
 40
0.9682539682539666
 40
0.9682539682539666
 40
0.9841269841269824
 40
0.9841269841269824
 40
0.9841269841269824
 40
0.9841269841269824
 40
1.0
 40
1.0
 40
1.0
 40
1.0
 10
0.7291200000000001
 20
-4.1026600000000002
 30
0.0
 10
0.24398
 20
-4.2042600000000006
 30
0.0
 10
-0.19797
 20
-4.6182800000000004
 30
0.0
 10
-0.6678700000000001
 20
-4.8748200000000006
 30
0.0
 10
-0.6678700000000001
 20
-4.8748200000000006
 30
0.0
 10
-0.90917
 20
-5.3447200000000006
 30
0.0
 10
-1.33843
 20
-5.7155600000000009
 30
0.0
 10
-1.6102100000000001
 20
-6.1880000000000006
 30
0.0
 10
-1.6102100000000001
 20
-6.1880000000000006
 30
0.0
 10
-1.6102100000000001
 20
-6.1880000000000006
 30
0.0
 10
-1.7397500000000001
 20
-6.2286400000000004
 30
0.0
 10
-1.7397500000000001
 20
-6.2286400000000004
 30
0.0
 10
-1.7397500000000001
 20
-6.2286400000000004
 30
0.0
 10
-1.8667500000000001
 20
-6.1600600000000005
 30
0.0
 10
-2.0089900000000003
 20
-6.0737000000000005
 30
0.0
 10
-2.1817100000000003
 20
-6.0305200000000001
 30
0.0
 10
-2.1817100000000003
 20
-6.0305200000000001
 30
0.0
 10
-2.1817100000000003
 20
-5.8171600000000003
 30
0.0
 10
-2.2807700000000004
 20
-5.7155600000000009
 30
0.0
 10
-2.4509500000000002
 20
-5.6165000000000003
 30
0.0
 10
-2.4509500000000002
 20
-5.6165000000000003
 30
0.0
 10
-2.39507
 20
-5.7155600000000009
 30
0.0
 10
-2.3798300000000001
 20
-5.7587400000000004
 30
0.0
 10
-2.4509500000000002
 20
-5.82986
 30
0.0
 10
-2.4509500000000002
 20
-5.82986
 30
0.0
 10
-2.35189
 20
-5.8730400000000005
 30
0.0
 10
-2.23759
 20
-5.9009800000000006
 30
0.0
 10
-2.2096500000000003
 20
-6.0152800000000006
 30
0.0
 10
-2.2096500000000003
 20
-6.0152800000000006
 30
0.0
 10
-2.35189
 20
-6.0152800000000006
 30
0.0
 10
-2.5957300000000001
 20
-5.7308000000000003
 30
0.0
 10
-2.6947900000000002
 20
-5.9721000000000002
 30
0.0
 10
-2.6947900000000002
 20
-5.9721000000000002
 30
0.0
 10
-2.7227300000000003
 20
-5.9009800000000006
 30
0.0
 10
-2.7811500000000002
 20
-5.9162200000000009
 30
0.0
 10
-2.82179
 20
-5.9721000000000002
 30
0.0
 10
-2.82179
 20
-5.9721000000000002
 30
0.0
 10
-2.8522700000000003
 20
-6.0152800000000006
 30
0.0
 10
-2.82179
 20
-6.0305200000000001
 30
0.0
 10
-2.8090900000000003
 20
-6.0737000000000005
 30
0.0
 10
-2.8090900000000003
 20
-6.0737000000000005
 30
0.0
 10
-2.8090900000000003
 20
-6.0737000000000005
 30
0.0
 10
-2.7227300000000003
 20
-6.0864000000000003
 30
0.0
 10
-2.7227300000000003
 20
-6.0864000000000003
 30
0.0
 10
-2.7227300000000003
 20
-6.0864000000000003
 30
0.0
 10
-2.7963900000000002
 20
-6.3861200000000009
 30
0.0
 10
-3.1799300000000001
 20
-6.3302400000000008
 30
0.0
 10
-3.0935700000000002
 20
-6.0025800000000009
 30
0.0
 10
-3.0935700000000002
 20
-6.0025800000000009
 30
0.0
 10
-3.0935700000000002
 20
-6.0025800000000009
 30
0.0
 10
-3.0808700000000004
 20
-5.9441600000000001
 30
0.0
 10
-3.0808700000000004
 20
-5.9441600000000001
 30
0.0
 10
-3.0808700000000004
 20
-5.9441600000000001
 30
0.0
 10
-3.0529300000000004
 20
-6.2032400000000001
 30
0.0
 10
-2.9665700000000004
 20
-5.4590200000000006
 30
0.0
 10
-2.9360900000000001
 20
-5.7308000000000003
 30
0.0
 10
-2.9360900000000001
 20
-5.7308000000000003
 30
0.0
 10
-2.9081500000000005
 20
-5.8882800000000008
 30
0.0
 10
-3.0935700000000002
 20
-6.1600600000000005
 30
0.0
 10
-2.9360900000000001
 20
-6.2438800000000008
 30
0.0
 10
-2.9360900000000001
 20
-6.2438800000000008
 30
0.0
 10
-2.82179
 20
-6.1016400000000006
 30
0.0
 10
-2.9360900000000001
 20
-5.6749200000000002
 30
0.0
 10
-2.6947900000000002
 20
-5.7308000000000003
 30
0.0
 10
-2.6947900000000002
 20
-5.7308000000000003
 30
0.0
 10
-2.6795500000000003
 20
-5.6165000000000003
 30
0.0
 10
-2.5652500000000003
 20
-5.5733200000000007
 30
0.0
 10
-2.6795500000000003
 20
-5.5022000000000002
 30
0.0
 10
-2.6795500000000003
 20
-5.5022000000000002
 30
0.0
 10
-2.5804900000000002
 20
-5.4869600000000007
 30
0.0
 10
-2.52461
 20
-5.6165000000000003
 30
0.0
 10
-2.4230100000000001
 20
-5.6012600000000008
 30
0.0
 10
-2.4230100000000001
 20
-5.6012600000000008
 30
0.0
 10
-2.3366500000000001
 20
-5.6444400000000003
 30
0.0
 10
-2.2807700000000004
 20
-5.6012600000000008
 30
0.0
 10
-2.3239500000000004
 20
-5.4869600000000007
 30
0.0
 10
-2.3239500000000004
 20
-5.4869600000000007
 30
0.0
 10
-2.1105900000000002
 20
-5.6596800000000007
 30
0.0
 10
-1.7956300000000001
 20
-5.8882800000000008
 30
0.0
 10
-1.6965700000000001
 20
-6.1295800000000007
 30
0.0
 10
-1.6965700000000001
 20
-6.1295800000000007
 30
0.0
 10
-1.6965700000000001
 20
-6.1295800000000007
 30
0.0
 10
-1.5670300000000001
 20
-5.9594000000000005
 30
0.0
 10
-1.5670300000000001
 20
-5.9594000000000005
 30
0.0
 10
-1.5670300000000001
 20
-5.9594000000000005
 30
0.0
 10
-1.4247900000000002
 20
-5.4031400000000005
 30
0.0
 10
-0.9244100000000001
 20
-5.1872400000000001
 30
0.0
 10
-0.63993
 20
-4.7325800000000005
 30
0.0
 10
-0.63993
 20
-4.7325800000000005
 30
0.0
 10
-0.63993
 20
-4.7325800000000005
 30
0.0
 10
-0.86853
 20
-4.9180000000000001
 30
0.0
 10
-0.86853
 20
-4.9180000000000001
 30
0.0
 10
-0.86853
 20
-4.9180000000000001
 30
0.0
 10
-1.12507
 20
-5.0602400000000003
 30
0.0
 10
-1.3663700000000001
 20
-5.2888400000000004
 30
0.0
 10
-1.5390900000000001
 20
-5.5453800000000006
 30
0.0
 10
-1.5390900000000001
 20
-5.5453800000000006
 30
0.0
 10
-1.7956300000000001
 20
-5.7003200000000005
 30
0.0
 10
-1.8235700000000001
 20
-5.2151800000000001
 30
0.0
 10
-1.6254500000000001
 20
-5.3599600000000001
 30
0.0
 10
-1.6254500000000001
 20
-5.3599600000000001
 30
0.0
 10
-1.5822700000000001
 20
-5.2736000000000001
 30
0.0
 10
-1.5390900000000001
 20
-5.2304200000000005
 30
0.0
 10
-1.4527300000000001
 20
-5.2736000000000001
 30
0.0
 10
-1.4527300000000001
 20
-5.2736000000000001
 30
0.0
 10
-1.4527300000000001
 20
-5.2736000000000001
 30
0.0
 10
-1.2368300000000001
 20
-5.0424600000000002
 30
0.0
 10
-1.2368300000000001
 20
-5.0424600000000002
 30
0.0
 10
-1.2368300000000001
 20
-5.0424600000000002
 30
0.0
 10
-1.20889
 20
-4.9992800000000006
 30
0.0
 10
-1.1530100000000001
 20
-5.0018200000000004
 30
0.0
 10
-1.16825
 20
-4.9180000000000001
 30
0.0
 10
-1.16825
 20
-4.9180000000000001
 30
0.0
 10
-1.2393700000000001
 20
-4.8595800000000002
 30
0.0
 10
-1.3104900000000002
 20
-4.9027600000000007
 30
0.0
 10
-1.2800100000000001
 20
-5.0018200000000004
 30
0.0
 10
-1.2800100000000001
 20
-5.0018200000000004
 30
0.0
 10
-1.5670300000000001
 20
-5.0602400000000003
 30
0.0
 10
-1.9226300000000001
 20
-5.2024800000000004
 30
0.0
 10
-1.9226300000000001
 20
-5.5301400000000003
 30
0.0
 10
-1.9226300000000001
 20
-5.5301400000000003
 30
0.0
 10
-2.3010900000000003
 20
-5.3294800000000002
 30
0.0
 10
-2.18933
 20
-4.9891200000000007
 30
0.0
 10
-2.3747500000000001
 20
-5.1593
 30
0.0
 10
-2.3747500000000001
 20
-5.1593
 30
0.0
 10
-2.7049500000000002
 20
-5.4590200000000006
 30
0.0
 10
-3.4771100000000001
 20
-5.4488600000000007
 30
0.0
 10
-3.3653500000000003
 20
-4.8875200000000003
 30
0.0
 10
-3.3653500000000003
 20
-4.8875200000000003
 30
0.0
 10
-3.2662900000000001
 20
-4.9586400000000008
 30
0.0
 10
-3.0224500000000001
 20
-5.1034200000000007
 30
0.0
 10
-2.9360900000000001
 20
-4.9027600000000007
 30
0.0
 10
-2.9360900000000001
 20
-4.9027600000000007
 30
0.0
 10
-2.9360900000000001
 20
-4.9027600000000007
 30
0.0
 10
-2.8370300000000004
 20
-4.9586400000000008
 30
0.0
 10
-2.8370300000000004
 20
-4.9586400000000008
 30
0.0
 10
-2.8370300000000004
 20
-4.9586400000000008
 30
0.0
 10
-2.7963900000000002
 20
-4.9180000000000001
 30
0.0
 10
-3.0808700000000004
 20
-4.7452800000000002
 30
0.0
 10
-2.9360900000000001
 20
-4.5446200000000001
 30
0.0
 10
-2.9360900000000001
 20
-4.5446200000000001
 30
0.0
 10
-2.82179
 20
-4.5878000000000005
 30
0.0
 10
-2.8370300000000004
 20
-4.8011600000000003
 30
0.0
 10
-2.7379700000000002
 20
-4.8443400000000008
 30
0.0
 10
-2.7379700000000002
 20
-4.8443400000000008
 30
0.0
 10
-2.8090900000000003
 20
-4.48874
 30
0.0
 10
-2.6947900000000002
 20
-4.6182800000000004
 30
0.0
 10
-2.6236700000000002
 20
-4.8748200000000006
 30
0.0
 10
-2.6236700000000002
 20
-4.8748200000000006
 30
0.0
 10
-2.3239500000000004
 20
-5.0323000000000002
 30
0.0
 10
-2.48143
 20
-4.8875200000000003
 30
0.0
 10
-2.5957300000000001
 20
-4.7452800000000002
 30
0.0
 10
-2.5957300000000001
 20
-4.7452800000000002
 30
0.0
 10
-2.6236700000000002
 20
-4.6614600000000008
 30
0.0
 10
-2.6516100000000002
 20
-4.5319200000000004
 30
0.0
 10
-2.6084300000000002
 20
-4.4455600000000004
 30
0.0
 10
-2.6084300000000002
 20
-4.4455600000000004
 30
0.0
 10
-2.4585700000000004
 20
-4.9611800000000006
 30
0.0
 10
-2.06995
 20
-5.0272200000000007
 30
0.0
 10
-1.7118100000000001
 20
-4.8672000000000004
 30
0.0
 10
-1.7118100000000001
 20
-4.8672000000000004
 30
0.0
 10
-1.42225
 20
-4.7402000000000006
 30
0.0
 10
-1.16571
 20
-4.4582600000000001
 30
0.0
 10
-0.9828300000000001
 20
-4.2169600000000003
 30
0.0
 10
-0.9828300000000001
 20
-4.2169600000000003
 30
0.0
 10
-0.51039
 20
-4.2474400000000001
 30
0.0
 10
-0.8812300000000001
 20
-4.6309800000000001
 30
0.0
 10
-1.0107700000000002
 20
-4.6309800000000001
 30
0.0
 10
-1.0107700000000002
 20
-4.6309800000000001
 30
0.0
 10
-1.03871
 20
-4.7605200000000005
 30
0.0
 10
-1.1530100000000001
 20
-4.6741600000000005
 30
0.0
 10
-1.1530100000000001
 20
-4.8748200000000006
 30
0.0
 10
-1.1530100000000001
 20
-4.8748200000000006
 30
0.0
 10
-1.0107700000000002
 20
-4.7325800000000005
 30
0.0
 10
-0.3960900000000001
 20
-4.6182800000000004
 30
0.0
 10
-0.6831100000000001
 20
-4.2042600000000006
 30
0.0
 10
-0.6831100000000001
 20
-4.2042600000000006
 30
0.0
 10
-0.8532900000000001
 20
-4.2042600000000006
 30
0.0
 10
-0.7110500000000001
 20
-4.0594800000000006
 30
0.0
 10
-0.6246900000000001
 20
-4.1610800000000001
 30
0.0
 10
-0.6246900000000001
 20
-4.1610800000000001
 30
0.0
 10
-0.51039
 20
-4.1610800000000001
 30
0.0
 10
-0.56881
 20
-4.3896800000000002
 30
0.0
 10
-0.51039
 20
-4.3033200000000003
 30
0.0
 10
-0.51039
 20
-4.3033200000000003
 30
0.0
 10
-0.51039
 20
-4.3033200000000003
 30
0.0
 10
-0.51039
 20
-4.2169600000000003
 30
0.0
 10
-0.51039
 20
-4.2169600000000003
 30
0.0
 10
-0.51039
 20
-4.2169600000000003
 30
0.0
 10
-0.61199
 20
-4.1179000000000006
 30
0.0
 10
-0.7262900000000001
 20
-3.9604200000000005
 30
0.0
 10
-0.49515
 20
-4.01884
 30
0.0
 10
-0.49515
 20
-4.01884
 30
0.0
 10
-0.21067
 20
-3.8461200000000004
 30
0.0
 10
-0.26909
 20
-4.2042600000000006
 30
0.0
 10
-0.41133
 20
-4.3465000000000007
 30
0.0
 10
-0.41133
 20
-4.3465000000000007
 30
0.0
 10
-0.23861
 20
-4.6614600000000008
 30
0.0
 10
0.07126
 20
-3.4752800000000001
 30
0.0
 10
-0.16749
 20
-4.04678
 30
0.0
 10
-0.16749
 20
-4.04678
 30
0.0
 10
-0.18273
 20
-4.0747200000000001
 30
0.0
 10
-0.25385
 20
-4.0899600000000005
 30
0.0
 10
-0.23861
 20
-4.0315400000000006
 30
0.0
 10
-0.23861
 20
-4.0315400000000006
 30
0.0
 10
-0.19797
 20
-3.9451800000000001
 30
0.0
 10
-0.3122700000000001
 20
-3.9020000000000001
 30
0.0
 10
-0.32497
 20
-3.8308800000000005
 30
0.0
 10
-0.32497
 20
-3.8308800000000005
 30
0.0
 10
-0.26909
 20
-3.6454600000000004
 30
0.0
 10
-0.05319
 20
-3.6175200000000003
 30
0.0
 10
0.10174
 20
-3.5311600000000003
 30
0.0
 10
0.10174
 20
-3.5311600000000003
 30
0.0
 10
0.2135
 20
-3.6759400000000002
 30
0.0
 10
0.07126
 20
-3.9451800000000001
 30
0.0
 10
-0.04049
 20
-4.13314
 30
0.0
 10
-0.04049
 20
-4.13314
 30
0.0
 10
0.28462
 20
-4.0036000000000005
 30
0.0
 10
0.9272400000000001
 20
-3.6454600000000004
 30
0.0
 10
1.1583800000000002
 20
-3.4905200000000001
 30
0.0
 10
1.1583800000000002
 20
-3.4905200000000001
 30
0.0
 10
1.2574400000000001
 20
-3.1044400000000003
 30
0.0
 10
1.2142600000000001
 20
-2.6320000000000001
 30
0.0
 10
1.2142600000000001
 20
-2.2611600000000003
 30
0.0
 10
1.2142600000000001
 20
-2.2611600000000003
 30
0.0
 10
1.3717400000000002
 20
-2.4465800000000004
 30
0.0
 10
1.2853800000000002
 20
-2.6193000000000004
 30
0.0
 10
1.27014
 20
-2.8174200000000003
 30
0.0
 10
1.27014
 20
-2.8174200000000003
 30
0.0
 10
1.2574400000000001
 20
-2.9317200000000003
 30
0.0
 10
1.27014
 20
-3.0180800000000003
 30
0.0
 10
1.2853800000000002
 20
-3.1323800000000004
 30
0.0
 10
1.2853800000000002
 20
-3.1323800000000004
 30
0.0
 10
1.3285600000000002
 20
-3.6048200000000001
 30
0.0
 10
1.52922
 20
-3.1908000000000003
 30
0.0
 10
1.3717400000000002
 20
-2.9469600000000002
 30
0.0
 10
1.3717400000000002
 20
-2.9469600000000002
 30
0.0
 10
1.3006200000000001
 20
-2.5761200000000004
 30
0.0
 10
1.4149200000000002
 20
-2.7615400000000001
 30
0.0
 10
1.44286
 20
-3.0180800000000003
 30
0.0
 10
1.44286
 20
-3.0180800000000003
 30
0.0
 10
1.9711800000000002
 20
-3.8740600000000005
 30
0.0
 10
0.41416
 20
-3.8893000000000004
 30
0.0
 10
0.28462
 20
-4.2169600000000003
 30
0.0
 10
0.28462
 20
-4.2169600000000003
 30
0.0
 10
0.51576
 20
-4.04678
 30
0.0
 10
0.7291200000000001
 20
-4.0315400000000006
 30
0.0
 10
0.9856600000000001
 20
-3.9604200000000005
 30
0.0
 10
0.9856600000000001
 20
-3.9604200000000005
 30
0.0
 10
0.9424800000000001
 20
-4.04678
 30
0.0
 10
0.82818
 20
-4.0899600000000005
 30
0.0
 10
0.7291200000000001
 20
-4.1026600000000002
 30
0.0
  0
SPLINE
  5
63
100
AcDbEntity
  8
Ebene 1
 62
     7
100
AcDbSpline
210
0.0
220
0.0
230
1.0
 70
     1
 71
     3
 72
    16
 73
    12
 74
     0
 42
0.0000000001
 43
0.0000000001
 40
0.0
 40
0.0
 40
0.0
 40
0.0
 40
0.3333333333333333
 40
0.3333333333333333
 40
0.3333333333333333
 40
0.3333333333333333
 40
0.6666666666666666
 40
0.6666666666666666
 40
0.6666666666666666
 40
0.6666666666666666
 40
1.0
 40
1.0
 40
1.0
 40
1.0
 10
-3.8936700000000002
 20
-2.3475200000000003
 30
0.0
 10
-3.8835100000000002
 20
-2.3475200000000003
 30
0.0
 10
-3.8631900000000003
 20
-2.3475200000000003
 30
0.0
 10
-3.8657300000000001
 20
-2.36022
 30
0.0
 10
-3.8657300000000001
 20
-2.36022
 30
0.0
 10
-3.8657300000000001
 20
-2.36022
 30
0.0
 10
-3.8250900000000003
 20
-2.8047200000000001
 30
0.0
 10
-3.8250900000000003
 20
-2.8047200000000001
 30
0.0
 10
-3.8250900000000003
 20
-2.8047200000000001
 30
0.0
 10
-3.9089100000000001
 20
-2.6751800000000001
 30
0.0
 10
-3.8987500000000002
 20
-2.4897600000000004
 30
0.0
 10
-3.8936700000000002
 20
-2.3475200000000003
 30
0.0
  0
SPLINE
  5
64
100
AcDbEntity
  8
Ebene 1
 62
     7
100
AcDbSpline
210
0.0
220
0.0
230
1.0
 70
     1
 71
     3
 72
    32
 73
    28
 74
     0
 42
0.0000000001
 43
0.0000000001
 40
0.0
 40
0.0
 40
0.0
 40
0.0
 40
0.1428571428571429
 40
0.1428571428571429
 40
0.1428571428571429
 40
0.1428571428571429
 40
0.2857142857142857
 40
0.2857142857142857
 40
0.2857142857142857
 40
0.2857142857142857
 40
0.4285714285714286
 40
0.4285714285714286
 40
0.4285714285714286
 40
0.4285714285714286
 40
0.5714285714285714
 40
0.5714285714285714
 40
0.5714285714285714
 40
0.5714285714285714
 40
0.7142857142857142
 40
0.7142857142857142
 40
0.7142857142857142
 40
0.7142857142857142
 40
0.857142857142857
 40
0.857142857142857
 40
0.857142857142857
 40
0.857142857142857
 40
1.0
 40
1.0
 40
1.0
 40
1.0
 10
-0.09637
 20
-2.7183600000000001
 30
0.0
 10
-0.06843
 20
-2.7336
 30
0.0
 10
-0.06843
 20
-2.7894800000000002
 30
0.0
 10
-0.08367
 20
-2.8326600000000002
 30
0.0
 10
-0.08367
 20
-2.8326600000000002
 30
0.0
 10
-0.08367
 20
-2.8326600000000002
 30
0.0
 10
0.00268
 20
-2.9317200000000003
 30
0.0
 10
0.00268
 20
-2.9317200000000003
 30
0.0
 10
0.00268
 20
-2.9317200000000003
 30
0.0
 10
-0.08367
 20
-3.0892000000000004
 30
0.0
 10
-0.22591
 20
-3.3330400000000004
 30
0.0
 10
-0.06843
 20
-3.5032200000000002
 30
0.0
 10
-0.06843
 20
-3.5032200000000002
 30
0.0
 10
-0.08367
 20
-3.5311600000000003
 30
0.0
 10
-0.09637
 20
-3.5464000000000002
 30
0.0
 10
-0.12431
 20
-3.5616400000000001
 30
0.0
 10
-0.12431
 20
-3.5616400000000001
 30
0.0
 10
-0.16749
 20
-3.5616400000000001
 30
0.0
 10
-0.21067
 20
-3.5743400000000003
 30
0.0
 10
-0.23861
 20
-3.5311600000000003
 30
0.0
 10
-0.23861
 20
-3.5311600000000003
 30
0.0
 10
-0.19797
 20
-3.3889200000000002
 30
0.0
 10
-0.16749
 20
-3.1908000000000003
 30
0.0
 10
-0.32497
 20
-3.1044400000000003
 30
0.0
 10
-0.32497
 20
-3.1044400000000003
 30
0.0
 10
-0.3122700000000001
 20
-2.9469600000000002
 30
0.0
 10
-0.23861
 20
-2.7742400000000003
 30
0.0
 10
-0.09637
 20
-2.7183600000000001
 30
0.0
  0
SPLINE
  5
65
100
AcDbEntity
  8
Ebene 1
 62
     7
100
AcDbSpline
210
0.0
220
0.0
230
1.0
 70
     1
 71
     3
 72
    20
 73
    16
 74
     0
 42
0.0000000001
 43
0.0000000001
 40
0.0
 40
0.0
 40
0.0
 40
0.0
 40
0.25
 40
0.25
 40
0.25
 40
0.25
 40
0.5
 40
0.5
 40
0.5
 40
0.5
 40
0.75
 40
0.75
 40
0.75
 40
0.75
 40
1.0
 40
1.0
 40
1.0
 40
1.0
 10
1.7121000000000002
 20
-2.8174200000000003
 30
0.0
 10
1.8568800000000001
 20
-3.0612600000000003
 30
0.0
 10
1.9559400000000002
 20
-3.3889200000000002
 30
0.0
 10
1.8695800000000002
 20
-3.6759400000000002
 30
0.0
 10
1.8695800000000002
 20
-3.6759400000000002
 30
0.0
 10
1.6994000000000002
 20
-3.7318200000000004
 30
0.0
 10
1.5139800000000001
 20
-3.7877000000000005
 30
0.0
 10
1.3285600000000002
 20
-3.7623000000000002
 30
0.0
 10
1.3285600000000002
 20
-3.7623000000000002
 30
0.0
 10
1.48604
 20
-3.5895800000000002
 30
0.0
 10
1.9280000000000002
 20
-3.4168600000000002
 30
0.0
 10
1.6841600000000001
 20
-3.1196800000000002
 30
0.0
 10
1.6841600000000001
 20
-3.1196800000000002
 30
0.0
 10
1.7705200000000001
 20
-3.0333200000000002
 30
0.0
 10
1.6994000000000002
 20
-2.9037800000000002
 30
0.0
 10
1.7121000000000002
 20
-2.8174200000000003
 30
0.0
  0
SPLINE
  5
66
100
AcDbEntity
  8
Ebene 1
100
AcDbSpline
210
0.0
220
0.0
230
1.0
 70
     1
 71
     3
 72
     8
 73
     4
 74
     0
 42
0.0000000001
 43
0.0000000001
 40
0.0
 40
0.0
 40
0.0
 40
0.0
 40
1.0
 40
1.0
 40
1.0
 40
1.0
 10
-3.7793700000000001
 20
-2.9901400000000002
 30
0.0
 10
-3.7514300000000005
 20
-2.9901400000000002
 30
0.0
 10
-3.7819100000000003
 20
-3.0180800000000003
 30
0.0
 10
-3.7793700000000001
 20
-2.9901400000000002
 30
0.0
  0
SPLINE
  5
67
100
AcDbEntity
  8
Ebene 1
 62
     7
100
AcDbSpline
210
0.0
220
0.0
230
1.0
 70
     1
 71
     3
 72
    16
 73
    12
 74
     0
 42
0.0000000001
 43
0.0000000001
 40
0.0
 40
0.0
 40
0.0
 40
0.0
 40
0.3333333333333333
 40
0.3333333333333333
 40
0.3333333333333333
 40
0.3333333333333333
 40
0.6666666666666666
 40
0.6666666666666666
 40
0.6666666666666666
 40
0.6666666666666666
 40
1.0
 40
1.0
 40
1.0
 40
1.0
 10
0.10174
 20
-3.0612600000000003
 30
0.0
 10
0.10174
 20
-3.0612600000000003
 30
0.0
 10
0.15762
 20
-3.0612600000000003
 30
0.0
 10
0.15762
 20
-3.0612600000000003
 30
0.0
 10
0.15762
 20
-3.0612600000000003
 30
0.0
 10
0.15762
 20
-3.1908000000000003
 30
0.0
 10
0.10174
 20
-3.3457400000000002
 30
0.0
 10
0.00268
 20
-3.4168600000000002
 30
0.0
 10
0.00268
 20
-3.4168600000000002
 30
0.0
 10
0.01538
 20
-3.2898600000000005
 30
0.0
 10
0.12968
 20
-3.1908000000000003
 30
0.0
 10
0.10174
 20
-3.0612600000000003
 30
0.0
  0
SPLINE
  5
68
100
AcDbEntity
  8
Ebene 1
 62
     7
100
AcDbSpline
210
0.0
220
0.0
230
1.0
 70
     1
 71
     3
 72
    28
 73
    24
 74
     0
 42
0.0000000001
 43
0.0000000001
 40
0.0
 40
0.0
 40
0.0
 40
0.0
 40
0.1666666666666667
 40
0.1666666666666667
 40
0.1666666666666667
 40
0.1666666666666667
 40
0.3333333333333333
 40
0.3333333333333333
 40
0.3333333333333333
 40
0.3333333333333333
 40
0.5
 40
0.5
 40
0.5
 40
0.5
 40
0.6666666666666666
 40
0.6666666666666666
 40
0.6666666666666666
 40
0.6666666666666666
 40
0.8333333333333333
 40
0.8333333333333333
 40
0.8333333333333333
 40
0.8333333333333333
 40
1.0
 40
1.0
 40
1.0
 40
1.0
 10
-0.59675
 20
-3.1908000000000003
 30
0.0
 10
-0.49515
 20
-3.2898600000000005
 30
0.0
 10
-0.56881
 20
-3.4321000000000002
 30
0.0
 10
-0.4824500000000001
 20
-3.5464000000000002
 30
0.0
 10
-0.4824500000000001
 20
-3.5464000000000002
 30
0.0
 10
-0.4824500000000001
 20
-3.5464000000000002
 30
0.0
 10
-0.51039
 20
-3.6048200000000001
 30
0.0
 10
-0.51039
 20
-3.6048200000000001
 30
0.0
 10
-0.51039
 20
-3.6048200000000001
 30
0.0
 10
-0.5383300000000001
 20
-3.5743400000000003
 30
0.0
 10
-0.5383300000000001
 20
-3.5311600000000003
 30
0.0
 10
-0.5383300000000001
 20
-3.4905200000000001
 30
0.0
 10
-0.5383300000000001
 20
-3.4905200000000001
 30
0.0
 10
-0.55357
 20
-3.4752800000000001
 30
0.0
 10
-0.59675
 20
-3.4600400000000002
 30
0.0
 10
-0.59675
 20
-3.4905200000000001
 30
0.0
 10
-0.59675
 20
-3.4905200000000001
 30
0.0
 10
-0.5815100000000001
 20
-3.6175200000000003
 30
0.0
 10
-0.5383300000000001
 20
-3.7877000000000005
 30
0.0
 10
-0.6246900000000001
 20
-3.8893000000000004
 30
0.0
 10
-0.6246900000000001
 20
-3.8893000000000004
 30
0.0
 10
-0.6678700000000001
 20
-3.6886400000000004
 30
0.0
 10
-0.73899
 20
-3.4041600000000001
 30
0.0
 10
-0.59675
 20
-3.1908000000000003
 30
0.0
  0
SPLINE
  5
69
100
AcDbEntity
  8
Ebene 1
 62
     7
100
AcDbSpline
210
0.0
220
0.0
230
1.0
 70
     1
 71
     3
 72
    36
 73
    32
 74
     0
 42
0.0000000001
 43
0.0000000001
 40
0.0
 40
0.0
 40
0.0
 40
0.0
 40
0.125
 40
0.125
 40
0.125
 40
0.125
 40
0.25
 40
0.25
 40
0.25
 40
0.25
 40
0.375
 40
0.375
 40
0.375
 40
0.375
 40
0.5
 40
0.5
 40
0.5
 40
0.5
 40
0.625
 40
0.625
 40
0.625
 40
0.625
 40
0.75
 40
0.75
 40
0.75
 40
0.75
 40
0.875
 40
0.875
 40
0.875
 40
0.875
 40
1.0
 40
1.0
 40
1.0
 40
1.0
 10
-1.3536700000000002
 20
-3.6886400000000004
 30
0.0
 10
-1.2393700000000001
 20
-3.6886400000000004
 30
0.0
 10
-1.0107700000000002
 20
-3.8029400000000004
 30
0.0
 10
-1.0971300000000002
 20
-3.9172400000000005
 30
0.0
 10
-1.0971300000000002
 20
-3.9172400000000005
 30
0.0
 10
-1.0971300000000002
 20
-3.9172400000000005
 30
0.0
 10
-1.1098300000000001
 20
-3.8308800000000005
 30
0.0
 10
-1.1098300000000001
 20
-3.8308800000000005
 30
0.0
 10
-1.1098300000000001
 20
-3.8308800000000005
 30
0.0
 10
-1.1530100000000001
 20
-3.7750000000000004
 30
0.0
 10
-1.2241300000000002
 20
-3.8461200000000004
 30
0.0
 10
-1.2673100000000002
 20
-3.8893000000000004
 30
0.0
 10
-1.2673100000000002
 20
-3.8893000000000004
 30
0.0
 10
-1.2800100000000001
 20
-4.0594800000000006
 30
0.0
 10
-1.2673100000000002
 20
-4.2322000000000006
 30
0.0
 10
-1.2393700000000001
 20
-4.40238
 30
0.0
 10
-1.2393700000000001
 20
-4.40238
 30
0.0
 10
-1.2393700000000001
 20
-4.40238
 30
0.0
 10
-1.2800100000000001
 20
-4.43032
 30
0.0
 10
-1.2800100000000001
 20
-4.43032
 30
0.0
 10
-1.2800100000000001
 20
-4.43032
 30
0.0
 10
-1.3231900000000001
 20
-4.4455600000000004
 30
0.0
 10
-1.3536700000000002
 20
-4.40238
 30
0.0
 10
-1.38161
 20
-4.3896800000000002
 30
0.0
 10
-1.38161
 20
-4.3896800000000002
 30
0.0
 10
-1.4374900000000002
 20
-4.1737800000000007
 30
0.0
 10
-1.4679700000000002
 20
-3.9451800000000001
 30
0.0
 10
-1.4247900000000002
 20
-3.7191200000000002
 30
0.0
 10
-1.4247900000000002
 20
-3.7191200000000002
 30
0.0
 10
-1.4247900000000002
 20
-3.7191200000000002
 30
0.0
 10
-1.3536700000000002
 20
-3.6886400000000004
 30
0.0
 10
-1.3536700000000002
 20
-3.6886400000000004
 30
0.0
  0
SPLINE
  5
6A
100
AcDbEntity
  8
Ebene 1
 62
     7
100
AcDbSpline
210
0.0
220
0.0
230
1.0
 70
     1
 71
     3
 72
    44
 73
    40
 74
     0
 42
0.0000000001
 43
0.0000000001
 40
0.0
 40
0.0
 40
0.0
 40
0.0
 40
0.1
 40
0.1
 40
0.1
 40
0.1
 40
0.2
 40
0.2
 40
0.2
 40
0.2
 40
0.3
 40
0.3
 40
0.3
 40
0.3
 40
0.4
 40
0.4
 40
0.4
 40
0.4
 40
0.5
 40
0.5
 40
0.5
 40
0.5
 40
0.6
 40
0.6
 40
0.6
 40
0.6
 40
0.7
 40
0.7
 40
0.7
 40
0.7
 40
0.7999999999999999
 40
0.7999999999999999
 40
0.7999999999999999
 40
0.7999999999999999
 40
0.8999999999999999
 40
0.8999999999999999
 40
0.8999999999999999
 40
0.8999999999999999
 40
1.0
 40
1.0
 40
1.0
 40
1.0
 10
-2.3798300000000001
 20
-3.7191200000000002
 30
0.0
 10
-2.3798300000000001
 20
-3.7191200000000002
 30
0.0
 10
-2.3366500000000001
 20
-3.7191200000000002
 30
0.0
 10
-2.3366500000000001
 20
-3.7191200000000002
 30
0.0
 10
-2.3366500000000001
 20
-3.7191200000000002
 30
0.0
 10
-2.2934700000000001
 20
-4.0899600000000005
 30
0.0
 10
-2.1105900000000002
 20
-4.4176200000000003
 30
0.0
 10
-1.9962900000000001
 20
-4.7605200000000005
 30
0.0
 10
-1.9962900000000001
 20
-4.7605200000000005
 30
0.0
 10
-2.0242300000000002
 20
-4.8316400000000002
 30
0.0
 10
-2.0369300000000004
 20
-4.8011600000000003
 30
0.0
 10
-2.0674100000000002
 20
-4.7732200000000002
 30
0.0
 10
-2.0674100000000002
 20
-4.7732200000000002
 30
0.0
 10
-2.0953500000000003
 20
-4.8164000000000007
 30
0.0
 10
-2.1232900000000003
 20
-4.8443400000000008
 30
0.0
 10
-2.1817100000000003
 20
-4.8595800000000002
 30
0.0
 10
-2.1817100000000003
 20
-4.8595800000000002
 30
0.0
 10
-2.2248900000000003
 20
-4.8443400000000008
 30
0.0
 10
-2.23759
 20
-4.7884600000000006
 30
0.0
 10
-2.2528300000000003
 20
-4.7452800000000002
 30
0.0
 10
-2.2528300000000003
 20
-4.7452800000000002
 30
0.0
 10
-2.2528300000000003
 20
-4.6741600000000005
 30
0.0
 10
-2.2096500000000003
 20
-4.7732200000000002
 30
0.0
 10
-2.1664700000000003
 20
-4.7605200000000005
 30
0.0
 10
-2.1664700000000003
 20
-4.7605200000000005
 30
0.0
 10
-2.1817100000000003
 20
-4.60304
 30
0.0
 10
-2.2934700000000001
 20
-4.4608000000000008
 30
0.0
 10
-2.2807700000000004
 20
-4.2880800000000008
 30
0.0
 10
-2.2807700000000004
 20
-4.2880800000000008
 30
0.0
 10
-2.2807700000000004
 20
-4.2880800000000008
 30
0.0
 10
-2.30871
 20
-4.2322000000000006
 30
0.0
 10
-2.30871
 20
-4.2322000000000006
 30
0.0
 10
-2.30871
 20
-4.2322000000000006
 30
0.0
 10
-2.35189
 20
-4.2322000000000006
 30
0.0
 10
-2.30871
 20
-4.2880800000000008
 30
0.0
 10
-2.3366500000000001
 20
-4.2880800000000008
 30
0.0
 10
-2.3366500000000001
 20
-4.2880800000000008
 30
0.0
 10
-2.4230100000000001
 20
-4.13314
 30
0.0
 10
-2.39507
 20
-3.9020000000000001
 30
0.0
 10
-2.3798300000000001
 20
-3.7191200000000002
 30
0.0
  0
SPLINE
  5
6B
100
AcDbEntity
  8
Ebene 1
 62
     7
100
AcDbSpline
210
0.0
220
0.0
230
1.0
 70
     1
 71
     3
 72
    20
 73
    16
 74
     0
 42
0.0000000001
 43
0.0000000001
 40
0.0
 40
0.0
 40
0.0
 40
0.0
 40
0.25
 40
0.25
 40
0.25
 40
0.25
 40
0.5
 40
0.5
 40
0.5
 40
0.5
 40
0.75
 40
0.75
 40
0.75
 40
0.75
 40
1.0
 40
1.0
 40
1.0
 40
1.0
 10
-3.3221700000000003
 20
-3.9807400000000004
 30
0.0
 10
-3.2383500000000001
 20
-4.0798000000000005
 30
0.0
 10
-3.2383500000000001
 20
-4.2169600000000003
 30
0.0
 10
-3.2815300000000001
 20
-4.3465000000000007
 30
0.0
 10
-3.2815300000000001
 20
-4.3465000000000007
 30
0.0
 10
-3.2815300000000001
 20
-4.3465000000000007
 30
0.0
 10
-3.1672300000000004
 20
-4.7884600000000006
 30
0.0
 10
-3.1672300000000004
 20
-4.7884600000000006
 30
0.0
 10
-3.1672300000000004
 20
-4.7884600000000006
 30
0.0
 10
-3.1672300000000004
 20
-4.8164000000000007
 30
0.0
 10
-3.1519900000000001
 20
-4.8595800000000002
 30
0.0
 10
-3.1799300000000001
 20
-4.8875200000000003
 30
0.0
 10
-3.1799300000000001
 20
-4.8875200000000003
 30
0.0
 10
-3.3907500000000002
 20
-4.6614600000000008
 30
0.0
 10
-3.3297900000000005
 20
-4.3084000000000007
 30
0.0
 10
-3.3221700000000003
 20
-3.9807400000000004
 30
0.0
  0
SPLINE
  5
6C
100
AcDbEntity
  8
Ebene 1
 62
     7
100
AcDbSpline
210
0.0
220
0.0
230
1.0
 70
     1
 71
     3
 72
    24
 73
    20
 74
     0
 42
0.0000000001
 43
0.0000000001
 40
0.0
 40
0.0
 40
0.0
 40
0.0
 40
0.2
 40
0.2
 40
0.2
 40
0.2
 40
0.4
 40
0.4
 40
0.4
 40
0.4
 40
0.6000000000000001
 40
0.6000000000000001
 40
0.6000000000000001
 40
0.6000000000000001
 40
0.8
 40
0.8
 40
0.8
 40
0.8
 40
1.0
 40
1.0
 40
1.0
 40
1.0
 10
-1.08189
 20
-3.9604200000000005
 30
0.0
 10
-1.08189
 20
-3.9604200000000005
 30
0.0
 10
-1.0539500000000002
 20
-3.9604200000000005
 30
0.0
 10
-1.0539500000000002
 20
-3.9604200000000005
 30
0.0
 10
-1.0539500000000002
 20
-3.9604200000000005
 30
0.0
 10
-1.0666500000000001
 20
-4.0747200000000001
 30
0.0
 10
-1.0666500000000001
 20
-4.2169600000000003
 30
0.0
 10
-1.1530100000000001
 20
-4.3033200000000003
 30
0.0
 10
-1.1530100000000001
 20
-4.3033200000000003
 30
0.0
 10
-1.1530100000000001
 20
-4.3033200000000003
 30
0.0
 10
-1.16825
 20
-4.2880800000000008
 30
0.0
 10
-1.16825
 20
-4.2880800000000008
 30
0.0
 10
-1.16825
 20
-4.2880800000000008
 30
0.0
 10
-1.1098300000000001
 20
-4.2042600000000006
 30
0.0
 10
-1.2241300000000002
 20
-3.9756600000000004
 30
0.0
 10
-1.08189
 20
-4.0036000000000005
 30
0.0
 10
-1.08189
 20
-4.0036000000000005
 30
0.0
 10
-1.08189
 20
-4.0036000000000005
 30
0.0
 10
-1.08189
 20
-3.9604200000000005
 30
0.0
 10
-1.08189
 20
-3.9604200000000005
 30
0.0
  0
SPLINE
  5
6D
100
AcDbEntity
  8
Ebene 1
 62
     7
100
AcDbSpline
210
0.0
220
0.0
230
1.0
 70
     1
 71
     3
 72
    36
 73
    32
 74
     0
 42
0.0000000001
 43
0.0000000001
 40
0.0
 40
0.0
 40
0.0
 40
0.0
 40
0.125
 40
0.125
 40
0.125
 40
0.125
 40
0.25
 40
0.25
 40
0.25
 40
0.25
 40
0.375
 40
0.375
 40
0.375
 40
0.375
 40
0.5
 40
0.5
 40
0.5
 40
0.5
 40
0.625
 40
0.625
 40
0.625
 40
0.625
 40
0.75
 40
0.75
 40
0.75
 40
0.75
 40
0.875
 40
0.875
 40
0.875
 40
0.875
 40
1.0
 40
1.0
 40
1.0
 40
1.0
 10
-1.8235700000000001
 20
-4.0594800000000006
 30
0.0
 10
-1.8235700000000001
 20
-4.0594800000000006
 30
0.0
 10
-1.7803900000000001
 20
-4.1026600000000002
 30
0.0
 10
-1.7803900000000001
 20
-4.1026600000000002
 30
0.0
 10
-1.7803900000000001
 20
-4.1026600000000002
 30
0.0
 10
-1.8083300000000002
 20
-4.31602
 30
0.0
 10
-1.5238500000000001
 20
-4.4176200000000003
 30
0.0
 10
-1.5238500000000001
 20
-4.5878000000000005
 30
0.0
 10
-1.5238500000000001
 20
-4.5878000000000005
 30
0.0
 10
-1.6381500000000002
 20
-4.5750999999999999
 30
0.0
 10
-1.6254500000000001
 20
-4.40238
 30
0.0
 10
-1.7245100000000002
 20
-4.3592000000000004
 30
0.0
 10
-1.7245100000000002
 20
-4.3592000000000004
 30
0.0
 10
-1.7524500000000001
 20
-4.40238
 30
0.0
 10
-1.6813300000000002
 20
-4.51668
 30
0.0
 10
-1.6381500000000002
 20
-4.5750999999999999
 30
0.0
 10
-1.6381500000000002
 20
-4.5750999999999999
 30
0.0
 10
-1.5949700000000002
 20
-4.6182800000000004
 30
0.0
 10
-1.6660900000000001
 20
-4.6741600000000005
 30
0.0
 10
-1.6533900000000001
 20
-4.7173400000000001
 30
0.0
 10
-1.6533900000000001
 20
-4.7173400000000001
 30
0.0
 10
-1.6254500000000001
 20
-4.7173400000000001
 30
0.0
 10
-1.5390900000000001
 20
-4.6309800000000001
 30
0.0
 10
-1.5822700000000001
 20
-4.7173400000000001
 30
0.0
 10
-1.5822700000000001
 20
-4.7173400000000001
 30
0.0
 10
-1.5949700000000002
 20
-4.7605200000000005
 30
0.0
 10
-1.6381500000000002
 20
-4.7884600000000006
 30
0.0
 10
-1.6813300000000002
 20
-4.8164000000000007
 30
0.0
 10
-1.6813300000000002
 20
-4.8164000000000007
 30
0.0
 10
-1.8235700000000001
 20
-4.60304
 30
0.0
 10
-1.9226300000000001
 20
-4.31602
 30
0.0
 10
-1.8235700000000001
 20
-4.0594800000000006
 30
0.0
  0
SPLINE
  5
6E
100
AcDbEntity
  8
Ebene 1
 62
     7
100
AcDbSpline
210
0.0
220
0.0
230
1.0
 70
     1
 71
     3
 72
    32
 73
    28
 74
     0
 42
0.0000000001
 43
0.0000000001
 40
0.0
 40
0.0
 40
0.0
 40
0.0
 40
0.1428571428571429
 40
0.1428571428571429
 40
0.1428571428571429
 40
0.1428571428571429
 40
0.2857142857142857
 40
0.2857142857142857
 40
0.2857142857142857
 40
0.2857142857142857
 40
0.4285714285714286
 40
0.4285714285714286
 40
0.4285714285714286
 40
0.4285714285714286
 40
0.5714285714285714
 40
0.5714285714285714
 40
0.5714285714285714
 40
0.5714285714285714
 40
0.7142857142857142
 40
0.7142857142857142
 40
0.7142857142857142
 40
0.7142857142857142
 40
0.857142857142857
 40
0.857142857142857
 40
0.857142857142857
 40
0.857142857142857
 40
1.0
 40
1.0
 40
1.0
 40
1.0
 10
1.02884
 20
-4.0899600000000005
 30
0.0
 10
0.35828
 20
-4.6182800000000004
 30
0.0
 10
-0.3960900000000001
 20
-5.0018200000000004
 30
0.0
 10
-1.0234700000000001
 20
-5.6012600000000008
 30
0.0
 10
-1.0234700000000001
 20
-5.6012600000000008
 30
0.0
 10
-1.0234700000000001
 20
-5.6012600000000008
 30
0.0
 10
-0.6246900000000001
 20
-5.0018200000000004
 30
0.0
 10
-0.6246900000000001
 20
-5.0018200000000004
 30
0.0
 10
-0.6246900000000001
 20
-5.0018200000000004
 30
0.0
 10
-0.6246900000000001
 20
-4.9459400000000002
 30
0.0
 10
-0.69581
 20
-5.0170600000000007
 30
0.0
 10
-0.6831100000000001
 20
-4.9586400000000008
 30
0.0
 10
-0.6831100000000001
 20
-4.9586400000000008
 30
0.0
 10
-0.56881
 20
-4.8875200000000003
 30
0.0
 10
-0.3960900000000001
 20
-4.8316400000000002
 30
0.0
 10
-0.29703
 20
-4.8443400000000008
 30
0.0
 10
-0.29703
 20
-4.8443400000000008
 30
0.0
 10
-0.29703
 20
-4.8443400000000008
 30
0.0
 10
-0.16749
 20
-4.6741600000000005
 30
0.0
 10
-0.16749
 20
-4.6741600000000005
 30
0.0
 10
-0.16749
 20
-4.6741600000000005
 30
0.0
 10
-0.16749
 20
-4.6741600000000005
 30
0.0
 10
-0.11161
 20
-4.7021000000000006
 30
0.0
 10
-0.11161
 20
-4.7021000000000006
 30
0.0
 10
-0.11161
 20
-4.7021000000000006
 30
0.0
 10
0.22874
 20
-4.48874
 30
0.0
 10
0.61482
 20
-4.2601400000000007
 30
0.0
 10
1.02884
 20
-4.0899600000000005
 30
0.0
  0
ENDSEC
  0
SECTION
  2
OBJECTS
  0
DICTIONARY
  5
19
100
AcDbDictionary
280
     0
281
     1
  3
ACAD_GROUP
350
1A
  3
ACAD_MLINESTYLE
350
1B
  3
ACAD_LAYOUT
350
1E
  3
ACAD_PLOTSETTINGS
350
22
  3
ACAD_PLOTSTYLENAME
350
1F
  3
ACAD_WIPEOUT_VARS
350
23
  0
DICTIONARY
  5
1A
102
{ACAD_REACTORS
330
19
102
}
100
AcDbDictionary
280
     0
281
     1
  0
DICTIONARY
  5
1B
102
{ACAD_REACTORS
330
19
102
}
100
AcDbDictionary
280
     0
281
     1
  3
Standard
350
1C
  0
MLINESTYLE
  5
1C
102
{ACAD_REACTORS
330
1B
102
}
100
AcDbMlineStyle
  2
Standard
 70
     0
  3

 62
     0
 51
90.0
 52
90.0
 71
     2
 49
0.5
 62
   256
  6
BYLAYER
 49
-0.5
 62
   256
  6
BYLAYER
  0
ACDBDICTIONARYWDFLT
  5
1F
102
{ACAD_REACTORS
330
19
102
}
100
AcDbDictionary
281
     1
  3
Normal
350
1D
100
AcDbDictionaryWithDefault
340
1D
  0
ACDBPLACEHOLDER
  5
1D
102
{ACAD_REACTORS
330
1F
102
}
  0
LAYOUT
  5
20
102
{ACAD_REACTORS
330
1E
102
}
100
AcDbPlotSettings
  1

  2

  4

  6

 40
0.0
 41
0.0
 42
0.0
 43
0.0
 44
0.0
 45
0.0
 46
0.0
 47
0.0
 48
0.0
 49
0.0
140
0.0
141
0.0
142
1.0
143
1.0
 70
  1024
 72
     0
 73
     0
 74
     0
  7

 75
     0
147
1.0
148
0.0
149
0.0
100
AcDbLayout
  1
Model
 70
     0
 71
     0
 10
0.0
 20
0.0
 11
0.0
 21
0.0
 12
0.0
 22
0.0
 32
0.0
 14
0.0
 24
0.0
 34
0.0
 15
0.0
 25
0.0
 35
0.0
146
0.0
 13
0.0
 23
0.0
 33
0.0
 16
0.0
 26
0.0
 36
0.0
 17
0.0
 27
0.0
 37
0.0
 76
     0
330
A
331
0
345
0
346
0
  0
LAYOUT
  5
21
102
{ACAD_REACTORS
330
1E
102
}
100
AcDbPlotSettings
  1

  2

  4

  6

 40
0.0
 41
0.0
 42
0.0
 43
0.0
 44
0.0
 45
0.0
 46
0.0
 47
0.0
 48
0.0
 49
0.0
140
0.0
141
0.0
142
1.0
143
1.0
 70
     0
 72
     0
 73
     0
 74
     0
  7

 75
     0
147
1.0
148
0.0
149
0.0
100
AcDbLayout
  1
Layout1
 70
     0
 71
     0
 10
0.0
 20
0.0
 11
0.0
 21
0.0
 12
0.0
 22
0.0
 32
0.0
 14
0.0
 24
0.0
 34
0.0
 15
0.0
 25
0.0
 35
0.0
146
0.0
 13
0.0
 23
0.0
 33
0.0
 16
0.0
 26
0.0
 36
0.0
 17
0.0
 27
0.0
 37
0.0
 76
     0
330
B
331
0
345
0
346
0
  0
DICTIONARY
  5
1E
102
{ACAD_REACTORS
330
19
102
}
100
AcDbDictionary
280
     0
281
     1
  3
Layout1
350
21
  3
Model
350
20
  0
DICTIONARY
  5
22
102
{ACAD_REACTORS
330
19
102
}
100
AcDbDictionary
280
     0
281
     1
  0
WIPEOUTVARIABLES
  5
23
100
AcDbWipeoutVariables
 70
     1
  0
ENDSEC
  0
EOF
