  0
SECTION
  2
HEADER
  9
$ACADVER
  1
AC1018
  9
$ACADMAINTVER
 70
     0
  9
$DWGCODEPAGE
  3
ANSI_1251
  9
$INSBASE
 10
0.0
 20
0.0
 30
0.0
  9
$EXTMIN
 10
-22.4278
 20
-483.0163
 30
0.0
  9
$EXTMAX
 10
653.3341
 20
-56.2813
 30
0.0
  9
$LIMMIN
 10
0.0
 20
0.0
  9
$LIMMAX
 10
12.0
 20
9.0
  9
$ORTHOMODE
 70
     0
  9
$REGENMODE
 70
     1
  9
$FILLMODE
 70
     1
  9
$QTEXTMODE
 70
     0
  9
$MIRRTEXT
 70
     1
  9
$LTSCALE
 40
1.0
  9
$ATTMODE
 70
     1
  9
$TEXTSIZE
 40
0.2
  9
$TRACEWID
 40
0.05
  9
$TEXTSTYLE
  7
Standard
  9
$CLAYER
  8
0
  9
$CELTYPE
  6
ByLayer
  9
$CECOLOR
 62
   256
  9
$CELTSCALE
 40
1.0
  9
$DISPSILH
 70
     0
  9
$DIMSCALE
 40
1.0
  9
$DIMASZ
 40
0.18
  9
$DIMEXO
 40
0.0625
  9
$DIMDLI
 40
0.38
  9
$DIMRND
 40
0.0
  9
$DIMDLE
 40
0.0
  9
$DIMEXE
 40
0.18
  9
$DIMTP
 40
0.0
  9
$DIMTM
 40
0.0
  9
$DIMTXT
 40
0.18
  9
$DIMCEN
 40
0.09
  9
$DIMTSZ
 40
0.0
  9
$DIMTOL
 70
     0
  9
$DIMLIM
 70
     0
  9
$DIMTIH
 70
     1
  9
$DIMTOH
 70
     1
  9
$DIMSE1
 70
     0
  9
$DIMSE2
 70
     0
  9
$DIMTAD
 70
     0
  9
$DIMZIN
 70
     0
  9
$DIMBLK
  1

  9
$DIMASO
 70
     1
  9
$DIMSHO
 70
     1
  9
$DIMPOST
  1

  9
$DIMAPOST
  1

  9
$DIMALT
 70
     0
  9
$DIMALTD
 70
     2
  9
$DIMALTF
 40
25.4
  9
$DIMLFAC
 40
1.0
  9
$DIMTOFL
 70
     0
  9
$DIMTVP
 40
0.0
  9
$DIMTIX
 70
     0
  9
$DIMSOXD
 70
     0
  9
$DIMSAH
 70
     0
  9
$DIMBLK1
  1

  9
$DIMBLK2
  1

  9
$DIMSTYLE
  2
Standard
  9
$DIMCLRD
 70
     0
  9
$DIMCLRE
 70
     0
  9
$DIMCLRT
 70
     0
  9
$DIMTFAC
 40
1.0
  9
$DIMGAP
 40
0.09
  9
$DIMJUST
 70
     0
  9
$DIMSD1
 70
     0
  9
$DIMSD2
 70
     0
  9
$DIMTOLJ
 70
     1
  9
$DIMTZIN
 70
     0
  9
$DIMALTZ
 70
     0
  9
$DIMALTTZ
 70
     0
  9
$DIMUPT
 70
     0
  9
$DIMDEC
 70
     4
  9
$DIMTDEC
 70
     4
  9
$DIMALTU
 70
     2
  9
$DIMALTTD
 70
     2
  9
$DIMTXSTY
  7
Standard
  9
$DIMAUNIT
 70
     0
  9
$DIMADEC
 70
     0
  9
$DIMALTRND
 40
0.0
  9
$DIMAZIN
 70
     0
  9
$DIMDSEP
 70
    46
  9
$DIMATFIT
 70
     3
  9
$DIMFRAC
 70
     0
  9
$DIMLDRBLK
  1

  9
$DIMLUNIT
 70
     2
  9
$DIMLWD
 70
    -2
  9
$DIMLWE
 70
    -2
  9
$DIMTMOVE
 70
     0
  9
$LUNITS
 70
     2
  9
$LUPREC
 70
     4
  9
$SKETCHINC
 40
0.1
  9
$FILLETRAD
 40
0.5
  9
$AUNITS
 70
     0
  9
$AUPREC
 70
     0
  9
$MENU
  1
.
  9
$ELEVATION
 40
0.0
  9
$PELEVATION
 40
0.0
  9
$THICKNESS
 40
0.0
  9
$LIMCHECK
 70
     0
  9
$CHAMFERA
 40
0.5
  9
$CHAMFERB
 40
0.5
  9
$CHAMFERC
 40
1.0
  9
$CHAMFERD
 40
0.0
  9
$SKPOLY
 70
     0
  9
$TDCREATE
 40
2455996.800893727
  9
$TDUCREATE
 40
2455996.675893727
  9
$TDUPDATE
 40
2455996.800893738
  9
$TDUUPDATE
 40
2455996.675893738
  9
$TDINDWG
 40
0.0000000116
  9
$TDUSRTIMER
 40
0.0000000116
  9
$USRTIMER
 70
     1
  9
$ANGBASE
 50
0.0
  9
$ANGDIR
 70
     0
  9
$PDMODE
 70
     0
  9
$PDSIZE
 40
0.0
  9
$PLINEWID
 40
0.0
  9
$SPLFRAME
 70
     0
  9
$SPLINETYPE
 70
     6
  9
$SPLINESEGS
 70
     8
  9
$HANDSEED
  5
DC
  9
$SURFTAB1
 70
     6
  9
$SURFTAB2
 70
     6
  9
$SURFTYPE
 70
     6
  9
$SURFU
 70
     6
  9
$SURFV
 70
     6
  9
$UCSBASE
  2

  9
$UCSNAME
  2

  9
$UCSORG
 10
0.0
 20
0.0
 30
0.0
  9
$UCSXDIR
 10
1.0
 20
0.0
 30
0.0
  9
$UCSYDIR
 10
0.0
 20
1.0
 30
0.0
  9
$UCSORTHOREF
  2

  9
$UCSORTHOVIEW
 70
     0
  9
$UCSORGTOP
 10
0.0
 20
0.0
 30
0.0
  9
$UCSORGBOTTOM
 10
0.0
 20
0.0
 30
0.0
  9
$UCSORGLEFT
 10
0.0
 20
0.0
 30
0.0
  9
$UCSORGRIGHT
 10
0.0
 20
0.0
 30
0.0
  9
$UCSORGFRONT
 10
0.0
 20
0.0
 30
0.0
  9
$UCSORGBACK
 10
0.0
 20
0.0
 30
0.0
  9
$PUCSBASE
  2

  9
$PUCSNAME
  2

  9
$PUCSORG
 10
0.0
 20
0.0
 30
0.0
  9
$PUCSXDIR
 10
1.0
 20
0.0
 30
0.0
  9
$PUCSYDIR
 10
0.0
 20
1.0
 30
0.0
  9
$PUCSORTHOREF
  2

  9
$PUCSORTHOVIEW
 70
     0
  9
$PUCSORGTOP
 10
0.0
 20
0.0
 30
0.0
  9
$PUCSORGBOTTOM
 10
0.0
 20
0.0
 30
0.0
  9
$PUCSORGLEFT
 10
0.0
 20
0.0
 30
0.0
  9
$PUCSORGRIGHT
 10
0.0
 20
0.0
 30
0.0
  9
$PUCSORGFRONT
 10
0.0
 20
0.0
 30
0.0
  9
$PUCSORGBACK
 10
0.0
 20
0.0
 30
0.0
  9
$USERI1
 70
     0
  9
$USERI2
 70
     0
  9
$USERI3
 70
     0
  9
$USERI4
 70
     0
  9
$USERI5
 70
     0
  9
$USERR1
 40
0.0
  9
$USERR2
 40
0.0
  9
$USERR3
 40
0.0
  9
$USERR4
 40
0.0
  9
$USERR5
 40
0.0
  9
$WORLDVIEW
 70
     1
  9
$SHADEDGE
 70
     3
  9
$SHADEDIF
 70
    70
  9
$TILEMODE
 70
     1
  9
$MAXACTVP
 70
    64
  9
$PINSBASE
 10
0.0
 20
0.0
 30
0.0
  9
$PLIMCHECK
 70
     0
  9
$PEXTMIN
 10
1.000000000000000E+20
 20
1.000000000000000E+20
 30
1.000000000000000E+20
  9
$PEXTMAX
 10
-1.000000000000000E+20
 20
-1.000000000000000E+20
 30
-1.000000000000000E+20
  9
$PLIMMIN
 10
0.0
 20
0.0
  9
$PLIMMAX
 10
12.0
 20
9.0
  9
$UNITMODE
 70
     0
  9
$VISRETAIN
 70
     1
  9
$PLINEGEN
 70
     0
  9
$PSLTSCALE
 70
     1
  9
$TREEDEPTH
 70
  3020
  9
$CMLSTYLE
  2
Standard
  9
$CMLJUST
 70
     0
  9
$CMLSCALE
 40
1.0
  9
$PROXYGRAPHICS
 70
     1
  9
$MEASUREMENT
 70
     0
  9
$CELWEIGHT
370
    -1
  9
$ENDCAPS
280
     0
  9
$JOINSTYLE
280
     0
  9
$LWDISPLAY
290
     0
  9
$INSUNITS
 70
     4
  9
$HYPERLINKBASE
  1

  9
$STYLESHEET
  1

  9
$XEDIT
290
     1
  9
$CEPSNTYPE
380
     0
  9
$PSTYLEMODE
290
     0
  9
$FINGERPRINTGUID
  2
{FAEB1C30-E019-11D5-929B-00C0DF256EC4}
  9
$VERSIONGUID
  2
{FAEB1C32-E019-11D5-929B-00C0DF256EC4}
  9
$EXTNAMES
290
     1
  9
$PSVPSCALE
 40
0.0
  9
$OLESTARTUP
290
     0
  9
$SORTENTS
280
   127
  9
$INDEXCTL
280
     0
  9
$HIDETEXT
280
     1
  9
$XCLIPFRAME
290
     0
  9
$HALOGAP
280
     0
  9
$OBSCOLOR
 70
   257
  9
$OBSLTYPE
280
     0
  9
$INTERSECTIONDISPLAY
280
     0
  9
$INTERSECTIONCOLOR
 70
   257
  9
$DIMASSOC
280
     2
  9
$PROJECTNAME
  1

  0
ENDSEC
  0
SECTION
  2
CLASSES
  0
CLASS
  1
ACDBDICTIONARYWDFLT
  2
AcDbDictionaryWithDefault
  3
ObjectDBX Classes
 90
        0
 91
        1
280
     0
281
     0
  0
ENDSEC
  0
SECTION
  2
TABLES
  0
TABLE
  2
VPORT
  5
8
330
0
100
AcDbSymbolTable
 70
     2
  0
VPORT
  5
29
330
8
100
AcDbSymbolTableRecord
100
AcDbViewportTableRecord
  2
*Active
 70
     0
 10
0.0
 20
0.0
 11
1.0
 21
1.0
 12
10.42990654205607
 22
4.5
 13
0.0
 23
0.0
 14
0.5
 24
0.5
 15
0.5
 25
0.5
 16
0.0
 26
0.0
 36
1.0
 17
0.0
 27
0.0
 37
0.0
 40
9.0
 41
1.972972972850329
 42
50.0
 43
0.0
 44
0.0
 50
0.0
 51
0.0
 71
     0
 72
   100
 73
     1
 74
     3
 75
     0
 76
     0
 77
     0
 78
     0
281
     0
 65
     1
110
0.0
120
0.0
130
0.0
111
1.0
121
0.0
131
0.0
112
0.0
122
1.0
132
0.0
 79
     0
146
0.0
  0
ENDTAB
  0
TABLE
  2
LTYPE
  5
5
330
0
100
AcDbSymbolTable
 70
     1
  0
LTYPE
  5
14
330
5
100
AcDbSymbolTableRecord
100
AcDbLinetypeTableRecord
  2
ByBlock
 70
     0
  3

 72
    65
 73
     0
 40
0.0
  0
LTYPE
  5
15
330
5
100
AcDbSymbolTableRecord
100
AcDbLinetypeTableRecord
  2
ByLayer
 70
     0
  3

 72
    65
 73
     0
 40
0.0
  0
LTYPE
  5
16
330
5
100
AcDbSymbolTableRecord
100
AcDbLinetypeTableRecord
  2
Continuous
 70
     0
  3
Solid line
 72
    65
 73
     0
 40
0.0
  0
ENDTAB
  0
TABLE
  2
LAYER
  5
2
330
0
100
AcDbSymbolTable
 70
     2
  0
LAYER
  5
10
330
2
100
AcDbSymbolTableRecord
100
AcDbLayerTableRecord
  2
0
 70
     0
 62
     7
  6
Continuous
370
    -3
390
F
  0
LAYER
  5
2B
330
2
100
AcDbSymbolTableRecord
100
AcDbLayerTableRecord
  2
layer 1
 70
     0
 62
     7
  6
Continuous
370
    -3
390
F
  0
ENDTAB
  0
TABLE
  2
STYLE
  5
3
330
0
100
AcDbSymbolTable
 70
     1
  0
STYLE
  5
11
330
3
100
AcDbSymbolTableRecord
100
AcDbTextStyleTableRecord
  2
Standard
 70
     0
 40
0.0
 41
1.0
 50
0.0
 71
     0
 42
0.2
  3
txt
  4

  0
ENDTAB
  0
TABLE
  2
VIEW
  5
6
330
0
100
AcDbSymbolTable
 70
     0
  0
ENDTAB
  0
TABLE
  2
UCS
  5
7
330
0
100
AcDbSymbolTable
 70
     0
  0
ENDTAB
  0
TABLE
  2
APPID
  5
9
330
0
100
AcDbSymbolTable
 70
     2
  0
APPID
  5
12
330
9
100
AcDbSymbolTableRecord
100
AcDbRegAppTableRecord
  2
ACAD
 70
     0
  0
APPID
  5
2A
330
9
100
AcDbSymbolTableRecord
100
AcDbRegAppTableRecord
  2
ODA
 70
     0
  0
ENDTAB
  0
TABLE
  2
DIMSTYLE
  5
A
330
0
100
AcDbSymbolTable
 70
     1
100
AcDbDimStyleTable
  0
DIMSTYLE
105
27
330
A
100
AcDbSymbolTableRecord
100
AcDbDimStyleTableRecord
  2
Standard
 70
     0
340
11
  0
ENDTAB
  0
TABLE
  2
BLOCK_RECORD
  5
1
330
0
100
AcDbSymbolTable
 70
     1
  0
BLOCK_RECORD
  5
1F
330
1
100
AcDbSymbolTableRecord
100
AcDbBlockTableRecord
  2
*Model_Space
340
22
  0
BLOCK_RECORD
  5
1B
330
1
100
AcDbSymbolTableRecord
100
AcDbBlockTableRecord
  2
*Paper_Space
340
1E
  0
BLOCK_RECORD
  5
23
330
1
100
AcDbSymbolTableRecord
100
AcDbBlockTableRecord
  2
*Paper_Space0
340
26
  0
ENDTAB
  0
ENDSEC
  0
SECTION
  2
BLOCKS
  0
BLOCK
  5
20
330
1F
100
AcDbEntity
  8
0
100
AcDbBlockBegin
  2
*Model_Space
 70
     0
 71
     0
 10
0.0
 20
0.0
 30
0.0
  3
*Model_Space
  1

  0
ENDBLK
  5
21
330
1F
100
AcDbEntity
  8
0
100
AcDbBlockEnd
  0
BLOCK
  5
1C
330
1B
100
AcDbEntity
 67
     1
  8
0
100
AcDbBlockBegin
  2
*Paper_Space
 70
     0
 71
     0
 10
0.0
 20
0.0
 30
0.0
  3
*Paper_Space
  1

  0
ENDBLK
  5
1D
330
1B
100
AcDbEntity
 67
     1
  8
0
100
AcDbBlockEnd
  0
BLOCK
  5
24
330
23
100
AcDbEntity
  8
0
100
AcDbBlockBegin
  2
*Paper_Space0
 70
     0
 71
     0
 10
0.0
 20
0.0
 30
0.0
  3
*Paper_Space0
  1

  0
ENDBLK
  5
25
330
23
100
AcDbEntity
  8
0
100
AcDbBlockEnd
  0
ENDSEC
  0
SECTION
  2
ENTITIES
  0
SPLINE
  5
2C
330
1F
100
AcDbEntity
  8
layer 1
100
AcDbSpline
210
0.0
220
0.0
230
1.0
 70
    11
 71
     3
 72
    12
 73
     8
 74
     0
 42
0.0000000001
 43
0.0000000001
 40
0.0
 40
0.0
 40
0.0
 40
0.0
 40
0.5
 40
0.5
 40
0.5
 40
0.5
 40
1.0
 40
1.0
 40
1.0
 40
1.0
 10
479.8442
 20
-262.5017
 30
0.0
 10
487.4516
 20
-258.3082
 30
0.0
 10
493.2178
 20
-262.6792
 30
0.0
 10
498.2192
 20
-266.5824
 30
0.0
 10
498.2192
 20
-266.5824
 30
0.0
 10
502.9502000000001
 20
-295.7515
 30
0.0
 10
468.8046000000001
 20
-282.3331
 30
0.0
 10
479.8442
 20
-262.5017
 30
0.0
  0
SPLINE
  5
2D
330
1F
100
AcDbEntity
  8
layer 1
100
AcDbSpline
210
0.0
220
0.0
230
1.0
 70
    11
 71
     3
 72
    12
 73
     8
 74
     0
 42
0.0000000001
 43
0.0000000001
 40
0.0
 40
0.0
 40
0.0
 40
0.0
 40
0.5
 40
0.5
 40
0.5
 40
0.5
 40
1.0
 40
1.0
 40
1.0
 40
1.0
 10
485.9719
 20
-266.5824
 30
0.0
 10
481.5428
 20
-271.2521
 30
0.0
 10
485.2288
 20
-279.3273
 30
0.0
 10
492.098
 20
-278.8363
 30
0.0
 10
492.098
 20
-278.8363
 30
0.0
 10
496.7212
 20
-273.9659
 30
0.0
 10
491.1608000000001
 20
-267.7718
 30
0.0
 10
485.9719
 20
-266.5824
 30
0.0
  0
SPLINE
  5
2E
330
1F
100
AcDbEntity
  8
layer 1
100
AcDbSpline
210
0.0
220
0.0
230
1.0
 70
    11
 71
     3
 72
    12
 73
     8
 74
     0
 42
0.0000000001
 43
0.0000000001
 40
0.0
 40
0.0
 40
0.0
 40
0.0
 40
0.5
 40
0.5
 40
0.5
 40
0.5
 40
1.0
 40
1.0
 40
1.0
 40
1.0
 10
312.4174
 20
-270.6698
 30
0.0
 10
313.4277
 20
-262.8335
 30
0.0
 10
318.4523
 20
-259.0115
 30
0.0
 10
322.6292
 20
-254.3352
 30
0.0
 10
322.6292
 20
-254.3352
 30
0.0
 10
347.4836
 20
-259.7016
 30
0.0
 10
321.0235
 20
-296.5511
 30
0.0
 10
312.4174
 20
-270.6698
 30
0.0
  0
SPLINE
  5
2F
330
1F
100
AcDbEntity
  8
layer 1
100
AcDbSpline
210
0.0
220
0.0
230
1.0
 70
    11
 71
     3
 72
    16
 73
    12
 74
     0
 42
0.0000000001
 43
0.0000000001
 40
0.0
 40
0.0
 40
0.0
 40
0.0
 40
0.3333333333333333
 40
0.3333333333333333
 40
0.3333333333333333
 40
0.3333333333333333
 40
0.6666666666666666
 40
0.6666666666666666
 40
0.6666666666666666
 40
0.6666666666666666
 40
1.0
 40
1.0
 40
1.0
 40
1.0
 10
328.7553
 20
-264.5437
 30
0.0
 10
325.995
 20
-263.9034
 30
0.0
 10
324.8587
 20
-261.6391
 30
0.0
 10
320.5889
 20
-262.5017
 30
0.0
 10
320.5889
 20
-262.5017
 30
0.0
 10
320.5889
 20
-265.909
 30
0.0
 10
320.5889
 20
-269.3096
 30
0.0
 10
320.5889
 20
-272.7152
 30
0.0
 10
320.5889
 20
-272.7152
 30
0.0
 10
325.7777
 20
-272.463
 30
0.0
 10
328.5049
 20
-269.7376
 30
0.0
 10
328.7553
 20
-264.5437
 30
0.0
  0
SPLINE
  5
30
330
1F
100
AcDbEntity
  8
layer 1
100
AcDbSpline
210
0.0
220
0.0
230
1.0
 70
    11
 71
     3
 72
    12
 73
     8
 74
     0
 42
0.0000000001
 43
0.0000000001
 40
0.0
 40
0.0
 40
0.0
 40
0.0
 40
0.5
 40
0.5
 40
0.5
 40
0.5
 40
1.0
 40
1.0
 40
1.0
 40
1.0
 10
149.0797
 20
-252.2899
 30
0.0
 10
186.261
 20
-262.0737
 30
0.0
 10
138.4333
 20
-293.1338
 30
0.0
 10
140.9132
 20
-262.5017
 30
0.0
 10
140.9132
 20
-262.5017
 30
0.0
 10
141.4109
 20
-256.3706
 30
0.0
 10
143.4513
 20
-256.714
 30
0.0
 10
149.0797
 20
-252.2899
 30
0.0
  0
SPLINE
  5
31
330
1F
100
AcDbEntity
  8
layer 1
100
AcDbSpline
210
0.0
220
0.0
230
1.0
 70
    11
 71
     3
 72
    16
 73
    12
 74
     0
 42
0.0000000001
 43
0.0000000001
 40
0.0
 40
0.0
 40
0.0
 40
0.0
 40
0.3333333333333333
 40
0.3333333333333333
 40
0.3333333333333333
 40
0.3333333333333333
 40
0.6666666666666666
 40
0.6666666666666666
 40
0.6666666666666666
 40
0.6666666666666666
 40
1.0
 40
1.0
 40
1.0
 40
1.0
 10
157.2478
 20
-262.5017
 30
0.0
 10
154.8757
 20
-260.7831
 30
0.0
 10
151.772
 20
-259.8111
 30
0.0
 10
147.0344
 20
-260.4563
 30
0.0
 10
147.0344
 20
-260.4563
 30
0.0
 10
146.5035
 20
-267.1149
 30
0.0
 10
149.4695
 20
-270.2866
 30
0.0
 10
155.2008
 20
-270.6698
 30
0.0
 10
155.2008
 20
-270.6698
 30
0.0
 10
155.8461
 20
-267.9095
 30
0.0
 10
158.1154
 20
-266.7666
 30
0.0
 10
157.2478
 20
-262.5017
 30
0.0
  0
SPLINE
  5
32
330
1F
100
AcDbEntity
  8
layer 1
100
AcDbSpline
210
0.0
220
0.0
230
1.0
 70
    11
 71
     3
 72
   144
 73
   140
 74
     0
 42
0.0000000001
 43
0.0000000001
 40
0.0
 40
0.0
 40
0.0
 40
0.0
 40
0.0285714285714286
 40
0.0285714285714286
 40
0.0285714285714286
 40
0.0285714285714286
 40
0.0571428571428571
 40
0.0571428571428571
 40
0.0571428571428571
 40
0.0571428571428571
 40
0.0857142857142857
 40
0.0857142857142857
 40
0.0857142857142857
 40
0.0857142857142857
 40
0.1142857142857143
 40
0.1142857142857143
 40
0.1142857142857143
 40
0.1142857142857143
 40
0.1428571428571429
 40
0.1428571428571429
 40
0.1428571428571429
 40
0.1428571428571429
 40
0.1714285714285714
 40
0.1714285714285714
 40
0.1714285714285714
 40
0.1714285714285714
 40
0.2
 40
0.2
 40
0.2
 40
0.2
 40
0.2285714285714286
 40
0.2285714285714286
 40
0.2285714285714286
 40
0.2285714285714286
 40
0.2571428571428572
 40
0.2571428571428572
 40
0.2571428571428572
 40
0.2571428571428572
 40
0.2857142857142858
 40
0.2857142857142858
 40
0.2857142857142858
 40
0.2857142857142858
 40
0.3142857142857143
 40
0.3142857142857143
 40
0.3142857142857143
 40
0.3142857142857143
 40
0.3428571428571429
 40
0.3428571428571429
 40
0.3428571428571429
 40
0.3428571428571429
 40
0.3714285714285715
 40
0.3714285714285715
 40
0.3714285714285715
 40
0.3714285714285715
 40
0.4000000000000001
 40
0.4000000000000001
 40
0.4000000000000001
 40
0.4000000000000001
 40
0.4285714285714287
 40
0.4285714285714287
 40
0.4285714285714287
 40
0.4285714285714287
 40
0.4571428571428572
 40
0.4571428571428572
 40
0.4571428571428572
 40
0.4571428571428572
 40
0.4857142857142858
 40
0.4857142857142858
 40
0.4857142857142858
 40
0.4857142857142858
 40
0.5142857142857144
 40
0.5142857142857144
 40
0.5142857142857144
 40
0.5142857142857144
 40
0.5428571428571429
 40
0.5428571428571429
 40
0.5428571428571429
 40
0.5428571428571429
 40
0.5714285714285715
 40
0.5714285714285715
 40
0.5714285714285715
 40
0.5714285714285715
 40
0.6000000000000001
 40
0.6000000000000001
 40
0.6000000000000001
 40
0.6000000000000001
 40
0.6285714285714287
 40
0.6285714285714287
 40
0.6285714285714287
 40
0.6285714285714287
 40
0.6571428571428573
 40
0.6571428571428573
 40
0.6571428571428573
 40
0.6571428571428573
 40
0.6857142857142858
 40
0.6857142857142858
 40
0.6857142857142858
 40
0.6857142857142858
 40
0.7142857142857144
 40
0.7142857142857144
 40
0.7142857142857144
 40
0.7142857142857144
 40
0.742857142857143
 40
0.742857142857143
 40
0.742857142857143
 40
0.742857142857143
 40
0.7714285714285716
 40
0.7714285714285716
 40
0.7714285714285716
 40
0.7714285714285716
 40
0.8000000000000002
 40
0.8000000000000002
 40
0.8000000000000002
 40
0.8000000000000002
 40
0.8285714285714287
 40
0.8285714285714287
 40
0.8285714285714287
 40
0.8285714285714287
 40
0.8571428571428573
 40
0.8571428571428573
 40
0.8571428571428573
 40
0.8571428571428573
 40
0.8857142857142859
 40
0.8857142857142859
 40
0.8857142857142859
 40
0.8857142857142859
 40
0.9142857142857145
 40
0.9142857142857145
 40
0.9142857142857145
 40
0.9142857142857145
 40
0.9428571428571431
 40
0.9428571428571431
 40
0.9428571428571431
 40
0.9428571428571431
 40
0.9714285714285716
 40
0.9714285714285716
 40
0.9714285714285716
 40
0.9714285714285716
 40
1.0
 40
1.0
 40
1.0
 40
1.0
 10
498.2192
 20
-483.0163
 30
0.0
 10
475.8563
 20
-475.4271
 30
0.0
 10
468.5807
 20
-452.7624
 30
0.0
 10
455.3464
 20
-436.0512
 30
0.0
 10
455.3464
 20
-436.0512
 30
0.0
 10
439.6073
 20
-439.4237
 30
0.0
 10
439.0417000000001
 20
-421.8731
 30
0.0
 10
424.7193
 20
-421.7587
 30
0.0
 10
424.7193
 20
-421.7587
 30
0.0
 10
417.5481
 20
-421.3987
 30
0.0
 10
417.9993
 20
-428.6561
 30
0.0
 10
412.4671
 20
-429.9318
 30
0.0
 10
412.4671
 20
-429.9318
 30
0.0
 10
406.0556
 20
-430.8906
 30
0.0
 10
404.1231
 20
-427.3821
 30
0.0
 10
402.2536
 20
-423.799
 30
0.0
 10
402.2536
 20
-423.799
 30
0.0
 10
380.5327
 20
-438.143
 30
0.0
 10
345.4781
 20
-439.1665
 30
0.0
 10
316.5031
 20
-446.2647
 30
0.0
 10
316.5031
 20
-446.2647
 30
0.0
 10
294.1171
 20
-433.2511
 30
0.0
 10
266.6749
 20
-425.302
 30
0.0
 10
242.9983
 20
-413.5922000000001
 30
0.0
 10
242.9983
 20
-413.5922000000001
 30
0.0
 10
230.9518
 20
-419.4894000000001
 30
0.0
 10
207.1557
 20
-407.4545
 30
0.0
 10
204.2113
 20
-429.9318
 30
0.0
 10
204.2113
 20
-429.9318
 30
0.0
 10
177.066
 20
-433.412
 30
0.0
 10
168.6772
 20
-455.6538000000001
 30
0.0
 10
159.2866
 20
-476.8902000000001
 30
0.0
 10
159.2866
 20
-476.8902000000001
 30
0.0
 10
141.1422
 20
-466.4495
 30
0.0
 10
130.8275
 20
-448.179
 30
0.0
 10
120.4946
 20
-429.9318
 30
0.0
 10
120.4946
 20
-429.9318
 30
0.0
 10
100.5603
 20
-431.0913000000001
 30
0.0
 10
92.90310000000001
 20
-401.1907
 30
0.0
 10
75.57650000000001
 20
-423.799
 30
0.0
 10
75.57650000000001
 20
-423.799
 30
0.0
 10
69.02080000000001
 20
-425.5873
 30
0.0
 10
71.3415
 20
-418.5007
 30
0.0
 10
67.41
 20
-417.6729
 30
0.0
 10
67.41
 20
-417.6729
 30
0.0
 10
42.68
 20
-429.7029
 30
0.0
 10
9.9063
 20
-433.6741
 30
0.0
 10
-22.4278
 20
-438.0982
 30
0.0
 10
-22.4278
 20
-438.0982
 30
0.0
 10
-17.4679
 20
-384.521
 30
0.0
 10
6.489100000000001
 20
-349.9508
 30
0.0
 10
38.8232
 20
-323.761
 30
0.0
 10
38.8232
 20
-323.761
 30
0.0
 10
36.3084
 20
-305.7925
 30
0.0
 10
40.0756
 20
-282.8192
 30
0.0
 10
55.1628
 20
-264.5437
 30
0.0
 10
55.1628
 20
-264.5437
 30
0.0
 10
27.2512
 20
-214.5496
 30
0.0
 10
76.7924
 20
-146.6101
 30
0.0
 10
140.9132
 20
-164.4991
 30
0.0
 10
140.9132
 20
-164.4991
 30
0.0
 10
150.5893
 20
-162.6014
 30
0.0
 10
151.7272
 20
-152.1706
 30
0.0
 10
163.3673
 20
-152.2452
 30
0.0
 10
163.3673
 20
-152.2452
 30
0.0
 10
158.1204
 20
-134.8606
 30
0.0
 10
145.6177
 20
-114.4369
 30
0.0
 10
149.0797
 20
-95.07990000000001
 30
0.0
 10
149.0797
 20
-95.07990000000001
 30
0.0
 10
178.4263
 20
-101.1198
 30
0.0
 10
213.5273
 20
-101.4117
 30
0.0
 10
234.8318
 20
-115.4936
 30
0.0
 10
234.8318
 20
-115.4936
 30
0.0
 10
241.3925
 20
-117.2934
 30
0.0
 10
237.6319
 20
-108.762
 30
0.0
 10
242.9983
 20
-109.3725
 30
0.0
 10
242.9983
 20
-109.3725
 30
0.0
 10
250.1711
 20
-109.0075
 30
0.0
 10
249.7199
 20
-116.265
 30
0.0
 10
255.2505
 20
-117.539
 30
0.0
 10
255.2505
 20
-117.539
 30
0.0
 10
266.5206
 20
-113.5329
 30
0.0
 10
274.848
 20
-117.174
 30
0.0
 10
277.7045
 20
-103.2464
 30
0.0
 10
277.7045
 20
-103.2464
 30
0.0
 10
304.4384
 20
-103.7208
 30
0.0
 10
305.0273
 20
-63.2833
 30
0.0
 10
330.7957
 20
-56.2813
 30
0.0
 10
330.7957
 20
-56.2813
 30
0.0
 10
333.1728
 20
-81.1307
 30
0.0
 10
353.9249
 20
-87.61020000000001
 30
0.0
 10
363.4682
 20
-105.2934
 30
0.0
 10
363.4682
 20
-105.2934
 30
0.0
 10
365.8337
 20
-103.5715
 30
0.0
 10
368.9424
 20
-102.5945
 30
0.0
 10
373.6751
 20
-103.2464
 30
0.0
 10
373.6751
 20
-103.2464
 30
0.0
 10
379.2587
 20
-114.7388
 30
0.0
 10
393.5331000000001
 20
-126.2827
 30
0.0
 10
404.3006
 20
-115.4936
 30
0.0
 10
404.3006
 20
-115.4936
 30
0.0
 10
408.8259000000001
 20
-114.3722
 30
0.0
 10
407.2036
 20
-119.3969
 30
0.0
 10
410.4201000000001
 20
-119.5793
 30
0.0
 10
410.4201000000001
 20
-119.5793
 30
0.0
 10
434.4915
 20
-108.2577
 30
0.0
 10
464.6028
 20
-102.9777
 30
0.0
 10
483.9316
 20
-86.91340000000001
 30
0.0
 10
483.9316
 20
-86.91340000000001
 30
0.0
 10
493.5263000000001
 20
-104.469
 30
0.0
 10
484.2285
 20
-149.4003
 30
0.0
 10
477.8055
 20
-170.6252
 30
0.0
 10
477.8055
 20
-170.6252
 30
0.0
 10
494.3955
 20
-162.8419
 30
0.0
 10
509.2488
 20
-156.4338
 30
0.0
 10
524.7589
 20
-152.2452
 30
0.0
 10
524.7589
 20
-152.2452
 30
0.0
 10
569.7119
 20
-161.7437
 30
0.0
 10
598.3716000000001
 20
-210.8637
 30
0.0
 10
590.1023
 20
-254.3352
 30
0.0
 10
590.1023
 20
-254.3352
 30
0.0
 10
594.9544000000001
 20
-268.5382
 30
0.0
 10
597.9835000000001
 20
-284.5676
 30
0.0
 10
604.3899
 20
-297.2146
 30
0.0
 10
604.3899
 20
-297.2146
 30
0.0
 10
606.1898
 20
-303.7753
 30
0.0
 10
597.6567
 20
-300.0097
 30
0.0
 10
598.2688000000001
 20
-305.3811
 30
0.0
 10
598.2688000000001
 20
-305.3811
 30
0.0
 10
631.6778000000001
 20
-336.0978
 30
0.0
 10
661.4358000000001
 20
-391.7337
 30
0.0
 10
651.3484000000001
 20
-452.3842
 30
0.0
 10
651.3484000000001
 20
-452.3842
 30
0.0
 10
616.5393
 20
-437.5309
 30
0.0
 10
560.4821000000001
 20
-398.6709
 30
0.0
 10
539.0565
 20
-438.0982
 30
0.0
 10
539.0565
 20
-438.0982
 30
0.0
 10
518.9115000000001
 20
-438.8348
 30
0.0
 10
502.4708
 20
-459.6997
 30
0.0
 10
498.2192
 20
-483.0163
 30
0.0
  0
SPLINE
  5
33
330
1F
100
AcDbEntity
  8
layer 1
100
AcDbSpline
210
0.0
220
0.0
230
1.0
 70
    11
 71
     3
 72
    68
 73
    64
 74
     0
 42
0.0000000001
 43
0.0000000001
 40
0.0
 40
0.0
 40
0.0
 40
0.0
 40
0.0625
 40
0.0625
 40
0.0625
 40
0.0625
 40
0.125
 40
0.125
 40
0.125
 40
0.125
 40
0.1875
 40
0.1875
 40
0.1875
 40
0.1875
 40
0.25
 40
0.25
 40
0.25
 40
0.25
 40
0.3125
 40
0.3125
 40
0.3125
 40
0.3125
 40
0.375
 40
0.375
 40
0.375
 40
0.375
 40
0.4375
 40
0.4375
 40
0.4375
 40
0.4375
 40
0.5
 40
0.5
 40
0.5
 40
0.5
 40
0.5625
 40
0.5625
 40
0.5625
 40
0.5625
 40
0.625
 40
0.625
 40
0.625
 40
0.625
 40
0.6875
 40
0.6875
 40
0.6875
 40
0.6875
 40
0.75
 40
0.75
 40
0.75
 40
0.75
 40
0.8125
 40
0.8125
 40
0.8125
 40
0.8125
 40
0.875
 40
0.875
 40
0.875
 40
0.875
 40
0.9375
 40
0.9375
 40
0.9375
 40
0.9375
 40
1.0
 40
1.0
 40
1.0
 40
1.0
 10
524.7589
 20
-427.8848
 30
0.0
 10
533.8975
 20
-413.0547
 30
0.0
 10
537.7941000000001
 20
-397.951
 30
0.0
 10
547.2230000000001
 20
-380.9197
 30
0.0
 10
547.2230000000001
 20
-380.9197
 30
0.0
 10
567.3911000000001
 20
-415.8831
 30
0.0
 10
611.6706
 20
-426.7302
 30
0.0
 10
649.308
 20
-444.2177
 30
0.0
 10
649.308
 20
-444.2177
 30
0.0
 10
644.4625
 20
-384.4182
 30
0.0
 10
630.8152
 20
-333.3956
 30
0.0
 10
588.0553
 20
-311.5022
 30
0.0
 10
588.0553
 20
-311.5022
 30
0.0
 10
614.5968
 20
-339.4536
 30
0.0
 10
640.4382000000001
 20
-378.8577
 30
0.0
 10
637.0608000000001
 20
-429.9318
 30
0.0
 10
637.0608000000001
 20
-429.9318
 30
0.0
 10
594.5314000000001
 20
-418.6898000000001
 30
0.0
 10
565.792
 20
-393.6645
 30
0.0
 10
541.0969
 20
-364.5867
 30
0.0
 10
541.0969
 20
-364.5867
 30
0.0
 10
533.2273
 20
-403.6889000000001
 30
0.0
 10
516.5294
 20
-433.9478
 30
0.0
 10
494.1384000000001
 20
-458.5119
 30
0.0
 10
494.1384000000001
 20
-458.5119
 30
0.0
 10
474.0681
 20
-435.7029
 30
0.0
 10
454.2433
 20
-412.655
 30
0.0
 10
453.2994000000001
 20
-370.7145
 30
0.0
 10
453.2994000000001
 20
-370.7145
 30
0.0
 10
430.5252
 20
-374.9711
 30
0.0
 10
420.1193
 20
-396.2988
 30
0.0
 10
402.2536
 20
-407.4661
 30
0.0
 10
402.2536
 20
-407.4661
 30
0.0
 10
382.0406
 20
-420.1065
 30
0.0
 10
359.2797
 20
-425.3584
 30
0.0
 10
330.7957
 20
-431.9655
 30
0.0
 10
330.7957
 20
-431.9655
 30
0.0
 10
329.6876
 20
-413.2389
 30
0.0
 10
345.4599
 20
-391.659
 30
0.0
 10
338.9622
 20
-380.9197
 30
0.0
 10
338.9622
 20
-380.9197
 30
0.0
 10
330.4822
 20
-397.6242
 30
0.0
 10
323.1717
 20
-415.4949
 30
0.0
 10
320.5889
 20
-438.0982
 30
0.0
 10
320.5889
 20
-438.0982
 30
0.0
 10
338.8477
 20
-433.5879000000001
 30
0.0
 10
354.8323
 20
-435.8804
 30
0.0
 10
369.5943
 20
-431.9655
 30
0.0
 10
369.5943
 20
-431.9655
 30
0.0
 10
402.1574
 20
-423.3362
 30
0.0
 10
419.5652
 20
-397.2991
 30
0.0
 10
447.1733
 20
-385.0071
 30
0.0
 10
447.1733
 20
-385.0071
 30
0.0
 10
445.7733
 20
-429.2848
 30
0.0
 10
473.1591
 20
-444.7834
 30
0.0
 10
488.0123
 20
-472.8045
 30
0.0
 10
488.0123
 20
-472.8045
 30
0.0
 10
490.0527
 20
-472.8045
 30
0.0
 10
492.098
 20
-472.8045
 30
0.0
 10
494.1384000000001
 20
-472.8045
 30
0.0
 10
494.1384000000001
 20
-472.8045
 30
0.0
 10
503.967
 20
-456.1912
 30
0.0
 10
514.6151
 20
-444.372
 30
0.0
 10
524.7589
 20
-427.8848
 30
0.0
  0
SPLINE
  5
34
330
1F
100
AcDbEntity
  8
layer 1
100
AcDbSpline
210
0.0
220
0.0
230
1.0
 70
    11
 71
     3
 72
    64
 73
    60
 74
     0
 42
0.0000000001
 43
0.0000000001
 40
0.0
 40
0.0
 40
0.0
 40
0.0
 40
0.0666666666666667
 40
0.0666666666666667
 40
0.0666666666666667
 40
0.0666666666666667
 40
0.1333333333333333
 40
0.1333333333333333
 40
0.1333333333333333
 40
0.1333333333333333
 40
0.2
 40
0.2
 40
0.2
 40
0.2
 40
0.2666666666666667
 40
0.2666666666666667
 40
0.2666666666666667
 40
0.2666666666666667
 40
0.3333333333333333
 40
0.3333333333333333
 40
0.3333333333333333
 40
0.3333333333333333
 40
0.4
 40
0.4
 40
0.4
 40
0.4
 40
0.4666666666666666
 40
0.4666666666666666
 40
0.4666666666666666
 40
0.4666666666666666
 40
0.5333333333333333
 40
0.5333333333333333
 40
0.5333333333333333
 40
0.5333333333333333
 40
0.6
 40
0.6
 40
0.6
 40
0.6
 40
0.6666666666666666
 40
0.6666666666666666
 40
0.6666666666666666
 40
0.6666666666666666
 40
0.7333333333333333
 40
0.7333333333333333
 40
0.7333333333333333
 40
0.7333333333333333
 40
0.7999999999999999
 40
0.7999999999999999
 40
0.7999999999999999
 40
0.7999999999999999
 40
0.8666666666666666
 40
0.8666666666666666
 40
0.8666666666666666
 40
0.8666666666666666
 40
0.9333333333333332
 40
0.9333333333333332
 40
0.9333333333333332
 40
0.9333333333333332
 40
1.0
 40
1.0
 40
1.0
 40
1.0
 10
208.292
 20
-374.8002
 30
0.0
 10
233.3803
 20
-404.8368
 30
0.0
 10
272.0529
 20
-421.2892
 30
0.0
 10
312.4174
 20
-436.0512
 30
0.0
 10
312.4174
 20
-436.0512
 30
0.0
 10
303.9938
 20
-416.5814
 30
0.0
 10
314.3831
 20
-378.2854
 30
0.0
 10
296.0845
 20
-368.6741
 30
0.0
 10
296.0845
 20
-368.6741
 30
0.0
 10
291.7748
 20
-382.8522
 30
0.0
 10
306.6563
 20
-405.4838
 30
0.0
 10
300.1702
 20
-421.7587
 30
0.0
 10
300.1702
 20
-421.7587
 30
0.0
 10
278.1557
 20
-417.1521
 30
0.0
 10
261.1775
 20
-406.6317
 30
0.0
 10
245.0453
 20
-395.2189
 30
0.0
 10
245.0453
 20
-395.2189
 30
0.0
 10
228.0189
 20
-383.1724
 30
0.0
 10
216.5497
 20
-367.3819
 30
0.0
 10
202.1659
 20
-358.4673
 30
0.0
 10
202.1659
 20
-358.4673
 30
0.0
 10
198.1996
 20
-400.0992
 30
0.0
 10
178.7182
 20
-426.216
 30
0.0
 10
157.2478
 20
-450.3455
 30
0.0
 10
157.2478
 20
-450.3455
 30
0.0
 10
134.4902
 20
-429.965
 30
0.0
 10
119.1128
 20
-394.5039
 30
0.0
 10
114.3734
 20
-362.5464
 30
0.0
 10
114.3734
 20
-362.5464
 30
0.0
 10
97.6756
 20
-364.1024000000001
 30
0.0
 10
91.62910000000001
 20
-381.3493
 30
0.0
 10
79.6622
 20
-391.1332
 30
0.0
 10
79.6622
 20
-391.1332
 30
0.0
 10
57.1401
 20
-409.5397
 30
0.0
 10
27.422
 20
-420.3122
 30
0.0
 10
-6.0899
 20
-421.7587
 30
0.0
 10
-6.0899
 20
-421.7587
 30
0.0
 10
0.7396
 20
-386.3955
 30
0.0
 10
14.1231
 20
-357.5815
 30
0.0
 10
36.7828
 20
-338.0469
 30
0.0
 10
36.7828
 20
-338.0469
 30
0.0
 10
42.3433
 20
-334.7608
 30
0.0
 10
51.3159
 20
-334.8819
 30
0.0
 10
51.0771
 20
-325.8014
 30
0.0
 10
51.0771
 20
-325.8014
 30
0.0
 10
11.8024
 20
-343.6936
 30
0.0
 10
-7.1184
 20
-381.9432
 30
0.0
 10
-14.2613
 20
-431.9655
 30
0.0
 10
-14.2613
 20
-431.9655
 30
0.0
 10
41.6582
 20
-428.6794
 30
0.0
 10
76.3993
 20
-404.2032
 30
0.0
 10
108.2474
 20
-376.8406
 30
0.0
 10
108.2474
 20
-376.8406
 30
0.0
 10
113.3002
 20
-418.0677
 30
0.0
 10
133.3937
 20
-444.2525
 30
0.0
 10
157.2478
 20
-466.6784
 30
0.0
 10
157.2478
 20
-466.6784
 30
0.0
 10
175.1749
 20
-436.9603
 30
0.0
 10
199.029
 20
-413.1808
 30
0.0
 10
208.292
 20
-374.8002
 30
0.0
  0
SPLINE
  5
35
330
1F
100
AcDbEntity
  8
layer 1
100
AcDbSpline
210
0.0
220
0.0
230
1.0
 70
    11
 71
     3
 72
    48
 73
    44
 74
     0
 42
0.0000000001
 43
0.0000000001
 40
0.0
 40
0.0
 40
0.0
 40
0.0
 40
0.0909090909090909
 40
0.0909090909090909
 40
0.0909090909090909
 40
0.0909090909090909
 40
0.1818181818181818
 40
0.1818181818181818
 40
0.1818181818181818
 40
0.1818181818181818
 40
0.2727272727272727
 40
0.2727272727272727
 40
0.2727272727272727
 40
0.2727272727272727
 40
0.3636363636363637
 40
0.3636363636363637
 40
0.3636363636363637
 40
0.3636363636363637
 40
0.4545454545454546
 40
0.4545454545454546
 40
0.4545454545454546
 40
0.4545454545454546
 40
0.5454545454545455
 40
0.5454545454545455
 40
0.5454545454545455
 40
0.5454545454545455
 40
0.6363636363636365
 40
0.6363636363636365
 40
0.6363636363636365
 40
0.6363636363636365
 40
0.7272727272727274
 40
0.7272727272727274
 40
0.7272727272727274
 40
0.7272727272727274
 40
0.8181818181818183
 40
0.8181818181818183
 40
0.8181818181818183
 40
0.8181818181818183
 40
0.9090909090909093
 40
0.9090909090909093
 40
0.9090909090909093
 40
0.9090909090909093
 40
1.0
 40
1.0
 40
1.0
 40
1.0
 10
485.9719
 20
-425.8444
 30
0.0
 10
489.4339000000001
 20
-421.8217
 30
0.0
 10
496.2584000000001
 20
-421.1582
 30
0.0
 10
494.1384000000001
 20
-411.5518
 30
0.0
 10
494.1384000000001
 20
-411.5518
 30
0.0
 10
490.5487
 20
-410.374
 30
0.0
 10
482.1433
 20
-414.0152
 30
0.0
 10
481.8862
 20
-409.5065
 30
0.0
 10
481.8862
 20
-409.5065
 30
0.0
 10
484.2799
 20
-401.6933
 30
0.0
 10
496.8241
 20
-404.0306
 30
0.0
 10
494.1384000000001
 20
-391.1332
 30
0.0
 10
494.1384000000001
 20
-391.1332
 30
0.0
 10
488.0753
 20
-390.6189
 30
0.0
 10
484.0692
 20
-399.2084
 30
0.0
 10
481.8862
 20
-391.1332
 30
0.0
 10
481.8862
 20
-391.1332
 30
0.0
 10
482.4685
 20
-382.1887
 30
0.0
 10
495.789
 20
-385.9775
 30
0.0
 10
492.098
 20
-372.7532
 30
0.0
 10
492.098
 20
-372.7532
 30
0.0
 10
485.8741
 20
-368.0272
 30
0.0
 10
483.2913
 20
-380.578
 30
0.0
 10
475.7651
 20
-380.9197
 30
0.0
 10
475.7651
 20
-380.9197
 30
0.0
 10
475.2741
 20
-378.0117
 30
0.0
 10
472.3993
 20
-377.4792
 30
0.0
 10
471.6794
 20
-374.8002
 30
0.0
 10
471.6794
 20
-374.8002
 30
0.0
 10
474.2672
 20
-367.1812
 30
0.0
 10
488.5382
 20
-371.2387
 30
0.0
 10
485.9719
 20
-358.4673
 30
0.0
 10
485.9719
 20
-358.4673
 30
0.0
 10
475.3073
 20
-359.3697
 30
0.0
 10
472.9301
 20
-368.5646
 30
0.0
 10
461.4725
 20
-368.6741
 30
0.0
 10
461.4725
 20
-368.6741
 30
0.0
 10
461.2204
 20
-403.6309
 30
0.0
 10
473.7479
 20
-425.8212
 30
0.0
 10
492.098
 20
-442.179
 30
0.0
 10
492.098
 20
-442.179
 30
0.0
 10
495.5269
 20
-431.2622
 30
0.0
 10
485.9769
 20
-433.3258
 30
0.0
 10
485.9719
 20
-425.8444
 30
0.0
  0
SPLINE
  5
36
330
1F
100
AcDbEntity
  8
layer 1
100
AcDbSpline
210
0.0
220
0.0
230
1.0
 70
    11
 71
     3
 72
    12
 73
     8
 74
     0
 42
0.0000000001
 43
0.0000000001
 40
0.0
 40
0.0
 40
0.0
 40
0.0
 40
0.5
 40
0.5
 40
0.5
 40
0.5
 40
1.0
 40
1.0
 40
1.0
 40
1.0
 10
504.3502
 20
-429.9318
 30
0.0
 10
498.0184
 20
-429.1422
 30
0.0
 10
496.0361
 20
-439.7604
 30
0.0
 10
502.3049
 20
-440.137
 30
0.0
 10
502.3049
 20
-440.137
 30
0.0
 10
503.4594
 20
-435.892
 30
0.0
 10
508.139
 20
-433.5364
 30
0.0
 10
504.3502
 20
-429.9318
 30
0.0
  0
SPLINE
  5
37
330
1F
100
AcDbEntity
  8
layer 1
100
AcDbSpline
210
0.0
220
0.0
230
1.0
 70
    11
 71
     3
 72
    48
 73
    44
 74
     0
 42
0.0000000001
 43
0.0000000001
 40
0.0
 40
0.0
 40
0.0
 40
0.0
 40
0.0909090909090909
 40
0.0909090909090909
 40
0.0909090909090909
 40
0.0909090909090909
 40
0.1818181818181818
 40
0.1818181818181818
 40
0.1818181818181818
 40
0.1818181818181818
 40
0.2727272727272727
 40
0.2727272727272727
 40
0.2727272727272727
 40
0.2727272727272727
 40
0.3636363636363637
 40
0.3636363636363637
 40
0.3636363636363637
 40
0.3636363636363637
 40
0.4545454545454546
 40
0.4545454545454546
 40
0.4545454545454546
 40
0.4545454545454546
 40
0.5454545454545455
 40
0.5454545454545455
 40
0.5454545454545455
 40
0.5454545454545455
 40
0.6363636363636365
 40
0.6363636363636365
 40
0.6363636363636365
 40
0.6363636363636365
 40
0.7272727272727274
 40
0.7272727272727274
 40
0.7272727272727274
 40
0.7272727272727274
 40
0.8181818181818183
 40
0.8181818181818183
 40
0.8181818181818183
 40
0.8181818181818183
 40
0.9090909090909093
 40
0.9090909090909093
 40
0.9090909090909093
 40
0.9090909090909093
 40
1.0
 40
1.0
 40
1.0
 40
1.0
 10
149.0797
 20
-417.6729
 30
0.0
 10
154.9951
 20
-416.1004
 30
0.0
 10
159.0062
 20
-412.6268
 30
0.0
 10
157.2478
 20
-403.3854
 30
0.0
 10
157.2478
 20
-403.3854
 30
0.0
 10
152.7092
 20
-404.2712
 30
0.0
 10
146.1767
 20
-408.0716000000001
 30
0.0
 10
144.994
 20
-401.34
 30
0.0
 10
144.994
 20
-401.34
 30
0.0
 10
146.2862
 20
-393.1039
 30
0.0
 10
160.1044
 20
-397.3969
 30
0.0
 10
157.2478
 20
-385.0071
 30
0.0
 10
157.2478
 20
-385.0071
 30
0.0
 10
156.9658
 20
-379.7369
 30
0.0
 10
148.1425
 20
-393.1387
 30
0.0
 10
144.994
 20
-385.0071
 30
0.0
 10
144.994
 20
-385.0071
 30
0.0
 10
142.7081
 20
-375.9133
 30
0.0
 10
151.2627
 20
-377.6684
 30
0.0
 10
155.2008
 20
-374.8002
 30
0.0
 10
155.2008
 20
-374.8002
 30
0.0
 10
155.1776
 20
-369.3874
 30
0.0
 10
156.3388
 20
-362.7753
 30
0.0
 10
151.1201
 20
-362.5464
 30
0.0
 10
151.1201
 20
-362.5464
 30
0.0
 10
147.6631
 20
-367.2558
 30
0.0
 10
145.9827
 20
-373.7485
 30
0.0
 10
136.8275
 20
-372.7532
 30
0.0
 10
136.8275
 20
-372.7532
 30
0.0
 10
128.7589
 20
-359.1076
 30
0.0
 10
153.046
 20
-366.005
 30
0.0
 10
149.0797
 20
-350.3008
 30
0.0
 10
149.0797
 20
-350.3008
 30
0.0
 10
138.4167
 20
-351.8833
 30
0.0
 10
134.8104
 20
-360.5292
 30
0.0
 10
124.5803
 20
-362.5464
 30
0.0
 10
124.5803
 20
-362.5464
 30
0.0
 10
125.496
 20
-396.3386
 30
0.0
 10
136.4559
 20
-420.0949
 30
0.0
 10
157.2478
 20
-434.0109000000001
 30
0.0
 10
157.2478
 20
-434.0109000000001
 30
0.0
 10
160.7895
 20
-422.3011
 30
0.0
 10
148.6119
 20
-426.3138
 30
0.0
 10
149.0797
 20
-417.6729
 30
0.0
  0
SPLINE
  5
38
330
1F
100
AcDbEntity
  8
layer 1
100
AcDbSpline
210
0.0
220
0.0
230
1.0
 70
    11
 71
     3
 72
    12
 73
     8
 74
     0
 42
0.0000000001
 43
0.0000000001
 40
0.0
 40
0.0
 40
0.0
 40
0.0
 40
0.5
 40
0.5
 40
0.5
 40
0.5
 40
1.0
 40
1.0
 40
1.0
 40
1.0
 10
165.4143
 20
-421.7587
 30
0.0
 10
164.2415
 20
-422.9995
 30
0.0
 10
160.6302
 20
-431.4463
 30
0.0
 10
165.4143
 20
-431.9655
 30
0.0
 10
165.4143
 20
-431.9655
 30
0.0
 10
167.7732
 20
-428.9016
 30
0.0
 10
172.5805
 20
-423.3711
 30
0.0
 10
165.4143
 20
-421.7587
 30
0.0
  0
SPLINE
  5
39
330
1F
100
AcDbEntity
  8
layer 1
100
AcDbSpline
210
0.0
220
0.0
230
1.0
 70
    11
 71
     3
 72
    12
 73
     8
 74
     0
 42
0.0000000001
 43
0.0000000001
 40
0.0
 40
0.0
 40
0.0
 40
0.0
 40
0.5
 40
0.5
 40
0.5
 40
0.5
 40
1.0
 40
1.0
 40
1.0
 40
1.0
 10
539.0565
 20
-417.6729
 30
0.0
 10
537.3595
 20
-421.5248
 30
0.0
 10
531.5187000000001
 20
-428.2845
 30
0.0
 10
539.0565
 20
-429.9318
 30
0.0
 10
539.0565
 20
-429.9318
 30
0.0
 10
540.2392
 20
-425.5707
 30
0.0
 10
546.08
 20
-418.8093
 30
0.0
 10
539.0565
 20
-417.6729
 30
0.0
  0
SPLINE
  5
3A
330
1F
100
AcDbEntity
  8
layer 1
100
AcDbSpline
210
0.0
220
0.0
230
1.0
 70
    11
 71
     3
 72
    12
 73
     8
 74
     0
 42
0.0000000001
 43
0.0000000001
 40
0.0
 40
0.0
 40
0.0
 40
0.0
 40
0.5
 40
0.5
 40
0.5
 40
0.5
 40
1.0
 40
1.0
 40
1.0
 40
1.0
 10
443.0926
 20
-419.7183
 30
0.0
 10
442.1271
 20
-426.1314
 30
0.0
 10
445.6356
 20
-428.0573
 30
0.0
 10
449.2187
 20
-429.9318
 30
0.0
 10
449.2187
 20
-429.9318
 30
0.0
 10
452.2759
 20
-426.8961000000001
 30
0.0
 10
449.4128
 20
-419.3766
 30
0.0
 10
443.0926
 20
-419.7183
 30
0.0
  0
SPLINE
  5
3B
330
1F
100
AcDbEntity
  8
layer 1
100
AcDbSpline
210
0.0
220
0.0
230
1.0
 70
    11
 71
     3
 72
    44
 73
    40
 74
     0
 42
0.0000000001
 43
0.0000000001
 40
0.0
 40
0.0
 40
0.0
 40
0.0
 40
0.1
 40
0.1
 40
0.1
 40
0.1
 40
0.2
 40
0.2
 40
0.2
 40
0.2
 40
0.3
 40
0.3
 40
0.3
 40
0.3
 40
0.4
 40
0.4
 40
0.4
 40
0.4
 40
0.5
 40
0.5
 40
0.5
 40
0.5
 40
0.6
 40
0.6
 40
0.6
 40
0.6
 40
0.7
 40
0.7
 40
0.7
 40
0.7
 40
0.7999999999999999
 40
0.7999999999999999
 40
0.7999999999999999
 40
0.7999999999999999
 40
0.8999999999999999
 40
0.8999999999999999
 40
0.8999999999999999
 40
0.8999999999999999
 40
1.0
 40
1.0
 40
1.0
 40
1.0
 10
500.2645
 20
-395.2189
 30
0.0
 10
501.1221000000001
 20
-404.5681
 30
0.0
 10
510.2026
 20
-405.6878
 30
0.0
 10
512.5167
 20
-413.5922000000001
 30
0.0
 10
512.5167
 20
-413.5922000000001
 30
0.0
 10
512.1335
 20
-416.6146
 30
0.0
 10
507.5734000000001
 20
-415.4601
 30
0.0
 10
504.3502
 20
-415.6326
 30
0.0
 10
504.3502
 20
-415.6326
 30
0.0
 10
504.5858
 20
-420.8446
 30
0.0
 10
504.7334
 20
-426.1363
 30
0.0
 10
510.4714
 20
-425.8444
 30
0.0
 10
510.4714
 20
-425.8444
 30
0.0
 10
520.3514
 20
-411.2267
 30
0.0
 10
528.4897
 20
-394.8589
 30
0.0
 10
528.8447
 20
-370.7145
 30
0.0
 10
528.8447
 20
-370.7145
 30
0.0
 10
514.6317
 20
-374.1085
 30
0.0
 10
505.3273
 20
-363.7822000000001
 30
0.0
 10
498.2192
 20
-366.6337
 30
0.0
 10
498.2192
 20
-366.6337
 30
0.0
 10
497.0132
 20
-378.7317000000001
 30
0.0
 10
515.5059
 20
-371.1309
 30
0.0
 10
516.5925
 20
-380.9197
 30
0.0
 10
516.5925
 20
-380.9197
 30
0.0
 10
514.5571
 20
-385.6922
 30
0.0
 10
505.465
 20
-383.4063
 30
0.0
 10
502.3049
 20
-387.0524
 30
0.0
 10
502.3049
 20
-387.0524
 30
0.0
 10
504.3453
 20
-391.8249
 30
0.0
 10
513.4324
 20
-389.5324
 30
0.0
 10
516.5925
 20
-393.1735000000001
 30
0.0
 10
516.5925
 20
-393.1735000000001
 30
0.0
 10
516.5925
 20
-395.2189
 30
0.0
 10
516.5925
 20
-397.2526
 30
0.0
 10
516.5925
 20
-399.2996
 30
0.0
 10
516.5925
 20
-399.2996
 30
0.0
 10
506.8584
 20
-403.4534
 30
0.0
 10
503.1443
 20
-391.1564
 30
0.0
 10
500.2645
 20
-395.2189
 30
0.0
  0
SPLINE
  5
3C
330
1F
100
AcDbEntity
  8
layer 1
100
AcDbSpline
210
0.0
220
0.0
230
1.0
 70
    11
 71
     3
 72
    12
 73
     8
 74
     0
 42
0.0000000001
 43
0.0000000001
 40
0.0
 40
0.0
 40
0.0
 40
0.0
 40
0.5
 40
0.5
 40
0.5
 40
0.5
 40
1.0
 40
1.0
 40
1.0
 40
1.0
 10
353.2614
 20
-413.5922000000001
 30
0.0
 10
346.8666
 20
-412.6433
 30
0.0
 10
344.1411
 20
-415.3688
 30
0.0
 10
345.0883
 20
-421.7587
 30
0.0
 10
345.0883
 20
-421.7587
 30
0.0
 10
349.8326
 20
-421.0553000000001
 30
0.0
 10
354.6565
 20
-420.4382
 30
0.0
 10
353.2614
 20
-413.5922000000001
 30
0.0
  0
SPLINE
  5
3D
330
1F
100
AcDbEntity
  8
layer 1
100
AcDbSpline
210
0.0
220
0.0
230
1.0
 70
    11
 71
     3
 72
    12
 73
     8
 74
     0
 42
0.0000000001
 43
0.0000000001
 40
0.0
 40
0.0
 40
0.0
 40
0.0
 40
0.5
 40
0.5
 40
0.5
 40
0.5
 40
1.0
 40
1.0
 40
1.0
 40
1.0
 10
202.1659
 20
-411.5518
 30
0.0
 10
201.2917
 20
-415.4435
 30
0.0
 10
197.7716
 20
-416.6843
 30
0.0
 10
198.0802
 20
-421.7587
 30
0.0
 10
198.0802
 20
-421.7587
 30
0.0
 10
204.4568
 20
-422.404
 30
0.0
 10
208.9887
 20
-412.3182000000001
 30
0.0
 10
202.1659
 20
-411.5518
 30
0.0
  0
SPLINE
  5
3E
330
1F
100
AcDbEntity
  8
layer 1
100
AcDbSpline
210
0.0
220
0.0
230
1.0
 70
    11
 71
     3
 72
    12
 73
     8
 74
     0
 42
0.0000000001
 43
0.0000000001
 40
0.0
 40
0.0
 40
0.0
 40
0.0
 40
0.5
 40
0.5
 40
0.5
 40
0.5
 40
1.0
 40
1.0
 40
1.0
 40
1.0
 10
108.2474
 20
-411.5518
 30
0.0
 10
105.1901
 20
-414.5759000000001
 30
0.0
 10
108.0533
 20
-422.102
 30
0.0
 10
114.3734
 20
-421.7587
 30
0.0
 10
114.3734
 20
-421.7587
 30
0.0
 10
114.1445
 20
-416.5466
 30
0.0
 10
110.6311
 20
-414.6091
 30
0.0
 10
108.2474
 20
-411.5518
 30
0.0
  0
SPLINE
  5
3F
330
1F
100
AcDbEntity
  8
layer 1
100
AcDbSpline
210
0.0
220
0.0
230
1.0
 70
    11
 71
     3
 72
    44
 73
    40
 74
     0
 42
0.0000000001
 43
0.0000000001
 40
0.0
 40
0.0
 40
0.0
 40
0.0
 40
0.1
 40
0.1
 40
0.1
 40
0.1
 40
0.2
 40
0.2
 40
0.2
 40
0.2
 40
0.3
 40
0.3
 40
0.3
 40
0.3
 40
0.4
 40
0.4
 40
0.4
 40
0.4
 40
0.5
 40
0.5
 40
0.5
 40
0.5
 40
0.6
 40
0.6
 40
0.6
 40
0.6
 40
0.7
 40
0.7
 40
0.7
 40
0.7
 40
0.7999999999999999
 40
0.7999999999999999
 40
0.7999999999999999
 40
0.7999999999999999
 40
0.8999999999999999
 40
0.8999999999999999
 40
0.8999999999999999
 40
0.8999999999999999
 40
1.0
 40
1.0
 40
1.0
 40
1.0
 10
191.9524
 20
-362.5464
 30
0.0
 10
178.8824
 20
-366.0283
 30
0.0
 10
168.3803
 20
-356.261
 30
0.0
 10
161.3336
 20
-360.5126
 30
0.0
 10
161.3336
 20
-360.5126
 30
0.0
 10
163.2877
 20
-368.7587
 30
0.0
 10
175.9861
 20
-366.2671
 30
0.0
 10
179.7069
 20
-372.7532
 30
0.0
 10
179.7069
 20
-372.7532
 30
0.0
 10
179.4713
 20
-377.9769
 30
0.0
 10
172.8658
 20
-376.8107
 30
0.0
 10
167.453
 20
-376.8406
 30
0.0
 10
167.453
 20
-376.8406
 30
0.0
 10
167.0184
 20
-387.4472
 30
0.0
 10
176.5982
 20
-381.9664
 30
0.0
 10
179.7069
 20
-385.0071
 30
0.0
 10
179.7069
 20
-385.0071
 30
0.0
 10
183.489
 20
-388.6067000000001
 30
0.0
 10
179.181
 20
-391.3322
 30
0.0
 10
175.6195
 20
-393.1735000000001
 30
0.0
 10
175.6195
 20
-393.1735000000001
 30
0.0
 10
171.0029
 20
-393.5153
 30
0.0
 10
166.6485
 20
-383.3549
 30
0.0
 10
163.3673
 20
-389.0861
 30
0.0
 10
163.3673
 20
-389.0861
 30
0.0
 10
164.9731
 20
-397.0187
 30
0.0
 10
172.534
 20
-398.9844
 30
0.0
 10
175.6195
 20
-405.4257
 30
0.0
 10
175.6195
 20
-405.4257
 30
0.0
 10
175.1285
 20
-409.0155
 30
0.0
 10
172.111
 20
-410.0771
 30
0.0
 10
167.453
 20
-409.5065
 30
0.0
 10
167.453
 20
-409.5065
 30
0.0
 10
167.6819
 20
-414.7285
 30
0.0
 10
171.197
 20
-416.6544
 30
0.0
 10
173.5808
 20
-419.7183
 30
0.0
 10
173.5808
 20
-419.7183
 30
0.0
 10
182.9798
 20
-403.9344
 30
0.0
 10
192.5596
 20
-388.333
 30
0.0
 10
191.9524
 20
-362.5464
 30
0.0
  0
SPLINE
  5
40
330
1F
100
AcDbEntity
  8
layer 1
100
AcDbSpline
210
0.0
220
0.0
230
1.0
 70
    11
 71
     3
 72
    60
 73
    56
 74
     0
 42
0.0000000001
 43
0.0000000001
 40
0.0
 40
0.0
 40
0.0
 40
0.0
 40
0.0714285714285714
 40
0.0714285714285714
 40
0.0714285714285714
 40
0.0714285714285714
 40
0.1428571428571429
 40
0.1428571428571429
 40
0.1428571428571429
 40
0.1428571428571429
 40
0.2142857142857143
 40
0.2142857142857143
 40
0.2142857142857143
 40
0.2142857142857143
 40
0.2857142857142857
 40
0.2857142857142857
 40
0.2857142857142857
 40
0.2857142857142857
 40
0.3571428571428571
 40
0.3571428571428571
 40
0.3571428571428571
 40
0.3571428571428571
 40
0.4285714285714285
 40
0.4285714285714285
 40
0.4285714285714285
 40
0.4285714285714285
 40
0.4999999999999999
 40
0.4999999999999999
 40
0.4999999999999999
 40
0.4999999999999999
 40
0.5714285714285713
 40
0.5714285714285713
 40
0.5714285714285713
 40
0.5714285714285713
 40
0.6428571428571427
 40
0.6428571428571427
 40
0.6428571428571427
 40
0.6428571428571427
 40
0.7142857142857141
 40
0.7142857142857141
 40
0.7142857142857141
 40
0.7142857142857141
 40
0.7857142857142855
 40
0.7857142857142855
 40
0.7857142857142855
 40
0.7857142857142855
 40
0.8571428571428569
 40
0.8571428571428569
 40
0.8571428571428569
 40
0.8571428571428569
 40
0.9285714285714283
 40
0.9285714285714283
 40
0.9285714285714283
 40
0.9285714285714283
 40
1.0
 40
1.0
 40
1.0
 40
1.0
 10
624.8086000000001
 20
-409.5065
 30
0.0
 10
618.3856000000001
 20
-408.4879
 30
0.0
 10
616.8296
 20
-413.9588
 30
0.0
 10
612.5614000000001
 20
-409.5065
 30
0.0
 10
612.5614000000001
 20
-409.5065
 30
0.0
 10
616.1113
 20
-405.7227
 30
0.0
 10
615.1906
 20
-394.8755000000001
 30
0.0
 10
610.5210000000001
 20
-393.1735000000001
 30
0.0
 10
610.5210000000001
 20
-393.1735000000001
 30
0.0
 10
608.2119
 20
-396.9972
 30
0.0
 10
608.1041
 20
-403.0088
 30
0.0
 10
600.3092
 20
-401.34
 30
0.0
 10
600.3092
 20
-401.34
 30
0.0
 10
600.2412000000001
 20
-390.7831
 30
0.0
 10
609.0297000000001
 20
-382.3546
 30
0.0
 10
596.2218
 20
-378.881
 30
0.0
 10
596.2218
 20
-378.881
 30
0.0
 10
595.8801000000001
 20
-381.9382
 30
0.0
 10
596.9533
 20
-386.4171
 30
0.0
 10
594.1831000000001
 20
-387.0524
 30
0.0
 10
594.1831000000001
 20
-387.0524
 30
0.0
 10
589.525
 20
-387.6181
 30
0.0
 10
586.5076
 20
-386.5548
 30
0.0
 10
586.0166
 20
-382.9667
 30
0.0
 10
586.0166
 20
-382.9667
 30
0.0
 10
595.1369000000001
 20
-379.6009
 30
0.0
 10
590.5137
 20
-366.5077
 30
0.0
 10
583.9762000000001
 20
-362.5464
 30
0.0
 10
583.9762000000001
 20
-362.5464
 30
0.0
 10
582.7985
 20
-366.1411
 30
0.0
 10
586.4396
 20
-374.5431
 30
0.0
 10
581.9359000000001
 20
-374.8002
 30
0.0
 10
581.9359000000001
 20
-374.8002
 30
0.0
 10
579.3248
 20
-374.9147
 30
0.0
 10
579.1009
 20
-377.4112
 30
0.0
 10
575.8098
 20
-376.8406
 30
0.0
 10
575.8098
 20
-376.8406
 30
0.0
 10
573.6549
 20
-366.3418
 30
0.0
 10
576.3920000000001
 20
-355.6041
 30
0.0
 10
565.6029
 20
-350.3008
 30
0.0
 10
565.6029
 20
-350.3008
 30
0.0
 10
561.6482
 20
-355.2657
 30
0.0
 10
570.6192
 20
-360.3932
 30
0.0
 10
567.6366
 20
-370.7145
 30
0.0
 10
567.6366
 20
-370.7145
 30
0.0
 10
564.883
 20
-371.3598
 30
0.0
 10
563.74
 20
-373.6224
 30
0.0
 10
559.4702
 20
-372.7532
 30
0.0
 10
559.4702
 20
-372.7532
 30
0.0
 10
574.0199
 20
-395.6419
 30
0.0
 10
597.6169
 20
-409.4833
 30
0.0
 10
626.8539000000001
 20
-417.6729
 30
0.0
 10
626.8539000000001
 20
-417.6729
 30
0.0
 10
627.3068000000001
 20
-413.8145
 30
0.0
 10
624.5465
 20
-413.1742
 30
0.0
 10
624.8086000000001
 20
-409.5065
 30
0.0
  0
SPLINE
  5
41
330
1F
100
AcDbEntity
  8
layer 1
100
AcDbSpline
210
0.0
220
0.0
230
1.0
 70
    11
 71
     3
 72
    56
 73
    52
 74
     0
 42
0.0000000001
 43
0.0000000001
 40
0.0
 40
0.0
 40
0.0
 40
0.0
 40
0.0769230769230769
 40
0.0769230769230769
 40
0.0769230769230769
 40
0.0769230769230769
 40
0.1538461538461539
 40
0.1538461538461539
 40
0.1538461538461539
 40
0.1538461538461539
 40
0.2307692307692308
 40
0.2307692307692308
 40
0.2307692307692308
 40
0.2307692307692308
 40
0.3076923076923077
 40
0.3076923076923077
 40
0.3076923076923077
 40
0.3076923076923077
 40
0.3846153846153846
 40
0.3846153846153846
 40
0.3846153846153846
 40
0.3846153846153846
 40
0.4615384615384616
 40
0.4615384615384616
 40
0.4615384615384616
 40
0.4615384615384616
 40
0.5384615384615386
 40
0.5384615384615386
 40
0.5384615384615386
 40
0.5384615384615386
 40
0.6153846153846154
 40
0.6153846153846154
 40
0.6153846153846154
 40
0.6153846153846154
 40
0.6923076923076923
 40
0.6923076923076923
 40
0.6923076923076923
 40
0.6923076923076923
 40
0.7692307692307692
 40
0.7692307692307692
 40
0.7692307692307692
 40
0.7692307692307692
 40
0.846153846153846
 40
0.846153846153846
 40
0.846153846153846
 40
0.846153846153846
 40
0.9230769230769229
 40
0.9230769230769229
 40
0.9230769230769229
 40
0.9230769230769229
 40
1.0
 40
1.0
 40
1.0
 40
1.0
 10
432.8857
 20
-370.7145
 30
0.0
 10
428.4682
 20
-369.0042
 30
0.0
 10
425.9203
 20
-365.4278
 30
0.0
 10
418.5882
 20
-366.6337
 30
0.0
 10
418.5882
 20
-366.6337
 30
0.0
 10
418.5882
 20
-372.1826
 30
0.0
 10
427.1777
 20
-376.1936
 30
0.0
 10
418.5882
 20
-378.881
 30
0.0
 10
418.5882
 20
-378.881
 30
0.0
 10
409.3468
 20
-378.594
 30
0.0
 10
410.3802
 20
-368.0388
 30
0.0
 10
410.4201000000001
 20
-358.4673
 30
0.0
 10
410.4201000000001
 20
-358.4673
 30
0.0
 10
394.5168000000001
 20
-360.6105
 30
0.0
 10
411.5464
 20
-377.2802
 30
0.0
 10
402.2536
 20
-380.9197
 30
0.0
 10
402.2536
 20
-380.9197
 30
0.0
 10
396.3747
 20
-380.6742
 30
0.0
 10
398.7169
 20
-372.2174
 30
0.0
 10
392.0484
 20
-372.7532
 30
0.0
 10
392.0484
 20
-372.7532
 30
0.0
 10
385.3964
 20
-377.4278
 30
0.0
 10
396.4991
 20
-387.1486
 30
0.0
 10
390.008
 20
-391.1332
 30
0.0
 10
390.008
 20
-391.1332
 30
0.0
 10
380.6588
 20
-394.3563
 30
0.0
 10
386.2308
 20
-382.6581
 30
0.0
 10
379.8012
 20
-382.9667
 30
0.0
 10
379.8012
 20
-382.9667
 30
0.0
 10
377.3544
 20
-390.9905
 30
0.0
 10
386.0467
 20
-398.3159
 30
0.0
 10
379.8012
 20
-403.3854
 30
0.0
 10
379.8012
 20
-403.3854
 30
0.0
 10
372.2053
 20
-405.5352
 30
0.0
 10
375.8001
 20
-396.4995
 30
0.0
 10
371.6347
 20
-395.2189
 30
0.0
 10
371.6347
 20
-395.2189
 30
0.0
 10
366.7013
 20
-399.1337
 30
0.0
 10
376.515
 20
-407.7863
 30
0.0
 10
365.507
 20
-407.4661
 30
0.0
 10
365.507
 20
-407.4661
 30
0.0
 10
359.8221
 20
-408.3868
 30
0.0
 10
367.1077
 20
-396.3386
 30
0.0
 10
361.4279
 20
-397.2526
 30
0.0
 10
361.4279
 20
-397.2526
 30
0.0
 10
356.9755
 20
-400.98
 30
0.0
 10
361.7878
 20
-413.9522
 30
0.0
 10
357.3405
 20
-417.6729
 30
0.0
 10
357.3405
 20
-417.6729
 30
0.0
 10
390.8474
 20
-410.3409
 30
0.0
 10
414.0678
 20
-392.7339
 30
0.0
 10
432.8857
 20
-370.7145
 30
0.0
  0
SPLINE
  5
42
330
1F
100
AcDbEntity
  8
layer 1
100
AcDbSpline
210
0.0
220
0.0
230
1.0
 70
    11
 71
     3
 72
    16
 73
    12
 74
     0
 42
0.0000000001
 43
0.0000000001
 40
0.0
 40
0.0
 40
0.0
 40
0.0
 40
0.3333333333333333
 40
0.3333333333333333
 40
0.3333333333333333
 40
0.3333333333333333
 40
0.6666666666666666
 40
0.6666666666666666
 40
0.6666666666666666
 40
0.6666666666666666
 40
1.0
 40
1.0
 40
1.0
 40
1.0
 10
330.7957
 20
-380.9197
 30
0.0
 10
324.4457
 20
-376.3894
 30
0.0
 10
322.538
 20
-367.4101
 30
0.0
 10
310.382
 20
-368.6741
 30
0.0
 10
310.382
 20
-368.6741
 30
0.0
 10
314.2057
 20
-385.8348
 30
0.0
 10
313.4111
 20
-406.9917
 30
0.0
 10
318.5485
 20
-417.6729
 30
0.0
 10
318.5485
 20
-417.6729
 30
0.0
 10
319.3945
 20
-402.186
 30
0.0
 10
327.6008
 20
-394.0594
 30
0.0
 10
330.7957
 20
-380.9197
 30
0.0
  0
SPLINE
  5
43
330
1F
100
AcDbEntity
  8
layer 1
100
AcDbSpline
210
0.0
220
0.0
230
1.0
 70
    11
 71
     3
 72
    12
 73
     8
 74
     0
 42
0.0000000001
 43
0.0000000001
 40
0.0
 40
0.0
 40
0.0
 40
0.0
 40
0.5
 40
0.5
 40
0.5
 40
0.5
 40
1.0
 40
1.0
 40
1.0
 40
1.0
 10
16.3642
 20
-405.4257
 30
0.0
 10
9.992600000000001
 20
-404.7788000000001
 30
0.0
 10
5.4656
 20
-414.8728
 30
0.0
 10
12.2834
 20
-415.6326
 30
0.0
 10
12.2834
 20
-415.6326
 30
0.0
 10
14.9807
 20
-412.7014
 30
0.0
 10
21.6161
 20
-410.4951
 30
0.0
 10
16.3642
 20
-405.4257
 30
0.0
  0
SPLINE
  5
44
330
1F
100
AcDbEntity
  8
layer 1
100
AcDbSpline
210
0.0
220
0.0
230
1.0
 70
    11
 71
     3
 72
    48
 73
    44
 74
     0
 42
0.0000000001
 43
0.0000000001
 40
0.0
 40
0.0
 40
0.0
 40
0.0
 40
0.0909090909090909
 40
0.0909090909090909
 40
0.0909090909090909
 40
0.0909090909090909
 40
0.1818181818181818
 40
0.1818181818181818
 40
0.1818181818181818
 40
0.1818181818181818
 40
0.2727272727272727
 40
0.2727272727272727
 40
0.2727272727272727
 40
0.2727272727272727
 40
0.3636363636363637
 40
0.3636363636363637
 40
0.3636363636363637
 40
0.3636363636363637
 40
0.4545454545454546
 40
0.4545454545454546
 40
0.4545454545454546
 40
0.4545454545454546
 40
0.5454545454545455
 40
0.5454545454545455
 40
0.5454545454545455
 40
0.5454545454545455
 40
0.6363636363636365
 40
0.6363636363636365
 40
0.6363636363636365
 40
0.6363636363636365
 40
0.7272727272727274
 40
0.7272727272727274
 40
0.7272727272727274
 40
0.7272727272727274
 40
0.8181818181818183
 40
0.8181818181818183
 40
0.8181818181818183
 40
0.8181818181818183
 40
0.9090909090909093
 40
0.9090909090909093
 40
0.9090909090909093
 40
0.9090909090909093
 40
1.0
 40
1.0
 40
1.0
 40
1.0
 10
277.7045
 20
-401.34
 30
0.0
 10
277.3611
 20
-395.5672
 30
0.0
 10
279.4646
 20
-387.3328
 30
0.0
 10
273.6238
 20
-387.0524
 30
0.0
 10
273.6238
 20
-387.0524
 30
0.0
 10
272.3962
 20
-391.2708
 30
0.0
 10
270.4703
 20
-394.7843
 30
0.0
 10
263.4169
 20
-393.1735000000001
 30
0.0
 10
263.4169
 20
-393.1735000000001
 30
0.0
 10
263.8798
 20
-382.9269000000001
 30
0.0
 10
271.2533
 20
-376.7079
 30
0.0
 10
261.3782
 20
-370.7145
 30
0.0
 10
261.3782
 20
-370.7145
 30
0.0
 10
260.2286
 20
-375.686
 30
0.0
 10
259.6281
 20
-381.2183
 30
0.0
 10
253.2118
 20
-380.9197
 30
0.0
 10
253.2118
 20
-380.9197
 30
0.0
 10
249.1194
 20
-373.1945
 30
0.0
 10
260.6351
 20
-360.8726
 30
0.0
 10
247.084
 20
-356.4269
 30
0.0
 10
247.084
 20
-356.4269
 30
0.0
 10
247.638
 20
-363.7822000000001
 30
0.0
 10
247.5933
 20
-370.5469
 30
0.0
 10
238.9175
 20
-368.6741
 30
0.0
 10
238.9175
 20
-368.6741
 30
0.0
 10
239.4484
 20
-360.4264
 30
0.0
 10
237.3002
 20
-339.9563
 30
0.0
 10
226.6653
 20
-344.173
 30
0.0
 10
226.6653
 20
-344.173
 30
0.0
 10
228.1002
 20
-350.2195
 30
0.0
 10
232.7516
 20
-353.0611
 30
0.0
 10
230.7511
 20
-362.5464
 30
0.0
 10
230.7511
 20
-362.5464
 30
0.0
 10
227.9907
 20
-363.1933
 30
0.0
 10
226.8544
 20
-365.456
 30
0.0
 10
222.5846
 20
-364.5867
 30
0.0
 10
222.5846
 20
-364.5867
 30
0.0
 10
236.98
 20
-387.6297
 30
0.0
 10
259.4175
 20
-402.619
 30
0.0
 10
289.9584
 20
-409.5065
 30
0.0
 10
289.9584
 20
-409.5065
 30
0.0
 10
289.8937
 20
-398.3956
 30
0.0
 10
282.0822
 20
-405.648
 30
0.0
 10
277.7045
 20
-401.34
 30
0.0
  0
SPLINE
  5
45
330
1F
100
AcDbEntity
  8
layer 1
100
AcDbSpline
210
0.0
220
0.0
230
1.0
 70
    11
 71
     3
 72
    64
 73
    60
 74
     0
 42
0.0000000001
 43
0.0000000001
 40
0.0
 40
0.0
 40
0.0
 40
0.0
 40
0.0666666666666667
 40
0.0666666666666667
 40
0.0666666666666667
 40
0.0666666666666667
 40
0.1333333333333333
 40
0.1333333333333333
 40
0.1333333333333333
 40
0.1333333333333333
 40
0.2
 40
0.2
 40
0.2
 40
0.2
 40
0.2666666666666667
 40
0.2666666666666667
 40
0.2666666666666667
 40
0.2666666666666667
 40
0.3333333333333333
 40
0.3333333333333333
 40
0.3333333333333333
 40
0.3333333333333333
 40
0.4
 40
0.4
 40
0.4
 40
0.4
 40
0.4666666666666666
 40
0.4666666666666666
 40
0.4666666666666666
 40
0.4666666666666666
 40
0.5333333333333333
 40
0.5333333333333333
 40
0.5333333333333333
 40
0.5333333333333333
 40
0.6
 40
0.6
 40
0.6
 40
0.6
 40
0.6666666666666666
 40
0.6666666666666666
 40
0.6666666666666666
 40
0.6666666666666666
 40
0.7333333333333333
 40
0.7333333333333333
 40
0.7333333333333333
 40
0.7333333333333333
 40
0.7999999999999999
 40
0.7999999999999999
 40
0.7999999999999999
 40
0.7999999999999999
 40
0.8666666666666666
 40
0.8666666666666666
 40
0.8666666666666666
 40
0.8666666666666666
 40
0.9333333333333332
 40
0.9333333333333332
 40
0.9333333333333332
 40
0.9333333333333332
 40
1.0
 40
1.0
 40
1.0
 40
1.0
 10
95.99520000000001
 20
-362.5464
 30
0.0
 10
91.45820000000001
 20
-360.9589
 30
0.0
 10
88.03440000000001
 20
-358.2616
 30
0.0
 10
81.7026
 20
-358.4673
 30
0.0
 10
81.7026
 20
-358.4673
 30
0.0
 10
82.2616
 20
-363.6329
 30
0.0
 10
90.4679
 20
-370.0443
 30
0.0
 10
81.7026
 20
-372.7532
 30
0.0
 10
81.7026
 20
-372.7532
 30
0.0
 10
72.09620000000001
 20
-372.1527
 30
0.0
 10
78.1294
 20
-355.9127
 30
0.0
 10
73.53610000000001
 20
-350.3008
 30
0.0
 10
73.53610000000001
 20
-350.3008
 30
0.0
 10
59.6997
 20
-350.0719
 30
0.0
 10
73.8845
 20
-368.7189
 30
0.0
 10
67.41
 20
-372.7532
 30
0.0
 10
67.41
 20
-372.7532
 30
0.0
 10
58.2317
 20
-373.7701
 30
0.0
 10
61.6771
 20
-362.1582
 30
0.0
 10
57.1965
 20
-358.4673
 30
0.0
 10
57.1965
 20
-358.4673
 30
0.0
 10
51.16670000000001
 20
-366.6553
 30
0.0
 10
54.33340000000001
 20
-374.1085
 30
0.0
 10
57.1965
 20
-382.9667
 30
0.0
 10
57.1965
 20
-382.9667
 30
0.0
 10
54.59050000000001
 20
-383.0795
 30
0.0
 10
54.3732
 20
-385.5843
 30
0.0
 10
51.0771
 20
-385.0071
 30
0.0
 10
51.0771
 20
-385.0071
 30
0.0
 10
45.4354
 20
-384.526
 30
0.0
 10
50.3455
 20
-373.4914
 30
0.0
 10
42.904
 20
-374.8002
 30
0.0
 10
42.904
 20
-374.8002
 30
0.0
 10
41.0759
 20
-384.1212
 30
0.0
 10
46.3096
 20
-386.3723
 30
0.0
 10
46.99630000000001
 20
-393.1735000000001
 30
0.0
 10
46.99630000000001
 20
-393.1735000000001
 30
0.0
 10
44.3787
 20
-393.288
 30
0.0
 10
44.1663
 20
-395.7912
 30
0.0
 10
40.86360000000001
 20
-395.2189
 30
0.0
 10
40.86360000000001
 20
-395.2189
 30
0.0
 10
36.0861
 20
-394.5553000000001
 30
0.0
 10
38.8863
 20
-386.3093
 30
0.0
 10
34.7375
 20
-385.0071
 30
0.0
 10
34.7375
 20
-385.0071
 30
0.0
 10
34.1088
 20
-391.1779
 30
0.0
 10
37.0068
 20
-400.8888
 30
0.0
 10
30.6568
 20
-401.34
 30
0.0
 10
30.6568
 20
-401.34
 30
0.0
 10
27.6277
 20
-398.9231
 30
0.0
 10
27.485
 20
-393.6297
 30
0.0
 10
24.5307
 20
-391.1332
 30
0.0
 10
24.5307
 20
-391.1332
 30
0.0
 10
24.451
 20
-397.8531
 30
0.0
 10
21.0852
 20
-401.3002
 30
0.0
 10
22.4853
 20
-409.5065
 30
0.0
 10
22.4853
 20
-409.5065
 30
0.0
 10
56.0022
 20
-402.8661
 30
0.0
 10
78.47280000000001
 20
-385.1829
 30
0.0
 10
95.99520000000001
 20
-362.5464
 30
0.0
  0
SPLINE
  5
46
330
1F
100
AcDbEntity
  8
layer 1
100
AcDbSpline
210
0.0
220
0.0
230
1.0
 70
    11
 71
     3
 72
    12
 73
     8
 74
     0
 42
0.0000000001
 43
0.0000000001
 40
0.0
 40
0.0
 40
0.0
 40
0.0
 40
0.5
 40
0.5
 40
0.5
 40
0.5
 40
1.0
 40
1.0
 40
1.0
 40
1.0
 10
347.1353
 20
-393.1735000000001
 30
0.0
 10
346.5796
 20
-396.8993
 30
0.0
 10
339.78
 20
-404.6262
 30
0.0
 10
345.0883
 20
-407.4661
 30
0.0
 10
345.0883
 20
-407.4661
 30
0.0
 10
347.6379
 20
-404.0306
 30
0.0
 10
356.1594
 20
-396.1395
 30
0.0
 10
347.1353
 20
-393.1735000000001
 30
0.0
  0
SPLINE
  5
47
330
1F
100
AcDbEntity
  8
layer 1
100
AcDbSpline
210
0.0
220
0.0
230
1.0
 70
    11
 71
     3
 72
    12
 73
     8
 74
     0
 42
0.0000000001
 43
0.0000000001
 40
0.0
 40
0.0
 40
0.0
 40
0.0
 40
0.5
 40
0.5
 40
0.5
 40
0.5
 40
1.0
 40
1.0
 40
1.0
 40
1.0
 10
14.3238
 20
-387.0524
 30
0.0
 10
8.415000000000001
 20
-386.7206
 30
0.0
 10
4.979600000000001
 20
-399.3046
 30
0.0
 10
8.197700000000001
 20
-401.34
 30
0.0
 10
8.197700000000001
 20
-401.34
 30
0.0
 10
11.9749
 20
-396.5393
 30
0.0
 10
18.1358
 20
-394.1506
 30
0.0
 10
14.3238
 20
-387.0524
 30
0.0
  0
SPLINE
  5
48
330
1F
100
AcDbEntity
  8
layer 1
100
AcDbSpline
210
0.0
220
0.0
230
1.0
 70
    11
 71
     3
 72
    16
 73
    12
 74
     0
 42
0.0000000001
 43
0.0000000001
 40
0.0
 40
0.0
 40
0.0
 40
0.0
 40
0.3333333333333333
 40
0.3333333333333333
 40
0.3333333333333333
 40
0.3333333333333333
 40
0.6666666666666666
 40
0.6666666666666666
 40
0.6666666666666666
 40
0.6666666666666666
 40
1.0
 40
1.0
 40
1.0
 40
1.0
 10
622.7682
 20
-382.9667
 30
0.0
 10
622.5459000000001
 20
-386.8185
 30
0.0
 10
616.0134000000001
 20
-384.3833
 30
0.0
 10
616.6471
 20
-389.0861
 30
0.0
 10
616.6471
 20
-389.0861
 30
0.0
 10
620.5387000000001
 20
-389.967
 30
0.0
 10
620.3397
 20
-394.9286
 30
0.0
 10
626.8539000000001
 20
-393.1735000000001
 30
0.0
 10
626.8539000000001
 20
-393.1735000000001
 30
0.0
 10
625.7276000000001
 20
-389.539
 30
0.0
 10
625.8022000000001
 20
-384.6985
 30
0.0
 10
622.7682
 20
-382.9667
 30
0.0
  0
SPLINE
  5
49
330
1F
100
AcDbEntity
  8
layer 1
100
AcDbSpline
210
0.0
220
0.0
230
1.0
 70
    11
 71
     3
 72
    12
 73
     8
 74
     0
 42
0.0000000001
 43
0.0000000001
 40
0.0
 40
0.0
 40
0.0
 40
0.0
 40
0.5
 40
0.5
 40
0.5
 40
0.5
 40
1.0
 40
1.0
 40
1.0
 40
1.0
 10
359.3825
 20
-387.0524
 30
0.0
 10
355.1127
 20
-382.5785
 30
0.0
 10
351.712
 20
-382.8406
 30
0.0
 10
349.169
 20
-389.0861
 30
0.0
 10
349.169
 20
-389.0861
 30
0.0
 10
354.3877
 20
-390.1677
 30
0.0
 10
356.3186
 20
-391.8017
 30
0.0
 10
359.3825
 20
-387.0524
 30
0.0
  0
SPLINE
  5
4A
330
1F
100
AcDbEntity
  8
layer 1
100
AcDbSpline
210
0.0
220
0.0
230
1.0
 70
    11
 71
     3
 72
    16
 73
    12
 74
     0
 42
0.0000000001
 43
0.0000000001
 40
0.0
 40
0.0
 40
0.0
 40
0.0
 40
0.3333333333333333
 40
0.3333333333333333
 40
0.3333333333333333
 40
0.3333333333333333
 40
0.6666666666666666
 40
0.6666666666666666
 40
0.6666666666666666
 40
0.6666666666666666
 40
1.0
 40
1.0
 40
1.0
 40
1.0
 10
287.918
 20
-376.8389
 30
0.0
 10
284.0595
 20
-376.3827
 30
0.0
 10
283.4143
 20
-379.1431
 30
0.0
 10
279.7499
 20
-378.881
 30
0.0
 10
279.7499
 20
-378.881
 30
0.0
 10
279.4364
 20
-384.6471
 30
0.0
 10
285.5226
 20
-384.0068
 30
0.0
 10
287.918
 20
-387.0524
 30
0.0
 10
287.918
 20
-387.0524
 30
0.0
 10
290.5406
 20
-384.3717
 30
0.0
 10
290.5406
 20
-379.5263
 30
0.0
 10
287.918
 20
-376.8389
 30
0.0
  0
SPLINE
  5
4B
330
1F
100
AcDbEntity
  8
layer 1
100
AcDbSpline
210
0.0
220
0.0
230
1.0
 70
    11
 71
     3
 72
    36
 73
    32
 74
     0
 42
0.0000000001
 43
0.0000000001
 40
0.0
 40
0.0
 40
0.0
 40
0.0
 40
0.125
 40
0.125
 40
0.125
 40
0.125
 40
0.25
 40
0.25
 40
0.25
 40
0.25
 40
0.375
 40
0.375
 40
0.375
 40
0.375
 40
0.5
 40
0.5
 40
0.5
 40
0.5
 40
0.625
 40
0.625
 40
0.625
 40
0.625
 40
0.75
 40
0.75
 40
0.75
 40
0.75
 40
0.875
 40
0.875
 40
0.875
 40
0.875
 40
1.0
 40
1.0
 40
1.0
 40
1.0
 10
34.7375
 20
-372.7532
 30
0.0
 10
38.9543
 20
-365.1706
 30
0.0
 10
31.8179
 20
-367.4217
 30
0.0
 10
32.6971
 20
-358.4673
 30
0.0
 10
32.6971
 20
-358.4673
 30
0.0
 10
40.7043
 20
-360.3185
 30
0.0
 10
45.4354
 20
-360.9589
 30
0.0
 10
51.0771
 20
-356.4269
 30
0.0
 10
51.0771
 20
-356.4269
 30
0.0
 10
51.5266
 20
-350.329
 30
0.0
 10
43.53760000000001
 20
-349.483
 30
0.0
 10
49.0301
 20
-344.173
 30
0.0
 10
49.0301
 20
-344.173
 30
0.0
 10
55.3055
 20
-343.8711
 30
0.0
 10
58.2134
 20
-351.3575
 30
0.0
 10
63.3293
 20
-346.2134
 30
0.0
 10
63.3293
 20
-346.2134
 30
0.0
 10
62.4252
 20
-340.3096
 30
0.0
 10
59.0262
 20
-336.9106
 30
0.0
 10
53.1158
 20
-336.0066
 30
0.0
 10
53.1158
 20
-336.0066
 30
0.0
 10
36.63520000000001
 20
-348.1062
 30
0.0
 10
19.4795
 20
-359.5405
 30
0.0
 10
14.3238
 20
-382.9667
 30
0.0
 10
14.3238
 20
-382.9667
 30
0.0
 10
17.0493
 20
-382.9667
 30
0.0
 10
19.7698
 20
-382.9667
 30
0.0
 10
22.4853
 20
-382.9667
 30
0.0
 10
22.4853
 20
-382.9667
 30
0.0
 10
25.4679
 20
-375.4505
 30
0.0
 10
20.3537
 20
-370.4225
 30
0.0
 10
34.7375
 20
-372.7532
 30
0.0
  0
SPLINE
  5
4C
330
1F
100
AcDbEntity
  8
layer 1
100
AcDbSpline
210
0.0
220
0.0
230
1.0
 70
    11
 71
     3
 72
    16
 73
    12
 74
     0
 42
0.0000000001
 43
0.0000000001
 40
0.0
 40
0.0
 40
0.0
 40
0.0
 40
0.3333333333333333
 40
0.3333333333333333
 40
0.3333333333333333
 40
0.3333333333333333
 40
0.6666666666666666
 40
0.6666666666666666
 40
0.6666666666666666
 40
0.6666666666666666
 40
1.0
 40
1.0
 40
1.0
 40
1.0
 10
408.3863
 20
-340.094
 30
0.0
 10
394.666
 20
-355.6257
 30
0.0
 10
376.3607
 20
-366.5989
 30
0.0
 10
357.3405
 20
-376.8406
 30
0.0
 10
357.3405
 20
-376.8406
 30
0.0
 10
366.7544
 20
-382.8174
 30
0.0
 10
369.4965
 20
-367.1015
 30
0.0
 10
381.8465
 20
-374.8002
 30
0.0
 10
381.8465
 20
-374.8002
 30
0.0
 10
389.1272
 20
-361.6672
 30
0.0
 10
404.9177
 20
-357.0374
 30
0.0
 10
408.3863
 20
-340.094
 30
0.0
  0
SPLINE
  5
4D
330
1F
100
AcDbEntity
  8
layer 1
100
AcDbSpline
210
0.0
220
0.0
230
1.0
 70
    11
 71
     3
 72
    16
 73
    12
 74
     0
 42
0.0000000001
 43
0.0000000001
 40
0.0
 40
0.0
 40
0.0
 40
0.0
 40
0.3333333333333333
 40
0.3333333333333333
 40
0.3333333333333333
 40
0.3333333333333333
 40
0.6666666666666666
 40
0.6666666666666666
 40
0.6666666666666666
 40
0.6666666666666666
 40
1.0
 40
1.0
 40
1.0
 40
1.0
 10
618.6875
 20
-368.6741
 30
0.0
 10
618.2761
 20
-375.0739
 30
0.0
 10
605.3321000000001
 20
-368.9246
 30
0.0
 10
606.4353
 20
-376.8406
 30
0.0
 10
606.4353
 20
-376.8406
 30
0.0
 10
611.1961
 20
-376.8389
 30
0.0
 10
615.962
 20
-376.8406
 30
0.0
 10
620.7278
 20
-376.8406
 30
0.0
 10
620.7278
 20
-376.8406
 30
0.0
 10
620.3795
 20
-373.7883
 30
0.0
 10
621.4544000000001
 20
-369.3078
 30
0.0
 10
618.6875
 20
-368.6741
 30
0.0
  0
SPLINE
  5
4E
330
1F
100
AcDbEntity
  8
layer 1
100
AcDbSpline
210
0.0
220
0.0
230
1.0
 70
    11
 71
     3
 72
    16
 73
    12
 74
     0
 42
0.0000000001
 43
0.0000000001
 40
0.0
 40
0.0
 40
0.0
 40
0.0
 40
0.3333333333333333
 40
0.3333333333333333
 40
0.3333333333333333
 40
0.3333333333333333
 40
0.6666666666666666
 40
0.6666666666666666
 40
0.6666666666666666
 40
0.6666666666666666
 40
1.0
 40
1.0
 40
1.0
 40
1.0
 10
559.4702
 20
-358.4673
 30
0.0
 10
555.9153
 20
-358.3130000000001
 30
0.0
 10
553.1218
 20
-358.9185
 30
0.0
 10
551.3037000000001
 20
-360.5126
 30
0.0
 10
551.3037000000001
 20
-360.5126
 30
0.0
 10
550.3432
 20
-366.9191
 30
0.0
 10
553.8533
 20
-368.85
 30
0.0
 10
557.4364000000001
 20
-370.7145
 30
0.0
 10
557.4364000000001
 20
-370.7145
 30
0.0
 10
556.8525000000001
 20
-364.5005000000001
 30
0.0
 10
563.9739000000001
 20
-362.7753
 30
0.0
 10
559.4702
 20
-358.4673
 30
0.0
  0
SPLINE
  5
4F
330
1F
100
AcDbEntity
  8
layer 1
100
AcDbSpline
210
0.0
220
0.0
230
1.0
 70
    11
 71
     3
 72
    36
 73
    32
 74
     0
 42
0.0000000001
 43
0.0000000001
 40
0.0
 40
0.0
 40
0.0
 40
0.0
 40
0.125
 40
0.125
 40
0.125
 40
0.125
 40
0.25
 40
0.25
 40
0.25
 40
0.25
 40
0.375
 40
0.375
 40
0.375
 40
0.375
 40
0.5
 40
0.5
 40
0.5
 40
0.5
 40
0.625
 40
0.625
 40
0.625
 40
0.625
 40
0.75
 40
0.75
 40
0.75
 40
0.75
 40
0.875
 40
0.875
 40
0.875
 40
0.875
 40
1.0
 40
1.0
 40
1.0
 40
1.0
 10
583.9762000000001
 20
-325.8014
 30
0.0
 10
583.1070000000001
 20
-329.6864
 30
0.0
 10
578.1404
 20
-329.4923
 30
0.0
 10
579.8888000000001
 20
-336.0066
 30
0.0
 10
579.8888000000001
 20
-336.0066
 30
0.0
 10
586.0282000000001
 20
-341.9054
 30
0.0
 10
587.0219000000001
 20
-331.1329
 30
0.0
 10
596.2218
 20
-333.9679
 30
0.0
 10
596.2218
 20
-333.9679
 30
0.0
 10
601.1602
 20
-349.1064
 30
0.0
 10
582.8383
 20
-340.9964
 30
0.0
 10
577.8501
 20
-346.2134
 30
0.0
 10
577.8501
 20
-346.2134
 30
0.0
 10
580.8095000000001
 20
-353.5737
 30
0.0
 10
594.2229
 20
-349.8264
 30
0.0
 10
598.2688000000001
 20
-346.2134
 30
0.0
 10
598.2688000000001
 20
-346.2134
 30
0.0
 10
599.9824
 20
-348.5856
 30
0.0
 10
600.9611
 20
-351.6893
 30
0.0
 10
600.3092
 20
-356.4269
 30
0.0
 10
600.3092
 20
-356.4269
 30
0.0
 10
596.6846000000001
 20
-356.8897
 30
0.0
 10
590.0841
 20
-354.3633
 30
0.0
 10
592.1427
 20
-360.5126
 30
0.0
 10
592.1427
 20
-360.5126
 30
0.0
 10
599.0120000000001
 20
-367.3703
 30
0.0
 10
607.9100000000001
 20
-365.9188
 30
0.0
 10
616.6471
 20
-362.5464
 30
0.0
 10
616.6471
 20
-362.5464
 30
0.0
 10
609.1325000000001
 20
-346.9168
 30
0.0
 10
601.1369000000001
 20
-331.7732
 30
0.0
 10
583.9762000000001
 20
-325.8014
 30
0.0
  0
SPLINE
  5
50
330
1F
100
AcDbEntity
  8
layer 1
100
AcDbSpline
210
0.0
220
0.0
230
1.0
 70
    11
 71
     3
 72
    40
 73
    36
 74
     0
 42
0.0000000001
 43
0.0000000001
 40
0.0
 40
0.0
 40
0.0
 40
0.0
 40
0.1111111111111111
 40
0.1111111111111111
 40
0.1111111111111111
 40
0.1111111111111111
 40
0.2222222222222222
 40
0.2222222222222222
 40
0.2222222222222222
 40
0.2222222222222222
 40
0.3333333333333333
 40
0.3333333333333333
 40
0.3333333333333333
 40
0.3333333333333333
 40
0.4444444444444444
 40
0.4444444444444444
 40
0.4444444444444444
 40
0.4444444444444444
 40
0.5555555555555556
 40
0.5555555555555556
 40
0.5555555555555556
 40
0.5555555555555556
 40
0.6666666666666667
 40
0.6666666666666667
 40
0.6666666666666667
 40
0.6666666666666667
 40
0.7777777777777779
 40
0.7777777777777779
 40
0.7777777777777779
 40
0.7777777777777779
 40
0.8888888888888891
 40
0.8888888888888891
 40
0.8888888888888891
 40
0.8888888888888891
 40
1.0
 40
1.0
 40
1.0
 40
1.0
 10
242.9983
 20
-338.0469
 30
0.0
 10
239.9808
 20
-353.9984
 30
0.0
 10
263.5496
 20
-343.3619
 30
0.0
 10
261.3782
 20
-358.4673
 30
0.0
 10
261.3782
 20
-358.4673
 30
0.0
 10
267.5839
 20
-358.381
 30
0.0
 10
274.8132
 20
-357.2829
 30
0.0
 10
273.6238
 20
-364.5867
 30
0.0
 10
273.6238
 20
-364.5867
 30
0.0
 10
279.6072
 20
-365.1192
 30
0.0
 10
279.8992
 20
-359.9752
 30
0.0
 10
285.8776
 20
-360.5126
 30
0.0
 10
285.8776
 20
-360.5126
 30
0.0
 10
285.7682
 20
-364.0211
 30
0.0
 10
287.4486
 20
-365.7413
 30
0.0
 10
289.9584
 20
-366.6337
 30
0.0
 10
289.9584
 20
-366.6337
 30
0.0
 10
293.427
 20
-360.1974
 30
0.0
 10
299.4552
 20
-364.0907
 30
0.0
 10
306.2963
 20
-364.5867
 30
0.0
 10
306.2963
 20
-364.5867
 30
0.0
 10
306.6397
 20
-361.5295
 30
0.0
 10
305.5648
 20
-357.0556
 30
0.0
 10
308.3367
 20
-356.4269
 30
0.0
 10
308.3367
 20
-356.4269
 30
0.0
 10
316.5546
 20
-355.0152
 30
0.0
 10
313.3547
 20
-365.0214
 30
0.0
 10
320.5889
 20
-364.5867
 30
0.0
 10
320.5889
 20
-364.5867
 30
0.0
 10
325.2817
 20
-359.3017
 30
0.0
 10
316.4351
 20
-355.1629
 30
0.0
 10
314.4628
 20
-350.3008
 30
0.0
 10
314.4628
 20
-350.3008
 30
0.0
 10
290.529
 20
-367.8729
 30
0.0
 10
260.2121
 20
-350.7918
 30
0.0
 10
242.9983
 20
-338.0469
 30
0.0
  0
SPLINE
  5
51
330
1F
100
AcDbEntity
  8
layer 1
100
AcDbSpline
210
0.0
220
0.0
230
1.0
 70
    11
 71
     3
 72
    28
 73
    24
 74
     0
 42
0.0000000001
 43
0.0000000001
 40
0.0
 40
0.0
 40
0.0
 40
0.0
 40
0.1666666666666667
 40
0.1666666666666667
 40
0.1666666666666667
 40
0.1666666666666667
 40
0.3333333333333333
 40
0.3333333333333333
 40
0.3333333333333333
 40
0.3333333333333333
 40
0.5
 40
0.5
 40
0.5
 40
0.5
 40
0.6666666666666666
 40
0.6666666666666666
 40
0.6666666666666666
 40
0.6666666666666666
 40
0.8333333333333333
 40
0.8333333333333333
 40
0.8333333333333333
 40
0.8333333333333333
 40
1.0
 40
1.0
 40
1.0
 40
1.0
 10
251.1714
 20
-260.4563
 30
0.0
 10
251.8333
 20
-273.0917
 30
0.0
 10
241.2034
 20
-276.1092
 30
0.0
 10
238.9175
 20
-287.0028
 30
0.0
 10
238.9175
 20
-287.0028
 30
0.0
 10
228.5747
 20
-336.1957
 30
0.0
 10
290.4262
 20
-370.4507
 30
0.0
 10
318.5485
 20
-338.0469
 30
0.0
 10
318.5485
 20
-338.0469
 30
0.0
 10
345.0833
 20
-406.9519
 30
0.0
 10
445.8529
 20
-323.0925
 30
0.0
 10
400.2149
 20
-276.7959
 30
0.0
 10
400.2149
 20
-276.7959
 30
0.0
 10
404.5925
 20
-274.3607
 30
0.0
 10
411.6211
 20
-274.5897
 30
0.0
 10
414.5074
 20
-270.6698
 30
0.0
 10
414.5074
 20
-270.6698
 30
0.0
 10
442.4307
 20
-209.7323
 30
0.0
 10
367.9305
 20
-152.2867
 30
0.0
 10
318.5485
 20
-193.0842
 30
0.0
 10
318.5485
 20
-193.0842
 30
0.0
 10
270.1784
 20
-141.7066
 30
0.0
 10
184.6618
 20
-225.7551
 30
0.0
 10
251.1714
 20
-260.4563
 30
0.0
  0
SPLINE
  5
52
330
1F
100
AcDbEntity
  8
layer 1
100
AcDbSpline
210
0.0
220
0.0
230
1.0
 70
    11
 71
     3
 72
    40
 73
    36
 74
     0
 42
0.0000000001
 43
0.0000000001
 40
0.0
 40
0.0
 40
0.0
 40
0.0
 40
0.1111111111111111
 40
0.1111111111111111
 40
0.1111111111111111
 40
0.1111111111111111
 40
0.2222222222222222
 40
0.2222222222222222
 40
0.2222222222222222
 40
0.2222222222222222
 40
0.3333333333333333
 40
0.3333333333333333
 40
0.3333333333333333
 40
0.3333333333333333
 40
0.4444444444444444
 40
0.4444444444444444
 40
0.4444444444444444
 40
0.4444444444444444
 40
0.5555555555555556
 40
0.5555555555555556
 40
0.5555555555555556
 40
0.5555555555555556
 40
0.6666666666666667
 40
0.6666666666666667
 40
0.6666666666666667
 40
0.6666666666666667
 40
0.7777777777777779
 40
0.7777777777777779
 40
0.7777777777777779
 40
0.7777777777777779
 40
0.8888888888888891
 40
0.8888888888888891
 40
0.8888888888888891
 40
0.8888888888888891
 40
1.0
 40
1.0
 40
1.0
 40
1.0
 10
565.6029
 20
-260.4563
 30
0.0
 10
607.0291000000001
 20
-211.2286
 30
0.0
 10
507.0259
 20
-136.05
 30
0.0
 10
481.8862
 20
-201.2507
 30
0.0
 10
481.8862
 20
-201.2507
 30
0.0
 10
475.6224
 20
-200.1708
 30
0.0
 10
471.1419
 20
-190.5578
 30
0.0
 10
465.5516
 20
-195.1246
 30
0.0
 10
465.5516
 20
-195.1246
 30
0.0
 10
467.4726
 20
-204.0972
 30
0.0
 10
478.1356
 20
-204.3146
 30
0.0
 10
483.9316
 20
-209.4171
 30
0.0
 10
483.9316
 20
-209.4171
 30
0.0
 10
510.0483
 20
-155.407
 30
0.0
 10
595.8104000000001
 20
-212.3317
 30
0.0
 10
557.4364000000001
 20
-264.5437
 30
0.0
 10
557.4364000000001
 20
-264.5437
 30
0.0
 10
612.0587
 20
-302.6556
 30
0.0
 10
531.1936000000001
 20
-385.7834
 30
0.0
 10
488.0123
 20
-338.0469
 30
0.0
 10
488.0123
 20
-338.0469
 30
0.0
 10
469.0435
 20
-355.1861
 30
0.0
 10
434.6292
 20
-348.3517
 30
0.0
 10
414.5074
 20
-346.2134
 30
0.0
 10
414.5074
 20
-346.2134
 30
0.0
 10
415.9307
 20
-365.2221
 30
0.0
 10
447.8302000000001
 20
-366.5641
 30
0.0
 10
465.5516
 20
-360.5126
 30
0.0
 10
465.5516
 20
-360.5126
 30
0.0
 10
475.6158
 20
-357.0656
 30
0.0
 10
479.2387000000001
 20
-346.585
 30
0.0
 10
485.9719
 20
-346.2134
 30
0.0
 10
485.9719
 20
-346.2134
 30
0.0
 10
536.6114
 20
-401.3732
 30
0.0
 10
624.2147
 20
-302.0219
 30
0.0
 10
565.6029
 20
-260.4563
 30
0.0
  0
SPLINE
  5
53
330
1F
100
AcDbEntity
  8
layer 1
100
AcDbSpline
210
0.0
220
0.0
230
1.0
 70
    11
 71
     3
 72
    12
 73
     8
 74
     0
 42
0.0000000001
 43
0.0000000001
 40
0.0
 40
0.0
 40
0.0
 40
0.0
 40
0.5
 40
0.5
 40
0.5
 40
0.5
 40
1.0
 40
1.0
 40
1.0
 40
1.0
 10
222.5846
 20
-350.3008
 30
0.0
 10
211.0175
 20
-347.786
 30
0.0
 10
213.6418
 20
-361.9011
 30
0.0
 10
220.5442
 20
-362.5464
 30
0.0
 10
220.5442
 20
-362.5464
 30
0.0
 10
222.8931
 20
-360.141
 30
0.0
 10
222.8533
 20
-355.3287
 30
0.0
 10
222.5846
 20
-350.3008
 30
0.0
  0
SPLINE
  5
54
330
1F
100
AcDbEntity
  8
layer 1
100
AcDbSpline
210
0.0
220
0.0
230
1.0
 70
    11
 71
     3
 72
    44
 73
    40
 74
     0
 42
0.0000000001
 43
0.0000000001
 40
0.0
 40
0.0
 40
0.0
 40
0.0
 40
0.1
 40
0.1
 40
0.1
 40
0.1
 40
0.2
 40
0.2
 40
0.2
 40
0.2
 40
0.3
 40
0.3
 40
0.3
 40
0.3
 40
0.4
 40
0.4
 40
0.4
 40
0.4
 40
0.5
 40
0.5
 40
0.5
 40
0.5
 40
0.6
 40
0.6
 40
0.6
 40
0.6
 40
0.7
 40
0.7
 40
0.7
 40
0.7
 40
0.7999999999999999
 40
0.7999999999999999
 40
0.7999999999999999
 40
0.7999999999999999
 40
0.8999999999999999
 40
0.8999999999999999
 40
0.8999999999999999
 40
0.8999999999999999
 40
1.0
 40
1.0
 40
1.0
 40
1.0
 10
226.6653
 20
-327.8401
 30
0.0
 10
209.2011
 20
-339.1567
 30
0.0
 10
169.3905
 20
-356.3008
 30
0.0
 10
149.0797
 20
-329.8805
 30
0.0
 10
149.0797
 20
-329.8805
 30
0.0
 10
118.2767
 20
-356.4949
 30
0.0
 10
56.951
 20
-340.3328
 30
0.0
 10
67.41
 20
-293.1289
 30
0.0
 10
67.41
 20
-293.1289
 30
0.0
 10
70.1172
 20
-280.9165
 30
0.0
 10
82.97660000000001
 20
-276.6864
 30
0.0
 10
89.8691
 20
-264.5437
 30
0.0
 10
89.8691
 20
-264.5437
 30
0.0
 10
41.5902
 20
-233.2663
 30
0.0
 10
103.3505
 20
-162.1319
 30
0.0
 10
149.0797
 20
-201.2507
 30
0.0
 10
149.0797
 20
-201.2507
 30
0.0
 10
152.4455
 20
-187.5984
 30
0.0
 10
162.3902
 20
-180.5284
 30
0.0
 10
179.7069
 20
-180.832
 30
0.0
 10
179.7069
 20
-180.832
 30
0.0
 10
179.677
 20
-174.7391
 30
0.0
 10
174.3969
 20
-173.8881
 30
0.0
 10
173.5808
 20
-168.5782
 30
0.0
 10
173.5808
 20
-168.5782
 30
0.0
 10
158.1386
 20
-170.8358
 30
0.0
 10
149.7034
 20
-180.0889
 30
0.0
 10
144.994
 20
-193.0842
 30
0.0
 10
144.994
 20
-193.0842
 30
0.0
 10
98.08030000000001
 20
-153.8178
 30
0.0
 10
38.1497
 20
-226.1167
 30
0.0
 10
79.6622
 20
-270.6698
 30
0.0
 10
79.6622
 20
-270.6698
 30
0.0
 10
11.391
 20
-313.6155
 30
0.0
 10
103.9327
 20
-390.3436
 30
0.0
 10
151.1201
 20
-338.0469
 30
0.0
 10
151.1201
 20
-338.0469
 30
0.0
 10
164.1038
 20
-362.4667
 30
0.0
 10
224.0195
 20
-359.3813
 30
0.0
 10
226.6653
 20
-327.8401
 30
0.0
  0
SPLINE
  5
55
330
1F
100
AcDbEntity
  8
layer 1
100
AcDbSpline
210
0.0
220
0.0
230
1.0
 70
    11
 71
     3
 72
    12
 73
     8
 74
     0
 42
0.0000000001
 43
0.0000000001
 40
0.0
 40
0.0
 40
0.0
 40
0.0
 40
0.5
 40
0.5
 40
0.5
 40
0.5
 40
1.0
 40
1.0
 40
1.0
 40
1.0
 10
526.8043
 20
-325.8014
 30
0.0
 10
522.8032000000001
 20
-330.5954
 30
0.0
 10
526.7247
 20
-344.8432
 30
0.0
 10
534.9708000000001
 20
-344.173
 30
0.0
 10
534.9708000000001
 20
-344.173
 30
0.0
 10
534.3653000000001
 20
-335.9336
 30
0.0
 10
533.2107
 20
-328.2465
 30
0.0
 10
526.8043
 20
-325.8014
 30
0.0
  0
SPLINE
  5
56
330
1F
100
AcDbEntity
  8
layer 1
100
AcDbSpline
210
0.0
220
0.0
230
1.0
 70
    11
 71
     3
 72
    12
 73
     8
 74
     0
 42
0.0000000001
 43
0.0000000001
 40
0.0
 40
0.0
 40
0.0
 40
0.0
 40
0.5
 40
0.5
 40
0.5
 40
0.5
 40
1.0
 40
1.0
 40
1.0
 40
1.0
 10
518.6378
 20
-323.7594
 30
0.0
 10
508.7744
 20
-322.3145
 30
0.0
 10
514.5919
 20
-342.9571
 30
0.0
 10
520.6782000000001
 20
-344.173
 30
0.0
 10
520.6782000000001
 20
-344.173
 30
0.0
 10
518.5632000000001
 20
-338.8017
 30
0.0
 10
518.2380000000001
 20
-331.6405
 30
0.0
 10
518.6378
 20
-323.7594
 30
0.0
  0
SPLINE
  5
57
330
1F
100
AcDbEntity
  8
layer 1
100
AcDbSpline
210
0.0
220
0.0
230
1.0
 70
    11
 71
     3
 72
    12
 73
     8
 74
     0
 42
0.0000000001
 43
0.0000000001
 40
0.0
 40
0.0
 40
0.0
 40
0.0
 40
0.5
 40
0.5
 40
0.5
 40
0.5
 40
1.0
 40
1.0
 40
1.0
 40
1.0
 10
504.3502
 20
-329.8805
 30
0.0
 10
504.8927000000001
 20
-335.9668
 30
0.0
 10
498.6305
 20
-342.3168
 30
0.0
 10
506.3856
 20
-344.173
 30
0.0
 10
506.3856
 20
-344.173
 30
0.0
 10
509.637
 20
-340.9566
 30
0.0
 10
506.9629000000001
 20
-333.2363
 30
0.0
 10
504.3502
 20
-329.8805
 30
0.0
  0
SPLINE
  5
58
330
1F
100
AcDbEntity
  8
layer 1
100
AcDbSpline
210
0.0
220
0.0
230
1.0
 70
    11
 71
     3
 72
    12
 73
     8
 74
     0
 42
0.0000000001
 43
0.0000000001
 40
0.0
 40
0.0
 40
0.0
 40
0.0
 40
0.5
 40
0.5
 40
0.5
 40
0.5
 40
1.0
 40
1.0
 40
1.0
 40
1.0
 10
447.1733
 20
-323.7594
 30
0.0
 10
449.499
 20
-330.1326
 30
0.0
 10
437.9319
 20
-338.173
 30
0.0
 10
447.1733
 20
-342.1343
 30
0.0
 10
447.1733
 20
-342.1343
 30
0.0
 10
448.0077
 20
-338.0353
 30
0.0
 10
452.2311
 20
-326.9891
 30
0.0
 10
447.1733
 20
-323.7594
 30
0.0
  0
SPLINE
  5
59
330
1F
100
AcDbEntity
  8
layer 1
100
AcDbSpline
210
0.0
220
0.0
230
1.0
 70
    11
 71
     3
 72
    12
 73
     8
 74
     0
 42
0.0000000001
 43
0.0000000001
 40
0.0
 40
0.0
 40
0.0
 40
0.0
 40
0.5
 40
0.5
 40
0.5
 40
0.5
 40
1.0
 40
1.0
 40
1.0
 40
1.0
 10
459.4322
 20
-329.8805
 30
0.0
 10
453.1518
 20
-326.7552
 30
0.0
 10
453.1518
 20
-343.2142
 30
0.0
 10
459.4322
 20
-340.094
 30
0.0
 10
459.4322
 20
-340.094
 30
0.0
 10
459.4322
 20
-336.6867
 30
0.0
 10
459.4322
 20
-333.2811
 30
0.0
 10
459.4322
 20
-329.8805
 30
0.0
  0
SPLINE
  5
5A
330
1F
100
AcDbEntity
  8
layer 1
100
AcDbSpline
210
0.0
220
0.0
230
1.0
 70
    11
 71
     3
 72
    12
 73
     8
 74
     0
 42
0.0000000001
 43
0.0000000001
 40
0.0
 40
0.0
 40
0.0
 40
0.0
 40
0.5
 40
0.5
 40
0.5
 40
0.5
 40
1.0
 40
1.0
 40
1.0
 40
1.0
 10
537.0111000000001
 20
-313.5475
 30
0.0
 10
530.9879000000001
 20
-318.4229
 30
0.0
 10
536.1933
 20
-335.8755
 30
0.0
 10
545.1776
 20
-338.0469
 30
0.0
 10
545.1776
 20
-338.0469
 30
0.0
 10
547.1102000000001
 20
-332.4583
 30
0.0
 10
540.6573000000001
 20
-320.1199
 30
0.0
 10
537.0111000000001
 20
-313.5475
 30
0.0
  0
SPLINE
  5
5B
330
1F
100
AcDbEntity
  8
layer 1
100
AcDbSpline
210
0.0
220
0.0
230
1.0
 70
    11
 71
     3
 72
    12
 73
     8
 74
     0
 42
0.0000000001
 43
0.0000000001
 40
0.0
 40
0.0
 40
0.0
 40
0.0
 40
0.5
 40
0.5
 40
0.5
 40
0.5
 40
1.0
 40
1.0
 40
1.0
 40
1.0
 10
232.7914
 20
-327.8401
 30
0.0
 10
231.8376
 20
-334.2349
 30
0.0
 10
237.9239
 20
-333.5963
 30
0.0
 10
240.9645
 20
-336.0066
 30
0.0
 10
240.9645
 20
-336.0066
 30
0.0
 10
241.8437
 20
-329.1489
 30
0.0
 10
236.6499
 20
-323.9485
 30
0.0
 10
232.7914
 20
-327.8401
 30
0.0
  0
SPLINE
  5
5C
330
1F
100
AcDbEntity
  8
layer 1
100
AcDbSpline
210
0.0
220
0.0
230
1.0
 70
    11
 71
     3
 72
    12
 73
     8
 74
     0
 42
0.0000000001
 43
0.0000000001
 40
0.0
 40
0.0
 40
0.0
 40
0.0
 40
0.5
 40
0.5
 40
0.5
 40
0.5
 40
1.0
 40
1.0
 40
1.0
 40
1.0
 10
189.9137
 20
-317.6283
 30
0.0
 10
186.8266
 20
-322.7143
 30
0.0
 10
190.136
 20
-335.5222
 30
0.0
 10
198.0802
 20
-336.0066
 30
0.0
 10
198.0802
 20
-336.0066
 30
0.0
 10
200.6116
 20
-331.4746
 30
0.0
 10
195.6848
 20
-320.2907
 30
0.0
 10
189.9137
 20
-317.6283
 30
0.0
  0
SPLINE
  5
5D
330
1F
100
AcDbEntity
  8
layer 1
100
AcDbSpline
210
0.0
220
0.0
230
1.0
 70
    11
 71
     3
 72
    12
 73
     8
 74
     0
 42
0.0000000001
 43
0.0000000001
 40
0.0
 40
0.0
 40
0.0
 40
0.0
 40
0.5
 40
0.5
 40
0.5
 40
0.5
 40
1.0
 40
1.0
 40
1.0
 40
1.0
 10
177.6665
 20
-315.5879
 30
0.0
 10
176.1752
 20
-319.0731
 30
0.0
 10
177.2485
 20
-334.1105
 30
0.0
 10
183.786
 20
-336.0066
 30
0.0
 10
183.786
 20
-336.0066
 30
0.0
 10
183.8954
 20
-327.0522
 30
0.0
 10
185.2159
 20
-316.8851
 30
0.0
 10
177.6665
 20
-315.5879
 30
0.0
  0
SPLINE
  5
5E
330
1F
100
AcDbEntity
  8
layer 1
100
AcDbSpline
210
0.0
220
0.0
230
1.0
 70
    11
 71
     3
 72
    12
 73
     8
 74
     0
 42
0.0000000001
 43
0.0000000001
 40
0.0
 40
0.0
 40
0.0
 40
0.0
 40
0.5
 40
0.5
 40
0.5
 40
0.5
 40
1.0
 40
1.0
 40
1.0
 40
1.0
 10
416.5528000000001
 20
-323.7594
 30
0.0
 10
410.8099
 20
-323.4574
 30
0.0
 10
410.6606
 20
-328.7541
 30
0.0
 10
410.4201000000001
 20
-333.9679
 30
0.0
 10
410.4201000000001
 20
-333.9679
 30
0.0
 10
416.8049
 20
-334.8985
 30
0.0
 10
416.9542
 20
-329.6018
 30
0.0
 10
416.5528000000001
 20
-323.7594
 30
0.0
  0
SPLINE
  5
5F
330
1F
100
AcDbEntity
  8
layer 1
100
AcDbSpline
210
0.0
220
0.0
230
1.0
 70
    11
 71
     3
 72
    12
 73
     8
 74
     0
 42
0.0000000001
 43
0.0000000001
 40
0.0
 40
0.0
 40
0.0
 40
0.0
 40
0.5
 40
0.5
 40
0.5
 40
0.5
 40
1.0
 40
1.0
 40
1.0
 40
1.0
 10
171.5338
 20
-333.9679
 30
0.0
 10
172.9803
 20
-308.581
 30
0.0
 10
158.7723
 20
-328.2067
 30
0.0
 10
171.5338
 20
-333.9679
 30
0.0
 10
171.5338
 20
-333.9679
 30
0.0
 10
171.5338
 20
-333.9679
 30
0.0
 10
171.5338
 20
-333.9679
 30
0.0
 10
171.5338
 20
-333.9679
 30
0.0
  0
SPLINE
  5
60
330
1F
100
AcDbEntity
  8
layer 1
100
AcDbSpline
210
0.0
220
0.0
230
1.0
 70
    11
 71
     3
 72
    12
 73
     8
 74
     0
 42
0.0000000001
 43
0.0000000001
 40
0.0
 40
0.0
 40
0.0
 40
0.0
 40
0.5
 40
0.5
 40
0.5
 40
0.5
 40
1.0
 40
1.0
 40
1.0
 40
1.0
 10
110.2877
 20
-315.5879
 30
0.0
 10
112.2485
 20
-322.4688
 30
0.0
 10
104.0306
 20
-329.5371
 30
0.0
 10
110.2877
 20
-333.9679
 30
0.0
 10
110.2877
 20
-333.9679
 30
0.0
 10
112.2833
 20
-328.1039
 30
0.0
 10
117.0259
 20
-319.0333
 30
0.0
 10
110.2877
 20
-315.5879
 30
0.0
  0
SPLINE
  5
61
330
1F
100
AcDbEntity
  8
layer 1
100
AcDbSpline
210
0.0
220
0.0
230
1.0
 70
    11
 71
     3
 72
    16
 73
    12
 74
     0
 42
0.0000000001
 43
0.0000000001
 40
0.0
 40
0.0
 40
0.0
 40
0.0
 40
0.3333333333333333
 40
0.3333333333333333
 40
0.3333333333333333
 40
0.3333333333333333
 40
0.6666666666666666
 40
0.6666666666666666
 40
0.6666666666666666
 40
0.6666666666666666
 40
1.0
 40
1.0
 40
1.0
 40
1.0
 10
210.3324
 20
-325.8014
 30
0.0
 10
202.0116
 20
-323.9087
 30
0.0
 10
208.292
 20
-307.4264
 30
0.0
 10
198.0802
 20
-307.4214
 30
0.0
 10
198.0802
 20
-307.4214
 30
0.0
 10
196.4562
 20
-317.897
 30
0.0
 10
202.3766
 20
-320.8166
 30
0.0
 10
202.1659
 20
-329.8805
 30
0.0
 10
202.1659
 20
-329.8805
 30
0.0
 10
206.8239
 20
-330.4528
 30
0.0
 10
209.8414
 20
-329.3895
 30
0.0
 10
210.3324
 20
-325.8014
 30
0.0
  0
SPLINE
  5
62
330
1F
100
AcDbEntity
  8
layer 1
100
AcDbSpline
210
0.0
220
0.0
230
1.0
 70
    11
 71
     3
 72
    12
 73
     8
 74
     0
 42
0.0000000001
 43
0.0000000001
 40
0.0
 40
0.0
 40
0.0
 40
0.0
 40
0.5
 40
0.5
 40
0.5
 40
0.5
 40
1.0
 40
1.0
 40
1.0
 40
1.0
 10
481.8862
 20
-311.5022
 30
0.0
 10
482.5249
 20
-317.6797
 30
0.0
 10
479.6169
 20
-327.3839
 30
0.0
 10
485.9719
 20
-327.8401
 30
0.0
 10
485.9719
 20
-327.8401
 30
0.0
 10
484.2849000000001
 20
-322.7143
 30
0.0
 10
489.9382000000001
 20
-310.2564
 30
0.0
 10
481.8862
 20
-311.5022
 30
0.0
  0
SPLINE
  5
63
330
1F
100
AcDbEntity
  8
layer 1
100
AcDbSpline
210
0.0
220
0.0
230
1.0
 70
    11
 71
     3
 72
    12
 73
     8
 74
     0
 42
0.0000000001
 43
0.0000000001
 40
0.0
 40
0.0
 40
0.0
 40
0.0
 40
0.5
 40
0.5
 40
0.5
 40
0.5
 40
1.0
 40
1.0
 40
1.0
 40
1.0
 10
136.8275
 20
-315.5879
 30
0.0
 10
138.0683
 20
-319.7997
 30
0.0
 10
133.5364
 20
-329.7727
 30
0.0
 10
140.9132
 20
-327.8401
 30
0.0
 10
140.9132
 20
-327.8401
 30
0.0
 10
139.6791
 20
-323.6283
 30
0.0
 10
144.211
 20
-313.657
 30
0.0
 10
136.8275
 20
-315.5879
 30
0.0
  0
SPLINE
  5
64
330
1F
100
AcDbEntity
  8
layer 1
100
AcDbSpline
210
0.0
220
0.0
230
1.0
 70
    11
 71
     3
 72
    12
 73
     8
 74
     0
 42
0.0000000001
 43
0.0000000001
 40
0.0
 40
0.0
 40
0.0
 40
0.0
 40
0.5
 40
0.5
 40
0.5
 40
0.5
 40
1.0
 40
1.0
 40
1.0
 40
1.0
 10
79.6622
 20
-325.8014
 30
0.0
 10
82.02770000000001
 20
-327.515
 30
0.0
 10
85.13640000000001
 20
-328.4871
 30
0.0
 10
89.8691
 20
-327.8401
 30
0.0
 10
89.8691
 20
-327.8401
 30
0.0
 10
93.4687
 20
-318.7032
 30
0.0
 10
79.0617
 20
-320.4914
 30
0.0
 10
79.6622
 20
-325.8014
 30
0.0
  0
SPLINE
  5
65
330
1F
100
AcDbEntity
  8
layer 1
100
AcDbSpline
210
0.0
220
0.0
230
1.0
 70
    11
 71
     3
 72
    12
 73
     8
 74
     0
 42
0.0000000001
 43
0.0000000001
 40
0.0
 40
0.0
 40
0.0
 40
0.0
 40
0.5
 40
0.5
 40
0.5
 40
0.5
 40
1.0
 40
1.0
 40
1.0
 40
1.0
 10
424.7193
 20
-319.6687
 30
0.0
 10
423.5315
 20
-326.9891
 30
0.0
 10
430.7541
 20
-325.881
 30
0.0
 10
436.9665
 20
-325.8014
 30
0.0
 10
436.9665
 20
-325.8014
 30
0.0
 10
437.1606
 20
-319.4795
 30
0.0
 10
430.8006
 20
-319.7134
 30
0.0
 10
424.7193
 20
-319.6687
 30
0.0
  0
SPLINE
  5
66
330
1F
100
AcDbEntity
  8
layer 1
100
AcDbSpline
210
0.0
220
0.0
230
1.0
 70
    11
 71
     3
 72
    12
 73
     8
 74
     0
 42
0.0000000001
 43
0.0000000001
 40
0.0
 40
0.0
 40
0.0
 40
0.0
 40
0.5
 40
0.5
 40
0.5
 40
0.5
 40
1.0
 40
1.0
 40
1.0
 40
1.0
 10
144.994
 20
-303.3357
 30
0.0
 10
145.5995
 20
-310.2216
 30
0.0
 10
146.0175
 20
-317.2849
 30
0.0
 10
149.0797
 20
-321.714
 30
0.0
 10
149.0797
 20
-321.714
 30
0.0
 10
150.7833
 20
-318.9885
 30
0.0
 10
151.4684
 20
-304.2033
 30
0.0
 10
144.994
 20
-303.3357
 30
0.0
  0
SPLINE
  5
67
330
1F
100
AcDbEntity
  8
layer 1
100
AcDbSpline
210
0.0
220
0.0
230
1.0
 70
    11
 71
     3
 72
    16
 73
    12
 74
     0
 42
0.0000000001
 43
0.0000000001
 40
0.0
 40
0.0
 40
0.0
 40
0.0
 40
0.3333333333333333
 40
0.3333333333333333
 40
0.3333333333333333
 40
0.3333333333333333
 40
0.6666666666666666
 40
0.6666666666666666
 40
0.6666666666666666
 40
0.6666666666666666
 40
1.0
 40
1.0
 40
1.0
 40
1.0
 10
516.5925
 20
-280.8817
 30
0.0
 10
485.5307
 20
-288.8192
 30
0.0
 10
529.3871
 20
-346.2648
 30
0.0
 10
526.8043
 20
-301.2953
 30
0.0
 10
526.8043
 20
-301.2953
 30
0.0
 10
535.6907
 20
-301.1925
 30
0.0
 10
536.1933
 20
-304.3642
 30
0.0
 10
541.0969
 20
-299.255
 30
0.0
 10
541.0969
 20
-299.255
 30
0.0
 10
537.6631
 20
-288.3232
 30
0.0
 10
529.49
 20
-277.5839
 30
0.0
 10
516.5925
 20
-280.8817
 30
0.0
  0
SPLINE
  5
68
330
1F
100
AcDbEntity
  8
layer 1
100
AcDbSpline
210
0.0
220
0.0
230
1.0
 70
    11
 71
     3
 72
    16
 73
    12
 74
     0
 42
0.0000000001
 43
0.0000000001
 40
0.0
 40
0.0
 40
0.0
 40
0.0
 40
0.3333333333333333
 40
0.3333333333333333
 40
0.3333333333333333
 40
0.3333333333333333
 40
0.6666666666666666
 40
0.6666666666666666
 40
0.6666666666666666
 40
0.6666666666666666
 40
1.0
 40
1.0
 40
1.0
 40
1.0
 10
467.5986
 20
-284.9624
 30
0.0
 10
450.7846
 20
-285.1681
 30
0.0
 10
438.8177
 20
-290.2193
 30
0.0
 10
439.0068
 20
-307.4214
 30
0.0
 10
439.0068
 20
-307.4214
 30
0.0
 10
446.4982
 20
-309.4552
 30
0.0
 10
456.0481
 20
-309.4336
 30
0.0
 10
455.3464
 20
-319.6687
 30
0.0
 10
455.3464
 20
-319.6687
 30
0.0
 10
478.5072
 20
-323.0062
 30
0.0
 10
479.8392
 20
-294.723
 30
0.0
 10
467.5986
 20
-284.9624
 30
0.0
  0
SPLINE
  5
69
330
1F
100
AcDbEntity
  8
layer 1
100
AcDbSpline
210
0.0
220
0.0
230
1.0
 70
    11
 71
     3
 72
    12
 73
     8
 74
     0
 42
0.0000000001
 43
0.0000000001
 40
0.0
 40
0.0
 40
0.0
 40
0.0
 40
0.5
 40
0.5
 40
0.5
 40
0.5
 40
1.0
 40
1.0
 40
1.0
 40
1.0
 10
226.6653
 20
-309.4618
 30
0.0
 10
226.2655
 20
-315.3076
 30
0.0
 10
226.4082
 20
-320.6059
 30
0.0
 10
232.7914
 20
-319.6687
 30
0.0
 10
232.7914
 20
-319.6687
 30
0.0
 10
232.5509
 20
-314.4682
 30
0.0
 10
232.4082
 20
-309.1649
 30
0.0
 10
226.6653
 20
-309.4618
 30
0.0
  0
SPLINE
  5
6A
330
1F
100
AcDbEntity
  8
layer 1
100
AcDbSpline
210
0.0
220
0.0
230
1.0
 70
    11
 71
     3
 72
    12
 73
     8
 74
     0
 42
0.0000000001
 43
0.0000000001
 40
0.0
 40
0.0
 40
0.0
 40
0.0
 40
0.5
 40
0.5
 40
0.5
 40
0.5
 40
1.0
 40
1.0
 40
1.0
 40
1.0
 10
100.0809
 20
-317.6283
 30
0.0
 10
98.73220000000001
 20
-311.4226
 30
0.0
 10
79.0899
 20
-304.2497
 30
0.0
 10
75.57650000000001
 20
-313.5475
 30
0.0
 10
75.57650000000001
 20
-313.5475
 30
0.0
 10
82.3595
 20
-315.777
 30
0.0
 10
94.29820000000001
 20
-320.8862
 30
0.0
 10
100.0809
 20
-317.6283
 30
0.0
  0
SPLINE
  5
6B
330
1F
100
AcDbEntity
  8
layer 1
100
AcDbSpline
210
0.0
220
0.0
230
1.0
 70
    11
 71
     3
 72
    12
 73
     8
 74
     0
 42
0.0000000001
 43
0.0000000001
 40
0.0
 40
0.0
 40
0.0
 40
0.0
 40
0.5
 40
0.5
 40
0.5
 40
0.5
 40
1.0
 40
1.0
 40
1.0
 40
1.0
 10
418.5882
 20
-305.3811
 30
0.0
 10
416.9924
 20
-306.7994
 30
0.0
 10
414.0496
 20
-316.7707
 30
0.0
 10
418.5882
 20
-317.6283
 30
0.0
 10
418.5882
 20
-317.6283
 30
0.0
 10
420.1939
 20
-316.2116
 30
0.0
 10
423.1367
 20
-306.232
 30
0.0
 10
418.5882
 20
-305.3811
 30
0.0
  0
SPLINE
  5
6C
330
1F
100
AcDbEntity
  8
layer 1
100
AcDbSpline
210
0.0
220
0.0
230
1.0
 70
    11
 71
     3
 72
    20
 73
    16
 74
     0
 42
0.0000000001
 43
0.0000000001
 40
0.0
 40
0.0
 40
0.0
 40
0.0
 40
0.25
 40
0.25
 40
0.25
 40
0.25
 40
0.5
 40
0.5
 40
0.5
 40
0.5
 40
0.75
 40
0.75
 40
0.75
 40
0.75
 40
1.0
 40
1.0
 40
1.0
 40
1.0
 10
191.9524
 20
-293.1289
 30
0.0
 10
196.8792
 20
-292.2945
 30
0.0
 10
196.3998
 20
-296.8596
 30
0.0
 10
202.1659
 20
-295.1692
 30
0.0
 10
202.1659
 20
-295.1692
 30
0.0
 10
207.1258
 20
-281.9616
 30
0.0
 10
192.8913
 20
-274.1783
 30
0.0
 10
179.7069
 20
-272.7152
 30
0.0
 10
179.7069
 20
-272.7152
 30
0.0
 10
162.6474
 20
-282.2535
 30
0.0
 10
166.7845
 20
-310.5301
 30
0.0
 10
189.9137
 20
-311.5022
 30
0.0
 10
189.9137
 20
-311.5022
 30
0.0
 10
194.5303
 20
-304.9415
 30
0.0
 10
188.1189
 20
-297.9694
 30
0.0
 10
191.9524
 20
-293.1289
 30
0.0
  0
SPLINE
  5
6D
330
1F
100
AcDbEntity
  8
layer 1
100
AcDbSpline
210
0.0
220
0.0
230
1.0
 70
    11
 71
     3
 72
    20
 73
    16
 74
     0
 42
0.0000000001
 43
0.0000000001
 40
0.0
 40
0.0
 40
0.0
 40
0.0
 40
0.25
 40
0.25
 40
0.25
 40
0.25
 40
0.5
 40
0.5
 40
0.5
 40
0.5
 40
0.75
 40
0.75
 40
0.75
 40
0.75
 40
1.0
 40
1.0
 40
1.0
 40
1.0
 10
140.9132
 20
-291.0819
 30
0.0
 10
134.8618
 20
-268.2977
 30
0.0
 10
94.52040000000001
 20
-278.1562
 30
0.0
 10
104.1616
 20
-303.3357
 30
0.0
 10
104.1616
 20
-303.3357
 30
0.0
 10
110.4022
 20
-304.8154
 30
0.0
 10
110.1683
 20
-299.8157
 30
0.0
 10
116.4138
 20
-301.2953
 30
0.0
 10
116.4138
 20
-301.2953
 30
0.0
 10
115.7636
 20
-306.033
 30
0.0
 10
116.7406
 20
-309.1367
 30
0.0
 10
118.4542
 20
-311.5022
 30
0.0
 10
118.4542
 20
-311.5022
 30
0.0
 10
134.5649
 20
-313.3302
 30
0.0
 10
138.4283
 20
-302.8961
 30
0.0
 10
140.9132
 20
-291.0819
 30
0.0
  0
SPLINE
  5
6E
330
1F
100
AcDbEntity
  8
layer 1
100
AcDbSpline
210
0.0
220
0.0
230
1.0
 70
    11
 71
     3
 72
    12
 73
     8
 74
     0
 42
0.0000000001
 43
0.0000000001
 40
0.0
 40
0.0
 40
0.0
 40
0.0
 40
0.5
 40
0.5
 40
0.5
 40
0.5
 40
1.0
 40
1.0
 40
1.0
 40
1.0
 10
567.6366
 20
-297.2146
 30
0.0
 10
558.7735
 20
-297.261
 30
0.0
 10
544.4925000000001
 20
-302.5527
 30
0.0
 10
547.2230000000001
 20
-307.4214
 30
0.0
 10
547.2230000000001
 20
-307.4214
 30
0.0
 10
551.7217000000001
 20
-301.7117
 30
0.0
 10
566.9632
 20
-306.7479
 30
0.0
 10
567.6366
 20
-297.2146
 30
0.0
  0
SPLINE
  5
6F
330
1F
100
AcDbEntity
  8
layer 1
100
AcDbSpline
210
0.0
220
0.0
230
1.0
 70
    11
 71
     3
 72
    12
 73
     8
 74
     0
 42
0.0000000001
 43
0.0000000001
 40
0.0
 40
0.0
 40
0.0
 40
0.0
 40
0.5
 40
0.5
 40
0.5
 40
0.5
 40
1.0
 40
1.0
 40
1.0
 40
1.0
 10
73.53610000000001
 20
-301.2953
 30
0.0
 10
73.7816
 20
-309.8964
 30
0.0
 10
89.2055
 20
-303.3241
 30
0.0
 10
95.99520000000001
 20
-305.3811
 30
0.0
 10
95.99520000000001
 20
-305.3811
 30
0.0
 10
95.74300000000001
 20
-296.78
 30
0.0
 10
80.3241
 20
-303.3523
 30
0.0
 10
73.53610000000001
 20
-301.2953
 30
0.0
  0
SPLINE
  5
70
330
1F
100
AcDbEntity
  8
layer 1
100
AcDbSpline
210
0.0
220
0.0
230
1.0
 70
    11
 71
     3
 72
    12
 73
     8
 74
     0
 42
0.0000000001
 43
0.0000000001
 40
0.0
 40
0.0
 40
0.0
 40
0.0
 40
0.5
 40
0.5
 40
0.5
 40
0.5
 40
1.0
 40
1.0
 40
1.0
 40
1.0
 10
216.4585
 20
-293.1289
 30
0.0
 10
211.613
 20
-294.4095
 30
0.0
 10
206.955
 20
-295.8776
 30
0.0
 10
206.2516
 20
-301.2953
 30
0.0
 10
206.2516
 20
-301.2953
 30
0.0
 10
211.0971
 20
-300.0214
 30
0.0
 10
215.7502
 20
-298.5466
 30
0.0
 10
216.4585
 20
-293.1289
 30
0.0
  0
SPLINE
  5
71
330
1F
100
AcDbEntity
  8
layer 1
100
AcDbSpline
210
0.0
220
0.0
230
1.0
 70
    11
 71
     3
 72
    12
 73
     8
 74
     0
 42
0.0000000001
 43
0.0000000001
 40
0.0
 40
0.0
 40
0.0
 40
0.0
 40
0.5
 40
0.5
 40
0.5
 40
0.5
 40
1.0
 40
1.0
 40
1.0
 40
1.0
 10
230.7511
 20
-289.0481
 30
0.0
 10
224.4757
 20
-285.9229
 30
0.0
 10
224.4757
 20
-302.3752
 30
0.0
 10
230.7511
 20
-299.255
 30
0.0
 10
230.7511
 20
-299.255
 30
0.0
 10
230.7511
 20
-295.8543
 30
0.0
 10
230.7511
 20
-292.4487
 30
0.0
 10
230.7511
 20
-289.0481
 30
0.0
  0
SPLINE
  5
72
330
1F
100
AcDbEntity
  8
layer 1
100
AcDbSpline
210
0.0
220
0.0
230
1.0
 70
    11
 71
     3
 72
    12
 73
     8
 74
     0
 42
0.0000000001
 43
0.0000000001
 40
0.0
 40
0.0
 40
0.0
 40
0.0
 40
0.5
 40
0.5
 40
0.5
 40
0.5
 40
1.0
 40
1.0
 40
1.0
 40
1.0
 10
485.9719
 20
-252.2899
 30
0.0
 10
472.2666
 20
-257.6396
 30
0.0
 10
467.4609
 20
-278.133
 30
0.0
 10
477.8055
 20
-291.0819
 30
0.0
 10
477.8055
 20
-291.0819
 30
0.0
 10
512.7738000000001
 20
-306.4212
 30
0.0
 10
517.9411
 20
-251.4621
 30
0.0
 10
485.9719
 20
-252.2899
 30
0.0
  0
SPLINE
  5
73
330
1F
100
AcDbEntity
  8
layer 1
100
AcDbSpline
210
0.0
220
0.0
230
1.0
 70
    11
 71
     3
 72
    12
 73
     8
 74
     0
 42
0.0000000001
 43
0.0000000001
 40
0.0
 40
0.0
 40
0.0
 40
0.0
 40
0.5
 40
0.5
 40
0.5
 40
0.5
 40
1.0
 40
1.0
 40
1.0
 40
1.0
 10
445.1329
 20
-284.9624
 30
0.0
 10
447.5383000000001
 20
-276.2402
 30
0.0
 10
429.0007
 20
-276.7727
 30
0.0
 10
428.8
 20
-282.9154
 30
0.0
 10
428.8
 20
-282.9154
 30
0.0
 10
436.7541
 20
-281.3445
 30
0.0
 10
439.39
 20
-290.4664
 30
0.0
 10
445.1329
 20
-284.9624
 30
0.0
  0
SPLINE
  5
74
330
1F
100
AcDbEntity
  8
layer 1
100
AcDbSpline
210
0.0
220
0.0
230
1.0
 70
    11
 71
     3
 72
    12
 73
     8
 74
     0
 42
0.0000000001
 43
0.0000000001
 40
0.0
 40
0.0
 40
0.0
 40
0.0
 40
0.5
 40
0.5
 40
0.5
 40
0.5
 40
1.0
 40
1.0
 40
1.0
 40
1.0
 10
147.0344
 20
-246.1688
 30
0.0
 10
116.4254
 20
-253.9587
 30
0.0
 10
149.7366
 20
-312.1823
 30
0.0
 10
171.5338
 20
-274.7489
 30
0.0
 10
171.5338
 20
-274.7489
 30
0.0
 10
175.442
 20
-253.456
 30
0.0
 10
160.6302
 20
-242.7117
 30
0.0
 10
147.0344
 20
-246.1688
 30
0.0
  0
SPLINE
  5
75
330
1F
100
AcDbEntity
  8
layer 1
100
AcDbSpline
210
0.0
220
0.0
230
1.0
 70
    11
 71
     3
 72
    12
 73
     8
 74
     0
 42
0.0000000001
 43
0.0000000001
 40
0.0
 40
0.0
 40
0.0
 40
0.0
 40
0.5
 40
0.5
 40
0.5
 40
0.5
 40
1.0
 40
1.0
 40
1.0
 40
1.0
 10
98.04050000000001
 20
-282.9154
 30
0.0
 10
95.91550000000001
 20
-280.7672
 30
0.0
 10
83.456
 20
-278.7036
 30
0.0
 10
81.7026
 20
-282.9154
 30
0.0
 10
81.7026
 20
-282.9154
 30
0.0
 10
86.57130000000001
 20
-284.0351
 30
0.0
 10
96.4978
 20
-290.5228
 30
0.0
 10
98.04050000000001
 20
-282.9154
 30
0.0
  0
SPLINE
  5
76
330
1F
100
AcDbEntity
  8
layer 1
100
AcDbSpline
210
0.0
220
0.0
230
1.0
 70
    11
 71
     3
 72
    12
 73
     8
 74
     0
 42
0.0000000001
 43
0.0000000001
 40
0.0
 40
0.0
 40
0.0
 40
0.0
 40
0.5
 40
0.5
 40
0.5
 40
0.5
 40
1.0
 40
1.0
 40
1.0
 40
1.0
 10
234.8318
 20
-272.7152
 30
0.0
 10
230.6548
 20
-274.2579
 30
0.0
 10
224.5735
 20
-282.796
 30
0.0
 10
232.7914
 20
-284.9624
 30
0.0
 10
232.7914
 20
-284.9624
 30
0.0
 10
233.2609
 20
-281.7907
 30
0.0
 10
240.6377
 20
-275.4357
 30
0.0
 10
234.8318
 20
-272.7152
 30
0.0
  0
SPLINE
  5
77
330
1F
100
AcDbEntity
  8
layer 1
100
AcDbSpline
210
0.0
220
0.0
230
1.0
 70
    11
 71
     3
 72
    20
 73
    16
 74
     0
 42
0.0000000001
 43
0.0000000001
 40
0.0
 40
0.0
 40
0.0
 40
0.0
 40
0.25
 40
0.25
 40
0.25
 40
0.25
 40
0.5
 40
0.5
 40
0.5
 40
0.5
 40
0.75
 40
0.75
 40
0.75
 40
0.75
 40
1.0
 40
1.0
 40
1.0
 40
1.0
 10
73.53610000000001
 20
-266.5824
 30
0.0
 10
69.3691
 20
-265.9836
 30
0.0
 10
69.53
 20
-261.0635
 30
0.0
 10
65.36960000000001
 20
-260.4563
 30
0.0
 10
65.36960000000001
 20
-260.4563
 30
0.0
 10
58.0077
 20
-262.6278
 30
0.0
 10
66.7
 20
-280.8468
 30
0.0
 10
53.1158
 20
-276.7959
 30
0.0
 10
53.1158
 20
-276.7959
 30
0.0
 10
53.1158
 20
-279.5164
 30
0.0
 10
53.1158
 20
-282.2419
 30
0.0
 10
53.1158
 20
-284.9624
 30
0.0
 10
53.1158
 20
-284.9624
 30
0.0
 10
60.6486
 20
-279.5678
 30
0.0
 10
68.22620000000001
 20
-274.2131
 30
0.0
 10
73.53610000000001
 20
-266.5824
 30
0.0
  0
SPLINE
  5
78
330
1F
100
AcDbEntity
  8
layer 1
100
AcDbSpline
210
0.0
220
0.0
230
1.0
 70
    11
 71
     3
 72
    16
 73
    12
 74
     0
 42
0.0000000001
 43
0.0000000001
 40
0.0
 40
0.0
 40
0.0
 40
0.0
 40
0.3333333333333333
 40
0.3333333333333333
 40
0.3333333333333333
 40
0.3333333333333333
 40
0.6666666666666666
 40
0.6666666666666666
 40
0.6666666666666666
 40
0.6666666666666666
 40
1.0
 40
1.0
 40
1.0
 40
1.0
 10
420.6335
 20
-280.8817
 30
0.0
 10
422.6905
 20
-274.739
 30
0.0
 10
416.085
 20
-277.2587
 30
0.0
 10
412.4671
 20
-276.7959
 30
0.0
 10
412.4671
 20
-276.7959
 30
0.0
 10
412.4671
 20
-278.8363
 30
0.0
 10
412.4671
 20
-280.8817
 30
0.0
 10
412.4671
 20
-282.9154
 30
0.0
 10
412.4671
 20
-282.9154
 30
0.0
 10
416.0220000000001
 20
-283.0763
 30
0.0
 10
418.8154
 20
-282.4642
 30
0.0
 10
420.6335
 20
-280.8817
 30
0.0
  0
SPLINE
  5
79
330
1F
100
AcDbEntity
  8
layer 1
100
AcDbSpline
210
0.0
220
0.0
230
1.0
 70
    11
 71
     3
 72
    12
 73
     8
 74
     0
 42
0.0000000001
 43
0.0000000001
 40
0.0
 40
0.0
 40
0.0
 40
0.0
 40
0.5
 40
0.5
 40
0.5
 40
0.5
 40
1.0
 40
1.0
 40
1.0
 40
1.0
 10
555.3894
 20
-270.6698
 30
0.0
 10
547.7604
 20
-270.5205
 30
0.0
 10
543.6979
 20
-273.956
 30
0.0
 10
541.0969
 20
-278.8363
 30
0.0
 10
541.0969
 20
-278.8363
 30
0.0
 10
549.0294
 20
-279.2759
 30
0.0
 10
553.9097
 20
-276.6699
 30
0.0
 10
555.3894
 20
-270.6698
 30
0.0
  0
SPLINE
  5
7A
330
1F
100
AcDbEntity
  8
layer 1
100
AcDbSpline
210
0.0
220
0.0
230
1.0
 70
    11
 71
     3
 72
    12
 73
     8
 74
     0
 42
0.0000000001
 43
0.0000000001
 40
0.0
 40
0.0
 40
0.0
 40
0.0
 40
0.5
 40
0.5
 40
0.5
 40
0.5
 40
1.0
 40
1.0
 40
1.0
 40
1.0
 10
110.2877
 20
-272.7152
 30
0.0
 10
102.7151
 20
-274.1551
 30
0.0
 10
101.5208
 20
-269.2233
 30
0.0
 10
93.94810000000001
 20
-270.6698
 30
0.0
 10
93.94810000000001
 20
-270.6698
 30
0.0
 10
92.51490000000001
 20
-278.8247
 30
0.0
 10
111.0475
 20
-283.3848
 30
0.0
 10
110.2877
 20
-272.7152
 30
0.0
  0
SPLINE
  5
7B
330
1F
100
AcDbEntity
  8
layer 1
100
AcDbSpline
210
0.0
220
0.0
230
1.0
 70
    11
 71
     3
 72
    12
 73
     8
 74
     0
 42
0.0000000001
 43
0.0000000001
 40
0.0
 40
0.0
 40
0.0
 40
0.0
 40
0.5
 40
0.5
 40
0.5
 40
0.5
 40
1.0
 40
1.0
 40
1.0
 40
1.0
 10
218.4989
 20
-262.5017
 30
0.0
 10
210.1151
 20
-262.9645
 30
0.0
 10
205.8751
 20
-267.5661
 30
0.0
 10
202.1659
 20
-272.7152
 30
0.0
 10
202.1659
 20
-272.7152
 30
0.0
 10
209.0352
 20
-270.7378
 30
0.0
 10
216.9445
 20
-269.794
 30
0.0
 10
218.4989
 20
-262.5017
 30
0.0
  0
SPLINE
  5
7C
330
1F
100
AcDbEntity
  8
layer 1
100
AcDbSpline
210
0.0
220
0.0
230
1.0
 70
    11
 71
     3
 72
    12
 73
     8
 74
     0
 42
0.0000000001
 43
0.0000000001
 40
0.0
 40
0.0
 40
0.0
 40
0.0
 40
0.5
 40
0.5
 40
0.5
 40
0.5
 40
1.0
 40
1.0
 40
1.0
 40
1.0
 10
447.1733
 20
-264.5437
 30
0.0
 10
443.1506
 20
-260.7599
 30
0.0
 10
432.1376
 20
-261.5081
 30
0.0
 10
434.9261
 20
-270.6698
 30
0.0
 10
434.9261
 20
-270.6698
 30
0.0
 10
441.1501
 20
-270.766
 30
0.0
 10
445.3221
 20
-268.8169
 30
0.0
 10
447.1733
 20
-264.5437
 30
0.0
  0
SPLINE
  5
7D
330
1F
100
AcDbEntity
  8
layer 1
100
AcDbSpline
210
0.0
220
0.0
230
1.0
 70
    11
 71
     3
 72
    16
 73
    12
 74
     0
 42
0.0000000001
 43
0.0000000001
 40
0.0
 40
0.0
 40
0.0
 40
0.0
 40
0.3333333333333333
 40
0.3333333333333333
 40
0.3333333333333333
 40
0.3333333333333333
 40
0.6666666666666666
 40
0.6666666666666666
 40
0.6666666666666666
 40
0.6666666666666666
 40
1.0
 40
1.0
 40
1.0
 40
1.0
 10
222.5846
 20
-252.2899
 30
0.0
 10
238.0599
 20
-253.6103
 30
0.0
 10
228.6941
 20
-267.6574
 30
0.0
 10
240.9645
 20
-270.6698
 30
0.0
 10
240.9645
 20
-270.6698
 30
0.0
 10
242.0262
 20
-267.6458
 30
0.0
 10
243.982
 20
-265.5208
 30
0.0
 10
245.0453
 20
-262.5017
 30
0.0
 10
245.0453
 20
-262.5017
 30
0.0
 10
236.5802
 20
-261.3372
 30
0.0
 10
229.5119
 20
-241.9752
 30
0.0
 10
222.5846
 20
-252.2899
 30
0.0
  0
SPLINE
  5
7E
330
1F
100
AcDbEntity
  8
layer 1
100
AcDbSpline
210
0.0
220
0.0
230
1.0
 70
    11
 71
     3
 72
    36
 73
    32
 74
     0
 42
0.0000000001
 43
0.0000000001
 40
0.0
 40
0.0
 40
0.0
 40
0.0
 40
0.125
 40
0.125
 40
0.125
 40
0.125
 40
0.25
 40
0.25
 40
0.25
 40
0.25
 40
0.375
 40
0.375
 40
0.375
 40
0.375
 40
0.5
 40
0.5
 40
0.5
 40
0.5
 40
0.625
 40
0.625
 40
0.625
 40
0.625
 40
0.75
 40
0.75
 40
0.75
 40
0.75
 40
0.875
 40
0.875
 40
0.875
 40
0.875
 40
1.0
 40
1.0
 40
1.0
 40
1.0
 10
583.9762000000001
 20
-262.5017
 30
0.0
 10
583.9762000000001
 20
-261.1431
 30
0.0
 10
583.9762000000001
 20
-259.7829
 30
0.0
 10
583.9762000000001
 20
-258.416
 30
0.0
 10
583.9762000000001
 20
-258.416
 30
0.0
 10
582.7304
 20
-258.3032
 30
0.0
 10
581.5527000000001
 20
-258.1074
 30
0.0
 10
581.9359000000001
 20
-256.3706
 30
0.0
 10
581.9359000000001
 20
-256.3706
 30
0.0
 10
580.5756
 20
-256.3706
 30
0.0
 10
579.2087
 20
-256.3706
 30
0.0
 10
577.8501
 20
-256.3706
 30
0.0
 10
577.8501
 20
-256.3706
 30
0.0
 10
577.7357000000001
 20
-257.623
 30
0.0
 10
577.5416
 20
-258.7942
 30
0.0
 10
575.8098
 20
-258.416
 30
0.0
 10
575.8098
 20
-258.416
 30
0.0
 10
575.8098
 20
-259.7829
 30
0.0
 10
575.8098
 20
-261.1431
 30
0.0
 10
575.8098
 20
-262.5017
 30
0.0
 10
575.8098
 20
-262.5017
 30
0.0
 10
577.0555000000001
 20
-262.6228
 30
0.0
 10
578.2267000000001
 20
-262.8119
 30
0.0
 10
577.8501
 20
-264.5437
 30
0.0
 10
577.8501
 20
-264.5437
 30
0.0
 10
579.2087
 20
-264.5437
 30
0.0
 10
580.5756
 20
-264.5437
 30
0.0
 10
581.9359000000001
 20
-264.5437
 30
0.0
 10
581.9359000000001
 20
-264.5437
 30
0.0
 10
582.0503
 20
-263.2963
 30
0.0
 10
582.2378
 20
-262.1318
 30
0.0
 10
583.9762000000001
 20
-262.5017
 30
0.0
  0
SPLINE
  5
7F
330
1F
100
AcDbEntity
  8
layer 1
100
AcDbSpline
210
0.0
220
0.0
230
1.0
 70
    11
 71
     3
 72
    12
 73
     8
 74
     0
 42
0.0000000001
 43
0.0000000001
 40
0.0
 40
0.0
 40
0.0
 40
0.0
 40
0.5
 40
0.5
 40
0.5
 40
0.5
 40
1.0
 40
1.0
 40
1.0
 40
1.0
 10
549.2633000000001
 20
-260.4563
 30
0.0
 10
543.3147
 20
-257.0391
 30
0.0
 10
525.5121
 20
-256.2794
 30
0.0
 10
524.7589
 20
-264.5437
 30
0.0
 10
524.7589
 20
-264.5437
 30
0.0
 10
532.8674
 20
-263.1204
 30
0.0
 10
547.3772
 20
-268.1036
 30
0.0
 10
549.2633000000001
 20
-260.4563
 30
0.0
  0
SPLINE
  5
80
330
1F
100
AcDbEntity
  8
layer 1
100
AcDbSpline
210
0.0
220
0.0
230
1.0
 70
    11
 71
     3
 72
    20
 73
    16
 74
     0
 42
0.0000000001
 43
0.0000000001
 40
0.0
 40
0.0
 40
0.0
 40
0.0
 40
0.25
 40
0.25
 40
0.25
 40
0.25
 40
0.5
 40
0.5
 40
0.5
 40
0.5
 40
0.75
 40
0.75
 40
0.75
 40
0.75
 40
1.0
 40
1.0
 40
1.0
 40
1.0
 10
459.4322
 20
-227.7971
 30
0.0
 10
455.431
 20
-231.6141
 30
0.0
 10
458.7968
 20
-235.2652
 30
0.0
 10
459.4322
 20
-240.0443
 30
0.0
 10
459.4322
 20
-240.0443
 30
0.0
 10
454.9334
 20
-243.7186
 30
0.0
 10
448.5684
 20
-245.5185
 30
0.0
 10
445.1329
 20
-250.2495
 30
0.0
 10
445.1329
 20
-250.2495
 30
0.0
 10
446.8416
 20
-260.113
 30
0.0
 10
456.4031
 20
-262.1318
 30
0.0
 10
465.5516
 20
-264.5437
 30
0.0
 10
465.5516
 20
-264.5437
 30
0.0
 10
477.8735
 20
-255.2443
 30
0.0
 10
479.1873000000001
 20
-230.4994
 30
0.0
 10
459.4322
 20
-227.7971
 30
0.0
  0
SPLINE
  5
81
330
1F
100
AcDbEntity
  8
layer 1
100
AcDbSpline
210
0.0
220
0.0
230
1.0
 70
    11
 71
     3
 72
    12
 73
     8
 74
     0
 42
0.0000000001
 43
0.0000000001
 40
0.0
 40
0.0
 40
0.0
 40
0.0
 40
0.5
 40
0.5
 40
0.5
 40
0.5
 40
1.0
 40
1.0
 40
1.0
 40
1.0
 10
110.2877
 20
-254.3352
 30
0.0
 10
102.7549
 20
-254.2838
 30
0.0
 10
96.22410000000001
 20
-255.2509
 30
0.0
 10
95.99520000000001
 20
-262.5017
 30
0.0
 10
95.99520000000001
 20
-262.5017
 30
0.0
 10
104.2811
 20
-263.3029
 30
0.0
 10
110.2197
 20
-261.7536
 30
0.0
 10
110.2877
 20
-254.3352
 30
0.0
  0
SPLINE
  5
82
330
1F
100
AcDbEntity
  8
layer 1
100
AcDbSpline
210
0.0
220
0.0
230
1.0
 70
    11
 71
     3
 72
    16
 73
    12
 74
     0
 42
0.0000000001
 43
0.0000000001
 40
0.0
 40
0.0
 40
0.0
 40
0.0
 40
0.3333333333333333
 40
0.3333333333333333
 40
0.3333333333333333
 40
0.3333333333333333
 40
0.6666666666666666
 40
0.6666666666666666
 40
0.6666666666666666
 40
0.6666666666666666
 40
1.0
 40
1.0
 40
1.0
 40
1.0
 10
532.9254000000001
 20
-240.0427
 30
0.0
 10
528.3586
 20
-234.6033
 30
0.0
 10
522.702
 20
-242.929
 30
0.0
 10
518.6378
 20
-238.0023
 30
0.0
 10
518.6378
 20
-238.0023
 30
0.0
 10
518.9066
 20
-232.9677
 30
0.0
 10
518.9464
 20
-228.162
 30
0.0
 10
516.5925
 20
-225.7551
 30
0.0
 10
516.5925
 20
-225.7551
 30
0.0
 10
475.8895
 20
-236.1792
 30
0.0
 10
525.9417
 20
-281.9616
 30
0.0
 10
532.9254000000001
 20
-240.0427
 30
0.0
  0
SPLINE
  5
83
330
1F
100
AcDbEntity
  8
layer 1
100
AcDbSpline
210
0.0
220
0.0
230
1.0
 70
    11
 71
     3
 72
    12
 73
     8
 74
     0
 42
0.0000000001
 43
0.0000000001
 40
0.0
 40
0.0
 40
0.0
 40
0.0
 40
0.5
 40
0.5
 40
0.5
 40
0.5
 40
1.0
 40
1.0
 40
1.0
 40
1.0
 10
212.3777
 20
-252.2899
 30
0.0
 10
204.8864
 20
-252.2899
 30
0.0
 10
197.4001
 20
-252.2899
 30
0.0
 10
189.9137
 20
-252.2899
 30
0.0
 10
189.9137
 20
-252.2899
 30
0.0
 10
190.5242
 20
-262.1832
 30
0.0
 10
211.0175
 20
-259.4113
 30
0.0
 10
212.3777
 20
-252.2899
 30
0.0
  0
SPLINE
  5
84
330
1F
100
AcDbEntity
  8
layer 1
100
AcDbSpline
210
0.0
220
0.0
230
1.0
 70
    11
 71
     3
 72
    12
 73
     8
 74
     0
 42
0.0000000001
 43
0.0000000001
 40
0.0
 40
0.0
 40
0.0
 40
0.0
 40
0.5
 40
0.5
 40
0.5
 40
0.5
 40
1.0
 40
1.0
 40
1.0
 40
1.0
 10
59.2435
 20
-248.2091
 30
0.0
 10
54.8708
 20
-252.3994
 30
0.0
 10
58.1802
 20
-257.925
 30
0.0
 10
63.3293
 20
-258.416
 30
0.0
 10
63.3293
 20
-258.416
 30
0.0
 10
63.6262
 20
-253.3532
 30
0.0
 10
63.7058
 20
-248.5127
 30
0.0
 10
59.2435
 20
-248.2091
 30
0.0
  0
SPLINE
  5
85
330
1F
100
AcDbEntity
  8
layer 1
100
AcDbSpline
210
0.0
220
0.0
230
1.0
 70
    11
 71
     3
 72
    16
 73
    12
 74
     0
 42
0.0000000001
 43
0.0000000001
 40
0.0
 40
0.0
 40
0.0
 40
0.0
 40
0.3333333333333333
 40
0.3333333333333333
 40
0.3333333333333333
 40
0.3333333333333333
 40
0.6666666666666666
 40
0.6666666666666666
 40
0.6666666666666666
 40
0.6666666666666666
 40
1.0
 40
1.0
 40
1.0
 40
1.0
 10
122.5399
 20
-221.6693
 30
0.0
 10
118.0876
 20
-225.9392
 30
0.0
 10
123.5584
 20
-227.4935
 30
0.0
 10
122.5399
 20
-233.9166
 30
0.0
 10
122.5399
 20
-233.9166
 30
0.0
 10
117.3909
 20
-236.2655
 30
0.0
 10
110.87
 20
-237.2259
 30
0.0
 10
108.2474
 20
-242.083
 30
0.0
 10
108.2474
 20
-242.083
 30
0.0
 10
124.723
 20
-281.8421
 30
0.0
 10
156.5262
 20
-221.4587
 30
0.0
 10
122.5399
 20
-221.6693
 30
0.0
  0
SPLINE
  5
86
330
1F
100
AcDbEntity
  8
layer 1
100
AcDbSpline
210
0.0
220
0.0
230
1.0
 70
    11
 71
     3
 72
    12
 73
     8
 74
     0
 42
0.0000000001
 43
0.0000000001
 40
0.0
 40
0.0
 40
0.0
 40
0.0
 40
0.5
 40
0.5
 40
0.5
 40
0.5
 40
1.0
 40
1.0
 40
1.0
 40
1.0
 10
102.1213
 20
-244.13
 30
0.0
 10
95.40130000000001
 20
-244.2097
 30
0.0
 10
91.96090000000001
 20
-247.5755
 30
0.0
 10
83.74300000000001
 20
-246.1688
 30
0.0
 10
83.74300000000001
 20
-246.1688
 30
0.0
 10
83.0728
 20
-256.9081
 30
0.0
 10
103.1099
 20
-252.1074
 30
0.0
 10
102.1213
 20
-244.13
 30
0.0
  0
SPLINE
  5
87
330
1F
100
AcDbEntity
  8
layer 1
100
AcDbSpline
210
0.0
220
0.0
230
1.0
 70
    11
 71
     3
 72
    12
 73
     8
 74
     0
 42
0.0000000001
 43
0.0000000001
 40
0.0
 40
0.0
 40
0.0
 40
0.0
 40
0.5
 40
0.5
 40
0.5
 40
0.5
 40
1.0
 40
1.0
 40
1.0
 40
1.0
 10
586.0166
 20
-242.083
 30
0.0
 10
578.152
 20
-240.4723
 30
0.0
 10
578.152
 20
-251.8619
 30
0.0
 10
586.0166
 20
-250.2495
 30
0.0
 10
586.0166
 20
-250.2495
 30
0.0
 10
586.0166
 20
-247.5307
 30
0.0
 10
586.0166
 20
-244.8035
 30
0.0
 10
586.0166
 20
-242.083
 30
0.0
  0
SPLINE
  5
88
330
1F
100
AcDbEntity
  8
layer 1
100
AcDbSpline
210
0.0
220
0.0
230
1.0
 70
    11
 71
     3
 72
    16
 73
    12
 74
     0
 42
0.0000000001
 43
0.0000000001
 40
0.0
 40
0.0
 40
0.0
 40
0.0
 40
0.3333333333333333
 40
0.3333333333333333
 40
0.3333333333333333
 40
0.3333333333333333
 40
0.6666666666666666
 40
0.6666666666666666
 40
0.6666666666666666
 40
0.6666666666666666
 40
1.0
 40
1.0
 40
1.0
 40
1.0
 10
196.0398
 20
-231.8762
 30
0.0
 10
191.9524
 20
-231.8762
 30
0.0
 10
187.8733
 20
-231.8762
 30
0.0
 10
183.786
 20
-231.8762
 30
0.0
 10
183.786
 20
-231.8762
 30
0.0
 10
180.8614
 20
-225.78
 30
0.0
 10
185.4564
 20
-224.9389
 30
0.0
 10
181.7472
 20
-219.6306
 30
0.0
 10
181.7472
 20
-219.6306
 30
0.0
 10
137.0614
 20
-226.0752
 30
0.0
 10
190.8493
 20
-275.6016
 30
0.0
 10
196.0398
 20
-231.8762
 30
0.0
  0
SPLINE
  5
89
330
1F
100
AcDbEntity
  8
layer 1
100
AcDbSpline
210
0.0
220
0.0
230
1.0
 70
    11
 71
     3
 72
    12
 73
     8
 74
     0
 42
0.0000000001
 43
0.0000000001
 40
0.0
 40
0.0
 40
0.0
 40
0.0
 40
0.5
 40
0.5
 40
0.5
 40
0.5
 40
1.0
 40
1.0
 40
1.0
 40
1.0
 10
55.1628
 20
-231.8762
 30
0.0
 10
53.5156
 20
-236.8826
 30
0.0
 10
51.6477
 20
-243.6556
 30
0.0
 10
59.2435
 20
-244.13
 30
0.0
 10
59.2435
 20
-244.13
 30
0.0
 10
59.2137
 20
-238.7172
 30
0.0
 10
60.3732
 20
-232.1001
 30
0.0
 10
55.1628
 20
-231.8762
 30
0.0
  0
SPLINE
  5
8A
330
1F
100
AcDbEntity
  8
layer 1
100
AcDbSpline
210
0.0
220
0.0
230
1.0
 70
    11
 71
     3
 72
    12
 73
     8
 74
     0
 42
0.0000000001
 43
0.0000000001
 40
0.0
 40
0.0
 40
0.0
 40
0.0
 40
0.5
 40
0.5
 40
0.5
 40
0.5
 40
1.0
 40
1.0
 40
1.0
 40
1.0
 10
214.4181
 20
-231.8762
 30
0.0
 10
215.1215
 20
-236.6205
 30
0.0
 10
215.7336
 20
-241.4494
 30
0.0
 10
222.5846
 20
-240.0443
 30
0.0
 10
222.5846
 20
-240.0443
 30
0.0
 10
221.8763
 20
-235.305
 30
0.0
 10
221.2641
 20
-230.4761
 30
0.0
 10
214.4181
 20
-231.8762
 30
0.0
  0
SPLINE
  5
8B
330
1F
100
AcDbEntity
  8
layer 1
100
AcDbSpline
210
0.0
220
0.0
230
1.0
 70
    11
 71
     3
 72
    12
 73
     8
 74
     0
 42
0.0000000001
 43
0.0000000001
 40
0.0
 40
0.0
 40
0.0
 40
0.0
 40
0.5
 40
0.5
 40
0.5
 40
0.5
 40
1.0
 40
1.0
 40
1.0
 40
1.0
 10
106.207
 20
-231.8762
 30
0.0
 10
99.24650000000001
 20
-236.4944
 30
0.0
 10
79.9641
 20
-228.7791
 30
0.0
 10
79.6622
 20
-240.0443
 30
0.0
 10
79.6622
 20
-240.0443
 30
0.0
 10
90.6918
 20
-239.5002
 30
0.0
 10
105.0873
 20
-242.3285
 30
0.0
 10
106.207
 20
-231.8762
 30
0.0
  0
SPLINE
  5
8C
330
1F
100
AcDbEntity
  8
layer 1
100
AcDbSpline
210
0.0
220
0.0
230
1.0
 70
    11
 71
     3
 72
    12
 73
     8
 74
     0
 42
0.0000000001
 43
0.0000000001
 40
0.0
 40
0.0
 40
0.0
 40
0.0
 40
0.5
 40
0.5
 40
0.5
 40
0.5
 40
1.0
 40
1.0
 40
1.0
 40
1.0
 10
559.4702
 20
-229.8358
 30
0.0
 10
549.4641
 20
-229.3564
 30
0.0
 10
544.0164
 20
-233.4305
 30
0.0
 10
532.9254000000001
 20
-231.8762
 30
0.0
 10
532.9254000000001
 20
-231.8762
 30
0.0
 10
535.845
 20
-240.5635
 30
0.0
 10
556.6236
 20
-234.5337
 30
0.0
 10
559.4702
 20
-229.8358
 30
0.0
  0
SPLINE
  5
8D
330
1F
100
AcDbEntity
  8
layer 1
100
AcDbSpline
210
0.0
220
0.0
230
1.0
 70
    11
 71
     3
 72
    12
 73
     8
 74
     0
 42
0.0000000001
 43
0.0000000001
 40
0.0
 40
0.0
 40
0.0
 40
0.0
 40
0.5
 40
0.5
 40
0.5
 40
0.5
 40
1.0
 40
1.0
 40
1.0
 40
1.0
 10
579.8888000000001
 20
-223.7097
 30
0.0
 10
579.5919
 20
-228.7742
 30
0.0
 10
579.5073
 20
-233.6147
 30
0.0
 10
583.9762000000001
 20
-233.9166
 30
0.0
 10
583.9762000000001
 20
-233.9166
 30
0.0
 10
587.211
 20
-230.866
 30
0.0
 10
586.9638
 20
-222.2748
 30
0.0
 10
579.8888000000001
 20
-223.7097
 30
0.0
  0
SPLINE
  5
8E
330
1F
100
AcDbEntity
  8
layer 1
100
AcDbSpline
210
0.0
220
0.0
230
1.0
 70
    11
 71
     3
 72
    12
 73
     8
 74
     0
 42
0.0000000001
 43
0.0000000001
 40
0.0
 40
0.0
 40
0.0
 40
0.0
 40
0.5
 40
0.5
 40
0.5
 40
0.5
 40
1.0
 40
1.0
 40
1.0
 40
1.0
 10
490.0527
 20
-217.5836
 30
0.0
 10
486.7897
 20
-221.4471
 30
0.0
 10
491.8807000000001
 20
-229.3332
 30
0.0
 10
496.1838
 20
-231.8762
 30
0.0
 10
496.1838
 20
-231.8762
 30
0.0
 10
500.7041
 20
-226.7504
 30
0.0
 10
493.8465000000001
 20
-220.6293
 30
0.0
 10
490.0527
 20
-217.5836
 30
0.0
  0
SPLINE
  5
8F
330
1F
100
AcDbEntity
  8
layer 1
100
AcDbSpline
210
0.0
220
0.0
230
1.0
 70
    11
 71
     3
 72
    16
 73
    12
 74
     0
 42
0.0000000001
 43
0.0000000001
 40
0.0
 40
0.0
 40
0.0
 40
0.0
 40
0.3333333333333333
 40
0.3333333333333333
 40
0.3333333333333333
 40
0.3333333333333333
 40
0.6666666666666666
 40
0.6666666666666666
 40
0.6666666666666666
 40
0.6666666666666666
 40
1.0
 40
1.0
 40
1.0
 40
1.0
 10
451.259
 20
-217.5836
 30
0.0
 10
446.0652
 20
-217.8358
 30
0.0
 10
443.3381
 20
-220.5563
 30
0.0
 10
443.0926
 20
-225.7551
 30
0.0
 10
443.0926
 20
-225.7551
 30
0.0
 10
444.2355
 20
-228.6929
 30
0.0
 10
446.2759
 20
-230.7332
 30
0.0
 10
449.2187
 20
-231.8762
 30
0.0
 10
449.2187
 20
-231.8762
 30
0.0
 10
452.0304
 20
-229.242
 30
0.0
 10
451.2375
 20
-223.0064
 30
0.0
 10
451.259
 20
-217.5836
 30
0.0
  0
SPLINE
  5
90
330
1F
100
AcDbEntity
  8
layer 1
100
AcDbSpline
210
0.0
220
0.0
230
1.0
 70
    11
 71
     3
 72
    12
 73
     8
 74
     0
 42
0.0000000001
 43
0.0000000001
 40
0.0
 40
0.0
 40
0.0
 40
0.0
 40
0.5
 40
0.5
 40
0.5
 40
0.5
 40
1.0
 40
1.0
 40
1.0
 40
1.0
 10
475.7651
 20
-215.5432
 30
0.0
 10
472.4109
 20
-215.2065
 30
0.0
 10
472.4109
 20
-228.1272
 30
0.0
 10
475.7651
 20
-227.7971
 30
0.0
 10
475.7651
 20
-227.7971
 30
0.0
 10
477.5815
 20
-226.1731
 30
0.0
 10
484.8008
 20
-215.2811
 30
0.0
 10
475.7651
 20
-215.5432
 30
0.0
  0
SPLINE
  5
91
330
1F
100
AcDbEntity
  8
layer 1
100
AcDbSpline
210
0.0
220
0.0
230
1.0
 70
    11
 71
     3
 72
    64
 73
    60
 74
     0
 42
0.0000000001
 43
0.0000000001
 40
0.0
 40
0.0
 40
0.0
 40
0.0
 40
0.0666666666666667
 40
0.0666666666666667
 40
0.0666666666666667
 40
0.0666666666666667
 40
0.1333333333333333
 40
0.1333333333333333
 40
0.1333333333333333
 40
0.1333333333333333
 40
0.2
 40
0.2
 40
0.2
 40
0.2
 40
0.2666666666666667
 40
0.2666666666666667
 40
0.2666666666666667
 40
0.2666666666666667
 40
0.3333333333333333
 40
0.3333333333333333
 40
0.3333333333333333
 40
0.3333333333333333
 40
0.4
 40
0.4
 40
0.4
 40
0.4
 40
0.4666666666666666
 40
0.4666666666666666
 40
0.4666666666666666
 40
0.4666666666666666
 40
0.5333333333333333
 40
0.5333333333333333
 40
0.5333333333333333
 40
0.5333333333333333
 40
0.6
 40
0.6
 40
0.6
 40
0.6
 40
0.6666666666666666
 40
0.6666666666666666
 40
0.6666666666666666
 40
0.6666666666666666
 40
0.7333333333333333
 40
0.7333333333333333
 40
0.7333333333333333
 40
0.7333333333333333
 40
0.7999999999999999
 40
0.7999999999999999
 40
0.7999999999999999
 40
0.7999999999999999
 40
0.8666666666666666
 40
0.8666666666666666
 40
0.8666666666666666
 40
0.8666666666666666
 40
0.9333333333333332
 40
0.9333333333333332
 40
0.9333333333333332
 40
0.9333333333333332
 40
1.0
 40
1.0
 40
1.0
 40
1.0
 10
483.9316
 20
-97.1203
 30
0.0
 10
441.5897
 20
-110.5901
 30
0.0
 10
404.0601
 20
-128.8655
 30
0.0
 10
377.7542
 20
-158.373
 30
0.0
 10
377.7542
 20
-158.373
 30
0.0
 10
371.7989
 20
-117.3731
 30
0.0
 10
345.0717
 20
-97.13690000000001
 30
0.0
 10
328.7553
 20
-66.4948
 30
0.0
 10
328.7553
 20
-66.4948
 30
0.0
 10
301.975
 20
-86.6795
 30
0.0
 10
285.448
 20
-117.1043
 30
0.0
 10
277.7045
 20
-156.3326
 30
0.0
 10
277.7045
 20
-156.3326
 30
0.0
 10
249.4329
 20
-127.3974
 30
0.0
 10
207.0064
 20
-101.853
 30
0.0
 10
155.2008
 20
-103.2464
 30
0.0
 10
155.2008
 20
-103.2464
 30
0.0
 10
164.9216
 20
-150.6909
 30
0.0
 10
182.5468
 20
-190.2376
 30
0.0
 10
222.5846
 20
-207.3768
 30
0.0
 10
222.5846
 20
-207.3768
 30
0.0
 10
225.2769
 20
-197.4553
 30
0.0
 10
211.2812
 20
-197.1301
 30
0.0
 10
206.2516
 20
-193.0842
 30
0.0
 10
206.2516
 20
-193.0842
 30
0.0
 10
183.8324
 20
-175.0659
 30
0.0
 10
170.4306
 20
-145.4506
 30
0.0
 10
165.4143
 20
-109.3725
 30
0.0
 10
165.4143
 20
-109.3725
 30
0.0
 10
200.1023
 20
-115.6412
 30
0.0
 10
226.9805
 20
-122.7062
 30
0.0
 10
249.131
 20
-139.9997
 30
0.0
 10
249.131
 20
-139.9997
 30
0.0
 10
261.0282
 20
-149.2908
 30
0.0
 10
267.9273
 20
-170.1043
 30
0.0
 10
287.918
 20
-168.5782
 30
0.0
 10
287.918
 20
-168.5782
 30
0.0
 10
288.5799
 20
-134.1921
 30
0.0
 10
306.2217
 20
-101.8745
 30
0.0
 10
328.7553
 20
-82.82770000000001
 30
0.0
 10
328.7553
 20
-82.82770000000001
 30
0.0
 10
349.3863
 20
-107.7949
 30
0.0
 10
369.7602
 20
-133.0209
 30
0.0
 10
373.6751
 20
-174.7109
 30
0.0
 10
373.6751
 20
-174.7109
 30
0.0
 10
389.4357
 20
-167.4352
 30
0.0
 10
395.6431
 20
-150.3193
 30
0.0
 10
408.3863
 20
-139.9997
 30
0.0
 10
408.3863
 20
-139.9997
 30
0.0
 10
426.0397
 20
-125.6888
 30
0.0
 10
447.5731
 20
-117.4079
 30
0.0
 10
473.7197000000001
 20
-111.4129
 30
0.0
 10
473.7197000000001
 20
-111.4129
 30
0.0
 10
472.8903
 20
-165.71
 30
0.0
 10
450.214
 20
-198.1586
 30
0.0
 10
424.7193
 20
-227.7971
 30
0.0
 10
424.7193
 20
-227.7971
 30
0.0
 10
466.4607
 20
-206.2454
 30
0.0
 10
479.1591
 20
-155.6458
 30
0.0
 10
483.9316
 20
-97.1203
 30
0.0
  0
SPLINE
  5
92
330
1F
100
AcDbEntity
  8
layer 1
100
AcDbSpline
210
0.0
220
0.0
230
1.0
 70
    11
 71
     3
 72
    16
 73
    12
 74
     0
 42
0.0000000001
 43
0.0000000001
 40
0.0
 40
0.0
 40
0.0
 40
0.0
 40
0.3333333333333333
 40
0.3333333333333333
 40
0.3333333333333333
 40
0.3333333333333333
 40
0.6666666666666666
 40
0.6666666666666666
 40
0.6666666666666666
 40
0.6666666666666666
 40
1.0
 40
1.0
 40
1.0
 40
1.0
 10
210.3324
 20
-223.7097
 30
0.0
 10
206.1256
 20
-224.9439
 30
0.0
 10
196.1476
 20
-220.4136
 30
0.0
 10
198.0802
 20
-227.7971
 30
0.0
 10
198.0802
 20
-227.7971
 30
0.0
 10
202.1659
 20
-227.7971
 30
0.0
 10
206.2516
 20
-227.7971
 30
0.0
 10
210.3324
 20
-227.7971
 30
0.0
 10
210.3324
 20
-227.7971
 30
0.0
 10
210.3324
 20
-226.4302
 30
0.0
 10
210.3324
 20
-225.07
 30
0.0
 10
210.3324
 20
-223.7097
 30
0.0
  0
SPLINE
  5
93
330
1F
100
AcDbEntity
  8
layer 1
100
AcDbSpline
210
0.0
220
0.0
230
1.0
 70
    11
 71
     3
 72
    12
 73
     8
 74
     0
 42
0.0000000001
 43
0.0000000001
 40
0.0
 40
0.0
 40
0.0
 40
0.0
 40
0.5
 40
0.5
 40
0.5
 40
0.5
 40
1.0
 40
1.0
 40
1.0
 40
1.0
 10
102.1213
 20
-225.7551
 30
0.0
 10
101.7497
 20
-216.1039
 30
0.0
 10
83.10760000000001
 20
-220.7221
 30
0.0
 10
79.6622
 20
-225.7551
 30
0.0
 10
79.6622
 20
-225.7551
 30
0.0
 10
83.83920000000001
 20
-228.9102
 30
0.0
 10
97.93770000000001
 20
-228.9102
 30
0.0
 10
102.1213
 20
-225.7551
 30
0.0
  0
SPLINE
  5
94
330
1F
100
AcDbEntity
  8
layer 1
100
AcDbSpline
210
0.0
220
0.0
230
1.0
 70
    11
 71
     3
 72
    12
 73
     8
 74
     0
 42
0.0000000001
 43
0.0000000001
 40
0.0
 40
0.0
 40
0.0
 40
0.0
 40
0.5
 40
0.5
 40
0.5
 40
0.5
 40
1.0
 40
1.0
 40
1.0
 40
1.0
 10
520.6782000000001
 20
-195.1246
 30
0.0
 10
520.1059
 20
-204.8056
 30
0.0
 10
517.7802
 20
-219.4979
 30
0.0
 10
526.8043
 20
-225.7551
 30
0.0
 10
526.8043
 20
-225.7551
 30
0.0
 10
523.8101
 20
-216.4921
 30
0.0
 10
523.3357
 20
-204.7193
 30
0.0
 10
520.6782000000001
 20
-195.1246
 30
0.0
  0
SPLINE
  5
95
330
1F
100
AcDbEntity
  8
layer 1
100
AcDbSpline
210
0.0
220
0.0
230
1.0
 70
    11
 71
     3
 72
    12
 73
     8
 74
     0
 42
0.0000000001
 43
0.0000000001
 40
0.0
 40
0.0
 40
0.0
 40
0.0
 40
0.5
 40
0.5
 40
0.5
 40
0.5
 40
1.0
 40
1.0
 40
1.0
 40
1.0
 10
557.4364000000001
 20
-219.629
 30
0.0
 10
552.3090000000001
 20
-221.3044
 30
0.0
 10
539.8461
 20
-215.6577
 30
0.0
 10
541.0969
 20
-223.7097
 30
0.0
 10
541.0969
 20
-223.7097
 30
0.0
 10
547.2694
 20
-223.081
 30
0.0
 10
556.9736
 20
-225.979
 30
0.0
 10
557.4364000000001
 20
-219.629
 30
0.0
  0
SPLINE
  5
96
330
1F
100
AcDbEntity
  8
layer 1
100
AcDbSpline
210
0.0
220
0.0
230
1.0
 70
    11
 71
     3
 72
    12
 73
     8
 74
     0
 42
0.0000000001
 43
0.0000000001
 40
0.0
 40
0.0
 40
0.0
 40
0.0
 40
0.5
 40
0.5
 40
0.5
 40
0.5
 40
1.0
 40
1.0
 40
1.0
 40
1.0
 10
153.1671
 20
-211.4575
 30
0.0
 10
153.5271
 20
-217.8988
 30
0.0
 10
154.5954
 20
-223.6351
 30
0.0
 10
161.3336
 20
-223.7097
 30
0.0
 10
161.3336
 20
-223.7097
 30
0.0
 10
161.161
 20
-217.0644
 30
0.0
 10
158.7159
 20
-212.7099
 30
0.0
 10
153.1671
 20
-211.4575
 30
0.0
  0
SPLINE
  5
97
330
1F
100
AcDbEntity
  8
layer 1
100
AcDbSpline
210
0.0
220
0.0
230
1.0
 70
    11
 71
     3
 72
    12
 73
     8
 74
     0
 42
0.0000000001
 43
0.0000000001
 40
0.0
 40
0.0
 40
0.0
 40
0.0
 40
0.5
 40
0.5
 40
0.5
 40
0.5
 40
1.0
 40
1.0
 40
1.0
 40
1.0
 10
108.2474
 20
-197.165
 30
0.0
 10
106.1904
 20
-202.8913
 30
0.0
 10
105.1387
 20
-222.7327
 30
0.0
 10
114.3734
 20
-223.7097
 30
0.0
 10
114.3734
 20
-223.7097
 30
0.0
 10
113.6137
 20
-213.5775
 30
0.0
 10
117.4423
 20
-198.8503
 30
0.0
 10
108.2474
 20
-197.165
 30
0.0
  0
SPLINE
  5
98
330
1F
100
AcDbEntity
  8
layer 1
100
AcDbSpline
210
0.0
220
0.0
230
1.0
 70
    11
 71
     3
 72
    12
 73
     8
 74
     0
 42
0.0000000001
 43
0.0000000001
 40
0.0
 40
0.0
 40
0.0
 40
0.0
 40
0.5
 40
0.5
 40
0.5
 40
0.5
 40
1.0
 40
1.0
 40
1.0
 40
1.0
 10
59.2435
 20
-213.4979
 30
0.0
 10
51.01900000000001
 20
-211.5089
 30
0.0
 10
51.01900000000001
 20
-225.7053
 30
0.0
 10
59.2435
 20
-223.7097
 30
0.0
 10
59.2435
 20
-223.7097
 30
0.0
 10
59.2435
 20
-220.3041
 30
0.0
 10
59.2435
 20
-216.9035
 30
0.0
 10
59.2435
 20
-213.4979
 30
0.0
  0
SPLINE
  5
99
330
1F
100
AcDbEntity
  8
layer 1
100
AcDbSpline
210
0.0
220
0.0
230
1.0
 70
    11
 71
     3
 72
    12
 73
     8
 74
     0
 42
0.0000000001
 43
0.0000000001
 40
0.0
 40
0.0
 40
0.0
 40
0.0
 40
0.5
 40
0.5
 40
0.5
 40
0.5
 40
1.0
 40
1.0
 40
1.0
 40
1.0
 10
463.5112
 20
-207.3768
 30
0.0
 10
463.8613
 20
-213.1495
 30
0.0
 10
461.7578
 20
-221.384
 30
0.0
 10
467.5986
 20
-221.6693
 30
0.0
 10
467.5986
 20
-221.6693
 30
0.0
 10
469.0783
 20
-216.9267
 30
0.0
 10
472.7643000000001
 20
-206.4113
 30
0.0
 10
463.5112
 20
-207.3768
 30
0.0
  0
SPLINE
  5
9A
330
1F
100
AcDbEntity
  8
layer 1
100
AcDbSpline
210
0.0
220
0.0
230
1.0
 70
    11
 71
     3
 72
    12
 73
     8
 74
     0
 42
0.0000000001
 43
0.0000000001
 40
0.0
 40
0.0
 40
0.0
 40
0.0
 40
0.5
 40
0.5
 40
0.5
 40
0.5
 40
1.0
 40
1.0
 40
1.0
 40
1.0
 10
457.3851
 20
-207.3768
 30
0.0
 10
454.6033000000001
 20
-210.1321
 30
0.0
 10
453.4935
 20
-221.6295
 30
0.0
 10
459.4322
 20
-221.6693
 30
0.0
 10
459.4322
 20
-221.6693
 30
0.0
 10
458.2096
 20
-217.436
 30
0.0
 10
461.947
 20
-208.2576
 30
0.0
 10
457.3851
 20
-207.3768
 30
0.0
  0
SPLINE
  5
9B
330
1F
100
AcDbEntity
  8
layer 1
100
AcDbSpline
210
0.0
220
0.0
230
1.0
 70
    11
 71
     3
 72
    12
 73
     8
 74
     0
 42
0.0000000001
 43
0.0000000001
 40
0.0
 40
0.0
 40
0.0
 40
0.0
 40
0.5
 40
0.5
 40
0.5
 40
0.5
 40
1.0
 40
1.0
 40
1.0
 40
1.0
 10
142.9536
 20
-207.3768
 30
0.0
 10
135.9367
 20
-204.1769
 30
0.0
 10
133.261
 20
-221.0473
 30
0.0
 10
140.9132
 20
-219.6306
 30
0.0
 10
140.9132
 20
-219.6306
 30
0.0
 10
143.2622
 20
-217.212
 30
0.0
 10
143.2223
 20
-212.4114
 30
0.0
 10
142.9536
 20
-207.3768
 30
0.0
  0
SPLINE
  5
9C
330
1F
100
AcDbEntity
  8
layer 1
100
AcDbSpline
210
0.0
220
0.0
230
1.0
 70
    11
 71
     3
 72
    12
 73
     8
 74
     0
 42
0.0000000001
 43
0.0000000001
 40
0.0
 40
0.0
 40
0.0
 40
0.0
 40
0.5
 40
0.5
 40
0.5
 40
0.5
 40
1.0
 40
1.0
 40
1.0
 40
1.0
 10
528.8447
 20
-197.165
 30
0.0
 10
528.6904000000001
 20
-206.1658
 30
0.0
 10
528.9873
 20
-214.7155
 30
0.0
 10
534.9708000000001
 20
-217.5836
 30
0.0
 10
534.9708000000001
 20
-217.5836
 30
0.0
 10
535.4966000000001
 20
-213.1313
 30
0.0
 10
538.3648000000001
 20
-197.3823
 30
0.0
 10
528.8447
 20
-197.165
 30
0.0
  0
SPLINE
  5
9D
330
1F
100
AcDbEntity
  8
layer 1
100
AcDbSpline
210
0.0
220
0.0
230
1.0
 70
    11
 71
     3
 72
    12
 73
     8
 74
     0
 42
0.0000000001
 43
0.0000000001
 40
0.0
 40
0.0
 40
0.0
 40
0.0
 40
0.5
 40
0.5
 40
0.5
 40
0.5
 40
1.0
 40
1.0
 40
1.0
 40
1.0
 10
573.7694
 20
-205.3314
 30
0.0
 10
574.4495000000001
 20
-210.0923
 30
0.0
 10
575.8612000000001
 20
-214.1316
 30
0.0
 10
579.8888000000001
 20
-215.5432
 30
0.0
 10
579.8888000000001
 20
-215.5432
 30
0.0
 10
580.2903
 20
-209.6975
 30
0.0
 10
580.1476
 20
-204.3992
 30
0.0
 10
573.7694
 20
-205.3314
 30
0.0
  0
SPLINE
  5
9E
330
1F
100
AcDbEntity
  8
layer 1
100
AcDbSpline
210
0.0
220
0.0
230
1.0
 70
    11
 71
     3
 72
    12
 73
     8
 74
     0
 42
0.0000000001
 43
0.0000000001
 40
0.0
 40
0.0
 40
0.0
 40
0.0
 40
0.5
 40
0.5
 40
0.5
 40
0.5
 40
1.0
 40
1.0
 40
1.0
 40
1.0
 10
502.3049
 20
-199.2103
 30
0.0
 10
497.8526000000001
 20
-201.8396
 30
0.0
 10
502.499
 20
-212.4694
 30
0.0
 10
506.3856
 20
-213.4979
 30
0.0
 10
506.3856
 20
-213.4979
 30
0.0
 10
504.8993
 20
-208.8631
 30
0.0
 10
510.0649
 20
-197.5697
 30
0.0
 10
502.3049
 20
-199.2103
 30
0.0
  0
SPLINE
  5
9F
330
1F
100
AcDbEntity
  8
layer 1
100
AcDbSpline
210
0.0
220
0.0
230
1.0
 70
    11
 71
     3
 72
    32
 73
    28
 74
     0
 42
0.0000000001
 43
0.0000000001
 40
0.0
 40
0.0
 40
0.0
 40
0.0
 40
0.1428571428571429
 40
0.1428571428571429
 40
0.1428571428571429
 40
0.1428571428571429
 40
0.2857142857142857
 40
0.2857142857142857
 40
0.2857142857142857
 40
0.2857142857142857
 40
0.4285714285714286
 40
0.4285714285714286
 40
0.4285714285714286
 40
0.4285714285714286
 40
0.5714285714285714
 40
0.5714285714285714
 40
0.5714285714285714
 40
0.5714285714285714
 40
0.7142857142857142
 40
0.7142857142857142
 40
0.7142857142857142
 40
0.7142857142857142
 40
0.857142857142857
 40
0.857142857142857
 40
0.857142857142857
 40
0.857142857142857
 40
1.0
 40
1.0
 40
1.0
 40
1.0
 10
451.259
 20
-178.7916
 30
0.0
 10
445.6422
 20
-173.3324
 30
0.0
 10
430.2797000000001
 20
-173.2246
 30
0.0
 10
426.7547
 20
-180.832
 30
0.0
 10
426.7547
 20
-180.832
 30
0.0
 10
431.5885
 20
-182.8027
 30
0.0
 10
436.789
 20
-184.4151
 30
0.0
 10
434.9261
 20
-193.0842
 30
0.0
 10
434.9261
 20
-193.0842
 30
0.0
 10
429.4685
 20
-191.8268
 30
0.0
 10
415.1295
 20
-183.0714
 30
0.0
 10
414.5074
 20
-195.1246
 30
0.0
 10
414.5074
 20
-195.1246
 30
0.0
 10
423.714
 20
-194.7696
 30
0.0
 10
433.2009000000001
 20
-194.1309
 30
0.0
 10
432.8857
 20
-203.2911
 30
0.0
 10
432.8857
 20
-203.2911
 30
0.0
 10
427.4232
 20
-208.5147
 30
0.0
 10
422.1132
 20
-202.0569
 30
0.0
 10
414.5074
 20
-203.2911
 30
0.0
 10
414.5074
 20
-203.2911
 30
0.0
 10
411.553
 20
-211.0113
 30
0.0
 10
420.1193
 20
-207.2109
 30
0.0
 10
418.5882
 20
-213.4979
 30
0.0
 10
418.5882
 20
-213.4979
 30
0.0
 10
436.5202000000001
 20
-208.9659
 30
0.0
 10
443.6864000000001
 20
-193.6781
 30
0.0
 10
451.259
 20
-178.7916
 30
0.0
  0
SPLINE
  5
A0
330
1F
100
AcDbEntity
  8
layer 1
100
AcDbSpline
210
0.0
220
0.0
230
1.0
 70
    11
 71
     3
 72
    12
 73
     8
 74
     0
 42
0.0000000001
 43
0.0000000001
 40
0.0
 40
0.0
 40
0.0
 40
0.0
 40
0.5
 40
0.5
 40
0.5
 40
0.5
 40
1.0
 40
1.0
 40
1.0
 40
1.0
 10
132.7468
 20
-199.2103
 30
0.0
 10
123.998
 20
-196.8382
 30
0.0
 10
126.9989
 20
-212.8924
 30
0.0
 10
132.7468
 20
-213.4979
 30
0.0
 10
132.7468
 20
-213.4979
 30
0.0
 10
132.7468
 20
-208.737
 30
0.0
 10
132.7468
 20
-203.9712
 30
0.0
 10
132.7468
 20
-199.2103
 30
0.0
  0
SPLINE
  5
A1
330
1F
100
AcDbEntity
  8
layer 1
100
AcDbSpline
210
0.0
220
0.0
230
1.0
 70
    11
 71
     3
 72
    12
 73
     8
 74
     0
 42
0.0000000001
 43
0.0000000001
 40
0.0
 40
0.0
 40
0.0
 40
0.0
 40
0.5
 40
0.5
 40
0.5
 40
0.5
 40
1.0
 40
1.0
 40
1.0
 40
1.0
 10
124.5803
 20
-199.2103
 30
0.0
 10
115.2543
 20
-197.7704
 30
0.0
 10
120.3984
 20
-209.3773
 30
0.0
 10
122.5399
 20
-213.4979
 30
0.0
 10
122.5399
 20
-213.4979
 30
0.0
 10
125.3533
 20
-210.8686
 30
0.0
 10
124.5571
 20
-204.6281
 30
0.0
 10
124.5803
 20
-199.2103
 30
0.0
  0
SPLINE
  5
A2
330
1F
100
AcDbEntity
  8
layer 1
100
AcDbSpline
210
0.0
220
0.0
230
1.0
 70
    11
 71
     3
 72
    12
 73
     8
 74
     0
 42
0.0000000001
 43
0.0000000001
 40
0.0
 40
0.0
 40
0.0
 40
0.0
 40
0.5
 40
0.5
 40
0.5
 40
0.5
 40
1.0
 40
1.0
 40
1.0
 40
1.0
 10
102.1213
 20
-203.2911
 30
0.0
 10
90.8511
 20
-201.4398
 30
0.0
 10
94.05760000000001
 20
-211.8523
 30
0.0
 10
102.1213
 20
-211.4575
 30
0.0
 10
102.1213
 20
-211.4575
 30
0.0
 10
102.1213
 20
-208.737
 30
0.0
 10
102.1213
 20
-206.0165
 30
0.0
 10
102.1213
 20
-203.2911
 30
0.0
  0
SPLINE
  5
A3
330
1F
100
AcDbEntity
  8
layer 1
100
AcDbSpline
210
0.0
220
0.0
230
1.0
 70
    11
 71
     3
 72
    12
 73
     8
 74
     0
 42
0.0000000001
 43
0.0000000001
 40
0.0
 40
0.0
 40
0.0
 40
0.0
 40
0.5
 40
0.5
 40
0.5
 40
0.5
 40
1.0
 40
1.0
 40
1.0
 40
1.0
 10
191.9524
 20
-197.165
 30
0.0
 10
193.953
 20
-201.9772
 30
0.0
 10
192.616
 20
-210.1139
 30
0.0
 10
200.1255
 20
-209.4171
 30
0.0
 10
200.1255
 20
-209.4171
 30
0.0
 10
199.7589
 20
-202.9709
 30
0.0
 10
198.6857
 20
-197.2396
 30
0.0
 10
191.9524
 20
-197.165
 30
0.0
  0
SPLINE
  5
A4
330
1F
100
AcDbEntity
  8
layer 1
100
AcDbSpline
210
0.0
220
0.0
230
1.0
 70
    11
 71
     3
 72
    12
 73
     8
 74
     0
 42
0.0000000001
 43
0.0000000001
 40
0.0
 40
0.0
 40
0.0
 40
0.0
 40
0.5
 40
0.5
 40
0.5
 40
0.5
 40
1.0
 40
1.0
 40
1.0
 40
1.0
 10
183.786
 20
-197.165
 30
0.0
 10
185.0268
 20
-201.3767
 30
0.0
 10
180.4948
 20
-211.348
 30
0.0
 10
187.8733
 20
-209.4171
 30
0.0
 10
187.8733
 20
-209.4171
 30
0.0
 10
187.8451
 20
-204.006
 30
0.0
 10
189.0097
 20
-197.3939
 30
0.0
 10
183.786
 20
-197.165
 30
0.0
  0
SPLINE
  5
A5
330
1F
100
AcDbEntity
  8
layer 1
100
AcDbSpline
210
0.0
220
0.0
230
1.0
 70
    11
 71
     3
 72
    12
 73
     8
 74
     0
 42
0.0000000001
 43
0.0000000001
 40
0.0
 40
0.0
 40
0.0
 40
0.0
 40
0.5
 40
0.5
 40
0.5
 40
0.5
 40
1.0
 40
1.0
 40
1.0
 40
1.0
 10
173.5808
 20
-193.0842
 30
0.0
 10
180.0668
 20
-194.0779
 30
0.0
 10
170.1453
 20
-211.4857
 30
0.0
 10
179.7069
 20
-209.4171
 30
0.0
 10
179.7069
 20
-209.4171
 30
0.0
 10
178.8376
 20
-204.0458
 30
0.0
 10
178.8376
 20
-187.3015
 30
0.0
 10
173.5808
 20
-193.0842
 30
0.0
  0
SPLINE
  5
A6
330
1F
100
AcDbEntity
  8
layer 1
100
AcDbSpline
210
0.0
220
0.0
230
1.0
 70
    11
 71
     3
 72
    12
 73
     8
 74
     0
 42
0.0000000001
 43
0.0000000001
 40
0.0
 40
0.0
 40
0.0
 40
0.0
 40
0.5
 40
0.5
 40
0.5
 40
0.5
 40
1.0
 40
1.0
 40
1.0
 40
1.0
 10
165.4143
 20
-191.0438
 30
0.0
 10
161.161
 20
-195.8893
 30
0.0
 10
167.2473
 20
-202.7818
 30
0.0
 10
169.5
 20
-207.3768
 30
0.0
 10
169.5
 20
-207.3768
 30
0.0
 10
168.8597
 20
-201.1993
 30
0.0
 10
171.7677
 20
-191.495
 30
0.0
 10
165.4143
 20
-191.0438
 30
0.0
  0
SPLINE
  5
A7
330
1F
100
AcDbEntity
  8
layer 1
100
AcDbSpline
210
0.0
220
0.0
230
1.0
 70
    11
 71
     3
 72
    12
 73
     8
 74
     0
 42
0.0000000001
 43
0.0000000001
 40
0.0
 40
0.0
 40
0.0
 40
0.0
 40
0.5
 40
0.5
 40
0.5
 40
0.5
 40
1.0
 40
1.0
 40
1.0
 40
1.0
 10
69.4487
 20
-197.165
 30
0.0
 10
62.03700000000001
 20
-194.0331
 30
0.0
 10
58.1404
 20
-204.6513
 30
0.0
 10
63.3293
 20
-207.3768
 30
0.0
 10
63.3293
 20
-207.3768
 30
0.0
 10
63.9513
 20
-202.5661
 30
0.0
 10
70.4208
 20
-203.5764
 30
0.0
 10
69.4487
 20
-197.165
 30
0.0
  0
SPLINE
  5
A8
330
1F
100
AcDbEntity
  8
layer 1
100
AcDbSpline
210
0.0
220
0.0
230
1.0
 70
    11
 71
     3
 72
    12
 73
     8
 74
     0
 42
0.0000000001
 43
0.0000000001
 40
0.0
 40
0.0
 40
0.0
 40
0.0
 40
0.5
 40
0.5
 40
0.5
 40
0.5
 40
1.0
 40
1.0
 40
1.0
 40
1.0
 10
563.5559000000001
 20
-188.9985
 30
0.0
 10
563.0251000000001
 20
-195.6554
 30
0.0
 10
565.9795
 20
-198.8271
 30
0.0
 10
571.7224
 20
-199.2103
 30
0.0
 10
571.7224
 20
-199.2103
 30
0.0
 10
576.9411
 20
-193.7411
 30
0.0
 10
571.2828000000001
 20
-187.6498
 30
0.0
 10
563.5559000000001
 20
-188.9985
 30
0.0
  0
SPLINE
  5
A9
330
1F
100
AcDbEntity
  8
layer 1
100
AcDbSpline
210
0.0
220
0.0
230
1.0
 70
    11
 71
     3
 72
    32
 73
    28
 74
     0
 42
0.0000000001
 43
0.0000000001
 40
0.0
 40
0.0
 40
0.0
 40
0.0
 40
0.1428571428571429
 40
0.1428571428571429
 40
0.1428571428571429
 40
0.1428571428571429
 40
0.2857142857142857
 40
0.2857142857142857
 40
0.2857142857142857
 40
0.2857142857142857
 40
0.4285714285714286
 40
0.4285714285714286
 40
0.4285714285714286
 40
0.4285714285714286
 40
0.5714285714285714
 40
0.5714285714285714
 40
0.5714285714285714
 40
0.5714285714285714
 40
0.7142857142857142
 40
0.7142857142857142
 40
0.7142857142857142
 40
0.7142857142857142
 40
0.857142857142857
 40
0.857142857142857
 40
0.857142857142857
 40
0.857142857142857
 40
1.0
 40
1.0
 40
1.0
 40
1.0
 10
234.8318
 20
-186.9581
 30
0.0
 10
230.8191
 20
-180.6197
 30
0.0
 10
222.208
 20
-191.5581
 30
0.0
 10
218.4989
 20
-184.9177
 30
0.0
 10
218.4989
 20
-184.9177
 30
0.0
 10
218.5271
 20
-180.8602
 30
0.0
 10
224.0709
 20
-182.3167
 30
0.0
 10
222.5846
 20
-176.7446
 30
0.0
 10
222.5846
 20
-176.7446
 30
0.0
 10
216.8699
 20
-169.819
 30
0.0
 10
208.5442
 20
-176.7629
 30
0.0
 10
202.1659
 20
-172.6655
 30
0.0
 10
202.1659
 20
-172.6655
 30
0.0
 10
203.0567
 20
-167.9163
 30
0.0
 10
211.1784
 20
-167.2013
 30
0.0
 10
206.2516
 20
-162.4521
 30
0.0
 10
206.2516
 20
-162.4521
 30
0.0
 10
195.9818
 20
-160.7551
 30
0.0
 10
193.953
 20
-158.7263
 30
0.0
 10
193.9994
 20
-150.1999
 30
0.0
 10
193.9994
 20
-150.1999
 30
0.0
 10
191.2789
 20
-150.1999
 30
0.0
 10
188.5535
 20
-150.1999
 30
0.0
 10
185.833
 20
-150.1999
 30
0.0
 10
185.833
 20
-150.1999
 30
0.0
 10
189.3763
 20
-172.0932
 30
0.0
 10
217.3841
 20
-205.2734
 30
0.0
 10
234.8318
 20
-186.9581
 30
0.0
  0
SPLINE
  5
AA
330
1F
100
AcDbEntity
  8
layer 1
100
AcDbSpline
210
0.0
220
0.0
230
1.0
 70
    11
 71
     3
 72
    32
 73
    28
 74
     0
 42
0.0000000001
 43
0.0000000001
 40
0.0
 40
0.0
 40
0.0
 40
0.0
 40
0.1428571428571429
 40
0.1428571428571429
 40
0.1428571428571429
 40
0.1428571428571429
 40
0.2857142857142857
 40
0.2857142857142857
 40
0.2857142857142857
 40
0.2857142857142857
 40
0.4285714285714286
 40
0.4285714285714286
 40
0.4285714285714286
 40
0.4285714285714286
 40
0.5714285714285714
 40
0.5714285714285714
 40
0.5714285714285714
 40
0.5714285714285714
 40
0.7142857142857142
 40
0.7142857142857142
 40
0.7142857142857142
 40
0.7142857142857142
 40
0.857142857142857
 40
0.857142857142857
 40
0.857142857142857
 40
0.857142857142857
 40
1.0
 40
1.0
 40
1.0
 40
1.0
 10
140.9132
 20
-182.8774
 30
0.0
 10
142.227
 20
-176.8475
 30
0.0
 10
154.0811
 20
-174.608
 30
0.0
 10
149.0797
 20
-168.5782
 30
0.0
 10
149.0797
 20
-168.5782
 30
0.0
 10
141.0343
 20
-168.0241
 30
0.0
 10
142.8391
 20
-177.3103
 30
0.0
 10
134.7938
 20
-176.7446
 30
0.0
 10
134.7938
 20
-176.7446
 30
0.0
 10
134.9414
 20
-173.1897
 30
0.0
 10
134.3293
 20
-170.3962
 30
0.0
 10
132.7468
 20
-168.5782
 30
0.0
 10
132.7468
 20
-168.5782
 30
0.0
 10
123.8786
 20
-171.2987
 30
0.0
 10
121.3522
 20
-169.7327
 30
0.0
 10
114.3734
 20
-166.5394
 30
0.0
 10
114.3734
 20
-166.5394
 30
0.0
 10
108.3452
 20
-174.5915
 30
0.0
 10
102.4298
 20
-169.6133
 30
0.0
 10
87.8287
 20
-174.7109
 30
0.0
 10
87.8287
 20
-174.7109
 30
0.0
 10
88.94340000000001
 20
-187.3977
 30
0.0
 10
69.7805
 20
-179.7969
 30
0.0
 10
71.4957
 20
-193.0842
 30
0.0
 10
71.4957
 20
-193.0842
 30
0.0
 10
90.8229
 20
-181.1804
 30
0.0
 10
118.3397
 20
-164.0014
 30
0.0
 10
140.9132
 20
-182.8774
 30
0.0
  0
SPLINE
  5
AB
330
1F
100
AcDbEntity
  8
layer 1
100
AcDbSpline
210
0.0
220
0.0
230
1.0
 70
    11
 71
     3
 72
    20
 73
    16
 74
     0
 42
0.0000000001
 43
0.0000000001
 40
0.0
 40
0.0
 40
0.0
 40
0.0
 40
0.25
 40
0.25
 40
0.25
 40
0.25
 40
0.5
 40
0.5
 40
0.5
 40
0.5
 40
0.75
 40
0.75
 40
0.75
 40
0.75
 40
1.0
 40
1.0
 40
1.0
 40
1.0
 10
561.5172
 20
-178.7916
 30
0.0
 10
552.5213
 20
-177.579
 30
0.0
 10
547.3042
 20
-172.5843
 30
0.0
 10
545.1776
 20
-164.4991
 30
0.0
 10
545.1776
 20
-164.4991
 30
0.0
 10
539.9655
 20
-165.4131
 30
0.0
 10
535.7935
 20
-167.3622
 30
0.0
 10
532.9254000000001
 20
-170.6252
 30
0.0
 10
532.9254000000001
 20
-170.6252
 30
0.0
 10
543.9152
 20
-175.2882
 30
0.0
 10
553.2014
 20
-181.6548
 30
0.0
 10
561.5172
 20
-188.9985
 30
0.0
 10
561.5172
 20
-188.9985
 30
0.0
 10
561.5172
 20
-185.5979
 30
0.0
 10
561.5172
 20
-182.1923
 30
0.0
 10
561.5172
 20
-178.7916
 30
0.0
  0
SPLINE
  5
AC
330
1F
100
AcDbEntity
  8
layer 1
100
AcDbSpline
210
0.0
220
0.0
230
1.0
 70
    11
 71
     3
 72
    12
 73
     8
 74
     0
 42
0.0000000001
 43
0.0000000001
 40
0.0
 40
0.0
 40
0.0
 40
0.0
 40
0.5
 40
0.5
 40
0.5
 40
0.5
 40
1.0
 40
1.0
 40
1.0
 40
1.0
 10
485.9719
 20
-176.7446
 30
0.0
 10
477.8337
 20
-176.7795
 30
0.0
 10
474.7134
 20
-181.8257
 30
0.0
 10
473.7197000000001
 20
-188.9985
 30
0.0
 10
473.7197000000001
 20
-188.9985
 30
0.0
 10
481.7535
 20
-188.8658
 30
0.0
 10
483.6064
 20
-182.5522
 30
0.0
 10
485.9719
 20
-176.7446
 30
0.0
  0
SPLINE
  5
AD
330
1F
100
AcDbEntity
  8
layer 1
100
AcDbSpline
210
0.0
220
0.0
230
1.0
 70
    11
 71
     3
 72
    52
 73
    48
 74
     0
 42
0.0000000001
 43
0.0000000001
 40
0.0
 40
0.0
 40
0.0
 40
0.0
 40
0.0833333333333333
 40
0.0833333333333333
 40
0.0833333333333333
 40
0.0833333333333333
 40
0.1666666666666667
 40
0.1666666666666667
 40
0.1666666666666667
 40
0.1666666666666667
 40
0.25
 40
0.25
 40
0.25
 40
0.25
 40
0.3333333333333333
 40
0.3333333333333333
 40
0.3333333333333333
 40
0.3333333333333333
 40
0.4166666666666666
 40
0.4166666666666666
 40
0.4166666666666666
 40
0.4166666666666666
 40
0.4999999999999999
 40
0.4999999999999999
 40
0.4999999999999999
 40
0.4999999999999999
 40
0.5833333333333333
 40
0.5833333333333333
 40
0.5833333333333333
 40
0.5833333333333333
 40
0.6666666666666666
 40
0.6666666666666666
 40
0.6666666666666666
 40
0.6666666666666666
 40
0.75
 40
0.75
 40
0.75
 40
0.75
 40
0.8333333333333334
 40
0.8333333333333334
 40
0.8333333333333334
 40
0.8333333333333334
 40
0.9166666666666667
 40
0.9166666666666667
 40
0.9166666666666667
 40
0.9166666666666667
 40
1.0
 40
1.0
 40
1.0
 40
1.0
 10
396.1341000000001
 20
-168.5782
 30
0.0
 10
399.6426
 20
-168.4703
 30
0.0
 10
401.3694
 20
-170.1507
 30
0.0
 10
402.2536
 20
-172.6655
 30
0.0
 10
402.2536
 20
-172.6655
 30
0.0
 10
403.7067
 20
-180.2365
 30
0.0
 10
398.7684
 20
-181.4259
 30
0.0
 10
400.2149
 20
-188.9985
 30
0.0
 10
400.2149
 20
-188.9985
 30
0.0
 10
415.4264
 20
-187.0775
 30
0.0
 10
402.7512
 20
-167.0354
 30
0.0
 10
414.5074
 20
-164.4991
 30
0.0
 10
414.5074
 20
-164.4991
 30
0.0
 10
421.5874
 20
-163.5386
 30
0.0
 10
415.6786
 20
-175.5735
 30
0.0
 10
420.6335
 20
-176.7446
 30
0.0
 10
420.6335
 20
-176.7446
 30
0.0
 10
430.8802
 20
-169.3562
 30
0.0
 10
420.6617
 20
-160.3669
 30
0.0
 10
424.7193
 20
-152.2452
 30
0.0
 10
424.7193
 20
-152.2452
 30
0.0
 10
433.5144
 20
-149.5712
 30
0.0
 10
427.2457
 20
-161.9677
 30
0.0
 10
434.9261
 20
-160.4117
 30
0.0
 10
434.9261
 20
-160.4117
 30
0.0
 10
445.6538000000001
 20
-152.0113
 30
0.0
 10
427.6173
 20
-143.9593
 30
0.0
 10
436.9665
 20
-137.9526
 30
0.0
 10
436.9665
 20
-137.9526
 30
0.0
 10
444.6303
 20
-136.4215
 30
0.0
 10
441.4188
 20
-145.7542
 30
0.0
 10
447.1733
 20
-146.1191
 30
0.0
 10
447.1733
 20
-146.1191
 30
0.0
 10
448.8935
 20
-141.0331
 30
0.0
 10
449.8490000000001
 20
-135.1807
 30
0.0
 10
449.2187
 20
-127.7458
 30
0.0
 10
449.2187
 20
-127.7458
 30
0.0
 10
419.061
 20
-136.3751
 30
0.0
 10
397.5458
 20
-153.6635
 30
0.0
 10
385.9206
 20
-180.832
 30
0.0
 10
385.9206
 20
-180.832
 30
0.0
 10
389.7791
 20
-180.3742
 30
0.0
 10
390.431
 20
-183.1295
 30
0.0
 10
394.0871
 20
-182.8774
 30
0.0
 10
394.0871
 20
-182.8774
 30
0.0
 10
396.3282
 20
-175.0991
 30
0.0
 10
388.6942
 20
-170.1225
 30
0.0
 10
396.1341000000001
 20
-168.5782
 30
0.0
  0
SPLINE
  5
AE
330
1F
100
AcDbEntity
  8
layer 1
100
AcDbSpline
210
0.0
220
0.0
230
1.0
 70
    11
 71
     3
 72
    48
 73
    44
 74
     0
 42
0.0000000001
 43
0.0000000001
 40
0.0
 40
0.0
 40
0.0
 40
0.0
 40
0.0909090909090909
 40
0.0909090909090909
 40
0.0909090909090909
 40
0.0909090909090909
 40
0.1818181818181818
 40
0.1818181818181818
 40
0.1818181818181818
 40
0.1818181818181818
 40
0.2727272727272727
 40
0.2727272727272727
 40
0.2727272727272727
 40
0.2727272727272727
 40
0.3636363636363637
 40
0.3636363636363637
 40
0.3636363636363637
 40
0.3636363636363637
 40
0.4545454545454546
 40
0.4545454545454546
 40
0.4545454545454546
 40
0.4545454545454546
 40
0.5454545454545455
 40
0.5454545454545455
 40
0.5454545454545455
 40
0.5454545454545455
 40
0.6363636363636365
 40
0.6363636363636365
 40
0.6363636363636365
 40
0.6363636363636365
 40
0.7272727272727274
 40
0.7272727272727274
 40
0.7272727272727274
 40
0.7272727272727274
 40
0.8181818181818183
 40
0.8181818181818183
 40
0.8181818181818183
 40
0.8181818181818183
 40
0.9090909090909093
 40
0.9090909090909093
 40
0.9090909090909093
 40
0.9090909090909093
 40
1.0
 40
1.0
 40
1.0
 40
1.0
 10
306.2963
 20
-164.4991
 30
0.0
 10
306.7243
 20
-162.2016
 30
0.0
 10
308.559
 20
-161.3207
 30
0.0
 10
310.382
 20
-160.4117
 30
0.0
 10
310.382
 20
-160.4117
 30
0.0
 10
319.8358
 20
-159.1261
 30
0.0
 10
316.6176
 20
-170.5041
 30
0.0
 10
326.715
 20
-168.5782
 30
0.0
 10
326.715
 20
-168.5782
 30
0.0
 10
331.2071
 20
-153.2007
 30
0.0
 10
315.0284
 20
-158.4924
 30
0.0
 10
314.4628
 20
-148.1661
 30
0.0
 10
314.4628
 20
-148.1661
 30
0.0
 10
318.9997
 20
-143.4384
 30
0.0
 10
322.4235
 20
-148.8562
 30
0.0
 10
328.7553
 20
-148.1661
 30
0.0
 10
328.7553
 20
-148.1661
 30
0.0
 10
331.5107
 20
-135.1973
 30
0.0
 10
316.12
 20
-140.3812
 30
0.0
 10
316.5031
 20
-129.7862
 30
0.0
 10
316.5031
 20
-129.7862
 30
0.0
 10
318.9201
 20
-127.4373
 30
0.0
 10
323.7208
 20
-127.4771
 30
0.0
 10
328.7553
 20
-127.7458
 30
0.0
 10
328.7553
 20
-127.7458
 30
0.0
 10
331.0296
 20
-117.2934
 30
0.0
 10
320.6237
 20
-119.5445
 30
0.0
 10
320.5889
 20
-111.4129
 30
0.0
 10
320.5889
 20
-111.4129
 30
0.0
 10
324.3661
 20
-110.2649
 30
0.0
 10
330.7725
 20
-101.3951
 30
0.0
 10
324.6696
 20
-97.1203
 30
0.0
 10
324.6696
 20
-97.1203
 30
0.0
 10
308.7016
 20
-114.9512
 30
0.0
 10
292.9128
 20
-142.3254
 30
0.0
 10
296.0845
 20
-172.6655
 30
0.0
 10
296.0845
 20
-172.6655
 30
0.0
 10
308.5656
 20
-171.0764
 30
0.0
 10
309.9358
 20
-180.5981
 30
0.0
 10
318.5485
 20
-182.8774
 30
0.0
 10
318.5485
 20
-182.8774
 30
0.0
 10
326.9787
 20
-171.3501
 30
0.0
 10
307.0444
 20
-173.3556
 30
0.0
 10
306.2963
 20
-164.4991
 30
0.0
  0
SPLINE
  5
AF
330
1F
100
AcDbEntity
  8
layer 1
100
AcDbSpline
210
0.0
220
0.0
230
1.0
 70
    11
 71
     3
 72
    60
 73
    56
 74
     0
 42
0.0000000001
 43
0.0000000001
 40
0.0
 40
0.0
 40
0.0
 40
0.0
 40
0.0714285714285714
 40
0.0714285714285714
 40
0.0714285714285714
 40
0.0714285714285714
 40
0.1428571428571429
 40
0.1428571428571429
 40
0.1428571428571429
 40
0.1428571428571429
 40
0.2142857142857143
 40
0.2142857142857143
 40
0.2142857142857143
 40
0.2142857142857143
 40
0.2857142857142857
 40
0.2857142857142857
 40
0.2857142857142857
 40
0.2857142857142857
 40
0.3571428571428571
 40
0.3571428571428571
 40
0.3571428571428571
 40
0.3571428571428571
 40
0.4285714285714285
 40
0.4285714285714285
 40
0.4285714285714285
 40
0.4285714285714285
 40
0.4999999999999999
 40
0.4999999999999999
 40
0.4999999999999999
 40
0.4999999999999999
 40
0.5714285714285713
 40
0.5714285714285713
 40
0.5714285714285713
 40
0.5714285714285713
 40
0.6428571428571427
 40
0.6428571428571427
 40
0.6428571428571427
 40
0.6428571428571427
 40
0.7142857142857141
 40
0.7142857142857141
 40
0.7142857142857141
 40
0.7142857142857141
 40
0.7857142857142855
 40
0.7857142857142855
 40
0.7857142857142855
 40
0.7857142857142855
 40
0.8571428571428569
 40
0.8571428571428569
 40
0.8571428571428569
 40
0.8571428571428569
 40
0.9285714285714283
 40
0.9285714285714283
 40
0.9285714285714283
 40
0.9285714285714283
 40
1.0
 40
1.0
 40
1.0
 40
1.0
 10
204.2113
 20
-131.8315
 30
0.0
 10
210.2113
 20
-136.3187
 30
0.0
 10
198.5314
 20
-147.914
 30
0.0
 10
208.292
 20
-150.1999
 30
0.0
 10
208.292
 20
-150.1999
 30
0.0
 10
207.738
 20
-142.8512
 30
0.0
 10
207.7827
 20
-136.0848
 30
0.0
 10
216.4585
 20
-137.9526
 30
0.0
 10
216.4585
 20
-137.9526
 30
0.0
 10
216.7438
 20
-143.8216
 30
0.0
 10
210.7836
 20
-153.8742
 30
0.0
 10
216.4585
 20
-158.373
 30
0.0
 10
216.4585
 20
-158.373
 30
0.0
 10
219.3216
 20
-154.4349
 30
0.0
 10
217.5732
 20
-145.8736
 30
0.0
 10
226.6653
 20
-148.1661
 30
0.0
 10
226.6653
 20
-148.1661
 30
0.0
 10
226.2821
 20
-157.1886
 30
0.0
 10
220.5326
 20
-171.8311
 30
0.0
 10
230.7511
 20
-174.7109
 30
0.0
 10
230.7511
 20
-174.7109
 30
0.0
 10
230.3463
 20
-166.138
 30
0.0
 10
230.6316
 20
-158.2519
 30
0.0
 10
240.9645
 20
-160.4117
 30
0.0
 10
240.9645
 20
-160.4117
 30
0.0
 10
240.9297
 20
-166.6357
 30
0.0
 10
232.6654
 20
-184.1232
 30
0.0
 10
247.084
 20
-180.832
 30
0.0
 10
247.084
 20
-180.832
 30
0.0
 10
247.7641
 20
-172.6705
 30
0.0
 10
244.4614
 20
-160.5145
 30
0.0
 10
253.2118
 20
-160.4117
 30
0.0
 10
253.2118
 20
-160.4117
 30
0.0
 10
255.4976
 20
-160.8463
 30
0.0
 10
256.3884
 20
-162.681
 30
0.0
 10
257.2975
 20
-164.4991
 30
0.0
 10
257.2975
 20
-164.4991
 30
0.0
 10
258.812
 20
-170.7794
 30
0.0
 10
251.6906
 20
-168.4255
 30
0.0
 10
253.2118
 20
-174.7109
 30
0.0
 10
253.2118
 20
-174.7109
 30
0.0
 10
259.2964
 20
-173.991
 30
0.0
 10
265.6464
 20
-173.5281
 30
0.0
 10
267.5043
 20
-168.5782
 30
0.0
 10
267.5043
 20
-168.5782
 30
0.0
 10
249.1194
 20
-148.8512
 30
0.0
 10
223.1967
 20
-125.7801
 30
0.0
 10
191.9524
 20
-125.7005
 30
0.0
 10
191.9524
 20
-125.7005
 30
0.0
 10
195.2967
 20
-129.2719
 30
0.0
 10
194.2682
 20
-147.7597
 30
0.0
 10
200.1255
 20
-142.0334
 30
0.0
 10
200.1255
 20
-142.0334
 30
0.0
 10
195.4393
 20
-140.4326
 30
0.0
 10
198.1366
 20
-129.398
 30
0.0
 10
204.2113
 20
-131.8315
 30
0.0
  0
SPLINE
  5
B0
330
1F
100
AcDbEntity
  8
layer 1
100
AcDbSpline
210
0.0
220
0.0
230
1.0
 70
    11
 71
     3
 72
    44
 73
    40
 74
     0
 42
0.0000000001
 43
0.0000000001
 40
0.0
 40
0.0
 40
0.0
 40
0.0
 40
0.1
 40
0.1
 40
0.1
 40
0.1
 40
0.2
 40
0.2
 40
0.2
 40
0.2
 40
0.3
 40
0.3
 40
0.3
 40
0.3
 40
0.4
 40
0.4
 40
0.4
 40
0.4
 40
0.5
 40
0.5
 40
0.5
 40
0.5
 40
0.6
 40
0.6
 40
0.6
 40
0.6
 40
0.7
 40
0.7
 40
0.7
 40
0.7
 40
0.7999999999999999
 40
0.7999999999999999
 40
0.7999999999999999
 40
0.7999999999999999
 40
0.8999999999999999
 40
0.8999999999999999
 40
0.8999999999999999
 40
0.8999999999999999
 40
1.0
 40
1.0
 40
1.0
 40
1.0
 10
363.4682
 20
-168.5782
 30
0.0
 10
363.6043
 20
-150.5432
 30
0.0
 10
355.4842
 20
-123.6252
 30
0.0
 10
341.0026
 20
-113.4599
 30
0.0
 10
341.0026
 20
-113.4599
 30
0.0
 10
341.3227
 20
-118.5343
 30
0.0
 10
337.796
 20
-119.7734
 30
0.0
 10
336.9218
 20
-123.6601
 30
0.0
 10
336.9218
 20
-123.6601
 30
0.0
 10
340.5397
 20
-124.1345
 30
0.0
 10
347.1452
 20
-121.6031
 30
0.0
 10
345.0883
 20
-127.7458
 30
0.0
 10
345.0883
 20
-127.7458
 30
0.0
 10
342.6548
 20
-134.1572
 30
0.0
 10
335.5284
 20
-135.8841
 30
0.0
 10
334.8814
 20
-144.0787
 30
0.0
 10
334.8814
 20
-144.0787
 30
0.0
 10
343.0197
 20
-146.0959
 30
0.0
 10
341.0308
 20
-137.9759
 30
0.0
 10
349.169
 20
-139.9997
 30
0.0
 10
349.169
 20
-139.9997
 30
0.0
 10
349.8143
 20
-142.7533
 30
0.0
 10
352.0786
 20
-143.8963
 30
0.0
 10
351.216
 20
-148.1661
 30
0.0
 10
351.216
 20
-148.1661
 30
0.0
 10
345.0087
 20
-148.0799
 30
0.0
 10
337.7745
 20
-146.9767
 30
0.0
 10
338.9622
 20
-154.2856
 30
0.0
 10
338.9622
 20
-154.2856
 30
0.0
 10
347.6329
 20
-152.4227
 30
0.0
 10
349.2387
 20
-157.6232
 30
0.0
 10
351.216
 20
-162.4521
 30
0.0
 10
351.216
 20
-162.4521
 30
0.0
 10
343.9686
 20
-165.4181
 30
0.0
 10
332.8925
 20
-164.5555
 30
0.0
 10
332.8361
 20
-174.7109
 30
0.0
 10
332.8361
 20
-174.7109
 30
0.0
 10
344.4828
 20
-171.9854
 30
0.0
 10
354.7925
 20
-169.2185
 30
0.0
 10
363.4682
 20
-168.5782
 30
0.0
  0
SPLINE
  5
B1
330
1F
100
AcDbEntity
  8
layer 1
100
AcDbSpline
210
0.0
220
0.0
230
1.0
 70
    11
 71
     3
 72
    16
 73
    12
 74
     0
 42
0.0000000001
 43
0.0000000001
 40
0.0
 40
0.0
 40
0.0
 40
0.0
 40
0.3333333333333333
 40
0.3333333333333333
 40
0.3333333333333333
 40
0.3333333333333333
 40
0.6666666666666666
 40
0.6666666666666666
 40
0.6666666666666666
 40
0.6666666666666666
 40
1.0
 40
1.0
 40
1.0
 40
1.0
 10
457.3851
 20
-164.4991
 30
0.0
 10
451.4531
 20
-161.835
 30
0.0
 10
442.9615
 20
-161.9163
 30
0.0
 10
439.0068
 20
-166.5394
 30
0.0
 10
439.0068
 20
-166.5394
 30
0.0
 10
443.0295
 20
-169.328
 30
0.0
 10
450.6768
 20
-168.4936
 30
0.0
 10
455.3464
 20
-170.6252
 30
0.0
 10
455.3464
 20
-170.6252
 30
0.0
 10
455.2535
 20
-167.8134
 30
0.0
 10
456.3052
 20
-166.138
 30
0.0
 10
457.3851
 20
-164.4991
 30
0.0
  0
SPLINE
  5
B2
330
1F
100
AcDbEntity
  8
layer 1
100
AcDbSpline
210
0.0
220
0.0
230
1.0
 70
    11
 71
     3
 72
    12
 73
     8
 74
     0
 42
0.0000000001
 43
0.0000000001
 40
0.0
 40
0.0
 40
0.0
 40
0.0
 40
0.5
 40
0.5
 40
0.5
 40
0.5
 40
1.0
 40
1.0
 40
1.0
 40
1.0
 10
520.6782000000001
 20
-166.5378
 30
0.0
 10
523.0487000000001
 20
-168.253
 30
0.0
 10
526.1524000000001
 20
-169.2301
 30
0.0
 10
530.89
 20
-168.5782
 30
0.0
 10
530.89
 20
-168.5782
 30
0.0
 10
532.0495000000001
 20
-158.4178
 30
0.0
 10
521.8095000000001
 20
-159.8576
 30
0.0
 10
520.6782000000001
 20
-166.5378
 30
0.0
  0
SPLINE
  5
B3
330
1F
100
AcDbEntity
  8
layer 1
100
AcDbSpline
210
0.0
220
0.0
230
1.0
 70
    11
 71
     3
 72
    16
 73
    12
 74
     0
 42
0.0000000001
 43
0.0000000001
 40
0.0
 40
0.0
 40
0.0
 40
0.0
 40
0.3333333333333333
 40
0.3333333333333333
 40
0.3333333333333333
 40
0.3333333333333333
 40
0.6666666666666666
 40
0.6666666666666666
 40
0.6666666666666666
 40
0.6666666666666666
 40
1.0
 40
1.0
 40
1.0
 40
1.0
 10
457.3851
 20
-146.1191
 30
0.0
 10
457.1629
 20
-149.9759
 30
0.0
 10
450.637
 20
-147.5358
 30
0.0
 10
451.259
 20
-152.2452
 30
0.0
 10
451.259
 20
-152.2452
 30
0.0
 10
455.3166
 20
-152.2734
 30
0.0
 10
453.8601000000001
 20
-157.8173
 30
0.0
 10
459.4322
 20
-156.3326
 30
0.0
 10
459.4322
 20
-156.3326
 30
0.0
 10
458.3970000000001
 20
-149.9145
 30
0.0
 10
464.2378000000001
 20
-147.9886
 30
0.0
 10
457.3851
 20
-146.1191
 30
0.0
  0
SPLINE
  5
B4
330
1F
100
AcDbEntity
  8
layer 1
100
AcDbSpline
210
0.0
220
0.0
230
1.0
 70
    11
 71
     3
 72
    12
 73
     8
 74
     0
 42
0.0000000001
 43
0.0000000001
 40
0.0
 40
0.0
 40
0.0
 40
0.0
 40
0.5
 40
0.5
 40
0.5
 40
0.5
 40
1.0
 40
1.0
 40
1.0
 40
1.0
 10
177.6665
 20
-131.8315
 30
0.0
 10
178.3864
 20
-137.9195
 30
0.0
 10
178.8443
 20
-144.2629
 30
0.0
 10
183.786
 20
-146.1191
 30
0.0
 10
183.786
 20
-146.1191
 30
0.0
 10
189.1407
 20
-140.1705
 30
0.0
 10
182.2847
 20
-134.0494
 30
0.0
 10
177.6665
 20
-131.8315
 30
0.0
  0
SPLINE
  5
B5
330
1F
100
AcDbEntity
  8
layer 1
100
AcDbSpline
210
0.0
220
0.0
230
1.0
 70
    11
 71
     3
 72
    12
 73
     8
 74
     0
 42
0.0000000001
 43
0.0000000001
 40
0.0
 40
0.0
 40
0.0
 40
0.0
 40
0.5
 40
0.5
 40
0.5
 40
0.5
 40
1.0
 40
1.0
 40
1.0
 40
1.0
 10
461.4725
 20
-121.6197
 30
0.0
 10
456.5524
 20
-120.7853
 30
0.0
 10
457.0318
 20
-125.3521
 30
0.0
 10
451.259
 20
-123.6601
 30
0.0
 10
451.259
 20
-123.6601
 30
0.0
 10
449.723
 20
-132.8783
 30
0.0
 10
464.9013000000001
 20
-131.3123
 30
0.0
 10
461.4725
 20
-121.6197
 30
0.0
  0
SPLINE
  5
B6
330
1F
100
AcDbEntity
  8
layer 1
100
AcDbSpline
210
0.0
220
0.0
230
1.0
 70
    11
 71
     3
 72
    12
 73
     8
 74
     0
 42
0.0000000001
 43
0.0000000001
 40
0.0
 40
0.0
 40
0.0
 40
0.0
 40
0.5
 40
0.5
 40
0.5
 40
0.5
 40
1.0
 40
1.0
 40
1.0
 40
1.0
 10
179.7069
 20
-119.5793
 30
0.0
 10
179.9524
 20
-124.7748
 30
0.0
 10
182.6828
 20
-127.5003
 30
0.0
 10
187.8733
 20
-127.7458
 30
0.0
 10
187.8733
 20
-127.7458
 30
0.0
 10
189.9353
 20
-119.717
 30
0.0
 10
183.363
 20
-115.8934
 30
0.0
 10
179.7069
 20
-119.5793
 30
0.0
  0
SPLINE
  5
B7
330
1F
100
AcDbEntity
  8
layer 1
100
AcDbSpline
210
0.0
220
0.0
230
1.0
 70
    11
 71
     3
 72
    12
 73
     8
 74
     0
 42
0.0000000001
 43
0.0000000001
 40
0.0
 40
0.0
 40
0.0
 40
0.0
 40
0.5
 40
0.5
 40
0.5
 40
0.5
 40
1.0
 40
1.0
 40
1.0
 40
1.0
 10
369.5943
 20
-111.4129
 30
0.0
 10
371.4738
 20
-114.9678
 30
0.0
 10
369.5197
 20
-122.3745
 30
0.0
 10
375.7155
 20
-121.6197
 30
0.0
 10
375.7155
 20
-121.6197
 30
0.0
 10
378.771
 20
-118.5973
 30
0.0
 10
375.9029000000001
 20
-111.0695
 30
0.0
 10
369.5943
 20
-111.4129
 30
0.0
  0
SPLINE
  5
B8
330
1F
100
AcDbEntity
  8
layer 1
100
AcDbSpline
210
0.0
220
0.0
230
1.0
 70
    11
 71
     3
 72
    12
 73
     8
 74
     0
 42
0.0000000001
 43
0.0000000001
 40
0.0
 40
0.0
 40
0.0
 40
0.0
 40
0.5
 40
0.5
 40
0.5
 40
0.5
 40
1.0
 40
1.0
 40
1.0
 40
1.0
 10
283.8373
 20
-111.4129
 30
0.0
 10
277.7676
 20
-108.9843
 30
0.0
 10
275.0653
 20
-120.0206
 30
0.0
 10
279.7499
 20
-121.6197
 30
0.0
 10
279.7499
 20
-121.6197
 30
0.0
 10
280.6257
 20
-117.7281
 30
0.0
 10
285.5857
 20
-117.9288
 30
0.0
 10
283.8373
 20
-111.4129
 30
0.0
  0
SPLINE
  5
B9
330
1F
100
AcDbEntity
  8
layer 1
100
AcDbSpline
210
0.0
220
0.0
230
1.0
 70
    11
 71
     3
 72
    16
 73
    12
 74
     0
 42
0.0000000001
 43
0.0000000001
 40
0.0
 40
0.0
 40
0.0
 40
0.0
 40
0.3333333333333333
 40
0.3333333333333333
 40
0.3333333333333333
 40
0.3333333333333333
 40
0.6666666666666666
 40
0.6666666666666666
 40
0.6666666666666666
 40
0.6666666666666666
 40
1.0
 40
1.0
 40
1.0
 40
1.0
 10
332.8361
 20
-99.16070000000001
 30
0.0
 10
332.1908
 20
-103.8983
 30
0.0
 10
333.1679
 20
-107.002
 30
0.0
 10
334.8814
 20
-109.3725
 30
0.0
 10
334.8814
 20
-109.3725
 30
0.0
 10
336.9218
 20
-109.3725
 30
0.0
 10
338.9622
 20
-109.3725
 30
0.0
 10
341.0026
 20
-109.3725
 30
0.0
 10
341.0026
 20
-109.3725
 30
0.0
 10
340.8715
 20
-103.3841
 30
0.0
 10
336.3329
 20
-101.7833
 30
0.0
 10
332.8361
 20
-99.16070000000001
 30
0.0
  0
SPLINE
  5
BA
330
1F
100
AcDbEntity
  8
layer 1
100
AcDbSpline
210
0.0
220
0.0
230
1.0
 70
    11
 71
     3
 72
    24
 73
    20
 74
     0
 42
0.0000000001
 43
0.0000000001
 40
0.0
 40
0.0
 40
0.0
 40
0.0
 40
0.2
 40
0.2
 40
0.2
 40
0.2
 40
0.4
 40
0.4
 40
0.4
 40
0.4
 40
0.6000000000000001
 40
0.6000000000000001
 40
0.6000000000000001
 40
0.6000000000000001
 40
0.8
 40
0.8
 40
0.8
 40
0.8
 40
1.0
 40
1.0
 40
1.0
 40
1.0
 10
320.5889
 20
-203.2911
 30
0.0
 10
364.9529
 20
-153.423
 30
0.0
 10
449.1623
 20
-236.7051
 30
0.0
 10
392.0484
 20
-276.7959
 30
0.0
 10
392.0484
 20
-276.7959
 30
0.0
 10
433.3834
 20
-324.8343
 30
0.0
 10
347.8204
 20
-383.8343
 30
0.0
 10
318.5485
 20
-331.9275
 30
0.0
 10
318.5485
 20
-331.9275
 30
0.0
 10
274.9907
 20
-369.6114
 30
0.0
 10
216.1848
 20
-299.6199
 30
0.0
 10
261.3782
 20
-266.5824
 30
0.0
 10
261.3782
 20
-266.5824
 30
0.0
 10
253.24
 20
-258.3944
 30
0.0
 10
245.0503
 20
-250.2445
 30
0.0
 10
238.9175
 20
-240.0443
 30
0.0
 10
238.9175
 20
-240.0443
 30
0.0
 10
225.6186
 20
-188.461
 30
0.0
 10
295.2434
 20
-178.5793
 30
0.0
 10
320.5889
 20
-203.2911
 30
0.0
  0
SPLINE
  5
BB
330
1F
100
AcDbEntity
  8
layer 1
100
AcDbSpline
210
0.0
220
0.0
230
1.0
 70
    11
 71
     3
 72
    12
 73
     8
 74
     0
 42
0.0000000001
 43
0.0000000001
 40
0.0
 40
0.0
 40
0.0
 40
0.0
 40
0.5
 40
0.5
 40
0.5
 40
0.5
 40
1.0
 40
1.0
 40
1.0
 40
1.0
 10
371.6347
 20
-323.7594
 30
0.0
 10
366.2451
 20
-323.6233
 30
0.0
 10
361.4561
 20
-341.8988
 30
0.0
 10
369.5943
 20
-342.1343
 30
0.0
 10
369.5943
 20
-342.1343
 30
0.0
 10
370.8633
 20
-337.2474
 30
0.0
 10
370.2164
 20
-332.5147
 30
0.0
 10
371.6347
 20
-323.7594
 30
0.0
  0
SPLINE
  5
BC
330
1F
100
AcDbEntity
  8
layer 1
100
AcDbSpline
210
0.0
220
0.0
230
1.0
 70
    11
 71
     3
 72
    12
 73
     8
 74
     0
 42
0.0000000001
 43
0.0000000001
 40
0.0
 40
0.0
 40
0.0
 40
0.0
 40
0.5
 40
0.5
 40
0.5
 40
0.5
 40
1.0
 40
1.0
 40
1.0
 40
1.0
 10
343.0479
 20
-331.9258
 30
0.0
 10
335.5383
 20
-327.5598
 30
0.0
 10
333.8364
 20
-342.3218
 30
0.0
 10
341.0026
 20
-340.094
 30
0.0
 10
341.0026
 20
-340.094
 30
0.0
 10
340.5447
 20
-336.2305
 30
0.0
 10
343.305
 20
-335.5786
 30
0.0
 10
343.0479
 20
-331.9258
 30
0.0
  0
SPLINE
  5
BD
330
1F
100
AcDbEntity
  8
layer 1
100
AcDbSpline
210
0.0
220
0.0
230
1.0
 70
    11
 71
     3
 72
    12
 73
     8
 74
     0
 42
0.0000000001
 43
0.0000000001
 40
0.0
 40
0.0
 40
0.0
 40
0.0
 40
0.5
 40
0.5
 40
0.5
 40
0.5
 40
1.0
 40
1.0
 40
1.0
 40
1.0
 10
294.0441
 20
-319.6687
 30
0.0
 10
292.7353
 20
-324.0861
 30
0.0
 10
286.4035
 20
-332.3721
 30
0.0
 10
294.0441
 20
-333.9679
 30
0.0
 10
294.0441
 20
-333.9679
 30
0.0
 10
294.3858
 20
-330.5208
 30
0.0
 10
298.3704
 20
-324.5838
 30
0.0
 10
294.0441
 20
-319.6687
 30
0.0
  0
SPLINE
  5
BE
330
1F
100
AcDbEntity
  8
layer 1
100
AcDbSpline
210
0.0
220
0.0
230
1.0
 70
    11
 71
     3
 72
    16
 73
    12
 74
     0
 42
0.0000000001
 43
0.0000000001
 40
0.0
 40
0.0
 40
0.0
 40
0.0
 40
0.3333333333333333
 40
0.3333333333333333
 40
0.3333333333333333
 40
0.3333333333333333
 40
0.6666666666666666
 40
0.6666666666666666
 40
0.6666666666666666
 40
0.6666666666666666
 40
1.0
 40
1.0
 40
1.0
 40
1.0
 10
285.8776
 20
-309.4618
 30
0.0
 10
274.8248
 20
-308.6158
 30
0.0
 10
282.5915
 20
-326.601
 30
0.0
 10
277.7045
 20
-331.9275
 30
0.0
 10
277.7045
 20
-331.9275
 30
0.0
 10
280.3222
 20
-332.0353
 30
0.0
 10
280.5395
 20
-334.5385
 30
0.0
 10
283.8373
 20
-333.9679
 30
0.0
 10
283.8373
 20
-333.9679
 30
0.0
 10
287.7505
 20
-329.0295
 30
0.0
 10
285.1229
 20
-317.5586
 30
0.0
 10
285.8776
 20
-309.4618
 30
0.0
  0
SPLINE
  5
BF
330
1F
100
AcDbEntity
  8
layer 1
100
AcDbSpline
210
0.0
220
0.0
230
1.0
 70
    11
 71
     3
 72
    12
 73
     8
 74
     0
 42
0.0000000001
 43
0.0000000001
 40
0.0
 40
0.0
 40
0.0
 40
0.0
 40
0.5
 40
0.5
 40
0.5
 40
0.5
 40
1.0
 40
1.0
 40
1.0
 40
1.0
 10
306.2963
 20
-321.714
 30
0.0
 10
300.5517
 20
-321.4171
 30
0.0
 10
300.4091
 20
-326.7154
 30
0.0
 10
300.1702
 20
-331.9275
 30
0.0
 10
300.1702
 20
-331.9275
 30
0.0
 10
306.5534
 20
-332.8581
 30
0.0
 10
306.6911
 20
-327.5598
 30
0.0
 10
306.2963
 20
-321.714
 30
0.0
  0
SPLINE
  5
C0
330
1F
100
AcDbEntity
  8
layer 1
100
AcDbSpline
210
0.0
220
0.0
230
1.0
 70
    11
 71
     3
 72
    12
 73
     8
 74
     0
 42
0.0000000001
 43
0.0000000001
 40
0.0
 40
0.0
 40
0.0
 40
0.0
 40
0.5
 40
0.5
 40
0.5
 40
0.5
 40
1.0
 40
1.0
 40
1.0
 40
1.0
 10
363.4682
 20
-315.5879
 30
0.0
 10
357.1464
 20
-314.1945
 30
0.0
 10
354.9584
 20
-327.2927
 30
0.0
 10
359.3825
 20
-329.8805
 30
0.0
 10
359.3825
 20
-329.8805
 30
0.0
 10
361.6452000000001
 20
-326.017
 30
0.0
 10
361.9819
 20
-320.2343
 30
0.0
 10
363.4682
 20
-315.5879
 30
0.0
  0
SPLINE
  5
C1
330
1F
100
AcDbEntity
  8
layer 1
100
AcDbSpline
210
0.0
220
0.0
230
1.0
 70
    11
 71
     3
 72
    12
 73
     8
 74
     0
 42
0.0000000001
 43
0.0000000001
 40
0.0
 40
0.0
 40
0.0
 40
0.0
 40
0.5
 40
0.5
 40
0.5
 40
0.5
 40
1.0
 40
1.0
 40
1.0
 40
1.0
 10
273.6238
 20
-321.714
 30
0.0
 10
268.2458
 20
-321.0969
 30
0.0
 10
266.927
 20
-324.544
 30
0.0
 10
267.5043
 20
-329.8805
 30
0.0
 10
267.5043
 20
-329.8805
 30
0.0
 10
272.8806
 20
-330.4976
 30
0.0
 10
274.2011
 20
-327.0522
 30
0.0
 10
273.6238
 20
-321.714
 30
0.0
  0
SPLINE
  5
C2
330
1F
100
AcDbEntity
  8
layer 1
100
AcDbSpline
210
0.0
220
0.0
230
1.0
 70
    11
 71
     3
 72
    12
 73
     8
 74
     0
 42
0.0000000001
 43
0.0000000001
 40
0.0
 40
0.0
 40
0.0
 40
0.0
 40
0.5
 40
0.5
 40
0.5
 40
0.5
 40
1.0
 40
1.0
 40
1.0
 40
1.0
 10
310.382
 20
-311.5022
 30
0.0
 10
306.9598
 20
-315.1699
 30
0.0
 10
309.8446
 20
-324.0347
 30
0.0
 10
314.4628
 20
-325.8014
 30
0.0
 10
314.4628
 20
-325.8014
 30
0.0
 10
317.1318
 20
-319.8744
 30
0.0
 10
316.12
 20
-314.0502
 30
0.0
 10
310.382
 20
-311.5022
 30
0.0
  0
SPLINE
  5
C3
330
1F
100
AcDbEntity
  8
layer 1
100
AcDbSpline
210
0.0
220
0.0
230
1.0
 70
    11
 71
     3
 72
    12
 73
     8
 74
     0
 42
0.0000000001
 43
0.0000000001
 40
0.0
 40
0.0
 40
0.0
 40
0.0
 40
0.5
 40
0.5
 40
0.5
 40
0.5
 40
1.0
 40
1.0
 40
1.0
 40
1.0
 10
332.8361
 20
-309.4618
 30
0.0
 10
326.9091
 20
-307.7864
 30
0.0
 10
320.1045
 20
-321.8003
 30
0.0
 10
328.7553
 20
-321.714
 30
0.0
 10
328.7553
 20
-321.714
 30
0.0
 10
327.7667
 20
-315.286
 30
0.0
 10
335.0191
 20
-317.0908
 30
0.0
 10
332.8361
 20
-309.4618
 30
0.0
  0
SPLINE
  5
C4
330
1F
100
AcDbEntity
  8
layer 1
100
AcDbSpline
210
0.0
220
0.0
230
1.0
 70
    11
 71
     3
 72
    12
 73
     8
 74
     0
 42
0.0000000001
 43
0.0000000001
 40
0.0
 40
0.0
 40
0.0
 40
0.0
 40
0.5
 40
0.5
 40
0.5
 40
0.5
 40
1.0
 40
1.0
 40
1.0
 40
1.0
 10
377.7542
 20
-317.6283
 30
0.0
 10
382.6577
 20
-319.3601
 30
0.0
 10
383.1603
 20
-318.9421
 30
0.0
 10
392.0484
 20
-319.6687
 30
0.0
 10
392.0484
 20
-319.6687
 30
0.0
 10
391.8029
 20
-311.187
 30
0.0
 10
381.956
 20
-314.5594
 30
0.0
 10
377.7542
 20
-317.6283
 30
0.0
  0
SPLINE
  5
C5
330
1F
100
AcDbEntity
  8
layer 1
100
AcDbSpline
210
0.0
220
0.0
230
1.0
 70
    11
 71
     3
 72
    16
 73
    12
 74
     0
 42
0.0000000001
 43
0.0000000001
 40
0.0
 40
0.0
 40
0.0
 40
0.0
 40
0.3333333333333333
 40
0.3333333333333333
 40
0.3333333333333333
 40
0.3333333333333333
 40
0.6666666666666666
 40
0.6666666666666666
 40
0.6666666666666666
 40
0.6666666666666666
 40
1.0
 40
1.0
 40
1.0
 40
1.0
 10
355.3018
 20
-301.2953
 30
0.0
 10
360.7245
 20
-301.2771
 30
0.0
 10
366.9601
 20
-302.0617
 30
0.0
 10
369.5943
 20
-299.255
 30
0.0
 10
369.5943
 20
-299.255
 30
0.0
 10
361.753
 20
-258.1771
 30
0.0
 10
312.5369
 20
-303.13
 30
0.0
 10
353.2614
 20
-313.5475
 30
0.0
 10
353.2614
 20
-313.5475
 30
0.0
 10
355.6037
 20
-311.1306
 30
0.0
 10
355.5705
 20
-306.3299
 30
0.0
 10
355.3018
 20
-301.2953
 30
0.0
  0
SPLINE
  5
C6
330
1F
100
AcDbEntity
  8
layer 1
100
AcDbSpline
210
0.0
220
0.0
230
1.0
 70
    11
 71
     3
 72
    12
 73
     8
 74
     0
 42
0.0000000001
 43
0.0000000001
 40
0.0
 40
0.0
 40
0.0
 40
0.0
 40
0.5
 40
0.5
 40
0.5
 40
0.5
 40
1.0
 40
1.0
 40
1.0
 40
1.0
 10
281.7903
 20
-291.0819
 30
0.0
 10
286.8481
 20
-296.9226
 30
0.0
 10
298.4434
 20
-296.2143
 30
0.0
 10
294.0441
 20
-311.5022
 30
0.0
 10
294.0441
 20
-311.5022
 30
0.0
 10
332.8129
 20
-307.3584
 30
0.0
 10
294.0441
 20
-252.9418
 30
0.0
 10
281.7903
 20
-291.0819
 30
0.0
  0
SPLINE
  5
C7
330
1F
100
AcDbEntity
  8
layer 1
100
AcDbSpline
210
0.0
220
0.0
230
1.0
 70
    11
 71
     3
 72
    12
 73
     8
 74
     0
 42
0.0000000001
 43
0.0000000001
 40
0.0
 40
0.0
 40
0.0
 40
0.0
 40
0.5
 40
0.5
 40
0.5
 40
0.5
 40
1.0
 40
1.0
 40
1.0
 40
1.0
 10
273.6238
 20
-307.4214
 30
0.0
 10
270.7955
 20
-302.77
 30
0.0
 10
259.4175
 20
-306.6567
 30
0.0
 10
253.2118
 20
-305.3811
 30
0.0
 10
253.2118
 20
-305.3811
 30
0.0
 10
250.3934
 20
-313.9938
 30
0.0
 10
273.9721
 20
-314.4848
 30
0.0
 10
273.6238
 20
-307.4214
 30
0.0
  0
SPLINE
  5
C8
330
1F
100
AcDbEntity
  8
layer 1
100
AcDbSpline
210
0.0
220
0.0
230
1.0
 70
    11
 71
     3
 72
    12
 73
     8
 74
     0
 42
0.0000000001
 43
0.0000000001
 40
0.0
 40
0.0
 40
0.0
 40
0.0
 40
0.5
 40
0.5
 40
0.5
 40
0.5
 40
1.0
 40
1.0
 40
1.0
 40
1.0
 10
394.0871
 20
-305.3811
 30
0.0
 10
383.8421
 20
-308.5362
 30
0.0
 10
372.8739
 20
-298.6545
 30
0.0
 10
369.5943
 20
-307.4214
 30
0.0
 10
369.5943
 20
-307.4214
 30
0.0
 10
373.4909
 20
-309.3241
 30
0.0
 10
393.5795
 20
-313.302
 30
0.0
 10
394.0871
 20
-305.3811
 30
0.0
  0
SPLINE
  5
C9
330
1F
100
AcDbEntity
  8
layer 1
100
AcDbSpline
210
0.0
220
0.0
230
1.0
 70
    11
 71
     3
 72
    12
 73
     8
 74
     0
 42
0.0000000001
 43
0.0000000001
 40
0.0
 40
0.0
 40
0.0
 40
0.0
 40
0.5
 40
0.5
 40
0.5
 40
0.5
 40
1.0
 40
1.0
 40
1.0
 40
1.0
 10
253.2101
 20
-293.1289
 30
0.0
 10
256.0285
 20
-300.5173
 30
0.0
 10
268.2873
 20
-298.472
 30
0.0
 10
277.7045
 20
-299.255
 30
0.0
 10
277.7045
 20
-299.255
 30
0.0
 10
278.3216
 20
-288.436
 30
0.0
 10
261.6752
 20
-294.8773
 30
0.0
 10
253.2101
 20
-293.1289
 30
0.0
  0
SPLINE
  5
CA
330
1F
100
AcDbEntity
  8
layer 1
100
AcDbSpline
210
0.0
220
0.0
230
1.0
 70
    11
 71
     3
 72
    12
 73
     8
 74
     0
 42
0.0000000001
 43
0.0000000001
 40
0.0
 40
0.0
 40
0.0
 40
0.0
 40
0.5
 40
0.5
 40
0.5
 40
0.5
 40
1.0
 40
1.0
 40
1.0
 40
1.0
 10
318.5485
 20
-246.1688
 30
0.0
 10
299.9247
 20
-251.4555
 30
0.0
 10
304.2443
 20
-291.1681
 30
0.0
 10
328.7553
 20
-284.9624
 30
0.0
 10
328.7553
 20
-284.9624
 30
0.0
 10
356.5077
 20
-277.9322
 30
0.0
 10
339.5444
 20
-240.2085
 30
0.0
 10
318.5485
 20
-246.1688
 30
0.0
  0
SPLINE
  5
CB
330
1F
100
AcDbEntity
  8
layer 1
100
AcDbSpline
210
0.0
220
0.0
230
1.0
 70
    11
 71
     3
 72
    12
 73
     8
 74
     0
 42
0.0000000001
 43
0.0000000001
 40
0.0
 40
0.0
 40
0.0
 40
0.0
 40
0.5
 40
0.5
 40
0.5
 40
0.5
 40
1.0
 40
1.0
 40
1.0
 40
1.0
 10
257.2958
 20
-280.8817
 30
0.0
 10
255.9306
 20
-289.7282
 30
0.0
 10
266.7661
 20
-286.3741
 30
0.0
 10
273.6238
 20
-287.0028
 30
0.0
 10
273.6238
 20
-287.0028
 30
0.0
 10
273.7449
 20
-279.4003
 30
0.0
 10
264.5433
 20
-281.1222
 30
0.0
 10
257.2958
 20
-280.8817
 30
0.0
  0
SPLINE
  5
CC
330
1F
100
AcDbEntity
  8
layer 1
100
AcDbSpline
210
0.0
220
0.0
230
1.0
 70
    11
 71
     3
 72
    12
 73
     8
 74
     0
 42
0.0000000001
 43
0.0000000001
 40
0.0
 40
0.0
 40
0.0
 40
0.0
 40
0.5
 40
0.5
 40
0.5
 40
0.5
 40
1.0
 40
1.0
 40
1.0
 40
1.0
 10
383.8819
 20
-276.7959
 30
0.0
 10
379.4976
 20
-273.0121
 30
0.0
 10
368.9258
 20
-275.4191
 30
0.0
 10
361.4279
 20
-274.7489
 30
0.0
 10
361.4279
 20
-274.7489
 30
0.0
 10
362.4962
 20
-285.0818
 30
0.0
 10
378.4243
 20
-279.5214
 30
0.0
 10
383.8819
 20
-276.7959
 30
0.0
  0
SPLINE
  5
CD
330
1F
100
AcDbEntity
  8
layer 1
100
AcDbSpline
210
0.0
220
0.0
230
1.0
 70
    11
 71
     3
 72
    12
 73
     8
 74
     0
 42
0.0000000001
 43
0.0000000001
 40
0.0
 40
0.0
 40
0.0
 40
0.0
 40
0.5
 40
0.5
 40
0.5
 40
0.5
 40
1.0
 40
1.0
 40
1.0
 40
1.0
 10
267.5043
 20
-270.6698
 30
0.0
 10
267.7896
 20
-277.8692
 30
0.0
 10
276.6595
 20
-276.4807
 30
0.0
 10
281.7919
 20
-278.8363
 30
0.0
 10
281.7919
 20
-278.8363
 30
0.0
 10
284.0247
 20
-269.1205
 30
0.0
 10
275.1566
 20
-270.5039
 30
0.0
 10
267.5043
 20
-270.6698
 30
0.0
  0
SPLINE
  5
CE
330
1F
100
AcDbEntity
  8
layer 1
100
AcDbSpline
210
0.0
220
0.0
230
1.0
 70
    11
 71
     3
 72
    12
 73
     8
 74
     0
 42
0.0000000001
 43
0.0000000001
 40
0.0
 40
0.0
 40
0.0
 40
0.0
 40
0.5
 40
0.5
 40
0.5
 40
0.5
 40
1.0
 40
1.0
 40
1.0
 40
1.0
 10
375.7155
 20
-258.416
 30
0.0
 10
376.024
 20
-266.9656
 30
0.0
 10
384.8689
 20
-266.9607
 30
0.0
 10
390.008
 20
-270.6698
 30
0.0
 10
390.008
 20
-270.6698
 30
0.0
 10
391.0315
 20
-260.7948
 30
0.0
 10
380.0815
 20
-262.9031
 30
0.0
 10
375.7155
 20
-258.416
 30
0.0
  0
SPLINE
  5
CF
330
1F
100
AcDbEntity
  8
layer 1
100
AcDbSpline
210
0.0
220
0.0
230
1.0
 70
    11
 71
     3
 72
    12
 73
     8
 74
     0
 42
0.0000000001
 43
0.0000000001
 40
0.0
 40
0.0
 40
0.0
 40
0.0
 40
0.5
 40
0.5
 40
0.5
 40
0.5
 40
1.0
 40
1.0
 40
1.0
 40
1.0
 10
281.7903
 20
-258.416
 30
0.0
 10
283.0377
 20
-250.918
 30
0.0
 10
264.2513
 20
-252.9584
 30
0.0
 10
267.5043
 20
-260.4563
 30
0.0
 10
267.5043
 20
-260.4563
 30
0.0
 10
272.9271
 20
-260.4331
 30
0.0
 10
279.1627
 20
-261.2343
 30
0.0
 10
281.7903
 20
-258.416
 30
0.0
  0
SPLINE
  5
D0
330
1F
100
AcDbEntity
  8
layer 1
100
AcDbSpline
210
0.0
220
0.0
230
1.0
 70
    11
 71
     3
 72
    20
 73
    16
 74
     0
 42
0.0000000001
 43
0.0000000001
 40
0.0
 40
0.0
 40
0.0
 40
0.0
 40
0.25
 40
0.25
 40
0.25
 40
0.25
 40
0.5
 40
0.5
 40
0.5
 40
0.5
 40
0.75
 40
0.75
 40
0.75
 40
0.75
 40
1.0
 40
1.0
 40
1.0
 40
1.0
 10
375.7155
 20
-238.0023
 30
0.0
 10
370.291
 20
-237.9807
 30
0.0
 10
364.0571
 20
-238.7753
 30
0.0
 10
361.4279
 20
-235.9636
 30
0.0
 10
361.4279
 20
-235.9636
 30
0.0
 10
366.9601
 20
-229.6998
 30
0.0
 10
363.8796
 20
-225.2193
 30
0.0
 10
359.3825
 20
-219.6306
 30
0.0
 10
359.3825
 20
-219.6306
 30
0.0
 10
341.7225
 20
-222.0194
 30
0.0
 10
335.6362
 20
-247.1757
 30
0.0
 10
349.169
 20
-258.416
 30
0.0
 10
349.169
 20
-258.416
 30
0.0
 10
365.9366
 20
-259.5307
 30
0.0
 10
374.4912
 20
-252.4276
 30
0.0
 10
375.7155
 20
-238.0023
 30
0.0
  0
SPLINE
  5
D1
330
1F
100
AcDbEntity
  8
layer 1
100
AcDbSpline
210
0.0
220
0.0
230
1.0
 70
    11
 71
     3
 72
    16
 73
    12
 74
     0
 42
0.0000000001
 43
0.0000000001
 40
0.0
 40
0.0
 40
0.0
 40
0.0
 40
0.3333333333333333
 40
0.3333333333333333
 40
0.3333333333333333
 40
0.3333333333333333
 40
0.6666666666666666
 40
0.6666666666666666
 40
0.6666666666666666
 40
0.6666666666666666
 40
1.0
 40
1.0
 40
1.0
 40
1.0
 10
310.382
 20
-227.7971
 30
0.0
 10
305.3756
 20
-223.9502
 30
0.0
 10
299.6095
 20
-220.8698
 30
0.0
 10
292.0037
 20
-219.6306
 30
0.0
 10
292.0037
 20
-219.6306
 30
0.0
 10
290.2487
 20
-232.4883
 30
0.0
 10
283.4076
 20
-229.4078
 30
0.0
 10
273.6238
 20
-231.8762
 30
0.0
 10
273.6238
 20
-231.8762
 30
0.0
 10
271.5204
 20
-262.7887
 30
0.0
 10
322.5198
 20
-258.9252
 30
0.0
 10
310.382
 20
-227.7971
 30
0.0
  0
SPLINE
  5
D2
330
1F
100
AcDbEntity
  8
layer 1
100
AcDbSpline
210
0.0
220
0.0
230
1.0
 70
    11
 71
     3
 72
    12
 73
     8
 74
     0
 42
0.0000000001
 43
0.0000000001
 40
0.0
 40
0.0
 40
0.0
 40
0.0
 40
0.5
 40
0.5
 40
0.5
 40
0.5
 40
1.0
 40
1.0
 40
1.0
 40
1.0
 10
269.5381
 20
-246.1688
 30
0.0
 10
264.0971
 20
-246.1688
 30
0.0
 10
258.6577
 20
-246.1688
 30
0.0
 10
253.2118
 20
-246.1688
 30
0.0
 10
253.2118
 20
-246.1688
 30
0.0
 10
251.7188
 20
-256.0223
 30
0.0
 10
269.052
 20
-252.1821
 30
0.0
 10
269.5381
 20
-246.1688
 30
0.0
  0
SPLINE
  5
D3
330
1F
100
AcDbEntity
  8
layer 1
100
AcDbSpline
210
0.0
220
0.0
230
1.0
 70
    11
 71
     3
 72
    12
 73
     8
 74
     0
 42
0.0000000001
 43
0.0000000001
 40
0.0
 40
0.0
 40
0.0
 40
0.0
 40
0.5
 40
0.5
 40
0.5
 40
0.5
 40
1.0
 40
1.0
 40
1.0
 40
1.0
 10
383.8819
 20
-248.2091
 30
0.0
 10
387.4584
 20
-247.6501
 30
0.0
 10
394.0705
 20
-253.9587
 30
0.0
 10
396.1341000000001
 20
-248.2108
 30
0.0
 10
396.1341000000001
 20
-248.2108
 30
0.0
 10
391.7797
 20
-247.0264
 30
0.0
 10
385.0066
 20
-241.1873
 30
0.0
 10
383.8819
 20
-248.2091
 30
0.0
  0
SPLINE
  5
D4
330
1F
100
AcDbEntity
  8
layer 1
100
AcDbSpline
210
0.0
220
0.0
230
1.0
 70
    11
 71
     3
 72
    12
 73
     8
 74
     0
 42
0.0000000001
 43
0.0000000001
 40
0.0
 40
0.0
 40
0.0
 40
0.0
 40
0.5
 40
0.5
 40
0.5
 40
0.5
 40
1.0
 40
1.0
 40
1.0
 40
1.0
 10
269.5381
 20
-225.7551
 30
0.0
 10
264.812
 20
-225.2923
 30
0.0
 10
248.4791
 20
-223.0711
 30
0.0
 10
245.0453
 20
-229.8358
 30
0.0
 10
245.0453
 20
-229.8358
 30
0.0
 10
250.9939
 20
-233.2547
 30
0.0
 10
268.7949
 20
-234.0144
 30
0.0
 10
269.5381
 20
-225.7551
 30
0.0
  0
SPLINE
  5
D5
330
1F
100
AcDbEntity
  8
layer 1
100
AcDbSpline
210
0.0
220
0.0
230
1.0
 70
    11
 71
     3
 72
    12
 73
     8
 74
     0
 42
0.0000000001
 43
0.0000000001
 40
0.0
 40
0.0
 40
0.0
 40
0.0
 40
0.5
 40
0.5
 40
0.5
 40
0.5
 40
1.0
 40
1.0
 40
1.0
 40
1.0
 10
322.6292
 20
-213.4979
 30
0.0
 10
317.2795
 20
-212.4064
 30
0.0
 10
312.5136
 20
-228.459
 30
0.0
 10
320.5889
 20
-227.7971
 30
0.0
 10
320.5889
 20
-227.7971
 30
0.0
 10
318.9483
 20
-220.7089
 30
0.0
 10
323.6295
 20
-219.9441
 30
0.0
 10
322.6292
 20
-213.4979
 30
0.0
  0
SPLINE
  5
D6
330
1F
100
AcDbEntity
  8
layer 1
100
AcDbSpline
210
0.0
220
0.0
230
1.0
 70
    11
 71
     3
 72
    12
 73
     8
 74
     0
 42
0.0000000001
 43
0.0000000001
 40
0.0
 40
0.0
 40
0.0
 40
0.0
 40
0.5
 40
0.5
 40
0.5
 40
0.5
 40
1.0
 40
1.0
 40
1.0
 40
1.0
 10
379.8012
 20
-201.2507
 30
0.0
 10
371.1719
 20
-201.7085
 30
0.0
 10
365.3195
 20
-221.2696
 30
0.0
 10
373.6751
 20
-225.7551
 30
0.0
 10
373.6751
 20
-225.7551
 30
0.0
 10
373.6568
 20
-216.1255
 30
0.0
 10
383.522
 20
-208.0635
 30
0.0
 10
379.8012
 20
-201.2507
 30
0.0
  0
SPLINE
  5
D7
330
1F
100
AcDbEntity
  8
layer 1
100
AcDbSpline
210
0.0
220
0.0
230
1.0
 70
    11
 71
     3
 72
    12
 73
     8
 74
     0
 42
0.0000000001
 43
0.0000000001
 40
0.0
 40
0.0
 40
0.0
 40
0.0
 40
0.5
 40
0.5
 40
0.5
 40
0.5
 40
1.0
 40
1.0
 40
1.0
 40
1.0
 10
271.5834
 20
-215.5432
 30
0.0
 10
266.8292
 20
-211.5836
 30
0.0
 10
253.3362
 20
-216.2632
 30
0.0
 10
247.084
 20
-217.5836
 30
0.0
 10
247.084
 20
-217.5836
 30
0.0
 10
248.1075
 20
-229.5057
 30
0.0
 10
268.7899
 20
-220.8067
 30
0.0
 10
271.5834
 20
-215.5432
 30
0.0
  0
SPLINE
  5
D8
330
1F
100
AcDbEntity
  8
layer 1
100
AcDbSpline
210
0.0
220
0.0
230
1.0
 70
    11
 71
     3
 72
    12
 73
     8
 74
     0
 42
0.0000000001
 43
0.0000000001
 40
0.0
 40
0.0
 40
0.0
 40
0.0
 40
0.5
 40
0.5
 40
0.5
 40
0.5
 40
1.0
 40
1.0
 40
1.0
 40
1.0
 10
279.7499
 20
-199.2103
 30
0.0
 10
279.8295
 20
-206.622
 30
0.0
 10
278.602
 20
-215.3259
 30
0.0
 10
283.8373
 20
-217.5836
 30
0.0
 10
283.8373
 20
-217.5836
 30
0.0
 10
287.1168
 20
-213.2806
 30
0.0
 10
286.1746
 20
-200.126
 30
0.0
 10
279.7499
 20
-199.2103
 30
0.0
  0
SPLINE
  5
D9
330
1F
100
AcDbEntity
  8
layer 1
100
AcDbSpline
210
0.0
220
0.0
230
1.0
 70
    11
 71
     3
 72
    12
 73
     8
 74
     0
 42
0.0000000001
 43
0.0000000001
 40
0.0
 40
0.0
 40
0.0
 40
0.0
 40
0.5
 40
0.5
 40
0.5
 40
0.5
 40
1.0
 40
1.0
 40
1.0
 40
1.0
 10
355.3018
 20
-197.165
 30
0.0
 10
349.1972
 20
-196.3189
 30
0.0
 10
345.1181
 20
-215.3093
 30
0.0
 10
353.2614
 20
-215.5432
 30
0.0
 10
353.2614
 20
-215.5432
 30
0.0
 10
354.975
 20
-210.4523
 30
0.0
 10
355.9305
 20
-204.5999
 30
0.0
 10
355.3018
 20
-197.165
 30
0.0
  0
SPLINE
  5
DA
330
1F
100
AcDbEntity
  8
layer 1
100
AcDbSpline
210
0.0
220
0.0
230
1.0
 70
    11
 71
     3
 72
    16
 73
    12
 74
     0
 42
0.0000000001
 43
0.0000000001
 40
0.0
 40
0.0
 40
0.0
 40
0.0
 40
0.3333333333333333
 40
0.3333333333333333
 40
0.3333333333333333
 40
0.3333333333333333
 40
0.6666666666666666
 40
0.6666666666666666
 40
0.6666666666666666
 40
0.6666666666666666
 40
1.0
 40
1.0
 40
1.0
 40
1.0
 10
365.507
 20
-195.1246
 30
0.0
 10
362.9756
 20
-200.7713
 30
0.0
 10
359.5418
 20
-205.4973
 30
0.0
 10
359.3825
 20
-213.4979
 30
0.0
 10
359.3825
 20
-213.4979
 30
0.0
 10
361.4279
 20
-213.4979
 30
0.0
 10
363.4682
 20
-213.4979
 30
0.0
 10
365.507
 20
-213.4979
 30
0.0
 10
365.507
 20
-213.4979
 30
0.0
 10
365.5302
 20
-207.2175
 30
0.0
 10
374.3652
 20
-198.0276
 30
0.0
 10
365.507
 20
-195.1246
 30
0.0
  0
SPLINE
  5
DB
330
1F
100
AcDbEntity
  8
layer 1
100
AcDbSpline
210
0.0
220
0.0
230
1.0
 70
    11
 71
     3
 72
    16
 73
    12
 74
     0
 42
0.0000000001
 43
0.0000000001
 40
0.0
 40
0.0
 40
0.0
 40
0.0
 40
0.3333333333333333
 40
0.3333333333333333
 40
0.3333333333333333
 40
0.3333333333333333
 40
0.6666666666666666
 40
0.6666666666666666
 40
0.6666666666666666
 40
0.6666666666666666
 40
1.0
 40
1.0
 40
1.0
 40
1.0
 10
261.3766
 20
-209.4171
 30
0.0
 10
261.9887
 20
-204.0342
 30
0.0
 10
258.5482
 20
-202.7138
 30
0.0
 10
253.2118
 20
-203.2911
 30
0.0
 10
253.2118
 20
-203.2911
 30
0.0
 10
253.2964
 20
-206.1028
 30
0.0
 10
252.2513
 20
-207.7716
 30
0.0
 10
251.1714
 20
-209.4171
 30
0.0
 10
251.1714
 20
-209.4171
 30
0.0
 10
253.8454
 20
-212.0348
 30
0.0
 10
258.6909
 20
-212.0348
 30
0.0
 10
261.3766
 20
-209.4171
 30
0.0
  0
ENDSEC
  0
SECTION
  2
OBJECTS
  0
DICTIONARY
  5
C
330
0
100
AcDbDictionary
281
     1
  3
ACAD_GROUP
350
D
  3
ACAD_LAYOUT
350
1A
  3
ACAD_MLINESTYLE
350
17
  3
ACAD_PLOTSETTINGS
350
19
  3
ACAD_PLOTSTYLENAME
350
E
  0
DICTIONARY
  5
D
102
{ACAD_REACTORS
330
C
102
}
330
C
100
AcDbDictionary
281
     1
  0
DICTIONARY
  5
1A
102
{ACAD_REACTORS
330
C
102
}
330
C
100
AcDbDictionary
281
     1
  3
Layout1
350
1E
  3
Layout2
350
26
  3
Model
350
22
  0
DICTIONARY
  5
17
102
{ACAD_REACTORS
330
C
102
}
330
C
100
AcDbDictionary
281
     1
  3
Standard
350
18
  0
DICTIONARY
  5
19
102
{ACAD_REACTORS
330
C
102
}
330
C
100
AcDbDictionary
281
     1
  0
ACDBDICTIONARYWDFLT
  5
E
102
{ACAD_REACTORS
330
C
102
}
330
C
100
AcDbDictionary
281
     1
  3
Normal
350
F
100
AcDbDictionaryWithDefault
340
F
  0
LAYOUT
  5
1E
102
{ACAD_REACTORS
330
1A
102
}
330
1A
100
AcDbPlotSettings
  1

  2

  4

  6

 40
0.0
 41
0.0
 42
0.0
 43
0.0
 44
0.0
 45
0.0
 46
0.0
 47
0.0
 48
0.0
 49
0.0
140
0.0
141
0.0
142
1.0
143
1.0
 70
   688
 72
     0
 73
     0
 74
     5
  7

 75
    16
 76
     0
 77
     2
 78
   300
147
1.0
148
0.0
149
0.0
100
AcDbLayout
  1
Layout1
 70
     1
 71
     1
 10
0.0
 20
0.0
 11
12.0
 21
9.0
 12
0.0
 22
0.0
 32
0.0
 14
1.000000000000000E+20
 24
1.000000000000000E+20
 34
1.000000000000000E+20
 15
-1.000000000000000E+20
 25
-1.000000000000000E+20
 35
-1.000000000000000E+20
146
0.0
 13
0.0
 23
0.0
 33
0.0
 16
1.0
 26
0.0
 36
0.0
 17
0.0
 27
1.0
 37
0.0
 76
     0
330
1B
  0
LAYOUT
  5
26
102
{ACAD_REACTORS
330
1A
102
}
330
1A
100
AcDbPlotSettings
  1

  2

  4

  6

 40
0.0
 41
0.0
 42
0.0
 43
0.0
 44
0.0
 45
0.0
 46
0.0
 47
0.0
 48
0.0
 49
0.0
140
0.0
141
0.0
142
1.0
143
1.0
 70
   688
 72
     0
 73
     0
 74
     5
  7

 75
    16
 76
     0
 77
     2
 78
   300
147
1.0
148
0.0
149
0.0
100
AcDbLayout
  1
Layout2
 70
     1
 71
     2
 10
0.0
 20
0.0
 11
0.0
 21
0.0
 12
0.0
 22
0.0
 32
0.0
 14
0.0
 24
0.0
 34
0.0
 15
0.0
 25
0.0
 35
0.0
146
0.0
 13
0.0
 23
0.0
 33
0.0
 16
1.0
 26
0.0
 36
0.0
 17
0.0
 27
1.0
 37
0.0
 76
     0
330
23
  0
LAYOUT
  5
22
102
{ACAD_REACTORS
330
1A
102
}
330
1A
100
AcDbPlotSettings
  1

  2

  4

  6

 40
0.0
 41
0.0
 42
0.0
 43
0.0
 44
0.0
 45
0.0
 46
0.0
 47
0.0
 48
0.0
 49
0.0
140
0.0
141
0.0
142
1.0
143
1.0
 70
  1712
 72
     0
 73
     0
 74
     0
  7

 75
     0
 76
     0
 77
     2
 78
   300
147
1.0
148
0.0
149
0.0
100
AcDbLayout
  1
Model
 70
     1
 71
     0
 10
0.0
 20
0.0
 11
0.0
 21
0.0
 12
0.0
 22
0.0
 32
0.0
 14
-22.4278
 24
-483.0163
 34
0.0
 15
653.3341
 25
-56.2813
 35
0.0
146
0.0
 13
0.0
 23
0.0
 33
0.0
 16
1.0
 26
0.0
 36
0.0
 17
0.0
 27
1.0
 37
0.0
 76
     0
330
1F
  0
MLINESTYLE
  5
18
102
{ACAD_REACTORS
330
17
102
}
330
17
100
AcDbMlineStyle
  2
Standard
 70
     0
  3

 62
   256
 51
90.0
 52
90.0
 71
     2
 49
0.5
 62
   256
  6
BYLAYER
 49
-0.5
 62
   256
  6
BYLAYER
  0
ACDBPLACEHOLDER
  5
F
102
{ACAD_REACTORS
330
E
102
}
330
E
  0
ENDSEC
  0
EOF
