  0
SECTION
  2
HEADER
  9
$ACADVER
  1
AC1009
  9
$EXTMIN
 10
-67.50048244
 20
-67.49982535
 30
0.0
  9
$EXTMAX
 10
67.50029707
 20
67.50048244
 30
0.0
  0
ENDSEC
  0
SECTION
  2
TABLES
  0
TABLE
  2
LAYER
 70
1
 0
LAYER
 2
По_умолчанию
 70
0
 62
1
 6
CONTINUOUS
 0
ENDTAB
 0
ENDSEC
  0
SECTION
  2
ENTITIES
  0
POLYLINE
  8
По_умолчанию
 66
   1
 39
0.000000
 70
    1
  0
VERTEX
  8
0
 10
-67.50044943
 20
65.84132613
  0
VERTEX
  8
0
 10
-52.82770569
 20
30.41889764
  0
VERTEX
  8
0
 10
-60.76835953
 20
31.99750157
  0
VERTEX
  8
0
 10
-67.50044943
 20
27.50036582
  0
VERTEX
  8
0
 10
-67.50044943
 20
65.84132613
  0
SEQEND
  0
POLYLINE
  8
По_умолчанию
 66
   1
 39
0.000000
 70
    1
  0
VERTEX
  8
0
 10
-65.84180177
 20
67.50006153
  0
VERTEX
  8
0
 10
-27.50007463
 20
67.50006153
  0
VERTEX
  8
0
 10
-31.99730033
 20
60.76810626
  0
VERTEX
  8
0
 10
-30.41866482
 20
52.82761124
  0
VERTEX
  8
0
 10
-65.84180177
 20
67.50006153
  0
SEQEND
  0
POLYLINE
  8
По_умолчанию
 66
   1
 39
0.000000
 70
    1
  0
VERTEX
  8
0
 10
-67.50000294
 20
-65.84107814
  0
VERTEX
  8
0
 10
-52.82725919
 20
-30.41864965
  0
VERTEX
  8
0
 10
-60.76791303
 20
-31.99725358
  0
VERTEX
  8
0
 10
-67.50000294
 20
-27.50011783
  0
VERTEX
  8
0
 10
-67.50000294
 20
-65.84107814
  0
SEQEND
  0
POLYLINE
  8
По_умолчанию
 66
   1
 39
0.000000
 70
    1
  0
VERTEX
  8
0
 10
-66.73896161
 20
-66.15635556
  0
VERTEX
  8
0
 10
-39.62726634
 20
-39.04520253
  0
VERTEX
  8
0
 10
-47.56759155
 20
-37.46494650
  0
VERTEX
  8
0
 10
-52.06621786
 20
-30.73392708
  0
VERTEX
  8
0
 10
-66.73896161
 20
-66.15635556
  0
SEQEND
  0
POLYLINE
  8
По_умолчанию
 66
   1
 39
0.000000
 70
    1
  0
VERTEX
  8
0
 10
-66.15655351
 20
-66.73875201
  0
VERTEX
  8
0
 10
-30.73341656
 20
-52.06630172
  0
VERTEX
  8
0
 10
-37.46457060
 20
-47.56776539
  0
VERTEX
  8
0
 10
-39.04485824
 20
-39.62759898
  0
VERTEX
  8
0
 10
-66.15655351
 20
-66.73875201
  0
SEQEND
  0
POLYLINE
  8
По_умолчанию
 66
   1
 39
0.000000
 70
    1
  0
VERTEX
  8
0
 10
-65.84135528
 20
-67.49981354
  0
VERTEX
  8
0
 10
-27.49962814
 20
-67.49981354
  0
VERTEX
  8
0
 10
-31.99685383
 20
-60.76785828
  0
VERTEX
  8
0
 10
-30.41821833
 20
-52.82736325
  0
VERTEX
  8
0
 10
-65.84135528
 20
-67.49981354
  0
SEQEND
  0
POLYLINE
  8
По_умолчанию
 66
   1
 39
0.000000
 70
    1
  0
VERTEX
  8
0
 10
67.50029707
 20
-65.84090264
  0
VERTEX
  8
0
 10
52.82755332
 20
-30.41847416
  0
VERTEX
  8
0
 10
60.76820716
 20
-31.99707809
  0
VERTEX
  8
0
 10
67.50029707
 20
-27.49994233
  0
VERTEX
  8
0
 10
67.50029707
 20
-65.84090264
  0
SEQEND
  0
POLYLINE
  8
По_умолчанию
 66
   1
 39
0.000000
 70
    1
  0
VERTEX
  8
0
 10
66.73925573
 20
-66.15618006
  0
VERTEX
  8
0
 10
39.62756047
 20
-39.04502703
  0
VERTEX
  8
0
 10
47.56788568
 20
-37.46477100
  0
VERTEX
  8
0
 10
52.06651199
 20
-30.73375158
  0
VERTEX
  8
0
 10
66.73925573
 20
-66.15618006
  0
SEQEND
  0
POLYLINE
  8
По_умолчанию
 66
   1
 39
0.000000
 70
    1
  0
VERTEX
  8
0
 10
66.15684763
 20
-66.73857652
  0
VERTEX
  8
0
 10
30.73371068
 20
-52.06612622
  0
VERTEX
  8
0
 10
37.46486473
 20
-47.56758989
  0
VERTEX
  8
0
 10
39.04515237
 20
-39.62742348
  0
VERTEX
  8
0
 10
66.15684763
 20
-66.73857652
  0
SEQEND
  0
POLYLINE
  8
По_умолчанию
 66
   1
 39
0.000000
 70
    1
  0
VERTEX
  8
0
 10
65.84164941
 20
-67.49963804
  0
VERTEX
  8
0
 10
27.49992226
 20
-67.49963804
  0
VERTEX
  8
0
 10
31.99714796
 20
-60.76768278
  0
VERTEX
  8
0
 10
30.41851246
 20
-52.82718775
  0
VERTEX
  8
0
 10
65.84164941
 20
-67.49963804
  0
SEQEND
  0
POLYLINE
  8
По_умолчанию
 66
   1
 39
0.000000
 70
    1
  0
VERTEX
  8
0
 10
-66.73940810
 20
66.15660355
  0
VERTEX
  8
0
 10
-39.62771283
 20
39.04545052
  0
VERTEX
  8
0
 10
-47.56803804
 20
37.46519448
  0
VERTEX
  8
0
 10
-52.06666435
 20
30.73417506
  0
VERTEX
  8
0
 10
-66.73940810
 20
66.15660355
  0
SEQEND
  0
POLYLINE
  8
По_умолчанию
 66
   1
 39
0.000000
 70
    1
  0
VERTEX
  8
0
 10
-66.15700000
 20
66.73900000
  0
VERTEX
  8
0
 10
-30.73386305
 20
52.06654971
  0
VERTEX
  8
0
 10
-37.46501710
 20
47.56801337
  0
VERTEX
  8
0
 10
-39.04530473
 20
39.62784697
  0
VERTEX
  8
0
 10
-66.15700000
 20
66.73900000
  0
SEQEND
  0
POLYLINE
  8
По_умолчанию
 66
   1
 39
0.000000
 70
    1
  0
VERTEX
  8
0
 10
67.49985057
 20
65.84115063
  0
VERTEX
  8
0
 10
52.82710683
 20
30.41872214
  0
VERTEX
  8
0
 10
60.76776067
 20
31.99732607
  0
VERTEX
  8
0
 10
67.49985057
 20
27.50019032
  0
VERTEX
  8
0
 10
67.49985057
 20
65.84115063
  0
SEQEND
  0
POLYLINE
  8
По_умолчанию
 66
   1
 39
0.000000
 70
    1
  0
VERTEX
  8
0
 10
66.73880924
 20
66.15642805
  0
VERTEX
  8
0
 10
39.62711397
 20
39.04527502
  0
VERTEX
  8
0
 10
47.56743918
 20
37.46501899
  0
VERTEX
  8
0
 10
52.06606549
 20
30.73399956
  0
VERTEX
  8
0
 10
66.73880924
 20
66.15642805
  0
SEQEND
  0
POLYLINE
  8
По_умолчанию
 66
   1
 39
0.000000
 70
    1
  0
VERTEX
  8
0
 10
66.15640114
 20
66.73882450
  0
VERTEX
  8
0
 10
30.73326419
 20
52.06637421
  0
VERTEX
  8
0
 10
37.46441824
 20
47.56783787
  0
VERTEX
  8
0
 10
39.04470587
 20
39.62767147
  0
VERTEX
  8
0
 10
66.15640114
 20
66.73882450
  0
SEQEND
  0
POLYLINE
  8
По_умолчанию
 66
   1
 39
0.000000
 70
    1
  0
VERTEX
  8
0
 10
65.84120291
 20
67.49988603
  0
VERTEX
  8
0
 10
27.49947577
 20
67.49988603
  0
VERTEX
  8
0
 10
31.99670147
 20
60.76793076
  0
VERTEX
  8
0
 10
30.41806596
 20
52.82743574
  0
VERTEX
  8
0
 10
65.84120291
 20
67.49988603
  0
SEQEND
  0
POLYLINE
  8
По_умолчанию
 66
   1
 39
0.000000
 70
    1
  0
VERTEX
  8
0
 10
-1.50000000
 20
0.00000000
  0
VERTEX
  8
0
 10
-1.49225567
 20
0.15336629
  0
VERTEX
  8
0
 10
-1.46952533
 20
0.30230232
  0
VERTEX
  8
0
 10
-1.38212256
 20
0.58386769
  0
VERTEX
  8
0
 10
-1.24382356
 20
0.83866426
  0
VERTEX
  8
0
 10
-1.06066017
 20
1.06066017
  0
VERTEX
  8
0
 10
-0.83866426
 20
1.24382356
  0
VERTEX
  8
0
 10
-0.58386769
 20
1.38212256
  0
VERTEX
  8
0
 10
-0.30230232
 20
1.46952533
  0
VERTEX
  8
0
 10
-0.15336629
 20
1.49225567
  0
VERTEX
  8
0
 10
0.00000000
 20
1.50000000
  0
VERTEX
  8
0
 10
0.15336629
 20
1.49225567
  0
VERTEX
  8
0
 10
0.30230232
 20
1.46952533
  0
VERTEX
  8
0
 10
0.58386769
 20
1.38212256
  0
VERTEX
  8
0
 10
0.83866426
 20
1.24382356
  0
VERTEX
  8
0
 10
1.06066017
 20
1.06066017
  0
VERTEX
  8
0
 10
1.24382356
 20
0.83866426
  0
VERTEX
  8
0
 10
1.38212256
 20
0.58386769
  0
VERTEX
  8
0
 10
1.46952533
 20
0.30230232
  0
VERTEX
  8
0
 10
1.49225567
 20
0.15336629
  0
VERTEX
  8
0
 10
1.50000000
 20
0.00000000
  0
VERTEX
  8
0
 10
1.49225567
 20
-0.15336629
  0
VERTEX
  8
0
 10
1.46952533
 20
-0.30230232
  0
VERTEX
  8
0
 10
1.38212256
 20
-0.58386769
  0
VERTEX
  8
0
 10
1.24382356
 20
-0.83866426
  0
VERTEX
  8
0
 10
1.06066017
 20
-1.06066017
  0
VERTEX
  8
0
 10
0.83866426
 20
-1.24382356
  0
VERTEX
  8
0
 10
0.58386769
 20
-1.38212256
  0
VERTEX
  8
0
 10
0.30230232
 20
-1.46952533
  0
VERTEX
  8
0
 10
0.15336629
 20
-1.49225567
  0
VERTEX
  8
0
 10
0.00000000
 20
-1.50000000
  0
VERTEX
  8
0
 10
-0.15336629
 20
-1.49225567
  0
VERTEX
  8
0
 10
-0.30230232
 20
-1.46952533
  0
VERTEX
  8
0
 10
-0.58386769
 20
-1.38212256
  0
VERTEX
  8
0
 10
-0.83866426
 20
-1.24382356
  0
VERTEX
  8
0
 10
-1.06066017
 20
-1.06066017
  0
VERTEX
  8
0
 10
-1.24382356
 20
-0.83866426
  0
VERTEX
  8
0
 10
-1.38212256
 20
-0.58386769
  0
VERTEX
  8
0
 10
-1.46952533
 20
-0.30230232
  0
VERTEX
  8
0
 10
-1.49225567
 20
-0.15336629
  0
VERTEX
  8
0
 10
-1.50000000
 20
0.00000000
  0
SEQEND
  0
POLYLINE
  8
По_умолчанию
 66
   1
 39
0.000000
 70
    1
  0
VERTEX
  8
0
 10
-67.50048244
 20
-26.50016864
  0
VERTEX
  8
0
 10
-66.50017465
 20
-26.50016864
  0
VERTEX
  8
0
 10
-66.50017465
 20
26.49983136
  0
VERTEX
  8
0
 10
-67.50048244
 20
26.49983136
  0
VERTEX
  8
0
 10
-67.50048244
 20
-26.50016864
  0
SEQEND
  0
POLYLINE
  8
По_умолчанию
 66
   1
 39
0.000000
 70
    1
  0
VERTEX
  8
0
 10
66.49951756
 20
-26.50016864
  0
VERTEX
  8
0
 10
67.49982535
 20
-26.50016864
  0
VERTEX
  8
0
 10
67.49982535
 20
26.49983136
  0
VERTEX
  8
0
 10
66.49951756
 20
26.49983136
  0
VERTEX
  8
0
 10
66.49951756
 20
-26.50016864
  0
SEQEND
  0
POLYLINE
  8
По_умолчанию
 66
   1
 39
0.000000
 70
    1
  0
VERTEX
  8
0
 10
-26.50016864
 20
67.50048244
  0
VERTEX
  8
0
 10
-26.50016864
 20
66.50017465
  0
VERTEX
  8
0
 10
26.49983136
 20
66.50017465
  0
VERTEX
  8
0
 10
26.49983136
 20
67.50048244
  0
VERTEX
  8
0
 10
-26.50016864
 20
67.50048244
  0
SEQEND
  0
POLYLINE
  8
По_умолчанию
 66
   1
 39
0.000000
 70
    1
  0
VERTEX
  8
0
 10
-26.50016864
 20
-66.49951756
  0
VERTEX
  8
0
 10
-26.50016864
 20
-67.49982535
  0
VERTEX
  8
0
 10
26.49983136
 20
-67.49982535
  0
VERTEX
  8
0
 10
26.49983136
 20
-66.49951756
  0
VERTEX
  8
0
 10
-26.50016864
 20
-66.49951756
  0
SEQEND
  0
POLYLINE
  8
По_умолчанию
 66
   1
 39
0.000000
 70
    1
  0
VERTEX
  8
0
 10
-52.00000000
 20
0.00000000
  0
VERTEX
  8
0
 10
-51.98301641
 20
1.34214338
  0
VERTEX
  8
0
 10
-51.93233792
 20
2.67591310
  0
VERTEX
  8
0
 10
-51.84837294
 20
4.00090075
  0
VERTEX
  8
0
 10
-51.73152986
 20
5.31669793
  0
VERTEX
  8
0
 10
-51.58221711
 20
6.62289622
  0
VERTEX
  8
0
 10
-51.40084307
 20
7.91908722
  0
VERTEX
  8
0
 10
-51.18781618
 20
9.20486253
  0
VERTEX
  8
0
 10
-50.94354482
 20
10.47981373
  0
VERTEX
  8
0
 10
-50.66843741
 20
11.74353241
  0
VERTEX
  8
0
 10
-50.36290235
 20
12.99561018
  0
VERTEX
  8
0
 10
-50.02734805
 20
14.23563862
  0
VERTEX
  8
0
 10
-49.66218292
 20
15.46320933
  0
VERTEX
  8
0
 10
-49.26781537
 20
16.67791390
  0
VERTEX
  8
0
 10
-48.84465380
 20
17.87934393
  0
VERTEX
  8
0
 10
-48.39310662
 20
19.06709099
  0
VERTEX
  8
0
 10
-47.91358223
 20
20.24074670
  0
VERTEX
  8
0
 10
-47.40648905
 20
21.39990264
  0
VERTEX
  8
0
 10
-46.87223548
 20
22.54415040
  0
VERTEX
  8
0
 10
-46.31122993
 20
23.67308158
  0
VERTEX
  8
0
 10
-45.72388080
 20
24.78628777
  0
VERTEX
  8
0
 10
-45.11059651
 20
25.88336056
  0
VERTEX
  8
0
 10
-44.47178545
 20
26.96389154
  0
VERTEX
  8
0
 10
-43.80785604
 20
28.02747232
  0
VERTEX
  8
0
 10
-43.11921669
 20
29.07369448
  0
VERTEX
  8
0
 10
-42.40627579
 20
30.10214961
  0
VERTEX
  8
0
 10
-41.66944176
 20
31.11242931
  0
VERTEX
  8
0
 10
-40.90912301
 20
32.10412517
  0
VERTEX
  8
0
 10
-40.12572794
 20
33.07682878
  0
VERTEX
  8
0
 10
-39.31966496
 20
34.03013174
  0
VERTEX
  8
0
 10
-38.49134248
 20
34.96362564
  0
VERTEX
  8
0
 10
-37.64116889
 20
35.87690207
  0
VERTEX
  8
0
 10
-36.76955262
 20
36.76955262
  0
VERTEX
  8
0
 10
-35.87690207
 20
37.64116889
  0
VERTEX
  8
0
 10
-34.96362564
 20
38.49134248
  0
VERTEX
  8
0
 10
-34.03013174
 20
39.31966496
  0
VERTEX
  8
0
 10
-33.07682878
 20
40.12572794
  0
VERTEX
  8
0
 10
-32.10412517
 20
40.90912301
  0
VERTEX
  8
0
 10
-31.11242931
 20
41.66944176
  0
VERTEX
  8
0
 10
-30.10214961
 20
42.40627579
  0
VERTEX
  8
0
 10
-29.07369448
 20
43.11921669
  0
VERTEX
  8
0
 10
-28.02747232
 20
43.80785604
  0
VERTEX
  8
0
 10
-26.96389154
 20
44.47178545
  0
VERTEX
  8
0
 10
-25.88336056
 20
45.11059651
  0
VERTEX
  8
0
 10
-24.78628777
 20
45.72388080
  0
VERTEX
  8
0
 10
-23.67308158
 20
46.31122993
  0
VERTEX
  8
0
 10
-22.54415040
 20
46.87223548
  0
VERTEX
  8
0
 10
-21.39990264
 20
47.40648905
  0
VERTEX
  8
0
 10
-20.24074670
 20
47.91358223
  0
VERTEX
  8
0
 10
-19.06709099
 20
48.39310662
  0
VERTEX
  8
0
 10
-17.87934393
 20
48.84465380
  0
VERTEX
  8
0
 10
-16.67791390
 20
49.26781537
  0
VERTEX
  8
0
 10
-15.46320933
 20
49.66218292
  0
VERTEX
  8
0
 10
-14.23563862
 20
50.02734805
  0
VERTEX
  8
0
 10
-12.99561018
 20
50.36290235
  0
VERTEX
  8
0
 10
-11.74353241
 20
50.66843741
  0
VERTEX
  8
0
 10
-10.47981373
 20
50.94354482
  0
VERTEX
  8
0
 10
-9.20486253
 20
51.18781618
  0
VERTEX
  8
0
 10
-7.91908722
 20
51.40084307
  0
VERTEX
  8
0
 10
-6.62289622
 20
51.58221711
  0
VERTEX
  8
0
 10
-5.31669793
 20
51.73152986
  0
VERTEX
  8
0
 10
-4.00090075
 20
51.84837294
  0
VERTEX
  8
0
 10
-2.67591310
 20
51.93233792
  0
VERTEX
  8
0
 10
-1.34214338
 20
51.98301641
  0
VERTEX
  8
0
 10
0.00000000
 20
52.00000000
  0
VERTEX
  8
0
 10
1.34214338
 20
51.98301641
  0
VERTEX
  8
0
 10
2.67591310
 20
51.93233792
  0
VERTEX
  8
0
 10
4.00090075
 20
51.84837294
  0
VERTEX
  8
0
 10
5.31669793
 20
51.73152986
  0
VERTEX
  8
0
 10
6.62289622
 20
51.58221711
  0
VERTEX
  8
0
 10
7.91908722
 20
51.40084307
  0
VERTEX
  8
0
 10
9.20486253
 20
51.18781618
  0
VERTEX
  8
0
 10
10.47981373
 20
50.94354482
  0
VERTEX
  8
0
 10
11.74353241
 20
50.66843741
  0
VERTEX
  8
0
 10
12.99561018
 20
50.36290235
  0
VERTEX
  8
0
 10
14.23563862
 20
50.02734805
  0
VERTEX
  8
0
 10
15.46320933
 20
49.66218292
  0
VERTEX
  8
0
 10
16.67791390
 20
49.26781537
  0
VERTEX
  8
0
 10
17.87934393
 20
48.84465380
  0
VERTEX
  8
0
 10
19.06709099
 20
48.39310662
  0
VERTEX
  8
0
 10
20.24074670
 20
47.91358223
  0
VERTEX
  8
0
 10
21.39990264
 20
47.40648905
  0
VERTEX
  8
0
 10
22.54415040
 20
46.87223548
  0
VERTEX
  8
0
 10
23.67308158
 20
46.31122993
  0
VERTEX
  8
0
 10
24.78628777
 20
45.72388080
  0
VERTEX
  8
0
 10
25.88336056
 20
45.11059651
  0
VERTEX
  8
0
 10
26.96389154
 20
44.47178545
  0
VERTEX
  8
0
 10
28.02747232
 20
43.80785604
  0
VERTEX
  8
0
 10
29.07369448
 20
43.11921669
  0
VERTEX
  8
0
 10
30.10214961
 20
42.40627579
  0
VERTEX
  8
0
 10
31.11242931
 20
41.66944176
  0
VERTEX
  8
0
 10
32.10412517
 20
40.90912301
  0
VERTEX
  8
0
 10
33.07682878
 20
40.12572794
  0
VERTEX
  8
0
 10
34.03013174
 20
39.31966496
  0
VERTEX
  8
0
 10
34.96362564
 20
38.49134248
  0
VERTEX
  8
0
 10
35.87690207
 20
37.64116889
  0
VERTEX
  8
0
 10
36.76955262
 20
36.76955262
  0
VERTEX
  8
0
 10
37.64116889
 20
35.87690207
  0
VERTEX
  8
0
 10
38.49134248
 20
34.96362564
  0
VERTEX
  8
0
 10
39.31966496
 20
34.03013174
  0
VERTEX
  8
0
 10
40.12572794
 20
33.07682878
  0
VERTEX
  8
0
 10
40.90912301
 20
32.10412517
  0
VERTEX
  8
0
 10
41.66944176
 20
31.11242931
  0
VERTEX
  8
0
 10
42.40627579
 20
30.10214961
  0
VERTEX
  8
0
 10
43.11921669
 20
29.07369448
  0
VERTEX
  8
0
 10
43.80785604
 20
28.02747232
  0
VERTEX
  8
0
 10
44.47178545
 20
26.96389154
  0
VERTEX
  8
0
 10
45.11059651
 20
25.88336056
  0
VERTEX
  8
0
 10
45.72388080
 20
24.78628777
  0
VERTEX
  8
0
 10
46.31122993
 20
23.67308158
  0
VERTEX
  8
0
 10
46.87223548
 20
22.54415040
  0
VERTEX
  8
0
 10
47.40648905
 20
21.39990264
  0
VERTEX
  8
0
 10
47.91358223
 20
20.24074670
  0
VERTEX
  8
0
 10
48.39310662
 20
19.06709099
  0
VERTEX
  8
0
 10
48.84465380
 20
17.87934393
  0
VERTEX
  8
0
 10
49.26781537
 20
16.67791390
  0
VERTEX
  8
0
 10
49.66218292
 20
15.46320933
  0
VERTEX
  8
0
 10
50.02734805
 20
14.23563862
  0
VERTEX
  8
0
 10
50.36290235
 20
12.99561018
  0
VERTEX
  8
0
 10
50.66843741
 20
11.74353241
  0
VERTEX
  8
0
 10
50.94354482
 20
10.47981373
  0
VERTEX
  8
0
 10
51.18781618
 20
9.20486253
  0
VERTEX
  8
0
 10
51.40084307
 20
7.91908722
  0
VERTEX
  8
0
 10
51.58221711
 20
6.62289622
  0
VERTEX
  8
0
 10
51.73152986
 20
5.31669793
  0
VERTEX
  8
0
 10
51.84837294
 20
4.00090075
  0
VERTEX
  8
0
 10
51.93233792
 20
2.67591310
  0
VERTEX
  8
0
 10
51.98301641
 20
1.34214338
  0
VERTEX
  8
0
 10
52.00000000
 20
0.00000000
  0
VERTEX
  8
0
 10
51.98301641
 20
-1.34214338
  0
VERTEX
  8
0
 10
51.93233792
 20
-2.67591310
  0
VERTEX
  8
0
 10
51.84837294
 20
-4.00090075
  0
VERTEX
  8
0
 10
51.73152986
 20
-5.31669793
  0
VERTEX
  8
0
 10
51.58221711
 20
-6.62289622
  0
VERTEX
  8
0
 10
51.40084307
 20
-7.91908722
  0
VERTEX
  8
0
 10
51.18781618
 20
-9.20486253
  0
VERTEX
  8
0
 10
50.94354482
 20
-10.47981373
  0
VERTEX
  8
0
 10
50.66843741
 20
-11.74353241
  0
VERTEX
  8
0
 10
50.36290235
 20
-12.99561018
  0
VERTEX
  8
0
 10
50.02734805
 20
-14.23563862
  0
VERTEX
  8
0
 10
49.66218292
 20
-15.46320933
  0
VERTEX
  8
0
 10
49.26781537
 20
-16.67791390
  0
VERTEX
  8
0
 10
48.84465380
 20
-17.87934393
  0
VERTEX
  8
0
 10
48.39310662
 20
-19.06709099
  0
VERTEX
  8
0
 10
47.91358223
 20
-20.24074670
  0
VERTEX
  8
0
 10
47.40648905
 20
-21.39990264
  0
VERTEX
  8
0
 10
46.87223548
 20
-22.54415040
  0
VERTEX
  8
0
 10
46.31122993
 20
-23.67308158
  0
VERTEX
  8
0
 10
45.72388080
 20
-24.78628777
  0
VERTEX
  8
0
 10
45.11059651
 20
-25.88336056
  0
VERTEX
  8
0
 10
44.47178545
 20
-26.96389154
  0
VERTEX
  8
0
 10
43.80785604
 20
-28.02747232
  0
VERTEX
  8
0
 10
43.11921669
 20
-29.07369448
  0
VERTEX
  8
0
 10
42.40627579
 20
-30.10214961
  0
VERTEX
  8
0
 10
41.66944176
 20
-31.11242931
  0
VERTEX
  8
0
 10
40.90912301
 20
-32.10412517
  0
VERTEX
  8
0
 10
40.12572794
 20
-33.07682878
  0
VERTEX
  8
0
 10
39.31966496
 20
-34.03013174
  0
VERTEX
  8
0
 10
38.49134248
 20
-34.96362564
  0
VERTEX
  8
0
 10
37.64116889
 20
-35.87690207
  0
VERTEX
  8
0
 10
36.76955262
 20
-36.76955262
  0
VERTEX
  8
0
 10
35.87690207
 20
-37.64116889
  0
VERTEX
  8
0
 10
34.96362564
 20
-38.49134248
  0
VERTEX
  8
0
 10
34.03013174
 20
-39.31966496
  0
VERTEX
  8
0
 10
33.07682878
 20
-40.12572794
  0
VERTEX
  8
0
 10
32.10412517
 20
-40.90912301
  0
VERTEX
  8
0
 10
31.11242931
 20
-41.66944176
  0
VERTEX
  8
0
 10
30.10214961
 20
-42.40627579
  0
VERTEX
  8
0
 10
29.07369448
 20
-43.11921669
  0
VERTEX
  8
0
 10
28.02747232
 20
-43.80785604
  0
VERTEX
  8
0
 10
26.96389154
 20
-44.47178545
  0
VERTEX
  8
0
 10
25.88336056
 20
-45.11059651
  0
VERTEX
  8
0
 10
24.78628777
 20
-45.72388080
  0
VERTEX
  8
0
 10
23.67308158
 20
-46.31122993
  0
VERTEX
  8
0
 10
22.54415040
 20
-46.87223548
  0
VERTEX
  8
0
 10
21.39990264
 20
-47.40648905
  0
VERTEX
  8
0
 10
20.24074670
 20
-47.91358223
  0
VERTEX
  8
0
 10
19.06709099
 20
-48.39310662
  0
VERTEX
  8
0
 10
17.87934393
 20
-48.84465380
  0
VERTEX
  8
0
 10
16.67791390
 20
-49.26781537
  0
VERTEX
  8
0
 10
15.46320933
 20
-49.66218292
  0
VERTEX
  8
0
 10
14.23563862
 20
-50.02734805
  0
VERTEX
  8
0
 10
12.99561018
 20
-50.36290235
  0
VERTEX
  8
0
 10
11.74353241
 20
-50.66843741
  0
VERTEX
  8
0
 10
10.47981373
 20
-50.94354482
  0
VERTEX
  8
0
 10
9.20486253
 20
-51.18781618
  0
VERTEX
  8
0
 10
7.91908722
 20
-51.40084307
  0
VERTEX
  8
0
 10
6.62289622
 20
-51.58221711
  0
VERTEX
  8
0
 10
5.31669793
 20
-51.73152986
  0
VERTEX
  8
0
 10
4.00090075
 20
-51.84837294
  0
VERTEX
  8
0
 10
2.67591310
 20
-51.93233792
  0
VERTEX
  8
0
 10
1.34214338
 20
-51.98301641
  0
VERTEX
  8
0
 10
0.00000000
 20
-52.00000000
  0
VERTEX
  8
0
 10
-1.34214338
 20
-51.98301641
  0
VERTEX
  8
0
 10
-2.67591310
 20
-51.93233792
  0
VERTEX
  8
0
 10
-4.00090075
 20
-51.84837294
  0
VERTEX
  8
0
 10
-5.31669793
 20
-51.73152986
  0
VERTEX
  8
0
 10
-6.62289622
 20
-51.58221711
  0
VERTEX
  8
0
 10
-7.91908722
 20
-51.40084307
  0
VERTEX
  8
0
 10
-9.20486253
 20
-51.18781618
  0
VERTEX
  8
0
 10
-10.47981373
 20
-50.94354482
  0
VERTEX
  8
0
 10
-11.74353241
 20
-50.66843741
  0
VERTEX
  8
0
 10
-12.99561018
 20
-50.36290235
  0
VERTEX
  8
0
 10
-14.23563862
 20
-50.02734805
  0
VERTEX
  8
0
 10
-15.46320933
 20
-49.66218292
  0
VERTEX
  8
0
 10
-16.67791390
 20
-49.26781537
  0
VERTEX
  8
0
 10
-17.87934393
 20
-48.84465380
  0
VERTEX
  8
0
 10
-19.06709099
 20
-48.39310662
  0
VERTEX
  8
0
 10
-20.24074670
 20
-47.91358223
  0
VERTEX
  8
0
 10
-21.39990264
 20
-47.40648905
  0
VERTEX
  8
0
 10
-22.54415040
 20
-46.87223548
  0
VERTEX
  8
0
 10
-23.67308158
 20
-46.31122993
  0
VERTEX
  8
0
 10
-24.78628777
 20
-45.72388080
  0
VERTEX
  8
0
 10
-25.88336056
 20
-45.11059651
  0
VERTEX
  8
0
 10
-26.96389154
 20
-44.47178545
  0
VERTEX
  8
0
 10
-28.02747232
 20
-43.80785604
  0
VERTEX
  8
0
 10
-29.07369448
 20
-43.11921669
  0
VERTEX
  8
0
 10
-30.10214961
 20
-42.40627579
  0
VERTEX
  8
0
 10
-31.11242931
 20
-41.66944176
  0
VERTEX
  8
0
 10
-32.10412517
 20
-40.90912301
  0
VERTEX
  8
0
 10
-33.07682878
 20
-40.12572794
  0
VERTEX
  8
0
 10
-34.03013174
 20
-39.31966496
  0
VERTEX
  8
0
 10
-34.96362564
 20
-38.49134248
  0
VERTEX
  8
0
 10
-35.87690207
 20
-37.64116889
  0
VERTEX
  8
0
 10
-36.76955262
 20
-36.76955262
  0
VERTEX
  8
0
 10
-37.64116889
 20
-35.87690207
  0
VERTEX
  8
0
 10
-38.49134248
 20
-34.96362564
  0
VERTEX
  8
0
 10
-39.31966496
 20
-34.03013174
  0
VERTEX
  8
0
 10
-40.12572794
 20
-33.07682878
  0
VERTEX
  8
0
 10
-40.90912301
 20
-32.10412517
  0
VERTEX
  8
0
 10
-41.66944176
 20
-31.11242931
  0
VERTEX
  8
0
 10
-42.40627579
 20
-30.10214961
  0
VERTEX
  8
0
 10
-43.11921669
 20
-29.07369448
  0
VERTEX
  8
0
 10
-43.80785604
 20
-28.02747232
  0
VERTEX
  8
0
 10
-44.47178545
 20
-26.96389154
  0
VERTEX
  8
0
 10
-45.11059651
 20
-25.88336056
  0
VERTEX
  8
0
 10
-45.72388080
 20
-24.78628777
  0
VERTEX
  8
0
 10
-46.31122993
 20
-23.67308158
  0
VERTEX
  8
0
 10
-46.87223548
 20
-22.54415040
  0
VERTEX
  8
0
 10
-47.40648905
 20
-21.39990264
  0
VERTEX
  8
0
 10
-47.91358223
 20
-20.24074670
  0
VERTEX
  8
0
 10
-48.39310662
 20
-19.06709099
  0
VERTEX
  8
0
 10
-48.84465380
 20
-17.87934393
  0
VERTEX
  8
0
 10
-49.26781537
 20
-16.67791390
  0
VERTEX
  8
0
 10
-49.66218292
 20
-15.46320933
  0
VERTEX
  8
0
 10
-50.02734805
 20
-14.23563862
  0
VERTEX
  8
0
 10
-50.36290235
 20
-12.99561018
  0
VERTEX
  8
0
 10
-50.66843741
 20
-11.74353241
  0
VERTEX
  8
0
 10
-50.94354482
 20
-10.47981373
  0
VERTEX
  8
0
 10
-51.18781618
 20
-9.20486253
  0
VERTEX
  8
0
 10
-51.40084307
 20
-7.91908722
  0
VERTEX
  8
0
 10
-51.58221711
 20
-6.62289622
  0
VERTEX
  8
0
 10
-51.73152986
 20
-5.31669793
  0
VERTEX
  8
0
 10
-51.84837294
 20
-4.00090075
  0
VERTEX
  8
0
 10
-51.93233792
 20
-2.67591310
  0
VERTEX
  8
0
 10
-51.98301641
 20
-1.34214338
  0
VERTEX
  8
0
 10
-52.00000000
 20
0.00000000
  0
SEQEND
  0
POLYLINE
  8
По_умолчанию
 66
   1
 39
0.000000
 70
    1
  0
VERTEX
  8
0
 10
-53.00000000
 20
0.00000000
  0
VERTEX
  8
0
 10
-52.98268981
 20
1.36795383
  0
VERTEX
  8
0
 10
-52.93103673
 20
2.72737297
  0
VERTEX
  8
0
 10
-52.84545703
 20
4.07784115
  0
VERTEX
  8
0
 10
-52.72636697
 20
5.41894212
  0
VERTEX
  8
0
 10
-52.57418282
 20
6.75025961
  0
VERTEX
  8
0
 10
-52.38932083
 20
8.07137736
  0
VERTEX
  8
0
 10
-52.17219726
 20
9.38187911
  0
VERTEX
  8
0
 10
-51.92322837
 20
10.68134861
  0
VERTEX
  8
0
 10
-51.64283043
 20
11.96936958
  0
VERTEX
  8
0
 10
-51.33141970
 20
13.24552576
  0
VERTEX
  8
0
 10
-50.98941244
 20
14.50940091
  0
VERTEX
  8
0
 10
-50.61722490
 20
15.76057874
  0
VERTEX
  8
0
 10
-50.21527336
 20
16.99864302
  0
VERTEX
  8
0
 10
-49.78397406
 20
18.22317746
  0
VERTEX
  8
0
 10
-49.32374328
 20
19.43376582
  0
VERTEX
  8
0
 10
-48.83499728
 20
20.62999183
  0
VERTEX
  8
0
 10
-48.31815230
 20
21.81143923
  0
VERTEX
  8
0
 10
-47.77362463
 20
22.97769175
  0
VERTEX
  8
0
 10
-47.20183051
 20
24.12833315
  0
VERTEX
  8
0
 10
-46.60318620
 20
25.26294715
  0
VERTEX
  8
0
 10
-45.97810798
 20
26.38111749
  0
VERTEX
  8
0
 10
-45.32701210
 20
27.48242792
  0
VERTEX
  8
0
 10
-44.65031481
 20
28.56646217
  0
VERTEX
  8
0
 10
-43.94843239
 20
29.63280399
  0
VERTEX
  8
0
 10
-43.22178110
 20
30.68103710
  0
VERTEX
  8
0
 10
-42.47077718
 20
31.71074526
  0
VERTEX
  8
0
 10
-41.69583692
 20
32.72151219
  0
VERTEX
  8
0
 10
-40.89737656
 20
33.71292164
  0
VERTEX
  8
0
 10
-40.07581236
 20
34.68455735
  0
VERTEX
  8
0
 10
-39.23156060
 20
35.63600305
  0
VERTEX
  8
0
 10
-38.36503753
 20
36.56684249
  0
VERTEX
  8
0
 10
-37.47665940
 20
37.47665940
  0
VERTEX
  8
0
 10
-36.56684249
 20
38.36503753
  0
VERTEX
  8
0
 10
-35.63600305
 20
39.23156060
  0
VERTEX
  8
0
 10
-34.68455735
 20
40.07581236
  0
VERTEX
  8
0
 10
-33.71292164
 20
40.89737656
  0
VERTEX
  8
0
 10
-32.72151219
 20
41.69583692
  0
VERTEX
  8
0
 10
-31.71074526
 20
42.47077718
  0
VERTEX
  8
0
 10
-30.68103710
 20
43.22178110
  0
VERTEX
  8
0
 10
-29.63280399
 20
43.94843239
  0
VERTEX
  8
0
 10
-28.56646217
 20
44.65031481
  0
VERTEX
  8
0
 10
-27.48242792
 20
45.32701210
  0
VERTEX
  8
0
 10
-26.38111749
 20
45.97810798
  0
VERTEX
  8
0
 10
-25.26294715
 20
46.60318620
  0
VERTEX
  8
0
 10
-24.12833315
 20
47.20183051
  0
VERTEX
  8
0
 10
-22.97769175
 20
47.77362463
  0
VERTEX
  8
0
 10
-21.81143923
 20
48.31815230
  0
VERTEX
  8
0
 10
-20.62999183
 20
48.83499728
  0
VERTEX
  8
0
 10
-19.43376582
 20
49.32374328
  0
VERTEX
  8
0
 10
-18.22317746
 20
49.78397406
  0
VERTEX
  8
0
 10
-16.99864302
 20
50.21527336
  0
VERTEX
  8
0
 10
-15.76057874
 20
50.61722490
  0
VERTEX
  8
0
 10
-14.50940091
 20
50.98941244
  0
VERTEX
  8
0
 10
-13.24552576
 20
51.33141970
  0
VERTEX
  8
0
 10
-11.96936958
 20
51.64283043
  0
VERTEX
  8
0
 10
-10.68134861
 20
51.92322837
  0
VERTEX
  8
0
 10
-9.38187911
 20
52.17219726
  0
VERTEX
  8
0
 10
-8.07137736
 20
52.38932083
  0
VERTEX
  8
0
 10
-6.75025961
 20
52.57418282
  0
VERTEX
  8
0
 10
-5.41894212
 20
52.72636697
  0
VERTEX
  8
0
 10
-4.07784115
 20
52.84545703
  0
VERTEX
  8
0
 10
-2.72737297
 20
52.93103673
  0
VERTEX
  8
0
 10
-1.36795383
 20
52.98268981
  0
VERTEX
  8
0
 10
0.00000000
 20
53.00000000
  0
VERTEX
  8
0
 10
1.36795383
 20
52.98268981
  0
VERTEX
  8
0
 10
2.72737297
 20
52.93103673
  0
VERTEX
  8
0
 10
4.07784115
 20
52.84545703
  0
VERTEX
  8
0
 10
5.41894212
 20
52.72636697
  0
VERTEX
  8
0
 10
6.75025961
 20
52.57418282
  0
VERTEX
  8
0
 10
8.07137736
 20
52.38932083
  0
VERTEX
  8
0
 10
9.38187911
 20
52.17219726
  0
VERTEX
  8
0
 10
10.68134861
 20
51.92322837
  0
VERTEX
  8
0
 10
11.96936958
 20
51.64283043
  0
VERTEX
  8
0
 10
13.24552576
 20
51.33141970
  0
VERTEX
  8
0
 10
14.50940091
 20
50.98941244
  0
VERTEX
  8
0
 10
15.76057874
 20
50.61722490
  0
VERTEX
  8
0
 10
16.99864302
 20
50.21527336
  0
VERTEX
  8
0
 10
18.22317746
 20
49.78397406
  0
VERTEX
  8
0
 10
19.43376582
 20
49.32374328
  0
VERTEX
  8
0
 10
20.62999183
 20
48.83499728
  0
VERTEX
  8
0
 10
21.81143923
 20
48.31815230
  0
VERTEX
  8
0
 10
22.97769175
 20
47.77362463
  0
VERTEX
  8
0
 10
24.12833315
 20
47.20183051
  0
VERTEX
  8
0
 10
25.26294715
 20
46.60318620
  0
VERTEX
  8
0
 10
26.38111749
 20
45.97810798
  0
VERTEX
  8
0
 10
27.48242792
 20
45.32701210
  0
VERTEX
  8
0
 10
28.56646217
 20
44.65031481
  0
VERTEX
  8
0
 10
29.63280399
 20
43.94843239
  0
VERTEX
  8
0
 10
30.68103710
 20
43.22178110
  0
VERTEX
  8
0
 10
31.71074526
 20
42.47077718
  0
VERTEX
  8
0
 10
32.72151219
 20
41.69583692
  0
VERTEX
  8
0
 10
33.71292164
 20
40.89737656
  0
VERTEX
  8
0
 10
34.68455735
 20
40.07581236
  0
VERTEX
  8
0
 10
35.63600305
 20
39.23156060
  0
VERTEX
  8
0
 10
36.56684249
 20
38.36503753
  0
VERTEX
  8
0
 10
37.47665940
 20
37.47665940
  0
VERTEX
  8
0
 10
38.36503753
 20
36.56684249
  0
VERTEX
  8
0
 10
39.23156060
 20
35.63600305
  0
VERTEX
  8
0
 10
40.07581236
 20
34.68455735
  0
VERTEX
  8
0
 10
40.89737656
 20
33.71292164
  0
VERTEX
  8
0
 10
41.69583692
 20
32.72151219
  0
VERTEX
  8
0
 10
42.47077718
 20
31.71074526
  0
VERTEX
  8
0
 10
43.22178110
 20
30.68103710
  0
VERTEX
  8
0
 10
43.94843239
 20
29.63280399
  0
VERTEX
  8
0
 10
44.65031481
 20
28.56646217
  0
VERTEX
  8
0
 10
45.32701210
 20
27.48242792
  0
VERTEX
  8
0
 10
45.97810798
 20
26.38111749
  0
VERTEX
  8
0
 10
46.60318620
 20
25.26294715
  0
VERTEX
  8
0
 10
47.20183051
 20
24.12833315
  0
VERTEX
  8
0
 10
47.77362463
 20
22.97769175
  0
VERTEX
  8
0
 10
48.31815230
 20
21.81143923
  0
VERTEX
  8
0
 10
48.83499728
 20
20.62999183
  0
VERTEX
  8
0
 10
49.32374328
 20
19.43376582
  0
VERTEX
  8
0
 10
49.78397406
 20
18.22317746
  0
VERTEX
  8
0
 10
50.21527336
 20
16.99864302
  0
VERTEX
  8
0
 10
50.61722490
 20
15.76057874
  0
VERTEX
  8
0
 10
50.98941244
 20
14.50940091
  0
VERTEX
  8
0
 10
51.33141970
 20
13.24552576
  0
VERTEX
  8
0
 10
51.64283043
 20
11.96936958
  0
VERTEX
  8
0
 10
51.92322837
 20
10.68134861
  0
VERTEX
  8
0
 10
52.17219726
 20
9.38187911
  0
VERTEX
  8
0
 10
52.38932083
 20
8.07137736
  0
VERTEX
  8
0
 10
52.57418282
 20
6.75025961
  0
VERTEX
  8
0
 10
52.72636697
 20
5.41894212
  0
VERTEX
  8
0
 10
52.84545703
 20
4.07784115
  0
VERTEX
  8
0
 10
52.93103673
 20
2.72737297
  0
VERTEX
  8
0
 10
52.98268981
 20
1.36795383
  0
VERTEX
  8
0
 10
53.00000000
 20
0.00000000
  0
VERTEX
  8
0
 10
52.98268981
 20
-1.36795383
  0
VERTEX
  8
0
 10
52.93103673
 20
-2.72737297
  0
VERTEX
  8
0
 10
52.84545703
 20
-4.07784115
  0
VERTEX
  8
0
 10
52.72636697
 20
-5.41894212
  0
VERTEX
  8
0
 10
52.57418282
 20
-6.75025961
  0
VERTEX
  8
0
 10
52.38932083
 20
-8.07137736
  0
VERTEX
  8
0
 10
52.17219726
 20
-9.38187911
  0
VERTEX
  8
0
 10
51.92322837
 20
-10.68134861
  0
VERTEX
  8
0
 10
51.64283043
 20
-11.96936958
  0
VERTEX
  8
0
 10
51.33141970
 20
-13.24552576
  0
VERTEX
  8
0
 10
50.98941244
 20
-14.50940091
  0
VERTEX
  8
0
 10
50.61722490
 20
-15.76057874
  0
VERTEX
  8
0
 10
50.21527336
 20
-16.99864302
  0
VERTEX
  8
0
 10
49.78397406
 20
-18.22317746
  0
VERTEX
  8
0
 10
49.32374328
 20
-19.43376582
  0
VERTEX
  8
0
 10
48.83499728
 20
-20.62999183
  0
VERTEX
  8
0
 10
48.31815230
 20
-21.81143923
  0
VERTEX
  8
0
 10
47.77362463
 20
-22.97769175
  0
VERTEX
  8
0
 10
47.20183051
 20
-24.12833315
  0
VERTEX
  8
0
 10
46.60318620
 20
-25.26294715
  0
VERTEX
  8
0
 10
45.97810798
 20
-26.38111749
  0
VERTEX
  8
0
 10
45.32701210
 20
-27.48242792
  0
VERTEX
  8
0
 10
44.65031481
 20
-28.56646217
  0
VERTEX
  8
0
 10
43.94843239
 20
-29.63280399
  0
VERTEX
  8
0
 10
43.22178110
 20
-30.68103710
  0
VERTEX
  8
0
 10
42.47077718
 20
-31.71074526
  0
VERTEX
  8
0
 10
41.69583692
 20
-32.72151219
  0
VERTEX
  8
0
 10
40.89737656
 20
-33.71292164
  0
VERTEX
  8
0
 10
40.07581236
 20
-34.68455735
  0
VERTEX
  8
0
 10
39.23156060
 20
-35.63600305
  0
VERTEX
  8
0
 10
38.36503753
 20
-36.56684249
  0
VERTEX
  8
0
 10
37.47665940
 20
-37.47665940
  0
VERTEX
  8
0
 10
36.56684249
 20
-38.36503753
  0
VERTEX
  8
0
 10
35.63600305
 20
-39.23156060
  0
VERTEX
  8
0
 10
34.68455735
 20
-40.07581236
  0
VERTEX
  8
0
 10
33.71292164
 20
-40.89737656
  0
VERTEX
  8
0
 10
32.72151219
 20
-41.69583692
  0
VERTEX
  8
0
 10
31.71074526
 20
-42.47077718
  0
VERTEX
  8
0
 10
30.68103710
 20
-43.22178110
  0
VERTEX
  8
0
 10
29.63280399
 20
-43.94843239
  0
VERTEX
  8
0
 10
28.56646217
 20
-44.65031481
  0
VERTEX
  8
0
 10
27.48242792
 20
-45.32701210
  0
VERTEX
  8
0
 10
26.38111749
 20
-45.97810798
  0
VERTEX
  8
0
 10
25.26294715
 20
-46.60318620
  0
VERTEX
  8
0
 10
24.12833315
 20
-47.20183051
  0
VERTEX
  8
0
 10
22.97769175
 20
-47.77362463
  0
VERTEX
  8
0
 10
21.81143923
 20
-48.31815230
  0
VERTEX
  8
0
 10
20.62999183
 20
-48.83499728
  0
VERTEX
  8
0
 10
19.43376582
 20
-49.32374328
  0
VERTEX
  8
0
 10
18.22317746
 20
-49.78397406
  0
VERTEX
  8
0
 10
16.99864302
 20
-50.21527336
  0
VERTEX
  8
0
 10
15.76057874
 20
-50.61722490
  0
VERTEX
  8
0
 10
14.50940091
 20
-50.98941244
  0
VERTEX
  8
0
 10
13.24552576
 20
-51.33141970
  0
VERTEX
  8
0
 10
11.96936958
 20
-51.64283043
  0
VERTEX
  8
0
 10
10.68134861
 20
-51.92322837
  0
VERTEX
  8
0
 10
9.38187911
 20
-52.17219726
  0
VERTEX
  8
0
 10
8.07137736
 20
-52.38932083
  0
VERTEX
  8
0
 10
6.75025961
 20
-52.57418282
  0
VERTEX
  8
0
 10
5.41894212
 20
-52.72636697
  0
VERTEX
  8
0
 10
4.07784115
 20
-52.84545703
  0
VERTEX
  8
0
 10
2.72737297
 20
-52.93103673
  0
VERTEX
  8
0
 10
1.36795383
 20
-52.98268981
  0
VERTEX
  8
0
 10
0.00000000
 20
-53.00000000
  0
VERTEX
  8
0
 10
-1.36795383
 20
-52.98268981
  0
VERTEX
  8
0
 10
-2.72737297
 20
-52.93103673
  0
VERTEX
  8
0
 10
-4.07784115
 20
-52.84545703
  0
VERTEX
  8
0
 10
-5.41894212
 20
-52.72636697
  0
VERTEX
  8
0
 10
-6.75025961
 20
-52.57418282
  0
VERTEX
  8
0
 10
-8.07137736
 20
-52.38932083
  0
VERTEX
  8
0
 10
-9.38187911
 20
-52.17219726
  0
VERTEX
  8
0
 10
-10.68134861
 20
-51.92322837
  0
VERTEX
  8
0
 10
-11.96936958
 20
-51.64283043
  0
VERTEX
  8
0
 10
-13.24552576
 20
-51.33141970
  0
VERTEX
  8
0
 10
-14.50940091
 20
-50.98941244
  0
VERTEX
  8
0
 10
-15.76057874
 20
-50.61722490
  0
VERTEX
  8
0
 10
-16.99864302
 20
-50.21527336
  0
VERTEX
  8
0
 10
-18.22317746
 20
-49.78397406
  0
VERTEX
  8
0
 10
-19.43376582
 20
-49.32374328
  0
VERTEX
  8
0
 10
-20.62999183
 20
-48.83499728
  0
VERTEX
  8
0
 10
-21.81143923
 20
-48.31815230
  0
VERTEX
  8
0
 10
-22.97769175
 20
-47.77362463
  0
VERTEX
  8
0
 10
-24.12833315
 20
-47.20183051
  0
VERTEX
  8
0
 10
-25.26294715
 20
-46.60318620
  0
VERTEX
  8
0
 10
-26.38111749
 20
-45.97810798
  0
VERTEX
  8
0
 10
-27.48242792
 20
-45.32701210
  0
VERTEX
  8
0
 10
-28.56646217
 20
-44.65031481
  0
VERTEX
  8
0
 10
-29.63280399
 20
-43.94843239
  0
VERTEX
  8
0
 10
-30.68103710
 20
-43.22178110
  0
VERTEX
  8
0
 10
-31.71074526
 20
-42.47077718
  0
VERTEX
  8
0
 10
-32.72151219
 20
-41.69583692
  0
VERTEX
  8
0
 10
-33.71292164
 20
-40.89737656
  0
VERTEX
  8
0
 10
-34.68455735
 20
-40.07581236
  0
VERTEX
  8
0
 10
-35.63600305
 20
-39.23156060
  0
VERTEX
  8
0
 10
-36.56684249
 20
-38.36503753
  0
VERTEX
  8
0
 10
-37.47665940
 20
-37.47665940
  0
VERTEX
  8
0
 10
-38.36503753
 20
-36.56684249
  0
VERTEX
  8
0
 10
-39.23156060
 20
-35.63600305
  0
VERTEX
  8
0
 10
-40.07581236
 20
-34.68455735
  0
VERTEX
  8
0
 10
-40.89737656
 20
-33.71292164
  0
VERTEX
  8
0
 10
-41.69583692
 20
-32.72151219
  0
VERTEX
  8
0
 10
-42.47077718
 20
-31.71074526
  0
VERTEX
  8
0
 10
-43.22178110
 20
-30.68103710
  0
VERTEX
  8
0
 10
-43.94843239
 20
-29.63280399
  0
VERTEX
  8
0
 10
-44.65031481
 20
-28.56646217
  0
VERTEX
  8
0
 10
-45.32701210
 20
-27.48242792
  0
VERTEX
  8
0
 10
-45.97810798
 20
-26.38111749
  0
VERTEX
  8
0
 10
-46.60318620
 20
-25.26294715
  0
VERTEX
  8
0
 10
-47.20183051
 20
-24.12833315
  0
VERTEX
  8
0
 10
-47.77362463
 20
-22.97769175
  0
VERTEX
  8
0
 10
-48.31815230
 20
-21.81143923
  0
VERTEX
  8
0
 10
-48.83499728
 20
-20.62999183
  0
VERTEX
  8
0
 10
-49.32374328
 20
-19.43376582
  0
VERTEX
  8
0
 10
-49.78397406
 20
-18.22317746
  0
VERTEX
  8
0
 10
-50.21527336
 20
-16.99864302
  0
VERTEX
  8
0
 10
-50.61722490
 20
-15.76057874
  0
VERTEX
  8
0
 10
-50.98941244
 20
-14.50940091
  0
VERTEX
  8
0
 10
-51.33141970
 20
-13.24552576
  0
VERTEX
  8
0
 10
-51.64283043
 20
-11.96936958
  0
VERTEX
  8
0
 10
-51.92322837
 20
-10.68134861
  0
VERTEX
  8
0
 10
-52.17219726
 20
-9.38187911
  0
VERTEX
  8
0
 10
-52.38932083
 20
-8.07137736
  0
VERTEX
  8
0
 10
-52.57418282
 20
-6.75025961
  0
VERTEX
  8
0
 10
-52.72636697
 20
-5.41894212
  0
VERTEX
  8
0
 10
-52.84545703
 20
-4.07784115
  0
VERTEX
  8
0
 10
-52.93103673
 20
-2.72737297
  0
VERTEX
  8
0
 10
-52.98268981
 20
-1.36795383
  0
VERTEX
  8
0
 10
-53.00000000
 20
0.00000000
  0
SEQEND
  0
POLYLINE
  8
По_умолчанию
 66
   1
 39
0.000000
 70
    1
  0
VERTEX
  8
0
 10
-0.50010892
 20
-2.51366975
  0
VERTEX
  8
0
 10
-18.31441576
 20
-45.52121092
  0
VERTEX
  8
0
 10
-8.67359830
 20
-43.60457572
  0
VERTEX
  8
0
 10
-0.50010892
 20
-49.06469687
  0
VERTEX
  8
0
 10
-0.50010892
 20
-2.51366975
  0
SEQEND
  0
POLYLINE
  8
По_умолчанию
 66
   1
 39
0.000000
 70
    1
  0
VERTEX
  8
0
 10
-1.42388103
 20
-2.13109162
  0
VERTEX
  8
0
 10
-34.34042798
 20
-35.04763857
  0
VERTEX
  8
0
 10
-24.70000952
 20
-36.96627965
  0
VERTEX
  8
0
 10
-19.23818787
 20
-45.13863279
  0
VERTEX
  8
0
 10
-1.42388103
 20
-2.13109162
  0
SEQEND
  0
POLYLINE
  8
По_умолчанию
 66
   1
 39
0.000000
 70
    1
  0
VERTEX
  8
0
 10
-2.13098781
 20
-1.42398484
  0
VERTEX
  8
0
 10
-45.13852899
 20
-19.23829168
  0
VERTEX
  8
0
 10
-36.96617584
 20
-24.70011332
  0
VERTEX
  8
0
 10
-35.04753476
 20
-34.34053179
  0
VERTEX
  8
0
 10
-2.13098781
 20
-1.42398484
  0
SEQEND
  0
POLYLINE
  8
По_умолчанию
 66
   1
 39
0.000000
 70
    1
  0
VERTEX
  8
0
 10
-2.51366975
 20
-0.50025573
  0
VERTEX
  8
0
 10
-49.06469687
 20
-0.50025573
  0
VERTEX
  8
0
 10
-43.60457572
 20
-8.67374511
  0
VERTEX
  8
0
 10
-45.52121092
 20
-18.31456257
  0
VERTEX
  8
0
 10
-2.51366975
 20
-0.50025573
  0
SEQEND
  0
POLYLINE
  8
По_умолчанию
 66
   1
 39
0.000000
 70
    1
  0
VERTEX
  8
0
 10
-2.51366975
 20
0.49974427
  0
VERTEX
  8
0
 10
-45.52121092
 20
18.31405111
  0
VERTEX
  8
0
 10
-43.60457572
 20
8.67323366
  0
VERTEX
  8
0
 10
-49.06469687
 20
0.49974427
  0
VERTEX
  8
0
 10
-2.51366975
 20
0.49974427
  0
SEQEND
  0
POLYLINE
  8
По_умолчанию
 66
   1
 39
0.000000
 70
    1
  0
VERTEX
  8
0
 10
-2.13109162
 20
1.42351638
  0
VERTEX
  8
0
 10
-35.04763857
 20
34.34006333
  0
VERTEX
  8
0
 10
-36.96627965
 20
24.69964487
  0
VERTEX
  8
0
 10
-45.13863279
 20
19.23782322
  0
VERTEX
  8
0
 10
-2.13109162
 20
1.42351638
  0
SEQEND
  0
POLYLINE
  8
По_умолчанию
 66
   1
 39
0.000000
 70
    1
  0
VERTEX
  8
0
 10
-1.42398484
 20
2.13062317
  0
VERTEX
  8
0
 10
-19.23829168
 20
45.13816434
  0
VERTEX
  8
0
 10
-24.70011332
 20
36.96581119
  0
VERTEX
  8
0
 10
-34.34053179
 20
35.04717011
  0
VERTEX
  8
0
 10
-1.42398484
 20
2.13062317
  0
SEQEND
  0
POLYLINE
  8
По_умолчанию
 66
   1
 39
0.000000
 70
    1
  0
VERTEX
  8
0
 10
-0.50010892
 20
2.51366975
  0
VERTEX
  8
0
 10
-0.50010892
 20
49.06469687
  0
VERTEX
  8
0
 10
-8.67359830
 20
43.60457572
  0
VERTEX
  8
0
 10
-18.31441576
 20
45.52121092
  0
VERTEX
  8
0
 10
-0.50010892
 20
2.51366975
  0
SEQEND
  0
POLYLINE
  8
По_умолчанию
 66
   1
 39
0.000000
 70
    1
  0
VERTEX
  8
0
 10
1.42402484
 20
-2.13160008
  0
VERTEX
  8
0
 10
19.23817170
 20
-45.13875503
  0
VERTEX
  8
0
 10
24.69990271
 20
-36.96653749
  0
VERTEX
  8
0
 10
34.34032118
 20
-35.04789641
  0
VERTEX
  8
0
 10
1.42402484
 20
-2.13160008
  0
SEQEND
  0
POLYLINE
  8
По_умолчанию
 66
   1
 39
0.000000
 70
    1
  0
VERTEX
  8
0
 10
2.13088101
 20
-1.42424268
  0
VERTEX
  8
0
 10
35.04742796
 20
-34.34078963
  0
VERTEX
  8
0
 10
36.96606904
 20
-24.70037117
  0
VERTEX
  8
0
 10
45.13842218
 20
-19.23854952
  0
VERTEX
  8
0
 10
2.13088101
 20
-1.42424268
  0
SEQEND
  0
POLYLINE
  8
По_умолчанию
 66
   1
 39
0.000000
 70
    1
  0
VERTEX
  8
0
 10
2.51366975
 20
-0.50025573
  0
VERTEX
  8
0
 10
45.52121092
 20
-18.31456257
  0
VERTEX
  8
0
 10
43.60457572
 20
-8.67374511
  0
VERTEX
  8
0
 10
49.06469687
 20
-0.50025573
  0
VERTEX
  8
0
 10
2.51366975
 20
-0.50025573
  0
SEQEND
  0
POLYLINE
  8
По_умолчанию
 66
   1
 39
0.000000
 70
    1
  0
VERTEX
  8
0
 10
2.51366975
 20
0.49974427
  0
VERTEX
  8
0
 10
49.06469687
 20
0.49974427
  0
VERTEX
  8
0
 10
43.60457572
 20
8.67323366
  0
VERTEX
  8
0
 10
45.52121092
 20
18.31405111
  0
VERTEX
  8
0
 10
2.51366975
 20
0.49974427
  0
SEQEND
  0
POLYLINE
  8
По_умолчанию
 66
   1
 39
0.000000
 70
    1
  0
VERTEX
  8
0
 10
2.13098482
 20
1.42377423
  0
VERTEX
  8
0
 10
45.13852599
 20
19.23808107
  0
VERTEX
  8
0
 10
36.96617284
 20
24.69990271
  0
VERTEX
  8
0
 10
35.04753177
 20
34.34032118
  0
VERTEX
  8
0
 10
2.13098482
 20
1.42377423
  0
SEQEND
  0
POLYLINE
  8
По_умолчанию
 66
   1
 39
0.000000
 70
    1
  0
VERTEX
  8
0
 10
1.42387804
 20
2.13088101
  0
VERTEX
  8
0
 10
34.34042499
 20
35.04742796
  0
VERTEX
  8
0
 10
24.70000652
 20
36.96606904
  0
VERTEX
  8
0
 10
19.23818487
 20
45.13842218
  0
VERTEX
  8
0
 10
1.42387804
 20
2.13088101
  0
SEQEND
  0
POLYLINE
  8
По_умолчанию
 66
   1
 39
0.000000
 70
    1
  0
VERTEX
  8
0
 10
0.49989108
 20
2.51366975
  0
VERTEX
  8
0
 10
18.31419792
 20
45.52121092
  0
VERTEX
  8
0
 10
8.67338047
 20
43.60457572
  0
VERTEX
  8
0
 10
0.49989108
 20
49.06469687
  0
VERTEX
  8
0
 10
0.49989108
 20
2.51366975
  0
SEQEND
  0
POLYLINE
  8
По_умолчанию
 66
   1
 39
0.000000
 70
    1
  0
VERTEX
  8
0
 10
0.49989108
 20
-2.51366975
  0
VERTEX
  8
0
 10
0.49989108
 20
-49.06469687
  0
VERTEX
  8
0
 10
8.67338047
 20
-43.60457572
  0
VERTEX
  8
0
 10
18.31419792
 20
-45.52121092
  0
VERTEX
  8
0
 10
0.49989108
 20
-2.51366975
  0
SEQEND
  0
ENDSEC
  0
EOF
