  0
SECTION
  2
HEADER
  9
$ACADVER
  1
AC1021
  9
$ACADMAINTVER
 70
    25
  9
$DWGCODEPAGE
  3
ANSI_1251
  9
$INSBASE
 10
0.0
 20
0.0
 30
0.0
  9
$EXTMIN
 10
-87.4173
 20
-133.7929
 30
0.0
  9
$EXTMAX
 10
94.5161
 20
132.7409
 30
0.0
  9
$LIMMIN
 10
0.0
 20
0.0
  9
$LIMMAX
 10
12.0
 20
9.0
  9
$ORTHOMODE
 70
     0
  9
$REGENMODE
 70
     1
  9
$FILLMODE
 70
     1
  9
$QTEXTMODE
 70
     0
  9
$MIRRTEXT
 70
     1
  9
$LTSCALE
 40
1.0
  9
$ATTMODE
 70
     1
  9
$TEXTSIZE
 40
0.2
  9
$TRACEWID
 40
0.05
  9
$TEXTSTYLE
  7
Standard
  9
$CLAYER
  8
0
  9
$CELTYPE
  6
ByLayer
  9
$CECOLOR
 62
   256
  9
$CELTSCALE
 40
1.0
  9
$DISPSILH
 70
     0
  9
$DIMSCALE
 40
1.0
  9
$DIMASZ
 40
0.18
  9
$DIMEXO
 40
0.0625
  9
$DIMDLI
 40
0.38
  9
$DIMRND
 40
0.0
  9
$DIMDLE
 40
0.0
  9
$DIMEXE
 40
0.18
  9
$DIMTP
 40
0.0
  9
$DIMTM
 40
0.0
  9
$DIMTXT
 40
0.18
  9
$DIMCEN
 40
0.09
  9
$DIMTSZ
 40
0.0
  9
$DIMTOL
 70
     0
  9
$DIMLIM
 70
     0
  9
$DIMTIH
 70
     1
  9
$DIMTOH
 70
     1
  9
$DIMSE1
 70
     0
  9
$DIMSE2
 70
     0
  9
$DIMTAD
 70
     0
  9
$DIMZIN
 70
     0
  9
$DIMBLK
  1

  9
$DIMASO
 70
     1
  9
$DIMSHO
 70
     1
  9
$DIMPOST
  1

  9
$DIMAPOST
  1

  9
$DIMALT
 70
     0
  9
$DIMALTD
 70
     2
  9
$DIMALTF
 40
25.4
  9
$DIMLFAC
 40
1.0
  9
$DIMTOFL
 70
     0
  9
$DIMTVP
 40
0.0
  9
$DIMTIX
 70
     0
  9
$DIMSOXD
 70
     0
  9
$DIMSAH
 70
     0
  9
$DIMBLK1
  1

  9
$DIMBLK2
  1

  9
$DIMSTYLE
  2
Standard
  9
$DIMCLRD
 70
     0
  9
$DIMCLRE
 70
     0
  9
$DIMCLRT
 70
     0
  9
$DIMTFAC
 40
1.0
  9
$DIMGAP
 40
0.09
  9
$DIMJUST
 70
     0
  9
$DIMSD1
 70
     0
  9
$DIMSD2
 70
     0
  9
$DIMTOLJ
 70
     1
  9
$DIMTZIN
 70
     0
  9
$DIMALTZ
 70
     0
  9
$DIMALTTZ
 70
     0
  9
$DIMUPT
 70
     0
  9
$DIMDEC
 70
     4
  9
$DIMTDEC
 70
     4
  9
$DIMALTU
 70
     2
  9
$DIMALTTD
 70
     2
  9
$DIMTXSTY
  7
Standard
  9
$DIMAUNIT
 70
     0
  9
$DIMADEC
 70
     0
  9
$DIMALTRND
 40
0.0
  9
$DIMAZIN
 70
     0
  9
$DIMDSEP
 70
    46
  9
$DIMATFIT
 70
     3
  9
$DIMFRAC
 70
     0
  9
$DIMLDRBLK
  1

  9
$DIMLUNIT
 70
     2
  9
$DIMLWD
 70
    -2
  9
$DIMLWE
 70
    -2
  9
$DIMTMOVE
 70
     0
  9
$DIMFXL
 40
1.0
  9
$DIMFXLON
 70
     0
  9
$DIMJOGANG
 40
0.7853981633974483
  9
$DIMTFILL
 70
     0
  9
$DIMTFILLCLR
 70
     0
  9
$DIMARCSYM
 70
     0
  9
$DIMLTYPE
  6

  9
$DIMLTEX1
  6

  9
$DIMLTEX2
  6

  9
$LUNITS
 70
     2
  9
$LUPREC
 70
     4
  9
$SKETCHINC
 40
0.1
  9
$FILLETRAD
 40
0.5
  9
$AUNITS
 70
     0
  9
$AUPREC
 70
     0
  9
$MENU
  1
.
  9
$ELEVATION
 40
0.0
  9
$PELEVATION
 40
0.0
  9
$THICKNESS
 40
0.0
  9
$LIMCHECK
 70
     0
  9
$CHAMFERA
 40
0.5
  9
$CHAMFERB
 40
0.5
  9
$CHAMFERC
 40
1.0
  9
$CHAMFERD
 40
0.0
  9
$SKPOLY
 70
     0
  9
$TDCREATE
 40
2456639.341449653
  9
$TDUCREATE
 40
2456639.258116319
  9
$TDUPDATE
 40
2456639.341449664
  9
$TDUUPDATE
 40
2456639.258116331
  9
$TDINDWG
 40
0.0000000116
  9
$TDUSRTIMER
 40
0.0000000116
  9
$USRTIMER
 70
     1
  9
$ANGBASE
 50
0.0
  9
$ANGDIR
 70
     0
  9
$PDMODE
 70
     0
  9
$PDSIZE
 40
0.0
  9
$PLINEWID
 40
0.0
  9
$SPLFRAME
 70
     0
  9
$SPLINETYPE
 70
     6
  9
$SPLINESEGS
 70
     8
  9
$HANDSEED
  5
7E
  9
$SURFTAB1
 70
     6
  9
$SURFTAB2
 70
     6
  9
$SURFTYPE
 70
     6
  9
$SURFU
 70
     6
  9
$SURFV
 70
     6
  9
$UCSBASE
  2

  9
$UCSNAME
  2

  9
$UCSORG
 10
0.0
 20
0.0
 30
0.0
  9
$UCSXDIR
 10
1.0
 20
0.0
 30
0.0
  9
$UCSYDIR
 10
0.0
 20
1.0
 30
0.0
  9
$UCSORTHOREF
  2

  9
$UCSORTHOVIEW
 70
     0
  9
$UCSORGTOP
 10
0.0
 20
0.0
 30
0.0
  9
$UCSORGBOTTOM
 10
0.0
 20
0.0
 30
0.0
  9
$UCSORGLEFT
 10
0.0
 20
0.0
 30
0.0
  9
$UCSORGRIGHT
 10
0.0
 20
0.0
 30
0.0
  9
$UCSORGFRONT
 10
0.0
 20
0.0
 30
0.0
  9
$UCSORGBACK
 10
0.0
 20
0.0
 30
0.0
  9
$PUCSBASE
  2

  9
$PUCSNAME
  2

  9
$PUCSORG
 10
0.0
 20
0.0
 30
0.0
  9
$PUCSXDIR
 10
1.0
 20
0.0
 30
0.0
  9
$PUCSYDIR
 10
0.0
 20
1.0
 30
0.0
  9
$PUCSORTHOREF
  2

  9
$PUCSORTHOVIEW
 70
     0
  9
$PUCSORGTOP
 10
0.0
 20
0.0
 30
0.0
  9
$PUCSORGBOTTOM
 10
0.0
 20
0.0
 30
0.0
  9
$PUCSORGLEFT
 10
0.0
 20
0.0
 30
0.0
  9
$PUCSORGRIGHT
 10
0.0
 20
0.0
 30
0.0
  9
$PUCSORGFRONT
 10
0.0
 20
0.0
 30
0.0
  9
$PUCSORGBACK
 10
0.0
 20
0.0
 30
0.0
  9
$USERI1
 70
     0
  9
$USERI2
 70
     0
  9
$USERI3
 70
     0
  9
$USERI4
 70
     0
  9
$USERI5
 70
     0
  9
$USERR1
 40
0.0
  9
$USERR2
 40
0.0
  9
$USERR3
 40
0.0
  9
$USERR4
 40
0.0
  9
$USERR5
 40
0.0
  9
$WORLDVIEW
 70
     1
  9
$SHADEDGE
 70
     3
  9
$SHADEDIF
 70
    70
  9
$TILEMODE
 70
     1
  9
$MAXACTVP
 70
    64
  9
$PINSBASE
 10
0.0
 20
0.0
 30
0.0
  9
$PLIMCHECK
 70
     0
  9
$PEXTMIN
 10
1.000000000000000E+20
 20
1.000000000000000E+20
 30
1.000000000000000E+20
  9
$PEXTMAX
 10
-1.000000000000000E+20
 20
-1.000000000000000E+20
 30
-1.000000000000000E+20
  9
$PLIMMIN
 10
0.0
 20
0.0
  9
$PLIMMAX
 10
12.0
 20
9.0
  9
$UNITMODE
 70
     0
  9
$VISRETAIN
 70
     1
  9
$PLINEGEN
 70
     0
  9
$PSLTSCALE
 70
     1
  9
$TREEDEPTH
 70
  3020
  9
$CMLSTYLE
  2
Standard
  9
$CMLJUST
 70
     0
  9
$CMLSCALE
 40
1.0
  9
$PROXYGRAPHICS
 70
     1
  9
$MEASUREMENT
 70
     0
  9
$CELWEIGHT
370
    -1
  9
$ENDCAPS
280
     0
  9
$JOINSTYLE
280
     0
  9
$LWDISPLAY
290
     0
  9
$INSUNITS
 70
     4
  9
$HYPERLINKBASE
  1

  9
$STYLESHEET
  1

  9
$XEDIT
290
     1
  9
$CEPSNTYPE
380
     0
  9
$PSTYLEMODE
290
     1
  9
$FINGERPRINTGUID
  2
{A2D4BF70-6AD3-4C1B-A07F-05168F773903}
  9
$VERSIONGUID
  2
{FAEB1C32-E019-11D5-929B-00C0DF256EC4}
  9
$EXTNAMES
290
     1
  9
$PSVPSCALE
 40
0.0
  9
$OLESTARTUP
290
     0
  9
$SORTENTS
280
   127
  9
$INDEXCTL
280
     0
  9
$HIDETEXT
280
     1
  9
$XCLIPFRAME
290
     0
  9
$HALOGAP
280
     0
  9
$OBSCOLOR
 70
   257
  9
$OBSLTYPE
280
     0
  9
$INTERSECTIONDISPLAY
280
     0
  9
$INTERSECTIONCOLOR
 70
   257
  9
$DIMASSOC
280
     2
  9
$PROJECTNAME
  1

  9
$CAMERADISPLAY
290
     0
  9
$LENSLENGTH
 40
50.0
  9
$CAMERAHEIGHT
 40
0.0
  9
$STEPSPERSEC
 40
2.0
  9
$STEPSIZE
 40
6.0
  9
$3DDWFPREC
 40
2.0
  9
$PSOLWIDTH
 40
0.25
  9
$PSOLHEIGHT
 40
4.0
  9
$LOFTANG1
 40
1.570796326794897
  9
$LOFTANG2
 40
1.570796326794897
  9
$LOFTMAG1
 40
0.0
  9
$LOFTMAG2
 40
0.0
  9
$LOFTPARAM
 70
     7
  9
$LOFTNORMALS
280
     1
  9
$LATITUDE
 40
37.795
  9
$LONGITUDE
 40
-122.394
  9
$NORTHDIRECTION
 40
0.0
  9
$TIMEZONE
 70
 -8000
  9
$LIGHTGLYPHDISPLAY
280
     1
  9
$TILEMODELIGHTSYNCH
280
     1
  9
$SOLIDHIST
280
     1
  9
$SHOWHIST
280
     1
  9
$DWFFRAME
280
     2
  9
$DGNFRAME
280
     2
  9
$REALWORLDSCALE
290
     1
  9
$INTERFERECOLOR
 62
   256
  9
$CSHADOW
280
     0
  9
$SHADOWPLANELOCATION
 40
0.0
  0
ENDSEC
  0
SECTION
  2
CLASSES
  0
CLASS
  1
ACDBDICTIONARYWDFLT
  2
AcDbDictionaryWithDefault
  3
ObjectDBX Classes
 90
        0
 91
        3
280
     0
281
     0
  0
CLASS
  1
VISUALSTYLE
  2
AcDbVisualStyle
  3
ObjectDBX Classes
 90
     4095
 91
        3
280
     0
281
     0
  0
CLASS
  1
SCALE
  2
AcDbScale
  3
ObjectDBX Classes
 90
     1153
 91
        3
280
     0
281
     0
  0
ENDSEC
  0
SECTION
  2
TABLES
  0
TABLE
  2
VPORT
  5
8
330
0
100
AcDbSymbolTable
 70
     1
  0
VPORT
  5
29
330
8
100
AcDbSymbolTableRecord
100
AcDbViewportTableRecord
  2
*Active
 70
     0
 10
0.0
 20
0.0
 11
1.0
 21
1.0
 12
10.42990654205607
 22
4.5
 13
0.0
 23
0.0
 14
0.5
 24
0.5
 15
0.5
 25
0.5
 16
0.0
 26
0.0
 36
1.0
 17
0.0
 27
0.0
 37
0.0
 40
9.0
 41
1.972972972850329
 42
50.0
 43
0.0
 44
0.0
 50
0.0
 51
0.0
 71
     0
 72
   100
 73
     1
 74
     3
 75
     0
 76
     0
 77
     0
 78
     0
281
     0
 65
     1
110
0.0
120
0.0
130
0.0
111
1.0
121
0.0
131
0.0
112
0.0
122
1.0
132
0.0
 79
     0
146
0.0
 60
     3
 61
     5
292
     1
282
     1
141
0.0
142
0.0
 63
   256
  0
ENDTAB
  0
TABLE
  2
LTYPE
  5
5
330
0
100
AcDbSymbolTable
 70
     1
  0
LTYPE
  5
14
330
5
100
AcDbSymbolTableRecord
100
AcDbLinetypeTableRecord
  2
ByBlock
 70
     0
  3

 72
    65
 73
     0
 40
0.0
  0
LTYPE
  5
15
330
5
100
AcDbSymbolTableRecord
100
AcDbLinetypeTableRecord
  2
ByLayer
 70
     0
  3

 72
    65
 73
     0
 40
0.0
  0
LTYPE
  5
16
330
5
100
AcDbSymbolTableRecord
100
AcDbLinetypeTableRecord
  2
Continuous
 70
     0
  3
Solid line
 72
    65
 73
     0
 40
0.0
  0
ENDTAB
  0
TABLE
  2
LAYER
  5
2
330
0
100
AcDbSymbolTable
 70
     2
  0
LAYER
  5
10
330
2
100
AcDbSymbolTableRecord
100
AcDbLayerTableRecord
  2
0
 70
     0
 62
     7
  6
Continuous
370
    -3
390
F
347
0
  0
LAYER
  5
5E
330
2
100
AcDbSymbolTableRecord
100
AcDbLayerTableRecord
  2
layer 1
 70
     0
 62
     7
  6
Continuous
370
    -3
390
F
347
0
  0
ENDTAB
  0
TABLE
  2
STYLE
  5
3
330
0
100
AcDbSymbolTable
 70
     1
  0
STYLE
  5
11
330
3
100
AcDbSymbolTableRecord
100
AcDbTextStyleTableRecord
  2
Standard
 70
     0
 40
0.0
 41
1.0
 50
0.0
 71
     0
 42
0.2
  3
txt
  4

  0
ENDTAB
  0
TABLE
  2
VIEW
  5
6
330
0
100
AcDbSymbolTable
 70
     0
  0
ENDTAB
  0
TABLE
  2
UCS
  5
7
330
0
100
AcDbSymbolTable
 70
     0
  0
ENDTAB
  0
TABLE
  2
APPID
  5
9
330
0
100
AcDbSymbolTable
 70
     2
  0
APPID
  5
12
330
9
100
AcDbSymbolTableRecord
100
AcDbRegAppTableRecord
  2
ACAD
 70
     0
  0
APPID
  5
5D
330
9
100
AcDbSymbolTableRecord
100
AcDbRegAppTableRecord
  2
ODA
 70
     0
  0
ENDTAB
  0
TABLE
  2
DIMSTYLE
  5
A
330
0
100
AcDbSymbolTable
 70
     1
100
AcDbDimStyleTable
  0
DIMSTYLE
105
27
330
A
100
AcDbSymbolTableRecord
100
AcDbDimStyleTableRecord
  2
Standard
 70
     0
340
11
  0
ENDTAB
  0
TABLE
  2
BLOCK_RECORD
  5
1
330
0
100
AcDbSymbolTable
 70
     1
  0
BLOCK_RECORD
  5
1F
330
1
100
AcDbSymbolTableRecord
100
AcDbBlockTableRecord
  2
*Model_Space
340
22
 70
     0
280
     1
281
     0
  0
BLOCK_RECORD
  5
1B
330
1
100
AcDbSymbolTableRecord
100
AcDbBlockTableRecord
  2
*Paper_Space
340
1E
 70
     0
280
     1
281
     0
  0
BLOCK_RECORD
  5
23
330
1
100
AcDbSymbolTableRecord
100
AcDbBlockTableRecord
  2
*Paper_Space0
340
26
 70
     0
280
     1
281
     0
  0
ENDTAB
  0
ENDSEC
  0
SECTION
  2
BLOCKS
  0
BLOCK
  5
20
330
1F
100
AcDbEntity
  8
0
100
AcDbBlockBegin
  2
*Model_Space
 70
     0
 10
0.0
 20
0.0
 30
0.0
  3
*Model_Space
  1

  0
ENDBLK
  5
21
330
1F
100
AcDbEntity
  8
0
100
AcDbBlockEnd
  0
BLOCK
  5
1C
330
1B
100
AcDbEntity
 67
     1
  8
0
100
AcDbBlockBegin
  2
*Paper_Space
 70
     0
 10
0.0
 20
0.0
 30
0.0
  3
*Paper_Space
  1

  0
ENDBLK
  5
1D
330
1B
100
AcDbEntity
 67
     1
  8
0
100
AcDbBlockEnd
  0
BLOCK
  5
24
330
23
100
AcDbEntity
  8
0
100
AcDbBlockBegin
  2
*Paper_Space0
 70
     0
 10
0.0
 20
0.0
 30
0.0
  3
*Paper_Space0
  1

  0
ENDBLK
  5
25
330
23
100
AcDbEntity
  8
0
100
AcDbBlockEnd
  0
ENDSEC
  0
SECTION
  2
ENTITIES
  0
SPLINE
  5
5F
330
1F
100
AcDbEntity
  8
layer 1
 62
   250
370
     9
100
AcDbSpline
210
0.0
220
0.0
230
1.0
 70
    11
 71
     3
 72
    20
 73
    16
 74
     0
 42
0.0000000001
 43
0.0000000001
 40
0.0
 40
0.0
 40
0.0
 40
0.0
 40
0.25
 40
0.25
 40
0.25
 40
0.25
 40
0.5
 40
0.5
 40
0.5
 40
0.5
 40
0.75
 40
0.75
 40
0.75
 40
0.75
 40
1.0
 40
1.0
 40
1.0
 40
1.0
 10
3.5494
 20
-133.7548
 30
0.0
 10
53.7594
 20
-133.7548
 30
0.0
 10
94.478
 20
-74.0938
 30
0.0
 10
94.478
 20
-0.526
 30
0.0
 10
94.478
 20
-0.526
 30
0.0
 10
94.478
 20
73.0418
 30
0.0
 10
53.7594
 20
132.7028
 30
0.0
 10
3.5494
 20
132.7028
 30
0.0
 10
3.5494
 20
132.7028
 30
0.0
 10
-46.6606
 20
132.7028
 30
0.0
 10
-87.3792
 20
73.0418
 30
0.0
 10
-87.3792
 20
-0.526
 30
0.0
 10
-87.3792
 20
-0.526
 30
0.0
 10
-87.3792
 20
-74.0938
 30
0.0
 10
-46.6606
 20
-133.7548
 30
0.0
 10
3.5494
 20
-133.7548
 30
0.0
  0
SPLINE
  5
60
330
1F
100
AcDbEntity
  8
layer 1
 62
   250
370
     9
100
AcDbSpline
210
0.0
220
0.0
230
1.0
 70
    11
 71
     3
 72
    20
 73
    16
 74
     0
 42
0.0000000001
 43
0.0000000001
 40
0.0
 40
0.0
 40
0.0
 40
0.0
 40
0.25
 40
0.25
 40
0.25
 40
0.25
 40
0.5
 40
0.5
 40
0.5
 40
0.5
 40
0.75
 40
0.75
 40
0.75
 40
0.75
 40
1.0
 40
1.0
 40
1.0
 40
1.0
 10
-19.537
 20
-117.9888
 30
0.0
 10
-19.537
 20
-117.9888
 30
0.0
 10
26.463
 20
-117.9888
 30
0.0
 10
26.463
 20
-117.9888
 30
0.0
 10
26.463
 20
-117.9888
 30
0.0
 10
26.463
 20
-117.9888
 30
0.0
 10
26.463
 20
-120.9888
 30
0.0
 10
26.463
 20
-120.9888
 30
0.0
 10
26.463
 20
-120.9888
 30
0.0
 10
26.463
 20
-120.9888
 30
0.0
 10
-19.537
 20
-120.9888
 30
0.0
 10
-19.537
 20
-120.9888
 30
0.0
 10
-19.537
 20
-120.9888
 30
0.0
 10
-19.537
 20
-120.9888
 30
0.0
 10
-19.537
 20
-117.9888
 30
0.0
 10
-19.537
 20
-117.9888
 30
0.0
  0
SPLINE
  5
61
330
1F
100
AcDbEntity
  8
layer 1
 62
   250
370
     9
100
AcDbSpline
210
0.0
220
0.0
230
1.0
 70
    11
 71
     3
 72
    20
 73
    16
 74
     0
 42
0.0000000001
 43
0.0000000001
 40
0.0
 40
0.0
 40
0.0
 40
0.0
 40
0.25
 40
0.25
 40
0.25
 40
0.25
 40
0.5
 40
0.5
 40
0.5
 40
0.5
 40
0.75
 40
0.75
 40
0.75
 40
0.75
 40
1.0
 40
1.0
 40
1.0
 40
1.0
 10
19.4596
 20
-111.4269
 30
0.0
 10
22.3365
 20
-111.4269
 30
0.0
 10
24.702
 20
-113.6224
 30
0.0
 10
24.963
 20
-116.4264
 30
0.0
 10
24.963
 20
-116.4264
 30
0.0
 10
24.963
 20
-116.4264
 30
0.0
 10
-18.037
 20
-116.4264
 30
0.0
 10
-18.037
 20
-116.4264
 30
0.0
 10
-18.037
 20
-116.4264
 30
0.0
 10
-17.776
 20
-113.6224
 30
0.0
 10
-15.4118
 20
-111.4264
 30
0.0
 10
-12.5348
 20
-111.4264
 30
0.0
 10
-12.5348
 20
-111.4264
 30
0.0
 10
-12.5348
 20
-111.4264
 30
0.0
 10
19.4596
 20
-111.4269
 30
0.0
 10
19.4596
 20
-111.4269
 30
0.0
  0
SPLINE
  5
62
330
1F
100
AcDbEntity
  8
layer 1
 62
   250
370
     9
100
AcDbSpline
210
0.0
220
0.0
230
1.0
 70
    11
 71
     3
 72
    20
 73
    16
 74
     0
 42
0.0000000001
 43
0.0000000001
 40
0.0
 40
0.0
 40
0.0
 40
0.0
 40
0.25
 40
0.25
 40
0.25
 40
0.25
 40
0.5
 40
0.5
 40
0.5
 40
0.5
 40
0.75
 40
0.75
 40
0.75
 40
0.75
 40
1.0
 40
1.0
 40
1.0
 40
1.0
 10
-42.5373
 20
-31.7042
 30
0.0
 10
-42.5373
 20
-31.7042
 30
0.0
 10
49.4627
 20
-31.7042
 30
0.0
 10
49.4627
 20
-31.7042
 30
0.0
 10
49.4627
 20
-31.7042
 30
0.0
 10
49.4627
 20
-31.7042
 30
0.0
 10
49.4627
 20
-34.7042
 30
0.0
 10
49.4627
 20
-34.7042
 30
0.0
 10
49.4627
 20
-34.7042
 30
0.0
 10
49.4627
 20
-34.7042
 30
0.0
 10
-42.5373
 20
-34.7042
 30
0.0
 10
-42.5373
 20
-34.7042
 30
0.0
 10
-42.5373
 20
-34.7042
 30
0.0
 10
-42.5373
 20
-34.7042
 30
0.0
 10
-42.5373
 20
-31.7042
 30
0.0
 10
-42.5373
 20
-31.7042
 30
0.0
  0
SPLINE
  5
63
330
1F
100
AcDbEntity
  8
layer 1
 62
   250
370
     9
100
AcDbSpline
210
0.0
220
0.0
230
1.0
 70
    11
 71
     3
 72
    24
 73
    20
 74
     0
 42
0.0000000001
 43
0.0000000001
 40
0.0
 40
0.0
 40
0.0
 40
0.0
 40
0.2
 40
0.2
 40
0.2
 40
0.2
 40
0.4
 40
0.4
 40
0.4
 40
0.4
 40
0.6000000000000001
 40
0.6000000000000001
 40
0.6000000000000001
 40
0.6000000000000001
 40
0.8
 40
0.8
 40
0.8
 40
0.8
 40
1.0
 40
1.0
 40
1.0
 40
1.0
 10
-17.4152
 20
-63.896
 30
0.0
 10
-17.4152
 20
-63.896
 30
0.0
 10
-5.4138
 20
-63.896
 30
0.0
 10
-5.4138
 20
-63.896
 30
0.0
 10
-5.4138
 20
-63.896
 30
0.0
 10
-6.3654
 20
-65.4639
 30
0.0
 10
-6.9135
 20
-67.3037
 30
0.0
 10
-6.9135
 20
-69.2714
 30
0.0
 10
-6.9135
 20
-69.2714
 30
0.0
 10
-6.9135
 20
-71.2391
 30
0.0
 10
-6.3654
 20
-73.0789
 30
0.0
 10
-5.4138
 20
-74.6468
 30
0.0
 10
-5.4138
 20
-74.6468
 30
0.0
 10
-5.4138
 20
-74.6468
 30
0.0
 10
-14.347
 20
-74.6468
 30
0.0
 10
-14.347
 20
-74.6468
 30
0.0
 10
-14.347
 20
-74.6468
 30
0.0
 10
-15.0556
 20
-71.0029
 30
0.0
 10
-16.1065
 20
-67.4247
 30
0.0
 10
-17.4152
 20
-63.896
 30
0.0
  0
SPLINE
  5
64
330
1F
100
AcDbEntity
  8
layer 1
 62
   250
370
     9
100
AcDbSpline
210
0.0
220
0.0
230
1.0
 70
    11
 71
     3
 72
    24
 73
    20
 74
     0
 42
0.0000000001
 43
0.0000000001
 40
0.0
 40
0.0
 40
0.0
 40
0.0
 40
0.2
 40
0.2
 40
0.2
 40
0.2
 40
0.4
 40
0.4
 40
0.4
 40
0.4
 40
0.6000000000000001
 40
0.6000000000000001
 40
0.6000000000000001
 40
0.6000000000000001
 40
0.8
 40
0.8
 40
0.8
 40
0.8
 40
1.0
 40
1.0
 40
1.0
 40
1.0
 10
24.0973
 20
-63.896
 30
0.0
 10
24.0973
 20
-63.896
 30
0.0
 10
12.3392
 20
-63.896
 30
0.0
 10
12.3392
 20
-63.896
 30
0.0
 10
12.3392
 20
-63.896
 30
0.0
 10
13.2908
 20
-65.4639
 30
0.0
 10
13.8389
 20
-67.3037
 30
0.0
 10
13.8389
 20
-69.2714
 30
0.0
 10
13.8389
 20
-69.2714
 30
0.0
 10
13.8389
 20
-71.2391
 30
0.0
 10
13.2908
 20
-73.0789
 30
0.0
 10
12.3392
 20
-74.6468
 30
0.0
 10
12.3392
 20
-74.6468
 30
0.0
 10
12.3392
 20
-74.6468
 30
0.0
 10
21.0291
 20
-74.6468
 30
0.0
 10
21.0291
 20
-74.6468
 30
0.0
 10
21.0291
 20
-74.6468
 30
0.0
 10
21.7377
 20
-71.0029
 30
0.0
 10
22.7886
 20
-67.4247
 30
0.0
 10
24.0973
 20
-63.896
 30
0.0
  0
SPLINE
  5
65
330
1F
100
AcDbEntity
  8
layer 1
 62
   250
370
     9
100
AcDbSpline
210
0.0
220
0.0
230
1.0
 70
    11
 71
     3
 72
    20
 73
    16
 74
     0
 42
0.0000000001
 43
0.0000000001
 40
0.0
 40
0.0
 40
0.0
 40
0.0
 40
0.25
 40
0.25
 40
0.25
 40
0.25
 40
0.5
 40
0.5
 40
0.5
 40
0.5
 40
0.75
 40
0.75
 40
0.75
 40
0.75
 40
1.0
 40
1.0
 40
1.0
 40
1.0
 10
-11.6731
 20
-78.0429
 30
0.0
 10
-11.6731
 20
-78.0429
 30
0.0
 10
-11.6731
 20
-109.0928
 30
0.0
 10
-11.6731
 20
-109.0928
 30
0.0
 10
-11.6731
 20
-109.0928
 30
0.0
 10
-12.4909
 20
-108.3418
 30
0.0
 10
-13.3237
 20
-108.2933
 30
0.0
 10
-14.1734
 20
-109.0928
 30
0.0
 10
-14.1734
 20
-109.0928
 30
0.0
 10
-14.1734
 20
-98.7427
 30
0.0
 10
-14.1731
 20
-88.3927
 30
0.0
 10
-14.1731
 20
-78.0426
 30
0.0
 10
-14.1731
 20
-78.0426
 30
0.0
 10
-14.1731
 20
-75.5463
 30
0.0
 10
-11.6731
 20
-75.6253
 30
0.0
 10
-11.6731
 20
-78.0429
 30
0.0
  0
SPLINE
  5
66
330
1F
100
AcDbEntity
  8
layer 1
 62
   250
370
     9
100
AcDbSpline
210
0.0
220
0.0
230
1.0
 70
    11
 71
     3
 72
    20
 73
    16
 74
     0
 42
0.0000000001
 43
0.0000000001
 40
0.0
 40
0.0
 40
0.0
 40
0.0
 40
0.25
 40
0.25
 40
0.25
 40
0.25
 40
0.5
 40
0.5
 40
0.5
 40
0.5
 40
0.75
 40
0.75
 40
0.75
 40
0.75
 40
1.0
 40
1.0
 40
1.0
 40
1.0
 10
-7.8004
 20
-78.0403
 30
0.0
 10
-7.8004
 20
-78.0403
 30
0.0
 10
-7.8004
 20
-109.0928
 30
0.0
 10
-7.8004
 20
-109.0928
 30
0.0
 10
-7.8004
 20
-109.0928
 30
0.0
 10
-8.8473
 20
-108.3027
 30
0.0
 10
-9.8453
 20
-108.3369
 30
0.0
 10
-10.8004
 20
-109.0928
 30
0.0
 10
-10.8004
 20
-109.0928
 30
0.0
 10
-10.8004
 20
-109.0928
 30
0.0
 10
-10.8004
 20
-78.0515
 30
0.0
 10
-10.8004
 20
-78.0515
 30
0.0
 10
-10.8004
 20
-78.0515
 30
0.0
 10
-10.8004
 20
-75.6369
 30
0.0
 10
-7.8004
 20
-75.5015
 30
0.0
 10
-7.8004
 20
-78.0403
 30
0.0
  0
SPLINE
  5
67
330
1F
100
AcDbEntity
  8
layer 1
 62
   250
370
     9
100
AcDbSpline
210
0.0
220
0.0
230
1.0
 70
    11
 71
     3
 72
    24
 73
    20
 74
     0
 42
0.0000000001
 43
0.0000000001
 40
0.0
 40
0.0
 40
0.0
 40
0.0
 40
0.2
 40
0.2
 40
0.2
 40
0.2
 40
0.4
 40
0.4
 40
0.4
 40
0.4
 40
0.6000000000000001
 40
0.6000000000000001
 40
0.6000000000000001
 40
0.6000000000000001
 40
0.8
 40
0.8
 40
0.8
 40
0.8
 40
1.0
 40
1.0
 40
1.0
 40
1.0
 10
-1.4274
 20
-78.4243
 30
0.0
 10
-1.4274
 20
-78.4243
 30
0.0
 10
-1.429
 20
-109.0928
 30
0.0
 10
-1.429
 20
-109.0928
 30
0.0
 10
-1.429
 20
-109.0928
 30
0.0
 10
-3.292
 20
-108.3145
 30
0.0
 10
-5.1246
 20
-108.3221
 30
0.0
 10
-6.9274
 20
-109.0928
 30
0.0
 10
-6.9274
 20
-109.0928
 30
0.0
 10
-6.9274
 20
-109.0928
 30
0.0
 10
-6.9274
 20
-78.2129
 30
0.0
 10
-6.9274
 20
-78.2129
 30
0.0
 10
-6.9274
 20
-78.2129
 30
0.0
 10
-6.9274
 20
-76.8172
 30
0.0
 10
-5.6675
 20
-76.1317
 30
0.0
 10
-4.3537
 20
-76.0944
 30
0.0
 10
-4.3537
 20
-76.0944
 30
0.0
 10
-3.5303
 20
-77.0367
 30
0.0
 10
-2.5394
 20
-77.8288
 30
0.0
 10
-1.4274
 20
-78.4243
 30
0.0
  0
SPLINE
  5
68
330
1F
100
AcDbEntity
  8
layer 1
 62
   250
370
     9
100
AcDbSpline
210
0.0
220
0.0
230
1.0
 70
    11
 71
     3
 72
    24
 73
    20
 74
     0
 42
0.0000000001
 43
0.0000000001
 40
0.0
 40
0.0
 40
0.0
 40
0.0
 40
0.2
 40
0.2
 40
0.2
 40
0.2
 40
0.4
 40
0.4
 40
0.4
 40
0.4
 40
0.6000000000000001
 40
0.6000000000000001
 40
0.6000000000000001
 40
0.6000000000000001
 40
0.8
 40
0.8
 40
0.8
 40
0.8
 40
1.0
 40
1.0
 40
1.0
 40
1.0
 10
7.528
 20
-78.8204
 30
0.0
 10
7.528
 20
-78.8204
 30
0.0
 10
7.528
 20
-109.0928
 30
0.0
 10
7.528
 20
-109.0928
 30
0.0
 10
7.528
 20
-109.0928
 30
0.0
 10
4.7839
 20
-107.6049
 30
0.0
 10
2.0694
 20
-107.4376
 30
0.0
 10
-0.6026
 20
-109.0928
 30
0.0
 10
-0.6026
 20
-109.0928
 30
0.0
 10
-0.6026
 20
-109.0928
 30
0.0
 10
-0.6026
 20
-78.8204
 30
0.0
 10
-0.6026
 20
-78.8204
 30
0.0
 10
-0.6026
 20
-78.8204
 30
0.0
 10
0.6459
 20
-79.3528
 30
0.0
 10
2.0199
 20
-79.6476
 30
0.0
 10
3.4627
 20
-79.6476
 30
0.0
 10
3.4627
 20
-79.6476
 30
0.0
 10
4.9055
 20
-79.6476
 30
0.0
 10
6.2795
 20
-79.3528
 30
0.0
 10
7.528
 20
-78.8204
 30
0.0
  0
SPLINE
  5
69
330
1F
100
AcDbEntity
  8
layer 1
 62
   250
370
     9
100
AcDbSpline
210
0.0
220
0.0
230
1.0
 70
    11
 71
     3
 72
    24
 73
    20
 74
     0
 42
0.0000000001
 43
0.0000000001
 40
0.0
 40
0.0
 40
0.0
 40
0.0
 40
0.2
 40
0.2
 40
0.2
 40
0.2
 40
0.4
 40
0.4
 40
0.4
 40
0.4
 40
0.6000000000000001
 40
0.6000000000000001
 40
0.6000000000000001
 40
0.6000000000000001
 40
0.8
 40
0.8
 40
0.8
 40
0.8
 40
1.0
 40
1.0
 40
1.0
 40
1.0
 10
8.3528
 20
-78.4243
 30
0.0
 10
8.3528
 20
-78.4243
 30
0.0
 10
8.3545
 20
-109.0929
 30
0.0
 10
8.3545
 20
-109.0929
 30
0.0
 10
8.3545
 20
-109.0929
 30
0.0
 10
10.2175
 20
-108.3145
 30
0.0
 10
12.0501
 20
-108.3221
 30
0.0
 10
13.8529
 20
-109.0929
 30
0.0
 10
13.8529
 20
-109.0929
 30
0.0
 10
13.8529
 20
-109.0929
 30
0.0
 10
13.8529
 20
-78.2129
 30
0.0
 10
13.8529
 20
-78.2129
 30
0.0
 10
13.8529
 20
-78.2129
 30
0.0
 10
13.8529
 20
-76.8172
 30
0.0
 10
12.593
 20
-76.1317
 30
0.0
 10
11.2791
 20
-76.0944
 30
0.0
 10
11.2791
 20
-76.0944
 30
0.0
 10
10.4557
 20
-77.0367
 30
0.0
 10
9.4648
 20
-77.8288
 30
0.0
 10
8.3528
 20
-78.4243
 30
0.0
  0
SPLINE
  5
6A
330
1F
100
AcDbEntity
  8
layer 1
 62
   250
370
     9
100
AcDbSpline
210
0.0
220
0.0
230
1.0
 70
    11
 71
     3
 72
    20
 73
    16
 74
     0
 42
0.0000000001
 43
0.0000000001
 40
0.0
 40
0.0
 40
0.0
 40
0.0
 40
0.25
 40
0.25
 40
0.25
 40
0.25
 40
0.5
 40
0.5
 40
0.5
 40
0.5
 40
0.75
 40
0.75
 40
0.75
 40
0.75
 40
1.0
 40
1.0
 40
1.0
 40
1.0
 10
18.5986
 20
-77.9951
 30
0.0
 10
18.5986
 20
-77.9951
 30
0.0
 10
18.5986
 20
-109.045
 30
0.0
 10
18.5986
 20
-109.045
 30
0.0
 10
18.5986
 20
-109.045
 30
0.0
 10
19.4164
 20
-108.294
 30
0.0
 10
20.2492
 20
-108.2455
 30
0.0
 10
21.0989
 20
-109.045
 30
0.0
 10
21.0989
 20
-109.045
 30
0.0
 10
21.0989
 20
-98.6949
 30
0.0
 10
21.0986
 20
-88.3449
 30
0.0
 10
21.0986
 20
-77.9948
 30
0.0
 10
21.0986
 20
-77.9948
 30
0.0
 10
21.0986
 20
-75.4985
 30
0.0
 10
18.5986
 20
-75.5775
 30
0.0
 10
18.5986
 20
-77.9951
 30
0.0
  0
SPLINE
  5
6B
330
1F
100
AcDbEntity
  8
layer 1
 62
   250
370
     9
100
AcDbSpline
210
0.0
220
0.0
230
1.0
 70
    11
 71
     3
 72
    20
 73
    16
 74
     0
 42
0.0000000001
 43
0.0000000001
 40
0.0
 40
0.0
 40
0.0
 40
0.0
 40
0.25
 40
0.25
 40
0.25
 40
0.25
 40
0.5
 40
0.5
 40
0.5
 40
0.5
 40
0.75
 40
0.75
 40
0.75
 40
0.75
 40
1.0
 40
1.0
 40
1.0
 40
1.0
 10
14.7259
 20
-77.9925
 30
0.0
 10
14.7259
 20
-77.9925
 30
0.0
 10
14.7259
 20
-109.045
 30
0.0
 10
14.7259
 20
-109.045
 30
0.0
 10
14.7259
 20
-109.045
 30
0.0
 10
15.7728
 20
-108.2549
 30
0.0
 10
16.7708
 20
-108.2891
 30
0.0
 10
17.7259
 20
-109.045
 30
0.0
 10
17.7259
 20
-109.045
 30
0.0
 10
17.7259
 20
-109.045
 30
0.0
 10
17.7259
 20
-78.0037
 30
0.0
 10
17.7259
 20
-78.0037
 30
0.0
 10
17.7259
 20
-78.0037
 30
0.0
 10
17.7259
 20
-75.5891
 30
0.0
 10
14.7259
 20
-75.4537
 30
0.0
 10
14.7259
 20
-77.9925
 30
0.0
  0
SPLINE
  5
6C
330
1F
100
AcDbEntity
  8
layer 1
 62
   250
370
     9
100
AcDbSpline
210
0.0
220
0.0
230
1.0
 70
    11
 71
     3
 72
    28
 73
    24
 74
     0
 42
0.0000000001
 43
0.0000000001
 40
0.0
 40
0.0
 40
0.0
 40
0.0
 40
0.1666666666666667
 40
0.1666666666666667
 40
0.1666666666666667
 40
0.1666666666666667
 40
0.3333333333333333
 40
0.3333333333333333
 40
0.3333333333333333
 40
0.3333333333333333
 40
0.5
 40
0.5
 40
0.5
 40
0.5
 40
0.6666666666666666
 40
0.6666666666666666
 40
0.6666666666666666
 40
0.6666666666666666
 40
0.8333333333333333
 40
0.8333333333333333
 40
0.8333333333333333
 40
0.8333333333333333
 40
1.0
 40
1.0
 40
1.0
 40
1.0
 10
3.4627
 20
-36.0381
 30
0.0
 10
6.5267
 20
-36.0381
 30
0.0
 10
9.0115
 20
-38.5229
 30
0.0
 10
9.0115
 20
-41.5869
 30
0.0
 10
9.0115
 20
-41.5869
 30
0.0
 10
9.0115
 20
-41.5869
 30
0.0
 10
9.0115
 20
-60.503
 30
0.0
 10
9.0115
 20
-60.503
 30
0.0
 10
9.0115
 20
-60.503
 30
0.0
 10
7.4065
 20
-59.4851
 30
0.0
 10
5.5035
 20
-58.8952
 30
0.0
 10
3.4627
 20
-58.8952
 30
0.0
 10
3.4627
 20
-58.8952
 30
0.0
 10
1.4219
 20
-58.8952
 30
0.0
 10
-0.4811
 20
-59.4851
 30
0.0
 10
-2.0861
 20
-60.503
 30
0.0
 10
-2.0861
 20
-60.503
 30
0.0
 10
-2.0861
 20
-60.503
 30
0.0
 10
-2.0861
 20
-41.5869
 30
0.0
 10
-2.0861
 20
-41.5869
 30
0.0
 10
-2.0861
 20
-41.5869
 30
0.0
 10
-2.0861
 20
-38.5229
 30
0.0
 10
0.3987
 20
-36.0381
 30
0.0
 10
3.4627
 20
-36.0381
 30
0.0
  0
SPLINE
  5
6D
330
1F
100
AcDbEntity
  8
layer 1
 62
   250
370
     9
100
AcDbSpline
210
0.0
220
0.0
230
1.0
 70
    11
 71
     3
 72
    28
 73
    24
 74
     0
 42
0.0000000001
 43
0.0000000001
 40
0.0
 40
0.0
 40
0.0
 40
0.0
 40
0.1666666666666667
 40
0.1666666666666667
 40
0.1666666666666667
 40
0.1666666666666667
 40
0.3333333333333333
 40
0.3333333333333333
 40
0.3333333333333333
 40
0.3333333333333333
 40
0.5
 40
0.5
 40
0.5
 40
0.5
 40
0.6666666666666666
 40
0.6666666666666666
 40
0.6666666666666666
 40
0.6666666666666666
 40
0.8333333333333333
 40
0.8333333333333333
 40
0.8333333333333333
 40
0.8333333333333333
 40
1.0
 40
1.0
 40
1.0
 40
1.0
 10
-8.2068
 20
-36.2087
 30
0.0
 10
-4.9512
 20
-36.7883
 30
0.0
 10
-3.8582
 20
-39.8316
 30
0.0
 10
-3.6598
 20
-42.4293
 30
0.0
 10
-3.6598
 20
-42.4293
 30
0.0
 10
-3.1807
 20
-48.7052
 30
0.0
 10
-2.7993
 20
-54.8062
 30
0.0
 10
-2.9306
 20
-61.0991
 30
0.0
 10
-2.9306
 20
-61.0991
 30
0.0
 10
-3.511
 20
-61.5538
 30
0.0
 10
-4.0416
 20
-62.0693
 30
0.0
 10
-4.5133
 20
-62.6355
 30
0.0
 10
-4.5133
 20
-62.6355
 30
0.0
 10
-4.5133
 20
-62.6355
 30
0.0
 10
-7.6682
 20
-62.6355
 30
0.0
 10
-7.6682
 20
-62.6355
 30
0.0
 10
-7.6682
 20
-62.6355
 30
0.0
 10
-8.5623
 20
-55.4812
 30
0.0
 10
-9.9669
 20
-48.3808
 30
0.0
 10
-12.1618
 20
-41.4205
 30
0.0
 10
-12.1618
 20
-41.4205
 30
0.0
 10
-13.0376
 20
-38.6434
 30
0.0
 10
-11.505
 20
-35.6215
 30
0.0
 10
-8.2068
 20
-36.2087
 30
0.0
  0
SPLINE
  5
6E
330
1F
100
AcDbEntity
  8
layer 1
 62
   250
370
     9
100
AcDbSpline
210
0.0
220
0.0
230
1.0
 70
    11
 71
     3
 72
    24
 73
    20
 74
     0
 42
0.0000000001
 43
0.0000000001
 40
0.0
 40
0.0
 40
0.0
 40
0.0
 40
0.2
 40
0.2
 40
0.2
 40
0.2
 40
0.4
 40
0.4
 40
0.4
 40
0.4
 40
0.6000000000000001
 40
0.6000000000000001
 40
0.6000000000000001
 40
0.6000000000000001
 40
0.8
 40
0.8
 40
0.8
 40
0.8
 40
1.0
 40
1.0
 40
1.0
 40
1.0
 10
-20.0801
 20
-40.9242
 30
0.0
 10
-23.5912
 20
-34.4775
 30
0.0
 10
-16.6406
 20
-34.9428
 30
0.0
 10
-14.1151
 20
-39.8987
 30
0.0
 10
-14.1151
 20
-39.8987
 30
0.0
 10
-10.8494
 20
-46.3071
 30
0.0
 10
-9.8732
 20
-55.6002
 30
0.0
 10
-9.0498
 20
-62.6355
 30
0.0
 10
-9.0498
 20
-62.6355
 30
0.0
 10
-9.0498
 20
-62.6355
 30
0.0
 10
-12.3376
 20
-62.6353
 30
0.0
 10
-12.3376
 20
-62.6353
 30
0.0
 10
-12.3376
 20
-62.6353
 30
0.0
 10
-13.2299
 20
-57.9498
 30
0.0
 10
-14.8142
 20
-52.4761
 30
0.0
 10
-16.3157
 20
-48.8456
 30
0.0
 10
-16.3157
 20
-48.8456
 30
0.0
 10
-17.8172
 20
-45.2152
 30
0.0
 10
-18.6465
 20
-43.5565
 30
0.0
 10
-20.0801
 20
-40.9242
 30
0.0
  0
SPLINE
  5
6F
330
1F
100
AcDbEntity
  8
layer 1
 62
   250
370
     9
100
AcDbSpline
210
0.0
220
0.0
230
1.0
 70
    11
 71
     3
 72
    24
 73
    20
 74
     0
 42
0.0000000001
 43
0.0000000001
 40
0.0
 40
0.0
 40
0.0
 40
0.0
 40
0.2
 40
0.2
 40
0.2
 40
0.2
 40
0.4
 40
0.4
 40
0.4
 40
0.4
 40
0.6000000000000001
 40
0.6000000000000001
 40
0.6000000000000001
 40
0.6000000000000001
 40
0.8
 40
0.8
 40
0.8
 40
0.8
 40
1.0
 40
1.0
 40
1.0
 40
1.0
 10
-13.0582
 20
-62.6354
 30
0.0
 10
-13.0582
 20
-62.6354
 30
0.0
 10
-15.7195
 20
-62.6355
 30
0.0
 10
-15.7195
 20
-62.6355
 30
0.0
 10
-15.7195
 20
-62.6355
 30
0.0
 10
-17.3735
 20
-56.4028
 30
0.0
 10
-19.9666
 20
-49.2897
 30
0.0
 10
-24.1599
 20
-43.5511
 30
0.0
 10
-24.1599
 20
-43.5511
 30
0.0
 10
-25.2422
 20
-42.0701
 30
0.0
 10
-26.4868
 20
-40.7991
 30
0.0
 10
-27.6737
 20
-39.4216
 30
0.0
 10
-27.6737
 20
-39.4216
 30
0.0
 10
-31.8305
 20
-34.5997
 30
0.0
 10
-25.6362
 20
-35.6061
 30
0.0
 10
-22.3814
 20
-39.0697
 30
0.0
 10
-22.3814
 20
-39.0697
 30
0.0
 10
-17.6423
 20
-44.1126
 30
0.0
 10
-14.6584
 20
-55.9078
 30
0.0
 10
-13.0582
 20
-62.6354
 30
0.0
  0
SPLINE
  5
70
330
1F
100
AcDbEntity
  8
layer 1
 62
   250
370
     9
100
AcDbSpline
210
0.0
220
0.0
230
1.0
 70
    11
 71
     3
 72
    28
 73
    24
 74
     0
 42
0.0000000001
 43
0.0000000001
 40
0.0
 40
0.0
 40
0.0
 40
0.0
 40
0.1666666666666667
 40
0.1666666666666667
 40
0.1666666666666667
 40
0.1666666666666667
 40
0.3333333333333333
 40
0.3333333333333333
 40
0.3333333333333333
 40
0.3333333333333333
 40
0.5
 40
0.5
 40
0.5
 40
0.5
 40
0.6666666666666666
 40
0.6666666666666666
 40
0.6666666666666666
 40
0.6666666666666666
 40
0.8333333333333333
 40
0.8333333333333333
 40
0.8333333333333333
 40
0.8333333333333333
 40
1.0
 40
1.0
 40
1.0
 40
1.0
 10
15.1322
 20
-36.2087
 30
0.0
 10
11.8766
 20
-36.7883
 30
0.0
 10
10.7836
 20
-39.8316
 30
0.0
 10
10.5852
 20
-42.4293
 30
0.0
 10
10.5852
 20
-42.4293
 30
0.0
 10
10.1061
 20
-48.7052
 30
0.0
 10
9.7247
 20
-54.8062
 30
0.0
 10
9.856
 20
-61.0991
 30
0.0
 10
9.856
 20
-61.0991
 30
0.0
 10
10.4364
 20
-61.5538
 30
0.0
 10
10.967
 20
-62.0693
 30
0.0
 10
11.4387
 20
-62.6355
 30
0.0
 10
11.4387
 20
-62.6355
 30
0.0
 10
11.4387
 20
-62.6355
 30
0.0
 10
14.5936
 20
-62.6355
 30
0.0
 10
14.5936
 20
-62.6355
 30
0.0
 10
14.5936
 20
-62.6355
 30
0.0
 10
15.4877
 20
-55.4812
 30
0.0
 10
16.8923
 20
-48.3808
 30
0.0
 10
19.0872
 20
-41.4205
 30
0.0
 10
19.0872
 20
-41.4205
 30
0.0
 10
19.963
 20
-38.6434
 30
0.0
 10
18.4304
 20
-35.6215
 30
0.0
 10
15.1322
 20
-36.2087
 30
0.0
  0
SPLINE
  5
71
330
1F
100
AcDbEntity
  8
layer 1
 62
   250
370
     9
100
AcDbSpline
210
0.0
220
0.0
230
1.0
 70
    11
 71
     3
 72
    24
 73
    20
 74
     0
 42
0.0000000001
 43
0.0000000001
 40
0.0
 40
0.0
 40
0.0
 40
0.0
 40
0.2
 40
0.2
 40
0.2
 40
0.2
 40
0.4
 40
0.4
 40
0.4
 40
0.4
 40
0.6000000000000001
 40
0.6000000000000001
 40
0.6000000000000001
 40
0.6000000000000001
 40
0.8
 40
0.8
 40
0.8
 40
0.8
 40
1.0
 40
1.0
 40
1.0
 40
1.0
 10
27.0055
 20
-40.9242
 30
0.0
 10
30.5166
 20
-34.4775
 30
0.0
 10
23.566
 20
-34.9428
 30
0.0
 10
21.0405
 20
-39.8987
 30
0.0
 10
21.0405
 20
-39.8987
 30
0.0
 10
17.7748
 20
-46.3071
 30
0.0
 10
16.7986
 20
-55.6002
 30
0.0
 10
15.9752
 20
-62.6355
 30
0.0
 10
15.9752
 20
-62.6355
 30
0.0
 10
15.9752
 20
-62.6355
 30
0.0
 10
19.263
 20
-62.6353
 30
0.0
 10
19.263
 20
-62.6353
 30
0.0
 10
19.263
 20
-62.6353
 30
0.0
 10
20.1553
 20
-57.9498
 30
0.0
 10
21.7396
 20
-52.4761
 30
0.0
 10
23.2411
 20
-48.8456
 30
0.0
 10
23.2411
 20
-48.8456
 30
0.0
 10
24.7426
 20
-45.2152
 30
0.0
 10
25.5719
 20
-43.5565
 30
0.0
 10
27.0055
 20
-40.9242
 30
0.0
  0
SPLINE
  5
72
330
1F
100
AcDbEntity
  8
layer 1
 62
   250
370
     9
100
AcDbSpline
210
0.0
220
0.0
230
1.0
 70
    11
 71
     3
 72
    24
 73
    20
 74
     0
 42
0.0000000001
 43
0.0000000001
 40
0.0
 40
0.0
 40
0.0
 40
0.0
 40
0.2
 40
0.2
 40
0.2
 40
0.2
 40
0.4
 40
0.4
 40
0.4
 40
0.4
 40
0.6000000000000001
 40
0.6000000000000001
 40
0.6000000000000001
 40
0.6000000000000001
 40
0.8
 40
0.8
 40
0.8
 40
0.8
 40
1.0
 40
1.0
 40
1.0
 40
1.0
 10
19.9836
 20
-62.6354
 30
0.0
 10
19.9836
 20
-62.6354
 30
0.0
 10
22.6449
 20
-62.6355
 30
0.0
 10
22.6449
 20
-62.6355
 30
0.0
 10
22.6449
 20
-62.6355
 30
0.0
 10
24.2989
 20
-56.4028
 30
0.0
 10
26.892
 20
-49.2897
 30
0.0
 10
31.0853
 20
-43.5511
 30
0.0
 10
31.0853
 20
-43.5511
 30
0.0
 10
32.1676
 20
-42.0701
 30
0.0
 10
33.4122
 20
-40.7991
 30
0.0
 10
34.5991
 20
-39.4216
 30
0.0
 10
34.5991
 20
-39.4216
 30
0.0
 10
38.7559
 20
-34.5997
 30
0.0
 10
32.5616
 20
-35.6061
 30
0.0
 10
29.3068
 20
-39.0697
 30
0.0
 10
29.3068
 20
-39.0697
 30
0.0
 10
24.5677
 20
-44.1126
 30
0.0
 10
21.5838
 20
-55.9078
 30
0.0
 10
19.9836
 20
-62.6354
 30
0.0
  0
SPLINE
  5
73
330
1F
100
AcDbEntity
  8
layer 1
 62
   250
370
     9
100
AcDbSpline
210
0.0
220
0.0
230
1.0
 70
    11
 71
     3
 72
    40
 73
    36
 74
     0
 42
0.0000000001
 43
0.0000000001
 40
0.0
 40
0.0
 40
0.0
 40
0.0
 40
0.1111111111111111
 40
0.1111111111111111
 40
0.1111111111111111
 40
0.1111111111111111
 40
0.2222222222222222
 40
0.2222222222222222
 40
0.2222222222222222
 40
0.2222222222222222
 40
0.3333333333333333
 40
0.3333333333333333
 40
0.3333333333333333
 40
0.3333333333333333
 40
0.4444444444444444
 40
0.4444444444444444
 40
0.4444444444444444
 40
0.4444444444444444
 40
0.5555555555555556
 40
0.5555555555555556
 40
0.5555555555555556
 40
0.5555555555555556
 40
0.6666666666666667
 40
0.6666666666666667
 40
0.6666666666666667
 40
0.6666666666666667
 40
0.7777777777777779
 40
0.7777777777777779
 40
0.7777777777777779
 40
0.7777777777777779
 40
0.8888888888888891
 40
0.8888888888888891
 40
0.8888888888888891
 40
0.8888888888888891
 40
1.0
 40
1.0
 40
1.0
 40
1.0
 10
-4.6812
 20
-69.5149
 30
0.0
 10
-4.9534
 20
-69.8752
 30
0.0
 10
-5.2835
 20
-70.4453
 30
0.0
 10
-4.7707
 20
-70.7493
 30
0.0
 10
-4.7707
 20
-70.7493
 30
0.0
 10
-4.6383
 20
-70.8277
 30
0.0
 10
-4.5074
 20
-70.8425
 30
0.0
 10
-4.361
 20
-70.7948
 30
0.0
 10
-4.361
 20
-70.7948
 30
0.0
 10
-4.361
 20
-70.7948
 30
0.0
 10
1.8763
 20
-68.766
 30
0.0
 10
1.8763
 20
-68.766
 30
0.0
 10
1.8763
 20
-68.766
 30
0.0
 10
2.0383
 20
-68.7133
 30
0.0
 10
2.1446
 20
-68.6067
 30
0.0
 10
2.1972
 20
-68.4448
 30
0.0
 10
2.1972
 20
-68.4448
 30
0.0
 10
2.2497
 20
-68.2832
 30
0.0
 10
2.2261
 20
-68.1339
 30
0.0
 10
2.1261
 20
-67.9964
 30
0.0
 10
2.1261
 20
-67.9964
 30
0.0
 10
2.1261
 20
-67.9964
 30
0.0
 10
-1.7327
 20
-62.6894
 30
0.0
 10
-1.7327
 20
-62.6894
 30
0.0
 10
-1.7327
 20
-62.6894
 30
0.0
 10
-1.8233
 20
-62.5649
 30
0.0
 10
-1.9375
 20
-62.4998
 30
0.0
 10
-2.0911
 20
-62.4857
 30
0.0
 10
-2.0911
 20
-62.4857
 30
0.0
 10
-2.6832
 20
-62.4307
 30
0.0
 10
-2.7474
 20
-63.082
 30
0.0
 10
-2.7386
 20
-63.5325
 30
0.0
 10
-2.7386
 20
-63.5325
 30
0.0
 10
-2.697
 20
-65.6734
 30
0.0
 10
-3.3894
 20
-67.807
 30
0.0
 10
-4.6812
 20
-69.5149
 30
0.0
  0
SPLINE
  5
74
330
1F
100
AcDbEntity
  8
layer 1
 62
   250
370
     9
100
AcDbSpline
210
0.0
220
0.0
230
1.0
 70
    11
 71
     3
 72
    40
 73
    36
 74
     0
 42
0.0000000001
 43
0.0000000001
 40
0.0
 40
0.0
 40
0.0
 40
0.0
 40
0.1111111111111111
 40
0.1111111111111111
 40
0.1111111111111111
 40
0.1111111111111111
 40
0.2222222222222222
 40
0.2222222222222222
 40
0.2222222222222222
 40
0.2222222222222222
 40
0.3333333333333333
 40
0.3333333333333333
 40
0.3333333333333333
 40
0.3333333333333333
 40
0.4444444444444444
 40
0.4444444444444444
 40
0.4444444444444444
 40
0.4444444444444444
 40
0.5555555555555556
 40
0.5555555555555556
 40
0.5555555555555556
 40
0.5555555555555556
 40
0.6666666666666667
 40
0.6666666666666667
 40
0.6666666666666667
 40
0.6666666666666667
 40
0.7777777777777779
 40
0.7777777777777779
 40
0.7777777777777779
 40
0.7777777777777779
 40
0.8888888888888891
 40
0.8888888888888891
 40
0.8888888888888891
 40
0.8888888888888891
 40
1.0
 40
1.0
 40
1.0
 40
1.0
 10
1.5284
 20
-76.6594
 30
0.0
 10
1.787
 20
-77.0298
 30
0.0
 10
2.2271
 20
-77.5198
 30
0.0
 10
2.6747
 20
-77.1261
 30
0.0
 10
2.6747
 20
-77.1261
 30
0.0
 10
2.7903
 20
-77.0243
 30
0.0
 10
2.8447
 20
-76.9046
 30
0.0
 10
2.8446
 20
-76.7505
 30
0.0
 10
2.8446
 20
-76.7505
 30
0.0
 10
2.8446
 20
-76.7505
 30
0.0
 10
2.8428
 20
-70.1915
 30
0.0
 10
2.8428
 20
-70.1915
 30
0.0
 10
2.8428
 20
-70.1915
 30
0.0
 10
2.8427
 20
-70.0212
 30
0.0
 10
2.7742
 20
-69.8871
 30
0.0
 10
2.6365
 20
-69.7871
 30
0.0
 10
2.6365
 20
-69.7871
 30
0.0
 10
2.499
 20
-69.6872
 30
0.0
 10
2.3497
 20
-69.6635
 30
0.0
 10
2.1882
 20
-69.7161
 30
0.0
 10
2.1882
 20
-69.7161
 30
0.0
 10
2.1882
 20
-69.7161
 30
0.0
 10
-4.0516
 20
-71.7458
 30
0.0
 10
-4.0516
 20
-71.7458
 30
0.0
 10
-4.0516
 20
-71.7458
 30
0.0
 10
-4.1982
 20
-71.7935
 30
0.0
 10
-4.2953
 20
-71.882
 30
0.0
 10
-4.3563
 20
-72.0237
 30
0.0
 10
-4.3563
 20
-72.0237
 30
0.0
 10
-4.5915
 20
-72.5698
 30
0.0
 10
-3.9919
 20
-72.8322
 30
0.0
 10
-3.5608
 20
-72.9631
 30
0.0
 10
-3.5608
 20
-72.9631
 30
0.0
 10
-1.5053
 20
-73.587
 30
0.0
 10
0.2992
 20
-74.8973
 30
0.0
 10
1.5284
 20
-76.6594
 30
0.0
  0
SPLINE
  5
75
330
1F
100
AcDbEntity
  8
layer 1
 62
   250
370
     9
100
AcDbSpline
210
0.0
220
0.0
230
1.0
 70
    11
 71
     3
 72
    40
 73
    36
 74
     0
 42
0.0000000001
 43
0.0000000001
 40
0.0
 40
0.0
 40
0.0
 40
0.0
 40
0.1111111111111111
 40
0.1111111111111111
 40
0.1111111111111111
 40
0.1111111111111111
 40
0.2222222222222222
 40
0.2222222222222222
 40
0.2222222222222222
 40
0.2222222222222222
 40
0.3333333333333333
 40
0.3333333333333333
 40
0.3333333333333333
 40
0.3333333333333333
 40
0.4444444444444444
 40
0.4444444444444444
 40
0.4444444444444444
 40
0.4444444444444444
 40
0.5555555555555556
 40
0.5555555555555556
 40
0.5555555555555556
 40
0.5555555555555556
 40
0.6666666666666667
 40
0.6666666666666667
 40
0.6666666666666667
 40
0.6666666666666667
 40
0.7777777777777779
 40
0.7777777777777779
 40
0.7777777777777779
 40
0.7777777777777779
 40
0.8888888888888891
 40
0.8888888888888891
 40
0.8888888888888891
 40
0.8888888888888891
 40
1.0
 40
1.0
 40
1.0
 40
1.0
 10
10.2422
 20
-72.962
 30
0.0
 10
10.6743
 20
-72.8306
 30
0.0
 10
11.2765
 20
-72.5634
 30
0.0
 10
11.0404
 20
-72.0161
 30
0.0
 10
11.0404
 20
-72.0161
 30
0.0
 10
10.9793
 20
-71.8747
 30
0.0
 10
10.8822
 20
-71.7859
 30
0.0
 10
10.7356
 20
-71.7384
 30
0.0
 10
10.7356
 20
-71.7384
 30
0.0
 10
10.7356
 20
-71.7384
 30
0.0
 10
4.4972
 20
-69.713
 30
0.0
 10
4.4972
 20
-69.713
 30
0.0
 10
4.4972
 20
-69.713
 30
0.0
 10
4.3355
 20
-69.6605
 30
0.0
 10
4.1861
 20
-69.6844
 30
0.0
 10
4.0487
 20
-69.7842
 30
0.0
 10
4.0487
 20
-69.7842
 30
0.0
 10
3.911
 20
-69.8843
 30
0.0
 10
3.8427
 20
-70.0184
 30
0.0
 10
3.8428
 20
-70.1887
 30
0.0
 10
3.8428
 20
-70.1887
 30
0.0
 10
3.8428
 20
-70.1887
 30
0.0
 10
3.8446
 20
-76.7502
 30
0.0
 10
3.8446
 20
-76.7502
 30
0.0
 10
3.8446
 20
-76.7502
 30
0.0
 10
3.8447
 20
-76.9042
 30
0.0
 10
3.8988
 20
-77.024
 30
0.0
 10
4.0148
 20
-77.1258
 30
0.0
 10
4.0148
 20
-77.1258
 30
0.0
 10
4.4614
 20
-77.5183
 30
0.0
 10
4.8963
 20
-77.0291
 30
0.0
 10
5.154
 20
-76.6596
 30
0.0
 10
5.154
 20
-76.6596
 30
0.0
 10
6.3827
 20
-74.8976
 30
0.0
 10
8.1864
 20
-73.5863
 30
0.0
 10
10.2422
 20
-72.962
 30
0.0
  0
SPLINE
  5
76
330
1F
100
AcDbEntity
  8
layer 1
 62
   250
370
     9
100
AcDbSpline
210
0.0
220
0.0
230
1.0
 70
    11
 71
     3
 72
    40
 73
    36
 74
     0
 42
0.0000000001
 43
0.0000000001
 40
0.0
 40
0.0
 40
0.0
 40
0.0
 40
0.1111111111111111
 40
0.1111111111111111
 40
0.1111111111111111
 40
0.1111111111111111
 40
0.2222222222222222
 40
0.2222222222222222
 40
0.2222222222222222
 40
0.2222222222222222
 40
0.3333333333333333
 40
0.3333333333333333
 40
0.3333333333333333
 40
0.3333333333333333
 40
0.4444444444444444
 40
0.4444444444444444
 40
0.4444444444444444
 40
0.4444444444444444
 40
0.5555555555555556
 40
0.5555555555555556
 40
0.5555555555555556
 40
0.5555555555555556
 40
0.6666666666666667
 40
0.6666666666666667
 40
0.6666666666666667
 40
0.6666666666666667
 40
0.7777777777777779
 40
0.7777777777777779
 40
0.7777777777777779
 40
0.7777777777777779
 40
0.8888888888888891
 40
0.8888888888888891
 40
0.8888888888888891
 40
0.8888888888888891
 40
1.0
 40
1.0
 40
1.0
 40
1.0
 10
9.419
 20
-63.5321
 30
0.0
 10
9.4276
 20
-63.0805
 30
0.0
 10
9.3596
 20
-62.4252
 30
0.0
 10
8.766
 20
-62.4807
 30
0.0
 10
8.766
 20
-62.4807
 30
0.0
 10
8.6126
 20
-62.4951
 30
0.0
 10
8.4983
 20
-62.5598
 30
0.0
 10
8.4078
 20
-62.6846
 30
0.0
 10
8.4078
 20
-62.6846
 30
0.0
 10
8.4078
 20
-62.6846
 30
0.0
 10
4.5535
 20
-67.9915
 30
0.0
 10
4.5535
 20
-67.9915
 30
0.0
 10
4.5535
 20
-67.9915
 30
0.0
 10
4.4536
 20
-68.1291
 30
0.0
 10
4.4301
 20
-68.2785
 30
0.0
 10
4.4825
 20
-68.4401
 30
0.0
 10
4.4825
 20
-68.4401
 30
0.0
 10
4.5352
 20
-68.602
 30
0.0
 10
4.6415
 20
-68.7084
 30
0.0
 10
4.8036
 20
-68.761
 30
0.0
 10
4.8036
 20
-68.761
 30
0.0
 10
4.8036
 20
-68.761
 30
0.0
 10
11.0445
 20
-70.7873
 30
0.0
 10
11.0445
 20
-70.7873
 30
0.0
 10
11.0445
 20
-70.7873
 30
0.0
 10
11.1909
 20
-70.8348
 30
0.0
 10
11.3217
 20
-70.8203
 30
0.0
 10
11.4542
 20
-70.7415
 30
0.0
 10
11.4542
 20
-70.7415
 30
0.0
 10
11.9655
 20
-70.4381
 30
0.0
 10
11.6348
 20
-69.8733
 30
0.0
 10
11.3629
 20
-69.5141
 30
0.0
 10
11.3629
 20
-69.5141
 30
0.0
 10
10.0711
 20
-67.8063
 30
0.0
 10
9.3775
 20
-65.6731
 30
0.0
 10
9.419
 20
-63.5321
 30
0.0
  0
SPLINE
  5
77
330
1F
100
AcDbEntity
  8
layer 1
 62
   250
370
     9
100
AcDbSpline
210
0.0
220
0.0
230
1.0
 70
    11
 71
     3
 72
    40
 73
    36
 74
     0
 42
0.0000000001
 43
0.0000000001
 40
0.0
 40
0.0
 40
0.0
 40
0.0
 40
0.1111111111111111
 40
0.1111111111111111
 40
0.1111111111111111
 40
0.1111111111111111
 40
0.2222222222222222
 40
0.2222222222222222
 40
0.2222222222222222
 40
0.2222222222222222
 40
0.3333333333333333
 40
0.3333333333333333
 40
0.3333333333333333
 40
0.3333333333333333
 40
0.4444444444444444
 40
0.4444444444444444
 40
0.4444444444444444
 40
0.4444444444444444
 40
0.5555555555555556
 40
0.5555555555555556
 40
0.5555555555555556
 40
0.5555555555555556
 40
0.6666666666666667
 40
0.6666666666666667
 40
0.6666666666666667
 40
0.6666666666666667
 40
0.7777777777777779
 40
0.7777777777777779
 40
0.7777777777777779
 40
0.7777777777777779
 40
0.8888888888888891
 40
0.8888888888888891
 40
0.8888888888888891
 40
0.8888888888888891
 40
1.0
 40
1.0
 40
1.0
 40
1.0
 10
0.1963
 20
-61.4005
 30
0.0
 10
-0.2291
 20
-61.2533
 30
0.0
 10
-0.875
 20
-61.116
 30
0.0
 10
-1.0055
 20
-61.6966
 30
0.0
 10
-1.0055
 20
-61.6966
 30
0.0
 10
-1.0391
 20
-61.8466
 30
0.0
 10
-1.0127
 20
-61.9759
 30
0.0
 10
-0.9223
 20
-62.1003
 30
0.0
 10
-0.9223
 20
-62.1003
 30
0.0
 10
-0.9223
 20
-62.1003
 30
0.0
 10
2.9337
 20
-67.4061
 30
0.0
 10
2.9337
 20
-67.4061
 30
0.0
 10
2.9337
 20
-67.4061
 30
0.0
 10
3.0338
 20
-67.5439
 30
0.0
 10
3.1681
 20
-67.6121
 30
0.0
 10
3.3382
 20
-67.6122
 30
0.0
 10
3.3382
 20
-67.6122
 30
0.0
 10
3.5085
 20
-67.6121
 30
0.0
 10
3.6426
 20
-67.5439
 30
0.0
 10
3.7427
 20
-67.4061
 30
0.0
 10
3.7427
 20
-67.4061
 30
0.0
 10
3.7427
 20
-67.4061
 30
0.0
 10
7.5986
 20
-62.097
 30
0.0
 10
7.5986
 20
-62.097
 30
0.0
 10
7.5986
 20
-62.097
 30
0.0
 10
7.689
 20
-61.9726
 30
0.0
 10
7.7157
 20
-61.8433
 30
0.0
 10
7.6817
 20
-61.6931
 30
0.0
 10
7.6817
 20
-61.6931
 30
0.0
 10
7.5514
 20
-61.1141
 30
0.0
 10
6.9101
 20
-61.2537
 30
0.0
 10
6.4862
 20
-61.4006
 30
0.0
 10
6.4862
 20
-61.4006
 30
0.0
 10
4.4564
 20
-62.1036
 30
0.0
 10
2.2263
 20
-62.104
 30
0.0
 10
0.1963
 20
-61.4005
 30
0.0
  0
SPLINE
  5
78
330
1F
100
AcDbEntity
  8
layer 1
 62
   250
370
     9
100
AcDbSpline
210
0.0
220
0.0
230
1.0
 70
    11
 71
     3
 72
    20
 73
    16
 74
     0
 42
0.0000000001
 43
0.0000000001
 40
0.0
 40
0.0
 40
0.0
 40
0.0
 40
0.25
 40
0.25
 40
0.25
 40
0.25
 40
0.5
 40
0.5
 40
0.5
 40
0.5
 40
0.75
 40
0.75
 40
0.75
 40
0.75
 40
1.0
 40
1.0
 40
1.0
 40
1.0
 10
3.3398
 20
-65.1996
 30
0.0
 10
5.2724
 20
-65.1996
 30
0.0
 10
6.8398
 20
-66.767
 30
0.0
 10
6.8398
 20
-68.6996
 30
0.0
 10
6.8398
 20
-68.6996
 30
0.0
 10
6.8398
 20
-70.6323
 30
0.0
 10
5.2724
 20
-72.1996
 30
0.0
 10
3.3398
 20
-72.1996
 30
0.0
 10
3.3398
 20
-72.1996
 30
0.0
 10
1.4071
 20
-72.1996
 30
0.0
 10
-0.1602
 20
-70.6323
 30
0.0
 10
-0.1602
 20
-68.6996
 30
0.0
 10
-0.1602
 20
-68.6996
 30
0.0
 10
-0.1602
 20
-66.767
 30
0.0
 10
1.4071
 20
-65.1996
 30
0.0
 10
3.3398
 20
-65.1996
 30
0.0
  0
SPLINE
  5
79
330
1F
100
AcDbEntity
  8
layer 1
 62
   250
370
     9
100
AcDbSpline
210
0.0
220
0.0
230
1.0
 70
    11
 71
     3
 72
   608
 73
   604
 74
     0
 42
0.0000000001
 43
0.0000000001
 40
0.0
 40
0.0
 40
0.0
 40
0.0
 40
0.0066225165562914
 40
0.0066225165562914
 40
0.0066225165562914
 40
0.0066225165562914
 40
0.0132450331125828
 40
0.0132450331125828
 40
0.0132450331125828
 40
0.0132450331125828
 40
0.0198675496688742
 40
0.0198675496688742
 40
0.0198675496688742
 40
0.0198675496688742
 40
0.0264900662251656
 40
0.0264900662251656
 40
0.0264900662251656
 40
0.0264900662251656
 40
0.033112582781457
 40
0.033112582781457
 40
0.033112582781457
 40
0.033112582781457
 40
0.0397350993377483
 40
0.0397350993377483
 40
0.0397350993377483
 40
0.0397350993377483
 40
0.0463576158940397
 40
0.0463576158940397
 40
0.0463576158940397
 40
0.0463576158940397
 40
0.0529801324503311
 40
0.0529801324503311
 40
0.0529801324503311
 40
0.0529801324503311
 40
0.0596026490066225
 40
0.0596026490066225
 40
0.0596026490066225
 40
0.0596026490066225
 40
0.0662251655629139
 40
0.0662251655629139
 40
0.0662251655629139
 40
0.0662251655629139
 40
0.0728476821192053
 40
0.0728476821192053
 40
0.0728476821192053
 40
0.0728476821192053
 40
0.0794701986754967
 40
0.0794701986754967
 40
0.0794701986754967
 40
0.0794701986754967
 40
0.0860927152317881
 40
0.0860927152317881
 40
0.0860927152317881
 40
0.0860927152317881
 40
0.0927152317880795
 40
0.0927152317880795
 40
0.0927152317880795
 40
0.0927152317880795
 40
0.0993377483443709
 40
0.0993377483443709
 40
0.0993377483443709
 40
0.0993377483443709
 40
0.1059602649006623
 40
0.1059602649006623
 40
0.1059602649006623
 40
0.1059602649006623
 40
0.1125827814569537
 40
0.1125827814569537
 40
0.1125827814569537
 40
0.1125827814569537
 40
0.1192052980132451
 40
0.1192052980132451
 40
0.1192052980132451
 40
0.1192052980132451
 40
0.1258278145695365
 40
0.1258278145695365
 40
0.1258278145695365
 40
0.1258278145695365
 40
0.1324503311258279
 40
0.1324503311258279
 40
0.1324503311258279
 40
0.1324503311258279
 40
0.1390728476821193
 40
0.1390728476821193
 40
0.1390728476821193
 40
0.1390728476821193
 40
0.1456953642384107
 40
0.1456953642384107
 40
0.1456953642384107
 40
0.1456953642384107
 40
0.1523178807947021
 40
0.1523178807947021
 40
0.1523178807947021
 40
0.1523178807947021
 40
0.1589403973509935
 40
0.1589403973509935
 40
0.1589403973509935
 40
0.1589403973509935
 40
0.1655629139072849
 40
0.1655629139072849
 40
0.1655629139072849
 40
0.1655629139072849
 40
0.1721854304635763
 40
0.1721854304635763
 40
0.1721854304635763
 40
0.1721854304635763
 40
0.1788079470198677
 40
0.1788079470198677
 40
0.1788079470198677
 40
0.1788079470198677
 40
0.1854304635761591
 40
0.1854304635761591
 40
0.1854304635761591
 40
0.1854304635761591
 40
0.1920529801324505
 40
0.1920529801324505
 40
0.1920529801324505
 40
0.1920529801324505
 40
0.1986754966887418
 40
0.1986754966887418
 40
0.1986754966887418
 40
0.1986754966887418
 40
0.2052980132450332
 40
0.2052980132450332
 40
0.2052980132450332
 40
0.2052980132450332
 40
0.2119205298013246
 40
0.2119205298013246
 40
0.2119205298013246
 40
0.2119205298013246
 40
0.218543046357616
 40
0.218543046357616
 40
0.218543046357616
 40
0.218543046357616
 40
0.2251655629139074
 40
0.2251655629139074
 40
0.2251655629139074
 40
0.2251655629139074
 40
0.2317880794701988
 40
0.2317880794701988
 40
0.2317880794701988
 40
0.2317880794701988
 40
0.2384105960264902
 40
0.2384105960264902
 40
0.2384105960264902
 40
0.2384105960264902
 40
0.2450331125827816
 40
0.2450331125827816
 40
0.2450331125827816
 40
0.2450331125827816
 40
0.251655629139073
 40
0.251655629139073
 40
0.251655629139073
 40
0.251655629139073
 40
0.2582781456953644
 40
0.2582781456953644
 40
0.2582781456953644
 40
0.2582781456953644
 40
0.2649006622516558
 40
0.2649006622516558
 40
0.2649006622516558
 40
0.2649006622516558
 40
0.2715231788079471
 40
0.2715231788079471
 40
0.2715231788079471
 40
0.2715231788079471
 40
0.2781456953642385
 40
0.2781456953642385
 40
0.2781456953642385
 40
0.2781456953642385
 40
0.2847682119205299
 40
0.2847682119205299
 40
0.2847682119205299
 40
0.2847682119205299
 40
0.2913907284768212
 40
0.2913907284768212
 40
0.2913907284768212
 40
0.2913907284768212
 40
0.2980132450331126
 40
0.2980132450331126
 40
0.2980132450331126
 40
0.2980132450331126
 40
0.304635761589404
 40
0.304635761589404
 40
0.304635761589404
 40
0.304635761589404
 40
0.3112582781456953
 40
0.3112582781456953
 40
0.3112582781456953
 40
0.3112582781456953
 40
0.3178807947019867
 40
0.3178807947019867
 40
0.3178807947019867
 40
0.3178807947019867
 40
0.3245033112582781
 40
0.3245033112582781
 40
0.3245033112582781
 40
0.3245033112582781
 40
0.3311258278145695
 40
0.3311258278145695
 40
0.3311258278145695
 40
0.3311258278145695
 40
0.3377483443708608
 40
0.3377483443708608
 40
0.3377483443708608
 40
0.3377483443708608
 40
0.3443708609271522
 40
0.3443708609271522
 40
0.3443708609271522
 40
0.3443708609271522
 40
0.3509933774834436
 40
0.3509933774834436
 40
0.3509933774834436
 40
0.3509933774834436
 40
0.3576158940397349
 40
0.3576158940397349
 40
0.3576158940397349
 40
0.3576158940397349
 40
0.3642384105960263
 40
0.3642384105960263
 40
0.3642384105960263
 40
0.3642384105960263
 40
0.3708609271523177
 40
0.3708609271523177
 40
0.3708609271523177
 40
0.3708609271523177
 40
0.377483443708609
 40
0.377483443708609
 40
0.377483443708609
 40
0.377483443708609
 40
0.3841059602649004
 40
0.3841059602649004
 40
0.3841059602649004
 40
0.3841059602649004
 40
0.3907284768211918
 40
0.3907284768211918
 40
0.3907284768211918
 40
0.3907284768211918
 40
0.3973509933774831
 40
0.3973509933774831
 40
0.3973509933774831
 40
0.3973509933774831
 40
0.4039735099337745
 40
0.4039735099337745
 40
0.4039735099337745
 40
0.4039735099337745
 40
0.4105960264900659
 40
0.4105960264900659
 40
0.4105960264900659
 40
0.4105960264900659
 40
0.4172185430463572
 40
0.4172185430463572
 40
0.4172185430463572
 40
0.4172185430463572
 40
0.4238410596026486
 40
0.4238410596026486
 40
0.4238410596026486
 40
0.4238410596026486
 40
0.43046357615894
 40
0.43046357615894
 40
0.43046357615894
 40
0.43046357615894
 40
0.4370860927152314
 40
0.4370860927152314
 40
0.4370860927152314
 40
0.4370860927152314
 40
0.4437086092715227
 40
0.4437086092715227
 40
0.4437086092715227
 40
0.4437086092715227
 40
0.4503311258278141
 40
0.4503311258278141
 40
0.4503311258278141
 40
0.4503311258278141
 40
0.4569536423841055
 40
0.4569536423841055
 40
0.4569536423841055
 40
0.4569536423841055
 40
0.4635761589403968
 40
0.4635761589403968
 40
0.4635761589403968
 40
0.4635761589403968
 40
0.4701986754966882
 40
0.4701986754966882
 40
0.4701986754966882
 40
0.4701986754966882
 40
0.4768211920529796
 40
0.4768211920529796
 40
0.4768211920529796
 40
0.4768211920529796
 40
0.4834437086092709
 40
0.4834437086092709
 40
0.4834437086092709
 40
0.4834437086092709
 40
0.4900662251655623
 40
0.4900662251655623
 40
0.4900662251655623
 40
0.4900662251655623
 40
0.4966887417218537
 40
0.4966887417218537
 40
0.4966887417218537
 40
0.4966887417218537
 40
0.503311258278145
 40
0.503311258278145
 40
0.503311258278145
 40
0.503311258278145
 40
0.5099337748344365
 40
0.5099337748344365
 40
0.5099337748344365
 40
0.5099337748344365
 40
0.5165562913907279
 40
0.5165562913907279
 40
0.5165562913907279
 40
0.5165562913907279
 40
0.5231788079470193
 40
0.5231788079470193
 40
0.5231788079470193
 40
0.5231788079470193
 40
0.5298013245033107
 40
0.5298013245033107
 40
0.5298013245033107
 40
0.5298013245033107
 40
0.5364238410596022
 40
0.5364238410596022
 40
0.5364238410596022
 40
0.5364238410596022
 40
0.5430463576158936
 40
0.5430463576158936
 40
0.5430463576158936
 40
0.5430463576158936
 40
0.549668874172185
 40
0.549668874172185
 40
0.549668874172185
 40
0.549668874172185
 40
0.5562913907284764
 40
0.5562913907284764
 40
0.5562913907284764
 40
0.5562913907284764
 40
0.5629139072847679
 40
0.5629139072847679
 40
0.5629139072847679
 40
0.5629139072847679
 40
0.5695364238410593
 40
0.5695364238410593
 40
0.5695364238410593
 40
0.5695364238410593
 40
0.5761589403973507
 40
0.5761589403973507
 40
0.5761589403973507
 40
0.5761589403973507
 40
0.5827814569536421
 40
0.5827814569536421
 40
0.5827814569536421
 40
0.5827814569536421
 40
0.5894039735099336
 40
0.5894039735099336
 40
0.5894039735099336
 40
0.5894039735099336
 40
0.596026490066225
 40
0.596026490066225
 40
0.596026490066225
 40
0.596026490066225
 40
0.6026490066225164
 40
0.6026490066225164
 40
0.6026490066225164
 40
0.6026490066225164
 40
0.6092715231788078
 40
0.6092715231788078
 40
0.6092715231788078
 40
0.6092715231788078
 40
0.6158940397350993
 40
0.6158940397350993
 40
0.6158940397350993
 40
0.6158940397350993
 40
0.6225165562913907
 40
0.6225165562913907
 40
0.6225165562913907
 40
0.6225165562913907
 40
0.6291390728476821
 40
0.6291390728476821
 40
0.6291390728476821
 40
0.6291390728476821
 40
0.6357615894039735
 40
0.6357615894039735
 40
0.6357615894039735
 40
0.6357615894039735
 40
0.642384105960265
 40
0.642384105960265
 40
0.642384105960265
 40
0.642384105960265
 40
0.6490066225165564
 40
0.6490066225165564
 40
0.6490066225165564
 40
0.6490066225165564
 40
0.6556291390728478
 40
0.6556291390728478
 40
0.6556291390728478
 40
0.6556291390728478
 40
0.6622516556291392
 40
0.6622516556291392
 40
0.6622516556291392
 40
0.6622516556291392
 40
0.6688741721854307
 40
0.6688741721854307
 40
0.6688741721854307
 40
0.6688741721854307
 40
0.6754966887417221
 40
0.6754966887417221
 40
0.6754966887417221
 40
0.6754966887417221
 40
0.6821192052980135
 40
0.6821192052980135
 40
0.6821192052980135
 40
0.6821192052980135
 40
0.6887417218543049
 40
0.6887417218543049
 40
0.6887417218543049
 40
0.6887417218543049
 40
0.6953642384105964
 40
0.6953642384105964
 40
0.6953642384105964
 40
0.6953642384105964
 40
0.7019867549668878
 40
0.7019867549668878
 40
0.7019867549668878
 40
0.7019867549668878
 40
0.7086092715231792
 40
0.7086092715231792
 40
0.7086092715231792
 40
0.7086092715231792
 40
0.7152317880794706
 40
0.7152317880794706
 40
0.7152317880794706
 40
0.7152317880794706
 40
0.7218543046357621
 40
0.7218543046357621
 40
0.7218543046357621
 40
0.7218543046357621
 40
0.7284768211920535
 40
0.7284768211920535
 40
0.7284768211920535
 40
0.7284768211920535
 40
0.7350993377483449
 40
0.7350993377483449
 40
0.7350993377483449
 40
0.7350993377483449
 40
0.7417218543046363
 40
0.7417218543046363
 40
0.7417218543046363
 40
0.7417218543046363
 40
0.7483443708609278
 40
0.7483443708609278
 40
0.7483443708609278
 40
0.7483443708609278
 40
0.7549668874172192
 40
0.7549668874172192
 40
0.7549668874172192
 40
0.7549668874172192
 40
0.7615894039735106
 40
0.7615894039735106
 40
0.7615894039735106
 40
0.7615894039735106
 40
0.768211920529802
 40
0.768211920529802
 40
0.768211920529802
 40
0.768211920529802
 40
0.7748344370860935
 40
0.7748344370860935
 40
0.7748344370860935
 40
0.7748344370860935
 40
0.7814569536423849
 40
0.7814569536423849
 40
0.7814569536423849
 40
0.7814569536423849
 40
0.7880794701986763
 40
0.7880794701986763
 40
0.7880794701986763
 40
0.7880794701986763
 40
0.7947019867549677
 40
0.7947019867549677
 40
0.7947019867549677
 40
0.7947019867549677
 40
0.8013245033112592
 40
0.8013245033112592
 40
0.8013245033112592
 40
0.8013245033112592
 40
0.8079470198675506
 40
0.8079470198675506
 40
0.8079470198675506
 40
0.8079470198675506
 40
0.814569536423842
 40
0.814569536423842
 40
0.814569536423842
 40
0.814569536423842
 40
0.8211920529801334
 40
0.8211920529801334
 40
0.8211920529801334
 40
0.8211920529801334
 40
0.8278145695364248
 40
0.8278145695364248
 40
0.8278145695364248
 40
0.8278145695364248
 40
0.8344370860927163
 40
0.8344370860927163
 40
0.8344370860927163
 40
0.8344370860927163
 40
0.8410596026490077
 40
0.8410596026490077
 40
0.8410596026490077
 40
0.8410596026490077
 40
0.8476821192052991
 40
0.8476821192052991
 40
0.8476821192052991
 40
0.8476821192052991
 40
0.8543046357615905
 40
0.8543046357615905
 40
0.8543046357615905
 40
0.8543046357615905
 40
0.860927152317882
 40
0.860927152317882
 40
0.860927152317882
 40
0.860927152317882
 40
0.8675496688741734
 40
0.8675496688741734
 40
0.8675496688741734
 40
0.8675496688741734
 40
0.8741721854304648
 40
0.8741721854304648
 40
0.8741721854304648
 40
0.8741721854304648
 40
0.8807947019867562
 40
0.8807947019867562
 40
0.8807947019867562
 40
0.8807947019867562
 40
0.8874172185430477
 40
0.8874172185430477
 40
0.8874172185430477
 40
0.8874172185430477
 40
0.8940397350993391
 40
0.8940397350993391
 40
0.8940397350993391
 40
0.8940397350993391
 40
0.9006622516556305
 40
0.9006622516556305
 40
0.9006622516556305
 40
0.9006622516556305
 40
0.9072847682119219
 40
0.9072847682119219
 40
0.9072847682119219
 40
0.9072847682119219
 40
0.9139072847682134
 40
0.9139072847682134
 40
0.9139072847682134
 40
0.9139072847682134
 40
0.9205298013245048
 40
0.9205298013245048
 40
0.9205298013245048
 40
0.9205298013245048
 40
0.9271523178807962
 40
0.9271523178807962
 40
0.9271523178807962
 40
0.9271523178807962
 40
0.9337748344370876
 40
0.9337748344370876
 40
0.9337748344370876
 40
0.9337748344370876
 40
0.9403973509933791
 40
0.9403973509933791
 40
0.9403973509933791
 40
0.9403973509933791
 40
0.9470198675496705
 40
0.9470198675496705
 40
0.9470198675496705
 40
0.9470198675496705
 40
0.9536423841059619
 40
0.9536423841059619
 40
0.9536423841059619
 40
0.9536423841059619
 40
0.9602649006622533
 40
0.9602649006622533
 40
0.9602649006622533
 40
0.9602649006622533
 40
0.9668874172185448
 40
0.9668874172185448
 40
0.9668874172185448
 40
0.9668874172185448
 40
0.9735099337748362
 40
0.9735099337748362
 40
0.9735099337748362
 40
0.9735099337748362
 40
0.9801324503311276
 40
0.9801324503311276
 40
0.9801324503311276
 40
0.9801324503311276
 40
0.986754966887419
 40
0.986754966887419
 40
0.986754966887419
 40
0.986754966887419
 40
0.9933774834437105
 40
0.9933774834437105
 40
0.9933774834437105
 40
0.9933774834437105
 40
1.0
 40
1.0
 40
1.0
 40
1.0
 10
-26.1391
 20
5.0552
 30
0.0
 10
-32.547
 20
12.5913
 30
0.0
 10
-43.0223
 20
17.7459
 30
0.0
 10
-52.8918
 20
14.478
 30
0.0
 10
-52.8918
 20
14.478
 30
0.0
 10
-60.7245
 20
11.8845
 30
0.0
 10
-65.3417
 20
6.8536
 30
0.0
 10
-67.1618
 20
0.0255
 30
0.0
 10
-67.1618
 20
0.0255
 30
0.0
 10
-69.3466
 20
-8.1708
 30
0.0
 10
-67.4822
 20
-19.3903
 30
0.0
 10
-58.5429
 20
-21.0489
 30
0.0
 10
-58.5429
 20
-21.0489
 30
0.0
 10
-60.3996
 20
-23.7556
 30
0.0
 10
-64.9123
 20
-24.1748
 30
0.0
 10
-66.6457
 20
-22.6275
 30
0.0
 10
-66.6457
 20
-22.6275
 30
0.0
 10
-66.0333
 20
-25.277
 30
0.0
 10
-63.8197
 20
-27.8616
 30
0.0
 10
-61.0811
 20
-30.0553
 30
0.0
 10
-61.0811
 20
-30.0553
 30
0.0
 10
-65.6933
 20
-27.63
 30
0.0
 10
-68.6602
 20
-22.1384
 30
0.0
 10
-68.2414
 20
-16.9361
 30
0.0
 10
-68.2414
 20
-16.9361
 30
0.0
 10
-67.3808
 20
-18.9084
 30
0.0
 10
-65.2754
 20
-19.9911
 30
0.0
 10
-62.4285
 20
-20.5669
 30
0.0
 10
-62.4285
 20
-20.5669
 30
0.0
 10
-66.617
 20
-18.2676
 30
0.0
 10
-68.6429
 20
-13.3254
 30
0.0
 10
-69.3422
 20
-8.0845
 30
0.0
 10
-69.3422
 20
-8.0845
 30
0.0
 10
-70.0868
 20
-16.1676
 30
0.0
 10
-68.4939
 20
-24.8818
 30
0.0
 10
-65.9905
 20
-31.7873
 30
0.0
 10
-65.9905
 20
-31.7873
 30
0.0
 10
-64.707
 20
-35.3277
 30
0.0
 10
-62.6229
 20
-38.4262
 30
0.0
 10
-60.6213
 20
-41.4865
 30
0.0
 10
-60.6213
 20
-41.4865
 30
0.0
 10
-55.2373
 20
-50.2837
 30
0.0
 10
-44.1516
 20
-53.8526
 30
0.0
 10
-35.9234
 20
-52.7203
 30
0.0
 10
-35.9234
 20
-52.7203
 30
0.0
 10
-41.8765
 20
-52.0546
 30
0.0
 10
-47.0886
 20
-50.6896
 30
0.0
 10
-50.8788
 20
-47.9382
 30
0.0
 10
-50.8788
 20
-47.9382
 30
0.0
 10
-42.5231
 20
-50.8301
 30
0.0
 10
-35.708
 20
-51.3748
 30
0.0
 10
-27.7883
 20
-49.2614
 30
0.0
 10
-27.7883
 20
-49.2614
 30
0.0
 10
-35.4611
 20
-50.0503
 30
0.0
 10
-47.9468
 20
-48.8324
 30
0.0
 10
-54.6459
 20
-44.2577
 30
0.0
 10
-54.6459
 20
-44.2577
 30
0.0
 10
-45.5297
 20
-45.9607
 30
0.0
 10
-38.7128
 20
-44.6029
 30
0.0
 10
-34.8386
 20
-39.9676
 30
0.0
 10
-34.8386
 20
-39.9676
 30
0.0
 10
-44.0867
 20
-48.8554
 30
0.0
 10
-63.444
 20
-42.668
 30
0.0
 10
-64.7702
 20
-31.2968
 30
0.0
 10
-64.7702
 20
-31.2968
 30
0.0
 10
-54.423
 20
-36.233
 30
0.0
 10
-47.7491
 20
-33.249
 30
0.0
 10
-50.0312
 20
-21.8465
 30
0.0
 10
-50.0312
 20
-21.8465
 30
0.0
 10
-44.9033
 20
-24.6952
 30
0.0
 10
-41.0008
 20
-39.2726
 30
0.0
 10
-50.9221
 20
-39.971
 30
0.0
 10
-50.9221
 20
-39.971
 30
0.0
 10
-47.8072
 20
-38.6992
 30
0.0
 10
-46.1679
 20
-36.3128
 30
0.0
 10
-46.3979
 20
-32.5145
 30
0.0
 10
-46.3979
 20
-32.5145
 30
0.0
 10
-47.5855
 20
-37.1444
 30
0.0
 10
-52.4695
 20
-40.0933
 30
0.0
 10
-57.2351
 20
-38.7401
 30
0.0
 10
-57.2351
 20
-38.7401
 30
0.0
 10
-49.4871
 20
-43.1023
 30
0.0
 10
-38.7445
 20
-43.3369
 30
0.0
 10
-33.1258
 20
-37.3297
 30
0.0
 10
-33.1258
 20
-37.3297
 30
0.0
 10
-33.0347
 20
-44.4331
 30
0.0
 10
-37.2671
 20
-47.3457
 30
0.0
 10
-42.3285
 20
-47.7047
 30
0.0
 10
-42.3285
 20
-47.7047
 30
0.0
 10
-39.2828
 20
-48.6588
 30
0.0
 10
-28.4578
 20
-49.1918
 30
0.0
 10
-24.3359
 20
-48.198
 30
0.0
 10
-24.3359
 20
-48.198
 30
0.0
 10
-28.1806
 20
-54.9253
 30
0.0
 10
-33.935
 20
-56.7845
 30
0.0
 10
-41.4194
 20
-55.9458
 30
0.0
 10
-41.4194
 20
-55.9458
 30
0.0
 10
-35.1349
 20
-58.6124
 30
0.0
 10
-28.1763
 20
-60.3534
 30
0.0
 10
-19.9193
 20
-59.5426
 30
0.0
 10
-19.9193
 20
-59.5426
 30
0.0
 10
-25.8488
 20
-62.0635
 30
0.0
 10
-34.2674
 20
-60.8358
 30
0.0
 10
-40.1513
 20
-57.9137
 30
0.0
 10
-40.1513
 20
-57.9137
 30
0.0
 10
-30.4383
 20
-63.6578
 30
0.0
 10
-17.9885
 20
-71.9566
 30
0.0
 10
-20.5532
 20
-84.7907
 30
0.0
 10
-20.5532
 20
-84.7907
 30
0.0
 10
-21.6773
 20
-90.4156
 30
0.0
 10
-24.1999
 20
-95.3416
 30
0.0
 10
-25.7215
 20
-100.7642
 30
0.0
 10
-25.7215
 20
-100.7642
 30
0.0
 10
-26.5264
 20
-103.6326
 30
0.0
 10
-26.0847
 20
-107.4426
 30
0.0
 10
-24.8015
 20
-109.6294
 30
0.0
 10
-24.8015
 20
-109.6294
 30
0.0
 10
-26.0027
 20
-99.943
 30
0.0
 10
-20.3462
 20
-94.1897
 30
0.0
 10
-19.166
 20
-86.0045
 30
0.0
 10
-19.166
 20
-86.0045
 30
0.0
 10
-14.9089
 20
-99.4044
 30
0.0
 10
-24.866
 20
-106.7814
 30
0.0
 10
-21.3335
 20
-117.3899
 30
0.0
 10
-21.3335
 20
-117.3899
 30
0.0
 10
-27.7478
 20
-114.7117
 30
0.0
 10
-30.3113
 20
-109.9295
 30
0.0
 10
-29.5
 20
-103.2134
 30
0.0
 10
-29.5
 20
-103.2134
 30
0.0
 10
-32.9683
 20
-106.6268
 30
0.0
 10
-33.625
 20
-112.4387
 30
0.0
 10
-33.4722
 20
-117.6512
 30
0.0
 10
-33.4722
 20
-117.6512
 30
0.0
 10
-35.8777
 20
-111.2759
 30
0.0
 10
-35.5961
 20
-104.9488
 30
0.0
 10
-30.8756
 20
-100.47
 30
0.0
 10
-30.8756
 20
-100.47
 30
0.0
 10
-35.0617
 20
-102.723
 30
0.0
 10
-40.2617
 20
-103.9511
 30
0.0
 10
-44.124
 20
-100.6776
 30
0.0
 10
-44.124
 20
-100.6776
 30
0.0
 10
-39.6905
 20
-101.8571
 30
0.0
 10
-35.309
 20
-101.2164
 30
0.0
 10
-31.7897
 20
-98.9125
 30
0.0
 10
-31.7897
 20
-98.9125
 30
0.0
 10
-36.0912
 20
-100.0553
 30
0.0
 10
-41.0577
 20
-99.7704
 30
0.0
 10
-44.1356
 20
-96.5819
 30
0.0
 10
-44.1356
 20
-96.5819
 30
0.0
 10
-48.0706
 20
-92.5057
 30
0.0
 10
-48.2624
 20
-87.5974
 30
0.0
 10
-50.599
 20
-82.8856
 30
0.0
 10
-50.599
 20
-82.8856
 30
0.0
 10
-51.354
 20
-81.3636
 30
0.0
 10
-52.3885
 20
-80.0747
 30
0.0
 10
-53.2532
 20
-79.2142
 30
0.0
 10
-53.2532
 20
-79.2142
 30
0.0
 10
-52.7629
 20
-80.0416
 30
0.0
 10
-52.4811
 20
-81.0069
 30
0.0
 10
-52.4811
 20
-82.0382
 30
0.0
 10
-52.4811
 20
-82.0382
 30
0.0
 10
-52.4811
 20
-85.1022
 30
0.0
 10
-54.9659
 20
-87.587
 30
0.0
 10
-58.0299
 20
-87.587
 30
0.0
 10
-58.0299
 20
-87.587
 30
0.0
 10
-61.0939
 20
-87.587
 30
0.0
 10
-63.5787
 20
-85.1022
 30
0.0
 10
-63.5787
 20
-82.0382
 30
0.0
 10
-63.5787
 20
-82.0382
 30
0.0
 10
-63.5787
 20
-78.9742
 30
0.0
 10
-61.0939
 20
-76.4894
 30
0.0
 10
-58.0299
 20
-76.4894
 30
0.0
 10
-58.0299
 20
-76.4894
 30
0.0
 10
-57.1747
 20
-76.4894
 30
0.0
 10
-56.3646
 20
-76.6831
 30
0.0
 10
-55.6411
 20
-77.0289
 30
0.0
 10
-55.6411
 20
-77.0289
 30
0.0
 10
-53.4096
 20
-77.9606
 30
0.0
 10
-51.7496
 20
-79.8108
 30
0.0
 10
-50.3915
 20
-81.7874
 30
0.0
 10
-50.3915
 20
-81.7874
 30
0.0
 10
-50.7214
 20
-79.3636
 30
0.0
 10
-50.8708
 20
-76.9381
 30
0.0
 10
-50.9666
 20
-74.6318
 30
0.0
 10
-50.9666
 20
-74.6318
 30
0.0
 10
-51.3432
 20
-74.7125
 30
0.0
 10
-51.7337
 20
-74.7554
 30
0.0
 10
-52.1343
 20
-74.7554
 30
0.0
 10
-52.1343
 20
-74.7554
 30
0.0
 10
-55.1983
 20
-74.7554
 30
0.0
 10
-57.6831
 20
-72.2706
 30
0.0
 10
-57.6831
 20
-69.2066
 30
0.0
 10
-57.6831
 20
-69.2066
 30
0.0
 10
-57.6831
 20
-66.1426
 30
0.0
 10
-55.1983
 20
-63.6578
 30
0.0
 10
-52.1343
 20
-63.6578
 30
0.0
 10
-52.1343
 20
-63.6578
 30
0.0
 10
-49.0703
 20
-63.6578
 30
0.0
 10
-46.5855
 20
-66.1426
 30
0.0
 10
-46.5855
 20
-69.2066
 30
0.0
 10
-46.5855
 20
-69.2066
 30
0.0
 10
-46.5855
 20
-71.6194
 30
0.0
 10
-48.1264
 20
-73.6728
 30
0.0
 10
-50.2775
 20
-74.4366
 30
0.0
 10
-50.2775
 20
-74.4366
 30
0.0
 10
-50.2691
 20
-74.8405
 30
0.0
 10
-50.2524
 20
-75.2557
 30
0.0
 10
-50.2272
 20
-75.6802
 30
0.0
 10
-50.2272
 20
-75.6802
 30
0.0
 10
-50.0281
 20
-77.2317
 30
0.0
 10
-49.524
 20
-80.6613
 30
0.0
 10
-48.5351
 20
-81.8222
 30
0.0
 10
-48.5351
 20
-81.8222
 30
0.0
 10
-48.5655
 20
-79.4141
 30
0.0
 10
-47.7756
 20
-77.774
 30
0.0
 10
-46.7045
 20
-76.1261
 30
0.0
 10
-46.7045
 20
-76.1261
 30
0.0
 10
-46.0248
 20
-73.8301
 30
0.0
 10
-43.8996
 20
-72.1544
 30
0.0
 10
-41.3835
 20
-72.1544
 30
0.0
 10
-41.3835
 20
-72.1544
 30
0.0
 10
-38.3195
 20
-72.1544
 30
0.0
 10
-35.8347
 20
-74.6392
 30
0.0
 10
-35.8347
 20
-77.7032
 30
0.0
 10
-35.8347
 20
-77.7032
 30
0.0
 10
-35.8347
 20
-80.7672
 30
0.0
 10
-38.3195
 20
-83.252
 30
0.0
 10
-41.3835
 20
-83.252
 30
0.0
 10
-41.3835
 20
-83.252
 30
0.0
 10
-44.4359
 20
-83.252
 30
0.0
 10
-46.9131
 20
-80.786
 30
0.0
 10
-46.9319
 20
-77.738
 30
0.0
 10
-46.9319
 20
-77.738
 30
0.0
 10
-47.6694
 20
-78.951
 30
0.0
 10
-47.9479
 20
-80.6921
 30
0.0
 10
-47.8883
 20
-82.6017
 30
0.0
 10
-47.8883
 20
-82.6017
 30
0.0
 10
-47.5403
 20
-93.8175
 30
0.0
 10
-38.7524
 20
-101.0409
 30
0.0
 10
-28.5899
 20
-93.7393
 30
0.0
 10
-28.5899
 20
-93.7393
 30
0.0
 10
-23.5656
 20
-89.9188
 30
0.0
 10
-21.9948
 20
-81.5246
 30
0.0
 10
-24.368
 20
-75.8606
 30
0.0
 10
-24.368
 20
-75.8606
 30
0.0
 10
-25.1092
 20
-74.0917
 30
0.0
 10
-26.2469
 20
-72.6344
 30
0.0
 10
-27.648
 20
-71.4
 30
0.0
 10
-27.648
 20
-71.4
 30
0.0
 10
-26.0075
 20
-76.9991
 30
0.0
 10
-27.5888
 20
-82.9971
 30
0.0
 10
-32.7779
 20
-86.6114
 30
0.0
 10
-32.7779
 20
-86.6114
 30
0.0
 10
-29.3087
 20
-85.8019
 30
0.0
 10
-26.8047
 20
-83.0123
 30
0.0
 10
-25.5818
 20
-77.5946
 30
0.0
 10
-25.5818
 20
-77.5946
 30
0.0
 10
-23.2098
 20
-90.1285
 30
0.0
 10
-39.5298
 20
-95.3305
 30
0.0
 10
-43.5069
 20
-85.3212
 30
0.0
 10
-43.5069
 20
-85.3212
 30
0.0
 10
-32.8256
 20
-88.2624
 30
0.0
 10
-26.826
 20
-77.3408
 30
0.0
 10
-32.6045
 20
-68.231
 30
0.0
 10
-32.6045
 20
-68.231
 30
0.0
 10
-35.4223
 20
-63.7887
 30
0.0
 10
-41.0458
 20
-60.2127
 30
0.0
 10
-46.0
 20
-57.4742
 30
0.0
 10
-46.0
 20
-57.4742
 30
0.0
 10
-43.9184
 20
-61.1221
 30
0.0
 10
-42.9964
 20
-65.3106
 30
0.0
 10
-44.2618
 20
-69.9644
 30
0.0
 10
-44.2618
 20
-69.9644
 30
0.0
 10
-44.2977
 20
-65.8216
 30
0.0
 10
-45.282
 20
-62.2737
 30
0.0
 10
-46.883
 20
-59.113
 30
0.0
 10
-46.883
 20
-59.113
 30
0.0
 10
-50.0262
 20
-53.8505
 30
0.0
 10
-55.4991
 20
-52.2117
 30
0.0
 10
-58.9515
 20
-48.0975
 30
0.0
 10
-58.9515
 20
-48.0975
 30
0.0
 10
-56.6637
 20
-55.8897
 30
0.0
 10
-59.1817
 20
-65.6571
 30
0.0
 10
-68.0648
 20
-67.6241
 30
0.0
 10
-68.0648
 20
-67.6241
 30
0.0
 10
-64.5257
 20
-60.9939
 30
0.0
 10
-65.9001
 20
-53.6803
 30
0.0
 10
-67.844
 20
-46.8805
 30
0.0
 10
-67.844
 20
-46.8805
 30
0.0
 10
-68.2271
 20
-50.0117
 30
0.0
 10
-69.0532
 20
-53.0313
 30
0.0
 10
-71.7929
 20
-56.0063
 30
0.0
 10
-71.7929
 20
-56.0063
 30
0.0
 10
-69.0268
 20
-49.047
 30
0.0
 10
-69.1409
 20
-44.9217
 30
0.0
 10
-69.8121
 20
-41.2356
 30
0.0
 10
-69.8121
 20
-41.2356
 30
0.0
 10
-70.1562
 20
-44.5713
 30
0.0
 10
-71.8003
 20
-47.2323
 30
0.0
 10
-76.2316
 20
-47.4182
 30
0.0
 10
-76.2316
 20
-47.4182
 30
0.0
 10
-70.8541
 20
-40.1821
 30
0.0
 10
-77.2469
 20
-28.214
 30
0.0
 10
-73.6136
 20
-18.8987
 30
0.0
 10
-73.6136
 20
-18.8987
 30
0.0
 10
-74.369
 20
-26.5409
 30
0.0
 10
-71.474
 20
-35.5672
 30
0.0
 10
-72.4793
 20
-42.9362
 30
0.0
 10
-72.4793
 20
-42.9362
 30
0.0
 10
-70.977
 20
-39.823
 30
0.0
 10
-72.0328
 20
-36.349
 30
0.0
 10
-71.2727
 20
-30.3431
 30
0.0
 10
-71.2727
 20
-30.3431
 30
0.0
 10
-67.9519
 20
-40.2542
 30
0.0
 10
-61.9236
 20
-49.8396
 30
0.0
 10
-64.0055
 20
-60.18
 30
0.0
 10
-64.0055
 20
-60.18
 30
0.0
 10
-61.1243
 20
-51.0922
 30
0.0
 10
-65.0888
 20
-41.8995
 30
0.0
 10
-68.4983
 20
-32.5973
 30
0.0
 10
-68.4983
 20
-32.5973
 30
0.0
 10
-72.7416
 20
-21.0206
 30
0.0
 10
-74.6857
 20
-8.9085
 30
0.0
 10
-69.5387
 20
2.5162
 30
0.0
 10
-69.5387
 20
2.5162
 30
0.0
 10
-66.3203
 20
9.6601
 30
0.0
 10
-61.0123
 20
14.3058
 30
0.0
 10
-54.9624
 20
16.4494
 30
0.0
 10
-54.9624
 20
16.4494
 30
0.0
 10
-61.3553
 20
16.7036
 30
0.0
 10
-68.6568
 20
16.4648
 30
0.0
 10
-71.4903
 20
21.3925
 30
0.0
 10
-71.4903
 20
21.3925
 30
0.0
 10
-70.4846
 20
17.738
 30
0.0
 10
-67.0016
 20
15.2674
 30
0.0
 10
-61.6397
 20
14.6905
 30
0.0
 10
-61.6397
 20
14.6905
 30
0.0
 10
-64.5343
 20
13.4121
 30
0.0
 10
-71.2565
 20
13.6059
 30
0.0
 10
-74.3745
 20
14.6489
 30
0.0
 10
-74.3745
 20
14.6489
 30
0.0
 10
-71.8439
 20
12.7952
 30
0.0
 10
-68.7016
 20
12.0956
 30
0.0
 10
-64.8569
 20
12.4
 30
0.0
 10
-64.8569
 20
12.4
 30
0.0
 10
-77.1569
 20
6.3723
 30
0.0
 10
-76.7079
 20
1.0578
 30
0.0
 10
-77.8512
 20
-3.3751
 30
0.0
 10
-77.8512
 20
-3.3751
 30
0.0
 10
-75.1845
 20
-0.5668
 30
0.0
 10
-75.9406
 20
5.6753
 30
0.0
 10
-68.1515
 20
8.3251
 30
0.0
 10
-68.1515
 20
8.3251
 30
0.0
 10
-73.6057
 20
1.0146
 30
0.0
 10
-71.8731
 20
-11.0916
 30
0.0
 10
-77.6885
 20
-16.3844
 30
0.0
 10
-77.6885
 20
-16.3844
 30
0.0
 10
-76.1043
 20
-13.2982
 30
0.0
 10
-76.2339
 20
-9.2733
 30
0.0
 10
-76.1622
 20
-5.4393
 30
0.0
 10
-76.1622
 20
-5.4393
 30
0.0
 10
-77.5799
 20
-6.7667
 30
0.0
 10
-79.1868
 20
-7.7274
 30
0.0
 10
-80.9831
 20
-8.3213
 30
0.0
 10
-80.9831
 20
-8.3213
 30
0.0
 10
-78.1406
 20
-1.907
 30
0.0
 10
-83.9948
 20
2.7538
 30
0.0
 10
-73.284
 20
9.3795
 30
0.0
 10
-73.284
 20
9.3795
 30
0.0
 10
-75.65
 20
9.3319
 30
0.0
 10
-77.9715
 20
8.8015
 30
0.0
 10
-80.3228
 20
7.9188
 30
0.0
 10
-80.3228
 20
7.9188
 30
0.0
 10
-78.754
 20
9.3534
 30
0.0
 10
-76.485
 20
10.4358
 30
0.0
 10
-73.9844
 20
11.0203
 30
0.0
 10
-73.9844
 20
11.0203
 30
0.0
 10
-77.2546
 20
11.8552
 30
0.0
 10
-79.1128
 20
14.7339
 30
0.0
 10
-78.6203
 20
19.8885
 30
0.0
 10
-78.6203
 20
19.8885
 30
0.0
 10
-77.1816
 20
17.8304
 30
0.0
 10
-74.8949
 20
16.5901
 30
0.0
 10
-71.9735
 20
15.9133
 30
0.0
 10
-71.9735
 20
15.9133
 30
0.0
 10
-75.7875
 20
19.1249
 30
0.0
 10
-76.2355
 20
25.2435
 30
0.0
 10
-70.2323
 20
29.6533
 30
0.0
 10
-70.2323
 20
29.6533
 30
0.0
 10
-75.5002
 20
13.0147
 30
0.0
 10
-46.6357
 20
21.306
 30
0.0
 10
-36.3132
 20
15.5405
 30
0.0
 10
-36.3132
 20
15.5405
 30
0.0
 10
-41.1413
 20
19.7237
 30
0.0
 10
-48.1535
 20
22.4243
 30
0.0
 10
-55.4933
 20
23.4109
 30
0.0
 10
-55.4933
 20
23.4109
 30
0.0
 10
-50.2863
 20
24.0765
 30
0.0
 10
-44.3531
 20
22.3884
 30
0.0
 10
-35.5843
 20
17.3948
 30
0.0
 10
-35.5843
 20
17.3948
 30
0.0
 10
-39.9354
 20
21.8532
 30
0.0
 10
-44.6512
 20
25.8256
 30
0.0
 10
-49.8316
 20
28.6798
 30
0.0
 10
-49.8316
 20
28.6798
 30
0.0
 10
-53.8994
 20
30.921
 30
0.0
 10
-57.9856
 20
31.5977
 30
0.0
 10
-61.484
 20
31.2195
 30
0.0
 10
-61.484
 20
31.2195
 30
0.0
 10
-59.2544
 20
30.4996
 30
0.0
 10
-57.6411
 20
28.4072
 30
0.0
 10
-57.6411
 20
25.9384
 30
0.0
 10
-57.6411
 20
25.9384
 30
0.0
 10
-57.6411
 20
22.8744
 30
0.0
 10
-60.1259
 20
20.3896
 30
0.0
 10
-63.1899
 20
20.3896
 30
0.0
 10
-63.1899
 20
20.3896
 30
0.0
 10
-66.2539
 20
20.3896
 30
0.0
 10
-68.7387
 20
22.8744
 30
0.0
 10
-68.7387
 20
25.9384
 30
0.0
 10
-68.7387
 20
25.9384
 30
0.0
 10
-68.7387
 20
28.813
 30
0.0
 10
-66.5516
 20
31.1776
 30
0.0
 10
-63.751
 20
31.459
 30
0.0
 10
-63.751
 20
31.459
 30
0.0
 10
-61.9689
 20
32.3417
 30
0.0
 10
-59.7614
 20
32.6691
 30
0.0
 10
-57.0993
 20
32.4589
 30
0.0
 10
-57.0993
 20
32.4589
 30
0.0
 10
-59.9147
 20
33.6747
 30
0.0
 10
-62.7926
 20
34.6318
 30
0.0
 10
-65.7162
 20
35.2884
 30
0.0
 10
-65.7162
 20
35.2884
 30
0.0
 10
-66.5638
 20
33.3084
 30
0.0
 10
-68.5298
 20
31.9207
 30
0.0
 10
-70.8195
 20
31.9207
 30
0.0
 10
-70.8195
 20
31.9207
 30
0.0
 10
-73.8835
 20
31.9207
 30
0.0
 10
-76.3683
 20
34.4055
 30
0.0
 10
-76.3683
 20
37.4695
 30
0.0
 10
-76.3683
 20
37.4695
 30
0.0
 10
-76.3683
 20
40.5335
 30
0.0
 10
-73.8835
 20
43.0183
 30
0.0
 10
-70.8195
 20
43.0183
 30
0.0
 10
-70.8195
 20
43.0183
 30
0.0
 10
-67.7555
 20
43.0183
 30
0.0
 10
-65.2707
 20
40.5335
 30
0.0
 10
-65.2707
 20
37.4695
 30
0.0
 10
-65.2707
 20
37.4695
 30
0.0
 10
-65.2707
 20
36.9162
 30
0.0
 10
-65.352
 20
36.3818
 30
0.0
 10
-65.5029
 20
35.8776
 30
0.0
 10
-65.5029
 20
35.8776
 30
0.0
 10
-63.0433
 20
35.6733
 30
0.0
 10
-60.6082
 20
35.1913
 30
0.0
 10
-58.2128
 20
34.4795
 30
0.0
 10
-58.2128
 20
34.4795
 30
0.0
 10
-59.378
 20
35.4415
 30
0.0
 10
-60.2252
 20
36.4319
 30
0.0
 10
-60.8389
 20
37.4432
 30
0.0
 10
-60.8389
 20
37.4432
 30
0.0
 10
-62.261
 20
38.448
 30
0.0
 10
-63.1899
 20
40.1046
 30
0.0
 10
-63.1899
 20
41.9779
 30
0.0
 10
-63.1899
 20
41.9779
 30
0.0
 10
-63.1899
 20
45.0419
 30
0.0
 10
-60.7051
 20
47.5267
 30
0.0
 10
-57.6411
 20
47.5267
 30
0.0
 10
-57.6411
 20
47.5267
 30
0.0
 10
-54.5771
 20
47.5267
 30
0.0
 10
-52.0923
 20
45.0419
 30
0.0
 10
-52.0923
 20
41.9779
 30
0.0
 10
-52.0923
 20
41.9779
 30
0.0
 10
-52.0923
 20
38.9139
 30
0.0
 10
-54.5771
 20
36.4291
 30
0.0
 10
-57.6411
 20
36.4291
 30
0.0
 10
-57.6411
 20
36.4291
 30
0.0
 10
-58.0392
 20
36.4291
 30
0.0
 10
-58.4274
 20
36.4714
 30
0.0
 10
-58.8017
 20
36.5511
 30
0.0
 10
-58.8017
 20
36.5511
 30
0.0
 10
-57.5359
 20
35.3773
 30
0.0
 10
-56.1178
 20
33.9109
 30
0.0
 10
-54.1141
 20
33.0288
 30
0.0
 10
-54.1141
 20
33.0288
 30
0.0
 10
-51.4105
 20
31.8386
 30
0.0
 10
-48.7601
 20
30.4019
 30
0.0
 10
-46.1924
 20
28.7804
 30
0.0
 10
-46.1924
 20
28.7804
 30
0.0
 10
-49.9582
 20
34.1299
 30
0.0
 10
-49.8528
 20
38.2476
 30
0.0
 10
-47.9504
 20
42.8317
 30
0.0
 10
-47.9504
 20
42.8317
 30
0.0
 10
-44.9213
 20
34.5189
 30
0.0
 10
-35.9604
 20
34.3408
 30
0.0
 10
-36.092
 20
22.099
 30
0.0
 10
-36.092
 20
22.099
 30
0.0
 10
-37.7597
 20
24.4062
 30
0.0
 10
-45.0856
 20
28.9549
 30
0.0
 10
-47.3284
 20
36.9359
 30
0.0
 10
-47.3284
 20
36.9359
 30
0.0
 10
-48.1426
 20
32.1611
 30
0.0
 10
-43.851
 20
27.4763
 30
0.0
 10
-40.6825
 20
25.0546
 30
0.0
 10
-40.6825
 20
25.0546
 30
0.0
 10
-37.514
 20
22.6329
 30
0.0
 10
-28.7631
 20
14.3333
 30
0.0
 10
-24.368
 20
8.6719
 30
0.0
 10
-24.368
 20
8.6719
 30
0.0
 10
-18.7881
 20
1.4841
 30
0.0
 10
-14.0041
 20
-6.3278
 30
0.0
 10
-10.7097
 20
-14.7933
 30
0.0
 10
-10.7097
 20
-14.7933
 30
0.0
 10
-12.0272
 20
-8.7849
 30
0.0
 10
-12.5651
 20
-2.4315
 30
0.0
 10
-7.7849
 20
1.9947
 30
0.0
 10
-7.7849
 20
1.9947
 30
0.0
 10
-8.3051
 20
-7.629
 30
0.0
 10
5.2679
 20
-18.1728
 30
0.0
 10
-5.1852
 20
-28.7199
 30
0.0
 10
-5.1852
 20
-28.7199
 30
0.0
 10
-2.5448
 20
-18.6934
 30
0.0
 10
-7.6019
 20
-11.148
 30
0.0
 10
-9.2131
 20
-5.3528
 30
0.0
 10
-9.2131
 20
-5.3528
 30
0.0
 10
-9.8371
 20
-13.2895
 30
0.0
 10
-6.8978
 20
-20.2056
 30
0.0
 10
-6.8456
 20
-28.7151
 30
0.0
 10
-6.8456
 20
-28.7151
 30
0.0
 10
-6.8456
 20
-28.7151
 30
0.0
 10
-9.618
 20
-28.7154
 30
0.0
 10
-9.618
 20
-28.7154
 30
0.0
 10
-9.618
 20
-28.7154
 30
0.0
 10
-10.4381
 20
-22.2515
 30
0.0
 10
-12.3619
 20
-17.6483
 30
0.0
 10
-15.2395
 20
-12.2006
 30
0.0
 10
-15.2395
 20
-12.2006
 30
0.0
 10
-22.6907
 20
1.9056
 30
0.0
 10
-34.8102
 20
13.6038
 30
0.0
 10
-49.6433
 20
8.9955
 30
0.0
 10
-49.6433
 20
8.9955
 30
0.0
 10
-42.065
 20
10.3694
 30
0.0
 10
-33.595
 20
7.7533
 30
0.0
 10
-28.0094
 20
0.9556
 30
0.0
 10
-28.0094
 20
0.9556
 30
0.0
 10
-36.2554
 20
7.1812
 30
0.0
 10
-52.3383
 20
9.9545
 30
0.0
 10
-59.5902
 20
1.5138
 30
0.0
 10
-59.5902
 20
1.5138
 30
0.0
 10
-48.9905
 20
8.2138
 30
0.0
 10
-29.3397
 20
3.8371
 30
0.0
 10
-22.9808
 20
-4.8533
 30
0.0
 10
-22.9808
 20
-4.8533
 30
0.0
 10
-30.7758
 20
0.0235
 30
0.0
 10
-45.493
 20
-1.0259
 30
0.0
 10
-49.1085
 20
-7.8472
 30
0.0
 10
-49.1085
 20
-7.8472
 30
0.0
 10
-36.7914
 20
3.8073
 30
0.0
 10
-10.8968
 20
-9.7423
 30
0.0
 10
-10.7933
 20
-28.7146
 30
0.0
 10
-10.7933
 20
-28.7146
 30
0.0
 10
-10.7933
 20
-28.7146
 30
0.0
 10
-27.0542
 20
-28.7142
 30
0.0
 10
-27.0542
 20
-28.7142
 30
0.0
 10
-27.0542
 20
-28.7142
 30
0.0
 10
-25.991
 20
-22.0474
 30
0.0
 10
-17.8758
 20
-20.0494
 30
0.0
 10
-13.4725
 20
-23.7569
 30
0.0
 10
-13.4725
 20
-23.7569
 30
0.0
 10
-19.691
 20
-16.1365
 30
0.0
 10
-31.5735
 20
-18.2225
 30
0.0
 10
-32.9526
 20
-28.7141
 30
0.0
 10
-32.9526
 20
-28.7141
 30
0.0
 10
-42.6127
 20
-19.668
 30
0.0
 10
-32.9279
 20
-8.0311
 30
0.0
 10
-21.4202
 20
-15.1706
 30
0.0
 10
-21.4202
 20
-15.1706
 30
0.0
 10
-29.9734
 20
-13.2936
 30
0.0
 10
-35.6128
 20
-16.5221
 30
0.0
 10
-34.2158
 20
-22.9611
 30
0.0
 10
-34.2158
 20
-22.9611
 30
0.0
 10
-33.1106
 20
-16.1738
 30
0.0
 10
-21.6371
 20
-14.5226
 30
0.0
 10
-15.1689
 20
-19.5158
 30
0.0
 10
-15.1689
 20
-19.5158
 30
0.0
 10
-22.5755
 20
-6.7423
 30
0.0
 10
-47.284
 20
-5.3708
 30
0.0
 10
-54.713
 20
-18.7253
 30
0.0
 10
-54.713
 20
-18.7253
 30
0.0
 10
-59.1989
 20
-8.0689
 30
0.0
 10
-51.0797
 20
-0.527
 30
0.0
 10
-41.5512
 20
1.2465
 30
0.0
 10
-41.5512
 20
1.2465
 30
0.0
 10
-50.4892
 20
1.7374
 30
0.0
 10
-59.5259
 20
-1.0047
 30
0.0
 10
-66.0707
 20
-7.6277
 30
0.0
 10
-66.0707
 20
-7.6277
 30
0.0
 10
-65.936
 20
-6.9169
 30
0.0
 10
-65.7706
 20
-6.2306
 30
0.0
 10
-65.5827
 20
-5.5637
 30
0.0
 10
-65.5827
 20
-5.5637
 30
0.0
 10
-60.0666
 20
15.443
 30
0.0
 10
-41.3282
 20
17.0157
 30
0.0
 10
-26.1391
 20
5.0552
 30
0.0
  0
SPLINE
  5
7A
330
1F
100
AcDbEntity
  8
layer 1
 62
   250
370
     9
100
AcDbSpline
210
0.0
220
0.0
230
1.0
 70
    11
 71
     3
 72
   452
 73
   448
 74
     0
 42
0.0000000001
 43
0.0000000001
 40
0.0
 40
0.0
 40
0.0
 40
0.0
 40
0.0089285714285714
 40
0.0089285714285714
 40
0.0089285714285714
 40
0.0089285714285714
 40
0.0178571428571429
 40
0.0178571428571429
 40
0.0178571428571429
 40
0.0178571428571429
 40
0.0267857142857143
 40
0.0267857142857143
 40
0.0267857142857143
 40
0.0267857142857143
 40
0.0357142857142857
 40
0.0357142857142857
 40
0.0357142857142857
 40
0.0357142857142857
 40
0.0446428571428571
 40
0.0446428571428571
 40
0.0446428571428571
 40
0.0446428571428571
 40
0.0535714285714286
 40
0.0535714285714286
 40
0.0535714285714286
 40
0.0535714285714286
 40
0.0625
 40
0.0625
 40
0.0625
 40
0.0625
 40
0.0714285714285714
 40
0.0714285714285714
 40
0.0714285714285714
 40
0.0714285714285714
 40
0.0803571428571428
 40
0.0803571428571428
 40
0.0803571428571428
 40
0.0803571428571428
 40
0.0892857142857143
 40
0.0892857142857143
 40
0.0892857142857143
 40
0.0892857142857143
 40
0.0982142857142857
 40
0.0982142857142857
 40
0.0982142857142857
 40
0.0982142857142857
 40
0.1071428571428571
 40
0.1071428571428571
 40
0.1071428571428571
 40
0.1071428571428571
 40
0.1160714285714285
 40
0.1160714285714285
 40
0.1160714285714285
 40
0.1160714285714285
 40
0.125
 40
0.125
 40
0.125
 40
0.125
 40
0.1339285714285714
 40
0.1339285714285714
 40
0.1339285714285714
 40
0.1339285714285714
 40
0.1428571428571428
 40
0.1428571428571428
 40
0.1428571428571428
 40
0.1428571428571428
 40
0.1517857142857142
 40
0.1517857142857142
 40
0.1517857142857142
 40
0.1517857142857142
 40
0.1607142857142857
 40
0.1607142857142857
 40
0.1607142857142857
 40
0.1607142857142857
 40
0.1696428571428571
 40
0.1696428571428571
 40
0.1696428571428571
 40
0.1696428571428571
 40
0.1785714285714285
 40
0.1785714285714285
 40
0.1785714285714285
 40
0.1785714285714285
 40
0.1874999999999999
 40
0.1874999999999999
 40
0.1874999999999999
 40
0.1874999999999999
 40
0.1964285714285714
 40
0.1964285714285714
 40
0.1964285714285714
 40
0.1964285714285714
 40
0.2053571428571428
 40
0.2053571428571428
 40
0.2053571428571428
 40
0.2053571428571428
 40
0.2142857142857142
 40
0.2142857142857142
 40
0.2142857142857142
 40
0.2142857142857142
 40
0.2232142857142856
 40
0.2232142857142856
 40
0.2232142857142856
 40
0.2232142857142856
 40
0.2321428571428571
 40
0.2321428571428571
 40
0.2321428571428571
 40
0.2321428571428571
 40
0.2410714285714285
 40
0.2410714285714285
 40
0.2410714285714285
 40
0.2410714285714285
 40
0.2499999999999999
 40
0.2499999999999999
 40
0.2499999999999999
 40
0.2499999999999999
 40
0.2589285714285713
 40
0.2589285714285713
 40
0.2589285714285713
 40
0.2589285714285713
 40
0.2678571428571428
 40
0.2678571428571428
 40
0.2678571428571428
 40
0.2678571428571428
 40
0.2767857142857142
 40
0.2767857142857142
 40
0.2767857142857142
 40
0.2767857142857142
 40
0.2857142857142857
 40
0.2857142857142857
 40
0.2857142857142857
 40
0.2857142857142857
 40
0.2946428571428572
 40
0.2946428571428572
 40
0.2946428571428572
 40
0.2946428571428572
 40
0.3035714285714286
 40
0.3035714285714286
 40
0.3035714285714286
 40
0.3035714285714286
 40
0.3125000000000001
 40
0.3125000000000001
 40
0.3125000000000001
 40
0.3125000000000001
 40
0.3214285714285715
 40
0.3214285714285715
 40
0.3214285714285715
 40
0.3214285714285715
 40
0.330357142857143
 40
0.330357142857143
 40
0.330357142857143
 40
0.330357142857143
 40
0.3392857142857144
 40
0.3392857142857144
 40
0.3392857142857144
 40
0.3392857142857144
 40
0.3482142857142859
 40
0.3482142857142859
 40
0.3482142857142859
 40
0.3482142857142859
 40
0.3571428571428573
 40
0.3571428571428573
 40
0.3571428571428573
 40
0.3571428571428573
 40
0.3660714285714288
 40
0.3660714285714288
 40
0.3660714285714288
 40
0.3660714285714288
 40
0.3750000000000002
 40
0.3750000000000002
 40
0.3750000000000002
 40
0.3750000000000002
 40
0.3839285714285717
 40
0.3839285714285717
 40
0.3839285714285717
 40
0.3839285714285717
 40
0.3928571428571431
 40
0.3928571428571431
 40
0.3928571428571431
 40
0.3928571428571431
 40
0.4017857142857146
 40
0.4017857142857146
 40
0.4017857142857146
 40
0.4017857142857146
 40
0.410714285714286
 40
0.410714285714286
 40
0.410714285714286
 40
0.410714285714286
 40
0.4196428571428575
 40
0.4196428571428575
 40
0.4196428571428575
 40
0.4196428571428575
 40
0.4285714285714289
 40
0.4285714285714289
 40
0.4285714285714289
 40
0.4285714285714289
 40
0.4375000000000004
 40
0.4375000000000004
 40
0.4375000000000004
 40
0.4375000000000004
 40
0.4464285714285718
 40
0.4464285714285718
 40
0.4464285714285718
 40
0.4464285714285718
 40
0.4553571428571433
 40
0.4553571428571433
 40
0.4553571428571433
 40
0.4553571428571433
 40
0.4642857142857147
 40
0.4642857142857147
 40
0.4642857142857147
 40
0.4642857142857147
 40
0.4732142857142862
 40
0.4732142857142862
 40
0.4732142857142862
 40
0.4732142857142862
 40
0.4821428571428577
 40
0.4821428571428577
 40
0.4821428571428577
 40
0.4821428571428577
 40
0.4910714285714291
 40
0.4910714285714291
 40
0.4910714285714291
 40
0.4910714285714291
 40
0.5000000000000006
 40
0.5000000000000006
 40
0.5000000000000006
 40
0.5000000000000006
 40
0.508928571428572
 40
0.508928571428572
 40
0.508928571428572
 40
0.508928571428572
 40
0.5178571428571433
 40
0.5178571428571433
 40
0.5178571428571433
 40
0.5178571428571433
 40
0.5267857142857147
 40
0.5267857142857147
 40
0.5267857142857147
 40
0.5267857142857147
 40
0.5357142857142861
 40
0.5357142857142861
 40
0.5357142857142861
 40
0.5357142857142861
 40
0.5446428571428575
 40
0.5446428571428575
 40
0.5446428571428575
 40
0.5446428571428575
 40
0.5535714285714289
 40
0.5535714285714289
 40
0.5535714285714289
 40
0.5535714285714289
 40
0.5625000000000003
 40
0.5625000000000003
 40
0.5625000000000003
 40
0.5625000000000003
 40
0.5714285714285717
 40
0.5714285714285717
 40
0.5714285714285717
 40
0.5714285714285717
 40
0.5803571428571431
 40
0.5803571428571431
 40
0.5803571428571431
 40
0.5803571428571431
 40
0.5892857142857145
 40
0.5892857142857145
 40
0.5892857142857145
 40
0.5892857142857145
 40
0.5982142857142859
 40
0.5982142857142859
 40
0.5982142857142859
 40
0.5982142857142859
 40
0.6071428571428573
 40
0.6071428571428573
 40
0.6071428571428573
 40
0.6071428571428573
 40
0.6160714285714287
 40
0.6160714285714287
 40
0.6160714285714287
 40
0.6160714285714287
 40
0.6250000000000001
 40
0.6250000000000001
 40
0.6250000000000001
 40
0.6250000000000001
 40
0.6339285714285715
 40
0.6339285714285715
 40
0.6339285714285715
 40
0.6339285714285715
 40
0.6428571428571429
 40
0.6428571428571429
 40
0.6428571428571429
 40
0.6428571428571429
 40
0.6517857142857143
 40
0.6517857142857143
 40
0.6517857142857143
 40
0.6517857142857143
 40
0.6607142857142857
 40
0.6607142857142857
 40
0.6607142857142857
 40
0.6607142857142857
 40
0.6696428571428571
 40
0.6696428571428571
 40
0.6696428571428571
 40
0.6696428571428571
 40
0.6785714285714285
 40
0.6785714285714285
 40
0.6785714285714285
 40
0.6785714285714285
 40
0.6874999999999999
 40
0.6874999999999999
 40
0.6874999999999999
 40
0.6874999999999999
 40
0.6964285714285713
 40
0.6964285714285713
 40
0.6964285714285713
 40
0.6964285714285713
 40
0.7053571428571427
 40
0.7053571428571427
 40
0.7053571428571427
 40
0.7053571428571427
 40
0.7142857142857141
 40
0.7142857142857141
 40
0.7142857142857141
 40
0.7142857142857141
 40
0.7232142857142855
 40
0.7232142857142855
 40
0.7232142857142855
 40
0.7232142857142855
 40
0.7321428571428569
 40
0.7321428571428569
 40
0.7321428571428569
 40
0.7321428571428569
 40
0.7410714285714283
 40
0.7410714285714283
 40
0.7410714285714283
 40
0.7410714285714283
 40
0.7499999999999997
 40
0.7499999999999997
 40
0.7499999999999997
 40
0.7499999999999997
 40
0.7589285714285711
 40
0.7589285714285711
 40
0.7589285714285711
 40
0.7589285714285711
 40
0.7678571428571425
 40
0.7678571428571425
 40
0.7678571428571425
 40
0.7678571428571425
 40
0.7767857142857139
 40
0.7767857142857139
 40
0.7767857142857139
 40
0.7767857142857139
 40
0.7857142857142853
 40
0.7857142857142853
 40
0.7857142857142853
 40
0.7857142857142853
 40
0.7946428571428567
 40
0.7946428571428567
 40
0.7946428571428567
 40
0.7946428571428567
 40
0.803571428571428
 40
0.803571428571428
 40
0.803571428571428
 40
0.803571428571428
 40
0.8124999999999994
 40
0.8124999999999994
 40
0.8124999999999994
 40
0.8124999999999994
 40
0.8214285714285708
 40
0.8214285714285708
 40
0.8214285714285708
 40
0.8214285714285708
 40
0.8303571428571422
 40
0.8303571428571422
 40
0.8303571428571422
 40
0.8303571428571422
 40
0.8392857142857136
 40
0.8392857142857136
 40
0.8392857142857136
 40
0.8392857142857136
 40
0.848214285714285
 40
0.848214285714285
 40
0.848214285714285
 40
0.848214285714285
 40
0.8571428571428564
 40
0.8571428571428564
 40
0.8571428571428564
 40
0.8571428571428564
 40
0.8660714285714278
 40
0.8660714285714278
 40
0.8660714285714278
 40
0.8660714285714278
 40
0.8749999999999992
 40
0.8749999999999992
 40
0.8749999999999992
 40
0.8749999999999992
 40
0.8839285714285706
 40
0.8839285714285706
 40
0.8839285714285706
 40
0.8839285714285706
 40
0.892857142857142
 40
0.892857142857142
 40
0.892857142857142
 40
0.892857142857142
 40
0.9017857142857134
 40
0.9017857142857134
 40
0.9017857142857134
 40
0.9017857142857134
 40
0.9107142857142848
 40
0.9107142857142848
 40
0.9107142857142848
 40
0.9107142857142848
 40
0.9196428571428562
 40
0.9196428571428562
 40
0.9196428571428562
 40
0.9196428571428562
 40
0.9285714285714276
 40
0.9285714285714276
 40
0.9285714285714276
 40
0.9285714285714276
 40
0.937499999999999
 40
0.937499999999999
 40
0.937499999999999
 40
0.937499999999999
 40
0.9464285714285704
 40
0.9464285714285704
 40
0.9464285714285704
 40
0.9464285714285704
 40
0.9553571428571418
 40
0.9553571428571418
 40
0.9553571428571418
 40
0.9553571428571418
 40
0.9642857142857132
 40
0.9642857142857132
 40
0.9642857142857132
 40
0.9642857142857132
 40
0.9732142857142846
 40
0.9732142857142846
 40
0.9732142857142846
 40
0.9732142857142846
 40
0.982142857142856
 40
0.982142857142856
 40
0.982142857142856
 40
0.982142857142856
 40
0.9910714285714274
 40
0.9910714285714274
 40
0.9910714285714274
 40
0.9910714285714274
 40
1.0
 40
1.0
 40
1.0
 40
1.0
 10
-27.6419
 20
43.6489
 30
0.0
 10
-32.1619
 20
52.1138
 30
0.0
 10
-38.6633
 20
61.8688
 30
0.0
 10
-40.6206
 20
71.4489
 30
0.0
 10
-40.6206
 20
71.4489
 30
0.0
 10
-40.3968
 20
62.4834
 30
0.0
 10
-36.0978
 20
54.0497
 30
0.0
 10
-30.9938
 20
45.8224
 30
0.0
 10
-30.9938
 20
45.8224
 30
0.0
 10
-40.4574
 20
53.1687
 30
0.0
 10
-49.0361
 20
61.105
 30
0.0
 10
-55.132
 20
70.9707
 30
0.0
 10
-55.132
 20
70.9707
 30
0.0
 10
-53.8088
 20
61.3353
 30
0.0
 10
-42.4834
 20
55.318
 30
0.0
 10
-36.8438
 20
48.2794
 30
0.0
 10
-36.8438
 20
48.2794
 30
0.0
 10
-44.0058
 20
52.5883
 30
0.0
 10
-53.4184
 20
57.0802
 30
0.0
 10
-61.8506
 20
53.2777
 30
0.0
 10
-61.8506
 20
53.2777
 30
0.0
 10
-49.9521
 20
57.3239
 30
0.0
 10
-32.1159
 20
43.9752
 30
0.0
 10
-26.2807
 20
37.377
 30
0.0
 10
-26.2807
 20
37.377
 30
0.0
 10
-40.4639
 20
36.0719
 30
0.0
 10
-51.0372
 20
56.4604
 30
0.0
 10
-68.6709
 20
47.7989
 30
0.0
 10
-68.6709
 20
47.7989
 30
0.0
 10
-64.8295
 20
55.6189
 30
0.0
 10
-56.3586
 20
58.0614
 30
0.0
 10
-48.4913
 20
55.927
 30
0.0
 10
-48.4913
 20
55.927
 30
0.0
 10
-56.3484
 20
62.1053
 30
0.0
 10
-61.2301
 20
69.7877
 30
0.0
 10
-56.8508
 20
82.6774
 30
0.0
 10
-56.8508
 20
82.6774
 30
0.0
 10
-55.6303
 20
77.1807
 30
0.0
 10
-51.6181
 20
70.8807
 30
0.0
 10
-46.6829
 20
64.4955
 30
0.0
 10
-46.6829
 20
64.4955
 30
0.0
 10
-48.9709
 20
72.3437
 30
0.0
 10
-49.6451
 20
79.9549
 30
0.0
 10
-47.0228
 20
85.7779
 30
0.0
 10
-47.0228
 20
85.7779
 30
0.0
 10
-48.6317
 20
76.6828
 30
0.0
 10
-46.8274
 20
67.7324
 30
0.0
 10
-42.4601
 20
60.1018
 30
0.0
 10
-42.4601
 20
60.1018
 30
0.0
 10
-43.9094
 20
64.717
 30
0.0
 10
-43.974
 20
71.9293
 30
0.0
 10
-40.4123
 20
75.7159
 30
0.0
 10
-40.4123
 20
75.7159
 30
0.0
 10
-40.7881
 20
70.7179
 30
0.0
 10
-37.0298
 20
62.9676
 30
0.0
 10
-32.7573
 20
55.2933
 30
0.0
 10
-32.7573
 20
55.2933
 30
0.0
 10
-35.6478
 20
63.5109
 30
0.0
 10
-38.1113
 20
74.1292
 30
0.0
 10
-34.6327
 20
82.5916
 30
0.0
 10
-34.6327
 20
82.5916
 30
0.0
 10
-33.0936
 20
86.6508
 30
0.0
 10
-31.368
 20
90.8215
 30
0.0
 10
-30.9348
 20
95.1168
 30
0.0
 10
-30.9348
 20
95.1168
 30
0.0
 10
-30.6883
 20
97.5611
 30
0.0
 10
-30.3909
 20
100.1563
 30
0.0
 10
-29.6229
 20
102.4412
 30
0.0
 10
-29.6229
 20
102.4412
 30
0.0
 10
-33.7853
 20
97.2117
 30
0.0
 10
-31.9283
 20
87.4116
 30
0.0
 10
-36.8514
 20
83.0646
 30
0.0
 10
-36.8514
 20
83.0646
 30
0.0
 10
-36.3934
 20
86.8908
 30
0.0
 10
-36.3696
 20
91.9961
 30
0.0
 10
-39.8589
 20
95.491
 30
0.0
 10
-39.8589
 20
95.491
 30
0.0
 10
-36.6234
 20
91.207
 30
0.0
 10
-39.0341
 20
81.6465
 30
0.0
 10
-36.9023
 20
75.8329
 30
0.0
 10
-36.9023
 20
75.8329
 30
0.0
 10
-44.9816
 20
84.3989
 30
0.0
 10
-39.2039
 20
88.8028
 30
0.0
 10
-42.5183
 20
97.8289
 30
0.0
 10
-42.5183
 20
97.8289
 30
0.0
 10
-38.4156
 20
97.7342
 30
0.0
 10
-35.5807
 20
94.6204
 30
0.0
 10
-35.0022
 20
90.7448
 30
0.0
 10
-35.0022
 20
90.7448
 30
0.0
 10
-34.5615
 20
93.7455
 30
0.0
 10
-35.067
 20
97.0617
 30
0.0
 10
-34.1237
 20
100.287
 30
0.0
 10
-34.1237
 20
100.287
 30
0.0
 10
-32.591
 20
105.5279
 30
0.0
 10
-27.7338
 20
108.7138
 30
0.0
 10
-22.8038
 20
108.8854
 30
0.0
 10
-22.8038
 20
108.8854
 30
0.0
 10
-26.7425
 20
104.7048
 30
0.0
 10
-26.451
 20
95.7097
 30
0.0
 10
-29.6574
 20
89.9224
 30
0.0
 10
-29.6574
 20
89.9224
 30
0.0
 10
-22.9043
 20
97.3418
 30
0.0
 10
-13.6155
 20
102.9445
 30
0.0
 10
-14.7746
 20
114.4015
 30
0.0
 10
-14.7746
 20
114.4015
 30
0.0
 10
-14.8082
 20
114.4833
 30
0.0
 10
-14.842
 20
114.5651
 30
0.0
 10
-14.8769
 20
114.6475
 30
0.0
 10
-14.8769
 20
114.6475
 30
0.0
 10
-10.9938
 20
111.1814
 30
0.0
 10
-10.1987
 20
107.5519
 30
0.0
 10
-12.3051
 20
103.7688
 30
0.0
 10
-12.3051
 20
103.7688
 30
0.0
 10
-9.1417
 20
106.9627
 30
0.0
 10
-6.4147
 20
108.3615
 30
0.0
 10
-0.8881
 20
107.7545
 30
0.0
 10
-0.8881
 20
107.7545
 30
0.0
 10
-6.0809
 20
103.7389
 30
0.0
 10
-5.9817
 20
97.8428
 30
0.0
 10
-13.4733
 20
97.3593
 30
0.0
 10
-13.4733
 20
97.3593
 30
0.0
 10
-9.3408
 20
98.6756
 30
0.0
 10
-6.6048
 20
101.7437
 30
0.0
 10
-5.0741
 20
105.7877
 30
0.0
 10
-5.0741
 20
105.7877
 30
0.0
 10
-8.9886
 20
102.3408
 30
0.0
 10
-11.2008
 20
97.5277
 30
0.0
 10
-17.5905
 20
98.0017
 30
0.0
 10
-17.5905
 20
98.0017
 30
0.0
 10
-14.6699
 20
101.4482
 30
0.0
 10
-13.2612
 20
105.173
 30
0.0
 10
-13.4599
 20
109.0087
 30
0.0
 10
-13.4599
 20
109.0087
 30
0.0
 10
-14.1121
 20
104.0044
 30
0.0
 10
-18.5124
 20
98.2899
 30
0.0
 10
-22.4956
 20
94.591
 30
0.0
 10
-22.4956
 20
94.591
 30
0.0
 10
-16.0189
 20
97.3857
 30
0.0
 10
-8.3848
 20
97.1112
 30
0.0
 10
-1.826
 20
92.5108
 30
0.0
 10
-1.826
 20
92.5108
 30
0.0
 10
3.99
 20
87.9995
 30
0.0
 10
3.7987
 20
81.0349
 30
0.0
 10
10.8705
 20
81.7186
 30
0.0
 10
10.8705
 20
81.7186
 30
0.0
 10
6.2765
 20
81.9013
 30
0.0
 10
4.8212
 20
87.0669
 30
0.0
 10
1.1116
 20
90.6835
 30
0.0
 10
1.1116
 20
90.6835
 30
0.0
 10
5.572
 20
89.5026
 30
0.0
 10
10.0985
 20
82.3325
 30
0.0
 10
16.3399
 20
83.2265
 30
0.0
 10
16.3399
 20
83.2265
 30
0.0
 10
11.049
 20
78.8693
 30
0.0
 10
6.8074
 20
78.7974
 30
0.0
 10
4.0446
 20
82.5693
 30
0.0
 10
4.0446
 20
82.5693
 30
0.0
 10
4.5983
 20
79.8929
 30
0.0
 10
4.7899
 20
77.009
 30
0.0
 10
4.8954
 20
74.1241
 30
0.0
 10
4.8954
 20
74.1241
 30
0.0
 10
4.9542
 20
72.5167
 30
0.0
 10
5.8165
 20
71.2165
 30
0.0
 10
6.533
 20
69.9972
 30
0.0
 10
6.533
 20
69.9972
 30
0.0
 10
6.4326
 20
73.1111
 30
0.0
 10
8.9605
 20
75.7231
 30
0.0
 10
12.0787
 20
75.7231
 30
0.0
 10
12.0787
 20
75.7231
 30
0.0
 10
15.1427
 20
75.7231
 30
0.0
 10
17.6275
 20
73.2383
 30
0.0
 10
17.6275
 20
70.1743
 30
0.0
 10
17.6275
 20
70.1743
 30
0.0
 10
17.6275
 20
67.1103
 30
0.0
 10
15.1427
 20
64.6255
 30
0.0
 10
12.0787
 20
64.6255
 30
0.0
 10
12.0787
 20
64.6255
 30
0.0
 10
9.9673
 20
64.6255
 30
0.0
 10
8.1308
 20
65.8055
 30
0.0
 10
7.1932
 20
67.5419
 30
0.0
 10
7.1932
 20
67.5419
 30
0.0
 10
6.2304
 20
68.4336
 30
0.0
 10
5.4188
 20
69.4515
 30
0.0
 10
4.7926
 20
70.4807
 30
0.0
 10
4.7926
 20
70.4807
 30
0.0
 10
4.6917
 20
68.313
 30
0.0
 10
4.538
 20
66.1941
 30
0.0
 10
4.4272
 20
64.2148
 30
0.0
 10
4.4272
 20
64.2148
 30
0.0
 10
7.0903
 20
63.8077
 30
0.0
 10
9.1309
 20
61.5066
 30
0.0
 10
9.1309
 20
58.7299
 30
0.0
 10
9.1309
 20
58.7299
 30
0.0
 10
9.1309
 20
55.6659
 30
0.0
 10
6.6461
 20
53.1811
 30
0.0
 10
3.5821
 20
53.1811
 30
0.0
 10
3.5821
 20
53.1811
 30
0.0
 10
0.5181
 20
53.1811
 30
0.0
 10
-1.9667
 20
55.6659
 30
0.0
 10
-1.9667
 20
58.7299
 30
0.0
 10
-1.9667
 20
58.7299
 30
0.0
 10
-1.9667
 20
61.6511
 30
0.0
 10
0.2918
 20
64.0458
 30
0.0
 10
3.1576
 20
64.2627
 30
0.0
 10
3.1576
 20
64.2627
 30
0.0
 10
3.2311
 20
66.641
 30
0.0
 10
3.3404
 20
69.4005
 30
0.0
 10
3.2973
 20
72.2459
 30
0.0
 10
3.2973
 20
72.2459
 30
0.0
 10
2.5855
 20
70.5119
 30
0.0
 10
1.6184
 20
68.5269
 30
0.0
 10
0.1079
 20
67.0527
 30
0.0
 10
0.1079
 20
67.0527
 30
0.0
 10
-0.7365
 20
65.0656
 30
0.0
 10
-2.7064
 20
63.6718
 30
0.0
 10
-5.0012
 20
63.6718
 30
0.0
 10
-5.0012
 20
63.6718
 30
0.0
 10
-8.0652
 20
63.6718
 30
0.0
 10
-10.55
 20
66.1566
 30
0.0
 10
-10.55
 20
69.2206
 30
0.0
 10
-10.55
 20
69.2206
 30
0.0
 10
-10.55
 20
72.2846
 30
0.0
 10
-8.0652
 20
74.7694
 30
0.0
 10
-5.0012
 20
74.7694
 30
0.0
 10
-5.0012
 20
74.7694
 30
0.0
 10
-1.7957
 20
74.7694
 30
0.0
 10
0.7506
 20
72.0193
 30
0.0
 10
0.5342
 20
68.8382
 30
0.0
 10
0.5342
 20
68.8382
 30
0.0
 10
2.0999
 20
71.7551
 30
0.0
 10
3.1326
 20
75.661
 30
0.0
 10
2.5165
 20
80.7784
 30
0.0
 10
2.5165
 20
80.7784
 30
0.0
 10
1.9852
 20
85.1915
 30
0.0
 10
-0.0844
 20
88.9623
 30
0.0
 10
-3.4733
 20
91.0369
 30
0.0
 10
-3.4733
 20
91.0369
 30
0.0
 10
-5.831
 20
92.4802
 30
0.0
 10
-8.2755
 20
93.3857
 30
0.0
 10
-10.7112
 20
93.8109
 30
0.0
 10
-10.7112
 20
93.8109
 30
0.0
 10
-5.2564
 20
90.8067
 30
0.0
 10
-4.4285
 20
83.7614
 30
0.0
 10
-8.1151
 20
80.1241
 30
0.0
 10
-8.1151
 20
80.1241
 30
0.0
 10
-4.9201
 20
82.0855
 30
0.0
 10
-3.5886
 20
85.0976
 30
0.0
 10
-5.5309
 20
91.2857
 30
0.0
 10
-5.5309
 20
91.2857
 30
0.0
 10
-0.4643
 20
84.6621
 30
0.0
 10
-5.3725
 20
76.6595
 30
0.0
 10
-13.5608
 20
77.8804
 30
0.0
 10
-13.5608
 20
77.8804
 30
0.0
 10
0.3387
 20
89.2032
 30
0.0
 10
-21.5242
 20
100.6485
 30
0.0
 10
-31.3907
 20
83.7541
 30
0.0
 10
-31.3907
 20
83.7541
 30
0.0
 10
-35.4785
 20
76.7542
 30
0.0
 10
-34.4498
 20
68.2509
 30
0.0
 10
-31.7054
 20
60.2703
 30
0.0
 10
-31.7054
 20
60.2703
 30
0.0
 10
-32.5628
 20
70.7454
 30
0.0
 10
-30.8036
 20
80.4169
 30
0.0
 10
-19.0006
 20
87.1816
 30
0.0
 10
-19.0006
 20
87.1816
 30
0.0
 10
-23.0927
 20
82.1776
 30
0.0
 10
-24.3888
 20
72.5958
 30
0.0
 10
-24.1926
 20
61.4792
 30
0.0
 10
-24.1926
 20
61.4792
 30
0.0
 10
-22.8393
 20
67.8889
 30
0.0
 10
-19.1108
 20
73.3738
 30
0.0
 10
-12.0395
 20
74.2527
 30
0.0
 10
-12.0395
 20
74.2527
 30
0.0
 10
-17.8211
 20
66.9518
 30
0.0
 10
-19.9286
 20
59.6844
 30
0.0
 10
-20.5409
 20
51.8749
 30
0.0
 10
-20.5409
 20
51.8749
 30
0.0
 10
-18.86
 20
57.302
 30
0.0
 10
-15.5788
 20
60.9117
 30
0.0
 10
-11.0924
 20
61.0628
 30
0.0
 10
-11.0924
 20
61.0628
 30
0.0
 10
-15.1639
 20
59.8656
 30
0.0
 10
-18.1732
 20
55.9768
 30
0.0
 10
-18.6058
 20
52.0818
 30
0.0
 10
-18.6058
 20
52.0818
 30
0.0
 10
-14.9294
 20
56.4673
 30
0.0
 10
-7.5973
 20
57.8032
 30
0.0
 10
-3.4192
 20
52.7147
 30
0.0
 10
-3.4192
 20
52.7147
 30
0.0
 10
-12.2253
 20
50.1843
 30
0.0
 10
-14.4832
 20
41.2531
 30
0.0
 10
-14.2798
 20
29.1358
 30
0.0
 10
-14.2798
 20
29.1358
 30
0.0
 10
-18.6667
 20
33.0661
 30
0.0
 10
-17.7889
 20
46.102
 30
0.0
 10
-13.7625
 20
52.3613
 30
0.0
 10
-13.7625
 20
52.3613
 30
0.0
 10
-17.4998
 20
50.7042
 30
0.0
 10
-19.5156
 20
46.3889
 30
0.0
 10
-19.4863
 20
38.8783
 30
0.0
 10
-19.4863
 20
38.8783
 30
0.0
 10
-21.5728
 20
44.2578
 30
0.0
 10
-22.7201
 20
55.3358
 30
0.0
 10
-20.6058
 20
63.713
 30
0.0
 10
-20.6058
 20
63.713
 30
0.0
 10
-22.8051
 20
58.7937
 30
0.0
 10
-23.5157
 20
52.9272
 30
0.0
 10
-23.0963
 20
45.4129
 30
0.0
 10
-23.0963
 20
45.4129
 30
0.0
 10
-23.3327
 20
46.0481
 30
0.0
 10
-23.5466
 20
46.715
 30
0.0
 10
-23.7372
 20
47.4063
 30
0.0
 10
-23.7372
 20
47.4063
 30
0.0
 10
-26.3663
 20
55.9556
 30
0.0
 10
-29.2204
 20
70.1122
 30
0.0
 10
-25.1399
 20
79.7443
 30
0.0
 10
-25.1399
 20
79.7443
 30
0.0
 10
-30.8049
 20
70.2299
 30
0.0
 10
-29.6721
 20
54.0851
 30
0.0
 10
-24.4547
 20
44.7391
 30
0.0
 10
-24.4547
 20
44.7391
 30
0.0
 10
-20.1832
 20
37.0868
 30
0.0
 10
-15.5385
 20
29.5009
 30
0.0
 10
-11.2001
 20
21.7845
 30
0.0
 10
-11.2001
 20
21.7845
 30
0.0
 10
-12.0845
 20
28.6814
 30
0.0
 10
-11.8904
 20
35.147
 30
0.0
 10
-8.2418
 20
40.2307
 30
0.0
 10
-8.2418
 20
40.2307
 30
0.0
 10
-10.8992
 20
33.9697
 30
0.0
 10
-10.3776
 20
20.4996
 30
0.0
 10
-7.3203
 20
14.6537
 30
0.0
 10
-7.3203
 20
14.6537
 30
0.0
 10
-8.9779
 20
29.4412
 30
0.0
 10
-4.5501
 20
38.2237
 30
0.0
 10
4.5262
 20
42.5929
 30
0.0
 10
4.5262
 20
42.5929
 30
0.0
 10
-0.6001
 20
35.22
 30
0.0
 10
1.9673
 20
23.0636
 30
0.0
 10
3.2059
 20
10.6645
 30
0.0
 10
3.2059
 20
10.6645
 30
0.0
 10
3.7829
 20
22.7378
 30
0.0
 10
8.8398
 20
24.5046
 30
0.0
 10
9.3583
 20
32.5144
 30
0.0
 10
9.3583
 20
32.5144
 30
0.0
 10
15.0864
 20
20.1988
 30
0.0
 10
8.2034
 20
14.0253
 30
0.0
 10
7.5
 20
5.625
 30
0.0
 10
7.5
 20
5.625
 30
0.0
 10
9.8062
 20
9.6951
 30
0.0
 10
13.7869
 20
12.6788
 30
0.0
 10
19.5889
 20
14.4808
 30
0.0
 10
19.5889
 20
14.4808
 30
0.0
 10
12.3572
 20
2.192
 30
0.0
 10
8.6622
 20
-12.2588
 30
0.0
 10
8.8289
 20
-28.7092
 30
0.0
 10
8.8289
 20
-28.7092
 30
0.0
 10
6.4281
 20
-18.2122
 30
0.0
 10
6.8226
 20
-2.5434
 30
0.0
 10
13.3857
 20
7.8174
 30
0.0
 10
13.3857
 20
7.8174
 30
0.0
 10
8.9981
 20
3.1111
 30
0.0
 10
6.7937
 20
-3.2934
 30
0.0
 10
5.8903
 20
-12.2228
 30
0.0
 10
5.8903
 20
-12.2228
 30
0.0
 10
3.0735
 20
3.7898
 30
0.0
 10
6.274
 20
11.7143
 30
0.0
 10
8.166
 20
21.3147
 30
0.0
 10
8.166
 20
21.3147
 30
0.0
 10
3.9031
 20
11.8512
 30
0.0
 10
3.8837
 20
5.2746
 30
0.0
 10
3.3761
 20
-4.898
 30
0.0
 10
3.3761
 20
-4.898
 30
0.0
 10
-0.7824
 20
6.2728
 30
0.0
 10
-2.5639
 20
19.9886
 30
0.0
 10
-0.5134
 20
34.1947
 30
0.0
 10
-0.5134
 20
34.1947
 30
0.0
 10
-4.4563
 20
24.169
 30
0.0
 10
-3.8308
 20
11.1623
 30
0.0
 10
0.894
 20
-3.826
 30
0.0
 10
0.894
 20
-3.826
 30
0.0
 10
3.4212
 20
-11.8431
 30
0.0
 10
5.5054
 20
-20.0042
 30
0.0
 10
5.7523
 20
-28.7471
 30
0.0
 10
5.7523
 20
-28.7471
 30
0.0
 10
5.7523
 20
-28.7471
 30
0.0
 10
2.4259
 20
-28.7471
 30
0.0
 10
2.4259
 20
-28.7471
 30
0.0
 10
2.4259
 20
-28.7471
 30
0.0
 10
2.249
 20
-17.6847
 30
0.0
 10
-0.4522
 20
-7.243
 30
0.0
 10
-5.0908
 20
2.4952
 30
0.0
 10
-5.0908
 20
2.4952
 30
0.0
 10
-7.2349
 20
6.9965
 30
0.0
 10
-13.1193
 20
4.1198
 30
0.0
 10
-14.68
 20
-1.5639
 30
0.0
 10
-14.68
 20
-1.5639
 30
0.0
 10
-15.0836
 20
2.5215
 30
0.0
 10
-13.392
 20
6.1086
 30
0.0
 10
-8.7019
 20
6.9241
 30
0.0
 10
-8.7019
 20
6.9241
 30
0.0
 10
-15.8003
 20
7.1077
 30
0.0
 10
-23.287
 20
8.7239
 30
0.0
 10
-26.7983
 20
15.4353
 30
0.0
 10
-26.7983
 20
15.4353
 30
0.0
 10
-27.4795
 20
16.7374
 30
0.0
 10
-28.3758
 20
18.0043
 30
0.0
 10
-29.57
 20
19.1626
 30
0.0
 10
-29.57
 20
19.1626
 30
0.0
 10
-22.2854
 20
20.401
 30
0.0
 10
-19.8662
 20
14.3487
 30
0.0
 10
-13.4438
 20
11.533
 30
0.0
 10
-13.4438
 20
11.533
 30
0.0
 10
-19.5422
 20
10.6635
 30
0.0
 10
-22.0318
 20
13.464
 30
0.0
 10
-25.0533
 20
16.1207
 30
0.0
 10
-25.0533
 20
16.1207
 30
0.0
 10
-22.9915
 20
10.2098
 30
0.0
 10
-14.015
 20
9.2158
 30
0.0
 10
-8.7579
 20
10.2071
 30
0.0
 10
-8.7579
 20
10.2071
 30
0.0
 10
-11.4025
 20
12.1415
 30
0.0
 10
-13.7685
 20
14.2399
 30
0.0
 10
-16.6517
 20
15.6946
 30
0.0
 10
-16.6517
 20
15.6946
 30
0.0
 10
-29.6039
 20
22.2295
 30
0.0
 10
-26.3729
 20
26.8449
 30
0.0
 10
-34.5119
 20
32.5144
 30
0.0
 10
-34.5119
 20
32.5144
 30
0.0
 10
-23.1395
 20
34.1367
 30
0.0
 10
-18.8974
 20
28.6597
 30
0.0
 10
-14.6589
 20
18.3159
 30
0.0
 10
-14.6589
 20
18.3159
 30
0.0
 10
-17.9954
 20
21.4027
 30
0.0
 10
-21.5763
 20
30.1205
 30
0.0
 10
-27.2996
 20
30.5486
 30
0.0
 10
-27.2996
 20
30.5486
 30
0.0
 10
-20.5701
 20
26.6432
 30
0.0
 10
-18.1588
 20
17.9098
 30
0.0
 10
-10.3163
 20
13.2019
 30
0.0
 10
-10.3163
 20
13.2019
 30
0.0
 10
-15.794
 20
23.5181
 30
0.0
 10
-22.1654
 20
33.4878
 30
0.0
 10
-27.5759
 20
43.5253
 30
0.0
 10
-27.5759
 20
43.5253
 30
0.0
 10
-27.5759
 20
43.5253
 30
0.0
 10
-27.6419
 20
43.6489
 30
0.0
 10
-27.6419
 20
43.6489
 30
0.0
  0
SPLINE
  5
7B
330
1F
100
AcDbEntity
  8
layer 1
 62
   250
370
     9
100
AcDbSpline
210
0.0
220
0.0
230
1.0
 70
    11
 71
     3
 72
   852
 73
   848
 74
     0
 42
0.0000000001
 43
0.0000000001
 40
0.0
 40
0.0
 40
0.0
 40
0.0
 40
0.0047169811320755
 40
0.0047169811320755
 40
0.0047169811320755
 40
0.0047169811320755
 40
0.0094339622641509
 40
0.0094339622641509
 40
0.0094339622641509
 40
0.0094339622641509
 40
0.0141509433962264
 40
0.0141509433962264
 40
0.0141509433962264
 40
0.0141509433962264
 40
0.0188679245283019
 40
0.0188679245283019
 40
0.0188679245283019
 40
0.0188679245283019
 40
0.0235849056603774
 40
0.0235849056603774
 40
0.0235849056603774
 40
0.0235849056603774
 40
0.0283018867924528
 40
0.0283018867924528
 40
0.0283018867924528
 40
0.0283018867924528
 40
0.0330188679245283
 40
0.0330188679245283
 40
0.0330188679245283
 40
0.0330188679245283
 40
0.0377358490566038
 40
0.0377358490566038
 40
0.0377358490566038
 40
0.0377358490566038
 40
0.0424528301886792
 40
0.0424528301886792
 40
0.0424528301886792
 40
0.0424528301886792
 40
0.0471698113207547
 40
0.0471698113207547
 40
0.0471698113207547
 40
0.0471698113207547
 40
0.0518867924528302
 40
0.0518867924528302
 40
0.0518867924528302
 40
0.0518867924528302
 40
0.0566037735849057
 40
0.0566037735849057
 40
0.0566037735849057
 40
0.0566037735849057
 40
0.0613207547169811
 40
0.0613207547169811
 40
0.0613207547169811
 40
0.0613207547169811
 40
0.0660377358490566
 40
0.0660377358490566
 40
0.0660377358490566
 40
0.0660377358490566
 40
0.0707547169811321
 40
0.0707547169811321
 40
0.0707547169811321
 40
0.0707547169811321
 40
0.0754716981132075
 40
0.0754716981132075
 40
0.0754716981132075
 40
0.0754716981132075
 40
0.080188679245283
 40
0.080188679245283
 40
0.080188679245283
 40
0.080188679245283
 40
0.0849056603773585
 40
0.0849056603773585
 40
0.0849056603773585
 40
0.0849056603773585
 40
0.089622641509434
 40
0.089622641509434
 40
0.089622641509434
 40
0.089622641509434
 40
0.0943396226415094
 40
0.0943396226415094
 40
0.0943396226415094
 40
0.0943396226415094
 40
0.0990566037735849
 40
0.0990566037735849
 40
0.0990566037735849
 40
0.0990566037735849
 40
0.1037735849056604
 40
0.1037735849056604
 40
0.1037735849056604
 40
0.1037735849056604
 40
0.1084905660377358
 40
0.1084905660377358
 40
0.1084905660377358
 40
0.1084905660377358
 40
0.1132075471698113
 40
0.1132075471698113
 40
0.1132075471698113
 40
0.1132075471698113
 40
0.1179245283018868
 40
0.1179245283018868
 40
0.1179245283018868
 40
0.1179245283018868
 40
0.1226415094339623
 40
0.1226415094339623
 40
0.1226415094339623
 40
0.1226415094339623
 40
0.1273584905660377
 40
0.1273584905660377
 40
0.1273584905660377
 40
0.1273584905660377
 40
0.1320754716981132
 40
0.1320754716981132
 40
0.1320754716981132
 40
0.1320754716981132
 40
0.1367924528301887
 40
0.1367924528301887
 40
0.1367924528301887
 40
0.1367924528301887
 40
0.1415094339622641
 40
0.1415094339622641
 40
0.1415094339622641
 40
0.1415094339622641
 40
0.1462264150943396
 40
0.1462264150943396
 40
0.1462264150943396
 40
0.1462264150943396
 40
0.1509433962264151
 40
0.1509433962264151
 40
0.1509433962264151
 40
0.1509433962264151
 40
0.1556603773584906
 40
0.1556603773584906
 40
0.1556603773584906
 40
0.1556603773584906
 40
0.160377358490566
 40
0.160377358490566
 40
0.160377358490566
 40
0.160377358490566
 40
0.1650943396226415
 40
0.1650943396226415
 40
0.1650943396226415
 40
0.1650943396226415
 40
0.169811320754717
 40
0.169811320754717
 40
0.169811320754717
 40
0.169811320754717
 40
0.1745283018867924
 40
0.1745283018867924
 40
0.1745283018867924
 40
0.1745283018867924
 40
0.1792452830188679
 40
0.1792452830188679
 40
0.1792452830188679
 40
0.1792452830188679
 40
0.1839622641509434
 40
0.1839622641509434
 40
0.1839622641509434
 40
0.1839622641509434
 40
0.1886792452830189
 40
0.1886792452830189
 40
0.1886792452830189
 40
0.1886792452830189
 40
0.1933962264150943
 40
0.1933962264150943
 40
0.1933962264150943
 40
0.1933962264150943
 40
0.1981132075471698
 40
0.1981132075471698
 40
0.1981132075471698
 40
0.1981132075471698
 40
0.2028301886792453
 40
0.2028301886792453
 40
0.2028301886792453
 40
0.2028301886792453
 40
0.2075471698113207
 40
0.2075471698113207
 40
0.2075471698113207
 40
0.2075471698113207
 40
0.2122641509433962
 40
0.2122641509433962
 40
0.2122641509433962
 40
0.2122641509433962
 40
0.2169811320754717
 40
0.2169811320754717
 40
0.2169811320754717
 40
0.2169811320754717
 40
0.2216981132075471
 40
0.2216981132075471
 40
0.2216981132075471
 40
0.2216981132075471
 40
0.2264150943396226
 40
0.2264150943396226
 40
0.2264150943396226
 40
0.2264150943396226
 40
0.2311320754716981
 40
0.2311320754716981
 40
0.2311320754716981
 40
0.2311320754716981
 40
0.2358490566037736
 40
0.2358490566037736
 40
0.2358490566037736
 40
0.2358490566037736
 40
0.240566037735849
 40
0.240566037735849
 40
0.240566037735849
 40
0.240566037735849
 40
0.2452830188679245
 40
0.2452830188679245
 40
0.2452830188679245
 40
0.2452830188679245
 40
0.25
 40
0.25
 40
0.25
 40
0.25
 40
0.2547169811320755
 40
0.2547169811320755
 40
0.2547169811320755
 40
0.2547169811320755
 40
0.2594339622641509
 40
0.2594339622641509
 40
0.2594339622641509
 40
0.2594339622641509
 40
0.2641509433962264
 40
0.2641509433962264
 40
0.2641509433962264
 40
0.2641509433962264
 40
0.2688679245283019
 40
0.2688679245283019
 40
0.2688679245283019
 40
0.2688679245283019
 40
0.2735849056603774
 40
0.2735849056603774
 40
0.2735849056603774
 40
0.2735849056603774
 40
0.2783018867924528
 40
0.2783018867924528
 40
0.2783018867924528
 40
0.2783018867924528
 40
0.2830188679245283
 40
0.2830188679245283
 40
0.2830188679245283
 40
0.2830188679245283
 40
0.2877358490566038
 40
0.2877358490566038
 40
0.2877358490566038
 40
0.2877358490566038
 40
0.2924528301886792
 40
0.2924528301886792
 40
0.2924528301886792
 40
0.2924528301886792
 40
0.2971698113207547
 40
0.2971698113207547
 40
0.2971698113207547
 40
0.2971698113207547
 40
0.3018867924528302
 40
0.3018867924528302
 40
0.3018867924528302
 40
0.3018867924528302
 40
0.3066037735849056
 40
0.3066037735849056
 40
0.3066037735849056
 40
0.3066037735849056
 40
0.3113207547169811
 40
0.3113207547169811
 40
0.3113207547169811
 40
0.3113207547169811
 40
0.3160377358490566
 40
0.3160377358490566
 40
0.3160377358490566
 40
0.3160377358490566
 40
0.3207547169811321
 40
0.3207547169811321
 40
0.3207547169811321
 40
0.3207547169811321
 40
0.3254716981132075
 40
0.3254716981132075
 40
0.3254716981132075
 40
0.3254716981132075
 40
0.330188679245283
 40
0.330188679245283
 40
0.330188679245283
 40
0.330188679245283
 40
0.3349056603773585
 40
0.3349056603773585
 40
0.3349056603773585
 40
0.3349056603773585
 40
0.3396226415094339
 40
0.3396226415094339
 40
0.3396226415094339
 40
0.3396226415094339
 40
0.3443396226415094
 40
0.3443396226415094
 40
0.3443396226415094
 40
0.3443396226415094
 40
0.3490566037735849
 40
0.3490566037735849
 40
0.3490566037735849
 40
0.3490566037735849
 40
0.3537735849056604
 40
0.3537735849056604
 40
0.3537735849056604
 40
0.3537735849056604
 40
0.3584905660377358
 40
0.3584905660377358
 40
0.3584905660377358
 40
0.3584905660377358
 40
0.3632075471698113
 40
0.3632075471698113
 40
0.3632075471698113
 40
0.3632075471698113
 40
0.3679245283018868
 40
0.3679245283018868
 40
0.3679245283018868
 40
0.3679245283018868
 40
0.3726415094339622
 40
0.3726415094339622
 40
0.3726415094339622
 40
0.3726415094339622
 40
0.3773584905660377
 40
0.3773584905660377
 40
0.3773584905660377
 40
0.3773584905660377
 40
0.3820754716981132
 40
0.3820754716981132
 40
0.3820754716981132
 40
0.3820754716981132
 40
0.3867924528301886
 40
0.3867924528301886
 40
0.3867924528301886
 40
0.3867924528301886
 40
0.3915094339622641
 40
0.3915094339622641
 40
0.3915094339622641
 40
0.3915094339622641
 40
0.3962264150943396
 40
0.3962264150943396
 40
0.3962264150943396
 40
0.3962264150943396
 40
0.4009433962264151
 40
0.4009433962264151
 40
0.4009433962264151
 40
0.4009433962264151
 40
0.4056603773584905
 40
0.4056603773584905
 40
0.4056603773584905
 40
0.4056603773584905
 40
0.410377358490566
 40
0.410377358490566
 40
0.410377358490566
 40
0.410377358490566
 40
0.4150943396226415
 40
0.4150943396226415
 40
0.4150943396226415
 40
0.4150943396226415
 40
0.4198113207547169
 40
0.4198113207547169
 40
0.4198113207547169
 40
0.4198113207547169
 40
0.4245283018867924
 40
0.4245283018867924
 40
0.4245283018867924
 40
0.4245283018867924
 40
0.4292452830188679
 40
0.4292452830188679
 40
0.4292452830188679
 40
0.4292452830188679
 40
0.4339622641509434
 40
0.4339622641509434
 40
0.4339622641509434
 40
0.4339622641509434
 40
0.4386792452830188
 40
0.4386792452830188
 40
0.4386792452830188
 40
0.4386792452830188
 40
0.4433962264150943
 40
0.4433962264150943
 40
0.4433962264150943
 40
0.4433962264150943
 40
0.4481132075471698
 40
0.4481132075471698
 40
0.4481132075471698
 40
0.4481132075471698
 40
0.4528301886792452
 40
0.4528301886792452
 40
0.4528301886792452
 40
0.4528301886792452
 40
0.4575471698113207
 40
0.4575471698113207
 40
0.4575471698113207
 40
0.4575471698113207
 40
0.4622641509433962
 40
0.4622641509433962
 40
0.4622641509433962
 40
0.4622641509433962
 40
0.4669811320754716
 40
0.4669811320754716
 40
0.4669811320754716
 40
0.4669811320754716
 40
0.4716981132075471
 40
0.4716981132075471
 40
0.4716981132075471
 40
0.4716981132075471
 40
0.4764150943396226
 40
0.4764150943396226
 40
0.4764150943396226
 40
0.4764150943396226
 40
0.4811320754716981
 40
0.4811320754716981
 40
0.4811320754716981
 40
0.4811320754716981
 40
0.4858490566037735
 40
0.4858490566037735
 40
0.4858490566037735
 40
0.4858490566037735
 40
0.490566037735849
 40
0.490566037735849
 40
0.490566037735849
 40
0.490566037735849
 40
0.4952830188679245
 40
0.4952830188679245
 40
0.4952830188679245
 40
0.4952830188679245
 40
0.4999999999999999
 40
0.4999999999999999
 40
0.4999999999999999
 40
0.4999999999999999
 40
0.5047169811320754
 40
0.5047169811320754
 40
0.5047169811320754
 40
0.5047169811320754
 40
0.5094339622641509
 40
0.5094339622641509
 40
0.5094339622641509
 40
0.5094339622641509
 40
0.5141509433962265
 40
0.5141509433962265
 40
0.5141509433962265
 40
0.5141509433962265
 40
0.518867924528302
 40
0.518867924528302
 40
0.518867924528302
 40
0.518867924528302
 40
0.5235849056603775
 40
0.5235849056603775
 40
0.5235849056603775
 40
0.5235849056603775
 40
0.528301886792453
 40
0.528301886792453
 40
0.528301886792453
 40
0.528301886792453
 40
0.5330188679245286
 40
0.5330188679245286
 40
0.5330188679245286
 40
0.5330188679245286
 40
0.5377358490566041
 40
0.5377358490566041
 40
0.5377358490566041
 40
0.5377358490566041
 40
0.5424528301886796
 40
0.5424528301886796
 40
0.5424528301886796
 40
0.5424528301886796
 40
0.5471698113207552
 40
0.5471698113207552
 40
0.5471698113207552
 40
0.5471698113207552
 40
0.5518867924528307
 40
0.5518867924528307
 40
0.5518867924528307
 40
0.5518867924528307
 40
0.5566037735849062
 40
0.5566037735849062
 40
0.5566037735849062
 40
0.5566037735849062
 40
0.5613207547169817
 40
0.5613207547169817
 40
0.5613207547169817
 40
0.5613207547169817
 40
0.5660377358490573
 40
0.5660377358490573
 40
0.5660377358490573
 40
0.5660377358490573
 40
0.5707547169811328
 40
0.5707547169811328
 40
0.5707547169811328
 40
0.5707547169811328
 40
0.5754716981132083
 40
0.5754716981132083
 40
0.5754716981132083
 40
0.5754716981132083
 40
0.5801886792452838
 40
0.5801886792452838
 40
0.5801886792452838
 40
0.5801886792452838
 40
0.5849056603773594
 40
0.5849056603773594
 40
0.5849056603773594
 40
0.5849056603773594
 40
0.5896226415094349
 40
0.5896226415094349
 40
0.5896226415094349
 40
0.5896226415094349
 40
0.5943396226415104
 40
0.5943396226415104
 40
0.5943396226415104
 40
0.5943396226415104
 40
0.5990566037735859
 40
0.5990566037735859
 40
0.5990566037735859
 40
0.5990566037735859
 40
0.6037735849056615
 40
0.6037735849056615
 40
0.6037735849056615
 40
0.6037735849056615
 40
0.608490566037737
 40
0.608490566037737
 40
0.608490566037737
 40
0.608490566037737
 40
0.6132075471698125
 40
0.6132075471698125
 40
0.6132075471698125
 40
0.6132075471698125
 40
0.617924528301888
 40
0.617924528301888
 40
0.617924528301888
 40
0.617924528301888
 40
0.6226415094339636
 40
0.6226415094339636
 40
0.6226415094339636
 40
0.6226415094339636
 40
0.6273584905660391
 40
0.6273584905660391
 40
0.6273584905660391
 40
0.6273584905660391
 40
0.6320754716981146
 40
0.6320754716981146
 40
0.6320754716981146
 40
0.6320754716981146
 40
0.6367924528301901
 40
0.6367924528301901
 40
0.6367924528301901
 40
0.6367924528301901
 40
0.6415094339622657
 40
0.6415094339622657
 40
0.6415094339622657
 40
0.6415094339622657
 40
0.6462264150943412
 40
0.6462264150943412
 40
0.6462264150943412
 40
0.6462264150943412
 40
0.6509433962264167
 40
0.6509433962264167
 40
0.6509433962264167
 40
0.6509433962264167
 40
0.6556603773584923
 40
0.6556603773584923
 40
0.6556603773584923
 40
0.6556603773584923
 40
0.6603773584905678
 40
0.6603773584905678
 40
0.6603773584905678
 40
0.6603773584905678
 40
0.6650943396226433
 40
0.6650943396226433
 40
0.6650943396226433
 40
0.6650943396226433
 40
0.6698113207547188
 40
0.6698113207547188
 40
0.6698113207547188
 40
0.6698113207547188
 40
0.6745283018867944
 40
0.6745283018867944
 40
0.6745283018867944
 40
0.6745283018867944
 40
0.6792452830188699
 40
0.6792452830188699
 40
0.6792452830188699
 40
0.6792452830188699
 40
0.6839622641509454
 40
0.6839622641509454
 40
0.6839622641509454
 40
0.6839622641509454
 40
0.6886792452830209
 40
0.6886792452830209
 40
0.6886792452830209
 40
0.6886792452830209
 40
0.6933962264150965
 40
0.6933962264150965
 40
0.6933962264150965
 40
0.6933962264150965
 40
0.698113207547172
 40
0.698113207547172
 40
0.698113207547172
 40
0.698113207547172
 40
0.7028301886792475
 40
0.7028301886792475
 40
0.7028301886792475
 40
0.7028301886792475
 40
0.707547169811323
 40
0.707547169811323
 40
0.707547169811323
 40
0.707547169811323
 40
0.7122641509433986
 40
0.7122641509433986
 40
0.7122641509433986
 40
0.7122641509433986
 40
0.7169811320754741
 40
0.7169811320754741
 40
0.7169811320754741
 40
0.7169811320754741
 40
0.7216981132075496
 40
0.7216981132075496
 40
0.7216981132075496
 40
0.7216981132075496
 40
0.7264150943396251
 40
0.7264150943396251
 40
0.7264150943396251
 40
0.7264150943396251
 40
0.7311320754717007
 40
0.7311320754717007
 40
0.7311320754717007
 40
0.7311320754717007
 40
0.7358490566037762
 40
0.7358490566037762
 40
0.7358490566037762
 40
0.7358490566037762
 40
0.7405660377358517
 40
0.7405660377358517
 40
0.7405660377358517
 40
0.7405660377358517
 40
0.7452830188679272
 40
0.7452830188679272
 40
0.7452830188679272
 40
0.7452830188679272
 40
0.7500000000000028
 40
0.7500000000000028
 40
0.7500000000000028
 40
0.7500000000000028
 40
0.7547169811320783
 40
0.7547169811320783
 40
0.7547169811320783
 40
0.7547169811320783
 40
0.7594339622641538
 40
0.7594339622641538
 40
0.7594339622641538
 40
0.7594339622641538
 40
0.7641509433962294
 40
0.7641509433962294
 40
0.7641509433962294
 40
0.7641509433962294
 40
0.7688679245283049
 40
0.7688679245283049
 40
0.7688679245283049
 40
0.7688679245283049
 40
0.7735849056603804
 40
0.7735849056603804
 40
0.7735849056603804
 40
0.7735849056603804
 40
0.7783018867924559
 40
0.7783018867924559
 40
0.7783018867924559
 40
0.7783018867924559
 40
0.7830188679245315
 40
0.7830188679245315
 40
0.7830188679245315
 40
0.7830188679245315
 40
0.787735849056607
 40
0.787735849056607
 40
0.787735849056607
 40
0.787735849056607
 40
0.7924528301886825
 40
0.7924528301886825
 40
0.7924528301886825
 40
0.7924528301886825
 40
0.797169811320758
 40
0.797169811320758
 40
0.797169811320758
 40
0.797169811320758
 40
0.8018867924528336
 40
0.8018867924528336
 40
0.8018867924528336
 40
0.8018867924528336
 40
0.8066037735849091
 40
0.8066037735849091
 40
0.8066037735849091
 40
0.8066037735849091
 40
0.8113207547169846
 40
0.8113207547169846
 40
0.8113207547169846
 40
0.8113207547169846
 40
0.8160377358490601
 40
0.8160377358490601
 40
0.8160377358490601
 40
0.8160377358490601
 40
0.8207547169811357
 40
0.8207547169811357
 40
0.8207547169811357
 40
0.8207547169811357
 40
0.8254716981132112
 40
0.8254716981132112
 40
0.8254716981132112
 40
0.8254716981132112
 40
0.8301886792452867
 40
0.8301886792452867
 40
0.8301886792452867
 40
0.8301886792452867
 40
0.8349056603773622
 40
0.8349056603773622
 40
0.8349056603773622
 40
0.8349056603773622
 40
0.8396226415094378
 40
0.8396226415094378
 40
0.8396226415094378
 40
0.8396226415094378
 40
0.8443396226415133
 40
0.8443396226415133
 40
0.8443396226415133
 40
0.8443396226415133
 40
0.8490566037735888
 40
0.8490566037735888
 40
0.8490566037735888
 40
0.8490566037735888
 40
0.8537735849056644
 40
0.8537735849056644
 40
0.8537735849056644
 40
0.8537735849056644
 40
0.8584905660377399
 40
0.8584905660377399
 40
0.8584905660377399
 40
0.8584905660377399
 40
0.8632075471698154
 40
0.8632075471698154
 40
0.8632075471698154
 40
0.8632075471698154
 40
0.8679245283018909
 40
0.8679245283018909
 40
0.8679245283018909
 40
0.8679245283018909
 40
0.8726415094339665
 40
0.8726415094339665
 40
0.8726415094339665
 40
0.8726415094339665
 40
0.877358490566042
 40
0.877358490566042
 40
0.877358490566042
 40
0.877358490566042
 40
0.8820754716981175
 40
0.8820754716981175
 40
0.8820754716981175
 40
0.8820754716981175
 40
0.886792452830193
 40
0.886792452830193
 40
0.886792452830193
 40
0.886792452830193
 40
0.8915094339622686
 40
0.8915094339622686
 40
0.8915094339622686
 40
0.8915094339622686
 40
0.8962264150943441
 40
0.8962264150943441
 40
0.8962264150943441
 40
0.8962264150943441
 40
0.9009433962264196
 40
0.9009433962264196
 40
0.9009433962264196
 40
0.9009433962264196
 40
0.9056603773584951
 40
0.9056603773584951
 40
0.9056603773584951
 40
0.9056603773584951
 40
0.9103773584905707
 40
0.9103773584905707
 40
0.9103773584905707
 40
0.9103773584905707
 40
0.9150943396226462
 40
0.9150943396226462
 40
0.9150943396226462
 40
0.9150943396226462
 40
0.9198113207547217
 40
0.9198113207547217
 40
0.9198113207547217
 40
0.9198113207547217
 40
0.9245283018867972
 40
0.9245283018867972
 40
0.9245283018867972
 40
0.9245283018867972
 40
0.9292452830188728
 40
0.9292452830188728
 40
0.9292452830188728
 40
0.9292452830188728
 40
0.9339622641509483
 40
0.9339622641509483
 40
0.9339622641509483
 40
0.9339622641509483
 40
0.9386792452830238
 40
0.9386792452830238
 40
0.9386792452830238
 40
0.9386792452830238
 40
0.9433962264150993
 40
0.9433962264150993
 40
0.9433962264150993
 40
0.9433962264150993
 40
0.9481132075471749
 40
0.9481132075471749
 40
0.9481132075471749
 40
0.9481132075471749
 40
0.9528301886792504
 40
0.9528301886792504
 40
0.9528301886792504
 40
0.9528301886792504
 40
0.9575471698113259
 40
0.9575471698113259
 40
0.9575471698113259
 40
0.9575471698113259
 40
0.9622641509434015
 40
0.9622641509434015
 40
0.9622641509434015
 40
0.9622641509434015
 40
0.966981132075477
 40
0.966981132075477
 40
0.966981132075477
 40
0.966981132075477
 40
0.9716981132075525
 40
0.9716981132075525
 40
0.9716981132075525
 40
0.9716981132075525
 40
0.976415094339628
 40
0.976415094339628
 40
0.976415094339628
 40
0.976415094339628
 40
0.9811320754717036
 40
0.9811320754717036
 40
0.9811320754717036
 40
0.9811320754717036
 40
0.9858490566037791
 40
0.9858490566037791
 40
0.9858490566037791
 40
0.9858490566037791
 40
0.9905660377358546
 40
0.9905660377358546
 40
0.9905660377358546
 40
0.9905660377358546
 40
0.9952830188679301
 40
0.9952830188679301
 40
0.9952830188679301
 40
0.9952830188679301
 40
1.0
 40
1.0
 40
1.0
 40
1.0
 10
3.6093
 20
49.7467
 30
0.0
 10
8.76
 20
46.1541
 30
0.0
 10
11.6327
 20
40.5394
 30
0.0
 10
12.7136
 20
33.5127
 30
0.0
 10
12.7136
 20
33.5127
 30
0.0
 10
13.7039
 20
27.0751
 30
0.0
 10
15.759
 20
21.335
 30
0.0
 10
18.9199
 20
16.299
 30
0.0
 10
18.9199
 20
16.299
 30
0.0
 10
21.8718
 20
26.2559
 30
0.0
 10
19.311
 20
43.4274
 30
0.0
 10
8.8645
 20
48.6545
 30
0.0
 10
8.8645
 20
48.6545
 30
0.0
 10
16.9121
 20
45.6754
 30
0.0
 10
21.2246
 20
40.7481
 30
0.0
 10
22.3233
 20
29.9103
 30
0.0
 10
22.3233
 20
29.9103
 30
0.0
 10
22.3233
 20
29.9103
 30
0.0
 10
22.548
 20
26.722
 30
0.0
 10
22.548
 20
26.722
 30
0.0
 10
22.548
 20
26.722
 30
0.0
 10
27.6954
 20
37.8881
 30
0.0
 10
27.2123
 20
54.3274
 30
0.0
 10
24.2677
 20
65.7101
 30
0.0
 10
24.2677
 20
65.7101
 30
0.0
 10
28.186
 20
57.8019
 30
0.0
 10
29.7354
 20
44.27
 30
0.0
 10
27.6942
 20
35.7474
 30
0.0
 10
27.6942
 20
35.7474
 30
0.0
 10
25.2143
 20
25.4055
 30
0.0
 10
21.0197
 20
15.1813
 30
0.0
 10
17.9416
 20
4.4236
 30
0.0
 10
17.9416
 20
4.4236
 30
0.0
 10
14.9043
 20
-6.1919
 30
0.0
 10
14.2123
 20
-17.4544
 30
0.0
 10
14.4408
 20
-28.713
 30
0.0
 10
14.4408
 20
-28.713
 30
0.0
 10
14.4408
 20
-28.713
 30
0.0
 10
17.7084
 20
-28.713
 30
0.0
 10
17.7084
 20
-28.713
 30
0.0
 10
17.7084
 20
-28.713
 30
0.0
 10
21.3534
 20
-26.1098
 30
0.0
 10
25.5906
 20
-25.4315
 30
0.0
 10
30.5998
 20
-25.9214
 30
0.0
 10
30.5998
 20
-25.9214
 30
0.0
 10
35.5807
 20
-26.4086
 30
0.0
 10
40.1608
 20
-24.6609
 30
0.0
 10
44.2984
 20
-21.6731
 30
0.0
 10
44.2984
 20
-21.6731
 30
0.0
 10
40.6021
 20
-21.6844
 30
0.0
 10
37.5515
 20
-20.7615
 30
0.0
 10
35.0215
 20
-19.0721
 30
0.0
 10
35.0215
 20
-19.0721
 30
0.0
 10
32.0439
 20
-17.0838
 30
0.0
 10
28.4681
 20
-16.8987
 30
0.0
 10
24.7042
 20
-17.5982
 30
0.0
 10
24.7042
 20
-17.5982
 30
0.0
 10
29.0865
 20
-13.9697
 30
0.0
 10
32.5622
 20
-9.1411
 30
0.0
 10
34.3279
 20
-2.6858
 30
0.0
 10
34.3279
 20
-2.6858
 30
0.0
 10
35.9976
 20
3.4186
 30
0.0
 10
39.3011
 20
8.179
 30
0.0
 10
44.8186
 20
11.4463
 30
0.0
 10
44.8186
 20
11.4463
 30
0.0
 10
29.1672
 20
15.2388
 30
0.0
 10
21.5618
 20
2.2092
 30
0.0
 10
20.6293
 20
-11.4425
 30
0.0
 10
20.6293
 20
-11.4425
 30
0.0
 10
24.4902
 20
-0.8815
 30
0.0
 10
29.6803
 20
4.1286
 30
0.0
 10
35.5047
 20
6.4899
 30
0.0
 10
35.5047
 20
6.4899
 30
0.0
 10
25.6668
 20
-0.9736
 30
0.0
 10
21.3851
 20
-10.7079
 30
0.0
 10
19.3105
 20
-22.6943
 30
0.0
 10
19.3105
 20
-22.6943
 30
0.0
 10
24.9805
 20
-19.2552
 30
0.0
 10
29.3833
 20
-19.896
 30
0.0
 10
33.2098
 20
-22.3912
 30
0.0
 10
33.2098
 20
-22.3912
 30
0.0
 10
29.6524
 20
-21.7933
 30
0.0
 10
26.2006
 20
-21.3195
 30
0.0
 10
23.2941
 20
-22.2613
 30
0.0
 10
23.2941
 20
-22.2613
 30
0.0
 10
21.2236
 20
-22.9322
 30
0.0
 10
19.3924
 20
-24.0655
 30
0.0
 10
17.7762
 20
-25.5001
 30
0.0
 10
17.7762
 20
-25.5001
 30
0.0
 10
18.2168
 20
-6.1325
 30
0.0
 10
20.1236
 20
23.1701
 30
0.0
 10
40.061
 20
33.3174
 30
0.0
 10
40.061
 20
33.3174
 30
0.0
 10
33.5919
 20
27.2767
 30
0.0
 10
28.4264
 20
19.7486
 30
0.0
 10
25.0619
 20
11.9892
 30
0.0
 10
25.0619
 20
11.9892
 30
0.0
 10
31.7486
 20
19.1812
 30
0.0
 10
40.8211
 20
18.1835
 30
0.0
 10
46.8994
 20
12.4
 30
0.0
 10
46.8994
 20
12.4
 30
0.0
 10
46.7209
 20
16.9613
 30
0.0
 10
45.2786
 20
20.0231
 30
0.0
 10
39.8557
 20
21.5029
 30
0.0
 10
39.8557
 20
21.5029
 30
0.0
 10
42.6289
 20
26.4971
 30
0.0
 10
48.8828
 20
28.9759
 30
0.0
 10
53.4309
 20
28.0533
 30
0.0
 10
53.4309
 20
28.0533
 30
0.0
 10
47.4549
 20
31.3943
 30
0.0
 10
38.8516
 20
24.2056
 30
0.0
 10
35.2453
 20
20.1519
 30
0.0
 10
35.2453
 20
20.1519
 30
0.0
 10
39.6798
 20
20.2495
 30
0.0
 10
42.8917
 20
19.0583
 30
0.0
 10
44.5111
 20
16.3623
 30
0.0
 10
44.5111
 20
16.3623
 30
0.0
 10
40.6886
 20
18.9139
 30
0.0
 10
35.6536
 20
19.7419
 30
0.0
 10
31.651
 20
18.7005
 30
0.0
 10
31.651
 20
18.7005
 30
0.0
 10
35.1904
 20
21.6443
 30
0.0
 10
38.8343
 20
24.5817
 30
0.0
 10
41.4373
 20
28.4395
 30
0.0
 10
41.4373
 20
28.4395
 30
0.0
 10
43.6331
 20
31.6937
 30
0.0
 10
45.6935
 20
34.9577
 30
0.0
 10
48.7201
 20
37.543
 30
0.0
 10
48.7201
 20
37.543
 30
0.0
 10
42.3707
 20
38.2896
 30
0.0
 10
35.0526
 20
35.21
 30
0.0
 10
27.8257
 20
24.6603
 30
0.0
 10
27.8257
 20
24.6603
 30
0.0
 10
31.4175
 20
32.8396
 30
0.0
 10
39.86
 20
43.0869
 30
0.0
 10
50.1569
 20
41.4116
 30
0.0
 10
50.1569
 20
41.4116
 30
0.0
 10
55.5884
 20
40.5279
 30
0.0
 10
58.9927
 20
36.9266
 30
0.0
 10
60.2674
 20
32.1353
 30
0.0
 10
60.2674
 20
32.1353
 30
0.0
 10
61.6819
 20
26.8183
 30
0.0
 10
61.1864
 20
22.7564
 30
0.0
 10
59.3558
 20
19.9854
 30
0.0
 10
59.3558
 20
19.9854
 30
0.0
 10
59.0715
 20
22.7829
 30
0.0
 10
56.7081
 20
24.9667
 30
0.0
 10
53.8357
 20
24.9667
 30
0.0
 10
53.8357
 20
24.9667
 30
0.0
 10
50.7717
 20
24.9667
 30
0.0
 10
48.2869
 20
22.4819
 30
0.0
 10
48.2869
 20
19.4179
 30
0.0
 10
48.2869
 20
19.4179
 30
0.0
 10
48.2869
 20
16.3539
 30
0.0
 10
50.7717
 20
13.8691
 30
0.0
 10
53.8357
 20
13.8691
 30
0.0
 10
53.8357
 20
13.8691
 30
0.0
 10
56.7264
 20
13.8691
 30
0.0
 10
59.1012
 20
16.0809
 30
0.0
 10
59.3606
 20
18.904
 30
0.0
 10
59.3606
 20
18.904
 30
0.0
 10
60.2561
 20
19.6723
 30
0.0
 10
61.1353
 20
21.051
 30
0.0
 10
61.8529
 20
23.9743
 30
0.0
 10
61.8529
 20
23.9743
 30
0.0
 10
62.1067
 20
20.7528
 30
0.0
 10
62.0256
 20
17.5473
 30
0.0
 10
61.8454
 20
14.8052
 30
0.0
 10
61.8454
 20
14.8052
 30
0.0
 10
59.0573
 20
14.5119
 30
0.0
 10
56.8835
 20
12.153
 30
0.0
 10
56.8835
 20
9.2873
 30
0.0
 10
56.8835
 20
9.2873
 30
0.0
 10
56.8835
 20
6.2233
 30
0.0
 10
59.3683
 20
3.7385
 30
0.0
 10
62.4323
 20
3.7385
 30
0.0
 10
62.4323
 20
3.7385
 30
0.0
 10
65.4963
 20
3.7385
 30
0.0
 10
67.9811
 20
6.2233
 30
0.0
 10
67.9811
 20
9.2873
 30
0.0
 10
67.9811
 20
9.2873
 30
0.0
 10
67.9811
 20
12.1766
 30
0.0
 10
65.7714
 20
14.5505
 30
0.0
 10
62.9502
 20
14.8118
 30
0.0
 10
62.9502
 20
14.8118
 30
0.0
 10
63.1861
 20
16.8105
 30
0.0
 10
63.3631
 20
19.0741
 30
0.0
 10
63.3938
 20
21.4348
 30
0.0
 10
63.3938
 20
21.4348
 30
0.0
 10
63.9427
 20
20.597
 30
0.0
 10
64.5766
 20
19.8996
 30
0.0
 10
65.281
 20
19.3188
 30
0.0
 10
65.281
 20
19.3188
 30
0.0
 10
66.0854
 20
17.2463
 30
0.0
 10
68.0991
 20
15.7765
 30
0.0
 10
70.4555
 20
15.7765
 30
0.0
 10
70.4555
 20
15.7765
 30
0.0
 10
73.5195
 20
15.7765
 30
0.0
 10
76.0043
 20
18.2613
 30
0.0
 10
76.0043
 20
21.3253
 30
0.0
 10
76.0043
 20
21.3253
 30
0.0
 10
76.0043
 20
24.3893
 30
0.0
 10
73.5195
 20
26.8741
 30
0.0
 10
70.4555
 20
26.8741
 30
0.0
 10
70.4555
 20
26.8741
 30
0.0
 10
67.3915
 20
26.8741
 30
0.0
 10
64.9067
 20
24.3893
 30
0.0
 10
64.9067
 20
21.3253
 30
0.0
 10
64.9067
 20
21.3253
 30
0.0
 10
64.9067
 20
21.1803
 30
0.0
 10
64.9124
 20
21.0366
 30
0.0
 10
64.9233
 20
20.8944
 30
0.0
 10
64.9233
 20
20.8944
 30
0.0
 10
64.1256
 20
21.9171
 30
0.0
 10
63.5118
 20
23.0598
 30
0.0
 10
63.3518
 20
24.3703
 30
0.0
 10
63.3518
 20
24.3703
 30
0.0
 10
62.1813
 20
33.953
 30
0.0
 10
59.6114
 20
44.1206
 30
0.0
 10
47.7634
 20
43.991
 30
0.0
 10
47.7634
 20
43.991
 30
0.0
 10
50.9458
 20
44.985
 30
0.0
 10
54.4493
 20
45.8529
 30
0.0
 10
57.9082
 20
44.918
 30
0.0
 10
57.9082
 20
44.918
 30
0.0
 10
64.1325
 20
43.2356
 30
0.0
 10
66.4951
 20
38.0612
 30
0.0
 10
65.7724
 20
30.9985
 30
0.0
 10
65.7724
 20
30.9985
 30
0.0
 10
67.5471
 20
35.4734
 30
0.0
 10
67.4787
 20
39.7606
 30
0.0
 10
64.1531
 20
43.3619
 30
0.0
 10
64.1531
 20
43.3619
 30
0.0
 10
73.9904
 20
39.6263
 30
0.0
 10
78.7873
 20
31.0498
 30
0.0
 10
78.6228
 20
21.1461
 30
0.0
 10
78.6228
 20
21.1461
 30
0.0
 10
78.5303
 20
15.5764
 30
0.0
 10
75.0246
 20
12.6602
 30
0.0
 10
69.5281
 20
12.8335
 30
0.0
 10
69.5281
 20
12.8335
 30
0.0
 10
72.8294
 20
11.1664
 30
0.0
 10
75.8102
 20
11.3156
 30
0.0
 10
78.3592
 20
13.9115
 30
0.0
 10
78.3592
 20
13.9115
 30
0.0
 10
78.2695
 20
13.1211
 30
0.0
 10
78.2842
 20
11.4622
 30
0.0
 10
77.9113
 20
10.7634
 30
0.0
 10
77.9113
 20
10.7634
 30
0.0
 10
75.489
 20
6.224
 30
0.0
 10
71.6041
 20
3.7131
 30
0.0
 10
66.5803
 20
3.0364
 30
0.0
 10
66.5803
 20
3.0364
 30
0.0
 10
68.401
 20
2.4505
 30
0.0
 10
70.2218
 20
2.3197
 30
0.0
 10
72.0424
 20
2.6029
 30
0.0
 10
72.0424
 20
2.6029
 30
0.0
 10
62.1443
 20
-1.9385
 30
0.0
 10
54.3754
 20
-0.4984
 30
0.0
 10
49.327
 20
8.5852
 30
0.0
 10
49.327
 20
8.5852
 30
0.0
 10
45.0261
 20
2.2963
 30
0.0
 10
46.3743
 20
-7.3733
 30
0.0
 10
55.1359
 20
-8.5814
 30
0.0
 10
55.1359
 20
-8.5814
 30
0.0
 10
48.4111
 20
-10.8692
 30
0.0
 10
41.5432
 20
-12.1547
 30
0.0
 10
34.588
 20
-12.8297
 30
0.0
 10
34.588
 20
-12.8297
 30
0.0
 10
39.8625
 20
-17.1481
 30
0.0
 10
47.6132
 20
-18.8802
 30
0.0
 10
58.0837
 20
-17.7716
 30
0.0
 10
58.0837
 20
-17.7716
 30
0.0
 10
53.9709
 20
-21.4606
 30
0.0
 10
49.1161
 20
-23.9475
 30
0.0
 10
43.7782
 20
-25.9214
 30
0.0
 10
43.7782
 20
-25.9214
 30
0.0
 10
52.5427
 20
-29.4298
 30
0.0
 10
61.5399
 20
-27.5576
 30
0.0
 10
65.9308
 20
-17.642
 30
0.0
 10
65.9308
 20
-17.642
 30
0.0
 10
62.8482
 20
-21.7005
 30
0.0
 10
58.9695
 20
-23.3041
 30
0.0
 10
55.1359
 20
-25.0544
 30
0.0
 10
55.1359
 20
-25.0544
 30
0.0
 10
62.6205
 20
-20.5422
 30
0.0
 10
68.0502
 20
-14.2166
 30
0.0
 10
71.6089
 20
-6.2405
 30
0.0
 10
71.6089
 20
-6.2405
 30
0.0
 10
65.5699
 20
-10.8219
 30
0.0
 10
59.4694
 20
-13.0013
 30
0.0
 10
53.3152
 20
-13.0898
 30
0.0
 10
53.3152
 20
-13.0898
 30
0.0
 10
60.9833
 20
-10.8392
 30
0.0
 10
68.4702
 20
-7.3258
 30
0.0
 10
73.3429
 20
-2.4257
 30
0.0
 10
73.3429
 20
-2.4257
 30
0.0
 10
67.842
 20
-4.1666
 30
0.0
 10
61.5889
 20
-4.8664
 30
0.0
 10
58.0727
 20
-2.8254
 30
0.0
 10
58.0727
 20
-2.8254
 30
0.0
 10
66.3353
 20
-3.5423
 30
0.0
 10
72.1095
 20
-1.5063
 30
0.0
 10
76.1633
 20
2.239
 30
0.0
 10
76.1633
 20
2.239
 30
0.0
 10
73.1617
 20
-9.9526
 30
0.0
 10
67.8948
 20
-22.4769
 30
0.0
 10
60.1182
 20
-32.2616
 30
0.0
 10
60.1182
 20
-32.2616
 30
0.0
 10
55.2775
 20
-38.3522
 30
0.0
 10
47.5065
 20
-40.2486
 30
0.0
 10
39.4432
 20
-38.0594
 30
0.0
 10
39.4432
 20
-38.0594
 30
0.0
 10
40.3885
 20
-40.6266
 30
0.0
 10
41.9423
 20
-42.4215
 30
0.0
 10
44.3851
 20
-43.088
 30
0.0
 10
44.3851
 20
-43.088
 30
0.0
 10
40.9918
 20
-44.7949
 30
0.0
 10
36.8735
 20
-45.5653
 30
0.0
 10
32.6161
 20
-45.6017
 30
0.0
 10
32.6161
 20
-45.6017
 30
0.0
 10
35.1029
 20
-49.6679
 30
0.0
 10
39.4682
 20
-49.4198
 30
0.0
 10
45.5122
 20
-47.3363
 30
0.0
 10
45.5122
 20
-47.3363
 30
0.0
 10
42.3766
 20
-47.7702
 30
0.0
 10
39.218
 20
-47.5001
 30
0.0
 10
37.8412
 20
-46.9682
 30
0.0
 10
37.8412
 20
-46.9682
 30
0.0
 10
42.1728
 20
-46.2231
 30
0.0
 10
46.0613
 20
-44.4939
 30
0.0
 10
49.0669
 20
-42.3077
 30
0.0
 10
49.0669
 20
-42.3077
 30
0.0
 10
46.9126
 20
-42.3791
 30
0.0
 10
45.0667
 20
-41.8244
 30
0.0
 10
43.3014
 20
-40.6711
 30
0.0
 10
43.3014
 20
-40.6711
 30
0.0
 10
47.429
 20
-41.3877
 30
0.0
 10
51.3736
 20
-40.5724
 30
0.0
 10
55.1682
 20
-38.5789
 30
0.0
 10
55.1682
 20
-38.5789
 30
0.0
 10
52.1934
 20
-42.0155
 30
0.0
 10
49.2179
 20
-45.3662
 30
0.0
 10
46.3957
 20
-48.9444
 30
0.0
 10
46.3957
 20
-48.9444
 30
0.0
 10
40.0817
 20
-56.9501
 30
0.0
 10
38.801
 20
-70.2795
 30
0.0
 10
29.7025
 20
-75.4337
 30
0.0
 10
29.7025
 20
-75.4337
 30
0.0
 10
36.0889
 20
-68.9702
 30
0.0
 10
37.9983
 20
-60.1783
 30
0.0
 10
42.5193
 20
-52.5713
 30
0.0
 10
42.5193
 20
-52.5713
 30
0.0
 10
37.0126
 20
-55.9903
 30
0.0
 10
33.1585
 20
-61.2453
 30
0.0
 10
30.5998
 20
-67.7108
 30
0.0
 10
30.5998
 20
-67.7108
 30
0.0
 10
28.4989
 20
-73.0195
 30
0.0
 10
25.7714
 20
-76.8565
 30
0.0
 10
22.472
 20
-79.8517
 30
0.0
 10
22.472
 20
-79.8517
 30
0.0
 10
28.3258
 20
-80.4537
 30
0.0
 10
32.7367
 20
-78.4113
 30
0.0
 10
36.1445
 20
-74.3749
 30
0.0
 10
36.1445
 20
-74.3749
 30
0.0
 10
34.7139
 20
-80.4707
 30
0.0
 10
31.719
 20
-85.479
 30
0.0
 10
26.8447
 20
-89.4629
 30
0.0
 10
26.8447
 20
-89.4629
 30
0.0
 10
30.1825
 20
-88.1127
 30
0.0
 10
32.9873
 20
-85.4882
 30
0.0
 10
35.8653
 20
-79.5911
 30
0.0
 10
35.8653
 20
-79.5911
 30
0.0
 10
35.9277
 20
-84.1993
 30
0.0
 10
36.4682
 20
-88.8667
 30
0.0
 10
37.1344
 20
-93.5931
 30
0.0
 10
37.1344
 20
-93.5931
 30
0.0
 10
37.5013
 20
-96.1957
 30
0.0
 10
37.2604
 20
-98.3964
 30
0.0
 10
36.5498
 20
-100.06
 30
0.0
 10
36.5498
 20
-100.06
 30
0.0
 10
36.2498
 20
-97.279
 30
0.0
 10
33.8943
 20
-95.1128
 30
0.0
 10
31.0336
 20
-95.1128
 30
0.0
 10
31.0336
 20
-95.1128
 30
0.0
 10
27.9696
 20
-95.1128
 30
0.0
 10
25.4848
 20
-97.5976
 30
0.0
 10
25.4848
 20
-100.6616
 30
0.0
 10
25.4848
 20
-100.6616
 30
0.0
 10
25.4848
 20
-103.7256
 30
0.0
 10
27.9696
 20
-106.2104
 30
0.0
 10
31.0336
 20
-106.2104
 30
0.0
 10
31.0336
 20
-106.2104
 30
0.0
 10
33.8585
 20
-106.2104
 30
0.0
 10
36.191
 20
-104.0982
 30
0.0
 10
36.5379
 20
-101.3674
 30
0.0
 10
36.5379
 20
-101.3674
 30
0.0
 10
37.2485
 20
-100.5985
 30
0.0
 10
37.777
 20
-99.5784
 30
0.0
 10
38.1228
 20
-98.2901
 30
0.0
 10
38.1228
 20
-98.2901
 30
0.0
 10
38.6329
 20
-100.4931
 30
0.0
 10
39.2047
 20
-102.6992
 30
0.0
 10
39.8192
 20
-104.9054
 30
0.0
 10
39.8192
 20
-104.9054
 30
0.0
 10
37.6446
 20
-105.6565
 30
0.0
 10
36.0823
 20
-107.7217
 30
0.0
 10
36.0823
 20
-110.1512
 30
0.0
 10
36.0823
 20
-110.1512
 30
0.0
 10
36.0823
 20
-113.2152
 30
0.0
 10
38.5671
 20
-115.7
 30
0.0
 10
41.6311
 20
-115.7
 30
0.0
 10
41.6311
 20
-115.7
 30
0.0
 10
44.6951
 20
-115.7
 30
0.0
 10
47.1799
 20
-113.2152
 30
0.0
 10
47.1799
 20
-110.1512
 30
0.0
 10
47.1799
 20
-110.1512
 30
0.0
 10
47.1799
 20
-107.0872
 30
0.0
 10
44.6951
 20
-104.6024
 30
0.0
 10
41.6311
 20
-104.6024
 30
0.0
 10
41.6311
 20
-104.6024
 30
0.0
 10
41.367
 20
-104.6024
 30
0.0
 10
41.1075
 20
-104.6214
 30
0.0
 10
40.8532
 20
-104.657
 30
0.0
 10
40.8532
 20
-104.657
 30
0.0
 10
40.2287
 20
-101.9697
 30
0.0
 10
39.6848
 20
-99.2808
 30
0.0
 10
39.2521
 20
-96.5945
 30
0.0
 10
39.2521
 20
-96.5945
 30
0.0
 10
40.7002
 20
-98.6206
 30
0.0
 10
42.0936
 20
-100.1522
 30
0.0
 10
43.4556
 20
-101.199
 30
0.0
 10
43.4556
 20
-101.199
 30
0.0
 10
44.429
 20
-102.8
 30
0.0
 10
46.1899
 20
-103.8695
 30
0.0
 10
48.2002
 20
-103.8695
 30
0.0
 10
48.2002
 20
-103.8695
 30
0.0
 10
51.2642
 20
-103.8695
 30
0.0
 10
53.749
 20
-101.3847
 30
0.0
 10
53.749
 20
-98.3207
 30
0.0
 10
53.749
 20
-98.3207
 30
0.0
 10
53.749
 20
-95.2567
 30
0.0
 10
51.2642
 20
-92.7719
 30
0.0
 10
48.2002
 20
-92.7719
 30
0.0
 10
48.2002
 20
-92.7719
 30
0.0
 10
45.1362
 20
-92.7719
 30
0.0
 10
42.6514
 20
-95.2567
 30
0.0
 10
42.6514
 20
-98.3207
 30
0.0
 10
42.6514
 20
-98.3207
 30
0.0
 10
42.6514
 20
-98.8414
 30
0.0
 10
42.7233
 20
-99.3454
 30
0.0
 10
42.8575
 20
-99.8233
 30
0.0
 10
42.8575
 20
-99.8233
 30
0.0
 10
40.6946
 20
-97.4911
 30
0.0
 10
39.1146
 20
-94.7236
 30
0.0
 10
38.5913
 20
-91.6789
 30
0.0
 10
38.5913
 20
-91.6789
 30
0.0
 10
38.0222
 20
-88.367
 30
0.0
 10
37.8302
 20
-85.0392
 30
0.0
 10
37.9706
 20
-81.7182
 30
0.0
 10
37.9706
 20
-81.7182
 30
0.0
 10
38.7473
 20
-84.8811
 30
0.0
 10
39.9027
 20
-87.9967
 30
0.0
 10
41.4368
 20
-91.065
 30
0.0
 10
41.4368
 20
-91.065
 30
0.0
 10
39.7569
 20
-84.5323
 30
0.0
 10
38.7897
 20
-78.4647
 30
0.0
 10
39.2251
 20
-72.3169
 30
0.0
 10
39.2251
 20
-72.3169
 30
0.0
 10
39.4702
 20
-68.8559
 30
0.0
 10
40.5905
 20
-65.3084
 30
0.0
 10
42.2277
 20
-61.8353
 30
0.0
 10
42.2277
 20
-61.8353
 30
0.0
 10
42.3025
 20
-62.5183
 30
0.0
 10
42.3915
 20
-63.2103
 30
0.0
 10
42.476
 20
-63.9159
 30
0.0
 10
42.476
 20
-63.9159
 30
0.0
 10
43.0008
 20
-68.3006
 30
0.0
 10
45.457
 20
-72.4005
 30
0.0
 10
49.1415
 20
-75.4995
 30
0.0
 10
49.1415
 20
-75.4995
 30
0.0
 10
52.2572
 20
-78.1201
 30
0.0
 10
55.2463
 20
-80.5933
 30
0.0
 10
56.3726
 20
-84.1595
 30
0.0
 10
56.3726
 20
-84.1595
 30
0.0
 10
54.4327
 20
-81.7774
 30
0.0
 10
52.1624
 20
-79.4517
 30
0.0
 10
49.2741
 20
-77.4255
 30
0.0
 10
49.2741
 20
-77.4255
 30
0.0
 10
45.5229
 20
-74.794
 30
0.0
 10
43.3305
 20
-71.6508
 30
0.0
 10
41.9131
 20
-68.3325
 30
0.0
 10
41.9131
 20
-68.3325
 30
0.0
 10
41.6318
 20
-74.2917
 30
0.0
 10
44.4581
 20
-79.3136
 30
0.0
 10
50.1073
 20
-83.4902
 30
0.0
 10
50.1073
 20
-83.4902
 30
0.0
 10
53.6976
 20
-86.1446
 30
0.0
 10
56.0761
 20
-90.1776
 30
0.0
 10
57.13
 20
-95.7149
 30
0.0
 10
57.13
 20
-95.7149
 30
0.0
 10
64.3366
 20
-88.409
 30
0.0
 10
58.295
 20
-79.9959
 30
0.0
 10
52.2185
 20
-74.7409
 30
0.0
 10
52.2185
 20
-74.7409
 30
0.0
 10
56.5485
 20
-75.9244
 30
0.0
 10
60.5321
 20
-75.4914
 30
0.0
 10
64.1693
 20
-73.4419
 30
0.0
 10
64.1693
 20
-73.4419
 30
0.0
 10
62.7606
 20
-75.6093
 30
0.0
 10
59.7302
 20
-76.4251
 30
0.0
 10
56.2454
 20
-76.8626
 30
0.0
 10
56.2454
 20
-76.8626
 30
0.0
 10
62.6577
 20
-78.6622
 30
0.0
 10
66.7793
 20
-76.5859
 30
0.0
 10
67.6766
 20
-69.1985
 30
0.0
 10
67.6766
 20
-69.1985
 30
0.0
 10
65.9581
 20
-70.6985
 30
0.0
 10
63.8942
 20
-71.7377
 30
0.0
 10
61.4847
 20
-72.3161
 30
0.0
 10
61.4847
 20
-72.3161
 30
0.0
 10
65.8302
 20
-68.8249
 30
0.0
 10
68.0145
 20
-64.3456
 30
0.0
 10
68.2276
 20
-58.7807
 30
0.0
 10
68.2276
 20
-58.7807
 30
0.0
 10
64.1188
 20
-77.6318
 30
0.0
 10
39.3244
 20
-72.2642
 30
0.0
 10
46.0016
 20
-55.1643
 30
0.0
 10
46.0016
 20
-55.1643
 30
0.0
 10
48.1111
 20
-49.7621
 30
0.0
 10
52.6288
 20
-46.2364
 30
0.0
 10
56.3868
 20
-42.0934
 30
0.0
 10
56.3868
 20
-42.0934
 30
0.0
 10
53.634
 20
-50.6184
 30
0.0
 10
54.6101
 20
-58.4327
 30
0.0
 10
58.2577
 20
-65.153
 30
0.0
 10
58.2577
 20
-65.153
 30
0.0
 10
59.2071
 20
-61.5673
 30
0.0
 10
60.3829
 20
-58.0871
 30
0.0
 10
62.4187
 20
-55.0526
 30
0.0
 10
62.4187
 20
-55.0526
 30
0.0
 10
64.1235
 20
-52.5115
 30
0.0
 10
65.6054
 20
-49.9302
 30
0.0
 10
66.8404
 20
-47.2496
 30
0.0
 10
66.8404
 20
-47.2496
 30
0.0
 10
68.1838
 20
-54.5928
 30
0.0
 10
72.6123
 20
-57.411
 30
0.0
 10
79.1518
 20
-57.1334
 30
0.0
 10
79.1518
 20
-57.1334
 30
0.0
 10
77.1901
 20
-53.7548
 30
0.0
 10
76.1379
 20
-50.3377
 30
0.0
 10
76.2907
 20
-46.9028
 30
0.0
 10
76.2907
 20
-46.9028
 30
0.0
 10
76.4451
 20
-43.4337
 30
0.0
 10
76.2225
 20
-39.8864
 30
0.0
 10
74.338
 20
-35.978
 30
0.0
 10
74.338
 20
-35.978
 30
0.0
 10
78.8991
 20
-38.131
 30
0.0
 10
83.3802
 20
-34.8362
 30
0.0
 10
85.741
 20
-30.95
 30
0.0
 10
85.741
 20
-30.95
 30
0.0
 10
79.6159
 20
-25.3754
 30
0.0
 10
74.5317
 20
-23.7039
 30
0.0
 10
68.8562
 20
-28.7077
 30
0.0
 10
68.8562
 20
-28.7077
 30
0.0
 10
73.5586
 20
-28.217
 30
0.0
 10
76.5191
 20
-29.5479
 30
0.0
 10
79.7587
 20
-31.4702
 30
0.0
 10
79.7587
 20
-31.4702
 30
0.0
 10
76.0813
 20
-31.9499
 30
0.0
 10
72.541
 20
-31.5381
 30
0.0
 10
69.0946
 20
-30.5165
 30
0.0
 10
69.0946
 20
-30.5165
 30
0.0
 10
71.7427
 20
-33.6625
 30
0.0
 10
72.682
 20
-37.1601
 30
0.0
 10
72.4759
 20
-41.0072
 30
0.0
 10
72.4759
 20
-41.0072
 30
0.0
 10
72.2734
 20
-44.7882
 30
0.0
 10
72.8831
 20
-48.6222
 30
0.0
 10
74.3194
 20
-52.4081
 30
0.0
 10
74.3194
 20
-52.4081
 30
0.0
 10
72.0376
 20
-50.3263
 30
0.0
 10
71.1099
 20
-47.336
 30
0.0
 10
71.0887
 20
-43.5215
 30
0.0
 10
71.0887
 20
-43.5215
 30
0.0
 10
71.0625
 20
-38.8079
 30
0.0
 10
70.1418
 20
-33.6097
 30
0.0
 10
66.9703
 20
-30.5825
 30
0.0
 10
66.9703
 20
-30.5825
 30
0.0
 10
62.2054
 20
-37.7219
 30
0.0
 10
59.2895
 20
-46.6204
 30
0.0
 10
58.2198
 20
-56.6465
 30
0.0
 10
58.2198
 20
-56.6465
 30
0.0
 10
56.6088
 20
-49.3824
 30
0.0
 10
57.9804
 20
-41.553
 30
0.0
 10
61.9924
 20
-35.2428
 30
0.0
 10
61.9924
 20
-35.2428
 30
0.0
 10
67.5598
 20
-26.4862
 30
0.0
 10
72.4436
 20
-16.9565
 30
0.0
 10
76.1067
 20
-7.1403
 30
0.0
 10
76.1067
 20
-7.1403
 30
0.0
 10
76.5155
 20
-14.4078
 30
0.0
 10
79.387
 20
-20.0043
 30
0.0
 10
88.0819
 20
-22.1066
 30
0.0
 10
88.0819
 20
-22.1066
 30
0.0
 10
80.4173
 20
-7.8109
 30
0.0
 10
91.7874
 20
13.0089
 30
0.0
 10
82.273
 20
28.7863
 30
0.0
 10
82.273
 20
28.7863
 30
0.0
 10
83.6942
 20
19.6354
 30
0.0
 10
83.0238
 20
10.9867
 30
0.0
 10
81.7087
 20
2.3862
 30
0.0
 10
81.7087
 20
2.3862
 30
0.0
 10
80.8699
 20
-3.0997
 30
0.0
 10
80.6029
 20
-9.6634
 30
0.0
 10
82.8157
 20
-14.4761
 30
0.0
 10
82.8157
 20
-14.4761
 30
0.0
 10
78.301
 20
-9.5543
 30
0.0
 10
78.8826
 20
-1.7602
 30
0.0
 10
79.9175
 20
4.8832
 30
0.0
 10
79.9175
 20
4.8832
 30
0.0
 10
82.5803
 20
21.98
 30
0.0
 10
83.6377
 20
43.0953
 30
0.0
 10
61.465
 20
48.1204
 30
0.0
 10
61.465
 20
48.1204
 30
0.0
 10
48.4365
 20
51.0732
 30
0.0
 10
38.4515
 20
43.7803
 30
0.0
 10
30.847
 20
34.4568
 30
0.0
 10
30.847
 20
34.4568
 30
0.0
 10
34.6766
 20
42.7698
 30
0.0
 10
37.1025
 20
52.5646
 30
0.0
 10
38.1243
 20
63.8416
 30
0.0
 10
38.1243
 20
63.8416
 30
0.0
 10
38.4743
 20
69.6903
 30
0.0
 10
37.8907
 20
74.5205
 30
0.0
 10
36.6154
 20
78.5961
 30
0.0
 10
36.6154
 20
78.5961
 30
0.0
 10
39.9399
 20
74.1308
 30
0.0
 10
40.2719
 20
65.2004
 30
0.0
 10
39.7327
 20
58.2244
 30
0.0
 10
39.7327
 20
58.2244
 30
0.0
 10
43.4521
 20
63.999
 30
0.0
 10
51.9911
 20
76.9994
 30
0.0
 10
52.7712
 20
86.9695
 30
0.0
 10
52.7712
 20
86.9695
 30
0.0
 10
53.7296
 20
73.0898
 30
0.0
 10
44.557
 20
64.9488
 30
0.0
 10
39.0307
 20
53.6029
 30
0.0
 10
39.0307
 20
53.6029
 30
0.0
 10
45.9739
 20
59.6619
 30
0.0
 10
52.5662
 20
61.4089
 30
0.0
 10
60.9464
 20
59.1498
 30
0.0
 10
60.9464
 20
59.1498
 30
0.0
 10
50.1901
 20
59.9556
 30
0.0
 10
38.0636
 20
51.6904
 30
0.0
 10
35.6652
 20
43.232
 30
0.0
 10
35.6652
 20
43.232
 30
0.0
 10
44.012
 20
52.9332
 30
0.0
 10
54.5683
 20
57.9165
 30
0.0
 10
68.6874
 20
55.2933
 30
0.0
 10
68.6874
 20
55.2933
 30
0.0
 10
64.9745
 20
64.1082
 30
0.0
 10
58.6654
 20
66.7334
 30
0.0
 10
52.6381
 20
65.4074
 30
0.0
 10
52.6381
 20
65.4074
 30
0.0
 10
56.2085
 20
68.8941
 30
0.0
 10
61.7523
 20
69.9685
 30
0.0
 10
68.6902
 20
69.3394
 30
0.0
 10
68.6902
 20
69.3394
 30
0.0
 10
62.7289
 20
71.5043
 30
0.0
 10
57.4626
 20
71.1327
 30
0.0
 10
52.9479
 20
69.0565
 30
0.0
 10
52.9479
 20
69.0565
 30
0.0
 10
58.4363
 20
77.2349
 30
0.0
 10
56.5033
 20
86.7235
 30
0.0
 10
51.1987
 20
94.6114
 30
0.0
 10
51.1987
 20
94.6114
 30
0.0
 10
51.3962
 20
86.662
 30
0.0
 10
49.1343
 20
80.4828
 30
0.0
 10
45.4423
 20
75.0946
 30
0.0
 10
45.4423
 20
75.0946
 30
0.0
 10
46.5003
 20
83.0139
 30
0.0
 10
44.3061
 20
89.5094
 30
0.0
 10
38.4393
 20
95.8837
 30
0.0
 10
38.4393
 20
95.8837
 30
0.0
 10
43.735
 20
87.9731
 30
0.0
 10
44.8087
 20
79.7023
 30
0.0
 10
42.6603
 20
71.3788
 30
0.0
 10
42.6603
 20
71.3788
 30
0.0
 10
42.1578
 20
78.1823
 30
0.0
 10
38.4417
 20
84.3916
 30
0.0
 10
31.5667
 20
88.0813
 30
0.0
 10
31.5667
 20
88.0813
 30
0.0
 10
35.3888
 20
76.8494
 30
0.0
 10
35.7527
 20
63.1275
 30
0.0
 10
33.4632
 20
50.877
 30
0.0
 10
33.4632
 20
50.877
 30
0.0
 10
33.8564
 20
57.7871
 30
0.0
 10
33.3289
 20
64.7265
 30
0.0
 10
31.7269
 20
71.6161
 30
0.0
 10
31.7269
 20
71.6161
 30
0.0
 10
30.7832
 20
75.6745
 30
0.0
 10
29.1651
 20
79.58
 30
0.0
 10
27.2469
 20
83.4306
 30
0.0
 10
27.2469
 20
83.4306
 30
0.0
 10
23.8958
 20
90.1571
 30
0.0
 10
22.8158
 20
97.3429
 30
0.0
 10
27.751
 20
103.9283
 30
0.0
 10
27.751
 20
103.9283
 30
0.0
 10
24.3883
 20
97.4414
 30
0.0
 10
25.5076
 20
89.0351
 30
0.0
 10
29.1076
 20
82.6947
 30
0.0
 10
29.1076
 20
82.6947
 30
0.0
 10
27.1318
 20
91.6688
 30
0.0
 10
27.7425
 20
101.3918
 30
0.0
 10
31.918
 20
109.0422
 30
0.0
 10
31.918
 20
109.0422
 30
0.0
 10
22.2382
 20
107.0012
 30
0.0
 10
20.4982
 20
98.7165
 30
0.0
 10
22.8899
 20
91.0647
 30
0.0
 10
22.8899
 20
91.0647
 30
0.0
 10
20.2613
 20
95.1468
 30
0.0
 10
17.3241
 20
99.1052
 30
0.0
 10
14.3606
 20
102.9499
 30
0.0
 10
14.3606
 20
102.9499
 30
0.0
 10
13.3493
 20
104.262
 30
0.0
 10
13.2426
 20
106.0663
 30
0.0
 10
13.0233
 20
107.6554
 30
0.0
 10
13.0233
 20
107.6554
 30
0.0
 10
14.024
 20
106.2032
 30
0.0
 10
15.6985
 20
105.2509
 30
0.0
 10
17.5951
 20
105.2509
 30
0.0
 10
17.5951
 20
105.2509
 30
0.0
 10
20.6591
 20
105.2509
 30
0.0
 10
23.1439
 20
107.7357
 30
0.0
 10
23.1439
 20
110.7997
 30
0.0
 10
23.1439
 20
110.7997
 30
0.0
 10
23.1439
 20
113.8637
 30
0.0
 10
20.6591
 20
116.3485
 30
0.0
 10
17.5951
 20
116.3485
 30
0.0
 10
17.5951
 20
116.3485
 30
0.0
 10
14.5311
 20
116.3485
 30
0.0
 10
12.0463
 20
113.8637
 30
0.0
 10
12.0463
 20
110.7997
 30
0.0
 10
12.0463
 20
110.7997
 30
0.0
 10
12.0463
 20
110.6702
 30
0.0
 10
12.051
 20
110.5419
 30
0.0
 10
12.0598
 20
110.4146
 30
0.0
 10
12.0598
 20
110.4146
 30
0.0
 10
11.6963
 20
108.9883
 30
0.0
 10
11.6246
 20
107.4496
 30
0.0
 10
11.9578
 20
105.8008
 30
0.0
 10
11.9578
 20
105.8008
 30
0.0
 10
10.5124
 20
107.4801
 30
0.0
 10
9.0528
 20
109.1168
 30
0.0
 10
7.6009
 20
110.7069
 30
0.0
 10
7.6009
 20
110.7069
 30
0.0
 10
8.4701
 20
111.6865
 30
0.0
 10
8.9985
 20
112.9755
 30
0.0
 10
8.9985
 20
114.3879
 30
0.0
 10
8.9985
 20
114.3879
 30
0.0
 10
8.9985
 20
117.4519
 30
0.0
 10
6.5137
 20
119.9367
 30
0.0
 10
3.4497
 20
119.9367
 30
0.0
 10
3.4497
 20
119.9367
 30
0.0
 10
0.3857
 20
119.9367
 30
0.0
 10
-2.0991
 20
117.4519
 30
0.0
 10
-2.0991
 20
114.3879
 30
0.0
 10
-2.0991
 20
114.3879
 30
0.0
 10
-2.0991
 20
111.3239
 30
0.0
 10
0.3857
 20
108.8391
 30
0.0
 10
3.4497
 20
108.8391
 30
0.0
 10
3.4497
 20
108.8391
 30
0.0
 10
4.7376
 20
108.8391
 30
0.0
 10
5.9232
 20
109.2781
 30
0.0
 10
6.8648
 20
110.0147
 30
0.0
 10
6.8648
 20
110.0147
 30
0.0
 10
8.5423
 20
108.0601
 30
0.0
 10
10.2175
 20
106.0324
 30
0.0
 10
11.8564
 20
103.9414
 30
0.0
 10
11.8564
 20
103.9414
 30
0.0
 10
10.0226
 20
104.9301
 30
0.0
 10
8.1043
 20
105.4425
 30
0.0
 10
6.2953
 20
105.4937
 30
0.0
 10
6.2953
 20
105.4937
 30
0.0
 10
5.4291
 20
106.0531
 30
0.0
 10
4.3972
 20
106.378
 30
0.0
 10
3.2896
 20
106.378
 30
0.0
 10
3.2896
 20
106.378
 30
0.0
 10
0.2256
 20
106.378
 30
0.0
 10
-2.2592
 20
103.8932
 30
0.0
 10
-2.2592
 20
100.8292
 30
0.0
 10
-2.2592
 20
100.8292
 30
0.0
 10
-2.2592
 20
97.7652
 30
0.0
 10
0.2256
 20
95.2804
 30
0.0
 10
3.2896
 20
95.2804
 30
0.0
 10
3.2896
 20
95.2804
 30
0.0
 10
6.3536
 20
95.2804
 30
0.0
 10
8.8384
 20
97.7652
 30
0.0
 10
8.8384
 20
100.8292
 30
0.0
 10
8.8384
 20
100.8292
 30
0.0
 10
8.8384
 20
102.2178
 30
0.0
 10
8.3281
 20
103.4875
 30
0.0
 10
7.4847
 20
104.4608
 30
0.0
 10
7.4847
 20
104.4608
 30
0.0
 10
9.8142
 20
103.7603
 30
0.0
 10
12.7362
 20
102.5951
 30
0.0
 10
15.2062
 20
99.4981
 30
0.0
 10
15.2062
 20
99.4981
 30
0.0
 10
19.093
 20
94.6246
 30
0.0
 10
22.3892
 20
89.2411
 30
0.0
 10
24.9016
 20
83.6433
 30
0.0
 10
24.9016
 20
83.6433
 30
0.0
 10
21.0499
 20
88.6101
 30
0.0
 10
16.1052
 20
91.4231
 30
0.0
 10
12.0837
 20
91.6779
 30
0.0
 10
12.0837
 20
91.6779
 30
0.0
 10
15.0655
 20
92.4008
 30
0.0
 10
17.6993
 20
91.8575
 30
0.0
 10
20.4277
 20
89.6974
 30
0.0
 10
20.4277
 20
89.6974
 30
0.0
 10
17.8964
 20
94.2681
 30
0.0
 10
9.9203
 20
96.0519
 30
0.0
 10
7.2067
 20
89.6389
 30
0.0
 10
7.2067
 20
89.6389
 30
0.0
 10
27.0084
 20
91.6516
 30
0.0
 10
31.7668
 20
67.4013
 30
0.0
 10
30.3554
 20
52.9447
 30
0.0
 10
30.3554
 20
52.9447
 30
0.0
 10
29.4775
 20
62.4592
 30
0.0
 10
27.0135
 20
72.7893
 30
0.0
 10
18.4515
 20
77.6594
 30
0.0
 10
18.4515
 20
77.6594
 30
0.0
 10
22.1134
 20
69.8854
 30
0.0
 10
22.9598
 20
59.3007
 30
0.0
 10
21.6937
 20
47.5353
 30
0.0
 10
21.6937
 20
47.5353
 30
0.0
 10
19.3302
 20
53.5166
 30
0.0
 10
15.3803
 20
58.9171
 30
0.0
 10
10.6284
 20
62.6698
 30
0.0
 10
10.6284
 20
62.6698
 30
0.0
 10
15.2071
 20
56.6834
 30
0.0
 10
18.5124
 20
50.4803
 30
0.0
 10
20.3719
 20
44.0312
 30
0.0
 10
20.3719
 20
44.0312
 30
0.0
 10
16.8517
 20
48.9745
 30
0.0
 10
10.8287
 20
51.8068
 30
0.0
 10
3.6093
 20
49.7467
 30
0.0
  0
ENDSEC
  0
SECTION
  2
OBJECTS
  0
DICTIONARY
  5
C
330
0
100
AcDbDictionary
281
     1
  3
ACAD_GROUP
350
D
  3
ACAD_LAYOUT
350
1A
  3
ACAD_MLEADERSTYLE
350
7D
  3
ACAD_MLINESTYLE
350
17
  3
ACAD_PLOTSETTINGS
350
19
  3
ACAD_PLOTSTYLENAME
350
E
  3
ACAD_SCALELIST
350
3B
  3
ACAD_TABLESTYLE
350
7C
  3
ACAD_VISUALSTYLE
350
2A
  0
DICTIONARY
  5
D
102
{ACAD_REACTORS
330
C
102
}
330
C
100
AcDbDictionary
281
     1
  0
DICTIONARY
  5
1A
102
{ACAD_REACTORS
330
C
102
}
330
C
100
AcDbDictionary
281
     1
  3
Layout1
350
1E
  3
Layout2
350
26
  3
Model
350
22
  0
DICTIONARY
  5
7D
102
{ACAD_REACTORS
330
C
102
}
330
C
100
AcDbDictionary
281
     1
  0
DICTIONARY
  5
17
102
{ACAD_REACTORS
330
C
102
}
330
C
100
AcDbDictionary
281
     1
  3
Standard
350
18
  0
DICTIONARY
  5
19
102
{ACAD_REACTORS
330
C
102
}
330
C
100
AcDbDictionary
281
     1
  0
ACDBDICTIONARYWDFLT
  5
E
102
{ACAD_REACTORS
330
C
102
}
330
C
100
AcDbDictionary
281
     1
  3
Normal
350
F
100
AcDbDictionaryWithDefault
340
F
  0
DICTIONARY
  5
3B
102
{ACAD_REACTORS
330
C
102
}
330
C
100
AcDbDictionary
281
     1
  3
A0
350
3C
  3
A1
350
3D
  3
A2
350
3E
  3
A3
350
3F
  3
A4
350
40
  3
A5
350
41
  3
A6
350
42
  3
A7
350
43
  3
A8
350
44
  3
A9
350
45
  3
B0
350
46
  3
B1
350
47
  3
B2
350
48
  3
B3
350
49
  3
B4
350
4A
  3
B5
350
4B
  3
B6
350
4C
  3
B7
350
4D
  3
B8
350
4E
  3
B9
350
4F
  3
C0
350
50
  3
C1
350
51
  3
C2
350
52
  3
C3
350
53
  3
C4
350
54
  3
C5
350
55
  3
C6
350
56
  3
C7
350
57
  3
C8
350
58
  3
C9
350
59
  3
D0
350
5A
  3
D1
350
5B
  3
D2
350
5C
  0
DICTIONARY
  5
7C
102
{ACAD_REACTORS
330
C
102
}
330
C
100
AcDbDictionary
281
     1
  0
DICTIONARY
  5
2A
102
{ACAD_REACTORS
330
C
102
}
330
C
100
AcDbDictionary
281
     1
  3
2dWireframe
350
2F
  3
3D Hidden
350
31
  3
3dWireframe
350
30
  3
Basic
350
32
  3
Brighten
350
36
  3
ColorChange
350
3A
  3
Conceptual
350
34
  3
Dim
350
35
  3
Facepattern
350
39
  3
Flat
350
2B
  3
FlatWithEdges
350
2C
  3
Gouraud
350
2D
  3
GouraudWithEdges
350
2E
  3
Linepattern
350
38
  3
Realistic
350
33
  3
Thicken
350
37
  0
LAYOUT
  5
1E
102
{ACAD_REACTORS
330
1A
102
}
330
1A
100
AcDbPlotSettings
  1

  2
none_device
  4

  6

 40
0.0
 41
0.0
 42
0.0
 43
0.0
 44
0.0
 45
0.0
 46
0.0
 47
0.0
 48
0.0
 49
0.0
140
0.0
141
0.0
142
1.0
143
1.0
 70
   688
 72
     0
 73
     0
 74
     5
  7

 75
    16
 76
     0
 77
     2
 78
   300
147
1.0
148
0.0
149
0.0
100
AcDbLayout
  1
Layout1
 70
     1
 71
     1
 10
0.0
 20
0.0
 11
12.0
 21
9.0
 12
0.0
 22
0.0
 32
0.0
 14
1.000000000000000E+20
 24
1.000000000000000E+20
 34
1.000000000000000E+20
 15
-1.000000000000000E+20
 25
-1.000000000000000E+20
 35
-1.000000000000000E+20
146
0.0
 13
0.0
 23
0.0
 33
0.0
 16
1.0
 26
0.0
 36
0.0
 17
0.0
 27
1.0
 37
0.0
 76
     0
330
1B
  0
LAYOUT
  5
26
102
{ACAD_REACTORS
330
1A
102
}
330
1A
100
AcDbPlotSettings
  1

  2
none_device
  4

  6

 40
0.0
 41
0.0
 42
0.0
 43
0.0
 44
0.0
 45
0.0
 46
0.0
 47
0.0
 48
0.0
 49
0.0
140
0.0
141
0.0
142
1.0
143
1.0
 70
   688
 72
     0
 73
     0
 74
     5
  7

 75
    16
 76
     0
 77
     2
 78
   300
147
1.0
148
0.0
149
0.0
100
AcDbLayout
  1
Layout2
 70
     1
 71
     2
 10
0.0
 20
0.0
 11
0.0
 21
0.0
 12
0.0
 22
0.0
 32
0.0
 14
0.0
 24
0.0
 34
0.0
 15
0.0
 25
0.0
 35
0.0
146
0.0
 13
0.0
 23
0.0
 33
0.0
 16
1.0
 26
0.0
 36
0.0
 17
0.0
 27
1.0
 37
0.0
 76
     0
330
23
  0
LAYOUT
  5
22
102
{ACAD_REACTORS
330
1A
102
}
330
1A
100
AcDbPlotSettings
  1

  2
none_device
  4

  6

 40
0.0
 41
0.0
 42
0.0
 43
0.0
 44
0.0
 45
0.0
 46
0.0
 47
0.0
 48
0.0
 49
0.0
140
0.0
141
0.0
142
1.0
143
1.0
 70
  1712
 72
     0
 73
     0
 74
     0
  7

 75
     0
 76
     0
 77
     2
 78
   300
147
1.0
148
0.0
149
0.0
100
AcDbLayout
  1
Model
 70
     1
 71
     0
 10
0.0
 20
0.0
 11
12.0
 21
9.0
 12
0.0
 22
0.0
 32
0.0
 14
-87.4173
 24
-133.7929
 34
0.0
 15
94.5161
 25
132.7409
 35
0.0
146
0.0
 13
0.0
 23
0.0
 33
0.0
 16
1.0
 26
0.0
 36
0.0
 17
0.0
 27
1.0
 37
0.0
 76
     0
330
1F
331
29
  0
MLINESTYLE
  5
18
102
{ACAD_REACTORS
330
17
102
}
330
17
100
AcDbMlineStyle
  2
Standard
 70
     0
  3

 62
   256
 51
90.0
 52
90.0
 71
     2
 49
0.5
 62
   256
  6
BYLAYER
 49
-0.5
 62
   256
  6
BYLAYER
  0
ACDBPLACEHOLDER
  5
F
102
{ACAD_REACTORS
330
E
102
}
330
E
  0
SCALE
  5
3C
102
{ACAD_REACTORS
330
3B
102
}
330
3B
100
AcDbScale
 70
     0
300
1:1
140
1.0
141
1.0
290
     1
  0
SCALE
  5
3D
102
{ACAD_REACTORS
330
3B
102
}
330
3B
100
AcDbScale
 70
     0
300
1:2
140
1.0
141
2.0
290
     0
  0
SCALE
  5
3E
102
{ACAD_REACTORS
330
3B
102
}
330
3B
100
AcDbScale
 70
     0
300
1:4
140
1.0
141
4.0
290
     0
  0
SCALE
  5
3F
102
{ACAD_REACTORS
330
3B
102
}
330
3B
100
AcDbScale
 70
     0
300
1:5
140
1.0
141
5.0
290
     0
  0
SCALE
  5
40
102
{ACAD_REACTORS
330
3B
102
}
330
3B
100
AcDbScale
 70
     0
300
1:8
140
1.0
141
8.0
290
     0
  0
SCALE
  5
41
102
{ACAD_REACTORS
330
3B
102
}
330
3B
100
AcDbScale
 70
     0
300
1:10
140
1.0
141
10.0
290
     0
  0
SCALE
  5
42
102
{ACAD_REACTORS
330
3B
102
}
330
3B
100
AcDbScale
 70
     0
300
1:16
140
1.0
141
16.0
290
     0
  0
SCALE
  5
43
102
{ACAD_REACTORS
330
3B
102
}
330
3B
100
AcDbScale
 70
     0
300
1:20
140
1.0
141
20.0
290
     0
  0
SCALE
  5
44
102
{ACAD_REACTORS
330
3B
102
}
330
3B
100
AcDbScale
 70
     0
300
1:30
140
1.0
141
30.0
290
     0
  0
SCALE
  5
45
102
{ACAD_REACTORS
330
3B
102
}
330
3B
100
AcDbScale
 70
     0
300
1:40
140
1.0
141
40.0
290
     0
  0
SCALE
  5
46
102
{ACAD_REACTORS
330
3B
102
}
330
3B
100
AcDbScale
 70
     0
300
1:50
140
1.0
141
50.0
290
     0
  0
SCALE
  5
47
102
{ACAD_REACTORS
330
3B
102
}
330
3B
100
AcDbScale
 70
     0
300
1:100
140
1.0
141
100.0
290
     0
  0
SCALE
  5
48
102
{ACAD_REACTORS
330
3B
102
}
330
3B
100
AcDbScale
 70
     0
300
2:1
140
2.0
141
1.0
290
     0
  0
SCALE
  5
49
102
{ACAD_REACTORS
330
3B
102
}
330
3B
100
AcDbScale
 70
     0
300
4:1
140
4.0
141
1.0
290
     0
  0
SCALE
  5
4A
102
{ACAD_REACTORS
330
3B
102
}
330
3B
100
AcDbScale
 70
     0
300
8:1
140
8.0
141
1.0
290
     0
  0
SCALE
  5
4B
102
{ACAD_REACTORS
330
3B
102
}
330
3B
100
AcDbScale
 70
     0
300
10:1
140
10.0
141
1.0
290
     0
  0
SCALE
  5
4C
102
{ACAD_REACTORS
330
3B
102
}
330
3B
100
AcDbScale
 70
     0
300
100:1
140
100.0
141
1.0
290
     0
  0
SCALE
  5
4D
102
{ACAD_REACTORS
330
3B
102
}
330
3B
100
AcDbScale
 70
     0
300
1/128" = 1'-0"
140
0.0078125
141
12.0
290
     0
  0
SCALE
  5
4E
102
{ACAD_REACTORS
330
3B
102
}
330
3B
100
AcDbScale
 70
     0
300
1/64" = 1'-0"
140
0.015625
141
12.0
290
     0
  0
SCALE
  5
4F
102
{ACAD_REACTORS
330
3B
102
}
330
3B
100
AcDbScale
 70
     0
300
1/32" = 1'-0"
140
0.03125
141
12.0
290
     0
  0
SCALE
  5
50
102
{ACAD_REACTORS
330
3B
102
}
330
3B
100
AcDbScale
 70
     0
300
1/16" = 1'-0"
140
0.0625
141
12.0
290
     0
  0
SCALE
  5
51
102
{ACAD_REACTORS
330
3B
102
}
330
3B
100
AcDbScale
 70
     0
300
3/32" = 1'-0"
140
0.09375
141
12.0
290
     0
  0
SCALE
  5
52
102
{ACAD_REACTORS
330
3B
102
}
330
3B
100
AcDbScale
 70
     0
300
1/8" = 1'-0"
140
0.125
141
12.0
290
     0
  0
SCALE
  5
53
102
{ACAD_REACTORS
330
3B
102
}
330
3B
100
AcDbScale
 70
     0
300
3/16" = 1'-0"
140
0.1875
141
12.0
290
     0
  0
SCALE
  5
54
102
{ACAD_REACTORS
330
3B
102
}
330
3B
100
AcDbScale
 70
     0
300
1/4" = 1'-0"
140
0.25
141
12.0
290
     0
  0
SCALE
  5
55
102
{ACAD_REACTORS
330
3B
102
}
330
3B
100
AcDbScale
 70
     0
300
3/8" = 1'-0"
140
0.375
141
12.0
290
     0
  0
SCALE
  5
56
102
{ACAD_REACTORS
330
3B
102
}
330
3B
100
AcDbScale
 70
     0
300
1/2" = 1'-0"
140
0.5
141
12.0
290
     0
  0
SCALE
  5
57
102
{ACAD_REACTORS
330
3B
102
}
330
3B
100
AcDbScale
 70
     0
300
3/4" = 1'-0"
140
0.75
141
12.0
290
     0
  0
SCALE
  5
58
102
{ACAD_REACTORS
330
3B
102
}
330
3B
100
AcDbScale
 70
     0
300
1" = 1'-0"
140
1.0
141
12.0
290
     0
  0
SCALE
  5
59
102
{ACAD_REACTORS
330
3B
102
}
330
3B
100
AcDbScale
 70
     0
300
1-1/2" = 1'-0"
140
1.5
141
12.0
290
     0
  0
SCALE
  5
5A
102
{ACAD_REACTORS
330
3B
102
}
330
3B
100
AcDbScale
 70
     0
300
3" = 1'-0"
140
3.0
141
12.0
290
     0
  0
SCALE
  5
5B
102
{ACAD_REACTORS
330
3B
102
}
330
3B
100
AcDbScale
 70
     0
300
6" = 1'-0"
140
6.0
141
12.0
290
     0
  0
SCALE
  5
5C
102
{ACAD_REACTORS
330
3B
102
}
330
3B
100
AcDbScale
 70
     0
300
1'-0" = 1'-0"
140
12.0
141
12.0
290
     0
  0
VISUALSTYLE
  5
2F
102
{ACAD_REACTORS
330
2A
102
}
330
2A
100
AcDbVisualStyle
  2
2dWireframe
 70
     4
 71
     0
 72
     2
 73
     0
 90
        0
 40
-0.6
 41
-30.0
 62
     5
 63
     7
421
 16777215
 74
     1
 91
        4
 64
     7
 65
   257
 75
     1
175
     1
 42
1.0
 92
        0
 66
   257
 43
1.0
 76
     1
 77
     6
 78
     2
 67
     7
 79
     5
170
     0
171
     0
290
     0
174
     0
 93
        1
 44
0.0
173
     0
291
     0
 45
0.0
  0
VISUALSTYLE
  5
31
102
{ACAD_REACTORS
330
2A
102
}
330
2A
100
AcDbVisualStyle
  2
3D Hidden
 70
     6
 71
     1
 72
     2
 73
     2
 90
        0
 40
-0.6
 41
-30.0
 62
     5
 63
     7
421
 16777215
 74
     2
 91
        2
 64
     7
 65
   257
 75
     2
175
     1
 42
40.0
 92
        0
 66
   257
 43
1.0
 76
     1
 77
     6
 78
     2
 67
     7
 79
     3
170
     0
171
     0
290
     0
174
     0
 93
        1
 44
0.0
173
     0
291
     0
 45
0.0
  0
VISUALSTYLE
  5
30
102
{ACAD_REACTORS
330
2A
102
}
330
2A
100
AcDbVisualStyle
  2
3dWireframe
 70
     5
 71
     0
 72
     2
 73
     0
 90
        0
 40
-0.6
 41
-30.0
 62
     5
 63
     7
421
 16777215
 74
     1
 91
        4
 64
     7
 65
   257
 75
     1
175
     1
 42
1.0
 92
        0
 66
   257
 43
1.0
 76
     1
 77
     6
 78
     2
 67
     7
 79
     5
170
     0
171
     0
290
     0
174
     0
 93
        1
 44
0.0
173
     0
291
     0
 45
0.0
  0
VISUALSTYLE
  5
32
102
{ACAD_REACTORS
330
2A
102
}
330
2A
100
AcDbVisualStyle
  2
Basic
 70
     7
 71
     1
 72
     0
 73
     1
 90
        0
 40
-0.6
 41
-30.0
 62
     5
 63
     7
421
 16777215
 74
     0
 91
        4
 64
     7
 65
   257
 75
     1
175
     1
 42
1.0
 92
        8
 66
     7
 43
1.0
 76
     1
 77
     6
 78
     2
 67
     7
 79
     5
170
     0
171
     0
290
     0
174
     0
 93
        1
 44
0.0
173
     0
291
     1
 45
0.0
  0
VISUALSTYLE
  5
36
102
{ACAD_REACTORS
330
2A
102
}
330
2A
100
AcDbVisualStyle
  2
Brighten
 70
    12
 71
     2
 72
     2
 73
     0
 90
        0
 40
-0.6
 41
-30.0
 62
     5
 63
     7
421
 16777215
 74
     1
 91
        4
 64
     7
 65
   257
 75
     1
175
     1
 42
1.0
 92
        8
 66
     7
 43
1.0
 76
     1
 77
     6
 78
     2
 67
     7
 79
     5
170
     0
171
     0
290
     0
174
     0
 93
        1
 44
50.0
173
     0
291
     1
 45
0.0
  0
VISUALSTYLE
  5
3A
102
{ACAD_REACTORS
330
2A
102
}
330
2A
100
AcDbVisualStyle
  2
ColorChange
 70
    16
 71
     2
 72
     2
 73
     3
 90
        0
 40
-0.6
 41
-30.0
 62
     5
 63
     8
421
  8421504
 74
     1
 91
        4
 64
     7
 65
   257
 75
     1
175
     1
 42
1.0
 92
        8
 66
     8
424
  8421504
 43
1.0
 76
     1
 77
     6
 78
     2
 67
     7
 79
     5
170
     0
171
     0
290
     0
174
     0
 93
        1
 44
0.0
173
     0
291
     1
 45
0.0
  0
VISUALSTYLE
  5
34
102
{ACAD_REACTORS
330
2A
102
}
330
2A
100
AcDbVisualStyle
  2
Conceptual
 70
     9
 71
     3
 72
     2
 73
     0
 90
        0
 40
-0.6
 41
-30.0
 62
     5
 63
     7
421
 16777215
 74
     2
 91
        2
 64
     7
 65
   257
 75
     1
175
     1
 42
40.0
 92
        8
 66
     7
 43
1.0
 76
     1
 77
     6
 78
     2
 67
     7
 79
     3
170
     0
171
     0
290
     0
174
     0
 93
        1
 44
0.0
173
     0
291
     0
 45
0.0
  0
VISUALSTYLE
  5
35
102
{ACAD_REACTORS
330
2A
102
}
330
2A
100
AcDbVisualStyle
  2
Dim
 70
    11
 71
     2
 72
     2
 73
     0
 90
        0
 40
-0.6
 41
-30.0
 62
     5
 63
     7
421
 16777215
 74
     1
 91
        4
 64
     7
 65
   257
 75
     1
175
     1
 42
1.0
 92
        8
 66
     7
 43
1.0
 76
     1
 77
     6
 78
     2
 67
     7
 79
     5
170
     0
171
     0
290
     0
174
     0
 93
        1
 44
-50.0
173
     0
291
     1
 45
0.0
  0
VISUALSTYLE
  5
39
102
{ACAD_REACTORS
330
2A
102
}
330
2A
100
AcDbVisualStyle
  2
Facepattern
 70
    15
 71
     2
 72
     2
 73
     0
 90
        0
 40
-0.6
 41
-30.0
 62
     5
 63
     7
421
 16777215
 74
     1
 91
        4
 64
     7
 65
   257
 75
     1
175
     1
 42
1.0
 92
        8
 66
     7
 43
1.0
 76
     1
 77
     6
 78
     2
 67
     7
 79
     5
170
     0
171
     0
290
     0
174
     0
 93
        1
 44
0.0
173
     0
291
     1
 45
0.0
  0
VISUALSTYLE
  5
2B
102
{ACAD_REACTORS
330
2A
102
}
330
2A
100
AcDbVisualStyle
  2
Flat
 70
     0
 71
     2
 72
     1
 73
     1
 90
        2
 40
-0.6
 41
30.0
 62
     5
 63
     7
421
 16777215
 74
     0
 91
        4
 64
     7
 65
   257
 75
     1
175
     1
 42
1.0
 92
        8
 66
     7
 43
1.0
 76
     1
 77
     6
 78
     2
 67
     7
 79
     5
170
     0
171
     0
290
     0
174
     0
 93
       13
 44
0.0
173
     0
291
     1
 45
0.0
  0
VISUALSTYLE
  5
2C
102
{ACAD_REACTORS
330
2A
102
}
330
2A
100
AcDbVisualStyle
  2
FlatWithEdges
 70
     1
 71
     2
 72
     1
 73
     1
 90
        2
 40
-0.6
 41
30.0
 62
     5
 63
     7
421
 16777215
 74
     1
 91
        4
 64
     7
 65
   257
 75
     1
175
     1
 42
1.0
 92
        0
 66
   257
 43
1.0
 76
     1
 77
     6
 78
     2
 67
     7
 79
     5
170
     0
171
     0
290
     0
174
     0
 93
       13
 44
0.0
173
     0
291
     1
 45
0.0
  0
VISUALSTYLE
  5
2D
102
{ACAD_REACTORS
330
2A
102
}
330
2A
100
AcDbVisualStyle
  2
Gouraud
 70
     2
 71
     2
 72
     2
 73
     1
 90
        2
 40
-0.6
 41
30.0
 62
     5
 63
     7
421
 16777215
 74
     0
 91
        4
 64
     7
 65
   257
 75
     1
175
     1
 42
1.0
 92
        0
 66
     7
 43
1.0
 76
     1
 77
     6
 78
     2
 67
     7
 79
     5
170
     0
171
     0
290
     0
174
     0
 93
       13
 44
0.0
173
     0
291
     1
 45
0.0
  0
VISUALSTYLE
  5
2E
102
{ACAD_REACTORS
330
2A
102
}
330
2A
100
AcDbVisualStyle
  2
GouraudWithEdges
 70
     3
 71
     2
 72
     2
 73
     1
 90
        2
 40
-0.6
 41
30.0
 62
     5
 63
     7
421
 16777215
 74
     1
 91
        4
 64
     7
 65
   257
 75
     1
175
     1
 42
1.0
 92
        0
 66
   257
 43
1.0
 76
     1
 77
     6
 78
     2
 67
     7
 79
     5
170
     0
171
     0
290
     0
174
     0
 93
       13
 44
0.0
173
     0
291
     1
 45
0.0
  0
VISUALSTYLE
  5
38
102
{ACAD_REACTORS
330
2A
102
}
330
2A
100
AcDbVisualStyle
  2
Linepattern
 70
    14
 71
     2
 72
     2
 73
     0
 90
        0
 40
-0.6
 41
-30.0
 62
     5
 63
     7
421
 16777215
 74
     1
 91
        4
 64
     7
 65
   257
 75
     7
175
     7
 42
1.0
 92
        8
 66
     7
 43
1.0
 76
     1
 77
     6
 78
     2
 67
     7
 79
     5
170
     0
171
     0
290
     0
174
     0
 93
        1
 44
0.0
173
     0
291
     1
 45
0.0
  0
VISUALSTYLE
  5
33
102
{ACAD_REACTORS
330
2A
102
}
330
2A
100
AcDbVisualStyle
  2
Realistic
 70
     8
 71
     2
 72
     2
 73
     0
 90
        0
 40
-0.6
 41
-30.0
 62
     5
 63
     7
421
 16777215
 74
     1
 91
        0
 64
     7
 65
   257
 75
     1
175
     1
 42
1.0
 92
        8
 66
     8
424
  7895160
 43
1.0
 76
     1
 77
     6
 78
     2
 67
     7
 79
     5
170
     0
171
     0
290
     0
174
     0
 93
       13
 44
0.0
173
     0
291
     0
 45
0.0
  0
VISUALSTYLE
  5
37
102
{ACAD_REACTORS
330
2A
102
}
330
2A
100
AcDbVisualStyle
  2
Thicken
 70
    13
 71
     2
 72
     2
 73
     0
 90
        0
 40
-0.6
 41
-30.0
 62
     5
 63
     7
421
 16777215
 74
     1
 91
        4
 64
     7
 65
   257
 75
     1
175
     1
 42
1.0
 92
       12
 66
     7
 43
1.0
 76
     1
 77
     6
 78
     2
 67
     7
 79
     5
170
     0
171
     0
290
     0
174
     0
 93
        1
 44
0.0
173
     0
291
     1
 45
0.0
  0
ENDSEC
  0
EOF
