  0
SECTION
  2
HEADER
  9
$ACADVER
  1
AC1009
  9
$EXTMIN
 10
-131.76983146
 20
-261.48469842
 30
0.0
  9
$EXTMAX
 10
131.35731368
 20
262.41560390
 30
0.0
  0
ENDSEC
  0
SECTION
  2
TABLES
  0
TABLE
  2
LAYER
 70
1
 0
LAYER
 2
По_умолчанию
 70
0
 62
1
 6
CONTINUOUS
 0
ENDTAB
 0
ENDSEC
  0
SECTION
  2
ENTITIES
  0
POLYLINE
  8
По_умолчанию
 66
   1
 39
0.000000
 70
    1
  0
VERTEX
  8
0
 10
-0.20625889
 20
262.41560390
  0
VERTEX
  8
0
 10
-1.38464373
 20
262.40270376
  0
VERTEX
  8
0
 10
-2.52224006
 20
262.36317228
  0
VERTEX
  8
0
 10
-3.61935004
 20
262.29576288
  0
VERTEX
  8
0
 10
-4.67627578
 20
262.19922901
  0
VERTEX
  8
0
 10
-5.69331944
 20
262.07232407
  0
VERTEX
  8
0
 10
-6.67078314
 20
261.91380151
  0
VERTEX
  8
0
 10
-7.60896903
 20
261.72241474
  0
VERTEX
  8
0
 10
-8.50817923
 20
261.49691720
  0
VERTEX
  8
0
 10
-9.36871590
 20
261.23606230
  0
VERTEX
  8
0
 10
-10.19088116
 20
260.93860349
  0
VERTEX
  8
0
 10
-10.97497715
 20
260.60329417
  0
VERTEX
  8
0
 10
-11.72130601
 20
260.22888779
  0
VERTEX
  8
0
 10
-12.43016988
 20
259.81413776
  0
VERTEX
  8
0
 10
-13.10187089
 20
259.35779752
  0
VERTEX
  8
0
 10
-13.73671118
 20
258.85862049
  0
VERTEX
  8
0
 10
-14.33499289
 20
258.31536009
  0
VERTEX
  8
0
 10
-14.89701815
 20
257.72676976
  0
VERTEX
  8
0
 10
-15.42308910
 20
257.09160292
  0
VERTEX
  8
0
 10
-15.91350789
 20
256.40861299
  0
VERTEX
  8
0
 10
-16.36857664
 20
255.67655342
  0
VERTEX
  8
0
 10
-16.78859749
 20
254.89417761
  0
VERTEX
  8
0
 10
-17.17387258
 20
254.06023900
  0
VERTEX
  8
0
 10
-17.52470404
 20
253.17349101
  0
VERTEX
  8
0
 10
-17.84139403
 20
252.23268708
  0
VERTEX
  8
0
 10
-18.12424466
 20
251.23658062
  0
VERTEX
  8
0
 10
-18.37355808
 20
250.18392507
  0
VERTEX
  8
0
 10
-18.58963642
 20
249.07347385
  0
VERTEX
  8
0
 10
-18.77278183
 20
247.90398039
  0
VERTEX
  8
0
 10
-18.92329643
 20
246.67419811
  0
VERTEX
  8
0
 10
-19.04148237
 20
245.38288045
  0
VERTEX
  8
0
 10
-19.12764179
 20
244.02878082
  0
VERTEX
  8
0
 10
-19.18207681
 20
242.61065266
  0
VERTEX
  8
0
 10
-19.17021574
 20
241.97449833
  0
VERTEX
  8
0
 10
-19.10697906
 20
241.19756331
  0
VERTEX
  8
0
 10
-18.99591747
 20
240.28813074
  0
VERTEX
  8
0
 10
-18.84058168
 20
239.25448378
  0
VERTEX
  8
0
 10
-18.64452240
 20
238.10490556
  0
VERTEX
  8
0
 10
-18.41129032
 20
236.84767922
  0
VERTEX
  8
0
 10
-17.84751064
 20
234.04341475
  0
VERTEX
  8
0
 10
-17.17764827
 20
230.90795552
  0
VERTEX
  8
0
 10
-16.43010888
 20
227.50756666
  0
VERTEX
  8
0
 10
-14.81562159
 20
220.17706057
  0
VERTEX
  8
0
 10
-14.00548501
 20
216.37947362
  0
VERTEX
  8
0
 10
-13.23129399
 20
212.58201756
  0
VERTEX
  8
0
 10
-12.86655483
 20
210.70404648
  0
VERTEX
  8
0
 10
-12.52145419
 20
208.85095755
  0
VERTEX
  8
0
 10
-12.19954276
 20
207.03103391
  0
VERTEX
  8
0
 10
-11.90437126
 20
205.25255870
  0
VERTEX
  8
0
 10
-11.63949038
 20
203.52381507
  0
VERTEX
  8
0
 10
-11.40845084
 20
201.85308616
  0
VERTEX
  8
0
 10
-11.21480334
 20
200.24865511
  0
VERTEX
  8
0
 10
-11.06209859
 20
198.71880506
  0
VERTEX
  8
0
 10
-10.95388730
 20
197.27181916
  0
VERTEX
  8
0
 10
-10.89372016
 20
195.91598054
  0
VERTEX
  8
0
 10
-10.88514789
 20
194.65957234
  0
VERTEX
  8
0
 10
-10.90131943
 20
194.07124314
  0
VERTEX
  8
0
 10
-10.93172119
 20
193.51087772
  0
VERTEX
  8
0
 10
-11.02719254
 20
192.40725701
  0
VERTEX
  8
0
 10
-11.16143264
 20
191.28289396
  0
VERTEX
  8
0
 10
-11.33216957
 20
190.14130681
  0
VERTEX
  8
0
 10
-11.53713141
 20
188.98601378
  0
VERTEX
  8
0
 10
-11.77404624
 20
187.82053311
  0
VERTEX
  8
0
 10
-12.04064212
 20
186.64838303
  0
VERTEX
  8
0
 10
-12.33464715
 20
185.47308178
  0
VERTEX
  8
0
 10
-12.65378938
 20
184.29814759
  0
VERTEX
  8
0
 10
-12.99579691
 20
183.12709870
  0
VERTEX
  8
0
 10
-13.35839781
 20
181.96345333
  0
VERTEX
  8
0
 10
-13.73932014
 20
180.81072972
  0
VERTEX
  8
0
 10
-14.13629200
 20
179.67244610
  0
VERTEX
  8
0
 10
-14.54704145
 20
178.55212071
  0
VERTEX
  8
0
 10
-14.96929658
 20
177.45327178
  0
VERTEX
  8
0
 10
-15.40078545
 20
176.37941754
  0
VERTEX
  8
0
 10
-15.83923614
 20
175.33407623
  0
VERTEX
  8
0
 10
-16.28237674
 20
174.32076608
  0
VERTEX
  8
0
 10
-16.72793532
 20
173.34300533
  0
VERTEX
  8
0
 10
-17.17363994
 20
172.40431220
  0
VERTEX
  8
0
 10
-17.61721870
 20
171.50820493
  0
VERTEX
  8
0
 10
-18.05639967
 20
170.65820175
  0
VERTEX
  8
0
 10
-18.48891091
 20
169.85782091
  0
VERTEX
  8
0
 10
-18.91248052
 20
169.11058062
  0
VERTEX
  8
0
 10
-19.32483656
 20
168.41999913
  0
VERTEX
  8
0
 10
-19.72370711
 20
167.78959466
  0
VERTEX
  8
0
 10
-20.10682025
 20
167.22288546
  0
VERTEX
  8
0
 10
-20.47190405
 20
166.72338975
  0
VERTEX
  8
0
 10
-20.81668660
 20
166.29462576
  0
VERTEX
  8
0
 10
-21.13889596
 20
165.94011174
  0
VERTEX
  8
0
 10
-21.43626021
 20
165.66336591
  0
VERTEX
  8
0
 10
-21.70650744
 20
165.46790651
  0
VERTEX
  8
0
 10
-21.83075219
 20
165.40175867
  0
VERTEX
  8
0
 10
-21.94736571
 20
165.35725178
  0
VERTEX
  8
0
 10
-99.02660191
 20
165.36379087
 42
0.07656124
  0
VERTEX
  8
0
 10
-131.76983146
 20
-48.06045378
 42
0.07656124
  0
VERTEX
  8
0
 10
-99.02660191
 20
-261.48469842
  0
VERTEX
  8
0
 10
-0.20625889
 20
-261.48469842
  0
VERTEX
  8
0
 10
98.61408413
 20
-261.48469842
 42
0.07656124
  0
VERTEX
  8
0
 10
131.35731368
 20
-48.06045378
 42
0.07656124
  0
VERTEX
  8
0
 10
98.61408413
 20
165.36379087
  0
VERTEX
  8
0
 10
21.53484792
 20
165.35725178
  0
VERTEX
  8
0
 10
21.41823440
 20
165.40175867
  0
VERTEX
  8
0
 10
21.29398966
 20
165.46790651
  0
VERTEX
  8
0
 10
21.02374243
 20
165.66336591
  0
VERTEX
  8
0
 10
20.72637818
 20
165.94011174
  0
VERTEX
  8
0
 10
20.40416882
 20
166.29462576
  0
VERTEX
  8
0
 10
20.05938627
 20
166.72338975
  0
VERTEX
  8
0
 10
19.69430247
 20
167.22288546
  0
VERTEX
  8
0
 10
19.31118933
 20
167.78959466
  0
VERTEX
  8
0
 10
18.91231878
 20
168.41999913
  0
VERTEX
  8
0
 10
18.49996274
 20
169.11058062
  0
VERTEX
  8
0
 10
18.07639313
 20
169.85782091
  0
VERTEX
  8
0
 10
17.64388189
 20
170.65820175
  0
VERTEX
  8
0
 10
17.20470092
 20
171.50820493
  0
VERTEX
  8
0
 10
16.76112216
 20
172.40431220
  0
VERTEX
  8
0
 10
16.31541754
 20
173.34300533
  0
VERTEX
  8
0
 10
15.86985896
 20
174.32076608
  0
VERTEX
  8
0
 10
15.42671836
 20
175.33407623
  0
VERTEX
  8
0
 10
14.98826767
 20
176.37941754
  0
VERTEX
  8
0
 10
14.55677880
 20
177.45327178
  0
VERTEX
  8
0
 10
14.13452367
 20
178.55212071
  0
VERTEX
  8
0
 10
13.72377422
 20
179.67244610
  0
VERTEX
  8
0
 10
13.32680236
 20
180.81072972
  0
VERTEX
  8
0
 10
12.94588003
 20
181.96345333
  0
VERTEX
  8
0
 10
12.58327913
 20
183.12709870
  0
VERTEX
  8
0
 10
12.24127160
 20
184.29814759
  0
VERTEX
  8
0
 10
11.92212937
 20
185.47308178
  0
VERTEX
  8
0
 10
11.62812434
 20
186.64838303
  0
VERTEX
  8
0
 10
11.36152845
 20
187.82053311
  0
VERTEX
  8
0
 10
11.12461363
 20
188.98601378
  0
VERTEX
  8
0
 10
10.91965179
 20
190.14130681
  0
VERTEX
  8
0
 10
10.74891486
 20
191.28289396
  0
VERTEX
  8
0
 10
10.61467476
 20
192.40725701
  0
VERTEX
  8
0
 10
10.51920341
 20
193.51087772
  0
VERTEX
  8
0
 10
10.48880165
 20
194.07124314
  0
VERTEX
  8
0
 10
10.47263011
 20
194.65957234
  0
VERTEX
  8
0
 10
10.48120238
 20
195.91598054
  0
VERTEX
  8
0
 10
10.54136952
 20
197.27181916
  0
VERTEX
  8
0
 10
10.64958081
 20
198.71880506
  0
VERTEX
  8
0
 10
10.80228556
 20
200.24865511
  0
VERTEX
  8
0
 10
10.99593306
 20
201.85308616
  0
VERTEX
  8
0
 10
11.22697260
 20
203.52381507
  0
VERTEX
  8
0
 10
11.49185348
 20
205.25255870
  0
VERTEX
  8
0
 10
11.78702498
 20
207.03103391
  0
VERTEX
  8
0
 10
12.10893641
 20
208.85095755
  0
VERTEX
  8
0
 10
12.45403705
 20
210.70404648
  0
VERTEX
  8
0
 10
12.81877621
 20
212.58201756
  0
VERTEX
  8
0
 10
13.59296723
 20
216.37947362
  0
VERTEX
  8
0
 10
14.40310381
 20
220.17706057
  0
VERTEX
  8
0
 10
16.01759109
 20
227.50756666
  0
VERTEX
  8
0
 10
16.76513049
 20
230.90795552
  0
VERTEX
  8
0
 10
17.43499286
 20
234.04341475
  0
VERTEX
  8
0
 10
17.99877254
 20
236.84767922
  0
VERTEX
  8
0
 10
18.23200462
 20
238.10490556
  0
VERTEX
  8
0
 10
18.42806390
 20
239.25448378
  0
VERTEX
  8
0
 10
18.58339969
 20
240.28813074
  0
VERTEX
  8
0
 10
18.69446128
 20
241.19756331
  0
VERTEX
  8
0
 10
18.75769796
 20
241.97449833
  0
VERTEX
  8
0
 10
18.76955903
 20
242.61065266
  0
VERTEX
  8
0
 10
18.71512401
 20
244.02878082
  0
VERTEX
  8
0
 10
18.62896459
 20
245.38288045
  0
VERTEX
  8
0
 10
18.51077865
 20
246.67419811
  0
VERTEX
  8
0
 10
18.36026405
 20
247.90398039
  0
VERTEX
  8
0
 10
18.17711864
 20
249.07347385
  0
VERTEX
  8
0
 10
17.96104030
 20
250.18392507
  0
VERTEX
  8
0
 10
17.71172688
 20
251.23658062
  0
VERTEX
  8
0
 10
17.42887624
 20
252.23268708
  0
VERTEX
  8
0
 10
17.11218626
 20
253.17349101
  0
VERTEX
  8
0
 10
16.76135480
 20
254.06023900
  0
VERTEX
  8
0
 10
16.37607971
 20
254.89417761
  0
VERTEX
  8
0
 10
15.95605885
 20
255.67655342
  0
VERTEX
  8
0
 10
15.50099011
 20
256.40861299
  0
VERTEX
  8
0
 10
15.01057132
 20
257.09160292
  0
VERTEX
  8
0
 10
14.48450037
 20
257.72676976
  0
VERTEX
  8
0
 10
13.92247511
 20
258.31536009
  0
VERTEX
  8
0
 10
13.32419340
 20
258.85862049
  0
VERTEX
  8
0
 10
12.68935311
 20
259.35779752
  0
VERTEX
  8
0
 10
12.01765210
 20
259.81413776
  0
VERTEX
  8
0
 10
11.30878823
 20
260.22888779
  0
VERTEX
  8
0
 10
10.56245937
 20
260.60329417
  0
VERTEX
  8
0
 10
9.77836338
 20
260.93860349
  0
VERTEX
  8
0
 10
8.95619812
 20
261.23606230
  0
VERTEX
  8
0
 10
8.09566145
 20
261.49691720
  0
VERTEX
  8
0
 10
7.19645124
 20
261.72241474
  0
VERTEX
  8
0
 10
6.25826536
 20
261.91380151
  0
VERTEX
  8
0
 10
5.28080166
 20
262.07232407
  0
VERTEX
  8
0
 10
4.26375800
 20
262.19922901
  0
VERTEX
  8
0
 10
3.20683226
 20
262.29576288
  0
VERTEX
  8
0
 10
2.10972228
 20
262.36317228
  0
VERTEX
  8
0
 10
0.97212595
 20
262.40270376
  0
VERTEX
  8
0
 10
-0.20625889
 20
262.41560390
  0
SEQEND
  0
POLYLINE
  8
По_умолчанию
 66
   1
 39
0.000000
 70
    1
  0
VERTEX
  8
0
 10
-5.00000000
 20
243.23100996
  0
VERTEX
  8
0
 10
-4.97418556
 20
243.74223091
  0
VERTEX
  8
0
 10
-4.89841777
 20
244.23868435
  0
VERTEX
  8
0
 10
-4.77520990
 20
244.71785701
  0
VERTEX
  8
0
 10
-4.60707521
 20
245.17723560
  0
VERTEX
  8
0
 10
-4.39652700
 20
245.61430686
  0
VERTEX
  8
0
 10
-4.14607853
 20
246.02655750
  0
VERTEX
  8
0
 10
-3.85824307
 20
246.41147426
  0
VERTEX
  8
0
 10
-3.53553391
 20
246.76654386
  0
VERTEX
  8
0
 10
-3.18046431
 20
247.08925303
  0
VERTEX
  8
0
 10
-2.79554755
 20
247.37708848
  0
VERTEX
  8
0
 10
-2.38329690
 20
247.62753696
  0
VERTEX
  8
0
 10
-1.94622564
 20
247.83808517
  0
VERTEX
  8
0
 10
-1.48684705
 20
248.00621985
  0
VERTEX
  8
0
 10
-1.00767440
 20
248.12942773
  0
VERTEX
  8
0
 10
-0.51122095
 20
248.20519552
  0
VERTEX
  8
0
 10
0.00000000
 20
248.23100996
  0
VERTEX
  8
0
 10
0.51122095
 20
248.20519552
  0
VERTEX
  8
0
 10
1.00767440
 20
248.12942773
  0
VERTEX
  8
0
 10
1.48684705
 20
248.00621985
  0
VERTEX
  8
0
 10
1.94622564
 20
247.83808517
  0
VERTEX
  8
0
 10
2.38329690
 20
247.62753696
  0
VERTEX
  8
0
 10
2.79554755
 20
247.37708848
  0
VERTEX
  8
0
 10
3.18046431
 20
247.08925303
  0
VERTEX
  8
0
 10
3.53553391
 20
246.76654386
  0
VERTEX
  8
0
 10
3.85824307
 20
246.41147426
  0
VERTEX
  8
0
 10
4.14607853
 20
246.02655750
  0
VERTEX
  8
0
 10
4.39652700
 20
245.61430686
  0
VERTEX
  8
0
 10
4.60707521
 20
245.17723560
  0
VERTEX
  8
0
 10
4.77520990
 20
244.71785701
  0
VERTEX
  8
0
 10
4.89841777
 20
244.23868435
  0
VERTEX
  8
0
 10
4.97418556
 20
243.74223091
  0
VERTEX
  8
0
 10
5.00000000
 20
243.23100996
  0
VERTEX
  8
0
 10
4.97418556
 20
242.71978900
  0
VERTEX
  8
0
 10
4.89841777
 20
242.22333556
  0
VERTEX
  8
0
 10
4.77520990
 20
241.74416291
  0
VERTEX
  8
0
 10
4.60707521
 20
241.28478431
  0
VERTEX
  8
0
 10
4.39652700
 20
240.84771306
  0
VERTEX
  8
0
 10
4.14607853
 20
240.43546241
  0
VERTEX
  8
0
 10
3.85824307
 20
240.05054565
  0
VERTEX
  8
0
 10
3.53553391
 20
239.69547605
  0
VERTEX
  8
0
 10
3.18046431
 20
239.37276689
  0
VERTEX
  8
0
 10
2.79554755
 20
239.08493143
  0
VERTEX
  8
0
 10
2.38329690
 20
238.83448296
  0
VERTEX
  8
0
 10
1.94622564
 20
238.62393474
  0
VERTEX
  8
0
 10
1.48684705
 20
238.45580006
  0
VERTEX
  8
0
 10
1.00767440
 20
238.33259219
  0
VERTEX
  8
0
 10
0.51122095
 20
238.25682439
  0
VERTEX
  8
0
 10
0.00000000
 20
238.23100996
  0
VERTEX
  8
0
 10
-0.51122095
 20
238.25682439
  0
VERTEX
  8
0
 10
-1.00767440
 20
238.33259219
  0
VERTEX
  8
0
 10
-1.48684705
 20
238.45580006
  0
VERTEX
  8
0
 10
-1.94622564
 20
238.62393474
  0
VERTEX
  8
0
 10
-2.38329690
 20
238.83448296
  0
VERTEX
  8
0
 10
-2.79554755
 20
239.08493143
  0
VERTEX
  8
0
 10
-3.18046431
 20
239.37276689
  0
VERTEX
  8
0
 10
-3.53553391
 20
239.69547605
  0
VERTEX
  8
0
 10
-3.85824307
 20
240.05054565
  0
VERTEX
  8
0
 10
-4.14607853
 20
240.43546241
  0
VERTEX
  8
0
 10
-4.39652700
 20
240.84771306
  0
VERTEX
  8
0
 10
-4.60707521
 20
241.28478431
  0
VERTEX
  8
0
 10
-4.77520990
 20
241.74416291
  0
VERTEX
  8
0
 10
-4.89841777
 20
242.22333556
  0
VERTEX
  8
0
 10
-4.97418556
 20
242.71978900
  0
VERTEX
  8
0
 10
-5.00000000
 20
243.23100996
  0
SEQEND
  0
POLYLINE
  8
По_умолчанию
 66
   1
 39
0.000000
 70
    1
  0
VERTEX
  8
0
 10
-28.84163977
 20
131.35783654
  0
VERTEX
  8
0
 10
-23.83994307
 20
151.35741228
  0
VERTEX
  8
0
 10
-33.83994303
 20
151.35826064
  0
VERTEX
  8
0
 10
-28.84163977
 20
131.35783654
  0
SEQEND
  0
POLYLINE
  8
По_умолчанию
 66
   1
 39
0.000000
 70
    1
  0
VERTEX
  8
0
 10
-39.83866359
 20
131.35876948
  0
VERTEX
  8
0
 10
-34.83696689
 20
151.35834523
  0
VERTEX
  8
0
 10
-44.83696685
 20
151.35919359
  0
VERTEX
  8
0
 10
-39.83866359
 20
131.35876948
  0
SEQEND
  0
POLYLINE
  8
По_умолчанию
 66
   1
 39
0.000000
 70
    1
  0
VERTEX
  8
0
 10
-50.89067252
 20
131.35970709
  0
VERTEX
  8
0
 10
-45.88897582
 20
151.35928284
  0
VERTEX
  8
0
 10
-55.88897579
 20
151.36013120
  0
VERTEX
  8
0
 10
-50.89067252
 20
131.35970709
  0
SEQEND
  0
POLYLINE
  8
По_умолчанию
 66
   1
 39
0.000000
 70
    1
  0
VERTEX
  8
0
 10
-61.88769634
 20
131.36064003
  0
VERTEX
  8
0
 10
-56.88599964
 20
151.36021578
  0
VERTEX
  8
0
 10
-66.88599960
 20
151.36106414
  0
VERTEX
  8
0
 10
-61.88769634
 20
131.36064003
  0
SEQEND
  0
POLYLINE
  8
По_умолчанию
 66
   1
 39
0.000000
 70
    1
  0
VERTEX
  8
0
 10
-72.88472016
 20
131.36157298
  0
VERTEX
  8
0
 10
-67.88302346
 20
151.36114872
  0
VERTEX
  8
0
 10
-77.88302342
 20
151.36199709
  0
VERTEX
  8
0
 10
-72.88472016
 20
131.36157298
  0
SEQEND
  0
POLYLINE
  8
По_умолчанию
 66
   1
 39
0.000000
 70
    1
  0
VERTEX
  8
0
 10
-75.16665618
 20
125.60272134
  0
VERTEX
  8
0
 10
-93.21400533
 20
135.56731811
  0
VERTEX
  8
0
 10
-95.78000979
 20
125.90214242
  0
VERTEX
  8
0
 10
-75.16665618
 20
125.60272134
  0
SEQEND
  0
POLYLINE
  8
По_умолчанию
 66
   1
 39
0.000000
 70
    1
  0
VERTEX
  8
0
 10
-77.86977234
 20
115.08104511
  0
VERTEX
  8
0
 10
-96.07561550
 20
124.75302914
  0
VERTEX
  8
0
 10
-98.48527349
 20
115.04769306
  0
VERTEX
  8
0
 10
-77.86977234
 20
115.08104511
  0
SEQEND
  0
POLYLINE
  8
По_умолчанию
 66
   1
 39
0.000000
 70
    1
  0
VERTEX
  8
0
 10
-80.39100883
 20
104.56764890
  0
VERTEX
  8
0
 10
-98.74987916
 20
113.94591527
  0
VERTEX
  8
0
 10
-101.00331389
 20
104.20312142
  0
VERTEX
  8
0
 10
-80.39100883
 20
104.56764890
  0
SEQEND
  0
POLYLINE
  8
По_умолчанию
 66
   1
 39
0.000000
 70
    1
  0
VERTEX
  8
0
 10
-82.75411891
 20
93.96501043
  0
VERTEX
  8
0
 10
-101.26098080
 20
103.04774476
  0
VERTEX
  8
0
 10
-103.35793085
 20
93.27007630
  0
VERTEX
  8
0
 10
-82.75411891
 20
93.96501043
  0
SEQEND
  0
POLYLINE
  8
По_умолчанию
 66
   1
 39
0.000000
 70
    1
  0
VERTEX
  8
0
 10
-84.93795019
 20
83.37100388
  0
VERTEX
  8
0
 10
-103.58795260
 20
92.15607134
  0
VERTEX
  8
0
 10
-105.52798406
 20
82.34606227
  0
VERTEX
  8
0
 10
-84.93795019
 20
83.37100388
  0
SEQEND
  0
POLYLINE
  8
По_умолчанию
 66
   1
 39
0.000000
 70
    1
  0
VERTEX
  8
0
 10
-86.96231665
 20
72.68517036
  0
VERTEX
  8
0
 10
-105.75141547
 20
81.16866994
  0
VERTEX
  8
0
 10
-107.53316836
 20
71.32868231
  0
VERTEX
  8
0
 10
-86.96231665
 20
72.68517036
  0
SEQEND
  0
POLYLINE
  8
По_умолчанию
 66
   1
 39
0.000000
 70
    1
  0
VERTEX
  8
0
 10
-88.80692447
 20
62.01284551
  0
VERTEX
  8
0
 10
-107.72969446
 20
70.19384642
  0
VERTEX
  8
0
 10
-109.35336901
 20
60.32654278
  0
VERTEX
  8
0
 10
-88.80692447
 20
62.01284551
  0
SEQEND
  0
POLYLINE
  8
По_умолчанию
 66
   1
 39
0.000000
 70
    1
  0
VERTEX
  8
0
 10
-90.48079826
 20
51.30755030
  0
VERTEX
  8
0
 10
-109.53242567
 20
59.18381166
  0
VERTEX
  8
0
 10
-110.99753367
 20
49.29172095
  0
VERTEX
  8
0
 10
-90.48079826
 20
51.30755030
  0
SEQEND
  0
POLYLINE
  8
По_умолчанию
 66
   1
 39
0.000000
 70
    1
  0
VERTEX
  8
0
 10
-91.98309631
 20
40.57338756
  0
VERTEX
  8
0
 10
-111.15871209
 20
48.14278381
  0
VERTEX
  8
0
 10
-112.46482611
 20
38.22844741
  0
VERTEX
  8
0
 10
-91.98309631
 20
40.57338756
  0
SEQEND
  0
POLYLINE
  8
По_умолчанию
 66
   1
 39
0.000000
 70
    1
  0
VERTEX
  8
0
 10
-93.31310858
 20
29.81448762
  0
VERTEX
  8
0
 10
-112.60779206
 20
37.07501030
  0
VERTEX
  8
0
 10
-113.75454585
 20
27.14098011
  0
VERTEX
  8
0
 10
-93.31310858
 20
29.81448762
  0
SEQEND
  0
POLYLINE
  8
По_умолчанию
 66
   1
 39
0.000000
 70
    1
  0
VERTEX
  8
0
 10
-94.47025778
 20
19.03500302
  0
VERTEX
  8
0
 10
-113.87904045
 20
25.98476240
  0
VERTEX
  8
0
 10
-114.86612925
 20
16.03359887
  0
VERTEX
  8
0
 10
-94.47025778
 20
19.03500302
  0
SEQEND
  0
POLYLINE
  8
По_умолчанию
 66
   1
 39
0.000000
 70
    1
  0
VERTEX
  8
0
 10
-95.45410021
 20
8.23910317
  0
VERTEX
  8
0
 10
-114.97196954
 20
14.87632977
  0
VERTEX
  8
0
 10
-115.79915037
 20
4.91059989
  0
VERTEX
  8
0
 10
-95.45410021
 20
8.23910317
  0
SEQEND
  0
POLYLINE
  8
По_умолчанию
 66
   1
 39
0.000000
 70
    1
  0
VERTEX
  8
0
 10
-96.26432630
 20
-2.56903103
  0
VERTEX
  8
0
 10
-115.88622964
 20
3.75401486
  0
VERTEX
  8
0
 10
-116.55332143
 20
-6.22370975
  0
VERTEX
  8
0
 10
-96.26432630
 20
-2.56903103
  0
SEQEND
  0
POLYLINE
  8
По_умолчанию
 66
   1
 39
0.000000
 70
    1
  0
VERTEX
  8
0
 10
-96.90076094
 20
-13.38521257
  0
VERTEX
  8
0
 10
-116.62160945
 20
-7.37787256
  0
VERTEX
  8
0
 10
-117.12849316
 20
-17.36501774
  0
VERTEX
  8
0
 10
-96.90076094
 20
-13.38521257
  0
SEQEND
  0
POLYLINE
  8
По_умолчанию
 66
   1
 39
0.000000
 70
    1
  0
VERTEX
  8
0
 10
-97.36515063
 20
-24.25678028
  0
VERTEX
  8
0
 10
-117.18025775
 20
-18.56806077
  0
VERTEX
  8
0
 10
-117.52611315
 20
-28.56207818
  0
VERTEX
  8
0
 10
-97.36515063
 20
-24.25678028
  0
SEQEND
  0
POLYLINE
  8
По_умолчанию
 66
   1
 39
0.000000
 70
    1
  0
VERTEX
  8
0
 10
-97.65318793
 20
-35.07648651
  0
VERTEX
  8
0
 10
-117.55694536
 20
-29.70615690
  0
VERTEX
  8
0
 10
-117.74254077
 20
-39.70443447
  0
VERTEX
  8
0
 10
-97.65318793
 20
-35.07648651
  0
SEQEND
  0
POLYLINE
  8
По_умолчанию
 66
   1
 39
0.000000
 70
    1
  0
VERTEX
  8
0
 10
-97.76784654
 20
-45.94315998
  0
VERTEX
  8
0
 10
-117.75546588
 20
-40.89389536
  0
VERTEX
  8
0
 10
-117.78010578
 20
-50.89386501
  0
VERTEX
  8
0
 10
-97.76784654
 20
-45.94315998
  0
SEQEND
  0
POLYLINE
  8
По_умолчанию
 66
   1
 39
0.000000
 70
    1
  0
VERTEX
  8
0
 10
-97.71929825
 20
-56.75890123
  0
VERTEX
  8
0
 10
-117.77923411
 20
-52.00506348
  0
VERTEX
  8
0
 10
-117.65634177
 20
-62.00430832
  0
VERTEX
  8
0
 10
-97.71929825
 20
-56.75890123
  0
SEQEND
  0
POLYLINE
  8
По_умолчанию
 66
   1
 39
0.000000
 70
    1
  0
VERTEX
  8
0
 10
-97.49884250
 20
-67.61949177
  0
VERTEX
  8
0
 10
-117.63266818
 20
-63.18902186
  0
VERTEX
  8
0
 10
-117.34890982
 20
-73.18499511
  0
VERTEX
  8
0
 10
-97.49884250
 20
-67.61949177
  0
SEQEND
  0
POLYLINE
  8
По_умолчанию
 66
   1
 39
0.000000
 70
    1
  0
VERTEX
  8
0
 10
-97.10553871
 20
-78.43318635
  0
VERTEX
  8
0
 10
-117.30778645
 20
-74.32597485
  0
VERTEX
  8
0
 10
-116.86385683
 20
-84.31611632
  0
VERTEX
  8
0
 10
-97.10553871
 20
-78.43318635
  0
SEQEND
  0
POLYLINE
  8
По_умолчанию
 66
   1
 39
0.000000
 70
    1
  0
VERTEX
  8
0
 10
-96.53536742
 20
-89.29875833
  0
VERTEX
  8
0
 10
-116.80118179
 20
-85.51765163
  0
VERTEX
  8
0
 10
-116.19631266
 20
-95.49934154
  0
VERTEX
  8
0
 10
-96.53536742
 20
-89.29875833
  0
SEQEND
  0
POLYLINE
  8
По_умолчанию
 66
   1
 39
0.000000
 70
    1
  0
VERTEX
  8
0
 10
-95.79359562
 20
-100.10901601
  0
VERTEX
  8
0
 10
-116.11748350
 20
-96.65364605
  0
VERTEX
  8
0
 10
-115.35249432
 20
-106.62434269
  0
VERTEX
  8
0
 10
-95.79359562
 20
-100.10901601
  0
SEQEND
  0
POLYLINE
  8
По_умолчанию
 66
   1
 39
0.000000
 70
    1
  0
VERTEX
  8
0
 10
-94.87793265
 20
-110.91126613
  0
VERTEX
  8
0
 10
-115.25468335
 20
-107.78268321
  0
VERTEX
  8
0
 10
-114.32969288
 20
-117.73981094
  0
VERTEX
  8
0
 10
-94.87793265
 20
-110.91126613
  0
SEQEND
  0
POLYLINE
  8
По_умолчанию
 66
   1
 39
0.000000
 70
    1
  0
VERTEX
  8
0
 10
-93.78851087
 20
-121.70131536
  0
VERTEX
  8
0
 10
-114.21288657
 20
-118.90044459
  0
VERTEX
  8
0
 10
-113.12807568
 20
-128.84142972
  0
VERTEX
  8
0
 10
-93.78851087
 20
-121.70131536
  0
SEQEND
  0
POLYLINE
  8
По_умолчанию
 66
   1
 39
0.000000
 70
    1
  0
VERTEX
  8
0
 10
-92.52559742
 20
-132.47497376
  0
VERTEX
  8
0
 10
-112.99233722
 20
-130.00261415
  0
VERTEX
  8
0
 10
-111.74794883
 20
-139.92488695
  0
VERTEX
  8
0
 10
-92.52559742
 20
-132.47497376
  0
SEQEND
  0
POLYLINE
  8
По_умолчанию
 66
   1
 39
0.000000
 70
    1
  0
VERTEX
  8
0
 10
-91.09684159
 20
-143.17691034
  0
VERTEX
  8
0
 10
-111.60050145
 20
-141.03216512
  0
VERTEX
  8
0
 10
-110.19759804
 20
-150.93326920
  0
VERTEX
  8
0
 10
-91.09684159
 20
-143.17691034
  0
SEQEND
  0
POLYLINE
  8
По_умолчанию
 66
   1
 39
0.000000
 70
    1
  0
VERTEX
  8
0
 10
-89.48910465
 20
-153.90538553
  0
VERTEX
  8
0
 10
-110.02457894
 20
-152.09036610
  0
VERTEX
  8
0
 10
-108.46276758
 20
-161.96765041
  0
VERTEX
  8
0
 10
-89.48910465
 20
-153.90538553
  0
SEQEND
  0
POLYLINE
  8
По_умолчанию
 66
   1
 39
0.000000
 70
    1
  0
VERTEX
  8
0
 10
-87.70947998
 20
-164.60499419
  0
VERTEX
  8
0
 10
-108.27146293
 20
-163.12011809
  0
VERTEX
  8
0
 10
-106.55117134
 20
-172.97103667
  0
VERTEX
  8
0
 10
-87.70947998
 20
-164.60499419
  0
SEQEND
  0
POLYLINE
  8
По_умолчанию
 66
   1
 39
0.000000
 70
    1
  0
VERTEX
  8
0
 10
-85.75876920
 20
-175.27161376
  0
VERTEX
  8
0
 10
-106.34194828
 20
-174.11717049
  0
VERTEX
  8
0
 10
-104.46366522
 20
-183.93918926
  0
VERTEX
  8
0
 10
-85.75876920
 20
-175.27161376
  0
SEQEND
  0
POLYLINE
  8
По_умолчанию
 66
   1
 39
0.000000
 70
    1
  0
VERTEX
  8
0
 10
-83.63790541
 20
-185.90115192
  0
VERTEX
  8
0
 10
-104.23696541
 20
-185.07730280
  0
VERTEX
  8
0
 10
-102.20124028
 20
-194.86790152
  0
VERTEX
  8
0
 10
-83.63790541
 20
-185.90115192
  0
SEQEND
  0
POLYLINE
  8
По_умолчанию
 66
   1
 39
0.000000
 70
    1
  0
VERTEX
  8
0
 10
-81.33664455
 20
-196.53986782
  0
VERTEX
  8
0
 10
-101.94630934
 20
-196.04822044
  0
VERTEX
  8
0
 10
-99.75300637
 20
-205.80472709
  0
VERTEX
  8
0
 10
-81.33664455
 20
-196.53986782
  0
SEQEND
  0
POLYLINE
  8
По_умолчанию
 66
   1
 39
0.000000
 70
    1
  0
VERTEX
  8
0
 10
-78.87799605
 20
-207.08288833
  0
VERTEX
  8
0
 10
-99.49289459
 20
-206.92177313
  0
VERTEX
  8
0
 10
-97.14343133
 20
-216.64185659
  0
VERTEX
  8
0
 10
-78.87799605
 20
-207.08288833
  0
SEQEND
  0
POLYLINE
  8
По_умолчанию
 66
   1
 39
0.000000
 70
    1
  0
VERTEX
  8
0
 10
-76.25277370
 20
-217.57676455
  0
VERTEX
  8
0
 10
-96.86760751
 20
-217.74595902
  0
VERTEX
  8
0
 10
-94.36271202
 20
-227.42715206
  0
VERTEX
  8
0
 10
-76.25277370
 20
-217.57676455
  0
SEQEND
  0
POLYLINE
  8
По_умолчанию
 66
   1
 39
0.000000
 70
    1
  0
VERTEX
  8
0
 10
-66.22237242
 20
-227.48469842
  0
VERTEX
  8
0
 10
-71.22237242
 20
-247.48469842
  0
VERTEX
  8
0
 10
-61.22237242
 20
-247.48469842
  0
VERTEX
  8
0
 10
-66.22237242
 20
-227.48469842
  0
SEQEND
  0
POLYLINE
  8
По_умолчанию
 66
   1
 39
0.000000
 70
    1
  0
VERTEX
  8
0
 10
-55.21967447
 20
-227.48469842
  0
VERTEX
  8
0
 10
-60.21967447
 20
-247.48469842
  0
VERTEX
  8
0
 10
-50.21967447
 20
-247.48469842
  0
VERTEX
  8
0
 10
-55.21967447
 20
-227.48469842
  0
SEQEND
  0
POLYLINE
  8
По_умолчанию
 66
   1
 39
0.000000
 70
    1
  0
VERTEX
  8
0
 10
-44.21697651
 20
-227.48469842
  0
VERTEX
  8
0
 10
-49.21697651
 20
-247.48469842
  0
VERTEX
  8
0
 10
-39.21697651
 20
-247.48469842
  0
VERTEX
  8
0
 10
-44.21697651
 20
-227.48469842
  0
SEQEND
  0
POLYLINE
  8
По_умолчанию
 66
   1
 39
0.000000
 70
    1
  0
VERTEX
  8
0
 10
-33.21427856
 20
-227.48469842
  0
VERTEX
  8
0
 10
-38.21427856
 20
-247.48469842
  0
VERTEX
  8
0
 10
-28.21427856
 20
-247.48469842
  0
VERTEX
  8
0
 10
-33.21427856
 20
-227.48469842
  0
SEQEND
  0
POLYLINE
  8
По_умолчанию
 66
   1
 39
0.000000
 70
    1
  0
VERTEX
  8
0
 10
-22.21158061
 20
-227.48469842
  0
VERTEX
  8
0
 10
-27.21158061
 20
-247.48469842
  0
VERTEX
  8
0
 10
-17.21158061
 20
-247.48469842
  0
VERTEX
  8
0
 10
-22.21158061
 20
-227.48469842
  0
SEQEND
  0
POLYLINE
  8
По_умолчанию
 66
   1
 39
0.000000
 70
    1
  0
VERTEX
  8
0
 10
-11.20888265
 20
-227.48469842
  0
VERTEX
  8
0
 10
-16.20888265
 20
-247.48469842
  0
VERTEX
  8
0
 10
-6.20888265
 20
-247.48469842
  0
VERTEX
  8
0
 10
-11.20888265
 20
-227.48469842
  0
SEQEND
  0
POLYLINE
  8
По_умолчанию
 66
   1
 39
0.000000
 70
    1
  0
VERTEX
  8
0
 10
-0.20618470
 20
-227.48469842
  0
VERTEX
  8
0
 10
-5.20618470
 20
-247.48469842
  0
VERTEX
  8
0
 10
4.79381530
 20
-247.48469842
  0
VERTEX
  8
0
 10
-0.20618470
 20
-227.48469842
  0
SEQEND
  0
POLYLINE
  8
По_умолчанию
 66
   1
 39
0.000000
 70
    1
  0
VERTEX
  8
0
 10
10.85152674
 20
-227.48469842
  0
VERTEX
  8
0
 10
5.85152674
 20
-247.48469842
  0
VERTEX
  8
0
 10
15.85152674
 20
-247.48469842
  0
VERTEX
  8
0
 10
10.85152674
 20
-227.48469842
  0
SEQEND
  0
POLYLINE
  8
По_умолчанию
 66
   1
 39
0.000000
 70
    1
  0
VERTEX
  8
0
 10
21.85422470
 20
-227.48469842
  0
VERTEX
  8
0
 10
16.85422470
 20
-247.48469842
  0
VERTEX
  8
0
 10
26.85422470
 20
-247.48469842
  0
VERTEX
  8
0
 10
21.85422470
 20
-227.48469842
  0
SEQEND
  0
POLYLINE
  8
По_умолчанию
 66
   1
 39
0.000000
 70
    1
  0
VERTEX
  8
0
 10
32.85692265
 20
-227.48469842
  0
VERTEX
  8
0
 10
27.85692265
 20
-247.48469842
  0
VERTEX
  8
0
 10
37.85692265
 20
-247.48469842
  0
VERTEX
  8
0
 10
32.85692265
 20
-227.48469842
  0
SEQEND
  0
POLYLINE
  8
По_умолчанию
 66
   1
 39
0.000000
 70
    1
  0
VERTEX
  8
0
 10
43.85962060
 20
-227.48469842
  0
VERTEX
  8
0
 10
38.85962060
 20
-247.48469842
  0
VERTEX
  8
0
 10
48.85962060
 20
-247.48469842
  0
VERTEX
  8
0
 10
43.85962060
 20
-227.48469842
  0
SEQEND
  0
POLYLINE
  8
По_умолчанию
 66
   1
 39
0.000000
 70
    1
  0
VERTEX
  8
0
 10
54.86231856
 20
-227.48469842
  0
VERTEX
  8
0
 10
49.86231856
 20
-247.48469842
  0
VERTEX
  8
0
 10
59.86231856
 20
-247.48469842
  0
VERTEX
  8
0
 10
54.86231856
 20
-227.48469842
  0
SEQEND
  0
POLYLINE
  8
По_умолчанию
 66
   1
 39
0.000000
 70
    1
  0
VERTEX
  8
0
 10
65.86501651
 20
-227.48469842
  0
VERTEX
  8
0
 10
60.86501651
 20
-247.48469842
  0
VERTEX
  8
0
 10
70.86501651
 20
-247.48469842
  0
VERTEX
  8
0
 10
65.86501651
 20
-227.48469842
  0
SEQEND
  0
POLYLINE
  8
По_умолчанию
 66
   1
 39
0.000000
 70
    1
  0
VERTEX
  8
0
 10
75.85031055
 20
-217.54128790
  0
VERTEX
  8
0
 10
93.96130530
 20
-227.38973291
  0
VERTEX
  8
0
 10
96.46516239
 20
-217.70827126
  0
VERTEX
  8
0
 10
75.85031055
 20
-217.54128790
  0
SEQEND
  0
POLYLINE
  8
По_умолчанию
 66
   1
 39
0.000000
 70
    1
  0
VERTEX
  8
0
 10
78.48583581
 20
-207.00220600
  0
VERTEX
  8
0
 10
96.75344519
 20
-216.55701879
  0
VERTEX
  8
0
 10
99.10069716
 20
-206.83640111
  0
VERTEX
  8
0
 10
78.48583581
 20
-207.00220600
  0
SEQEND
  0
POLYLINE
  8
По_умолчанию
 66
   1
 39
0.000000
 70
    1
  0
VERTEX
  8
0
 10
80.93940713
 20
-196.47311760
  0
VERTEX
  8
0
 10
99.35814939
 20
-205.73324361
  0
VERTEX
  8
0
 10
101.54894489
 20
-195.97617361
  0
VERTEX
  8
0
 10
80.93940713
 20
-196.47311760
  0
SEQEND
  0
POLYLINE
  8
По_умолчанию
 66
   1
 39
0.000000
 70
    1
  0
VERTEX
  8
0
 10
83.23518760
 20
-185.85402533
  0
VERTEX
  8
0
 10
101.79985757
 20
-194.81801042
  0
VERTEX
  8
0
 10
103.83412468
 20
-185.02710865
  0
VERTEX
  8
0
 10
83.23518760
 20
-185.85402533
  0
SEQEND
  0
POLYLINE
  8
По_умолчанию
 66
   1
 39
0.000000
 70
    1
  0
VERTEX
  8
0
 10
85.35171310
 20
-175.24306170
  0
VERTEX
  8
0
 10
104.05765525
 20
-183.90837926
  0
VERTEX
  8
0
 10
105.93475267
 20
-174.08613383
  0
VERTEX
  8
0
 10
85.35171310
 20
-175.24306170
  0
SEQEND
  0
POLYLINE
  8
По_умолчанию
 66
   1
 39
0.000000
 70
    1
  0
VERTEX
  8
0
 10
87.29912582
 20
-164.59261379
  0
VERTEX
  8
0
 10
106.14162265
 20
-172.95684198
  0
VERTEX
  8
0
 10
107.86096570
 20
-163.10575780
  0
VERTEX
  8
0
 10
87.29912582
 20
-164.59261379
  0
SEQEND
  0
POLYLINE
  8
По_умолчанию
 66
   1
 39
0.000000
 70
    1
  0
VERTEX
  8
0
 10
89.08443011
 20
-153.85576600
  0
VERTEX
  8
0
 10
108.05931904
 20
-161.91514502
  0
VERTEX
  8
0
 10
109.61962811
 20
-152.03762328
  0
VERTEX
  8
0
 10
89.08443011
 20
-153.85576600
  0
SEQEND
  0
POLYLINE
  8
По_умолчанию
 66
   1
 39
0.000000
 70
    1
  0
VERTEX
  8
0
 10
90.68977959
 20
-143.13838941
  0
VERTEX
  8
0
 10
109.79158540
 20
-150.89216363
  0
VERTEX
  8
0
 10
111.19314906
 20
-140.99086981
  0
VERTEX
  8
0
 10
90.68977959
 20
-143.13838941
  0
SEQEND
  0
POLYLINE
  8
По_умолчанию
 66
   1
 39
0.000000
 70
    1
  0
VERTEX
  8
0
 10
92.12325214
 20
-132.39379411
  0
VERTEX
  8
0
 10
111.34708466
 20
-139.83988459
  0
VERTEX
  8
0
 10
112.58949988
 20
-129.91736453
  0
VERTEX
  8
0
 10
92.12325214
 20
-132.39379411
  0
SEQEND
  0
POLYLINE
  8
По_умолчанию
 66
   1
 39
0.000000
 70
    1
  0
VERTEX
  8
0
 10
93.38419072
 20
-121.62611999
  0
VERTEX
  8
0
 10
112.72510964
 20
-128.76256556
  0
VERTEX
  8
0
 10
113.80803474
 20
-118.82137483
  0
VERTEX
  8
0
 10
93.38419072
 20
-121.62611999
  0
SEQEND
  0
POLYLINE
  8
По_умолчанию
 66
   1
 39
0.000000
 70
    1
  0
VERTEX
  8
0
 10
94.47207137
 20
-110.83952703
  0
VERTEX
  8
0
 10
113.92509008
 20
-117.66448588
  0
VERTEX
  8
0
 10
114.84824498
 20
-107.70718780
  0
VERTEX
  8
0
 10
94.47207137
 20
-110.83952703
  0
SEQEND
  0
POLYLINE
  8
По_умолчанию
 66
   1
 39
0.000000
 70
    1
  0
VERTEX
  8
0
 10
95.38650399
 20
-100.03818993
  0
VERTEX
  8
0
 10
114.94659339
 20
-106.54994103
  0
VERTEX
  8
0
 10
115.70975986
 20
-96.57910471
  0
VERTEX
  8
0
 10
95.38650399
 20
-100.03818993
  0
SEQEND
  0
POLYLINE
  8
По_умолчанию
 66
   1
 39
0.000000
 70
    1
  0
VERTEX
  8
0
 10
96.12723275
 20
-89.22629274
  0
VERTEX
  8
0
 10
115.78932523
 20
-95.42323711
  0
VERTEX
  8
0
 10
116.39234699
 20
-85.44143544
  0
VERTEX
  8
0
 10
96.12723275
 20
-89.22629274
  0
SEQEND
  0
POLYLINE
  8
По_умолчанию
 66
   1
 39
0.000000
 70
    1
  0
VERTEX
  8
0
 10
96.69413636
 20
-78.40802344
  0
VERTEX
  8
0
 10
116.45312966
 20
-84.28868529
  0
VERTEX
  8
0
 10
116.89591250
 20
-74.29849293
  0
VERTEX
  8
0
 10
96.69413636
 20
-78.40802344
  0
SEQEND
  0
POLYLINE
  8
По_умолчанию
 66
   1
 39
0.000000
 70
    1
  0
VERTEX
  8
0
 10
97.08722796
 20
-67.58756856
  0
VERTEX
  8
0
 10
116.93798925
 20
-73.15059619
  0
VERTEX
  8
0
 10
117.22050092
 20
-63.15458763
  0
VERTEX
  8
0
 10
97.08722796
 20
-67.58756856
  0
SEQEND
  0
POLYLINE
  8
По_умолчанию
 66
   1
 39
0.000000
 70
    1
  0
VERTEX
  8
0
 10
97.30728466
 20
-56.71760275
  0
VERTEX
  8
0
 10
117.24505454
 20
-61.96024828
  0
VERTEX
  8
0
 10
117.36656186
 20
-51.96098651
  0
VERTEX
  8
0
 10
97.30728466
 20
-56.71760275
  0
SEQEND
  0
POLYLINE
  8
По_умолчанию
 66
   1
 39
0.000000
 70
    1
  0
VERTEX
  8
0
 10
97.35507228
 20
-45.84355096
  0
VERTEX
  8
0
 10
117.36844405
 20
-50.78975661
  0
VERTEX
  8
0
 10
117.34155592
 20
-40.78979276
  0
VERTEX
  8
0
 10
97.35507228
 20
-45.84355096
  0
SEQEND
  0
POLYLINE
  8
По_умолчанию
 66
   1
 39
0.000000
 70
    1
  0
VERTEX
  8
0
 10
97.23997681
 20
-35.03922974
  0
VERTEX
  8
0
 10
117.32994297
 20
-39.66451456
  0
VERTEX
  8
0
 10
117.14302216
 20
-29.66626169
  0
VERTEX
  8
0
 10
97.23997681
 20
-35.03922974
  0
SEQEND
  0
POLYLINE
  8
По_умолчанию
 66
   1
 39
0.000000
 70
    1
  0
VERTEX
  8
0
 10
96.94984241
 20
-24.17634288
  0
VERTEX
  8
0
 10
117.11165121
 20
-28.47767588
  0
VERTEX
  8
0
 10
116.76383041
 20
-18.48372668
  0
VERTEX
  8
0
 10
96.94984241
 20
-24.17634288
  0
SEQEND
  0
POLYLINE
  8
По_умолчанию
 66
   1
 39
0.000000
 70
    1
  0
VERTEX
  8
0
 10
96.48706678
 20
-13.36203338
  0
VERTEX
  8
0
 10
116.71524416
 20
-17.33957534
  0
VERTEX
  8
0
 10
116.20724304
 20
-7.35248693
  0
VERTEX
  8
0
 10
96.48706678
 20
-13.36203338
  0
SEQEND
  0
POLYLINE
  8
По_умолчанию
 66
   1
 39
0.000000
 70
    1
  0
VERTEX
  8
0
 10
95.85047021
 20
-2.54900864
  0
VERTEX
  8
0
 10
116.13985732
 20
-6.20151061
  0
VERTEX
  8
0
 10
115.47169505
 20
3.77614238
  0
VERTEX
  8
0
 10
95.85047021
 20
-2.54900864
  0
SEQEND
  0
POLYLINE
  8
По_умолчанию
 66
   1
 39
0.000000
 70
    1
  0
VERTEX
  8
0
 10
95.03996909
 20
8.25854392
  0
VERTEX
  8
0
 10
115.38537363
 20
4.93220746
  0
VERTEX
  8
0
 10
114.55713143
 20
14.89784918
  0
VERTEX
  8
0
 10
95.03996909
 20
8.25854392
  0
SEQEND
  0
POLYLINE
  8
По_умолчанию
 66
   1
 39
0.000000
 70
    1
  0
VERTEX
  8
0
 10
94.05561432
 20
19.05643161
  0
VERTEX
  8
0
 10
114.45181444
 20
16.05726160
  0
VERTEX
  8
0
 10
113.46363561
 20
26.00831695
  0
VERTEX
  8
0
 10
94.05561432
 20
19.05643161
  0
SEQEND
  0
POLYLINE
  8
По_умолчанию
 66
   1
 39
0.000000
 70
    1
  0
VERTEX
  8
0
 10
92.89759155
 20
29.84046183
  0
VERTEX
  8
0
 10
113.33933986
 20
27.16933363
  0
VERTEX
  8
0
 10
112.19142980
 20
37.10323028
  0
VERTEX
  8
0
 10
92.89759155
 20
29.84046183
  0
SEQEND
  0
POLYLINE
  8
По_умолчанию
 66
   1
 39
0.000000
 70
    1
  0
VERTEX
  8
0
 10
91.56622115
 20
40.60644754
  0
VERTEX
  8
0
 10
112.04824877
 20
38.26411010
  0
VERTEX
  8
0
 10
110.74087491
 20
48.17828044
  0
VERTEX
  8
0
 10
91.56622115
 20
40.60644754
  0
SEQEND
  0
POLYLINE
  8
По_умолчанию
 66
   1
 39
0.000000
 70
    1
  0
VERTEX
  8
0
 10
90.06195805
 20
51.35021261
  0
VERTEX
  8
0
 10
110.57897864
 20
49.33728780
  0
VERTEX
  8
0
 10
109.11247025
 20
59.22917099
  0
VERTEX
  8
0
 10
90.06195805
 20
51.35021261
  0
SEQEND
  0
POLYLINE
  8
По_умолчанию
 66
   1
 39
0.000000
 70
    1
  0
VERTEX
  8
0
 10
88.38539115
 20
62.06759727
  0
VERTEX
  8
0
 10
108.93210502
 20
60.38457936
  0
VERTEX
  8
0
 10
107.30685300
 20
70.25162328
  0
VERTEX
  8
0
 10
88.38539115
 20
62.06759727
  0
SEQEND
  0
POLYLINE
  8
По_умолчанию
 66
   1
 39
0.000000
 70
    1
  0
VERTEX
  8
0
 10
86.53724261
 20
72.75446344
  0
VERTEX
  8
0
 10
107.10834082
 20
71.40171877
  0
VERTEX
  8
0
 10
105.32479735
 20
81.24138201
  0
VERTEX
  8
0
 10
86.53724261
 20
72.75446344
  0
SEQEND
  0
POLYLINE
  8
По_умолчанию
 66
   1
 39
0.000000
 70
    1
  0
VERTEX
  8
0
 10
84.51836676
 20
83.40670006
  0
VERTEX
  8
0
 10
105.10853527
 20
82.38446687
  0
VERTEX
  8
0
 10
103.16721342
 20
92.19422066
  0
VERTEX
  8
0
 10
84.51836676
 20
83.40670006
  0
SEQEND
  0
POLYLINE
  8
По_умолчанию
 66
   1
 39
0.000000
 70
    1
  0
VERTEX
  8
0
 10
82.32974890
 20
94.02022840
  0
VERTEX
  8
0
 10
102.93367264
 20
93.32861677
  0
VERTEX
  8
0
 10
100.83514590
 20
103.10594696
  0
VERTEX
  8
0
 10
82.32974890
 20
94.02022840
  0
SEQEND
  0
POLYLINE
  8
По_умолчанию
 66
   1
 39
0.000000
 70
    1
  0
VERTEX
  8
0
 10
79.97250371
 20
104.59100716
  0
VERTEX
  8
0
 10
100.58487070
 20
104.22999925
  0
VERTEX
  8
0
 10
98.32977243
 20
113.97240818
  0
VERTEX
  8
0
 10
79.97250371
 20
104.59100716
  0
SEQEND
  0
POLYLINE
  8
По_умолчанию
 66
   1
 39
0.000000
 70
    1
  0
VERTEX
  8
0
 10
77.43545314
 20
115.16503392
  0
VERTEX
  8
0
 10
98.05096090
 20
115.13605725
  0
VERTEX
  8
0
 10
95.63924313
 20
124.84088169
  0
VERTEX
  8
0
 10
77.43545314
 20
115.16503392
  0
SEQEND
  0
POLYLINE
  8
По_умолчанию
 66
   1
 39
0.000000
 70
    1
  0
VERTEX
  8
0
 10
74.74401871
 20
125.63811428
  0
VERTEX
  8
0
 10
95.35734630
 20
125.93932149
  0
VERTEX
  8
0
 10
92.79050437
 20
135.60427480
  0
VERTEX
  8
0
 10
74.74401871
 20
125.63811428
  0
SEQEND
  0
POLYLINE
  8
По_умолчанию
 66
   1
 39
0.000000
 70
    1
  0
VERTEX
  8
0
 10
72.41708877
 20
131.36156830
  0
VERTEX
  8
0
 10
77.41539203
 20
151.36199241
  0
VERTEX
  8
0
 10
67.41539206
 20
151.36114405
  0
VERTEX
  8
0
 10
72.41708877
 20
131.36156830
  0
SEQEND
  0
POLYLINE
  8
По_умолчанию
 66
   1
 39
0.000000
 70
    1
  0
VERTEX
  8
0
 10
61.42009200
 20
131.36063536
  0
VERTEX
  8
0
 10
66.41839526
 20
151.36105947
  0
VERTEX
  8
0
 10
56.41839530
 20
151.36021111
  0
VERTEX
  8
0
 10
61.42009200
 20
131.36063536
  0
SEQEND
  0
POLYLINE
  8
По_умолчанию
 66
   1
 39
0.000000
 70
    1
  0
VERTEX
  8
0
 10
50.42309523
 20
131.35970242
  0
VERTEX
  8
0
 10
55.42139849
 20
151.36012653
  0
VERTEX
  8
0
 10
45.42139853
 20
151.35927817
  0
VERTEX
  8
0
 10
50.42309523
 20
131.35970242
  0
SEQEND
  0
POLYLINE
  8
По_умолчанию
 66
   1
 39
0.000000
 70
    1
  0
VERTEX
  8
0
 10
39.37111348
 20
131.35876481
  0
VERTEX
  8
0
 10
44.36941674
 20
151.35918892
  0
VERTEX
  8
0
 10
34.36941678
 20
151.35834056
  0
VERTEX
  8
0
 10
39.37111348
 20
131.35876481
  0
SEQEND
  0
POLYLINE
  8
По_умолчанию
 66
   1
 39
0.000000
 70
    1
  0
VERTEX
  8
0
 10
28.37411672
 20
131.35783187
  0
VERTEX
  8
0
 10
33.37241998
 20
151.35825598
  0
VERTEX
  8
0
 10
23.37242001
 20
151.35740762
  0
VERTEX
  8
0
 10
28.37411672
 20
131.35783187
  0
SEQEND
  0
POLYLINE
  8
По_умолчанию
 66
   1
 39
0.000000
 70
    1
  0
VERTEX
  8
0
 10
55.97265014
 20
151.36017329
  0
VERTEX
  8
0
 10
50.97434688
 20
131.35974918
  0
VERTEX
  8
0
 10
60.97434684
 20
131.36059754
  0
VERTEX
  8
0
 10
55.97265014
 20
151.36017329
  0
SEQEND
  0
POLYLINE
  8
По_умолчанию
 66
   1
 39
0.000000
 70
    1
  0
VERTEX
  8
0
 10
44.92135745
 20
151.35923574
  0
VERTEX
  8
0
 10
39.92305419
 20
131.35881164
  0
VERTEX
  8
0
 10
49.92305415
 20
131.35966000
  0
VERTEX
  8
0
 10
44.92135745
 20
151.35923574
  0
SEQEND
  0
POLYLINE
  8
По_умолчанию
 66
   1
 39
0.000000
 70
    1
  0
VERTEX
  8
0
 10
33.92504632
 20
151.35830286
  0
VERTEX
  8
0
 10
28.92674306
 20
131.35787875
  0
VERTEX
  8
0
 10
38.92674302
 20
131.35872711
  0
VERTEX
  8
0
 10
33.92504632
 20
151.35830286
  0
SEQEND
  0
POLYLINE
  8
По_умолчанию
 66
   1
 39
0.000000
 70
    1
  0
VERTEX
  8
0
 10
22.92873519
 20
151.35736998
  0
VERTEX
  8
0
 10
17.93043193
 20
131.35694587
  0
VERTEX
  8
0
 10
27.93043189
 20
131.35779423
  0
VERTEX
  8
0
 10
22.92873519
 20
151.35736998
  0
SEQEND
  0
POLYLINE
  8
По_умолчанию
 66
   1
 39
0.000000
 70
    1
  0
VERTEX
  8
0
 10
-23.28644602
 20
151.35736533
  0
VERTEX
  8
0
 10
-28.28814273
 20
131.35778958
  0
VERTEX
  8
0
 10
-18.28814276
 20
131.35694122
  0
VERTEX
  8
0
 10
-23.28644602
 20
151.35736533
  0
SEQEND
  0
POLYLINE
  8
По_умолчанию
 66
   1
 39
0.000000
 70
    1
  0
VERTEX
  8
0
 10
-34.33845496
 20
151.35830294
  0
VERTEX
  8
0
 10
-39.34015166
 20
131.35872719
  0
VERTEX
  8
0
 10
-29.34015170
 20
131.35787883
  0
VERTEX
  8
0
 10
-34.33845496
 20
151.35830294
  0
SEQEND
  0
POLYLINE
  8
По_умолчанию
 66
   1
 39
0.000000
 70
    1
  0
VERTEX
  8
0
 10
-45.33547878
 20
151.35923588
  0
VERTEX
  8
0
 10
-50.33717548
 20
131.35966013
  0
VERTEX
  8
0
 10
-40.33717551
 20
131.35881177
  0
VERTEX
  8
0
 10
-45.33547878
 20
151.35923588
  0
SEQEND
  0
POLYLINE
  8
По_умолчанию
 66
   1
 39
0.000000
 70
    1
  0
VERTEX
  8
0
 10
-56.33250259
 20
151.36016882
  0
VERTEX
  8
0
 10
-61.33419930
 20
131.36059308
  0
VERTEX
  8
0
 10
-51.33419933
 20
131.35974472
  0
VERTEX
  8
0
 10
-56.33250259
 20
151.36016882
  0
SEQEND
  0
POLYLINE
  8
По_умолчанию
 66
   1
 39
0.000000
 70
    1
  0
VERTEX
  8
0
 10
-67.32952641
 20
151.36110177
  0
VERTEX
  8
0
 10
-72.33122311
 20
131.36152602
  0
VERTEX
  8
0
 10
-62.33122315
 20
131.36067766
  0
VERTEX
  8
0
 10
-67.32952641
 20
151.36110177
  0
SEQEND
  0
POLYLINE
  8
По_умолчанию
 66
   1
 39
0.000000
 70
    1
  0
VERTEX
  8
0
 10
-95.89078551
 20
125.40022269
  0
VERTEX
  8
0
 10
-77.76472635
 20
115.57953129
  0
VERTEX
  8
0
 10
-75.27570207
 20
125.26481694
  0
VERTEX
  8
0
 10
-95.89078551
 20
125.40022269
  0
SEQEND
  0
POLYLINE
  8
По_умолчанию
 66
   1
 39
0.000000
 70
    1
  0
VERTEX
  8
0
 10
-98.58792858
 20
114.54406886
  0
VERTEX
  8
0
 10
-80.30570884
 20
105.01724142
  0
VERTEX
  8
0
 10
-77.97334531
 20
114.74144217
  0
VERTEX
  8
0
 10
-98.58792858
 20
114.54406886
  0
SEQEND
  0
POLYLINE
  8
По_умолчанию
 66
   1
 39
0.000000
 70
    1
  0
VERTEX
  8
0
 10
-101.10923912
 20
103.64689193
  0
VERTEX
  8
0
 10
-82.67563761
 20
94.41638081
  0
VERTEX
  8
0
 10
-80.50052667
 20
104.17695930
  0
VERTEX
  8
0
 10
-101.10923912
 20
103.64689193
  0
SEQEND
  0
POLYLINE
  8
По_умолчанию
 66
   1
 39
0.000000
 70
    1
  0
VERTEX
  8
0
 10
-103.44463315
 20
92.76247749
  0
VERTEX
  8
0
 10
-84.86630022
 20
83.82684401
  0
VERTEX
  8
0
 10
-82.84698246
 20
93.62083992
  0
VERTEX
  8
0
 10
-103.44463315
 20
92.76247749
  0
SEQEND
  0
POLYLINE
  8
По_умолчанию
 66
   1
 39
0.000000
 70
    1
  0
VERTEX
  8
0
 10
-105.61717908
 20
81.78102066
  0
VERTEX
  8
0
 10
-86.89736195
 20
73.14571832
  0
VERTEX
  8
0
 10
-85.03602168
 20
82.97096195
  0
VERTEX
  8
0
 10
-105.61717908
 20
81.78102066
  0
SEQEND
  0
POLYLINE
  8
По_умолчанию
 66
   1
 39
0.000000
 70
    1
  0
VERTEX
  8
0
 10
-107.60478020
 20
70.81126800
  0
VERTEX
  8
0
 10
-88.74888427
 20
62.47729005
  0
VERTEX
  8
0
 10
-87.04535298
 20
72.33112083
  0
VERTEX
  8
0
 10
-107.60478020
 20
70.81126800
  0
SEQEND
  0
POLYLINE
  8
По_умолчанию
 66
   1
 39
0.000000
 70
    1
  0
VERTEX
  8
0
 10
-109.41707795
 20
59.80544873
  0
VERTEX
  8
0
 10
-90.42988766
 20
51.77509352
  0
VERTEX
  8
0
 10
-88.88468406
 20
61.65498956
  0
VERTEX
  8
0
 10
-109.41707795
 20
59.80544873
  0
SEQEND
  0
POLYLINE
  8
По_умолчанию
 66
   1
 39
0.000000
 70
    1
  0
VERTEX
  8
0
 10
-111.05313777
 20
48.76777089
  0
VERTEX
  8
0
 10
-91.93949471
 20
41.04322241
  0
VERTEX
  8
0
 10
-90.55307696
 20
50.94664837
  0
VERTEX
  8
0
 10
-111.05313777
 20
48.76777089
  0
SEQEND
  0
POLYLINE
  8
По_умолчанию
 66
   1
 39
0.000000
 70
    1
  0
VERTEX
  8
0
 10
-112.51216000
 20
37.70247353
  0
VERTEX
  8
0
 10
-93.27695926
 20
30.28579957
  0
VERTEX
  8
0
 10
-92.04972455
 20
40.21020862
  0
VERTEX
  8
0
 10
-112.51216000
 20
37.70247353
  0
SEQEND
  0
POLYLINE
  8
По_умолчанию
 66
   1
 39
0.000000
 70
    1
  0
VERTEX
  8
0
 10
-113.79348116
 20
26.61382136
  0
VERTEX
  8
0
 10
-94.44166758
 20
19.50697177
  0
VERTEX
  8
0
 10
-93.37395172
 20
29.44980752
  0
VERTEX
  8
0
 10
-113.79348116
 20
26.61382136
  0
SEQEND
  0
POLYLINE
  8
По_умолчанию
 66
   1
 39
0.000000
 70
    1
  0
VERTEX
  8
0
 10
-114.89657489
 20
15.50609922
  0
VERTEX
  8
0
 10
-95.43313925
 20
8.71090435
  0
VERTEX
  8
0
 10
-94.52521645
 20
18.66960287
  0
VERTEX
  8
0
 10
-114.89657489
 20
15.50609922
  0
SEQEND
  0
POLYLINE
  8
По_умолчанию
 66
   1
 39
0.000000
 70
    1
  0
VERTEX
  8
0
 10
-115.82105268
 20
4.38360659
  0
VERTEX
  8
0
 10
-96.25102788
 20
-2.09822411
  0
VERTEX
  8
0
 10
-95.50311047
 20
7.87376765
  0
VERTEX
  8
0
 10
-115.82105268
 20
4.38360659
  0
SEQEND
  0
POLYLINE
  8
По_умолчанию
 66
   1
 39
0.000000
 70
    1
  0
VERTEX
  8
0
 10
-116.56666436
 20
-6.74934795
  0
VERTEX
  8
0
 10
-96.89512145
 20
-12.91622721
  0
VERTEX
  8
0
 10
-96.30735979
 20
-2.93351534
  0
VERTEX
  8
0
 10
-116.56666436
 20
-6.74934795
  0
SEQEND
  0
POLYLINE
  8
По_умолчанию
 66
   1
 39
0.000000
 70
    1
  0
VERTEX
  8
0
 10
-117.13556830
 20
-17.94150349
  0
VERTEX
  8
0
 10
-97.36716573
 20
-23.79045725
  0
VERTEX
  8
0
 10
-96.94041132
 20
-13.79956737
  0
VERTEX
  8
0
 10
-117.13556830
 20
-17.94150349
  0
SEQEND
  0
POLYLINE
  8
По_умолчанию
 66
   1
 39
0.000000
 70
    1
  0
VERTEX
  8
0
 10
-117.52239919
 20
-29.08244607
  0
VERTEX
  8
0
 10
-97.66274384
 20
-34.61363849
  0
VERTEX
  8
0
 10
-97.39625980
 20
-24.61718981
  0
VERTEX
  8
0
 10
-117.52239919
 20
-29.08244607
  0
SEQEND
  0
POLYLINE
  8
По_умолчанию
 66
   1
 39
0.000000
 70
    1
  0
VERTEX
  8
0
 10
-117.73044486
 20
-40.22090543
  0
VERTEX
  8
0
 10
-97.78469855
 20
-45.43312228
  0
VERTEX
  8
0
 10
-97.67844901
 20
-35.43368675
  0
VERTEX
  8
0
 10
-117.73044486
 20
-40.22090543
  0
SEQEND
  0
POLYLINE
  8
По_умолчанию
 66
   1
 39
0.000000
 70
    1
  0
VERTEX
  8
0
 10
-117.76390314
 20
-51.39018042
  0
VERTEX
  8
0
 10
-97.74301886
 20
-56.30588917
  0
VERTEX
  8
0
 10
-97.78514231
 20
-46.30597789
  0
VERTEX
  8
0
 10
-117.76390314
 20
-51.39018042
  0
SEQEND
  0
POLYLINE
  8
По_умолчанию
 66
   1
 39
0.000000
 70
    1
  0
VERTEX
  8
0
 10
-117.62734330
 20
-62.56848454
  0
VERTEX
  8
0
 10
-97.52999599
 20
-67.16159143
  0
VERTEX
  8
0
 10
-97.73292772
 20
-57.16365071
  0
VERTEX
  8
0
 10
-117.62734330
 20
-62.56848454
  0
SEQEND
  0
POLYLINE
  8
По_умолчанию
 66
   1
 39
0.000000
 70
    1
  0
VERTEX
  8
0
 10
-117.31257975
 20
-73.70068836
  0
VERTEX
  8
0
 10
-97.14422822
 20
-77.97123828
  0
VERTEX
  8
0
 10
-97.50730491
 20
-67.97783169
  0
VERTEX
  8
0
 10
-117.31257975
 20
-73.70068836
  0
SEQEND
  0
POLYLINE
  8
По_умолчанию
 66
   1
 39
0.000000
 70
    1
  0
VERTEX
  8
0
 10
-116.81626309
 20
-84.88848264
  0
VERTEX
  8
0
 10
-96.58173119
 20
-88.83357054
  0
VERTEX
  8
0
 10
-97.10575240
 20
-78.84730989
  0
VERTEX
  8
0
 10
-116.81626309
 20
-84.88848264
  0
SEQEND
  0
POLYLINE
  8
По_умолчанию
 66
   1
 39
0.000000
 70
    1
  0
VERTEX
  8
0
 10
-116.14288639
 20
-96.02150299
  0
VERTEX
  8
0
 10
-95.84766239
 20
-99.64143153
  0
VERTEX
  8
0
 10
-96.53184001
 20
-89.66486394
  0
VERTEX
  8
0
 10
-116.14288639
 20
-96.02150299
  0
SEQEND
  0
POLYLINE
  8
По_умолчанию
 66
   1
 39
0.000000
 70
    1
  0
VERTEX
  8
0
 10
-115.29045108
 20
-107.14845714
  0
VERTEX
  8
0
 10
-94.93973046
 20
-110.44211321
  0
VERTEX
  8
0
 10
-95.78397709
 20
-100.47781456
  0
VERTEX
  8
0
 10
-115.29045108
 20
-107.14845714
  0
SEQEND
  0
POLYLINE
  8
По_умолчанию
 66
   1
 39
0.000000
 70
    1
  0
VERTEX
  8
0
 10
-114.25902344
 20
-118.26502791
  0
VERTEX
  8
0
 10
-93.85803083
 20
-121.23142308
  0
VERTEX
  8
0
 10
-94.86219694
 20
-111.28196830
  0
VERTEX
  8
0
 10
-114.25902344
 20
-118.26502791
  0
SEQEND
  0
POLYLINE
  8
По_умолчанию
 66
   1
 39
0.000000
 70
    1
  0
VERTEX
  8
0
 10
-113.04880850
 20
-129.36689879
  0
VERTEX
  8
0
 10
-92.60279364
 20
-132.00517030
  0
VERTEX
  8
0
 10
-93.76666762
 20
-122.07313136
  0
VERTEX
  8
0
 10
-113.04880850
 20
-129.36689879
  0
SEQEND
  0
POLYLINE
  8
По_умолчанию
 66
   1
 39
0.000000
 70
    1
  0
VERTEX
  8
0
 10
-111.66015002
 20
-140.44975950
  0
VERTEX
  8
0
 10
-91.17438378
 20
-142.75917107
  0
VERTEX
  8
0
 10
-92.49769201
 20
-132.84711501
  0
VERTEX
  8
0
 10
-111.66015002
 20
-140.44975950
  0
SEQEND
  0
POLYLINE
  8
По_умолчанию
 66
   1
 39
0.000000
 70
    1
  0
VERTEX
  8
0
 10
-110.09353022
 20
-151.50931160
  0
VERTEX
  8
0
 10
-89.57330051
 20
-153.48925411
  0
VERTEX
  8
0
 10
-91.05570753
 20
-143.59974101
  0
VERTEX
  8
0
 10
-110.09353022
 20
-151.50931160
  0
SEQEND
  0
POLYLINE
  8
По_умолчанию
 66
   1
 39
0.000000
 70
    1
  0
VERTEX
  8
0
 10
-108.35829292
 20
-162.48881297
  0
VERTEX
  8
0
 10
-87.80902685
 20
-164.14037705
  0
VERTEX
  8
0
 10
-89.44938094
 20
-154.27583254
  0
VERTEX
  8
0
 10
-108.35829292
 20
-162.48881297
  0
SEQEND
  0
POLYLINE
  8
По_умолчанию
 66
   1
 39
0.000000
 70
    1
  0
VERTEX
  8
0
 10
-106.43858687
 20
-173.48908925
  0
VERTEX
  8
0
 10
-85.86544252
 20
-174.81035062
  0
VERTEX
  8
0
 10
-87.66404238
 20
-164.97342841
  0
VERTEX
  8
0
 10
-106.43858687
 20
-173.48908925
  0
SEQEND
  0
POLYLINE
  8
По_умолчанию
 66
   1
 39
0.000000
 70
    1
  0
VERTEX
  8
0
 10
-104.34318552
 20
-184.45330795
  0
VERTEX
  8
0
 10
-83.75147726
 20
-185.44404059
  0
VERTEX
  8
0
 10
-85.70780405
 20
-175.63726816
  0
VERTEX
  8
0
 10
-104.34318552
 20
-184.45330795
  0
SEQEND
  0
POLYLINE
  8
По_умолчанию
 66
   1
 39
0.000000
 70
    1
  0
VERTEX
  8
0
 10
-102.06189022
 20
-195.42918881
  0
VERTEX
  8
0
 10
-81.45688267
 20
-196.08772037
  0
VERTEX
  8
0
 10
-83.57110400
 20
-186.31377192
  0
VERTEX
  8
0
 10
-102.06189022
 20
-195.42918881
  0
SEQEND
  0
POLYLINE
  8
По_умолчанию
 66
   1
 39
0.000000
 70
    1
  0
VERTEX
  8
0
 10
-99.61748987
 20
-206.30852155
  0
VERTEX
  8
0
 10
-79.00457018
 20
-206.63645697
  0
VERTEX
  8
0
 10
-81.27529701
 20
-196.89767883
  0
VERTEX
  8
0
 10
-99.61748987
 20
-206.30852155
  0
SEQEND
  0
POLYLINE
  8
По_умолчанию
 66
   1
 39
0.000000
 70
    1
  0
VERTEX
  8
0
 10
-97.00087982
 20
-217.13931124
  0
VERTEX
  8
0
 10
-76.38535185
 20
-217.13680878
  0
VERTEX
  8
0
 10
-78.81188571
 20
-207.43567826
  0
VERTEX
  8
0
 10
-97.00087982
 20
-217.13931124
  0
SEQEND
  0
POLYLINE
  8
По_умолчанию
 66
   1
 39
0.000000
 70
    1
  0
VERTEX
  8
0
 10
-71.72372140
 20
-247.48469842
  0
VERTEX
  8
0
 10
-66.72372140
 20
-227.48469842
  0
VERTEX
  8
0
 10
-76.72372140
 20
-227.48469842
  0
VERTEX
  8
0
 10
-71.72372140
 20
-247.48469842
  0
SEQEND
  0
POLYLINE
  8
По_умолчанию
 66
   1
 39
0.000000
 70
    1
  0
VERTEX
  8
0
 10
-60.72102344
 20
-247.48469842
  0
VERTEX
  8
0
 10
-55.72102344
 20
-227.48469842
  0
VERTEX
  8
0
 10
-65.72102344
 20
-227.48469842
  0
VERTEX
  8
0
 10
-60.72102344
 20
-247.48469842
  0
SEQEND
  0
POLYLINE
  8
По_умолчанию
 66
   1
 39
0.000000
 70
    1
  0
VERTEX
  8
0
 10
-49.71832549
 20
-247.48469842
  0
VERTEX
  8
0
 10
-44.71832549
 20
-227.48469842
  0
VERTEX
  8
0
 10
-54.71832549
 20
-227.48469842
  0
VERTEX
  8
0
 10
-49.71832549
 20
-247.48469842
  0
SEQEND
  0
POLYLINE
  8
По_умолчанию
 66
   1
 39
0.000000
 70
    1
  0
VERTEX
  8
0
 10
-38.71562754
 20
-247.48469842
  0
VERTEX
  8
0
 10
-33.71562754
 20
-227.48469842
  0
VERTEX
  8
0
 10
-43.71562754
 20
-227.48469842
  0
VERTEX
  8
0
 10
-38.71562754
 20
-247.48469842
  0
SEQEND
  0
POLYLINE
  8
По_умолчанию
 66
   1
 39
0.000000
 70
    1
  0
VERTEX
  8
0
 10
-27.71292958
 20
-247.48469842
  0
VERTEX
  8
0
 10
-22.71292958
 20
-227.48469842
  0
VERTEX
  8
0
 10
-32.71292958
 20
-227.48469842
  0
VERTEX
  8
0
 10
-27.71292958
 20
-247.48469842
  0
SEQEND
  0
POLYLINE
  8
По_умолчанию
 66
   1
 39
0.000000
 70
    1
  0
VERTEX
  8
0
 10
-16.71023163
 20
-247.48469842
  0
VERTEX
  8
0
 10
-11.71023163
 20
-227.48469842
  0
VERTEX
  8
0
 10
-21.71023163
 20
-227.48469842
  0
VERTEX
  8
0
 10
-16.71023163
 20
-247.48469842
  0
SEQEND
  0
POLYLINE
  8
По_умолчанию
 66
   1
 39
0.000000
 70
    1
  0
VERTEX
  8
0
 10
-5.70753368
 20
-247.48469842
  0
VERTEX
  8
0
 10
-0.70753368
 20
-227.48469842
  0
VERTEX
  8
0
 10
-10.70753368
 20
-227.48469842
  0
VERTEX
  8
0
 10
-5.70753368
 20
-247.48469842
  0
SEQEND
  0
POLYLINE
  8
По_умолчанию
 66
   1
 39
0.000000
 70
    1
  0
VERTEX
  8
0
 10
5.29516428
 20
-247.48469842
  0
VERTEX
  8
0
 10
10.29516428
 20
-227.48469842
  0
VERTEX
  8
0
 10
0.29516428
 20
-227.48469842
  0
VERTEX
  8
0
 10
5.29516428
 20
-247.48469842
  0
SEQEND
  0
POLYLINE
  8
По_умолчанию
 66
   1
 39
0.000000
 70
    1
  0
VERTEX
  8
0
 10
16.29786223
 20
-247.48469842
  0
VERTEX
  8
0
 10
21.29786223
 20
-227.48469842
  0
VERTEX
  8
0
 10
11.29786223
 20
-227.48469842
  0
VERTEX
  8
0
 10
16.29786223
 20
-247.48469842
  0
SEQEND
  0
POLYLINE
  8
По_умолчанию
 66
   1
 39
0.000000
 70
    1
  0
VERTEX
  8
0
 10
27.30056018
 20
-247.48469842
  0
VERTEX
  8
0
 10
32.30056018
 20
-227.48469842
  0
VERTEX
  8
0
 10
22.30056018
 20
-227.48469842
  0
VERTEX
  8
0
 10
27.30056018
 20
-247.48469842
  0
SEQEND
  0
POLYLINE
  8
По_умолчанию
 66
   1
 39
0.000000
 70
    1
  0
VERTEX
  8
0
 10
38.30325814
 20
-247.48469842
  0
VERTEX
  8
0
 10
43.30325814
 20
-227.48469842
  0
VERTEX
  8
0
 10
33.30325814
 20
-227.48469842
  0
VERTEX
  8
0
 10
38.30325814
 20
-247.48469842
  0
SEQEND
  0
POLYLINE
  8
По_умолчанию
 66
   1
 39
0.000000
 70
    1
  0
VERTEX
  8
0
 10
49.30595609
 20
-247.48469842
  0
VERTEX
  8
0
 10
54.30595609
 20
-227.48469842
  0
VERTEX
  8
0
 10
44.30595609
 20
-227.48469842
  0
VERTEX
  8
0
 10
49.30595609
 20
-247.48469842
  0
SEQEND
  0
POLYLINE
  8
По_умолчанию
 66
   1
 39
0.000000
 70
    1
  0
VERTEX
  8
0
 10
60.30865404
 20
-247.48469842
  0
VERTEX
  8
0
 10
65.30865404
 20
-227.48469842
  0
VERTEX
  8
0
 10
55.30865404
 20
-227.48469842
  0
VERTEX
  8
0
 10
60.30865404
 20
-247.48469842
  0
SEQEND
  0
POLYLINE
  8
По_умолчанию
 66
   1
 39
0.000000
 70
    1
  0
VERTEX
  8
0
 10
71.31135200
 20
-247.48469842
  0
VERTEX
  8
0
 10
76.31135200
 20
-227.48469842
  0
VERTEX
  8
0
 10
66.31135200
 20
-227.48469842
  0
VERTEX
  8
0
 10
71.31135200
 20
-247.48469842
  0
SEQEND
  0
POLYLINE
  8
По_умолчанию
 66
   1
 39
0.000000
 70
    1
  0
VERTEX
  8
0
 10
96.57276133
 20
-217.20544989
  0
VERTEX
  8
0
 10
78.38397981
 20
-207.50141842
  0
VERTEX
  8
0
 10
75.95723341
 20
-217.20249578
  0
VERTEX
  8
0
 10
96.57276133
 20
-217.20544989
  0
SEQEND
  0
POLYLINE
  8
По_умолчанию
 66
   1
 39
0.000000
 70
    1
  0
VERTEX
  8
0
 10
99.20009632
 20
-206.33220516
  0
VERTEX
  8
0
 10
80.85704559
 20
-196.92303463
  0
VERTEX
  8
0
 10
78.58720660
 20
-206.66201974
  0
VERTEX
  8
0
 10
99.20009632
 20
-206.33220516
  0
SEQEND
  0
POLYLINE
  8
По_умолчанию
 66
   1
 39
0.000000
 70
    1
  0
VERTEX
  8
0
 10
101.65125981
 20
-195.42048716
  0
VERTEX
  8
0
 10
83.15966989
 20
-186.30670079
  0
VERTEX
  8
0
 10
81.04631041
 20
-196.08083562
  0
VERTEX
  8
0
 10
101.65125981
 20
-195.42048716
  0
SEQEND
  0
POLYLINE
  8
По_умолчанию
 66
   1
 39
0.000000
 70
    1
  0
VERTEX
  8
0
 10
103.91791072
 20
-184.51727424
  0
VERTEX
  8
0
 10
85.28269172
 20
-175.70089103
  0
VERTEX
  8
0
 10
83.32618421
 20
-185.50762741
  0
VERTEX
  8
0
 10
103.91791072
 20
-184.51727424
  0
SEQEND
  0
POLYLINE
  8
По_умолчанию
 66
   1
 39
0.000000
 70
    1
  0
VERTEX
  8
0
 10
106.01103483
 20
-173.57131960
  0
VERTEX
  8
0
 10
87.23687208
 20
-165.05481720
  0
VERTEX
  8
0
 10
85.43783128
 20
-174.89165877
  0
VERTEX
  8
0
 10
106.01103483
 20
-173.57131960
  0
SEQEND
  0
POLYLINE
  8
По_умолчанию
 66
   1
 39
0.000000
 70
    1
  0
VERTEX
  8
0
 10
107.93820023
 20
-162.53437735
  0
VERTEX
  8
0
 10
89.02921434
 20
-154.32156707
  0
VERTEX
  8
0
 10
87.38894902
 20
-164.18612635
  0
VERTEX
  8
0
 10
107.93820023
 20
-162.53437735
  0
SEQEND
  0
POLYLINE
  8
По_умолчанию
 66
   1
 39
0.000000
 70
    1
  0
VERTEX
  8
0
 10
109.68012078
 20
-151.51526647
  0
VERTEX
  8
0
 10
90.64176985
 20
-143.60696743
  0
VERTEX
  8
0
 10
89.16002335
 20
-153.49657952
  0
VERTEX
  8
0
 10
109.68012078
 20
-151.51526647
  0
SEQEND
  0
POLYLINE
  8
По_умолчанию
 66
   1
 39
0.000000
 70
    1
  0
VERTEX
  8
0
 10
111.24546595
 20
-140.46598887
  0
VERTEX
  8
0
 10
92.08261344
 20
-132.86433881
  0
VERTEX
  8
0
 10
90.75981959
 20
-142.77646353
  0
VERTEX
  8
0
 10
111.24546595
 20
-140.46598887
  0
SEQEND
  0
POLYLINE
  8
По_умолчанию
 66
   1
 39
0.000000
 70
    1
  0
VERTEX
  8
0
 10
112.63349040
 20
-129.39079457
  0
VERTEX
  8
0
 10
93.35105178
 20
-122.09781432
  0
VERTEX
  8
0
 10
92.18758327
 20
-132.02990076
  0
VERTEX
  8
0
 10
112.63349040
 20
-129.39079457
  0
SEQEND
  0
POLYLINE
  8
По_умолчанию
 66
   1
 39
0.000000
 70
    1
  0
VERTEX
  8
0
 10
113.84358538
 20
-118.29395704
  0
VERTEX
  8
0
 10
94.44652437
 20
-111.31154885
  0
VERTEX
  8
0
 10
93.44269240
 20
-121.26103735
  0
VERTEX
  8
0
 10
113.84358538
 20
-118.29395704
  0
SEQEND
  0
POLYLINE
  8
По_умолчанию
 66
   1
 39
0.000000
 70
    1
  0
VERTEX
  8
0
 10
114.87527961
 20
-107.17976769
  0
VERTEX
  8
0
 10
95.36860434
 20
-100.50971372
  0
VERTEX
  8
0
 10
94.52465839
 20
-110.47403784
  0
VERTEX
  8
0
 10
114.87527961
 20
-107.17976769
  0
SEQEND
  0
POLYLINE
  8
По_умолчанию
 66
   1
 39
0.000000
 70
    1
  0
VERTEX
  8
0
 10
115.72823986
 20
-96.05253035
  0
VERTEX
  8
0
 10
96.11699900
 20
-89.69649133
  0
VERTEX
  8
0
 10
95.43312662
 20
-99.67307985
  0
VERTEX
  8
0
 10
115.72823986
 20
-96.05253035
  0
SEQEND
  0
POLYLINE
  8
По_умолчанию
 66
   1
 39
0.000000
 70
    1
  0
VERTEX
  8
0
 10
116.40227132
 20
-84.91655571
  0
VERTEX
  8
0
 10
96.69155015
 20
-78.87606975
  0
VERTEX
  8
0
 10
96.16787689
 20
-88.86234865
  0
VERTEX
  8
0
 10
116.40227132
 20
-84.91655571
  0
SEQEND
  0
POLYLINE
  8
По_умолчанию
 66
   1
 39
0.000000
 70
    1
  0
VERTEX
  8
0
 10
116.89731770
 20
-73.77615578
  0
VERTEX
  8
0
 10
97.09223410
 20
-68.05263732
  0
VERTEX
  8
0
 10
96.72882348
 20
-78.04603178
  0
VERTEX
  8
0
 10
116.89731770
 20
-73.77615578
  0
SEQEND
  0
POLYLINE
  8
По_умолчанию
 66
   1
 39
0.000000
 70
    1
  0
VERTEX
  8
0
 10
117.21453874
 20
-62.58259483
  0
VERTEX
  8
0
 10
97.31982674
 20
-57.17885218
  0
VERTEX
  8
0
 10
97.11744338
 20
-67.17680402
  0
VERTEX
  8
0
 10
117.21453874
 20
-62.58259483
  0
SEQEND
  0
POLYLINE
  8
По_умолчанию
 66
   1
 39
0.000000
 70
    1
  0
VERTEX
  8
0
 10
117.35114863
 20
-51.44628797
  0
VERTEX
  8
0
 10
97.37241650
 20
-46.36197265
  0
VERTEX
  8
0
 10
97.33023660
 20
-56.36188369
  0
VERTEX
  8
0
 10
117.35114863
 20
-51.44628797
  0
SEQEND
  0
POLYLINE
  8
По_умолчанию
 66
   1
 39
0.000000
 70
    1
  0
VERTEX
  8
0
 10
117.31857348
 20
-40.28173259
  0
VERTEX
  8
0
 10
97.26663703
 20
-35.49426513
  0
VERTEX
  8
0
 10
97.37276252
 20
-45.49370198
  0
VERTEX
  8
0
 10
117.31857348
 20
-40.28173259
  0
SEQEND
  0
POLYLINE
  8
По_умолчанию
 66
   1
 39
0.000000
 70
    1
  0
VERTEX
  8
0
 10
117.11035598
 20
-29.10019689
  0
VERTEX
  8
0
 10
96.98399499
 20
-24.63593960
  0
VERTEX
  8
0
 10
97.25097521
 20
-34.63237504
  0
VERTEX
  8
0
 10
117.11035598
 20
-29.10019689
  0
SEQEND
  0
POLYLINE
  8
По_умолчанию
 66
   1
 39
0.000000
 70
    1
  0
VERTEX
  8
0
 10
116.72411967
 20
-17.96649300
  0
VERTEX
  8
0
 10
96.52880008
 20
-13.82534987
  0
VERTEX
  8
0
 10
96.95594679
 20
-23.81622298
  0
VERTEX
  8
0
 10
116.72411967
 20
-17.96649300
  0
SEQEND
  0
POLYLINE
  8
По_умолчанию
 66
   1
 39
0.000000
 70
    1
  0
VERTEX
  8
0
 10
116.15900901
 20
-6.83193980
  0
VERTEX
  8
0
 10
95.89987127
 20
-3.01522158
  0
VERTEX
  8
0
 10
96.48719655
 20
-12.99795913
  0
VERTEX
  8
0
 10
116.15900901
 20
-6.83193980
  0
SEQEND
  0
POLYLINE
  8
По_умолчанию
 66
   1
 39
0.000000
 70
    1
  0
VERTEX
  8
0
 10
115.41486826
 20
4.29915612
  0
VERTEX
  8
0
 10
95.09708828
 20
7.79026144
  0
VERTEX
  8
0
 10
95.84454224
 20
-2.18176506
  0
VERTEX
  8
0
 10
115.41486826
 20
4.29915612
  0
SEQEND
  0
POLYLINE
  8
По_умолчанию
 66
   1
 39
0.000000
 70
    1
  0
VERTEX
  8
0
 10
114.48685556
 20
15.47542260
  0
VERTEX
  8
0
 10
94.11539881
 20
18.63829313
  0
VERTEX
  8
0
 10
95.02363113
 20
8.67962283
  0
VERTEX
  8
0
 10
114.48685556
 20
15.47542260
  0
SEQEND
  0
POLYLINE
  8
По_умолчанию
 66
   1
 39
0.000000
 70
    1
  0
VERTEX
  8
0
 10
113.38956500
 20
26.53371397
  0
VERTEX
  8
0
 10
92.97015038
 20
29.37052674
  0
VERTEX
  8
0
 10
94.03746374
 20
19.42764777
  0
VERTEX
  8
0
 10
113.38956500
 20
26.53371397
  0
SEQEND
  0
POLYLINE
  8
По_умолчанию
 66
   1
 39
0.000000
 70
    1
  0
VERTEX
  8
0
 10
112.10878345
 20
37.62854371
  0
VERTEX
  8
0
 10
91.64642756
 20
40.13692791
  0
VERTEX
  8
0
 10
92.87334745
 20
30.21247994
  0
VERTEX
  8
0
 10
112.10878345
 20
37.62854371
  0
SEQEND
  0
POLYLINE
  8
По_умолчанию
 66
   1
 39
0.000000
 70
    1
  0
VERTEX
  8
0
 10
110.64973379
 20
48.70266289
  0
VERTEX
  8
0
 10
90.14971466
 20
50.88193244
  0
VERTEX
  8
0
 10
91.53594301
 20
40.97847996
  0
VERTEX
  8
0
 10
110.64973379
 20
48.70266289
  0
SEQEND
  0
POLYLINE
  8
По_умолчанию
 66
   1
 39
0.000000
 70
    1
  0
VERTEX
  8
0
 10
109.01295282
 20
59.75177932
  0
VERTEX
  8
0
 10
88.48056392
 20
61.60137549
  0
VERTEX
  8
0
 10
90.02574089
 20
51.72147528
  0
VERTEX
  8
0
 10
109.01295282
 20
59.75177932
  0
SEQEND
  0
POLYLINE
  8
По_умолчанию
 66
   1
 39
0.000000
 70
    1
  0
VERTEX
  8
0
 10
107.19911496
 20
70.77162038
  0
VERTEX
  8
0
 10
86.63966106
 20
72.29111221
  0
VERTEX
  8
0
 10
88.34336536
 20
62.43731134
  0
VERTEX
  8
0
 10
107.19911496
 20
70.77162038
  0
SEQEND
  0
POLYLINE
  8
По_умолчанию
 66
   1
 39
0.000000
 70
    1
  0
VERTEX
  8
0
 10
105.20903131
 20
81.75793850
  0
VERTEX
  8
0
 10
84.62782441
 20
82.94702309
  0
VERTEX
  8
0
 10
86.48957365
 20
73.12185695
  0
VERTEX
  8
0
 10
105.20903131
 20
81.75793850
  0
SEQEND
  0
POLYLINE
  8
По_умолчанию
 66
   1
 39
0.000000
 70
    1
  0
VERTEX
  8
0
 10
103.04364851
 20
92.70651665
  0
VERTEX
  8
0
 10
82.44600366
 20
93.56501923
  0
VERTEX
  8
0
 10
84.46525478
 20
83.77100959
  0
VERTEX
  8
0
 10
103.04364851
 20
92.70651665
  0
SEQEND
  0
POLYLINE
  8
По_умолчанию
 66
   1
 39
0.000000
 70
    1
  0
VERTEX
  8
0
 10
100.70404721
 20
103.61317369
  0
VERTEX
  8
0
 10
80.09527846
 20
104.14104757
  0
VERTEX
  8
0
 10
82.27142826
 20
94.38070065
  0
VERTEX
  8
0
 10
100.70404721
 20
103.61317369
  0
SEQEND
  0
POLYLINE
  8
По_умолчанию
 66
   1
 39
0.000000
 70
    1
  0
VERTEX
  8
0
 10
98.17906388
 20
114.52537007
  0
VERTEX
  8
0
 10
77.56446514
 20
114.72112274
  0
VERTEX
  8
0
 10
79.89759315
 20
104.99710538
  0
VERTEX
  8
0
 10
98.17906388
 20
114.52537007
  0
SEQEND
  0
POLYLINE
  8
По_умолчанию
 66
   1
 39
0.000000
 70
    1
  0
VERTEX
  8
0
 10
95.49398108
 20
125.33556300
  0
VERTEX
  8
0
 10
74.87889227
 20
125.20097797
  0
VERTEX
  8
0
 10
77.36753096
 20
115.51559324
  0
VERTEX
  8
0
 10
95.49398108
 20
125.33556300
  0
SEQEND
  0
POLYLINE
  8
По_умолчанию
 66
   1
 39
0.000000
 70
    1
  0
VERTEX
  8
0
 10
66.97063659
 20
151.36110632
  0
VERTEX
  8
0
 10
61.97233333
 20
131.36068221
  0
VERTEX
  8
0
 10
71.97233329
 20
131.36153057
  0
VERTEX
  8
0
 10
66.97063659
 20
151.36110632
  0
SEQEND
  0
POLYLINE
  8
По_умолчанию
 66
   1
 39
0.000000
 70
    1
  0
VERTEX
  8
0
 10
-0.20588505
 20
136.58328378
 42
-0.05572464
  0
VERTEX
  8
0
 10
-7.39691548
 20
132.42020345
 42
-0.00936081
  0
VERTEX
  8
0
 10
-8.74957922
 20
131.85894938
 42
-0.00931255
  0
VERTEX
  8
0
 10
-9.97808367
 20
131.40307474
  0
VERTEX
  8
0
 10
-11.71592471
 20
130.81139320
 42
-0.00641108
  0
VERTEX
  8
0
 10
-12.00920495
 20
130.71820881
 42
-0.00512886
  0
VERTEX
  8
0
 10
-12.48162791
 20
130.57936605
 42
-0.00512886
  0
VERTEX
  8
0
 10
-12.71928132
 20
130.51511364
  0
VERTEX
  8
0
 10
-13.61495859
 20
130.29012867
 42
-0.00641108
  0
VERTEX
  8
0
 10
-13.91489013
 20
130.22129772
 42
-0.00512886
  0
VERTEX
  8
0
 10
-14.39710413
 20
130.12164618
 42
-0.00512886
  0
VERTEX
  8
0
 10
-14.63922451
 20
130.07709019
  0
VERTEX
  8
0
 10
-17.49772852
 20
129.60393782
 42
-0.00641108
  0
VERTEX
  8
0
 10
-17.80229276
 20
129.55992356
 42
-0.00512886
  0
VERTEX
  8
0
 10
-18.29105237
 20
129.50013392
 42
-0.00512886
  0
VERTEX
  8
0
 10
-18.53601020
 20
129.47557421
  0
VERTEX
  8
0
 10
-19.45641096
 20
129.39995383
 42
-0.00641108
  0
VERTEX
  8
0
 10
-19.76355811
 20
129.38105248
 42
-0.00512886
  0
VERTEX
  8
0
 10
-20.25557389
 20
129.36152714
 42
-0.00512886
  0
VERTEX
  8
0
 10
-20.50172054
 20
129.35712900
  0
VERTEX
  8
0
 10
-72.08386789
 20
129.36150503
 42
0.01551585
  0
VERTEX
  8
0
 10
-81.77076337
 20
88.93471439
 42
0.05127887
  0
VERTEX
  8
0
 10
-95.76982544
 20
-48.06046256
 42
0.06605361
  0
VERTEX
  8
0
 10
-72.59292725
 20
-223.60219810
 42
0.00120690
  0
VERTEX
  8
0
 10
-72.08245942
 20
-225.48469842
  0
VERTEX
  8
0
 10
71.67072601
 20
-225.48469842
 42
0.01551657
  0
VERTEX
  8
0
 10
81.35813760
 20
-185.05614160
 42
0.05127906
  0
VERTEX
  8
0
 10
95.35730766
 20
-48.06044453
 42
0.06605293
  0
VERTEX
  8
0
 10
72.18089930
 20
127.47947000
 42
0.00120689
  0
VERTEX
  8
0
 10
71.67056423
 20
129.36150496
  0
VERTEX
  8
0
 10
20.08920276
 20
129.35712900
 42
-0.00641108
  0
VERTEX
  8
0
 10
19.78153880
 20
129.36341558
 42
-0.00512886
  0
VERTEX
  8
0
 10
19.28957471
 20
129.38420248
 42
-0.00512886
  0
VERTEX
  8
0
 10
19.04389318
 20
129.39995383
  0
VERTEX
  8
0
 10
18.12349242
 20
129.47557421
 42
-0.00641108
  0
VERTEX
  8
0
 10
17.81737909
 20
129.50705851
 42
-0.00512886
  0
VERTEX
  8
0
 10
17.32877440
 20
129.56810123
 42
-0.00512886
  0
VERTEX
  8
0
 10
17.08521074
 20
129.60393782
  0
VERTEX
  8
0
 10
14.22670673
 20
130.07709019
 42
-0.00641108
  0
VERTEX
  8
0
 10
13.92420424
 20
130.13356032
 42
-0.00512886
  0
VERTEX
  8
0
 10
13.44224736
 20
130.23444802
 42
-0.00512886
  0
VERTEX
  8
0
 10
13.20244081
 20
130.29012867
  0
VERTEX
  8
0
 10
12.30676354
 20
130.51511364
 42
-0.00641108
  0
VERTEX
  8
0
 10
12.00990781
 20
130.59618955
 42
-0.00512886
  0
VERTEX
  8
0
 10
11.53784242
 20
130.73624323
 42
-0.00512886
  0
VERTEX
  8
0
 10
11.30340693
 20
130.81139320
  0
VERTEX
  8
0
 10
9.56488088
 20
131.40330796
 42
-0.00943049
  0
VERTEX
  8
0
 10
8.29333123
 20
131.87592735
 42
-0.01431290
  0
VERTEX
  8
0
 10
6.31771102
 20
132.72066580
 42
-0.04437705
  0
VERTEX
  8
0
 10
0.57142087
 20
136.02528094
 42
-0.00708962
  0
VERTEX
  8
0
 10
-0.20588505
 20
136.58328378
  0
SEQEND
  0
POLYLINE
  8
По_умолчанию
 66
   1
 39
0.000000
 70
    1
  0
VERTEX
  8
0
 10
-0.20554756
 20
132.92722998
 42
-0.05680871
  0
VERTEX
  8
0
 10
-8.32455641
 20
128.81026716
 42
-0.00503544
  0
VERTEX
  8
0
 10
-9.00180717
 20
128.56635441
  0
VERTEX
  8
0
 10
-10.75903565
 20
127.96807204
 42
-0.01345314
  0
VERTEX
  8
0
 10
-11.82474232
 20
127.64859913
 42
-0.00320553
  0
VERTEX
  8
0
 10
-11.97908991
 20
127.60784531
  0
VERTEX
  8
0
 10
-12.89435355
 20
127.37794044
 42
-0.01345314
  0
VERTEX
  8
0
 10
-13.98266084
 20
127.14689743
 42
-0.00320553
  0
VERTEX
  8
0
 10
-14.13982958
 20
127.11893245
  0
VERTEX
  8
0
 10
-17.01825732
 20
126.64248222
 42
-0.01345314
  0
VERTEX
  8
0
 10
-18.12184068
 20
126.50142407
 42
-0.00320553
  0
VERTEX
  8
0
 10
-18.28077279
 20
126.48643615
  0
VERTEX
  8
0
 10
-19.22130056
 20
126.40916213
 42
-0.01345314
  0
VERTEX
  8
0
 10
-20.33273262
 20
126.35903819
 42
-0.00320553
  0
VERTEX
  8
0
 10
-20.49235845
 20
126.35712820
  0
VERTEX
  8
0
 10
-69.78787199
 20
126.36131023
 42
0.01587394
  0
VERTEX
  8
0
 10
-79.48007640
 20
85.16544370
 42
0.05007291
  0
VERTEX
  8
0
 10
-92.76982496
 20
-48.06047139
 42
0.06592894
  0
VERTEX
  8
0
 10
-69.78659789
 20
-222.48469842
  0
VERTEX
  8
0
 10
69.37468627
 20
-222.48469842
 42
0.01587472
  0
VERTEX
  8
0
 10
79.06745604
 20
-181.28685698
 42
0.05007309
  0
VERTEX
  8
0
 10
92.35730718
 20
-48.06043560
 42
0.06592801
  0
VERTEX
  8
0
 10
69.37474595
 20
126.36131018
  0
VERTEX
  8
0
 10
20.07887903
 20
126.35712812
 42
-0.01345314
  0
VERTEX
  8
0
 10
18.96707149
 20
126.39808710
 42
-0.00320553
  0
VERTEX
  8
0
 10
18.80782437
 20
126.40924087
  0
VERTEX
  8
0
 10
17.86729659
 20
126.48651489
 42
-0.01345314
  0
VERTEX
  8
0
 10
16.76258778
 20
126.61846971
 42
-0.00320553
  0
VERTEX
  8
0
 10
16.60479081
 20
126.64263926
  0
VERTEX
  8
0
 10
13.72636306
 20
127.11908949
 42
-0.01345314
  0
VERTEX
  8
0
 10
12.63618791
 20
127.34115205
 42
-0.00320553
  0
VERTEX
  8
0
 10
12.48090309
 20
127.37817472
  0
VERTEX
  8
0
 10
11.56563946
 20
127.60807959
 42
-0.01345314
  0
VERTEX
  8
0
 10
10.49733511
 20
127.91875536
 42
-0.00320553
  0
VERTEX
  8
0
 10
10.34560755
 20
127.96838198
  0
VERTEX
  8
0
 10
8.58835141
 20
128.56667376
 42
-0.04143236
  0
VERTEX
  8
0
 10
2.56405344
 20
131.25786270
 42
-0.02031360
  0
VERTEX
  8
0
 10
-0.20554756
 20
132.92722998
  0
SEQEND
  0
POLYLINE
  8
По_умолчанию
 66
   1
 39
0.000000
 70
    1
  0
VERTEX
  8
0
 10
-81.36608250
 20
-48.00716501
  0
VERTEX
  8
0
 10
-81.33972659
 20
-45.92436496
  0
VERTEX
  8
0
 10
-81.26108137
 20
-43.85455955
  0
VERTEX
  8
0
 10
-81.13078063
 20
-41.79838256
  0
VERTEX
  8
0
 10
-80.94945815
 20
-39.75646777
  0
VERTEX
  8
0
 10
-80.71774773
 20
-37.72944898
  0
VERTEX
  8
0
 10
-80.43628313
 20
-35.71795996
  0
VERTEX
  8
0
 10
-80.10569816
 20
-33.72263450
  0
VERTEX
  8
0
 10
-79.72662659
 20
-31.74410638
  0
VERTEX
  8
0
 10
-79.29970221
 20
-29.78300940
  0
VERTEX
  8
0
 10
-78.82555881
 20
-27.83997733
  0
VERTEX
  8
0
 10
-78.30483016
 20
-25.91564396
  0
VERTEX
  8
0
 10
-77.73815006
 20
-24.01064308
  0
VERTEX
  8
0
 10
-77.12615229
 20
-22.12560846
  0
VERTEX
  8
0
 10
-76.46947064
 20
-20.26117390
  0
VERTEX
  8
0
 10
-75.76873888
 20
-18.41797318
  0
VERTEX
  8
0
 10
-75.02459081
 20
-16.59664009
  0
VERTEX
  8
0
 10
-74.23766021
 20
-14.79780841
  0
VERTEX
  8
0
 10
-73.40858086
 20
-13.02211192
  0
VERTEX
  8
0
 10
-72.53798655
 20
-11.27018441
  0
VERTEX
  8
0
 10
-71.62651107
 20
-9.54265967
  0
VERTEX
  8
0
 10
-70.67478819
 20
-7.84017148
  0
VERTEX
  8
0
 10
-69.68345171
 20
-6.16335362
  0
VERTEX
  8
0
 10
-68.65313541
 20
-4.51283988
  0
VERTEX
  8
0
 10
-67.58447308
 20
-2.88926405
  0
VERTEX
  8
0
 10
-66.47809849
 20
-1.29325991
  0
VERTEX
  8
0
 10
-65.33464544
 20
0.27453875
  0
VERTEX
  8
0
 10
-64.15474771
 20
1.81349816
  0
VERTEX
  8
0
 10
-62.93903908
 20
3.32298452
  0
VERTEX
  8
0
 10
-61.68815334
 20
4.80236405
  0
VERTEX
  8
0
 10
-60.40272428
 20
6.25100296
  0
VERTEX
  8
0
 10
-59.08338568
 20
7.66826748
  0
VERTEX
  8
0
 10
-57.73077132
 20
9.05352381
  0
VERTEX
  8
0
 10
-56.34551499
 20
10.40613817
  0
VERTEX
  8
0
 10
-54.92825048
 20
11.72547677
  0
VERTEX
  8
0
 10
-53.47961156
 20
13.01090583
  0
VERTEX
  8
0
 10
-52.00023203
 20
14.26179157
  0
VERTEX
  8
0
 10
-50.49074567
 20
15.47750020
  0
VERTEX
  8
0
 10
-48.95178627
 20
16.65739793
  0
VERTEX
  8
0
 10
-47.38398760
 20
17.80085098
  0
VERTEX
  8
0
 10
-45.78798346
 20
18.90722557
  0
VERTEX
  8
0
 10
-44.16440763
 20
19.97588790
  0
VERTEX
  8
0
 10
-42.51389389
 20
21.00620420
  0
VERTEX
  8
0
 10
-40.83707603
 20
21.99754068
  0
VERTEX
  8
0
 10
-39.13458784
 20
22.94926356
  0
VERTEX
  8
0
 10
-37.40706310
 20
23.86073904
  0
VERTEX
  8
0
 10
-35.65513559
 20
24.73133335
  0
VERTEX
  8
0
 10
-33.87943910
 20
25.56041270
  0
VERTEX
  8
0
 10
-32.08060742
 20
26.34734330
  0
VERTEX
  8
0
 10
-30.25927433
 20
27.09149137
  0
VERTEX
  8
0
 10
-28.41607361
 20
27.79222313
  0
VERTEX
  8
0
 10
-26.55163905
 20
28.44890478
  0
VERTEX
  8
0
 10
-24.66660444
 20
29.06090255
  0
VERTEX
  8
0
 10
-22.76160355
 20
29.62758265
  0
VERTEX
  8
0
 10
-20.83727018
 20
30.14831130
  0
VERTEX
  8
0
 10
-18.89423811
 20
30.62245470
  0
VERTEX
  8
0
 10
-16.93314113
 20
31.04937908
  0
VERTEX
  8
0
 10
-14.95461301
 20
31.42845065
  0
VERTEX
  8
0
 10
-12.95928755
 20
31.75903562
  0
VERTEX
  8
0
 10
-10.94779853
 20
32.04050022
  0
VERTEX
  8
0
 10
-8.92077974
 20
32.27221064
  0
VERTEX
  8
0
 10
-6.87886495
 20
32.45353312
  0
VERTEX
  8
0
 10
-4.82268796
 20
32.58383386
  0
VERTEX
  8
0
 10
-2.75288255
 20
32.66247908
  0
VERTEX
  8
0
 10
-0.67008250
 20
32.68883499
  0
VERTEX
  8
0
 10
1.41271754
 20
32.66247908
  0
VERTEX
  8
0
 10
3.48252295
 20
32.58383386
  0
VERTEX
  8
0
 10
5.53869994
 20
32.45353312
  0
VERTEX
  8
0
 10
7.58061473
 20
32.27221064
  0
VERTEX
  8
0
 10
9.60763352
 20
32.04050022
  0
VERTEX
  8
0
 10
11.61912255
 20
31.75903562
  0
VERTEX
  8
0
 10
13.61444801
 20
31.42845065
  0
VERTEX
  8
0
 10
15.59297612
 20
31.04937908
  0
VERTEX
  8
0
 10
17.55407310
 20
30.62245470
  0
VERTEX
  8
0
 10
19.49710517
 20
30.14831130
  0
VERTEX
  8
0
 10
21.42143854
 20
29.62758265
  0
VERTEX
  8
0
 10
23.32643943
 20
29.06090255
  0
VERTEX
  8
0
 10
25.21147404
 20
28.44890478
  0
VERTEX
  8
0
 10
27.07590860
 20
27.79222313
  0
VERTEX
  8
0
 10
28.91910932
 20
27.09149137
  0
VERTEX
  8
0
 10
30.74044241
 20
26.34734330
  0
VERTEX
  8
0
 10
32.53927410
 20
25.56041270
  0
VERTEX
  8
0
 10
34.31497058
 20
24.73133335
  0
VERTEX
  8
0
 10
36.06689809
 20
23.86073904
  0
VERTEX
  8
0
 10
37.79442283
 20
22.94926356
  0
VERTEX
  8
0
 10
39.49691103
 20
21.99754068
  0
VERTEX
  8
0
 10
41.17372888
 20
21.00620420
  0
VERTEX
  8
0
 10
42.82424262
 20
19.97588790
  0
VERTEX
  8
0
 10
44.44781845
 20
18.90722557
  0
VERTEX
  8
0
 10
46.04382259
 20
17.80085098
  0
VERTEX
  8
0
 10
47.61162126
 20
16.65739793
  0
VERTEX
  8
0
 10
49.15058066
 20
15.47750020
  0
VERTEX
  8
0
 10
50.66006702
 20
14.26179157
  0
VERTEX
  8
0
 10
52.13944655
 20
13.01090583
  0
VERTEX
  8
0
 10
53.58808547
 20
11.72547677
  0
VERTEX
  8
0
 10
55.00534998
 20
10.40613817
  0
VERTEX
  8
0
 10
56.39060631
 20
9.05352381
  0
VERTEX
  8
0
 10
57.74322067
 20
7.66826748
  0
VERTEX
  8
0
 10
59.06255927
 20
6.25100296
  0
VERTEX
  8
0
 10
60.34798834
 20
4.80236405
  0
VERTEX
  8
0
 10
61.59887407
 20
3.32298452
  0
VERTEX
  8
0
 10
62.81458270
 20
1.81349816
  0
VERTEX
  8
0
 10
63.99448043
 20
0.27453875
  0
VERTEX
  8
0
 10
65.13793348
 20
-1.29325991
  0
VERTEX
  8
0
 10
66.24430807
 20
-2.88926405
  0
VERTEX
  8
0
 10
67.31297040
 20
-4.51283988
  0
VERTEX
  8
0
 10
68.34328670
 20
-6.16335362
  0
VERTEX
  8
0
 10
69.33462318
 20
-7.84017148
  0
VERTEX
  8
0
 10
70.28634606
 20
-9.54265967
  0
VERTEX
  8
0
 10
71.19782154
 20
-11.27018441
  0
VERTEX
  8
0
 10
72.06841585
 20
-13.02211192
  0
VERTEX
  8
0
 10
72.89749520
 20
-14.79780841
  0
VERTEX
  8
0
 10
73.68442580
 20
-16.59664009
  0
VERTEX
  8
0
 10
74.42857387
 20
-18.41797318
  0
VERTEX
  8
0
 10
75.12930563
 20
-20.26117390
  0
VERTEX
  8
0
 10
75.78598729
 20
-22.12560846
  0
VERTEX
  8
0
 10
76.39798506
 20
-24.01064308
  0
VERTEX
  8
0
 10
76.96466516
 20
-25.91564396
  0
VERTEX
  8
0
 10
77.48539380
 20
-27.83997733
  0
VERTEX
  8
0
 10
77.95953721
 20
-29.78300940
  0
VERTEX
  8
0
 10
78.38646159
 20
-31.74410638
  0
VERTEX
  8
0
 10
78.76553315
 20
-33.72263450
  0
VERTEX
  8
0
 10
79.09611813
 20
-35.71795996
  0
VERTEX
  8
0
 10
79.37758272
 20
-37.72944898
  0
VERTEX
  8
0
 10
79.60929315
 20
-39.75646777
  0
VERTEX
  8
0
 10
79.79061562
 20
-41.79838256
  0
VERTEX
  8
0
 10
79.92091636
 20
-43.85455955
  0
VERTEX
  8
0
 10
79.99956158
 20
-45.92436496
  0
VERTEX
  8
0
 10
80.02591750
 20
-48.00716501
  0
VERTEX
  8
0
 10
79.99956158
 20
-50.08996505
  0
VERTEX
  8
0
 10
79.92091636
 20
-52.15977046
  0
VERTEX
  8
0
 10
79.79061562
 20
-54.21594745
  0
VERTEX
  8
0
 10
79.60929315
 20
-56.25786224
  0
VERTEX
  8
0
 10
79.37758272
 20
-58.28488104
  0
VERTEX
  8
0
 10
79.09611813
 20
-60.29637006
  0
VERTEX
  8
0
 10
78.76553315
 20
-62.29169552
  0
VERTEX
  8
0
 10
78.38646159
 20
-64.27022363
  0
VERTEX
  8
0
 10
77.95953721
 20
-66.23132062
  0
VERTEX
  8
0
 10
77.48539380
 20
-68.17435269
  0
VERTEX
  8
0
 10
76.96466516
 20
-70.09868605
  0
VERTEX
  8
0
 10
76.39798506
 20
-72.00368694
  0
VERTEX
  8
0
 10
75.78598729
 20
-73.88872155
  0
VERTEX
  8
0
 10
75.12930563
 20
-75.75315611
  0
VERTEX
  8
0
 10
74.42857387
 20
-77.59635683
  0
VERTEX
  8
0
 10
73.68442580
 20
-79.41768992
  0
VERTEX
  8
0
 10
72.89749520
 20
-81.21652161
  0
VERTEX
  8
0
 10
72.06841585
 20
-82.99221809
  0
VERTEX
  8
0
 10
71.19782154
 20
-84.74414560
  0
VERTEX
  8
0
 10
70.28634606
 20
-86.47167034
  0
VERTEX
  8
0
 10
69.33462318
 20
-88.17415854
  0
VERTEX
  8
0
 10
68.34328670
 20
-89.85097639
  0
VERTEX
  8
0
 10
67.31297040
 20
-91.50149013
  0
VERTEX
  8
0
 10
66.24430807
 20
-93.12506596
  0
VERTEX
  8
0
 10
65.13793348
 20
-94.72107010
  0
VERTEX
  8
0
 10
63.99448043
 20
-96.28886877
  0
VERTEX
  8
0
 10
62.81458270
 20
-97.82782817
  0
VERTEX
  8
0
 10
61.59887407
 20
-99.33731453
  0
VERTEX
  8
0
 10
60.34798834
 20
-100.81669406
  0
VERTEX
  8
0
 10
59.06255927
 20
-102.26533298
  0
VERTEX
  8
0
 10
57.74322067
 20
-103.68259749
  0
VERTEX
  8
0
 10
56.39060631
 20
-105.06785382
  0
VERTEX
  8
0
 10
55.00534998
 20
-106.42046818
  0
VERTEX
  8
0
 10
53.58808547
 20
-107.73980678
  0
VERTEX
  8
0
 10
52.13944655
 20
-109.02523585
  0
VERTEX
  8
0
 10
50.66006702
 20
-110.27612158
  0
VERTEX
  8
0
 10
49.15058066
 20
-111.49183021
  0
VERTEX
  8
0
 10
47.61162126
 20
-112.67172794
  0
VERTEX
  8
0
 10
46.04382259
 20
-113.81518099
  0
VERTEX
  8
0
 10
44.44781845
 20
-114.92155558
  0
VERTEX
  8
0
 10
42.82424262
 20
-115.99021792
  0
VERTEX
  8
0
 10
41.17372888
 20
-117.02053422
  0
VERTEX
  8
0
 10
39.49691103
 20
-118.01187070
  0
VERTEX
  8
0
 10
37.79442283
 20
-118.96359357
  0
VERTEX
  8
0
 10
36.06689809
 20
-119.87506905
  0
VERTEX
  8
0
 10
34.31497058
 20
-120.74566336
  0
VERTEX
  8
0
 10
32.53927410
 20
-121.57474271
  0
VERTEX
  8
0
 10
30.74044241
 20
-122.36167331
  0
VERTEX
  8
0
 10
28.91910932
 20
-123.10582138
  0
VERTEX
  8
0
 10
27.07590860
 20
-123.80655314
  0
VERTEX
  8
0
 10
25.21147404
 20
-124.46323480
  0
VERTEX
  8
0
 10
23.32643943
 20
-125.07523257
  0
VERTEX
  8
0
 10
21.42143854
 20
-125.64191267
  0
VERTEX
  8
0
 10
19.49710517
 20
-126.16264131
  0
VERTEX
  8
0
 10
17.55407310
 20
-126.63678472
  0
VERTEX
  8
0
 10
15.59297612
 20
-127.06370910
  0
VERTEX
  8
0
 10
13.61444801
 20
-127.44278066
  0
VERTEX
  8
0
 10
11.61912255
 20
-127.77336564
  0
VERTEX
  8
0
 10
9.60763352
 20
-128.05483023
  0
VERTEX
  8
0
 10
7.58061473
 20
-128.28654066
  0
VERTEX
  8
0
 10
5.53869994
 20
-128.46786313
  0
VERTEX
  8
0
 10
3.48252295
 20
-128.59816387
  0
VERTEX
  8
0
 10
1.41271754
 20
-128.67680909
  0
VERTEX
  8
0
 10
-0.67008250
 20
-128.70316501
  0
VERTEX
  8
0
 10
-2.75288255
 20
-128.67680909
  0
VERTEX
  8
0
 10
-4.82268796
 20
-128.59816387
  0
VERTEX
  8
0
 10
-6.87886495
 20
-128.46786313
  0
VERTEX
  8
0
 10
-8.92077974
 20
-128.28654066
  0
VERTEX
  8
0
 10
-10.94779853
 20
-128.05483023
  0
VERTEX
  8
0
 10
-12.95928755
 20
-127.77336564
  0
VERTEX
  8
0
 10
-14.95461301
 20
-127.44278066
  0
VERTEX
  8
0
 10
-16.93314113
 20
-127.06370910
  0
VERTEX
  8
0
 10
-18.89423811
 20
-126.63678472
  0
VERTEX
  8
0
 10
-20.83727018
 20
-126.16264131
  0
VERTEX
  8
0
 10
-22.76160355
 20
-125.64191267
  0
VERTEX
  8
0
 10
-24.66660444
 20
-125.07523257
  0
VERTEX
  8
0
 10
-26.55163905
 20
-124.46323480
  0
VERTEX
  8
0
 10
-28.41607361
 20
-123.80655314
  0
VERTEX
  8
0
 10
-30.25927433
 20
-123.10582138
  0
VERTEX
  8
0
 10
-32.08060742
 20
-122.36167331
  0
VERTEX
  8
0
 10
-33.87943910
 20
-121.57474271
  0
VERTEX
  8
0
 10
-35.65513559
 20
-120.74566336
  0
VERTEX
  8
0
 10
-37.40706310
 20
-119.87506905
  0
VERTEX
  8
0
 10
-39.13458784
 20
-118.96359357
  0
VERTEX
  8
0
 10
-40.83707603
 20
-118.01187070
  0
VERTEX
  8
0
 10
-42.51389389
 20
-117.02053422
  0
VERTEX
  8
0
 10
-44.16440763
 20
-115.99021792
  0
VERTEX
  8
0
 10
-45.78798346
 20
-114.92155558
  0
VERTEX
  8
0
 10
-47.38398760
 20
-113.81518099
  0
VERTEX
  8
0
 10
-48.95178627
 20
-112.67172794
  0
VERTEX
  8
0
 10
-50.49074567
 20
-111.49183021
  0
VERTEX
  8
0
 10
-52.00023203
 20
-110.27612158
  0
VERTEX
  8
0
 10
-53.47961156
 20
-109.02523585
  0
VERTEX
  8
0
 10
-54.92825048
 20
-107.73980678
  0
VERTEX
  8
0
 10
-56.34551499
 20
-106.42046818
  0
VERTEX
  8
0
 10
-57.73077132
 20
-105.06785382
  0
VERTEX
  8
0
 10
-59.08338568
 20
-103.68259749
  0
VERTEX
  8
0
 10
-60.40272428
 20
-102.26533298
  0
VERTEX
  8
0
 10
-61.68815334
 20
-100.81669406
  0
VERTEX
  8
0
 10
-62.93903908
 20
-99.33731453
  0
VERTEX
  8
0
 10
-64.15474771
 20
-97.82782817
  0
VERTEX
  8
0
 10
-65.33464544
 20
-96.28886877
  0
VERTEX
  8
0
 10
-66.47809849
 20
-94.72107010
  0
VERTEX
  8
0
 10
-67.58447308
 20
-93.12506596
  0
VERTEX
  8
0
 10
-68.65313541
 20
-91.50149013
  0
VERTEX
  8
0
 10
-69.68345171
 20
-89.85097639
  0
VERTEX
  8
0
 10
-70.67478819
 20
-88.17415854
  0
VERTEX
  8
0
 10
-71.62651107
 20
-86.47167034
  0
VERTEX
  8
0
 10
-72.53798655
 20
-84.74414560
  0
VERTEX
  8
0
 10
-73.40858086
 20
-82.99221809
  0
VERTEX
  8
0
 10
-74.23766021
 20
-81.21652161
  0
VERTEX
  8
0
 10
-75.02459081
 20
-79.41768992
  0
VERTEX
  8
0
 10
-75.76873888
 20
-77.59635683
  0
VERTEX
  8
0
 10
-76.46947064
 20
-75.75315611
  0
VERTEX
  8
0
 10
-77.12615229
 20
-73.88872155
  0
VERTEX
  8
0
 10
-77.73815006
 20
-72.00368694
  0
VERTEX
  8
0
 10
-78.30483016
 20
-70.09868605
  0
VERTEX
  8
0
 10
-78.82555881
 20
-68.17435269
  0
VERTEX
  8
0
 10
-79.29970221
 20
-66.23132062
  0
VERTEX
  8
0
 10
-79.72662659
 20
-64.27022363
  0
VERTEX
  8
0
 10
-80.10569816
 20
-62.29169552
  0
VERTEX
  8
0
 10
-80.43628313
 20
-60.29637006
  0
VERTEX
  8
0
 10
-80.71774773
 20
-58.28488104
  0
VERTEX
  8
0
 10
-80.94945815
 20
-56.25786224
  0
VERTEX
  8
0
 10
-81.13078063
 20
-54.21594745
  0
VERTEX
  8
0
 10
-81.26108137
 20
-52.15977046
  0
VERTEX
  8
0
 10
-81.33972659
 20
-50.08996505
  0
VERTEX
  8
0
 10
-81.36608250
 20
-48.00716501
  0
SEQEND
  0
POLYLINE
  8
По_умолчанию
 66
   1
 39
0.000000
 70
    1
  0
VERTEX
  8
0
 10
-78.36606747
 20
-48.00716501
 42
0.04581166
  0
VERTEX
  8
0
 10
-77.06554955
 20
-62.24187830
 42
0.09104369
  0
VERTEX
  8
0
 10
-67.11961325
 20
-88.29315286
 42
0.10952811
  0
VERTEX
  8
0
 10
-43.72018987
 20
-112.69635374
 42
0.07490398
  0
VERTEX
  8
0
 10
-22.86116713
 20
-122.48879621
 42
0.05655213
  0
VERTEX
  8
0
 10
-5.66275504
 20
-125.54542358
 42
0.04740433
  0
VERTEX
  8
0
 10
9.22933057
 20
-125.07876299
 42
0.10842974
  0
VERTEX
  8
0
 10
40.41369154
 20
-113.96533912
 42
0.11103969
  0
VERTEX
  8
0
 10
64.78741833
 20
-89.88233350
 42
0.07819144
  0
VERTEX
  8
0
 10
74.45887600
 20
-67.89160752
 42
0.05351334
  0
VERTEX
  8
0
 10
76.94837581
 20
-51.51066002
 42
0.04425649
  0
VERTEX
  8
0
 10
76.33823172
 20
-37.62214306
 42
0.10530381
  0
VERTEX
  8
0
 10
65.53493926
 20
-7.32148990
 42
0.11104221
  0
VERTEX
  8
0
 10
41.59836227
 20
17.19652922
 42
0.07657102
  0
VERTEX
  8
0
 10
20.14049139
 20
26.87117346
 42
0.05504944
  0
VERTEX
  8
0
 10
3.33064962
 20
29.58766555
 42
0.04583198
  0
VERTEX
  8
0
 10
-11.05510445
 20
29.00114921
 42
0.10530381
  0
VERTEX
  8
0
 10
-41.35575761
 20
18.19785676
 42
0.11104221
  0
VERTEX
  8
0
 10
-65.87377673
 20
-5.73872023
 42
0.07657102
  0
VERTEX
  8
0
 10
-75.54842097
 20
-27.19659112
 42
0.05504944
  0
VERTEX
  8
0
 10
-78.26491306
 20
-44.00643288
 42
0.01266291
  0
VERTEX
  8
0
 10
-78.36606747
 20
-48.00716501
  0
SEQEND
  0
POLYLINE
  8
По_умолчанию
 66
   1
 39
0.000000
 70
    1
  0
VERTEX
  8
0
 10
2.17892010
 20
187.55676492
  0
VERTEX
  8
0
 10
-2.58909910
 20
187.55862348
  0
VERTEX
  8
0
 10
-3.24419253
 20
184.73820147
 42
-0.01468920
  0
VERTEX
  8
0
 10
-4.30379464
 20
180.78122616
 42
-0.01672354
  0
VERTEX
  8
0
 10
-6.04292313
 20
175.59749073
 42
-0.02088331
  0
VERTEX
  8
0
 10
-8.74672159
 20
169.16402851
 42
-0.01258805
  0
VERTEX
  8
0
 10
-10.27390635
 20
166.12419825
 42
-0.01235256
  0
VERTEX
  8
0
 10
-11.49527375
 20
163.97290285
 42
-0.01370308
  0
VERTEX
  8
0
 10
-12.53884455
 20
162.34304151
 42
-0.01599469
  0
VERTEX
  8
0
 10
-13.46520157
 20
161.07110353
 42
-0.02454851
  0
VERTEX
  8
0
 10
-14.61843492
 20
159.73516672
 42
-0.03630340
  0
VERTEX
  8
0
 10
-16.02000761
 20
158.47183941
 42
-0.03172429
  0
VERTEX
  8
0
 10
-17.17319113
 20
157.69224977
  0
VERTEX
  8
0
 10
-17.43779387
 20
157.54223106
  0
VERTEX
  8
0
 10
-17.65517158
 20
157.42672508
  0
VERTEX
  8
0
 10
-17.95186207
 20
157.27933422
  0
VERTEX
  8
0
 10
-18.20616281
 20
157.16271022
  0
VERTEX
  8
0
 10
-18.54103887
 20
157.02155882
  0
VERTEX
  8
0
 10
-18.83862184
 20
156.90834610
  0
VERTEX
  8
0
 10
-19.74736877
 20
156.59894565
  0
VERTEX
  8
0
 10
-21.20791804
 20
156.35718901
  0
VERTEX
  8
0
 10
-91.15967888
 20
156.36312344
  0
VERTEX
  8
0
 10
-92.75431826
 20
155.17655171
 42
0.00118480
  0
VERTEX
  8
0
 10
-93.98883485
 20
151.04516527
 42
0.07220858
  0
VERTEX
  8
0
 10
-122.76982890
 20
-48.05873342
 42
0.07220750
  0
VERTEX
  8
0
 10
-93.99063693
 20
-247.15998428
 42
0.00118830
  0
VERTEX
  8
0
 10
-92.75411077
 20
-251.29814534
  0
VERTEX
  8
0
 10
-91.15963584
 20
-252.48469842
  0
VERTEX
  8
0
 10
90.74711806
 20
-252.48469842
  0
VERTEX
  8
0
 10
92.34159299
 20
-251.29814534
 42
0.00118480
  0
VERTEX
  8
0
 10
93.57609722
 20
-247.16681666
 42
0.07220885
  0
VERTEX
  8
0
 10
122.35731111
 20
-48.06217418
 42
0.07220723
  0
VERTEX
  8
0
 10
93.57833898
 20
151.03833292
 42
0.00118829
  0
VERTEX
  8
0
 10
92.34180048
 20
155.17655171
  0
VERTEX
  8
0
 10
90.74716110
 20
156.36312344
  0
VERTEX
  8
0
 10
20.79540026
 20
156.35718901
  0
VERTEX
  8
0
 10
19.33485099
 20
156.59894565
  0
VERTEX
  8
0
 10
18.42610406
 20
156.90834610
  0
VERTEX
  8
0
 10
18.12852109
 20
157.02155882
  0
VERTEX
  8
0
 10
17.79364503
 20
157.16271022
  0
VERTEX
  8
0
 10
17.53934429
 20
157.27933422
  0
VERTEX
  8
0
 10
17.24265380
 20
157.42672508
  0
VERTEX
  8
0
 10
17.02527609
 20
157.54223106
  0
VERTEX
  8
0
 10
16.76067334
 20
157.69224977
 42
-0.05400284
  0
VERTEX
  8
0
 10
14.80372348
 20
159.15159338
 42
-0.03503792
  0
VERTEX
  8
0
 10
13.37025557
 20
160.67738726
 42
-0.02342883
  0
VERTEX
  8
0
 10
12.11115351
 20
162.36640279
 42
-0.01485186
  0
VERTEX
  8
0
 10
11.03524973
 20
164.05322233
 42
-0.01388509
  0
VERTEX
  8
0
 10
9.70388931
 20
166.42141410
 42
-0.01301494
  0
VERTEX
  8
0
 10
8.16142978
 20
169.53440380
 42
-0.01845385
  0
VERTEX
  8
0
 10
5.77592953
 20
175.20967108
 42
-0.01939680
  0
VERTEX
  8
0
 10
3.75282545
 20
181.24851288
 42
-0.01305646
  0
VERTEX
  8
0
 10
2.81735034
 20
184.79832789
  0
VERTEX
  8
0
 10
2.17892010
 20
187.55676492
  0
SEQEND
  0
POLYLINE
  8
По_умолчанию
 66
   1
 39
0.000000
 70
    1
  0
VERTEX
  8
0
 10
-0.20625889
 20
184.55769443
 42
-0.01282520
  0
VERTEX
  8
0
 10
-1.11180519
 20
181.01433792
 42
-0.01709282
  0
VERTEX
  8
0
 10
-2.84554654
 20
175.60801104
 42
-0.02091525
  0
VERTEX
  8
0
 10
-5.59510474
 20
168.82974106
 42
-0.01236540
  0
VERTEX
  8
0
 10
-7.18902018
 20
165.54453814
 42
-0.01253352
  0
VERTEX
  8
0
 10
-8.55610417
 20
163.04868189
 42
-0.01319687
  0
VERTEX
  8
0
 10
-9.70309111
 20
161.18737417
 42
-0.01323492
  0
VERTEX
  8
0
 10
-10.62213752
 20
159.85822456
 42
-0.02704771
  0
VERTEX
  8
0
 10
-12.13685605
 20
157.99687410
 42
-0.03557113
  0
VERTEX
  8
0
 10
-13.83071148
 20
156.38090895
 42
-0.02801985
  0
VERTEX
  8
0
 10
-15.11801176
 20
155.43626814
  0
VERTEX
  8
0
 10
-15.41367157
 20
155.24923806
  0
VERTEX
  8
0
 10
-15.66208569
 20
155.10036418
  0
VERTEX
  8
0
 10
-15.99386984
 20
154.91225643
  0
VERTEX
  8
0
 10
-16.28370679
 20
154.75824846
  0
VERTEX
  8
0
 10
-16.65889870
 20
154.57185940
  0
VERTEX
  8
0
 10
-16.99796636
 20
154.41636074
  0
VERTEX
  8
0
 10
-17.42470830
 20
154.23648756
  0
VERTEX
  8
0
 10
-17.82148559
 20
154.08553726
  0
VERTEX
  8
0
 10
-19.01403646
 20
153.67951028
  0
VERTEX
  8
0
 10
-20.96143549
 20
153.35716809
  0
VERTEX
  8
0
 10
-90.16609899
 20
153.36303914
 42
0.07340222
  0
VERTEX
  8
0
 10
-119.76982939
 20
-48.06045378
 42
0.07340249
  0
VERTEX
  8
0
 10
-90.16587297
 20
-249.48469842
  0
VERTEX
  8
0
 10
89.75335519
 20
-249.48469842
 42
0.07340249
  0
VERTEX
  8
0
 10
119.35731161
 20
-48.06045378
 42
0.07340222
  0
VERTEX
  8
0
 10
89.75358121
 20
153.36303914
  0
VERTEX
  8
0
 10
20.54891771
 20
153.35716809
  0
VERTEX
  8
0
 10
18.60151868
 20
153.67951028
  0
VERTEX
  8
0
 10
17.40896781
 20
154.08553726
  0
VERTEX
  8
0
 10
17.01219052
 20
154.23648756
  0
VERTEX
  8
0
 10
16.58544858
 20
154.41636074
  0
VERTEX
  8
0
 10
16.24638091
 20
154.57185940
  0
VERTEX
  8
0
 10
15.87118900
 20
154.75824846
  0
VERTEX
  8
0
 10
15.58135206
 20
154.91225643
  0
VERTEX
  8
0
 10
15.24956791
 20
155.10036418
  0
VERTEX
  8
0
 10
15.00115379
 20
155.24923806
  0
VERTEX
  8
0
 10
14.70549398
 20
155.43626814
 42
-0.03804796
  0
VERTEX
  8
0
 10
12.94967141
 20
156.78236956
 42
-0.03469987
  0
VERTEX
  8
0
 10
11.23833106
 20
158.54934014
 42
-0.02334776
  0
VERTEX
  8
0
 10
9.83326643
 20
160.38463862
 42
-0.01486939
  0
VERTEX
  8
0
 10
8.66719634
 20
162.17188235
 42
-0.01361171
  0
VERTEX
  8
0
 10
7.29053587
 20
164.57147130
 42
-0.01290719
  0
VERTEX
  8
0
 10
5.68817680
 20
167.74279975
 42
-0.01709871
  0
VERTEX
  8
0
 10
3.38020440
 20
173.08466743
 42
-0.01808316
  0
VERTEX
  8
0
 10
1.29769123
 20
178.99914381
 42
-0.01285212
  0
VERTEX
  8
0
 10
0.22392471
 20
182.77981200
 42
-0.00663978
  0
VERTEX
  8
0
 10
-0.20625889
 20
184.55769443
  0
SEQEND
  0
POLYLINE
  8
По_умолчанию
 66
   1
 39
0.000000
 70
    1
  0
VERTEX
  8
0
 10
0.66399396
 20
-23.91322948
 42
0.02484546
  0
VERTEX
  8
0
 10
14.32947155
 20
-23.14362115
 42
0.08658385
  0
VERTEX
  8
0
 10
8.58839617
 20
-25.35373540
 42
0.06448055
  0
VERTEX
  8
0
 10
2.48279465
 20
-24.00736705
 42
0.01178859
  0
VERTEX
  8
0
 10
0.66399396
 20
-23.91322948
  0
SEQEND
  0
POLYLINE
  8
По_умолчанию
 66
   1
 39
0.000000
 70
    1
  0
VERTEX
  8
0
 10
-2.41905228
 20
-48.36989483
 42
0.26768090
  0
VERTEX
  8
0
 10
-19.33945955
 20
-42.59059536
  0
VERTEX
  8
0
 10
-19.16570771
 20
-42.02931712
  0
VERTEX
  8
0
 10
-18.97640728
 20
-41.47505753
  0
VERTEX
  8
0
 10
-18.77181424
 20
-40.92807221
  0
VERTEX
  8
0
 10
-18.55218456
 20
-40.38861678
  0
VERTEX
  8
0
 10
-18.31777418
 20
-39.85694687
  0
VERTEX
  8
0
 10
-18.06883909
 20
-39.33331811
  0
VERTEX
  8
0
 10
-17.80563523
 20
-38.81798613
  0
VERTEX
  8
0
 10
-17.52841858
 20
-38.31120654
  0
VERTEX
  8
0
 10
-17.23744510
 20
-37.81323498
  0
VERTEX
  8
0
 10
-16.93297075
 20
-37.32432707
  0
VERTEX
  8
0
 10
-16.61525150
 20
-36.84473844
  0
VERTEX
  8
0
 10
-16.28454331
 20
-36.37472471
  0
VERTEX
  8
0
 10
-15.94110215
 20
-35.91454151
  0
VERTEX
  8
0
 10
-15.58518398
 20
-35.46444447
  0
VERTEX
  8
0
 10
-15.21704475
 20
-35.02468920
  0
VERTEX
  8
0
 10
-14.83694045
 20
-34.59553134
 42
0.26966994
  0
VERTEX
  8
0
 10
-1.32654129
 20
-46.48216929
 42
0.27414941
  0
VERTEX
  8
0
 10
-5.06527085
 20
-28.61663078
  0
VERTEX
  8
0
 10
-4.48256065
 20
-28.46808918
  0
VERTEX
  8
0
 10
-3.89331440
 20
-28.33635642
  0
VERTEX
  8
0
 10
-3.29779962
 20
-28.22170167
  0
VERTEX
  8
0
 10
-2.69628380
 20
-28.12439409
  0
VERTEX
  8
0
 10
-2.08903447
 20
-28.04470285
  0
VERTEX
  8
0
 10
-1.47631915
 20
-27.98289712
  0
VERTEX
  8
0
 10
-0.85840533
 20
-27.93924606
  0
VERTEX
  8
0
 10
-0.23556053
 20
-27.91401884
  0
VERTEX
  8
0
 10
0.29548296
 20
-27.90724405
  0
VERTEX
  8
0
 10
0.87415017
 20
-27.91526547
  0
VERTEX
  8
0
 10
1.44872355
 20
-27.93917435
  0
VERTEX
  8
0
 10
2.01887442
 20
-27.97873758
  0
VERTEX
  8
0
 10
2.58427410
 20
-28.03372207
  0
VERTEX
  8
0
 10
3.14459390
 20
-28.10389471
  0
VERTEX
  8
0
 10
3.69950516
 20
-28.18902242
  0
VERTEX
  8
0
 10
4.24867920
 20
-28.28887209
  0
VERTEX
  8
0
 10
4.79178732
 20
-28.40321062
 42
0.27850251
  0
VERTEX
  8
0
 10
0.85582355
 20
-46.48066406
 42
0.28279108
  0
VERTEX
  8
0
 10
14.62246281
 20
-33.75993259
  0
VERTEX
  8
0
 10
15.08757931
 20
-34.23093757
  0
VERTEX
  8
0
 10
15.53736947
 20
-34.71672046
  0
VERTEX
  8
0
 10
15.97143902
 20
-35.21688710
  0
VERTEX
  8
0
 10
16.38939366
 20
-35.73104336
  0
VERTEX
  8
0
 10
16.79083910
 20
-36.25879508
  0
VERTEX
  8
0
 10
17.17538105
 20
-36.79974813
  0
VERTEX
  8
0
 10
17.54262524
 20
-37.35350836
  0
VERTEX
  8
0
 10
17.89217736
 20
-37.91968164
  0
VERTEX
  8
0
 10
18.22364313
 20
-38.49787380
  0
VERTEX
  8
0
 10
18.53662826
 20
-39.08769072
  0
VERTEX
  8
0
 10
18.83073846
 20
-39.68873824
  0
VERTEX
  8
0
 10
19.10557944
 20
-40.30062223
  0
VERTEX
  8
0
 10
19.36075692
 20
-40.92294854
  0
VERTEX
  8
0
 10
19.59587661
 20
-41.55532302
  0
VERTEX
  8
0
 10
19.81054421
 20
-42.19735154
  0
VERTEX
  8
0
 10
20.00436544
 20
-42.84863995
 42
0.28522857
  0
VERTEX
  8
0
 10
1.94830953
 20
-48.36989483
 42
0.28523019
  0
VERTEX
  8
0
 10
20.00446902
 20
-53.89112228
  0
VERTEX
  8
0
 10
19.81070418
 20
-54.54227743
  0
VERTEX
  8
0
 10
19.59610113
 20
-55.18417738
  0
VERTEX
  8
0
 10
19.36105381
 20
-55.81642830
  0
VERTEX
  8
0
 10
19.10595616
 20
-56.43863636
  0
VERTEX
  8
0
 10
18.83120211
 20
-57.05040774
  0
VERTEX
  8
0
 10
18.53718557
 20
-57.65134862
  0
VERTEX
  8
0
 10
18.22430050
 20
-58.24106517
  0
VERTEX
  8
0
 10
17.89294081
 20
-58.81916356
  0
VERTEX
  8
0
 10
17.54350043
 20
-59.38524998
  0
VERTEX
  8
0
 10
17.17637331
 20
-59.93893060
  0
VERTEX
  8
0
 10
16.79195336
 20
-60.47981159
  0
VERTEX
  8
0
 10
16.39063452
 20
-61.00749914
  0
VERTEX
  8
0
 10
15.97281072
 20
-61.52159940
  0
VERTEX
  8
0
 10
15.53887589
 20
-62.02171857
  0
VERTEX
  8
0
 10
15.08922396
 20
-62.50746282
  0
VERTEX
  8
0
 10
14.62424886
 20
-62.97843831
 42
0.28274526
  0
VERTEX
  8
0
 10
0.85843068
 20
-50.26063083
 42
0.27847270
  0
VERTEX
  8
0
 10
4.79303375
 20
-68.33664564
  0
VERTEX
  8
0
 10
4.24772302
 20
-68.45126652
  0
VERTEX
  8
0
 10
3.69715931
 20
-68.55127475
  0
VERTEX
  8
0
 10
3.14155723
 20
-68.63646377
  0
VERTEX
  8
0
 10
2.58113140
 20
-68.70662705
  0
VERTEX
  8
0
 10
2.01609644
 20
-68.76155803
  0
VERTEX
  8
0
 10
1.44666697
 20
-68.80105017
  0
VERTEX
  8
0
 10
0.87305760
 20
-68.82489692
  0
VERTEX
  8
0
 10
0.29548296
 20
-68.83289174
  0
VERTEX
  8
0
 10
-0.23556053
 20
-68.82611694
  0
VERTEX
  8
0
 10
-0.85770928
 20
-68.80092837
  0
VERTEX
  8
0
 10
-1.47493894
 20
-68.75735677
  0
VERTEX
  8
0
 10
-2.08698349
 20
-68.69567019
  0
VERTEX
  8
0
 10
-2.69357688
 20
-68.61613668
  0
VERTEX
  8
0
 10
-3.29445308
 20
-68.51902427
  0
VERTEX
  8
0
 10
-3.88934605
 20
-68.40460103
  0
VERTEX
  8
0
 10
-4.47798976
 20
-68.27313500
  0
VERTEX
  8
0
 10
-5.06011817
 20
-68.12489421
 42
0.27409279
  0
VERTEX
  8
0
 10
-1.32393415
 20
-50.26213606
 42
0.26965447
  0
VERTEX
  8
0
 10
-14.83400605
 20
-62.14779456
  0
VERTEX
  8
0
 10
-15.21413472
 20
-61.71879848
  0
VERTEX
  8
0
 10
-15.58230414
 20
-61.27920701
  0
VERTEX
  8
0
 10
-15.93825850
 20
-60.82927580
  0
VERTEX
  8
0
 10
-16.28174202
 20
-60.36926045
  0
VERTEX
  8
0
 10
-16.61249890
 20
-59.89941658
  0
VERTEX
  8
0
 10
-16.93027336
 20
-59.41999982
  0
VERTEX
  8
0
 10
-17.23480959
 20
-58.93126577
  0
VERTEX
  8
0
 10
-17.52585181
 20
-58.43347007
  0
VERTEX
  8
0
 10
-17.80314421
 20
-57.92686832
  0
VERTEX
  8
0
 10
-18.06643102
 20
-57.41171615
  0
VERTEX
  8
0
 10
-18.31545643
 20
-56.88826917
  0
VERTEX
  8
0
 10
-18.54996465
 20
-56.35678300
  0
VERTEX
  8
0
 10
-18.76969990
 20
-55.81751327
  0
VERTEX
  8
0
 10
-18.97440636
 20
-55.27071559
  0
VERTEX
  8
0
 10
-19.16382827
 20
-54.71664557
  0
VERTEX
  8
0
 10
-19.33770981
 20
-54.15555884
 42
0.26771407
  0
VERTEX
  8
0
 10
-2.41642014
 20
-48.37290529
  0
VERTEX
  8
0
 10
-2.41905228
 20
-48.36989483
  0
SEQEND
  0
POLYLINE
  8
По_умолчанию
 66
   1
 39
0.000000
 70
    1
  0
VERTEX
  8
0
 10
-1.13511503
 20
-23.91322948
 42
-0.02484546
  0
VERTEX
  8
0
 10
-14.80059262
 20
-23.14362115
 42
-0.08658385
  0
VERTEX
  8
0
 10
-9.05951724
 20
-25.35373540
 42
-0.06448055
  0
VERTEX
  8
0
 10
-2.95391572
 20
-24.00736705
 42
-0.01178859
  0
VERTEX
  8
0
 10
-1.13511503
 20
-23.91322948
  0
SEQEND
  0
POLYLINE
  8
По_умолчанию
 66
   1
 39
0.000000
 70
    1
  0
VERTEX
  8
0
 10
21.39636638
 20
-36.92004825
 42
0.02484546
  0
VERTEX
  8
0
 10
28.89560555
 20
-48.36989483
 42
0.08658385
  0
VERTEX
  8
0
 10
24.11105277
 20
-44.50303483
 42
0.06448055
  0
VERTEX
  8
0
 10
22.22424120
 20
-38.54224464
 42
0.01178859
  0
VERTEX
  8
0
 10
21.39636638
 20
-36.92004825
  0
SEQEND
  0
POLYLINE
  8
По_умолчанию
 66
   1
 39
0.000000
 70
    1
  0
VERTEX
  8
0
 10
20.49681189
 20
-35.36197416
 42
-0.02484546
  0
VERTEX
  8
0
 10
14.33057346
 20
-23.14251924
 42
-0.08658385
  0
VERTEX
  8
0
 10
15.28709606
 20
-29.21949350
 42
-0.06448055
  0
VERTEX
  8
0
 10
19.50588601
 20
-33.83391534
 42
-0.01178859
  0
VERTEX
  8
0
 10
20.49681189
 20
-35.36197416
  0
SEQEND
  0
POLYLINE
  8
По_умолчанию
 66
   1
 39
0.000000
 70
    1
  0
VERTEX
  8
0
 10
20.49831712
 20
-61.37821883
 42
0.02484546
  0
VERTEX
  8
0
 10
14.33207869
 20
-73.59767375
 42
0.08658385
  0
VERTEX
  8
0
 10
15.28860129
 20
-67.52069949
 42
0.06448055
  0
VERTEX
  8
0
 10
19.50739124
 20
-62.90627765
 42
0.01178859
  0
VERTEX
  8
0
 10
20.49831712
 20
-61.37821883
  0
SEQEND
  0
POLYLINE
  8
По_умолчанию
 66
   1
 39
0.000000
 70
    1
  0
VERTEX
  8
0
 10
21.39787161
 20
-59.82014474
 42
-0.02484546
  0
VERTEX
  8
0
 10
28.89711078
 20
-48.37029816
 42
-0.08658385
  0
VERTEX
  8
0
 10
24.11255800
 20
-52.23715816
 42
-0.06448055
  0
VERTEX
  8
0
 10
22.22574643
 20
-58.19794835
 42
-0.01178859
  0
VERTEX
  8
0
 10
21.39787161
 20
-59.82014474
  0
SEQEND
  0
POLYLINE
  8
По_умолчанию
 66
   1
 39
0.000000
 70
    1
  0
VERTEX
  8
0
 10
-1.13210456
 20
-72.82957064
 42
0.02484546
  0
VERTEX
  8
0
 10
-14.79758216
 20
-73.59917898
 42
0.08658385
  0
VERTEX
  8
0
 10
-9.05650678
 20
-71.38906472
 42
0.06448055
  0
VERTEX
  8
0
 10
-2.95090526
 20
-72.73543308
 42
0.01178859
  0
VERTEX
  8
0
 10
-1.13210456
 20
-72.82957064
  0
SEQEND
  0
POLYLINE
  8
По_умолчанию
 66
   1
 39
0.000000
 70
    1
  0
VERTEX
  8
0
 10
0.66700442
 20
-72.82957064
 42
-0.02484546
  0
VERTEX
  8
0
 10
14.33248201
 20
-73.59917898
 42
-0.08658385
  0
VERTEX
  8
0
 10
8.59140663
 20
-71.38906472
 42
-0.06448055
  0
VERTEX
  8
0
 10
2.48580511
 20
-72.73543308
 42
-0.01178859
  0
VERTEX
  8
0
 10
0.66700442
 20
-72.82957064
  0
SEQEND
  0
POLYLINE
  8
По_умолчанию
 66
   1
 39
0.000000
 70
    1
  0
VERTEX
  8
0
 10
-21.86447699
 20
-59.82275188
 42
0.02484546
  0
VERTEX
  8
0
 10
-29.36371615
 20
-48.37290529
 42
0.08658385
  0
VERTEX
  8
0
 10
-24.57916337
 20
-52.23976530
 42
0.06448055
  0
VERTEX
  8
0
 10
-22.69235181
 20
-58.20055549
 42
0.01178859
  0
VERTEX
  8
0
 10
-21.86447699
 20
-59.82275188
  0
SEQEND
  0
POLYLINE
  8
По_умолчанию
 66
   1
 39
0.000000
 70
    1
  0
VERTEX
  8
0
 10
-20.96492250
 20
-61.38082596
 42
-0.02484546
  0
VERTEX
  8
0
 10
-14.79868407
 20
-73.60028088
 42
-0.08658385
  0
VERTEX
  8
0
 10
-15.75520667
 20
-67.52330663
 42
-0.06448055
  0
VERTEX
  8
0
 10
-19.97399662
 20
-62.90888479
 42
-0.01178859
  0
VERTEX
  8
0
 10
-20.96492250
 20
-61.38082596
  0
SEQEND
  0
POLYLINE
  8
По_умолчанию
 66
   1
 39
0.000000
 70
    1
  0
VERTEX
  8
0
 10
-20.96642773
 20
-35.36458130
 42
0.02484546
  0
VERTEX
  8
0
 10
-14.80018930
 20
-23.14512638
 42
0.08658385
  0
VERTEX
  8
0
 10
-15.75671190
 20
-29.22210063
 42
0.06448055
  0
VERTEX
  8
0
 10
-19.97550185
 20
-33.83652248
 42
0.01178859
  0
VERTEX
  8
0
 10
-20.96642773
 20
-35.36458130
  0
SEQEND
  0
POLYLINE
  8
По_умолчанию
 66
   1
 39
0.000000
 70
    1
  0
VERTEX
  8
0
 10
-21.86598222
 20
-36.92265538
 42
-0.02484546
  0
VERTEX
  8
0
 10
-29.36522138
 20
-48.37250197
 42
-0.08658385
  0
VERTEX
  8
0
 10
-24.58066860
 20
-44.50564197
 42
-0.06448055
  0
VERTEX
  8
0
 10
-22.69385704
 20
-38.54485177
 42
-0.01178859
  0
VERTEX
  8
0
 10
-21.86598222
 20
-36.92265538
  0
SEQEND
  0
POLYLINE
  8
По_умолчанию
 66
   1
 39
0.000000
 70
    1
  0
VERTEX
  8
0
 10
-5.67563770
 20
8.36791762
 42
-0.14848202
  0
VERTEX
  8
0
 10
-24.36972967
 20
3.86841815
 42
-0.21227159
  0
VERTEX
  8
0
 10
-12.43182420
 20
-18.79843426
 42
-0.23172421
  0
VERTEX
  8
0
 10
-4.45971588
 20
-16.66209441
 42
-0.17915768
  0
VERTEX
  8
0
 10
-5.67563770
 20
8.36791762
  0
SEQEND
  0
POLYLINE
  8
По_умолчанию
 66
   1
 39
0.000000
 70
    1
  0
VERTEX
  8
0
 10
23.42305495
 20
3.48708164
 42
-0.14848202
  0
VERTEX
  8
0
 10
4.98374667
 20
8.93744678
 42
-0.21227159
  0
VERTEX
  8
0
 10
3.98884987
 20
-16.66157596
 42
-0.23172421
  0
VERTEX
  8
0
 10
11.96106811
 20
-18.79750554
 42
-0.17915768
  0
VERTEX
  8
0
 10
23.42305495
 20
3.48708164
  0
SEQEND
  0
POLYLINE
  8
По_умолчанию
 66
   1
 39
0.000000
 70
    1
  0
VERTEX
  8
0
 10
46.18284401
 20
-15.28919263
 42
-0.14848202
  0
VERTEX
  8
0
 10
32.93911718
 20
-1.34938382
 42
-0.21227159
  0
VERTEX
  8
0
 10
19.27799990
 20
-23.02133943
 42
-0.23172421
  0
VERTEX
  8
0
 10
25.11417864
 20
-28.85721783
 42
-0.17915768
  0
VERTEX
  8
0
 10
46.18284401
 20
-15.28919263
  0
SEQEND
  0
POLYLINE
  8
По_умолчанию
 66
   1
 39
0.000000
 70
    1
  0
VERTEX
  8
0
 10
56.50526238
 20
-42.92981767
 42
-0.14848202
  0
VERTEX
  8
0
 10
52.00576291
 20
-24.23572570
 42
-0.21227159
  0
VERTEX
  8
0
 10
29.33891050
 20
-36.17363117
 42
-0.23172421
  0
VERTEX
  8
0
 10
31.47525035
 20
-44.14573948
 42
-0.17915768
  0
VERTEX
  8
0
 10
56.50526238
 20
-42.92981767
  0
SEQEND
  0
POLYLINE
  8
По_умолчанию
 66
   1
 39
0.000000
 70
    1
  0
VERTEX
  8
0
 10
51.62442640
 20
-72.02851031
 42
-0.14848202
  0
VERTEX
  8
0
 10
57.07479154
 20
-53.58920204
 42
-0.21227159
  0
VERTEX
  8
0
 10
31.47576880
 20
-52.59430523
 42
-0.23172421
  0
VERTEX
  8
0
 10
29.33983922
 20
-60.56652348
 42
-0.17915768
  0
VERTEX
  8
0
 10
51.62442640
 20
-72.02851031
  0
SEQEND
  0
POLYLINE
  8
По_умолчанию
 66
   1
 39
0.000000
 70
    1
  0
VERTEX
  8
0
 10
32.84815213
 20
-94.78829937
 42
-0.14848202
  0
VERTEX
  8
0
 10
46.78796094
 20
-81.54457255
 42
-0.21227159
  0
VERTEX
  8
0
 10
25.11600533
 20
-67.88345527
 42
-0.23172421
  0
VERTEX
  8
0
 10
19.28012693
 20
-73.71963400
 42
-0.17915768
  0
VERTEX
  8
0
 10
32.84815213
 20
-94.78829937
  0
SEQEND
  0
POLYLINE
  8
По_умолчанию
 66
   1
 39
0.000000
 70
    1
  0
VERTEX
  8
0
 10
5.20752709
 20
-105.11071775
 42
-0.14848202
  0
VERTEX
  8
0
 10
23.90161906
 20
-100.61121828
 42
-0.21227159
  0
VERTEX
  8
0
 10
11.96371359
 20
-77.94436587
 42
-0.23172421
  0
VERTEX
  8
0
 10
3.99160527
 20
-80.08070571
 42
-0.17915768
  0
VERTEX
  8
0
 10
5.20752709
 20
-105.11071775
  0
SEQEND
  0
POLYLINE
  8
По_умолчанию
 66
   1
 39
0.000000
 70
    1
  0
VERTEX
  8
0
 10
-23.89116555
 20
-100.22988177
 42
-0.14848202
  0
VERTEX
  8
0
 10
-5.45185728
 20
-105.68024691
 42
-0.21227159
  0
VERTEX
  8
0
 10
-4.45696047
 20
-80.08122416
 42
-0.23172421
  0
VERTEX
  8
0
 10
-12.42917872
 20
-77.94529458
 42
-0.17915768
  0
VERTEX
  8
0
 10
-23.89116555
 20
-100.22988177
  0
SEQEND
  0
POLYLINE
  8
По_умолчанию
 66
   1
 39
0.000000
 70
    1
  0
VERTEX
  8
0
 10
-46.65095461
 20
-81.45360749
 42
-0.14848202
  0
VERTEX
  8
0
 10
-33.40722779
 20
-95.39341631
 42
-0.21227159
  0
VERTEX
  8
0
 10
-19.74611051
 20
-73.72146070
 42
-0.23172421
  0
VERTEX
  8
0
 10
-25.58228925
 20
-67.88558230
 42
-0.17915768
  0
VERTEX
  8
0
 10
-46.65095461
 20
-81.45360749
  0
SEQEND
  0
POLYLINE
  8
По_умолчанию
 66
   1
 39
0.000000
 70
    1
  0
VERTEX
  8
0
 10
-56.97337299
 20
-53.81298246
 42
-0.14848202
  0
VERTEX
  8
0
 10
-52.47387352
 20
-72.50707442
 42
-0.21227159
  0
VERTEX
  8
0
 10
-29.80702111
 20
-60.56916896
 42
-0.23172421
  0
VERTEX
  8
0
 10
-31.94336096
 20
-52.59706064
 42
-0.17915768
  0
VERTEX
  8
0
 10
-56.97337299
 20
-53.81298246
  0
SEQEND
  0
POLYLINE
  8
По_умолчанию
 66
   1
 39
0.000000
 70
    1
  0
VERTEX
  8
0
 10
-52.09253701
 20
-24.71428981
 42
-0.14848202
  0
VERTEX
  8
0
 10
-57.54290215
 20
-43.15359809
 42
-0.21227159
  0
VERTEX
  8
0
 10
-31.94387941
 20
-44.14849489
 42
-0.23172421
  0
VERTEX
  8
0
 10
-29.80794982
 20
-36.17627665
 42
-0.17915768
  0
VERTEX
  8
0
 10
-52.09253701
 20
-24.71428981
  0
SEQEND
  0
POLYLINE
  8
По_умолчанию
 66
   1
 39
0.000000
 70
    1
  0
VERTEX
  8
0
 10
-33.31626274
 20
-1.95450075
 42
-0.14848202
  0
VERTEX
  8
0
 10
-47.25607155
 20
-15.19822758
 42
-0.21227159
  0
VERTEX
  8
0
 10
-25.58411594
 20
-28.85934486
 42
-0.23172421
  0
VERTEX
  8
0
 10
-19.74823754
 20
-23.02316612
 42
-0.17915768
  0
VERTEX
  8
0
 10
-33.31626274
 20
-1.95450075
  0
SEQEND
  0
POLYLINE
  8
По_умолчанию
 66
   1
 39
0.000000
 70
    1
  0
VERTEX
  8
0
 10
-1.01836898
 20
11.94366045
  0
VERTEX
  8
0
 10
-1.99324873
 20
11.92327892
  0
VERTEX
  8
0
 10
-2.96427387
 20
11.88754979
  0
VERTEX
  8
0
 10
-3.93132757
 20
11.83658983
  0
VERTEX
  8
0
 10
-4.89429302
 20
11.77051584
  0
VERTEX
  8
0
 10
-5.85305342
 20
11.68944460
  0
VERTEX
  8
0
 10
-6.80749195
 20
11.59349289
  0
VERTEX
  8
0
 10
-7.75749180
 20
11.48277750
  0
VERTEX
  8
0
 10
-8.70293615
 20
11.35741522
  0
VERTEX
  8
0
 10
-9.64370820
 20
11.21752283
  0
VERTEX
  8
0
 10
-10.57969113
 20
11.06321712
  0
VERTEX
  8
0
 10
-12.43682238
 20
10.71183288
  0
VERTEX
  8
0
 10
-14.27339542
 20
10.30419678
  0
VERTEX
  8
0
 10
-16.08847574
 20
9.84124310
  0
VERTEX
  8
0
 10
-17.88112885
 20
9.32390614
  0
VERTEX
  8
0
 10
-19.65042025
 20
8.75312018
  0
VERTEX
  8
0
 10
-21.39541544
 20
8.12981950
  0
VERTEX
  8
0
 10
-23.11517993
 20
7.45493840
  0
VERTEX
  8
0
 10
-24.80877922
 20
6.72941115
  0
VERTEX
  8
0
 10
-26.47527881
 20
5.95417204
  0
VERTEX
  8
0
 10
-28.11374421
 20
5.13015536
  0
VERTEX
  8
0
 10
-29.72324091
 20
4.25829540
 42
-0.28727569
  0
VERTEX
  8
0
 10
-15.08085031
 20
-22.65900724
 42
-0.28726027
  0
VERTEX
  8
0
 10
-31.07074011
 20
3.47868214
  0
VERTEX
  8
0
 10
-32.67230342
 20
2.49041243
  0
VERTEX
  8
0
 10
-34.24031380
 20
1.45394782
  0
VERTEX
  8
0
 10
-35.77373306
 20
0.37032342
  0
VERTEX
  8
0
 10
-37.27152301
 20
-0.75942562
  0
VERTEX
  8
0
 10
-38.73264546
 20
-1.93426417
  0
VERTEX
  8
0
 10
-40.15606222
 20
-3.15315710
  0
VERTEX
  8
0
 10
-41.54073511
 20
-4.41506926
  0
VERTEX
  8
0
 10
-42.88562595
 20
-5.71896554
  0
VERTEX
  8
0
 10
-44.18969653
 20
-7.06381078
  0
VERTEX
  8
0
 10
-45.45190869
 20
-8.44856985
  0
VERTEX
  8
0
 10
-46.67122422
 20
-9.87220763
  0
VERTEX
  8
0
 10
-47.84660495
 20
-11.33368897
  0
VERTEX
  8
0
 10
-48.97701268
 20
-12.83197874
  0
VERTEX
  8
0
 10
-50.06140923
 20
-14.36604180
  0
VERTEX
  8
0
 10
-51.09875641
 20
-15.93484302
  0
VERTEX
  8
0
 10
-52.08801604
 20
-17.53734727
 42
-0.28728253
  0
VERTEX
  8
0
 10
-25.94795335
 20
-33.52721219
 42
-0.28729661
  0
VERTEX
  8
0
 10
-52.86635126
 20
-18.88287752
  0
VERTEX
  8
0
 10
-53.73761791
 20
-20.48981839
  0
VERTEX
  8
0
 10
-54.56119553
 20
-22.12625394
  0
VERTEX
  8
0
 10
-55.33612915
 20
-23.79121421
  0
VERTEX
  8
0
 10
-56.06146379
 20
-25.48372922
  0
VERTEX
  8
0
 10
-56.73624446
 20
-27.20282903
  0
VERTEX
  8
0
 10
-57.35951617
 20
-28.94754366
  0
VERTEX
  8
0
 10
-57.93032395
 20
-30.71690316
  0
VERTEX
  8
0
 10
-58.44771281
 20
-32.50993757
  0
VERTEX
  8
0
 10
-58.91072778
 20
-34.32567691
  0
VERTEX
  8
0
 10
-59.31841385
 20
-36.16315124
  0
VERTEX
  8
0
 10
-59.66981606
 20
-38.02139059
  0
VERTEX
  8
0
 10
-59.82411229
 20
-38.95799403
  0
VERTEX
  8
0
 10
-59.96397942
 20
-39.89942499
  0
VERTEX
  8
0
 10
-60.08929810
 20
-40.84556222
  0
VERTEX
  8
0
 10
-60.19994895
 20
-41.79628449
  0
VERTEX
  8
0
 10
-60.29581260
 20
-42.75147053
  0
VERTEX
  8
0
 10
-60.37676967
 20
-43.71099912
  0
VERTEX
  8
0
 10
-60.44270078
 20
-44.67474899
  0
VERTEX
  8
0
 10
-60.49348658
 20
-45.64259892
  0
VERTEX
  8
0
 10
-60.52900768
 20
-46.61442764
  0
VERTEX
  8
0
 10
-60.54914471
 20
-47.59011393
 42
-0.28718686
  0
VERTEX
  8
0
 10
-29.92503818
 20
-48.37290529
 42
-0.28718608
  0
VERTEX
  8
0
 10
-60.54907298
 20
-49.15573905
  0
VERTEX
  8
0
 10
-60.52913964
 20
-50.12982537
  0
VERTEX
  8
0
 10
-60.49382879
 20
-51.10014271
  0
VERTEX
  8
0
 10
-60.44325758
 20
-52.06657126
  0
VERTEX
  8
0
 10
-60.37754318
 20
-53.02899125
  0
VERTEX
  8
0
 10
-60.29680273
 20
-53.98728288
  0
VERTEX
  8
0
 10
-60.20115339
 20
-54.94132634
  0
VERTEX
  8
0
 10
-60.09071233
 20
-55.89100186
  0
VERTEX
  8
0
 10
-59.96559670
 20
-56.83618963
  0
VERTEX
  8
0
 10
-59.82592366
 20
-57.77676986
  0
VERTEX
  8
0
 10
-59.67181036
 20
-58.71262276
  0
VERTEX
  8
0
 10
-59.32073164
 20
-60.56966740
  0
VERTEX
  8
0
 10
-58.91329778
 20
-62.40636519
  0
VERTEX
  8
0
 10
-58.45044606
 20
-64.22175780
  0
VERTEX
  8
0
 10
-57.93311374
 20
-66.01488686
  0
VERTEX
  8
0
 10
-57.36223806
 20
-67.78479404
  0
VERTEX
  8
0
 10
-56.73875630
 20
-69.53052098
  0
VERTEX
  8
0
 10
-56.06360571
 20
-71.25110935
  0
VERTEX
  8
0
 10
-55.33772355
 20
-72.94560079
  0
VERTEX
  8
0
 10
-54.56204709
 20
-74.61303695
  0
VERTEX
  8
0
 10
-53.73751358
 20
-76.25245950
  0
VERTEX
  8
0
 10
-52.86506028
 20
-77.86291007
 42
-0.28730070
  0
VERTEX
  8
0
 10
-25.94644812
 20
-63.21819507
 42
-0.28728246
  0
VERTEX
  8
0
 10
-52.08650402
 20
-79.20806007
  0
VERTEX
  8
0
 10
-51.09773484
 20
-80.81005409
  0
VERTEX
  8
0
 10
-50.06083807
 20
-82.37841001
  0
VERTEX
  8
0
 10
-48.97684447
 20
-83.91209631
  0
VERTEX
  8
0
 10
-47.84678478
 20
-85.41008148
  0
VERTEX
  8
0
 10
-46.67168974
 20
-86.87133401
  0
VERTEX
  8
0
 10
-45.45259010
 20
-88.29482238
  0
VERTEX
  8
0
 10
-44.19051659
 20
-89.67951508
  0
VERTEX
  8
0
 10
-42.88649997
 20
-91.02438061
  0
VERTEX
  8
0
 10
-41.54157098
 20
-92.32838744
  0
VERTEX
  8
0
 10
-40.15676035
 20
-93.59050407
  0
VERTEX
  8
0
 10
-38.73309885
 20
-94.80969899
  0
VERTEX
  8
0
 10
-37.27161720
 20
-95.98494068
  0
VERTEX
  8
0
 10
-35.77334615
 20
-97.11519764
  0
VERTEX
  8
0
 10
-34.23931645
 20
-98.19943835
  0
VERTEX
  8
0
 10
-32.67055883
 20
-99.23663130
  0
VERTEX
  8
0
 10
-31.06810406
 20
-100.22574498
 42
-0.28728613
  0
VERTEX
  8
0
 10
-15.07824317
 20
-74.08529811
 42
-0.28730310
  0
VERTEX
  8
0
 10
-29.72318110
 20
-101.00403585
  0
VERTEX
  8
0
 10
-28.11162035
 20
-101.87647952
  0
VERTEX
  8
0
 10
-26.47143358
 20
-102.70092655
  0
VERTEX
  8
0
 10
-24.80353552
 20
-103.47645367
  0
VERTEX
  8
0
 10
-23.10884088
 20
-104.20213763
  0
VERTEX
  8
0
 10
-21.38826438
 20
-104.87705514
  0
VERTEX
  8
0
 10
-19.64272074
 20
-105.50028295
  0
VERTEX
  8
0
 10
-17.87312469
 20
-106.07089780
  0
VERTEX
  8
0
 10
-16.08039093
 20
-106.58797640
  0
VERTEX
  8
0
 10
-14.26543420
 20
-107.05059550
  0
VERTEX
  8
0
 10
-12.42916920
 20
-107.45783183
  0
VERTEX
  8
0
 10
-10.57251067
 20
-107.80876212
  0
VERTEX
  8
0
 10
-9.63681967
 20
-107.96282398
  0
VERTEX
  8
0
 10
-8.69637331
 20
-108.10246311
  0
VERTEX
  8
0
 10
-7.75128593
 20
-108.22756409
  0
VERTEX
  8
0
 10
-6.80167186
 20
-108.33801152
  0
VERTEX
  8
0
 10
-5.84764544
 20
-108.43369000
  0
VERTEX
  8
0
 10
-4.88932102
 20
-108.51448411
  0
VERTEX
  8
0
 10
-3.92681293
 20
-108.58027844
  0
VERTEX
  8
0
 10
-2.96023552
 20
-108.63095758
  0
VERTEX
  8
0
 10
-1.98970312
 20
-108.66640614
  0
VERTEX
  8
0
 10
-1.01533008
 20
-108.68650869
 42
-0.28718707
  0
VERTEX
  8
0
 10
-0.23255007
 20
-78.06238294
 42
-0.28718608
  0
VERTEX
  8
0
 10
0.55028369
 20
-108.68641774
  0
VERTEX
  8
0
 10
1.52437001
 20
-108.66648440
  0
VERTEX
  8
0
 10
2.49468734
 20
-108.63117355
  0
VERTEX
  8
0
 10
3.46111590
 20
-108.58060234
  0
VERTEX
  8
0
 10
4.42353589
 20
-108.51488793
  0
VERTEX
  8
0
 10
5.38182751
 20
-108.43414749
  0
VERTEX
  8
0
 10
6.33587097
 20
-108.33849815
  0
VERTEX
  8
0
 10
7.28554649
 20
-108.22805709
  0
VERTEX
  8
0
 10
8.23073426
 20
-108.10294146
  0
VERTEX
  8
0
 10
9.17131449
 20
-107.96326842
  0
VERTEX
  8
0
 10
10.10716740
 20
-107.80915512
  0
VERTEX
  8
0
 10
11.96421203
 20
-107.45807640
  0
VERTEX
  8
0
 10
13.80090983
 20
-107.05064254
  0
VERTEX
  8
0
 10
15.61630243
 20
-106.58779082
  0
VERTEX
  8
0
 10
17.40943149
 20
-106.07045849
  0
VERTEX
  8
0
 10
19.17933867
 20
-105.49958282
  0
VERTEX
  8
0
 10
20.92506562
 20
-104.87610106
  0
VERTEX
  8
0
 10
22.64565398
 20
-104.20095047
  0
VERTEX
  8
0
 10
24.34014542
 20
-103.47506831
  0
VERTEX
  8
0
 10
26.00758159
 20
-102.69939185
  0
VERTEX
  8
0
 10
27.64700413
 20
-101.87485834
  0
VERTEX
  8
0
 10
29.25745470
 20
-101.00240504
 42
-0.28730070
  0
VERTEX
  8
0
 10
14.61273970
 20
-74.08379288
 42
-0.28728246
  0
VERTEX
  8
0
 10
30.60260470
 20
-100.22384878
  0
VERTEX
  8
0
 10
32.20459873
 20
-99.23507959
  0
VERTEX
  8
0
 10
33.77295465
 20
-98.19818283
  0
VERTEX
  8
0
 10
35.30664095
 20
-97.11418923
  0
VERTEX
  8
0
 10
36.80462612
 20
-95.98412954
  0
VERTEX
  8
0
 10
38.26587864
 20
-94.80903450
  0
VERTEX
  8
0
 10
39.68936701
 20
-93.58993485
  0
VERTEX
  8
0
 10
41.07405971
 20
-92.32786135
  0
VERTEX
  8
0
 10
42.41892524
 20
-91.02384473
  0
VERTEX
  8
0
 10
43.72293207
 20
-89.67891574
  0
VERTEX
  8
0
 10
44.98504871
 20
-88.29410511
  0
VERTEX
  8
0
 10
46.20424362
 20
-86.87044360
  0
VERTEX
  8
0
 10
47.37948532
 20
-85.40896196
  0
VERTEX
  8
0
 10
48.50974228
 20
-83.91069091
  0
VERTEX
  8
0
 10
49.59398298
 20
-82.37666121
  0
VERTEX
  8
0
 10
50.63117593
 20
-80.80790359
  0
VERTEX
  8
0
 10
51.62028961
 20
-79.20544881
 42
-0.28728613
  0
VERTEX
  8
0
 10
25.47984275
 20
-63.21558793
 42
-0.28730310
  0
VERTEX
  8
0
 10
52.39858048
 20
-77.86052586
  0
VERTEX
  8
0
 10
53.27102415
 20
-76.24896511
  0
VERTEX
  8
0
 10
54.09547118
 20
-74.60877834
  0
VERTEX
  8
0
 10
54.87099830
 20
-72.94088028
  0
VERTEX
  8
0
 10
55.59668226
 20
-71.24618564
  0
VERTEX
  8
0
 10
56.27159978
 20
-69.52560914
  0
VERTEX
  8
0
 10
56.89482759
 20
-67.78006550
  0
VERTEX
  8
0
 10
57.46544243
 20
-66.01046945
  0
VERTEX
  8
0
 10
57.98252103
 20
-64.21773569
  0
VERTEX
  8
0
 10
58.44514013
 20
-62.40277896
  0
VERTEX
  8
0
 10
58.85237646
 20
-60.56651396
  0
VERTEX
  8
0
 10
59.20330675
 20
-58.70985543
  0
VERTEX
  8
0
 10
59.35736861
 20
-57.77416443
  0
VERTEX
  8
0
 10
59.49700774
 20
-56.83371807
  0
VERTEX
  8
0
 10
59.62210872
 20
-55.88863069
  0
VERTEX
  8
0
 10
59.73255616
 20
-54.93901662
  0
VERTEX
  8
0
 10
59.82823463
 20
-53.98499020
  0
VERTEX
  8
0
 10
59.90902874
 20
-53.02666578
  0
VERTEX
  8
0
 10
59.97482307
 20
-52.06415769
  0
VERTEX
  8
0
 10
60.02550222
 20
-51.09758028
  0
VERTEX
  8
0
 10
60.06095077
 20
-50.12704788
  0
VERTEX
  8
0
 10
60.08105332
 20
-49.15267484
 42
-0.28718707
  0
VERTEX
  8
0
 10
29.45692757
 20
-48.36989483
 42
-0.28718608
  0
VERTEX
  8
0
 10
60.08096237
 20
-47.58706107
  0
VERTEX
  8
0
 10
60.06102903
 20
-46.61297475
  0
VERTEX
  8
0
 10
60.02571818
 20
-45.64265742
  0
VERTEX
  8
0
 10
59.97514698
 20
-44.67622886
  0
VERTEX
  8
0
 10
59.90943257
 20
-43.71380887
  0
VERTEX
  8
0
 10
59.82869212
 20
-42.75551725
  0
VERTEX
  8
0
 10
59.73304279
 20
-41.80147378
  0
VERTEX
  8
0
 10
59.62260173
 20
-40.85179827
  0
VERTEX
  8
0
 10
59.49748609
 20
-39.90661050
  0
VERTEX
  8
0
 10
59.35781305
 20
-38.96603027
  0
VERTEX
  8
0
 10
59.20369976
 20
-38.03017736
  0
VERTEX
  8
0
 10
58.85262103
 20
-36.17313272
  0
VERTEX
  8
0
 10
58.44518718
 20
-34.33643493
  0
VERTEX
  8
0
 10
57.98233546
 20
-32.52104233
  0
VERTEX
  8
0
 10
57.46500313
 20
-30.72791327
  0
VERTEX
  8
0
 10
56.89412745
 20
-28.95800609
  0
VERTEX
  8
0
 10
56.27064569
 20
-27.21227914
  0
VERTEX
  8
0
 10
55.59549510
 20
-25.49169078
  0
VERTEX
  8
0
 10
54.86961294
 20
-23.79719934
  0
VERTEX
  8
0
 10
54.09393648
 20
-22.12976317
  0
VERTEX
  8
0
 10
53.26940297
 20
-20.49034063
  0
VERTEX
  8
0
 10
52.39694968
 20
-18.87989006
 42
-0.28730070
  0
VERTEX
  8
0
 10
25.47833752
 20
-33.52460506
 42
-0.28728246
  0
VERTEX
  8
0
 10
51.61839341
 20
-17.53474006
  0
VERTEX
  8
0
 10
50.62962423
 20
-15.93274603
  0
VERTEX
  8
0
 10
49.59272746
 20
-14.36439011
  0
VERTEX
  8
0
 10
48.50873386
 20
-12.83070381
  0
VERTEX
  8
0
 10
47.37867417
 20
-11.33271864
  0
VERTEX
  8
0
 10
46.20357913
 20
-9.87146612
  0
VERTEX
  8
0
 10
44.98447949
 20
-8.44797775
  0
VERTEX
  8
0
 10
43.72240598
 20
-7.06328504
  0
VERTEX
  8
0
 10
42.41838936
 20
-5.71841952
  0
VERTEX
  8
0
 10
41.07346037
 20
-4.41441269
  0
VERTEX
  8
0
 10
39.68864975
 20
-3.15229605
  0
VERTEX
  8
0
 10
38.26498824
 20
-1.93310113
  0
VERTEX
  8
0
 10
36.80350659
 20
-0.75785944
  0
VERTEX
  8
0
 10
35.30523554
 20
0.37239752
  0
VERTEX
  8
0
 10
33.77120584
 20
1.45663822
  0
VERTEX
  8
0
 10
32.20244823
 20
2.49383117
  0
VERTEX
  8
0
 10
30.59999345
 20
3.48294485
 42
-0.28728613
  0
VERTEX
  8
0
 10
14.61013257
 20
-22.65750201
 42
-0.28730310
  0
VERTEX
  8
0
 10
29.25507049
 20
4.26123572
  0
VERTEX
  8
0
 10
27.64350974
 20
5.13367939
  0
VERTEX
  8
0
 10
26.00332297
 20
5.95812642
  0
VERTEX
  8
0
 10
24.33542491
 20
6.73365355
  0
VERTEX
  8
0
 10
22.64073027
 20
7.45933750
  0
VERTEX
  8
0
 10
20.92015377
 20
8.13425502
  0
VERTEX
  8
0
 10
19.17461013
 20
8.75748283
  0
VERTEX
  8
0
 10
17.40501408
 20
9.32809767
  0
VERTEX
  8
0
 10
15.61228032
 20
9.84517627
  0
VERTEX
  8
0
 10
13.79732359
 20
10.30779537
  0
VERTEX
  8
0
 10
11.96105860
 20
10.71503170
  0
VERTEX
  8
0
 10
10.10440006
 20
11.06596199
  0
VERTEX
  8
0
 10
9.16870907
 20
11.22002385
  0
VERTEX
  8
0
 10
8.22826271
 20
11.35966298
  0
VERTEX
  8
0
 10
7.28317532
 20
11.48476397
  0
VERTEX
  8
0
 10
6.33356125
 20
11.59521140
  0
VERTEX
  8
0
 10
5.37953484
 20
11.69088987
  0
VERTEX
  8
0
 10
4.42121041
 20
11.77168398
  0
VERTEX
  8
0
 10
3.45870233
 20
11.83747831
  0
VERTEX
  8
0
 10
2.49212491
 20
11.88815746
  0
VERTEX
  8
0
 10
1.52159252
 20
11.92360601
  0
VERTEX
  8
0
 10
0.54721947
 20
11.94370856
 42
-0.28718707
  0
VERTEX
  8
0
 10
-0.23556053
 20
-18.68041719
 42
-0.28718654
  0
VERTEX
  8
0
 10
-1.01836898
 20
11.94366045
  0
SEQEND
  0
POLYLINE
  8
По_умолчанию
 66
   1
 39
0.000000
 70
    1
  0
VERTEX
  8
0
 10
-63.88457112
 20
-48.37140006
 42
0.04108669
  0
VERTEX
  8
0
 10
-63.02575713
 20
-58.84924061
 42
0.09275367
  0
VERTEX
  8
0
 10
-55.06246326
 20
-80.72019660
 42
0.08390928
  0
VERTEX
  8
0
 10
-41.30935944
 20
-96.99621118
 42
0.06636095
  0
VERTEX
  8
0
 10
-27.13282786
 20
-106.07474309
 42
0.08098264
  0
VERTEX
  8
0
 10
-7.53872684
 20
-111.60701461
 42
0.04582934
  0
VERTEX
  8
0
 10
4.25540726
 20
-111.86590414
 42
0.05184329
  0
VERTEX
  8
0
 10
17.18918851
 20
-109.60693531
 42
0.07046409
  0
VERTEX
  8
0
 10
33.42705763
 20
-102.40243362
 42
0.10194329
  0
VERTEX
  8
0
 10
52.11137849
 20
-84.59344430
 42
0.06543173
  0
VERTEX
  8
0
 10
59.68603081
 20
-69.89030757
 42
0.06100941
  0
VERTEX
  8
0
 10
63.08799243
 20
-54.87526789
 42
0.04898117
  0
VERTEX
  8
0
 10
63.12748490
 20
-42.26901380
 42
0.06104637
  0
VERTEX
  8
0
 10
59.81667331
 20
-27.21978039
 42
0.06547412
  0
VERTEX
  8
0
 10
52.32860263
 20
-12.46472833
 42
0.10193789
  0
VERTEX
  8
0
 10
33.75186399
 20
5.45551240
 42
0.07041554
  0
VERTEX
  8
0
 10
17.56644492
 20
12.75572392
 42
0.05181566
  0
VERTEX
  8
0
 10
4.65967058
 20
15.09362922
 42
0.04582764
  0
VERTEX
  8
0
 10
-7.13868774
 20
14.90866989
 42
0.07024748
  0
VERTEX
  8
0
 10
-24.29436866
 20
10.57360539
 42
0.06514918
  0
VERTEX
  8
0
 10
-38.62467844
 20
2.40236332
 42
0.09288995
  0
VERTEX
  8
0
 10
-54.46730679
 20
-15.03641032
 42
0.07207775
  0
VERTEX
  8
0
 10
-61.67960523
 20
-31.70551691
 42
0.05030908
  0
VERTEX
  8
0
 10
-63.75551071
 20
-44.28687470
 42
0.01582668
  0
VERTEX
  8
0
 10
-63.88457112
 20
-48.37140006
  0
SEQEND
  0
ENDSEC
  0
EOF
