  0
SECTION
  2
HEADER
  9
$ACADVER
  1
AC1014
  9
$HANDSEED
  5
FFFF
  9
$MEASUREMENT
 70
     1
  0
ENDSEC
  0
SECTION
  2
TABLES
  0
TABLE
  2
VPORT
  5
8
330
0
100
AcDbSymbolTable
 70
     4
  0
VPORT
  5
2E
330
8
100
AcDbSymbolTableRecord
100
AcDbViewportTableRecord
  2
*ACTIVE
 70
     0
 10
0.0
 20
0.0
 11
1.0
 21
1.0
 12
210.0
 22
148.5
 13
0.0
 23
0.0
 14
10.0
 24
10.0
 15
10.0
 25
10.0
 16
0.0
 26
0.0
 36
1.0
 17
0.0
 27
0.0
 37
0.0
 40
341.0
 41
1.24
 42
50.0
 43
0.0
 44
0.0
 50
0.0
 51
0.0
 71
     0
 72
   100
 73
     1
 74
     3
 75
     0
 76
     0
 77
     0
 78
     0
  0
ENDTAB
  0
TABLE
  2
LTYPE
  5
5
330
0
100
AcDbSymbolTable
 70
     1
  0
LTYPE
  5
14
330
5
100
AcDbSymbolTableRecord
100
AcDbLinetypeTableRecord
  2
BYBLOCK
 70
     0
  3

 72
    65
 73
     0
 40
0.0
  0
LTYPE
  5
15
330
5
100
AcDbSymbolTableRecord
100
AcDbLinetypeTableRecord
  2
BYLAYER
 70
     0
  3

 72
    65
 73
     0
 40
0.0
  0
LTYPE
  5
16
330
5
100
AcDbSymbolTableRecord
100
AcDbLinetypeTableRecord
  2
CONTINUOUS
 70
     0
  3
Solid line
 72
    65
 73
     0
 40
0.0
  0
ENDTAB
  0
TABLE
  2
LAYER
  5
2
100
AcDbSymbolTable
 70
1
  0
LAYER
  5
50
100
AcDbSymbolTableRecord
100
AcDbLayerTableRecord
  2
0
 70
0
  6
CONTINUOUS
  0
ENDTAB
  0
TABLE
  2
STYLE
  5
3
330
0
100
AcDbSymbolTable
 70
     1
  0
STYLE
  5
11
330
3
100
AcDbSymbolTableRecord
100
AcDbTextStyleTableRecord
  2
STANDARD
 70
     0
 40
0.0
 41
1.0
 50
0.0
 71
     0
 42
2.5
  3
txt
  4

  0
ENDTAB
  0
TABLE
  2
VIEW
  5
6
330
0
100
AcDbSymbolTable
 70
     0
  0
ENDTAB
  0
TABLE
  2
UCS
  5
7
330
0
100
AcDbSymbolTable
 70
     0
  0
ENDTAB
  0
TABLE
  2
APPID
  5
9
330
0
100
AcDbSymbolTable
 70
     2
  0
APPID
  5
12
330
9
100
AcDbSymbolTableRecord
100
AcDbRegAppTableRecord
  2
ACAD
 70
     0
  0
ENDTAB
  0
TABLE
  2
DIMSTYLE
  5
A
330
0
100
AcDbSymbolTable
 70
     1
  0
DIMSTYLE
105
27
330
A
100
AcDbSymbolTableRecord
100
AcDbDimStyleTableRecord
  2
ISO-25
 70
     0
  3

  4

  5

  6

  7

 40
1.0
 41
2.5
 42
0.625
 43
3.75
 44
1.25
 45
0.0
 46
0.0
 47
0.0
 48
0.0
140
2.5
141
2.5
142
0.0
143
0.03937007874016
144
1.0
145
0.0
146
1.0
147
0.625
 71
     0
 72
     0
 73
     0
 74
     0
 75
     0
 76
     0
 77
     1
 78
     8
170
     0
171
     3
172
     1
173
     0
174
     0
175
     0
176
     0
177
     0
178
     0
270
     2
271
     2
272
     2
273
     2
274
     3
340
11
275
     0
280
     0
281
     0
282
     0
283
     0
284
     8
285
     0
286
     0
287
     3
288
     0
  0
ENDTAB
  0
TABLE
  2
BLOCK_RECORD
  5
1
330
0
100
AcDbSymbolTable
 70
     1
  0
BLOCK_RECORD
  5
1F
330
1
100
AcDbSymbolTableRecord
100
AcDbBlockTableRecord
  2
*MODEL_SPACE
  0
BLOCK_RECORD
  5
1B
330
1
100
AcDbSymbolTableRecord
100
AcDbBlockTableRecord
  2
*PAPER_SPACE
  0
ENDTAB
  0
ENDSEC
  0
SECTION
  2
BLOCKS
  0
BLOCK
  5
20
330
1F
100
AcDbEntity
  8
0
100
AcDbBlockBegin
  2
*MODEL_SPACE
 70
     0
 10
0.0
 20
0.0
 30
0.0
  3
*MODEL_SPACE
  1

  0
ENDBLK
  5
21
330
1F
100
AcDbEntity
  8
0
100
AcDbBlockEnd
  0
BLOCK
  5
1C
330
1B
100
AcDbEntity
 67
     1
  8
0
100
AcDbBlockBegin
  2
*PAPER_SPACE
  1

  0
ENDBLK
  5
1D
330
1B
100
AcDbEntity
 67
     1
  8
0
100
AcDbBlockEnd
  0
ENDSEC
  0
SECTION
  2
ENTITIES
  0
SPLINE
  5
100
100
AcDbEntity
  8
0
 62
1
100
AcDbSpline
 70
8
 71
3
 72
8
 73
4
 74
0
 40
0
 40
0
 40
0
 40
0
 40
1
 40
1
 40
1
 40
1
 10
93.601538
 20
156.301197
 30
0.0
 10
95.004747
 20
158.471486
 30
0.0
 10
84.690371
 20
159.746848
 30
0.0
 10
84.053114
 20
161.060875
 30
0.0
  0
SPLINE
  5
101
100
AcDbEntity
  8
0
 62
1
100
AcDbSpline
 70
8
 71
3
 72
8
 73
4
 74
0
 40
0
 40
0
 40
0
 40
0
 40
1
 40
1
 40
1
 40
1
 10
84.053114
 20
161.060875
 30
0.0
 10
82.285273
 20
164.708597
 30
0.0
 10
79.787042
 20
164.306430
 30
0.0
 10
79.661171
 20
166.483493
 30
0.0
  0
SPLINE
  5
102
100
AcDbEntity
  8
0
 62
1
100
AcDbSpline
 70
8
 71
3
 72
8
 73
4
 74
0
 40
0
 40
0
 40
0
 40
0
 40
1
 40
1
 40
1
 40
1
 10
79.661171
 20
166.483493
 30
0.0
 10
79.616016
 20
167.257628
 30
0.0
 10
88.820129
 20
169.466017
 30
0.0
 10
88.621727
 20
172.439793
 30
0.0
  0
LWPOLYLINE
  5
103
100
AcDbEntity
  8
0
 62
1
100
AcDbPolyline
 90
6
 70
0
 10
93.815745
 20
152.305212
 30
0.0
 10
87.348340
 20
152.440961
 30
0.0
 10
71.163178
 20
152.440961
 30
0.0
 10
71.163178
 20
156.191695
 30
0.0
 10
88.899434
 20
156.191695
 30
0.0
 10
93.601538
 20
156.301197
 30
0.0
  0
SPLINE
  5
104
100
AcDbEntity
  8
0
 62
1
100
AcDbSpline
 70
8
 71
3
 72
8
 73
4
 74
0
 40
0
 40
0
 40
0
 40
0
 40
1
 40
1
 40
1
 40
1
 10
88.320878
 20
176.540764
 30
0.0
 10
87.944676
 20
181.215775
 30
0.0
 10
78.094556
 20
186.236226
 30
0.0
 10
77.328040
 20
189.259109
 30
0.0
  0
SPLINE
  5
105
100
AcDbEntity
  8
0
 62
1
100
AcDbSpline
 70
8
 71
3
 72
8
 73
4
 74
0
 40
0
 40
0
 40
0
 40
0
 40
1
 40
1
 40
1
 40
1
 10
77.328040
 20
189.259109
 30
0.0
 10
76.826249
 20
191.237486
 30
0.0
 10
78.333033
 20
193.840704
 30
0.0
 10
79.738782
 20
195.700266
 30
0.0
  0
LWPOLYLINE
  5
106
100
AcDbEntity
  8
0
 62
1
100
AcDbPolyline
 90
6
 70
0
 10
88.621727
 20
172.439793
 30
0.0
 10
82.251689
 20
172.579493
 30
0.0
 10
67.291371
 20
172.579493
 30
0.0
 10
67.291371
 20
176.396548
 30
0.0
 10
82.251689
 20
176.396548
 30
0.0
 10
88.320878
 20
176.540764
 30
0.0
  0
SPLINE
  5
107
100
AcDbEntity
  8
0
 62
1
100
AcDbSpline
 70
8
 71
3
 72
8
 73
4
 74
0
 40
0
 40
0
 40
0
 40
0
 40
1
 40
1
 40
1
 40
1
 10
83.954336
 20
199.662384
 30
0.0
 10
84.703636
 20
203.823186
 30
0.0
 10
82.198631
 20
213.336898
 30
0.0
 10
80.476793
 20
214.577264
 30
0.0
  0
SPLINE
  5
108
100
AcDbEntity
  8
0
 62
1
100
AcDbSpline
 70
8
 71
3
 72
8
 73
4
 74
0
 40
0
 40
0
 40
0
 40
0
 40
1
 40
1
 40
1
 40
1
 10
80.476793
 20
214.577264
 30
0.0
 10
72.279367
 20
212.390889
 30
0.0
 10
50.180520
 20
205.676258
 30
0.0
 10
50.654371
 20
198.065289
 30
0.0
  0
SPLINE
  5
109
100
AcDbEntity
  8
0
 62
1
100
AcDbSpline
 70
8
 71
3
 72
8
 73
4
 74
0
 40
0
 40
0
 40
0
 40
0
 40
1
 40
1
 40
1
 40
1
 10
50.654371
 20
198.065289
 30
0.0
 10
49.864713
 20
186.902553
 30
0.0
 10
62.365464
 20
189.174724
 30
0.0
 10
62.559915
 20
185.357386
 30
0.0
  0
SPLINE
  5
10a
100
AcDbEntity
  8
0
 62
1
100
AcDbSpline
 70
8
 71
3
 72
8
 73
4
 74
0
 40
0
 40
0
 40
0
 40
0
 40
1
 40
1
 40
1
 40
1
 10
62.559915
 20
185.357386
 30
0.0
 10
64.339044
 20
178.432499
 30
0.0
 10
50.221160
 20
166.508610
 30
0.0
 10
38.191155
 20
173.228039
 30
0.0
  0
SPLINE
  5
10b
100
AcDbEntity
  8
0
 62
1
100
AcDbSpline
 70
8
 71
3
 72
8
 73
4
 74
0
 40
0
 40
0
 40
0
 40
0
 40
1
 40
1
 40
1
 40
1
 10
38.191155
 20
173.228039
 30
0.0
 10
34.832146
 20
170.835642
 30
0.0
 10
38.222764
 20
168.792070
 30
0.0
 10
29.806615
 20
163.321193
 30
0.0
  0
SPLINE
  5
10c
100
AcDbEntity
  8
0
 62
1
100
AcDbSpline
 70
8
 71
3
 72
8
 73
4
 74
0
 40
0
 40
0
 40
0
 40
0
 40
1
 40
1
 40
1
 40
1
 10
29.806615
 20
163.321193
 30
0.0
 10
16.870959
 20
155.482470
 30
0.0
 10
14.199726
 20
159.589086
 30
0.0
 10
10.956428
 20
157.834510
 30
0.0
  0
SPLINE
  5
10d
100
AcDbEntity
  8
0
 62
1
100
AcDbSpline
 70
8
 71
3
 72
8
 73
4
 74
0
 40
0
 40
0
 40
0
 40
0
 40
1
 40
1
 40
1
 40
1
 10
10.956428
 20
157.834510
 30
0.0
 10
14.978377
 20
150.257126
 30
0.0
 10
11.221435
 20
125.222039
 30
0.0
 10
0.141108
 20
118.644003
 30
0.0
  0
SPLINE
  5
10e
100
AcDbEntity
  8
0
 62
1
100
AcDbSpline
 70
8
 71
3
 72
8
 73
4
 74
0
 40
0
 40
0
 40
0
 40
0
 40
1
 40
1
 40
1
 40
1
 10
0.141108
 20
118.644003
 30
0.0
 10
0.925686
 20
116.291681
 30
0.0
 10
14.603021
 20
117.426214
 30
0.0
 10
22.336475
 20
119.304121
 30
0.0
  0
SPLINE
  5
10f
100
AcDbEntity
  8
0
 62
1
100
AcDbSpline
 70
8
 71
3
 72
8
 73
4
 74
0
 40
0
 40
0
 40
0
 40
0
 40
1
 40
1
 40
1
 40
1
 10
22.336475
 20
119.304121
 30
0.0
 10
27.365393
 20
120.151070
 30
0.0
 10
36.592931
 20
124.603690
 30
0.0
 10
42.617811
 20
128.073612
 30
0.0
  0
SPLINE
  5
110
100
AcDbEntity
  8
0
 62
1
100
AcDbSpline
 70
8
 71
3
 72
8
 73
4
 74
0
 40
0
 40
0
 40
0
 40
0
 40
1
 40
1
 40
1
 40
1
 10
42.617811
 20
128.073612
 30
0.0
 10
47.410509
 20
130.515399
 30
0.0
 10
74.767438
 20
148.601892
 30
0.0
 10
81.840491
 20
146.386730
 30
0.0
  0
SPLINE
  5
111
100
AcDbEntity
  8
0
 62
1
100
AcDbSpline
 70
8
 71
3
 72
8
 73
4
 74
0
 40
0
 40
0
 40
0
 40
0
 40
1
 40
1
 40
1
 40
1
 10
81.840491
 20
146.386730
 30
0.0
 10
83.876725
 20
148.262943
 30
0.0
 10
82.115093
 20
132.858126
 30
0.0
 10
82.085460
 20
129.442672
 30
0.0
  0
SPLINE
  5
112
100
AcDbEntity
  8
0
 62
1
100
AcDbSpline
 70
8
 71
3
 72
8
 73
4
 74
0
 40
0
 40
0
 40
0
 40
0
 40
1
 40
1
 40
1
 40
1
 10
82.085460
 20
129.442672
 30
0.0
 10
80.701725
 20
121.737159
 30
0.0
 10
84.348318
 20
119.155108
 30
0.0
 10
88.519845
 20
112.530223
 30
0.0
  0
SPLINE
  5
113
100
AcDbEntity
  8
0
 62
1
100
AcDbSpline
 70
8
 71
3
 72
8
 73
4
 74
0
 40
0
 40
0
 40
0
 40
0
 40
1
 40
1
 40
1
 40
1
 10
88.519845
 20
112.530223
 30
0.0
 10
93.276983
 20
107.459536
 30
0.0
 10
100.442605
 20
108.295478
 30
0.0
 10
107.303992
 20
111.103307
 30
0.0
  0
SPLINE
  5
114
100
AcDbEntity
  8
0
 62
1
100
AcDbSpline
 70
8
 71
3
 72
8
 73
4
 74
0
 40
0
 40
0
 40
0
 40
0
 40
1
 40
1
 40
1
 40
1
 10
107.303992
 20
111.103307
 30
0.0
 10
112.398667
 20
112.830225
 30
0.0
 10
116.780732
 20
120.291899
 30
0.0
 10
116.780732
 20
120.291899
 30
0.0
  0
SPLINE
  5
115
100
AcDbEntity
  8
0
 62
1
100
AcDbSpline
 70
8
 71
3
 72
8
 73
4
 74
0
 40
0
 40
0
 40
0
 40
0
 40
1
 40
1
 40
1
 40
1
 10
116.780732
 20
120.291899
 30
0.0
 10
119.327505
 20
125.465314
 30
0.0
 10
122.358007
 20
125.361174
 30
0.0
 10
127.213076
 20
128.462797
 30
0.0
  0
SPLINE
  5
116
100
AcDbEntity
  8
0
 62
1
100
AcDbSpline
 70
8
 71
3
 72
8
 73
4
 74
0
 40
0
 40
0
 40
0
 40
0
 40
1
 40
1
 40
1
 40
1
 10
127.213076
 20
128.462797
 30
0.0
 10
131.257603
 20
131.434032
 30
0.0
 10
130.412912
 20
135.025874
 30
0.0
 10
128.446670
 20
137.035861
 30
0.0
  0
SPLINE
  5
117
100
AcDbEntity
  8
0
 62
1
100
AcDbSpline
 70
8
 71
3
 72
8
 73
4
 74
0
 40
0
 40
0
 40
0
 40
0
 40
1
 40
1
 40
1
 40
1
 10
128.446670
 20
137.035861
 30
0.0
 10
129.286563
 20
140.340966
 30
0.0
 10
128.572823
 20
144.655297
 30
0.0
 10
122.085098
 20
143.890192
 30
0.0
  0
SPLINE
  5
118
100
AcDbEntity
  8
0
 62
1
100
AcDbSpline
 70
8
 71
3
 72
8
 73
4
 74
0
 40
0
 40
0
 40
0
 40
0
 40
1
 40
1
 40
1
 40
1
 10
122.085098
 20
143.890192
 30
0.0
 10
111.767054
 20
141.814730
 30
0.0
 10
102.319947
 20
142.278986
 30
0.0
 10
98.579656
 20
144.040052
 30
0.0
  0
SPLINE
  5
119
100
AcDbEntity
  8
0
 62
1
100
AcDbSpline
 70
8
 71
3
 72
8
 73
4
 74
0
 40
0
 40
0
 40
0
 40
0
 40
1
 40
1
 40
1
 40
1
 10
98.579656
 20
144.040052
 30
0.0
 10
96.361107
 20
145.273363
 30
0.0
 10
91.787978
 20
149.306601
 30
0.0
 10
93.815745
 20
152.305212
 30
0.0
  0
LWPOLYLINE
  5
11a
100
AcDbEntity
  8
0
 62
1
100
AcDbPolyline
 90
6
 70
0
 10
79.738782
 20
195.700266
 30
0.0
 10
73.717289
 20
195.790577
 30
0.0
 10
56.568055
 20
195.790577
 30
0.0
 10
56.568055
 20
199.575742
 30
0.0
 10
76.043082
 20
199.575742
 30
0.0
 10
83.954336
 20
199.662384
 30
0.0
  0
LWPOLYLINE
  5
11b
100
AcDbEntity
  8
0
 62
1
100
AcDbPolyline
 90
1
 70
1
 10
93.815745
 20
152.305212
 30
0.0
  0
SPLINE
  5
11c
100
AcDbEntity
  8
0
 62
1
100
AcDbSpline
 70
8
 71
3
 72
8
 73
4
 74
0
 40
0
 40
0
 40
0
 40
0
 40
1
 40
1
 40
1
 40
1
 10
36.699980
 20
73.120059
 30
0.0
 10
35.296489
 20
70.949770
 30
0.0
 10
45.610865
 20
69.674408
 30
0.0
 10
46.248123
 20
68.360381
 30
0.0
  0
SPLINE
  5
11d
100
AcDbEntity
  8
0
 62
1
100
AcDbSpline
 70
8
 71
3
 72
8
 73
4
 74
0
 40
0
 40
0
 40
0
 40
0
 40
1
 40
1
 40
1
 40
1
 10
46.248123
 20
68.360381
 30
0.0
 10
48.016245
 20
64.712659
 30
0.0
 10
50.514194
 20
65.114825
 30
0.0
 10
50.640065
 20
62.937763
 30
0.0
  0
SPLINE
  5
11e
100
AcDbEntity
  8
0
 62
1
100
AcDbSpline
 70
8
 71
3
 72
8
 73
4
 74
0
 40
0
 40
0
 40
0
 40
0
 40
1
 40
1
 40
1
 40
1
 10
50.640065
 20
62.937763
 30
0.0
 10
50.685221
 20
62.163910
 30
0.0
 10
41.481389
 20
59.955521
 30
0.0
 10
41.679509
 20
56.981463
 30
0.0
  0
LWPOLYLINE
  5
11f
100
AcDbEntity
  8
0
 62
1
100
AcDbPolyline
 90
6
 70
0
 10
36.485491
 20
77.116043
 30
0.0
 10
42.952896
 20
76.980577
 30
0.0
 10
59.138058
 20
76.980577
 30
0.0
 10
59.138058
 20
73.229843
 30
0.0
 10
41.401803
 20
73.229843
 30
0.0
 10
36.699980
 20
73.120059
 30
0.0
  0
SPLINE
  5
120
100
AcDbEntity
  8
0
 62
1
100
AcDbSpline
 70
8
 71
3
 72
8
 73
4
 74
0
 40
0
 40
0
 40
0
 40
0
 40
1
 40
1
 40
1
 40
1
 10
41.980358
 20
52.880492
 30
0.0
 10
42.356560
 20
48.205481
 30
0.0
 10
52.206681
 20
43.185029
 30
0.0
 10
52.973478
 20
40.162147
 30
0.0
  0
SPLINE
  5
121
100
AcDbEntity
  8
0
 62
1
100
AcDbSpline
 70
8
 71
3
 72
8
 73
4
 74
0
 40
0
 40
0
 40
0
 40
0
 40
1
 40
1
 40
1
 40
1
 10
52.973478
 20
40.162147
 30
0.0
 10
53.474987
 20
38.183769
 30
0.0
 10
51.968203
 20
35.580551
 30
0.0
 10
50.562454
 20
33.721271
 30
0.0
  0
LWPOLYLINE
  5
122
100
AcDbEntity
  8
0
 62
1
100
AcDbPolyline
 90
6
 70
0
 10
41.679509
 20
56.981463
 30
0.0
 10
48.049547
 20
56.841763
 30
0.0
 10
63.009865
 20
56.841763
 30
0.0
 10
63.009865
 20
53.024707
 30
0.0
 10
48.049547
 20
53.024707
 30
0.0
 10
41.980358
 20
52.880492
 30
0.0
  0
SPLINE
  5
123
100
AcDbEntity
  8
0
 62
1
100
AcDbSpline
 70
8
 71
3
 72
8
 73
4
 74
0
 40
0
 40
0
 40
0
 40
0
 40
1
 40
1
 40
1
 40
1
 10
46.346900
 20
29.759154
 30
0.0
 10
45.597600
 20
25.598069
 30
0.0
 10
48.102605
 20
16.084358
 30
0.0
 10
49.824443
 20
14.845402
 30
0.0
  0
SPLINE
  5
124
100
AcDbEntity
  8
0
 62
1
100
AcDbSpline
 70
8
 71
3
 72
8
 73
4
 74
0
 40
0
 40
0
 40
0
 40
0
 40
1
 40
1
 40
1
 40
1
 10
49.824443
 20
14.845402
 30
0.0
 10
58.022152
 20
17.030367
 30
0.0
 10
80.120716
 20
23.744998
 30
0.0
 10
79.646865
 20
31.356249
 30
0.0
  0
SPLINE
  5
125
100
AcDbEntity
  8
0
 62
1
100
AcDbSpline
 70
8
 71
3
 72
8
 73
4
 74
0
 40
0
 40
0
 40
0
 40
0
 40
1
 40
1
 40
1
 40
1
 10
79.646865
 20
31.356249
 30
0.0
 10
80.436523
 20
42.518985
 30
0.0
 10
67.935772
 20
40.246532
 30
0.0
 10
67.741321
 20
44.063869
 30
0.0
  0
SPLINE
  5
126
100
AcDbEntity
  8
0
 62
1
100
AcDbSpline
 70
8
 71
3
 72
8
 73
4
 74
0
 40
0
 40
0
 40
0
 40
0
 40
1
 40
1
 40
1
 40
1
 10
67.741321
 20
44.063869
 30
0.0
 10
65.962192
 20
50.988756
 30
0.0
 10
80.080076
 20
62.912927
 30
0.0
 10
92.110081
 20
56.193216
 30
0.0
  0
SPLINE
  5
127
100
AcDbEntity
  8
0
 62
1
100
AcDbSpline
 70
8
 71
3
 72
8
 73
4
 74
0
 40
0
 40
0
 40
0
 40
0
 40
1
 40
1
 40
1
 40
1
 10
92.110081
 20
56.193216
 30
0.0
 10
95.469090
 20
58.585614
 30
0.0
 10
92.078472
 20
60.629185
 30
0.0
 10
100.494621
 20
66.100063
 30
0.0
  0
SPLINE
  5
128
100
AcDbEntity
  8
0
 62
1
100
AcDbSpline
 70
8
 71
3
 72
8
 73
4
 74
0
 40
0
 40
0
 40
0
 40
0
 40
1
 40
1
 40
1
 40
1
 10
100.494621
 20
66.100063
 30
0.0
 10
113.430277
 20
73.939068
 30
0.0
 10
116.101510
 20
69.832452
 30
0.0
 10
119.344808
 20
71.586745
 30
0.0
  0
SPLINE
  5
129
100
AcDbEntity
  8
0
 62
1
100
AcDbSpline
 70
8
 71
3
 72
8
 73
4
 74
0
 40
0
 40
0
 40
0
 40
0
 40
1
 40
1
 40
1
 40
1
 10
119.344808
 20
71.586745
 30
0.0
 10
115.322859
 20
79.164412
 30
0.0
 10
119.079801
 20
104.199499
 30
0.0
 10
130.160411
 20
110.777535
 30
0.0
  0
SPLINE
  5
12a
100
AcDbEntity
  8
0
 62
1
100
AcDbSpline
 70
8
 71
3
 72
8
 73
4
 74
0
 40
0
 40
0
 40
0
 40
0
 40
1
 40
1
 40
1
 40
1
 10
130.160411
 20
110.777535
 30
0.0
 10
129.375268
 20
113.129857
 30
0.0
 10
115.698215
 20
111.995041
 30
0.0
 10
107.964761
 20
110.117135
 30
0.0
  0
SPLINE
  5
12b
100
AcDbEntity
  8
0
 62
1
100
AcDbSpline
 70
8
 71
3
 72
8
 73
4
 74
0
 40
0
 40
0
 40
0
 40
0
 40
1
 40
1
 40
1
 40
1
 10
107.964761
 20
110.117135
 30
0.0
 10
102.935843
 20
109.270186
 30
0.0
 10
93.708306
 20
104.817566
 30
0.0
 10
87.683708
 20
101.347644
 30
0.0
  0
SPLINE
  5
12c
100
AcDbEntity
  8
0
 62
1
100
AcDbSpline
 70
8
 71
3
 72
8
 73
4
 74
0
 40
0
 40
0
 40
0
 40
0
 40
1
 40
1
 40
1
 40
1
 10
87.683708
 20
101.347644
 30
0.0
 10
82.890728
 20
98.905857
 30
0.0
 10
55.533798
 20
80.819363
 30
0.0
 10
48.460745
 20
83.034525
 30
0.0
  0
SPLINE
  5
12d
100
AcDbEntity
  8
0
 62
1
100
AcDbSpline
 70
8
 71
3
 72
8
 73
4
 74
0
 40
0
 40
0
 40
0
 40
0
 40
1
 40
1
 40
1
 40
1
 10
48.460745
 20
83.034525
 30
0.0
 10
46.424512
 20
81.158312
 30
0.0
 10
48.186143
 20
96.563130
 30
0.0
 10
48.215776
 20
99.978583
 30
0.0
  0
SPLINE
  5
12e
100
AcDbEntity
  8
0
 62
1
100
AcDbSpline
 70
8
 71
3
 72
8
 73
4
 74
0
 40
0
 40
0
 40
0
 40
0
 40
1
 40
1
 40
1
 40
1
 10
48.215776
 20
99.978583
 30
0.0
 10
49.599794
 20
107.684097
 30
0.0
 10
45.952918
 20
110.266148
 30
0.0
 10
41.781674
 20
116.891315
 30
0.0
  0
SPLINE
  5
12f
100
AcDbEntity
  8
0
 62
1
100
AcDbSpline
 70
8
 71
3
 72
8
 73
4
 74
0
 40
0
 40
0
 40
0
 40
0
 40
1
 40
1
 40
1
 40
1
 10
41.781674
 20
116.891315
 30
0.0
 10
37.024254
 20
121.961719
 30
0.0
 10
29.858631
 20
121.125777
 30
0.0
 10
22.997245
 20
118.317948
 30
0.0
  0
SPLINE
  5
130
100
AcDbEntity
  8
0
 62
1
100
AcDbSpline
 70
8
 71
3
 72
8
 73
4
 74
0
 40
0
 40
0
 40
0
 40
0
 40
1
 40
1
 40
1
 40
1
 10
22.997245
 20
118.317948
 30
0.0
 10
17.902851
 20
116.591030
 30
0.0
 10
13.520504
 20
109.129357
 30
0.0
 10
13.520504
 20
109.129357
 30
0.0
  0
SPLINE
  5
131
100
AcDbEntity
  8
0
 62
1
100
AcDbSpline
 70
8
 71
3
 72
8
 73
4
 74
0
 40
0
 40
0
 40
0
 40
0
 40
1
 40
1
 40
1
 40
1
 10
13.520504
 20
109.129357
 30
0.0
 10
10.973731
 20
103.955941
 30
0.0
 10
7.943229
 20
104.060081
 30
0.0
 10
3.088160
 20
100.958741
 30
0.0
  0
SPLINE
  5
132
100
AcDbEntity
  8
0
 62
1
100
AcDbSpline
 70
8
 71
3
 72
8
 73
4
 74
0
 40
0
 40
0
 40
0
 40
0
 40
1
 40
1
 40
1
 40
1
 10
3.088160
 20
100.958741
 30
0.0
 10
-0.956085
 20
97.987223
 30
0.0
 10
-0.111676
 20
94.395381
 30
0.0
 10
1.854567
 20
92.385394
 30
0.0
  0
SPLINE
  5
133
100
AcDbEntity
  8
0
 62
1
100
AcDbSpline
 70
8
 71
3
 72
8
 73
4
 74
0
 40
0
 40
0
 40
0
 40
0
 40
1
 40
1
 40
1
 40
1
 10
1.854567
 20
92.385394
 30
0.0
 10
1.014673
 20
89.080290
 30
0.0
 10
1.728413
 20
84.766241
 30
0.0
 10
8.216138
 20
85.531063
 30
0.0
  0
SPLINE
  5
134
100
AcDbEntity
  8
0
 62
1
100
AcDbSpline
 70
8
 71
3
 72
8
 73
4
 74
0
 40
0
 40
0
 40
0
 40
0
 40
1
 40
1
 40
1
 40
1
 10
8.216138
 20
85.531063
 30
0.0
 10
18.534182
 20
87.606526
 30
0.0
 10
27.981289
 20
87.142270
 30
0.0
 10
31.721580
 20
85.381486
 30
0.0
  0
SPLINE
  5
135
100
AcDbEntity
  8
0
 62
1
100
AcDbSpline
 70
8
 71
3
 72
8
 73
4
 74
0
 40
0
 40
0
 40
0
 40
0
 40
1
 40
1
 40
1
 40
1
 10
31.721580
 20
85.381486
 30
0.0
 10
33.940129
 20
84.147892
 30
0.0
 10
38.513258
 20
80.114654
 30
0.0
 10
36.485491
 20
77.116043
 30
0.0
  0
LWPOLYLINE
  5
136
100
AcDbEntity
  8
0
 62
1
100
AcDbPolyline
 90
6
 70
0
 10
50.562454
 20
33.721271
 30
0.0
 10
56.583947
 20
33.630960
 30
0.0
 10
73.733181
 20
33.630960
 30
0.0
 10
73.733181
 20
29.845514
 30
0.0
 10
54.258154
 20
29.845514
 30
0.0
 10
46.346900
 20
29.759154
 30
0.0
  0
SPLINE
  5
137
100
AcDbEntity
  8
0
 62
1
100
AcDbSpline
 70
8
 71
3
 72
8
 73
4
 74
0
 40
0
 40
0
 40
0
 40
0
 40
1
 40
1
 40
1
 40
1
 10
132.034801
 20
177.396194
 30
0.0
 10
130.557650
 20
180.762822
 30
0.0
 10
132.784101
 20
194.115320
 30
0.0
 10
132.798776
 20
195.823047
 30
0.0
  0
SPLINE
  5
138
100
AcDbEntity
  8
0
 62
1
100
AcDbSpline
 70
8
 71
3
 72
8
 73
4
 74
0
 40
0
 40
0
 40
0
 40
0
 40
1
 40
1
 40
1
 40
1
 10
132.798776
 20
195.823047
 30
0.0
 10
134.182794
 20
203.528561
 30
0.0
 10
130.130930
 20
204.265443
 30
0.0
 10
125.959685
 20
210.890610
 30
0.0
  0
SPLINE
  5
139
100
AcDbEntity
  8
0
 62
1
100
AcDbSpline
 70
8
 71
3
 72
8
 73
4
 74
0
 40
0
 40
0
 40
0
 40
0
 40
1
 40
1
 40
1
 40
1
 10
125.959685
 20
210.890610
 30
0.0
 10
121.202265
 20
215.961014
 30
0.0
 10
114.036925
 20
215.125072
 30
0.0
 10
107.175453
 20
212.317243
 30
0.0
  0
SPLINE
  5
13a
100
AcDbEntity
  8
0
 62
1
100
AcDbSpline
 70
8
 71
3
 72
8
 73
4
 74
0
 40
0
 40
0
 40
0
 40
0
 40
1
 40
1
 40
1
 40
1
 10
107.175453
 20
212.317243
 30
0.0
 10
102.080863
 20
210.590325
 30
0.0
 10
97.374807
 20
202.804943
 30
0.0
 10
97.374807
 20
202.804943
 30
0.0
  0
SPLINE
  5
13b
100
AcDbEntity
  8
0
 62
1
100
AcDbSpline
 70
8
 71
3
 72
8
 73
4
 74
0
 40
0
 40
0
 40
0
 40
0
 40
1
 40
1
 40
1
 40
1
 10
97.374807
 20
202.804943
 30
0.0
 10
96.738057
 20
201.511518
 30
0.0
 10
95.531416
 20
200.439921
 30
0.0
 10
94.813330
 20
199.673687
 30
0.0
  0
SPLINE
  5
13c
100
AcDbEntity
  8
0
 62
1
100
AcDbSpline
 70
8
 71
3
 72
8
 73
4
 74
0
 40
0
 40
0
 40
0
 40
0
 40
1
 40
1
 40
1
 40
1
 10
94.813330
 20
199.673687
 30
0.0
 10
94.059514
 20
198.718647
 30
0.0
 10
90.835012
 20
201.679158
 30
0.0
 10
89.678042
 20
203.663181
 30
0.0
  0
SPLINE
  5
13d
100
AcDbEntity
  8
0
 62
1
100
AcDbSpline
 70
8
 71
3
 72
8
 73
4
 74
0
 40
0
 40
0
 40
0
 40
0
 40
1
 40
1
 40
1
 40
1
 10
89.678042
 20
203.663181
 30
0.0
 10
88.711205
 20
203.668825
 30
0.0
 10
90.367173
 20
195.804138
 30
0.0
 10
89.722859
 20
196.383823
 30
0.0
  0
SPLINE
  5
13e
100
AcDbEntity
  8
0
 62
1
100
AcDbSpline
 70
8
 71
3
 72
8
 73
4
 74
0
 40
0
 40
0
 40
0
 40
0
 40
1
 40
1
 40
1
 40
1
 10
89.722859
 20
196.383823
 30
0.0
 10
88.716201
 20
195.876669
 30
0.0
 10
88.480009
 20
195.733300
 30
0.0
 10
87.266256
 20
194.958036
 30
0.0
  0
SPLINE
  5
13f
100
AcDbEntity
  8
0
 62
1
100
AcDbSpline
 70
8
 71
3
 72
8
 73
4
 74
0
 40
0
 40
0
 40
0
 40
0
 40
1
 40
1
 40
1
 40
1
 10
87.266256
 20
194.958036
 30
0.0
 10
83.221924
 20
191.986518
 30
0.0
 10
84.066403
 20
188.394676
 30
0.0
 10
86.032832
 20
186.384689
 30
0.0
  0
SPLINE
  5
140
100
AcDbEntity
  8
0
 62
1
100
AcDbSpline
 70
8
 71
3
 72
8
 73
4
 74
0
 40
0
 40
0
 40
0
 40
0
 40
1
 40
1
 40
1
 40
1
 10
86.032832
 20
186.384689
 30
0.0
 10
85.192778
 20
183.079585
 30
0.0
 10
85.906425
 20
178.765536
 30
0.0
 10
92.394262
 20
179.530358
 30
0.0
  0
SPLINE
  5
141
100
AcDbEntity
  8
0
 62
1
100
AcDbSpline
 70
8
 71
3
 72
8
 73
4
 74
0
 40
0
 40
0
 40
0
 40
0
 40
1
 40
1
 40
1
 40
1
 10
92.394262
 20
179.530358
 30
0.0
 10
102.712250
 20
181.605820
 30
0.0
 10
112.159300
 20
181.141565
 30
0.0
 10
115.899592
 20
179.380780
 30
0.0
  0
SPLINE
  5
142
100
AcDbEntity
  8
0
 62
1
100
AcDbSpline
 70
8
 71
3
 72
8
 73
4
 74
0
 40
0
 40
0
 40
0
 40
0
 40
1
 40
1
 40
1
 40
1
 10
115.899592
 20
179.380780
 30
0.0
 10
118.118423
 20
178.147187
 30
0.0
 10
122.691269
 20
174.113949
 30
0.0
 10
120.663785
 20
171.115338
 30
0.0
  0
LWPOLYLINE
  5
143
100
AcDbEntity
  8
0
 62
1
100
AcDbPolyline
 90
1
 70
1
 10
36.485491
 20
77.116043
 30
0.0
  0
SPLINE
  5
144
100
AcDbEntity
  8
0
 62
1
100
AcDbSpline
 70
8
 71
3
 72
8
 73
4
 74
0
 40
0
 40
0
 40
0
 40
0
 40
1
 40
1
 40
1
 40
1
 10
120.767643
 20
167.119353
 30
0.0
 10
119.364434
 20
164.949065
 30
0.0
 10
129.789158
 20
165.810971
 30
0.0
 10
130.426134
 20
164.496944
 30
0.0
  0
SPLINE
  5
145
100
AcDbEntity
  8
0
 62
1
100
AcDbSpline
 70
8
 71
3
 72
8
 73
4
 74
0
 40
0
 40
0
 40
0
 40
0
 40
1
 40
1
 40
1
 40
1
 10
130.426134
 20
164.496944
 30
0.0
 10
132.194256
 20
160.849222
 30
0.0
 10
134.692205
 20
159.114120
 30
0.0
 10
134.818076
 20
156.937058
 30
0.0
  0
SPLINE
  5
146
100
AcDbEntity
  8
0
 62
1
100
AcDbSpline
 70
8
 71
3
 72
8
 73
4
 74
0
 40
0
 40
0
 40
0
 40
0
 40
1
 40
1
 40
1
 40
1
 10
134.818076
 20
156.937058
 30
0.0
 10
134.863514
 20
156.163204
 30
0.0
 10
125.659401
 20
153.954815
 30
0.0
 10
125.857521
 20
150.980758
 30
0.0
  0
LWPOLYLINE
  5
147
100
AcDbEntity
  8
0
 62
1
100
AcDbPolyline
 90
6
 70
0
 10
120.663785
 20
171.115338
 30
0.0
 10
127.131190
 20
170.979871
 30
0.0
 10
143.316352
 20
170.979871
 30
0.0
 10
143.316352
 20
167.229138
 30
0.0
 10
125.580096
 20
167.229138
 30
0.0
 10
120.767643
 20
167.119353
 30
0.0
  0
SPLINE
  5
148
100
AcDbEntity
  8
0
 62
1
100
AcDbSpline
 70
8
 71
3
 72
8
 73
4
 74
0
 40
0
 40
0
 40
0
 40
0
 40
1
 40
1
 40
1
 40
1
 10
126.158652
 20
146.879786
 30
0.0
 10
126.534572
 20
142.204775
 30
0.0
 10
136.384974
 20
137.184324
 30
0.0
 10
137.151490
 20
134.161442
 30
0.0
  0
SPLINE
  5
149
100
AcDbEntity
  8
0
 62
1
100
AcDbSpline
 70
8
 71
3
 72
8
 73
4
 74
0
 40
0
 40
0
 40
0
 40
0
 40
1
 40
1
 40
1
 40
1
 10
137.151490
 20
134.161442
 30
0.0
 10
137.653281
 20
132.183064
 30
0.0
 10
136.146496
 20
129.579846
 30
0.0
 10
134.740747
 20
127.720566
 30
0.0
  0
LWPOLYLINE
  5
14a
100
AcDbEntity
  8
0
 62
1
100
AcDbPolyline
 90
6
 70
0
 10
125.857521
 20
150.980758
 30
0.0
 10
132.227841
 20
150.841058
 30
0.0
 10
147.187876
 20
150.841058
 30
0.0
 10
147.187876
 20
147.024002
 30
0.0
 10
132.227841
 20
147.024002
 30
0.0
 10
126.158652
 20
146.879786
 30
0.0
  0
SPLINE
  5
14b
100
AcDbEntity
  8
0
 62
1
100
AcDbSpline
 70
8
 71
3
 72
8
 73
4
 74
0
 40
0
 40
0
 40
0
 40
0
 40
1
 40
1
 40
1
 40
1
 10
130.524912
 20
123.758448
 30
0.0
 10
129.552656
 20
118.608739
 30
0.0
 10
134.649307
 20
111.287613
 30
0.0
 10
137.242930
 20
109.384870
 30
0.0
  0
LWPOLYLINE
  5
14c
100
AcDbEntity
  8
0
 62
1
100
AcDbPolyline
 90
6
 70
0
 10
134.740747
 20
127.720566
 30
0.0
 10
140.762241
 20
127.630255
 30
0.0
 10
157.911474
 20
127.630255
 30
0.0
 10
157.911474
 20
123.844808
 30
0.0
 10
138.436165
 20
123.844808
 30
0.0
 10
130.524912
 20
123.758448
 30
0.0
  0
SPLINE
  5
14d
100
AcDbEntity
  8
0
 62
1
100
AcDbSpline
 70
8
 71
3
 72
8
 73
4
 74
0
 40
0
 40
0
 40
0
 40
0
 40
1
 40
1
 40
1
 40
1
 10
150.651590
 20
106.265750
 30
0.0
 10
155.438643
 20
106.359166
 30
0.0
 10
159.141963
 20
109.074426
 30
0.0
 10
163.135972
 20
110.939068
 30
0.0
  0
SPLINE
  5
14e
100
AcDbEntity
  8
0
 62
1
100
AcDbSpline
 70
8
 71
3
 72
8
 73
4
 74
0
 40
0
 40
0
 40
0
 40
0
 40
1
 40
1
 40
1
 40
1
 10
163.135972
 20
110.939068
 30
0.0
 10
169.190486
 20
115.391124
 30
0.0
 10
172.672544
 20
112.769844
 30
0.0
 10
176.520644
 20
111.154686
 30
0.0
  0
SPLINE
  5
14f
100
AcDbEntity
  8
0
 62
1
100
AcDbSpline
 70
8
 71
3
 72
8
 73
4
 74
0
 40
0
 40
0
 40
0
 40
0
 40
1
 40
1
 40
1
 40
1
 10
176.520644
 20
111.154686
 30
0.0
 10
182.135173
 20
101.116888
 30
0.0
 10
199.482526
 20
101.646337
 30
0.0
 10
205.664322
 20
102.951333
 30
0.0
  0
SPLINE
  5
150
100
AcDbEntity
  8
0
 62
1
100
AcDbSpline
 70
8
 71
3
 72
8
 73
4
 74
0
 40
0
 40
0
 40
0
 40
0
 40
1
 40
1
 40
1
 40
1
 10
205.664322
 20
102.951333
 30
0.0
 10
222.082318
 20
107.690973
 30
0.0
 10
220.916175
 20
116.533559
 30
0.0
 10
220.560011
 20
125.187057
 30
0.0
  0
SPLINE
  5
151
100
AcDbEntity
  8
0
 62
1
100
AcDbSpline
 70
8
 71
3
 72
8
 73
4
 74
0
 40
0
 40
0
 40
0
 40
0
 40
1
 40
1
 40
1
 40
1
 10
220.560011
 20
125.187057
 30
0.0
 10
230.461778
 20
127.428184
 30
0.0
 10
227.530900
 20
137.272377
 30
0.0
 10
223.366429
 20
141.593764
 30
0.0
  0
SPLINE
  5
152
100
AcDbEntity
  8
0
 62
1
100
AcDbSpline
 70
8
 71
3
 72
8
 73
4
 74
0
 40
0
 40
0
 40
0
 40
0
 40
1
 40
1
 40
1
 40
1
 10
223.366429
 20
141.593764
 30
0.0
 10
219.017949
 20
145.084006
 30
0.0
 10
210.721180
 20
144.688049
 30
0.0
 10
206.959722
 20
147.854300
 30
0.0
  0
SPLINE
  5
153
100
AcDbEntity
  8
0
 62
1
100
AcDbSpline
 70
8
 71
3
 72
8
 73
4
 74
0
 40
0
 40
0
 40
0
 40
0
 40
1
 40
1
 40
1
 40
1
 10
206.959722
 20
147.854300
 30
0.0
 10
207.142320
 20
144.866978
 30
0.0
 10
207.377975
 20
141.862158
 30
0.0
 10
205.880222
 20
139.435046
 30
0.0
  0
SPLINE
  5
154
100
AcDbEntity
  8
0
 62
1
100
AcDbSpline
 70
8
 71
3
 72
8
 73
4
 74
0
 40
0
 40
0
 40
0
 40
0
 40
1
 40
1
 40
1
 40
1
 10
205.880222
 20
139.435046
 30
0.0
 10
201.751875
 20
130.651726
 30
0.0
 10
202.052442
 20
128.512482
 30
0.0
 10
202.426104
 20
126.482175
 30
0.0
  0
SPLINE
  5
155
100
AcDbEntity
  8
0
 62
1
100
AcDbSpline
 70
8
 71
3
 72
8
 73
4
 74
0
 40
0
 40
0
 40
0
 40
0
 40
1
 40
1
 40
1
 40
1
 10
202.426104
 20
126.482175
 30
0.0
 10
205.487086
 20
119.628973
 30
0.0
 10
209.935473
 20
122.487602
 30
0.0
 10
214.083575
 20
123.243957
 30
0.0
  0
SPLINE
  5
156
100
AcDbEntity
  8
0
 62
1
100
AcDbSpline
 70
8
 71
3
 72
8
 73
4
 74
0
 40
0
 40
0
 40
0
 40
0
 40
1
 40
1
 40
1
 40
1
 10
214.083575
 20
123.243957
 30
0.0
 10
214.075673
 20
121.220142
 30
0.0
 10
213.981411
 20
119.085131
 30
0.0
 10
209.982040
 20
117.631122
 30
0.0
  0
SPLINE
  5
157
100
AcDbEntity
  8
0
 62
1
100
AcDbSpline
 70
8
 71
3
 72
8
 73
4
 74
0
 40
0
 40
0
 40
0
 40
0
 40
1
 40
1
 40
1
 40
1
 10
209.982040
 20
117.631122
 30
0.0
 10
190.653768
 20
112.548864
 30
0.0
 10
186.687699
 20
137.016120
 30
0.0
 10
172.418826
 20
141.485955
 30
0.0
  0
SPLINE
  5
158
100
AcDbEntity
  8
0
 62
1
100
AcDbSpline
 70
8
 71
3
 72
8
 73
4
 74
0
 40
0
 40
0
 40
0
 40
0
 40
1
 40
1
 40
1
 40
1
 10
172.418826
 20
141.485955
 30
0.0
 10
163.159397
 20
142.692455
 30
0.0
 10
160.927301
 20
135.704351
 30
0.0
 10
154.132801
 20
136.303791
 30
0.0
  0
SPLINE
  5
159
100
AcDbEntity
  8
0
 62
1
100
AcDbSpline
 70
8
 71
3
 72
8
 73
4
 74
0
 40
0
 40
0
 40
0
 40
0
 40
1
 40
1
 40
1
 40
1
 10
154.132801
 20
136.303791
 30
0.0
 10
154.647574
 20
144.140538
 30
0.0
 10
152.009079
 20
166.163467
 30
0.0
 10
149.925150
 20
172.238300
 30
0.0
  0
SPLINE
  5
15a
100
AcDbEntity
  8
0
 62
1
100
AcDbSpline
 70
8
 71
3
 72
8
 73
4
 74
0
 40
0
 40
0
 40
0
 40
0
 40
1
 40
1
 40
1
 40
1
 10
149.925150
 20
172.238300
 30
0.0
 10
141.430825
 20
179.401382
 30
0.0
 10
133.404143
 20
174.761367
 30
0.0
 10
132.034801
 20
177.396194
 30
0.0
  0
LWPOLYLINE
  5
15b
100
AcDbEntity
  8
0
 62
1
100
AcDbPolyline
 90
2
 70
0
 10
137.242930
 20
109.384870
 30
0.0
 10
150.651590
 20
106.265750
 30
0.0
  0
SPLINE
  5
15c
100
AcDbEntity
  8
0
 62
1
100
AcDbSpline
 70
8
 71
3
 72
8
 73
4
 74
0
 40
0
 40
0
 40
0
 40
0
 40
1
 40
1
 40
1
 40
1
 10
145.395884
 20
20.496333
 30
0.0
 10
147.217911
 20
21.137260
 30
0.0
 10
157.361542
 20
17.002422
 30
0.0
 10
161.268626
 20
19.477511
 30
0.0
  0
SPLINE
  5
15d
100
AcDbEntity
  8
0
 62
1
100
AcDbSpline
 70
8
 71
3
 72
8
 73
4
 74
0
 40
0
 40
0
 40
0
 40
0
 40
1
 40
1
 40
1
 40
1
 10
161.268626
 20
19.477511
 30
0.0
 10
170.754962
 20
26.139366
 30
0.0
 10
169.004620
 20
32.321727
 30
0.0
 10
168.269995
 20
38.485460
 30
0.0
  0
SPLINE
  5
15e
100
AcDbEntity
  8
0
 62
1
100
AcDbSpline
 70
8
 71
3
 72
8
 73
4
 74
0
 40
0
 40
0
 40
0
 40
0
 40
1
 40
1
 40
1
 40
1
 10
168.269995
 20
38.485460
 30
0.0
 10
167.518155
 20
45.343460
 30
0.0
 10
162.824517
 20
47.131902
 30
0.0
 10
162.742673
 20
50.832400
 30
0.0
  0
LWPOLYLINE
  5
15f
100
AcDbEntity
  8
0
 62
1
100
AcDbPolyline
 90
1
 70
1
 10
132.034801
 20
177.396194
 30
0.0
  0
SPLINE
  5
160
100
AcDbEntity
  8
0
 62
1
100
AcDbSpline
 70
8
 71
3
 72
8
 73
4
 74
0
 40
0
 40
0
 40
0
 40
0
 40
1
 40
1
 40
1
 40
1
 10
162.335144
 20
55.007596
 30
0.0
 10
161.766749
 20
58.481469
 30
0.0
 10
160.709262
 20
61.563900
 30
0.0
 10
159.953471
 20
64.466838
 30
0.0
  0
SPLINE
  5
161
100
AcDbEntity
  8
0
 62
1
100
AcDbSpline
 70
8
 71
3
 72
8
 73
4
 74
0
 40
0
 40
0
 40
0
 40
0
 40
1
 40
1
 40
1
 40
1
 10
159.953471
 20
64.466838
 30
0.0
 10
159.425715
 20
66.495734
 30
0.0
 10
158.038593
 20
70.107614
 30
0.0
 10
155.241488
 20
74.247532
 30
0.0
  0
LWPOLYLINE
  5
162
100
AcDbEntity
  8
0
 62
1
100
AcDbPolyline
 90
6
 70
0
 10
162.742673
 20
50.832400
 30
0.0
 10
159.055722
 20
51.002016
 30
0.0
 10
145.517804
 20
51.002016
 30
0.0
 10
145.517804
 20
54.787462
 30
0.0
 10
159.818851
 20
54.787462
 30
0.0
 10
162.335144
 20
55.007596
 30
0.0
  0
SPLINE
  5
163
100
AcDbEntity
  8
0
 62
1
100
AcDbSpline
 70
8
 71
3
 72
8
 73
4
 74
0
 40
0
 40
0
 40
0
 40
0
 40
1
 40
1
 40
1
 40
1
 10
155.993328
 20
78.488316
 30
0.0
 10
152.663953
 20
84.791862
 30
0.0
 10
150.814833
 20
88.296187
 30
0.0
 10
150.271555
 20
94.306533
 30
0.0
  0
LWPOLYLINE
  5
164
100
AcDbEntity
  8
0
 62
1
100
AcDbPolyline
 90
6
 70
0
 10
155.241488
 20
74.247532
 30
0.0
 10
152.218888
 20
74.449320
 30
0.0
 10
137.723108
 20
74.449320
 30
0.0
 10
137.723108
 20
78.228671
 30
0.0
 10
151.456042
 20
78.228671
 30
0.0
 10
155.993328
 20
78.488316
 30
0.0
  0
SPLINE
  5
165
100
AcDbEntity
  8
0
 62
1
100
AcDbSpline
 70
8
 71
3
 72
8
 73
4
 74
0
 40
0
 40
0
 40
0
 40
0
 40
1
 40
1
 40
1
 40
1
 10
151.433182
 20
98.560666
 30
0.0
 10
150.487737
 20
102.017832
 30
0.0
 10
147.007373
 20
102.590458
 30
0.0
 10
144.752135
 20
103.238350
 30
0.0
  0
SPLINE
  5
166
100
AcDbEntity
  8
0
 62
1
100
AcDbSpline
 70
8
 71
3
 72
8
 73
4
 74
0
 40
0
 40
0
 40
0
 40
0
 40
1
 40
1
 40
1
 40
1
 10
144.752135
 20
103.238350
 30
0.0
 10
140.655962
 20
103.767150
 30
0.0
 10
136.160162
 20
104.762330
 30
0.0
 10
131.677795
 20
103.681647
 30
0.0
  0
SPLINE
  5
167
100
AcDbEntity
  8
0
 62
1
100
AcDbSpline
 70
8
 71
3
 72
8
 73
4
 74
0
 40
0
 40
0
 40
0
 40
0
 40
1
 40
1
 40
1
 40
1
 10
131.677795
 20
103.681647
 30
0.0
 10
123.318712
 20
100.246887
 30
0.0
 10
121.600571
 20
97.205830
 30
0.0
 10
119.902976
 20
91.328242
 30
0.0
  0
SPLINE
  5
168
100
AcDbEntity
  8
0
 62
1
100
AcDbSpline
 70
8
 71
3
 72
8
 73
4
 74
0
 40
0
 40
0
 40
0
 40
0
 40
1
 40
1
 40
1
 40
1
 10
119.902976
 20
91.328242
 30
0.0
 10
119.692551
 20
87.106874
 30
0.0
 10
120.522115
 20
84.489658
 30
0.0
 10
120.647986
 20
78.921865
 30
0.0
  0
SPLINE
  5
169
100
AcDbEntity
  8
0
 62
1
100
AcDbSpline
 70
8
 71
3
 72
8
 73
4
 74
0
 40
0
 40
0
 40
0
 40
0
 40
1
 40
1
 40
1
 40
1
 10
120.647986
 20
78.921865
 30
0.0
 10
121.689838
 20
71.022860
 30
0.0
 10
125.765240
 20
62.797776
 30
0.0
 10
127.135175
 20
57.788614
 30
0.0
  0
SPLINE
  5
16a
100
AcDbEntity
  8
0
 62
1
100
AcDbSpline
 70
8
 71
3
 72
8
 73
4
 74
0
 40
0
 40
0
 40
0
 40
0
 40
1
 40
1
 40
1
 40
1
 10
127.135175
 20
57.788614
 30
0.0
 10
126.140341
 20
51.709829
 30
0.0
 10
125.699087
 20
53.228185
 30
0.0
 10
124.786521
 20
48.389485
 30
0.0
  0
SPLINE
  5
16b
100
AcDbEntity
  8
0
 62
1
100
AcDbSpline
 70
8
 71
3
 72
8
 73
4
 74
0
 40
0
 40
0
 40
0
 40
0
 40
1
 40
1
 40
1
 40
1
 10
124.786521
 20
48.389485
 30
0.0
 10
124.915186
 20
44.834896
 30
0.0
 10
128.133931
 20
37.400315
 30
0.0
 10
129.912834
 20
34.559749
 30
0.0
  0
SPLINE
  5
16c
100
AcDbEntity
  8
0
 62
1
100
AcDbSpline
 70
8
 71
3
 72
8
 73
4
 74
0
 40
0
 40
0
 40
0
 40
0
 40
1
 40
1
 40
1
 40
1
 10
129.912834
 20
34.559749
 30
0.0
 10
131.266343
 20
32.397644
 30
0.0
 10
131.934335
 20
29.911267
 30
0.0
 10
131.934335
 20
29.911267
 30
0.0
  0
SPLINE
  5
16d
100
AcDbEntity
  8
0
 62
1
100
AcDbSpline
 70
8
 71
3
 72
8
 73
4
 74
0
 40
0
 40
0
 40
0
 40
0
 40
1
 40
1
 40
1
 40
1
 10
131.934335
 20
29.911267
 30
0.0
 10
117.531096
 20
29.098466
 30
0.0
 10
115.651721
 20
25.393171
 30
0.0
 10
112.395611
 20
23.235300
 30
0.0
  0
SPLINE
  5
16e
100
AcDbEntity
  8
0
 62
1
100
AcDbSpline
 70
8
 71
3
 72
8
 73
4
 74
0
 40
0
 40
0
 40
0
 40
0
 40
1
 40
1
 40
1
 40
1
 10
112.395611
 20
23.235300
 30
0.0
 10
111.425980
 20
21.024653
 30
0.0
 10
110.759173
 20
18.227266
 30
0.0
 10
113.583230
 20
16.274006
 30
0.0
  0
SPLINE
  5
16f
100
AcDbEntity
  8
0
 62
1
100
AcDbSpline
 70
8
 71
3
 72
8
 73
4
 74
0
 40
0
 40
0
 40
0
 40
0
 40
1
 40
1
 40
1
 40
1
 10
113.583230
 20
16.274006
 30
0.0
 10
115.340402
 20
15.058757
 30
0.0
 10
124.851912
 20
15.988397
 30
0.0
 10
127.111778
 20
15.941266
 30
0.0
  0
SPLINE
  5
170
100
AcDbEntity
  8
0
 62
1
100
AcDbSpline
 70
8
 71
3
 72
8
 73
4
 74
0
 40
0
 40
0
 40
0
 40
0
 40
1
 40
1
 40
1
 40
1
 10
127.111778
 20
15.941266
 30
0.0
 10
130.515661
 20
15.869582
 30
0.0
 10
135.614344
 20
17.066486
 30
0.0
 10
137.773908
 20
17.767526
 30
0.0
  0
SPLINE
  5
171
100
AcDbEntity
  8
0
 62
1
100
AcDbSpline
 70
8
 71
3
 72
8
 73
4
 74
0
 40
0
 40
0
 40
0
 40
0
 40
1
 40
1
 40
1
 40
1
 10
137.773908
 20
17.767526
 30
0.0
 10
140.531502
 20
18.662735
 30
0.0
 10
142.074128
 20
19.327933
 30
0.0
 10
145.395884
 20
20.496333
 30
0.0
  0
LWPOLYLINE
  5
172
100
AcDbEntity
  8
0
 62
1
100
AcDbPolyline
 90
6
 70
0
 10
150.271555
 20
94.306533
 30
0.0
 10
146.198524
 20
94.616272
 30
0.0
 10
129.921583
 20
94.616272
 30
0.0
 10
129.921583
 20
98.366977
 30
0.0
 10
147.215371
 20
98.366977
 30
0.0
 10
151.433182
 20
98.560666
 30
0.0
  0
SPLINE
  5
173
100
AcDbEntity
  8
0
 62
1
100
AcDbSpline
 70
8
 71
3
 72
8
 73
4
 74
0
 40
0
 40
0
 40
0
 40
0
 40
1
 40
1
 40
1
 40
1
 10
197.675796
 20
18.411930
 30
0.0
 10
199.497823
 20
19.052857
 30
0.0
 10
209.641172
 20
14.918019
 30
0.0
 10
213.548256
 20
17.393108
 30
0.0
  0
SPLINE
  5
174
100
AcDbEntity
  8
0
 62
1
100
AcDbSpline
 70
8
 71
3
 72
8
 73
4
 74
0
 40
0
 40
0
 40
0
 40
0
 40
1
 40
1
 40
1
 40
1
 10
213.548256
 20
17.393108
 30
0.0
 10
223.034874
 20
24.054963
 30
0.0
 10
221.284250
 20
30.237041
 30
0.0
 10
220.549625
 20
36.400775
 30
0.0
  0
SPLINE
  5
175
100
AcDbEntity
  8
0
 62
1
100
AcDbSpline
 70
8
 71
3
 72
8
 73
4
 74
0
 40
0
 40
0
 40
0
 40
0
 40
1
 40
1
 40
1
 40
1
 10
220.549625
 20
36.400775
 30
0.0
 10
219.798067
 20
43.259057
 30
0.0
 10
215.104147
 20
45.047217
 30
0.0
 10
215.022303
 20
48.747997
 30
0.0
  0
LWPOLYLINE
  5
176
100
AcDbEntity
  8
0
 62
1
100
AcDbPolyline
 90
1
 70
1
 10
145.395884
 20
20.496333
 30
0.0
  0
SPLINE
  5
177
100
AcDbEntity
  8
0
 62
1
100
AcDbSpline
 70
8
 71
3
 72
8
 73
4
 74
0
 40
0
 40
0
 40
0
 40
0
 40
1
 40
1
 40
1
 40
1
 10
214.614774
 20
52.923193
 30
0.0
 10
214.046661
 20
56.396784
 30
0.0
 10
212.988892
 20
59.479497
 30
0.0
 10
212.233383
 20
62.382435
 30
0.0
  0
SPLINE
  5
178
100
AcDbEntity
  8
0
 62
1
100
AcDbSpline
 70
8
 71
3
 72
8
 73
4
 74
0
 40
0
 40
0
 40
0
 40
0
 40
1
 40
1
 40
1
 40
1
 10
212.233383
 20
62.382435
 30
0.0
 10
211.705627
 20
64.411331
 30
0.0
 10
210.318505
 20
68.023211
 30
0.0
 10
207.521400
 20
72.163129
 30
0.0
  0
LWPOLYLINE
  5
179
100
AcDbEntity
  8
0
 62
1
100
AcDbPolyline
 90
6
 70
0
 10
215.022303
 20
48.747997
 30
0.0
 10
211.335634
 20
48.917613
 30
0.0
 10
197.797716
 20
48.917613
 30
0.0
 10
197.797716
 20
52.703059
 30
0.0
 10
212.098480
 20
52.703059
 30
0.0
 10
214.614774
 20
52.923193
 30
0.0
  0
SPLINE
  5
17a
100
AcDbEntity
  8
0
 62
1
100
AcDbSpline
 70
8
 71
3
 72
8
 73
4
 74
0
 40
0
 40
0
 40
0
 40
0
 40
1
 40
1
 40
1
 40
1
 10
208.273240
 20
76.403856
 30
0.0
 10
204.943865
 20
82.707402
 30
0.0
 10
203.094745
 20
86.211728
 30
0.0
 10
202.551185
 20
92.222073
 30
0.0
  0
LWPOLYLINE
  5
17b
100
AcDbEntity
  8
0
 62
1
100
AcDbPolyline
 90
6
 70
0
 10
207.521400
 20
72.163129
 30
0.0
 10
204.498800
 20
72.364917
 30
0.0
 10
190.002738
 20
72.364917
 30
0.0
 10
190.002738
 20
76.144212
 30
0.0
 10
203.735671
 20
76.144212
 30
0.0
 10
208.273240
 20
76.403856
 30
0.0
  0
SPLINE
  5
17c
100
AcDbEntity
  8
0
 62
1
100
AcDbSpline
 70
8
 71
3
 72
8
 73
4
 74
0
 40
0
 40
0
 40
0
 40
0
 40
1
 40
1
 40
1
 40
1
 10
203.713094
 20
96.476206
 30
0.0
 10
202.767367
 20
99.933372
 30
0.0
 10
199.287285
 20
100.506001
 30
0.0
 10
197.031765
 20
101.153887
 30
0.0
  0
SPLINE
  5
17d
100
AcDbEntity
  8
0
 62
1
100
AcDbSpline
 70
8
 71
3
 72
8
 73
4
 74
0
 40
0
 40
0
 40
0
 40
0
 40
1
 40
1
 40
1
 40
1
 10
197.031765
 20
101.153887
 30
0.0
 10
192.935874
 20
101.682690
 30
0.0
 10
188.440074
 20
102.677870
 30
0.0
 10
183.957538
 20
101.597185
 30
0.0
  0
SPLINE
  5
17e
100
AcDbEntity
  8
0
 62
1
100
AcDbSpline
 70
8
 71
3
 72
8
 73
4
 74
0
 40
0
 40
0
 40
0
 40
0
 40
1
 40
1
 40
1
 40
1
 10
183.957538
 20
101.597185
 30
0.0
 10
175.598398
 20
98.162428
 30
0.0
 10
173.880229
 20
95.121370
 30
0.0
 10
172.182662
 20
89.243782
 30
0.0
  0
SPLINE
  5
17f
100
AcDbEntity
  8
0
 62
1
100
AcDbSpline
 70
8
 71
3
 72
8
 73
4
 74
0
 40
0
 40
0
 40
0
 40
0
 40
1
 40
1
 40
1
 40
1
 10
172.182662
 20
89.243782
 30
0.0
 10
171.972407
 20
85.022387
 30
0.0
 10
172.801858
 20
82.405199
 30
0.0
 10
172.927729
 20
76.837378
 30
0.0
  0
SPLINE
  5
180
100
AcDbEntity
  8
0
 62
1
100
AcDbSpline
 70
8
 71
3
 72
8
 73
4
 74
0
 40
0
 40
0
 40
0
 40
0
 40
1
 40
1
 40
1
 40
1
 10
172.927729
 20
76.837378
 30
0.0
 10
173.969693
 20
68.938457
 30
0.0
 10
178.044982
 20
60.713373
 30
0.0
 10
179.414889
 20
55.704211
 30
0.0
  0
SPLINE
  5
181
100
AcDbEntity
  8
0
 62
1
100
AcDbSpline
 70
8
 71
3
 72
8
 73
4
 74
0
 40
0
 40
0
 40
0
 40
0
 40
1
 40
1
 40
1
 40
1
 10
179.414889
 20
55.704211
 30
0.0
 10
178.420056
 20
49.625144
 30
0.0
 10
177.978942
 20
51.143782
 30
0.0
 10
177.066236
 20
46.305081
 30
0.0
  0
SPLINE
  5
182
100
AcDbEntity
  8
0
 62
1
100
AcDbSpline
 70
8
 71
3
 72
8
 73
4
 74
0
 40
0
 40
0
 40
0
 40
0
 40
1
 40
1
 40
1
 40
1
 10
177.066236
 20
46.305081
 30
0.0
 10
177.194929
 20
42.750493
 30
0.0
 10
180.413673
 20
35.315912
 30
0.0
 10
182.192520
 20
32.475346
 30
0.0
  0
SPLINE
  5
183
100
AcDbEntity
  8
0
 62
1
100
AcDbSpline
 70
8
 71
3
 72
8
 73
4
 74
0
 40
0
 40
0
 40
0
 40
0
 40
1
 40
1
 40
1
 40
1
 10
182.192520
 20
32.475346
 30
0.0
 10
183.546058
 20
30.313241
 30
0.0
 10
184.214078
 20
27.826581
 30
0.0
 10
184.214078
 20
27.826581
 30
0.0
  0
SPLINE
  5
184
100
AcDbEntity
  8
0
 62
1
100
AcDbSpline
 70
8
 71
3
 72
8
 73
4
 74
0
 40
0
 40
0
 40
0
 40
0
 40
1
 40
1
 40
1
 40
1
 10
184.214078
 20
27.826581
 30
0.0
 10
169.810867
 20
27.014063
 30
0.0
 10
167.931549
 20
23.308768
 30
0.0
 10
164.675269
 20
21.150897
 30
0.0
  0
SPLINE
  5
185
100
AcDbEntity
  8
0
 62
1
100
AcDbSpline
 70
8
 71
3
 72
8
 73
4
 74
0
 40
0
 40
0
 40
0
 40
0
 40
1
 40
1
 40
1
 40
1
 10
164.675269
 20
21.150897
 30
0.0
 10
163.705835
 20
18.940250
 30
0.0
 10
163.038944
 20
16.142863
 30
0.0
 10
165.862860
 20
14.189603
 30
0.0
  0
SPLINE
  5
186
100
AcDbEntity
  8
0
 62
1
100
AcDbSpline
 70
8
 71
3
 72
8
 73
4
 74
0
 40
0
 40
0
 40
0
 40
0
 40
1
 40
1
 40
1
 40
1
 10
165.862860
 20
14.189603
 30
0.0
 10
167.620258
 20
12.974354
 30
0.0
 10
177.131711
 20
13.903994
 30
0.0
 10
179.391464
 20
13.856581
 30
0.0
  0
SPLINE
  5
187
100
AcDbEntity
  8
0
 62
1
100
AcDbSpline
 70
8
 71
3
 72
8
 73
4
 74
0
 40
0
 40
0
 40
0
 40
0
 40
1
 40
1
 40
1
 40
1
 10
179.391464
 20
13.856581
 30
0.0
 10
182.795347
 20
13.785179
 30
0.0
 10
187.894256
 20
14.982083
 30
0.0
 10
190.053538
 20
15.683123
 30
0.0
  0
SPLINE
  5
188
100
AcDbEntity
  8
0
 62
1
100
AcDbSpline
 70
8
 71
3
 72
8
 73
4
 74
0
 40
0
 40
0
 40
0
 40
0
 40
1
 40
1
 40
1
 40
1
 10
190.053538
 20
15.683123
 30
0.0
 10
192.811131
 20
16.578332
 30
0.0
 10
194.353758
 20
17.243530
 30
0.0
 10
197.675796
 20
18.411930
 30
0.0
  0
LWPOLYLINE
  5
189
100
AcDbEntity
  8
0
 62
1
100
AcDbPolyline
 90
6
 70
0
 10
202.551185
 20
92.222073
 30
0.0
 10
198.478154
 20
92.531812
 30
0.0
 10
182.201269
 20
92.531812
 30
0.0
 10
182.201269
 20
96.282517
 30
0.0
 10
199.495283
 20
96.282517
 30
0.0
 10
203.713094
 20
96.476206
 30
0.0
  0
LWPOLYLINE
  5
18a
100
AcDbEntity
  8
0
 62
1
100
AcDbPolyline
 90
1
 70
1
 10
197.675796
 20
18.411930
 30
0.0
  0
SPLINE
  5
18b
100
AcDbEntity
  8
0
 62
1
100
AcDbSpline
 70
8
 71
3
 72
8
 73
4
 74
0
 40
0
 40
0
 40
0
 40
0
 40
1
 40
1
 40
1
 40
1
 10
3.404192
 20
83.859146
 30
0.0
 10
3.404192
 20
83.859146
 30
0.0
 10
0.021759
 20
81.632695
 30
0.0
 10
0.222419
 20
63.389455
 30
0.0
  0
SPLINE
  5
18c
100
AcDbEntity
  8
0
 62
1
100
AcDbSpline
 70
8
 71
3
 72
8
 73
4
 74
0
 40
0
 40
0
 40
0
 40
0
 40
1
 40
1
 40
1
 40
1
 10
0.222419
 20
63.389455
 30
0.0
 10
5.461592
 20
44.194054
 30
0.0
 10
9.870750
 20
47.627005
 30
0.0
 10
9.870750
 20
47.627005
 30
0.0
  0
LWPOLYLINE
  5
18d
100
AcDbEntity
  8
0
 62
1
100
AcDbPolyline
 90
5
 70
0
 10
7.794159
 20
84.674768
 30
0.0
 10
7.794159
 20
66.276588
 30
0.0
 10
4.007866
 20
66.276588
 30
0.0
 10
3.761203
 20
79.070681
 30
0.0
 10
3.404192
 20
83.859146
 30
0.0
  0
SPLINE
  5
18e
100
AcDbEntity
  8
0
 62
1
100
AcDbSpline
 70
8
 71
3
 72
8
 73
4
 74
0
 40
0
 40
0
 40
0
 40
0
 40
1
 40
1
 40
1
 40
1
 10
25.845093
 20
47.617833
 30
0.0
 10
25.845093
 20
47.617833
 30
0.0
 10
30.178050
 20
44.567885
 30
0.0
 10
35.519671
 20
63.390527
 30
0.0
  0
SPLINE
  5
18f
100
AcDbEntity
  8
0
 62
1
100
AcDbSpline
 70
8
 71
3
 72
8
 73
4
 74
0
 40
0
 40
0
 40
0
 40
0
 40
1
 40
1
 40
1
 40
1
 10
35.519671
 20
63.390527
 30
0.0
 10
35.720331
 20
81.633823
 30
0.0
 10
32.393777
 20
83.792259
 30
0.0
 10
32.393777
 20
83.792259
 30
0.0
  0
LWPOLYLINE
  5
190
100
AcDbEntity
  8
0
 62
1
100
AcDbPolyline
 90
18
 70
0
 10
9.870750
 20
47.627005
 30
0.0
 10
10.172728
 20
50.315877
 30
0.0
 10
10.172728
 20
57.526232
 30
0.0
 10
13.944064
 20
57.526232
 30
0.0
 10
13.949426
 20
57.056557
 30
0.0
 10
14.060904
 20
53.002435
 30
0.0
 10
15.633164
 20
52.887796
 30
0.0
 10
16.048030
 20
56.814213
 30
0.0
 10
16.026017
 20
57.556232
 30
0.0
 10
19.716355
 20
57.557304
 30
0.0
 10
19.694341
 20
57.056557
 30
0.0
 10
20.101306
 20
52.848624
 30
0.0
 10
21.646473
 20
53.097346
 30
0.0
 10
21.792664
 20
57.137358
 30
0.0
 10
21.798026
 20
57.527671
 30
0.0
 10
25.569644
 20
57.527671
 30
0.0
 10
25.569644
 20
50.316216
 30
0.0
 10
25.845093
 20
47.617833
 30
0.0
  0
LWPOLYLINE
  5
191
100
AcDbEntity
  8
0
 62
1
100
AcDbPolyline
 90
6
 70
0
 10
32.393777
 20
83.792259
 30
0.0
 10
31.980886
 20
79.075761
 30
0.0
 10
31.734506
 20
66.277999
 30
0.0
 10
27.947930
 20
66.277999
 30
0.0
 10
27.947930
 20
84.640337
 30
0.0
 10
7.794159
 20
84.674768
 30
0.0
  0
SPLINE
  5
192
100
AcDbEntity
  8
0
 62
1
100
AcDbSpline
 70
8
 71
3
 72
8
 73
4
 74
0
 40
0
 40
0
 40
0
 40
0
 40
1
 40
1
 40
1
 40
1
 10
26.094030
 20
201.550996
 30
0.0
 10
26.094030
 20
201.550996
 30
0.0
 10
31.871119
 20
198.450220
 30
0.0
 10
33.689476
 20
192.440862
 30
0.0
  0
SPLINE
  5
193
100
AcDbEntity
  8
0
 62
1
100
AcDbSpline
 70
8
 71
3
 72
8
 73
4
 74
0
 40
0
 40
0
 40
0
 40
0
 40
1
 40
1
 40
1
 40
1
 10
33.689476
 20
192.440862
 30
0.0
 10
36.142552
 20
184.332900
 30
0.0
 10
36.409816
 20
183.500909
 30
0.0
 10
35.722605
 20
179.734371
 30
0.0
  0
SPLINE
  5
194
100
AcDbEntity
  8
0
 62
1
100
AcDbSpline
 70
8
 71
3
 72
8
 73
4
 74
0
 40
0
 40
0
 40
0
 40
0
 40
1
 40
1
 40
1
 40
1
 10
35.722605
 20
179.734371
 30
0.0
 10
34.747810
 20
175.200189
 30
0.0
 10
34.973305
 20
173.954177
 30
0.0
 10
32.523052
 20
171.135624
 30
0.0
  0
LWPOLYLINE
  5
195
100
AcDbEntity
  8
0
 62
1
100
AcDbPolyline
 90
9
 70
0
 10
19.983354
 20
185.231778
 30
0.0
 10
19.956543
 20
199.180329
 30
0.0
 10
20.309038
 20
203.171798
 30
0.0
 10
21.716198
 20
203.008109
 30
0.0
 10
22.058252
 20
198.969227
 30
0.0
 10
22.065025
 20
185.261411
 30
0.0
 10
25.836643
 20
185.261411
 30
0.0
 10
25.836643
 20
197.597909
 30
0.0
 10
26.094030
 20
201.550996
 30
0.0
  0
SPLINE
  5
196
100
AcDbEntity
  8
0
 62
1
100
AcDbSpline
 70
8
 71
3
 72
8
 73
4
 74
0
 40
0
 40
0
 40
0
 40
0
 40
1
 40
1
 40
1
 40
1
 10
27.856225
 20
163.092573
 30
0.0
 10
21.361163
 20
164.111960
 30
0.0
 10
14.866101
 20
164.457400
 30
0.0
 10
8.371038
 20
163.086928
 30
0.0
  0
LWPOLYLINE
  5
197
100
AcDbEntity
  8
0
 62
1
100
AcDbPolyline
 90
6
 70
0
 10
32.523052
 20
171.135624
 30
0.0
 10
32.197932
 20
172.812871
 30
0.0
 10
32.042427
 20
176.596060
 30
0.0
 10
28.255852
 20
176.596060
 30
0.0
 10
28.255852
 20
168.207286
 30
0.0
 10
27.856225
 20
163.092573
 30
0.0
  0
SPLINE
  5
198
100
AcDbEntity
  8
0
 62
1
100
AcDbSpline
 70
8
 71
3
 72
8
 73
4
 74
0
 40
0
 40
0
 40
0
 40
0
 40
1
 40
1
 40
1
 40
1
 10
3.733280
 20
171.122077
 30
0.0
 10
1.299396
 20
174.019371
 30
0.0
 10
1.051040
 20
176.824660
 30
0.0
 10
0.522438
 20
179.734371
 30
0.0
  0
SPLINE
  5
199
100
AcDbEntity
  8
0
 62
1
100
AcDbSpline
 70
8
 71
3
 72
8
 73
4
 74
0
 40
0
 40
0
 40
0
 40
0
 40
1
 40
1
 40
1
 40
1
 10
0.522438
 20
179.734371
 30
0.0
 10
-0.164773
 20
183.500909
 30
0.0
 10
0.102209
 20
184.332900
 30
0.0
 10
2.555285
 20
192.440862
 30
0.0
  0
SPLINE
  5
19a
100
AcDbEntity
  8
0
 62
1
100
AcDbSpline
 70
8
 71
3
 72
8
 73
4
 74
0
 40
0
 40
0
 40
0
 40
0
 40
1
 40
1
 40
1
 40
1
 10
2.555285
 20
192.440862
 30
0.0
 10
4.373643
 20
198.450220
 30
0.0
 10
10.163149
 20
201.558051
 30
0.0
 10
10.163149
 20
201.558051
 30
0.0
  0
LWPOLYLINE
  5
19b
100
AcDbEntity
  8
0
 62
1
100
AcDbPolyline
 90
6
 70
0
 10
8.371038
 20
163.086928
 30
0.0
 10
7.988909
 20
167.995902
 30
0.0
 10
7.988909
 20
176.596060
 30
0.0
 10
4.202616
 20
176.596060
 30
0.0
 10
4.044571
 20
172.495371
 30
0.0
 10
3.733280
 20
171.122077
 30
0.0
  0
SPLINE
  5
19c
100
AcDbEntity
  8
0
 62
1
100
AcDbSpline
 70
8
 71
3
 72
8
 73
4
 74
0
 40
0
 40
0
 40
0
 40
0
 40
1
 40
1
 40
1
 40
1
 10
80.189280
 20
38.592421
 30
0.0
 10
80.192666
 20
35.167654
 30
0.0
 10
80.395020
 20
33.389654
 30
0.0
 10
80.642246
 20
31.728494
 30
0.0
  0
SPLINE
  5
19d
100
AcDbEntity
  8
0
 62
1
100
AcDbSpline
 70
8
 71
3
 72
8
 73
4
 74
0
 40
0
 40
0
 40
0
 40
0
 40
1
 40
1
 40
1
 40
1
 10
80.642246
 20
31.728494
 30
0.0
 10
80.889755
 20
30.067052
 30
0.0
 10
81.490324
 20
28.777861
 30
0.0
 10
81.490324
 20
28.777861
 30
0.0
  0
LWPOLYLINE
  5
19e
100
AcDbEntity
  8
0
 62
1
100
AcDbPolyline
 90
10
 70
0
 10
10.163149
 20
201.558051
 30
0.0
 10
10.408118
 20
197.703742
 30
0.0
 10
10.408118
 20
185.261411
 30
0.0
 10
14.179736
 20
185.261411
 30
0.0
 10
14.186509
 20
198.969227
 30
0.0
 10
14.503163
 20
202.999078
 30
0.0
 10
15.963663
 20
203.171798
 30
0.0
 10
16.288218
 20
199.180329
 30
0.0
 10
16.261407
 20
185.231778
 30
0.0
 10
19.983354
 20
185.231778
 30
0.0
  0
SPLINE
  5
19f
100
AcDbEntity
  8
0
 62
1
100
AcDbSpline
 70
8
 71
3
 72
8
 73
4
 74
0
 40
0
 40
0
 40
0
 40
0
 40
1
 40
1
 40
1
 40
1
 10
84.963069
 20
24.339352
 30
0.0
 10
84.963069
 20
24.339352
 30
0.0
 10
86.316324
 20
23.352421
 30
0.0
 10
87.189520
 20
23.003312
 30
0.0
  0
SPLINE
  5
1a0
100
AcDbEntity
  8
0
 62
1
100
AcDbSpline
 70
8
 71
3
 72
8
 73
4
 74
0
 40
0
 40
0
 40
0
 40
0
 40
1
 40
1
 40
1
 40
1
 10
87.189520
 20
23.003312
 30
0.0
 10
88.062715
 20
22.653921
 30
0.0
 10
85.181791
 20
22.983839
 30
0.0
 10
96.053555
 20
21.252687
 30
0.0
  0
SPLINE
  5
1a1
100
AcDbEntity
  8
0
 62
1
100
AcDbSpline
 70
8
 71
3
 72
8
 73
4
 74
0
 40
0
 40
0
 40
0
 40
0
 40
1
 40
1
 40
1
 40
1
 10
96.053555
 20
21.252687
 30
0.0
 10
119.621651
 20
24.441516
 30
0.0
 10
117.025489
 20
30.678628
 30
0.0
 10
117.025489
 20
30.678628
 30
0.0
  0
LWPOLYLINE
  5
1a2
100
AcDbEntity
  8
0
 62
1
100
AcDbPolyline
 90
6
 70
0
 10
81.490324
 20
28.777861
 30
0.0
 10
84.942466
 20
28.512290
 30
0.0
 10
95.834833
 20
28.507774
 30
0.0
 10
95.834833
 20
24.721199
 30
0.0
 10
88.528382
 20
24.595610
 30
0.0
 10
84.963069
 20
24.339352
 30
0.0
  0
SPLINE
  5
1a3
100
AcDbEntity
  8
0
 62
1
100
AcDbSpline
 70
8
 71
3
 72
8
 73
4
 74
0
 40
0
 40
0
 40
0
 40
0
 40
1
 40
1
 40
1
 40
1
 10
116.947596
 20
46.800572
 30
0.0
 10
116.947596
 20
46.800572
 30
0.0
 10
119.466147
 20
52.718208
 30
0.0
 10
96.053555
 20
56.062824
 30
0.0
  0
SPLINE
  5
1a4
100
AcDbEntity
  8
0
 62
1
100
AcDbSpline
 70
8
 71
3
 72
8
 73
4
 74
0
 40
0
 40
0
 40
0
 40
0
 40
1
 40
1
 40
1
 40
1
 10
96.053555
 20
56.062824
 30
0.0
 10
84.961375
 20
54.441739
 30
0.0
 10
88.062715
 20
54.661872
 30
0.0
 10
87.189520
 20
54.312763
 30
0.0
  0
SPLINE
  5
1a5
100
AcDbEntity
  8
0
 62
1
100
AcDbSpline
 70
8
 71
3
 72
8
 73
4
 74
0
 40
0
 40
0
 40
0
 40
0
 40
1
 40
1
 40
1
 40
1
 10
87.189520
 20
54.312763
 30
0.0
 10
86.316324
 20
53.963372
 30
0.0
 10
85.023182
 20
53.018210
 30
0.0
 10
85.023182
 20
53.018210
 30
0.0
  0
LWPOLYLINE
  5
1a6
100
AcDbEntity
  8
0
 62
1
100
AcDbPolyline
 90
18
 70
0
 10
117.025489
 20
30.678628
 30
0.0
 10
113.313420
 20
30.904123
 30
0.0
 10
100.914833
 20
30.948150
 30
0.0
 10
100.914833
 20
34.719768
 30
0.0
 10
105.099907
 20
34.713841
 30
0.0
 10
108.986107
 20
34.955705
 30
0.0
 10
109.193822
 20
36.558163
 30
0.0
 10
104.773940
 20
36.814139
 30
0.0
 10
100.897053
 20
36.799745
 30
0.0
 10
100.897053
 20
40.515766
 30
0.0
 10
104.773940
 20
40.501372
 30
0.0
 10
109.193822
 20
40.848788
 30
0.0
 10
108.985542
 20
42.332430
 30
0.0
 10
104.692942
 20
42.601952
 30
0.0
 10
100.914833
 20
42.596308
 30
0.0
 10
100.914833
 20
46.367361
 30
0.0
 10
113.151142
 20
46.411106
 30
0.0
 10
116.947596
 20
46.800572
 30
0.0
  0
SPLINE
  5
1a7
100
AcDbEntity
  8
0
 62
1
100
AcDbSpline
 70
8
 71
3
 72
8
 73
4
 74
0
 40
0
 40
0
 40
0
 40
0
 40
1
 40
1
 40
1
 40
1
 10
81.463513
 20
48.471328
 30
0.0
 10
81.463513
 20
48.471328
 30
0.0
 10
80.890037
 20
47.249023
 30
0.0
 10
80.642246
 20
45.587299
 30
0.0
  0
SPLINE
  5
1a8
100
AcDbEntity
  8
0
 62
1
100
AcDbSpline
 70
8
 71
3
 72
8
 73
4
 74
0
 40
0
 40
0
 40
0
 40
0
 40
1
 40
1
 40
1
 40
1
 10
80.642246
 20
45.587299
 30
0.0
 10
80.395020
 20
43.925857
 30
0.0
 10
80.186175
 20
42.017188
 30
0.0
 10
80.189280
 20
38.592421
 30
0.0
  0
LWPOLYLINE
  5
1a9
100
AcDbEntity
  8
0
 62
1
100
AcDbPolyline
 90
6
 70
0
 10
85.023182
 20
53.018210
 30
0.0
 10
88.279180
 20
52.724417
 30
0.0
 10
95.834833
 20
52.594312
 30
0.0
 10
95.834833
 20
48.808019
 30
0.0
 10
85.512555
 20
48.803786
 30
0.0
 10
81.463513
 20
48.471328
 30
0.0
  0
LWPOLYLINE
  5
1aa
100
AcDbEntity
  8
0
 62
1
100
AcDbPolyline
 90
1
 70
1
 10
80.189280
 20
38.592421
 30
0.0
  0
LWPOLYLINE
  5
1ab
100
AcDbEntity
  8
0
 62
1
100
AcDbPolyline
 90
5
 70
1
 10
0.222661
 20
47.027884
 30
0.0
 10
4.119812
 20
47.027884
 30
0.0
 10
4.119812
 20
50.925090
 30
0.0
 10
0.222661
 20
50.925090
 30
0.0
 10
0.222661
 20
47.027884
 30
0.0
  0
ENDSEC
  0
SECTION
  2
OBJECTS
  0
DICTIONARY
  5
C
330
0
100
AcDbDictionary
  3
ACAD_GROUP
350
D
  3
ACAD_MLINESTYLE
350
17
  0
DICTIONARY
  5
D
330
C
100
AcDbDictionary
  0
DICTIONARY
  5
1A
330
C
100
AcDbDictionary
  0
DICTIONARY
  5
17
330
C
100
AcDbDictionary
  3
STANDARD
350
18
  0
DICTIONARY
  5
19
330
C
100
AcDbDictionary
  0
ENDSEC
  0
EOF
