  0
SECTION
  2
HEADER
  9
$ACADVER
  1
AC1014
  9
$ACADMAINTVER
 70
     9
  9
$DWGCODEPAGE
  3
ANSI_1252
  9
$INSBASE
 10
0.0
 20
0.0
 30
0.0
  9
$EXTMIN
 10
1.000000000000000E+20
 20
1.000000000000000E+20
 30
1.000000000000000E+20
  9
$EXTMAX
 10
-1.000000000000000E+20
 20
-1.000000000000000E+20
 30
-1.000000000000000E+20
  9
$LIMMIN
 10
0.0
 20
0.0
  9
$LIMMAX
 10
12.0
 20
9.0
  9
$ORTHOMODE
 70
     0
  9
$REGENMODE
 70
     1
  9
$FILLMODE
 70
     1
  9
$QTEXTMODE
 70
     0
  9
$MIRRTEXT
 70
     1
  9
$DRAGMODE
 70
     2
  9
$LTSCALE
 40
1.0
  9
$OSMODE
 70
    37
  9
$ATTMODE
 70
     1
  9
$TEXTSIZE
 40
0.2
  9
$TRACEWID
 40
0.05
  9
$TEXTSTYLE
  7
STANDARD
  9
$CLAYER
  8
0
  9
$CELTYPE
  6
BYLAYER
  9
$CECOLOR
 62
   256
  9
$CELTSCALE
 40
1.0
  9
$DELOBJ
 70
     1
  9
$DISPSILH
 70
     0
  9
$DIMSCALE
 40
1.0
  9
$DIMASZ
 40
0.18
  9
$DIMEXO
 40
0.0625
  9
$DIMDLI
 40
0.38
  9
$DIMRND
 40
0.0
  9
$DIMDLE
 40
0.0
  9
$DIMEXE
 40
0.18
  9
$DIMTP
 40
0.0
  9
$DIMTM
 40
0.0
  9
$DIMTXT
 40
0.18
  9
$DIMCEN
 40
0.09
  9
$DIMTSZ
 40
0.0
  9
$DIMTOL
 70
     0
  9
$DIMLIM
 70
     0
  9
$DIMTIH
 70
     1
  9
$DIMTOH
 70
     1
  9
$DIMSE1
 70
     0
  9
$DIMSE2
 70
     0
  9
$DIMTAD
 70
     0
  9
$DIMZIN
 70
     0
  9
$DIMBLK
  1

  9
$DIMASO
 70
     1
  9
$DIMSHO
 70
     1
  9
$DIMPOST
  1

  9
$DIMAPOST
  1

  9
$DIMALT
 70
     0
  9
$DIMALTD
 70
     2
  9
$DIMALTF
 40
25.4
  9
$DIMLFAC
 40
1.0
  9
$DIMTOFL
 70
     0
  9
$DIMTVP
 40
0.0
  9
$DIMTIX
 70
     0
  9
$DIMSOXD
 70
     0
  9
$DIMSAH
 70
     0
  9
$DIMBLK1
  1

  9
$DIMBLK2
  1

  9
$DIMSTYLE
  2
STANDARD
  9
$DIMCLRD
 70
     0
  9
$DIMCLRE
 70
     0
  9
$DIMCLRT
 70
     0
  9
$DIMTFAC
 40
1.0
  9
$DIMGAP
 40
0.09
  9
$DIMJUST
 70
     0
  9
$DIMSD1
 70
     0
  9
$DIMSD2
 70
     0
  9
$DIMTOLJ
 70
     1
  9
$DIMTZIN
 70
     0
  9
$DIMALTZ
 70
     0
  9
$DIMALTTZ
 70
     0
  9
$DIMFIT
 70
     3
  9
$DIMUPT
 70
     0
  9
$DIMUNIT
 70
     2
  9
$DIMDEC
 70
     4
  9
$DIMTDEC
 70
     4
  9
$DIMALTU
 70
     2
  9
$DIMALTTD
 70
     2
  9
$DIMTXSTY
  7
STANDARD
  9
$DIMAUNIT
 70
     0
  9
$LUNITS
 70
     2
  9
$LUPREC
 70
     4
  9
$SKETCHINC
 40
0.1
  9
$FILLETRAD
 40
0.5
  9
$AUNITS
 70
     0
  9
$AUPREC
 70
     0
  9
$MENU
  1
.
  9
$ELEVATION
 40
0.0
  9
$PELEVATION
 40
0.0
  9
$THICKNESS
 40
0.0
  9
$LIMCHECK
 70
     0
  9
$CHAMFERA
 40
0.0
  9
$CHAMFERB
 40
0.0
  9
$CHAMFERC
 40
0.0
  9
$CHAMFERD
 40
0.0
  9
$SKPOLY
 70
     0
  9
$TDCREATE
 40
2456896.56933846
  9
$TDUPDATE
 40
2456896.569339086
  9
$TDINDWG
 40
0.0000000116
  9
$TDUSRTIMER
 40
0.0000000116
  9
$USRTIMER
 70
     1
  9
$ANGBASE
 50
0.0
  9
$ANGDIR
 70
     0
  9
$PDMODE
 70
     0
  9
$PDSIZE
 40
0.0
  9
$PLINEWID
 40
0.0
  9
$COORDS
 70
     1
  9
$SPLFRAME
 70
     0
  9
$SPLINETYPE
 70
     6
  9
$SPLINESEGS
 70
     8
  9
$ATTDIA
 70
     0
  9
$ATTREQ
 70
     1
  9
$HANDLING
 70
     1
  9
$HANDSEED
  5
532
  9
$SURFTAB1
 70
     6
  9
$SURFTAB2
 70
     6
  9
$SURFTYPE
 70
     6
  9
$SURFU
 70
     6
  9
$SURFV
 70
     6
  9
$UCSNAME
  2

  9
$UCSORG
 10
0.0
 20
0.0
 30
0.0
  9
$UCSXDIR
 10
1.0
 20
0.0
 30
0.0
  9
$UCSYDIR
 10
0.0
 20
1.0
 30
0.0
  9
$PUCSNAME
  2

  9
$PUCSORG
 10
0.0
 20
0.0
 30
0.0
  9
$PUCSXDIR
 10
1.0
 20
0.0
 30
0.0
  9
$PUCSYDIR
 10
0.0
 20
1.0
 30
0.0
  9
$USERI1
 70
     0
  9
$USERI2
 70
     0
  9
$USERI3
 70
     0
  9
$USERI4
 70
     0
  9
$USERI5
 70
     0
  9
$USERR1
 40
0.0
  9
$USERR2
 40
0.0
  9
$USERR3
 40
0.0
  9
$USERR4
 40
0.0
  9
$USERR5
 40
0.0
  9
$WORLDVIEW
 70
     1
  9
$SHADEDGE
 70
     3
  9
$SHADEDIF
 70
    70
  9
$TILEMODE
 70
     1
  9
$MAXACTVP
 70
    64
  9
$PINSBASE
 10
0.0
 20
0.0
 30
0.0
  9
$PLIMCHECK
 70
     0
  9
$PEXTMIN
 10
1.000000000000000E+20
 20
1.000000000000000E+20
 30
1.000000000000000E+20
  9
$PEXTMAX
 10
-1.000000000000000E+20
 20
-1.000000000000000E+20
 30
-1.000000000000000E+20
  9
$PLIMMIN
 10
0.0
 20
0.0
  9
$PLIMMAX
 10
12.0
 20
9.0
  9
$UNITMODE
 70
     0
  9
$VISRETAIN
 70
     1
  9
$PLINEGEN
 70
     0
  9
$PSLTSCALE
 70
     1
  9
$TREEDEPTH
 70
  3020
  9
$PICKSTYLE
 70
     1
  9
$CMLSTYLE
  2
STANDARD
  9
$CMLJUST
 70
     0
  9
$CMLSCALE
 40
1.0
  9
$PROXYGRAPHICS
 70
     1
  9
$MEASUREMENT
 70
     0
  0
ENDSEC
  0
SECTION
  2
CLASSES
  0
CLASS
  1
ACDBDICTIONARYWDFLT
  2
AcDbDictionaryWithDefault
  3
ObjectDBX Classes
 90
        0
280
     0
281
     0
  0
CLASS
  1
VISUALSTYLE
  2
AcDbVisualStyle
  3
ObjectDBX Classes
 90
     4095
280
     0
281
     0
  0
CLASS
  1
MATERIAL
  2
AcDbMaterial
  3
ObjectDBX Classes
 90
     1153
280
     0
281
     0
  0
CLASS
  1
SCALE
  2
AcDbScale
  3
ObjectDBX Classes
 90
     1153
280
     0
281
     0
  0
CLASS
  1
SUN
  2
AcDbSun
  3
SCENEOE
 90
     1153
280
     0
281
     0
  0
CLASS
  1
DICTIONARYVAR
  2
AcDbDictionaryVar
  3
ObjectDBX Classes
 90
        0
280
     0
281
     0
  0
CLASS
  1
XRECORD
  2
AcDbXrecord
  3
ObjectDBX Classes
 90
        0
280
     0
281
     0
  0
CLASS
  1
LWPOLYLINE
  2
AcDbPolyline
  3
ObjectDBX Classes
 90
        0
280
     0
281
     1
  0
CLASS
  1
HATCH
  2
AcDbHatch
  3
ObjectDBX Classes
 90
        0
280
     0
281
     1
  0
CLASS
  1
ACDBPLACEHOLDER
  2
AcDbPlaceHolder
  3
ObjectDBX Classes
 90
        0
280
     0
281
     0
  0
CLASS
  1
LAYOUT
  2
AcDbLayout
  3
ObjectDBX Classes
 90
        0
280
     0
281
     0
  0
ENDSEC
  0
SECTION
  2
TABLES
  0
TABLE
  2
VPORT
  5
8
102
{ACAD_XDICTIONARY
360
528
102
}
330
0
100
AcDbSymbolTable
 70
     1
  0
VPORT
  5
29
330
8
100
AcDbSymbolTableRecord
100
AcDbViewportTableRecord
  2
*ACTIVE
 70
     0
 10
0.0
 20
0.0
 11
1.0
 21
1.0
 12
0.0
 22
0.0
 13
0.0
 23
0.0
 14
0.5
 24
0.5
 15
0.5
 25
0.5
 16
0.0
 26
0.0
 36
1.0
 17
0.0
 27
0.0
 37
-1000.0
 40
308.9399962641473
 41
2.199770378874856
 42
50.0
 43
200.9453682407113
 44
589.3492070164259
 50
0.0
 51
0.0
 71
     0
 72
   100
 73
     1
 74
     3
 75
     0
 76
     0
 77
     0
 78
     0
  0
ENDTAB
  0
TABLE
  2
LTYPE
  5
5
330
0
100
AcDbSymbolTable
 70
     1
  0
LTYPE
  5
14
330
5
100
AcDbSymbolTableRecord
100
AcDbLinetypeTableRecord
  2
BYBLOCK
 70
     0
  3

 72
    65
 73
     0
 40
0.0
  0
LTYPE
  5
15
330
5
100
AcDbSymbolTableRecord
100
AcDbLinetypeTableRecord
  2
BYLAYER
 70
     0
  3

 72
    65
 73
     0
 40
0.0
  0
LTYPE
  5
16
330
5
100
AcDbSymbolTableRecord
100
AcDbLinetypeTableRecord
  2
CONTINUOUS
 70
     0
  3
Solid line
 72
    65
 73
     0
 40
0.0
  0
ENDTAB
  0
TABLE
  2
LAYER
  5
2
330
0
100
AcDbSymbolTable
 70
     3
  0
LAYER
  5
10
330
2
100
AcDbSymbolTableRecord
100
AcDbLayerTableRecord
  2
0
 70
     0
 62
     7
  6
CONTINUOUS
  0
LAYER
  5
6A
330
2
100
AcDbSymbolTableRecord
100
AcDbLayerTableRecord
  2
PROFILEEDGES
 70
     0
 62
     7
  6
CONTINUOUS
  0
LAYER
  5
6B
330
2
100
AcDbSymbolTableRecord
100
AcDbLayerTableRecord
  2
SECTIONCUTEDGES
 70
     0
 62
     7
  6
CONTINUOUS
  0
ENDTAB
  0
TABLE
  2
STYLE
  5
3
330
0
100
AcDbSymbolTable
 70
     1
  0
STYLE
  5
11
330
3
100
AcDbSymbolTableRecord
100
AcDbTextStyleTableRecord
  2
STANDARD
 70
     0
 40
0.0
 41
1.0
 50
0.0
 71
     0
 42
0.2
  3
txt
  4

  0
ENDTAB
  0
TABLE
  2
VIEW
  5
6
330
0
100
AcDbSymbolTable
 70
     0
  0
ENDTAB
  0
TABLE
  2
UCS
  5
7
330
0
100
AcDbSymbolTable
 70
     0
  0
ENDTAB
  0
TABLE
  2
APPID
  5
9
330
0
100
AcDbSymbolTable
 70
     1
  0
APPID
  5
12
330
9
100
AcDbSymbolTableRecord
100
AcDbRegAppTableRecord
  2
ACAD
 70
     0
  0
ENDTAB
  0
TABLE
  2
DIMSTYLE
  5
A
330
0
100
AcDbSymbolTable
 70
     1
  0
DIMSTYLE
105
27
330
A
100
AcDbSymbolTableRecord
100
AcDbDimStyleTableRecord
  2
STANDARD
 70
     0
  3

  4

  5

  6

  7

 40
1.0
 41
0.18
 42
0.0625
 43
0.38
 44
0.18
 45
0.0
 46
0.0
 47
0.0
 48
0.0
140
0.18
141
0.09
142
0.0
143
25.4
144
1.0
145
0.0
146
1.0
147
0.09
 71
     0
 72
     0
 73
     1
 74
     1
 75
     0
 76
     0
 77
     0
 78
     0
170
     0
171
     2
172
     0
173
     0
174
     0
175
     0
176
     0
177
     0
178
     0
270
     2
271
     4
272
     4
273
     2
274
     2
340
11
275
     0
280
     0
281
     0
282
     0
283
     1
284
     0
285
     0
286
     0
287
     3
288
     0
  0
ENDTAB
  0
TABLE
  2
BLOCK_RECORD
  5
1
330
0
100
AcDbSymbolTable
 70
     1
  0
BLOCK_RECORD
  5
1F
330
1
100
AcDbSymbolTableRecord
100
AcDbBlockTableRecord
  2
*MODEL_SPACE
  0
BLOCK_RECORD
  5
1B
330
1
100
AcDbSymbolTableRecord
100
AcDbBlockTableRecord
  2
*PAPER_SPACE
  0
ENDTAB
  0
ENDSEC
  0
SECTION
  2
BLOCKS
  0
BLOCK
  5
20
330
1F
100
AcDbEntity
  8
0
100
AcDbBlockBegin
  2
*MODEL_SPACE
 70
     0
 10
0.0
 20
0.0
 30
0.0
  3
*MODEL_SPACE
  1

  0
ENDBLK
  5
21
330
1F
100
AcDbEntity
  8
0
100
AcDbBlockEnd
  0
BLOCK
  5
1C
330
1B
100
AcDbEntity
 67
     1
  8
0
100
AcDbBlockBegin
  2
*PAPER_SPACE
 70
     0
 10
0.0
 20
0.0
 30
0.0
  3
*PAPER_SPACE
  1

  0
ENDBLK
  5
1D
330
1B
100
AcDbEntity
 67
     1
  8
0
100
AcDbBlockEnd
  0
ENDSEC
  0
SECTION
  2
ENTITIES
  0
LINE
  5
6C
330
1F
100
AcDbEntity
  8
0
100
AcDbLine
 10
-279.5523999999826
 20
-134.5803124999625
 30
0.0
 11
-279.5523999999826
 21
-139.7365124999626
 31
0.0
  0
LINE
  5
6D
330
1F
100
AcDbEntity
  8
0
100
AcDbLine
 10
-266.8523999999826
 20
-134.5803124999625
 30
0.0
 11
-266.8523999999826
 21
-139.7365124999626
 31
0.0
  0
LINE
  5
6E
330
1F
100
AcDbEntity
  8
0
100
AcDbLine
 10
-254.1523999999826
 20
-134.5803124999625
 30
0.0
 11
-254.1523999999826
 21
-139.7365124999626
 31
0.0
  0
LINE
  5
6F
330
1F
100
AcDbEntity
  8
0
100
AcDbLine
 10
-241.4523999999826
 20
-139.7365124999626
 30
0.0
 11
-254.1523999999826
 21
-139.7365124999626
 31
0.0
  0
LINE
  5
70
330
1F
100
AcDbEntity
  8
0
100
AcDbLine
 10
-241.4523999999826
 20
-134.5803124999625
 30
0.0
 11
-241.4523999999826
 21
-139.7365124999626
 31
0.0
  0
LINE
  5
71
330
1F
100
AcDbEntity
  8
0
100
AcDbLine
 10
-266.8523999999826
 20
-139.7365124999626
 30
0.0
 11
-279.5523999999826
 21
-139.7365124999626
 31
0.0
  0
LINE
  5
72
330
1F
100
AcDbEntity
  8
0
100
AcDbLine
 10
-223.5962000000004
 20
20.35968749999933
 30
0.0
 11
-223.5962000000004
 21
7.659687499999327
 31
0.0
  0
LINE
  5
73
330
1F
100
AcDbEntity
  8
0
100
AcDbLine
 10
-228.7524000000004
 20
20.35968749999933
 30
0.0
 11
-223.5962000000004
 21
20.35968749999933
 31
0.0
  0
LINE
  5
74
330
1F
100
AcDbEntity
  8
0
100
AcDbLine
 10
-223.5962000000004
 20
45.75968749999932
 30
0.0
 11
-223.5962000000004
 21
33.05968749999933
 31
0.0
  0
LINE
  5
75
330
1F
100
AcDbEntity
  8
0
100
AcDbLine
 10
-228.7524000000003
 20
-119.3403125000006
 30
0.0
 11
-228.7523999999823
 21
-134.5803124999625
 31
0.0
  0
LINE
  5
76
330
1F
100
AcDbEntity
  8
0
100
AcDbLine
 10
-228.7524000000004
 20
-17.74031250000067
 30
0.0
 11
-223.5962000000004
 21
-17.74031250000067
 31
0.0
  0
LINE
  5
77
330
1F
100
AcDbEntity
  8
0
100
AcDbLine
 10
-228.7524000000004
 20
-5.040312500000672
 30
0.0
 11
-223.5962000000004
 21
-5.040312500000672
 31
0.0
  0
LINE
  5
78
330
1F
100
AcDbEntity
  8
0
100
AcDbLine
 10
-223.5962000000004
 20
-55.84031250000067
 30
0.0
 11
-223.5962000000004
 21
-68.54031250000058
 31
0.0
  0
LINE
  5
79
330
1F
100
AcDbEntity
  8
0
100
AcDbLine
 10
-223.5962000000004
 20
-81.24031250000058
 30
0.0
 11
-223.5962000000002
 21
-91.88786202044042
 31
0.0
  0
LINE
  5
7A
330
1F
100
AcDbEntity
  8
0
100
AcDbLine
 10
-223.5962000000004
 20
-30.44031250000067
 30
0.0
 11
-223.5962000000004
 21
-43.14031250000067
 31
0.0
  0
LINE
  5
7B
330
1F
100
AcDbEntity
  8
0
100
AcDbLine
 10
-317.6524000000005
 20
-5.040312500000694
 30
0.0
 11
-317.6524000000005
 21
7.659687499999305
 31
0.0
  0
LINE
  5
7C
330
1F
100
AcDbEntity
  8
0
100
AcDbLine
 10
-317.6524000000005
 20
-30.44031250000069
 30
0.0
 11
-317.6524000000005
 21
-17.74031250000069
 31
0.0
  0
LINE
  5
7D
330
1F
100
AcDbEntity
  8
0
100
AcDbLine
 10
-228.7524000000004
 20
-43.14031250000067
 30
0.0
 11
-223.5962000000004
 21
-43.14031250000067
 31
0.0
  0
LINE
  5
7E
330
1F
100
AcDbEntity
  8
0
100
AcDbLine
 10
-223.5962000000004
 20
71.15968749999932
 30
0.0
 11
-223.5962000000004
 21
58.45968749999933
 31
0.0
  0
LINE
  5
7F
330
1F
100
AcDbEntity
  8
0
100
AcDbLine
 10
-228.7524000000004
 20
33.05968749999933
 30
0.0
 11
-223.5962000000004
 21
33.05968749999933
 31
0.0
  0
LINE
  5
80
330
1F
100
AcDbEntity
  8
0
100
AcDbLine
 10
-228.7524000000005
 20
71.15968749999932
 30
0.0
 11
-223.5962000000004
 21
71.15968749999932
 31
0.0
  0
LINE
  5
81
330
1F
100
AcDbEntity
  8
0
100
AcDbLine
 10
-317.6524000000005
 20
-55.84031250000067
 30
0.0
 11
-317.6524000000005
 21
-43.14031250000067
 31
0.0
  0
LINE
  5
82
330
1F
100
AcDbEntity
  8
0
100
AcDbLine
 10
-228.7524000000005
 20
58.45968749999933
 30
0.0
 11
-223.5962000000004
 21
58.45968749999933
 31
0.0
  0
LINE
  5
83
330
1F
100
AcDbEntity
  8
0
100
AcDbLine
 10
-317.6523999999825
 20
-134.5803124999625
 30
0.0
 11
-317.6524000000005
 21
-119.3403125000006
 31
0.0
  0
LINE
  5
84
330
1F
100
AcDbEntity
  8
0
100
AcDbLine
 10
-279.5523999999826
 20
-134.5803124999625
 30
0.0
 11
-292.2523999999826
 21
-134.5803124999625
 31
0.0
  0
LINE
  5
85
330
1F
100
AcDbEntity
  8
0
100
AcDbLine
 10
-254.1523999999826
 20
-134.5803124999625
 30
0.0
 11
-266.8523999999826
 21
-134.5803124999625
 31
0.0
  0
LINE
  5
86
330
1F
100
AcDbEntity
  8
0
100
AcDbLine
 10
-228.7523999999823
 20
-134.5803124999625
 30
0.0
 11
-241.4523999999826
 21
-134.5803124999625
 31
0.0
  0
LINE
  5
87
330
1F
100
AcDbEntity
  8
0
100
AcDbLine
 10
-228.7524000000003
 20
-119.3403125000006
 30
0.0
 11
-223.5962000000004
 21
-119.3403125000006
 31
0.0
  0
LINE
  5
88
330
1F
100
AcDbEntity
  8
0
100
AcDbLine
 10
-228.7524000000004
 20
-106.6403125000006
 30
0.0
 11
-223.5962000000004
 21
-106.6403125000006
 31
0.0
  0
LINE
  5
89
330
1F
100
AcDbEntity
  8
0
100
AcDbLine
 10
-228.7524000000004
 20
-93.94031250000057
 30
0.0
 11
-228.7524000000004
 21
-106.6403125000006
 31
0.0
  0
LINE
  5
8A
330
1F
100
AcDbEntity
  8
0
100
AcDbLine
 10
-228.7524000000004
 20
-93.94031250000057
 30
0.0
 11
-223.5962000000004
 21
-93.94031250000057
 31
0.0
  0
LINE
  5
8B
330
1F
100
AcDbEntity
  8
0
100
AcDbLine
 10
-228.7524000000004
 20
-81.24031250000058
 30
0.0
 11
-223.5962000000004
 21
-81.24031250000058
 31
0.0
  0
LINE
  5
8C
330
1F
100
AcDbEntity
  8
0
100
AcDbLine
 10
-228.7524000000004
 20
-68.54031250000058
 30
0.0
 11
-228.7524000000004
 21
-81.24031250000058
 31
0.0
  0
LINE
  5
8D
330
1F
100
AcDbEntity
  8
0
100
AcDbLine
 10
-228.7524000000004
 20
-68.54031250000058
 30
0.0
 11
-223.5962000000004
 21
-68.54031250000058
 31
0.0
  0
LINE
  5
8E
330
1F
100
AcDbEntity
  8
0
100
AcDbLine
 10
-228.7524000000004
 20
-55.84031250000067
 30
0.0
 11
-223.5962000000004
 21
-55.84031250000067
 31
0.0
  0
LINE
  5
8F
330
1F
100
AcDbEntity
  8
0
100
AcDbLine
 10
-228.7524000000004
 20
-43.14031250000067
 30
0.0
 11
-228.7524000000004
 21
-55.84031250000067
 31
0.0
  0
LINE
  5
90
330
1F
100
AcDbEntity
  8
0
100
AcDbLine
 10
-228.7524000000004
 20
-30.44031250000067
 30
0.0
 11
-223.5962000000004
 21
-30.44031250000067
 31
0.0
  0
LINE
  5
91
330
1F
100
AcDbEntity
  8
0
100
AcDbLine
 10
-228.7524000000004
 20
-17.74031250000067
 30
0.0
 11
-228.7524000000004
 21
-30.44031250000067
 31
0.0
  0
LINE
  5
92
330
1F
100
AcDbEntity
  8
0
100
AcDbLine
 10
-223.5962000000004
 20
-5.040312500000672
 30
0.0
 11
-223.5962000000004
 21
-17.74031250000067
 31
0.0
  0
LINE
  5
93
330
1F
100
AcDbEntity
  8
0
100
AcDbLine
 10
-228.7524000000004
 20
7.659687499999327
 30
0.0
 11
-228.7524000000004
 21
-5.040312500000672
 31
0.0
  0
LINE
  5
94
330
1F
100
AcDbEntity
  8
0
100
AcDbLine
 10
-228.7524000000004
 20
7.659687499999327
 30
0.0
 11
-223.5962000000004
 21
7.659687499999327
 31
0.0
  0
LINE
  5
95
330
1F
100
AcDbEntity
  8
0
100
AcDbLine
 10
-228.7524000000004
 20
33.05968749999933
 30
0.0
 11
-228.7524000000004
 21
20.35968749999933
 31
0.0
  0
LINE
  5
96
330
1F
100
AcDbEntity
  8
0
100
AcDbLine
 10
-228.7524000000005
 20
45.75968749999932
 30
0.0
 11
-223.5962000000004
 21
45.75968749999932
 31
0.0
  0
LINE
  5
97
330
1F
100
AcDbEntity
  8
0
100
AcDbLine
 10
-228.7524000000005
 20
58.45968749999933
 30
0.0
 11
-228.7524000000005
 21
45.75968749999932
 31
0.0
  0
LINE
  5
98
330
1F
100
AcDbEntity
  8
0
100
AcDbLine
 10
-228.7524000000005
 20
83.85968749999932
 30
0.0
 11
-228.7524000000005
 21
71.15968749999932
 31
0.0
  0
LINE
  5
99
330
1F
100
AcDbEntity
  8
0
100
AcDbLine
 10
-241.4524000000005
 20
83.85968749999932
 30
0.0
 11
-228.7524000000005
 21
83.85968749999932
 31
0.0
  0
LINE
  5
9A
330
1F
100
AcDbEntity
  8
0
100
AcDbLine
 10
-241.4524000000005
 20
83.85968749999932
 30
0.0
 11
-241.4524000000005
 21
89.0158874999994
 31
0.0
  0
LINE
  5
9B
330
1F
100
AcDbEntity
  8
0
100
AcDbLine
 10
-254.1524000000005
 20
89.0158874999994
 30
0.0
 11
-241.4524000000005
 21
89.0158874999994
 31
0.0
  0
LINE
  5
9C
330
1F
100
AcDbEntity
  8
0
100
AcDbLine
 10
-254.1524000000005
 20
83.85968749999932
 30
0.0
 11
-254.1524000000005
 21
89.0158874999994
 31
0.0
  0
LINE
  5
9D
330
1F
100
AcDbEntity
  8
0
100
AcDbLine
 10
-266.8524000000005
 20
83.85968749999931
 30
0.0
 11
-254.1524000000005
 21
83.85968749999932
 31
0.0
  0
LINE
  5
9E
330
1F
100
AcDbEntity
  8
0
100
AcDbLine
 10
-266.8524000000005
 20
83.85968749999931
 30
0.0
 11
-266.8524000000005
 21
89.01588749999938
 31
0.0
  0
LINE
  5
9F
330
1F
100
AcDbEntity
  8
0
100
AcDbLine
 10
-279.5524000000005
 20
89.01588749999938
 30
0.0
 11
-266.8524000000005
 21
89.01588749999938
 31
0.0
  0
LINE
  5
A0
330
1F
100
AcDbEntity
  8
0
100
AcDbLine
 10
-279.5524000000005
 20
83.85968749999931
 30
0.0
 11
-279.5524000000005
 21
89.01588749999938
 31
0.0
  0
LINE
  5
A1
330
1F
100
AcDbEntity
  8
0
100
AcDbLine
 10
-317.6524000000005
 20
83.85968749999931
 30
0.0
 11
-304.9524000000005
 21
83.85968749999931
 31
0.0
  0
LINE
  5
A2
330
1F
100
AcDbEntity
  8
0
100
AcDbLine
 10
-317.6524000000005
 20
71.15968749999931
 30
0.0
 11
-317.6524000000005
 21
83.85968749999931
 31
0.0
  0
LINE
  5
A3
330
1F
100
AcDbEntity
  8
0
100
AcDbLine
 10
-317.6524000000005
 20
71.15968749999931
 30
0.0
 11
-322.8086000000006
 21
71.15968749999931
 31
0.0
  0
LINE
  5
A4
330
1F
100
AcDbEntity
  8
0
100
AcDbLine
 10
-322.8086000000005
 20
58.4596874999993
 30
0.0
 11
-322.8086000000006
 21
71.15968749999931
 31
0.0
  0
LINE
  5
A5
330
1F
100
AcDbEntity
  8
0
100
AcDbLine
 10
-317.6524000000005
 20
58.4596874999993
 30
0.0
 11
-322.8086000000005
 21
58.4596874999993
 31
0.0
  0
LINE
  5
A6
330
1F
100
AcDbEntity
  8
0
100
AcDbLine
 10
-317.6524000000005
 20
45.7596874999993
 30
0.0
 11
-317.6524000000005
 21
58.4596874999993
 31
0.0
  0
LINE
  5
A7
330
1F
100
AcDbEntity
  8
0
100
AcDbLine
 10
-317.6524000000005
 20
45.7596874999993
 30
0.0
 11
-322.8086000000005
 21
45.7596874999993
 31
0.0
  0
LINE
  5
A8
330
1F
100
AcDbEntity
  8
0
100
AcDbLine
 10
-322.8086000000005
 20
33.05968749999931
 30
0.0
 11
-322.8086000000005
 21
45.7596874999993
 31
0.0
  0
LINE
  5
A9
330
1F
100
AcDbEntity
  8
0
100
AcDbLine
 10
-317.6524000000005
 20
33.05968749999931
 30
0.0
 11
-322.8086000000005
 21
33.05968749999931
 31
0.0
  0
LINE
  5
AA
330
1F
100
AcDbEntity
  8
0
100
AcDbLine
 10
-317.6524000000005
 20
20.3596874999993
 30
0.0
 11
-317.6524000000005
 21
33.05968749999931
 31
0.0
  0
LINE
  5
AB
330
1F
100
AcDbEntity
  8
0
100
AcDbLine
 10
-317.6524000000005
 20
20.3596874999993
 30
0.0
 11
-322.8086000000005
 21
20.3596874999993
 31
0.0
  0
LINE
  5
AC
330
1F
100
AcDbEntity
  8
0
100
AcDbLine
 10
-322.8086000000005
 20
7.659687499999305
 30
0.0
 11
-322.8086000000005
 21
20.3596874999993
 31
0.0
  0
LINE
  5
AD
330
1F
100
AcDbEntity
  8
0
100
AcDbLine
 10
-317.6524000000005
 20
7.659687499999305
 30
0.0
 11
-322.8086000000005
 21
7.659687499999305
 31
0.0
  0
LINE
  5
AE
330
1F
100
AcDbEntity
  8
0
100
AcDbLine
 10
-317.6524000000005
 20
-5.040312500000694
 30
0.0
 11
-322.8086000000005
 21
-5.040312500000694
 31
0.0
  0
LINE
  5
AF
330
1F
100
AcDbEntity
  8
0
100
AcDbLine
 10
-322.8086000000005
 20
-17.74031250000069
 30
0.0
 11
-322.8086000000005
 21
-5.040312500000694
 31
0.0
  0
LINE
  5
B0
330
1F
100
AcDbEntity
  8
0
100
AcDbLine
 10
-317.6524000000005
 20
-17.74031250000069
 30
0.0
 11
-322.8086000000005
 21
-17.74031250000069
 31
0.0
  0
LINE
  5
B1
330
1F
100
AcDbEntity
  8
0
100
AcDbLine
 10
-317.6524000000005
 20
-30.44031250000069
 30
0.0
 11
-322.8086000000005
 21
-30.44031250000069
 31
0.0
  0
LINE
  5
B2
330
1F
100
AcDbEntity
  8
0
100
AcDbLine
 10
-322.8086000000005
 20
-43.14031250000067
 30
0.0
 11
-322.8086000000005
 21
-30.44031250000069
 31
0.0
  0
LINE
  5
B3
330
1F
100
AcDbEntity
  8
0
100
AcDbLine
 10
-317.6524000000005
 20
-43.14031250000067
 30
0.0
 11
-322.8086000000005
 21
-43.14031250000067
 31
0.0
  0
LINE
  5
B4
330
1F
100
AcDbEntity
  8
0
100
AcDbLine
 10
-317.6524000000005
 20
-55.84031250000067
 30
0.0
 11
-322.8086000000005
 21
-55.84031250000067
 31
0.0
  0
LINE
  5
B5
330
1F
100
AcDbEntity
  8
0
100
AcDbLine
 10
-322.8086000000005
 20
-68.54031250000058
 30
0.0
 11
-322.8086000000005
 21
-55.84031250000067
 31
0.0
  0
LINE
  5
B6
330
1F
100
AcDbEntity
  8
0
100
AcDbLine
 10
-317.6524000000005
 20
-68.54031250000058
 30
0.0
 11
-322.8086000000005
 21
-68.54031250000058
 31
0.0
  0
LINE
  5
B7
330
1F
100
AcDbEntity
  8
0
100
AcDbLine
 10
-317.6524000000005
 20
-81.24031250000058
 30
0.0
 11
-317.6524000000005
 21
-68.54031250000058
 31
0.0
  0
LINE
  5
B8
330
1F
100
AcDbEntity
  8
0
100
AcDbLine
 10
-317.6524000000005
 20
-81.24031250000058
 30
0.0
 11
-322.8086000000005
 21
-81.24031250000058
 31
0.0
  0
LINE
  5
B9
330
1F
100
AcDbEntity
  8
0
100
AcDbLine
 10
-322.8086000000005
 20
-93.94031250000057
 30
0.0
 11
-322.8086000000005
 21
-81.24031250000058
 31
0.0
  0
LINE
  5
BA
330
1F
100
AcDbEntity
  8
0
100
AcDbLine
 10
-317.6524000000005
 20
-93.94031250000057
 30
0.0
 11
-322.8086000000005
 21
-93.94031250000057
 31
0.0
  0
LINE
  5
BB
330
1F
100
AcDbEntity
  8
0
100
AcDbLine
 10
-317.6524000000005
 20
-106.6403125000006
 30
0.0
 11
-317.6524000000005
 21
-93.94031250000057
 31
0.0
  0
LINE
  5
BC
330
1F
100
AcDbEntity
  8
0
100
AcDbLine
 10
-317.6524000000005
 20
-106.6403125000006
 30
0.0
 11
-322.8086000000005
 21
-106.6403125000006
 31
0.0
  0
LINE
  5
BD
330
1F
100
AcDbEntity
  8
0
100
AcDbLine
 10
-322.8086000000005
 20
-119.3403125000006
 30
0.0
 11
-322.8086000000005
 21
-106.6403125000006
 31
0.0
  0
LINE
  5
BE
330
1F
100
AcDbEntity
  8
0
100
AcDbLine
 10
-317.6524000000005
 20
-119.3403125000006
 30
0.0
 11
-322.8086000000005
 21
-119.3403125000006
 31
0.0
  0
LINE
  5
BF
330
1F
100
AcDbEntity
  8
0
100
AcDbLine
 10
-223.5962000000004
 20
-106.6403125000006
 30
0.0
 11
-223.5962000000002
 21
-107.8341125000009
 31
0.0
  0
LINE
  5
C0
330
1F
100
AcDbEntity
  8
0
100
AcDbLine
 10
-304.9524000000005
 20
89.01588749999938
 30
0.0
 11
-292.2524000000005
 21
89.01588749999938
 31
0.0
  0
LINE
  5
C1
330
1F
100
AcDbEntity
  8
0
100
AcDbLine
 10
-304.9524000000005
 20
83.85968749999931
 30
0.0
 11
-304.9524000000005
 21
89.01588749999938
 31
0.0
  0
LINE
  5
C2
330
1F
100
AcDbEntity
  8
0
100
AcDbLine
 10
-292.2524000000005
 20
83.85968749999931
 30
0.0
 11
-292.2524000000005
 21
89.01588749999938
 31
0.0
  0
LINE
  5
C3
330
1F
100
AcDbEntity
  8
0
100
AcDbLine
 10
-292.2524000000005
 20
83.85968749999931
 30
0.0
 11
-279.5524000000005
 21
83.85968749999931
 31
0.0
  0
LINE
  5
C4
330
1F
100
AcDbEntity
  8
0
100
AcDbLine
 10
-292.2523999999826
 20
-134.5803124999625
 30
0.0
 11
-292.2523999999826
 21
-139.7365124999626
 31
0.0
  0
LINE
  5
C5
330
1F
100
AcDbEntity
  8
0
100
AcDbLine
 10
-292.2523999999826
 20
-139.7365124999626
 30
0.0
 11
-304.9523999999826
 21
-139.7365124999626
 31
0.0
  0
LINE
  5
C6
330
1F
100
AcDbEntity
  8
0
100
AcDbLine
 10
-304.9523999999826
 20
-134.5803124999625
 30
0.0
 11
-304.9523999999826
 21
-139.7365124999626
 31
0.0
  0
LINE
  5
C7
330
1F
100
AcDbEntity
  8
0
100
AcDbLine
 10
-304.9523999999826
 20
-134.5803124999625
 30
0.0
 11
-317.6523999999825
 21
-134.5803124999625
 31
0.0
  0
LINE
  5
C8
330
1F
100
AcDbEntity
  8
0
100
AcDbLine
 10
5.156199999998504
 20
143.5496874999999
 30
0.0
 11
5.156200000006829
 21
123.3435662379123
 31
0.0
  0
LINE
  5
C9
330
1F
100
AcDbEntity
  8
0
100
AcDbLine
 10
17.85620000000116
 20
-138.3903124999997
 30
0.0
 11
30.55620000000116
 21
-138.3903124999997
 31
0.0
  0
LINE
  5
CA
330
1F
100
AcDbEntity
  8
0
100
AcDbLine
 10
43.25620000000116
 20
-138.3903124999997
 30
0.0
 11
55.95620000000115
 21
-138.3903124999997
 31
0.0
  0
LINE
  5
CB
330
1F
100
AcDbEntity
  8
0
100
AcDbLine
 10
5.156199999999619
 20
-143.5465124999999
 30
0.0
 11
17.85620000000124
 21
-143.5465124999997
 31
0.0
  0
LINE
  5
CC
330
1F
100
AcDbEntity
  8
0
100
AcDbLine
 10
17.85620000000116
 20
-138.3903124999997
 30
0.0
 11
17.85620000000124
 21
-143.5465124999997
 31
0.0
  0
LINE
  5
CD
330
1F
100
AcDbEntity
  8
0
100
AcDbLine
 10
43.25620000000116
 20
-138.3903124999997
 30
0.0
 11
43.25620000000142
 21
-143.5465124999997
 31
0.0
  0
LINE
  5
CE
330
1F
100
AcDbEntity
  8
0
100
AcDbLine
 10
30.55620000000116
 20
-138.3903124999997
 30
0.0
 11
30.55620000000142
 21
-143.5465124999997
 31
0.0
  0
LINE
  5
CF
330
1F
100
AcDbEntity
  8
0
100
AcDbLine
 10
55.95620000000142
 20
-143.5465124999997
 30
0.0
 11
68.65620000000145
 21
-143.5465124999997
 31
0.0
  0
LINE
  5
D0
330
1F
100
AcDbEntity
  8
0
100
AcDbLine
 10
55.95620000000115
 20
-138.3903124999997
 30
0.0
 11
55.95620000000142
 21
-143.5465124999997
 31
0.0
  0
LINE
  5
D1
330
1F
100
AcDbEntity
  8
0
100
AcDbLine
 10
30.55620000000142
 20
-143.5465124999997
 30
0.0
 11
43.25620000000142
 21
-143.5465124999997
 31
0.0
  0
LINE
  5
D2
330
1F
100
AcDbEntity
  8
0
100
AcDbLine
 10
94.05620000000008
 20
143.5496875000004
 30
0.0
 11
5.156199999998504
 21
143.5496874999999
 31
0.0
  0
LINE
  5
D3
330
1F
100
AcDbEntity
  8
0
100
AcDbLine
 10
94.05620000000135
 20
-143.5465124999997
 30
0.0
 11
94.05620000000063
 21
-132.0403124999997
 31
0.0
  0
LINE
  5
D4
330
1F
100
AcDbEntity
  8
0
100
AcDbLine
 10
94.05620000000111
 20
-119.3403125
 30
0.0
 11
94.05620000000008
 21
-107.7719246262085
 31
0.0
  0
LINE
  5
D5
330
1F
100
AcDbEntity
  8
0
100
AcDbLine
 10
99.21240000000016
 20
-132.0403124999999
 30
0.0
 11
99.21240000000066
 21
-119.3403125000002
 31
0.0
  0
LINE
  5
D6
330
1F
100
AcDbEntity
  8
0
100
AcDbLine
 10
94.05620000000063
 20
-132.0403124999997
 30
0.0
 11
99.21240000000016
 21
-132.0403124999999
 31
0.0
  0
LINE
  5
D7
330
1F
100
AcDbEntity
  8
0
100
AcDbLine
 10
94.05620000000111
 20
-119.3403125
 30
0.0
 11
99.21240000000066
 21
-119.3403125000002
 31
0.0
  0
LINE
  5
D8
330
1F
100
AcDbEntity
  8
0
100
AcDbLine
 10
5.156199999999874
 20
-132.0403125000003
 30
0.0
 11
5.156199999999619
 21
-143.5465124999999
 31
0.0
  0
LINE
  5
D9
330
1F
100
AcDbEntity
  8
0
100
AcDbLine
 10
0.0000000000006599
 20
-119.3403125000004
 30
0.0
 11
0.0000000000001607
 21
-132.0403125000001
 31
0.0
  0
LINE
  5
DA
330
1F
100
AcDbEntity
  8
0
100
AcDbLine
 10
5.156199999999874
 20
-132.0403125000003
 30
0.0
 11
0.0000000000001607
 21
-132.0403125000001
 31
0.0
  0
LINE
  5
DB
330
1F
100
AcDbEntity
  8
0
100
AcDbLine
 10
5.156200000000373
 20
-119.3403125000006
 30
0.0
 11
0.0000000000006599
 21
-119.3403125000004
 31
0.0
  0
LINE
  5
DC
330
1F
100
AcDbEntity
  8
0
100
AcDbLine
 10
99.21239999999962
 20
-107.7719246262087
 30
0.0
 11
99.21240000000026
 21
-95.07192462620907
 31
0.0
  0
LINE
  5
DD
330
1F
100
AcDbEntity
  8
0
100
AcDbLine
 10
94.05620000000073
 20
-95.0719246262088
 30
0.0
 11
99.21240000000026
 21
-95.07192462620907
 31
0.0
  0
LINE
  5
DE
330
1F
100
AcDbEntity
  8
0
100
AcDbLine
 10
94.05620000000008
 20
-107.7719246262085
 30
0.0
 11
99.21239999999962
 21
-107.7719246262087
 31
0.0
  0
LINE
  5
DF
330
1F
100
AcDbEntity
  8
0
100
AcDbLine
 10
94.05620000000073
 20
-95.0719246262088
 30
0.0
 11
94.05620000000008
 21
-83.50353675241712
 31
0.0
  0
LINE
  5
E0
330
1F
100
AcDbEntity
  8
0
100
AcDbLine
 10
99.2123999999996
 20
-83.50353675241738
 30
0.0
 11
99.21240000000014
 21
-70.80353675241771
 31
0.0
  0
LINE
  5
E1
330
1F
100
AcDbEntity
  8
0
100
AcDbLine
 10
94.05620000000062
 20
-70.80353675241743
 30
0.0
 11
99.21240000000014
 21
-70.80353675241771
 31
0.0
  0
LINE
  5
E2
330
1F
100
AcDbEntity
  8
0
100
AcDbLine
 10
94.05620000000008
 20
-83.50353675241712
 30
0.0
 11
99.2123999999996
 21
-83.50353675241738
 31
0.0
  0
LINE
  5
E3
330
1F
100
AcDbEntity
  8
0
100
AcDbLine
 10
94.05620000000062
 20
-70.80353675241743
 30
0.0
 11
94.05620000000008
 21
-59.23514887862577
 31
0.0
  0
LINE
  5
E4
330
1F
100
AcDbEntity
  8
0
100
AcDbLine
 10
94.05620000000008
 20
-59.23514887862577
 30
0.0
 11
99.21239999999962
 21
-59.23514887862603
 31
0.0
  0
LINE
  5
E5
330
1F
100
AcDbEntity
  8
0
100
AcDbLine
 10
94.05620000000057
 20
-46.53514887862621
 30
0.0
 11
99.21240000000012
 21
-46.53514887862637
 31
0.0
  0
LINE
  5
E6
330
1F
100
AcDbEntity
  8
0
100
AcDbLine
 10
99.21239999999962
 20
-59.23514887862603
 30
0.0
 11
99.21240000000012
 21
-46.53514887862637
 31
0.0
  0
LINE
  5
E7
330
1F
100
AcDbEntity
  8
0
100
AcDbLine
 10
94.05620000000057
 20
-46.53514887862621
 30
0.0
 11
94.05620000000023
 21
-34.96676100483463
 31
0.0
  0
LINE
  5
E8
330
1F
100
AcDbEntity
  8
0
100
AcDbLine
 10
99.21239999999976
 20
-34.96676100483469
 30
0.0
 11
99.2124000000001
 21
-22.26676100483501
 31
0.0
  0
LINE
  5
E9
330
1F
100
AcDbEntity
  8
0
100
AcDbLine
 10
94.05620000000057
 20
-22.26676100483499
 30
0.0
 11
99.2124000000001
 21
-22.26676100483501
 31
0.0
  0
LINE
  5
EA
330
1F
100
AcDbEntity
  8
0
100
AcDbLine
 10
94.05620000000023
 20
-34.96676100483463
 30
0.0
 11
99.21239999999976
 21
-34.96676100483469
 31
0.0
  0
LINE
  5
EB
330
1F
100
AcDbEntity
  8
0
100
AcDbLine
 10
94.05620000000057
 20
-22.26676100483499
 30
0.0
 11
94.05620000000008
 21
-10.69837313104328
 31
0.0
  0
LINE
  5
EC
330
1F
100
AcDbEntity
  8
0
100
AcDbLine
 10
94.05620000000057
 20
2.001626868956354
 30
0.0
 11
99.21240000000012
 21
2.001626868956332
 31
0.0
  0
LINE
  5
ED
330
1F
100
AcDbEntity
  8
0
100
AcDbLine
 10
99.21239999999962
 20
-10.69837313104335
 30
0.0
 11
99.21240000000012
 21
2.001626868956332
 31
0.0
  0
LINE
  5
EE
330
1F
100
AcDbEntity
  8
0
100
AcDbLine
 10
94.05620000000008
 20
-10.69837313104328
 30
0.0
 11
99.21239999999962
 21
-10.69837313104335
 31
0.0
  0
LINE
  5
EF
330
1F
100
AcDbEntity
  8
0
100
AcDbLine
 10
94.05620000000057
 20
2.001626868956354
 30
0.0
 11
94.05620000000027
 21
13.57001474274806
 31
0.0
  0
LINE
  5
F0
330
1F
100
AcDbEntity
  8
0
100
AcDbLine
 10
94.05620000000074
 20
26.2700147427477
 30
0.0
 11
99.21240000000029
 21
26.27001474274772
 31
0.0
  0
LINE
  5
F1
330
1F
100
AcDbEntity
  8
0
100
AcDbLine
 10
99.2123999999998
 20
13.57001474274804
 30
0.0
 11
99.21240000000029
 21
26.27001474274772
 31
0.0
  0
LINE
  5
F2
330
1F
100
AcDbEntity
  8
0
100
AcDbLine
 10
94.05620000000027
 20
13.57001474274806
 30
0.0
 11
99.2123999999998
 21
13.57001474274804
 31
0.0
  0
LINE
  5
F3
330
1F
100
AcDbEntity
  8
0
100
AcDbLine
 10
94.05620000000074
 20
26.2700147427477
 30
0.0
 11
94.05620000000016
 21
37.8384026165394
 31
0.0
  0
LINE
  5
F4
330
1F
100
AcDbEntity
  8
0
100
AcDbLine
 10
94.05620000000016
 20
37.8384026165394
 30
0.0
 11
99.21239999999969
 21
37.83840261653938
 31
0.0
  0
LINE
  5
F5
330
1F
100
AcDbEntity
  8
0
100
AcDbLine
 10
94.05620000000067
 20
50.53840261653909
 30
0.0
 11
99.2124000000002
 21
50.5384026165387
 31
0.0
  0
LINE
  5
F6
330
1F
100
AcDbEntity
  8
0
100
AcDbLine
 10
99.21239999999969
 20
37.83840261653938
 30
0.0
 11
99.2124000000002
 21
50.5384026165387
 31
0.0
  0
LINE
  5
F7
330
1F
100
AcDbEntity
  8
0
100
AcDbLine
 10
94.05620000000067
 20
50.53840261653909
 30
0.0
 11
94.05620000000017
 21
62.10679049033118
 31
0.0
  0
LINE
  5
F8
330
1F
100
AcDbEntity
  8
0
100
AcDbLine
 10
99.2123999999997
 20
62.10679049033073
 30
0.0
 11
99.21240000000036
 21
74.80679049033037
 31
0.0
  0
LINE
  5
F9
330
1F
100
AcDbEntity
  8
0
100
AcDbLine
 10
94.05620000000083
 20
74.80679049033087
 30
0.0
 11
99.21240000000036
 21
74.80679049033037
 31
0.0
  0
LINE
  5
FA
330
1F
100
AcDbEntity
  8
0
100
AcDbLine
 10
94.05620000000017
 20
62.10679049033118
 30
0.0
 11
99.2123999999997
 21
62.10679049033073
 31
0.0
  0
LINE
  5
FB
330
1F
100
AcDbEntity
  8
0
100
AcDbLine
 10
94.05620000000083
 20
74.80679049033087
 30
0.0
 11
94.05620000000016
 21
86.37517836412253
 31
0.0
  0
LINE
  5
FC
330
1F
100
AcDbEntity
  8
0
100
AcDbLine
 10
99.21239999999969
 20
86.37517836412204
 30
0.0
 11
99.21240000000017
 21
99.07517836412167
 31
0.0
  0
LINE
  5
FD
330
1F
100
AcDbEntity
  8
0
100
AcDbLine
 10
94.05620000000063
 20
99.07517836412221
 30
0.0
 11
99.21240000000017
 21
99.07517836412167
 31
0.0
  0
LINE
  5
FE
330
1F
100
AcDbEntity
  8
0
100
AcDbLine
 10
94.05620000000016
 20
86.37517836412253
 30
0.0
 11
99.21239999999969
 21
86.37517836412204
 31
0.0
  0
LINE
  5
FF
330
1F
100
AcDbEntity
  8
0
100
AcDbLine
 10
94.05620000000063
 20
99.07517836412221
 30
0.0
 11
94.05620000000022
 21
110.6435662379138
 31
0.0
  0
LINE
  5
100
330
1F
100
AcDbEntity
  8
0
100
AcDbLine
 10
94.05620000000022
 20
110.6435662379138
 30
0.0
 11
99.21239999999975
 21
110.6435662379133
 31
0.0
  0
LINE
  5
101
330
1F
100
AcDbEntity
  8
0
100
AcDbLine
 10
94.05620000000071
 20
123.3435662379135
 30
0.0
 11
99.21240000000024
 21
123.3435662379129
 31
0.0
  0
LINE
  5
102
330
1F
100
AcDbEntity
  8
0
100
AcDbLine
 10
99.21239999999975
 20
110.6435662379133
 30
0.0
 11
99.21240000000024
 21
123.3435662379129
 31
0.0
  0
LINE
  5
103
330
1F
100
AcDbEntity
  8
0
100
AcDbLine
 10
0.0000000000013233
 20
-95.07192462620921
 30
0.0
 11
0.0000000000008241
 21
-107.7719246262089
 31
0.0
  0
LINE
  5
104
330
1F
100
AcDbEntity
  8
0
100
AcDbLine
 10
5.156200000000538
 20
-107.7719246262091
 30
0.0
 11
0.0000000000008241
 21
-107.7719246262089
 31
0.0
  0
LINE
  5
105
330
1F
100
AcDbEntity
  8
0
100
AcDbLine
 10
5.156200000001038
 20
-95.07192462620942
 30
0.0
 11
0.0000000000013233
 21
-95.07192462620921
 31
0.0
  0
LINE
  5
106
330
1F
100
AcDbEntity
  8
0
100
AcDbLine
 10
5.156200000000538
 20
-107.7719246262091
 30
0.0
 11
5.156200000000373
 21
-119.3403125000006
 31
0.0
  0
LINE
  5
107
330
1F
100
AcDbEntity
  8
0
100
AcDbLine
 10
0.0000000000019415
 20
-70.80353675241787
 30
0.0
 11
0.0000000000014424
 21
-83.50353675241755
 31
0.0
  0
LINE
  5
108
330
1F
100
AcDbEntity
  8
0
100
AcDbLine
 10
5.156200000001157
 20
-83.50353675241774
 30
0.0
 11
0.0000000000014424
 21
-83.50353675241755
 31
0.0
  0
LINE
  5
109
330
1F
100
AcDbEntity
  8
0
100
AcDbLine
 10
5.156200000001656
 20
-70.80353675241808
 30
0.0
 11
0.0000000000019415
 21
-70.80353675241787
 31
0.0
  0
LINE
  5
10A
330
1F
100
AcDbEntity
  8
0
100
AcDbLine
 10
5.156200000001157
 20
-83.50353675241774
 30
0.0
 11
5.156200000001038
 21
-95.07192462620942
 31
0.0
  0
LINE
  5
10B
330
1F
100
AcDbEntity
  8
0
100
AcDbLine
 10
5.156200000001842
 20
-59.23514887862627
 30
0.0
 11
0.0000000000021291
 21
-59.23514887862606
 31
0.0
  0
LINE
  5
10C
330
1F
100
AcDbEntity
  8
0
100
AcDbLine
 10
5.156200000002364
 20
-46.53514887862659
 30
0.0
 11
0.0000000000026733
 21
-46.53514887862651
 31
0.0
  0
LINE
  5
10D
330
1F
100
AcDbEntity
  8
0
100
AcDbLine
 10
0.0000000000026733
 20
-46.53514887862651
 30
0.0
 11
0.0000000000021291
 21
-59.23514887862606
 31
0.0
  0
LINE
  5
10E
330
1F
100
AcDbEntity
  8
0
100
AcDbLine
 10
5.156200000001842
 20
-59.23514887862627
 30
0.0
 11
5.156200000001656
 21
-70.80353675241808
 31
0.0
  0
LINE
  5
10F
330
1F
100
AcDbEntity
  8
0
100
AcDbLine
 10
5.156200000002596
 20
-34.96676100483488
 30
0.0
 11
0.0000000000028827
 21
-34.96676100483477
 31
0.0
  0
LINE
  5
110
330
1F
100
AcDbEntity
  8
0
100
AcDbLine
 10
5.156200000003028
 20
-22.26676100483524
 30
0.0
 11
0.0000000000033142
 21
-22.26676100483512
 31
0.0
  0
LINE
  5
111
330
1F
100
AcDbEntity
  8
0
100
AcDbLine
 10
0.0000000000033142
 20
-22.26676100483512
 30
0.0
 11
0.0000000000028827
 21
-34.96676100483477
 31
0.0
  0
LINE
  5
112
330
1F
100
AcDbEntity
  8
0
100
AcDbLine
 10
5.156200000002596
 20
-34.96676100483488
 30
0.0
 11
5.156200000002364
 21
-46.53514887862659
 31
0.0
  0
LINE
  5
113
330
1F
100
AcDbEntity
  8
0
100
AcDbLine
 10
5.156200000003669
 20
2.001626868956242
 30
0.0
 11
0.000000000003955
 21
2.001626868956309
 31
0.0
  0
LINE
  5
114
330
1F
100
AcDbEntity
  8
0
100
AcDbLine
 10
5.156200000003305
 20
-10.69837313104344
 30
0.0
 11
0.0000000000035912
 21
-10.69837313104333
 31
0.0
  0
LINE
  5
115
330
1F
100
AcDbEntity
  8
0
100
AcDbLine
 10
0.000000000003955
 20
2.001626868956309
 30
0.0
 11
0.0000000000035912
 21
-10.69837313104333
 31
0.0
  0
LINE
  5
116
330
1F
100
AcDbEntity
  8
0
100
AcDbLine
 10
5.156200000003305
 20
-10.69837313104344
 30
0.0
 11
5.156200000003028
 21
-22.26676100483524
 31
0.0
  0
LINE
  5
117
330
1F
100
AcDbEntity
  8
0
100
AcDbLine
 10
0.0000000000046642
 20
26.27001474274766
 30
0.0
 11
0.0000000000042102
 21
13.57001474274802
 31
0.0
  0
LINE
  5
118
330
1F
100
AcDbEntity
  8
0
100
AcDbLine
 10
5.156200000004377
 20
26.27001474274759
 30
0.0
 11
0.0000000000046642
 21
26.27001474274766
 31
0.0
  0
LINE
  5
119
330
1F
100
AcDbEntity
  8
0
100
AcDbLine
 10
5.156200000003923
 20
13.57001474274795
 30
0.0
 11
0.0000000000042102
 21
13.57001474274802
 31
0.0
  0
LINE
  5
11A
330
1F
100
AcDbEntity
  8
0
100
AcDbLine
 10
5.156200000003923
 20
13.57001474274795
 30
0.0
 11
5.156200000003669
 21
2.001626868956242
 31
0.0
  0
LINE
  5
11B
330
1F
100
AcDbEntity
  8
0
100
AcDbLine
 10
5.156200000004951
 20
50.53840261653862
 30
0.0
 11
0.0000000000052374
 21
50.53840261653878
 31
0.0
  0
LINE
  5
11C
330
1F
100
AcDbEntity
  8
0
100
AcDbLine
 10
0.0000000000052374
 20
50.53840261653878
 30
0.0
 11
0.0000000000047834
 21
37.83840261653913
 31
0.0
  0
LINE
  5
11D
330
1F
100
AcDbEntity
  8
0
100
AcDbLine
 10
5.156200000004497
 20
37.83840261653911
 30
0.0
 11
0.0000000000047834
 21
37.83840261653913
 31
0.0
  0
LINE
  5
11E
330
1F
100
AcDbEntity
  8
0
100
AcDbLine
 10
5.156200000004497
 20
37.83840261653911
 30
0.0
 11
5.156200000004377
 21
26.27001474274759
 31
0.0
  0
LINE
  5
11F
330
1F
100
AcDbEntity
  8
0
100
AcDbLine
 10
0.0000000000059459
 20
74.80679049033023
 30
0.0
 11
0.0000000000054693
 21
62.1067904903306
 31
0.0
  0
LINE
  5
120
330
1F
100
AcDbEntity
  8
0
100
AcDbLine
 10
5.15620000000566
 20
74.80679049032996
 30
0.0
 11
0.0000000000059459
 21
74.80679049033023
 31
0.0
  0
LINE
  5
121
330
1F
100
AcDbEntity
  8
0
100
AcDbLine
 10
5.156200000005184
 20
62.10679049033033
 30
0.0
 11
0.0000000000054693
 21
62.1067904903306
 31
0.0
  0
LINE
  5
122
330
1F
100
AcDbEntity
  8
0
100
AcDbLine
 10
5.156200000005184
 20
62.10679049033033
 30
0.0
 11
5.156200000004951
 21
50.53840261653862
 31
0.0
  0
LINE
  5
123
330
1F
100
AcDbEntity
  8
0
100
AcDbLine
 10
0.00000000000661
 20
99.07517836412131
 30
0.0
 11
0.0000000000060657
 21
86.37517836412167
 31
0.0
  0
LINE
  5
124
330
1F
100
AcDbEntity
  8
0
100
AcDbLine
 10
5.156200000006323
 20
99.07517836412099
 30
0.0
 11
0.00000000000661
 21
99.07517836412131
 31
0.0
  0
LINE
  5
125
330
1F
100
AcDbEntity
  8
0
100
AcDbLine
 10
5.156200000005779
 20
86.37517836412135
 30
0.0
 11
0.0000000000060657
 21
86.37517836412167
 31
0.0
  0
LINE
  5
126
330
1F
100
AcDbEntity
  8
0
100
AcDbLine
 10
5.156200000005779
 20
86.37517836412135
 30
0.0
 11
5.15620000000566
 21
74.80679049032996
 31
0.0
  0
LINE
  5
127
330
1F
100
AcDbEntity
  8
0
100
AcDbLine
 10
0.000000000007138
 20
123.3435662379127
 30
0.0
 11
0.0000000000066615
 21
110.643566237913
 31
0.0
  0
LINE
  5
128
330
1F
100
AcDbEntity
  8
0
100
AcDbLine
 10
5.156200000006375
 20
110.6435662379127
 30
0.0
 11
0.0000000000066615
 21
110.643566237913
 31
0.0
  0
LINE
  5
129
330
1F
100
AcDbEntity
  8
0
100
AcDbLine
 10
5.156200000006829
 20
123.3435662379123
 30
0.0
 11
0.000000000007138
 21
123.3435662379127
 31
0.0
  0
LINE
  5
12A
330
1F
100
AcDbEntity
  8
0
100
AcDbLine
 10
5.156200000006375
 20
110.6435662379127
 30
0.0
 11
5.156200000006323
 21
99.07517836412099
 31
0.0
  0
LINE
  5
12B
330
1F
100
AcDbEntity
  8
0
100
AcDbLine
 10
68.65620000000087
 20
-138.3903124999997
 30
0.0
 11
68.65620000000145
 21
-143.5465124999997
 31
0.0
  0
LINE
  5
12C
330
1F
100
AcDbEntity
  8
0
100
AcDbLine
 10
68.65620000000087
 20
-138.3903124999997
 30
0.0
 11
81.35620000000115
 21
-138.3903124999997
 31
0.0
  0
LINE
  5
12D
330
1F
100
AcDbEntity
  8
0
100
AcDbLine
 10
81.35620000000115
 20
-138.3903124999997
 30
0.0
 11
81.35620000000138
 21
-143.5465124999997
 31
0.0
  0
LINE
  5
12E
330
1F
100
AcDbEntity
  8
0
100
AcDbLine
 10
81.35620000000138
 20
-143.5465124999997
 30
0.0
 11
94.05620000000135
 21
-143.5465124999997
 31
0.0
  0
LINE
  5
12F
330
1F
100
AcDbEntity
  8
0
100
AcDbLine
 10
318.0728225846799
 20
-78.10285783964761
 30
0.0
 11
317.484573805777
 21
-77.3127026024561
 31
0.0
  0
LINE
  5
130
330
1F
100
AcDbEntity
  8
0
100
AcDbLine
 10
318.6299904098891
 20
-78.91522840736502
 30
0.0
 11
318.0728225846799
 21
-78.10285783964761
 31
0.0
  0
LINE
  5
131
330
1F
100
AcDbEntity
  8
0
100
AcDbLine
 10
319.1552392480693
 20
-79.74859242310615
 30
0.0
 11
318.6299904098891
 21
-78.91522840736502
 31
0.0
  0
LINE
  5
132
330
1F
100
AcDbEntity
  8
0
100
AcDbLine
 10
319.6477790750736
 20
-80.6016964282289
 30
0.0
 11
319.1552392480693
 21
-79.74859242310615
 31
0.0
  0
LINE
  5
133
330
1F
100
AcDbEntity
  8
0
100
AcDbLine
 10
320.1068690642152
 20
-81.47325727327177
 30
0.0
 11
319.6477790750736
 21
-80.6016964282289
 31
0.0
  0
LINE
  5
134
330
1F
100
AcDbEntity
  8
0
100
AcDbLine
 10
320.5318187005407
 20
-82.36196404793299
 30
0.0
 11
320.1068690642152
 21
-81.47325727327177
 31
0.0
  0
LINE
  5
135
330
1F
100
AcDbEntity
  8
0
100
AcDbLine
 10
320.9219888194303
 20
-83.26648005280377
 30
0.0
 11
320.5318187005407
 21
-82.36196404793299
 31
0.0
  0
LINE
  5
136
330
1F
100
AcDbEntity
  8
0
100
AcDbLine
 10
321.2767925679626
 20
-84.18544480989154
 30
0.0
 11
320.9219888194303
 21
-83.26648005280377
 31
0.0
  0
LINE
  5
137
330
1F
100
AcDbEntity
  8
0
100
AcDbLine
 10
321.5956962875963
 20
-85.11747610890765
 30
0.0
 11
321.2767925679626
 21
-84.18544480989154
 31
0.0
  0
LINE
  5
138
330
1F
100
AcDbEntity
  8
0
100
AcDbLine
 10
321.8782203168439
 20
-86.06117208624336
 30
0.0
 11
321.5956962875963
 21
-85.11747610890765
 31
0.0
  0
LINE
  5
139
330
1F
100
AcDbEntity
  8
0
100
AcDbLine
 10
322.123939712728
 20
-87.01511333350555
 30
0.0
 11
321.8782203168439
 21
-86.06117208624336
 31
0.0
  0
LINE
  5
13A
330
1F
100
AcDbEntity
  8
0
100
AcDbLine
 10
322.3324848899361
 20
-87.9778650324421
 30
0.0
 11
322.123939712728
 21
-87.01511333350555
 31
0.0
  0
LINE
  5
13B
330
1F
100
AcDbEntity
  8
0
100
AcDbLine
 10
322.5035421767114
 20
-88.94797911304444
 30
0.0
 11
322.3324848899361
 21
-87.9778650324421
 31
0.0
  0
LINE
  5
13C
330
1F
100
AcDbEntity
  8
0
100
AcDbLine
 10
322.6368542866459
 20
-89.92399643158272
 30
0.0
 11
322.5035421767114
 21
-88.94797911304444
 31
0.0
  0
LINE
  5
13D
330
1F
100
AcDbEntity
  8
0
100
AcDbLine
 10
322.7322207056625
 20
-90.90444896529651
 30
0.0
 11
322.6368542866459
 21
-89.92399643158272
 31
0.0
  0
LINE
  5
13E
330
1F
100
AcDbEntity
  8
0
100
AcDbLine
 10
322.789497993608
 20
-91.88786202044044
 30
0.0
 11
322.7322207056625
 21
-90.90444896529651
 31
0.0
  0
LINE
  5
13F
330
1F
100
AcDbEntity
  8
0
100
AcDbLine
 10
139.7973312392218
 20
134.4752035421406
 30
0.0
 11
317.484573805777
 21
-77.3127026024561
 31
0.0
  0
LINE
  5
140
330
1F
100
AcDbEntity
  8
0
100
AcDbLine
 10
138.9832307123108
 20
135.3991003780419
 30
0.0
 11
139.7973312392218
 21
134.4752035421406
 31
0.0
  0
LINE
  5
141
330
1F
100
AcDbEntity
  8
0
100
AcDbLine
 10
138.1253092569634
 20
136.2824552375179
 30
0.0
 11
138.9832307123108
 21
135.3991003780419
 31
0.0
  0
LINE
  5
142
330
1F
100
AcDbEntity
  8
0
100
AcDbLine
 10
137.2255832798634
 20
137.1231919367505
 30
0.0
 11
138.1253092569634
 21
136.2824552375179
 31
0.0
  0
LINE
  5
143
330
1F
100
AcDbEntity
  8
0
100
AcDbLine
 10
136.2861674425131
 20
137.9193344590671
 30
0.0
 11
137.2255832798634
 21
137.1231919367505
 31
0.0
  0
LINE
  5
144
330
1F
100
AcDbEntity
  8
0
100
AcDbLine
 10
135.3092696910612
 20
138.6690115992506
 30
0.0
 11
136.2861674425131
 21
137.9193344590671
 31
0.0
  0
LINE
  5
145
330
1F
100
AcDbEntity
  8
0
100
AcDbLine
 10
134.29718606688
 20
139.3704613615066
 30
0.0
 11
135.3092696910612
 21
138.6690115992506
 31
0.0
  0
LINE
  5
146
330
1F
100
AcDbEntity
  8
0
100
AcDbLine
 10
133.2522953100873
 20
140.0220351007524
 30
0.0
 11
134.29718606688
 21
139.3704613615066
 31
0.0
  0
LINE
  5
147
330
1F
100
AcDbEntity
  8
0
100
AcDbLine
 10
132.1770532687015
 20
140.6222013974918
 30
0.0
 11
133.2522953100873
 21
140.0220351007524
 31
0.0
  0
LINE
  5
148
330
1F
100
AcDbEntity
  8
0
100
AcDbLine
 10
131.0739871265639
 20
141.1695496571716
 30
0.0
 11
132.1770532687015
 21
140.6222013974918
 31
0.0
  0
LINE
  5
149
330
1F
100
AcDbEntity
  8
0
100
AcDbLine
 10
129.9456894635981
 20
141.6627934255572
 30
0.0
 11
131.0739871265639
 21
141.1695496571716
 31
0.0
  0
LINE
  5
14A
330
1F
100
AcDbEntity
  8
0
100
AcDbLine
 10
128.7948121623684
 20
142.100773412337
 30
0.0
 11
129.9456894635981
 21
141.6627934255572
 31
0.0
  0
LINE
  5
14B
330
1F
100
AcDbEntity
  8
0
100
AcDbLine
 10
127.6240601752547
 20
142.4824602158482
 30
0.0
 11
128.7948121623684
 21
142.100773412337
 31
0.0
  0
LINE
  5
14C
330
1F
100
AcDbEntity
  8
0
100
AcDbLine
 10
126.4361851668962
 20
142.8069567425203
 30
0.0
 11
127.6240601752547
 21
142.4824602158482
 31
0.0
  0
LINE
  5
14D
330
1F
100
AcDbEntity
  8
0
100
AcDbLine
 10
125.2339790468448
 20
143.0735003153493
 30
0.0
 11
126.4361851668962
 21
142.8069567425203
 31
0.0
  0
LINE
  5
14E
330
1F
100
AcDbEntity
  8
0
100
AcDbLine
 10
124.0202674076311
 20
143.2814644664476
 30
0.0
 11
125.2339790468448
 21
143.0735003153493
 31
0.0
  0
LINE
  5
14F
330
1F
100
AcDbEntity
  8
0
100
AcDbLine
 10
122.797902883661
 20
143.4303604094565
 30
0.0
 11
124.0202674076311
 21
143.2814644664476
 31
0.0
  0
LINE
  5
150
330
1F
100
AcDbEntity
  8
0
100
AcDbLine
 10
121.5697584465577
 20
143.51983818836
 30
0.0
 11
122.797902883661
 21
143.4303604094565
 31
0.0
  0
LINE
  5
151
330
1F
100
AcDbEntity
  8
0
100
AcDbLine
 10
120.3387206527024
 20
143.5496874999998
 30
0.0
 11
121.5697584465577
 21
143.51983818836
 31
0.0
  0
LINE
  5
152
330
1F
100
AcDbEntity
  8
0
100
AcDbLine
 10
94.05620000000008
 20
143.5496875000004
 30
0.0
 11
120.3387206527024
 21
143.5496874999998
 31
0.0
  0
LINE
  5
153
330
1F
100
AcDbEntity
  8
0
100
AcDbLine
 10
114.4524000000004
 20
-143.5465125000001
 30
0.0
 11
94.05620000000135
 21
-143.5465124999997
 31
0.0
  0
LINE
  5
154
330
1F
100
AcDbEntity
  8
0
100
AcDbLine
 10
114.4524000000004
 20
-138.3903125000001
 30
0.0
 11
114.4524000000004
 21
-143.5465125000001
 31
0.0
  0
LINE
  5
155
330
1F
100
AcDbEntity
  8
0
100
AcDbLine
 10
127.1524000000004
 20
-138.3903125000001
 30
0.0
 11
114.4524000000004
 21
-138.3903125000001
 31
0.0
  0
LINE
  5
156
330
1F
100
AcDbEntity
  8
0
100
AcDbLine
 10
127.1524000000004
 20
-138.3903125000001
 30
0.0
 11
127.1524000000004
 21
-143.5465125000001
 31
0.0
  0
LINE
  5
157
330
1F
100
AcDbEntity
  8
0
100
AcDbLine
 10
139.8524000000004
 20
-143.5465125000001
 30
0.0
 11
127.1524000000004
 21
-143.5465125000001
 31
0.0
  0
LINE
  5
158
330
1F
100
AcDbEntity
  8
0
100
AcDbLine
 10
139.8524000000004
 20
-138.3903125000001
 30
0.0
 11
139.8524000000004
 21
-143.5465125000001
 31
0.0
  0
LINE
  5
159
330
1F
100
AcDbEntity
  8
0
100
AcDbLine
 10
152.5524000000003
 20
-138.3903125000001
 30
0.0
 11
139.8524000000004
 21
-138.3903125000001
 31
0.0
  0
LINE
  5
15A
330
1F
100
AcDbEntity
  8
0
100
AcDbLine
 10
152.5524000000003
 20
-138.3903125000001
 30
0.0
 11
152.5524000000003
 21
-143.5465125000001
 31
0.0
  0
LINE
  5
15B
330
1F
100
AcDbEntity
  8
0
100
AcDbLine
 10
165.2524000000004
 20
-143.5465125000001
 30
0.0
 11
152.5524000000003
 21
-143.5465125000001
 31
0.0
  0
LINE
  5
15C
330
1F
100
AcDbEntity
  8
0
100
AcDbLine
 10
165.2524000000004
 20
-138.3903125000001
 30
0.0
 11
165.2524000000004
 21
-143.5465125000001
 31
0.0
  0
LINE
  5
15D
330
1F
100
AcDbEntity
  8
0
100
AcDbLine
 10
177.9524000000003
 20
-138.3903125000001
 30
0.0
 11
165.2524000000004
 21
-138.3903125000001
 31
0.0
  0
LINE
  5
15E
330
1F
100
AcDbEntity
  8
0
100
AcDbLine
 10
177.9524000000003
 20
-138.3903125000001
 30
0.0
 11
177.9524000000003
 21
-143.5465125000001
 31
0.0
  0
LINE
  5
15F
330
1F
100
AcDbEntity
  8
0
100
AcDbLine
 10
190.6524000000003
 20
-143.5465125000001
 30
0.0
 11
177.9524000000003
 21
-143.5465125000001
 31
0.0
  0
LINE
  5
160
330
1F
100
AcDbEntity
  8
0
100
AcDbLine
 10
190.6524000000003
 20
-138.3903125000001
 30
0.0
 11
190.6524000000003
 21
-143.5465125000001
 31
0.0
  0
LINE
  5
161
330
1F
100
AcDbEntity
  8
0
100
AcDbLine
 10
203.3524000000003
 20
-138.3903125000001
 30
0.0
 11
190.6524000000003
 21
-138.3903125000001
 31
0.0
  0
LINE
  5
162
330
1F
100
AcDbEntity
  8
0
100
AcDbLine
 10
203.3524000000003
 20
-138.3903125000001
 30
0.0
 11
203.3524000000003
 21
-143.5465125000001
 31
0.0
  0
LINE
  5
163
330
1F
100
AcDbEntity
  8
0
100
AcDbLine
 10
216.0524000000003
 20
-143.5465125000001
 30
0.0
 11
203.3524000000003
 21
-143.5465125000001
 31
0.0
  0
LINE
  5
164
330
1F
100
AcDbEntity
  8
0
100
AcDbLine
 10
216.0524000000003
 20
-138.3903125000001
 30
0.0
 11
216.0524000000003
 21
-143.5465125000001
 31
0.0
  0
LINE
  5
165
330
1F
100
AcDbEntity
  8
0
100
AcDbLine
 10
228.7524000000003
 20
-138.3903125000001
 30
0.0
 11
216.0524000000003
 21
-138.3903125000001
 31
0.0
  0
LINE
  5
166
330
1F
100
AcDbEntity
  8
0
100
AcDbLine
 10
228.7524000000003
 20
-138.3903125000001
 30
0.0
 11
228.7524000000003
 21
-143.5496875000001
 31
0.0
  0
LINE
  5
167
330
1F
100
AcDbEntity
  8
0
100
AcDbLine
 10
241.4524000000003
 20
-143.5496875000001
 30
0.0
 11
228.7524000000003
 21
-143.5496875000001
 31
0.0
  0
LINE
  5
168
330
1F
100
AcDbEntity
  8
0
100
AcDbLine
 10
241.4524000000003
 20
-138.3903125000001
 30
0.0
 11
241.4524000000003
 21
-143.5496875000001
 31
0.0
  0
LINE
  5
169
330
1F
100
AcDbEntity
  8
0
100
AcDbLine
 10
254.1524000000003
 20
-138.3903125000001
 30
0.0
 11
241.4524000000003
 21
-138.3903125000001
 31
0.0
  0
LINE
  5
16A
330
1F
100
AcDbEntity
  8
0
100
AcDbLine
 10
254.1524000000003
 20
-138.3903125000001
 30
0.0
 11
254.1524000000003
 21
-143.5465125000001
 31
0.0
  0
LINE
  5
16B
330
1F
100
AcDbEntity
  8
0
100
AcDbLine
 10
266.8524000000003
 20
-143.5465125000001
 30
0.0
 11
254.1524000000003
 21
-143.5465125000001
 31
0.0
  0
LINE
  5
16C
330
1F
100
AcDbEntity
  8
0
100
AcDbLine
 10
266.8524000000003
 20
-138.3903125000002
 30
0.0
 11
266.8524000000003
 21
-143.5465125000001
 31
0.0
  0
LINE
  5
16D
330
1F
100
AcDbEntity
  8
0
100
AcDbLine
 10
279.5524000000003
 20
-138.3903125000002
 30
0.0
 11
266.8524000000003
 21
-138.3903125000002
 31
0.0
  0
LINE
  5
16E
330
1F
100
AcDbEntity
  8
0
100
AcDbLine
 10
279.5524000000003
 20
-138.3903125000002
 30
0.0
 11
279.5524000000003
 21
-143.5465125000001
 31
0.0
  0
LINE
  5
16F
330
1F
100
AcDbEntity
  8
0
100
AcDbLine
 10
292.2524000000003
 20
-143.5465125000001
 30
0.0
 11
279.5524000000003
 21
-143.5465125000001
 31
0.0
  0
LINE
  5
170
330
1F
100
AcDbEntity
  8
0
100
AcDbLine
 10
292.2524000000003
 20
-138.3903125000001
 30
0.0
 11
292.2524000000003
 21
-143.5465125000001
 31
0.0
  0
LINE
  5
171
330
1F
100
AcDbEntity
  8
0
100
AcDbLine
 10
304.9524000000002
 20
-138.3903125000001
 30
0.0
 11
292.2524000000003
 21
-138.3903125000001
 31
0.0
  0
LINE
  5
172
330
1F
100
AcDbEntity
  8
0
100
AcDbLine
 10
304.9524000000002
 20
-138.3903125000001
 30
0.0
 11
304.9524000000002
 21
-143.5465125000001
 31
0.0
  0
LINE
  5
173
330
1F
100
AcDbEntity
  8
0
100
AcDbLine
 10
322.8086000000005
 20
-143.5465125000001
 30
0.0
 11
304.9524000000002
 21
-143.5465125000001
 31
0.0
  0
LINE
  5
174
330
1F
100
AcDbEntity
  8
0
100
AcDbLine
 10
322.8086000000005
 20
-132.0403125000005
 30
0.0
 11
322.8086000000005
 21
-143.5465125000001
 31
0.0
  0
LINE
  5
175
330
1F
100
AcDbEntity
  8
0
100
AcDbLine
 10
322.8086000000005
 20
-132.0403125000005
 30
0.0
 11
317.6524000000005
 21
-132.0403125000005
 31
0.0
  0
LINE
  5
176
330
1F
100
AcDbEntity
  8
0
100
AcDbLine
 10
317.6524000000005
 20
-119.3403125000008
 30
0.0
 11
317.6524000000005
 21
-132.0403125000005
 31
0.0
  0
LINE
  5
177
330
1F
100
AcDbEntity
  8
0
100
AcDbLine
 10
322.8086000000005
 20
-119.3403125000008
 30
0.0
 11
317.6524000000005
 21
-119.3403125000008
 31
0.0
  0
LINE
  5
178
330
1F
100
AcDbEntity
  8
0
100
AcDbLine
 10
322.8086000000005
 20
-107.8341125000012
 30
0.0
 11
322.8086000000005
 21
-119.3403125000008
 31
0.0
  0
LINE
  5
179
330
1F
100
AcDbEntity
  8
0
100
AcDbLine
 10
322.8086000000005
 20
-107.8341125000012
 30
0.0
 11
317.6524000000005
 21
-107.8341125000012
 31
0.0
  0
LINE
  5
17A
330
1F
100
AcDbEntity
  8
0
100
AcDbLine
 10
317.6524000000005
 20
-95.13411250000148
 30
0.0
 11
317.6524000000005
 21
-107.8341125000012
 31
0.0
  0
LINE
  5
17B
330
1F
100
AcDbEntity
  8
0
100
AcDbLine
 10
322.8086000000005
 20
-95.13411250000148
 30
0.0
 11
317.6524000000005
 21
-95.13411250000148
 31
0.0
  0
LINE
  5
17C
330
1F
100
AcDbEntity
  8
0
100
AcDbLine
 10
322.789497993608
 20
-91.88786202044044
 30
0.0
 11
322.8086000000005
 21
-95.13411250000148
 31
0.0
  0
LINE
  5
17D
330
1F
100
AcDbEntity
  8
0
100
AcDbLine
 10
-218.8604225846796
 20
-78.10285783964763
 30
0.0
 11
-218.2721738057768
 21
-77.31270260245641
 31
0.0
  0
LINE
  5
17E
330
1F
100
AcDbEntity
  8
0
100
AcDbLine
 10
-219.4175904098887
 20
-78.91522840736502
 30
0.0
 11
-218.8604225846796
 21
-78.10285783964763
 31
0.0
  0
LINE
  5
17F
330
1F
100
AcDbEntity
  8
0
100
AcDbLine
 10
-219.942839248069
 20
-79.74859242310615
 30
0.0
 11
-219.4175904098887
 21
-78.91522840736502
 31
0.0
  0
LINE
  5
180
330
1F
100
AcDbEntity
  8
0
100
AcDbLine
 10
-220.4353790750733
 20
-80.60169642822889
 30
0.0
 11
-219.942839248069
 21
-79.74859242310615
 31
0.0
  0
LINE
  5
181
330
1F
100
AcDbEntity
  8
0
100
AcDbLine
 10
-220.8944690642149
 20
-81.47325727327174
 30
0.0
 11
-220.4353790750733
 21
-80.60169642822889
 31
0.0
  0
LINE
  5
182
330
1F
100
AcDbEntity
  8
0
100
AcDbLine
 10
-221.3194187005404
 20
-82.36196404793294
 30
0.0
 11
-220.8944690642149
 21
-81.47325727327174
 31
0.0
  0
LINE
  5
183
330
1F
100
AcDbEntity
  8
0
100
AcDbLine
 10
-221.7095888194301
 20
-83.26648005280374
 30
0.0
 11
-221.3194187005404
 21
-82.36196404793294
 31
0.0
  0
LINE
  5
184
330
1F
100
AcDbEntity
  8
0
100
AcDbLine
 10
-222.0643925679623
 20
-84.18544480989151
 30
0.0
 11
-221.7095888194301
 21
-83.26648005280374
 31
0.0
  0
LINE
  5
185
330
1F
100
AcDbEntity
  8
0
100
AcDbLine
 10
-222.383296287596
 20
-85.1174761089076
 30
0.0
 11
-222.0643925679623
 21
-84.18544480989151
 31
0.0
  0
LINE
  5
186
330
1F
100
AcDbEntity
  8
0
100
AcDbLine
 10
-222.6658203168436
 20
-86.06117208624332
 30
0.0
 11
-222.383296287596
 21
-85.1174761089076
 31
0.0
  0
LINE
  5
187
330
1F
100
AcDbEntity
  8
0
100
AcDbLine
 10
-222.9115397127278
 20
-87.01511333350551
 30
0.0
 11
-222.6658203168436
 21
-86.06117208624332
 31
0.0
  0
LINE
  5
188
330
1F
100
AcDbEntity
  8
0
100
AcDbLine
 10
-223.1200848899359
 20
-87.97786503244205
 30
0.0
 11
-222.9115397127278
 21
-87.01511333350551
 31
0.0
  0
LINE
  5
189
330
1F
100
AcDbEntity
  8
0
100
AcDbLine
 10
-223.2911421767112
 20
-88.9479791130444
 30
0.0
 11
-223.1200848899359
 21
-87.97786503244205
 31
0.0
  0
LINE
  5
18A
330
1F
100
AcDbEntity
  8
0
100
AcDbLine
 10
-223.4244542866457
 20
-89.92399643158268
 30
0.0
 11
-223.2911421767112
 21
-88.9479791130444
 31
0.0
  0
LINE
  5
18B
330
1F
100
AcDbEntity
  8
0
100
AcDbLine
 10
-223.5198207056623
 20
-90.90444896529647
 30
0.0
 11
-223.4244542866457
 21
-89.92399643158268
 31
0.0
  0
LINE
  5
18C
330
1F
100
AcDbEntity
  8
0
100
AcDbLine
 10
-223.5962000000002
 20
-91.88786202044042
 30
0.0
 11
-223.5198207056623
 21
-90.90444896529647
 31
0.0
  0
LINE
  5
18D
330
1F
100
AcDbEntity
  8
0
100
AcDbLine
 10
-27.94000000000021
 20
-138.3903125000004
 30
0.0
 11
-27.94000000000021
 21
-143.5465125000004
 31
0.0
  0
LINE
  5
18E
330
1F
100
AcDbEntity
  8
0
100
AcDbLine
 10
-53.34000000000022
 20
-138.3903125000004
 30
0.0
 11
-53.34000000000022
 21
-143.5465125000004
 31
0.0
  0
LINE
  5
18F
330
1F
100
AcDbEntity
  8
0
100
AcDbLine
 10
-78.74000000000012
 20
-138.3903125000004
 30
0.0
 11
-78.74000000000012
 21
-143.5465125000004
 31
0.0
  0
LINE
  5
190
330
1F
100
AcDbEntity
  8
0
100
AcDbLine
 10
-104.1400000000001
 20
-138.3903125000004
 30
0.0
 11
-104.1400000000001
 21
-143.5465125000004
 31
0.0
  0
LINE
  5
191
330
1F
100
AcDbEntity
  8
0
100
AcDbLine
 10
-129.5400000000001
 20
-138.3903125000004
 30
0.0
 11
-129.5400000000001
 21
-143.5496875000004
 31
0.0
  0
LINE
  5
192
330
1F
100
AcDbEntity
  8
0
100
AcDbLine
 10
-154.9400000000001
 20
-138.3903125000004
 30
0.0
 11
-154.9400000000001
 21
-143.5465125000004
 31
0.0
  0
LINE
  5
193
330
1F
100
AcDbEntity
  8
0
100
AcDbLine
 10
-180.3400000000001
 20
-138.3903125000005
 30
0.0
 11
-180.3400000000001
 21
-143.5465125000005
 31
0.0
  0
LINE
  5
194
330
1F
100
AcDbEntity
  8
0
100
AcDbLine
 10
-205.7400000000001
 20
-138.3903125000004
 30
0.0
 11
-205.7400000000001
 21
-143.5465125000004
 31
0.0
  0
LINE
  5
195
330
1F
100
AcDbEntity
  8
0
100
AcDbLine
 10
-223.5962000000004
 20
-132.0403125000008
 30
0.0
 11
-218.4400000000003
 21
-132.0403125000008
 31
0.0
  0
LINE
  5
196
330
1F
100
AcDbEntity
  8
0
100
AcDbLine
 10
-223.5962000000002
 20
-107.8341125000009
 30
0.0
 11
-218.4400000000003
 21
-107.8341125000015
 31
0.0
  0
LINE
  5
197
330
1F
100
AcDbEntity
  8
0
100
AcDbLine
 10
5.156199999998504
 20
143.5496874999999
 30
0.0
 11
-21.12632065270167
 21
143.5496874999995
 31
0.0
  0
LINE
  5
198
330
1F
100
AcDbEntity
  8
0
100
AcDbLine
 10
-91.4400000000001
 20
-138.3903125000001
 30
0.0
 11
-91.4400000000001
 21
-143.5465125
 31
0.0
  0
LINE
  5
199
330
1F
100
AcDbEntity
  8
0
100
AcDbLine
 10
-142.24
 20
-138.3903125000001
 30
0.0
 11
-142.24
 21
-143.5496875000001
 31
0.0
  0
LINE
  5
19A
330
1F
100
AcDbEntity
  8
0
100
AcDbLine
 10
-142.24
 20
-143.5496875000001
 30
0.0
 11
-129.5400000000001
 21
-143.5496875000004
 31
0.0
  0
LINE
  5
19B
330
1F
100
AcDbEntity
  8
0
100
AcDbLine
 10
-66.04000000000019
 20
-143.5465125
 30
0.0
 11
-53.34000000000022
 21
-143.5465125000004
 31
0.0
  0
LINE
  5
19C
330
1F
100
AcDbEntity
  8
0
100
AcDbLine
 10
-205.7400000000001
 20
-138.3903125000004
 30
0.0
 11
-193.0400000000001
 21
-138.3903125000001
 31
0.0
  0
LINE
  5
19D
330
1F
100
AcDbEntity
  8
0
100
AcDbLine
 10
-154.9400000000001
 20
-138.3903125000004
 30
0.0
 11
-142.24
 21
-138.3903125000001
 31
0.0
  0
LINE
  5
19E
330
1F
100
AcDbEntity
  8
0
100
AcDbLine
 10
-15.24000000000022
 20
-138.3903125
 30
0.0
 11
-15.24000000000022
 21
-143.5465125
 31
0.0
  0
LINE
  5
19F
330
1F
100
AcDbEntity
  8
0
100
AcDbLine
 10
-223.5962000000004
 20
-132.0403125000008
 30
0.0
 11
-223.5962000000004
 21
-143.5465125
 31
0.0
  0
LINE
  5
1A0
330
1F
100
AcDbEntity
  8
0
100
AcDbLine
 10
-15.24000000000022
 20
-143.5465125
 30
0.0
 11
5.156199999999619
 21
-143.5465124999999
 31
0.0
  0
LINE
  5
1A1
330
1F
100
AcDbEntity
  8
0
100
AcDbLine
 10
-167.64
 20
-143.5465125
 30
0.0
 11
-154.9400000000001
 21
-143.5465125000004
 31
0.0
  0
LINE
  5
1A2
330
1F
100
AcDbEntity
  8
0
100
AcDbLine
 10
-129.5400000000001
 20
-138.3903125000004
 30
0.0
 11
-116.8400000000001
 21
-138.3903125000001
 31
0.0
  0
LINE
  5
1A3
330
1F
100
AcDbEntity
  8
0
100
AcDbLine
 10
-193.0400000000001
 20
-143.5465125
 30
0.0
 11
-180.3400000000001
 21
-143.5465125000005
 31
0.0
  0
LINE
  5
1A4
330
1F
100
AcDbEntity
  8
0
100
AcDbLine
 10
-116.8400000000001
 20
-138.3903125000001
 30
0.0
 11
-116.8400000000001
 21
-143.5465125
 31
0.0
  0
LINE
  5
1A5
330
1F
100
AcDbEntity
  8
0
100
AcDbLine
 10
-53.34000000000022
 20
-138.3903125000004
 30
0.0
 11
-40.64000000000019
 21
-138.3903125000001
 31
0.0
  0
LINE
  5
1A6
330
1F
100
AcDbEntity
  8
0
100
AcDbLine
 10
-223.5962000000004
 20
-143.5465125
 30
0.0
 11
-205.7400000000001
 21
-143.5465125000004
 31
0.0
  0
LINE
  5
1A7
330
1F
100
AcDbEntity
  8
0
100
AcDbLine
 10
-40.64000000000019
 20
-138.3903125000001
 30
0.0
 11
-40.64000000000019
 21
-143.5465125000001
 31
0.0
  0
LINE
  5
1A8
330
1F
100
AcDbEntity
  8
0
100
AcDbLine
 10
-180.3400000000001
 20
-138.3903125000005
 30
0.0
 11
-167.64
 21
-138.3903125000001
 31
0.0
  0
LINE
  5
1A9
330
1F
100
AcDbEntity
  8
0
100
AcDbLine
 10
-66.04000000000019
 20
-138.3903125000001
 30
0.0
 11
-66.04000000000019
 21
-143.5465125
 31
0.0
  0
LINE
  5
1AA
330
1F
100
AcDbEntity
  8
0
100
AcDbLine
 10
-193.0400000000001
 20
-138.3903125000001
 30
0.0
 11
-193.0400000000001
 21
-143.5465125
 31
0.0
  0
LINE
  5
1AB
330
1F
100
AcDbEntity
  8
0
100
AcDbLine
 10
-104.1400000000001
 20
-138.3903125000004
 30
0.0
 11
-91.4400000000001
 21
-138.3903125000001
 31
0.0
  0
LINE
  5
1AC
330
1F
100
AcDbEntity
  8
0
100
AcDbLine
 10
-167.64
 20
-138.3903125000001
 30
0.0
 11
-167.64
 21
-143.5465125
 31
0.0
  0
LINE
  5
1AD
330
1F
100
AcDbEntity
  8
0
100
AcDbLine
 10
-40.64000000000019
 20
-143.5465125000001
 30
0.0
 11
-27.94000000000021
 21
-143.5465125000004
 31
0.0
  0
LINE
  5
1AE
330
1F
100
AcDbEntity
  8
0
100
AcDbLine
 10
-223.5962000000004
 20
-119.3403125000006
 30
0.0
 11
-218.4400000000003
 21
-119.3403125000006
 31
0.0
  0
LINE
  5
1AF
330
1F
100
AcDbEntity
  8
0
100
AcDbLine
 10
-78.74000000000012
 20
-138.3903125000004
 30
0.0
 11
-66.04000000000019
 21
-138.3903125000001
 31
0.0
  0
LINE
  5
1B0
330
1F
100
AcDbEntity
  8
0
100
AcDbLine
 10
-116.8400000000001
 20
-143.5465125
 30
0.0
 11
-104.1400000000001
 21
-143.5465125000004
 31
0.0
  0
LINE
  5
1B1
330
1F
100
AcDbEntity
  8
0
100
AcDbLine
 10
-27.94000000000021
 20
-138.3903125000004
 30
0.0
 11
-15.24000000000022
 21
-138.3903125
 31
0.0
  0
LINE
  5
1B2
330
1F
100
AcDbEntity
  8
0
100
AcDbLine
 10
-91.4400000000001
 20
-143.5465125
 30
0.0
 11
-78.74000000000012
 21
-143.5465125000004
 31
0.0
  0
LINE
  5
1B3
330
1F
100
AcDbEntity
  8
0
100
AcDbLine
 10
-223.5962000000002
 20
-107.8341125000009
 30
0.0
 11
-223.5962000000004
 21
-119.3403125000006
 31
0.0
  0
LINE
  5
1B4
330
1F
100
AcDbEntity
  8
0
100
AcDbLine
 10
-218.4400000000003
 20
-119.3403125000006
 30
0.0
 11
-218.4400000000003
 21
-132.0403125000008
 31
0.0
  0
LINE
  5
1B5
330
1F
100
AcDbEntity
  8
0
100
AcDbLine
 10
-223.5962000000003
 20
-95.13411250000127
 30
0.0
 11
-218.4400000000002
 21
-95.13411250000127
 31
0.0
  0
LINE
  5
1B6
330
1F
100
AcDbEntity
  8
0
100
AcDbLine
 10
-218.4400000000002
 20
-95.13411250000127
 30
0.0
 11
-218.4400000000003
 21
-107.8341125000015
 31
0.0
  0
LINE
  5
1B7
330
1F
100
AcDbEntity
  8
0
100
AcDbLine
 10
-21.12632065270167
 20
143.5496874999995
 30
0.0
 11
-22.35735844655681
 21
143.5198381883596
 31
0.0
  0
LINE
  5
1B8
330
1F
100
AcDbEntity
  8
0
100
AcDbLine
 10
-22.35735844655681
 20
143.5198381883596
 30
0.0
 11
-23.5855028836601
 21
143.4303604094562
 31
0.0
  0
LINE
  5
1B9
330
1F
100
AcDbEntity
  8
0
100
AcDbLine
 10
-23.5855028836601
 20
143.4303604094562
 30
0.0
 11
-24.80786740763023
 21
143.2814644664472
 31
0.0
  0
LINE
  5
1BA
330
1F
100
AcDbEntity
  8
0
100
AcDbLine
 10
-24.80786740763023
 20
143.2814644664472
 30
0.0
 11
-26.0215790468441
 21
143.0735003153489
 31
0.0
  0
LINE
  5
1BB
330
1F
100
AcDbEntity
  8
0
100
AcDbLine
 10
-26.0215790468441
 20
143.0735003153489
 30
0.0
 11
-27.22378516689533
 21
142.80695674252
 31
0.0
  0
LINE
  5
1BC
330
1F
100
AcDbEntity
  8
0
100
AcDbLine
 10
-27.22378516689533
 20
142.80695674252
 30
0.0
 11
-28.41166017525401
 21
142.4824602158479
 31
0.0
  0
LINE
  5
1BD
330
1F
100
AcDbEntity
  8
0
100
AcDbLine
 10
-28.41166017525401
 20
142.4824602158479
 30
0.0
 11
-29.58241216236754
 21
142.1007734123366
 31
0.0
  0
LINE
  5
1BE
330
1F
100
AcDbEntity
  8
0
100
AcDbLine
 10
-29.58241216236754
 20
142.1007734123366
 30
0.0
 11
-30.73328946359718
 21
141.6627934255568
 31
0.0
  0
LINE
  5
1BF
330
1F
100
AcDbEntity
  8
0
100
AcDbLine
 10
-30.73328946359718
 20
141.6627934255568
 30
0.0
 11
-31.86158712656298
 21
141.1695496571712
 31
0.0
  0
LINE
  5
1C0
330
1F
100
AcDbEntity
  8
0
100
AcDbLine
 10
-31.86158712656298
 20
141.1695496571712
 30
0.0
 11
-32.96465326870084
 21
140.6222013974914
 31
0.0
  0
LINE
  5
1C1
330
1F
100
AcDbEntity
  8
0
100
AcDbLine
 10
-32.96465326870084
 20
140.6222013974914
 30
0.0
 11
-34.03989531008641
 21
140.022035100752
 31
0.0
  0
LINE
  5
1C2
330
1F
100
AcDbEntity
  8
0
100
AcDbLine
 10
-34.03989531008641
 20
140.022035100752
 30
0.0
 11
-35.0847860668791
 21
139.3704613615063
 31
0.0
  0
LINE
  5
1C3
330
1F
100
AcDbEntity
  8
0
100
AcDbLine
 10
-35.0847860668791
 20
139.3704613615063
 30
0.0
 11
-36.09686969106049
 21
138.6690115992502
 31
0.0
  0
LINE
  5
1C4
330
1F
100
AcDbEntity
  8
0
100
AcDbLine
 10
-36.09686969106049
 20
138.6690115992502
 30
0.0
 11
-37.07376744251219
 21
137.9193344590668
 31
0.0
  0
LINE
  5
1C5
330
1F
100
AcDbEntity
  8
0
100
AcDbLine
 10
-37.07376744251219
 20
137.9193344590668
 30
0.0
 11
-38.01318327986251
 21
137.1231919367501
 31
0.0
  0
LINE
  5
1C6
330
1F
100
AcDbEntity
  8
0
100
AcDbLine
 10
-38.01318327986251
 20
137.1231919367501
 30
0.0
 11
-38.91290925696246
 21
136.2824552375175
 31
0.0
  0
LINE
  5
1C7
330
1F
100
AcDbEntity
  8
0
100
AcDbLine
 10
-38.91290925696246
 20
136.2824552375175
 30
0.0
 11
-39.77083071231005
 21
135.3991003780415
 31
0.0
  0
LINE
  5
1C8
330
1F
100
AcDbEntity
  8
0
100
AcDbLine
 10
-39.77083071231005
 20
135.3991003780415
 30
0.0
 11
-40.58493123922106
 21
134.4752035421402
 31
0.0
  0
LINE
  5
1C9
330
1F
100
AcDbEntity
  8
0
100
AcDbLine
 10
-40.58493123922106
 20
134.4752035421402
 30
0.0
 11
-218.2721738057768
 21
-77.31270260245641
 31
0.0
  0
LINE
  5
1CA
330
1F
100
AcDbEntity
  8
0
100
AcDbLine
 10
-317.652399991054
 20
132.3342753805302
 30
0.0
 11
-322.8085999898909
 21
132.3342753814065
 31
0.0
  0
LINE
  5
1CB
330
1F
100
AcDbEntity
  8
0
100
AcDbLine
 10
-322.8085999898909
 20
132.3342753814065
 30
0.0
 11
-322.808599987733
 21
119.634275383033
 31
0.0
  0
LINE
  5
1CC
330
1F
100
AcDbEntity
  8
0
100
AcDbLine
 10
-317.6523999888961
 20
119.6342753821567
 30
0.0
 11
-322.808599987733
 21
119.634275383033
 31
0.0
  0
LINE
  5
1CD
330
1F
100
AcDbEntity
  8
0
100
AcDbLine
 10
-317.6523999847724
 20
95.3658875114728
 30
0.0
 11
-317.6524000000005
 21
83.85968749999931
 31
0.0
  0
LINE
  5
1CE
330
1F
100
AcDbEntity
  8
0
100
AcDbLine
 10
-228.7524000000005
 20
83.85968749999932
 30
0.0
 11
-228.7524000048208
 21
95.36588749636826
 31
0.0
  0
LINE
  5
1CF
330
1F
100
AcDbEntity
  8
0
100
AcDbLine
 10
-228.7524000069786
 20
108.0658874947418
 30
0.0
 11
-228.7524000089456
 21
119.634275367052
 31
0.0
  0
LINE
  5
1D0
330
1F
100
AcDbEntity
  8
0
100
AcDbLine
 10
-223.5962000059841
 20
95.36588749549195
 30
0.0
 11
-223.5962000081419
 21
108.0658874938655
 31
0.0
  0
LINE
  5
1D1
330
1F
100
AcDbEntity
  8
0
100
AcDbLine
 10
-317.6523999888961
 20
119.6342753821567
 30
0.0
 11
-317.6523999869303
 21
108.0658875098463
 31
0.0
  0
LINE
  5
1D2
330
1F
100
AcDbEntity
  8
0
100
AcDbLine
 10
-322.8085999857672
 20
108.0658875107226
 30
0.0
 11
-322.8085999836093
 21
95.3658875123491
 31
0.0
  0
LINE
  5
1D3
330
1F
100
AcDbEntity
  8
0
100
AcDbLine
 10
-228.7524000048208
 20
95.36588749636826
 30
0.0
 11
-223.5962000059841
 21
95.36588749549195
 31
0.0
  0
LINE
  5
1D4
330
1F
100
AcDbEntity
  8
0
100
AcDbLine
 10
-317.6523999847724
 20
95.3658875114728
 30
0.0
 11
-322.8085999836093
 21
95.3658875123491
 31
0.0
  0
LINE
  5
1D5
330
1F
100
AcDbEntity
  8
0
100
AcDbLine
 10
-228.7524000069786
 20
108.0658874947418
 30
0.0
 11
-223.5962000081419
 21
108.0658874938655
 31
0.0
  0
LINE
  5
1D6
330
1F
100
AcDbEntity
  8
0
100
AcDbLine
 10
-223.5962000101089
 20
119.6342753661757
 30
0.0
 11
-223.5962000122667
 21
132.3342753645493
 31
0.0
  0
LINE
  5
1D7
330
1F
100
AcDbEntity
  8
0
100
AcDbLine
 10
-317.6523999869303
 20
108.0658875098463
 30
0.0
 11
-322.8085999857672
 21
108.0658875107226
 31
0.0
  0
LINE
  5
1D8
330
1F
100
AcDbEntity
  8
0
100
AcDbLine
 10
-228.7524000111034
 20
132.3342753654257
 30
0.0
 11
-223.5962000122667
 21
132.3342753645493
 31
0.0
  0
LINE
  5
1D9
330
1F
100
AcDbEntity
  8
0
100
AcDbLine
 10
-228.7524000089456
 20
119.634275367052
 30
0.0
 11
-223.5962000101089
 21
119.6342753661757
 31
0.0
  0
LINE
  5
1DA
330
1F
100
AcDbEntity
  8
0
100
AcDbLine
 10
-228.7524000111034
 20
132.3342753654257
 30
0.0
 11
-228.7524003767428
 21
135.5184024088716
 31
0.0
  0
LINE
  5
1DB
330
1F
100
AcDbEntity
  8
0
100
AcDbLine
 10
-228.7524003767428
 20
135.5184024088716
 30
0.0
 11
-317.6524003567125
 21
135.5184024239773
 31
0.0
  0
LINE
  5
1DC
330
1F
100
AcDbEntity
  8
0
100
AcDbLine
 10
-317.6524003567125
 20
135.5184024239773
 30
0.0
 11
-317.652399991054
 21
132.3342753805302
 31
0.0
  0
LINE
  5
1DD
330
1F
100
AcDbEntity
  8
0
100
AcDbLine
 10
-223.5962000000002
 20
-91.88786202044042
 30
0.0
 11
-223.5962000000004
 21
-93.94031250000057
 31
0.0
  0
LINE
  5
1DE
330
1F
100
AcDbEntity
  8
0
100
AcDbLine
 10
-223.5962000000004
 20
-93.94031250000057
 30
0.0
 11
-223.5962000000003
 21
-95.13411250000127
 31
0.0
  0
LINE
  5
1DF
330
1F
100
AcDbEntity
  8
0
100
AcDbLine
 10
94.05620000000071
 20
123.3435662379135
 30
0.0
 11
94.05620000000008
 21
143.5496875000004
 31
0.0
  0
LINE
  5
1E0
330
1F
100
AcDbEntity
  8
0
100
AcDbLine
 10
26.47826209123405
 20
-95.98123567343576
 30
0.0
 11
27.75111637785576
 21
-98.94245761687387
 31
0.0
  0
LINE
  5
1E1
330
1F
100
AcDbEntity
  8
0
100
AcDbLine
 10
27.75111637785576
 20
-98.94245761687387
 30
0.0
 11
29.02807442288333
 21
-95.98123567343576
 31
0.0
  0
LINE
  5
1E2
330
1F
100
AcDbEntity
  8
0
100
AcDbLine
 10
29.02807442288333
 20
-95.98123567343576
 30
0.0
 11
29.02807442288333
 21
-98.94245761687387
 31
0.0
  0
LINE
  5
1E3
330
1F
100
AcDbEntity
  8
0
100
AcDbLine
 10
26.47826209123405
 20
-95.98123567343576
 30
0.0
 11
26.47826209123405
 21
-98.94245761687387
 31
0.0
  0
LINE
  5
1E4
330
1F
100
AcDbEntity
  8
0
100
AcDbLine
 10
31.69604993550175
 20
-95.98123567343576
 30
0.0
 11
32.87448645238831
 21
-98.94245761687387
 31
0.0
  0
LINE
  5
1E5
330
1F
100
AcDbEntity
  8
0
100
AcDbLine
 10
31.69604993550175
 20
-95.98123567343576
 30
0.0
 11
30.89127471834994
 21
-98.01015262513955
 31
0.0
  0
LINE
  5
1E6
330
1F
100
AcDbEntity
  8
0
100
AcDbLine
 10
30.89127471834994
 20
-98.01015262513955
 30
0.0
 11
32.50082515265354
 21
-98.01015262513955
 31
0.0
  0
LINE
  5
1E7
330
1F
100
AcDbEntity
  8
0
100
AcDbLine
 10
34.31938532805626
 20
-98.94245761687387
 30
0.0
 11
34.31938532805626
 21
-95.98123567343576
 31
0.0
  0
LINE
  5
1E8
330
1F
100
AcDbEntity
  8
0
100
AcDbLine
 10
34.31938532805626
 20
-95.98123567343576
 30
0.0
 11
35.38692638878413
 21
-95.98123567343576
 31
0.0
  0
LINE
  5
1E9
330
1F
100
AcDbEntity
  8
0
100
AcDbLine
 10
35.38692638878413
 20
-95.98123567343576
 30
0.0
 11
35.61277406990736
 21
-95.99714948465854
 31
0.0
  0
LINE
  5
1EA
330
1F
100
AcDbEntity
  8
0
100
AcDbLine
 10
35.61277406990736
 20
-95.99714948465854
 30
0.0
 11
35.80576035738356
 21
-96.04489091832686
 31
0.0
  0
LINE
  5
1EB
330
1F
100
AcDbEntity
  8
0
100
AcDbLine
 10
35.80576035738356
 20
-96.04489091832686
 30
0.0
 11
35.96897090161715
 21
-96.11984324623414
 31
0.0
  0
LINE
  5
1EC
330
1F
100
AcDbEntity
  8
0
100
AcDbLine
 10
35.96897090161715
 20
-96.11984324623414
 30
0.0
 11
36.10549135301254
 21
-96.21738974017376
 31
0.0
  0
LINE
  5
1ED
330
1F
100
AcDbEntity
  8
0
100
AcDbLine
 10
36.10549135301254
 20
-96.21738974017376
 30
0.0
 11
36.21686453677193
 21
-96.33495771954202
 31
0.0
  0
LINE
  5
1EE
330
1F
100
AcDbEntity
  8
0
100
AcDbLine
 10
36.21686453677193
 20
-96.33495771954202
 30
0.0
 11
36.30463327809754
 21
-96.46997450373526
 31
0.0
  0
LINE
  5
1EF
330
1F
100
AcDbEntity
  8
0
100
AcDbLine
 10
36.30463327809754
 20
-96.46997450373526
 30
0.0
 11
36.42370492466796
 21
-96.7718513577673
 31
0.0
  0
LINE
  5
1F0
330
1F
100
AcDbEntity
  8
0
100
AcDbLine
 10
36.42370492466796
 20
-96.7718513577673
 30
0.0
 11
36.48324074795318
 21
-97.09836642543459
 31
0.0
  0
LINE
  5
1F1
330
1F
100
AcDbEntity
  8
0
100
AcDbLine
 10
36.48324074795318
 20
-97.09836642543459
 30
0.0
 11
36.50787896158843
 21
-97.41871019229308
 31
0.0
  0
LINE
  5
1F2
330
1F
100
AcDbEntity
  8
0
100
AcDbLine
 10
36.50787896158843
 20
-97.41871019229308
 30
0.0
 11
36.49761956557375
 21
-97.74727713916332
 31
0.0
  0
LINE
  5
1F3
330
1F
100
AcDbEntity
  8
0
100
AcDbLine
 10
36.49761956557375
 20
-97.74727713916332
 30
0.0
 11
36.4360318630856
 21
-98.08817102445121
 31
0.0
  0
LINE
  5
1F4
330
1F
100
AcDbEntity
  8
0
100
AcDbLine
 10
36.4360318630856
 20
-98.08817102445121
 30
0.0
 11
36.30668515730049
 21
-98.41058233371264
 31
0.0
  0
LINE
  5
1F5
330
1F
100
AcDbEntity
  8
0
100
AcDbLine
 10
36.30668515730049
 20
-98.41058233371264
 30
0.0
 11
36.21378671796753
 21
-98.55587026132058
 31
0.0
  0
LINE
  5
1F6
330
1F
100
AcDbEntity
  8
0
100
AcDbLine
 10
36.21378671796753
 20
-98.55587026132058
 30
0.0
 11
36.09933571540373
 21
-98.68370155250354
 31
0.0
  0
LINE
  5
1F7
330
1F
100
AcDbEntity
  8
0
100
AcDbLine
 10
36.09933571540373
 20
-98.68370155250354
 30
0.0
 11
35.96127243880613
 21
-98.79048541865636
 31
0.0
  0
LINE
  5
1F8
330
1F
100
AcDbEntity
  8
0
100
AcDbLine
 10
35.96127243880613
 20
-98.79048541865636
 30
0.0
 11
35.79753717737179
 21
-98.87263107117393
 31
0.0
  0
LINE
  5
1F9
330
1F
100
AcDbEntity
  8
0
100
AcDbLine
 10
35.79753717737179
 20
-98.87263107117393
 30
0.0
 11
35.60659885329851
 21
-98.92500098044889
 31
0.0
  0
LINE
  5
1FA
330
1F
100
AcDbEntity
  8
0
100
AcDbLine
 10
35.60659885329851
 20
-98.92500098044889
 30
0.0
 11
35.38692638878413
 21
-98.94245761687387
 31
0.0
  0
LINE
  5
1FB
330
1F
100
AcDbEntity
  8
0
100
AcDbLine
 10
35.38692638878413
 20
-98.94245761687387
 30
0.0
 11
34.31938532805626
 21
-98.94245761687387
 31
0.0
  0
LINE
  5
1FC
330
1F
100
AcDbEntity
  8
0
100
AcDbLine
 10
37.99033819091012
 20
-98.94245761687387
 30
0.0
 11
37.99033819091012
 21
-97.42776352190603
 31
0.0
  0
LINE
  5
1FD
330
1F
100
AcDbEntity
  8
0
100
AcDbLine
 10
37.99033819091012
 20
-95.99927967986159
 30
0.0
 11
39.90372337924856
 21
-95.99927967986159
 31
0.0
  0
LINE
  5
1FE
330
1F
100
AcDbEntity
  8
0
100
AcDbLine
 10
37.99033819091012
 20
-98.94245761687387
 30
0.0
 11
39.90372337924856
 21
-98.94245761687387
 31
0.0
  0
LINE
  5
1FF
330
1F
100
AcDbEntity
  8
0
100
AcDbLine
 10
39.73947906381349
 20
-97.42776352190603
 30
0.0
 11
37.99033819091012
 21
-97.42776352190603
 31
0.0
  0
LINE
  5
200
330
1F
100
AcDbEntity
  8
0
100
AcDbLine
 10
43.40153522905463
 20
-98.94245761687387
 30
0.0
 11
43.40153522905463
 21
-95.98123567343576
 31
0.0
  0
LINE
  5
201
330
1F
100
AcDbEntity
  8
0
100
AcDbLine
 10
45.2119505404457
 20
-95.98123567343576
 30
0.0
 11
47.32244143786623
 21
-98.94245761687387
 31
0.0
  0
LINE
  5
202
330
1F
100
AcDbEntity
  8
0
100
AcDbLine
 10
47.32244143786623
 20
-98.94245761687387
 30
0.0
 11
47.32244143786623
 21
-95.98123567343576
 31
0.0
  0
LINE
  5
203
330
1F
100
AcDbEntity
  8
0
100
AcDbLine
 10
45.2119505404457
 20
-95.98123567343576
 30
0.0
 11
45.2119505404457
 21
-98.94245761687387
 31
0.0
  0
LINE
  5
204
330
1F
100
AcDbEntity
  8
0
100
AcDbLine
 10
52.98443763476968
 20
-95.98123567343576
 30
0.0
 11
51.9127614892359
 21
-95.98123567343576
 31
0.0
  0
LINE
  5
205
330
1F
100
AcDbEntity
  8
0
100
AcDbLine
 10
51.9127614892359
 20
-95.98123567343576
 30
0.0
 11
51.9127614892359
 21
-98.94245761687387
 31
0.0
  0
LINE
  5
206
330
1F
100
AcDbEntity
  8
0
100
AcDbLine
 10
54.41840359682197
 20
-97.30327240812787
 30
0.0
 11
56.5083443758131
 21
-97.30327240812787
 31
0.0
  0
LINE
  5
207
330
1F
100
AcDbEntity
  8
0
100
AcDbLine
 10
56.5083443758131
 20
-95.98524545264151
 30
0.0
 11
56.5083443758131
 21
-97.30327240812787
 31
0.0
  0
LINE
  5
208
330
1F
100
AcDbEntity
  8
0
100
AcDbLine
 10
54.41840359682197
 20
-98.94245761687387
 30
0.0
 11
54.41840359682197
 21
-97.30327240812787
 31
0.0
  0
LINE
  5
209
330
1F
100
AcDbEntity
  8
0
100
AcDbLine
 10
58.42617791295789
 20
-98.94245761687387
 30
0.0
 11
58.42617791295789
 21
-95.99927967986159
 31
0.0
  0
LINE
  5
20A
330
1F
100
AcDbEntity
  8
0
100
AcDbLine
 10
58.42617791295789
 20
-95.99927967986159
 30
0.0
 11
60.33956310129633
 21
-95.99927967986159
 31
0.0
  0
LINE
  5
20B
330
1F
100
AcDbEntity
  8
0
100
AcDbLine
 10
58.42617791295789
 20
-98.94245761687387
 30
0.0
 11
60.33956310129633
 21
-98.94245761687387
 31
0.0
  0
LINE
  5
20C
330
1F
100
AcDbEntity
  8
0
100
AcDbLine
 10
60.17531878586126
 20
-97.42776352190603
 30
0.0
 11
58.42617791295789
 21
-97.42776352190603
 31
0.0
  0
LINE
  5
20D
330
1F
100
AcDbEntity
  8
0
100
AcDbLine
 10
65.47565169424709
 20
-98.00203908752795
 30
0.0
 11
65.46076773842582
 21
-98.18324664858727
 31
0.0
  0
LINE
  5
20E
330
1F
100
AcDbEntity
  8
0
100
AcDbLine
 10
65.46076773842582
 20
-98.18324664858727
 30
0.0
 11
65.4161158709619
 21
-98.35728046403636
 31
0.0
  0
LINE
  5
20F
330
1F
100
AcDbEntity
  8
0
100
AcDbLine
 10
65.4161158709619
 20
-98.35728046403636
 30
0.0
 11
65.34067015225392
 21
-98.51746017906561
 31
0.0
  0
LINE
  5
210
330
1F
100
AcDbEntity
  8
0
100
AcDbLine
 10
65.34067015225392
 20
-98.51746017906561
 30
0.0
 11
65.23340464270039
 21
-98.65710543886546
 31
0.0
  0
LINE
  5
211
330
1F
100
AcDbEntity
  8
0
100
AcDbLine
 10
65.23340464270039
 20
-98.65710543886546
 30
0.0
 11
65.09226354729839
 21
-98.77313450883153
 31
0.0
  0
LINE
  5
212
330
1F
100
AcDbEntity
  8
0
100
AcDbLine
 10
65.09226354729839
 20
-98.77313450883153
 30
0.0
 11
64.91519107104497
 21
-98.86246565435938
 31
0.0
  0
LINE
  5
213
330
1F
100
AcDbEntity
  8
0
100
AcDbLine
 10
64.91519107104497
 20
-98.86246565435938
 30
0.0
 11
64.70116127433863
 21
-98.91945229184094
 31
0.0
  0
LINE
  5
214
330
1F
100
AcDbEntity
  8
0
100
AcDbLine
 10
64.70116127433863
 20
-98.91945229184094
 30
0.0
 11
64.44914821757794
 21
-98.93844783766814
 31
0.0
  0
LINE
  5
215
330
1F
100
AcDbEntity
  8
0
100
AcDbLine
 10
64.44914821757794
 20
-98.93844783766814
 30
0.0
 11
64.19613271601585
 21
-98.91688744283728
 31
0.0
  0
LINE
  5
216
330
1F
100
AcDbEntity
  8
0
100
AcDbLine
 10
64.19613271601585
 20
-98.91688744283728
 30
0.0
 11
63.97903293210514
 21
-98.86041377515645
 31
0.0
  0
LINE
  5
217
330
1F
100
AcDbEntity
  8
0
100
AcDbLine
 10
63.97903293210514
 20
-98.86041377515645
 30
0.0
 11
63.7973398118451
 21
-98.77365139443226
 31
0.0
  0
LINE
  5
218
330
1F
100
AcDbEntity
  8
0
100
AcDbLine
 10
63.7973398118451
 20
-98.77365139443226
 30
0.0
 11
63.650544301235
 21
-98.66122486047136
 31
0.0
  0
LINE
  5
219
330
1F
100
AcDbEntity
  8
0
100
AcDbLine
 10
63.650544301235
 20
-98.66122486047136
 30
0.0
 11
63.53762437647338
 21
-98.52518213667666
 31
0.0
  0
LINE
  5
21A
330
1F
100
AcDbEntity
  8
0
100
AcDbLine
 10
63.53762437647338
 20
-98.52518213667666
 30
0.0
 11
63.45755801375881
 21
-98.36757118645109
 31
0.0
  0
LINE
  5
21B
330
1F
100
AcDbEntity
  8
0
100
AcDbLine
 10
63.45755801375881
 20
-98.36757118645109
 30
0.0
 11
63.40982832749049
 21
-98.1919906299998
 31
0.0
  0
LINE
  5
21C
330
1F
100
AcDbEntity
  8
0
100
AcDbLine
 10
63.40982832749049
 20
-98.1919906299998
 30
0.0
 11
63.39391843206774
 21
-98.00203908752795
 31
0.0
  0
LINE
  5
21D
330
1F
100
AcDbEntity
  8
0
100
AcDbLine
 10
63.39391843206774
 20
-98.00203908752795
 30
0.0
 11
63.39391843206774
 21
-95.97722589423002
 31
0.0
  0
LINE
  5
21E
330
1F
100
AcDbEntity
  8
0
100
AcDbLine
 10
65.46076773842582
 20
-98.18324664858727
 30
0.0
 11
65.47565169424709
 21
-95.97722589423002
 31
0.0
  0
LINE
  5
21F
330
1F
100
AcDbEntity
  8
0
100
AcDbLine
 10
65.47565169424709
 20
-95.97722589423002
 30
0.0
 11
65.47565169424709
 21
-98.00203908752795
 31
0.0
  0
LINE
  5
220
330
1F
100
AcDbEntity
  8
0
100
AcDbLine
 10
66.46139952445789
 20
-98.04689849239215
 30
0.0
 11
66.48346897328948
 21
-98.27526011711898
 31
0.0
  0
LINE
  5
221
330
1F
100
AcDbEntity
  8
0
100
AcDbLine
 10
66.48346897328948
 20
-98.27526011711898
 30
0.0
 11
66.54967731978425
 21
-98.4677060241944
 31
0.0
  0
LINE
  5
222
330
1F
100
AcDbEntity
  8
0
100
AcDbLine
 10
66.54967731978425
 20
-98.4677060241944
 30
0.0
 11
66.6528390709319
 21
-98.62628417702136
 31
0.0
  0
LINE
  5
223
330
1F
100
AcDbEntity
  8
0
100
AcDbLine
 10
66.6528390709319
 20
-98.62628417702136
 30
0.0
 11
66.78576873372214
 21
-98.75304253900278
 31
0.0
  0
LINE
  5
224
330
1F
100
AcDbEntity
  8
0
100
AcDbLine
 10
66.78576873372214
 20
-98.75304253900278
 30
0.0
 11
66.94590145915133
 21
-98.84900704974012
 31
0.0
  0
LINE
  5
225
330
1F
100
AcDbEntity
  8
0
100
AcDbLine
 10
66.94590145915133
 20
-98.84900704974012
 30
0.0
 11
67.13067239821576
 21
-98.91520364883486
 31
0.0
  0
LINE
  5
226
330
1F
100
AcDbEntity
  8
0
100
AcDbLine
 10
67.13067239821576
 20
-98.91520364883486
 30
0.0
 11
67.33392199750666
 21
-98.95368813128994
 31
0.0
  0
LINE
  5
227
330
1F
100
AcDbEntity
  8
0
100
AcDbLine
 10
67.33392199750666
 20
-98.95368813128994
 30
0.0
 11
67.54949070361518
 21
-98.9665162921083
 31
0.0
  0
LINE
  5
228
330
1F
100
AcDbEntity
  8
0
100
AcDbLine
 10
67.54949070361518
 20
-98.9665162921083
 30
0.0
 11
67.76095173551782
 21
-98.95060639668553
 31
0.0
  0
LINE
  5
229
330
1F
100
AcDbEntity
  8
0
100
AcDbLine
 10
67.76095173551782
 20
-98.95060639668553
 30
0.0
 11
67.95187831219108
 21
-98.90287671041722
 31
0.0
  0
LINE
  5
22A
330
1F
100
AcDbEntity
  8
0
100
AcDbLine
 10
67.95187831219108
 20
-98.90287671041722
 30
0.0
 11
68.11919653063056
 21
-98.82897773271145
 31
0.0
  0
LINE
  5
22B
330
1F
100
AcDbEntity
  8
0
100
AcDbLine
 10
68.11919653063056
 20
-98.82897773271145
 30
0.0
 11
68.25983248783183
 21
-98.73455996297632
 31
0.0
  0
LINE
  5
22C
330
1F
100
AcDbEntity
  8
0
100
AcDbLine
 10
68.25983248783183
 20
-98.73455996297632
 30
0.0
 11
68.37275241259344
 21
-98.62269338841622
 31
0.0
  0
LINE
  5
22D
330
1F
100
AcDbEntity
  8
0
100
AcDbLine
 10
68.37275241259344
 20
-98.62269338841622
 30
0.0
 11
68.4569225337139
 21
-98.49644799623553
 31
0.0
  0
LINE
  5
22E
330
1F
100
AcDbEntity
  8
0
100
AcDbLine
 10
68.4569225337139
 20
-98.49644799623553
 30
0.0
 11
68.51029488779027
 21
-98.36250805704384
 31
0.0
  0
LINE
  5
22F
330
1F
100
AcDbEntity
  8
0
100
AcDbLine
 10
68.51029488779027
 20
-98.36250805704384
 30
0.0
 11
68.53082151141966
 21
-98.22755784145069
 31
0.0
  0
LINE
  5
230
330
1F
100
AcDbEntity
  8
0
100
AcDbLine
 10
68.53082151141966
 20
-98.22755784145069
 30
0.0
 11
68.50413141858144
 21
-97.9745501714886
 31
0.0
  0
LINE
  5
231
330
1F
100
AcDbEntity
  8
0
100
AcDbLine
 10
68.50413141858144
 20
-97.9745501714886
 30
0.0
 11
68.40764610644337
 21
-97.75747388237792
 31
0.0
  0
LINE
  5
232
330
1F
100
AcDbEntity
  8
0
100
AcDbLine
 10
68.40764610644337
 20
-97.75747388237792
 30
0.0
 11
68.33245883053577
 21
-97.66677220684811
 31
0.0
  0
LINE
  5
233
330
1F
100
AcDbEntity
  8
0
100
AcDbLine
 10
68.33245883053577
 20
-97.66677220684811
 30
0.0
 11
68.23827992460097
 21
-97.59377777894365
 31
0.0
  0
LINE
  5
234
330
1F
100
AcDbEntity
  8
0
100
AcDbLine
 10
68.23827992460097
 20
-97.59377777894365
 30
0.0
 11
67.99294722264985
 21
-97.50091066601072
 31
0.0
  0
LINE
  5
235
330
1F
100
AcDbEntity
  8
0
100
AcDbLine
 10
67.99294722264985
 20
-97.50091066601072
 30
0.0
 11
66.98696253801008
 21
-97.2833174912993
 31
0.0
  0
LINE
  5
236
330
1F
100
AcDbEntity
  8
0
100
AcDbLine
 10
66.98696253801008
 20
-97.2833174912993
 30
0.0
 11
66.79448922033463
 21
-97.21249241659794
 31
0.0
  0
LINE
  5
237
330
1F
100
AcDbEntity
  8
0
100
AcDbLine
 10
66.65231826953112
 20
-97.0985700470349
 30
0.0
 11
66.56455344400553
 21
-96.92409374618519
 31
0.0
  0
LINE
  5
238
330
1F
100
AcDbEntity
  8
0
100
AcDbLine
 10
66.56455344400553
 20
-96.92409374618519
 30
0.0
 11
66.53529850216367
 21
-96.67160687762383
 31
0.0
  0
LINE
  5
239
330
1F
100
AcDbEntity
  8
0
100
AcDbLine
 10
66.53529850216367
 20
-96.67160687762383
 30
0.0
 11
66.55018245798496
 21
-96.53099441522258
 31
0.0
  0
LINE
  5
23A
330
1F
100
AcDbEntity
  8
0
100
AcDbLine
 10
66.55018245798496
 20
-96.53099441522258
 30
0.0
 11
66.59483432544887
 21
-96.39654542203014
 31
0.0
  0
LINE
  5
23B
330
1F
100
AcDbEntity
  8
0
100
AcDbLine
 10
66.59483432544887
 20
-96.39654542203014
 30
0.0
 11
66.66874113475464
 21
-96.2733856802539
 31
0.0
  0
LINE
  5
23C
330
1F
100
AcDbEntity
  8
0
100
AcDbLine
 10
66.66874113475464
 20
-96.2733856802539
 30
0.0
 11
66.77138991610157
 21
-96.16664097210112
 31
0.0
  0
LINE
  5
23D
330
1F
100
AcDbEntity
  8
0
100
AcDbLine
 10
66.77138991610157
 20
-96.16664097210112
 30
0.0
 11
66.90175472988815
 21
-96.07837100837477
 31
0.0
  0
LINE
  5
23E
330
1F
100
AcDbEntity
  8
0
100
AcDbLine
 10
66.90175472988815
 20
-96.07837100837477
 30
0.0
 11
67.05880963651292
 21
-96.01063549987785
 31
0.0
  0
LINE
  5
23F
330
1F
100
AcDbEntity
  8
0
100
AcDbLine
 10
67.05880963651292
 20
-96.01063549987785
 30
0.0
 11
67.24204166617515
 21
-95.96753428921616
 31
0.0
  0
LINE
  5
240
330
1F
100
AcDbEntity
  8
0
100
AcDbLine
 10
67.24204166617515
 20
-95.96753428921616
 30
0.0
 11
67.45093784907411
 21
-95.95316721899559
 31
0.0
  0
LINE
  5
241
330
1F
100
AcDbEntity
  8
0
100
AcDbLine
 10
67.45093784907411
 20
-95.95316721899559
 30
0.0
 11
67.66394170617899
 21
-95.96599537981395
 31
0.0
  0
LINE
  5
242
330
1F
100
AcDbEntity
  8
0
100
AcDbLine
 10
67.66394170617899
 20
-95.96599537981395
 30
0.0
 11
67.85949675845885
 21
-96.00447986226904
 31
0.0
  0
LINE
  5
243
330
1F
100
AcDbEntity
  8
0
100
AcDbLine
 10
67.85949675845885
 20
-96.00447986226904
 30
0.0
 11
68.03349141590789
 21
-96.06759864255936
 31
0.0
  0
LINE
  5
244
330
1F
100
AcDbEntity
  8
0
100
AcDbLine
 10
68.03349141590789
 20
-96.06759864255936
 30
0.0
 11
68.18181408852016
 21
-96.1543296968835
 31
0.0
  0
LINE
  5
245
330
1F
100
AcDbEntity
  8
0
100
AcDbLine
 10
68.18181408852016
 20
-96.1543296968835
 30
0.0
 11
68.30139478909129
 21
-96.26364316983995
 31
0.0
  0
LINE
  5
246
330
1F
100
AcDbEntity
  8
0
100
AcDbLine
 10
68.30139478909129
 20
-96.26364316983995
 30
0.0
 11
68.38916353041691
 21
-96.39450920602725
 31
0.0
  0
LINE
  5
247
330
1F
100
AcDbEntity
  8
0
100
AcDbLine
 10
68.38916353041691
 20
-96.39450920602725
 30
0.0
 11
68.44203466209257
 21
-96.54692388964538
 31
0.0
  0
LINE
  5
248
330
1F
100
AcDbEntity
  8
0
100
AcDbLine
 10
68.44203466209257
 20
-96.54692388964538
 30
0.0
 11
68.4569225337139
 21
-96.72088330489434
 31
0.0
  0
LINE
  5
249
330
1F
100
AcDbEntity
  8
0
100
AcDbLine
 10
66.53529850216367
 20
-96.67160687762383
 30
0.0
 11
66.56609235340773
 21
-96.91999390357931
 31
0.0
  0
LINE
  5
24A
330
1F
100
AcDbEntity
  8
0
100
AcDbLine
 10
66.56609235340773
 20
-96.91999390357931
 30
0.0
 11
66.65437014873407
 21
-97.0985700470349
 31
0.0
  0
LINE
  5
24B
330
1F
100
AcDbEntity
  8
0
100
AcDbLine
 10
66.65437014873407
 20
-97.0985700470349
 30
0.0
 11
66.79448922033463
 21
-97.21249241659794
 31
0.0
  0
LINE
  5
24C
330
1F
100
AcDbEntity
  8
0
100
AcDbLine
 10
66.79602812973683
 20
-97.21555848800232
 30
0.0
 11
66.98696253801008
 21
-97.2833174912993
 31
0.0
  0
LINE
  5
24D
330
1F
100
AcDbEntity
  8
0
100
AcDbLine
 10
67.99294722264985
 20
-97.50091066601072
 30
0.0
 11
68.2331306475936
 21
-97.59377777894365
 31
0.0
  0
LINE
  5
24E
330
1F
100
AcDbEntity
  8
0
100
AcDbLine
 10
68.2331306475936
 20
-97.59377777894365
 30
0.0
 11
68.32705208967802
 21
-97.66677220684811
 31
0.0
  0
LINE
  5
24F
330
1F
100
AcDbEntity
  8
0
100
AcDbLine
 10
68.32705208967802
 20
-97.66677220684811
 30
0.0
 11
68.40352668483747
 21
-97.75747388237792
 31
0.0
  0
LINE
  5
250
330
1F
100
AcDbEntity
  8
0
100
AcDbLine
 10
68.40352668483747
 20
-97.75747388237792
 30
0.0
 11
68.50413141858144
 21
-97.9745501714886
 31
0.0
  0
LINE
  5
251
330
1F
100
AcDbEntity
  8
0
100
AcDbLine
 10
70.70318204892874
 20
-95.98123567343576
 30
0.0
 11
71.88161856581532
 21
-98.94245761687387
 31
0.0
  0
LINE
  5
252
330
1F
100
AcDbEntity
  8
0
100
AcDbLine
 10
70.70318204892874
 20
-95.98123567343576
 30
0.0
 11
69.89840683177695
 21
-98.01015262513955
 31
0.0
  0
LINE
  5
253
330
1F
100
AcDbEntity
  8
0
100
AcDbLine
 10
69.89840683177695
 20
-98.01015262513955
 30
0.0
 11
71.50795726608054
 21
-98.01015262513955
 31
0.0
  0
LINE
  5
254
330
1F
100
AcDbEntity
  8
0
100
AcDbLine
 10
45.97107047749164
 20
-83.41054311991661
 30
0.0
 11
45.93897221502412
 21
-83.63708160770103
 31
0.0
  0
LINE
  5
255
330
1F
100
AcDbEntity
  8
0
100
AcDbLine
 10
45.91466347296248
 20
-83.88898420929421
 30
0.0
 11
45.88592997716017
 21
-84.47151941405303
 31
0.0
  0
LINE
  5
256
330
1F
100
AcDbEntity
  8
0
100
AcDbLine
 10
47.91031298588177
 20
-83.88898420929421
 30
0.0
 11
47.88596857117818
 21
-83.63708160770103
 31
0.0
  0
LINE
  5
257
330
1F
100
AcDbEntity
  8
0
100
AcDbLine
 10
47.44852169349086
 20
-82.54703134114462
 30
0.0
 11
47.33743449030041
 21
-82.47957802899693
 31
0.0
  0
LINE
  5
258
330
1F
100
AcDbEntity
  8
0
100
AcDbLine
 10
47.93909648107442
 20
-84.47151941405303
 30
0.0
 11
47.91031298588177
 21
-83.88898420929421
 31
0.0
  0
LINE
  5
259
330
1F
100
AcDbEntity
  8
0
100
AcDbLine
 10
46.75422188995503
 20
-82.40427837021318
 30
0.0
 11
46.61281649874619
 21
-82.4322135103653
 31
0.0
  0
LINE
  5
25A
330
1F
100
AcDbEntity
  8
0
100
AcDbLine
 10
45.87790084429128
 20
-85.16342405448573
 30
0.0
 11
45.88592997716017
 21
-85.85813866065612
 31
0.0
  0
LINE
  5
25B
330
1F
100
AcDbEntity
  8
0
100
AcDbLine
 10
47.54571906604199
 20
-82.63523286184494
 30
0.0
 11
47.44852169349086
 21
-82.54703134114462
 31
0.0
  0
LINE
  5
25C
330
1F
100
AcDbEntity
  8
0
100
AcDbLine
 10
46.19478159590442
 20
-82.74484200613449
 30
0.0
 11
46.12281381957148
 21
-82.87651818904983
 31
0.0
  0
LINE
  5
25D
330
1F
100
AcDbEntity
  8
0
100
AcDbLine
 10
45.91466347296248
 20
-86.4419561574721
 30
0.0
 11
45.93897221502412
 21
-86.69403808380184
 31
0.0
  0
LINE
  5
25E
330
1F
100
AcDbEntity
  8
0
100
AcDbLine
 10
45.93897221502412
 20
-86.69403808380184
 30
0.0
 11
45.97107047749164
 21
-86.92050724550845
 31
0.0
  0
LINE
  5
25F
330
1F
100
AcDbEntity
  8
0
100
AcDbLine
 10
47.07010832676892
 20
-82.40427837021318
 30
0.0
 11
46.91212823381159
 21
-82.39511319350392
 31
0.0
  0
LINE
  5
260
330
1F
100
AcDbEntity
  8
0
100
AcDbLine
 10
46.61281649874619
 20
-82.4322135103653
 30
0.0
 11
46.48704091696091
 21
-82.47957802899693
 31
0.0
  0
LINE
  5
261
330
1F
100
AcDbEntity
  8
0
100
AcDbLine
 10
47.70192658445868
 20
-82.87651818904983
 30
0.0
 11
47.62989717426186
 21
-82.74484200613449
 31
0.0
  0
LINE
  5
262
330
1F
100
AcDbEntity
  8
0
100
AcDbLine
 10
47.33743449030041
 20
-82.47957802899693
 30
0.0
 11
47.21158689016249
 21
-82.4322135103653
 31
0.0
  0
LINE
  5
263
330
1F
100
AcDbEntity
  8
0
100
AcDbLine
 10
47.21158689016249
 20
-82.4322135103653
 30
0.0
 11
47.07010832676892
 21
-82.40427837021318
 31
0.0
  0
LINE
  5
264
330
1F
100
AcDbEntity
  8
0
100
AcDbLine
 10
46.06212013654114
 20
-83.0309208256276
 30
0.0
 11
46.01182940358926
 21
-83.20870933090436
 31
0.0
  0
LINE
  5
265
330
1F
100
AcDbEntity
  8
0
100
AcDbLine
 10
46.91212823381159
 20
-82.39511319350392
 30
0.0
 11
46.75422188995503
 21
-82.40427837021318
 31
0.0
  0
LINE
  5
266
330
1F
100
AcDbEntity
  8
0
100
AcDbLine
 10
46.48704091696091
 20
-82.47957802899693
 30
0.0
 11
46.37602400137494
 21
-82.54703134114462
 31
0.0
  0
LINE
  5
267
330
1F
100
AcDbEntity
  8
0
100
AcDbLine
 10
47.76267786294061
 20
-83.0309208256276
 30
0.0
 11
47.70192658445868
 21
-82.87651818904983
 31
0.0
  0
LINE
  5
268
330
1F
100
AcDbEntity
  8
0
100
AcDbLine
 10
45.88592997716017
 20
-84.47151941405303
 30
0.0
 11
45.87790084429128
 21
-85.16342405448573
 31
0.0
  0
LINE
  5
269
330
1F
100
AcDbEntity
  8
0
100
AcDbLine
 10
47.81302157601574
 20
-83.20870933090436
 30
0.0
 11
47.76267786294061
 21
-83.0309208256276
 31
0.0
  0
LINE
  5
26A
330
1F
100
AcDbEntity
  8
0
100
AcDbLine
 10
46.2788946087642
 20
-87.69329589971106
 30
0.0
 11
46.37602400137494
 21
-87.78086906268842
 31
0.0
  0
LINE
  5
26B
330
1F
100
AcDbEntity
  8
0
100
AcDbLine
 10
47.85382828999219
 20
-83.41054311991661
 30
0.0
 11
47.81302157601574
 21
-83.20870933090436
 31
0.0
  0
LINE
  5
26C
330
1F
100
AcDbEntity
  8
0
100
AcDbLine
 10
45.93897221502412
 20
-83.63708160770103
 30
0.0
 11
45.91466347296248
 21
-83.88898420929421
 31
0.0
  0
LINE
  5
26D
330
1F
100
AcDbEntity
  8
0
100
AcDbLine
 10
46.2788946087642
 20
-82.63523286184494
 30
0.0
 11
46.19478159590442
 21
-82.74484200613449
 31
0.0
  0
LINE
  5
26E
330
1F
100
AcDbEntity
  8
0
100
AcDbLine
 10
46.37602400137494
 20
-82.54703134114462
 30
0.0
 11
46.2788946087642
 21
-82.63523286184494
 31
0.0
  0
LINE
  5
26F
330
1F
100
AcDbEntity
  8
0
100
AcDbLine
 10
47.62989717426186
 20
-82.74484200613449
 30
0.0
 11
47.54571906604199
 21
-82.63523286184494
 31
0.0
  0
LINE
  5
270
330
1F
100
AcDbEntity
  8
0
100
AcDbLine
 10
45.88592997716017
 20
-85.85813866065612
 30
0.0
 11
45.91466347296248
 21
-86.4419561574721
 31
0.0
  0
LINE
  5
271
330
1F
100
AcDbEntity
  8
0
100
AcDbLine
 10
47.88596857117818
 20
-83.63708160770103
 30
0.0
 11
47.85382828999219
 21
-83.41054311991661
 31
0.0
  0
LINE
  5
272
330
1F
100
AcDbEntity
  8
0
100
AcDbLine
 10
46.12281381957148
 20
-82.87651818904983
 30
0.0
 11
46.06212013654114
 21
-83.0309208256276
 31
0.0
  0
LINE
  5
273
330
1F
100
AcDbEntity
  8
0
100
AcDbLine
 10
47.94714330603527
 20
-85.16342405448573
 30
0.0
 11
47.93909648107442
 21
-84.47151941405303
 31
0.0
  0
LINE
  5
274
330
1F
100
AcDbEntity
  8
0
100
AcDbLine
 10
48.79858070078196
 20
-82.02070434526202
 30
0.0
 11
48.88221315459742
 21
-82.13207755458053
 31
0.0
  0
LINE
  5
275
330
1F
100
AcDbEntity
  8
0
100
AcDbLine
 10
46.19478159590442
 20
-87.5843329975418
 30
0.0
 11
46.2788946087642
 21
-87.69329589971106
 31
0.0
  0
LINE
  5
276
330
1F
100
AcDbEntity
  8
0
100
AcDbLine
 10
46.48704091696091
 20
-87.8477563240457
 30
0.0
 11
46.61281649874619
 21
-87.89466152135485
 31
0.0
  0
LINE
  5
277
330
1F
100
AcDbEntity
  8
0
100
AcDbLine
 10
48.38552395839461
 20
-81.64858369027367
 30
0.0
 11
48.50118722357698
 21
-81.73026014630426
 31
0.0
  0
LINE
  5
278
330
1F
100
AcDbEntity
  8
0
100
AcDbLine
 10
47.11799700968241
 20
-81.29270841412622
 30
0.0
 11
47.31260286999892
 21
-81.30664223461382
 31
0.0
  0
LINE
  5
279
330
1F
100
AcDbEntity
  8
0
100
AcDbLine
 10
48.95861295621697
 20
-82.250440101754
 30
0.0
 11
49.02809012589903
 21
-82.3756180465956
 31
0.0
  0
LINE
  5
27A
330
1F
100
AcDbEntity
  8
0
100
AcDbLine
 10
46.06212013654114
 20
-87.29942262534009
 30
0.0
 11
46.12281381957148
 21
-87.45327651860873
 31
0.0
  0
LINE
  5
27B
330
1F
100
AcDbEntity
  8
0
100
AcDbLine
 10
49.31693900777023
 20
-83.26006841621427
 30
0.0
 11
49.37189516460517
 21
-83.60152309896327
 31
0.0
  0
LINE
  5
27C
330
1F
100
AcDbEntity
  8
0
100
AcDbLine
 10
47.11799700968241
 20
-89.03453128862823
 30
0.0
 11
46.91212823381159
 21
-89.039216796401
 31
0.0
  0
LINE
  5
27D
330
1F
100
AcDbEntity
  8
0
100
AcDbLine
 10
46.37602400137494
 20
-87.78086906268842
 30
0.0
 11
46.48704091696091
 21
-87.8477563240457
 31
0.0
  0
LINE
  5
27E
330
1F
100
AcDbEntity
  8
0
100
AcDbLine
 10
46.75422188995503
 20
-87.92228849218763
 30
0.0
 11
46.91212823381159
 21
-87.9313410741159
 31
0.0
  0
LINE
  5
27F
330
1F
100
AcDbEntity
  8
0
100
AcDbLine
 10
48.70740557451229
 20
-81.91649441398525
 30
0.0
 11
48.79858070078196
 21
-82.02070434526202
 31
0.0
  0
LINE
  5
280
330
1F
100
AcDbEntity
  8
0
100
AcDbLine
 10
46.61281649874619
 20
-87.89466152135485
 30
0.0
 11
46.75422188995503
 21
-87.92228849218763
 31
0.0
  0
LINE
  5
281
330
1F
100
AcDbEntity
  8
0
100
AcDbLine
 10
46.01182940358926
 20
-87.12206748016393
 30
0.0
 11
46.06212013654114
 21
-87.29942262534009
 31
0.0
  0
LINE
  5
282
330
1F
100
AcDbEntity
  8
0
100
AcDbLine
 10
47.4962558350195
 20
-81.32965267519815
 30
0.0
 11
47.66926592500241
 21
-81.36156579569237
 31
0.0
  0
LINE
  5
283
330
1F
100
AcDbEntity
  8
0
100
AcDbLine
 10
49.14751665048389
 20
-82.64572436853591
 30
0.0
 11
49.24297289041872
 21
-82.941004998907
 31
0.0
  0
LINE
  5
284
330
1F
100
AcDbEntity
  8
0
100
AcDbLine
 10
45.97107047749164
 20
-86.92050724550845
 30
0.0
 11
46.01182940358926
 21
-87.12206748016393
 31
0.0
  0
LINE
  5
285
330
1F
100
AcDbEntity
  8
0
100
AcDbLine
 10
49.24297289041872
 20
-82.941004998907
 30
0.0
 11
49.31693900777023
 21
-83.26006841621427
 31
0.0
  0
LINE
  5
286
330
1F
100
AcDbEntity
  8
0
100
AcDbLine
 10
48.2610779397247
 20
-81.57476627303211
 30
0.0
 11
48.38552395839461
 21
-81.64858369027367
 31
0.0
  0
LINE
  5
287
330
1F
100
AcDbEntity
  8
0
100
AcDbLine
 10
49.02809012589903
 20
-82.3756180465956
 30
0.0
 11
49.14751665048389
 21
-82.64572436853591
 31
0.0
  0
LINE
  5
288
330
1F
100
AcDbEntity
  8
0
100
AcDbLine
 10
47.31260286999892
 20
-81.30664223461382
 30
0.0
 11
47.4962558350195
 21
-81.32965267519815
 31
0.0
  0
LINE
  5
289
330
1F
100
AcDbEntity
  8
0
100
AcDbLine
 10
48.88221315459742
 20
-82.13207755458053
 30
0.0
 11
48.95861295621697
 21
-82.250440101754
 31
0.0
  0
LINE
  5
28A
330
1F
100
AcDbEntity
  8
0
100
AcDbLine
 10
46.12281381957148
 20
-87.45327651860873
 30
0.0
 11
46.19478159590442
 21
-87.5843329975418
 31
0.0
  0
LINE
  5
28B
330
1F
100
AcDbEntity
  8
0
100
AcDbLine
 10
46.91212823381159
 20
-81.2880251539222
 30
0.0
 11
47.11799700968241
 21
-81.29270841412622
 31
0.0
  0
LINE
  5
28C
330
1F
100
AcDbEntity
  8
0
100
AcDbLine
 10
48.50118722357698
 20
-81.73026014630426
 30
0.0
 11
48.60837775553011
 21
-81.81962170093706
 31
0.0
  0
LINE
  5
28D
330
1F
100
AcDbEntity
  8
0
100
AcDbLine
 10
47.98459756088874
 20
-81.45140431566332
 30
0.0
 11
48.12753914730887
 21
-81.50898183476636
 31
0.0
  0
LINE
  5
28E
330
1F
100
AcDbEntity
  8
0
100
AcDbLine
 10
49.37189516460517
 20
-83.60152309896327
 30
0.0
 11
49.41032152299028
 21
-83.96397752565943
 31
0.0
  0
LINE
  5
28F
330
1F
100
AcDbEntity
  8
0
100
AcDbLine
 10
48.12753914730887
 20
-81.50898183476636
 30
0.0
 11
48.2610779397247
 21
-81.57476627303211
 31
0.0
  0
LINE
  5
290
330
1F
100
AcDbEntity
  8
0
100
AcDbLine
 10
49.41032152299028
 20
-83.96397752565943
 30
0.0
 11
49.43469824499225
 21
-84.34604017480824
 31
0.0
  0
LINE
  5
291
330
1F
100
AcDbEntity
  8
0
100
AcDbLine
 10
47.66926592500241
 20
-81.36156579569237
 30
0.0
 11
47.83194316020606
 21
-81.40220765590969
 31
0.0
  0
LINE
  5
292
330
1F
100
AcDbEntity
  8
0
100
AcDbLine
 10
47.83194316020606
 20
-81.40220765590969
 30
0.0
 11
47.98459756088874
 21
-81.45140431566332
 31
0.0
  0
LINE
  5
293
330
1F
100
AcDbEntity
  8
0
100
AcDbLine
 10
48.60837775553011
 20
-81.81962170093706
 30
0.0
 11
48.70740557451229
 21
-81.91649441398525
 31
0.0
  0
LINE
  5
294
330
1F
100
AcDbEntity
  8
0
100
AcDbLine
 10
47.83194316020606
 20
-88.92498411473689
 30
0.0
 11
47.66926592500241
 21
-88.96564307811109
 31
0.0
  0
LINE
  5
295
330
1F
100
AcDbEntity
  8
0
100
AcDbLine
 10
49.41032152299028
 20
-86.36276068080596
 30
0.0
 11
49.37189516460517
 21
-86.72522039589921
 31
0.0
  0
LINE
  5
296
330
1F
100
AcDbEntity
  8
0
100
AcDbLine
 10
47.31260286999892
 20
-89.02059096581606
 30
0.0
 11
47.11799700968241
 21
-89.03453128862823
 31
0.0
  0
LINE
  5
297
330
1F
100
AcDbEntity
  8
0
100
AcDbLine
 10
49.44750549267784
 20
-84.74631952491521
 30
0.0
 11
49.45122342811376
 21
-85.16342405448573
 31
0.0
  0
LINE
  5
298
330
1F
100
AcDbEntity
  8
0
100
AcDbLine
 10
49.43469824499225
 20
-84.34604017480824
 30
0.0
 11
49.44750549267784
 21
-84.74631952491521
 31
0.0
  0
LINE
  5
299
330
1F
100
AcDbEntity
  8
0
100
AcDbLine
 10
49.14751665048389
 20
-87.68112037509202
 30
0.0
 11
49.02809012589903
 21
-87.95127929254488
 31
0.0
  0
LINE
  5
29A
330
1F
100
AcDbEntity
  8
0
100
AcDbLine
 10
48.79858070078196
 20
-88.30627963945659
 30
0.0
 11
48.70740557451229
 21
-88.4105190775851
 31
0.0
  0
LINE
  5
29B
330
1F
100
AcDbEntity
  8
0
100
AcDbLine
 10
46.511736192771
 20
-89.02059096581606
 30
0.0
 11
46.32813054688503
 21
-88.99757012872388
 31
0.0
  0
LINE
  5
29C
330
1F
100
AcDbEntity
  8
0
100
AcDbLine
 10
45.32360914130933
 20
-88.59681113302302
 30
0.0
 11
45.21648410134612
 21
-88.50742100902706
 31
0.0
  0
LINE
  5
29D
330
1F
100
AcDbEntity
  8
0
100
AcDbLine
 10
48.38552395839461
 20
-88.67851514881373
 30
0.0
 11
48.2610779397247
 21
-88.75235875563983
 31
0.0
  0
LINE
  5
29E
330
1F
100
AcDbEntity
  8
0
100
AcDbLine
 10
49.02809012589903
 20
-87.95127929254488
 30
0.0
 11
48.95861295621697
 21
-88.07648544617714
 31
0.0
  0
LINE
  5
29F
330
1F
100
AcDbEntity
  8
0
100
AcDbLine
 10
48.88221315459742
 20
-88.1948769954008
 30
0.0
 11
48.79858070078196
 21
-88.30627963945659
 31
0.0
  0
LINE
  5
2A0
330
1F
100
AcDbEntity
  8
0
100
AcDbLine
 10
46.15517130964744
 20
-88.96564307811109
 30
0.0
 11
45.99254810022737
 21
-88.92498411473689
 31
0.0
  0
LINE
  5
2A1
330
1F
100
AcDbEntity
  8
0
100
AcDbLine
 10
48.95861295621697
 20
-88.07648544617714
 30
0.0
 11
48.88221315459742
 21
-88.1948769954008
 31
0.0
  0
LINE
  5
2A2
330
1F
100
AcDbEntity
  8
0
100
AcDbLine
 10
48.60837775553011
 20
-88.50742100902706
 30
0.0
 11
48.50118722357698
 21
-88.59681113302302
 31
0.0
  0
LINE
  5
2A3
330
1F
100
AcDbEntity
  8
0
100
AcDbLine
 10
46.32813054688503
 20
-88.99757012872388
 30
0.0
 11
46.15517130964744
 21
-88.96564307811109
 31
0.0
  0
LINE
  5
2A4
330
1F
100
AcDbEntity
  8
0
100
AcDbLine
 10
45.99254810022737
 20
-88.92498411473689
 30
0.0
 11
45.83995053779391
 21
-88.87576753936075
 31
0.0
  0
LINE
  5
2A5
330
1F
100
AcDbEntity
  8
0
100
AcDbLine
 10
48.50118722357698
 20
-88.59681113302302
 30
0.0
 11
48.38552395839461
 21
-88.67851514881373
 31
0.0
  0
LINE
  5
2A6
330
1F
100
AcDbEntity
  8
0
100
AcDbLine
 10
47.66926592500241
 20
-88.96564307811109
 30
0.0
 11
47.4962558350195
 21
-88.99757012872388
 31
0.0
  0
LINE
  5
2A7
330
1F
100
AcDbEntity
  8
0
100
AcDbLine
 10
48.12753914730887
 20
-88.81816765274192
 30
0.0
 11
47.98459756088874
 21
-88.87576753936075
 31
0.0
  0
LINE
  5
2A8
330
1F
100
AcDbEntity
  8
0
100
AcDbLine
 10
47.98459756088874
 20
-88.87576753936075
 30
0.0
 11
47.83194316020606
 21
-88.92498411473689
 31
0.0
  0
LINE
  5
2A9
330
1F
100
AcDbEntity
  8
0
100
AcDbLine
 10
49.45122342811376
 20
-85.16342405448573
 30
0.0
 11
49.44750549267784
 21
-85.58046810402449
 31
0.0
  0
LINE
  5
2AA
330
1F
100
AcDbEntity
  8
0
100
AcDbLine
 10
49.44750549267784
 20
-85.58046810402449
 30
0.0
 11
49.43469824499225
 21
-85.9807117814895
 31
0.0
  0
LINE
  5
2AB
330
1F
100
AcDbEntity
  8
0
100
AcDbLine
 10
46.91212823381159
 20
-89.039216796401
 30
0.0
 11
46.70629862813625
 21
-89.03453128862823
 31
0.0
  0
LINE
  5
2AC
330
1F
100
AcDbEntity
  8
0
100
AcDbLine
 10
49.43469824499225
 20
-85.9807117814895
 30
0.0
 11
49.41032152299028
 21
-86.36276068080596
 31
0.0
  0
LINE
  5
2AD
330
1F
100
AcDbEntity
  8
0
100
AcDbLine
 10
48.2610779397247
 20
-88.75235875563983
 30
0.0
 11
48.12753914730887
 21
-88.81816765274192
 31
0.0
  0
LINE
  5
2AE
330
1F
100
AcDbEntity
  8
0
100
AcDbLine
 10
49.24297289041872
 20
-87.38579464911692
 30
0.0
 11
49.14751665048389
 21
-87.68112037509202
 31
0.0
  0
LINE
  5
2AF
330
1F
100
AcDbEntity
  8
0
100
AcDbLine
 10
49.31693900777023
 20
-87.06669652069442
 30
0.0
 11
49.24297289041872
 21
-87.38579464911692
 31
0.0
  0
LINE
  5
2B0
330
1F
100
AcDbEntity
  8
0
100
AcDbLine
 10
47.4962558350195
 20
-88.99757012872388
 30
0.0
 11
47.31260286999892
 21
-89.02059096581606
 31
0.0
  0
LINE
  5
2B1
330
1F
100
AcDbEntity
  8
0
100
AcDbLine
 10
46.70629862813625
 20
-89.03453128862823
 30
0.0
 11
46.511736192771
 21
-89.02059096581606
 31
0.0
  0
LINE
  5
2B2
330
1F
100
AcDbEntity
  8
0
100
AcDbLine
 10
48.70740557451229
 20
-88.4105190775851
 30
0.0
 11
48.60837775553011
 21
-88.50742100902706
 31
0.0
  0
LINE
  5
2B3
330
1F
100
AcDbEntity
  8
0
100
AcDbLine
 10
49.37189516460517
 20
-86.72522039589921
 30
0.0
 11
49.31693900777023
 21
-87.06669652069442
 31
0.0
  0
LINE
  5
2B4
330
1F
100
AcDbEntity
  8
0
100
AcDbLine
 10
44.50860677105529
 20
-83.26006841621427
 30
0.0
 11
44.58246433203813
 21
-82.941004998907
 31
0.0
  0
LINE
  5
2B5
330
1F
100
AcDbEntity
  8
0
100
AcDbLine
 10
44.94284763014172
 20
-88.1948769954008
 30
0.0
 11
44.86651375319907
 21
-88.07648544617714
 31
0.0
  0
LINE
  5
2B6
330
1F
100
AcDbEntity
  8
0
100
AcDbLine
 10
44.41539867678541
 20
-86.36276068080596
 30
0.0
 11
44.39108205020454
 21
-85.9807117814895
 31
0.0
  0
LINE
  5
2B7
330
1F
100
AcDbEntity
  8
0
100
AcDbLine
 10
45.02641372659319
 20
-82.02070434526202
 30
0.0
 11
45.11752242338436
 21
-81.91649441398525
 31
0.0
  0
LINE
  5
2B8
330
1F
100
AcDbEntity
  8
0
100
AcDbLine
 10
81.26073701255882
 20
-98.41261971672236
 30
0.0
 11
81.04210805573621
 21
-98.53841881985548
 31
0.0
  0
LINE
  5
2B9
330
1F
100
AcDbEntity
  8
0
100
AcDbLine
 10
44.58246433203813
 20
-87.38579464911692
 30
0.0
 11
44.50860677105529
 21
-87.06669652069442
 31
0.0
  0
LINE
  5
2BA
330
1F
100
AcDbEntity
  8
0
100
AcDbLine
 10
44.39108205020454
 20
-85.9807117814895
 30
0.0
 11
44.37831297513042
 21
-85.58046810402449
 31
0.0
  0
LINE
  5
2BB
330
1F
100
AcDbEntity
  8
0
100
AcDbLine
 10
44.45374590152002
 20
-83.60152309896327
 30
0.0
 11
44.50860677105529
 21
-83.26006841621427
 31
0.0
  0
LINE
  5
2BC
330
1F
100
AcDbEntity
  8
0
100
AcDbLine
 10
44.58246433203813
 20
-82.941004998907
 30
0.0
 11
44.67780163111553
 21
-82.64572436853591
 31
0.0
  0
LINE
  5
2BD
330
1F
100
AcDbEntity
  8
0
100
AcDbLine
 10
44.41539867678541
 20
-83.96397752565943
 30
0.0
 11
44.45374590152002
 21
-83.60152309896327
 31
0.0
  0
LINE
  5
2BE
330
1F
100
AcDbEntity
  8
0
100
AcDbLine
 10
45.69706824151628
 20
-88.81816765274192
 30
0.0
 11
45.56359083056353
 21
-88.75235875563983
 31
0.0
  0
LINE
  5
2BF
330
1F
100
AcDbEntity
  8
0
100
AcDbLine
 10
44.37460840491615
 20
-85.16342405448573
 30
0.0
 11
44.37831297513042
 21
-84.74631952491521
 31
0.0
  0
LINE
  5
2C0
330
1F
100
AcDbEntity
  8
0
100
AcDbLine
 10
44.50860677105529
 20
-87.06669652069442
 30
0.0
 11
44.45374590152002
 21
-86.72522039589921
 31
0.0
  0
LINE
  5
2C1
330
1F
100
AcDbEntity
  8
0
100
AcDbLine
 10
44.79710171493443
 20
-87.95127929254488
 30
0.0
 11
44.67780163111553
 21
-87.68112037509202
 31
0.0
  0
LINE
  5
2C2
330
1F
100
AcDbEntity
  8
0
100
AcDbLine
 10
45.83995053779391
 20
-88.87576753936075
 30
0.0
 11
45.69706824151628
 21
-88.81816765274192
 31
0.0
  0
LINE
  5
2C3
330
1F
100
AcDbEntity
  8
0
100
AcDbLine
 10
44.45374590152002
 20
-86.72522039589921
 30
0.0
 11
44.41539867678541
 21
-86.36276068080596
 31
0.0
  0
LINE
  5
2C4
330
1F
100
AcDbEntity
  8
0
100
AcDbLine
 10
44.79710171493443
 20
-82.3756180465956
 30
0.0
 11
44.86651375319907
 21
-82.250440101754
 31
0.0
  0
LINE
  5
2C5
330
1F
100
AcDbEntity
  8
0
100
AcDbLine
 10
44.86651375319907
 20
-82.250440101754
 30
0.0
 11
44.94284763014172
 21
-82.13207755458053
 31
0.0
  0
LINE
  5
2C6
330
1F
100
AcDbEntity
  8
0
100
AcDbLine
 10
45.56359083056353
 20
-88.75235875563983
 30
0.0
 11
45.43920792410486
 21
-88.67851514881373
 31
0.0
  0
LINE
  5
2C7
330
1F
100
AcDbEntity
  8
0
100
AcDbLine
 10
44.94284763014172
 20
-82.13207755458053
 30
0.0
 11
45.02641372659319
 21
-82.02070434526202
 31
0.0
  0
LINE
  5
2C8
330
1F
100
AcDbEntity
  8
0
100
AcDbLine
 10
45.21648410134612
 20
-88.50742100902706
 30
0.0
 11
45.11752242338436
 21
-88.4105190775851
 31
0.0
  0
LINE
  5
2C9
330
1F
100
AcDbEntity
  8
0
100
AcDbLine
 10
44.37831297513042
 20
-84.74631952491521
 30
0.0
 11
44.39108205020454
 21
-84.34604017480824
 31
0.0
  0
LINE
  5
2CA
330
1F
100
AcDbEntity
  8
0
100
AcDbLine
 10
44.67780163111553
 20
-87.68112037509202
 30
0.0
 11
44.58246433203813
 21
-87.38579464911692
 31
0.0
  0
LINE
  5
2CB
330
1F
100
AcDbEntity
  8
0
100
AcDbLine
 10
45.02641372659319
 20
-88.30627963945659
 30
0.0
 11
44.94284763014172
 21
-88.1948769954008
 31
0.0
  0
LINE
  5
2CC
330
1F
100
AcDbEntity
  8
0
100
AcDbLine
 10
44.86651375319907
 20
-88.07648544617714
 30
0.0
 11
44.79710171493443
 21
-87.95127929254488
 31
0.0
  0
LINE
  5
2CD
330
1F
100
AcDbEntity
  8
0
100
AcDbLine
 10
45.21648410134612
 20
-81.81962170093706
 30
0.0
 11
45.32360914130933
 21
-81.73026014630426
 31
0.0
  0
LINE
  5
2CE
330
1F
100
AcDbEntity
  8
0
100
AcDbLine
 10
44.67780163111553
 20
-82.64572436853591
 30
0.0
 11
44.79710171493443
 21
-82.3756180465956
 31
0.0
  0
LINE
  5
2CF
330
1F
100
AcDbEntity
  8
0
100
AcDbLine
 10
45.43920792410486
 20
-88.67851514881373
 30
0.0
 11
45.32360914130933
 21
-88.59681113302302
 31
0.0
  0
LINE
  5
2D0
330
1F
100
AcDbEntity
  8
0
100
AcDbLine
 10
45.11752242338436
 20
-88.4105190775851
 30
0.0
 11
45.02641372659319
 21
-88.30627963945659
 31
0.0
  0
LINE
  5
2D1
330
1F
100
AcDbEntity
  8
0
100
AcDbLine
 10
45.11752242338436
 20
-81.91649441398525
 30
0.0
 11
45.21648410134612
 21
-81.81962170093706
 31
0.0
  0
LINE
  5
2D2
330
1F
100
AcDbEntity
  8
0
100
AcDbLine
 10
44.37831297513042
 20
-85.58046810402449
 30
0.0
 11
44.37460840491615
 21
-85.16342405448573
 31
0.0
  0
LINE
  5
2D3
330
1F
100
AcDbEntity
  8
0
100
AcDbLine
 10
44.39108205020454
 20
-84.34604017480824
 30
0.0
 11
44.41539867678541
 21
-83.96397752565943
 31
0.0
  0
LINE
  5
2D4
330
1F
100
AcDbEntity
  8
0
100
AcDbLine
 10
20.54444973861539
 20
-104.1087684358587
 30
0.0
 11
20.58019084128066
 21
-103.7572157993124
 31
0.0
  0
LINE
  5
2D5
330
1F
100
AcDbEntity
  8
0
100
AcDbLine
 10
78.69255074267976
 20
-101.7015935200533
 30
0.0
 11
78.63423759552707
 21
-101.9544754726859
 31
0.0
  0
LINE
  5
2D6
330
1F
100
AcDbEntity
  8
0
100
AcDbLine
 10
20.42717664931187
 20
-102.0931774112813
 30
0.0
 11
20.35675125801854
 21
-101.8451531518221
 31
0.0
  0
LINE
  5
2D7
330
1F
100
AcDbEntity
  8
0
100
AcDbLine
 10
20.27458562526024
 20
-101.6023052715542
 30
0.0
 11
20.18100801626514
 21
-101.3649618914769
 31
0.0
  0
LINE
  5
2D8
330
1F
100
AcDbEntity
  8
0
100
AcDbLine
 10
20.53149364659084
 20
-102.6034425837773
 30
0.0
 11
20.48553353391201
 21
-102.3460499289328
 31
0.0
  0
LINE
  5
2D9
330
1F
100
AcDbEntity
  8
0
100
AcDbLine
 10
20.07634669626146
 20
-101.1334511325893
 30
0.0
 11
19.96092993047737
 21
-100.9081011158906
 31
0.0
  0
LINE
  5
2DA
330
1F
100
AcDbEntity
  8
0
100
AcDbLine
 10
19.83508598414103
 20
-100.68923996238
 30
0.0
 11
19.69914312248067
 21
-100.4771957930566
 31
0.0
  0
LINE
  5
2DB
330
1F
100
AcDbEntity
  8
0
100
AcDbLine
 10
19.39827371410048
 20
-100.0748708909683
 30
0.0
 11
19.23400369783707
 21
-99.88524640020165
 31
0.0
  0
LINE
  5
2DC
330
1F
100
AcDbEntity
  8
0
100
AcDbLine
 10
19.96092993047737
 20
-100.9081011158906
 30
0.0
 11
19.83508598414103
 21
-100.68923996238
 31
0.0
  0
LINE
  5
2DD
330
1F
100
AcDbEntity
  8
0
100
AcDbLine
 10
78.63423759552707
 20
-101.9544754726859
 30
0.0
 11
78.58831112426496
 21
-102.2118830432138
 31
0.0
  0
LINE
  5
2DE
330
1F
100
AcDbEntity
  8
0
100
AcDbLine
 10
78.55509981046518
 20
-102.4734884712106
 30
0.0
 11
78.5349321356994
 21
-102.7389639962495
 31
0.0
  0
LINE
  5
2DF
330
1F
100
AcDbEntity
  8
0
100
AcDbLine
 10
78.53537957014758
 20
-103.2883107475067
 30
0.0
 11
78.557133151057
 21
-103.5654642912116
 31
0.0
  0
LINE
  5
2E0
330
1F
100
AcDbEntity
  8
0
100
AcDbLine
 10
19.06094782716237
 20
-99.70375137761904
 30
0.0
 11
18.87943436730454
 21
-99.53071394421951
 31
0.0
  0
LINE
  5
2E1
330
1F
100
AcDbEntity
  8
0
100
AcDbLine
 10
20.59171070081739
 20
-103.3994601614771
 30
0.0
 11
20.5849104952717
 21
-103.1304758210486
 31
0.0
  0
LINE
  5
2E2
330
1F
100
AcDbEntity
  8
0
100
AcDbLine
 10
19.23400369783707
 20
-99.88524640020165
 30
0.0
 11
19.06094782716237
 21
-99.70375137761904
 31
0.0
  0
LINE
  5
2E3
330
1F
100
AcDbEntity
  8
0
100
AcDbLine
 10
78.58831112426496
 20
-102.2118830432138
 30
0.0
 11
78.55509981046518
 21
-102.4734884712106
 31
0.0
  0
LINE
  5
2E4
330
1F
100
AcDbEntity
  8
0
100
AcDbLine
 10
20.18100801626514
 20
-101.3649618914769
 30
0.0
 11
20.07634669626146
 21
-101.1334511325893
 31
0.0
  0
LINE
  5
2E5
330
1F
100
AcDbEntity
  8
0
100
AcDbLine
 10
78.64431978028587
 20
-104.1087684358587
 30
0.0
 11
20.54444973861539
 21
-104.1087684358587
 31
0.0
  0
LINE
  5
2E6
330
1F
100
AcDbEntity
  8
0
100
AcDbLine
 10
20.5849104952717
 20
-103.1304758210486
 30
0.0
 11
20.56472872212015
 21
-102.8650272548156
 31
0.0
  0
LINE
  5
2E7
330
1F
100
AcDbEntity
  8
0
100
AcDbLine
 10
78.59343424689419
 20
-103.8390732627513
 30
0.0
 11
78.64431978028587
 21
-104.1087684358587
 31
0.0
  0
LINE
  5
2E8
330
1F
100
AcDbEntity
  8
0
100
AcDbLine
 10
20.48553353391201
 20
-102.3460499289328
 30
0.0
 11
20.42717664931187
 21
-102.0931774112813
 31
0.0
  0
LINE
  5
2E9
330
1F
100
AcDbEntity
  8
0
100
AcDbLine
 10
20.58019084128066
 20
-103.7572157993124
 30
0.0
 11
20.59171070081739
 21
-103.3994601614771
 31
0.0
  0
LINE
  5
2EA
330
1F
100
AcDbEntity
  8
0
100
AcDbLine
 10
78.52813658153931
 20
-103.0079818579039
 30
0.0
 11
78.53537957014758
 21
-103.2883107475067
 31
0.0
  0
LINE
  5
2EB
330
1F
100
AcDbEntity
  8
0
100
AcDbLine
 10
20.35675125801854
 20
-101.8451531518221
 30
0.0
 11
20.27458562526024
 21
-101.6023052715542
 31
0.0
  0
LINE
  5
2EC
330
1F
100
AcDbEntity
  8
0
100
AcDbLine
 10
19.69914312248067
 20
-100.4771957930566
 30
0.0
 11
19.5534296107244
 21
-100.2722967289196
 31
0.0
  0
LINE
  5
2ED
330
1F
100
AcDbEntity
  8
0
100
AcDbLine
 10
18.87943436730454
 20
-99.53071394421951
 30
0.0
 11
18.68979158349176
 21
-99.3664622210023
 31
0.0
  0
LINE
  5
2EE
330
1F
100
AcDbEntity
  8
0
100
AcDbLine
 10
18.68979158349176
 20
-99.3664622210023
 30
0.0
 11
18.49234774095225
 21
-99.21132432896651
 31
0.0
  0
LINE
  5
2EF
330
1F
100
AcDbEntity
  8
0
100
AcDbLine
 10
78.5349321356994
 20
-102.7389639962495
 30
0.0
 11
78.52813658153931
 21
-103.0079818579039
 31
0.0
  0
LINE
  5
2F0
330
1F
100
AcDbEntity
  8
0
100
AcDbLine
 10
18.28743110491414
 20
-99.0656283891114
 30
0.0
 11
18.07536994060568
 21
-98.9297025224361
 31
0.0
  0
LINE
  5
2F1
330
1F
100
AcDbEntity
  8
0
100
AcDbLine
 10
17.63112708809035
 20
-80.39984818310785
 30
0.0
 11
17.85649251325502
 21
-80.28447614033612
 31
0.0
  0
LINE
  5
2F2
330
1F
100
AcDbEntity
  8
0
100
AcDbLine
 10
14.32727016094299
 20
-80.81226480108879
 30
0.0
 11
14.58130398654983
 21
-80.85640580133291
 31
0.0
  0
LINE
  5
2F3
330
1F
100
AcDbEntity
  8
0
100
AcDbLine
 10
17.16224530523173
 20
-80.59801771391434
 30
0.0
 11
17.39960193033985
 21
-80.50447163097716
 31
0.0
  0
LINE
  5
2F4
330
1F
100
AcDbEntity
  8
0
100
AcDbLine
 10
14.58130398654983
 20
-98.23133856172433
 30
0.0
 11
14.32727016094299
 21
-98.2751903347258
 31
0.0
  0
LINE
  5
2F5
330
1F
100
AcDbEntity
  8
0
100
AcDbLine
 10
18.07536994060568
 20
-98.9297025224361
 30
0.0
 11
17.85649251325502
 21
-98.8038748499398
 31
0.0
  0
LINE
  5
2F6
330
1F
100
AcDbEntity
  8
0
100
AcDbLine
 10
78.557133151057
 20
-103.5654642912116
 30
0.0
 11
78.59343424689419
 21
-103.8390732627513
 31
0.0
  0
LINE
  5
2F7
330
1F
100
AcDbEntity
  8
0
100
AcDbLine
 10
17.39960193033985
 20
-98.58382657148088
 30
0.0
 11
17.16224530523173
 21
-98.49026220751661
 31
0.0
  0
LINE
  5
2F8
330
1F
100
AcDbEntity
  8
0
100
AcDbLine
 10
78.76292208415134
 20
-101.4535649457428
 30
0.0
 11
78.69255074267976
 21
-101.7015935200533
 31
0.0
  0
LINE
  5
2F9
330
1F
100
AcDbEntity
  8
0
100
AcDbLine
 10
17.63112708809035
 20
-98.68847349262167
 30
0.0
 11
17.39960193033985
 21
-98.58382657148088
 31
0.0
  0
LINE
  5
2FA
330
1F
100
AcDbEntity
  8
0
100
AcDbLine
 10
15.63402759285086
 20
-98.17998450039163
 30
0.0
 11
15.36504212262846
 21
-98.17318542463983
 31
0.0
  0
LINE
  5
2FB
330
1F
100
AcDbEntity
  8
0
100
AcDbLine
 10
15.89947945231295
 20
-98.20016298031412
 30
0.0
 11
15.63402759285086
 21
-98.17998450039163
 31
0.0
  0
LINE
  5
2FC
330
1F
100
AcDbEntity
  8
0
100
AcDbLine
 10
17.16224530523173
 20
-98.49026220751661
 30
0.0
 11
16.91938547799414
 21
-98.40810852172801
 31
0.0
  0
LINE
  5
2FD
330
1F
100
AcDbEntity
  8
0
100
AcDbLine
 10
15.36504212262846
 20
-98.17318542463983
 30
0.0
 11
15.0997099732452
 21
-98.17981918990725
 31
0.0
  0
LINE
  5
2FE
330
1F
100
AcDbEntity
  8
0
100
AcDbLine
 10
15.36504212262846
 20
-80.9150573938781
 30
0.0
 11
15.63402759285086
 21
-80.90825842629812
 31
0.0
  0
LINE
  5
2FF
330
1F
100
AcDbEntity
  8
0
100
AcDbLine
 10
16.41846927804334
 20
-80.80890407283583
 30
0.0
 11
16.67135071385531
 21
-80.7505627048734
 31
0.0
  0
LINE
  5
300
330
1F
100
AcDbEntity
  8
0
100
AcDbLine
 10
16.16106943578653
 20
-98.23339274340816
 30
0.0
 11
15.89947945231295
 21
-98.20016298031412
 31
0.0
  0
LINE
  5
301
330
1F
100
AcDbEntity
  8
0
100
AcDbLine
 10
16.67135071385531
 20
-98.33769363511429
 30
0.0
 11
16.41846927804334
 21
-98.27934566867462
 31
0.0
  0
LINE
  5
302
330
1F
100
AcDbEntity
  8
0
100
AcDbLine
 10
14.32727016094299
 20
-98.2751903347258
 30
0.0
 11
14.32727016094299
 21
-80.81226480108879
 31
0.0
  0
LINE
  5
303
330
1F
100
AcDbEntity
  8
0
100
AcDbLine
 10
17.85649251325502
 20
-98.8038748499398
 30
0.0
 11
17.63112708809035
 21
-98.68847349262167
 31
0.0
  0
LINE
  5
304
330
1F
100
AcDbEntity
  8
0
100
AcDbLine
 10
20.56472872212015
 20
-102.8650272548156
 30
0.0
 11
20.53149364659084
 21
-102.6034425837773
 31
0.0
  0
LINE
  5
305
330
1F
100
AcDbEntity
  8
0
100
AcDbLine
 10
18.49234774095225
 20
-99.21132432896651
 30
0.0
 11
18.28743110491414
 21
-99.0656283891114
 31
0.0
  0
LINE
  5
306
330
1F
100
AcDbEntity
  8
0
100
AcDbLine
 10
17.39960193033985
 20
-80.50447163097716
 30
0.0
 11
17.63112708809035
 21
-80.39984818310785
 31
0.0
  0
LINE
  5
307
330
1F
100
AcDbEntity
  8
0
100
AcDbLine
 10
14.83862392593478
 20
-80.88862079314636
 30
0.0
 11
15.0997099732452
 21
-80.90835593712838
 31
0.0
  0
LINE
  5
308
330
1F
100
AcDbEntity
  8
0
100
AcDbLine
 10
14.83862392593478
 20
-98.19937587452677
 30
0.0
 11
14.58130398654983
 21
-98.23133856172433
 31
0.0
  0
LINE
  5
309
330
1F
100
AcDbEntity
  8
0
100
AcDbLine
 10
16.91938547799414
 20
-98.40810852172801
 30
0.0
 11
16.67135071385531
 21
-98.33769363511429
 31
0.0
  0
LINE
  5
30A
330
1F
100
AcDbEntity
  8
0
100
AcDbLine
 10
15.0997099732452
 20
-98.17981918990725
 30
0.0
 11
14.83862392593478
 21
-98.19937587452677
 31
0.0
  0
LINE
  5
30B
330
1F
100
AcDbEntity
  8
0
100
AcDbLine
 10
14.58130398654983
 20
-80.85640580133291
 30
0.0
 11
14.83862392593478
 21
-80.88862079314636
 31
0.0
  0
LINE
  5
30C
330
1F
100
AcDbEntity
  8
0
100
AcDbLine
 10
19.5534296107244
 20
-100.2722967289196
 30
0.0
 11
19.39827371410048
 21
-100.0748708909683
 31
0.0
  0
LINE
  5
30D
330
1F
100
AcDbEntity
  8
0
100
AcDbLine
 10
16.41846927804334
 20
-98.27934566867462
 30
0.0
 11
16.16106943578653
 21
-98.23339274340816
 31
0.0
  0
LINE
  5
30E
330
1F
100
AcDbEntity
  8
0
100
AcDbLine
 10
16.67135071385531
 20
-80.7505627048734
 30
0.0
 11
16.91938547799414
 21
-80.68015766188968
 31
0.0
  0
LINE
  5
30F
330
1F
100
AcDbEntity
  8
0
100
AcDbLine
 10
16.91938547799414
 20
-80.68015766188968
 30
0.0
 11
17.16224530523173
 21
-80.59801771391434
 31
0.0
  0
LINE
  5
310
330
1F
100
AcDbEntity
  8
0
100
AcDbLine
 10
19.96092993047737
 20
-78.18129351550623
 30
0.0
 11
20.07634669626146
 21
-77.95610781170788
 31
0.0
  0
LINE
  5
311
330
1F
100
AcDbEntity
  8
0
100
AcDbLine
 10
78.64934125751984
 20
-75.2522587488689
 30
0.0
 11
78.64116904947241
 21
-75.5395167847529
 31
0.0
  0
LINE
  5
312
330
1F
100
AcDbEntity
  8
0
100
AcDbLine
 10
18.87943436730454
 20
-79.55789395398162
 30
0.0
 11
19.06094782716237
 21
-79.38493451241959
 31
0.0
  0
LINE
  5
313
330
1F
100
AcDbEntity
  8
0
100
AcDbLine
 10
78.64116904947241
 20
-75.5395167847529
 30
0.0
 11
78.64795685132316
 21
-75.8082126190838
 31
0.0
  0
LINE
  5
314
330
1F
100
AcDbEntity
  8
0
100
AcDbLine
 10
20.48553353391201
 20
-76.74456747601613
 30
0.0
 11
20.53149364659084
 21
-76.48743843574583
 31
0.0
  0
LINE
  5
315
330
1F
100
AcDbEntity
  8
0
100
AcDbLine
 10
20.5849104952717
 20
-75.96098954231104
 30
0.0
 11
20.59171070081739
 21
-75.69232722920601
 31
0.0
  0
LINE
  5
316
330
1F
100
AcDbEntity
  8
0
100
AcDbLine
 10
78.7471616032442
 20
-76.59185318423675
 30
0.0
 11
78.80542185440721
 21
-76.8444896951505
 31
0.0
  0
LINE
  5
317
330
1F
100
AcDbEntity
  8
0
100
AcDbLine
 10
19.39827371410048
 20
-79.01400278524218
 30
0.0
 11
19.5534296107244
 21
-78.81668803968627
 31
0.0
  0
LINE
  5
318
330
1F
100
AcDbEntity
  8
0
100
AcDbLine
 10
18.28743110491414
 20
-80.02280135020433
 30
0.0
 11
18.49234774095225
 21
-79.8771561429037
 31
0.0
  0
LINE
  5
319
330
1F
100
AcDbEntity
  8
0
100
AcDbLine
 10
20.35675125801854
 20
-77.24499089351394
 30
0.0
 11
20.42717664931187
 21
-76.99719455194874
 31
0.0
  0
LINE
  5
31A
330
1F
100
AcDbEntity
  8
0
100
AcDbLine
 10
20.57964930942211
 20
-75.32733475653349
 30
0.0
 11
20.5401174837469
 21
-74.97120371427391
 31
0.0
  0
LINE
  5
31B
330
1F
100
AcDbEntity
  8
0
100
AcDbLine
 10
15.89947945231295
 20
-80.88808070357791
 30
0.0
 11
16.16106943578653
 21
-80.85485299574727
 31
0.0
  0
LINE
  5
31C
330
1F
100
AcDbEntity
  8
0
100
AcDbLine
 10
20.18100801626514
 20
-77.72477629342323
 30
0.0
 11
20.27458562526024
 21
-77.48762773068202
 31
0.0
  0
LINE
  5
31D
330
1F
100
AcDbEntity
  8
0
100
AcDbLine
 10
20.5401174837469
 20
-74.97120371427391
 30
0.0
 11
78.6722825162554
 21
-74.97120371427391
 31
0.0
  0
LINE
  5
31E
330
1F
100
AcDbEntity
  8
0
100
AcDbLine
 10
20.53149364659084
 20
-76.48743843574583
 30
0.0
 11
20.56472872212015
 21
-76.22613620116755
 31
0.0
  0
LINE
  5
31F
330
1F
100
AcDbEntity
  8
0
100
AcDbLine
 10
78.64795685132316
 20
-75.8082126190838
 30
0.0
 11
78.66810256722209
 21
-76.07338623674622
 31
0.0
  0
LINE
  5
320
330
1F
100
AcDbEntity
  8
0
100
AcDbLine
 10
15.0997099732452
 20
-80.90835593712838
 30
0.0
 11
15.36504212262846
 21
-80.9150573938781
 31
0.0
  0
LINE
  5
321
330
1F
100
AcDbEntity
  8
0
100
AcDbLine
 10
19.69914312248067
 20
-78.61191239952515
 30
0.0
 11
19.83508598414103
 21
-78.40000463478857
 31
0.0
  0
LINE
  5
322
330
1F
100
AcDbEntity
  8
0
100
AcDbLine
 10
19.06094782716237
 20
-79.38493451241959
 30
0.0
 11
19.23400369783707
 21
-79.20352786616318
 31
0.0
  0
LINE
  5
323
330
1F
100
AcDbEntity
  8
0
100
AcDbLine
 10
19.83508598414103
 20
-78.40000463478857
 30
0.0
 11
19.96092993047737
 21
-78.18129351550623
 31
0.0
  0
LINE
  5
324
330
1F
100
AcDbEntity
  8
0
100
AcDbLine
 10
78.6722825162554
 20
-74.97120371427391
 30
0.0
 11
78.64934125751984
 21
-75.2522587488689
 31
0.0
  0
LINE
  5
325
330
1F
100
AcDbEntity
  8
0
100
AcDbLine
 10
78.7012796626891
 20
-76.33470922828295
 30
0.0
 11
78.7471616032442
 21
-76.59185318423675
 31
0.0
  0
LINE
  5
326
330
1F
100
AcDbEntity
  8
0
100
AcDbLine
 10
78.66810256722209
 20
-76.07338623674622
 30
0.0
 11
78.7012796626891
 21
-76.33470922828295
 31
0.0
  0
LINE
  5
327
330
1F
100
AcDbEntity
  8
0
100
AcDbLine
 10
19.23400369783707
 20
-79.20352786616318
 30
0.0
 11
19.39827371410048
 21
-79.01400278524218
 31
0.0
  0
LINE
  5
328
330
1F
100
AcDbEntity
  8
0
100
AcDbLine
 10
18.68979158349176
 20
-79.72207742081955
 30
0.0
 11
18.87943436730454
 21
-79.55789395398162
 31
0.0
  0
LINE
  5
329
330
1F
100
AcDbEntity
  8
0
100
AcDbLine
 10
19.5534296107244
 20
-78.81668803968627
 30
0.0
 11
19.69914312248067
 21
-78.61191239952515
 31
0.0
  0
LINE
  5
32A
330
1F
100
AcDbEntity
  8
0
100
AcDbLine
 10
15.63402759285086
 20
-80.90825842629812
 30
0.0
 11
15.89947945231295
 21
-80.88808070357791
 31
0.0
  0
LINE
  5
32B
330
1F
100
AcDbEntity
  8
0
100
AcDbLine
 10
18.07536994060568
 20
-80.15868427269172
 30
0.0
 11
18.28743110491414
 21
-80.02280135020433
 31
0.0
  0
LINE
  5
32C
330
1F
100
AcDbEntity
  8
0
100
AcDbLine
 10
18.49234774095225
 20
-79.8771561429037
 30
0.0
 11
18.68979158349176
 21
-79.72207742081955
 31
0.0
  0
LINE
  5
32D
330
1F
100
AcDbEntity
  8
0
100
AcDbLine
 10
16.16106943578653
 20
-80.85485299574727
 30
0.0
 11
16.41846927804334
 21
-80.80890407283583
 31
0.0
  0
LINE
  5
32E
330
1F
100
AcDbEntity
  8
0
100
AcDbLine
 10
17.85649251325502
 20
-80.28447614033612
 30
0.0
 11
18.07536994060568
 21
-80.15868427269172
 31
0.0
  0
LINE
  5
32F
330
1F
100
AcDbEntity
  8
0
100
AcDbLine
 10
20.59171070081739
 20
-75.69232722920601
 30
0.0
 11
20.57964930942211
 21
-75.32733475653349
 31
0.0
  0
LINE
  5
330
330
1F
100
AcDbEntity
  8
0
100
AcDbLine
 10
78.95777115063703
 20
-77.33492674402892
 30
0.0
 11
79.05120712674368
 21
-77.57207046307916
 31
0.0
  0
LINE
  5
331
330
1F
100
AcDbEntity
  8
0
100
AcDbLine
 10
81.15458397997457
 20
-80.00567922724603
 30
0.0
 11
81.3733157360245
 21
-80.13144252552726
 31
0.0
  0
LINE
  5
332
330
1F
100
AcDbEntity
  8
0
100
AcDbLine
 10
79.39664195326989
 20
-78.24726148518799
 30
0.0
 11
79.5324074132472
 21
-78.4591504160196
 31
0.0
  0
LINE
  5
333
330
1F
100
AcDbEntity
  8
0
100
AcDbLine
 10
79.27096906254017
 20
-78.02856624311589
 30
0.0
 11
79.39664195326989
 21
-78.24726148518799
 31
0.0
  0
LINE
  5
334
330
1F
100
AcDbEntity
  8
0
100
AcDbLine
 10
20.56472872212015
 20
-76.22613620116755
 30
0.0
 11
20.5849104952717
 21
-75.96098954231104
 31
0.0
  0
LINE
  5
335
330
1F
100
AcDbEntity
  8
0
100
AcDbLine
 10
80.73792867569574
 20
-79.72420982270353
 30
0.0
 11
80.94267944837163
 21
-79.86982552315239
 31
0.0
  0
LINE
  5
336
330
1F
100
AcDbEntity
  8
0
100
AcDbLine
 10
20.07634669626146
 20
-77.95610781170788
 30
0.0
 11
20.18100801626514
 21
-77.72477629342323
 31
0.0
  0
LINE
  5
337
330
1F
100
AcDbEntity
  8
0
100
AcDbLine
 10
79.83290990302434
 20
-78.86119570613266
 30
0.0
 11
79.99699386386402
 21
-79.05069524649971
 31
0.0
  0
LINE
  5
338
330
1F
100
AcDbEntity
  8
0
100
AcDbLine
 10
80.1698642560311
 20
-79.23207483779751
 30
0.0
 11
80.35119454504544
 21
-79.40500607056887
 31
0.0
  0
LINE
  5
339
330
1F
100
AcDbEntity
  8
0
100
AcDbLine
 10
20.42717664931187
 20
-76.99719455194874
 30
0.0
 11
20.48553353391201
 21
-76.74456747601613
 31
0.0
  0
LINE
  5
33A
330
1F
100
AcDbEntity
  8
0
100
AcDbLine
 10
78.80542185440721
 20
-76.8444896951505
 30
0.0
 11
78.8757338816982
 21
-77.09229035156692
 31
0.0
  0
LINE
  5
33B
330
1F
100
AcDbEntity
  8
0
100
AcDbLine
 10
81.82995478354512
 20
-80.35138426682366
 30
0.0
 11
82.0672090060557
 21
-80.44490589092445
 31
0.0
  0
LINE
  5
33C
330
1F
100
AcDbEntity
  8
0
100
AcDbLine
 10
83.32976572690906
 20
-80.73488516766643
 30
0.0
 11
83.5952484513794
 21
-80.75505638806206
 31
0.0
  0
LINE
  5
33D
330
1F
100
AcDbEntity
  8
0
100
AcDbLine
 10
80.35119454504544
 20
-79.40500607056887
 30
0.0
 11
80.540658196427
 21
-79.5691605353566
 31
0.0
  0
LINE
  5
33E
330
1F
100
AcDbEntity
  8
0
100
AcDbLine
 10
79.05120712674368
 20
-77.57207046307916
 30
0.0
 11
79.15571527553809
 21
-77.80339309926057
 31
0.0
  0
LINE
  5
33F
330
1F
100
AcDbEntity
  8
0
100
AcDbLine
 10
82.30998431509306
 20
-80.52702347138403
 30
0.0
 11
82.55795417617713
 21
-80.59740859874523
 31
0.0
  0
LINE
  5
340
330
1F
100
AcDbEntity
  8
0
100
AcDbLine
 10
79.99699386386402
 20
-79.05069524649971
 30
0.0
 11
80.1698642560311
 21
-79.23207483779751
 31
0.0
  0
LINE
  5
341
330
1F
100
AcDbEntity
  8
0
100
AcDbLine
 10
82.55795417617713
 20
-80.59740859874523
 30
0.0
 11
82.81079205482787
 21
-80.65573286355081
 31
0.0
  0
LINE
  5
342
330
1F
100
AcDbEntity
  8
0
100
AcDbLine
 10
84.85212101077133
 20
-80.66764502599644
 30
0.0
 11
85.16830177091957
 21
-80.5972274230697
 31
0.0
  0
LINE
  5
343
330
1F
100
AcDbEntity
  8
0
100
AcDbLine
 10
82.0672090060557
 20
-80.44490589092445
 30
0.0
 11
82.30998431509306
 21
-80.52702347138403
 31
0.0
  0
LINE
  5
344
330
1F
100
AcDbEntity
  8
0
100
AcDbLine
 10
82.81079205482787
 20
-80.65573286355081
 30
0.0
 11
83.06817141656518
 21
-80.70166785634362
 31
0.0
  0
LINE
  5
345
330
1F
100
AcDbEntity
  8
0
100
AcDbLine
 10
83.5952484513794
 20
-80.75505638806206
 30
0.0
 11
83.86429305549619
 21
-80.76185310807332
 31
0.0
  0
LINE
  5
346
330
1F
100
AcDbEntity
  8
0
100
AcDbLine
 10
79.5324074132472
 20
-78.4591504160196
 30
0.0
 11
79.67793890799203
 21
-78.66390462615354
 31
0.0
  0
LINE
  5
347
330
1F
100
AcDbEntity
  8
0
100
AcDbLine
 10
20.27458562526024
 20
-77.48762773068202
 30
0.0
 11
20.35675125801854
 21
-77.24499089351394
 31
0.0
  0
LINE
  5
348
330
1F
100
AcDbEntity
  8
0
100
AcDbLine
 10
80.94267944837163
 20
-79.86982552315239
 30
0.0
 11
81.15458397997457
 21
-80.00567922724603
 31
0.0
  0
LINE
  5
349
330
1F
100
AcDbEntity
  8
0
100
AcDbLine
 10
41.30973500611682
 20
-84.43127298170656
 30
0.0
 11
39.9970617809564
 21
-83.22533076285231
 31
0.0
  0
LINE
  5
34A
330
1F
100
AcDbEntity
  8
0
100
AcDbLine
 10
84.52899879679966
 20
-80.71926901192256
 30
0.0
 11
84.85212101077133
 21
-80.66764502599644
 31
0.0
  0
LINE
  5
34B
330
1F
100
AcDbEntity
  8
0
100
AcDbLine
 10
81.3733157360245
 20
-80.13144252552726
 30
0.0
 11
81.59854818204137
 21
-80.24678700853883
 31
0.0
  0
LINE
  5
34C
330
1F
100
AcDbEntity
  8
0
100
AcDbLine
 10
83.06817141656518
 20
-80.70166785634362
 30
0.0
 11
83.32976572690906
 21
-80.73488516766643
 31
0.0
  0
LINE
  5
34D
330
1F
100
AcDbEntity
  8
0
100
AcDbLine
 10
78.8757338816982
 20
-77.09229035156692
 30
0.0
 11
78.95777115063703
 21
-77.33492674402892
 31
0.0
  0
LINE
  5
34E
330
1F
100
AcDbEntity
  8
0
100
AcDbLine
 10
79.67793890799203
 20
-78.66390462615354
 30
0.0
 11
79.83290990302434
 21
-78.86119570613266
 31
0.0
  0
LINE
  5
34F
330
1F
100
AcDbEntity
  8
0
100
AcDbLine
 10
81.59854818204137
 20
-80.24678700853883
 30
0.0
 11
81.82995478354512
 21
-80.35138426682366
 31
0.0
  0
LINE
  5
350
330
1F
100
AcDbEntity
  8
0
100
AcDbLine
 10
47.33743449030041
 20
-87.8477563240457
 30
0.0
 11
47.44852169349086
 21
-87.78086906268842
 31
0.0
  0
LINE
  5
351
330
1F
100
AcDbEntity
  8
0
100
AcDbLine
 10
47.76267786294061
 20
-87.29942262534009
 30
0.0
 11
47.81302157601574
 21
-87.12206748016393
 31
0.0
  0
LINE
  5
352
330
1F
100
AcDbEntity
  8
0
100
AcDbLine
 10
47.85382828999219
 20
-86.92050724550845
 30
0.0
 11
47.88596857117818
 21
-86.69403808380184
 31
0.0
  0
LINE
  5
353
330
1F
100
AcDbEntity
  8
0
100
AcDbLine
 10
80.540658196427
 20
-79.5691605353566
 30
0.0
 11
80.73792867569574
 21
-79.72420982270353
 31
0.0
  0
LINE
  5
354
330
1F
100
AcDbEntity
  8
0
100
AcDbLine
 10
39.9970617809564
 20
-83.22533076285231
 30
0.0
 11
39.14439525456208
 21
-82.9492479753223
 31
0.0
  0
LINE
  5
355
330
1F
100
AcDbEntity
  8
0
100
AcDbLine
 10
33.0067716299297
 20
-84.95468813809363
 30
0.0
 11
33.96056960903768
 21
-85.5035530218009
 31
0.0
  0
LINE
  5
356
330
1F
100
AcDbEntity
  8
0
100
AcDbLine
 10
39.73082502721849
 20
-84.14810104984625
 30
0.0
 11
41.30973500611682
 21
-84.43127298170656
 31
0.0
  0
LINE
  5
357
330
1F
100
AcDbEntity
  8
0
100
AcDbLine
 10
33.74286111622578
 20
-85.61082782999797
 30
0.0
 11
32.56291242658266
 21
-91.3234966361641
 31
0.0
  0
LINE
  5
358
330
1F
100
AcDbEntity
  8
0
100
AcDbLine
 10
33.91142521474622
 20
-80.5365758549105
 30
0.0
 11
26.68207336324778
 21
-80.05845245396698
 31
0.0
  0
LINE
  5
359
330
1F
100
AcDbEntity
  8
0
100
AcDbLine
 10
35.48009531850078
 20
-88.24602031411084
 30
0.0
 11
35.75657194738244
 21
-88.07627469153537
 31
0.0
  0
LINE
  5
35A
330
1F
100
AcDbEntity
  8
0
100
AcDbLine
 10
47.70192658445868
 20
-87.45327651860873
 30
0.0
 11
47.76267786294061
 21
-87.29942262534009
 31
0.0
  0
LINE
  5
35B
330
1F
100
AcDbEntity
  8
0
100
AcDbLine
 10
33.74286111622578
 20
-85.61082782999797
 30
0.0
 11
35.48009531850078
 21
-88.24602031411084
 31
0.0
  0
LINE
  5
35C
330
1F
100
AcDbEntity
  8
0
100
AcDbLine
 10
47.54571906604199
 20
-87.69329589971106
 30
0.0
 11
47.62989717426186
 21
-87.5843329975418
 31
0.0
  0
LINE
  5
35D
330
1F
100
AcDbEntity
  8
0
100
AcDbLine
 10
36.35954305680954
 20
-88.81354570188647
 30
0.0
 11
35.75657194738244
 21
-88.07627469153537
 31
0.0
  0
LINE
  5
35E
330
1F
100
AcDbEntity
  8
0
100
AcDbLine
 10
47.62989717426186
 20
-87.5843329975418
 30
0.0
 11
47.70192658445868
 21
-87.45327651860873
 31
0.0
  0
LINE
  5
35F
330
1F
100
AcDbEntity
  8
0
100
AcDbLine
 10
47.88596857117818
 20
-86.69403808380184
 30
0.0
 11
47.91031298588177
 21
-86.4419561574721
 31
0.0
  0
LINE
  5
360
330
1F
100
AcDbEntity
  8
0
100
AcDbLine
 10
47.91031298588177
 20
-86.4419561574721
 30
0.0
 11
47.93909648107442
 21
-85.85813866065612
 31
0.0
  0
LINE
  5
361
330
1F
100
AcDbEntity
  8
0
100
AcDbLine
 10
39.1632996394429
 20
-86.34691731629401
 30
0.0
 11
39.73082502721849
 21
-84.14810104984625
 31
0.0
  0
LINE
  5
362
330
1F
100
AcDbEntity
  8
0
100
AcDbLine
 10
47.21158689016249
 20
-87.89466152135485
 30
0.0
 11
47.33743449030041
 21
-87.8477563240457
 31
0.0
  0
LINE
  5
363
330
1F
100
AcDbEntity
  8
0
100
AcDbLine
 10
83.86429305549619
 20
-80.76185310807332
 30
0.0
 11
84.19952589103211
 21
-80.75102862467314
 31
0.0
  0
LINE
  5
364
330
1F
100
AcDbEntity
  8
0
100
AcDbLine
 10
36.01335650867993
 20
-86.68483319603831
 30
0.0
 11
39.12706623508803
 21
-86.09013275499655
 31
0.0
  0
LINE
  5
365
330
1F
100
AcDbEntity
  8
0
100
AcDbLine
 10
47.81302157601574
 20
-87.12206748016393
 30
0.0
 11
47.85382828999219
 21
-86.92050724550845
 31
0.0
  0
LINE
  5
366
330
1F
100
AcDbEntity
  8
0
100
AcDbLine
 10
39.14439525456208
 20
-82.9492479753223
 30
0.0
 11
37.11597321335412
 21
-83.94874313788034
 31
0.0
  0
LINE
  5
367
330
1F
100
AcDbEntity
  8
0
100
AcDbLine
 10
32.56291242658266
 20
-91.3234966361641
 30
0.0
 11
36.35954305680954
 21
-88.81354570188647
 31
0.0
  0
LINE
  5
368
330
1F
100
AcDbEntity
  8
0
100
AcDbLine
 10
47.93909648107442
 20
-85.85813866065612
 30
0.0
 11
47.94714330603527
 21
-85.16342405448573
 31
0.0
  0
LINE
  5
369
330
1F
100
AcDbEntity
  8
0
100
AcDbLine
 10
33.91142521474622
 20
-80.5365758549105
 30
0.0
 11
33.0067716299297
 21
-84.95468813809363
 31
0.0
  0
LINE
  5
36A
330
1F
100
AcDbEntity
  8
0
100
AcDbLine
 10
26.62890478077054
 20
-80.87449173465475
 30
0.0
 11
30.65947717389733
 21
-83.1378979827786
 31
0.0
  0
LINE
  5
36B
330
1F
100
AcDbEntity
  8
0
100
AcDbLine
 10
47.07010832676892
 20
-87.92228849218763
 30
0.0
 11
47.21158689016249
 21
-87.89466152135485
 31
0.0
  0
LINE
  5
36C
330
1F
100
AcDbEntity
  8
0
100
AcDbLine
 10
79.15571527553809
 20
-77.80339309926057
 30
0.0
 11
79.27096906254017
 21
-78.02856624311589
 31
0.0
  0
LINE
  5
36D
330
1F
100
AcDbEntity
  8
0
100
AcDbLine
 10
39.9970617809564
 20
-83.22533076285231
 30
0.0
 11
39.73082502721849
 21
-84.14810104984625
 31
0.0
  0
LINE
  5
36E
330
1F
100
AcDbEntity
  8
0
100
AcDbLine
 10
84.19952589103211
 20
-80.75102862467314
 30
0.0
 11
84.52899879679966
 21
-80.71926901192256
 31
0.0
  0
LINE
  5
36F
330
1F
100
AcDbEntity
  8
0
100
AcDbLine
 10
39.12706623508803
 20
-86.09013275499655
 30
0.0
 11
37.11597321335412
 21
-83.94874313788034
 31
0.0
  0
LINE
  5
370
330
1F
100
AcDbEntity
  8
0
100
AcDbLine
 10
46.91212823381159
 20
-87.9313410741159
 30
0.0
 11
47.07010832676892
 21
-87.92228849218763
 31
0.0
  0
LINE
  5
371
330
1F
100
AcDbEntity
  8
0
100
AcDbLine
 10
46.01182940358926
 20
-83.20870933090436
 30
0.0
 11
45.97107047749164
 21
-83.41054311991661
 31
0.0
  0
LINE
  5
372
330
1F
100
AcDbEntity
  8
0
100
AcDbLine
 10
27.73678050305562
 20
-80.87449173465475
 30
0.0
 11
26.62890478077054
 21
-80.87449173465475
 31
0.0
  0
LINE
  5
373
330
1F
100
AcDbEntity
  8
0
100
AcDbLine
 10
47.44852169349086
 20
-87.78086906268842
 30
0.0
 11
47.54571906604199
 21
-87.69329589971106
 31
0.0
  0
LINE
  5
374
330
1F
100
AcDbEntity
  8
0
100
AcDbLine
 10
26.68207336324778
 20
-80.05845245396698
 30
0.0
 11
27.73678050305562
 21
-80.87449173465475
 31
0.0
  0
LINE
  5
375
330
1F
100
AcDbEntity
  8
0
100
AcDbLine
 10
54.03532522582499
 20
-83.5106618991543
 30
0.0
 11
54.16256684742695
 21
-83.65378275021554
 31
0.0
  0
LINE
  5
376
330
1F
100
AcDbEntity
  8
0
100
AcDbLine
 10
52.27545976103463
 20
-83.29203764179361
 30
0.0
 11
52.42905942663387
 21
-83.21927314440597
 31
0.0
  0
LINE
  5
377
330
1F
100
AcDbEntity
  8
0
100
AcDbLine
 10
54.68882889217846
 20
-86.46009920548215
 30
0.0
 11
54.66956056942754
 21
-86.809442445891
 31
0.0
  0
LINE
  5
378
330
1F
100
AcDbEntity
  8
0
100
AcDbLine
 10
52.77528597427577
 20
-83.13640184717504
 30
0.0
 11
52.97058974675561
 21
-83.12608274222809
 31
0.0
  0
LINE
  5
379
330
1F
100
AcDbEntity
  8
0
100
AcDbLine
 10
52.0005954201864
 20
-83.50075509687244
 30
0.0
 11
52.13308457395836
 21
-83.3858295750985
 31
0.0
  0
LINE
  5
37A
330
1F
100
AcDbEntity
  8
0
100
AcDbLine
 10
52.13308457395836
 20
-83.3858295750985
 30
0.0
 11
52.27545976103463
 21
-83.29203764179361
 31
0.0
  0
LINE
  5
37B
330
1F
100
AcDbEntity
  8
0
100
AcDbLine
 10
51.73865399869032
 20
-81.43335261269333
 30
0.0
 11
51.73865399869032
 21
-83.79443151603463
 31
0.0
  0
LINE
  5
37C
330
1F
100
AcDbEntity
  8
0
100
AcDbLine
 10
54.16256684742695
 20
-83.65378275021554
 30
0.0
 11
54.27582921640302
 21
-83.82086811676638
 31
0.0
  0
LINE
  5
37D
330
1F
100
AcDbEntity
  8
0
100
AcDbLine
 10
52.42905942663387
 20
-83.21927314440597
 30
0.0
 11
52.59522201597471
 21
-83.1674299303837
 31
0.0
  0
LINE
  5
37E
330
1F
100
AcDbEntity
  8
0
100
AcDbLine
 10
53.38380855447458
 20
-83.16742762271954
 30
0.0
 11
53.56834601592184
 21
-83.2198884253653
 31
0.0
  0
LINE
  5
37F
330
1F
100
AcDbEntity
  8
0
100
AcDbLine
 10
52.97058974675561
 20
-83.12608274222809
 30
0.0
 11
53.18460242573053
 21
-83.1363323287919
 31
0.0
  0
LINE
  5
380
330
1F
100
AcDbEntity
  8
0
100
AcDbLine
 10
52.1136586569751
 20
-87.81439480775045
 30
0.0
 11
52.19470468800024
 21
-87.8654930308565
 31
0.0
  0
LINE
  5
381
330
1F
100
AcDbEntity
  8
0
100
AcDbLine
 10
52.19470468800024
 20
-87.8654930308565
 30
0.0
 11
52.2860527087964
 21
-87.90204604669891
 31
0.0
  0
LINE
  5
382
330
1F
100
AcDbEntity
  8
0
100
AcDbLine
 10
51.73865399869032
 20
-83.79443151603463
 30
0.0
 11
51.87665385450024
 21
-83.6369203596672
 31
0.0
  0
LINE
  5
383
330
1F
100
AcDbEntity
  8
0
100
AcDbLine
 10
51.87665385450024
 20
-83.6369203596672
 30
0.0
 11
52.0005954201864
 21
-83.50075509687244
 31
0.0
  0
LINE
  5
384
330
1F
100
AcDbEntity
  8
0
100
AcDbLine
 10
52.38826867400125
 20
-87.92401000965846
 30
0.0
 11
52.50191853825251
 21
-87.9313410741159
 31
0.0
  0
LINE
  5
385
330
1F
100
AcDbEntity
  8
0
100
AcDbLine
 10
54.63727817458977
 20
-85.03395572926505
 30
0.0
 11
54.66956056942754
 21
-85.35574401719377
 31
0.0
  0
LINE
  5
386
330
1F
100
AcDbEntity
  8
0
100
AcDbLine
 10
52.88407387857883
 20
-84.35096011481873
 30
0.0
 11
52.80427590925895
 21
-84.2998402573611
 31
0.0
  0
LINE
  5
387
330
1F
100
AcDbEntity
  8
0
100
AcDbLine
 10
54.63727817458977
 20
-87.13119756114729
 30
0.0
 11
54.591843824731
 21
-87.42588262185714
 31
0.0
  0
LINE
  5
388
330
1F
100
AcDbEntity
  8
0
100
AcDbLine
 10
54.66956056942754
 20
-85.35574401719377
 30
0.0
 11
54.68882889217846
 21
-85.70513543009214
 31
0.0
  0
LINE
  5
389
330
1F
100
AcDbEntity
  8
0
100
AcDbLine
 10
54.37525021568727
 20
-84.01243780016111
 30
0.0
 11
54.46096772821392
 21
-84.22901160175405
 31
0.0
  0
LINE
  5
38A
330
1F
100
AcDbEntity
  8
0
100
AcDbLine
 10
54.591843824731
 20
-87.42588262185714
 30
0.0
 11
54.5331196369171
 21
-87.69401569862674
 31
0.0
  0
LINE
  5
38B
330
1F
100
AcDbEntity
  8
0
100
AcDbLine
 10
50.29719465152945
 20
-81.43335261269333
 30
0.0
 11
51.73865399869032
 21
-81.43335261269333
 31
0.0
  0
LINE
  5
38C
330
1F
100
AcDbEntity
  8
0
100
AcDbLine
 10
54.69522102577673
 20
-86.08264976931456
 30
0.0
 11
54.68882889217846
 21
-86.46009920548215
 31
0.0
  0
LINE
  5
38D
330
1F
100
AcDbEntity
  8
0
100
AcDbLine
 10
54.591843824731
 20
-84.73925076495172
 30
0.0
 11
54.63727817458977
 21
-85.03395572926505
 31
0.0
  0
LINE
  5
38E
330
1F
100
AcDbEntity
  8
0
100
AcDbLine
 10
54.27582921640302
 20
-83.82086811676638
 30
0.0
 11
54.37525021568727
 21
-84.01243780016111
 31
0.0
  0
LINE
  5
38F
330
1F
100
AcDbEntity
  8
0
100
AcDbLine
 10
54.66956056942754
 20
-86.809442445891
 30
0.0
 11
54.63727817458977
 21
-87.13119756114729
 31
0.0
  0
LINE
  5
390
330
1F
100
AcDbEntity
  8
0
100
AcDbLine
 10
52.59522201597471
 20
-83.1674299303837
 30
0.0
 11
52.77528597427577
 21
-83.13640184717504
 31
0.0
  0
LINE
  5
391
330
1F
100
AcDbEntity
  8
0
100
AcDbLine
 10
52.2860527087964
 20
-87.90204604669891
 30
0.0
 11
52.38826867400125
 21
-87.92401000965846
 31
0.0
  0
LINE
  5
392
330
1F
100
AcDbEntity
  8
0
100
AcDbLine
 10
53.01551458359617
 20
-84.49666526129235
 30
0.0
 11
52.9543019645856
 21
-84.41658364158494
 31
0.0
  0
LINE
  5
393
330
1F
100
AcDbEntity
  8
0
100
AcDbLine
 10
53.18460242573053
 20
-83.1363323287919
 30
0.0
 11
53.38380855447458
 21
-83.16742762271954
 31
0.0
  0
LINE
  5
394
330
1F
100
AcDbEntity
  8
0
100
AcDbLine
 10
53.73835269300659
 20
-83.29423453808349
 30
0.0
 11
53.89396646866292
 21
-83.39098576222838
 31
0.0
  0
LINE
  5
395
330
1F
100
AcDbEntity
  8
0
100
AcDbLine
 10
53.89396646866292
 20
-88.77423445044484
 30
0.0
 11
53.73835269300659
 21
-88.87100961660552
 31
0.0
  0
LINE
  5
396
330
1F
100
AcDbEntity
  8
0
100
AcDbLine
 10
54.68882889217846
 20
-85.70513543009214
 30
0.0
 11
54.69522102577673
 21
-86.08264976931456
 31
0.0
  0
LINE
  5
397
330
1F
100
AcDbEntity
  8
0
100
AcDbLine
 10
58.00066687585784
 20
-83.1423925433604
 30
0.0
 11
58.21537502712198
 21
-83.12608274222809
 31
0.0
  0
LINE
  5
398
330
1F
100
AcDbEntity
  8
0
100
AcDbLine
 10
52.24021096005897
 20
-88.86405585523984
 30
0.0
 11
52.08925433915576
 21
-88.76148941353917
 31
0.0
  0
LINE
  5
399
330
1F
100
AcDbEntity
  8
0
100
AcDbLine
 10
56.89955107114812
 20
-83.27298556640594
 30
0.0
 11
56.89955107114812
 21
-84.02482870676938
 31
0.0
  0
LINE
  5
39A
330
1F
100
AcDbEntity
  8
0
100
AcDbLine
 10
57.03549095207561
 20
-83.83005338938445
 30
0.0
 11
57.16241555831223
 21
-83.65494398605644
 31
0.0
  0
LINE
  5
39B
330
1F
100
AcDbEntity
  8
0
100
AcDbLine
 10
51.81839302642117
 20
-88.47904054978548
 30
0.0
 11
51.69651297406021
 21
-88.29721968982967
 31
0.0
  0
LINE
  5
39C
330
1F
100
AcDbEntity
  8
0
100
AcDbLine
 10
54.5331196369171
 20
-84.4711093228995
 30
0.0
 11
54.591843824731
 21
-84.73925076495172
 31
0.0
  0
LINE
  5
39D
330
1F
100
AcDbEntity
  8
0
100
AcDbLine
 10
54.27582921640302
 20
-88.34428373135586
 30
0.0
 11
54.16256684742695
 21
-88.51138957842619
 31
0.0
  0
LINE
  5
39E
330
1F
100
AcDbEntity
  8
0
100
AcDbLine
 10
53.18460242573053
 20
-89.02896288296688
 30
0.0
 11
52.97058974675561
 21
-89.039216796401
 31
0.0
  0
LINE
  5
39F
330
1F
100
AcDbEntity
  8
0
100
AcDbLine
 10
54.16256684742695
 20
-88.51138957842619
 30
0.0
 11
54.03532522582499
 21
-88.65453379458712
 31
0.0
  0
LINE
  5
3A0
330
1F
100
AcDbEntity
  8
0
100
AcDbLine
 10
53.73835269300659
 20
-88.87100961660552
 30
0.0
 11
53.56834601592184
 21
-88.94537736367532
 31
0.0
  0
LINE
  5
3A1
330
1F
100
AcDbEntity
  8
0
100
AcDbLine
 10
51.6752455410693
 20
-88.89310165492651
 30
0.0
 11
50.29719465152945
 21
-88.89310165492651
 31
0.0
  0
LINE
  5
3A2
330
1F
100
AcDbEntity
  8
0
100
AcDbLine
 10
52.97058974675561
 20
-89.039216796401
 30
0.0
 11
52.76703684408933
 21
-89.02875384705415
 31
0.0
  0
LINE
  5
3A3
330
1F
100
AcDbEntity
  8
0
100
AcDbLine
 10
51.94897758803141
 20
-88.63347405137152
 30
0.0
 11
51.81839302642117
 21
-88.47904054978548
 31
0.0
  0
LINE
  5
3A4
330
1F
100
AcDbEntity
  8
0
100
AcDbLine
 10
53.38380855447458
 20
-88.99785576226037
 30
0.0
 11
53.18460242573053
 21
-89.02896288296688
 31
0.0
  0
LINE
  5
3A5
330
1F
100
AcDbEntity
  8
0
100
AcDbLine
 10
53.89396646866292
 20
-83.39098576222838
 30
0.0
 11
54.03532522582499
 21
-83.5106618991543
 31
0.0
  0
LINE
  5
3A6
330
1F
100
AcDbEntity
  8
0
100
AcDbLine
 10
54.5331196369171
 20
-87.69401569862674
 30
0.0
 11
54.46096772821392
 21
-87.93611486206228
 31
0.0
  0
LINE
  5
3A7
330
1F
100
AcDbEntity
  8
0
100
AcDbLine
 10
54.46096772821392
 20
-84.22901160175405
 30
0.0
 11
54.5331196369171
 21
-84.4711093228995
 31
0.0
  0
LINE
  5
3A8
330
1F
100
AcDbEntity
  8
0
100
AcDbLine
 10
52.40283513100577
 20
-88.94214259542497
 30
0.0
 11
52.24021096005897
 21
-88.86405585523984
 31
0.0
  0
LINE
  5
3A9
330
1F
100
AcDbEntity
  8
0
100
AcDbLine
 10
57.6210222741485
 20
-83.2670417927254
 30
0.0
 11
57.80285082631821
 21
-83.19002657793654
 31
0.0
  0
LINE
  5
3AA
330
1F
100
AcDbEntity
  8
0
100
AcDbLine
 10
54.37525021568727
 20
-88.15269818276995
 30
0.0
 11
54.27582921640302
 21
-88.34428373135586
 31
0.0
  0
LINE
  5
3AB
330
1F
100
AcDbEntity
  8
0
100
AcDbLine
 10
53.56834601592184
 20
-83.2198884253653
 30
0.0
 11
53.73835269300659
 21
-83.29423453808349
 31
0.0
  0
LINE
  5
3AC
330
1F
100
AcDbEntity
  8
0
100
AcDbLine
 10
54.46096772821392
 20
-87.93611486206228
 30
0.0
 11
54.37525021568727
 21
-88.15269818276995
 31
0.0
  0
LINE
  5
3AD
330
1F
100
AcDbEntity
  8
0
100
AcDbLine
 10
53.56834601592184
 20
-88.94537736367532
 30
0.0
 11
53.38380855447458
 21
-88.99785576226037
 31
0.0
  0
LINE
  5
3AE
330
1F
100
AcDbEntity
  8
0
100
AcDbLine
 10
51.69651297406021
 20
-88.29721968982967
 30
0.0
 11
51.6752455410693
 21
-88.89310165492651
 31
0.0
  0
LINE
  5
3AF
330
1F
100
AcDbEntity
  8
0
100
AcDbLine
 10
57.45427661499404
 20
-83.37149513449573
 30
0.0
 11
57.6210222741485
 21
-83.2670417927254
 31
0.0
  0
LINE
  5
3B0
330
1F
100
AcDbEntity
  8
0
100
AcDbLine
 10
56.89955107114812
 20
-84.02482870676938
 30
0.0
 11
57.03549095207561
 21
-83.83005338938445
 31
0.0
  0
LINE
  5
3B1
330
1F
100
AcDbEntity
  8
0
100
AcDbLine
 10
50.29719465152945
 20
-88.89310165492651
 30
0.0
 11
50.29719465152945
 21
-81.43335261269333
 31
0.0
  0
LINE
  5
3B2
330
1F
100
AcDbEntity
  8
0
100
AcDbLine
 10
55.51992481620155
 20
-83.27298556640594
 30
0.0
 11
56.89955107114812
 21
-83.27298556640594
 31
0.0
  0
LINE
  5
3B3
330
1F
100
AcDbEntity
  8
0
100
AcDbLine
 10
57.16241555831223
 20
-83.65494398605644
 30
0.0
 11
57.30170924450015
 21
-83.50144355001648
 31
0.0
  0
LINE
  5
3B4
330
1F
100
AcDbEntity
  8
0
100
AcDbLine
 10
57.30170924450015
 20
-83.50144355001648
 30
0.0
 11
57.45427661499404
 21
-83.37149513449573
 31
0.0
  0
LINE
  5
3B5
330
1F
100
AcDbEntity
  8
0
100
AcDbLine
 10
58.47727952599137
 20
-83.14695633386731
 30
0.0
 11
58.47727952599137
 21
-84.5261887474622
 31
0.0
  0
LINE
  5
3B6
330
1F
100
AcDbEntity
  8
0
100
AcDbLine
 10
57.01752376730586
 20
-85.14550475374755
 30
0.0
 11
56.98738461556601
 21
-85.25872058482949
 31
0.0
  0
LINE
  5
3B7
330
1F
100
AcDbEntity
  8
0
100
AcDbLine
 10
57.05812759914071
 20
-85.04275475659266
 30
0.0
 11
57.01752376730586
 21
-85.14550475374755
 31
0.0
  0
LINE
  5
3B8
330
1F
100
AcDbEntity
  8
0
100
AcDbLine
 10
57.23354844097901
 20
-84.7939709631253
 30
0.0
 11
57.16705780940092
 21
-84.86732074183809
 31
0.0
  0
LINE
  5
3B9
330
1F
100
AcDbEntity
  8
0
100
AcDbLine
 10
56.96862801734476
 20
-85.38273513039505
 30
0.0
 11
56.96217184606575
 21
-85.51788127100073
 31
0.0
  0
LINE
  5
3BA
330
1F
100
AcDbEntity
  8
0
100
AcDbLine
 10
57.30683225895761
 20
-84.7297554961135
 30
0.0
 11
57.23354844097901
 21
-84.7939709631253
 31
0.0
  0
LINE
  5
3BB
330
1F
100
AcDbEntity
  8
0
100
AcDbLine
 10
56.98738461556601
 20
-85.25872058482949
 30
0.0
 11
56.96862801734476
 21
-85.38273513039505
 31
0.0
  0
LINE
  5
3BC
330
1F
100
AcDbEntity
  8
0
100
AcDbLine
 10
56.96217184606575
 20
-85.51788127100073
 30
0.0
 11
56.96217184606575
 21
-88.89310165492651
 31
0.0
  0
LINE
  5
3BD
330
1F
100
AcDbEntity
  8
0
100
AcDbLine
 10
57.80285082631821
 20
-83.19002657793654
 30
0.0
 11
58.00066687585784
 21
-83.1423925433604
 31
0.0
  0
LINE
  5
3BE
330
1F
100
AcDbEntity
  8
0
100
AcDbLine
 10
58.25224842367333
 20
-84.51171507778783
 30
0.0
 11
58.02751270236906
 21
-84.5049213144713
 31
0.0
  0
LINE
  5
3BF
330
1F
100
AcDbEntity
  8
0
100
AcDbLine
 10
60.63162248855457
 20
-86.48894635374482
 30
0.0
 11
60.49069728379843
 21
-86.57498838154538
 31
0.0
  0
LINE
  5
3C0
330
1F
100
AcDbEntity
  8
0
100
AcDbLine
 10
61.14911771712416
 20
-86.32345914078441
 30
0.0
 11
61.00613484514978
 21
-86.3646401771198
 31
0.0
  0
LINE
  5
3C1
330
1F
100
AcDbEntity
  8
0
100
AcDbLine
 10
57.83779116951649
 20
-84.51764192859783
 30
0.0
 11
57.64954192640439
 21
-84.55757913394558
 31
0.0
  0
LINE
  5
3C2
330
1F
100
AcDbEntity
  8
0
100
AcDbLine
 10
57.38599138991306
 20
-84.67434146024614
 30
0.0
 11
57.30683225895761
 21
-84.7297554961135
 31
0.0
  0
LINE
  5
3C3
330
1F
100
AcDbEntity
  8
0
100
AcDbLine
 10
56.96217184606575
 20
-88.89310165492651
 30
0.0
 11
55.51992481620155
 21
-88.89310165492651
 31
0.0
  0
LINE
  5
3C4
330
1F
100
AcDbEntity
  8
0
100
AcDbLine
 10
58.47727952599137
 20
-84.5261887474622
 30
0.0
 11
58.25224842367333
 21
-84.51171507778783
 31
0.0
  0
LINE
  5
3C5
330
1F
100
AcDbEntity
  8
0
100
AcDbLine
 10
60.80294424575818
 20
-86.41907643644778
 30
0.0
 11
60.63162248855457
 21
-86.48894635374482
 31
0.0
  0
LINE
  5
3C6
330
1F
100
AcDbEntity
  8
0
100
AcDbLine
 10
55.51992481620155
 20
-88.89310165492651
 30
0.0
 11
55.51992481620155
 21
-83.27298556640594
 31
0.0
  0
LINE
  5
3C7
330
1F
100
AcDbEntity
  8
0
100
AcDbLine
 10
57.47010796042176
 20
-84.62739597496672
 30
0.0
 11
57.38599138991306
 21
-84.67434146024614
 31
0.0
  0
LINE
  5
3C8
330
1F
100
AcDbEntity
  8
0
100
AcDbLine
 10
58.21537502712198
 20
-83.12608274222809
 30
0.0
 11
58.47727952599137
 21
-83.14695633386731
 31
0.0
  0
LINE
  5
3C9
330
1F
100
AcDbEntity
  8
0
100
AcDbLine
 10
57.64954192640439
 20
-84.55757913394558
 30
0.0
 11
57.55826409706007
 21
-84.5885861597187
 31
0.0
  0
LINE
  5
3CA
330
1F
100
AcDbEntity
  8
0
100
AcDbLine
 10
57.55826409706007
 20
-84.5885861597187
 30
0.0
 11
57.47010796042176
 21
-84.62739597496672
 31
0.0
  0
LINE
  5
3CB
330
1F
100
AcDbEntity
  8
0
100
AcDbLine
 10
57.16705780940092
 20
-84.86732074183809
 30
0.0
 11
57.10827823764694
 21
-84.95013771280836
 31
0.0
  0
LINE
  5
3CC
330
1F
100
AcDbEntity
  8
0
100
AcDbLine
 10
54.03532522582499
 20
-88.65453379458712
 30
0.0
 11
53.89396646866292
 21
-88.77423445044484
 31
0.0
  0
LINE
  5
3CD
330
1F
100
AcDbEntity
  8
0
100
AcDbLine
 10
61.46654153903867
 20
-86.18231624637488
 30
0.0
 11
61.30579888361181
 21
-86.26263526703382
 31
0.0
  0
LINE
  5
3CE
330
1F
100
AcDbEntity
  8
0
100
AcDbLine
 10
61.62170887783077
 20
-86.08264976931456
 30
0.0
 11
61.46654153903867
 21
-86.18231624637488
 31
0.0
  0
LINE
  5
3CF
330
1F
100
AcDbEntity
  8
0
100
AcDbLine
 10
52.76703684408933
 20
-89.02875384705415
 30
0.0
 11
52.57811453226101
 21
-88.99671885304592
 31
0.0
  0
LINE
  5
3D0
330
1F
100
AcDbEntity
  8
0
100
AcDbLine
 10
61.30579888361181
 20
-86.26263526703382
 30
0.0
 11
61.14911771712416
 21
-86.32345914078441
 31
0.0
  0
LINE
  5
3D1
330
1F
100
AcDbEntity
  8
0
100
AcDbLine
 10
58.02751270236906
 20
-84.5049213144713
 30
0.0
 11
57.83779116951649
 21
-84.51764192859783
 31
0.0
  0
LINE
  5
3D2
330
1F
100
AcDbEntity
  8
0
100
AcDbLine
 10
57.10827823764694
 20
-84.95013771280836
 30
0.0
 11
57.05812759914071
 21
-85.04275475659266
 31
0.0
  0
LINE
  5
3D3
330
1F
100
AcDbEntity
  8
0
100
AcDbLine
 10
52.08925433915576
 20
-88.76148941353917
 30
0.0
 11
51.94897758803141
 21
-88.63347405137152
 31
0.0
  0
LINE
  5
3D4
330
1F
100
AcDbEntity
  8
0
100
AcDbLine
 10
52.57811453226101
 20
-88.99671885304592
 30
0.0
 11
52.40283513100577
 21
-88.94214259542497
 31
0.0
  0
LINE
  5
3D5
330
1F
100
AcDbEntity
  8
0
100
AcDbLine
 10
58.98966712453134
 20
-84.86056005504132
 30
0.0
 11
58.99988873066709
 21
-84.62755001155006
 31
0.0
  0
LINE
  5
3D6
330
1F
100
AcDbEntity
  8
0
100
AcDbLine
 10
61.18492574205035
 20
-87.94499013846017
 30
0.0
 11
61.32293098241001
 21
-87.85434508986181
 31
0.0
  0
LINE
  5
3D7
330
1F
100
AcDbEntity
  8
0
100
AcDbLine
 10
61.4937272652516
 20
-87.66382433598501
 30
0.0
 11
61.53739605971495
 21
-87.58510529581731
 31
0.0
  0
LINE
  5
3D8
330
1F
100
AcDbEntity
  8
0
100
AcDbLine
 10
61.00613484514978
 20
-86.3646401771198
 30
0.0
 11
60.80294424575818
 21
-86.41907643644778
 31
0.0
  0
LINE
  5
3D9
330
1F
100
AcDbEntity
  8
0
100
AcDbLine
 10
60.37869634174933
 20
-86.67794097238384
 30
0.0
 11
60.29414737266678
 21
-86.79854257879461
 31
0.0
  0
LINE
  5
3DA
330
1F
100
AcDbEntity
  8
0
100
AcDbLine
 10
60.31740478139361
 20
-87.82598851254063
 30
0.0
 11
60.39233309855138
 21
-87.92210272522193
 31
0.0
  0
LINE
  5
3DB
330
1F
100
AcDbEntity
  8
0
100
AcDbLine
 10
59.22845748215777
 20
-83.88411523020083
 30
0.0
 11
59.32749531303715
 21
-83.74234445883177
 31
0.0
  0
LINE
  5
3DC
330
1F
100
AcDbEntity
  8
0
100
AcDbLine
 10
60.19799700658013
 20
-87.43031179862079
 30
0.0
 11
60.22108595582258
 21
-87.57679770480526
 31
0.0
  0
LINE
  5
3DD
330
1F
100
AcDbEntity
  8
0
100
AcDbLine
 10
61.53739605971495
 20
-87.58510529581731
 30
0.0
 11
61.57293033797897
 21
-87.49850327484484
 31
0.0
  0
LINE
  5
3DE
330
1F
100
AcDbEntity
  8
0
100
AcDbLine
 10
61.03602371147986
 20
-88.00809090752519
 30
0.0
 11
61.18492574205035
 21
-87.94499013846017
 31
0.0
  0
LINE
  5
3DF
330
1F
100
AcDbEntity
  8
0
100
AcDbLine
 10
60.22108595582258
 20
-87.57679770480526
 30
0.0
 11
60.26060547395555
 21
-87.70978839092348
 31
0.0
  0
LINE
  5
3E0
330
1F
100
AcDbEntity
  8
0
100
AcDbLine
 10
60.29414737266678
 20
-86.79854257879461
 30
0.0
 11
60.23557808681031
 21
-86.93753165331206
 31
0.0
  0
LINE
  5
3E1
330
1F
100
AcDbEntity
  8
0
100
AcDbLine
 10
60.49069728379843
 20
-86.57498838154538
 30
0.0
 11
60.37869634174933
 21
-86.67794097238384
 31
0.0
  0
LINE
  5
3E2
330
1F
100
AcDbEntity
  8
0
100
AcDbLine
 10
61.61598846681131
 20
-87.30098568320453
 30
0.0
 11
61.62170887783077
 21
-87.18973780889625
 31
0.0
  0
LINE
  5
3E3
330
1F
100
AcDbEntity
  8
0
100
AcDbLine
 10
61.32293098241001
 20
-87.85434508986181
 30
0.0
 11
61.38559300682471
 21
-87.79827808118702
 31
0.0
  0
LINE
  5
3E4
330
1F
100
AcDbEntity
  8
0
100
AcDbLine
 10
60.54057513716923
 20
-88.02140439903808
 30
0.0
 11
60.59997364368414
 21
-88.04089204603785
 31
0.0
  0
LINE
  5
3E5
330
1F
100
AcDbEntity
  8
0
100
AcDbLine
 10
60.48623964584336
 20
-87.9948356845326
 30
0.0
 11
60.54057513716923
 21
-88.02140439903808
 31
0.0
  0
LINE
  5
3E6
330
1F
100
AcDbEntity
  8
0
100
AcDbLine
 10
60.73438431248831
 20
-88.05697646530287
 30
0.0
 11
60.88343864889401
 21
-88.04497661161878
 31
0.0
  0
LINE
  5
3E7
330
1F
100
AcDbEntity
  8
0
100
AcDbLine
 10
61.38559300682471
 20
-87.79827808118702
 30
0.0
 11
61.44282567436339
 21
-87.73482654716817
 31
0.0
  0
LINE
  5
3E8
330
1F
100
AcDbEntity
  8
0
100
AcDbLine
 10
60.19048940581366
 20
-87.27362601680481
 30
0.0
 11
60.19799700658013
 21
-87.43031179862079
 31
0.0
  0
LINE
  5
3E9
330
1F
100
AcDbEntity
  8
0
100
AcDbLine
 10
60.26060547395555
 20
-87.70978839092348
 30
0.0
 11
60.31740478139361
 21
-87.82598851254063
 31
0.0
  0
LINE
  5
3EA
330
1F
100
AcDbEntity
  8
0
100
AcDbLine
 10
60.20151619443943
 20
-87.09564664847068
 30
0.0
 11
60.19048940581366
 21
-87.27362601680481
 31
0.0
  0
LINE
  5
3EB
330
1F
100
AcDbEntity
  8
0
100
AcDbLine
 10
60.88343864889401
 20
-88.04497661161878
 30
0.0
 11
61.03602371147986
 21
-88.00809090752519
 31
0.0
  0
LINE
  5
3EC
330
1F
100
AcDbEntity
  8
0
100
AcDbLine
 10
60.39233309855138
 20
-87.92210272522193
 30
0.0
 11
60.48623964584336
 21
-87.9948356845326
 31
0.0
  0
LINE
  5
3ED
330
1F
100
AcDbEntity
  8
0
100
AcDbLine
 10
60.59997364368414
 20
-88.04089204603785
 30
0.0
 11
60.6645413179399
 21
-88.05288670747758
 31
0.0
  0
LINE
  5
3EE
330
1F
100
AcDbEntity
  8
0
100
AcDbLine
 10
59.14517292073504
 20
-84.04290848632009
 30
0.0
 11
59.22845748215777
 21
-83.88411523020083
 31
0.0
  0
LINE
  5
3EF
330
1F
100
AcDbEntity
  8
0
100
AcDbLine
 10
60.23557808681031
 20
-86.93753165331206
 30
0.0
 11
60.20151619443943
 21
-87.09564664847068
 31
0.0
  0
LINE
  5
3F0
330
1F
100
AcDbEntity
  8
0
100
AcDbLine
 10
58.99988873066709
 20
-84.62755001155006
 30
0.0
 11
59.02988355724366
 21
-84.41401319215755
 31
0.0
  0
LINE
  5
3F1
330
1F
100
AcDbEntity
  8
0
100
AcDbLine
 10
59.02988355724366
 20
-84.41401319215755
 30
0.0
 11
59.07864661651499
 21
-84.2193369120266
 31
0.0
  0
LINE
  5
3F2
330
1F
100
AcDbEntity
  8
0
100
AcDbLine
 10
59.07864661651499
 20
-84.2193369120266
 30
0.0
 11
59.14517292073504
 21
-84.04290848632009
 31
0.0
  0
LINE
  5
3F3
330
1F
100
AcDbEntity
  8
0
100
AcDbLine
 10
61.44282567436339
 20
-87.73482654716817
 30
0.0
 11
61.4937272652516
 21
-87.66382433598501
 31
0.0
  0
LINE
  5
3F4
330
1F
100
AcDbEntity
  8
0
100
AcDbLine
 10
60.6645413179399
 20
-88.05288670747758
 30
0.0
 11
60.73438431248831
 21
-88.05697646530287
 31
0.0
  0
LINE
  5
3F5
330
1F
100
AcDbEntity
  8
0
100
AcDbLine
 10
61.62170887783077
 20
-87.18973780889625
 30
0.0
 11
61.62170887783077
 21
-86.08264976931456
 31
0.0
  0
LINE
  5
3F6
330
1F
100
AcDbEntity
  8
0
100
AcDbLine
 10
62.19532380674037
 20
-83.32171497224147
 30
0.0
 11
62.3611798613573
 21
-83.40422088931216
 31
0.0
  0
LINE
  5
3F7
330
1F
100
AcDbEntity
  8
0
100
AcDbLine
 10
62.99688711008961
 20
-84.66350630389918
 30
0.0
 11
63.00094129142563
 21
-84.84992633854586
 31
0.0
  0
LINE
  5
3F8
330
1F
100
AcDbEntity
  8
0
100
AcDbLine
 10
62.87354861397319
 20
-84.0009020754332
 30
0.0
 11
62.92357608090435
 21
-84.15290099131987
 31
0.0
  0
LINE
  5
3F9
330
1F
100
AcDbEntity
  8
0
100
AcDbLine
 10
59.86107957620011
 20
-83.33323252411405
 30
0.0
 11
60.02380893817201
 21
-83.26738390393857
 31
0.0
  0
LINE
  5
3FA
330
1F
100
AcDbEntity
  8
0
100
AcDbLine
 10
60.02380893817201
 20
-83.26738390393857
 30
0.0
 11
60.19626164312429
 21
-83.21488165949044
 31
0.0
  0
LINE
  5
3FB
330
1F
100
AcDbEntity
  8
0
100
AcDbLine
 10
59.70907854495464
 20
-83.41304020485394
 30
0.0
 11
59.86107957620011
 21
-83.33323252411405
 31
0.0
  0
LINE
  5
3FC
330
1F
100
AcDbEntity
  8
0
100
AcDbLine
 10
62.00469497725828
 20
-83.25287504238565
 30
0.0
 11
62.19532380674037
 21
-83.32171497224147
 31
0.0
  0
LINE
  5
3FD
330
1F
100
AcDbEntity
  8
0
100
AcDbLine
 10
63.00796889804472
 20
-88.15045840238757
 30
0.0
 11
63.03441780631873
 21
-88.42369199388895
 31
0.0
  0
LINE
  5
3FE
330
1F
100
AcDbEntity
  8
0
100
AcDbLine
 10
62.72573426244816
 20
-83.72778079025476
 30
0.0
 11
62.8081221040355
 21
-83.85899688262622
 31
0.0
  0
LINE
  5
3FF
330
1F
100
AcDbEntity
  8
0
100
AcDbLine
 10
62.98368304031946
 20
-84.4847984829087
 30
0.0
 11
62.99688711008961
 21
-84.66350630389918
 31
0.0
  0
LINE
  5
400
330
1F
100
AcDbEntity
  8
0
100
AcDbLine
 10
59.4412814256271
 20
-83.61698348737566
 30
0.0
 11
59.56881083218161
 21
-83.50741963099544
 31
0.0
  0
LINE
  5
401
330
1F
100
AcDbEntity
  8
0
100
AcDbLine
 10
62.50382542975217
 20
-83.49979741624186
 30
0.0
 11
62.6248228005681
 21
-83.60784917567467
 31
0.0
  0
LINE
  5
402
330
1F
100
AcDbEntity
  8
0
100
AcDbLine
 10
62.6248228005681
 20
-83.60784917567467
 30
0.0
 11
62.72573426244816
 21
-83.72778079025476
 31
0.0
  0
LINE
  5
403
330
1F
100
AcDbEntity
  8
0
100
AcDbLine
 10
61.59942838026923
 20
-87.40385212124731
 30
0.0
 11
61.61598846681131
 21
-87.30098568320453
 31
0.0
  0
LINE
  5
404
330
1F
100
AcDbEntity
  8
0
100
AcDbLine
 10
60.76190993840294
 20
-83.1313263321384
 30
0.0
 11
60.96320613781631
 21
-83.12608274222809
 31
0.0
  0
LINE
  5
405
330
1F
100
AcDbEntity
  8
0
100
AcDbLine
 10
60.96320613781631
 20
-83.12608274222809
 30
0.0
 11
61.26854895319003
 21
-83.13430494966588
 31
0.0
  0
LINE
  5
406
330
1F
100
AcDbEntity
  8
0
100
AcDbLine
 10
61.57293033797897
 20
-87.49850327484484
 30
0.0
 11
61.59942838026923
 21
-87.40385212124731
 31
0.0
  0
LINE
  5
407
330
1F
100
AcDbEntity
  8
0
100
AcDbLine
 10
63.03441780631873
 20
-88.42369199388895
 30
0.0
 11
63.05744060252159
 21
-88.54423129336716
 31
0.0
  0
LINE
  5
408
330
1F
100
AcDbEntity
  8
0
100
AcDbLine
 10
60.19626164312429
 20
-83.21488165949044
 30
0.0
 11
60.37743270331091
 21
-83.17511310593245
 31
0.0
  0
LINE
  5
409
330
1F
100
AcDbEntity
  8
0
100
AcDbLine
 10
60.5663171309858
 20
-83.14746555842748
 30
0.0
 11
60.76190993840294
 21
-83.1313263321384
 31
0.0
  0
LINE
  5
40A
330
1F
100
AcDbEntity
  8
0
100
AcDbLine
 10
60.37743270331091
 20
-83.17511310593245
 30
0.0
 11
60.5663171309858
 21
-83.14746555842748
 31
0.0
  0
LINE
  5
40B
330
1F
100
AcDbEntity
  8
0
100
AcDbLine
 10
61.5428698391262
 20
-83.15857465374197
 30
0.0
 11
61.78773108426793
 21
-83.19829647710051
 31
0.0
  0
LINE
  5
40C
330
1F
100
AcDbEntity
  8
0
100
AcDbLine
 10
61.78773108426793
 20
-83.19829647710051
 30
0.0
 11
62.00469497725828
 21
-83.25287504238565
 31
0.0
  0
LINE
  5
40D
330
1F
100
AcDbEntity
  8
0
100
AcDbLine
 10
59.56881083218161
 20
-83.50741963099544
 30
0.0
 11
59.70907854495464
 21
-83.41304020485394
 31
0.0
  0
LINE
  5
40E
330
1F
100
AcDbEntity
  8
0
100
AcDbLine
 10
62.3611798613573
 20
-83.40422088931216
 30
0.0
 11
62.50382542975217
 21
-83.49979741624186
 31
0.0
  0
LINE
  5
40F
330
1F
100
AcDbEntity
  8
0
100
AcDbLine
 10
62.8081221040355
 20
-83.85899688262622
 30
0.0
 11
62.87354861397319
 21
-84.0009020754332
 31
0.0
  0
LINE
  5
410
330
1F
100
AcDbEntity
  8
0
100
AcDbLine
 10
63.05744060252159
 20
-88.54423129336716
 30
0.0
 11
63.0883371488726
 21
-88.65978142290975
 31
0.0
  0
LINE
  5
411
330
1F
100
AcDbEntity
  8
0
100
AcDbLine
 10
59.32749531303715
 20
-83.74234445883177
 30
0.0
 11
59.4412814256271
 21
-83.61698348737566
 31
0.0
  0
LINE
  5
412
330
1F
100
AcDbEntity
  8
0
100
AcDbLine
 10
61.26854895319003
 20
-83.13430494966588
 30
0.0
 11
61.5428698391262
 21
-83.15857465374197
 31
0.0
  0
LINE
  5
413
330
1F
100
AcDbEntity
  8
0
100
AcDbLine
 10
62.92357608090435
 20
-84.15290099131987
 30
0.0
 11
62.95976679347206
 21
-84.31439825293032
 31
0.0
  0
LINE
  5
414
330
1F
100
AcDbEntity
  8
0
100
AcDbLine
 10
58.98966712453134
 20
-84.99604148002037
 30
0.0
 11
58.98966712453134
 21
-84.86056005504132
 31
0.0
  0
LINE
  5
415
330
1F
100
AcDbEntity
  8
0
100
AcDbLine
 10
63.0883371488726
 20
-88.65978142290975
 30
0.0
 11
63.17777605833142
 21
-88.89310165492651
 31
0.0
  0
LINE
  5
416
330
1F
100
AcDbEntity
  8
0
100
AcDbLine
 10
59.41025440009781
 20
-88.8175728643212
 30
0.0
 11
59.2992502728175
 21
-88.72849212357208
 31
0.0
  0
LINE
  5
417
330
1F
100
AcDbEntity
  8
0
100
AcDbLine
 10
61.73773823229933
 20
-88.75308490063196
 30
0.0
 11
61.69097572555804
 21
-88.60416979329784
 31
0.0
  0
LINE
  5
418
330
1F
100
AcDbEntity
  8
0
100
AcDbLine
 10
61.3329000916245
 20
-88.6690305409032
 30
0.0
 11
61.18275730695194
 21
-88.79645052571496
 31
0.0
  0
LINE
  5
419
330
1F
100
AcDbEntity
  8
0
100
AcDbLine
 10
61.18275730695194
 20
-88.79645052571496
 30
0.0
 11
61.01834392705194
 21
-88.89300319458857
 31
0.0
  0
LINE
  5
41A
330
1F
100
AcDbEntity
  8
0
100
AcDbLine
 10
60.16961581417446
 20
-89.039216796401
 30
0.0
 11
59.98906157338997
 21
-89.0294129736327
 31
0.0
  0
LINE
  5
41B
330
1F
100
AcDbEntity
  8
0
100
AcDbLine
 10
58.88310227004541
 20
-87.99894024986968
 30
0.0
 11
58.85136813775337
 21
-87.85796994950955
 31
0.0
  0
LINE
  5
41C
330
1F
100
AcDbEntity
  8
0
100
AcDbLine
 10
62.95976679347206
 20
-84.31439825293032
 30
0.0
 11
62.98368304031946
 21
-84.4847984829087
 31
0.0
  0
LINE
  5
41D
330
1F
100
AcDbEntity
  8
0
100
AcDbLine
 10
59.53430663751149
 20
-88.89361241792948
 30
0.0
 11
59.41025440009781
 21
-88.8175728643212
 31
0.0
  0
LINE
  5
41E
330
1F
100
AcDbEntity
  8
0
100
AcDbLine
 10
61.4173075239713
 20
-85.29604474511537
 30
0.0
 11
61.49513811343354
 21
-85.22442023382769
 31
0.0
  0
LINE
  5
41F
330
1F
100
AcDbEntity
  8
0
100
AcDbLine
 10
59.2992502728175
 20
-88.72849212357208
 30
0.0
 11
59.20086329938673
 21
-88.6277772939098
 31
0.0
  0
LINE
  5
420
330
1F
100
AcDbEntity
  8
0
100
AcDbLine
 10
60.8372415198744
 20
-88.96212235180901
 30
0.0
 11
60.63703165336909
 21
-89.00724180166121
 31
0.0
  0
LINE
  5
421
330
1F
100
AcDbEntity
  8
0
100
AcDbLine
 10
63.00094129142563
 20
-87.80570568292892
 30
0.0
 11
63.00796889804472
 21
-88.15045840238757
 31
0.0
  0
LINE
  5
422
330
1F
100
AcDbEntity
  8
0
100
AcDbLine
 10
60.41529589548582
 20
-89.03179534843024
 30
0.0
 11
60.16961581417446
 21
-89.039216796401
 31
0.0
  0
LINE
  5
423
330
1F
100
AcDbEntity
  8
0
100
AcDbLine
 10
59.1146625235218
 20
-88.51683547356207
 30
0.0
 11
59.04021698893897
 21
-88.39707376075653
 31
0.0
  0
LINE
  5
424
330
1F
100
AcDbEntity
  8
0
100
AcDbLine
 10
61.47119071311985
 20
-88.50730943586821
 30
0.0
 11
61.3329000916245
 21
-88.6690305409032
 31
0.0
  0
LINE
  5
425
330
1F
100
AcDbEntity
  8
0
100
AcDbLine
 10
61.79893748608825
 20
-88.89310165492651
 30
0.0
 11
61.73773823229933
 21
-88.75308490063196
 31
0.0
  0
LINE
  5
426
330
1F
100
AcDbEntity
  8
0
100
AcDbLine
 10
59.04021698893897
 20
-88.39707376075653
 30
0.0
 11
58.97709573935447
 21
-88.26989925372084
 31
0.0
  0
LINE
  5
427
330
1F
100
AcDbEntity
  8
0
100
AcDbLine
 10
61.69097572555804
 20
-88.60416979329784
 30
0.0
 11
61.62170887783077
 21
-88.30785340632514
 31
0.0
  0
LINE
  5
428
330
1F
100
AcDbEntity
  8
0
100
AcDbLine
 10
58.92486781848454
 20
-88.13671905068266
 30
0.0
 11
58.88310227004541
 21
-87.99894024986968
 31
0.0
  0
LINE
  5
429
330
1F
100
AcDbEntity
  8
0
100
AcDbLine
 10
61.01834392705194
 20
-88.89300319458857
 30
0.0
 11
60.8372415198744
 21
-88.96212235180901
 31
0.0
  0
LINE
  5
42A
330
1F
100
AcDbEntity
  8
0
100
AcDbLine
 10
63.17777605833142
 20
-88.89310165492651
 30
0.0
 11
61.79893748608825
 21
-88.89310165492651
 31
0.0
  0
LINE
  5
42B
330
1F
100
AcDbEntity
  8
0
100
AcDbLine
 10
59.67183794134224
 20
-88.95520368616928
 30
0.0
 11
59.53430663751149
 21
-88.89361241792948
 31
0.0
  0
LINE
  5
42C
330
1F
100
AcDbEntity
  8
0
100
AcDbLine
 10
60.63703165336909
 20
-89.00724180166121
 30
0.0
 11
60.41529589548582
 21
-89.03179534843024
 31
0.0
  0
LINE
  5
42D
330
1F
100
AcDbEntity
  8
0
100
AcDbLine
 10
61.55290125527328
 20
-85.14059279440895
 30
0.0
 11
61.59218923776787
 21
-85.0427670641349
 31
0.0
  0
LINE
  5
42E
330
1F
100
AcDbEntity
  8
0
100
AcDbLine
 10
59.06934336456622
 20
-86.36594554581863
 30
0.0
 11
59.15020670551123
 21
-86.25889377419281
 31
0.0
  0
LINE
  5
42F
330
1F
100
AcDbEntity
  8
0
100
AcDbLine
 10
59.20086329938673
 20
-88.6277772939098
 30
0.0
 11
59.1146625235218
 21
-88.51683547356207
 31
0.0
  0
LINE
  5
430
330
1F
100
AcDbEntity
  8
0
100
AcDbLine
 10
59.8232792678738
 20
-89.0009395708129
 30
0.0
 11
59.67183794134224
 21
-88.95520368616928
 31
0.0
  0
LINE
  5
431
330
1F
100
AcDbEntity
  8
0
100
AcDbLine
 10
59.98906157338997
 20
-89.0294129736327
 30
0.0
 11
59.8232792678738
 21
-89.0009395708129
 31
0.0
  0
LINE
  5
432
330
1F
100
AcDbEntity
  8
0
100
AcDbLine
 10
58.97709573935447
 20
-88.26989925372084
 30
0.0
 11
58.92486781848454
 21
-88.13671905068266
 31
0.0
  0
LINE
  5
433
330
1F
100
AcDbEntity
  8
0
100
AcDbLine
 10
63.00094129142563
 20
-84.84992633854586
 30
0.0
 11
63.00094129142563
 21
-87.80570568292892
 31
0.0
  0
LINE
  5
434
330
1F
100
AcDbEntity
  8
0
100
AcDbLine
 10
61.62170887783077
 20
-88.30785340632514
 30
0.0
 11
61.47119071311985
 21
-88.50730943586821
 31
0.0
  0
LINE
  5
435
330
1F
100
AcDbEntity
  8
0
100
AcDbLine
 10
59.59179516731501
 20
-85.91556257586292
 30
0.0
 11
59.73270969912436
 21
-85.84751032871044
 31
0.0
  0
LINE
  5
436
330
1F
100
AcDbEntity
  8
0
100
AcDbLine
 10
59.73270969912436
 20
-85.84751032871044
 30
0.0
 11
59.88622465421803
 21
-85.78519493468463
 31
0.0
  0
LINE
  5
437
330
1F
100
AcDbEntity
  8
0
100
AcDbLine
 10
61.62170887783077
 20
-84.79793928012367
 30
0.0
 11
61.61266591116986
 21
-84.64528114150579
 31
0.0
  0
LINE
  5
438
330
1F
100
AcDbEntity
  8
0
100
AcDbLine
 10
27.73678050305562
 20
-80.87449173465475
 30
0.0
 11
30.65947717389733
 21
-83.1378979827786
 31
0.0
  0
LINE
  5
439
330
1F
100
AcDbEntity
  8
0
100
AcDbLine
 10
35.75657194738244
 20
-88.07627469153537
 30
0.0
 11
35.82706954933375
 21
-88.04082896988385
 31
0.0
  0
LINE
  5
43A
330
1F
100
AcDbEntity
  8
0
100
AcDbLine
 10
61.04748818707651
 20
-85.45565433743474
 30
0.0
 11
61.19507484907011
 21
-85.40986643419463
 31
0.0
  0
LINE
  5
43B
330
1F
100
AcDbEntity
  8
0
100
AcDbLine
 10
33.96056960903768
 20
-85.5035530218009
 30
0.0
 11
33.74286111622578
 21
-85.61082782999797
 31
0.0
  0
LINE
  5
43C
330
1F
100
AcDbEntity
  8
0
100
AcDbLine
 10
58.85136813775337
 20
-87.85796994950955
 30
0.0
 11
58.82923446532465
 21
-87.71521524782997
 31
0.0
  0
LINE
  5
43D
330
1F
100
AcDbEntity
  8
0
100
AcDbLine
 10
61.61266591116986
 20
-84.64528114150579
 30
0.0
 11
61.58473702094148
 21
-84.50941356738893
 31
0.0
  0
LINE
  5
43E
330
1F
100
AcDbEntity
  8
0
100
AcDbLine
 10
37.11597321335412
 20
-83.94874313788034
 30
0.0
 11
33.96056960903768
 21
-85.5035530218009
 31
0.0
  0
LINE
  5
43F
330
1F
100
AcDbEntity
  8
0
100
AcDbLine
 10
37.11597321335412
 20
-83.94874313788034
 30
0.0
 11
33.91142521474622
 21
-80.5365758549105
 31
0.0
  0
LINE
  5
440
330
1F
100
AcDbEntity
  8
0
100
AcDbLine
 10
35.82706954933375
 20
-88.04082896988385
 30
0.0
 11
39.1632996394429
 21
-86.34691731629401
 31
0.0
  0
LINE
  5
441
330
1F
100
AcDbEntity
  8
0
100
AcDbLine
 10
61.59218923776787
 20
-85.0427670641349
 30
0.0
 11
61.61459434919458
 21
-84.92914768028125
 31
0.0
  0
LINE
  5
442
330
1F
100
AcDbEntity
  8
0
100
AcDbLine
 10
61.19507484907011
 20
-85.40986643419463
 30
0.0
 11
61.31781719860926
 21
-85.35726169099624
 31
0.0
  0
LINE
  5
443
330
1F
100
AcDbEntity
  8
0
100
AcDbLine
 10
59.46328433041953
 20
-85.99003936006473
 30
0.0
 11
59.59179516731501
 21
-85.91556257586292
 31
0.0
  0
LINE
  5
444
330
1F
100
AcDbEntity
  8
0
100
AcDbLine
 10
58.89448674661751
 20
-86.74902933636268
 30
0.0
 11
58.94168011348986
 21
-86.6103256429809
 31
0.0
  0
LINE
  5
445
330
1F
100
AcDbEntity
  8
0
100
AcDbLine
 10
58.85812324769506
 20
-86.89965903817514
 30
0.0
 11
58.89448674661751
 21
-86.74902933636268
 31
0.0
  0
LINE
  5
446
330
1F
100
AcDbEntity
  8
0
100
AcDbLine
 10
61.49513811343354
 20
-85.22442023382769
 30
0.0
 11
61.55290125527328
 21
-85.14059279440895
 31
0.0
  0
LINE
  5
447
330
1F
100
AcDbEntity
  8
0
100
AcDbLine
 10
58.94168011348986
 20
-86.6103256429809
 30
0.0
 11
58.99990007668258
 21
-86.4828602741071
 31
0.0
  0
LINE
  5
448
330
1F
100
AcDbEntity
  8
0
100
AcDbLine
 10
60.23184274774043
 20
-85.67502397032239
 30
0.0
 11
61.04748818707651
 21
-85.45565433743474
 31
0.0
  0
LINE
  5
449
330
1F
100
AcDbEntity
  8
0
100
AcDbLine
 10
58.81709894021788
 20
-87.23944720278267
 30
0.0
 11
58.832392888352
 21
-87.06290243234092
 31
0.0
  0
LINE
  5
44A
330
1F
100
AcDbEntity
  8
0
100
AcDbLine
 10
61.31781719860926
 20
-85.35726169099624
 30
0.0
 11
61.4173075239713
 21
-85.29604474511537
 31
0.0
  0
LINE
  5
44B
330
1F
100
AcDbEntity
  8
0
100
AcDbLine
 10
61.61459434919458
 20
-84.92914768028125
 30
0.0
 11
61.62170887783077
 21
-84.79793928012367
 31
0.0
  0
LINE
  5
44C
330
1F
100
AcDbEntity
  8
0
100
AcDbLine
 10
58.81204467492218
 20
-87.42998103342309
 30
0.0
 11
58.81709894021788
 21
-87.23944720278267
 31
0.0
  0
LINE
  5
44D
330
1F
100
AcDbEntity
  8
0
100
AcDbLine
 10
30.65947717389733
 20
-83.1378979827786
 30
0.0
 11
33.0067716299297
 21
-84.95468813809363
 31
0.0
  0
LINE
  5
44E
330
1F
100
AcDbEntity
  8
0
100
AcDbLine
 10
59.24268682788812
 20
-86.16101727530702
 30
0.0
 11
59.34698046006739
 21
-86.07162836523852
 31
0.0
  0
LINE
  5
44F
330
1F
100
AcDbEntity
  8
0
100
AcDbLine
 10
59.88622465421803
 20
-85.78519493468463
 30
0.0
 11
60.23184274774043
 21
-85.67502397032239
 31
0.0
  0
LINE
  5
450
330
1F
100
AcDbEntity
  8
0
100
AcDbLine
 10
59.15020670551123
 20
-86.25889377419281
 30
0.0
 11
59.24268682788812
 21
-86.16101727530702
 31
0.0
  0
LINE
  5
451
330
1F
100
AcDbEntity
  8
0
100
AcDbLine
 10
58.99990007668258
 20
-86.4828602741071
 30
0.0
 11
59.06934336456622
 21
-86.36594554581863
 31
0.0
  0
LINE
  5
452
330
1F
100
AcDbEntity
  8
0
100
AcDbLine
 10
59.34698046006739
 20
-86.07162836523852
 30
0.0
 11
59.46328433041953
 21
-85.99003936006473
 31
0.0
  0
LINE
  5
453
330
1F
100
AcDbEntity
  8
0
100
AcDbLine
 10
58.832392888352
 20
-87.06290243234092
 30
0.0
 11
58.85812324769506
 21
-86.89965903817514
 31
0.0
  0
LINE
  5
454
330
1F
100
AcDbEntity
  8
0
100
AcDbLine
 10
58.82923446532465
 20
-87.71521524782997
 30
0.0
 11
58.81204467492218
 21
-87.42998103342309
 31
0.0
  0
LINE
  5
455
330
1F
100
AcDbEntity
  8
0
100
AcDbLine
 10
33.96056960903768
 20
-85.5035530218009
 30
0.0
 11
36.01335650867993
 21
-86.68483319603831
 31
0.0
  0
LINE
  5
456
330
1F
100
AcDbEntity
  8
0
100
AcDbLine
 10
84.475140991957
 20
-97.83157728222353
 30
0.0
 11
84.11611767727094
 21
-97.79452542630973
 31
0.0
  0
LINE
  5
457
330
1F
100
AcDbEntity
  8
0
100
AcDbLine
 10
78.9385254237644
 20
-100.9733789737946
 30
0.0
 11
78.84502313837012
 21
-101.2107175101811
 31
0.0
  0
LINE
  5
458
330
1F
100
AcDbEntity
  8
0
100
AcDbLine
 10
81.48583997698141
 20
-98.29724591916434
 30
0.0
 11
81.26073701255882
 21
-98.41261971672236
 31
0.0
  0
LINE
  5
459
330
1F
100
AcDbEntity
  8
0
100
AcDbLine
 10
81.71708846743226
 20
-98.19262518760804
 30
0.0
 11
81.48583997698141
 21
-98.29724591916434
 31
0.0
  0
LINE
  5
45A
330
1F
100
AcDbEntity
  8
0
100
AcDbLine
 10
80.05757024063242
 20
-99.3123223042148
 30
0.0
 11
79.88468344241541
 21
-99.49379027183883
 31
0.0
  0
LINE
  5
45B
330
1F
100
AcDbEntity
  8
0
100
AcDbLine
 10
80.42835004658528
 20
-98.9750903584389
 30
0.0
 11
80.23890193587958
 21
-99.13931307960593
 31
0.0
  0
LINE
  5
45C
330
1F
100
AcDbEntity
  8
0
100
AcDbLine
 10
83.215240488716
 20
-97.8090697681993
 30
0.0
 11
82.9540169551012
 21
-97.84228913478547
 31
0.0
  0
LINE
  5
45D
330
1F
100
AcDbEntity
  8
0
100
AcDbLine
 10
65.61200935815246
 20
-84.95013771280836
 30
0.0
 11
65.5618885269751
 21
-85.04275475659266
 31
0.0
  0
LINE
  5
45E
330
1F
100
AcDbEntity
  8
0
100
AcDbLine
 10
85.16830177091957
 20
-80.5972274230697
 30
0.0
 11
85.16830177091957
 21
-97.97823395555662
 31
0.0
  0
LINE
  5
45F
330
1F
100
AcDbEntity
  8
0
100
AcDbLine
 10
80.62558609117775
 20
-98.81998190114041
 30
0.0
 11
80.42835004658528
 21
-98.9750903584389
 31
0.0
  0
LINE
  5
460
330
1F
100
AcDbEntity
  8
0
100
AcDbLine
 10
65.97366119848084
 20
-84.62739597496672
 30
0.0
 11
65.88958020446144
 21
-84.67434146024614
 31
0.0
  0
LINE
  5
461
330
1F
100
AcDbEntity
  8
0
100
AcDbLine
 10
79.0431004587625
 20
-100.7418770970103
 30
0.0
 11
78.9385254237644
 21
-100.9733789737946
 31
0.0
  0
LINE
  5
462
330
1F
100
AcDbEntity
  8
0
100
AcDbLine
 10
80.83028158808527
 20
-98.67431546813704
 30
0.0
 11
80.62558609117775
 21
-98.81998190114041
 31
0.0
  0
LINE
  5
463
330
1F
100
AcDbEntity
  8
0
100
AcDbLine
 10
82.69696805808444
 20
-97.88822812993337
 30
0.0
 11
82.44442227923749
 21
-97.94655899321617
 31
0.0
  0
LINE
  5
464
330
1F
100
AcDbEntity
  8
0
100
AcDbLine
 10
79.15841976179266
 20
-100.5165396402546
 30
0.0
 11
79.0431004587625
 21
-100.7418770970103
 31
0.0
  0
LINE
  5
465
330
1F
100
AcDbEntity
  8
0
100
AcDbLine
 10
80.23890193587958
 20
-99.13931307960593
 30
0.0
 11
80.05757024063242
 21
-99.3123223042148
 31
0.0
  0
LINE
  5
466
330
1F
100
AcDbEntity
  8
0
100
AcDbLine
 10
79.28415485128319
 20
-100.2976943639542
 30
0.0
 11
79.15841976179266
 21
-100.5165396402546
 31
0.0
  0
LINE
  5
467
330
1F
100
AcDbEntity
  8
0
100
AcDbLine
 10
83.48031017735717
 20
-97.78889779060135
 30
0.0
 11
83.215240488716
 21
-97.8090697681993
 31
0.0
  0
LINE
  5
468
330
1F
100
AcDbEntity
  8
0
100
AcDbLine
 10
84.11611767727094
 20
-97.79452542630973
 30
0.0
 11
83.74889753945301
 21
-97.78210096241831
 31
0.0
  0
LINE
  5
469
330
1F
100
AcDbEntity
  8
0
100
AcDbLine
 10
81.04210805573621
 20
-98.53841881985548
 30
0.0
 11
80.83028158808527
 21
-98.67431546813704
 31
0.0
  0
LINE
  5
46A
330
1F
100
AcDbEntity
  8
0
100
AcDbLine
 10
79.88468344241541
 20
-99.49379027183883
 30
0.0
 11
79.72057002280027
 21
-99.68338922205146
 31
0.0
  0
LINE
  5
46B
330
1F
100
AcDbEntity
  8
0
100
AcDbLine
 10
84.82589363825768
 20
-97.89292422651934
 30
0.0
 11
84.475140991957
 21
-97.83157728222353
 31
0.0
  0
LINE
  5
46C
330
1F
100
AcDbEntity
  8
0
100
AcDbLine
 10
83.74889753945301
 20
-97.78210096241831
 30
0.0
 11
83.48031017735717
 21
-97.78889779060135
 31
0.0
  0
LINE
  5
46D
330
1F
100
AcDbEntity
  8
0
100
AcDbLine
 10
85.16830177091957
 20
-97.97823395555662
 30
0.0
 11
84.82589363825768
 21
-97.89292422651934
 31
0.0
  0
LINE
  5
46E
330
1F
100
AcDbEntity
  8
0
100
AcDbLine
 10
79.56555846335873
 20
-99.88079139442601
 30
0.0
 11
79.4199772456625
 21
-100.0856690285358
 31
0.0
  0
LINE
  5
46F
330
1F
100
AcDbEntity
  8
0
100
AcDbLine
 10
82.9540169551012
 20
-97.84228913478547
 30
0.0
 11
82.69696805808444
 21
-97.88822812993337
 31
0.0
  0
LINE
  5
470
330
1F
100
AcDbEntity
  8
0
100
AcDbLine
 10
82.196708100132
 20
-98.01695396420735
 30
0.0
 11
81.95415400233969
 21
-98.09908528248017
 31
0.0
  0
LINE
  5
471
330
1F
100
AcDbEntity
  8
0
100
AcDbLine
 10
79.4199772456625
 20
-100.0856690285358
 30
0.0
 11
79.28415485128319
 21
-100.2976943639542
 31
0.0
  0
LINE
  5
472
330
1F
100
AcDbEntity
  8
0
100
AcDbLine
 10
79.72057002280027
 20
-99.68338922205146
 30
0.0
 11
79.56555846335873
 21
-99.88079139442601
 31
0.0
  0
LINE
  5
473
330
1F
100
AcDbEntity
  8
0
100
AcDbLine
 10
81.95415400233969
 20
-98.09908528248017
 30
0.0
 11
81.71708846743226
 21
-98.19262518760804
 31
0.0
  0
LINE
  5
474
330
1F
100
AcDbEntity
  8
0
100
AcDbLine
 10
78.84502313837012
 20
-101.2107175101811
 30
0.0
 11
78.76292208415134
 21
-101.4535649457428
 31
0.0
  0
LINE
  5
475
330
1F
100
AcDbEntity
  8
0
100
AcDbLine
 10
82.44442227923749
 20
-97.94655899321617
 30
0.0
 11
82.196708100132
 21
-98.01695396420735
 31
0.0
  0
LINE
  5
476
330
1F
100
AcDbEntity
  8
0
100
AcDbLine
 10
66.34123671658097
 20
-84.51764192859783
 30
0.0
 11
66.15303208830947
 21
-84.55757913394558
 31
0.0
  0
LINE
  5
477
330
1F
100
AcDbEntity
  8
0
100
AcDbLine
 10
68.06455955001768
 20
-89.68629813721664
 30
0.0
 11
68.24909191537326
 21
-89.67276291763808
 31
0.0
  0
LINE
  5
478
330
1F
100
AcDbEntity
  8
0
100
AcDbLine
 10
66.15303208830947
 20
-84.55757913394558
 30
0.0
 11
66.06178406629405
 21
-84.5885861597187
 31
0.0
  0
LINE
  5
479
330
1F
100
AcDbEntity
  8
0
100
AcDbLine
 10
68.24909191537326
 20
-89.67276291763808
 30
0.0
 11
68.40441386766476
 21
-89.63280955864114
 31
0.0
  0
LINE
  5
47A
330
1F
100
AcDbEntity
  8
0
100
AcDbLine
 10
70.35356548600095
 20
-83.27298556640594
 30
0.0
 11
71.79463099181011
 21
-83.27298556640594
 31
0.0
  0
LINE
  5
47B
330
1F
100
AcDbEntity
  8
0
100
AcDbLine
 10
68.81507424504052
 20
-89.07101640866385
 30
0.0
 11
68.83845780607534
 21
-88.89310165492651
 31
0.0
  0
LINE
  5
47C
330
1F
100
AcDbEntity
  8
0
100
AcDbLine
 10
65.81045780382733
 20
-84.7297554961135
 30
0.0
 11
65.73721071617013
 21
-84.7939709631253
 31
0.0
  0
LINE
  5
47D
330
1F
100
AcDbEntity
  8
0
100
AcDbLine
 10
68.40441386766476
 20
-89.63280955864114
 30
0.0
 11
68.53258845866013
 21
-89.56741650983392
 31
0.0
  0
LINE
  5
47E
330
1F
100
AcDbEntity
  8
0
100
AcDbLine
 10
65.52130988714077
 20
-85.14550475374755
 30
0.0
 11
65.49119015824101
 21
-85.25872058482949
 31
0.0
  0
LINE
  5
47F
330
1F
100
AcDbEntity
  8
0
100
AcDbLine
 10
67.26112319258377
 20
-83.27298556640594
 30
0.0
 11
68.7644156319589
 21
-83.27298556640594
 31
0.0
  0
LINE
  5
480
330
1F
100
AcDbEntity
  8
0
100
AcDbLine
 10
68.71574776383456
 20
-89.36422514122094
 30
0.0
 11
68.77485858154962
 21
-89.22838372063137
 31
0.0
  0
LINE
  5
481
330
1F
100
AcDbEntity
  8
0
100
AcDbLine
 10
64.0245349644505
 20
-88.89310165492651
 30
0.0
 11
64.0245349644505
 21
-83.27298556640594
 31
0.0
  0
LINE
  5
482
330
1F
100
AcDbEntity
  8
0
100
AcDbLine
 10
65.88958020446144
 20
-84.67434146024614
 30
0.0
 11
65.81045780382733
 21
-84.7297554961135
 31
0.0
  0
LINE
  5
483
330
1F
100
AcDbEntity
  8
0
100
AcDbLine
 10
65.73721071617013
 20
-84.7939709631253
 30
0.0
 11
65.67075566108133
 21
-84.86732074183809
 31
0.0
  0
LINE
  5
484
330
1F
100
AcDbEntity
  8
0
100
AcDbLine
 10
68.77485858154962
 20
-89.22838372063137
 30
0.0
 11
68.81507424504052
 21
-89.07101640866385
 31
0.0
  0
LINE
  5
485
330
1F
100
AcDbEntity
  8
0
100
AcDbLine
 10
66.75607088921892
 20
-84.51171507778783
 30
0.0
 11
66.53094132656295
 21
-84.5049213144713
 31
0.0
  0
LINE
  5
486
330
1F
100
AcDbEntity
  8
0
100
AcDbLine
 10
65.47244605986735
 20
-85.38273513039505
 30
0.0
 11
65.46599431161134
 21
-85.51788127100073
 31
0.0
  0
LINE
  5
487
330
1F
100
AcDbEntity
  8
0
100
AcDbLine
 10
66.06178406629405
 20
-84.5885861597187
 30
0.0
 11
65.97366119848084
 21
-84.62739597496672
 31
0.0
  0
LINE
  5
488
330
1F
100
AcDbEntity
  8
0
100
AcDbLine
 10
68.53258845866013
 20
-89.56741650983392
 30
0.0
 11
68.6356787401274
 21
-89.47756222082451
 31
0.0
  0
LINE
  5
489
330
1F
100
AcDbEntity
  8
0
100
AcDbLine
 10
65.46599431161134
 20
-88.89310165492651
 30
0.0
 11
64.0245349644505
 21
-88.89310165492651
 31
0.0
  0
LINE
  5
48A
330
1F
100
AcDbEntity
  8
0
100
AcDbLine
 10
67.68922874186352
 20
-89.65557851178535
 30
0.0
 11
67.87718952695435
 21
-89.6787659213657
 31
0.0
  0
LINE
  5
48B
330
1F
100
AcDbEntity
  8
0
100
AcDbLine
 10
68.6356787401274
 20
-89.47756222082451
 30
0.0
 11
68.71574776383456
 21
-89.36422514122094
 31
0.0
  0
LINE
  5
48C
330
1F
100
AcDbEntity
  8
0
100
AcDbLine
 10
68.83845780607534
 20
-88.89310165492651
 30
0.0
 11
67.26112319258377
 21
-83.27298556640594
 31
0.0
  0
LINE
  5
48D
330
1F
100
AcDbEntity
  8
0
100
AcDbLine
 10
67.87718952695435
 20
-89.6787659213657
 30
0.0
 11
68.06455955001768
 21
-89.68629813721664
 31
0.0
  0
LINE
  5
48E
330
1F
100
AcDbEntity
  8
0
100
AcDbLine
 10
71.79463099181011
 20
-83.27298556640594
 30
0.0
 11
70.43705985255781
 21
-88.51698316406895
 31
0.0
  0
LINE
  5
48F
330
1F
100
AcDbEntity
  8
0
100
AcDbLine
 10
65.67075566108133
 20
-84.86732074183809
 30
0.0
 11
65.61200935815246
 21
-84.95013771280836
 31
0.0
  0
LINE
  5
490
330
1F
100
AcDbEntity
  8
0
100
AcDbLine
 10
65.46599431161134
 20
-85.51788127100073
 30
0.0
 11
65.46599431161134
 21
-88.89310165492651
 31
0.0
  0
LINE
  5
491
330
1F
100
AcDbEntity
  8
0
100
AcDbLine
 10
66.53094132656295
 20
-84.5049213144713
 30
0.0
 11
66.34123671658097
 21
-84.51764192859783
 31
0.0
  0
LINE
  5
492
330
1F
100
AcDbEntity
  8
0
100
AcDbLine
 10
68.7644156319589
 20
-83.27298556640594
 30
0.0
 11
69.6009346629342
 21
-87.15823050076162
 31
0.0
  0
LINE
  5
493
330
1F
100
AcDbEntity
  8
0
100
AcDbLine
 10
65.5618885269751
 20
-85.04275475659266
 30
0.0
 11
65.52130988714077
 21
-85.14550475374755
 31
0.0
  0
LINE
  5
494
330
1F
100
AcDbEntity
  8
0
100
AcDbLine
 10
65.49119015824101
 20
-85.25872058482949
 30
0.0
 11
65.47244605986735
 21
-85.38273513039505
 31
0.0
  0
LINE
  5
495
330
1F
100
AcDbEntity
  8
0
100
AcDbLine
 10
69.6009346629342
 20
-87.15823050076162
 30
0.0
 11
70.35356548600095
 21
-83.27298556640594
 31
0.0
  0
LINE
  5
496
330
1F
100
AcDbEntity
  8
0
100
AcDbLine
 10
60.79875506606822
 20
-84.12175367879576
 30
0.0
 11
60.66388055676587
 21
-84.16090089377596
 31
0.0
  0
LINE
  5
497
330
1F
100
AcDbEntity
  8
0
100
AcDbLine
 10
65.53900649828658
 20
-83.83005338938445
 30
0.0
 11
65.66585033627724
 21
-83.65494398605644
 31
0.0
  0
LINE
  5
498
330
1F
100
AcDbEntity
  8
0
100
AcDbLine
 10
60.66388055676587
 20
-84.16090089377596
 30
0.0
 11
60.54900888048927
 21
-84.22404781612434
 31
0.0
  0
LINE
  5
499
330
1F
100
AcDbEntity
  8
0
100
AcDbLine
 10
60.95336010402422
 20
-84.10832307332625
 30
0.0
 11
60.79875506606822
 21
-84.12175367879576
 31
0.0
  0
LINE
  5
49A
330
1F
100
AcDbEntity
  8
0
100
AcDbLine
 10
65.66585033627724
 20
-83.65494398605644
 30
0.0
 11
65.80522017538277
 21
-83.50144355001648
 31
0.0
  0
LINE
  5
49B
330
1F
100
AcDbEntity
  8
0
100
AcDbLine
 10
65.80522017538277
 20
-83.50144355001648
 30
0.0
 11
65.95795139003272
 21
-83.37149513449573
 31
0.0
  0
LINE
  5
49C
330
1F
100
AcDbEntity
  8
0
100
AcDbLine
 10
61.37563495516768
 20
-84.21353871349409
 30
0.0
 11
61.2601625169855
 21
-84.15581787883079
 31
0.0
  0
LINE
  5
49D
330
1F
100
AcDbEntity
  8
0
100
AcDbLine
 10
70.16571402650017
 20
-89.44265130034442
 30
0.0
 11
70.07545810777246
 21
-89.68247049157999
 31
0.0
  0
LINE
  5
49E
330
1F
100
AcDbEntity
  8
0
100
AcDbLine
 10
69.41394540445891
 20
-90.54301230656519
 30
0.0
 11
69.26743036401429
 21
-90.60915553853303
 31
0.0
  0
LINE
  5
49F
330
1F
100
AcDbEntity
  8
0
100
AcDbLine
 10
70.43705985255781
 20
-88.51698316406895
 30
0.0
 11
70.25490438129737
 21
-89.1698290499813
 31
0.0
  0
LINE
  5
4A0
330
1F
100
AcDbEntity
  8
0
100
AcDbLine
 10
61.53672222177728
 20
-84.39143500591808
 30
0.0
 11
61.46742152830883
 21
-84.29244390523819
 31
0.0
  0
LINE
  5
4A1
330
1F
100
AcDbEntity
  8
0
100
AcDbLine
 10
61.2601625169855
 20
-84.15581787883079
 30
0.0
 11
61.1198042283938
 21
-84.12037984939319
 31
0.0
  0
LINE
  5
4A2
330
1F
100
AcDbEntity
  8
0
100
AcDbLine
 10
69.88477812506798
 20
-90.07129190447206
 30
0.0
 11
69.7808683343623
 21
-90.22439023003041
 31
0.0
  0
LINE
  5
4A3
330
1F
100
AcDbEntity
  8
0
100
AcDbLine
 10
69.98239376174989
 20
-89.8913346756389
 30
0.0
 11
69.88477812506798
 21
-90.07129190447206
 31
0.0
  0
LINE
  5
4A4
330
1F
100
AcDbEntity
  8
0
100
AcDbLine
 10
70.25490438129737
 20
-89.1698290499813
 30
0.0
 11
70.16571402650017
 21
-89.44265130034442
 31
0.0
  0
LINE
  5
4A5
330
1F
100
AcDbEntity
  8
0
100
AcDbLine
 10
68.92763200722334
 20
-90.69363412385837
 30
0.0
 11
68.7308629641482
 21
-90.71606558111768
 31
0.0
  0
LINE
  5
4A6
330
1F
100
AcDbEntity
  8
0
100
AcDbLine
 10
61.1198042283938
 20
-84.12037984939319
 30
0.0
 11
60.95336010402422
 21
-84.10832307332625
 31
0.0
  0
LINE
  5
4A7
330
1F
100
AcDbEntity
  8
0
100
AcDbLine
 10
69.5471948374222
 20
-90.45820237912609
 30
0.0
 11
69.41394540445891
 21
-90.54301230656519
 31
0.0
  0
LINE
  5
4A8
330
1F
100
AcDbEntity
  8
0
100
AcDbLine
 10
68.7308629641482
 20
-90.71606558111768
 30
0.0
 11
68.27487083181656
 21
-90.73155308458409
 31
0.0
  0
LINE
  5
4A9
330
1F
100
AcDbEntity
  8
0
100
AcDbLine
 10
69.66892152626852
 20
-90.35267770426479
 30
0.0
 11
69.5471948374222
 21
-90.45820237912609
 31
0.0
  0
LINE
  5
4AA
330
1F
100
AcDbEntity
  8
0
100
AcDbLine
 10
61.46742152830883
 20
-84.29244390523819
 30
0.0
 11
61.37563495516768
 21
-84.21353871349409
 31
0.0
  0
LINE
  5
4AB
330
1F
100
AcDbEntity
  8
0
100
AcDbLine
 10
60.54900888048927
 20
-84.22404781612434
 30
0.0
 11
60.45441234161044
 21
-84.30947754369845
 31
0.0
  0
LINE
  5
4AC
330
1F
100
AcDbEntity
  8
0
100
AcDbLine
 10
61.58473702094148
 20
-84.50941356738893
 30
0.0
 11
61.53672222177728
 21
-84.39143500591808
 31
0.0
  0
LINE
  5
4AD
330
1F
100
AcDbEntity
  8
0
100
AcDbLine
 10
69.26743036401429
 20
-90.60915553853303
 30
0.0
 11
69.1059068527239
 21
-90.65868012698043
 31
0.0
  0
LINE
  5
4AE
330
1F
100
AcDbEntity
  8
0
100
AcDbLine
 10
69.1059068527239
 20
-90.65868012698043
 30
0.0
 11
68.92763200722334
 21
-90.69363412385837
 31
0.0
  0
LINE
  5
4AF
330
1F
100
AcDbEntity
  8
0
100
AcDbLine
 10
68.27487083181656
 20
-90.73155308458409
 30
0.0
 11
67.68922874186352
 21
-90.73155308458409
 31
0.0
  0
LINE
  5
4B0
330
1F
100
AcDbEntity
  8
0
100
AcDbLine
 10
60.2842236475143
 20
-84.83968646340207
 30
0.0
 11
60.2842236475143
 21
-84.99604148002037
 31
0.0
  0
LINE
  5
4B1
330
1F
100
AcDbEntity
  8
0
100
AcDbLine
 10
64.0245349644505
 20
-83.27298556640594
 30
0.0
 11
65.40258585399033
 21
-83.27298556640594
 31
0.0
  0
LINE
  5
4B2
330
1F
100
AcDbEntity
  8
0
100
AcDbLine
 10
69.7808683343623
 20
-90.22439023003041
 30
0.0
 11
69.66892152626852
 21
-90.35267770426479
 31
0.0
  0
LINE
  5
4B3
330
1F
100
AcDbEntity
  8
0
100
AcDbLine
 10
70.07545810777246
 20
-89.68247049157999
 30
0.0
 11
69.98239376174989
 21
-89.8913346756389
 31
0.0
  0
LINE
  5
4B4
330
1F
100
AcDbEntity
  8
0
100
AcDbLine
 10
67.68922874186352
 20
-90.73155308458409
 30
0.0
 11
67.68922874186352
 21
-89.65557851178535
 31
0.0
  0
LINE
  5
4B5
330
1F
100
AcDbEntity
  8
0
100
AcDbLine
 10
60.2842236475143
 20
-84.99604148002037
 30
0.0
 11
58.98966712453134
 21
-84.99604148002037
 31
0.0
  0
LINE
  5
4B6
330
1F
100
AcDbEntity
  8
0
100
AcDbLine
 10
53.25376167861591
 20
-86.08264976931456
 30
0.0
 11
53.24718868183833
 21
-85.65234040075244
 31
0.0
  0
LINE
  5
4B7
330
1F
100
AcDbEntity
  8
0
100
AcDbLine
 10
60.32713389353442
 20
-84.54031780595383
 30
0.0
 11
60.29499659308134
 21
-84.68229453635008
 31
0.0
  0
LINE
  5
4B8
330
1F
100
AcDbEntity
  8
0
100
AcDbLine
 10
45.83995053779391
 20
-81.45140431566332
 30
0.0
 11
45.99254810022737
 21
-81.40220765590969
 31
0.0
  0
LINE
  5
4B9
330
1F
100
AcDbEntity
  8
0
100
AcDbLine
 10
45.43920792410486
 20
-81.64858369027367
 30
0.0
 11
45.56359083056353
 21
-81.57476627303211
 31
0.0
  0
LINE
  5
4BA
330
1F
100
AcDbEntity
  8
0
100
AcDbLine
 10
46.15517130964744
 20
-81.36156579569237
 30
0.0
 11
46.32813054688503
 21
-81.32965267519815
 31
0.0
  0
LINE
  5
4BB
330
1F
100
AcDbEntity
  8
0
100
AcDbLine
 10
46.511736192771
 20
-81.30664223461382
 30
0.0
 11
46.70629862813625
 21
-81.29270841412622
 31
0.0
  0
LINE
  5
4BC
330
1F
100
AcDbEntity
  8
0
100
AcDbLine
 10
46.70629862813625
 20
-81.29270841412622
 30
0.0
 11
46.91212823381159
 21
-81.2880251539222
 31
0.0
  0
LINE
  5
4BD
330
1F
100
AcDbEntity
  8
0
100
AcDbLine
 10
52.50191853825251
 20
-87.9313410741159
 30
0.0
 11
52.61375265541265
 21
-87.92401000965846
 31
0.0
  0
LINE
  5
4BE
330
1F
100
AcDbEntity
  8
0
100
AcDbLine
 10
66.98031430883358
 20
-83.14695633386731
 30
0.0
 11
66.98031430883358
 21
-84.5261887474622
 31
0.0
  0
LINE
  5
4BF
330
1F
100
AcDbEntity
  8
0
100
AcDbLine
 10
53.24718868183833
 20
-85.65234040075244
 30
0.0
 11
53.22451280448231
 21
-85.27822265473029
 31
0.0
  0
LINE
  5
4C0
330
1F
100
AcDbEntity
  8
0
100
AcDbLine
 10
52.80427590925895
 20
-87.8654930308565
 30
0.0
 11
52.88407387857883
 21
-87.81439480775045
 31
0.0
  0
LINE
  5
4C1
330
1F
100
AcDbEntity
  8
0
100
AcDbLine
 10
65.40258585399033
 20
-83.27298556640594
 30
0.0
 11
65.40258585399033
 21
-84.02482870676938
 31
0.0
  0
LINE
  5
4C2
330
1F
100
AcDbEntity
  8
0
100
AcDbLine
 10
45.56359083056353
 20
-81.57476627303211
 30
0.0
 11
45.69706824151628
 21
-81.50898183476636
 31
0.0
  0
LINE
  5
4C3
330
1F
100
AcDbEntity
  8
0
100
AcDbLine
 10
53.22451280448231
 20
-85.27822265473029
 30
0.0
 11
53.18129871601313
 21
-84.96066114218702
 31
0.0
  0
LINE
  5
4C4
330
1F
100
AcDbEntity
  8
0
100
AcDbLine
 10
45.69706824151628
 20
-81.50898183476636
 30
0.0
 11
45.83995053779391
 21
-81.45140431566332
 31
0.0
  0
LINE
  5
4C5
330
1F
100
AcDbEntity
  8
0
100
AcDbLine
 10
66.71919749266758
 20
-83.12608274222809
 30
0.0
 11
66.98031430883358
 21
-83.14695633386731
 31
0.0
  0
LINE
  5
4C6
330
1F
100
AcDbEntity
  8
0
100
AcDbLine
 10
66.30683944368404
 20
-83.19002657793654
 30
0.0
 11
66.5046670315445
 21
-83.1423925433604
 31
0.0
  0
LINE
  5
4C7
330
1F
100
AcDbEntity
  8
0
100
AcDbLine
 10
66.12487935465663
 20
-83.2670417927254
 30
0.0
 11
66.30683944368404
 21
-83.19002657793654
 31
0.0
  0
LINE
  5
4C8
330
1F
100
AcDbEntity
  8
0
100
AcDbLine
 10
66.5046670315445
 20
-83.1423925433604
 30
0.0
 11
66.71919749266758
 21
-83.12608274222809
 31
0.0
  0
LINE
  5
4C9
330
1F
100
AcDbEntity
  8
0
100
AcDbLine
 10
65.95795139003272
 20
-83.37149513449573
 30
0.0
 11
66.12487935465663
 21
-83.2670417927254
 31
0.0
  0
LINE
  5
4CA
330
1F
100
AcDbEntity
  8
0
100
AcDbLine
 10
60.45441234161044
 20
-84.30947754369845
 30
0.0
 11
60.38036324450148
 21
-84.41547317435578
 31
0.0
  0
LINE
  5
4CB
330
1F
100
AcDbEntity
  8
0
100
AcDbLine
 10
66.98031430883358
 20
-84.5261887474622
 30
0.0
 11
66.75607088921892
 21
-84.51171507778783
 31
0.0
  0
LINE
  5
4CC
330
1F
100
AcDbEntity
  8
0
100
AcDbLine
 10
53.24718868183833
 20
-86.513072213421
 30
0.0
 11
53.25376167861591
 21
-86.08264976931456
 31
0.0
  0
LINE
  5
4CD
330
1F
100
AcDbEntity
  8
0
100
AcDbLine
 10
60.38036324450148
 20
-84.41547317435578
 30
0.0
 11
60.32713389353442
 21
-84.54031780595383
 31
0.0
  0
LINE
  5
4CE
330
1F
100
AcDbEntity
  8
0
100
AcDbLine
 10
45.32360914130933
 20
-81.73026014630426
 30
0.0
 11
45.43920792410486
 21
-81.64858369027367
 31
0.0
  0
LINE
  5
4CF
330
1F
100
AcDbEntity
  8
0
100
AcDbLine
 10
53.22451280448231
 20
-86.88724303571904
 30
0.0
 11
53.24718868183833
 21
-86.513072213421
 31
0.0
  0
LINE
  5
4D0
330
1F
100
AcDbEntity
  8
0
100
AcDbLine
 10
53.01551458359617
 20
-87.66873812222441
 30
0.0
 11
53.06826615192735
 21
-87.57426735104286
 31
0.0
  0
LINE
  5
4D1
330
1F
100
AcDbEntity
  8
0
100
AcDbLine
 10
46.32813054688503
 20
-81.32965267519815
 30
0.0
 11
46.511736192771
 21
-81.30664223461382
 31
0.0
  0
LINE
  5
4D2
330
1F
100
AcDbEntity
  8
0
100
AcDbLine
 10
53.06826615192735
 20
-87.57426735104286
 30
0.0
 11
53.11311108589602
 21
-87.46542675507457
 31
0.0
  0
LINE
  5
4D3
330
1F
100
AcDbEntity
  8
0
100
AcDbLine
 10
45.99254810022737
 20
-81.40220765590969
 30
0.0
 11
46.15517130964744
 21
-81.36156579569237
 31
0.0
  0
LINE
  5
4D4
330
1F
100
AcDbEntity
  8
0
100
AcDbLine
 10
65.40258585399033
 20
-84.02482870676938
 30
0.0
 11
65.53900649828658
 21
-83.83005338938445
 31
0.0
  0
LINE
  5
4D5
330
1F
100
AcDbEntity
  8
0
100
AcDbLine
 10
60.29499659308134
 20
-84.68229453635008
 30
0.0
 11
60.2842236475143
 21
-84.83968646340207
 31
0.0
  0
LINE
  5
4D6
330
1F
100
AcDbEntity
  8
0
100
AcDbLine
 10
52.80427590925895
 20
-84.2998402573611
 30
0.0
 11
52.71435364030918
 21
-84.26326964557936
 31
0.0
  0
LINE
  5
4D7
330
1F
100
AcDbEntity
  8
0
100
AcDbLine
 10
51.84314993609514
 20
-84.82320291438829
 30
0.0
 11
51.81203079630441
 21
-84.96066114218702
 31
0.0
  0
LINE
  5
4D8
330
1F
100
AcDbEntity
  8
0
100
AcDbLine
 10
52.04234866108329
 20
-84.41658364158494
 30
0.0
 11
51.98020874568706
 21
-84.49666526129235
 31
0.0
  0
LINE
  5
4D9
330
1F
100
AcDbEntity
  8
0
100
AcDbLine
 10
51.74529776383579
 20
-85.65234040075244
 30
0.0
 11
51.73865399869032
 21
-86.08264976931456
 31
0.0
  0
LINE
  5
4DA
330
1F
100
AcDbEntity
  8
0
100
AcDbLine
 10
51.92667295614876
 20
-84.59115939757365
 30
0.0
 11
51.8811753378307
 21
-84.70002047406138
 31
0.0
  0
LINE
  5
4DB
330
1F
100
AcDbEntity
  8
0
100
AcDbLine
 10
51.76824748400665
 20
-85.27822265473029
 30
0.0
 11
51.74529776383579
 21
-85.65234040075244
 31
0.0
  0
LINE
  5
4DC
330
1F
100
AcDbEntity
  8
0
100
AcDbLine
 10
53.18129871601313
 20
-87.20481147125483
 30
0.0
 11
53.22451280448231
 21
-86.88724303571904
 31
0.0
  0
LINE
  5
4DD
330
1F
100
AcDbEntity
  8
0
100
AcDbLine
 10
52.9543019645856
 20
-84.41658364158494
 30
0.0
 11
52.88407387857883
 21
-84.35096011481873
 31
0.0
  0
LINE
  5
4DE
330
1F
100
AcDbEntity
  8
0
100
AcDbLine
 10
51.8811753378307
 20
-84.70002047406138
 30
0.0
 11
51.84314993609514
 21
-84.82320291438829
 31
0.0
  0
LINE
  5
4DF
330
1F
100
AcDbEntity
  8
0
100
AcDbLine
 10
51.73865399869032
 20
-86.08264976931456
 30
0.0
 11
51.74529776383579
 21
-86.513072213421
 31
0.0
  0
LINE
  5
4E0
330
1F
100
AcDbEntity
  8
0
100
AcDbLine
 10
53.15060380181897
 20
-87.34226017993882
 30
0.0
 11
53.18129871601313
 21
-87.20481147125483
 31
0.0
  0
LINE
  5
4E1
330
1F
100
AcDbEntity
  8
0
100
AcDbLine
 10
52.9543019645856
 20
-87.74879522300002
 30
0.0
 11
53.01551458359617
 21
-87.66873812222441
 31
0.0
  0
LINE
  5
4E2
330
1F
100
AcDbEntity
  8
0
100
AcDbLine
 10
51.74529776383579
 20
-86.513072213421
 30
0.0
 11
51.76824748400665
 21
-86.88724303571904
 31
0.0
  0
LINE
  5
4E3
330
1F
100
AcDbEntity
  8
0
100
AcDbLine
 10
52.71435364030918
 20
-84.26326964557936
 30
0.0
 11
52.61375265541265
 21
-84.24129385584096
 31
0.0
  0
LINE
  5
4E4
330
1F
100
AcDbEntity
  8
0
100
AcDbLine
 10
52.50191853825251
 20
-84.23395846451318
 30
0.0
 11
52.38826867400125
 21
-84.24129385584096
 31
0.0
  0
LINE
  5
4E5
330
1F
100
AcDbEntity
  8
0
100
AcDbLine
 10
52.88407387857883
 20
-87.81439480775045
 30
0.0
 11
52.9543019645856
 21
-87.74879522300002
 31
0.0
  0
LINE
  5
4E6
330
1F
100
AcDbEntity
  8
0
100
AcDbLine
 10
53.11311108589602
 20
-87.46542675507457
 30
0.0
 11
53.15060380181897
 21
-87.34226017993882
 31
0.0
  0
LINE
  5
4E7
330
1F
100
AcDbEntity
  8
0
100
AcDbLine
 10
53.11311108589602
 20
-84.70002047406138
 30
0.0
 11
53.06826615192735
 21
-84.59115939757365
 31
0.0
  0
LINE
  5
4E8
330
1F
100
AcDbEntity
  8
0
100
AcDbLine
 10
53.18129871601313
 20
-84.96066114218702
 30
0.0
 11
53.15060380181897
 21
-84.82320291438829
 31
0.0
  0
LINE
  5
4E9
330
1F
100
AcDbEntity
  8
0
100
AcDbLine
 10
51.81203079630441
 20
-84.96066114218702
 30
0.0
 11
51.76824748400665
 21
-85.27822265473029
 31
0.0
  0
LINE
  5
4EA
330
1F
100
AcDbEntity
  8
0
100
AcDbLine
 10
51.76824748400665
 20
-86.88724303571904
 30
0.0
 11
51.81203079630441
 21
-87.20481147125483
 31
0.0
  0
LINE
  5
4EB
330
1F
100
AcDbEntity
  8
0
100
AcDbLine
 10
51.8811753378307
 20
-87.46542675507457
 30
0.0
 11
51.92667295614876
 21
-87.57426735104286
 31
0.0
  0
LINE
  5
4EC
330
1F
100
AcDbEntity
  8
0
100
AcDbLine
 10
51.98020874568706
 20
-87.66873812222441
 30
0.0
 11
52.04234866108329
 21
-87.74879522300002
 31
0.0
  0
LINE
  5
4ED
330
1F
100
AcDbEntity
  8
0
100
AcDbLine
 10
52.1136586569751
 20
-84.35096011481873
 30
0.0
 11
52.04234866108329
 21
-84.41658364158494
 31
0.0
  0
LINE
  5
4EE
330
1F
100
AcDbEntity
  8
0
100
AcDbLine
 10
51.84314993609514
 20
-87.34226017993882
 30
0.0
 11
51.8811753378307
 21
-87.46542675507457
 31
0.0
  0
LINE
  5
4EF
330
1F
100
AcDbEntity
  8
0
100
AcDbLine
 10
52.71435364030918
 20
-87.90204604669891
 30
0.0
 11
52.80427590925895
 21
-87.8654930308565
 31
0.0
  0
LINE
  5
4F0
330
1F
100
AcDbEntity
  8
0
100
AcDbLine
 10
53.06826615192735
 20
-84.59115939757365
 30
0.0
 11
53.01551458359617
 21
-84.49666526129235
 31
0.0
  0
LINE
  5
4F1
330
1F
100
AcDbEntity
  8
0
100
AcDbLine
 10
52.38826867400125
 20
-84.24129385584096
 30
0.0
 11
52.2860527087964
 21
-84.26326964557936
 31
0.0
  0
LINE
  5
4F2
330
1F
100
AcDbEntity
  8
0
100
AcDbLine
 10
52.61375265541265
 20
-87.92401000965846
 30
0.0
 11
52.71435364030918
 21
-87.90204604669891
 31
0.0
  0
LINE
  5
4F3
330
1F
100
AcDbEntity
  8
0
100
AcDbLine
 10
53.15060380181897
 20
-84.82320291438829
 30
0.0
 11
53.11311108589602
 21
-84.70002047406138
 31
0.0
  0
LINE
  5
4F4
330
1F
100
AcDbEntity
  8
0
100
AcDbLine
 10
52.2860527087964
 20
-84.26326964557936
 30
0.0
 11
52.19470468800024
 21
-84.2998402573611
 31
0.0
  0
LINE
  5
4F5
330
1F
100
AcDbEntity
  8
0
100
AcDbLine
 10
52.61375265541265
 20
-84.24129385584096
 30
0.0
 11
52.50191853825251
 21
-84.23395846451318
 31
0.0
  0
LINE
  5
4F6
330
1F
100
AcDbEntity
  8
0
100
AcDbLine
 10
52.19470468800024
 20
-84.2998402573611
 30
0.0
 11
52.1136586569751
 21
-84.35096011481873
 31
0.0
  0
LINE
  5
4F7
330
1F
100
AcDbEntity
  8
0
100
AcDbLine
 10
51.98020874568706
 20
-84.49666526129235
 30
0.0
 11
51.92667295614876
 21
-84.59115939757365
 31
0.0
  0
LINE
  5
4F8
330
1F
100
AcDbEntity
  8
0
100
AcDbLine
 10
52.04234866108329
 20
-87.74879522300002
 30
0.0
 11
52.1136586569751
 21
-87.81439480775045
 31
0.0
  0
LINE
  5
4F9
330
1F
100
AcDbEntity
  8
0
100
AcDbLine
 10
51.81203079630441
 20
-87.20481147125483
 30
0.0
 11
51.84314993609514
 21
-87.34226017993882
 31
0.0
  0
LINE
  5
4FA
330
1F
100
AcDbEntity
  8
0
100
AcDbLine
 10
51.92667295614876
 20
-87.57426735104286
 30
0.0
 11
51.98020874568706
 21
-87.66873812222441
 31
0.0
  0
LINE
  5
4FB
330
1F
100
AcDbEntity
  8
0
100
AcDbLine
 10
30.89127471834994
 20
-98.01015262513955
 30
0.0
 11
30.52174850342108
 21
-98.94245761687387
 31
0.0
  0
LINE
  5
4FC
330
1F
100
AcDbEntity
  8
0
100
AcDbLine
 10
37.99033819091012
 20
-97.42776352190603
 30
0.0
 11
37.99033819091012
 21
-95.99927967986159
 31
0.0
  0
LINE
  5
4FD
330
1F
100
AcDbEntity
  8
0
100
AcDbLine
 10
51.9127614892359
 20
-95.98123567343576
 30
0.0
 11
50.8493241869139
 21
-95.98123567343576
 31
0.0
  0
LINE
  5
4FE
330
1F
100
AcDbEntity
  8
0
100
AcDbLine
 10
56.5083443758131
 20
-97.30327240812787
 30
0.0
 11
56.5083443758131
 21
-98.94245761687387
 31
0.0
  0
LINE
  5
4FF
330
1F
100
AcDbEntity
  8
0
100
AcDbLine
 10
54.41840359682197
 20
-97.30327240812787
 30
0.0
 11
54.41840359682197
 21
-95.98524545264151
 31
0.0
  0
LINE
  5
500
330
1F
100
AcDbEntity
  8
0
100
AcDbLine
 10
69.89840683177695
 20
-98.01015262513955
 30
0.0
 11
69.52888061684807
 21
-98.94245761687387
 31
0.0
  0
ENDSEC
  0
SECTION
  2
OBJECTS
  0
DICTIONARY
  5
C
330
0
100
AcDbDictionary
  3
ACAD_GROUP
350
D
  3
ACAD_LAYOUT
350
1A
  3
ACAD_MATERIAL
350
43
  3
ACAD_MLEADERSTYLE
350
523
  3
ACAD_MLINESTYLE
350
17
  3
ACAD_PLOTSETTINGS
350
19
  3
ACAD_SCALELIST
350
47
  3
ACAD_VISUALSTYLE
350
2A
  3
ACDBHEADERROUNDTRIPXREC
350
501
  3
ACDBVARIABLEDICTIONARY
350
521
  0
DICTIONARY
  5
528
330
8
100
AcDbDictionary
280
     1
  3
ACAD_XREC_ROUNDTRIP
360
529
  0
DICTIONARY
  5
D
102
{ACAD_REACTORS
330
C
102
}
330
C
100
AcDbDictionary
  0
DICTIONARY
  5
1A
102
{ACAD_REACTORS
330
C
102
}
330
C
100
AcDbDictionary
  0
DICTIONARY
  5
43
102
{ACAD_REACTORS
330
C
102
}
330
C
100
AcDbDictionary
  3
BYBLOCK
350
45
  3
BYLAYER
350
44
  3
GLOBAL
350
46
  0
DICTIONARY
  5
523
102
{ACAD_REACTORS
330
C
102
}
330
C
100
AcDbDictionary
  0
DICTIONARY
  5
17
102
{ACAD_REACTORS
330
C
102
}
330
C
100
AcDbDictionary
  3
STANDARD
350
18
  0
DICTIONARY
  5
19
102
{ACAD_REACTORS
330
C
102
}
330
C
100
AcDbDictionary
  0
DICTIONARY
  5
47
102
{ACAD_REACTORS
330
C
102
}
330
C
100
AcDbDictionary
  3
A0
350
48
  3
A1
350
49
  3
A2
350
4A
  3
A3
350
4B
  3
A4
350
4C
  3
A5
350
4D
  3
A6
350
4E
  3
A7
350
4F
  3
A8
350
50
  3
A9
350
51
  3
B0
350
52
  3
B1
350
53
  3
B2
350
54
  3
B3
350
55
  3
B4
350
56
  3
B5
350
57
  3
B6
350
58
  3
B7
350
59
  3
B8
350
5A
  3
B9
350
5B
  3
C0
350
5C
  3
C1
350
5D
  3
C2
350
5E
  3
C3
350
5F
  3
C4
350
60
  3
C5
350
61
  3
C6
350
62
  3
C7
350
63
  3
C8
350
64
  3
C9
350
65
  3
D0
350
66
  3
D1
350
67
  3
D2
350
68
  0
DICTIONARY
  5
2A
102
{ACAD_REACTORS
330
C
102
}
330
C
100
AcDbDictionary
  3
2DWIREFRAME
350
2F
  3
BASIC
350
32
  3
BRIGHTEN
350
36
  3
COLORCHANGE
350
3A
  3
CONCEPTUAL
350
34
  3
DIM
350
35
  3
EDGECOLOROFF
350
3D
  3
FACEPATTERN
350
39
  3
FLAT
350
2B
  3
FLATWITHEDGES
350
2C
  3
GOURAUD
350
2D
  3
GOURAUDWITHEDGES
350
2E
  3
HIDDEN
350
31
  3
JITTEROFF
350
3B
  3
LINEPATTERN
350
38
  3
OVERHANGOFF
350
3C
  3
REALISTIC
350
33
  3
SHADED
350
42
  3
SHADED_WITH_EDGES
350
41
  3
SHADES_OF_GRAY
350
3E
  3
SKETCHY
350
3F
  3
THICKEN
350
37
  3
WIREFRAME
350
30
  3
X-RAY
350
40
  0
DICTIONARY
  5
501
102
{ACAD_REACTORS
330
C
102
}
330
C
100
AcDbDictionary
  3
CEPSNTYPE
350
50A
  3
DIMSTYLEDATA
350
520
  3
FINGERPRINTGUID
350
50B
  3
HYPERLINKBASE
350
504
  3
INSUNITS
350
509
  3
LAYOUTDICT
350
506
  3
LWETCUNION
350
508
  3
PLOTSETDICT
350
507
  3
PSVPSCALE
350
50D
  3
PUCSBASE
350
510
  3
PUCSORGBACK
350
516
  3
PUCSORGBOTTOM
350
512
  3
PUCSORGFRONT
350
515
  3
PUCSORGLEFT
350
513
  3
PUCSORGRIGHT
350
514
  3
PUCSORGTOP
350
511
  3
PUCSORTHOREF
350
50E
  3
PUCSORTHOVIEW
350
50F
  3
STYLESHEET
350
505
  3
TSTACKALIGN
350
502
  3
TSTACKSIZE
350
503
  3
UCSBASE
350
519
  3
UCSORGBACK
350
51F
  3
UCSORGBOTTOM
350
51B
  3
UCSORGFRONT
350
51E
  3
UCSORGLEFT
350
51C
  3
UCSORGRIGHT
350
51D
  3
UCSORGTOP
350
51A
  3
UCSORTHOREF
350
517
  3
UCSORTHOVIEW
350
518
  3
VERSIONGUID
350
50C
  0
DICTIONARY
  5
521
102
{ACAD_REACTORS
330
C
102
}
330
C
100
AcDbDictionary
  3
CANNOSCALE
350
52A
  3
DIMASSOC
350
526
  3
HIDETEXT
350
527
  3
MSLTSCALE
350
52B
  0
XRECORD
  5
529
102
{ACAD_REACTORS
330
528
102
}
330
528
100
AcDbXrecord
102
VTR_0.000_0.000_1.000_1.000_GRIDDISPLAY
 70
     3
102
VTR_0.000_0.000_1.000_1.000_GRIDMAJOR
 70
     5
102
VTR_0.000_0.000_1.000_1.000_DEFAULTLIGHTING
280
     1
102
VTR_0.000_0.000_1.000_1.000_DEFAULTLIGHTINGTYPE
 70
     1
102
VTR_0.000_0.000_1.000_1.000_BRIGHTNESS
141
0.0
102
VTR_0.000_0.000_1.000_1.000_CONTRAST
142
0.0
  0
MATERIAL
  5
45
102
{ACAD_REACTORS
330
43
102
}
102
{ACAD_XDICTIONARY
360
52E
102
}
330
43
100
AcDbMaterial
  1
BYBLOCK
  0
MATERIAL
  5
44
102
{ACAD_REACTORS
330
43
102
}
102
{ACAD_XDICTIONARY
360
52C
102
}
330
43
100
AcDbMaterial
  1
BYLAYER
  0
MATERIAL
  5
46
102
{ACAD_REACTORS
330
43
102
}
102
{ACAD_XDICTIONARY
360
530
102
}
330
43
100
AcDbMaterial
  1
GLOBAL
  0
MLINESTYLE
  5
18
102
{ACAD_REACTORS
330
17
102
}
330
17
100
AcDbMlineStyle
  2
Standard
 70
     0
  3

 62
   256
 51
90.0
 52
90.0
 71
     2
 49
0.5
 62
   256
  6
BYLAYER
 49
-0.5
 62
   256
  6
BYLAYER
  0
ACAD_PROXY_OBJECT
  5
48
102
{ACAD_REACTORS
330
47
102
}
330
47
100
AcDbProxyObject
 90
      499
 91
      503
 93
       41
310
903313A31580
  0
ACAD_PROXY_OBJECT
  5
49
102
{ACAD_REACTORS
330
47
102
}
330
47
100
AcDbProxyObject
 90
      499
 91
      503
 93
      105
310
903313A324000000000000004000
  0
ACAD_PROXY_OBJECT
  5
4A
102
{ACAD_REACTORS
330
47
102
}
330
47
100
AcDbProxyObject
 90
      499
 91
      503
 93
      105
310
903313A344000000000000104000
  0
ACAD_PROXY_OBJECT
  5
4B
102
{ACAD_REACTORS
330
47
102
}
330
47
100
AcDbProxyObject
 90
      499
 91
      503
 93
      105
310
903313A354000000000000144000
  0
ACAD_PROXY_OBJECT
  5
4C
102
{ACAD_REACTORS
330
47
102
}
330
47
100
AcDbProxyObject
 90
      499
 91
      503
 93
      105
310
903313A384000000000000204000
  0
ACAD_PROXY_OBJECT
  5
4D
102
{ACAD_REACTORS
330
47
102
}
330
47
100
AcDbProxyObject
 90
      499
 91
      503
 93
      113
310
904313A31304000000000000244000
  0
ACAD_PROXY_OBJECT
  5
4E
102
{ACAD_REACTORS
330
47
102
}
330
47
100
AcDbProxyObject
 90
      499
 91
      503
 93
      113
310
904313A31364000000000000304000
  0
ACAD_PROXY_OBJECT
  5
4F
102
{ACAD_REACTORS
330
47
102
}
330
47
100
AcDbProxyObject
 90
      499
 91
      503
 93
      113
310
904313A32304000000000000344000
  0
ACAD_PROXY_OBJECT
  5
50
102
{ACAD_REACTORS
330
47
102
}
330
47
100
AcDbProxyObject
 90
      499
 91
      503
 93
      113
310
904313A333040000000000003E4000
  0
ACAD_PROXY_OBJECT
  5
51
102
{ACAD_REACTORS
330
47
102
}
330
47
100
AcDbProxyObject
 90
      499
 91
      503
 93
      113
310
904313A34304000000000000444000
  0
ACAD_PROXY_OBJECT
  5
52
102
{ACAD_REACTORS
330
47
102
}
330
47
100
AcDbProxyObject
 90
      499
 91
      503
 93
      113
310
904313A35304000000000000494000
  0
ACAD_PROXY_OBJECT
  5
53
102
{ACAD_REACTORS
330
47
102
}
330
47
100
AcDbProxyObject
 90
      499
 91
      503
 93
      121
310
905313A3130304000000000000594000
  0
ACAD_PROXY_OBJECT
  5
54
102
{ACAD_REACTORS
330
47
102
}
330
47
100
AcDbProxyObject
 90
      499
 91
      503
 93
      105
310
903323A310000000000000010100
  0
ACAD_PROXY_OBJECT
  5
55
102
{ACAD_REACTORS
330
47
102
}
330
47
100
AcDbProxyObject
 90
      499
 91
      503
 93
      105
310
903343A310000000000000410100
  0
ACAD_PROXY_OBJECT
  5
56
102
{ACAD_REACTORS
330
47
102
}
330
47
100
AcDbProxyObject
 90
      499
 91
      503
 93
      105
310
903383A310000000000000810100
  0
ACAD_PROXY_OBJECT
  5
57
102
{ACAD_REACTORS
330
47
102
}
330
47
100
AcDbProxyObject
 90
      499
 91
      503
 93
      113
310
90431303A310000000000000910100
  0
ACAD_PROXY_OBJECT
  5
58
102
{ACAD_REACTORS
330
47
102
}
330
47
100
AcDbProxyObject
 90
      499
 91
      503
 93
      121
310
9053130303A310000000000001650100
  0
ACAD_PROXY_OBJECT
  5
59
102
{ACAD_REACTORS
330
47
102
}
330
47
100
AcDbProxyObject
 90
      499
 91
      503
 93
      257
310
90E312F31323822203D2031272D3022000000000000200FC000000000000284000
  0
ACAD_PROXY_OBJECT
  5
5A
102
{ACAD_REACTORS
330
47
102
}
330
47
100
AcDbProxyObject
 90
      499
 91
      503
 93
      249
310
90D312F363422203D2031272D3022000000000000240FC000000000000284000
  0
ACAD_PROXY_OBJECT
  5
5B
102
{ACAD_REACTORS
330
47
102
}
330
47
100
AcDbProxyObject
 90
      499
 91
      503
 93
      249
310
90D312F333222203D2031272D3022000000000000280FC000000000000284000
  0
ACAD_PROXY_OBJECT
  5
5C
102
{ACAD_REACTORS
330
47
102
}
330
47
100
AcDbProxyObject
 90
      499
 91
      503
 93
      249
310
90D312F313622203D2031272D30220000000000002C0FC000000000000284000
  0
ACAD_PROXY_OBJECT
  5
5D
102
{ACAD_REACTORS
330
47
102
}
330
47
100
AcDbProxyObject
 90
      499
 91
      503
 93
      249
310
90D332F333222203D2031272D30220000000000002E0FC000000000000284000
  0
ACAD_PROXY_OBJECT
  5
5E
102
{ACAD_REACTORS
330
47
102
}
330
47
100
AcDbProxyObject
 90
      499
 91
      503
 93
      241
310
90C312F3822203D2031272D3022000000000000300FC000000000000284000
  0
ACAD_PROXY_OBJECT
  5
5F
102
{ACAD_REACTORS
330
47
102
}
330
47
100
AcDbProxyObject
 90
      499
 91
      503
 93
      249
310
90D332F313622203D2031272D3022000000000000320FC000000000000284000
  0
ACAD_PROXY_OBJECT
  5
60
102
{ACAD_REACTORS
330
47
102
}
330
47
100
AcDbProxyObject
 90
      499
 91
      503
 93
      241
310
90C312F3422203D2031272D3022000000000000340FC000000000000284000
  0
ACAD_PROXY_OBJECT
  5
61
102
{ACAD_REACTORS
330
47
102
}
330
47
100
AcDbProxyObject
 90
      499
 91
      503
 93
      241
310
90C332F3822203D2031272D3022000000000000360FC000000000000284000
  0
ACAD_PROXY_OBJECT
  5
62
102
{ACAD_REACTORS
330
47
102
}
330
47
100
AcDbProxyObject
 90
      499
 91
      503
 93
      241
310
90C312F3222203D2031272D3022000000000000380FC000000000000284000
  0
ACAD_PROXY_OBJECT
  5
63
102
{ACAD_REACTORS
330
47
102
}
330
47
100
AcDbProxyObject
 90
      499
 91
      503
 93
      241
310
90C332F3422203D2031272D30220000000000003A0FC000000000000284000
  0
ACAD_PROXY_OBJECT
  5
64
102
{ACAD_REACTORS
330
47
102
}
330
47
100
AcDbProxyObject
 90
      499
 91
      503
 93
      161
310
90A3122203D2031272D30224000000000000284000
  0
ACAD_PROXY_OBJECT
  5
65
102
{ACAD_REACTORS
330
47
102
}
330
47
100
AcDbProxyObject
 90
      499
 91
      503
 93
      257
310
90E312D312F3222203D2031272D30220000000000003E0FC000000000000284000
  0
ACAD_PROXY_OBJECT
  5
66
102
{ACAD_REACTORS
330
47
102
}
330
47
100
AcDbProxyObject
 90
      499
 91
      503
 93
      225
310
90A3322203D2031272D302200000000000002100000000000000284000
  0
ACAD_PROXY_OBJECT
  5
67
102
{ACAD_REACTORS
330
47
102
}
330
47
100
AcDbProxyObject
 90
      499
 91
      503
 93
      225
310
90A3622203D2031272D302200000000000006100000000000000284000
  0
ACAD_PROXY_OBJECT
  5
68
102
{ACAD_REACTORS
330
47
102
}
330
47
100
AcDbProxyObject
 90
      499
 91
      503
 93
      249
310
90D31272D3022203D2031272D30220000000000000A100000000000000284000
  0
ACAD_PROXY_OBJECT
  5
2F
102
{ACAD_REACTORS
330
2A
102
}
330
2A
100
AcDbProxyObject
 90
      499
 91
      501
 93
      436
310
42CC9915DA5C99599C985B595049028333333333333E33F0000000000000F90107901411070040501600405405064090741402480A0340
1001
ACAD
1000
AcDbSavedByObjectVersion
1070
     0
  0
ACAD_PROXY_OBJECT
  5
32
102
{ACAD_REACTORS
330
2A
102
}
330
2A
100
AcDbProxyObject
 90
      499
 91
      501
 93
      388
310
4150985CDA58D07406404333333333333E33F0000000000000F90107A41107004050150841D405064090741402480A0350
1001
ACAD
1000
AcDbSavedByObjectVersion
1070
     0
  0
ACAD_PROXY_OBJECT
  5
36
102
{ACAD_REACTORS
330
2A
102
}
330
2A
100
AcDbProxyObject
 90
      499
 91
      501
 93
      428
310
42109C9A59DA1D195B90C409028333333333333E33F0000000000000F9010790141107004050150841D405064090741402480A029950
1001
ACAD
1000
AcDbSavedByObjectVersion
1070
     0
  0
ACAD_PROXY_OBJECT
  5
3A
102
{ACAD_REACTORS
330
2A
102
}
330
2A
100
AcDbProxyObject
 90
      499
 91
      501
 93
      452
310
42D0DBDB1BDC90DA185B99D95104090240C333333333333E33F0000000000000F90108901411070040501508421405064090741402480A0350
1001
ACAD
1000
AcDbSavedByObjectVersion
1070
     0
  0
ACAD_PROXY_OBJECT
  5
34
102
{ACAD_REACTORS
330
2A
102
}
330
2A
100
AcDbProxyObject
 90
      499
 91
      501
 93
      500
310
4290DBDB98D95C1D1D585B10940D028333333333333E33F0000000000000F90107902409070040501000000000018199010841D405064090740C02480A0340
1001
ACAD
1000
AcDbSavedByObjectVersion
1070
     0
  0
ACAD_PROXY_OBJECT
  5
35
102
{ACAD_REACTORS
330
2A
102
}
330
2A
100
AcDbProxyObject
 90
      499
 91
      501
 93
      412
310
40D11A5B50B409028333333333333E33F0000000000000F9010790141107004050150841D405064090741402480A02677FFFFFD0
1001
ACAD
1000
AcDbSavedByObjectVersion
1070
     0
  0
ACAD_PROXY_OBJECT
  5
3D
102
{ACAD_REACTORS
330
2A
102
}
330
2A
100
AcDbProxyObject
 90
      499
 91
      501
 93
      452
310
43115919D950DBDB1BDC93D999916409028333333333333E33F0000000000000F9010790141107004050150841D405064090741402480A0350
1001
ACAD
1000
AcDbSavedByObjectVersion
1070
     0
  0
ACAD_PROXY_OBJECT
  5
39
102
{ACAD_REACTORS
330
2A
102
}
330
2A
100
AcDbProxyObject
 90
      499
 91
      501
 93
      444
310
42D19858D95C185D1D195C9B90F409028333333333333E33F0000000000000F9010790141107004050150841D405064090741402480A0350
1001
ACAD
1000
AcDbSavedByObjectVersion
1070
     0
  0
ACAD_PROXY_OBJECT
  5
2B
102
{ACAD_REACTORS
330
2A
102
}
330
2A
100
AcDbProxyObject
 90
      499
 91
      501
 93
      380
310
41119B185D240901404333333333333E33F0000000000000F9010740A907004050150841D405064090741402480A1B50
1001
ACAD
1000
AcDbSavedByObjectVersion
1070
     0
  0
ACAD_PROXY_OBJECT
  5
2C
102
{ACAD_REACTORS
330
2A
102
}
330
2A
100
AcDbProxyObject
 90
      499
 91
      501
 93
      468
310
43519B185D15DA5D1A115919D95CD0140901404333333333333E33F0000000000000F90107409019070040501600405405064090741402480A1B50
1001
ACAD
1000
AcDbSavedByObjectVersion
1070
     0
  0
ACAD_PROXY_OBJECT
  5
2D
102
{ACAD_REACTORS
330
2A
102
}
330
2A
100
AcDbProxyObject
 90
      499
 91
      501
 93
      404
310
41D1DBDD5C985D5910240902404333333333333E33F0000000000000F9010740A9070040501641D405064090741402480A1B50
1001
ACAD
1000
AcDbSavedByObjectVersion
1070
     0
  0
ACAD_PROXY_OBJECT
  5
2E
102
{ACAD_REACTORS
330
2A
102
}
330
2A
100
AcDbProxyObject
 90
      499
 91
      501
 93
      492
310
4411DBDD5C985D5915DA5D1A115919D95CD0340902404333333333333E33F0000000000000F90107409019070040501600405405064090741402480A1B50
1001
ACAD
1000
AcDbSavedByObjectVersion
1070
     0
  0
ACAD_PROXY_OBJECT
  5
31
102
{ACAD_REACTORS
330
2A
102
}
330
2A
100
AcDbProxyObject
 90
      499
 91
      501
 93
      476
310
41921A5919195B90640502408333333333333E33F0000000000000F901079024090700405020000000000001110200405405064090740C02480A0340
1001
ACAD
1000
AcDbSavedByObjectVersion
1070
     0
  0
ACAD_PROXY_OBJECT
  5
3B
102
{ACAD_REACTORS
330
2A
102
}
330
2A
100
AcDbProxyObject
 90
      499
 91
      501
 93
      428
310
42529A5D1D195C93D999914409028333333333333E33F0000000000000F9010790141107004050150A41D405064090741402480A0350
1001
ACAD
1000
AcDbSavedByObjectVersion
1070
     0
  0
ACAD_PROXY_OBJECT
  5
38
102
{ACAD_REACTORS
330
2A
102
}
330
2A
100
AcDbProxyObject
 90
      499
 91
      501
 93
      444
310
42D31A5B995C185D1D195C9B90E409028333333333333E33F0000000000000F9010790141107004050750841D405064090741402483A0350
1001
ACAD
1000
AcDbSavedByObjectVersion
1070
     0
  0
ACAD_PROXY_OBJECT
  5
3C
102
{ACAD_REACTORS
330
2A
102
}
330
2A
100
AcDbProxyObject
 90
      499
 91
      501
 93
      444
310
42D3DD995C9A185B99D3D999915409028333333333333E33F0000000000000F9010790141107004050150941D405064090741402480A0350
1001
ACAD
1000
AcDbSavedByObjectVersion
1070
     0
  0
ACAD_PROXY_OBJECT
  5
33
102
{ACAD_REACTORS
330
2A
102
}
330
2A
100
AcDbProxyObject
 90
      499
 91
      501
 93
      428
310
425499585B1A5CDD1A58D08409038333333333333E33F0000000000000F9010740A907004050150800405405064090740C02480A1B40
1001
ACAD
1000
AcDbSavedByObjectVersion
1070
     0
  0
ACAD_PROXY_OBJECT
  5
42
102
{ACAD_REACTORS
330
2A
102
}
330
2A
100
AcDbProxyObject
 90
      499
 91
      501
 93
      420
310
4194DA1859195911B40902404333333333333E33F0000000000000F9010740A41107004050150800405405064090840C02480A0B40
1001
ACAD
1000
AcDbSavedByObjectVersion
1070
     0
  0
ACAD_PROXY_OBJECT
  5
41
102
{ACAD_REACTORS
330
2A
102
}
330
2A
100
AcDbProxyObject
 90
      499
 91
      501
 93
      516
310
4454DA18591959081DDA5D1A08195919D95CD1A40902404333333333333E33F0000000000000F901074090142907004050250800405405064090740C02480A0B40
1001
ACAD
1000
AcDbSavedByObjectVersion
1070
     0
  0
ACAD_PROXY_OBJECT
  5
3E
102
{ACAD_REACTORS
330
2A
102
}
330
2A
100
AcDbProxyObject
 90
      499
 91
      501
 93
      532
310
4394DA1859195CC81BD98811DC985E5174090240C333333333333E33F0000000000000F901079024090741D01000000000000111010841D405064090740C02480A0340
1001
ACAD
1000
AcDbSavedByObjectVersion
1070
     0
  0
ACAD_PROXY_OBJECT
  5
3F
102
{ACAD_REACTORS
330
2A
102
}
330
2A
100
AcDbProxyObject
 90
      499
 91
      501
 93
      476
310
41D4DAD95D18DA1E51840502408333333333333E33F0000000000000F901079024090741D01000000000000111010B41D405064090741802480A0340
1001
ACAD
1000
AcDbSavedByObjectVersion
1070
     0
  0
ACAD_PROXY_OBJECT
  5
37
102
{ACAD_REACTORS
330
2A
102
}
330
2A
100
AcDbProxyObject
 90
      499
 91
      501
 93
      412
310
41D51A1A58DAD95B90D409028333333333333E33F0000000000000F9010790141107004050150C41D405064090741402480A0350
1001
ACAD
1000
AcDbSavedByObjectVersion
1070
     0
  0
ACAD_PROXY_OBJECT
  5
30
102
{ACAD_REACTORS
330
2A
102
}
330
2A
100
AcDbProxyObject
 90
      499
 91
      501
 93
      420
310
4255DA5C99599C985B595059028333333333333E33F0000000000000F90107901411070040501600405405064090740C02480A0340
1001
ACAD
1000
AcDbSavedByObjectVersion
1070
     0
  0
ACAD_PROXY_OBJECT
  5
40
102
{ACAD_REACTORS
330
2A
102
}
330
2A
100
AcDbProxyObject
 90
      499
 91
      501
 93
      404
310
41560B54985E51940902404000000000000E03F0000000000000F9010740501907004050150841D405064090740C02480A1B40
1001
ACAD
1000
AcDbSavedByObjectVersion
1070
     0
  0
XRECORD
  5
50A
102
{ACAD_REACTORS
330
501
102
}
330
501
100
AcDbXrecord
 90
        0
  0
XRECORD
  5
520
102
{ACAD_REACTORS
330
501
102
}
330
501
100
AcDbXrecord
1000
DSTYLE
1002
{
1070
   340
340
11
1002
}
  0
XRECORD
  5
50B
102
{ACAD_REACTORS
330
501
102
}
330
501
100
AcDbXrecord
  1
{1ED4ADDF-A892-4A9E-B2ED-0F9C0B1030B1}
  0
XRECORD
  5
504
102
{ACAD_REACTORS
330
501
102
}
330
501
100
AcDbXrecord
  1

  0
XRECORD
  5
509
102
{ACAD_REACTORS
330
501
102
}
330
501
100
AcDbXrecord
 90
        1
  0
XRECORD
  5
506
102
{ACAD_REACTORS
330
501
102
}
330
501
100
AcDbXrecord
340
1A
  0
XRECORD
  5
508
102
{ACAD_REACTORS
330
501
102
}
330
501
100
AcDbXrecord
 90
    10781
  0
XRECORD
  5
507
102
{ACAD_REACTORS
330
501
102
}
330
501
100
AcDbXrecord
340
19
  0
XRECORD
  5
50D
102
{ACAD_REACTORS
330
501
102
}
330
501
100
AcDbXrecord
 40
0.0
  0
XRECORD
  5
510
102
{ACAD_REACTORS
330
501
102
}
330
501
100
AcDbXrecord
340
0
  0
XRECORD
  5
516
102
{ACAD_REACTORS
330
501
102
}
330
501
100
AcDbXrecord
 10
0.0
 20
0.0
 30
0.0
  0
XRECORD
  5
512
102
{ACAD_REACTORS
330
501
102
}
330
501
100
AcDbXrecord
 10
0.0
 20
0.0
 30
0.0
  0
XRECORD
  5
515
102
{ACAD_REACTORS
330
501
102
}
330
501
100
AcDbXrecord
 10
0.0
 20
0.0
 30
0.0
  0
XRECORD
  5
513
102
{ACAD_REACTORS
330
501
102
}
330
501
100
AcDbXrecord
 10
0.0
 20
0.0
 30
0.0
  0
XRECORD
  5
514
102
{ACAD_REACTORS
330
501
102
}
330
501
100
AcDbXrecord
 10
0.0
 20
0.0
 30
0.0
  0
XRECORD
  5
511
102
{ACAD_REACTORS
330
501
102
}
330
501
100
AcDbXrecord
 10
0.0
 20
0.0
 30
0.0
  0
XRECORD
  5
50E
102
{ACAD_REACTORS
330
501
102
}
330
501
100
AcDbXrecord
340
0
  0
XRECORD
  5
50F
102
{ACAD_REACTORS
330
501
102
}
330
501
100
AcDbXrecord
 70
     0
  0
XRECORD
  5
505
102
{ACAD_REACTORS
330
501
102
}
330
501
100
AcDbXrecord
  1

  0
XRECORD
  5
502
102
{ACAD_REACTORS
330
501
102
}
330
501
100
AcDbXrecord
 90
        1
  0
XRECORD
  5
503
102
{ACAD_REACTORS
330
501
102
}
330
501
100
AcDbXrecord
 90
       70
  0
XRECORD
  5
519
102
{ACAD_REACTORS
330
501
102
}
330
501
100
AcDbXrecord
340
0
  0
XRECORD
  5
51F
102
{ACAD_REACTORS
330
501
102
}
330
501
100
AcDbXrecord
 10
0.0
 20
0.0
 30
0.0
  0
XRECORD
  5
51B
102
{ACAD_REACTORS
330
501
102
}
330
501
100
AcDbXrecord
 10
0.0
 20
0.0
 30
0.0
  0
XRECORD
  5
51E
102
{ACAD_REACTORS
330
501
102
}
330
501
100
AcDbXrecord
 10
0.0
 20
0.0
 30
0.0
  0
XRECORD
  5
51C
102
{ACAD_REACTORS
330
501
102
}
330
501
100
AcDbXrecord
 10
0.0
 20
0.0
 30
0.0
  0
XRECORD
  5
51D
102
{ACAD_REACTORS
330
501
102
}
330
501
100
AcDbXrecord
 10
0.0
 20
0.0
 30
0.0
  0
XRECORD
  5
51A
102
{ACAD_REACTORS
330
501
102
}
330
501
100
AcDbXrecord
 10
0.0
 20
0.0
 30
0.0
  0
XRECORD
  5
517
102
{ACAD_REACTORS
330
501
102
}
330
501
100
AcDbXrecord
340
0
  0
XRECORD
  5
518
102
{ACAD_REACTORS
330
501
102
}
330
501
100
AcDbXrecord
 70
     0
  0
XRECORD
  5
50C
102
{ACAD_REACTORS
330
501
102
}
330
501
100
AcDbXrecord
  1
{FAEB1C32-E019-11D5-929B-00C0DF256EC4}
  0
DICTIONARYVAR
  5
52A
102
{ACAD_REACTORS
330
521
102
}
330
521
100
DictionaryVariables
280
     0
  1
1:1
  0
DICTIONARYVAR
  5
526
102
{ACAD_REACTORS
330
521
102
}
330
521
100
DictionaryVariables
280
     0
  1
2
  0
DICTIONARYVAR
  5
527
102
{ACAD_REACTORS
330
521
102
}
330
521
100
DictionaryVariables
280
     0
  1
1
  0
DICTIONARYVAR
  5
52B
102
{ACAD_REACTORS
330
521
102
}
330
521
100
DictionaryVariables
280
     0
  1
1
  0
DICTIONARY
  5
52E
330
45
100
AcDbDictionary
280
     1
  3
ACAD_XREC_ROUNDTRIP
360
52F
  0
DICTIONARY
  5
52C
330
44
100
AcDbDictionary
280
     1
  3
ACAD_XREC_ROUNDTRIP
360
52D
  0
DICTIONARY
  5
530
330
46
100
AcDbDictionary
280
     1
  3
ACAD_XREC_ROUNDTRIP
360
531
  0
XRECORD
  5
52F
102
{ACAD_REACTORS
330
52E
102
}
330
52E
100
AcDbXrecord
102
MATERIAL
148
0.0
149
0.0
149
0.0
 93
        0
 94
      127
282
     0
 72
     1
 77
     1
171
     1
175
     1
179
     1
273
     0
  0
XRECORD
  5
52D
102
{ACAD_REACTORS
330
52C
102
}
330
52C
100
AcDbXrecord
102
MATERIAL
148
0.0
149
0.0
149
0.0
 93
        0
 94
      127
282
     0
 72
     1
 77
     1
171
     1
175
     1
179
     1
273
     0
  0
XRECORD
  5
531
102
{ACAD_REACTORS
330
530
102
}
330
530
100
AcDbXrecord
102
MATERIAL
148
0.0
149
0.0
149
0.0
 93
        0
 94
      127
282
     0
 72
     1
 77
     1
171
     1
175
     1
179
     1
273
     0
  0
ENDSEC
  0
EOF
