  0
SECTION
  2
HEADER
  9
$ACADVER
  1
AC1018
  9
$ACADMAINTVER
 70
     0
  9
$DWGCODEPAGE
  3
ANSI_1252
  9
$INSBASE
 10
0.0
 20
0.0
 30
0.0
  9
$EXTMIN
 10
-11.3866
 20
-43.3142
 30
0.0
  9
$EXTMAX
 10
11.3866
 20
43.3143
 30
0.0
  9
$LIMMIN
 10
0.0
 20
0.0
  9
$LIMMAX
 10
12.0
 20
9.0
  9
$ORTHOMODE
 70
     0
  9
$REGENMODE
 70
     1
  9
$FILLMODE
 70
     1
  9
$QTEXTMODE
 70
     0
  9
$MIRRTEXT
 70
     1
  9
$LTSCALE
 40
1.0
  9
$ATTMODE
 70
     1
  9
$TEXTSIZE
 40
0.2
  9
$TRACEWID
 40
0.05
  9
$TEXTSTYLE
  7
Standard
  9
$CLAYER
  8
0
  9
$CELTYPE
  6
ByLayer
  9
$CECOLOR
 62
   256
  9
$CELTSCALE
 40
1.0
  9
$DISPSILH
 70
     0
  9
$DIMSCALE
 40
1.0
  9
$DIMASZ
 40
0.18
  9
$DIMEXO
 40
0.0625
  9
$DIMDLI
 40
0.38
  9
$DIMRND
 40
0.0
  9
$DIMDLE
 40
0.0
  9
$DIMEXE
 40
0.18
  9
$DIMTP
 40
0.0
  9
$DIMTM
 40
0.0
  9
$DIMTXT
 40
0.18
  9
$DIMCEN
 40
0.09
  9
$DIMTSZ
 40
0.0
  9
$DIMTOL
 70
     0
  9
$DIMLIM
 70
     0
  9
$DIMTIH
 70
     1
  9
$DIMTOH
 70
     1
  9
$DIMSE1
 70
     0
  9
$DIMSE2
 70
     0
  9
$DIMTAD
 70
     0
  9
$DIMZIN
 70
     0
  9
$DIMBLK
  1

  9
$DIMASO
 70
     1
  9
$DIMSHO
 70
     1
  9
$DIMPOST
  1

  9
$DIMAPOST
  1

  9
$DIMALT
 70
     0
  9
$DIMALTD
 70
     2
  9
$DIMALTF
 40
25.4
  9
$DIMLFAC
 40
1.0
  9
$DIMTOFL
 70
     0
  9
$DIMTVP
 40
0.0
  9
$DIMTIX
 70
     0
  9
$DIMSOXD
 70
     0
  9
$DIMSAH
 70
     0
  9
$DIMBLK1
  1

  9
$DIMBLK2
  1

  9
$DIMSTYLE
  2
Standard
  9
$DIMCLRD
 70
     0
  9
$DIMCLRE
 70
     0
  9
$DIMCLRT
 70
     0
  9
$DIMTFAC
 40
1.0
  9
$DIMGAP
 40
0.09
  9
$DIMJUST
 70
     0
  9
$DIMSD1
 70
     0
  9
$DIMSD2
 70
     0
  9
$DIMTOLJ
 70
     1
  9
$DIMTZIN
 70
     0
  9
$DIMALTZ
 70
     0
  9
$DIMALTTZ
 70
     0
  9
$DIMUPT
 70
     0
  9
$DIMDEC
 70
     4
  9
$DIMTDEC
 70
     4
  9
$DIMALTU
 70
     2
  9
$DIMALTTD
 70
     2
  9
$DIMTXSTY
  7
Standard
  9
$DIMAUNIT
 70
     0
  9
$DIMADEC
 70
     0
  9
$DIMALTRND
 40
0.0
  9
$DIMAZIN
 70
     0
  9
$DIMDSEP
 70
    46
  9
$DIMATFIT
 70
     3
  9
$DIMFRAC
 70
     0
  9
$DIMLDRBLK
  1

  9
$DIMLUNIT
 70
     2
  9
$DIMLWD
 70
    -2
  9
$DIMLWE
 70
    -2
  9
$DIMTMOVE
 70
     0
  9
$LUNITS
 70
     2
  9
$LUPREC
 70
     4
  9
$SKETCHINC
 40
0.1
  9
$FILLETRAD
 40
0.5
  9
$AUNITS
 70
     0
  9
$AUPREC
 70
     0
  9
$MENU
  1
.
  9
$ELEVATION
 40
0.0
  9
$PELEVATION
 40
0.0
  9
$THICKNESS
 40
0.0
  9
$LIMCHECK
 70
     0
  9
$CHAMFERA
 40
0.0
  9
$CHAMFERB
 40
0.0
  9
$CHAMFERC
 40
0.0
  9
$CHAMFERD
 40
0.0
  9
$SKPOLY
 70
     0
  9
$TDCREATE
 40
2458283.78951581
  9
$TDUCREATE
 40
2458283.497849144
  9
$TDUPDATE
 40
2458283.789515845
  9
$TDUUPDATE
 40
2458283.497849178
  9
$TDINDWG
 40
0.0000000116
  9
$TDUSRTIMER
 40
0.0000000116
  9
$USRTIMER
 70
     1
  9
$ANGBASE
 50
0.0
  9
$ANGDIR
 70
     0
  9
$PDMODE
 70
     0
  9
$PDSIZE
 40
0.0
  9
$PLINEWID
 40
0.0
  9
$SPLFRAME
 70
     0
  9
$SPLINETYPE
 70
     6
  9
$SPLINESEGS
 70
     8
  9
$HANDSEED
  5
195
  9
$SURFTAB1
 70
     6
  9
$SURFTAB2
 70
     6
  9
$SURFTYPE
 70
     6
  9
$SURFU
 70
     6
  9
$SURFV
 70
     6
  9
$UCSBASE
  2

  9
$UCSNAME
  2

  9
$UCSORG
 10
0.0
 20
0.0
 30
0.0
  9
$UCSXDIR
 10
1.0
 20
0.0
 30
0.0
  9
$UCSYDIR
 10
0.0
 20
1.0
 30
0.0
  9
$UCSORTHOREF
  2

  9
$UCSORTHOVIEW
 70
     0
  9
$UCSORGTOP
 10
0.0
 20
0.0
 30
0.0
  9
$UCSORGBOTTOM
 10
0.0
 20
0.0
 30
0.0
  9
$UCSORGLEFT
 10
0.0
 20
0.0
 30
0.0
  9
$UCSORGRIGHT
 10
0.0
 20
0.0
 30
0.0
  9
$UCSORGFRONT
 10
0.0
 20
0.0
 30
0.0
  9
$UCSORGBACK
 10
0.0
 20
0.0
 30
0.0
  9
$PUCSBASE
  2

  9
$PUCSNAME
  2

  9
$PUCSORG
 10
0.0
 20
0.0
 30
0.0
  9
$PUCSXDIR
 10
1.0
 20
0.0
 30
0.0
  9
$PUCSYDIR
 10
0.0
 20
1.0
 30
0.0
  9
$PUCSORTHOREF
  2

  9
$PUCSORTHOVIEW
 70
     0
  9
$PUCSORGTOP
 10
0.0
 20
0.0
 30
0.0
  9
$PUCSORGBOTTOM
 10
0.0
 20
0.0
 30
0.0
  9
$PUCSORGLEFT
 10
0.0
 20
0.0
 30
0.0
  9
$PUCSORGRIGHT
 10
0.0
 20
0.0
 30
0.0
  9
$PUCSORGFRONT
 10
0.0
 20
0.0
 30
0.0
  9
$PUCSORGBACK
 10
0.0
 20
0.0
 30
0.0
  9
$USERI1
 70
     0
  9
$USERI2
 70
     0
  9
$USERI3
 70
     0
  9
$USERI4
 70
     0
  9
$USERI5
 70
     0
  9
$USERR1
 40
0.0
  9
$USERR2
 40
0.0
  9
$USERR3
 40
0.0
  9
$USERR4
 40
0.0
  9
$USERR5
 40
0.0
  9
$WORLDVIEW
 70
     1
  9
$SHADEDGE
 70
     3
  9
$SHADEDIF
 70
    70
  9
$TILEMODE
 70
     1
  9
$MAXACTVP
 70
    64
  9
$PINSBASE
 10
0.0
 20
0.0
 30
0.0
  9
$PLIMCHECK
 70
     0
  9
$PEXTMIN
 10
1.000000000000000E+20
 20
1.000000000000000E+20
 30
1.000000000000000E+20
  9
$PEXTMAX
 10
-1.000000000000000E+20
 20
-1.000000000000000E+20
 30
-1.000000000000000E+20
  9
$PLIMMIN
 10
0.0
 20
0.0
  9
$PLIMMAX
 10
12.0
 20
9.0
  9
$UNITMODE
 70
     0
  9
$VISRETAIN
 70
     1
  9
$PLINEGEN
 70
     0
  9
$PSLTSCALE
 70
     1
  9
$TREEDEPTH
 70
  3020
  9
$CMLSTYLE
  2
Standard
  9
$CMLJUST
 70
     0
  9
$CMLSCALE
 40
1.0
  9
$PROXYGRAPHICS
 70
     1
  9
$MEASUREMENT
 70
     0
  9
$CELWEIGHT
370
    -1
  9
$ENDCAPS
280
     0
  9
$JOINSTYLE
280
     0
  9
$LWDISPLAY
290
     0
  9
$INSUNITS
 70
     4
  9
$HYPERLINKBASE
  1

  9
$STYLESHEET
  1

  9
$XEDIT
290
     1
  9
$CEPSNTYPE
380
     0
  9
$PSTYLEMODE
290
     1
  9
$FINGERPRINTGUID
  2
{D060BF61-17DE-4B53-BC6D-66E021690B26}
  9
$VERSIONGUID
  2
{FAEB1C32-E019-11D5-929B-00C0DF256EC4}
  9
$EXTNAMES
290
     1
  9
$PSVPSCALE
 40
0.0
  9
$OLESTARTUP
290
     0
  9
$SORTENTS
280
   127
  9
$INDEXCTL
280
     0
  9
$HIDETEXT
280
     1
  9
$XCLIPFRAME
290
     0
  9
$HALOGAP
280
     0
  9
$OBSCOLOR
 70
   257
  9
$OBSLTYPE
280
     0
  9
$INTERSECTIONDISPLAY
280
     0
  9
$INTERSECTIONCOLOR
 70
   257
  9
$DIMASSOC
280
     2
  9
$PROJECTNAME
  1

  0
ENDSEC
  0
SECTION
  2
CLASSES
  0
CLASS
  1
ACDBDICTIONARYWDFLT
  2
AcDbDictionaryWithDefault
  3
ObjectDBX Classes
 90
        0
 91
        4
280
     0
281
     0
  0
CLASS
  1
VISUALSTYLE
  2
AcDbVisualStyle
  3
ObjectDBX Classes
 90
     4095
 91
        4
280
     0
281
     0
  0
CLASS
  1
MATERIAL
  2
AcDbMaterial
  3
ObjectDBX Classes
 90
     1153
 91
        4
280
     0
281
     0
  0
CLASS
  1
SCALE
  2
AcDbScale
  3
ObjectDBX Classes
 90
     1153
 91
        4
280
     0
281
     0
  0
CLASS
  1
TABLESTYLE
  2
AcDbTableStyle
  3
ObjectDBX Classes
 90
     4095
 91
        4
280
     0
281
     0
  0
CLASS
  1
MLEADERSTYLE
  2
AcDbMLeaderStyle
  3
ACDB_MLEADERSTYLE_CLASS
 90
     4095
 91
        4
280
     0
281
     0
  0
CLASS
  1
SUN
  2
AcDbSun
  3
SCENEOE
 90
     1153
 91
        4
280
     0
281
     0
  0
CLASS
  1
DICTIONARYVAR
  2
AcDbDictionaryVar
  3
ObjectDBX Classes
 90
        0
 91
        4
280
     0
281
     0
  0
CLASS
  1
CELLSTYLEMAP
  2
AcDbCellStyleMap
  3
ObjectDBX Classes
 90
     1152
 91
        4
280
     0
281
     0
  0
ENDSEC
  0
SECTION
  2
TABLES
  0
TABLE
  2
VPORT
  5
8
102
{ACAD_XDICTIONARY
360
14E
102
}
330
0
100
AcDbSymbolTable
 70
     1
  0
VPORT
  5
29
330
8
100
AcDbSymbolTableRecord
100
AcDbViewportTableRecord
  2
*Active
 70
     0
 10
0.0
 20
0.0
 11
1.0
 21
1.0
 12
10.42990654205607
 22
4.5
 13
0.0
 23
0.0
 14
0.5
 24
0.5
 15
0.5
 25
0.5
 16
0.0
 26
0.0
 36
1.0
 17
0.0
 27
0.0
 37
0.0
 40
9.0
 41
1.972972972850329
 42
50.0
 43
0.0
 44
0.0
 50
0.0
 51
0.0
 71
     0
 72
   100
 73
     1
 74
     3
 75
     0
 76
     0
 77
     0
 78
     0
281
     0
 65
     1
110
0.0
120
0.0
130
0.0
111
1.0
121
0.0
131
0.0
112
0.0
122
1.0
132
0.0
 79
     0
146
0.0
  0
ENDTAB
  0
TABLE
  2
LTYPE
  5
5
330
0
100
AcDbSymbolTable
 70
     1
  0
LTYPE
  5
14
330
5
100
AcDbSymbolTableRecord
100
AcDbLinetypeTableRecord
  2
ByBlock
 70
     0
  3

 72
    65
 73
     0
 40
0.0
  0
LTYPE
  5
15
330
5
100
AcDbSymbolTableRecord
100
AcDbLinetypeTableRecord
  2
ByLayer
 70
     0
  3

 72
    65
 73
     0
 40
0.0
  0
LTYPE
  5
16
330
5
100
AcDbSymbolTableRecord
100
AcDbLinetypeTableRecord
  2
Continuous
 70
     0
  3
Solid line
 72
    65
 73
     0
 40
0.0
  0
ENDTAB
  0
TABLE
  2
LAYER
  5
2
330
0
100
AcDbSymbolTable
 70
     2
  0
LAYER
  5
10
330
2
100
AcDbSymbolTableRecord
100
AcDbLayerTableRecord
  2
0
 70
     0
 62
     7
  6
Continuous
370
    -3
390
F
  0
LAYER
  5
6F
330
2
100
AcDbSymbolTableRecord
100
AcDbLayerTableRecord
  2
Layer 1
 70
     0
 62
     7
  6
Continuous
370
    -3
390
F
  0
ENDTAB
  0
TABLE
  2
STYLE
  5
3
330
0
100
AcDbSymbolTable
 70
     1
  0
STYLE
  5
11
330
3
100
AcDbSymbolTableRecord
100
AcDbTextStyleTableRecord
  2
Standard
 70
     0
 40
0.0
 41
1.0
 50
0.0
 71
     0
 42
0.2
  3
txt
  4

  0
ENDTAB
  0
TABLE
  2
VIEW
  5
6
330
0
100
AcDbSymbolTable
 70
     0
  0
ENDTAB
  0
TABLE
  2
UCS
  5
7
330
0
100
AcDbSymbolTable
 70
     0
  0
ENDTAB
  0
TABLE
  2
APPID
  5
9
330
0
100
AcDbSymbolTable
 70
     3
  0
APPID
  5
12
330
9
100
AcDbSymbolTableRecord
100
AcDbRegAppTableRecord
  2
ACAD
 70
     0
  0
APPID
  5
6E
330
9
100
AcDbSymbolTableRecord
100
AcDbRegAppTableRecord
  2
ODA
 70
     0
  0
APPID
  5
18D
330
9
100
AcDbSymbolTableRecord
100
AcDbRegAppTableRecord
  2
ACAD_MLEADERVER
 70
     0
  0
ENDTAB
  0
TABLE
  2
DIMSTYLE
  5
A
330
0
100
AcDbSymbolTable
 70
     1
100
AcDbDimStyleTable
  0
DIMSTYLE
105
27
330
A
100
AcDbSymbolTableRecord
100
AcDbDimStyleTableRecord
  2
Standard
 70
     0
178
     0
340
11
  0
ENDTAB
  0
TABLE
  2
BLOCK_RECORD
  5
1
330
0
100
AcDbSymbolTable
 70
     1
  0
BLOCK_RECORD
  5
1F
330
1
100
AcDbSymbolTableRecord
100
AcDbBlockTableRecord
  2
*Model_Space
340
22
  0
BLOCK_RECORD
  5
1B
330
1
100
AcDbSymbolTableRecord
100
AcDbBlockTableRecord
  2
*Paper_Space
340
1E
  0
BLOCK_RECORD
  5
23
330
1
100
AcDbSymbolTableRecord
100
AcDbBlockTableRecord
  2
*Paper_Space0
340
26
  0
ENDTAB
  0
ENDSEC
  0
SECTION
  2
BLOCKS
  0
BLOCK
  5
20
330
1F
100
AcDbEntity
  8
0
100
AcDbBlockBegin
  2
*Model_Space
 70
     0
 10
0.0
 20
0.0
 30
0.0
  3
*Model_Space
  1
*Model_Space
  0
ENDBLK
  5
21
330
1F
100
AcDbEntity
  8
0
100
AcDbBlockEnd
  0
BLOCK
  5
1C
330
1B
100
AcDbEntity
 67
     1
  8
0
100
AcDbBlockBegin
  2
*Paper_Space
 70
     0
 10
0.0
 20
0.0
 30
0.0
  3
*Paper_Space
  1
*Paper_Space
  0
ENDBLK
  5
1D
330
1B
100
AcDbEntity
 67
     1
  8
0
100
AcDbBlockEnd
  0
BLOCK
  5
24
330
23
100
AcDbEntity
  8
0
100
AcDbBlockBegin
  2
*Paper_Space0
 70
     0
 10
0.0
 20
0.0
 30
0.0
  3
*Paper_Space0
  1
*Paper_Space0
  0
ENDBLK
  5
25
330
23
100
AcDbEntity
  8
0
100
AcDbBlockEnd
  0
ENDSEC
  0
SECTION
  2
ENTITIES
  0
SPLINE
  5
70
330
1F
100
AcDbEntity
  8
Layer 1
 62
   250
100
AcDbSpline
210
0.0
220
0.0
230
1.0
 70
    11
 71
     3
 72
    20
 73
    16
 74
     0
 42
0.000000001
 43
0.0000000001
 40
0.0
 40
0.0
 40
0.0
 40
0.0
 40
0.2
 40
0.2
 40
0.2
 40
0.2
 40
0.4
 40
0.4
 40
0.4
 40
0.4
 40
0.6
 40
0.6
 40
0.6
 40
0.6
 40
1.0
 40
1.0
 40
1.0
 40
1.0
 10
-11.3866
 20
-43.3142
 30
0.0
 10
-11.3866
 20
-43.3142
 30
0.0
 10
-11.3866
 20
43.3143
 30
0.0
 10
-11.3866
 20
43.3143
 30
0.0
 10
-11.3866
 20
43.3143
 30
0.0
 10
-11.3866
 20
43.3143
 30
0.0
 10
11.3866
 20
43.3143
 30
0.0
 10
11.3866
 20
43.3143
 30
0.0
 10
11.3866
 20
43.3143
 30
0.0
 10
11.3866
 20
43.3143
 30
0.0
 10
11.3866
 20
-43.3142
 30
0.0
 10
11.3866
 20
-43.3142
 30
0.0
 10
11.3866
 20
-43.3142
 30
0.0
 10
11.3866
 20
-43.3142
 30
0.0
 10
-11.3866
 20
-43.3142
 30
0.0
 10
-11.3866
 20
-43.3142
 30
0.0
  0
SPLINE
  5
71
330
1F
100
AcDbEntity
  8
Layer 1
 62
   250
100
AcDbSpline
210
0.0
220
0.0
230
1.0
 70
    11
 71
     3
 72
    16
 73
    12
 74
     0
 42
0.000000001
 43
0.0000000001
 40
0.0
 40
0.0
 40
0.0
 40
0.0
 40
0.25
 40
0.25
 40
0.25
 40
0.25
 40
0.5
 40
0.5
 40
0.5
 40
0.5
 40
1.0
 40
1.0
 40
1.0
 40
1.0
 10
-10.6817
 20
-40.863
 30
0.0
 10
-10.6817
 20
-40.863
 30
0.0
 10
-10.6817
 20
-40.0954
 30
0.0
 10
-10.6817
 20
-40.0954
 30
0.0
 10
-10.6817
 20
-40.0954
 30
0.0
 10
-10.6817
 20
-40.0954
 30
0.0
 10
-10.2298
 20
-40.4974
 30
0.0
 10
-10.2298
 20
-40.4974
 30
0.0
 10
-10.2298
 20
-40.4974
 30
0.0
 10
-10.2298
 20
-40.4974
 30
0.0
 10
-10.6817
 20
-40.863
 30
0.0
 10
-10.6817
 20
-40.863
 30
0.0
  0
SPLINE
  5
72
330
1F
100
AcDbEntity
  8
Layer 1
 62
   250
100
AcDbSpline
210
0.0
220
0.0
230
1.0
 70
    11
 71
     3
 72
    24
 73
    20
 74
     0
 42
0.000000001
 43
0.0000000001
 40
0.0
 40
0.0
 40
0.0
 40
0.0
 40
0.1666666666666667
 40
0.1666666666666667
 40
0.1666666666666667
 40
0.1666666666666667
 40
0.3333333333333333
 40
0.3333333333333333
 40
0.3333333333333333
 40
0.3333333333333333
 40
0.5
 40
0.5
 40
0.5
 40
0.5
 40
0.6666666666666666
 40
0.6666666666666666
 40
0.6666666666666666
 40
0.6666666666666666
 40
1.0
 40
1.0
 40
1.0
 40
1.0
 10
-8.4586
 20
-41.8499
 30
0.0
 10
-8.4586
 20
-41.8499
 30
0.0
 10
-7.085
 20
-40.4609
 30
0.0
 10
-7.085
 20
-40.4609
 30
0.0
 10
-7.085
 20
-40.4609
 30
0.0
 10
-7.085
 20
-40.4609
 30
0.0
 10
-8.1875
 20
-39.3826
 30
0.0
 10
-8.1875
 20
-39.3826
 30
0.0
 10
-8.1875
 20
-39.3826
 30
0.0
 10
-8.1875
 20
-39.3826
 30
0.0
 10
-10.4829
 20
-41.6854
 30
0.0
 10
-10.4829
 20
-41.6854
 30
0.0
 10
-10.4829
 20
-41.6854
 30
0.0
 10
-10.4829
 20
-41.6854
 30
0.0
 10
-10.3744
 20
-41.8499
 30
0.0
 10
-10.3744
 20
-41.8499
 30
0.0
 10
-10.3744
 20
-41.8499
 30
0.0
 10
-10.3744
 20
-41.8499
 30
0.0
 10
-8.4586
 20
-41.8499
 30
0.0
 10
-8.4586
 20
-41.8499
 30
0.0
  0
SPLINE
  5
73
330
1F
100
AcDbEntity
  8
Layer 1
 62
   250
100
AcDbSpline
210
0.0
220
0.0
230
1.0
 70
    11
 71
     3
 72
    16
 73
    12
 74
     0
 42
0.000000001
 43
0.0000000001
 40
0.0
 40
0.0
 40
0.0
 40
0.0
 40
0.25
 40
0.25
 40
0.25
 40
0.25
 40
0.5
 40
0.5
 40
0.5
 40
0.5
 40
1.0
 40
1.0
 40
1.0
 40
1.0
 10
-7.5368
 20
-41.8499
 30
0.0
 10
-7.5368
 20
-41.8499
 30
0.0
 10
-6.6331
 20
-40.9909
 30
0.0
 10
-6.6331
 20
-40.9909
 30
0.0
 10
-6.6331
 20
-40.9909
 30
0.0
 10
-6.6331
 20
-40.9909
 30
0.0
 10
-5.7656
 20
-41.8499
 30
0.0
 10
-5.7656
 20
-41.8499
 30
0.0
 10
-5.7656
 20
-41.8499
 30
0.0
 10
-5.7656
 20
-41.8499
 30
0.0
 10
-7.5368
 20
-41.8499
 30
0.0
 10
-7.5368
 20
-41.8499
 30
0.0
  0
SPLINE
  5
74
330
1F
100
AcDbEntity
  8
Layer 1
 62
   250
100
AcDbSpline
210
0.0
220
0.0
230
1.0
 70
    11
 71
     3
 72
    16
 73
    12
 74
     0
 42
0.000000001
 43
0.0000000001
 40
0.0
 40
0.0
 40
0.0
 40
0.0
 40
0.25
 40
0.25
 40
0.25
 40
0.25
 40
0.5
 40
0.5
 40
0.5
 40
0.5
 40
1.0
 40
1.0
 40
1.0
 40
1.0
 10
-4.0124
 20
-41.8499
 30
0.0
 10
-4.0124
 20
-41.8499
 30
0.0
 10
-3.3075
 20
-41.1554
 30
0.0
 10
-3.3075
 20
-41.1554
 30
0.0
 10
-3.3075
 20
-41.1554
 30
0.0
 10
-3.3075
 20
-41.1554
 30
0.0
 10
-2.7292
 20
-41.8499
 30
0.0
 10
-2.7292
 20
-41.8499
 30
0.0
 10
-2.7292
 20
-41.8499
 30
0.0
 10
-2.7292
 20
-41.8499
 30
0.0
 10
-4.0124
 20
-41.8499
 30
0.0
 10
-4.0124
 20
-41.8499
 30
0.0
  0
SPLINE
  5
75
330
1F
100
AcDbEntity
  8
Layer 1
 62
   250
100
AcDbSpline
210
0.0
220
0.0
230
1.0
 70
    11
 71
     3
 72
    20
 73
    16
 74
     0
 42
0.000000001
 43
0.0000000001
 40
0.0
 40
0.0
 40
0.0
 40
0.0
 40
0.2
 40
0.2
 40
0.2
 40
0.2
 40
0.4
 40
0.4
 40
0.4
 40
0.4
 40
0.6
 40
0.6
 40
0.6
 40
0.6
 40
1.0
 40
1.0
 40
1.0
 40
1.0
 10
-1.482
 20
-41.8499
 30
0.0
 10
-1.482
 20
-41.8499
 30
0.0
 10
0.9398
 20
-39.4191
 30
0.0
 10
0.9398
 20
-39.4191
 30
0.0
 10
0.9398
 20
-39.4191
 30
0.0
 10
0.9398
 20
-39.4191
 30
0.0
 10
1.952
 20
-40.4609
 30
0.0
 10
1.952
 20
-40.4609
 30
0.0
 10
1.952
 20
-40.4609
 30
0.0
 10
1.952
 20
-40.4609
 30
0.0
 10
0.6326
 20
-41.8499
 30
0.0
 10
0.6326
 20
-41.8499
 30
0.0
 10
0.6326
 20
-41.8499
 30
0.0
 10
0.6326
 20
-41.8499
 30
0.0
 10
-1.482
 20
-41.8499
 30
0.0
 10
-1.482
 20
-41.8499
 30
0.0
  0
SPLINE
  5
76
330
1F
100
AcDbEntity
  8
Layer 1
 62
   250
100
AcDbSpline
210
0.0
220
0.0
230
1.0
 70
    11
 71
     3
 72
    24
 73
    20
 74
     0
 42
0.000000001
 43
0.0000000001
 40
0.0
 40
0.0
 40
0.0
 40
0.0
 40
0.1666666666666667
 40
0.1666666666666667
 40
0.1666666666666667
 40
0.1666666666666667
 40
0.3333333333333333
 40
0.3333333333333333
 40
0.3333333333333333
 40
0.3333333333333333
 40
0.5
 40
0.5
 40
0.5
 40
0.5
 40
0.6666666666666666
 40
0.6666666666666666
 40
0.6666666666666666
 40
0.6666666666666666
 40
1.0
 40
1.0
 40
1.0
 40
1.0
 10
1.8435
 20
-41.8499
 30
0.0
 10
1.8435
 20
-41.8499
 30
0.0
 10
1.699
 20
-41.7037
 30
0.0
 10
1.699
 20
-41.7037
 30
0.0
 10
1.699
 20
-41.7037
 30
0.0
 10
1.699
 20
-41.7037
 30
0.0
 10
4.0124
 20
-39.4009
 30
0.0
 10
4.0124
 20
-39.4009
 30
0.0
 10
4.0124
 20
-39.4009
 30
0.0
 10
4.0124
 20
-39.4009
 30
0.0
 10
5.0607
 20
-40.4426
 30
0.0
 10
5.0607
 20
-40.4426
 30
0.0
 10
5.0607
 20
-40.4426
 30
0.0
 10
5.0607
 20
-40.4426
 30
0.0
 10
3.7594
 20
-41.8499
 30
0.0
 10
3.7594
 20
-41.8499
 30
0.0
 10
3.7594
 20
-41.8499
 30
0.0
 10
3.7594
 20
-41.8499
 30
0.0
 10
1.8435
 20
-41.8499
 30
0.0
 10
1.8435
 20
-41.8499
 30
0.0
  0
SPLINE
  5
77
330
1F
100
AcDbEntity
  8
Layer 1
 62
   250
100
AcDbSpline
210
0.0
220
0.0
230
1.0
 70
    11
 71
     3
 72
    16
 73
    12
 74
     0
 42
0.000000001
 43
0.0000000001
 40
0.0
 40
0.0
 40
0.0
 40
0.0
 40
0.25
 40
0.25
 40
0.25
 40
0.25
 40
0.5
 40
0.5
 40
0.5
 40
0.5
 40
1.0
 40
1.0
 40
1.0
 40
1.0
 10
4.6811
 20
-41.8499
 30
0.0
 10
4.6811
 20
-41.8499
 30
0.0
 10
5.5848
 20
-40.9726
 30
0.0
 10
5.5848
 20
-40.9726
 30
0.0
 10
5.5848
 20
-40.9726
 30
0.0
 10
5.5848
 20
-40.9726
 30
0.0
 10
6.3982
 20
-41.8499
 30
0.0
 10
6.3982
 20
-41.8499
 30
0.0
 10
6.3982
 20
-41.8499
 30
0.0
 10
6.3982
 20
-41.8499
 30
0.0
 10
4.6811
 20
-41.8499
 30
0.0
 10
4.6811
 20
-41.8499
 30
0.0
  0
SPLINE
  5
78
330
1F
100
AcDbEntity
  8
Layer 1
 62
   250
100
AcDbSpline
210
0.0
220
0.0
230
1.0
 70
    11
 71
     3
 72
    16
 73
    12
 74
     0
 42
0.000000001
 43
0.0000000001
 40
0.0
 40
0.0
 40
0.0
 40
0.0
 40
0.25
 40
0.25
 40
0.25
 40
0.25
 40
0.5
 40
0.5
 40
0.5
 40
0.5
 40
1.0
 40
1.0
 40
1.0
 40
1.0
 10
8.2598
 20
-41.8499
 30
0.0
 10
8.2598
 20
-41.8499
 30
0.0
 10
8.9104
 20
-41.192
 30
0.0
 10
8.9104
 20
-41.192
 30
0.0
 10
8.9104
 20
-41.192
 30
0.0
 10
8.9104
 20
-41.192
 30
0.0
 10
9.5611
 20
-41.8499
 30
0.0
 10
9.5611
 20
-41.8499
 30
0.0
 10
9.5611
 20
-41.8499
 30
0.0
 10
9.5611
 20
-41.8499
 30
0.0
 10
8.2598
 20
-41.8499
 30
0.0
 10
8.2598
 20
-41.8499
 30
0.0
  0
SPLINE
  5
79
330
1F
100
AcDbEntity
  8
Layer 1
 62
   250
100
AcDbSpline
210
0.0
220
0.0
230
1.0
 70
    11
 71
     3
 72
    24
 73
    20
 74
     0
 42
0.000000001
 43
0.0000000001
 40
0.0
 40
0.0
 40
0.0
 40
0.0
 40
0.1666666666666667
 40
0.1666666666666667
 40
0.1666666666666667
 40
0.1666666666666667
 40
0.3333333333333333
 40
0.3333333333333333
 40
0.3333333333333333
 40
0.3333333333333333
 40
0.5
 40
0.5
 40
0.5
 40
0.5
 40
0.6666666666666666
 40
0.6666666666666666
 40
0.6666666666666666
 40
0.6666666666666666
 40
1.0
 40
1.0
 40
1.0
 40
1.0
 10
10.1575
 20
-41.4844
 30
0.0
 10
10.1575
 20
-41.4844
 30
0.0
 10
10.6455
 20
-41.0092
 30
0.0
 10
10.6455
 20
-41.0092
 30
0.0
 10
10.6455
 20
-41.0092
 30
0.0
 10
10.6455
 20
-41.0092
 30
0.0
 10
10.6455
 20
-39.7847
 30
0.0
 10
10.6455
 20
-39.7847
 30
0.0
 10
10.6455
 20
-39.7847
 30
0.0
 10
10.6455
 20
-39.7847
 30
0.0
 10
8.7116
 20
-37.8108
 30
0.0
 10
8.7116
 20
-37.8108
 30
0.0
 10
8.7116
 20
-37.8108
 30
0.0
 10
8.7116
 20
-37.8108
 30
0.0
 10
7.6272
 20
-38.9074
 30
0.0
 10
7.6272
 20
-38.9074
 30
0.0
 10
7.6272
 20
-38.9074
 30
0.0
 10
7.6272
 20
-38.9074
 30
0.0
 10
10.1575
 20
-41.4844
 30
0.0
 10
10.1575
 20
-41.4844
 30
0.0
  0
SPLINE
  5
7A
330
1F
100
AcDbEntity
  8
Layer 1
 62
   250
100
AcDbSpline
210
0.0
220
0.0
230
1.0
 70
    11
 71
     3
 72
    20
 73
    16
 74
     0
 42
0.000000001
 43
0.0000000001
 40
0.0
 40
0.0
 40
0.0
 40
0.0
 40
0.2
 40
0.2
 40
0.2
 40
0.2
 40
0.4
 40
0.4
 40
0.4
 40
0.4
 40
0.6
 40
0.6
 40
0.6
 40
0.6
 40
1.0
 40
1.0
 40
1.0
 40
1.0
 10
7.338
 20
-41.8134
 30
0.0
 10
7.338
 20
-41.8134
 30
0.0
 10
8.4044
 20
-40.7168
 30
0.0
 10
8.4044
 20
-40.7168
 30
0.0
 10
8.4044
 20
-40.7168
 30
0.0
 10
8.4044
 20
-40.7168
 30
0.0
 10
3.7774
 20
-36.038
 30
0.0
 10
3.7774
 20
-36.038
 30
0.0
 10
3.7774
 20
-36.038
 30
0.0
 10
3.7774
 20
-36.038
 30
0.0
 10
2.7653
 20
-37.1163
 30
0.0
 10
2.7653
 20
-37.1163
 30
0.0
 10
2.7653
 20
-37.1163
 30
0.0
 10
2.7653
 20
-37.1163
 30
0.0
 10
7.338
 20
-41.8134
 30
0.0
 10
7.338
 20
-41.8134
 30
0.0
  0
SPLINE
  5
7B
330
1F
100
AcDbEntity
  8
Layer 1
 62
   250
100
AcDbSpline
210
0.0
220
0.0
230
1.0
 70
    11
 71
     3
 72
    20
 73
    16
 74
     0
 42
0.000000001
 43
0.0000000001
 40
0.0
 40
0.0
 40
0.0
 40
0.0
 40
0.2
 40
0.2
 40
0.2
 40
0.2
 40
0.4
 40
0.4
 40
0.4
 40
0.4
 40
0.6
 40
0.6
 40
0.6
 40
0.6
 40
1.0
 40
1.0
 40
1.0
 40
1.0
 10
2.4581
 20
-40.004
 30
0.0
 10
2.4581
 20
-40.004
 30
0.0
 10
3.5425
 20
-38.944
 30
0.0
 10
3.5425
 20
-38.944
 30
0.0
 10
3.5425
 20
-38.944
 30
0.0
 10
3.5425
 20
-38.944
 30
0.0
 10
0.976
 20
-36.3487
 30
0.0
 10
0.976
 20
-36.3487
 30
0.0
 10
0.976
 20
-36.3487
 30
0.0
 10
0.976
 20
-36.3487
 30
0.0
 10
-0.0181
 20
-37.427
 30
0.0
 10
-0.0181
 20
-37.427
 30
0.0
 10
-0.0181
 20
-37.427
 30
0.0
 10
-0.0181
 20
-37.427
 30
0.0
 10
2.4581
 20
-40.004
 30
0.0
 10
2.4581
 20
-40.004
 30
0.0
  0
SPLINE
  5
7C
330
1F
100
AcDbEntity
  8
Layer 1
 62
   250
100
AcDbSpline
210
0.0
220
0.0
230
1.0
 70
    11
 71
     3
 72
    20
 73
    16
 74
     0
 42
0.000000001
 43
0.0000000001
 40
0.0
 40
0.0
 40
0.0
 40
0.0
 40
0.2
 40
0.2
 40
0.2
 40
0.2
 40
0.4
 40
0.4
 40
0.4
 40
0.4
 40
0.6
 40
0.6
 40
0.6
 40
0.6
 40
1.0
 40
1.0
 40
1.0
 40
1.0
 10
5.5668
 20
-36.8239
 30
0.0
 10
5.5668
 20
-36.8239
 30
0.0
 10
6.6512
 20
-35.7638
 30
0.0
 10
6.6512
 20
-35.7638
 30
0.0
 10
6.6512
 20
-35.7638
 30
0.0
 10
6.6512
 20
-35.7638
 30
0.0
 10
4.1208
 20
-33.2051
 30
0.0
 10
4.1208
 20
-33.2051
 30
0.0
 10
4.1208
 20
-33.2051
 30
0.0
 10
4.1208
 20
-33.2051
 30
0.0
 10
3.0906
 20
-34.2835
 30
0.0
 10
3.0906
 20
-34.2835
 30
0.0
 10
3.0906
 20
-34.2835
 30
0.0
 10
3.0906
 20
-34.2835
 30
0.0
 10
5.5668
 20
-36.8239
 30
0.0
 10
5.5668
 20
-36.8239
 30
0.0
  0
SPLINE
  5
7D
330
1F
100
AcDbEntity
  8
Layer 1
 62
   250
100
AcDbSpline
210
0.0
220
0.0
230
1.0
 70
    11
 71
     3
 72
    20
 73
    16
 74
     0
 42
0.000000001
 43
0.0000000001
 40
0.0
 40
0.0
 40
0.0
 40
0.0
 40
0.2
 40
0.2
 40
0.2
 40
0.2
 40
0.4
 40
0.4
 40
0.4
 40
0.4
 40
0.6
 40
0.6
 40
0.6
 40
0.6
 40
1.0
 40
1.0
 40
1.0
 40
1.0
 10
-2.0966
 20
-41.4661
 30
0.0
 10
-2.0966
 20
-41.4661
 30
0.0
 10
-1.0121
 20
-40.4061
 30
0.0
 10
-1.0121
 20
-40.4061
 30
0.0
 10
-1.0121
 20
-40.4061
 30
0.0
 10
-1.0121
 20
-40.4061
 30
0.0
 10
-3.5786
 20
-37.8108
 30
0.0
 10
-3.5786
 20
-37.8108
 30
0.0
 10
-3.5786
 20
-37.8108
 30
0.0
 10
-3.5786
 20
-37.8108
 30
0.0
 10
-4.5727
 20
-38.8891
 30
0.0
 10
-4.5727
 20
-38.8891
 30
0.0
 10
-4.5727
 20
-38.8891
 30
0.0
 10
-4.5727
 20
-38.8891
 30
0.0
 10
-2.0966
 20
-41.4661
 30
0.0
 10
-2.0966
 20
-41.4661
 30
0.0
  0
SPLINE
  5
7E
330
1F
100
AcDbEntity
  8
Layer 1
 62
   250
100
AcDbSpline
210
0.0
220
0.0
230
1.0
 70
    11
 71
     3
 72
    20
 73
    16
 74
     0
 42
0.000000001
 43
0.0000000001
 40
0.0
 40
0.0
 40
0.0
 40
0.0
 40
0.2
 40
0.2
 40
0.2
 40
0.2
 40
0.4
 40
0.4
 40
0.4
 40
0.4
 40
0.6
 40
0.6
 40
0.6
 40
0.6
 40
1.0
 40
1.0
 40
1.0
 40
1.0
 10
-1.4945
 20
-38.8891
 30
0.0
 10
-1.4945
 20
-38.8891
 30
0.0
 10
-0.5332
 20
-37.917
 30
0.0
 10
-0.5332
 20
-37.917
 30
0.0
 10
-0.5332
 20
-37.917
 30
0.0
 10
-0.5332
 20
-37.917
 30
0.0
 10
0.4282
 20
-38.8891
 30
0.0
 10
0.4282
 20
-38.8891
 30
0.0
 10
0.4282
 20
-38.8891
 30
0.0
 10
0.4282
 20
-38.8891
 30
0.0
 10
-0.5332
 20
-39.8612
 30
0.0
 10
-0.5332
 20
-39.8612
 30
0.0
 10
-0.5332
 20
-39.8612
 30
0.0
 10
-0.5332
 20
-39.8612
 30
0.0
 10
-1.4945
 20
-38.8891
 30
0.0
 10
-1.4945
 20
-38.8891
 30
0.0
  0
SPLINE
  5
7F
330
1F
100
AcDbEntity
  8
Layer 1
 62
   250
100
AcDbSpline
210
0.0
220
0.0
230
1.0
 70
    11
 71
     3
 72
    20
 73
    16
 74
     0
 42
0.000000001
 43
0.0000000001
 40
0.0
 40
0.0
 40
0.0
 40
0.0
 40
0.2
 40
0.2
 40
0.2
 40
0.2
 40
0.4
 40
0.4
 40
0.4
 40
0.4
 40
0.6
 40
0.6
 40
0.6
 40
0.6
 40
1.0
 40
1.0
 40
1.0
 40
1.0
 10
-4.898
 20
-41.7768
 30
0.0
 10
-4.898
 20
-41.7768
 30
0.0
 10
-3.8317
 20
-40.6802
 30
0.0
 10
-3.8317
 20
-40.6802
 30
0.0
 10
-3.8317
 20
-40.6802
 30
0.0
 10
-3.8317
 20
-40.6802
 30
0.0
 10
-8.4586
 20
-36.0014
 30
0.0
 10
-8.4586
 20
-36.0014
 30
0.0
 10
-8.4586
 20
-36.0014
 30
0.0
 10
-8.4586
 20
-36.0014
 30
0.0
 10
-9.4707
 20
-37.0797
 30
0.0
 10
-9.4707
 20
-37.0797
 30
0.0
 10
-9.4707
 20
-37.0797
 30
0.0
 10
-9.4707
 20
-37.0797
 30
0.0
 10
-4.898
 20
-41.7768
 30
0.0
 10
-4.898
 20
-41.7768
 30
0.0
  0
SPLINE
  5
80
330
1F
100
AcDbEntity
  8
Layer 1
 62
   250
100
AcDbSpline
210
0.0
220
0.0
230
1.0
 70
    11
 71
     3
 72
    20
 73
    16
 74
     0
 42
0.000000001
 43
0.0000000001
 40
0.0
 40
0.0
 40
0.0
 40
0.0
 40
0.2
 40
0.2
 40
0.2
 40
0.2
 40
0.4
 40
0.4
 40
0.4
 40
0.4
 40
0.6
 40
0.6
 40
0.6
 40
0.6
 40
1.0
 40
1.0
 40
1.0
 40
1.0
 10
-5.2053
 20
-32.2182
 30
0.0
 10
-5.2053
 20
-32.2182
 30
0.0
 10
-4.1208
 20
-31.1582
 30
0.0
 10
-4.1208
 20
-31.1582
 30
0.0
 10
-4.1208
 20
-31.1582
 30
0.0
 10
-4.1208
 20
-31.1582
 30
0.0
 10
-6.6512
 20
-28.636
 30
0.0
 10
-6.6512
 20
-28.636
 30
0.0
 10
-6.6512
 20
-28.636
 30
0.0
 10
-6.6512
 20
-28.636
 30
0.0
 10
-7.6995
 20
-29.6595
 30
0.0
 10
-7.6995
 20
-29.6595
 30
0.0
 10
-7.6995
 20
-29.6595
 30
0.0
 10
-7.6995
 20
-29.6595
 30
0.0
 10
-5.2053
 20
-32.2182
 30
0.0
 10
-5.2053
 20
-32.2182
 30
0.0
  0
SPLINE
  5
81
330
1F
100
AcDbEntity
  8
Layer 1
 62
   250
100
AcDbSpline
210
0.0
220
0.0
230
1.0
 70
    11
 71
     3
 72
    20
 73
    16
 74
     0
 42
0.000000001
 43
0.0000000001
 40
0.0
 40
0.0
 40
0.0
 40
0.0
 40
0.2
 40
0.2
 40
0.2
 40
0.2
 40
0.4
 40
0.4
 40
0.4
 40
0.4
 40
0.6
 40
0.6
 40
0.6
 40
0.6
 40
1.0
 40
1.0
 40
1.0
 40
1.0
 10
-6.615
 20
-36.8056
 30
0.0
 10
-6.615
 20
-36.8056
 30
0.0
 10
-5.6029
 20
-35.7638
 30
0.0
 10
-5.6029
 20
-35.7638
 30
0.0
 10
-5.6029
 20
-35.7638
 30
0.0
 10
-5.6029
 20
-35.7638
 30
0.0
 10
-8.1332
 20
-33.2051
 30
0.0
 10
-8.1332
 20
-33.2051
 30
0.0
 10
-8.1332
 20
-33.2051
 30
0.0
 10
-8.1332
 20
-33.2051
 30
0.0
 10
-9.1273
 20
-34.2835
 30
0.0
 10
-9.1273
 20
-34.2835
 30
0.0
 10
-9.1273
 20
-34.2835
 30
0.0
 10
-9.1273
 20
-34.2835
 30
0.0
 10
-6.615
 20
-36.8056
 30
0.0
 10
-6.615
 20
-36.8056
 30
0.0
  0
SPLINE
  5
82
330
1F
100
AcDbEntity
  8
Layer 1
 62
   250
100
AcDbSpline
210
0.0
220
0.0
230
1.0
 70
    11
 71
     3
 72
    20
 73
    16
 74
     0
 42
0.000000001
 43
0.0000000001
 40
0.0
 40
0.0
 40
0.0
 40
0.0
 40
0.2
 40
0.2
 40
0.2
 40
0.2
 40
0.4
 40
0.4
 40
0.4
 40
0.4
 40
0.6
 40
0.6
 40
0.6
 40
0.6
 40
1.0
 40
1.0
 40
1.0
 40
1.0
 10
7.1485
 20
-35.2521
 30
0.0
 10
7.1485
 20
-35.2521
 30
0.0
 10
6.0548
 20
-34.1758
 30
0.0
 10
6.0548
 20
-34.1758
 30
0.0
 10
6.0548
 20
-34.1758
 30
0.0
 10
6.0548
 20
-34.1758
 30
0.0
 10
8.5405
 20
-31.6334
 30
0.0
 10
8.5405
 20
-31.6334
 30
0.0
 10
8.5405
 20
-31.6334
 30
0.0
 10
8.5405
 20
-31.6334
 30
0.0
 10
9.6515
 20
-32.767
 30
0.0
 10
9.6515
 20
-32.767
 30
0.0
 10
9.6515
 20
-32.767
 30
0.0
 10
9.6515
 20
-32.767
 30
0.0
 10
7.1485
 20
-35.2521
 30
0.0
 10
7.1485
 20
-35.2521
 30
0.0
  0
SPLINE
  5
83
330
1F
100
AcDbEntity
  8
Layer 1
 62
   250
100
AcDbSpline
210
0.0
220
0.0
230
1.0
 70
    11
 71
     3
 72
    20
 73
    16
 74
     0
 42
0.000000001
 43
0.0000000001
 40
0.0
 40
0.0
 40
0.0
 40
0.0
 40
0.2
 40
0.2
 40
0.2
 40
0.2
 40
0.4
 40
0.4
 40
0.4
 40
0.4
 40
0.6
 40
0.6
 40
0.6
 40
0.6
 40
1.0
 40
1.0
 40
1.0
 40
1.0
 10
7.1392
 20
-38.3774
 30
0.0
 10
7.1392
 20
-38.3774
 30
0.0
 10
6.0548
 20
-37.3173
 30
0.0
 10
6.0548
 20
-37.3173
 30
0.0
 10
6.0548
 20
-37.3173
 30
0.0
 10
6.0548
 20
-37.3173
 30
0.0
 10
8.3321
 20
-34.978
 30
0.0
 10
8.3321
 20
-34.978
 30
0.0
 10
8.3321
 20
-34.978
 30
0.0
 10
8.3321
 20
-34.978
 30
0.0
 10
9.4165
 20
-36.0745
 30
0.0
 10
9.4165
 20
-36.0745
 30
0.0
 10
9.4165
 20
-36.0745
 30
0.0
 10
9.4165
 20
-36.0745
 30
0.0
 10
7.1392
 20
-38.3774
 30
0.0
 10
7.1392
 20
-38.3774
 30
0.0
  0
SPLINE
  5
84
330
1F
100
AcDbEntity
  8
Layer 1
 62
   250
100
AcDbSpline
210
0.0
220
0.0
230
1.0
 70
    11
 71
     3
 72
    20
 73
    16
 74
     0
 42
0.000000001
 43
0.0000000001
 40
0.0
 40
0.0
 40
0.0
 40
0.0
 40
0.2
 40
0.2
 40
0.2
 40
0.2
 40
0.4
 40
0.4
 40
0.4
 40
0.4
 40
0.6
 40
0.6
 40
0.6
 40
0.6
 40
1.0
 40
1.0
 40
1.0
 40
1.0
 10
10.2298
 20
-38.3956
 30
0.0
 10
10.2298
 20
-38.3956
 30
0.0
 10
10.6455
 20
-38.0301
 30
0.0
 10
10.6455
 20
-38.0301
 30
0.0
 10
10.6455
 20
-38.0301
 30
0.0
 10
10.6455
 20
-38.0301
 30
0.0
 10
10.6455
 20
-35.8735
 30
0.0
 10
10.6455
 20
-35.8735
 30
0.0
 10
10.6455
 20
-35.8735
 30
0.0
 10
10.6455
 20
-35.8735
 30
0.0
 10
9.1996
 20
-37.3356
 30
0.0
 10
9.1996
 20
-37.3356
 30
0.0
 10
9.1996
 20
-37.3356
 30
0.0
 10
9.1996
 20
-37.3356
 30
0.0
 10
10.2298
 20
-38.3956
 30
0.0
 10
10.2298
 20
-38.3956
 30
0.0
  0
SPLINE
  5
85
330
1F
100
AcDbEntity
  8
Layer 1
 62
   250
100
AcDbSpline
210
0.0
220
0.0
230
1.0
 70
    11
 71
     3
 72
    20
 73
    16
 74
     0
 42
0.000000001
 43
0.0000000001
 40
0.0
 40
0.0
 40
0.0
 40
0.0
 40
0.2
 40
0.2
 40
0.2
 40
0.2
 40
0.4
 40
0.4
 40
0.4
 40
0.4
 40
0.6
 40
0.6
 40
0.6
 40
0.6
 40
1.0
 40
1.0
 40
1.0
 40
1.0
 10
9.9226
 20
-35.5445
 30
0.0
 10
9.9226
 20
-35.5445
 30
0.0
 10
10.6455
 20
-34.85
 30
0.0
 10
10.6455
 20
-34.85
 30
0.0
 10
10.6455
 20
-34.85
 30
0.0
 10
10.6455
 20
-34.85
 30
0.0
 10
10.6275
 20
-32.73
 30
0.0
 10
10.6275
 20
-32.73
 30
0.0
 10
10.6275
 20
-32.73
 30
0.0
 10
10.6275
 20
-32.73
 30
0.0
 10
8.8743
 20
-34.5028
 30
0.0
 10
8.8743
 20
-34.5028
 30
0.0
 10
8.8743
 20
-34.5028
 30
0.0
 10
8.8743
 20
-34.5028
 30
0.0
 10
9.9226
 20
-35.5445
 30
0.0
 10
9.9226
 20
-35.5445
 30
0.0
  0
SPLINE
  5
86
330
1F
100
AcDbEntity
  8
Layer 1
 62
   250
100
AcDbSpline
210
0.0
220
0.0
230
1.0
 70
    11
 71
     3
 72
    24
 73
    20
 74
     0
 42
0.000000001
 43
0.0000000001
 40
0.0
 40
0.0
 40
0.0
 40
0.0
 40
0.1666666666666667
 40
0.1666666666666667
 40
0.1666666666666667
 40
0.1666666666666667
 40
0.3333333333333333
 40
0.3333333333333333
 40
0.3333333333333333
 40
0.3333333333333333
 40
0.5
 40
0.5
 40
0.5
 40
0.5
 40
0.6666666666666666
 40
0.6666666666666666
 40
0.6666666666666666
 40
0.6666666666666666
 40
1.0
 40
1.0
 40
1.0
 40
1.0
 10
10.1937
 20
-32.2365
 30
0.0
 10
10.1937
 20
-32.2365
 30
0.0
 10
10.6455
 20
-31.7065
 30
0.0
 10
10.6455
 20
-31.7065
 30
0.0
 10
10.6455
 20
-31.7065
 30
0.0
 10
10.6455
 20
-31.7065
 30
0.0
 10
10.6455
 20
-30.555
 30
0.0
 10
10.6455
 20
-30.555
 30
0.0
 10
10.6455
 20
-30.555
 30
0.0
 10
10.6455
 20
-30.555
 30
0.0
 10
8.9104
 20
-28.8188
 30
0.0
 10
8.9104
 20
-28.8188
 30
0.0
 10
8.9104
 20
-28.8188
 30
0.0
 10
8.9104
 20
-28.8188
 30
0.0
 10
7.8441
 20
-29.9337
 30
0.0
 10
7.8441
 20
-29.9337
 30
0.0
 10
7.8441
 20
-29.9337
 30
0.0
 10
7.8441
 20
-29.9337
 30
0.0
 10
10.1937
 20
-32.2365
 30
0.0
 10
10.1937
 20
-32.2365
 30
0.0
  0
SPLINE
  5
87
330
1F
100
AcDbEntity
  8
Layer 1
 62
   250
100
AcDbSpline
210
0.0
220
0.0
230
1.0
 70
    11
 71
     3
 72
    20
 73
    16
 74
     0
 42
0.000000001
 43
0.0000000001
 40
0.0
 40
0.0
 40
0.0
 40
0.0
 40
0.2
 40
0.2
 40
0.2
 40
0.2
 40
0.4
 40
0.4
 40
0.4
 40
0.4
 40
0.6
 40
0.6
 40
0.6
 40
0.6
 40
1.0
 40
1.0
 40
1.0
 40
1.0
 10
6.9765
 20
-32.2548
 30
0.0
 10
6.9765
 20
-32.2548
 30
0.0
 10
8.061
 20
-31.1947
 30
0.0
 10
8.061
 20
-31.1947
 30
0.0
 10
8.061
 20
-31.1947
 30
0.0
 10
8.061
 20
-31.1947
 30
0.0
 10
5.5306
 20
-28.636
 30
0.0
 10
5.5306
 20
-28.636
 30
0.0
 10
5.5306
 20
-28.636
 30
0.0
 10
5.5306
 20
-28.636
 30
0.0
 10
4.5004
 20
-29.7143
 30
0.0
 10
4.5004
 20
-29.7143
 30
0.0
 10
4.5004
 20
-29.7143
 30
0.0
 10
4.5004
 20
-29.7143
 30
0.0
 10
6.9765
 20
-32.2548
 30
0.0
 10
6.9765
 20
-32.2548
 30
0.0
  0
SPLINE
  5
88
330
1F
100
AcDbEntity
  8
Layer 1
 62
   250
100
AcDbSpline
210
0.0
220
0.0
230
1.0
 70
    11
 71
     3
 72
    20
 73
    16
 74
     0
 42
0.000000001
 43
0.0000000001
 40
0.0
 40
0.0
 40
0.0
 40
0.0
 40
0.2
 40
0.2
 40
0.2
 40
0.2
 40
0.4
 40
0.4
 40
0.4
 40
0.4
 40
0.6
 40
0.6
 40
0.6
 40
0.6
 40
1.0
 40
1.0
 40
1.0
 40
1.0
 10
4.5783
 20
-32.7117
 30
0.0
 10
4.5783
 20
-32.7117
 30
0.0
 10
5.5396
 20
-31.7395
 30
0.0
 10
5.5396
 20
-31.7395
 30
0.0
 10
5.5396
 20
-31.7395
 30
0.0
 10
5.5396
 20
-31.7395
 30
0.0
 10
6.501
 20
-32.7117
 30
0.0
 10
6.501
 20
-32.7117
 30
0.0
 10
6.501
 20
-32.7117
 30
0.0
 10
6.501
 20
-32.7117
 30
0.0
 10
5.5396
 20
-33.6838
 30
0.0
 10
5.5396
 20
-33.6838
 30
0.0
 10
5.5396
 20
-33.6838
 30
0.0
 10
5.5396
 20
-33.6838
 30
0.0
 10
4.5783
 20
-32.7117
 30
0.0
 10
4.5783
 20
-32.7117
 30
0.0
  0
SPLINE
  5
89
330
1F
100
AcDbEntity
  8
Layer 1
 62
   250
100
AcDbSpline
210
0.0
220
0.0
230
1.0
 70
    11
 71
     3
 72
    20
 73
    16
 74
     0
 42
0.000000001
 43
0.0000000001
 40
0.0
 40
0.0
 40
0.0
 40
0.0
 40
0.2
 40
0.2
 40
0.2
 40
0.2
 40
0.4
 40
0.4
 40
0.4
 40
0.4
 40
0.6
 40
0.6
 40
0.6
 40
0.6
 40
1.0
 40
1.0
 40
1.0
 40
1.0
 10
2.5577
 20
-33.79
 30
0.0
 10
2.5577
 20
-33.79
 30
0.0
 10
1.5001
 20
-32.7137
 30
0.0
 10
1.5001
 20
-32.7137
 30
0.0
 10
1.5001
 20
-32.7137
 30
0.0
 10
1.5001
 20
-32.7137
 30
0.0
 10
4.022
 20
-30.1713
 30
0.0
 10
4.022
 20
-30.1713
 30
0.0
 10
4.022
 20
-30.1713
 30
0.0
 10
4.022
 20
-30.1713
 30
0.0
 10
5.0788
 20
-31.2501
 30
0.0
 10
5.0788
 20
-31.2501
 30
0.0
 10
5.0788
 20
-31.2501
 30
0.0
 10
5.0788
 20
-31.2501
 30
0.0
 10
2.5577
 20
-33.79
 30
0.0
 10
2.5577
 20
-33.79
 30
0.0
  0
SPLINE
  5
8A
330
1F
100
AcDbEntity
  8
Layer 1
 62
   250
100
AcDbSpline
210
0.0
220
0.0
230
1.0
 70
    11
 71
     3
 72
    20
 73
    16
 74
     0
 42
0.000000001
 43
0.0000000001
 40
0.0
 40
0.0
 40
0.0
 40
0.0
 40
0.2
 40
0.2
 40
0.2
 40
0.2
 40
0.4
 40
0.4
 40
0.4
 40
0.4
 40
0.6
 40
0.6
 40
0.6
 40
0.6
 40
1.0
 40
1.0
 40
1.0
 40
1.0
 10
-1.9607
 20
-38.4322
 30
0.0
 10
-1.9607
 20
-38.4322
 30
0.0
 10
-3.0545
 20
-37.3559
 30
0.0
 10
-3.0545
 20
-37.3559
 30
0.0
 10
-3.0545
 20
-37.3559
 30
0.0
 10
-3.0545
 20
-37.3559
 30
0.0
 10
-0.5326
 20
-34.7586
 30
0.0
 10
-0.5326
 20
-34.7586
 30
0.0
 10
-0.5326
 20
-34.7586
 30
0.0
 10
-0.5326
 20
-34.7586
 30
0.0
 10
0.5242
 20
-35.874
 30
0.0
 10
0.5242
 20
-35.874
 30
0.0
 10
0.5242
 20
-35.874
 30
0.0
 10
0.5242
 20
-35.874
 30
0.0
 10
-1.9607
 20
-38.4322
 30
0.0
 10
-1.9607
 20
-38.4322
 30
0.0
  0
SPLINE
  5
8B
330
1F
100
AcDbEntity
  8
Layer 1
 62
   250
100
AcDbSpline
210
0.0
220
0.0
230
1.0
 70
    11
 71
     3
 72
    20
 73
    16
 74
     0
 42
0.000000001
 43
0.0000000001
 40
0.0
 40
0.0
 40
0.0
 40
0.0
 40
0.2
 40
0.2
 40
0.2
 40
0.2
 40
0.4
 40
0.4
 40
0.4
 40
0.4
 40
0.6
 40
0.6
 40
0.6
 40
0.6
 40
1.0
 40
1.0
 40
1.0
 40
1.0
 10
-5.0875
 20
-35.2338
 30
0.0
 10
-5.0875
 20
-35.2338
 30
0.0
 10
-6.1632
 20
-34.2123
 30
0.0
 10
-6.1632
 20
-34.2123
 30
0.0
 10
-6.1632
 20
-34.2123
 30
0.0
 10
-6.1632
 20
-34.2123
 30
0.0
 10
-3.6413
 20
-31.6699
 30
0.0
 10
-3.6413
 20
-31.6699
 30
0.0
 10
-3.6413
 20
-31.6699
 30
0.0
 10
-3.6413
 20
-31.6699
 30
0.0
 10
-2.5846
 20
-32.7305
 30
0.0
 10
-2.5846
 20
-32.7305
 30
0.0
 10
-2.5846
 20
-32.7305
 30
0.0
 10
-2.5846
 20
-32.7305
 30
0.0
 10
-5.0875
 20
-35.2338
 30
0.0
 10
-5.0875
 20
-35.2338
 30
0.0
  0
SPLINE
  5
8C
330
1F
100
AcDbEntity
  8
Layer 1
 62
   250
100
AcDbSpline
210
0.0
220
0.0
230
1.0
 70
    11
 71
     3
 72
    20
 73
    16
 74
     0
 42
0.000000001
 43
0.0000000001
 40
0.0
 40
0.0
 40
0.0
 40
0.0
 40
0.2
 40
0.2
 40
0.2
 40
0.2
 40
0.4
 40
0.4
 40
0.4
 40
0.4
 40
0.6
 40
0.6
 40
0.6
 40
0.6
 40
1.0
 40
1.0
 40
1.0
 40
1.0
 10
-0.5148
 20
-30.6464
 30
0.0
 10
-0.5148
 20
-30.6464
 30
0.0
 10
-1.6086
 20
-29.5701
 30
0.0
 10
-1.6086
 20
-29.5701
 30
0.0
 10
-1.6086
 20
-29.5701
 30
0.0
 10
-1.6086
 20
-29.5701
 30
0.0
 10
0.8771
 20
-27.0277
 30
0.0
 10
0.8771
 20
-27.0277
 30
0.0
 10
0.8771
 20
-27.0277
 30
0.0
 10
0.8771
 20
-27.0277
 30
0.0
 10
1.9881
 20
-28.1614
 30
0.0
 10
1.9881
 20
-28.1614
 30
0.0
 10
1.9881
 20
-28.1614
 30
0.0
 10
1.9881
 20
-28.1614
 30
0.0
 10
-0.5148
 20
-30.6464
 30
0.0
 10
-0.5148
 20
-30.6464
 30
0.0
  0
SPLINE
  5
8D
330
1F
100
AcDbEntity
  8
Layer 1
 62
   250
100
AcDbSpline
210
0.0
220
0.0
230
1.0
 70
    11
 71
     3
 72
    20
 73
    16
 74
     0
 42
0.000000001
 43
0.0000000001
 40
0.0
 40
0.0
 40
0.0
 40
0.0
 40
0.2
 40
0.2
 40
0.2
 40
0.2
 40
0.4
 40
0.4
 40
0.4
 40
0.4
 40
0.6
 40
0.6
 40
0.6
 40
0.6
 40
1.0
 40
1.0
 40
1.0
 40
1.0
 10
-9.624
 20
-33.79
 30
0.0
 10
-9.624
 20
-33.79
 30
0.0
 10
-10.6817
 20
-32.7137
 30
0.0
 10
-10.6817
 20
-32.7137
 30
0.0
 10
-10.6817
 20
-32.7137
 30
0.0
 10
-10.6817
 20
-32.7137
 30
0.0
 10
-8.196
 20
-30.1713
 30
0.0
 10
-8.196
 20
-30.1713
 30
0.0
 10
-8.196
 20
-30.1713
 30
0.0
 10
-8.196
 20
-30.1713
 30
0.0
 10
-7.1392
 20
-31.2684
 30
0.0
 10
-7.1392
 20
-31.2684
 30
0.0
 10
-7.1392
 20
-31.2684
 30
0.0
 10
-7.1392
 20
-31.2684
 30
0.0
 10
-9.624
 20
-33.79
 30
0.0
 10
-9.624
 20
-33.79
 30
0.0
  0
SPLINE
  5
8E
330
1F
100
AcDbEntity
  8
Layer 1
 62
   250
100
AcDbSpline
210
0.0
220
0.0
230
1.0
 70
    11
 71
     3
 72
    20
 73
    16
 74
     0
 42
0.000000001
 43
0.0000000001
 40
0.0
 40
0.0
 40
0.0
 40
0.0
 40
0.2
 40
0.2
 40
0.2
 40
0.2
 40
0.4
 40
0.4
 40
0.4
 40
0.4
 40
0.6
 40
0.6
 40
0.6
 40
0.6
 40
1.0
 40
1.0
 40
1.0
 40
1.0
 10
-10.6817
 20
-39.1084
 30
0.0
 10
-10.6817
 20
-39.1084
 30
0.0
 10
-10.6817
 20
-36.8787
 30
0.0
 10
-10.6817
 20
-36.8787
 30
0.0
 10
-10.6817
 20
-36.8787
 30
0.0
 10
-10.6817
 20
-36.8787
 30
0.0
 10
-8.6755
 20
-38.9074
 30
0.0
 10
-8.6755
 20
-38.9074
 30
0.0
 10
-8.6755
 20
-38.9074
 30
0.0
 10
-8.6755
 20
-38.9074
 30
0.0
 10
-9.7599
 20
-39.9857
 30
0.0
 10
-9.7599
 20
-39.9857
 30
0.0
 10
-9.7599
 20
-39.9857
 30
0.0
 10
-9.7599
 20
-39.9857
 30
0.0
 10
-10.6817
 20
-39.1084
 30
0.0
 10
-10.6817
 20
-39.1084
 30
0.0
  0
SPLINE
  5
8F
330
1F
100
AcDbEntity
  8
Layer 1
 62
   250
100
AcDbSpline
210
0.0
220
0.0
230
1.0
 70
    11
 71
     3
 72
    20
 73
    16
 74
     0
 42
0.000000001
 43
0.0000000001
 40
0.0
 40
0.0
 40
0.0
 40
0.0
 40
0.2
 40
0.2
 40
0.2
 40
0.2
 40
0.4
 40
0.4
 40
0.4
 40
0.4
 40
0.6
 40
0.6
 40
0.6
 40
0.6
 40
1.0
 40
1.0
 40
1.0
 40
1.0
 10
-9.9587
 20
-36.6411
 30
0.0
 10
-9.9587
 20
-36.6411
 30
0.0
 10
-10.6817
 20
-35.9466
 30
0.0
 10
-10.6817
 20
-35.9466
 30
0.0
 10
-10.6817
 20
-35.9466
 30
0.0
 10
-10.6817
 20
-35.9466
 30
0.0
 10
-10.6817
 20
-33.7534
 30
0.0
 10
-10.6817
 20
-33.7534
 30
0.0
 10
-10.6817
 20
-33.7534
 30
0.0
 10
-10.6817
 20
-33.7534
 30
0.0
 10
-8.9285
 20
-35.5262
 30
0.0
 10
-8.9285
 20
-35.5262
 30
0.0
 10
-8.9285
 20
-35.5262
 30
0.0
 10
-8.9285
 20
-35.5262
 30
0.0
 10
-9.9587
 20
-36.6411
 30
0.0
 10
-9.9587
 20
-36.6411
 30
0.0
  0
SPLINE
  5
90
330
1F
100
AcDbEntity
  8
Layer 1
 62
   250
100
AcDbSpline
210
0.0
220
0.0
230
1.0
 70
    11
 71
     3
 72
    16
 73
    12
 74
     0
 42
0.000000001
 43
0.0000000001
 40
0.0
 40
0.0
 40
0.0
 40
0.0
 40
0.25
 40
0.25
 40
0.25
 40
0.25
 40
0.5
 40
0.5
 40
0.5
 40
0.5
 40
1.0
 40
1.0
 40
1.0
 40
1.0
 10
-10.6817
 20
-31.6882
 30
0.0
 10
-10.6817
 20
-31.6882
 30
0.0
 10
-9.9226
 20
-30.9206
 30
0.0
 10
-9.9226
 20
-30.9206
 30
0.0
 10
-9.9226
 20
-30.9206
 30
0.0
 10
-9.9226
 20
-30.9206
 30
0.0
 10
-10.6817
 20
-30.1713
 30
0.0
 10
-10.6817
 20
-30.1713
 30
0.0
 10
-10.6817
 20
-30.1713
 30
0.0
 10
-10.6817
 20
-30.1713
 30
0.0
 10
-10.6817
 20
-31.6882
 30
0.0
 10
-10.6817
 20
-31.6882
 30
0.0
  0
SPLINE
  5
91
330
1F
100
AcDbEntity
  8
Layer 1
 62
   250
100
AcDbSpline
210
0.0
220
0.0
230
1.0
 70
    11
 71
     3
 72
    20
 73
    16
 74
     0
 42
0.000000001
 43
0.0000000001
 40
0.0
 40
0.0
 40
0.0
 40
0.0
 40
0.2
 40
0.2
 40
0.2
 40
0.2
 40
0.4
 40
0.4
 40
0.4
 40
0.4
 40
0.6
 40
0.6
 40
0.6
 40
0.6
 40
1.0
 40
1.0
 40
1.0
 40
1.0
 10
-5.0968
 20
-38.4139
 30
0.0
 10
-5.0968
 20
-38.4139
 30
0.0
 10
-6.1451
 20
-37.3539
 30
0.0
 10
-6.1451
 20
-37.3539
 30
0.0
 10
-6.1451
 20
-37.3539
 30
0.0
 10
-6.1451
 20
-37.3539
 30
0.0
 10
-3.8497
 20
-34.978
 30
0.0
 10
-3.8497
 20
-34.978
 30
0.0
 10
-3.8497
 20
-34.978
 30
0.0
 10
-3.8497
 20
-34.978
 30
0.0
 10
-2.7834
 20
-36.0928
 30
0.0
 10
-2.7834
 20
-36.0928
 30
0.0
 10
-2.7834
 20
-36.0928
 30
0.0
 10
-2.7834
 20
-36.0928
 30
0.0
 10
-5.0968
 20
-38.4139
 30
0.0
 10
-5.0968
 20
-38.4139
 30
0.0
  0
SPLINE
  5
92
330
1F
100
AcDbEntity
  8
Layer 1
 62
   250
100
AcDbSpline
210
0.0
220
0.0
230
1.0
 70
    11
 71
     3
 72
    20
 73
    16
 74
     0
 42
0.000000001
 43
0.0000000001
 40
0.0
 40
0.0
 40
0.0
 40
0.0
 40
0.2
 40
0.2
 40
0.2
 40
0.2
 40
0.4
 40
0.4
 40
0.4
 40
0.4
 40
0.6
 40
0.6
 40
0.6
 40
0.6
 40
1.0
 40
1.0
 40
1.0
 40
1.0
 10
-2.2773
 20
-35.5811
 30
0.0
 10
-2.2773
 20
-35.5811
 30
0.0
 10
-3.3256
 20
-34.521
 30
0.0
 10
-3.3256
 20
-34.521
 30
0.0
 10
-3.3256
 20
-34.521
 30
0.0
 10
-3.3256
 20
-34.521
 30
0.0
 10
1.2652
 20
-29.8788
 30
0.0
 10
1.2652
 20
-29.8788
 30
0.0
 10
1.2652
 20
-29.8788
 30
0.0
 10
1.2652
 20
-29.8788
 30
0.0
 10
2.2954
 20
-30.9206
 30
0.0
 10
2.2954
 20
-30.9206
 30
0.0
 10
2.2954
 20
-30.9206
 30
0.0
 10
2.2954
 20
-30.9206
 30
0.0
 10
-2.2773
 20
-35.5811
 30
0.0
 10
-2.2773
 20
-35.5811
 30
0.0
  0
SPLINE
  5
93
330
1F
100
AcDbEntity
  8
Layer 1
 62
   250
100
AcDbSpline
210
0.0
220
0.0
230
1.0
 70
    11
 71
     3
 72
    20
 73
    16
 74
     0
 42
0.000000001
 43
0.0000000001
 40
0.0
 40
0.0
 40
0.0
 40
0.0
 40
0.2
 40
0.2
 40
0.2
 40
0.2
 40
0.4
 40
0.4
 40
0.4
 40
0.4
 40
0.6
 40
0.6
 40
0.6
 40
0.6
 40
1.0
 40
1.0
 40
1.0
 40
1.0
 10
-2.0604
 20
-32.2182
 30
0.0
 10
-2.0604
 20
-32.2182
 30
0.0
 10
-4.3558
 20
-29.8788
 30
0.0
 10
-4.3558
 20
-29.8788
 30
0.0
 10
-4.3558
 20
-29.8788
 30
0.0
 10
-4.3558
 20
-29.8788
 30
0.0
 10
-3.3437
 20
-28.8188
 30
0.0
 10
-3.3437
 20
-28.8188
 30
0.0
 10
-3.3437
 20
-28.8188
 30
0.0
 10
-3.3437
 20
-28.8188
 30
0.0
 10
-1.0302
 20
-31.1216
 30
0.0
 10
-1.0302
 20
-31.1216
 30
0.0
 10
-1.0302
 20
-31.1216
 30
0.0
 10
-1.0302
 20
-31.1216
 30
0.0
 10
-2.0604
 20
-32.2182
 30
0.0
 10
-2.0604
 20
-32.2182
 30
0.0
  0
SPLINE
  5
94
330
1F
100
AcDbEntity
  8
Layer 1
 62
   250
100
AcDbSpline
210
0.0
220
0.0
230
1.0
 70
    11
 71
     3
 72
    20
 73
    16
 74
     0
 42
0.000000001
 43
0.0000000001
 40
0.0
 40
0.0
 40
0.0
 40
0.0
 40
0.2
 40
0.2
 40
0.2
 40
0.2
 40
0.4
 40
0.4
 40
0.4
 40
0.4
 40
0.6
 40
0.6
 40
0.6
 40
0.6
 40
1.0
 40
1.0
 40
1.0
 40
1.0
 10
-7.6035
 20
-32.7482
 30
0.0
 10
-7.6035
 20
-32.7482
 30
0.0
 10
-6.6421
 20
-31.7761
 30
0.0
 10
-6.6421
 20
-31.7761
 30
0.0
 10
-6.6421
 20
-31.7761
 30
0.0
 10
-6.6421
 20
-31.7761
 30
0.0
 10
-5.6808
 20
-32.7482
 30
0.0
 10
-5.6808
 20
-32.7482
 30
0.0
 10
-5.6808
 20
-32.7482
 30
0.0
 10
-5.6808
 20
-32.7482
 30
0.0
 10
-6.6421
 20
-33.7204
 30
0.0
 10
-6.6421
 20
-33.7204
 30
0.0
 10
-6.6421
 20
-33.7204
 30
0.0
 10
-6.6421
 20
-33.7204
 30
0.0
 10
-7.6035
 20
-32.7482
 30
0.0
 10
-7.6035
 20
-32.7482
 30
0.0
  0
SPLINE
  5
95
330
1F
100
AcDbEntity
  8
Layer 1
 62
   250
100
AcDbSpline
210
0.0
220
0.0
230
1.0
 70
    11
 71
     3
 72
    20
 73
    16
 74
     0
 42
0.000000001
 43
0.0000000001
 40
0.0
 40
0.0
 40
0.0
 40
0.0
 40
0.2
 40
0.2
 40
0.2
 40
0.2
 40
0.4
 40
0.4
 40
0.4
 40
0.4
 40
0.6
 40
0.6
 40
0.6
 40
0.6
 40
1.0
 40
1.0
 40
1.0
 40
1.0
 10
2.3135
 20
-36.6777
 30
0.0
 10
2.3135
 20
-36.6777
 30
0.0
 10
0.0
 20
-34.2835
 30
0.0
 10
0.0
 20
-34.2835
 30
0.0
 10
0.0
 20
-34.2835
 30
0.0
 10
0.0
 20
-34.2835
 30
0.0
 10
1.0302
 20
-33.2782
 30
0.0
 10
1.0302
 20
-33.2782
 30
0.0
 10
1.0302
 20
-33.2782
 30
0.0
 10
1.0302
 20
-33.2782
 30
0.0
 10
3.3437
 20
-35.5811
 30
0.0
 10
3.3437
 20
-35.5811
 30
0.0
 10
3.3437
 20
-35.5811
 30
0.0
 10
3.3437
 20
-35.5811
 30
0.0
 10
2.3135
 20
-36.6777
 30
0.0
 10
2.3135
 20
-36.6777
 30
0.0
  0
SPLINE
  5
96
330
1F
100
AcDbEntity
  8
Layer 1
 62
   250
100
AcDbSpline
210
0.0
220
0.0
230
1.0
 70
    11
 71
     3
 72
    16
 73
    12
 74
     0
 42
0.000000001
 43
0.0000000001
 40
0.0
 40
0.0
 40
0.0
 40
0.0
 40
0.25
 40
0.25
 40
0.25
 40
0.25
 40
0.5
 40
0.5
 40
0.5
 40
0.5
 40
1.0
 40
1.0
 40
1.0
 40
1.0
 10
-10.6817
 20
-16.1349
 30
0.0
 10
-10.6817
 20
-16.1349
 30
0.0
 10
-10.6817
 20
-15.3673
 30
0.0
 10
-10.6817
 20
-15.3673
 30
0.0
 10
-10.6817
 20
-15.3673
 30
0.0
 10
-10.6817
 20
-15.3673
 30
0.0
 10
-10.2298
 20
-15.7694
 30
0.0
 10
-10.2298
 20
-15.7694
 30
0.0
 10
-10.2298
 20
-15.7694
 30
0.0
 10
-10.2298
 20
-15.7694
 30
0.0
 10
-10.6817
 20
-16.1349
 30
0.0
 10
-10.6817
 20
-16.1349
 30
0.0
  0
SPLINE
  5
97
330
1F
100
AcDbEntity
  8
Layer 1
 62
   250
100
AcDbSpline
210
0.0
220
0.0
230
1.0
 70
    11
 71
     3
 72
    24
 73
    20
 74
     0
 42
0.000000001
 43
0.0000000001
 40
0.0
 40
0.0
 40
0.0
 40
0.0
 40
0.1666666666666667
 40
0.1666666666666667
 40
0.1666666666666667
 40
0.1666666666666667
 40
0.3333333333333333
 40
0.3333333333333333
 40
0.3333333333333333
 40
0.3333333333333333
 40
0.5
 40
0.5
 40
0.5
 40
0.5
 40
0.6666666666666666
 40
0.6666666666666666
 40
0.6666666666666666
 40
0.6666666666666666
 40
1.0
 40
1.0
 40
1.0
 40
1.0
 10
10.1575
 20
-16.7563
 30
0.0
 10
10.1575
 20
-16.7563
 30
0.0
 10
10.6455
 20
-16.2811
 30
0.0
 10
10.6455
 20
-16.2811
 30
0.0
 10
10.6455
 20
-16.2811
 30
0.0
 10
10.6455
 20
-16.2811
 30
0.0
 10
10.6455
 20
-15.0566
 30
0.0
 10
10.6455
 20
-15.0566
 30
0.0
 10
10.6455
 20
-15.0566
 30
0.0
 10
10.6455
 20
-15.0566
 30
0.0
 10
8.7116
 20
-13.0828
 30
0.0
 10
8.7116
 20
-13.0828
 30
0.0
 10
8.7116
 20
-13.0828
 30
0.0
 10
8.7116
 20
-13.0828
 30
0.0
 10
7.6272
 20
-14.1794
 30
0.0
 10
7.6272
 20
-14.1794
 30
0.0
 10
7.6272
 20
-14.1794
 30
0.0
 10
7.6272
 20
-14.1794
 30
0.0
 10
10.1575
 20
-16.7563
 30
0.0
 10
10.1575
 20
-16.7563
 30
0.0
  0
SPLINE
  5
98
330
1F
100
AcDbEntity
  8
Layer 1
 62
   250
100
AcDbSpline
210
0.0
220
0.0
230
1.0
 70
    11
 71
     3
 72
    20
 73
    16
 74
     0
 42
0.000000001
 43
0.0000000001
 40
0.0
 40
0.0
 40
0.0
 40
0.0
 40
0.2
 40
0.2
 40
0.2
 40
0.2
 40
0.4
 40
0.4
 40
0.4
 40
0.4
 40
0.6
 40
0.6
 40
0.6
 40
0.6
 40
1.0
 40
1.0
 40
1.0
 40
1.0
 10
7.338
 20
-17.0853
 30
0.0
 10
7.338
 20
-17.0853
 30
0.0
 10
8.4044
 20
-15.9887
 30
0.0
 10
8.4044
 20
-15.9887
 30
0.0
 10
8.4044
 20
-15.9887
 30
0.0
 10
8.4044
 20
-15.9887
 30
0.0
 10
3.7774
 20
-11.31
 30
0.0
 10
3.7774
 20
-11.31
 30
0.0
 10
3.7774
 20
-11.31
 30
0.0
 10
3.7774
 20
-11.31
 30
0.0
 10
2.7653
 20
-12.3883
 30
0.0
 10
2.7653
 20
-12.3883
 30
0.0
 10
2.7653
 20
-12.3883
 30
0.0
 10
2.7653
 20
-12.3883
 30
0.0
 10
7.338
 20
-17.0853
 30
0.0
 10
7.338
 20
-17.0853
 30
0.0
  0
SPLINE
  5
99
330
1F
100
AcDbEntity
  8
Layer 1
 62
   250
100
AcDbSpline
210
0.0
220
0.0
230
1.0
 70
    11
 71
     3
 72
    20
 73
    16
 74
     0
 42
0.000000001
 43
0.0000000001
 40
0.0
 40
0.0
 40
0.0
 40
0.0
 40
0.2
 40
0.2
 40
0.2
 40
0.2
 40
0.4
 40
0.4
 40
0.4
 40
0.4
 40
0.6
 40
0.6
 40
0.6
 40
0.6
 40
1.0
 40
1.0
 40
1.0
 40
1.0
 10
2.4581
 20
-15.2759
 30
0.0
 10
2.4581
 20
-15.2759
 30
0.0
 10
3.5425
 20
-14.2159
 30
0.0
 10
3.5425
 20
-14.2159
 30
0.0
 10
3.5425
 20
-14.2159
 30
0.0
 10
3.5425
 20
-14.2159
 30
0.0
 10
0.976
 20
-11.6207
 30
0.0
 10
0.976
 20
-11.6207
 30
0.0
 10
0.976
 20
-11.6207
 30
0.0
 10
0.976
 20
-11.6207
 30
0.0
 10
-0.0181
 20
-12.699
 30
0.0
 10
-0.0181
 20
-12.699
 30
0.0
 10
-0.0181
 20
-12.699
 30
0.0
 10
-0.0181
 20
-12.699
 30
0.0
 10
2.4581
 20
-15.2759
 30
0.0
 10
2.4581
 20
-15.2759
 30
0.0
  0
SPLINE
  5
9A
330
1F
100
AcDbEntity
  8
Layer 1
 62
   250
100
AcDbSpline
210
0.0
220
0.0
230
1.0
 70
    11
 71
     3
 72
    20
 73
    16
 74
     0
 42
0.000000001
 43
0.0000000001
 40
0.0
 40
0.0
 40
0.0
 40
0.0
 40
0.2
 40
0.2
 40
0.2
 40
0.2
 40
0.4
 40
0.4
 40
0.4
 40
0.4
 40
0.6
 40
0.6
 40
0.6
 40
0.6
 40
1.0
 40
1.0
 40
1.0
 40
1.0
 10
5.5668
 20
-12.0958
 30
0.0
 10
5.5668
 20
-12.0958
 30
0.0
 10
6.6512
 20
-11.0358
 30
0.0
 10
6.6512
 20
-11.0358
 30
0.0
 10
6.6512
 20
-11.0358
 30
0.0
 10
6.6512
 20
-11.0358
 30
0.0
 10
4.1208
 20
-8.4771
 30
0.0
 10
4.1208
 20
-8.4771
 30
0.0
 10
4.1208
 20
-8.4771
 30
0.0
 10
4.1208
 20
-8.4771
 30
0.0
 10
3.0906
 20
-9.5554
 30
0.0
 10
3.0906
 20
-9.5554
 30
0.0
 10
3.0906
 20
-9.5554
 30
0.0
 10
3.0906
 20
-9.5554
 30
0.0
 10
5.5668
 20
-12.0958
 30
0.0
 10
5.5668
 20
-12.0958
 30
0.0
  0
SPLINE
  5
9B
330
1F
100
AcDbEntity
  8
Layer 1
 62
   250
100
AcDbSpline
210
0.0
220
0.0
230
1.0
 70
    11
 71
     3
 72
    20
 73
    16
 74
     0
 42
0.000000001
 43
0.0000000001
 40
0.0
 40
0.0
 40
0.0
 40
0.0
 40
0.2
 40
0.2
 40
0.2
 40
0.2
 40
0.4
 40
0.4
 40
0.4
 40
0.4
 40
0.6
 40
0.6
 40
0.6
 40
0.6
 40
1.0
 40
1.0
 40
1.0
 40
1.0
 10
-2.0966
 20
-16.7381
 30
0.0
 10
-2.0966
 20
-16.7381
 30
0.0
 10
-1.0121
 20
-15.678
 30
0.0
 10
-1.0121
 20
-15.678
 30
0.0
 10
-1.0121
 20
-15.678
 30
0.0
 10
-1.0121
 20
-15.678
 30
0.0
 10
-3.5786
 20
-13.0828
 30
0.0
 10
-3.5786
 20
-13.0828
 30
0.0
 10
-3.5786
 20
-13.0828
 30
0.0
 10
-3.5786
 20
-13.0828
 30
0.0
 10
-4.5727
 20
-14.1611
 30
0.0
 10
-4.5727
 20
-14.1611
 30
0.0
 10
-4.5727
 20
-14.1611
 30
0.0
 10
-4.5727
 20
-14.1611
 30
0.0
 10
-2.0966
 20
-16.7381
 30
0.0
 10
-2.0966
 20
-16.7381
 30
0.0
  0
SPLINE
  5
9C
330
1F
100
AcDbEntity
  8
Layer 1
 62
   250
100
AcDbSpline
210
0.0
220
0.0
230
1.0
 70
    11
 71
     3
 72
    20
 73
    16
 74
     0
 42
0.000000001
 43
0.0000000001
 40
0.0
 40
0.0
 40
0.0
 40
0.0
 40
0.2
 40
0.2
 40
0.2
 40
0.2
 40
0.4
 40
0.4
 40
0.4
 40
0.4
 40
0.6
 40
0.6
 40
0.6
 40
0.6
 40
1.0
 40
1.0
 40
1.0
 40
1.0
 10
-1.4945
 20
-14.1611
 30
0.0
 10
-1.4945
 20
-14.1611
 30
0.0
 10
-0.5332
 20
-13.1889
 30
0.0
 10
-0.5332
 20
-13.1889
 30
0.0
 10
-0.5332
 20
-13.1889
 30
0.0
 10
-0.5332
 20
-13.1889
 30
0.0
 10
0.4282
 20
-14.1611
 30
0.0
 10
0.4282
 20
-14.1611
 30
0.0
 10
0.4282
 20
-14.1611
 30
0.0
 10
0.4282
 20
-14.1611
 30
0.0
 10
-0.5332
 20
-15.1332
 30
0.0
 10
-0.5332
 20
-15.1332
 30
0.0
 10
-0.5332
 20
-15.1332
 30
0.0
 10
-0.5332
 20
-15.1332
 30
0.0
 10
-1.4945
 20
-14.1611
 30
0.0
 10
-1.4945
 20
-14.1611
 30
0.0
  0
SPLINE
  5
9D
330
1F
100
AcDbEntity
  8
Layer 1
 62
   250
100
AcDbSpline
210
0.0
220
0.0
230
1.0
 70
    11
 71
     3
 72
    20
 73
    16
 74
     0
 42
0.000000001
 43
0.0000000001
 40
0.0
 40
0.0
 40
0.0
 40
0.0
 40
0.2
 40
0.2
 40
0.2
 40
0.2
 40
0.4
 40
0.4
 40
0.4
 40
0.4
 40
0.6
 40
0.6
 40
0.6
 40
0.6
 40
1.0
 40
1.0
 40
1.0
 40
1.0
 10
-4.898
 20
-17.0488
 30
0.0
 10
-4.898
 20
-17.0488
 30
0.0
 10
-3.8317
 20
-15.9522
 30
0.0
 10
-3.8317
 20
-15.9522
 30
0.0
 10
-3.8317
 20
-15.9522
 30
0.0
 10
-3.8317
 20
-15.9522
 30
0.0
 10
-8.4586
 20
-11.2734
 30
0.0
 10
-8.4586
 20
-11.2734
 30
0.0
 10
-8.4586
 20
-11.2734
 30
0.0
 10
-8.4586
 20
-11.2734
 30
0.0
 10
-9.4707
 20
-12.3517
 30
0.0
 10
-9.4707
 20
-12.3517
 30
0.0
 10
-9.4707
 20
-12.3517
 30
0.0
 10
-9.4707
 20
-12.3517
 30
0.0
 10
-4.898
 20
-17.0488
 30
0.0
 10
-4.898
 20
-17.0488
 30
0.0
  0
SPLINE
  5
9E
330
1F
100
AcDbEntity
  8
Layer 1
 62
   250
100
AcDbSpline
210
0.0
220
0.0
230
1.0
 70
    11
 71
     3
 72
    20
 73
    16
 74
     0
 42
0.000000001
 43
0.0000000001
 40
0.0
 40
0.0
 40
0.0
 40
0.0
 40
0.2
 40
0.2
 40
0.2
 40
0.2
 40
0.4
 40
0.4
 40
0.4
 40
0.4
 40
0.6
 40
0.6
 40
0.6
 40
0.6
 40
1.0
 40
1.0
 40
1.0
 40
1.0
 10
-5.2053
 20
-7.4902
 30
0.0
 10
-5.2053
 20
-7.4902
 30
0.0
 10
-4.1208
 20
-6.4301
 30
0.0
 10
-4.1208
 20
-6.4301
 30
0.0
 10
-4.1208
 20
-6.4301
 30
0.0
 10
-4.1208
 20
-6.4301
 30
0.0
 10
-6.6512
 20
-3.908
 30
0.0
 10
-6.6512
 20
-3.908
 30
0.0
 10
-6.6512
 20
-3.908
 30
0.0
 10
-6.6512
 20
-3.908
 30
0.0
 10
-7.6995
 20
-4.9315
 30
0.0
 10
-7.6995
 20
-4.9315
 30
0.0
 10
-7.6995
 20
-4.9315
 30
0.0
 10
-7.6995
 20
-4.9315
 30
0.0
 10
-5.2053
 20
-7.4902
 30
0.0
 10
-5.2053
 20
-7.4902
 30
0.0
  0
SPLINE
  5
9F
330
1F
100
AcDbEntity
  8
Layer 1
 62
   250
100
AcDbSpline
210
0.0
220
0.0
230
1.0
 70
    11
 71
     3
 72
    20
 73
    16
 74
     0
 42
0.000000001
 43
0.0000000001
 40
0.0
 40
0.0
 40
0.0
 40
0.0
 40
0.2
 40
0.2
 40
0.2
 40
0.2
 40
0.4
 40
0.4
 40
0.4
 40
0.4
 40
0.6
 40
0.6
 40
0.6
 40
0.6
 40
1.0
 40
1.0
 40
1.0
 40
1.0
 10
-6.615
 20
-12.0776
 30
0.0
 10
-6.615
 20
-12.0776
 30
0.0
 10
-5.6029
 20
-11.0358
 30
0.0
 10
-5.6029
 20
-11.0358
 30
0.0
 10
-5.6029
 20
-11.0358
 30
0.0
 10
-5.6029
 20
-11.0358
 30
0.0
 10
-8.1332
 20
-8.4771
 30
0.0
 10
-8.1332
 20
-8.4771
 30
0.0
 10
-8.1332
 20
-8.4771
 30
0.0
 10
-8.1332
 20
-8.4771
 30
0.0
 10
-9.1273
 20
-9.5554
 30
0.0
 10
-9.1273
 20
-9.5554
 30
0.0
 10
-9.1273
 20
-9.5554
 30
0.0
 10
-9.1273
 20
-9.5554
 30
0.0
 10
-6.615
 20
-12.0776
 30
0.0
 10
-6.615
 20
-12.0776
 30
0.0
  0
SPLINE
  5
A0
330
1F
100
AcDbEntity
  8
Layer 1
 62
   250
100
AcDbSpline
210
0.0
220
0.0
230
1.0
 70
    11
 71
     3
 72
    20
 73
    16
 74
     0
 42
0.000000001
 43
0.0000000001
 40
0.0
 40
0.0
 40
0.0
 40
0.0
 40
0.2
 40
0.2
 40
0.2
 40
0.2
 40
0.4
 40
0.4
 40
0.4
 40
0.4
 40
0.6
 40
0.6
 40
0.6
 40
0.6
 40
1.0
 40
1.0
 40
1.0
 40
1.0
 10
7.1485
 20
-10.5241
 30
0.0
 10
7.1485
 20
-10.5241
 30
0.0
 10
6.0548
 20
-9.4477
 30
0.0
 10
6.0548
 20
-9.4477
 30
0.0
 10
6.0548
 20
-9.4477
 30
0.0
 10
6.0548
 20
-9.4477
 30
0.0
 10
8.5405
 20
-6.9053
 30
0.0
 10
8.5405
 20
-6.9053
 30
0.0
 10
8.5405
 20
-6.9053
 30
0.0
 10
8.5405
 20
-6.9053
 30
0.0
 10
9.6515
 20
-8.039
 30
0.0
 10
9.6515
 20
-8.039
 30
0.0
 10
9.6515
 20
-8.039
 30
0.0
 10
9.6515
 20
-8.039
 30
0.0
 10
7.1485
 20
-10.5241
 30
0.0
 10
7.1485
 20
-10.5241
 30
0.0
  0
SPLINE
  5
A1
330
1F
100
AcDbEntity
  8
Layer 1
 62
   250
100
AcDbSpline
210
0.0
220
0.0
230
1.0
 70
    11
 71
     3
 72
    20
 73
    16
 74
     0
 42
0.000000001
 43
0.0000000001
 40
0.0
 40
0.0
 40
0.0
 40
0.0
 40
0.2
 40
0.2
 40
0.2
 40
0.2
 40
0.4
 40
0.4
 40
0.4
 40
0.4
 40
0.6
 40
0.6
 40
0.6
 40
0.6
 40
1.0
 40
1.0
 40
1.0
 40
1.0
 10
7.1392
 20
-13.6493
 30
0.0
 10
7.1392
 20
-13.6493
 30
0.0
 10
6.0548
 20
-12.5893
 30
0.0
 10
6.0548
 20
-12.5893
 30
0.0
 10
6.0548
 20
-12.5893
 30
0.0
 10
6.0548
 20
-12.5893
 30
0.0
 10
8.3321
 20
-10.2499
 30
0.0
 10
8.3321
 20
-10.2499
 30
0.0
 10
8.3321
 20
-10.2499
 30
0.0
 10
8.3321
 20
-10.2499
 30
0.0
 10
9.4165
 20
-11.3465
 30
0.0
 10
9.4165
 20
-11.3465
 30
0.0
 10
9.4165
 20
-11.3465
 30
0.0
 10
9.4165
 20
-11.3465
 30
0.0
 10
7.1392
 20
-13.6493
 30
0.0
 10
7.1392
 20
-13.6493
 30
0.0
  0
SPLINE
  5
A2
330
1F
100
AcDbEntity
  8
Layer 1
 62
   250
100
AcDbSpline
210
0.0
220
0.0
230
1.0
 70
    11
 71
     3
 72
    20
 73
    16
 74
     0
 42
0.000000001
 43
0.0000000001
 40
0.0
 40
0.0
 40
0.0
 40
0.0
 40
0.2
 40
0.2
 40
0.2
 40
0.2
 40
0.4
 40
0.4
 40
0.4
 40
0.4
 40
0.6
 40
0.6
 40
0.6
 40
0.6
 40
1.0
 40
1.0
 40
1.0
 40
1.0
 10
10.2298
 20
-13.6676
 30
0.0
 10
10.2298
 20
-13.6676
 30
0.0
 10
10.6455
 20
-13.3021
 30
0.0
 10
10.6455
 20
-13.3021
 30
0.0
 10
10.6455
 20
-13.3021
 30
0.0
 10
10.6455
 20
-13.3021
 30
0.0
 10
10.6455
 20
-11.1455
 30
0.0
 10
10.6455
 20
-11.1455
 30
0.0
 10
10.6455
 20
-11.1455
 30
0.0
 10
10.6455
 20
-11.1455
 30
0.0
 10
9.1996
 20
-12.6076
 30
0.0
 10
9.1996
 20
-12.6076
 30
0.0
 10
9.1996
 20
-12.6076
 30
0.0
 10
9.1996
 20
-12.6076
 30
0.0
 10
10.2298
 20
-13.6676
 30
0.0
 10
10.2298
 20
-13.6676
 30
0.0
  0
SPLINE
  5
A3
330
1F
100
AcDbEntity
  8
Layer 1
 62
   250
100
AcDbSpline
210
0.0
220
0.0
230
1.0
 70
    11
 71
     3
 72
    20
 73
    16
 74
     0
 42
0.000000001
 43
0.0000000001
 40
0.0
 40
0.0
 40
0.0
 40
0.0
 40
0.2
 40
0.2
 40
0.2
 40
0.2
 40
0.4
 40
0.4
 40
0.4
 40
0.4
 40
0.6
 40
0.6
 40
0.6
 40
0.6
 40
1.0
 40
1.0
 40
1.0
 40
1.0
 10
9.9226
 20
-10.8165
 30
0.0
 10
9.9226
 20
-10.8165
 30
0.0
 10
10.6455
 20
-10.122
 30
0.0
 10
10.6455
 20
-10.122
 30
0.0
 10
10.6455
 20
-10.122
 30
0.0
 10
10.6455
 20
-10.122
 30
0.0
 10
10.6275
 20
-8.0019
 30
0.0
 10
10.6275
 20
-8.0019
 30
0.0
 10
10.6275
 20
-8.0019
 30
0.0
 10
10.6275
 20
-8.0019
 30
0.0
 10
8.8743
 20
-9.7747
 30
0.0
 10
8.8743
 20
-9.7747
 30
0.0
 10
8.8743
 20
-9.7747
 30
0.0
 10
8.8743
 20
-9.7747
 30
0.0
 10
9.9226
 20
-10.8165
 30
0.0
 10
9.9226
 20
-10.8165
 30
0.0
  0
SPLINE
  5
A4
330
1F
100
AcDbEntity
  8
Layer 1
 62
   250
100
AcDbSpline
210
0.0
220
0.0
230
1.0
 70
    11
 71
     3
 72
    24
 73
    20
 74
     0
 42
0.000000001
 43
0.0000000001
 40
0.0
 40
0.0
 40
0.0
 40
0.0
 40
0.1666666666666667
 40
0.1666666666666667
 40
0.1666666666666667
 40
0.1666666666666667
 40
0.3333333333333333
 40
0.3333333333333333
 40
0.3333333333333333
 40
0.3333333333333333
 40
0.5
 40
0.5
 40
0.5
 40
0.5
 40
0.6666666666666666
 40
0.6666666666666666
 40
0.6666666666666666
 40
0.6666666666666666
 40
1.0
 40
1.0
 40
1.0
 40
1.0
 10
10.1937
 20
-7.5084
 30
0.0
 10
10.1937
 20
-7.5084
 30
0.0
 10
10.6455
 20
-6.9784
 30
0.0
 10
10.6455
 20
-6.9784
 30
0.0
 10
10.6455
 20
-6.9784
 30
0.0
 10
10.6455
 20
-6.9784
 30
0.0
 10
10.6455
 20
-5.827
 30
0.0
 10
10.6455
 20
-5.827
 30
0.0
 10
10.6455
 20
-5.827
 30
0.0
 10
10.6455
 20
-5.827
 30
0.0
 10
8.9104
 20
-4.0908
 30
0.0
 10
8.9104
 20
-4.0908
 30
0.0
 10
8.9104
 20
-4.0908
 30
0.0
 10
8.9104
 20
-4.0908
 30
0.0
 10
7.8441
 20
-5.2056
 30
0.0
 10
7.8441
 20
-5.2056
 30
0.0
 10
7.8441
 20
-5.2056
 30
0.0
 10
7.8441
 20
-5.2056
 30
0.0
 10
10.1937
 20
-7.5084
 30
0.0
 10
10.1937
 20
-7.5084
 30
0.0
  0
SPLINE
  5
A5
330
1F
100
AcDbEntity
  8
Layer 1
 62
   250
100
AcDbSpline
210
0.0
220
0.0
230
1.0
 70
    11
 71
     3
 72
    20
 73
    16
 74
     0
 42
0.000000001
 43
0.0000000001
 40
0.0
 40
0.0
 40
0.0
 40
0.0
 40
0.2
 40
0.2
 40
0.2
 40
0.2
 40
0.4
 40
0.4
 40
0.4
 40
0.4
 40
0.6
 40
0.6
 40
0.6
 40
0.6
 40
1.0
 40
1.0
 40
1.0
 40
1.0
 10
6.9765
 20
-7.5267
 30
0.0
 10
6.9765
 20
-7.5267
 30
0.0
 10
8.061
 20
-6.4667
 30
0.0
 10
8.061
 20
-6.4667
 30
0.0
 10
8.061
 20
-6.4667
 30
0.0
 10
8.061
 20
-6.4667
 30
0.0
 10
5.5306
 20
-3.908
 30
0.0
 10
5.5306
 20
-3.908
 30
0.0
 10
5.5306
 20
-3.908
 30
0.0
 10
5.5306
 20
-3.908
 30
0.0
 10
4.5004
 20
-4.9863
 30
0.0
 10
4.5004
 20
-4.9863
 30
0.0
 10
4.5004
 20
-4.9863
 30
0.0
 10
4.5004
 20
-4.9863
 30
0.0
 10
6.9765
 20
-7.5267
 30
0.0
 10
6.9765
 20
-7.5267
 30
0.0
  0
SPLINE
  5
A6
330
1F
100
AcDbEntity
  8
Layer 1
 62
   250
100
AcDbSpline
210
0.0
220
0.0
230
1.0
 70
    11
 71
     3
 72
    20
 73
    16
 74
     0
 42
0.000000001
 43
0.0000000001
 40
0.0
 40
0.0
 40
0.0
 40
0.0
 40
0.2
 40
0.2
 40
0.2
 40
0.2
 40
0.4
 40
0.4
 40
0.4
 40
0.4
 40
0.6
 40
0.6
 40
0.6
 40
0.6
 40
1.0
 40
1.0
 40
1.0
 40
1.0
 10
4.5783
 20
-7.9836
 30
0.0
 10
4.5783
 20
-7.9836
 30
0.0
 10
5.5396
 20
-7.0115
 30
0.0
 10
5.5396
 20
-7.0115
 30
0.0
 10
5.5396
 20
-7.0115
 30
0.0
 10
5.5396
 20
-7.0115
 30
0.0
 10
6.501
 20
-7.9836
 30
0.0
 10
6.501
 20
-7.9836
 30
0.0
 10
6.501
 20
-7.9836
 30
0.0
 10
6.501
 20
-7.9836
 30
0.0
 10
5.5396
 20
-8.9558
 30
0.0
 10
5.5396
 20
-8.9558
 30
0.0
 10
5.5396
 20
-8.9558
 30
0.0
 10
5.5396
 20
-8.9558
 30
0.0
 10
4.5783
 20
-7.9836
 30
0.0
 10
4.5783
 20
-7.9836
 30
0.0
  0
SPLINE
  5
A7
330
1F
100
AcDbEntity
  8
Layer 1
 62
   250
100
AcDbSpline
210
0.0
220
0.0
230
1.0
 70
    11
 71
     3
 72
    20
 73
    16
 74
     0
 42
0.000000001
 43
0.0000000001
 40
0.0
 40
0.0
 40
0.0
 40
0.0
 40
0.2
 40
0.2
 40
0.2
 40
0.2
 40
0.4
 40
0.4
 40
0.4
 40
0.4
 40
0.6
 40
0.6
 40
0.6
 40
0.6
 40
1.0
 40
1.0
 40
1.0
 40
1.0
 10
2.5577
 20
-9.0619
 30
0.0
 10
2.5577
 20
-9.0619
 30
0.0
 10
1.5001
 20
-7.9856
 30
0.0
 10
1.5001
 20
-7.9856
 30
0.0
 10
1.5001
 20
-7.9856
 30
0.0
 10
1.5001
 20
-7.9856
 30
0.0
 10
4.022
 20
-5.4432
 30
0.0
 10
4.022
 20
-5.4432
 30
0.0
 10
4.022
 20
-5.4432
 30
0.0
 10
4.022
 20
-5.4432
 30
0.0
 10
5.0788
 20
-6.522
 30
0.0
 10
5.0788
 20
-6.522
 30
0.0
 10
5.0788
 20
-6.522
 30
0.0
 10
5.0788
 20
-6.522
 30
0.0
 10
2.5577
 20
-9.0619
 30
0.0
 10
2.5577
 20
-9.0619
 30
0.0
  0
SPLINE
  5
A8
330
1F
100
AcDbEntity
  8
Layer 1
 62
   250
100
AcDbSpline
210
0.0
220
0.0
230
1.0
 70
    11
 71
     3
 72
    20
 73
    16
 74
     0
 42
0.000000001
 43
0.0000000001
 40
0.0
 40
0.0
 40
0.0
 40
0.0
 40
0.2
 40
0.2
 40
0.2
 40
0.2
 40
0.4
 40
0.4
 40
0.4
 40
0.4
 40
0.6
 40
0.6
 40
0.6
 40
0.6
 40
1.0
 40
1.0
 40
1.0
 40
1.0
 10
-1.9607
 20
-13.7042
 30
0.0
 10
-1.9607
 20
-13.7042
 30
0.0
 10
-3.0545
 20
-12.6278
 30
0.0
 10
-3.0545
 20
-12.6278
 30
0.0
 10
-3.0545
 20
-12.6278
 30
0.0
 10
-3.0545
 20
-12.6278
 30
0.0
 10
-0.5326
 20
-10.0306
 30
0.0
 10
-0.5326
 20
-10.0306
 30
0.0
 10
-0.5326
 20
-10.0306
 30
0.0
 10
-0.5326
 20
-10.0306
 30
0.0
 10
0.5242
 20
-11.146
 30
0.0
 10
0.5242
 20
-11.146
 30
0.0
 10
0.5242
 20
-11.146
 30
0.0
 10
0.5242
 20
-11.146
 30
0.0
 10
-1.9607
 20
-13.7042
 30
0.0
 10
-1.9607
 20
-13.7042
 30
0.0
  0
SPLINE
  5
A9
330
1F
100
AcDbEntity
  8
Layer 1
 62
   250
100
AcDbSpline
210
0.0
220
0.0
230
1.0
 70
    11
 71
     3
 72
    20
 73
    16
 74
     0
 42
0.000000001
 43
0.0000000001
 40
0.0
 40
0.0
 40
0.0
 40
0.0
 40
0.2
 40
0.2
 40
0.2
 40
0.2
 40
0.4
 40
0.4
 40
0.4
 40
0.4
 40
0.6
 40
0.6
 40
0.6
 40
0.6
 40
1.0
 40
1.0
 40
1.0
 40
1.0
 10
-5.0875
 20
-10.5058
 30
0.0
 10
-5.0875
 20
-10.5058
 30
0.0
 10
-6.1632
 20
-9.4843
 30
0.0
 10
-6.1632
 20
-9.4843
 30
0.0
 10
-6.1632
 20
-9.4843
 30
0.0
 10
-6.1632
 20
-9.4843
 30
0.0
 10
-3.6413
 20
-6.9419
 30
0.0
 10
-3.6413
 20
-6.9419
 30
0.0
 10
-3.6413
 20
-6.9419
 30
0.0
 10
-3.6413
 20
-6.9419
 30
0.0
 10
-2.5846
 20
-8.0024
 30
0.0
 10
-2.5846
 20
-8.0024
 30
0.0
 10
-2.5846
 20
-8.0024
 30
0.0
 10
-2.5846
 20
-8.0024
 30
0.0
 10
-5.0875
 20
-10.5058
 30
0.0
 10
-5.0875
 20
-10.5058
 30
0.0
  0
SPLINE
  5
AA
330
1F
100
AcDbEntity
  8
Layer 1
 62
   250
100
AcDbSpline
210
0.0
220
0.0
230
1.0
 70
    11
 71
     3
 72
    20
 73
    16
 74
     0
 42
0.000000001
 43
0.0000000001
 40
0.0
 40
0.0
 40
0.0
 40
0.0
 40
0.2
 40
0.2
 40
0.2
 40
0.2
 40
0.4
 40
0.4
 40
0.4
 40
0.4
 40
0.6
 40
0.6
 40
0.6
 40
0.6
 40
1.0
 40
1.0
 40
1.0
 40
1.0
 10
-0.5148
 20
-5.9184
 30
0.0
 10
-0.5148
 20
-5.9184
 30
0.0
 10
-1.6086
 20
-4.8421
 30
0.0
 10
-1.6086
 20
-4.8421
 30
0.0
 10
-1.6086
 20
-4.8421
 30
0.0
 10
-1.6086
 20
-4.8421
 30
0.0
 10
0.8771
 20
-2.2997
 30
0.0
 10
0.8771
 20
-2.2997
 30
0.0
 10
0.8771
 20
-2.2997
 30
0.0
 10
0.8771
 20
-2.2997
 30
0.0
 10
1.9881
 20
-3.4333
 30
0.0
 10
1.9881
 20
-3.4333
 30
0.0
 10
1.9881
 20
-3.4333
 30
0.0
 10
1.9881
 20
-3.4333
 30
0.0
 10
-0.5148
 20
-5.9184
 30
0.0
 10
-0.5148
 20
-5.9184
 30
0.0
  0
SPLINE
  5
AB
330
1F
100
AcDbEntity
  8
Layer 1
 62
   250
100
AcDbSpline
210
0.0
220
0.0
230
1.0
 70
    11
 71
     3
 72
    20
 73
    16
 74
     0
 42
0.000000001
 43
0.0000000001
 40
0.0
 40
0.0
 40
0.0
 40
0.0
 40
0.2
 40
0.2
 40
0.2
 40
0.2
 40
0.4
 40
0.4
 40
0.4
 40
0.4
 40
0.6
 40
0.6
 40
0.6
 40
0.6
 40
1.0
 40
1.0
 40
1.0
 40
1.0
 10
-9.624
 20
-9.0619
 30
0.0
 10
-9.624
 20
-9.0619
 30
0.0
 10
-10.6817
 20
-7.9856
 30
0.0
 10
-10.6817
 20
-7.9856
 30
0.0
 10
-10.6817
 20
-7.9856
 30
0.0
 10
-10.6817
 20
-7.9856
 30
0.0
 10
-8.196
 20
-5.4432
 30
0.0
 10
-8.196
 20
-5.4432
 30
0.0
 10
-8.196
 20
-5.4432
 30
0.0
 10
-8.196
 20
-5.4432
 30
0.0
 10
-7.1392
 20
-6.5403
 30
0.0
 10
-7.1392
 20
-6.5403
 30
0.0
 10
-7.1392
 20
-6.5403
 30
0.0
 10
-7.1392
 20
-6.5403
 30
0.0
 10
-9.624
 20
-9.0619
 30
0.0
 10
-9.624
 20
-9.0619
 30
0.0
  0
SPLINE
  5
AC
330
1F
100
AcDbEntity
  8
Layer 1
 62
   250
100
AcDbSpline
210
0.0
220
0.0
230
1.0
 70
    11
 71
     3
 72
    20
 73
    16
 74
     0
 42
0.000000001
 43
0.0000000001
 40
0.0
 40
0.0
 40
0.0
 40
0.0
 40
0.2
 40
0.2
 40
0.2
 40
0.2
 40
0.4
 40
0.4
 40
0.4
 40
0.4
 40
0.6
 40
0.6
 40
0.6
 40
0.6
 40
1.0
 40
1.0
 40
1.0
 40
1.0
 10
-10.6817
 20
-14.3804
 30
0.0
 10
-10.6817
 20
-14.3804
 30
0.0
 10
-10.6817
 20
-12.1507
 30
0.0
 10
-10.6817
 20
-12.1507
 30
0.0
 10
-10.6817
 20
-12.1507
 30
0.0
 10
-10.6817
 20
-12.1507
 30
0.0
 10
-8.6755
 20
-14.1794
 30
0.0
 10
-8.6755
 20
-14.1794
 30
0.0
 10
-8.6755
 20
-14.1794
 30
0.0
 10
-8.6755
 20
-14.1794
 30
0.0
 10
-9.7599
 20
-15.2577
 30
0.0
 10
-9.7599
 20
-15.2577
 30
0.0
 10
-9.7599
 20
-15.2577
 30
0.0
 10
-9.7599
 20
-15.2577
 30
0.0
 10
-10.6817
 20
-14.3804
 30
0.0
 10
-10.6817
 20
-14.3804
 30
0.0
  0
SPLINE
  5
AD
330
1F
100
AcDbEntity
  8
Layer 1
 62
   250
100
AcDbSpline
210
0.0
220
0.0
230
1.0
 70
    11
 71
     3
 72
    20
 73
    16
 74
     0
 42
0.000000001
 43
0.0000000001
 40
0.0
 40
0.0
 40
0.0
 40
0.0
 40
0.2
 40
0.2
 40
0.2
 40
0.2
 40
0.4
 40
0.4
 40
0.4
 40
0.4
 40
0.6
 40
0.6
 40
0.6
 40
0.6
 40
1.0
 40
1.0
 40
1.0
 40
1.0
 10
-9.9587
 20
-11.9131
 30
0.0
 10
-9.9587
 20
-11.9131
 30
0.0
 10
-10.6817
 20
-11.2186
 30
0.0
 10
-10.6817
 20
-11.2186
 30
0.0
 10
-10.6817
 20
-11.2186
 30
0.0
 10
-10.6817
 20
-11.2186
 30
0.0
 10
-10.6817
 20
-9.0254
 30
0.0
 10
-10.6817
 20
-9.0254
 30
0.0
 10
-10.6817
 20
-9.0254
 30
0.0
 10
-10.6817
 20
-9.0254
 30
0.0
 10
-8.9285
 20
-10.7982
 30
0.0
 10
-8.9285
 20
-10.7982
 30
0.0
 10
-8.9285
 20
-10.7982
 30
0.0
 10
-8.9285
 20
-10.7982
 30
0.0
 10
-9.9587
 20
-11.9131
 30
0.0
 10
-9.9587
 20
-11.9131
 30
0.0
  0
SPLINE
  5
AE
330
1F
100
AcDbEntity
  8
Layer 1
 62
   250
100
AcDbSpline
210
0.0
220
0.0
230
1.0
 70
    11
 71
     3
 72
    16
 73
    12
 74
     0
 42
0.000000001
 43
0.0000000001
 40
0.0
 40
0.0
 40
0.0
 40
0.0
 40
0.25
 40
0.25
 40
0.25
 40
0.25
 40
0.5
 40
0.5
 40
0.5
 40
0.5
 40
1.0
 40
1.0
 40
1.0
 40
1.0
 10
-10.6817
 20
-6.9602
 30
0.0
 10
-10.6817
 20
-6.9602
 30
0.0
 10
-9.9226
 20
-6.1925
 30
0.0
 10
-9.9226
 20
-6.1925
 30
0.0
 10
-9.9226
 20
-6.1925
 30
0.0
 10
-9.9226
 20
-6.1925
 30
0.0
 10
-10.6817
 20
-5.4432
 30
0.0
 10
-10.6817
 20
-5.4432
 30
0.0
 10
-10.6817
 20
-5.4432
 30
0.0
 10
-10.6817
 20
-5.4432
 30
0.0
 10
-10.6817
 20
-6.9602
 30
0.0
 10
-10.6817
 20
-6.9602
 30
0.0
  0
SPLINE
  5
AF
330
1F
100
AcDbEntity
  8
Layer 1
 62
   250
100
AcDbSpline
210
0.0
220
0.0
230
1.0
 70
    11
 71
     3
 72
    20
 73
    16
 74
     0
 42
0.000000001
 43
0.0000000001
 40
0.0
 40
0.0
 40
0.0
 40
0.0
 40
0.2
 40
0.2
 40
0.2
 40
0.2
 40
0.4
 40
0.4
 40
0.4
 40
0.4
 40
0.6
 40
0.6
 40
0.6
 40
0.6
 40
1.0
 40
1.0
 40
1.0
 40
1.0
 10
-5.0968
 20
-13.6859
 30
0.0
 10
-5.0968
 20
-13.6859
 30
0.0
 10
-6.1451
 20
-12.6259
 30
0.0
 10
-6.1451
 20
-12.6259
 30
0.0
 10
-6.1451
 20
-12.6259
 30
0.0
 10
-6.1451
 20
-12.6259
 30
0.0
 10
-3.8497
 20
-10.2499
 30
0.0
 10
-3.8497
 20
-10.2499
 30
0.0
 10
-3.8497
 20
-10.2499
 30
0.0
 10
-3.8497
 20
-10.2499
 30
0.0
 10
-2.7834
 20
-11.3648
 30
0.0
 10
-2.7834
 20
-11.3648
 30
0.0
 10
-2.7834
 20
-11.3648
 30
0.0
 10
-2.7834
 20
-11.3648
 30
0.0
 10
-5.0968
 20
-13.6859
 30
0.0
 10
-5.0968
 20
-13.6859
 30
0.0
  0
SPLINE
  5
B0
330
1F
100
AcDbEntity
  8
Layer 1
 62
   250
100
AcDbSpline
210
0.0
220
0.0
230
1.0
 70
    11
 71
     3
 72
    20
 73
    16
 74
     0
 42
0.000000001
 43
0.0000000001
 40
0.0
 40
0.0
 40
0.0
 40
0.0
 40
0.2
 40
0.2
 40
0.2
 40
0.2
 40
0.4
 40
0.4
 40
0.4
 40
0.4
 40
0.6
 40
0.6
 40
0.6
 40
0.6
 40
1.0
 40
1.0
 40
1.0
 40
1.0
 10
-2.2773
 20
-10.853
 30
0.0
 10
-2.2773
 20
-10.853
 30
0.0
 10
-3.3256
 20
-9.793
 30
0.0
 10
-3.3256
 20
-9.793
 30
0.0
 10
-3.3256
 20
-9.793
 30
0.0
 10
-3.3256
 20
-9.793
 30
0.0
 10
1.2652
 20
-5.1508
 30
0.0
 10
1.2652
 20
-5.1508
 30
0.0
 10
1.2652
 20
-5.1508
 30
0.0
 10
1.2652
 20
-5.1508
 30
0.0
 10
2.2954
 20
-6.1925
 30
0.0
 10
2.2954
 20
-6.1925
 30
0.0
 10
2.2954
 20
-6.1925
 30
0.0
 10
2.2954
 20
-6.1925
 30
0.0
 10
-2.2773
 20
-10.853
 30
0.0
 10
-2.2773
 20
-10.853
 30
0.0
  0
SPLINE
  5
B1
330
1F
100
AcDbEntity
  8
Layer 1
 62
   250
100
AcDbSpline
210
0.0
220
0.0
230
1.0
 70
    11
 71
     3
 72
    20
 73
    16
 74
     0
 42
0.000000001
 43
0.0000000001
 40
0.0
 40
0.0
 40
0.0
 40
0.0
 40
0.2
 40
0.2
 40
0.2
 40
0.2
 40
0.4
 40
0.4
 40
0.4
 40
0.4
 40
0.6
 40
0.6
 40
0.6
 40
0.6
 40
1.0
 40
1.0
 40
1.0
 40
1.0
 10
-2.0604
 20
-7.4902
 30
0.0
 10
-2.0604
 20
-7.4902
 30
0.0
 10
-4.3558
 20
-5.1508
 30
0.0
 10
-4.3558
 20
-5.1508
 30
0.0
 10
-4.3558
 20
-5.1508
 30
0.0
 10
-4.3558
 20
-5.1508
 30
0.0
 10
-3.3437
 20
-4.0908
 30
0.0
 10
-3.3437
 20
-4.0908
 30
0.0
 10
-3.3437
 20
-4.0908
 30
0.0
 10
-3.3437
 20
-4.0908
 30
0.0
 10
-1.0302
 20
-6.3936
 30
0.0
 10
-1.0302
 20
-6.3936
 30
0.0
 10
-1.0302
 20
-6.3936
 30
0.0
 10
-1.0302
 20
-6.3936
 30
0.0
 10
-2.0604
 20
-7.4902
 30
0.0
 10
-2.0604
 20
-7.4902
 30
0.0
  0
SPLINE
  5
B2
330
1F
100
AcDbEntity
  8
Layer 1
 62
   250
100
AcDbSpline
210
0.0
220
0.0
230
1.0
 70
    11
 71
     3
 72
    20
 73
    16
 74
     0
 42
0.000000001
 43
0.0000000001
 40
0.0
 40
0.0
 40
0.0
 40
0.0
 40
0.2
 40
0.2
 40
0.2
 40
0.2
 40
0.4
 40
0.4
 40
0.4
 40
0.4
 40
0.6
 40
0.6
 40
0.6
 40
0.6
 40
1.0
 40
1.0
 40
1.0
 40
1.0
 10
-7.6035
 20
-8.0202
 30
0.0
 10
-7.6035
 20
-8.0202
 30
0.0
 10
-6.6421
 20
-7.0481
 30
0.0
 10
-6.6421
 20
-7.0481
 30
0.0
 10
-6.6421
 20
-7.0481
 30
0.0
 10
-6.6421
 20
-7.0481
 30
0.0
 10
-5.6808
 20
-8.0202
 30
0.0
 10
-5.6808
 20
-8.0202
 30
0.0
 10
-5.6808
 20
-8.0202
 30
0.0
 10
-5.6808
 20
-8.0202
 30
0.0
 10
-6.6421
 20
-8.9923
 30
0.0
 10
-6.6421
 20
-8.9923
 30
0.0
 10
-6.6421
 20
-8.9923
 30
0.0
 10
-6.6421
 20
-8.9923
 30
0.0
 10
-7.6035
 20
-8.0202
 30
0.0
 10
-7.6035
 20
-8.0202
 30
0.0
  0
SPLINE
  5
B3
330
1F
100
AcDbEntity
  8
Layer 1
 62
   250
100
AcDbSpline
210
0.0
220
0.0
230
1.0
 70
    11
 71
     3
 72
    20
 73
    16
 74
     0
 42
0.000000001
 43
0.0000000001
 40
0.0
 40
0.0
 40
0.0
 40
0.0
 40
0.2
 40
0.2
 40
0.2
 40
0.2
 40
0.4
 40
0.4
 40
0.4
 40
0.4
 40
0.6
 40
0.6
 40
0.6
 40
0.6
 40
1.0
 40
1.0
 40
1.0
 40
1.0
 10
2.3135
 20
-11.9496
 30
0.0
 10
2.3135
 20
-11.9496
 30
0.0
 10
0.0
 20
-9.5554
 30
0.0
 10
0.0
 20
-9.5554
 30
0.0
 10
0.0
 20
-9.5554
 30
0.0
 10
0.0
 20
-9.5554
 30
0.0
 10
1.0302
 20
-8.5502
 30
0.0
 10
1.0302
 20
-8.5502
 30
0.0
 10
1.0302
 20
-8.5502
 30
0.0
 10
1.0302
 20
-8.5502
 30
0.0
 10
3.3437
 20
-10.853
 30
0.0
 10
3.3437
 20
-10.853
 30
0.0
 10
3.3437
 20
-10.853
 30
0.0
 10
3.3437
 20
-10.853
 30
0.0
 10
2.3135
 20
-11.9496
 30
0.0
 10
2.3135
 20
-11.9496
 30
0.0
  0
SPLINE
  5
B4
330
1F
100
AcDbEntity
  8
Layer 1
 62
   250
100
AcDbSpline
210
0.0
220
0.0
230
1.0
 70
    11
 71
     3
 72
    16
 73
    12
 74
     0
 42
0.000000001
 43
0.0000000001
 40
0.0
 40
0.0
 40
0.0
 40
0.0
 40
0.25
 40
0.25
 40
0.25
 40
0.25
 40
0.5
 40
0.5
 40
0.5
 40
0.5
 40
1.0
 40
1.0
 40
1.0
 40
1.0
 10
-10.6817
 20
-28.5264
 30
0.0
 10
-10.6817
 20
-28.5264
 30
0.0
 10
-10.6817
 20
-27.7588
 30
0.0
 10
-10.6817
 20
-27.7588
 30
0.0
 10
-10.6817
 20
-27.7588
 30
0.0
 10
-10.6817
 20
-27.7588
 30
0.0
 10
-10.2298
 20
-28.1608
 30
0.0
 10
-10.2298
 20
-28.1608
 30
0.0
 10
-10.2298
 20
-28.1608
 30
0.0
 10
-10.2298
 20
-28.1608
 30
0.0
 10
-10.6817
 20
-28.5264
 30
0.0
 10
-10.6817
 20
-28.5264
 30
0.0
  0
SPLINE
  5
B5
330
1F
100
AcDbEntity
  8
Layer 1
 62
   250
100
AcDbSpline
210
0.0
220
0.0
230
1.0
 70
    11
 71
     3
 72
    24
 73
    20
 74
     0
 42
0.000000001
 43
0.0000000001
 40
0.0
 40
0.0
 40
0.0
 40
0.0
 40
0.1666666666666667
 40
0.1666666666666667
 40
0.1666666666666667
 40
0.1666666666666667
 40
0.3333333333333333
 40
0.3333333333333333
 40
0.3333333333333333
 40
0.3333333333333333
 40
0.5
 40
0.5
 40
0.5
 40
0.5
 40
0.6666666666666666
 40
0.6666666666666666
 40
0.6666666666666666
 40
0.6666666666666666
 40
1.0
 40
1.0
 40
1.0
 40
1.0
 10
10.1575
 20
-29.1478
 30
0.0
 10
10.1575
 20
-29.1478
 30
0.0
 10
10.6455
 20
-28.6726
 30
0.0
 10
10.6455
 20
-28.6726
 30
0.0
 10
10.6455
 20
-28.6726
 30
0.0
 10
10.6455
 20
-28.6726
 30
0.0
 10
10.6455
 20
-27.4481
 30
0.0
 10
10.6455
 20
-27.4481
 30
0.0
 10
10.6455
 20
-27.4481
 30
0.0
 10
10.6455
 20
-27.4481
 30
0.0
 10
8.7116
 20
-25.4742
 30
0.0
 10
8.7116
 20
-25.4742
 30
0.0
 10
8.7116
 20
-25.4742
 30
0.0
 10
8.7116
 20
-25.4742
 30
0.0
 10
7.6272
 20
-26.5708
 30
0.0
 10
7.6272
 20
-26.5708
 30
0.0
 10
7.6272
 20
-26.5708
 30
0.0
 10
7.6272
 20
-26.5708
 30
0.0
 10
10.1575
 20
-29.1478
 30
0.0
 10
10.1575
 20
-29.1478
 30
0.0
  0
SPLINE
  5
B6
330
1F
100
AcDbEntity
  8
Layer 1
 62
   250
100
AcDbSpline
210
0.0
220
0.0
230
1.0
 70
    11
 71
     3
 72
    20
 73
    16
 74
     0
 42
0.000000001
 43
0.0000000001
 40
0.0
 40
0.0
 40
0.0
 40
0.0
 40
0.2
 40
0.2
 40
0.2
 40
0.2
 40
0.4
 40
0.4
 40
0.4
 40
0.4
 40
0.6
 40
0.6
 40
0.6
 40
0.6
 40
1.0
 40
1.0
 40
1.0
 40
1.0
 10
7.338
 20
-29.4767
 30
0.0
 10
7.338
 20
-29.4767
 30
0.0
 10
8.4044
 20
-28.3802
 30
0.0
 10
8.4044
 20
-28.3802
 30
0.0
 10
8.4044
 20
-28.3802
 30
0.0
 10
8.4044
 20
-28.3802
 30
0.0
 10
3.7774
 20
-23.7014
 30
0.0
 10
3.7774
 20
-23.7014
 30
0.0
 10
3.7774
 20
-23.7014
 30
0.0
 10
3.7774
 20
-23.7014
 30
0.0
 10
2.7653
 20
-24.7797
 30
0.0
 10
2.7653
 20
-24.7797
 30
0.0
 10
2.7653
 20
-24.7797
 30
0.0
 10
2.7653
 20
-24.7797
 30
0.0
 10
7.338
 20
-29.4767
 30
0.0
 10
7.338
 20
-29.4767
 30
0.0
  0
SPLINE
  5
B7
330
1F
100
AcDbEntity
  8
Layer 1
 62
   250
100
AcDbSpline
210
0.0
220
0.0
230
1.0
 70
    11
 71
     3
 72
    20
 73
    16
 74
     0
 42
0.000000001
 43
0.0000000001
 40
0.0
 40
0.0
 40
0.0
 40
0.0
 40
0.2
 40
0.2
 40
0.2
 40
0.2
 40
0.4
 40
0.4
 40
0.4
 40
0.4
 40
0.6
 40
0.6
 40
0.6
 40
0.6
 40
1.0
 40
1.0
 40
1.0
 40
1.0
 10
2.4581
 20
-27.6674
 30
0.0
 10
2.4581
 20
-27.6674
 30
0.0
 10
3.5425
 20
-26.6073
 30
0.0
 10
3.5425
 20
-26.6073
 30
0.0
 10
3.5425
 20
-26.6073
 30
0.0
 10
3.5425
 20
-26.6073
 30
0.0
 10
0.976
 20
-24.0121
 30
0.0
 10
0.976
 20
-24.0121
 30
0.0
 10
0.976
 20
-24.0121
 30
0.0
 10
0.976
 20
-24.0121
 30
0.0
 10
-0.0181
 20
-25.0904
 30
0.0
 10
-0.0181
 20
-25.0904
 30
0.0
 10
-0.0181
 20
-25.0904
 30
0.0
 10
-0.0181
 20
-25.0904
 30
0.0
 10
2.4581
 20
-27.6674
 30
0.0
 10
2.4581
 20
-27.6674
 30
0.0
  0
SPLINE
  5
B8
330
1F
100
AcDbEntity
  8
Layer 1
 62
   250
100
AcDbSpline
210
0.0
220
0.0
230
1.0
 70
    11
 71
     3
 72
    20
 73
    16
 74
     0
 42
0.000000001
 43
0.0000000001
 40
0.0
 40
0.0
 40
0.0
 40
0.0
 40
0.2
 40
0.2
 40
0.2
 40
0.2
 40
0.4
 40
0.4
 40
0.4
 40
0.4
 40
0.6
 40
0.6
 40
0.6
 40
0.6
 40
1.0
 40
1.0
 40
1.0
 40
1.0
 10
5.5668
 20
-24.4873
 30
0.0
 10
5.5668
 20
-24.4873
 30
0.0
 10
6.6512
 20
-23.4272
 30
0.0
 10
6.6512
 20
-23.4272
 30
0.0
 10
6.6512
 20
-23.4272
 30
0.0
 10
6.6512
 20
-23.4272
 30
0.0
 10
4.1208
 20
-20.8685
 30
0.0
 10
4.1208
 20
-20.8685
 30
0.0
 10
4.1208
 20
-20.8685
 30
0.0
 10
4.1208
 20
-20.8685
 30
0.0
 10
3.0906
 20
-21.9468
 30
0.0
 10
3.0906
 20
-21.9468
 30
0.0
 10
3.0906
 20
-21.9468
 30
0.0
 10
3.0906
 20
-21.9468
 30
0.0
 10
5.5668
 20
-24.4873
 30
0.0
 10
5.5668
 20
-24.4873
 30
0.0
  0
SPLINE
  5
B9
330
1F
100
AcDbEntity
  8
Layer 1
 62
   250
100
AcDbSpline
210
0.0
220
0.0
230
1.0
 70
    11
 71
     3
 72
    20
 73
    16
 74
     0
 42
0.000000001
 43
0.0000000001
 40
0.0
 40
0.0
 40
0.0
 40
0.0
 40
0.2
 40
0.2
 40
0.2
 40
0.2
 40
0.4
 40
0.4
 40
0.4
 40
0.4
 40
0.6
 40
0.6
 40
0.6
 40
0.6
 40
1.0
 40
1.0
 40
1.0
 40
1.0
 10
-2.0966
 20
-29.1295
 30
0.0
 10
-2.0966
 20
-29.1295
 30
0.0
 10
-1.0121
 20
-28.0695
 30
0.0
 10
-1.0121
 20
-28.0695
 30
0.0
 10
-1.0121
 20
-28.0695
 30
0.0
 10
-1.0121
 20
-28.0695
 30
0.0
 10
-3.5786
 20
-25.4742
 30
0.0
 10
-3.5786
 20
-25.4742
 30
0.0
 10
-3.5786
 20
-25.4742
 30
0.0
 10
-3.5786
 20
-25.4742
 30
0.0
 10
-4.5727
 20
-26.5525
 30
0.0
 10
-4.5727
 20
-26.5525
 30
0.0
 10
-4.5727
 20
-26.5525
 30
0.0
 10
-4.5727
 20
-26.5525
 30
0.0
 10
-2.0966
 20
-29.1295
 30
0.0
 10
-2.0966
 20
-29.1295
 30
0.0
  0
SPLINE
  5
BA
330
1F
100
AcDbEntity
  8
Layer 1
 62
   250
100
AcDbSpline
210
0.0
220
0.0
230
1.0
 70
    11
 71
     3
 72
    20
 73
    16
 74
     0
 42
0.000000001
 43
0.0000000001
 40
0.0
 40
0.0
 40
0.0
 40
0.0
 40
0.2
 40
0.2
 40
0.2
 40
0.2
 40
0.4
 40
0.4
 40
0.4
 40
0.4
 40
0.6
 40
0.6
 40
0.6
 40
0.6
 40
1.0
 40
1.0
 40
1.0
 40
1.0
 10
-1.4945
 20
-26.5525
 30
0.0
 10
-1.4945
 20
-26.5525
 30
0.0
 10
-0.5332
 20
-25.5804
 30
0.0
 10
-0.5332
 20
-25.5804
 30
0.0
 10
-0.5332
 20
-25.5804
 30
0.0
 10
-0.5332
 20
-25.5804
 30
0.0
 10
0.4282
 20
-26.5525
 30
0.0
 10
0.4282
 20
-26.5525
 30
0.0
 10
0.4282
 20
-26.5525
 30
0.0
 10
0.4282
 20
-26.5525
 30
0.0
 10
-0.5332
 20
-27.5246
 30
0.0
 10
-0.5332
 20
-27.5246
 30
0.0
 10
-0.5332
 20
-27.5246
 30
0.0
 10
-0.5332
 20
-27.5246
 30
0.0
 10
-1.4945
 20
-26.5525
 30
0.0
 10
-1.4945
 20
-26.5525
 30
0.0
  0
SPLINE
  5
BB
330
1F
100
AcDbEntity
  8
Layer 1
 62
   250
100
AcDbSpline
210
0.0
220
0.0
230
1.0
 70
    11
 71
     3
 72
    20
 73
    16
 74
     0
 42
0.000000001
 43
0.0000000001
 40
0.0
 40
0.0
 40
0.0
 40
0.0
 40
0.2
 40
0.2
 40
0.2
 40
0.2
 40
0.4
 40
0.4
 40
0.4
 40
0.4
 40
0.6
 40
0.6
 40
0.6
 40
0.6
 40
1.0
 40
1.0
 40
1.0
 40
1.0
 10
-4.898
 20
-29.4402
 30
0.0
 10
-4.898
 20
-29.4402
 30
0.0
 10
-3.8317
 20
-28.3436
 30
0.0
 10
-3.8317
 20
-28.3436
 30
0.0
 10
-3.8317
 20
-28.3436
 30
0.0
 10
-3.8317
 20
-28.3436
 30
0.0
 10
-8.4586
 20
-23.6648
 30
0.0
 10
-8.4586
 20
-23.6648
 30
0.0
 10
-8.4586
 20
-23.6648
 30
0.0
 10
-8.4586
 20
-23.6648
 30
0.0
 10
-9.4707
 20
-24.7431
 30
0.0
 10
-9.4707
 20
-24.7431
 30
0.0
 10
-9.4707
 20
-24.7431
 30
0.0
 10
-9.4707
 20
-24.7431
 30
0.0
 10
-4.898
 20
-29.4402
 30
0.0
 10
-4.898
 20
-29.4402
 30
0.0
  0
SPLINE
  5
BC
330
1F
100
AcDbEntity
  8
Layer 1
 62
   250
100
AcDbSpline
210
0.0
220
0.0
230
1.0
 70
    11
 71
     3
 72
    20
 73
    16
 74
     0
 42
0.000000001
 43
0.0000000001
 40
0.0
 40
0.0
 40
0.0
 40
0.0
 40
0.2
 40
0.2
 40
0.2
 40
0.2
 40
0.4
 40
0.4
 40
0.4
 40
0.4
 40
0.6
 40
0.6
 40
0.6
 40
0.6
 40
1.0
 40
1.0
 40
1.0
 40
1.0
 10
-5.2053
 20
-19.8816
 30
0.0
 10
-5.2053
 20
-19.8816
 30
0.0
 10
-4.1208
 20
-18.8216
 30
0.0
 10
-4.1208
 20
-18.8216
 30
0.0
 10
-4.1208
 20
-18.8216
 30
0.0
 10
-4.1208
 20
-18.8216
 30
0.0
 10
-6.6512
 20
-16.2994
 30
0.0
 10
-6.6512
 20
-16.2994
 30
0.0
 10
-6.6512
 20
-16.2994
 30
0.0
 10
-6.6512
 20
-16.2994
 30
0.0
 10
-7.6995
 20
-17.3229
 30
0.0
 10
-7.6995
 20
-17.3229
 30
0.0
 10
-7.6995
 20
-17.3229
 30
0.0
 10
-7.6995
 20
-17.3229
 30
0.0
 10
-5.2053
 20
-19.8816
 30
0.0
 10
-5.2053
 20
-19.8816
 30
0.0
  0
SPLINE
  5
BD
330
1F
100
AcDbEntity
  8
Layer 1
 62
   250
100
AcDbSpline
210
0.0
220
0.0
230
1.0
 70
    11
 71
     3
 72
    20
 73
    16
 74
     0
 42
0.000000001
 43
0.0000000001
 40
0.0
 40
0.0
 40
0.0
 40
0.0
 40
0.2
 40
0.2
 40
0.2
 40
0.2
 40
0.4
 40
0.4
 40
0.4
 40
0.4
 40
0.6
 40
0.6
 40
0.6
 40
0.6
 40
1.0
 40
1.0
 40
1.0
 40
1.0
 10
-6.615
 20
-24.469
 30
0.0
 10
-6.615
 20
-24.469
 30
0.0
 10
-5.6029
 20
-23.4272
 30
0.0
 10
-5.6029
 20
-23.4272
 30
0.0
 10
-5.6029
 20
-23.4272
 30
0.0
 10
-5.6029
 20
-23.4272
 30
0.0
 10
-8.1332
 20
-20.8685
 30
0.0
 10
-8.1332
 20
-20.8685
 30
0.0
 10
-8.1332
 20
-20.8685
 30
0.0
 10
-8.1332
 20
-20.8685
 30
0.0
 10
-9.1273
 20
-21.9468
 30
0.0
 10
-9.1273
 20
-21.9468
 30
0.0
 10
-9.1273
 20
-21.9468
 30
0.0
 10
-9.1273
 20
-21.9468
 30
0.0
 10
-6.615
 20
-24.469
 30
0.0
 10
-6.615
 20
-24.469
 30
0.0
  0
SPLINE
  5
BE
330
1F
100
AcDbEntity
  8
Layer 1
 62
   250
100
AcDbSpline
210
0.0
220
0.0
230
1.0
 70
    11
 71
     3
 72
    20
 73
    16
 74
     0
 42
0.000000001
 43
0.0000000001
 40
0.0
 40
0.0
 40
0.0
 40
0.0
 40
0.2
 40
0.2
 40
0.2
 40
0.2
 40
0.4
 40
0.4
 40
0.4
 40
0.4
 40
0.6
 40
0.6
 40
0.6
 40
0.6
 40
1.0
 40
1.0
 40
1.0
 40
1.0
 10
7.1485
 20
-22.9155
 30
0.0
 10
7.1485
 20
-22.9155
 30
0.0
 10
6.0548
 20
-21.8392
 30
0.0
 10
6.0548
 20
-21.8392
 30
0.0
 10
6.0548
 20
-21.8392
 30
0.0
 10
6.0548
 20
-21.8392
 30
0.0
 10
8.5405
 20
-19.2968
 30
0.0
 10
8.5405
 20
-19.2968
 30
0.0
 10
8.5405
 20
-19.2968
 30
0.0
 10
8.5405
 20
-19.2968
 30
0.0
 10
9.6515
 20
-20.4304
 30
0.0
 10
9.6515
 20
-20.4304
 30
0.0
 10
9.6515
 20
-20.4304
 30
0.0
 10
9.6515
 20
-20.4304
 30
0.0
 10
7.1485
 20
-22.9155
 30
0.0
 10
7.1485
 20
-22.9155
 30
0.0
  0
SPLINE
  5
BF
330
1F
100
AcDbEntity
  8
Layer 1
 62
   250
100
AcDbSpline
210
0.0
220
0.0
230
1.0
 70
    11
 71
     3
 72
    20
 73
    16
 74
     0
 42
0.000000001
 43
0.0000000001
 40
0.0
 40
0.0
 40
0.0
 40
0.0
 40
0.2
 40
0.2
 40
0.2
 40
0.2
 40
0.4
 40
0.4
 40
0.4
 40
0.4
 40
0.6
 40
0.6
 40
0.6
 40
0.6
 40
1.0
 40
1.0
 40
1.0
 40
1.0
 10
7.1392
 20
-26.0408
 30
0.0
 10
7.1392
 20
-26.0408
 30
0.0
 10
6.0548
 20
-24.9807
 30
0.0
 10
6.0548
 20
-24.9807
 30
0.0
 10
6.0548
 20
-24.9807
 30
0.0
 10
6.0548
 20
-24.9807
 30
0.0
 10
8.3321
 20
-22.6414
 30
0.0
 10
8.3321
 20
-22.6414
 30
0.0
 10
8.3321
 20
-22.6414
 30
0.0
 10
8.3321
 20
-22.6414
 30
0.0
 10
9.4165
 20
-23.7379
 30
0.0
 10
9.4165
 20
-23.7379
 30
0.0
 10
9.4165
 20
-23.7379
 30
0.0
 10
9.4165
 20
-23.7379
 30
0.0
 10
7.1392
 20
-26.0408
 30
0.0
 10
7.1392
 20
-26.0408
 30
0.0
  0
SPLINE
  5
C0
330
1F
100
AcDbEntity
  8
Layer 1
 62
   250
100
AcDbSpline
210
0.0
220
0.0
230
1.0
 70
    11
 71
     3
 72
    20
 73
    16
 74
     0
 42
0.000000001
 43
0.0000000001
 40
0.0
 40
0.0
 40
0.0
 40
0.0
 40
0.2
 40
0.2
 40
0.2
 40
0.2
 40
0.4
 40
0.4
 40
0.4
 40
0.4
 40
0.6
 40
0.6
 40
0.6
 40
0.6
 40
1.0
 40
1.0
 40
1.0
 40
1.0
 10
10.2298
 20
-26.0591
 30
0.0
 10
10.2298
 20
-26.0591
 30
0.0
 10
10.6455
 20
-25.6935
 30
0.0
 10
10.6455
 20
-25.6935
 30
0.0
 10
10.6455
 20
-25.6935
 30
0.0
 10
10.6455
 20
-25.6935
 30
0.0
 10
10.6455
 20
-23.5369
 30
0.0
 10
10.6455
 20
-23.5369
 30
0.0
 10
10.6455
 20
-23.5369
 30
0.0
 10
10.6455
 20
-23.5369
 30
0.0
 10
9.1996
 20
-24.999
 30
0.0
 10
9.1996
 20
-24.999
 30
0.0
 10
9.1996
 20
-24.999
 30
0.0
 10
9.1996
 20
-24.999
 30
0.0
 10
10.2298
 20
-26.0591
 30
0.0
 10
10.2298
 20
-26.0591
 30
0.0
  0
SPLINE
  5
C1
330
1F
100
AcDbEntity
  8
Layer 1
 62
   250
100
AcDbSpline
210
0.0
220
0.0
230
1.0
 70
    11
 71
     3
 72
    20
 73
    16
 74
     0
 42
0.000000001
 43
0.0000000001
 40
0.0
 40
0.0
 40
0.0
 40
0.0
 40
0.2
 40
0.2
 40
0.2
 40
0.2
 40
0.4
 40
0.4
 40
0.4
 40
0.4
 40
0.6
 40
0.6
 40
0.6
 40
0.6
 40
1.0
 40
1.0
 40
1.0
 40
1.0
 10
9.9226
 20
-23.2079
 30
0.0
 10
9.9226
 20
-23.2079
 30
0.0
 10
10.6455
 20
-22.5134
 30
0.0
 10
10.6455
 20
-22.5134
 30
0.0
 10
10.6455
 20
-22.5134
 30
0.0
 10
10.6455
 20
-22.5134
 30
0.0
 10
10.6275
 20
-20.3933
 30
0.0
 10
10.6275
 20
-20.3933
 30
0.0
 10
10.6275
 20
-20.3933
 30
0.0
 10
10.6275
 20
-20.3933
 30
0.0
 10
8.8743
 20
-22.1662
 30
0.0
 10
8.8743
 20
-22.1662
 30
0.0
 10
8.8743
 20
-22.1662
 30
0.0
 10
8.8743
 20
-22.1662
 30
0.0
 10
9.9226
 20
-23.2079
 30
0.0
 10
9.9226
 20
-23.2079
 30
0.0
  0
SPLINE
  5
C2
330
1F
100
AcDbEntity
  8
Layer 1
 62
   250
100
AcDbSpline
210
0.0
220
0.0
230
1.0
 70
    11
 71
     3
 72
    24
 73
    20
 74
     0
 42
0.000000001
 43
0.0000000001
 40
0.0
 40
0.0
 40
0.0
 40
0.0
 40
0.1666666666666667
 40
0.1666666666666667
 40
0.1666666666666667
 40
0.1666666666666667
 40
0.3333333333333333
 40
0.3333333333333333
 40
0.3333333333333333
 40
0.3333333333333333
 40
0.5
 40
0.5
 40
0.5
 40
0.5
 40
0.6666666666666666
 40
0.6666666666666666
 40
0.6666666666666666
 40
0.6666666666666666
 40
1.0
 40
1.0
 40
1.0
 40
1.0
 10
10.1937
 20
-19.8999
 30
0.0
 10
10.1937
 20
-19.8999
 30
0.0
 10
10.6455
 20
-19.3699
 30
0.0
 10
10.6455
 20
-19.3699
 30
0.0
 10
10.6455
 20
-19.3699
 30
0.0
 10
10.6455
 20
-19.3699
 30
0.0
 10
10.6455
 20
-18.2185
 30
0.0
 10
10.6455
 20
-18.2185
 30
0.0
 10
10.6455
 20
-18.2185
 30
0.0
 10
10.6455
 20
-18.2185
 30
0.0
 10
8.9104
 20
-16.4822
 30
0.0
 10
8.9104
 20
-16.4822
 30
0.0
 10
8.9104
 20
-16.4822
 30
0.0
 10
8.9104
 20
-16.4822
 30
0.0
 10
7.8441
 20
-17.5971
 30
0.0
 10
7.8441
 20
-17.5971
 30
0.0
 10
7.8441
 20
-17.5971
 30
0.0
 10
7.8441
 20
-17.5971
 30
0.0
 10
10.1937
 20
-19.8999
 30
0.0
 10
10.1937
 20
-19.8999
 30
0.0
  0
SPLINE
  5
C3
330
1F
100
AcDbEntity
  8
Layer 1
 62
   250
100
AcDbSpline
210
0.0
220
0.0
230
1.0
 70
    11
 71
     3
 72
    20
 73
    16
 74
     0
 42
0.000000001
 43
0.0000000001
 40
0.0
 40
0.0
 40
0.0
 40
0.0
 40
0.2
 40
0.2
 40
0.2
 40
0.2
 40
0.4
 40
0.4
 40
0.4
 40
0.4
 40
0.6
 40
0.6
 40
0.6
 40
0.6
 40
1.0
 40
1.0
 40
1.0
 40
1.0
 10
6.9765
 20
-19.9182
 30
0.0
 10
6.9765
 20
-19.9182
 30
0.0
 10
8.061
 20
-18.8581
 30
0.0
 10
8.061
 20
-18.8581
 30
0.0
 10
8.061
 20
-18.8581
 30
0.0
 10
8.061
 20
-18.8581
 30
0.0
 10
5.5306
 20
-16.2994
 30
0.0
 10
5.5306
 20
-16.2994
 30
0.0
 10
5.5306
 20
-16.2994
 30
0.0
 10
5.5306
 20
-16.2994
 30
0.0
 10
4.5004
 20
-17.3777
 30
0.0
 10
4.5004
 20
-17.3777
 30
0.0
 10
4.5004
 20
-17.3777
 30
0.0
 10
4.5004
 20
-17.3777
 30
0.0
 10
6.9765
 20
-19.9182
 30
0.0
 10
6.9765
 20
-19.9182
 30
0.0
  0
SPLINE
  5
C4
330
1F
100
AcDbEntity
  8
Layer 1
 62
   250
100
AcDbSpline
210
0.0
220
0.0
230
1.0
 70
    11
 71
     3
 72
    20
 73
    16
 74
     0
 42
0.000000001
 43
0.0000000001
 40
0.0
 40
0.0
 40
0.0
 40
0.0
 40
0.2
 40
0.2
 40
0.2
 40
0.2
 40
0.4
 40
0.4
 40
0.4
 40
0.4
 40
0.6
 40
0.6
 40
0.6
 40
0.6
 40
1.0
 40
1.0
 40
1.0
 40
1.0
 10
4.5783
 20
-20.3751
 30
0.0
 10
4.5783
 20
-20.3751
 30
0.0
 10
5.5396
 20
-19.4029
 30
0.0
 10
5.5396
 20
-19.4029
 30
0.0
 10
5.5396
 20
-19.4029
 30
0.0
 10
5.5396
 20
-19.4029
 30
0.0
 10
6.501
 20
-20.3751
 30
0.0
 10
6.501
 20
-20.3751
 30
0.0
 10
6.501
 20
-20.3751
 30
0.0
 10
6.501
 20
-20.3751
 30
0.0
 10
5.5396
 20
-21.3472
 30
0.0
 10
5.5396
 20
-21.3472
 30
0.0
 10
5.5396
 20
-21.3472
 30
0.0
 10
5.5396
 20
-21.3472
 30
0.0
 10
4.5783
 20
-20.3751
 30
0.0
 10
4.5783
 20
-20.3751
 30
0.0
  0
SPLINE
  5
C5
330
1F
100
AcDbEntity
  8
Layer 1
 62
   250
100
AcDbSpline
210
0.0
220
0.0
230
1.0
 70
    11
 71
     3
 72
    20
 73
    16
 74
     0
 42
0.000000001
 43
0.0000000001
 40
0.0
 40
0.0
 40
0.0
 40
0.0
 40
0.2
 40
0.2
 40
0.2
 40
0.2
 40
0.4
 40
0.4
 40
0.4
 40
0.4
 40
0.6
 40
0.6
 40
0.6
 40
0.6
 40
1.0
 40
1.0
 40
1.0
 40
1.0
 10
2.5577
 20
-21.4534
 30
0.0
 10
2.5577
 20
-21.4534
 30
0.0
 10
1.5001
 20
-20.377
 30
0.0
 10
1.5001
 20
-20.377
 30
0.0
 10
1.5001
 20
-20.377
 30
0.0
 10
1.5001
 20
-20.377
 30
0.0
 10
4.022
 20
-17.8346
 30
0.0
 10
4.022
 20
-17.8346
 30
0.0
 10
4.022
 20
-17.8346
 30
0.0
 10
4.022
 20
-17.8346
 30
0.0
 10
5.0788
 20
-18.9135
 30
0.0
 10
5.0788
 20
-18.9135
 30
0.0
 10
5.0788
 20
-18.9135
 30
0.0
 10
5.0788
 20
-18.9135
 30
0.0
 10
2.5577
 20
-21.4534
 30
0.0
 10
2.5577
 20
-21.4534
 30
0.0
  0
SPLINE
  5
C6
330
1F
100
AcDbEntity
  8
Layer 1
 62
   250
100
AcDbSpline
210
0.0
220
0.0
230
1.0
 70
    11
 71
     3
 72
    20
 73
    16
 74
     0
 42
0.000000001
 43
0.0000000001
 40
0.0
 40
0.0
 40
0.0
 40
0.0
 40
0.2
 40
0.2
 40
0.2
 40
0.2
 40
0.4
 40
0.4
 40
0.4
 40
0.4
 40
0.6
 40
0.6
 40
0.6
 40
0.6
 40
1.0
 40
1.0
 40
1.0
 40
1.0
 10
-1.9607
 20
-26.0956
 30
0.0
 10
-1.9607
 20
-26.0956
 30
0.0
 10
-3.0545
 20
-25.0193
 30
0.0
 10
-3.0545
 20
-25.0193
 30
0.0
 10
-3.0545
 20
-25.0193
 30
0.0
 10
-3.0545
 20
-25.0193
 30
0.0
 10
-0.5326
 20
-22.422
 30
0.0
 10
-0.5326
 20
-22.422
 30
0.0
 10
-0.5326
 20
-22.422
 30
0.0
 10
-0.5326
 20
-22.422
 30
0.0
 10
0.5242
 20
-23.5374
 30
0.0
 10
0.5242
 20
-23.5374
 30
0.0
 10
0.5242
 20
-23.5374
 30
0.0
 10
0.5242
 20
-23.5374
 30
0.0
 10
-1.9607
 20
-26.0956
 30
0.0
 10
-1.9607
 20
-26.0956
 30
0.0
  0
SPLINE
  5
C7
330
1F
100
AcDbEntity
  8
Layer 1
 62
   250
100
AcDbSpline
210
0.0
220
0.0
230
1.0
 70
    11
 71
     3
 72
    20
 73
    16
 74
     0
 42
0.000000001
 43
0.0000000001
 40
0.0
 40
0.0
 40
0.0
 40
0.0
 40
0.2
 40
0.2
 40
0.2
 40
0.2
 40
0.4
 40
0.4
 40
0.4
 40
0.4
 40
0.6
 40
0.6
 40
0.6
 40
0.6
 40
1.0
 40
1.0
 40
1.0
 40
1.0
 10
-5.0875
 20
-22.8972
 30
0.0
 10
-5.0875
 20
-22.8972
 30
0.0
 10
-6.1632
 20
-21.8757
 30
0.0
 10
-6.1632
 20
-21.8757
 30
0.0
 10
-6.1632
 20
-21.8757
 30
0.0
 10
-6.1632
 20
-21.8757
 30
0.0
 10
-3.6413
 20
-19.3333
 30
0.0
 10
-3.6413
 20
-19.3333
 30
0.0
 10
-3.6413
 20
-19.3333
 30
0.0
 10
-3.6413
 20
-19.3333
 30
0.0
 10
-2.5846
 20
-20.3939
 30
0.0
 10
-2.5846
 20
-20.3939
 30
0.0
 10
-2.5846
 20
-20.3939
 30
0.0
 10
-2.5846
 20
-20.3939
 30
0.0
 10
-5.0875
 20
-22.8972
 30
0.0
 10
-5.0875
 20
-22.8972
 30
0.0
  0
SPLINE
  5
C8
330
1F
100
AcDbEntity
  8
Layer 1
 62
   250
100
AcDbSpline
210
0.0
220
0.0
230
1.0
 70
    11
 71
     3
 72
    20
 73
    16
 74
     0
 42
0.000000001
 43
0.0000000001
 40
0.0
 40
0.0
 40
0.0
 40
0.0
 40
0.2
 40
0.2
 40
0.2
 40
0.2
 40
0.4
 40
0.4
 40
0.4
 40
0.4
 40
0.6
 40
0.6
 40
0.6
 40
0.6
 40
1.0
 40
1.0
 40
1.0
 40
1.0
 10
0.8771
 20
-14.6911
 30
0.0
 10
0.8771
 20
-14.6911
 30
0.0
 10
-1.6086
 20
-17.2335
 30
0.0
 10
-1.6086
 20
-17.2335
 30
0.0
 10
-1.6086
 20
-17.2335
 30
0.0
 10
-1.6086
 20
-17.2335
 30
0.0
 10
-0.5148
 20
-18.3098
 30
0.0
 10
-0.5148
 20
-18.3098
 30
0.0
 10
-0.5148
 20
-18.3098
 30
0.0
 10
-0.5148
 20
-18.3098
 30
0.0
 10
1.9761
 20
-15.7516
 30
0.0
 10
1.9761
 20
-15.7516
 30
0.0
 10
1.9761
 20
-15.7516
 30
0.0
 10
1.9761
 20
-15.7516
 30
0.0
 10
0.8771
 20
-14.6911
 30
0.0
 10
0.8771
 20
-14.6911
 30
0.0
  0
SPLINE
  5
C9
330
1F
100
AcDbEntity
  8
Layer 1
 62
   250
100
AcDbSpline
210
0.0
220
0.0
230
1.0
 70
    11
 71
     3
 72
    20
 73
    16
 74
     0
 42
0.000000001
 43
0.0000000001
 40
0.0
 40
0.0
 40
0.0
 40
0.0
 40
0.2
 40
0.2
 40
0.2
 40
0.2
 40
0.4
 40
0.4
 40
0.4
 40
0.4
 40
0.6
 40
0.6
 40
0.6
 40
0.6
 40
1.0
 40
1.0
 40
1.0
 40
1.0
 10
-9.624
 20
-21.4534
 30
0.0
 10
-9.624
 20
-21.4534
 30
0.0
 10
-10.6817
 20
-20.377
 30
0.0
 10
-10.6817
 20
-20.377
 30
0.0
 10
-10.6817
 20
-20.377
 30
0.0
 10
-10.6817
 20
-20.377
 30
0.0
 10
-8.196
 20
-17.8346
 30
0.0
 10
-8.196
 20
-17.8346
 30
0.0
 10
-8.196
 20
-17.8346
 30
0.0
 10
-8.196
 20
-17.8346
 30
0.0
 10
-7.1392
 20
-18.9318
 30
0.0
 10
-7.1392
 20
-18.9318
 30
0.0
 10
-7.1392
 20
-18.9318
 30
0.0
 10
-7.1392
 20
-18.9318
 30
0.0
 10
-9.624
 20
-21.4534
 30
0.0
 10
-9.624
 20
-21.4534
 30
0.0
  0
SPLINE
  5
CA
330
1F
100
AcDbEntity
  8
Layer 1
 62
   250
100
AcDbSpline
210
0.0
220
0.0
230
1.0
 70
    11
 71
     3
 72
    20
 73
    16
 74
     0
 42
0.000000001
 43
0.0000000001
 40
0.0
 40
0.0
 40
0.0
 40
0.0
 40
0.2
 40
0.2
 40
0.2
 40
0.2
 40
0.4
 40
0.4
 40
0.4
 40
0.4
 40
0.6
 40
0.6
 40
0.6
 40
0.6
 40
1.0
 40
1.0
 40
1.0
 40
1.0
 10
-10.6817
 20
-26.7718
 30
0.0
 10
-10.6817
 20
-26.7718
 30
0.0
 10
-10.6817
 20
-24.5421
 30
0.0
 10
-10.6817
 20
-24.5421
 30
0.0
 10
-10.6817
 20
-24.5421
 30
0.0
 10
-10.6817
 20
-24.5421
 30
0.0
 10
-8.6755
 20
-26.5708
 30
0.0
 10
-8.6755
 20
-26.5708
 30
0.0
 10
-8.6755
 20
-26.5708
 30
0.0
 10
-8.6755
 20
-26.5708
 30
0.0
 10
-9.7599
 20
-27.6491
 30
0.0
 10
-9.7599
 20
-27.6491
 30
0.0
 10
-9.7599
 20
-27.6491
 30
0.0
 10
-9.7599
 20
-27.6491
 30
0.0
 10
-10.6817
 20
-26.7718
 30
0.0
 10
-10.6817
 20
-26.7718
 30
0.0
  0
SPLINE
  5
CB
330
1F
100
AcDbEntity
  8
Layer 1
 62
   250
100
AcDbSpline
210
0.0
220
0.0
230
1.0
 70
    11
 71
     3
 72
    20
 73
    16
 74
     0
 42
0.000000001
 43
0.0000000001
 40
0.0
 40
0.0
 40
0.0
 40
0.0
 40
0.2
 40
0.2
 40
0.2
 40
0.2
 40
0.4
 40
0.4
 40
0.4
 40
0.4
 40
0.6
 40
0.6
 40
0.6
 40
0.6
 40
1.0
 40
1.0
 40
1.0
 40
1.0
 10
-9.9587
 20
-24.3045
 30
0.0
 10
-9.9587
 20
-24.3045
 30
0.0
 10
-10.6817
 20
-23.61
 30
0.0
 10
-10.6817
 20
-23.61
 30
0.0
 10
-10.6817
 20
-23.61
 30
0.0
 10
-10.6817
 20
-23.61
 30
0.0
 10
-10.6817
 20
-21.4168
 30
0.0
 10
-10.6817
 20
-21.4168
 30
0.0
 10
-10.6817
 20
-21.4168
 30
0.0
 10
-10.6817
 20
-21.4168
 30
0.0
 10
-8.9285
 20
-23.1896
 30
0.0
 10
-8.9285
 20
-23.1896
 30
0.0
 10
-8.9285
 20
-23.1896
 30
0.0
 10
-8.9285
 20
-23.1896
 30
0.0
 10
-9.9587
 20
-24.3045
 30
0.0
 10
-9.9587
 20
-24.3045
 30
0.0
  0
SPLINE
  5
CC
330
1F
100
AcDbEntity
  8
Layer 1
 62
   250
100
AcDbSpline
210
0.0
220
0.0
230
1.0
 70
    11
 71
     3
 72
    16
 73
    12
 74
     0
 42
0.000000001
 43
0.0000000001
 40
0.0
 40
0.0
 40
0.0
 40
0.0
 40
0.25
 40
0.25
 40
0.25
 40
0.25
 40
0.5
 40
0.5
 40
0.5
 40
0.5
 40
1.0
 40
1.0
 40
1.0
 40
1.0
 10
-10.6817
 20
-19.3516
 30
0.0
 10
-10.6817
 20
-19.3516
 30
0.0
 10
-9.9226
 20
-18.584
 30
0.0
 10
-9.9226
 20
-18.584
 30
0.0
 10
-9.9226
 20
-18.584
 30
0.0
 10
-9.9226
 20
-18.584
 30
0.0
 10
-10.6817
 20
-17.8346
 30
0.0
 10
-10.6817
 20
-17.8346
 30
0.0
 10
-10.6817
 20
-17.8346
 30
0.0
 10
-10.6817
 20
-17.8346
 30
0.0
 10
-10.6817
 20
-19.3516
 30
0.0
 10
-10.6817
 20
-19.3516
 30
0.0
  0
SPLINE
  5
CD
330
1F
100
AcDbEntity
  8
Layer 1
 62
   250
100
AcDbSpline
210
0.0
220
0.0
230
1.0
 70
    11
 71
     3
 72
    20
 73
    16
 74
     0
 42
0.000000001
 43
0.0000000001
 40
0.0
 40
0.0
 40
0.0
 40
0.0
 40
0.2
 40
0.2
 40
0.2
 40
0.2
 40
0.4
 40
0.4
 40
0.4
 40
0.4
 40
0.6
 40
0.6
 40
0.6
 40
0.6
 40
1.0
 40
1.0
 40
1.0
 40
1.0
 10
-5.0968
 20
-26.0773
 30
0.0
 10
-5.0968
 20
-26.0773
 30
0.0
 10
-6.1451
 20
-25.0173
 30
0.0
 10
-6.1451
 20
-25.0173
 30
0.0
 10
-6.1451
 20
-25.0173
 30
0.0
 10
-6.1451
 20
-25.0173
 30
0.0
 10
-3.8497
 20
-22.6414
 30
0.0
 10
-3.8497
 20
-22.6414
 30
0.0
 10
-3.8497
 20
-22.6414
 30
0.0
 10
-3.8497
 20
-22.6414
 30
0.0
 10
-2.7834
 20
-23.7562
 30
0.0
 10
-2.7834
 20
-23.7562
 30
0.0
 10
-2.7834
 20
-23.7562
 30
0.0
 10
-2.7834
 20
-23.7562
 30
0.0
 10
-5.0968
 20
-26.0773
 30
0.0
 10
-5.0968
 20
-26.0773
 30
0.0
  0
SPLINE
  5
CE
330
1F
100
AcDbEntity
  8
Layer 1
 62
   250
100
AcDbSpline
210
0.0
220
0.0
230
1.0
 70
    11
 71
     3
 72
    20
 73
    16
 74
     0
 42
0.000000001
 43
0.0000000001
 40
0.0
 40
0.0
 40
0.0
 40
0.0
 40
0.2
 40
0.2
 40
0.2
 40
0.2
 40
0.4
 40
0.4
 40
0.4
 40
0.4
 40
0.6
 40
0.6
 40
0.6
 40
0.6
 40
1.0
 40
1.0
 40
1.0
 40
1.0
 10
-2.2773
 20
-23.2445
 30
0.0
 10
-2.2773
 20
-23.2445
 30
0.0
 10
-3.3256
 20
-22.1844
 30
0.0
 10
-3.3256
 20
-22.1844
 30
0.0
 10
-3.3256
 20
-22.1844
 30
0.0
 10
-3.3256
 20
-22.1844
 30
0.0
 10
1.2652
 20
-17.5422
 30
0.0
 10
1.2652
 20
-17.5422
 30
0.0
 10
1.2652
 20
-17.5422
 30
0.0
 10
1.2652
 20
-17.5422
 30
0.0
 10
2.2954
 20
-18.584
 30
0.0
 10
2.2954
 20
-18.584
 30
0.0
 10
2.2954
 20
-18.584
 30
0.0
 10
2.2954
 20
-18.584
 30
0.0
 10
-2.2773
 20
-23.2445
 30
0.0
 10
-2.2773
 20
-23.2445
 30
0.0
  0
SPLINE
  5
CF
330
1F
100
AcDbEntity
  8
Layer 1
 62
   250
100
AcDbSpline
210
0.0
220
0.0
230
1.0
 70
    11
 71
     3
 72
    20
 73
    16
 74
     0
 42
0.000000001
 43
0.0000000001
 40
0.0
 40
0.0
 40
0.0
 40
0.0
 40
0.2
 40
0.2
 40
0.2
 40
0.2
 40
0.4
 40
0.4
 40
0.4
 40
0.4
 40
0.6
 40
0.6
 40
0.6
 40
0.6
 40
1.0
 40
1.0
 40
1.0
 40
1.0
 10
-2.0604
 20
-19.8816
 30
0.0
 10
-2.0604
 20
-19.8816
 30
0.0
 10
-4.3558
 20
-17.5422
 30
0.0
 10
-4.3558
 20
-17.5422
 30
0.0
 10
-4.3558
 20
-17.5422
 30
0.0
 10
-4.3558
 20
-17.5422
 30
0.0
 10
-3.3437
 20
-16.4822
 30
0.0
 10
-3.3437
 20
-16.4822
 30
0.0
 10
-3.3437
 20
-16.4822
 30
0.0
 10
-3.3437
 20
-16.4822
 30
0.0
 10
-1.0302
 20
-18.785
 30
0.0
 10
-1.0302
 20
-18.785
 30
0.0
 10
-1.0302
 20
-18.785
 30
0.0
 10
-1.0302
 20
-18.785
 30
0.0
 10
-2.0604
 20
-19.8816
 30
0.0
 10
-2.0604
 20
-19.8816
 30
0.0
  0
SPLINE
  5
D0
330
1F
100
AcDbEntity
  8
Layer 1
 62
   250
100
AcDbSpline
210
0.0
220
0.0
230
1.0
 70
    11
 71
     3
 72
    20
 73
    16
 74
     0
 42
0.000000001
 43
0.0000000001
 40
0.0
 40
0.0
 40
0.0
 40
0.0
 40
0.2
 40
0.2
 40
0.2
 40
0.2
 40
0.4
 40
0.4
 40
0.4
 40
0.4
 40
0.6
 40
0.6
 40
0.6
 40
0.6
 40
1.0
 40
1.0
 40
1.0
 40
1.0
 10
-7.6035
 20
-20.4116
 30
0.0
 10
-7.6035
 20
-20.4116
 30
0.0
 10
-6.6421
 20
-19.4395
 30
0.0
 10
-6.6421
 20
-19.4395
 30
0.0
 10
-6.6421
 20
-19.4395
 30
0.0
 10
-6.6421
 20
-19.4395
 30
0.0
 10
-5.6808
 20
-20.4116
 30
0.0
 10
-5.6808
 20
-20.4116
 30
0.0
 10
-5.6808
 20
-20.4116
 30
0.0
 10
-5.6808
 20
-20.4116
 30
0.0
 10
-6.6421
 20
-21.3837
 30
0.0
 10
-6.6421
 20
-21.3837
 30
0.0
 10
-6.6421
 20
-21.3837
 30
0.0
 10
-6.6421
 20
-21.3837
 30
0.0
 10
-7.6035
 20
-20.4116
 30
0.0
 10
-7.6035
 20
-20.4116
 30
0.0
  0
SPLINE
  5
D1
330
1F
100
AcDbEntity
  8
Layer 1
 62
   250
100
AcDbSpline
210
0.0
220
0.0
230
1.0
 70
    11
 71
     3
 72
    20
 73
    16
 74
     0
 42
0.000000001
 43
0.0000000001
 40
0.0
 40
0.0
 40
0.0
 40
0.0
 40
0.2
 40
0.2
 40
0.2
 40
0.2
 40
0.4
 40
0.4
 40
0.4
 40
0.4
 40
0.6
 40
0.6
 40
0.6
 40
0.6
 40
1.0
 40
1.0
 40
1.0
 40
1.0
 10
2.3135
 20
-24.3411
 30
0.0
 10
2.3135
 20
-24.3411
 30
0.0
 10
0.0
 20
-21.9468
 30
0.0
 10
0.0
 20
-21.9468
 30
0.0
 10
0.0
 20
-21.9468
 30
0.0
 10
0.0
 20
-21.9468
 30
0.0
 10
1.0302
 20
-20.9416
 30
0.0
 10
1.0302
 20
-20.9416
 30
0.0
 10
1.0302
 20
-20.9416
 30
0.0
 10
1.0302
 20
-20.9416
 30
0.0
 10
3.3437
 20
-23.2445
 30
0.0
 10
3.3437
 20
-23.2445
 30
0.0
 10
3.3437
 20
-23.2445
 30
0.0
 10
3.3437
 20
-23.2445
 30
0.0
 10
2.3135
 20
-24.3411
 30
0.0
 10
2.3135
 20
-24.3411
 30
0.0
  0
SPLINE
  5
D2
330
1F
100
AcDbEntity
  8
Layer 1
 62
   250
100
AcDbSpline
210
0.0
220
0.0
230
1.0
 70
    11
 71
     3
 72
    20
 73
    16
 74
     0
 42
0.000000001
 43
0.0000000001
 40
0.0
 40
0.0
 40
0.0
 40
0.0
 40
0.2
 40
0.2
 40
0.2
 40
0.2
 40
0.4
 40
0.4
 40
0.4
 40
0.4
 40
0.6
 40
0.6
 40
0.6
 40
0.6
 40
1.0
 40
1.0
 40
1.0
 40
1.0
 10
2.8108
 20
-30.4271
 30
0.0
 10
2.8108
 20
-30.4271
 30
0.0
 10
1.7351
 20
-29.3691
 30
0.0
 10
1.7351
 20
-29.3691
 30
0.0
 10
1.7351
 20
-29.3691
 30
0.0
 10
1.7351
 20
-29.3691
 30
0.0
 10
4.022
 20
-27.046
 30
0.0
 10
4.022
 20
-27.046
 30
0.0
 10
4.022
 20
-27.046
 30
0.0
 10
4.022
 20
-27.046
 30
0.0
 10
5.1149
 20
-28.1431
 30
0.0
 10
5.1149
 20
-28.1431
 30
0.0
 10
5.1149
 20
-28.1431
 30
0.0
 10
5.1149
 20
-28.1431
 30
0.0
 10
2.8108
 20
-30.4271
 30
0.0
 10
2.8108
 20
-30.4271
 30
0.0
  0
SPLINE
  5
D3
330
1F
100
AcDbEntity
  8
Layer 1
 62
   250
100
AcDbSpline
210
0.0
220
0.0
230
1.0
 70
    11
 71
     3
 72
    20
 73
    16
 74
     0
 42
0.000000001
 43
0.0000000001
 40
0.0
 40
0.0
 40
0.0
 40
0.0
 40
0.2
 40
0.2
 40
0.2
 40
0.2
 40
0.4
 40
0.4
 40
0.4
 40
0.4
 40
0.6
 40
0.6
 40
0.6
 40
0.6
 40
1.0
 40
1.0
 40
1.0
 40
1.0
 10
-9.4346
 20
-30.4271
 30
0.0
 10
-9.4346
 20
-30.4271
 30
0.0
 10
-10.4648
 20
-29.3488
 30
0.0
 10
-10.4648
 20
-29.3488
 30
0.0
 10
-10.4648
 20
-29.3488
 30
0.0
 10
-10.4648
 20
-29.3488
 30
0.0
 10
-8.2236
 20
-27.0277
 30
0.0
 10
-8.2236
 20
-27.0277
 30
0.0
 10
-8.2236
 20
-27.0277
 30
0.0
 10
-8.2236
 20
-27.0277
 30
0.0
 10
-7.1392
 20
-28.1426
 30
0.0
 10
-7.1392
 20
-28.1426
 30
0.0
 10
-7.1392
 20
-28.1426
 30
0.0
 10
-7.1392
 20
-28.1426
 30
0.0
 10
-9.4346
 20
-30.4271
 30
0.0
 10
-9.4346
 20
-30.4271
 30
0.0
  0
SPLINE
  5
D4
330
1F
100
AcDbEntity
  8
Layer 1
 62
   250
100
AcDbSpline
210
0.0
220
0.0
230
1.0
 70
    11
 71
     3
 72
    20
 73
    16
 74
     0
 42
0.000000001
 43
0.0000000001
 40
0.0
 40
0.0
 40
0.0
 40
0.0
 40
0.2
 40
0.2
 40
0.2
 40
0.2
 40
0.4
 40
0.4
 40
0.4
 40
0.4
 40
0.6
 40
0.6
 40
0.6
 40
0.6
 40
1.0
 40
1.0
 40
1.0
 40
1.0
 10
2.7746
 20
-18.1271
 30
0.0
 10
2.7746
 20
-18.1271
 30
0.0
 10
1.717
 20
-17.0507
 30
0.0
 10
1.717
 20
-17.0507
 30
0.0
 10
1.717
 20
-17.0507
 30
0.0
 10
1.717
 20
-17.0507
 30
0.0
 10
4.022
 20
-14.6911
 30
0.0
 10
4.022
 20
-14.6911
 30
0.0
 10
4.022
 20
-14.6911
 30
0.0
 10
4.022
 20
-14.6911
 30
0.0
 10
5.0607
 20
-15.7699
 30
0.0
 10
5.0607
 20
-15.7699
 30
0.0
 10
5.0607
 20
-15.7699
 30
0.0
 10
5.0607
 20
-15.7699
 30
0.0
 10
2.7746
 20
-18.1271
 30
0.0
 10
2.7746
 20
-18.1271
 30
0.0
  0
SPLINE
  5
D5
330
1F
100
AcDbEntity
  8
Layer 1
 62
   250
100
AcDbSpline
210
0.0
220
0.0
230
1.0
 70
    11
 71
     3
 72
    20
 73
    16
 74
     0
 42
0.000000001
 43
0.0000000001
 40
0.0
 40
0.0
 40
0.0
 40
0.0
 40
0.2
 40
0.2
 40
0.2
 40
0.2
 40
0.4
 40
0.4
 40
0.4
 40
0.4
 40
0.6
 40
0.6
 40
0.6
 40
0.6
 40
1.0
 40
1.0
 40
1.0
 40
1.0
 10
-9.4225
 20
-18.0662
 30
0.0
 10
-9.4225
 20
-18.0662
 30
0.0
 10
-10.4949
 20
-17.0183
 30
0.0
 10
-10.4949
 20
-17.0183
 30
0.0
 10
-10.4949
 20
-17.0183
 30
0.0
 10
-10.4949
 20
-17.0183
 30
0.0
 10
-8.2296
 20
-14.6911
 30
0.0
 10
-8.2296
 20
-14.6911
 30
0.0
 10
-8.2296
 20
-14.6911
 30
0.0
 10
-8.2296
 20
-14.6911
 30
0.0
 10
-7.1573
 20
-15.7755
 30
0.0
 10
-7.1573
 20
-15.7755
 30
0.0
 10
-7.1573
 20
-15.7755
 30
0.0
 10
-7.1573
 20
-15.7755
 30
0.0
 10
-9.4225
 20
-18.0662
 30
0.0
 10
-9.4225
 20
-18.0662
 30
0.0
  0
SPLINE
  5
D6
330
1F
100
AcDbEntity
  8
Layer 1
 62
   250
100
AcDbSpline
210
0.0
220
0.0
230
1.0
 70
    11
 71
     3
 72
    16
 73
    12
 74
     0
 42
0.000000001
 43
0.0000000001
 40
0.0
 40
0.0
 40
0.0
 40
0.0
 40
0.25
 40
0.25
 40
0.25
 40
0.25
 40
0.5
 40
0.5
 40
0.5
 40
0.5
 40
1.0
 40
1.0
 40
1.0
 40
1.0
 10
-10.6817
 20
8.5748
 30
0.0
 10
-10.6817
 20
8.5748
 30
0.0
 10
-10.6817
 20
9.3424
 30
0.0
 10
-10.6817
 20
9.3424
 30
0.0
 10
-10.6817
 20
9.3424
 30
0.0
 10
-10.6817
 20
9.3424
 30
0.0
 10
-10.2298
 20
8.9403
 30
0.0
 10
-10.2298
 20
8.9403
 30
0.0
 10
-10.2298
 20
8.9403
 30
0.0
 10
-10.2298
 20
8.9403
 30
0.0
 10
-10.6817
 20
8.5748
 30
0.0
 10
-10.6817
 20
8.5748
 30
0.0
  0
SPLINE
  5
D7
330
1F
100
AcDbEntity
  8
Layer 1
 62
   250
100
AcDbSpline
210
0.0
220
0.0
230
1.0
 70
    11
 71
     3
 72
    24
 73
    20
 74
     0
 42
0.000000001
 43
0.0000000001
 40
0.0
 40
0.0
 40
0.0
 40
0.0
 40
0.1666666666666667
 40
0.1666666666666667
 40
0.1666666666666667
 40
0.1666666666666667
 40
0.3333333333333333
 40
0.3333333333333333
 40
0.3333333333333333
 40
0.3333333333333333
 40
0.5
 40
0.5
 40
0.5
 40
0.5
 40
0.6666666666666666
 40
0.6666666666666666
 40
0.6666666666666666
 40
0.6666666666666666
 40
1.0
 40
1.0
 40
1.0
 40
1.0
 10
10.1575
 20
7.9534
 30
0.0
 10
10.1575
 20
7.9534
 30
0.0
 10
10.6455
 20
8.4286
 30
0.0
 10
10.6455
 20
8.4286
 30
0.0
 10
10.6455
 20
8.4286
 30
0.0
 10
10.6455
 20
8.4286
 30
0.0
 10
10.6455
 20
9.6531
 30
0.0
 10
10.6455
 20
9.6531
 30
0.0
 10
10.6455
 20
9.6531
 30
0.0
 10
10.6455
 20
9.6531
 30
0.0
 10
8.7116
 20
11.627
 30
0.0
 10
8.7116
 20
11.627
 30
0.0
 10
8.7116
 20
11.627
 30
0.0
 10
8.7116
 20
11.627
 30
0.0
 10
7.6272
 20
10.5304
 30
0.0
 10
7.6272
 20
10.5304
 30
0.0
 10
7.6272
 20
10.5304
 30
0.0
 10
7.6272
 20
10.5304
 30
0.0
 10
10.1575
 20
7.9534
 30
0.0
 10
10.1575
 20
7.9534
 30
0.0
  0
SPLINE
  5
D8
330
1F
100
AcDbEntity
  8
Layer 1
 62
   250
100
AcDbSpline
210
0.0
220
0.0
230
1.0
 70
    11
 71
     3
 72
    20
 73
    16
 74
     0
 42
0.000000001
 43
0.0000000001
 40
0.0
 40
0.0
 40
0.0
 40
0.0
 40
0.2
 40
0.2
 40
0.2
 40
0.2
 40
0.4
 40
0.4
 40
0.4
 40
0.4
 40
0.6
 40
0.6
 40
0.6
 40
0.6
 40
1.0
 40
1.0
 40
1.0
 40
1.0
 10
7.338
 20
7.6244
 30
0.0
 10
7.338
 20
7.6244
 30
0.0
 10
8.4044
 20
8.721
 30
0.0
 10
8.4044
 20
8.721
 30
0.0
 10
8.4044
 20
8.721
 30
0.0
 10
8.4044
 20
8.721
 30
0.0
 10
3.7774
 20
13.3998
 30
0.0
 10
3.7774
 20
13.3998
 30
0.0
 10
3.7774
 20
13.3998
 30
0.0
 10
3.7774
 20
13.3998
 30
0.0
 10
2.7653
 20
12.3215
 30
0.0
 10
2.7653
 20
12.3215
 30
0.0
 10
2.7653
 20
12.3215
 30
0.0
 10
2.7653
 20
12.3215
 30
0.0
 10
7.338
 20
7.6244
 30
0.0
 10
7.338
 20
7.6244
 30
0.0
  0
SPLINE
  5
D9
330
1F
100
AcDbEntity
  8
Layer 1
 62
   250
100
AcDbSpline
210
0.0
220
0.0
230
1.0
 70
    11
 71
     3
 72
    20
 73
    16
 74
     0
 42
0.000000001
 43
0.0000000001
 40
0.0
 40
0.0
 40
0.0
 40
0.0
 40
0.2
 40
0.2
 40
0.2
 40
0.2
 40
0.4
 40
0.4
 40
0.4
 40
0.4
 40
0.6
 40
0.6
 40
0.6
 40
0.6
 40
1.0
 40
1.0
 40
1.0
 40
1.0
 10
2.4581
 20
9.4338
 30
0.0
 10
2.4581
 20
9.4338
 30
0.0
 10
3.5425
 20
10.4938
 30
0.0
 10
3.5425
 20
10.4938
 30
0.0
 10
3.5425
 20
10.4938
 30
0.0
 10
3.5425
 20
10.4938
 30
0.0
 10
0.976
 20
13.0891
 30
0.0
 10
0.976
 20
13.0891
 30
0.0
 10
0.976
 20
13.0891
 30
0.0
 10
0.976
 20
13.0891
 30
0.0
 10
-0.0181
 20
12.0108
 30
0.0
 10
-0.0181
 20
12.0108
 30
0.0
 10
-0.0181
 20
12.0108
 30
0.0
 10
-0.0181
 20
12.0108
 30
0.0
 10
2.4581
 20
9.4338
 30
0.0
 10
2.4581
 20
9.4338
 30
0.0
  0
SPLINE
  5
DA
330
1F
100
AcDbEntity
  8
Layer 1
 62
   250
100
AcDbSpline
210
0.0
220
0.0
230
1.0
 70
    11
 71
     3
 72
    20
 73
    16
 74
     0
 42
0.000000001
 43
0.0000000001
 40
0.0
 40
0.0
 40
0.0
 40
0.0
 40
0.2
 40
0.2
 40
0.2
 40
0.2
 40
0.4
 40
0.4
 40
0.4
 40
0.4
 40
0.6
 40
0.6
 40
0.6
 40
0.6
 40
1.0
 40
1.0
 40
1.0
 40
1.0
 10
5.5668
 20
12.6139
 30
0.0
 10
5.5668
 20
12.6139
 30
0.0
 10
6.6512
 20
13.674
 30
0.0
 10
6.6512
 20
13.674
 30
0.0
 10
6.6512
 20
13.674
 30
0.0
 10
6.6512
 20
13.674
 30
0.0
 10
4.1208
 20
16.2327
 30
0.0
 10
4.1208
 20
16.2327
 30
0.0
 10
4.1208
 20
16.2327
 30
0.0
 10
4.1208
 20
16.2327
 30
0.0
 10
3.0906
 20
15.1543
 30
0.0
 10
3.0906
 20
15.1543
 30
0.0
 10
3.0906
 20
15.1543
 30
0.0
 10
3.0906
 20
15.1543
 30
0.0
 10
5.5668
 20
12.6139
 30
0.0
 10
5.5668
 20
12.6139
 30
0.0
  0
SPLINE
  5
DB
330
1F
100
AcDbEntity
  8
Layer 1
 62
   250
100
AcDbSpline
210
0.0
220
0.0
230
1.0
 70
    11
 71
     3
 72
    20
 73
    16
 74
     0
 42
0.000000001
 43
0.0000000001
 40
0.0
 40
0.0
 40
0.0
 40
0.0
 40
0.2
 40
0.2
 40
0.2
 40
0.2
 40
0.4
 40
0.4
 40
0.4
 40
0.4
 40
0.6
 40
0.6
 40
0.6
 40
0.6
 40
1.0
 40
1.0
 40
1.0
 40
1.0
 10
-2.0966
 20
7.9717
 30
0.0
 10
-2.0966
 20
7.9717
 30
0.0
 10
-1.0121
 20
9.0317
 30
0.0
 10
-1.0121
 20
9.0317
 30
0.0
 10
-1.0121
 20
9.0317
 30
0.0
 10
-1.0121
 20
9.0317
 30
0.0
 10
-3.5786
 20
11.627
 30
0.0
 10
-3.5786
 20
11.627
 30
0.0
 10
-3.5786
 20
11.627
 30
0.0
 10
-3.5786
 20
11.627
 30
0.0
 10
-4.5727
 20
10.5487
 30
0.0
 10
-4.5727
 20
10.5487
 30
0.0
 10
-4.5727
 20
10.5487
 30
0.0
 10
-4.5727
 20
10.5487
 30
0.0
 10
-2.0966
 20
7.9717
 30
0.0
 10
-2.0966
 20
7.9717
 30
0.0
  0
SPLINE
  5
DC
330
1F
100
AcDbEntity
  8
Layer 1
 62
   250
100
AcDbSpline
210
0.0
220
0.0
230
1.0
 70
    11
 71
     3
 72
    20
 73
    16
 74
     0
 42
0.000000001
 43
0.0000000001
 40
0.0
 40
0.0
 40
0.0
 40
0.0
 40
0.2
 40
0.2
 40
0.2
 40
0.2
 40
0.4
 40
0.4
 40
0.4
 40
0.4
 40
0.6
 40
0.6
 40
0.6
 40
0.6
 40
1.0
 40
1.0
 40
1.0
 40
1.0
 10
-1.4945
 20
10.5487
 30
0.0
 10
-1.4945
 20
10.5487
 30
0.0
 10
-0.5332
 20
11.5208
 30
0.0
 10
-0.5332
 20
11.5208
 30
0.0
 10
-0.5332
 20
11.5208
 30
0.0
 10
-0.5332
 20
11.5208
 30
0.0
 10
0.4282
 20
10.5487
 30
0.0
 10
0.4282
 20
10.5487
 30
0.0
 10
0.4282
 20
10.5487
 30
0.0
 10
0.4282
 20
10.5487
 30
0.0
 10
-0.5332
 20
9.5766
 30
0.0
 10
-0.5332
 20
9.5766
 30
0.0
 10
-0.5332
 20
9.5766
 30
0.0
 10
-0.5332
 20
9.5766
 30
0.0
 10
-1.4945
 20
10.5487
 30
0.0
 10
-1.4945
 20
10.5487
 30
0.0
  0
SPLINE
  5
DD
330
1F
100
AcDbEntity
  8
Layer 1
 62
   250
100
AcDbSpline
210
0.0
220
0.0
230
1.0
 70
    11
 71
     3
 72
    20
 73
    16
 74
     0
 42
0.000000001
 43
0.0000000001
 40
0.0
 40
0.0
 40
0.0
 40
0.0
 40
0.2
 40
0.2
 40
0.2
 40
0.2
 40
0.4
 40
0.4
 40
0.4
 40
0.4
 40
0.6
 40
0.6
 40
0.6
 40
0.6
 40
1.0
 40
1.0
 40
1.0
 40
1.0
 10
-4.898
 20
7.661
 30
0.0
 10
-4.898
 20
7.661
 30
0.0
 10
-3.8317
 20
8.7576
 30
0.0
 10
-3.8317
 20
8.7576
 30
0.0
 10
-3.8317
 20
8.7576
 30
0.0
 10
-3.8317
 20
8.7576
 30
0.0
 10
-8.4586
 20
13.4364
 30
0.0
 10
-8.4586
 20
13.4364
 30
0.0
 10
-8.4586
 20
13.4364
 30
0.0
 10
-8.4586
 20
13.4364
 30
0.0
 10
-9.4707
 20
12.358
 30
0.0
 10
-9.4707
 20
12.358
 30
0.0
 10
-9.4707
 20
12.358
 30
0.0
 10
-9.4707
 20
12.358
 30
0.0
 10
-4.898
 20
7.661
 30
0.0
 10
-4.898
 20
7.661
 30
0.0
  0
SPLINE
  5
DE
330
1F
100
AcDbEntity
  8
Layer 1
 62
   250
100
AcDbSpline
210
0.0
220
0.0
230
1.0
 70
    11
 71
     3
 72
    20
 73
    16
 74
     0
 42
0.000000001
 43
0.0000000001
 40
0.0
 40
0.0
 40
0.0
 40
0.0
 40
0.2
 40
0.2
 40
0.2
 40
0.2
 40
0.4
 40
0.4
 40
0.4
 40
0.4
 40
0.6
 40
0.6
 40
0.6
 40
0.6
 40
1.0
 40
1.0
 40
1.0
 40
1.0
 10
-5.2053
 20
17.2196
 30
0.0
 10
-5.2053
 20
17.2196
 30
0.0
 10
-4.1208
 20
18.2796
 30
0.0
 10
-4.1208
 20
18.2796
 30
0.0
 10
-4.1208
 20
18.2796
 30
0.0
 10
-4.1208
 20
18.2796
 30
0.0
 10
-6.6512
 20
20.8018
 30
0.0
 10
-6.6512
 20
20.8018
 30
0.0
 10
-6.6512
 20
20.8018
 30
0.0
 10
-6.6512
 20
20.8018
 30
0.0
 10
-7.6995
 20
19.7783
 30
0.0
 10
-7.6995
 20
19.7783
 30
0.0
 10
-7.6995
 20
19.7783
 30
0.0
 10
-7.6995
 20
19.7783
 30
0.0
 10
-5.2053
 20
17.2196
 30
0.0
 10
-5.2053
 20
17.2196
 30
0.0
  0
SPLINE
  5
DF
330
1F
100
AcDbEntity
  8
Layer 1
 62
   250
100
AcDbSpline
210
0.0
220
0.0
230
1.0
 70
    11
 71
     3
 72
    20
 73
    16
 74
     0
 42
0.000000001
 43
0.0000000001
 40
0.0
 40
0.0
 40
0.0
 40
0.0
 40
0.2
 40
0.2
 40
0.2
 40
0.2
 40
0.4
 40
0.4
 40
0.4
 40
0.4
 40
0.6
 40
0.6
 40
0.6
 40
0.6
 40
1.0
 40
1.0
 40
1.0
 40
1.0
 10
-6.615
 20
12.6322
 30
0.0
 10
-6.615
 20
12.6322
 30
0.0
 10
-5.6029
 20
13.674
 30
0.0
 10
-5.6029
 20
13.674
 30
0.0
 10
-5.6029
 20
13.674
 30
0.0
 10
-5.6029
 20
13.674
 30
0.0
 10
-8.1332
 20
16.2327
 30
0.0
 10
-8.1332
 20
16.2327
 30
0.0
 10
-8.1332
 20
16.2327
 30
0.0
 10
-8.1332
 20
16.2327
 30
0.0
 10
-9.1273
 20
15.1543
 30
0.0
 10
-9.1273
 20
15.1543
 30
0.0
 10
-9.1273
 20
15.1543
 30
0.0
 10
-9.1273
 20
15.1543
 30
0.0
 10
-6.615
 20
12.6322
 30
0.0
 10
-6.615
 20
12.6322
 30
0.0
  0
SPLINE
  5
E0
330
1F
100
AcDbEntity
  8
Layer 1
 62
   250
100
AcDbSpline
210
0.0
220
0.0
230
1.0
 70
    11
 71
     3
 72
    20
 73
    16
 74
     0
 42
0.000000001
 43
0.0000000001
 40
0.0
 40
0.0
 40
0.0
 40
0.0
 40
0.2
 40
0.2
 40
0.2
 40
0.2
 40
0.4
 40
0.4
 40
0.4
 40
0.4
 40
0.6
 40
0.6
 40
0.6
 40
0.6
 40
1.0
 40
1.0
 40
1.0
 40
1.0
 10
7.1485
 20
14.1857
 30
0.0
 10
7.1485
 20
14.1857
 30
0.0
 10
6.0548
 20
15.262
 30
0.0
 10
6.0548
 20
15.262
 30
0.0
 10
6.0548
 20
15.262
 30
0.0
 10
6.0548
 20
15.262
 30
0.0
 10
8.5405
 20
17.8044
 30
0.0
 10
8.5405
 20
17.8044
 30
0.0
 10
8.5405
 20
17.8044
 30
0.0
 10
8.5405
 20
17.8044
 30
0.0
 10
9.6515
 20
16.6708
 30
0.0
 10
9.6515
 20
16.6708
 30
0.0
 10
9.6515
 20
16.6708
 30
0.0
 10
9.6515
 20
16.6708
 30
0.0
 10
7.1485
 20
14.1857
 30
0.0
 10
7.1485
 20
14.1857
 30
0.0
  0
SPLINE
  5
E1
330
1F
100
AcDbEntity
  8
Layer 1
 62
   250
100
AcDbSpline
210
0.0
220
0.0
230
1.0
 70
    11
 71
     3
 72
    20
 73
    16
 74
     0
 42
0.000000001
 43
0.0000000001
 40
0.0
 40
0.0
 40
0.0
 40
0.0
 40
0.2
 40
0.2
 40
0.2
 40
0.2
 40
0.4
 40
0.4
 40
0.4
 40
0.4
 40
0.6
 40
0.6
 40
0.6
 40
0.6
 40
1.0
 40
1.0
 40
1.0
 40
1.0
 10
7.1392
 20
11.0604
 30
0.0
 10
7.1392
 20
11.0604
 30
0.0
 10
6.0548
 20
12.1205
 30
0.0
 10
6.0548
 20
12.1205
 30
0.0
 10
6.0548
 20
12.1205
 30
0.0
 10
6.0548
 20
12.1205
 30
0.0
 10
8.3321
 20
14.4598
 30
0.0
 10
8.3321
 20
14.4598
 30
0.0
 10
8.3321
 20
14.4598
 30
0.0
 10
8.3321
 20
14.4598
 30
0.0
 10
9.4165
 20
13.3633
 30
0.0
 10
9.4165
 20
13.3633
 30
0.0
 10
9.4165
 20
13.3633
 30
0.0
 10
9.4165
 20
13.3633
 30
0.0
 10
7.1392
 20
11.0604
 30
0.0
 10
7.1392
 20
11.0604
 30
0.0
  0
SPLINE
  5
E2
330
1F
100
AcDbEntity
  8
Layer 1
 62
   250
100
AcDbSpline
210
0.0
220
0.0
230
1.0
 70
    11
 71
     3
 72
    20
 73
    16
 74
     0
 42
0.000000001
 43
0.0000000001
 40
0.0
 40
0.0
 40
0.0
 40
0.0
 40
0.2
 40
0.2
 40
0.2
 40
0.2
 40
0.4
 40
0.4
 40
0.4
 40
0.4
 40
0.6
 40
0.6
 40
0.6
 40
0.6
 40
1.0
 40
1.0
 40
1.0
 40
1.0
 10
10.2298
 20
11.0421
 30
0.0
 10
10.2298
 20
11.0421
 30
0.0
 10
10.6455
 20
11.4077
 30
0.0
 10
10.6455
 20
11.4077
 30
0.0
 10
10.6455
 20
11.4077
 30
0.0
 10
10.6455
 20
11.4077
 30
0.0
 10
10.6455
 20
13.5643
 30
0.0
 10
10.6455
 20
13.5643
 30
0.0
 10
10.6455
 20
13.5643
 30
0.0
 10
10.6455
 20
13.5643
 30
0.0
 10
9.1996
 20
12.1022
 30
0.0
 10
9.1996
 20
12.1022
 30
0.0
 10
9.1996
 20
12.1022
 30
0.0
 10
9.1996
 20
12.1022
 30
0.0
 10
10.2298
 20
11.0421
 30
0.0
 10
10.2298
 20
11.0421
 30
0.0
  0
SPLINE
  5
E3
330
1F
100
AcDbEntity
  8
Layer 1
 62
   250
100
AcDbSpline
210
0.0
220
0.0
230
1.0
 70
    11
 71
     3
 72
    20
 73
    16
 74
     0
 42
0.000000001
 43
0.0000000001
 40
0.0
 40
0.0
 40
0.0
 40
0.0
 40
0.2
 40
0.2
 40
0.2
 40
0.2
 40
0.4
 40
0.4
 40
0.4
 40
0.4
 40
0.6
 40
0.6
 40
0.6
 40
0.6
 40
1.0
 40
1.0
 40
1.0
 40
1.0
 10
9.9226
 20
13.8933
 30
0.0
 10
9.9226
 20
13.8933
 30
0.0
 10
10.6455
 20
14.5878
 30
0.0
 10
10.6455
 20
14.5878
 30
0.0
 10
10.6455
 20
14.5878
 30
0.0
 10
10.6455
 20
14.5878
 30
0.0
 10
10.6275
 20
16.7078
 30
0.0
 10
10.6275
 20
16.7078
 30
0.0
 10
10.6275
 20
16.7078
 30
0.0
 10
10.6275
 20
16.7078
 30
0.0
 10
8.8743
 20
14.935
 30
0.0
 10
8.8743
 20
14.935
 30
0.0
 10
8.8743
 20
14.935
 30
0.0
 10
8.8743
 20
14.935
 30
0.0
 10
9.9226
 20
13.8933
 30
0.0
 10
9.9226
 20
13.8933
 30
0.0
  0
SPLINE
  5
E4
330
1F
100
AcDbEntity
  8
Layer 1
 62
   250
100
AcDbSpline
210
0.0
220
0.0
230
1.0
 70
    11
 71
     3
 72
    24
 73
    20
 74
     0
 42
0.000000001
 43
0.0000000001
 40
0.0
 40
0.0
 40
0.0
 40
0.0
 40
0.1666666666666667
 40
0.1666666666666667
 40
0.1666666666666667
 40
0.1666666666666667
 40
0.3333333333333333
 40
0.3333333333333333
 40
0.3333333333333333
 40
0.3333333333333333
 40
0.5
 40
0.5
 40
0.5
 40
0.5
 40
0.6666666666666666
 40
0.6666666666666666
 40
0.6666666666666666
 40
0.6666666666666666
 40
1.0
 40
1.0
 40
1.0
 40
1.0
 10
10.1937
 20
17.2013
 30
0.0
 10
10.1937
 20
17.2013
 30
0.0
 10
10.6455
 20
17.7313
 30
0.0
 10
10.6455
 20
17.7313
 30
0.0
 10
10.6455
 20
17.7313
 30
0.0
 10
10.6455
 20
17.7313
 30
0.0
 10
10.6455
 20
18.8827
 30
0.0
 10
10.6455
 20
18.8827
 30
0.0
 10
10.6455
 20
18.8827
 30
0.0
 10
10.6455
 20
18.8827
 30
0.0
 10
8.9104
 20
20.619
 30
0.0
 10
8.9104
 20
20.619
 30
0.0
 10
8.9104
 20
20.619
 30
0.0
 10
8.9104
 20
20.619
 30
0.0
 10
7.8441
 20
19.5041
 30
0.0
 10
7.8441
 20
19.5041
 30
0.0
 10
7.8441
 20
19.5041
 30
0.0
 10
7.8441
 20
19.5041
 30
0.0
 10
10.1937
 20
17.2013
 30
0.0
 10
10.1937
 20
17.2013
 30
0.0
  0
SPLINE
  5
E5
330
1F
100
AcDbEntity
  8
Layer 1
 62
   250
100
AcDbSpline
210
0.0
220
0.0
230
1.0
 70
    11
 71
     3
 72
    20
 73
    16
 74
     0
 42
0.000000001
 43
0.0000000001
 40
0.0
 40
0.0
 40
0.0
 40
0.0
 40
0.2
 40
0.2
 40
0.2
 40
0.2
 40
0.4
 40
0.4
 40
0.4
 40
0.4
 40
0.6
 40
0.6
 40
0.6
 40
0.6
 40
1.0
 40
1.0
 40
1.0
 40
1.0
 10
6.9765
 20
17.183
 30
0.0
 10
6.9765
 20
17.183
 30
0.0
 10
8.061
 20
18.2431
 30
0.0
 10
8.061
 20
18.2431
 30
0.0
 10
8.061
 20
18.2431
 30
0.0
 10
8.061
 20
18.2431
 30
0.0
 10
5.5306
 20
20.8018
 30
0.0
 10
5.5306
 20
20.8018
 30
0.0
 10
5.5306
 20
20.8018
 30
0.0
 10
5.5306
 20
20.8018
 30
0.0
 10
4.5004
 20
19.7235
 30
0.0
 10
4.5004
 20
19.7235
 30
0.0
 10
4.5004
 20
19.7235
 30
0.0
 10
4.5004
 20
19.7235
 30
0.0
 10
6.9765
 20
17.183
 30
0.0
 10
6.9765
 20
17.183
 30
0.0
  0
SPLINE
  5
E6
330
1F
100
AcDbEntity
  8
Layer 1
 62
   250
100
AcDbSpline
210
0.0
220
0.0
230
1.0
 70
    11
 71
     3
 72
    20
 73
    16
 74
     0
 42
0.000000001
 43
0.0000000001
 40
0.0
 40
0.0
 40
0.0
 40
0.0
 40
0.2
 40
0.2
 40
0.2
 40
0.2
 40
0.4
 40
0.4
 40
0.4
 40
0.4
 40
0.6
 40
0.6
 40
0.6
 40
0.6
 40
1.0
 40
1.0
 40
1.0
 40
1.0
 10
4.5783
 20
16.7261
 30
0.0
 10
4.5783
 20
16.7261
 30
0.0
 10
5.5396
 20
17.6982
 30
0.0
 10
5.5396
 20
17.6982
 30
0.0
 10
5.5396
 20
17.6982
 30
0.0
 10
5.5396
 20
17.6982
 30
0.0
 10
6.501
 20
16.7261
 30
0.0
 10
6.501
 20
16.7261
 30
0.0
 10
6.501
 20
16.7261
 30
0.0
 10
6.501
 20
16.7261
 30
0.0
 10
5.5396
 20
15.754
 30
0.0
 10
5.5396
 20
15.754
 30
0.0
 10
5.5396
 20
15.754
 30
0.0
 10
5.5396
 20
15.754
 30
0.0
 10
4.5783
 20
16.7261
 30
0.0
 10
4.5783
 20
16.7261
 30
0.0
  0
SPLINE
  5
E7
330
1F
100
AcDbEntity
  8
Layer 1
 62
   250
100
AcDbSpline
210
0.0
220
0.0
230
1.0
 70
    11
 71
     3
 72
    20
 73
    16
 74
     0
 42
0.000000001
 43
0.0000000001
 40
0.0
 40
0.0
 40
0.0
 40
0.0
 40
0.2
 40
0.2
 40
0.2
 40
0.2
 40
0.4
 40
0.4
 40
0.4
 40
0.4
 40
0.6
 40
0.6
 40
0.6
 40
0.6
 40
1.0
 40
1.0
 40
1.0
 40
1.0
 10
2.5577
 20
15.6478
 30
0.0
 10
2.5577
 20
15.6478
 30
0.0
 10
1.5001
 20
16.7241
 30
0.0
 10
1.5001
 20
16.7241
 30
0.0
 10
1.5001
 20
16.7241
 30
0.0
 10
1.5001
 20
16.7241
 30
0.0
 10
4.022
 20
19.2665
 30
0.0
 10
4.022
 20
19.2665
 30
0.0
 10
4.022
 20
19.2665
 30
0.0
 10
4.022
 20
19.2665
 30
0.0
 10
5.0788
 20
18.1877
 30
0.0
 10
5.0788
 20
18.1877
 30
0.0
 10
5.0788
 20
18.1877
 30
0.0
 10
5.0788
 20
18.1877
 30
0.0
 10
2.5577
 20
15.6478
 30
0.0
 10
2.5577
 20
15.6478
 30
0.0
  0
SPLINE
  5
E8
330
1F
100
AcDbEntity
  8
Layer 1
 62
   250
100
AcDbSpline
210
0.0
220
0.0
230
1.0
 70
    11
 71
     3
 72
    20
 73
    16
 74
     0
 42
0.000000001
 43
0.0000000001
 40
0.0
 40
0.0
 40
0.0
 40
0.0
 40
0.2
 40
0.2
 40
0.2
 40
0.2
 40
0.4
 40
0.4
 40
0.4
 40
0.4
 40
0.6
 40
0.6
 40
0.6
 40
0.6
 40
1.0
 40
1.0
 40
1.0
 40
1.0
 10
-1.9607
 20
11.0056
 30
0.0
 10
-1.9607
 20
11.0056
 30
0.0
 10
-3.0545
 20
12.0819
 30
0.0
 10
-3.0545
 20
12.0819
 30
0.0
 10
-3.0545
 20
12.0819
 30
0.0
 10
-3.0545
 20
12.0819
 30
0.0
 10
-0.5326
 20
14.6792
 30
0.0
 10
-0.5326
 20
14.6792
 30
0.0
 10
-0.5326
 20
14.6792
 30
0.0
 10
-0.5326
 20
14.6792
 30
0.0
 10
0.5242
 20
13.5638
 30
0.0
 10
0.5242
 20
13.5638
 30
0.0
 10
0.5242
 20
13.5638
 30
0.0
 10
0.5242
 20
13.5638
 30
0.0
 10
-1.9607
 20
11.0056
 30
0.0
 10
-1.9607
 20
11.0056
 30
0.0
  0
SPLINE
  5
E9
330
1F
100
AcDbEntity
  8
Layer 1
 62
   250
100
AcDbSpline
210
0.0
220
0.0
230
1.0
 70
    11
 71
     3
 72
    20
 73
    16
 74
     0
 42
0.000000001
 43
0.0000000001
 40
0.0
 40
0.0
 40
0.0
 40
0.0
 40
0.2
 40
0.2
 40
0.2
 40
0.2
 40
0.4
 40
0.4
 40
0.4
 40
0.4
 40
0.6
 40
0.6
 40
0.6
 40
0.6
 40
1.0
 40
1.0
 40
1.0
 40
1.0
 10
-5.0875
 20
14.204
 30
0.0
 10
-5.0875
 20
14.204
 30
0.0
 10
-6.1632
 20
15.2255
 30
0.0
 10
-6.1632
 20
15.2255
 30
0.0
 10
-6.1632
 20
15.2255
 30
0.0
 10
-6.1632
 20
15.2255
 30
0.0
 10
-3.6413
 20
17.7679
 30
0.0
 10
-3.6413
 20
17.7679
 30
0.0
 10
-3.6413
 20
17.7679
 30
0.0
 10
-3.6413
 20
17.7679
 30
0.0
 10
-2.5846
 20
16.7073
 30
0.0
 10
-2.5846
 20
16.7073
 30
0.0
 10
-2.5846
 20
16.7073
 30
0.0
 10
-2.5846
 20
16.7073
 30
0.0
 10
-5.0875
 20
14.204
 30
0.0
 10
-5.0875
 20
14.204
 30
0.0
  0
SPLINE
  5
EA
330
1F
100
AcDbEntity
  8
Layer 1
 62
   250
100
AcDbSpline
210
0.0
220
0.0
230
1.0
 70
    11
 71
     3
 72
    20
 73
    16
 74
     0
 42
0.000000001
 43
0.0000000001
 40
0.0
 40
0.0
 40
0.0
 40
0.0
 40
0.2
 40
0.2
 40
0.2
 40
0.2
 40
0.4
 40
0.4
 40
0.4
 40
0.4
 40
0.6
 40
0.6
 40
0.6
 40
0.6
 40
1.0
 40
1.0
 40
1.0
 40
1.0
 10
-0.5148
 20
18.7914
 30
0.0
 10
-0.5148
 20
18.7914
 30
0.0
 10
-1.6086
 20
19.8677
 30
0.0
 10
-1.6086
 20
19.8677
 30
0.0
 10
-1.6086
 20
19.8677
 30
0.0
 10
-1.6086
 20
19.8677
 30
0.0
 10
0.8771
 20
22.4101
 30
0.0
 10
0.8771
 20
22.4101
 30
0.0
 10
0.8771
 20
22.4101
 30
0.0
 10
0.8771
 20
22.4101
 30
0.0
 10
1.9881
 20
21.2764
 30
0.0
 10
1.9881
 20
21.2764
 30
0.0
 10
1.9881
 20
21.2764
 30
0.0
 10
1.9881
 20
21.2764
 30
0.0
 10
-0.5148
 20
18.7914
 30
0.0
 10
-0.5148
 20
18.7914
 30
0.0
  0
SPLINE
  5
EB
330
1F
100
AcDbEntity
  8
Layer 1
 62
   250
100
AcDbSpline
210
0.0
220
0.0
230
1.0
 70
    11
 71
     3
 72
    20
 73
    16
 74
     0
 42
0.000000001
 43
0.0000000001
 40
0.0
 40
0.0
 40
0.0
 40
0.0
 40
0.2
 40
0.2
 40
0.2
 40
0.2
 40
0.4
 40
0.4
 40
0.4
 40
0.4
 40
0.6
 40
0.6
 40
0.6
 40
0.6
 40
1.0
 40
1.0
 40
1.0
 40
1.0
 10
-9.624
 20
15.6478
 30
0.0
 10
-9.624
 20
15.6478
 30
0.0
 10
-10.6817
 20
16.7241
 30
0.0
 10
-10.6817
 20
16.7241
 30
0.0
 10
-10.6817
 20
16.7241
 30
0.0
 10
-10.6817
 20
16.7241
 30
0.0
 10
-8.196
 20
19.2665
 30
0.0
 10
-8.196
 20
19.2665
 30
0.0
 10
-8.196
 20
19.2665
 30
0.0
 10
-8.196
 20
19.2665
 30
0.0
 10
-7.1392
 20
18.1694
 30
0.0
 10
-7.1392
 20
18.1694
 30
0.0
 10
-7.1392
 20
18.1694
 30
0.0
 10
-7.1392
 20
18.1694
 30
0.0
 10
-9.624
 20
15.6478
 30
0.0
 10
-9.624
 20
15.6478
 30
0.0
  0
SPLINE
  5
EC
330
1F
100
AcDbEntity
  8
Layer 1
 62
   250
100
AcDbSpline
210
0.0
220
0.0
230
1.0
 70
    11
 71
     3
 72
    20
 73
    16
 74
     0
 42
0.000000001
 43
0.0000000001
 40
0.0
 40
0.0
 40
0.0
 40
0.0
 40
0.2
 40
0.2
 40
0.2
 40
0.2
 40
0.4
 40
0.4
 40
0.4
 40
0.4
 40
0.6
 40
0.6
 40
0.6
 40
0.6
 40
1.0
 40
1.0
 40
1.0
 40
1.0
 10
-10.6817
 20
10.3294
 30
0.0
 10
-10.6817
 20
10.3294
 30
0.0
 10
-10.6817
 20
12.5591
 30
0.0
 10
-10.6817
 20
12.5591
 30
0.0
 10
-10.6817
 20
12.5591
 30
0.0
 10
-10.6817
 20
12.5591
 30
0.0
 10
-8.6755
 20
10.5304
 30
0.0
 10
-8.6755
 20
10.5304
 30
0.0
 10
-8.6755
 20
10.5304
 30
0.0
 10
-8.6755
 20
10.5304
 30
0.0
 10
-9.7599
 20
9.4521
 30
0.0
 10
-9.7599
 20
9.4521
 30
0.0
 10
-9.7599
 20
9.4521
 30
0.0
 10
-9.7599
 20
9.4521
 30
0.0
 10
-10.6817
 20
10.3294
 30
0.0
 10
-10.6817
 20
10.3294
 30
0.0
  0
SPLINE
  5
ED
330
1F
100
AcDbEntity
  8
Layer 1
 62
   250
100
AcDbSpline
210
0.0
220
0.0
230
1.0
 70
    11
 71
     3
 72
    20
 73
    16
 74
     0
 42
0.000000001
 43
0.0000000001
 40
0.0
 40
0.0
 40
0.0
 40
0.0
 40
0.2
 40
0.2
 40
0.2
 40
0.2
 40
0.4
 40
0.4
 40
0.4
 40
0.4
 40
0.6
 40
0.6
 40
0.6
 40
0.6
 40
1.0
 40
1.0
 40
1.0
 40
1.0
 10
-9.9587
 20
12.7967
 30
0.0
 10
-9.9587
 20
12.7967
 30
0.0
 10
-10.6817
 20
13.4912
 30
0.0
 10
-10.6817
 20
13.4912
 30
0.0
 10
-10.6817
 20
13.4912
 30
0.0
 10
-10.6817
 20
13.4912
 30
0.0
 10
-10.6817
 20
15.6844
 30
0.0
 10
-10.6817
 20
15.6844
 30
0.0
 10
-10.6817
 20
15.6844
 30
0.0
 10
-10.6817
 20
15.6844
 30
0.0
 10
-8.9285
 20
13.9115
 30
0.0
 10
-8.9285
 20
13.9115
 30
0.0
 10
-8.9285
 20
13.9115
 30
0.0
 10
-8.9285
 20
13.9115
 30
0.0
 10
-9.9587
 20
12.7967
 30
0.0
 10
-9.9587
 20
12.7967
 30
0.0
  0
SPLINE
  5
EE
330
1F
100
AcDbEntity
  8
Layer 1
 62
   250
100
AcDbSpline
210
0.0
220
0.0
230
1.0
 70
    11
 71
     3
 72
    16
 73
    12
 74
     0
 42
0.000000001
 43
0.0000000001
 40
0.0
 40
0.0
 40
0.0
 40
0.0
 40
0.25
 40
0.25
 40
0.25
 40
0.25
 40
0.5
 40
0.5
 40
0.5
 40
0.5
 40
1.0
 40
1.0
 40
1.0
 40
1.0
 10
-10.6817
 20
17.7496
 30
0.0
 10
-10.6817
 20
17.7496
 30
0.0
 10
-9.9226
 20
18.5172
 30
0.0
 10
-9.9226
 20
18.5172
 30
0.0
 10
-9.9226
 20
18.5172
 30
0.0
 10
-9.9226
 20
18.5172
 30
0.0
 10
-10.6817
 20
19.2665
 30
0.0
 10
-10.6817
 20
19.2665
 30
0.0
 10
-10.6817
 20
19.2665
 30
0.0
 10
-10.6817
 20
19.2665
 30
0.0
 10
-10.6817
 20
17.7496
 30
0.0
 10
-10.6817
 20
17.7496
 30
0.0
  0
SPLINE
  5
EF
330
1F
100
AcDbEntity
  8
Layer 1
 62
   250
100
AcDbSpline
210
0.0
220
0.0
230
1.0
 70
    11
 71
     3
 72
    20
 73
    16
 74
     0
 42
0.000000001
 43
0.0000000001
 40
0.0
 40
0.0
 40
0.0
 40
0.0
 40
0.2
 40
0.2
 40
0.2
 40
0.2
 40
0.4
 40
0.4
 40
0.4
 40
0.4
 40
0.6
 40
0.6
 40
0.6
 40
0.6
 40
1.0
 40
1.0
 40
1.0
 40
1.0
 10
-5.0968
 20
11.0239
 30
0.0
 10
-5.0968
 20
11.0239
 30
0.0
 10
-6.1451
 20
12.0839
 30
0.0
 10
-6.1451
 20
12.0839
 30
0.0
 10
-6.1451
 20
12.0839
 30
0.0
 10
-6.1451
 20
12.0839
 30
0.0
 10
-3.8497
 20
14.4598
 30
0.0
 10
-3.8497
 20
14.4598
 30
0.0
 10
-3.8497
 20
14.4598
 30
0.0
 10
-3.8497
 20
14.4598
 30
0.0
 10
-2.7834
 20
13.345
 30
0.0
 10
-2.7834
 20
13.345
 30
0.0
 10
-2.7834
 20
13.345
 30
0.0
 10
-2.7834
 20
13.345
 30
0.0
 10
-5.0968
 20
11.0239
 30
0.0
 10
-5.0968
 20
11.0239
 30
0.0
  0
SPLINE
  5
F0
330
1F
100
AcDbEntity
  8
Layer 1
 62
   250
100
AcDbSpline
210
0.0
220
0.0
230
1.0
 70
    11
 71
     3
 72
    20
 73
    16
 74
     0
 42
0.000000001
 43
0.0000000001
 40
0.0
 40
0.0
 40
0.0
 40
0.0
 40
0.2
 40
0.2
 40
0.2
 40
0.2
 40
0.4
 40
0.4
 40
0.4
 40
0.4
 40
0.6
 40
0.6
 40
0.6
 40
0.6
 40
1.0
 40
1.0
 40
1.0
 40
1.0
 10
-2.2773
 20
13.8567
 30
0.0
 10
-2.2773
 20
13.8567
 30
0.0
 10
-3.3256
 20
14.9167
 30
0.0
 10
-3.3256
 20
14.9167
 30
0.0
 10
-3.3256
 20
14.9167
 30
0.0
 10
-3.3256
 20
14.9167
 30
0.0
 10
1.2652
 20
19.559
 30
0.0
 10
1.2652
 20
19.559
 30
0.0
 10
1.2652
 20
19.559
 30
0.0
 10
1.2652
 20
19.559
 30
0.0
 10
2.2954
 20
18.5172
 30
0.0
 10
2.2954
 20
18.5172
 30
0.0
 10
2.2954
 20
18.5172
 30
0.0
 10
2.2954
 20
18.5172
 30
0.0
 10
-2.2773
 20
13.8567
 30
0.0
 10
-2.2773
 20
13.8567
 30
0.0
  0
SPLINE
  5
F1
330
1F
100
AcDbEntity
  8
Layer 1
 62
   250
100
AcDbSpline
210
0.0
220
0.0
230
1.0
 70
    11
 71
     3
 72
    20
 73
    16
 74
     0
 42
0.000000001
 43
0.0000000001
 40
0.0
 40
0.0
 40
0.0
 40
0.0
 40
0.2
 40
0.2
 40
0.2
 40
0.2
 40
0.4
 40
0.4
 40
0.4
 40
0.4
 40
0.6
 40
0.6
 40
0.6
 40
0.6
 40
1.0
 40
1.0
 40
1.0
 40
1.0
 10
-2.0604
 20
17.2196
 30
0.0
 10
-2.0604
 20
17.2196
 30
0.0
 10
-4.3558
 20
19.559
 30
0.0
 10
-4.3558
 20
19.559
 30
0.0
 10
-4.3558
 20
19.559
 30
0.0
 10
-4.3558
 20
19.559
 30
0.0
 10
-3.3437
 20
20.619
 30
0.0
 10
-3.3437
 20
20.619
 30
0.0
 10
-3.3437
 20
20.619
 30
0.0
 10
-3.3437
 20
20.619
 30
0.0
 10
-1.0302
 20
18.3162
 30
0.0
 10
-1.0302
 20
18.3162
 30
0.0
 10
-1.0302
 20
18.3162
 30
0.0
 10
-1.0302
 20
18.3162
 30
0.0
 10
-2.0604
 20
17.2196
 30
0.0
 10
-2.0604
 20
17.2196
 30
0.0
  0
SPLINE
  5
F2
330
1F
100
AcDbEntity
  8
Layer 1
 62
   250
100
AcDbSpline
210
0.0
220
0.0
230
1.0
 70
    11
 71
     3
 72
    20
 73
    16
 74
     0
 42
0.000000001
 43
0.0000000001
 40
0.0
 40
0.0
 40
0.0
 40
0.0
 40
0.2
 40
0.2
 40
0.2
 40
0.2
 40
0.4
 40
0.4
 40
0.4
 40
0.4
 40
0.6
 40
0.6
 40
0.6
 40
0.6
 40
1.0
 40
1.0
 40
1.0
 40
1.0
 10
-7.6035
 20
16.6896
 30
0.0
 10
-7.6035
 20
16.6896
 30
0.0
 10
-6.6421
 20
17.6617
 30
0.0
 10
-6.6421
 20
17.6617
 30
0.0
 10
-6.6421
 20
17.6617
 30
0.0
 10
-6.6421
 20
17.6617
 30
0.0
 10
-5.6808
 20
16.6896
 30
0.0
 10
-5.6808
 20
16.6896
 30
0.0
 10
-5.6808
 20
16.6896
 30
0.0
 10
-5.6808
 20
16.6896
 30
0.0
 10
-6.6421
 20
15.7174
 30
0.0
 10
-6.6421
 20
15.7174
 30
0.0
 10
-6.6421
 20
15.7174
 30
0.0
 10
-6.6421
 20
15.7174
 30
0.0
 10
-7.6035
 20
16.6896
 30
0.0
 10
-7.6035
 20
16.6896
 30
0.0
  0
SPLINE
  5
F3
330
1F
100
AcDbEntity
  8
Layer 1
 62
   250
100
AcDbSpline
210
0.0
220
0.0
230
1.0
 70
    11
 71
     3
 72
    20
 73
    16
 74
     0
 42
0.000000001
 43
0.0000000001
 40
0.0
 40
0.0
 40
0.0
 40
0.0
 40
0.2
 40
0.2
 40
0.2
 40
0.2
 40
0.4
 40
0.4
 40
0.4
 40
0.4
 40
0.6
 40
0.6
 40
0.6
 40
0.6
 40
1.0
 40
1.0
 40
1.0
 40
1.0
 10
2.3135
 20
12.7601
 30
0.0
 10
2.3135
 20
12.7601
 30
0.0
 10
0.0
 20
15.1543
 30
0.0
 10
0.0
 20
15.1543
 30
0.0
 10
0.0
 20
15.1543
 30
0.0
 10
0.0
 20
15.1543
 30
0.0
 10
1.0302
 20
16.1595
 30
0.0
 10
1.0302
 20
16.1595
 30
0.0
 10
1.0302
 20
16.1595
 30
0.0
 10
1.0302
 20
16.1595
 30
0.0
 10
3.3437
 20
13.8567
 30
0.0
 10
3.3437
 20
13.8567
 30
0.0
 10
3.3437
 20
13.8567
 30
0.0
 10
3.3437
 20
13.8567
 30
0.0
 10
2.3135
 20
12.7601
 30
0.0
 10
2.3135
 20
12.7601
 30
0.0
  0
SPLINE
  5
F4
330
1F
100
AcDbEntity
  8
Layer 1
 62
   250
100
AcDbSpline
210
0.0
220
0.0
230
1.0
 70
    11
 71
     3
 72
    24
 73
    20
 74
     0
 42
0.000000001
 43
0.0000000001
 40
0.0
 40
0.0
 40
0.0
 40
0.0
 40
0.1666666666666667
 40
0.1666666666666667
 40
0.1666666666666667
 40
0.1666666666666667
 40
0.3333333333333333
 40
0.3333333333333333
 40
0.3333333333333333
 40
0.3333333333333333
 40
0.5
 40
0.5
 40
0.5
 40
0.5
 40
0.6666666666666666
 40
0.6666666666666666
 40
0.6666666666666666
 40
0.6666666666666666
 40
1.0
 40
1.0
 40
1.0
 40
1.0
 10
10.1575
 20
-4.438
 30
0.0
 10
10.1575
 20
-4.438
 30
0.0
 10
10.6455
 20
-3.9628
 30
0.0
 10
10.6455
 20
-3.9628
 30
0.0
 10
10.6455
 20
-3.9628
 30
0.0
 10
10.6455
 20
-3.9628
 30
0.0
 10
10.6455
 20
-2.7383
 30
0.0
 10
10.6455
 20
-2.7383
 30
0.0
 10
10.6455
 20
-2.7383
 30
0.0
 10
10.6455
 20
-2.7383
 30
0.0
 10
8.7116
 20
-0.7644
 30
0.0
 10
8.7116
 20
-0.7644
 30
0.0
 10
8.7116
 20
-0.7644
 30
0.0
 10
8.7116
 20
-0.7644
 30
0.0
 10
7.6272
 20
-1.861
 30
0.0
 10
7.6272
 20
-1.861
 30
0.0
 10
7.6272
 20
-1.861
 30
0.0
 10
7.6272
 20
-1.861
 30
0.0
 10
10.1575
 20
-4.438
 30
0.0
 10
10.1575
 20
-4.438
 30
0.0
  0
SPLINE
  5
F5
330
1F
100
AcDbEntity
  8
Layer 1
 62
   250
100
AcDbSpline
210
0.0
220
0.0
230
1.0
 70
    11
 71
     3
 72
    20
 73
    16
 74
     0
 42
0.000000001
 43
0.0000000001
 40
0.0
 40
0.0
 40
0.0
 40
0.0
 40
0.2
 40
0.2
 40
0.2
 40
0.2
 40
0.4
 40
0.4
 40
0.4
 40
0.4
 40
0.6
 40
0.6
 40
0.6
 40
0.6
 40
1.0
 40
1.0
 40
1.0
 40
1.0
 10
7.338
 20
-4.767
 30
0.0
 10
7.338
 20
-4.767
 30
0.0
 10
8.4044
 20
-3.6704
 30
0.0
 10
8.4044
 20
-3.6704
 30
0.0
 10
8.4044
 20
-3.6704
 30
0.0
 10
8.4044
 20
-3.6704
 30
0.0
 10
3.7774
 20
1.0084
 30
0.0
 10
3.7774
 20
1.0084
 30
0.0
 10
3.7774
 20
1.0084
 30
0.0
 10
3.7774
 20
1.0084
 30
0.0
 10
2.7653
 20
-0.0699
 30
0.0
 10
2.7653
 20
-0.0699
 30
0.0
 10
2.7653
 20
-0.0699
 30
0.0
 10
2.7653
 20
-0.0699
 30
0.0
 10
7.338
 20
-4.767
 30
0.0
 10
7.338
 20
-4.767
 30
0.0
  0
SPLINE
  5
F6
330
1F
100
AcDbEntity
  8
Layer 1
 62
   250
100
AcDbSpline
210
0.0
220
0.0
230
1.0
 70
    11
 71
     3
 72
    20
 73
    16
 74
     0
 42
0.000000001
 43
0.0000000001
 40
0.0
 40
0.0
 40
0.0
 40
0.0
 40
0.2
 40
0.2
 40
0.2
 40
0.2
 40
0.4
 40
0.4
 40
0.4
 40
0.4
 40
0.6
 40
0.6
 40
0.6
 40
0.6
 40
1.0
 40
1.0
 40
1.0
 40
1.0
 10
2.4581
 20
-2.9576
 30
0.0
 10
2.4581
 20
-2.9576
 30
0.0
 10
3.5425
 20
-1.8976
 30
0.0
 10
3.5425
 20
-1.8976
 30
0.0
 10
3.5425
 20
-1.8976
 30
0.0
 10
3.5425
 20
-1.8976
 30
0.0
 10
0.976
 20
0.6977
 30
0.0
 10
0.976
 20
0.6977
 30
0.0
 10
0.976
 20
0.6977
 30
0.0
 10
0.976
 20
0.6977
 30
0.0
 10
-0.0181
 20
-0.3806
 30
0.0
 10
-0.0181
 20
-0.3806
 30
0.0
 10
-0.0181
 20
-0.3806
 30
0.0
 10
-0.0181
 20
-0.3806
 30
0.0
 10
2.4581
 20
-2.9576
 30
0.0
 10
2.4581
 20
-2.9576
 30
0.0
  0
SPLINE
  5
F7
330
1F
100
AcDbEntity
  8
Layer 1
 62
   250
100
AcDbSpline
210
0.0
220
0.0
230
1.0
 70
    11
 71
     3
 72
    20
 73
    16
 74
     0
 42
0.000000001
 43
0.0000000001
 40
0.0
 40
0.0
 40
0.0
 40
0.0
 40
0.2
 40
0.2
 40
0.2
 40
0.2
 40
0.4
 40
0.4
 40
0.4
 40
0.4
 40
0.6
 40
0.6
 40
0.6
 40
0.6
 40
1.0
 40
1.0
 40
1.0
 40
1.0
 10
5.5668
 20
0.2225
 30
0.0
 10
5.5668
 20
0.2225
 30
0.0
 10
6.6512
 20
1.2825
 30
0.0
 10
6.6512
 20
1.2825
 30
0.0
 10
6.6512
 20
1.2825
 30
0.0
 10
6.6512
 20
1.2825
 30
0.0
 10
4.1208
 20
3.8412
 30
0.0
 10
4.1208
 20
3.8412
 30
0.0
 10
4.1208
 20
3.8412
 30
0.0
 10
4.1208
 20
3.8412
 30
0.0
 10
3.0906
 20
2.7629
 30
0.0
 10
3.0906
 20
2.7629
 30
0.0
 10
3.0906
 20
2.7629
 30
0.0
 10
3.0906
 20
2.7629
 30
0.0
 10
5.5668
 20
0.2225
 30
0.0
 10
5.5668
 20
0.2225
 30
0.0
  0
SPLINE
  5
F8
330
1F
100
AcDbEntity
  8
Layer 1
 62
   250
100
AcDbSpline
210
0.0
220
0.0
230
1.0
 70
    11
 71
     3
 72
    20
 73
    16
 74
     0
 42
0.000000001
 43
0.0000000001
 40
0.0
 40
0.0
 40
0.0
 40
0.0
 40
0.2
 40
0.2
 40
0.2
 40
0.2
 40
0.4
 40
0.4
 40
0.4
 40
0.4
 40
0.6
 40
0.6
 40
0.6
 40
0.6
 40
1.0
 40
1.0
 40
1.0
 40
1.0
 10
-2.0966
 20
-4.4197
 30
0.0
 10
-2.0966
 20
-4.4197
 30
0.0
 10
-1.0121
 20
-3.3597
 30
0.0
 10
-1.0121
 20
-3.3597
 30
0.0
 10
-1.0121
 20
-3.3597
 30
0.0
 10
-1.0121
 20
-3.3597
 30
0.0
 10
-3.5786
 20
-0.7644
 30
0.0
 10
-3.5786
 20
-0.7644
 30
0.0
 10
-3.5786
 20
-0.7644
 30
0.0
 10
-3.5786
 20
-0.7644
 30
0.0
 10
-4.5727
 20
-1.8427
 30
0.0
 10
-4.5727
 20
-1.8427
 30
0.0
 10
-4.5727
 20
-1.8427
 30
0.0
 10
-4.5727
 20
-1.8427
 30
0.0
 10
-2.0966
 20
-4.4197
 30
0.0
 10
-2.0966
 20
-4.4197
 30
0.0
  0
SPLINE
  5
F9
330
1F
100
AcDbEntity
  8
Layer 1
 62
   250
100
AcDbSpline
210
0.0
220
0.0
230
1.0
 70
    11
 71
     3
 72
    20
 73
    16
 74
     0
 42
0.000000001
 43
0.0000000001
 40
0.0
 40
0.0
 40
0.0
 40
0.0
 40
0.2
 40
0.2
 40
0.2
 40
0.2
 40
0.4
 40
0.4
 40
0.4
 40
0.4
 40
0.6
 40
0.6
 40
0.6
 40
0.6
 40
1.0
 40
1.0
 40
1.0
 40
1.0
 10
-1.4945
 20
-1.8427
 30
0.0
 10
-1.4945
 20
-1.8427
 30
0.0
 10
-0.5332
 20
-0.8706
 30
0.0
 10
-0.5332
 20
-0.8706
 30
0.0
 10
-0.5332
 20
-0.8706
 30
0.0
 10
-0.5332
 20
-0.8706
 30
0.0
 10
0.4282
 20
-1.8427
 30
0.0
 10
0.4282
 20
-1.8427
 30
0.0
 10
0.4282
 20
-1.8427
 30
0.0
 10
0.4282
 20
-1.8427
 30
0.0
 10
-0.5332
 20
-2.8149
 30
0.0
 10
-0.5332
 20
-2.8149
 30
0.0
 10
-0.5332
 20
-2.8149
 30
0.0
 10
-0.5332
 20
-2.8149
 30
0.0
 10
-1.4945
 20
-1.8427
 30
0.0
 10
-1.4945
 20
-1.8427
 30
0.0
  0
SPLINE
  5
FA
330
1F
100
AcDbEntity
  8
Layer 1
 62
   250
100
AcDbSpline
210
0.0
220
0.0
230
1.0
 70
    11
 71
     3
 72
    20
 73
    16
 74
     0
 42
0.000000001
 43
0.0000000001
 40
0.0
 40
0.0
 40
0.0
 40
0.0
 40
0.2
 40
0.2
 40
0.2
 40
0.2
 40
0.4
 40
0.4
 40
0.4
 40
0.4
 40
0.6
 40
0.6
 40
0.6
 40
0.6
 40
1.0
 40
1.0
 40
1.0
 40
1.0
 10
-4.898
 20
-4.7304
 30
0.0
 10
-4.898
 20
-4.7304
 30
0.0
 10
-3.8317
 20
-3.6338
 30
0.0
 10
-3.8317
 20
-3.6338
 30
0.0
 10
-3.8317
 20
-3.6338
 30
0.0
 10
-3.8317
 20
-3.6338
 30
0.0
 10
-8.4586
 20
1.0449
 30
0.0
 10
-8.4586
 20
1.0449
 30
0.0
 10
-8.4586
 20
1.0449
 30
0.0
 10
-8.4586
 20
1.0449
 30
0.0
 10
-9.4707
 20
-0.0334
 30
0.0
 10
-9.4707
 20
-0.0334
 30
0.0
 10
-9.4707
 20
-0.0334
 30
0.0
 10
-9.4707
 20
-0.0334
 30
0.0
 10
-4.898
 20
-4.7304
 30
0.0
 10
-4.898
 20
-4.7304
 30
0.0
  0
SPLINE
  5
FB
330
1F
100
AcDbEntity
  8
Layer 1
 62
   250
100
AcDbSpline
210
0.0
220
0.0
230
1.0
 70
    11
 71
     3
 72
    20
 73
    16
 74
     0
 42
0.000000001
 43
0.0000000001
 40
0.0
 40
0.0
 40
0.0
 40
0.0
 40
0.2
 40
0.2
 40
0.2
 40
0.2
 40
0.4
 40
0.4
 40
0.4
 40
0.4
 40
0.6
 40
0.6
 40
0.6
 40
0.6
 40
1.0
 40
1.0
 40
1.0
 40
1.0
 10
-5.2053
 20
4.8281
 30
0.0
 10
-5.2053
 20
4.8281
 30
0.0
 10
-4.1208
 20
5.8882
 30
0.0
 10
-4.1208
 20
5.8882
 30
0.0
 10
-4.1208
 20
5.8882
 30
0.0
 10
-4.1208
 20
5.8882
 30
0.0
 10
-6.6512
 20
8.4103
 30
0.0
 10
-6.6512
 20
8.4103
 30
0.0
 10
-6.6512
 20
8.4103
 30
0.0
 10
-6.6512
 20
8.4103
 30
0.0
 10
-7.6995
 20
7.3868
 30
0.0
 10
-7.6995
 20
7.3868
 30
0.0
 10
-7.6995
 20
7.3868
 30
0.0
 10
-7.6995
 20
7.3868
 30
0.0
 10
-5.2053
 20
4.8281
 30
0.0
 10
-5.2053
 20
4.8281
 30
0.0
  0
SPLINE
  5
FC
330
1F
100
AcDbEntity
  8
Layer 1
 62
   250
100
AcDbSpline
210
0.0
220
0.0
230
1.0
 70
    11
 71
     3
 72
    20
 73
    16
 74
     0
 42
0.000000001
 43
0.0000000001
 40
0.0
 40
0.0
 40
0.0
 40
0.0
 40
0.2
 40
0.2
 40
0.2
 40
0.2
 40
0.4
 40
0.4
 40
0.4
 40
0.4
 40
0.6
 40
0.6
 40
0.6
 40
0.6
 40
1.0
 40
1.0
 40
1.0
 40
1.0
 10
-6.615
 20
0.2408
 30
0.0
 10
-6.615
 20
0.2408
 30
0.0
 10
-5.6029
 20
1.2825
 30
0.0
 10
-5.6029
 20
1.2825
 30
0.0
 10
-5.6029
 20
1.2825
 30
0.0
 10
-5.6029
 20
1.2825
 30
0.0
 10
-8.1332
 20
3.8412
 30
0.0
 10
-8.1332
 20
3.8412
 30
0.0
 10
-8.1332
 20
3.8412
 30
0.0
 10
-8.1332
 20
3.8412
 30
0.0
 10
-9.1273
 20
2.7629
 30
0.0
 10
-9.1273
 20
2.7629
 30
0.0
 10
-9.1273
 20
2.7629
 30
0.0
 10
-9.1273
 20
2.7629
 30
0.0
 10
-6.615
 20
0.2408
 30
0.0
 10
-6.615
 20
0.2408
 30
0.0
  0
SPLINE
  5
FD
330
1F
100
AcDbEntity
  8
Layer 1
 62
   250
100
AcDbSpline
210
0.0
220
0.0
230
1.0
 70
    11
 71
     3
 72
    20
 73
    16
 74
     0
 42
0.000000001
 43
0.0000000001
 40
0.0
 40
0.0
 40
0.0
 40
0.0
 40
0.2
 40
0.2
 40
0.2
 40
0.2
 40
0.4
 40
0.4
 40
0.4
 40
0.4
 40
0.6
 40
0.6
 40
0.6
 40
0.6
 40
1.0
 40
1.0
 40
1.0
 40
1.0
 10
7.1485
 20
1.7943
 30
0.0
 10
7.1485
 20
1.7943
 30
0.0
 10
6.0548
 20
2.8706
 30
0.0
 10
6.0548
 20
2.8706
 30
0.0
 10
6.0548
 20
2.8706
 30
0.0
 10
6.0548
 20
2.8706
 30
0.0
 10
8.5405
 20
5.413
 30
0.0
 10
8.5405
 20
5.413
 30
0.0
 10
8.5405
 20
5.413
 30
0.0
 10
8.5405
 20
5.413
 30
0.0
 10
9.6515
 20
4.2793
 30
0.0
 10
9.6515
 20
4.2793
 30
0.0
 10
9.6515
 20
4.2793
 30
0.0
 10
9.6515
 20
4.2793
 30
0.0
 10
7.1485
 20
1.7943
 30
0.0
 10
7.1485
 20
1.7943
 30
0.0
  0
SPLINE
  5
FE
330
1F
100
AcDbEntity
  8
Layer 1
 62
   250
100
AcDbSpline
210
0.0
220
0.0
230
1.0
 70
    11
 71
     3
 72
    20
 73
    16
 74
     0
 42
0.000000001
 43
0.0000000001
 40
0.0
 40
0.0
 40
0.0
 40
0.0
 40
0.2
 40
0.2
 40
0.2
 40
0.2
 40
0.4
 40
0.4
 40
0.4
 40
0.4
 40
0.6
 40
0.6
 40
0.6
 40
0.6
 40
1.0
 40
1.0
 40
1.0
 40
1.0
 10
7.1392
 20
-1.331
 30
0.0
 10
7.1392
 20
-1.331
 30
0.0
 10
6.0548
 20
-0.271
 30
0.0
 10
6.0548
 20
-0.271
 30
0.0
 10
6.0548
 20
-0.271
 30
0.0
 10
6.0548
 20
-0.271
 30
0.0
 10
8.3321
 20
2.0684
 30
0.0
 10
8.3321
 20
2.0684
 30
0.0
 10
8.3321
 20
2.0684
 30
0.0
 10
8.3321
 20
2.0684
 30
0.0
 10
9.4165
 20
0.9718
 30
0.0
 10
9.4165
 20
0.9718
 30
0.0
 10
9.4165
 20
0.9718
 30
0.0
 10
9.4165
 20
0.9718
 30
0.0
 10
7.1392
 20
-1.331
 30
0.0
 10
7.1392
 20
-1.331
 30
0.0
  0
SPLINE
  5
FF
330
1F
100
AcDbEntity
  8
Layer 1
 62
   250
100
AcDbSpline
210
0.0
220
0.0
230
1.0
 70
    11
 71
     3
 72
    20
 73
    16
 74
     0
 42
0.000000001
 43
0.0000000001
 40
0.0
 40
0.0
 40
0.0
 40
0.0
 40
0.2
 40
0.2
 40
0.2
 40
0.2
 40
0.4
 40
0.4
 40
0.4
 40
0.4
 40
0.6
 40
0.6
 40
0.6
 40
0.6
 40
1.0
 40
1.0
 40
1.0
 40
1.0
 10
10.2298
 20
-1.3493
 30
0.0
 10
10.2298
 20
-1.3493
 30
0.0
 10
10.6455
 20
-0.9838
 30
0.0
 10
10.6455
 20
-0.9838
 30
0.0
 10
10.6455
 20
-0.9838
 30
0.0
 10
10.6455
 20
-0.9838
 30
0.0
 10
10.6455
 20
1.1729
 30
0.0
 10
10.6455
 20
1.1729
 30
0.0
 10
10.6455
 20
1.1729
 30
0.0
 10
10.6455
 20
1.1729
 30
0.0
 10
9.1996
 20
-0.2892
 30
0.0
 10
9.1996
 20
-0.2892
 30
0.0
 10
9.1996
 20
-0.2892
 30
0.0
 10
9.1996
 20
-0.2892
 30
0.0
 10
10.2298
 20
-1.3493
 30
0.0
 10
10.2298
 20
-1.3493
 30
0.0
  0
SPLINE
  5
100
330
1F
100
AcDbEntity
  8
Layer 1
 62
   250
100
AcDbSpline
210
0.0
220
0.0
230
1.0
 70
    11
 71
     3
 72
    20
 73
    16
 74
     0
 42
0.000000001
 43
0.0000000001
 40
0.0
 40
0.0
 40
0.0
 40
0.0
 40
0.2
 40
0.2
 40
0.2
 40
0.2
 40
0.4
 40
0.4
 40
0.4
 40
0.4
 40
0.6
 40
0.6
 40
0.6
 40
0.6
 40
1.0
 40
1.0
 40
1.0
 40
1.0
 10
9.9226
 20
1.5018
 30
0.0
 10
9.9226
 20
1.5018
 30
0.0
 10
10.6455
 20
2.1964
 30
0.0
 10
10.6455
 20
2.1964
 30
0.0
 10
10.6455
 20
2.1964
 30
0.0
 10
10.6455
 20
2.1964
 30
0.0
 10
10.6275
 20
4.3164
 30
0.0
 10
10.6275
 20
4.3164
 30
0.0
 10
10.6275
 20
4.3164
 30
0.0
 10
10.6275
 20
4.3164
 30
0.0
 10
8.8743
 20
2.5436
 30
0.0
 10
8.8743
 20
2.5436
 30
0.0
 10
8.8743
 20
2.5436
 30
0.0
 10
8.8743
 20
2.5436
 30
0.0
 10
9.9226
 20
1.5018
 30
0.0
 10
9.9226
 20
1.5018
 30
0.0
  0
SPLINE
  5
101
330
1F
100
AcDbEntity
  8
Layer 1
 62
   250
100
AcDbSpline
210
0.0
220
0.0
230
1.0
 70
    11
 71
     3
 72
    24
 73
    20
 74
     0
 42
0.000000001
 43
0.0000000001
 40
0.0
 40
0.0
 40
0.0
 40
0.0
 40
0.1666666666666667
 40
0.1666666666666667
 40
0.1666666666666667
 40
0.1666666666666667
 40
0.3333333333333333
 40
0.3333333333333333
 40
0.3333333333333333
 40
0.3333333333333333
 40
0.5
 40
0.5
 40
0.5
 40
0.5
 40
0.6666666666666666
 40
0.6666666666666666
 40
0.6666666666666666
 40
0.6666666666666666
 40
1.0
 40
1.0
 40
1.0
 40
1.0
 10
10.1937
 20
4.8099
 30
0.0
 10
10.1937
 20
4.8099
 30
0.0
 10
10.6455
 20
5.3399
 30
0.0
 10
10.6455
 20
5.3399
 30
0.0
 10
10.6455
 20
5.3399
 30
0.0
 10
10.6455
 20
5.3399
 30
0.0
 10
10.6455
 20
6.4913
 30
0.0
 10
10.6455
 20
6.4913
 30
0.0
 10
10.6455
 20
6.4913
 30
0.0
 10
10.6455
 20
6.4913
 30
0.0
 10
8.9104
 20
8.2276
 30
0.0
 10
8.9104
 20
8.2276
 30
0.0
 10
8.9104
 20
8.2276
 30
0.0
 10
8.9104
 20
8.2276
 30
0.0
 10
7.8441
 20
7.1127
 30
0.0
 10
7.8441
 20
7.1127
 30
0.0
 10
7.8441
 20
7.1127
 30
0.0
 10
7.8441
 20
7.1127
 30
0.0
 10
10.1937
 20
4.8099
 30
0.0
 10
10.1937
 20
4.8099
 30
0.0
  0
SPLINE
  5
102
330
1F
100
AcDbEntity
  8
Layer 1
 62
   250
100
AcDbSpline
210
0.0
220
0.0
230
1.0
 70
    11
 71
     3
 72
    20
 73
    16
 74
     0
 42
0.000000001
 43
0.0000000001
 40
0.0
 40
0.0
 40
0.0
 40
0.0
 40
0.2
 40
0.2
 40
0.2
 40
0.2
 40
0.4
 40
0.4
 40
0.4
 40
0.4
 40
0.6
 40
0.6
 40
0.6
 40
0.6
 40
1.0
 40
1.0
 40
1.0
 40
1.0
 10
6.9765
 20
4.7916
 30
0.0
 10
6.9765
 20
4.7916
 30
0.0
 10
8.061
 20
5.8516
 30
0.0
 10
8.061
 20
5.8516
 30
0.0
 10
8.061
 20
5.8516
 30
0.0
 10
8.061
 20
5.8516
 30
0.0
 10
5.5306
 20
8.4103
 30
0.0
 10
5.5306
 20
8.4103
 30
0.0
 10
5.5306
 20
8.4103
 30
0.0
 10
5.5306
 20
8.4103
 30
0.0
 10
4.5004
 20
7.332
 30
0.0
 10
4.5004
 20
7.332
 30
0.0
 10
4.5004
 20
7.332
 30
0.0
 10
4.5004
 20
7.332
 30
0.0
 10
6.9765
 20
4.7916
 30
0.0
 10
6.9765
 20
4.7916
 30
0.0
  0
SPLINE
  5
103
330
1F
100
AcDbEntity
  8
Layer 1
 62
   250
100
AcDbSpline
210
0.0
220
0.0
230
1.0
 70
    11
 71
     3
 72
    20
 73
    16
 74
     0
 42
0.000000001
 43
0.0000000001
 40
0.0
 40
0.0
 40
0.0
 40
0.0
 40
0.2
 40
0.2
 40
0.2
 40
0.2
 40
0.4
 40
0.4
 40
0.4
 40
0.4
 40
0.6
 40
0.6
 40
0.6
 40
0.6
 40
1.0
 40
1.0
 40
1.0
 40
1.0
 10
4.5783
 20
4.3347
 30
0.0
 10
4.5783
 20
4.3347
 30
0.0
 10
5.5396
 20
5.3068
 30
0.0
 10
5.5396
 20
5.3068
 30
0.0
 10
5.5396
 20
5.3068
 30
0.0
 10
5.5396
 20
5.3068
 30
0.0
 10
6.501
 20
4.3347
 30
0.0
 10
6.501
 20
4.3347
 30
0.0
 10
6.501
 20
4.3347
 30
0.0
 10
6.501
 20
4.3347
 30
0.0
 10
5.5396
 20
3.3626
 30
0.0
 10
5.5396
 20
3.3626
 30
0.0
 10
5.5396
 20
3.3626
 30
0.0
 10
5.5396
 20
3.3626
 30
0.0
 10
4.5783
 20
4.3347
 30
0.0
 10
4.5783
 20
4.3347
 30
0.0
  0
SPLINE
  5
104
330
1F
100
AcDbEntity
  8
Layer 1
 62
   250
100
AcDbSpline
210
0.0
220
0.0
230
1.0
 70
    11
 71
     3
 72
    20
 73
    16
 74
     0
 42
0.000000001
 43
0.0000000001
 40
0.0
 40
0.0
 40
0.0
 40
0.0
 40
0.2
 40
0.2
 40
0.2
 40
0.2
 40
0.4
 40
0.4
 40
0.4
 40
0.4
 40
0.6
 40
0.6
 40
0.6
 40
0.6
 40
1.0
 40
1.0
 40
1.0
 40
1.0
 10
2.5577
 20
3.2564
 30
0.0
 10
2.5577
 20
3.2564
 30
0.0
 10
1.5001
 20
4.3327
 30
0.0
 10
1.5001
 20
4.3327
 30
0.0
 10
1.5001
 20
4.3327
 30
0.0
 10
1.5001
 20
4.3327
 30
0.0
 10
4.022
 20
6.8751
 30
0.0
 10
4.022
 20
6.8751
 30
0.0
 10
4.022
 20
6.8751
 30
0.0
 10
4.022
 20
6.8751
 30
0.0
 10
5.0788
 20
5.7963
 30
0.0
 10
5.0788
 20
5.7963
 30
0.0
 10
5.0788
 20
5.7963
 30
0.0
 10
5.0788
 20
5.7963
 30
0.0
 10
2.5577
 20
3.2564
 30
0.0
 10
2.5577
 20
3.2564
 30
0.0
  0
SPLINE
  5
105
330
1F
100
AcDbEntity
  8
Layer 1
 62
   250
100
AcDbSpline
210
0.0
220
0.0
230
1.0
 70
    11
 71
     3
 72
    20
 73
    16
 74
     0
 42
0.000000001
 43
0.0000000001
 40
0.0
 40
0.0
 40
0.0
 40
0.0
 40
0.2
 40
0.2
 40
0.2
 40
0.2
 40
0.4
 40
0.4
 40
0.4
 40
0.4
 40
0.6
 40
0.6
 40
0.6
 40
0.6
 40
1.0
 40
1.0
 40
1.0
 40
1.0
 10
-1.9607
 20
-1.3858
 30
0.0
 10
-1.9607
 20
-1.3858
 30
0.0
 10
-3.0545
 20
-0.3095
 30
0.0
 10
-3.0545
 20
-0.3095
 30
0.0
 10
-3.0545
 20
-0.3095
 30
0.0
 10
-3.0545
 20
-0.3095
 30
0.0
 10
-0.5326
 20
2.2877
 30
0.0
 10
-0.5326
 20
2.2877
 30
0.0
 10
-0.5326
 20
2.2877
 30
0.0
 10
-0.5326
 20
2.2877
 30
0.0
 10
0.5242
 20
1.1724
 30
0.0
 10
0.5242
 20
1.1724
 30
0.0
 10
0.5242
 20
1.1724
 30
0.0
 10
0.5242
 20
1.1724
 30
0.0
 10
-1.9607
 20
-1.3858
 30
0.0
 10
-1.9607
 20
-1.3858
 30
0.0
  0
SPLINE
  5
106
330
1F
100
AcDbEntity
  8
Layer 1
 62
   250
100
AcDbSpline
210
0.0
220
0.0
230
1.0
 70
    11
 71
     3
 72
    20
 73
    16
 74
     0
 42
0.000000001
 43
0.0000000001
 40
0.0
 40
0.0
 40
0.0
 40
0.0
 40
0.2
 40
0.2
 40
0.2
 40
0.2
 40
0.4
 40
0.4
 40
0.4
 40
0.4
 40
0.6
 40
0.6
 40
0.6
 40
0.6
 40
1.0
 40
1.0
 40
1.0
 40
1.0
 10
-5.0875
 20
1.8125
 30
0.0
 10
-5.0875
 20
1.8125
 30
0.0
 10
-6.1632
 20
2.834
 30
0.0
 10
-6.1632
 20
2.834
 30
0.0
 10
-6.1632
 20
2.834
 30
0.0
 10
-6.1632
 20
2.834
 30
0.0
 10
-3.6413
 20
5.3764
 30
0.0
 10
-3.6413
 20
5.3764
 30
0.0
 10
-3.6413
 20
5.3764
 30
0.0
 10
-3.6413
 20
5.3764
 30
0.0
 10
-2.5846
 20
4.3159
 30
0.0
 10
-2.5846
 20
4.3159
 30
0.0
 10
-2.5846
 20
4.3159
 30
0.0
 10
-2.5846
 20
4.3159
 30
0.0
 10
-5.0875
 20
1.8125
 30
0.0
 10
-5.0875
 20
1.8125
 30
0.0
  0
SPLINE
  5
107
330
1F
100
AcDbEntity
  8
Layer 1
 62
   250
100
AcDbSpline
210
0.0
220
0.0
230
1.0
 70
    11
 71
     3
 72
    20
 73
    16
 74
     0
 42
0.000000001
 43
0.0000000001
 40
0.0
 40
0.0
 40
0.0
 40
0.0
 40
0.2
 40
0.2
 40
0.2
 40
0.2
 40
0.4
 40
0.4
 40
0.4
 40
0.4
 40
0.6
 40
0.6
 40
0.6
 40
0.6
 40
1.0
 40
1.0
 40
1.0
 40
1.0
 10
0.8771
 20
10.0187
 30
0.0
 10
0.8771
 20
10.0187
 30
0.0
 10
-1.6086
 20
7.4762
 30
0.0
 10
-1.6086
 20
7.4762
 30
0.0
 10
-1.6086
 20
7.4762
 30
0.0
 10
-1.6086
 20
7.4762
 30
0.0
 10
-0.5148
 20
6.3999
 30
0.0
 10
-0.5148
 20
6.3999
 30
0.0
 10
-0.5148
 20
6.3999
 30
0.0
 10
-0.5148
 20
6.3999
 30
0.0
 10
1.9761
 20
8.9581
 30
0.0
 10
1.9761
 20
8.9581
 30
0.0
 10
1.9761
 20
8.9581
 30
0.0
 10
1.9761
 20
8.9581
 30
0.0
 10
0.8771
 20
10.0187
 30
0.0
 10
0.8771
 20
10.0187
 30
0.0
  0
SPLINE
  5
108
330
1F
100
AcDbEntity
  8
Layer 1
 62
   250
100
AcDbSpline
210
0.0
220
0.0
230
1.0
 70
    11
 71
     3
 72
    20
 73
    16
 74
     0
 42
0.000000001
 43
0.0000000001
 40
0.0
 40
0.0
 40
0.0
 40
0.0
 40
0.2
 40
0.2
 40
0.2
 40
0.2
 40
0.4
 40
0.4
 40
0.4
 40
0.4
 40
0.6
 40
0.6
 40
0.6
 40
0.6
 40
1.0
 40
1.0
 40
1.0
 40
1.0
 10
-9.624
 20
3.2564
 30
0.0
 10
-9.624
 20
3.2564
 30
0.0
 10
-10.6817
 20
4.3327
 30
0.0
 10
-10.6817
 20
4.3327
 30
0.0
 10
-10.6817
 20
4.3327
 30
0.0
 10
-10.6817
 20
4.3327
 30
0.0
 10
-8.196
 20
6.8751
 30
0.0
 10
-8.196
 20
6.8751
 30
0.0
 10
-8.196
 20
6.8751
 30
0.0
 10
-8.196
 20
6.8751
 30
0.0
 10
-7.1392
 20
5.778
 30
0.0
 10
-7.1392
 20
5.778
 30
0.0
 10
-7.1392
 20
5.778
 30
0.0
 10
-7.1392
 20
5.778
 30
0.0
 10
-9.624
 20
3.2564
 30
0.0
 10
-9.624
 20
3.2564
 30
0.0
  0
SPLINE
  5
109
330
1F
100
AcDbEntity
  8
Layer 1
 62
   250
100
AcDbSpline
210
0.0
220
0.0
230
1.0
 70
    11
 71
     3
 72
    20
 73
    16
 74
     0
 42
0.000000001
 43
0.0000000001
 40
0.0
 40
0.0
 40
0.0
 40
0.0
 40
0.2
 40
0.2
 40
0.2
 40
0.2
 40
0.4
 40
0.4
 40
0.4
 40
0.4
 40
0.6
 40
0.6
 40
0.6
 40
0.6
 40
1.0
 40
1.0
 40
1.0
 40
1.0
 10
-10.6817
 20
-2.0621
 30
0.0
 10
-10.6817
 20
-2.0621
 30
0.0
 10
-10.6817
 20
0.1677
 30
0.0
 10
-10.6817
 20
0.1677
 30
0.0
 10
-10.6817
 20
0.1677
 30
0.0
 10
-10.6817
 20
0.1677
 30
0.0
 10
-8.6755
 20
-1.861
 30
0.0
 10
-8.6755
 20
-1.861
 30
0.0
 10
-8.6755
 20
-1.861
 30
0.0
 10
-8.6755
 20
-1.861
 30
0.0
 10
-9.7599
 20
-2.9393
 30
0.0
 10
-9.7599
 20
-2.9393
 30
0.0
 10
-9.7599
 20
-2.9393
 30
0.0
 10
-9.7599
 20
-2.9393
 30
0.0
 10
-10.6817
 20
-2.0621
 30
0.0
 10
-10.6817
 20
-2.0621
 30
0.0
  0
SPLINE
  5
10A
330
1F
100
AcDbEntity
  8
Layer 1
 62
   250
100
AcDbSpline
210
0.0
220
0.0
230
1.0
 70
    11
 71
     3
 72
    20
 73
    16
 74
     0
 42
0.000000001
 43
0.0000000001
 40
0.0
 40
0.0
 40
0.0
 40
0.0
 40
0.2
 40
0.2
 40
0.2
 40
0.2
 40
0.4
 40
0.4
 40
0.4
 40
0.4
 40
0.6
 40
0.6
 40
0.6
 40
0.6
 40
1.0
 40
1.0
 40
1.0
 40
1.0
 10
-9.9587
 20
0.4053
 30
0.0
 10
-9.9587
 20
0.4053
 30
0.0
 10
-10.6817
 20
1.0998
 30
0.0
 10
-10.6817
 20
1.0998
 30
0.0
 10
-10.6817
 20
1.0998
 30
0.0
 10
-10.6817
 20
1.0998
 30
0.0
 10
-10.6817
 20
3.2929
 30
0.0
 10
-10.6817
 20
3.2929
 30
0.0
 10
-10.6817
 20
3.2929
 30
0.0
 10
-10.6817
 20
3.2929
 30
0.0
 10
-8.9285
 20
1.5201
 30
0.0
 10
-8.9285
 20
1.5201
 30
0.0
 10
-8.9285
 20
1.5201
 30
0.0
 10
-8.9285
 20
1.5201
 30
0.0
 10
-9.9587
 20
0.4053
 30
0.0
 10
-9.9587
 20
0.4053
 30
0.0
  0
SPLINE
  5
10B
330
1F
100
AcDbEntity
  8
Layer 1
 62
   250
100
AcDbSpline
210
0.0
220
0.0
230
1.0
 70
    11
 71
     3
 72
    16
 73
    12
 74
     0
 42
0.000000001
 43
0.0000000001
 40
0.0
 40
0.0
 40
0.0
 40
0.0
 40
0.25
 40
0.25
 40
0.25
 40
0.25
 40
0.5
 40
0.5
 40
0.5
 40
0.5
 40
1.0
 40
1.0
 40
1.0
 40
1.0
 10
-10.6817
 20
5.3582
 30
0.0
 10
-10.6817
 20
5.3582
 30
0.0
 10
-9.9226
 20
6.1258
 30
0.0
 10
-9.9226
 20
6.1258
 30
0.0
 10
-9.9226
 20
6.1258
 30
0.0
 10
-9.9226
 20
6.1258
 30
0.0
 10
-10.6817
 20
6.8751
 30
0.0
 10
-10.6817
 20
6.8751
 30
0.0
 10
-10.6817
 20
6.8751
 30
0.0
 10
-10.6817
 20
6.8751
 30
0.0
 10
-10.6817
 20
5.3582
 30
0.0
 10
-10.6817
 20
5.3582
 30
0.0
  0
SPLINE
  5
10C
330
1F
100
AcDbEntity
  8
Layer 1
 62
   250
100
AcDbSpline
210
0.0
220
0.0
230
1.0
 70
    11
 71
     3
 72
    20
 73
    16
 74
     0
 42
0.000000001
 43
0.0000000001
 40
0.0
 40
0.0
 40
0.0
 40
0.0
 40
0.2
 40
0.2
 40
0.2
 40
0.2
 40
0.4
 40
0.4
 40
0.4
 40
0.4
 40
0.6
 40
0.6
 40
0.6
 40
0.6
 40
1.0
 40
1.0
 40
1.0
 40
1.0
 10
-5.0968
 20
-1.3676
 30
0.0
 10
-5.0968
 20
-1.3676
 30
0.0
 10
-6.1451
 20
-0.3075
 30
0.0
 10
-6.1451
 20
-0.3075
 30
0.0
 10
-6.1451
 20
-0.3075
 30
0.0
 10
-6.1451
 20
-0.3075
 30
0.0
 10
-3.8497
 20
2.0684
 30
0.0
 10
-3.8497
 20
2.0684
 30
0.0
 10
-3.8497
 20
2.0684
 30
0.0
 10
-3.8497
 20
2.0684
 30
0.0
 10
-2.7834
 20
0.9536
 30
0.0
 10
-2.7834
 20
0.9536
 30
0.0
 10
-2.7834
 20
0.9536
 30
0.0
 10
-2.7834
 20
0.9536
 30
0.0
 10
-5.0968
 20
-1.3676
 30
0.0
 10
-5.0968
 20
-1.3676
 30
0.0
  0
SPLINE
  5
10D
330
1F
100
AcDbEntity
  8
Layer 1
 62
   250
100
AcDbSpline
210
0.0
220
0.0
230
1.0
 70
    11
 71
     3
 72
    20
 73
    16
 74
     0
 42
0.000000001
 43
0.0000000001
 40
0.0
 40
0.0
 40
0.0
 40
0.0
 40
0.2
 40
0.2
 40
0.2
 40
0.2
 40
0.4
 40
0.4
 40
0.4
 40
0.4
 40
0.6
 40
0.6
 40
0.6
 40
0.6
 40
1.0
 40
1.0
 40
1.0
 40
1.0
 10
-2.2773
 20
1.4653
 30
0.0
 10
-2.2773
 20
1.4653
 30
0.0
 10
-3.3256
 20
2.5253
 30
0.0
 10
-3.3256
 20
2.5253
 30
0.0
 10
-3.3256
 20
2.5253
 30
0.0
 10
-3.3256
 20
2.5253
 30
0.0
 10
1.2652
 20
7.1675
 30
0.0
 10
1.2652
 20
7.1675
 30
0.0
 10
1.2652
 20
7.1675
 30
0.0
 10
1.2652
 20
7.1675
 30
0.0
 10
2.2954
 20
6.1258
 30
0.0
 10
2.2954
 20
6.1258
 30
0.0
 10
2.2954
 20
6.1258
 30
0.0
 10
2.2954
 20
6.1258
 30
0.0
 10
-2.2773
 20
1.4653
 30
0.0
 10
-2.2773
 20
1.4653
 30
0.0
  0
SPLINE
  5
10E
330
1F
100
AcDbEntity
  8
Layer 1
 62
   250
100
AcDbSpline
210
0.0
220
0.0
230
1.0
 70
    11
 71
     3
 72
    20
 73
    16
 74
     0
 42
0.000000001
 43
0.0000000001
 40
0.0
 40
0.0
 40
0.0
 40
0.0
 40
0.2
 40
0.2
 40
0.2
 40
0.2
 40
0.4
 40
0.4
 40
0.4
 40
0.4
 40
0.6
 40
0.6
 40
0.6
 40
0.6
 40
1.0
 40
1.0
 40
1.0
 40
1.0
 10
-2.0604
 20
4.8281
 30
0.0
 10
-2.0604
 20
4.8281
 30
0.0
 10
-4.3558
 20
7.1675
 30
0.0
 10
-4.3558
 20
7.1675
 30
0.0
 10
-4.3558
 20
7.1675
 30
0.0
 10
-4.3558
 20
7.1675
 30
0.0
 10
-3.3437
 20
8.2276
 30
0.0
 10
-3.3437
 20
8.2276
 30
0.0
 10
-3.3437
 20
8.2276
 30
0.0
 10
-3.3437
 20
8.2276
 30
0.0
 10
-1.0302
 20
5.9247
 30
0.0
 10
-1.0302
 20
5.9247
 30
0.0
 10
-1.0302
 20
5.9247
 30
0.0
 10
-1.0302
 20
5.9247
 30
0.0
 10
-2.0604
 20
4.8281
 30
0.0
 10
-2.0604
 20
4.8281
 30
0.0
  0
SPLINE
  5
10F
330
1F
100
AcDbEntity
  8
Layer 1
 62
   250
100
AcDbSpline
210
0.0
220
0.0
230
1.0
 70
    11
 71
     3
 72
    20
 73
    16
 74
     0
 42
0.000000001
 43
0.0000000001
 40
0.0
 40
0.0
 40
0.0
 40
0.0
 40
0.2
 40
0.2
 40
0.2
 40
0.2
 40
0.4
 40
0.4
 40
0.4
 40
0.4
 40
0.6
 40
0.6
 40
0.6
 40
0.6
 40
1.0
 40
1.0
 40
1.0
 40
1.0
 10
-7.6035
 20
4.2981
 30
0.0
 10
-7.6035
 20
4.2981
 30
0.0
 10
-6.6421
 20
5.2702
 30
0.0
 10
-6.6421
 20
5.2702
 30
0.0
 10
-6.6421
 20
5.2702
 30
0.0
 10
-6.6421
 20
5.2702
 30
0.0
 10
-5.6808
 20
4.2981
 30
0.0
 10
-5.6808
 20
4.2981
 30
0.0
 10
-5.6808
 20
4.2981
 30
0.0
 10
-5.6808
 20
4.2981
 30
0.0
 10
-6.6421
 20
3.326
 30
0.0
 10
-6.6421
 20
3.326
 30
0.0
 10
-6.6421
 20
3.326
 30
0.0
 10
-6.6421
 20
3.326
 30
0.0
 10
-7.6035
 20
4.2981
 30
0.0
 10
-7.6035
 20
4.2981
 30
0.0
  0
SPLINE
  5
110
330
1F
100
AcDbEntity
  8
Layer 1
 62
   250
100
AcDbSpline
210
0.0
220
0.0
230
1.0
 70
    11
 71
     3
 72
    20
 73
    16
 74
     0
 42
0.000000001
 43
0.0000000001
 40
0.0
 40
0.0
 40
0.0
 40
0.0
 40
0.2
 40
0.2
 40
0.2
 40
0.2
 40
0.4
 40
0.4
 40
0.4
 40
0.4
 40
0.6
 40
0.6
 40
0.6
 40
0.6
 40
1.0
 40
1.0
 40
1.0
 40
1.0
 10
2.3135
 20
0.3687
 30
0.0
 10
2.3135
 20
0.3687
 30
0.0
 10
0.0
 20
2.7629
 30
0.0
 10
0.0
 20
2.7629
 30
0.0
 10
0.0
 20
2.7629
 30
0.0
 10
0.0
 20
2.7629
 30
0.0
 10
1.0302
 20
3.7681
 30
0.0
 10
1.0302
 20
3.7681
 30
0.0
 10
1.0302
 20
3.7681
 30
0.0
 10
1.0302
 20
3.7681
 30
0.0
 10
3.3437
 20
1.4653
 30
0.0
 10
3.3437
 20
1.4653
 30
0.0
 10
3.3437
 20
1.4653
 30
0.0
 10
3.3437
 20
1.4653
 30
0.0
 10
2.3135
 20
0.3687
 30
0.0
 10
2.3135
 20
0.3687
 30
0.0
  0
SPLINE
  5
111
330
1F
100
AcDbEntity
  8
Layer 1
 62
   250
100
AcDbSpline
210
0.0
220
0.0
230
1.0
 70
    11
 71
     3
 72
    20
 73
    16
 74
     0
 42
0.000000001
 43
0.0000000001
 40
0.0
 40
0.0
 40
0.0
 40
0.0
 40
0.2
 40
0.2
 40
0.2
 40
0.2
 40
0.4
 40
0.4
 40
0.4
 40
0.4
 40
0.6
 40
0.6
 40
0.6
 40
0.6
 40
1.0
 40
1.0
 40
1.0
 40
1.0
 10
2.7746
 20
6.5827
 30
0.0
 10
2.7746
 20
6.5827
 30
0.0
 10
1.717
 20
7.659
 30
0.0
 10
1.717
 20
7.659
 30
0.0
 10
1.717
 20
7.659
 30
0.0
 10
1.717
 20
7.659
 30
0.0
 10
4.022
 20
10.0187
 30
0.0
 10
4.022
 20
10.0187
 30
0.0
 10
4.022
 20
10.0187
 30
0.0
 10
4.022
 20
10.0187
 30
0.0
 10
5.0607
 20
8.9398
 30
0.0
 10
5.0607
 20
8.9398
 30
0.0
 10
5.0607
 20
8.9398
 30
0.0
 10
5.0607
 20
8.9398
 30
0.0
 10
2.7746
 20
6.5827
 30
0.0
 10
2.7746
 20
6.5827
 30
0.0
  0
SPLINE
  5
112
330
1F
100
AcDbEntity
  8
Layer 1
 62
   250
100
AcDbSpline
210
0.0
220
0.0
230
1.0
 70
    11
 71
     3
 72
    20
 73
    16
 74
     0
 42
0.000000001
 43
0.0000000001
 40
0.0
 40
0.0
 40
0.0
 40
0.0
 40
0.2
 40
0.2
 40
0.2
 40
0.2
 40
0.4
 40
0.4
 40
0.4
 40
0.4
 40
0.6
 40
0.6
 40
0.6
 40
0.6
 40
1.0
 40
1.0
 40
1.0
 40
1.0
 10
-9.4225
 20
6.6436
 30
0.0
 10
-9.4225
 20
6.6436
 30
0.0
 10
-10.4949
 20
7.6915
 30
0.0
 10
-10.4949
 20
7.6915
 30
0.0
 10
-10.4949
 20
7.6915
 30
0.0
 10
-10.4949
 20
7.6915
 30
0.0
 10
-8.2296
 20
10.0187
 30
0.0
 10
-8.2296
 20
10.0187
 30
0.0
 10
-8.2296
 20
10.0187
 30
0.0
 10
-8.2296
 20
10.0187
 30
0.0
 10
-7.1573
 20
8.9343
 30
0.0
 10
-7.1573
 20
8.9343
 30
0.0
 10
-7.1573
 20
8.9343
 30
0.0
 10
-7.1573
 20
8.9343
 30
0.0
 10
-9.4225
 20
6.6436
 30
0.0
 10
-9.4225
 20
6.6436
 30
0.0
  0
SPLINE
  5
113
330
1F
100
AcDbEntity
  8
Layer 1
 62
   250
100
AcDbSpline
210
0.0
220
0.0
230
1.0
 70
    11
 71
     3
 72
    16
 73
    12
 74
     0
 42
0.000000001
 43
0.0000000001
 40
0.0
 40
0.0
 40
0.0
 40
0.0
 40
0.25
 40
0.25
 40
0.25
 40
0.25
 40
0.5
 40
0.5
 40
0.5
 40
0.5
 40
1.0
 40
1.0
 40
1.0
 40
1.0
 10
-10.6817
 20
33.2846
 30
0.0
 10
-10.6817
 20
33.2846
 30
0.0
 10
-10.6817
 20
34.0522
 30
0.0
 10
-10.6817
 20
34.0522
 30
0.0
 10
-10.6817
 20
34.0522
 30
0.0
 10
-10.6817
 20
34.0522
 30
0.0
 10
-10.2298
 20
33.6501
 30
0.0
 10
-10.2298
 20
33.6501
 30
0.0
 10
-10.2298
 20
33.6501
 30
0.0
 10
-10.2298
 20
33.6501
 30
0.0
 10
-10.6817
 20
33.2846
 30
0.0
 10
-10.6817
 20
33.2846
 30
0.0
  0
SPLINE
  5
114
330
1F
100
AcDbEntity
  8
Layer 1
 62
   250
100
AcDbSpline
210
0.0
220
0.0
230
1.0
 70
    11
 71
     3
 72
    24
 73
    20
 74
     0
 42
0.000000001
 43
0.0000000001
 40
0.0
 40
0.0
 40
0.0
 40
0.0
 40
0.1666666666666667
 40
0.1666666666666667
 40
0.1666666666666667
 40
0.1666666666666667
 40
0.3333333333333333
 40
0.3333333333333333
 40
0.3333333333333333
 40
0.3333333333333333
 40
0.5
 40
0.5
 40
0.5
 40
0.5
 40
0.6666666666666666
 40
0.6666666666666666
 40
0.6666666666666666
 40
0.6666666666666666
 40
1.0
 40
1.0
 40
1.0
 40
1.0
 10
10.1575
 20
32.6632
 30
0.0
 10
10.1575
 20
32.6632
 30
0.0
 10
10.6455
 20
33.1384
 30
0.0
 10
10.6455
 20
33.1384
 30
0.0
 10
10.6455
 20
33.1384
 30
0.0
 10
10.6455
 20
33.1384
 30
0.0
 10
10.6455
 20
34.3629
 30
0.0
 10
10.6455
 20
34.3629
 30
0.0
 10
10.6455
 20
34.3629
 30
0.0
 10
10.6455
 20
34.3629
 30
0.0
 10
8.7116
 20
36.3368
 30
0.0
 10
8.7116
 20
36.3368
 30
0.0
 10
8.7116
 20
36.3368
 30
0.0
 10
8.7116
 20
36.3368
 30
0.0
 10
7.6272
 20
35.2402
 30
0.0
 10
7.6272
 20
35.2402
 30
0.0
 10
7.6272
 20
35.2402
 30
0.0
 10
7.6272
 20
35.2402
 30
0.0
 10
10.1575
 20
32.6632
 30
0.0
 10
10.1575
 20
32.6632
 30
0.0
  0
SPLINE
  5
115
330
1F
100
AcDbEntity
  8
Layer 1
 62
   250
100
AcDbSpline
210
0.0
220
0.0
230
1.0
 70
    11
 71
     3
 72
    20
 73
    16
 74
     0
 42
0.000000001
 43
0.0000000001
 40
0.0
 40
0.0
 40
0.0
 40
0.0
 40
0.2
 40
0.2
 40
0.2
 40
0.2
 40
0.4
 40
0.4
 40
0.4
 40
0.4
 40
0.6
 40
0.6
 40
0.6
 40
0.6
 40
1.0
 40
1.0
 40
1.0
 40
1.0
 10
7.338
 20
32.3342
 30
0.0
 10
7.338
 20
32.3342
 30
0.0
 10
8.4044
 20
33.4308
 30
0.0
 10
8.4044
 20
33.4308
 30
0.0
 10
8.4044
 20
33.4308
 30
0.0
 10
8.4044
 20
33.4308
 30
0.0
 10
3.7774
 20
38.1096
 30
0.0
 10
3.7774
 20
38.1096
 30
0.0
 10
3.7774
 20
38.1096
 30
0.0
 10
3.7774
 20
38.1096
 30
0.0
 10
2.7653
 20
37.0313
 30
0.0
 10
2.7653
 20
37.0313
 30
0.0
 10
2.7653
 20
37.0313
 30
0.0
 10
2.7653
 20
37.0313
 30
0.0
 10
7.338
 20
32.3342
 30
0.0
 10
7.338
 20
32.3342
 30
0.0
  0
SPLINE
  5
116
330
1F
100
AcDbEntity
  8
Layer 1
 62
   250
100
AcDbSpline
210
0.0
220
0.0
230
1.0
 70
    11
 71
     3
 72
    20
 73
    16
 74
     0
 42
0.000000001
 43
0.0000000001
 40
0.0
 40
0.0
 40
0.0
 40
0.0
 40
0.2
 40
0.2
 40
0.2
 40
0.2
 40
0.4
 40
0.4
 40
0.4
 40
0.4
 40
0.6
 40
0.6
 40
0.6
 40
0.6
 40
1.0
 40
1.0
 40
1.0
 40
1.0
 10
2.4581
 20
34.1436
 30
0.0
 10
2.4581
 20
34.1436
 30
0.0
 10
3.5425
 20
35.2036
 30
0.0
 10
3.5425
 20
35.2036
 30
0.0
 10
3.5425
 20
35.2036
 30
0.0
 10
3.5425
 20
35.2036
 30
0.0
 10
0.976
 20
37.7989
 30
0.0
 10
0.976
 20
37.7989
 30
0.0
 10
0.976
 20
37.7989
 30
0.0
 10
0.976
 20
37.7989
 30
0.0
 10
-0.0181
 20
36.7206
 30
0.0
 10
-0.0181
 20
36.7206
 30
0.0
 10
-0.0181
 20
36.7206
 30
0.0
 10
-0.0181
 20
36.7206
 30
0.0
 10
2.4581
 20
34.1436
 30
0.0
 10
2.4581
 20
34.1436
 30
0.0
  0
SPLINE
  5
117
330
1F
100
AcDbEntity
  8
Layer 1
 62
   250
100
AcDbSpline
210
0.0
220
0.0
230
1.0
 70
    11
 71
     3
 72
    20
 73
    16
 74
     0
 42
0.000000001
 43
0.0000000001
 40
0.0
 40
0.0
 40
0.0
 40
0.0
 40
0.2
 40
0.2
 40
0.2
 40
0.2
 40
0.4
 40
0.4
 40
0.4
 40
0.4
 40
0.6
 40
0.6
 40
0.6
 40
0.6
 40
1.0
 40
1.0
 40
1.0
 40
1.0
 10
5.5668
 20
37.3237
 30
0.0
 10
5.5668
 20
37.3237
 30
0.0
 10
6.6512
 20
38.3837
 30
0.0
 10
6.6512
 20
38.3837
 30
0.0
 10
6.6512
 20
38.3837
 30
0.0
 10
6.6512
 20
38.3837
 30
0.0
 10
4.1208
 20
40.9424
 30
0.0
 10
4.1208
 20
40.9424
 30
0.0
 10
4.1208
 20
40.9424
 30
0.0
 10
4.1208
 20
40.9424
 30
0.0
 10
3.0906
 20
39.8641
 30
0.0
 10
3.0906
 20
39.8641
 30
0.0
 10
3.0906
 20
39.8641
 30
0.0
 10
3.0906
 20
39.8641
 30
0.0
 10
5.5668
 20
37.3237
 30
0.0
 10
5.5668
 20
37.3237
 30
0.0
  0
SPLINE
  5
118
330
1F
100
AcDbEntity
  8
Layer 1
 62
   250
100
AcDbSpline
210
0.0
220
0.0
230
1.0
 70
    11
 71
     3
 72
    20
 73
    16
 74
     0
 42
0.000000001
 43
0.0000000001
 40
0.0
 40
0.0
 40
0.0
 40
0.0
 40
0.2
 40
0.2
 40
0.2
 40
0.2
 40
0.4
 40
0.4
 40
0.4
 40
0.4
 40
0.6
 40
0.6
 40
0.6
 40
0.6
 40
1.0
 40
1.0
 40
1.0
 40
1.0
 10
-2.0966
 20
32.6815
 30
0.0
 10
-2.0966
 20
32.6815
 30
0.0
 10
-1.0121
 20
33.7415
 30
0.0
 10
-1.0121
 20
33.7415
 30
0.0
 10
-1.0121
 20
33.7415
 30
0.0
 10
-1.0121
 20
33.7415
 30
0.0
 10
-3.5786
 20
36.3368
 30
0.0
 10
-3.5786
 20
36.3368
 30
0.0
 10
-3.5786
 20
36.3368
 30
0.0
 10
-3.5786
 20
36.3368
 30
0.0
 10
-4.5727
 20
35.2584
 30
0.0
 10
-4.5727
 20
35.2584
 30
0.0
 10
-4.5727
 20
35.2584
 30
0.0
 10
-4.5727
 20
35.2584
 30
0.0
 10
-2.0966
 20
32.6815
 30
0.0
 10
-2.0966
 20
32.6815
 30
0.0
  0
SPLINE
  5
119
330
1F
100
AcDbEntity
  8
Layer 1
 62
   250
100
AcDbSpline
210
0.0
220
0.0
230
1.0
 70
    11
 71
     3
 72
    20
 73
    16
 74
     0
 42
0.000000001
 43
0.0000000001
 40
0.0
 40
0.0
 40
0.0
 40
0.0
 40
0.2
 40
0.2
 40
0.2
 40
0.2
 40
0.4
 40
0.4
 40
0.4
 40
0.4
 40
0.6
 40
0.6
 40
0.6
 40
0.6
 40
1.0
 40
1.0
 40
1.0
 40
1.0
 10
-1.4945
 20
35.2584
 30
0.0
 10
-1.4945
 20
35.2584
 30
0.0
 10
-0.5332
 20
36.2306
 30
0.0
 10
-0.5332
 20
36.2306
 30
0.0
 10
-0.5332
 20
36.2306
 30
0.0
 10
-0.5332
 20
36.2306
 30
0.0
 10
0.4282
 20
35.2584
 30
0.0
 10
0.4282
 20
35.2584
 30
0.0
 10
0.4282
 20
35.2584
 30
0.0
 10
0.4282
 20
35.2584
 30
0.0
 10
-0.5332
 20
34.2863
 30
0.0
 10
-0.5332
 20
34.2863
 30
0.0
 10
-0.5332
 20
34.2863
 30
0.0
 10
-0.5332
 20
34.2863
 30
0.0
 10
-1.4945
 20
35.2584
 30
0.0
 10
-1.4945
 20
35.2584
 30
0.0
  0
SPLINE
  5
11A
330
1F
100
AcDbEntity
  8
Layer 1
 62
   250
100
AcDbSpline
210
0.0
220
0.0
230
1.0
 70
    11
 71
     3
 72
    20
 73
    16
 74
     0
 42
0.000000001
 43
0.0000000001
 40
0.0
 40
0.0
 40
0.0
 40
0.0
 40
0.2
 40
0.2
 40
0.2
 40
0.2
 40
0.4
 40
0.4
 40
0.4
 40
0.4
 40
0.6
 40
0.6
 40
0.6
 40
0.6
 40
1.0
 40
1.0
 40
1.0
 40
1.0
 10
-4.898
 20
32.3708
 30
0.0
 10
-4.898
 20
32.3708
 30
0.0
 10
-3.8317
 20
33.4674
 30
0.0
 10
-3.8317
 20
33.4674
 30
0.0
 10
-3.8317
 20
33.4674
 30
0.0
 10
-3.8317
 20
33.4674
 30
0.0
 10
-8.4586
 20
38.1461
 30
0.0
 10
-8.4586
 20
38.1461
 30
0.0
 10
-8.4586
 20
38.1461
 30
0.0
 10
-8.4586
 20
38.1461
 30
0.0
 10
-9.4707
 20
37.0678
 30
0.0
 10
-9.4707
 20
37.0678
 30
0.0
 10
-9.4707
 20
37.0678
 30
0.0
 10
-9.4707
 20
37.0678
 30
0.0
 10
-4.898
 20
32.3708
 30
0.0
 10
-4.898
 20
32.3708
 30
0.0
  0
SPLINE
  5
11B
330
1F
100
AcDbEntity
  8
Layer 1
 62
   250
100
AcDbSpline
210
0.0
220
0.0
230
1.0
 70
    11
 71
     3
 72
    20
 73
    16
 74
     0
 42
0.000000001
 43
0.0000000001
 40
0.0
 40
0.0
 40
0.0
 40
0.0
 40
0.2
 40
0.2
 40
0.2
 40
0.2
 40
0.4
 40
0.4
 40
0.4
 40
0.4
 40
0.6
 40
0.6
 40
0.6
 40
0.6
 40
1.0
 40
1.0
 40
1.0
 40
1.0
 10
-6.615
 20
37.342
 30
0.0
 10
-6.615
 20
37.342
 30
0.0
 10
-5.6029
 20
38.3837
 30
0.0
 10
-5.6029
 20
38.3837
 30
0.0
 10
-5.6029
 20
38.3837
 30
0.0
 10
-5.6029
 20
38.3837
 30
0.0
 10
-8.1332
 20
40.9424
 30
0.0
 10
-8.1332
 20
40.9424
 30
0.0
 10
-8.1332
 20
40.9424
 30
0.0
 10
-8.1332
 20
40.9424
 30
0.0
 10
-9.1273
 20
39.8641
 30
0.0
 10
-9.1273
 20
39.8641
 30
0.0
 10
-9.1273
 20
39.8641
 30
0.0
 10
-9.1273
 20
39.8641
 30
0.0
 10
-6.615
 20
37.342
 30
0.0
 10
-6.615
 20
37.342
 30
0.0
  0
SPLINE
  5
11C
330
1F
100
AcDbEntity
  8
Layer 1
 62
   250
100
AcDbSpline
210
0.0
220
0.0
230
1.0
 70
    11
 71
     3
 72
    20
 73
    16
 74
     0
 42
0.000000001
 43
0.0000000001
 40
0.0
 40
0.0
 40
0.0
 40
0.0
 40
0.2
 40
0.2
 40
0.2
 40
0.2
 40
0.4
 40
0.4
 40
0.4
 40
0.4
 40
0.6
 40
0.6
 40
0.6
 40
0.6
 40
1.0
 40
1.0
 40
1.0
 40
1.0
 10
7.1392
 20
35.7702
 30
0.0
 10
7.1392
 20
35.7702
 30
0.0
 10
6.0548
 20
36.8302
 30
0.0
 10
6.0548
 20
36.8302
 30
0.0
 10
6.0548
 20
36.8302
 30
0.0
 10
6.0548
 20
36.8302
 30
0.0
 10
8.3321
 20
39.1696
 30
0.0
 10
8.3321
 20
39.1696
 30
0.0
 10
8.3321
 20
39.1696
 30
0.0
 10
8.3321
 20
39.1696
 30
0.0
 10
9.4165
 20
38.073
 30
0.0
 10
9.4165
 20
38.073
 30
0.0
 10
9.4165
 20
38.073
 30
0.0
 10
9.4165
 20
38.073
 30
0.0
 10
7.1392
 20
35.7702
 30
0.0
 10
7.1392
 20
35.7702
 30
0.0
  0
SPLINE
  5
11D
330
1F
100
AcDbEntity
  8
Layer 1
 62
   250
100
AcDbSpline
210
0.0
220
0.0
230
1.0
 70
    11
 71
     3
 72
    20
 73
    16
 74
     0
 42
0.000000001
 43
0.0000000001
 40
0.0
 40
0.0
 40
0.0
 40
0.0
 40
0.2
 40
0.2
 40
0.2
 40
0.2
 40
0.4
 40
0.4
 40
0.4
 40
0.4
 40
0.6
 40
0.6
 40
0.6
 40
0.6
 40
1.0
 40
1.0
 40
1.0
 40
1.0
 10
10.2298
 20
35.7519
 30
0.0
 10
10.2298
 20
35.7519
 30
0.0
 10
10.6455
 20
36.1174
 30
0.0
 10
10.6455
 20
36.1174
 30
0.0
 10
10.6455
 20
36.1174
 30
0.0
 10
10.6455
 20
36.1174
 30
0.0
 10
10.6455
 20
38.2741
 30
0.0
 10
10.6455
 20
38.2741
 30
0.0
 10
10.6455
 20
38.2741
 30
0.0
 10
10.6455
 20
38.2741
 30
0.0
 10
9.1996
 20
36.8119
 30
0.0
 10
9.1996
 20
36.8119
 30
0.0
 10
9.1996
 20
36.8119
 30
0.0
 10
9.1996
 20
36.8119
 30
0.0
 10
10.2298
 20
35.7519
 30
0.0
 10
10.2298
 20
35.7519
 30
0.0
  0
SPLINE
  5
11E
330
1F
100
AcDbEntity
  8
Layer 1
 62
   250
100
AcDbSpline
210
0.0
220
0.0
230
1.0
 70
    11
 71
     3
 72
    20
 73
    16
 74
     0
 42
0.000000001
 43
0.0000000001
 40
0.0
 40
0.0
 40
0.0
 40
0.0
 40
0.2
 40
0.2
 40
0.2
 40
0.2
 40
0.4
 40
0.4
 40
0.4
 40
0.4
 40
0.6
 40
0.6
 40
0.6
 40
0.6
 40
1.0
 40
1.0
 40
1.0
 40
1.0
 10
9.9226
 20
38.603
 30
0.0
 10
9.9226
 20
38.603
 30
0.0
 10
10.6455
 20
39.2975
 30
0.0
 10
10.6455
 20
39.2975
 30
0.0
 10
10.6455
 20
39.2975
 30
0.0
 10
10.6455
 20
39.2975
 30
0.0
 10
10.6275
 20
41.4176
 30
0.0
 10
10.6275
 20
41.4176
 30
0.0
 10
10.6275
 20
41.4176
 30
0.0
 10
10.6275
 20
41.4176
 30
0.0
 10
8.8743
 20
39.6448
 30
0.0
 10
8.8743
 20
39.6448
 30
0.0
 10
8.8743
 20
39.6448
 30
0.0
 10
8.8743
 20
39.6448
 30
0.0
 10
9.9226
 20
38.603
 30
0.0
 10
9.9226
 20
38.603
 30
0.0
  0
SPLINE
  5
11F
330
1F
100
AcDbEntity
  8
Layer 1
 62
   250
100
AcDbSpline
210
0.0
220
0.0
230
1.0
 70
    11
 71
     3
 72
    20
 73
    16
 74
     0
 42
0.000000001
 43
0.0000000001
 40
0.0
 40
0.0
 40
0.0
 40
0.0
 40
0.2
 40
0.2
 40
0.2
 40
0.2
 40
0.4
 40
0.4
 40
0.4
 40
0.4
 40
0.6
 40
0.6
 40
0.6
 40
0.6
 40
1.0
 40
1.0
 40
1.0
 40
1.0
 10
-1.9607
 20
35.7154
 30
0.0
 10
-1.9607
 20
35.7154
 30
0.0
 10
-3.0545
 20
36.7917
 30
0.0
 10
-3.0545
 20
36.7917
 30
0.0
 10
-3.0545
 20
36.7917
 30
0.0
 10
-3.0545
 20
36.7917
 30
0.0
 10
-0.5326
 20
39.3889
 30
0.0
 10
-0.5326
 20
39.3889
 30
0.0
 10
-0.5326
 20
39.3889
 30
0.0
 10
-0.5326
 20
39.3889
 30
0.0
 10
0.5242
 20
38.2735
 30
0.0
 10
0.5242
 20
38.2735
 30
0.0
 10
0.5242
 20
38.2735
 30
0.0
 10
0.5242
 20
38.2735
 30
0.0
 10
-1.9607
 20
35.7154
 30
0.0
 10
-1.9607
 20
35.7154
 30
0.0
  0
SPLINE
  5
120
330
1F
100
AcDbEntity
  8
Layer 1
 62
   250
100
AcDbSpline
210
0.0
220
0.0
230
1.0
 70
    11
 71
     3
 72
    20
 73
    16
 74
     0
 42
0.000000001
 43
0.0000000001
 40
0.0
 40
0.0
 40
0.0
 40
0.0
 40
0.2
 40
0.2
 40
0.2
 40
0.2
 40
0.4
 40
0.4
 40
0.4
 40
0.4
 40
0.6
 40
0.6
 40
0.6
 40
0.6
 40
1.0
 40
1.0
 40
1.0
 40
1.0
 10
-10.6817
 20
35.0391
 30
0.0
 10
-10.6817
 20
35.0391
 30
0.0
 10
-10.6817
 20
37.2689
 30
0.0
 10
-10.6817
 20
37.2689
 30
0.0
 10
-10.6817
 20
37.2689
 30
0.0
 10
-10.6817
 20
37.2689
 30
0.0
 10
-8.6755
 20
35.2402
 30
0.0
 10
-8.6755
 20
35.2402
 30
0.0
 10
-8.6755
 20
35.2402
 30
0.0
 10
-8.6755
 20
35.2402
 30
0.0
 10
-9.7599
 20
34.1619
 30
0.0
 10
-9.7599
 20
34.1619
 30
0.0
 10
-9.7599
 20
34.1619
 30
0.0
 10
-9.7599
 20
34.1619
 30
0.0
 10
-10.6817
 20
35.0391
 30
0.0
 10
-10.6817
 20
35.0391
 30
0.0
  0
SPLINE
  5
121
330
1F
100
AcDbEntity
  8
Layer 1
 62
   250
100
AcDbSpline
210
0.0
220
0.0
230
1.0
 70
    11
 71
     3
 72
    20
 73
    16
 74
     0
 42
0.000000001
 43
0.0000000001
 40
0.0
 40
0.0
 40
0.0
 40
0.0
 40
0.2
 40
0.2
 40
0.2
 40
0.2
 40
0.4
 40
0.4
 40
0.4
 40
0.4
 40
0.6
 40
0.6
 40
0.6
 40
0.6
 40
1.0
 40
1.0
 40
1.0
 40
1.0
 10
-9.9587
 20
37.5064
 30
0.0
 10
-9.9587
 20
37.5064
 30
0.0
 10
-10.6817
 20
38.201
 30
0.0
 10
-10.6817
 20
38.201
 30
0.0
 10
-10.6817
 20
38.201
 30
0.0
 10
-10.6817
 20
38.201
 30
0.0
 10
-10.6817
 20
40.3941
 30
0.0
 10
-10.6817
 20
40.3941
 30
0.0
 10
-10.6817
 20
40.3941
 30
0.0
 10
-10.6817
 20
40.3941
 30
0.0
 10
-8.9285
 20
38.6213
 30
0.0
 10
-8.9285
 20
38.6213
 30
0.0
 10
-8.9285
 20
38.6213
 30
0.0
 10
-8.9285
 20
38.6213
 30
0.0
 10
-9.9587
 20
37.5064
 30
0.0
 10
-9.9587
 20
37.5064
 30
0.0
  0
SPLINE
  5
122
330
1F
100
AcDbEntity
  8
Layer 1
 62
   250
100
AcDbSpline
210
0.0
220
0.0
230
1.0
 70
    11
 71
     3
 72
    20
 73
    16
 74
     0
 42
0.000000001
 43
0.0000000001
 40
0.0
 40
0.0
 40
0.0
 40
0.0
 40
0.2
 40
0.2
 40
0.2
 40
0.2
 40
0.4
 40
0.4
 40
0.4
 40
0.4
 40
0.6
 40
0.6
 40
0.6
 40
0.6
 40
1.0
 40
1.0
 40
1.0
 40
1.0
 10
-5.0968
 20
35.7336
 30
0.0
 10
-5.0968
 20
35.7336
 30
0.0
 10
-6.1451
 20
36.7937
 30
0.0
 10
-6.1451
 20
36.7937
 30
0.0
 10
-6.1451
 20
36.7937
 30
0.0
 10
-6.1451
 20
36.7937
 30
0.0
 10
-3.8497
 20
39.1696
 30
0.0
 10
-3.8497
 20
39.1696
 30
0.0
 10
-3.8497
 20
39.1696
 30
0.0
 10
-3.8497
 20
39.1696
 30
0.0
 10
-2.7834
 20
38.0547
 30
0.0
 10
-2.7834
 20
38.0547
 30
0.0
 10
-2.7834
 20
38.0547
 30
0.0
 10
-2.7834
 20
38.0547
 30
0.0
 10
-5.0968
 20
35.7336
 30
0.0
 10
-5.0968
 20
35.7336
 30
0.0
  0
SPLINE
  5
123
330
1F
100
AcDbEntity
  8
Layer 1
 62
   250
100
AcDbSpline
210
0.0
220
0.0
230
1.0
 70
    11
 71
     3
 72
    20
 73
    16
 74
     0
 42
0.000000001
 43
0.0000000001
 40
0.0
 40
0.0
 40
0.0
 40
0.0
 40
0.2
 40
0.2
 40
0.2
 40
0.2
 40
0.4
 40
0.4
 40
0.4
 40
0.4
 40
0.6
 40
0.6
 40
0.6
 40
0.6
 40
1.0
 40
1.0
 40
1.0
 40
1.0
 10
2.3135
 20
37.4699
 30
0.0
 10
2.3135
 20
37.4699
 30
0.0
 10
0.0
 20
39.8641
 30
0.0
 10
0.0
 20
39.8641
 30
0.0
 10
0.0
 20
39.8641
 30
0.0
 10
0.0
 20
39.8641
 30
0.0
 10
1.0302
 20
40.8693
 30
0.0
 10
1.0302
 20
40.8693
 30
0.0
 10
1.0302
 20
40.8693
 30
0.0
 10
1.0302
 20
40.8693
 30
0.0
 10
3.3437
 20
38.5665
 30
0.0
 10
3.3437
 20
38.5665
 30
0.0
 10
3.3437
 20
38.5665
 30
0.0
 10
3.3437
 20
38.5665
 30
0.0
 10
2.3135
 20
37.4699
 30
0.0
 10
2.3135
 20
37.4699
 30
0.0
  0
SPLINE
  5
124
330
1F
100
AcDbEntity
  8
Layer 1
 62
   250
100
AcDbSpline
210
0.0
220
0.0
230
1.0
 70
    11
 71
     3
 72
    24
 73
    20
 74
     0
 42
0.000000001
 43
0.0000000001
 40
0.0
 40
0.0
 40
0.0
 40
0.0
 40
0.1666666666666667
 40
0.1666666666666667
 40
0.1666666666666667
 40
0.1666666666666667
 40
0.3333333333333333
 40
0.3333333333333333
 40
0.3333333333333333
 40
0.3333333333333333
 40
0.5
 40
0.5
 40
0.5
 40
0.5
 40
0.6666666666666666
 40
0.6666666666666666
 40
0.6666666666666666
 40
0.6666666666666666
 40
1.0
 40
1.0
 40
1.0
 40
1.0
 10
10.1575
 20
20.2718
 30
0.0
 10
10.1575
 20
20.2718
 30
0.0
 10
10.6455
 20
20.7469
 30
0.0
 10
10.6455
 20
20.7469
 30
0.0
 10
10.6455
 20
20.7469
 30
0.0
 10
10.6455
 20
20.7469
 30
0.0
 10
10.6455
 20
21.9715
 30
0.0
 10
10.6455
 20
21.9715
 30
0.0
 10
10.6455
 20
21.9715
 30
0.0
 10
10.6455
 20
21.9715
 30
0.0
 10
8.7116
 20
23.9453
 30
0.0
 10
8.7116
 20
23.9453
 30
0.0
 10
8.7116
 20
23.9453
 30
0.0
 10
8.7116
 20
23.9453
 30
0.0
 10
7.6272
 20
22.8487
 30
0.0
 10
7.6272
 20
22.8487
 30
0.0
 10
7.6272
 20
22.8487
 30
0.0
 10
7.6272
 20
22.8487
 30
0.0
 10
10.1575
 20
20.2718
 30
0.0
 10
10.1575
 20
20.2718
 30
0.0
  0
SPLINE
  5
125
330
1F
100
AcDbEntity
  8
Layer 1
 62
   250
100
AcDbSpline
210
0.0
220
0.0
230
1.0
 70
    11
 71
     3
 72
    20
 73
    16
 74
     0
 42
0.000000001
 43
0.0000000001
 40
0.0
 40
0.0
 40
0.0
 40
0.0
 40
0.2
 40
0.2
 40
0.2
 40
0.2
 40
0.4
 40
0.4
 40
0.4
 40
0.4
 40
0.6
 40
0.6
 40
0.6
 40
0.6
 40
1.0
 40
1.0
 40
1.0
 40
1.0
 10
7.338
 20
19.9428
 30
0.0
 10
7.338
 20
19.9428
 30
0.0
 10
8.4044
 20
21.0394
 30
0.0
 10
8.4044
 20
21.0394
 30
0.0
 10
8.4044
 20
21.0394
 30
0.0
 10
8.4044
 20
21.0394
 30
0.0
 10
3.7774
 20
25.7181
 30
0.0
 10
3.7774
 20
25.7181
 30
0.0
 10
3.7774
 20
25.7181
 30
0.0
 10
3.7774
 20
25.7181
 30
0.0
 10
2.7653
 20
24.6398
 30
0.0
 10
2.7653
 20
24.6398
 30
0.0
 10
2.7653
 20
24.6398
 30
0.0
 10
2.7653
 20
24.6398
 30
0.0
 10
7.338
 20
19.9428
 30
0.0
 10
7.338
 20
19.9428
 30
0.0
  0
SPLINE
  5
126
330
1F
100
AcDbEntity
  8
Layer 1
 62
   250
100
AcDbSpline
210
0.0
220
0.0
230
1.0
 70
    11
 71
     3
 72
    20
 73
    16
 74
     0
 42
0.000000001
 43
0.0000000001
 40
0.0
 40
0.0
 40
0.0
 40
0.0
 40
0.2
 40
0.2
 40
0.2
 40
0.2
 40
0.4
 40
0.4
 40
0.4
 40
0.4
 40
0.6
 40
0.6
 40
0.6
 40
0.6
 40
1.0
 40
1.0
 40
1.0
 40
1.0
 10
2.4581
 20
21.7521
 30
0.0
 10
2.4581
 20
21.7521
 30
0.0
 10
3.5425
 20
22.8122
 30
0.0
 10
3.5425
 20
22.8122
 30
0.0
 10
3.5425
 20
22.8122
 30
0.0
 10
3.5425
 20
22.8122
 30
0.0
 10
0.976
 20
25.4074
 30
0.0
 10
0.976
 20
25.4074
 30
0.0
 10
0.976
 20
25.4074
 30
0.0
 10
0.976
 20
25.4074
 30
0.0
 10
-0.0181
 20
24.3291
 30
0.0
 10
-0.0181
 20
24.3291
 30
0.0
 10
-0.0181
 20
24.3291
 30
0.0
 10
-0.0181
 20
24.3291
 30
0.0
 10
2.4581
 20
21.7521
 30
0.0
 10
2.4581
 20
21.7521
 30
0.0
  0
SPLINE
  5
127
330
1F
100
AcDbEntity
  8
Layer 1
 62
   250
100
AcDbSpline
210
0.0
220
0.0
230
1.0
 70
    11
 71
     3
 72
    20
 73
    16
 74
     0
 42
0.000000001
 43
0.0000000001
 40
0.0
 40
0.0
 40
0.0
 40
0.0
 40
0.2
 40
0.2
 40
0.2
 40
0.2
 40
0.4
 40
0.4
 40
0.4
 40
0.4
 40
0.6
 40
0.6
 40
0.6
 40
0.6
 40
1.0
 40
1.0
 40
1.0
 40
1.0
 10
5.5668
 20
24.9322
 30
0.0
 10
5.5668
 20
24.9322
 30
0.0
 10
6.6512
 20
25.9923
 30
0.0
 10
6.6512
 20
25.9923
 30
0.0
 10
6.6512
 20
25.9923
 30
0.0
 10
6.6512
 20
25.9923
 30
0.0
 10
4.1208
 20
28.551
 30
0.0
 10
4.1208
 20
28.551
 30
0.0
 10
4.1208
 20
28.551
 30
0.0
 10
4.1208
 20
28.551
 30
0.0
 10
3.0906
 20
27.4727
 30
0.0
 10
3.0906
 20
27.4727
 30
0.0
 10
3.0906
 20
27.4727
 30
0.0
 10
3.0906
 20
27.4727
 30
0.0
 10
5.5668
 20
24.9322
 30
0.0
 10
5.5668
 20
24.9322
 30
0.0
  0
SPLINE
  5
128
330
1F
100
AcDbEntity
  8
Layer 1
 62
   250
100
AcDbSpline
210
0.0
220
0.0
230
1.0
 70
    11
 71
     3
 72
    20
 73
    16
 74
     0
 42
0.000000001
 43
0.0000000001
 40
0.0
 40
0.0
 40
0.0
 40
0.0
 40
0.2
 40
0.2
 40
0.2
 40
0.2
 40
0.4
 40
0.4
 40
0.4
 40
0.4
 40
0.6
 40
0.6
 40
0.6
 40
0.6
 40
1.0
 40
1.0
 40
1.0
 40
1.0
 10
-2.0966
 20
20.29
 30
0.0
 10
-2.0966
 20
20.29
 30
0.0
 10
-1.0121
 20
21.3501
 30
0.0
 10
-1.0121
 20
21.3501
 30
0.0
 10
-1.0121
 20
21.3501
 30
0.0
 10
-1.0121
 20
21.3501
 30
0.0
 10
-3.5786
 20
23.9453
 30
0.0
 10
-3.5786
 20
23.9453
 30
0.0
 10
-3.5786
 20
23.9453
 30
0.0
 10
-3.5786
 20
23.9453
 30
0.0
 10
-4.5727
 20
22.867
 30
0.0
 10
-4.5727
 20
22.867
 30
0.0
 10
-4.5727
 20
22.867
 30
0.0
 10
-4.5727
 20
22.867
 30
0.0
 10
-2.0966
 20
20.29
 30
0.0
 10
-2.0966
 20
20.29
 30
0.0
  0
SPLINE
  5
129
330
1F
100
AcDbEntity
  8
Layer 1
 62
   250
100
AcDbSpline
210
0.0
220
0.0
230
1.0
 70
    11
 71
     3
 72
    20
 73
    16
 74
     0
 42
0.000000001
 43
0.0000000001
 40
0.0
 40
0.0
 40
0.0
 40
0.0
 40
0.2
 40
0.2
 40
0.2
 40
0.2
 40
0.4
 40
0.4
 40
0.4
 40
0.4
 40
0.6
 40
0.6
 40
0.6
 40
0.6
 40
1.0
 40
1.0
 40
1.0
 40
1.0
 10
-1.4945
 20
22.867
 30
0.0
 10
-1.4945
 20
22.867
 30
0.0
 10
-0.5332
 20
23.8391
 30
0.0
 10
-0.5332
 20
23.8391
 30
0.0
 10
-0.5332
 20
23.8391
 30
0.0
 10
-0.5332
 20
23.8391
 30
0.0
 10
0.4282
 20
22.867
 30
0.0
 10
0.4282
 20
22.867
 30
0.0
 10
0.4282
 20
22.867
 30
0.0
 10
0.4282
 20
22.867
 30
0.0
 10
-0.5332
 20
21.8949
 30
0.0
 10
-0.5332
 20
21.8949
 30
0.0
 10
-0.5332
 20
21.8949
 30
0.0
 10
-0.5332
 20
21.8949
 30
0.0
 10
-1.4945
 20
22.867
 30
0.0
 10
-1.4945
 20
22.867
 30
0.0
  0
SPLINE
  5
12A
330
1F
100
AcDbEntity
  8
Layer 1
 62
   250
100
AcDbSpline
210
0.0
220
0.0
230
1.0
 70
    11
 71
     3
 72
    20
 73
    16
 74
     0
 42
0.000000001
 43
0.0000000001
 40
0.0
 40
0.0
 40
0.0
 40
0.0
 40
0.2
 40
0.2
 40
0.2
 40
0.2
 40
0.4
 40
0.4
 40
0.4
 40
0.4
 40
0.6
 40
0.6
 40
0.6
 40
0.6
 40
1.0
 40
1.0
 40
1.0
 40
1.0
 10
-4.898
 20
19.9793
 30
0.0
 10
-4.898
 20
19.9793
 30
0.0
 10
-3.8317
 20
21.0759
 30
0.0
 10
-3.8317
 20
21.0759
 30
0.0
 10
-3.8317
 20
21.0759
 30
0.0
 10
-3.8317
 20
21.0759
 30
0.0
 10
-8.4586
 20
25.7547
 30
0.0
 10
-8.4586
 20
25.7547
 30
0.0
 10
-8.4586
 20
25.7547
 30
0.0
 10
-8.4586
 20
25.7547
 30
0.0
 10
-9.4707
 20
24.6764
 30
0.0
 10
-9.4707
 20
24.6764
 30
0.0
 10
-9.4707
 20
24.6764
 30
0.0
 10
-9.4707
 20
24.6764
 30
0.0
 10
-4.898
 20
19.9793
 30
0.0
 10
-4.898
 20
19.9793
 30
0.0
  0
SPLINE
  5
12B
330
1F
100
AcDbEntity
  8
Layer 1
 62
   250
100
AcDbSpline
210
0.0
220
0.0
230
1.0
 70
    11
 71
     3
 72
    20
 73
    16
 74
     0
 42
0.000000001
 43
0.0000000001
 40
0.0
 40
0.0
 40
0.0
 40
0.0
 40
0.2
 40
0.2
 40
0.2
 40
0.2
 40
0.4
 40
0.4
 40
0.4
 40
0.4
 40
0.6
 40
0.6
 40
0.6
 40
0.6
 40
1.0
 40
1.0
 40
1.0
 40
1.0
 10
-5.2053
 20
29.5379
 30
0.0
 10
-5.2053
 20
29.5379
 30
0.0
 10
-4.1208
 20
30.5979
 30
0.0
 10
-4.1208
 20
30.5979
 30
0.0
 10
-4.1208
 20
30.5979
 30
0.0
 10
-4.1208
 20
30.5979
 30
0.0
 10
-6.6512
 20
33.1201
 30
0.0
 10
-6.6512
 20
33.1201
 30
0.0
 10
-6.6512
 20
33.1201
 30
0.0
 10
-6.6512
 20
33.1201
 30
0.0
 10
-7.6995
 20
32.0966
 30
0.0
 10
-7.6995
 20
32.0966
 30
0.0
 10
-7.6995
 20
32.0966
 30
0.0
 10
-7.6995
 20
32.0966
 30
0.0
 10
-5.2053
 20
29.5379
 30
0.0
 10
-5.2053
 20
29.5379
 30
0.0
  0
SPLINE
  5
12C
330
1F
100
AcDbEntity
  8
Layer 1
 62
   250
100
AcDbSpline
210
0.0
220
0.0
230
1.0
 70
    11
 71
     3
 72
    20
 73
    16
 74
     0
 42
0.000000001
 43
0.0000000001
 40
0.0
 40
0.0
 40
0.0
 40
0.0
 40
0.2
 40
0.2
 40
0.2
 40
0.2
 40
0.4
 40
0.4
 40
0.4
 40
0.4
 40
0.6
 40
0.6
 40
0.6
 40
0.6
 40
1.0
 40
1.0
 40
1.0
 40
1.0
 10
-6.615
 20
24.9505
 30
0.0
 10
-6.615
 20
24.9505
 30
0.0
 10
-5.6029
 20
25.9923
 30
0.0
 10
-5.6029
 20
25.9923
 30
0.0
 10
-5.6029
 20
25.9923
 30
0.0
 10
-5.6029
 20
25.9923
 30
0.0
 10
-8.1332
 20
28.551
 30
0.0
 10
-8.1332
 20
28.551
 30
0.0
 10
-8.1332
 20
28.551
 30
0.0
 10
-8.1332
 20
28.551
 30
0.0
 10
-9.1273
 20
27.4727
 30
0.0
 10
-9.1273
 20
27.4727
 30
0.0
 10
-9.1273
 20
27.4727
 30
0.0
 10
-9.1273
 20
27.4727
 30
0.0
 10
-6.615
 20
24.9505
 30
0.0
 10
-6.615
 20
24.9505
 30
0.0
  0
SPLINE
  5
12D
330
1F
100
AcDbEntity
  8
Layer 1
 62
   250
100
AcDbSpline
210
0.0
220
0.0
230
1.0
 70
    11
 71
     3
 72
    20
 73
    16
 74
     0
 42
0.000000001
 43
0.0000000001
 40
0.0
 40
0.0
 40
0.0
 40
0.0
 40
0.2
 40
0.2
 40
0.2
 40
0.2
 40
0.4
 40
0.4
 40
0.4
 40
0.4
 40
0.6
 40
0.6
 40
0.6
 40
0.6
 40
1.0
 40
1.0
 40
1.0
 40
1.0
 10
7.1485
 20
26.504
 30
0.0
 10
7.1485
 20
26.504
 30
0.0
 10
6.0548
 20
27.5803
 30
0.0
 10
6.0548
 20
27.5803
 30
0.0
 10
6.0548
 20
27.5803
 30
0.0
 10
6.0548
 20
27.5803
 30
0.0
 10
8.5405
 20
30.1228
 30
0.0
 10
8.5405
 20
30.1228
 30
0.0
 10
8.5405
 20
30.1228
 30
0.0
 10
8.5405
 20
30.1228
 30
0.0
 10
9.6515
 20
28.9891
 30
0.0
 10
9.6515
 20
28.9891
 30
0.0
 10
9.6515
 20
28.9891
 30
0.0
 10
9.6515
 20
28.9891
 30
0.0
 10
7.1485
 20
26.504
 30
0.0
 10
7.1485
 20
26.504
 30
0.0
  0
SPLINE
  5
12E
330
1F
100
AcDbEntity
  8
Layer 1
 62
   250
100
AcDbSpline
210
0.0
220
0.0
230
1.0
 70
    11
 71
     3
 72
    20
 73
    16
 74
     0
 42
0.000000001
 43
0.0000000001
 40
0.0
 40
0.0
 40
0.0
 40
0.0
 40
0.2
 40
0.2
 40
0.2
 40
0.2
 40
0.4
 40
0.4
 40
0.4
 40
0.4
 40
0.6
 40
0.6
 40
0.6
 40
0.6
 40
1.0
 40
1.0
 40
1.0
 40
1.0
 10
7.1392
 20
23.3787
 30
0.0
 10
7.1392
 20
23.3787
 30
0.0
 10
6.0548
 20
24.4388
 30
0.0
 10
6.0548
 20
24.4388
 30
0.0
 10
6.0548
 20
24.4388
 30
0.0
 10
6.0548
 20
24.4388
 30
0.0
 10
8.3321
 20
26.7782
 30
0.0
 10
8.3321
 20
26.7782
 30
0.0
 10
8.3321
 20
26.7782
 30
0.0
 10
8.3321
 20
26.7782
 30
0.0
 10
9.4165
 20
25.6816
 30
0.0
 10
9.4165
 20
25.6816
 30
0.0
 10
9.4165
 20
25.6816
 30
0.0
 10
9.4165
 20
25.6816
 30
0.0
 10
7.1392
 20
23.3787
 30
0.0
 10
7.1392
 20
23.3787
 30
0.0
  0
SPLINE
  5
12F
330
1F
100
AcDbEntity
  8
Layer 1
 62
   250
100
AcDbSpline
210
0.0
220
0.0
230
1.0
 70
    11
 71
     3
 72
    20
 73
    16
 74
     0
 42
0.000000001
 43
0.0000000001
 40
0.0
 40
0.0
 40
0.0
 40
0.0
 40
0.2
 40
0.2
 40
0.2
 40
0.2
 40
0.4
 40
0.4
 40
0.4
 40
0.4
 40
0.6
 40
0.6
 40
0.6
 40
0.6
 40
1.0
 40
1.0
 40
1.0
 40
1.0
 10
10.2298
 20
23.3605
 30
0.0
 10
10.2298
 20
23.3605
 30
0.0
 10
10.6455
 20
23.726
 30
0.0
 10
10.6455
 20
23.726
 30
0.0
 10
10.6455
 20
23.726
 30
0.0
 10
10.6455
 20
23.726
 30
0.0
 10
10.6455
 20
25.8826
 30
0.0
 10
10.6455
 20
25.8826
 30
0.0
 10
10.6455
 20
25.8826
 30
0.0
 10
10.6455
 20
25.8826
 30
0.0
 10
9.1996
 20
24.4205
 30
0.0
 10
9.1996
 20
24.4205
 30
0.0
 10
9.1996
 20
24.4205
 30
0.0
 10
9.1996
 20
24.4205
 30
0.0
 10
10.2298
 20
23.3605
 30
0.0
 10
10.2298
 20
23.3605
 30
0.0
  0
SPLINE
  5
130
330
1F
100
AcDbEntity
  8
Layer 1
 62
   250
100
AcDbSpline
210
0.0
220
0.0
230
1.0
 70
    11
 71
     3
 72
    20
 73
    16
 74
     0
 42
0.000000001
 43
0.0000000001
 40
0.0
 40
0.0
 40
0.0
 40
0.0
 40
0.2
 40
0.2
 40
0.2
 40
0.2
 40
0.4
 40
0.4
 40
0.4
 40
0.4
 40
0.6
 40
0.6
 40
0.6
 40
0.6
 40
1.0
 40
1.0
 40
1.0
 40
1.0
 10
9.9226
 20
26.2116
 30
0.0
 10
9.9226
 20
26.2116
 30
0.0
 10
10.6455
 20
26.9061
 30
0.0
 10
10.6455
 20
26.9061
 30
0.0
 10
10.6455
 20
26.9061
 30
0.0
 10
10.6455
 20
26.9061
 30
0.0
 10
10.6275
 20
29.0262
 30
0.0
 10
10.6275
 20
29.0262
 30
0.0
 10
10.6275
 20
29.0262
 30
0.0
 10
10.6275
 20
29.0262
 30
0.0
 10
8.8743
 20
27.2534
 30
0.0
 10
8.8743
 20
27.2534
 30
0.0
 10
8.8743
 20
27.2534
 30
0.0
 10
8.8743
 20
27.2534
 30
0.0
 10
9.9226
 20
26.2116
 30
0.0
 10
9.9226
 20
26.2116
 30
0.0
  0
SPLINE
  5
131
330
1F
100
AcDbEntity
  8
Layer 1
 62
   250
100
AcDbSpline
210
0.0
220
0.0
230
1.0
 70
    11
 71
     3
 72
    24
 73
    20
 74
     0
 42
0.000000001
 43
0.0000000001
 40
0.0
 40
0.0
 40
0.0
 40
0.0
 40
0.1666666666666667
 40
0.1666666666666667
 40
0.1666666666666667
 40
0.1666666666666667
 40
0.3333333333333333
 40
0.3333333333333333
 40
0.3333333333333333
 40
0.3333333333333333
 40
0.5
 40
0.5
 40
0.5
 40
0.5
 40
0.6666666666666666
 40
0.6666666666666666
 40
0.6666666666666666
 40
0.6666666666666666
 40
1.0
 40
1.0
 40
1.0
 40
1.0
 10
10.1937
 20
29.5196
 30
0.0
 10
10.1937
 20
29.5196
 30
0.0
 10
10.6455
 20
30.0497
 30
0.0
 10
10.6455
 20
30.0497
 30
0.0
 10
10.6455
 20
30.0497
 30
0.0
 10
10.6455
 20
30.0497
 30
0.0
 10
10.6455
 20
31.2011
 30
0.0
 10
10.6455
 20
31.2011
 30
0.0
 10
10.6455
 20
31.2011
 30
0.0
 10
10.6455
 20
31.2011
 30
0.0
 10
8.9104
 20
32.9373
 30
0.0
 10
8.9104
 20
32.9373
 30
0.0
 10
8.9104
 20
32.9373
 30
0.0
 10
8.9104
 20
32.9373
 30
0.0
 10
7.8441
 20
31.8225
 30
0.0
 10
7.8441
 20
31.8225
 30
0.0
 10
7.8441
 20
31.8225
 30
0.0
 10
7.8441
 20
31.8225
 30
0.0
 10
10.1937
 20
29.5196
 30
0.0
 10
10.1937
 20
29.5196
 30
0.0
  0
SPLINE
  5
132
330
1F
100
AcDbEntity
  8
Layer 1
 62
   250
100
AcDbSpline
210
0.0
220
0.0
230
1.0
 70
    11
 71
     3
 72
    20
 73
    16
 74
     0
 42
0.000000001
 43
0.0000000001
 40
0.0
 40
0.0
 40
0.0
 40
0.0
 40
0.2
 40
0.2
 40
0.2
 40
0.2
 40
0.4
 40
0.4
 40
0.4
 40
0.4
 40
0.6
 40
0.6
 40
0.6
 40
0.6
 40
1.0
 40
1.0
 40
1.0
 40
1.0
 10
6.9765
 20
29.5014
 30
0.0
 10
6.9765
 20
29.5014
 30
0.0
 10
8.061
 20
30.5614
 30
0.0
 10
8.061
 20
30.5614
 30
0.0
 10
8.061
 20
30.5614
 30
0.0
 10
8.061
 20
30.5614
 30
0.0
 10
5.5306
 20
33.1201
 30
0.0
 10
5.5306
 20
33.1201
 30
0.0
 10
5.5306
 20
33.1201
 30
0.0
 10
5.5306
 20
33.1201
 30
0.0
 10
4.5004
 20
32.0418
 30
0.0
 10
4.5004
 20
32.0418
 30
0.0
 10
4.5004
 20
32.0418
 30
0.0
 10
4.5004
 20
32.0418
 30
0.0
 10
6.9765
 20
29.5014
 30
0.0
 10
6.9765
 20
29.5014
 30
0.0
  0
SPLINE
  5
133
330
1F
100
AcDbEntity
  8
Layer 1
 62
   250
100
AcDbSpline
210
0.0
220
0.0
230
1.0
 70
    11
 71
     3
 72
    20
 73
    16
 74
     0
 42
0.000000001
 43
0.0000000001
 40
0.0
 40
0.0
 40
0.0
 40
0.0
 40
0.2
 40
0.2
 40
0.2
 40
0.2
 40
0.4
 40
0.4
 40
0.4
 40
0.4
 40
0.6
 40
0.6
 40
0.6
 40
0.6
 40
1.0
 40
1.0
 40
1.0
 40
1.0
 10
4.5783
 20
29.0444
 30
0.0
 10
4.5783
 20
29.0444
 30
0.0
 10
5.5396
 20
30.0166
 30
0.0
 10
5.5396
 20
30.0166
 30
0.0
 10
5.5396
 20
30.0166
 30
0.0
 10
5.5396
 20
30.0166
 30
0.0
 10
6.501
 20
29.0444
 30
0.0
 10
6.501
 20
29.0444
 30
0.0
 10
6.501
 20
29.0444
 30
0.0
 10
6.501
 20
29.0444
 30
0.0
 10
5.5396
 20
28.0723
 30
0.0
 10
5.5396
 20
28.0723
 30
0.0
 10
5.5396
 20
28.0723
 30
0.0
 10
5.5396
 20
28.0723
 30
0.0
 10
4.5783
 20
29.0444
 30
0.0
 10
4.5783
 20
29.0444
 30
0.0
  0
SPLINE
  5
134
330
1F
100
AcDbEntity
  8
Layer 1
 62
   250
100
AcDbSpline
210
0.0
220
0.0
230
1.0
 70
    11
 71
     3
 72
    20
 73
    16
 74
     0
 42
0.000000001
 43
0.0000000001
 40
0.0
 40
0.0
 40
0.0
 40
0.0
 40
0.2
 40
0.2
 40
0.2
 40
0.2
 40
0.4
 40
0.4
 40
0.4
 40
0.4
 40
0.6
 40
0.6
 40
0.6
 40
0.6
 40
1.0
 40
1.0
 40
1.0
 40
1.0
 10
2.5577
 20
27.9661
 30
0.0
 10
2.5577
 20
27.9661
 30
0.0
 10
1.5001
 20
29.0425
 30
0.0
 10
1.5001
 20
29.0425
 30
0.0
 10
1.5001
 20
29.0425
 30
0.0
 10
1.5001
 20
29.0425
 30
0.0
 10
4.022
 20
31.5849
 30
0.0
 10
4.022
 20
31.5849
 30
0.0
 10
4.022
 20
31.5849
 30
0.0
 10
4.022
 20
31.5849
 30
0.0
 10
5.0788
 20
30.506
 30
0.0
 10
5.0788
 20
30.506
 30
0.0
 10
5.0788
 20
30.506
 30
0.0
 10
5.0788
 20
30.506
 30
0.0
 10
2.5577
 20
27.9661
 30
0.0
 10
2.5577
 20
27.9661
 30
0.0
  0
SPLINE
  5
135
330
1F
100
AcDbEntity
  8
Layer 1
 62
   250
100
AcDbSpline
210
0.0
220
0.0
230
1.0
 70
    11
 71
     3
 72
    20
 73
    16
 74
     0
 42
0.000000001
 43
0.0000000001
 40
0.0
 40
0.0
 40
0.0
 40
0.0
 40
0.2
 40
0.2
 40
0.2
 40
0.2
 40
0.4
 40
0.4
 40
0.4
 40
0.4
 40
0.6
 40
0.6
 40
0.6
 40
0.6
 40
1.0
 40
1.0
 40
1.0
 40
1.0
 10
-1.9607
 20
23.3239
 30
0.0
 10
-1.9607
 20
23.3239
 30
0.0
 10
-3.0545
 20
24.4002
 30
0.0
 10
-3.0545
 20
24.4002
 30
0.0
 10
-3.0545
 20
24.4002
 30
0.0
 10
-3.0545
 20
24.4002
 30
0.0
 10
-0.5326
 20
26.9975
 30
0.0
 10
-0.5326
 20
26.9975
 30
0.0
 10
-0.5326
 20
26.9975
 30
0.0
 10
-0.5326
 20
26.9975
 30
0.0
 10
0.5242
 20
25.8821
 30
0.0
 10
0.5242
 20
25.8821
 30
0.0
 10
0.5242
 20
25.8821
 30
0.0
 10
0.5242
 20
25.8821
 30
0.0
 10
-1.9607
 20
23.3239
 30
0.0
 10
-1.9607
 20
23.3239
 30
0.0
  0
SPLINE
  5
136
330
1F
100
AcDbEntity
  8
Layer 1
 62
   250
100
AcDbSpline
210
0.0
220
0.0
230
1.0
 70
    11
 71
     3
 72
    20
 73
    16
 74
     0
 42
0.000000001
 43
0.0000000001
 40
0.0
 40
0.0
 40
0.0
 40
0.0
 40
0.2
 40
0.2
 40
0.2
 40
0.2
 40
0.4
 40
0.4
 40
0.4
 40
0.4
 40
0.6
 40
0.6
 40
0.6
 40
0.6
 40
1.0
 40
1.0
 40
1.0
 40
1.0
 10
-5.0875
 20
26.5223
 30
0.0
 10
-5.0875
 20
26.5223
 30
0.0
 10
-6.1632
 20
27.5438
 30
0.0
 10
-6.1632
 20
27.5438
 30
0.0
 10
-6.1632
 20
27.5438
 30
0.0
 10
-6.1632
 20
27.5438
 30
0.0
 10
-3.6413
 20
30.0862
 30
0.0
 10
-3.6413
 20
30.0862
 30
0.0
 10
-3.6413
 20
30.0862
 30
0.0
 10
-3.6413
 20
30.0862
 30
0.0
 10
-2.5846
 20
29.0256
 30
0.0
 10
-2.5846
 20
29.0256
 30
0.0
 10
-2.5846
 20
29.0256
 30
0.0
 10
-2.5846
 20
29.0256
 30
0.0
 10
-5.0875
 20
26.5223
 30
0.0
 10
-5.0875
 20
26.5223
 30
0.0
  0
SPLINE
  5
137
330
1F
100
AcDbEntity
  8
Layer 1
 62
   250
100
AcDbSpline
210
0.0
220
0.0
230
1.0
 70
    11
 71
     3
 72
    20
 73
    16
 74
     0
 42
0.000000001
 43
0.0000000001
 40
0.0
 40
0.0
 40
0.0
 40
0.0
 40
0.2
 40
0.2
 40
0.2
 40
0.2
 40
0.4
 40
0.4
 40
0.4
 40
0.4
 40
0.6
 40
0.6
 40
0.6
 40
0.6
 40
1.0
 40
1.0
 40
1.0
 40
1.0
 10
0.8771
 20
34.7284
 30
0.0
 10
0.8771
 20
34.7284
 30
0.0
 10
-1.6086
 20
32.186
 30
0.0
 10
-1.6086
 20
32.186
 30
0.0
 10
-1.6086
 20
32.186
 30
0.0
 10
-1.6086
 20
32.186
 30
0.0
 10
-0.5148
 20
31.1097
 30
0.0
 10
-0.5148
 20
31.1097
 30
0.0
 10
-0.5148
 20
31.1097
 30
0.0
 10
-0.5148
 20
31.1097
 30
0.0
 10
1.9761
 20
33.6679
 30
0.0
 10
1.9761
 20
33.6679
 30
0.0
 10
1.9761
 20
33.6679
 30
0.0
 10
1.9761
 20
33.6679
 30
0.0
 10
0.8771
 20
34.7284
 30
0.0
 10
0.8771
 20
34.7284
 30
0.0
  0
SPLINE
  5
138
330
1F
100
AcDbEntity
  8
Layer 1
 62
   250
100
AcDbSpline
210
0.0
220
0.0
230
1.0
 70
    11
 71
     3
 72
    20
 73
    16
 74
     0
 42
0.000000001
 43
0.0000000001
 40
0.0
 40
0.0
 40
0.0
 40
0.0
 40
0.2
 40
0.2
 40
0.2
 40
0.2
 40
0.4
 40
0.4
 40
0.4
 40
0.4
 40
0.6
 40
0.6
 40
0.6
 40
0.6
 40
1.0
 40
1.0
 40
1.0
 40
1.0
 10
-9.624
 20
27.9661
 30
0.0
 10
-9.624
 20
27.9661
 30
0.0
 10
-10.6817
 20
29.0425
 30
0.0
 10
-10.6817
 20
29.0425
 30
0.0
 10
-10.6817
 20
29.0425
 30
0.0
 10
-10.6817
 20
29.0425
 30
0.0
 10
-8.196
 20
31.5849
 30
0.0
 10
-8.196
 20
31.5849
 30
0.0
 10
-8.196
 20
31.5849
 30
0.0
 10
-8.196
 20
31.5849
 30
0.0
 10
-7.1392
 20
30.4878
 30
0.0
 10
-7.1392
 20
30.4878
 30
0.0
 10
-7.1392
 20
30.4878
 30
0.0
 10
-7.1392
 20
30.4878
 30
0.0
 10
-9.624
 20
27.9661
 30
0.0
 10
-9.624
 20
27.9661
 30
0.0
  0
SPLINE
  5
139
330
1F
100
AcDbEntity
  8
Layer 1
 62
   250
100
AcDbSpline
210
0.0
220
0.0
230
1.0
 70
    11
 71
     3
 72
    20
 73
    16
 74
     0
 42
0.000000001
 43
0.0000000001
 40
0.0
 40
0.0
 40
0.0
 40
0.0
 40
0.2
 40
0.2
 40
0.2
 40
0.2
 40
0.4
 40
0.4
 40
0.4
 40
0.4
 40
0.6
 40
0.6
 40
0.6
 40
0.6
 40
1.0
 40
1.0
 40
1.0
 40
1.0
 10
-10.6817
 20
22.6477
 30
0.0
 10
-10.6817
 20
22.6477
 30
0.0
 10
-10.6817
 20
24.8774
 30
0.0
 10
-10.6817
 20
24.8774
 30
0.0
 10
-10.6817
 20
24.8774
 30
0.0
 10
-10.6817
 20
24.8774
 30
0.0
 10
-8.6755
 20
22.8487
 30
0.0
 10
-8.6755
 20
22.8487
 30
0.0
 10
-8.6755
 20
22.8487
 30
0.0
 10
-8.6755
 20
22.8487
 30
0.0
 10
-9.7599
 20
21.7704
 30
0.0
 10
-9.7599
 20
21.7704
 30
0.0
 10
-9.7599
 20
21.7704
 30
0.0
 10
-9.7599
 20
21.7704
 30
0.0
 10
-10.6817
 20
22.6477
 30
0.0
 10
-10.6817
 20
22.6477
 30
0.0
  0
SPLINE
  5
13A
330
1F
100
AcDbEntity
  8
Layer 1
 62
   250
100
AcDbSpline
210
0.0
220
0.0
230
1.0
 70
    11
 71
     3
 72
    20
 73
    16
 74
     0
 42
0.000000001
 43
0.0000000001
 40
0.0
 40
0.0
 40
0.0
 40
0.0
 40
0.2
 40
0.2
 40
0.2
 40
0.2
 40
0.4
 40
0.4
 40
0.4
 40
0.4
 40
0.6
 40
0.6
 40
0.6
 40
0.6
 40
1.0
 40
1.0
 40
1.0
 40
1.0
 10
-9.9587
 20
25.115
 30
0.0
 10
-9.9587
 20
25.115
 30
0.0
 10
-10.6817
 20
25.8095
 30
0.0
 10
-10.6817
 20
25.8095
 30
0.0
 10
-10.6817
 20
25.8095
 30
0.0
 10
-10.6817
 20
25.8095
 30
0.0
 10
-10.6817
 20
28.0027
 30
0.0
 10
-10.6817
 20
28.0027
 30
0.0
 10
-10.6817
 20
28.0027
 30
0.0
 10
-10.6817
 20
28.0027
 30
0.0
 10
-8.9285
 20
26.2299
 30
0.0
 10
-8.9285
 20
26.2299
 30
0.0
 10
-8.9285
 20
26.2299
 30
0.0
 10
-8.9285
 20
26.2299
 30
0.0
 10
-9.9587
 20
25.115
 30
0.0
 10
-9.9587
 20
25.115
 30
0.0
  0
SPLINE
  5
13B
330
1F
100
AcDbEntity
  8
Layer 1
 62
   250
100
AcDbSpline
210
0.0
220
0.0
230
1.0
 70
    11
 71
     3
 72
    16
 73
    12
 74
     0
 42
0.000000001
 43
0.0000000001
 40
0.0
 40
0.0
 40
0.0
 40
0.0
 40
0.25
 40
0.25
 40
0.25
 40
0.25
 40
0.5
 40
0.5
 40
0.5
 40
0.5
 40
1.0
 40
1.0
 40
1.0
 40
1.0
 10
-10.6817
 20
30.0679
 30
0.0
 10
-10.6817
 20
30.0679
 30
0.0
 10
-9.9226
 20
30.8355
 30
0.0
 10
-9.9226
 20
30.8355
 30
0.0
 10
-9.9226
 20
30.8355
 30
0.0
 10
-9.9226
 20
30.8355
 30
0.0
 10
-10.6817
 20
31.5849
 30
0.0
 10
-10.6817
 20
31.5849
 30
0.0
 10
-10.6817
 20
31.5849
 30
0.0
 10
-10.6817
 20
31.5849
 30
0.0
 10
-10.6817
 20
30.0679
 30
0.0
 10
-10.6817
 20
30.0679
 30
0.0
  0
SPLINE
  5
13C
330
1F
100
AcDbEntity
  8
Layer 1
 62
   250
100
AcDbSpline
210
0.0
220
0.0
230
1.0
 70
    11
 71
     3
 72
    20
 73
    16
 74
     0
 42
0.000000001
 43
0.0000000001
 40
0.0
 40
0.0
 40
0.0
 40
0.0
 40
0.2
 40
0.2
 40
0.2
 40
0.2
 40
0.4
 40
0.4
 40
0.4
 40
0.4
 40
0.6
 40
0.6
 40
0.6
 40
0.6
 40
1.0
 40
1.0
 40
1.0
 40
1.0
 10
-5.0968
 20
23.3422
 30
0.0
 10
-5.0968
 20
23.3422
 30
0.0
 10
-6.1451
 20
24.4022
 30
0.0
 10
-6.1451
 20
24.4022
 30
0.0
 10
-6.1451
 20
24.4022
 30
0.0
 10
-6.1451
 20
24.4022
 30
0.0
 10
-3.8497
 20
26.7782
 30
0.0
 10
-3.8497
 20
26.7782
 30
0.0
 10
-3.8497
 20
26.7782
 30
0.0
 10
-3.8497
 20
26.7782
 30
0.0
 10
-2.7834
 20
25.6633
 30
0.0
 10
-2.7834
 20
25.6633
 30
0.0
 10
-2.7834
 20
25.6633
 30
0.0
 10
-2.7834
 20
25.6633
 30
0.0
 10
-5.0968
 20
23.3422
 30
0.0
 10
-5.0968
 20
23.3422
 30
0.0
  0
SPLINE
  5
13D
330
1F
100
AcDbEntity
  8
Layer 1
 62
   250
100
AcDbSpline
210
0.0
220
0.0
230
1.0
 70
    11
 71
     3
 72
    20
 73
    16
 74
     0
 42
0.000000001
 43
0.0000000001
 40
0.0
 40
0.0
 40
0.0
 40
0.0
 40
0.2
 40
0.2
 40
0.2
 40
0.2
 40
0.4
 40
0.4
 40
0.4
 40
0.4
 40
0.6
 40
0.6
 40
0.6
 40
0.6
 40
1.0
 40
1.0
 40
1.0
 40
1.0
 10
-2.2773
 20
26.175
 30
0.0
 10
-2.2773
 20
26.175
 30
0.0
 10
-3.3256
 20
27.2351
 30
0.0
 10
-3.3256
 20
27.2351
 30
0.0
 10
-3.3256
 20
27.2351
 30
0.0
 10
-3.3256
 20
27.2351
 30
0.0
 10
1.2652
 20
31.8773
 30
0.0
 10
1.2652
 20
31.8773
 30
0.0
 10
1.2652
 20
31.8773
 30
0.0
 10
1.2652
 20
31.8773
 30
0.0
 10
2.2954
 20
30.8355
 30
0.0
 10
2.2954
 20
30.8355
 30
0.0
 10
2.2954
 20
30.8355
 30
0.0
 10
2.2954
 20
30.8355
 30
0.0
 10
-2.2773
 20
26.175
 30
0.0
 10
-2.2773
 20
26.175
 30
0.0
  0
SPLINE
  5
13E
330
1F
100
AcDbEntity
  8
Layer 1
 62
   250
100
AcDbSpline
210
0.0
220
0.0
230
1.0
 70
    11
 71
     3
 72
    20
 73
    16
 74
     0
 42
0.000000001
 43
0.0000000001
 40
0.0
 40
0.0
 40
0.0
 40
0.0
 40
0.2
 40
0.2
 40
0.2
 40
0.2
 40
0.4
 40
0.4
 40
0.4
 40
0.4
 40
0.6
 40
0.6
 40
0.6
 40
0.6
 40
1.0
 40
1.0
 40
1.0
 40
1.0
 10
-2.0604
 20
29.5379
 30
0.0
 10
-2.0604
 20
29.5379
 30
0.0
 10
-4.3558
 20
31.8773
 30
0.0
 10
-4.3558
 20
31.8773
 30
0.0
 10
-4.3558
 20
31.8773
 30
0.0
 10
-4.3558
 20
31.8773
 30
0.0
 10
-3.3437
 20
32.9373
 30
0.0
 10
-3.3437
 20
32.9373
 30
0.0
 10
-3.3437
 20
32.9373
 30
0.0
 10
-3.3437
 20
32.9373
 30
0.0
 10
-1.0302
 20
30.6345
 30
0.0
 10
-1.0302
 20
30.6345
 30
0.0
 10
-1.0302
 20
30.6345
 30
0.0
 10
-1.0302
 20
30.6345
 30
0.0
 10
-2.0604
 20
29.5379
 30
0.0
 10
-2.0604
 20
29.5379
 30
0.0
  0
SPLINE
  5
13F
330
1F
100
AcDbEntity
  8
Layer 1
 62
   250
100
AcDbSpline
210
0.0
220
0.0
230
1.0
 70
    11
 71
     3
 72
    20
 73
    16
 74
     0
 42
0.000000001
 43
0.0000000001
 40
0.0
 40
0.0
 40
0.0
 40
0.0
 40
0.2
 40
0.2
 40
0.2
 40
0.2
 40
0.4
 40
0.4
 40
0.4
 40
0.4
 40
0.6
 40
0.6
 40
0.6
 40
0.6
 40
1.0
 40
1.0
 40
1.0
 40
1.0
 10
-7.6035
 20
29.0079
 30
0.0
 10
-7.6035
 20
29.0079
 30
0.0
 10
-6.6421
 20
29.98
 30
0.0
 10
-6.6421
 20
29.98
 30
0.0
 10
-6.6421
 20
29.98
 30
0.0
 10
-6.6421
 20
29.98
 30
0.0
 10
-5.6808
 20
29.0079
 30
0.0
 10
-5.6808
 20
29.0079
 30
0.0
 10
-5.6808
 20
29.0079
 30
0.0
 10
-5.6808
 20
29.0079
 30
0.0
 10
-6.6421
 20
28.0358
 30
0.0
 10
-6.6421
 20
28.0358
 30
0.0
 10
-6.6421
 20
28.0358
 30
0.0
 10
-6.6421
 20
28.0358
 30
0.0
 10
-7.6035
 20
29.0079
 30
0.0
 10
-7.6035
 20
29.0079
 30
0.0
  0
SPLINE
  5
140
330
1F
100
AcDbEntity
  8
Layer 1
 62
   250
100
AcDbSpline
210
0.0
220
0.0
230
1.0
 70
    11
 71
     3
 72
    20
 73
    16
 74
     0
 42
0.000000001
 43
0.0000000001
 40
0.0
 40
0.0
 40
0.0
 40
0.0
 40
0.2
 40
0.2
 40
0.2
 40
0.2
 40
0.4
 40
0.4
 40
0.4
 40
0.4
 40
0.6
 40
0.6
 40
0.6
 40
0.6
 40
1.0
 40
1.0
 40
1.0
 40
1.0
 10
2.3135
 20
25.0785
 30
0.0
 10
2.3135
 20
25.0785
 30
0.0
 10
0.0
 20
27.4727
 30
0.0
 10
0.0
 20
27.4727
 30
0.0
 10
0.0
 20
27.4727
 30
0.0
 10
0.0
 20
27.4727
 30
0.0
 10
1.0302
 20
28.4779
 30
0.0
 10
1.0302
 20
28.4779
 30
0.0
 10
1.0302
 20
28.4779
 30
0.0
 10
1.0302
 20
28.4779
 30
0.0
 10
3.3437
 20
26.175
 30
0.0
 10
3.3437
 20
26.175
 30
0.0
 10
3.3437
 20
26.175
 30
0.0
 10
3.3437
 20
26.175
 30
0.0
 10
2.3135
 20
25.0785
 30
0.0
 10
2.3135
 20
25.0785
 30
0.0
  0
SPLINE
  5
141
330
1F
100
AcDbEntity
  8
Layer 1
 62
   250
100
AcDbSpline
210
0.0
220
0.0
230
1.0
 70
    11
 71
     3
 72
    20
 73
    16
 74
     0
 42
0.000000001
 43
0.0000000001
 40
0.0
 40
0.0
 40
0.0
 40
0.0
 40
0.2
 40
0.2
 40
0.2
 40
0.2
 40
0.4
 40
0.4
 40
0.4
 40
0.4
 40
0.6
 40
0.6
 40
0.6
 40
0.6
 40
1.0
 40
1.0
 40
1.0
 40
1.0
 10
2.7746
 20
31.2925
 30
0.0
 10
2.7746
 20
31.2925
 30
0.0
 10
1.717
 20
32.3688
 30
0.0
 10
1.717
 20
32.3688
 30
0.0
 10
1.717
 20
32.3688
 30
0.0
 10
1.717
 20
32.3688
 30
0.0
 10
4.022
 20
34.7284
 30
0.0
 10
4.022
 20
34.7284
 30
0.0
 10
4.022
 20
34.7284
 30
0.0
 10
4.022
 20
34.7284
 30
0.0
 10
5.0607
 20
33.6496
 30
0.0
 10
5.0607
 20
33.6496
 30
0.0
 10
5.0607
 20
33.6496
 30
0.0
 10
5.0607
 20
33.6496
 30
0.0
 10
2.7746
 20
31.2925
 30
0.0
 10
2.7746
 20
31.2925
 30
0.0
  0
SPLINE
  5
142
330
1F
100
AcDbEntity
  8
Layer 1
 62
   250
100
AcDbSpline
210
0.0
220
0.0
230
1.0
 70
    11
 71
     3
 72
    20
 73
    16
 74
     0
 42
0.000000001
 43
0.0000000001
 40
0.0
 40
0.0
 40
0.0
 40
0.0
 40
0.2
 40
0.2
 40
0.2
 40
0.2
 40
0.4
 40
0.4
 40
0.4
 40
0.4
 40
0.6
 40
0.6
 40
0.6
 40
0.6
 40
1.0
 40
1.0
 40
1.0
 40
1.0
 10
-9.4225
 20
31.3534
 30
0.0
 10
-9.4225
 20
31.3534
 30
0.0
 10
-10.4949
 20
32.4012
 30
0.0
 10
-10.4949
 20
32.4012
 30
0.0
 10
-10.4949
 20
32.4012
 30
0.0
 10
-10.4949
 20
32.4012
 30
0.0
 10
-8.2296
 20
34.7284
 30
0.0
 10
-8.2296
 20
34.7284
 30
0.0
 10
-8.2296
 20
34.7284
 30
0.0
 10
-8.2296
 20
34.7284
 30
0.0
 10
-7.1573
 20
33.644
 30
0.0
 10
-7.1573
 20
33.644
 30
0.0
 10
-7.1573
 20
33.644
 30
0.0
 10
-7.1573
 20
33.644
 30
0.0
 10
-9.4225
 20
31.3534
 30
0.0
 10
-9.4225
 20
31.3534
 30
0.0
  0
SPLINE
  5
143
330
1F
100
AcDbEntity
  8
Layer 1
 62
   250
100
AcDbSpline
210
0.0
220
0.0
230
1.0
 70
    11
 71
     3
 72
    20
 73
    16
 74
     0
 42
0.000000001
 43
0.0000000001
 40
0.0
 40
0.0
 40
0.0
 40
0.0
 40
0.2
 40
0.2
 40
0.2
 40
0.2
 40
0.4
 40
0.4
 40
0.4
 40
0.4
 40
0.6
 40
0.6
 40
0.6
 40
0.6
 40
1.0
 40
1.0
 40
1.0
 40
1.0
 10
-9.4346
 20
-5.6991
 30
0.0
 10
-9.4346
 20
-5.6991
 30
0.0
 10
-10.5009
 20
-4.6208
 30
0.0
 10
-10.5009
 20
-4.6208
 30
0.0
 10
-10.5009
 20
-4.6208
 30
0.0
 10
-10.5009
 20
-4.6208
 30
0.0
 10
-8.1875
 20
-2.3179
 30
0.0
 10
-8.1875
 20
-2.3179
 30
0.0
 10
-8.1875
 20
-2.3179
 30
0.0
 10
-8.1875
 20
-2.3179
 30
0.0
 10
-7.1573
 20
-3.3962
 30
0.0
 10
-7.1573
 20
-3.3962
 30
0.0
 10
-7.1573
 20
-3.3962
 30
0.0
 10
-7.1573
 20
-3.3962
 30
0.0
 10
-9.4346
 20
-5.6991
 30
0.0
 10
-9.4346
 20
-5.6991
 30
0.0
  0
SPLINE
  5
144
330
1F
100
AcDbEntity
  8
Layer 1
 62
   250
100
AcDbSpline
210
0.0
220
0.0
230
1.0
 70
    11
 71
     3
 72
    20
 73
    16
 74
     0
 42
0.000000001
 43
0.0000000001
 40
0.0
 40
0.0
 40
0.0
 40
0.0
 40
0.2
 40
0.2
 40
0.2
 40
0.2
 40
0.4
 40
0.4
 40
0.4
 40
0.4
 40
0.6
 40
0.6
 40
0.6
 40
0.6
 40
1.0
 40
1.0
 40
1.0
 40
1.0
 10
2.7834
 20
-5.6808
 30
0.0
 10
2.7834
 20
-5.6808
 30
0.0
 10
1.7532
 20
-4.639
 30
0.0
 10
1.7532
 20
-4.639
 30
0.0
 10
1.7532
 20
-4.639
 30
0.0
 10
1.7532
 20
-4.639
 30
0.0
 10
3.9943
 20
-2.3179
 30
0.0
 10
3.9943
 20
-2.3179
 30
0.0
 10
3.9943
 20
-2.3179
 30
0.0
 10
3.9943
 20
-2.3179
 30
0.0
 10
5.0788
 20
-3.378
 30
0.0
 10
5.0788
 20
-3.378
 30
0.0
 10
5.0788
 20
-3.378
 30
0.0
 10
5.0788
 20
-3.378
 30
0.0
 10
2.7834
 20
-5.6808
 30
0.0
 10
2.7834
 20
-5.6808
 30
0.0
  0
SPLINE
  5
145
330
1F
100
AcDbEntity
  8
Layer 1
 62
   250
100
AcDbSpline
210
0.0
220
0.0
230
1.0
 70
    11
 71
     3
 72
    20
 73
    16
 74
     0
 42
0.000000001
 43
0.0000000001
 40
0.0
 40
0.0
 40
0.0
 40
0.0
 40
0.2
 40
0.2
 40
0.2
 40
0.2
 40
0.4
 40
0.4
 40
0.4
 40
0.4
 40
0.6
 40
0.6
 40
0.6
 40
0.6
 40
1.0
 40
1.0
 40
1.0
 40
1.0
 10
-9.4346
 20
19.029
 30
0.0
 10
-9.4346
 20
19.029
 30
0.0
 10
-10.4829
 20
20.0707
 30
0.0
 10
-10.4829
 20
20.0707
 30
0.0
 10
-10.4829
 20
20.0707
 30
0.0
 10
-10.4829
 20
20.0707
 30
0.0
 10
-8.2055
 20
22.3918
 30
0.0
 10
-8.2055
 20
22.3918
 30
0.0
 10
-8.2055
 20
22.3918
 30
0.0
 10
-8.2055
 20
22.3918
 30
0.0
 10
-7.1392
 20
21.3135
 30
0.0
 10
-7.1392
 20
21.3135
 30
0.0
 10
-7.1392
 20
21.3135
 30
0.0
 10
-7.1392
 20
21.3135
 30
0.0
 10
-9.4346
 20
19.029
 30
0.0
 10
-9.4346
 20
19.029
 30
0.0
  0
SPLINE
  5
146
330
1F
100
AcDbEntity
  8
Layer 1
 62
   250
100
AcDbSpline
210
0.0
220
0.0
230
1.0
 70
    11
 71
     3
 72
    20
 73
    16
 74
     0
 42
0.000000001
 43
0.0000000001
 40
0.0
 40
0.0
 40
0.0
 40
0.0
 40
0.2
 40
0.2
 40
0.2
 40
0.2
 40
0.4
 40
0.4
 40
0.4
 40
0.4
 40
0.6
 40
0.6
 40
0.6
 40
0.6
 40
1.0
 40
1.0
 40
1.0
 40
1.0
 10
2.8015
 20
19.029
 30
0.0
 10
2.8015
 20
19.029
 30
0.0
 10
1.7532
 20
20.0524
 30
0.0
 10
1.7532
 20
20.0524
 30
0.0
 10
1.7532
 20
20.0524
 30
0.0
 10
1.7532
 20
20.0524
 30
0.0
 10
4.0305
 20
22.3553
 30
0.0
 10
4.0305
 20
22.3553
 30
0.0
 10
4.0305
 20
22.3553
 30
0.0
 10
4.0305
 20
22.3553
 30
0.0
 10
5.0788
 20
21.3135
 30
0.0
 10
5.0788
 20
21.3135
 30
0.0
 10
5.0788
 20
21.3135
 30
0.0
 10
5.0788
 20
21.3135
 30
0.0
 10
2.8015
 20
19.029
 30
0.0
 10
2.8015
 20
19.029
 30
0.0
  0
SPLINE
  5
147
330
1F
100
AcDbEntity
  8
Layer 1
 62
   250
100
AcDbSpline
210
0.0
220
0.0
230
1.0
 70
    11
 71
     3
 72
    24
 73
    20
 74
     0
 42
0.000000001
 43
0.0000000001
 40
0.0
 40
0.0
 40
0.0
 40
0.0
 40
0.1666666666666667
 40
0.1666666666666667
 40
0.1666666666666667
 40
0.1666666666666667
 40
0.3333333333333333
 40
0.3333333333333333
 40
0.3333333333333333
 40
0.3333333333333333
 40
0.5
 40
0.5
 40
0.5
 40
0.5
 40
0.6666666666666666
 40
0.6666666666666666
 40
0.6666666666666666
 40
0.6666666666666666
 40
1.0
 40
1.0
 40
1.0
 40
1.0
 10
7.6516
 20
41.6051
 30
0.0
 10
7.6516
 20
41.6051
 30
0.0
 10
9.4314
 20
41.6051
 30
0.0
 10
9.4314
 20
41.6051
 30
0.0
 10
9.4314
 20
41.6051
 30
0.0
 10
9.4314
 20
41.6051
 30
0.0
 10
9.6515
 20
41.3805
 30
0.0
 10
9.6515
 20
41.3805
 30
0.0
 10
9.6515
 20
41.3805
 30
0.0
 10
9.6515
 20
41.3805
 30
0.0
 10
7.1485
 20
38.8955
 30
0.0
 10
7.1485
 20
38.8955
 30
0.0
 10
7.1485
 20
38.8955
 30
0.0
 10
7.1485
 20
38.8955
 30
0.0
 10
6.0548
 20
39.9718
 30
0.0
 10
6.0548
 20
39.9718
 30
0.0
 10
6.0548
 20
39.9718
 30
0.0
 10
6.0548
 20
39.9718
 30
0.0
 10
7.6516
 20
41.6051
 30
0.0
 10
7.6516
 20
41.6051
 30
0.0
  0
SPLINE
  5
148
330
1F
100
AcDbEntity
  8
Layer 1
 62
   250
100
AcDbSpline
210
0.0
220
0.0
230
1.0
 70
    11
 71
     3
 72
    24
 73
    20
 74
     0
 42
0.000000001
 43
0.0000000001
 40
0.0
 40
0.0
 40
0.0
 40
0.0
 40
0.1666666666666667
 40
0.1666666666666667
 40
0.1666666666666667
 40
0.1666666666666667
 40
0.3333333333333333
 40
0.3333333333333333
 40
0.3333333333333333
 40
0.3333333333333333
 40
0.5
 40
0.5
 40
0.5
 40
0.5
 40
0.6666666666666666
 40
0.6666666666666666
 40
0.6666666666666666
 40
0.6666666666666666
 40
1.0
 40
1.0
 40
1.0
 40
1.0
 10
4.7456
 20
41.6051
 30
0.0
 10
4.7456
 20
41.6051
 30
0.0
 10
6.3337
 20
41.6051
 30
0.0
 10
6.3337
 20
41.6051
 30
0.0
 10
6.3337
 20
41.6051
 30
0.0
 10
6.3337
 20
41.6051
 30
0.0
 10
6.501
 20
41.4359
 30
0.0
 10
6.501
 20
41.4359
 30
0.0
 10
6.501
 20
41.4359
 30
0.0
 10
6.501
 20
41.4359
 30
0.0
 10
5.5396
 20
40.4638
 30
0.0
 10
5.5396
 20
40.4638
 30
0.0
 10
5.5396
 20
40.4638
 30
0.0
 10
5.5396
 20
40.4638
 30
0.0
 10
4.5783
 20
41.4359
 30
0.0
 10
4.5783
 20
41.4359
 30
0.0
 10
4.5783
 20
41.4359
 30
0.0
 10
4.5783
 20
41.4359
 30
0.0
 10
4.7456
 20
41.6051
 30
0.0
 10
4.7456
 20
41.6051
 30
0.0
  0
SPLINE
  5
149
330
1F
100
AcDbEntity
  8
Layer 1
 62
   250
100
AcDbSpline
210
0.0
220
0.0
230
1.0
 70
    11
 71
     3
 72
    20
 73
    16
 74
     0
 42
0.000000001
 43
0.0000000001
 40
0.0
 40
0.0
 40
0.0
 40
0.0
 40
0.2
 40
0.2
 40
0.2
 40
0.2
 40
0.4
 40
0.4
 40
0.4
 40
0.4
 40
0.6
 40
0.6
 40
0.6
 40
0.6
 40
1.0
 40
1.0
 40
1.0
 40
1.0
 10
1.67
 20
41.6051
 30
0.0
 10
1.67
 20
41.6051
 30
0.0
 10
3.796
 20
41.6051
 30
0.0
 10
3.796
 20
41.6051
 30
0.0
 10
3.796
 20
41.6051
 30
0.0
 10
3.796
 20
41.6051
 30
0.0
 10
2.5577
 20
40.3576
 30
0.0
 10
2.5577
 20
40.3576
 30
0.0
 10
2.5577
 20
40.3576
 30
0.0
 10
2.5577
 20
40.3576
 30
0.0
 10
1.5001
 20
41.4339
 30
0.0
 10
1.5001
 20
41.4339
 30
0.0
 10
1.5001
 20
41.4339
 30
0.0
 10
1.5001
 20
41.4339
 30
0.0
 10
1.67
 20
41.6051
 30
0.0
 10
1.67
 20
41.6051
 30
0.0
  0
SPLINE
  5
14A
330
1F
100
AcDbEntity
  8
Layer 1
 62
   250
100
AcDbSpline
210
0.0
220
0.0
230
1.0
 70
    11
 71
     3
 72
    20
 73
    16
 74
     0
 42
0.000000001
 43
0.0000000001
 40
0.0
 40
0.0
 40
0.0
 40
0.0
 40
0.2
 40
0.2
 40
0.2
 40
0.2
 40
0.4
 40
0.4
 40
0.4
 40
0.4
 40
0.6
 40
0.6
 40
0.6
 40
0.6
 40
1.0
 40
1.0
 40
1.0
 40
1.0
 10
-1.3689
 20
41.6051
 30
0.0
 10
-1.3689
 20
41.6051
 30
0.0
 10
0.7041
 20
41.6051
 30
0.0
 10
0.7041
 20
41.6051
 30
0.0
 10
0.7041
 20
41.6051
 30
0.0
 10
0.7041
 20
41.6051
 30
0.0
 10
-2.2773
 20
38.5665
 30
0.0
 10
-2.2773
 20
38.5665
 30
0.0
 10
-2.2773
 20
38.5665
 30
0.0
 10
-2.2773
 20
38.5665
 30
0.0
 10
-3.3256
 20
39.6265
 30
0.0
 10
-3.3256
 20
39.6265
 30
0.0
 10
-3.3256
 20
39.6265
 30
0.0
 10
-3.3256
 20
39.6265
 30
0.0
 10
-1.3689
 20
41.6051
 30
0.0
 10
-1.3689
 20
41.6051
 30
0.0
  0
SPLINE
  5
14B
330
1F
100
AcDbEntity
  8
Layer 1
 62
   250
100
AcDbSpline
210
0.0
220
0.0
230
1.0
 70
    11
 71
     3
 72
    24
 73
    20
 74
     0
 42
0.000000001
 43
0.0000000001
 40
0.0
 40
0.0
 40
0.0
 40
0.0
 40
0.1666666666666667
 40
0.1666666666666667
 40
0.1666666666666667
 40
0.1666666666666667
 40
0.3333333333333333
 40
0.3333333333333333
 40
0.3333333333333333
 40
0.3333333333333333
 40
0.5
 40
0.5
 40
0.5
 40
0.5
 40
0.6666666666666666
 40
0.6666666666666666
 40
0.6666666666666666
 40
0.6666666666666666
 40
1.0
 40
1.0
 40
1.0
 40
1.0
 10
-4.5068
 20
41.6051
 30
0.0
 10
-4.5068
 20
41.6051
 30
0.0
 10
-2.7719
 20
41.6051
 30
0.0
 10
-2.7719
 20
41.6051
 30
0.0
 10
-2.7719
 20
41.6051
 30
0.0
 10
-2.7719
 20
41.6051
 30
0.0
 10
-2.5846
 20
41.4171
 30
0.0
 10
-2.5846
 20
41.4171
 30
0.0
 10
-2.5846
 20
41.4171
 30
0.0
 10
-2.5846
 20
41.4171
 30
0.0
 10
-5.0875
 20
38.9137
 30
0.0
 10
-5.0875
 20
38.9137
 30
0.0
 10
-5.0875
 20
38.9137
 30
0.0
 10
-5.0875
 20
38.9137
 30
0.0
 10
-6.1632
 20
39.9352
 30
0.0
 10
-6.1632
 20
39.9352
 30
0.0
 10
-6.1632
 20
39.9352
 30
0.0
 10
-6.1632
 20
39.9352
 30
0.0
 10
-4.5068
 20
41.6051
 30
0.0
 10
-4.5068
 20
41.6051
 30
0.0
  0
SPLINE
  5
14C
330
1F
100
AcDbEntity
  8
Layer 1
 62
   250
100
AcDbSpline
210
0.0
220
0.0
230
1.0
 70
    11
 71
     3
 72
    24
 73
    20
 74
     0
 42
0.000000001
 43
0.0000000001
 40
0.0
 40
0.0
 40
0.0
 40
0.0
 40
0.1666666666666667
 40
0.1666666666666667
 40
0.1666666666666667
 40
0.1666666666666667
 40
0.3333333333333333
 40
0.3333333333333333
 40
0.3333333333333333
 40
0.3333333333333333
 40
0.5
 40
0.5
 40
0.5
 40
0.5
 40
0.6666666666666666
 40
0.6666666666666666
 40
0.6666666666666666
 40
0.6666666666666666
 40
1.0
 40
1.0
 40
1.0
 40
1.0
 10
-7.4
 20
41.6051
 30
0.0
 10
-7.4
 20
41.6051
 30
0.0
 10
-5.8843
 20
41.6051
 30
0.0
 10
-5.8843
 20
41.6051
 30
0.0
 10
-5.8843
 20
41.6051
 30
0.0
 10
-5.8843
 20
41.6051
 30
0.0
 10
-5.6808
 20
41.3993
 30
0.0
 10
-5.6808
 20
41.3993
 30
0.0
 10
-5.6808
 20
41.3993
 30
0.0
 10
-5.6808
 20
41.3993
 30
0.0
 10
-6.6421
 20
40.4272
 30
0.0
 10
-6.6421
 20
40.4272
 30
0.0
 10
-6.6421
 20
40.4272
 30
0.0
 10
-6.6421
 20
40.4272
 30
0.0
 10
-7.6035
 20
41.3993
 30
0.0
 10
-7.6035
 20
41.3993
 30
0.0
 10
-7.6035
 20
41.3993
 30
0.0
 10
-7.6035
 20
41.3993
 30
0.0
 10
-7.4
 20
41.6051
 30
0.0
 10
-7.4
 20
41.6051
 30
0.0
  0
SPLINE
  5
14D
330
1F
100
AcDbEntity
  8
Layer 1
 62
   250
100
AcDbSpline
210
0.0
220
0.0
230
1.0
 70
    11
 71
     3
 72
    20
 73
    16
 74
     0
 42
0.000000001
 43
0.0000000001
 40
0.0
 40
0.0
 40
0.0
 40
0.0
 40
0.2
 40
0.2
 40
0.2
 40
0.2
 40
0.4
 40
0.4
 40
0.4
 40
0.4
 40
0.6
 40
0.6
 40
0.6
 40
0.6
 40
1.0
 40
1.0
 40
1.0
 40
1.0
 10
-10.5143
 20
41.6051
 30
0.0
 10
-10.5143
 20
41.6051
 30
0.0
 10
-8.3947
 20
41.6051
 30
0.0
 10
-8.3947
 20
41.6051
 30
0.0
 10
-8.3947
 20
41.6051
 30
0.0
 10
-8.3947
 20
41.6051
 30
0.0
 10
-9.624
 20
40.3576
 30
0.0
 10
-9.624
 20
40.3576
 30
0.0
 10
-9.624
 20
40.3576
 30
0.0
 10
-9.624
 20
40.3576
 30
0.0
 10
-10.6817
 20
41.4339
 30
0.0
 10
-10.6817
 20
41.4339
 30
0.0
 10
-10.6817
 20
41.4339
 30
0.0
 10
-10.6817
 20
41.4339
 30
0.0
 10
-10.5143
 20
41.6051
 30
0.0
 10
-10.5143
 20
41.6051
 30
0.0
  0
ENDSEC
  0
SECTION
  2
OBJECTS
  0
DICTIONARY
  5
C
330
0
100
AcDbDictionary
281
     1
  3
ACAD_DETAILVIEWSTYLE
350
193
  3
ACAD_GROUP
350
D
  3
ACAD_LAYOUT
350
1A
  3
ACAD_MATERIAL
350
43
  3
ACAD_MLEADERSTYLE
350
6B
  3
ACAD_MLINESTYLE
350
17
  3
ACAD_PLOTSETTINGS
350
19
  3
ACAD_PLOTSTYLENAME
350
E
  3
ACAD_SCALELIST
350
47
  3
ACAD_SECTIONVIEWSTYLE
350
194
  3
ACAD_TABLESTYLE
350
69
  3
ACAD_VISUALSTYLE
350
2A
  3
ACDB_RECOMPOSE_DATA
350
190
  3
AcDbVariableDictionary
350
150
  0
DICTIONARY
  5
14E
330
8
100
AcDbDictionary
280
     1
281
     1
  3
ACAD_XREC_ROUNDTRIP
360
14F
  0
DICTIONARY
  5
193
102
{ACAD_REACTORS
330
C
102
}
330
C
100
AcDbDictionary
281
     1
  0
DICTIONARY
  5
D
102
{ACAD_REACTORS
330
C
102
}
330
C
100
AcDbDictionary
281
     1
  0
DICTIONARY
  5
1A
102
{ACAD_REACTORS
330
C
102
}
330
C
100
AcDbDictionary
281
     1
  3
Layout1
350
1E
  3
Layout2
350
26
  3
Model
350
22
  0
DICTIONARY
  5
43
102
{ACAD_REACTORS
330
C
102
}
330
C
100
AcDbDictionary
281
     1
  3
ByBlock
350
45
  3
ByLayer
350
44
  3
Global
350
46
  0
DICTIONARY
  5
6B
102
{ACAD_REACTORS
330
C
102
}
330
C
100
AcDbDictionary
281
     1
  3
Standard
350
6C
  0
DICTIONARY
  5
17
102
{ACAD_REACTORS
330
C
102
}
330
C
100
AcDbDictionary
281
     1
  3
Standard
350
18
  0
DICTIONARY
  5
19
102
{ACAD_REACTORS
330
C
102
}
330
C
100
AcDbDictionary
281
     1
  0
ACDBDICTIONARYWDFLT
  5
E
102
{ACAD_REACTORS
330
C
102
}
330
C
100
AcDbDictionary
281
     1
  3
Normal
350
F
100
AcDbDictionaryWithDefault
340
F
  0
DICTIONARY
  5
47
102
{ACAD_REACTORS
330
C
102
}
330
C
100
AcDbDictionary
281
     1
  3
A0
350
48
  3
A1
350
49
  3
A2
350
4A
  3
A3
350
4B
  3
A4
350
4C
  3
A5
350
4D
  3
A6
350
4E
  3
A7
350
4F
  3
A8
350
50
  3
A9
350
51
  3
B0
350
52
  3
B1
350
53
  3
B2
350
54
  3
B3
350
55
  3
B4
350
56
  3
B5
350
57
  3
B6
350
58
  3
B7
350
59
  3
B8
350
5A
  3
B9
350
5B
  3
C0
350
5C
  3
C1
350
5D
  3
C2
350
5E
  3
C3
350
5F
  3
C4
350
60
  3
C5
350
61
  3
C6
350
62
  3
C7
350
63
  3
C8
350
64
  3
C9
350
65
  3
D0
350
66
  3
D1
350
67
  3
D2
350
68
  0
DICTIONARY
  5
194
102
{ACAD_REACTORS
330
C
102
}
330
C
100
AcDbDictionary
281
     1
  0
DICTIONARY
  5
69
102
{ACAD_REACTORS
330
C
102
}
330
C
100
AcDbDictionary
281
     1
  3
Standard
350
6A
  0
DICTIONARY
  5
2A
102
{ACAD_REACTORS
330
C
102
}
330
C
100
AcDbDictionary
281
     1
  3
2dWireframe
350
2F
  3
Basic
350
32
  3
Brighten
350
36
  3
ColorChange
350
3A
  3
Conceptual
350
34
  3
Dim
350
35
  3
EdgeColorOff
350
3D
  3
Facepattern
350
39
  3
Flat
350
2B
  3
FlatWithEdges
350
2C
  3
Gouraud
350
2D
  3
GouraudWithEdges
350
2E
  3
Hidden
350
31
  3
JitterOff
350
3B
  3
Linepattern
350
38
  3
OverhangOff
350
3C
  3
Realistic
350
33
  3
Shaded
350
42
  3
Shaded with edges
350
41
  3
Shades of Gray
350
3E
  3
Sketchy
350
3F
  3
Thicken
350
37
  3
Wireframe
350
30
  3
X-Ray
350
40
  0
XRECORD
  5
190
102
{ACAD_REACTORS
330
C
102
}
330
C
100
AcDbXrecord
280
     1
 90
        1
330
6A
  0
DICTIONARY
  5
150
102
{ACAD_REACTORS
330
C
102
}
330
C
100
AcDbDictionary
281
     1
  3
CANNOSCALE
350
151
  3
CMLEADERSTYLE
350
192
  3
CTABLESTYLE
350
191
  3
MSLTSCALE
350
152
  3
XCLIPFRAME
350
153
  0
XRECORD
  5
14F
102
{ACAD_REACTORS
330
14E
102
}
330
14E
100
AcDbXrecord
280
     1
102
VTR_0.000_0.000_1.000_1.000_GRIDDISPLAY
 70
     3
102
VTR_0.000_0.000_1.000_1.000_GRIDMAJOR
 70
     5
102
VTR_0.000_0.000_1.000_1.000_DEFAULTLIGHTING
280
     1
102
VTR_0.000_0.000_1.000_1.000_DEFAULTLIGHTINGTYPE
 70
     1
102
VTR_0.000_0.000_1.000_1.000_BRIGHTNESS
141
0.0
102
VTR_0.000_0.000_1.000_1.000_CONTRAST
142
0.0
  0
LAYOUT
  5
1E
102
{ACAD_REACTORS
330
1A
102
}
330
1A
100
AcDbPlotSettings
  1

  2
none_device
  4

  6

 40
0.0
 41
0.0
 42
0.0
 43
0.0
 44
0.0
 45
0.0
 46
0.0
 47
0.0
 48
0.0
 49
0.0
140
0.0
141
0.0
142
1.0
143
1.0
 70
   688
 72
     0
 73
     0
 74
     5
  7

 75
    16
 76
     0
 77
     2
 78
   300
147
1.0
148
0.0
149
0.0
100
AcDbLayout
  1
Layout1
 70
     1
 71
     1
 10
0.0
 20
0.0
 11
12.0
 21
9.0
 12
0.0
 22
0.0
 32
0.0
 14
1.000000000000000E+20
 24
1.000000000000000E+20
 34
1.000000000000000E+20
 15
-1.000000000000000E+20
 25
-1.000000000000000E+20
 35
-1.000000000000000E+20
146
0.0
 13
0.0
 23
0.0
 33
0.0
 16
1.0
 26
0.0
 36
0.0
 17
0.0
 27
1.0
 37
0.0
 76
     0
330
1B
  0
LAYOUT
  5
26
102
{ACAD_REACTORS
330
1A
102
}
330
1A
100
AcDbPlotSettings
  1

  2
none_device
  4

  6

 40
0.0
 41
0.0
 42
0.0
 43
0.0
 44
0.0
 45
0.0
 46
0.0
 47
0.0
 48
0.0
 49
0.0
140
0.0
141
0.0
142
1.0
143
1.0
 70
   688
 72
     0
 73
     0
 74
     5
  7

 75
    16
 76
     0
 77
     2
 78
   300
147
1.0
148
0.0
149
0.0
100
AcDbLayout
  1
Layout2
 70
     1
 71
     2
 10
0.0
 20
0.0
 11
0.0
 21
0.0
 12
0.0
 22
0.0
 32
0.0
 14
0.0
 24
0.0
 34
0.0
 15
0.0
 25
0.0
 35
0.0
146
0.0
 13
0.0
 23
0.0
 33
0.0
 16
1.0
 26
0.0
 36
0.0
 17
0.0
 27
1.0
 37
0.0
 76
     0
330
23
  0
LAYOUT
  5
22
102
{ACAD_REACTORS
330
1A
102
}
330
1A
100
AcDbPlotSettings
  1

  2
none_device
  4
Letter_(8.50_x_11.00_Inches)
  6

 40
6.35
 41
6.35
 42
6.35000508
 43
6.35000508
 44
215.9
 45
279.4
 46
0.0
 47
0.0
 48
0.0
 49
0.0
140
0.0
141
0.0
142
1.0
143
1.0
 70
  1712
 72
     0
 73
     0
 74
     0
  7

 75
     0
 76
     0
 77
     2
 78
   300
147
1.0
148
0.0
149
0.0
100
AcDbLayout
  1
Model
 70
     1
 71
     0
 10
0.0
 20
0.0
 11
12.0
 21
9.0
 12
0.0
 22
0.0
 32
0.0
 14
-11.3866
 24
-43.3142
 34
0.0
 15
11.3866
 25
43.3143
 35
0.0
146
0.0
 13
0.0
 23
0.0
 33
0.0
 16
1.0
 26
0.0
 36
0.0
 17
0.0
 27
1.0
 37
0.0
 76
     0
330
1F
331
29
  0
MATERIAL
  5
45
102
{ACAD_REACTORS
330
43
102
}
102
{ACAD_XDICTIONARY
360
186
102
}
330
43
100
AcDbMaterial
  1
ByBlock
  0
MATERIAL
  5
44
102
{ACAD_REACTORS
330
43
102
}
102
{ACAD_XDICTIONARY
360
184
102
}
330
43
100
AcDbMaterial
  1
ByLayer
  0
MATERIAL
  5
46
102
{ACAD_REACTORS
330
43
102
}
102
{ACAD_XDICTIONARY
360
188
102
}
330
43
100
AcDbMaterial
  1
Global
  0
MLEADERSTYLE
  5
6C
102
{ACAD_REACTORS
330
6B
102
}
102
{ACAD_XDICTIONARY
360
18E
102
}
330
6B
100
AcDbMLeaderStyle
170
     2
171
     1
172
     0
 90
        2
 40
0.0
 41
0.0
173
     1
 91
-1056964608
340
14
 92
       -2
290
     1
 42
0.09
291
     1
 43
0.36
  3
Standard
341
0
 44
0.18
300

342
11
174
     1
178
     6
175
     1
176
     0
 93
-1056964608
 45
0.18
292
     0
297
     0
 46
0.18
343
0
 94
-1056964608
 47
1.0
 49
1.0
140
1.0
293
     1
141
0.0
294
     1
177
     0
142
1.0
295
     0
296
     0
143
0.125
1001
ACAD_MLEADERVER
1070
     2
  0
MLINESTYLE
  5
18
102
{ACAD_REACTORS
330
17
102
}
330
17
100
AcDbMlineStyle
  2
Standard
 70
     0
  3

 62
   256
 51
90.0
 52
90.0
 71
     2
 49
0.5
 62
   256
  6
BYLAYER
 49
-0.5
 62
   256
  6
BYLAYER
  0
ACDBPLACEHOLDER
  5
F
102
{ACAD_REACTORS
330
E
102
}
330
E
  0
SCALE
  5
48
102
{ACAD_REACTORS
330
47
102
}
330
47
100
AcDbScale
 70
     0
300
1:1
140
1.0
141
1.0
290
     1
  0
SCALE
  5
49
102
{ACAD_REACTORS
330
47
102
}
330
47
100
AcDbScale
 70
     0
300
1:2
140
1.0
141
2.0
290
     0
  0
SCALE
  5
4A
102
{ACAD_REACTORS
330
47
102
}
330
47
100
AcDbScale
 70
     0
300
1:4
140
1.0
141
4.0
290
     0
  0
SCALE
  5
4B
102
{ACAD_REACTORS
330
47
102
}
330
47
100
AcDbScale
 70
     0
300
1:5
140
1.0
141
5.0
290
     0
  0
SCALE
  5
4C
102
{ACAD_REACTORS
330
47
102
}
330
47
100
AcDbScale
 70
     0
300
1:8
140
1.0
141
8.0
290
     0
  0
SCALE
  5
4D
102
{ACAD_REACTORS
330
47
102
}
330
47
100
AcDbScale
 70
     0
300
1:10
140
1.0
141
10.0
290
     0
  0
SCALE
  5
4E
102
{ACAD_REACTORS
330
47
102
}
330
47
100
AcDbScale
 70
     0
300
1:16
140
1.0
141
16.0
290
     0
  0
SCALE
  5
4F
102
{ACAD_REACTORS
330
47
102
}
330
47
100
AcDbScale
 70
     0
300
1:20
140
1.0
141
20.0
290
     0
  0
SCALE
  5
50
102
{ACAD_REACTORS
330
47
102
}
330
47
100
AcDbScale
 70
     0
300
1:30
140
1.0
141
30.0
290
     0
  0
SCALE
  5
51
102
{ACAD_REACTORS
330
47
102
}
330
47
100
AcDbScale
 70
     0
300
1:40
140
1.0
141
40.0
290
     0
  0
SCALE
  5
52
102
{ACAD_REACTORS
330
47
102
}
330
47
100
AcDbScale
 70
     0
300
1:50
140
1.0
141
50.0
290
     0
  0
SCALE
  5
53
102
{ACAD_REACTORS
330
47
102
}
330
47
100
AcDbScale
 70
     0
300
1:100
140
1.0
141
100.0
290
     0
  0
SCALE
  5
54
102
{ACAD_REACTORS
330
47
102
}
330
47
100
AcDbScale
 70
     0
300
2:1
140
2.0
141
1.0
290
     0
  0
SCALE
  5
55
102
{ACAD_REACTORS
330
47
102
}
330
47
100
AcDbScale
 70
     0
300
4:1
140
4.0
141
1.0
290
     0
  0
SCALE
  5
56
102
{ACAD_REACTORS
330
47
102
}
330
47
100
AcDbScale
 70
     0
300
8:1
140
8.0
141
1.0
290
     0
  0
SCALE
  5
57
102
{ACAD_REACTORS
330
47
102
}
330
47
100
AcDbScale
 70
     0
300
10:1
140
10.0
141
1.0
290
     0
  0
SCALE
  5
58
102
{ACAD_REACTORS
330
47
102
}
330
47
100
AcDbScale
 70
     0
300
100:1
140
100.0
141
1.0
290
     0
  0
SCALE
  5
59
102
{ACAD_REACTORS
330
47
102
}
330
47
100
AcDbScale
 70
     0
300
1/128" = 1'-0"
140
0.0078125
141
12.0
290
     0
  0
SCALE
  5
5A
102
{ACAD_REACTORS
330
47
102
}
330
47
100
AcDbScale
 70
     0
300
1/64" = 1'-0"
140
0.015625
141
12.0
290
     0
  0
SCALE
  5
5B
102
{ACAD_REACTORS
330
47
102
}
330
47
100
AcDbScale
 70
     0
300
1/32" = 1'-0"
140
0.03125
141
12.0
290
     0
  0
SCALE
  5
5C
102
{ACAD_REACTORS
330
47
102
}
330
47
100
AcDbScale
 70
     0
300
1/16" = 1'-0"
140
0.0625
141
12.0
290
     0
  0
SCALE
  5
5D
102
{ACAD_REACTORS
330
47
102
}
330
47
100
AcDbScale
 70
     0
300
3/32" = 1'-0"
140
0.09375
141
12.0
290
     0
  0
SCALE
  5
5E
102
{ACAD_REACTORS
330
47
102
}
330
47
100
AcDbScale
 70
     0
300
1/8" = 1'-0"
140
0.125
141
12.0
290
     0
  0
SCALE
  5
5F
102
{ACAD_REACTORS
330
47
102
}
330
47
100
AcDbScale
 70
     0
300
3/16" = 1'-0"
140
0.1875
141
12.0
290
     0
  0
SCALE
  5
60
102
{ACAD_REACTORS
330
47
102
}
330
47
100
AcDbScale
 70
     0
300
1/4" = 1'-0"
140
0.25
141
12.0
290
     0
  0
SCALE
  5
61
102
{ACAD_REACTORS
330
47
102
}
330
47
100
AcDbScale
 70
     0
300
3/8" = 1'-0"
140
0.375
141
12.0
290
     0
  0
SCALE
  5
62
102
{ACAD_REACTORS
330
47
102
}
330
47
100
AcDbScale
 70
     0
300
1/2" = 1'-0"
140
0.5
141
12.0
290
     0
  0
SCALE
  5
63
102
{ACAD_REACTORS
330
47
102
}
330
47
100
AcDbScale
 70
     0
300
3/4" = 1'-0"
140
0.75
141
12.0
290
     0
  0
SCALE
  5
64
102
{ACAD_REACTORS
330
47
102
}
330
47
100
AcDbScale
 70
     0
300
1" = 1'-0"
140
1.0
141
12.0
290
     0
  0
SCALE
  5
65
102
{ACAD_REACTORS
330
47
102
}
330
47
100
AcDbScale
 70
     0
300
1-1/2" = 1'-0"
140
1.5
141
12.0
290
     0
  0
SCALE
  5
66
102
{ACAD_REACTORS
330
47
102
}
330
47
100
AcDbScale
 70
     0
300
3" = 1'-0"
140
3.0
141
12.0
290
     0
  0
SCALE
  5
67
102
{ACAD_REACTORS
330
47
102
}
330
47
100
AcDbScale
 70
     0
300
6" = 1'-0"
140
6.0
141
12.0
290
     0
  0
SCALE
  5
68
102
{ACAD_REACTORS
330
47
102
}
330
47
100
AcDbScale
 70
     0
300
1'-0" = 1'-0"
140
12.0
141
12.0
290
     0
  0
TABLESTYLE
  5
6A
102
{ACAD_REACTORS
330
69
102
}
102
{ACAD_XDICTIONARY
360
18A
102
}
330
69
100
AcDbTableStyle
  3
Standard
 70
     0
 71
     0
 40
0.06
 41
0.06
280
     0
281
     0
  7
Standard
140
0.18
170
     2
 62
     0
 63
   257
283
     0
274
    -2
284
     1
 64
     0
275
    -2
285
     1
 65
     0
276
    -2
286
     1
 66
     0
277
    -2
287
     1
 67
     0
278
    -2
288
     1
 68
     0
279
    -2
289
     1
 69
     0
  7
Standard
140
0.25
170
     5
 62
     0
 63
   257
283
     0
274
    -2
284
     1
 64
     0
275
    -2
285
     1
 65
     0
276
    -2
286
     1
 66
     0
277
    -2
287
     1
 67
     0
278
    -2
288
     1
 68
     0
279
    -2
289
     1
 69
     0
  7
Standard
140
0.18
170
     5
 62
     0
 63
   257
283
     0
274
    -2
284
     1
 64
     0
275
    -2
285
     1
 65
     0
276
    -2
286
     1
 66
     0
277
    -2
287
     1
 67
     0
278
    -2
288
     1
 68
     0
279
    -2
289
     1
 69
     0
  0
VISUALSTYLE
  5
2F
102
{ACAD_REACTORS
330
2A
102
}
102
{ACAD_XDICTIONARY
360
15C
102
}
330
2A
100
AcDbVisualStyle
  2
2dWireframe
 70
     4
 71
     0
 72
     2
 73
     0
 90
        0
 40
0.6
 41
30.0
 62
     5
 63
     7
421
 16777215
 74
     1
 91
        4
 64
     7
 65
   257
 75
     1
175
     1
 42
1.0
 92
        0
 66
   257
 43
1.0
 76
     1
 77
     6
 78
     2
 67
     7
 79
     5
170
     0
171
     0
290
     0
174
     0
 93
        1
 44
0.0
173
     0
291
     0
 45
0.0
1001
ACAD
1000
AcDbSavedByObjectVersion
1070
     0
  0
VISUALSTYLE
  5
32
102
{ACAD_REACTORS
330
2A
102
}
102
{ACAD_XDICTIONARY
360
162
102
}
330
2A
100
AcDbVisualStyle
  2
Basic
 70
     7
 71
     1
 72
     0
 73
     1
 90
        0
 40
0.6
 41
30.0
 62
     5
 63
     7
421
 16777215
 74
     0
 91
        4
 64
     7
 65
   257
 75
     1
175
     1
 42
1.0
 92
        8
 66
     7
 43
1.0
 76
     1
 77
     6
 78
     2
 67
     7
 79
     5
170
     0
171
     0
290
     0
174
     0
 93
        1
 44
0.0
173
     0
291
     1
 45
0.0
1001
ACAD
1000
AcDbSavedByObjectVersion
1070
     0
  0
VISUALSTYLE
  5
36
102
{ACAD_REACTORS
330
2A
102
}
102
{ACAD_XDICTIONARY
360
16A
102
}
330
2A
100
AcDbVisualStyle
  2
Brighten
 70
    12
 71
     2
 72
     2
 73
     0
 90
        0
 40
0.6
 41
30.0
 62
     5
 63
     7
421
 16777215
 74
     1
 91
        4
 64
     7
 65
   257
 75
     1
175
     1
 42
1.0
 92
        8
 66
     7
 43
1.0
 76
     1
 77
     6
 78
     2
 67
     7
 79
     5
170
     0
171
     0
290
     0
174
     0
 93
        1
 44
50.0
173
     0
291
     1
 45
0.0
1001
ACAD
1000
AcDbSavedByObjectVersion
1070
     0
  0
VISUALSTYLE
  5
3A
102
{ACAD_REACTORS
330
2A
102
}
102
{ACAD_XDICTIONARY
360
172
102
}
330
2A
100
AcDbVisualStyle
  2
ColorChange
 70
    16
 71
     2
 72
     2
 73
     3
 90
        0
 40
0.6
 41
30.0
 62
     5
 63
     8
421
  8421504
 74
     1
 91
        4
 64
     7
 65
   257
 75
     1
175
     1
 42
1.0
 92
        8
 66
     8
424
  8421504
 43
1.0
 76
     1
 77
     6
 78
     2
 67
     7
 79
     5
170
     0
171
     0
290
     0
174
     0
 93
        1
 44
0.0
173
     0
291
     1
 45
0.0
1001
ACAD
1000
AcDbSavedByObjectVersion
1070
     0
  0
VISUALSTYLE
  5
34
102
{ACAD_REACTORS
330
2A
102
}
102
{ACAD_XDICTIONARY
360
166
102
}
330
2A
100
AcDbVisualStyle
  2
Conceptual
 70
     9
 71
     3
 72
     2
 73
     0
 90
        0
 40
0.6
 41
30.0
 62
     5
 63
     7
421
 16777215
 74
     2
 91
        2
 64
     7
 65
   257
 75
     1
175
     1
 42
179.0
 92
        8
 66
     7
 43
1.0
 76
     1
 77
     6
 78
     2
 67
     7
 79
     3
170
     0
171
     0
290
     0
174
     0
 93
        1
 44
0.0
173
     0
291
     0
 45
0.0
1001
ACAD
1000
AcDbSavedByObjectVersion
1070
     0
  0
VISUALSTYLE
  5
35
102
{ACAD_REACTORS
330
2A
102
}
102
{ACAD_XDICTIONARY
360
168
102
}
330
2A
100
AcDbVisualStyle
  2
Dim
 70
    11
 71
     2
 72
     2
 73
     0
 90
        0
 40
0.6
 41
30.0
 62
     5
 63
     7
421
 16777215
 74
     1
 91
        4
 64
     7
 65
   257
 75
     1
175
     1
 42
1.0
 92
        8
 66
     7
 43
1.0
 76
     1
 77
     6
 78
     2
 67
     7
 79
     5
170
     0
171
     0
290
     0
174
     0
 93
        1
 44
-50.0
173
     0
291
     1
 45
0.0
1001
ACAD
1000
AcDbSavedByObjectVersion
1070
     0
  0
VISUALSTYLE
  5
3D
102
{ACAD_REACTORS
330
2A
102
}
102
{ACAD_XDICTIONARY
360
178
102
}
330
2A
100
AcDbVisualStyle
  2
EdgeColorOff
 70
    22
 71
     2
 72
     2
 73
     0
 90
        0
 40
0.6
 41
30.0
 62
     5
 63
     7
421
 16777215
 74
     1
 91
        4
 64
     7
 65
   257
 75
     1
175
     1
 42
1.0
 92
        8
 66
     7
 43
1.0
 76
     1
 77
     6
 78
     2
 67
     7
 79
     5
170
     0
171
     0
290
     0
174
     0
 93
        1
 44
0.0
173
     0
291
     1
 45
0.0
1001
ACAD
1000
AcDbSavedByObjectVersion
1070
     0
  0
VISUALSTYLE
  5
39
102
{ACAD_REACTORS
330
2A
102
}
102
{ACAD_XDICTIONARY
360
170
102
}
330
2A
100
AcDbVisualStyle
  2
Facepattern
 70
    15
 71
     2
 72
     2
 73
     0
 90
        0
 40
0.6
 41
30.0
 62
     5
 63
     7
421
 16777215
 74
     1
 91
        4
 64
     7
 65
   257
 75
     1
175
     1
 42
1.0
 92
        8
 66
     7
 43
1.0
 76
     1
 77
     6
 78
     2
 67
     7
 79
     5
170
     0
171
     0
290
     0
174
     0
 93
        1
 44
0.0
173
     0
291
     1
 45
0.0
1001
ACAD
1000
AcDbSavedByObjectVersion
1070
     0
  0
VISUALSTYLE
  5
2B
102
{ACAD_REACTORS
330
2A
102
}
102
{ACAD_XDICTIONARY
360
154
102
}
330
2A
100
AcDbVisualStyle
  2
Flat
 70
     0
 71
     2
 72
     1
 73
     1
 90
        2
 40
0.6
 41
30.0
 62
     5
 63
     7
421
 16777215
 74
     0
 91
        0
 64
     7
 65
   257
 75
     1
175
     1
 42
1.0
 92
        8
 66
     7
 43
1.0
 76
     1
 77
     6
 78
     2
 67
     7
 79
     5
170
     0
171
     0
290
     0
174
     0
 93
       13
 44
0.0
173
     0
291
     1
 45
0.0
1001
ACAD
1000
AcDbSavedByObjectVersion
1070
     0
  0
VISUALSTYLE
  5
2C
102
{ACAD_REACTORS
330
2A
102
}
102
{ACAD_XDICTIONARY
360
156
102
}
330
2A
100
AcDbVisualStyle
  2
FlatWithEdges
 70
     1
 71
     2
 72
     1
 73
     1
 90
        2
 40
0.6
 41
30.0
 62
     5
 63
     7
421
 16777215
 74
     1
 91
        0
 64
     7
 65
   257
 75
     1
175
     1
 42
1.0
 92
        0
 66
   257
 43
1.0
 76
     1
 77
     6
 78
     2
 67
     7
 79
     5
170
     0
171
     0
290
     0
174
     0
 93
       13
 44
0.0
173
     0
291
     1
 45
0.0
1001
ACAD
1000
AcDbSavedByObjectVersion
1070
     0
  0
VISUALSTYLE
  5
2D
102
{ACAD_REACTORS
330
2A
102
}
102
{ACAD_XDICTIONARY
360
158
102
}
330
2A
100
AcDbVisualStyle
  2
Gouraud
 70
     2
 71
     2
 72
     2
 73
     1
 90
        2
 40
0.6
 41
30.0
 62
     5
 63
     7
421
 16777215
 74
     0
 91
        0
 64
     7
 65
   257
 75
     1
175
     1
 42
1.0
 92
        0
 66
     7
 43
1.0
 76
     1
 77
     6
 78
     2
 67
     7
 79
     5
170
     0
171
     0
290
     0
174
     0
 93
       13
 44
0.0
173
     0
291
     1
 45
0.0
1001
ACAD
1000
AcDbSavedByObjectVersion
1070
     0
  0
VISUALSTYLE
  5
2E
102
{ACAD_REACTORS
330
2A
102
}
102
{ACAD_XDICTIONARY
360
15A
102
}
330
2A
100
AcDbVisualStyle
  2
GouraudWithEdges
 70
     3
 71
     2
 72
     2
 73
     1
 90
        2
 40
0.6
 41
30.0
 62
     5
 63
     7
421
 16777215
 74
     1
 91
        0
 64
     7
 65
   257
 75
     1
175
     1
 42
1.0
 92
        0
 66
   257
 43
1.0
 76
     1
 77
     6
 78
     2
 67
     7
 79
     5
170
     0
171
     0
290
     0
174
     0
 93
       13
 44
0.0
173
     0
291
     1
 45
0.0
1001
ACAD
1000
AcDbSavedByObjectVersion
1070
     0
  0
VISUALSTYLE
  5
31
102
{ACAD_REACTORS
330
2A
102
}
102
{ACAD_XDICTIONARY
360
160
102
}
330
2A
100
AcDbVisualStyle
  2
Hidden
 70
     6
 71
     1
 72
     2
 73
     2
 90
        0
 40
0.6
 41
30.0
 62
     5
 63
     7
421
 16777215
 74
     2
 91
        2
 64
     7
 65
   257
 75
     2
175
     1
 42
40.0
 92
        0
 66
   257
 43
1.0
 76
     1
 77
     6
 78
     2
 67
     7
 79
     3
170
     0
171
     0
290
     0
174
     0
 93
        1
 44
0.0
173
     0
291
     0
 45
0.0
1001
ACAD
1000
AcDbSavedByObjectVersion
1070
     0
  0
VISUALSTYLE
  5
3B
102
{ACAD_REACTORS
330
2A
102
}
102
{ACAD_XDICTIONARY
360
174
102
}
330
2A
100
AcDbVisualStyle
  2
JitterOff
 70
    20
 71
     2
 72
     2
 73
     0
 90
        0
 40
0.6
 41
30.0
 62
     5
 63
     7
421
 16777215
 74
     1
 91
        4
 64
     7
 65
   257
 75
     1
175
     1
 42
1.0
 92
       10
 66
     7
 43
1.0
 76
     1
 77
     6
 78
     2
 67
     7
 79
     5
170
     0
171
     0
290
     0
174
     0
 93
        1
 44
0.0
173
     0
291
     1
 45
0.0
1001
ACAD
1000
AcDbSavedByObjectVersion
1070
     0
  0
VISUALSTYLE
  5
38
102
{ACAD_REACTORS
330
2A
102
}
102
{ACAD_XDICTIONARY
360
16E
102
}
330
2A
100
AcDbVisualStyle
  2
Linepattern
 70
    14
 71
     2
 72
     2
 73
     0
 90
        0
 40
0.6
 41
30.0
 62
     5
 63
     7
421
 16777215
 74
     1
 91
        4
 64
     7
 65
   257
 75
     7
175
     7
 42
1.0
 92
        8
 66
     7
 43
1.0
 76
     1
 77
     6
 78
     2
 67
     7
 79
     5
170
     0
171
     0
290
     0
174
     0
 93
        1
 44
0.0
173
     0
291
     1
 45
0.0
1001
ACAD
1000
AcDbSavedByObjectVersion
1070
     0
  0
VISUALSTYLE
  5
3C
102
{ACAD_REACTORS
330
2A
102
}
102
{ACAD_XDICTIONARY
360
176
102
}
330
2A
100
AcDbVisualStyle
  2
OverhangOff
 70
    21
 71
     2
 72
     2
 73
     0
 90
        0
 40
0.6
 41
30.0
 62
     5
 63
     7
421
 16777215
 74
     1
 91
        4
 64
     7
 65
   257
 75
     1
175
     1
 42
1.0
 92
        9
 66
     7
 43
1.0
 76
     1
 77
     6
 78
     2
 67
     7
 79
     5
170
     0
171
     0
290
     0
174
     0
 93
        1
 44
0.0
173
     0
291
     1
 45
0.0
1001
ACAD
1000
AcDbSavedByObjectVersion
1070
     0
  0
VISUALSTYLE
  5
33
102
{ACAD_REACTORS
330
2A
102
}
102
{ACAD_XDICTIONARY
360
164
102
}
330
2A
100
AcDbVisualStyle
  2
Realistic
 70
     8
 71
     2
 72
     3
 73
     0
 90
        2
 40
0.6
 41
30.0
 62
     5
 63
     7
421
 16777215
 74
     0
 91
        0
 64
     7
 65
   257
 75
     1
175
     1
 42
1.0
 92
        8
 66
   257
 43
1.0
 76
     1
 77
     6
 78
     2
 67
     7
 79
     3
170
     0
171
     0
290
     0
174
     0
 93
       13
 44
0.0
173
     0
291
     0
 45
0.0
1001
ACAD
1000
AcDbSavedByObjectVersion
1070
     0
  0
VISUALSTYLE
  5
42
102
{ACAD_REACTORS
330
2A
102
}
102
{ACAD_XDICTIONARY
360
182
102
}
330
2A
100
AcDbVisualStyle
  2
Shaded
 70
    27
 71
     2
 72
     2
 73
     1
 90
        2
 40
0.6
 41
30.0
 62
     5
 63
     7
421
 16777215
 74
     0
 91
        4
 64
     7
 65
   257
 75
     1
175
     1
 42
1.0
 92
        8
 66
   257
 43
1.0
 76
     1
 77
     6
 78
     2
 67
     8
425
  7895160
 79
     3
170
     0
171
     0
290
     0
174
     0
 93
        5
 44
0.0
173
     0
291
     0
 45
0.0
1001
ACAD
1000
AcDbSavedByObjectVersion
1070
     0
  0
VISUALSTYLE
  5
41
102
{ACAD_REACTORS
330
2A
102
}
102
{ACAD_XDICTIONARY
360
180
102
}
330
2A
100
AcDbVisualStyle
  2
Shaded with edges
 70
    26
 71
     2
 72
     2
 73
     1
 90
        2
 40
0.6
 41
30.0
 62
     5
 63
     7
421
 16777215
 74
     1
 91
       10
 64
     7
 65
   257
 75
     2
175
     1
 42
1.0
 92
        8
 66
   257
 43
1.0
 76
     1
 77
     6
 78
     2
 67
     7
 79
     3
170
     0
171
     0
290
     0
174
     0
 93
        5
 44
0.0
173
     0
291
     0
 45
0.0
1001
ACAD
1000
AcDbSavedByObjectVersion
1070
     0
  0
VISUALSTYLE
  5
3E
102
{ACAD_REACTORS
330
2A
102
}
102
{ACAD_XDICTIONARY
360
17A
102
}
330
2A
100
AcDbVisualStyle
  2
Shades of Gray
 70
    23
 71
     2
 72
     2
 73
     3
 90
        0
 40
0.6
 41
30.0
 62
     5
 63
     7
421
 16777215
 74
     2
 91
        2
 64
     7
 65
     7
 75
     1
175
     1
 42
40.0
 92
        8
 66
     7
 43
1.0
 76
     1
 77
     6
 78
     2
 67
     7
 79
     3
170
     0
171
     0
290
     0
174
     0
 93
        1
 44
0.0
173
     0
291
     0
 45
0.0
1001
ACAD
1000
AcDbSavedByObjectVersion
1070
     0
  0
VISUALSTYLE
  5
3F
102
{ACAD_REACTORS
330
2A
102
}
102
{ACAD_XDICTIONARY
360
17C
102
}
330
2A
100
AcDbVisualStyle
  2
Sketchy
 70
    24
 71
     1
 72
     2
 73
     2
 90
        0
 40
0.6
 41
30.0
 62
     5
 63
     7
421
 16777215
 74
     2
 91
        2
 64
     7
 65
     7
 75
     1
175
     1
 42
40.0
 92
       11
 66
     7
 43
1.0
 76
     1
 77
     6
 78
     2
 67
     7
 79
     6
170
     0
171
     0
290
     0
174
     0
 93
        1
 44
0.0
173
     0
291
     0
 45
0.0
1001
ACAD
1000
AcDbSavedByObjectVersion
1070
     0
  0
VISUALSTYLE
  5
37
102
{ACAD_REACTORS
330
2A
102
}
102
{ACAD_XDICTIONARY
360
16C
102
}
330
2A
100
AcDbVisualStyle
  2
Thicken
 70
    13
 71
     2
 72
     2
 73
     0
 90
        0
 40
0.6
 41
30.0
 62
     5
 63
     7
421
 16777215
 74
     1
 91
        4
 64
     7
 65
   257
 75
     1
175
     1
 42
1.0
 92
       12
 66
     7
 43
1.0
 76
     1
 77
     6
 78
     2
 67
     7
 79
     5
170
     0
171
     0
290
     0
174
     0
 93
        1
 44
0.0
173
     0
291
     1
 45
0.0
1001
ACAD
1000
AcDbSavedByObjectVersion
1070
     0
  0
VISUALSTYLE
  5
30
102
{ACAD_REACTORS
330
2A
102
}
102
{ACAD_XDICTIONARY
360
15E
102
}
330
2A
100
AcDbVisualStyle
  2
Wireframe
 70
     5
 71
     0
 72
     2
 73
     0
 90
        0
 40
0.6
 41
30.0
 62
     5
 63
     7
421
 16777215
 74
     1
 91
        4
 64
     7
 65
   257
 75
     1
175
     1
 42
1.0
 92
        0
 66
   257
 43
1.0
 76
     1
 77
     6
 78
     2
 67
     7
 79
     3
170
     0
171
     0
290
     0
174
     0
 93
        1
 44
0.0
173
     0
291
     0
 45
0.0
1001
ACAD
1000
AcDbSavedByObjectVersion
1070
     0
  0
VISUALSTYLE
  5
40
102
{ACAD_REACTORS
330
2A
102
}
102
{ACAD_XDICTIONARY
360
17E
102
}
330
2A
100
AcDbVisualStyle
  2
X-Ray
 70
    25
 71
     2
 72
     2
 73
     1
 90
        1
 40
0.5
 41
30.0
 62
     5
 63
     7
421
 16777215
 74
     1
 91
        0
 64
     7
 65
   257
 75
     1
175
     1
 42
1.0
 92
        8
 66
     7
 43
1.0
 76
     1
 77
     6
 78
     2
 67
     7
 79
     3
170
     0
171
     0
290
     0
174
     0
 93
       13
 44
0.0
173
     0
291
     0
 45
0.0
1001
ACAD
1000
AcDbSavedByObjectVersion
1070
     0
  0
DICTIONARYVAR
  5
151
102
{ACAD_REACTORS
330
150
102
}
330
150
100
DictionaryVariables
280
     0
  1
1:1
  0
DICTIONARYVAR
  5
192
102
{ACAD_REACTORS
330
150
102
}
330
150
100
DictionaryVariables
280
     0
  1
Standard
  0
DICTIONARYVAR
  5
191
102
{ACAD_REACTORS
330
150
102
}
330
150
100
DictionaryVariables
280
     0
  1
Standard
  0
DICTIONARYVAR
  5
152
102
{ACAD_REACTORS
330
150
102
}
330
150
100
DictionaryVariables
280
     0
  1
1
  0
DICTIONARYVAR
  5
153
102
{ACAD_REACTORS
330
150
102
}
330
150
100
DictionaryVariables
280
     0
  1
2
  0
DICTIONARY
  5
186
330
45
100
AcDbDictionary
280
     1
281
     1
  3
ACAD_XREC_ROUNDTRIP
360
187
  0
DICTIONARY
  5
184
330
44
100
AcDbDictionary
280
     1
281
     1
  3
ACAD_XREC_ROUNDTRIP
360
185
  0
DICTIONARY
  5
188
330
46
100
AcDbDictionary
280
     1
281
     1
  3
ACAD_XREC_ROUNDTRIP
360
189
  0
DICTIONARY
  5
18E
330
6C
100
AcDbDictionary
280
     1
281
     1
  3
ACAD_XREC_ROUNDTRIP
360
18F
  0
DICTIONARY
  5
18A
330
6A
100
AcDbDictionary
280
     1
281
     1
  3
ACAD_ROUNDTRIP_2008_TABLESTYLE_CELLSTYLEMAP
360
18C
  3
ACAD_XREC_ROUNDTRIP
360
18B
  0
DICTIONARY
  5
15C
330
2F
100
AcDbDictionary
280
     1
281
     1
  3
ACAD_XREC_ROUNDTRIP
360
15D
  0
DICTIONARY
  5
162
330
32
100
AcDbDictionary
280
     1
281
     1
  3
ACAD_XREC_ROUNDTRIP
360
163
  0
DICTIONARY
  5
16A
330
36
100
AcDbDictionary
280
     1
281
     1
  3
ACAD_XREC_ROUNDTRIP
360
16B
  0
DICTIONARY
  5
172
330
3A
100
AcDbDictionary
280
     1
281
     1
  3
ACAD_XREC_ROUNDTRIP
360
173
  0
DICTIONARY
  5
166
330
34
100
AcDbDictionary
280
     1
281
     1
  3
ACAD_XREC_ROUNDTRIP
360
167
  0
DICTIONARY
  5
168
330
35
100
AcDbDictionary
280
     1
281
     1
  3
ACAD_XREC_ROUNDTRIP
360
169
  0
DICTIONARY
  5
178
330
3D
100
AcDbDictionary
280
     1
281
     1
  3
ACAD_XREC_ROUNDTRIP
360
179
  0
DICTIONARY
  5
170
330
39
100
AcDbDictionary
280
     1
281
     1
  3
ACAD_XREC_ROUNDTRIP
360
171
  0
DICTIONARY
  5
154
330
2B
100
AcDbDictionary
280
     1
281
     1
  3
ACAD_XREC_ROUNDTRIP
360
155
  0
DICTIONARY
  5
156
330
2C
100
AcDbDictionary
280
     1
281
     1
  3
ACAD_XREC_ROUNDTRIP
360
157
  0
DICTIONARY
  5
158
330
2D
100
AcDbDictionary
280
     1
281
     1
  3
ACAD_XREC_ROUNDTRIP
360
159
  0
DICTIONARY
  5
15A
330
2E
100
AcDbDictionary
280
     1
281
     1
  3
ACAD_XREC_ROUNDTRIP
360
15B
  0
DICTIONARY
  5
160
330
31
100
AcDbDictionary
280
     1
281
     1
  3
ACAD_XREC_ROUNDTRIP
360
161
  0
DICTIONARY
  5
174
330
3B
100
AcDbDictionary
280
     1
281
     1
  3
ACAD_XREC_ROUNDTRIP
360
175
  0
DICTIONARY
  5
16E
330
38
100
AcDbDictionary
280
     1
281
     1
  3
ACAD_XREC_ROUNDTRIP
360
16F
  0
DICTIONARY
  5
176
330
3C
100
AcDbDictionary
280
     1
281
     1
  3
ACAD_XREC_ROUNDTRIP
360
177
  0
DICTIONARY
  5
164
330
33
100
AcDbDictionary
280
     1
281
     1
  3
ACAD_XREC_ROUNDTRIP
360
165
  0
DICTIONARY
  5
182
330
42
100
AcDbDictionary
280
     1
281
     1
  3
ACAD_XREC_ROUNDTRIP
360
183
  0
DICTIONARY
  5
180
330
41
100
AcDbDictionary
280
     1
281
     1
  3
ACAD_XREC_ROUNDTRIP
360
181
  0
DICTIONARY
  5
17A
330
3E
100
AcDbDictionary
280
     1
281
     1
  3
ACAD_XREC_ROUNDTRIP
360
17B
  0
DICTIONARY
  5
17C
330
3F
100
AcDbDictionary
280
     1
281
     1
  3
ACAD_XREC_ROUNDTRIP
360
17D
  0
DICTIONARY
  5
16C
330
37
100
AcDbDictionary
280
     1
281
     1
  3
ACAD_XREC_ROUNDTRIP
360
16D
  0
DICTIONARY
  5
15E
330
30
100
AcDbDictionary
280
     1
281
     1
  3
ACAD_XREC_ROUNDTRIP
360
15F
  0
DICTIONARY
  5
17E
330
40
100
AcDbDictionary
280
     1
281
     1
  3
ACAD_XREC_ROUNDTRIP
360
17F
  0
XRECORD
  5
187
102
{ACAD_REACTORS
330
186
102
}
330
186
100
AcDbXrecord
280
     1
102
MATERIAL
148
0.0
149
0.0
149
0.0
 93
        0
 94
      127
282
     0
 72
     1
 77
     1
171
     1
175
     1
179
     1
273
     0
  0
XRECORD
  5
185
102
{ACAD_REACTORS
330
184
102
}
330
184
100
AcDbXrecord
280
     1
102
MATERIAL
148
0.0
149
0.0
149
0.0
 93
        0
 94
      127
282
     0
 72
     1
 77
     1
171
     1
175
     1
179
     1
273
     0
  0
XRECORD
  5
189
102
{ACAD_REACTORS
330
188
102
}
330
188
100
AcDbXrecord
280
     1
102
MATERIAL
148
0.0
149
0.0
149
0.0
 93
        0
 94
      127
282
     0
 72
     1
 77
     1
171
     1
175
     1
179
     1
273
     0
  0
XRECORD
  5
18F
102
{ACAD_REACTORS
330
18E
102
}
330
18E
100
AcDbXrecord
280
     1
102
ACAD_ROUNDTRIP_2010_MLEADER_STYLE
  0
CELLSTYLEMAP
  5
18C
102
{ACAD_REACTORS
330
18A
102
}
330
18A
100
AcDbCellStyleMap
 90
        3
300
CELLSTYLE
  1
TABLEFORMAT_BEGIN
 90
        5
170
     1
 91
        0
 92
    32768
 62
   257
 93
        1
300
CONTENTFORMAT
  1
CONTENTFORMAT_BEGIN
 90
        0
 91
        0
 92
        4
 93
        0
300

 40
0.0
140
1.0
 94
        5
 62
     0
340
11
144
0.25
309
CONTENTFORMAT_END
171
     1
301
MARGIN
  1
CELLMARGIN_BEGIN
 40
0.06
 40
0.06
 40
0.06
 40
0.06
 40
0.06
 40
0.06
309
CELLMARGIN_END
 94
        6
 95
        1
302
GRIDFORMAT
  1
GRIDFORMAT_BEGIN
 90
        0
 91
        1
 62
     0
 92
       -2
340
14
 93
        0
 40
0.045
309
GRIDFORMAT_END
 95
        2
302
GRIDFORMAT
  1
GRIDFORMAT_BEGIN
 90
        0
 91
        1
 62
     0
 92
       -2
340
14
 93
        0
 40
0.045
309
GRIDFORMAT_END
 95
        4
302
GRIDFORMAT
  1
GRIDFORMAT_BEGIN
 90
        0
 91
        1
 62
     0
 92
       -2
340
14
 93
        0
 40
0.045
309
GRIDFORMAT_END
 95
        8
302
GRIDFORMAT
  1
GRIDFORMAT_BEGIN
 90
        0
 91
        1
 62
     0
 92
       -2
340
14
 93
        0
 40
0.045
309
GRIDFORMAT_END
 95
       16
302
GRIDFORMAT
  1
GRIDFORMAT_BEGIN
 90
        0
 91
        1
 62
     0
 92
       -2
340
14
 93
        0
 40
0.045
309
GRIDFORMAT_END
 95
       32
302
GRIDFORMAT
  1
GRIDFORMAT_BEGIN
 90
        0
 91
        1
 62
     0
 92
       -2
340
14
 93
        0
 40
0.045
309
GRIDFORMAT_END
309
TABLEFORMAT_END
  1
CELLSTYLE_BEGIN
 90
        1
 91
        1
300
_TITLE
309
CELLSTYLE_END
300
CELLSTYLE
  1
TABLEFORMAT_BEGIN
 90
        5
170
     1
 91
        0
 92
        0
 62
   257
 93
        1
300
CONTENTFORMAT
  1
CONTENTFORMAT_BEGIN
 90
        0
 91
        0
 92
        4
 93
        0
300

 40
0.0
140
1.0
 94
        5
 62
     0
340
11
144
0.18
309
CONTENTFORMAT_END
171
     1
301
MARGIN
  1
CELLMARGIN_BEGIN
 40
0.06
 40
0.06
 40
0.06
 40
0.06
 40
0.06
 40
0.06
309
CELLMARGIN_END
 94
        6
 95
        1
302
GRIDFORMAT
  1
GRIDFORMAT_BEGIN
 90
        0
 91
        1
 62
     0
 92
       -2
340
14
 93
        0
 40
0.045
309
GRIDFORMAT_END
 95
        2
302
GRIDFORMAT
  1
GRIDFORMAT_BEGIN
 90
        0
 91
        1
 62
     0
 92
       -2
340
14
 93
        0
 40
0.045
309
GRIDFORMAT_END
 95
        4
302
GRIDFORMAT
  1
GRIDFORMAT_BEGIN
 90
        0
 91
        1
 62
     0
 92
       -2
340
14
 93
        0
 40
0.045
309
GRIDFORMAT_END
 95
        8
302
GRIDFORMAT
  1
GRIDFORMAT_BEGIN
 90
        0
 91
        1
 62
     0
 92
       -2
340
14
 93
        0
 40
0.045
309
GRIDFORMAT_END
 95
       16
302
GRIDFORMAT
  1
GRIDFORMAT_BEGIN
 90
        0
 91
        1
 62
     0
 92
       -2
340
14
 93
        0
 40
0.045
309
GRIDFORMAT_END
 95
       32
302
GRIDFORMAT
  1
GRIDFORMAT_BEGIN
 90
        0
 91
        1
 62
     0
 92
       -2
340
14
 93
        0
 40
0.045
309
GRIDFORMAT_END
309
TABLEFORMAT_END
  1
CELLSTYLE_BEGIN
 90
        2
 91
        1
300
_HEADER
309
CELLSTYLE_END
300
CELLSTYLE
  1
TABLEFORMAT_BEGIN
 90
        5
170
     1
 91
        0
 92
        0
 62
   257
 93
        1
300
CONTENTFORMAT
  1
CONTENTFORMAT_BEGIN
 90
        0
 91
        0
 92
        4
 93
        0
300

 40
0.0
140
1.0
 94
        2
 62
     0
340
11
144
0.18
309
CONTENTFORMAT_END
171
     1
301
MARGIN
  1
CELLMARGIN_BEGIN
 40
0.06
 40
0.06
 40
0.06
 40
0.06
 40
0.06
 40
0.06
309
CELLMARGIN_END
 94
        6
 95
        1
302
GRIDFORMAT
  1
GRIDFORMAT_BEGIN
 90
        0
 91
        1
 62
     0
 92
       -2
340
14
 93
        0
 40
0.045
309
GRIDFORMAT_END
 95
        2
302
GRIDFORMAT
  1
GRIDFORMAT_BEGIN
 90
        0
 91
        1
 62
     0
 92
       -2
340
14
 93
        0
 40
0.045
309
GRIDFORMAT_END
 95
        4
302
GRIDFORMAT
  1
GRIDFORMAT_BEGIN
 90
        0
 91
        1
 62
     0
 92
       -2
340
14
 93
        0
 40
0.045
309
GRIDFORMAT_END
 95
        8
302
GRIDFORMAT
  1
GRIDFORMAT_BEGIN
 90
        0
 91
        1
 62
     0
 92
       -2
340
14
 93
        0
 40
0.045
309
GRIDFORMAT_END
 95
       16
302
GRIDFORMAT
  1
GRIDFORMAT_BEGIN
 90
        0
 91
        1
 62
     0
 92
       -2
340
14
 93
        0
 40
0.045
309
GRIDFORMAT_END
 95
       32
302
GRIDFORMAT
  1
GRIDFORMAT_BEGIN
 90
        0
 91
        1
 62
     0
 92
       -2
340
14
 93
        0
 40
0.045
309
GRIDFORMAT_END
309
TABLEFORMAT_END
  1
CELLSTYLE_BEGIN
 90
        3
 91
        2
300
_DATA
309
CELLSTYLE_END
  0
XRECORD
  5
18B
102
{ACAD_REACTORS
330
18A
102
}
330
18A
100
AcDbXrecord
280
     1
102
ACAD_ROUNDTRIP_PRE2007_TABLESTYLE
 90
        4
 91
        0
  1

 92
        4
 93
        0
  2

 94
        4
 95
        0
  3

  0
XRECORD
  5
15D
102
{ACAD_REACTORS
330
15C
102
}
330
15C
100
AcDbXrecord
280
     1
102
RTVSPropertyOp0
 70
     1
102
RTVSPropertyOp1
 70
     1
102
RTVSPropertyOp2
 70
     1
102
RTVSPropertyOp3
 70
     1
102
RTVSPropertyOp4
 70
     1
102
RTVSPropertyOp5
 70
     1
102
RTVSPropertyOp6
 70
     1
102
RTVSPropertyOp7
 70
     1
102
RTVSPropertyOp8
 70
     1
102
RTVSPropertyOp9
 70
     1
102
RTVSPropertyOp10
 70
     1
102
RTVSPropertyOp11
 70
     1
102
RTVSPropertyOp12
 70
     1
102
RTVSPropertyOp13
 70
     1
102
RTVSPropertyOp14
 70
     1
102
RTVSPropertyOp15
 70
     1
102
RTVSPropertyOp16
 70
     1
102
RTVSPropertyOp17
 70
     1
102
RTVSPropertyOp18
 70
     1
102
RTVSPropertyOp19
 70
     1
102
RTVSPropertyOp20
 70
     1
102
RTVSPropertyOp21
 70
     1
102
RTVSPropertyOp22
 70
     1
102
RTVSPropertyOp23
 70
     1
102
RTVSPropertyOp24
 70
     1
102
RTVSPropertyOp25
 70
     1
102
RTVSPropertyOp26
 70
     1
102
RTVSPropertyOp27
 70
     1
102
RTVSPropertyOp28
 70
     1
102
RTVSPropertyOp29
 70
     1
102
RTVSPropertyOp30
 70
     1
102
RTVSPropertyOp31
 70
     1
102
RTVSPropertyOp32
 70
     1
102
RTVSPropertyOp33
 70
     1
102
RTVSPropertyOp34
 70
     1
102
RTVSPropertyOp35
 70
     1
102
RTVSPropertyOp36
 70
     1
102
RTVSPropertyOp37
 70
     1
102
RTVSPropertyOp38
 70
     1
102
RTVSPropertyOp39
 70
     1
102
RTVSPropertyOp40
 70
     1
102
RTVSPropertyOp41
 70
     1
102
RTVSPropertyOp42
 70
     1
102
RTVSPropertyOp43
 70
     1
102
RTVSPropertyOp44
 70
     1
102
RTVSPropertyOp45
 70
     1
102
RTVSPropertyOp46
 70
     1
102
RTVSPropertyOp47
 70
     1
102
RTVSPropertyOp48
 70
     1
102
RTVSPropertyOp49
 70
     1
102
RTVSPropertyOp50
 70
     1
102
RTVSPropertyOp51
 70
     0
102
RTVSPropertyOp52
 70
     0
102
RTVSPropertyOp53
 70
     1
102
RTVSPropertyOp54
 70
     1
102
RTVSPropertyOp55
 70
     1
102
RTVSPropertyOp56
 70
     1
102
RTVSPropertyOp57
 70
     1
102
RTVSPost2010Prop28
280
     1
102
RTVSPost2010PropOp28
 70
     1
102
RTVSPost2010Prop29
280
     1
102
RTVSPost2010PropOp29
 70
     1
102
RTVSPost2010Prop30
280
     0
102
RTVSPost2010PropOp30
 70
     1
102
RTVSPost2010Prop31
280
     0
102
RTVSPost2010PropOp31
 70
     1
102
RTVSPost2010Prop32
280
     0
102
RTVSPost2010PropOp32
 70
     1
102
RTVSPost2010Prop33
280
     0
102
RTVSPost2010PropOp33
 70
     1
102
RTVSPost2010Prop34
280
     0
102
RTVSPost2010PropOp34
 70
     1
102
RTVSPost2010Prop35
280
     0
102
RTVSPost2010PropOp35
 70
     1
102
RTVSPost2010Prop36
280
     0
102
RTVSPost2010PropOp36
 70
     1
102
RTVSPost2010Prop37
 90
       50
102
RTVSPost2010PropOp37
 70
     1
102
RTVSPost2010Prop38
140
0.0
102
RTVSPost2010PropOp38
 70
     1
102
RTVSPost2010Prop39
140
1.0
102
RTVSPost2010PropOp39
 70
     1
102
RTVSPost2010Prop40
 90
        0
102
RTVSPost2010PropOp40
 70
     1
102
RTVSPost2010Prop41ColorIndex
 90
       18
102
RTVSPost2010Prop41ColorRGB
 90
        0
102
RTVSPost2010PropOp41
 70
     1
102
RTVSPost2010Prop42
 90
       50
102
RTVSPost2010PropOp42
 70
     1
102
RTVSPost2010Prop43
 90
        3
102
RTVSPost2010PropOp43
 70
     1
102
RTVSPost2010Prop44ColorIndex
 90
        5
102
RTVSPost2010Prop44ColorRGB
 90
      255
102
RTVSPost2010PropOp44
 70
     1
102
RTVSPost2010Prop45
280
     0
102
RTVSPost2010PropOp45
 70
     1
102
RTVSPost2010Prop46
 90
       50
102
RTVSPost2010PropOp46
 70
     1
102
RTVSPost2010Prop47
 90
       50
102
RTVSPost2010PropOp47
 70
     1
102
RTVSPost2010Prop48
 90
       50
102
RTVSPost2010PropOp48
 70
     1
102
RTVSPost2010Prop49
280
     0
102
RTVSPost2010PropOp49
 70
     1
102
RTVSPost2010Prop50
 90
       50
102
RTVSPost2010PropOp50
 70
     1
102
RTVSPost2010Prop51ColorIndex
 90
      256
102
RTVSPost2010Prop51ColorRGB
 90
-16777216
102
RTVSPost2010PropOp51
 70
     0
102
RTVSPost2010Prop52
140
1.0
102
RTVSPost2010PropOp52
 70
     0
102
RTVSPost2010Prop53
 90
        2
102
RTVSPost2010PropOp53
 70
     1
102
RTVSPost2010Prop54
  1
strokes_ogs.tif
102
RTVSPost2010PropOp54
 70
     1
102
RTVSPost2010Prop55
280
     0
102
RTVSPost2010PropOp55
 70
     1
102
RTVSPost2010Prop56
140
1.0
102
RTVSPost2010PropOp56
 70
     1
102
RTVSPost2010Prop57
140
1.0
102
RTVSPost2010PropOp57
 70
     1
  0
XRECORD
  5
163
102
{ACAD_REACTORS
330
162
102
}
330
162
100
AcDbXrecord
280
     1
102
RTVSPropertyOp0
 70
     1
102
RTVSPropertyOp1
 70
     1
102
RTVSPropertyOp2
 70
     1
102
RTVSPropertyOp3
 70
     1
102
RTVSPropertyOp4
 70
     1
102
RTVSPropertyOp5
 70
     1
102
RTVSPropertyOp6
 70
     1
102
RTVSPropertyOp7
 70
     1
102
RTVSPropertyOp8
 70
     1
102
RTVSPropertyOp9
 70
     1
102
RTVSPropertyOp10
 70
     1
102
RTVSPropertyOp11
 70
     1
102
RTVSPropertyOp12
 70
     1
102
RTVSPropertyOp13
 70
     1
102
RTVSPropertyOp14
 70
     1
102
RTVSPropertyOp15
 70
     1
102
RTVSPropertyOp16
 70
     1
102
RTVSPropertyOp17
 70
     1
102
RTVSPropertyOp18
 70
     1
102
RTVSPropertyOp19
 70
     1
102
RTVSPropertyOp20
 70
     1
102
RTVSPropertyOp21
 70
     1
102
RTVSPropertyOp22
 70
     1
102
RTVSPropertyOp23
 70
     1
102
RTVSPropertyOp24
 70
     1
102
RTVSPropertyOp25
 70
     1
102
RTVSPropertyOp26
 70
     1
102
RTVSPropertyOp27
 70
     1
102
RTVSPropertyOp28
 70
     1
102
RTVSPropertyOp29
 70
     1
102
RTVSPropertyOp30
 70
     1
102
RTVSPropertyOp31
 70
     1
102
RTVSPropertyOp32
 70
     1
102
RTVSPropertyOp33
 70
     1
102
RTVSPropertyOp34
 70
     1
102
RTVSPropertyOp35
 70
     1
102
RTVSPropertyOp36
 70
     1
102
RTVSPropertyOp37
 70
     1
102
RTVSPropertyOp38
 70
     1
102
RTVSPropertyOp39
 70
     1
102
RTVSPropertyOp40
 70
     1
102
RTVSPropertyOp41
 70
     1
102
RTVSPropertyOp42
 70
     1
102
RTVSPropertyOp43
 70
     1
102
RTVSPropertyOp44
 70
     1
102
RTVSPropertyOp45
 70
     1
102
RTVSPropertyOp46
 70
     1
102
RTVSPropertyOp47
 70
     1
102
RTVSPropertyOp48
 70
     1
102
RTVSPropertyOp49
 70
     1
102
RTVSPropertyOp50
 70
     1
102
RTVSPropertyOp51
 70
     0
102
RTVSPropertyOp52
 70
     0
102
RTVSPropertyOp53
 70
     1
102
RTVSPropertyOp54
 70
     1
102
RTVSPropertyOp55
 70
     1
102
RTVSPropertyOp56
 70
     1
102
RTVSPropertyOp57
 70
     1
102
RTVSPost2010Prop28
280
     0
102
RTVSPost2010PropOp28
 70
     1
102
RTVSPost2010Prop29
280
     1
102
RTVSPost2010PropOp29
 70
     1
102
RTVSPost2010Prop30
280
     1
102
RTVSPost2010PropOp30
 70
     1
102
RTVSPost2010Prop31
280
     0
102
RTVSPost2010PropOp31
 70
     1
102
RTVSPost2010Prop32
280
     0
102
RTVSPost2010PropOp32
 70
     1
102
RTVSPost2010Prop33
280
     0
102
RTVSPost2010PropOp33
 70
     1
102
RTVSPost2010Prop34
280
     0
102
RTVSPost2010PropOp34
 70
     1
102
RTVSPost2010Prop35
280
     0
102
RTVSPost2010PropOp35
 70
     1
102
RTVSPost2010Prop36
280
     0
102
RTVSPost2010PropOp36
 70
     1
102
RTVSPost2010Prop37
 90
       50
102
RTVSPost2010PropOp37
 70
     1
102
RTVSPost2010Prop38
140
0.0
102
RTVSPost2010PropOp38
 70
     1
102
RTVSPost2010Prop39
140
1.0
102
RTVSPost2010PropOp39
 70
     1
102
RTVSPost2010Prop40
 90
        0
102
RTVSPost2010PropOp40
 70
     1
102
RTVSPost2010Prop41ColorIndex
 90
       18
102
RTVSPost2010Prop41ColorRGB
 90
        0
102
RTVSPost2010PropOp41
 70
     1
102
RTVSPost2010Prop42
 90
       50
102
RTVSPost2010PropOp42
 70
     1
102
RTVSPost2010Prop43
 90
        3
102
RTVSPost2010PropOp43
 70
     1
102
RTVSPost2010Prop44ColorIndex
 90
        5
102
RTVSPost2010Prop44ColorRGB
 90
      255
102
RTVSPost2010PropOp44
 70
     1
102
RTVSPost2010Prop45
280
     0
102
RTVSPost2010PropOp45
 70
     1
102
RTVSPost2010Prop46
 90
       50
102
RTVSPost2010PropOp46
 70
     1
102
RTVSPost2010Prop47
 90
       50
102
RTVSPost2010PropOp47
 70
     1
102
RTVSPost2010Prop48
 90
       50
102
RTVSPost2010PropOp48
 70
     1
102
RTVSPost2010Prop49
280
     0
102
RTVSPost2010PropOp49
 70
     1
102
RTVSPost2010Prop50
 90
       50
102
RTVSPost2010PropOp50
 70
     1
102
RTVSPost2010Prop51ColorIndex
 90
      256
102
RTVSPost2010Prop51ColorRGB
 90
-16777216
102
RTVSPost2010PropOp51
 70
     0
102
RTVSPost2010Prop52
140
1.0
102
RTVSPost2010PropOp52
 70
     0
102
RTVSPost2010Prop53
 90
        2
102
RTVSPost2010PropOp53
 70
     1
102
RTVSPost2010Prop54
  1
strokes_ogs.tif
102
RTVSPost2010PropOp54
 70
     1
102
RTVSPost2010Prop55
280
     0
102
RTVSPost2010PropOp55
 70
     1
102
RTVSPost2010Prop56
140
1.0
102
RTVSPost2010PropOp56
 70
     1
102
RTVSPost2010Prop57
140
1.0
102
RTVSPost2010PropOp57
 70
     1
  0
XRECORD
  5
16B
102
{ACAD_REACTORS
330
16A
102
}
330
16A
100
AcDbXrecord
280
     1
102
RTVSPropertyOp0
 70
     1
102
RTVSPropertyOp1
 70
     1
102
RTVSPropertyOp2
 70
     1
102
RTVSPropertyOp3
 70
     1
102
RTVSPropertyOp4
 70
     1
102
RTVSPropertyOp5
 70
     1
102
RTVSPropertyOp6
 70
     1
102
RTVSPropertyOp7
 70
     1
102
RTVSPropertyOp8
 70
     1
102
RTVSPropertyOp9
 70
     1
102
RTVSPropertyOp10
 70
     1
102
RTVSPropertyOp11
 70
     1
102
RTVSPropertyOp12
 70
     1
102
RTVSPropertyOp13
 70
     1
102
RTVSPropertyOp14
 70
     1
102
RTVSPropertyOp15
 70
     1
102
RTVSPropertyOp16
 70
     1
102
RTVSPropertyOp17
 70
     1
102
RTVSPropertyOp18
 70
     1
102
RTVSPropertyOp19
 70
     1
102
RTVSPropertyOp20
 70
     1
102
RTVSPropertyOp21
 70
     1
102
RTVSPropertyOp22
 70
     1
102
RTVSPropertyOp23
 70
     1
102
RTVSPropertyOp24
 70
     1
102
RTVSPropertyOp25
 70
     1
102
RTVSPropertyOp26
 70
     1
102
RTVSPropertyOp27
 70
     1
102
RTVSPropertyOp28
 70
     1
102
RTVSPropertyOp29
 70
     1
102
RTVSPropertyOp30
 70
     1
102
RTVSPropertyOp31
 70
     1
102
RTVSPropertyOp32
 70
     1
102
RTVSPropertyOp33
 70
     1
102
RTVSPropertyOp34
 70
     1
102
RTVSPropertyOp35
 70
     1
102
RTVSPropertyOp36
 70
     1
102
RTVSPropertyOp37
 70
     1
102
RTVSPropertyOp38
 70
     1
102
RTVSPropertyOp39
 70
     1
102
RTVSPropertyOp40
 70
     1
102
RTVSPropertyOp41
 70
     1
102
RTVSPropertyOp42
 70
     1
102
RTVSPropertyOp43
 70
     1
102
RTVSPropertyOp44
 70
     1
102
RTVSPropertyOp45
 70
     1
102
RTVSPropertyOp46
 70
     1
102
RTVSPropertyOp47
 70
     1
102
RTVSPropertyOp48
 70
     1
102
RTVSPropertyOp49
 70
     1
102
RTVSPropertyOp50
 70
     1
102
RTVSPropertyOp51
 70
     0
102
RTVSPropertyOp52
 70
     0
102
RTVSPropertyOp53
 70
     1
102
RTVSPropertyOp54
 70
     1
102
RTVSPropertyOp55
 70
     1
102
RTVSPropertyOp56
 70
     1
102
RTVSPropertyOp57
 70
     1
102
RTVSPost2010Prop28
280
     0
102
RTVSPost2010PropOp28
 70
     1
102
RTVSPost2010Prop29
280
     1
102
RTVSPost2010PropOp29
 70
     1
102
RTVSPost2010Prop30
280
     1
102
RTVSPost2010PropOp30
 70
     1
102
RTVSPost2010Prop31
280
     0
102
RTVSPost2010PropOp31
 70
     1
102
RTVSPost2010Prop32
280
     0
102
RTVSPost2010PropOp32
 70
     1
102
RTVSPost2010Prop33
280
     0
102
RTVSPost2010PropOp33
 70
     1
102
RTVSPost2010Prop34
280
     0
102
RTVSPost2010PropOp34
 70
     1
102
RTVSPost2010Prop35
280
     0
102
RTVSPost2010PropOp35
 70
     1
102
RTVSPost2010Prop36
280
     0
102
RTVSPost2010PropOp36
 70
     1
102
RTVSPost2010Prop37
 90
       50
102
RTVSPost2010PropOp37
 70
     1
102
RTVSPost2010Prop38
140
0.0
102
RTVSPost2010PropOp38
 70
     1
102
RTVSPost2010Prop39
140
1.0
102
RTVSPost2010PropOp39
 70
     1
102
RTVSPost2010Prop40
 90
        0
102
RTVSPost2010PropOp40
 70
     1
102
RTVSPost2010Prop41ColorIndex
 90
       18
102
RTVSPost2010Prop41ColorRGB
 90
        0
102
RTVSPost2010PropOp41
 70
     1
102
RTVSPost2010Prop42
 90
       50
102
RTVSPost2010PropOp42
 70
     1
102
RTVSPost2010Prop43
 90
        3
102
RTVSPost2010PropOp43
 70
     1
102
RTVSPost2010Prop44ColorIndex
 90
        5
102
RTVSPost2010Prop44ColorRGB
 90
      255
102
RTVSPost2010PropOp44
 70
     1
102
RTVSPost2010Prop45
280
     0
102
RTVSPost2010PropOp45
 70
     1
102
RTVSPost2010Prop46
 90
       50
102
RTVSPost2010PropOp46
 70
     1
102
RTVSPost2010Prop47
 90
       50
102
RTVSPost2010PropOp47
 70
     1
102
RTVSPost2010Prop48
 90
       50
102
RTVSPost2010PropOp48
 70
     1
102
RTVSPost2010Prop49
280
     0
102
RTVSPost2010PropOp49
 70
     1
102
RTVSPost2010Prop50
 90
       50
102
RTVSPost2010PropOp50
 70
     1
102
RTVSPost2010Prop51ColorIndex
 90
      256
102
RTVSPost2010Prop51ColorRGB
 90
-16777216
102
RTVSPost2010PropOp51
 70
     0
102
RTVSPost2010Prop52
140
1.0
102
RTVSPost2010PropOp52
 70
     0
102
RTVSPost2010Prop53
 90
        2
102
RTVSPost2010PropOp53
 70
     1
102
RTVSPost2010Prop54
  1
strokes_ogs.tif
102
RTVSPost2010PropOp54
 70
     1
102
RTVSPost2010Prop55
280
     0
102
RTVSPost2010PropOp55
 70
     1
102
RTVSPost2010Prop56
140
1.0
102
RTVSPost2010PropOp56
 70
     1
102
RTVSPost2010Prop57
140
1.0
102
RTVSPost2010PropOp57
 70
     1
  0
XRECORD
  5
173
102
{ACAD_REACTORS
330
172
102
}
330
172
100
AcDbXrecord
280
     1
102
RTVSPropertyOp0
 70
     1
102
RTVSPropertyOp1
 70
     1
102
RTVSPropertyOp2
 70
     1
102
RTVSPropertyOp3
 70
     1
102
RTVSPropertyOp4
 70
     1
102
RTVSPropertyOp5
 70
     1
102
RTVSPropertyOp6
 70
     1
102
RTVSPropertyOp7
 70
     1
102
RTVSPropertyOp8
 70
     1
102
RTVSPropertyOp9
 70
     1
102
RTVSPropertyOp10
 70
     1
102
RTVSPropertyOp11
 70
     1
102
RTVSPropertyOp12
 70
     1
102
RTVSPropertyOp13
 70
     1
102
RTVSPropertyOp14
 70
     1
102
RTVSPropertyOp15
 70
     1
102
RTVSPropertyOp16
 70
     1
102
RTVSPropertyOp17
 70
     1
102
RTVSPropertyOp18
 70
     1
102
RTVSPropertyOp19
 70
     1
102
RTVSPropertyOp20
 70
     1
102
RTVSPropertyOp21
 70
     1
102
RTVSPropertyOp22
 70
     1
102
RTVSPropertyOp23
 70
     1
102
RTVSPropertyOp24
 70
     1
102
RTVSPropertyOp25
 70
     1
102
RTVSPropertyOp26
 70
     1
102
RTVSPropertyOp27
 70
     1
102
RTVSPropertyOp28
 70
     1
102
RTVSPropertyOp29
 70
     1
102
RTVSPropertyOp30
 70
     1
102
RTVSPropertyOp31
 70
     1
102
RTVSPropertyOp32
 70
     1
102
RTVSPropertyOp33
 70
     1
102
RTVSPropertyOp34
 70
     1
102
RTVSPropertyOp35
 70
     1
102
RTVSPropertyOp36
 70
     1
102
RTVSPropertyOp37
 70
     1
102
RTVSPropertyOp38
 70
     1
102
RTVSPropertyOp39
 70
     1
102
RTVSPropertyOp40
 70
     1
102
RTVSPropertyOp41
 70
     1
102
RTVSPropertyOp42
 70
     1
102
RTVSPropertyOp43
 70
     1
102
RTVSPropertyOp44
 70
     1
102
RTVSPropertyOp45
 70
     1
102
RTVSPropertyOp46
 70
     1
102
RTVSPropertyOp47
 70
     1
102
RTVSPropertyOp48
 70
     1
102
RTVSPropertyOp49
 70
     1
102
RTVSPropertyOp50
 70
     1
102
RTVSPropertyOp51
 70
     0
102
RTVSPropertyOp52
 70
     0
102
RTVSPropertyOp53
 70
     1
102
RTVSPropertyOp54
 70
     1
102
RTVSPropertyOp55
 70
     1
102
RTVSPropertyOp56
 70
     1
102
RTVSPropertyOp57
 70
     1
102
RTVSPost2010Prop28
280
     0
102
RTVSPost2010PropOp28
 70
     1
102
RTVSPost2010Prop29
280
     1
102
RTVSPost2010PropOp29
 70
     1
102
RTVSPost2010Prop30
280
     1
102
RTVSPost2010PropOp30
 70
     1
102
RTVSPost2010Prop31
280
     0
102
RTVSPost2010PropOp31
 70
     1
102
RTVSPost2010Prop32
280
     0
102
RTVSPost2010PropOp32
 70
     1
102
RTVSPost2010Prop33
280
     0
102
RTVSPost2010PropOp33
 70
     1
102
RTVSPost2010Prop34
280
     0
102
RTVSPost2010PropOp34
 70
     1
102
RTVSPost2010Prop35
280
     0
102
RTVSPost2010PropOp35
 70
     1
102
RTVSPost2010Prop36
280
     0
102
RTVSPost2010PropOp36
 70
     1
102
RTVSPost2010Prop37
 90
       50
102
RTVSPost2010PropOp37
 70
     1
102
RTVSPost2010Prop38
140
0.0
102
RTVSPost2010PropOp38
 70
     1
102
RTVSPost2010Prop39
140
1.0
102
RTVSPost2010PropOp39
 70
     1
102
RTVSPost2010Prop40
 90
        0
102
RTVSPost2010PropOp40
 70
     1
102
RTVSPost2010Prop41ColorIndex
 90
       18
102
RTVSPost2010Prop41ColorRGB
 90
        0
102
RTVSPost2010PropOp41
 70
     1
102
RTVSPost2010Prop42
 90
       50
102
RTVSPost2010PropOp42
 70
     1
102
RTVSPost2010Prop43
 90
        3
102
RTVSPost2010PropOp43
 70
     1
102
RTVSPost2010Prop44ColorIndex
 90
        5
102
RTVSPost2010Prop44ColorRGB
 90
      255
102
RTVSPost2010PropOp44
 70
     1
102
RTVSPost2010Prop45
280
     0
102
RTVSPost2010PropOp45
 70
     1
102
RTVSPost2010Prop46
 90
       50
102
RTVSPost2010PropOp46
 70
     1
102
RTVSPost2010Prop47
 90
       50
102
RTVSPost2010PropOp47
 70
     1
102
RTVSPost2010Prop48
 90
       50
102
RTVSPost2010PropOp48
 70
     1
102
RTVSPost2010Prop49
280
     0
102
RTVSPost2010PropOp49
 70
     1
102
RTVSPost2010Prop50
 90
       50
102
RTVSPost2010PropOp50
 70
     1
102
RTVSPost2010Prop51ColorIndex
 90
      256
102
RTVSPost2010Prop51ColorRGB
 90
-16777216
102
RTVSPost2010PropOp51
 70
     0
102
RTVSPost2010Prop52
140
1.0
102
RTVSPost2010PropOp52
 70
     0
102
RTVSPost2010Prop53
 90
        2
102
RTVSPost2010PropOp53
 70
     1
102
RTVSPost2010Prop54
  1
strokes_ogs.tif
102
RTVSPost2010PropOp54
 70
     1
102
RTVSPost2010Prop55
280
     0
102
RTVSPost2010PropOp55
 70
     1
102
RTVSPost2010Prop56
140
1.0
102
RTVSPost2010PropOp56
 70
     1
102
RTVSPost2010Prop57
140
1.0
102
RTVSPost2010PropOp57
 70
     1
  0
XRECORD
  5
167
102
{ACAD_REACTORS
330
166
102
}
330
166
100
AcDbXrecord
280
     1
102
RTVSPropertyOp0
 70
     1
102
RTVSPropertyOp1
 70
     1
102
RTVSPropertyOp2
 70
     1
102
RTVSPropertyOp3
 70
     1
102
RTVSPropertyOp4
 70
     1
102
RTVSPropertyOp5
 70
     1
102
RTVSPropertyOp6
 70
     1
102
RTVSPropertyOp7
 70
     1
102
RTVSPropertyOp8
 70
     1
102
RTVSPropertyOp9
 70
     1
102
RTVSPropertyOp10
 70
     1
102
RTVSPropertyOp11
 70
     1
102
RTVSPropertyOp12
 70
     1
102
RTVSPropertyOp13
 70
     1
102
RTVSPropertyOp14
 70
     1
102
RTVSPropertyOp15
 70
     1
102
RTVSPropertyOp16
 70
     1
102
RTVSPropertyOp17
 70
     1
102
RTVSPropertyOp18
 70
     1
102
RTVSPropertyOp19
 70
     1
102
RTVSPropertyOp20
 70
     1
102
RTVSPropertyOp21
 70
     1
102
RTVSPropertyOp22
 70
     1
102
RTVSPropertyOp23
 70
     1
102
RTVSPropertyOp24
 70
     1
102
RTVSPropertyOp25
 70
     1
102
RTVSPropertyOp26
 70
     1
102
RTVSPropertyOp27
 70
     1
102
RTVSPropertyOp28
 70
     1
102
RTVSPropertyOp29
 70
     1
102
RTVSPropertyOp30
 70
     1
102
RTVSPropertyOp31
 70
     1
102
RTVSPropertyOp32
 70
     1
102
RTVSPropertyOp33
 70
     1
102
RTVSPropertyOp34
 70
     1
102
RTVSPropertyOp35
 70
     1
102
RTVSPropertyOp36
 70
     1
102
RTVSPropertyOp37
 70
     1
102
RTVSPropertyOp38
 70
     1
102
RTVSPropertyOp39
 70
     1
102
RTVSPropertyOp40
 70
     1
102
RTVSPropertyOp41
 70
     1
102
RTVSPropertyOp42
 70
     1
102
RTVSPropertyOp43
 70
     1
102
RTVSPropertyOp44
 70
     1
102
RTVSPropertyOp45
 70
     1
102
RTVSPropertyOp46
 70
     1
102
RTVSPropertyOp47
 70
     1
102
RTVSPropertyOp48
 70
     1
102
RTVSPropertyOp49
 70
     1
102
RTVSPropertyOp50
 70
     1
102
RTVSPropertyOp51
 70
     0
102
RTVSPropertyOp52
 70
     0
102
RTVSPropertyOp53
 70
     1
102
RTVSPropertyOp54
 70
     1
102
RTVSPropertyOp55
 70
     1
102
RTVSPropertyOp56
 70
     1
102
RTVSPropertyOp57
 70
     1
102
RTVSPost2010Prop28
280
     0
102
RTVSPost2010PropOp28
 70
     1
102
RTVSPost2010Prop29
280
     1
102
RTVSPost2010PropOp29
 70
     1
102
RTVSPost2010Prop30
280
     1
102
RTVSPost2010PropOp30
 70
     1
102
RTVSPost2010Prop31
280
     0
102
RTVSPost2010PropOp31
 70
     1
102
RTVSPost2010Prop32
280
     0
102
RTVSPost2010PropOp32
 70
     1
102
RTVSPost2010Prop33
280
     0
102
RTVSPost2010PropOp33
 70
     1
102
RTVSPost2010Prop34
280
     0
102
RTVSPost2010PropOp34
 70
     1
102
RTVSPost2010Prop35
280
     0
102
RTVSPost2010PropOp35
 70
     1
102
RTVSPost2010Prop36
280
     0
102
RTVSPost2010PropOp36
 70
     1
102
RTVSPost2010Prop37
 90
       50
102
RTVSPost2010PropOp37
 70
     1
102
RTVSPost2010Prop38
140
0.0
102
RTVSPost2010PropOp38
 70
     1
102
RTVSPost2010Prop39
140
1.0
102
RTVSPost2010PropOp39
 70
     1
102
RTVSPost2010Prop40
 90
        0
102
RTVSPost2010PropOp40
 70
     1
102
RTVSPost2010Prop41ColorIndex
 90
       18
102
RTVSPost2010Prop41ColorRGB
 90
        0
102
RTVSPost2010PropOp41
 70
     1
102
RTVSPost2010Prop42
 90
       50
102
RTVSPost2010PropOp42
 70
     1
102
RTVSPost2010Prop43
 90
        3
102
RTVSPost2010PropOp43
 70
     1
102
RTVSPost2010Prop44ColorIndex
 90
        5
102
RTVSPost2010Prop44ColorRGB
 90
      255
102
RTVSPost2010PropOp44
 70
     1
102
RTVSPost2010Prop45
280
     0
102
RTVSPost2010PropOp45
 70
     1
102
RTVSPost2010Prop46
 90
       50
102
RTVSPost2010PropOp46
 70
     1
102
RTVSPost2010Prop47
 90
       50
102
RTVSPost2010PropOp47
 70
     1
102
RTVSPost2010Prop48
 90
       50
102
RTVSPost2010PropOp48
 70
     1
102
RTVSPost2010Prop49
280
     0
102
RTVSPost2010PropOp49
 70
     1
102
RTVSPost2010Prop50
 90
       50
102
RTVSPost2010PropOp50
 70
     1
102
RTVSPost2010Prop51ColorIndex
 90
      256
102
RTVSPost2010Prop51ColorRGB
 90
-16777216
102
RTVSPost2010PropOp51
 70
     0
102
RTVSPost2010Prop52
140
1.0
102
RTVSPost2010PropOp52
 70
     0
102
RTVSPost2010Prop53
 90
        2
102
RTVSPost2010PropOp53
 70
     1
102
RTVSPost2010Prop54
  1
strokes_ogs.tif
102
RTVSPost2010PropOp54
 70
     1
102
RTVSPost2010Prop55
280
     0
102
RTVSPost2010PropOp55
 70
     1
102
RTVSPost2010Prop56
140
1.0
102
RTVSPost2010PropOp56
 70
     1
102
RTVSPost2010Prop57
140
1.0
102
RTVSPost2010PropOp57
 70
     1
  0
XRECORD
  5
169
102
{ACAD_REACTORS
330
168
102
}
330
168
100
AcDbXrecord
280
     1
102
RTVSPropertyOp0
 70
     1
102
RTVSPropertyOp1
 70
     1
102
RTVSPropertyOp2
 70
     1
102
RTVSPropertyOp3
 70
     1
102
RTVSPropertyOp4
 70
     1
102
RTVSPropertyOp5
 70
     1
102
RTVSPropertyOp6
 70
     1
102
RTVSPropertyOp7
 70
     1
102
RTVSPropertyOp8
 70
     1
102
RTVSPropertyOp9
 70
     1
102
RTVSPropertyOp10
 70
     1
102
RTVSPropertyOp11
 70
     1
102
RTVSPropertyOp12
 70
     1
102
RTVSPropertyOp13
 70
     1
102
RTVSPropertyOp14
 70
     1
102
RTVSPropertyOp15
 70
     1
102
RTVSPropertyOp16
 70
     1
102
RTVSPropertyOp17
 70
     1
102
RTVSPropertyOp18
 70
     1
102
RTVSPropertyOp19
 70
     1
102
RTVSPropertyOp20
 70
     1
102
RTVSPropertyOp21
 70
     1
102
RTVSPropertyOp22
 70
     1
102
RTVSPropertyOp23
 70
     1
102
RTVSPropertyOp24
 70
     1
102
RTVSPropertyOp25
 70
     1
102
RTVSPropertyOp26
 70
     1
102
RTVSPropertyOp27
 70
     1
102
RTVSPropertyOp28
 70
     1
102
RTVSPropertyOp29
 70
     1
102
RTVSPropertyOp30
 70
     1
102
RTVSPropertyOp31
 70
     1
102
RTVSPropertyOp32
 70
     1
102
RTVSPropertyOp33
 70
     1
102
RTVSPropertyOp34
 70
     1
102
RTVSPropertyOp35
 70
     1
102
RTVSPropertyOp36
 70
     1
102
RTVSPropertyOp37
 70
     1
102
RTVSPropertyOp38
 70
     1
102
RTVSPropertyOp39
 70
     1
102
RTVSPropertyOp40
 70
     1
102
RTVSPropertyOp41
 70
     1
102
RTVSPropertyOp42
 70
     1
102
RTVSPropertyOp43
 70
     1
102
RTVSPropertyOp44
 70
     1
102
RTVSPropertyOp45
 70
     1
102
RTVSPropertyOp46
 70
     1
102
RTVSPropertyOp47
 70
     1
102
RTVSPropertyOp48
 70
     1
102
RTVSPropertyOp49
 70
     1
102
RTVSPropertyOp50
 70
     1
102
RTVSPropertyOp51
 70
     0
102
RTVSPropertyOp52
 70
     0
102
RTVSPropertyOp53
 70
     1
102
RTVSPropertyOp54
 70
     1
102
RTVSPropertyOp55
 70
     1
102
RTVSPropertyOp56
 70
     1
102
RTVSPropertyOp57
 70
     1
102
RTVSPost2010Prop28
280
     0
102
RTVSPost2010PropOp28
 70
     1
102
RTVSPost2010Prop29
280
     1
102
RTVSPost2010PropOp29
 70
     1
102
RTVSPost2010Prop30
280
     1
102
RTVSPost2010PropOp30
 70
     1
102
RTVSPost2010Prop31
280
     0
102
RTVSPost2010PropOp31
 70
     1
102
RTVSPost2010Prop32
280
     0
102
RTVSPost2010PropOp32
 70
     1
102
RTVSPost2010Prop33
280
     0
102
RTVSPost2010PropOp33
 70
     1
102
RTVSPost2010Prop34
280
     0
102
RTVSPost2010PropOp34
 70
     1
102
RTVSPost2010Prop35
280
     0
102
RTVSPost2010PropOp35
 70
     1
102
RTVSPost2010Prop36
280
     0
102
RTVSPost2010PropOp36
 70
     1
102
RTVSPost2010Prop37
 90
       50
102
RTVSPost2010PropOp37
 70
     1
102
RTVSPost2010Prop38
140
0.0
102
RTVSPost2010PropOp38
 70
     1
102
RTVSPost2010Prop39
140
1.0
102
RTVSPost2010PropOp39
 70
     1
102
RTVSPost2010Prop40
 90
        0
102
RTVSPost2010PropOp40
 70
     1
102
RTVSPost2010Prop41ColorIndex
 90
       18
102
RTVSPost2010Prop41ColorRGB
 90
        0
102
RTVSPost2010PropOp41
 70
     1
102
RTVSPost2010Prop42
 90
       50
102
RTVSPost2010PropOp42
 70
     1
102
RTVSPost2010Prop43
 90
        3
102
RTVSPost2010PropOp43
 70
     1
102
RTVSPost2010Prop44ColorIndex
 90
        5
102
RTVSPost2010Prop44ColorRGB
 90
      255
102
RTVSPost2010PropOp44
 70
     1
102
RTVSPost2010Prop45
280
     0
102
RTVSPost2010PropOp45
 70
     1
102
RTVSPost2010Prop46
 90
       50
102
RTVSPost2010PropOp46
 70
     1
102
RTVSPost2010Prop47
 90
       50
102
RTVSPost2010PropOp47
 70
     1
102
RTVSPost2010Prop48
 90
       50
102
RTVSPost2010PropOp48
 70
     1
102
RTVSPost2010Prop49
280
     0
102
RTVSPost2010PropOp49
 70
     1
102
RTVSPost2010Prop50
 90
       50
102
RTVSPost2010PropOp50
 70
     1
102
RTVSPost2010Prop51ColorIndex
 90
      256
102
RTVSPost2010Prop51ColorRGB
 90
-16777216
102
RTVSPost2010PropOp51
 70
     0
102
RTVSPost2010Prop52
140
1.0
102
RTVSPost2010PropOp52
 70
     0
102
RTVSPost2010Prop53
 90
        2
102
RTVSPost2010PropOp53
 70
     1
102
RTVSPost2010Prop54
  1
strokes_ogs.tif
102
RTVSPost2010PropOp54
 70
     1
102
RTVSPost2010Prop55
280
     0
102
RTVSPost2010PropOp55
 70
     1
102
RTVSPost2010Prop56
140
1.0
102
RTVSPost2010PropOp56
 70
     1
102
RTVSPost2010Prop57
140
1.0
102
RTVSPost2010PropOp57
 70
     1
  0
XRECORD
  5
179
102
{ACAD_REACTORS
330
178
102
}
330
178
100
AcDbXrecord
280
     1
102
RTVSPropertyOp0
 70
     0
102
RTVSPropertyOp1
 70
     0
102
RTVSPropertyOp2
 70
     0
102
RTVSPropertyOp3
 70
     0
102
RTVSPropertyOp4
 70
     0
102
RTVSPropertyOp5
 70
     0
102
RTVSPropertyOp6
 70
     0
102
RTVSPropertyOp7
 70
     0
102
RTVSPropertyOp8
 70
     0
102
RTVSPropertyOp9
 70
     0
102
RTVSPropertyOp10
 70
     0
102
RTVSPropertyOp11
 70
     0
102
RTVSPropertyOp12
 70
     0
102
RTVSPropertyOp13
 70
     0
102
RTVSPropertyOp14
 70
     2
102
RTVSPropertyOp15
 70
     0
102
RTVSPropertyOp16
 70
     0
102
RTVSPropertyOp17
 70
     0
102
RTVSPropertyOp18
 70
     0
102
RTVSPropertyOp19
 70
     0
102
RTVSPropertyOp20
 70
     0
102
RTVSPropertyOp21
 70
     0
102
RTVSPropertyOp22
 70
     0
102
RTVSPropertyOp23
 70
     0
102
RTVSPropertyOp24
 70
     0
102
RTVSPropertyOp25
 70
     0
102
RTVSPropertyOp26
 70
     0
102
RTVSPropertyOp27
 70
     0
102
RTVSPropertyOp28
 70
     0
102
RTVSPropertyOp29
 70
     0
102
RTVSPropertyOp30
 70
     0
102
RTVSPropertyOp31
 70
     0
102
RTVSPropertyOp32
 70
     0
102
RTVSPropertyOp33
 70
     0
102
RTVSPropertyOp34
 70
     0
102
RTVSPropertyOp35
 70
     0
102
RTVSPropertyOp36
 70
     0
102
RTVSPropertyOp37
 70
     0
102
RTVSPropertyOp38
 70
     0
102
RTVSPropertyOp39
 70
     0
102
RTVSPropertyOp40
 70
     0
102
RTVSPropertyOp41
 70
     0
102
RTVSPropertyOp42
 70
     0
102
RTVSPropertyOp43
 70
     0
102
RTVSPropertyOp44
 70
     0
102
RTVSPropertyOp45
 70
     0
102
RTVSPropertyOp46
 70
     0
102
RTVSPropertyOp47
 70
     0
102
RTVSPropertyOp48
 70
     0
102
RTVSPropertyOp49
 70
     0
102
RTVSPropertyOp50
 70
     0
102
RTVSPropertyOp51
 70
     0
102
RTVSPropertyOp52
 70
     0
102
RTVSPropertyOp53
 70
     0
102
RTVSPropertyOp54
 70
     0
102
RTVSPropertyOp55
 70
     0
102
RTVSPropertyOp56
 70
     0
102
RTVSPropertyOp57
 70
     0
102
RTVSPost2010Prop28
280
     0
102
RTVSPost2010PropOp28
 70
     0
102
RTVSPost2010Prop29
280
     1
102
RTVSPost2010PropOp29
 70
     0
102
RTVSPost2010Prop30
280
     1
102
RTVSPost2010PropOp30
 70
     0
102
RTVSPost2010Prop31
280
     0
102
RTVSPost2010PropOp31
 70
     0
102
RTVSPost2010Prop32
280
     0
102
RTVSPost2010PropOp32
 70
     0
102
RTVSPost2010Prop33
280
     0
102
RTVSPost2010PropOp33
 70
     0
102
RTVSPost2010Prop34
280
     0
102
RTVSPost2010PropOp34
 70
     0
102
RTVSPost2010Prop35
280
     0
102
RTVSPost2010PropOp35
 70
     0
102
RTVSPost2010Prop36
280
     0
102
RTVSPost2010PropOp36
 70
     0
102
RTVSPost2010Prop37
 90
       50
102
RTVSPost2010PropOp37
 70
     0
102
RTVSPost2010Prop38
140
0.0
102
RTVSPost2010PropOp38
 70
     0
102
RTVSPost2010Prop39
140
1.0
102
RTVSPost2010PropOp39
 70
     0
102
RTVSPost2010Prop40
 90
        0
102
RTVSPost2010PropOp40
 70
     0
102
RTVSPost2010Prop41ColorIndex
 90
       18
102
RTVSPost2010Prop41ColorRGB
 90
        0
102
RTVSPost2010PropOp41
 70
     0
102
RTVSPost2010Prop42
 90
       50
102
RTVSPost2010PropOp42
 70
     0
102
RTVSPost2010Prop43
 90
        3
102
RTVSPost2010PropOp43
 70
     0
102
RTVSPost2010Prop44ColorIndex
 90
        5
102
RTVSPost2010Prop44ColorRGB
 90
      255
102
RTVSPost2010PropOp44
 70
     0
102
RTVSPost2010Prop45
280
     0
102
RTVSPost2010PropOp45
 70
     0
102
RTVSPost2010Prop46
 90
       50
102
RTVSPost2010PropOp46
 70
     0
102
RTVSPost2010Prop47
 90
       50
102
RTVSPost2010PropOp47
 70
     0
102
RTVSPost2010Prop48
 90
       50
102
RTVSPost2010PropOp48
 70
     0
102
RTVSPost2010Prop49
280
     0
102
RTVSPost2010PropOp49
 70
     0
102
RTVSPost2010Prop50
 90
       50
102
RTVSPost2010PropOp50
 70
     0
102
RTVSPost2010Prop51ColorIndex
 90
      256
102
RTVSPost2010Prop51ColorRGB
 90
-16777216
102
RTVSPost2010PropOp51
 70
     0
102
RTVSPost2010Prop52
140
1.0
102
RTVSPost2010PropOp52
 70
     0
102
RTVSPost2010Prop53
 90
        2
102
RTVSPost2010PropOp53
 70
     0
102
RTVSPost2010Prop54
  1
strokes_ogs.tif
102
RTVSPost2010PropOp54
 70
     0
102
RTVSPost2010Prop55
280
     0
102
RTVSPost2010PropOp55
 70
     0
102
RTVSPost2010Prop56
140
1.0
102
RTVSPost2010PropOp56
 70
     0
102
RTVSPost2010Prop57
140
1.0
102
RTVSPost2010PropOp57
 70
     0
  0
XRECORD
  5
171
102
{ACAD_REACTORS
330
170
102
}
330
170
100
AcDbXrecord
280
     1
102
RTVSPropertyOp0
 70
     1
102
RTVSPropertyOp1
 70
     1
102
RTVSPropertyOp2
 70
     1
102
RTVSPropertyOp3
 70
     1
102
RTVSPropertyOp4
 70
     1
102
RTVSPropertyOp5
 70
     1
102
RTVSPropertyOp6
 70
     1
102
RTVSPropertyOp7
 70
     1
102
RTVSPropertyOp8
 70
     1
102
RTVSPropertyOp9
 70
     1
102
RTVSPropertyOp10
 70
     1
102
RTVSPropertyOp11
 70
     1
102
RTVSPropertyOp12
 70
     1
102
RTVSPropertyOp13
 70
     1
102
RTVSPropertyOp14
 70
     1
102
RTVSPropertyOp15
 70
     1
102
RTVSPropertyOp16
 70
     1
102
RTVSPropertyOp17
 70
     1
102
RTVSPropertyOp18
 70
     1
102
RTVSPropertyOp19
 70
     1
102
RTVSPropertyOp20
 70
     1
102
RTVSPropertyOp21
 70
     1
102
RTVSPropertyOp22
 70
     1
102
RTVSPropertyOp23
 70
     1
102
RTVSPropertyOp24
 70
     1
102
RTVSPropertyOp25
 70
     1
102
RTVSPropertyOp26
 70
     1
102
RTVSPropertyOp27
 70
     1
102
RTVSPropertyOp28
 70
     1
102
RTVSPropertyOp29
 70
     1
102
RTVSPropertyOp30
 70
     1
102
RTVSPropertyOp31
 70
     1
102
RTVSPropertyOp32
 70
     1
102
RTVSPropertyOp33
 70
     1
102
RTVSPropertyOp34
 70
     1
102
RTVSPropertyOp35
 70
     1
102
RTVSPropertyOp36
 70
     1
102
RTVSPropertyOp37
 70
     1
102
RTVSPropertyOp38
 70
     1
102
RTVSPropertyOp39
 70
     1
102
RTVSPropertyOp40
 70
     1
102
RTVSPropertyOp41
 70
     1
102
RTVSPropertyOp42
 70
     1
102
RTVSPropertyOp43
 70
     1
102
RTVSPropertyOp44
 70
     1
102
RTVSPropertyOp45
 70
     1
102
RTVSPropertyOp46
 70
     1
102
RTVSPropertyOp47
 70
     1
102
RTVSPropertyOp48
 70
     1
102
RTVSPropertyOp49
 70
     1
102
RTVSPropertyOp50
 70
     1
102
RTVSPropertyOp51
 70
     0
102
RTVSPropertyOp52
 70
     0
102
RTVSPropertyOp53
 70
     1
102
RTVSPropertyOp54
 70
     1
102
RTVSPropertyOp55
 70
     1
102
RTVSPropertyOp56
 70
     1
102
RTVSPropertyOp57
 70
     1
102
RTVSPost2010Prop28
280
     0
102
RTVSPost2010PropOp28
 70
     1
102
RTVSPost2010Prop29
280
     1
102
RTVSPost2010PropOp29
 70
     1
102
RTVSPost2010Prop30
280
     1
102
RTVSPost2010PropOp30
 70
     1
102
RTVSPost2010Prop31
280
     0
102
RTVSPost2010PropOp31
 70
     1
102
RTVSPost2010Prop32
280
     0
102
RTVSPost2010PropOp32
 70
     1
102
RTVSPost2010Prop33
280
     0
102
RTVSPost2010PropOp33
 70
     1
102
RTVSPost2010Prop34
280
     0
102
RTVSPost2010PropOp34
 70
     1
102
RTVSPost2010Prop35
280
     0
102
RTVSPost2010PropOp35
 70
     1
102
RTVSPost2010Prop36
280
     0
102
RTVSPost2010PropOp36
 70
     1
102
RTVSPost2010Prop37
 90
       50
102
RTVSPost2010PropOp37
 70
     1
102
RTVSPost2010Prop38
140
0.0
102
RTVSPost2010PropOp38
 70
     1
102
RTVSPost2010Prop39
140
1.0
102
RTVSPost2010PropOp39
 70
     1
102
RTVSPost2010Prop40
 90
        0
102
RTVSPost2010PropOp40
 70
     1
102
RTVSPost2010Prop41ColorIndex
 90
       18
102
RTVSPost2010Prop41ColorRGB
 90
        0
102
RTVSPost2010PropOp41
 70
     1
102
RTVSPost2010Prop42
 90
       50
102
RTVSPost2010PropOp42
 70
     1
102
RTVSPost2010Prop43
 90
        3
102
RTVSPost2010PropOp43
 70
     1
102
RTVSPost2010Prop44ColorIndex
 90
        5
102
RTVSPost2010Prop44ColorRGB
 90
      255
102
RTVSPost2010PropOp44
 70
     1
102
RTVSPost2010Prop45
280
     0
102
RTVSPost2010PropOp45
 70
     1
102
RTVSPost2010Prop46
 90
       50
102
RTVSPost2010PropOp46
 70
     1
102
RTVSPost2010Prop47
 90
       50
102
RTVSPost2010PropOp47
 70
     1
102
RTVSPost2010Prop48
 90
       50
102
RTVSPost2010PropOp48
 70
     1
102
RTVSPost2010Prop49
280
     0
102
RTVSPost2010PropOp49
 70
     1
102
RTVSPost2010Prop50
 90
       50
102
RTVSPost2010PropOp50
 70
     1
102
RTVSPost2010Prop51ColorIndex
 90
      256
102
RTVSPost2010Prop51ColorRGB
 90
-16777216
102
RTVSPost2010PropOp51
 70
     0
102
RTVSPost2010Prop52
140
1.0
102
RTVSPost2010PropOp52
 70
     0
102
RTVSPost2010Prop53
 90
        2
102
RTVSPost2010PropOp53
 70
     1
102
RTVSPost2010Prop54
  1
strokes_ogs.tif
102
RTVSPost2010PropOp54
 70
     1
102
RTVSPost2010Prop55
280
     0
102
RTVSPost2010PropOp55
 70
     1
102
RTVSPost2010Prop56
140
1.0
102
RTVSPost2010PropOp56
 70
     1
102
RTVSPost2010Prop57
140
1.0
102
RTVSPost2010PropOp57
 70
     1
  0
XRECORD
  5
155
102
{ACAD_REACTORS
330
154
102
}
330
154
100
AcDbXrecord
280
     1
102
RTVSPropertyOp0
 70
     1
102
RTVSPropertyOp1
 70
     1
102
RTVSPropertyOp2
 70
     1
102
RTVSPropertyOp3
 70
     1
102
RTVSPropertyOp4
 70
     1
102
RTVSPropertyOp5
 70
     1
102
RTVSPropertyOp6
 70
     1
102
RTVSPropertyOp7
 70
     1
102
RTVSPropertyOp8
 70
     1
102
RTVSPropertyOp9
 70
     1
102
RTVSPropertyOp10
 70
     1
102
RTVSPropertyOp11
 70
     1
102
RTVSPropertyOp12
 70
     1
102
RTVSPropertyOp13
 70
     1
102
RTVSPropertyOp14
 70
     1
102
RTVSPropertyOp15
 70
     1
102
RTVSPropertyOp16
 70
     1
102
RTVSPropertyOp17
 70
     1
102
RTVSPropertyOp18
 70
     1
102
RTVSPropertyOp19
 70
     1
102
RTVSPropertyOp20
 70
     1
102
RTVSPropertyOp21
 70
     1
102
RTVSPropertyOp22
 70
     1
102
RTVSPropertyOp23
 70
     1
102
RTVSPropertyOp24
 70
     1
102
RTVSPropertyOp25
 70
     1
102
RTVSPropertyOp26
 70
     1
102
RTVSPropertyOp27
 70
     1
102
RTVSPropertyOp28
 70
     1
102
RTVSPropertyOp29
 70
     1
102
RTVSPropertyOp30
 70
     1
102
RTVSPropertyOp31
 70
     1
102
RTVSPropertyOp32
 70
     1
102
RTVSPropertyOp33
 70
     1
102
RTVSPropertyOp34
 70
     1
102
RTVSPropertyOp35
 70
     1
102
RTVSPropertyOp36
 70
     1
102
RTVSPropertyOp37
 70
     1
102
RTVSPropertyOp38
 70
     1
102
RTVSPropertyOp39
 70
     1
102
RTVSPropertyOp40
 70
     1
102
RTVSPropertyOp41
 70
     1
102
RTVSPropertyOp42
 70
     1
102
RTVSPropertyOp43
 70
     1
102
RTVSPropertyOp44
 70
     1
102
RTVSPropertyOp45
 70
     1
102
RTVSPropertyOp46
 70
     1
102
RTVSPropertyOp47
 70
     1
102
RTVSPropertyOp48
 70
     1
102
RTVSPropertyOp49
 70
     1
102
RTVSPropertyOp50
 70
     1
102
RTVSPropertyOp51
 70
     0
102
RTVSPropertyOp52
 70
     0
102
RTVSPropertyOp53
 70
     1
102
RTVSPropertyOp54
 70
     1
102
RTVSPropertyOp55
 70
     1
102
RTVSPropertyOp56
 70
     1
102
RTVSPropertyOp57
 70
     1
102
RTVSPost2010Prop28
280
     0
102
RTVSPost2010PropOp28
 70
     1
102
RTVSPost2010Prop29
280
     1
102
RTVSPost2010PropOp29
 70
     1
102
RTVSPost2010Prop30
280
     1
102
RTVSPost2010PropOp30
 70
     1
102
RTVSPost2010Prop31
280
     0
102
RTVSPost2010PropOp31
 70
     1
102
RTVSPost2010Prop32
280
     0
102
RTVSPost2010PropOp32
 70
     1
102
RTVSPost2010Prop33
280
     0
102
RTVSPost2010PropOp33
 70
     1
102
RTVSPost2010Prop34
280
     0
102
RTVSPost2010PropOp34
 70
     1
102
RTVSPost2010Prop35
280
     0
102
RTVSPost2010PropOp35
 70
     1
102
RTVSPost2010Prop36
280
     0
102
RTVSPost2010PropOp36
 70
     1
102
RTVSPost2010Prop37
 90
       50
102
RTVSPost2010PropOp37
 70
     1
102
RTVSPost2010Prop38
140
0.0
102
RTVSPost2010PropOp38
 70
     1
102
RTVSPost2010Prop39
140
1.0
102
RTVSPost2010PropOp39
 70
     1
102
RTVSPost2010Prop40
 90
        0
102
RTVSPost2010PropOp40
 70
     1
102
RTVSPost2010Prop41ColorIndex
 90
       18
102
RTVSPost2010Prop41ColorRGB
 90
        0
102
RTVSPost2010PropOp41
 70
     1
102
RTVSPost2010Prop42
 90
       50
102
RTVSPost2010PropOp42
 70
     1
102
RTVSPost2010Prop43
 90
        3
102
RTVSPost2010PropOp43
 70
     1
102
RTVSPost2010Prop44ColorIndex
 90
        5
102
RTVSPost2010Prop44ColorRGB
 90
      255
102
RTVSPost2010PropOp44
 70
     1
102
RTVSPost2010Prop45
280
     0
102
RTVSPost2010PropOp45
 70
     1
102
RTVSPost2010Prop46
 90
       50
102
RTVSPost2010PropOp46
 70
     1
102
RTVSPost2010Prop47
 90
       50
102
RTVSPost2010PropOp47
 70
     1
102
RTVSPost2010Prop48
 90
       50
102
RTVSPost2010PropOp48
 70
     1
102
RTVSPost2010Prop49
280
     0
102
RTVSPost2010PropOp49
 70
     1
102
RTVSPost2010Prop50
 90
       50
102
RTVSPost2010PropOp50
 70
     1
102
RTVSPost2010Prop51ColorIndex
 90
      256
102
RTVSPost2010Prop51ColorRGB
 90
-16777216
102
RTVSPost2010PropOp51
 70
     0
102
RTVSPost2010Prop52
140
1.0
102
RTVSPost2010PropOp52
 70
     0
102
RTVSPost2010Prop53
 90
        2
102
RTVSPost2010PropOp53
 70
     1
102
RTVSPost2010Prop54
  1
strokes_ogs.tif
102
RTVSPost2010PropOp54
 70
     1
102
RTVSPost2010Prop55
280
     0
102
RTVSPost2010PropOp55
 70
     1
102
RTVSPost2010Prop56
140
1.0
102
RTVSPost2010PropOp56
 70
     1
102
RTVSPost2010Prop57
140
1.0
102
RTVSPost2010PropOp57
 70
     1
  0
XRECORD
  5
157
102
{ACAD_REACTORS
330
156
102
}
330
156
100
AcDbXrecord
280
     1
102
RTVSPropertyOp0
 70
     1
102
RTVSPropertyOp1
 70
     1
102
RTVSPropertyOp2
 70
     1
102
RTVSPropertyOp3
 70
     1
102
RTVSPropertyOp4
 70
     1
102
RTVSPropertyOp5
 70
     1
102
RTVSPropertyOp6
 70
     1
102
RTVSPropertyOp7
 70
     1
102
RTVSPropertyOp8
 70
     1
102
RTVSPropertyOp9
 70
     1
102
RTVSPropertyOp10
 70
     1
102
RTVSPropertyOp11
 70
     1
102
RTVSPropertyOp12
 70
     1
102
RTVSPropertyOp13
 70
     1
102
RTVSPropertyOp14
 70
     1
102
RTVSPropertyOp15
 70
     1
102
RTVSPropertyOp16
 70
     1
102
RTVSPropertyOp17
 70
     1
102
RTVSPropertyOp18
 70
     1
102
RTVSPropertyOp19
 70
     1
102
RTVSPropertyOp20
 70
     1
102
RTVSPropertyOp21
 70
     1
102
RTVSPropertyOp22
 70
     1
102
RTVSPropertyOp23
 70
     1
102
RTVSPropertyOp24
 70
     1
102
RTVSPropertyOp25
 70
     1
102
RTVSPropertyOp26
 70
     1
102
RTVSPropertyOp27
 70
     1
102
RTVSPropertyOp28
 70
     1
102
RTVSPropertyOp29
 70
     1
102
RTVSPropertyOp30
 70
     1
102
RTVSPropertyOp31
 70
     1
102
RTVSPropertyOp32
 70
     1
102
RTVSPropertyOp33
 70
     1
102
RTVSPropertyOp34
 70
     1
102
RTVSPropertyOp35
 70
     1
102
RTVSPropertyOp36
 70
     1
102
RTVSPropertyOp37
 70
     1
102
RTVSPropertyOp38
 70
     1
102
RTVSPropertyOp39
 70
     1
102
RTVSPropertyOp40
 70
     1
102
RTVSPropertyOp41
 70
     1
102
RTVSPropertyOp42
 70
     1
102
RTVSPropertyOp43
 70
     1
102
RTVSPropertyOp44
 70
     1
102
RTVSPropertyOp45
 70
     1
102
RTVSPropertyOp46
 70
     1
102
RTVSPropertyOp47
 70
     1
102
RTVSPropertyOp48
 70
     1
102
RTVSPropertyOp49
 70
     1
102
RTVSPropertyOp50
 70
     1
102
RTVSPropertyOp51
 70
     0
102
RTVSPropertyOp52
 70
     0
102
RTVSPropertyOp53
 70
     1
102
RTVSPropertyOp54
 70
     1
102
RTVSPropertyOp55
 70
     1
102
RTVSPropertyOp56
 70
     1
102
RTVSPropertyOp57
 70
     1
102
RTVSPost2010Prop28
280
     0
102
RTVSPost2010PropOp28
 70
     1
102
RTVSPost2010Prop29
280
     1
102
RTVSPost2010PropOp29
 70
     1
102
RTVSPost2010Prop30
280
     1
102
RTVSPost2010PropOp30
 70
     1
102
RTVSPost2010Prop31
280
     0
102
RTVSPost2010PropOp31
 70
     1
102
RTVSPost2010Prop32
280
     0
102
RTVSPost2010PropOp32
 70
     1
102
RTVSPost2010Prop33
280
     0
102
RTVSPost2010PropOp33
 70
     1
102
RTVSPost2010Prop34
280
     0
102
RTVSPost2010PropOp34
 70
     1
102
RTVSPost2010Prop35
280
     0
102
RTVSPost2010PropOp35
 70
     1
102
RTVSPost2010Prop36
280
     0
102
RTVSPost2010PropOp36
 70
     1
102
RTVSPost2010Prop37
 90
       50
102
RTVSPost2010PropOp37
 70
     1
102
RTVSPost2010Prop38
140
0.0
102
RTVSPost2010PropOp38
 70
     1
102
RTVSPost2010Prop39
140
1.0
102
RTVSPost2010PropOp39
 70
     1
102
RTVSPost2010Prop40
 90
        0
102
RTVSPost2010PropOp40
 70
     1
102
RTVSPost2010Prop41ColorIndex
 90
       18
102
RTVSPost2010Prop41ColorRGB
 90
        0
102
RTVSPost2010PropOp41
 70
     1
102
RTVSPost2010Prop42
 90
       50
102
RTVSPost2010PropOp42
 70
     1
102
RTVSPost2010Prop43
 90
        3
102
RTVSPost2010PropOp43
 70
     1
102
RTVSPost2010Prop44ColorIndex
 90
        5
102
RTVSPost2010Prop44ColorRGB
 90
      255
102
RTVSPost2010PropOp44
 70
     1
102
RTVSPost2010Prop45
280
     0
102
RTVSPost2010PropOp45
 70
     1
102
RTVSPost2010Prop46
 90
       50
102
RTVSPost2010PropOp46
 70
     1
102
RTVSPost2010Prop47
 90
       50
102
RTVSPost2010PropOp47
 70
     1
102
RTVSPost2010Prop48
 90
       50
102
RTVSPost2010PropOp48
 70
     1
102
RTVSPost2010Prop49
280
     0
102
RTVSPost2010PropOp49
 70
     1
102
RTVSPost2010Prop50
 90
       50
102
RTVSPost2010PropOp50
 70
     1
102
RTVSPost2010Prop51ColorIndex
 90
      256
102
RTVSPost2010Prop51ColorRGB
 90
-16777216
102
RTVSPost2010PropOp51
 70
     0
102
RTVSPost2010Prop52
140
1.0
102
RTVSPost2010PropOp52
 70
     0
102
RTVSPost2010Prop53
 90
        2
102
RTVSPost2010PropOp53
 70
     1
102
RTVSPost2010Prop54
  1
strokes_ogs.tif
102
RTVSPost2010PropOp54
 70
     1
102
RTVSPost2010Prop55
280
     0
102
RTVSPost2010PropOp55
 70
     1
102
RTVSPost2010Prop56
140
1.0
102
RTVSPost2010PropOp56
 70
     1
102
RTVSPost2010Prop57
140
1.0
102
RTVSPost2010PropOp57
 70
     1
  0
XRECORD
  5
159
102
{ACAD_REACTORS
330
158
102
}
330
158
100
AcDbXrecord
280
     1
102
RTVSPropertyOp0
 70
     1
102
RTVSPropertyOp1
 70
     1
102
RTVSPropertyOp2
 70
     1
102
RTVSPropertyOp3
 70
     1
102
RTVSPropertyOp4
 70
     1
102
RTVSPropertyOp5
 70
     1
102
RTVSPropertyOp6
 70
     1
102
RTVSPropertyOp7
 70
     1
102
RTVSPropertyOp8
 70
     1
102
RTVSPropertyOp9
 70
     1
102
RTVSPropertyOp10
 70
     1
102
RTVSPropertyOp11
 70
     1
102
RTVSPropertyOp12
 70
     1
102
RTVSPropertyOp13
 70
     1
102
RTVSPropertyOp14
 70
     1
102
RTVSPropertyOp15
 70
     1
102
RTVSPropertyOp16
 70
     1
102
RTVSPropertyOp17
 70
     1
102
RTVSPropertyOp18
 70
     1
102
RTVSPropertyOp19
 70
     1
102
RTVSPropertyOp20
 70
     1
102
RTVSPropertyOp21
 70
     1
102
RTVSPropertyOp22
 70
     1
102
RTVSPropertyOp23
 70
     1
102
RTVSPropertyOp24
 70
     1
102
RTVSPropertyOp25
 70
     1
102
RTVSPropertyOp26
 70
     1
102
RTVSPropertyOp27
 70
     1
102
RTVSPropertyOp28
 70
     1
102
RTVSPropertyOp29
 70
     1
102
RTVSPropertyOp30
 70
     1
102
RTVSPropertyOp31
 70
     1
102
RTVSPropertyOp32
 70
     1
102
RTVSPropertyOp33
 70
     1
102
RTVSPropertyOp34
 70
     1
102
RTVSPropertyOp35
 70
     1
102
RTVSPropertyOp36
 70
     1
102
RTVSPropertyOp37
 70
     1
102
RTVSPropertyOp38
 70
     1
102
RTVSPropertyOp39
 70
     1
102
RTVSPropertyOp40
 70
     1
102
RTVSPropertyOp41
 70
     1
102
RTVSPropertyOp42
 70
     1
102
RTVSPropertyOp43
 70
     1
102
RTVSPropertyOp44
 70
     1
102
RTVSPropertyOp45
 70
     1
102
RTVSPropertyOp46
 70
     1
102
RTVSPropertyOp47
 70
     1
102
RTVSPropertyOp48
 70
     1
102
RTVSPropertyOp49
 70
     1
102
RTVSPropertyOp50
 70
     1
102
RTVSPropertyOp51
 70
     0
102
RTVSPropertyOp52
 70
     0
102
RTVSPropertyOp53
 70
     1
102
RTVSPropertyOp54
 70
     1
102
RTVSPropertyOp55
 70
     1
102
RTVSPropertyOp56
 70
     1
102
RTVSPropertyOp57
 70
     1
102
RTVSPost2010Prop28
280
     0
102
RTVSPost2010PropOp28
 70
     1
102
RTVSPost2010Prop29
280
     1
102
RTVSPost2010PropOp29
 70
     1
102
RTVSPost2010Prop30
280
     1
102
RTVSPost2010PropOp30
 70
     1
102
RTVSPost2010Prop31
280
     0
102
RTVSPost2010PropOp31
 70
     1
102
RTVSPost2010Prop32
280
     0
102
RTVSPost2010PropOp32
 70
     1
102
RTVSPost2010Prop33
280
     0
102
RTVSPost2010PropOp33
 70
     1
102
RTVSPost2010Prop34
280
     0
102
RTVSPost2010PropOp34
 70
     1
102
RTVSPost2010Prop35
280
     0
102
RTVSPost2010PropOp35
 70
     1
102
RTVSPost2010Prop36
280
     0
102
RTVSPost2010PropOp36
 70
     1
102
RTVSPost2010Prop37
 90
       50
102
RTVSPost2010PropOp37
 70
     1
102
RTVSPost2010Prop38
140
0.0
102
RTVSPost2010PropOp38
 70
     1
102
RTVSPost2010Prop39
140
1.0
102
RTVSPost2010PropOp39
 70
     1
102
RTVSPost2010Prop40
 90
        0
102
RTVSPost2010PropOp40
 70
     1
102
RTVSPost2010Prop41ColorIndex
 90
       18
102
RTVSPost2010Prop41ColorRGB
 90
        0
102
RTVSPost2010PropOp41
 70
     1
102
RTVSPost2010Prop42
 90
       50
102
RTVSPost2010PropOp42
 70
     1
102
RTVSPost2010Prop43
 90
        3
102
RTVSPost2010PropOp43
 70
     1
102
RTVSPost2010Prop44ColorIndex
 90
        5
102
RTVSPost2010Prop44ColorRGB
 90
      255
102
RTVSPost2010PropOp44
 70
     1
102
RTVSPost2010Prop45
280
     0
102
RTVSPost2010PropOp45
 70
     1
102
RTVSPost2010Prop46
 90
       50
102
RTVSPost2010PropOp46
 70
     1
102
RTVSPost2010Prop47
 90
       50
102
RTVSPost2010PropOp47
 70
     1
102
RTVSPost2010Prop48
 90
       50
102
RTVSPost2010PropOp48
 70
     1
102
RTVSPost2010Prop49
280
     0
102
RTVSPost2010PropOp49
 70
     1
102
RTVSPost2010Prop50
 90
       50
102
RTVSPost2010PropOp50
 70
     1
102
RTVSPost2010Prop51ColorIndex
 90
      256
102
RTVSPost2010Prop51ColorRGB
 90
-16777216
102
RTVSPost2010PropOp51
 70
     0
102
RTVSPost2010Prop52
140
1.0
102
RTVSPost2010PropOp52
 70
     0
102
RTVSPost2010Prop53
 90
        2
102
RTVSPost2010PropOp53
 70
     1
102
RTVSPost2010Prop54
  1
strokes_ogs.tif
102
RTVSPost2010PropOp54
 70
     1
102
RTVSPost2010Prop55
280
     0
102
RTVSPost2010PropOp55
 70
     1
102
RTVSPost2010Prop56
140
1.0
102
RTVSPost2010PropOp56
 70
     1
102
RTVSPost2010Prop57
140
1.0
102
RTVSPost2010PropOp57
 70
     1
  0
XRECORD
  5
15B
102
{ACAD_REACTORS
330
15A
102
}
330
15A
100
AcDbXrecord
280
     1
102
RTVSPropertyOp0
 70
     1
102
RTVSPropertyOp1
 70
     1
102
RTVSPropertyOp2
 70
     1
102
RTVSPropertyOp3
 70
     1
102
RTVSPropertyOp4
 70
     1
102
RTVSPropertyOp5
 70
     1
102
RTVSPropertyOp6
 70
     1
102
RTVSPropertyOp7
 70
     1
102
RTVSPropertyOp8
 70
     1
102
RTVSPropertyOp9
 70
     1
102
RTVSPropertyOp10
 70
     1
102
RTVSPropertyOp11
 70
     1
102
RTVSPropertyOp12
 70
     1
102
RTVSPropertyOp13
 70
     1
102
RTVSPropertyOp14
 70
     1
102
RTVSPropertyOp15
 70
     1
102
RTVSPropertyOp16
 70
     1
102
RTVSPropertyOp17
 70
     1
102
RTVSPropertyOp18
 70
     1
102
RTVSPropertyOp19
 70
     1
102
RTVSPropertyOp20
 70
     1
102
RTVSPropertyOp21
 70
     1
102
RTVSPropertyOp22
 70
     1
102
RTVSPropertyOp23
 70
     1
102
RTVSPropertyOp24
 70
     1
102
RTVSPropertyOp25
 70
     1
102
RTVSPropertyOp26
 70
     1
102
RTVSPropertyOp27
 70
     1
102
RTVSPropertyOp28
 70
     1
102
RTVSPropertyOp29
 70
     1
102
RTVSPropertyOp30
 70
     1
102
RTVSPropertyOp31
 70
     1
102
RTVSPropertyOp32
 70
     1
102
RTVSPropertyOp33
 70
     1
102
RTVSPropertyOp34
 70
     1
102
RTVSPropertyOp35
 70
     1
102
RTVSPropertyOp36
 70
     1
102
RTVSPropertyOp37
 70
     1
102
RTVSPropertyOp38
 70
     1
102
RTVSPropertyOp39
 70
     1
102
RTVSPropertyOp40
 70
     1
102
RTVSPropertyOp41
 70
     1
102
RTVSPropertyOp42
 70
     1
102
RTVSPropertyOp43
 70
     1
102
RTVSPropertyOp44
 70
     1
102
RTVSPropertyOp45
 70
     1
102
RTVSPropertyOp46
 70
     1
102
RTVSPropertyOp47
 70
     1
102
RTVSPropertyOp48
 70
     1
102
RTVSPropertyOp49
 70
     1
102
RTVSPropertyOp50
 70
     1
102
RTVSPropertyOp51
 70
     0
102
RTVSPropertyOp52
 70
     0
102
RTVSPropertyOp53
 70
     1
102
RTVSPropertyOp54
 70
     1
102
RTVSPropertyOp55
 70
     1
102
RTVSPropertyOp56
 70
     1
102
RTVSPropertyOp57
 70
     1
102
RTVSPost2010Prop28
280
     0
102
RTVSPost2010PropOp28
 70
     1
102
RTVSPost2010Prop29
280
     1
102
RTVSPost2010PropOp29
 70
     1
102
RTVSPost2010Prop30
280
     1
102
RTVSPost2010PropOp30
 70
     1
102
RTVSPost2010Prop31
280
     0
102
RTVSPost2010PropOp31
 70
     1
102
RTVSPost2010Prop32
280
     0
102
RTVSPost2010PropOp32
 70
     1
102
RTVSPost2010Prop33
280
     0
102
RTVSPost2010PropOp33
 70
     1
102
RTVSPost2010Prop34
280
     0
102
RTVSPost2010PropOp34
 70
     1
102
RTVSPost2010Prop35
280
     0
102
RTVSPost2010PropOp35
 70
     1
102
RTVSPost2010Prop36
280
     0
102
RTVSPost2010PropOp36
 70
     1
102
RTVSPost2010Prop37
 90
       50
102
RTVSPost2010PropOp37
 70
     1
102
RTVSPost2010Prop38
140
0.0
102
RTVSPost2010PropOp38
 70
     1
102
RTVSPost2010Prop39
140
1.0
102
RTVSPost2010PropOp39
 70
     1
102
RTVSPost2010Prop40
 90
        0
102
RTVSPost2010PropOp40
 70
     1
102
RTVSPost2010Prop41ColorIndex
 90
       18
102
RTVSPost2010Prop41ColorRGB
 90
        0
102
RTVSPost2010PropOp41
 70
     1
102
RTVSPost2010Prop42
 90
       50
102
RTVSPost2010PropOp42
 70
     1
102
RTVSPost2010Prop43
 90
        3
102
RTVSPost2010PropOp43
 70
     1
102
RTVSPost2010Prop44ColorIndex
 90
        5
102
RTVSPost2010Prop44ColorRGB
 90
      255
102
RTVSPost2010PropOp44
 70
     1
102
RTVSPost2010Prop45
280
     0
102
RTVSPost2010PropOp45
 70
     1
102
RTVSPost2010Prop46
 90
       50
102
RTVSPost2010PropOp46
 70
     1
102
RTVSPost2010Prop47
 90
       50
102
RTVSPost2010PropOp47
 70
     1
102
RTVSPost2010Prop48
 90
       50
102
RTVSPost2010PropOp48
 70
     1
102
RTVSPost2010Prop49
280
     0
102
RTVSPost2010PropOp49
 70
     1
102
RTVSPost2010Prop50
 90
       50
102
RTVSPost2010PropOp50
 70
     1
102
RTVSPost2010Prop51ColorIndex
 90
      256
102
RTVSPost2010Prop51ColorRGB
 90
-16777216
102
RTVSPost2010PropOp51
 70
     0
102
RTVSPost2010Prop52
140
1.0
102
RTVSPost2010PropOp52
 70
     0
102
RTVSPost2010Prop53
 90
        2
102
RTVSPost2010PropOp53
 70
     1
102
RTVSPost2010Prop54
  1
strokes_ogs.tif
102
RTVSPost2010PropOp54
 70
     1
102
RTVSPost2010Prop55
280
     0
102
RTVSPost2010PropOp55
 70
     1
102
RTVSPost2010Prop56
140
1.0
102
RTVSPost2010PropOp56
 70
     1
102
RTVSPost2010Prop57
140
1.0
102
RTVSPost2010PropOp57
 70
     1
  0
XRECORD
  5
161
102
{ACAD_REACTORS
330
160
102
}
330
160
100
AcDbXrecord
280
     1
102
RTVSPropertyOp0
 70
     1
102
RTVSPropertyOp1
 70
     1
102
RTVSPropertyOp2
 70
     1
102
RTVSPropertyOp3
 70
     1
102
RTVSPropertyOp4
 70
     1
102
RTVSPropertyOp5
 70
     1
102
RTVSPropertyOp6
 70
     1
102
RTVSPropertyOp7
 70
     1
102
RTVSPropertyOp8
 70
     1
102
RTVSPropertyOp9
 70
     1
102
RTVSPropertyOp10
 70
     1
102
RTVSPropertyOp11
 70
     1
102
RTVSPropertyOp12
 70
     1
102
RTVSPropertyOp13
 70
     1
102
RTVSPropertyOp14
 70
     1
102
RTVSPropertyOp15
 70
     1
102
RTVSPropertyOp16
 70
     1
102
RTVSPropertyOp17
 70
     1
102
RTVSPropertyOp18
 70
     1
102
RTVSPropertyOp19
 70
     1
102
RTVSPropertyOp20
 70
     1
102
RTVSPropertyOp21
 70
     1
102
RTVSPropertyOp22
 70
     1
102
RTVSPropertyOp23
 70
     1
102
RTVSPropertyOp24
 70
     1
102
RTVSPropertyOp25
 70
     1
102
RTVSPropertyOp26
 70
     1
102
RTVSPropertyOp27
 70
     1
102
RTVSPropertyOp28
 70
     1
102
RTVSPropertyOp29
 70
     1
102
RTVSPropertyOp30
 70
     1
102
RTVSPropertyOp31
 70
     1
102
RTVSPropertyOp32
 70
     1
102
RTVSPropertyOp33
 70
     1
102
RTVSPropertyOp34
 70
     1
102
RTVSPropertyOp35
 70
     1
102
RTVSPropertyOp36
 70
     1
102
RTVSPropertyOp37
 70
     1
102
RTVSPropertyOp38
 70
     1
102
RTVSPropertyOp39
 70
     1
102
RTVSPropertyOp40
 70
     1
102
RTVSPropertyOp41
 70
     1
102
RTVSPropertyOp42
 70
     1
102
RTVSPropertyOp43
 70
     1
102
RTVSPropertyOp44
 70
     1
102
RTVSPropertyOp45
 70
     1
102
RTVSPropertyOp46
 70
     1
102
RTVSPropertyOp47
 70
     1
102
RTVSPropertyOp48
 70
     1
102
RTVSPropertyOp49
 70
     1
102
RTVSPropertyOp50
 70
     1
102
RTVSPropertyOp51
 70
     0
102
RTVSPropertyOp52
 70
     0
102
RTVSPropertyOp53
 70
     1
102
RTVSPropertyOp54
 70
     1
102
RTVSPropertyOp55
 70
     1
102
RTVSPropertyOp56
 70
     1
102
RTVSPropertyOp57
 70
     1
102
RTVSPost2010Prop28
280
     0
102
RTVSPost2010PropOp28
 70
     1
102
RTVSPost2010Prop29
280
     1
102
RTVSPost2010PropOp29
 70
     1
102
RTVSPost2010Prop30
280
     1
102
RTVSPost2010PropOp30
 70
     1
102
RTVSPost2010Prop31
280
     0
102
RTVSPost2010PropOp31
 70
     1
102
RTVSPost2010Prop32
280
     0
102
RTVSPost2010PropOp32
 70
     1
102
RTVSPost2010Prop33
280
     0
102
RTVSPost2010PropOp33
 70
     1
102
RTVSPost2010Prop34
280
     0
102
RTVSPost2010PropOp34
 70
     1
102
RTVSPost2010Prop35
280
     0
102
RTVSPost2010PropOp35
 70
     1
102
RTVSPost2010Prop36
280
     0
102
RTVSPost2010PropOp36
 70
     1
102
RTVSPost2010Prop37
 90
       50
102
RTVSPost2010PropOp37
 70
     1
102
RTVSPost2010Prop38
140
0.0
102
RTVSPost2010PropOp38
 70
     1
102
RTVSPost2010Prop39
140
1.0
102
RTVSPost2010PropOp39
 70
     1
102
RTVSPost2010Prop40
 90
        0
102
RTVSPost2010PropOp40
 70
     1
102
RTVSPost2010Prop41ColorIndex
 90
       18
102
RTVSPost2010Prop41ColorRGB
 90
        0
102
RTVSPost2010PropOp41
 70
     1
102
RTVSPost2010Prop42
 90
       50
102
RTVSPost2010PropOp42
 70
     1
102
RTVSPost2010Prop43
 90
        3
102
RTVSPost2010PropOp43
 70
     1
102
RTVSPost2010Prop44ColorIndex
 90
        5
102
RTVSPost2010Prop44ColorRGB
 90
      255
102
RTVSPost2010PropOp44
 70
     1
102
RTVSPost2010Prop45
280
     0
102
RTVSPost2010PropOp45
 70
     1
102
RTVSPost2010Prop46
 90
       50
102
RTVSPost2010PropOp46
 70
     1
102
RTVSPost2010Prop47
 90
       50
102
RTVSPost2010PropOp47
 70
     1
102
RTVSPost2010Prop48
 90
       50
102
RTVSPost2010PropOp48
 70
     1
102
RTVSPost2010Prop49
280
     0
102
RTVSPost2010PropOp49
 70
     1
102
RTVSPost2010Prop50
 90
       50
102
RTVSPost2010PropOp50
 70
     1
102
RTVSPost2010Prop51ColorIndex
 90
      256
102
RTVSPost2010Prop51ColorRGB
 90
-16777216
102
RTVSPost2010PropOp51
 70
     0
102
RTVSPost2010Prop52
140
1.0
102
RTVSPost2010PropOp52
 70
     0
102
RTVSPost2010Prop53
 90
        2
102
RTVSPost2010PropOp53
 70
     1
102
RTVSPost2010Prop54
  1
strokes_ogs.tif
102
RTVSPost2010PropOp54
 70
     1
102
RTVSPost2010Prop55
280
     0
102
RTVSPost2010PropOp55
 70
     1
102
RTVSPost2010Prop56
140
1.0
102
RTVSPost2010PropOp56
 70
     1
102
RTVSPost2010Prop57
140
1.0
102
RTVSPost2010PropOp57
 70
     1
  0
XRECORD
  5
175
102
{ACAD_REACTORS
330
174
102
}
330
174
100
AcDbXrecord
280
     1
102
RTVSPropertyOp0
 70
     0
102
RTVSPropertyOp1
 70
     0
102
RTVSPropertyOp2
 70
     0
102
RTVSPropertyOp3
 70
     0
102
RTVSPropertyOp4
 70
     0
102
RTVSPropertyOp5
 70
     0
102
RTVSPropertyOp6
 70
     0
102
RTVSPropertyOp7
 70
     0
102
RTVSPropertyOp8
 70
     0
102
RTVSPropertyOp9
 70
     0
102
RTVSPropertyOp10
 70
     0
102
RTVSPropertyOp11
 70
     0
102
RTVSPropertyOp12
 70
     0
102
RTVSPropertyOp13
 70
     0
102
RTVSPropertyOp14
 70
     2
102
RTVSPropertyOp15
 70
     0
102
RTVSPropertyOp16
 70
     0
102
RTVSPropertyOp17
 70
     0
102
RTVSPropertyOp18
 70
     0
102
RTVSPropertyOp19
 70
     0
102
RTVSPropertyOp20
 70
     0
102
RTVSPropertyOp21
 70
     0
102
RTVSPropertyOp22
 70
     0
102
RTVSPropertyOp23
 70
     0
102
RTVSPropertyOp24
 70
     0
102
RTVSPropertyOp25
 70
     0
102
RTVSPropertyOp26
 70
     0
102
RTVSPropertyOp27
 70
     0
102
RTVSPropertyOp28
 70
     0
102
RTVSPropertyOp29
 70
     0
102
RTVSPropertyOp30
 70
     0
102
RTVSPropertyOp31
 70
     0
102
RTVSPropertyOp32
 70
     0
102
RTVSPropertyOp33
 70
     0
102
RTVSPropertyOp34
 70
     0
102
RTVSPropertyOp35
 70
     0
102
RTVSPropertyOp36
 70
     0
102
RTVSPropertyOp37
 70
     0
102
RTVSPropertyOp38
 70
     0
102
RTVSPropertyOp39
 70
     0
102
RTVSPropertyOp40
 70
     0
102
RTVSPropertyOp41
 70
     0
102
RTVSPropertyOp42
 70
     0
102
RTVSPropertyOp43
 70
     0
102
RTVSPropertyOp44
 70
     0
102
RTVSPropertyOp45
 70
     0
102
RTVSPropertyOp46
 70
     0
102
RTVSPropertyOp47
 70
     0
102
RTVSPropertyOp48
 70
     0
102
RTVSPropertyOp49
 70
     0
102
RTVSPropertyOp50
 70
     0
102
RTVSPropertyOp51
 70
     0
102
RTVSPropertyOp52
 70
     0
102
RTVSPropertyOp53
 70
     0
102
RTVSPropertyOp54
 70
     0
102
RTVSPropertyOp55
 70
     0
102
RTVSPropertyOp56
 70
     0
102
RTVSPropertyOp57
 70
     0
102
RTVSPost2010Prop28
280
     0
102
RTVSPost2010PropOp28
 70
     0
102
RTVSPost2010Prop29
280
     1
102
RTVSPost2010PropOp29
 70
     0
102
RTVSPost2010Prop30
280
     1
102
RTVSPost2010PropOp30
 70
     0
102
RTVSPost2010Prop31
280
     0
102
RTVSPost2010PropOp31
 70
     0
102
RTVSPost2010Prop32
280
     0
102
RTVSPost2010PropOp32
 70
     0
102
RTVSPost2010Prop33
280
     0
102
RTVSPost2010PropOp33
 70
     0
102
RTVSPost2010Prop34
280
     0
102
RTVSPost2010PropOp34
 70
     0
102
RTVSPost2010Prop35
280
     0
102
RTVSPost2010PropOp35
 70
     0
102
RTVSPost2010Prop36
280
     0
102
RTVSPost2010PropOp36
 70
     0
102
RTVSPost2010Prop37
 90
       50
102
RTVSPost2010PropOp37
 70
     0
102
RTVSPost2010Prop38
140
0.0
102
RTVSPost2010PropOp38
 70
     0
102
RTVSPost2010Prop39
140
1.0
102
RTVSPost2010PropOp39
 70
     0
102
RTVSPost2010Prop40
 90
        0
102
RTVSPost2010PropOp40
 70
     0
102
RTVSPost2010Prop41ColorIndex
 90
       18
102
RTVSPost2010Prop41ColorRGB
 90
        0
102
RTVSPost2010PropOp41
 70
     0
102
RTVSPost2010Prop42
 90
       50
102
RTVSPost2010PropOp42
 70
     0
102
RTVSPost2010Prop43
 90
        3
102
RTVSPost2010PropOp43
 70
     0
102
RTVSPost2010Prop44ColorIndex
 90
        5
102
RTVSPost2010Prop44ColorRGB
 90
      255
102
RTVSPost2010PropOp44
 70
     0
102
RTVSPost2010Prop45
280
     0
102
RTVSPost2010PropOp45
 70
     0
102
RTVSPost2010Prop46
 90
       50
102
RTVSPost2010PropOp46
 70
     0
102
RTVSPost2010Prop47
 90
       50
102
RTVSPost2010PropOp47
 70
     0
102
RTVSPost2010Prop48
 90
       50
102
RTVSPost2010PropOp48
 70
     0
102
RTVSPost2010Prop49
280
     0
102
RTVSPost2010PropOp49
 70
     0
102
RTVSPost2010Prop50
 90
       50
102
RTVSPost2010PropOp50
 70
     0
102
RTVSPost2010Prop51ColorIndex
 90
      256
102
RTVSPost2010Prop51ColorRGB
 90
-16777216
102
RTVSPost2010PropOp51
 70
     0
102
RTVSPost2010Prop52
140
1.0
102
RTVSPost2010PropOp52
 70
     0
102
RTVSPost2010Prop53
 90
        2
102
RTVSPost2010PropOp53
 70
     0
102
RTVSPost2010Prop54
  1
strokes_ogs.tif
102
RTVSPost2010PropOp54
 70
     0
102
RTVSPost2010Prop55
280
     0
102
RTVSPost2010PropOp55
 70
     0
102
RTVSPost2010Prop56
140
1.0
102
RTVSPost2010PropOp56
 70
     0
102
RTVSPost2010Prop57
140
1.0
102
RTVSPost2010PropOp57
 70
     0
  0
XRECORD
  5
16F
102
{ACAD_REACTORS
330
16E
102
}
330
16E
100
AcDbXrecord
280
     1
102
RTVSPropertyOp0
 70
     1
102
RTVSPropertyOp1
 70
     1
102
RTVSPropertyOp2
 70
     1
102
RTVSPropertyOp3
 70
     1
102
RTVSPropertyOp4
 70
     1
102
RTVSPropertyOp5
 70
     1
102
RTVSPropertyOp6
 70
     1
102
RTVSPropertyOp7
 70
     1
102
RTVSPropertyOp8
 70
     1
102
RTVSPropertyOp9
 70
     1
102
RTVSPropertyOp10
 70
     1
102
RTVSPropertyOp11
 70
     1
102
RTVSPropertyOp12
 70
     1
102
RTVSPropertyOp13
 70
     1
102
RTVSPropertyOp14
 70
     1
102
RTVSPropertyOp15
 70
     1
102
RTVSPropertyOp16
 70
     1
102
RTVSPropertyOp17
 70
     1
102
RTVSPropertyOp18
 70
     1
102
RTVSPropertyOp19
 70
     1
102
RTVSPropertyOp20
 70
     1
102
RTVSPropertyOp21
 70
     1
102
RTVSPropertyOp22
 70
     1
102
RTVSPropertyOp23
 70
     1
102
RTVSPropertyOp24
 70
     1
102
RTVSPropertyOp25
 70
     1
102
RTVSPropertyOp26
 70
     1
102
RTVSPropertyOp27
 70
     1
102
RTVSPropertyOp28
 70
     1
102
RTVSPropertyOp29
 70
     1
102
RTVSPropertyOp30
 70
     1
102
RTVSPropertyOp31
 70
     1
102
RTVSPropertyOp32
 70
     1
102
RTVSPropertyOp33
 70
     1
102
RTVSPropertyOp34
 70
     1
102
RTVSPropertyOp35
 70
     1
102
RTVSPropertyOp36
 70
     1
102
RTVSPropertyOp37
 70
     1
102
RTVSPropertyOp38
 70
     1
102
RTVSPropertyOp39
 70
     1
102
RTVSPropertyOp40
 70
     1
102
RTVSPropertyOp41
 70
     1
102
RTVSPropertyOp42
 70
     1
102
RTVSPropertyOp43
 70
     1
102
RTVSPropertyOp44
 70
     1
102
RTVSPropertyOp45
 70
     1
102
RTVSPropertyOp46
 70
     1
102
RTVSPropertyOp47
 70
     1
102
RTVSPropertyOp48
 70
     1
102
RTVSPropertyOp49
 70
     1
102
RTVSPropertyOp50
 70
     1
102
RTVSPropertyOp51
 70
     0
102
RTVSPropertyOp52
 70
     0
102
RTVSPropertyOp53
 70
     1
102
RTVSPropertyOp54
 70
     1
102
RTVSPropertyOp55
 70
     1
102
RTVSPropertyOp56
 70
     1
102
RTVSPropertyOp57
 70
     1
102
RTVSPost2010Prop28
280
     0
102
RTVSPost2010PropOp28
 70
     1
102
RTVSPost2010Prop29
280
     1
102
RTVSPost2010PropOp29
 70
     1
102
RTVSPost2010Prop30
280
     1
102
RTVSPost2010PropOp30
 70
     1
102
RTVSPost2010Prop31
280
     0
102
RTVSPost2010PropOp31
 70
     1
102
RTVSPost2010Prop32
280
     0
102
RTVSPost2010PropOp32
 70
     1
102
RTVSPost2010Prop33
280
     0
102
RTVSPost2010PropOp33
 70
     1
102
RTVSPost2010Prop34
280
     0
102
RTVSPost2010PropOp34
 70
     1
102
RTVSPost2010Prop35
280
     0
102
RTVSPost2010PropOp35
 70
     1
102
RTVSPost2010Prop36
280
     0
102
RTVSPost2010PropOp36
 70
     1
102
RTVSPost2010Prop37
 90
       50
102
RTVSPost2010PropOp37
 70
     1
102
RTVSPost2010Prop38
140
0.0
102
RTVSPost2010PropOp38
 70
     1
102
RTVSPost2010Prop39
140
1.0
102
RTVSPost2010PropOp39
 70
     1
102
RTVSPost2010Prop40
 90
        0
102
RTVSPost2010PropOp40
 70
     1
102
RTVSPost2010Prop41ColorIndex
 90
       18
102
RTVSPost2010Prop41ColorRGB
 90
        0
102
RTVSPost2010PropOp41
 70
     1
102
RTVSPost2010Prop42
 90
       50
102
RTVSPost2010PropOp42
 70
     1
102
RTVSPost2010Prop43
 90
        3
102
RTVSPost2010PropOp43
 70
     1
102
RTVSPost2010Prop44ColorIndex
 90
        5
102
RTVSPost2010Prop44ColorRGB
 90
      255
102
RTVSPost2010PropOp44
 70
     1
102
RTVSPost2010Prop45
280
     0
102
RTVSPost2010PropOp45
 70
     1
102
RTVSPost2010Prop46
 90
       50
102
RTVSPost2010PropOp46
 70
     1
102
RTVSPost2010Prop47
 90
       50
102
RTVSPost2010PropOp47
 70
     1
102
RTVSPost2010Prop48
 90
       50
102
RTVSPost2010PropOp48
 70
     1
102
RTVSPost2010Prop49
280
     0
102
RTVSPost2010PropOp49
 70
     1
102
RTVSPost2010Prop50
 90
       50
102
RTVSPost2010PropOp50
 70
     1
102
RTVSPost2010Prop51ColorIndex
 90
      256
102
RTVSPost2010Prop51ColorRGB
 90
-16777216
102
RTVSPost2010PropOp51
 70
     0
102
RTVSPost2010Prop52
140
1.0
102
RTVSPost2010PropOp52
 70
     0
102
RTVSPost2010Prop53
 90
        2
102
RTVSPost2010PropOp53
 70
     1
102
RTVSPost2010Prop54
  1
strokes_ogs.tif
102
RTVSPost2010PropOp54
 70
     1
102
RTVSPost2010Prop55
280
     0
102
RTVSPost2010PropOp55
 70
     1
102
RTVSPost2010Prop56
140
1.0
102
RTVSPost2010PropOp56
 70
     1
102
RTVSPost2010Prop57
140
1.0
102
RTVSPost2010PropOp57
 70
     1
  0
XRECORD
  5
177
102
{ACAD_REACTORS
330
176
102
}
330
176
100
AcDbXrecord
280
     1
102
RTVSPropertyOp0
 70
     0
102
RTVSPropertyOp1
 70
     0
102
RTVSPropertyOp2
 70
     0
102
RTVSPropertyOp3
 70
     0
102
RTVSPropertyOp4
 70
     0
102
RTVSPropertyOp5
 70
     0
102
RTVSPropertyOp6
 70
     0
102
RTVSPropertyOp7
 70
     0
102
RTVSPropertyOp8
 70
     0
102
RTVSPropertyOp9
 70
     0
102
RTVSPropertyOp10
 70
     0
102
RTVSPropertyOp11
 70
     0
102
RTVSPropertyOp12
 70
     0
102
RTVSPropertyOp13
 70
     0
102
RTVSPropertyOp14
 70
     2
102
RTVSPropertyOp15
 70
     0
102
RTVSPropertyOp16
 70
     0
102
RTVSPropertyOp17
 70
     0
102
RTVSPropertyOp18
 70
     0
102
RTVSPropertyOp19
 70
     0
102
RTVSPropertyOp20
 70
     0
102
RTVSPropertyOp21
 70
     0
102
RTVSPropertyOp22
 70
     0
102
RTVSPropertyOp23
 70
     0
102
RTVSPropertyOp24
 70
     0
102
RTVSPropertyOp25
 70
     0
102
RTVSPropertyOp26
 70
     0
102
RTVSPropertyOp27
 70
     0
102
RTVSPropertyOp28
 70
     0
102
RTVSPropertyOp29
 70
     0
102
RTVSPropertyOp30
 70
     0
102
RTVSPropertyOp31
 70
     0
102
RTVSPropertyOp32
 70
     0
102
RTVSPropertyOp33
 70
     0
102
RTVSPropertyOp34
 70
     0
102
RTVSPropertyOp35
 70
     0
102
RTVSPropertyOp36
 70
     0
102
RTVSPropertyOp37
 70
     0
102
RTVSPropertyOp38
 70
     0
102
RTVSPropertyOp39
 70
     0
102
RTVSPropertyOp40
 70
     0
102
RTVSPropertyOp41
 70
     0
102
RTVSPropertyOp42
 70
     0
102
RTVSPropertyOp43
 70
     0
102
RTVSPropertyOp44
 70
     0
102
RTVSPropertyOp45
 70
     0
102
RTVSPropertyOp46
 70
     0
102
RTVSPropertyOp47
 70
     0
102
RTVSPropertyOp48
 70
     0
102
RTVSPropertyOp49
 70
     0
102
RTVSPropertyOp50
 70
     0
102
RTVSPropertyOp51
 70
     0
102
RTVSPropertyOp52
 70
     0
102
RTVSPropertyOp53
 70
     0
102
RTVSPropertyOp54
 70
     0
102
RTVSPropertyOp55
 70
     0
102
RTVSPropertyOp56
 70
     0
102
RTVSPropertyOp57
 70
     0
102
RTVSPost2010Prop28
280
     0
102
RTVSPost2010PropOp28
 70
     0
102
RTVSPost2010Prop29
280
     1
102
RTVSPost2010PropOp29
 70
     0
102
RTVSPost2010Prop30
280
     1
102
RTVSPost2010PropOp30
 70
     0
102
RTVSPost2010Prop31
280
     0
102
RTVSPost2010PropOp31
 70
     0
102
RTVSPost2010Prop32
280
     0
102
RTVSPost2010PropOp32
 70
     0
102
RTVSPost2010Prop33
280
     0
102
RTVSPost2010PropOp33
 70
     0
102
RTVSPost2010Prop34
280
     0
102
RTVSPost2010PropOp34
 70
     0
102
RTVSPost2010Prop35
280
     0
102
RTVSPost2010PropOp35
 70
     0
102
RTVSPost2010Prop36
280
     0
102
RTVSPost2010PropOp36
 70
     0
102
RTVSPost2010Prop37
 90
       50
102
RTVSPost2010PropOp37
 70
     0
102
RTVSPost2010Prop38
140
0.0
102
RTVSPost2010PropOp38
 70
     0
102
RTVSPost2010Prop39
140
1.0
102
RTVSPost2010PropOp39
 70
     0
102
RTVSPost2010Prop40
 90
        0
102
RTVSPost2010PropOp40
 70
     0
102
RTVSPost2010Prop41ColorIndex
 90
       18
102
RTVSPost2010Prop41ColorRGB
 90
        0
102
RTVSPost2010PropOp41
 70
     0
102
RTVSPost2010Prop42
 90
       50
102
RTVSPost2010PropOp42
 70
     0
102
RTVSPost2010Prop43
 90
        3
102
RTVSPost2010PropOp43
 70
     0
102
RTVSPost2010Prop44ColorIndex
 90
        5
102
RTVSPost2010Prop44ColorRGB
 90
      255
102
RTVSPost2010PropOp44
 70
     0
102
RTVSPost2010Prop45
280
     0
102
RTVSPost2010PropOp45
 70
     0
102
RTVSPost2010Prop46
 90
       50
102
RTVSPost2010PropOp46
 70
     0
102
RTVSPost2010Prop47
 90
       50
102
RTVSPost2010PropOp47
 70
     0
102
RTVSPost2010Prop48
 90
       50
102
RTVSPost2010PropOp48
 70
     0
102
RTVSPost2010Prop49
280
     0
102
RTVSPost2010PropOp49
 70
     0
102
RTVSPost2010Prop50
 90
       50
102
RTVSPost2010PropOp50
 70
     0
102
RTVSPost2010Prop51ColorIndex
 90
      256
102
RTVSPost2010Prop51ColorRGB
 90
-16777216
102
RTVSPost2010PropOp51
 70
     0
102
RTVSPost2010Prop52
140
1.0
102
RTVSPost2010PropOp52
 70
     0
102
RTVSPost2010Prop53
 90
        2
102
RTVSPost2010PropOp53
 70
     0
102
RTVSPost2010Prop54
  1
strokes_ogs.tif
102
RTVSPost2010PropOp54
 70
     0
102
RTVSPost2010Prop55
280
     0
102
RTVSPost2010PropOp55
 70
     0
102
RTVSPost2010Prop56
140
1.0
102
RTVSPost2010PropOp56
 70
     0
102
RTVSPost2010Prop57
140
1.0
102
RTVSPost2010PropOp57
 70
     0
  0
XRECORD
  5
165
102
{ACAD_REACTORS
330
164
102
}
330
164
100
AcDbXrecord
280
     1
102
RTVSPropertyOp0
 70
     1
102
RTVSPropertyOp1
 70
     1
102
RTVSPropertyOp2
 70
     1
102
RTVSPropertyOp3
 70
     1
102
RTVSPropertyOp4
 70
     1
102
RTVSPropertyOp5
 70
     1
102
RTVSPropertyOp6
 70
     1
102
RTVSPropertyOp7
 70
     1
102
RTVSPropertyOp8
 70
     1
102
RTVSPropertyOp9
 70
     1
102
RTVSPropertyOp10
 70
     1
102
RTVSPropertyOp11
 70
     1
102
RTVSPropertyOp12
 70
     1
102
RTVSPropertyOp13
 70
     1
102
RTVSPropertyOp14
 70
     1
102
RTVSPropertyOp15
 70
     1
102
RTVSPropertyOp16
 70
     1
102
RTVSPropertyOp17
 70
     1
102
RTVSPropertyOp18
 70
     1
102
RTVSPropertyOp19
 70
     1
102
RTVSPropertyOp20
 70
     1
102
RTVSPropertyOp21
 70
     1
102
RTVSPropertyOp22
 70
     1
102
RTVSPropertyOp23
 70
     1
102
RTVSPropertyOp24
 70
     1
102
RTVSPropertyOp25
 70
     1
102
RTVSPropertyOp26
 70
     1
102
RTVSPropertyOp27
 70
     1
102
RTVSPropertyOp28
 70
     1
102
RTVSPropertyOp29
 70
     1
102
RTVSPropertyOp30
 70
     1
102
RTVSPropertyOp31
 70
     1
102
RTVSPropertyOp32
 70
     1
102
RTVSPropertyOp33
 70
     1
102
RTVSPropertyOp34
 70
     1
102
RTVSPropertyOp35
 70
     1
102
RTVSPropertyOp36
 70
     1
102
RTVSPropertyOp37
 70
     1
102
RTVSPropertyOp38
 70
     1
102
RTVSPropertyOp39
 70
     1
102
RTVSPropertyOp40
 70
     1
102
RTVSPropertyOp41
 70
     1
102
RTVSPropertyOp42
 70
     1
102
RTVSPropertyOp43
 70
     1
102
RTVSPropertyOp44
 70
     1
102
RTVSPropertyOp45
 70
     1
102
RTVSPropertyOp46
 70
     1
102
RTVSPropertyOp47
 70
     1
102
RTVSPropertyOp48
 70
     1
102
RTVSPropertyOp49
 70
     1
102
RTVSPropertyOp50
 70
     1
102
RTVSPropertyOp51
 70
     0
102
RTVSPropertyOp52
 70
     0
102
RTVSPropertyOp53
 70
     1
102
RTVSPropertyOp54
 70
     1
102
RTVSPropertyOp55
 70
     1
102
RTVSPropertyOp56
 70
     1
102
RTVSPropertyOp57
 70
     1
102
RTVSPost2010Prop28
280
     0
102
RTVSPost2010PropOp28
 70
     1
102
RTVSPost2010Prop29
280
     1
102
RTVSPost2010PropOp29
 70
     1
102
RTVSPost2010Prop30
280
     1
102
RTVSPost2010PropOp30
 70
     1
102
RTVSPost2010Prop31
280
     0
102
RTVSPost2010PropOp31
 70
     1
102
RTVSPost2010Prop32
280
     0
102
RTVSPost2010PropOp32
 70
     1
102
RTVSPost2010Prop33
280
     0
102
RTVSPost2010PropOp33
 70
     1
102
RTVSPost2010Prop34
280
     0
102
RTVSPost2010PropOp34
 70
     1
102
RTVSPost2010Prop35
280
     0
102
RTVSPost2010PropOp35
 70
     1
102
RTVSPost2010Prop36
280
     0
102
RTVSPost2010PropOp36
 70
     1
102
RTVSPost2010Prop37
 90
       50
102
RTVSPost2010PropOp37
 70
     1
102
RTVSPost2010Prop38
140
0.0
102
RTVSPost2010PropOp38
 70
     1
102
RTVSPost2010Prop39
140
1.0
102
RTVSPost2010PropOp39
 70
     1
102
RTVSPost2010Prop40
 90
        0
102
RTVSPost2010PropOp40
 70
     1
102
RTVSPost2010Prop41ColorIndex
 90
       18
102
RTVSPost2010Prop41ColorRGB
 90
        0
102
RTVSPost2010PropOp41
 70
     1
102
RTVSPost2010Prop42
 90
       50
102
RTVSPost2010PropOp42
 70
     1
102
RTVSPost2010Prop43
 90
        3
102
RTVSPost2010PropOp43
 70
     1
102
RTVSPost2010Prop44ColorIndex
 90
        5
102
RTVSPost2010Prop44ColorRGB
 90
      255
102
RTVSPost2010PropOp44
 70
     1
102
RTVSPost2010Prop45
280
     0
102
RTVSPost2010PropOp45
 70
     1
102
RTVSPost2010Prop46
 90
       50
102
RTVSPost2010PropOp46
 70
     1
102
RTVSPost2010Prop47
 90
       50
102
RTVSPost2010PropOp47
 70
     1
102
RTVSPost2010Prop48
 90
       50
102
RTVSPost2010PropOp48
 70
     1
102
RTVSPost2010Prop49
280
     0
102
RTVSPost2010PropOp49
 70
     1
102
RTVSPost2010Prop50
 90
       50
102
RTVSPost2010PropOp50
 70
     1
102
RTVSPost2010Prop51ColorIndex
 90
      256
102
RTVSPost2010Prop51ColorRGB
 90
-16777216
102
RTVSPost2010PropOp51
 70
     0
102
RTVSPost2010Prop52
140
1.0
102
RTVSPost2010PropOp52
 70
     0
102
RTVSPost2010Prop53
 90
        2
102
RTVSPost2010PropOp53
 70
     1
102
RTVSPost2010Prop54
  1
strokes_ogs.tif
102
RTVSPost2010PropOp54
 70
     1
102
RTVSPost2010Prop55
280
     0
102
RTVSPost2010PropOp55
 70
     1
102
RTVSPost2010Prop56
140
1.0
102
RTVSPost2010PropOp56
 70
     1
102
RTVSPost2010Prop57
140
1.0
102
RTVSPost2010PropOp57
 70
     1
  0
XRECORD
  5
183
102
{ACAD_REACTORS
330
182
102
}
330
182
100
AcDbXrecord
280
     1
102
RTVSPropertyOp0
 70
     1
102
RTVSPropertyOp1
 70
     1
102
RTVSPropertyOp2
 70
     1
102
RTVSPropertyOp3
 70
     1
102
RTVSPropertyOp4
 70
     1
102
RTVSPropertyOp5
 70
     1
102
RTVSPropertyOp6
 70
     1
102
RTVSPropertyOp7
 70
     1
102
RTVSPropertyOp8
 70
     1
102
RTVSPropertyOp9
 70
     1
102
RTVSPropertyOp10
 70
     1
102
RTVSPropertyOp11
 70
     1
102
RTVSPropertyOp12
 70
     1
102
RTVSPropertyOp13
 70
     1
102
RTVSPropertyOp14
 70
     1
102
RTVSPropertyOp15
 70
     1
102
RTVSPropertyOp16
 70
     1
102
RTVSPropertyOp17
 70
     1
102
RTVSPropertyOp18
 70
     1
102
RTVSPropertyOp19
 70
     1
102
RTVSPropertyOp20
 70
     1
102
RTVSPropertyOp21
 70
     1
102
RTVSPropertyOp22
 70
     1
102
RTVSPropertyOp23
 70
     1
102
RTVSPropertyOp24
 70
     1
102
RTVSPropertyOp25
 70
     1
102
RTVSPropertyOp26
 70
     1
102
RTVSPropertyOp27
 70
     1
102
RTVSPropertyOp28
 70
     1
102
RTVSPropertyOp29
 70
     1
102
RTVSPropertyOp30
 70
     1
102
RTVSPropertyOp31
 70
     1
102
RTVSPropertyOp32
 70
     1
102
RTVSPropertyOp33
 70
     1
102
RTVSPropertyOp34
 70
     1
102
RTVSPropertyOp35
 70
     1
102
RTVSPropertyOp36
 70
     1
102
RTVSPropertyOp37
 70
     1
102
RTVSPropertyOp38
 70
     1
102
RTVSPropertyOp39
 70
     1
102
RTVSPropertyOp40
 70
     1
102
RTVSPropertyOp41
 70
     1
102
RTVSPropertyOp42
 70
     1
102
RTVSPropertyOp43
 70
     1
102
RTVSPropertyOp44
 70
     1
102
RTVSPropertyOp45
 70
     1
102
RTVSPropertyOp46
 70
     1
102
RTVSPropertyOp47
 70
     1
102
RTVSPropertyOp48
 70
     1
102
RTVSPropertyOp49
 70
     1
102
RTVSPropertyOp50
 70
     1
102
RTVSPropertyOp51
 70
     0
102
RTVSPropertyOp52
 70
     0
102
RTVSPropertyOp53
 70
     1
102
RTVSPropertyOp54
 70
     1
102
RTVSPropertyOp55
 70
     1
102
RTVSPropertyOp56
 70
     1
102
RTVSPropertyOp57
 70
     1
102
RTVSPost2010Prop28
280
     0
102
RTVSPost2010PropOp28
 70
     1
102
RTVSPost2010Prop29
280
     1
102
RTVSPost2010PropOp29
 70
     1
102
RTVSPost2010Prop30
280
     1
102
RTVSPost2010PropOp30
 70
     1
102
RTVSPost2010Prop31
280
     0
102
RTVSPost2010PropOp31
 70
     1
102
RTVSPost2010Prop32
280
     0
102
RTVSPost2010PropOp32
 70
     1
102
RTVSPost2010Prop33
280
     0
102
RTVSPost2010PropOp33
 70
     1
102
RTVSPost2010Prop34
280
     0
102
RTVSPost2010PropOp34
 70
     1
102
RTVSPost2010Prop35
280
     0
102
RTVSPost2010PropOp35
 70
     1
102
RTVSPost2010Prop36
280
     0
102
RTVSPost2010PropOp36
 70
     1
102
RTVSPost2010Prop37
 90
       50
102
RTVSPost2010PropOp37
 70
     1
102
RTVSPost2010Prop38
140
0.0
102
RTVSPost2010PropOp38
 70
     1
102
RTVSPost2010Prop39
140
1.0
102
RTVSPost2010PropOp39
 70
     1
102
RTVSPost2010Prop40
 90
        0
102
RTVSPost2010PropOp40
 70
     1
102
RTVSPost2010Prop41ColorIndex
 90
       18
102
RTVSPost2010Prop41ColorRGB
 90
        0
102
RTVSPost2010PropOp41
 70
     1
102
RTVSPost2010Prop42
 90
       50
102
RTVSPost2010PropOp42
 70
     1
102
RTVSPost2010Prop43
 90
        3
102
RTVSPost2010PropOp43
 70
     1
102
RTVSPost2010Prop44ColorIndex
 90
        5
102
RTVSPost2010Prop44ColorRGB
 90
      255
102
RTVSPost2010PropOp44
 70
     1
102
RTVSPost2010Prop45
280
     0
102
RTVSPost2010PropOp45
 70
     1
102
RTVSPost2010Prop46
 90
       50
102
RTVSPost2010PropOp46
 70
     1
102
RTVSPost2010Prop47
 90
       50
102
RTVSPost2010PropOp47
 70
     1
102
RTVSPost2010Prop48
 90
       50
102
RTVSPost2010PropOp48
 70
     1
102
RTVSPost2010Prop49
280
     0
102
RTVSPost2010PropOp49
 70
     1
102
RTVSPost2010Prop50
 90
       50
102
RTVSPost2010PropOp50
 70
     1
102
RTVSPost2010Prop51ColorIndex
 90
      256
102
RTVSPost2010Prop51ColorRGB
 90
-16777216
102
RTVSPost2010PropOp51
 70
     0
102
RTVSPost2010Prop52
140
1.0
102
RTVSPost2010PropOp52
 70
     0
102
RTVSPost2010Prop53
 90
        2
102
RTVSPost2010PropOp53
 70
     1
102
RTVSPost2010Prop54
  1
strokes_ogs.tif
102
RTVSPost2010PropOp54
 70
     1
102
RTVSPost2010Prop55
280
     0
102
RTVSPost2010PropOp55
 70
     1
102
RTVSPost2010Prop56
140
1.0
102
RTVSPost2010PropOp56
 70
     1
102
RTVSPost2010Prop57
140
1.0
102
RTVSPost2010PropOp57
 70
     1
  0
XRECORD
  5
181
102
{ACAD_REACTORS
330
180
102
}
330
180
100
AcDbXrecord
280
     1
102
RTVSPropertyOp0
 70
     1
102
RTVSPropertyOp1
 70
     1
102
RTVSPropertyOp2
 70
     1
102
RTVSPropertyOp3
 70
     1
102
RTVSPropertyOp4
 70
     1
102
RTVSPropertyOp5
 70
     1
102
RTVSPropertyOp6
 70
     1
102
RTVSPropertyOp7
 70
     1
102
RTVSPropertyOp8
 70
     1
102
RTVSPropertyOp9
 70
     1
102
RTVSPropertyOp10
 70
     1
102
RTVSPropertyOp11
 70
     1
102
RTVSPropertyOp12
 70
     1
102
RTVSPropertyOp13
 70
     1
102
RTVSPropertyOp14
 70
     1
102
RTVSPropertyOp15
 70
     1
102
RTVSPropertyOp16
 70
     1
102
RTVSPropertyOp17
 70
     1
102
RTVSPropertyOp18
 70
     1
102
RTVSPropertyOp19
 70
     1
102
RTVSPropertyOp20
 70
     1
102
RTVSPropertyOp21
 70
     1
102
RTVSPropertyOp22
 70
     1
102
RTVSPropertyOp23
 70
     1
102
RTVSPropertyOp24
 70
     1
102
RTVSPropertyOp25
 70
     1
102
RTVSPropertyOp26
 70
     1
102
RTVSPropertyOp27
 70
     1
102
RTVSPropertyOp28
 70
     1
102
RTVSPropertyOp29
 70
     1
102
RTVSPropertyOp30
 70
     1
102
RTVSPropertyOp31
 70
     1
102
RTVSPropertyOp32
 70
     1
102
RTVSPropertyOp33
 70
     1
102
RTVSPropertyOp34
 70
     1
102
RTVSPropertyOp35
 70
     1
102
RTVSPropertyOp36
 70
     1
102
RTVSPropertyOp37
 70
     1
102
RTVSPropertyOp38
 70
     1
102
RTVSPropertyOp39
 70
     1
102
RTVSPropertyOp40
 70
     1
102
RTVSPropertyOp41
 70
     1
102
RTVSPropertyOp42
 70
     1
102
RTVSPropertyOp43
 70
     1
102
RTVSPropertyOp44
 70
     1
102
RTVSPropertyOp45
 70
     1
102
RTVSPropertyOp46
 70
     1
102
RTVSPropertyOp47
 70
     1
102
RTVSPropertyOp48
 70
     1
102
RTVSPropertyOp49
 70
     1
102
RTVSPropertyOp50
 70
     1
102
RTVSPropertyOp51
 70
     0
102
RTVSPropertyOp52
 70
     0
102
RTVSPropertyOp53
 70
     1
102
RTVSPropertyOp54
 70
     1
102
RTVSPropertyOp55
 70
     1
102
RTVSPropertyOp56
 70
     1
102
RTVSPropertyOp57
 70
     1
102
RTVSPost2010Prop28
280
     0
102
RTVSPost2010PropOp28
 70
     1
102
RTVSPost2010Prop29
280
     1
102
RTVSPost2010PropOp29
 70
     1
102
RTVSPost2010Prop30
280
     1
102
RTVSPost2010PropOp30
 70
     1
102
RTVSPost2010Prop31
280
     0
102
RTVSPost2010PropOp31
 70
     1
102
RTVSPost2010Prop32
280
     0
102
RTVSPost2010PropOp32
 70
     1
102
RTVSPost2010Prop33
280
     0
102
RTVSPost2010PropOp33
 70
     1
102
RTVSPost2010Prop34
280
     0
102
RTVSPost2010PropOp34
 70
     1
102
RTVSPost2010Prop35
280
     0
102
RTVSPost2010PropOp35
 70
     1
102
RTVSPost2010Prop36
280
     0
102
RTVSPost2010PropOp36
 70
     1
102
RTVSPost2010Prop37
 90
       50
102
RTVSPost2010PropOp37
 70
     1
102
RTVSPost2010Prop38
140
0.0
102
RTVSPost2010PropOp38
 70
     1
102
RTVSPost2010Prop39
140
1.0
102
RTVSPost2010PropOp39
 70
     1
102
RTVSPost2010Prop40
 90
        0
102
RTVSPost2010PropOp40
 70
     1
102
RTVSPost2010Prop41ColorIndex
 90
       18
102
RTVSPost2010Prop41ColorRGB
 90
        0
102
RTVSPost2010PropOp41
 70
     1
102
RTVSPost2010Prop42
 90
       50
102
RTVSPost2010PropOp42
 70
     1
102
RTVSPost2010Prop43
 90
        3
102
RTVSPost2010PropOp43
 70
     1
102
RTVSPost2010Prop44ColorIndex
 90
        5
102
RTVSPost2010Prop44ColorRGB
 90
      255
102
RTVSPost2010PropOp44
 70
     1
102
RTVSPost2010Prop45
280
     0
102
RTVSPost2010PropOp45
 70
     1
102
RTVSPost2010Prop46
 90
       50
102
RTVSPost2010PropOp46
 70
     1
102
RTVSPost2010Prop47
 90
       50
102
RTVSPost2010PropOp47
 70
     1
102
RTVSPost2010Prop48
 90
       50
102
RTVSPost2010PropOp48
 70
     1
102
RTVSPost2010Prop49
280
     0
102
RTVSPost2010PropOp49
 70
     1
102
RTVSPost2010Prop50
 90
       50
102
RTVSPost2010PropOp50
 70
     1
102
RTVSPost2010Prop51ColorIndex
 90
      256
102
RTVSPost2010Prop51ColorRGB
 90
-16777216
102
RTVSPost2010PropOp51
 70
     0
102
RTVSPost2010Prop52
140
1.0
102
RTVSPost2010PropOp52
 70
     0
102
RTVSPost2010Prop53
 90
        2
102
RTVSPost2010PropOp53
 70
     1
102
RTVSPost2010Prop54
  1
strokes_ogs.tif
102
RTVSPost2010PropOp54
 70
     1
102
RTVSPost2010Prop55
280
     0
102
RTVSPost2010PropOp55
 70
     1
102
RTVSPost2010Prop56
140
1.0
102
RTVSPost2010PropOp56
 70
     1
102
RTVSPost2010Prop57
140
1.0
102
RTVSPost2010PropOp57
 70
     1
  0
XRECORD
  5
17B
102
{ACAD_REACTORS
330
17A
102
}
330
17A
100
AcDbXrecord
280
     1
102
RTVSPropertyOp0
 70
     1
102
RTVSPropertyOp1
 70
     1
102
RTVSPropertyOp2
 70
     1
102
RTVSPropertyOp3
 70
     1
102
RTVSPropertyOp4
 70
     1
102
RTVSPropertyOp5
 70
     1
102
RTVSPropertyOp6
 70
     1
102
RTVSPropertyOp7
 70
     1
102
RTVSPropertyOp8
 70
     1
102
RTVSPropertyOp9
 70
     1
102
RTVSPropertyOp10
 70
     1
102
RTVSPropertyOp11
 70
     1
102
RTVSPropertyOp12
 70
     1
102
RTVSPropertyOp13
 70
     1
102
RTVSPropertyOp14
 70
     1
102
RTVSPropertyOp15
 70
     1
102
RTVSPropertyOp16
 70
     1
102
RTVSPropertyOp17
 70
     1
102
RTVSPropertyOp18
 70
     1
102
RTVSPropertyOp19
 70
     1
102
RTVSPropertyOp20
 70
     1
102
RTVSPropertyOp21
 70
     1
102
RTVSPropertyOp22
 70
     1
102
RTVSPropertyOp23
 70
     1
102
RTVSPropertyOp24
 70
     1
102
RTVSPropertyOp25
 70
     1
102
RTVSPropertyOp26
 70
     1
102
RTVSPropertyOp27
 70
     1
102
RTVSPropertyOp28
 70
     1
102
RTVSPropertyOp29
 70
     1
102
RTVSPropertyOp30
 70
     1
102
RTVSPropertyOp31
 70
     1
102
RTVSPropertyOp32
 70
     1
102
RTVSPropertyOp33
 70
     1
102
RTVSPropertyOp34
 70
     1
102
RTVSPropertyOp35
 70
     1
102
RTVSPropertyOp36
 70
     1
102
RTVSPropertyOp37
 70
     1
102
RTVSPropertyOp38
 70
     1
102
RTVSPropertyOp39
 70
     1
102
RTVSPropertyOp40
 70
     1
102
RTVSPropertyOp41
 70
     1
102
RTVSPropertyOp42
 70
     1
102
RTVSPropertyOp43
 70
     1
102
RTVSPropertyOp44
 70
     1
102
RTVSPropertyOp45
 70
     1
102
RTVSPropertyOp46
 70
     1
102
RTVSPropertyOp47
 70
     1
102
RTVSPropertyOp48
 70
     1
102
RTVSPropertyOp49
 70
     1
102
RTVSPropertyOp50
 70
     1
102
RTVSPropertyOp51
 70
     0
102
RTVSPropertyOp52
 70
     0
102
RTVSPropertyOp53
 70
     1
102
RTVSPropertyOp54
 70
     1
102
RTVSPropertyOp55
 70
     1
102
RTVSPropertyOp56
 70
     1
102
RTVSPropertyOp57
 70
     1
102
RTVSPost2010Prop28
280
     0
102
RTVSPost2010PropOp28
 70
     1
102
RTVSPost2010Prop29
280
     1
102
RTVSPost2010PropOp29
 70
     1
102
RTVSPost2010Prop30
280
     1
102
RTVSPost2010PropOp30
 70
     1
102
RTVSPost2010Prop31
280
     0
102
RTVSPost2010PropOp31
 70
     1
102
RTVSPost2010Prop32
280
     0
102
RTVSPost2010PropOp32
 70
     1
102
RTVSPost2010Prop33
280
     0
102
RTVSPost2010PropOp33
 70
     1
102
RTVSPost2010Prop34
280
     0
102
RTVSPost2010PropOp34
 70
     1
102
RTVSPost2010Prop35
280
     0
102
RTVSPost2010PropOp35
 70
     1
102
RTVSPost2010Prop36
280
     0
102
RTVSPost2010PropOp36
 70
     1
102
RTVSPost2010Prop37
 90
       50
102
RTVSPost2010PropOp37
 70
     1
102
RTVSPost2010Prop38
140
0.0
102
RTVSPost2010PropOp38
 70
     1
102
RTVSPost2010Prop39
140
1.0
102
RTVSPost2010PropOp39
 70
     1
102
RTVSPost2010Prop40
 90
        0
102
RTVSPost2010PropOp40
 70
     1
102
RTVSPost2010Prop41ColorIndex
 90
       18
102
RTVSPost2010Prop41ColorRGB
 90
        0
102
RTVSPost2010PropOp41
 70
     1
102
RTVSPost2010Prop42
 90
       50
102
RTVSPost2010PropOp42
 70
     1
102
RTVSPost2010Prop43
 90
        3
102
RTVSPost2010PropOp43
 70
     1
102
RTVSPost2010Prop44ColorIndex
 90
        5
102
RTVSPost2010Prop44ColorRGB
 90
      255
102
RTVSPost2010PropOp44
 70
     1
102
RTVSPost2010Prop45
280
     0
102
RTVSPost2010PropOp45
 70
     1
102
RTVSPost2010Prop46
 90
       50
102
RTVSPost2010PropOp46
 70
     1
102
RTVSPost2010Prop47
 90
       50
102
RTVSPost2010PropOp47
 70
     1
102
RTVSPost2010Prop48
 90
       50
102
RTVSPost2010PropOp48
 70
     1
102
RTVSPost2010Prop49
280
     0
102
RTVSPost2010PropOp49
 70
     1
102
RTVSPost2010Prop50
 90
       50
102
RTVSPost2010PropOp50
 70
     1
102
RTVSPost2010Prop51ColorIndex
 90
      256
102
RTVSPost2010Prop51ColorRGB
 90
-16777216
102
RTVSPost2010PropOp51
 70
     0
102
RTVSPost2010Prop52
140
1.0
102
RTVSPost2010PropOp52
 70
     0
102
RTVSPost2010Prop53
 90
        2
102
RTVSPost2010PropOp53
 70
     1
102
RTVSPost2010Prop54
  1
strokes_ogs.tif
102
RTVSPost2010PropOp54
 70
     1
102
RTVSPost2010Prop55
280
     0
102
RTVSPost2010PropOp55
 70
     1
102
RTVSPost2010Prop56
140
1.0
102
RTVSPost2010PropOp56
 70
     1
102
RTVSPost2010Prop57
140
1.0
102
RTVSPost2010PropOp57
 70
     1
  0
XRECORD
  5
17D
102
{ACAD_REACTORS
330
17C
102
}
330
17C
100
AcDbXrecord
280
     1
102
RTVSPropertyOp0
 70
     1
102
RTVSPropertyOp1
 70
     1
102
RTVSPropertyOp2
 70
     1
102
RTVSPropertyOp3
 70
     1
102
RTVSPropertyOp4
 70
     1
102
RTVSPropertyOp5
 70
     1
102
RTVSPropertyOp6
 70
     1
102
RTVSPropertyOp7
 70
     1
102
RTVSPropertyOp8
 70
     1
102
RTVSPropertyOp9
 70
     1
102
RTVSPropertyOp10
 70
     1
102
RTVSPropertyOp11
 70
     1
102
RTVSPropertyOp12
 70
     1
102
RTVSPropertyOp13
 70
     1
102
RTVSPropertyOp14
 70
     1
102
RTVSPropertyOp15
 70
     1
102
RTVSPropertyOp16
 70
     1
102
RTVSPropertyOp17
 70
     1
102
RTVSPropertyOp18
 70
     1
102
RTVSPropertyOp19
 70
     1
102
RTVSPropertyOp20
 70
     1
102
RTVSPropertyOp21
 70
     1
102
RTVSPropertyOp22
 70
     1
102
RTVSPropertyOp23
 70
     1
102
RTVSPropertyOp24
 70
     1
102
RTVSPropertyOp25
 70
     1
102
RTVSPropertyOp26
 70
     1
102
RTVSPropertyOp27
 70
     1
102
RTVSPropertyOp28
 70
     1
102
RTVSPropertyOp29
 70
     1
102
RTVSPropertyOp30
 70
     1
102
RTVSPropertyOp31
 70
     1
102
RTVSPropertyOp32
 70
     1
102
RTVSPropertyOp33
 70
     1
102
RTVSPropertyOp34
 70
     1
102
RTVSPropertyOp35
 70
     1
102
RTVSPropertyOp36
 70
     1
102
RTVSPropertyOp37
 70
     1
102
RTVSPropertyOp38
 70
     1
102
RTVSPropertyOp39
 70
     1
102
RTVSPropertyOp40
 70
     1
102
RTVSPropertyOp41
 70
     1
102
RTVSPropertyOp42
 70
     1
102
RTVSPropertyOp43
 70
     1
102
RTVSPropertyOp44
 70
     1
102
RTVSPropertyOp45
 70
     1
102
RTVSPropertyOp46
 70
     1
102
RTVSPropertyOp47
 70
     1
102
RTVSPropertyOp48
 70
     1
102
RTVSPropertyOp49
 70
     1
102
RTVSPropertyOp50
 70
     1
102
RTVSPropertyOp51
 70
     0
102
RTVSPropertyOp52
 70
     0
102
RTVSPropertyOp53
 70
     1
102
RTVSPropertyOp54
 70
     1
102
RTVSPropertyOp55
 70
     1
102
RTVSPropertyOp56
 70
     1
102
RTVSPropertyOp57
 70
     1
102
RTVSPost2010Prop28
280
     0
102
RTVSPost2010PropOp28
 70
     1
102
RTVSPost2010Prop29
280
     1
102
RTVSPost2010PropOp29
 70
     1
102
RTVSPost2010Prop30
280
     1
102
RTVSPost2010PropOp30
 70
     1
102
RTVSPost2010Prop31
280
     0
102
RTVSPost2010PropOp31
 70
     1
102
RTVSPost2010Prop32
280
     0
102
RTVSPost2010PropOp32
 70
     1
102
RTVSPost2010Prop33
280
     0
102
RTVSPost2010PropOp33
 70
     1
102
RTVSPost2010Prop34
280
     0
102
RTVSPost2010PropOp34
 70
     1
102
RTVSPost2010Prop35
280
     0
102
RTVSPost2010PropOp35
 70
     1
102
RTVSPost2010Prop36
280
     0
102
RTVSPost2010PropOp36
 70
     1
102
RTVSPost2010Prop37
 90
       50
102
RTVSPost2010PropOp37
 70
     1
102
RTVSPost2010Prop38
140
0.0
102
RTVSPost2010PropOp38
 70
     1
102
RTVSPost2010Prop39
140
1.0
102
RTVSPost2010PropOp39
 70
     1
102
RTVSPost2010Prop40
 90
        0
102
RTVSPost2010PropOp40
 70
     1
102
RTVSPost2010Prop41ColorIndex
 90
       18
102
RTVSPost2010Prop41ColorRGB
 90
        0
102
RTVSPost2010PropOp41
 70
     1
102
RTVSPost2010Prop42
 90
       50
102
RTVSPost2010PropOp42
 70
     1
102
RTVSPost2010Prop43
 90
        3
102
RTVSPost2010PropOp43
 70
     1
102
RTVSPost2010Prop44ColorIndex
 90
        5
102
RTVSPost2010Prop44ColorRGB
 90
      255
102
RTVSPost2010PropOp44
 70
     1
102
RTVSPost2010Prop45
280
     0
102
RTVSPost2010PropOp45
 70
     1
102
RTVSPost2010Prop46
 90
       50
102
RTVSPost2010PropOp46
 70
     1
102
RTVSPost2010Prop47
 90
       50
102
RTVSPost2010PropOp47
 70
     1
102
RTVSPost2010Prop48
 90
       50
102
RTVSPost2010PropOp48
 70
     1
102
RTVSPost2010Prop49
280
     0
102
RTVSPost2010PropOp49
 70
     1
102
RTVSPost2010Prop50
 90
       50
102
RTVSPost2010PropOp50
 70
     1
102
RTVSPost2010Prop51ColorIndex
 90
      256
102
RTVSPost2010Prop51ColorRGB
 90
-16777216
102
RTVSPost2010PropOp51
 70
     0
102
RTVSPost2010Prop52
140
1.0
102
RTVSPost2010PropOp52
 70
     0
102
RTVSPost2010Prop53
 90
        2
102
RTVSPost2010PropOp53
 70
     1
102
RTVSPost2010Prop54
  1
strokes_ogs.tif
102
RTVSPost2010PropOp54
 70
     1
102
RTVSPost2010Prop55
280
     0
102
RTVSPost2010PropOp55
 70
     1
102
RTVSPost2010Prop56
140
1.0
102
RTVSPost2010PropOp56
 70
     1
102
RTVSPost2010Prop57
140
1.0
102
RTVSPost2010PropOp57
 70
     1
  0
XRECORD
  5
16D
102
{ACAD_REACTORS
330
16C
102
}
330
16C
100
AcDbXrecord
280
     1
102
RTVSPropertyOp0
 70
     1
102
RTVSPropertyOp1
 70
     1
102
RTVSPropertyOp2
 70
     1
102
RTVSPropertyOp3
 70
     1
102
RTVSPropertyOp4
 70
     1
102
RTVSPropertyOp5
 70
     1
102
RTVSPropertyOp6
 70
     1
102
RTVSPropertyOp7
 70
     1
102
RTVSPropertyOp8
 70
     1
102
RTVSPropertyOp9
 70
     1
102
RTVSPropertyOp10
 70
     1
102
RTVSPropertyOp11
 70
     1
102
RTVSPropertyOp12
 70
     1
102
RTVSPropertyOp13
 70
     1
102
RTVSPropertyOp14
 70
     1
102
RTVSPropertyOp15
 70
     1
102
RTVSPropertyOp16
 70
     1
102
RTVSPropertyOp17
 70
     1
102
RTVSPropertyOp18
 70
     1
102
RTVSPropertyOp19
 70
     1
102
RTVSPropertyOp20
 70
     1
102
RTVSPropertyOp21
 70
     1
102
RTVSPropertyOp22
 70
     1
102
RTVSPropertyOp23
 70
     1
102
RTVSPropertyOp24
 70
     1
102
RTVSPropertyOp25
 70
     1
102
RTVSPropertyOp26
 70
     1
102
RTVSPropertyOp27
 70
     1
102
RTVSPropertyOp28
 70
     1
102
RTVSPropertyOp29
 70
     1
102
RTVSPropertyOp30
 70
     1
102
RTVSPropertyOp31
 70
     1
102
RTVSPropertyOp32
 70
     1
102
RTVSPropertyOp33
 70
     1
102
RTVSPropertyOp34
 70
     1
102
RTVSPropertyOp35
 70
     1
102
RTVSPropertyOp36
 70
     1
102
RTVSPropertyOp37
 70
     1
102
RTVSPropertyOp38
 70
     1
102
RTVSPropertyOp39
 70
     1
102
RTVSPropertyOp40
 70
     1
102
RTVSPropertyOp41
 70
     1
102
RTVSPropertyOp42
 70
     1
102
RTVSPropertyOp43
 70
     1
102
RTVSPropertyOp44
 70
     1
102
RTVSPropertyOp45
 70
     1
102
RTVSPropertyOp46
 70
     1
102
RTVSPropertyOp47
 70
     1
102
RTVSPropertyOp48
 70
     1
102
RTVSPropertyOp49
 70
     1
102
RTVSPropertyOp50
 70
     1
102
RTVSPropertyOp51
 70
     0
102
RTVSPropertyOp52
 70
     0
102
RTVSPropertyOp53
 70
     1
102
RTVSPropertyOp54
 70
     1
102
RTVSPropertyOp55
 70
     1
102
RTVSPropertyOp56
 70
     1
102
RTVSPropertyOp57
 70
     1
102
RTVSPost2010Prop28
280
     0
102
RTVSPost2010PropOp28
 70
     1
102
RTVSPost2010Prop29
280
     1
102
RTVSPost2010PropOp29
 70
     1
102
RTVSPost2010Prop30
280
     1
102
RTVSPost2010PropOp30
 70
     1
102
RTVSPost2010Prop31
280
     0
102
RTVSPost2010PropOp31
 70
     1
102
RTVSPost2010Prop32
280
     0
102
RTVSPost2010PropOp32
 70
     1
102
RTVSPost2010Prop33
280
     0
102
RTVSPost2010PropOp33
 70
     1
102
RTVSPost2010Prop34
280
     0
102
RTVSPost2010PropOp34
 70
     1
102
RTVSPost2010Prop35
280
     0
102
RTVSPost2010PropOp35
 70
     1
102
RTVSPost2010Prop36
280
     0
102
RTVSPost2010PropOp36
 70
     1
102
RTVSPost2010Prop37
 90
       50
102
RTVSPost2010PropOp37
 70
     1
102
RTVSPost2010Prop38
140
0.0
102
RTVSPost2010PropOp38
 70
     1
102
RTVSPost2010Prop39
140
1.0
102
RTVSPost2010PropOp39
 70
     1
102
RTVSPost2010Prop40
 90
        0
102
RTVSPost2010PropOp40
 70
     1
102
RTVSPost2010Prop41ColorIndex
 90
       18
102
RTVSPost2010Prop41ColorRGB
 90
        0
102
RTVSPost2010PropOp41
 70
     1
102
RTVSPost2010Prop42
 90
       50
102
RTVSPost2010PropOp42
 70
     1
102
RTVSPost2010Prop43
 90
        3
102
RTVSPost2010PropOp43
 70
     1
102
RTVSPost2010Prop44ColorIndex
 90
        5
102
RTVSPost2010Prop44ColorRGB
 90
      255
102
RTVSPost2010PropOp44
 70
     1
102
RTVSPost2010Prop45
280
     0
102
RTVSPost2010PropOp45
 70
     1
102
RTVSPost2010Prop46
 90
       50
102
RTVSPost2010PropOp46
 70
     1
102
RTVSPost2010Prop47
 90
       50
102
RTVSPost2010PropOp47
 70
     1
102
RTVSPost2010Prop48
 90
       50
102
RTVSPost2010PropOp48
 70
     1
102
RTVSPost2010Prop49
280
     0
102
RTVSPost2010PropOp49
 70
     1
102
RTVSPost2010Prop50
 90
       50
102
RTVSPost2010PropOp50
 70
     1
102
RTVSPost2010Prop51ColorIndex
 90
      256
102
RTVSPost2010Prop51ColorRGB
 90
-16777216
102
RTVSPost2010PropOp51
 70
     0
102
RTVSPost2010Prop52
140
1.0
102
RTVSPost2010PropOp52
 70
     0
102
RTVSPost2010Prop53
 90
        2
102
RTVSPost2010PropOp53
 70
     1
102
RTVSPost2010Prop54
  1
strokes_ogs.tif
102
RTVSPost2010PropOp54
 70
     1
102
RTVSPost2010Prop55
280
     0
102
RTVSPost2010PropOp55
 70
     1
102
RTVSPost2010Prop56
140
1.0
102
RTVSPost2010PropOp56
 70
     1
102
RTVSPost2010Prop57
140
1.0
102
RTVSPost2010PropOp57
 70
     1
  0
XRECORD
  5
15F
102
{ACAD_REACTORS
330
15E
102
}
330
15E
100
AcDbXrecord
280
     1
102
RTVSPropertyOp0
 70
     1
102
RTVSPropertyOp1
 70
     1
102
RTVSPropertyOp2
 70
     1
102
RTVSPropertyOp3
 70
     1
102
RTVSPropertyOp4
 70
     1
102
RTVSPropertyOp5
 70
     1
102
RTVSPropertyOp6
 70
     1
102
RTVSPropertyOp7
 70
     1
102
RTVSPropertyOp8
 70
     1
102
RTVSPropertyOp9
 70
     1
102
RTVSPropertyOp10
 70
     1
102
RTVSPropertyOp11
 70
     1
102
RTVSPropertyOp12
 70
     1
102
RTVSPropertyOp13
 70
     1
102
RTVSPropertyOp14
 70
     1
102
RTVSPropertyOp15
 70
     1
102
RTVSPropertyOp16
 70
     1
102
RTVSPropertyOp17
 70
     1
102
RTVSPropertyOp18
 70
     1
102
RTVSPropertyOp19
 70
     1
102
RTVSPropertyOp20
 70
     1
102
RTVSPropertyOp21
 70
     1
102
RTVSPropertyOp22
 70
     1
102
RTVSPropertyOp23
 70
     1
102
RTVSPropertyOp24
 70
     1
102
RTVSPropertyOp25
 70
     1
102
RTVSPropertyOp26
 70
     1
102
RTVSPropertyOp27
 70
     1
102
RTVSPropertyOp28
 70
     1
102
RTVSPropertyOp29
 70
     1
102
RTVSPropertyOp30
 70
     1
102
RTVSPropertyOp31
 70
     1
102
RTVSPropertyOp32
 70
     1
102
RTVSPropertyOp33
 70
     1
102
RTVSPropertyOp34
 70
     1
102
RTVSPropertyOp35
 70
     1
102
RTVSPropertyOp36
 70
     1
102
RTVSPropertyOp37
 70
     1
102
RTVSPropertyOp38
 70
     1
102
RTVSPropertyOp39
 70
     1
102
RTVSPropertyOp40
 70
     1
102
RTVSPropertyOp41
 70
     1
102
RTVSPropertyOp42
 70
     1
102
RTVSPropertyOp43
 70
     1
102
RTVSPropertyOp44
 70
     1
102
RTVSPropertyOp45
 70
     1
102
RTVSPropertyOp46
 70
     1
102
RTVSPropertyOp47
 70
     1
102
RTVSPropertyOp48
 70
     1
102
RTVSPropertyOp49
 70
     1
102
RTVSPropertyOp50
 70
     1
102
RTVSPropertyOp51
 70
     0
102
RTVSPropertyOp52
 70
     0
102
RTVSPropertyOp53
 70
     1
102
RTVSPropertyOp54
 70
     1
102
RTVSPropertyOp55
 70
     1
102
RTVSPropertyOp56
 70
     1
102
RTVSPropertyOp57
 70
     1
102
RTVSPost2010Prop28
280
     0
102
RTVSPost2010PropOp28
 70
     1
102
RTVSPost2010Prop29
280
     1
102
RTVSPost2010PropOp29
 70
     1
102
RTVSPost2010Prop30
280
     1
102
RTVSPost2010PropOp30
 70
     1
102
RTVSPost2010Prop31
280
     0
102
RTVSPost2010PropOp31
 70
     1
102
RTVSPost2010Prop32
280
     0
102
RTVSPost2010PropOp32
 70
     1
102
RTVSPost2010Prop33
280
     0
102
RTVSPost2010PropOp33
 70
     1
102
RTVSPost2010Prop34
280
     0
102
RTVSPost2010PropOp34
 70
     1
102
RTVSPost2010Prop35
280
     0
102
RTVSPost2010PropOp35
 70
     1
102
RTVSPost2010Prop36
280
     0
102
RTVSPost2010PropOp36
 70
     1
102
RTVSPost2010Prop37
 90
       50
102
RTVSPost2010PropOp37
 70
     1
102
RTVSPost2010Prop38
140
0.0
102
RTVSPost2010PropOp38
 70
     1
102
RTVSPost2010Prop39
140
1.0
102
RTVSPost2010PropOp39
 70
     1
102
RTVSPost2010Prop40
 90
        0
102
RTVSPost2010PropOp40
 70
     1
102
RTVSPost2010Prop41ColorIndex
 90
       18
102
RTVSPost2010Prop41ColorRGB
 90
        0
102
RTVSPost2010PropOp41
 70
     1
102
RTVSPost2010Prop42
 90
       50
102
RTVSPost2010PropOp42
 70
     1
102
RTVSPost2010Prop43
 90
        3
102
RTVSPost2010PropOp43
 70
     1
102
RTVSPost2010Prop44ColorIndex
 90
        5
102
RTVSPost2010Prop44ColorRGB
 90
      255
102
RTVSPost2010PropOp44
 70
     1
102
RTVSPost2010Prop45
280
     0
102
RTVSPost2010PropOp45
 70
     1
102
RTVSPost2010Prop46
 90
       50
102
RTVSPost2010PropOp46
 70
     1
102
RTVSPost2010Prop47
 90
       50
102
RTVSPost2010PropOp47
 70
     1
102
RTVSPost2010Prop48
 90
       50
102
RTVSPost2010PropOp48
 70
     1
102
RTVSPost2010Prop49
280
     0
102
RTVSPost2010PropOp49
 70
     1
102
RTVSPost2010Prop50
 90
       50
102
RTVSPost2010PropOp50
 70
     1
102
RTVSPost2010Prop51ColorIndex
 90
      256
102
RTVSPost2010Prop51ColorRGB
 90
-16777216
102
RTVSPost2010PropOp51
 70
     0
102
RTVSPost2010Prop52
140
1.0
102
RTVSPost2010PropOp52
 70
     0
102
RTVSPost2010Prop53
 90
        2
102
RTVSPost2010PropOp53
 70
     1
102
RTVSPost2010Prop54
  1
strokes_ogs.tif
102
RTVSPost2010PropOp54
 70
     1
102
RTVSPost2010Prop55
280
     0
102
RTVSPost2010PropOp55
 70
     1
102
RTVSPost2010Prop56
140
1.0
102
RTVSPost2010PropOp56
 70
     1
102
RTVSPost2010Prop57
140
1.0
102
RTVSPost2010PropOp57
 70
     1
  0
XRECORD
  5
17F
102
{ACAD_REACTORS
330
17E
102
}
330
17E
100
AcDbXrecord
280
     1
102
RTVSPropertyOp0
 70
     1
102
RTVSPropertyOp1
 70
     1
102
RTVSPropertyOp2
 70
     1
102
RTVSPropertyOp3
 70
     1
102
RTVSPropertyOp4
 70
     1
102
RTVSPropertyOp5
 70
     1
102
RTVSPropertyOp6
 70
     1
102
RTVSPropertyOp7
 70
     1
102
RTVSPropertyOp8
 70
     1
102
RTVSPropertyOp9
 70
     1
102
RTVSPropertyOp10
 70
     1
102
RTVSPropertyOp11
 70
     1
102
RTVSPropertyOp12
 70
     1
102
RTVSPropertyOp13
 70
     1
102
RTVSPropertyOp14
 70
     1
102
RTVSPropertyOp15
 70
     1
102
RTVSPropertyOp16
 70
     1
102
RTVSPropertyOp17
 70
     1
102
RTVSPropertyOp18
 70
     1
102
RTVSPropertyOp19
 70
     1
102
RTVSPropertyOp20
 70
     1
102
RTVSPropertyOp21
 70
     1
102
RTVSPropertyOp22
 70
     1
102
RTVSPropertyOp23
 70
     1
102
RTVSPropertyOp24
 70
     1
102
RTVSPropertyOp25
 70
     1
102
RTVSPropertyOp26
 70
     1
102
RTVSPropertyOp27
 70
     1
102
RTVSPropertyOp28
 70
     1
102
RTVSPropertyOp29
 70
     1
102
RTVSPropertyOp30
 70
     1
102
RTVSPropertyOp31
 70
     1
102
RTVSPropertyOp32
 70
     1
102
RTVSPropertyOp33
 70
     1
102
RTVSPropertyOp34
 70
     1
102
RTVSPropertyOp35
 70
     1
102
RTVSPropertyOp36
 70
     1
102
RTVSPropertyOp37
 70
     1
102
RTVSPropertyOp38
 70
     1
102
RTVSPropertyOp39
 70
     1
102
RTVSPropertyOp40
 70
     1
102
RTVSPropertyOp41
 70
     1
102
RTVSPropertyOp42
 70
     1
102
RTVSPropertyOp43
 70
     1
102
RTVSPropertyOp44
 70
     1
102
RTVSPropertyOp45
 70
     1
102
RTVSPropertyOp46
 70
     1
102
RTVSPropertyOp47
 70
     1
102
RTVSPropertyOp48
 70
     1
102
RTVSPropertyOp49
 70
     1
102
RTVSPropertyOp50
 70
     1
102
RTVSPropertyOp51
 70
     0
102
RTVSPropertyOp52
 70
     0
102
RTVSPropertyOp53
 70
     1
102
RTVSPropertyOp54
 70
     1
102
RTVSPropertyOp55
 70
     1
102
RTVSPropertyOp56
 70
     1
102
RTVSPropertyOp57
 70
     1
102
RTVSPost2010Prop28
280
     0
102
RTVSPost2010PropOp28
 70
     1
102
RTVSPost2010Prop29
280
     1
102
RTVSPost2010PropOp29
 70
     1
102
RTVSPost2010Prop30
280
     1
102
RTVSPost2010PropOp30
 70
     1
102
RTVSPost2010Prop31
280
     0
102
RTVSPost2010PropOp31
 70
     1
102
RTVSPost2010Prop32
280
     0
102
RTVSPost2010PropOp32
 70
     1
102
RTVSPost2010Prop33
280
     0
102
RTVSPost2010PropOp33
 70
     1
102
RTVSPost2010Prop34
280
     0
102
RTVSPost2010PropOp34
 70
     1
102
RTVSPost2010Prop35
280
     0
102
RTVSPost2010PropOp35
 70
     1
102
RTVSPost2010Prop36
280
     0
102
RTVSPost2010PropOp36
 70
     1
102
RTVSPost2010Prop37
 90
       50
102
RTVSPost2010PropOp37
 70
     1
102
RTVSPost2010Prop38
140
0.0
102
RTVSPost2010PropOp38
 70
     1
102
RTVSPost2010Prop39
140
1.0
102
RTVSPost2010PropOp39
 70
     1
102
RTVSPost2010Prop40
 90
        0
102
RTVSPost2010PropOp40
 70
     1
102
RTVSPost2010Prop41ColorIndex
 90
       18
102
RTVSPost2010Prop41ColorRGB
 90
        0
102
RTVSPost2010PropOp41
 70
     1
102
RTVSPost2010Prop42
 90
       50
102
RTVSPost2010PropOp42
 70
     1
102
RTVSPost2010Prop43
 90
        3
102
RTVSPost2010PropOp43
 70
     1
102
RTVSPost2010Prop44ColorIndex
 90
        5
102
RTVSPost2010Prop44ColorRGB
 90
      255
102
RTVSPost2010PropOp44
 70
     1
102
RTVSPost2010Prop45
280
     0
102
RTVSPost2010PropOp45
 70
     1
102
RTVSPost2010Prop46
 90
       50
102
RTVSPost2010PropOp46
 70
     1
102
RTVSPost2010Prop47
 90
       50
102
RTVSPost2010PropOp47
 70
     1
102
RTVSPost2010Prop48
 90
       50
102
RTVSPost2010PropOp48
 70
     1
102
RTVSPost2010Prop49
280
     0
102
RTVSPost2010PropOp49
 70
     1
102
RTVSPost2010Prop50
 90
       50
102
RTVSPost2010PropOp50
 70
     1
102
RTVSPost2010Prop51ColorIndex
 90
      256
102
RTVSPost2010Prop51ColorRGB
 90
-16777216
102
RTVSPost2010PropOp51
 70
     0
102
RTVSPost2010Prop52
140
1.0
102
RTVSPost2010PropOp52
 70
     0
102
RTVSPost2010Prop53
 90
        2
102
RTVSPost2010PropOp53
 70
     1
102
RTVSPost2010Prop54
  1
strokes_ogs.tif
102
RTVSPost2010PropOp54
 70
     1
102
RTVSPost2010Prop55
280
     0
102
RTVSPost2010PropOp55
 70
     1
102
RTVSPost2010Prop56
140
1.0
102
RTVSPost2010PropOp56
 70
     1
102
RTVSPost2010Prop57
140
1.0
102
RTVSPost2010PropOp57
 70
     1
  0
ENDSEC
  0
EOF
